  0
SECTION
  2
HEADER
  9
$ACADVER
  1
AC1015
  9
$DWGCODEPAGE
  3
ANSI_1252
  9
$EXTMAX
 10
297.0
 20
210.0
 30
0.0
  9
$EXTMIN
 10
0.0
 20
0.0
 30
0.0
  9
$LIMMIN
 10
0.0
 20
0.0
  9
$LIMMAX
 10
297.0
 20
210.0
  9
$VIEWCTR
 10
148.5
 20
105.0
  9
$VIEWSIZE
 40
210.0
  9
$CLAYER
  8
0
  9
$LTSCALE
 40
16.335
  9
$CELTYPE
  6
BYLAYER
  9
$DIMSCALE
 40
1.0
  9
$DIMASZ
 40
3.0
  9
$DIMEXO
 40
0.5
  9
$DIMDLI
 40
11.286
  9
$DIMEXE
 40
1.5
  9
$DIMCEN
 40
2.673
  9
$DIMLFAC
 40
1.0
  9
$DIMBLK
  1
_FILLED
  9
$DIMTXT
 40
3.0
  9
$DIMTOL
 70
1
  9
$DIMLIM
 70
0
  9
$DIMTFAC
 40
1.0
  9
$DIMTP
 40
0.01
  9
$DIMTM
 40
0.01
  9
$DIMGAP
 40
0.625
  9
$DIMDSEP
 70
44
  9
$PDMODE
 70
3
  9
$PDSIZE
 40
3.0
  9
$HANDSEED
  5
693
  9
$TILEMODE
 70
1
  9
$MEASUREMENT
 70
1
  9
$INSUNITS
 70
4
  0
ENDSEC
  0
SECTION
  2
CLASSES
  0
CLASS
  1
ACDBDICTIONARYWDFLT
  2
AcDbDictionaryWithDefault
  3
AutoCAD 2000
 90
0
280
0
281
0
  0
CLASS
  1
ACDBPLACEHOLDER
  2
AcDbPlaceHolder
  3
AutoCAD 2000
 90
0
280
0
281
0
  0
CLASS
  1
LAYOUT
  2
AcDbLayout
  3
AutoCAD 2000
 90
0
280
0
281
0
  0
ENDSEC
  0
SECTION
  2
TABLES
  0
TABLE
  2
VPORT
  5
8
100
AcDbSymbolTable
 70
2
  0
VPORT
  5
1F4
100
AcDbSymbolTableRecord
100
AcDbViewportTableRecord
  2
*ACTIVE
 70
0
 10
0.0
 20
0.0
 11
1.0
 21
1.0
 12
148.5
 22
105.0
 13
0.0
 23
0.0
 14
1.0
 24
1.0
 15
0.0
 25
0.0
 16
0.0
 26
0.0
 36
1.0
 17
0.0
 27
0.0
 37
0.0
 40
210.0
 41
1.4142857143
 42
50.0
 43
0.0
 44
0.0
 50
0.0
 51
0.0
 71
0
 72
100
 73
1
 74
1
 75
0
 76
0
 77
0
 78
0
  0
ENDTAB
  0
TABLE
  2
LTYPE
  5
5
100
AcDbSymbolTable
 70
6
  0
LTYPE
  5
14
100
AcDbSymbolTableRecord
100
AcDbLinetypeTableRecord
  2
BYBLOCK
 70
0
  3

 72
65
 73
0
 40
0.0
  0
LTYPE
  5
15
100
AcDbSymbolTableRecord
100
AcDbLinetypeTableRecord
  2
BYLAYER
 70
0
  3

 72
65
 73
0
 40
0.0
  0
LTYPE
  5
16
100
AcDbSymbolTableRecord
100
AcDbLinetypeTableRecord
  2
CONTINUOUS
 70
64
  3
Solid line
 72
65
 73
0
 40
0.0
  0
LTYPE
  5
1F5
100
AcDbSymbolTableRecord
100
AcDbLinetypeTableRecord
  2
CENTER
 70
64
  3
____ _ ____ _ ____ _ ____ _ ____ _ ____ _ ____
 72
65
 73
4
 40
0.6
 49
0.375
 74
0
 49
-0.075
 74
0
 49
0.075
 74
0
 49
-0.075
 74
0
  0
LTYPE
  5
1F6
100
AcDbSymbolTableRecord
100
AcDbLinetypeTableRecord
  2
HIDDEN
 70
64
  3
- - - - - - - - - - - - - - - - - - - -
 72
65
 73
2
 40
0.2
 49
0.1
 74
0
 49
-0.1
 74
0
  0
LTYPE
  5
1F7
100
AcDbSymbolTableRecord
100
AcDbLinetypeTableRecord
  2
PHANTOM
 70
64
  3
_____ _ _ _____ _ _ _____ _ _ _____
 72
65
 73
6
 40
0.8
 49
0.45
 74
0
 49
-0.05
 74
0
 49
0.1
 74
0
 49
-0.05
 74
0
 49
0.1
 74
0
 49
-0.05
 74
0
  0
LTYPE
  5
1F8
100
AcDbSymbolTableRecord
100
AcDbLinetypeTableRecord
  2
DOT
 70
64
  3
. . . . . . . . . . . . . . . . . . . .
 72
65
 73
2
 40
0.2
 49
0.1
 74
0
 49
-0.1
 74
0
  0
LTYPE
  5
1F9
100
AcDbSymbolTableRecord
100
AcDbLinetypeTableRecord
  2
DASHED
 70
64
  3
- - - - - - - - - - - - - - - - - - - -
 72
65
 73
2
 40
0.2
 49
0.1
 74
0
 49
-0.1
 74
0
  0
ENDTAB
  0
TABLE
  2
LAYER
  5
2
100
AcDbSymbolTable
 70
36
  0
LAYER
  5
10
100
AcDbSymbolTableRecord
100
AcDbLayerTableRecord
  2
0
 70
0
 62
7
  6
CONTINUOUS
370
-3
390
F
  0
LAYER
  5
1FA
100
AcDbSymbolTableRecord
100
AcDbLayerTableRecord
  2
DEFAULT_1
 70
0
 62
7
  6
CENTER
370
-3
390
F
  0
LAYER
  5
1FB
100
AcDbSymbolTableRecord
100
AcDbLayerTableRecord
  2
DEFAULT_2
 70
0
 62
7
  6
HIDDEN
370
-3
390
F
  0
LAYER
  5
1FC
100
AcDbSymbolTableRecord
100
AcDbLayerTableRecord
  2
DEFAULT_3
 70
0
 62
7
  6
PHANTOM
370
-3
390
F
  0
LAYER
  5
1FD
100
AcDbSymbolTableRecord
100
AcDbLayerTableRecord
  2
ASSI
 70
0
 62
7
  6
CONTINUOUS
370
-3
390
F
  0
LAYER
  5
1FE
100
AcDbSymbolTableRecord
100
AcDbLayerTableRecord
  2
COLOR17
 70
0
 62
7
  6
CONTINUOUS
370
-3
390
F
  0
LAYER
  5
1FF
100
AcDbSymbolTableRecord
100
AcDbLayerTableRecord
  2
COLOR3
 70
0
 62
7
  6
CONTINUOUS
370
-3
390
F
  0
LAYER
  5
200
100
AcDbSymbolTableRecord
100
AcDbLayerTableRecord
  2
COLOR5
 70
0
 62
7
  6
CONTINUOUS
370
-3
390
F
  0
LAYER
  5
201
100
AcDbSymbolTableRecord
100
AcDbLayerTableRecord
  2
COORDINATE
 70
0
 62
7
  6
CONTINUOUS
370
-3
390
F
  0
LAYER
  5
202
100
AcDbSymbolTableRecord
100
AcDbLayerTableRecord
  2
COORD_ORIGINE
 70
0
 62
7
  6
CONTINUOUS
370
-3
390
F
  0
LAYER
  5
203
100
AcDbSymbolTableRecord
100
AcDbLayerTableRecord
  2
COPY_PUBLISH
 70
0
 62
7
  6
CONTINUOUS
370
-3
390
F
  0
LAYER
  5
204
100
AcDbSymbolTableRecord
100
AcDbLayerTableRecord
  2
COSMETICI
 70
0
 62
7
  6
CONTINUOUS
370
-3
390
F
  0
LAYER
  5
205
100
AcDbSymbolTableRecord
100
AcDbLayerTableRecord
  2
CURVE
 70
0
 62
7
  6
CONTINUOUS
370
-3
390
F
  0
LAYER
  5
206
100
AcDbSymbolTableRecord
100
AcDbLayerTableRecord
  2
DRAFT
 70
0
 62
7
  6
CONTINUOUS
370
-3
390
F
  0
LAYER
  5
207
100
AcDbSymbolTableRecord
100
AcDbLayerTableRecord
  2
IMPORT
 70
0
 62
7
  6
CONTINUOUS
370
-3
390
F
  0
LAYER
  5
208
100
AcDbSymbolTableRecord
100
AcDbLayerTableRecord
  2
IMPORT_IGES
 70
0
 62
7
  6
CONTINUOUS
370
-3
390
F
  0
LAYER
  5
209
100
AcDbSymbolTableRecord
100
AcDbLayerTableRecord
  2
INCISIONI_LASER
 70
0
 62
7
  6
CONTINUOUS
370
-3
390
F
  0
LAYER
  5
20A
100
AcDbSymbolTableRecord
100
AcDbLayerTableRecord
  2
LAY0001
 70
0
 62
7
  6
CONTINUOUS
370
-3
390
F
  0
LAYER
  5
20B
100
AcDbSymbolTableRecord
100
AcDbLayerTableRecord
  2
NOTE
 70
0
 62
7
  6
CONTINUOUS
370
-3
390
F
  0
LAYER
  5
20C
100
AcDbSymbolTableRecord
100
AcDbLayerTableRecord
  2
PIANI
 70
0
 62
7
  6
CONTINUOUS
370
-3
390
F
  0
LAYER
  5
20D
100
AcDbSymbolTableRecord
100
AcDbLayerTableRecord
  2
PIANI_ORIGINE
 70
0
 62
7
  6
CONTINUOUS
370
-3
390
F
  0
LAYER
  5
20E
100
AcDbSymbolTableRecord
100
AcDbLayerTableRecord
  2
PIANI_RIFERIMENTO
 70
0
 62
7
  6
CONTINUOUS
370
-3
390
F
  0
LAYER
  5
20F
100
AcDbSymbolTableRecord
100
AcDbLayerTableRecord
  2
PUNTI
 70
0
 62
7
  6
CONTINUOUS
370
-3
390
F
  0
LAYER
  5
210
100
AcDbSymbolTableRecord
100
AcDbLayerTableRecord
  2
RACCORDO
 70
0
 62
7
  6
CONTINUOUS
370
-3
390
F
  0
LAYER
  5
211
100
AcDbSymbolTableRecord
100
AcDbLayerTableRecord
  2
SIMBOLI
 70
0
 62
7
  6
CONTINUOUS
370
-3
390
F
  0
LAYER
  5
212
100
AcDbSymbolTableRecord
100
AcDbLayerTableRecord
  2
SMUSSO
 70
0
 62
7
  6
CONTINUOUS
370
-3
390
F
  0
LAYER
  5
213
100
AcDbSymbolTableRecord
100
AcDbLayerTableRecord
  2
SNAPLINE
 70
0
 62
7
  6
CONTINUOUS
370
-3
390
F
  0
LAYER
  5
214
100
AcDbSymbolTableRecord
100
AcDbLayerTableRecord
  2
SUPERFICI
 70
0
 62
7
  6
CONTINUOUS
370
-3
390
F
  0
LAYER
  5
215
100
AcDbSymbolTableRecord
100
AcDbLayerTableRecord
  2
TRASH
 70
0
 62
7
  6
CONTINUOUS
370
-3
390
F
  0
LAYER
  5
216
100
AcDbSymbolTableRecord
100
AcDbLayerTableRecord
  2
XSEC_DATUMS
 70
0
 62
7
  6
CONTINUOUS
370
-3
390
F
  0
LAYER
  5
217
100
AcDbSymbolTableRecord
100
AcDbLayerTableRecord
  2
___SHELL
 70
0
 62
7
  6
CONTINUOUS
370
-3
390
F
  0
ENDTAB
  0
TABLE
  2
STYLE
  5
3
100
AcDbSymbolTable
 70
1
  0
STYLE
  5
11
100
AcDbSymbolTableRecord
100
AcDbTextStyleTableRecord
  2
STANDARD
 70
0
 40
0.0
 41
0.8
 50
0.0
 71
0
 42
0.2
  3
txt
  4

  0
STYLE
  5
218
100
AcDbSymbolTableRecord
100
AcDbTextStyleTableRecord
  2
TEXTSTYLE_1
 70
0
 40
0.0
 41
0.8
 50
0.0
 71
0
 42
0.2
  3
gdt
  4

  0
ENDTAB
  0
TABLE
  2
VIEW
  5
6
100
AcDbSymbolTable
 70
0
  0
ENDTAB
  0
TABLE
  2
UCS
  5
7
100
AcDbSymbolTable
 70
0
  0
ENDTAB
  0
TABLE
  2
APPID
  5
9
100
AcDbSymbolTable
 70
1
  0
APPID
  5
219
100
AcDbSymbolTableRecord
100
AcDbRegAppTableRecord
  2
ACAD
 70
0
  0
ENDTAB
  0
TABLE
  2
BLOCK_RECORD
  5
1
100
AcDbSymbolTable
 70
0
  0
BLOCK_RECORD
  5
21A
100
AcDbSymbolTableRecord
100
AcDbBlockTableRecord
  2
*Model_Space
  0
BLOCK_RECORD
  5
21B
100
AcDbSymbolTableRecord
100
AcDbBlockTableRecord
  2
*Paper_Space
  0
ENDTAB
  0
TABLE
  2
DIMSTYLE
  5
A
100
AcDbSymbolTable
 70
1
100
AcDbDimStyleTable
 71
0
  0
DIMSTYLE
105
21C
100
AcDbSymbolTableRecord
100
AcDbDimStyleTableRecord
  2
STANDARD
 70
0
  3

  4

 40
1.0
 41
3.0
 42
0.5
 43
0.38
 44
1.5
 45
0.0
 46
0.0
 47
0.01
 48
0.01
140
3.0
141
0.09
142
0.0
143
25.4
144
1.0
145
0.0
146
1.0
147
0.625
 71
1.0
 72
0.0
 73
0
 74
0
 75
0
 76
0
 77
1
 78
8
170
0
171
2
172
0
173
0
174
0
175
0
176
0
177
0
178
0
270
2
271
2
272
2
273
2
274
2
275
0
280
0
281
0
282
0
283
1
284
8
285
0
286
0
287
3
288
0
340
11
278
44
  0
ENDTAB
  0
ENDSEC
  0
SECTION
  2
BLOCKS
  0
BLOCK
  5
20
100
AcDbEntity
  8
0
100
AcDbBlockBegin
  2
*Model_Space
 70
0
 10
0.0
 20
0.0
 30
0.0
  3
*Model_Space
  1

  0
ENDBLK
  5
21
100
AcDbEntity
  8
0
100
AcDbBlockEnd
  0
BLOCK
  5
1C
100
AcDbEntity
  8
0
100
AcDbBlockBegin
  2
*Paper_Space
 70
0
 10
0.0
 20
0.0
 30
0.0
  3
*Paper_Space
  1

  0
ENDBLK
  5
1D
100
AcDbEntity
  8
0
100
AcDbBlockEnd
  0
ENDSEC
  0
SECTION
  2
ENTITIES
  0
LWPOLYLINE
  5
21D
100
AcDbEntity
  8
RACCORDO
100
AcDbPolyline
 62
7
  6
CONTINUOUS
 90
22
 70
0
 10
-14.9332534493
 20
24.281023888
 10
-14.9447804536
 20
24.2747223799
 10
-14.9560056402
 20
24.2677945578
 10
-14.9668863112
 20
24.2602575565
 10
-14.977385563
 20
24.2521284853
 10
-14.9874588833
 20
24.2434347679
 10
-14.99705667
 20
24.2342161023
 10
-15.0061066135
 20
24.2245490075
 10
-15.0146224223
 20
24.2144282806
 10
-15.0226699414
 20
24.2037607761
 10
-15.0302473268
 20
24.1925031631
 10
-15.0372586937
 20
24.1807510619
 10
-15.0436252981
 20
24.168614971
 10
-15.0493112374
 20
24.1561625413
 10
-15.0543083471
 20
24.1434139734
 10
-15.0585993346
 20
24.130413018
 10
-15.062169363
 20
24.1172083439
 10
-15.0650095774
 20
24.1038403809
 10
-15.0671154358
 20
24.0903342223
 10
-15.0684810201
 20
24.0767183136
 10
-15.0690995939
 20
24.0630454014
 10
-15.0691393436
 20
24.0585938423
  0
LINE
  5
21E
100
AcDbEntity
  8
RACCORDO
100
AcDbLine
 62
7
  6
CONTINUOUS
 10
-13.3500817544
 20
25.0932209353
 11
-14.9332534493
 21
24.281023888
  0
LINE
  5
21F
100
AcDbEntity
  8
RACCORDO
100
AcDbLine
 62
253
  6
CONTINUOUS
 10
-13.23741118
 20
25.0865600102
 11
-14.8201677832
 21
24.2745759129
  0
LINE
  5
220
100
AcDbEntity
  8
RACCORDO
100
AcDbLine
 62
7
  6
CONTINUOUS
 10
-13.3483433689
 20
25.0940901681
 11
-13.3500797807
 21
25.0932219478
  0
LINE
  5
221
100
AcDbEntity
  8
RACCORDO
100
AcDbLine
 62
7
  6
CONTINUOUS
 10
-12.8134734125
 20
25.3546422678
 11
-13.3483406033
 21
25.0940915153
  0
LINE
  5
222
100
AcDbEntity
  8
RACCORDO
100
AcDbLine
 62
253
  6
CONTINUOUS
 10
-12.7029613014
 20
25.3469074768
 11
-13.23741118
 21
25.0865600102
  0
LWPOLYLINE
  5
223
100
AcDbEntity
  8
RACCORDO
100
AcDbPolyline
 62
253
  6
CONTINUOUS
 90
3
 70
0
 10
-17.9222934924
 20
19.7663437293
 10
-17.8596979016
 20
19.808540911
 10
-17.7972782701
 20
19.846024941
  0
LWPOLYLINE
  5
224
100
AcDbEntity
  8
RACCORDO
100
AcDbPolyline
 62
7
  6
CONTINUOUS
 90
37
 70
0
 10
-18.9551107469
 20
20.2571835904
 10
-18.9867869276
 20
20.2381374832
 10
-19.0296748082
 20
20.2104840792
 10
-19.0717458152
 20
20.1812085056
 10
-19.1129823365
 20
20.1503712346
 10
-19.1533754304
 20
20.118026005
 10
-19.1929114803
 20
20.0842249099
 10
-19.2315763474
 20
20.0490191721
 10
-19.2693549548
 20
20.0124574707
 10
-19.3062222406
 20
19.9745945343
 10
-19.3421613319
 20
19.9354781352
 10
-19.3771531702
 20
19.8951537629
 10
-19.411164228
 20
19.853683456
 10
-19.444173797
 20
19.8111146997
 10
-19.4761598457
 20
19.7674921688
 10
-19.5070847213
 20
19.7228845553
 10
-19.5369249077
 20
19.6773394772
 10
-19.5656567761
 20
19.6309029481
 10
-19.5932414849
 20
19.5836477904
 10
-19.6196542003
 20
19.5356215292
 10
-19.6448704096
 20
19.4868725445
 10
-19.6688507062
 20
19.4374772029
 10
-19.691570151
 20
19.3874838918
 10
-19.7130040855
 20
19.3369415702
 10
-19.7331144916
 20
19.2859273792
 10
-19.7518774238
 20
19.2344895497
 10
-19.7692673324
 20
19.1826768408
 10
-19.7852491112
 20
19.1305648676
 10
-19.7997989383
 20
19.0782006254
 10
-19.8128900645
 20
19.0256312135
 10
-19.8244910699
 20
18.9729268986
 10
-19.8345762127
 20
18.9201339452
 10
-19.8431171412
 20
18.8672978128
 10
-19.8500840597
 20
18.8144764122
 10
-19.8554469066
 20
18.7617137832
 10
-19.8591750642
 20
18.7090539431
 10
-19.860815701
 20
18.6716411049
  0
LWPOLYLINE
  5
225
100
AcDbEntity
  8
ASSI
100
AcDbPolyline
 62
7
  6
CONTINUOUS
 90
43
 70
0
 10
-18.0151723597
 20
19.8951128261
 10
-18.0524627933
 20
19.873261197
 10
-18.0895470988
 20
19.8499269273
 10
-18.1264252764
 20
19.8251100171
 10
-18.1631423997
 20
19.7987761261
 10
-18.1996533949
 20
19.7709595946
 10
-18.2358230412
 20
19.7417634429
 10
-18.2716500727
 20
19.7111825553
 10
-18.3071357552
 20
19.6792220476
 10
-18.342148665
 20
19.6460002878
 10
-18.376687049
 20
19.6115125989
 10
-18.4107526603
 20
19.5757636579
 10
-18.4442193345
 20
19.5388858634
 10
-18.4770848507
 20
19.5008750295
 10
-18.5093514299
 20
19.4617353422
 10
-18.5408995704
 20
19.421611758
 10
-18.5717266083
 20
19.3805006285
 10
-18.6018352076
 20
19.338405602
 10
-18.6311138591
 20
19.2954825806
 10
-18.659559485
 20
19.2517284938
 10
-18.6871751631
 20
19.207146412
 10
-18.7138586167
 20
19.161901448
 10
-18.7396063891
 20
19.1159911438
 10
-18.7644219369
 20
19.0694179573
 10
-18.7882133542
 20
19.0223543758
 10
-18.8109768432
 20
18.9747985807
 10
-18.8327162017
 20
18.9267523904
 10
-18.8533509163
 20
18.8783937474
 10
-18.872876891
 20
18.8297214931
 10
-18.8912982218
 20
18.780736786
 10
-18.9085466842
 20
18.7316210445
 10
-18.9246179289
 20
18.6823737827
 10
-18.939516305
 20
18.6329954864
 10
-18.9531866356
 20
18.5836690316
 10
-18.9656243666
 20
18.5343946106
 10
-18.976834052
 20
18.4851720311
 10
-18.9867741759
 20
18.4361835924
 10
-18.9954400305
 20
18.3874301627
 10
-19.0028363237
 20
18.3389108738
 10
-19.0089356626
 20
18.2908054202
 10
-19.0137289164
 20
18.2431737001
 10
-19.017225216
 20
18.1959558153
 10
-19.0194245613
 20
18.149151766
  0
LINE
  5
226
100
AcDbEntity
  8
RACCORDO
100
AcDbLine
 62
7
  6
CONTINUOUS
 10
-18.9551212164
 20
20.2571776237
 11
-14.3661463896
 21
22.9329702656
  0
LINE
  5
227
100
AcDbEntity
  8
RACCORDO
100
AcDbLine
 62
253
  6
CONTINUOUS
 10
-14.3661463896
 20
22.7881360892
 11
-18.7217671689
 21
20.2484102306
  0
LWPOLYLINE
  5
228
100
AcDbEntity
  8
RACCORDO
100
AcDbPolyline
 62
253
  6
CONTINUOUS
 90
17
 70
0
 10
-18.9551108068
 20
20.257183693
 10
-18.9526625541
 20
20.2585850905
 10
-18.940026083
 20
20.2650368503
 10
-18.9268538921
 20
20.2704934931
 10
-18.9131757861
 20
20.2749426721
 10
-18.8990227143
 20
20.2783743203
 10
-18.8844267006
 20
20.2807806729
 10
-18.8694207713
 20
20.282156285
 10
-18.8540388802
 20
20.2824980442
 10
-18.8383158316
 20
20.2818051771
 10
-18.8222872019
 20
20.2800792515
 10
-18.8059892589
 20
20.2773241725
 10
-18.7894588797
 20
20.2735461741
 10
-18.7727334676
 20
20.2687538047
 10
-18.7558508668
 20
20.262957908
 10
-18.7388492775
 20
20.2561715982
 10
-18.7217671689
 20
20.2484102306
  0
LINE
  5
229
100
AcDbEntity
  8
ASSI
100
AcDbLine
 62
7
  6
CONTINUOUS
 10
-18.0151723597
 20
19.8951128261
 11
-16.1365459913
 21
20.9550078209
  0
LINE
  5
22A
100
AcDbEntity
  8
RACCORDO
100
AcDbLine
 62
7
  6
CONTINUOUS
 10
-17.9108705971
 20
19.8521780206
 11
-16.0403017884
 21
20.9075270518
  0
LINE
  5
22B
100
AcDbEntity
  8
RACCORDO
100
AcDbLine
 62
253
  6
CONTINUOUS
 10
-17.7972782701
 20
19.846024941
 11
-15.9244139569
 21
20.902669064
  0
LINE
  5
22C
100
AcDbEntity
  8
RACCORDO
100
AcDbLine
 62
253
  6
CONTINUOUS
 10
-11.8939023126
 20
24.4148055765
 11
-13.4951831034
 21
23.612083573
  0
LINE
  5
22D
100
AcDbEntity
  8
RACCORDO
100
AcDbLine
 62
253
  6
CONTINUOUS
 10
-11.7171286089
 20
24.1099160376
 11
-13.3184093997
 21
23.3071940341
  0
LINE
  5
22E
100
AcDbEntity
  8
RACCORDO
100
AcDbLine
 62
253
  6
CONTINUOUS
 10
-11.3656351408
 20
24.6782443965
 11
-11.8939023126
 21
24.4148055765
  0
LINE
  5
22F
100
AcDbEntity
  8
RACCORDO
100
AcDbLine
 62
253
  6
CONTINUOUS
 10
-11.1888614371
 20
24.3733548577
 11
-11.7171286089
 21
24.1099160376
  0
LINE
  5
230
100
AcDbEntity
  8
RACCORDO
100
AcDbLine
 62
253
  6
CONTINUOUS
 10
-11.7171286089
 20
23.3828711852
 11
-11.1888614371
 21
24.0258233409
  0
LINE
  5
231
100
AcDbEntity
  8
RACCORDO
100
AcDbLine
 62
7
  6
CONTINUOUS
 10
-11.7171286089
 20
23.2933407188
 11
-11.1735008647
 21
23.9549881744
  0
LWPOLYLINE
  5
232
100
AcDbEntity
  8
RACCORDO
100
AcDbPolyline
 62
7
  6
CONTINUOUS
 90
30
 70
0
 10
-12.6071887916
 20
22.8187165772
 10
-12.6150679146
 20
22.8095821739
 10
-12.6232881637
 20
22.8005847329
 10
-12.6318460249
 20
22.7917457464
 10
-12.6407444554
 20
22.7830892165
 10
-12.6499708904
 20
22.7746345373
 10
-12.6594974647
 20
22.7663966445
 10
-12.669317653
 20
22.7583978909
 10
-12.6794235513
 20
22.7506600141
 10
-12.6897843342
 20
22.7431974743
 10
-12.7003908555
 20
22.7360326965
 10
-12.7112327669
 20
22.7291873912
 10
-12.722276544
 20
22.7226754196
 10
-12.7335103924
 20
22.7165189004
 10
-12.7449213432
 20
22.7107392366
 10
-12.7564731637
 20
22.7053497131
 10
-12.7681512955
 20
22.7003717554
 10
-12.7799400271
 20
22.6958260581
 10
-12.7918003411
 20
22.6917252729
 10
-12.8037147887
 20
22.6880896474
 10
-12.8156648021
 20
22.6849386624
 10
-12.8276084796
 20
22.6822841261
 10
-12.8395253293
 20
22.6801444937
 10
-12.8513938965
 20
22.6785373563
 10
-12.8631694751
 20
22.6774731955
 10
-12.8748282956
 20
22.6769678902
 10
-12.8863462327
 20
22.6770362562
 10
-12.8976765854
 20
22.6776866547
 10
-12.9087818478
 20
22.6789300475
 10
-12.9196461996
 20
22.6807775429
  0
LINE
  5
233
100
AcDbEntity
  8
RACCORDO
100
AcDbLine
 62
7
  6
CONTINUOUS
 10
-11.7171286089
 20
22.5077653767
 11
-12.6071887916
 21
22.0110844554
  0
LINE
  5
234
100
AcDbEntity
  8
RACCORDO
100
AcDbLine
 62
7
  6
CONTINUOUS
 10
-9.3483088905
 20
22.1776469634
 11
-8.9947675013
 21
22.3590203882
  0
LINE
  5
235
100
AcDbEntity
  8
RACCORDO
100
AcDbLine
 62
7
  6
CONTINUOUS
 10
-3.9945455473
 20
25.6480694057
 11
-10.3090858739
 21
22.5032931012
  0
LINE
  5
236
100
AcDbEntity
  8
ASSI
100
AcDbLine
 62
7
  6
CONTINUOUS
 10
-8.9947675013
 20
22.3590203882
 11
-3.6585440954
 21
24.9584638537
  0
LWPOLYLINE
  5
237
100
AcDbEntity
  8
RACCORDO
100
AcDbPolyline
 62
253
  6
CONTINUOUS
 90
8
 70
0
 10
-17.9108705971
 20
19.8521780206
 10
-17.8994180723
 20
19.8575694081
 10
-17.8844271147
 20
19.8618722676
 10
-17.8683799716
 20
19.8636833447
 10
-17.851452459
 20
19.8629827968
 10
-17.8338300382
 20
19.8597782993
 10
-17.8157057842
 20
19.8541049612
 10
-17.7972782701
 20
19.846024941
  0
LWPOLYLINE
  5
238
100
AcDbEntity
  8
RACCORDO
100
AcDbPolyline
 62
7
  6
CONTINUOUS
 90
24
 70
0
 10
-4.4961030979
 20
-25.2916140732
 10
-4.4732515853
 20
-25.302637658
 10
-4.4408670957
 20
-25.316916945
 10
-4.4078035925
 20
-25.3299496303
 10
-4.3740905026
 20
-25.3417091117
 10
-4.3397354083
 20
-25.3521753744
 10
-4.3047781644
 20
-25.3613181183
 10
-4.2692619166
 20
-25.3691099573
 10
-4.2331962416
 20
-25.3755312334
 10
-4.1966194495
 20
-25.3805555933
 10
-4.1595777543
 20
-25.3841581004
 10
-4.1220886414
 20
-25.3863191495
 10
-4.0841950399
 20
-25.3870172297
 10
-4.0459370979
 20
-25.3862324247
 10
-4.007322671
 20
-25.3839445054
 10
-3.968392269
 20
-25.3801352589
 10
-3.9291844136
 20
-25.3747874984
 10
-3.8896980472
 20
-25.3678771128
 10
-3.8499659245
 20
-25.3593841091
 10
-3.8100270363
 20
-25.3492914323
 10
-3.7698831905
 20
-25.3375710921
 10
-3.729557053
 20
-25.3241980986
 10
-3.6890987778
 20
-25.3091587964
 10
-3.6615342782
 20
-25.2979727986
  0
LINE
  5
239
100
AcDbEntity
  8
RACCORDO
100
AcDbLine
 62
7
  6
CONTINUOUS
 10
-19.3299167139
 20
-17.8747072828
 11
-4.4960183044
 21
-25.2916564875
  0
LINE
  5
23A
100
AcDbEntity
  8
RACCORDO
100
AcDbLine
 62
7
  6
CONTINUOUS
 10
-4.4961055211
 20
-25.29161287
 11
-4.496018631
 21
-25.2916563242
  0
LINE
  5
23B
100
AcDbEntity
  8
RACCORDO
100
AcDbLine
 62
253
  6
CONTINUOUS
 10
-19.7143331789
 20
-17.1186337929
 11
-4.8894871013
 21
-24.5310568317
  0
LWPOLYLINE
  5
23C
100
AcDbEntity
  8
RACCORDO
100
AcDbPolyline
 62
253
  6
CONTINUOUS
 90
25
 70
0
 10
-19.3299167139
 20
-17.8747072828
 10
-19.3586833233
 20
-17.8592397017
 10
-19.3859546028
 20
-17.8424469992
 10
-19.412336658
 20
-17.8240295261
 10
-19.4377965164
 20
-17.8040102517
 10
-19.4623022796
 20
-17.7824141603
 10
-19.4858244089
 20
-17.7592675667
 10
-19.5083335776
 20
-17.7345991764
 10
-19.5298014948
 20
-17.7084397636
 10
-19.5502020909
 20
-17.6808215751
 10
-19.569509836
 20
-17.65177904
 10
-19.5877006181
 20
-17.621348182
 10
-19.604752554
 20
-17.589566281
 10
-19.6206443408
 20
-17.556472816
 10
-19.6353560783
 20
-17.5221088282
 10
-19.6488701195
 20
-17.4865163094
 10
-19.6611697134
 20
-17.4497389268
 10
-19.6722392371
 20
-17.4118226596
 10
-19.6820650741
 20
-17.3728152017
 10
-19.6906348765
 20
-17.3327658211
 10
-19.6979381733
 20
-17.291723338
 10
-19.703966447
 20
-17.2497366456
 10
-19.7087122258
 20
-17.2068569845
 10
-19.7121692763
 20
-17.1631380167
 10
-19.7143331789
 20
-17.1186337929
  0
LINE
  5
23D
100
AcDbEntity
  8
0
100
AcDbLine
 62
7
  6
CONTINUOUS
 10
-10.7625344543
 20
19.0957446267
 11
-11.4898652014
 21
18.6853946862
  0
LINE
  5
23E
100
AcDbEntity
  8
ASSI
100
AcDbLine
 62
7
  6
CONTINUOUS
 10
-3.0530136607
 20
24.6556986363
 11
-7.6512646171
 21
22.3893373388
  0
LINE
  5
23F
100
AcDbEntity
  8
DRAFT
100
AcDbLine
 62
7
  6
CONTINUOUS
 10
-6.423183794
 20
21.7752969273
 11
-3.0041376292
 21
23.4482766064
  0
LINE
  5
240
100
AcDbEntity
  8
RACCORDO
100
AcDbLine
 62
7
  6
CONTINUOUS
 10
-0.9275796034
 20
24.1145864337
 11
-6.0696304034
 21
21.598520232
  0
LWPOLYLINE
  5
241
100
AcDbEntity
  8
ASSI
100
AcDbPolyline
 62
7
  6
CONTINUOUS
 90
7
 70
0
 10
-3.0530136607
 20
24.6556986363
 10
-3.0448044013
 20
24.6596261214
 10
-3.0366204436
 20
24.6633111836
 10
-3.0284617875
 20
24.6667538229
 10
-3.0203284331
 20
24.6699540393
 10
-3.0122203803
 20
24.6729118328
 10
-3.0041376292
 20
24.6756272034
  0
LINE
  5
242
100
AcDbEntity
  8
RACCORDO
100
AcDbLine
 62
253
  6
CONTINUOUS
 10
2.1754567273
 20
-23.9559398807
 11
1.6471895555
 21
-23.8474376036
  0
LINE
  5
243
100
AcDbEntity
  8
RACCORDO
100
AcDbLine
 62
253
  6
CONTINUOUS
 10
2.0860429319
 20
-23.6363730747
 11
1.6471895555
 21
-23.546235748
  0
LWPOLYLINE
  5
244
100
AcDbEntity
  8
RACCORDO
100
AcDbPolyline
 62
253
  6
CONTINUOUS
 90
31
 70
0
 10
-0.3066131949
 20
-25.3540043319
 10
-0.2971551768
 20
-25.3584928655
 10
-0.2872419398
 20
-25.3627287118
 10
-0.2769004546
 20
-25.3667003464
 10
-0.266158857
 20
-25.370396964
 10
-0.2550463713
 20
-25.3738085071
 10
-0.243593231
 20
-25.3769256941
 10
-0.2318305962
 20
-25.3797400442
 10
-0.2197904691
 20
-25.3822439004
 10
-0.207505607
 20
-25.3844304507
 10
-0.195009433
 20
-25.386293746
 10
-0.182335945
 20
-25.387828717
 10
-0.1695196233
 20
-25.3890311876
 10
-0.1565953369
 20
-25.3898978862
 10
-0.1435982486
 20
-25.3904264548
 10
-0.1305637191
 20
-25.3906154554
 10
-0.1175272111
 20
-25.3904643737
 10
-0.1045241926
 20
-25.3899736208
 10
-0.0915900406
 20
-25.3891445319
 10
-0.0787599445
 20
-25.3879793626
 10
-0.0660688108
 20
-25.3864812831
 10
-0.0535511679
 20
-25.3846543689
 10
-0.0412410722
 20
-25.3825035907
 10
-0.0291720154
 20
-25.3800348
 10
-0.0173768334
 20
-25.3772547135
 10
-0.005887617
 20
-25.3741708948
 10
0.0052643755
 20
-25.3707917342
 10
0.0160488032
 20
-25.3671264251
 10
0.0264363252
 20
-25.3631849396
 10
0.0363986804
 20
-25.3589780013
 10
0.0459087647
 20
-25.3545170557
  0
LWPOLYLINE
  5
245
100
AcDbEntity
  8
RACCORDO
100
AcDbPolyline
 62
253
  6
CONTINUOUS
 90
31
 70
0
 10
-0.3066131949
 20
-25.0140303977
 10
-0.2971551768
 20
-25.0185189313
 10
-0.2872419398
 20
-25.0227547776
 10
-0.2769004546
 20
-25.0267264123
 10
-0.266158857
 20
-25.0304230298
 10
-0.2550463713
 20
-25.033834573
 10
-0.243593231
 20
-25.03695176
 10
-0.2318305962
 20
-25.0397661101
 10
-0.2197904691
 20
-25.0422699663
 10
-0.207505607
 20
-25.0444565165
 10
-0.195009433
 20
-25.0463198119
 10
-0.182335945
 20
-25.0478547829
 10
-0.1695196233
 20
-25.0490572535
 10
-0.1565953369
 20
-25.049923952
 10
-0.1435982486
 20
-25.0504525207
 10
-0.1305637191
 20
-25.0506415212
 10
-0.1175272111
 20
-25.0504904396
 10
-0.1045241926
 20
-25.0499996867
 10
-0.0915900406
 20
-25.0491705978
 10
-0.0787599445
 20
-25.0480054285
 10
-0.0660688108
 20
-25.0465073489
 10
-0.0535511679
 20
-25.0446804348
 10
-0.0412410722
 20
-25.0425296566
 10
-0.0291720154
 20
-25.0400608659
 10
-0.0173768334
 20
-25.0372807793
 10
-0.005887617
 20
-25.0341969607
 10
0.0052643755
 20
-25.0308178001
 10
0.0160488032
 20
-25.0271524909
 10
0.0264363252
 20
-25.0232110055
 10
0.0363986804
 20
-25.0190040671
 10
0.0459087647
 20
-25.0145431216
  0
LWPOLYLINE
  5
246
100
AcDbEntity
  8
RACCORDO
100
AcDbPolyline
 62
7
  6
CONTINUOUS
 90
19
 70
0
 10
-0.2416398259
 20
-25.4892228182
 10
-0.2329893556
 20
-25.4933427685
 10
-0.2211530495
 20
-25.4983417622
 10
-0.2090545499
 20
-25.502733045
 10
-0.1967230135
 20
-25.5065022525
 10
-0.1841919341
 20
-25.5096354235
 10
-0.1714902897
 20
-25.5121214847
 10
-0.1586503637
 20
-25.5139499554
 10
-0.1457071198
 20
-25.5151117225
 10
-0.1326944684
 20
-25.5155996477
 10
-0.1196476
 20
-25.5154082706
 10
-0.1066020762
 20
-25.5145339658
 10
-0.0935930401
 20
-25.5129748564
 10
-0.0806547305
 20
-25.5107305566
 10
-0.0678256159
 20
-25.5078032058
 10
-0.0551472643
 20
-25.5041982931
 10
-0.0426562513
 20
-25.4999226301
 10
-0.0303881514
 20
-25.4949847398
 10
-0.0203527705
 20
-25.490367654
  0
LINE
  5
247
100
AcDbEntity
  8
RACCORDO
100
AcDbLine
 62
7
  6
CONTINUOUS
 10
-1.5666245783
 20
-24.826730442
 11
-0.2416398985
 21
-25.489222782
  0
LINE
  5
248
100
AcDbEntity
  8
RACCORDO
100
AcDbLine
 62
253
  6
CONTINUOUS
 10
-1.6315978748
 20
-24.6915119919
 11
-0.3066131949
 21
-25.3540043319
  0
LINE
  5
249
100
AcDbEntity
  8
RACCORDO
100
AcDbLine
 62
253
  6
CONTINUOUS
 10
-0.3066131949
 20
-25.0140303977
 11
-1.5290165653
 21
-24.4028287126
  0
LINE
  5
24A
100
AcDbEntity
  8
RACCORDO
100
AcDbLine
 62
253
  6
CONTINUOUS
 10
-0.2182248473
 20
-24.7823362239
 11
-1.2290594751
 21
-24.27691891
  0
LWPOLYLINE
  5
24B
100
AcDbEntity
  8
RACCORDO
100
AcDbPolyline
 62
253
  6
CONTINUOUS
 90
16
 70
0
 10
-1.6315978748
 20
-24.6915119919
 10
-1.640574942
 20
-24.6867829829
 10
-1.6490466346
 20
-24.6818263644
 10
-1.6569899039
 20
-24.6766556218
 10
-1.664383139
 20
-24.671284823
 10
-1.6712062252
 20
-24.6657285801
 10
-1.6774405993
 20
-24.66000201
 10
-1.6830692994
 20
-24.6541206926
 10
-1.6880770119
 20
-24.648100629
 10
-1.6924501124
 20
-24.641958198
 10
-1.696176703
 20
-24.635710111
 10
-1.6992466451
 20
-24.629373367
 10
-1.7016515862
 20
-24.6229652061
 10
-1.7033849834
 20
-24.6165030629
 10
-1.7044421206
 20
-24.6100045188
 10
-1.7048211795
 20
-24.6031236443
  0
LWPOLYLINE
  5
24C
100
AcDbEntity
  8
RACCORDO
100
AcDbPolyline
 62
253
  6
CONTINUOUS
 90
17
 70
0
 10
-19.8606076851
 20
-16.9449348839
 10
-19.8592856655
 20
-16.9572480652
 10
-19.8568599624
 20
-16.9694880325
 10
-19.8533359495
 20
-16.9816276706
 10
-19.8487214335
 20
-16.9936400862
 10
-19.8430266371
 20
-17.0054986683
 10
-19.8362641759
 20
-17.0171771463
 10
-19.828449031
 20
-17.0286496487
 10
-19.8195985153
 20
-17.0398907604
 10
-19.8097322355
 20
-17.0508755788
 10
-19.7988720485
 20
-17.0615797691
 10
-19.787042013
 20
-17.0719796182
 10
-19.7742683362
 20
-17.0820520871
 10
-19.7605793157
 20
-17.0917748622
 10
-19.7460052772
 20
-17.1011264046
 10
-19.7305785065
 20
-17.1100859975
 10
-19.7143331788
 20
-17.1186337928
  0
LWPOLYLINE
  5
24D
100
AcDbEntity
  8
RACCORDO
100
AcDbPolyline
 62
7
  6
CONTINUOUS
 90
27
 70
0
 10
-19.8607969086
 20
-16.9409856453
 10
-19.8590356642
 20
-16.9790695823
 10
-19.8551291663
 20
-17.03010986
 10
-19.8494954681
 20
-17.0802422954
 10
-19.8421444885
 20
-17.1294602523
 10
-19.8330937523
 20
-17.1777073141
 10
-19.8223761778
 20
-17.2248711263
 10
-19.8100127261
 20
-17.2709285069
 10
-19.7960267974
 20
-17.3158461862
 10
-19.7804753847
 20
-17.3594989706
 10
-19.7633934908
 20
-17.4018595975
 10
-19.7448175242
 20
-17.4429006532
 10
-19.7248334299
 20
-17.4825005067
 10
-19.7035108496
 20
-17.5206055191
 10
-19.6808896349
 20
-17.5572240659
 10
-19.6570306408
 20
-17.5923264731
 10
-19.6320173552
 20
-17.6258608025
 10
-19.6058944385
 20
-17.6578375808
 10
-19.5786641493
 20
-17.6883068296
 10
-19.5503901796
 20
-17.7172386314
 10
-19.5211344505
 20
-17.7446124185
 10
-19.4908865326
 20
-17.7704713536
 10
-19.4597101847
 20
-17.7947848149
 10
-19.4276674994
 20
-17.8175285241
 10
-19.3947361281
 20
-17.8387360968
 10
-19.3609479427
 20
-17.8583945032
 10
-19.3297873446
 20
-17.8747719397
  0
LWPOLYLINE
  5
24E
100
AcDbEntity
  8
RACCORDO
100
AcDbPolyline
 62
253
  6
CONTINUOUS
 90
22
 70
0
 10
-19.7143331789
 20
-17.1186337929
 10
-19.7676397193
 20
-15.4510936481
 10
-19.8156179587
 20
-13.780547482
 10
-19.8582671478
 20
-12.1070209422
 10
-19.8955866117
 20
-10.4305397295
 10
-19.9275757766
 20
-8.751129573
 10
-19.9542341692
 20
-7.0688162301
 10
-19.9755613776
 20
-5.3836255217
 10
-19.9915570644
 20
-3.6955833209
 10
-20.0022209929
 20
-2.0047155278
 10
-20.0075530009
 20
-0.3110480979
 10
-20.0075530009
 20
1.3853929732
 10
-20.0022209929
 20
3.0845816613
 10
-19.9915570644
 20
4.786491892
 10
-19.9755613776
 20
6.4910975389
 10
-19.9542341692
 20
8.198372439
 10
-19.9275757766
 20
9.9082903906
 10
-19.8955866117
 20
11.6208251521
 10
-19.8582671478
 20
13.3359504407
 10
-19.8156179587
 20
15.0536399359
 10
-19.7676397193
 20
16.7738672795
 10
-19.7143331789
 20
18.4966060747
  0
LWPOLYLINE
  5
24F
100
AcDbEntity
  8
RACCORDO
100
AcDbPolyline
 62
253
  6
CONTINUOUS
 90
18
 70
0
 10
-19.860815701
 20
18.6716411049
 10
-19.8606075005
 20
18.6602477961
 10
-19.8592854751
 20
18.6490737987
 10
-19.8568597669
 20
18.6379138728
 10
-19.8533357495
 20
18.6267927409
 10
-19.8487212299
 20
18.6157350399
 10
-19.8430264304
 20
18.604765266
 10
-19.836263967
 20
18.5939077206
 10
-19.8284488205
 20
18.5831864566
 10
-19.819598304
 20
18.5726252249
 10
-19.8097320241
 20
18.562247422
 10
-19.7988718376
 20
18.5520760378
 10
-19.7870418033
 20
18.5421336052
 10
-19.7742681283
 20
18.5324421498
 10
-19.7605791104
 20
18.5230231411
 10
-19.7460050749
 20
18.5138974452
 10
-19.7305783079
 20
18.5050852783
 10
-19.7143329844
 20
18.4966061621
  0
LWPOLYLINE
  5
250
100
AcDbEntity
  8
ASSI
100
AcDbPolyline
 62
7
  6
CONTINUOUS
 90
10
 70
0
 10
-19.1464031022
 20
13.7880388608
 10
-19.1340153975
 20
14.2718208027
 10
-19.1211974241
 20
14.755799741
 10
-19.1079491819
 20
15.2399756755
 10
-19.0942706533
 20
15.7243492153
 10
-19.080161856
 20
16.2089197513
 10
-19.0656228428
 20
16.6936854571
 10
-19.0506536315
 20
17.1786457237
 10
-19.0352542043
 20
17.66380116
 10
-19.0194245613
 20
18.149151766
  0
LWPOLYLINE
  5
251
100
AcDbEntity
  8
RACCORDO
100
AcDbPolyline
 62
7
  6
CONTINUOUS
 90
22
 70
0
 10
-19.8608156018
 20
18.6716496238
 10
-19.913770823
 20
16.9608057346
 10
-19.961813354
 20
15.2394521754
 10
-20.0045196395
 20
13.5206335425
 10
-20.0418888544
 20
11.8043794385
 10
-20.0739204588
 20
10.0907155769
 10
-20.100613985
 20
8.3796661136
 10
-20.1219689728
 20
6.6712564727
 10
-20.1379850954
 20
4.9655130489
 10
-20.1486620654
 20
3.262461462
 10
-20.1539996267
 20
1.5621275129
 10
-20.1539976872
 20
-0.1354621982
 10
-20.1486562049
 20
-1.8302808543
 10
-20.1379751889
 20
-3.522301905
 10
-20.1219548121
 20
-5.2114997728
 10
-20.1005952781
 20
-6.8978491005
 10
-20.0738968303
 20
-8.5813237912
 10
-20.0418598456
 20
-10.2618988575
 10
-20.0044847075
 20
-11.9395505972
 10
-19.9617718723
 20
-13.6142538092
 10
-19.9137220825
 20
-15.2859796901
 10
-19.8607969803
 20
-16.9409868314
  0
LWPOLYLINE
  5
252
100
AcDbEntity
  8
RACCORDO
100
AcDbPolyline
 62
7
  6
CONTINUOUS
 90
10
 70
0
 10
-18.8747701176
 20
18.1876342359
 10
-18.8906668694
 20
17.6992922673
 10
-18.9061280809
 20
17.2111464965
 10
-18.9211537327
 20
16.7231975251
 10
-18.9357438059
 20
16.2354459551
 10
-18.9498982819
 20
15.7478923865
 10
-18.9636171432
 20
15.2605374172
 10
-18.9769003723
 20
14.7733816466
 10
-18.9897479525
 20
14.286425676
 10
-19.0011382656
 20
13.8403812232
  0
LWPOLYLINE
  5
253
100
AcDbEntity
  8
RACCORDO
100
AcDbPolyline
 62
253
  6
CONTINUOUS
 90
43
 70
0
 10
-19.7143331789
 20
18.4966060747
 10
-19.7121692899
 20
18.5433251536
 10
-19.7087122606
 20
18.5905823649
 10
-19.7039665052
 20
18.6383192409
 10
-19.6979382481
 20
18.6864761237
 10
-19.6906349576
 20
18.7349940676
 10
-19.6820651596
 20
18.7838149583
 10
-19.6722393308
 20
18.8328795927
 10
-19.6611698159
 20
18.8821262661
 10
-19.6488702322
 20
18.9314926958
 10
-19.6353562052
 20
18.9809173762
 10
-19.6206444846
 20
19.0303397928
 10
-19.6047527117
 20
19.0796990446
 10
-19.5877007816
 20
19.1289343037
 10
-19.5695100002
 20
19.1779846745
 10
-19.5502022566
 20
19.2267893922
 10
-19.5298016657
 20
19.2752884123
 10
-19.5083337554
 20
19.3234216848
 10
-19.4858245951
 20
19.3711290186
 10
-19.4623024769
 20
19.4183514339
 10
-19.4377967267
 20
19.4650308137
 10
-19.4123368791
 20
19.511109175
 10
-19.3859548292
 20
19.5565297202
 10
-19.3586835521
 20
19.6012364218
 10
-19.3305559194
 20
19.6451736704
 10
-19.3016070653
 20
19.6882874586
 10
-19.2718732649
 20
19.7305244868
 10
-19.2413906537
 20
19.7718317559
 10
-19.2101975343
 20
19.8121582665
 10
-19.1783328164
 20
19.8514544962
 10
-19.1458348899
 20
19.8896714978
 10
-19.1127445065
 20
19.9267621796
 10
-19.0791030069
 20
19.9626809431
 10
-19.0449507561
 20
19.9973831354
 10
-19.0103301261
 20
20.0308264152
 10
-18.9752847925
 20
20.0629692206
 10
-18.9398579745
 20
20.0937704761
 10
-18.9040948465
 20
20.1231917617
 10
-18.8680393889
 20
20.151197708
 10
-18.8317336531
 20
20.1777543004
 10
-18.7952220312
 20
20.202828915
 10
-18.7585512383
 20
20.2263905594
 10
-18.7217671689
 20
20.2484102306
  0
LWPOLYLINE
  5
254
100
AcDbEntity
  8
RACCORDO
100
AcDbPolyline
 62
253
  6
CONTINUOUS
 90
23
 70
0
 10
-18.8015337558
 20
18.0999644291
 10
-18.7971267644
 20
18.1785562882
 10
-18.7889567059
 20
18.2593073678
 10
-18.7769459936
 20
18.341967813
 10
-18.7610142499
 20
18.4263492925
 10
-18.7411239197
 20
18.5120803673
 10
-18.7173177507
 20
18.5986031184
 10
-18.6896096289
 20
18.6856050865
 10
-18.6580400509
 20
18.7727311021
 10
-18.6227870143
 20
18.8593433816
 10
-18.5839643375
 20
18.9450803412
 10
-18.5416902201
 20
19.0296061144
 10
-18.4962374166
 20
19.1123390023
 10
-18.4477859745
 20
19.1929497528
 10
-18.3965274673
 20
19.271118201
 10
-18.3428204322
 20
19.3463246119
 10
-18.2868883552
 20
19.4183072023
 10
-18.2289780823
 20
19.4867971608
 10
-18.1695347265
 20
19.5513453065
 10
-18.1088296062
 20
19.6117606001
 10
-18.0471133173
 20
19.6678938076
 10
-17.9848276158
 20
19.7194618031
 10
-17.9222934924
 20
19.7663437293
  0
LWPOLYLINE
  5
255
100
AcDbEntity
  8
RACCORDO
100
AcDbPolyline
 62
7
  6
CONTINUOUS
 90
22
 70
0
 10
-18.8747701176
 20
18.187634236
 10
-18.8691967712
 20
18.2797300737
 10
-18.8585972479
 20
18.3727681575
 10
-18.8431004509
 20
18.4663831659
 10
-18.8228346681
 20
18.5602409705
 10
-18.7979393307
 20
18.65397383
 10
-18.7685820294
 20
18.7471566984
 10
-18.7349434014
 20
18.8393845439
 10
-18.6971772078
 20
18.9303545291
 10
-18.6554299308
 20
19.0197758226
 10
-18.609876163
 20
19.1073000385
 10
-18.560697463
 20
19.1925832527
 10
-18.5080467236
 20
19.2753394286
 10
-18.4520945465
 20
19.3552532362
 10
-18.39304846
 20
19.4319677116
 10
-18.3311076411
 20
19.5051540775
 10
-18.2664314377
 20
19.5745347281
 10
-18.1992600073
 20
19.639749381
 10
-18.1299013062
 20
19.7004034528
 10
-18.0585901779
 20
19.7561985978
 10
-17.9855055571
 20
19.8068847772
 10
-17.9108705971
 20
19.8521780206
  0
LWPOLYLINE
  5
256
100
AcDbEntity
  8
RACCORDO
100
AcDbPolyline
 62
253
  6
CONTINUOUS
 90
27
 70
0
 10
-13.3184093997
 20
22.9672201
 10
-13.3232934168
 20
22.9552514418
 10
-13.3286440203
 20
22.9435582377
 10
-13.3344465986
 20
22.9321724194
 10
-13.3406853063
 20
22.9211250792
 10
-13.3473431066
 20
22.9104463851
 10
-13.3544018186
 20
22.9001654983
 10
-13.3618421663
 20
22.8903104938
 10
-13.3696438318
 20
22.8809082836
 10
-13.3777855102
 20
22.8719845431
 10
-13.3862449685
 20
22.8635636411
 10
-13.3949991056
 20
22.8556685735
 10
-13.4040240157
 20
22.8483208999
 10
-13.4132950538
 20
22.8415406854
 10
-13.4227869025
 20
22.8353464453
 10
-13.4324736416
 20
22.8297550947
 10
-13.4423288187
 20
22.8247819025
 10
-13.4523255214
 20
22.8204404494
 10
-13.4624364506
 20
22.816742591
 10
-13.4726339957
 20
22.8136984254
 10
-13.4828903092
 20
22.8113162656
 10
-13.4931773833
 20
22.8096026167
 10
-13.5034671262
 20
22.8085621584
 10
-13.5137314387
 20
22.8081977319
 10
-13.523942291
 20
22.8085103324
 10
-13.5340717997
 20
22.8094991063
 10
-13.544092303
 20
22.8111613534
  0
LINE
  5
257
100
AcDbEntity
  8
0
100
AcDbLine
 62
7
  6
CONTINUOUS
 10
-1.5865753547
 20
23.2545136199
 11
-5.4840962669
 21
21.3057531638
  0
LINE
  5
258
100
AcDbEntity
  8
ASSI
100
AcDbLine
 62
7
  6
CONTINUOUS
 10
-19.0006134321
 20
13.8609336958
 11
-19.1464031022
 21
13.7880388608
  0
LWPOLYLINE
  5
259
100
AcDbEntity
  8
ASSI
100
AcDbPolyline
 62
7
  6
CONTINUOUS
 90
16
 70
0
 10
1.9456098391
 20
22.2007534693
 10
1.9577426682
 20
22.2042398315
 10
1.9704596571
 20
22.2069614736
 10
1.9837547507
 20
22.2089015752
 10
1.9976281459
 20
22.2100576615
 10
2.0120623609
 20
22.2103976145
 10
2.0270198324
 20
22.2098614074
 10
2.0424834489
 20
22.2084258581
 10
2.0584367493
 20
22.206082675
 10
2.0748367402
 20
22.2027972442
 10
2.09162198
 20
22.1985650087
 10
2.1088053181
 20
22.1933647579
 10
2.1264555246
 20
22.1871328473
 10
2.1445552632
 20
22.1798525461
 10
2.1630705306
 20
22.1715025897
 10
2.1721772656
 20
22.1670620357
  0
LWPOLYLINE
  5
25A
100
AcDbEntity
  8
RACCORDO
100
AcDbPolyline
 62
253
  6
CONTINUOUS
 90
5
 70
0
 10
2.1094516573
 20
-23.6444572881
 10
2.1078779578
 20
-23.643688873
 10
2.1008502579
 20
-23.6406826675
 10
2.0935658763
 20
-23.6382420446
 10
2.0860429319
 20
-23.6363730747
  0
LWPOLYLINE
  5
25B
100
AcDbEntity
  8
RACCORDO
100
AcDbPolyline
 62
7
  6
CONTINUOUS
 90
34
 70
0
 10
0.4046074132
 20
-24.0375339206
 10
0.4140571738
 20
-24.0422383395
 10
0.4239149088
 20
-24.0469936713
 10
0.4341480415
 20
-24.0517921129
 10
0.4447333633
 20
-24.0566409505
 10
0.4556285977
 20
-24.0615197257
 10
0.4667693902
 20
-24.0663827541
 10
0.4781075893
 20
-24.0712265847
 10
0.4896199631
 20
-24.0760531759
 10
0.501277962
 20
-24.0808283298
 10
0.5130481102
 20
-24.0855533608
 10
0.5248980881
 20
-24.0902296914
 10
0.5368028493
 20
-24.0948236972
 10
0.5487317262
 20
-24.0993383493
 10
0.560655167
 20
-24.1037772997
 10
0.5725515012
 20
-24.1081080789
 10
0.5843931124
 20
-24.112335047
 10
0.5961532543
 20
-24.1164635384
 10
0.607813085
 20
-24.1204624903
 10
0.6193480307
 20
-24.1243374058
 10
0.630734161
 20
-24.1280949037
 10
0.6419549093
 20
-24.1317054493
 10
0.6529886468
 20
-24.1351754764
 10
0.6638142386
 20
-24.1385126084
 10
0.6744169874
 20
-24.141688934
 10
0.6847780933
 20
-24.1447116315
 10
0.6948791985
 20
-24.1475891348
 10
0.7047072797
 20
-24.1502952837
 10
0.7142462595
 20
-24.1528378305
 10
0.72348056
 20
-24.1552258777
 10
0.7323988631
 20
-24.1574351979
 10
0.7409885301
 20
-24.1594635725
 10
0.7492359104
 20
-24.1613309962
 10
0.7571293728
 20
-24.1630466444
  0
LINE
  5
25C
100
AcDbEntity
  8
RACCORDO
100
AcDbLine
 62
7
  6
CONTINUOUS
 10
-0.0806956151
 20
-23.7948824065
 11
0.4040931848
 21
-24.0372768064
  0
LINE
  5
25D
100
AcDbEntity
  8
RACCORDO
100
AcDbLine
 62
253
  6
CONTINUOUS
 10
1.6471895555
 20
-23.4169463865
 11
2.0860429319
 21
-23.6363730747
  0
LINE
  5
25E
100
AcDbEntity
  8
RACCORDO
100
AcDbLine
 62
7
  6
CONTINUOUS
 10
1.6471895555
 20
-23.4133262369
 11
2.1094579832
 21
-23.6444604507
  0
LWPOLYLINE
  5
25F
100
AcDbEntity
  8
RACCORDO
100
AcDbPolyline
 62
253
  6
CONTINUOUS
 90
9
 70
0
 10
-18.8747701176
 20
18.187634236
 10
-18.874452742
 20
18.1795090759
 10
-18.8717076738
 20
18.167087093
 10
-18.8662585844
 20
18.1547999041
 10
-18.8581651708
 20
18.1427821316
 10
-18.847516105
 20
18.131165449
 10
-18.8344280599
 20
18.1200771334
 10
-18.8190444284
 20
18.1096386709
 10
-18.8015337558
 20
18.099964429
  0
LWPOLYLINE
  5
260
100
AcDbEntity
  8
RACCORDO
100
AcDbPolyline
 62
7
  6
CONTINUOUS
 90
4
 70
0
 10
-19.0011328752
 20
13.8403798592
 10
-19.0003418139
 20
13.8143358989
 10
-18.9972638419
 20
13.7886131973
 10
-18.991929526
 20
13.7639543897
  0
LWPOLYLINE
  5
261
100
AcDbEntity
  8
RACCORDO
100
AcDbPolyline
 62
253
  6
CONTINUOUS
 90
13
 70
0
 10
-17.5112818909
 20
2.6882903311
 10
-17.5146878124
 20
2.1091431782
 10
-17.5174959568
 20
1.5215499047
 10
-17.5196773544
 20
0.9255258638
 10
-17.5211984888
 20
0.323390862
 10
-17.5220389513
 20
-0.2871459089
 10
-17.5221649104
 20
-0.9129726565
 10
-17.5215199001
 20
-1.5549154953
 10
-17.5200461573
 20
-2.2120884044
 10
-17.5176657946
 20
-2.8887900237
 10
-17.5142937406
 20
-3.5864221726
 10
-17.5098556966
 20
-4.3034988673
 10
-17.5042703929
 20
-5.0399767402
  0
LWPOLYLINE
  5
262
100
AcDbEntity
  8
RACCORDO
100
AcDbPolyline
 62
253
  6
CONTINUOUS
 90
10
 70
0
 10
-18.9273487238
 20
13.7747390957
 10
-18.9150620802
 20
14.2545487232
 10
-18.9023522032
 20
14.734552136
 10
-18.8892191109
 20
15.2147487578
 10
-18.8756628334
 20
15.695137611
 10
-18.861683379
 20
16.1757185197
 10
-18.8472807309
 20
16.6564921111
 10
-18.8324548933
 20
17.1374582111
 10
-18.8172058956
 20
17.6186158425
 10
-18.8015337558
 20
18.0999644291
  0
LINE
  5
263
100
AcDbEntity
  8
0
100
AcDbLine
 62
7
  6
CONTINUOUS
 10
-6.5198937672
 20
16.9744242831
 11
-7.2472245143
 21
16.5640743427
  0
LINE
  5
264
100
AcDbEntity
  8
RACCORDO
100
AcDbLine
 62
7
  6
CONTINUOUS
 10
-3.1299069761
 20
19.0684460062
 11
-2.7722278269
 21
19.247750551
  0
LINE
  5
265
100
AcDbEntity
  8
ASSI
100
AcDbLine
 62
7
  6
CONTINUOUS
 10
-2.7722278269
 20
19.247750551
 11
2.5022642423
 21
21.8780596849
  0
LINE
  5
266
100
AcDbEntity
  8
DRAFT
100
AcDbLine
 62
7
  6
CONTINUOUS
 10
-2.7722278269
 20
18.0353149857
 11
2.5526062434
 21
20.6716464176
  0
LINE
  5
267
100
AcDbEntity
  8
ASSI
100
AcDbLine
 62
7
  6
CONTINUOUS
 10
1.8967338076
 20
22.1808249022
 11
-2.7015171487
 21
19.9144636047
  0
LINE
  5
268
100
AcDbEntity
  8
RACCORDO
100
AcDbLine
 62
7
  6
CONTINUOUS
 10
3.3150610838
 20
21.9932660902
 11
2.6762003072
 21
21.6806639651
  0
LWPOLYLINE
  5
269
100
AcDbEntity
  8
ASSI
100
AcDbPolyline
 62
7
  6
CONTINUOUS
 90
7
 70
0
 10
1.8967338076
 20
22.1808249022
 10
1.904943067
 20
22.1847523873
 10
1.9131270247
 20
22.1884374495
 10
1.9212856808
 20
22.1918800888
 10
1.9294190352
 20
22.1950803052
 10
1.937527088
 20
22.1980380987
 10
1.9456098391
 20
22.2007534693
  0
LWPOLYLINE
  5
26A
100
AcDbEntity
  8
RACCORDO
100
AcDbPolyline
 62
7
  6
CONTINUOUS
 90
18
 70
0
 10
3.3150610838
 20
21.9932660902
 10
3.3434356045
 20
22.006448047
 10
3.3716700565
 20
22.0181824387
 10
3.3997644398
 20
22.0284692654
 10
3.4277687528
 20
22.0373214
 10
3.4556329971
 20
22.0447259696
 10
3.4832071767
 20
22.0506443552
 10
3.5104763054
 20
22.0550677765
 10
3.5374553694
 20
22.0580050138
 10
3.564039332
 20
22.0594437898
 10
3.5902442909
 20
22.0593766532
 10
3.6160541483
 20
22.0578110552
 10
3.6413155746
 20
22.0547570718
 10
3.6660053279
 20
22.0502112874
 10
3.69014665
 20
22.0441771176
 10
3.7136559363
 20
22.0366748848
 10
3.7365517165
 20
22.0276894701
 10
3.7561138008
 20
22.0185997371
  0
LINE
  5
26B
100
AcDbEntity
  8
RACCORDO
100
AcDbLine
 62
7
  6
CONTINUOUS
 10
-3.6935742789
 20
18.9361683419
 11
-3.7925326423
 21
18.9068566839
  0
LWPOLYLINE
  5
26C
100
AcDbEntity
  8
RACCORDO
100
AcDbPolyline
 62
7
  6
CONTINUOUS
 90
4
 70
0
 10
-3.7925326423
 20
18.9068566839
 10
-3.8143521991
 20
18.9005293326
 10
-3.8248016315
 20
18.8975691973
 10
-3.8349508954
 20
18.8947665814
  0
LWPOLYLINE
  5
26D
100
AcDbEntity
  8
RACCORDO
100
AcDbPolyline
 62
253
  6
CONTINUOUS
 90
3
 70
0
 10
-15.5243714056
 20
-6.0299262339
 10
-15.523184557
 20
-6.1707271128
 10
-15.5110856931
 20
-7.4102851041
  0
LINE
  5
26E
100
AcDbEntity
  8
SMUSSO
100
AcDbLine
 62
7
  6
CONTINUOUS
 10
-16.1365459913
 20
20.9550078209
 11
-16.1365459913
 21
20.8532274046
  0
LINE
  5
26F
100
AcDbEntity
  8
DRAFT
100
AcDbLine
 62
7
  6
CONTINUOUS
 10
-16.0304799741
 20
1.7390258371
 11
-16.0304799741
 21
-4.2177858739
  0
LINE
  5
270
100
AcDbEntity
  8
IMPORT_IGES
100
AcDbLine
 62
253
  6
CONTINUOUS
 10
-15.6062159054
 20
-4.1470751958
 11
-15.6062159054
 21
1.5268938028
  0
LINE
  5
271
100
AcDbEntity
  8
IMPORT_IGES
100
AcDbLine
 62
253
  6
CONTINUOUS
 10
-15.1819518367
 20
1.3147617684
 11
-15.1819518367
 21
-3.8872675746
  0
LWPOLYLINE
  5
272
100
AcDbEntity
  8
RACCORDO
100
AcDbPolyline
 62
253
  6
CONTINUOUS
 90
10
 70
0
 10
-16.810512502
 20
2.1290421011
 10
-16.813418249
 20
1.5618710945
 10
-16.8159578254
 20
0.8584045292
 10
-16.8175160485
 20
0.1387195828
 10
-16.8181884359
 20
-0.5940010853
 10
-16.81787947
 20
-1.3429401346
 10
-16.8163025974
 20
-2.1176455434
 10
-16.8133623004
 20
-2.9212999711
 10
-16.8091540967
 20
-3.7507207582
 10
-16.8036779864
 20
-4.6059079049
  0
LWPOLYLINE
  5
273
100
AcDbEntity
  8
RACCORDO
100
AcDbPolyline
 62
253
  6
CONTINUOUS
 90
31
 70
0
 10
-14.9959160392
 20
23.9701990979
 10
-14.9956754579
 20
23.9816110073
 10
-14.9949543667
 20
23.993232464
 10
-14.9937547249
 20
24.005031837
 10
-14.9920797925
 20
24.0169770237
 10
-14.9899341259
 20
24.0290354988
 10
-14.9873235713
 20
24.0411744025
 10
-14.9842552378
 20
24.0533606847
 10
-14.9807374765
 20
24.0655611841
 10
-14.9767798673
 20
24.077742681
 10
-14.9723931854
 20
24.0898720166
 10
-14.9675893724
 20
24.1019161788
 10
-14.9623815078
 20
24.1138423807
 10
-14.9567837624
 20
24.1256181754
 10
-14.9508113808
 20
24.1372114978
 10
-14.9444806465
 20
24.14859075
 10
-14.9378088256
 20
24.1597249178
 10
-14.9308140572
 20
24.1705837494
 10
-14.9235153204
 20
24.1811377854
 10
-14.9159323778
 20
24.1913584281
 10
-14.9080859594
 20
24.201217717
 10
-14.8999976681
 20
24.2106885332
 10
-14.8916897004
 20
24.2197449613
 10
-14.883184528
 20
24.2283625779
 10
-14.8745050653
 20
24.2365181917
 10
-14.8656729748
 20
24.2441912403
 10
-14.8567141918
 20
24.2513589879
 10
-14.8476588549
 20
24.2579978944
 10
-14.8385336861
 20
24.2640896918
 10
-14.8293616816
 20
24.2696203391
 10
-14.8201677832
 20
24.2745759129
  0
LINE
  5
274
100
AcDbEntity
  8
RACCORDO
100
AcDbLine
 62
7
  6
CONTINUOUS
 10
-2.7722278269
 20
18.0353149857
 11
-3.1299069761
 21
17.8357190338
  0
LINE
  5
275
100
AcDbEntity
  8
RACCORDO
100
AcDbLine
 62
7
  6
CONTINUOUS
 10
0.01423641
 20
18.4110618531
 11
-1.5689352849
 21
17.5988648058
  0
LINE
  5
276
100
AcDbEntity
  8
RACCORDO
100
AcDbLine
 62
253
  6
CONTINUOUS
 10
0.1269069844
 20
18.404400928
 11
-1.4558496188
 21
17.5924168307
  0
LINE
  5
277
100
AcDbEntity
  8
RACCORDO
100
AcDbLine
 62
253
  6
CONTINUOUS
 10
1.4704158519
 20
17.7326464942
 11
-0.130864939
 21
16.9299244907
  0
LINE
  5
278
100
AcDbEntity
  8
RACCORDO
100
AcDbLine
 62
7
  6
CONTINUOUS
 10
0.0159747956
 20
18.4119310859
 11
0.0142383837
 21
18.4110628656
  0
LINE
  5
279
100
AcDbEntity
  8
RACCORDO
100
AcDbLine
 62
253
  6
CONTINUOUS
 10
1.9986830236
 20
17.9960853143
 11
1.4704158519
 21
17.7326464942
  0
LINE
  5
27A
100
AcDbEntity
  8
RACCORDO
100
AcDbLine
 62
7
  6
CONTINUOUS
 10
0.550844752
 20
18.6724831856
 11
0.0159775611
 21
18.4119324331
  0
LINE
  5
27B
100
AcDbEntity
  8
RACCORDO
100
AcDbLine
 62
253
  6
CONTINUOUS
 10
0.6613568631
 20
18.6647483946
 11
0.1269069844
 21
18.404400928
  0
LINE
  5
27C
100
AcDbEntity
  8
RACCORDO
100
AcDbLine
 62
7
  6
CONTINUOUS
 10
6.3820270277
 20
20.4597831182
 11
1.6984901481
 21
18.2081591229
  0
LWPOLYLINE
  5
27D
100
AcDbEntity
  8
RACCORDO
100
AcDbPolyline
 62
7
  6
CONTINUOUS
 90
18
 70
0
 10
0.550844752
 20
18.6724831856
 10
0.5630657117
 20
18.6780355518
 10
0.5756948354
 20
18.6829699919
 10
0.5886936346
 20
18.6872486209
 10
0.602038885
 20
18.6908411947
 10
0.6156646143
 20
18.6937094219
 10
0.6294635732
 20
18.6958188939
 10
0.6433625552
 20
18.697155142
 10
0.6573319765
 20
18.6977135296
 10
0.6713328281
 20
18.6974891767
 10
0.6853062923
 20
18.6964805703
 10
0.6992120476
 20
18.6946891029
 10
0.7130454875
 20
18.6921101105
 10
0.726813549
 20
18.6887288484
 10
0.7404145979
 20
18.6845567499
 10
0.7537004285
 20
18.6796402388
 10
0.7666345838
 20
18.6740034485
 10
0.7721378275
 20
18.6713352829
  0
LINE
  5
27E
100
AcDbEntity
  8
RACCORDO
100
AcDbLine
 62
7
  6
CONTINUOUS
 10
6.6448743168
 20
-15.3843236723
 11
2.7078497273
 21
-16.4974368981
  0
LWPOLYLINE
  5
27F
100
AcDbEntity
  8
RACCORDO
100
AcDbPolyline
 62
7
  6
CONTINUOUS
 90
42
 70
0
 10
6.6448767571
 20
-15.3843295715
 10
6.6535885358
 20
-15.3821805367
 10
6.6646758425
 20
-15.3802979208
 10
6.6760382559
 20
-15.3792990814
 10
6.687682651
 20
-15.3791761727
 10
6.6995285217
 20
-15.3799256111
 10
6.7115845885
 20
-15.3815539899
 10
6.7238421309
 20
-15.3840547159
 10
6.7361944819
 20
-15.3874044251
 10
6.7486376886
 20
-15.3916086977
 10
6.7611757039
 20
-15.3966619536
 10
6.7737137192
 20
-15.4025240885
 10
6.7862517344
 20
-15.4091999689
 10
6.7987897497
 20
-15.4166847282
 10
6.8112329564
 20
-15.4249236623
 10
6.8235853074
 20
-15.4339263041
 10
6.8358428498
 20
-15.4436831206
 10
6.8478989166
 20
-15.4541108086
 10
6.8597447873
 20
-15.4652072409
 10
6.8713891824
 20
-15.4769745446
 10
6.8827515958
 20
-15.4893357974
 10
6.8938389025
 20
-15.5023057201
 10
6.9046442277
 20
-15.5158695917
 10
6.9150664404
 20
-15.5299063281
 10
6.9250953711
 20
-15.5444097757
 10
6.9347411894
 20
-15.5593860879
 10
6.943933273
 20
-15.5747326406
 10
6.9526743069
 20
-15.5904628406
 10
6.9609616062
 20
-15.606563281
 10
6.9687164938
 20
-15.6228911178
 10
6.9759313963
 20
-15.6394424826
 10
6.9826138872
 20
-15.6562212437
 10
6.9887080092
 20
-15.6730961619
 10
6.994210382
 20
-15.6900719616
 10
6.999124386
 20
-15.7071439183
 10
7.0034042046
 20
-15.724166619
 10
7.0070440261
 20
-15.7411399976
 10
7.0100496623
 20
-15.7580641202
 10
7.0123927322
 20
-15.7747937714
 10
7.0140637753
 20
-15.7912805461
 10
7.0150722521
 20
-15.8075728494
 10
7.0154181625
 20
-15.8236706814
  0
LWPOLYLINE
  5
280
100
AcDbEntity
  8
RACCORDO
100
AcDbPolyline
 62
253
  6
CONTINUOUS
 90
19
 70
0
 10
-14.9959160392
 20
23.6302251638
 10
-14.9956961845
 20
23.6195405072
 10
-14.9950371673
 20
23.6091022808
 10
-14.9939406265
 20
23.5989364483
 10
-14.9924092956
 20
23.5890683298
 10
-14.9904469803
 20
23.5795224351
 10
-14.9880585345
 20
23.5703224147
 10
-14.9852498644
 20
23.5614911028
 10
-14.9820279589
 20
23.5530505457
 10
-14.9784008613
 20
23.5450218374
 10
-14.9743775817
 20
23.5374249265
 10
-14.9699681391
 20
23.5302787357
 10
-14.9651836026
 20
23.5236011703
 10
-14.9600359691
 20
23.5174088931
 10
-14.9545380012
 20
23.5117171806
 10
-14.9487032675
 20
23.5065400544
 10
-14.942545051
 20
23.5018895394
 10
-14.9360797768
 20
23.4977782657
 10
-14.9309415921
 20
23.4950061384
  0
LWPOLYLINE
  5
281
100
AcDbEntity
  8
RACCORDO
100
AcDbPolyline
 62
253
  6
CONTINUOUS
 90
19
 70
0
 10
-13.6709313594
 20
22.9677328239
 10
-13.6707115047
 20
22.9570481673
 10
-13.6700524874
 20
22.9466099409
 10
-13.6689559467
 20
22.9364441084
 10
-13.6674246158
 20
22.9265759899
 10
-13.6654623005
 20
22.9170300952
 10
-13.6630738547
 20
22.9078300748
 10
-13.6602651846
 20
22.8989987629
 10
-13.6570432791
 20
22.8905582058
 10
-13.6534161815
 20
22.8825294975
 10
-13.6493929019
 20
22.8749325866
 10
-13.6449834593
 20
22.8677863958
 10
-13.6401989227
 20
22.8611088304
 10
-13.6350512893
 20
22.8549165532
 10
-13.6295533214
 20
22.8492248407
 10
-13.6237185876
 20
22.8440477145
 10
-13.6175603712
 20
22.8393971995
 10
-13.611095097
 20
22.8352859258
 10
-13.6059686801
 20
22.8325196832
  0
LINE
  5
282
100
AcDbEntity
  8
RACCORDO
100
AcDbLine
 62
253
  6
CONTINUOUS
 10
-14.6979128947
 20
-7.8168715033
 11
-14.6838570201
 21
-8.9801207143
  0
LINE
  5
283
100
AcDbEntity
  8
RACCORDO
100
AcDbLine
 62
253
  6
CONTINUOUS
 10
-13.9984756292
 20
-7.3820110068
 11
-13.9853972129
 21
-8.5445971432
  0
LINE
  5
284
100
AcDbEntity
  8
RACCORDO
100
AcDbLine
 62
253
  6
CONTINUOUS
 10
-14.8237789524
 20
-5.5958573747
 11
-14.811648444
 21
-6.9754246161
  0
LINE
  5
285
100
AcDbEntity
  8
RACCORDO
100
AcDbLine
 62
7
  6
CONTINUOUS
 10
-15.0691393439
 20
24.0585874455
 11
-15.0691393439
 21
23.7186135114
  0
LINE
  5
286
100
AcDbEntity
  8
RACCORDO
100
AcDbLine
 62
253
  6
CONTINUOUS
 10
-14.9959160392
 20
23.9701990979
 11
-14.9959160392
 21
23.6302251638
  0
LINE
  5
287
100
AcDbEntity
  8
RACCORDO
100
AcDbLine
 62
7
  6
CONTINUOUS
 10
-14.3661463896
 20
23.2126085371
 11
-14.3661463896
 21
22.7586514425
  0
LINE
  5
288
100
AcDbEntity
  8
RACCORDO
100
AcDbLine
 62
253
  6
CONTINUOUS
 10
-14.2929230849
 20
23.1759968847
 11
-14.2929230849
 21
22.6669227406
  0
LINE
  5
289
100
AcDbEntity
  8
DRAFT
100
AcDbLine
 62
7
  6
CONTINUOUS
 10
-14.0505809868
 20
-5.2077353675
 11
-14.0505809868
 21
-6.5933760136
  0
LINE
  5
28A
100
AcDbEntity
  8
RACCORDO
100
AcDbLine
 62
253
  6
CONTINUOUS
 10
-13.6709313594
 20
22.9677328239
 11
-13.6709313594
 21
23.307706758
  0
LINE
  5
28B
100
AcDbEntity
  8
IMPORT_IGES
100
AcDbLine
 62
253
  6
CONTINUOUS
 10
-13.6263169181
 20
-6.4793640653
 11
-13.6263169181
 21
-5.1370246894
  0
LINE
  5
28C
100
AcDbEntity
  8
RACCORDO
100
AcDbLine
 62
253
  6
CONTINUOUS
 10
-13.3184093997
 20
22.9672201
 11
-13.3184093997
 21
23.3071940341
  0
LINE
  5
28D
100
AcDbEntity
  8
DRAFT
100
AcDbLine
 62
7
  6
CONTINUOUS
 10
-13.2374081884
 20
-6.9999624128
 11
-13.2374081884
 21
-8.1690967079
  0
LINE
  5
28E
100
AcDbEntity
  8
IMPORT_IGES
100
AcDbLine
 62
253
  6
CONTINUOUS
 10
-13.2020528494
 20
-4.8772170683
 11
-13.2020528494
 21
-6.2195564442
  0
LINE
  5
28F
100
AcDbEntity
  8
RACCORDO
100
AcDbLine
 62
253
  6
CONTINUOUS
 10
-12.9597107513
 20
22.6891371967
 11
-12.9597107513
 21
22.0003165738
  0
LWPOLYLINE
  5
290
100
AcDbEntity
  8
RACCORDO
100
AcDbPolyline
 62
253
  6
CONTINUOUS
 90
31
 70
0
 10
-13.6709313594
 20
23.307706758
 10
-13.6706908839
 20
23.3191161339
 10
-13.6699701117
 20
23.3307349441
 10
-13.6687710038
 20
23.3425315777
 10
-13.6670968225
 20
23.35447394
 10
-13.6649521228
 20
23.3665295397
 10
-13.6623427396
 20
23.3786655775
 10
-13.6592757723
 20
23.3908490354
 10
-13.655759565
 20
23.403046766
 10
-13.6518036842
 20
23.4152255835
 10
-13.6474188925
 20
23.4273523533
 10
-13.6426171195
 20
23.4393940824
 10
-13.6374114293
 20
23.4513180094
 10
-13.6318159847
 20
23.463091693
 10
-13.6258460091
 20
23.4746831011
 10
-13.619517745
 20
23.4860606972
 10
-13.6128484093
 20
23.4971935267
 10
-13.6058561472
 20
23.5080513008
 10
-13.5985599822
 20
23.5186044791
 10
-13.5909797649
 20
23.5288243499
 10
-13.5831361185
 20
23.5386831083
 10
-13.5750503829
 20
23.5481539318
 10
-13.5667445569
 20
23.5572110535
 10
-13.5582412377
 20
23.565829832
 10
-13.5495635602
 20
23.5739868184
 10
-13.5407351333
 20
23.5816598202
 10
-13.5317799764
 20
23.5888279618
 10
-13.5227224535
 20
23.595471741
 10
-13.513587207
 20
23.6015730822
 10
-13.5043990911
 20
23.6071153858
 10
-13.4951831034
 20
23.612083573
  0
LWPOLYLINE
  5
291
100
AcDbEntity
  8
RACCORDO
100
AcDbPolyline
 62
7
  6
CONTINUOUS
 90
5
 70
0
 10
-9.4878831654
 20
22.0350334707
 10
-9.4899197087
 20
22.0259120727
 10
-9.4914340675
 20
22.0160784752
 10
-9.4923904512
 20
22.0056203152
 10
-9.4927221981
 20
21.9939465589
  0
LWPOLYLINE
  5
292
100
AcDbEntity
  8
RACCORDO
100
AcDbPolyline
 62
253
  6
CONTINUOUS
 90
25
 70
0
 10
-4.7865134963
 20
13.3406425541
 10
-4.8489331278
 20
13.3031585241
 10
-4.9115287185
 20
13.2609613424
 10
-4.974062842
 20
13.2140794162
 10
-5.0363485435
 20
13.1625114207
 10
-5.0980648323
 20
13.1063782132
 10
-5.1587699526
 20
13.0459629196
 10
-5.2182133085
 20
12.9814147738
 10
-5.2761235813
 20
12.9129248154
 10
-5.3320556583
 20
12.840942225
 10
-5.3857626935
 20
12.7657358141
 10
-5.4370212006
 20
12.6875673659
 10
-5.4854726427
 20
12.6069566154
 10
-5.5309254463
 20
12.5242237275
 10
-5.5731995636
 20
12.4396979542
 10
-5.6120222404
 20
12.3539609947
 10
-5.647275277
 20
12.2673487152
 10
-5.6788448551
 20
12.1802226996
 10
-5.7065529768
 20
12.0932207315
 10
-5.7303591459
 20
12.0066979804
 10
-5.750249476
 20
11.9209669056
 10
-5.7661812198
 20
11.8365854261
 10
-5.778191932
 20
11.7539249809
 10
-5.7863619906
 20
11.6731739012
 10
-5.790768982
 20
11.5945820422
  0
LWPOLYLINE
  5
293
100
AcDbEntity
  8
ASSI
100
AcDbPolyline
 62
7
  6
CONTINUOUS
 90
43
 70
0
 10
-4.5801435172
 20
13.1775984048
 10
-4.6174339507
 20
13.1557467757
 10
-4.6545182563
 20
13.132412506
 10
-4.6913964339
 20
13.1075955958
 10
-4.7281135571
 20
13.0812617048
 10
-4.7646245524
 20
13.0534451733
 10
-4.8007941987
 20
13.0242490217
 10
-4.8366212302
 20
12.9936681341
 10
-4.8721069126
 20
12.9617076264
 10
-4.9071198224
 20
12.9284858665
 10
-4.9416582064
 20
12.8939981777
 10
-4.9757238177
 20
12.8582492366
 10
-5.009190492
 20
12.8213714421
 10
-5.0420560082
 20
12.7833606083
 10
-5.0743225873
 20
12.7442209209
 10
-5.1058707279
 20
12.7040973367
 10
-5.1366977658
 20
12.6629862072
 10
-5.1668063651
 20
12.6208911808
 10
-5.1960850165
 20
12.5779681593
 10
-5.2245306425
 20
12.5342140725
 10
-5.2521463206
 20
12.4896319907
 10
-5.2788297742
 20
12.4443870267
 10
-5.3045775465
 20
12.3984767225
 10
-5.3293930944
 20
12.3519035361
 10
-5.3531845116
 20
12.3048399545
 10
-5.3759480007
 20
12.2572841594
 10
-5.3976873591
 20
12.2092379691
 10
-5.4183220738
 20
12.1608793261
 10
-5.4378480484
 20
12.1122070718
 10
-5.4562693793
 20
12.0632223647
 10
-5.4735178416
 20
12.0141066232
 10
-5.4895890863
 20
11.9648593614
 10
-5.5044874625
 20
11.9154810651
 10
-5.518157793
 20
11.8661546104
 10
-5.5305955241
 20
11.8168801894
 10
-5.5418052095
 20
11.7676576099
 10
-5.5517453334
 20
11.7186691712
 10
-5.560411188
 20
11.6699157414
 10
-5.5678074811
 20
11.6213964525
 10
-5.57390682
 20
11.5732909989
 10
-5.5787000738
 20
11.5256592788
 10
-5.5821963734
 20
11.4784413941
 10
-5.5843957188
 20
11.4316373447
  0
LWPOLYLINE
  5
294
100
AcDbEntity
  8
RACCORDO
100
AcDbPolyline
 62
253
  6
CONTINUOUS
 90
43
 70
0
 10
-3.8735487081
 20
12.8243010002
 10
-3.9112007525
 20
12.8027153165
 10
-3.9487346928
 20
12.7795852458
 10
-3.9861046348
 20
12.7549397912
 10
-4.0232648947
 20
12.7288104609
 10
-4.0601700489
 20
12.7012293629
 10
-4.0967749516
 20
12.6722289646
 10
-4.1330356221
 20
12.6418446354
 10
-4.1689068862
 20
12.6101147953
 10
-4.2043424312
 20
12.577078973
 10
-4.2392985249
 20
12.5427787021
 10
-4.2737328518
 20
12.5072563522
 10
-4.3076021229
 20
12.4705551143
 10
-4.3408649502
 20
12.4327205631
 10
-4.3734806292
 20
12.393799814
 10
-4.4054079892
 20
12.3538404237
 10
-4.4366080601
 20
12.3128918844
 10
-4.4670425997
 20
12.2710052258
 10
-4.4966728728
 20
12.2282321471
 10
-4.5254625306
 20
12.1846259111
 10
-4.5533765126
 20
12.1402405619
 10
-4.580379569
 20
12.0951305199
 10
-4.6064386442
 20
12.0493517725
 10
-4.6315219235
 20
12.0029611572
 10
-4.6555977352
 20
11.9560155887
 10
-4.6786366664
 20
11.9085731403
 10
-4.7006105118
 20
11.8606928354
 10
-4.7214913262
 20
11.8124339271
 10
-4.7412534849
 20
11.7638564168
 10
-4.7598729695
 20
11.7150203977
 10
-4.7773263058
 20
11.6659858417
 10
-4.793592086
 20
11.6168135934
 10
-4.8086505167
 20
11.5675645319
 10
-4.8224826768
 20
11.5182989181
 10
-4.8350717135
 20
11.469077215
 10
-4.8464021044
 20
11.4199609795
 10
-4.8564592602
 20
11.3710120086
 10
-4.8652307225
 20
11.3222919501
 10
-4.8727061283
 20
11.2738600638
 10
-4.8788763219
 20
11.2257741493
 10
-4.8837336247
 20
11.178093047
 10
-4.8872720226
 20
11.13087652
 10
-4.8894871013
 20
11.0841830359
  0
LINE
  5
295
100
AcDbEntity
  8
RACCORDO
100
AcDbLine
 62
253
  6
CONTINUOUS
 10
-2.9136491831
 20
14.3972866771
 11
-4.7865134963
 21
13.3406425541
  0
LINE
  5
296
100
AcDbEntity
  8
ASSI
100
AcDbLine
 62
7
  6
CONTINUOUS
 10
-4.5801435172
 20
13.1775984048
 11
-2.7015171487
 21
14.2374933996
  0
LINE
  5
297
100
AcDbEntity
  8
RACCORDO
100
AcDbLine
 62
7
  6
CONTINUOUS
 10
0.7571293728
 20
15.328056671
 11
1.6471895555
 21
15.8253534818
  0
LINE
  5
298
100
AcDbEntity
  8
RACCORDO
100
AcDbLine
 62
253
  6
CONTINUOUS
 10
-3.8735487081
 20
12.8243010002
 11
0.6454824303
 21
15.2913729285
  0
LINE
  5
299
100
AcDbEntity
  8
RACCORDO
100
AcDbLine
 62
7
  6
CONTINUOUS
 10
7.2635624863
 20
19.7259249269
 11
1.772019158
 21
16.763111316
  0
LWPOLYLINE
  5
29A
100
AcDbEntity
  8
RACCORDO
100
AcDbPolyline
 62
7
  6
CONTINUOUS
 90
13
 70
0
 10
0.7571293728
 20
15.328056671
 10
0.7492590812
 20
15.3238493628
 10
0.7410722121
 20
15.3198389535
 10
0.7325840232
 20
15.3160321909
 10
0.7238098001
 20
15.3124392663
 10
0.7147664431
 20
15.3090624928
 10
0.7054725976
 20
15.3058961728
 10
0.6959456928
 20
15.3029485538
 10
0.6862037602
 20
15.3002214566
 10
0.6762672734
 20
15.297698724
 10
0.6661557753
 20
15.2953773767
 10
0.6558876962
 20
15.2932677554
 10
0.6454824303
 20
15.2913729285
  0
LINE
  5
29B
100
AcDbEntity
  8
RACCORDO
100
AcDbLine
 62
7
  6
CONTINUOUS
 10
7.2635624863
 20
19.2285949699
 11
1.9054111491
 21
16.3960445896
  0
LINE
  5
29C
100
AcDbEntity
  8
RACCORDO
100
AcDbLine
 62
253
  6
CONTINUOUS
 10
1.6471895555
 20
17.4277569554
 11
0.0459087647
 21
16.6250349519
  0
LINE
  5
29D
100
AcDbEntity
  8
RACCORDO
100
AcDbLine
 62
253
  6
CONTINUOUS
 10
2.1754567273
 20
17.6911957755
 11
1.6471895555
 21
17.4277569554
  0
LINE
  5
29E
100
AcDbEntity
  8
RACCORDO
100
AcDbLine
 62
253
  6
CONTINUOUS
 10
2.3541886266
 20
16.1716558509
 11
1.6471895555
 21
15.8377122185
  0
LINE
  5
29F
100
AcDbEntity
  8
RACCORDO
100
AcDbLine
 62
253
  6
CONTINUOUS
 10
2.7078497273
 20
15.5617301603
 11
1.9899733044
 21
15.2226487243
  0
LINE
  5
2A0
100
AcDbEntity
  8
RACCORDO
100
AcDbLine
 62
253
  6
CONTINUOUS
 10
-14.6838570201
 20
-8.9801207143
 11
-10.4283962228
 21
-11.107851113
  0
LINE
  5
2A1
100
AcDbEntity
  8
RACCORDO
100
AcDbLine
 62
253
  6
CONTINUOUS
 10
-13.9798938828
 20
-8.5417832077
 11
-10.5833554176
 21
-10.2400524403
  0
LINE
  5
2A2
100
AcDbEntity
  8
RACCORDO
100
AcDbLine
 62
253
  6
CONTINUOUS
 10
-15.5110856931
 20
-7.4102851041
 11
-14.6979128947
 21
-7.8168715033
  0
LINE
  5
2A3
100
AcDbEntity
  8
RACCORDO
100
AcDbLine
 62
253
  6
CONTINUOUS
 10
-10.4422091335
 20
-9.944723384
 11
-9.6290363351
 21
-10.3513097831
  0
LINE
  5
2A4
100
AcDbEntity
  8
DRAFT
100
AcDbLine
 62
7
  6
CONTINUOUS
 10
-13.2374081884
 20
-8.1690967079
 11
-10.5915530831
 21
-9.4920242606
  0
LINE
  5
2A5
100
AcDbEntity
  8
IMPORT_IGES
100
AcDbLine
 62
7
  6
CONTINUOUS
 10
-10.5902522247
 20
-9.4149464889
 11
-13.2374081884
 21
-8.091368507
  0
LINE
  5
2A6
100
AcDbEntity
  8
IMPORT_IGES
100
AcDbLine
 62
253
  6
CONTINUOUS
 10
-13.2374081884
 20
-7.9680903448
 11
-10.5678554841
 21
-9.3028666969
  0
LINE
  5
2A7
100
AcDbEntity
  8
IMPORT_IGES
100
AcDbLine
 62
7
  6
CONTINUOUS
 10
-10.5577168504
 20
-9.2772847671
 11
-12.8308217892
 21
-8.1407322977
  0
LINE
  5
2A8
100
AcDbEntity
  8
RACCORDO
100
AcDbLine
 62
253
  6
CONTINUOUS
 10
-14.8071086214
 20
-6.9731107859
 11
-13.9939358231
 21
-7.3796971851
  0
LINE
  5
2A9
100
AcDbEntity
  8
RACCORDO
100
AcDbLine
 62
253
  6
CONTINUOUS
 10
-10.4453119185
 20
-9.1540091374
 11
-9.7824418693
 21
-9.485444162
  0
LWPOLYLINE
  5
2AA
100
AcDbEntity
  8
RACCORDO
100
AcDbPolyline
 62
253
  6
CONTINUOUS
 90
31
 70
0
 10
0.0459087647
 20
-25.0145431216
 10
0.0410302649
 20
-25.0069303612
 10
0.0356846233
 20
-24.9990938961
 10
0.0298860332
 20
-24.9910549164
 10
0.0236493481
 20
-24.9828344273
 10
0.0169917539
 20
-24.9744554654
 10
0.0099331048
 20
-24.9659431725
 10
0.002493449
 20
-24.9573216724
 10
-0.0053075871
 20
-24.9486136592
 10
-0.0134489064
 20
-24.9398426943
 10
-0.0219084418
 20
-24.9310325818
 10
-0.0306629787
 20
-24.9222075274
 10
-0.0396883989
 20
-24.9133918539
 10
-0.0489599653
 20
-24.9046097199
 10
-0.0584524345
 20
-24.8958850326
 10
-0.0681399029
 20
-24.8872416015
 10
-0.0779959274
 20
-24.8787030221
 10
-0.0879935733
 20
-24.8702926315
 10
-0.0981055092
 20
-24.8620334225
 10
-0.1083041073
 20
-24.8539479609
 10
-0.118561519
 20
-24.8460583245
 10
-0.128849727
 20
-24.8383860634
 10
-0.1391406456
 20
-24.8309521225
 10
-0.1494061505
 20
-24.8237768188
 10
-0.1596181565
 20
-24.8168797814
 10
-0.1697487416
 20
-24.8102798639
 10
-0.1797702674
 20
-24.8039950681
 10
-0.1896554058
 20
-24.7980425303
 10
-0.1993771714
 20
-24.7924385008
 10
-0.2089089967
 20
-24.7871982945
 10
-0.2182248473
 20
-24.7823362239
  0
LWPOLYLINE
  5
2AB
100
AcDbEntity
  8
RACCORDO
100
AcDbPolyline
 62
253
  6
CONTINUOUS
 90
31
 70
0
 10
-13.3184093997
 20
23.3071940341
 10
-13.3187044941
 20
23.3186222733
 10
-13.3194806777
 20
23.3302629686
 10
-13.3207358251
 20
23.3420842023
 10
-13.3224664995
 20
23.3540535726
 10
-13.3246679573
 20
23.3661382484
 10
-13.3273341567
 20
23.3783050584
 10
-13.3304577834
 20
23.3905206324
 10
-13.3340302728
 20
23.4027514824
 10
-13.3380418241
 20
23.4149640595
 10
-13.3424814343
 20
23.4271248742
 10
-13.3473369284
 20
23.4392005839
 10
-13.3525949885
 20
23.4511580727
 10
-13.3582412012
 20
23.4629645677
 10
-13.3642600763
 20
23.4745876824
 10
-13.3706350825
 20
23.4859955039
 10
-13.3773487049
 20
23.4971567104
 10
-13.3843825554
 20
23.5080407518
 10
-13.3917174071
 20
23.5186178807
 10
-13.3993332511
 20
23.5288592228
 10
-13.4072091143
 20
23.5387365555
 10
-13.4153231562
 20
23.5482225134
 10
-13.4236529482
 20
23.5572909499
 10
-13.4321757909
 20
23.5659172252
 10
-13.4408685493
 20
23.5740779492
 10
-13.4497093373
 20
23.5817523695
 10
-13.4586720276
 20
23.5889176034
 10
-13.4677263328
 20
23.595550007
 10
-13.4768453774
 20
23.601631208
 10
-13.4860059959
 20
23.6071470613
 10
-13.4951831034
 20
23.612083573
  0
LWPOLYLINE
  5
2AC
100
AcDbEntity
  8
RACCORDO
100
AcDbPolyline
 62
7
  6
CONTINUOUS
 90
33
 70
0
 10
-10.5786877596
 20
-10.6282746997
 10
-10.5783974928
 20
-10.6409918107
 10
-10.577730729
 20
-10.6562565484
 10
-10.5767151116
 20
-10.6715907177
 10
-10.575349795
 20
-10.6869833524
 10
-10.573659204
 20
-10.7024264257
 10
-10.5716444332
 20
-10.7179104996
 10
-10.5693051703
 20
-10.733425699
 10
-10.5666630792
 20
-10.7489642189
 10
-10.5637192762
 20
-10.76451776
 10
-10.5604739036
 20
-10.7800773243
 10
-10.5569466167
 20
-10.7956346994
 10
-10.5531385815
 20
-10.8111824937
 10
-10.5490503403
 20
-10.8267124841
 10
-10.5447001948
 20
-10.8422156789
 10
-10.5400894253
 20
-10.8576853957
 10
-10.5352189299
 20
-10.8731141476
 10
-10.5301061532
 20
-10.8884920928
 10
-10.5247524702
 20
-10.9038133782
 10
-10.5191591871
 20
-10.9190709788
 10
-10.5133435174
 20
-10.934253591
 10
-10.507307041
 20
-10.9493560137
 10
-10.5010514604
 20
-10.9643717844
 10
-10.4945942262
 20
-10.9792879949
 10
-10.4879371936
 20
-10.9941001146
 10
-10.4810825041
 20
-11.0088022242
 10
-10.4740482866
 20
-11.023379661
 10
-10.4668367797
 20
-11.03782855
 10
-10.4594505874
 20
-11.0521436016
 10
-10.4519088394
 20
-11.0663084503
 10
-10.444219953
 20
-11.0803151014
 10
-10.4363813997
 20
-11.0941638382
 10
-10.4283962228
 20
-11.107851113
  0
LWPOLYLINE
  5
2AD
100
AcDbEntity
  8
RACCORDO
100
AcDbPolyline
 62
7
  6
CONTINUOUS
 90
33
 70
0
 10
-10.5918378969
 20
-9.464501622
 10
-10.5915561688
 20
-9.4778408431
 10
-10.5909082544
 20
-9.4930943363
 10
-10.5899117799
 20
-9.5084181906
 10
-10.588565875
 20
-9.5238014278
 10
-10.5868949612
 20
-9.5392360002
 10
-10.5849001125
 20
-9.5547124576
 10
-10.582580994
 20
-9.5702209129
 10
-10.579959266
 20
-9.5857535438
 10
-10.5770360263
 20
-9.6013020392
 10
-10.5738113963
 20
-9.6168573893
 10
-10.570305027
 20
-9.6324113671
 10
-10.5665180671
 20
-9.6479565696
 10
-10.56245104
 20
-9.6634847614
 10
-10.5581222411
 20
-9.6789869384
 10
-10.5535329352
 20
-9.6944564065
 10
-10.5486840024
 20
-9.7098856666
 10
-10.5435928798
 20
-9.7252648651
 10
-10.5382609277
 20
-9.7405881372
 10
-10.5326894357
 20
-9.7558484454
 10
-10.5268956067
 20
-9.771034474
 10
-10.5208810076
 20
-9.7861410098
 10
-10.5146473246
 20
-9.8011615773
 10
-10.5082119955
 20
-9.816083255
 10
-10.5015768627
 20
-9.8309014996
 10
-10.4947440531
 20
-9.8456103779
 10
-10.4877316789
 20
-9.8601952117
 10
-10.4805419672
 20
-9.8746521126
 10
-10.4731775083
 20
-9.8889757757
 10
-10.4656574116
 20
-9.9031498169
 10
-10.4579900804
 20
-9.9171662247
 10
-10.4501729769
 20
-9.9310252681
 10
-10.4422091335
 20
-9.944723384
  0
LWPOLYLINE
  5
2AE
100
AcDbEntity
  8
RACCORDO
100
AcDbPolyline
 62
7
  6
CONTINUOUS
 90
34
 70
0
 10
-11.7171286089
 20
24.1099160376
 10
-11.7173286649
 20
24.1203178463
 10
-11.7179289024
 20
24.1308962143
 10
-11.7189278604
 20
24.1416272324
 10
-11.7203230959
 20
24.1524866855
 10
-11.7221114442
 20
24.163449978
 10
-11.7242890255
 20
24.1744921889
 10
-11.72685085
 20
24.1855883359
 10
-11.7297910243
 20
24.1967133293
 10
-11.7331030193
 20
24.2078418997
 10
-11.7367792964
 20
24.2189488575
 10
-11.7408114566
 20
24.2300090787
 10
-11.7451904539
 20
24.24099746
 10
-11.7499063545
 20
24.2518891176
 10
-11.7549484245
 20
24.2626594047
 10
-11.7603052851
 20
24.2732838959
 10
-11.7659648094
 20
24.2837385204
 10
-11.7719141473
 20
24.2939996105
 10
-11.7781398191
 20
24.3040439169
 10
-11.7846277516
 20
24.3138486718
 10
-11.7913632404
 20
24.323391669
 10
-11.7983309797
 20
24.3326513092
 10
-11.8055152367
 20
24.3416065916
 10
-11.8128997524
 20
24.3502372236
 10
-11.8204677067
 20
24.3585236963
 10
-11.8282020282
 20
24.3664472037
 10
-11.8360852342
 20
24.3739897797
 10
-11.8440993336
 20
24.3811344035
 10
-11.852226264
 20
24.3878648463
 10
-11.860447675
 20
24.3941658348
 10
-11.8687447718
 20
24.400023182
 10
-11.8770987651
 20
24.4054236188
 10
-11.8854909143
 20
24.4103548234
 10
-11.8939023126
 20
24.4148055765
  0
LWPOLYLINE
  5
2AF
100
AcDbEntity
  8
RACCORDO
100
AcDbPolyline
 62
253
  6
CONTINUOUS
 90
31
 70
0
 10
-11.1888614371
 20
24.3733548577
 10
-11.1890516852
 20
24.38483552
 10
-11.1897289497
 20
24.3965256749
 10
-11.1908913766
 20
24.4083932688
 10
-11.1925357833
 20
24.4204057729
 10
-11.1946576628
 20
24.4325302379
 10
-11.1972511917
 20
24.4447333831
 10
-11.2003092552
 20
24.4569817387
 10
-11.2038234683
 20
24.4692417269
 10
-11.20778419
 20
24.4814797188
 10
-11.2121805567
 20
24.4936621553
 10
-11.2170005119
 20
24.5057556344
 10
-11.222230835
 20
24.5177269917
 10
-11.2278571887
 20
24.5295434161
 10
-11.2338641374
 20
24.5411724941
 10
-11.2402351822
 20
24.5525822963
 10
-11.246952819
 20
24.5637414956
 10
-11.2539986484
 20
24.5746195476
 10
-11.2613534109
 20
24.585186721
 10
-11.2689970434
 20
24.5954141689
 10
-11.2769084964
 20
24.6052737067
 10
-11.2850658306
 20
24.6147380185
 10
-11.2934464968
 20
24.6237810178
 10
-11.3020276566
 20
24.6323781346
 10
-11.3107860162
 20
24.640506058
 10
-11.3196995263
 20
24.6481441172
 10
-11.3287418467
 20
24.6552695361
 10
-11.3378824155
 20
24.6618588079
 10
-11.3470940884
 20
24.6678936947
 10
-11.3563534521
 20
24.6733601754
 10
-11.3656351408
 20
24.6782443965
  0
LINE
  5
2B0
100
AcDbEntity
  8
IMPORT_IGES
100
AcDbLine
 62
253
  6
CONTINUOUS
 10
-12.8308217892
 20
-8.1407322977
 11
-12.8308217892
 21
-6.8771116297
  0
LINE
  5
2B1
100
AcDbEntity
  8
RACCORDO
100
AcDbLine
 62
253
  6
CONTINUOUS
 10
-12.6071887916
 20
22.8187165772
 11
-12.6071887916
 21
22.0110844554
  0
LINE
  5
2B2
100
AcDbEntity
  8
IMPORT_IGES
100
AcDbLine
 62
253
  6
CONTINUOUS
 10
-12.4065577205
 20
-6.6173040086
 11
-12.4065577205
 21
-8.0711170554
  0
LINE
  5
2B3
100
AcDbEntity
  8
IMPORT_IGES
100
AcDbLine
 62
7
  6
CONTINUOUS
 10
-12.0706819995
 20
-5.7904004781
 11
-12.0706819995
 21
-5.6538710192
  0
LINE
  5
2B4
100
AcDbEntity
  8
RACCORDO
100
AcDbLine
 62
7
  6
CONTINUOUS
 10
-11.7171286089
 20
22.5077653767
 11
-11.7171286089
 21
24.1099160376
  0
LINE
  5
2B5
100
AcDbEntity
  8
IMPORT_IGES
100
AcDbLine
 62
7
  6
CONTINUOUS
 10
-11.2751868706
 20
-6.3114262048
 11
-11.2751868706
 21
-7.1341503384
  0
LINE
  5
2B6
100
AcDbEntity
  8
RACCORDO
100
AcDbLine
 62
253
  6
CONTINUOUS
 10
-11.1888614371
 20
24.3733548577
 11
-11.1888614371
 21
24.0258233409
  0
LINE
  5
2B7
100
AcDbEntity
  8
RACCORDO
100
AcDbLine
 62
7
  6
CONTINUOUS
 10
-11.1166635801
 20
24.4612274899
 11
-11.1166635801
 21
24.1136959731
  0
LINE
  5
2B8
100
AcDbEntity
  8
0
100
AcDbLine
 62
7
  6
CONTINUOUS
 10
-10.7625344543
 20
19.0957446267
 11
-10.7625344543
 21
18.3217293127
  0
LWPOLYLINE
  5
2B9
100
AcDbEntity
  8
RACCORDO
100
AcDbPolyline
 62
7
  6
CONTINUOUS
 90
15
 70
0
 10
-11.1166635802
 20
24.1136936609
 10
-11.1168233374
 20
24.1047599185
 10
-11.1175814912
 20
24.0922923988
 10
-11.1189632833
 20
24.079864583
 10
-11.1209675348
 20
24.0675066529
 10
-11.1235908921
 20
24.0552522538
 10
-11.1268292466
 20
24.0431304543
 10
-11.1306765854
 20
24.0311724109
 10
-11.1351249508
 20
24.0194099024
 10
-11.1401653945
 20
24.007872668
 10
-11.1457869385
 20
23.99659128
 10
-11.1519769247
 20
23.9855958562
 10
-11.1587217635
 20
23.9749148472
 10
-11.1660061185
 20
23.9645766146
 10
-11.1735019377
 20
23.9549868685
  0
LWPOLYLINE
  5
2BA
100
AcDbEntity
  8
RACCORDO
100
AcDbPolyline
 62
253
  6
CONTINUOUS
 90
16
 70
0
 10
-11.1166635801
 20
24.4612274931
 10
-11.1169648507
 20
24.455092661
 10
-11.1179445693
 20
24.4485897128
 10
-11.1196012583
 20
24.4421211486
 10
-11.1219304098
 20
24.4357045819
 10
-11.12492569
 20
24.4293574707
 10
-11.1285789489
 20
24.4230970939
 10
-11.132880247
 20
24.4169404908
 10
-11.1378178795
 20
24.4109044203
 10
-11.1433784048
 20
24.4050053179
 10
-11.1495466939
 20
24.3992592364
 10
-11.1563059552
 20
24.3936818208
 10
-11.1636377691
 20
24.3882882685
 10
-11.1715221672
 20
24.383093264
 10
-11.179937693
 20
24.3781109406
 10
-11.1888614371
 20
24.3733548577
  0
LWPOLYLINE
  5
2BB
100
AcDbEntity
  8
RACCORDO
100
AcDbPolyline
 62
253
  6
CONTINUOUS
 90
16
 70
0
 10
-11.1166635802
 20
24.1136936609
 10
-11.1169665034
 20
24.1075443501
 10
-11.1179477404
 20
24.1010426032
 10
-11.1196056982
 20
24.0945752843
 10
-11.1219358646
 20
24.0881599924
 10
-11.1249319001
 20
24.0818141802
 10
-11.1285856566
 20
24.0755551081
 10
-11.1328872013
 20
24.0693997975
 10
-11.137824827
 20
24.0633650059
 10
-11.14338508
 20
24.057467174
 10
-11.1495528135
 20
24.0517223598
 10
-11.1563112521
 20
24.0461461802
 10
-11.1636420228
 20
24.0407537918
 10
-11.1715251869
 20
24.0355598619
 10
-11.1799392894
 20
24.0305785272
 10
-11.1888614371
 20
24.0258233409
  0
LINE
  5
2BC
100
AcDbEntity
  8
RACCORDO
100
AcDbLine
 62
7
  6
CONTINUOUS
 10
2.7025143951
 20
15.6386489756
 11
6.9429814935
 21
18.6869219835
  0
LINE
  5
2BD
100
AcDbEntity
  8
0
100
AcDbLine
 62
253
  6
CONTINUOUS
 10
7.0154181625
 20
18.8650657599
 11
2.6755648153
 21
15.7585952746
  0
LINE
  5
2BE
100
AcDbEntity
  8
IMPORT_IGES
100
AcDbLine
 62
7
  6
CONTINUOUS
 10
3.9487500034
 20
15.2821177977
 11
5.8714716293
 21
16.4418220627
  0
LINE
  5
2BF
100
AcDbEntity
  8
IMPORT_IGES
100
AcDbLine
 62
7
  6
CONTINUOUS
 10
6.3045978673
 20
16.2252589437
 11
5.0163207298
 21
15.4901560373
  0
LINE
  5
2C0
100
AcDbEntity
  8
IMPORT_IGES
100
AcDbLine
 62
7
  6
CONTINUOUS
 10
5.5156827358
 20
15.6018915577
 11
6.3045978673
 21
16.052053863
  0
LWPOLYLINE
  5
2C1
100
AcDbEntity
  8
RACCORDO
100
AcDbPolyline
 62
253
  6
CONTINUOUS
 90
43
 70
0
 10
-3.5077159681
 20
12.2212985545
 10
-3.5329992366
 20
12.2069549395
 10
-3.5581458978
 20
12.1916197747
 10
-3.5831559519
 20
12.1752930602
 10
-3.6080609113
 20
12.157951694
 10
-3.6328292635
 20
12.1396187781
 10
-3.6573664704
 20
12.1203636177
 10
-3.6816709498
 20
12.1001831004
 10
-3.7057442839
 20
12.0790803387
 10
-3.7294966814
 20
12.0571339759
 10
-3.7529266798
 20
12.0343410915
 10
-3.7760357415
 20
12.0107046059
 10
-3.7987384634
 20
11.9863119233
 10
-3.8210333836
 20
11.9611602195
 10
-3.8429219639
 20
11.9352523187
 10
-3.8643231865
 20
11.9086840971
 10
-3.8852353222
 20
11.8814529912
 10
-3.9056601001
 20
11.8535615645
 10
-3.9255216899
 20
11.8251133838
 10
-3.9448179263
 20
11.796106477
 10
-3.9635509746
 20
11.7665428163
 10
-3.9816514996
 20
11.7365318851
 10
-3.999117154
 20
11.7060720402
 10
-4.0159502852
 20
11.6751649249
 10
-4.0320886003
 20
11.6439249527
 10
-4.0475295654
 20
11.6123507901
 10
-4.0622757145
 20
11.5804437706
 10
-4.0762723568
 20
11.5483223082
 10
-4.089516658
 20
11.5159857217
 10
-4.1020114524
 20
11.4834346923
 10
-4.1137105522
 20
11.4507896773
 10
-4.1246110103
 20
11.4180503908
 10
-4.1347157738
 20
11.3852171187
 10
-4.1439874968
 20
11.3524111771
 10
-4.1524231494
 20
11.3196323088
 10
-4.1600257615
 20
11.286880771
 10
-4.1667670769
 20
11.2542786505
 10
-4.1726438842
 20
11.2218251711
 10
-4.1776593947
 20
11.189521109
 10
-4.1817949864
 20
11.1574908803
 10
-4.1850444521
 20
11.1257759569
 10
-4.1874139991
 20
11.0943348669
 10
-4.1889036274
 20
11.0631676102
  0
LINE
  5
2C2
100
AcDbEntity
  8
RACCORDO
100
AcDbLine
 62
253
  6
CONTINUOUS
 10
1.9899733044
 20
15.2226487243
 11
-3.5077159681
 21
12.2212985545
  0
LINE
  5
2C3
100
AcDbEntity
  8
IMPORT_IGES
100
AcDbLine
 62
7
  6
CONTINUOUS
 10
6.118471099
 20
14.9333073258
 11
7.5990310765
 21
15.5780423391
  0
LINE
  5
2C4
100
AcDbEntity
  8
IMPORT_IGES
100
AcDbLine
 62
7
  6
CONTINUOUS
 10
8.0225979379
 20
15.3662589084
 11
5.7100136953
 21
14.4014859517
  0
LINE
  5
2C5
100
AcDbEntity
  8
IMPORT_IGES
100
AcDbLine
 62
7
  6
CONTINUOUS
 10
5.7100136953
 20
14.228280871
 11
8.0225979379
 21
15.1930538277
  0
LWPOLYLINE
  5
2C6
100
AcDbEntity
  8
RACCORDO
100
AcDbPolyline
 62
253
  6
CONTINUOUS
 90
34
 70
0
 10
-4.1889036274
 20
11.0631676102
 10
-4.2061979587
 20
11.0560401436
 10
-4.2242234202
 20
11.0493268571
 10
-4.2429400799
 20
11.0430426227
 10
-4.2623064746
 20
11.0372013621
 10
-4.2822797016
 20
11.0318160153
 10
-4.302815514
 20
11.0268985127
 10
-4.3238684186
 20
11.0224597479
 10
-4.3453917767
 20
11.0185095544
 10
-4.3673379072
 20
11.015056683
 10
-4.3896581927
 20
11.0121087828
 10
-4.4123031867
 20
11.0096723844
 10
-4.4352227235
 20
11.0077528852
 10
-4.4583660292
 20
11.0063545375
 10
-4.4816818341
 20
11.005480439
 10
-4.5051184865
 20
11.0051325262
 10
-4.5286240668
 20
11.0053115697
 10
-4.5521465029
 20
11.006017173
 10
-4.5756336851
 20
11.0072477729
 10
-4.5990335822
 20
11.0090006433
 10
-4.6222943559
 20
11.011271901
 10
-4.6453644765
 20
11.0140565144
 10
-4.6681928363
 20
11.0173483147
 10
-4.6907288635
 20
11.0211400097
 10
-4.7129226337
 20
11.0254231995
 10
-4.7347249808
 20
11.0301883955
 10
-4.7560876058
 20
11.0354250413
 10
-4.7769631838
 20
11.0411215361
 10
-4.7973054688
 20
11.0472652604
 10
-4.8170693964
 20
11.0538426039
 10
-4.8362111834
 20
11.0608389958
 10
-4.8546884245
 20
11.0682389368
 10
-4.8724601871
 20
11.0760260338
 10
-4.8894871011
 20
11.084183036
  0
LINE
  5
2C7
100
AcDbEntity
  8
RACCORDO
100
AcDbLine
 62
253
  6
CONTINUOUS
 10
-17.5042703929
 20
-5.0399767402
 11
-15.5243714056
 21
-6.0299262339
  0
LINE
  5
2C8
100
AcDbEntity
  8
RACCORDO
100
AcDbLine
 62
253
  6
CONTINUOUS
 10
-9.6420923963
 20
-8.9710657386
 11
-7.662193409
 21
-9.9610152322
  0
LINE
  5
2C9
100
AcDbEntity
  8
DRAFT
100
AcDbLine
 62
7
  6
CONTINUOUS
 10
-14.0505809868
 20
-6.5933760136
 11
-13.2374081884
 21
-6.9999624128
  0
LINE
  5
2CA
100
AcDbEntity
  8
IMPORT_IGES
100
AcDbLine
 62
253
  6
CONTINUOUS
 10
-12.8308217892
 20
-6.8771116297
 11
-13.6263169181
 21
-6.4793640653
  0
LINE
  5
2CB
100
AcDbEntity
  8
RACCORDO
100
AcDbLine
 62
7
  6
CONTINUOUS
 10
7.2574459767
 20
-16.7833818881
 11
7.0154181625
 21
-16.6623679811
  0
LINE
  5
2CC
100
AcDbEntity
  8
RACCORDO
100
AcDbLine
 62
253
  6
CONTINUOUS
 10
-16.8002801504
 20
-4.6041827235
 11
-14.820381163
 21
-5.5941322172
  0
LINE
  5
2CD
100
AcDbEntity
  8
RACCORDO
100
AcDbLine
 62
253
  6
CONTINUOUS
 10
-9.6451820105
 20
-8.1817317935
 11
-7.8137341238
 21
-9.0974557368
  0
LINE
  5
2CE
100
AcDbEntity
  8
IMPORT_IGES
100
AcDbLine
 62
253
  6
CONTINUOUS
 10
-13.2020528494
 20
-6.2195564442
 11
-12.4065577205
 21
-6.6173040086
  0
LINE
  5
2CF
100
AcDbEntity
  8
IMPORT_IGES
100
AcDbLine
 62
253
  6
CONTINUOUS
 10
-9.5427752567
 20
-8.0491952405
 11
-9.4649716764
 21
-8.0880970307
  0
LINE
  5
2D0
100
AcDbEntity
  8
IMPORT_IGES
100
AcDbLine
 62
7
  6
CONTINUOUS
 10
-11.2751868706
 20
-7.1341503384
 11
-9.4939361616
 21
-8.0247756929
  0
LINE
  5
2D1
100
AcDbEntity
  8
RACCORDO
100
AcDbLine
 62
253
  6
CONTINUOUS
 10
2.7078497273
 20
-14.0683254369
 11
5.8112350964
 21
-15.6200181214
  0
LINE
  5
2D2
100
AcDbEntity
  8
RACCORDO
100
AcDbLine
 62
7
  6
CONTINUOUS
 10
2.7078497273
 20
-13.9453899528
 11
5.9682950703
 21
-15.5756126243
  0
LINE
  5
2D3
100
AcDbEntity
  8
DRAFT
100
AcDbLine
 62
7
  6
CONTINUOUS
 10
-16.0304799741
 20
-4.2177858739
 11
-14.0505809868
 21
-5.2077353675
  0
LINE
  5
2D4
100
AcDbEntity
  8
DRAFT
100
AcDbLine
 62
7
  6
CONTINUOUS
 10
-8.8887014841
 20
-7.7886751189
 11
-7.8183863922
 21
-8.3238326648
  0
LINE
  5
2D5
100
AcDbEntity
  8
IMPORT_IGES
100
AcDbLine
 62
253
  6
CONTINUOUS
 10
-7.8199514221
 20
-8.0402074374
 11
-8.7472801279
 21
-7.5765430845
  0
LINE
  5
2D6
100
AcDbEntity
  8
IMPORT_IGES
100
AcDbLine
 62
253
  6
CONTINUOUS
 10
-13.6263169181
 20
-5.1370246894
 11
-15.6062159054
 21
-4.1470751958
  0
LINE
  5
2D7
100
AcDbEntity
  8
IMPORT_IGES
100
AcDbLine
 62
253
  6
CONTINUOUS
 10
-12.2828140338
 20
-5.7599370364
 11
-11.487318905
 21
-6.1576846008
  0
LINE
  5
2D8
100
AcDbEntity
  8
IMPORT_IGES
100
AcDbLine
 62
7
  6
CONTINUOUS
 10
-11.3531548263
 20
-6.1491640646
 11
-12.1486499552
 21
-5.7514165002
  0
LWPOLYLINE
  5
2D9
100
AcDbEntity
  8
IMPORT_IGES
100
AcDbPolyline
 62
7
  6
CONTINUOUS
 90
8
 70
0
 10
-11.3530146529
 20
-6.1493123549
 10
-11.3373221589
 20
-6.1587861034
 10
-11.3193311558
 20
-6.1749731954
 10
-11.3038364211
 20
-6.1954657137
 10
-11.2915985643
 20
-6.2194396723
 10
-11.2828711219
 20
-6.2466204094
 10
-11.2774005573
 20
-6.2772825869
 10
-11.2751868706
 20
-6.3114262048
  0
LWPOLYLINE
  5
2DA
100
AcDbEntity
  8
RACCORDO
100
AcDbPolyline
 62
7
  6
CONTINUOUS
 90
27
 70
0
 10
-9.4927221981
 20
21.9939465589
 10
-9.4924462011
 20
21.9831826759
 10
-9.4916550171
 20
21.9713228258
 10
-9.4903432466
 20
21.9591100093
 10
-9.4884904888
 20
21.9466042042
 10
-9.4861676591
 20
21.9338272564
 10
-9.4833731229
 20
21.9208223002
 10
-9.4800954248
 20
21.9076353216
 10
-9.4763876751
 20
21.894277809
 10
-9.47224966
 20
21.8807822453
 10
-9.4676754562
 20
21.8671847945
 10
-9.462705964
 20
21.8534936066
 10
-9.457341496
 20
21.8397344355
 10
-9.4515794514
 20
21.8259364312
 10
-9.4454528972
 20
21.8121076511
 10
-9.4389623522
 20
21.7982693311
 10
-9.4321073065
 20
21.784445797
 10
-9.4249162949
 20
21.770646837
 10
-9.4173899966
 20
21.7568905508
 10
-9.4095293572
 20
21.7431979234
 10
-9.4013609178
 20
21.7295815588
 10
-9.3928853895
 20
21.7160569013
 10
-9.3841051184
 20
21.7026429219
 10
-9.3750474335
 20
21.6893567709
 10
-9.3657225917
 20
21.6762145289
 10
-9.3561249944
 20
21.6632308787
 10
-9.3462579951
 20
21.6504201312
  0
LWPOLYLINE
  5
2DB
100
AcDbEntity
  8
RACCORDO
100
AcDbPolyline
 62
7
  6
CONTINUOUS
 90
33
 70
0
 10
-9.7786650986
 20
-9.8710880214
 10
-9.7783833705
 20
-9.8844272422
 10
-9.777735456
 20
-9.8996807353
 10
-9.7767389815
 20
-9.9150045896
 10
-9.7753930766
 20
-9.9303878269
 10
-9.7737221629
 20
-9.9458223993
 10
-9.7717273141
 20
-9.9612988566
 10
-9.7694081957
 20
-9.9768073119
 10
-9.7667864677
 20
-9.9923399429
 10
-9.7638632279
 20
-10.0078884383
 10
-9.7606385979
 20
-10.0234437884
 10
-9.7571322286
 20
-10.0389977662
 10
-9.7533452687
 20
-10.0545429687
 10
-9.7492782416
 20
-10.0700711605
 10
-9.7449494428
 20
-10.0855733375
 10
-9.7403601369
 20
-10.1010428055
 10
-9.7355112041
 20
-10.1164720657
 10
-9.7304200814
 20
-10.1318512642
 10
-9.7250881294
 20
-10.1471745363
 10
-9.7195166373
 20
-10.1624348445
 10
-9.7137228084
 20
-10.1776208731
 10
-9.7077082092
 20
-10.1927274089
 10
-9.7014745263
 20
-10.2077479765
 10
-9.6950391971
 20
-10.2226696541
 10
-9.6884040644
 20
-10.2374878988
 10
-9.6815712547
 20
-10.2521967771
 10
-9.6745588806
 20
-10.2667816109
 10
-9.6673691689
 20
-10.2812385117
 10
-9.6600047099
 20
-10.2955621748
 10
-9.6524846133
 20
-10.3097362161
 10
-9.6448172821
 20
-10.3237526238
 10
-9.6370001785
 20
-10.3376116672
 10
-9.6290363351
 20
-10.3513097831
  0
LWPOLYLINE
  5
2DC
100
AcDbEntity
  8
RACCORDO
100
AcDbPolyline
 62
7
  6
CONTINUOUS
 90
33
 70
0
 10
-9.7909337342
 20
-8.4900887751
 10
-9.7906649422
 20
-8.5041589015
 10
-9.7900393081
 20
-8.5193989573
 10
-9.7890654642
 20
-8.534710476
 10
-9.7877425106
 20
-8.550082465
 10
-9.786094865
 20
-8.5655068518
 10
-9.7841235767
 20
-8.5809741716
 10
-9.7818282843
 20
-8.5964745235
 10
-9.7792306437
 20
-8.6120000647
 10
-9.7763317306
 20
-8.62754247
 10
-9.7731316419
 20
-8.6430927156
 10
-9.7696500233
 20
-8.6586425576
 10
-9.7658880032
 20
-8.6741845789
 10
-9.7618460823
 20
-8.6897105304
 10
-9.7575425488
 20
-8.7052113928
 10
-9.7529786487
 20
-8.7206804582
 10
-9.7481552413
 20
-8.7361102134
 10
-9.7430897542
 20
-8.7514907907
 10
-9.7377835308
 20
-8.7668163114
 10
-9.7322378406
 20
-8.7820797231
 10
-9.7264698745
 20
-8.7972696963
 10
-9.7204811832
 20
-8.8123810031
 10
-9.7142734343
 20
-8.8274071527
 10
-9.7078640497
 20
-8.842335208
 10
-9.7012548574
 20
-8.8571606107
 10
-9.6944479662
 20
-8.8718774109
 10
-9.6874614691
 20
-8.8864709125
 10
-9.6802975794
 20
-8.9009372107
 10
-9.6729588707
 20
-8.9152709831
 10
-9.665464429
 20
-8.9294558235
 10
-9.6578226404
 20
-8.9434837003
 10
-9.6500309565
 20
-8.9573548658
 10
-9.6420923963
 20
-8.9710657386
  0
LWPOLYLINE
  5
2DD
100
AcDbEntity
  8
IMPORT_IGES
100
AcDbPolyline
 62
7
  6
CONTINUOUS
 90
9
 70
0
 10
-8.8351479865
 20
-7.2865291845
 10
-8.8349953
 20
-7.2975840858
 10
-8.8323942974
 20
-7.3335662275
 10
-8.8265183049
 20
-7.3714867197
 10
-8.817334039
 20
-7.4110766708
 10
-8.8047907574
 20
-7.451632003
 10
-8.7888772115
 20
-7.4927794705
 10
-8.7696691481
 20
-7.534485822
 10
-8.7472801279
 20
-7.5765430845
  0
LINE
  5
2DE
100
AcDbEntity
  8
RACCORDO
100
AcDbLine
 62
253
  6
CONTINUOUS
 10
-10.4283962228
 20
-11.107851113
 11
-10.43624257
 21
-10.474032395
  0
LINE
  5
2DF
100
AcDbEntity
  8
RACCORDO
100
AcDbLine
 62
7
  6
CONTINUOUS
 10
-10.5895492913
 20
-9.6842108267
 11
-10.578684765
 21
-10.6282739455
  0
LINE
  5
2E0
100
AcDbEntity
  8
RACCORDO
100
AcDbLine
 62
253
  6
CONTINUOUS
 10
-10.43624257
 20
-10.474032395
 11
-10.4422091335
 21
-9.944723384
  0
LINE
  5
2E1
100
AcDbEntity
  8
RACCORDO
100
AcDbLine
 62
253
  6
CONTINUOUS
 10
-9.6290363351
 20
-10.3513097831
 11
-9.6351291974
 21
-9.754078937
  0
LINE
  5
2E2
100
AcDbEntity
  8
RACCORDO
100
AcDbLine
 62
7
  6
CONTINUOUS
 10
-9.7871374474
 20
-8.9628128477
 11
-9.7786618677
 21
-9.8710872135
  0
LWPOLYLINE
  5
2E3
100
AcDbEntity
  8
RACCORDO
100
AcDbPolyline
 62
253
  6
CONTINUOUS
 90
3
 70
0
 10
-9.6351291974
 20
-9.754078937
 10
-9.6407351026
 20
-9.1344844249
 10
-9.6420923963
 20
-8.9710657386
  0
LINE
  5
2E4
100
AcDbEntity
  8
RACCORDO
100
AcDbLine
 62
7
  6
CONTINUOUS
 10
-9.790930242
 20
-8.4900879092
 11
-9.7871374474
 21
-8.9628128477
  0
LINE
  5
2E5
100
AcDbEntity
  8
RACCORDO
100
AcDbLine
 62
7
  6
CONTINUOUS
 10
-9.4927046045
 20
21.9934899622
 11
-9.4927046045
 21
20.7533009295
  0
LINE
  5
2E6
100
AcDbEntity
  8
RACCORDO
100
AcDbLine
 62
253
  6
CONTINUOUS
 10
-9.3462579951
 20
21.6504201312
 11
-9.3462579951
 21
20.5698368204
  0
LINE
  5
2E7
100
AcDbEntity
  8
IMPORT_IGES
100
AcDbLine
 62
7
  6
CONTINUOUS
 10
-8.8351480935
 20
-7.2889434184
 11
-8.8351480935
 21
-7.8154518142
  0
LINE
  5
2E8
100
AcDbEntity
  8
IMPORT_IGES
100
AcDbLine
 62
253
  6
CONTINUOUS
 10
-8.7472801279
 20
-7.5765430845
 11
-8.7472801279
 21
-7.859385797
  0
LINE
  5
2E9
100
AcDbEntity
  8
RACCORDO
100
AcDbLine
 62
253
  6
CONTINUOUS
 10
1.6471895555
 20
16.700712103
 11
2.1754567273
 21
17.3436642587
  0
LINE
  5
2EA
100
AcDbEntity
  8
RACCORDO
100
AcDbLine
 62
7
  6
CONTINUOUS
 10
1.6471895555
 20
16.6111816366
 11
2.1908172997
 21
17.2728290921
  0
LWPOLYLINE
  5
2EB
100
AcDbEntity
  8
RACCORDO
100
AcDbPolyline
 62
7
  6
CONTINUOUS
 90
30
 70
0
 10
0.7571293728
 20
16.1365574949
 10
0.7492502498
 20
16.1274230917
 10
0.7410300007
 20
16.1184256507
 10
0.7324721396
 20
16.1095866642
 10
0.723573709
 20
16.1009301343
 10
0.714347274
 20
16.092475455
 10
0.7048206997
 20
16.0842375623
 10
0.6950005114
 20
16.0762388087
 10
0.6848946132
 20
16.0685009319
 10
0.6745338302
 20
16.0610383921
 10
0.6639273089
 20
16.0538736143
 10
0.6530853975
 20
16.047028309
 10
0.6420416205
 20
16.0405163373
 10
0.630807772
 20
16.0343598182
 10
0.6193968212
 20
16.0285801544
 10
0.6078450007
 20
16.0231906309
 10
0.5961668689
 20
16.0182126732
 10
0.5843781374
 20
16.0136669759
 10
0.5725178234
 20
16.0095661907
 10
0.5606033757
 20
16.0059305652
 10
0.5486533624
 20
16.0027795802
 10
0.5367096848
 20
16.0001250439
 10
0.5247928351
 20
15.9979854115
 10
0.512924268
 20
15.9963782741
 10
0.5011486893
 20
15.9953141133
 10
0.4894898688
 20
15.994808808
 10
0.4779719317
 20
15.994877174
 10
0.466641579
 20
15.9955275724
 10
0.4555363166
 20
15.9967709652
 10
0.4446719648
 20
15.9986184607
  0
LINE
  5
2EC
100
AcDbEntity
  8
IMPORT_IGES
100
AcDbLine
 62
7
  6
CONTINUOUS
 10
4.3417299226
 20
16.7832533339
 11
4.5241843096
 21
16.9422606419
  0
LINE
  5
2ED
100
AcDbEntity
  8
IMPORT_IGES
100
AcDbLine
 62
7
  6
CONTINUOUS
 10
3.6978574985
 20
16.2288797597
 11
3.9762670638
 21
16.4651233707
  0
LWPOLYLINE
  5
2EE
100
AcDbEntity
  8
RACCORDO
100
AcDbPolyline
 62
7
  6
CONTINUOUS
 90
5
 70
0
 10
-5.7073066089
 20
7.229380017
 10
-5.7133973257
 20
7.224652542
 10
-5.7369331172
 20
7.2087048842
 10
-5.7612191377
 20
7.1947745608
 10
-5.7647190582
 20
7.1929836315
  0
LINE
  5
2EF
100
AcDbEntity
  8
0
100
AcDbLine
 62
7
  6
CONTINUOUS
 10
2.7444381354
 20
11.6617866947
 11
2.7704373846
 21
11.6759846109
  0
LWPOLYLINE
  5
2F0
100
AcDbEntity
  8
0
100
AcDbPolyline
 62
7
  6
CONTINUOUS
 90
7
 70
0
 10
2.7444381354
 20
11.5751841543
 10
2.7574045591
 20
11.5818833184
 10
2.7696405706
 20
11.5886498089
 10
2.7811461698
 20
11.5954836256
 10
2.7919213569
 20
11.6023847687
 10
2.8019661318
 20
11.609353238
 10
2.8112804944
 20
11.6163890337
  0
LINE
  5
2F1
100
AcDbEntity
  8
IMPORT_IGES
100
AcDbLine
 62
7
  6
CONTINUOUS
 10
6.1397521847
 20
14.1864894278
 11
8.260944542
 21
15.2470856064
  0
LINE
  5
2F2
100
AcDbEntity
  8
IMPORT_IGES
100
AcDbLine
 62
7
  6
CONTINUOUS
 10
8.7036937961
 20
15.0257109793
 11
6.5825014389
 21
13.9651148007
  0
LINE
  5
2F3
100
AcDbEntity
  8
IMPORT_IGES
100
AcDbLine
 62
7
  6
CONTINUOUS
 10
8.7036937961
 20
14.8525058986
 11
6.7835205441
 21
13.8924192726
  0
LINE
  5
2F4
100
AcDbEntity
  8
IMPORT_IGES
100
AcDbLine
 62
7
  6
CONTINUOUS
 10
6.7469341711
 20
13.8741260861
 11
6.5825014389
 21
13.7919097199
  0
LINE
  5
2F5
100
AcDbEntity
  8
0
100
AcDbLine
 62
7
  6
CONTINUOUS
 10
3.2608022119
 20
11.9429182514
 11
3.28797927
 21
11.9565067805
  0
LINE
  5
2F6
100
AcDbEntity
  8
0
100
AcDbLine
 62
7
  6
CONTINUOUS
 10
3.2608022119
 20
11.856315711
 11
3.28797927
 21
11.8699042401
  0
LINE
  5
2F7
100
AcDbEntity
  8
RACCORDO
100
AcDbLine
 62
7
  6
CONTINUOUS
 10
-5.7644120422
 20
7.1931354363
 11
-5.7075061209
 21
7.221588397
  0
LINE
  5
2F8
100
AcDbEntity
  8
IMPORT_IGES
100
AcDbLine
 62
253
  6
CONTINUOUS
 10
11.5085892283
 20
15.7027692635
 11
11.4674452027
 21
15.6821975624
  0
LINE
  5
2F9
100
AcDbEntity
  8
IMPORT_IGES
100
AcDbLine
 62
7
  6
CONTINUOUS
 10
3.0799012029
 20
12.2978342734
 11
2.9872604954
 21
12.2538942252
  0
LWPOLYLINE
  5
2FA
100
AcDbEntity
  8
RACCORDO
100
AcDbPolyline
 62
7
  6
CONTINUOUS
 90
3
 70
0
 10
-5.7647190582
 20
7.1929836315
 10
-5.7863185952
 20
7.183140574
 10
-5.8121954597
 20
7.1740873566
  0
LWPOLYLINE
  5
2FB
100
AcDbEntity
  8
IMPORT_IGES
100
AcDbPolyline
 62
253
  6
CONTINUOUS
 90
6
 70
0
 10
11.4674657758
 20
15.3993593935
 10
11.4856681331
 20
15.4070194591
 10
11.5035062387
 20
15.4116598545
 10
11.5206900794
 20
15.4132355257
 10
11.5368656701
 20
15.4117678357
 10
11.551871128
 20
15.4073278701
  0
LWPOLYLINE
  5
2FC
100
AcDbEntity
  8
0
100
AcDbPolyline
 62
7
  6
CONTINUOUS
 90
3
 70
0
 10
2.7078497273
 20
11.5586177093
 10
2.7161215906
 20
11.5619880515
 10
2.7444381354
 20
11.5751841543
  0
LWPOLYLINE
  5
2FD
100
AcDbEntity
  8
0
100
AcDbPolyline
 62
7
  6
CONTINUOUS
 90
3
 70
0
 10
2.7078497273
 20
11.6453270208
 10
2.7147458345
 20
11.6481174392
 10
2.7444381354
 20
11.6617866947
  0
LWPOLYLINE
  5
2FE
100
AcDbEntity
  8
IMPORT_IGES
100
AcDbPolyline
 62
253
  6
CONTINUOUS
 90
5
 70
0
 10
7.6839147509
 20
12.6367168065
 10
7.6958406561
 20
12.6414394618
 10
7.7074932686
 20
12.6435501814
 10
7.7185254292
 20
12.6429396759
 10
7.7285633183
 20
12.6395944382
  0
LINE
  5
2FF
100
AcDbEntity
  8
IMPORT_IGES
100
AcDbLine
 62
253
  6
CONTINUOUS
 10
5.7255176913
 20
-8.3911043402
 11
5.3786223765
 21
-8.4266092895
  0
LINE
  5
300
100
AcDbEntity
  8
IMPORT_IGES
100
AcDbLine
 62
7
  6
CONTINUOUS
 10
5.4685663134
 20
-8.4634897514
 11
5.156181402
 21
-8.4951946355
  0
LWPOLYLINE
  5
301
100
AcDbEntity
  8
IMPORT_IGES
100
AcDbPolyline
 62
7
  6
CONTINUOUS
 90
7
 70
0
 10
-12.1485097817
 20
-5.7515647905
 10
-12.1533787893
 20
-5.749284901
 10
-12.1764365593
 20
-5.7418366891
 10
-12.2010072987
 20
-5.7391338065
 10
-12.226763241
 20
-5.7413228873
 10
-12.2540321528
 20
-5.7482572973
 10
-12.2828140338
 20
-5.7599370364
  0
LINE
  5
302
100
AcDbEntity
  8
IMPORT_IGES
100
AcDbLine
 62
253
  6
CONTINUOUS
 10
-8.7472801279
 20
-7.104603429
 11
-7.8219015329
 21
-7.5672927265
  0
LINE
  5
303
100
AcDbEntity
  8
IMPORT_IGES
100
AcDbLine
 62
253
  6
CONTINUOUS
 10
-13.2020528494
 20
-4.8772170683
 11
-15.1819518367
 21
-3.8872675746
  0
LWPOLYLINE
  5
304
100
AcDbEntity
  8
RACCORDO
100
AcDbPolyline
 62
7
  6
CONTINUOUS
 90
33
 70
0
 10
-7.8110347463
 20
-9.4800382724
 10
-7.8107659543
 20
-9.4941083945
 10
-7.8101403202
 20
-9.5093484503
 10
-7.8091664763
 20
-9.524659969
 10
-7.8078435227
 20
-9.540031958
 10
-7.8061958771
 20
-9.5554563447
 10
-7.8042245888
 20
-9.5709236645
 10
-7.8019292963
 20
-9.5864240164
 10
-7.7993316557
 20
-9.6019495576
 10
-7.7964327426
 20
-9.6174919629
 10
-7.7932326539
 20
-9.6330422085
 10
-7.7897510353
 20
-9.6485920505
 10
-7.7859890151
 20
-9.6641340718
 10
-7.7819470941
 20
-9.6796600232
 10
-7.7776435607
 20
-9.6951608856
 10
-7.7730796605
 20
-9.710629951
 10
-7.768256253
 20
-9.7260597062
 10
-7.7631907659
 20
-9.7414402835
 10
-7.7578845424
 20
-9.7567658041
 10
-7.7523388522
 20
-9.7720292158
 10
-7.746570886
 20
-9.7872191889
 10
-7.7405821945
 20
-9.8023304957
 10
-7.7343744455
 20
-9.8173566452
 10
-7.7279650608
 20
-9.8322847004
 10
-7.7213558684
 20
-9.847110103
 10
-7.7145489769
 20
-9.8618269031
 10
-7.7075624795
 20
-9.8764204044
 10
-7.7003985889
 20
-9.890886702
 10
-7.6930598791
 20
-9.9052204737
 10
-7.6855654372
 20
-9.919405314
 10
-7.6779236495
 20
-9.9334331913
 10
-7.670131967
 20
-9.9473043579
 10
-7.662193409
 20
-9.9610152322
  0
LWPOLYLINE
  5
305
100
AcDbEntity
  8
RACCORDO
100
AcDbPolyline
 62
253
  6
CONTINUOUS
 90
13
 70
0
 10
-7.662193409
 20
-9.9610152322
 10
-7.6665674464
 20
-9.3859771559
 10
-7.6703722312
 20
-8.8017143129
 10
-7.6735781504
 20
-8.2082126807
 10
-7.6761467056
 20
-7.6076284427
 10
-7.6780608356
 20
-6.9977795182
 10
-7.6792998293
 20
-6.3721329038
 10
-7.6798088175
 20
-5.7299317977
 10
-7.6795300251
 20
-5.0718791717
 10
-7.6783976452
 20
-4.3936115138
 10
-7.6763311727
 20
-3.693646379
 10
-7.6732533316
 20
-2.973391362
 10
-7.6690837092
 20
-2.2328087598
  0
LWPOLYLINE
  5
306
100
AcDbEntity
  8
RACCORDO
100
AcDbPolyline
 62
7
  6
CONTINUOUS
 90
10
 70
0
 10
-7.817389123
 20
-2.3644237349
 10
-7.8202366618
 20
-2.9078397111
 10
-7.8236344791
 20
-3.7715633298
 10
-7.8256433243
 20
-4.634588604
 10
-7.8262631868
 20
-5.4969121347
 10
-7.8254940592
 20
-6.3585305028
 10
-7.8233359371
 20
-7.2194402715
 10
-7.8197888261
 20
-8.0796380434
 10
-7.8148527338
 20
-8.939120447
 10
-7.8110312541
 20
-9.4800374065
  0
LWPOLYLINE
  5
307
100
AcDbEntity
  8
RACCORDO
100
AcDbPolyline
 62
7
  6
CONTINUOUS
 90
29
 70
0
 10
-7.8173935485
 20
-2.3644211757
 10
-7.8173857626
 20
-2.3641411787
 10
-7.817124358
 20
-2.362416426
 10
-7.8165140041
 20
-2.3604832696
 10
-7.8155556827
 20
-2.3583519911
 10
-7.8142484735
 20
-2.3560342086
 10
-7.8126167913
 20
-2.3535254283
 10
-7.8106616688
 20
-2.3508350804
 10
-7.808382726
 20
-2.3479737725
 10
-7.8058016162
 20
-2.344937246
 10
-7.8029193995
 20
-2.3417342268
 10
-7.7997361562
 20
-2.3383744976
 10
-7.7962715282
 20
-2.3348541943
 10
-7.7925266299
 20
-2.3311814844
 10
-7.7885019465
 20
-2.3273654855
 10
-7.7842157613
 20
-2.3234028684
 10
-7.7796693072
 20
-2.3193013708
 10
-7.7748634292
 20
-2.3150695734
 10
-7.7698155486
 20
-2.3107047712
 10
-7.7645269968
 20
-2.3062142942
 10
-7.7589990298
 20
-2.3016063505
 10
-7.75324883
 20
-2.2968791278
 10
-7.747277937
 20
-2.2920396561
 10
-7.7410880057
 20
-2.287095839
 10
-7.734696447
 20
-2.2820469432
 10
-7.7281050789
 20
-2.2768997288
 10
-7.7213159979
 20
-2.2716618799
 10
-7.7143472833
 20
-2.2663339717
 10
-7.7072011382
 20
-2.260922523
  0
LWPOLYLINE
  5
308
100
AcDbEntity
  8
IMPORT_IGES
100
AcDbPolyline
 62
7
  6
CONTINUOUS
 90
3
 70
0
 10
-9.6248531682
 20
-8.1711692121
 10
-9.6194898206
 20
-8.148181053
 10
-9.6098703133
 20
-8.1219607753
  0
LWPOLYLINE
  5
309
100
AcDbEntity
  8
0
100
AcDbPolyline
 62
7
  6
CONTINUOUS
 90
4
 70
0
 10
2.8124492058
 20
11.7039206042
 10
2.8282277844
 20
11.7176129472
 10
2.8406774705
 20
11.7311520104
 10
2.8505002448
 20
11.744674996
  0
LWPOLYLINE
  5
30A
100
AcDbEntity
  8
0
100
AcDbPolyline
 62
7
  6
CONTINUOUS
 90
10
 70
0
 10
2.8112804944
 20
11.6163890337
 10
2.8221684548
 20
11.6255977132
 10
2.8317922819
 20
11.6347863214
 10
2.8401519756
 20
11.6439548583
 10
2.8472051013
 20
11.6530982287
 10
2.8529940936
 20
11.6622215278
 10
2.8576462569
 20
11.6713400408
 10
2.861204026
 20
11.6804588628
 10
2.863624966
 20
11.6895728986
 10
2.8649090771
 20
11.6986821483
  0
LWPOLYLINE
  5
30B
100
AcDbEntity
  8
0
100
AcDbPolyline
 62
7
  6
CONTINUOUS
 90
3
 70
0
 10
2.7704373846
 20
11.6759846109
 10
2.7931077414
 20
11.6900292474
 10
2.8124492058
 20
11.7039206042
  0
LWPOLYLINE
  5
30C
100
AcDbEntity
  8
IMPORT_IGES
100
AcDbPolyline
 62
253
  6
CONTINUOUS
 90
10
 70
0
 10
7.3303638584
 20
12.4599414597
 10
7.3184382035
 20
12.452737817
 10
7.3067857787
 20
12.4431955995
 10
7.2957537469
 20
12.4315526988
 10
7.2856987312
 20
12.4181437715
 10
7.2769176432
 20
12.4033184435
 10
7.2696643601
 20
12.3874114223
 10
7.264212355
 20
12.3708570123
 10
7.2608146875
 20
12.354198267
 10
7.2596527816
 20
12.3379823402
  0
LWPOLYLINE
  5
30D
100
AcDbEntity
  8
IMPORT_IGES
100
AcDbPolyline
 62
253
  6
CONTINUOUS
 90
10
 70
0
 10
11.3606170133
 20
14.4750680372
 10
11.3486909567
 20
14.4678646737
 10
11.3370382303
 20
14.4583226912
 10
11.3260059938
 20
14.4466799625
 10
11.3159509069
 20
14.4332710974
 10
11.3071698535
 20
14.4184457391
 10
11.299916607
 20
14.4025386861
 10
11.2944646019
 20
14.385984276
 10
11.2910669344
 20
14.3693255308
 10
11.2899050285
 20
14.3531096039
  0
LWPOLYLINE
  5
30E
100
AcDbEntity
  8
IMPORT_IGES
100
AcDbPolyline
 62
253
  6
CONTINUOUS
 90
16
 70
0
 10
11.4674452027
 20
15.6821975624
 10
11.4376891834
 20
15.6649313329
 10
11.4123432382
 20
15.6471576059
 10
11.3914073669
 20
15.6288763815
 10
11.3749990934
 20
15.6100341066
 10
11.3630008938
 20
15.5906843343
 10
11.3550601975
 20
15.5709877237
 10
11.3510647021
 20
15.5507568543
 10
11.3511267099
 20
15.5301791465
 10
11.3552305571
 20
15.5099775204
 10
11.3632687173
 20
15.4903467725
 10
11.3753487169
 20
15.4710921063
 10
11.3917774716
 20
15.4523520526
 10
11.4126572866
 20
15.4341727882
 10
11.4378858568
 20
15.4165081362
 10
11.467463182
 20
15.3993580966
  0
LWPOLYLINE
  5
30F
100
AcDbEntity
  8
IMPORT_IGES
100
AcDbPolyline
 62
253
  6
CONTINUOUS
 90
3
 70
0
 10
5.6104194746
 20
10.9964778946
 10
5.6362934423
 20
11.0112296974
 10
5.6430293526
 20
11.0162701985
  0
LINE
  5
310
100
AcDbEntity
  8
IMPORT_IGES
100
AcDbLine
 62
253
  6
CONTINUOUS
 10
11.5916209717
 20
15.4301628646
 11
11.6088715407
 21
15.4395502589
  0
LWPOLYLINE
  5
311
100
AcDbEntity
  8
IMPORT_IGES
100
AcDbPolyline
 62
253
  6
CONTINUOUS
 90
16
 70
0
 10
11.608847982
 20
15.4400324967
 10
11.6518195337
 20
15.4628353052
 10
11.6968594609
 20
15.4841622338
 10
11.7439677636
 20
15.5040132826
 10
11.7931052456
 20
15.5227327528
 10
11.844311103
 20
15.5399763432
 10
11.8977029241
 20
15.5547111494
 10
11.9539486261
 20
15.5670186519
 10
12.0123802916
 20
15.5768173702
 10
12.0711117568
 20
15.5828299587
 10
12.1297714765
 20
15.5849394399
 10
12.1887309958
 20
15.5832627913
 10
12.2472187863
 20
15.5768736
 10
12.3049776717
 20
15.5654630618
 10
12.3622648282
 20
15.5493399808
 10
12.4190802558
 20
15.5285043572
  0
LINE
  5
312
100
AcDbEntity
  8
IMPORT_IGES
100
AcDbLine
 62
7
  6
CONTINUOUS
 10
4.4625826696
 20
11.60649354
 11
4.1508523365
 21
11.4506202826
  0
LINE
  5
313
100
AcDbEntity
  8
IMPORT_IGES
100
AcDbLine
 62
253
  6
CONTINUOUS
 10
4.538186765
 20
11.5686914923
 11
4.2264564319
 21
11.4128182349
  0
LINE
  5
314
100
AcDbEntity
  8
IMPORT_IGES
100
AcDbLine
 62
253
  6
CONTINUOUS
 10
4.862852535
 20
11.0946201833
 11
5.1745828681
 21
11.2504934407
  0
LINE
  5
315
100
AcDbEntity
  8
IMPORT_IGES
100
AcDbLine
 62
253
  6
CONTINUOUS
 10
12.9168113407
 20
14.674686611
 11
7.2401422909
 21
11.8363493637
  0
LINE
  5
316
100
AcDbEntity
  8
IMPORT_IGES
100
AcDbLine
 62
253
  6
CONTINUOUS
 10
5.6104194746
 20
10.9964778946
 11
5.2471062886
 21
10.8148118719
  0
LINE
  5
317
100
AcDbEntity
  8
IMPORT_IGES
100
AcDbLine
 62
253
  6
CONTINUOUS
 10
13.0228976345
 20
14.5868629007
 11
7.3344529967
 21
11.7426472633
  0
LINE
  5
318
100
AcDbEntity
  8
IMPORT_IGES
100
AcDbLine
 62
7
  6
CONTINUOUS
 10
5.6982874402
 20
10.7577774922
 11
5.9291511027
 21
10.8732093234
  0
LINE
  5
319
100
AcDbEntity
  8
IMPORT_IGES
100
AcDbLine
 62
7
  6
CONTINUOUS
 10
5.9950554155
 20
10.8402571671
 11
5.7167619701
 21
10.7011104444
  0
LINE
  5
31A
100
AcDbEntity
  8
IMPORT_IGES
100
AcDbLine
 62
253
  6
CONTINUOUS
 10
13.3379163473
 20
14.3217320946
 11
13.4917071313
 21
14.3986267328
  0
LINE
  5
31B
100
AcDbEntity
  8
IMPORT_IGES
100
AcDbLine
 62
7
  6
CONTINUOUS
 10
6.3717709788
 20
10.6518993854
 11
6.143996065
 21
10.5380060166
  0
LINE
  5
31C
100
AcDbEntity
  8
IMPORT_IGES
100
AcDbLine
 62
253
  6
CONTINUOUS
 10
6.4473750743
 20
10.6140973377
 11
6.2196001604
 21
10.5002039689
  0
LINE
  5
31D
100
AcDbEntity
  8
IMPORT_IGES
100
AcDbLine
 62
7
  6
CONTINUOUS
 10
3.6025774774
 20
9.5681561516
 11
5.8822457419
 21
10.6688811782
  0
LINE
  5
31E
100
AcDbEntity
  8
IMPORT_IGES
100
AcDbLine
 62
7
  6
CONTINUOUS
 10
6.1273242508
 20
10.7741227494
 11
6.0346835433
 21
10.7301827012
  0
LWPOLYLINE
  5
31F
100
AcDbEntity
  8
IMPORT_IGES
100
AcDbPolyline
 62
253
  6
CONTINUOUS
 90
8
 70
0
 10
13.022901594
 20
14.5868581196
 10
13.0402171452
 20
14.5949405583
 10
13.056350547
 20
14.6011238284
 10
13.0708343726
 20
14.6051810948
 10
13.0831236328
 20
14.6069874393
 10
13.0931598814
 20
14.6066221537
 10
13.1011012449
 20
14.6040576421
 10
13.1059799632
 20
14.600104161
  0
LWPOLYLINE
  5
320
100
AcDbEntity
  8
IMPORT_IGES
100
AcDbPolyline
 62
7
  6
CONTINUOUS
 90
18
 70
0
 10
13.9839807238
 20
13.7911234683
 10
13.9812844762
 20
13.789912693
 10
13.9737270511
 20
13.7874465476
 10
13.9627775096
 20
13.7853016785
 10
13.9485078094
 20
13.784098023
 10
13.9309730701
 20
13.7843731851
 10
13.9106996444
 20
13.7865758155
 10
13.8883104499
 20
13.7909630465
 10
13.8641783256
 20
13.7977032635
 10
13.8388949407
 20
13.8068353002
 10
13.8132203553
 20
13.8182057696
 10
13.787671001
 20
13.8316170155
 10
13.7625323498
 20
13.8469285946
 10
13.738052202
 20
13.8640104127
 10
13.7147739504
 20
13.8824713957
 10
13.6927252692
 20
13.902266779
 10
13.6714940032
 20
13.9238932017
 10
13.6580004666
 20
13.9392478864
  0
LWPOLYLINE
  5
321
100
AcDbEntity
  8
IMPORT_IGES
100
AcDbPolyline
 62
253
  6
CONTINUOUS
 90
10
 70
0
 10
14.3273860306
 20
13.9628261191
 10
14.33300962
 20
13.965342899
 10
14.3493648637
 20
13.9698586927
 10
14.3673011834
 20
13.9708749544
 10
14.3865960115
 20
13.9681695172
 10
14.4068391549
 20
13.9615974566
 10
14.4275057738
 20
13.9511807467
 10
14.4481143098
 20
13.937056977
 10
14.4682434781
 20
13.9194075066
 10
14.4874184102
 20
13.8985249681
  0
LINE
  5
322
100
AcDbEntity
  8
IMPORT_IGES
100
AcDbLine
 62
7
  6
CONTINUOUS
 10
4.0130805366
 20
11.0154890126
 11
2.7078497273
 21
10.4406021008
  0
LINE
  5
323
100
AcDbEntity
  8
IMPORT_IGES
100
AcDbLine
 62
7
  6
CONTINUOUS
 10
2.7078497273
 20
9.2714678052
 11
3.3941395105
 21
9.5737430895
  0
LWPOLYLINE
  5
324
100
AcDbEntity
  8
IMPORT_IGES
100
AcDbPolyline
 62
253
  6
CONTINUOUS
 90
14
 70
0
 10
14.1442007343
 20
13.7269153609
 10
14.1109369064
 20
13.7140806904
 10
14.0765097997
 20
13.7051095418
 10
14.0409194143
 20
13.7000019152
 10
14.0040985166
 20
13.6988152063
 10
13.9661143403
 20
13.7014920193
 10
13.9271685854
 20
13.7078601667
 10
13.8867559487
 20
13.7179961556
 10
13.8453817335
 20
13.731823479
 10
13.8047635502
 20
13.7489404277
 10
13.7656796811
 20
13.7690226448
 10
13.727351844
 20
13.7923944874
 10
13.6891628022
 20
13.8196273171
 10
13.6509068104
 20
13.8509115878
  0
LINE
  5
325
100
AcDbEntity
  8
IMPORT_IGES
100
AcDbLine
 62
7
  6
CONTINUOUS
 10
2.7078497273
 20
-7.7401529395
 11
3.5304070414
 21
-7.9034449458
  0
LINE
  5
326
100
AcDbEntity
  8
IMPORT_IGES
100
AcDbLine
 62
253
  6
CONTINUOUS
 10
3.5210225257
 20
-7.6601986453
 11
2.7078497273
 21
-7.4987696294
  0
LINE
  5
327
100
AcDbEntity
  8
IMPORT_IGES
100
AcDbLine
 62
253
  6
CONTINUOUS
 10
4.9396099146
 20
-8.4793619638
 11
4.9141687044
 21
-8.4740862466
  0
LWPOLYLINE
  5
328
100
AcDbEntity
  8
IMPORT_IGES
100
AcDbPolyline
 62
7
  6
CONTINUOUS
 90
5
 70
0
 10
4.9132604525
 20
-8.4738288691
 10
4.9875091609
 20
-8.4901865133
 10
5.0560467769
 20
-8.4975105426
 10
5.121631463
 20
-8.4977518238
 10
5.1586392083
 20
-8.4949457697
  0
LINE
  5
329
100
AcDbEntity
  8
IMPORT_IGES
100
AcDbLine
 62
253
  6
CONTINUOUS
 10
5.2073323736
 20
-8.2958302193
 11
4.4198309566
 21
-8.074815344
  0
LINE
  5
32A
100
AcDbEntity
  8
IMPORT_IGES
100
AcDbLine
 62
7
  6
CONTINUOUS
 10
4.9141687044
 20
-8.4740862466
 11
4.1260607176
 21
-8.2529000364
  0
LWPOLYLINE
  5
32B
100
AcDbEntity
  8
RACCORDO
100
AcDbPolyline
 62
253
  6
CONTINUOUS
 90
43
 70
0
 10
-4.1889036274
 20
-24.5164570175
 10
-4.1874134138
 20
-24.546191286
 10
-4.185043327
 20
-24.5753482495
 10
-4.1817933672
 20
-24.603927908
 10
-4.1776573473
 20
-24.6319652764
 10
-4.1726414544
 20
-24.6594253398
 10
-4.1667642491
 20
-24.6862030536
 10
-4.1600224965
 20
-24.7122950013
 10
-4.1524194315
 20
-24.7377045993
 10
-4.143983321
 20
-24.762337053
 10
-4.1347111379
 20
-24.7861891853
 10
-4.1246059092
 20
-24.8092641732
 10
-4.1137049824
 20
-24.8314767529
 10
-4.1020054106
 20
-24.8528237855
 10
-4.0895101406
 20
-24.87330841
 10
-4.0762653607
 20
-24.8928547791
 10
-4.0622682276
 20
-24.9114594838
 10
-4.0475215845
 20
-24.929125933
 10
-4.0320801491
 20
-24.9457885072
 10
-4.0159413877
 20
-24.9614434169
 10
-3.9991078341
 20
-24.9760944516
 10
-3.9816418067
 20
-24.9896873588
 10
-3.9635409685
 20
-25.0022182208
 10
-3.9448076566
 20
-25.0136909553
 10
-3.9255112008
 20
-25.0240630637
 10
-3.9056494433
 20
-25.0333304857
 10
-3.885224542
 20
-25.0414972814
 10
-3.8643122999
 20
-25.0485331323
 10
-3.842910977
 20
-25.0544338104
 10
-3.8210223133
 20
-25.0592035436
 10
-3.7987273329
 20
-25.0628246969
 10
-3.7760245793
 20
-25.0652930369
 10
-3.7529155089
 20
-25.066612797
 10
-3.7294855143
 20
-25.0667790428
 10
-3.705733129
 20
-25.0657874363
 10
-3.6816598195
 20
-25.0636423155
 10
-3.6573553775
 20
-25.0603517605
 10
-3.6328178285
 20
-25.0559109753
 10
-3.608049147
 20
-25.0503247559
 10
-3.5831450486
 20
-25.0436155705
 10
-3.5581374386
 20
-25.0357909083
 10
-3.5329944118
 20
-25.02684328
 10
-3.5077159681
 20
-25.0167726856
  0
LWPOLYLINE
  5
32C
100
AcDbEntity
  8
RACCORDO
100
AcDbPolyline
 62
253
  6
CONTINUOUS
 90
25
 70
0
 10
-4.8894871013
 20
-24.5310568317
 10
-4.8872720073
 20
-24.5755866512
 10
-4.883733587
 20
-24.6193463038
 10
-4.8788762603
 20
-24.662281739
 10
-4.8727060506
 20
-24.7043393994
 10
-4.8652306396
 20
-24.7454679396
 10
-4.8564591733
 20
-24.7856181521
 10
-4.8464020081
 20
-24.8247412741
 10
-4.8350716065
 20
-24.8627879802
 10
-4.822482558
 20
-24.8997100902
 10
-4.8086503829
 20
-24.9354616759
 10
-4.7935919347
 20
-24.9699990191
 10
-4.77732614
 20
-25.003279488
 10
-4.759872797
 20
-25.0352620926
 10
-4.7412533106
 20
-25.0659073027
 10
-4.7214911495
 20
-25.0951770458
 10
-4.700610329
 20
-25.1230353465
 10
-4.6786364756
 20
-25.1494477274
 10
-4.6555975352
 20
-25.1743810035
 10
-4.6315217114
 20
-25.1978044444
 10
-4.6064384181
 20
-25.2196893009
 10
-4.5803793313
 20
-25.2400081895
 10
-4.5533762691
 20
-25.2587361661
 10
-4.5254622844
 20
-25.2758502211
 10
-4.4961055211
 20
-25.29161287
  0
LWPOLYLINE
  5
32D
100
AcDbEntity
  8
ASSI
100
AcDbPolyline
 62
7
  6
CONTINUOUS
 90
10
 70
0
 10
-5.7113742597
 20
7.0705244395
 10
-5.698986555
 20
7.5543063814
 10
-5.6861685816
 20
8.0382853197
 10
-5.6729203394
 20
8.5224612543
 10
-5.6592418108
 20
9.006834794
 10
-5.6451330134
 20
9.4914053301
 10
-5.6305940002
 20
9.9761710358
 10
-5.6156247889
 20
10.4611313024
 10
-5.6002253618
 20
10.9462867387
 10
-5.5843957188
 20
11.4316373447
  0
LWPOLYLINE
  5
32E
100
AcDbEntity
  8
RACCORDO
100
AcDbPolyline
 62
253
  6
CONTINUOUS
 90
22
 70
0
 10
-4.8894871013
 20
11.0841830359
 10
-4.9446857516
 20
9.3623902957
 10
-4.9943669291
 20
7.6430144211
 10
-5.0385298845
 20
5.926081809
 10
-5.0771739604
 20
4.2116188264
 10
-5.1102985654
 20
2.499651785
 10
-5.1379031741
 20
0.7902069414
 10
-5.1599873658
 20
-0.9166894671
 10
-5.1765508118
 20
-2.6210112343
 10
-5.1875932494
 20
-4.3227322104
 10
-5.1931145076
 20
-6.0218262735
 10
-5.1931145076
 20
-7.7182673446
 10
-5.1875932494
 20
-9.4120293996
 10
-5.1765508118
 20
-11.1030864472
 10
-5.1599873658
 20
-12.7914125277
 10
-5.1379031741
 20
-14.4769817277
 10
-5.1102985654
 20
-16.1597681787
 10
-5.0771739604
 20
-17.8397460552
 10
-5.0385298845
 20
-19.5168895738
 10
-4.9943669291
 20
-21.1911729968
 10
-4.9446857516
 20
-22.862570632
 10
-4.8894871013
 20
-24.5310568317
  0
LWPOLYLINE
  5
32F
100
AcDbEntity
  8
RACCORDO
100
AcDbPolyline
 62
253
  6
CONTINUOUS
 90
22
 70
0
 10
-4.1889036274
 20
11.0631676102
 10
-4.2440491219
 20
9.3430537263
 10
-4.2936812123
 20
7.6254067747
 10
-4.3377998984
 20
5.9102267555
 10
-4.3764056897
 20
4.1974873737
 10
-4.4094980768
 20
2.4872149242
 10
-4.4370755318
 20
0.7794882921
 10
-4.4591377994
 20
-0.9256923587
 10
-4.475685135
 20
-2.6283271922
 10
-4.4867167769
 20
-4.3283378149
 10
-4.4922324712
 20
-6.0257241029
 10
-4.4922324718
 20
-7.7204861801
 10
-4.4867167787
 20
-9.4125460247
 10
-4.4756851381
 20
-11.1019035154
 10
-4.4591378038
 20
-12.7885587736
 10
-4.4370755375
 20
-14.4724341411
 10
-4.4094980841
 20
-16.1535295214
 10
-4.3764056987
 20
-17.831845011
 10
-4.3377999077
 20
-19.5073032422
 10
-4.2936812199
 20
-21.1798784258
 10
-4.2440491264
 20
-22.8495963508
 10
-4.1889036274
 20
-24.5164570175
  0
LWPOLYLINE
  5
330
100
AcDbEntity
  8
RACCORDO
100
AcDbPolyline
 62
253
  6
CONTINUOUS
 90
10
 70
0
 10
-5.790768982
 20
11.5945820422
 10
-5.8064411218
 20
11.1132334556
 10
-5.8216901194
 20
10.6320758242
 10
-5.836515957
 20
10.1511097242
 10
-5.8509186052
 20
9.6703361328
 10
-5.8648980596
 20
9.1897552241
 10
-5.8784543371
 20
8.7093663709
 10
-5.8915874294
 20
8.2291697491
 10
-5.9042973064
 20
7.7491663363
 10
-5.91658395
 20
7.2693567088
  0
LWPOLYLINE
  5
331
100
AcDbEntity
  8
RACCORDO
100
AcDbPolyline
 62
253
  6
CONTINUOUS
 90
27
 70
0
 10
0.0459087647
 20
16.2850610178
 10
0.0410247476
 20
16.2730923596
 10
0.0356741441
 20
16.2613991555
 10
0.0298715658
 20
16.2500133372
 10
0.0236328581
 20
16.238965997
 10
0.0169750578
 20
16.2282873029
 10
0.0099163458
 20
16.2180064161
 10
0.0024759981
 20
16.2081514116
 10
-0.0053256673
 20
16.1987492014
 10
-0.0134673458
 20
16.1898254609
 10
-0.0219268041
 20
16.1814045589
 10
-0.0306809411
 20
16.1735094913
 10
-0.0397058513
 20
16.1661618177
 10
-0.0489768893
 20
16.1593816032
 10
-0.0584687381
 20
16.1531873631
 10
-0.0681554772
 20
16.1475960125
 10
-0.0780106543
 20
16.1426228203
 10
-0.0880073569
 20
16.1382813672
 10
-0.0981182862
 20
16.1345835088
 10
-0.1083158313
 20
16.1315393432
 10
-0.1185721448
 20
16.1291571834
 10
-0.1288592189
 20
16.1274435345
 10
-0.1391489618
 20
16.1264030762
 10
-0.1494132742
 20
16.1260386497
 10
-0.1596241266
 20
16.1263512502
 10
-0.1697536352
 20
16.1273400241
 10
-0.1797741385
 20
16.1290022712
  0
LWPOLYLINE
  5
332
100
AcDbEntity
  8
IMPORT_IGES
100
AcDbPolyline
 62
7
  6
CONTINUOUS
 90
5
 70
0
 10
-9.6098703133
 20
-8.1219607753
 10
-9.597221105
 20
-8.0987310868
 10
-9.581614136
 20
-8.0787232974
 10
-9.5633906947
 20
-8.0621494302
 10
-9.5427752567
 20
-8.0491952405
  0
LINE
  5
333
100
AcDbEntity
  8
IMPORT_IGES
100
AcDbLine
 62
7
  6
CONTINUOUS
 10
6.9840871789
 20
15.8855142879
 11
6.118471099
 21
14.9333073258
  0
LINE
  5
334
100
AcDbEntity
  8
IMPORT_IGES
100
AcDbLine
 62
7
  6
CONTINUOUS
 10
6.379099641
 20
15.0468024554
 11
6.9840871789
 21
15.7123092072
  0
LINE
  5
335
100
AcDbEntity
  8
IMPORT_IGES
100
AcDbLine
 62
7
  6
CONTINUOUS
 10
5.2676300153
 20
14.6226777917
 11
6.0071788556
 21
15.4305253689
  0
LINE
  5
336
100
AcDbEntity
  8
IMPORT_IGES
100
AcDbLine
 62
7
  6
CONTINUOUS
 10
8.0103586266
 20
13.2513134861
 11
9.0660407667
 21
14.183467607
  0
LINE
  5
337
100
AcDbEntity
  8
RACCORDO
100
AcDbLine
 62
7
  6
CONTINUOUS
 10
-17.4881413659
 20
-5.028324329
 11
-17.5042703929
 21
-5.0399767402
  0
LINE
  5
338
100
AcDbEntity
  8
RACCORDO
100
AcDbLine
 62
7
  6
CONTINUOUS
 10
-17.471140718
 20
-5.0161800494
 11
-17.4881413659
 21
-5.028324329
  0
LINE
  5
339
100
AcDbEntity
  8
RACCORDO
100
AcDbLine
 62
7
  6
CONTINUOUS
 10
-17.4532622402
 20
-5.003570521
 11
-17.471140718
 21
-5.0161800494
  0
LINE
  5
33A
100
AcDbEntity
  8
RACCORDO
100
AcDbLine
 62
7
  6
CONTINUOUS
 10
-17.4345425115
 20
-4.9905167788
 11
-17.4532622402
 21
-5.003570521
  0
LINE
  5
33B
100
AcDbEntity
  8
IMPORT_IGES
100
AcDbLine
 62
7
  6
CONTINUOUS
 10
-15.6062159054
 20
-4.1470751958
 11
-15.5539513582
 21
-4.1107415356
  0
LINE
  5
33C
100
AcDbEntity
  8
RACCORDO
100
AcDbLine
 62
7
  6
CONTINUOUS
 10
-17.4150121455
 20
-4.9770377929
 11
-17.4345425115
 21
-4.9905167788
  0
LWPOLYLINE
  5
33D
100
AcDbEntity
  8
IMPORT_IGES
100
AcDbPolyline
 62
7
  6
CONTINUOUS
 90
13
 70
0
 10
-15.5539513582
 20
-4.1107415356
 10
-15.5257523838
 20
-4.0913506591
 10
-15.4962594197
 20
-4.0717709216
 10
-15.4658124507
 20
-4.0522281396
 10
-15.4350231749
 20
-4.0326810796
 10
-15.4041590348
 20
-4.0134195831
 10
-15.3733531916
 20
-3.9947153307
 10
-15.3429711833
 20
-3.9764904967
 10
-15.3132106499
 20
-3.9589812624
 10
-15.2842628513
 20
-3.9424251304
 10
-15.2564455446
 20
-3.9267794912
 10
-15.2299957628
 20
-3.9121931081
 10
-15.2050897016
 20
-3.8989605508
  0
LINE
  5
33E
100
AcDbEntity
  8
RACCORDO
100
AcDbLine
 62
7
  6
CONTINUOUS
 10
-17.3842397505
 20
-4.9560787645
 11
-17.4150121455
 21
-4.9770377929
  0
LINE
  5
33F
100
AcDbEntity
  8
RACCORDO
100
AcDbLine
 62
7
  6
CONTINUOUS
 10
-17.3517828222
 20
-4.9342964195
 11
-17.3842397505
 21
-4.9560787645
  0
LINE
  5
340
100
AcDbEntity
  8
RACCORDO
100
AcDbLine
 62
7
  6
CONTINUOUS
 10
-17.3177332119
 20
-4.9117669622
 11
-17.3517828222
 21
-4.9342964195
  0
LINE
  5
341
100
AcDbEntity
  8
RACCORDO
100
AcDbLine
 62
7
  6
CONTINUOUS
 10
-17.2821833369
 20
-4.8885668648
 11
-17.3177332119
 21
-4.9117669622
  0
LINE
  5
342
100
AcDbEntity
  8
RACCORDO
100
AcDbLine
 62
7
  6
CONTINUOUS
 10
-17.2452280786
 20
-4.8647746231
 11
-17.2821833369
 21
-4.8885668648
  0
LINE
  5
343
100
AcDbEntity
  8
RACCORDO
100
AcDbLine
 62
7
  6
CONTINUOUS
 10
-17.2069648141
 20
-4.8404713101
 11
-17.2452280786
 21
-4.8647746231
  0
LINE
  5
344
100
AcDbEntity
  8
RACCORDO
100
AcDbLine
 62
7
  6
CONTINUOUS
 10
-17.1674964953
 20
-4.8157431218
 11
-17.2069648141
 21
-4.8404713101
  0
LINE
  5
345
100
AcDbEntity
  8
RACCORDO
100
AcDbLine
 62
7
  6
CONTINUOUS
 10
-17.1269371054
 20
-4.7906853939
 11
-17.1674964953
 21
-4.8157431218
  0
LINE
  5
346
100
AcDbEntity
  8
RACCORDO
100
AcDbLine
 62
7
  6
CONTINUOUS
 10
-17.0854187485
 20
-4.765407584
 11
-17.1269371054
 21
-4.7906853939
  0
LINE
  5
347
100
AcDbEntity
  8
RACCORDO
100
AcDbLine
 62
7
  6
CONTINUOUS
 10
-17.0431020669
 20
-4.7400402483
 11
-17.0854187485
 21
-4.765407584
  0
LINE
  5
348
100
AcDbEntity
  8
RACCORDO
100
AcDbLine
 62
7
  6
CONTINUOUS
 10
-17.014545721
 20
-4.7231610134
 11
-17.0431020669
 21
-4.7400402483
  0
LINE
  5
349
100
AcDbEntity
  8
RACCORDO
100
AcDbLine
 62
7
  6
CONTINUOUS
 10
-16.9858009183
 20
-4.7063745604
 11
-17.014545721
 21
-4.7231610134
  0
LINE
  5
34A
100
AcDbEntity
  8
RACCORDO
100
AcDbLine
 62
7
  6
CONTINUOUS
 10
-16.9569785174
 20
-4.6897392582
 11
-16.9858009183
 21
-4.7063745604
  0
LWPOLYLINE
  5
34B
100
AcDbEntity
  8
IMPORT_IGES
100
AcDbPolyline
 62
7
  6
CONTINUOUS
 90
10
 70
0
 10
5.3681660034
 20
8.3422194616
 10
5.3557114379
 20
8.3351021635
 10
5.343553433
 20
8.3268938925
 10
5.3316919887
 20
8.3175946485
 10
5.3200478913
 20
8.3071215018
 10
5.3087003545
 20
8.2955573821
 10
5.2978870192
 20
8.2831510789
 10
5.2876870989
 20
8.2699855218
 10
5.2780213802
 20
8.2559777811
 10
5.268889863
 20
8.2411278568
  0
LWPOLYLINE
  5
34C
100
AcDbEntity
  8
IMPORT_IGES
100
AcDbPolyline
 62
253
  6
CONTINUOUS
 90
8
 70
0
 10
15.4188304117
 20
13.9287630595
 10
15.4360872709
 20
13.9384984983
 10
15.4506249176
 20
13.9493418866
 10
15.4621960528
 20
13.9610995098
 10
15.4706031656
 20
13.9735827745
 10
15.4757054758
 20
13.9865555894
 10
15.4774188308
 20
13.9997382872
 10
15.4773994808
 20
14.0011581819
  0
LWPOLYLINE
  5
34D
100
AcDbEntity
  8
IMPORT_IGES
100
AcDbPolyline
 62
7
  6
CONTINUOUS
 90
10
 70
0
 10
4.6927739679
 20
8.9348934303
 10
4.6620275364
 20
8.9176122726
 10
4.6317869586
 20
8.8974181881
 10
4.6020522345
 20
8.8743111768
 10
4.5725082846
 20
8.8479628753
 10
4.5434701884
 20
8.818701647
 10
4.5158831848
 20
8.7875125819
 10
4.4900623533
 20
8.7547240435
 10
4.4656926143
 20
8.7200076683
 10
4.4427739678
 20
8.6833634564
  0
LWPOLYLINE
  5
34E
100
AcDbEntity
  8
IMPORT_IGES
100
AcDbPolyline
 62
7
  6
CONTINUOUS
 90
10
 70
0
 10
4.5308858352
 20
9.1040019724
 10
4.4814741398
 20
9.076768607
 10
4.4324401145
 20
9.0444689372
 10
4.3841561272
 20
9.0073491983
 10
4.3369881143
 20
8.9656926918
 10
4.2912950101
 20
8.9198164573
 10
4.2474260261
 20
8.8700688435
 10
4.20571505
 20
8.8168284222
 10
4.1664781048
 20
8.7605011171
 10
4.1300131616
 20
8.7015159343
  0
LINE
  5
34F
100
AcDbEntity
  8
IMPORT_IGES
100
AcDbLine
 62
253
  6
CONTINUOUS
 10
3.0468033716
 20
6.8422157305
 11
2.7078497273
 21
6.6724835815
  0
LINE
  5
350
100
AcDbEntity
  8
IMPORT_IGES
100
AcDbLine
 62
253
  6
CONTINUOUS
 10
2.7078497273
 20
6.200632012
 11
3.3464127914
 21
6.5204127611
  0
LINE
  5
351
100
AcDbEntity
  8
IMPORT_IGES
100
AcDbLine
 62
253
  6
CONTINUOUS
 10
6.7737141499
 20
10.2231469741
 11
5.1833409585
 21
9.4279603784
  0
LINE
  5
352
100
AcDbEntity
  8
IMPORT_IGES
100
AcDbLine
 62
7
  6
CONTINUOUS
 10
13.9839721496
 20
13.7911192629
 11
14.3272650123
 21
13.9627657463
  0
LINE
  5
353
100
AcDbEntity
  8
IMPORT_IGES
100
AcDbLine
 62
253
  6
CONTINUOUS
 10
6.8534100039
 20
10.1807127205
 11
7.0837711773
 21
10.2958992861
  0
LINE
  5
354
100
AcDbEntity
  8
IMPORT_IGES
100
AcDbLine
 62
253
  6
CONTINUOUS
 10
14.1442007343
 20
13.7269153609
 11
14.4874232324
 21
13.8985266099
  0
LINE
  5
355
100
AcDbEntity
  8
IMPORT_IGES
100
AcDbLine
 62
7
  6
CONTINUOUS
 10
4.69277396
 20
8.9351899365
 11
7.5481763009
 21
10.362891107
  0
LINE
  5
356
100
AcDbEntity
  8
IMPORT_IGES
100
AcDbLine
 62
253
  6
CONTINUOUS
 10
15.1807938124
 20
13.5750339286
 11
8.1202858673
 21
10.044813164
  0
LINE
  5
357
100
AcDbEntity
  8
IMPORT_IGES
100
AcDbLine
 62
253
  6
CONTINUOUS
 10
15.286827519
 20
13.3015513385
 11
5.3681660034
 21
8.3422194616
  0
LINE
  5
358
100
AcDbEntity
  8
IMPORT_IGES
100
AcDbLine
 62
7
  6
CONTINUOUS
 10
5.1560662647
 20
8.7035437762
 11
8.016411914
 21
10.1259507264
  0
LINE
  5
359
100
AcDbEntity
  8
IMPORT_IGES
100
AcDbLine
 62
253
  6
CONTINUOUS
 10
5.1833409585
 20
9.4279603784
 11
4.5308858358
 21
9.1040019727
  0
LWPOLYLINE
  5
35A
100
AcDbEntity
  8
IMPORT_IGES
100
AcDbPolyline
 62
253
  6
CONTINUOUS
 90
13
 70
0
 10
4.4252970005
 20
6.6787469152
 10
4.3962150296
 20
6.6659340212
 10
4.3641858235
 20
6.6550544135
 10
4.3297643462
 20
6.6462703668
 10
4.2937179193
 20
6.6397338148
 10
4.2564822518
 20
6.6354823927
 10
4.2181016923
 20
6.6335527848
 10
4.178963603
 20
6.63407083
 10
4.1399748939
 20
6.6371321044
 10
4.1019727283
 20
6.6427454981
 10
4.0657084329
 20
6.6508595517
 10
4.0318445817
 20
6.6613892593
 10
4.0010687853
 20
6.6741948574
  0
LWPOLYLINE
  5
35B
100
AcDbEntity
  8
IMPORT_IGES
100
AcDbPolyline
 62
253
  6
CONTINUOUS
 90
13
 70
0
 10
3.9955991966
 20
-8.0702972302
 10
4.0250544678
 20
-8.0838061841
 10
4.0576414341
 20
-8.0952795097
 10
4.0928073363
 20
-8.1045184744
 10
4.1299586169
 20
-8.1113627982
 10
4.1684576893
 20
-8.1156909095
 10
4.2076324844
 20
-8.1174251887
 10
4.2468106435
 20
-8.1165353888
 10
4.285322399
 20
-8.1130362398
 10
4.3224987243
 20
-8.1069888799
 10
4.3577009219
 20
-8.098498931
 10
4.3903306511
 20
-8.0877125222
 10
4.4198309566
 20
-8.074815344
  0
LWPOLYLINE
  5
35C
100
AcDbEntity
  8
IMPORT_IGES
100
AcDbPolyline
 62
7
  6
CONTINUOUS
 90
10
 70
0
 10
4.0735671523
 20
-8.2325593703
 10
4.0794980783
 20
-8.2354437838
 10
4.0854996641
 20
-8.2382009998
 10
4.0915686133
 20
-8.2408288382
 10
4.0977035849
 20
-8.2433260305
 10
4.1038990458
 20
-8.2456896955
 10
4.1101453467
 20
-8.2479158887
 10
4.1164369317
 20
-8.2500027143
 10
4.1227722664
 20
-8.2519497809
 10
4.1262533985
 20
-8.252954892
  0
LINE
  5
35D
100
AcDbEntity
  8
RACCORDO
100
AcDbLine
 62
7
  6
CONTINUOUS
 10
-7.8174053031
 20
-2.3675114984
 11
-17.1058495077
 21
2.2767106039
  0
LINE
  5
35E
100
AcDbEntity
  8
IMPORT_IGES
100
AcDbLine
 62
7
  6
CONTINUOUS
 10
4.0735671523
 20
-8.2325593703
 11
3.5989904814
 21
-7.9952710349
  0
LINE
  5
35F
100
AcDbEntity
  8
IMPORT_IGES
100
AcDbLine
 62
253
  6
CONTINUOUS
 10
3.5210225257
 20
-7.833008895
 11
3.9955991966
 21
-8.0702972307
  0
LINE
  5
360
100
AcDbEntity
  8
RACCORDO
100
AcDbLine
 62
253
  6
CONTINUOUS
 10
-7.6690837092
 20
-2.2328087598
 11
-17.5112818909
 21
2.6882903311
  0
LWPOLYLINE
  5
361
100
AcDbEntity
  8
RACCORDO
100
AcDbPolyline
 62
7
  6
CONTINUOUS
 90
37
 70
0
 10
-17.1058486645
 20
2.2767101823
 10
-17.1196057482
 20
2.2838039151
 10
-17.1333636026
 20
2.291325686
 10
-17.1470104585
 20
2.2992079896
 10
-17.1605451178
 20
2.3074384992
 10
-17.1739680572
 20
2.316005424
 10
-17.187265649
 20
2.3248925532
 10
-17.200437339
 20
2.3340888375
 10
-17.2134837427
 20
2.3435834266
 10
-17.2263922768
 20
2.3533623151
 10
-17.2391628971
 20
2.3634155344
 10
-17.2517963005
 20
2.3737330155
 10
-17.2642803714
 20
2.3843021325
 10
-17.2766155013
 20
2.395113825
 10
-17.2888024393
 20
2.4061586448
 10
-17.3008290655
 20
2.4174245754
 10
-17.3126961212
 20
2.4289032623
 10
-17.3244044648
 20
2.4405857749
 10
-17.3359417381
 20
2.4524601213
 10
-17.3473089612
 20
2.4645184575
 10
-17.3585071917
 20
2.4767523092
 10
-17.3695238475
 20
2.4891493798
 10
-17.3803603701
 20
2.501702394
 10
-17.3910179054
 20
2.514403089
 10
-17.4014833017
 20
2.5272381099
 10
-17.4117583513
 20
2.540200553
 10
-17.4218444563
 20
2.5532823885
 10
-17.4317279358
 20
2.5664688035
 10
-17.4414109811
 20
2.5797532249
 10
-17.4508953152
 20
2.5931277817
 10
-17.4601668042
 20
2.6065757923
 10
-17.4692280502
 20
2.6200909378
 10
-17.4780812173
 20
2.6336655209
 10
-17.486711967
 20
2.6472807544
 10
-17.4951175374
 20
2.6609257869
 10
-17.5033065087
 20
2.6745978473
 10
-17.5112818909
 20
2.6882903311
  0
LWPOLYLINE
  5
362
100
AcDbEntity
  8
RACCORDO
100
AcDbPolyline
 62
253
  6
CONTINUOUS
 90
34
 70
0
 10
-3.5077159681
 20
12.2212985545
 10
-3.5090039264
 20
12.2416332456
 10
-3.5110748679
 20
12.2623288362
 10
-3.5139241067
 20
12.2833384988
 10
-3.5175451959
 20
12.3046146949
 10
-3.5219299421
 20
12.3261092833
 10
-3.5270684241
 20
12.3477736283
 10
-3.5329490152
 20
12.3695587105
 10
-3.5395584093
 20
12.3914152369
 10
-3.5468816516
 20
12.413293753
 10
-3.5549021718
 20
12.4351447546
 10
-3.5636018222
 20
12.4569187998
 10
-3.572960918
 20
12.4785666205
 10
-3.5829582827
 20
12.5000392346
 10
-3.5935712952
 20
12.5212880561
 10
-3.6047759418
 20
12.5422650057
 10
-3.6165468698
 20
12.5629226189
 10
-3.6288574453
 20
12.5832141541
 10
-3.6416798133
 20
12.6030936978
 10
-3.6549849608
 20
12.6225162687
 10
-3.6687427824
 20
12.6414379196
 10
-3.6829221484
 20
12.6598158366
 10
-3.6974909754
 20
12.6776084362
 10
-3.7124162986
 20
12.6947754593
 10
-3.7276643466
 20
12.7112780621
 10
-3.743200618
 20
12.7270789045
 10
-3.7589899588
 20
12.7421422339
 10
-3.7749966428
 20
12.7564339668
 10
-3.7911844518
 20
12.7699217653
 10
-3.8075167578
 20
12.7825751107
 10
-3.8239566058
 20
12.7943653724
 10
-3.8404667976
 20
12.8052658726
 10
-3.8570099757
 20
12.8152519471
 10
-3.8735487081
 20
12.8243010002
  0
LWPOLYLINE
  5
363
100
AcDbEntity
  8
RACCORDO
100
AcDbPolyline
 62
7
  6
CONTINUOUS
 90
20
 70
0
 10
-1.7048211795
 20
-24.6031236443
 10
-1.7044157121
 20
-24.61735626
 10
-1.7031925281
 20
-24.6316135008
 10
-1.7011449408
 20
-24.6458390348
 10
-1.6982709431
 20
-24.6599761949
 10
-1.6945736378
 20
-24.6739668419
 10
-1.6900611974
 20
-24.687753036
 10
-1.6847471944
 20
-24.7012767265
 10
-1.6786480197
 20
-24.714485871
 10
-1.6717806412
 20
-24.7273355276
 10
-1.6641675593
 20
-24.7397768299
 10
-1.6558365064
 20
-24.7517602423
 10
-1.6468130915
 20
-24.763245803
 10
-1.6371229283
 20
-24.7741969394
 10
-1.6268031386
 20
-24.7845684174
 10
-1.61589607
 20
-24.7943169487
 10
-1.6044273595
 20
-24.8034184041
 10
-1.59243933
 20
-24.8118369515
 10
-1.5799985108
 20
-24.8195275161
 10
-1.5666174762
 20
-24.8267339927
  0
LWPOLYLINE
  5
364
100
AcDbEntity
  8
RACCORDO
100
AcDbPolyline
 62
253
  6
CONTINUOUS
 90
18
 70
0
 10
-1.6315978748
 20
-24.6915119919
 10
-1.6313585198
 20
-24.7026551372
 10
-1.6306405146
 20
-24.7135353577
 10
-1.6294449245
 20
-24.7241226284
 10
-1.627773727
 20
-24.7343896984
 10
-1.6256307922
 20
-24.7443058145
 10
-1.6230228367
 20
-24.7538375629
 10
-1.6199576647
 20
-24.7629570917
 10
-1.6164431104
 20
-24.7716416629
 10
-1.6124886291
 20
-24.7798678536
 10
-1.6081048653
 20
-24.7876133776
 10
-1.6033037857
 20
-24.7948569619
 10
-1.5980985802
 20
-24.8015786671
 10
-1.5925034913
 20
-24.8077601297
 10
-1.5865336883
 20
-24.8133846165
 10
-1.5802053664
 20
-24.8184368651
 10
-1.5735357153
 20
-24.8229031316
 10
-1.5666246026
 20
-24.8267304299
  0
LINE
  5
365
100
AcDbEntity
  8
RACCORDO
100
AcDbLine
 62
253
  6
CONTINUOUS
 10
-3.8349508954
 20
17.8141832706
 11
-3.8349508954
 21
18.8947665814
  0
LINE
  5
366
100
AcDbEntity
  8
RACCORDO
100
AcDbLine
 62
253
  6
CONTINUOUS
 10
-3.1299069761
 20
17.8357190338
 11
-3.1299069761
 21
19.0684460062
  0
LINE
  5
367
100
AcDbEntity
  8
ASSI
100
AcDbLine
 62
253
  6
CONTINUOUS
 10
-3.0041376292
 20
23.4482766064
 11
-3.0041376292
 21
24.6756272034
  0
LINE
  5
368
100
AcDbEntity
  8
RACCORDO
100
AcDbLine
 62
7
  6
CONTINUOUS
 10
-2.8787881219
 20
23.5973047648
 11
-2.8787881219
 21
24.684949972
  0
LINE
  5
369
100
AcDbEntity
  8
DRAFT
100
AcDbLine
 62
7
  6
CONTINUOUS
 10
-2.7722278269
 20
19.247750551
 11
-2.7722278269
 21
18.0353149857
  0
LWPOLYLINE
  5
36A
100
AcDbEntity
  8
RACCORDO
100
AcDbPolyline
 62
7
  6
CONTINUOUS
 90
20
 70
0
 10
-1.7048211795
 20
17.3764283633
 10
-1.7044173074
 20
17.3906329753
 10
-1.7031986958
 20
17.4048643993
 10
-1.7011583083
 20
17.419066597
 10
-1.6982935568
 20
17.4331839919
 10
-1.6946072345
 20
17.4471577611
 10
-1.6901079421
 20
17.4609277083
 10
-1.6848093487
 20
17.4744357197
 10
-1.6787276072
 20
17.4876304836
 10
-1.6718801258
 20
17.5004663165
 10
-1.6642894553
 20
17.5128946278
 10
-1.6559830687
 20
17.5248665465
 10
-1.6469866608
 20
17.5363421769
 10
-1.6373253525
 20
17.5472856919
 10
-1.6270360801
 20
17.5576520593
 10
-1.6161618092
 20
17.567397474
 10
-1.6047276455
 20
17.5764984793
 10
-1.5927754894
 20
17.5849196302
 10
-1.5803728579
 20
17.592615264
 10
-1.5689281269
 20
17.5988684776
  0
LWPOLYLINE
  5
36B
100
AcDbEntity
  8
0
100
AcDbPolyline
 62
7
  6
CONTINUOUS
 90
3
 70
0
 10
2.8505002448
 20
11.744674996
 10
2.8579301008
 20
11.7582276379
 10
2.8627330449
 20
11.7717642021
  0
LINE
  5
36C
100
AcDbEntity
  8
IMPORT_IGES
100
AcDbLine
 62
7
  6
CONTINUOUS
 10
9.9399674726
 20
14.4075741411
 11
8.4913213455
 21
13.0108321266
  0
LINE
  5
36D
100
AcDbEntity
  8
IMPORT_IGES
100
AcDbLine
 62
7
  6
CONTINUOUS
 10
8.4913213455
 20
12.8376270459
 11
9.9399674726
 21
14.2343690603
  0
LWPOLYLINE
  5
36E
100
AcDbEntity
  8
IMPORT_IGES
100
AcDbPolyline
 62
253
  6
CONTINUOUS
 90
13
 70
0
 10
13.4917071313
 20
14.3986267328
 10
13.5398119541
 20
14.4362714209
 10
13.5848039035
 20
14.47008718
 10
13.6266829795
 20
14.5000740101
 10
13.6648061539
 20
14.5261564564
 10
13.699816455
 20
14.5484099736
 10
13.7336429671
 20
14.567060926
 10
13.766741472
 20
14.5825804823
 10
13.7986561879
 20
14.5944974736
 10
13.8299488544
 20
14.6016247579
 10
13.8608067178
 20
14.6035666212
 10
13.8910425316
 20
14.6007187774
 10
13.920656296
 20
14.5930812265
  0
LINE
  5
36F
100
AcDbEntity
  8
RACCORDO
100
AcDbLine
 62
7
  6
CONTINUOUS
 10
-7.7072011382
 20
-2.260922523
 11
-7.6924033174
 21
-2.2498735774
  0
LWPOLYLINE
  5
370
100
AcDbEntity
  8
IMPORT_IGES
100
AcDbPolyline
 62
7
  6
CONTINUOUS
 90
3
 70
0
 10
-13.6263169181
 20
-5.1370246894
 10
-13.6013152889
 20
-5.1187233613
 10
-13.5743568117
 20
-5.1001659464
  0
LWPOLYLINE
  5
371
100
AcDbEntity
  8
RACCORDO
100
AcDbPolyline
 62
7
  6
CONTINUOUS
 90
3
 70
0
 10
-7.6924033174
 20
-2.2498735774
 10
-7.6770048826
 20
-2.2385529694
 10
-7.6690837092
 20
-2.2328087598
  0
LINE
  5
372
100
AcDbEntity
  8
RACCORDO
100
AcDbLine
 62
7
  6
CONTINUOUS
 10
-15.495008041
 20
-7.3986572444
 11
-15.5110856931
 21
-7.4102851041
  0
LINE
  5
373
100
AcDbEntity
  8
RACCORDO
100
AcDbLine
 62
7
  6
CONTINUOUS
 10
-14.6818352426
 20
-7.8052436436
 11
-14.6979128947
 21
-7.8168715033
  0
LINE
  5
374
100
AcDbEntity
  8
RACCORDO
100
AcDbLine
 62
7
  6
CONTINUOUS
 10
-15.5082423722
 20
-6.0182738344
 11
-15.5243714056
 21
-6.0299262339
  0
LINE
  5
375
100
AcDbEntity
  8
RACCORDO
100
AcDbLine
 62
7
  6
CONTINUOUS
 10
-15.4780592875
 20
-7.386534886
 11
-15.495008041
 21
-7.3986572444
  0
LINE
  5
376
100
AcDbEntity
  8
RACCORDO
100
AcDbLine
 62
7
  6
CONTINUOUS
 10
-15.4912417239
 20
-6.0061295565
 11
-15.5082423722
 21
-6.0182738344
  0
LWPOLYLINE
  5
377
100
AcDbEntity
  8
RACCORDO
100
AcDbPolyline
 62
7
  6
CONTINUOUS
 90
3
 70
0
 10
-14.6560773721
 20
-7.7868844101
 10
-14.6648864891
 20
-7.7931212852
 10
-14.6818352426
 20
-7.8052436436
  0
LINE
  5
378
100
AcDbEntity
  8
RACCORDO
100
AcDbLine
 62
7
  6
CONTINUOUS
 10
-15.4602330998
 20
-7.3739445012
 11
-15.4780592875
 21
-7.386534886
  0
LINE
  5
379
100
AcDbEntity
  8
RACCORDO
100
AcDbLine
 62
7
  6
CONTINUOUS
 10
-15.4733632495
 20
-5.9935200222
 11
-15.4912417239
 21
-6.0061295565
  0
LINE
  5
37A
100
AcDbEntity
  8
RACCORDO
100
AcDbLine
 62
7
  6
CONTINUOUS
 10
-15.4415658954
 20
-7.3609069833
 11
-15.4602330998
 21
-7.3739445012
  0
LINE
  5
37B
100
AcDbEntity
  8
RACCORDO
100
AcDbLine
 62
7
  6
CONTINUOUS
 10
-15.454643522
 20
-5.9804662783
 11
-15.4733632495
 21
-5.9935200222
  0
LINE
  5
37C
100
AcDbEntity
  8
RACCORDO
100
AcDbLine
 62
7
  6
CONTINUOUS
 10
-15.4220881531
 20
-7.347441163
 11
-15.4415658954
 21
-7.3609069833
  0
LINE
  5
37D
100
AcDbEntity
  8
RACCORDO
100
AcDbLine
 62
7
  6
CONTINUOUS
 10
-15.4351131566
 20
-5.9669872915
 11
-15.454643522
 21
-5.9804662783
  0
LWPOLYLINE
  5
37E
100
AcDbEntity
  8
IMPORT_IGES
100
AcDbPolyline
 62
7
  6
CONTINUOUS
 90
4
 70
0
 10
-13.570063814
 20
-6.4399503074
 10
-13.5896450144
 20
-6.4532634402
 10
-13.6084554865
 20
-6.4663983049
 10
-13.6263169181
 20
-6.4793640653
  0
LINE
  5
37F
100
AcDbEntity
  8
RACCORDO
100
AcDbLine
 62
7
  6
CONTINUOUS
 10
-15.3913945867
 20
-7.3264958697
 11
-15.4220881531
 21
-7.347441163
  0
LINE
  5
380
100
AcDbEntity
  8
RACCORDO
100
AcDbLine
 62
7
  6
CONTINUOUS
 10
-15.4043407624
 20
-5.9460282622
 11
-15.4351131566
 21
-5.9669872915
  0
LINE
  5
381
100
AcDbEntity
  8
RACCORDO
100
AcDbLine
 62
7
  6
CONTINUOUS
 10
-15.3590159636
 20
-7.3047196859
 11
-15.3913945867
 21
-7.3264958697
  0
LINE
  5
382
100
AcDbEntity
  8
RACCORDO
100
AcDbLine
 62
7
  6
CONTINUOUS
 10
-15.3718838346
 20
-5.9242459166
 11
-15.4043407624
 21
-5.9460282622
  0
LINE
  5
383
100
AcDbEntity
  8
RACCORDO
100
AcDbLine
 62
7
  6
CONTINUOUS
 10
-15.3250437017
 20
-7.2821884304
 11
-15.3590159636
 21
-7.3047196859
  0
LINE
  5
384
100
AcDbEntity
  8
RACCORDO
100
AcDbLine
 62
7
  6
CONTINUOUS
 10
-15.3378342247
 20
-5.901716459
 11
-15.3718838346
 21
-5.9242459166
  0
LWPOLYLINE
  5
385
100
AcDbEntity
  8
IMPORT_IGES
100
AcDbPolyline
 62
7
  6
CONTINUOUS
 90
4
 70
0
 10
-13.5743568117
 20
-5.1001659464
 10
-13.5162637186
 20
-5.0618872219
 10
-13.4859383005
 20
-5.0421347955
 10
-13.4551225532
 20
-5.0226333921
  0
LINE
  5
386
100
AcDbEntity
  8
RACCORDO
100
AcDbLine
 62
7
  6
CONTINUOUS
 10
-15.2895697867
 20
-7.2589781939
 11
-15.3250437017
 21
-7.2821884304
  0
LINE
  5
387
100
AcDbEntity
  8
RACCORDO
100
AcDbLine
 62
7
  6
CONTINUOUS
 10
-15.3022843501
 20
-5.8785163614
 11
-15.3378342247
 21
-5.901716459
  0
LINE
  5
388
100
AcDbEntity
  8
RACCORDO
100
AcDbLine
 62
7
  6
CONTINUOUS
 10
-15.265329092
 20
-5.8547241195
 11
-15.3022843501
 21
-5.8785163614
  0
LWPOLYLINE
  5
389
100
AcDbEntity
  8
RACCORDO
100
AcDbPolyline
 62
7
  6
CONTINUOUS
 90
3
 70
0
 10
-15.2400960946
 20
-7.2271144663
 10
-15.2526886578
 20
-7.2351670808
 10
-15.2895697867
 20
-7.2589781939
  0
LINE
  5
38A
100
AcDbEntity
  8
RACCORDO
100
AcDbLine
 62
7
  6
CONTINUOUS
 10
-15.2270658278
 20
-5.8304208063
 11
-15.265329092
 21
-5.8547241195
  0
LINE
  5
38B
100
AcDbEntity
  8
RACCORDO
100
AcDbLine
 62
7
  6
CONTINUOUS
 10
-15.1875975092
 20
-5.8056926178
 11
-15.2270658278
 21
-5.8304208063
  0
LINE
  5
38C
100
AcDbEntity
  8
RACCORDO
100
AcDbLine
 62
7
  6
CONTINUOUS
 10
-15.1470381194
 20
-5.7806348897
 11
-15.1875975092
 21
-5.8056926178
  0
LWPOLYLINE
  5
38D
100
AcDbEntity
  8
IMPORT_IGES
100
AcDbPolyline
 62
7
  6
CONTINUOUS
 90
9
 70
0
 10
-13.4551225532
 20
-5.0226333921
 10
-13.3934833502
 20
-4.9846145552
 10
-13.3630723397
 20
-4.9664397425
 10
-13.3332749292
 20
-4.9489941118
 10
-13.3044003985
 20
-4.9323116114
 10
-13.2765565478
 20
-4.9167117539
 10
-13.2499899589
 20
-4.9023268332
 10
-13.2250605586
 20
-4.8891345299
 10
-13.2020528494
 20
-4.8772170683
  0
LINE
  5
38E
100
AcDbEntity
  8
RACCORDO
100
AcDbLine
 62
7
  6
CONTINUOUS
 10
-15.1055197626
 20
-5.7553570797
 11
-15.1470381194
 21
-5.7806348897
  0
LINE
  5
38F
100
AcDbEntity
  8
RACCORDO
100
AcDbLine
 62
7
  6
CONTINUOUS
 10
-15.0632030811
 20
-5.7299897438
 11
-15.1055197626
 21
-5.7553570797
  0
LINE
  5
390
100
AcDbEntity
  8
RACCORDO
100
AcDbLine
 62
7
  6
CONTINUOUS
 10
-15.0346467352
 20
-5.7131105088
 11
-15.0632030811
 21
-5.7299897438
  0
LINE
  5
391
100
AcDbEntity
  8
RACCORDO
100
AcDbLine
 62
7
  6
CONTINUOUS
 10
-15.0059019326
 20
-5.6963240557
 11
-15.0346467352
 21
-5.7131105088
  0
LINE
  5
392
100
AcDbEntity
  8
RACCORDO
100
AcDbLine
 62
7
  6
CONTINUOUS
 10
-14.9770795317
 20
-5.6796887534
 11
-15.0059019326
 21
-5.6963240557
  0
LWPOLYLINE
  5
393
100
AcDbEntity
  8
RACCORDO
100
AcDbPolyline
 62
7
  6
CONTINUOUS
 90
3
 70
0
 10
-16.9138379109
 20
-4.6652948318
 10
-16.9281777558
 20
-4.6733639251
 10
-16.9569785174
 20
-4.6897392582
  0
LWPOLYLINE
  5
394
100
AcDbEntity
  8
RACCORDO
100
AcDbPolyline
 62
7
  6
CONTINUOUS
 90
3
 70
0
 10
-14.9339389252
 20
-5.6552443268
 10
-14.9482787701
 20
-5.6633134201
 10
-14.9770795317
 20
-5.6796887534
  0
LWPOLYLINE
  5
395
100
AcDbEntity
  8
RACCORDO
100
AcDbPolyline
 62
7
  6
CONTINUOUS
 90
3
 70
0
 10
-16.8712978416
 20
-4.6417747319
 10
-16.8853679382
 20
-4.6494899393
 10
-16.9138379109
 20
-4.6652948318
  0
LWPOLYLINE
  5
396
100
AcDbEntity
  8
RACCORDO
100
AcDbPolyline
 62
7
  6
CONTINUOUS
 90
4
 70
0
 10
-14.8774538625
 20
-5.624171275
 10
-14.8913988558
 20
-5.6317242267
 10
-14.9054689524
 20
-5.6394394341
 10
-14.9339389252
 20
-5.6552443268
  0
LWPOLYLINE
  5
397
100
AcDbEntity
  8
RACCORDO
100
AcDbPolyline
 62
7
  6
CONTINUOUS
 90
5
 70
0
 10
-16.8036779383
 20
-4.6059078803
 10
-16.8167576226
 20
-4.6126432606
 10
-16.8300698201
 20
-4.6196278638
 10
-16.8435998682
 20
-4.6268330301
 10
-16.8712978416
 20
-4.6417747319
  0
LINE
  5
398
100
AcDbEntity
  8
RACCORDO
100
AcDbLine
 62
7
  6
CONTINUOUS
 10
-16.0304799741
 20
-4.2177858739
 11
-16.8002801504
 21
-4.6041827235
  0
LINE
  5
399
100
AcDbEntity
  8
IMPORT_IGES
100
AcDbLine
 62
7
  6
CONTINUOUS
 10
-15.2050897016
 20
-3.8989605508
 11
-9.9799224936
 21
-1.2862529031
  0
LINE
  5
39A
100
AcDbEntity
  8
IMPORT_IGES
100
AcDbLine
 62
253
  6
CONTINUOUS
 10
4.0159972725
 20
4.645671162
 11
2.7078497273
 21
3.9915973894
  0
LINE
  5
39B
100
AcDbEntity
  8
IMPORT_IGES
100
AcDbLine
 62
7
  6
CONTINUOUS
 10
2.7078497273
 20
4.5666296452
 11
3.4435240822
 21
4.9319077571
  0
LWPOLYLINE
  5
39C
100
AcDbEntity
  8
ASSI
100
AcDbPolyline
 62
7
  6
CONTINUOUS
 90
6
 70
0
 10
-2.8787881502
 20
24.685223055
 10
-2.8788397751
 20
24.6864477667
 10
-2.8796326743
 20
24.6898898285
 10
-2.8813409306
 20
24.6927183409
 10
-2.8839205779
 20
24.6949834519
 10
-2.8856001387
 20
24.6959508101
  0
LWPOLYLINE
  5
39D
100
AcDbEntity
  8
RACCORDO
100
AcDbPolyline
 62
253
  6
CONTINUOUS
 90
18
 70
0
 10
-0.3066131949
 20
-25.3540043319
 10
-0.30637384
 20
-25.3651474771
 10
-0.3056558348
 20
-25.3760276976
 10
-0.3044602447
 20
-25.3866149684
 10
-0.3027890472
 20
-25.3968820383
 10
-0.3006461123
 20
-25.4067981544
 10
-0.2980381569
 20
-25.4163299028
 10
-0.2949729848
 20
-25.4254494316
 10
-0.2914584306
 20
-25.4341340028
 10
-0.2875039493
 20
-25.4423601935
 10
-0.2831201855
 20
-25.4501057176
 10
-0.2783191059
 20
-25.4573493018
 10
-0.2731139004
 20
-25.4640710071
 10
-0.2675188115
 20
-25.4702524696
 10
-0.2615490085
 20
-25.4758769564
 10
-0.2552206866
 20
-25.480929205
 10
-0.2485510355
 20
-25.4853954715
 10
-0.2416399227
 20
-25.4892227698
  0
LWPOLYLINE
  5
39E
100
AcDbEntity
  8
RACCORDO
100
AcDbPolyline
 62
253
  6
CONTINUOUS
 90
19
 70
0
 10
-1.6315978748
 20
16.9480660816
 10
-1.6313780201
 20
16.937381425
 10
-1.6307190028
 20
16.9269431986
 10
-1.629622462
 20
16.9167773661
 10
-1.6280911311
 20
16.9069092476
 10
-1.6261288159
 20
16.8973633529
 10
-1.62374037
 20
16.8881633325
 10
-1.6209317
 20
16.8793320206
 10
-1.6177097944
 20
16.8708914635
 10
-1.6140826969
 20
16.8628627552
 10
-1.6100594172
 20
16.8552658443
 10
-1.6056499747
 20
16.8481196535
 10
-1.6008654381
 20
16.8414420881
 10
-1.5957178047
 20
16.8352498109
 10
-1.5902198367
 20
16.8295580984
 10
-1.584385103
 20
16.8243809722
 10
-1.5782268866
 20
16.8197304572
 10
-1.5717616124
 20
16.8156191835
 10
-1.5666234277
 20
16.8128470561
  0
LWPOLYLINE
  5
39F
100
AcDbEntity
  8
RACCORDO
100
AcDbPolyline
 62
253
  6
CONTINUOUS
 90
19
 70
0
 10
-0.3066131949
 20
16.2855737417
 10
-0.3063933403
 20
16.2748890851
 10
-0.305734323
 20
16.2644508587
 10
-0.3046377822
 20
16.2542850262
 10
-0.3031064513
 20
16.2444169077
 10
-0.3011441361
 20
16.234871013
 10
-0.2987556902
 20
16.2256709926
 10
-0.2959470201
 20
16.2168396807
 10
-0.2927251146
 20
16.2083991236
 10
-0.289098017
 20
16.2003704153
 10
-0.2850747374
 20
16.1927735044
 10
-0.2806652949
 20
16.1856273136
 10
-0.2758807583
 20
16.1789497482
 10
-0.2707331249
 20
16.1727574709
 10
-0.2652351569
 20
16.1670657585
 10
-0.2594004232
 20
16.1618886323
 10
-0.2532422068
 20
16.1572381173
 10
-0.2467769326
 20
16.1531268436
 10
-0.2416505157
 20
16.150360601
  0
LINE
  5
3A0
100
AcDbEntity
  8
RACCORDO
100
AcDbLine
 62
7
  6
CONTINUOUS
 10
-1.7048211795
 20
17.3764283633
 11
-1.7048211795
 21
17.0364544292
  0
LINE
  5
3A1
100
AcDbEntity
  8
RACCORDO
100
AcDbLine
 62
7
  6
CONTINUOUS
 10
-1.7048211795
 20
-24.4766243487
 11
-1.7048211795
 21
-24.6031236443
  0
LINE
  5
3A2
100
AcDbEntity
  8
RACCORDO
100
AcDbLine
 62
253
  6
CONTINUOUS
 10
-1.6315978748
 20
17.2880400157
 11
-1.6315978748
 21
16.9480660816
  0
LINE
  5
3A3
100
AcDbEntity
  8
RACCORDO
100
AcDbLine
 62
253
  6
CONTINUOUS
 10
-1.6315978748
 20
-24.4458881796
 11
-1.6315978748
 21
-24.6915119919
  0
LINE
  5
3A4
100
AcDbEntity
  8
RACCORDO
100
AcDbLine
 62
7
  6
CONTINUOUS
 10
-1.0018282252
 20
16.076477262
 11
-1.0018282252
 21
16.5304494549
  0
LINE
  5
3A5
100
AcDbEntity
  8
RACCORDO
100
AcDbLine
 62
253
  6
CONTINUOUS
 10
-0.9286049205
 20
15.9847636584
 11
-0.9286049205
 21
16.4938378025
  0
LINE
  5
3A6
100
AcDbEntity
  8
RACCORDO
100
AcDbLine
 62
253
  6
CONTINUOUS
 10
-0.3066131949
 20
-25.3540043319
 11
-0.3066131949
 21
-25.0140303977
  0
LINE
  5
3A7
100
AcDbEntity
  8
RACCORDO
100
AcDbLine
 62
253
  6
CONTINUOUS
 10
-0.3066131949
 20
16.2855737417
 11
-0.3066131949
 21
16.6255476758
  0
LINE
  5
3A8
100
AcDbEntity
  8
RACCORDO
100
AcDbLine
 62
7
  6
CONTINUOUS
 10
-0.2266434146
 20
23.5990620999
 11
-0.2266434146
 21
23.3282618073
  0
LINE
  5
3A9
100
AcDbEntity
  8
RACCORDO
100
AcDbLine
 62
253
  6
CONTINUOUS
 10
0.0459087647
 20
-25.3545170557
 11
0.0459087647
 21
-25.0145431216
  0
LINE
  5
3AA
100
AcDbEntity
  8
RACCORDO
100
AcDbLine
 62
253
  6
CONTINUOUS
 10
0.0459087647
 20
16.2850610178
 11
0.0459087647
 21
16.6250349519
  0
LWPOLYLINE
  5
3AB
100
AcDbEntity
  8
RACCORDO
100
AcDbPolyline
 62
253
  6
CONTINUOUS
 90
31
 70
0
 10
-1.6315978748
 20
17.2880400157
 10
-1.6313585198
 20
17.2994225158
 10
-1.6306405146
 20
17.3110207415
 10
-1.6294449245
 20
17.3228036024
 10
-1.627773727
 20
17.3347418699
 10
-1.6256307922
 20
17.3468009208
 10
-1.6230228367
 20
17.3589406247
 10
-1.6199576647
 20
17.3711253256
 10
-1.6164431104
 20
17.383324451
 10
-1.6124886291
 20
17.395505123
 10
-1.6081048653
 20
17.4076344108
 10
-1.6033037857
 20
17.4196790747
 10
-1.5980985802
 20
17.4316059854
 10
-1.5925034913
 20
17.4433825369
 10
-1.5865336883
 20
17.4549768267
 10
-1.5802053664
 20
17.4663573971
 10
-1.5735357153
 20
17.4774933147
 10
-1.5665429078
 20
17.4883542183
 10
-1.5592459991
 20
17.4989105028
 10
-1.5516648566
 20
17.509133423
 10
-1.5438201054
 20
17.5189951634
 10
-1.5357330992
 20
17.5284688759
 10
-1.527425847
 20
17.5375287737
 10
-1.5189209602
 20
17.5461501934
 10
-1.5102415951
 20
17.5543096589
 10
-1.5014113692
 20
17.5619849655
 10
-1.4924543228
 20
17.5691552146
 10
-1.4833948636
 20
17.575800869
 10
-1.4742576601
 20
17.5819038377
 10
-1.4650675737
 20
17.58744752
 10
-1.4558496188
 20
17.5924168307
  0
LWPOLYLINE
  5
3AC
100
AcDbEntity
  8
RACCORDO
100
AcDbPolyline
 62
253
  6
CONTINUOUS
 90
31
 70
0
 10
-0.3066131949
 20
16.6255476758
 10
-0.3063726137
 20
16.6369595852
 10
-0.3056515225
 20
16.6485810418
 10
-0.3044518807
 20
16.6603804149
 10
-0.3027769482
 20
16.6723256016
 10
-0.3006312817
 20
16.6843840766
 10
-0.2980207271
 20
16.6965229804
 10
-0.2949523936
 20
16.7087092625
 10
-0.2914346323
 20
16.720909762
 10
-0.2874770231
 20
16.7330912589
 10
-0.2830903412
 20
16.7452205945
 10
-0.2782865282
 20
16.7572647567
 10
-0.2730786635
 20
16.7691909586
 10
-0.2674809182
 20
16.7809667533
 10
-0.2615085366
 20
16.7925600757
 10
-0.2551778023
 20
16.8039393279
 10
-0.2485059813
 20
16.8150734957
 10
-0.241511213
 20
16.8259323273
 10
-0.2342124761
 20
16.8364863633
 10
-0.2266295335
 20
16.846707006
 10
-0.2187831152
 20
16.8565662949
 10
-0.2106948239
 20
16.8660371111
 10
-0.2023868561
 20
16.8750935392
 10
-0.1938816838
 20
16.8837111558
 10
-0.185202221
 20
16.8918667696
 10
-0.1763701305
 20
16.8995398182
 10
-0.1674113475
 20
16.9067075657
 10
-0.1583560106
 20
16.9133464723
 10
-0.1492308419
 20
16.9194382697
 10
-0.1400588373
 20
16.924968917
 10
-0.130864939
 20
16.9299244907
  0
LWPOLYLINE
  5
3AD
100
AcDbEntity
  8
RACCORDO
100
AcDbPolyline
 62
253
  6
CONTINUOUS
 90
21
 70
0
 10
-3.5077159681
 20
-25.0167726856
 10
-3.5090039267
 20
-25.0375647718
 10
-3.5110748689
 20
-25.0579029014
 10
-3.5139241086
 20
-25.0777410557
 10
-3.517545199
 20
-25.0970343472
 10
-3.5219299466
 20
-25.1157391211
 10
-3.5270684301
 20
-25.1338130542
 10
-3.5329490227
 20
-25.1512152511
 10
-3.5395584186
 20
-25.1679063359
 10
-3.5468816626
 20
-25.1838485418
 10
-3.5549021845
 20
-25.1990057967
 10
-3.5636018365
 20
-25.2133438043
 10
-3.5729609339
 20
-25.2268301224
 10
-3.5829583
 20
-25.2394342354
 10
-3.5935713139
 20
-25.2511276243
 10
-3.6047759616
 20
-25.2618838305
 10
-3.6165468904
 20
-25.2716785161
 10
-3.6288574666
 20
-25.2804895188
 10
-3.641679835
 20
-25.288296902
 10
-3.6549849826
 20
-25.295083
 10
-3.6615232135
 20
-25.297968384
  0
LWPOLYLINE
  5
3AE
100
AcDbEntity
  8
IMPORT_IGES
100
AcDbPolyline
 62
7
  6
CONTINUOUS
 90
10
 70
0
 10
3.6245692242
 20
7.2721690211
 10
3.6040074258
 20
7.233819591
 10
3.5856118724
 20
7.1947760309
 10
3.569382564
 20
7.155038341
 10
3.5551889574
 20
7.1141553295
 10
3.5431615958
 20
7.0725781881
 10
3.5336921088
 20
7.0316604919
 10
3.5269110398
 20
6.9918534327
 10
3.5226878454
 20
6.9527058188
 10
3.5210225257
 20
6.9142176501
  0
LINE
  5
3AF
100
AcDbEntity
  8
IMPORT_IGES
100
AcDbLine
 62
7
  6
CONTINUOUS
 10
4.4427739678
 20
8.6833634564
 11
3.6245692242
 21
7.2721690211
  0
LINE
  5
3B0
100
AcDbEntity
  8
IMPORT_IGES
100
AcDbLine
 62
253
  6
CONTINUOUS
 10
3.3464127914
 20
6.5204127611
 11
3.5210225257
 21
6.8202187276
  0
LINE
  5
3B1
100
AcDbEntity
  8
IMPORT_IGES
100
AcDbLine
 62
253
  6
CONTINUOUS
 10
3.0468033716
 20
6.8422157305
 11
4.1300131669
 21
8.7015159317
  0
LINE
  5
3B2
100
AcDbEntity
  8
IMPORT_IGES
100
AcDbLine
 62
7
  6
CONTINUOUS
 10
3.1955954512
 20
9.1687247899
 11
2.8682278167
 21
8.6165937364
  0
LWPOLYLINE
  5
3B3
100
AcDbEntity
  8
IMPORT_IGES
100
AcDbPolyline
 62
7
  6
CONTINUOUS
 90
10
 70
0
 10
4.9068000699
 20
8.4513748125
 10
4.9293942184
 20
8.4883382729
 10
4.9537332744
 20
8.523632763
 10
4.979630871
 20
8.5569903503
 10
5.0068876699
 20
8.5881574287
 10
5.0352966141
 20
8.6168979341
 10
5.0646447547
 20
8.6429945511
 10
5.0947097065
 20
8.6662488367
 10
5.1252611088
 20
8.6864833266
 10
5.1560662787
 20
8.7035437693
  0
LINE
  5
3B4
100
AcDbEntity
  8
IMPORT_IGES
100
AcDbLine
 62
7
  6
CONTINUOUS
 10
-11.2751868706
 20
-7.1341503384
 11
-12.4065577205
 21
-8.0711170554
  0
LWPOLYLINE
  5
3B5
100
AcDbEntity
  8
IMPORT_IGES
100
AcDbPolyline
 62
7
  6
CONTINUOUS
 90
3
 70
0
 10
-12.8308217892
 20
-6.8771116297
 10
-12.8058201601
 20
-6.8588103016
 10
-12.7788616829
 20
-6.8402528867
  0
LINE
  5
3B6
100
AcDbEntity
  8
RACCORDO
100
AcDbLine
 62
7
  6
CONTINUOUS
 10
-14.6678227228
 20
-8.9685137165
 11
-14.6838570201
 21
-8.9801207143
  0
LINE
  5
3B7
100
AcDbEntity
  8
RACCORDO
100
AcDbLine
 62
7
  6
CONTINUOUS
 10
-14.6509177631
 20
-8.9564100138
 11
-14.6678227228
 21
-8.9685137165
  0
LINE
  5
3B8
100
AcDbEntity
  8
RACCORDO
100
AcDbLine
 62
7
  6
CONTINUOUS
 10
-14.6331357059
 20
-8.9438359513
 11
-14.6509177631
 21
-8.9564100138
  0
LINE
  5
3B9
100
AcDbEntity
  8
RACCORDO
100
AcDbLine
 62
7
  6
CONTINUOUS
 10
-14.6378330847
 20
-7.7740658621
 11
-14.6560773721
 21
-7.7868844101
  0
LINE
  5
3BA
100
AcDbEntity
  8
RACCORDO
100
AcDbLine
 62
7
  6
CONTINUOUS
 10
-14.6145128374
 20
-8.9308122927
 11
-14.6331357059
 21
-8.9438359513
  0
LINE
  5
3BB
100
AcDbEntity
  8
RACCORDO
100
AcDbLine
 62
7
  6
CONTINUOUS
 10
-14.618754438
 20
-7.7608120337
 11
-14.6378330847
 21
-7.7740658621
  0
LINE
  5
3BC
100
AcDbEntity
  8
RACCORDO
100
AcDbLine
 62
7
  6
CONTINUOUS
 10
-14.5950795216
 20
-8.9173577539
 11
-14.6145128374
 21
-8.9308122927
  0
LINE
  5
3BD
100
AcDbEntity
  8
RACCORDO
100
AcDbLine
 62
7
  6
CONTINUOUS
 10
-14.5988736308
 20
-7.7471446982
 11
-14.618754438
 21
-7.7608120337
  0
LINE
  5
3BE
100
AcDbEntity
  8
RACCORDO
100
AcDbLine
 62
7
  6
CONTINUOUS
 10
-14.5644525169
 20
-8.8964243139
 11
-14.5950795216
 21
-8.9173577539
  0
LINE
  5
3BF
100
AcDbEntity
  8
RACCORDO
100
AcDbLine
 62
7
  6
CONTINUOUS
 10
-14.5782217883
 20
-7.7330822689
 11
-14.5988736308
 21
-7.7471446982
  0
LINE
  5
3C0
100
AcDbEntity
  8
RACCORDO
100
AcDbLine
 62
7
  6
CONTINUOUS
 10
-14.5321400287
 20
-8.8746535982
 11
-14.5644525169
 21
-8.8964243139
  0
LINE
  5
3C1
100
AcDbEntity
  8
RACCORDO
100
AcDbLine
 62
7
  6
CONTINUOUS
 10
-14.5458431652
 20
-7.7113060851
 11
-14.5782217883
 21
-7.7330822689
  0
LINE
  5
3C2
100
AcDbEntity
  8
RACCORDO
100
AcDbLine
 62
7
  6
CONTINUOUS
 10
-14.4982331096
 20
-8.8521210994
 11
-14.5321400287
 21
-8.8746535982
  0
LINE
  5
3C3
100
AcDbEntity
  8
RACCORDO
100
AcDbLine
 62
7
  6
CONTINUOUS
 10
-14.5118709033
 20
-7.6887748296
 11
-14.5458431652
 21
-7.7113060851
  0
LWPOLYLINE
  5
3C4
100
AcDbEntity
  8
IMPORT_IGES
100
AcDbPolyline
 62
7
  6
CONTINUOUS
 90
4
 70
0
 10
-12.7788616829
 20
-6.8402528867
 10
-12.7207685898
 20
-6.8019741622
 10
-12.6904431717
 20
-6.7822217358
 10
-12.6596274244
 20
-6.7627203323
  0
LWPOLYLINE
  5
3C5
100
AcDbEntity
  8
IMPORT_IGES
100
AcDbPolyline
 62
7
  6
CONTINUOUS
 90
3
 70
0
 10
-13.5083779597
 20
-6.3989723422
 10
-13.5292512464
 20
-6.4126269922
 10
-13.570063814
 20
-6.4399503074
  0
LINE
  5
3C6
100
AcDbEntity
  8
RACCORDO
100
AcDbLine
 62
7
  6
CONTINUOUS
 10
-14.4628233815
 20
-8.8289025853
 11
-14.4982331096
 21
-8.8521210994
  0
LINE
  5
3C7
100
AcDbEntity
  8
RACCORDO
100
AcDbLine
 62
7
  6
CONTINUOUS
 10
-14.4763969884
 20
-7.6655645931
 11
-14.5118709033
 21
-7.6887748296
  0
LINE
  5
3C8
100
AcDbEntity
  8
RACCORDO
100
AcDbLine
 62
7
  6
CONTINUOUS
 10
-14.4260049106
 20
-8.8050758289
 11
-14.4628233815
 21
-8.8289025853
  0
LINE
  5
3C9
100
AcDbEntity
  8
RACCORDO
100
AcDbLine
 62
7
  6
CONTINUOUS
 10
-14.4395158595
 20
-7.64175348
 11
-14.4763969884
 21
-7.6655645931
  0
LINE
  5
3CA
100
AcDbEntity
  8
RACCORDO
100
AcDbLine
 62
7
  6
CONTINUOUS
 10
-14.3878742255
 20
-8.7807211372
 11
-14.4260049106
 21
-8.8050758289
  0
LINE
  5
3CB
100
AcDbEntity
  8
RACCORDO
100
AcDbLine
 62
7
  6
CONTINUOUS
 10
-15.2144972317
 20
-7.2108357493
 11
-15.2400960946
 21
-7.2271144663
  0
LINE
  5
3CC
100
AcDbEntity
  8
RACCORDO
100
AcDbLine
 62
7
  6
CONTINUOUS
 10
-14.4013244334
 20
-7.6174221485
 11
-14.4395158595
 21
-7.64175348
  0
LINE
  5
3CD
100
AcDbEntity
  8
RACCORDO
100
AcDbLine
 62
7
  6
CONTINUOUS
 10
-14.3485333684
 20
-8.7559238729
 11
-14.3878742255
 21
-8.7807211372
  0
LINE
  5
3CE
100
AcDbEntity
  8
RACCORDO
100
AcDbLine
 62
7
  6
CONTINUOUS
 10
-15.1750979665
 20
-7.1860699441
 11
-15.2144972317
 21
-7.2108357493
  0
LINE
  5
3CF
100
AcDbEntity
  8
RACCORDO
100
AcDbLine
 62
7
  6
CONTINUOUS
 10
-14.3619251682
 20
-7.5926563433
 11
-14.4013244334
 21
-7.6174221485
  0
LINE
  5
3D0
100
AcDbEntity
  8
RACCORDO
100
AcDbLine
 62
7
  6
CONTINUOUS
 10
-14.3080953179
 20
-8.7307784514
 11
-14.3485333684
 21
-8.7559238729
  0
LINE
  5
3D1
100
AcDbEntity
  8
RACCORDO
100
AcDbLine
 62
7
  6
CONTINUOUS
 10
-15.1346043005
 20
-7.1609645025
 11
-15.1750979665
 21
-7.1860699441
  0
LINE
  5
3D2
100
AcDbEntity
  8
RACCORDO
100
AcDbLine
 62
7
  6
CONTINUOUS
 10
-14.3214315021
 20
-7.5675509017
 11
-14.3619251682
 21
-7.5926563433
  0
LWPOLYLINE
  5
3D3
100
AcDbEntity
  8
IMPORT_IGES
100
AcDbPolyline
 62
7
  6
CONTINUOUS
 90
9
 70
0
 10
-12.6596274244
 20
-6.7627203323
 10
-12.5979882213
 20
-6.7247014954
 10
-12.5675772109
 20
-6.7065266828
 10
-12.5377798004
 20
-6.6890810521
 10
-12.5089052697
 20
-6.6723985516
 10
-12.4810614189
 20
-6.6567986941
 10
-12.45449483
 20
-6.6424137735
 10
-12.4295654298
 20
-6.6292214702
 10
-12.4065577205
 20
-6.6173040086
  0
LINE
  5
3D4
100
AcDbEntity
  8
RACCORDO
100
AcDbLine
 62
7
  6
CONTINUOUS
 10
-15.0931477198
 20
-7.135628329
 11
-15.1346043005
 21
-7.1609645025
  0
LINE
  5
3D5
100
AcDbEntity
  8
RACCORDO
100
AcDbLine
 62
7
  6
CONTINUOUS
 10
-14.2799749215
 20
-7.5422147282
 11
-14.3214315021
 21
-7.5675509017
  0
LWPOLYLINE
  5
3D6
100
AcDbEntity
  8
RACCORDO
100
AcDbPolyline
 62
7
  6
CONTINUOUS
 90
3
 70
0
 10
-14.2526974592
 20
-8.696906558
 10
-14.2666910396
 20
-8.7053933087
 10
-14.3080953179
 20
-8.7307784514
  0
LINE
  5
3D7
100
AcDbEntity
  8
RACCORDO
100
AcDbLine
 62
7
  6
CONTINUOUS
 10
-15.0508881508
 20
-7.1101913686
 11
-15.0931477198
 21
-7.135628329
  0
LINE
  5
3D8
100
AcDbEntity
  8
RACCORDO
100
AcDbLine
 62
7
  6
CONTINUOUS
 10
-14.2377153525
 20
-7.5167777678
 11
-14.2799749215
 21
-7.5422147282
  0
LINE
  5
3D9
100
AcDbEntity
  8
RACCORDO
100
AcDbLine
 62
7
  6
CONTINUOUS
 10
-15.0080325284
 20
-7.084816392
 11
-15.0508881508
 21
-7.1101913686
  0
LINE
  5
3DA
100
AcDbEntity
  8
RACCORDO
100
AcDbLine
 62
7
  6
CONTINUOUS
 10
-14.19485973
 20
-7.4914027912
 11
-14.2377153525
 21
-7.5167777678
  0
LINE
  5
3DB
100
AcDbEntity
  8
RACCORDO
100
AcDbLine
 62
7
  6
CONTINUOUS
 10
-14.9792636552
 20
-7.0680396932
 11
-15.0080325284
 21
-7.084816392
  0
LINE
  5
3DC
100
AcDbEntity
  8
RACCORDO
100
AcDbLine
 62
7
  6
CONTINUOUS
 10
-14.1660908569
 20
-7.4746260924
 11
-14.19485973
 21
-7.4914027912
  0
LINE
  5
3DD
100
AcDbEntity
  8
RACCORDO
100
AcDbLine
 62
7
  6
CONTINUOUS
 10
-14.9504549799
 20
-7.0514612617
 11
-14.9792636552
 21
-7.0680396932
  0
LINE
  5
3DE
100
AcDbEntity
  8
RACCORDO
100
AcDbLine
 62
7
  6
CONTINUOUS
 10
-14.1372821815
 20
-7.4580476609
 11
-14.1660908569
 21
-7.4746260924
  0
LINE
  5
3DF
100
AcDbEntity
  8
RACCORDO
100
AcDbLine
 62
7
  6
CONTINUOUS
 10
-14.921757984
 20
-7.0351630666
 11
-14.9504549799
 21
-7.0514612617
  0
LINE
  5
3E0
100
AcDbEntity
  8
RACCORDO
100
AcDbLine
 62
7
  6
CONTINUOUS
 10
-14.1085851857
 20
-7.4417494658
 11
-14.1372821815
 21
-7.4580476609
  0
LWPOLYLINE
  5
3E1
100
AcDbEntity
  8
RACCORDO
100
AcDbPolyline
 62
7
  6
CONTINUOUS
 90
3
 70
0
 10
-14.8792460715
 20
-7.0115222348
 10
-14.8933078948
 20
-7.0192791973
 10
-14.921757984
 20
-7.0351630666
  0
LWPOLYLINE
  5
3E2
100
AcDbEntity
  8
RACCORDO
100
AcDbPolyline
 62
7
  6
CONTINUOUS
 90
3
 70
0
 10
-14.0660732732
 20
-7.418108634
 10
-14.0801350965
 20
-7.4258655965
 10
-14.1085851857
 20
-7.4417494658
  0
LWPOLYLINE
  5
3E3
100
AcDbEntity
  8
RACCORDO
100
AcDbPolyline
 62
7
  6
CONTINUOUS
 90
5
 70
0
 10
-14.8116484276
 20
-6.9754246076
 10
-14.8247264025
 20
-6.9822090022
 10
-14.8380354633
 20
-6.989241215
 10
-14.8515610034
 20
-6.9964925582
 10
-14.8792460715
 20
-7.0115222348
  0
LWPOLYLINE
  5
3E4
100
AcDbEntity
  8
IMPORT_IGES
100
AcDbPolyline
 62
7
  6
CONTINUOUS
 90
17
 70
0
 10
-13.2137272406
 20
-6.2254333873
 10
-13.2261056854
 20
-6.2318373404
 10
-13.2391691206
 20
-6.2387427157
 10
-13.252865574
 20
-6.2460883304
 10
-13.2671955421
 20
-6.2538859998
 10
-13.2822218088
 20
-6.2622124066
 10
-13.2979248165
 20
-6.2710323671
 10
-13.3142646923
 20
-6.2803150983
 10
-13.3312790117
 20
-6.2901299086
 10
-13.3489183206
 20
-6.3004329453
 10
-13.3671409485
 20
-6.3111904769
 10
-13.3859928112
 20
-6.3224714541
 10
-13.4054314343
 20
-6.3342539676
 10
-13.4253580298
 20
-6.3464648755
 10
-13.4457206341
 20
-6.359084717
 10
-13.4664484498
 20
-6.3721207443
 10
-13.5083779597
 20
-6.3989723422
  0
LWPOLYLINE
  5
3E5
100
AcDbEntity
  8
RACCORDO
100
AcDbPolyline
 62
7
  6
CONTINUOUS
 90
4
 70
0
 10
-14.8237789524
 20
-5.5958573747
 10
-14.8368586367
 20
-5.602592755
 10
-14.8501708343
 20
-5.6095773584
 10
-14.8774538625
 20
-5.624171275
  0
LINE
  5
3E6
100
AcDbEntity
  8
RACCORDO
100
AcDbLine
 62
7
  6
CONTINUOUS
 10
-14.0505809868
 20
-5.2077353675
 11
-14.820381163
 21
-5.5941322172
  0
LINE
  5
3E7
100
AcDbEntity
  8
RACCORDO
100
AcDbLine
 62
7
  6
CONTINUOUS
 10
-14.0505809868
 20
-6.5933760136
 11
-14.8071086214
 21
-6.9731107859
  0
LINE
  5
3E8
100
AcDbEntity
  8
IMPORT_IGES
100
AcDbLine
 62
253
  6
CONTINUOUS
 10
4.1574186288
 20
4.4017554031
 11
2.7078497273
 21
3.6769709524
  0
LINE
  5
3E9
100
AcDbEntity
  8
IMPORT_IGES
100
AcDbLine
 62
7
  6
CONTINUOUS
 10
-13.2020528494
 20
-4.8772170683
 11
-8.0000235063
 21
-2.2762023968
  0
LINE
  5
3EA
100
AcDbEntity
  8
IMPORT_IGES
100
AcDbLine
 62
7
  6
CONTINUOUS
 10
18.6676221983
 20
9.9261581586
 11
18.1372921124
 21
9.6609931157
  0
LINE
  5
3EB
100
AcDbEntity
  8
IMPORT_IGES
100
AcDbLine
 62
253
  6
CONTINUOUS
 10
18.4056202697
 20
9.6439520433
 11
18.9359503556
 21
9.9091170863
  0
LINE
  5
3EC
100
AcDbEntity
  8
IMPORT_IGES
100
AcDbLine
 62
7
  6
CONTINUOUS
 10
-13.2137272406
 20
-6.2254333873
 11
-12.2828140338
 21
-5.7599370364
  0
LINE
  5
3ED
100
AcDbEntity
  8
IMPORT_IGES
100
AcDbLine
 62
7
  6
CONTINUOUS
 10
-7.8226836849
 20
-3.5298718619
 11
-12.0706819995
 21
-5.6538710192
  0
LINE
  5
3EE
100
AcDbEntity
  8
IMPORT_IGES
100
AcDbLine
 62
253
  6
CONTINUOUS
 10
19.183437729
 20
9.7853733996
 11
18.6531076431
 21
9.5202083566
  0
LINE
  5
3EF
100
AcDbEntity
  8
IMPORT_IGES
100
AcDbLine
 62
253
  6
CONTINUOUS
 10
18.6678329414
 20
9.9262633923
 11
18.6676221983
 21
9.9261581586
  0
LWPOLYLINE
  5
3F0
100
AcDbEntity
  8
IMPORT_IGES
100
AcDbPolyline
 62
7
  6
CONTINUOUS
 90
8
 70
0
 10
18.1374638462
 20
9.6610303451
 10
18.1560850397
 20
9.6693345726
 10
18.1931165506
 20
9.6802228122
 10
18.23286599
 20
9.6852189707
 10
18.2741131068
 20
9.6841111616
 10
18.3164511504
 20
9.6768287564
 10
18.3602868714
 20
9.6634423836
 10
18.4056202697
 20
9.6439520433
  0
LWPOLYLINE
  5
3F1
100
AcDbEntity
  8
IMPORT_IGES
100
AcDbPolyline
 62
253
  6
CONTINUOUS
 90
5
 70
0
 10
18.9359503556
 20
9.9091170863
 10
18.963395017
 20
9.9206559132
 10
18.9902652431
 20
9.9276139564
 10
19.0161219029
 20
9.929933769
 10
19.0404249803
 20
9.9276608619
  0
LWPOLYLINE
  5
3F2
100
AcDbEntity
  8
IMPORT_IGES
100
AcDbPolyline
 62
253
  6
CONTINUOUS
 90
7
 70
0
 10
19.183437729
 20
9.7853733996
 10
19.2108823904
 20
9.7969122265
 10
19.2377526165
 20
9.8038702697
 10
19.2636092764
 20
9.8061900823
 10
19.2879123537
 20
9.8039171752
 10
19.3104284008
 20
9.7971717914
 10
19.3174669199
 20
9.7939612666
  0
LWPOLYLINE
  5
3F3
100
AcDbEntity
  8
IMPORT_IGES
100
AcDbPolyline
 62
7
  6
CONTINUOUS
 90
9
 70
0
 10
5.4025564761
 20
-2.0059796882
 10
5.4396044999
 20
-2.0207192318
 10
5.477897056
 20
-2.0353104282
 10
5.5171120527
 20
-2.0493721175
 10
5.5564654451
 20
-2.0624958611
 10
5.5949653992
 20
-2.0747920632
 10
5.6318776583
 20
-2.0859357554
 10
5.6667510811
 20
-2.0951740172
 10
5.6990216125
 20
-2.1019219465
  0
LINE
  5
3F4
100
AcDbEntity
  8
IMPORT_IGES
100
AcDbLine
 62
7
  6
CONTINUOUS
 10
5.3714476613
 20
-1.9928107033
 11
5.4025564761
 21
-2.0059796882
  0
LINE
  5
3F5
100
AcDbEntity
  8
IMPORT_IGES
100
AcDbLine
 62
7
  6
CONTINUOUS
 10
4.1574186288
 20
-2.583273381
 11
3.6270885429
 21
-2.3181083381
  0
LINE
  5
3F6
100
AcDbEntity
  8
IMPORT_IGES
100
AcDbLine
 62
7
  6
CONTINUOUS
 10
4.5463273584
 20
-2.3888190162
 11
3.7095601593
 21
-1.9704354167
  0
LWPOLYLINE
  5
3F7
100
AcDbEntity
  8
IMPORT_IGES
100
AcDbPolyline
 62
253
  6
CONTINUOUS
 90
10
 70
0
 10
4.2670797602
 20
-3.3259006857
 10
4.2873334034
 20
-3.3408025526
 10
4.3182190164
 20
-3.3653591654
 10
4.3483135431
 20
-3.3911347887
 10
4.3770899877
 20
-3.4176784852
 10
4.4040466187
 20
-3.4445279012
 10
4.428705221
 20
-3.4712064193
 10
4.4506347081
 20
-3.4972459743
 10
4.4694565643
 20
-3.522195235
 10
4.4848443416
 20
-3.5456197347
  0
LWPOLYLINE
  5
3F8
100
AcDbEntity
  8
RACCORDO
100
AcDbPolyline
 62
253
  6
CONTINUOUS
 90
31
 70
0
 10
0.0459087647
 20
16.6250349519
 10
0.0456137878
 20
16.6364606596
 10
0.0448379346
 20
16.6480987127
 10
0.0435833315
 20
16.6599172136
 10
0.0418534172
 20
16.6718837699
 10
0.0396529331
 20
16.6839655835
 10
0.0369879102
 20
16.6961295404
 10
0.0338656529
 20
16.7083423016
 10
0.0302947187
 20
16.7205703941
 10
0.0262848948
 20
16.7327803031
 10
0.0218471716
 20
16.7449385634
 10
0.0169937118
 20
16.7570118516
 10
0.011737818
 20
16.768967077
 10
0.0060938955
 20
16.7807714727
 10
0.0000774133
 20
16.7923926849
 10
-0.0062951385
 20
16.8037988621
 10
-0.0130062941
 20
16.8149587421
 10
-0.0200376593
 20
16.8258417378
 10
-0.0273699626
 20
16.8364180209
 10
-0.0349831074
 20
16.8466586039
 10
-0.0428562275
 20
16.8565354192
 10
-0.0509677443
 20
16.8660213962
 10
-0.0592954255
 20
16.8750905358
 10
-0.0678164466
 20
16.8837179811
 10
-0.076507453
 20
16.8918800859
 10
-0.0853446243
 20
16.8995544795
 10
-0.0943037395
 20
16.9067201276
 10
-0.1033602433
 20
16.9133573907
 10
-0.1124893136
 20
16.9194480772
 10
-0.1216659293
 20
16.9249754938
 10
-0.130864939
 20
16.9299244907
  0
LWPOLYLINE
  5
3F9
100
AcDbEntity
  8
RACCORDO
100
AcDbPolyline
 62
7
  6
CONTINUOUS
 90
23
 70
0
 10
2.2476545843
 20
-23.8680672485
 10
2.2473361763
 20
-23.8554536962
 10
2.2463775596
 20
-23.842830748
 10
2.2447757854
 20
-23.8302372078
 10
2.2425316254
 20
-23.8177161344
 10
2.2396475854
 20
-23.8053027094
 10
2.2361257612
 20
-23.7930239424
 10
2.231972396
 20
-23.7809170157
 10
2.2271975412
 20
-23.7690216484
 10
2.2218097463
 20
-23.7573673689
 10
2.2158213857
 20
-23.7459883941
 10
2.2092493446
 20
-23.7349219993
 10
2.2021099108
 20
-23.7241991858
 10
2.1944201178
 20
-23.7138488164
 10
2.1862027979
 20
-23.7039040032
 10
2.1774837642
 20
-23.6943966809
 10
2.1682825482
 20
-23.6853486181
 10
2.1586260987
 20
-23.6767869005
 10
2.1485516968
 20
-23.6687432373
 10
2.1380791471
 20
-23.6612317048
 10
2.127236457
 20
-23.654271696
 10
2.1160727072
 20
-23.6478919816
 10
2.1094516573
 20
-23.6444572881
  0
LWPOLYLINE
  5
3FA
100
AcDbEntity
  8
RACCORDO
100
AcDbPolyline
 62
7
  6
CONTINUOUS
 90
34
 70
0
 10
1.6471895555
 20
17.4277569554
 10
1.6469894995
 20
17.4381587641
 10
1.6463892621
 20
17.4487371321
 10
1.6453903041
 20
17.4594681502
 10
1.6439950685
 20
17.4703276033
 10
1.6422067203
 20
17.4812908958
 10
1.6400291389
 20
17.4923331067
 10
1.6374673144
 20
17.5034292536
 10
1.6345271401
 20
17.5145542471
 10
1.6312151452
 20
17.5256828175
 10
1.627538868
 20
17.5367897753
 10
1.6235067078
 20
17.5478499965
 10
1.6191277105
 20
17.5588383777
 10
1.6144118099
 20
17.5697300354
 10
1.6093697399
 20
17.5805003225
 10
1.6040128793
 20
17.5911248137
 10
1.598353355
 20
17.6015794382
 10
1.5924040171
 20
17.6118405283
 10
1.5861783453
 20
17.6218848347
 10
1.5796904128
 20
17.6316895896
 10
1.572954924
 20
17.6412325868
 10
1.5659871847
 20
17.650492227
 10
1.5588029277
 20
17.6594475094
 10
1.551418412
 20
17.6680781414
 10
1.5438504577
 20
17.6763646141
 10
1.5361161362
 20
17.6842881214
 10
1.5282329303
 20
17.6918306975
 10
1.5202188308
 20
17.6989753213
 10
1.5120919004
 20
17.705705764
 10
1.5038704894
 20
17.7120067526
 10
1.4955733926
 20
17.7178640998
 10
1.4872193993
 20
17.7232645366
 10
1.4788272501
 20
17.7281957412
 10
1.4704158519
 20
17.7326464942
  0
LWPOLYLINE
  5
3FB
100
AcDbEntity
  8
RACCORDO
100
AcDbPolyline
 62
7
  6
CONTINUOUS
 90
24
 70
0
 10
-0.2266434146
 20
23.5990620999
 10
-0.227216599
 20
23.6335345061
 10
-0.228915712
 20
23.6672844271
 10
-0.2317407536
 20
23.7003118628
 10
-0.2357011881
 20
23.7326734202
 10
-0.2407875512
 20
23.7643124924
 10
-0.2469714496
 20
23.795059259
 10
-0.254254065
 20
23.8248947864
 10
-0.2626342157
 20
23.8538380082
 10
-0.272079963
 20
23.8817759041
 10
-0.2826038215
 20
23.9087220669
 10
-0.2941932765
 20
23.9346629039
 10
-0.3067788453
 20
23.9594446168
 10
-0.3203540311
 20
23.9830419181
 10
-0.3349253307
 20
24.0054800955
 10
-0.3504427507
 20
24.0266812127
 10
-0.3669260381
 20
24.0466583026
 10
-0.3843554459
 20
24.0653983325
 10
-0.4026217406
 20
24.082784268
 10
-0.4217103965
 20
24.0987931944
 10
-0.4416359392
 20
24.1134480264
 10
-0.4623327117
 20
24.1267004748
 10
-0.4838252262
 20
24.1385563361
 10
-3.7137152906
 20
25.7535252455
  0
LINE
  5
3FC
100
AcDbEntity
  8
RACCORDO
100
AcDbLine
 62
253
  6
CONTINUOUS
 10
0.4046074132
 20
-24.0375339206
 11
0.4046074132
 21
-23.5911719075
  0
LINE
  5
3FD
100
AcDbEntity
  8
RACCORDO
100
AcDbLine
 62
253
  6
CONTINUOUS
 10
0.4046074132
 20
15.3181574915
 11
0.4046074132
 21
16.0069781145
  0
LINE
  5
3FE
100
AcDbEntity
  8
RACCORDO
100
AcDbLine
 62
253
  6
CONTINUOUS
 10
0.7571293728
 20
-24.1630466444
 11
0.7571293728
 21
-23.4431975078
  0
LINE
  5
3FF
100
AcDbEntity
  8
RACCORDO
100
AcDbLine
 62
253
  6
CONTINUOUS
 10
0.7571293728
 20
15.328056671
 11
0.7571293728
 21
16.1365574949
  0
LINE
  5
400
100
AcDbEntity
  8
RACCORDO
100
AcDbLine
 62
7
  6
CONTINUOUS
 10
1.6471895555
 20
-23.0695863961
 11
1.6471895555
 21
-24.5744824561
  0
LINE
  5
401
100
AcDbEntity
  8
RACCORDO
100
AcDbLine
 62
7
  6
CONTINUOUS
 10
1.6471895555
 20
15.8253377989
 11
1.6471895555
 21
17.4277569554
  0
LINE
  5
402
100
AcDbEntity
  8
RACCORDO
100
AcDbLine
 62
253
  6
CONTINUOUS
 10
2.1754567273
 20
17.6911957755
 11
2.1754567273
 21
17.3436642587
  0
LINE
  5
403
100
AcDbEntity
  8
RACCORDO
100
AcDbLine
 62
253
  6
CONTINUOUS
 10
2.1754567273
 20
-23.9559398807
 11
2.1754567273
 21
-24.3034713974
  0
LWPOLYLINE
  5
404
100
AcDbEntity
  8
RACCORDO
100
AcDbPolyline
 62
253
  6
CONTINUOUS
 90
22
 70
0
 10
-0.3066131949
 20
-25.0140303977
 10
-0.3063943238
 20
-25.0031505343
 10
-0.305737768
 20
-24.9920725621
 10
-0.3046444304
 20
-24.9808236471
 10
-0.3031159805
 20
-24.9694293431
 10
-0.301155662
 20
-24.9579198279
 10
-0.2987690789
 20
-24.9463300087
 10
-0.2959627461
 20
-24.9346909493
 10
-0.292743229
 20
-24.9230293914
 10
-0.2891184599
 20
-24.9113741077
 10
-0.2850973768
 20
-24.8997539393
 10
-0.2806900036
 20
-24.8881979444
 10
-0.2759073758
 20
-24.876735089
 10
-0.2707614029
 20
-24.865393915
 10
-0.265264874
 20
-24.8542026058
 10
-0.2594315307
 20
-24.8431891262
 10
-0.2532759418
 20
-24.8323809461
 10
-0.2468133866
 20
-24.8218048583
 10
-0.2400598731
 20
-24.8114870481
 10
-0.2330321732
 20
-24.8014531427
 10
-0.2257477917
 20
-24.7917281382
 10
-0.2182248473
 20
-24.7823362239
  0
LWPOLYLINE
  5
405
100
AcDbEntity
  8
RACCORDO
100
AcDbPolyline
 62
7
  6
CONTINUOUS
 90
15
 70
0
 10
2.2476545843
 20
17.4315368909
 10
2.2473376554
 20
17.4189526506
 10
2.2463833088
 20
17.406357117
 10
2.2447883242
 20
17.3937888496
 10
2.242553019
 20
17.3812899344
 10
2.2396796631
 20
17.36889616
 10
2.2361707157
 20
17.3566365902
 10
2.2320325832
 20
17.3445486526
 10
2.2272751186
 20
17.332671274
 10
2.221907066
 20
17.3210342916
 10
2.2159407827
 20
17.3096716557
 10
2.2093930176
 20
17.298620241
 10
2.2022801318
 20
17.2879110391
 10
2.1946189403
 20
17.2775724715
 10
2.1908170447
 20
17.2728287819
  0
LWPOLYLINE
  5
406
100
AcDbEntity
  8
RACCORDO
100
AcDbPolyline
 62
253
  6
CONTINUOUS
 90
16
 70
0
 10
2.2476545843
 20
17.4315368909
 10
2.2473513632
 20
17.4253822466
 10
2.2463698575
 20
17.4188807374
 10
2.2447116797
 20
17.4124136614
 10
2.2423813411
 20
17.4059986133
 10
2.239385182
 20
17.3996530465
 10
2.2357313538
 20
17.393394225
 10
2.2314297974
 20
17.3872391772
 10
2.2264922159
 20
17.3812046488
 10
2.2209320428
 20
17.3753070578
 10
2.2147644055
 20
17.3695624496
 10
2.2080060842
 20
17.3639864533
 10
2.200675466
 20
17.3585942395
 10
2.1927924951
 20
17.3534004785
 10
2.1843786184
 20
17.3484193009
 10
2.1754567273
 20
17.3436642587
  0
LWPOLYLINE
  5
407
100
AcDbEntity
  8
RACCORDO
100
AcDbPolyline
 62
253
  6
CONTINUOUS
 90
16
 70
0
 10
2.2476545843
 20
17.7790680583
 10
2.2473490793
 20
17.7728906418
 10
2.2463649076
 20
17.7663879593
 10
2.2447038082
 20
17.7599197722
 10
2.2423702621
 20
17.7535036026
 10
2.2393706326
 20
17.7471569991
 10
2.2357131993
 20
17.7408974244
 10
2.2314080604
 20
17.7347420261
 10
2.2264669205
 20
17.7287074237
 10
2.2209031127
 20
17.7228098648
 10
2.2147303542
 20
17.7170641536
 10
2.2079666048
 20
17.7114872453
 10
2.2006350866
 20
17.7060976675
 10
2.192758515
 20
17.7009107845
 10
2.1843578099
 20
17.6959391325
 10
2.1754567273
 20
17.6911957755
  0
LWPOLYLINE
  5
408
100
AcDbEntity
  8
0
100
AcDbPolyline
 62
7
  6
CONTINUOUS
 90
3
 70
0
 10
2.7097136549
 20
11.8333751779
 10
2.7092710432
 20
11.8275684546
 10
2.7078497273
 20
11.8216832
  0
LINE
  5
409
100
AcDbEntity
  8
0
100
AcDbLine
 62
7
  6
CONTINUOUS
 10
2.8627330449
 20
11.7717642021
 11
2.8649090771
 21
11.7852846887
  0
LWPOLYLINE
  5
40A
100
AcDbEntity
  8
IMPORT_IGES
100
AcDbPolyline
 62
7
  6
CONTINUOUS
 90
10
 70
0
 10
4.4649742343
 20
6.8228035922
 10
4.4568347849
 20
6.8071680638
 10
4.4496047115
 20
6.7913529337
 10
4.4432840142
 20
6.775358202
 10
4.4378415716
 20
6.7590679896
 10
4.4333085051
 20
6.7425981755
 10
4.4297781783
 20
6.7262963973
 10
4.4272817126
 20
6.7102785341
 10
4.4257879867
 20
6.6944287067
 10
4.4252970005
 20
6.6787469152
  0
LWPOLYLINE
  5
40B
100
AcDbEntity
  8
IMPORT_IGES
100
AcDbPolyline
 62
7
  6
CONTINUOUS
 90
10
 70
0
 10
4.1028616365
 20
7.0330122629
 10
4.0821850807
 20
6.9946614771
 10
4.0635802648
 20
6.9552196233
 10
4.0471898493
 20
6.9149863109
 10
4.0331415213
 20
6.8742672929
 10
4.0215414425
 20
6.8333715111
 10
4.012474021
 20
6.7926087382
 10
4.0060084569
 20
6.7522881897
 10
4.0021976069
 20
6.7127161736
 10
4.0010724045
 20
6.6741931267
  0
LINE
  5
40C
100
AcDbEntity
  8
IMPORT_IGES
100
AcDbLine
 62
253
  6
CONTINUOUS
 10
4.9068000697
 20
8.4513748126
 11
4.1028616363
 21
7.0330122631
  0
LINE
  5
40D
100
AcDbEntity
  8
IMPORT_IGES
100
AcDbLine
 62
253
  6
CONTINUOUS
 10
4.4649742343
 20
6.8228035922
 11
5.268889863
 21
8.2411278568
  0
LWPOLYLINE
  5
40E
100
AcDbEntity
  8
IMPORT_IGES
100
AcDbPolyline
 62
253
  6
CONTINUOUS
 90
4
 70
0
 10
11.5617888856
 20
15.4025967954
 10
11.5655175529
 20
15.40807248
 10
11.5770872753
 20
15.41960806
 10
11.5916209717
 20
15.4301628646
  0
LWPOLYLINE
  5
40F
100
AcDbEntity
  8
IMPORT_IGES
100
AcDbPolyline
 62
253
  6
CONTINUOUS
 90
3
 70
0
 10
14.5213247087
 20
13.9395421153
 10
14.5105210511
 20
13.927550382
 10
14.4992024178
 20
13.913827857
  0
LWPOLYLINE
  5
410
100
AcDbEntity
  8
IMPORT_IGES
100
AcDbPolyline
 62
7
  6
CONTINUOUS
 90
9
 70
0
 10
-8.7472801279
 20
-7.104603429
 10
-8.7679008463
 20
-7.1175364123
 10
-8.7860333729
 20
-7.133982892
 10
-8.8015046773
 20
-7.1538067354
 10
-8.8141494317
 20
-7.1769325772
 10
-8.8238887799
 20
-7.2031416406
 10
-8.8306732517
 20
-7.2320831273
 10
-8.8343987484
 20
-7.2636213139
 10
-8.8351479865
 20
-7.2865291845
  0
LINE
  5
411
100
AcDbEntity
  8
IMPORT_IGES
100
AcDbLine
 62
7
  6
CONTINUOUS
 10
4.1574186288
 20
1.6006971245
 11
3.6270885429
 21
1.2787065277
  0
LINE
  5
412
100
AcDbEntity
  8
RACCORDO
100
AcDbLine
 62
7
  6
CONTINUOUS
 10
-14.2244798562
 20
-8.6798978727
 11
-14.2526974592
 21
-8.696906558
  0
LINE
  5
413
100
AcDbEntity
  8
RACCORDO
100
AcDbLine
 62
7
  6
CONTINUOUS
 10
-14.1816679867
 20
-8.6544543607
 11
-14.2244798562
 21
-8.6798978727
  0
LINE
  5
414
100
AcDbEntity
  8
RACCORDO
100
AcDbLine
 62
7
  6
CONTINUOUS
 10
-14.1529252885
 20
-8.6376261125
 11
-14.1816679867
 21
-8.6544543607
  0
LINE
  5
415
100
AcDbEntity
  8
RACCORDO
100
AcDbLine
 62
7
  6
CONTINUOUS
 10
-14.1241400581
 20
-8.6209912593
 11
-14.1529252885
 21
-8.6376261125
  0
LINE
  5
416
100
AcDbEntity
  8
RACCORDO
100
AcDbLine
 62
7
  6
CONTINUOUS
 10
-14.0954634467
 20
-8.604631641
 11
-14.1241400581
 21
-8.6209912593
  0
LWPOLYLINE
  5
417
100
AcDbEntity
  8
IMPORT_IGES
100
AcDbPolyline
 62
253
  6
CONTINUOUS
 90
16
 70
0
 10
18.0520668156
 20
8.601149976
 10
18.0892933329
 20
8.6221701922
 10
18.125721884
 20
8.6474781708
 10
18.1609751217
 20
8.6766598619
 10
18.1945032941
 20
8.7090630427
 10
18.2262230175
 20
8.7444059211
 10
18.2564174322
 20
8.7829807704
 10
18.2848870049
 20
8.8247012873
 10
18.3110999517
 20
8.8689711898
 10
18.3347495101
 20
8.9154351338
 10
18.3555209503
 20
8.9636883316
 10
18.3730653959
 20
9.0131683007
 10
18.3870650877
 20
9.063226566
 10
18.3972772499
 20
9.1132547321
 10
18.4035142736
 20
9.1626942537
 10
18.4056202697
 20
9.2109393414
  0
LWPOLYLINE
  5
418
100
AcDbEntity
  8
RACCORDO
100
AcDbPolyline
 62
7
  6
CONTINUOUS
 90
3
 70
0
 10
-14.0529755639
 20
-8.5808891629
 10
-14.0670303138
 20
-8.5886812848
 10
-14.0954634467
 20
-8.604631641
  0
LWPOLYLINE
  5
419
100
AcDbEntity
  8
RACCORDO
100
AcDbPolyline
 62
7
  6
CONTINUOUS
 90
5
 70
0
 10
-13.9853971925
 20
-8.5445971327
 10
-13.9984736237
 20
-8.5514228268
 10
-14.0117799378
 20
-8.5584951504
 10
-14.0253015761
 20
-8.5657853924
 10
-14.0529755639
 20
-8.5808891629
  0
LWPOLYLINE
  5
41A
100
AcDbEntity
  8
RACCORDO
100
AcDbPolyline
 62
7
  6
CONTINUOUS
 90
5
 70
0
 10
-13.9984756292
 20
-7.3820110068
 10
-14.0115536041
 20
-7.3887954014
 10
-14.0248626649
 20
-7.3958276141
 10
-14.0383882051
 20
-7.4030789574
 10
-14.0660732732
 20
-7.418108634
  0
LINE
  5
41B
100
AcDbEntity
  8
RACCORDO
100
AcDbLine
 62
7
  6
CONTINUOUS
 10
-13.2374081884
 20
-6.9999624128
 11
-13.9939358231
 21
-7.3796971851
  0
LINE
  5
41C
100
AcDbEntity
  8
RACCORDO
100
AcDbLine
 62
7
  6
CONTINUOUS
 10
-13.2374081884
 20
-8.1690967079
 11
-13.9798938828
 21
-8.5417832077
  0
LINE
  5
41D
100
AcDbEntity
  8
IMPORT_IGES
100
AcDbLine
 62
7
  6
CONTINUOUS
 10
-11.4710898651
 20
-6.0901965452
 11
-7.8247878022
 21
-4.2670455138
  0
LINE
  5
41E
100
AcDbEntity
  8
IMPORT_IGES
100
AcDbLine
 62
7
  6
CONTINUOUS
 10
-11.487318905
 20
-6.1576846008
 11
-12.4065577205
 21
-6.6173040086
  0
LINE
  5
41F
100
AcDbEntity
  8
IMPORT_IGES
100
AcDbLine
 62
253
  6
CONTINUOUS
 10
17.9971630921
 20
8.5736981215
 11
18.0520668086
 21
8.6011499795
  0
LINE
  5
420
100
AcDbEntity
  8
IMPORT_IGES
100
AcDbLine
 62
7
  6
CONTINUOUS
 10
4.1574186288
 20
1.6006971245
 11
4.5463273584
 21
1.7951514893
  0
LINE
  5
421
100
AcDbEntity
  8
IMPORT_IGES
100
AcDbLine
 62
253
  6
CONTINUOUS
 10
18.2995528995
 20
8.477406934
 11
18.0907136489
 21
8.3729873647
  0
LINE
  5
422
100
AcDbEntity
  8
IMPORT_IGES
100
AcDbLine
 62
7
  6
CONTINUOUS
 10
-11.2751868706
 20
-6.3386552095
 11
-7.8255950732
 21
-4.6138593108
  0
LINE
  5
423
100
AcDbEntity
  8
IMPORT_IGES
100
AcDbLine
 62
253
  6
CONTINUOUS
 10
19.6077017977
 20
9.053626123
 11
19.0773717118
 21
8.7884610801
  0
LINE
  5
424
100
AcDbEntity
  8
IMPORT_IGES
100
AcDbLine
 62
253
  6
CONTINUOUS
 10
18.4475037473
 20
7.607501694
 11
18.7238183212
 21
7.7456589809
  0
LWPOLYLINE
  5
425
100
AcDbEntity
  8
IMPORT_IGES
100
AcDbPolyline
 62
7
  6
CONTINUOUS
 90
7
 70
0
 10
-11.487318905
 20
-6.1576846008
 10
-11.4585370239
 20
-6.1460048617
 10
-11.4312681122
 20
-6.1390704517
 10
-11.4055121699
 20
-6.1368813709
 10
-11.3809414305
 20
-6.1395842536
 10
-11.3578836605
 20
-6.1470324654
 10
-11.3530146529
 20
-6.1493123549
  0
LWPOLYLINE
  5
426
100
AcDbEntity
  8
IMPORT_IGES
100
AcDbPolyline
 62
7
  6
CONTINUOUS
 90
6
 70
0
 10
17.0422804309
 20
-0.4016204418
 10
17.0852879208
 20
-0.4073559359
 10
17.1483139174
 20
-0.4095184763
 10
17.2019549959
 20
-0.4046148031
 10
17.2471148044
 20
-0.3923374357
 10
17.26929086
 20
-0.3823571407
  0
LWPOLYLINE
  5
427
100
AcDbEntity
  8
RACCORDO
100
AcDbPolyline
 62
7
  6
CONTINUOUS
 90
6
 70
0
 10
-5.8634754638
 20
7.2118660897
 10
-5.8750926859
 20
7.2226276293
 10
-5.8862134189
 20
7.2338123012
 10
-5.8968269461
 20
7.2453762487
 10
-5.9069472522
 20
7.2572446763
 10
-5.91658395
 20
7.2693567088
  0
LWPOLYLINE
  5
428
100
AcDbEntity
  8
RACCORDO
100
AcDbPolyline
 62
253
  6
CONTINUOUS
 90
12
 70
0
 10
-4.6257736393
 20
13.1504992582
 10
-4.6287942353
 20
13.1583035003
 10
-4.6396841058
 20
13.1819162912
 10
-4.6520813168
 20
13.2049499931
 10
-4.6658500464
 20
13.2271522407
 10
-4.6808394414
 20
13.2482797718
 10
-4.6968852775
 20
13.2681011053
 10
-4.7138117543
 20
13.2863990692
 10
-4.731433416
 20
13.3029731757
 10
-4.7495571928
 20
13.3176418295
 10
-4.767984518
 20
13.3302443157
 10
-4.7865134961
 20
13.3406425542
  0
LWPOLYLINE
  5
429
100
AcDbEntity
  8
IMPORT_IGES
100
AcDbPolyline
 62
7
  6
CONTINUOUS
 90
9
 70
0
 10
3.5210225257
 20
-7.8330088948
 10
3.5224675122
 20
-7.861714024
 10
3.5263740589
 20
-7.8881455297
 10
3.5327421658
 20
-7.9123034119
 10
3.5417112194
 20
-7.9344297573
 10
3.5531418332
 20
-7.9542824792
 10
3.5666158478
 20
-7.9711353171
 10
3.5819938768
 20
-7.9847461843
 10
3.5986679232
 20
-7.9949846479
  0
LWPOLYLINE
  5
42A
100
AcDbEntity
  8
0
100
AcDbPolyline
 62
7
  6
CONTINUOUS
 90
4
 70
0
 10
2.8651788888
 20
11.7925419491
 10
2.8648228362
 20
11.7997783517
 10
2.8622352606
 20
11.8138143599
 10
2.8571463505
 20
11.8273927134
  0
LWPOLYLINE
  5
42B
100
AcDbEntity
  8
IMPORT_IGES
100
AcDbPolyline
 62
253
  6
CONTINUOUS
 90
9
 70
0
 10
3.9955991966
 20
-8.0702972302
 10
3.9969123014
 20
-8.0985036027
 10
4.0008353596
 20
-8.1250476735
 10
4.0073198034
 20
-8.1496008251
 10
4.0162853549
 20
-8.1718590877
 10
4.02762102
 20
-8.1915469024
 10
4.0411864624
 20
-8.2084205327
 10
4.0568137408
 20
-8.2222710818
 10
4.0735671523
 20
-8.2325593703
  0
LWPOLYLINE
  5
42C
100
AcDbEntity
  8
ASSI
100
AcDbPolyline
 62
7
  6
CONTINUOUS
 90
6
 70
0
 10
2.6762002878
 20
21.9077241827
 10
2.6761658974
 20
21.9087278682
 10
2.6754341773
 20
21.9121945832
 10
2.6737909046
 20
21.9150509198
 10
2.6712799034
 20
21.9173461884
 10
2.66938446
 20
21.9184585087
  0
LWPOLYLINE
  5
42D
100
AcDbEntity
  8
RACCORDO
100
AcDbPolyline
 62
253
  6
CONTINUOUS
 90
31
 70
0
 10
2.1754567273
 20
17.6911957755
 10
2.1752665744
 20
17.7026738951
 10
2.1745896203
 20
17.7143613979
 10
2.1734277205
 20
17.7262262503
 10
2.1717840596
 20
17.7382359333
 10
2.1696631423
 20
17.7503575304
 10
2.1670707819
 20
17.7625578186
 10
2.1640140835
 20
17.7748033592
 10
2.1605014249
 20
17.7870605895
 10
2.1565424337
 20
17.7992959148
 10
2.1521479607
 20
17.8114758002
 10
2.1473300503
 20
17.8235668631
 10
2.1421019075
 20
17.8355359641
 10
2.1364778618
 20
17.8473502981
 10
2.1304733274
 20
17.8589774842
 10
2.1241047618
 20
17.8703856545
 10
2.11738962
 20
17.8815435414
 10
2.110346307
 20
17.8924205632
 10
2.102994127
 20
17.902986908
 10
2.0953532311
 20
17.9132136154
 10
2.0874445616
 20
17.923072656
 10
2.0792897946
 20
17.9325370079
 10
2.0709112808
 20
17.9415807312
 10
2.0623319841
 20
17.9501790387
 10
2.0535754188
 20
17.9583083641
 10
2.044665585
 20
17.9659464264
 10
2.0356269028
 20
17.973072291
 10
2.0264841457
 20
17.9796664275
 10
2.0172623721
 20
17.9857107624
 10
2.0079868573
 20
17.9911887293
 10
1.9986830236
 20
17.9960853143
  0
LINE
  5
42E
100
AcDbEntity
  8
IMPORT_IGES
100
AcDbLine
 62
253
  6
CONTINUOUS
 10
4.0010725336
 20
6.6741930633
 11
4.0298914356
 21
4.6374152752
  0
LINE
  5
42F
100
AcDbEntity
  8
RACCORDO
100
AcDbLine
 62
7
  6
CONTINUOUS
 10
2.2476545843
 20
17.7790684076
 11
2.2476545843
 21
17.4315368909
  0
LINE
  5
430
100
AcDbEntity
  8
RACCORDO
100
AcDbLine
 62
7
  6
CONTINUOUS
 10
2.2476545843
 20
-23.8680672485
 11
2.2476545843
 21
-24.2155987652
  0
LINE
  5
431
100
AcDbEntity
  8
ASSI
100
AcDbLine
 62
253
  6
CONTINUOUS
 10
2.5526062434
 20
20.6716464176
 11
2.5526062434
 21
21.8986963848
  0
LINE
  5
432
100
AcDbEntity
  8
RACCORDO
100
AcDbLine
 62
7
  6
CONTINUOUS
 10
2.6762003072
 20
20.8198100384
 11
2.6762003072
 21
21.9074975609
  0
LINE
  5
433
100
AcDbEntity
  8
RACCORDO
100
AcDbLine
 62
7
  6
CONTINUOUS
 10
2.7078497273
 20
15.5617301603
 11
2.7078497273
 21
-22.3549022703
  0
LINE
  5
434
100
AcDbEntity
  8
0
100
AcDbLine
 62
253
  6
CONTINUOUS
 10
2.7444381354
 20
11.5751841543
 11
2.7444381354
 21
11.6617866947
  0
LINE
  5
435
100
AcDbEntity
  8
0
100
AcDbLine
 62
253
  6
CONTINUOUS
 10
2.8649090771
 20
11.6986821483
 11
2.8652331311
 21
11.7059394819
  0
LINE
  5
436
100
AcDbEntity
  8
0
100
AcDbLine
 62
7
  6
CONTINUOUS
 10
2.8652331311
 20
11.7059394819
 11
2.8652331311
 21
11.7925420223
  0
LINE
  5
437
100
AcDbEntity
  8
0
100
AcDbLine
 62
253
  6
CONTINUOUS
 10
2.8863627513
 20
11.9239563848
 11
2.8863627513
 21
12.0105589252
  0
LINE
  5
438
100
AcDbEntity
  8
IMPORT_IGES
100
AcDbLine
 62
7
  6
CONTINUOUS
 10
3.0155818914
 20
15.7487018537
 11
3.0155818914
 21
15.5754967729
  0
LINE
  5
439
100
AcDbEntity
  8
0
100
AcDbLine
 62
7
  6
CONTINUOUS
 10
3.2608022119
 20
11.856315711
 11
3.2608022119
 21
11.9429182514
  0
LINE
  5
43A
100
AcDbEntity
  8
0
100
AcDbLine
 62
7
  6
CONTINUOUS
 10
3.28797927
 20
11.8699042401
 11
3.28797927
 21
11.9565067805
  0
LINE
  5
43B
100
AcDbEntity
  8
IMPORT_IGES
100
AcDbLine
 62
7
  6
CONTINUOUS
 10
3.5210225257
 20
6.9142176501
 11
3.5210225257
 21
4.8931585354
  0
LINE
  5
43C
100
AcDbEntity
  8
IMPORT_IGES
100
AcDbLine
 62
7
  6
CONTINUOUS
 10
3.5210225257
 20
-7.833008895
 11
3.5210225257
 21
-5.7847151527
  0
LINE
  5
43D
100
AcDbEntity
  8
IMPORT_IGES
100
AcDbLine
 62
7
  6
CONTINUOUS
 10
3.6270885429
 20
-2.7916128701
 11
3.6270885429
 21
1.2787065277
  0
LINE
  5
43E
100
AcDbEntity
  8
IMPORT_IGES
100
AcDbLine
 62
7
  6
CONTINUOUS
 10
3.7685098991
 20
1.3645706868
 11
3.7685098991
 21
-1.9422207744
  0
LINE
  5
43F
100
AcDbEntity
  8
IMPORT_IGES
100
AcDbLine
 62
7
  6
CONTINUOUS
 10
3.9487500034
 20
15.2821177977
 11
3.9487500034
 21
15.1089127169
  0
LINE
  5
440
100
AcDbEntity
  8
IMPORT_IGES
100
AcDbLine
 62
7
  6
CONTINUOUS
 10
3.9762670638
 20
16.4651233707
 11
3.9762670638
 21
16.5542900568
  0
LINE
  5
441
100
AcDbEntity
  8
IMPORT_IGES
100
AcDbLine
 62
7
  6
CONTINUOUS
 10
4.1574186288
 20
-3.4582733811
 11
4.1574186288
 21
-5.3843316597
  0
LINE
  5
442
100
AcDbEntity
  8
IMPORT_IGES
100
AcDbLine
 62
7
  6
CONTINUOUS
 10
4.1574186288
 20
2.4756971245
 11
4.1574186288
 21
4.4017554031
  0
LINE
  5
443
100
AcDbEntity
  8
IMPORT_IGES
100
AcDbLine
 62
7
  6
CONTINUOUS
 10
4.386806897
 20
15.0630893509
 11
4.386806897
 21
14.8898842701
  0
LINE
  5
444
100
AcDbEntity
  8
IMPORT_IGES
100
AcDbLine
 62
253
  6
CONTINUOUS
 10
4.032075001
 20
-5.5291889151
 11
3.9955991966
 21
-8.0702972307
  0
LWPOLYLINE
  5
445
100
AcDbEntity
  8
RACCORDO
100
AcDbPolyline
 62
7
  6
CONTINUOUS
 90
22
 70
0
 10
1.9899733044
 20
-22.7090660376
 10
1.9893538505
 20
-22.7269119088
 10
1.9881446238
 20
-22.744452884
 10
1.9863437011
 20
-22.7616575461
 10
1.9839498052
 20
-22.7784926015
 10
1.9809636329
 20
-22.7949296193
 10
1.9773869584
 20
-22.8109444093
 10
1.9732227485
 20
-22.8265011221
 10
1.9684724052
 20
-22.841575408
 10
1.9631335515
 20
-22.8561580288
 10
1.957207475
 20
-22.8702193359
 10
1.950698272
 20
-22.8837261966
 10
1.9436051127
 20
-22.8966603919
 10
1.9359253215
 20
-22.908999863
 10
1.9276700666
 20
-22.9207016134
 10
1.9188617949
 20
-22.9317178317
 10
1.9095070894
 20
-22.9420253177
 10
1.8996209906
 20
-22.9515932337
 10
1.8892469196
 20
-22.9603730209
 10
1.8784008774
 20
-22.9683484856
 10
1.8671035879
 20
-22.9755017816
 10
1.8553283636
 20
-22.9818412498
  0
LINE
  5
446
100
AcDbEntity
  8
0
100
AcDbLine
 62
7
  6
CONTINUOUS
 10
2.8649090771
 20
11.7852846887
 11
2.8651788888
 21
11.7925419491
  0
LINE
  5
447
100
AcDbEntity
  8
0
100
AcDbLine
 62
7
  6
CONTINUOUS
 10
2.8649090771
 20
11.6986821483
 11
2.8651788888
 21
11.7059394088
  0
LWPOLYLINE
  5
448
100
AcDbEntity
  8
RACCORDO
100
AcDbPolyline
 62
253
  6
CONTINUOUS
 90
16
 70
0
 10
2.2476545843
 20
-24.215598762
 10
2.2473533138
 20
-24.2217335941
 10
2.2463735952
 20
-24.2282365423
 10
2.2447169062
 20
-24.2347051065
 10
2.2423877546
 20
-24.2411216732
 10
2.2393924744
 20
-24.2474687844
 10
2.2357392155
 20
-24.2537291611
 10
2.2314379174
 20
-24.2598857643
 10
2.2265002849
 20
-24.2659218348
 10
2.2209397596
 20
-24.2718209372
 10
2.2147714705
 20
-24.2775670186
 10
2.2080122092
 20
-24.2831444343
 10
2.2006803953
 20
-24.2885379866
 10
2.1927959972
 20
-24.293732991
 10
2.1843804714
 20
-24.2987153145
 10
2.1754567273
 20
-24.3034713974
  0
LWPOLYLINE
  5
449
100
AcDbEntity
  8
RACCORDO
100
AcDbPolyline
 62
253
  6
CONTINUOUS
 90
16
 70
0
 10
2.2476545843
 20
-23.8680672485
 10
2.2473513632
 20
-23.8742218927
 10
2.2463698575
 20
-23.880723402
 10
2.2447116797
 20
-23.887190478
 10
2.2423813411
 20
-23.8936055261
 10
2.239385182
 20
-23.8999510929
 10
2.2357313538
 20
-23.9062099143
 10
2.2314297974
 20
-23.9123649622
 10
2.2264922159
 20
-23.9183994906
 10
2.2209320428
 20
-23.9242970816
 10
2.2147644055
 20
-23.9300416898
 10
2.2080060842
 20
-23.9356176861
 10
2.200675466
 20
-23.9410098999
 10
2.1927924951
 20
-23.9462036609
 10
2.1843786184
 20
-23.9511848385
 10
2.1754567273
 20
-23.9559398807
  0
LINE
  5
44A
100
AcDbEntity
  8
IMPORT_IGES
100
AcDbLine
 62
7
  6
CONTINUOUS
 10
7.5456604022
 20
10.3620473261
 11
7.5738854649
 21
10.4360342573
  0
LWPOLYLINE
  5
44B
100
AcDbEntity
  8
IMPORT_IGES
100
AcDbPolyline
 62
253
  6
CONTINUOUS
 90
10
 70
0
 10
7.1683421153
 20
11.7496913313
 10
7.1734152752
 20
11.7621957481
 10
7.1794921096
 20
11.7744534653
 10
7.1864689972
 20
11.7862012423
 10
7.1941273457
 20
11.7970946764
 10
7.2023565421
 20
11.8070367088
 10
7.2112247087
 20
11.8161069287
 10
7.2206513302
 20
11.8241649873
 10
7.2303599089
 20
11.8309505535
 10
7.2401450132
 20
11.8363480024
  0
LWPOLYLINE
  5
44C
100
AcDbEntity
  8
IMPORT_IGES
100
AcDbPolyline
 62
253
  6
CONTINUOUS
 90
12
 70
0
 10
4.4808142375
 20
2.7555745626
 10
4.4649573425
 20
2.7196242425
 10
4.4456895626
 20
2.6861260005
 10
4.4233607527
 20
2.655654451
 10
4.3983861251
 20
2.6287413904
 10
4.3711978686
 20
2.6058215148
 10
4.342225937
 20
2.5872480925
 10
4.3119707612
 20
2.5733469361
 10
4.2809562158
 20
2.564363532
 10
4.2496692369
 20
2.560456059
 10
4.2186384833
 20
2.5617241922
 10
4.1994308266
 20
2.5652001641
  0
LINE
  5
44D
100
AcDbEntity
  8
IMPORT_IGES
100
AcDbLine
 62
253
  6
CONTINUOUS
 10
14.4992024178
 20
13.913827857
 11
14.4874236815
 21
13.8985260678
  0
LWPOLYLINE
  5
44E
100
AcDbEntity
  8
IMPORT_IGES
100
AcDbPolyline
 62
7
  6
CONTINUOUS
 90
12
 70
0
 10
5.6954852203
 20
2.4669747128
 10
5.6642277344
 20
2.4331344462
 10
5.6302105122
 20
2.4018980084
 10
5.5938652572
 20
2.3738673575
 10
5.5554417802
 20
2.3495727189
 10
5.5156811568
 20
2.3294567297
 10
5.4758354146
 20
2.313802642
 10
5.4365300261
 20
2.302748723
 10
5.3982758445
 20
2.2964431102
 10
5.3621774701
 20
2.2948220065
 10
5.3289146479
 20
2.297597289
 10
5.3106521658
 20
2.3011807858
  0
LWPOLYLINE
  5
44F
100
AcDbEntity
  8
IMPORT_IGES
100
AcDbPolyline
 62
253
  6
CONTINUOUS
 90
7
 70
0
 10
18.7114585453
 20
5.8942242981
 10
18.7287184046
 20
5.9042487948
 10
18.7432842794
 20
5.9156915721
 10
18.7549069436
 20
5.9283568407
 10
18.76338753
 20
5.9420278944
 10
18.7685809335
 20
5.9564708177
 10
18.7699661576
 20
5.9643387527
  0
LWPOLYLINE
  5
450
100
AcDbEntity
  8
RACCORDO
100
AcDbPolyline
 62
7
  6
CONTINUOUS
 90
27
 70
0
 10
-10.4497731736
 20
-9.1563622346
 10
-10.4621133449
 20
-9.163515531
 10
-10.4738651011
 20
-9.1713263961
 10
-10.4850138358
 20
-9.179766142
 10
-10.4955286889
 20
-9.1888157679
 10
-10.5054147975
 20
-9.1984378719
 10
-10.5147133056
 20
-9.208576492
 10
-10.5234124892
 20
-9.2192018933
 10
-10.5315051525
 20
-9.2302894825
 10
-10.5390407167
 20
-9.2417922081
 10
-10.5460123505
 20
-9.2536825765
 10
-10.552413719
 20
-9.2659385105
 10
-10.5582958639
 20
-9.278523589
 10
-10.5636554617
 20
-9.2914136794
 10
-10.5684871184
 20
-9.3045890971
 10
-10.5728390249
 20
-9.318023068
 10
-10.5767100425
 20
-9.3316950623
 10
-10.58009582
 20
-9.3455875342
 10
-10.5830395036
 20
-9.3596810564
 10
-10.5855411401
 20
-9.3739581858
 10
-10.5875974606
 20
-9.3884034587
 10
-10.589246097
 20
-9.4030029131
 10
-10.5904877131
 20
-9.4177419328
 10
-10.5913199607
 20
-9.4326066726
 10
-10.5917752485
 20
-9.4475863579
 10
-10.5918544956
 20
-9.4626685222
 10
-10.5895492913
 20
-9.6842108267
  0
LWPOLYLINE
  5
451
100
AcDbEntity
  8
RACCORDO
100
AcDbPolyline
 62
7
  6
CONTINUOUS
 90
26
 70
0
 10
-9.6485210088
 20
-8.1834863465
 10
-9.660862844
 20
-8.1905906514
 10
-9.6726176543
 20
-8.1983539484
 10
-9.6837707768
 20
-8.2067475776
 10
-9.6942912932
 20
-8.2157525597
 10
-9.7041842846
 20
-8.2253315124
 10
-9.7134908405
 20
-8.2354284902
 10
-9.7221991761
 20
-8.2460137752
 10
-9.7303020389
 20
-8.25706277
 10
-9.7378488033
 20
-8.2685284036
 10
-9.7448325799
 20
-8.2803831859
 10
-9.7512469798
 20
-8.2926050295
 10
-9.7571430084
 20
-8.3051574727
 10
-9.7625172898
 20
-8.3180163772
 10
-9.7673643798
 20
-8.3311620454
 10
-9.7717324438
 20
-8.3445676547
 10
-9.7756202972
 20
-8.3582126639
 10
-9.779023543
 20
-8.372079513
 10
-9.7819853106
 20
-8.3861487272
 10
-9.7845056065
 20
-8.4004028493
 10
-9.7865811208
 20
-8.4148264008
 10
-9.7882494751
 20
-8.4294053765
 10
-9.7895112983
 20
-8.4441251451
 10
-9.7903642054
 20
-8.4589718469
 10
-9.7908405986
 20
-8.4739346704
 10
-9.7909337342
 20
-8.4900887751
  0
LWPOLYLINE
  5
452
100
AcDbEntity
  8
IMPORT_IGES
100
AcDbPolyline
 62
7
  6
CONTINUOUS
 90
7
 70
0
 10
18.5631081214
 20
6.5071518061
 10
18.5890274889
 20
6.5219283257
 10
18.6108513289
 20
6.5382735601
 10
18.6282091371
 20
6.5559035331
 10
18.6408084439
 20
6.5745076219
 10
18.6484360761
 20
6.593765566
 10
18.650958782
 20
6.612134427
  0
LWPOLYLINE
  5
453
100
AcDbEntity
  8
IMPORT_IGES
100
AcDbPolyline
 62
253
  6
CONTINUOUS
 90
6
 70
0
 10
19.6077017977
 20
6.9751651539
 10
19.6333636357
 20
6.9897788963
 10
19.6549453565
 20
7.005858262
 10
19.6721401982
 20
7.023117501
 10
19.6846657649
 20
7.041157795
 10
19.6924820914
 20
7.0597656788
  0
LWPOLYLINE
  5
454
100
AcDbEntity
  8
IMPORT_IGES
100
AcDbPolyline
 62
7
  6
CONTINUOUS
 90
11
 70
0
 10
19.347808612
 20
6.4342913534
 10
19.3962126338
 20
6.4615591145
 10
19.4424943512
 20
6.4940584149
 10
19.4861551409
 20
6.5317340809
 10
19.526639743
 20
6.5743820867
 10
19.5635890075
 20
6.6218980368
 10
19.5968017695
 20
6.6744216902
 10
19.6260057448
 20
6.7321655476
 10
19.6505893115
 20
6.7946692354
 10
19.670021716
 20
6.8611118779
 10
19.6840858594
 20
6.9310647038
  0
LINE
  5
455
100
AcDbEntity
  8
RACCORDO
100
AcDbLine
 62
7
  6
CONTINUOUS
 10
-8.8887014841
 20
-7.7886751189
 11
-9.6451820105
 21
-8.1817317935
  0
LINE
  5
456
100
AcDbEntity
  8
RACCORDO
100
AcDbLine
 62
7
  6
CONTINUOUS
 10
-9.7883801573
 20
-8.8126766054
 11
-10.4453119185
 21
-9.1540091374
  0
LINE
  5
457
100
AcDbEntity
  8
IMPORT_IGES
100
AcDbLine
 62
253
  6
CONTINUOUS
 10
19.3481458366
 20
6.4344601778
 11
19.347808612
 21
6.4342913534
  0
LINE
  5
458
100
AcDbEntity
  8
IMPORT_IGES
100
AcDbLine
 62
7
  6
CONTINUOUS
 10
-7.8247800673
 20
-6.6433533987
 11
-8.7472801279
 21
-7.104603429
  0
LINE
  5
459
100
AcDbEntity
  8
IMPORT_IGES
100
AcDbLine
 62
7
  6
CONTINUOUS
 10
5.7291199288
 20
0.0901577098
 11
18.5631081214
 21
6.5071518061
  0
LINE
  5
45A
100
AcDbEntity
  8
IMPORT_IGES
100
AcDbLine
 62
253
  6
CONTINUOUS
 10
18.6492911785
 20
6.4959598443
 11
19.6077017977
 21
6.9751651539
  0
LINE
  5
45B
100
AcDbEntity
  8
IMPORT_IGES
100
AcDbLine
 62
7
  6
CONTINUOUS
 10
15.8125860544
 20
5.0451648063
 11
5.7292433547
 21
0.0034934564
  0
LINE
  5
45C
100
AcDbEntity
  8
IMPORT_IGES
100
AcDbLine
 62
7
  6
CONTINUOUS
 10
19.347808612
 20
6.4342913534
 11
18.6433499694
 21
6.0820620322
  0
LINE
  5
45D
100
AcDbEntity
  8
IMPORT_IGES
100
AcDbLine
 62
7
  6
CONTINUOUS
 10
-8.8351480935
 20
-7.6953816589
 11
-9.5427752567
 21
-8.0491952405
  0
LINE
  5
45E
100
AcDbEntity
  8
IMPORT_IGES
100
AcDbLine
 62
253
  6
CONTINUOUS
 10
18.6401418419
 20
5.8585659463
 11
18.7114585453
 21
5.894224298
  0
LINE
  5
45F
100
AcDbEntity
  8
IMPORT_IGES
100
AcDbLine
 62
7
  6
CONTINUOUS
 10
4.5463273584
 20
-2.3888190162
 11
4.1574186288
 21
-2.583273381
  0
LINE
  5
460
100
AcDbEntity
  8
IMPORT_IGES
100
AcDbLine
 62
7
  6
CONTINUOUS
 10
3.7685098991
 20
-1.9422207744
 11
3.6270885429
 21
-2.0099081466
  0
LINE
  5
461
100
AcDbEntity
  8
IMPORT_IGES
100
AcDbLine
 62
7
  6
CONTINUOUS
 10
3.6270885429
 20
-2.7916128701
 11
4.1574186288
 21
-2.583273381
  0
LWPOLYLINE
  5
462
100
AcDbEntity
  8
IMPORT_IGES
100
AcDbPolyline
 62
253
  6
CONTINUOUS
 90
10
 70
0
 10
4.1574186288
 20
2.7196912982
 10
4.1914171211
 20
2.7144327365
 10
4.2298214363
 20
2.7111283443
 10
4.2688776104
 20
2.7103098145
 10
4.3079202326
 20
2.7119890482
 10
4.3462856461
 20
2.7161354574
 10
4.3833763543
 20
2.7226880967
 10
4.4185710219
 20
2.73154881
 10
4.4512405663
 20
2.7425714937
 10
4.4808144374
 20
2.7555746626
  0
LINE
  5
463
100
AcDbEntity
  8
IMPORT_IGES
100
AcDbLine
 62
7
  6
CONTINUOUS
 10
4.1574186288
 20
2.4756971245
 11
5.3948554958
 21
2.219415558
  0
LINE
  5
464
100
AcDbEntity
  8
IMPORT_IGES
100
AcDbLine
 62
253
  6
CONTINUOUS
 10
5.6954852122
 20
2.4669746914
 11
4.4808143006
 21
2.7555745942
  0
LINE
  5
465
100
AcDbEntity
  8
IMPORT_IGES
100
AcDbLine
 62
7
  6
CONTINUOUS
 10
5.3131670659
 20
2.300581879
 11
4.198690723
 21
2.5653773675
  0
LWPOLYLINE
  5
466
100
AcDbEntity
  8
IMPORT_IGES
100
AcDbPolyline
 62
7
  6
CONTINUOUS
 90
7
 70
0
 10
4.1574186288
 20
2.5784997572
 10
4.1651554625
 20
2.5755310634
 10
4.1730519102
 20
2.5727511577
 10
4.1810234304
 20
2.5701924851
 10
4.1890603267
 20
2.5678580519
 10
4.1971581238
 20
2.5657489771
 10
4.1988265369
 20
2.565344256
  0
LINE
  5
467
100
AcDbEntity
  8
ASSI
100
AcDbLine
 62
7
  6
CONTINUOUS
 10
-5.7113742597
 20
7.0705244395
 11
-19.1464031022
 21
13.7880388608
  0
LINE
  5
468
100
AcDbEntity
  8
RACCORDO
100
AcDbLine
 62
7
  6
CONTINUOUS
 10
-5.8176283611
 20
7.1760492154
 11
-18.9743945524
 21
13.7544323111
  0
LINE
  5
469
100
AcDbEntity
  8
RACCORDO
100
AcDbLine
 62
253
  6
CONTINUOUS
 10
-5.91658395
 20
7.2693567088
 11
-18.9273487238
 21
13.7747390957
  0
LINE
  5
46A
100
AcDbEntity
  8
IMPORT_IGES
100
AcDbLine
 62
7
  6
CONTINUOUS
 10
5.3948554958
 20
2.219415558
 11
5.1595033731
 21
2.3370916194
  0
LWPOLYLINE
  5
46B
100
AcDbEntity
  8
RACCORDO
100
AcDbPolyline
 62
7
  6
CONTINUOUS
 90
3
 70
0
 10
-18.991929526
 20
13.7639543897
 10
-18.9779299256
 20
13.7562258644
 10
-18.9743814992
 20
13.7544259679
  0
LWPOLYLINE
  5
46C
100
AcDbEntity
  8
RACCORDO
100
AcDbPolyline
 62
7
  6
CONTINUOUS
 90
5
 70
0
 10
-5.8121954597
 20
7.1740873566
 10
-5.8257399977
 20
7.1825844489
 10
-5.8388039722
 20
7.1917662742
 10
-5.851380239
 20
7.2015564551
 10
-5.8634754638
 20
7.2118660897
  0
LWPOLYLINE
  5
46D
100
AcDbEntity
  8
RACCORDO
100
AcDbPolyline
 62
253
  6
CONTINUOUS
 90
14
 70
0
 10
-11.1888614371
 20
24.0258233409
 10
-11.1845137464
 20
24.0184702434
 10
-11.1806635002
 20
24.0113772039
 10
-11.1773212134
 20
24.0045635931
 10
-11.1744960157
 20
23.998048024
 10
-11.1721956197
 20
23.9918482847
 10
-11.1704263041
 20
23.9859812926
 10
-11.1691929028
 20
23.9804630625
 10
-11.1684987921
 20
23.9753086789
 10
-11.1683458711
 20
23.9705322363
 10
-11.168734555
 20
23.9661467842
 10
-11.1696637804
 20
23.9621642911
 10
-11.1711310095
 20
23.9585956292
 10
-11.1731004071
 20
23.9555005651
  0
LWPOLYLINE
  5
46E
100
AcDbEntity
  8
IMPORT_IGES
100
AcDbPolyline
 62
7
  6
CONTINUOUS
 90
13
 70
0
 10
4.1574186288
 20
4.4017554031
 10
4.1559428376
 20
4.4259936061
 10
4.1522957946
 20
4.4500821008
 10
4.1464774996
 20
4.4740208872
 10
4.1383189284
 20
4.4981620975
 10
4.1279891053
 20
4.5221535994
 10
4.1159951032
 20
4.5449389962
 10
4.1022874355
 20
4.5664824226
 10
4.0869155889
 20
4.5868197438
 10
4.0705350959
 20
4.6050021585
 10
4.0533644677
 20
4.6207133995
 10
4.0351851932
 20
4.634269734
 10
4.0159972725
 20
4.645671162
  0
LWPOLYLINE
  5
46F
100
AcDbEntity
  8
IMPORT_IGES
100
AcDbPolyline
 62
253
  6
CONTINUOUS
 90
3
 70
0
 10
5.6104194745
 20
10.9964778946
 10
5.6086303415
 20
11.0310383038
 10
5.6082381233
 20
11.0336658131
  0
LINE
  5
470
100
AcDbEntity
  8
IMPORT_IGES
100
AcDbLine
 62
7
  6
CONTINUOUS
 10
5.2720289971
 20
2.3103560825
 11
5.2724683928
 21
2.2806091095
  0
LINE
  5
471
100
AcDbEntity
  8
IMPORT_IGES
100
AcDbLine
 62
253
  6
CONTINUOUS
 10
4.4808143006
 20
2.7555745942
 11
4.4252970005
 21
6.6787469152
  0
LINE
  5
472
100
AcDbEntity
  8
IMPORT_IGES
100
AcDbLine
 62
253
  6
CONTINUOUS
 10
5.6954852122
 20
2.4669746914
 11
5.7291199288
 21
0.0901577098
  0
LINE
  5
473
100
AcDbEntity
  8
IMPORT_IGES
100
AcDbLine
 62
7
  6
CONTINUOUS
 10
4.5241843096
 20
16.9481620789
 11
4.5241843096
 21
16.9422606419
  0
LINE
  5
474
100
AcDbEntity
  8
IMPORT_IGES
100
AcDbLine
 62
7
  6
CONTINUOUS
 10
4.5463273584
 20
1.7951514893
 11
4.5463273584
 21
-2.3888190162
  0
LINE
  5
475
100
AcDbEntity
  8
IMPORT_IGES
100
AcDbLine
 62
7
  6
CONTINUOUS
 10
5.2676300153
 20
14.6226777917
 11
5.2676300153
 21
14.449472711
  0
LINE
  5
476
100
AcDbEntity
  8
IMPORT_IGES
100
AcDbLine
 62
7
  6
CONTINUOUS
 10
5.3948554958
 20
2.219415558
 11
5.3948554958
 21
-1.9645549475
  0
LINE
  5
477
100
AcDbEntity
  8
IMPORT_IGES
100
AcDbLine
 62
253
  6
CONTINUOUS
 10
5.6104194746
 20
10.9964778946
 11
5.6104194746
 21
10.5376313907
  0
LINE
  5
478
100
AcDbEntity
  8
IMPORT_IGES
100
AcDbLine
 62
7
  6
CONTINUOUS
 10
5.6982874402
 20
10.9886411547
 11
5.6982874402
 21
10.631163726
  0
LINE
  5
479
100
AcDbEntity
  8
IMPORT_IGES
100
AcDbLine
 62
7
  6
CONTINUOUS
 10
5.7100136953
 20
14.4014859517
 11
5.7100136953
 21
14.228280871
  0
LINE
  5
47A
100
AcDbEntity
  8
IMPORT_IGES
100
AcDbLine
 62
7
  6
CONTINUOUS
 10
5.8019481835
 20
16.3998884643
 11
5.8019481835
 21
16.4765837857
  0
LINE
  5
47B
100
AcDbEntity
  8
IMPORT_IGES
100
AcDbLine
 62
7
  6
CONTINUOUS
 10
6.1397521847
 20
14.1864894278
 11
6.1397521847
 21
14.013284347
  0
LINE
  5
47C
100
AcDbEntity
  8
IMPORT_IGES
100
AcDbLine
 62
7
  6
CONTINUOUS
 10
6.3045978673
 20
16.2252589437
 11
6.3045978673
 21
16.052053863
  0
LINE
  5
47D
100
AcDbEntity
  8
IMPORT_IGES
100
AcDbLine
 62
253
  6
CONTINUOUS
 10
4.4848443416
 20
-3.5456197347
 11
4.4198309566
 21
-8.074815344
  0
LINE
  5
47E
100
AcDbEntity
  8
IMPORT_IGES
100
AcDbLine
 62
253
  6
CONTINUOUS
 10
5.7292433547
 20
0.0034934564
 11
5.6990216125
 21
-2.1019219465
  0
LWPOLYLINE
  5
47F
100
AcDbEntity
  8
IMPORT_IGES
100
AcDbPolyline
 62
253
  6
CONTINUOUS
 90
10
 70
0
 10
7.2596524965
 20
12.3379824825
 10
7.2586396372
 20
12.3228701838
 10
7.2556058205
 20
12.3070820637
 10
7.2506034962
 20
12.2910695104
 10
7.2437602012
 20
12.2753330803
 10
7.2352401854
 20
12.2603185611
 10
7.2252132535
 20
12.2464217579
 10
7.2139224399
 20
12.2340990864
 10
7.2017077678
 20
12.2238305071
 10
7.1889419161
 20
12.2160245545
  0
LWPOLYLINE
  5
480
100
AcDbEntity
  8
IMPORT_IGES
100
AcDbPolyline
 62
253
  6
CONTINUOUS
 90
19
 70
0
 10
7.7571321799
 20
12.5483066782
 10
7.7549810245
 20
12.5322392634
 10
7.7486616705
 20
12.5161942531
 10
7.7384374042
 20
12.5009036599
 10
7.7240904375
 20
12.4863669591
 10
7.7058385586
 20
12.4725846754
 10
7.6845984189
 20
12.4602903958
 10
7.6602135119
 20
12.4495769684
 10
7.632840344
 20
12.440351545
 10
7.6038650855
 20
12.433069168
 10
7.5732565583
 20
12.4278239721
 10
7.5410459405
 20
12.4245218227
 10
7.5087129366
 20
12.423335358
 10
7.4761855889
 20
12.4243609904
 10
7.4435358551
 20
12.4275023074
 10
7.4124593135
 20
12.4326427108
 10
7.3835211567
 20
12.4397433342
 10
7.356156192
 20
12.4488430439
 10
7.3303644195
 20
12.4599418398
  0
LWPOLYLINE
  5
481
100
AcDbEntity
  8
IMPORT_IGES
100
AcDbPolyline
 62
253
  6
CONTINUOUS
 90
13
 70
0
 10
12.419066421
 20
15.5284743745
 10
12.4288742569
 20
15.5529972423
 10
12.4360585137
 20
15.5783514244
 10
12.4404737712
 20
15.6040964827
 10
12.4420225159
 20
15.6299354881
 10
12.4406204055
 20
15.6552457946
 10
12.4363765782
 20
15.6791366794
 10
12.4295985279
 20
15.7009927911
 10
12.4204906906
 20
15.7208204832
 10
12.4090927057
 20
15.7386966578
 10
12.395492375
 20
15.754414589
 10
12.3799645922
 20
15.7675981442
 10
12.3627553545
 20
15.7780241529
  0
LINE
  5
482
100
AcDbEntity
  8
IMPORT_IGES
100
AcDbLine
 62
7
  6
CONTINUOUS
 10
5.3948554958
 20
-1.9645549475
 11
4.1574186288
 21
-3.4582733811
  0
LINE
  5
483
100
AcDbEntity
  8
IMPORT_IGES
100
AcDbLine
 62
253
  6
CONTINUOUS
 10
4.4848443416
 20
-3.5456197347
 11
5.6990216125
 21
-2.1019219465
  0
LWPOLYLINE
  5
484
100
AcDbEntity
  8
IMPORT_IGES
100
AcDbPolyline
 62
253
  6
CONTINUOUS
 90
3
 70
0
 10
19.4081565595
 20
6.4719685199
 10
19.3634159454
 20
6.4425598981
 10
19.3481458366
 20
6.4344601778
  0
LWPOLYLINE
  5
485
100
AcDbEntity
  8
IMPORT_IGES
100
AcDbPolyline
 62
253
  6
CONTINUOUS
 90
11
 70
0
 10
4.4848443416
 20
-3.5456197347
 10
4.4553700407
 20
-3.5585069987
 10
4.4227618221
 20
-3.5692898156
 10
4.3875733304
 20
-3.5777809696
 10
4.3503977347
 20
-3.5838328127
 10
4.3118749058
 20
-3.5873369032
 10
4.2726821961
 20
-3.5882299699
 10
4.2334898803
 20
-3.5864967678
 10
4.194971464
 20
-3.5821671095
 10
4.157808594
 20
-3.5753201676
 10
4.1574186288
 20
-3.575217702
  0
LINE
  5
486
100
AcDbEntity
  8
IMPORT_IGES
100
AcDbLine
 62
7
  6
CONTINUOUS
 10
3.4435240822
 20
4.9319077571
 11
4.0159972725
 21
4.645671162
  0
LWPOLYLINE
  5
487
100
AcDbEntity
  8
0
100
AcDbPolyline
 62
7
  6
CONTINUOUS
 90
3
 70
0
 10
2.7078497273
 20
11.8461501713
 10
2.7094778731
 20
11.8390597901
 10
2.7097136549
 20
11.8333751779
  0
LWPOLYLINE
  5
488
100
AcDbEntity
  8
IMPORT_IGES
100
AcDbPolyline
 62
7
  6
CONTINUOUS
 90
6
 70
0
 10
7.8571389779
 20
12.461806891
 10
7.8559212693
 20
12.4815925953
 10
7.8505139756
 20
12.5077933532
 10
7.840626628
 20
12.5336716036
 10
7.8263415153
 20
12.5584645425
 10
7.8078987542
 20
12.5816225834
  0
LINE
  5
489
100
AcDbEntity
  8
IMPORT_IGES
100
AcDbLine
 62
7
  6
CONTINUOUS
 10
6.5825014389
 20
13.9651148007
 11
6.5825014389
 21
13.7919097199
  0
LINE
  5
48A
100
AcDbEntity
  8
IMPORT_IGES
100
AcDbLine
 62
7
  6
CONTINUOUS
 10
6.7469341711
 20
13.8830257138
 11
6.7469341711
 21
13.7098206331
  0
LINE
  5
48B
100
AcDbEntity
  8
IMPORT_IGES
100
AcDbLine
 62
7
  6
CONTINUOUS
 10
6.9840871789
 20
15.8855142879
 11
6.9840871789
 21
15.7123092072
  0
LINE
  5
48C
100
AcDbEntity
  8
RACCORDO
100
AcDbLine
 62
7
  6
CONTINUOUS
 10
7.0154181625
 20
-16.6623679811
 11
7.0154181625
 21
-15.8236706814
  0
LINE
  5
48D
100
AcDbEntity
  8
RACCORDO
100
AcDbLine
 62
7
  6
CONTINUOUS
 10
7.0154181625
 20
18.8650657599
 11
7.0154181625
 21
19.0974151554
  0
LINE
  5
48E
100
AcDbEntity
  8
IMPORT_IGES
100
AcDbLine
 62
7
  6
CONTINUOUS
 10
7.1893814907
 20
13.661802054
 11
7.1893814907
 21
13.4885969733
  0
LINE
  5
48F
100
AcDbEntity
  8
RACCORDO
100
AcDbLine
 62
253
  6
CONTINUOUS
 10
7.2635624863
 20
19.7259249269
 11
7.2635624863
 21
19.2285949699
  0
LINE
  5
490
100
AcDbEntity
  8
RACCORDO
100
AcDbLine
 62
253
  6
CONTINUOUS
 10
7.2635624863
 20
-17.1301102814
 11
7.2635624863
 21
-17.6274402383
  0
LINE
  5
491
100
AcDbEntity
  8
RACCORDO
100
AcDbLine
 62
7
  6
CONTINUOUS
 10
7.4038925861
 20
20.0264294355
 11
7.4038925861
 21
19.4048590435
  0
LINE
  5
492
100
AcDbEntity
  8
RACCORDO
100
AcDbLine
 62
7
  6
CONTINUOUS
 10
7.4038925861
 20
-16.9590451698
 11
7.4038925861
 21
-17.5806155618
  0
LINE
  5
493
100
AcDbEntity
  8
IMPORT_IGES
100
AcDbLine
 62
7
  6
CONTINUOUS
 10
8.0103586266
 20
13.2513134861
 11
8.0103586266
 21
13.0781084053
  0
LINE
  5
494
100
AcDbEntity
  8
IMPORT_IGES
100
AcDbLine
 62
7
  6
CONTINUOUS
 10
8.0225979379
 20
15.1930538277
 11
8.0225979379
 21
15.3662589084
  0
LINE
  5
495
100
AcDbEntity
  8
IMPORT_IGES
100
AcDbLine
 62
7
  6
CONTINUOUS
 10
8.4913213455
 20
13.0108321266
 11
8.4913213455
 21
12.8376270459
  0
LINE
  5
496
100
AcDbEntity
  8
IMPORT_IGES
100
AcDbLine
 62
7
  6
CONTINUOUS
 10
8.7036937961
 20
15.0257109793
 11
8.7036937961
 21
14.8525058986
  0
LWPOLYLINE
  5
497
100
AcDbEntity
  8
RACCORDO
100
AcDbPolyline
 62
7
  6
CONTINUOUS
 90
17
 70
0
 10
7.0154181625
 20
18.8650657599
 10
7.0150722521
 20
18.8493138384
 10
7.0140637753
 20
18.8340300118
 10
7.0123927322
 20
18.8192142803
 10
7.0100496623
 20
18.8048276989
 10
7.0070440261
 20
18.7909092125
 10
7.0034042046
 20
18.7775756554
 10
6.999124386
 20
18.7648327734
 10
6.994210382
 20
18.7526748206
 10
6.9887080092
 20
18.7412013937
 10
6.9826138872
 20
18.7304205976
 10
6.9759313963
 20
18.7203243273
 10
6.9687164938
 20
18.710987865
 10
6.9609616062
 20
18.7024149158
 10
6.9526743069
 20
18.6946017747
 10
6.943933273
 20
18.6876126087
 10
6.9429817277
 20
18.6869215782
  0
LWPOLYLINE
  5
498
100
AcDbEntity
  8
IMPORT_IGES
100
AcDbPolyline
 62
253
  6
CONTINUOUS
 90
20
 70
0
 10
7.8571390143
 20
12.461735186
 10
7.8569846399
 20
12.4565295172
 10
7.8521384242
 20
12.4322503038
 10
7.8406725023
 20
12.4086808322
 10
7.8231175869
 20
12.3864644852
 10
7.8001455491
 20
12.3660093431
 10
7.7723916227
 20
12.3475545186
 10
7.7406461934
 20
12.3313670965
 10
7.7058860366
 20
12.3176783228
 10
7.6686949831
 20
12.3064851165
 10
7.6291754465
 20
12.2977089842
 10
7.5878680815
 20
12.291445346
 10
7.5454989045
 20
12.2877808304
 10
7.5023152253
 20
12.2867432185
 10
7.4590122251
 20
12.2883889121
 10
7.4162226729
 20
12.2927338318
 10
7.3741441637
 20
12.2998529043
 10
7.3333952038
 20
12.3098112521
 10
7.2949585238
 20
12.3225509533
 10
7.2596668029
 20
12.33797533
  0
LWPOLYLINE
  5
499
100
AcDbEntity
  8
IMPORT_IGES
100
AcDbPolyline
 62
253
  6
CONTINUOUS
 90
12
 70
0
 10
4.4198309566
 20
-8.074815344
 10
4.4028833527
 20
-8.1093466565
 10
4.3826556947
 20
-8.141456939
 10
4.3594837863
 20
-8.1706043451
 10
4.333749895
 20
-8.1962990051
 10
4.3058868329
 20
-8.2181006334
 10
4.2763734103
 20
-8.2356315833
 10
4.2457047846
 20
-8.2485977564
 10
4.2143981503
 20
-8.2567805151
 10
4.1829969754
 20
-8.2600421465
 10
4.1520340799
 20
-8.258336922
 10
4.1266495119
 20
-8.2530663817
  0
LWPOLYLINE
  5
49A
100
AcDbEntity
  8
IMPORT_IGES
100
AcDbPolyline
 62
253
  6
CONTINUOUS
 90
7
 70
0
 10
5.2073323736
 20
-8.2958302193
 10
5.1903697142
 20
-8.3303885206
 10
5.1701303354
 20
-8.3625096067
 10
5.1469540945
 20
-8.3916541042
 10
5.1212301643
 20
-8.4173326218
 10
5.0933904981
 20
-8.4391139689
 10
5.0639025766
 20
-8.4566323956
  0
LWPOLYLINE
  5
49B
100
AcDbEntity
  8
IMPORT_IGES
100
AcDbPolyline
 62
7
  6
CONTINUOUS
 90
8
 70
0
 10
4.1055334406
 20
-5.4924075596
 10
4.1159951032
 20
-5.4860917272
 10
4.1279891053
 20
-5.4753003326
 10
4.1383189284
 20
-5.4616386537
 10
4.1464774996
 20
-5.4456560146
 10
4.1522957946
 20
-5.4275355233
 10
4.1559428376
 20
-5.4070940716
 10
4.1574186288
 20
-5.3843316597
  0
LWPOLYLINE
  5
49C
100
AcDbEntity
  8
IMPORT_IGES
100
AcDbPolyline
 62
7
  6
CONTINUOUS
 90
12
 70
0
 10
17.9885305917
 20
-0.022403156
 10
18.0160741199
 20
-0.0080492355
 10
18.1091398256
 20
0.0500695172
 10
18.1960936179
 20
0.1202466915
 10
18.2756877954
 20
0.2019068784
 10
18.3473401255
 20
0.2949097503
 10
18.4104346173
 20
0.3991703258
 10
18.4640272703
 20
0.5139543576
 10
18.5073229452
 20
0.6382215117
 10
18.5398629608
 20
0.7712279318
 10
18.5613135673
 20
0.9125544569
 10
18.5712846198
 20
1.061549254
  0
LINE
  5
49D
100
AcDbEntity
  8
IMPORT_IGES
100
AcDbLine
 62
253
  6
CONTINUOUS
 10
4.1574186288
 20
-5.3843316597
 11
2.7078497273
 21
-6.1091161104
  0
LINE
  5
49E
100
AcDbEntity
  8
IMPORT_IGES
100
AcDbLine
 62
7
  6
CONTINUOUS
 10
2.7078497273
 20
-6.1913015519
 11
4.1054399916
 21
-5.4925064198
  0
LINE
  5
49F
100
AcDbEntity
  8
IMPORT_IGES
100
AcDbLine
 62
7
  6
CONTINUOUS
 10
17.2245805127
 20
0.3257443879
 11
18.4834131942
 21
0.955157949
  0
LINE
  5
4A0
100
AcDbEntity
  8
IMPORT_IGES
100
AcDbLine
 62
7
  6
CONTINUOUS
 10
17.9888943847
 20
-0.0222213889
 11
17.2674966826
 21
-0.38292024
  0
LWPOLYLINE
  5
4A1
100
AcDbEntity
  8
IMPORT_IGES
100
AcDbPolyline
 62
7
  6
CONTINUOUS
 90
5
 70
0
 10
18.8373497042
 20
9.969736618
 10
18.7928432976
 20
9.9655212219
 10
18.7493186134
 20
9.9567153369
 10
18.7074394447
 20
9.9435107166
 10
18.6676221983
 20
9.9261581586
  0
LWPOLYLINE
  5
4A2
100
AcDbEntity
  8
IMPORT_IGES
100
AcDbPolyline
 62
253
  6
CONTINUOUS
 90
13
 70
0
 10
4.1028727466
 20
7.0330317444
 10
4.1314316936
 20
7.0190022001
 10
4.1619079271
 20
7.0034589826
 10
4.1937925121
 20
6.9866653393
 10
4.2264075113
 20
6.9689853122
 10
4.2593692078
 20
6.9506336507
 10
4.2926041896
 20
6.9316446222
 10
4.325763792
 20
6.912195947
 10
4.3580412659
 20
6.892738611
 10
4.3886692443
 20
6.8737214783
 10
4.4170289172
 20
6.855520417
 10
4.4426333117
 20
6.8384388277
 10
4.4649738728
 20
6.8228038527
  0
LINE
  5
4A3
100
AcDbEntity
  8
IMPORT_IGES
100
AcDbLine
 62
7
  6
CONTINUOUS
 10
3.0468033716
 20
6.8422157305
 11
2.7078497273
 21
7.0116925526
  0
LINE
  5
4A4
100
AcDbEntity
  8
ASSI
100
AcDbLine
 62
253
  6
CONTINUOUS
 10
-19.7143331789
 20
18.4966060747
 11
-19.0194245613
 21
18.149151766
  0
LINE
  5
4A5
100
AcDbEntity
  8
ASSI
100
AcDbLine
 62
253
  6
CONTINUOUS
 10
-5.5843957188
 20
11.4316373447
 11
-4.8894871013
 21
11.0841830359
  0
LINE
  5
4A6
100
AcDbEntity
  8
IMPORT_IGES
100
AcDbLine
 62
253
  6
CONTINUOUS
 10
4.0010725336
 20
6.6741930633
 11
3.5210225257
 21
6.9142177002
  0
LINE
  5
4A7
100
AcDbEntity
  8
RACCORDO
100
AcDbLine
 62
253
  6
CONTINUOUS
 10
-5.790768982
 20
11.5945820422
 11
-18.8015337558
 21
18.0999644291
  0
LINE
  5
4A8
100
AcDbEntity
  8
IMPORT_IGES
100
AcDbLine
 62
253
  6
CONTINUOUS
 10
17.051667548
 20
0.252338574
 11
17.290695611
 21
0.132824622
  0
LINE
  5
4A9
100
AcDbEntity
  8
IMPORT_IGES
100
AcDbLine
 62
253
  6
CONTINUOUS
 10
4.1028616363
 20
7.0330122631
 11
3.6245668527
 21
7.2721649309
  0
LINE
  5
4AA
100
AcDbEntity
  8
IMPORT_IGES
100
AcDbLine
 62
253
  6
CONTINUOUS
 10
17.1808453052
 20
0.6898020907
 11
17.0588227991
 21
0.7508133437
  0
LWPOLYLINE
  5
4AB
100
AcDbEntity
  8
IMPORT_IGES
100
AcDbPolyline
 62
7
  6
CONTINUOUS
 90
13
 70
0
 10
3.046673574
 20
6.8422810371
 10
3.0737805689
 20
6.8273234372
 10
3.1020353525
 20
6.8090550763
 10
3.1310073351
 20
6.7876928659
 10
3.1603284694
 20
6.7635661645
 10
3.1894935034
 20
6.7369983256
 10
3.2178659375
 20
6.7083009168
 10
3.2450986084
 20
6.6780094146
 10
3.2707404
 20
6.6466375455
 10
3.2940271645
 20
6.6145473536
 10
3.314501949
 20
6.5823087875
 10
3.332033218
 20
6.5506925246
 10
3.3464127914
 20
6.5204127611
  0
LWPOLYLINE
  5
4AC
100
AcDbEntity
  8
IMPORT_IGES
100
AcDbPolyline
 62
253
  6
CONTINUOUS
 90
6
 70
0
 10
15.7938812683
 20
-2.9790283578
 10
15.8110497959
 20
-2.9918964976
 10
15.8243754252
 20
-3.0026802407
 10
15.8336883109
 20
-3.0112292758
 10
15.8388712581
 20
-3.0174064748
 10
15.8398412956
 20
-3.021431492
  0
LWPOLYLINE
  5
4AD
100
AcDbEntity
  8
0
100
AcDbPolyline
 62
7
  6
CONTINUOUS
 90
7
 70
0
 10
2.8571463505
 20
11.8273927134
 10
2.8496923123
 20
11.8404171673
 10
2.8397369395
 20
11.8529839664
 10
2.8268716126
 20
11.8653818451
 10
2.8109601251
 20
11.877707048
 10
2.7921386836
 20
11.8898633305
 10
2.7704072881
 20
11.9018506926
  0
LWPOLYLINE
  5
4AE
100
AcDbEntity
  8
IMPORT_IGES
100
AcDbPolyline
 62
253
  6
CONTINUOUS
 90
3
 70
0
 10
4.6903847459
 20
8.9335505583
 10
4.6803613275
 20
8.9526447419
 10
4.6595720777
 20
8.9855197029
  0
LINE
  5
4AF
100
AcDbEntity
  8
IMPORT_IGES
100
AcDbLine
 62
7
  6
CONTINUOUS
 10
9.9399674726
 20
14.2343690603
 11
9.9399674726
 21
14.4075741411
  0
LWPOLYLINE
  5
4B0
100
AcDbEntity
  8
IMPORT_IGES
100
AcDbPolyline
 62
253
  6
CONTINUOUS
 90
10
 70
0
 10
11.2899055986
 20
14.3531093186
 10
11.2888928661
 20
14.3379969566
 10
11.2858591444
 20
14.322208789
 10
11.2808568834
 20
14.306196204
 10
11.2740136096
 20
14.2904597633
 10
11.2654935832
 20
14.2754452494
 10
11.2554666407
 20
14.2615484515
 10
11.2441758272
 20
14.24922578
 10
11.2319611551
 20
14.2389572007
 10
11.2191953033
 20
14.2311512481
  0
LWPOLYLINE
  5
4B1
100
AcDbEntity
  8
IMPORT_IGES
100
AcDbPolyline
 62
253
  6
CONTINUOUS
 90
19
 70
0
 10
11.7873855672
 20
14.5634335301
 10
11.7852344502
 20
14.5473661056
 10
11.7789151301
 20
14.531321083
 10
11.7686908921
 20
14.5160304762
 10
11.7543439475
 20
14.5014937604
 10
11.736092085
 20
14.4877114605
 10
11.7148519559
 20
14.4754171649
 10
11.6904670533
 20
14.4647037219
 10
11.6630938842
 20
14.4554782833
 10
11.6341186204
 20
14.4481958926
 10
11.6035100834
 20
14.4429506847
 10
11.5712994517
 20
14.4396485249
 10
11.5389664319
 20
14.438462052
 10
11.506439066
 20
14.4394876785
 10
11.4737893121
 20
14.442628992
 10
11.4427127511
 20
14.4477693941
 10
11.4137745767
 20
14.4548700186
 10
11.3864095952
 20
14.4639697317
 10
11.3606178067
 20
14.4750685334
  0
LWPOLYLINE
  5
4B2
100
AcDbEntity
  8
IMPORT_IGES
100
AcDbPolyline
 62
253
  6
CONTINUOUS
 90
10
 70
0
 10
15.1807938124
 20
13.5750339287
 10
15.1870052623
 20
13.5929524293
 10
15.1923806042
 20
13.6095128398
 10
15.1968569819
 20
13.6245492239
 10
15.200387762
 20
13.637960226
 10
15.2029018595
 20
13.6495208005
 10
15.204351697
 20
13.6589735101
 10
15.2047484104
 20
13.6662488146
 10
15.2041142613
 20
13.6713752112
 10
15.2024737322
 20
13.6743512365
  0
LWPOLYLINE
  5
4B3
100
AcDbEntity
  8
RACCORDO
100
AcDbPolyline
 62
253
  6
CONTINUOUS
 90
31
 70
0
 10
2.1754567273
 20
-23.9559398807
 10
2.1797998686
 20
-23.9437162998
 10
2.1836476776
 20
-23.9312831094
 10
2.1869892463
 20
-23.9186740502
 10
2.1898152706
 20
-23.9059222064
 10
2.1921172705
 20
-23.8930634474
 10
2.193888103
 20
-23.8801364138
 10
2.1951228339
 20
-23.8671777203
 10
2.1958182968
 20
-23.8542214576
 10
2.1959725896
 20
-23.8413026866
 10
2.1955852398
 20
-23.8284564813
 10
2.194657258
 20
-23.8157181494
 10
2.1931911818
 20
-23.8031228039
 10
2.1911910361
 20
-23.7907049596
 10
2.1886622732
 20
-23.7784984191
 10
2.185611792
 20
-23.7665364944
 10
2.1820479146
 20
-23.7548518415
 10
2.1779803763
 20
-23.7434763971
 10
2.173420295
 20
-23.7324412608
 10
2.1683801304
 20
-23.7217765824
 10
2.1628736458
 20
-23.7115114825
 10
2.1569158817
 20
-23.7016739994
 10
2.1505231012
 20
-23.6922909895
 10
2.1437127744
 20
-23.6833880967
 10
2.1365035365
 20
-23.6749896753
 10
2.1289151071
 20
-23.66711868
 10
2.120968197
 20
-23.6597965763
 10
2.1126844801
 20
-23.6530433277
 10
2.1040865696
 20
-23.6468773707
 10
2.0951979609
 20
-23.6413155561
 10
2.0860429319
 20
-23.6363730747
  0
LWPOLYLINE
  5
4B4
100
AcDbEntity
  8
IMPORT_IGES
100
AcDbPolyline
 62
253
  6
CONTINUOUS
 90
8
 70
0
 10
5.4019176343
 20
-8.4043888729
 10
5.4117139314
 20
-8.3906539422
 10
5.4201780647
 20
-8.3752981004
 10
5.4272484139
 20
-8.3584330789
 10
5.4328734931
 20
-8.3401816568
 10
5.4370123674
 20
-8.3206766666
 10
5.4396349302
 20
-8.3000600074
 10
5.4407220989
 20
-8.2784816924
  0
LWPOLYLINE
  5
4B5
100
AcDbEntity
  8
IMPORT_IGES
100
AcDbPolyline
 62
253
  6
CONTINUOUS
 90
3
 70
0
 10
5.378622874
 20
-8.426608929
 10
5.3908604587
 20
-8.4164029996
 10
5.4019176343
 20
-8.4043888729
  0
LWPOLYLINE
  5
4B6
100
AcDbEntity
  8
IMPORT_IGES
100
AcDbPolyline
 62
253
  6
CONTINUOUS
 90
3
 70
0
 10
13.5344520753
 20
-4.5199698272
 10
13.5189443731
 20
-4.5293929668
 10
13.5167015209
 20
-4.5305434271
  0
LWPOLYLINE
  5
4B7
100
AcDbEntity
  8
IMPORT_IGES
100
AcDbPolyline
 62
7
  6
CONTINUOUS
 90
11
 70
0
 10
17.26929086
 20
-0.3823571407
 10
17.2855547629
 20
-0.3729056346
 10
17.3182746462
 20
-0.3464892691
 10
17.3442746796
 20
-0.3129184698
 10
17.3623169595
 20
-0.271902889
 10
17.372369829
 20
-0.2234091856
 10
17.3744649449
 20
-0.1674707008
 10
17.3674593744
 20
-0.10389711
 10
17.3509721397
 20
-0.0326249719
 10
17.3253842186
 20
0.0462822721
 10
17.290695611
 20
0.132824622
  0
LWPOLYLINE
  5
4B8
100
AcDbEntity
  8
IMPORT_IGES
100
AcDbPolyline
 62
253
  6
CONTINUOUS
 90
7
 70
0
 10
16.9478752547
 20
-0.963219345
 10
16.9735364746
 20
-0.9485682121
 10
16.9951185455
 20
-0.9323767949
 10
17.0123146362
 20
-0.9149336083
 10
17.0248422329
 20
-0.8966429242
 10
17.0326612713
 20
-0.8777222827
 10
17.0357443303
 20
-0.8569615382
  0
LWPOLYLINE
  5
4B9
100
AcDbEntity
  8
IMPORT_IGES
100
AcDbPolyline
 62
253
  6
CONTINUOUS
 90
8
 70
0
 10
13.8852000778
 20
-4.3070025592
 10
13.8500819929
 20
-4.3266214287
 10
13.8131319709
 20
-4.3477294544
 10
13.7752144561
 20
-4.3698455717
 10
13.736420146
 20
-4.3929123977
 10
13.6966583431
 20
-4.4169873152
 10
13.6565213994
 20
-4.4417614085
 10
13.6162067655
 20
-4.4671317056
  0
LINE
  5
4BA
100
AcDbEntity
  8
IMPORT_IGES
100
AcDbLine
 62
7
  6
CONTINUOUS
 10
13.5168510869
 20
-4.5304686176
 11
13.5376518847
 21
-4.5188657815
  0
LWPOLYLINE
  5
4BB
100
AcDbEntity
  8
IMPORT_IGES
100
AcDbPolyline
 62
7
  6
CONTINUOUS
 90
5
 70
0
 10
13.8796545171
 20
-4.3108396896
 10
13.9038429012
 20
-4.297603397
 10
13.9265470683
 20
-4.2854308808
 10
13.9473495142
 20
-4.2745316896
 10
13.9660713941
 20
-4.2649899905
  0
LINE
  5
4BC
100
AcDbEntity
  8
IMPORT_IGES
100
AcDbLine
 62
253
  6
CONTINUOUS
 10
13.5344506462
 20
-4.5199708432
 11
13.5446305874
 21
-4.5144106132
  0
LINE
  5
4BD
100
AcDbEntity
  8
IMPORT_IGES
100
AcDbLine
 62
253
  6
CONTINUOUS
 10
13.9181980774
 20
-4.2890332006
 11
13.8852000778
 21
-4.3070025592
  0
LINE
  5
4BE
100
AcDbEntity
  8
IMPORT_IGES
100
AcDbLine
 62
253
  6
CONTINUOUS
 10
14.3890859455
 20
-4.051407746
 11
14.3625457962
 21
-4.0656381867
  0
LINE
  5
4BF
100
AcDbEntity
  8
IMPORT_IGES
100
AcDbLine
 62
253
  6
CONTINUOUS
 10
15.5282206599
 20
-3.351810367
 11
15.5488058069
 21
-3.3412247477
  0
LWPOLYLINE
  5
4C0
100
AcDbEntity
  8
IMPORT_IGES
100
AcDbPolyline
 62
253
  6
CONTINUOUS
 90
3
 70
0
 10
13.9786982653
 20
-4.2575619521
 10
13.9493641399
 20
-4.2725529983
 10
13.9181980774
 20
-4.2890332006
  0
LWPOLYLINE
  5
4C1
100
AcDbEntity
  8
IMPORT_IGES
100
AcDbPolyline
 62
7
  6
CONTINUOUS
 90
4
 70
0
 10
14.3520161535
 20
-4.0720499858
 10
14.3570600166
 20
-4.0694864501
 10
14.3847635886
 20
-4.0540265653
 10
14.388574313
 20
-4.0517201824
  0
LINE
  5
4C2
100
AcDbEntity
  8
IMPORT_IGES
100
AcDbLine
 62
7
  6
CONTINUOUS
 10
5.9310186027
 20
-8.2882466049
 11
5.7255176913
 21
-8.3911043402
  0
LINE
  5
4C3
100
AcDbEntity
  8
IMPORT_IGES
100
AcDbLine
 62
253
  6
CONTINUOUS
 10
5.4407220989
 20
-8.2784816924
 11
15.5903282369
 21
-3.2036786235
  0
LINE
  5
4C4
100
AcDbEntity
  8
IMPORT_IGES
100
AcDbLine
 62
253
  6
CONTINUOUS
 10
15.5282181924
 20
-3.3518112698
 11
5.3392415341
 21
-8.4463519733
  0
LINE
  5
4C5
100
AcDbEntity
  8
IMPORT_IGES
100
AcDbLine
 62
253
  6
CONTINUOUS
 10
14.3625457962
 20
-4.0656381867
 11
13.9786982653
 21
-4.2575619521
  0
LINE
  5
4C6
100
AcDbEntity
  8
IMPORT_IGES
100
AcDbLine
 62
7
  6
CONTINUOUS
 10
14.351988515
 20
-4.0720491379
 11
13.9660713941
 21
-4.2649899905
  0
LINE
  5
4C7
100
AcDbEntity
  8
IMPORT_IGES
100
AcDbLine
 62
253
  6
CONTINUOUS
 10
13.5344520753
 20
-4.5199698272
 11
6.1316860193
 21
-8.2213528552
  0
LINE
  5
4C8
100
AcDbEntity
  8
IMPORT_IGES
100
AcDbLine
 62
7
  6
CONTINUOUS
 10
13.5167015209
 20
-4.5305434271
 11
6.1490307862
 21
-8.2143789659
  0
LWPOLYLINE
  5
4C9
100
AcDbEntity
  8
IMPORT_IGES
100
AcDbPolyline
 62
7
  6
CONTINUOUS
 90
9
 70
0
 10
5.7250403516
 20
-8.3914502897
 10
5.6939774443
 20
-8.4059800835
 10
5.661809929
 20
-8.4190213006
 10
5.6285378058
 20
-8.4305739409
 10
5.5941646723
 20
-8.4406804883
 10
5.5586869309
 20
-8.4492984589
 10
5.5220937887
 20
-8.4563004016
 10
5.4843767377
 20
-8.4617358162
 10
5.4696092149
 20
-8.4634072914
  0
LWPOLYLINE
  5
4CA
100
AcDbEntity
  8
IMPORT_IGES
100
AcDbPolyline
 62
253
  6
CONTINUOUS
 90
5
 70
0
 10
5.0639025766
 20
-8.4566323956
 10
5.0332615575
 20
-8.4695937346
 10
5.0019819614
 20
-8.4777803404
 10
4.9705890316
 20
-8.4810547447
 10
4.9396099146
 20
-8.4793619638
  0
LWPOLYLINE
  5
4CB
100
AcDbEntity
  8
IMPORT_IGES
100
AcDbPolyline
 62
253
  6
CONTINUOUS
 90
10
 70
0
 10
5.4407220989
 20
-8.2784816924
 10
5.4143262278
 20
-8.2893298172
 10
5.3880362628
 20
-8.2978404596
 10
5.3618522037
 20
-8.3040136196
 10
5.335760699
 20
-8.3077061575
 10
5.3097751002
 20
-8.3090612131
 10
5.2839354628
 20
-8.3085082051
 10
5.2582551384
 20
-8.3061902734
 10
5.2327207754
 20
-8.3019642781
 10
5.2073323736
 20
-8.2958302193
  0
LWPOLYLINE
  5
4CC
100
AcDbEntity
  8
IMPORT_IGES
100
AcDbPolyline
 62
253
  6
CONTINUOUS
 90
6
 70
0
 10
5.3392415341
 20
-8.4463519733
 10
5.2994229027
 20
-8.4625976034
 10
5.2595144752
 20
-8.4755208524
 10
5.2206313076
 20
-8.4851493516
 10
5.182257146
 20
-8.4919851803
 10
5.1586073991
 20
-8.4949439167
  0
LINE
  5
4CD
100
AcDbEntity
  8
IMPORT_IGES
100
AcDbLine
 62
7
  6
CONTINUOUS
 10
6.1316860193
 20
-8.2213528552
 11
5.9310186027
 21
-8.2882466049
  0
LINE
  5
4CE
100
AcDbEntity
  8
IMPORT_IGES
100
AcDbLine
 62
7
  6
CONTINUOUS
 10
7.1893814907
 20
13.4885969733
 11
8.779756986
 21
13.9306826106
  0
LINE
  5
4CF
100
AcDbEntity
  8
IMPORT_IGES
100
AcDbLine
 62
7
  6
CONTINUOUS
 10
9.0660407667
 20
14.183467607
 11
7.1893814907
 21
13.661802054
  0
LWPOLYLINE
  5
4D0
100
AcDbEntity
  8
IMPORT_IGES
100
AcDbPolyline
 62
253
  6
CONTINUOUS
 90
10
 70
0
 10
7.3344529938
 20
11.7426472587
 10
7.3221804579
 20
11.7404926279
 10
7.3093084045
 20
11.737277649
 10
7.2961275578
 20
11.7330427218
 10
7.2830634251
 20
11.7279259014
 10
7.2703129015
 20
11.7220295415
 10
7.2578456853
 20
11.7153409741
 10
7.2458659501
 20
11.7079433806
 10
7.2347619873
 20
11.700072566
 10
7.2247639816
 20
11.6919279834
  0
LWPOLYLINE
  5
4D1
100
AcDbEntity
  8
RACCORDO
100
AcDbPolyline
 62
7
  6
CONTINUOUS
 90
9
 70
0
 10
-18.991929526
 20
13.7639543897
 10
-18.9872413959
 20
13.763335148
 10
-18.9819149531
 20
13.7633217646
 10
-18.9759430535
 20
13.7638378624
 10
-18.9693025966
 20
13.7647796561
 10
-18.9620263877
 20
13.7660944802
 10
-18.9541852395
 20
13.7677982115
 10
-18.9457982013
 20
13.7698618764
 10
-18.9368494919
 20
13.7721957962
  0
LWPOLYLINE
  5
4D2
100
AcDbEntity
  8
IMPORT_IGES
100
AcDbPolyline
 62
253
  6
CONTINUOUS
 90
13
 70
0
 10
4.9068000358
 20
8.4513748289
 10
4.9355076406
 20
8.4372599545
 10
4.9660915091
 20
8.4216500063
 10
4.9980276259
 20
8.4048190795
 10
5.0306062874
 20
8.3871524171
 10
5.0634629978
 20
8.3688567966
 10
5.0965955087
 20
8.3499253911
 10
5.1296709858
 20
8.3305255702
 10
5.16187505
 20
8.3111133032
 10
5.192472055
 20
8.2921172781
 10
5.2208468064
 20
8.2739088609
 10
5.246493123
 20
8.2568013399
 10
5.2688902245
 20
8.2411275964
  0
LINE
  5
4D3
100
AcDbEntity
  8
IMPORT_IGES
100
AcDbLine
 62
253
  6
CONTINUOUS
 10
2.8682278167
 20
8.6165937364
 11
2.7078497273
 21
8.6967827811
  0
LINE
  5
4D4
100
AcDbEntity
  8
IMPORT_IGES
100
AcDbLine
 62
253
  6
CONTINUOUS
 10
4.1300131669
 20
8.7015159317
 11
3.1955954512
 21
9.1687247899
  0
LINE
  5
4D5
100
AcDbEntity
  8
ASSI
100
AcDbLine
 62
253
  6
CONTINUOUS
 10
-18.7217671689
 20
20.2484102306
 11
-18.0151723597
 21
19.8951128261
  0
LINE
  5
4D6
100
AcDbEntity
  8
ASSI
100
AcDbLine
 62
253
  6
CONTINUOUS
 10
-4.5801435172
 20
13.1775984048
 11
-3.8735487081
 21
12.8243010002
  0
LINE
  5
4D7
100
AcDbEntity
  8
IMPORT_IGES
100
AcDbLine
 62
253
  6
CONTINUOUS
 10
4.4427791151
 20
8.6833723342
 11
4.9068000697
 21
8.4513748126
  0
LINE
  5
4D8
100
AcDbEntity
  8
RACCORDO
100
AcDbLine
 62
253
  6
CONTINUOUS
 10
-4.7865134963
 20
13.3406425541
 11
-17.7972782701
 21
19.846024941
  0
LINE
  5
4D9
100
AcDbEntity
  8
IMPORT_IGES
100
AcDbLine
 62
253
  6
CONTINUOUS
 10
3.2988384379
 20
9.531767878
 11
3.4402344805
 21
9.4610698567
  0
LINE
  5
4DA
100
AcDbEntity
  8
IMPORT_IGES
100
AcDbLine
 62
253
  6
CONTINUOUS
 10
3.3579962976
 20
9.5578238667
 11
3.483541253
 21
9.4950513891
  0
LINE
  5
4DB
100
AcDbEntity
  8
IMPORT_IGES
100
AcDbLine
 62
253
  6
CONTINUOUS
 10
4.69277396
 20
8.9351899365
 11
5.1560662647
 21
8.7035437762
  0
LINE
  5
4DC
100
AcDbEntity
  8
IMPORT_IGES
100
AcDbLine
 62
253
  6
CONTINUOUS
 10
3.6025774774
 20
9.5681561516
 11
4.5308858358
 21
9.1040019727
  0
LINE
  5
4DD
100
AcDbEntity
  8
IMPORT_IGES
100
AcDbLine
 62
7
  6
CONTINUOUS
 10
3.6130519725
 20
9.6319028973
 11
3.6727655907
 21
9.6020460881
  0
LWPOLYLINE
  5
4DE
100
AcDbEntity
  8
IMPORT_IGES
100
AcDbPolyline
 62
253
  6
CONTINUOUS
 90
13
 70
0
 10
5.1560662025
 20
8.7035437619
 10
5.18307897
 20
8.6879223367
 10
5.2095909491
 20
8.6683751443
 10
5.2351770358
 20
8.6452454749
 10
5.2593244266
 20
8.6190577034
 10
5.2817783356
 20
8.5901518816
 10
5.3024636147
 20
8.558557903
 10
5.3210788992
 20
8.524497098
 10
5.3370855648
 20
8.4886811831
 10
5.3500510513
 20
8.4518856093
 10
5.359681604
 20
8.4148061622
 10
5.3657762077
 20
8.3780294968
 10
5.3681659981
 20
8.3422198396
  0
LWPOLYLINE
  5
4DF
100
AcDbEntity
  8
IMPORT_IGES
100
AcDbPolyline
 62
7
  6
CONTINUOUS
 90
8
 70
0
 10
5.1833413893
 20
9.427960163
 10
5.2109729574
 20
9.4118645007
 10
5.2381263281
 20
9.3915961707
 10
5.2643374731
 20
9.3675022542
 10
5.2891577411
 20
9.3399949191
 10
5.3121634445
 20
9.3095453178
 10
5.3329631201
 20
9.2766755309
 10
5.3418610521
 20
9.2597334826
  0
LWPOLYLINE
  5
4E0
100
AcDbEntity
  8
IMPORT_IGES
100
AcDbPolyline
 62
253
  6
CONTINUOUS
 90
9
 70
0
 10
4.3735322962
 20
8.5639392384
 10
4.3594731741
 20
8.5726366025
 10
4.3272476354
 20
8.5920995394
 10
4.2936339034
 20
8.6119318406
 10
4.2593987958
 20
8.6316606106
 10
4.2252740611
 20
8.6508509579
 10
4.1919201189
 20
8.6691218368
 10
4.1599159164
 20
8.6861461035
 10
4.1298831687
 20
8.7015814302
  0
LWPOLYLINE
  5
4E1
100
AcDbEntity
  8
IMPORT_IGES
100
AcDbPolyline
 62
253
  6
CONTINUOUS
 90
6
 70
0
 10
16.9047083919
 20
-1.1055317579
 10
16.9220106488
 20
-1.1185036995
 10
16.9354491241
 20
-1.1293945998
 10
16.9447974753
 20
-1.1380210251
 10
16.9498982504
 20
-1.1442376802
 10
16.9506594843
 20
-1.1479501606
  0
LWPOLYLINE
  5
4E2
100
AcDbEntity
  8
IMPORT_IGES
100
AcDbPolyline
 62
253
  6
CONTINUOUS
 90
6
 70
0
 10
4.6595720777
 20
8.9855197029
 10
4.6365809706
 20
9.0159765479
 10
4.6117813905
 20
9.043494152
 10
4.5855976651
 20
9.0676016812
 10
4.5584778052
 20
9.0878866491
 10
4.5308858391
 20
9.1040019743
  0
LINE
  5
4E3
100
AcDbEntity
  8
IMPORT_IGES
100
AcDbLine
 62
7
  6
CONTINUOUS
 10
5.47058868
 20
10.4701148763
 11
5.3276103453
 21
10.7035736315
  0
LWPOLYLINE
  5
4E4
100
AcDbEntity
  8
RACCORDO
100
AcDbPolyline
 62
253
  6
CONTINUOUS
 90
14
 70
0
 10
2.1754567273
 20
17.3436642587
 10
2.1797998686
 20
17.3363191776
 10
2.1836476776
 20
17.3292316288
 10
2.1869892463
 20
17.3224211598
 10
2.1898152706
 20
17.3159060011
 10
2.1921172705
 20
17.3097048363
 10
2.193888103
 20
17.3038364518
 10
2.1951228339
 20
17.2983174141
 10
2.1958182968
 20
17.2931621874
 10
2.1959725896
 20
17.2883847358
 10
2.1955852398
 20
17.2839980659
 10
2.194657258
 20
17.2800142708
 10
2.1931911818
 20
17.2764443456
 10
2.1911910361
 20
17.2732980676
  0
LWPOLYLINE
  5
4E5
100
AcDbEntity
  8
IMPORT_IGES
100
AcDbPolyline
 62
7
  6
CONTINUOUS
 90
6
 70
0
 10
11.8873923651
 20
14.4769335838
 10
11.8861746617
 20
14.4967192471
 10
11.8807673743
 20
14.5229200073
 10
11.8708800328
 20
14.5487982601
 10
11.8565949259
 20
14.5735912019
 10
11.8381521699
 20
14.596749246
  0
LINE
  5
4E6
100
AcDbEntity
  8
IMPORT_IGES
100
AcDbLine
 62
7
  6
CONTINUOUS
 10
11.6098231728
 20
15.3785796518
 11
11.608847982
 21
15.4400324967
  0
LWPOLYLINE
  5
4E7
100
AcDbEntity
  8
IMPORT_IGES
100
AcDbPolyline
 62
253
  6
CONTINUOUS
 90
16
 70
0
 10
13.7807875924
 20
14.1323839224
 10
13.7822434072
 20
14.1579413801
 10
13.7865384279
 20
14.1841888817
 10
13.7935092914
 20
14.2105764118
 10
13.8028583798
 20
14.2363650722
 10
13.8143844247
 20
14.2612825042
 10
13.8281694237
 20
14.2854590418
 10
13.8441382413
 20
14.3084986185
 10
13.8619638762
 20
14.3296910318
 10
13.8814416485
 20
14.3485775178
 10
13.9023007344
 20
14.3646330507
 10
13.9240236251
 20
14.3772032114
 10
13.9459502221
 20
14.3857208291
 10
13.9674880772
 20
14.3898283163
 10
13.9881301863
 20
14.3892967202
 10
14.0073089545
 20
14.3839829329
  0
LWPOLYLINE
  5
4E8
100
AcDbEntity
  8
IMPORT_IGES
100
AcDbPolyline
 62
253
  6
CONTINUOUS
 90
9
 70
0
 10
16.9107136846
 20
12.613165514
 10
16.924903406
 20
12.6488268439
 10
16.9353622884
 20
12.6854545145
 10
16.9419542376
 20
12.722445429
 10
16.944604558
 20
12.759023057
 10
16.9433478189
 20
12.7947865447
 10
16.9381362779
 20
12.8296715593
 10
16.9288544425
 20
12.8632491204
 10
16.9155448483
 20
12.8946696511
  0
LINE
  5
4E9
100
AcDbEntity
  8
IMPORT_IGES
100
AcDbLine
 62
7
  6
CONTINUOUS
 10
15.6196266667
 20
-3.2902972491
 11
15.6598326492
 21
-3.2541750648
  0
LINE
  5
4EA
100
AcDbEntity
  8
IMPORT_IGES
100
AcDbLine
 62
253
  6
CONTINUOUS
 10
15.5404568331
 20
-3.3416049243
 11
15.5282190033
 21
-3.351810975
  0
LINE
  5
4EB
100
AcDbEntity
  8
IMPORT_IGES
100
AcDbLine
 62
7
  6
CONTINUOUS
 10
15.5775332723
 20
-3.3224422932
 11
15.6196266667
 21
-3.2902972491
  0
LINE
  5
4EC
100
AcDbEntity
  8
IMPORT_IGES
100
AcDbLine
 62
7
  6
CONTINUOUS
 10
13.5446305874
 20
-4.5144106132
 11
13.5567906502
 21
-4.506417546
  0
LINE
  5
4ED
100
AcDbEntity
  8
IMPORT_IGES
100
AcDbLine
 62
7
  6
CONTINUOUS
 10
15.5492938912
 20
-3.3409396977
 11
15.5775332723
 21
-3.3224422932
  0
LINE
  5
4EE
100
AcDbEntity
  8
IMPORT_IGES
100
AcDbLine
 62
253
  6
CONTINUOUS
 10
13.5755169908
 20
-4.4932011785
 11
13.5344520753
 21
-4.5199698272
  0
LINE
  5
4EF
100
AcDbEntity
  8
IMPORT_IGES
100
AcDbLine
 62
7
  6
CONTINUOUS
 10
13.5567906502
 20
-4.506417546
 11
13.5830170185
 21
-4.4893255209
  0
LINE
  5
4F0
100
AcDbEntity
  8
IMPORT_IGES
100
AcDbLine
 62
7
  6
CONTINUOUS
 10
13.5830170185
 20
-4.4893255209
 11
13.609503787
 21
-4.4722981705
  0
LINE
  5
4F1
100
AcDbEntity
  8
IMPORT_IGES
100
AcDbLine
 62
253
  6
CONTINUOUS
 10
13.6162067655
 20
-4.4671317056
 11
13.5755169908
 21
-4.4932011785
  0
LINE
  5
4F2
100
AcDbEntity
  8
IMPORT_IGES
100
AcDbLine
 62
7
  6
CONTINUOUS
 10
13.5376518847
 20
-4.5188657815
 11
13.5446805853
 21
-4.5143776133
  0
LWPOLYLINE
  5
4F3
100
AcDbEntity
  8
IMPORT_IGES
100
AcDbPolyline
 62
7
  6
CONTINUOUS
 90
11
 70
0
 10
13.609503787
 20
-4.4722981705
 10
13.6363460449
 20
-4.4552729974
 10
13.6633968937
 20
-4.4383394133
 10
13.69055463
 20
-4.4215521284
 10
13.7179747702
 20
-4.4048145471
 10
13.7455817832
 20
-4.3881852657
 10
13.773165364
 20
-4.3717935066
 10
13.8005836183
 20
-4.3557235742
 10
13.8276680648
 20
-4.3400922269
 10
13.8541678015
 20
-4.325052024
 10
13.8796545171
 20
-4.3108396896
  0
LINE
  5
4F4
100
AcDbEntity
  8
IMPORT_IGES
100
AcDbLine
 62
7
  6
CONTINUOUS
 10
15.5515382331
 20
-3.3395546352
 11
14.391960321
 21
-4.0496481856
  0
LINE
  5
4F5
100
AcDbEntity
  8
IMPORT_IGES
100
AcDbLine
 62
7
  6
CONTINUOUS
 10
14.3894734828
 20
-4.0511710359
 11
14.3890859455
 21
-4.051407746
  0
LINE
  5
4F6
100
AcDbEntity
  8
IMPORT_IGES
100
AcDbLine
 62
253
  6
CONTINUOUS
 10
15.5282181924
 20
-3.3518112698
 11
14.351988515
 21
-4.0720491379
  0
LINE
  5
4F7
100
AcDbEntity
  8
IMPORT_IGES
100
AcDbLine
 62
253
  6
CONTINUOUS
 10
13.9787010392
 20
-4.2575605651
 11
13.9681117345
 21
-4.26398752
  0
LINE
  5
4F8
100
AcDbEntity
  8
IMPORT_IGES
100
AcDbLine
 62
7
  6
CONTINUOUS
 10
6.7469341711
 20
13.8830257138
 11
9.549794436
 21
14.6026606594
  0
LWPOLYLINE
  5
4F9
100
AcDbEntity
  8
0
100
AcDbPolyline
 62
7
  6
CONTINUOUS
 90
7
 70
0
 10
2.7078497273
 20
11.9948590361
 10
2.712498267
 20
11.9956865994
 10
2.7488390128
 20
12.0009387991
 10
2.7843734874
 20
12.0050283253
 10
2.8191761799
 20
12.0080345322
 10
2.8531726012
 20
12.0098780655
 10
2.8863627513
 20
12.0105589252
  0
LWPOLYLINE
  5
4FA
100
AcDbEntity
  8
IMPORT_IGES
100
AcDbPolyline
 62
7
  6
CONTINUOUS
 90
11
 70
0
 10
13.4917055299
 20
14.3986275099
 10
13.5371543116
 20
14.4064335335
 10
13.5600044092
 20
14.4101227755
 10
13.5825160328
 20
14.4131653471
 10
13.6046260062
 20
14.4155022888
 10
13.6265096445
 20
14.4175119976
 10
13.6481319134
 20
14.4191041862
 10
13.6693496313
 20
14.4201378738
 10
13.690206122
 20
14.4209771095
 10
13.7107016558
 20
14.4215542067
 10
13.7502810018
 20
14.4220906361
  0
LWPOLYLINE
  5
4FB
100
AcDbEntity
  8
0
100
AcDbPolyline
 62
7
  6
CONTINUOUS
 90
3
 70
0
 10
2.7843734874
 20
11.9184257849
 10
2.8191761799
 20
11.9214319918
 10
2.8531726012
 20
11.9232755251
  0
LWPOLYLINE
  5
4FC
100
AcDbEntity
  8
RACCORDO
100
AcDbPolyline
 62
253
  6
CONTINUOUS
 90
10
 70
0
 10
-5.5756672335
 20
11.5557973452
 10
-5.6009575984
 20
11.5551764431
 10
-5.6271145481
 20
11.5558397592
 10
-5.6531293601
 20
11.5577977555
 10
-5.6787170107
 20
11.5610289798
 10
-5.7035971561
 20
11.5654980299
 10
-5.7274972044
 20
11.5711559422
 10
-5.7501553015
 20
11.5779407273
 10
-5.7713232007
 20
11.5857780498
 10
-5.790768982
 20
11.5945820422
  0
LINE
  5
4FD
100
AcDbEntity
  8
0
100
AcDbLine
 62
7
  6
CONTINUOUS
 10
2.8531726012
 20
11.9232755251
 11
2.8863627513
 21
11.9239563848
  0
LWPOLYLINE
  5
4FE
100
AcDbEntity
  8
0
100
AcDbPolyline
 62
7
  6
CONTINUOUS
 90
3
 70
0
 10
2.7818820718
 20
12.070046491
 10
2.7191053579
 20
12.0702587831
 10
2.7078497273
 20
12.0697598225
  0
LWPOLYLINE
  5
4FF
100
AcDbEntity
  8
0
100
AcDbPolyline
 62
7
  6
CONTINUOUS
 90
10
 70
0
 10
2.8863627513
 20
11.9239563848
 10
2.9186820957
 20
11.9237772623
 10
2.9532252236
 20
11.921880026
 10
2.9899921351
 20
11.9182646758
 10
3.0288528617
 20
11.9130858959
 10
3.0699373719
 20
11.9061890022
 10
3.1136355715
 20
11.8971099421
 10
3.1600774289
 20
11.8856940314
 10
3.2091329757
 20
11.8720959544
 10
3.2608022119
 20
11.856315711
  0
LWPOLYLINE
  5
500
100
AcDbEntity
  8
0
100
AcDbPolyline
 62
7
  6
CONTINUOUS
 90
10
 70
0
 10
2.8863627513
 20
12.0105589252
 10
2.9186820957
 20
12.0103798027
 10
2.9532252236
 20
12.0084825663
 10
2.9899921351
 20
12.0048672162
 10
3.0288528617
 20
11.9996884363
 10
3.0699373719
 20
11.9927915426
 10
3.1136355715
 20
11.9837124825
 10
3.1600774289
 20
11.9722965718
 10
3.2091329757
 20
11.9586984948
 10
3.2608022119
 20
11.9429182514
  0
LWPOLYLINE
  5
501
100
AcDbEntity
  8
0
100
AcDbPolyline
 62
7
  6
CONTINUOUS
 90
3
 70
0
 10
2.9140574694
 20
12.0614026682
 10
2.8499126241
 20
12.0667406277
 10
2.7818820718
 20
12.070046491
  0
LWPOLYLINE
  5
502
100
AcDbEntity
  8
IMPORT_IGES
100
AcDbPolyline
 62
253
  6
CONTINUOUS
 90
10
 70
0
 10
18.1845131545
 20
9.2814397437
 10
18.1607023035
 20
9.2841864976
 10
18.1371840129
 20
9.2858966196
 10
18.1139582829
 20
9.2865701097
 10
18.0910025753
 20
9.2862055745
 10
18.0683394283
 20
9.2848044073
 10
18.046036456
 20
9.2823707885
 10
18.0241161963
 20
9.2789061115
 10
18.0025561113
 20
9.274408983
 10
17.981356201
 20
9.2688794028
  0
LWPOLYLINE
  5
503
100
AcDbEntity
  8
0
100
AcDbPolyline
 62
7
  6
CONTINUOUS
 90
7
 70
0
 10
3.2249810479
 20
11.9863305817
 10
3.1795578327
 20
12.0040833035
 10
3.1317797811
 20
12.0197298674
 10
3.0821571832
 20
12.0332455864
 10
3.030179749
 20
12.0446551475
 10
2.9743166077
 20
12.0540326124
 10
2.9140574694
 20
12.0614026682
  0
LINE
  5
504
100
AcDbEntity
  8
0
100
AcDbLine
 62
7
  6
CONTINUOUS
 10
3.2680494267
 20
11.9664717021
 11
3.2249810479
 21
11.9863305817
  0
LWPOLYLINE
  5
505
100
AcDbEntity
  8
0
100
AcDbPolyline
 62
7
  6
CONTINUOUS
 90
9
 70
0
 10
2.7704072881
 20
11.9018506926
 10
2.7625873311
 20
11.90566789
 10
2.7546170757
 20
11.9093806806
 10
2.7464965218
 20
11.9129890645
 10
2.7382146123
 20
11.9164966501
 10
2.7297824044
 20
11.919899829
 10
2.7212330691
 20
11.9231877756
 10
2.7125776636
 20
11.9263568815
 10
2.7078497273
 20
11.9280027596
  0
LINE
  5
506
100
AcDbEntity
  8
IMPORT_IGES
100
AcDbLine
 62
7
  6
CONTINUOUS
 10
17.2302752934
 20
4.1333697486
 11
16.6998495654
 21
4.3985826141
  0
LINE
  5
507
100
AcDbEntity
  8
0
100
AcDbLine
 62
7
  6
CONTINUOUS
 10
-2.7015171487
 20
14.2374933996
 11
-2.7971784366
 21
14.2853240435
  0
LINE
  5
508
100
AcDbEntity
  8
0
100
AcDbLine
 62
7
  6
CONTINUOUS
 10
-16.040541402
 20
20.9070055262
 11
-16.1365459913
 21
20.9550078209
  0
LINE
  5
509
100
AcDbEntity
  8
RACCORDO
100
AcDbLine
 62
7
  6
CONTINUOUS
 10
-15.9244139569
 20
20.902669064
 11
-2.9136491831
 21
14.3972866771
  0
LINE
  5
50A
100
AcDbEntity
  8
IMPORT_IGES
100
AcDbLine
 62
7
  6
CONTINUOUS
 10
15.7258600881
 20
5.0885277895
 11
15.8125860544
 21
5.0451648063
  0
LINE
  5
50B
100
AcDbEntity
  8
0
100
AcDbLine
 62
253
  6
CONTINUOUS
 10
4.0130805366
 20
11.0154890126
 11
2.8112804944
 21
11.6163890337
  0
LINE
  5
50C
100
AcDbEntity
  8
IMPORT_IGES
100
AcDbLine
 62
7
  6
CONTINUOUS
 10
4.8560226359
 20
11.0980351329
 11
3.2928403003
 21
11.8796263007
  0
LINE
  5
50D
100
AcDbEntity
  8
IMPORT_IGES
100
AcDbLine
 62
7
  6
CONTINUOUS
 10
2.9342194219
 20
12.0589367399
 11
2.7078497273
 21
12.1721215871
  0
LINE
  5
50E
100
AcDbEntity
  8
0
100
AcDbLine
 62
7
  6
CONTINUOUS
 10
3.28797927
 20
11.9565067805
 11
3.2680494267
 21
11.9664717021
  0
LINE
  5
50F
100
AcDbEntity
  8
IMPORT_IGES
100
AcDbLine
 62
7
  6
CONTINUOUS
 10
5.8822457419
 20
10.6688811782
 11
6.7737141499
 21
10.2231469741
  0
LINE
  5
510
100
AcDbEntity
  8
0
100
AcDbLine
 62
7
  6
CONTINUOUS
 10
-10.7625344543
 20
19.0957446267
 11
-6.5198937672
 21
16.9744242831
  0
LINE
  5
511
100
AcDbEntity
  8
IMPORT_IGES
100
AcDbLine
 62
7
  6
CONTINUOUS
 10
7.2489819183
 20
10.2132939157
 11
2.7078497273
 21
12.4838600111
  0
LINE
  5
512
100
AcDbEntity
  8
IMPORT_IGES
100
AcDbLine
 62
253
  6
CONTINUOUS
 10
2.7078497273
 20
12.6071381734
 11
7.3722600805
 21
10.2749329968
  0
LINE
  5
513
100
AcDbEntity
  8
IMPORT_IGES
100
AcDbLine
 62
253
  6
CONTINUOUS
 10
2.7078497273
 20
12.7107280119
 11
7.475849919
 21
10.326727916
  0
LINE
  5
514
100
AcDbEntity
  8
IMPORT_IGES
100
AcDbLine
 62
253
  6
CONTINUOUS
 10
2.7078497273
 20
12.8690521261
 11
7.5738854649
 21
10.4360342573
  0
LINE
  5
515
100
AcDbEntity
  8
IMPORT_IGES
100
AcDbLine
 62
7
  6
CONTINUOUS
 10
7.5481763009
 20
10.362891107
 11
8.016411914
 21
10.1259507264
  0
LWPOLYLINE
  5
516
100
AcDbEntity
  8
IMPORT_IGES
100
AcDbPolyline
 62
7
  6
CONTINUOUS
 90
10
 70
0
 10
8.1202664121
 20
10.0448366417
 10
8.1079808364
 20
10.0567593451
 10
8.0956717392
 20
10.06799334
 10
8.0833867929
 20
10.0785226906
 10
8.0710344664
 20
10.0883935136
 10
8.0587928661
 20
10.0975301662
 10
8.0471237063
 20
10.1057911541
 10
8.0362147918
 20
10.1131885825
 10
8.0259664489
 20
10.1198307745
 10
8.0164109177
 20
10.1257771135
  0
LWPOLYLINE
  5
517
100
AcDbEntity
  8
IMPORT_IGES
100
AcDbPolyline
 62
253
  6
CONTINUOUS
 90
10
 70
0
 10
7.2247639728
 20
11.6919279871
 10
7.2205555304
 20
11.6997700104
 10
7.2158377595
 20
11.7073088856
 10
7.2106106601
 20
11.7145446126
 10
7.2048820119
 20
11.7215476186
 10
7.1986440352
 20
11.7282474765
 10
7.1918733906
 20
11.734432905
 10
7.1845622986
 20
11.7400334768
 10
7.1767185388
 20
11.7451196192
 10
7.1683421112
 20
11.7496913321
  0
LWPOLYLINE
  5
518
100
AcDbEntity
  8
IMPORT_IGES
100
AcDbPolyline
 62
7
  6
CONTINUOUS
 90
3
 70
0
 10
7.2247639728
 20
11.6919279871
 10
7.4015286021
 20
11.3443959168
 10
7.489478167
 20
11.1705503955
  0
LWPOLYLINE
  5
519
100
AcDbEntity
  8
IMPORT_IGES
100
AcDbPolyline
 62
7
  6
CONTINUOUS
 90
3
 70
0
 10
7.7515958626
 20
10.6486958872
 10
7.8395755726
 20
10.4745136175
 10
8.0164457096
 20
10.1258029275
  0
LINE
  5
51A
100
AcDbEntity
  8
IMPORT_IGES
100
AcDbLine
 62
7
  6
CONTINUOUS
 10
7.489478167
 20
11.1705503955
 11
7.7515958626
 21
10.6486958872
  0
LINE
  5
51B
100
AcDbEntity
  8
IMPORT_IGES
100
AcDbLine
 62
253
  6
CONTINUOUS
 10
7.9527449673
 20
10.4075807032
 11
7.6046103358
 21
11.1578051036
  0
LWPOLYLINE
  5
51C
100
AcDbEntity
  8
IMPORT_IGES
100
AcDbPolyline
 62
253
  6
CONTINUOUS
 90
3
 70
0
 10
7.6046103358
 20
11.1578051036
 10
7.4253304166
 20
11.5455790218
 10
7.3344529967
 20
11.7426472633
  0
LINE
  5
51D
100
AcDbEntity
  8
IMPORT_IGES
100
AcDbLine
 62
253
  6
CONTINUOUS
 10
8.1202858673
 20
10.044813164
 11
7.9527449673
 21
10.4075807032
  0
LINE
  5
51E
100
AcDbEntity
  8
IMPORT_IGES
100
AcDbLine
 62
253
  6
CONTINUOUS
 10
13.7980465661
 20
13.8261707231
 11
13.7807817759
 21
14.1323864229
  0
LINE
  5
51F
100
AcDbEntity
  8
IMPORT_IGES
100
AcDbLine
 62
253
  6
CONTINUOUS
 10
13.4999357771
 20
14.1278868163
 11
13.491707045
 21
14.3986355727
  0
LWPOLYLINE
  5
520
100
AcDbEntity
  8
IMPORT_IGES
100
AcDbPolyline
 62
7
  6
CONTINUOUS
 90
6
 70
0
 10
14.1348581708
 20
14.380076047
 10
14.1357887543
 20
14.3973882551
 10
14.1389167455
 20
14.4150571961
 10
14.1442077322
 20
14.4327992253
 10
14.1516026899
 20
14.450285454
 10
14.16099846
 20
14.4672079216
  0
LWPOLYLINE
  5
521
100
AcDbEntity
  8
IMPORT_IGES
100
AcDbPolyline
 62
7
  6
CONTINUOUS
 90
13
 70
0
 10
17.883323773
 20
8.8179379924
 10
17.8930854089
 20
8.8435377084
 10
17.9094608741
 20
8.8899321805
 10
17.9240392619
 20
8.9347759136
 10
17.9367956908
 20
8.9780656244
 10
17.9477550422
 20
9.0198045962
 10
17.9570955901
 20
9.0599864032
 10
17.9648080313
 20
9.0985898123
 10
17.9709016689
 20
9.1356360567
 10
17.9755826863
 20
9.1711824106
 10
17.9789198114
 20
9.2052479652
 10
17.9808443163
 20
9.2378136293
 10
17.981356201
 20
9.2688794028
  0
LINE
  5
522
100
AcDbEntity
  8
IMPORT_IGES
100
AcDbLine
 62
253
  6
CONTINUOUS
 10
16.9047083919
 20
-1.1055317579
 11
15.7938812683
 21
-2.9790283578
  0
LINE
  5
523
100
AcDbEntity
  8
IMPORT_IGES
100
AcDbLine
 62
7
  6
CONTINUOUS
 10
15.8398323323
 20
-3.0214468084
 11
16.9506594306
 21
-1.1479502512
  0
LWPOLYLINE
  5
524
100
AcDbEntity
  8
IMPORT_IGES
100
AcDbPolyline
 62
253
  6
CONTINUOUS
 90
3
 70
0
 10
15.7938812683
 20
-2.9790283578
 10
15.7733890423
 20
-3.012422222
 10
15.7518524648
 20
-3.0443019794
  0
LINE
  5
525
100
AcDbEntity
  8
IMPORT_IGES
100
AcDbLine
 62
7
  6
CONTINUOUS
 10
15.8078911582
 20
-3.0726023691
 11
15.8398432106
 21
-3.0214306742
  0
LWPOLYLINE
  5
526
100
AcDbEntity
  8
IMPORT_IGES
100
AcDbPolyline
 62
253
  6
CONTINUOUS
 90
8
 70
0
 10
15.7518524648
 20
-3.0443019794
 10
15.7292715358
 20
-3.0746676301
 10
15.7049620456
 20
-3.104311273
 10
15.6796082038
 20
-3.1324408093
 10
15.6552626392
 20
-3.1566799421
 10
15.6326095613
 20
-3.1762365726
 10
15.6109647605
 20
-3.1919027997
 10
15.5903282369
 20
-3.2036786235
  0
LWPOLYLINE
  5
527
100
AcDbEntity
  8
IMPORT_IGES
100
AcDbPolyline
 62
7
  6
CONTINUOUS
 90
5
 70
0
 10
15.6598326492
 20
-3.2541750648
 10
15.6987666963
 20
-3.2141250652
 10
15.7366921844
 20
-3.1701028997
 10
15.7731090161
 20
-3.1228300228
 10
15.8078911582
 20
-3.0726023691
  0
LINE
  5
528
100
AcDbEntity
  8
IMPORT_IGES
100
AcDbLine
 62
7
  6
CONTINUOUS
 10
3.4116078368
 20
16.1483830092
 11
4.4001683867
 21
16.42637779
  0
LINE
  5
529
100
AcDbEntity
  8
IMPORT_IGES
100
AcDbLine
 62
7
  6
CONTINUOUS
 10
4.8183909351
 20
16.5449228276
 11
5.3640023057
 21
16.6955567246
  0
LINE
  5
52A
100
AcDbEntity
  8
IMPORT_IGES
100
AcDbLine
 62
7
  6
CONTINUOUS
 10
3.0155818914
 20
15.5754967729
 11
5.5196963559
 21
16.2296461141
  0
LINE
  5
52B
100
AcDbEntity
  8
IMPORT_IGES
100
AcDbLine
 62
7
  6
CONTINUOUS
 10
5.8019481835
 20
16.4765837857
 11
3.0155818914
 21
15.7487018537
  0
LINE
  5
52C
100
AcDbEntity
  8
IMPORT_IGES
100
AcDbLine
 62
7
  6
CONTINUOUS
 10
4.386806897
 20
14.8898842701
 11
5.8070786235
 21
15.2119455011
  0
LINE
  5
52D
100
AcDbEntity
  8
IMPORT_IGES
100
AcDbLine
 62
7
  6
CONTINUOUS
 10
6.0071788556
 20
15.4305253689
 11
4.386806897
 21
15.0630893509
  0
LINE
  5
52E
100
AcDbEntity
  8
IMPORT_IGES
100
AcDbLine
 62
7
  6
CONTINUOUS
 10
5.0163207298
 20
15.4901560373
 11
6.9219911827
 21
15.916562286
  0
LINE
  5
52F
100
AcDbEntity
  8
IMPORT_IGES
100
AcDbLine
 62
7
  6
CONTINUOUS
 10
13.7502810018
 20
14.4220906361
 11
13.769328055
 21
14.4223647886
  0
LWPOLYLINE
  5
530
100
AcDbEntity
  8
IMPORT_IGES
100
AcDbPolyline
 62
7
  6
CONTINUOUS
 90
13
 70
0
 10
13.769328055
 20
14.4223647886
 10
13.823057731
 20
14.4228055041
 10
13.8396961543
 20
14.4227500719
 10
13.8556916643
 20
14.422521777
 10
13.8709232592
 20
14.4220953008
 10
13.8853541767
 20
14.4213844824
 10
13.899072886
 20
14.4203009011
 10
13.9119201741
 20
14.4188779188
 10
13.9237971122
 20
14.4171145275
 10
13.934914245
 20
14.4148854197
 10
13.9452849825
 20
14.4121919414
 10
13.9546893932
 20
14.4091676447
 10
13.9630236769
 20
14.4058969617
  0
LWPOLYLINE
  5
531
100
AcDbEntity
  8
IMPORT_IGES
100
AcDbPolyline
 62
7
  6
CONTINUOUS
 90
6
 70
0
 10
14.4838990243
 20
13.9924329214
 10
14.4494686605
 20
13.9936384542
 10
14.4146811131
 20
13.9905846788
 10
14.3801362971
 20
13.9831818942
 10
14.3465933717
 20
13.9715872321
 10
14.3274347882
 20
13.9628537751
  0
LWPOLYLINE
  5
532
100
AcDbEntity
  8
IMPORT_IGES
100
AcDbPolyline
 62
253
  6
CONTINUOUS
 90
7
 70
0
 10
14.5714698295
 20
13.9687529387
 10
14.5652430143
 20
13.9693600765
 10
14.5581490598
 20
13.967675695
 10
14.5501926749
 20
13.9637636181
 10
14.541324465
 20
13.9577276276
 10
14.5316279828
 20
13.9496383236
 10
14.5213247087
 20
13.9395421153
  0
LWPOLYLINE
  5
533
100
AcDbEntity
  8
IMPORT_IGES
100
AcDbPolyline
 62
253
  6
CONTINUOUS
 90
3
 70
0
 10
19.0404249803
 20
9.9276608619
 10
19.0629410274
 20
9.9209154781
 10
19.0699795465
 20
9.9177049533
  0
LWPOLYLINE
  5
534
100
AcDbEntity
  8
IMPORT_IGES
100
AcDbPolyline
 62
7
  6
CONTINUOUS
 90
5
 70
0
 10
19.0231328584
 20
9.9383513688
 10
18.9758871343
 20
9.953809399
 10
18.9288204806
 20
9.9640859044
 10
18.8825895099
 20
9.9693079985
 10
18.8373497042
 20
9.969736618
  0
LWPOLYLINE
  5
535
100
AcDbEntity
  8
IMPORT_IGES
100
AcDbPolyline
 62
253
  6
CONTINUOUS
 90
3
 70
0
 10
18.0520668791
 20
8.6011499442
 10
18.0073950922
 20
8.6205974548
 10
17.9699798435
 20
8.6320192112
  0
LWPOLYLINE
  5
536
100
AcDbEntity
  8
IMPORT_IGES
100
AcDbPolyline
 62
253
  6
CONTINUOUS
 90
27
 70
0
 10
7.1889423284
 20
12.216025271
 10
7.2293781712
 20
12.1982701249
 10
7.272272915
 20
12.1832794829
 10
7.31762656
 20
12.171053345
 10
7.3661477313
 20
12.1615226469
 10
7.4171278037
 20
12.1547564528
 10
7.4684409016
 20
12.1509619557
 10
7.5199429829
 20
12.1502338333
 10
7.5717780897
 20
12.1524774078
 10
7.6222524723
 20
12.1576158387
 10
7.6714866942
 20
12.1657642818
 10
7.719360192
 20
12.1768075813
 10
7.7638175252
 20
12.1903234292
 10
7.8046736743
 20
12.2064188411
 10
7.8421136588
 20
12.2249868013
 10
7.8746370967
 20
12.2452839554
 10
7.9020351836
 20
12.2673819235
 10
7.9245167239
 20
12.2912090855
 10
7.941207748
 20
12.3158072261
 10
7.9519058725
 20
12.3411583877
 10
7.956813481
 20
12.367280528
 10
7.955663754
 20
12.3932693044
 10
7.9482082719
 20
12.4192073899
 10
7.9346954545
 20
12.4450121115
 10
7.9156037416
 20
12.4695311078
 10
7.8910926131
 20
12.4923802585
 10
7.8610025892
 20
12.5139436839
  0
LWPOLYLINE
  5
537
100
AcDbEntity
  8
RACCORDO
100
AcDbPolyline
 62
253
  6
CONTINUOUS
 90
15
 70
0
 10
-1.4558496188
 20
17.5924168307
 10
-1.4651554917
 20
17.5967201335
 10
-1.4744330471
 20
17.6004194002
 10
-1.4836568455
 20
17.6035044833
 10
-1.492801603
 20
17.6059669215
 10
-1.5018422349
 20
17.6077999557
 10
-1.5107539251
 20
17.608998553
 10
-1.519512232
 20
17.6095594282
 10
-1.5280931459
 20
17.6094810456
 10
-1.5364731303
 20
17.6087636228
 10
-1.5446292065
 20
17.6074091305
 10
-1.5525390131
 20
17.6054212859
 10
-1.5601808598
 20
17.602805544
 10
-1.5675338028
 20
17.599569077
 10
-1.5689281269
 20
17.5988684776
  0
LWPOLYLINE
  5
538
100
AcDbEntity
  8
RACCORDO
100
AcDbPolyline
 62
253
  6
CONTINUOUS
 90
31
 70
0
 10
-0.3066131949
 20
16.2855737417
 10
-0.2971542246
 20
16.2810847792
 10
-0.2872399482
 20
16.2768485547
 10
-0.2768973445
 20
16.2728765959
 10
-0.266154574
 20
16.2691797165
 10
-0.2550408548
 20
16.2657679704
 10
-0.2435863775
 20
16.2626506284
 10
-0.2318222721
 20
16.2598361696
 10
-0.2197805817
 20
16.2573322667
 10
-0.2074941274
 20
16.2551457469
 10
-0.194996363
 20
16.2532825631
 10
-0.1823212803
 20
16.2517477818
 10
-0.1695033718
 20
16.2505455798
 10
-0.1565775085
 20
16.249679228
 10
-0.1435788753
 20
16.2491510851
 10
-0.130542877
 20
16.2489625883
 10
-0.1175050091
 20
16.2491142476
 10
-0.1045007299
 20
16.2496056472
 10
-0.0915653954
 20
16.2504354499
 10
-0.0787340898
 20
16.2516014096
 10
-0.0660418486
 20
16.2531003475
 10
-0.0535235196
 20
16.254928135
 10
-0.0412133552
 20
16.2570797358
 10
-0.0291446244
 20
16.2595492991
 10
-0.0173498536
 20
16.2623301556
 10
-0.005859991
 20
16.2654150657
 10
0.0052924908
 20
16.2687953693
 10
0.0160743006
 20
16.2724608105
 10
0.0264554897
 20
16.2764008085
 10
0.0364092019
 20
16.280604756
 10
0.0459087647
 20
16.2850610178
  0
LWPOLYLINE
  5
539
100
AcDbEntity
  8
RACCORDO
100
AcDbPolyline
 62
253
  6
CONTINUOUS
 90
31
 70
0
 10
-13.6709313594
 20
22.9677328239
 10
-13.661472389
 20
22.9632438614
 10
-13.6515581126
 20
22.959007637
 10
-13.6412155089
 20
22.9550356781
 10
-13.6304727384
 20
22.9513387987
 10
-13.6193590193
 20
22.9479270526
 10
-13.6079045419
 20
22.9448097106
 10
-13.5961404365
 20
22.9419952518
 10
-13.5840987461
 20
22.9394913489
 10
-13.5718122919
 20
22.9373048292
 10
-13.5593145275
 20
22.9354416453
 10
-13.5466394447
 20
22.933906864
 10
-13.5338215363
 20
22.932704662
 10
-13.5208956729
 20
22.9318383102
 10
-13.5078970398
 20
22.9313101673
 10
-13.4948610414
 20
22.9311216705
 10
-13.4818231736
 20
22.9312733298
 10
-13.4688188943
 20
22.9317647294
 10
-13.4558835599
 20
22.9325945321
 10
-13.4430522543
 20
22.9337604918
 10
-13.430360013
 20
22.9352594297
 10
-13.417841684
 20
22.9370872172
 10
-13.4055315196
 20
22.939238818
 10
-13.3934627888
 20
22.9417083813
 10
-13.381668018
 20
22.9444892378
 10
-13.3701781554
 20
22.9475741479
 10
-13.3590256737
 20
22.9509544515
 10
-13.3482438638
 20
22.9546198927
 10
-13.3378626747
 20
22.9585598907
 10
-13.3279089626
 20
22.9627638382
 10
-13.3184093997
 20
22.9672201
  0
LWPOLYLINE
  5
53A
100
AcDbEntity
  8
RACCORDO
100
AcDbPolyline
 62
253
  6
CONTINUOUS
 90
31
 70
0
 10
-0.3066131949
 20
16.6255476758
 10
-0.2971530456
 20
16.6210581823
 10
-0.287237459
 20
16.6168214802
 10
-0.2768934211
 20
16.6128491031
 10
-0.2661490729
 20
16.6091518615
 10
-0.2550336674
 20
16.6057398253
 10
-0.2435774938
 20
16.6026222931
 10
-0.2318117445
 20
16.5998077519
 10
-0.2197684372
 20
16.5973038596
 10
-0.2074803646
 20
16.5951174325
 10
-0.1949809771
 20
16.5932544206
 10
-0.1823042953
 20
16.5917198927
 10
-0.1694848293
 20
16.5905180244
 10
-0.1565574578
 20
16.589652084
 10
-0.1435573827
 20
16.589124428
 10
-0.1305200393
 20
16.5889364907
 10
-0.117480968
 20
16.5890887759
 10
-0.104475603
 20
16.5895808618
 10
-0.0915392287
 20
16.5904114115
 10
-0.0787068896
 20
16.5915781845
 10
-0.0660136825
 20
16.5930779993
 10
-0.0534945332
 20
16.5949067159
 10
-0.0411837365
 20
16.5970592854
 10
-0.0291145317
 20
16.5995298553
 10
-0.017319414
 20
16.6023117592
 10
-0.0058279915
 20
16.6053981385
 10
0.0053258251
 20
16.6087800132
 10
0.0161049807
 20
16.6124457723
 10
0.0264787466
 20
16.6163840581
 10
0.0364220506
 20
16.6205844106
 10
0.0459087647
 20
16.6250349519
  0
LWPOLYLINE
  5
53B
100
AcDbEntity
  8
RACCORDO
100
AcDbPolyline
 62
253
  6
CONTINUOUS
 90
31
 70
0
 10
-13.6709313594
 20
23.307706758
 10
-13.6614959482
 20
23.3032284073
 10
-13.6516011558
 20
23.2989990163
 10
-13.6412729977
 20
23.2950305274
 10
-13.6305365092
 20
23.2913334806
 10
-13.6194222499
 20
23.2879192859
 10
-13.607966961
 20
23.2847995969
 10
-13.5962043737
 20
23.2819834752
 10
-13.584164086
 20
23.2794778857
 10
-13.5718785379
 20
23.2772895929
 10
-13.5593809162
 20
23.2754245458
 10
-13.5467054422
 20
23.2738878885
 10
-13.5338869711
 20
23.2726838584
 10
-13.5209605536
 20
23.2718157386
 10
-13.5079612146
 20
23.271285872
 10
-13.4949242224
 20
23.2710956979
 10
-13.4818850063
 20
23.2712457409
 10
-13.46887911
 20
23.2717356002
 10
-13.4559419815
 20
23.2725639447
 10
-13.4431088481
 20
23.2737285205
 10
-13.4304146258
 20
23.2752261606
 10
-13.4178938722
 20
23.27705279
 10
-13.4055806659
 20
23.2792034391
 10
-13.393508525
 20
23.2816722553
 10
-13.3817103201
 20
23.284452518
 10
-13.3702181572
 20
23.2875366625
 10
-13.3590633259
 20
23.2909162932
 10
-13.3482762214
 20
23.2945822001
 10
-13.3378862125
 20
23.2985243992
 10
-13.3279215655
 20
23.3027321621
 10
-13.3184093997
 20
23.3071940341
  0
LINE
  5
53C
100
AcDbEntity
  8
IMPORT_IGES
100
AcDbLine
 62
253
  6
CONTINUOUS
 10
7.7285633183
 20
12.6395944382
 11
7.7286395454
 21
12.6395564257
  0
LWPOLYLINE
  5
53D
100
AcDbEntity
  8
IMPORT_IGES
100
AcDbPolyline
 62
253
  6
CONTINUOUS
 90
6
 70
0
 10
2.7078497273
 20
13.9240668898
 10
3.2354618218
 20
13.6602758941
 10
4.2156255285
 20
13.1757984376
 10
5.1977988145
 20
12.6958856961
 10
6.1820376754
 20
12.2205166609
 10
7.1683421112
 20
11.7496913321
  0
LINE
  5
53E
100
AcDbEntity
  8
RACCORDO
100
AcDbLine
 62
7
  6
CONTINUOUS
 10
-14.2929230849
 20
22.6669227406
 11
-12.9597107513
 21
22.0003165738
  0
LINE
  5
53F
100
AcDbEntity
  8
RACCORDO
100
AcDbLine
 62
7
  6
CONTINUOUS
 10
-0.9286049205
 20
15.9847636584
 11
0.4046074132
 21
15.3181574915
  0
LINE
  5
540
100
AcDbEntity
  8
IMPORT_IGES
100
AcDbLine
 62
253
  6
CONTINUOUS
 10
7.1889423284
 20
12.216025271
 11
2.7078497273
 21
14.4565723892
  0
LINE
  5
541
100
AcDbEntity
  8
RACCORDO
100
AcDbLine
 62
7
  6
CONTINUOUS
 10
-3.8349508954
 20
17.8141832706
 11
-9.3462579951
 21
20.5698368204
  0
LINE
  5
542
100
AcDbEntity
  8
IMPORT_IGES
100
AcDbLine
 62
253
  6
CONTINUOUS
 10
2.7078497273
 20
14.6138838671
 11
7.2596524965
 21
12.3379824825
  0
LINE
  5
543
100
AcDbEntity
  8
RACCORDO
100
AcDbLine
 62
7
  6
CONTINUOUS
 10
-14.9309427428
 20
23.4950067137
 11
-13.6059580629
 21
22.8325143738
  0
LINE
  5
544
100
AcDbEntity
  8
RACCORDO
100
AcDbLine
 62
7
  6
CONTINUOUS
 10
-1.5666245783
 20
16.8128476315
 11
-0.2416398985
 21
16.1503552916
  0
LINE
  5
545
100
AcDbEntity
  8
IMPORT_IGES
100
AcDbLine
 62
253
  6
CONTINUOUS
 10
2.7078497273
 20
14.7711990157
 11
7.3303644195
 21
12.4599418398
  0
LINE
  5
546
100
AcDbEntity
  8
RACCORDO
100
AcDbLine
 62
253
  6
CONTINUOUS
 10
-14.9959160392
 20
23.6302251638
 11
-13.6709313594
 21
22.9677328239
  0
LINE
  5
547
100
AcDbEntity
  8
RACCORDO
100
AcDbLine
 62
253
  6
CONTINUOUS
 10
-1.6315978748
 20
16.9480660816
 11
-0.3066131949
 21
16.2855737417
  0
LINE
  5
548
100
AcDbEntity
  8
RACCORDO
100
AcDbLine
 62
253
  6
CONTINUOUS
 10
-0.3066131949
 20
16.6255476758
 11
-1.6315978748
 21
17.2880400157
  0
LINE
  5
549
100
AcDbEntity
  8
RACCORDO
100
AcDbLine
 62
253
  6
CONTINUOUS
 10
-13.6709313594
 20
23.307706758
 11
-14.9959160392
 21
23.9701990979
  0
LINE
  5
54A
100
AcDbEntity
  8
IMPORT_IGES
100
AcDbLine
 62
253
  6
CONTINUOUS
 10
7.6839147509
 20
12.6367168065
 11
2.7078497273
 21
15.1247489148
  0
LINE
  5
54B
100
AcDbEntity
  8
IMPORT_IGES
100
AcDbLine
 62
7
  6
CONTINUOUS
 10
7.7286370696
 20
12.6395576638
 11
2.7078497273
 21
15.1499513349
  0
LINE
  5
54C
100
AcDbEntity
  8
DRAFT
100
AcDbLine
 62
7
  6
CONTINUOUS
 10
-1.6783341016
 20
17.488368123
 11
-2.7722278269
 21
18.0353149857
  0
LINE
  5
54D
100
AcDbEntity
  8
DRAFT
100
AcDbLine
 62
7
  6
CONTINUOUS
 10
-9.4927046045
 20
21.3955533745
 11
-11.7171286089
 21
22.5077653767
  0
LINE
  5
54E
100
AcDbEntity
  8
RACCORDO
100
AcDbLine
 62
253
  6
CONTINUOUS
 10
-0.130864939
 20
16.9299244907
 11
-1.4558496188
 21
17.5924168307
  0
LINE
  5
54F
100
AcDbEntity
  8
RACCORDO
100
AcDbLine
 62
253
  6
CONTINUOUS
 10
-13.4951831034
 20
23.612083573
 11
-14.8201677832
 21
24.2745759129
  0
LINE
  5
550
100
AcDbEntity
  8
RACCORDO
100
AcDbLine
 62
253
  6
CONTINUOUS
 10
-3.8349508954
 20
18.8947665814
 11
-9.3462579951
 21
21.6504201312
  0
LINE
  5
551
100
AcDbEntity
  8
IMPORT_IGES
100
AcDbLine
 62
7
  6
CONTINUOUS
 10
6.5825014389
 20
13.7919097199
 11
6.1397521847
 21
14.013284347
  0
LINE
  5
552
100
AcDbEntity
  8
IMPORT_IGES
100
AcDbLine
 62
7
  6
CONTINUOUS
 10
8.4913213455
 20
12.8376270459
 11
8.0103586266
 21
13.0781084053
  0
LINE
  5
553
100
AcDbEntity
  8
IMPORT_IGES
100
AcDbLine
 62
7
  6
CONTINUOUS
 10
7.1893814907
 20
13.4885969733
 11
6.7469341711
 21
13.7098206331
  0
LINE
  5
554
100
AcDbEntity
  8
IMPORT_IGES
100
AcDbLine
 62
7
  6
CONTINUOUS
 10
5.7100136953
 20
14.228280871
 11
5.2676300153
 21
14.449472711
  0
LINE
  5
555
100
AcDbEntity
  8
IMPORT_IGES
100
AcDbLine
 62
7
  6
CONTINUOUS
 10
4.386806897
 20
14.8898842701
 11
3.9487500034
 21
15.1089127169
  0
LINE
  5
556
100
AcDbEntity
  8
IMPORT_IGES
100
AcDbLine
 62
7
  6
CONTINUOUS
 10
3.0155818914
 20
15.5754967729
 11
2.7791286678
 21
15.6937233847
  0
LINE
  5
557
100
AcDbEntity
  8
IMPORT_IGES
100
AcDbLine
 62
7
  6
CONTINUOUS
 10
6.5825014389
 20
13.9651148007
 11
6.1397521847
 21
14.1864894278
  0
LINE
  5
558
100
AcDbEntity
  8
IMPORT_IGES
100
AcDbLine
 62
7
  6
CONTINUOUS
 10
8.4913213455
 20
13.0108321266
 11
8.0103586266
 21
13.2513134861
  0
LINE
  5
559
100
AcDbEntity
  8
IMPORT_IGES
100
AcDbLine
 62
7
  6
CONTINUOUS
 10
7.1893814907
 20
13.661802054
 11
6.7469341711
 21
13.8830257138
  0
LINE
  5
55A
100
AcDbEntity
  8
IMPORT_IGES
100
AcDbLine
 62
7
  6
CONTINUOUS
 10
5.7100136953
 20
14.4014859517
 11
5.2676300153
 21
14.6226777917
  0
LINE
  5
55B
100
AcDbEntity
  8
IMPORT_IGES
100
AcDbLine
 62
7
  6
CONTINUOUS
 10
4.386806897
 20
15.0630893509
 11
3.9487500034
 21
15.2821177977
  0
LINE
  5
55C
100
AcDbEntity
  8
IMPORT_IGES
100
AcDbLine
 62
7
  6
CONTINUOUS
 10
3.0155818914
 20
15.7487018537
 11
2.9212336334
 21
15.7958759827
  0
LWPOLYLINE
  5
55D
100
AcDbEntity
  8
IMPORT_IGES
100
AcDbPolyline
 62
253
  6
CONTINUOUS
 90
6
 70
0
 10
7.2401422909
 20
11.8363493637
 10
6.2752748894
 20
12.3330632112
 10
5.3071186403
 20
12.8278547908
 10
4.3356735435
 20
13.3207241026
 10
3.360889855
 20
13.8117004786
 10
2.7078497273
 20
14.1382324539
  0
LWPOLYLINE
  5
55E
100
AcDbEntity
  8
RACCORDO
100
AcDbPolyline
 62
7
  6
CONTINUOUS
 90
22
 70
0
 10
-14.9309034382
 20
23.4949870729
 10
-14.9396222288
 20
23.4995613311
 10
-14.9514298079
 20
23.5064833095
 10
-14.9628279139
 20
23.5140319999
 10
-14.9737418697
 20
23.5221496284
 10
-14.9841635778
 20
23.5308184044
 10
-14.9941383295
 20
23.5400768064
 10
-15.0036440179
 20
23.5499184469
 10
-15.0126202242
 20
23.5602937435
 10
-15.0210453181
 20
23.5711890305
 10
-15.0288824009
 20
23.5825699528
 10
-15.0360992662
 20
23.5944024327
 10
-15.0426783237
 20
23.6066745794
 10
-15.0485897767
 20
23.6193537573
 10
-15.0538017573
 20
23.6323954643
 10
-15.058291551
 20
23.6457696935
 10
-15.0620332596
 20
23.6594312028
 10
-15.0650049871
 20
23.6733356433
 10
-15.0671897219
 20
23.6874524785
 10
-15.0685684679
 20
23.70172825
 10
-15.0691268608
 20
23.7161153097
 10
-15.0691393427
 20
23.7186255142
  0
LWPOLYLINE
  5
55F
100
AcDbEntity
  8
RACCORDO
100
AcDbPolyline
 62
7
  6
CONTINUOUS
 90
22
 70
0
 10
-1.5665852738
 20
16.8128279907
 10
-1.5753040644
 20
16.8174022489
 10
-1.5871116435
 20
16.8243242273
 10
-1.5985097495
 20
16.8318729177
 10
-1.6094237053
 20
16.8399905462
 10
-1.6198454134
 20
16.8486593222
 10
-1.6298201651
 20
16.8579177242
 10
-1.6393258535
 20
16.8677593647
 10
-1.6483020598
 20
16.8781346613
 10
-1.6567271536
 20
16.8890299482
 10
-1.6645642364
 20
16.9004108706
 10
-1.6717811017
 20
16.9122433505
 10
-1.6783601593
 20
16.9245154972
 10
-1.6842716122
 20
16.9371946751
 10
-1.6894835929
 20
16.9502363821
 10
-1.6939733866
 20
16.9636106113
 10
-1.6977150952
 20
16.9772721206
 10
-1.7006868227
 20
16.9911765611
 10
-1.7028715575
 20
17.0052933963
 10
-1.7042503035
 20
17.0195691678
 10
-1.7048086964
 20
17.0339562275
 10
-1.7048211783
 20
17.036466432
  0
LWPOLYLINE
  5
560
100
AcDbEntity
  8
RACCORDO
100
AcDbPolyline
 62
253
  6
CONTINUOUS
 90
16
 70
0
 10
-14.9959160392
 20
23.6302251638
 10
-15.004893964
 20
23.6349546489
 10
-15.013366413
 20
23.6399117871
 10
-15.0213103307
 20
23.645083089
 10
-15.0287040895
 20
23.6504544742
 10
-15.0355275816
 20
23.6560113338
 10
-15.0417622656
 20
23.6617385725
 10
-15.0473911833
 20
23.6676206252
 10
-15.0523989891
 20
23.6736414704
 10
-15.0567720286
 20
23.6797846975
 10
-15.0604983963
 20
23.6860335797
 10
-15.0635679588
 20
23.6923711211
 10
-15.0659723628
 20
23.6987800753
 10
-15.0677050665
 20
23.705243007
 10
-15.0687613523
 20
23.7117423236
 10
-15.0691393439
 20
23.7186135127
  0
LWPOLYLINE
  5
561
100
AcDbEntity
  8
RACCORDO
100
AcDbPolyline
 62
253
  6
CONTINUOUS
 90
16
 70
0
 10
-14.9959160392
 20
23.9701990979
 10
-15.0048950261
 20
23.9749291726
 10
-15.0133684303
 20
23.9798869659
 10
-15.0213131845
 20
23.9850589848
 10
-15.0287076677
 20
23.9904311589
 10
-15.0355317402
 20
23.9959888617
 10
-15.0417668045
 20
24.0017169485
 10
-15.0473958869
 20
24.0075998231
 10
-15.0524036716
 20
24.0136214768
 10
-15.0567765258
 20
24.0197655131
 10
-15.0605025496
 20
24.0260152068
 10
-15.0635716053
 20
24.0323535477
 10
-15.065975342
 20
24.0387632807
 10
-15.0677072227
 20
24.0452269665
 10
-15.0687625346
 20
24.051727004
 10
-15.0691393439
 20
24.0585874485
  0
LWPOLYLINE
  5
562
100
AcDbEntity
  8
RACCORDO
100
AcDbPolyline
 62
253
  6
CONTINUOUS
 90
16
 70
0
 10
-1.6315978748
 20
16.9480660816
 10
-1.6405757996
 20
16.9527955667
 10
-1.6490482486
 20
16.9577527049
 10
-1.6569921663
 20
16.9629240068
 10
-1.6643859251
 20
16.968295392
 10
-1.6712094172
 20
16.9738522516
 10
-1.6774441012
 20
16.9795794903
 10
-1.6830730189
 20
16.985461543
 10
-1.6880808247
 20
16.9914823882
 10
-1.6924538642
 20
16.9976256153
 10
-1.6961802319
 20
17.0038744975
 10
-1.6992497944
 20
17.0102120389
 10
-1.7016541984
 20
17.0166209931
 10
-1.703386902
 20
17.0230839248
 10
-1.7044431879
 20
17.0295832414
 10
-1.7048211795
 20
17.0364544305
  0
LWPOLYLINE
  5
563
100
AcDbEntity
  8
RACCORDO
100
AcDbPolyline
 62
253
  6
CONTINUOUS
 90
16
 70
0
 10
-1.6315978748
 20
17.2880400157
 10
-1.640574942
 20
17.2927690248
 10
-1.6490466346
 20
17.2977256433
 10
-1.6569899039
 20
17.3028963859
 10
-1.664383139
 20
17.3082671847
 10
-1.6712062252
 20
17.3138234275
 10
-1.6774405993
 20
17.3195499977
 10
-1.6830692994
 20
17.3254313151
 10
-1.6880770119
 20
17.3314513786
 10
-1.6924501124
 20
17.3375938096
 10
-1.696176703
 20
17.3438418967
 10
-1.6992466451
 20
17.3501786407
 10
-1.7016515862
 20
17.3565868015
 10
-1.7033849834
 20
17.3630489447
 10
-1.7044421206
 20
17.3695474889
 10
-1.7048211795
 20
17.3764283633
  0
LWPOLYLINE
  5
564
100
AcDbEntity
  8
IMPORT_IGES
100
AcDbPolyline
 62
253
  6
CONTINUOUS
 90
10
 70
0
 10
7.2401450132
 20
11.8363480025
 10
7.2521715596
 20
11.8296061631
 10
7.2639107177
 20
11.8218762782
 10
7.2753208328
 20
11.8131815876
 10
7.2863652197
 20
11.8035417497
 10
7.2969974472
 20
11.7929914342
 10
7.3071625556
 20
11.7815846177
 10
7.3168169234
 20
11.7693671867
 10
7.3259273177
 20
11.7563724139
 10
7.3344569106
 20
11.7426425387
  0
LINE
  5
565
100
AcDbEntity
  8
IMPORT_IGES
100
AcDbLine
 62
253
  6
CONTINUOUS
 10
7.8610025892
 20
12.5139436839
 11
7.8446017277
 21
12.5232675367
  0
LINE
  5
566
100
AcDbEntity
  8
IMPORT_IGES
100
AcDbLine
 62
7
  6
CONTINUOUS
 10
7.7590160748
 20
12.622288363
 11
7.7286513747
 21
12.6395505108
  0
LWPOLYLINE
  5
567
100
AcDbEntity
  8
IMPORT_IGES
100
AcDbPolyline
 62
253
  6
CONTINUOUS
 90
4
 70
0
 10
7.6839147509
 20
12.6367168065
 10
7.7060008236
 20
12.6238704482
 10
7.7241336291
 20
12.6102686247
 10
7.7383131675
 20
12.5959113359
  0
LWPOLYLINE
  5
568
100
AcDbEntity
  8
RACCORDO
100
AcDbPolyline
 62
7
  6
CONTINUOUS
 90
37
 70
0
 10
1.6470843142
 20
15.8252868527
 10
1.6619865985
 20
15.8164884444
 10
1.6768910471
 20
15.8069107902
 10
1.6917695873
 20
15.7965676699
 10
1.7066140018
 20
15.7854641578
 10
1.7213756813
 20
15.7736260206
 10
1.7359673312
 20
15.7611073969
 10
1.750347604
 20
15.7479439453
 10
1.7645060968
 20
15.7341554712
 10
1.7784049043
 20
15.719782457
 10
1.7920008975
 20
15.7048780044
 10
1.8052916248
 20
15.6894534994
 10
1.8182988509
 20
15.6734837601
 10
1.8310061482
 20
15.6569854311
 10
1.8433806815
 20
15.6399978487
 10
1.8554153906
 20
15.6225237031
 10
1.8671035879
 20
15.6045635021
 10
1.8784008774
 20
15.5861753852
 10
1.8892469196
 20
15.5674519473
 10
1.8996209906
 20
15.5484332583
 10
1.9095070894
 20
15.5291520931
 10
1.9188617949
 20
15.5096965001
 10
1.9276700666
 20
15.4901133978
 10
1.9359253215
 20
15.4704332507
 10
1.9436051127
 20
15.4507216479
 10
1.950698272
 20
15.431033175
 10
1.957207475
 20
15.4113881109
 10
1.9631335515
 20
15.3917998067
 10
1.9684724052
 20
15.372305937
 10
1.9732227485
 20
15.3529381418
 10
1.9773869584
 20
15.3336996915
 10
1.9809636329
 20
15.3146170054
 10
1.9839498052
 20
15.2957292998
 10
1.9863437011
 20
15.2770585915
 10
1.9881446238
 20
15.2586329943
 10
1.9893538505
 20
15.2404864153
 10
1.9899733044
 20
15.2226487243
  0
LINE
  5
569
100
AcDbEntity
  8
IMPORT_IGES
100
AcDbLine
 62
7
  6
CONTINUOUS
 10
17.0214757388
 20
4.1642015608
 11
15.8125860544
 21
5.0451648063
  0
LINE
  5
56A
100
AcDbEntity
  8
IMPORT_IGES
100
AcDbLine
 62
7
  6
CONTINUOUS
 10
15.8407468997
 20
5.1459711953
 11
17.2302752934
 21
4.1333697486
  0
LWPOLYLINE
  5
56B
100
AcDbEntity
  8
IMPORT_IGES
100
AcDbPolyline
 62
7
  6
CONTINUOUS
 90
3
 70
0
 10
7.8078987542
 20
12.5816225834
 10
7.785444028
 20
12.6029325935
 10
7.7590160748
 20
12.622288363
  0
LWPOLYLINE
  5
56C
100
AcDbEntity
  8
IMPORT_IGES
100
AcDbPolyline
 62
253
  6
CONTINUOUS
 90
4
 70
0
 10
7.7383131675
 20
12.5959113359
 10
7.7486110826
 20
12.5805392921
 10
7.7549557306
 20
12.5644117829
 10
7.7571321799
 20
12.5483066782
  0
LINE
  5
56D
100
AcDbEntity
  8
IMPORT_IGES
100
AcDbLine
 62
253
  6
CONTINUOUS
 10
15.4254730843
 20
13.6868318979
 11
15.418691809
 21
13.928689709
  0
LINE
  5
56E
100
AcDbEntity
  8
IMPORT_IGES
100
AcDbLine
 62
7
  6
CONTINUOUS
 10
15.4869430983
 20
13.6560968908
 11
15.4773991734
 21
14.0011693003
  0
LWPOLYLINE
  5
56F
100
AcDbEntity
  8
IMPORT_IGES
100
AcDbPolyline
 62
7
  6
CONTINUOUS
 90
10
 70
0
 10
17.1808459743
 20
0.6898024252
 10
17.180834357
 20
0.6461629981
 10
17.1820447569
 20
0.6032857359
 10
17.1844771742
 20
0.5611706386
 10
17.1881372948
 20
0.5197710813
 10
17.1930194327
 20
0.4791336889
 10
17.1991065293
 20
0.4393983358
 10
17.2063928984
 20
0.4006116471
 10
17.2148842262
 20
0.3627269978
 10
17.2245805127
 20
0.3257443879
  0
LINE
  5
570
100
AcDbEntity
  8
IMPORT_IGES
100
AcDbLine
 62
253
  6
CONTINUOUS
 10
16.9478752547
 20
-0.9632193459
 11
17.0214757388
 21
4.1642015608
  0
LINE
  5
571
100
AcDbEntity
  8
IMPORT_IGES
100
AcDbLine
 62
7
  6
CONTINUOUS
 10
17.035744627
 20
-0.8569410573
 11
17.1067399728
 21
4.0889913624
  0
LINE
  5
572
100
AcDbEntity
  8
IMPORT_IGES
100
AcDbLine
 62
7
  6
CONTINUOUS
 10
17.2302752725
 20
4.1333697637
 11
17.1808453052
 21
0.6898020907
  0
LINE
  5
573
100
AcDbEntity
  8
IMPORT_IGES
100
AcDbLine
 62
7
  6
CONTINUOUS
 10
17.0357450681
 20
-0.8569400204
 11
17.034147063
 21
-0.8908376973
  0
LWPOLYLINE
  5
574
100
AcDbEntity
  8
IMPORT_IGES
100
AcDbPolyline
 62
253
  6
CONTINUOUS
 90
3
 70
0
 10
15.5903282369
 20
-3.2036786235
 10
15.5892368381
 20
-3.2252590537
 10
15.5866111029
 20
-3.2458772988
  0
LWPOLYLINE
  5
575
100
AcDbEntity
  8
IMPORT_IGES
100
AcDbPolyline
 62
253
  6
CONTINUOUS
 90
10
 70
0
 10
16.9478752547
 20
-0.9632193459
 10
16.947085996
 20
-0.9786761551
 10
16.9452669483
 20
-0.9943142744
 10
16.9424181116
 20
-1.010133704
 10
16.9385021205
 20
-1.0262576301
 10
16.9335563404
 20
-1.0425628665
 10
16.9276928678
 20
-1.0586798534
 10
16.9209490683
 20
-1.0744854043
 10
16.9132875763
 20
-1.0901027058
 10
16.9047083919
 20
-1.1055317579
  0
LWPOLYLINE
  5
576
100
AcDbEntity
  8
IMPORT_IGES
100
AcDbPolyline
 62
7
  6
CONTINUOUS
 90
9
 70
0
 10
17.034147063
 20
-0.8908376973
 10
17.0304005405
 20
-0.9245119203
 10
17.0245978268
 20
-0.9579201701
 10
17.0167643675
 20
-0.9911947714
 10
17.0069585413
 20
-1.0241759108
 10
16.995368033
 20
-1.0563947631
 10
16.9821271334
 20
-1.0876910864
 10
16.9672206922
 20
-1.1182136296
 10
16.950658048
 20
-1.1479492882
  0
LWPOLYLINE
  5
577
100
AcDbEntity
  8
IMPORT_IGES
100
AcDbPolyline
 62
253
  6
CONTINUOUS
 90
7
 70
0
 10
15.5866111029
 20
-3.2458772988
 10
15.5824701139
 20
-3.2653833456
 10
15.5768443396
 20
-3.2836350931
 10
15.5697743574
 20
-3.3004999152
 10
15.5613105556
 20
-3.3158556262
 10
15.5515141694
 20
-3.3295906682
 10
15.5404568331
 20
-3.3416049243
  0
LWPOLYLINE
  5
578
100
AcDbEntity
  8
IMPORT_IGES
100
AcDbPolyline
 62
253
  6
CONTINUOUS
 90
3
 70
0
 10
18.634593675
 20
5.4720496434
 10
18.6778585157
 20
5.6679818777
 10
18.7114585453
 20
5.894224298
  0
LWPOLYLINE
  5
579
100
AcDbEntity
  8
IMPORT_IGES
100
AcDbPolyline
 62
7
  6
CONTINUOUS
 90
4
 70
0
 10
18.6326137133
 20
5.3341144471
 10
18.6429392673
 20
5.3626577504
 10
18.6970472271
 20
5.5540584238
 10
18.7394534098
 20
5.754853077
  0
LINE
  5
57A
100
AcDbEntity
  8
RACCORDO
100
AcDbLine
 62
253
  6
CONTINUOUS
 10
0.4040931848
 20
-24.0372768064
 11
-0.2182248473
 21
-24.7823362239
  0
LINE
  5
57B
100
AcDbEntity
  8
RACCORDO
100
AcDbLine
 62
253
  6
CONTINUOUS
 10
0.7571293728
 20
-24.1630466444
 11
0.0459087647
 21
-25.0145431216
  0
LINE
  5
57C
100
AcDbEntity
  8
RACCORDO
100
AcDbLine
 62
253
  6
CONTINUOUS
 10
7.0154181625
 20
-15.8236706814
 11
2.7078497273
 21
-17.0982929013
  0
LINE
  5
57D
100
AcDbEntity
  8
IMPORT_IGES
100
AcDbLine
 62
7
  6
CONTINUOUS
 10
14.5177080615
 20
13.987017493
 11
14.4838990243
 21
13.9924329214
  0
LINE
  5
57E
100
AcDbEntity
  8
RACCORDO
100
AcDbLine
 62
7
  6
CONTINUOUS
 10
-0.1809347288
 20
16.129239857
 11
0.4446719648
 21
15.9986184607
  0
LINE
  5
57F
100
AcDbEntity
  8
RACCORDO
100
AcDbLine
 62
253
  6
CONTINUOUS
 10
0.0459087647
 20
16.2850610178
 11
0.7571293728
 21
16.1365574949
  0
LWPOLYLINE
  5
580
100
AcDbEntity
  8
RACCORDO
100
AcDbPolyline
 62
7
  6
CONTINUOUS
 90
10
 70
0
 10
-0.1809347288
 20
16.129239857
 10
-0.1884763261
 20
16.1309366377
 10
-0.1959795811
 20
16.1328706287
 10
-0.2034338075
 20
16.1350406874
 10
-0.2108445196
 20
16.137450566
 10
-0.2181834543
 20
16.1400928617
 10
-0.225392797
 20
16.1429447869
 10
-0.2324503949
 20
16.1459919416
 10
-0.239365545
 20
16.1492325009
 10
-0.2416505157
 20
16.150360601
  0
LINE
  5
581
100
AcDbEntity
  8
IMPORT_IGES
100
AcDbLine
 62
7
  6
CONTINUOUS
 10
14.5504900659
 20
13.9774633996
 11
14.5177080615
 21
13.987017493
  0
LWPOLYLINE
  5
582
100
AcDbEntity
  8
IMPORT_IGES
100
AcDbPolyline
 62
253
  6
CONTINUOUS
 90
4
 70
0
 10
16.0158554279
 20
13.3797096982
 10
15.9987891296
 20
13.3846880741
 10
15.9804897361
 20
13.3858356374
 10
15.961360921
 20
13.3832321267
  0
LWPOLYLINE
  5
583
100
AcDbEntity
  8
IMPORT_IGES
100
AcDbPolyline
 62
253
  6
CONTINUOUS
 90
7
 70
0
 10
18.9359503556
 20
9.9091170863
 10
18.8912785687
 20
9.9285645968
 10
18.8475643327
 20
9.9419092457
 10
18.8052604644
 20
9.9491950762
 10
18.7650266632
 20
9.9505450576
 10
18.7269629923
 20
9.946197276
 10
18.6907296918
 20
9.9361407587
  0
LWPOLYLINE
  5
584
100
AcDbEntity
  8
IMPORT_IGES
100
AcDbPolyline
 62
253
  6
CONTINUOUS
 90
27
 70
0
 10
11.2191957156
 20
14.2311519647
 10
11.2596315584
 20
14.2133968185
 10
11.3025263023
 20
14.1984061765
 10
11.3478799472
 20
14.1861800386
 10
11.3964011185
 20
14.1766493405
 10
11.4473811909
 20
14.1698831465
 10
11.4986942888
 20
14.1660886493
 10
11.5501963701
 20
14.1653605269
 10
11.6020314769
 20
14.1676041014
 10
11.6525058595
 20
14.1727425323
 10
11.7017400815
 20
14.1808909754
 10
11.7496135792
 20
14.1919342749
 10
11.7940709124
 20
14.2054501229
 10
11.8349270615
 20
14.2215455347
 10
11.8723670461
 20
14.2401134949
 10
11.9048904839
 20
14.260410649
 10
11.9322885709
 20
14.2825086171
 10
11.9547701111
 20
14.3063357791
 10
11.9714611352
 20
14.3309339197
 10
11.9821592598
 20
14.3562850813
 10
11.9870668682
 20
14.3824072216
 10
11.9859171412
 20
14.4083959981
 10
11.9784616592
 20
14.4343340835
 10
11.9649488417
 20
14.4601388051
 10
11.9458571288
 20
14.4846578014
 10
11.9213460004
 20
14.5075069521
 10
11.8912559764
 20
14.5290703775
  0
LINE
  5
585
100
AcDbEntity
  8
IMPORT_IGES
100
AcDbLine
 62
7
  6
CONTINUOUS
 10
19.0701144342
 20
9.9176376224
 11
19.0231328584
 21
9.9383513688
  0
LWPOLYLINE
  5
586
100
AcDbEntity
  8
RACCORDO
100
AcDbPolyline
 62
253
  6
CONTINUOUS
 90
14
 70
0
 10
2.1094579814
 20
18.0026752063
 10
2.1020305608
 20
18.005994724
 10
2.0944476182
 20
18.0086324241
 10
2.0866011999
 20
18.0106452947
 10
2.0785129086
 20
18.0120278196
 10
2.0702049408
 20
18.0127762799
 10
2.0616997684
 20
18.0128887241
 10
2.0530203057
 20
18.0123648752
 10
2.0441882152
 20
18.0112058333
 10
2.0352294322
 20
18.0094147979
 10
2.0261740953
 20
18.0069983675
 10
2.0170489265
 20
18.0039649961
 10
2.007876922
 20
18.0003236389
 10
1.9986830236
 20
17.9960853143
  0
LWPOLYLINE
  5
587
100
AcDbEntity
  8
RACCORDO
100
AcDbPolyline
 62
253
  6
CONTINUOUS
 90
14
 70
0
 10
0.7721318209
 20
18.6713382865
 10
0.7647044002
 20
18.6746578042
 10
0.7571214576
 20
18.6772955044
 10
0.7492750393
 20
18.679308375
 10
0.741186748
 20
18.6806908999
 10
0.7328787802
 20
18.6814393602
 10
0.7243736079
 20
18.6815518044
 10
0.7156941451
 20
18.6810279555
 10
0.7068620546
 20
18.6798689135
 10
0.6979032716
 20
18.6780778781
 10
0.6888479348
 20
18.6756614478
 10
0.679722766
 20
18.6726280764
 10
0.6705507614
 20
18.6689867192
 10
0.6613568631
 20
18.6647483946
  0
LWPOLYLINE
  5
588
100
AcDbEntity
  8
RACCORDO
100
AcDbPolyline
 62
253
  6
CONTINUOUS
 90
15
 70
0
 10
-14.8201677832
 20
24.2745759129
 10
-14.8294716169
 20
24.2788783376
 10
-14.8387471317
 20
24.2825769863
 10
-14.8479689053
 20
24.2856617217
 10
-14.8571116624
 20
24.2881240891
 10
-14.8661503446
 20
24.2899573396
 10
-14.8750601784
 20
24.2911564486
 10
-14.8838167437
 20
24.2917181297
 10
-14.8923960404
 20
24.2916408433
 10
-14.9007745542
 20
24.2909248012
 10
-14.9089293212
 20
24.289571966
 10
-14.9168379907
 20
24.2875860456
 10
-14.9244788866
 20
24.284972483
 10
-14.9318310665
 20
24.2817384414
 10
-14.9332534493
 20
24.281023888
  0
LWPOLYLINE
  5
589
100
AcDbEntity
  8
RACCORDO
100
AcDbPolyline
 62
7
  6
CONTINUOUS
 90
16
 70
0
 10
0.1269069844
 20
18.404400928
 10
0.1184959089
 20
18.4083614118
 10
0.1101036913
 20
18.4118223906
 10
0.1017494436
 20
18.4147760743
 10
0.0934522696
 20
18.4172158624
 10
0.0852309713
 20
18.4191362286
 10
0.0771040055
 20
18.4205327339
 10
0.0690898401
 20
18.4214022426
 10
0.0612067207
 20
18.4217428292
 10
0.0534723785
 20
18.4215536537
 10
0.045904371
 20
18.4208351619
 10
0.0385199141
 20
18.4195890162
 10
0.0313356515
 20
18.4178179936
 10
0.0243678728
 20
18.4155261123
 10
0.0176324136
 20
18.4127185892
 10
0.0159747956
 20
18.4119310859
  0
LWPOLYLINE
  5
58A
100
AcDbEntity
  8
RACCORDO
100
AcDbPolyline
 62
7
  6
CONTINUOUS
 90
16
 70
0
 10
-13.23741118
 20
25.0865600102
 10
-13.2458222555
 20
25.090520494
 10
-13.2542144731
 20
25.0939814728
 10
-13.2625687208
 20
25.0969351566
 10
-13.2708658948
 20
25.0993749446
 10
-13.2790871932
 20
25.1012953108
 10
-13.287214159
 20
25.1026918161
 10
-13.2952283243
 20
25.1035613248
 10
-13.3031114437
 20
25.1039019114
 10
-13.3108457859
 20
25.1037127359
 10
-13.3184137934
 20
25.1029942441
 10
-13.3257982504
 20
25.1017480984
 10
-13.3329825129
 20
25.0999770758
 10
-13.3399502916
 20
25.0976851946
 10
-13.3466857508
 20
25.0948776714
 10
-13.3483433689
 20
25.0940901681
  0
LWPOLYLINE
  5
58B
100
AcDbEntity
  8
RACCORDO
100
AcDbPolyline
 62
253
  6
CONTINUOUS
 90
14
 70
0
 10
0.6613568631
 20
18.6647483946
 10
0.6521578534
 20
18.6691032313
 10
0.6429812377
 20
18.6728513296
 10
0.6338521674
 20
18.6759824166
 10
0.6247956636
 20
18.6784879106
 10
0.6158365484
 20
18.6803609446
 10
0.6069993771
 20
18.6815963849
 10
0.5983083707
 20
18.6821908454
 10
0.5897873496
 20
18.6821426968
 10
0.5814596684
 20
18.681452071
 10
0.5733481516
 20
18.680120861
 10
0.5654750315
 20
18.6781527152
 10
0.5578618867
 20
18.6755530281
 10
0.550844752
 20
18.6724831856
  0
LWPOLYLINE
  5
58C
100
AcDbEntity
  8
RACCORDO
100
AcDbPolyline
 62
253
  6
CONTINUOUS
 90
14
 70
0
 10
-12.7029613014
 20
25.3469074768
 10
-12.7121384089
 20
25.3512526538
 10
-12.7212990274
 20
25.3549961643
 10
-12.7304180719
 20
25.3581266362
 10
-12.7394723771
 20
25.3606348013
 10
-12.7484350674
 20
25.3625118878
 10
-12.7572758554
 20
25.3637509777
 10
-12.7659686139
 20
25.3643486133
 10
-12.7744914566
 20
25.3643034977
 10
-12.7828212485
 20
25.3636157274
 10
-12.7909352905
 20
25.3622871037
 10
-12.7988111537
 20
25.360321224
 10
-12.8064269976
 20
25.3577235143
 10
-12.813473412
 20
25.3546422681
  0
LWPOLYLINE
  5
58D
100
AcDbEntity
  8
IMPORT_IGES
100
AcDbPolyline
 62
7
  6
CONTINUOUS
 90
10
 70
0
 10
18.4056202696
 20
9.2109393414
 10
18.38066829
 20
9.2227717021
 10
18.3557940439
 20
9.233610183
 10
18.3309975314
 20
9.2434547842
 10
18.3062542229
 20
9.2523133269
 10
18.281588648
 20
9.2601779899
 10
18.2570743949
 20
9.2670253095
 10
18.232735993
 20
9.2728474644
 10
18.2085489129
 20
9.2776522758
 10
18.1845131545
 20
9.2814397437
  0
LINE
  5
58E
100
AcDbEntity
  8
IMPORT_IGES
100
AcDbLine
 62
253
  6
CONTINUOUS
 10
19.3174669199
 20
9.7939612666
 11
19.3176018076
 21
9.7938939357
  0
LINE
  5
58F
100
AcDbEntity
  8
IMPORT_IGES
100
AcDbLine
 62
253
  6
CONTINUOUS
 10
19.0699795465
 20
9.9177049533
 11
19.0701144342
 21
9.9176376224
  0
LINE
  5
590
100
AcDbEntity
  8
RACCORDO
100
AcDbLine
 62
253
  6
CONTINUOUS
 10
-3.4121285156
 20
18.9971561458
 11
-9.4878831654
 21
22.0350334707
  0
LINE
  5
591
100
AcDbEntity
  8
RACCORDO
100
AcDbLine
 62
7
  6
CONTINUOUS
 10
-11.7171286089
 20
23.2073144687
 11
-10.3090858739
 21
22.5032931012
  0
LINE
  5
592
100
AcDbEntity
  8
RACCORDO
100
AcDbLine
 62
7
  6
CONTINUOUS
 10
1.6471895555
 20
16.5251553864
 11
2.3541886266
 21
16.1716558509
  0
LINE
  5
593
100
AcDbEntity
  8
IMPORT_IGES
100
AcDbLine
 62
253
  6
CONTINUOUS
 10
18.0520668086
 20
8.6011499795
 11
18.2995528995
 21
8.477406934
  0
LINE
  5
594
100
AcDbEntity
  8
DRAFT
100
AcDbLine
 62
7
  6
CONTINUOUS
 10
-8.9947675013
 20
22.3590203882
 11
-2.7722278269
 21
19.247750551
  0
LINE
  5
595
100
AcDbEntity
  8
IMPORT_IGES
100
AcDbLine
 62
253
  6
CONTINUOUS
 10
18.4056202696
 20
9.2109393414
 11
18.6531076431
 21
9.0871956546
  0
LINE
  5
596
100
AcDbEntity
  8
IMPORT_IGES
100
AcDbLine
 62
7
  6
CONTINUOUS
 10
4.1784550106
 20
16.3640293973
 11
3.9762670638
 21
16.4651233707
  0
LINE
  5
597
100
AcDbEntity
  8
RACCORDO
100
AcDbLine
 62
7
  6
CONTINUOUS
 10
-13.23741118
 20
25.0865600102
 11
-11.8939023126
 21
24.4148055765
  0
LINE
  5
598
100
AcDbEntity
  8
RACCORDO
100
AcDbLine
 62
7
  6
CONTINUOUS
 10
0.1269069844
 20
18.404400928
 11
1.4704158519
 21
17.7326464942
  0
LINE
  5
599
100
AcDbEntity
  8
DRAFT
100
AcDbLine
 62
7
  6
CONTINUOUS
 10
-2.7015171487
 20
19.9144636047
 11
-7.6512646171
 21
22.3893373388
  0
LINE
  5
59A
100
AcDbEntity
  8
IMPORT_IGES
100
AcDbLine
 62
7
  6
CONTINUOUS
 10
4.0452158101
 20
16.6038540783
 11
4.4001683867
 21
16.42637779
  0
LINE
  5
59B
100
AcDbEntity
  8
IMPORT_IGES
100
AcDbLine
 62
7
  6
CONTINUOUS
 10
18.6531076431
 20
9.5202083566
 11
18.4056202697
 21
9.6439520433
  0
LINE
  5
59C
100
AcDbEntity
  8
IMPORT_IGES
100
AcDbLine
 62
7
  6
CONTINUOUS
 10
4.314039269
 20
16.7970986607
 11
4.8183909351
 21
16.5449228276
  0
LINE
  5
59D
100
AcDbEntity
  8
RACCORDO
100
AcDbLine
 62
253
  6
CONTINUOUS
 10
-12.7029613014
 20
25.3469074768
 11
-11.3656351408
 21
24.6782443965
  0
LINE
  5
59E
100
AcDbEntity
  8
RACCORDO
100
AcDbLine
 62
253
  6
CONTINUOUS
 10
0.6613568631
 20
18.6647483946
 11
1.9986830236
 21
17.9960853143
  0
LINE
  5
59F
100
AcDbEntity
  8
RACCORDO
100
AcDbLine
 62
7
  6
CONTINUOUS
 10
-12.5921863418
 20
25.3534973679
 11
-11.2548601813
 21
24.6848342876
  0
LINE
  5
5A0
100
AcDbEntity
  8
RACCORDO
100
AcDbLine
 62
7
  6
CONTINUOUS
 10
0.7721318226
 20
18.6713382857
 11
2.1094579832
 21
18.0026752054
  0
LINE
  5
5A1
100
AcDbEntity
  8
IMPORT_IGES
100
AcDbLine
 62
253
  6
CONTINUOUS
 10
18.9359503556
 20
9.9091170863
 11
19.183437729
 21
9.7853733996
  0
LINE
  5
5A2
100
AcDbEntity
  8
IMPORT_IGES
100
AcDbLine
 62
7
  6
CONTINUOUS
 10
5.3640023057
 20
16.6955567246
 11
5.8019481835
 21
16.4765837857
  0
LINE
  5
5A3
100
AcDbEntity
  8
IMPORT_IGES
100
AcDbLine
 62
7
  6
CONTINUOUS
 10
5.8714716293
 20
16.4418220627
 11
6.3045978673
 21
16.2252589437
  0
LINE
  5
5A4
100
AcDbEntity
  8
IMPORT_IGES
100
AcDbLine
 62
7
  6
CONTINUOUS
 10
6.9219911827
 20
15.916562286
 11
6.9840871789
 21
15.8855142879
  0
LINE
  5
5A5
100
AcDbEntity
  8
IMPORT_IGES
100
AcDbLine
 62
7
  6
CONTINUOUS
 10
7.5990310765
 20
15.5780423391
 11
8.0225979379
 21
15.3662589084
  0
LINE
  5
5A6
100
AcDbEntity
  8
IMPORT_IGES
100
AcDbLine
 62
7
  6
CONTINUOUS
 10
8.260944542
 20
15.2470856064
 11
8.7036937961
 21
15.0257109793
  0
LINE
  5
5A7
100
AcDbEntity
  8
IMPORT_IGES
100
AcDbLine
 62
7
  6
CONTINUOUS
 10
9.549794436
 20
14.6026606594
 11
9.9399674726
 21
14.4075741411
  0
LINE
  5
5A8
100
AcDbEntity
  8
IMPORT_IGES
100
AcDbLine
 62
7
  6
CONTINUOUS
 10
19.0701144342
 20
9.9176376224
 11
19.3176018076
 21
9.7938939357
  0
LWPOLYLINE
  5
5A9
100
AcDbEntity
  8
RACCORDO
100
AcDbPolyline
 62
7
  6
CONTINUOUS
 90
22
 70
0
 10
2.1094643248
 20
18.0026720343
 10
2.1207329975
 20
17.9966728749
 10
2.1318119897
 20
17.9900228828
 10
2.1425418448
 20
17.9828027487
 10
2.1528935068
 20
17.9750298246
 10
2.1628462661
 20
17.9667162381
 10
2.1723724599
 20
17.9578802191
 10
2.1814419241
 20
17.9485447002
 10
2.1900301518
 20
17.9387294267
 10
2.1981110788
 20
17.9284578109
 10
2.2056586002
 20
17.9177562923
 10
2.21264928
 20
17.9066508548
 10
2.2190601007
 20
17.8951700755
 10
2.2248695546
 20
17.883343799
 10
2.2300582217
 20
17.8712017313
 10
2.2346080731
 20
17.8587743931
 10
2.2385013261
 20
17.84609711
 10
2.2417218569
 20
17.8332086556
 10
2.2442569329
 20
17.8201449418
 10
2.2460957865
 20
17.8069425715
 10
2.2472293892
 20
17.7936429315
 10
2.2476545843
 20
17.7790680583
  0
LWPOLYLINE
  5
5AA
100
AcDbEntity
  8
RACCORDO
100
AcDbPolyline
 62
7
  6
CONTINUOUS
 90
22
 70
0
 10
-11.2548601813
 20
24.6848342876
 10
-11.2432036154
 20
24.6786157033
 10
-11.2318482326
 20
24.6717620973
 10
-11.2208373871
 20
24.6642908333
 10
-11.210208825
 20
24.6562195654
 10
-11.2000073365
 20
24.6475758099
 10
-11.1902824127
 20
24.63839883
 10
-11.1811078941
 20
24.628765806
 10
-11.1724696251
 20
24.6186717899
 10
-11.1642991304
 20
24.6080220044
 10
-11.1565983345
 20
24.5967730263
 10
-11.1494648105
 20
24.5850204395
 10
-11.1429778065
 20
24.5728727973
 10
-11.1371741746
 20
24.5603971053
 10
-11.132063531
 20
24.5476150864
 10
-11.1276644927
 20
24.5345721299
 10
-11.1239929014
 20
24.5213186005
 10
-11.121057916
 20
24.5078950118
 10
-11.118864266
 20
24.4943258269
 10
-11.1174184941
 20
24.480641066
 10
-11.1167278096
 20
24.466894104
 10
-11.1166635805
 20
24.4612342759
  0
LWPOLYLINE
  5
5AB
100
AcDbEntity
  8
IMPORT_IGES
100
AcDbPolyline
 62
7
  6
CONTINUOUS
 90
10
 70
0
 10
18.6531076431
 20
9.0871956546
 10
18.7032245154
 20
9.0598353054
 10
18.7527394414
 20
9.029016548
 10
18.8016524211
 20
8.9947393826
 10
18.8501529995
 20
8.9568400376
 10
18.8980516317
 20
8.9154822844
 10
18.9447796825
 20
8.8711574374
 10
18.9901476069
 20
8.8240292679
 10
19.03434495
 20
8.7739340046
 10
19.0773717118
 20
8.7208716473
  0
LWPOLYLINE
  5
5AC
100
AcDbEntity
  8
IMPORT_IGES
100
AcDbPolyline
 62
7
  6
CONTINUOUS
 90
16
 70
0
 10
18.6531076431
 20
9.5202083566
 10
18.6984475103
 20
9.4943605706
 10
18.7422884457
 20
9.4639065316
 10
18.7846304491
 20
9.4288462394
 10
18.8258802158
 20
9.3887019647
 10
18.8656310505
 20
9.343951437
 10
18.9026628678
 20
9.2960278443
 10
18.9368963913
 20
9.2448439382
 10
18.9684108975
 20
9.1904869673
 10
18.9962241291
 20
9.1346518645
 10
19.0202323906
 20
9.0772935807
 10
19.0405393775
 20
9.0184571652
 10
19.0564739201
 20
8.9599726992
 10
19.0678122951
 20
8.9024502099
 10
19.0747782256
 20
8.8452796701
 10
19.0773717118
 20
8.78846108
  0
LWPOLYLINE
  5
5AD
100
AcDbEntity
  8
IMPORT_IGES
100
AcDbPolyline
 62
7
  6
CONTINUOUS
 90
10
 70
0
 10
17.2245820818
 20
0.3257475603
 10
17.2311628465
 20
0.3019274374
 10
17.2379230521
 20
0.2786653419
 10
17.2448655388
 20
0.2559803427
 10
17.2519849403
 20
0.2339015994
 10
17.2592908646
 20
0.2124380366
 10
17.2668096182
 20
0.191580118
 10
17.274552444
 20
0.1713394985
 10
17.2825137719
 20
0.1517472175
 10
17.290695611
 20
0.132824622
  0
LWPOLYLINE
  5
5AE
100
AcDbEntity
  8
IMPORT_IGES
100
AcDbPolyline
 62
253
  6
CONTINUOUS
 90
7
 70
0
 10
15.2071531112
 20
14.4999680898
 10
15.2106101261
 20
14.4764661734
 10
15.2113826505
 20
14.4525077524
 10
15.2095335654
 20
14.4280667307
 10
15.2050490984
 20
14.4033865211
 10
15.1979961707
 20
14.3790126491
 10
15.1884807083
 20
14.3553426878
  0
LWPOLYLINE
  5
5AF
100
AcDbEntity
  8
IMPORT_IGES
100
AcDbPolyline
 62
253
  6
CONTINUOUS
 90
8
 70
0
 10
17.0532025122
 20
12.6616687751
 10
17.0538620901
 20
12.6532718212
 10
17.0520641832
 20
12.6309604187
 10
17.0450850928
 20
12.6082917353
 10
17.0329536541
 20
12.5857859034
 10
17.015833034
 20
12.5638883416
 10
16.9939289013
 20
12.5429641564
 10
16.967559649
 20
12.5234130619
  0
LWPOLYLINE
  5
5B0
100
AcDbEntity
  8
IMPORT_IGES
100
AcDbPolyline
 62
253
  6
CONTINUOUS
 90
8
 70
0
 10
17.3703902965
 20
10.0916750476
 10
17.3710402813
 20
10.0833231437
 10
17.369242346
 20
10.0610652435
 10
17.3622865569
 20
10.0384475172
 10
17.3501854141
 20
10.0159666689
 10
17.3330791085
 20
9.9940616353
 10
17.311160954
 20
9.9731076995
 10
17.2847362784
 20
9.9535101341
  0
LWPOLYLINE
  5
5B1
100
AcDbEntity
  8
IMPORT_IGES
100
AcDbPolyline
 62
253
  6
CONTINUOUS
 90
16
 70
0
 10
18.7238183212
 20
7.7456589809
 10
18.7214599548
 20
7.8015498401
 10
18.7145095193
 20
7.8585639702
 10
18.7031878394
 20
7.9160363699
 10
18.6878646437
 20
7.9729742063
 10
18.6687751813
 20
8.0291373023
 10
18.6457717855
 20
8.0850156132
 10
18.6188412626
 20
8.1403224768
 10
18.588307333
 20
8.1941144721
 10
18.5543678804
 20
8.2458418075
 10
18.5172653281
 20
8.2949207142
 10
18.4773798864
 20
8.3406483392
 10
18.4351912736
 20
8.3823178081
 10
18.3911766662
 20
8.4193337282
 10
18.3457914169
 20
8.4511927007
 10
18.2995527099
 20
8.4774070288
  0
LINE
  5
5B2
100
AcDbEntity
  8
IMPORT_IGES
100
AcDbLine
 62
253
  6
CONTINUOUS
 10
18.5631085992
 20
6.507152045
 11
18.5603742699
 21
6.7001832621
  0
LINE
  5
5B3
100
AcDbEntity
  8
IMPORT_IGES
100
AcDbLine
 62
7
  6
CONTINUOUS
 10
18.6509589602
 20
6.6142752426
 11
18.6482466131
 21
6.805944844
  0
LINE
  5
5B4
100
AcDbEntity
  8
IMPORT_IGES
100
AcDbLine
 62
7
  6
CONTINUOUS
 10
17.981356201
 20
9.2688794028
 11
17.981356201
 21
9.3364688356
  0
LINE
  5
5B5
100
AcDbEntity
  8
IMPORT_IGES
100
AcDbLine
 62
7
  6
CONTINUOUS
 10
19.0773717118
 20
8.78846108
 11
19.0773717118
 21
8.7208716473
  0
LINE
  5
5B6
100
AcDbEntity
  8
IMPORT_IGES
100
AcDbLine
 62
7
  6
CONTINUOUS
 10
18.650958782
 20
6.612134427
 11
18.6509589883
 21
6.6142732474
  0
LINE
  5
5B7
100
AcDbEntity
  8
IMPORT_IGES
100
AcDbLine
 62
253
  6
CONTINUOUS
 10
18.5631081214
 20
6.5071518061
 11
18.4834131942
 21
0.955157949
  0
LINE
  5
5B8
100
AcDbEntity
  8
IMPORT_IGES
100
AcDbLine
 62
7
  6
CONTINUOUS
 10
18.6509586959
 20
6.6121284236
 11
18.5712988743
 21
1.0625802201
  0
LWPOLYLINE
  5
5B9
100
AcDbEntity
  8
IMPORT_IGES
100
AcDbPolyline
 62
7
  6
CONTINUOUS
 90
22
 70
0
 10
19.0773717118
 20
8.7208716473
 10
19.0768595059
 20
8.6898053201
 10
19.0749351355
 20
8.6572408418
 10
19.0715986004
 20
8.6231782123
 10
19.0669188237
 20
8.5876376713
 10
19.0608268824
 20
8.5505989792
 10
19.0531160077
 20
8.512001417
 10
19.0437766338
 20
8.4718220176
 10
19.0328183264
 20
8.4300837481
 10
19.0200630143
 20
8.386794791
 10
19.0054861984
 20
8.3419531117
 10
18.9891123777
 20
8.2955607448
 10
18.9708369773
 20
8.2476319764
 10
18.9506094773
 20
8.1981705927
 10
18.9284803975
 20
8.1471728075
 10
18.9044967228
 20
8.0946415486
 10
18.8785972195
 20
8.0406369743
 10
18.8508431213
 20
7.9850989263
 10
18.8214651138
 20
7.9278498577
 10
18.7905400922
 20
7.8688305861
 10
18.7579911613
 20
7.8081002938
 10
18.7238183212
 20
7.7456589809
  0
LINE
  5
5BA
100
AcDbEntity
  8
IMPORT_IGES
100
AcDbLine
 62
7
  6
CONTINUOUS
 10
18.5712988318
 20
1.0625772548
 11
18.5712780029
 21
1.0615667221
  0
LINE
  5
5BB
100
AcDbEntity
  8
IMPORT_IGES
100
AcDbLine
 62
253
  6
CONTINUOUS
 10
18.4834123393
 20
0.9551352588
 11
18.4831226753
 21
0.9453012925
  0
LINE
  5
5BC
100
AcDbEntity
  8
IMPORT_IGES
100
AcDbLine
 62
253
  6
CONTINUOUS
 10
18.4831226753
 20
0.9453012925
 11
18.4827838658
 21
0.9354982994
  0
LWPOLYLINE
  5
5BD
100
AcDbEntity
  8
IMPORT_IGES
100
AcDbPolyline
 62
253
  6
CONTINUOUS
 90
10
 70
0
 10
19.6077017977
 20
6.9751651539
 10
19.6049621659
 20
6.9003747548
 10
19.5968869778
 20
6.8296876512
 10
19.583718422
 20
6.7635195923
 10
19.565848785
 20
6.7025680064
 10
19.5435142088
 20
6.6467282725
 10
19.5165187424
 20
6.5953663363
 10
19.4848064648
 20
6.548713778
 10
19.4486560671
 20
6.5074735939
 10
19.4081565595
 20
6.4719685199
  0
LINE
  5
5BE
100
AcDbEntity
  8
IMPORT_IGES
100
AcDbLine
 62
7
  6
CONTINUOUS
 10
19.6926656388
 20
7.0045139674
 11
19.6955697633
 21
7.081231171
  0
LINE
  5
5BF
100
AcDbEntity
  8
IMPORT_IGES
100
AcDbLine
 62
253
  6
CONTINUOUS
 10
18.4827838658
 20
0.9354982994
 11
18.4823959368
 21
0.9257255024
  0
LWPOLYLINE
  5
5C0
100
AcDbEntity
  8
IMPORT_IGES
100
AcDbPolyline
 62
253
  6
CONTINUOUS
 90
16
 70
0
 10
18.6531076431
 20
9.0871956547
 10
18.6511423475
 20
9.0406200553
 10
18.6453503458
 20
8.9931083992
 10
18.6359156574
 20
8.9452148502
 10
18.6231463862
 20
8.8977667632
 10
18.6072385717
 20
8.8509642845
 10
18.5880691592
 20
8.8043991208
 10
18.5656271541
 20
8.7583101551
 10
18.5401823209
 20
8.7134835664
 10
18.5118995612
 20
8.6703775112
 10
18.4809809453
 20
8.6294784383
 10
18.4477432597
 20
8.5913720756
 10
18.4125861073
 20
8.5566475489
 10
18.3759070778
 20
8.5258010415
 10
18.3380856807
 20
8.4992520312
 10
18.2995528995
 20
8.477406934
  0
LWPOLYLINE
  5
5C1
100
AcDbEntity
  8
IMPORT_IGES
100
AcDbPolyline
 62
253
  6
CONTINUOUS
 90
3
 70
0
 10
18.4823959368
 20
0.9257255024
 10
18.4819587374
 20
0.9159788375
 10
18.4817216729
 20
0.9111156945
  0
LWPOLYLINE
  5
5C2
100
AcDbEntity
  8
IMPORT_IGES
100
AcDbPolyline
 62
7
  6
CONTINUOUS
 90
10
 70
0
 10
17.981356201
 20
9.3364688356
 10
17.9839509066
 20
9.3907012527
 10
17.9909185384
 20
9.4409113975
 10
18.0022590966
 20
9.4870992699
 10
18.0181966129
 20
9.5296509519
 10
18.0385070555
 20
9.5681803615
 10
18.062518329
 20
9.601529253
 10
18.0903340358
 20
9.6295487321
 10
18.1218505735
 20
9.6523876929
 10
18.1374638462
 20
9.6610303451
  0
LWPOLYLINE
  5
5C3
100
AcDbEntity
  8
IMPORT_IGES
100
AcDbPolyline
 62
253
  6
CONTINUOUS
 90
11
 70
0
 10
18.4817216729
 20
0.9111156945
 10
18.4705043203
 20
0.7811865788
 10
18.4497899383
 20
0.655428035
 10
18.4192750217
 20
0.5350530023
 10
18.3785129641
 20
0.4207797372
 10
18.3274956164
 20
0.314513461
 10
18.2671165239
 20
0.2188427528
 10
18.1979775688
 20
0.1347131963
 10
18.1204761768
 20
0.0626013201
 10
18.0359042828
 20
0.0035291969
 10
17.9885300587
 20
-0.0224034222
  0
LWPOLYLINE
  5
5C4
100
AcDbEntity
  8
IMPORT_IGES
100
AcDbPolyline
 62
253
  6
CONTINUOUS
 90
7
 70
0
 10
18.6482466542
 20
6.8059419329
 10
18.6462519139
 20
6.7879779191
 10
18.6390863698
 20
6.7688199675
 10
18.6267387865
 20
6.750110726
 10
18.6093538319
 20
6.7322227212
 10
18.5871294496
 20
6.7154697933
 10
18.5603769644
 20
6.7001846172
  0
LWPOLYLINE
  5
5C5
100
AcDbEntity
  8
IMPORT_IGES
100
AcDbPolyline
 62
253
  6
CONTINUOUS
 90
7
 70
0
 10
19.6955697633
 20
9.1596921401
 10
19.6935703758
 20
9.1424031627
 10
19.6864071532
 20
9.1229035119
 10
19.6740613407
 20
9.1039192943
 10
19.6566776436
 20
9.0858296414
 10
19.6344540137
 20
9.0689530707
 10
19.6077017977
 20
9.053626123
  0
LINE
  5
5C6
100
AcDbEntity
  8
IMPORT_IGES
100
AcDbLine
 62
7
  6
CONTINUOUS
 10
19.6840858594
 20
6.9310647038
 11
19.6926656388
 21
7.0045139674
  0
LWPOLYLINE
  5
5C7
100
AcDbEntity
  8
IMPORT_IGES
100
AcDbPolyline
 62
7
  6
CONTINUOUS
 90
7
 70
0
 10
18.5712780029
 20
1.0615667221
 10
18.5687488661
 20
1.0434850432
 10
18.5611361358
 20
1.0236996228
 10
18.5485715004
 20
1.0046557977
 10
18.5312314282
 20
0.986673565
 10
18.5093943465
 20
0.9700717239
 10
18.4834128518
 20
0.9551418514
  0
LINE
  5
5C8
100
AcDbEntity
  8
IMPORT_IGES
100
AcDbLine
 62
7
  6
CONTINUOUS
 10
18.7394534098
 20
5.754853077
 11
18.7699661576
 21
5.9643387527
  0
LWPOLYLINE
  5
5C9
100
AcDbEntity
  8
IMPORT_IGES
100
AcDbPolyline
 62
253
  6
CONTINUOUS
 90
3
 70
0
 10
19.6924820914
 20
7.0597656788
 10
19.6955349263
 20
7.0789452896
 10
19.6955697541
 20
7.0811939908
  0
LINE
  5
5CA
100
AcDbEntity
  8
RACCORDO
100
AcDbLine
 62
7
  6
CONTINUOUS
 10
7.2635624863
 20
-17.1301102814
 11
2.7078497273
 21
-19.4393422784
  0
LINE
  5
5CB
100
AcDbEntity
  8
RACCORDO
100
AcDbLine
 62
7
  6
CONTINUOUS
 10
6.3820270277
 20
-18.1868692824
 11
2.7078497273
 21
-20.0311018217
  0
LINE
  5
5CC
100
AcDbEntity
  8
RACCORDO
100
AcDbLine
 62
7
  6
CONTINUOUS
 10
7.2635624863
 20
-17.6274402383
 11
2.7078497273
 21
-19.8871073519
  0
LINE
  5
5CD
100
AcDbEntity
  8
DRAFT
100
AcDbLine
 62
7
  6
CONTINUOUS
 10
7.0154181625
 20
-16.6623679811
 11
2.7078497273
 21
-18.7950500348
  0
LINE
  5
5CE
100
AcDbEntity
  8
RACCORDO
100
AcDbLine
 62
7
  6
CONTINUOUS
 10
-18.9368494919
 20
13.7721957962
 11
-18.9273487238
 21
13.7747390957
  0
LWPOLYLINE
  5
5CF
100
AcDbEntity
  8
RACCORDO
100
AcDbPolyline
 62
7
  6
CONTINUOUS
 90
18
 70
0
 10
-3.4121285156
 20
18.9971561458
 10
-3.4294231836
 20
18.9956638102
 10
-3.4466175818
 20
18.9936702323
 10
-3.4636759196
 20
18.9912630494
 10
-3.480566753
 20
18.9885520958
 10
-3.4972710158
 20
18.9855950832
 10
-3.5137778357
 20
18.9823842352
 10
-3.5300712426
 20
18.9789740073
 10
-3.5461410356
 20
18.9754294776
 10
-3.5619841894
 20
18.9717355216
 10
-3.5775930011
 20
18.9679322393
 10
-3.5929620837
 20
18.9640686511
 10
-3.6080888117
 20
18.9601283773
 10
-3.6229698294
 20
18.95614233
 10
-3.6376023553
 20
18.9521482441
 10
-3.6519809802
 20
18.9481311147
 10
-3.6661045332
 20
18.9441159541
 10
-3.6935742789
 20
18.9361683419
  0
LWPOLYLINE
  5
5D0
100
AcDbEntity
  8
IMPORT_IGES
100
AcDbPolyline
 62
7
  6
CONTINUOUS
 90
4
 70
0
 10
6.6958582263
 20
18.5092766516
 10
6.7609414468
 20
18.5087641427
 10
6.8510684752
 20
18.4984459851
 10
6.9376228348
 20
18.4785982701
  0
LINE
  5
5D1
100
AcDbEntity
  8
RACCORDO
100
AcDbLine
 62
7
  6
CONTINUOUS
 10
-13.5452528932
 20
22.8113989392
 11
-12.9196461996
 21
22.6807775429
  0
LINE
  5
5D2
100
AcDbEntity
  8
RACCORDO
100
AcDbLine
 62
253
  6
CONTINUOUS
 10
-13.3184093997
 20
22.9672201
 11
-12.6071887916
 21
22.8187165772
  0
LWPOLYLINE
  5
5D3
100
AcDbEntity
  8
RACCORDO
100
AcDbPolyline
 62
7
  6
CONTINUOUS
 90
10
 70
0
 10
-13.5452528932
 20
22.8113989392
 10
-13.5527944905
 20
22.8130957199
 10
-13.5602977455
 20
22.8150297109
 10
-13.5677519719
 20
22.8171997696
 10
-13.575162684
 20
22.8196096482
 10
-13.5825016187
 20
22.822251944
 10
-13.5897109615
 20
22.8251038691
 10
-13.5967685594
 20
22.8281510238
 10
-13.6036837094
 20
22.8313915831
 10
-13.6059686801
 20
22.8325196832
  0
LWPOLYLINE
  5
5D4
100
AcDbEntity
  8
IMPORT_IGES
100
AcDbPolyline
 62
7
  6
CONTINUOUS
 90
4
 70
0
 10
6.9236350498
 20
18.4847350303
 10
6.8295838663
 20
18.5074288082
 10
6.7311655601
 20
18.5202994165
 10
6.7118883537
 20
18.5207999587
  0
LINE
  5
5D5
100
AcDbEntity
  8
IMPORT_IGES
100
AcDbLine
 62
7
  6
CONTINUOUS
 10
6.9376228348
 20
18.4785982701
 11
7.0201559056
 21
18.4493238711
  0
LWPOLYLINE
  5
5D6
100
AcDbEntity
  8
IMPORT_IGES
100
AcDbPolyline
 62
7
  6
CONTINUOUS
 90
10
 70
0
 10
12.3627785838
 20
15.7780125328
 10
12.2789792296
 20
15.8079194488
 10
12.1913004244
 20
15.8283279442
 10
12.1001908323
 20
15.8391351239
 10
12.0061167232
 20
15.8402882892
 10
11.9095607191
 20
15.8317826337
 10
11.8110189624
 20
15.8136598104
 10
11.7109973298
 20
15.7860118154
 10
11.6100091791
 20
15.7489819608
 10
11.5085736136
 20
15.7027605662
  0
LWPOLYLINE
  5
5D7
100
AcDbEntity
  8
IMPORT_IGES
100
AcDbPolyline
 62
253
  6
CONTINUOUS
 90
5
 70
0
 10
11.7588917378
 20
14.6546837168
 10
11.7504402103
 20
14.6577183647
 10
11.7391491396
 20
14.6587501407
 10
11.7269340886
 20
14.6568037982
 10
11.7141677573
 20
14.6518434092
  0
LINE
  5
5D8
100
AcDbEntity
  8
IMPORT_IGES
100
AcDbLine
 62
7
  6
CONTINUOUS
 10
7.012841192
 20
18.4526695407
 11
6.9236350498
 21
18.4847350303
  0
LINE
  5
5D9
100
AcDbEntity
  8
IMPORT_IGES
100
AcDbLine
 62
7
  6
CONTINUOUS
 10
14.5641917271
 20
13.9721065458
 11
14.5504900659
 21
13.9774633996
  0
LWPOLYLINE
  5
5DA
100
AcDbEntity
  8
IMPORT_IGES
100
AcDbPolyline
 62
253
  6
CONTINUOUS
 90
3
 70
0
 10
16.0957906886
 20
13.325458905
 10
16.074261012
 20
13.3339125642
 10
16.0476161642
 20
13.3447280675
  0
LINE
  5
5DB
100
AcDbEntity
  8
IMPORT_IGES
100
AcDbLine
 62
253
  6
CONTINUOUS
 10
16.0476161642
 20
13.3447280675
 11
16.0158561452
 21
13.3579054149
  0
LINE
  5
5DC
100
AcDbEntity
  8
IMPORT_IGES
100
AcDbLine
 62
253
  6
CONTINUOUS
 10
9.7325791784
 20
17.3043974041
 11
9.7398915804
 21
17.3010311031
  0
LINE
  5
5DD
100
AcDbEntity
  8
IMPORT_IGES
100
AcDbLine
 62
7
  6
CONTINUOUS
 10
7.0128389888
 20
18.4526920415
 11
9.7325791784
 21
17.3043974041
  0
LINE
  5
5DE
100
AcDbEntity
  8
IMPORT_IGES
100
AcDbLine
 62
7
  6
CONTINUOUS
 10
14.5640363694
 20
13.9721702084
 11
15.2506867211
 21
13.6817781688
  0
LINE
  5
5DF
100
AcDbEntity
  8
IMPORT_IGES
100
AcDbLine
 62
7
  6
CONTINUOUS
 10
15.2506867211
 20
13.6817781688
 11
16.0159586642
 21
13.358148308
  0
LINE
  5
5E0
100
AcDbEntity
  8
IMPORT_IGES
100
AcDbLine
 62
253
  6
CONTINUOUS
 10
13.9630216894
 20
14.4058927324
 11
14.1163815941
 21
14.3409538935
  0
LINE
  5
5E1
100
AcDbEntity
  8
IMPORT_IGES
100
AcDbLine
 62
253
  6
CONTINUOUS
 10
14.074329441
 20
14.5279955958
 11
13.920656296
 21
14.5930812265
  0
LINE
  5
5E2
100
AcDbEntity
  8
IMPORT_IGES
100
AcDbLine
 62
253
  6
CONTINUOUS
 10
12.4190802558
 20
15.5285043572
 11
15.1884945431
 21
14.3553726705
  0
LINE
  5
5E3
100
AcDbEntity
  8
IMPORT_IGES
100
AcDbLine
 62
253
  6
CONTINUOUS
 10
15.1321921925
 20
14.6048811322
 11
12.3627786019
 21
15.7780125237
  0
LINE
  5
5E4
100
AcDbEntity
  8
IMPORT_IGES
100
AcDbLine
 62
253
  6
CONTINUOUS
 10
16.8262790599
 20
12.986005027
 11
15.202692297
 21
13.6742407624
  0
LINE
  5
5E5
100
AcDbEntity
  8
IMPORT_IGES
100
AcDbLine
 62
253
  6
CONTINUOUS
 10
15.286827519
 20
13.3015513385
 11
16.9107135737
 21
12.6131652715
  0
LWPOLYLINE
  5
5E6
100
AcDbEntity
  8
IMPORT_IGES
100
AcDbPolyline
 62
253
  6
CONTINUOUS
 90
19
 70
0
 10
11.2899064357
 20
14.3531073557
 10
11.3235278592
 20
14.3383226908
 10
11.3614771761
 20
14.3255636274
 10
11.403314495
 20
14.3152031167
 10
11.448901691
 20
14.3075390568
 10
11.4971116264
 20
14.3030161689
 10
11.5457140453
 20
14.3019027617
 10
11.593349249
 20
14.3041043172
 10
11.6395577324
 20
14.3094747935
 10
11.6834340387
 20
14.3178156848
 10
11.7242621434
 20
14.3288839528
 10
11.7614151554
 20
14.3423971584
 10
11.7942936926
 20
14.3580028312
 10
11.8224149585
 20
14.3752878656
 10
11.8456267604
 20
14.3939503651
 10
11.8638921647
 20
14.4138098435
 10
11.8769788974
 20
14.4344828644
 10
11.8848233534
 20
14.4556888513
 10
11.8873924019
 20
14.4768532822
  0
LWPOLYLINE
  5
5E7
100
AcDbEntity
  8
RACCORDO
100
AcDbPolyline
 62
253
  6
CONTINUOUS
 90
14
 70
0
 10
-11.2548601813
 20
24.6848342876
 10
-11.262258262
 20
24.6881421815
 10
-11.2698384793
 20
24.6907818349
 10
-11.2776821257
 20
24.6927969469
 10
-11.2857678612
 20
24.6941820349
 10
-11.2940736873
 20
24.6949333306
 10
-11.3025770065
 20
24.6950487899
 10
-11.311254684
 20
24.6945280987
 10
-11.3200831108
 20
24.6933726737
 10
-11.3290382678
 20
24.6915856584
 10
-11.3380957907
 20
24.6891719146
 10
-11.3472310371
 20
24.6861380094
 10
-11.3564191531
 20
24.682492197
 10
-11.3656351408
 20
24.6782443965
  0
LWPOLYLINE
  5
5E8
100
AcDbEntity
  8
RACCORDO
100
AcDbPolyline
 62
253
  6
CONTINUOUS
 90
14
 70
0
 10
-12.5921863418
 20
25.3534973679
 10
-12.5995844225
 20
25.3568052617
 10
-12.6071646399
 20
25.3594449152
 10
-12.6150082863
 20
25.3614600272
 10
-12.6230940218
 20
25.3628451152
 10
-12.6313998479
 20
25.3635964108
 10
-12.639903167
 20
25.3637118702
 10
-12.6485808446
 20
25.363191179
 10
-12.6574092714
 20
25.362035754
 10
-12.6663644283
 20
25.3602487387
 10
-12.6754219512
 20
25.3578349949
 10
-12.6845571977
 20
25.3548010897
 10
-12.6937453137
 20
25.3511552773
 10
-12.7029613014
 20
25.3469074768
  0
LWPOLYLINE
  5
5E9
100
AcDbEntity
  8
IMPORT_IGES
100
AcDbPolyline
 62
253
  6
CONTINUOUS
 90
3
 70
0
 10
14.1163808809
 20
14.3409541951
 10
14.1251547756
 20
14.336973549
 10
14.1273594114
 20
14.3358887343
  0
LINE
  5
5EA
100
AcDbEntity
  8
IMPORT_IGES
100
AcDbLine
 62
253
  6
CONTINUOUS
 10
11.551871128
 20
15.4073278701
 11
11.5568159071
 21
15.4050832095
  0
LINE
  5
5EB
100
AcDbEntity
  8
IMPORT_IGES
100
AcDbLine
 62
7
  6
CONTINUOUS
 10
16.8365727832
 20
12.9812807275
 11
16.8262787324
 21
12.9860051672
  0
LINE
  5
5EC
100
AcDbEntity
  8
IMPORT_IGES
100
AcDbLine
 62
7
  6
CONTINUOUS
 10
15.132192361
 20
14.6048810479
 11
15.1531823016
 21
14.5952326866
  0
LINE
  5
5ED
100
AcDbEntity
  8
IMPORT_IGES
100
AcDbLine
 62
253
  6
CONTINUOUS
 10
7.0201798728
 20
18.449311895
 11
7.012864629
 21
18.4526812127
  0
LINE
  5
5EE
100
AcDbEntity
  8
IMPORT_IGES
100
AcDbLine
 62
253
  6
CONTINUOUS
 10
14.571469841
 20
13.968752933
 11
14.5642292524
 21
13.9720888922
  0
LINE
  5
5EF
100
AcDbEntity
  8
IMPORT_IGES
100
AcDbLine
 62
253
  6
CONTINUOUS
 10
16.0158561984
 20
13.3579053915
 11
16.0086525269
 21
13.3612257446
  0
LINE
  5
5F0
100
AcDbEntity
  8
IMPORT_IGES
100
AcDbLine
 62
253
  6
CONTINUOUS
 10
14.4874232324
 20
13.8985266099
 11
15.1807938124
 21
13.5750339286
  0
LWPOLYLINE
  5
5F1
100
AcDbEntity
  8
RACCORDO
100
AcDbPolyline
 62
7
  6
CONTINUOUS
 90
18
 70
0
 10
-12.5921863418
 20
25.3534973679
 10
-12.604392154
 20
25.3591945555
 10
-12.6170144328
 20
25.3642733635
 10
-12.6300146226
 20
25.3686952642
 10
-12.6433692039
 20
25.3724295369
 10
-12.6570121917
 20
25.3754371233
 10
-12.6708364811
 20
25.3776825421
 10
-12.6847676151
 20
25.3791504943
 10
-12.6987763039
 20
25.3798362041
 10
-12.7128258003
 20
25.3797343694
 10
-12.7268581127
 20
25.378842448
 10
-12.7408306587
 20
25.3771611639
 10
-12.754736518
 20
25.3746859226
 10
-12.768581424
 20
25.3714022967
 10
-12.7822636827
 20
25.3673209599
 10
-12.7956346123
 20
25.3624872543
 10
-12.8086573335
 20
25.3569251377
 10
-12.8134800519
 20
25.3546390332
  0
LINE
  5
5F2
100
AcDbEntity
  8
IMPORT_IGES
100
AcDbLine
 62
253
  6
CONTINUOUS
 10
15.202692297
 20
13.6742407624
 11
14.5714698295
 21
13.9687529387
  0
LWPOLYLINE
  5
5F3
100
AcDbEntity
  8
IMPORT_IGES
100
AcDbPolyline
 62
253
  6
CONTINUOUS
 90
7
 70
0
 10
13.0062121906
 20
14.6803851286
 10
13.004433905
 20
14.681243919
 10
12.9890682338
 20
14.6864985602
 10
12.9723281221
 20
14.6885395261
 10
12.9545120971
 20
14.6872679972
 10
12.9358969998
 20
14.6826443937
 10
12.9168086236
 20
14.6746852094
  0
LINE
  5
5F4
100
AcDbEntity
  8
IMPORT_IGES
100
AcDbLine
 62
253
  6
CONTINUOUS
 10
13.9930641165
 20
14.3910795939
 11
13.9630216894
 21
14.4058927324
  0
LINE
  5
5F5
100
AcDbEntity
  8
IMPORT_IGES
100
AcDbLine
 62
253
  6
CONTINUOUS
 10
11.2191957156
 20
14.2311519647
 11
5.0414711796
 21
17.3200153599
  0
LINE
  5
5F6
100
AcDbEntity
  8
IMPORT_IGES
100
AcDbLine
 62
253
  6
CONTINUOUS
 10
11.2899050285
 20
14.3531096039
 11
5.1705360896
 21
17.4127940732
  0
LINE
  5
5F7
100
AcDbEntity
  8
IMPORT_IGES
100
AcDbLine
 62
253
  6
CONTINUOUS
 10
5.299603849
 20
17.5055748349
 11
11.3606178067
 21
14.4750685334
  0
LINE
  5
5F8
100
AcDbEntity
  8
IMPORT_IGES
100
AcDbLine
 62
253
  6
CONTINUOUS
 10
11.7141669972
 20
14.6518431286
 11
5.58967169
 21
17.7140910077
  0
LINE
  5
5F9
100
AcDbEntity
  8
IMPORT_IGES
100
AcDbLine
 62
7
  6
CONTINUOUS
 10
11.7588904568
 20
14.6546843574
 11
5.6103491061
 21
17.7289550327
  0
LINE
  5
5FA
100
AcDbEntity
  8
IMPORT_IGES
100
AcDbLine
 62
253
  6
CONTINUOUS
 10
14.2236441607
 20
13.9109553205
 11
13.7807817759
 21
14.1323864229
  0
LINE
  5
5FB
100
AcDbEntity
  8
IMPORT_IGES
100
AcDbLine
 62
253
  6
CONTINUOUS
 10
11.467463182
 20
15.3993580966
 11
12.9168113407
 21
14.674686611
  0
LINE
  5
5FC
100
AcDbEntity
  8
IMPORT_IGES
100
AcDbLine
 62
7
  6
CONTINUOUS
 10
11.5568159071
 20
15.4050832095
 11
13.0062513427
 21
14.6803655668
  0
LINE
  5
5FD
100
AcDbEntity
  8
IMPORT_IGES
100
AcDbLine
 62
253
  6
CONTINUOUS
 10
13.9930641165
 20
14.3910795939
 11
16.0158554466
 21
13.3797096903
  0
LINE
  5
5FE
100
AcDbEntity
  8
IMPORT_IGES
100
AcDbLine
 62
253
  6
CONTINUOUS
 10
14.1163815941
 20
14.3409538935
 11
16.8262790599
 21
12.986005027
  0
LINE
  5
5FF
100
AcDbEntity
  8
IMPORT_IGES
100
AcDbLine
 62
7
  6
CONTINUOUS
 10
16.8371725868
 20
12.9809821466
 11
14.1273636254
 21
14.3358866273
  0
LINE
  5
600
100
AcDbEntity
  8
IMPORT_IGES
100
AcDbLine
 62
253
  6
CONTINUOUS
 10
11.5085892283
 20
15.7027692635
 11
6.3675644555
 21
18.2732816499
  0
LINE
  5
601
100
AcDbEntity
  8
IMPORT_IGES
100
AcDbLine
 62
253
  6
CONTINUOUS
 10
12.3627786019
 20
15.7780125237
 11
7.0201563886
 21
18.4493236301
  0
LINE
  5
602
100
AcDbEntity
  8
IMPORT_IGES
100
AcDbLine
 62
7
  6
CONTINUOUS
 10
13.0063852763
 20
14.6802984327
 11
13.0062121906
 21
14.6803851286
  0
LINE
  5
603
100
AcDbEntity
  8
IMPORT_IGES
100
AcDbLine
 62
7
  6
CONTINUOUS
 10
14.1273594114
 20
14.3358887343
 11
14.1276650773
 21
14.3357355623
  0
LWPOLYLINE
  5
604
100
AcDbEntity
  8
IMPORT_IGES
100
AcDbPolyline
 62
253
  6
CONTINUOUS
 90
5
 70
0
 10
16.0158554466
 20
13.3797096903
 10
16.0445115853
 20
13.3651783268
 10
16.0691713001
 20
13.352456488
 10
16.0898345912
 20
13.3415441739
 10
16.1065088933
 20
13.3324340259
  0
LWPOLYLINE
  5
605
100
AcDbEntity
  8
IMPORT_IGES
100
AcDbPolyline
 62
7
  6
CONTINUOUS
 90
4
 70
0
 10
11.556889817
 20
15.4050454335
 10
11.5545249163
 20
15.4062491397
 10
11.5439569495
 20
15.4122388669
 10
11.5382851384
 20
15.4160480537
  0
LINE
  5
606
100
AcDbEntity
  8
IMPORT_IGES
100
AcDbLine
 62
7
  6
CONTINUOUS
 10
16.8365700417
 20
12.9812812083
 11
16.8548830266
 21
12.971527636
  0
LINE
  5
607
100
AcDbEntity
  8
IMPORT_IGES
100
AcDbLine
 62
253
  6
CONTINUOUS
 10
12.9291106052
 20
14.6681084269
 11
12.9168191764
 21
14.6746906287
  0
LINE
  5
608
100
AcDbEntity
  8
IMPORT_IGES
100
AcDbLine
 62
7
  6
CONTINUOUS
 10
13.0258165195
 20
14.6695960115
 11
13.0061725286
 21
14.6803919759
  0
LWPOLYLINE
  5
609
100
AcDbEntity
  8
IMPORT_IGES
100
AcDbPolyline
 62
253
  6
CONTINUOUS
 90
4
 70
0
 10
19.183437729
 20
9.7853733996
 10
19.2281095159
 20
9.7601491232
 10
19.2718237518
 20
9.7297795361
 10
19.3141276201
 20
9.6947614984
  0
LINE
  5
60A
100
AcDbEntity
  8
IMPORT_IGES
100
AcDbLine
 62
253
  6
CONTINUOUS
 10
11.8912559764
 20
14.5290703775
 11
11.8748551157
 21
14.5383942299
  0
LINE
  5
60B
100
AcDbEntity
  8
IMPORT_IGES
100
AcDbLine
 62
7
  6
CONTINUOUS
 10
11.7892694989
 20
14.6374150328
 11
11.7589047929
 21
14.6546771889
  0
LWPOLYLINE
  5
60C
100
AcDbEntity
  8
IMPORT_IGES
100
AcDbPolyline
 62
7
  6
CONTINUOUS
 90
13
 70
0
 10
19.3176018076
 20
9.7938939357
 10
19.3718368389
 20
9.7628520975
 10
19.4227577585
 20
9.7259742907
 10
19.4702474613
 20
9.6837751949
 10
19.5146009483
 20
9.6361725565
 10
19.555259317
 20
9.5837455828
 10
19.5910351204
 20
9.5282642357
 10
19.6217299362
 20
9.4705527155
 10
19.6474995516
 20
9.4105947292
 10
19.6679920784
 20
9.3492179179
 10
19.6830136952
 20
9.2868527415
 10
19.692346304
 20
9.2235649814
 10
19.6955697633
 20
9.1596921401
  0
LWPOLYLINE
  5
60D
100
AcDbEntity
  8
IMPORT_IGES
100
AcDbPolyline
 62
253
  6
CONTINUOUS
 90
9
 70
0
 10
16.1065088933
 20
13.3324340259
 10
16.1191867716
 20
13.3251334026
 10
16.1278459211
 20
13.31966438
 10
16.1324630628
 20
13.3160305799
 10
16.1330614756
 20
13.3142283805
 10
16.1296886914
 20
13.3142689922
 10
16.1227418788
 20
13.315983141
 10
16.1118238693
 20
13.3195401009
 10
16.0957906886
 20
13.325458905
  0
LWPOLYLINE
  5
60E
100
AcDbEntity
  8
IMPORT_IGES
100
AcDbPolyline
 62
253
  6
CONTINUOUS
 90
19
 70
0
 10
13.7807875923
 20
14.1323840122
 10
13.7675396514
 20
14.1400515653
 10
13.753014345
 20
14.1493691419
 10
13.7372962655
 20
14.160286554
 10
13.720092628
 20
14.173294146
 10
13.7018905256
 20
14.187772833
 10
13.6840953631
 20
14.2021604957
 10
13.6678107125
 20
14.2158799246
 10
13.6523455755
 20
14.2297904363
 10
13.6364364988
 20
14.244491695
 10
13.619713235
 20
14.2601570629
 10
13.6027607997
 20
14.2765049264
 10
13.585732517
 20
14.2933126009
 10
13.5687275099
 20
14.310627364
 10
13.5519460311
 20
14.328343842
 10
13.5356912795
 20
14.346035818
 10
13.5201570159
 20
14.3635721997
 10
13.5054455881
 20
14.3810979394
 10
13.4917071313
 20
14.3986267327
  0
LWPOLYLINE
  5
60F
100
AcDbEntity
  8
IMPORT_IGES
100
AcDbPolyline
 62
253
  6
CONTINUOUS
 90
13
 70
0
 10
11.4674450861
 20
15.6821971737
 10
11.485570131
 20
15.6717062398
 10
11.5033333179
 20
15.6585832038
 10
11.5204484995
 20
15.6430704511
 10
11.5365657596
 20
15.6255393296
 10
11.5515262376
 20
15.6062193884
 10
11.5653032725
 20
15.5851056446
 10
11.5776905587
 20
15.5623550066
 10
11.5883327752
 20
15.538435459
 10
11.5969579623
 20
15.5138030491
 10
11.6033555464
 20
15.4889037339
 10
11.6073632479
 20
15.4641600489
 10
11.6088477306
 20
15.4400326197
  0
LWPOLYLINE
  5
610
100
AcDbEntity
  8
IMPORT_IGES
100
AcDbPolyline
 62
253
  6
CONTINUOUS
 90
4
 70
0
 10
11.7141669972
 20
14.6518431286
 10
11.736253499
 20
14.6389970126
 10
11.7543866381
 20
14.6253953697
 10
11.7685664144
 20
14.6110382
  0
LWPOLYLINE
  5
611
100
AcDbEntity
  8
IMPORT_IGES
100
AcDbPolyline
 62
253
  6
CONTINUOUS
 90
13
 70
0
 10
13.9630217469
 20
14.4058928667
 10
13.9499825688
 20
14.4137805743
 10
13.9382598324
 20
14.423749143
 10
13.9280307836
 20
14.4356104383
 10
13.9194842246
 20
14.4490750182
 10
13.9126815889
 20
14.4639638055
 10
13.9076482299
 20
14.4802836771
 10
13.9045183601
 20
14.4979251696
 10
13.9034531326
 20
14.5165159636
 10
13.904532658
 20
14.5356720244
 10
13.9077757625
 20
14.5550358559
 10
13.9131683418
 20
14.5742903552
 10
13.9206556562
 20
14.59308158
  0
LWPOLYLINE
  5
612
100
AcDbEntity
  8
IMPORT_IGES
100
AcDbPolyline
 62
253
  6
CONTINUOUS
 90
13
 70
0
 10
15.2023920404
 20
13.6743906518
 10
15.2280696363
 20
13.6588210118
 10
15.2513719898
 20
13.6390031641
 10
15.2718784088
 20
13.6152021189
 10
15.2892192383
 20
13.5877305313
 10
15.3030348024
 20
13.5570190621
 10
15.3130165636
 20
13.5236373321
 10
15.3189702282
 20
13.4881360032
 10
15.3207684049
 20
13.4511078339
 10
15.3183658325
 20
13.4132800658
 10
15.3118181334
 20
13.3753328692
 10
15.3012432477
 20
13.3378781617
 10
15.286827467
 20
13.3015512248
  0
LWPOLYLINE
  5
613
100
AcDbEntity
  8
IMPORT_IGES
100
AcDbPolyline
 62
253
  6
CONTINUOUS
 90
4
 70
0
 10
14.1163816843
 20
14.3409540825
 10
14.1034959732
 20
14.3488009267
 10
14.0918746386
 20
14.3587105937
 10
14.081701027
 20
14.3705147602
  0
LWPOLYLINE
  5
614
100
AcDbEntity
  8
IMPORT_IGES
100
AcDbPolyline
 62
253
  6
CONTINUOUS
 90
16
 70
0
 10
11.5085727242
 20
15.7027610114
 10
11.5266393411
 20
15.6916570413
 10
11.5440308466
 20
15.678491422
 10
11.5605176511
 20
15.6637820967
 10
11.5761230055
 20
15.6482418254
 10
11.5905820617
 20
15.6321086134
 10
11.6032803583
 20
15.6150593653
 10
11.6143257759
 20
15.5972634342
 10
11.6235267569
 20
15.5791088783
 10
11.6298477429
 20
15.560502233
 10
11.6329627677
 20
15.5418703572
 10
11.6333904536
 20
15.5231840476
 10
11.6312584873
 20
15.5036148536
 10
11.6265021103
 20
15.4829771009
 10
11.6190452468
 20
15.4617345378
 10
11.6088477306
 20
15.4400326197
  0
LINE
  5
615
100
AcDbEntity
  8
IMPORT_IGES
100
AcDbLine
 62
7
  6
CONTINUOUS
 10
13.0545524165
 20
14.6499282131
 11
13.0258165195
 21
14.6695960115
  0
LWPOLYLINE
  5
616
100
AcDbEntity
  8
IMPORT_IGES
100
AcDbPolyline
 62
253
  6
CONTINUOUS
 90
4
 70
0
 10
12.9657536253
 20
14.6432163862
 10
12.9536090779
 20
14.6523586613
 10
12.9413878557
 20
14.6606579202
 10
12.9291106052
 20
14.6681084269
  0
LWPOLYLINE
  5
617
100
AcDbEntity
  8
IMPORT_IGES
100
AcDbPolyline
 62
253
  6
CONTINUOUS
 90
8
 70
0
 10
13.6579626795
 20
13.9392889077
 10
13.6543614501
 20
13.9424357321
 10
13.6468958707
 20
13.9453344637
 10
13.6370951744
 20
13.9460017011
 10
13.6247620922
 20
13.9443626781
 10
13.6099253246
 20
13.940259426
 10
13.5931046104
 20
13.9337557676
 10
13.5748104847
 20
13.9250619014
  0
LINE
  5
618
100
AcDbEntity
  8
IMPORT_IGES
100
AcDbLine
 62
253
  6
CONTINUOUS
 10
13.6509068104
 20
13.8509115878
 11
13.6127896139
 21
13.8860568455
  0
LWPOLYLINE
  5
619
100
AcDbEntity
  8
IMPORT_IGES
100
AcDbPolyline
 62
7
  6
CONTINUOUS
 90
3
 70
0
 10
11.8381521699
 20
14.596749246
 10
11.8156974482
 20
14.6180592597
 10
11.7892694989
 20
14.6374150328
  0
LINE
  5
61A
100
AcDbEntity
  8
IMPORT_IGES
100
AcDbLine
 62
253
  6
CONTINUOUS
 10
13.6127896139
 20
13.8860568455
 11
13.5748112128
 21
13.9250630904
  0
LWPOLYLINE
  5
61B
100
AcDbEntity
  8
IMPORT_IGES
100
AcDbPolyline
 62
7
  6
CONTINUOUS
 90
3
 70
0
 10
13.1059886583
 20
14.6000861945
 10
13.0808209959
 20
14.6272098531
 10
13.0545524165
 20
14.6499282131
  0
LWPOLYLINE
  5
61C
100
AcDbEntity
  8
IMPORT_IGES
100
AcDbPolyline
 62
253
  6
CONTINUOUS
 90
6
 70
0
 10
13.0228851551
 20
14.5868501193
 10
13.0121036983
 20
14.5993642477
 10
13.0009687754
 20
14.6112999142
 10
12.9895148992
 20
14.6226109963
 10
12.9777571104
 20
14.6332711711
 10
12.9657536253
 20
14.6432163862
  0
LINE
  5
61D
100
AcDbEntity
  8
IMPORT_IGES
100
AcDbLine
 62
253
  6
CONTINUOUS
 10
13.5748112128
 20
13.9250630904
 11
13.4514386186
 21
14.0717622642
  0
LINE
  5
61E
100
AcDbEntity
  8
IMPORT_IGES
100
AcDbLine
 62
7
  6
CONTINUOUS
 10
13.6579626795
 20
13.9392889077
 11
13.4154635058
 21
14.228884443
  0
LINE
  5
61F
100
AcDbEntity
  8
IMPORT_IGES
100
AcDbLine
 62
7
  6
CONTINUOUS
 10
13.4154635058
 20
14.228884443
 11
13.1999235306
 21
14.4872263492
  0
LINE
  5
620
100
AcDbEntity
  8
IMPORT_IGES
100
AcDbLine
 62
253
  6
CONTINUOUS
 10
13.2069238666
 20
14.3662820448
 11
13.0228976345
 21
14.5868629007
  0
LINE
  5
621
100
AcDbEntity
  8
IMPORT_IGES
100
AcDbLine
 62
7
  6
CONTINUOUS
 10
13.1999235306
 20
14.4872263492
 11
13.1059799632
 21
14.600104161
  0
LWPOLYLINE
  5
622
100
AcDbEntity
  8
IMPORT_IGES
100
AcDbPolyline
 62
253
  6
CONTINUOUS
 90
3
 70
0
 10
13.4514386186
 20
14.0717622642
 10
13.3289054958
 20
14.2188830354
 10
13.2069238666
 20
14.3662820448
  0
LWPOLYLINE
  5
623
100
AcDbEntity
  8
IMPORT_IGES
100
AcDbPolyline
 62
253
  6
CONTINUOUS
 90
4
 70
0
 10
11.7685664144
 20
14.6110382
 10
11.7788644415
 20
14.5956661939
 10
11.7852091059
 20
14.5795386611
 10
11.7873855672
 20
14.5634335301
  0
LWPOLYLINE
  5
624
100
AcDbEntity
  8
IMPORT_IGES
100
AcDbPolyline
 62
253
  6
CONTINUOUS
 90
10
 70
0
 10
14.081701027
 20
14.3705147602
 10
14.0731670892
 20
14.3839542999
 10
14.0663562289
 20
14.3988547189
 10
14.061317895
 20
14.4151887966
 10
14.0581879725
 20
14.4328307688
 10
14.0571228038
 20
14.4514221406
 10
14.0582025301
 20
14.4705789155
 10
14.0614460216
 20
14.4899435859
 10
14.0668392064
 20
14.5091989821
 10
14.0743273675
 20
14.5279911011
  0
LWPOLYLINE
  5
625
100
AcDbEntity
  8
IMPORT_IGES
100
AcDbPolyline
 62
7
  6
CONTINUOUS
 90
5
 70
0
 10
14.1500454966
 20
14.3245456917
 10
14.1452603004
 20
14.3328311327
 10
14.1396402986
 20
14.347517519
 10
14.136151339
 20
14.3633575976
 10
14.1348581708
 20
14.380076047
  0
LWPOLYLINE
  5
626
100
AcDbEntity
  8
IMPORT_IGES
100
AcDbPolyline
 62
253
  6
CONTINUOUS
 90
5
 70
0
 10
18.6986375028
 20
6.1097057988
 10
18.7059733626
 20
6.0729589483
 10
18.7132474582
 20
6.0110390821
 10
18.7150837331
 20
5.951204073
 10
18.7114585453
 20
5.894224298
  0
LWPOLYLINE
  5
627
100
AcDbEntity
  8
IMPORT_IGES
100
AcDbPolyline
 62
7
  6
CONTINUOUS
 90
10
 70
0
 10
16.9675588572
 20
12.5234125409
 10
16.9650066473
 20
12.5376359072
 10
16.9614772707
 20
12.5508515199
 10
16.9569707274
 20
12.5630593789
 10
16.9514387726
 20
12.5743327596
 10
16.944929651
 20
12.5845983868
 10
16.9375880969
 20
12.5936364341
 10
16.9294623551
 20
12.6013736264
 10
16.9205041806
 20
12.6078832388
 10
16.9107135737
 20
12.6131652715
  0
LINE
  5
628
100
AcDbEntity
  8
IMPORT_IGES
100
AcDbLine
 62
253
  6
CONTINUOUS
 10
16.9675588572
 20
12.5234125409
 11
17.2847370702
 21
9.9535106552
  0
LINE
  5
629
100
AcDbEntity
  8
IMPORT_IGES
100
AcDbLine
 62
7
  6
CONTINUOUS
 10
17.3713934214
 20
10.0837155085
 11
17.053201579
 21
12.6616763395
  0
LINE
  5
62A
100
AcDbEntity
  8
IMPORT_IGES
100
AcDbLine
 62
253
  6
CONTINUOUS
 10
19.6077017977
 20
6.9751651539
 11
19.6077017977
 21
9.053626123
  0
LINE
  5
62B
100
AcDbEntity
  8
IMPORT_IGES
100
AcDbLine
 62
7
  6
CONTINUOUS
 10
19.6955697633
 20
9.1596921401
 11
19.6955697633
 21
7.081231171
  0
LINE
  5
62C
100
AcDbEntity
  8
IMPORT_IGES
100
AcDbLine
 62
253
  6
CONTINUOUS
 10
19.6955697541
 20
7.0811939908
 11
19.6955697633
 21
7.081231171
  0
LWPOLYLINE
  5
62D
100
AcDbEntity
  8
RACCORDO
100
AcDbPolyline
 62
253
  6
CONTINUOUS
 90
34
 70
0
 10
-4.1889036274
 20
-24.5164570175
 10
-4.2061979592
 20
-24.5252605765
 10
-4.2242234208
 20
-24.5336462424
 10
-4.2429400801
 20
-24.5415954382
 10
-4.2623064739
 20
-24.549090554
 10
-4.2822796996
 20
-24.5561149859
 10
-4.3028155103
 20
-24.5626531725
 10
-4.3238684128
 20
-24.5686906297
 10
-4.3453917684
 20
-24.5742139826
 10
-4.367337896
 20
-24.5792109954
 10
-4.3896581783
 20
-24.583670598
 10
-4.4123031688
 20
-24.5875829111
 10
-4.4352227019
 20
-24.5909392676
 10
-4.4583660035
 20
-24.5937322322
 10
-4.4816818042
 20
-24.5959556176
 10
-4.5051184521
 20
-24.5976044983
 10
-4.5286240278
 20
-24.5986752216
 10
-4.5521464591
 20
-24.5991654154
 10
-4.5756336364
 20
-24.5990739938
 10
-4.5990335285
 20
-24.5984011594
 10
-4.6222942972
 20
-24.5971484026
 10
-4.6453644127
 20
-24.5953184987
 10
-4.6681927674
 20
-24.5929155016
 10
-4.6907287896
 20
-24.5899447346
 10
-4.7129225549
 20
-24.5864127789
 10
-4.7347248971
 20
-24.5823274588
 10
-4.7560875173
 20
-24.5776978247
 10
-4.7769630907
 20
-24.5725341326
 10
-4.7973053713
 20
-24.5668478216
 10
-4.8170692947
 20
-24.5606514889
 10
-4.8362110776
 20
-24.553958861
 10
-4.854688315
 20
-24.5467847644
 10
-4.872460074
 20
-24.5391450918
 10
-4.8894869848
 20
-24.5310567676
  0
LINE
  5
62E
100
AcDbEntity
  8
RACCORDO
100
AcDbLine
 62
253
  6
CONTINUOUS
 10
1.9899733044
 20
-22.7090660376
 11
2.7078497273
 21
-22.3549022703
  0
LINE
  5
62F
100
AcDbEntity
  8
RACCORDO
100
AcDbLine
 62
7
  6
CONTINUOUS
 10
1.8553288853
 20
-22.9818409924
 11
2.5769750701
 21
-22.6258174161
  0
LINE
  5
630
100
AcDbEntity
  8
RACCORDO
100
AcDbLine
 62
7
  6
CONTINUOUS
 10
1.8553283636
 20
-22.9818412498
 11
1.8449145667
 21
-22.9865894533
  0
LINE
  5
631
100
AcDbEntity
  8
RACCORDO
100
AcDbLine
 62
253
  6
CONTINUOUS
 10
-3.5077159681
 20
-25.0167726856
 11
1.9899733044
 21
-22.7090660376
  0
LWPOLYLINE
  5
632
100
AcDbEntity
  8
ASSI
100
AcDbPolyline
 62
7
  6
CONTINUOUS
 90
16
 70
0
 10
-2.8856001387
 20
24.6959508101
 10
-2.8873248485
 20
24.6967029974
 10
-2.8915077137
 20
24.6978924268
 10
-2.8964450423
 20
24.698597015
 10
-2.9020977967
 20
24.6988352907
 10
-2.9084298434
 20
24.6986145164
 10
-2.9154428648
 20
24.6979643652
 10
-2.9231281111
 20
24.6968953816
 10
-2.931443062
 20
24.6954214108
 10
-2.9403467704
 20
24.6935772433
 10
-2.9498093603
 20
24.6913639933
 10
-2.9597982432
 20
24.6887975491
 10
-2.9702621022
 20
24.6859316223
 10
-2.9811594969
 20
24.682786587
 10
-2.992462566
 20
24.6793507614
 10
-3.0041376292
 20
24.6756272034
  0
LWPOLYLINE
  5
633
100
AcDbEntity
  8
ASSI
100
AcDbPolyline
 62
7
  6
CONTINUOUS
 90
16
 70
0
 10
2.66938446
 20
21.9184585087
 10
2.667947279
 20
21.9190978233
 10
2.6638388743
 20
21.9203215446
 10
2.6589805051
 20
21.9210626863
 10
2.6534124395
 20
21.9213391827
 10
2.6471706263
 20
21.9211584886
 10
2.6402535965
 20
21.9205513763
 10
2.6326708599
 20
21.9195286513
 10
2.6244646106
 20
21.9181034111
 10
2.6156737461
 20
21.9163101422
 10
2.6063274738
 20
21.9141502731
 10
2.5964583154
 20
21.9116391899
 10
2.5861157461
 20
21.9088293094
 10
2.5753401224
 20
21.9057406389
 10
2.5641592354
 20
21.9023619571
 10
2.5526062434
 20
21.8986963848
  0
LINE
  5
634
100
AcDbEntity
  8
IMPORT_IGES
100
AcDbLine
 62
7
  6
CONTINUOUS
 10
9.7605454762
 20
17.2915510448
 11
9.7325704286
 21
17.304394393
  0
LWPOLYLINE
  5
635
100
AcDbEntity
  8
RACCORDO
100
AcDbPolyline
 62
7
  6
CONTINUOUS
 90
18
 70
0
 10
-0.4865268863
 20
24.1399200806
 10
-0.5060889706
 20
24.1490098137
 10
-0.5289847508
 20
24.1579952283
 10
-0.5524940371
 20
24.1654974611
 10
-0.5766353592
 20
24.171531631
 10
-0.6013251125
 20
24.1760774153
 10
-0.6265865388
 20
24.1791313988
 10
-0.6523963962
 20
24.1806969967
 10
-0.6786013551
 20
24.1807641333
 10
-0.7051853177
 20
24.1793253574
 10
-0.7321643817
 20
24.17638812
 10
-0.7594335104
 20
24.1719646988
 10
-0.78700769
 20
24.1660463131
 10
-0.8148719343
 20
24.1586417436
 10
-0.8428762474
 20
24.149789609
 10
-0.8709706306
 20
24.1395027823
 10
-0.8992050826
 20
24.1277683905
 10
-0.9275796034
 20
24.1145864337
  0
LINE
  5
636
100
AcDbEntity
  8
IMPORT_IGES
100
AcDbLine
 62
253
  6
CONTINUOUS
 10
9.7398915804
 20
17.3010311031
 11
15.1321921925
 21
14.6048811322
  0
LINE
  5
637
100
AcDbEntity
  8
IMPORT_IGES
100
AcDbLine
 62
7
  6
CONTINUOUS
 10
9.7605454762
 20
17.2915510448
 11
15.154047594
 21
14.5948013488
  0
LINE
  5
638
100
AcDbEntity
  8
0
100
AcDbLine
 62
7
  6
CONTINUOUS
 10
1.2239742923
 20
21.8492387964
 11
-1.5865753547
 21
23.2545136199
  0
LINE
  5
639
100
AcDbEntity
  8
ASSI
100
AcDbLine
 62
253
  6
CONTINUOUS
 10
2.5022642423
 20
21.8780596849
 11
1.8967338076
 21
22.1808249022
  0
LINE
  5
63A
100
AcDbEntity
  8
ASSI
100
AcDbLine
 62
253
  6
CONTINUOUS
 10
-3.0530136607
 20
24.6556986363
 11
-3.6585440954
 21
24.9584638537
  0
LINE
  5
63B
100
AcDbEntity
  8
0
100
AcDbLine
 62
7
  6
CONTINUOUS
 10
2.8744957067
 20
21.7776922466
 11
2.6762003072
 21
21.8768399464
  0
LINE
  5
63C
100
AcDbEntity
  8
0
100
AcDbLine
 62
7
  6
CONTINUOUS
 10
2.0092189083
 20
22.2103306458
 11
-0.2266434146
 21
23.3282618073
  0
LINE
  5
63D
100
AcDbEntity
  8
ASSI
100
AcDbLine
 62
7
  6
CONTINUOUS
 10
2.6690813702
 20
21.9186058627
 11
2.1726930552
 21
22.1668000202
  0
LINE
  5
63E
100
AcDbEntity
  8
ASSI
100
AcDbLine
 62
7
  6
CONTINUOUS
 10
-2.8858754979
 20
24.6960842967
 11
-3.3822635053
 21
24.9442783004
  0
LINE
  5
63F
100
AcDbEntity
  8
RACCORDO
100
AcDbLine
 62
253
  6
CONTINUOUS
 10
-3.9945455473
 20
25.6480694057
 11
-0.9275796034
 21
24.1145864337
  0
LINE
  5
640
100
AcDbEntity
  8
RACCORDO
100
AcDbLine
 62
253
  6
CONTINUOUS
 10
3.3150610838
 20
21.9932660902
 11
6.3820270277
 21
20.4597831182
  0
LINE
  5
641
100
AcDbEntity
  8
RACCORDO
100
AcDbLine
 62
7
  6
CONTINUOUS
 10
3.7561040868
 20
22.0186155568
 11
6.9832827771
 21
20.4050262116
  0
LINE
  5
642
100
AcDbEntity
  8
IMPORT_IGES
100
AcDbLine
 62
7
  6
CONTINUOUS
 10
15.1531748848
 20
14.5952350411
 11
15.1729533815
 21
14.5848407619
  0
LWPOLYLINE
  5
643
100
AcDbEntity
  8
IMPORT_IGES
100
AcDbPolyline
 62
253
  6
CONTINUOUS
 90
10
 70
0
 10
15.1884945431
 20
14.3553726705
 10
15.2329675029
 20
14.3318592496
 10
15.2729139618
 20
14.3020034309
 10
15.3083339198
 20
14.2658052145
 10
15.3394905377
 20
14.2227733356
 10
15.3661206547
 20
14.1733990589
 10
15.3874347886
 20
14.1191561785
 10
15.4031697785
 20
14.0605359591
 10
15.4135887853
 20
13.9970471359
 10
15.418691809
 20
13.928689709
  0
LWPOLYLINE
  5
644
100
AcDbEntity
  8
IMPORT_IGES
100
AcDbPolyline
 62
253
  6
CONTINUOUS
 90
4
 70
0
 10
15.1321689702
 20
14.6048927507
 10
15.1499582823
 20
14.59404592
 10
15.165989127
 20
14.5801962339
 10
15.1799665582
 20
14.5635658984
  0
LINE
  5
645
100
AcDbEntity
  8
IMPORT_IGES
100
AcDbLine
 62
253
  6
CONTINUOUS
 10
16.8534228608
 20
12.9693661172
 11
16.8262864573
 21
12.9860012995
  0
LINE
  5
646
100
AcDbEntity
  8
IMPORT_IGES
100
AcDbLine
 62
7
  6
CONTINUOUS
 10
15.1729533815
 20
14.5848407619
 11
15.2187641215
 21
14.5561775067
  0
LINE
  5
647
100
AcDbEntity
  8
IMPORT_IGES
100
AcDbLine
 62
7
  6
CONTINUOUS
 10
16.8548830266
 20
12.971527636
 11
16.8921680666
 21
12.9473296765
  0
LINE
  5
648
100
AcDbEntity
  8
IMPORT_IGES
100
AcDbLine
 62
253
  6
CONTINUOUS
 10
14.8280316617
 20
13.9855526092
 11
14.1609953247
 21
14.4672024299
  0
LWPOLYLINE
  5
649
100
AcDbEntity
  8
IMPORT_IGES
100
AcDbPolyline
 62
7
  6
CONTINUOUS
 90
11
 70
0
 10
15.2187641215
 20
14.5561775067
 10
15.262060759
 20
14.5222071255
 10
15.3023423023
 20
14.4830866271
 10
15.3392574066
 20
14.438920925
 10
15.3725839778
 20
14.389647584
 10
15.402097661
 20
14.3350690839
 10
15.4272390056
 20
14.2756013947
 10
15.4474777805
 20
14.2121322633
 10
15.4626302622
 20
14.1451683957
 10
15.4726474485
 20
14.0747413999
 10
15.4773963074
 20
14.0011575762
  0
LWPOLYLINE
  5
64A
100
AcDbEntity
  8
IMPORT_IGES
100
AcDbPolyline
 62
7
  6
CONTINUOUS
 90
8
 70
0
 10
16.8921680666
 20
12.9473296765
 10
16.9269005579
 20
12.9184472869
 10
16.9583417423
 20
12.8852863916
 10
16.9860715866
 20
12.8481237313
 10
17.0098991974
 20
12.8068722524
 10
17.0293823138
 20
12.7616607669
 10
17.0439449843
 20
12.7130824745
 10
17.0531987906
 20
12.6616672835
  0
LWPOLYLINE
  5
64B
100
AcDbEntity
  8
IMPORT_IGES
100
AcDbPolyline
 62
253
  6
CONTINUOUS
 90
13
 70
0
 10
19.3141276201
 20
9.6947614984
 10
19.3543614214
 20
9.6558776786
 10
19.3924250923
 20
9.613466226
 10
19.4286583928
 20
9.5671764082
 10
19.46282188
 20
9.5171117879
 10
19.4942774161
 20
9.4639879049
 10
19.5226568862
 20
9.4082311721
 10
19.5475826144
 20
9.3503273348
 10
19.5686359492
 20
9.2909513719
 10
19.5854355794
 20
9.2308814535
 10
19.597690174
 20
9.1708476541
 10
19.6051746024
 20
9.1115202282
 10
19.6077017977
 20
9.0536261229
  0
LWPOLYLINE
  5
64C
100
AcDbEntity
  8
IMPORT_IGES
100
AcDbPolyline
 62
253
  6
CONTINUOUS
 90
10
 70
0
 10
14.1609953247
 20
14.4672024299
 10
14.1526689705
 20
14.4757019923
 10
14.1440118935
 20
14.4837717663
 10
14.1350240937
 20
14.491411752
 10
14.1256990035
 20
14.4986304868
 10
14.1160431904
 20
14.5054194332
 10
14.1060763574
 20
14.5117529786
 10
14.095805072
 20
14.5176225854
 10
14.0852227665
 20
14.5230367911
 10
14.074329441
 20
14.5279955958
  0
LWPOLYLINE
  5
64D
100
AcDbEntity
  8
IMPORT_IGES
100
AcDbPolyline
 62
253
  6
CONTINUOUS
 90
10
 70
0
 10
14.1442007343
 20
13.7269153609
 10
14.1268215172
 20
13.7460220963
 10
14.1086201701
 20
13.7624818587
 10
14.0899541284
 20
13.7760662005
 10
14.0713192338
 20
13.7865410708
 10
14.0529020301
 20
13.7939249343
 10
14.0345897313
 20
13.7982450272
 10
14.0166169436
 20
13.7992895567
 10
13.9994637216
 20
13.7968655199
 10
13.9840626916
 20
13.7911645836
  0
LWPOLYLINE
  5
64E
100
AcDbEntity
  8
IMPORT_IGES
100
AcDbPolyline
 62
253
  6
CONTINUOUS
 90
10
 70
0
 10
15.1807743591
 20
13.5750574093
 10
15.2007785846
 20
13.5490075631
 10
15.2192392013
 20
13.5210076597
 10
15.2359028856
 20
13.4913991522
 10
15.2505300942
 20
13.4605629251
 10
15.2629170641
 20
13.4288772596
 10
15.2728895221
 20
13.3967109089
 10
15.2802846421
 20
13.3644724221
 10
15.2849638806
 20
13.3326069765
 10
15.2868275209
 20
13.3015513426
  0
LWPOLYLINE
  5
64F
100
AcDbEntity
  8
IMPORT_IGES
100
AcDbPolyline
 62
253
  6
CONTINUOUS
 90
4
 70
0
 10
15.1799665582
 20
14.5635658984
 10
15.1916921256
 20
14.5443051947
 10
15.2008457404
 20
14.522836322
 10
15.2071531112
 20
14.4999680898
  0
LWPOLYLINE
  5
650
100
AcDbEntity
  8
IMPORT_IGES
100
AcDbPolyline
 62
253
  6
CONTINUOUS
 90
4
 70
0
 10
16.9155448483
 20
12.8946696511
 10
16.8983709621
 20
12.9232124869
 10
16.8775725186
 20
12.9482774266
 10
16.8534228608
 20
12.9693661172
  0
LINE
  5
651
100
AcDbEntity
  8
IMPORT_IGES
100
AcDbLine
 62
253
  6
CONTINUOUS
 10
17.4238793884
 20
9.4470831471
 11
18.4454874092
 21
7.2552424291
  0
LINE
  5
652
100
AcDbEntity
  8
IMPORT_IGES
100
AcDbLine
 62
7
  6
CONTINUOUS
 10
18.5053021451
 20
7.4834964442
 11
17.4836934572
 21
9.6753364508
  0
LWPOLYLINE
  5
653
100
AcDbEntity
  8
IMPORT_IGES
100
AcDbPolyline
 62
253
  6
CONTINUOUS
 90
10
 70
0
 10
17.4238793884
 20
9.4470831471
 10
17.4016554503
 20
9.4973779551
 10
17.3811099569
 20
9.5492131697
 10
17.3622429081
 20
9.6025887909
 10
17.3450376698
 20
9.6575670559
 10
17.3295108763
 20
9.7140857275
 10
17.3157124293
 20
9.7719580943
 10
17.303658963
 20
9.8311219193
 10
17.2933338433
 20
9.8916394396
 10
17.2847370702
 20
9.9535106552
  0
LWPOLYLINE
  5
654
100
AcDbEntity
  8
IMPORT_IGES
100
AcDbPolyline
 62
7
  6
CONTINUOUS
 90
10
 70
0
 10
18.5052954115
 20
7.4834997302
 10
18.5338783697
 20
7.4175630205
 10
18.5594005593
 20
7.3489457557
 10
18.5818095433
 20
7.2777536741
 10
18.6010836478
 20
7.2039769296
 10
18.6171400103
 20
7.1278267612
 10
18.6298828651
 20
7.0497723513
 10
18.639301763
 20
6.9700746509
 10
18.6454218503
 20
6.888750857
 10
18.6482471969
 20
6.8059416592
  0
LWPOLYLINE
  5
655
100
AcDbEntity
  8
IMPORT_IGES
100
AcDbPolyline
 62
7
  6
CONTINUOUS
 90
8
 70
0
 10
17.4836779906
 20
9.6753766564
 10
17.4600058872
 20
9.7300325301
 10
17.4401318262
 20
9.7831434209
 10
17.4222048694
 20
9.8387852197
 10
17.4063017308
 20
9.89682815
 10
17.3924993478
 20
9.9570945232
 10
17.3808511727
 20
10.0194361253
 10
17.3713934214
 20
10.0837155085
  0
LWPOLYLINE
  5
656
100
AcDbEntity
  8
IMPORT_IGES
100
AcDbPolyline
 62
253
  6
CONTINUOUS
 90
10
 70
0
 10
18.4454874092
 20
7.2552424291
 10
18.4683999018
 20
7.2018419197
 10
18.4887967706
 20
7.146271309
 10
18.5066780156
 20
7.0885305971
 10
18.5220719003
 20
7.0284838926
 10
18.5349501613
 20
6.9662670869
 10
18.5452280078
 20
6.9022878536
 10
18.5528771763
 20
6.836682084
 10
18.5579259303
 20
6.7693138868
 10
18.5603742699
 20
6.7001832621
  0
LWPOLYLINE
  5
657
100
AcDbEntity
  8
IMPORT_IGES
100
AcDbPolyline
 62
253
  6
CONTINUOUS
 90
9
 70
0
 10
17.4836812329
 20
9.675362671
 10
17.4926046865
 20
9.6506721062
 10
17.4971790899
 20
9.6238255883
 10
17.4970540382
 20
9.5952233355
 10
17.4920188014
 20
9.5654927773
 10
17.4820495956
 20
9.535263894
 10
17.4672480152
 20
9.5051103365
 10
17.4477708101
 20
9.4755323947
 10
17.4238790548
 20
9.4470827915
  0
LWPOLYLINE
  5
658
100
AcDbEntity
  8
IMPORT_IGES
100
AcDbPolyline
 62
253
  6
CONTINUOUS
 90
9
 70
0
 10
18.5052997947
 20
7.4835014867
 10
18.5142130802
 20
7.4588332059
 10
18.5187877878
 20
7.4319854595
 10
18.5186626214
 20
7.4033821322
 10
18.5136269416
 20
7.3736505773
 10
18.5036572155
 20
7.3434212812
 10
18.4888554052
 20
7.313268066
 10
18.4693784822
 20
7.2836910276
 10
18.4454877428
 20
7.2552427847
  0
LWPOLYLINE
  5
659
100
AcDbEntity
  8
IMPORT_IGES
100
AcDbPolyline
 62
7
  6
CONTINUOUS
 90
5
 70
0
 10
18.7640806984
 20
6.1424273966
 10
18.7656706921
 20
6.1342607084
 10
18.7721171634
 20
6.0770185062
 10
18.7736325328
 20
6.0202379281
 10
18.7699661576
 20
5.9643387527
  0
LWPOLYLINE
  5
65A
100
AcDbEntity
  8
RACCORDO
100
AcDbPolyline
 62
7
  6
CONTINUOUS
 90
19
 70
0
 10
1.5861783453
 20
-24.7075991251
 10
1.5924040171
 20
-24.7037805153
 10
1.598353355
 20
-24.6994687632
 10
1.6040128793
 20
-24.6946736381
 10
1.6093697399
 20
-24.6894060172
 10
1.6144118099
 20
-24.6836778298
 10
1.6191277105
 20
-24.6775020333
 10
1.6235067078
 20
-24.6708926439
 10
1.627538868
 20
-24.6638646416
 10
1.6312151452
 20
-24.6564339077
 10
1.6345271401
 20
-24.6486173116
 10
1.6374673144
 20
-24.640432579
 10
1.6400291389
 20
-24.6318981907
 10
1.6422067203
 20
-24.6230335257
 10
1.6439950685
 20
-24.6138586942
 10
1.6453903041
 20
-24.6043943993
 10
1.6463892621
 20
-24.5946620849
 10
1.6469894995
 20
-24.5846838858
 10
1.6471895555
 20
-24.5744824561
  0
LWPOLYLINE
  5
65B
100
AcDbEntity
  8
RACCORDO
100
AcDbPolyline
 62
253
  6
CONTINUOUS
 90
18
 70
0
 10
2.1117742375
 20
-24.4380323614
 10
2.1173653455
 20
-24.4349187302
 10
2.1240829822
 20
-24.4304731532
 10
2.1304540271
 20
-24.4254383572
 10
2.1364609757
 20
-24.4198281544
 10
2.1420873294
 20
-24.4136579426
 10
2.1473176526
 20
-24.4069446454
 10
2.1521376077
 20
-24.3997066604
 10
2.1565339744
 20
-24.3919638341
 10
2.1604946961
 20
-24.3837373935
 10
2.1640089092
 20
-24.3750498948
 10
2.1670669727
 20
-24.3659251659
 10
2.1696605016
 20
-24.35638822
 10
2.1717823812
 20
-24.3464652129
 10
2.1734267878
 20
-24.3361833832
 10
2.1745892147
 20
-24.3255709366
 10
2.1752664792
 20
-24.3146569653
 10
2.1754567273
 20
-24.3034713974
  0
LWPOLYLINE
  5
65C
100
AcDbEntity
  8
RACCORDO
100
AcDbPolyline
 62
253
  6
CONTINUOUS
 90
18
 70
0
 10
-0.0203527705
 20
-25.490367654
 10
-0.0129848611
 20
-25.4863608143
 10
-0.0062733627
 20
-25.4819132139
 10
0.0000992677
 20
-25.476872589
 10
0.006115592
 20
-25.4712527537
 10
0.0117591676
 20
-25.4650690713
 10
0.0170145828
 20
-25.458338402
 10
0.021867349
 20
-25.4510792728
 10
0.0263040296
 20
-25.4433118247
 10
0.0303124214
 20
-25.4350575596
 10
0.0338816605
 20
-25.4263390009
 10
0.037002079
 20
-25.4171798259
 10
0.0396656526
 20
-25.4076030089
 10
0.0418643449
 20
-25.3976367677
 10
0.04359119
 20
-25.3873150192
 10
0.0448421342
 20
-25.3766689511
 10
0.0456150628
 20
-25.3657261533
 10
0.0459087647
 20
-25.3545170557
  0
LWPOLYLINE
  5
65D
100
AcDbEntity
  8
RACCORDO
100
AcDbPolyline
 62
7
  6
CONTINUOUS
 90
22
 70
0
 10
2.1117742375
 20
-24.4380323614
 10
2.1215809729
 20
-24.4327214269
 10
2.1325925972
 20
-24.4260547765
 10
2.1432562606
 20
-24.4188231531
 10
2.1535429586
 20
-24.411043936
 10
2.1634316449
 20
-24.4027296451
 10
2.1728948369
 20
-24.3938986638
 10
2.1819030979
 20
-24.3845735717
 10
2.1904324551
 20
-24.3747738026
 10
2.1984572798
 20
-24.3645224956
 10
2.2059517929
 20
-24.3538459094
 10
2.2128928893
 20
-24.3427697999
 10
2.2192579059
 20
-24.3313224355
 10
2.2250256456
 20
-24.3195333624
 10
2.230176945
 20
-24.3074320477
 10
2.2346940858
 20
-24.2950485905
 10
2.238559526
 20
-24.2824179918
 10
2.2417573153
 20
-24.2695789162
 10
2.244274903
 20
-24.2565672699
 10
2.2461018539
 20
-24.2434187971
 10
2.2472293798
 20
-24.2301734497
 10
2.2476545843
 20
-24.2155984291
  0
LINE
  5
65E
100
AcDbEntity
  8
RACCORDO
100
AcDbLine
 62
7
  6
CONTINUOUS
 10
1.5830844565
 20
-24.7092602268
 11
1.5861783453
 21
-24.7075991251
  0
LINE
  5
65F
100
AcDbEntity
  8
RACCORDO
100
AcDbLine
 62
253
  6
CONTINUOUS
 10
2.1754567273
 20
-24.3034713974
 11
1.6471895555
 21
-24.5744824561
  0
LINE
  5
660
100
AcDbEntity
  8
RACCORDO
100
AcDbLine
 62
7
  6
CONTINUOUS
 10
2.1117686898
 20
-24.4380352077
 11
1.5830864262
 21
-24.7092592163
  0
LINE
  5
661
100
AcDbEntity
  8
RACCORDO
100
AcDbLine
 62
7
  6
CONTINUOUS
 10
1.5813480391
 20
-24.7101284499
 11
1.5830844565
 21
-24.7092602268
  0
LINE
  5
662
100
AcDbEntity
  8
RACCORDO
100
AcDbLine
 62
253
  6
CONTINUOUS
 10
1.6471895555
 20
-24.5744824561
 11
0.0459087647
 21
-25.3545170557
  0
LINE
  5
663
100
AcDbEntity
  8
RACCORDO
100
AcDbLine
 62
7
  6
CONTINUOUS
 10
1.5813452751
 20
-24.7101297963
 11
-0.0203528279
 21
-25.4903676819
  0
LINE
  5
664
100
AcDbEntity
  8
RACCORDO
100
AcDbLine
 62
7
  6
CONTINUOUS
 10
-3.6615232135
 20
-25.297968384
 11
1.8449243989
 21
-22.9865853406
  0
LINE
  5
665
100
AcDbEntity
  8
0
100
AcDbLine
 62
7
  6
CONTINUOUS
 10
-0.2266434146
 20
23.3282618073
 11
-1.5865753547
 21
23.2545136199
  0
LWPOLYLINE
  5
666
100
AcDbEntity
  8
ASSI
100
AcDbPolyline
 62
7
  6
CONTINUOUS
 90
16
 70
0
 10
-3.6076129041
 20
24.9788059586
 10
-3.5954680351
 20
24.9821676752
 10
-3.5827466104
 20
24.9847692107
 10
-3.5694548143
 20
24.9865940051
 10
-3.5555930995
 20
24.9876394866
 10
-3.5411784925
 20
24.98787421
 10
-3.5262468006
 20
24.9872394672
 10
-3.5108155154
 20
24.9857127836
 10
-3.4949003616
 20
24.9832855358
 10
-3.4785404405
 20
24.9799225254
 10
-3.4617959295
 20
24.9756194786
 10
-3.4446542817
 20
24.9703546937
 10
-3.4270449643
 20
24.9640624615
 10
-3.4089824924
 20
24.9567245432
 10
-3.3905028943
 20
24.9483206682
 10
-3.3828326454
 20
24.9445669872
  0
ELLIPSE
  5
667
100
AcDbEntity
  8
RACCORDO
100
AcDbEllipse
 62
7
  6
CONTINUOUS
 10
-15.9244139569
 20
20.6858655914
 30
0.0
 11
-0.1116009943
 21
0.2239381218
 31
0.0
 40
0.6122032814
 41
-0.6832419393
 42
0.031533549
  0
ELLIPSE
  5
668
100
AcDbEntity
  8
RACCORDO
100
AcDbEllipse
 62
7
  6
CONTINUOUS
 10
-2.9136491831
 20
14.1804832045
 30
0.0
 11
-0.1116009943
 21
0.2239381218
 31
0.0
 40
0.6122032814
 41
-1.759583684
 42
-0.6832419393
  0
ELLIPSE
  5
669
100
AcDbEntity
  8
IMPORT_IGES
100
AcDbEllipse
 62
7
  6
CONTINUOUS
 10
5.6316858937
 20
-8.1376412155
 30
0.0
 11
0.5384358886
 21
-0.0547002141
 31
0.0
 40
0.1703160628
 41
-0.3632055326
 42
-0.2624822218
  0
ELLIPSE
  5
66A
100
AcDbEntity
  8
IMPORT_IGES
100
AcDbEllipse
 62
7
  6
CONTINUOUS
 10
16.8093113908
 20
4.2702837348
 30
0.0
 11
0.2970260391
 21
-0.1836219405
 31
0.0
 40
0.0829501116
 41
0.0479465802
 42
0.8277528762
  0
ELLIPSE
  5
66B
100
AcDbEntity
  8
IMPORT_IGES
100
AcDbEllipse
 62
7
  6
CONTINUOUS
 10
5.5170790067
 20
0.1095756304
 30
0.0
 11
0.3000228497
 21
-0.0000304656
 31
0.0
 40
0.4999999903
 41
-1.9909770138
 42
-0.785271233
  0
ELLIPSE
  5
66C
100
AcDbEntity
  8
IMPORT_IGES
100
AcDbEllipse
 62
7
  6
CONTINUOUS
 10
3.3941395105
 20
8.7077176855
 30
0.0
 11
0.4959991763
 21
0.8693232548
 31
0.0
 40
0.6500195766
 41
0.2582183516
 42
0.7203881215
  0
ELLIPSE
  5
66D
100
AcDbEntity
  8
IMPORT_IGES
100
AcDbEllipse
 62
7
  6
CONTINUOUS
 10
5.822551509
 20
10.8362487184
 30
0.0
 11
0.2999899059
 21
-0.0050528313
 31
0.0
 40
0.4870476356
 41
-1.9904499309
 42
-0.7771948395
  0
ELLIPSE
  5
66E
100
AcDbEntity
  8
IMPORT_IGES
100
AcDbEllipse
 62
7
  6
CONTINUOUS
 10
2.775128461
 20
12.3599602423
 30
0.0
 11
0.2999899059
 21
-0.0050528313
 31
0.0
 40
0.4870476356
 41
-1.7892089969
 42
-0.7771948395
  0
ELLIPSE
  5
66F
100
AcDbEntity
  8
IMPORT_IGES
100
AcDbEllipse
 62
7
  6
CONTINUOUS
 10
4.0130805366
 20
9.283438205
 30
0.0
 11
0.9919983524
 21
1.7386465091
 31
0.0
 40
0.6500195766
 41
5.9398720091
 42
7.0035734287
  0
ELLIPSE
  5
670
100
AcDbEntity
  8
IMPORT_IGES
100
AcDbEllipse
 62
7
  6
CONTINUOUS
 10
5.3982874402
 20
10.6350177031
 30
0.0
 11
0.2999899059
 21
-0.0050528313
 31
0.0
 40
0.4870476356
 41
-0.4843385525
 42
0.0082045976
  0
ELLIPSE
  5
671
100
AcDbEntity
  8
IMPORT_IGES
100
AcDbEllipse
 62
7
  6
CONTINUOUS
 10
5.5169555808
 20
0.1962398838
 30
0.0
 11
0.3000228497
 21
-0.0000304656
 31
0.0
 40
0.4999999903
 41
-1.9911361521
 42
-0.785271233
  0
ELLIPSE
  5
672
100
AcDbEntity
  8
IMPORT_IGES
100
AcDbEllipse
 62
7
  6
CONTINUOUS
 10
6.9858457535
 20
10.0694055856
 30
0.0
 11
0.2996199708
 21
-0.1851753256
 31
0.0
 40
0.0815198604
 41
1.5570317333
 42
2.4065339704
  0
ELLIPSE
  5
673
100
AcDbEntity
  8
IMPORT_IGES
100
AcDbEllipse
 62
7
  6
CONTINUOUS
 10
3.6025774772
 20
8.8753358284
 30
0.0
 11
0.3679630777
 21
0.7104103382
 31
0.0
 40
0.6229838795
 41
0.6936054221
 42
1.4790035855
  0
ELLIPSE
  5
674
100
AcDbEntity
  8
IMPORT_IGES
100
AcDbEllipse
 62
7
  6
CONTINUOUS
 10
-12.6186897549
 20
-7.9650510382
 30
0.0
 11
0.2952573947
 21
0.0837317531
 31
0.0
 40
0.6345570966
 41
-2.5342423105
 42
-0.9634459838
  0
ELLIPSE
  5
675
100
AcDbEntity
  8
RACCORDO
100
AcDbEllipse
 62
7
  6
CONTINUOUS
 10
6.9038925861
 20
19.4021936126
 30
0.0
 11
0.499996712
 21
0.0035883639
 31
0.0
 40
0.5053247124
 41
-0.7715714568
 42
-0.0036478305
  0
ELLIPSE
  5
676
100
AcDbEntity
  8
ASSI
100
AcDbEllipse
 62
7
  6
CONTINUOUS
 10
-3.6606129406
 20
24.5244360237
 30
0.0
 11
0.2257019663
 21
0.4461636818
 31
0.0
 40
0.6159267166
 41
0.5380090616
 42
0.6817883054
  0
ELLIPSE
  5
677
100
AcDbEntity
  8
RACCORDO
100
AcDbEllipse
 62
7
  6
CONTINUOUS
 10
-9.6421236392
 20
-8.613171897
 30
0.0
 11
0.2205149116
 21
0.4487546221
 31
0.0
 40
0.607010042
 41
0.6892518406
 42
0.6987800003
  0
ELLIPSE
  5
678
100
AcDbEntity
  8
RACCORDO
100
AcDbEllipse
 62
7
  6
CONTINUOUS
 10
-10.4422535473
 20
-9.5854492409
 30
0.0
 11
0.2205149116
 21
0.4487546221
 31
0.0
 40
0.607010042
 41
0.6892518406
 42
0.7019827992
  0
ELLIPSE
  5
679
100
AcDbEntity
  8
RACCORDO
100
AcDbEllipse
 62
7
  6
CONTINUOUS
 10
-8.9927046045
 20
22.001916355
 30
0.0
 11
0.4999985559
 21
0.0023864752
 31
0.0
 40
0.5035541159
 41
2.3596088132
 42
3.0002042076
  0
ELLIPSE
  5
67A
100
AcDbEntity
  8
RACCORDO
100
AcDbEllipse
 62
7
  6
CONTINUOUS
 10
2.3542424806
 20
-22.1781645969
 30
0.0
 11
-0.2236445579
 21
0.4471998343
 31
0.0
 40
0.6124778111
 41
-3.1448859382
 42
-2.255529033
  0
ELLIPSE
  5
67B
100
AcDbEntity
  8
RACCORDO
100
AcDbEllipse
 62
7
  6
CONTINUOUS
 10
2.3542424806
 20
15.7385997336
 30
0.0
 11
-0.2237046003
 21
0.4472532382
 31
0.0
 40
0.6122950388
 41
-2.2557482655
 42
-0.6847996396
  0
ELLIPSE
  5
67C
100
AcDbEntity
  8
RACCORDO
100
AcDbEllipse
 62
7
  6
CONTINUOUS
 10
-4.7077959964
 20
25.1325316097
 30
0.0
 11
0.9987332359
 21
0.6172510855
 31
0.0
 40
0.0815198604
 41
0.0509898783
 42
0.7263320369
  0
ELLIPSE
  5
67D
100
AcDbEntity
  8
RACCORDO
100
AcDbEllipse
 62
7
  6
CONTINUOUS
 10
7.082936292
 20
-17.6775020788
 30
0.0
 11
0.9987332359
 21
0.6172510855
 31
0.0
 40
0.0815198604
 41
-2.3978073241
 42
-1.2985018509
  0
ELLIPSE
  5
67E
100
AcDbEntity
  8
RACCORDO
100
AcDbEllipse
 62
7
  6
CONTINUOUS
 10
-12.782934056
 20
22.1000515385
 30
0.0
 11
0.249929385
 21
0.0111824824
 31
0.0
 40
0.5313301283
 41
-2.3799630874
 42
-0.8149845248
  0
ELLIPSE
  5
67F
100
AcDbEntity
  8
RACCORDO
100
AcDbEllipse
 62
7
  6
CONTINUOUS
 10
-0.7518282252
 20
16.0844986231
 30
0.0
 11
0.249929385
 21
0.0111824824
 31
0.0
 40
0.5313301283
 41
3.1178369227
 42
3.9032222197
  0
ELLIPSE
  5
680
100
AcDbEntity
  8
ASSI
100
AcDbEllipse
 62
7
  6
CONTINUOUS
 10
2.5002193302
 20
21.4440198883
 30
0.0
 11
0.221538876
 21
0.4482453432
 31
0.0
 40
0.6088015717
 41
0.5323082896
 42
0.6760875334
  0
ELLIPSE
  5
681
100
AcDbEntity
  8
RACCORDO
100
AcDbEllipse
 62
7
  6
CONTINUOUS
 10
-13.9767816616
 20
-8.9732502361
 30
0.0
 11
0.2267599918
 21
0.4456316896
 31
0.0
 40
0.6176975122
 41
0.6978040307
 42
0.7132373732
  0
ELLIPSE
  5
682
100
AcDbEntity
  8
RACCORDO
100
AcDbEllipse
 62
7
  6
CONTINUOUS
 10
-13.9908236019
 20
-7.8111642136
 30
0.0
 11
0.2267599918
 21
0.4456316896
 31
0.0
 40
0.6176975122
 41
0.6978040307
 42
0.7105349894
  0
ELLIPSE
  5
683
100
AcDbEntity
  8
RACCORDO
100
AcDbEllipse
 62
7
  6
CONTINUOUS
 10
-14.8039964002
 20
-7.4045778144
 30
0.0
 11
0.2267599918
 21
0.4456316896
 31
0.0
 40
0.6176975122
 41
0.6978040307
 42
0.7105350355
  0
ELLIPSE
  5
684
100
AcDbEntity
  8
RACCORDO
100
AcDbEllipse
 62
7
  6
CONTINUOUS
 10
-14.8172689419
 20
-6.0255992456
 30
0.0
 11
0.2267599918
 21
0.4456316896
 31
0.0
 40
0.6176975122
 41
0.6978040307
 42
0.7073321904
  0
ELLIPSE
  5
685
100
AcDbEntity
  8
RACCORDO
100
AcDbEllipse
 62
7
  6
CONTINUOUS
 10
-16.7971679292
 20
-5.035649752
 30
0.0
 11
0.2267599918
 21
0.4456316896
 31
0.0
 40
0.6176975122
 41
0.6978040307
 42
0.7073323213
  0
ELLIPSE
  5
686
100
AcDbEntity
  8
DRAFT
100
AcDbEllipse
 62
7
  6
CONTINUOUS
 10
2.2482303196
 20
20.8220926321
 30
0.0
 11
0.4279673669
 21
-0.0030279657
 31
0.0
 40
0.4946372042
 41
-0.7760807437
 42
0.0034305001
  0
ELLIPSE
  5
687
100
AcDbEntity
  8
DRAFT
100
AcDbEllipse
 62
7
  6
CONTINUOUS
 10
-3.3067581096
 20
23.5995868466
 30
0.0
 11
0.4279673669
 21
-0.0030279657
 31
0.0
 40
0.4946372042
 41
-0.7818985079
 42
0.0034334511
  0
ELLIPSE
  5
688
100
AcDbEntity
  8
RACCORDO
100
AcDbEllipse
 62
7
  6
CONTINUOUS
 10
6.9038925861
 20
-17.8867223977
 30
0.0
 11
0.499366618
 21
0.3086255427
 31
0.0
 40
0.0815198604
 41
6.1080157147
 42
7.0007906979
  0
ELLIPSE
  5
689
100
AcDbEntity
  8
RACCORDO
100
AcDbEllipse
 62
7
  6
CONTINUOUS
 10
6.9038925861
 20
20.3325362714
 30
0.0
 11
-0.3708957
 21
0.6001218488
 31
0.0
 40
0.5587454355
 41
-3.1744788413
 42
-2.2817038581
  0
ELLIPSE
  5
68A
100
AcDbEntity
  8
RACCORDO
100
AcDbEllipse
 62
7
  6
CONTINUOUS
 10
6.9038925861
 20
-16.9563797388
 30
0.0
 11
0.4999969381
 21
-0.0035375912
 31
0.0
 40
0.4946372042
 41
-0.7644452153
 42
0.7888978189
  0
ELLIPSE
  5
68B
100
AcDbEntity
  8
RACCORDO
100
AcDbEllipse
 62
7
  6
CONTINUOUS
 10
-8.9927046045
 20
20.7693067498
 30
0.0
 11
0.4998587701
 21
0.0223649649
 31
0.0
 40
0.5313301283
 41
3.1178197826
 42
3.9032222197
  0
ELLIPSE
  5
68C
100
AcDbEntity
  8
RACCORDO
100
AcDbEllipse
 62
7
  6
CONTINUOUS
 10
-3.4813975048
 20
19.2462628052
 30
0.0
 11
0.4999985559
 21
0.0023864752
 31
0.0
 40
0.5035541159
 41
-1.4342147631
 42
-0.7936193687
  0
ELLIPSE
  5
68D
100
AcDbEntity
  8
RACCORDO
100
AcDbEllipse
 62
7
  6
CONTINUOUS
 10
-3.4813975048
 20
18.0136532
 30
0.0
 11
0.4998587701
 21
0.0223649649
 31
0.0
 40
0.5313301283
 41
-2.3799630874
 42
-0.8149845248
  0
ELLIPSE
  5
68E
100
AcDbEntity
  8
RACCORDO
100
AcDbEllipse
 62
7
  6
CONTINUOUS
 10
-14.1161463896
 20
22.7666577053
 30
0.0
 11
0.249929385
 21
0.0111824824
 31
0.0
 40
0.5313301283
 41
3.1179086008
 42
3.9032222197
  0
ELLIPSE
  5
68F
100
AcDbEntity
  8
RACCORDO
100
AcDbEllipse
 62
7
  6
CONTINUOUS
 10
7.082936292
 20
19.2371654654
 30
0.0
 11
-0.7417913999
 21
1.2002436976
 31
0.0
 40
0.5587454355
 41
5.1248137075
 42
6.2241191807
  0
ELLIPSE
  5
690
100
AcDbEntity
  8
RACCORDO
100
AcDbEllipse
 62
7
  6
CONTINUOUS
 10
0.5813841085
 20
15.4178924563
 30
0.0
 11
0.249929385
 21
0.0111824824
 31
0.0
 40
0.5313301283
 41
-2.3799630874
 42
-1.3352760237
  0
ENDSEC
  0
SECTION
  2
OBJECTS
  0
DICTIONARY
  5
C
100
AcDbDictionary
280
0
281
1
  3
ACAD_GROUP
350
D
  3
ACAD_MLINESTYLE
350
17
  3
ACAD_LAYOUT
350
1A
  3
ACAD_PLOTSETTINGS
350
19
  3
ACAD_PLOTSTYLENAME
350
E
  0
DICTIONARY
  5
D
102
{ACAD_REACTORS
330
C
102
}
100
AcDbDictionary
280
0
281
1
  0
ACDBDICTIONARYWDFLT
  5
E
102
{ACAD_REACTORS
330
C
102
}
100
AcDbDictionary
281
1
  3
Normal
350
F
100
AcDbDictionaryWithDefault
340
F
  0
DICTIONARY
  5
17
102
{ACAD_REACTORS
330
C
102
}
100
AcDbDictionary
280
0
281
1
  3
Standard
350
18
  0
DICTIONARY
  5
19
102
{ACAD_REACTORS
330
C
102
}
100
AcDbDictionary
281
1
  0
DICTIONARY
  5
1A
102
{ACAD_REACTORS
330
C
102
}
100
AcDbDictionary
281
1
  3
Model
350
691
  3
Layout1
350
692
  0
ACDBPLACEHOLDER
  5
F
102
{ACAD_REACTORS
330
E
102
}
  0
MLINESTYLE
  5
18
102
{ACAD_REACTORS
330
17
102
}
100
AcDbMlineStyle
  2
STANDARD
 70
0
  3

 62
256
 51
90.0
 52
90.0
 71
2
 49
0.5
 62
256
  6
BYLAYER
 49
-0.5
 62
256
  6
BYLAYER
  0
LAYOUT
  5
691
102
{ACAD_REACTORS
330
1A
102
}
100
AcDbPlotSettings
  1

  2
none_device
  4
ISO_A4_(297.00_x_210.00_MM)
  6

 40
0.0
 41
0.0
 42
0.0
 43
0.0
 44
297.0
 45
210.0
 46
0.0
 47
0.0
 48
0.0
 49
0.0
140
0.0
141
0.0
142
1.0
143
1.0
 70
1024
 72
1
 73
0
 74
0
  7

 75
0
147
1.0
148
0.0
149
0.0
100
AcDbLayout
  1
Model
 70
0
 71
0
 10
0.0
 20
0.0
 11
297.0
 21
210.0
 12
0.0
 22
0.0
 32
0.0
 14
0.0
 24
0.0
 34
0.0
 15
0.0
 25
0.0
 35
0.0
146
0.0
 13
0.0
 23
0.0
 33
0.0
 16
1.0
 26
0.0
 36
0.0
 17
0.0
 27
1.0
 37
0.0
 76
0
330
21A
345
0
346
0
  0
LAYOUT
  5
692
102
{ACAD_REACTORS
330
1A
102
}
100
AcDbPlotSettings
  1

  2
none_device
  4
ISO_A4_(297.00_x_210.00_MM)
  6

 40
0.0
 41
0.0
 42
0.0
 43
0.0
 44
297.0
 45
210.0
 46
0.0
 47
0.0
 48
0.0
 49
0.0
140
0.0
141
0.0
142
1.0
143
1.0
 70
0
 72
1
 73
0
 74
0
  7

 75
0
147
1.0
148
0.0
149
0.0
100
AcDbLayout
  1
Layout1
 70
0
 71
1
 10
0.0
 20
0.0
 11
297.0
 21
210.0
 12
0.0
 22
0.0
 32
0.0
 14
0.0
 24
0.0
 34
0.0
 15
0.0
 25
0.0
 35
0.0
146
0.0
 13
0.0
 23
0.0
 33
0.0
 16
1.0
 26
0.0
 36
0.0
 17
0.0
 27
1.0
 37
0.0
 76
0
330
21B
345
0
346
0
  0
ENDSEC
  0
EOF
