  0
SECTION
  2
HEADER
  9
$ACADVER
  1
AC1015
  9
$DWGCODEPAGE
  3
ANSI_1252
  9
$EXTMAX
 10
297.0
 20
210.0
 30
0.0
  9
$EXTMIN
 10
0.0
 20
0.0
 30
0.0
  9
$LIMMIN
 10
0.0
 20
0.0
  9
$LIMMAX
 10
297.0
 20
210.0
  9
$VIEWCTR
 10
148.5
 20
105.0
  9
$VIEWSIZE
 40
210.0
  9
$CLAYER
  8
0
  9
$LTSCALE
 40
16.335
  9
$CELTYPE
  6
BYLAYER
  9
$DIMSCALE
 40
1.0
  9
$DIMASZ
 40
3.0
  9
$DIMEXO
 40
0.5
  9
$DIMDLI
 40
11.286
  9
$DIMEXE
 40
1.5
  9
$DIMCEN
 40
2.673
  9
$DIMLFAC
 40
1.0
  9
$DIMBLK
  1
_FILLED
  9
$DIMTXT
 40
3.0
  9
$DIMTOL
 70
1
  9
$DIMLIM
 70
0
  9
$DIMTFAC
 40
1.0
  9
$DIMTP
 40
0.01
  9
$DIMTM
 40
0.01
  9
$DIMGAP
 40
0.625
  9
$DIMDSEP
 70
44
  9
$PDMODE
 70
3
  9
$PDSIZE
 40
3.0
  9
$HANDSEED
  5
6C3
  9
$TILEMODE
 70
1
  9
$MEASUREMENT
 70
1
  9
$INSUNITS
 70
4
  0
ENDSEC
  0
SECTION
  2
CLASSES
  0
CLASS
  1
ACDBDICTIONARYWDFLT
  2
AcDbDictionaryWithDefault
  3
AutoCAD 2000
 90
0
280
0
281
0
  0
CLASS
  1
ACDBPLACEHOLDER
  2
AcDbPlaceHolder
  3
AutoCAD 2000
 90
0
280
0
281
0
  0
CLASS
  1
LAYOUT
  2
AcDbLayout
  3
AutoCAD 2000
 90
0
280
0
281
0
  0
ENDSEC
  0
SECTION
  2
TABLES
  0
TABLE
  2
VPORT
  5
8
100
AcDbSymbolTable
 70
2
  0
VPORT
  5
1F4
100
AcDbSymbolTableRecord
100
AcDbViewportTableRecord
  2
*ACTIVE
 70
0
 10
0.0
 20
0.0
 11
1.0
 21
1.0
 12
148.5
 22
105.0
 13
0.0
 23
0.0
 14
1.0
 24
1.0
 15
0.0
 25
0.0
 16
0.0
 26
0.0
 36
1.0
 17
0.0
 27
0.0
 37
0.0
 40
210.0
 41
1.4142857143
 42
50.0
 43
0.0
 44
0.0
 50
0.0
 51
0.0
 71
0
 72
100
 73
1
 74
1
 75
0
 76
0
 77
0
 78
0
  0
ENDTAB
  0
TABLE
  2
LTYPE
  5
5
100
AcDbSymbolTable
 70
6
  0
LTYPE
  5
14
100
AcDbSymbolTableRecord
100
AcDbLinetypeTableRecord
  2
BYBLOCK
 70
0
  3

 72
65
 73
0
 40
0.0
  0
LTYPE
  5
15
100
AcDbSymbolTableRecord
100
AcDbLinetypeTableRecord
  2
BYLAYER
 70
0
  3

 72
65
 73
0
 40
0.0
  0
LTYPE
  5
16
100
AcDbSymbolTableRecord
100
AcDbLinetypeTableRecord
  2
CONTINUOUS
 70
64
  3
Solid line
 72
65
 73
0
 40
0.0
  0
LTYPE
  5
1F5
100
AcDbSymbolTableRecord
100
AcDbLinetypeTableRecord
  2
CENTER
 70
64
  3
____ _ ____ _ ____ _ ____ _ ____ _ ____ _ ____
 72
65
 73
4
 40
0.6
 49
0.375
 74
0
 49
-0.075
 74
0
 49
0.075
 74
0
 49
-0.075
 74
0
  0
LTYPE
  5
1F6
100
AcDbSymbolTableRecord
100
AcDbLinetypeTableRecord
  2
HIDDEN
 70
64
  3
- - - - - - - - - - - - - - - - - - - -
 72
65
 73
2
 40
0.2
 49
0.1
 74
0
 49
-0.1
 74
0
  0
LTYPE
  5
1F7
100
AcDbSymbolTableRecord
100
AcDbLinetypeTableRecord
  2
PHANTOM
 70
64
  3
_____ _ _ _____ _ _ _____ _ _ _____
 72
65
 73
6
 40
0.8
 49
0.45
 74
0
 49
-0.05
 74
0
 49
0.1
 74
0
 49
-0.05
 74
0
 49
0.1
 74
0
 49
-0.05
 74
0
  0
LTYPE
  5
1F8
100
AcDbSymbolTableRecord
100
AcDbLinetypeTableRecord
  2
DOT
 70
64
  3
. . . . . . . . . . . . . . . . . . . .
 72
65
 73
2
 40
0.2
 49
0.1
 74
0
 49
-0.1
 74
0
  0
LTYPE
  5
1F9
100
AcDbSymbolTableRecord
100
AcDbLinetypeTableRecord
  2
DASHED
 70
64
  3
- - - - - - - - - - - - - - - - - - - -
 72
65
 73
2
 40
0.2
 49
0.1
 74
0
 49
-0.1
 74
0
  0
ENDTAB
  0
TABLE
  2
LAYER
  5
2
100
AcDbSymbolTable
 70
36
  0
LAYER
  5
10
100
AcDbSymbolTableRecord
100
AcDbLayerTableRecord
  2
0
 70
0
 62
7
  6
CONTINUOUS
370
-3
390
F
  0
LAYER
  5
1FA
100
AcDbSymbolTableRecord
100
AcDbLayerTableRecord
  2
DEFAULT_1
 70
0
 62
7
  6
CENTER
370
-3
390
F
  0
LAYER
  5
1FB
100
AcDbSymbolTableRecord
100
AcDbLayerTableRecord
  2
DEFAULT_2
 70
0
 62
7
  6
HIDDEN
370
-3
390
F
  0
LAYER
  5
1FC
100
AcDbSymbolTableRecord
100
AcDbLayerTableRecord
  2
DEFAULT_3
 70
0
 62
7
  6
PHANTOM
370
-3
390
F
  0
LAYER
  5
1FD
100
AcDbSymbolTableRecord
100
AcDbLayerTableRecord
  2
06___PRT_ALL_SURFS
 70
0
 62
7
  6
CONTINUOUS
370
-3
390
F
  0
LAYER
  5
1FE
100
AcDbSymbolTableRecord
100
AcDbLayerTableRecord
  2
ASSI
 70
0
 62
7
  6
CONTINUOUS
370
-3
390
F
  0
LAYER
  5
1FF
100
AcDbSymbolTableRecord
100
AcDbLayerTableRecord
  2
COLOR3
 70
0
 62
7
  6
CONTINUOUS
370
-3
390
F
  0
LAYER
  5
200
100
AcDbSymbolTableRecord
100
AcDbLayerTableRecord
  2
COLOR4
 70
0
 62
7
  6
CONTINUOUS
370
-3
390
F
  0
LAYER
  5
201
100
AcDbSymbolTableRecord
100
AcDbLayerTableRecord
  2
COLOR5
 70
0
 62
7
  6
CONTINUOUS
370
-3
390
F
  0
LAYER
  5
202
100
AcDbSymbolTableRecord
100
AcDbLayerTableRecord
  2
COORDINATE
 70
0
 62
7
  6
CONTINUOUS
370
-3
390
F
  0
LAYER
  5
203
100
AcDbSymbolTableRecord
100
AcDbLayerTableRecord
  2
COORD_ORIGINE
 70
0
 62
7
  6
CONTINUOUS
370
-3
390
F
  0
LAYER
  5
204
100
AcDbSymbolTableRecord
100
AcDbLayerTableRecord
  2
COPY_PUBLISH
 70
0
 62
7
  6
CONTINUOUS
370
-3
390
F
  0
LAYER
  5
205
100
AcDbSymbolTableRecord
100
AcDbLayerTableRecord
  2
COSMETICI
 70
0
 62
7
  6
CONTINUOUS
370
-3
390
F
  0
LAYER
  5
206
100
AcDbSymbolTableRecord
100
AcDbLayerTableRecord
  2
CURVE
 70
0
 62
7
  6
CONTINUOUS
370
-3
390
F
  0
LAYER
  5
207
100
AcDbSymbolTableRecord
100
AcDbLayerTableRecord
  2
DRAFT
 70
0
 62
7
  6
CONTINUOUS
370
-3
390
F
  0
LAYER
  5
208
100
AcDbSymbolTableRecord
100
AcDbLayerTableRecord
  2
IMPORT
 70
0
 62
7
  6
CONTINUOUS
370
-3
390
F
  0
LAYER
  5
209
100
AcDbSymbolTableRecord
100
AcDbLayerTableRecord
  2
IMPORT_IGES
 70
0
 62
7
  6
CONTINUOUS
370
-3
390
F
  0
LAYER
  5
20A
100
AcDbSymbolTableRecord
100
AcDbLayerTableRecord
  2
INCISIONI_LASER
 70
0
 62
7
  6
CONTINUOUS
370
-3
390
F
  0
LAYER
  5
20B
100
AcDbSymbolTableRecord
100
AcDbLayerTableRecord
  2
INTF_BLANK
 70
0
 62
7
  6
CONTINUOUS
370
-3
390
F
  0
LAYER
  5
20C
100
AcDbSymbolTableRecord
100
AcDbLayerTableRecord
  2
LAY0001
 70
0
 62
7
  6
CONTINUOUS
370
-3
390
F
  0
LAYER
  5
20D
100
AcDbSymbolTableRecord
100
AcDbLayerTableRecord
  2
NOTE
 70
0
 62
7
  6
CONTINUOUS
370
-3
390
F
  0
LAYER
  5
20E
100
AcDbSymbolTableRecord
100
AcDbLayerTableRecord
  2
PIANI
 70
0
 62
7
  6
CONTINUOUS
370
-3
390
F
  0
LAYER
  5
20F
100
AcDbSymbolTableRecord
100
AcDbLayerTableRecord
  2
PIANI_ORIGINE
 70
0
 62
7
  6
CONTINUOUS
370
-3
390
F
  0
LAYER
  5
210
100
AcDbSymbolTableRecord
100
AcDbLayerTableRecord
  2
PIANI_RIFERIMENTO
 70
0
 62
7
  6
CONTINUOUS
370
-3
390
F
  0
LAYER
  5
211
100
AcDbSymbolTableRecord
100
AcDbLayerTableRecord
  2
PUNTI
 70
0
 62
7
  6
CONTINUOUS
370
-3
390
F
  0
LAYER
  5
212
100
AcDbSymbolTableRecord
100
AcDbLayerTableRecord
  2
RACCORDO
 70
0
 62
7
  6
CONTINUOUS
370
-3
390
F
  0
LAYER
  5
213
100
AcDbSymbolTableRecord
100
AcDbLayerTableRecord
  2
SIMBOLI
 70
0
 62
7
  6
CONTINUOUS
370
-3
390
F
  0
LAYER
  5
214
100
AcDbSymbolTableRecord
100
AcDbLayerTableRecord
  2
SMUSSO
 70
0
 62
7
  6
CONTINUOUS
370
-3
390
F
  0
LAYER
  5
215
100
AcDbSymbolTableRecord
100
AcDbLayerTableRecord
  2
SNAPLINE
 70
0
 62
7
  6
CONTINUOUS
370
-3
390
F
  0
LAYER
  5
216
100
AcDbSymbolTableRecord
100
AcDbLayerTableRecord
  2
SUPERFICI
 70
0
 62
7
  6
CONTINUOUS
370
-3
390
F
  0
LAYER
  5
217
100
AcDbSymbolTableRecord
100
AcDbLayerTableRecord
  2
TRASH
 70
0
 62
7
  6
CONTINUOUS
370
-3
390
F
  0
LAYER
  5
218
100
AcDbSymbolTableRecord
100
AcDbLayerTableRecord
  2
XSEC_DATUMS
 70
0
 62
7
  6
CONTINUOUS
370
-3
390
F
  0
LAYER
  5
219
100
AcDbSymbolTableRecord
100
AcDbLayerTableRecord
  2
_BLACK_HOLE
 70
0
 62
7
  6
CONTINUOUS
370
-3
390
F
  0
LAYER
  5
21A
100
AcDbSymbolTableRecord
100
AcDbLayerTableRecord
  2
___SHELL
 70
0
 62
7
  6
CONTINUOUS
370
-3
390
F
  0
ENDTAB
  0
TABLE
  2
STYLE
  5
3
100
AcDbSymbolTable
 70
1
  0
STYLE
  5
11
100
AcDbSymbolTableRecord
100
AcDbTextStyleTableRecord
  2
STANDARD
 70
0
 40
0.0
 41
0.8
 50
0.0
 71
0
 42
0.2
  3
txt
  4

  0
STYLE
  5
21B
100
AcDbSymbolTableRecord
100
AcDbTextStyleTableRecord
  2
TEXTSTYLE_1
 70
0
 40
0.0
 41
0.8
 50
0.0
 71
0
 42
0.2
  3
gdt
  4

  0
ENDTAB
  0
TABLE
  2
VIEW
  5
6
100
AcDbSymbolTable
 70
0
  0
ENDTAB
  0
TABLE
  2
UCS
  5
7
100
AcDbSymbolTable
 70
0
  0
ENDTAB
  0
TABLE
  2
APPID
  5
9
100
AcDbSymbolTable
 70
1
  0
APPID
  5
21C
100
AcDbSymbolTableRecord
100
AcDbRegAppTableRecord
  2
ACAD
 70
0
  0
ENDTAB
  0
TABLE
  2
BLOCK_RECORD
  5
1
100
AcDbSymbolTable
 70
0
  0
BLOCK_RECORD
  5
21D
100
AcDbSymbolTableRecord
100
AcDbBlockTableRecord
  2
*Model_Space
  0
BLOCK_RECORD
  5
21E
100
AcDbSymbolTableRecord
100
AcDbBlockTableRecord
  2
*Paper_Space
  0
ENDTAB
  0
TABLE
  2
DIMSTYLE
  5
A
100
AcDbSymbolTable
 70
1
100
AcDbDimStyleTable
 71
0
  0
DIMSTYLE
105
21F
100
AcDbSymbolTableRecord
100
AcDbDimStyleTableRecord
  2
STANDARD
 70
0
  3

  4

 40
1.0
 41
3.0
 42
0.5
 43
0.38
 44
1.5
 45
0.0
 46
0.0
 47
0.01
 48
0.01
140
3.0
141
0.09
142
0.0
143
25.4
144
1.0
145
0.0
146
1.0
147
0.625
 71
1.0
 72
0.0
 73
0
 74
0
 75
0
 76
0
 77
1
 78
8
170
0
171
2
172
0
173
0
174
0
175
0
176
0
177
0
178
0
270
2
271
2
272
2
273
2
274
2
275
0
280
0
281
0
282
0
283
1
284
8
285
0
286
0
287
3
288
0
340
11
278
44
  0
ENDTAB
  0
ENDSEC
  0
SECTION
  2
BLOCKS
  0
BLOCK
  5
20
100
AcDbEntity
  8
0
100
AcDbBlockBegin
  2
*Model_Space
 70
0
 10
0.0
 20
0.0
 30
0.0
  3
*Model_Space
  1

  0
ENDBLK
  5
21
100
AcDbEntity
  8
0
100
AcDbBlockEnd
  0
BLOCK
  5
1C
100
AcDbEntity
  8
0
100
AcDbBlockBegin
  2
*Paper_Space
 70
0
 10
0.0
 20
0.0
 30
0.0
  3
*Paper_Space
  1

  0
ENDBLK
  5
1D
100
AcDbEntity
  8
0
100
AcDbBlockEnd
  0
ENDSEC
  0
SECTION
  2
ENTITIES
  0
LWPOLYLINE
  5
220
100
AcDbEntity
  8
RACCORDO
100
AcDbPolyline
 62
7
  6
CONTINUOUS
 90
22
 70
0
 10
-14.6385456148
 20
24.1377035965
 10
-14.650072619
 20
24.1314020884
 10
-14.6612978056
 20
24.1244742664
 10
-14.6721784767
 20
24.116937265
 10
-14.6826777285
 20
24.1088081938
 10
-14.6927510488
 20
24.1001144764
 10
-14.7023488354
 20
24.0908958108
 10
-14.711398779
 20
24.081228716
 10
-14.7199145877
 20
24.0711079891
 10
-14.7279621068
 20
24.0604404846
 10
-14.7355394922
 20
24.0491828717
 10
-14.7425508591
 20
24.0374307705
 10
-14.7489174636
 20
24.0252946795
 10
-14.7546034029
 20
24.0128422499
 10
-14.7596005125
 20
24.0000936819
 10
-14.7638915
 20
23.9870927265
 10
-14.7674615284
 20
23.9738880525
 10
-14.7703017428
 20
23.9605200894
 10
-14.7724076012
 20
23.9470139308
 10
-14.7737731855
 20
23.9333980221
 10
-14.7743917593
 20
23.9197251099
 10
-14.774431509
 20
23.9152735508
  0
LINE
  5
221
100
AcDbEntity
  8
RACCORDO
100
AcDbLine
 62
7
  6
CONTINUOUS
 10
-13.0553739198
 20
24.9499006438
 11
-14.6385456148
 21
24.1377035965
  0
LINE
  5
222
100
AcDbEntity
  8
RACCORDO
100
AcDbLine
 62
253
  6
CONTINUOUS
 10
-12.9427033455
 20
24.9432397187
 11
-14.5254599486
 21
24.1312556214
  0
LINE
  5
223
100
AcDbEntity
  8
RACCORDO
100
AcDbLine
 62
7
  6
CONTINUOUS
 10
-13.0536355343
 20
24.9507698766
 11
-13.0553719461
 21
24.9499016564
  0
LINE
  5
224
100
AcDbEntity
  8
RACCORDO
100
AcDbLine
 62
7
  6
CONTINUOUS
 10
-12.5187655779
 20
25.2113219763
 11
-13.0536327687
 21
24.9507712238
  0
LINE
  5
225
100
AcDbEntity
  8
RACCORDO
100
AcDbLine
 62
253
  6
CONTINUOUS
 10
-12.4082534668
 20
25.2035871853
 11
-12.9427033455
 21
24.9432397187
  0
LWPOLYLINE
  5
226
100
AcDbEntity
  8
RACCORDO
100
AcDbPolyline
 62
253
  6
CONTINUOUS
 90
3
 70
0
 10
-17.6275856578
 20
19.6230234378
 10
-17.5649900671
 20
19.6652206195
 10
-17.5025704356
 20
19.7027046495
  0
LWPOLYLINE
  5
227
100
AcDbEntity
  8
RACCORDO
100
AcDbPolyline
 62
7
  6
CONTINUOUS
 90
37
 70
0
 10
-18.6604029124
 20
20.1138632989
 10
-18.6920790931
 20
20.0948171918
 10
-18.7349669736
 20
20.0671637877
 10
-18.7770379806
 20
20.0378882141
 10
-18.8182745019
 20
20.0070509431
 10
-18.8586675959
 20
19.9747057135
 10
-18.8982036457
 20
19.9409046185
 10
-18.9368685129
 20
19.9056988806
 10
-18.9746471202
 20
19.8691371793
 10
-19.0115144061
 20
19.8312742428
 10
-19.0474534973
 20
19.7921578437
 10
-19.0824453356
 20
19.7518334714
 10
-19.1164563935
 20
19.7103631646
 10
-19.1494659625
 20
19.6677944083
 10
-19.1814520112
 20
19.6241718773
 10
-19.2123768867
 20
19.5795642639
 10
-19.2422170731
 20
19.5340191858
 10
-19.2709489415
 20
19.4875826566
 10
-19.2985336503
 20
19.4403274989
 10
-19.3249463657
 20
19.3923012377
 10
-19.3501625751
 20
19.343552253
 10
-19.3741428717
 20
19.2941569115
 10
-19.3968623164
 20
19.2441636003
 10
-19.418296251
 20
19.1936212787
 10
-19.438406657
 20
19.1426070877
 10
-19.4571695893
 20
19.0911692582
 10
-19.4745594978
 20
19.0393565493
 10
-19.4905412766
 20
18.9872445762
 10
-19.5050911038
 20
18.9348803339
 10
-19.5181822299
 20
18.882310922
 10
-19.5297832353
 20
18.8296066071
 10
-19.5398683781
 20
18.7768136538
 10
-19.5484093067
 20
18.7239775213
 10
-19.5553762252
 20
18.6711561207
 10
-19.560739072
 20
18.6183934917
 10
-19.5644672296
 20
18.5657336516
 10
-19.5661078665
 20
18.5283208134
  0
LWPOLYLINE
  5
228
100
AcDbEntity
  8
ASSI
100
AcDbPolyline
 62
7
  6
CONTINUOUS
 90
43
 70
0
 10
-17.7204645252
 20
19.7517925346
 10
-17.7577549587
 20
19.7299409055
 10
-17.7948392643
 20
19.7066066358
 10
-17.8317174418
 20
19.6817897256
 10
-17.8684345651
 20
19.6554558346
 10
-17.9049455604
 20
19.6276393031
 10
-17.9411152066
 20
19.5984431515
 10
-17.9769422381
 20
19.5678622639
 10
-18.0124279206
 20
19.5359017562
 10
-18.0474408304
 20
19.5026799963
 10
-18.0819792144
 20
19.4681923074
 10
-18.1160448257
 20
19.4324433664
 10
-18.1495114999
 20
19.3955655719
 10
-18.1823770162
 20
19.3575547381
 10
-18.2146435953
 20
19.3184150507
 10
-18.2461917359
 20
19.2782914665
 10
-18.2770187738
 20
19.237180337
 10
-18.3071273731
 20
19.1950853106
 10
-18.3364060245
 20
19.1521622891
 10
-18.3648516505
 20
19.1084082023
 10
-18.3924673286
 20
19.0638261205
 10
-18.4191507822
 20
19.0185811565
 10
-18.4448985545
 20
18.9726708523
 10
-18.4697141023
 20
18.9260976659
 10
-18.4935055196
 20
18.8790340843
 10
-18.5162690087
 20
18.8314782892
 10
-18.5380083671
 20
18.7834320989
 10
-18.5586430818
 20
18.7350734559
 10
-18.5781690564
 20
18.6864012016
 10
-18.5965903873
 20
18.6374164945
 10
-18.6138388496
 20
18.588300753
 10
-18.6299100943
 20
18.5390534912
 10
-18.6448084705
 20
18.4896751949
 10
-18.658478801
 20
18.4403487402
 10
-18.6709165321
 20
18.3910743192
 10
-18.6821262175
 20
18.3418517397
 10
-18.6920663413
 20
18.292863301
 10
-18.700732196
 20
18.2441098712
 10
-18.7081284891
 20
18.1955905823
 10
-18.714227828
 20
18.1474851287
 10
-18.7190210818
 20
18.0998534086
 10
-18.7225173814
 20
18.0526355239
 10
-18.7247167268
 20
18.0058314745
  0
LINE
  5
229
100
AcDbEntity
  8
RACCORDO
100
AcDbLine
 62
7
  6
CONTINUOUS
 10
-18.6604133819
 20
20.1138573323
 11
-14.071438555
 21
22.7896499742
  0
LINE
  5
22A
100
AcDbEntity
  8
RACCORDO
100
AcDbLine
 62
253
  6
CONTINUOUS
 10
-14.071438555
 20
22.6448157977
 11
-18.4270593343
 21
20.1050899391
  0
LWPOLYLINE
  5
22B
100
AcDbEntity
  8
RACCORDO
100
AcDbPolyline
 62
253
  6
CONTINUOUS
 90
17
 70
0
 10
-18.6604029722
 20
20.1138634016
 10
-18.6579547196
 20
20.115264799
 10
-18.6453182484
 20
20.1217165588
 10
-18.6321460575
 20
20.1271732016
 10
-18.6184679516
 20
20.1316223806
 10
-18.6043148797
 20
20.1350540288
 10
-18.5897188661
 20
20.1374603814
 10
-18.5747129368
 20
20.1388359936
 10
-18.5593310456
 20
20.1391777527
 10
-18.543607997
 20
20.1384848856
 10
-18.5275793673
 20
20.13675896
 10
-18.5112814243
 20
20.134003881
 10
-18.4947510452
 20
20.1302258826
 10
-18.478025633
 20
20.1254335132
 10
-18.4611430323
 20
20.1196376165
 10
-18.4441414429
 20
20.1128513067
 10
-18.4270593343
 20
20.1050899391
  0
LINE
  5
22C
100
AcDbEntity
  8
ASSI
100
AcDbLine
 62
7
  6
CONTINUOUS
 10
-17.7204645252
 20
19.7517925346
 11
-15.8418381567
 21
20.8116875294
  0
LINE
  5
22D
100
AcDbEntity
  8
RACCORDO
100
AcDbLine
 62
7
  6
CONTINUOUS
 10
-17.6161627625
 20
19.7088577292
 11
-15.7455939539
 21
20.7642067603
  0
LINE
  5
22E
100
AcDbEntity
  8
RACCORDO
100
AcDbLine
 62
253
  6
CONTINUOUS
 10
-17.5025704356
 20
19.7027046495
 11
-15.6297061224
 21
20.7593487725
  0
LINE
  5
22F
100
AcDbEntity
  8
RACCORDO
100
AcDbLine
 62
253
  6
CONTINUOUS
 10
-11.599194478
 20
24.271485285
 11
-13.2004752688
 21
23.4687632815
  0
LINE
  5
230
100
AcDbEntity
  8
RACCORDO
100
AcDbLine
 62
253
  6
CONTINUOUS
 10
-11.4224207743
 20
23.9665957462
 11
-13.0237015651
 21
23.1638737427
  0
LINE
  5
231
100
AcDbEntity
  8
RACCORDO
100
AcDbLine
 62
253
  6
CONTINUOUS
 10
-11.0709273063
 20
24.534924105
 11
-11.599194478
 21
24.271485285
  0
LINE
  5
232
100
AcDbEntity
  8
RACCORDO
100
AcDbLine
 62
253
  6
CONTINUOUS
 10
-10.8941536026
 20
24.2300345662
 11
-11.4224207743
 21
23.9665957462
  0
LINE
  5
233
100
AcDbEntity
  8
RACCORDO
100
AcDbLine
 62
253
  6
CONTINUOUS
 10
-11.4224207743
 20
23.2395508937
 11
-10.8941536026
 21
23.8825030495
  0
LWPOLYLINE
  5
234
100
AcDbEntity
  8
RACCORDO
100
AcDbPolyline
 62
7
  6
CONTINUOUS
 90
30
 70
0
 10
-12.312480957
 20
22.6753962857
 10
-12.32036008
 20
22.6662618824
 10
-12.3285803291
 20
22.6572644415
 10
-12.3371381903
 20
22.6484254549
 10
-12.3460366208
 20
22.639768925
 10
-12.3552630559
 20
22.6313142458
 10
-12.3647896302
 20
22.6230763531
 10
-12.3746098185
 20
22.6150775995
 10
-12.3847157167
 20
22.6073397227
 10
-12.3950764997
 20
22.5998771829
 10
-12.4056830209
 20
22.592712405
 10
-12.4165249323
 20
22.5858670997
 10
-12.4275687094
 20
22.5793551281
 10
-12.4388025579
 20
22.573198609
 10
-12.4502135087
 20
22.5674189451
 10
-12.4617653291
 20
22.5620294216
 10
-12.473443461
 20
22.5570514639
 10
-12.4852321925
 20
22.5525057666
 10
-12.4970925065
 20
22.5484049814
 10
-12.5090069542
 20
22.544769356
 10
-12.5209569675
 20
22.5416183709
 10
-12.5329006451
 20
22.5389638346
 10
-12.5448174947
 20
22.5368242022
 10
-12.5566860619
 20
22.5352170648
 10
-12.5684616406
 20
22.534152904
 10
-12.580120461
 20
22.5336475987
 10
-12.5916383982
 20
22.5337159648
 10
-12.6029687509
 20
22.5343663632
 10
-12.6140740133
 20
22.535609756
 10
-12.624938365
 20
22.5374572514
  0
LINE
  5
235
100
AcDbEntity
  8
RACCORDO
100
AcDbLine
 62
7
  6
CONTINUOUS
 10
-11.4224207743
 20
22.3644450852
 11
-12.312480957
 21
21.8677641639
  0
LINE
  5
236
100
AcDbEntity
  8
RACCORDO
100
AcDbLine
 62
7
  6
CONTINUOUS
 10
-9.053601056
 20
22.0343266719
 11
-8.7000596668
 21
22.2157000967
  0
LINE
  5
237
100
AcDbEntity
  8
RACCORDO
100
AcDbLine
 62
7
  6
CONTINUOUS
 10
-3.6998377127
 20
25.5047491142
 11
-10.0143780393
 21
22.3599728097
  0
LINE
  5
238
100
AcDbEntity
  8
ASSI
100
AcDbLine
 62
7
  6
CONTINUOUS
 10
-8.7000596668
 20
22.2157000967
 11
-3.3638362608
 21
24.8151435622
  0
LWPOLYLINE
  5
239
100
AcDbEntity
  8
RACCORDO
100
AcDbPolyline
 62
253
  6
CONTINUOUS
 90
8
 70
0
 10
-17.6161627625
 20
19.7088577292
 10
-17.6047102378
 20
19.7142491167
 10
-17.5897192801
 20
19.7185519762
 10
-17.573672137
 20
19.7203630532
 10
-17.5567446244
 20
19.7196625053
 10
-17.5391222037
 20
19.7164580078
 10
-17.5209979497
 20
19.7107846698
 10
-17.5025704356
 20
19.7027046495
  0
LWPOLYLINE
  5
23A
100
AcDbEntity
  8
RACCORDO
100
AcDbPolyline
 62
7
  6
CONTINUOUS
 90
24
 70
0
 10
-4.2013952633
 20
-25.4349343647
 10
-4.1785437508
 20
-25.4459579495
 10
-4.1461592611
 20
-25.4602372365
 10
-4.113095758
 20
-25.4732699217
 10
-4.0793826681
 20
-25.4850294032
 10
-4.0450275738
 20
-25.4954956658
 10
-4.0100703299
 20
-25.5046384098
 10
-3.974554082
 20
-25.5124302488
 10
-3.9384884071
 20
-25.5188515248
 10
-3.9019116149
 20
-25.5238758847
 10
-3.8648699198
 20
-25.5274783919
 10
-3.8273808068
 20
-25.529639441
 10
-3.7894872053
 20
-25.5303375211
 10
-3.7512292633
 20
-25.5295527162
 10
-3.7126148364
 20
-25.5272647969
 10
-3.6736844345
 20
-25.5234555504
 10
-3.6344765791
 20
-25.5181077899
 10
-3.5949902127
 20
-25.5111974043
 10
-3.55525809
 20
-25.5027044006
 10
-3.5153192017
 20
-25.4926117238
 10
-3.475175356
 20
-25.4808913835
 10
-3.4348492185
 20
-25.46751839
 10
-3.3943909433
 20
-25.4524790879
 10
-3.3668264436
 20
-25.4412930901
  0
LINE
  5
23B
100
AcDbEntity
  8
RACCORDO
100
AcDbLine
 62
7
  6
CONTINUOUS
 10
-19.0352088793
 20
-18.0180275742
 11
-4.2013104698
 21
-25.434976779
  0
LINE
  5
23C
100
AcDbEntity
  8
RACCORDO
100
AcDbLine
 62
7
  6
CONTINUOUS
 10
-4.2013976865
 20
-25.4349331615
 11
-4.2013107964
 21
-25.4349766157
  0
LINE
  5
23D
100
AcDbEntity
  8
RACCORDO
100
AcDbLine
 62
253
  6
CONTINUOUS
 10
-19.4196253443
 20
-17.2619540844
 11
-4.5947792667
 21
-24.6743771232
  0
LWPOLYLINE
  5
23E
100
AcDbEntity
  8
RACCORDO
100
AcDbPolyline
 62
253
  6
CONTINUOUS
 90
25
 70
0
 10
-19.0352088793
 20
-18.0180275742
 10
-19.0639754888
 20
-18.0025599931
 10
-19.0912467682
 20
-17.9857672907
 10
-19.1176288234
 20
-17.9673498176
 10
-19.1430886819
 20
-17.9473305432
 10
-19.1675944451
 20
-17.9257344518
 10
-19.1911165743
 20
-17.9025878581
 10
-19.213625743
 20
-17.8779194679
 10
-19.2350936602
 20
-17.8517600551
 10
-19.2554942563
 20
-17.8241418666
 10
-19.2748020015
 20
-17.7950993315
 10
-19.2929927835
 20
-17.7646684735
 10
-19.3100447195
 20
-17.7328865725
 10
-19.3259365063
 20
-17.6997931075
 10
-19.3406482438
 20
-17.6654291196
 10
-19.354162285
 20
-17.6298366009
 10
-19.3664618788
 20
-17.5930592183
 10
-19.3775314025
 20
-17.555142951
 10
-19.3873572395
 20
-17.5161354932
 10
-19.395927042
 20
-17.4760861126
 10
-19.4032303387
 20
-17.4350436295
 10
-19.4092586125
 20
-17.393056937
 10
-19.4140043912
 20
-17.350177276
 10
-19.4174614417
 20
-17.3064583082
 10
-19.4196253443
 20
-17.2619540844
  0
LINE
  5
23F
100
AcDbEntity
  8
RACCORDO
100
AcDbLine
 62
7
  6
CONTINUOUS
 10
-11.4224207743
 20
23.1500204274
 11
-10.8787930302
 21
23.8116678829
  0
LINE
  5
240
100
AcDbEntity
  8
0
100
AcDbLine
 62
7
  6
CONTINUOUS
 10
-10.4678266197
 20
18.9524243352
 11
-11.1951573668
 21
18.5420743948
  0
LINE
  5
241
100
AcDbEntity
  8
ASSI
100
AcDbLine
 62
7
  6
CONTINUOUS
 10
-2.7583058261
 20
24.5123783449
 11
-7.3565567825
 21
22.2460170474
  0
LINE
  5
242
100
AcDbEntity
  8
DRAFT
100
AcDbLine
 62
7
  6
CONTINUOUS
 10
-6.1284759594
 20
21.6319766358
 11
-2.7094297946
 21
23.3049563149
  0
LINE
  5
243
100
AcDbEntity
  8
RACCORDO
100
AcDbLine
 62
7
  6
CONTINUOUS
 10
-0.6328717688
 20
23.9712661423
 11
-5.7749225689
 21
21.4551999405
  0
LWPOLYLINE
  5
244
100
AcDbEntity
  8
ASSI
100
AcDbPolyline
 62
7
  6
CONTINUOUS
 90
7
 70
0
 10
-2.7583058261
 20
24.5123783449
 10
-2.7500965668
 20
24.51630583
 10
-2.741912609
 20
24.5199908922
 10
-2.733753953
 20
24.5234335315
 10
-2.7256205985
 20
24.5266337479
 10
-2.7175125457
 20
24.5295915414
 10
-2.7094297946
 20
24.532306912
  0
LINE
  5
245
100
AcDbEntity
  8
RACCORDO
100
AcDbLine
 62
253
  6
CONTINUOUS
 10
2.4701645619
 20
-24.0992601721
 11
1.9418973901
 21
-23.9907578951
  0
LINE
  5
246
100
AcDbEntity
  8
RACCORDO
100
AcDbLine
 62
253
  6
CONTINUOUS
 10
2.3807507665
 20
-23.7796933661
 11
1.9418973901
 21
-23.6895560394
  0
LWPOLYLINE
  5
247
100
AcDbEntity
  8
RACCORDO
100
AcDbPolyline
 62
253
  6
CONTINUOUS
 90
31
 70
0
 10
-0.0119053604
 20
-25.4973246233
 10
-0.0024473422
 20
-25.5018131569
 10
0.0074658948
 20
-25.5060490032
 10
0.01780738
 20
-25.5100206379
 10
0.0285489776
 20
-25.5137172555
 10
0.0396614632
 20
-25.5171287986
 10
0.0511146036
 20
-25.5202459856
 10
0.0628772384
 20
-25.5230603357
 10
0.0749173654
 20
-25.5255641919
 10
0.0872022275
 20
-25.5277507421
 10
0.0996984016
 20
-25.5296140375
 10
0.1123718896
 20
-25.5311490085
 10
0.1251882113
 20
-25.5323514791
 10
0.1381124976
 20
-25.5332181777
 10
0.151109586
 20
-25.5337467463
 10
0.1641441154
 20
-25.5339357468
 10
0.1771806234
 20
-25.5337846652
 10
0.1901836419
 20
-25.5332939123
 10
0.203117794
 20
-25.5324648234
 10
0.2159478901
 20
-25.5312996541
 10
0.2286390238
 20
-25.5298015745
 10
0.2411566666
 20
-25.5279746604
 10
0.2534667623
 20
-25.5258238822
 10
0.2655358191
 20
-25.5233550915
 10
0.2773310012
 20
-25.5205750049
 10
0.2888202176
 20
-25.5174911863
 10
0.2999722101
 20
-25.5141120257
 10
0.3107566378
 20
-25.5104467165
 10
0.3211441597
 20
-25.5065052311
 10
0.331106515
 20
-25.5022982927
 10
0.3406165993
 20
-25.4978373472
  0
LWPOLYLINE
  5
248
100
AcDbEntity
  8
RACCORDO
100
AcDbPolyline
 62
253
  6
CONTINUOUS
 90
31
 70
0
 10
-0.0119053604
 20
-25.1573506892
 10
-0.0024473422
 20
-25.1618392228
 10
0.0074658948
 20
-25.1660750691
 10
0.01780738
 20
-25.1700467038
 10
0.0285489776
 20
-25.1737433213
 10
0.0396614632
 20
-25.1771548644
 10
0.0511146036
 20
-25.1802720515
 10
0.0628772384
 20
-25.1830864015
 10
0.0749173654
 20
-25.1855902578
 10
0.0872022275
 20
-25.187776808
 10
0.0996984016
 20
-25.1896401033
 10
0.1123718896
 20
-25.1911750744
 10
0.1251882113
 20
-25.1923775449
 10
0.1381124976
 20
-25.1932442435
 10
0.151109586
 20
-25.1937728121
 10
0.1641441154
 20
-25.1939618127
 10
0.1771806234
 20
-25.193810731
 10
0.1901836419
 20
-25.1933199781
 10
0.203117794
 20
-25.1924908892
 10
0.2159478901
 20
-25.19132572
 10
0.2286390238
 20
-25.1898276404
 10
0.2411566666
 20
-25.1880007263
 10
0.2534667623
 20
-25.1858499481
 10
0.2655358191
 20
-25.1833811573
 10
0.2773310012
 20
-25.1806010708
 10
0.2888202176
 20
-25.1775172522
 10
0.2999722101
 20
-25.1741380915
 10
0.3107566378
 20
-25.1704727824
 10
0.3211441597
 20
-25.166531297
 10
0.331106515
 20
-25.1623243586
 10
0.3406165993
 20
-25.1578634131
  0
LWPOLYLINE
  5
249
100
AcDbEntity
  8
RACCORDO
100
AcDbPolyline
 62
7
  6
CONTINUOUS
 90
19
 70
0
 10
0.0530680086
 20
-25.6325431097
 10
0.0617184789
 20
-25.63666306
 10
0.0735547851
 20
-25.6416620536
 10
0.0856532847
 20
-25.6460533365
 10
0.097984821
 20
-25.649822544
 10
0.1105159004
 20
-25.652955715
 10
0.1232175448
 20
-25.6554417762
 10
0.1360574708
 20
-25.6572702469
 10
0.1490007148
 20
-25.658432014
 10
0.1620133662
 20
-25.6589199392
 10
0.1750602346
 20
-25.658728562
 10
0.1881057584
 20
-25.6578542573
 10
0.2011147944
 20
-25.6562951479
 10
0.214053104
 20
-25.6540508481
 10
0.2268822186
 20
-25.6511234973
 10
0.2395605702
 20
-25.6475185846
 10
0.2520515832
 20
-25.6432429216
 10
0.2643196832
 20
-25.6383050313
 10
0.2743550641
 20
-25.6336879454
  0
LINE
  5
24A
100
AcDbEntity
  8
RACCORDO
100
AcDbLine
 62
7
  6
CONTINUOUS
 10
-1.2719167438
 20
-24.9700507335
 11
0.053067936
 21
-25.6325430734
  0
LINE
  5
24B
100
AcDbEntity
  8
RACCORDO
100
AcDbLine
 62
253
  6
CONTINUOUS
 10
-1.3368900402
 20
-24.8348322834
 11
-0.0119053604
 21
-25.4973246233
  0
LINE
  5
24C
100
AcDbEntity
  8
RACCORDO
100
AcDbLine
 62
253
  6
CONTINUOUS
 10
-0.0119053604
 20
-25.1573506892
 11
-1.2343087307
 21
-24.546149004
  0
LINE
  5
24D
100
AcDbEntity
  8
RACCORDO
100
AcDbLine
 62
253
  6
CONTINUOUS
 10
0.0764829873
 20
-24.9256565154
 11
-0.9343516406
 21
-24.4202392014
  0
LWPOLYLINE
  5
24E
100
AcDbEntity
  8
RACCORDO
100
AcDbPolyline
 62
253
  6
CONTINUOUS
 90
16
 70
0
 10
-1.3368900402
 20
-24.8348322834
 10
-1.3458671074
 20
-24.8301032743
 10
-1.3543388
 20
-24.8251466558
 10
-1.3622820694
 20
-24.8199759133
 10
-1.3696753044
 20
-24.8146051145
 10
-1.3764983907
 20
-24.8090488716
 10
-1.3827327647
 20
-24.8033223014
 10
-1.3883614649
 20
-24.797440984
 10
-1.3933691774
 20
-24.7914209205
 10
-1.3977422778
 20
-24.7852784895
 10
-1.4014688685
 20
-24.7790304025
 10
-1.4045388105
 20
-24.7726936584
 10
-1.4069437517
 20
-24.7662854976
 10
-1.4086771488
 20
-24.7598233544
 10
-1.4097342861
 20
-24.7533248103
 10
-1.4101133449
 20
-24.7464439358
  0
LWPOLYLINE
  5
24F
100
AcDbEntity
  8
RACCORDO
100
AcDbPolyline
 62
253
  6
CONTINUOUS
 90
17
 70
0
 10
-19.5658998505
 20
-17.0882551754
 10
-19.564577831
 20
-17.1005683566
 10
-19.5621521279
 20
-17.112808324
 10
-19.5586281149
 20
-17.124947962
 10
-19.554013599
 20
-17.1369603777
 10
-19.5483188025
 20
-17.1488189598
 10
-19.5415563413
 20
-17.1604974378
 10
-19.5337411964
 20
-17.1719699402
 10
-19.5248906807
 20
-17.1832110519
 10
-19.5150244009
 20
-17.1941958703
 10
-19.5041642139
 20
-17.2049000606
 10
-19.4923341784
 20
-17.2152999096
 10
-19.4795605016
 20
-17.2253723786
 10
-19.4658714812
 20
-17.2350951537
 10
-19.4512974426
 20
-17.244446696
 10
-19.4358706719
 20
-17.253406289
 10
-19.4196253442
 20
-17.2619540843
  0
LWPOLYLINE
  5
250
100
AcDbEntity
  8
RACCORDO
100
AcDbPolyline
 62
7
  6
CONTINUOUS
 90
27
 70
0
 10
-19.5660890741
 20
-17.0843059368
 10
-19.5643278296
 20
-17.1223898737
 10
-19.5604213317
 20
-17.1734301514
 10
-19.5547876335
 20
-17.2235625869
 10
-19.547436654
 20
-17.2727805438
 10
-19.5383859178
 20
-17.3210276056
 10
-19.5276683433
 20
-17.3681914177
 10
-19.5153048915
 20
-17.4142487984
 10
-19.5013189628
 20
-17.4591664777
 10
-19.4857675501
 20
-17.5028192621
 10
-19.4686856563
 20
-17.545179889
 10
-19.4501096896
 20
-17.5862209446
 10
-19.4301255953
 20
-17.6258207982
 10
-19.408803015
 20
-17.6639258106
 10
-19.3861818003
 20
-17.7005443574
 10
-19.3623228062
 20
-17.7356467645
 10
-19.3373095206
 20
-17.769181094
 10
-19.3111866039
 20
-17.8011578723
 10
-19.2839563148
 20
-17.8316271211
 10
-19.2556823451
 20
-17.8605589229
 10
-19.2264266159
 20
-17.88793271
 10
-19.1961786981
 20
-17.9137916451
 10
-19.1650023501
 20
-17.9381051064
 10
-19.1329596649
 20
-17.9608488156
 10
-19.1000282936
 20
-17.9820563883
 10
-19.0662401081
 20
-18.0017147947
 10
-19.03507951
 20
-18.0180922312
  0
LWPOLYLINE
  5
251
100
AcDbEntity
  8
RACCORDO
100
AcDbPolyline
 62
253
  6
CONTINUOUS
 90
22
 70
0
 10
-19.4196253443
 20
-17.2619540844
 10
-19.4729318848
 20
-15.5944139396
 10
-19.5209101242
 20
-13.9238677735
 10
-19.5635593132
 20
-12.2503412337
 10
-19.6008787772
 20
-10.5738600209
 10
-19.632867942
 20
-8.8944498645
 10
-19.6595263347
 20
-7.2121365216
 10
-19.6808535431
 20
-5.5269458132
 10
-19.6968492299
 20
-3.8389036124
 10
-19.7075131584
 20
-2.1480358193
 10
-19.7128451664
 20
-0.4543683894
 10
-19.7128451664
 20
1.2420726817
 10
-19.7075131584
 20
2.9412613699
 10
-19.6968492299
 20
4.6431716005
 10
-19.6808535431
 20
6.3477772474
 10
-19.6595263347
 20
8.0550521475
 10
-19.632867942
 20
9.7649700991
 10
-19.6008787772
 20
11.4775048606
 10
-19.5635593132
 20
13.1926301492
 10
-19.5209101242
 20
14.9103196444
 10
-19.4729318848
 20
16.6305469881
 10
-19.4196253443
 20
18.3532857832
  0
LWPOLYLINE
  5
252
100
AcDbEntity
  8
RACCORDO
100
AcDbPolyline
 62
7
  6
CONTINUOUS
 90
22
 70
0
 10
-19.5661077672
 20
18.5283293324
 10
-19.6190629884
 20
16.8174854432
 10
-19.6671055194
 20
15.0961318839
 10
-19.709811805
 20
13.3773132511
 10
-19.7471810198
 20
11.661059147
 10
-19.7792126242
 20
9.9473952854
 10
-19.8059061505
 20
8.2363458221
 10
-19.8272611383
 20
6.5279361812
 10
-19.8432772609
 20
4.8221927575
 10
-19.8539542309
 20
3.1191411706
 10
-19.8592917922
 20
1.4188072214
 10
-19.8592898526
 20
-0.2787824897
 10
-19.8539483703
 20
-1.9736011457
 10
-19.8432673543
 20
-3.6656221965
 10
-19.8272469776
 20
-5.3548200642
 10
-19.8058874436
 20
-7.0411693919
 10
-19.7791889958
 20
-8.7246440827
 10
-19.747152011
 20
-10.405219149
 10
-19.7097768729
 20
-12.0828708887
 10
-19.6670640378
 20
-13.7575741007
 10
-19.6190142479
 20
-15.4292999816
 10
-19.5660891458
 20
-17.0843071229
  0
LWPOLYLINE
  5
253
100
AcDbEntity
  8
RACCORDO
100
AcDbPolyline
 62
253
  6
CONTINUOUS
 90
43
 70
0
 10
-19.4196253443
 20
18.3532857832
 10
-19.4174614553
 20
18.4000048622
 10
-19.414004426
 20
18.4472620735
 10
-19.4092586707
 20
18.4949989495
 10
-19.4032304135
 20
18.5431558322
 10
-19.395927123
 20
18.5916737762
 10
-19.387357325
 20
18.6404946668
 10
-19.3775314962
 20
18.6895593013
 10
-19.3664619813
 20
18.7388059747
 10
-19.3541623977
 20
18.7881724043
 10
-19.3406483707
 20
18.8375970847
 10
-19.3259366501
 20
18.8870195013
 10
-19.3100448771
 20
18.9363787531
 10
-19.292992947
 20
18.9856140122
 10
-19.2748021657
 20
19.034664383
 10
-19.255494422
 20
19.0834691008
 10
-19.2350938311
 20
19.1319681209
 10
-19.2136259209
 20
19.1801013933
 10
-19.1911167606
 20
19.2278087271
 10
-19.1675946424
 20
19.2750311424
 10
-19.1430888921
 20
19.3217105222
 10
-19.1176290445
 20
19.3677888835
 10
-19.0912469946
 20
19.4132094287
 10
-19.0639757175
 20
19.4579161303
 10
-19.0358480848
 20
19.5018533789
 10
-19.0068992308
 20
19.5449671671
 10
-18.9771654303
 20
19.5872041953
 10
-18.9466828191
 20
19.6285114644
 10
-18.9154896997
 20
19.6688379751
 10
-18.8836249819
 20
19.7081342048
 10
-18.8511270553
 20
19.7463512063
 10
-18.818036672
 20
19.7834418881
 10
-18.7843951723
 20
19.8193606517
 10
-18.7502429215
 20
19.8540628439
 10
-18.7156222915
 20
19.8875061237
 10
-18.680576958
 20
19.9196489291
 10
-18.6451501399
 20
19.9504501846
 10
-18.609387012
 20
19.9798714703
 10
-18.5733315544
 20
20.0078774165
 10
-18.5370258185
 20
20.0344340089
 10
-18.5005141966
 20
20.0595086235
 10
-18.4638434038
 20
20.083070268
 10
-18.4270593343
 20
20.1050899391
  0
LWPOLYLINE
  5
254
100
AcDbEntity
  8
RACCORDO
100
AcDbPolyline
 62
253
  6
CONTINUOUS
 90
23
 70
0
 10
-18.5068259213
 20
17.9566441377
 10
-18.5024189298
 20
18.0352359967
 10
-18.4942488713
 20
18.1159870763
 10
-18.4822381591
 20
18.1986475215
 10
-18.4663064153
 20
18.2830290011
 10
-18.4464160851
 20
18.3687600759
 10
-18.4226099161
 20
18.455282827
 10
-18.3949017944
 20
18.542284795
 10
-18.3633322163
 20
18.6294108106
 10
-18.3280791797
 20
18.7160230901
 10
-18.2892565029
 20
18.8017600497
 10
-18.2469823856
 20
18.8862858229
 10
-18.201529582
 20
18.9690187109
 10
-18.1530781399
 20
19.0496294613
 10
-18.1018196327
 20
19.1277979095
 10
-18.0481125976
 20
19.2030043204
 10
-17.9921805206
 20
19.2749869108
 10
-17.9342702478
 20
19.3434768693
 10
-17.8748268919
 20
19.408025015
 10
-17.8141217716
 20
19.4684403087
 10
-17.7524054828
 20
19.5245735161
 10
-17.6901197812
 20
19.5761415117
 10
-17.6275856578
 20
19.6230234378
  0
LWPOLYLINE
  5
255
100
AcDbEntity
  8
RACCORDO
100
AcDbPolyline
 62
7
  6
CONTINUOUS
 90
22
 70
0
 10
-18.580062283
 20
18.0443139445
 10
-18.5744889366
 20
18.1364097822
 10
-18.5638894134
 20
18.229447866
 10
-18.5483926164
 20
18.3230628744
 10
-18.5281268335
 20
18.4169206791
 10
-18.5032314961
 20
18.5106535386
 10
-18.4738741948
 20
18.603836407
 10
-18.4402355668
 20
18.6960642525
 10
-18.4024693732
 20
18.7870342376
 10
-18.3607220962
 20
18.8764555311
 10
-18.3151683285
 20
18.9639797471
 10
-18.2659896284
 20
19.0492629613
 10
-18.2133388891
 20
19.1320191371
 10
-18.1573867119
 20
19.2119329447
 10
-18.0983406254
 20
19.2886474202
 10
-18.0363998066
 20
19.361833786
 10
-17.9717236031
 20
19.4312144366
 10
-17.9045521728
 20
19.4964290895
 10
-17.8351934717
 20
19.5570831613
 10
-17.7638823433
 20
19.6128783064
 10
-17.6907977225
 20
19.6635644857
 10
-17.6161627625
 20
19.7088577292
  0
LWPOLYLINE
  5
256
100
AcDbEntity
  8
RACCORDO
100
AcDbPolyline
 62
253
  6
CONTINUOUS
 90
27
 70
0
 10
-13.0237015651
 20
22.8238998085
 10
-13.0285855823
 20
22.8119311503
 10
-13.0339361857
 20
22.8002379462
 10
-13.0397387641
 20
22.788852128
 10
-13.0459774717
 20
22.7778047878
 10
-13.0526352721
 20
22.7671260936
 10
-13.059693984
 20
22.7568452069
 10
-13.0671343318
 20
22.7469902024
 10
-13.0749359972
 20
22.7375879921
 10
-13.0830776757
 20
22.7286642516
 10
-13.091537134
 20
22.7202433497
 10
-13.100291271
 20
22.712348282
 10
-13.1093161811
 20
22.7050006085
 10
-13.1185872192
 20
22.6982203939
 10
-13.1280790679
 20
22.6920261538
 10
-13.1377658071
 20
22.6864348032
 10
-13.1476209842
 20
22.681461611
 10
-13.1576176868
 20
22.6771201579
 10
-13.1677286161
 20
22.6734222995
 10
-13.1779261612
 20
22.6703781339
 10
-13.1881824747
 20
22.6679959741
 10
-13.1984695488
 20
22.6662823252
 10
-13.2087592916
 20
22.6652418669
 10
-13.2190236041
 20
22.6648774404
 10
-13.2292344565
 20
22.6651900409
 10
-13.2393639651
 20
22.6661788148
 10
-13.2493844684
 20
22.667841062
  0
LINE
  5
257
100
AcDbEntity
  8
0
100
AcDbLine
 62
7
  6
CONTINUOUS
 10
-1.2918675202
 20
23.1111933284
 11
-5.1893884324
 21
21.1624328723
  0
LINE
  5
258
100
AcDbEntity
  8
ASSI
100
AcDbLine
 62
7
  6
CONTINUOUS
 10
-18.7059055975
 20
13.7176134043
 11
-18.8516952677
 21
13.6447185693
  0
LWPOLYLINE
  5
259
100
AcDbEntity
  8
ASSI
100
AcDbPolyline
 62
7
  6
CONTINUOUS
 90
16
 70
0
 10
2.2403176737
 20
22.0574331778
 10
2.2524505027
 20
22.06091954
 10
2.2651674917
 20
22.0636411821
 10
2.2784625852
 20
22.0655812837
 10
2.2923359805
 20
22.06673737
 10
2.3067701954
 20
22.067077323
 10
2.321727667
 20
22.0665411159
 10
2.3371912835
 20
22.0651055667
 10
2.3531445838
 20
22.0627623835
 10
2.3695445747
 20
22.0594769527
 10
2.3863298145
 20
22.0552447173
 10
2.4035131526
 20
22.0500444664
 10
2.4211633591
 20
22.0438125558
 10
2.4392630978
 20
22.0365322547
 10
2.4577783651
 20
22.0281822982
 10
2.4668851001
 20
22.0237417442
  0
LWPOLYLINE
  5
25A
100
AcDbEntity
  8
RACCORDO
100
AcDbPolyline
 62
253
  6
CONTINUOUS
 90
5
 70
0
 10
2.4041594918
 20
-23.7877775796
 10
2.4025857924
 20
-23.7870091645
 10
2.3955580925
 20
-23.784002959
 10
2.3882737109
 20
-23.7815623361
 10
2.3807507665
 20
-23.7796933661
  0
LWPOLYLINE
  5
25B
100
AcDbEntity
  8
RACCORDO
100
AcDbPolyline
 62
7
  6
CONTINUOUS
 90
34
 70
0
 10
0.6993152477
 20
-24.1808542121
 10
0.7087650083
 20
-24.185558631
 10
0.7186227434
 20
-24.1903139628
 10
0.728855876
 20
-24.1951124044
 10
0.7394411978
 20
-24.1999612419
 10
0.7503364322
 20
-24.2048400172
 10
0.7614772247
 20
-24.2097030456
 10
0.7728154239
 20
-24.2145468761
 10
0.7843277977
 20
-24.2193734674
 10
0.7959857966
 20
-24.2241486213
 10
0.8077559448
 20
-24.2288736523
 10
0.8196059227
 20
-24.2335499829
 10
0.8315106839
 20
-24.2381439887
 10
0.8434395607
 20
-24.2426586408
 10
0.8553630015
 20
-24.2470975912
 10
0.8672593357
 20
-24.2514283704
 10
0.879100947
 20
-24.2556553385
 10
0.8908610888
 20
-24.2597838299
 10
0.9025209195
 20
-24.2637827818
 10
0.9140558653
 20
-24.2676576972
 10
0.9254419956
 20
-24.2714151952
 10
0.9366627438
 20
-24.2750257407
 10
0.9476964813
 20
-24.2784957679
 10
0.9585220732
 20
-24.2818328999
 10
0.969124822
 20
-24.2850092254
 10
0.9794859279
 20
-24.288031923
 10
0.9895870331
 20
-24.2909094263
 10
0.9994151142
 20
-24.2936155752
 10
1.0089540941
 20
-24.296158122
 10
1.0181883945
 20
-24.2985461692
 10
1.0271066977
 20
-24.3007554894
 10
1.0356963647
 20
-24.302783864
 10
1.043943745
 20
-24.3046512877
 10
1.0518372074
 20
-24.3063669359
  0
LINE
  5
25C
100
AcDbEntity
  8
RACCORDO
100
AcDbLine
 62
7
  6
CONTINUOUS
 10
0.2140122195
 20
-23.9382026979
 11
0.6988010194
 21
-24.1805970979
  0
LINE
  5
25D
100
AcDbEntity
  8
RACCORDO
100
AcDbLine
 62
253
  6
CONTINUOUS
 10
1.9418973901
 20
-23.5602666779
 11
2.3807507665
 21
-23.7796933661
  0
LINE
  5
25E
100
AcDbEntity
  8
RACCORDO
100
AcDbLine
 62
7
  6
CONTINUOUS
 10
1.9418973901
 20
-23.5566465284
 11
2.4041658177
 21
-23.7877807422
  0
LWPOLYLINE
  5
25F
100
AcDbEntity
  8
RACCORDO
100
AcDbPolyline
 62
253
  6
CONTINUOUS
 90
9
 70
0
 10
-18.580062283
 20
18.0443139445
 10
-18.5797449075
 20
18.0361887844
 10
-18.5769998392
 20
18.0237668015
 10
-18.5715507499
 20
18.0114796127
 10
-18.5634573362
 20
17.9994618401
 10
-18.5528082704
 20
17.9878451576
 10
-18.5397202253
 20
17.976756842
 10
-18.5243365938
 20
17.9663183794
 10
-18.5068259213
 20
17.9566441375
  0
LWPOLYLINE
  5
260
100
AcDbEntity
  8
RACCORDO
100
AcDbPolyline
 62
7
  6
CONTINUOUS
 90
4
 70
0
 10
-18.7064250406
 20
13.6970595678
 10
-18.7056339794
 20
13.6710156074
 10
-18.7025560073
 20
13.6452929058
 10
-18.6972216914
 20
13.6206340983
  0
LWPOLYLINE
  5
261
100
AcDbEntity
  8
RACCORDO
100
AcDbPolyline
 62
253
  6
CONTINUOUS
 90
18
 70
0
 10
-19.5661078665
 20
18.5283208134
 10
-19.5658996659
 20
18.5169275046
 10
-19.5645776405
 20
18.5057535073
 10
-19.5621519323
 20
18.4945935813
 10
-19.558627915
 20
18.4834724495
 10
-19.5540133953
 20
18.4724147484
 10
-19.5483185959
 20
18.4614449745
 10
-19.5415561324
 20
18.4505874291
 10
-19.533740986
 20
18.4398661651
 10
-19.5248904694
 20
18.4293049334
 10
-19.5150241895
 20
18.4189271305
 10
-19.504164003
 20
18.4087557464
 10
-19.4923339687
 20
18.3988133138
 10
-19.4795602938
 20
18.3891218583
 10
-19.4658712758
 20
18.3797028497
 10
-19.4512972403
 20
18.3705771537
 10
-19.4358704733
 20
18.3617649868
 10
-19.4196251499
 20
18.3532858707
  0
LWPOLYLINE
  5
262
100
AcDbEntity
  8
RACCORDO
100
AcDbPolyline
 62
253
  6
CONTINUOUS
 90
13
 70
0
 10
-17.2165740564
 20
2.5449700396
 10
-17.2199799779
 20
1.9658228867
 10
-17.2227881222
 20
1.3782296132
 10
-17.2249695198
 20
0.7822055724
 10
-17.2264906542
 20
0.1800705705
 10
-17.2273311167
 20
-0.4304662003
 10
-17.2274570759
 20
-1.056292948
 10
-17.2268120655
 20
-1.6982357868
 10
-17.2253383227
 20
-2.3554086959
 10
-17.22295796
 20
-3.0321103152
 10
-17.219585906
 20
-3.7297424641
 10
-17.215147862
 20
-4.4468191588
 10
-17.2095625584
 20
-5.1832970317
  0
LWPOLYLINE
  5
263
100
AcDbEntity
  8
ASSI
100
AcDbPolyline
 62
7
  6
CONTINUOUS
 90
10
 70
0
 10
-18.8516952677
 20
13.6447185693
 10
-18.839307563
 20
14.1285005112
 10
-18.8264895895
 20
14.6124794495
 10
-18.8132413474
 20
15.0966553841
 10
-18.7995628188
 20
15.5810289238
 10
-18.7854540214
 20
16.0655994599
 10
-18.7709150082
 20
16.5503651656
 10
-18.7559457969
 20
17.0353254322
 10
-18.7405463697
 20
17.5204808685
 10
-18.7247167268
 20
18.0058314745
  0
LWPOLYLINE
  5
264
100
AcDbEntity
  8
RACCORDO
100
AcDbPolyline
 62
253
  6
CONTINUOUS
 90
10
 70
0
 10
-18.6326408893
 20
13.6314188043
 10
-18.6203542457
 20
14.1112284318
 10
-18.6076443687
 20
14.5912318445
 10
-18.5945112764
 20
15.0714284663
 10
-18.5809549988
 20
15.5518173195
 10
-18.5669755445
 20
16.0323982282
 10
-18.5525728963
 20
16.5131718196
 10
-18.5377470587
 20
16.9941379197
 10
-18.522498061
 20
17.4752955511
 10
-18.5068259213
 20
17.9566441377
  0
LWPOLYLINE
  5
265
100
AcDbEntity
  8
RACCORDO
100
AcDbPolyline
 62
7
  6
CONTINUOUS
 90
10
 70
0
 10
-18.580062283
 20
18.0443139445
 10
-18.5959590348
 20
17.5559719758
 10
-18.6114202463
 20
17.0678262051
 10
-18.6264458982
 20
16.5798772336
 10
-18.6410359713
 20
16.0921256636
 10
-18.6551904474
 20
15.604572095
 10
-18.6689093087
 20
15.1172171257
 10
-18.6821925378
 20
14.6300613551
 10
-18.695040118
 20
14.1431053845
 10
-18.7064304311
 20
13.6970609317
  0
LINE
  5
266
100
AcDbEntity
  8
0
100
AcDbLine
 62
7
  6
CONTINUOUS
 10
-6.2251859326
 20
16.8311039917
 11
-6.9525166797
 21
16.4207540512
  0
LINE
  5
267
100
AcDbEntity
  8
RACCORDO
100
AcDbLine
 62
7
  6
CONTINUOUS
 10
-2.8351991416
 20
18.9251257147
 11
-2.4775199923
 21
19.1044302595
  0
LINE
  5
268
100
AcDbEntity
  8
ASSI
100
AcDbLine
 62
7
  6
CONTINUOUS
 10
-2.4775199923
 20
19.1044302595
 11
2.7969720768
 21
21.7347393934
  0
LINE
  5
269
100
AcDbEntity
  8
DRAFT
100
AcDbLine
 62
7
  6
CONTINUOUS
 10
-2.4775199923
 20
17.8919946942
 11
2.8473140779
 21
20.5283261261
  0
LINE
  5
26A
100
AcDbEntity
  8
ASSI
100
AcDbLine
 62
7
  6
CONTINUOUS
 10
2.1914416422
 20
22.0375046107
 11
-2.4068093142
 21
19.7711433132
  0
LINE
  5
26B
100
AcDbEntity
  8
RACCORDO
100
AcDbLine
 62
7
  6
CONTINUOUS
 10
3.6097689183
 20
21.8499457987
 11
2.9709081418
 21
21.5373436736
  0
LWPOLYLINE
  5
26C
100
AcDbEntity
  8
ASSI
100
AcDbPolyline
 62
7
  6
CONTINUOUS
 90
7
 70
0
 10
2.1914416422
 20
22.0375046107
 10
2.1996509015
 20
22.0414320958
 10
2.2078348593
 20
22.045117158
 10
2.2159935153
 20
22.0485597973
 10
2.2241268698
 20
22.0517600137
 10
2.2322349226
 20
22.0547178072
 10
2.2403176737
 20
22.0574331778
  0
LWPOLYLINE
  5
26D
100
AcDbEntity
  8
RACCORDO
100
AcDbPolyline
 62
7
  6
CONTINUOUS
 90
18
 70
0
 10
3.6097689183
 20
21.8499457987
 10
3.6381434391
 20
21.8631277555
 10
3.6663778911
 20
21.8748621472
 10
3.6944722743
 20
21.8851489739
 10
3.7224765874
 20
21.8940011085
 10
3.7503408317
 20
21.9014056781
 10
3.7779150113
 20
21.9073240637
 10
3.8051841399
 20
21.911747485
 10
3.832163204
 20
21.9146847223
 10
3.8587471666
 20
21.9161234983
 10
3.8849521254
 20
21.9160563617
 10
3.9107619829
 20
21.9144907637
 10
3.9360234092
 20
21.9114367803
 10
3.9607131625
 20
21.9068909959
 10
3.9848544846
 20
21.9008568261
 10
4.0083637709
 20
21.8933545933
 10
4.0312595511
 20
21.8843691787
 10
4.0508216354
 20
21.8752794456
  0
LINE
  5
26E
100
AcDbEntity
  8
RACCORDO
100
AcDbLine
 62
7
  6
CONTINUOUS
 10
-3.3988664443
 20
18.7928480504
 11
-3.4978248078
 21
18.7635363924
  0
LWPOLYLINE
  5
26F
100
AcDbEntity
  8
RACCORDO
100
AcDbPolyline
 62
7
  6
CONTINUOUS
 90
4
 70
0
 10
-3.4978248078
 20
18.7635363924
 10
-3.5196443646
 20
18.7572090411
 10
-3.530093797
 20
18.7542489058
 10
-3.5402430609
 20
18.7514462899
  0
LWPOLYLINE
  5
270
100
AcDbEntity
  8
RACCORDO
100
AcDbPolyline
 62
253
  6
CONTINUOUS
 90
3
 70
0
 10
-15.229663571
 20
-6.1732465254
 10
-15.2284767225
 20
-6.3140474043
 10
-15.2163778585
 20
-7.5536053956
  0
LINE
  5
271
100
AcDbEntity
  8
SMUSSO
100
AcDbLine
 62
7
  6
CONTINUOUS
 10
-15.8418381567
 20
20.8116875294
 11
-15.8418381567
 21
20.7099071131
  0
LINE
  5
272
100
AcDbEntity
  8
DRAFT
100
AcDbLine
 62
7
  6
CONTINUOUS
 10
-15.7357721396
 20
1.5957055457
 11
-15.7357721396
 21
-4.3611061654
  0
LINE
  5
273
100
AcDbEntity
  8
IMPORT_IGES
100
AcDbLine
 62
253
  6
CONTINUOUS
 10
-15.3115080708
 20
-4.2903954872
 11
-15.3115080708
 21
1.3835735113
  0
LWPOLYLINE
  5
274
100
AcDbEntity
  8
RACCORDO
100
AcDbPolyline
 62
253
  6
CONTINUOUS
 90
10
 70
0
 10
-16.5158046675
 20
1.9857218096
 10
-16.5187104144
 20
1.418550803
 10
-16.5212499908
 20
0.7150842378
 10
-16.5228082139
 20
-0.0046007086
 10
-16.5234806014
 20
-0.7373213768
 10
-16.5231716354
 20
-1.4862604261
 10
-16.5215947628
 20
-2.2609658349
 10
-16.5186544658
 20
-3.0646202626
 10
-16.5144462622
 20
-3.8940410497
 10
-16.5089701519
 20
-4.7492281964
  0
LWPOLYLINE
  5
275
100
AcDbEntity
  8
RACCORDO
100
AcDbPolyline
 62
253
  6
CONTINUOUS
 90
31
 70
0
 10
-14.7012082046
 20
23.8268788064
 10
-14.7009676234
 20
23.8382907158
 10
-14.7002465322
 20
23.8499121725
 10
-14.6990468904
 20
23.8617115456
 10
-14.6973719579
 20
23.8736567322
 10
-14.6952262914
 20
23.8857152073
 10
-14.6926157367
 20
23.897854111
 10
-14.6895474033
 20
23.9100403932
 10
-14.686029642
 20
23.9222408926
 10
-14.6820720328
 20
23.9344223895
 10
-14.6776853509
 20
23.9465517251
 10
-14.6728815378
 20
23.9585958873
 10
-14.6676736732
 20
23.9705220893
 10
-14.6620759278
 20
23.982297884
 10
-14.6561035462
 20
23.9938912064
 10
-14.6497728119
 20
24.0052704586
 10
-14.643100991
 20
24.0164046263
 10
-14.6361062227
 20
24.0272634579
 10
-14.6288074858
 20
24.0378174939
 10
-14.6212245432
 20
24.0480381367
 10
-14.6133781249
 20
24.0578974255
 10
-14.6052898336
 20
24.0673682418
 10
-14.5969818658
 20
24.0764246698
 10
-14.5884766935
 20
24.0850422864
 10
-14.5797972307
 20
24.0931979003
 10
-14.5709651402
 20
24.1008709488
 10
-14.5620063572
 20
24.1080386964
 10
-14.5529510203
 20
24.1146776029
 10
-14.5438258516
 20
24.1207694003
 10
-14.534653847
 20
24.1263000477
 10
-14.5254599486
 20
24.1312556214
  0
LINE
  5
276
100
AcDbEntity
  8
RACCORDO
100
AcDbLine
 62
7
  6
CONTINUOUS
 10
-2.4775199923
 20
17.8919946942
 11
-2.8351991416
 21
17.6923987423
  0
LINE
  5
277
100
AcDbEntity
  8
RACCORDO
100
AcDbLine
 62
7
  6
CONTINUOUS
 10
0.3089442446
 20
18.2677415616
 11
-1.2742274504
 21
17.4555445143
  0
LINE
  5
278
100
AcDbEntity
  8
RACCORDO
100
AcDbLine
 62
253
  6
CONTINUOUS
 10
0.4216148189
 20
18.2610806365
 11
-1.1611417842
 21
17.4490965392
  0
LINE
  5
279
100
AcDbEntity
  8
RACCORDO
100
AcDbLine
 62
253
  6
CONTINUOUS
 10
1.7651236864
 20
17.5893262028
 11
0.1638428956
 21
16.7866041993
  0
LINE
  5
27A
100
AcDbEntity
  8
RACCORDO
100
AcDbLine
 62
7
  6
CONTINUOUS
 10
0.3106826301
 20
18.2686107944
 11
0.3089462183
 21
18.2677425742
  0
LINE
  5
27B
100
AcDbEntity
  8
RACCORDO
100
AcDbLine
 62
253
  6
CONTINUOUS
 10
2.2933908582
 20
17.8527650228
 11
1.7651236864
 21
17.5893262028
  0
LINE
  5
27C
100
AcDbEntity
  8
RACCORDO
100
AcDbLine
 62
7
  6
CONTINUOUS
 10
0.8455525865
 20
18.5291628941
 11
0.3106853957
 21
18.2686121416
  0
LINE
  5
27D
100
AcDbEntity
  8
RACCORDO
100
AcDbLine
 62
253
  6
CONTINUOUS
 10
0.9560646976
 20
18.5214281031
 11
0.4216148189
 21
18.2610806365
  0
LINE
  5
27E
100
AcDbEntity
  8
RACCORDO
100
AcDbLine
 62
7
  6
CONTINUOUS
 10
6.6767348622
 20
20.3164628267
 11
1.9931979827
 21
18.0648388314
  0
LWPOLYLINE
  5
27F
100
AcDbEntity
  8
RACCORDO
100
AcDbPolyline
 62
7
  6
CONTINUOUS
 90
18
 70
0
 10
0.8455525865
 20
18.5291628941
 10
0.8577735463
 20
18.5347152603
 10
0.8704026699
 20
18.5396497004
 10
0.8834014691
 20
18.5439283294
 10
0.8967467196
 20
18.5475209032
 10
0.9103724489
 20
18.5503891304
 10
0.9241714077
 20
18.5524986024
 10
0.9380703898
 20
18.5538348505
 10
0.9520398111
 20
18.5543932381
 10
0.9660406627
 20
18.5541688852
 10
0.9800141269
 20
18.5531602788
 10
0.9939198822
 20
18.5513688114
 10
1.0077533221
 20
18.548789819
 10
1.0215213835
 20
18.5454085569
 10
1.0351224325
 20
18.5412364584
 10
1.048408263
 20
18.5363199473
 10
1.0613424184
 20
18.5306831571
 10
1.0668456621
 20
18.5280149915
  0
LINE
  5
280
100
AcDbEntity
  8
RACCORDO
100
AcDbLine
 62
7
  6
CONTINUOUS
 10
6.9395821514
 20
-15.5276439638
 11
3.0025575619
 21
-16.6407571896
  0
LWPOLYLINE
  5
281
100
AcDbEntity
  8
RACCORDO
100
AcDbPolyline
 62
7
  6
CONTINUOUS
 90
42
 70
0
 10
6.9395845916
 20
-15.527649863
 10
6.9482963703
 20
-15.5255008281
 10
6.9593836771
 20
-15.5236182123
 10
6.9707460905
 20
-15.5226193729
 10
6.9823904855
 20
-15.5224964642
 10
6.9942363562
 20
-15.5232459026
 10
7.006292423
 20
-15.5248742814
 10
7.0185499655
 20
-15.5273750073
 10
7.0309023165
 20
-15.5307247165
 10
7.0433455232
 20
-15.5349289892
 10
7.0558835385
 20
-15.5399822451
 10
7.0684215537
 20
-15.5458443799
 10
7.080959569
 20
-15.5525202603
 10
7.0934975842
 20
-15.5600050197
 10
7.1059407909
 20
-15.5682439538
 10
7.1182931419
 20
-15.5772465956
 10
7.1305506844
 20
-15.5870034121
 10
7.1426067512
 20
-15.5974311
 10
7.1544526219
 20
-15.6085275324
 10
7.1660970169
 20
-15.6202948361
 10
7.1774594303
 20
-15.6326560889
 10
7.1885467371
 20
-15.6456260115
 10
7.1993520622
 20
-15.6591898832
 10
7.2097742749
 20
-15.6732266196
 10
7.2198032057
 20
-15.6877300671
 10
7.2294490239
 20
-15.7027063794
 10
7.2386411076
 20
-15.7180529321
 10
7.2473821415
 20
-15.733783132
 10
7.2556694408
 20
-15.7498835725
 10
7.2634243283
 20
-15.7662114092
 10
7.2706392309
 20
-15.7827627741
 10
7.2773217218
 20
-15.7995415352
 10
7.2834158437
 20
-15.8164164534
 10
7.2889182166
 20
-15.8333922531
 10
7.2938322205
 20
-15.8504642098
 10
7.2981120392
 20
-15.8674869105
 10
7.3017518607
 20
-15.8844602891
 10
7.3047574969
 20
-15.9013844117
 10
7.3071005667
 20
-15.9181140629
 10
7.3087716099
 20
-15.9346008376
 10
7.3097800866
 20
-15.9508931409
 10
7.3101259971
 20
-15.9669909729
  0
LWPOLYLINE
  5
282
100
AcDbEntity
  8
RACCORDO
100
AcDbPolyline
 62
253
  6
CONTINUOUS
 90
19
 70
0
 10
-14.7012082046
 20
23.4869048723
 10
-14.7009883499
 20
23.4762202158
 10
-14.7003293327
 20
23.4657819893
 10
-14.6992327919
 20
23.4556161568
 10
-14.697701461
 20
23.4457480383
 10
-14.6957391457
 20
23.4362021436
 10
-14.6933506999
 20
23.4270021232
 10
-14.6905420298
 20
23.4181708113
 10
-14.6873201243
 20
23.4097302542
 10
-14.6836930267
 20
23.4017015459
 10
-14.6796697471
 20
23.394104635
 10
-14.6752603046
 20
23.3869584442
 10
-14.670475768
 20
23.3802808789
 10
-14.6653281346
 20
23.3740886016
 10
-14.6598301666
 20
23.3683968892
 10
-14.6539954329
 20
23.3632197629
 10
-14.6478372164
 20
23.3585692479
 10
-14.6413719422
 20
23.3544579742
 10
-14.6362337576
 20
23.3516858469
  0
LWPOLYLINE
  5
283
100
AcDbEntity
  8
RACCORDO
100
AcDbPolyline
 62
253
  6
CONTINUOUS
 90
19
 70
0
 10
-13.3762235248
 20
22.8244125324
 10
-13.3760036701
 20
22.8137278758
 10
-13.3753446529
 20
22.8032896494
 10
-13.3742481121
 20
22.7931238169
 10
-13.3727167812
 20
22.7832556984
 10
-13.3707544659
 20
22.7737098037
 10
-13.3683660201
 20
22.7645097833
 10
-13.36555735
 20
22.7556784714
 10
-13.3623354445
 20
22.7472379143
 10
-13.3587083469
 20
22.739209206
 10
-13.3546850673
 20
22.7316122951
 10
-13.3502756247
 20
22.7244661043
 10
-13.3454910882
 20
22.717788539
 10
-13.3403434548
 20
22.7115962617
 10
-13.3348454868
 20
22.7059045492
 10
-13.3290107531
 20
22.700727423
 10
-13.3228525366
 20
22.696076908
 10
-13.3163872624
 20
22.6919656343
 10
-13.3112608456
 20
22.6891993917
  0
LINE
  5
284
100
AcDbEntity
  8
RACCORDO
100
AcDbLine
 62
253
  6
CONTINUOUS
 10
-14.4032050602
 20
-7.9601917948
 11
-14.3891491855
 21
-9.1234410058
  0
LINE
  5
285
100
AcDbEntity
  8
RACCORDO
100
AcDbLine
 62
253
  6
CONTINUOUS
 10
-13.7037677946
 20
-7.5253312983
 11
-13.6906893784
 21
-8.6879174347
  0
LINE
  5
286
100
AcDbEntity
  8
RACCORDO
100
AcDbLine
 62
253
  6
CONTINUOUS
 10
-14.5290711179
 20
-5.7391776662
 11
-14.5169406094
 21
-7.1187449076
  0
LINE
  5
287
100
AcDbEntity
  8
IMPORT_IGES
100
AcDbLine
 62
253
  6
CONTINUOUS
 10
-14.8872440021
 20
1.1714414769
 11
-14.8872440021
 21
-4.0305878661
  0
LINE
  5
288
100
AcDbEntity
  8
RACCORDO
100
AcDbLine
 62
7
  6
CONTINUOUS
 10
-14.7744315093
 20
23.9152671541
 11
-14.7744315093
 21
23.5752932199
  0
LINE
  5
289
100
AcDbEntity
  8
RACCORDO
100
AcDbLine
 62
253
  6
CONTINUOUS
 10
-14.7012082046
 20
23.8268788064
 11
-14.7012082046
 21
23.4869048723
  0
LINE
  5
28A
100
AcDbEntity
  8
RACCORDO
100
AcDbLine
 62
7
  6
CONTINUOUS
 10
-14.071438555
 20
23.0692882456
 11
-14.071438555
 21
22.615331151
  0
LINE
  5
28B
100
AcDbEntity
  8
RACCORDO
100
AcDbLine
 62
253
  6
CONTINUOUS
 10
-13.9982152503
 20
23.0326765933
 11
-13.9982152503
 21
22.5236024491
  0
LINE
  5
28C
100
AcDbEntity
  8
DRAFT
100
AcDbLine
 62
7
  6
CONTINUOUS
 10
-13.7558731522
 20
-5.351055659
 11
-13.7558731522
 21
-6.7366963051
  0
LINE
  5
28D
100
AcDbEntity
  8
RACCORDO
100
AcDbLine
 62
253
  6
CONTINUOUS
 10
-13.3762235248
 20
22.8244125324
 11
-13.3762235248
 21
23.1643864665
  0
LINE
  5
28E
100
AcDbEntity
  8
IMPORT_IGES
100
AcDbLine
 62
253
  6
CONTINUOUS
 10
-13.3316090835
 20
-6.6226843568
 11
-13.3316090835
 21
-5.2803449809
  0
LINE
  5
28F
100
AcDbEntity
  8
RACCORDO
100
AcDbLine
 62
253
  6
CONTINUOUS
 10
-13.0237015651
 20
22.8238998085
 11
-13.0237015651
 21
23.1638737427
  0
LINE
  5
290
100
AcDbEntity
  8
DRAFT
100
AcDbLine
 62
7
  6
CONTINUOUS
 10
-12.9427003539
 20
-7.1432827043
 11
-12.9427003539
 21
-8.3124169994
  0
LINE
  5
291
100
AcDbEntity
  8
IMPORT_IGES
100
AcDbLine
 62
253
  6
CONTINUOUS
 10
-12.9073450148
 20
-5.0205373598
 11
-12.9073450148
 21
-6.3628767356
  0
LWPOLYLINE
  5
292
100
AcDbEntity
  8
RACCORDO
100
AcDbPolyline
 62
253
  6
CONTINUOUS
 90
31
 70
0
 10
-13.3762235248
 20
23.1643864665
 10
-13.3759830493
 20
23.1757958424
 10
-13.3752622771
 20
23.1874146526
 10
-13.3740631692
 20
23.1992112862
 10
-13.3723889879
 20
23.2111536485
 10
-13.3702442882
 20
23.2232092482
 10
-13.3676349051
 20
23.2353452861
 10
-13.3645679378
 20
23.2475287439
 10
-13.3610517305
 20
23.2597264746
 10
-13.3570958497
 20
23.271905292
 10
-13.352711058
 20
23.2840320618
 10
-13.347909285
 20
23.296073791
 10
-13.3427035947
 20
23.3079977179
 10
-13.3371081501
 20
23.3197714015
 10
-13.3311381746
 20
23.3313628096
 10
-13.3248099104
 20
23.3427404058
 10
-13.3181405747
 20
23.3538732352
 10
-13.3111483126
 20
23.3647310093
 10
-13.3038521476
 20
23.3752841876
 10
-13.2962719303
 20
23.3855040584
 10
-13.2884282839
 20
23.3953628168
 10
-13.2803425484
 20
23.4048336403
 10
-13.2720367223
 20
23.413890762
 10
-13.2635334032
 20
23.4225095405
 10
-13.2548557256
 20
23.4306665269
 10
-13.2460272988
 20
23.4383395288
 10
-13.2370721419
 20
23.4455076703
 10
-13.2280146189
 20
23.4521514495
 10
-13.2188793725
 20
23.4582527908
 10
-13.2096912565
 20
23.4637950943
 10
-13.2004752688
 20
23.4687632815
  0
LWPOLYLINE
  5
293
100
AcDbEntity
  8
RACCORDO
100
AcDbPolyline
 62
7
  6
CONTINUOUS
 90
5
 70
0
 10
-9.1931753308
 20
21.8917131792
 10
-9.1952118741
 20
21.8825917812
 10
-9.196726233
 20
21.8727581837
 10
-9.1976826167
 20
21.8623000238
 10
-9.1980143635
 20
21.8506262675
  0
LWPOLYLINE
  5
294
100
AcDbEntity
  8
RACCORDO
100
AcDbPolyline
 62
253
  6
CONTINUOUS
 90
25
 70
0
 10
-4.4918056618
 20
13.1973222626
 10
-4.5542252932
 20
13.1598382326
 10
-4.616820884
 20
13.1176410509
 10
-4.6793550074
 20
13.0707591247
 10
-4.741640709
 20
13.0191911292
 10
-4.8033569978
 20
12.9630579217
 10
-4.8640621181
 20
12.9026426281
 10
-4.9235054739
 20
12.8380944824
 10
-4.9814157468
 20
12.7696045239
 10
-5.0373478238
 20
12.6976219335
 10
-5.0910548589
 20
12.6224155226
 10
-5.1423133661
 20
12.5442470744
 10
-5.1907648082
 20
12.463636324
 10
-5.2362176118
 20
12.380903436
 10
-5.2784917291
 20
12.2963776628
 10
-5.3173144059
 20
12.2106407032
 10
-5.3525674425
 20
12.1240284237
 10
-5.3841370205
 20
12.0369024081
 10
-5.4118451423
 20
11.94990044
 10
-5.4356513113
 20
11.8633776889
 10
-5.4555416415
 20
11.7776466141
 10
-5.4714733852
 20
11.6932651346
 10
-5.4834840975
 20
11.6106046894
 10
-5.491654156
 20
11.5298536098
 10
-5.4960611474
 20
11.4512617507
  0
LWPOLYLINE
  5
295
100
AcDbEntity
  8
ASSI
100
AcDbPolyline
 62
7
  6
CONTINUOUS
 90
43
 70
0
 10
-4.2854356826
 20
13.0342781133
 10
-4.3227261162
 20
13.0124264842
 10
-4.3598104217
 20
12.9890922146
 10
-4.3966885993
 20
12.9642753043
 10
-4.4334057226
 20
12.9379414134
 10
-4.4699167178
 20
12.9101248818
 10
-4.5060863641
 20
12.8809287302
 10
-4.5419133956
 20
12.8503478426
 10
-4.5773990781
 20
12.8183873349
 10
-4.6124119879
 20
12.7851655751
 10
-4.6469503719
 20
12.7506778862
 10
-4.6810159832
 20
12.7149289451
 10
-4.7144826574
 20
12.6780511507
 10
-4.7473481736
 20
12.6400403168
 10
-4.7796147528
 20
12.6009006295
 10
-4.8111628933
 20
12.5607770453
 10
-4.8419899312
 20
12.5196659157
 10
-4.8720985305
 20
12.4775708893
 10
-4.901377182
 20
12.4346478679
 10
-4.9298228079
 20
12.3908937811
 10
-4.957438486
 20
12.3463116992
 10
-4.9841219396
 20
12.3010667352
 10
-5.009869712
 20
12.255156431
 10
-5.0346852598
 20
12.2085832446
 10
-5.0584766771
 20
12.1615196631
 10
-5.0812401661
 20
12.1139638679
 10
-5.1029795246
 20
12.0659176776
 10
-5.1236142392
 20
12.0175590347
 10
-5.1431402139
 20
11.9688867803
 10
-5.1615615447
 20
11.9199020733
 10
-5.1788100071
 20
11.8707863318
 10
-5.1948812517
 20
11.8215390699
 10
-5.2097796279
 20
11.7721607737
 10
-5.2234499585
 20
11.7228343189
 10
-5.2358876895
 20
11.6735598979
 10
-5.2470973749
 20
11.6243373184
 10
-5.2570374988
 20
11.5753488797
 10
-5.2657033534
 20
11.52659545
 10
-5.2730996466
 20
11.478076161
 10
-5.2791989855
 20
11.4299707074
 10
-5.2839922393
 20
11.3823389873
 10
-5.2874885389
 20
11.3351211026
 10
-5.2896878842
 20
11.2883170532
  0
LWPOLYLINE
  5
296
100
AcDbEntity
  8
RACCORDO
100
AcDbPolyline
 62
253
  6
CONTINUOUS
 90
43
 70
0
 10
-3.5788408735
 20
12.6809807087
 10
-3.6164929179
 20
12.659395025
 10
-3.6540268583
 20
12.6362649543
 10
-3.6913968002
 20
12.6116194997
 10
-3.7285570601
 20
12.5854901694
 10
-3.7654622143
 20
12.5579090714
 10
-3.802067117
 20
12.5289086731
 10
-3.8383277875
 20
12.4985243439
 10
-3.8741990517
 20
12.4667945038
 10
-3.9096345966
 20
12.4337586815
 10
-3.9445906903
 20
12.3994584106
 10
-3.9790250172
 20
12.3639360608
 10
-4.0128942884
 20
12.3272348228
 10
-4.0461571156
 20
12.2894002716
 10
-4.0787727946
 20
12.2504795225
 10
-4.1107001547
 20
12.2105201322
 10
-4.1419002255
 20
12.1695715929
 10
-4.1723347652
 20
12.1276849343
 10
-4.2019650382
 20
12.0849118556
 10
-4.230754696
 20
12.0413056196
 10
-4.2586686781
 20
11.9969202704
 10
-4.2856717344
 20
11.9518102285
 10
-4.3117308096
 20
11.906031481
 10
-4.336814089
 20
11.8596408657
 10
-4.3608899007
 20
11.8126952972
 10
-4.3839288318
 20
11.7652528488
 10
-4.4059026772
 20
11.7173725439
 10
-4.4267834917
 20
11.6691136356
 10
-4.4465456503
 20
11.6205361253
 10
-4.465165135
 20
11.5717001062
 10
-4.4826184712
 20
11.5226655502
 10
-4.4988842514
 20
11.473493302
 10
-4.5139426822
 20
11.4242442405
 10
-4.5277748422
 20
11.3749786266
 10
-4.5403638789
 20
11.3257569235
 10
-4.5516942698
 20
11.2766406881
 10
-4.5617514257
 20
11.2276917171
 10
-4.5705228879
 20
11.1789716586
 10
-4.5779982938
 20
11.1305397723
 10
-4.5841684873
 20
11.0824538578
 10
-4.5890257902
 20
11.0347727555
 10
-4.592564188
 20
10.9875562285
 10
-4.5947792667
 20
10.9408627444
  0
LINE
  5
297
100
AcDbEntity
  8
RACCORDO
100
AcDbLine
 62
253
  6
CONTINUOUS
 10
-2.6189413485
 20
14.2539663856
 11
-4.4918056618
 21
13.1973222626
  0
LINE
  5
298
100
AcDbEntity
  8
ASSI
100
AcDbLine
 62
7
  6
CONTINUOUS
 10
-4.2854356826
 20
13.0342781133
 11
-2.4068093142
 21
14.0941731081
  0
LINE
  5
299
100
AcDbEntity
  8
RACCORDO
100
AcDbLine
 62
7
  6
CONTINUOUS
 10
1.0518372074
 20
15.1847363795
 11
1.9418973901
 21
15.6820331904
  0
LINE
  5
29A
100
AcDbEntity
  8
RACCORDO
100
AcDbLine
 62
253
  6
CONTINUOUS
 10
-3.5788408735
 20
12.6809807087
 11
0.9401902649
 21
15.148052637
  0
LINE
  5
29B
100
AcDbEntity
  8
RACCORDO
100
AcDbLine
 62
7
  6
CONTINUOUS
 10
7.5582703208
 20
19.5826046354
 11
2.0667269926
 21
16.6197910245
  0
LWPOLYLINE
  5
29C
100
AcDbEntity
  8
RACCORDO
100
AcDbPolyline
 62
7
  6
CONTINUOUS
 90
13
 70
0
 10
1.0518372074
 20
15.1847363795
 10
1.0439669158
 20
15.1805290713
 10
1.0357800467
 20
15.176518662
 10
1.0272918578
 20
15.1727118995
 10
1.0185176346
 20
15.1691189748
 10
1.0094742777
 20
15.1657422013
 10
1.0001804321
 20
15.1625758813
 10
0.9906535273
 20
15.1596282623
 10
0.9809115947
 20
15.1569011651
 10
0.970975108
 20
15.1543784325
 10
0.9608636099
 20
15.1520570852
 10
0.9505955307
 20
15.1499474639
 10
0.9401902649
 20
15.148052637
  0
LINE
  5
29D
100
AcDbEntity
  8
RACCORDO
100
AcDbLine
 62
7
  6
CONTINUOUS
 10
7.5582703208
 20
19.0852746784
 11
2.2001189837
 21
16.2527242982
  0
LINE
  5
29E
100
AcDbEntity
  8
RACCORDO
100
AcDbLine
 62
253
  6
CONTINUOUS
 10
1.9418973901
 20
17.284436664
 11
0.3406165993
 21
16.4817146604
  0
LINE
  5
29F
100
AcDbEntity
  8
RACCORDO
100
AcDbLine
 62
253
  6
CONTINUOUS
 10
2.4701645619
 20
17.547875484
 11
1.9418973901
 21
17.284436664
  0
LINE
  5
2A0
100
AcDbEntity
  8
RACCORDO
100
AcDbLine
 62
253
  6
CONTINUOUS
 10
2.6488964612
 20
16.0283355594
 11
1.9418973901
 21
15.694391927
  0
LINE
  5
2A1
100
AcDbEntity
  8
RACCORDO
100
AcDbLine
 62
253
  6
CONTINUOUS
 10
-14.3891491855
 20
-9.1234410058
 11
-10.1336883883
 21
-11.2511714044
  0
LINE
  5
2A2
100
AcDbEntity
  8
RACCORDO
100
AcDbLine
 62
253
  6
CONTINUOUS
 10
-13.6851860483
 20
-8.6851034991
 11
-10.288647583
 21
-10.3833727318
  0
LINE
  5
2A3
100
AcDbEntity
  8
RACCORDO
100
AcDbLine
 62
253
  6
CONTINUOUS
 10
-15.2163778585
 20
-7.5536053956
 11
-14.4032050602
 21
-7.9601917948
  0
LINE
  5
2A4
100
AcDbEntity
  8
RACCORDO
100
AcDbLine
 62
253
  6
CONTINUOUS
 10
-10.1475012989
 20
-10.0880436754
 11
-9.3343285005
 21
-10.4946300746
  0
LINE
  5
2A5
100
AcDbEntity
  8
DRAFT
100
AcDbLine
 62
7
  6
CONTINUOUS
 10
-12.9427003539
 20
-8.3124169994
 11
-10.2968452485
 21
-9.635344552
  0
LINE
  5
2A6
100
AcDbEntity
  8
IMPORT_IGES
100
AcDbLine
 62
7
  6
CONTINUOUS
 10
-10.2955443902
 20
-9.5582667804
 11
-12.9427003539
 21
-8.2346887985
  0
LINE
  5
2A7
100
AcDbEntity
  8
IMPORT_IGES
100
AcDbLine
 62
253
  6
CONTINUOUS
 10
-12.9427003539
 20
-8.1114106362
 11
-10.2731476495
 21
-9.4461869884
  0
LINE
  5
2A8
100
AcDbEntity
  8
IMPORT_IGES
100
AcDbLine
 62
7
  6
CONTINUOUS
 10
-10.2630090159
 20
-9.4206050586
 11
-12.5361139547
 21
-8.2840525892
  0
LINE
  5
2A9
100
AcDbEntity
  8
RACCORDO
100
AcDbLine
 62
253
  6
CONTINUOUS
 10
-14.5124007869
 20
-7.1164310774
 11
-13.6992279885
 21
-7.5230174766
  0
LINE
  5
2AA
100
AcDbEntity
  8
RACCORDO
100
AcDbLine
 62
253
  6
CONTINUOUS
 10
-10.150604084
 20
-9.2973294289
 11
-9.4877340347
 21
-9.6287644535
  0
LWPOLYLINE
  5
2AB
100
AcDbEntity
  8
RACCORDO
100
AcDbPolyline
 62
253
  6
CONTINUOUS
 90
31
 70
0
 10
0.3406165993
 20
-25.1578634131
 10
0.3357380995
 20
-25.1502506527
 10
0.3303924579
 20
-25.1424141876
 10
0.3245938678
 20
-25.1343752079
 10
0.3183571826
 20
-25.1261547188
 10
0.3116995884
 20
-25.1177757569
 10
0.3046409394
 20
-25.109263464
 10
0.2972012836
 20
-25.1006419639
 10
0.2894002475
 20
-25.0919339506
 10
0.2812589281
 20
-25.0831629858
 10
0.2727993927
 20
-25.0743528733
 10
0.2640448559
 20
-25.0655278188
 10
0.2550194357
 20
-25.0567121454
 10
0.2457478693
 20
-25.0479300114
 10
0.2362554
 20
-25.039205324
 10
0.2265679317
 20
-25.030561893
 10
0.2167119071
 20
-25.0220233136
 10
0.2067142613
 20
-25.013612923
 10
0.1966023253
 20
-25.005353714
 10
0.1864037273
 20
-24.9972682523
 10
0.1761463156
 20
-24.989378616
 10
0.1658581075
 20
-24.9817063548
 10
0.155567189
 20
-24.974272414
 10
0.145301684
 20
-24.9670971102
 10
0.1350896781
 20
-24.9602000729
 10
0.124959093
 20
-24.9536001554
 10
0.1149375672
 20
-24.9473153596
 10
0.1050524288
 20
-24.9413628218
 10
0.0953306632
 20
-24.9357587923
 10
0.0857988379
 20
-24.930518586
 10
0.0764829873
 20
-24.9256565154
  0
LWPOLYLINE
  5
2AC
100
AcDbEntity
  8
RACCORDO
100
AcDbPolyline
 62
253
  6
CONTINUOUS
 90
31
 70
0
 10
-13.0237015651
 20
23.1638737427
 10
-13.0239966596
 20
23.1753019818
 10
-13.0247728432
 20
23.1869426772
 10
-13.0260279905
 20
23.1987639108
 10
-13.027758665
 20
23.2107332811
 10
-13.0299601228
 20
23.2228179569
 10
-13.0326263221
 20
23.2349847669
 10
-13.0357499488
 20
23.2472003409
 10
-13.0393224383
 20
23.259431191
 10
-13.0433339896
 20
23.2716437681
 10
-13.0477735998
 20
23.2838045828
 10
-13.0526290939
 20
23.2958802924
 10
-13.0578871539
 20
23.3078377812
 10
-13.0635333666
 20
23.3196442762
 10
-13.0695522417
 20
23.3312673909
 10
-13.075927248
 20
23.3426752124
 10
-13.0826408704
 20
23.3538364189
 10
-13.0896747208
 20
23.3647204603
 10
-13.0970095726
 20
23.3752975892
 10
-13.1046254165
 20
23.3855389313
 10
-13.1125012797
 20
23.395416264
 10
-13.1206153217
 20
23.4049022219
 10
-13.1289451136
 20
23.4139706584
 10
-13.1374679563
 20
23.4225969338
 10
-13.1461607148
 20
23.4307576577
 10
-13.1550015028
 20
23.438432078
 10
-13.1639641931
 20
23.445597312
 10
-13.1730184983
 20
23.4522297155
 10
-13.1821375428
 20
23.4583109165
 10
-13.1912981613
 20
23.4638267698
 10
-13.2004752688
 20
23.4687632815
  0
LWPOLYLINE
  5
2AD
100
AcDbEntity
  8
RACCORDO
100
AcDbPolyline
 62
7
  6
CONTINUOUS
 90
34
 70
0
 10
-11.4224207743
 20
23.9665957462
 10
-11.4226208304
 20
23.9769975548
 10
-11.4232210678
 20
23.9875759228
 10
-11.4242200258
 20
23.9983069409
 10
-11.4256152614
 20
24.0091663941
 10
-11.4274036096
 20
24.0201296865
 10
-11.4295811909
 20
24.0311718975
 10
-11.4321430154
 20
24.0422680444
 10
-11.4350831897
 20
24.0533930378
 10
-11.4383951847
 20
24.0645216082
 10
-11.4420714618
 20
24.075628566
 10
-11.4461036221
 20
24.0866887872
 10
-11.4504826194
 20
24.0976771685
 10
-11.4551985199
 20
24.1085688261
 10
-11.46024059
 20
24.1193391132
 10
-11.4655974506
 20
24.1299636045
 10
-11.4712569748
 20
24.140418229
 10
-11.4772063128
 20
24.150679319
 10
-11.4834319845
 20
24.1607236254
 10
-11.489919917
 20
24.1705283804
 10
-11.4966554059
 20
24.1800713775
 10
-11.5036231451
 20
24.1893310177
 10
-11.5108074022
 20
24.1982863001
 10
-11.5181919178
 20
24.2069169321
 10
-11.5257598722
 20
24.2152034049
 10
-11.5334941937
 20
24.2231269122
 10
-11.5413773996
 20
24.2306694882
 10
-11.5493914991
 20
24.237814112
 10
-11.5575184295
 20
24.2445445548
 10
-11.5657398405
 20
24.2508455433
 10
-11.5740369372
 20
24.2567028906
 10
-11.5823909306
 20
24.2621033274
 10
-11.5907830797
 20
24.267034532
 10
-11.599194478
 20
24.271485285
  0
LINE
  5
2AE
100
AcDbEntity
  8
RACCORDO
100
AcDbLine
 62
253
  6
CONTINUOUS
 10
-12.6650029167
 20
22.5458169052
 11
-12.6650029167
 21
21.8569962823
  0
LINE
  5
2AF
100
AcDbEntity
  8
IMPORT_IGES
100
AcDbLine
 62
253
  6
CONTINUOUS
 10
-12.5361139547
 20
-8.2840525892
 11
-12.5361139547
 21
-7.0204319212
  0
LINE
  5
2B0
100
AcDbEntity
  8
RACCORDO
100
AcDbLine
 62
253
  6
CONTINUOUS
 10
-12.312480957
 20
22.6753962857
 11
-12.312480957
 21
21.8677641639
  0
LINE
  5
2B1
100
AcDbEntity
  8
IMPORT_IGES
100
AcDbLine
 62
253
  6
CONTINUOUS
 10
-12.111849886
 20
-6.7606243001
 11
-12.111849886
 21
-8.2144373469
  0
LINE
  5
2B2
100
AcDbEntity
  8
IMPORT_IGES
100
AcDbLine
 62
7
  6
CONTINUOUS
 10
-11.7759741649
 20
-5.9337207696
 11
-11.7759741649
 21
-5.7971913107
  0
LINE
  5
2B3
100
AcDbEntity
  8
RACCORDO
100
AcDbLine
 62
7
  6
CONTINUOUS
 10
-11.4224207743
 20
22.3644450852
 11
-11.4224207743
 21
23.9665957462
  0
LINE
  5
2B4
100
AcDbEntity
  8
IMPORT_IGES
100
AcDbLine
 62
7
  6
CONTINUOUS
 10
-10.9804790361
 20
-6.4547464962
 11
-10.9804790361
 21
-7.2774706298
  0
LINE
  5
2B5
100
AcDbEntity
  8
RACCORDO
100
AcDbLine
 62
253
  6
CONTINUOUS
 10
-10.8941536026
 20
24.2300345662
 11
-10.8941536026
 21
23.8825030495
  0
LINE
  5
2B6
100
AcDbEntity
  8
RACCORDO
100
AcDbLine
 62
7
  6
CONTINUOUS
 10
-10.8219557456
 20
24.3179071984
 11
-10.8219557456
 21
23.9703756816
  0
LWPOLYLINE
  5
2B7
100
AcDbEntity
  8
RACCORDO
100
AcDbPolyline
 62
7
  6
CONTINUOUS
 90
15
 70
0
 10
-10.8219557456
 20
23.9703733695
 10
-10.8221155028
 20
23.961439627
 10
-10.8228736567
 20
23.9489721073
 10
-10.8242554488
 20
23.9365442916
 10
-10.8262597003
 20
23.9241863614
 10
-10.8288830575
 20
23.9119319623
 10
-10.832121412
 20
23.8998101628
 10
-10.8359687509
 20
23.8878521194
 10
-10.8404171163
 20
23.8760896109
 10
-10.8454575599
 20
23.8645523765
 10
-10.8510791039
 20
23.8532709885
 10
-10.8572690901
 20
23.8422755647
 10
-10.864013929
 20
23.8315945557
 10
-10.8712982839
 20
23.8212563231
 10
-10.8787941032
 20
23.811666577
  0
LWPOLYLINE
  5
2B8
100
AcDbEntity
  8
RACCORDO
100
AcDbPolyline
 62
253
  6
CONTINUOUS
 90
16
 70
0
 10
-10.8219557456
 20
24.3179072016
 10
-10.8222570161
 20
24.3117723695
 10
-10.8232367347
 20
24.3052694213
 10
-10.8248934237
 20
24.2988008571
 10
-10.8272225752
 20
24.2923842904
 10
-10.8302178555
 20
24.2860371792
 10
-10.8338711143
 20
24.2797768025
 10
-10.8381724124
 20
24.2736201993
 10
-10.843110045
 20
24.2675841288
 10
-10.8486705703
 20
24.2616850264
 10
-10.8548388594
 20
24.255938945
 10
-10.8615981207
 20
24.2503615293
 10
-10.8689299345
 20
24.244967977
 10
-10.8768143327
 20
24.2397729726
 10
-10.8852298584
 20
24.2347906491
 10
-10.8941536026
 20
24.2300345662
  0
LWPOLYLINE
  5
2B9
100
AcDbEntity
  8
RACCORDO
100
AcDbPolyline
 62
253
  6
CONTINUOUS
 90
16
 70
0
 10
-10.8219557456
 20
23.9703733695
 10
-10.8222586688
 20
23.9642240586
 10
-10.8232399059
 20
23.9577223118
 10
-10.8248978636
 20
23.9512549928
 10
-10.82722803
 20
23.9448397009
 10
-10.8302240656
 20
23.9384938887
 10
-10.8338778221
 20
23.9322348166
 10
-10.8381793667
 20
23.926079506
 10
-10.8431169924
 20
23.9200447144
 10
-10.8486772454
 20
23.9141468826
 10
-10.8548449789
 20
23.9084020683
 10
-10.8616034176
 20
23.9028258887
 10
-10.8689341882
 20
23.8974335003
 10
-10.8768173523
 20
23.8922395705
 10
-10.8852314549
 20
23.8872582357
 10
-10.8941536026
 20
23.8825030495
  0
LINE
  5
2BA
100
AcDbEntity
  8
RACCORDO
100
AcDbLine
 62
7
  6
CONTINUOUS
 10
2.9972222297
 20
15.4953286842
 11
7.237689328
 21
18.543601692
  0
LINE
  5
2BB
100
AcDbEntity
  8
0
100
AcDbLine
 62
253
  6
CONTINUOUS
 10
7.3101259971
 20
18.7217454684
 11
2.9702726499
 21
15.6152749831
  0
LINE
  5
2BC
100
AcDbEntity
  8
IMPORT_IGES
100
AcDbLine
 62
7
  6
CONTINUOUS
 10
4.243457838
 20
15.1387975062
 11
6.1661794639
 21
16.2985017713
  0
LINE
  5
2BD
100
AcDbEntity
  8
IMPORT_IGES
100
AcDbLine
 62
7
  6
CONTINUOUS
 10
6.5993057019
 20
16.0819386523
 11
5.3110285643
 21
15.3468357458
  0
LWPOLYLINE
  5
2BE
100
AcDbEntity
  8
RACCORDO
100
AcDbPolyline
 62
253
  6
CONTINUOUS
 90
43
 70
0
 10
-3.2130081335
 20
12.077978263
 10
-3.238291402
 20
12.063634648
 10
-3.2634380633
 20
12.0482994833
 10
-3.2884481173
 20
12.0319727687
 10
-3.3133530767
 20
12.0146314025
 10
-3.338121429
 20
11.9962984866
 10
-3.3626586359
 20
11.9770433262
 10
-3.3869631153
 20
11.9568628089
 10
-3.4110364494
 20
11.9357600473
 10
-3.4347888469
 20
11.9138136844
 10
-3.4582188452
 20
11.8910208
 10
-3.4813279069
 20
11.8673843144
 10
-3.5040306288
 20
11.8429916318
 10
-3.526325549
 20
11.8178399281
 10
-3.5482141294
 20
11.7919320273
 10
-3.569615352
 20
11.7653638057
 10
-3.5905274877
 20
11.7381326997
 10
-3.6109522656
 20
11.710241273
 10
-3.6308138553
 20
11.6817930923
 10
-3.6501100918
 20
11.6527861855
 10
-3.66884314
 20
11.6232225248
 10
-3.6869436651
 20
11.5932115936
 10
-3.7044093195
 20
11.5627517487
 10
-3.7212424506
 20
11.5318446334
 10
-3.7373807658
 20
11.5006046612
 10
-3.7528217309
 20
11.4690304986
 10
-3.76756788
 20
11.4371234791
 10
-3.7815645222
 20
11.4050020167
 10
-3.7948088234
 20
11.3726654302
 10
-3.8073036178
 20
11.3401144008
 10
-3.8190027176
 20
11.3074693859
 10
-3.8299031757
 20
11.2747300993
 10
-3.8400079392
 20
11.2418968272
 10
-3.8492796622
 20
11.2090908856
 10
-3.8577153149
 20
11.1763120173
 10
-3.865317927
 20
11.1435604795
 10
-3.8720592424
 20
11.110958359
 10
-3.8779360496
 20
11.0785048796
 10
-3.8829515601
 20
11.0462008176
 10
-3.8870871519
 20
11.0141705888
 10
-3.8903366176
 20
10.9824556655
 10
-3.8927061646
 20
10.9510145754
 10
-3.8941957928
 20
10.9198473187
  0
LINE
  5
2BF
100
AcDbEntity
  8
RACCORDO
100
AcDbLine
 62
253
  6
CONTINUOUS
 10
2.284681139
 20
15.0793284328
 11
-3.2130081335
 21
12.077978263
  0
LINE
  5
2C0
100
AcDbEntity
  8
RACCORDO
100
AcDbLine
 62
253
  6
CONTINUOUS
 10
3.0025575619
 20
15.4184098688
 11
2.284681139
 21
15.0793284328
  0
LINE
  5
2C1
100
AcDbEntity
  8
IMPORT_IGES
100
AcDbLine
 62
7
  6
CONTINUOUS
 10
6.4131789336
 20
14.7899870343
 11
7.893738911
 21
15.4347220477
  0
LINE
  5
2C2
100
AcDbEntity
  8
IMPORT_IGES
100
AcDbLine
 62
7
  6
CONTINUOUS
 10
8.3173057725
 20
15.222938617
 11
6.0047215299
 21
14.2581656602
  0
LINE
  5
2C3
100
AcDbEntity
  8
IMPORT_IGES
100
AcDbLine
 62
7
  6
CONTINUOUS
 10
6.0047215299
 20
14.0849605795
 11
8.3173057725
 21
15.0497335362
  0
LWPOLYLINE
  5
2C4
100
AcDbEntity
  8
RACCORDO
100
AcDbPolyline
 62
253
  6
CONTINUOUS
 90
34
 70
0
 10
-3.8941957928
 20
10.9198473187
 10
-3.9114901241
 20
10.9127198521
 10
-3.9295155856
 20
10.9060065656
 10
-3.9482322453
 20
10.8997223313
 10
-3.96759864
 20
10.8938810706
 10
-3.987571867
 20
10.8884957238
 10
-4.0081076795
 20
10.8835782212
 10
-4.0291605841
 20
10.8791394565
 10
-4.0506839421
 20
10.8751892629
 10
-4.0726300727
 20
10.8717363915
 10
-4.0949503581
 20
10.8687884913
 10
-4.1175953521
 20
10.8663520929
 10
-4.1405148889
 20
10.8644325937
 10
-4.1636581946
 20
10.863034246
 10
-4.1869739996
 20
10.8621601475
 10
-4.2104106519
 20
10.8618122347
 10
-4.2339162323
 20
10.8619912783
 10
-4.2574386683
 20
10.8626968815
 10
-4.2809258506
 20
10.8639274815
 10
-4.3043257476
 20
10.8656803518
 10
-4.3275865214
 20
10.8679516095
 10
-4.3506566419
 20
10.8707362229
 10
-4.3734850017
 20
10.8740280233
 10
-4.3960210289
 20
10.8778197182
 10
-4.4182147991
 20
10.882102908
 10
-4.4400171462
 20
10.886868104
 10
-4.4613797712
 20
10.8921047498
 10
-4.4822553492
 20
10.8978012446
 10
-4.5025976343
 20
10.9039449689
 10
-4.5223615619
 20
10.9105223124
 10
-4.5415033488
 20
10.9175187043
 10
-4.55998059
 20
10.9249186453
 10
-4.5777523526
 20
10.9327057424
 10
-4.5947792665
 20
10.9408627445
  0
LWPOLYLINE
  5
2C5
100
AcDbEntity
  8
IMPORT_IGES
100
AcDbPolyline
 62
253
  6
CONTINUOUS
 90
10
 70
0
 10
14.07366263
 20
15.4854072962
 10
14.1180393345
 20
15.4990015715
 10
14.1613194197
 20
15.5082522322
 10
14.2035028855
 20
15.5131592782
 10
14.244809675
 20
15.5137019189
 10
14.2850198452
 20
15.509900945
 10
14.3234735666
 20
15.5018187286
 10
14.359950896
 20
15.4894760604
 10
14.3946717767
 20
15.4728521497
 10
14.4276362085
 20
15.4519469966
  0
LINE
  5
2C6
100
AcDbEntity
  8
RACCORDO
100
AcDbLine
 62
253
  6
CONTINUOUS
 10
-17.2095625584
 20
-5.1832970317
 11
-15.229663571
 21
-6.1732465254
  0
LINE
  5
2C7
100
AcDbEntity
  8
RACCORDO
100
AcDbLine
 62
253
  6
CONTINUOUS
 10
-9.3473845617
 20
-9.11438603
 11
-7.3674855744
 21
-10.1043355237
  0
LINE
  5
2C8
100
AcDbEntity
  8
DRAFT
100
AcDbLine
 62
7
  6
CONTINUOUS
 10
-13.7558731522
 20
-6.7366963051
 11
-12.9427003539
 21
-7.1432827043
  0
LINE
  5
2C9
100
AcDbEntity
  8
IMPORT_IGES
100
AcDbLine
 62
253
  6
CONTINUOUS
 10
-12.5361139547
 20
-7.0204319212
 11
-13.3316090835
 21
-6.6226843568
  0
LINE
  5
2CA
100
AcDbEntity
  8
RACCORDO
100
AcDbLine
 62
7
  6
CONTINUOUS
 10
7.5521538112
 20
-16.9267021796
 11
7.3101259971
 21
-16.8056882725
  0
LINE
  5
2CB
100
AcDbEntity
  8
RACCORDO
100
AcDbLine
 62
253
  6
CONTINUOUS
 10
-16.5055723158
 20
-4.747503015
 11
-14.5256733285
 21
-5.7374525086
  0
LINE
  5
2CC
100
AcDbEntity
  8
RACCORDO
100
AcDbLine
 62
253
  6
CONTINUOUS
 10
-9.3504741759
 20
-8.3250520849
 11
-7.5190262893
 21
-9.2407760283
  0
LINE
  5
2CD
100
AcDbEntity
  8
IMPORT_IGES
100
AcDbLine
 62
253
  6
CONTINUOUS
 10
-12.9073450148
 20
-6.3628767356
 11
-12.111849886
 21
-6.7606243001
  0
LINE
  5
2CE
100
AcDbEntity
  8
IMPORT_IGES
100
AcDbLine
 62
253
  6
CONTINUOUS
 10
-9.2480674222
 20
-8.192515532
 11
-9.1702638418
 21
-8.2314173221
  0
LINE
  5
2CF
100
AcDbEntity
  8
IMPORT_IGES
100
AcDbLine
 62
7
  6
CONTINUOUS
 10
-10.9804790361
 20
-7.2774706298
 11
-9.199228327
 21
-8.1680959844
  0
LINE
  5
2D0
100
AcDbEntity
  8
RACCORDO
100
AcDbLine
 62
253
  6
CONTINUOUS
 10
3.0025575619
 20
-14.2116457283
 11
6.105942931
 21
-15.7633384129
  0
LINE
  5
2D1
100
AcDbEntity
  8
RACCORDO
100
AcDbLine
 62
7
  6
CONTINUOUS
 10
3.0025575619
 20
-14.0887102443
 11
6.2630029048
 21
-15.7189329157
  0
LINE
  5
2D2
100
AcDbEntity
  8
DRAFT
100
AcDbLine
 62
7
  6
CONTINUOUS
 10
-15.7357721396
 20
-4.3611061654
 11
-13.7558731522
 21
-5.351055659
  0
LINE
  5
2D3
100
AcDbEntity
  8
DRAFT
100
AcDbLine
 62
7
  6
CONTINUOUS
 10
-8.5939936496
 20
-7.9319954104
 11
-7.5236785577
 21
-8.4671529563
  0
LINE
  5
2D4
100
AcDbEntity
  8
IMPORT_IGES
100
AcDbLine
 62
253
  6
CONTINUOUS
 10
-7.5252435875
 20
-8.1835277289
 11
-8.4525722933
 21
-7.719863376
  0
LINE
  5
2D5
100
AcDbEntity
  8
IMPORT_IGES
100
AcDbLine
 62
253
  6
CONTINUOUS
 10
-13.3316090835
 20
-5.2803449809
 11
-15.3115080708
 21
-4.2903954872
  0
LINE
  5
2D6
100
AcDbEntity
  8
IMPORT_IGES
100
AcDbLine
 62
253
  6
CONTINUOUS
 10
-11.9881061993
 20
-5.9032573279
 11
-11.1926110704
 21
-6.3010048923
  0
LWPOLYLINE
  5
2D7
100
AcDbEntity
  8
IMPORT_IGES
100
AcDbPolyline
 62
7
  6
CONTINUOUS
 90
8
 70
0
 10
-11.0583068183
 20
-6.2926326464
 10
-11.0426143244
 20
-6.3021063949
 10
-11.0246233212
 20
-6.3182934869
 10
-11.0091285865
 20
-6.3387860051
 10
-10.9968907298
 20
-6.3627599638
 10
-10.9881632873
 20
-6.3899407009
 10
-10.9826927228
 20
-6.4206028783
 10
-10.9804790361
 20
-6.4547464962
  0
LWPOLYLINE
  5
2D8
100
AcDbEntity
  8
RACCORDO
100
AcDbPolyline
 62
7
  6
CONTINUOUS
 90
27
 70
0
 10
-9.1980143635
 20
21.8506262675
 10
-9.1977383666
 20
21.8398623844
 10
-9.1969471825
 20
21.8280025344
 10
-9.1956354121
 20
21.8157897178
 10
-9.1937826543
 20
21.8032839127
 10
-9.1914598246
 20
21.790506965
 10
-9.1886652883
 20
21.7775020087
 10
-9.1853875903
 20
21.7643150301
 10
-9.1816798405
 20
21.7509575175
 10
-9.1775418254
 20
21.7374619539
 10
-9.1729676216
 20
21.723864503
 10
-9.1679981295
 20
21.7101733151
 10
-9.1626336615
 20
21.696414144
 10
-9.1568716168
 20
21.6826161397
 10
-9.1507450627
 20
21.6687873596
 10
-9.1442545176
 20
21.6549490396
 10
-9.1373994719
 20
21.6411255056
 10
-9.1302084604
 20
21.6273265455
 10
-9.1226821621
 20
21.6135702593
 10
-9.1148215227
 20
21.5998776319
 10
-9.1066530832
 20
21.5862612673
 10
-9.098177555
 20
21.5727366098
 10
-9.0893972838
 20
21.5593226304
 10
-9.0803395989
 20
21.5460364794
 10
-9.0710147572
 20
21.5328942374
 10
-9.0614171599
 20
21.5199105872
 10
-9.0515501606
 20
21.5070998397
  0
LWPOLYLINE
  5
2D9
100
AcDbEntity
  8
RACCORDO
100
AcDbPolyline
 62
7
  6
CONTINUOUS
 90
33
 70
0
 10
-10.283979925
 20
-10.7715949912
 10
-10.2836896582
 20
-10.7843121022
 10
-10.2830228945
 20
-10.7995768399
 10
-10.2820072771
 20
-10.8149110092
 10
-10.2806419604
 20
-10.8303036439
 10
-10.2789513694
 20
-10.8457467172
 10
-10.2769365986
 20
-10.8612307911
 10
-10.2745973358
 20
-10.8767459905
 10
-10.2719552447
 20
-10.8922845104
 10
-10.2690114416
 20
-10.9078380515
 10
-10.265766069
 20
-10.9233976158
 10
-10.2622387821
 20
-10.9389549908
 10
-10.2584307469
 20
-10.9545027852
 10
-10.2543425057
 20
-10.9700327756
 10
-10.2499923602
 20
-10.9855359704
 10
-10.2453815907
 20
-11.0010056872
 10
-10.2405110953
 20
-11.0164344391
 10
-10.2353983186
 20
-11.0318123843
 10
-10.2300446356
 20
-11.0471336696
 10
-10.2244513526
 20
-11.0623912703
 10
-10.2186356828
 20
-11.0775738825
 10
-10.2125992065
 20
-11.0926763052
 10
-10.2063436259
 20
-11.1076920759
 10
-10.1998863917
 20
-11.1226082863
 10
-10.193229359
 20
-11.1374204061
 10
-10.1863746695
 20
-11.1521225157
 10
-10.1793404521
 20
-11.1666999524
 10
-10.1721289451
 20
-11.1811488415
 10
-10.1647427529
 20
-11.1954638931
 10
-10.1572010048
 20
-11.2096287418
 10
-10.1495121185
 20
-11.2236353929
 10
-10.1416735651
 20
-11.2374841297
 10
-10.1336883883
 20
-11.2511714044
  0
LWPOLYLINE
  5
2DA
100
AcDbEntity
  8
RACCORDO
100
AcDbPolyline
 62
7
  6
CONTINUOUS
 90
33
 70
0
 10
-10.2971300624
 20
-9.6078219135
 10
-10.2968483343
 20
-9.6211611346
 10
-10.2962004198
 20
-9.6364146277
 10
-10.2952039453
 20
-9.651738482
 10
-10.2938580404
 20
-9.6671217193
 10
-10.2921871267
 20
-9.6825562917
 10
-10.2901922779
 20
-9.698032749
 10
-10.2878731594
 20
-9.7135412044
 10
-10.2852514315
 20
-9.7290738353
 10
-10.2823281917
 20
-9.7446223307
 10
-10.2791035617
 20
-9.7601776808
 10
-10.2755971924
 20
-9.7757316586
 10
-10.2718102325
 20
-9.7912768611
 10
-10.2677432054
 20
-9.8068050529
 10
-10.2634144066
 20
-9.8223072299
 10
-10.2588251006
 20
-9.8377766979
 10
-10.2539761679
 20
-9.8532059581
 10
-10.2488850452
 20
-9.8685851566
 10
-10.2435530931
 20
-9.8839084287
 10
-10.2379816011
 20
-9.8991687368
 10
-10.2321877722
 20
-9.9143547655
 10
-10.226173173
 20
-9.9294613013
 10
-10.2199394901
 20
-9.9444818688
 10
-10.2135041609
 20
-9.9594035465
 10
-10.2068690282
 20
-9.9742217911
 10
-10.2000362185
 20
-9.9889306694
 10
-10.1930238444
 20
-10.0035155032
 10
-10.1858341327
 20
-10.017972404
 10
-10.1784696737
 20
-10.0322960671
 10
-10.1709495771
 20
-10.0464701084
 10
-10.1632822459
 20
-10.0604865161
 10
-10.1554651423
 20
-10.0743455596
 10
-10.1475012989
 20
-10.0880436754
  0
LWPOLYLINE
  5
2DB
100
AcDbEntity
  8
RACCORDO
100
AcDbPolyline
 62
7
  6
CONTINUOUS
 90
33
 70
0
 10
-9.483957264
 20
-10.0144083129
 10
-9.4836755359
 20
-10.0277475337
 10
-9.4830276214
 20
-10.0430010268
 10
-9.482031147
 20
-10.0583248811
 10
-9.4806852421
 20
-10.0737081183
 10
-9.4790143283
 20
-10.0891426908
 10
-9.4770194796
 20
-10.1046191481
 10
-9.4747003611
 20
-10.1201276034
 10
-9.4720786331
 20
-10.1356602344
 10
-9.4691553934
 20
-10.1512087298
 10
-9.4659307634
 20
-10.1667640799
 10
-9.4624243941
 20
-10.1823180577
 10
-9.4586374342
 20
-10.1978632601
 10
-9.4545704071
 20
-10.2133914519
 10
-9.4502416083
 20
-10.228893629
 10
-9.4456523023
 20
-10.244363097
 10
-9.4408033696
 20
-10.2597923571
 10
-9.4357122469
 20
-10.2751715557
 10
-9.4303802948
 20
-10.2904948278
 10
-9.4248088028
 20
-10.3057551359
 10
-9.4190149738
 20
-10.3209411646
 10
-9.4130003747
 20
-10.3360477004
 10
-9.4067666917
 20
-10.3510682679
 10
-9.4003313626
 20
-10.3659899456
 10
-9.3936962298
 20
-10.3808081903
 10
-9.3868634202
 20
-10.3955170686
 10
-9.379851046
 20
-10.4101019024
 10
-9.3726613343
 20
-10.4245588032
 10
-9.3652968754
 20
-10.4388824663
 10
-9.3577767787
 20
-10.4530565076
 10
-9.3501094475
 20
-10.4670729153
 10
-9.342292344
 20
-10.4809319587
 10
-9.3343285005
 20
-10.4946300746
  0
LWPOLYLINE
  5
2DC
100
AcDbEntity
  8
RACCORDO
100
AcDbPolyline
 62
7
  6
CONTINUOUS
 90
33
 70
0
 10
-9.4962258996
 20
-8.6334090665
 10
-9.4959571076
 20
-8.647479193
 10
-9.4953314735
 20
-8.6627192488
 10
-9.4943576296
 20
-8.6780307675
 10
-9.4930346761
 20
-8.6934027565
 10
-9.4913870305
 20
-8.7088271432
 10
-9.4894157422
 20
-8.7242944631
 10
-9.4871204497
 20
-8.739794815
 10
-9.4845228091
 20
-8.7553203561
 10
-9.481623896
 20
-8.7708627614
 10
-9.4784238074
 20
-8.7864130071
 10
-9.4749421887
 20
-8.8019628491
 10
-9.4711801686
 20
-8.8175048704
 10
-9.4671382477
 20
-8.8330308218
 10
-9.4628347143
 20
-8.8485316843
 10
-9.4582708142
 20
-8.8640007497
 10
-9.4534474067
 20
-8.8794305049
 10
-9.4483819197
 20
-8.8948110822
 10
-9.4430756963
 20
-8.9101366028
 10
-9.4375300061
 20
-8.9254000146
 10
-9.43176204
 20
-8.9405899878
 10
-9.4257733486
 20
-8.9557012946
 10
-9.4195655997
 20
-8.9707274442
 10
-9.4131562152
 20
-8.9856554995
 10
-9.4065470229
 20
-9.0004809021
 10
-9.3997401317
 20
-9.0151977024
 10
-9.3927536345
 20
-9.0297912039
 10
-9.3855897448
 20
-9.0442575021
 10
-9.3782510361
 20
-9.0585912746
 10
-9.3707565945
 20
-9.072776115
 10
-9.3631148059
 20
-9.0868039917
 10
-9.3553231219
 20
-9.1006751573
 10
-9.3473845617
 20
-9.11438603
  0
LWPOLYLINE
  5
2DD
100
AcDbEntity
  8
RACCORDO
100
AcDbPolyline
 62
253
  6
CONTINUOUS
 90
31
 70
0
 10
-10.8941536026
 20
24.2300345662
 10
-10.8943438507
 20
24.2415152285
 10
-10.8950211152
 20
24.2532053834
 10
-10.896183542
 20
24.2650729773
 10
-10.8978279487
 20
24.2770854815
 10
-10.8999498282
 20
24.2892099464
 10
-10.9025433571
 20
24.3014130916
 10
-10.9056014206
 20
24.3136614473
 10
-10.9091156338
 20
24.3259214355
 10
-10.9130763555
 20
24.3381594274
 10
-10.9174727221
 20
24.3503418638
 10
-10.9222926773
 20
24.3624353429
 10
-10.9275230004
 20
24.3744067002
 10
-10.9331493542
 20
24.3862231247
 10
-10.9391563028
 20
24.3978522026
 10
-10.9455273476
 20
24.4092620048
 10
-10.9522449844
 20
24.4204212042
 10
-10.9592908139
 20
24.4312992561
 10
-10.9666455764
 20
24.4418664295
 10
-10.9742892088
 20
24.4520938774
 10
-10.9822006619
 20
24.4619534152
 10
-10.9903579961
 20
24.471417727
 10
-10.9987386623
 20
24.4804607263
 10
-11.007319822
 20
24.4890578432
 10
-11.0160781816
 20
24.4971857666
 10
-11.0249916917
 20
24.5048238258
 10
-11.0340340122
 20
24.5119492447
 10
-11.0431745809
 20
24.5185385165
 10
-11.0523862538
 20
24.5245734033
 10
-11.0616456176
 20
24.5300398839
 10
-11.0709273063
 20
24.534924105
  0
LWPOLYLINE
  5
2DE
100
AcDbEntity
  8
IMPORT_IGES
100
AcDbPolyline
 62
7
  6
CONTINUOUS
 90
9
 70
0
 10
-8.5404401519
 20
-7.429849476
 10
-8.5402874654
 20
-7.4409043773
 10
-8.5376864629
 20
-7.476886519
 10
-8.5318104703
 20
-7.5148070112
 10
-8.5226262045
 20
-7.5543969623
 10
-8.5100829228
 20
-7.5949522945
 10
-8.494169377
 20
-7.636099762
 10
-8.4749613135
 20
-7.6778061135
 10
-8.4525722933
 20
-7.719863376
  0
LINE
  5
2DF
100
AcDbEntity
  8
RACCORDO
100
AcDbLine
 62
253
  6
CONTINUOUS
 10
-10.1336883883
 20
-11.2511714044
 11
-10.1415347355
 21
-10.6173526865
  0
LINE
  5
2E0
100
AcDbEntity
  8
RACCORDO
100
AcDbLine
 62
7
  6
CONTINUOUS
 10
-10.2948414567
 20
-9.8275311182
 11
-10.2839769304
 21
-10.771594237
  0
LINE
  5
2E1
100
AcDbEntity
  8
RACCORDO
100
AcDbLine
 62
253
  6
CONTINUOUS
 10
-10.1415347355
 20
-10.6173526865
 11
-10.1475012989
 21
-10.0880436754
  0
LINE
  5
2E2
100
AcDbEntity
  8
RACCORDO
100
AcDbLine
 62
253
  6
CONTINUOUS
 10
-9.3343285005
 20
-10.4946300746
 11
-9.3404213628
 21
-9.8973992285
  0
LINE
  5
2E3
100
AcDbEntity
  8
RACCORDO
100
AcDbLine
 62
7
  6
CONTINUOUS
 10
-9.4924296129
 20
-9.1061331392
 11
-9.4839540332
 21
-10.0144075049
  0
LWPOLYLINE
  5
2E4
100
AcDbEntity
  8
RACCORDO
100
AcDbPolyline
 62
253
  6
CONTINUOUS
 90
3
 70
0
 10
-9.3404213628
 20
-9.8973992285
 10
-9.3460272681
 20
-9.2778047164
 10
-9.3473845617
 20
-9.11438603
  0
LINE
  5
2E5
100
AcDbEntity
  8
RACCORDO
100
AcDbLine
 62
7
  6
CONTINUOUS
 10
-9.4962224074
 20
-8.6334082007
 11
-9.4924296129
 21
-9.1061331392
  0
LINE
  5
2E6
100
AcDbEntity
  8
0
100
AcDbLine
 62
7
  6
CONTINUOUS
 10
-10.4678266197
 20
18.9524243352
 11
-10.4678266197
 21
18.1784090212
  0
LINE
  5
2E7
100
AcDbEntity
  8
RACCORDO
100
AcDbLine
 62
7
  6
CONTINUOUS
 10
-9.19799677
 20
21.8501696707
 11
-9.19799677
 21
20.609980638
  0
LINE
  5
2E8
100
AcDbEntity
  8
RACCORDO
100
AcDbLine
 62
253
  6
CONTINUOUS
 10
-9.0515501606
 20
21.5070998397
 11
-9.0515501606
 21
20.4265165289
  0
LINE
  5
2E9
100
AcDbEntity
  8
RACCORDO
100
AcDbLine
 62
253
  6
CONTINUOUS
 10
1.9418973901
 20
16.5573918115
 11
2.4701645619
 21
17.2003439672
  0
LINE
  5
2EA
100
AcDbEntity
  8
RACCORDO
100
AcDbLine
 62
7
  6
CONTINUOUS
 10
1.9418973901
 20
16.4678613452
 11
2.4855251342
 21
17.1295088007
  0
LWPOLYLINE
  5
2EB
100
AcDbEntity
  8
RACCORDO
100
AcDbPolyline
 62
7
  6
CONTINUOUS
 90
30
 70
0
 10
1.0518372074
 20
15.9932372035
 10
1.0439580844
 20
15.9841028002
 10
1.0357378353
 20
15.9751053592
 10
1.0271799741
 20
15.9662663727
 10
1.0182815436
 20
15.9576098428
 10
1.0090551086
 20
15.9491551636
 10
0.9995285343
 20
15.9409172708
 10
0.989708346
 20
15.9329185173
 10
0.9796024477
 20
15.9251806405
 10
0.9692416648
 20
15.9177181006
 10
0.9586351435
 20
15.9105533228
 10
0.9477932321
 20
15.9037080175
 10
0.936749455
 20
15.8971960459
 10
0.9255156066
 20
15.8910395267
 10
0.9141046558
 20
15.8852598629
 10
0.9025528353
 20
15.8798703394
 10
0.8908747034
 20
15.8748923817
 10
0.8790859719
 20
15.8703466844
 10
0.8672256579
 20
15.8662458992
 10
0.8553112103
 20
15.8626102738
 10
0.8433611969
 20
15.8594592887
 10
0.8314175193
 20
15.8568047524
 10
0.8195006697
 20
15.85466512
 10
0.8076321025
 20
15.8530579826
 10
0.7958565239
 20
15.8519938218
 10
0.7841977034
 20
15.8514885165
 10
0.7726797663
 20
15.8515568826
 10
0.7613494136
 20
15.852207281
 10
0.7502441512
 20
15.8534506738
 10
0.7393797994
 20
15.8552981692
  0
LINE
  5
2EC
100
AcDbEntity
  8
IMPORT_IGES
100
AcDbLine
 62
7
  6
CONTINUOUS
 10
4.6364377571
 20
16.6399330424
 11
4.8188921441
 21
16.7989403504
  0
LINE
  5
2ED
100
AcDbEntity
  8
IMPORT_IGES
100
AcDbLine
 62
7
  6
CONTINUOUS
 10
3.992565333
 20
16.0855594682
 11
4.2709748984
 21
16.3218030792
  0
LWPOLYLINE
  5
2EE
100
AcDbEntity
  8
RACCORDO
100
AcDbPolyline
 62
7
  6
CONTINUOUS
 90
5
 70
0
 10
-5.4125987744
 20
7.0860597256
 10
-5.4186894911
 20
7.0813322505
 10
-5.4422252826
 20
7.0653845928
 10
-5.4665113031
 20
7.0514542693
 10
-5.4700112237
 20
7.04966334
  0
LINE
  5
2EF
100
AcDbEntity
  8
IMPORT_IGES
100
AcDbLine
 62
7
  6
CONTINUOUS
 10
5.8103905704
 20
15.4585712662
 11
6.5993057019
 21
15.9087335715
  0
LINE
  5
2F0
100
AcDbEntity
  8
0
100
AcDbLine
 62
7
  6
CONTINUOUS
 10
3.03914597
 20
11.5516397513
 11
3.0651452191
 21
11.5658376676
  0
LWPOLYLINE
  5
2F1
100
AcDbEntity
  8
0
100
AcDbPolyline
 62
7
  6
CONTINUOUS
 90
7
 70
0
 10
3.03914597
 20
11.465037211
 10
3.0521123936
 20
11.4717363751
 10
3.0643484051
 20
11.4785028656
 10
3.0758540044
 20
11.4853366823
 10
3.0866291915
 20
11.4922378254
 10
3.0966739663
 20
11.4992062947
 10
3.105988329
 20
11.5062420903
  0
LINE
  5
2F2
100
AcDbEntity
  8
IMPORT_IGES
100
AcDbLine
 62
7
  6
CONTINUOUS
 10
8.5556523765
 20
15.1037653149
 11
6.4344600193
 21
14.0431691363
  0
LINE
  5
2F3
100
AcDbEntity
  8
IMPORT_IGES
100
AcDbLine
 62
7
  6
CONTINUOUS
 10
6.8772092735
 20
13.8217945092
 11
8.9984016307
 21
14.8823906878
  0
LINE
  5
2F4
100
AcDbEntity
  8
IMPORT_IGES
100
AcDbLine
 62
7
  6
CONTINUOUS
 10
8.9984016307
 20
14.7091856071
 11
7.0782283787
 21
13.7490989811
  0
LINE
  5
2F5
100
AcDbEntity
  8
IMPORT_IGES
100
AcDbLine
 62
7
  6
CONTINUOUS
 10
7.0416420057
 20
13.7308057946
 11
6.8772092735
 21
13.6485894285
  0
LINE
  5
2F6
100
AcDbEntity
  8
0
100
AcDbLine
 62
7
  6
CONTINUOUS
 10
3.5555100464
 20
11.8327713081
 11
3.5826871046
 21
11.8463598372
  0
LINE
  5
2F7
100
AcDbEntity
  8
0
100
AcDbLine
 62
7
  6
CONTINUOUS
 10
3.5555100464
 20
11.7461687677
 11
3.5826871046
 21
11.7597572968
  0
LINE
  5
2F8
100
AcDbEntity
  8
RACCORDO
100
AcDbLine
 62
7
  6
CONTINUOUS
 10
-5.4697042076
 20
7.0498151449
 11
-5.4127982863
 21
7.0782681055
  0
LINE
  5
2F9
100
AcDbEntity
  8
IMPORT_IGES
100
AcDbLine
 62
7
  6
CONTINUOUS
 10
3.0025575619
 20
13.0446286878
 11
3.1209890903
 21
13.1008014784
  0
LINE
  5
2FA
100
AcDbEntity
  8
IMPORT_IGES
100
AcDbLine
 62
7
  6
CONTINUOUS
 10
4.1808405387
 20
12.5700878101
 11
3.28196833
 21
12.1437472819
  0
LWPOLYLINE
  5
2FB
100
AcDbEntity
  8
RACCORDO
100
AcDbPolyline
 62
7
  6
CONTINUOUS
 90
3
 70
0
 10
-5.4700112237
 20
7.04966334
 10
-5.4916107607
 20
7.0398202825
 10
-5.5174876251
 20
7.0307670651
  0
LWPOLYLINE
  5
2FC
100
AcDbEntity
  8
IMPORT_IGES
100
AcDbPolyline
 62
253
  6
CONTINUOUS
 90
10
 70
0
 10
12.5288081413
 20
15.1571853618
 10
12.5181993431
 20
15.1524948173
 10
12.5080803117
 20
15.1475586191
 10
12.4984518044
 20
15.1423802468
 10
12.4893176463
 20
15.1369610667
 10
12.4806754082
 20
15.1313065268
 10
12.4725164088
 20
15.1254262062
 10
12.4648381455
 20
15.1193255299
 10
12.4576442944
 20
15.1130057201
 10
12.4509353885
 20
15.1064700257
  0
LWPOLYLINE
  5
2FD
100
AcDbEntity
  8
IMPORT_IGES
100
AcDbPolyline
 62
7
  6
CONTINUOUS
 90
7
 70
0
 10
4.9224295217
 20
11.5789203915
 10
4.9563736306
 20
11.5933567497
 10
4.9923585856
 20
11.6036355083
 10
5.0297684991
 20
11.6093928028
 10
5.0680545607
 20
11.6103761584
 10
5.1063169725
 20
11.6064465591
 10
5.1435265977
 20
11.5977249951
  0
LWPOLYLINE
  5
2FE
100
AcDbEntity
  8
IMPORT_IGES
100
AcDbPolyline
 62
253
  6
CONTINUOUS
 90
6
 70
0
 10
12.5216637744
 20
14.9099102803
 10
12.5353010797
 20
14.9156507245
 10
12.5487120043
 20
14.9191394607
 10
12.5616739255
 20
14.9203185757
 10
12.5739716741
 20
14.9191684961
 10
12.5854011064
 20
14.9157083131
  0
LWPOLYLINE
  5
2FF
100
AcDbEntity
  8
IMPORT_IGES
100
AcDbPolyline
 62
253
  6
CONTINUOUS
 90
9
 70
0
 10
12.6278664445
 20
14.9710285212
 10
12.6354551343
 20
14.974180308
 10
12.6430401349
 20
14.9772762719
 10
12.6506214464
 20
14.980316413
 10
12.6581993263
 20
14.9833008308
 10
12.665773517
 20
14.9862294258
 10
12.6733432459
 20
14.9891018991
 10
12.6809082555
 20
14.9919181513
 10
12.6884688032
 20
14.9946782818
  0
LWPOLYLINE
  5
300
100
AcDbEntity
  8
0
100
AcDbPolyline
 62
7
  6
CONTINUOUS
 90
3
 70
0
 10
3.0025575619
 20
11.448470766
 10
3.0108294251
 20
11.4518411082
 10
3.03914597
 20
11.465037211
  0
LWPOLYLINE
  5
301
100
AcDbEntity
  8
0
100
AcDbPolyline
 62
7
  6
CONTINUOUS
 90
3
 70
0
 10
3.0025575619
 20
11.5351800775
 10
3.0094536691
 20
11.5379704959
 10
3.03914597
 20
11.5516397513
  0
LWPOLYLINE
  5
302
100
AcDbEntity
  8
IMPORT_IGES
100
AcDbPolyline
 62
253
  6
CONTINUOUS
 90
5
 70
0
 10
12.0088769318
 20
14.5085238872
 10
12.0211557122
 20
14.5133475902
 10
12.0330614081
 20
14.5153933531
 10
12.0442322709
 20
14.5145990163
 10
12.0535982913
 20
14.5113640659
  0
LWPOLYLINE
  5
303
100
AcDbEntity
  8
IMPORT_IGES
100
AcDbPolyline
 62
253
  6
CONTINUOUS
 90
5
 70
0
 10
7.9786235446
 20
12.4933971936
 10
7.990902325
 20
12.4982208966
 10
8.0028080209
 20
12.5002666595
 10
8.0139788836
 20
12.4994723227
 10
8.0233449041
 20
12.4962373723
  0
LWPOLYLINE
  5
304
100
AcDbEntity
  8
IMPORT_IGES
100
AcDbPolyline
 62
253
  6
CONTINUOUS
 90
9
 70
0
 10
12.5943246608
 20
15.1827528403
 10
12.5861510012
 20
15.1797688809
 10
12.5779722437
 20
15.1767241461
 10
12.569788665
 20
15.1736187388
 10
12.5616005417
 20
15.1704527641
 10
12.5534081506
 20
15.1672263289
 10
12.5452117688
 20
15.1639395423
 10
12.5370116733
 20
15.1605925156
 10
12.5288081413
 20
15.1571853618
  0
LINE
  5
305
100
AcDbEntity
  8
IMPORT_IGES
100
AcDbLine
 62
253
  6
CONTINUOUS
 10
12.6223658952
 20
14.9690381125
 11
12.6278664445
 21
14.9710285212
  0
LINE
  5
306
100
AcDbEntity
  8
IMPORT_IGES
100
AcDbLine
 62
253
  6
CONTINUOUS
 10
13.980130687
 20
15.6737009289
 11
12.5943246608
 21
15.1827528403
  0
LINE
  5
307
100
AcDbEntity
  8
IMPORT_IGES
100
AcDbLine
 62
253
  6
CONTINUOUS
 10
12.6884688032
 20
14.9946782818
 11
14.07366263
 21
15.4854072962
  0
LINE
  5
308
100
AcDbEntity
  8
IMPORT_IGES
100
AcDbLine
 62
253
  6
CONTINUOUS
 10
5.9140998989
 20
-8.5874866382
 11
5.6695098956
 21
-8.6126105452
  0
LINE
  5
309
100
AcDbEntity
  8
IMPORT_IGES
100
AcDbLine
 62
7
  6
CONTINUOUS
 10
5.5498021614
 20
-8.6523655361
 11
5.7597393317
 21
-8.6310583813
  0
LWPOLYLINE
  5
30A
100
AcDbEntity
  8
IMPORT_IGES
100
AcDbPolyline
 62
7
  6
CONTINUOUS
 90
8
 70
0
 10
5.5498022014
 20
-8.652365532
 10
5.5328482846
 20
-8.6536021545
 10
5.5158365394
 20
-8.6538763339
 10
5.4988235662
 20
-8.6531847696
 10
5.4818678797
 20
-8.6515279232
 10
5.4650247908
 20
-8.6489096304
 10
5.4483463443
 20
-8.6453362139
 10
5.4392624661
 20
-8.642966901
  0
LWPOLYLINE
  5
30B
100
AcDbEntity
  8
IMPORT_IGES
100
AcDbPolyline
 62
7
  6
CONTINUOUS
 90
7
 70
0
 10
-11.8538019471
 20
-5.8948850819
 10
-11.8586709547
 20
-5.8926051924
 10
-11.8817287248
 20
-5.8851569806
 10
-11.9062994641
 20
-5.882454098
 10
-11.9320554065
 20
-5.8846431788
 10
-11.9593243182
 20
-5.8915775887
 10
-11.9881061993
 20
-5.9032573279
  0
LINE
  5
30C
100
AcDbEntity
  8
IMPORT_IGES
100
AcDbLine
 62
7
  6
CONTINUOUS
 10
-11.0584469918
 20
-6.2924843561
 11
-11.8539421206
 21
-5.8947367917
  0
LINE
  5
30D
100
AcDbEntity
  8
IMPORT_IGES
100
AcDbLine
 62
253
  6
CONTINUOUS
 10
-8.4525722933
 20
-7.2479237205
 11
-7.5271936984
 21
-7.710613018
  0
LINE
  5
30E
100
AcDbEntity
  8
IMPORT_IGES
100
AcDbLine
 62
253
  6
CONTINUOUS
 10
-12.9073450148
 20
-5.0205373598
 11
-14.8872440021
 21
-4.0305878661
  0
LWPOLYLINE
  5
30F
100
AcDbEntity
  8
RACCORDO
100
AcDbPolyline
 62
7
  6
CONTINUOUS
 90
33
 70
0
 10
-7.5163269117
 20
-9.6233585639
 10
-7.5160581198
 20
-9.637428686
 10
-7.5154324856
 20
-9.6526687418
 10
-7.5144586417
 20
-9.6679802605
 10
-7.5131356882
 20
-9.6833522495
 10
-7.5114880425
 20
-9.6987766362
 10
-7.5095167542
 20
-9.714243956
 10
-7.5072214618
 20
-9.7297443079
 10
-7.5046238212
 20
-9.7452698491
 10
-7.501724908
 20
-9.7608122543
 10
-7.4985248194
 20
-9.7763625
 10
-7.4950432007
 20
-9.7919123419
 10
-7.4912811805
 20
-9.8074543633
 10
-7.4872392596
 20
-9.8229803147
 10
-7.4829357261
 20
-9.8384811771
 10
-7.478371826
 20
-9.8539502425
 10
-7.4735484185
 20
-9.8693799977
 10
-7.4684829313
 20
-9.884760575
 10
-7.4631767079
 20
-9.9000860956
 10
-7.4576310176
 20
-9.9153495073
 10
-7.4518630514
 20
-9.9305394804
 10
-7.44587436
 20
-9.9456507872
 10
-7.439666611
 20
-9.9606769367
 10
-7.4332572262
 20
-9.9756049919
 10
-7.4266480338
 20
-9.9904303945
 10
-7.4198411424
 20
-10.0051471946
 10
-7.4128546449
 20
-10.0197406959
 10
-7.4056907543
 20
-10.0342069935
 10
-7.3983520446
 20
-10.0485407652
 10
-7.3908576027
 20
-10.0627256055
 10
-7.3832158149
 20
-10.0767534828
 10
-7.3754241325
 20
-10.0906246494
 10
-7.3674855744
 20
-10.1043355237
  0
LWPOLYLINE
  5
310
100
AcDbEntity
  8
RACCORDO
100
AcDbPolyline
 62
253
  6
CONTINUOUS
 90
13
 70
0
 10
-7.3674855744
 20
-10.1043355237
 10
-7.3718596118
 20
-9.5292974474
 10
-7.3756643966
 20
-8.9450346044
 10
-7.3788703158
 20
-8.3515329722
 10
-7.381438871
 20
-7.7509487341
 10
-7.383353001
 20
-7.1410998096
 10
-7.3845919947
 20
-6.5154531953
 10
-7.3851009829
 20
-5.8732520892
 10
-7.3848221905
 20
-5.2151994631
 10
-7.3836898107
 20
-4.5369318053
 10
-7.3816233381
 20
-3.8369666705
 10
-7.3785454971
 20
-3.1167116535
 10
-7.3743758746
 20
-2.3761290513
  0
LINE
  5
311
100
AcDbEntity
  8
IMPORT_IGES
100
AcDbLine
 62
7
  6
CONTINUOUS
 10
-8.540440259
 20
-7.4322637099
 11
-8.540440259
 21
-7.9587721056
  0
LINE
  5
312
100
AcDbEntity
  8
IMPORT_IGES
100
AcDbLine
 62
253
  6
CONTINUOUS
 10
-8.4525722933
 20
-7.719863376
 11
-8.4525722933
 21
-8.0027060885
  0
LWPOLYLINE
  5
313
100
AcDbEntity
  8
RACCORDO
100
AcDbPolyline
 62
7
  6
CONTINUOUS
 90
10
 70
0
 10
-7.5226812885
 20
-2.5077440264
 10
-7.5255288273
 20
-3.0511600026
 10
-7.5289266446
 20
-3.9148836213
 10
-7.5309354897
 20
-4.7779088955
 10
-7.5315553522
 20
-5.6402324262
 10
-7.5307862247
 20
-6.5018507942
 10
-7.5286281026
 20
-7.3627605629
 10
-7.5250809915
 20
-8.2229583348
 10
-7.5201448992
 20
-9.0824407384
 10
-7.5163234196
 20
-9.623357698
  0
LWPOLYLINE
  5
314
100
AcDbEntity
  8
RACCORDO
100
AcDbPolyline
 62
7
  6
CONTINUOUS
 90
29
 70
0
 10
-7.5226857139
 20
-2.5077414671
 10
-7.522677928
 20
-2.5074614702
 10
-7.5224165234
 20
-2.5057367175
 10
-7.5218061696
 20
-2.5038035611
 10
-7.5208478481
 20
-2.5016722826
 10
-7.5195406389
 20
-2.4993545001
 10
-7.5179089568
 20
-2.4968457197
 10
-7.5159538342
 20
-2.4941553719
 10
-7.5136748915
 20
-2.491294064
 10
-7.5110937816
 20
-2.4882575374
 10
-7.5082115649
 20
-2.4850545183
 10
-7.5050283217
 20
-2.4816947891
 10
-7.5015636936
 20
-2.4781744858
 10
-7.4978187953
 20
-2.4745017759
 10
-7.4937941119
 20
-2.4706857769
 10
-7.4895079268
 20
-2.4667231598
 10
-7.4849614727
 20
-2.4626216623
 10
-7.4801555946
 20
-2.4583898649
 10
-7.475107714
 20
-2.4540250626
 10
-7.4698191623
 20
-2.4495345857
 10
-7.4642911952
 20
-2.444926642
 10
-7.4585409954
 20
-2.4401994193
 10
-7.4525701024
 20
-2.4353599476
 10
-7.4463801711
 20
-2.4304161305
 10
-7.4399886125
 20
-2.4253672347
 10
-7.4333972444
 20
-2.4202200203
 10
-7.4266081634
 20
-2.4149821714
 10
-7.4196394487
 20
-2.4096542632
 10
-7.4124933036
 20
-2.4042428145
  0
LWPOLYLINE
  5
315
100
AcDbEntity
  8
IMPORT_IGES
100
AcDbPolyline
 62
7
  6
CONTINUOUS
 90
3
 70
0
 10
-9.3301453337
 20
-8.3144895035
 10
-9.324781986
 20
-8.2915013444
 10
-9.3151624788
 20
-8.2652810667
  0
LWPOLYLINE
  5
316
100
AcDbEntity
  8
0
100
AcDbPolyline
 62
7
  6
CONTINUOUS
 90
4
 70
0
 10
3.1071570404
 20
11.5937736609
 10
3.1229356189
 20
11.6074660039
 10
3.1353853051
 20
11.6210050671
 10
3.1452080794
 20
11.6345280527
  0
LWPOLYLINE
  5
317
100
AcDbEntity
  8
0
100
AcDbPolyline
 62
7
  6
CONTINUOUS
 90
10
 70
0
 10
3.105988329
 20
11.5062420903
 10
3.1168762894
 20
11.5154507699
 10
3.1265001164
 20
11.5246393781
 10
3.1348598102
 20
11.533807915
 10
3.1419129358
 20
11.5429512854
 10
3.1477019281
 20
11.5520745845
 10
3.1523540915
 20
11.5611930975
 10
3.1559118605
 20
11.5703119194
 10
3.1583328006
 20
11.5794259553
 10
3.1596169117
 20
11.588535205
  0
LWPOLYLINE
  5
318
100
AcDbEntity
  8
0
100
AcDbPolyline
 62
7
  6
CONTINUOUS
 90
3
 70
0
 10
3.0651452191
 20
11.5658376676
 10
3.087815576
 20
11.5798823041
 10
3.1071570404
 20
11.5937736609
  0
LWPOLYLINE
  5
319
100
AcDbEntity
  8
IMPORT_IGES
100
AcDbPolyline
 62
253
  6
CONTINUOUS
 90
7
 70
0
 10
5.9051273092
 20
10.8863309513
 10
5.9310012769
 20
10.9010827541
 10
5.9528028959
 20
10.9173969685
 10
5.9701591346
 20
10.9349944536
 10
5.9827730227
 20
10.9535741117
 10
5.9904287332
 20
10.9728180396
 10
5.9929952748
 20
10.9923969685
  0
LWPOLYLINE
  5
31A
100
AcDbEntity
  8
IMPORT_IGES
100
AcDbPolyline
 62
253
  6
CONTINUOUS
 90
10
 70
0
 10
7.5404886173
 20
11.6958509935
 10
7.5322832257
 20
11.6913476528
 10
7.5240602446
 20
11.68568367
 10
7.5159889702
 20
11.6789335997
 10
7.508299035
 20
11.6712852413
 10
7.5010787653
 20
11.6628483388
 10
7.4943037486
 20
11.6535800116
 10
7.4880829831
 20
11.6435735682
 10
7.4826081131
 20
11.6331109287
 10
7.4779808338
 20
11.6224196159
  0
LWPOLYLINE
  5
31B
100
AcDbEntity
  8
IMPORT_IGES
100
AcDbPolyline
 62
253
  6
CONTINUOUS
 90
4
 70
0
 10
12.6072801312
 20
14.9618990103
 10
12.6120645209
 20
14.9644688234
 10
12.6170957937
 20
14.9668499425
 10
12.6223658952
 20
14.9690381125
  0
LINE
  5
31C
100
AcDbEntity
  8
IMPORT_IGES
100
AcDbLine
 62
7
  6
CONTINUOUS
 10
4.9224295217
 20
11.5789203915
 11
4.445560171
 21
11.3404733393
  0
LINE
  5
31D
100
AcDbEntity
  8
IMPORT_IGES
100
AcDbLine
 62
253
  6
CONTINUOUS
 10
5.0565946763
 20
11.5704003933
 11
4.5211642665
 21
11.3026712915
  0
LINE
  5
31E
100
AcDbEntity
  8
IMPORT_IGES
100
AcDbLine
 62
253
  6
CONTINUOUS
 10
5.1575603695
 20
10.98447324
 11
5.6929907793
 21
11.2522023418
  0
LINE
  5
31F
100
AcDbEntity
  8
IMPORT_IGES
100
AcDbLine
 62
253
  6
CONTINUOUS
 10
5.9051273092
 20
10.8863309513
 11
5.5418141231
 21
10.7046649286
  0
LINE
  5
320
100
AcDbEntity
  8
IMPORT_IGES
100
AcDbLine
 62
253
  6
CONTINUOUS
 10
13.2451354421
 20
14.5481744465
 11
7.5404885782
 21
11.6958509991
  0
LINE
  5
321
100
AcDbEntity
  8
IMPORT_IGES
100
AcDbLine
 62
253
  6
CONTINUOUS
 10
13.3515368511
 20
14.4605022544
 11
7.6342485777
 21
11.6018588576
  0
LINE
  5
322
100
AcDbEntity
  8
IMPORT_IGES
100
AcDbLine
 62
7
  6
CONTINUOUS
 10
5.9929952748
 20
10.6476305489
 11
7.0020068682
 21
11.1521363455
  0
LINE
  5
323
100
AcDbEntity
  8
IMPORT_IGES
100
AcDbLine
 62
7
  6
CONTINUOUS
 10
7.0676649867
 20
11.1190610921
 11
6.0114698046
 21
10.590963501
  0
LINE
  5
324
100
AcDbEntity
  8
IMPORT_IGES
100
AcDbLine
 62
7
  6
CONTINUOUS
 10
6.8316178309
 20
10.6243262369
 11
6.4055314123
 21
10.4112719687
  0
LINE
  5
325
100
AcDbEntity
  8
IMPORT_IGES
100
AcDbLine
 62
253
  6
CONTINUOUS
 10
6.9657829855
 20
10.6158062387
 11
6.4811355078
 21
10.373469921
  0
LINE
  5
326
100
AcDbEntity
  8
IMPORT_IGES
100
AcDbLine
 62
7
  6
CONTINUOUS
 10
3.897285312
 20
9.4248358601
 11
6.1769535764
 21
10.5255608867
  0
LWPOLYLINE
  5
327
100
AcDbEntity
  8
IMPORT_IGES
100
AcDbPolyline
 62
253
  6
CONTINUOUS
 90
8
 70
0
 10
13.8904348236
 20
13.8223781972
 10
13.9035653061
 20
13.828683651
 10
13.915565154
 20
13.8334323115
 10
13.9262396498
 20
13.8365527563
 10
13.9354126823
 20
13.8380009452
 10
13.9429468086
 20
13.8377638029
 10
13.9487349673
 20
13.8358487961
 10
13.9520009843
 20
13.8331781209
  0
LINE
  5
328
100
AcDbEntity
  8
IMPORT_IGES
100
AcDbLine
 62
7
  6
CONTINUOUS
 10
5.66857821
 20
11.3400156975
 11
6.1631262848
 21
11.5745828422
  0
LINE
  5
329
100
AcDbEntity
  8
IMPORT_IGES
100
AcDbLine
 62
7
  6
CONTINUOUS
 10
7.219862551
 20
11.0423916242
 11
6.3293913779
 21
10.6200357579
  0
LINE
  5
32A
100
AcDbEntity
  8
IMPORT_IGES
100
AcDbLine
 62
7
  6
CONTINUOUS
 10
5.9051273092
 20
10.4188047426
 11
5.7688491074
 21
10.3541671668
  0
LWPOLYLINE
  5
32B
100
AcDbEntity
  8
IMPORT_IGES
100
AcDbPolyline
 62
253
  6
CONTINUOUS
 90
7
 70
0
 10
4.9224295217
 20
11.5789203915
 10
4.9274578049
 20
11.5812813809
 10
4.9505292614
 20
11.5886260819
 10
4.9754156034
 20
11.5912135944
 10
5.0016910189
 20
11.5889996452
 10
5.028905928
 20
11.5820221157
 10
5.0565946763
 20
11.5704003933
  0
LWPOLYLINE
  5
32C
100
AcDbEntity
  8
IMPORT_IGES
100
AcDbPolyline
 62
253
  6
CONTINUOUS
 90
7
 70
0
 10
6.8316178309
 20
10.6243262369
 10
6.8366461141
 20
10.6266872263
 10
6.8597175706
 20
10.6340319273
 10
6.8846039126
 20
10.6366194398
 10
6.9108793281
 20
10.6344054906
 10
6.9380942372
 20
10.6274279611
 10
6.9657829855
 20
10.6158062387
  0
LINE
  5
32D
100
AcDbEntity
  8
IMPORT_IGES
100
AcDbLine
 62
7
  6
CONTINUOUS
 10
4.3077883712
 20
10.9053420692
 11
3.0025575619
 21
10.3304551575
  0
LINE
  5
32E
100
AcDbEntity
  8
IMPORT_IGES
100
AcDbLine
 62
7
  6
CONTINUOUS
 10
3.0025575619
 20
9.1613208619
 11
3.688847345
 21
9.4635961462
  0
LWPOLYLINE
  5
32F
100
AcDbEntity
  8
IMPORT_IGES
100
AcDbPolyline
 62
7
  6
CONTINUOUS
 90
15
 70
0
 10
14.2685971688
 20
13.6972108733
 10
14.2622125674
 20
13.6944937241
 10
14.2503913669
 20
13.6911552585
 10
14.235365706
 20
13.6889575197
 10
14.2170737411
 20
13.6884134064
 10
14.1956341587
 20
13.6900421931
 10
14.1716911614
 20
13.6942355711
 10
14.1456444694
 20
13.7012654118
 10
14.1179618469
 20
13.7113319897
 10
14.089315472
 20
13.7244822905
 10
14.0602550381
 20
13.7407044848
 10
14.0314449594
 20
13.7598510325
 10
14.0034421463
 20
13.7817691549
 10
13.9766640036
 20
13.8063999669
 10
13.9520575852
 20
13.8331161148
  0
LWPOLYLINE
  5
330
100
AcDbEntity
  8
IMPORT_IGES
100
AcDbPolyline
 62
7
  6
CONTINUOUS
 90
7
 70
0
 10
6.8316178309
 20
10.6243262369
 10
6.8655619398
 20
10.6387625951
 10
6.9015468948
 20
10.6490413537
 10
6.9389568083
 20
10.6547986482
 10
6.9772428699
 20
10.6557820038
 10
7.0155052817
 20
10.6518524045
 10
7.0527149069
 20
10.6431308405
  0
LWPOLYLINE
  5
331
100
AcDbEntity
  8
IMPORT_IGES
100
AcDbPolyline
 62
253
  6
CONTINUOUS
 90
7
 70
0
 10
13.245135448
 20
14.5481744434
 10
13.2585910828
 20
14.5538527045
 10
13.2717953413
 20
14.5573339288
 10
13.284538475
 20
14.5585793692
 10
13.2965664176
 20
14.5575963419
 10
13.3077554562
 20
14.554428631
 10
13.3121544721
 20
14.5524661698
  0
LWPOLYLINE
  5
332
100
AcDbEntity
  8
IMPORT_IGES
100
AcDbPolyline
 62
253
  6
CONTINUOUS
 90
7
 70
0
 10
5.6929907793
 20
11.2522023418
 10
5.7207202328
 20
11.2638385422
 10
5.7479768291
 20
11.2708171043
 10
5.774292492
 20
11.2730167081
 10
5.7992198712
 20
11.2703970224
 10
5.8223248379
 20
11.2630005665
 10
5.8270308706
 20
11.2607892647
  0
LWPOLYLINE
  5
333
100
AcDbEntity
  8
IMPORT_IGES
100
AcDbPolyline
 62
253
  6
CONTINUOUS
 90
8
 70
0
 10
14.3888548224
 20
13.6491019751
 10
14.3626635199
 20
13.6381539556
 10
14.334647393
 20
13.6303968854
 10
14.3048064416
 20
13.6258307646
 10
14.2728326312
 20
13.624418402
 10
14.2390339962
 20
13.6261969887
 10
14.2043346406
 20
13.6312780983
 10
14.1686993523
 20
13.6397345606
  0
LWPOLYLINE
  5
334
100
AcDbEntity
  8
IMPORT_IGES
100
AcDbPolyline
 62
253
  6
CONTINUOUS
 90
10
 70
0
 10
14.5683743833
 20
13.8470998557
 10
14.5761212073
 20
13.8502746754
 10
14.5889354961
 20
13.8529283993
 10
14.6026549747
 20
13.8528572137
 10
14.6170126319
 20
13.8500624869
 10
14.6317289846
 20
13.8445985923
 10
14.6465176072
 20
13.836571866
 10
14.6610906601
 20
13.8261385259
 10
14.6751644923
 20
13.8135016351
 10
14.6884651751
 20
13.7989071509
  0
LINE
  5
335
100
AcDbEntity
  8
IMPORT_IGES
100
AcDbLine
 62
7
  6
CONTINUOUS
 10
3.0025575619
 20
-7.883473231
 11
3.825114876
 21
-8.0467652372
  0
LINE
  5
336
100
AcDbEntity
  8
IMPORT_IGES
100
AcDbLine
 62
253
  6
CONTINUOUS
 10
3.8157303603
 20
-7.8035189367
 11
3.0025575619
 21
-7.6420899209
  0
LWPOLYLINE
  5
337
100
AcDbEntity
  8
IMPORT_IGES
100
AcDbPolyline
 62
253
  6
CONTINUOUS
 90
8
 70
0
 10
5.4388673636
 20
-8.642855584
 10
5.4652186348
 20
-8.6481237317
 10
5.496846972
 20
-8.6494398028
 10
5.528856134
 20
-8.6455338868
 10
5.5606446953
 20
-8.6364977792
 10
5.5915512695
 20
-8.6225731836
 10
5.6210525068
 20
-8.6040776536
 10
5.6486636976
 20
-8.5813998484
  0
LINE
  5
338
100
AcDbEntity
  8
IMPORT_IGES
100
AcDbLine
 62
7
  6
CONTINUOUS
 10
4.2289863159
 20
-8.3003400972
 11
5.4388673636
 21
-8.642855584
  0
LINE
  5
339
100
AcDbEntity
  8
IMPORT_IGES
100
AcDbLine
 62
253
  6
CONTINUOUS
 10
5.7316419117
 20
-8.4599648423
 11
4.5228371414
 21
-8.1177505425
  0
LINE
  5
33A
100
AcDbEntity
  8
IMPORT_IGES
100
AcDbLine
 62
7
  6
CONTINUOUS
 10
4.2289700317
 20
-8.3003354863
 11
4.2283743771
 21
-8.3001657191
  0
LWPOLYLINE
  5
33B
100
AcDbEntity
  8
RACCORDO
100
AcDbPolyline
 62
253
  6
CONTINUOUS
 90
43
 70
0
 10
-3.8941957928
 20
-24.659777309
 10
-3.8927055792
 20
-24.6895115775
 10
-3.8903354925
 20
-24.718668541
 10
-3.8870855326
 20
-24.7472481995
 10
-3.8829495128
 20
-24.7752855679
 10
-3.8779336198
 20
-24.8027456313
 10
-3.8720564146
 20
-24.8295233451
 10
-3.8653146619
 20
-24.8556152928
 10
-3.857711597
 20
-24.8810248908
 10
-3.8492754864
 20
-24.9056573445
 10
-3.8400033034
 20
-24.9295094768
 10
-3.8298980747
 20
-24.9525844647
 10
-3.8189971479
 20
-24.9747970444
 10
-3.807297576
 20
-24.996144077
 10
-3.7948023061
 20
-25.0166287015
 10
-3.7815575261
 20
-25.0361750706
 10
-3.767560393
 20
-25.0547797753
 10
-3.7528137499
 20
-25.0724462245
 10
-3.7373723145
 20
-25.0891087986
 10
-3.7212335532
 20
-25.1047637084
 10
-3.7043999995
 20
-25.119414743
 10
-3.6869339721
 20
-25.1330076502
 10
-3.6688331339
 20
-25.1455385122
 10
-3.650099822
 20
-25.1570112468
 10
-3.6308033662
 20
-25.1673833551
 10
-3.6109416088
 20
-25.1766507771
 10
-3.5905167074
 20
-25.1848175729
 10
-3.5696044654
 20
-25.1918534238
 10
-3.5482031424
 20
-25.1977541018
 10
-3.5263144788
 20
-25.202523835
 10
-3.5040194983
 20
-25.2061449884
 10
-3.4813167447
 20
-25.2086133284
 10
-3.4582076743
 20
-25.2099330885
 10
-3.4347776797
 20
-25.2100993343
 10
-3.4110252945
 20
-25.2091077278
 10
-3.386951985
 20
-25.2069626069
 10
-3.362647543
 20
-25.2036720519
 10
-3.3381099939
 20
-25.1992312668
 10
-3.3133413124
 20
-25.1936450474
 10
-3.288437214
 20
-25.1869358619
 10
-3.263429604
 20
-25.1791111998
 10
-3.2382865772
 20
-25.1701635715
 10
-3.2130081335
 20
-25.1600929771
  0
LWPOLYLINE
  5
33C
100
AcDbEntity
  8
RACCORDO
100
AcDbPolyline
 62
253
  6
CONTINUOUS
 90
25
 70
0
 10
-4.5947792667
 20
-24.6743771232
 10
-4.5925641727
 20
-24.7189069427
 10
-4.5890257525
 20
-24.7626665953
 10
-4.5841684257
 20
-24.8056020304
 10
-4.577998216
 20
-24.8476596909
 10
-4.570522805
 20
-24.888788231
 10
-4.5617513387
 20
-24.9289384436
 10
-4.5516941735
 20
-24.9680615655
 10
-4.540363772
 20
-25.0061082717
 10
-4.5277747234
 20
-25.0430303817
 10
-4.5139425484
 20
-25.0787819673
 10
-4.4988841002
 20
-25.1133193106
 10
-4.4826183054
 20
-25.1465997795
 10
-4.4651649624
 20
-25.1785823841
 10
-4.4465454761
 20
-25.2092275942
 10
-4.426783315
 20
-25.2384973372
 10
-4.4059024944
 20
-25.266355638
 10
-4.3839286411
 20
-25.2927680189
 10
-4.3608897006
 20
-25.317701295
 10
-4.3368138769
 20
-25.3411247358
 10
-4.3117305835
 20
-25.3630095924
 10
-4.2856714967
 20
-25.3833284809
 10
-4.2586684345
 20
-25.4020564575
 10
-4.2307544498
 20
-25.4191705126
 10
-4.2013976865
 20
-25.4349331615
  0
LWPOLYLINE
  5
33D
100
AcDbEntity
  8
ASSI
100
AcDbPolyline
 62
7
  6
CONTINUOUS
 90
10
 70
0
 10
-5.4166664251
 20
6.927204148
 10
-5.4042787204
 20
7.4109860899
 10
-5.391460747
 20
7.8949650282
 10
-5.3782125048
 20
8.3791409628
 10
-5.3645339762
 20
8.8635145025
 10
-5.3504251789
 20
9.3480850386
 10
-5.3358861657
 20
9.8328507444
 10
-5.3209169544
 20
10.3178110109
 10
-5.3055175272
 20
10.8029664472
 10
-5.2896878842
 20
11.2883170532
  0
LWPOLYLINE
  5
33E
100
AcDbEntity
  8
RACCORDO
100
AcDbPolyline
 62
253
  6
CONTINUOUS
 90
22
 70
0
 10
-4.5947792667
 20
10.9408627444
 10
-4.6499779171
 20
9.2190700042
 10
-4.6996590946
 20
7.4996941296
 10
-4.7438220499
 20
5.7827615176
 10
-4.7824661258
 20
4.0682985349
 10
-4.8155907308
 20
2.3563314935
 10
-4.8431953395
 20
0.6468866499
 10
-4.8652795312
 20
-1.0600097585
 10
-4.8818429773
 20
-2.7643315258
 10
-4.8928854148
 20
-4.4660525019
 10
-4.8984066731
 20
-6.1651465649
 10
-4.8984066731
 20
-7.8615876361
 10
-4.8928854148
 20
-9.5553496911
 10
-4.8818429773
 20
-11.2464067387
 10
-4.8652795312
 20
-12.9347328191
 10
-4.8431953395
 20
-14.6203020192
 10
-4.8155907308
 20
-16.3030884701
 10
-4.7824661258
 20
-17.9830663466
 10
-4.7438220499
 20
-19.6602098653
 10
-4.6996590946
 20
-21.3344932883
 10
-4.6499779171
 20
-23.0058909234
 10
-4.5947792667
 20
-24.6743771232
  0
LWPOLYLINE
  5
33F
100
AcDbEntity
  8
RACCORDO
100
AcDbPolyline
 62
253
  6
CONTINUOUS
 90
10
 70
0
 10
-5.4960611474
 20
11.4512617507
 10
-5.5117332872
 20
10.9699131641
 10
-5.5269822849
 20
10.4887555327
 10
-5.5418081225
 20
10.0077894327
 10
-5.5562107707
 20
9.5270158413
 10
-5.570190225
 20
9.0464349326
 10
-5.5837465025
 20
8.5660460794
 10
-5.5968795948
 20
8.0858494576
 10
-5.6095894718
 20
7.6058460448
 10
-5.6218761154
 20
7.1260364174
  0
LWPOLYLINE
  5
340
100
AcDbEntity
  8
RACCORDO
100
AcDbPolyline
 62
253
  6
CONTINUOUS
 90
27
 70
0
 10
0.3406165993
 20
16.1417407263
 10
0.3357325821
 20
16.1297720681
 10
0.3303819787
 20
16.118078864
 10
0.3245794003
 20
16.1066930457
 10
0.3183406927
 20
16.0956457055
 10
0.3116828924
 20
16.0849670114
 10
0.3046241804
 20
16.0746861246
 10
0.2971838327
 20
16.0648311202
 10
0.2893821672
 20
16.0554289099
 10
0.2812404887
 20
16.0465051694
 10
0.2727810305
 20
16.0380842674
 10
0.2640268934
 20
16.0301891998
 10
0.2550019833
 20
16.0228415263
 10
0.2457309452
 20
16.0160613117
 10
0.2362390965
 20
16.0098670716
 10
0.2265523574
 20
16.004275721
 10
0.2166971802
 20
15.9993025288
 10
0.2067004776
 20
15.9949610757
 10
0.1965895483
 20
15.9912632173
 10
0.1863920033
 20
15.9882190517
 10
0.1761356898
 20
15.9858368919
 10
0.1658486157
 20
15.984123243
 10
0.1555588728
 20
15.9830827847
 10
0.1452945603
 20
15.9827183582
 10
0.1350837079
 20
15.9830309587
 10
0.1249541993
 20
15.9840197326
 10
0.114933696
 20
15.9856819797
  0
LINE
  5
341
100
AcDbEntity
  8
IMPORT_IGES
100
AcDbLine
 62
7
  6
CONTINUOUS
 10
7.2787950135
 20
15.7421939964
 11
6.4131789336
 21
14.7899870343
  0
LINE
  5
342
100
AcDbEntity
  8
IMPORT_IGES
100
AcDbLine
 62
7
  6
CONTINUOUS
 10
6.6738074755
 20
14.9034821639
 11
7.2787950135
 21
15.5689889157
  0
LINE
  5
343
100
AcDbEntity
  8
IMPORT_IGES
100
AcDbLine
 62
7
  6
CONTINUOUS
 10
5.5623378499
 20
14.4793575002
 11
6.3018866902
 21
15.2872050774
  0
LINE
  5
344
100
AcDbEntity
  8
IMPORT_IGES
100
AcDbLine
 62
7
  6
CONTINUOUS
 10
8.3050664612
 20
13.1079931946
 11
9.3607486012
 21
14.0401473155
  0
LINE
  5
345
100
AcDbEntity
  8
RACCORDO
100
AcDbLine
 62
7
  6
CONTINUOUS
 10
-17.1934335313
 20
-5.1716446205
 11
-17.2095625584
 21
-5.1832970317
  0
LINE
  5
346
100
AcDbEntity
  8
RACCORDO
100
AcDbLine
 62
7
  6
CONTINUOUS
 10
-17.1764328834
 20
-5.1595003409
 11
-17.1934335313
 21
-5.1716446205
  0
LINE
  5
347
100
AcDbEntity
  8
RACCORDO
100
AcDbLine
 62
7
  6
CONTINUOUS
 10
-17.1585544056
 20
-5.1468908125
 11
-17.1764328834
 21
-5.1595003409
  0
LINE
  5
348
100
AcDbEntity
  8
RACCORDO
100
AcDbLine
 62
7
  6
CONTINUOUS
 10
-17.139834677
 20
-5.1338370703
 11
-17.1585544056
 21
-5.1468908125
  0
LINE
  5
349
100
AcDbEntity
  8
IMPORT_IGES
100
AcDbLine
 62
7
  6
CONTINUOUS
 10
-15.3115080708
 20
-4.2903954872
 11
-15.2592435236
 21
-4.2540618271
  0
LINE
  5
34A
100
AcDbEntity
  8
RACCORDO
100
AcDbLine
 62
7
  6
CONTINUOUS
 10
-17.1203043109
 20
-5.1203580844
 11
-17.139834677
 21
-5.1338370703
  0
LWPOLYLINE
  5
34B
100
AcDbEntity
  8
IMPORT_IGES
100
AcDbPolyline
 62
7
  6
CONTINUOUS
 90
13
 70
0
 10
-15.2592435236
 20
-4.2540618271
 10
-15.2310445493
 20
-4.2346709505
 10
-15.2015515852
 20
-4.2150912131
 10
-15.1711046161
 20
-4.1955484311
 10
-15.1403153403
 20
-4.1760013711
 10
-15.1094512002
 20
-4.1567398746
 10
-15.078645357
 20
-4.1380356222
 10
-15.0482633488
 20
-4.1198107882
 10
-15.0185028154
 20
-4.1023015539
 10
-14.9895550168
 20
-4.0857454219
 10
-14.9617377101
 20
-4.0700997826
 10
-14.9352879283
 20
-4.0555133996
 10
-14.9103818671
 20
-4.0422808423
  0
LINE
  5
34C
100
AcDbEntity
  8
RACCORDO
100
AcDbLine
 62
7
  6
CONTINUOUS
 10
-17.0895319159
 20
-5.0993990559
 11
-17.1203043109
 21
-5.1203580844
  0
LINE
  5
34D
100
AcDbEntity
  8
RACCORDO
100
AcDbLine
 62
7
  6
CONTINUOUS
 10
-17.0570749876
 20
-5.0776167109
 11
-17.0895319159
 21
-5.0993990559
  0
LINE
  5
34E
100
AcDbEntity
  8
RACCORDO
100
AcDbLine
 62
7
  6
CONTINUOUS
 10
-17.0230253773
 20
-5.0550872537
 11
-17.0570749876
 21
-5.0776167109
  0
LINE
  5
34F
100
AcDbEntity
  8
RACCORDO
100
AcDbLine
 62
7
  6
CONTINUOUS
 10
-16.9874755024
 20
-5.0318871563
 11
-17.0230253773
 21
-5.0550872537
  0
LINE
  5
350
100
AcDbEntity
  8
RACCORDO
100
AcDbLine
 62
7
  6
CONTINUOUS
 10
-16.950520244
 20
-5.0080949146
 11
-16.9874755024
 21
-5.0318871563
  0
LINE
  5
351
100
AcDbEntity
  8
RACCORDO
100
AcDbLine
 62
7
  6
CONTINUOUS
 10
-16.9122569796
 20
-4.9837916016
 11
-16.950520244
 21
-5.0080949146
  0
LINE
  5
352
100
AcDbEntity
  8
RACCORDO
100
AcDbLine
 62
7
  6
CONTINUOUS
 10
-16.8727886608
 20
-4.9590634133
 11
-16.9122569796
 21
-4.9837916016
  0
LINE
  5
353
100
AcDbEntity
  8
RACCORDO
100
AcDbLine
 62
7
  6
CONTINUOUS
 10
-16.8322292708
 20
-4.9340056853
 11
-16.8727886608
 21
-4.9590634133
  0
LINE
  5
354
100
AcDbEntity
  8
RACCORDO
100
AcDbLine
 62
7
  6
CONTINUOUS
 10
-16.7907109139
 20
-4.9087278755
 11
-16.8322292708
 21
-4.9340056853
  0
LINE
  5
355
100
AcDbEntity
  8
RACCORDO
100
AcDbLine
 62
7
  6
CONTINUOUS
 10
-16.7483942323
 20
-4.8833605398
 11
-16.7907109139
 21
-4.9087278755
  0
LINE
  5
356
100
AcDbEntity
  8
RACCORDO
100
AcDbLine
 62
7
  6
CONTINUOUS
 10
-16.7198378864
 20
-4.8664813049
 11
-16.7483942323
 21
-4.8833605398
  0
LWPOLYLINE
  5
357
100
AcDbEntity
  8
RACCORDO
100
AcDbPolyline
 62
7
  6
CONTINUOUS
 90
3
 70
0
 10
-16.6766872974
 20
-4.8413516999
 10
-16.6910930838
 20
-4.8496948519
 10
-16.7198378864
 20
-4.8664813049
  0
LWPOLYLINE
  5
358
100
AcDbEntity
  8
IMPORT_IGES
100
AcDbPolyline
 62
7
  6
CONTINUOUS
 90
10
 70
0
 10
4.9289031586
 20
8.7625803271
 10
4.910188553
 20
8.752172923
 10
4.8918885287
 20
8.7400721469
 10
4.8740030858
 20
8.7262779988
 10
4.8564023532
 20
8.7106596587
 10
4.8392162019
 20
8.6933479465
 10
4.8228342455
 20
8.6747353222
 10
4.807386355
 20
8.6549526058
 10
4.7927426594
 20
8.6338689773
 10
4.7789031586
 20
8.6114844367
  0
LWPOLYLINE
  5
359
100
AcDbEntity
  8
IMPORT_IGES
100
AcDbPolyline
 62
253
  6
CONTINUOUS
 90
10
 70
0
 10
5.2117458711
 20
8.6211589709
 10
5.1932573461
 20
8.6109260619
 10
5.1749095299
 20
8.5987937387
 10
5.1568420605
 20
8.5848543356
 10
5.1391924423
 20
8.5692139397
 10
5.1220949995
 20
8.5519915841
 10
5.1056798539
 20
8.5333183411
 10
5.0900719348
 20
8.5133363255
 10
5.0753900278
 20
8.4921976125
 10
5.0617458711
 20
8.4700630804
  0
LWPOLYLINE
  5
35A
100
AcDbEntity
  8
IMPORT_IGES
100
AcDbPolyline
 62
7
  6
CONTINUOUS
 90
10
 70
0
 10
4.8255936698
 20
8.9606816809
 10
4.7761819744
 20
8.9334483155
 10
4.7271479491
 20
8.9011486457
 10
4.6788639617
 20
8.8640289069
 10
4.6316959488
 20
8.8223724003
 10
4.5860028447
 20
8.7764961658
 10
4.5421338607
 20
8.726748552
 10
4.5004228846
 20
8.6735081307
 10
4.4611859394
 20
8.6171808256
 10
4.4247209962
 20
8.5581956429
  0
LINE
  5
35B
100
AcDbEntity
  8
IMPORT_IGES
100
AcDbLine
 62
253
  6
CONTINUOUS
 10
3.3415112062
 20
6.698895439
 11
3.0025575619
 21
6.52916329
  0
LINE
  5
35C
100
AcDbEntity
  8
IMPORT_IGES
100
AcDbLine
 62
7
  6
CONTINUOUS
 10
14.2685565639
 20
13.6971905351
 11
14.5683511116
 21
13.8470882267
  0
LINE
  5
35D
100
AcDbEntity
  8
IMPORT_IGES
100
AcDbLine
 62
253
  6
CONTINUOUS
 10
7.0684219845
 20
10.0798266827
 11
5.478048793
 21
9.2846400869
  0
LINE
  5
35E
100
AcDbEntity
  8
IMPORT_IGES
100
AcDbLine
 62
253
  6
CONTINUOUS
 10
7.1165243755
 20
10.0547682257
 11
7.3536223299
 21
10.1733233567
  0
LINE
  5
35F
100
AcDbEntity
  8
IMPORT_IGES
100
AcDbLine
 62
253
  6
CONTINUOUS
 10
14.3888548224
 20
13.6491019751
 11
14.688470603
 21
13.7989098655
  0
LINE
  5
360
100
AcDbEntity
  8
IMPORT_IGES
100
AcDbLine
 62
7
  6
CONTINUOUS
 10
4.9289031586
 20
8.7625803271
 11
7.8403823971
 21
10.2183199463
  0
LINE
  5
361
100
AcDbEntity
  8
IMPORT_IGES
100
AcDbLine
 62
253
  6
CONTINUOUS
 10
5.2117458711
 20
8.6211589709
 11
8.1232251096
 21
10.0768985901
  0
LINE
  5
362
100
AcDbEntity
  8
IMPORT_IGES
100
AcDbLine
 62
253
  6
CONTINUOUS
 10
15.1567970636
 20
13.5804080528
 11
8.3118258112
 21
10.1579194537
  0
LINE
  5
363
100
AcDbEntity
  8
IMPORT_IGES
100
AcDbLine
 62
253
  6
CONTINUOUS
 10
8.3705030817
 20
9.8561950447
 11
15.2628630804
 21
13.3023750441
  0
LINE
  5
364
100
AcDbEntity
  8
IMPORT_IGES
100
AcDbLine
 62
253
  6
CONTINUOUS
 10
5.4238779054
 20
8.2552853325
 11
8.3705030817
 21
9.7285979207
  0
LINE
  5
365
100
AcDbEntity
  8
IMPORT_IGES
100
AcDbLine
 62
253
  6
CONTINUOUS
 10
5.478048793
 20
9.2846400869
 11
4.8255936703
 21
8.9606816812
  0
LWPOLYLINE
  5
366
100
AcDbEntity
  8
IMPORT_IGES
100
AcDbPolyline
 62
253
  6
CONTINUOUS
 90
5
 70
0
 10
14.7583157782
 20
13.8506935197
 10
14.7447407444
 20
13.8441076086
 10
14.7308378412
 20
13.8354314295
 10
14.7168575167
 20
13.8248835875
 10
14.7027088302
 20
13.8126461213
  0
LWPOLYLINE
  5
367
100
AcDbEntity
  8
IMPORT_IGES
100
AcDbPolyline
 62
253
  6
CONTINUOUS
 90
13
 70
0
 10
4.5228371414
 20
6.7012198959
 10
4.4933472033
 20
6.6882881561
 10
4.4607275719
 20
6.6773885882
 10
4.4255342854
 20
6.6687089852
 10
4.3883650679
 20
6.6623989481
 10
4.349857855
 20
6.6585688475
 10
4.3106807494
 20
6.6572859136
 10
4.2715038911
 20
6.6585720396
 10
4.2329991135
 20
6.6624051185
 10
4.1958367434
 20
6.6687171043
 10
4.1606546797
 20
6.6773966629
 10
4.1280486108
 20
6.6882936818
 10
4.0985730727
 20
6.7012198959
  0
LWPOLYLINE
  5
368
100
AcDbEntity
  8
IMPORT_IGES
100
AcDbPolyline
 62
253
  6
CONTINUOUS
 90
13
 70
0
 10
4.0985730727
 20
-8.1177505425
 10
4.1280300206
 20
-8.1306696218
 10
4.1606195043
 20
-8.1415636151
 10
4.1957891109
 20
-8.1502434603
 10
4.2329460946
 20
-8.1565582082
 10
4.2714523612
 20
-8.1603950007
 10
4.3106338486
 20
-8.1616845211
 10
4.3498179344
 20
-8.160404217
 10
4.3883346694
 20
-8.1565755629
 10
4.4255132051
 20
-8.1502658197
 10
4.4607145204
 20
-8.1415856184
 10
4.4933412809
 20
-8.1306845547
 10
4.5228371414
 20
-8.1177505425
  0
LWPOLYLINE
  5
369
100
AcDbEntity
  8
IMPORT_IGES
100
AcDbPolyline
 62
7
  6
CONTINUOUS
 90
10
 70
0
 10
4.1765410284
 20
-8.2800126826
 10
4.1824718751
 20
-8.2828970585
 10
4.1884734072
 20
-8.2856542527
 10
4.1945423292
 20
-8.2882820832
 10
4.2006773098
 20
-8.2907792831
 10
4.2068728072
 20
-8.2931429654
 10
4.2131191442
 20
-8.2953691739
 10
4.2194107559
 20
-8.2974560099
 10
4.2257461168
 20
-8.2994030856
 10
4.2285477521
 20
-8.3002155791
  0
LINE
  5
36A
100
AcDbEntity
  8
RACCORDO
100
AcDbLine
 62
7
  6
CONTINUOUS
 10
-7.5226974686
 20
-2.5108317898
 11
-16.8111416731
 21
2.1333903124
  0
LINE
  5
36B
100
AcDbEntity
  8
IMPORT_IGES
100
AcDbLine
 62
7
  6
CONTINUOUS
 10
3.893698316
 20
-8.1385913264
 11
4.1765410284
 21
-8.2800126826
  0
LINE
  5
36C
100
AcDbEntity
  8
IMPORT_IGES
100
AcDbLine
 62
253
  6
CONTINUOUS
 10
3.8157303603
 20
-7.9763291864
 11
4.0985730727
 21
-8.1177505427
  0
LINE
  5
36D
100
AcDbEntity
  8
RACCORDO
100
AcDbLine
 62
253
  6
CONTINUOUS
 10
-7.3743758746
 20
-2.3761290513
 11
-17.2165740564
 21
2.5449700396
  0
LWPOLYLINE
  5
36E
100
AcDbEntity
  8
RACCORDO
100
AcDbPolyline
 62
7
  6
CONTINUOUS
 90
37
 70
0
 10
-16.8111408299
 20
2.1333898908
 10
-16.8248979136
 20
2.1404836236
 10
-16.838655768
 20
2.1480053946
 10
-16.8523026239
 20
2.1558876981
 10
-16.8658372832
 20
2.1641182077
 10
-16.8792602227
 20
2.1726851325
 10
-16.8925578145
 20
2.1815722618
 10
-16.9057295044
 20
2.190768546
 10
-16.9187759081
 20
2.2002631351
 10
-16.9316844422
 20
2.2100420236
 10
-16.9444550626
 20
2.2200952429
 10
-16.9570884659
 20
2.230412724
 10
-16.9695725369
 20
2.240981841
 10
-16.9819076667
 20
2.2517935335
 10
-16.9940946047
 20
2.2628383534
 10
-17.0061212309
 20
2.2741042839
 10
-17.0179882866
 20
2.2855829708
 10
-17.0296966303
 20
2.2972654834
 10
-17.0412339036
 20
2.3091398298
 10
-17.0526011266
 20
2.321198166
 10
-17.0637993571
 20
2.3334320178
 10
-17.0748160129
 20
2.3458290883
 10
-17.0856525356
 20
2.3583821025
 10
-17.0963100708
 20
2.3710827975
 10
-17.1067754671
 20
2.3839178184
 10
-17.1170505167
 20
2.3968802616
 10
-17.1271366218
 20
2.409962097
 10
-17.1370201012
 20
2.423148512
 10
-17.1467031465
 20
2.4364329334
 10
-17.1561874806
 20
2.4498074902
 10
-17.1654589696
 20
2.4632555008
 10
-17.1745202157
 20
2.4767706463
 10
-17.1833733828
 20
2.4903452294
 10
-17.1920041325
 20
2.5039604629
 10
-17.2004097028
 20
2.5176054955
 10
-17.2085986741
 20
2.5312775558
 10
-17.2165740564
 20
2.5449700396
  0
LWPOLYLINE
  5
36F
100
AcDbEntity
  8
RACCORDO
100
AcDbPolyline
 62
253
  6
CONTINUOUS
 90
34
 70
0
 10
-3.2130081335
 20
12.077978263
 10
-3.2142960918
 20
12.0983129541
 10
-3.2163670333
 20
12.1190085448
 10
-3.2192162721
 20
12.1400182073
 10
-3.2228373613
 20
12.1612944034
 10
-3.2272221076
 20
12.1827889918
 10
-3.2323605896
 20
12.2044533369
 10
-3.2382411806
 20
12.226238419
 10
-3.2448505747
 20
12.2480949454
 10
-3.252173817
 20
12.2699734615
 10
-3.2601943373
 20
12.2918244632
 10
-3.2688939876
 20
12.3135985083
 10
-3.2782530835
 20
12.335246329
 10
-3.2882504481
 20
12.3567189431
 10
-3.2988634607
 20
12.3779677646
 10
-3.3100681073
 20
12.3989447142
 10
-3.3218390353
 20
12.4196023275
 10
-3.3341496108
 20
12.4398938627
 10
-3.3469719788
 20
12.4597734063
 10
-3.3602771262
 20
12.4791959772
 10
-3.3740349478
 20
12.4981176281
 10
-3.3882143138
 20
12.5164955451
 10
-3.4027831408
 20
12.5342881447
 10
-3.417708464
 20
12.5514551678
 10
-3.4329565121
 20
12.5679577707
 10
-3.4484927834
 20
12.583758613
 10
-3.4642821243
 20
12.5988219425
 10
-3.4802888083
 20
12.6131136753
 10
-3.4964766173
 20
12.6266014738
 10
-3.5128089232
 20
12.6392548192
 10
-3.5292487713
 20
12.6510450809
 10
-3.545758963
 20
12.6619455812
 10
-3.5623021411
 20
12.6719316556
 10
-3.5788408735
 20
12.6809807087
  0
LINE
  5
370
100
AcDbEntity
  8
RACCORDO
100
AcDbLine
 62
253
  6
CONTINUOUS
 10
-3.5402430609
 20
17.6708629791
 11
-3.5402430609
 21
18.7514462899
  0
LINE
  5
371
100
AcDbEntity
  8
RACCORDO
100
AcDbLine
 62
253
  6
CONTINUOUS
 10
-2.8351991416
 20
17.6923987423
 11
-2.8351991416
 21
18.9251257147
  0
LINE
  5
372
100
AcDbEntity
  8
ASSI
100
AcDbLine
 62
253
  6
CONTINUOUS
 10
-2.7094297946
 20
23.3049563149
 11
-2.7094297946
 21
24.532306912
  0
LINE
  5
373
100
AcDbEntity
  8
RACCORDO
100
AcDbLine
 62
7
  6
CONTINUOUS
 10
-2.5840802874
 20
23.4539844733
 11
-2.5840802874
 21
24.5416296805
  0
LINE
  5
374
100
AcDbEntity
  8
DRAFT
100
AcDbLine
 62
7
  6
CONTINUOUS
 10
-2.4775199923
 20
19.1044302595
 11
-2.4775199923
 21
17.8919946942
  0
LWPOLYLINE
  5
375
100
AcDbEntity
  8
RACCORDO
100
AcDbPolyline
 62
253
  6
CONTINUOUS
 90
22
 70
0
 10
-3.8941957928
 20
10.9198473187
 10
-3.9493412874
 20
9.1997334348
 10
-3.9989733777
 20
7.4820864832
 10
-4.0430920639
 20
5.7669064641
 10
-4.0816978551
 20
4.0541670822
 10
-4.1147902422
 20
2.3438946328
 10
-4.1423676973
 20
0.6361680007
 10
-4.1644299649
 20
-1.0690126502
 10
-4.1809773004
 20
-2.7716474837
 10
-4.1920089423
 20
-4.4716581063
 10
-4.1975246366
 20
-6.1690443943
 10
-4.1975246372
 20
-7.8638064715
 10
-4.1920089442
 20
-9.5558663161
 10
-4.1809773035
 20
-11.2452238069
 10
-4.1644299693
 20
-12.931879065
 10
-4.1423677029
 20
-14.6157544326
 10
-4.1147902496
 20
-16.2968498128
 10
-4.0816978642
 20
-17.9751653025
 10
-4.0430920731
 20
-19.6506235337
 10
-3.9989733853
 20
-21.3231987172
 10
-3.9493412919
 20
-22.9929166423
 10
-3.8941957928
 20
-24.659777309
  0
LWPOLYLINE
  5
376
100
AcDbEntity
  8
IMPORT_IGES
100
AcDbPolyline
 62
7
  6
CONTINUOUS
 90
5
 70
0
 10
-9.3151624788
 20
-8.2652810667
 10
-9.3025132704
 20
-8.2420513783
 10
-9.2869063015
 20
-8.2220435888
 10
-9.2686828602
 20
-8.2054697216
 10
-9.2480674222
 20
-8.192515532
  0
LWPOLYLINE
  5
377
100
AcDbEntity
  8
0
100
AcDbPolyline
 62
7
  6
CONTINUOUS
 90
3
 70
0
 10
3.1452080794
 20
11.6345280527
 10
3.1526379353
 20
11.6480806946
 10
3.1574408794
 20
11.6616172588
  0
LINE
  5
378
100
AcDbEntity
  8
IMPORT_IGES
100
AcDbLine
 62
7
  6
CONTINUOUS
 10
10.2346753071
 20
14.2642538496
 11
8.78602918
 21
12.8675118352
  0
LINE
  5
379
100
AcDbEntity
  8
IMPORT_IGES
100
AcDbLine
 62
7
  6
CONTINUOUS
 10
8.78602918
 20
12.6943067544
 11
10.2346753071
 21
14.0910487689
  0
LWPOLYLINE
  5
37A
100
AcDbEntity
  8
IMPORT_IGES
100
AcDbPolyline
 62
253
  6
CONTINUOUS
 90
4
 70
0
 10
12.5944822021
 20
14.9531210404
 10
12.5984819757
 20
14.9562183229
 10
12.6027502306
 20
14.9591463608
 10
12.6072801312
 20
14.9618990103
  0
LINE
  5
37B
100
AcDbEntity
  8
RACCORDO
100
AcDbLine
 62
7
  6
CONTINUOUS
 10
-7.4124933036
 20
-2.4042428145
 11
-7.3976954829
 21
-2.3931938688
  0
LWPOLYLINE
  5
37C
100
AcDbEntity
  8
IMPORT_IGES
100
AcDbPolyline
 62
7
  6
CONTINUOUS
 90
3
 70
0
 10
-13.3316090835
 20
-5.2803449809
 10
-13.3066074544
 20
-5.2620436528
 10
-13.2796489772
 20
-5.2434862379
  0
LWPOLYLINE
  5
37D
100
AcDbEntity
  8
RACCORDO
100
AcDbPolyline
 62
7
  6
CONTINUOUS
 90
3
 70
0
 10
-7.3976954829
 20
-2.3931938688
 10
-7.382297048
 20
-2.3818732608
 10
-7.3743758746
 20
-2.3761290513
  0
LINE
  5
37E
100
AcDbEntity
  8
RACCORDO
100
AcDbLine
 62
7
  6
CONTINUOUS
 10
-14.39527291
 20
-7.9544416757
 11
-14.4032050602
 21
-7.9601917948
  0
LINE
  5
37F
100
AcDbEntity
  8
RACCORDO
100
AcDbLine
 62
7
  6
CONTINUOUS
 10
-15.2003002064
 20
-7.5419775358
 11
-15.2163778585
 21
-7.5536053956
  0
LINE
  5
380
100
AcDbEntity
  8
RACCORDO
100
AcDbLine
 62
7
  6
CONTINUOUS
 10
-15.2135345376
 20
-6.1615941259
 11
-15.229663571
 21
-6.1732465254
  0
LINE
  5
381
100
AcDbEntity
  8
RACCORDO
100
AcDbLine
 62
7
  6
CONTINUOUS
 10
-15.1833514529
 20
-7.5298551775
 11
-15.2003002064
 21
-7.5419775358
  0
LINE
  5
382
100
AcDbEntity
  8
RACCORDO
100
AcDbLine
 62
7
  6
CONTINUOUS
 10
-15.1965338893
 20
-6.149449848
 11
-15.2135345376
 21
-6.1615941259
  0
LINE
  5
383
100
AcDbEntity
  8
RACCORDO
100
AcDbLine
 62
7
  6
CONTINUOUS
 10
-15.1655252653
 20
-7.5172647927
 11
-15.1833514529
 21
-7.5298551775
  0
LINE
  5
384
100
AcDbEntity
  8
RACCORDO
100
AcDbLine
 62
7
  6
CONTINUOUS
 10
-15.178655415
 20
-6.1368403137
 11
-15.1965338893
 21
-6.149449848
  0
LINE
  5
385
100
AcDbEntity
  8
RACCORDO
100
AcDbLine
 62
7
  6
CONTINUOUS
 10
-15.1468580608
 20
-7.5042272748
 11
-15.1655252653
 21
-7.5172647927
  0
LINE
  5
386
100
AcDbEntity
  8
RACCORDO
100
AcDbLine
 62
7
  6
CONTINUOUS
 10
-15.1599356874
 20
-6.1237865698
 11
-15.178655415
 21
-6.1368403137
  0
LINE
  5
387
100
AcDbEntity
  8
RACCORDO
100
AcDbLine
 62
7
  6
CONTINUOUS
 10
-15.1273803185
 20
-7.4907614545
 11
-15.1468580608
 21
-7.5042272748
  0
LINE
  5
388
100
AcDbEntity
  8
RACCORDO
100
AcDbLine
 62
7
  6
CONTINUOUS
 10
-15.1404053221
 20
-6.1103075829
 11
-15.1599356874
 21
-6.1237865698
  0
LWPOLYLINE
  5
389
100
AcDbEntity
  8
IMPORT_IGES
100
AcDbPolyline
 62
7
  6
CONTINUOUS
 90
4
 70
0
 10
-13.2753559794
 20
-6.5832705988
 10
-13.2949371798
 20
-6.5965837317
 10
-13.3137476519
 20
-6.6097185964
 10
-13.3316090835
 20
-6.6226843568
  0
LINE
  5
38A
100
AcDbEntity
  8
RACCORDO
100
AcDbLine
 62
7
  6
CONTINUOUS
 10
-15.0966867521
 20
-7.4698161612
 11
-15.1273803185
 21
-7.4907614545
  0
LINE
  5
38B
100
AcDbEntity
  8
RACCORDO
100
AcDbLine
 62
7
  6
CONTINUOUS
 10
-15.1096329278
 20
-6.0893485536
 11
-15.1404053221
 21
-6.1103075829
  0
LINE
  5
38C
100
AcDbEntity
  8
RACCORDO
100
AcDbLine
 62
7
  6
CONTINUOUS
 10
-15.064308129
 20
-7.4480399774
 11
-15.0966867521
 21
-7.4698161612
  0
LINE
  5
38D
100
AcDbEntity
  8
RACCORDO
100
AcDbLine
 62
7
  6
CONTINUOUS
 10
-15.077176
 20
-6.0675662081
 11
-15.1096329278
 21
-6.0893485536
  0
LINE
  5
38E
100
AcDbEntity
  8
RACCORDO
100
AcDbLine
 62
7
  6
CONTINUOUS
 10
-15.0303358671
 20
-7.4255087219
 11
-15.064308129
 21
-7.4480399774
  0
LINE
  5
38F
100
AcDbEntity
  8
RACCORDO
100
AcDbLine
 62
7
  6
CONTINUOUS
 10
-15.0431263901
 20
-6.0450367505
 11
-15.077176
 21
-6.0675662081
  0
LWPOLYLINE
  5
390
100
AcDbEntity
  8
IMPORT_IGES
100
AcDbPolyline
 62
7
  6
CONTINUOUS
 90
4
 70
0
 10
-13.2796489772
 20
-5.2434862379
 10
-13.2215558841
 20
-5.2052075134
 10
-13.191230466
 20
-5.185455087
 10
-13.1604147187
 20
-5.1659536835
  0
LINE
  5
391
100
AcDbEntity
  8
RACCORDO
100
AcDbLine
 62
7
  6
CONTINUOUS
 10
-14.9948619522
 20
-7.4022984854
 11
-15.0303358671
 21
-7.4255087219
  0
LINE
  5
392
100
AcDbEntity
  8
RACCORDO
100
AcDbLine
 62
7
  6
CONTINUOUS
 10
-15.0075765155
 20
-6.0218366529
 11
-15.0431263901
 21
-6.0450367505
  0
LINE
  5
393
100
AcDbEntity
  8
RACCORDO
100
AcDbLine
 62
7
  6
CONTINUOUS
 10
-14.9706212575
 20
-5.9980444109
 11
-15.0075765155
 21
-6.0218366529
  0
LINE
  5
394
100
AcDbEntity
  8
RACCORDO
100
AcDbLine
 62
7
  6
CONTINUOUS
 10
-14.9323579932
 20
-5.9737410977
 11
-14.9706212575
 21
-5.9980444109
  0
LINE
  5
395
100
AcDbEntity
  8
RACCORDO
100
AcDbLine
 62
7
  6
CONTINUOUS
 10
-14.8928896746
 20
-5.9490129093
 11
-14.9323579932
 21
-5.9737410977
  0
LINE
  5
396
100
AcDbEntity
  8
RACCORDO
100
AcDbLine
 62
7
  6
CONTINUOUS
 10
-14.8523302848
 20
-5.9239551812
 11
-14.8928896746
 21
-5.9490129093
  0
LWPOLYLINE
  5
397
100
AcDbEntity
  8
IMPORT_IGES
100
AcDbPolyline
 62
7
  6
CONTINUOUS
 90
9
 70
0
 10
-13.1604147187
 20
-5.1659536835
 10
-13.0987755156
 20
-5.1279348466
 10
-13.0683645052
 20
-5.109760034
 10
-13.0385670947
 20
-5.0923144032
 10
-13.009692564
 20
-5.0756319028
 10
-12.9818487132
 20
-5.0600320453
 10
-12.9552821243
 20
-5.0456471247
 10
-12.9303527241
 20
-5.0324548214
 10
-12.9073450148
 20
-5.0205373598
  0
LINE
  5
398
100
AcDbEntity
  8
RACCORDO
100
AcDbLine
 62
7
  6
CONTINUOUS
 10
-14.8108119281
 20
-5.8986773712
 11
-14.8523302848
 21
-5.9239551812
  0
LINE
  5
399
100
AcDbEntity
  8
RACCORDO
100
AcDbLine
 62
7
  6
CONTINUOUS
 10
-14.7684952465
 20
-5.8733100353
 11
-14.8108119281
 21
-5.8986773712
  0
LINE
  5
39A
100
AcDbEntity
  8
RACCORDO
100
AcDbLine
 62
7
  6
CONTINUOUS
 10
-14.7399389007
 20
-5.8564308003
 11
-14.7684952465
 21
-5.8733100353
  0
LINE
  5
39B
100
AcDbEntity
  8
RACCORDO
100
AcDbLine
 62
7
  6
CONTINUOUS
 10
-14.711194098
 20
-5.8396443472
 11
-14.7399389007
 21
-5.8564308003
  0
LINE
  5
39C
100
AcDbEntity
  8
RACCORDO
100
AcDbLine
 62
7
  6
CONTINUOUS
 10
-14.6823716971
 20
-5.8230090449
 11
-14.711194098
 21
-5.8396443472
  0
LWPOLYLINE
  5
39D
100
AcDbEntity
  8
IMPORT_IGES
100
AcDbPolyline
 62
253
  6
CONTINUOUS
 90
7
 70
0
 10
16.5436524216
 20
13.6134635509
 10
16.5565894055
 20
13.6208394523
 10
16.567490215
 20
13.6289965594
 10
16.5761683343
 20
13.637795302
 10
16.5824752784
 20
13.6470851311
 10
16.5863031336
 20
13.656707095
 10
16.5875864044
 20
13.6664965594
  0
LINE
  5
39E
100
AcDbEntity
  8
RACCORDO
100
AcDbLine
 62
7
  6
CONTINUOUS
 10
-16.6478510284
 20
-4.8248403335
 11
-16.6766872974
 21
-4.8413516999
  0
LINE
  5
39F
100
AcDbEntity
  8
RACCORDO
100
AcDbLine
 62
7
  6
CONTINUOUS
 10
-16.6191300763
 20
-4.8086151233
 11
-16.6478510284
 21
-4.8248403335
  0
LWPOLYLINE
  5
3A0
100
AcDbEntity
  8
RACCORDO
100
AcDbPolyline
 62
7
  6
CONTINUOUS
 90
3
 70
0
 10
-14.6392310906
 20
-5.7985646183
 10
-14.6535709355
 20
-5.8066337116
 10
-14.6823716971
 20
-5.8230090449
  0
LWPOLYLINE
  5
3A1
100
AcDbEntity
  8
RACCORDO
100
AcDbPolyline
 62
7
  6
CONTINUOUS
 90
3
 70
0
 10
-16.5765900071
 20
-4.7850950234
 10
-16.5906601036
 20
-4.7928102308
 10
-16.6191300763
 20
-4.8086151233
  0
LWPOLYLINE
  5
3A2
100
AcDbEntity
  8
RACCORDO
100
AcDbPolyline
 62
7
  6
CONTINUOUS
 90
5
 70
0
 10
-16.5089701038
 20
-4.7492281717
 10
-16.522049788
 20
-4.755963552
 10
-16.5353619856
 20
-4.7629481553
 10
-16.5488920336
 20
-4.7701533216
 10
-16.5765900071
 20
-4.7850950234
  0
LINE
  5
3A3
100
AcDbEntity
  8
RACCORDO
100
AcDbLine
 62
7
  6
CONTINUOUS
 10
-15.7357721396
 20
-4.3611061654
 11
-16.5055723158
 21
-4.747503015
  0
LINE
  5
3A4
100
AcDbEntity
  8
IMPORT_IGES
100
AcDbLine
 62
253
  6
CONTINUOUS
 10
3.0025575619
 20
6.0573117206
 11
3.641120626
 21
6.3770924696
  0
LINE
  5
3A5
100
AcDbEntity
  8
IMPORT_IGES
100
AcDbLine
 62
7
  6
CONTINUOUS
 10
-14.9103818671
 20
-4.0422808423
 11
-9.6852146591
 21
-1.4295731946
  0
LINE
  5
3A6
100
AcDbEntity
  8
IMPORT_IGES
100
AcDbLine
 62
253
  6
CONTINUOUS
 10
17.484655823
 20
11.5774429079
 11
17.2704192499
 21
11.4703246214
  0
LINE
  5
3A7
100
AcDbEntity
  8
IMPORT_IGES
100
AcDbLine
 62
253
  6
CONTINUOUS
 10
4.3107051071
 20
4.5023508705
 11
3.0025575619
 21
3.8482770979
  0
LINE
  5
3A8
100
AcDbEntity
  8
IMPORT_IGES
100
AcDbLine
 62
7
  6
CONTINUOUS
 10
3.0025575619
 20
4.4233093537
 11
3.7382319167
 21
4.7885874657
  0
LWPOLYLINE
  5
3A9
100
AcDbEntity
  8
IMPORT_IGES
100
AcDbPolyline
 62
253
  6
CONTINUOUS
 90
10
 70
0
 10
18.0206740074
 20
10.3204908755
 10
18.0339971925
 20
10.3264160589
 10
18.0490043685
 20
10.331732795
 10
18.0652395501
 20
10.3362795374
 10
18.0822094395
 20
10.3399181357
 10
18.0993984152
 20
10.3425380329
 10
18.1162841988
 20
10.3440596248
 10
18.1323537244
 20
10.3444366785
 10
18.1471187276
 20
10.3436577375
 10
18.1601305812
 20
10.3417464695
  0
LWPOLYLINE
  5
3AA
100
AcDbEntity
  8
ASSI
100
AcDbPolyline
 62
7
  6
CONTINUOUS
 90
6
 70
0
 10
-2.5840803157
 20
24.5419027635
 10
-2.5841319406
 20
24.5431274752
 10
-2.5849248397
 20
24.546569537
 10
-2.586633096
 20
24.5493980494
 10
-2.5892127433
 20
24.5516631604
 10
-2.5908923041
 20
24.5526305186
  0
LWPOLYLINE
  5
3AB
100
AcDbEntity
  8
RACCORDO
100
AcDbPolyline
 62
7
  6
CONTINUOUS
 90
20
 70
0
 10
-1.4101133449
 20
-24.7464439358
 10
-1.4097078775
 20
-24.7606765515
 10
-1.4084846935
 20
-24.7749337922
 10
-1.4064371063
 20
-24.7891593263
 10
-1.4035631085
 20
-24.8032964864
 10
-1.3998658032
 20
-24.8172871333
 10
-1.3953533629
 20
-24.8310733274
 10
-1.3900393599
 20
-24.844597018
 10
-1.3839401851
 20
-24.8578061624
 10
-1.3770728067
 20
-24.8706558191
 10
-1.3694597248
 20
-24.8830971214
 10
-1.3611286718
 20
-24.8950805338
 10
-1.3521052569
 20
-24.9065660945
 10
-1.3424150937
 20
-24.9175172308
 10
-1.3320953041
 20
-24.9278887089
 10
-1.3211882354
 20
-24.9376372402
 10
-1.3097195249
 20
-24.9467386956
 10
-1.2977314955
 20
-24.955157243
 10
-1.2852906762
 20
-24.9628478076
 10
-1.2719096417
 20
-24.9700542842
  0
LWPOLYLINE
  5
3AC
100
AcDbEntity
  8
RACCORDO
100
AcDbPolyline
 62
253
  6
CONTINUOUS
 90
18
 70
0
 10
-1.3368900402
 20
-24.8348322834
 10
-1.3366506853
 20
-24.8459754287
 10
-1.3359326801
 20
-24.8568556492
 10
-1.33473709
 20
-24.8674429199
 10
-1.3330658925
 20
-24.8777099899
 10
-1.3309229576
 20
-24.887626106
 10
-1.3283150021
 20
-24.8971578544
 10
-1.3252498301
 20
-24.9062773832
 10
-1.3217352758
 20
-24.9149619543
 10
-1.3177807946
 20
-24.9231881451
 10
-1.3133970308
 20
-24.9309336691
 10
-1.3085959511
 20
-24.9381772534
 10
-1.3033907457
 20
-24.9448989586
 10
-1.2977956567
 20
-24.9510804212
 10
-1.2918258538
 20
-24.956704908
 10
-1.2854975319
 20
-24.9617571565
 10
-1.2788278808
 20
-24.9662234231
 10
-1.271916768
 20
-24.9700507214
  0
LWPOLYLINE
  5
3AD
100
AcDbEntity
  8
RACCORDO
100
AcDbPolyline
 62
253
  6
CONTINUOUS
 90
18
 70
0
 10
-0.0119053604
 20
-25.4973246233
 10
-0.0116660055
 20
-25.5084677686
 10
-0.0109480003
 20
-25.5193479891
 10
-0.0097524101
 20
-25.5299352598
 10
-0.0080812127
 20
-25.5402023298
 10
-0.0059382778
 20
-25.5501184459
 10
-0.0033303223
 20
-25.5596501943
 10
-0.0002651503
 20
-25.5687697231
 10
0.003249404
 20
-25.5774542942
 10
0.0072038852
 20
-25.585680485
 10
0.011587649
 20
-25.593426009
 10
0.0163887287
 20
-25.6006695933
 10
0.0215939342
 20
-25.6073912985
 10
0.0271890231
 20
-25.6135727611
 10
0.033158826
 20
-25.6191972479
 10
0.039487148
 20
-25.6242494964
 10
0.046156799
 20
-25.628715763
 10
0.0530679118
 20
-25.6325430613
  0
LWPOLYLINE
  5
3AE
100
AcDbEntity
  8
RACCORDO
100
AcDbPolyline
 62
253
  6
CONTINUOUS
 90
19
 70
0
 10
-1.3368900402
 20
16.8047457901
 10
-1.3366701855
 20
16.7940611335
 10
-1.3360111683
 20
16.7836229071
 10
-1.3349146275
 20
16.7734570746
 10
-1.3333832966
 20
16.7635889561
 10
-1.3314209813
 20
16.7540430614
 10
-1.3290325355
 20
16.744843041
 10
-1.3262238654
 20
16.7360117291
 10
-1.3230019599
 20
16.727571172
 10
-1.3193748623
 20
16.7195424637
 10
-1.3153515827
 20
16.7119455528
 10
-1.3109421401
 20
16.704799362
 10
-1.3061576036
 20
16.6981217967
 10
-1.3010099702
 20
16.6919295194
 10
-1.2955120022
 20
16.6862378069
 10
-1.2896772685
 20
16.6810606807
 10
-1.283519052
 20
16.6764101657
 10
-1.2770537778
 20
16.672298892
 10
-1.2719155931
 20
16.6695267647
  0
LINE
  5
3AF
100
AcDbEntity
  8
RACCORDO
100
AcDbLine
 62
7
  6
CONTINUOUS
 10
-1.4101133449
 20
17.2331080719
 11
-1.4101133449
 21
16.8931341377
  0
LINE
  5
3B0
100
AcDbEntity
  8
RACCORDO
100
AcDbLine
 62
7
  6
CONTINUOUS
 10
-1.4101133449
 20
-24.6199446401
 11
-1.4101133449
 21
-24.7464439358
  0
LINE
  5
3B1
100
AcDbEntity
  8
RACCORDO
100
AcDbLine
 62
253
  6
CONTINUOUS
 10
-1.3368900402
 20
17.1447197242
 11
-1.3368900402
 21
16.8047457901
  0
LINE
  5
3B2
100
AcDbEntity
  8
RACCORDO
100
AcDbLine
 62
253
  6
CONTINUOUS
 10
-1.3368900402
 20
-24.589208471
 11
-1.3368900402
 21
-24.8348322834
  0
LINE
  5
3B3
100
AcDbEntity
  8
RACCORDO
100
AcDbLine
 62
7
  6
CONTINUOUS
 10
-0.7071203906
 20
15.9331569705
 11
-0.7071203906
 21
16.3871291634
  0
LINE
  5
3B4
100
AcDbEntity
  8
RACCORDO
100
AcDbLine
 62
253
  6
CONTINUOUS
 10
-0.6338970859
 20
15.8414433669
 11
-0.6338970859
 21
16.3505175111
  0
LINE
  5
3B5
100
AcDbEntity
  8
RACCORDO
100
AcDbLine
 62
253
  6
CONTINUOUS
 10
-0.0119053604
 20
-25.4973246233
 11
-0.0119053604
 21
-25.1573506892
  0
LINE
  5
3B6
100
AcDbEntity
  8
RACCORDO
100
AcDbLine
 62
253
  6
CONTINUOUS
 10
-0.0119053604
 20
16.1422534502
 11
-0.0119053604
 21
16.4822273843
  0
LWPOLYLINE
  5
3B7
100
AcDbEntity
  8
RACCORDO
100
AcDbPolyline
 62
253
  6
CONTINUOUS
 90
31
 70
0
 10
-1.3368900402
 20
17.1447197242
 10
-1.3366506853
 20
17.1561022244
 10
-1.3359326801
 20
17.1677004501
 10
-1.33473709
 20
17.1794833109
 10
-1.3330658925
 20
17.1914215784
 10
-1.3309229576
 20
17.2034806293
 10
-1.3283150021
 20
17.2156203333
 10
-1.3252498301
 20
17.2278050341
 10
-1.3217352758
 20
17.2400041595
 10
-1.3177807946
 20
17.2521848315
 10
-1.3133970308
 20
17.2643141193
 10
-1.3085959511
 20
17.2763587832
 10
-1.3033907457
 20
17.2882856939
 10
-1.2977956567
 20
17.3000622455
 10
-1.2918258538
 20
17.3116565352
 10
-1.2854975319
 20
17.3230371057
 10
-1.2788278808
 20
17.3341730233
 10
-1.2718350733
 20
17.3450339268
 10
-1.2645381645
 20
17.3555902114
 10
-1.2569570221
 20
17.3658131316
 10
-1.2491122708
 20
17.375674872
 10
-1.2410252646
 20
17.3851485844
 10
-1.2327180124
 20
17.3942084822
 10
-1.2242131257
 20
17.4028299019
 10
-1.2155337606
 20
17.4109893675
 10
-1.2067035346
 20
17.418664674
 10
-1.1977464883
 20
17.4258349231
 10
-1.1886870291
 20
17.4324805775
 10
-1.1795498255
 20
17.4385835462
 10
-1.1703597392
 20
17.4441272285
 10
-1.1611417842
 20
17.4490965392
  0
LWPOLYLINE
  5
3B8
100
AcDbEntity
  8
RACCORDO
100
AcDbPolyline
 62
253
  6
CONTINUOUS
 90
31
 70
0
 10
-0.0119053604
 20
16.4822273843
 10
-0.0116647791
 20
16.4936392937
 10
-0.0109436879
 20
16.5052607504
 10
-0.0097440461
 20
16.5170601235
 10
-0.0080691136
 20
16.5290053101
 10
-0.0059234471
 20
16.5410637852
 10
-0.0033128925
 20
16.5532026889
 10
-0.000244559
 20
16.5653889711
 10
0.0032732023
 20
16.5775894705
 10
0.0072308115
 20
16.5897709674
 10
0.0116174934
 20
16.601900303
 10
0.0164213064
 20
16.6139444652
 10
0.021629171
 20
16.6258706671
 10
0.0272269164
 20
16.6376464618
 10
0.033199298
 20
16.6492397842
 10
0.0395300323
 20
16.6606190364
 10
0.0462018532
 20
16.6717532042
 10
0.0531966216
 20
16.6826120358
 10
0.0604953584
 20
16.6931660718
 10
0.068078301
 20
16.7033867145
 10
0.0759247194
 20
16.7132460034
 10
0.0840130107
 20
16.7227168196
 10
0.0923209784
 20
16.7317732477
 10
0.1008261508
 20
16.7403908643
 10
0.1095056135
 20
16.7485464781
 10
0.118337704
 20
16.7562195267
 10
0.127296487
 20
16.7633872743
 10
0.1363518239
 20
16.7700261808
 10
0.1454769927
 20
16.7761179782
 10
0.1546489972
 20
16.7816486255
 10
0.1638428956
 20
16.7866041993
  0
LWPOLYLINE
  5
3B9
100
AcDbEntity
  8
RACCORDO
100
AcDbPolyline
 62
7
  6
CONTINUOUS
 90
20
 70
0
 10
-1.4101133449
 20
17.2331080719
 10
-1.4097094728
 20
17.2473126838
 10
-1.4084908612
 20
17.2615441078
 10
-1.4064504737
 20
17.2757463055
 10
-1.4035857223
 20
17.2898637004
 10
-1.3998994
 20
17.3038374696
 10
-1.3954001076
 20
17.3176074169
 10
-1.3901015142
 20
17.3311154283
 10
-1.3840197726
 20
17.3443101921
 10
-1.3771722912
 20
17.357146025
 10
-1.3695816207
 20
17.3695743363
 10
-1.3612752342
 20
17.381546255
 10
-1.3522788263
 20
17.3930218854
 10
-1.342617518
 20
17.4039654004
 10
-1.3323282455
 20
17.4143317678
 10
-1.3214539746
 20
17.4240771825
 10
-1.310019811
 20
17.4331781879
 10
-1.2980676549
 20
17.4415993387
 10
-1.2856650234
 20
17.4492949725
 10
-1.2742202924
 20
17.4555481861
  0
LWPOLYLINE
  5
3BA
100
AcDbEntity
  8
RACCORDO
100
AcDbPolyline
 62
253
  6
CONTINUOUS
 90
21
 70
0
 10
-3.2130081335
 20
-25.1600929771
 10
-3.2142960922
 20
-25.1808850632
 10
-3.2163670343
 20
-25.2012231929
 10
-3.2192162741
 20
-25.2210613472
 10
-3.2228373644
 20
-25.2403546387
 10
-3.227222112
 20
-25.2590594125
 10
-3.2323605955
 20
-25.2771333457
 10
-3.2382411882
 20
-25.2945355426
 10
-3.244850584
 20
-25.3112266273
 10
-3.252173828
 20
-25.3271688333
 10
-3.26019435
 20
-25.3423260882
 10
-3.2688940019
 20
-25.3566640958
 10
-3.2782530993
 20
-25.3701504138
 10
-3.2882504654
 20
-25.3827545269
 10
-3.2988634793
 20
-25.3944479158
 10
-3.310068127
 20
-25.405204122
 10
-3.3218390559
 20
-25.4149988076
 10
-3.334149632
 20
-25.4238098102
 10
-3.3469720004
 20
-25.4316171934
 10
-3.3602771481
 20
-25.4384032915
 10
-3.3668153789
 20
-25.4412886755
  0
LWPOLYLINE
  5
3BB
100
AcDbEntity
  8
IMPORT_IGES
100
AcDbPolyline
 62
7
  6
CONTINUOUS
 90
10
 70
0
 10
3.8778623946
 20
7.057419
 10
3.8652354463
 20
7.0341556682
 10
3.8539989994
 20
7.0106026537
 10
3.8441530539
 20
6.9867599563
 10
3.8356438156
 20
6.96244162
 10
3.8285250786
 20
6.937833601
 10
3.8229582263
 20
6.9134937678
 10
3.818997053
 20
6.8896080767
 10
3.8165877643
 20
6.8659905715
 10
3.8157303603
 20
6.8426412521
  0
LINE
  5
3BC
100
AcDbEntity
  8
IMPORT_IGES
100
AcDbLine
 62
7
  6
CONTINUOUS
 10
4.7789031586
 20
8.6114844367
 11
3.8778623946
 21
7.057419
  0
LINE
  5
3BD
100
AcDbEntity
  8
IMPORT_IGES
100
AcDbLine
 62
253
  6
CONTINUOUS
 10
3.641120626
 20
6.3770924696
 11
3.8157303603
 21
6.6768984361
  0
LINE
  5
3BE
100
AcDbEntity
  8
IMPORT_IGES
100
AcDbLine
 62
253
  6
CONTINUOUS
 10
3.3415112062
 20
6.698895439
 11
4.4247210015
 21
8.5581956402
  0
LINE
  5
3BF
100
AcDbEntity
  8
IMPORT_IGES
100
AcDbLine
 62
7
  6
CONTINUOUS
 10
3.4903032857
 20
9.0254044985
 11
3.1629356513
 21
8.473273445
  0
LWPOLYLINE
  5
3C0
100
AcDbEntity
  8
IMPORT_IGES
100
AcDbPolyline
 62
253
  6
CONTINUOUS
 90
3
 70
0
 10
12.5873136076
 20
14.9464389288
 10
12.5907574009
 20
14.9498593483
 10
12.5944822021
 20
14.9531210404
  0
LINE
  5
3C1
100
AcDbEntity
  8
IMPORT_IGES
100
AcDbLine
 62
7
  6
CONTINUOUS
 10
-10.9804790361
 20
-7.2774706298
 11
-12.111849886
 21
-8.2144373469
  0
LWPOLYLINE
  5
3C2
100
AcDbEntity
  8
IMPORT_IGES
100
AcDbPolyline
 62
253
  6
CONTINUOUS
 90
8
 70
0
 10
17.0591081701
 20
12.4771390324
 10
17.0847616926
 20
12.4960512901
 10
17.1063466383
 20
12.5164547727
 10
17.1234936828
 20
12.5380003712
 10
17.1359094355
 20
12.5603194342
 10
17.1433814592
 20
12.5830300764
 10
17.1457819057
 20
12.6057437124
 10
17.1451995359
 20
12.6158057175
  0
LWPOLYLINE
  5
3C3
100
AcDbEntity
  8
IMPORT_IGES
100
AcDbPolyline
 62
7
  6
CONTINUOUS
 90
3
 70
0
 10
-12.5361139547
 20
-7.0204319212
 10
-12.5111123255
 20
-7.0021305931
 10
-12.4841538483
 20
-6.9835731782
  0
LINE
  5
3C4
100
AcDbEntity
  8
RACCORDO
100
AcDbLine
 62
7
  6
CONTINUOUS
 10
-14.3731148882
 20
-9.111834008
 11
-14.3891491855
 21
-9.1234410058
  0
LINE
  5
3C5
100
AcDbEntity
  8
RACCORDO
100
AcDbLine
 62
7
  6
CONTINUOUS
 10
-14.378765522
 20
-7.9425621359
 11
-14.39527291
 21
-7.9544416757
  0
LINE
  5
3C6
100
AcDbEntity
  8
RACCORDO
100
AcDbLine
 62
7
  6
CONTINUOUS
 10
-14.3562099285
 20
-9.0997303052
 11
-14.3731148882
 21
-9.111834008
  0
LINE
  5
3C7
100
AcDbEntity
  8
RACCORDO
100
AcDbLine
 62
7
  6
CONTINUOUS
 10
-14.3613695376
 20
-7.9302047016
 11
-14.378765522
 21
-7.9425621359
  0
LINE
  5
3C8
100
AcDbEntity
  8
RACCORDO
100
AcDbLine
 62
7
  6
CONTINUOUS
 10
-14.3384278713
 20
-9.0871562428
 11
-14.3562099285
 21
-9.0997303052
  0
LINE
  5
3C9
100
AcDbEntity
  8
RACCORDO
100
AcDbLine
 62
7
  6
CONTINUOUS
 10
-14.3431252501
 20
-7.9173861536
 11
-14.3613695376
 21
-7.9302047016
  0
LINE
  5
3CA
100
AcDbEntity
  8
RACCORDO
100
AcDbLine
 62
7
  6
CONTINUOUS
 10
-14.3198050028
 20
-9.0741325842
 11
-14.3384278713
 21
-9.0871562428
  0
LINE
  5
3CB
100
AcDbEntity
  8
RACCORDO
100
AcDbLine
 62
7
  6
CONTINUOUS
 10
-14.3240466035
 20
-7.9041323251
 11
-14.3431252501
 21
-7.9173861536
  0
LINE
  5
3CC
100
AcDbEntity
  8
RACCORDO
100
AcDbLine
 62
7
  6
CONTINUOUS
 10
-14.300371687
 20
-9.0606780453
 11
-14.3198050028
 21
-9.0741325842
  0
LINE
  5
3CD
100
AcDbEntity
  8
RACCORDO
100
AcDbLine
 62
7
  6
CONTINUOUS
 10
-14.3041657962
 20
-7.8904649896
 11
-14.3240466035
 21
-7.9041323251
  0
LINE
  5
3CE
100
AcDbEntity
  8
RACCORDO
100
AcDbLine
 62
7
  6
CONTINUOUS
 10
-14.2697446823
 20
-9.0397446054
 11
-14.300371687
 21
-9.0606780453
  0
LINE
  5
3CF
100
AcDbEntity
  8
RACCORDO
100
AcDbLine
 62
7
  6
CONTINUOUS
 10
-14.2835139538
 20
-7.8764025604
 11
-14.3041657962
 21
-7.8904649896
  0
LINE
  5
3D0
100
AcDbEntity
  8
RACCORDO
100
AcDbLine
 62
7
  6
CONTINUOUS
 10
-14.2374321942
 20
-9.0179738897
 11
-14.2697446823
 21
-9.0397446054
  0
LINE
  5
3D1
100
AcDbEntity
  8
RACCORDO
100
AcDbLine
 62
7
  6
CONTINUOUS
 10
-14.2511353307
 20
-7.8546263766
 11
-14.2835139538
 21
-7.8764025604
  0
LINE
  5
3D2
100
AcDbEntity
  8
RACCORDO
100
AcDbLine
 62
7
  6
CONTINUOUS
 10
-14.203525275
 20
-8.9954413909
 11
-14.2374321942
 21
-9.0179738897
  0
LINE
  5
3D3
100
AcDbEntity
  8
RACCORDO
100
AcDbLine
 62
7
  6
CONTINUOUS
 10
-14.2171630688
 20
-7.8320951211
 11
-14.2511353307
 21
-7.8546263766
  0
LWPOLYLINE
  5
3D4
100
AcDbEntity
  8
IMPORT_IGES
100
AcDbPolyline
 62
7
  6
CONTINUOUS
 90
4
 70
0
 10
-12.4841538483
 20
-6.9835731782
 10
-12.4260607552
 20
-6.9452944537
 10
-12.3957353371
 20
-6.9255420273
 10
-12.3649195898
 20
-6.9060406238
  0
LWPOLYLINE
  5
3D5
100
AcDbEntity
  8
IMPORT_IGES
100
AcDbPolyline
 62
7
  6
CONTINUOUS
 90
3
 70
0
 10
-13.2136701251
 20
-6.5422926337
 10
-13.2345434118
 20
-6.5559472836
 10
-13.2753559794
 20
-6.5832705988
  0
LINE
  5
3D6
100
AcDbEntity
  8
RACCORDO
100
AcDbLine
 62
7
  6
CONTINUOUS
 10
-14.1681155469
 20
-8.9722228768
 11
-14.203525275
 21
-8.9954413909
  0
LINE
  5
3D7
100
AcDbEntity
  8
RACCORDO
100
AcDbLine
 62
7
  6
CONTINUOUS
 10
-14.1816891539
 20
-7.8088848846
 11
-14.2171630688
 21
-7.8320951211
  0
LINE
  5
3D8
100
AcDbEntity
  8
RACCORDO
100
AcDbLine
 62
7
  6
CONTINUOUS
 10
-14.131297076
 20
-8.9483961204
 11
-14.1681155469
 21
-8.9722228768
  0
LINE
  5
3D9
100
AcDbEntity
  8
RACCORDO
100
AcDbLine
 62
7
  6
CONTINUOUS
 10
-14.9579808233
 20
-7.3784873723
 11
-14.9948619522
 21
-7.4022984854
  0
LINE
  5
3DA
100
AcDbEntity
  8
RACCORDO
100
AcDbLine
 62
7
  6
CONTINUOUS
 10
-14.144808025
 20
-7.7850737715
 11
-14.1816891539
 21
-7.8088848846
  0
LINE
  5
3DB
100
AcDbEntity
  8
RACCORDO
100
AcDbLine
 62
7
  6
CONTINUOUS
 10
-14.0931663909
 20
-8.9240414286
 11
-14.131297076
 21
-8.9483961204
  0
LINE
  5
3DC
100
AcDbEntity
  8
RACCORDO
100
AcDbLine
 62
7
  6
CONTINUOUS
 10
-14.9197893972
 20
-7.3541560407
 11
-14.9579808233
 21
-7.3784873723
  0
LINE
  5
3DD
100
AcDbEntity
  8
RACCORDO
100
AcDbLine
 62
7
  6
CONTINUOUS
 10
-14.1066165988
 20
-7.7607424399
 11
-14.144808025
 21
-7.7850737715
  0
LINE
  5
3DE
100
AcDbEntity
  8
RACCORDO
100
AcDbLine
 62
7
  6
CONTINUOUS
 10
-14.0538255338
 20
-8.8992441644
 11
-14.0931663909
 21
-8.9240414286
  0
LINE
  5
3DF
100
AcDbEntity
  8
RACCORDO
100
AcDbLine
 62
7
  6
CONTINUOUS
 10
-14.880390132
 20
-7.3293902356
 11
-14.9197893972
 21
-7.3541560407
  0
LINE
  5
3E0
100
AcDbEntity
  8
RACCORDO
100
AcDbLine
 62
7
  6
CONTINUOUS
 10
-14.0672173337
 20
-7.7359766348
 11
-14.1066165988
 21
-7.7607424399
  0
LINE
  5
3E1
100
AcDbEntity
  8
RACCORDO
100
AcDbLine
 62
7
  6
CONTINUOUS
 10
-14.0133874833
 20
-8.8740987428
 11
-14.0538255338
 21
-8.8992441644
  0
LINE
  5
3E2
100
AcDbEntity
  8
RACCORDO
100
AcDbLine
 62
7
  6
CONTINUOUS
 10
-14.8398964659
 20
-7.304284794
 11
-14.880390132
 21
-7.3293902356
  0
LINE
  5
3E3
100
AcDbEntity
  8
RACCORDO
100
AcDbLine
 62
7
  6
CONTINUOUS
 10
-14.0267236676
 20
-7.7108711932
 11
-14.0672173337
 21
-7.7359766348
  0
LWPOLYLINE
  5
3E4
100
AcDbEntity
  8
IMPORT_IGES
100
AcDbPolyline
 62
7
  6
CONTINUOUS
 90
9
 70
0
 10
-12.3649195898
 20
-6.9060406238
 10
-12.3032803868
 20
-6.8680217869
 10
-12.2728693763
 20
-6.8498469743
 10
-12.2430719658
 20
-6.8324013435
 10
-12.2141974351
 20
-6.8157188431
 10
-12.1863535844
 20
-6.8001189856
 10
-12.1597869955
 20
-6.785734065
 10
-12.1348575952
 20
-6.7725417616
 10
-12.111849886
 20
-6.7606243001
  0
LINE
  5
3E5
100
AcDbEntity
  8
RACCORDO
100
AcDbLine
 62
7
  6
CONTINUOUS
 10
-14.7984398852
 20
-7.2789486204
 11
-14.8398964659
 21
-7.304284794
  0
LINE
  5
3E6
100
AcDbEntity
  8
RACCORDO
100
AcDbLine
 62
7
  6
CONTINUOUS
 10
-13.9852670869
 20
-7.6855350196
 11
-14.0267236676
 21
-7.7108711932
  0
LINE
  5
3E7
100
AcDbEntity
  8
RACCORDO
100
AcDbLine
 62
7
  6
CONTINUOUS
 10
-14.7561803162
 20
-7.2535116601
 11
-14.7984398852
 21
-7.2789486204
  0
LINE
  5
3E8
100
AcDbEntity
  8
RACCORDO
100
AcDbLine
 62
7
  6
CONTINUOUS
 10
-13.9430075179
 20
-7.6600980593
 11
-13.9852670869
 21
-7.6855350196
  0
LINE
  5
3E9
100
AcDbEntity
  8
RACCORDO
100
AcDbLine
 62
7
  6
CONTINUOUS
 10
-14.7133246938
 20
-7.2281366835
 11
-14.7561803162
 21
-7.2535116601
  0
LINE
  5
3EA
100
AcDbEntity
  8
RACCORDO
100
AcDbLine
 62
7
  6
CONTINUOUS
 10
-13.9001518955
 20
-7.6347230827
 11
-13.9430075179
 21
-7.6600980593
  0
LINE
  5
3EB
100
AcDbEntity
  8
RACCORDO
100
AcDbLine
 62
7
  6
CONTINUOUS
 10
-14.6845558207
 20
-7.2113599846
 11
-14.7133246938
 21
-7.2281366835
  0
LINE
  5
3EC
100
AcDbEntity
  8
RACCORDO
100
AcDbLine
 62
7
  6
CONTINUOUS
 10
-13.8713830223
 20
-7.6179463838
 11
-13.9001518955
 21
-7.6347230827
  0
LINE
  5
3ED
100
AcDbEntity
  8
RACCORDO
100
AcDbLine
 62
7
  6
CONTINUOUS
 10
-14.6557471453
 20
-7.1947815532
 11
-14.6845558207
 21
-7.2113599846
  0
LINE
  5
3EE
100
AcDbEntity
  8
RACCORDO
100
AcDbLine
 62
7
  6
CONTINUOUS
 10
-13.842574347
 20
-7.6013679523
 11
-13.8713830223
 21
-7.6179463838
  0
LINE
  5
3EF
100
AcDbEntity
  8
RACCORDO
100
AcDbLine
 62
7
  6
CONTINUOUS
 10
-14.6270501495
 20
-7.1784833581
 11
-14.6557471453
 21
-7.1947815532
  0
LINE
  5
3F0
100
AcDbEntity
  8
RACCORDO
100
AcDbLine
 62
7
  6
CONTINUOUS
 10
-13.8138773511
 20
-7.5850697573
 11
-13.842574347
 21
-7.6013679523
  0
LWPOLYLINE
  5
3F1
100
AcDbEntity
  8
RACCORDO
100
AcDbPolyline
 62
7
  6
CONTINUOUS
 90
3
 70
0
 10
-14.584538237
 20
-7.1548425263
 10
-14.5986000602
 20
-7.1625994888
 10
-14.6270501495
 20
-7.1784833581
  0
LWPOLYLINE
  5
3F2
100
AcDbEntity
  8
RACCORDO
100
AcDbPolyline
 62
7
  6
CONTINUOUS
 90
3
 70
0
 10
-13.7713654386
 20
-7.5614289255
 10
-13.7854272619
 20
-7.569185888
 10
-13.8138773511
 20
-7.5850697573
  0
LWPOLYLINE
  5
3F3
100
AcDbEntity
  8
RACCORDO
100
AcDbPolyline
 62
7
  6
CONTINUOUS
 90
3
 70
0
 10
-14.5966910213
 20
-5.7750445182
 10
-14.6107611179
 20
-5.7827597256
 10
-14.6392310906
 20
-5.7985646183
  0
LWPOLYLINE
  5
3F4
100
AcDbEntity
  8
RACCORDO
100
AcDbPolyline
 62
7
  6
CONTINUOUS
 90
5
 70
0
 10
-14.516940593
 20
-7.1187448991
 10
-14.5300185679
 20
-7.1255292937
 10
-14.5433276287
 20
-7.1325615064
 10
-14.5568531689
 20
-7.1398128497
 10
-14.584538237
 20
-7.1548425263
  0
LWPOLYLINE
  5
3F5
100
AcDbEntity
  8
IMPORT_IGES
100
AcDbPolyline
 62
7
  6
CONTINUOUS
 90
17
 70
0
 10
-12.919019406
 20
-6.3687536788
 10
-12.9313978508
 20
-6.3751576319
 10
-12.944461286
 20
-6.3820630071
 10
-12.9581577394
 20
-6.3894086219
 10
-12.9724877076
 20
-6.3972062913
 10
-12.9875139742
 20
-6.4055326981
 10
-13.003216982
 20
-6.4143526586
 10
-13.0195568578
 20
-6.4236353898
 10
-13.0365711771
 20
-6.4334502001
 10
-13.0542104861
 20
-6.4437532367
 10
-13.072433114
 20
-6.4545107684
 10
-13.0912849767
 20
-6.4657917456
 10
-13.1107235997
 20
-6.4775742591
 10
-13.1306501952
 20
-6.4897851669
 10
-13.1510127995
 20
-6.5024050085
 10
-13.1717406153
 20
-6.5154410358
 10
-13.2136701251
 20
-6.5422926337
  0
LWPOLYLINE
  5
3F6
100
AcDbEntity
  8
RACCORDO
100
AcDbPolyline
 62
7
  6
CONTINUOUS
 90
5
 70
0
 10
-14.5290711179
 20
-5.7391776662
 10
-14.5421508022
 20
-5.7459130465
 10
-14.5554629997
 20
-5.7528976499
 10
-14.5689930478
 20
-5.7601028162
 10
-14.5966910213
 20
-5.7750445182
  0
LINE
  5
3F7
100
AcDbEntity
  8
RACCORDO
100
AcDbLine
 62
7
  6
CONTINUOUS
 10
-13.7558731522
 20
-5.351055659
 11
-14.5256733285
 21
-5.7374525086
  0
LINE
  5
3F8
100
AcDbEntity
  8
RACCORDO
100
AcDbLine
 62
7
  6
CONTINUOUS
 10
-13.7558731522
 20
-6.7366963051
 11
-14.5124007869
 21
-7.1164310774
  0
LINE
  5
3F9
100
AcDbEntity
  8
IMPORT_IGES
100
AcDbLine
 62
253
  6
CONTINUOUS
 10
4.4521264633
 20
4.2584351116
 11
3.0025575619
 21
3.5336506609
  0
LINE
  5
3FA
100
AcDbEntity
  8
IMPORT_IGES
100
AcDbLine
 62
7
  6
CONTINUOUS
 10
-12.9073450148
 20
-5.0205373598
 11
-7.7053156718
 21
-2.4195226882
  0
LINE
  5
3FB
100
AcDbEntity
  8
IMPORT_IGES
100
AcDbLine
 62
253
  6
CONTINUOUS
 10
17.4290652228
 20
10.0246861157
 11
18.0206740786
 21
10.3204904782
  0
LINE
  5
3FC
100
AcDbEntity
  8
IMPORT_IGES
100
AcDbLine
 62
253
  6
CONTINUOUS
 10
18.0406187609
 20
10.2547631223
 11
17.4399654564
 21
9.9544364701
  0
LINE
  5
3FD
100
AcDbEntity
  8
IMPORT_IGES
100
AcDbLine
 62
7
  6
CONTINUOUS
 10
17.48413004
 20
9.774155814
 11
18.0125149725
 21
10.0383482803
  0
LINE
  5
3FE
100
AcDbEntity
  8
IMPORT_IGES
100
AcDbLine
 62
253
  6
CONTINUOUS
 10
19.2462730583
 20
10.4743525961
 11
19.0341410239
 21
10.3682865792
  0
LINE
  5
3FF
100
AcDbEntity
  8
IMPORT_IGES
100
AcDbLine
 62
7
  6
CONTINUOUS
 10
19.2067068229
 20
10.14380349
 11
18.9945747886
 21
10.0377374728
  0
LINE
  5
400
100
AcDbEntity
  8
IMPORT_IGES
100
AcDbLine
 62
7
  6
CONTINUOUS
 10
-12.919019406
 20
-6.3687536788
 11
-11.9881061993
 21
-5.9032573279
  0
LINE
  5
401
100
AcDbEntity
  8
IMPORT_IGES
100
AcDbLine
 62
7
  6
CONTINUOUS
 10
-7.5279758503
 20
-3.6731921534
 11
-11.7759741649
 21
-5.7971913107
  0
LWPOLYLINE
  5
402
100
AcDbEntity
  8
IMPORT_IGES
100
AcDbPolyline
 62
253
  6
CONTINUOUS
 90
10
 70
0
 10
19.034141024
 20
10.368286579
 10
19.007823894
 20
10.3553776146
 10
18.9787872582
 20
10.3416005145
 10
18.9479133801
 20
10.3273738889
 10
18.9161403469
 20
10.3131300067
 10
18.8844335661
 20
10.299301661
 10
18.8537564322
 20
10.2863090191
 10
18.8250410543
 20
10.2745468558
 10
18.7991599348
 20
10.2643725586
 10
18.7768994584
 20
10.2560952683
  0
LWPOLYLINE
  5
403
100
AcDbEntity
  8
IMPORT_IGES
100
AcDbPolyline
 62
7
  6
CONTINUOUS
 90
8
 70
0
 10
18.0125440105
 20
10.0383615164
 10
18.0137284802
 20
10.038933344
 10
18.0199169742
 20
10.0415161416
 10
18.0294539403
 20
10.044686415
 10
18.0417593991
 20
10.0478476514
 10
18.056276117
 20
10.0506028642
 10
18.072730651
 20
10.0527126232
 10
18.0756098911
 20
10.0529836643
  0
LINE
  5
404
100
AcDbEntity
  8
IMPORT_IGES
100
AcDbLine
 62
253
  6
CONTINUOUS
 10
18.0874781692
 20
10.262151765
 11
18.1087801419
 21
10.2724202381
  0
LINE
  5
405
100
AcDbEntity
  8
IMPORT_IGES
100
AcDbLine
 62
253
  6
CONTINUOUS
 10
18.1087801419
 20
10.2724202381
 11
18.1297192746
 21
10.2823926331
  0
LINE
  5
406
100
AcDbEntity
  8
IMPORT_IGES
100
AcDbLine
 62
253
  6
CONTINUOUS
 10
18.1297192746
 20
10.2823926331
 11
18.1491229972
 21
10.2915105059
  0
LWPOLYLINE
  5
407
100
AcDbEntity
  8
IMPORT_IGES
100
AcDbPolyline
 62
253
  6
CONTINUOUS
 90
3
 70
0
 10
18.1491229972
 20
10.2915105059
 10
18.1659047211
 20
10.2992632651
 10
18.1730114143
 20
10.3024883697
  0
LWPOLYLINE
  5
408
100
AcDbEntity
  8
IMPORT_IGES
100
AcDbPolyline
 62
7
  6
CONTINUOUS
 90
4
 70
0
 10
5.6895633304
 20
0.0880640188
 10
5.6965389645
 20
0.089786364
 10
5.7292784408
 20
0.1006855376
 10
5.7602740085
 20
0.1139696348
  0
LWPOLYLINE
  5
409
100
AcDbEntity
  8
IMPORT_IGES
100
AcDbPolyline
 62
7
  6
CONTINUOUS
 90
4
 70
0
 10
5.6895633304
 20
-1.9910199025
 10
5.6927748794
 20
-1.9919334129
 10
5.7278339487
 20
-2.0006453113
 10
5.7602740085
 20
-2.0069507422
  0
LINE
  5
40A
100
AcDbEntity
  8
IMPORT_IGES
100
AcDbLine
 62
7
  6
CONTINUOUS
 10
4.4521264633
 20
-2.7265936725
 11
3.9217963774
 21
-2.4614286296
  0
LINE
  5
40B
100
AcDbEntity
  8
IMPORT_IGES
100
AcDbLine
 62
7
  6
CONTINUOUS
 10
4.841035193
 20
-2.5321393077
 11
3.9703699738
 21
-2.0968066981
  0
LWPOLYLINE
  5
40C
100
AcDbEntity
  8
RACCORDO
100
AcDbPolyline
 62
253
  6
CONTINUOUS
 90
31
 70
0
 10
0.3406165993
 20
16.4817146604
 10
0.3403216224
 20
16.4931403681
 10
0.3395457692
 20
16.5047784213
 10
0.3382911661
 20
16.5165969221
 10
0.3365612518
 20
16.5285634784
 10
0.3343607676
 20
16.540645292
 10
0.3316957447
 20
16.5528092489
 10
0.3285734874
 20
16.5650220101
 10
0.3250025532
 20
16.5772501027
 10
0.3209927294
 20
16.5894600116
 10
0.3165550061
 20
16.601618272
 10
0.3117015464
 20
16.6136915601
 10
0.3064456525
 20
16.6256467856
 10
0.3008017301
 20
16.6374511812
 10
0.2947852479
 20
16.6490723934
 10
0.288412696
 20
16.6604785706
 10
0.2817015405
 20
16.6716384506
 10
0.2746701753
 20
16.6825214463
 10
0.267337872
 20
16.6930977295
 10
0.2597247272
 20
16.7033383124
 10
0.2518516071
 20
16.7132151277
 10
0.2437400903
 20
16.7227011048
 10
0.2354124091
 20
16.7317702443
 10
0.226891388
 20
16.7403976897
 10
0.2182003816
 20
16.7485597945
 10
0.2093632103
 20
16.756234188
 10
0.2004040951
 20
16.7633998361
 10
0.1913475912
 20
16.7700370992
 10
0.1822185209
 20
16.7761277858
 10
0.1730419053
 20
16.7816552023
 10
0.1638428956
 20
16.7866041993
  0
LWPOLYLINE
  5
40D
100
AcDbEntity
  8
RACCORDO
100
AcDbPolyline
 62
7
  6
CONTINUOUS
 90
23
 70
0
 10
2.5423624188
 20
-24.01138754
 10
2.5420440109
 20
-23.9987739877
 10
2.5410853942
 20
-23.9861510395
 10
2.5394836199
 20
-23.9735574993
 10
2.53723946
 20
-23.9610364259
 10
2.53435542
 20
-23.9486230008
 10
2.5308335958
 20
-23.9363442339
 10
2.5266802306
 20
-23.9242373071
 10
2.5219053757
 20
-23.9123419398
 10
2.5165175809
 20
-23.9006876604
 10
2.5105292203
 20
-23.8893086855
 10
2.5039571791
 20
-23.8782422907
 10
2.4968177453
 20
-23.8675194772
 10
2.4891279523
 20
-23.8571691079
 10
2.4809106325
 20
-23.8472242947
 10
2.4721915987
 20
-23.8377169723
 10
2.4629903827
 20
-23.8286689096
 10
2.4533339332
 20
-23.8201071919
 10
2.4432595314
 20
-23.8120635288
 10
2.4327869816
 20
-23.8045519963
 10
2.4219442916
 20
-23.7975919875
 10
2.4107805418
 20
-23.791212273
 10
2.4041594918
 20
-23.7877775796
  0
LWPOLYLINE
  5
40E
100
AcDbEntity
  8
RACCORDO
100
AcDbPolyline
 62
253
  6
CONTINUOUS
 90
19
 70
0
 10
-0.0119053604
 20
16.1422534502
 10
-0.0116855057
 20
16.1315687936
 10
-0.0110264885
 20
16.1211305672
 10
-0.0099299477
 20
16.1109647347
 10
-0.0083986168
 20
16.1010966162
 10
-0.0064363015
 20
16.0915507215
 10
-0.0040478557
 20
16.0823507011
 10
-0.0012391856
 20
16.0735193892
 10
0.0019827199
 20
16.0650788321
 10
0.0056098175
 20
16.0570501238
 10
0.0096330971
 20
16.0494532129
 10
0.0140425397
 20
16.0423070221
 10
0.0188270762
 20
16.0356294568
 10
0.0239747097
 20
16.0294371795
 10
0.0294726776
 20
16.023745467
 10
0.0353074113
 20
16.0185683408
 10
0.0414656278
 20
16.0139178258
 10
0.047930902
 20
16.0098065521
 10
0.0530573189
 20
16.0070403095
  0
LWPOLYLINE
  5
40F
100
AcDbEntity
  8
RACCORDO
100
AcDbPolyline
 62
7
  6
CONTINUOUS
 90
24
 70
0
 10
0.06806442
 20
23.4557418085
 10
0.0674912355
 20
23.4902142146
 10
0.0657921225
 20
23.5239641356
 10
0.062967081
 20
23.5569915714
 10
0.0590066464
 20
23.5893531288
 10
0.0539202833
 20
23.620992201
 10
0.0477363849
 20
23.6517389675
 10
0.0404537695
 20
23.6815744949
 10
0.0320736188
 20
23.7105177167
 10
0.0226278716
 20
23.7384556126
 10
0.0121040131
 20
23.7654017754
 10
0.000514558
 20
23.7913426124
 10
-0.0120710107
 20
23.8161243253
 10
-0.0256461966
 20
23.8397216267
 10
-0.0402174961
 20
23.862159804
 10
-0.0557349161
 20
23.8833609212
 10
-0.0722182035
 20
23.9033380111
 10
-0.0896476114
 20
23.922078041
 10
-0.107913906
 20
23.9394639766
 10
-0.1270025619
 20
23.9554729029
 10
-0.1469281046
 20
23.970127735
 10
-0.1676248771
 20
23.9833801833
 10
-0.1891173917
 20
23.9952360446
 10
-3.419007456
 20
25.610204954
  0
LINE
  5
410
100
AcDbEntity
  8
RACCORDO
100
AcDbLine
 62
7
  6
CONTINUOUS
 10
0.06806442
 20
23.4557418085
 11
0.06806442
 21
23.1849415158
  0
LINE
  5
411
100
AcDbEntity
  8
RACCORDO
100
AcDbLine
 62
253
  6
CONTINUOUS
 10
0.3406165993
 20
-25.4978373472
 11
0.3406165993
 21
-25.1578634131
  0
LINE
  5
412
100
AcDbEntity
  8
RACCORDO
100
AcDbLine
 62
253
  6
CONTINUOUS
 10
0.3406165993
 20
16.1417407263
 11
0.3406165993
 21
16.4817146604
  0
LINE
  5
413
100
AcDbEntity
  8
RACCORDO
100
AcDbLine
 62
253
  6
CONTINUOUS
 10
0.6993152477
 20
-24.1808542121
 11
0.6993152477
 21
-23.734492199
  0
LINE
  5
414
100
AcDbEntity
  8
RACCORDO
100
AcDbLine
 62
253
  6
CONTINUOUS
 10
0.6993152477
 20
15.1748372001
 11
0.6993152477
 21
15.863657823
  0
LINE
  5
415
100
AcDbEntity
  8
RACCORDO
100
AcDbLine
 62
253
  6
CONTINUOUS
 10
1.0518372074
 20
-24.3063669359
 11
1.0518372074
 21
-23.5865177993
  0
LINE
  5
416
100
AcDbEntity
  8
RACCORDO
100
AcDbLine
 62
253
  6
CONTINUOUS
 10
1.0518372074
 20
15.1847363795
 11
1.0518372074
 21
15.9932372035
  0
LINE
  5
417
100
AcDbEntity
  8
RACCORDO
100
AcDbLine
 62
7
  6
CONTINUOUS
 10
1.9418973901
 20
-23.2129066876
 11
1.9418973901
 21
-24.7178027475
  0
LINE
  5
418
100
AcDbEntity
  8
RACCORDO
100
AcDbLine
 62
7
  6
CONTINUOUS
 10
1.9418973901
 20
15.6820175074
 11
1.9418973901
 21
17.284436664
  0
LWPOLYLINE
  5
419
100
AcDbEntity
  8
RACCORDO
100
AcDbPolyline
 62
253
  6
CONTINUOUS
 90
22
 70
0
 10
-0.0119053604
 20
-25.1573506892
 10
-0.0116864892
 20
-25.1464708258
 10
-0.0110299335
 20
-25.1353928536
 10
-0.0099365958
 20
-25.1241439386
 10
-0.008408146
 20
-25.1127496346
 10
-0.0064478274
 20
-25.1012401193
 10
-0.0040612443
 20
-25.0896503002
 10
-0.0012549115
 20
-25.0780112408
 10
0.0019646055
 20
-25.0663496829
 10
0.0055893747
 20
-25.0546943992
 10
0.0096104578
 20
-25.0430742308
 10
0.014017831
 20
-25.0315182359
 10
0.0188004588
 20
-25.0200553804
 10
0.0239464317
 20
-25.0087142065
 10
0.0294429606
 20
-24.9975228973
 10
0.0352763039
 20
-24.9865094177
 10
0.0414318927
 20
-24.9757012375
 10
0.0478944479
 20
-24.9651251498
 10
0.0546479614
 20
-24.9548073396
 10
0.0616756613
 20
-24.9447734342
 10
0.0689600429
 20
-24.9350484297
 10
0.0764829873
 20
-24.9256565154
  0
LWPOLYLINE
  5
41A
100
AcDbEntity
  8
RACCORDO
100
AcDbPolyline
 62
7
  6
CONTINUOUS
 90
15
 70
0
 10
2.5423624188
 20
17.2882165994
 10
2.54204549
 20
17.2756323591
 10
2.5410911434
 20
17.2630368256
 10
2.5394961587
 20
17.2504685581
 10
2.5372608536
 20
17.2379696429
 10
2.5343874977
 20
17.2255758685
 10
2.5308785503
 20
17.2133162988
 10
2.5267404177
 20
17.2012283612
 10
2.5219829531
 20
17.1893509826
 10
2.5166149006
 20
17.1777140002
 10
2.5106486172
 20
17.1663513642
 10
2.5041008522
 20
17.1552999496
 10
2.4969879664
 20
17.1445907477
 10
2.4893267748
 20
17.1342521801
 10
2.4855248793
 20
17.1295084904
  0
LWPOLYLINE
  5
41B
100
AcDbEntity
  8
RACCORDO
100
AcDbPolyline
 62
253
  6
CONTINUOUS
 90
16
 70
0
 10
2.5423624188
 20
17.2882165994
 10
2.5420591978
 20
17.2820619552
 10
2.541077692
 20
17.2755604459
 10
2.5394195142
 20
17.2690933699
 10
2.5370891757
 20
17.2626783218
 10
2.5340930165
 20
17.256332755
 10
2.5304391883
 20
17.2500739336
 10
2.5261376319
 20
17.2439188857
 10
2.5212000504
 20
17.2378843573
 10
2.5156398773
 20
17.2319867663
 10
2.5094722401
 20
17.2262421581
 10
2.5027139188
 20
17.2206661618
 10
2.4953833006
 20
17.215273948
 10
2.4875003296
 20
17.210080187
 10
2.4790864529
 20
17.2050990094
 10
2.4701645619
 20
17.2003439672
  0
LWPOLYLINE
  5
41C
100
AcDbEntity
  8
RACCORDO
100
AcDbPolyline
 62
253
  6
CONTINUOUS
 90
16
 70
0
 10
2.5423624188
 20
17.6357477668
 10
2.5420569139
 20
17.6295703503
 10
2.5410727422
 20
17.6230676679
 10
2.5394116428
 20
17.6165994807
 10
2.5370780967
 20
17.6101833111
 10
2.5340784672
 20
17.6038367076
 10
2.5304210338
 20
17.5975771329
 10
2.526115895
 20
17.5914217346
 10
2.521174755
 20
17.5853871322
 10
2.5156109473
 20
17.5794895734
 10
2.5094381888
 20
17.5737438621
 10
2.5026744394
 20
17.5681669538
 10
2.4953429212
 20
17.562777376
 10
2.4874663496
 20
17.557590493
 10
2.4790656445
 20
17.552618841
 10
2.4701645619
 20
17.547875484
  0
LWPOLYLINE
  5
41D
100
AcDbEntity
  8
0
100
AcDbPolyline
 62
7
  6
CONTINUOUS
 90
3
 70
0
 10
3.0044214895
 20
11.7232282346
 10
3.0039788778
 20
11.7174215113
 10
3.0025575619
 20
11.7115362567
  0
LINE
  5
41E
100
AcDbEntity
  8
0
100
AcDbLine
 62
7
  6
CONTINUOUS
 10
3.1574408794
 20
11.6616172588
 11
3.1596169117
 21
11.6751377453
  0
LWPOLYLINE
  5
41F
100
AcDbEntity
  8
IMPORT_IGES
100
AcDbPolyline
 62
253
  6
CONTINUOUS
 90
10
 70
0
 10
4.1607051071
 20
6.9159976438
 10
4.148202541
 20
6.8930357498
 10
4.1369367175
 20
6.8694212478
 10
4.1269933764
 20
6.8453338583
 10
4.1184481925
 20
6.820956901
 10
4.1113661998
 20
6.7964758992
 10
4.1058012965
 20
6.7720771682
 10
4.101795835
 20
6.747946397
 10
4.0993802992
 20
6.7242672353
 10
4.0985730727
 20
6.7012198959
  0
LINE
  5
420
100
AcDbEntity
  8
IMPORT_IGES
100
AcDbLine
 62
253
  6
CONTINUOUS
 10
4.1607051071
 20
6.9159976438
 11
5.0617458711
 21
8.4700630804
  0
LINE
  5
421
100
AcDbEntity
  8
IMPORT_IGES
100
AcDbLine
 62
253
  6
CONTINUOUS
 10
4.5228371414
 20
6.7012198959
 11
5.4238779054
 21
8.2552853325
  0
LWPOLYLINE
  5
422
100
AcDbEntity
  8
IMPORT_IGES
100
AcDbPolyline
 62
253
  6
CONTINUOUS
 90
10
 70
0
 10
12.4508970976
 20
15.1064508803
 10
12.4340878876
 20
15.0835715877
 10
12.4235486548
 20
15.060667853
 10
12.4192793993
 20
15.0377396762
 10
12.4214161604
 20
15.0144073823
 10
12.4298228987
 20
14.9910506463
 10
12.4440914959
 20
14.9688084931
 10
12.4640859126
 20
14.9480605976
 10
12.4899421882
 20
14.928427285
 10
12.5216603227
 20
14.9099085551
  0
LINE
  5
423
100
AcDbEntity
  8
IMPORT_IGES
100
AcDbLine
 62
253
  6
CONTINUOUS
 10
12.5777588213
 20
14.9342161596
 11
12.5873136076
 21
14.9464389288
  0
LWPOLYLINE
  5
424
100
AcDbEntity
  8
IMPORT_IGES
100
AcDbPolyline
 62
253
  6
CONTINUOUS
 90
10
 70
0
 10
8.2560987498
 20
10.0038166065
 10
8.2582965701
 20
10.0065566248
 10
8.2608838235
 20
10.0095015244
 10
8.2638334314
 20
10.012609138
 10
8.2671050834
 20
10.0158328697
 10
8.2706402074
 20
10.0191128539
 10
8.2743644654
 20
10.0223840682
 10
8.2781919569
 20
10.0255791742
 10
8.2821125996
 20
10.0286970671
 10
8.2862821412
 20
10.0318555381
  0
LINE
  5
425
100
AcDbEntity
  8
IMPORT_IGES
100
AcDbLine
 62
253
  6
CONTINUOUS
 10
14.7027088302
 20
13.8126461213
 11
14.688470603
 21
13.7989098654
  0
LWPOLYLINE
  5
426
100
AcDbEntity
  8
IMPORT_IGES
100
AcDbPolyline
 62
253
  6
CONTINUOUS
 90
8
 70
0
 10
17.3379447622
 20
9.926406124
 10
17.3635982847
 20
9.9453183817
 10
17.3851832304
 20
9.9657218644
 10
17.402330275
 20
9.9872674628
 10
17.4147460276
 20
10.0095865258
 10
17.4222180513
 20
10.032297168
 10
17.4246184978
 20
10.055010804
 10
17.4240361281
 20
10.0650728091
  0
LWPOLYLINE
  5
427
100
AcDbEntity
  8
IMPORT_IGES
100
AcDbPolyline
 62
7
  6
CONTINUOUS
 90
9
 70
0
 10
-8.4525722933
 20
-7.2479237205
 10
-8.4731930117
 20
-7.2608567037
 10
-8.4913255383
 20
-7.2773031835
 10
-8.5067968427
 20
-7.2971270269
 10
-8.5194415972
 20
-7.3202528687
 10
-8.5291809453
 20
-7.3464619321
 10
-8.5359654172
 20
-7.3754034188
 10
-8.5396909138
 20
-7.4069416054
 10
-8.5404401519
 20
-7.429849476
  0
LWPOLYLINE
  5
428
100
AcDbEntity
  8
IMPORT_IGES
100
AcDbPolyline
 62
7
  6
CONTINUOUS
 90
8
 70
0
 10
19.2067068229
 20
10.14380349
 10
19.2419684681
 20
10.1654789889
 10
19.2740472973
 20
10.194046549
 10
19.3014228622
 20
10.229122224
 10
19.3229138053
 20
10.2704424858
 10
19.3370173412
 20
10.3163658213
 10
19.3429990114
 20
10.3643435248
 10
19.3410982469
 20
10.4134033565
  0
LINE
  5
429
100
AcDbEntity
  8
RACCORDO
100
AcDbLine
 62
7
  6
CONTINUOUS
 10
-13.971983205
 20
-8.8487136001
 11
-14.0133874833
 21
-8.8740987428
  0
LWPOLYLINE
  5
42A
100
AcDbEntity
  8
IMPORT_IGES
100
AcDbPolyline
 62
253
  6
CONTINUOUS
 90
11
 70
0
 10
18.9945747886
 20
10.0377374728
 10
19.0106317186
 20
10.0475144737
 10
19.0319550552
 20
10.0674575768
 10
19.0491646845
 20
10.0931226037
 10
19.0618479123
 20
10.1238940961
 10
19.0697005892
 20
10.1590341402
 10
19.0725344048
 20
10.1977000628
 10
19.0702814028
 20
10.2389646384
 10
19.0629956113
 20
10.2818383246
 10
19.0508517467
 20
10.325292992
 10
19.034141024
 20
10.368286579
  0
LINE
  5
42B
100
AcDbEntity
  8
IMPORT_IGES
100
AcDbLine
 62
7
  6
CONTINUOUS
 10
4.4521264633
 20
1.457376833
 11
3.9217963774
 21
1.1353862362
  0
LINE
  5
42C
100
AcDbEntity
  8
RACCORDO
100
AcDbLine
 62
7
  6
CONTINUOUS
 10
-13.9297720216
 20
-8.8232181642
 11
-13.971983205
 21
-8.8487136001
  0
LINE
  5
42D
100
AcDbEntity
  8
RACCORDO
100
AcDbLine
 62
7
  6
CONTINUOUS
 10
-13.8869601521
 20
-8.7977746521
 11
-13.9297720216
 21
-8.8232181642
  0
LINE
  5
42E
100
AcDbEntity
  8
RACCORDO
100
AcDbLine
 62
7
  6
CONTINUOUS
 10
-13.8582174539
 20
-8.780946404
 11
-13.8869601521
 21
-8.7977746521
  0
LINE
  5
42F
100
AcDbEntity
  8
RACCORDO
100
AcDbLine
 62
7
  6
CONTINUOUS
 10
-13.8294322235
 20
-8.7643115507
 11
-13.8582174539
 21
-8.780946404
  0
LINE
  5
430
100
AcDbEntity
  8
RACCORDO
100
AcDbLine
 62
7
  6
CONTINUOUS
 10
-13.8007556121
 20
-8.7479519325
 11
-13.8294322235
 21
-8.7643115507
  0
LWPOLYLINE
  5
431
100
AcDbEntity
  8
RACCORDO
100
AcDbPolyline
 62
7
  6
CONTINUOUS
 90
3
 70
0
 10
-13.7582677293
 20
-8.7242094544
 10
-13.7723224792
 20
-8.7320015763
 10
-13.8007556121
 20
-8.7479519325
  0
LWPOLYLINE
  5
432
100
AcDbEntity
  8
RACCORDO
100
AcDbPolyline
 62
7
  6
CONTINUOUS
 90
5
 70
0
 10
-13.690689358
 20
-8.6879174241
 10
-13.7037657891
 20
-8.6947431182
 10
-13.7170721032
 20
-8.7018154418
 10
-13.7305937415
 20
-8.7091056839
 10
-13.7582677293
 20
-8.7242094544
  0
LWPOLYLINE
  5
433
100
AcDbEntity
  8
RACCORDO
100
AcDbPolyline
 62
7
  6
CONTINUOUS
 90
5
 70
0
 10
-13.7037677946
 20
-7.5253312983
 10
-13.7168457696
 20
-7.5321156928
 10
-13.7301548304
 20
-7.5391479056
 10
-13.7436803705
 20
-7.5463992488
 10
-13.7713654386
 20
-7.5614289255
  0
LINE
  5
434
100
AcDbEntity
  8
RACCORDO
100
AcDbLine
 62
7
  6
CONTINUOUS
 10
-12.9427003539
 20
-7.1432827043
 11
-13.6992279885
 21
-7.5230174766
  0
LINE
  5
435
100
AcDbEntity
  8
RACCORDO
100
AcDbLine
 62
7
  6
CONTINUOUS
 10
-12.9427003539
 20
-8.3124169994
 11
-13.6851860483
 21
-8.6851034991
  0
LINE
  5
436
100
AcDbEntity
  8
IMPORT_IGES
100
AcDbLine
 62
7
  6
CONTINUOUS
 10
-11.1763820306
 20
-6.2335168367
 11
-7.5300799677
 21
-4.4103658053
  0
LINE
  5
437
100
AcDbEntity
  8
IMPORT_IGES
100
AcDbLine
 62
7
  6
CONTINUOUS
 10
-11.1926110704
 20
-6.3010048923
 11
-12.111849886
 21
-6.7606243001
  0
LINE
  5
438
100
AcDbEntity
  8
IMPORT_IGES
100
AcDbLine
 62
7
  6
CONTINUOUS
 10
4.4521264633
 20
1.457376833
 11
4.841035193
 21
1.6518311978
  0
LINE
  5
439
100
AcDbEntity
  8
IMPORT_IGES
100
AcDbLine
 62
7
  6
CONTINUOUS
 10
-10.9804790361
 20
-6.481975501
 11
-7.5308872386
 21
-4.7571796023
  0
LWPOLYLINE
  5
43A
100
AcDbEntity
  8
IMPORT_IGES
100
AcDbPolyline
 62
7
  6
CONTINUOUS
 90
4
 70
0
 10
5.7602740085
 20
0.0273670944
 10
5.7292784408
 20
0.0140829972
 10
5.6965389645
 20
0.0031838236
 10
5.6895633304
 20
0.0014614784
  0
LWPOLYLINE
  5
43B
100
AcDbEntity
  8
IMPORT_IGES
100
AcDbPolyline
 62
253
  6
CONTINUOUS
 90
7
 70
0
 10
18.9977953554
 20
6.5019028871
 10
19.0162545465
 20
6.5096506892
 10
19.0343978958
 20
6.5143023373
 10
19.0519149654
 20
6.5157782404
 10
19.0685060335
 20
6.5140531454
 10
19.0838872223
 20
6.5091565692
 10
19.0872380745
 20
6.5075832445
  0
LWPOLYLINE
  5
43C
100
AcDbEntity
  8
IMPORT_IGES
100
AcDbPolyline
 62
253
  6
CONTINUOUS
 90
7
 70
0
 10
18.769504543
 20
5.8325194557
 10
18.7499276329
 20
5.8244159661
 10
18.7284502514
 20
5.8187033412
 10
18.7054398824
 20
5.8154793257
 10
18.6812902396
 20
5.8147990834
 10
18.6564145302
 20
5.8166742534
 10
18.6467747136
 20
5.8183584155
  0
LWPOLYLINE
  5
43D
100
AcDbEntity
  8
IMPORT_IGES
100
AcDbPolyline
 62
7
  6
CONTINUOUS
 90
7
 70
0
 10
-11.1926110704
 20
-6.3010048923
 10
-11.1638291894
 20
-6.2893251532
 10
-11.1365602776
 20
-6.2823907432
 10
-11.1108043353
 20
-6.2802016624
 10
-11.0862335959
 20
-6.282904545
 10
-11.0631758259
 20
-6.2903527569
 10
-11.0583068183
 20
-6.2926326464
  0
LWPOLYLINE
  5
43E
100
AcDbEntity
  8
IMPORT_IGES
100
AcDbPolyline
 62
253
  6
CONTINUOUS
 90
4
 70
0
 10
4.4521264633
 20
2.6727505309
 10
4.4607132027
 20
2.6748678766
 10
4.493340747
 20
2.6857691158
 10
4.5228371414
 20
2.6987033329
  0
LWPOLYLINE
  5
43F
100
AcDbEntity
  8
RACCORDO
100
AcDbPolyline
 62
7
  6
CONTINUOUS
 90
6
 70
0
 10
-5.5687676293
 20
7.0685457982
 10
-5.5803848514
 20
7.0793073378
 10
-5.5915055844
 20
7.0904920098
 10
-5.6021191115
 20
7.1020559573
 10
-5.6122394176
 20
7.1139243849
 10
-5.6218761154
 20
7.1260364174
  0
LINE
  5
440
100
AcDbEntity
  8
IMPORT_IGES
100
AcDbLine
 62
253
  6
CONTINUOUS
 10
4.5123496978
 20
-3.5288977978
 11
4.5228371414
 21
-3.5436561037
  0
LWPOLYLINE
  5
441
100
AcDbEntity
  8
RACCORDO
100
AcDbPolyline
 62
253
  6
CONTINUOUS
 90
12
 70
0
 10
-4.3310658048
 20
13.0071789667
 10
-4.3340864008
 20
13.0149832088
 10
-4.3449762712
 20
13.0385959997
 10
-4.3573734822
 20
13.0616297016
 10
-4.3711422119
 20
13.0838319492
 10
-4.3861316068
 20
13.1049594803
 10
-4.4021774429
 20
13.1247808138
 10
-4.4191039198
 20
13.1430787778
 10
-4.4367255814
 20
13.1596528842
 10
-4.4548493583
 20
13.1743215381
 10
-4.4732766834
 20
13.1869240242
 10
-4.4918056615
 20
13.1973222628
  0
LWPOLYLINE
  5
442
100
AcDbEntity
  8
IMPORT_IGES
100
AcDbPolyline
 62
7
  6
CONTINUOUS
 90
9
 70
0
 10
3.8157303603
 20
-7.9763291862
 10
3.8171753467
 20
-8.0050343155
 10
3.8210818934
 20
-8.0314658212
 10
3.8274500004
 20
-8.0556237033
 10
3.836419054
 20
-8.0777500488
 10
3.8478496678
 20
-8.0976027706
 10
3.8613236824
 20
-8.1144556086
 10
3.8767017113
 20
-8.1280664758
 10
3.8933757578
 20
-8.1383049394
  0
LWPOLYLINE
  5
443
100
AcDbEntity
  8
0
100
AcDbPolyline
 62
7
  6
CONTINUOUS
 90
4
 70
0
 10
3.1598867233
 20
11.6823950058
 10
3.1595306707
 20
11.6896314083
 10
3.1569430952
 20
11.7036674166
 10
3.1518541851
 20
11.71724577
  0
LWPOLYLINE
  5
444
100
AcDbEntity
  8
IMPORT_IGES
100
AcDbPolyline
 62
253
  6
CONTINUOUS
 90
9
 70
0
 10
4.0985730727
 20
-8.1177505425
 10
4.0998861776
 20
-8.145956915
 10
4.1038092358
 20
-8.1725009858
 10
4.1102936796
 20
-8.1970541374
 10
4.1192592311
 20
-8.2193123999
 10
4.1305948962
 20
-8.2390002147
 10
4.1441603385
 20
-8.255873845
 10
4.1597876169
 20
-8.2697243941
 10
4.1765410284
 20
-8.2800126826
  0
LWPOLYLINE
  5
445
100
AcDbEntity
  8
ASSI
100
AcDbPolyline
 62
7
  6
CONTINUOUS
 90
6
 70
0
 10
2.9709081223
 20
21.7644038912
 10
2.970873732
 20
21.7654075767
 10
2.9701420118
 20
21.7688742918
 10
2.9684987392
 20
21.7717306284
 10
2.965987738
 20
21.7740258969
 10
2.9640922945
 20
21.7751382172
  0
LWPOLYLINE
  5
446
100
AcDbEntity
  8
RACCORDO
100
AcDbPolyline
 62
7
  6
CONTINUOUS
 90
34
 70
0
 10
1.9418973901
 20
17.284436664
 10
1.9416973341
 20
17.2948384726
 10
1.9410970966
 20
17.3054168406
 10
1.9400981386
 20
17.3161478587
 10
1.9387029031
 20
17.3270073119
 10
1.9369145548
 20
17.3379706043
 10
1.9347369735
 20
17.3490128153
 10
1.932175149
 20
17.3601089622
 10
1.9292349747
 20
17.3712339556
 10
1.9259229797
 20
17.382362526
 10
1.9222467026
 20
17.3934694838
 10
1.9182145424
 20
17.404529705
 10
1.913835545
 20
17.4155180863
 10
1.9091196445
 20
17.4264097439
 10
1.9040775745
 20
17.437180031
 10
1.8987207139
 20
17.4478045222
 10
1.8930611896
 20
17.4582591467
 10
1.8871118517
 20
17.4685202368
 10
1.8808861799
 20
17.4785645432
 10
1.8743982474
 20
17.4883692981
 10
1.8676627585
 20
17.4979122953
 10
1.8606950193
 20
17.5071719355
 10
1.8535107623
 20
17.5161272179
 10
1.8461262466
 20
17.5247578499
 10
1.8385582923
 20
17.5330443227
 10
1.8308239707
 20
17.54096783
 10
1.8229407648
 20
17.548510406
 10
1.8149266653
 20
17.5556550298
 10
1.806799735
 20
17.5623854726
 10
1.7985783239
 20
17.5686864611
 10
1.7902812272
 20
17.5745438084
 10
1.7819272338
 20
17.5799442451
 10
1.7735350847
 20
17.5848754497
 10
1.7651236864
 20
17.5893262028
  0
LWPOLYLINE
  5
447
100
AcDbEntity
  8
RACCORDO
100
AcDbPolyline
 62
253
  6
CONTINUOUS
 90
31
 70
0
 10
2.4701645619
 20
17.547875484
 10
2.4699744089
 20
17.5593536037
 10
2.4692974549
 20
17.5710411064
 10
2.4681355551
 20
17.5829059589
 10
2.4664918941
 20
17.5949156418
 10
2.4643709769
 20
17.6070372389
 10
2.4617786165
 20
17.6192375271
 10
2.4587219181
 20
17.6314830677
 10
2.4552092595
 20
17.643740298
 10
2.4512502683
 20
17.6559756233
 10
2.4468557952
 20
17.6681555088
 10
2.4420378849
 20
17.6802465716
 10
2.4368097421
 20
17.6922156726
 10
2.4311856963
 20
17.7040300066
 10
2.425181162
 20
17.7156571927
 10
2.4188125964
 20
17.727065363
 10
2.4120974546
 20
17.7382232499
 10
2.4050541415
 20
17.7491002717
 10
2.3977019616
 20
17.7596666165
 10
2.3900610657
 20
17.7698933239
 10
2.3821523962
 20
17.7797523645
 10
2.3739976291
 20
17.7892167164
 10
2.3656191153
 20
17.7982604397
 10
2.3570398186
 20
17.8068587472
 10
2.3482832533
 20
17.8149880726
 10
2.3393734195
 20
17.8226261349
 10
2.3303347374
 20
17.8297519996
 10
2.3211919802
 20
17.836346136
 10
2.3119702067
 20
17.8423904709
 10
2.3026946918
 20
17.8478684378
 10
2.2933908582
 20
17.8527650228
  0
LINE
  5
448
100
AcDbEntity
  8
RACCORDO
100
AcDbLine
 62
253
  6
CONTINUOUS
 10
2.4701645619
 20
17.547875484
 11
2.4701645619
 21
17.2003439672
  0
LINE
  5
449
100
AcDbEntity
  8
RACCORDO
100
AcDbLine
 62
253
  6
CONTINUOUS
 10
2.4701645619
 20
-24.0992601721
 11
2.4701645619
 21
-24.4467916889
  0
LINE
  5
44A
100
AcDbEntity
  8
RACCORDO
100
AcDbLine
 62
7
  6
CONTINUOUS
 10
2.5423624188
 20
17.6357481162
 11
2.5423624188
 21
17.2882165994
  0
LINE
  5
44B
100
AcDbEntity
  8
RACCORDO
100
AcDbLine
 62
7
  6
CONTINUOUS
 10
2.5423624188
 20
-24.01138754
 11
2.5423624188
 21
-24.3589190567
  0
LINE
  5
44C
100
AcDbEntity
  8
ASSI
100
AcDbLine
 62
253
  6
CONTINUOUS
 10
2.8473140779
 20
20.5283261261
 11
2.8473140779
 21
21.7553760934
  0
LINE
  5
44D
100
AcDbEntity
  8
RACCORDO
100
AcDbLine
 62
7
  6
CONTINUOUS
 10
2.9709081418
 20
20.6764897469
 11
2.9709081418
 21
21.7641772694
  0
LINE
  5
44E
100
AcDbEntity
  8
RACCORDO
100
AcDbLine
 62
7
  6
CONTINUOUS
 10
3.0025575619
 20
15.4184098688
 11
3.0025575619
 21
-22.4982225618
  0
LINE
  5
44F
100
AcDbEntity
  8
0
100
AcDbLine
 62
253
  6
CONTINUOUS
 10
3.03914597
 20
11.465037211
 11
3.03914597
 21
11.5516397513
  0
LINE
  5
450
100
AcDbEntity
  8
0
100
AcDbLine
 62
253
  6
CONTINUOUS
 10
3.1596169117
 20
11.588535205
 11
3.1599409657
 21
11.5957925386
  0
LINE
  5
451
100
AcDbEntity
  8
0
100
AcDbLine
 62
7
  6
CONTINUOUS
 10
3.1599409657
 20
11.5957925386
 11
3.1599409657
 21
11.682395079
  0
LINE
  5
452
100
AcDbEntity
  8
0
100
AcDbLine
 62
253
  6
CONTINUOUS
 10
3.1810705859
 20
11.8138094415
 11
3.1810705859
 21
11.9004119818
  0
LINE
  5
453
100
AcDbEntity
  8
IMPORT_IGES
100
AcDbLine
 62
7
  6
CONTINUOUS
 10
3.310289726
 20
15.6053815622
 11
3.310289726
 21
15.4321764814
  0
LINE
  5
454
100
AcDbEntity
  8
0
100
AcDbLine
 62
7
  6
CONTINUOUS
 10
3.5555100464
 20
11.7461687677
 11
3.5555100464
 21
11.8327713081
  0
LINE
  5
455
100
AcDbEntity
  8
0
100
AcDbLine
 62
7
  6
CONTINUOUS
 10
3.5826871046
 20
11.7597572968
 11
3.5826871046
 21
11.8463598372
  0
LINE
  5
456
100
AcDbEntity
  8
IMPORT_IGES
100
AcDbLine
 62
7
  6
CONTINUOUS
 10
3.8157303603
 20
-5.9280354442
 11
3.8157303603
 21
-7.9763291862
  0
LINE
  5
457
100
AcDbEntity
  8
IMPORT_IGES
100
AcDbLine
 62
7
  6
CONTINUOUS
 10
3.8157303603
 20
4.7498382439
 11
3.8157303603
 21
6.8426412521
  0
LINE
  5
458
100
AcDbEntity
  8
IMPORT_IGES
100
AcDbLine
 62
7
  6
CONTINUOUS
 10
3.9217963774
 20
-2.9349331616
 11
3.9217963774
 21
1.1353862362
  0
LINE
  5
459
100
AcDbEntity
  8
IMPORT_IGES
100
AcDbLine
 62
7
  6
CONTINUOUS
 10
4.0632177337
 20
1.2212503953
 11
4.0632177337
 21
-2.0523677177
  0
LINE
  5
45A
100
AcDbEntity
  8
IMPORT_IGES
100
AcDbLine
 62
253
  6
CONTINUOUS
 10
4.0985730727
 20
-8.1177505427
 11
4.0985730727
 21
-5.786614088
  0
LINE
  5
45B
100
AcDbEntity
  8
IMPORT_IGES
100
AcDbLine
 62
253
  6
CONTINUOUS
 10
4.0985730727
 20
4.6084168877
 11
4.0985730727
 21
6.7012198959
  0
LINE
  5
45C
100
AcDbEntity
  8
IMPORT_IGES
100
AcDbLine
 62
7
  6
CONTINUOUS
 10
4.243457838
 20
15.1387975062
 11
4.243457838
 21
14.9655924254
  0
LINE
  5
45D
100
AcDbEntity
  8
IMPORT_IGES
100
AcDbLine
 62
7
  6
CONTINUOUS
 10
4.2709748984
 20
16.4109697653
 11
4.2709748984
 21
16.3218030792
  0
LWPOLYLINE
  5
45E
100
AcDbEntity
  8
RACCORDO
100
AcDbPolyline
 62
7
  6
CONTINUOUS
 90
22
 70
0
 10
2.284681139
 20
-22.8523863291
 10
2.2840616851
 20
-22.8702322003
 10
2.2828524583
 20
-22.8877731754
 10
2.2810515357
 20
-22.9049778376
 10
2.2786576398
 20
-22.921812893
 10
2.2756714674
 20
-22.9382499107
 10
2.272094793
 20
-22.9542647008
 10
2.2679305831
 20
-22.9698214136
 10
2.2631802398
 20
-22.9848956995
 10
2.257841386
 20
-22.9994783203
 10
2.2519153096
 20
-23.0135396274
 10
2.2454061066
 20
-23.0270464881
 10
2.2383129473
 20
-23.0399806833
 10
2.2306331561
 20
-23.0523201545
 10
2.2223779012
 20
-23.0640219048
 10
2.2135696295
 20
-23.0750381231
 10
2.2042149239
 20
-23.0853456092
 10
2.1943288252
 20
-23.0949135252
 10
2.1839547541
 20
-23.1036933124
 10
2.173108712
 20
-23.1116687771
 10
2.1618114225
 20
-23.1188220731
 10
2.1500361981
 20
-23.1251615413
  0
LINE
  5
45F
100
AcDbEntity
  8
0
100
AcDbLine
 62
7
  6
CONTINUOUS
 10
3.1596169117
 20
11.6751377453
 11
3.1598867233
 21
11.6823950058
  0
LINE
  5
460
100
AcDbEntity
  8
0
100
AcDbLine
 62
7
  6
CONTINUOUS
 10
3.1596169117
 20
11.588535205
 11
3.1598867233
 21
11.5957924655
  0
LWPOLYLINE
  5
461
100
AcDbEntity
  8
RACCORDO
100
AcDbPolyline
 62
253
  6
CONTINUOUS
 90
16
 70
0
 10
2.5423624188
 20
-24.3589190535
 10
2.5420611483
 20
-24.3650538856
 10
2.5410814297
 20
-24.3715568338
 10
2.5394247407
 20
-24.378025398
 10
2.5370955892
 20
-24.3844419647
 10
2.534100309
 20
-24.3907890758
 10
2.5304470501
 20
-24.3970494526
 10
2.526145752
 20
-24.4032060558
 10
2.5212081195
 20
-24.4092421262
 10
2.5156475942
 20
-24.4151412287
 10
2.5094793051
 20
-24.4208873101
 10
2.5027200438
 20
-24.4264647258
 10
2.4953882299
 20
-24.4318582781
 10
2.4875038318
 20
-24.4370532825
 10
2.479088306
 20
-24.442035606
 10
2.4701645619
 20
-24.4467916889
  0
LWPOLYLINE
  5
462
100
AcDbEntity
  8
RACCORDO
100
AcDbPolyline
 62
253
  6
CONTINUOUS
 90
16
 70
0
 10
2.5423624188
 20
-24.01138754
 10
2.5420591978
 20
-24.0175421842
 10
2.541077692
 20
-24.0240436935
 10
2.5394195142
 20
-24.0305107695
 10
2.5370891757
 20
-24.0369258175
 10
2.5340930165
 20
-24.0432713844
 10
2.5304391883
 20
-24.0495302058
 10
2.5261376319
 20
-24.0556852537
 10
2.5212000504
 20
-24.0617197821
 10
2.5156398773
 20
-24.0676173731
 10
2.5094722401
 20
-24.0733619813
 10
2.5027139188
 20
-24.0789379775
 10
2.4953833006
 20
-24.0843301914
 10
2.4875003296
 20
-24.0895239524
 10
2.4790864529
 20
-24.09450513
 10
2.4701645619
 20
-24.0992601721
  0
LWPOLYLINE
  5
463
100
AcDbEntity
  8
IMPORT_IGES
100
AcDbPolyline
 62
7
  6
CONTINUOUS
 90
10
 70
0
 10
7.1439438337
 20
10.616135043
 10
7.141697088
 20
10.6103169068
 10
7.1397063438
 20
10.6045034044
 10
7.1379716011
 20
10.598694536
 10
7.1364881549
 20
10.5928677302
 10
7.1352607102
 20
10.5870455583
 10
7.1343033821
 20
10.581295734
 10
7.1336208755
 20
10.5756408285
 10
7.1332084854
 20
10.5700582706
 10
7.1330662119
 20
10.5645480602
  0
LINE
  5
464
100
AcDbEntity
  8
IMPORT_IGES
100
AcDbLine
 62
7
  6
CONTINUOUS
 10
7.3003753155
 20
11.0018333482
 11
7.213783987
 21
10.7874735075
  0
LINE
  5
465
100
AcDbEntity
  8
IMPORT_IGES
100
AcDbLine
 62
7
  6
CONTINUOUS
 10
7.213783987
 20
10.7874735075
 11
7.1439438337
 21
10.616135043
  0
LWPOLYLINE
  5
466
100
AcDbEntity
  8
IMPORT_IGES
100
AcDbPolyline
 62
253
  6
CONTINUOUS
 90
5
 70
0
 10
4.5228371414
 20
2.6987033329
 10
4.5066903014
 20
2.6634575732
 10
4.4871873103
 20
2.6306146602
 10
4.4646581423
 20
2.6007390811
 10
4.4521264633
 20
2.5875999776
  0
LWPOLYLINE
  5
467
100
AcDbEntity
  8
IMPORT_IGES
100
AcDbPolyline
 62
7
  6
CONTINUOUS
 90
12
 70
0
 10
5.7602740085
 20
2.3994348384
 10
5.727813921
 20
2.3649183421
 10
5.6927442606
 20
2.3335659866
 10
5.6556401434
 20
2.3059113585
 10
5.6169735815
 20
2.2824188415
 10
5.5774748778
 20
2.2633245768
 10
5.5381049214
 20
2.248671607
 10
5.4995130967
 20
2.2385374023
 10
5.4621592113
 20
2.2329526517
 10
5.4266708596
 20
2.2317929286
 10
5.3935585783
 20
2.2349025507
 10
5.3765612806
 20
2.2383486836
  0
LWPOLYLINE
  5
468
100
AcDbEntity
  8
IMPORT_IGES
100
AcDbPolyline
 62
253
  6
CONTINUOUS
 90
10
 70
0
 10
18.075708502
 20
10.0529849725
 10
18.0808818349
 20
10.0568650369
 10
18.0851582411
 20
10.0667132387
 10
18.0886433769
 20
10.0825426494
 10
18.0911530745
 20
10.1037436295
 10
18.092593449
 20
10.1292081891
 10
18.0929627827
 20
10.1591784525
 10
18.0921761938
 20
10.1928137084
 10
18.090288099
 20
10.227754684
 10
18.0874823659
 20
10.2621498389
  0
LWPOLYLINE
  5
469
100
AcDbEntity
  8
IMPORT_IGES
100
AcDbPolyline
 62
253
  6
CONTINUOUS
 90
3
 70
0
 10
18.0306289441
 20
10.0509949915
 10
18.0163362094
 20
10.0403990071
 10
18.0125373489
 20
10.0383594731
  0
LWPOLYLINE
  5
46A
100
AcDbEntity
  8
RACCORDO
100
AcDbPolyline
 62
7
  6
CONTINUOUS
 90
27
 70
0
 10
-10.155065339
 20
-9.2996825261
 10
-10.1674055103
 20
-9.3068358225
 10
-10.1791572665
 20
-9.3146466876
 10
-10.1903060013
 20
-9.3230864335
 10
-10.2008208543
 20
-9.3321360594
 10
-10.2107069629
 20
-9.3417581634
 10
-10.220005471
 20
-9.3518967834
 10
-10.2287046547
 20
-9.3625221848
 10
-10.2367973179
 20
-9.373609774
 10
-10.2443328822
 20
-9.3851124995
 10
-10.2513045159
 20
-9.397002868
 10
-10.2577058844
 20
-9.409258802
 10
-10.2635880293
 20
-9.4218438804
 10
-10.2689476272
 20
-9.4347339708
 10
-10.2737792839
 20
-9.4479093886
 10
-10.2781311903
 20
-9.4613433594
 10
-10.282002208
 20
-9.4750153537
 10
-10.2853879855
 20
-9.4889078256
 10
-10.288331669
 20
-9.5030013479
 10
-10.2908333055
 20
-9.5172784773
 10
-10.2928896261
 20
-9.5317237502
 10
-10.2945382625
 20
-9.5463232045
 10
-10.2957798786
 20
-9.5610622243
 10
-10.2966121262
 20
-9.575926964
 10
-10.2970674139
 20
-9.5909066493
 10
-10.297146661
 20
-9.6059888136
 10
-10.2948414567
 20
-9.8275311182
  0
LWPOLYLINE
  5
46B
100
AcDbEntity
  8
RACCORDO
100
AcDbPolyline
 62
7
  6
CONTINUOUS
 90
26
 70
0
 10
-9.3538131743
 20
-8.326806638
 10
-9.3661550095
 20
-8.3339109429
 10
-9.3779098197
 20
-8.3416742399
 10
-9.3890629422
 20
-8.3500678691
 10
-9.3995834587
 20
-8.3590728512
 10
-9.40947645
 20
-8.3686518038
 10
-9.4187830059
 20
-8.3787487816
 10
-9.4274913415
 20
-8.3893340667
 10
-9.4355942044
 20
-8.4003830615
 10
-9.4431409688
 20
-8.4118486951
 10
-9.4501247454
 20
-8.4237034773
 10
-9.4565391452
 20
-8.435925321
 10
-9.4624351738
 20
-8.4484777642
 10
-9.4678094552
 20
-8.4613366687
 10
-9.4726565452
 20
-8.4744823369
 10
-9.4770246093
 20
-8.4878879461
 10
-9.4809124627
 20
-8.5015329553
 10
-9.4843157085
 20
-8.5153998045
 10
-9.4872774761
 20
-8.5294690187
 10
-9.4897977719
 20
-8.5437231407
 10
-9.4918732862
 20
-8.5581466923
 10
-9.4935416405
 20
-8.5727256679
 10
-9.4948034637
 20
-8.5874454366
 10
-9.4956563708
 20
-8.6022921383
 10
-9.496132764
 20
-8.6172549619
 10
-9.4962258996
 20
-8.6334090665
  0
LWPOLYLINE
  5
46C
100
AcDbEntity
  8
IMPORT_IGES
100
AcDbPolyline
 62
253
  6
CONTINUOUS
 90
7
 70
0
 10
18.558906748
 20
6.7004184912
 10
18.5847807157
 20
6.7151702941
 10
18.6065823348
 20
6.7314845084
 10
18.6239385734
 20
6.7490819935
 10
18.6365524615
 20
6.7676616516
 10
18.644208172
 20
6.7869055796
 10
18.6467747136
 20
6.8064845084
  0
LINE
  5
46D
100
AcDbEntity
  8
RACCORDO
100
AcDbLine
 62
7
  6
CONTINUOUS
 10
-8.5939936496
 20
-7.9319954104
 11
-9.3504741759
 21
-8.3250520849
  0
LINE
  5
46E
100
AcDbEntity
  8
RACCORDO
100
AcDbLine
 62
7
  6
CONTINUOUS
 10
-9.4936723227
 20
-8.9559968968
 11
-10.150604084
 21
-9.2973294289
  0
LINE
  5
46F
100
AcDbEntity
  8
IMPORT_IGES
100
AcDbLine
 62
7
  6
CONTINUOUS
 10
15.8365456404
 20
5.1521054507
 11
5.7602740085
 21
0.1139696348
  0
LINE
  5
470
100
AcDbEntity
  8
IMPORT_IGES
100
AcDbLine
 62
7
  6
CONTINUOUS
 10
15.7974875229
 20
5.1239589227
 11
15.7302762981
 21
5.0903533103
  0
LINE
  5
471
100
AcDbEntity
  8
IMPORT_IGES
100
AcDbLine
 62
7
  6
CONTINUOUS
 10
15.8082613692
 20
5.0513607747
 11
5.7602740085
 21
0.0273670944
  0
LINE
  5
472
100
AcDbEntity
  8
IMPORT_IGES
100
AcDbLine
 62
253
  6
CONTINUOUS
 10
18.6467747136
 20
6.3263956254
 11
18.9977953553
 21
6.5019028872
  0
LINE
  5
473
100
AcDbEntity
  8
IMPORT_IGES
100
AcDbLine
 62
7
  6
CONTINUOUS
 10
-7.5300722328
 20
-6.7866736902
 11
-8.4525722933
 21
-7.2479237205
  0
LINE
  5
474
100
AcDbEntity
  8
IMPORT_IGES
100
AcDbLine
 62
253
  6
CONTINUOUS
 10
19.1937686117
 20
6.0446514901
 11
18.7695045431
 21
5.832519456
  0
LINE
  5
475
100
AcDbEntity
  8
IMPORT_IGES
100
AcDbLine
 62
7
  6
CONTINUOUS
 10
-8.540440259
 20
-7.8387019504
 11
-9.2480674222
 21
-8.192515532
  0
LINE
  5
476
100
AcDbEntity
  8
IMPORT_IGES
100
AcDbLine
 62
7
  6
CONTINUOUS
 10
4.841035193
 20
-2.5321393077
 11
4.4521264633
 21
-2.7265936725
  0
LINE
  5
477
100
AcDbEntity
  8
IMPORT_IGES
100
AcDbLine
 62
7
  6
CONTINUOUS
 10
4.0632177337
 20
-2.0523677177
 11
3.9217963774
 21
-2.1200550899
  0
LINE
  5
478
100
AcDbEntity
  8
IMPORT_IGES
100
AcDbLine
 62
7
  6
CONTINUOUS
 10
3.9217963774
 20
-2.9349331616
 11
4.4521264633
 21
-2.7265936725
  0
LINE
  5
479
100
AcDbEntity
  8
IMPORT_IGES
100
AcDbLine
 62
7
  6
CONTINUOUS
 10
4.4521264633
 20
2.332376833
 11
5.6895633304
 21
2.0760952665
  0
LINE
  5
47A
100
AcDbEntity
  8
IMPORT_IGES
100
AcDbLine
 62
7
  6
CONTINUOUS
 10
4.4521264633
 20
2.4619185193
 11
5.3787133197
 21
2.2378276902
  0
LINE
  5
47B
100
AcDbEntity
  8
IMPORT_IGES
100
AcDbLine
 62
253
  6
CONTINUOUS
 10
5.7602740085
 20
2.3994348384
 11
4.5228371414
 21
2.6987033329
  0
LINE
  5
47C
100
AcDbEntity
  8
ASSI
100
AcDbLine
 62
7
  6
CONTINUOUS
 10
-5.4166664251
 20
6.927204148
 11
-18.8516952677
 21
13.6447185693
  0
LINE
  5
47D
100
AcDbEntity
  8
RACCORDO
100
AcDbLine
 62
7
  6
CONTINUOUS
 10
-5.5229205266
 20
7.032728924
 11
-18.6796867179
 21
13.6111120196
  0
LINE
  5
47E
100
AcDbEntity
  8
RACCORDO
100
AcDbLine
 62
253
  6
CONTINUOUS
 10
-5.6218761154
 20
7.1260364174
 11
-18.6326408893
 21
13.6314188043
  0
LINE
  5
47F
100
AcDbEntity
  8
IMPORT_IGES
100
AcDbLine
 62
7
  6
CONTINUOUS
 10
5.6895633304
 20
2.0760952665
 11
5.3542805965
 21
2.2437366335
  0
LWPOLYLINE
  5
480
100
AcDbEntity
  8
RACCORDO
100
AcDbPolyline
 62
7
  6
CONTINUOUS
 90
3
 70
0
 10
-18.6972216914
 20
13.6206340983
 10
-18.683222091
 20
13.612905573
 10
-18.6796736647
 20
13.6111056765
  0
LWPOLYLINE
  5
481
100
AcDbEntity
  8
RACCORDO
100
AcDbPolyline
 62
7
  6
CONTINUOUS
 90
5
 70
0
 10
-5.5174876251
 20
7.0307670651
 10
-5.5310321632
 20
7.0392641574
 10
-5.5440961376
 20
7.0484459827
 10
-5.5566724044
 20
7.0582361636
 10
-5.5687676293
 20
7.0685457982
  0
LWPOLYLINE
  5
482
100
AcDbEntity
  8
RACCORDO
100
AcDbPolyline
 62
253
  6
CONTINUOUS
 90
14
 70
0
 10
-10.8941536026
 20
23.8825030495
 10
-10.8898059119
 20
23.8751499519
 10
-10.8859556657
 20
23.8680569124
 10
-10.8826133789
 20
23.8612433016
 10
-10.8797881812
 20
23.8547277325
 10
-10.8774877852
 20
23.8485279932
 10
-10.8757184695
 20
23.8426610011
 10
-10.8744850682
 20
23.837142771
 10
-10.8737909575
 20
23.8319883874
 10
-10.8736380365
 20
23.8272119449
 10
-10.8740267205
 20
23.8228264927
 10
-10.8749559459
 20
23.8188439997
 10
-10.876423175
 20
23.8152753377
 10
-10.8783925726
 20
23.8121802736
  0
LWPOLYLINE
  5
483
100
AcDbEntity
  8
IMPORT_IGES
100
AcDbPolyline
 62
7
  6
CONTINUOUS
 90
13
 70
0
 10
4.4521264633
 20
4.2584351116
 10
4.4506506722
 20
4.2826733147
 10
4.4470036292
 20
4.3067618094
 10
4.4411853342
 20
4.3307005957
 10
4.433026763
 20
4.354841806
 10
4.4226969399
 20
4.3788333079
 10
4.4107029378
 20
4.4016187047
 10
4.3969952701
 20
4.4231621311
 10
4.3816234234
 20
4.4434994523
 10
4.3652429305
 20
4.461681867
 10
4.3480723023
 20
4.477393108
 10
4.3298930278
 20
4.4909494425
 10
4.3107051071
 20
4.5023508705
  0
LWPOLYLINE
  5
484
100
AcDbEntity
  8
IMPORT_IGES
100
AcDbPolyline
 62
253
  6
CONTINUOUS
 90
13
 70
0
 10
5.9051273091
 20
10.8863309513
 10
5.9033381761
 20
10.9208913605
 10
5.8979899894
 20
10.9567194054
 10
5.8891552938
 20
10.993213495
 10
5.8769631573
 20
11.0297649229
 10
5.8616067459
 20
11.0657396321
 10
5.8433485266
 20
11.1004913349
 10
5.8224962809
 20
11.1334166904
 10
5.799399332
 20
11.1639487503
 10
5.7744603107
 20
11.1915439329
 10
5.7481099311
 20
11.2157194242
 10
5.7207968173
 20
11.2360577312
 10
5.6929907793
 20
11.2522023418
  0
LINE
  5
485
100
AcDbEntity
  8
IMPORT_IGES
100
AcDbLine
 62
7
  6
CONTINUOUS
 10
4.4521264633
 20
-3.6015936725
 11
4.4521264633
 21
-5.5276519511
  0
LINE
  5
486
100
AcDbEntity
  8
IMPORT_IGES
100
AcDbLine
 62
7
  6
CONTINUOUS
 10
4.4521264633
 20
2.332376833
 11
4.4521264633
 21
4.2584351116
  0
LINE
  5
487
100
AcDbEntity
  8
IMPORT_IGES
100
AcDbLine
 62
253
  6
CONTINUOUS
 10
4.5228371414
 20
6.7012198959
 11
4.5228371414
 21
2.6987033329
  0
LINE
  5
488
100
AcDbEntity
  8
IMPORT_IGES
100
AcDbLine
 62
253
  6
CONTINUOUS
 10
4.5228371414
 20
-3.5436561037
 11
4.5228371414
 21
-8.1177505425
  0
LINE
  5
489
100
AcDbEntity
  8
IMPORT_IGES
100
AcDbLine
 62
7
  6
CONTINUOUS
 10
4.6815147316
 20
14.9197690594
 11
4.6815147316
 21
14.7465639786
  0
LINE
  5
48A
100
AcDbEntity
  8
IMPORT_IGES
100
AcDbLine
 62
7
  6
CONTINUOUS
 10
4.8188921441
 20
16.8048417875
 11
4.8188921441
 21
16.7989403504
  0
LINE
  5
48B
100
AcDbEntity
  8
IMPORT_IGES
100
AcDbLine
 62
7
  6
CONTINUOUS
 10
4.841035193
 20
1.6518311978
 11
4.841035193
 21
-2.5321393077
  0
LINE
  5
48C
100
AcDbEntity
  8
IMPORT_IGES
100
AcDbLine
 62
7
  6
CONTINUOUS
 10
5.5623378499
 20
14.4793575002
 11
5.5623378499
 21
14.3061524195
  0
LINE
  5
48D
100
AcDbEntity
  8
IMPORT_IGES
100
AcDbLine
 62
7
  6
CONTINUOUS
 10
5.6895633304
 20
2.0760952665
 11
5.6895633304
 21
-2.107875239
  0
LINE
  5
48E
100
AcDbEntity
  8
IMPORT_IGES
100
AcDbLine
 62
253
  6
CONTINUOUS
 10
5.7602740085
 20
2.3994348384
 11
5.7602740085
 21
0.1139696348
  0
LINE
  5
48F
100
AcDbEntity
  8
IMPORT_IGES
100
AcDbLine
 62
253
  6
CONTINUOUS
 10
5.7602740085
 20
0.0273670944
 11
5.7602740085
 21
-2.0069507422
  0
LINE
  5
490
100
AcDbEntity
  8
IMPORT_IGES
100
AcDbLine
 62
253
  6
CONTINUOUS
 10
5.9051273092
 20
10.8863309513
 11
5.9051273092
 21
10.4188047426
  0
LINE
  5
491
100
AcDbEntity
  8
IMPORT_IGES
100
AcDbLine
 62
7
  6
CONTINUOUS
 10
5.9929952748
 20
10.9923969685
 11
5.9929952748
 21
10.5210167827
  0
LINE
  5
492
100
AcDbEntity
  8
IMPORT_IGES
100
AcDbLine
 62
7
  6
CONTINUOUS
 10
6.0047215299
 20
14.0849605795
 11
6.0047215299
 21
14.2581656602
  0
LINE
  5
493
100
AcDbEntity
  8
IMPORT_IGES
100
AcDbLine
 62
7
  6
CONTINUOUS
 10
6.096656018
 20
16.3332634942
 11
6.096656018
 21
16.2565681728
  0
LINE
  5
494
100
AcDbEntity
  8
IMPORT_IGES
100
AcDbLine
 62
7
  6
CONTINUOUS
 10
6.4344600193
 20
13.8699640556
 11
6.4344600193
 21
14.0431691363
  0
LWPOLYLINE
  5
495
100
AcDbEntity
  8
IMPORT_IGES
100
AcDbPolyline
 62
253
  6
CONTINUOUS
 90
9
 70
0
 10
5.7316419117
 20
-8.4599648423
 10
5.7309174155
 20
-8.4810567137
 10
5.7287085777
 20
-8.5015545996
 10
5.7249701923
 20
-8.5212748523
 10
5.7196684332
 20
-8.5400294169
 10
5.7127825162
 20
-8.5576263689
 10
5.7043063128
 20
-8.5738721822
 10
5.694248994
 20
-8.5885754174
 10
5.682635857
 20
-8.6015487594
  0
LWPOLYLINE
  5
496
100
AcDbEntity
  8
IMPORT_IGES
100
AcDbPolyline
 62
253
  6
CONTINUOUS
 90
9
 70
0
 10
7.5532852212
 20
12.1790871188
 10
7.5500951
 20
12.1629106179
 10
7.5448860413
 20
12.1466246314
 10
7.5378163199
 20
12.1307240008
 10
7.5291007456
 20
12.1156918588
 10
7.5190041368
 20
12.1019849493
 10
7.507833274
 20
12.0900197498
 10
7.4959275782
 20
12.0801598168
 10
7.4836487978
 20
12.0727047394
  0
LINE
  5
497
100
AcDbEntity
  8
IMPORT_IGES
100
AcDbLine
 62
253
  6
CONTINUOUS
 10
12.5726543239
 20
14.9234521482
 11
12.5777588213
 21
14.9342161596
  0
LINE
  5
498
100
AcDbEntity
  8
IMPORT_IGES
100
AcDbLine
 62
253
  6
CONTINUOUS
 10
4.5228371414
 20
-3.5436561037
 11
5.312094744
 21
-2.5635201293
  0
LINE
  5
499
100
AcDbEntity
  8
IMPORT_IGES
100
AcDbLine
 62
253
  6
CONTINUOUS
 10
5.6895633304
 20
-2.0947624771
 11
5.7602740085
 21
-2.0069507422
  0
LINE
  5
49A
100
AcDbEntity
  8
IMPORT_IGES
100
AcDbLine
 62
7
  6
CONTINUOUS
 10
5.6895633304
 20
-2.107875239
 11
4.4521264633
 21
-3.6015936725
  0
LWPOLYLINE
  5
49B
100
AcDbEntity
  8
IMPORT_IGES
100
AcDbPolyline
 62
253
  6
CONTINUOUS
 90
10
 70
0
 10
17.5973114875
 20
11.6615461036
 10
17.588953563
 20
11.6525440001
 10
17.5787010816
 20
11.6427411668
 10
17.5668655598
 20
11.632435458
 10
17.5538066139
 20
11.6219400073
 10
17.5399210334
 20
11.6115737138
 10
17.5256307247
 20
11.6016515519
 10
17.5113698914
 20
11.5924750015
 10
17.497571842
 20
11.5843228876
 10
17.484655823
 20
11.5774429079
  0
LINE
  5
49C
100
AcDbEntity
  8
IMPORT_IGES
100
AcDbLine
 62
253
  6
CONTINUOUS
 10
19.2440870895
 20
10.173523594
 11
19.222763753
 21
10.1535804909
  0
LINE
  5
49D
100
AcDbEntity
  8
IMPORT_IGES
100
AcDbLine
 62
7
  6
CONTINUOUS
 10
3.7382319167
 20
4.7885874657
 11
4.3107051071
 21
4.5023508705
  0
LWPOLYLINE
  5
49E
100
AcDbEntity
  8
IMPORT_IGES
100
AcDbPolyline
 62
253
  6
CONTINUOUS
 90
6
 70
0
 10
15.6222498051
 20
-3.5146608956
 10
15.6397679528
 20
-3.5277524295
 10
15.6535268783
 20
-3.5389102445
 10
15.6632466713
 20
-3.5479214659
 10
15.6687136056
 20
-3.5546100885
 10
15.6696537644
 20
-3.5590643426
  0
LWPOLYLINE
  5
49F
100
AcDbEntity
  8
0
100
AcDbPolyline
 62
7
  6
CONTINUOUS
 90
3
 70
0
 10
3.0025575619
 20
11.736003228
 10
3.0041857077
 20
11.7289128468
 10
3.0044214895
 20
11.7232282346
  0
LWPOLYLINE
  5
4A0
100
AcDbEntity
  8
IMPORT_IGES
100
AcDbPolyline
 62
7
  6
CONTINUOUS
 90
10
 70
0
 10
5.9929952748
 20
10.9923969685
 10
5.9905220726
 20
11.0308340511
 10
5.9830398094
 20
11.069038428
 10
5.9705569442
 20
11.1062368545
 10
5.95320305
 20
11.1417016637
 10
5.9312850148
 20
11.1746550059
 10
5.9052592144
 20
11.2043970154
 10
5.8754073553
 20
11.2305687427
 10
5.842360434
 20
11.2525700796
 10
5.8268131538
 20
11.260897945
  0
LWPOLYLINE
  5
4A1
100
AcDbEntity
  8
IMPORT_IGES
100
AcDbPolyline
 62
253
  6
CONTINUOUS
 90
10
 70
0
 10
8.3705030817
 20
9.8561950447
 10
8.3703682005
 20
9.8655258862
 10
8.3699637284
 20
9.8749797431
 10
8.3692901796
 20
9.8845445932
 10
8.3683483697
 20
9.8942086414
 10
8.3671395171
 20
9.9039592365
 10
8.3656653434
 20
9.9137828568
 10
8.3639278846
 20
9.9236666129
 10
8.3619293876
 20
9.9335982938
 10
8.3596724807
 20
9.9435652637
  0
LINE
  5
4A2
100
AcDbEntity
  8
IMPORT_IGES
100
AcDbLine
 62
7
  6
CONTINUOUS
 10
6.5993057019
 20
16.0819386523
 11
6.5993057019
 21
15.9087335715
  0
LINE
  5
4A3
100
AcDbEntity
  8
IMPORT_IGES
100
AcDbLine
 62
7
  6
CONTINUOUS
 10
6.8772092735
 20
13.8217945092
 11
6.8772092735
 21
13.6485894285
  0
LINE
  5
4A4
100
AcDbEntity
  8
IMPORT_IGES
100
AcDbLine
 62
7
  6
CONTINUOUS
 10
7.0416420057
 20
13.7397054223
 11
7.0416420057
 21
13.5665003416
  0
LINE
  5
4A5
100
AcDbEntity
  8
IMPORT_IGES
100
AcDbLine
 62
7
  6
CONTINUOUS
 10
7.1330662119
 20
10.5645480602
 11
7.1330662142
 21
10.439558139
  0
LINE
  5
4A6
100
AcDbEntity
  8
IMPORT_IGES
100
AcDbLine
 62
7
  6
CONTINUOUS
 10
7.2787950135
 20
15.7421939964
 11
7.2787950135
 21
15.5689889157
  0
LINE
  5
4A7
100
AcDbEntity
  8
RACCORDO
100
AcDbLine
 62
7
  6
CONTINUOUS
 10
7.3101259971
 20
-16.8056882725
 11
7.3101259971
 21
-15.9669909729
  0
LINE
  5
4A8
100
AcDbEntity
  8
RACCORDO
100
AcDbLine
 62
7
  6
CONTINUOUS
 10
7.3101259971
 20
18.7217454684
 11
7.3101259971
 21
18.9540948639
  0
LINE
  5
4A9
100
AcDbEntity
  8
IMPORT_IGES
100
AcDbLine
 62
7
  6
CONTINUOUS
 10
7.4840893253
 20
13.5184817625
 11
7.4840893253
 21
13.3452766818
  0
LINE
  5
4AA
100
AcDbEntity
  8
RACCORDO
100
AcDbLine
 62
253
  6
CONTINUOUS
 10
7.5582703208
 20
19.5826046354
 11
7.5582703208
 21
19.0852746784
  0
LINE
  5
4AB
100
AcDbEntity
  8
RACCORDO
100
AcDbLine
 62
253
  6
CONTINUOUS
 10
7.5582703208
 20
-17.2734305729
 11
7.5582703208
 21
-17.7707605298
  0
LINE
  5
4AC
100
AcDbEntity
  8
RACCORDO
100
AcDbLine
 62
7
  6
CONTINUOUS
 10
7.6986004206
 20
19.8831091441
 11
7.6986004206
 21
19.261538752
  0
LINE
  5
4AD
100
AcDbEntity
  8
RACCORDO
100
AcDbLine
 62
7
  6
CONTINUOUS
 10
7.6986004206
 20
-17.1023654612
 11
7.6986004206
 21
-17.7239358533
  0
LINE
  5
4AE
100
AcDbEntity
  8
IMPORT_IGES
100
AcDbLine
 62
7
  6
CONTINUOUS
 10
8.3050664612
 20
13.1079931946
 11
8.3050664612
 21
12.9347881138
  0
LINE
  5
4AF
100
AcDbEntity
  8
IMPORT_IGES
100
AcDbLine
 62
7
  6
CONTINUOUS
 10
8.3173057725
 20
15.222938617
 11
8.3173057725
 21
15.0497335362
  0
LINE
  5
4B0
100
AcDbEntity
  8
IMPORT_IGES
100
AcDbLine
 62
253
  6
CONTINUOUS
 10
8.3705030817
 20
9.7285979207
 11
8.3705030817
 21
9.8561950447
  0
LWPOLYLINE
  5
4B1
100
AcDbEntity
  8
RACCORDO
100
AcDbPolyline
 62
7
  6
CONTINUOUS
 90
17
 70
0
 10
7.3101259971
 20
18.7217454684
 10
7.3097800866
 20
18.7059935469
 10
7.3087716099
 20
18.6907097203
 10
7.3071005667
 20
18.6758939888
 10
7.3047574969
 20
18.6615074074
 10
7.3017518607
 20
18.6475889211
 10
7.2981120392
 20
18.6342553639
 10
7.2938322205
 20
18.6215124819
 10
7.2889182166
 20
18.6093545291
 10
7.2834158437
 20
18.5978811022
 10
7.2773217218
 20
18.5871003061
 10
7.2706392309
 20
18.5770040358
 10
7.2634243283
 20
18.5676675736
 10
7.2556694408
 20
18.5590946244
 10
7.2473821415
 20
18.5512814832
 10
7.2386411076
 20
18.5442923172
 10
7.2376895623
 20
18.5436012867
  0
LWPOLYLINE
  5
4B2
100
AcDbEntity
  8
IMPORT_IGES
100
AcDbPolyline
 62
253
  6
CONTINUOUS
 90
17
 70
0
 10
8.0515445823
 20
12.4095395098
 10
8.050307159
 20
12.3911651671
 10
8.0433683817
 20
12.3730777536
 10
8.0310298131
 20
12.3552802566
 10
8.014024439
 20
12.3389055265
 10
7.9920103353
 20
12.3240319944
 10
7.9653294261
 20
12.3105812291
 10
7.9357404697
 20
12.2994507874
 10
7.9030974404
 20
12.2908051383
 10
7.8675463639
 20
12.2844798129
 10
7.8312840753
 20
12.2808789611
 10
7.7942316827
 20
12.2801623218
 10
7.756468078
 20
12.2821701561
 10
7.7204267717
 20
12.2868273976
 10
7.686918934
 20
12.294109024
 10
7.6551333948
 20
12.3040400576
 10
7.625070154
 20
12.3166204983
  0
LWPOLYLINE
  5
4B3
100
AcDbEntity
  8
IMPORT_IGES
100
AcDbPolyline
 62
253
  6
CONTINUOUS
 90
10
 70
0
 10
7.5532852212
 20
12.1790871188
 10
7.55543373
 20
12.2102381192
 10
7.5586238516
 20
12.22641462
 10
7.5638329104
 20
12.2427006063
 10
7.570902632
 20
12.2586012368
 10
7.5796182062
 20
12.2736333788
 10
7.5897148149
 20
12.2873402884
 10
7.6008856777
 20
12.2993054879
 10
7.6127913736
 20
12.3091654209
 10
7.625070154
 20
12.3166204983
  0
LWPOLYLINE
  5
4B4
100
AcDbEntity
  8
IMPORT_IGES
100
AcDbPolyline
 62
253
  6
CONTINUOUS
 90
9
 70
0
 10
11.5835386084
 20
14.1942138124
 10
11.5803484872
 20
14.1780373115
 10
11.5751394285
 20
14.161751325
 10
11.5680697071
 20
14.1458506945
 10
11.5593541328
 20
14.1308185524
 10
11.549257524
 20
14.1171116429
 10
11.5380866612
 20
14.1051464434
 10
11.5261809654
 20
14.0952865104
 10
11.513902185
 20
14.087831433
  0
LWPOLYLINE
  5
4B5
100
AcDbEntity
  8
IMPORT_IGES
100
AcDbPolyline
 62
253
  6
CONTINUOUS
 90
12
 70
0
 10
4.5228371414
 20
-8.1177505425
 10
4.5061195842
 20
-8.1528475929
 10
4.4860555737
 20
-8.1855436961
 10
4.46298484
 20
-8.2152769865
 10
4.4372957974
 20
-8.2415384132
 10
4.4094286322
 20
-8.2638703709
 10
4.3798703593
 20
-8.2818798433
 10
4.3491264856
 20
-8.2952589815
 10
4.3177250437
 20
-8.3037781404
 10
4.2862195873
 20
-8.3072912602
 10
4.2551542483
 20
-8.3057466739
 10
4.2289700317
 20
-8.3003354863
  0
LWPOLYLINE
  5
4B6
100
AcDbEntity
  8
IMPORT_IGES
100
AcDbPolyline
 62
7
  6
CONTINUOUS
 90
8
 70
0
 10
4.4002412752
 20
-5.6357278511
 10
4.4107029378
 20
-5.6294120187
 10
4.4226969399
 20
-5.618620624
 10
4.433026763
 20
-5.6049589452
 10
4.4411853342
 20
-5.5889763061
 10
4.4470036292
 20
-5.5708558147
 10
4.4506506722
 20
-5.5504143631
 10
4.4521264633
 20
-5.5276519511
  0
LWPOLYLINE
  5
4B7
100
AcDbEntity
  8
IMPORT_IGES
100
AcDbPolyline
 62
253
  6
CONTINUOUS
 90
7
 70
0
 10
18.558906748
 20
0.5026327898
 10
18.5847807157
 20
0.5173845926
 10
18.6065823348
 20
0.533698807
 10
18.6239385734
 20
0.5512962921
 10
18.6365524615
 20
0.5698759502
 10
18.644208172
 20
0.5891198781
 10
18.6467747136
 20
0.608698807
  0
LINE
  5
4B8
100
AcDbEntity
  8
IMPORT_IGES
100
AcDbLine
 62
253
  6
CONTINUOUS
 10
4.4521264633
 20
-5.5276519511
 11
3.0025575619
 21
-6.2524364019
  0
LINE
  5
4B9
100
AcDbEntity
  8
IMPORT_IGES
100
AcDbLine
 62
7
  6
CONTINUOUS
 10
3.0025575619
 20
-6.3346218434
 11
4.4001478262
 21
-5.6358267112
  0
LINE
  5
4BA
100
AcDbEntity
  8
IMPORT_IGES
100
AcDbLine
 62
253
  6
CONTINUOUS
 10
17.4830585554
 20
-0.0352913063
 11
18.558906748
 21
0.5026327902
  0
LINE
  5
4BB
100
AcDbEntity
  8
IMPORT_IGES
100
AcDbLine
 62
7
  6
CONTINUOUS
 10
17.5772712095
 20
-0.5470427394
 11
18.2054540661
 21
-0.2329513111
  0
LWPOLYLINE
  5
4BC
100
AcDbEntity
  8
IMPORT_IGES
100
AcDbPolyline
 62
253
  6
CONTINUOUS
 90
10
 70
0
 10
8.3119101515
 20
10.1579206444
 10
8.3012556206
 20
10.1560064311
 10
8.2902220531
 20
10.1532653938
 10
8.278972913
 20
10.1497360923
 10
8.2676933314
 20
10.1454760386
 10
8.2565339027
 20
10.1405420072
 10
8.2456115112
 20
10.1349792551
 10
8.2350815107
 20
10.1288527236
 10
8.2251316219
 20
10.1222562029
 10
8.2159276924
 20
10.1152853936
  0
LWPOLYLINE
  5
4BD
100
AcDbEntity
  8
IMPORT_IGES
100
AcDbPolyline
 62
7
  6
CONTINUOUS
 90
5
 70
0
 10
18.2409443094
 20
10.0545740321
 10
18.2222058981
 20
10.0516385916
 10
18.2007401601
 20
10.0497431156
 10
18.1791944005
 20
10.050168155
 10
18.1473153734
 20
10.0532268666
  0
LWPOLYLINE
  5
4BE
100
AcDbEntity
  8
IMPORT_IGES
100
AcDbPolyline
 62
7
  6
CONTINUOUS
 90
7
 70
0
 10
18.2409443094
 20
10.0545740321
 10
18.2669301954
 20
10.0579678264
 10
18.2903401638
 20
10.0601886796
 10
18.3110702564
 20
10.0613723922
 10
18.3285665786
 20
10.0616568224
 10
18.3421139728
 20
10.06127516
 10
18.3494405951
 20
10.0607596702
  0
LINE
  5
4BF
100
AcDbEntity
  8
IMPORT_IGES
100
AcDbLine
 62
253
  6
CONTINUOUS
 10
18.0756042668
 20
10.0529746871
 11
18.075708502
 21
10.0529849725
  0
LINE
  5
4C0
100
AcDbEntity
  8
IMPORT_IGES
100
AcDbLine
 62
7
  6
CONTINUOUS
 10
3.3415112062
 20
6.698895439
 11
3.0025575619
 21
6.8683722612
  0
LINE
  5
4C1
100
AcDbEntity
  8
ASSI
100
AcDbLine
 62
253
  6
CONTINUOUS
 10
-19.4196253443
 20
18.3532857832
 11
-18.7247167268
 21
18.0058314745
  0
LINE
  5
4C2
100
AcDbEntity
  8
ASSI
100
AcDbLine
 62
253
  6
CONTINUOUS
 10
-5.2896878842
 20
11.2883170532
 11
-4.5947792667
 21
10.9408627444
  0
LINE
  5
4C3
100
AcDbEntity
  8
RACCORDO
100
AcDbLine
 62
253
  6
CONTINUOUS
 10
-5.4960611474
 20
11.4512617507
 11
-18.5068259213
 21
17.9566441377
  0
LINE
  5
4C4
100
AcDbEntity
  8
IMPORT_IGES
100
AcDbLine
 62
253
  6
CONTINUOUS
 10
4.0985730727
 20
6.7012198959
 11
3.8157303603
 21
6.8426412521
  0
LINE
  5
4C5
100
AcDbEntity
  8
IMPORT_IGES
100
AcDbLine
 62
7
  6
CONTINUOUS
 10
17.3073277453
 20
0.2331577163
 11
17.1264951341
 21
0.323574022
  0
LINE
  5
4C6
100
AcDbEntity
  8
IMPORT_IGES
100
AcDbLine
 62
253
  6
CONTINUOUS
 10
3.8778623946
 20
7.057419
 11
4.1607051071
 21
6.9159976438
  0
LWPOLYLINE
  5
4C7
100
AcDbEntity
  8
IMPORT_IGES
100
AcDbPolyline
 62
253
  6
CONTINUOUS
 90
13
 70
0
 10
4.1607051071
 20
6.9159976438
 10
4.1896514835
 20
6.9012365384
 10
4.2206746357
 20
6.8848658052
 10
4.2532458834
 20
6.8671639895
 10
4.2868121551
 20
6.8484311974
 10
4.3207969416
 20
6.828988706
 10
4.3546099875
 20
6.8091739753
 10
4.3876715204
 20
6.7893267278
 10
4.419416046
 20
6.769786407
 10
4.4492944507
 20
6.7508911114
 10
4.4767945749
 20
6.7329650294
 10
4.5014489274
 20
6.7163132183
 10
4.5228371414
 20
6.7012198959
  0
LWPOLYLINE
  5
4C8
100
AcDbEntity
  8
IMPORT_IGES
100
AcDbPolyline
 62
7
  6
CONTINUOUS
 90
13
 70
0
 10
3.3413814085
 20
6.6989607456
 10
3.3684884035
 20
6.6840031457
 10
3.396743187
 20
6.6657347848
 10
3.4257151697
 20
6.6443725744
 10
3.455036304
 20
6.620245873
 10
3.484201338
 20
6.5936780341
 10
3.5125737721
 20
6.5649806254
 10
3.539806443
 20
6.5346891232
 10
3.5654482345
 20
6.503317254
 10
3.5887349991
 20
6.4712270622
 10
3.6092097835
 20
6.438988496
 10
3.6267410526
 20
6.4073722331
 10
3.641120626
 20
6.3770924696
  0
LWPOLYLINE
  5
4C9
100
AcDbEntity
  8
0
100
AcDbPolyline
 62
7
  6
CONTINUOUS
 90
7
 70
0
 10
3.1518541851
 20
11.71724577
 10
3.1444001468
 20
11.7302702239
 10
3.134444774
 20
11.7428370231
 10
3.1215794471
 20
11.7552349017
 10
3.1056679597
 20
11.7675601047
 10
3.0868465182
 20
11.7797163872
 10
3.0651151226
 20
11.7917037492
  0
LINE
  5
4CA
100
AcDbEntity
  8
IMPORT_IGES
100
AcDbLine
 62
253
  6
CONTINUOUS
 10
4.9849076411
 20
8.7905825683
 11
4.9750691621
 21
8.8093244505
  0
LWPOLYLINE
  5
4CB
100
AcDbEntity
  8
IMPORT_IGES
100
AcDbPolyline
 62
7
  6
CONTINUOUS
 90
6
 70
0
 10
8.1518468493
 20
12.3184063056
 10
8.1502968326
 20
12.3408028864
 10
8.1455781777
 20
12.3632312987
 10
8.1376208067
 20
12.3853527432
 10
8.1263672432
 20
12.4069073992
 10
8.1118656185
 20
12.4275333816
  0
LINE
  5
4CC
100
AcDbEntity
  8
IMPORT_IGES
100
AcDbLine
 62
7
  6
CONTINUOUS
 10
8.78602918
 20
12.6943067544
 11
8.78602918
 21
12.8675118352
  0
LINE
  5
4CD
100
AcDbEntity
  8
IMPORT_IGES
100
AcDbLine
 62
7
  6
CONTINUOUS
 10
8.9984016307
 20
14.8823906878
 11
8.9984016307
 21
14.7091856071
  0
LINE
  5
4CE
100
AcDbEntity
  8
IMPORT_IGES
100
AcDbLine
 62
7
  6
CONTINUOUS
 10
10.2346753071
 20
14.2642538496
 11
10.2346753071
 21
14.0910487689
  0
LWPOLYLINE
  5
4CF
100
AcDbEntity
  8
IMPORT_IGES
100
AcDbPolyline
 62
253
  6
CONTINUOUS
 90
10
 70
0
 10
11.5835386084
 20
14.1942138124
 10
11.5856871172
 20
14.2253648128
 10
11.5888772388
 20
14.2415413136
 10
11.5940862976
 20
14.2578272999
 10
11.6011560192
 20
14.2737279304
 10
11.6098715934
 20
14.2887600724
 10
11.6199682022
 20
14.302466982
 10
11.6311390649
 20
14.3144321815
 10
11.6430447608
 20
14.3242921145
 10
11.6553235412
 20
14.3317471919
  0
LWPOLYLINE
  5
4D0
100
AcDbEntity
  8
RACCORDO
100
AcDbPolyline
 62
253
  6
CONTINUOUS
 90
31
 70
0
 10
2.4701645619
 20
-24.0992601721
 10
2.4745077032
 20
-24.0870365912
 10
2.4783555121
 20
-24.0746034009
 10
2.4816970808
 20
-24.0619943417
 10
2.4845231052
 20
-24.0492424979
 10
2.4868251051
 20
-24.0363837389
 10
2.4885959375
 20
-24.0234567052
 10
2.4898306685
 20
-24.0104980118
 10
2.4905261314
 20
-23.997541749
 10
2.4906804242
 20
-23.9846229781
 10
2.4902930744
 20
-23.9717767728
 10
2.4893650926
 20
-23.9590384409
 10
2.4878990163
 20
-23.9464430954
 10
2.4858988706
 20
-23.9340252511
 10
2.4833701077
 20
-23.9218187106
 10
2.4803196265
 20
-23.9098567859
 10
2.4767557492
 20
-23.8981721329
 10
2.4726882108
 20
-23.8867966886
 10
2.4681281296
 20
-23.8757615523
 10
2.463087965
 20
-23.8650968739
 10
2.4575814803
 20
-23.854831774
 10
2.4516237162
 20
-23.8449942909
 10
2.4452309358
 20
-23.8356112809
 10
2.438420609
 20
-23.8267083881
 10
2.4312113711
 20
-23.8183099667
 10
2.4236229417
 20
-23.8104389714
 10
2.4156760316
 20
-23.8031168678
 10
2.4073923147
 20
-23.7963636192
 10
2.3987944041
 20
-23.7901976622
 10
2.3899057954
 20
-23.7846358476
 10
2.3807507665
 20
-23.7796933661
  0
LWPOLYLINE
  5
4D1
100
AcDbEntity
  8
IMPORT_IGES
100
AcDbPolyline
 62
253
  6
CONTINUOUS
 90
4
 70
0
 10
5.6738618362
 20
-8.5550879356
 10
5.6962623489
 20
-8.5257132455
 10
5.7155996165
 20
-8.4938114525
 10
5.7316419117
 20
-8.4599648423
  0
LWPOLYLINE
  5
4D2
100
AcDbEntity
  8
IMPORT_IGES
100
AcDbPolyline
 62
253
  6
CONTINUOUS
 90
9
 70
0
 10
18.4526246348
 20
7.2511733693
 10
18.4760399434
 20
7.2786659665
 10
18.4954249716
 20
7.3075029766
 10
18.5104480362
 20
7.3371909905
 10
18.5208520885
 20
7.3672220381
 10
18.5264591122
 20
7.3970822796
 10
18.5271731696
 20
7.4262607983
 10
18.5229820431
 20
7.4542583414
 10
18.513793077
 20
7.4809602397
  0
LINE
  5
4D3
100
AcDbEntity
  8
IMPORT_IGES
100
AcDbLine
 62
253
  6
CONTINUOUS
 10
5.6486636976
 20
-8.5813998484
 11
5.6738618362
 21
-8.5550879356
  0
LINE
  5
4D4
100
AcDbEntity
  8
IMPORT_IGES
100
AcDbLine
 62
253
  6
CONTINUOUS
 10
5.682635857
 20
-8.6015487594
 11
5.6695098924
 21
-8.6126105475
  0
LWPOLYLINE
  5
4D5
100
AcDbEntity
  8
IMPORT_IGES
100
AcDbPolyline
 62
253
  6
CONTINUOUS
 90
3
 70
0
 10
18.2772431597
 20
-0.1893570968
 10
18.2153900082
 20
-0.2278465753
 10
18.2054540661
 20
-0.2329513111
  0
LINE
  5
4D6
100
AcDbEntity
  8
IMPORT_IGES
100
AcDbLine
 62
7
  6
CONTINUOUS
 10
15.1665412595
 20
-3.9082604097
 11
15.1886686803
 21
-3.8959838542
  0
LWPOLYLINE
  5
4D7
100
AcDbEntity
  8
IMPORT_IGES
100
AcDbPolyline
 62
253
  6
CONTINUOUS
 90
3
 70
0
 10
14.3944204513
 20
-4.2958124104
 10
14.4280764877
 20
-4.2774548658
 10
14.4589175962
 20
-4.2611555871
  0
LWPOLYLINE
  5
4D8
100
AcDbEntity
  8
IMPORT_IGES
100
AcDbPolyline
 62
7
  6
CONTINUOUS
 90
4
 70
0
 10
14.4072633423
 20
-4.2895702437
 10
14.4304822541
 20
-4.2770841901
 10
14.4521113043
 20
-4.2657088763
 10
14.4718646108
 20
-4.2555797344
  0
LWPOLYLINE
  5
4D9
100
AcDbEntity
  8
IMPORT_IGES
100
AcDbPolyline
 62
253
  6
CONTINUOUS
 90
6
 70
0
 10
5.6695098774
 20
-8.6126105559
 10
5.6424798971
 20
-8.6269219339
 10
5.6141306655
 20
-8.638304256
 10
5.5847663199
 20
-8.6466354098
 10
5.5547018879
 20
-8.6518260167
 10
5.5498021999
 20
-8.6523655322
  0
LINE
  5
4DA
100
AcDbEntity
  8
IMPORT_IGES
100
AcDbLine
 62
7
  6
CONTINUOUS
 10
13.793718026
 20
-4.6827094761
 11
13.8032325486
 21
-4.6776751462
  0
LWPOLYLINE
  5
4DB
100
AcDbEntity
  8
IMPORT_IGES
100
AcDbPolyline
 62
253
  6
CONTINUOUS
 90
3
 70
0
 10
13.7937186904
 20
-4.6827091774
 10
13.7958275901
 20
-4.6816246464
 10
13.8095014235
 20
-4.6731193901
  0
LINE
  5
4DC
100
AcDbEntity
  8
IMPORT_IGES
100
AcDbLine
 62
253
  6
CONTINUOUS
 10
15.1772750589
 20
-3.9017489331
 11
15.1889562201
 21
-3.895808879
  0
LINE
  5
4DD
100
AcDbEntity
  8
IMPORT_IGES
100
AcDbLine
 62
253
  6
CONTINUOUS
 10
14.4589175962
 20
-4.2611555871
 11
14.4869437769
 21
-4.2469145742
  0
LINE
  5
4DE
100
AcDbEntity
  8
IMPORT_IGES
100
AcDbLine
 62
7
  6
CONTINUOUS
 10
6.2256976921
 20
-8.4315796549
 11
5.9140998989
 21
-8.5874866382
  0
LINE
  5
4DF
100
AcDbEntity
  8
IMPORT_IGES
100
AcDbLine
 62
253
  6
CONTINUOUS
 10
5.7316419117
 20
-8.4599648423
 11
15.6222498051
 21
-3.5146608956
  0
LINE
  5
4E0
100
AcDbEntity
  8
IMPORT_IGES
100
AcDbLine
 62
253
  6
CONTINUOUS
 10
5.6695098956
 20
-8.6126105452
 11
15.5601177785
 21
-3.6673066044
  0
LINE
  5
4E1
100
AcDbEntity
  8
IMPORT_IGES
100
AcDbLine
 62
253
  6
CONTINUOUS
 10
15.1772750592
 20
-3.901748933
 11
14.4869437769
 21
-4.2469145742
  0
LINE
  5
4E2
100
AcDbEntity
  8
IMPORT_IGES
100
AcDbLine
 62
7
  6
CONTINUOUS
 10
14.4718646108
 20
-4.2555797344
 11
15.1667117064
 21
-3.90816292
  0
LINE
  5
4E3
100
AcDbEntity
  8
IMPORT_IGES
100
AcDbLine
 62
253
  6
CONTINUOUS
 10
6.4263939156
 20
-8.3646731441
 11
13.8095014235
 21
-4.6731193901
  0
LINE
  5
4E4
100
AcDbEntity
  8
IMPORT_IGES
100
AcDbLine
 62
7
  6
CONTINUOUS
 10
13.7937186904
 20
-4.6827091774
 11
6.4437405273
 21
-8.3576983041
  0
LINE
  5
4E5
100
AcDbEntity
  8
IMPORT_IGES
100
AcDbLine
 62
7
  6
CONTINUOUS
 10
14.4763570276
 20
-4.2533402513
 11
14.4761250797
 21
-4.2534555979
  0
LINE
  5
4E6
100
AcDbEntity
  8
IMPORT_IGES
100
AcDbLine
 62
7
  6
CONTINUOUS
 10
15.16670945
 20
-3.9081640482
 11
15.1661318091
 21
-3.9084497777
  0
LINE
  5
4E7
100
AcDbEntity
  8
IMPORT_IGES
100
AcDbLine
 62
253
  6
CONTINUOUS
 10
15.5601177743
 20
-3.667306607
 11
15.5667876635
 21
-3.6644357366
  0
LWPOLYLINE
  5
4E8
100
AcDbEntity
  8
IMPORT_IGES
100
AcDbPolyline
 62
7
  6
CONTINUOUS
 90
4
 70
0
 10
6.2256859983
 20
-8.4302442346
 10
6.3148195671
 20
-8.4010931939
 10
6.3372603467
 20
-8.3938241847
 10
6.4263939156
 20
-8.3646731441
  0
LINE
  5
4E9
100
AcDbEntity
  8
IMPORT_IGES
100
AcDbLine
 62
7
  6
CONTINUOUS
 10
7.4840893253
 20
13.3452766818
 11
9.0744648206
 21
13.7873623192
  0
LINE
  5
4EA
100
AcDbEntity
  8
IMPORT_IGES
100
AcDbLine
 62
7
  6
CONTINUOUS
 10
9.3607486012
 20
14.0401473155
 11
7.4840893253
 21
13.5184817625
  0
LWPOLYLINE
  5
4EB
100
AcDbEntity
  8
IMPORT_IGES
100
AcDbPolyline
 62
253
  6
CONTINUOUS
 90
10
 70
0
 10
7.6342433875
 20
11.6018482728
 10
7.6233559927
 20
11.5998812385
 10
7.6120652228
 20
11.5970500667
 10
7.6005448171
 20
11.5933935805
 10
7.5889885325
 20
11.5889700941
 10
7.5775630034
 20
11.5838401126
 10
7.5664079969
 20
11.5780571307
 10
7.5556952893
 20
11.5716946863
 10
7.545622418
 20
11.564853832
 10
7.5363672079
 20
11.5576394746
  0
LWPOLYLINE
  5
4EC
100
AcDbEntity
  8
IMPORT_IGES
100
AcDbPolyline
 62
7
  6
CONTINUOUS
 90
4
 70
0
 10
18.075708502
 20
10.0529849725
 10
18.0967339345
 20
10.0542764976
 10
18.1214745678
 20
10.0544461275
 10
18.1473153734
 20
10.0532268666
  0
LWPOLYLINE
  5
4ED
100
AcDbEntity
  8
IMPORT_IGES
100
AcDbPolyline
 62
253
  6
CONTINUOUS
 90
10
 70
0
 10
8.290767572
 20
9.9290007131
 10
8.2971306601
 20
9.9287280959
 10
8.3043746631
 20
9.929000889
 10
8.3122794756
 20
9.9298108039
 10
8.3206049139
 20
9.9311332315
 10
8.3290980138
 20
9.9329279908
 10
8.3375007166
 20
9.9351405487
 10
8.3455577106
 20
9.9377036779
 10
8.353024188
 20
9.9405394989
 10
8.3596732838
 20
9.9435618468
  0
LINE
  5
4EE
100
AcDbEntity
  8
IMPORT_IGES
100
AcDbLine
 62
253
  6
CONTINUOUS
 10
3.1629356513
 20
8.473273445
 11
3.0025575619
 21
8.5534624897
  0
LINE
  5
4EF
100
AcDbEntity
  8
IMPORT_IGES
100
AcDbLine
 62
253
  6
CONTINUOUS
 10
4.4247210015
 20
8.5581956402
 11
3.4903032857
 21
9.0254044985
  0
LINE
  5
4F0
100
AcDbEntity
  8
ASSI
100
AcDbLine
 62
253
  6
CONTINUOUS
 10
-18.4270593343
 20
20.1050899391
 11
-17.7204645252
 21
19.7517925346
  0
LINE
  5
4F1
100
AcDbEntity
  8
ASSI
100
AcDbLine
 62
253
  6
CONTINUOUS
 10
-4.2854356826
 20
13.0342781133
 11
-3.5788408735
 21
12.6809807087
  0
LINE
  5
4F2
100
AcDbEntity
  8
RACCORDO
100
AcDbLine
 62
253
  6
CONTINUOUS
 10
-4.4918056618
 20
13.1973222626
 11
-17.5025704356
 21
19.7027046495
  0
LINE
  5
4F3
100
AcDbEntity
  8
IMPORT_IGES
100
AcDbLine
 62
253
  6
CONTINUOUS
 10
5.0617458711
 20
8.4700630804
 11
4.7789031586
 21
8.6114844367
  0
LINE
  5
4F4
100
AcDbEntity
  8
IMPORT_IGES
100
AcDbLine
 62
253
  6
CONTINUOUS
 10
3.5582723056
 20
9.40608457
 11
3.734942315
 21
9.3177495652
  0
LINE
  5
4F5
100
AcDbEntity
  8
IMPORT_IGES
100
AcDbLine
 62
253
  6
CONTINUOUS
 10
4.9289031586
 20
8.7625803271
 11
5.2117458711
 21
8.6211589709
  0
LINE
  5
4F6
100
AcDbEntity
  8
IMPORT_IGES
100
AcDbLine
 62
253
  6
CONTINUOUS
 10
3.6174301653
 20
9.4321405587
 11
3.7782490875
 21
9.3517310976
  0
LINE
  5
4F7
100
AcDbEntity
  8
IMPORT_IGES
100
AcDbLine
 62
253
  6
CONTINUOUS
 10
3.897285312
 20
9.4248358601
 11
4.8255936703
 21
8.9606816812
  0
LINE
  5
4F8
100
AcDbEntity
  8
IMPORT_IGES
100
AcDbLine
 62
7
  6
CONTINUOUS
 10
3.8552759617
 20
9.5148245284
 11
3.9674734253
 21
9.4587257967
  0
LWPOLYLINE
  5
4F9
100
AcDbEntity
  8
IMPORT_IGES
100
AcDbPolyline
 62
253
  6
CONTINUOUS
 90
13
 70
0
 10
5.2117458711
 20
8.6211589709
 10
5.239411163
 20
8.6051074214
 10
5.2666115044
 20
8.5848859481
 10
5.292881421
 20
8.5608367643
 10
5.3177727173
 20
8.5333656179
 10
5.3408558172
 20
8.502941793
 10
5.3617288225
 20
8.4700924826
 10
5.3800337067
 20
8.4353807753
 10
5.3954572459
 20
8.3994002279
 10
5.4077330543
 20
8.3627737327
 10
5.4166520212
 20
8.3261307406
 10
5.422063955
 20
8.2900959269
 10
5.4238779054
 20
8.2552853325
  0
LWPOLYLINE
  5
4FA
100
AcDbEntity
  8
IMPORT_IGES
100
AcDbPolyline
 62
7
  6
CONTINUOUS
 90
8
 70
0
 10
5.4780492238
 20
9.2846398715
 10
5.505680792
 20
9.2685442092
 10
5.5328341627
 20
9.2482758792
 10
5.5590453077
 20
9.2241819627
 10
5.5838655756
 20
9.1966746277
 10
5.606871279
 20
9.1662250263
 10
5.6276709547
 20
9.1333552394
 10
5.6365688867
 20
9.1164131911
  0
LWPOLYLINE
  5
4FB
100
AcDbEntity
  8
IMPORT_IGES
100
AcDbPolyline
 62
253
  6
CONTINUOUS
 90
9
 70
0
 10
4.6682401308
 20
8.4206189469
 10
4.6541810086
 20
8.429316311
 10
4.62195547
 20
8.4487792479
 10
4.588341738
 20
8.4686115491
 10
4.5541066303
 20
8.4883403191
 10
4.5199818957
 20
8.5075306664
 10
4.4866279534
 20
8.5258015453
 10
4.454623751
 20
8.5428258121
 10
4.4245910033
 20
8.5582611387
  0
LWPOLYLINE
  5
4FC
100
AcDbEntity
  8
IMPORT_IGES
100
AcDbPolyline
 62
253
  6
CONTINUOUS
 90
13
 70
0
 10
5.4238779054
 20
8.2552853325
 10
5.4024942877
 20
8.2703754859
 10
5.3778441002
 20
8.2870246574
 10
5.350346948
 20
8.3049490183
 10
5.3204692035
 20
8.3238441134
 10
5.2887230519
 20
8.3433856201
 10
5.2556590632
 20
8.3632344824
 10
5.2218428253
 20
8.3830511782
 10
5.1878542591
 20
8.4024958768
 10
5.1542854542
 20
8.4212300835
 10
5.1217135006
 20
8.4389322593
 10
5.090690817
 20
8.4553027176
 10
5.0617458711
 20
8.4700630804
  0
LWPOLYLINE
  5
4FD
100
AcDbEntity
  8
IMPORT_IGES
100
AcDbPolyline
 62
253
  6
CONTINUOUS
 90
6
 70
0
 10
16.9972058122
 20
-1.143212574
 10
17.0149699221
 20
-1.1564948928
 10
17.0288004452
 20
-1.1677351285
 10
17.0384607374
 20
-1.1767409575
 10
17.0437855086
 20
-1.1833582875
 10
17.0446061212
 20
-1.1876223447
  0
LWPOLYLINE
  5
4FE
100
AcDbEntity
  8
IMPORT_IGES
100
AcDbPolyline
 62
253
  6
CONTINUOUS
 90
6
 70
0
 10
4.9542799122
 20
8.8421994114
 10
4.9312888051
 20
8.8726562564
 10
4.906489225
 20
8.9001738605
 10
4.8803054997
 20
8.9242813897
 10
4.8531856397
 20
8.9445663576
 10
4.8255936736
 20
8.9606816828
  0
LINE
  5
4FF
100
AcDbEntity
  8
IMPORT_IGES
100
AcDbLine
 62
253
  6
CONTINUOUS
 10
4.9750691621
 20
8.8093244505
 11
4.9542799122
 21
8.8421994114
  0
LINE
  5
500
100
AcDbEntity
  8
IMPORT_IGES
100
AcDbLine
 62
7
  6
CONTINUOUS
 10
5.7809763421
 20
10.3343655016
 11
5.6223181798
 21
10.5934266881
  0
LWPOLYLINE
  5
501
100
AcDbEntity
  8
IMPORT_IGES
100
AcDbPolyline
 62
253
  6
CONTINUOUS
 90
10
 70
0
 10
8.2907447675
 20
9.929082615
 10
8.2921807753
 20
9.9228467382
 10
8.2934954227
 20
9.9166176665
 10
8.2946887096
 20
9.9103954001
 10
8.295762661
 20
9.9041693399
 10
8.296715252
 20
9.8979500848
 10
8.2975404076
 20
9.8917694315
 10
8.2982361028
 20
9.8856379787
 10
8.2988043627
 20
9.8795451275
 10
8.2992451872
 20
9.873490878
  0
LINE
  5
502
100
AcDbEntity
  8
IMPORT_IGES
100
AcDbLine
 62
253
  6
CONTINUOUS
 10
12.6293700399
 20
14.8938584352
 11
12.6278664445
 21
14.9710285212
  0
LWPOLYLINE
  5
503
100
AcDbEntity
  8
IMPORT_IGES
100
AcDbPolyline
 62
253
  6
CONTINUOUS
 90
13
 70
0
 10
12.696024889
 20
14.9973822907
 10
12.6967535046
 20
15.0154910497
 10
12.6956548343
 20
15.0341973722
 10
12.6927476768
 20
15.053181188
 10
12.6880817744
 20
15.0721176787
 10
12.6817369619
 20
15.0906828356
 10
12.6738218009
 20
15.1085590039
 10
12.6644717218
 20
15.1254403172
 10
12.6538467073
 20
15.1410379316
 10
12.6421285542
 20
15.1550849677
 10
12.6295177633
 20
15.1673410768
 10
12.6162301089
 20
15.1775965534
 10
12.6024929462
 20
15.1856759234
  0
LWPOLYLINE
  5
504
100
AcDbEntity
  8
IMPORT_IGES
100
AcDbPolyline
 62
253
  6
CONTINUOUS
 90
17
 70
0
 10
12.0817979695
 20
14.4246662034
 10
12.0805605462
 20
14.4062918607
 10
12.073621769
 20
14.3882044472
 10
12.0612832003
 20
14.3704069503
 10
12.0442778262
 20
14.3540322201
 10
12.0222637225
 20
14.339158688
 10
11.9955828133
 20
14.3257079227
 10
11.9659938569
 20
14.314577481
 10
11.9333508276
 20
14.3059318319
 10
11.8977997511
 20
14.2996065065
 10
11.8615374625
 20
14.2960056547
 10
11.8244850699
 20
14.2952890154
 10
11.7867214652
 20
14.2972968497
 10
11.7506801589
 20
14.3019540912
 10
11.7171723212
 20
14.3092357176
 10
11.685386782
 20
14.3191667512
 10
11.6553235412
 20
14.3317471919
  0
LWPOLYLINE
  5
505
100
AcDbEntity
  8
IMPORT_IGES
100
AcDbPolyline
 62
253
  6
CONTINUOUS
 90
9
 70
0
 10
17.0039222414
 20
12.5660611755
 10
17.0187709503
 20
12.6023834363
 10
17.0297359557
 20
12.6398990321
 10
17.0366296433
 20
12.6779660607
 10
17.0393340604
 20
12.7159331847
 10
17.0378029334
 20
12.7531507759
 10
17.0320624605
 20
12.7889820312
 10
17.0222108628
 20
12.8228138678
 10
17.0084167037
 20
12.8540674136
  0
LWPOLYLINE
  5
506
100
AcDbEntity
  8
IMPORT_IGES
100
AcDbPolyline
 62
7
  6
CONTINUOUS
 90
3
 70
0
 10
15.5947465249
 20
-3.6450522579
 10
15.6203126387
 20
-3.6226463467
 10
15.6431638081
 20
-3.5975116444
  0
LINE
  5
507
100
AcDbEntity
  8
IMPORT_IGES
100
AcDbLine
 62
253
  6
CONTINUOUS
 10
15.5601177722
 20
-3.6673066081
 11
15.5726369493
 21
-3.6568313371
  0
LINE
  5
508
100
AcDbEntity
  8
IMPORT_IGES
100
AcDbLine
 62
7
  6
CONTINUOUS
 10
13.8267034643
 20
-4.6627056411
 11
13.9339633276
 21
-4.5851786585
  0
LINE
  5
509
100
AcDbEntity
  8
IMPORT_IGES
100
AcDbLine
 62
253
  6
CONTINUOUS
 10
13.8095014235
 20
-4.6731193901
 11
13.9168472095
 21
-4.5955303067
  0
LINE
  5
50A
100
AcDbEntity
  8
IMPORT_IGES
100
AcDbLine
 62
7
  6
CONTINUOUS
 10
13.9340714058
 20
-4.5851126753
 11
13.9581486848
 21
-4.5679337654
  0
LINE
  5
50B
100
AcDbEntity
  8
IMPORT_IGES
100
AcDbLine
 62
253
  6
CONTINUOUS
 10
13.9168472095
 20
-4.5955303067
 11
13.9553965632
 21
-4.5683799378
  0
LINE
  5
50C
100
AcDbEntity
  8
IMPORT_IGES
100
AcDbLine
 62
7
  6
CONTINUOUS
 10
13.9581486848
 20
-4.5679337654
 11
13.9828860484
 21
-4.550688776
  0
LINE
  5
50D
100
AcDbEntity
  8
IMPORT_IGES
100
AcDbLine
 62
7
  6
CONTINUOUS
 10
15.5667876684
 20
-3.6644357337
 11
15.5947465249
 21
-3.6450522579
  0
LWPOLYLINE
  5
50E
100
AcDbEntity
  8
IMPORT_IGES
100
AcDbPolyline
 62
253
  6
CONTINUOUS
 90
3
 70
0
 10
13.9553965632
 20
-4.5683799378
 10
13.9941494061
 20
-4.5416866599
 10
14.0331057382
 20
-4.515450473
  0
LINE
  5
50F
100
AcDbEntity
  8
IMPORT_IGES
100
AcDbLine
 62
7
  6
CONTINUOUS
 10
13.9828860484
 20
-4.550688776
 11
14.0084575045
 21
-4.5332149189
  0
LWPOLYLINE
  5
510
100
AcDbEntity
  8
IMPORT_IGES
100
AcDbPolyline
 62
7
  6
CONTINUOUS
 90
16
 70
0
 10
14.0084575045
 20
-4.5332149189
 10
14.0346651932
 20
-4.5156182784
 10
14.0612726311
 20
-4.4980314535
 10
14.0881024749
 20
-4.4805539955
 10
14.115158056
 20
-4.4631714707
 10
14.1422538069
 20
-4.4459895958
 10
14.1692767745
 20
-4.4290696407
 10
14.1963931021
 20
-4.4123065111
 10
14.2234553635
 20
-4.3957868629
 10
14.2503587685
 20
-4.3795672865
 10
14.277313728
 20
-4.3635298544
 10
14.3042520195
 20
-4.3477231779
 10
14.3309161062
 20
-4.3322970774
 10
14.3571267637
 20
-4.3173676663
 10
14.3826697717
 20
-4.3030718191
 10
14.4072633423
 20
-4.2895702437
  0
LWPOLYLINE
  5
511
100
AcDbEntity
  8
IMPORT_IGES
100
AcDbPolyline
 62
253
  6
CONTINUOUS
 90
10
 70
0
 10
14.0331057382
 20
-4.515450473
 10
14.0720638644
 20
-4.489834252
 10
14.1112254797
 20
-4.4646751221
 10
14.1511956698
 20
-4.4394844583
 10
14.192723782
 20
-4.4137619267
 10
14.2350604689
 20
-4.3880078612
 10
14.2765627749
 20
-4.3632346392
 10
14.3173432303
 20
-4.3394205787
 10
14.3572893048
 20
-4.3165873617
 10
14.3944204513
 20
-4.2958124104
  0
LINE
  5
512
100
AcDbEntity
  8
IMPORT_IGES
100
AcDbLine
 62
7
  6
CONTINUOUS
 10
13.8032325486
 20
-4.6776751462
 11
13.8267497786
 21
-4.6626720638
  0
LINE
  5
513
100
AcDbEntity
  8
IMPORT_IGES
100
AcDbLine
 62
7
  6
CONTINUOUS
 10
15.1900188394
 20
-3.8951585791
 11
15.5667876638
 21
-3.6644357364
  0
LINE
  5
514
100
AcDbEntity
  8
IMPORT_IGES
100
AcDbLine
 62
7
  6
CONTINUOUS
 10
15.1889562201
 20
-3.895808879
 11
15.1890198693
 21
-3.8957701121
  0
LINE
  5
515
100
AcDbEntity
  8
IMPORT_IGES
100
AcDbLine
 62
253
  6
CONTINUOUS
 10
15.5601177785
 20
-3.6673066044
 11
15.16670945
 21
-3.9081640482
  0
LINE
  5
516
100
AcDbEntity
  8
IMPORT_IGES
100
AcDbLine
 62
253
  6
CONTINUOUS
 10
14.4869437766
 20
-4.2469145743
 11
14.4763570276
 21
-4.2533402513
  0
LINE
  5
517
100
AcDbEntity
  8
IMPORT_IGES
100
AcDbLine
 62
253
  6
CONTINUOUS
 10
13.8267034643
 20
-4.6627056411
 11
13.8095014874
 21
-4.6731193439
  0
LINE
  5
518
100
AcDbEntity
  8
IMPORT_IGES
100
AcDbLine
 62
253
  6
CONTINUOUS
 10
13.934016044
 20
-4.5851527353
 11
13.9168518783
 21
-4.5955398178
  0
LINE
  5
519
100
AcDbEntity
  8
IMPORT_IGES
100
AcDbLine
 62
7
  6
CONTINUOUS
 10
7.0416420057
 20
13.7397054223
 11
9.8445022706
 21
14.4593403679
  0
LWPOLYLINE
  5
51A
100
AcDbEntity
  8
0
100
AcDbPolyline
 62
7
  6
CONTINUOUS
 90
7
 70
0
 10
3.0025575619
 20
11.8847120928
 10
3.0072061015
 20
11.885539656
 10
3.0435468474
 20
11.8907918558
 10
3.079081322
 20
11.8948813819
 10
3.1138840145
 20
11.8978875889
 10
3.1478804358
 20
11.8997311222
 10
3.1810705859
 20
11.9004119818
  0
LWPOLYLINE
  5
51B
100
AcDbEntity
  8
0
100
AcDbPolyline
 62
7
  6
CONTINUOUS
 90
3
 70
0
 10
3.079081322
 20
11.8082788416
 10
3.1138840145
 20
11.8112850485
 10
3.1478804358
 20
11.8131285818
  0
LWPOLYLINE
  5
51C
100
AcDbEntity
  8
RACCORDO
100
AcDbPolyline
 62
253
  6
CONTINUOUS
 90
10
 70
0
 10
-5.2809593989
 20
11.4124770537
 10
-5.3062497638
 20
11.4118561516
 10
-5.3324067135
 20
11.4125194678
 10
-5.3584215255
 20
11.4144774641
 10
-5.3840091761
 20
11.4177086883
 10
-5.4088893215
 20
11.4221777384
 10
-5.4327893698
 20
11.4278356507
 10
-5.455447467
 20
11.4346204358
 10
-5.4766153661
 20
11.4424577583
 10
-5.4960611474
 20
11.4512617507
  0
LINE
  5
51D
100
AcDbEntity
  8
0
100
AcDbLine
 62
7
  6
CONTINUOUS
 10
3.1478804358
 20
11.8131285818
 11
3.1810705859
 21
11.8138094415
  0
LWPOLYLINE
  5
51E
100
AcDbEntity
  8
0
100
AcDbPolyline
 62
7
  6
CONTINUOUS
 90
3
 70
0
 10
3.0765899064
 20
11.9598995477
 10
3.0138131925
 20
11.9601118398
 10
3.0025575619
 20
11.9596128792
  0
LWPOLYLINE
  5
51F
100
AcDbEntity
  8
0
100
AcDbPolyline
 62
7
  6
CONTINUOUS
 90
10
 70
0
 10
3.1810705859
 20
11.8138094415
 10
3.2133899302
 20
11.813630319
 10
3.2479330581
 20
11.8117330827
 10
3.2846999697
 20
11.8081177325
 10
3.3235606963
 20
11.8029389526
 10
3.3646452065
 20
11.7960420589
 10
3.408343406
 20
11.7869629988
 10
3.4547852635
 20
11.7755470881
 10
3.5038408103
 20
11.7619490111
 10
3.5555100464
 20
11.7461687677
  0
LWPOLYLINE
  5
520
100
AcDbEntity
  8
0
100
AcDbPolyline
 62
7
  6
CONTINUOUS
 90
10
 70
0
 10
3.1810705859
 20
11.9004119818
 10
3.2133899302
 20
11.9002328594
 10
3.2479330581
 20
11.898335623
 10
3.2846999697
 20
11.8947202728
 10
3.3235606963
 20
11.889541493
 10
3.3646452065
 20
11.8826445992
 10
3.408343406
 20
11.8735655391
 10
3.4547852635
 20
11.8621496285
 10
3.5038408103
 20
11.8485515515
 10
3.5555100464
 20
11.8327713081
  0
LWPOLYLINE
  5
521
100
AcDbEntity
  8
IMPORT_IGES
100
AcDbPolyline
 62
253
  6
CONTINUOUS
 90
10
 70
0
 10
18.0874781692
 20
10.262151765
 10
18.0812516684
 20
10.2624376168
 10
18.0752480487
 20
10.2624640031
 10
18.0694853019
 20
10.2622110846
 10
18.0639899581
 20
10.2616411435
 10
18.0587687805
 20
10.2607624933
 10
18.0538091939
 20
10.2596314275
 10
18.0491169245
 20
10.2582655648
 10
18.0447156878
 20
10.2566420197
 10
18.0406189955
 20
10.2547625357
  0
LWPOLYLINE
  5
522
100
AcDbEntity
  8
IMPORT_IGES
100
AcDbPolyline
 62
7
  6
CONTINUOUS
 90
10
 70
0
 10
18.8645274127
 20
10.0135607511
 10
18.879608265
 20
10.0126393345
 10
18.8946552654
 20
10.0126393942
 10
18.9096074297
 20
10.0135581525
 10
18.9243832816
 20
10.0153835417
 10
18.9389463648
 20
10.0181018818
 10
18.9533008015
 20
10.0217107882
 10
18.9674063175
 20
10.0262029848
 10
18.9811832377
 20
10.0315537741
 10
18.9945747886
 20
10.0377374728
  0
LWPOLYLINE
  5
523
100
AcDbEntity
  8
0
100
AcDbPolyline
 62
7
  6
CONTINUOUS
 90
3
 70
0
 10
3.2087653039
 20
11.9512557248
 10
3.1446204586
 20
11.9565936844
 10
3.0765899064
 20
11.9598995477
  0
LINE
  5
524
100
AcDbEntity
  8
IMPORT_IGES
100
AcDbLine
 62
253
  6
CONTINUOUS
 10
18.7413559473
 20
10.1420156862
 11
18.2264751014
 21
10.1891951119
  0
LINE
  5
525
100
AcDbEntity
  8
IMPORT_IGES
100
AcDbLine
 62
7
  6
CONTINUOUS
 10
18.8645274127
 20
10.0135607511
 11
18.3491314826
 21
10.060788605
  0
LINE
  5
526
100
AcDbEntity
  8
IMPORT_IGES
100
AcDbLine
 62
253
  6
CONTINUOUS
 10
18.2195256269
 20
10.0533443358
 11
18.227199797
 21
10.0524173425
  0
LWPOLYLINE
  5
527
100
AcDbEntity
  8
RACCORDO
100
AcDbPolyline
 62
7
  6
CONTINUOUS
 90
9
 70
0
 10
-18.6972216914
 20
13.6206340983
 10
-18.6925335613
 20
13.6200148565
 10
-18.6872071186
 20
13.6200014731
 10
-18.681235219
 20
13.6205175709
 10
-18.674594762
 20
13.6214593646
 10
-18.6673185532
 20
13.6227741887
 10
-18.6594774049
 20
13.62447792
 10
-18.6510903668
 20
13.6265415849
 10
-18.6421416573
 20
13.6288755047
  0
LWPOLYLINE
  5
528
100
AcDbEntity
  8
IMPORT_IGES
100
AcDbPolyline
 62
253
  6
CONTINUOUS
 90
8
 70
0
 10
18.8645274127
 20
10.0135607511
 10
18.850806702
 20
10.0157026746
 10
18.8261410175
 20
10.0242703648
 10
18.803196198
 20
10.0385641952
 10
18.78266941
 20
10.058149855
 10
18.7651843498
 20
10.0824322438
 10
18.7512722919
 20
10.1106735535
 10
18.7413559473
 20
10.1420156862
  0
LWPOLYLINE
  5
529
100
AcDbEntity
  8
IMPORT_IGES
100
AcDbPolyline
 62
253
  6
CONTINUOUS
 90
8
 70
0
 10
18.3491314826
 20
10.060788605
 10
18.3359258509
 20
10.0628821008
 10
18.3112601663
 20
10.071449791
 10
18.2883153466
 20
10.0857436214
 10
18.267788559
 20
10.1053292812
 10
18.2503034999
 20
10.1296116698
 10
18.2363914437
 20
10.1578529794
 10
18.2264751014
 20
10.1891951119
  0
LWPOLYLINE
  5
52A
100
AcDbEntity
  8
IMPORT_IGES
100
AcDbPolyline
 62
253
  6
CONTINUOUS
 90
10
 70
0
 10
8.3087212491
 20
9.8526498466
 10
8.3153215499
 20
9.8509221038
 10
8.3223620266
 20
9.8497039045
 10
8.3296863685
 20
9.8490222948
 10
8.3371319625
 20
9.8488924076
 10
8.3445335033
 20
9.8493171268
 10
8.3517266638
 20
9.8502870227
 10
8.3585517435
 20
9.8517805621
 10
8.3648572136
 20
9.8537645857
 10
8.3705030817
 20
9.8561950447
  0
LWPOLYLINE
  5
52B
100
AcDbEntity
  8
IMPORT_IGES
100
AcDbPolyline
 62
253
  6
CONTINUOUS
 90
6
 70
0
 10
7.0946667176
 20
10.6268023347
 10
7.0715533066
 20
10.6340956455
 10
7.0466643785
 20
10.6366233918
 10
7.0204404948
 20
10.6343643658
 10
6.9933255737
 20
10.6273790734
 10
6.9657829855
 20
10.6158062387
  0
LWPOLYLINE
  5
52C
100
AcDbEntity
  8
IMPORT_IGES
100
AcDbPolyline
 62
7
  6
CONTINUOUS
 90
3
 70
0
 10
7.0527149069
 20
10.6431308405
 10
7.0886675714
 20
10.6296802299
 10
7.0997377198
 20
10.6244356885
  0
LWPOLYLINE
  5
52D
100
AcDbEntity
  8
IMPORT_IGES
100
AcDbPolyline
 62
7
  6
CONTINUOUS
 90
3
 70
0
 10
5.1435265977
 20
11.5977249951
 10
5.1794792622
 20
11.5842743845
 10
5.1905494106
 20
11.5790298431
  0
LWPOLYLINE
  5
52E
100
AcDbEntity
  8
0
100
AcDbPolyline
 62
7
  6
CONTINUOUS
 90
7
 70
0
 10
3.5196888825
 20
11.8761836384
 10
3.4742656673
 20
11.8939363602
 10
3.4264876156
 20
11.9095829241
 10
3.3768650178
 20
11.9230986431
 10
3.3248875835
 20
11.9345082042
 10
3.2690244423
 20
11.9438856691
 10
3.2087653039
 20
11.9512557248
  0
LINE
  5
52F
100
AcDbEntity
  8
0
100
AcDbLine
 62
7
  6
CONTINUOUS
 10
3.5627572613
 20
11.8563247588
 11
3.5196888825
 21
11.8761836384
  0
LINE
  5
530
100
AcDbEntity
  8
IMPORT_IGES
100
AcDbLine
 62
253
  6
CONTINUOUS
 10
7.0999381881
 20
10.6243357073
 11
7.0946667176
 21
10.6268023347
  0
LWPOLYLINE
  5
531
100
AcDbEntity
  8
IMPORT_IGES
100
AcDbPolyline
 62
253
  6
CONTINUOUS
 90
7
 70
0
 10
5.1907498789
 20
11.5789298619
 10
5.1854784084
 20
11.5813964893
 10
5.1623649974
 20
11.5886898001
 10
5.1374760693
 20
11.5912175464
 10
5.1112521856
 20
11.5889585204
 10
5.0841372644
 20
11.581973228
 10
5.0565946763
 20
11.5704003933
  0
LWPOLYLINE
  5
532
100
AcDbEntity
  8
0
100
AcDbPolyline
 62
7
  6
CONTINUOUS
 90
9
 70
0
 10
3.0651151226
 20
11.7917037492
 10
3.0572951657
 20
11.7955209467
 10
3.0493249103
 20
11.7992337373
 10
3.0412043563
 20
11.8028421212
 10
3.0329224469
 20
11.8063497068
 10
3.024490239
 20
11.8097528857
 10
3.0159409037
 20
11.8130408323
 10
3.0072854981
 20
11.8162099382
 10
3.0025575619
 20
11.8178558163
  0
LINE
  5
533
100
AcDbEntity
  8
IMPORT_IGES
100
AcDbLine
 62
7
  6
CONTINUOUS
 10
8.2560984393
 20
10.0038170363
 11
8.1702322744
 21
10.0466758381
  0
LINE
  5
534
100
AcDbEntity
  8
IMPORT_IGES
100
AcDbLine
 62
7
  6
CONTINUOUS
 10
7.8333950772
 20
10.2148262864
 11
7.1330662147
 21
10.5645480567
  0
LINE
  5
535
100
AcDbEntity
  8
IMPORT_IGES
100
AcDbLine
 62
7
  6
CONTINUOUS
 10
17.3073277453
 20
4.0861636633
 11
16.7678557841
 21
4.3558996439
  0
LINE
  5
536
100
AcDbEntity
  8
0
100
AcDbLine
 62
7
  6
CONTINUOUS
 10
-2.4068093142
 20
14.0941731081
 11
-2.502470602
 21
14.142003752
  0
LINE
  5
537
100
AcDbEntity
  8
0
100
AcDbLine
 62
7
  6
CONTINUOUS
 10
-15.7458335675
 20
20.7636852348
 11
-15.8418381567
 21
20.8116875294
  0
LINE
  5
538
100
AcDbEntity
  8
RACCORDO
100
AcDbLine
 62
7
  6
CONTINUOUS
 10
-15.6297061224
 20
20.7593487725
 11
-2.6189413485
 21
14.2539663856
  0
LINE
  5
539
100
AcDbEntity
  8
IMPORT_IGES
100
AcDbLine
 62
7
  6
CONTINUOUS
 10
15.7216588288
 20
5.0946620449
 11
15.8082613692
 21
5.0513607747
  0
LINE
  5
53A
100
AcDbEntity
  8
0
100
AcDbLine
 62
253
  6
CONTINUOUS
 10
4.3077883712
 20
10.9053420692
 11
3.105988329
 21
11.5062420903
  0
LINE
  5
53B
100
AcDbEntity
  8
IMPORT_IGES
100
AcDbLine
 62
7
  6
CONTINUOUS
 10
5.1507304704
 20
10.9878881895
 11
3.5875481349
 21
11.7694793573
  0
LINE
  5
53C
100
AcDbEntity
  8
IMPORT_IGES
100
AcDbLine
 62
7
  6
CONTINUOUS
 10
3.2289272565
 20
11.9487897965
 11
3.0025575619
 21
12.0619746438
  0
LINE
  5
53D
100
AcDbEntity
  8
IMPORT_IGES
100
AcDbLine
 62
7
  6
CONTINUOUS
 10
6.1769535764
 20
10.5255608867
 11
7.0684219845
 21
10.0798266827
  0
LINE
  5
53E
100
AcDbEntity
  8
0
100
AcDbLine
 62
7
  6
CONTINUOUS
 10
3.5826871046
 20
11.8463598372
 11
3.5627572613
 21
11.8563247588
  0
LINE
  5
53F
100
AcDbEntity
  8
0
100
AcDbLine
 62
7
  6
CONTINUOUS
 10
-10.4678266197
 20
18.9524243352
 11
-6.2251859326
 21
16.8311039917
  0
LINE
  5
540
100
AcDbEntity
  8
IMPORT_IGES
100
AcDbLine
 62
253
  6
CONTINUOUS
 10
7.1330662125
 20
10.5321646252
 11
6.9657829855
 21
10.6158062387
  0
LINE
  5
541
100
AcDbEntity
  8
IMPORT_IGES
100
AcDbLine
 62
253
  6
CONTINUOUS
 10
5.6929907793
 20
11.2522023418
 11
5.0565946763
 21
11.5704003933
  0
LINE
  5
542
100
AcDbEntity
  8
IMPORT_IGES
100
AcDbLine
 62
7
  6
CONTINUOUS
 10
7.8403823971
 20
10.2183199463
 11
8.1232251096
 21
10.0768985901
  0
LINE
  5
543
100
AcDbEntity
  8
IMPORT_IGES
100
AcDbLine
 62
7
  6
CONTINUOUS
 10
5.1907632504
 20
11.5789231773
 11
5.8271593534
 21
11.2607251258
  0
LINE
  5
544
100
AcDbEntity
  8
IMPORT_IGES
100
AcDbLine
 62
7
  6
CONTINUOUS
 10
7.0999515596
 20
10.6243290227
 11
7.1384229707
 21
10.6050933171
  0
LINE
  5
545
100
AcDbEntity
  8
IMPORT_IGES
100
AcDbLine
 62
253
  6
CONTINUOUS
 10
7.1439353513
 20
10.6161394284
 11
8.2305101323
 21
10.0717431754
  0
LWPOLYLINE
  5
546
100
AcDbEntity
  8
IMPORT_IGES
100
AcDbPolyline
 62
7
  6
CONTINUOUS
 90
10
 70
0
 10
8.1232181579
 20
10.0768951143
 10
8.1284312843
 20
10.074201333
 10
8.1336512837
 20
10.0713398561
 10
8.138874921
 20
10.0683109988
 10
8.1440942242
 20
10.0651145148
 10
8.1493105407
 20
10.0617517399
 10
8.1545344975
 20
10.0582251644
 10
8.1597672668
 20
10.0545357881
 10
8.1650006086
 20
10.0506835524
 10
8.1702308984
 20
10.0466691841
  0
LWPOLYLINE
  5
547
100
AcDbEntity
  8
IMPORT_IGES
100
AcDbPolyline
 62
253
  6
CONTINUOUS
 90
3
 70
0
 10
8.2427376805
 20
10.0632593604
 10
8.2365936142
 20
10.067585106
 10
8.2305257905
 20
10.0717853298
  0
LINE
  5
548
100
AcDbEntity
  8
IMPORT_IGES
100
AcDbLine
 62
253
  6
CONTINUOUS
 10
8.2613850102
 20
10.0499045254
 11
8.2427376805
 21
10.0632593604
  0
LINE
  5
549
100
AcDbEntity
  8
IMPORT_IGES
100
AcDbLine
 62
253
  6
CONTINUOUS
 10
8.2862835943
 20
10.0318567221
 11
8.2613850102
 21
10.0499045254
  0
LINE
  5
54A
100
AcDbEntity
  8
IMPORT_IGES
100
AcDbLine
 62
7
  6
CONTINUOUS
 10
7.4698326607
 20
10.0330450782
 11
7.1330662147
 21
10.4395581392
  0
LWPOLYLINE
  5
54B
100
AcDbEntity
  8
IMPORT_IGES
100
AcDbPolyline
 62
253
  6
CONTINUOUS
 90
10
 70
0
 10
8.2560984393
 20
10.0038170363
 10
8.2610627797
 20
9.9968919675
 10
8.2657885747
 20
9.9895486969
 10
8.2702758245
 20
9.9817872244
 10
8.2745780513
 20
9.9735095331
 10
8.2786417329
 20
9.9648136399
 10
8.282306302
 20
9.9559935964
 10
8.2855182363
 20
9.9471474196
 10
8.2883310581
 20
9.9381770925
 10
8.2907447675
 20
9.929082615
  0
LWPOLYLINE
  5
54C
100
AcDbEntity
  8
IMPORT_IGES
100
AcDbPolyline
 62
253
  6
CONTINUOUS
 90
10
 70
0
 10
7.6342494446
 20
11.6018578112
 10
7.6253164462
 20
11.6163166607
 10
7.6160187002
 20
11.6296523098
 10
7.6064199435
 20
11.6418703075
 10
7.5967524949
 20
11.6528085419
 10
7.5869011528
 20
11.6626839975
 10
7.5763749125
 20
11.6719761283
 10
7.5650189818
 20
11.6807414015
 10
7.5530436061
 20
11.6887294522
 10
7.5404885936
 20
11.6958509914
  0
LWPOLYLINE
  5
54D
100
AcDbEntity
  8
RACCORDO
100
AcDbPolyline
 62
253
  6
CONTINUOUS
 90
14
 70
0
 10
2.4701645619
 20
17.2003439672
 10
2.4745077032
 20
17.1929988861
 10
2.4783555121
 20
17.1859113373
 10
2.4816970808
 20
17.1791008683
 10
2.4845231052
 20
17.1725857096
 10
2.4868251051
 20
17.1663845449
 10
2.4885959375
 20
17.1605161603
 10
2.4898306685
 20
17.1549971226
 10
2.4905261314
 20
17.1498418959
 10
2.4906804242
 20
17.1450644443
 10
2.4902930744
 20
17.1406777745
 10
2.4893650926
 20
17.1366939794
 10
2.4878990163
 20
17.1331240541
 10
2.4858988706
 20
17.1299777762
  0
LWPOLYLINE
  5
54E
100
AcDbEntity
  8
IMPORT_IGES
100
AcDbPolyline
 62
253
  6
CONTINUOUS
 90
10
 70
0
 10
8.3118275527
 20
10.1579173514
 10
8.3226102017
 20
10.1374164316
 10
8.3321276073
 20
10.1158927178
 10
8.3403119169
 20
10.0934966728
 10
8.3470249721
 20
10.0705664346
 10
8.3523160087
 20
10.047069055
 10
8.3563338214
 20
10.0225552338
 10
8.3590134443
 20
9.9969429437
 10
8.3601651101
 20
9.9705619538
 10
8.3596724807
 20
9.9435652637
  0
LWPOLYLINE
  5
54F
100
AcDbEntity
  8
IMPORT_IGES
100
AcDbPolyline
 62
7
  6
CONTINUOUS
 90
3
 70
0
 10
8.3226124792
 20
9.8250408839
 10
8.3154802288
 20
9.838835449
 10
8.3087212491
 20
9.8526498466
  0
LWPOLYLINE
  5
550
100
AcDbEntity
  8
IMPORT_IGES
100
AcDbPolyline
 62
253
  6
CONTINUOUS
 90
10
 70
0
 10
8.3596727735
 20
9.9435652366
 10
8.3539512194
 20
9.954660057
 10
8.3473732616
 20
9.9656943952
 10
8.340029435
 20
9.9765669453
 10
8.3320636562
 20
9.9872399887
 10
8.3235734981
 20
9.9975571391
 10
8.3146067673
 20
10.0072512948
 10
8.3052850455
 20
10.016196479
 10
8.2957939074
 20
10.0244075565
 10
8.2862835943
 20
10.0318567221
  0
LINE
  5
551
100
AcDbEntity
  8
IMPORT_IGES
100
AcDbLine
 62
7
  6
CONTINUOUS
 10
7.5363672079
 20
11.5576394746
 11
7.6876980488
 21
11.2373890747
  0
LINE
  5
552
100
AcDbEntity
  8
IMPORT_IGES
100
AcDbLine
 62
7
  6
CONTINUOUS
 10
7.989071007
 20
10.5958052897
 11
8.2159276924
 21
10.1152853936
  0
LINE
  5
553
100
AcDbEntity
  8
IMPORT_IGES
100
AcDbLine
 62
253
  6
CONTINUOUS
 10
8.3118258112
 20
10.1579194537
 11
7.6342485777
 21
11.6018588576
  0
LINE
  5
554
100
AcDbEntity
  8
IMPORT_IGES
100
AcDbLine
 62
7
  6
CONTINUOUS
 10
7.6876980488
 20
11.2373890747
 11
7.989071007
 21
10.5958052897
  0
LWPOLYLINE
  5
555
100
AcDbEntity
  8
IMPORT_IGES
100
AcDbPolyline
 62
7
  6
CONTINUOUS
 90
10
 70
0
 10
8.2992451872
 20
9.873490878
 10
8.288572198
 20
9.8965967732
 10
8.276907754
 20
9.9188395254
 10
8.2642518552
 20
9.9402191349
 10
8.2505031548
 20
9.9608724515
 10
8.2357629996
 20
9.9806626254
 10
8.2203354299
 20
9.999179106
 10
8.2043217925
 20
10.0162850433
 10
8.1876207407
 20
10.0321172873
 10
8.1702322744
 20
10.0466758381
  0
LWPOLYLINE
  5
556
100
AcDbEntity
  8
IMPORT_IGES
100
AcDbPolyline
 62
253
  6
CONTINUOUS
 90
10
 70
0
 10
8.2159432494
 20
10.1152816121
 10
8.217922625
 20
10.1109379042
 10
8.21981486
 20
10.1064726887
 10
8.2216195744
 20
10.1018861266
 10
8.2233385067
 20
10.0971800303
 10
8.2249690632
 20
10.0923529504
 10
8.2265042864
 20
10.087400189
 10
8.227941467
 20
10.082320346
 10
8.2292821754
 20
10.077115305
 10
8.2305257888
 20
10.0717853302
  0
LWPOLYLINE
  5
557
100
AcDbEntity
  8
IMPORT_IGES
100
AcDbPolyline
 62
7
  6
CONTINUOUS
 90
10
 70
0
 10
8.2992451872
 20
9.873490878
 10
8.3002596939
 20
9.8711417002
 10
8.3012840608
 20
9.8688002071
 10
8.3023182185
 20
9.8664665724
 10
8.3033622484
 20
9.8641405905
 10
8.304415929
 20
9.8618228138
 10
8.3054787568
 20
9.8595145579
 10
8.306550542
 20
9.8572163827
 10
8.3076313874
 20
9.8549280863
 10
8.3087212491
 20
9.8526498466
  0
LWPOLYLINE
  5
558
100
AcDbEntity
  8
IMPORT_IGES
100
AcDbPolyline
 62
7
  6
CONTINUOUS
 90
7
 70
0
 10
8.3705030817
 20
9.7285979207
 10
8.3647168897
 20
9.742466826
 10
8.3583202994
 20
9.7562750757
 10
8.3514793293
 20
9.7700514185
 10
8.344418017
 20
9.7838081576
 10
8.3372456225
 20
9.7975417576
 10
8.3226124792
 20
9.8250408839
  0
LWPOLYLINE
  5
559
100
AcDbEntity
  8
IMPORT_IGES
100
AcDbPolyline
 62
253
  6
CONTINUOUS
 90
10
 70
0
 10
8.2305101323
 20
10.0717431754
 10
8.2331178115
 20
10.0638387921
 10
8.2357630015
 20
10.0559753648
 10
8.2384545275
 20
10.0481729534
 10
8.241195358
 20
10.040451492
 10
8.2439982012
 20
10.0328323791
 10
8.2468842246
 20
10.0253382111
 10
8.2498626965
 20
10.0179903938
 10
8.2529321946
 20
10.0108092561
 10
8.2560953594
 20
10.003815497
  0
LWPOLYLINE
  5
55A
100
AcDbEntity
  8
IMPORT_IGES
100
AcDbPolyline
 62
7
  6
CONTINUOUS
 90
6
 70
0
 10
12.1821002365
 20
14.3335329992
 10
12.1805502199
 20
14.35592958
 10
12.1758315649
 20
14.3783579923
 10
12.1678741939
 20
14.4004794368
 10
12.1566206304
 20
14.4220340928
 10
12.1421190057
 20
14.4426600752
  0
LINE
  5
55B
100
AcDbEntity
  8
IMPORT_IGES
100
AcDbLine
 62
253
  6
CONTINUOUS
 10
14.4930427572
 20
13.8094340495
 11
14.4930427573
 21
14.225222887
  0
LWPOLYLINE
  5
55C
100
AcDbEntity
  8
IMPORT_IGES
100
AcDbPolyline
 62
7
  6
CONTINUOUS
 90
7
 70
0
 10
19.2483500357
 20
6.1008502411
 10
19.1590262432
 20
5.9011684387
 10
19.0588140547
 20
5.7137691153
 10
18.9481203367
 20
5.5391043327
 10
18.8273985454
 20
5.377610713
 10
18.697102168
 20
5.2296443154
 10
18.6467747136
 20
5.1812232673
  0
LWPOLYLINE
  5
55D
100
AcDbEntity
  8
IMPORT_IGES
100
AcDbPolyline
 62
253
  6
CONTINUOUS
 90
3
 70
0
 10
18.769504543
 20
5.8325194557
 10
18.6672082648
 20
5.607252159
 10
18.6467747136
 20
5.5706630156
  0
LWPOLYLINE
  5
55E
100
AcDbEntity
  8
IMPORT_IGES
100
AcDbPolyline
 62
253
  6
CONTINUOUS
 90
6
 70
0
 10
19.1937686118
 20
6.0446514904
 10
19.0914723336
 20
5.8193841935
 10
18.9746357725
 20
5.6101719207
 10
18.8437591237
 20
5.4179103417
 10
18.69940269
 20
5.2434225576
 10
18.6467747136
 20
5.1912134226
  0
LWPOLYLINE
  5
55F
100
AcDbEntity
  8
IMPORT_IGES
100
AcDbPolyline
 62
7
  6
CONTINUOUS
 90
3
 70
0
 10
15.6431638081
 20
-3.5975116444
 10
15.6629618496
 20
-3.570056533
 10
15.669675082
 20
-3.5590275933
  0
LWPOLYLINE
  5
560
100
AcDbEntity
  8
IMPORT_IGES
100
AcDbPolyline
 62
253
  6
CONTINUOUS
 90
4
 70
0
 10
15.5726369493
 20
-3.6568313371
 10
15.5839124286
 20
-3.6444657801
 10
15.5938594323
 20
-3.6303060062
 10
15.6024037636
 20
-3.6144609144
  0
LINE
  5
561
100
AcDbEntity
  8
IMPORT_IGES
100
AcDbLine
 62
7
  6
CONTINUOUS
 10
3.7063156713
 20
16.0050627177
 11
4.6948762213
 21
16.2830574985
  0
LINE
  5
562
100
AcDbEntity
  8
IMPORT_IGES
100
AcDbLine
 62
7
  6
CONTINUOUS
 10
5.1130987697
 20
16.4016025361
 11
5.6587101402
 21
16.5522364331
  0
LINE
  5
563
100
AcDbEntity
  8
IMPORT_IGES
100
AcDbLine
 62
7
  6
CONTINUOUS
 10
3.310289726
 20
15.4321764814
 11
5.8144041905
 21
16.0863258227
  0
LINE
  5
564
100
AcDbEntity
  8
IMPORT_IGES
100
AcDbLine
 62
7
  6
CONTINUOUS
 10
6.096656018
 20
16.3332634942
 11
3.310289726
 21
15.6053815622
  0
LINE
  5
565
100
AcDbEntity
  8
IMPORT_IGES
100
AcDbLine
 62
7
  6
CONTINUOUS
 10
4.6815147316
 20
14.7465639786
 11
6.1017864581
 21
15.0686252097
  0
LINE
  5
566
100
AcDbEntity
  8
IMPORT_IGES
100
AcDbLine
 62
7
  6
CONTINUOUS
 10
6.3018866902
 20
15.2872050774
 11
4.6815147316
 21
14.9197690594
  0
LINE
  5
567
100
AcDbEntity
  8
IMPORT_IGES
100
AcDbLine
 62
7
  6
CONTINUOUS
 10
5.3110285643
 20
15.3468357458
 11
7.2166990173
 21
15.7732419945
  0
LWPOLYLINE
  5
568
100
AcDbEntity
  8
IMPORT_IGES
100
AcDbPolyline
 62
7
  6
CONTINUOUS
 90
6
 70
0
 10
14.713021634
 20
13.8771489285
 10
14.680442013
 20
13.87727781
 10
14.6478274891
 20
13.8735127445
 10
14.6155771405
 20
13.8658494987
 10
14.584434122
 20
13.8545421947
 10
14.5684157727
 20
13.847121898
  0
LWPOLYLINE
  5
569
100
AcDbEntity
  8
IMPORT_IGES
100
AcDbPolyline
 62
253
  6
CONTINUOUS
 90
27
 70
0
 10
7.483648798
 20
12.0727047396
 10
7.5240839782
 20
12.0549488088
 10
7.5669783607
 20
12.0399575537
 10
7.6123319455
 20
12.0277309742
 10
7.660853455
 20
12.0182000519
 10
7.7118341669
 20
12.0114338052
 10
7.7631479133
 20
12.0076392892
 10
7.8146505617
 20
12.0069111357
 10
7.8664862448
 20
12.009154713
 10
7.9169611928
 20
12.0142931802
 10
7.9661959708
 20
12.0224416944
 10
8.0140700137
 20
12.0334850987
 10
8.0585278563
 20
12.0470010807
 10
8.0993844771
 20
12.0630966573
 10
8.1368248975
 20
12.0816648117
 10
8.1693487169
 20
12.101962181
 10
8.1967471287
 20
12.1240603863
 10
8.2192289395
 20
12.1478878064
 10
8.2359201687
 20
12.1724862151
 10
8.2466184304
 20
12.1978376546
 10
8.2515261105
 20
12.2239600828
 10
8.250376386
 20
12.2499491464
 10
8.2429208341
 20
12.2758875193
 10
8.2294078777
 20
12.3016925278
 10
8.2103159616
 20
12.3262117966
 10
8.1858045676
 20
12.3490612009
 10
8.155714214
 20
12.3706248656
  0
LWPOLYLINE
  5
56A
100
AcDbEntity
  8
IMPORT_IGES
100
AcDbPolyline
 62
253
  6
CONTINUOUS
 90
20
 70
0
 10
7.5543594757
 20
12.1946626189
 10
7.5871151439
 20
12.1802123344
 10
7.6232156776
 20
12.1679146907
 10
7.6620987407
 20
12.1579612479
 10
7.7031586534
 20
12.1505070501
 10
7.7457558275
 20
12.145668211
 10
7.7892267287
 20
12.143520105
 10
7.832894213
 20
12.1440961931
 10
7.876078074
 20
12.1473875016
 10
7.9181056387
 20
12.1533427618
 10
7.9583222457
 20
12.1618692091
 10
7.9961014429
 20
12.1728340272
 10
8.0308547456
 20
12.1860664179
 10
8.062040803
 20
12.2013602607
 10
8.0891738316
 20
12.2184773242
 10
8.1118311814
 20
12.2371509768
 10
8.12965992
 20
12.2570903397
 10
8.1423823299
 20
12.2779848185
 10
8.1498002347
 20
12.2995089409
 10
8.1518468493
 20
12.3184063056
  0
LWPOLYLINE
  5
56B
100
AcDbEntity
  8
RACCORDO
100
AcDbPolyline
 62
253
  6
CONTINUOUS
 90
31
 70
0
 10
-0.0119053604
 20
16.1422534502
 10
-0.0024463901
 20
16.1377644877
 10
0.0074678863
 20
16.1335282633
 10
0.0178104901
 20
16.1295563044
 10
0.0285532605
 20
16.125859425
 10
0.0396669797
 20
16.1224476789
 10
0.0511214571
 20
16.1193303369
 10
0.0628855625
 20
16.1165158781
 10
0.0749272529
 20
16.1140119752
 10
0.0872137071
 20
16.1118254555
 10
0.0997114715
 20
16.1099622716
 10
0.1123865543
 20
16.1084274904
 10
0.1252044627
 20
16.1072252883
 10
0.1381303261
 20
16.1063589365
 10
0.1511289592
 20
16.1058307936
 10
0.1641649576
 20
16.1056422968
 10
0.1772028254
 20
16.1057939561
 10
0.1902071047
 20
16.1062853557
 10
0.2031424391
 20
16.1071151584
 10
0.2159737447
 20
16.1082811182
 10
0.2286659859
 20
16.109780056
 10
0.241184315
 20
16.1116078436
 10
0.2534944794
 20
16.1137594443
 10
0.2655632101
 20
16.1162290076
 10
0.277357981
 20
16.1190098642
 10
0.2888478435
 20
16.1220947742
 10
0.3000003253
 20
16.1254750779
 10
0.3107821352
 20
16.1291405191
 10
0.3211633243
 20
16.133080517
 10
0.3311170364
 20
16.1372844645
 10
0.3406165993
 20
16.1417407263
  0
LWPOLYLINE
  5
56C
100
AcDbEntity
  8
RACCORDO
100
AcDbPolyline
 62
253
  6
CONTINUOUS
 90
31
 70
0
 10
-13.3762235248
 20
22.8244125324
 10
-13.3667645545
 20
22.81992357
 10
-13.3568502781
 20
22.8156873455
 10
-13.3465076743
 20
22.8117153866
 10
-13.3357649039
 20
22.8080185072
 10
-13.3246511847
 20
22.8046067612
 10
-13.3131967073
 20
22.8014894192
 10
-13.301432602
 20
22.7986749603
 10
-13.2893909116
 20
22.7961710574
 10
-13.2771044573
 20
22.7939845377
 10
-13.2646066929
 20
22.7921213538
 10
-13.2519316101
 20
22.7905865726
 10
-13.2391137017
 20
22.7893843706
 10
-13.2261878383
 20
22.7885180187
 10
-13.2131892052
 20
22.7879898758
 10
-13.2001532069
 20
22.787801379
 10
-13.187115339
 20
22.7879530383
 10
-13.1741110598
 20
22.7884444379
 10
-13.1611757253
 20
22.7892742406
 10
-13.1483444197
 20
22.7904402004
 10
-13.1356521785
 20
22.7919391383
 10
-13.1231338494
 20
22.7937669258
 10
-13.1108236851
 20
22.7959185265
 10
-13.0987549543
 20
22.7983880898
 10
-13.0869601834
 20
22.8011689464
 10
-13.0754703209
 20
22.8042538565
 10
-13.0643178391
 20
22.8076341601
 10
-13.0535360293
 20
22.8112996013
 10
-13.0431548401
 20
22.8152395992
 10
-13.033201128
 20
22.8194435467
 10
-13.0237015651
 20
22.8238998085
  0
LWPOLYLINE
  5
56D
100
AcDbEntity
  8
RACCORDO
100
AcDbPolyline
 62
253
  6
CONTINUOUS
 90
31
 70
0
 10
-0.0119053604
 20
16.4822273843
 10
-0.002445211
 20
16.4777378909
 10
0.0074703756
 20
16.4735011888
 10
0.0178144134
 20
16.4695288116
 10
0.0285587616
 20
16.46583157
 10
0.0396741672
 20
16.4624195338
 10
0.0511303407
 20
16.4593020016
 10
0.06289609
 20
16.4564874604
 10
0.0749393973
 20
16.4539835681
 10
0.0872274699
 20
16.451797141
 10
0.0997268575
 20
16.4499341291
 10
0.1124035393
 20
16.4483996012
 10
0.1252230052
 20
16.4471977329
 10
0.1381503767
 20
16.4463317925
 10
0.1511504519
 20
16.4458041366
 10
0.1641877952
 20
16.4456161992
 10
0.1772268666
 20
16.4457684844
 10
0.1902322315
 20
16.4462605703
 10
0.2031686059
 20
16.44709112
 10
0.216000945
 20
16.448257893
 10
0.2286941521
 20
16.4497577078
 10
0.2412133014
 20
16.4515864245
 10
0.253524098
 20
16.4537389939
 10
0.2655933028
 20
16.4562095639
 10
0.2773884205
 20
16.4589914677
 10
0.2888798431
 20
16.462077847
 10
0.3000336596
 20
16.4654597217
 10
0.3108128152
 20
16.4691254808
 10
0.3211865812
 20
16.4730637666
 10
0.3311298852
 20
16.4772641191
 10
0.3406165993
 20
16.4817146604
  0
LWPOLYLINE
  5
56E
100
AcDbEntity
  8
RACCORDO
100
AcDbPolyline
 62
253
  6
CONTINUOUS
 90
31
 70
0
 10
-13.3762235248
 20
23.1643864665
 10
-13.3667881137
 20
23.1599081159
 10
-13.3568933212
 20
23.1556787248
 10
-13.3465651631
 20
23.1517102359
 10
-13.3358286746
 20
23.1480131891
 10
-13.3247144153
 20
23.1445989944
 10
-13.3132591265
 20
23.1414793054
 10
-13.3014965391
 20
23.1386631838
 10
-13.2894562515
 20
23.1361575942
 10
-13.2771707034
 20
23.1339693014
 10
-13.2646730816
 20
23.1321042543
 10
-13.2519976077
 20
23.130567597
 10
-13.2391791366
 20
23.1293635669
 10
-13.2262527191
 20
23.1284954471
 10
-13.2132533801
 20
23.1279655806
 10
-13.2002163879
 20
23.1277754064
 10
-13.1871771718
 20
23.1279254494
 10
-13.1741712754
 20
23.1284153087
 10
-13.1612341469
 20
23.1292436532
 10
-13.1484010135
 20
23.130408229
 10
-13.1357067912
 20
23.1319058691
 10
-13.1231860377
 20
23.1337324985
 10
-13.1108728314
 20
23.1358831476
 10
-13.0988006904
 20
23.1383519639
 10
-13.0870024856
 20
23.1411322265
 10
-13.0755103227
 20
23.1442163711
 10
-13.0643554914
 20
23.1475960017
 10
-13.0535683868
 20
23.1512619086
 10
-13.0431783779
 20
23.1552041077
 10
-13.0332137309
 20
23.1594118706
 10
-13.0237015651
 20
23.1638737427
  0
LWPOLYLINE
  5
56F
100
AcDbEntity
  8
IMPORT_IGES
100
AcDbPolyline
 62
253
  6
CONTINUOUS
 90
9
 70
0
 10
3.0025575619
 20
13.8977798796
 10
3.4101256989
 20
13.6939375333
 10
3.9793494989
 20
13.4086964204
 10
4.572220819
 20
13.1108849135
 10
5.1746666524
 20
12.8069040891
 10
5.768400873
 20
12.5053851132
 10
6.347322007
 20
12.2090827101
 10
6.9172576926
 20
11.914836135
 10
7.4779813226
 20
11.6224201834
  0
LINE
  5
570
100
AcDbEntity
  8
RACCORDO
100
AcDbLine
 62
7
  6
CONTINUOUS
 10
-13.9982152503
 20
22.5236024491
 11
-12.6650029167
 21
21.8569962823
  0
LINE
  5
571
100
AcDbEntity
  8
RACCORDO
100
AcDbLine
 62
7
  6
CONTINUOUS
 10
-0.6338970859
 20
15.8414433669
 11
0.6993152477
 21
15.1748372001
  0
LINE
  5
572
100
AcDbEntity
  8
IMPORT_IGES
100
AcDbLine
 62
253
  6
CONTINUOUS
 10
7.483648798
 20
12.0727047396
 11
3.0025575619
 21
14.3132503575
  0
LINE
  5
573
100
AcDbEntity
  8
RACCORDO
100
AcDbLine
 62
7
  6
CONTINUOUS
 10
-3.5402430609
 20
17.6708629791
 11
-9.0515501606
 21
20.4265165289
  0
LINE
  5
574
100
AcDbEntity
  8
IMPORT_IGES
100
AcDbLine
 62
253
  6
CONTINUOUS
 10
3.0025575619
 20
14.4705635758
 11
7.5543594748
 21
12.1946626194
  0
LINE
  5
575
100
AcDbEntity
  8
IMPORT_IGES
100
AcDbLine
 62
253
  6
CONTINUOUS
 10
18.9977953553
 20
6.5019028872
 11
18.6467747136
 21
6.677413208
  0
LINE
  5
576
100
AcDbEntity
  8
RACCORDO
100
AcDbLine
 62
7
  6
CONTINUOUS
 10
-14.6362349082
 20
23.3516864222
 11
-13.3112502284
 21
22.6891940823
  0
LINE
  5
577
100
AcDbEntity
  8
RACCORDO
100
AcDbLine
 62
7
  6
CONTINUOUS
 10
-1.2719167438
 20
16.66952734
 11
0.053067936
 21
16.0070350001
  0
LINE
  5
578
100
AcDbEntity
  8
IMPORT_IGES
100
AcDbLine
 62
7
  6
CONTINUOUS
 10
19.0872380745
 20
6.5075832445
 11
18.6467747136
 21
6.727814925
  0
LINE
  5
579
100
AcDbEntity
  8
IMPORT_IGES
100
AcDbLine
 62
253
  6
CONTINUOUS
 10
3.0025575619
 20
14.6278767943
 11
7.625070154
 21
12.3166204983
  0
LINE
  5
57A
100
AcDbEntity
  8
RACCORDO
100
AcDbLine
 62
253
  6
CONTINUOUS
 10
-14.7012082046
 20
23.4869048723
 11
-13.3762235248
 21
22.8244125324
  0
LINE
  5
57B
100
AcDbEntity
  8
RACCORDO
100
AcDbLine
 62
253
  6
CONTINUOUS
 10
-1.3368900402
 20
16.8047457901
 11
-0.0119053604
 21
16.1422534502
  0
LINE
  5
57C
100
AcDbEntity
  8
RACCORDO
100
AcDbLine
 62
253
  6
CONTINUOUS
 10
-0.0119053604
 20
16.4822273843
 11
-1.3368900402
 21
17.1447197242
  0
LINE
  5
57D
100
AcDbEntity
  8
RACCORDO
100
AcDbLine
 62
253
  6
CONTINUOUS
 10
-13.3762235248
 20
23.1643864665
 11
-14.7012082046
 21
23.8268788064
  0
LINE
  5
57E
100
AcDbEntity
  8
IMPORT_IGES
100
AcDbLine
 62
253
  6
CONTINUOUS
 10
7.9786235446
 20
12.4933971936
 11
3.0025575619
 21
14.9814301849
  0
LINE
  5
57F
100
AcDbEntity
  8
IMPORT_IGES
100
AcDbLine
 62
7
  6
CONTINUOUS
 10
8.0233449041
 20
12.4962373723
 11
3.0025575619
 21
15.0066310434
  0
LINE
  5
580
100
AcDbEntity
  8
DRAFT
100
AcDbLine
 62
7
  6
CONTINUOUS
 10
-1.383626267
 20
17.3450478315
 11
-2.4775199923
 21
17.8919946942
  0
LINE
  5
581
100
AcDbEntity
  8
DRAFT
100
AcDbLine
 62
7
  6
CONTINUOUS
 10
-9.19799677
 20
21.252233083
 11
-11.4224207743
 21
22.3644450852
  0
LINE
  5
582
100
AcDbEntity
  8
RACCORDO
100
AcDbLine
 62
253
  6
CONTINUOUS
 10
0.1638428956
 20
16.7866041993
 11
-1.1611417842
 21
17.4490965392
  0
LINE
  5
583
100
AcDbEntity
  8
RACCORDO
100
AcDbLine
 62
253
  6
CONTINUOUS
 10
-13.2004752688
 20
23.4687632815
 11
-14.5254599486
 21
24.1312556214
  0
LINE
  5
584
100
AcDbEntity
  8
RACCORDO
100
AcDbLine
 62
253
  6
CONTINUOUS
 10
-3.5402430609
 20
18.7514462899
 11
-9.0515501606
 21
21.5070998397
  0
LWPOLYLINE
  5
585
100
AcDbEntity
  8
IMPORT_IGES
100
AcDbPolyline
 62
7
  6
CONTINUOUS
 90
5
 70
0
 10
3.0025575619
 20
13.1600177742
 10
4.3333931962
 20
12.4936680713
 10
5.3227173349
 20
11.9971506914
 10
6.3117113747
 20
11.4998724504
 10
7.3003753155
 20
11.0018333482
  0
LWPOLYLINE
  5
586
100
AcDbEntity
  8
IMPORT_IGES
100
AcDbPolyline
 62
253
  6
CONTINUOUS
 90
9
 70
0
 10
7.5404885782
 20
11.6958509991
 10
6.9786246299
 20
11.9862940194
 10
6.4080788807
 20
12.2793107086
 10
5.8288513305
 20
12.5749010665
 10
5.2347052105
 20
12.875861216
 10
4.6318772895
 20
13.1793950344
 10
4.0390778745
 20
13.4771141535
 10
3.4701194091
 20
13.7624354251
 10
3.0025575619
 20
13.9962511424
  0
LWPOLYLINE
  5
587
100
AcDbEntity
  8
RACCORDO
100
AcDbPolyline
 62
7
  6
CONTINUOUS
 90
22
 70
0
 10
-14.6361956037
 20
23.3516667815
 10
-14.6449143943
 20
23.3562410396
 10
-14.6567219734
 20
23.363163018
 10
-14.6681200793
 20
23.3707117084
 10
-14.6790340352
 20
23.378829337
 10
-14.6894557433
 20
23.3874981129
 10
-14.6994304949
 20
23.3967565149
 10
-14.7089361834
 20
23.4065981554
 10
-14.7179123897
 20
23.416973452
 10
-14.7263374835
 20
23.427868739
 10
-14.7341745663
 20
23.4392496614
 10
-14.7413914316
 20
23.4510821412
 10
-14.7479704891
 20
23.4633542879
 10
-14.7538819421
 20
23.4760334658
 10
-14.7590939228
 20
23.4890751729
 10
-14.7635837165
 20
23.502449402
 10
-14.767325425
 20
23.5161109113
 10
-14.7702971525
 20
23.5300153518
 10
-14.7724818873
 20
23.544132187
 10
-14.7738606334
 20
23.5584079585
 10
-14.7744190263
 20
23.5727950183
 10
-14.7744315082
 20
23.5753052227
  0
LWPOLYLINE
  5
588
100
AcDbEntity
  8
RACCORDO
100
AcDbPolyline
 62
7
  6
CONTINUOUS
 90
22
 70
0
 10
-1.2718774393
 20
16.6695076992
 10
-1.2805962298
 20
16.6740819574
 10
-1.292403809
 20
16.6810039358
 10
-1.3038019149
 20
16.6885526262
 10
-1.3147158707
 20
16.6966702547
 10
-1.3251375788
 20
16.7053390307
 10
-1.3351123305
 20
16.7145974327
 10
-1.344618019
 20
16.7244390732
 10
-1.3535942252
 20
16.7348143698
 10
-1.3620193191
 20
16.7457096568
 10
-1.3698564019
 20
16.7570905791
 10
-1.3770732672
 20
16.768923059
 10
-1.3836523247
 20
16.7811952057
 10
-1.3895637777
 20
16.7938743836
 10
-1.3947757583
 20
16.8069160906
 10
-1.3992655521
 20
16.8202903198
 10
-1.4030072606
 20
16.8339518291
 10
-1.4059789881
 20
16.8478562696
 10
-1.4081637229
 20
16.8619731048
 10
-1.4095424689
 20
16.8762488763
 10
-1.4101008618
 20
16.890635936
 10
-1.4101133437
 20
16.8931461405
  0
LWPOLYLINE
  5
589
100
AcDbEntity
  8
RACCORDO
100
AcDbPolyline
 62
253
  6
CONTINUOUS
 90
16
 70
0
 10
-14.7012082046
 20
23.4869048723
 10
-14.7101861295
 20
23.4916343575
 10
-14.7186585784
 20
23.4965914957
 10
-14.7266024961
 20
23.5017627975
 10
-14.7339962549
 20
23.5071341828
 10
-14.7408197471
 20
23.5126910424
 10
-14.7470544311
 20
23.518418281
 10
-14.7526833488
 20
23.5243003337
 10
-14.7576911546
 20
23.5303211789
 10
-14.762064194
 20
23.536464406
 10
-14.7657905618
 20
23.5427132882
 10
-14.7688601243
 20
23.5490508296
 10
-14.7712645283
 20
23.5554597838
 10
-14.7729972319
 20
23.5619227155
 10
-14.7740535178
 20
23.5684220321
 10
-14.7744315093
 20
23.5752932212
  0
LWPOLYLINE
  5
58A
100
AcDbEntity
  8
RACCORDO
100
AcDbPolyline
 62
253
  6
CONTINUOUS
 90
16
 70
0
 10
-14.7012082046
 20
23.8268788064
 10
-14.7101871915
 20
23.8316088811
 10
-14.7186605957
 20
23.8365666744
 10
-14.72660535
 20
23.8417386933
 10
-14.7339998332
 20
23.8471108674
 10
-14.7408239056
 20
23.8526685702
 10
-14.74705897
 20
23.858396657
 10
-14.7526880523
 20
23.8642795316
 10
-14.7576958371
 20
23.8703011853
 10
-14.7620686912
 20
23.8764452216
 10
-14.765794715
 20
23.8826949154
 10
-14.7688637707
 20
23.8890332563
 10
-14.7712675074
 20
23.8954429892
 10
-14.7729993882
 20
23.901906675
 10
-14.7740547001
 20
23.9084067125
 10
-14.7744315093
 20
23.915267157
  0
LWPOLYLINE
  5
58B
100
AcDbEntity
  8
RACCORDO
100
AcDbPolyline
 62
253
  6
CONTINUOUS
 90
16
 70
0
 10
-1.3368900402
 20
16.8047457901
 10
-1.3458679651
 20
16.8094752752
 10
-1.354340414
 20
16.8144324134
 10
-1.3622843317
 20
16.8196037153
 10
-1.3696780905
 20
16.8249751005
 10
-1.3765015827
 20
16.8305319601
 10
-1.3827362667
 20
16.8362591988
 10
-1.3883651844
 20
16.8421412515
 10
-1.3933729901
 20
16.8481620967
 10
-1.3977460296
 20
16.8543053238
 10
-1.4014723973
 20
16.860554206
 10
-1.4045419598
 20
16.8668917474
 10
-1.4069463639
 20
16.8733007016
 10
-1.4086790675
 20
16.8797636333
 10
-1.4097353534
 20
16.8862629499
 10
-1.4101133449
 20
16.893134139
  0
LWPOLYLINE
  5
58C
100
AcDbEntity
  8
RACCORDO
100
AcDbPolyline
 62
253
  6
CONTINUOUS
 90
16
 70
0
 10
-1.3368900402
 20
17.1447197242
 10
-1.3458671074
 20
17.1494487333
 10
-1.3543388
 20
17.1544053518
 10
-1.3622820694
 20
17.1595760944
 10
-1.3696753044
 20
17.1649468932
 10
-1.3764983907
 20
17.170503136
 10
-1.3827327647
 20
17.1762297062
 10
-1.3883614649
 20
17.1821110236
 10
-1.3933691774
 20
17.1881310871
 10
-1.3977422778
 20
17.1942735182
 10
-1.4014688685
 20
17.2005216052
 10
-1.4045388105
 20
17.2068583492
 10
-1.4069437517
 20
17.21326651
 10
-1.4086771488
 20
17.2197286532
 10
-1.4097342861
 20
17.2262271974
 10
-1.4101133449
 20
17.2331080719
  0
LINE
  5
58D
100
AcDbEntity
  8
IMPORT_IGES
100
AcDbLine
 62
253
  6
CONTINUOUS
 10
8.155714214
 20
12.3706248656
 11
8.1396293182
 21
12.379769093
  0
LINE
  5
58E
100
AcDbEntity
  8
IMPORT_IGES
100
AcDbLine
 62
253
  6
CONTINUOUS
 10
19.0254860742
 20
6.4858345259
 11
18.9977953554
 21
6.5019028871
  0
LWPOLYLINE
  5
58F
100
AcDbEntity
  8
RACCORDO
100
AcDbPolyline
 62
7
  6
CONTINUOUS
 90
37
 70
0
 10
1.9417921488
 20
15.6819665612
 10
1.956694433
 20
15.6731681529
 10
1.9715988817
 20
15.6635904988
 10
1.9864774219
 20
15.6532473785
 10
2.0013218363
 20
15.6421438663
 10
2.0160835159
 20
15.6303057291
 10
2.0306751657
 20
15.6177871055
 10
2.0450554386
 20
15.6046236539
 10
2.0592139314
 20
15.5908351797
 10
2.0731127388
 20
15.5764621655
 10
2.0867087321
 20
15.5615577129
 10
2.0999994594
 20
15.5461332079
 10
2.1130066854
 20
15.5301634686
 10
2.1257139827
 20
15.5136651396
 10
2.1380885161
 20
15.4966775572
 10
2.1501232252
 20
15.4792034116
 10
2.1618114225
 20
15.4612432106
 10
2.173108712
 20
15.4428550937
 10
2.1839547541
 20
15.4241316558
 10
2.1943288252
 20
15.4051129669
 10
2.2042149239
 20
15.3858318016
 10
2.2135696295
 20
15.3663762087
 10
2.2223779012
 20
15.3467931063
 10
2.2306331561
 20
15.3271129592
 10
2.2383129473
 20
15.3074013564
 10
2.2454061066
 20
15.2877128835
 10
2.2519153096
 20
15.2680678194
 10
2.257841386
 20
15.2484795152
 10
2.2631802398
 20
15.2289856456
 10
2.2679305831
 20
15.2096178503
 10
2.272094793
 20
15.1903794001
 10
2.2756714674
 20
15.1712967139
 10
2.2786576398
 20
15.1524090084
 10
2.2810515357
 20
15.1337383
 10
2.2828524583
 20
15.1153127028
 10
2.2840616851
 20
15.0971661238
 10
2.284681139
 20
15.0793284328
  0
LWPOLYLINE
  5
590
100
AcDbEntity
  8
IMPORT_IGES
100
AcDbPolyline
 62
253
  6
CONTINUOUS
 90
10
 70
0
 10
7.4779813226
 20
11.6224201834
 10
7.48630043
 20
11.6174518813
 10
7.4940949878
 20
11.6119958939
 10
7.5013679585
 20
11.6060511508
 10
7.5080364349
 20
11.5997085672
 10
7.5141858449
 20
11.5928764628
 10
7.5200708497
 20
11.5852801574
 10
7.525776014
 20
11.5768282624
 10
7.5312149067
 20
11.5676130839
 10
7.5363849298
 20
11.5576357618
  0
LWPOLYLINE
  5
591
100
AcDbEntity
  8
IMPORT_IGES
100
AcDbPolyline
 62
253
  6
CONTINUOUS
 90
3
 70
0
 10
7.9786235446
 20
12.4933971936
 10
8.0036410384
 20
12.4784434534
 10
8.0234304423
 20
12.4626557409
  0
LWPOLYLINE
  5
592
100
AcDbEntity
  8
IMPORT_IGES
100
AcDbPolyline
 62
7
  6
CONTINUOUS
 90
3
 70
0
 10
8.0736732124
 20
12.4648289958
 10
8.0500325234
 20
12.4813125947
 10
8.0233449041
 20
12.4962373723
  0
LINE
  5
593
100
AcDbEntity
  8
IMPORT_IGES
100
AcDbLine
 62
7
  6
CONTINUOUS
 10
15.8082613692
 20
5.0513607747
 11
17.0386271684
 21
4.1596594718
  0
LINE
  5
594
100
AcDbEntity
  8
IMPORT_IGES
100
AcDbLine
 62
7
  6
CONTINUOUS
 10
15.7527522162
 20
5.1015912693
 11
16.190099031
 21
4.7846264083
  0
LINE
  5
595
100
AcDbEntity
  8
IMPORT_IGES
100
AcDbLine
 62
7
  6
CONTINUOUS
 10
17.3073277453
 20
4.0861636633
 11
15.8365456404
 21
5.1521054507
  0
LINE
  5
596
100
AcDbEntity
  8
IMPORT_IGES
100
AcDbLine
 62
7
  6
CONTINUOUS
 10
15.7904742518
 20
5.1290697564
 11
15.7974875229
 21
5.1239589227
  0
LWPOLYLINE
  5
597
100
AcDbEntity
  8
IMPORT_IGES
100
AcDbPolyline
 62
7
  6
CONTINUOUS
 90
3
 70
0
 10
8.1118656185
 20
12.4275333816
 10
8.0942768313
 20
12.4468842748
 10
8.0736732124
 20
12.4648289958
  0
LWPOLYLINE
  5
598
100
AcDbEntity
  8
IMPORT_IGES
100
AcDbPolyline
 62
253
  6
CONTINUOUS
 90
4
 70
0
 10
8.0234304423
 20
12.4626557409
 10
8.0379917563
 20
12.446034056
 10
8.0473822143
 20
12.4282037691
 10
8.0515445823
 20
12.4095395098
  0
LINE
  5
599
100
AcDbEntity
  8
IMPORT_IGES
100
AcDbLine
 62
7
  6
CONTINUOUS
 10
17.4830585554
 20
-0.0352913063
 11
17.3073277453
 21
0.2331577163
  0
LWPOLYLINE
  5
59A
100
AcDbEntity
  8
IMPORT_IGES
100
AcDbPolyline
 62
253
  6
CONTINUOUS
 90
10
 70
0
 10
15.2628630804
 20
13.3023750441
 10
15.2614403437
 20
13.3331261833
 10
15.2571821966
 20
13.3649388789
 10
15.2501325434
 20
13.3973888562
 10
15.240365027
 20
13.4300647421
 10
15.2280039279
 20
13.4624983065
 10
15.2132420381
 20
13.4941743859
 10
15.1962985487
 20
13.5246418419
 10
15.1773970252
 20
13.5535153526
 10
15.1567970636
 20
13.5804080528
  0
LWPOLYLINE
  5
59B
100
AcDbEntity
  8
IMPORT_IGES
100
AcDbPolyline
 62
7
  6
CONTINUOUS
 90
7
 70
0
 10
16.5875864044
 20
13.6664965594
 10
16.5843389078
 20
13.7476646047
 10
16.5747010663
 20
13.8249425111
 10
16.5588319517
 20
13.8979318685
 10
16.5368057188
 20
13.9664947804
 10
16.5088495099
 20
14.0299818414
 10
16.4755994815
 20
14.0873624707
  0
LINE
  5
59C
100
AcDbEntity
  8
IMPORT_IGES
100
AcDbLine
 62
253
  6
CONTINUOUS
 10
16.5412231101
 20
13.6771906441
 11
16.5436524216
 21
13.6134635509
  0
LINE
  5
59D
100
AcDbEntity
  8
IMPORT_IGES
100
AcDbLine
 62
253
  6
CONTINUOUS
 10
16.190099031
 20
4.7746258876
 11
16.190099031
 21
4.7846264083
  0
LINE
  5
59E
100
AcDbEntity
  8
IMPORT_IGES
100
AcDbLine
 62
253
  6
CONTINUOUS
 10
16.5436524216
 20
13.131775855
 11
16.5436524216
 21
13.6134635509
  0
LINE
  5
59F
100
AcDbEntity
  8
IMPORT_IGES
100
AcDbLine
 62
7
  6
CONTINUOUS
 10
16.5875864044
 20
13.1098088636
 11
16.5875864044
 21
13.6664965594
  0
LINE
  5
5A0
100
AcDbEntity
  8
IMPORT_IGES
100
AcDbLine
 62
253
  6
CONTINUOUS
 10
17.0386271684
 20
-1.0000274088
 11
17.0386271684
 21
4.1596594718
  0
LINE
  5
5A1
100
AcDbEntity
  8
IMPORT_IGES
100
AcDbLine
 62
7
  6
CONTINUOUS
 10
17.1264951341
 20
-0.8939613916
 11
17.1264951341
 21
4.0829181373
  0
LINE
  5
5A2
100
AcDbEntity
  8
IMPORT_IGES
100
AcDbLine
 62
7
  6
CONTINUOUS
 10
17.1264951341
 20
-0.8939613916
 11
17.125373816
 21
-0.9280651974
  0
LINE
  5
5A3
100
AcDbEntity
  8
IMPORT_IGES
100
AcDbLine
 62
253
  6
CONTINUOUS
 10
15.6214452299
 20
-3.5368651887
 11
15.6222498051
 21
-3.5146608956
  0
LWPOLYLINE
  5
5A4
100
AcDbEntity
  8
IMPORT_IGES
100
AcDbPolyline
 62
253
  6
CONTINUOUS
 90
10
 70
0
 10
17.0386271684
 20
-1.0000274088
 10
17.0380555657
 20
-1.0155936217
 10
17.0364493733
 20
-1.0313386251
 10
17.0338085911
 20
-1.0472624192
 10
17.0300973562
 20
-1.0634889747
 10
17.0253515316
 20
-1.0798943207
 10
17.019678706
 20
-1.0961065449
 10
17.0131147424
 20
-1.1120016764
 10
17.0056237778
 20
-1.1277036862
 10
16.9972058122
 20
-1.143212574
  0
LWPOLYLINE
  5
5A5
100
AcDbEntity
  8
IMPORT_IGES
100
AcDbPolyline
 62
7
  6
CONTINUOUS
 90
6
 70
0
 10
17.125373816
 20
-0.9280651974
 10
17.12208107
 20
-0.961971801
 10
17.11670651
 20
-0.9956389297
 10
17.1092766012
 20
-1.0291907003
 10
17.099845807
 20
-1.0624659012
 10
17.08859024
 20
-1.095002512
  0
LWPOLYLINE
  5
5A6
100
AcDbEntity
  8
IMPORT_IGES
100
AcDbPolyline
 62
253
  6
CONTINUOUS
 90
7
 70
0
 10
17.1264951341
 20
-0.8939613916
 10
17.1239285925
 20
-0.9135403204
 10
17.116272882
 20
-0.9327842483
 10
17.1036589938
 20
-0.9513639064
 10
17.0863027552
 20
-0.9689613916
 10
17.0645011362
 20
-0.9852756059
 10
17.0386271684
 20
-1.0000274088
  0
LWPOLYLINE
  5
5A7
100
AcDbEntity
  8
IMPORT_IGES
100
AcDbPolyline
 62
253
  6
CONTINUOUS
 90
3
 70
0
 10
15.6150388541
 20
-3.5782195802
 10
15.6190361883
 20
-3.558105638
 10
15.6214452299
 20
-3.5368651887
  0
LWPOLYLINE
  5
5A8
100
AcDbEntity
  8
IMPORT_IGES
100
AcDbPolyline
 62
253
  6
CONTINUOUS
 90
4
 70
0
 10
19.1937686117
 20
6.0446514901
 10
19.2026921029
 20
6.072371456
 10
19.2081092625
 20
6.1029958505
 10
19.2099273885
 20
6.1360006081
  0
LWPOLYLINE
  5
5A9
100
AcDbEntity
  8
IMPORT_IGES
100
AcDbPolyline
 62
253
  6
CONTINUOUS
 90
3
 70
0
 10
15.6024037636
 20
-3.6144609144
 10
15.6094812564
 20
-3.5970533124
 10
15.6150388541
 20
-3.5782195802
  0
LWPOLYLINE
  5
5AA
100
AcDbEntity
  8
IMPORT_IGES
100
AcDbPolyline
 62
7
  6
CONTINUOUS
 90
4
 70
0
 10
17.08859024
 20
-1.095002512
 10
17.0756376591
 20
-1.1266401075
 10
17.0609740624
 20
-1.157518937
 10
17.0446061212
 20
-1.1876223447
  0
LWPOLYLINE
  5
5AB
100
AcDbEntity
  8
IMPORT_IGES
100
AcDbPolyline
 62
253
  6
CONTINUOUS
 90
6
 70
0
 10
19.2483500357
 20
6.1008502411
 10
19.2469756645
 20
6.0976417959
 10
19.2379431711
 20
6.0817309701
 10
19.2259194009
 20
6.0674379159
 10
19.2111100839
 20
6.0550071916
 10
19.1937686117
 20
6.0446514901
  0
LINE
  5
5AC
100
AcDbEntity
  8
IMPORT_IGES
100
AcDbLine
 62
253
  6
CONTINUOUS
 10
16.9972058122
 20
-1.143212574
 11
15.6222498051
 21
-3.5146608956
  0
LINE
  5
5AD
100
AcDbEntity
  8
IMPORT_IGES
100
AcDbLine
 62
7
  6
CONTINUOUS
 10
15.6696501141
 20
-3.5590706663
 11
17.0446061212
 21
-1.1876223447
  0
LINE
  5
5AE
100
AcDbEntity
  8
RACCORDO
100
AcDbLine
 62
253
  6
CONTINUOUS
 10
0.6988010194
 20
-24.1805970979
 11
0.0764829873
 21
-24.9256565154
  0
LINE
  5
5AF
100
AcDbEntity
  8
RACCORDO
100
AcDbLine
 62
253
  6
CONTINUOUS
 10
1.0518372074
 20
-24.3063669359
 11
0.3406165993
 21
-25.1578634131
  0
LINE
  5
5B0
100
AcDbEntity
  8
RACCORDO
100
AcDbLine
 62
253
  6
CONTINUOUS
 10
7.3101259971
 20
-15.9669909729
 11
3.0025575619
 21
-17.2416131928
  0
LWPOLYLINE
  5
5B1
100
AcDbEntity
  8
IMPORT_IGES
100
AcDbPolyline
 62
253
  6
CONTINUOUS
 90
11
 70
0
 10
14.8647546263
 20
13.9541323188
 10
14.8580373032
 20
13.954865152
 10
14.8501052215
 20
13.9527775657
 10
14.8411181148
 20
13.9478974598
 10
14.8312298718
 20
13.9402452922
 10
14.8206369526
 20
13.9299197035
 10
14.8096035292
 20
13.9171957715
 10
14.7983707134
 20
13.902348433
 10
14.7871803311
 20
13.8856565018
 10
14.7763021538
 20
13.8675224172
 10
14.7751983497
 20
13.8654773399
  0
LINE
  5
5B2
100
AcDbEntity
  8
RACCORDO
100
AcDbLine
 62
7
  6
CONTINUOUS
 10
0.1137731058
 20
15.9859195655
 11
0.7393797994
 21
15.8552981692
  0
LINE
  5
5B3
100
AcDbEntity
  8
RACCORDO
100
AcDbLine
 62
253
  6
CONTINUOUS
 10
0.3406165993
 20
16.1417407263
 11
1.0518372074
 21
15.9932372035
  0
LWPOLYLINE
  5
5B4
100
AcDbEntity
  8
RACCORDO
100
AcDbPolyline
 62
7
  6
CONTINUOUS
 90
10
 70
0
 10
0.1137731058
 20
15.9859195655
 10
0.1062315085
 20
15.9876163462
 10
0.0987282535
 20
15.9895503372
 10
0.0912740271
 20
15.9917203959
 10
0.083863315
 20
15.9941302745
 10
0.0765243803
 20
15.9967725703
 10
0.0693150375
 20
15.9996244954
 10
0.0622574396
 20
16.0026716501
 10
0.0553422896
 20
16.0059122095
 10
0.0530573189
 20
16.0070403095
  0
LWPOLYLINE
  5
5B5
100
AcDbEntity
  8
IMPORT_IGES
100
AcDbPolyline
 62
7
  6
CONTINUOUS
 90
13
 70
0
 10
16.3211948607
 20
13.2140582003
 10
16.3225944722
 20
13.2137300964
 10
16.3251176536
 20
13.213081119
 10
16.3262907456
 20
13.2127446496
 10
16.3260974251
 20
13.2128046818
 10
16.3250565998
 20
13.2131467791
 10
16.3232207977
 20
13.2137759312
 10
16.3204849954
 20
13.2147465714
 10
16.3171505427
 20
13.2159640209
 10
16.313293148
 20
13.2174061316
 10
16.3088373386
 20
13.2191059375
 10
16.303879161
 20
13.2210308166
 10
16.2984273119
 20
13.2231799047
  0
LWPOLYLINE
  5
5B6
100
AcDbEntity
  8
IMPORT_IGES
100
AcDbPolyline
 62
253
  6
CONTINUOUS
 90
5
 70
0
 10
14.803734123
 20
13.8545662261
 10
14.7936510652
 20
13.8570205433
 10
14.7827583443
 20
13.8571800061
 10
14.771036787
 20
13.8550585956
 10
14.7583157782
 20
13.8506935197
  0
LWPOLYLINE
  5
5B7
100
AcDbEntity
  8
IMPORT_IGES
100
AcDbPolyline
 62
7
  6
CONTINUOUS
 90
3
 70
0
 10
14.7766069436
 20
13.8651191793
 10
14.7452902028
 20
13.8730820303
 10
14.713021634
 20
13.8771489285
  0
LWPOLYLINE
  5
5B8
100
AcDbEntity
  8
IMPORT_IGES
100
AcDbPolyline
 62
253
  6
CONTINUOUS
 90
4
 70
0
 10
16.2539311534
 20
13.260339726
 10
16.2407635805
 20
13.2641357546
 10
16.2264916915
 20
13.2648920721
 10
16.2114265653
 20
13.2625921934
  0
LWPOLYLINE
  5
5B9
100
AcDbEntity
  8
IMPORT_IGES
100
AcDbPolyline
 62
253
  6
CONTINUOUS
 90
7
 70
0
 10
14.1686993523
 20
13.6397345606
 10
14.1321633432
 20
13.6514935457
 10
14.095756354
 20
13.6664481378
 10
14.0595123416
 20
13.6845882756
 10
14.0233973489
 20
13.7059240203
 10
13.9883392454
 20
13.7303786391
 10
13.9546473209
 20
13.7579265543
  0
LWPOLYLINE
  5
5BA
100
AcDbEntity
  8
IMPORT_IGES
100
AcDbPolyline
 62
253
  6
CONTINUOUS
 90
10
 70
0
 10
18.1702024347
 20
10.0510359841
 10
18.1658043012
 20
10.0528806317
 10
18.1605712359
 20
10.0598562541
 10
18.1557324958
 20
10.0718768855
 10
18.1517647626
 20
10.0887415903
 10
18.1494309975
 20
10.1097830152
 10
18.1480585649
 20
10.1341684942
 10
18.1474917223
 20
10.1613536952
 10
18.1483666628
 20
10.1910839128
 10
18.1510371631
 20
10.2230956077
  0
LWPOLYLINE
  5
5BB
100
AcDbEntity
  8
RACCORDO
100
AcDbPolyline
 62
253
  6
CONTINUOUS
 90
14
 70
0
 10
2.404165816
 20
17.8593549148
 10
2.3967383953
 20
17.8626744325
 10
2.3891554527
 20
17.8653121326
 10
2.3813090344
 20
17.8673250032
 10
2.3732207431
 20
17.8687075281
 10
2.3649127754
 20
17.8694559884
 10
2.356407603
 20
17.8695684327
 10
2.3477281402
 20
17.8690445838
 10
2.3388960497
 20
17.8678855418
 10
2.3299372668
 20
17.8660945064
 10
2.3208819299
 20
17.863678076
 10
2.3117567611
 20
17.8606447046
 10
2.3025847565
 20
17.8570033474
 10
2.2933908582
 20
17.8527650228
  0
LWPOLYLINE
  5
5BC
100
AcDbEntity
  8
RACCORDO
100
AcDbPolyline
 62
253
  6
CONTINUOUS
 90
14
 70
0
 10
1.0668396554
 20
18.5280179951
 10
1.0594122348
 20
18.5313375128
 10
1.0518292922
 20
18.5339752129
 10
1.0439828739
 20
18.5359880835
 10
1.0358945826
 20
18.5373706084
 10
1.0275866148
 20
18.5381190687
 10
1.0190814424
 20
18.5382315129
 10
1.0104019797
 20
18.537707664
 10
1.0015698892
 20
18.5365486221
 10
0.9926111062
 20
18.5347575867
 10
0.9835557693
 20
18.5323411563
 10
0.9744306005
 20
18.5293077849
 10
0.965258596
 20
18.5256664277
 10
0.9560646976
 20
18.5214281031
  0
LWPOLYLINE
  5
5BD
100
AcDbEntity
  8
RACCORDO
100
AcDbPolyline
 62
253
  6
CONTINUOUS
 90
15
 70
0
 10
-1.1611417842
 20
17.4490965392
 10
-1.1704476571
 20
17.4533998421
 10
-1.1797252125
 20
17.4570991087
 10
-1.1889490109
 20
17.4601841918
 10
-1.1980937684
 20
17.4626466301
 10
-1.2071344004
 20
17.4644796643
 10
-1.2160460906
 20
17.4656782616
 10
-1.2248043974
 20
17.4662391367
 10
-1.2333853113
 20
17.4661607541
 10
-1.2417652957
 20
17.4654433313
 10
-1.2499213719
 20
17.464088839
 10
-1.2578311786
 20
17.4621009944
 10
-1.2654730253
 20
17.4594852525
 10
-1.2728259682
 20
17.4562487856
 10
-1.2742202924
 20
17.4555481861
  0
LWPOLYLINE
  5
5BE
100
AcDbEntity
  8
RACCORDO
100
AcDbPolyline
 62
253
  6
CONTINUOUS
 90
15
 70
0
 10
-14.5254599486
 20
24.1312556214
 10
-14.5347637823
 20
24.1355580461
 10
-14.5440392971
 20
24.1392566948
 10
-14.5532610707
 20
24.1423414302
 10
-14.5624038279
 20
24.1448037976
 10
-14.57144251
 20
24.1466370481
 10
-14.5803523438
 20
24.1478361572
 10
-14.5891089091
 20
24.1483978382
 10
-14.5976882058
 20
24.1483205518
 10
-14.6060667196
 20
24.1476045097
 10
-14.6142214866
 20
24.1462516745
 10
-14.6221301562
 20
24.1442657541
 10
-14.629771052
 20
24.1416521915
 10
-14.637123232
 20
24.1384181499
 10
-14.6385456148
 20
24.1377035965
  0
LWPOLYLINE
  5
5BF
100
AcDbEntity
  8
RACCORDO
100
AcDbPolyline
 62
7
  6
CONTINUOUS
 90
16
 70
0
 10
0.4216148189
 20
18.2610806365
 10
0.4132037435
 20
18.2650411203
 10
0.4048115259
 20
18.2685020991
 10
0.3964572782
 20
18.2714557829
 10
0.3881601042
 20
18.2738955709
 10
0.3799388058
 20
18.2758159371
 10
0.37181184
 20
18.2772124424
 10
0.3637976747
 20
18.2780819511
 10
0.3559145553
 20
18.2784225377
 10
0.3481802131
 20
18.2782333622
 10
0.3406122056
 20
18.2775148704
 10
0.3332277486
 20
18.2762687247
 10
0.3260434861
 20
18.2744977021
 10
0.3190757074
 20
18.2722058209
 10
0.3123402482
 20
18.2693982977
 10
0.3106826301
 20
18.2686107944
  0
LWPOLYLINE
  5
5C0
100
AcDbEntity
  8
RACCORDO
100
AcDbPolyline
 62
7
  6
CONTINUOUS
 90
16
 70
0
 10
-12.9427033455
 20
24.9432397187
 10
-12.9511144209
 20
24.9472002026
 10
-12.9595066385
 20
24.9506611813
 10
-12.9678608863
 20
24.9536148651
 10
-12.9761580602
 20
24.9560546532
 10
-12.9843793586
 20
24.9579750193
 10
-12.9925063244
 20
24.9593715246
 10
-13.0005204898
 20
24.9602410333
 10
-13.0084036091
 20
24.9605816199
 10
-13.0161379513
 20
24.9603924444
 10
-13.0237059589
 20
24.9596739526
 10
-13.0310904158
 20
24.958427807
 10
-13.0382746784
 20
24.9566567843
 10
-13.045242457
 20
24.9543649031
 10
-13.0519779162
 20
24.95155738
 10
-13.0536355343
 20
24.9507698766
  0
LWPOLYLINE
  5
5C1
100
AcDbEntity
  8
RACCORDO
100
AcDbPolyline
 62
253
  6
CONTINUOUS
 90
14
 70
0
 10
0.9560646976
 20
18.5214281031
 10
0.946865688
 20
18.5257829398
 10
0.9376890723
 20
18.5295310381
 10
0.928560002
 20
18.5326621251
 10
0.9195034982
 20
18.5351676192
 10
0.910544383
 20
18.5370406532
 10
0.9017072116
 20
18.5382760935
 10
0.8930162052
 20
18.5388705539
 10
0.8844951842
 20
18.5388224053
 10
0.8761675029
 20
18.5381317795
 10
0.8680559862
 20
18.5368005695
 10
0.860182866
 20
18.5348324238
 10
0.8525697212
 20
18.5322327367
 10
0.8455525865
 20
18.5291628941
  0
LINE
  5
5C2
100
AcDbEntity
  8
IMPORT_IGES
100
AcDbLine
 62
7
  6
CONTINUOUS
 10
6.8772092735
 20
13.6485894285
 11
6.4344600193
 21
13.8699640556
  0
LINE
  5
5C3
100
AcDbEntity
  8
IMPORT_IGES
100
AcDbLine
 62
7
  6
CONTINUOUS
 10
8.78602918
 20
12.6943067544
 11
8.3050664612
 21
12.9347881138
  0
LINE
  5
5C4
100
AcDbEntity
  8
IMPORT_IGES
100
AcDbLine
 62
7
  6
CONTINUOUS
 10
7.4840893253
 20
13.3452766818
 11
7.0416420057
 21
13.5665003416
  0
LINE
  5
5C5
100
AcDbEntity
  8
IMPORT_IGES
100
AcDbLine
 62
7
  6
CONTINUOUS
 10
6.0047215299
 20
14.0849605795
 11
5.5623378499
 21
14.3061524195
  0
LINE
  5
5C6
100
AcDbEntity
  8
IMPORT_IGES
100
AcDbLine
 62
7
  6
CONTINUOUS
 10
4.6815147316
 20
14.7465639786
 11
4.243457838
 21
14.9655924254
  0
LINE
  5
5C7
100
AcDbEntity
  8
IMPORT_IGES
100
AcDbLine
 62
7
  6
CONTINUOUS
 10
3.310289726
 20
15.4321764814
 11
3.0738365024
 21
15.5504030932
  0
LINE
  5
5C8
100
AcDbEntity
  8
IMPORT_IGES
100
AcDbLine
 62
7
  6
CONTINUOUS
 10
6.4344600193
 20
14.0431691363
 11
6.8772092735
 21
13.8217945092
  0
LINE
  5
5C9
100
AcDbEntity
  8
IMPORT_IGES
100
AcDbLine
 62
7
  6
CONTINUOUS
 10
3.2159414679
 20
15.6525556912
 11
3.310289726
 21
15.6053815622
  0
LINE
  5
5CA
100
AcDbEntity
  8
IMPORT_IGES
100
AcDbLine
 62
7
  6
CONTINUOUS
 10
4.243457838
 20
15.1387975062
 11
4.6815147316
 21
14.9197690594
  0
LINE
  5
5CB
100
AcDbEntity
  8
IMPORT_IGES
100
AcDbLine
 62
7
  6
CONTINUOUS
 10
5.5623378499
 20
14.4793575002
 11
6.0047215299
 21
14.2581656602
  0
LINE
  5
5CC
100
AcDbEntity
  8
IMPORT_IGES
100
AcDbLine
 62
7
  6
CONTINUOUS
 10
8.78602918
 20
12.8675118352
 11
8.3050664612
 21
13.1079931946
  0
LINE
  5
5CD
100
AcDbEntity
  8
IMPORT_IGES
100
AcDbLine
 62
7
  6
CONTINUOUS
 10
7.4840893253
 20
13.5184817625
 11
7.0416420057
 21
13.7397054223
  0
LINE
  5
5CE
100
AcDbEntity
  8
RACCORDO
100
AcDbLine
 62
253
  6
CONTINUOUS
 10
-3.1174206811
 20
18.8538358543
 11
-9.1931753308
 21
21.8917131792
  0
LINE
  5
5CF
100
AcDbEntity
  8
RACCORDO
100
AcDbLine
 62
7
  6
CONTINUOUS
 10
-11.4224207743
 20
23.0639941772
 11
-10.0143780393
 21
22.3599728097
  0
LINE
  5
5D0
100
AcDbEntity
  8
RACCORDO
100
AcDbLine
 62
7
  6
CONTINUOUS
 10
1.9418973901
 20
16.381835095
 11
2.6488964612
 21
16.0283355594
  0
LINE
  5
5D1
100
AcDbEntity
  8
DRAFT
100
AcDbLine
 62
7
  6
CONTINUOUS
 10
-8.7000596668
 20
22.2157000967
 11
-2.4775199923
 21
19.1044302595
  0
LINE
  5
5D2
100
AcDbEntity
  8
IMPORT_IGES
100
AcDbLine
 62
7
  6
CONTINUOUS
 10
4.4731628452
 20
16.2207091058
 11
4.2709748984
 21
16.3218030792
  0
LINE
  5
5D3
100
AcDbEntity
  8
RACCORDO
100
AcDbLine
 62
7
  6
CONTINUOUS
 10
-12.9427033455
 20
24.9432397187
 11
-11.599194478
 21
24.271485285
  0
LINE
  5
5D4
100
AcDbEntity
  8
RACCORDO
100
AcDbLine
 62
7
  6
CONTINUOUS
 10
0.4216148189
 20
18.2610806365
 11
1.7651236864
 21
17.5893262028
  0
LINE
  5
5D5
100
AcDbEntity
  8
DRAFT
100
AcDbLine
 62
7
  6
CONTINUOUS
 10
-2.4068093142
 20
19.7711433132
 11
-7.3565567825
 21
22.2460170474
  0
LINE
  5
5D6
100
AcDbEntity
  8
IMPORT_IGES
100
AcDbLine
 62
7
  6
CONTINUOUS
 10
4.3399236447
 20
16.4605337868
 11
4.6948762213
 21
16.2830574985
  0
LINE
  5
5D7
100
AcDbEntity
  8
IMPORT_IGES
100
AcDbLine
 62
7
  6
CONTINUOUS
 10
5.1130987697
 20
16.4016025361
 11
4.6087471036
 21
16.6537783692
  0
LINE
  5
5D8
100
AcDbEntity
  8
RACCORDO
100
AcDbLine
 62
253
  6
CONTINUOUS
 10
-12.4082534668
 20
25.2035871853
 11
-11.0709273063
 21
24.534924105
  0
LINE
  5
5D9
100
AcDbEntity
  8
RACCORDO
100
AcDbLine
 62
253
  6
CONTINUOUS
 10
0.9560646976
 20
18.5214281031
 11
2.2933908582
 21
17.8527650228
  0
LINE
  5
5DA
100
AcDbEntity
  8
RACCORDO
100
AcDbLine
 62
7
  6
CONTINUOUS
 10
-12.2974785073
 20
25.2101770764
 11
-10.9601523467
 21
24.5415139961
  0
LINE
  5
5DB
100
AcDbEntity
  8
RACCORDO
100
AcDbLine
 62
7
  6
CONTINUOUS
 10
1.0668396572
 20
18.5280179942
 11
2.4041658177
 21
17.8593549139
  0
LINE
  5
5DC
100
AcDbEntity
  8
IMPORT_IGES
100
AcDbLine
 62
7
  6
CONTINUOUS
 10
9.8445022706
 20
14.4593403679
 11
10.2346753071
 21
14.2642538496
  0
LINE
  5
5DD
100
AcDbEntity
  8
IMPORT_IGES
100
AcDbLine
 62
7
  6
CONTINUOUS
 10
8.9984016307
 20
14.8823906878
 11
8.5556523765
 21
15.1037653149
  0
LINE
  5
5DE
100
AcDbEntity
  8
IMPORT_IGES
100
AcDbLine
 62
7
  6
CONTINUOUS
 10
8.3173057725
 20
15.222938617
 11
7.893738911
 21
15.4347220477
  0
LINE
  5
5DF
100
AcDbEntity
  8
IMPORT_IGES
100
AcDbLine
 62
7
  6
CONTINUOUS
 10
7.2787950135
 20
15.7421939964
 11
7.2166990173
 21
15.7732419945
  0
LINE
  5
5E0
100
AcDbEntity
  8
IMPORT_IGES
100
AcDbLine
 62
7
  6
CONTINUOUS
 10
6.5993057019
 20
16.0819386523
 11
6.1661794639
 21
16.2985017713
  0
LINE
  5
5E1
100
AcDbEntity
  8
IMPORT_IGES
100
AcDbLine
 62
7
  6
CONTINUOUS
 10
6.096656018
 20
16.3332634942
 11
5.6587101402
 21
16.5522364331
  0
LWPOLYLINE
  5
5E2
100
AcDbEntity
  8
RACCORDO
100
AcDbPolyline
 62
7
  6
CONTINUOUS
 90
22
 70
0
 10
2.4041721594
 20
17.8593517428
 10
2.4154408321
 20
17.8533525835
 10
2.4265198242
 20
17.8467025913
 10
2.4372496793
 20
17.8394824572
 10
2.4476013414
 20
17.8317095331
 10
2.4575541006
 20
17.8233959466
 10
2.4670802945
 20
17.8145599276
 10
2.4761497586
 20
17.8052244087
 10
2.4847379864
 20
17.7954091353
 10
2.4928189133
 20
17.7851375195
 10
2.5003664348
 20
17.7744360008
 10
2.5073571145
 20
17.7633305633
 10
2.5137679353
 20
17.751849784
 10
2.5195773892
 20
17.7400235075
 10
2.5247660562
 20
17.7278814398
 10
2.5293159077
 20
17.7154541016
 10
2.5332091607
 20
17.7027768185
 10
2.5364296914
 20
17.6898883641
 10
2.5389647675
 20
17.6768246503
 10
2.5408036211
 20
17.66362228
 10
2.5419372238
 20
17.65032264
 10
2.5423624188
 20
17.6357477668
  0
LWPOLYLINE
  5
5E3
100
AcDbEntity
  8
RACCORDO
100
AcDbPolyline
 62
7
  6
CONTINUOUS
 90
22
 70
0
 10
-10.9601523467
 20
24.5415139961
 10
-10.9484957808
 20
24.5352954118
 10
-10.9371403981
 20
24.5284418058
 10
-10.9261295526
 20
24.5209705418
 10
-10.9155009905
 20
24.512899274
 10
-10.9052995019
 20
24.5042555184
 10
-10.8955745781
 20
24.4950785385
 10
-10.8864000596
 20
24.4854455145
 10
-10.8777617905
 20
24.4753514984
 10
-10.8695912959
 20
24.4647017129
 10
-10.8618904999
 20
24.4534527348
 10
-10.854756976
 20
24.4417001481
 10
-10.8482699719
 20
24.4295525058
 10
-10.84246634
 20
24.4170768138
 10
-10.8373556964
 20
24.4042947949
 10
-10.8329566582
 20
24.3912518384
 10
-10.8292850668
 20
24.377998309
 10
-10.8263500814
 20
24.3645747203
 10
-10.8241564314
 20
24.3510055354
 10
-10.8227106595
 20
24.3373207746
 10
-10.822019975
 20
24.3235738125
 10
-10.8219557459
 20
24.3179139844
  0
LWPOLYLINE
  5
5E4
100
AcDbEntity
  8
IMPORT_IGES
100
AcDbPolyline
 62
7
  6
CONTINUOUS
 90
13
 70
0
 10
19.0872380745
 20
6.5075832445
 10
19.1213660574
 20
6.4874574653
 10
19.1523798596
 20
6.463140925
 10
19.1803262185
 20
6.4350109324
 10
19.2058079397
 20
6.402356797
 10
19.2279517857
 20
6.3657456241
 10
19.2452469327
 20
6.3277551568
 10
19.2578534782
 20
6.2886358838
 10
19.2657652082
 20
6.2480842889
 10
19.2685007613
 20
6.208537309
 10
19.2663743775
 20
6.1710489563
 10
19.2596271299
 20
6.1350545131
 10
19.2483500357
 20
6.1008502411
  0
LWPOLYLINE
  5
5E5
100
AcDbEntity
  8
IMPORT_IGES
100
AcDbPolyline
 62
253
  6
CONTINUOUS
 90
15
 70
0
 10
18.6467747136
 20
6.2369209059
 10
18.6502481469
 20
6.2338273955
 10
18.6738558176
 20
6.2087168519
 10
18.6959578004
 20
6.1809235431
 10
18.7162223849
 20
6.1508645959
 10
18.7343454368
 20
6.1189911402
 10
18.7500549622
 20
6.0857815382
 10
18.7631151897
 20
6.0517342054
 10
18.7733301093
 20
6.0173601301
 10
18.7805464137
 20
5.9831752043
 10
18.7846557993
 20
5.9496924813
 10
18.7855965917
 20
5.9174144757
 10
18.7833546715
 20
5.8868256212
 10
18.7779636856
 20
5.8583850008
 10
18.7695045431
 20
5.832519456
  0
LINE
  5
5E6
100
AcDbEntity
  8
IMPORT_IGES
100
AcDbLine
 62
253
  6
CONTINUOUS
 10
17.0591081701
 20
12.4771390324
 11
17.3379447622
 21
9.926406124
  0
LINE
  5
5E7
100
AcDbEntity
  8
IMPORT_IGES
100
AcDbLine
 62
7
  6
CONTINUOUS
 10
17.1451995359
 20
12.6158057175
 11
17.4240361281
 21
10.0650728091
  0
LWPOLYLINE
  5
5E8
100
AcDbEntity
  8
IMPORT_IGES
100
AcDbPolyline
 62
7
  6
CONTINUOUS
 90
10
 70
0
 10
18.6467747136
 20
6.8064845084
 10
18.6451214026
 20
6.8889932054
 10
18.640158808
 20
6.9699902308
 10
18.6318831466
 20
7.0493457795
 10
18.6202711951
 20
7.1270455708
 10
18.6053313875
 20
7.2028340757
 10
18.5871535746
 20
7.2762498542
 10
18.565818144
 20
7.3470867631
 10
18.5413477485
 20
7.4153571356
 10
18.513793077
 20
7.4809602397
  0
LINE
  5
5E9
100
AcDbEntity
  8
IMPORT_IGES
100
AcDbLine
 62
7
  6
CONTINUOUS
 10
17.3073277453
 20
0.2331577163
 11
17.3073277453
 21
4.0861636633
  0
LINE
  5
5EA
100
AcDbEntity
  8
IMPORT_IGES
100
AcDbLine
 62
253
  6
CONTINUOUS
 10
18.558906748
 20
0.5026327902
 11
18.558906748
 21
6.7004184912
  0
LINE
  5
5EB
100
AcDbEntity
  8
IMPORT_IGES
100
AcDbLine
 62
7
  6
CONTINUOUS
 10
18.6467747136
 20
6.8064845084
 11
18.6467747136
 21
0.608698807
  0
LWPOLYLINE
  5
5EC
100
AcDbEntity
  8
IMPORT_IGES
100
AcDbPolyline
 62
7
  6
CONTINUOUS
 90
13
 70
0
 10
18.6467747136
 20
0.608698807
 10
18.6431871278
 20
0.5091005466
 10
18.6325524809
 20
0.4136393373
 10
18.6150567944
 20
0.3226366861
 10
18.5907873319
 20
0.2361120505
 10
18.5599750636
 20
0.1546855115
 10
18.5232600324
 20
0.0794815419
 10
18.4813489956
 20
0.0110638823
 10
18.4345276053
 20
-0.050846082
 10
18.3830294602
 20
-0.1063820602
 10
18.3272675114
 20
-0.155394508
 10
18.267879486
 20
-0.1976180001
 10
18.2054540661
 20
-0.2329513111
  0
LWPOLYLINE
  5
5ED
100
AcDbEntity
  8
IMPORT_IGES
100
AcDbPolyline
 62
253
  6
CONTINUOUS
 90
10
 70
0
 10
18.558906748
 20
0.5026327898
 10
18.5552473427
 20
0.4018115292
 10
18.5442969772
 20
0.3054169846
 10
18.5261389903
 20
0.2141827767
 10
18.5009115752
 20
0.1288032528
 10
18.4688067279
 20
0.0499282026
 10
18.4300687856
 20
-0.021842087
 10
18.3849925674
 20
-0.0859614008
 10
18.3339211307
 20
-0.1419417522
 10
18.2772431597
 20
-0.1893570968
  0
LINE
  5
5EE
100
AcDbEntity
  8
RACCORDO
100
AcDbLine
 62
7
  6
CONTINUOUS
 10
7.5582703208
 20
-17.2734305729
 11
3.0025575619
 21
-19.5826625698
  0
LINE
  5
5EF
100
AcDbEntity
  8
RACCORDO
100
AcDbLine
 62
7
  6
CONTINUOUS
 10
6.6767348622
 20
-18.3301895739
 11
3.0025575619
 21
-20.1744221132
  0
LINE
  5
5F0
100
AcDbEntity
  8
RACCORDO
100
AcDbLine
 62
7
  6
CONTINUOUS
 10
7.5582703208
 20
-17.7707605298
 11
3.0025575619
 21
-20.0304276434
  0
LINE
  5
5F1
100
AcDbEntity
  8
DRAFT
100
AcDbLine
 62
7
  6
CONTINUOUS
 10
7.3101259971
 20
-16.8056882725
 11
3.0025575619
 21
-18.9383703263
  0
LINE
  5
5F2
100
AcDbEntity
  8
RACCORDO
100
AcDbLine
 62
7
  6
CONTINUOUS
 10
-18.6421416573
 20
13.6288755047
 11
-18.6326408893
 21
13.6314188043
  0
LWPOLYLINE
  5
5F3
100
AcDbEntity
  8
RACCORDO
100
AcDbPolyline
 62
7
  6
CONTINUOUS
 90
18
 70
0
 10
-3.1174206811
 20
18.8538358543
 10
-3.134715349
 20
18.8523435187
 10
-3.1519097472
 20
18.8503499408
 10
-3.168968085
 20
18.8479427579
 10
-3.1858589184
 20
18.8452318043
 10
-3.2025631812
 20
18.8422747917
 10
-3.2190700012
 20
18.8390639437
 10
-3.235363408
 20
18.8356537158
 10
-3.251433201
 20
18.8321091861
 10
-3.2672763548
 20
18.8284152301
 10
-3.2828851665
 20
18.8246119478
 10
-3.2982542492
 20
18.8207483596
 10
-3.3133809772
 20
18.8168080858
 10
-3.3282619948
 20
18.8128220386
 10
-3.3428945208
 20
18.8088279526
 10
-3.3572731457
 20
18.8048108232
 10
-3.3713966987
 20
18.8007956626
 10
-3.3988664443
 20
18.7928480504
  0
LINE
  5
5F4
100
AcDbEntity
  8
RACCORDO
100
AcDbLine
 62
7
  6
CONTINUOUS
 10
-13.2505450587
 20
22.6680786477
 11
-12.624938365
 21
22.5374572514
  0
LWPOLYLINE
  5
5F5
100
AcDbEntity
  8
RACCORDO
100
AcDbPolyline
 62
7
  6
CONTINUOUS
 90
10
 70
0
 10
-13.2505450587
 20
22.6680786477
 10
-13.258086656
 20
22.6697754284
 10
-13.265589911
 20
22.6717094194
 10
-13.2730441374
 20
22.6738794782
 10
-13.2804548494
 20
22.6762893567
 10
-13.2877937842
 20
22.6789316525
 10
-13.2950031269
 20
22.6817835776
 10
-13.3020607248
 20
22.6848307323
 10
-13.3089758748
 20
22.6880712917
 10
-13.3112608456
 20
22.6891993917
  0
LWPOLYLINE
  5
5F6
100
AcDbEntity
  8
IMPORT_IGES
100
AcDbPolyline
 62
253
  6
CONTINUOUS
 90
10
 70
0
 10
14.945782657
 20
13.9144139742
 10
14.9325367939
 20
13.9182229394
 10
14.9182038418
 20
13.9189588532
 10
14.9031039838
 20
13.9166229788
 10
14.8875777866
 20
13.9112866012
 10
14.8719587783
 20
13.9030823662
 10
14.8565661699
 20
13.892188643
 10
14.8417327954
 20
13.8788464096
 10
14.8277782213
 20
13.8633487286
 10
14.817236885
 20
13.8490611317
  0
LWPOLYLINE
  5
5F7
100
AcDbEntity
  8
IMPORT_IGES
100
AcDbPolyline
 62
253
  6
CONTINUOUS
 90
13
 70
0
 10
12.4509192897
 20
15.1064686988
 10
12.4681093026
 20
15.1015024253
 10
12.4852992974
 20
15.0944134448
 10
12.5020373439
 20
15.0853129669
 10
12.5176791106
 20
15.0745811126
 10
12.5320664942
 20
15.0624257607
 10
12.5454239475
 20
15.0486293018
 10
12.5574168677
 20
15.0333832971
 10
12.5676288313
 20
15.0171200174
 10
12.5759739222
 20
14.9998535001
 10
12.5821771564
 20
14.9819094608
 10
12.5859753205
 20
14.9639348511
 10
12.587325106
 20
14.9464360982
  0
LWPOLYLINE
  5
5F8
100
AcDbEntity
  8
IMPORT_IGES
100
AcDbPolyline
 62
253
  6
CONTINUOUS
 90
4
 70
0
 10
16.3481985134
 20
13.2043567284
 10
16.3387054354
 20
13.207394299
 10
16.324623648
 20
13.2125609429
 10
16.3088373386
 20
13.2191059375
  0
LINE
  5
5F9
100
AcDbEntity
  8
IMPORT_IGES
100
AcDbLine
 62
7
  6
CONTINUOUS
 10
14.798298186
 20
13.8570719084
 11
14.7766069436
 21
13.8651191793
  0
LINE
  5
5FA
100
AcDbEntity
  8
IMPORT_IGES
100
AcDbLine
 62
7
  6
CONTINUOUS
 10
16.2984273119
 20
13.2231799047
 11
16.2860743358
 21
13.2281460486
  0
LINE
  5
5FB
100
AcDbEntity
  8
IMPORT_IGES
100
AcDbLine
 62
253
  6
CONTINUOUS
 10
16.3056481928
 20
13.2199986502
 11
16.2860743358
 21
13.2281460486
  0
LINE
  5
5FC
100
AcDbEntity
  8
IMPORT_IGES
100
AcDbLine
 62
7
  6
CONTINUOUS
 10
16.2860743358
 20
13.2281460486
 11
16.2719955914
 21
13.2339272131
  0
LINE
  5
5FD
100
AcDbEntity
  8
IMPORT_IGES
100
AcDbLine
 62
253
  6
CONTINUOUS
 10
16.2820840282
 20
13.2295654308
 11
16.2719955914
 21
13.2339272131
  0
LINE
  5
5FE
100
AcDbEntity
  8
IMPORT_IGES
100
AcDbLine
 62
253
  6
CONTINUOUS
 10
16.264380772
 20
13.2370950192
 11
16.2539311545
 21
13.2412612848
  0
LINE
  5
5FF
100
AcDbEntity
  8
IMPORT_IGES
100
AcDbLine
 62
7
  6
CONTINUOUS
 10
16.2719955914
 20
13.2339272131
 11
16.2564162488
 21
13.2404335636
  0
LINE
  5
600
100
AcDbEntity
  8
IMPORT_IGES
100
AcDbLine
 62
253
  6
CONTINUOUS
 10
15.2628630804
 20
13.3023750441
 11
17.0039222414
 21
12.5660611755
  0
LINE
  5
601
100
AcDbEntity
  8
IMPORT_IGES
100
AcDbLine
 62
253
  6
CONTINUOUS
 10
15.1783952911
 20
13.6797647759
 11
16.9194544522
 21
12.9434509073
  0
LINE
  5
602
100
AcDbEntity
  8
IMPORT_IGES
100
AcDbLine
 62
7
  6
CONTINUOUS
 10
14.7981682519
 20
13.8571252995
 11
15.2016581998
 21
13.6864849529
  0
LINE
  5
603
100
AcDbEntity
  8
IMPORT_IGES
100
AcDbLine
 62
7
  6
CONTINUOUS
 10
15.2016581998
 20
13.6864849529
 11
16.2564162488
 21
13.2404335636
  0
LINE
  5
604
100
AcDbEntity
  8
IMPORT_IGES
100
AcDbLine
 62
253
  6
CONTINUOUS
 10
15.0809777309
 20
13.862689268
 11
14.8647592568
 21
13.954130468
  0
LINE
  5
605
100
AcDbEntity
  8
IMPORT_IGES
100
AcDbLine
 62
253
  6
CONTINUOUS
 10
15.0528208914
 20
13.9884863001
 11
14.4930427573
 21
14.225222887
  0
LWPOLYLINE
  5
606
100
AcDbEntity
  8
IMPORT_IGES
100
AcDbPolyline
 62
253
  6
CONTINUOUS
 90
27
 70
0
 10
11.5139021852
 20
14.0878314332
 10
11.5543373654
 20
14.0700755024
 10
11.5972317479
 20
14.0550842473
 10
11.6425853327
 20
14.0428576678
 10
11.6911068422
 20
14.0333267455
 10
11.7420875541
 20
14.0265604988
 10
11.7934013005
 20
14.0227659828
 10
11.844903949
 20
14.0220378294
 10
11.896739632
 20
14.0242814066
 10
11.94721458
 20
14.0294198738
 10
11.996449358
 20
14.0375683881
 10
12.0443234009
 20
14.0486117923
 10
12.0887812435
 20
14.0621277743
 10
12.1296378643
 20
14.0782233509
 10
12.1670782847
 20
14.0967915053
 10
12.1996021042
 20
14.1170888746
 10
12.2270005159
 20
14.1391870799
 10
12.2494823267
 20
14.1630145
 10
12.2661735559
 20
14.1876129087
 10
12.2768718176
 20
14.2129643483
 10
12.2817794977
 20
14.2390867764
 10
12.2806297732
 20
14.26507584
 10
12.2731742214
 20
14.291014213
 10
12.2596612649
 20
14.3168192214
 10
12.2405693488
 20
14.3413384902
 10
12.2160579548
 20
14.3641878945
 10
12.1859676012
 20
14.3857515592
  0
LWPOLYLINE
  5
607
100
AcDbEntity
  8
IMPORT_IGES
100
AcDbPolyline
 62
253
  6
CONTINUOUS
 90
20
 70
0
 10
11.5846128629
 20
14.2097893125
 10
11.6173685311
 20
14.195339028
 10
11.6534690648
 20
14.1830413844
 10
11.6923521279
 20
14.1730879415
 10
11.7334120406
 20
14.1656337437
 10
11.7760092147
 20
14.1607949046
 10
11.819480116
 20
14.1586467986
 10
11.8631476002
 20
14.1592228867
 10
11.9063314612
 20
14.1625141952
 10
11.9483590259
 20
14.1684694554
 10
11.9885756329
 20
14.1769959027
 10
12.0263548302
 20
14.1879607209
 10
12.0611081328
 20
14.2011931115
 10
12.0922941902
 20
14.2164869543
 10
12.1194272188
 20
14.2336040178
 10
12.1420845686
 20
14.2522776704
 10
12.1599133072
 20
14.2722170333
 10
12.1726357171
 20
14.2931115121
 10
12.1800536219
 20
14.3146356345
 10
12.1821002365
 20
14.3335329992
  0
LWPOLYLINE
  5
608
100
AcDbEntity
  8
RACCORDO
100
AcDbPolyline
 62
253
  6
CONTINUOUS
 90
14
 70
0
 10
-10.9601523467
 20
24.5415139961
 10
-10.9675504274
 20
24.54482189
 10
-10.9751306447
 20
24.5474615435
 10
-10.9829742912
 20
24.5494766554
 10
-10.9910600267
 20
24.5508617434
 10
-10.9993658527
 20
24.5516130391
 10
-11.0078691719
 20
24.5517284984
 10
-11.0165468495
 20
24.5512078073
 10
-11.0253752763
 20
24.5500523823
 10
-11.0343304332
 20
24.5482653669
 10
-11.0433879561
 20
24.5458516232
 10
-11.0525232026
 20
24.542817718
 10
-11.0617113186
 20
24.5391719056
 10
-11.0709273063
 20
24.534924105
  0
LWPOLYLINE
  5
609
100
AcDbEntity
  8
RACCORDO
100
AcDbPolyline
 62
253
  6
CONTINUOUS
 90
14
 70
0
 10
-12.2974785073
 20
25.2101770764
 10
-12.304876588
 20
25.2134849703
 10
-12.3124568053
 20
25.2161246237
 10
-12.3203004517
 20
25.2181397357
 10
-12.3283861872
 20
25.2195248237
 10
-12.3366920133
 20
25.2202761194
 10
-12.3451953325
 20
25.2203915787
 10
-12.35387301
 20
25.2198708875
 10
-12.3627014368
 20
25.2187154625
 10
-12.3716565937
 20
25.2169284472
 10
-12.3807141167
 20
25.2145147034
 10
-12.3898493631
 20
25.2114807982
 10
-12.3990374791
 20
25.2078349858
 10
-12.4082534668
 20
25.2035871853
  0
LINE
  5
60A
100
AcDbEntity
  8
IMPORT_IGES
100
AcDbLine
 62
253
  6
CONTINUOUS
 10
12.5854011064
 20
14.9157083131
 11
12.5887458147
 21
14.9141705478
  0
LINE
  5
60B
100
AcDbEntity
  8
IMPORT_IGES
100
AcDbLine
 62
253
  6
CONTINUOUS
 10
14.7982679483
 20
13.8570832872
 11
14.803734123
 21
13.8545662261
  0
LINE
  5
60C
100
AcDbEntity
  8
IMPORT_IGES
100
AcDbLine
 62
253
  6
CONTINUOUS
 10
16.2485259033
 20
13.2437526059
 11
16.2539314169
 21
13.2412611738
  0
LINE
  5
60D
100
AcDbEntity
  8
IMPORT_IGES
100
AcDbLine
 62
253
  6
CONTINUOUS
 10
16.9194544522
 20
12.9434509073
 11
16.930287508
 21
12.9384583118
  0
LINE
  5
60E
100
AcDbEntity
  8
IMPORT_IGES
100
AcDbLine
 62
253
  6
CONTINUOUS
 10
15.0809768212
 20
13.8626897228
 11
15.091809877
 21
13.8576971273
  0
LINE
  5
60F
100
AcDbEntity
  8
IMPORT_IGES
100
AcDbLine
 62
253
  6
CONTINUOUS
 10
14.688470603
 20
13.7989098655
 11
15.1567970636
 21
13.5804080528
  0
LINE
  5
610
100
AcDbEntity
  8
IMPORT_IGES
100
AcDbLine
 62
253
  6
CONTINUOUS
 10
15.1783952911
 20
13.6797647759
 11
14.8037341229
 21
13.8545662261
  0
LWPOLYLINE
  5
611
100
AcDbEntity
  8
RACCORDO
100
AcDbPolyline
 62
7
  6
CONTINUOUS
 90
18
 70
0
 10
-12.2974785073
 20
25.2101770764
 10
-12.3096843195
 20
25.215874264
 10
-12.3223065982
 20
25.220953072
 10
-12.335306788
 20
25.2253749727
 10
-12.3486613693
 20
25.2291092454
 10
-12.3623043571
 20
25.2321168318
 10
-12.3761286466
 20
25.2343622506
 10
-12.3900597806
 20
25.2358302028
 10
-12.4040684693
 20
25.2365159126
 10
-12.4181179658
 20
25.236414078
 10
-12.4321502781
 20
25.2355221565
 10
-12.4461228242
 20
25.2338408724
 10
-12.4600286834
 20
25.2313656311
 10
-12.4738735894
 20
25.2280820052
 10
-12.4875558481
 20
25.2240006685
 10
-12.5009267778
 20
25.2191669629
 10
-12.5139494989
 20
25.2136048462
 10
-12.5187722173
 20
25.2113187417
  0
LWPOLYLINE
  5
612
100
AcDbEntity
  8
RACCORDO
100
AcDbPolyline
 62
253
  6
CONTINUOUS
 90
14
 70
0
 10
-12.4082534668
 20
25.2035871853
 10
-12.4174305743
 20
25.2079323623
 10
-12.4265911928
 20
25.2116758728
 10
-12.4357102374
 20
25.2148063447
 10
-12.4447645426
 20
25.2173145099
 10
-12.4537272329
 20
25.2191915963
 10
-12.4625680208
 20
25.2204306862
 10
-12.4712607793
 20
25.2210283218
 10
-12.479783622
 20
25.2209832062
 10
-12.4881134139
 20
25.2202954359
 10
-12.4962274559
 20
25.2189668122
 10
-12.5041033191
 20
25.2170009326
 10
-12.511719163
 20
25.2144032229
 10
-12.5187655774
 20
25.2113219766
  0
LINE
  5
613
100
AcDbEntity
  8
IMPORT_IGES
100
AcDbLine
 62
253
  6
CONTINUOUS
 10
14.8647592568
 20
13.954130468
 11
14.9030499101
 21
13.935535755
  0
LINE
  5
614
100
AcDbEntity
  8
IMPORT_IGES
100
AcDbLine
 62
253
  6
CONTINUOUS
 10
14.9030499101
 20
13.935535755
 11
14.9293683718
 21
13.9225820478
  0
LINE
  5
615
100
AcDbEntity
  8
IMPORT_IGES
100
AcDbLine
 62
253
  6
CONTINUOUS
 10
13.3121544721
 20
14.5524661698
 11
13.3121941567
 21
14.55244637
  0
LINE
  5
616
100
AcDbEntity
  8
IMPORT_IGES
100
AcDbLine
 62
253
  6
CONTINUOUS
 10
11.5139021852
 20
14.0878314332
 11
5.3361773323
 21
17.1766938594
  0
LINE
  5
617
100
AcDbEntity
  8
IMPORT_IGES
100
AcDbLine
 62
253
  6
CONTINUOUS
 10
5.4652439243
 20
17.2694737819
 11
11.584612862
 21
14.209789313
  0
LINE
  5
618
100
AcDbEntity
  8
IMPORT_IGES
100
AcDbLine
 62
253
  6
CONTINUOUS
 10
5.5943105163
 20
17.3622537043
 11
11.6553235412
 21
14.3317471919
  0
LINE
  5
619
100
AcDbEntity
  8
IMPORT_IGES
100
AcDbLine
 62
253
  6
CONTINUOUS
 10
12.0088769318
 20
14.5085238872
 11
5.8843810626
 21
17.5707718218
  0
LINE
  5
61A
100
AcDbEntity
  8
IMPORT_IGES
100
AcDbLine
 62
7
  6
CONTINUOUS
 10
12.0535982914
 20
14.5113640659
 11
5.9050569406
 21
17.5856347413
  0
LINE
  5
61B
100
AcDbEntity
  8
IMPORT_IGES
100
AcDbLine
 62
253
  6
CONTINUOUS
 10
12.5216603227
 20
14.9099085551
 11
13.2451354421
 21
14.5481744465
  0
LINE
  5
61C
100
AcDbEntity
  8
IMPORT_IGES
100
AcDbLine
 62
7
  6
CONTINUOUS
 10
12.5887458147
 20
14.9141705478
 11
13.3122174873
 21
14.5524347115
  0
LINE
  5
61D
100
AcDbEntity
  8
IMPORT_IGES
100
AcDbLine
 62
253
  6
CONTINUOUS
 10
12.4508970976
 20
15.1064508803
 11
6.5562724188
 21
18.0537630201
  0
LINE
  5
61E
100
AcDbEntity
  8
IMPORT_IGES
100
AcDbLine
 62
253
  6
CONTINUOUS
 10
16.9194544522
 20
12.9434509073
 11
15.0809777309
 21
13.862689268
  0
LINE
  5
61F
100
AcDbEntity
  8
IMPORT_IGES
100
AcDbLine
 62
7
  6
CONTINUOUS
 10
16.930287508
 20
12.9384583118
 11
15.091809877
 21
13.8576971273
  0
LINE
  5
620
100
AcDbEntity
  8
IMPORT_IGES
100
AcDbLine
 62
253
  6
CONTINUOUS
 10
6.6834601532
 20
18.14519232
 11
12.6024929462
 21
15.1856759234
  0
LWPOLYLINE
  5
621
100
AcDbEntity
  8
IMPORT_IGES
100
AcDbPolyline
 62
253
  6
CONTINUOUS
 90
6
 70
0
 10
14.9293683718
 20
13.9225820478
 10
16.2775959611
 20
13.248406269
 10
16.2982225933
 20
13.2378109805
 10
16.3158110501
 20
13.2285538606
 10
16.3304917889
 20
13.2205641842
 10
16.3421343522
 20
13.2139126763
  0
LWPOLYLINE
  5
622
100
AcDbEntity
  8
IMPORT_IGES
100
AcDbPolyline
 62
253
  6
CONTINUOUS
 90
4
 70
0
 10
14.8647574372
 20
13.9541313778
 10
14.8467650399
 20
13.9632407545
 10
14.8296623589
 20
13.9732096985
 10
14.813305696
 20
13.9836186028
  0
LWPOLYLINE
  5
623
100
AcDbEntity
  8
IMPORT_IGES
100
AcDbPolyline
 62
253
  6
CONTINUOUS
 90
10
 70
0
 10
17.0039222414
 20
12.5660611755
 10
17.0137029262
 20
12.5610163874
 10
17.0226084686
 20
12.5547029788
 10
17.0306388687
 20
12.5471209497
 10
17.037843575
 20
12.5381906226
 10
17.044173139
 20
12.527991675
 10
17.0494792151
 20
12.516763139
 10
17.0537123547
 20
12.5045846919
 10
17.0569220063
 20
12.4913766563
 10
17.0591081701
 20
12.4771390324
  0
LINE
  5
624
100
AcDbEntity
  8
IMPORT_IGES
100
AcDbLine
 62
7
  6
CONTINUOUS
 10
13.3244708063
 20
14.545901824
 11
13.3121872798
 21
14.5524325008
  0
LWPOLYLINE
  5
625
100
AcDbEntity
  8
IMPORT_IGES
100
AcDbPolyline
 62
7
  6
CONTINUOUS
 90
6
 70
0
 10
12.588785806
 20
14.9141507573
 10
12.5799865065
 20
14.9188535118
 10
12.5708564227
 20
14.9245797652
 10
12.564939703
 20
14.9290518739
 10
12.5620053483
 20
14.9317233447
 10
12.5614778318
 20
14.9322789755
  0
LINE
  5
626
100
AcDbEntity
  8
IMPORT_IGES
100
AcDbLine
 62
7
  6
CONTINUOUS
 10
13.2574561669
 20
14.5415801218
 11
13.245135442
 21
14.5481744464
  0
LINE
  5
627
100
AcDbEntity
  8
IMPORT_IGES
100
AcDbLine
 62
253
  6
CONTINUOUS
 10
12.1859676012
 20
14.3857515592
 11
12.1698827055
 21
14.3948957866
  0
LWPOLYLINE
  5
628
100
AcDbEntity
  8
IMPORT_IGES
100
AcDbPolyline
 62
253
  6
CONTINUOUS
 90
13
 70
0
 10
12.5288081236
 20
15.1571853544
 10
12.5423932113
 20
15.149257792
 10
12.5556044089
 20
15.1392769696
 10
12.5682265767
 20
15.1274224667
 10
12.5800031883
 20
15.1139699231
 10
12.5908103619
 20
15.0990976454
 10
12.6006106338
 20
15.0828188664
 10
12.6092476644
 20
15.0652549427
 10
12.6164606363
 20
15.0467743543
 10
12.622049064
 20
15.0277641337
 10
12.6258738366
 20
15.0085841998
 10
12.6278378833
 20
14.9895538235
 10
12.6278664445
 20
14.9710285212
  0
LWPOLYLINE
  5
629
100
AcDbEntity
  8
IMPORT_IGES
100
AcDbPolyline
 62
253
  6
CONTINUOUS
 90
3
 70
0
 10
12.0088769318
 20
14.5085238872
 10
12.0338944256
 20
14.493570147
 10
12.0536838295
 20
14.4777824345
  0
LINE
  5
62A
100
AcDbEntity
  8
IMPORT_IGES
100
AcDbLine
 62
7
  6
CONTINUOUS
 10
13.269748144
 20
14.5341328046
 11
13.2574561669
 21
14.5415801218
  0
LWPOLYLINE
  5
62B
100
AcDbEntity
  8
IMPORT_IGES
100
AcDbPolyline
 62
253
  6
CONTINUOUS
 90
10
 70
0
 10
18.2264751014
 20
10.1891951119
 10
18.2189542525
 20
10.19404101
 10
18.2111236385
 20
10.198610873
 10
18.2030139088
 20
10.2029187248
 10
18.1946312459
 20
10.2070191225
 10
18.1860332121
 20
10.2108875305
 10
18.1773313477
 20
10.2144224915
 10
18.1685876297
 20
10.2176034562
 10
18.1598114526
 20
10.2204883577
 10
18.1510374548
 20
10.2230955732
  0
LWPOLYLINE
  5
62C
100
AcDbEntity
  8
IMPORT_IGES
100
AcDbPolyline
 62
7
  6
CONTINUOUS
 90
3
 70
0
 10
12.1039265996
 20
14.4799556895
 10
12.0802859106
 20
14.4964392883
 10
12.0535982914
 20
14.5113640659
  0
LWPOLYLINE
  5
62D
100
AcDbEntity
  8
IMPORT_IGES
100
AcDbPolyline
 62
253
  6
CONTINUOUS
 90
10
 70
0
 10
18.1510374548
 20
10.2230955732
 10
18.1437871495
 20
10.2284962313
 10
18.1365789099
 20
10.2336281624
 10
18.1294199142
 20
10.2384956179
 10
18.1223351127
 20
10.2431124536
 10
18.1153149467
 20
10.2474740027
 10
18.1083150791
 20
10.2515565128
 10
18.1013268539
 20
10.25535524
 10
18.094377594
 20
10.2588850191
 10
18.0874781692
 20
10.262151765
  0
LWPOLYLINE
  5
62E
100
AcDbEntity
  8
IMPORT_IGES
100
AcDbPolyline
 62
7
  6
CONTINUOUS
 90
3
 70
0
 10
12.1421190057
 20
14.4426600752
 10
12.1245302185
 20
14.4620109684
 10
12.1039265996
 20
14.4799556895
  0
LWPOLYLINE
  5
62F
100
AcDbEntity
  8
IMPORT_IGES
100
AcDbPolyline
 62
253
  6
CONTINUOUS
 90
4
 70
0
 10
19.1038681233
 20
6.4140541083
 10
19.0789801718
 20
6.4415310611
 10
19.0527029308
 20
6.4655951339
 10
19.0254860742
 20
6.4858345259
  0
LWPOLYLINE
  5
630
100
AcDbEntity
  8
IMPORT_IGES
100
AcDbPolyline
 62
253
  6
CONTINUOUS
 90
4
 70
0
 10
12.0536838295
 20
14.4777824345
 10
12.0682451435
 20
14.4611607496
 10
12.0776356015
 20
14.4433304627
 10
12.0817979695
 20
14.4246662034
  0
LWPOLYLINE
  5
631
100
AcDbEntity
  8
IMPORT_IGES
100
AcDbPolyline
 62
253
  6
CONTINUOUS
 90
3
 70
0
 10
15.2026200987
 20
13.8022920165
 10
15.2021912311
 20
13.8040568491
 10
15.1894918124
 20
13.8405921904
  0
LWPOLYLINE
  5
632
100
AcDbEntity
  8
IMPORT_IGES
100
AcDbPolyline
 62
253
  6
CONTINUOUS
 90
6
 70
0
 10
15.0454807932
 20
13.906574927
 10
15.0420103825
 20
13.9220802147
 10
15.0410169517
 20
13.9385289637
 10
15.0425306859
 20
13.955421387
 10
15.0465055909
 20
13.9722442169
 10
15.0528208913
 20
13.9884863001
  0
LWPOLYLINE
  5
633
100
AcDbEntity
  8
IMPORT_IGES
100
AcDbPolyline
 62
253
  6
CONTINUOUS
 90
10
 70
0
 10
17.3379447622
 20
9.926406124
 10
17.3456147932
 20
9.8649818711
 10
17.3550196384
 20
9.8049122669
 10
17.3661592978
 20
9.7461973115
 10
17.3790499032
 20
9.6887751619
 10
17.3936753229
 20
9.6327076611
 10
17.4099871609
 20
9.5781803372
 10
17.4279692854
 20
9.5252550332
 10
17.4476378283
 20
9.4738699061
 10
17.4689927896
 20
9.4240249561
  0
LWPOLYLINE
  5
634
100
AcDbEntity
  8
IMPORT_IGES
100
AcDbPolyline
 62
7
  6
CONTINUOUS
 90
10
 70
0
 10
17.4240361281
 20
10.0650728091
 10
17.4304461308
 20
10.013596584
 10
17.4382665853
 20
9.963438683
 10
17.4474703024
 20
9.9146687558
 10
17.4580178318
 20
9.8673892477
 10
17.4698823088
 20
9.82162204
 10
17.4830587717
 20
9.7773244028
 10
17.4975264582
 20
9.7345319956
 10
17.5132400825
 20
9.6933421566
 10
17.5301612318
 20
9.6538118264
  0
LINE
  5
635
100
AcDbEntity
  8
IMPORT_IGES
100
AcDbLine
 62
253
  6
CONTINUOUS
 10
16.5343967921
 20
13.7372805909
 11
16.5412231101
 21
13.6771906441
  0
LWPOLYLINE
  5
636
100
AcDbEntity
  8
IMPORT_IGES
100
AcDbPolyline
 62
253
  6
CONTINUOUS
 90
7
 70
0
 10
19.3131876978
 20
10.5141614157
 10
19.3132356886
 20
10.5137027223
 10
19.3100801723
 20
10.5100999194
 10
19.3014667707
 20
10.5041505842
 10
19.2876571976
 20
10.4960354842
 10
19.2690710499
 20
10.4860011925
 10
19.2462730583
 20
10.4743525961
  0
LINE
  5
637
100
AcDbEntity
  8
IMPORT_IGES
100
AcDbLine
 62
253
  6
CONTINUOUS
 10
19.2099273885
 20
6.1360006081
 11
19.2081153678
 21
6.1708209291
  0
LWPOLYLINE
  5
638
100
AcDbEntity
  8
RACCORDO
100
AcDbPolyline
 62
253
  6
CONTINUOUS
 90
34
 70
0
 10
-3.8941957928
 20
-24.659777309
 10
-3.9114901247
 20
-24.668580868
 10
-3.9295155862
 20
-24.6769665338
 10
-3.9482322455
 20
-24.6849157297
 10
-3.9675986393
 20
-24.6924108455
 10
-3.987571865
 20
-24.6994352774
 10
-4.0081076758
 20
-24.705973464
 10
-4.0291605783
 20
-24.7120109212
 10
-4.0506839338
 20
-24.7175342741
 10
-4.0726300615
 20
-24.7225312869
 10
-4.0949503438
 20
-24.7269908895
 10
-4.1175953343
 20
-24.7309032025
 10
-4.1405148673
 20
-24.7342595591
 10
-4.163658169
 20
-24.7370525237
 10
-4.1869739696
 20
-24.7392759091
 10
-4.2104106175
 20
-24.7409247898
 10
-4.2339161932
 20
-24.7419955131
 10
-4.2574386245
 20
-24.7424857069
 10
-4.2809258019
 20
-24.7423942853
 10
-4.3043256939
 20
-24.7417214508
 10
-4.3275864626
 20
-24.7404686941
 10
-4.3506565781
 20
-24.7386387902
 10
-4.3734849329
 20
-24.7362357931
 10
-4.3960209551
 20
-24.7332650261
 10
-4.4182147203
 20
-24.7297330703
 10
-4.4400170625
 20
-24.7256477503
 10
-4.4613796827
 20
-24.7210181162
 10
-4.4822552561
 20
-24.715854424
 10
-4.5025975367
 20
-24.7101681131
 10
-4.5223614601
 20
-24.7039717803
 10
-4.541503243
 20
-24.6972791525
 10
-4.5599804804
 20
-24.6901050559
 10
-4.5777522395
 20
-24.6824653833
 10
-4.5947791503
 20
-24.6743770591
  0
LINE
  5
639
100
AcDbEntity
  8
RACCORDO
100
AcDbLine
 62
253
  6
CONTINUOUS
 10
2.284681139
 20
-22.8523863291
 11
3.0025575619
 21
-22.4982225618
  0
LINE
  5
63A
100
AcDbEntity
  8
RACCORDO
100
AcDbLine
 62
7
  6
CONTINUOUS
 10
2.1500367198
 20
-23.1251612839
 11
2.8716829047
 21
-22.7691377076
  0
LINE
  5
63B
100
AcDbEntity
  8
RACCORDO
100
AcDbLine
 62
253
  6
CONTINUOUS
 10
-13.0237015651
 20
22.8238998085
 11
-12.312480957
 21
22.6753962857
  0
LWPOLYLINE
  5
63C
100
AcDbEntity
  8
ASSI
100
AcDbPolyline
 62
7
  6
CONTINUOUS
 90
16
 70
0
 10
-2.5908923041
 20
24.5526305186
 10
-2.592617014
 20
24.5533827059
 10
-2.5967998791
 20
24.5545721353
 10
-2.6017372077
 20
24.5552767236
 10
-2.6073899622
 20
24.5555149992
 10
-2.6137220089
 20
24.5552942249
 10
-2.6207350302
 20
24.5546440737
 10
-2.6284202765
 20
24.5535750902
 10
-2.6367352274
 20
24.5521011193
 10
-2.6456389358
 20
24.5502569518
 10
-2.6551015257
 20
24.5480437018
 10
-2.6650904086
 20
24.5454772577
 10
-2.6755542676
 20
24.5426113308
 10
-2.6864516624
 20
24.5394662956
 10
-2.6977547315
 20
24.5360304699
 10
-2.7094297946
 20
24.532306912
  0
LWPOLYLINE
  5
63D
100
AcDbEntity
  8
ASSI
100
AcDbPolyline
 62
7
  6
CONTINUOUS
 90
16
 70
0
 10
2.9640922945
 20
21.7751382172
 10
2.9626551136
 20
21.7757775318
 10
2.9585467088
 20
21.7770012531
 10
2.9536883397
 20
21.7777423948
 10
2.948120274
 20
21.7780188912
 10
2.9418784609
 20
21.7778381971
 10
2.9349614311
 20
21.7772310848
 10
2.9273786944
 20
21.7762083598
 10
2.9191724452
 20
21.7747831196
 10
2.9103815806
 20
21.7729898508
 10
2.9010353083
 20
21.7708299816
 10
2.89116615
 20
21.7683188985
 10
2.8808235806
 20
21.7655090179
 10
2.8700479569
 20
21.7624203474
 10
2.8588670699
 20
21.7590416657
 10
2.8473140779
 20
21.7553760934
  0
LWPOLYLINE
  5
63E
100
AcDbEntity
  8
IMPORT_IGES
100
AcDbPolyline
 62
253
  6
CONTINUOUS
 90
9
 70
0
 10
14.3437837868
 20
15.6663906258
 10
14.3172541841
 20
15.6783926867
 10
14.2740200925
 20
15.6930116461
 10
14.2287141392
 20
15.7025748759
 10
14.1815850132
 20
15.7070298826
 10
14.1328914111
 20
15.7063522123
 10
14.0829006173
 20
15.7005455847
 10
14.0318870364
 20
15.6896418731
 10
13.9801306872
 20
15.6737009289
  0
LINE
  5
63F
100
AcDbEntity
  8
0
100
AcDbLine
 62
7
  6
CONTINUOUS
 10
1.5186821268
 20
21.7059185049
 11
-1.2918675202
 21
23.1111933284
  0
LINE
  5
640
100
AcDbEntity
  8
IMPORT_IGES
100
AcDbLine
 62
253
  6
CONTINUOUS
 10
13.980130687
 20
15.6737009289
 11
7.3632138013
 21
18.9821593717
  0
LINE
  5
641
100
AcDbEntity
  8
IMPORT_IGES
100
AcDbLine
 62
7
  6
CONTINUOUS
 10
14.3437837868
 20
15.6663906258
 11
7.5328705329
 21
19.0718472528
  0
LINE
  5
642
100
AcDbEntity
  8
ASSI
100
AcDbLine
 62
253
  6
CONTINUOUS
 10
2.7969720768
 20
21.7347393934
 11
2.1914416422
 21
22.0375046107
  0
LINE
  5
643
100
AcDbEntity
  8
ASSI
100
AcDbLine
 62
253
  6
CONTINUOUS
 10
-2.7583058261
 20
24.5123783449
 11
-3.3638362608
 21
24.8151435622
  0
LINE
  5
644
100
AcDbEntity
  8
0
100
AcDbLine
 62
7
  6
CONTINUOUS
 10
3.1692035413
 20
21.6343719551
 11
2.9709081418
 21
21.7335196549
  0
LINE
  5
645
100
AcDbEntity
  8
0
100
AcDbLine
 62
7
  6
CONTINUOUS
 10
2.3039267429
 20
22.0670103544
 11
0.06806442
 21
23.1849415158
  0
LINE
  5
646
100
AcDbEntity
  8
ASSI
100
AcDbLine
 62
7
  6
CONTINUOUS
 10
2.9637892048
 20
21.7752855712
 11
2.4674008898
 21
22.0234797287
  0
LINE
  5
647
100
AcDbEntity
  8
ASSI
100
AcDbLine
 62
7
  6
CONTINUOUS
 10
-2.5911676633
 20
24.5527640052
 11
-3.0875556707
 21
24.8009580089
  0
LINE
  5
648
100
AcDbEntity
  8
RACCORDO
100
AcDbLine
 62
253
  6
CONTINUOUS
 10
-3.6998377127
 20
25.5047491142
 11
-0.6328717688
 21
23.9712661423
  0
LINE
  5
649
100
AcDbEntity
  8
RACCORDO
100
AcDbLine
 62
253
  6
CONTINUOUS
 10
3.6097689183
 20
21.8499457987
 11
6.6767348622
 21
20.3164628267
  0
LINE
  5
64A
100
AcDbEntity
  8
RACCORDO
100
AcDbLine
 62
7
  6
CONTINUOUS
 10
4.0508119214
 20
21.8752952653
 11
7.2779906117
 21
20.2617059201
  0
LWPOLYLINE
  5
64B
100
AcDbEntity
  8
IMPORT_IGES
100
AcDbPolyline
 62
7
  6
CONTINUOUS
 90
10
 70
0
 10
14.3437837868
 20
15.6663906258
 10
14.3513784479
 20
15.6625065208
 10
14.3589056802
 20
15.6584824385
 10
14.3663637691
 20
15.6543190597
 10
14.3737499236
 20
15.6500177569
 10
14.3810635873
 20
15.6455786804
 10
14.3883063328
 20
15.6410005503
 10
14.3954774965
 20
15.6362833056
 10
14.4025742857
 20
15.6314283105
 10
14.4095950148
 20
15.6264362954
  0
LINE
  5
64C
100
AcDbEntity
  8
IMPORT_IGES
100
AcDbLine
 62
7
  6
CONTINUOUS
 10
16.930287508
 20
12.9384583118
 11
16.96635085
 21
12.9178550219
  0
LWPOLYLINE
  5
64D
100
AcDbEntity
  8
IMPORT_IGES
100
AcDbPolyline
 62
253
  6
CONTINUOUS
 90
13
 70
0
 10
13.9801306871
 20
15.6737009289
 10
13.9938678497
 20
15.6656215589
 10
14.0071555042
 20
15.6553660823
 10
14.0197662951
 20
15.6431099732
 10
14.0314844482
 20
15.6290629372
 10
14.0421094628
 20
15.6134653227
 10
14.0514595418
 20
15.5965840094
 10
14.0593747029
 20
15.5787078411
 10
14.0657195154
 20
15.5601426842
 10
14.0703854178
 20
15.5412061935
 10
14.0732925753
 20
15.5222223778
 10
14.0743912455
 20
15.5035160552
 10
14.07366263
 20
15.4854072962
  0
LINE
  5
64E
100
AcDbEntity
  8
IMPORT_IGES
100
AcDbLine
 62
253
  6
CONTINUOUS
 10
16.9460510535
 20
12.927285302
 11
16.9194544521
 21
12.9434509074
  0
LWPOLYLINE
  5
64F
100
AcDbEntity
  8
IMPORT_IGES
100
AcDbPolyline
 62
253
  6
CONTINUOUS
 90
13
 70
0
 10
15.1783952911
 20
13.6797647759
 10
15.2051324961
 20
13.6634970094
 10
15.2291732744
 20
13.6428420987
 10
15.2501122423
 20
13.6181707109
 10
15.2675985416
 20
13.5899226913
 10
15.2813452946
 20
13.558593066
 10
15.2911313475
 20
13.5247210408
 10
15.2968002185
 20
13.4888922638
 10
15.2982663217
 20
13.4517235219
 10
15.2955151759
 20
13.4138439693
 10
15.2886020014
 20
13.375896975
 10
15.2776531805
 20
13.3385297858
 10
15.2628630804
 20
13.3023750441
  0
LWPOLYLINE
  5
650
100
AcDbEntity
  8
IMPORT_IGES
100
AcDbPolyline
 62
253
  6
CONTINUOUS
 90
6
 70
0
 10
16.3421343522
 20
13.2139126763
 10
16.350347368
 20
13.2088115126
 10
16.3550818076
 20
13.2052804982
 10
16.3563866995
 20
13.203299828
 10
16.3540177581
 20
13.2030222614
 10
16.3481985134
 20
13.2043567284
  0
LWPOLYLINE
  5
651
100
AcDbEntity
  8
IMPORT_IGES
100
AcDbPolyline
 62
253
  6
CONTINUOUS
 90
5
 70
0
 10
15.0809768212
 20
13.8626897228
 10
15.069344543
 20
13.8702031187
 10
15.0593587102
 20
13.880236235
 10
15.0513227373
 20
13.8924842207
 10
15.0454807932
 20
13.906574927
  0
LWPOLYLINE
  5
652
100
AcDbEntity
  8
IMPORT_IGES
100
AcDbPolyline
 62
7
  6
CONTINUOUS
 90
12
 70
0
 10
16.4383575436
 20
14.1373229497
 10
16.498206681
 20
14.0979334628
 10
16.8353266181
 20
13.8423821016
 10
17.1647544324
 20
13.5586358482
 10
17.4847728644
 20
13.2483613569
 10
17.7934710782
 20
12.9135609255
 10
18.0890187857
 20
12.5563692654
 10
18.369737716
 20
12.1789488486
 10
18.6340159532
 20
11.7835717879
 10
18.8803038812
 20
11.3726381374
 10
19.1071418924
 20
10.9486489054
 10
19.3131876978
 20
10.5141614157
  0
LWPOLYLINE
  5
653
100
AcDbEntity
  8
IMPORT_IGES
100
AcDbPolyline
 62
253
  6
CONTINUOUS
 90
3
 70
0
 10
14.813305696
 20
13.9836186028
 10
14.7813860443
 20
14.0045784927
 10
14.7669598536
 20
14.0143813482
  0
LWPOLYLINE
  5
654
100
AcDbEntity
  8
IMPORT_IGES
100
AcDbPolyline
 62
253
  6
CONTINUOUS
 90
4
 70
0
 10
14.7669598536
 20
14.0143813482
 10
14.7438972732
 20
14.0306940503
 10
14.7320241933
 20
14.0391861286
 10
14.7187295435
 20
14.0488869703
  0
LINE
  5
655
100
AcDbEntity
  8
IMPORT_IGES
100
AcDbLine
 62
253
  6
CONTINUOUS
 10
14.4276362085
 20
15.4519469966
 11
16.3676116576
 21
14.0459597392
  0
LINE
  5
656
100
AcDbEntity
  8
IMPORT_IGES
100
AcDbLine
 62
7
  6
CONTINUOUS
 10
16.3495704638
 20
14.2204490381
 11
14.4095950148
 21
15.6264362954
  0
LINE
  5
657
100
AcDbEntity
  8
IMPORT_IGES
100
AcDbLine
 62
7
  6
CONTINUOUS
 10
16.96635085
 20
12.9178550219
 11
17.0004773495
 21
12.8929472773
  0
LWPOLYLINE
  5
658
100
AcDbEntity
  8
IMPORT_IGES
100
AcDbPolyline
 62
253
  6
CONTINUOUS
 90
9
 70
0
 10
14.7187295435
 20
14.0488869703
 10
14.689350657
 20
14.0707236296
 10
14.6730373463
 20
14.083000799
 10
14.6556759542
 20
14.0961993974
 10
14.6369047734
 20
14.110600053
 10
14.6168544488
 20
14.1261258899
 10
14.5955240983
 20
14.1428100988
 10
14.5724181167
 20
14.1610890746
 10
14.5474658656
 20
14.181060556
  0
LINE
  5
659
100
AcDbEntity
  8
IMPORT_IGES
100
AcDbLine
 62
253
  6
CONTINUOUS
 10
14.5474658656
 20
14.181060556
 11
14.4930427572
 21
14.2252228871
  0
LWPOLYLINE
  5
65A
100
AcDbEntity
  8
IMPORT_IGES
100
AcDbPolyline
 62
253
  6
CONTINUOUS
 90
8
 70
0
 10
16.3676116576
 20
14.0459597392
 10
16.4033880112
 20
14.0158233194
 10
16.4352246107
 20
13.9809263776
 10
16.4631214562
 20
13.941268914
 10
16.4872309649
 20
13.8964764699
 10
16.5074007195
 20
13.8469235038
 10
16.5231734678
 20
13.7937333913
 10
16.5343967921
 20
13.7372805909
  0
LWPOLYLINE
  5
65B
100
AcDbEntity
  8
IMPORT_IGES
100
AcDbPolyline
 62
253
  6
CONTINUOUS
 90
3
 70
0
 10
16.5875864044
 20
13.3117224653
 10
16.6476119365
 20
13.2602969315
 10
16.9277817117
 20
12.992877344
  0
LINE
  5
65C
100
AcDbEntity
  8
IMPORT_IGES
100
AcDbLine
 62
253
  6
CONTINUOUS
 10
16.8355709337
 20
13.4713303875
 11
16.5868577236
 21
13.6847092333
  0
LWPOLYLINE
  5
65D
100
AcDbEntity
  8
IMPORT_IGES
100
AcDbPolyline
 62
253
  6
CONTINUOUS
 90
12
 70
0
 10
14.4095950148
 20
15.6264362954
 10
14.4214665336
 20
15.6162022236
 10
14.4314508638
 20
15.6041943878
 10
14.4395551052
 20
15.5904889664
 10
14.445640592
 20
15.5753204629
 10
14.4496031999
 20
15.5589484147
 10
14.4513751275
 20
15.5416529521
 10
14.4509260567
 20
15.5237300051
 10
14.4482636711
 20
15.5054862405
 10
14.443433525
 20
15.4872338141
 10
14.4365182634
 20
15.4692850298
 10
14.4276362085
 20
15.4519469965
  0
LWPOLYLINE
  5
65E
100
AcDbEntity
  8
IMPORT_IGES
100
AcDbPolyline
 62
253
  6
CONTINUOUS
 90
12
 70
0
 10
16.3495704638
 20
14.2204490381
 10
16.3614419827
 20
14.2102149663
 10
16.3714263129
 20
14.1982071304
 10
16.3795305543
 20
14.184501709
 10
16.3856160411
 20
14.1693332055
 10
16.389578649
 20
14.1529611574
 10
16.3913505766
 20
14.1356656947
 10
16.3909015058
 20
14.1177427478
 10
16.3882391202
 20
14.0994989831
 10
16.3834089741
 20
14.0812465567
 10
16.3764937125
 20
14.0632977725
 10
16.3676116576
 20
14.0459597392
  0
LWPOLYLINE
  5
65F
100
AcDbEntity
  8
IMPORT_IGES
100
AcDbPolyline
 62
253
  6
CONTINUOUS
 90
8
 70
0
 10
13.413099057
 20
14.4713068451
 10
13.4104244679
 20
14.4736216702
 10
13.4048363584
 20
14.4757461386
 10
13.3973842078
 20
14.476178714
 10
13.3881794767
 20
14.4748641454
 10
13.3773644056
 20
14.4717953912
 10
13.3650864848
 20
14.4669907493
 10
13.3515372846
 20
14.4605017312
  0
LWPOLYLINE
  5
660
100
AcDbEntity
  8
IMPORT_IGES
100
AcDbPolyline
 62
7
  6
CONTINUOUS
 90
8
 70
0
 10
17.0004773495
 20
12.8929472773
 10
17.0321061783
 20
12.8638919467
 10
17.0606113387
 20
12.8310641267
 10
17.0856364113
 20
12.7947075408
 10
17.1070151315
 20
12.7547359093
 10
17.1243685641
 20
12.7112605024
 10
17.1372073821
 20
12.6648013179
 10
17.1451995359
 20
12.6158057175
  0
LINE
  5
661
100
AcDbEntity
  8
IMPORT_IGES
100
AcDbLine
 62
253
  6
CONTINUOUS
 10
13.9546473209
 20
13.7579265543
 11
13.9220122856
 21
13.7885933437
  0
LINE
  5
662
100
AcDbEntity
  8
IMPORT_IGES
100
AcDbLine
 62
253
  6
CONTINUOUS
 10
16.9277817117
 20
12.992877344
 11
17.2013802993
 21
12.704086255
  0
LINE
  5
663
100
AcDbEntity
  8
IMPORT_IGES
100
AcDbLine
 62
253
  6
CONTINUOUS
 10
13.9220122856
 20
13.7885933437
 11
13.8904341395
 21
13.8223790071
  0
LWPOLYLINE
  5
664
100
AcDbEntity
  8
IMPORT_IGES
100
AcDbPolyline
 62
253
  6
CONTINUOUS
 90
10
 70
0
 10
14.3888548224
 20
13.6491019751
 10
14.3755548432
 20
13.6636966806
 10
14.3614815057
 20
13.6763337457
 10
14.3469087316
 20
13.6867672045
 10
14.3321201632
 20
13.6947939814
 10
14.3174036432
 20
13.7002578445
 10
14.3030456119
 20
13.7030524459
 10
14.2893255322
 20
13.7031233918
 10
14.2765104497
 20
13.7004693013
 10
14.2687397745
 20
13.6972825581
  0
LWPOLYLINE
  5
665
100
AcDbEntity
  8
IMPORT_IGES
100
AcDbPolyline
 62
7
  6
CONTINUOUS
 90
9
 70
0
 10
13.4130881514
 20
14.4712939126
 10
13.4032459566
 20
14.4824832471
 10
13.3930241728
 20
14.4931861524
 10
13.3824253078
 20
14.5033907496
 10
13.3714116454
 20
14.5131146923
 10
13.3600215641
 20
14.5223012645
 10
13.3483803779
 20
14.5308407083
 10
13.3365402685
 20
14.5387001032
 10
13.3244708063
 20
14.545901824
  0
LWPOLYLINE
  5
666
100
AcDbEntity
  8
IMPORT_IGES
100
AcDbPolyline
 62
7
  6
CONTINUOUS
 90
8
 70
0
 10
13.3515372846
 20
14.4605017312
 10
13.3405902386
 20
14.4730881098
 10
13.3293322883
 20
14.4850478169
 10
13.3178017337
 20
14.4963408982
 10
13.3060376411
 20
14.5069296835
 10
13.2940800523
 20
14.5167790912
 10
13.2819698465
 20
14.5258567389
 10
13.269748144
 20
14.5341328046
  0
LWPOLYLINE
  5
667
100
AcDbEntity
  8
IMPORT_IGES
100
AcDbPolyline
 62
253
  6
CONTINUOUS
 90
8
 70
0
 10
17.2013802993
 20
12.704086255
 10
17.4643140042
 20
12.3981549698
 10
17.7164355518
 20
12.0748269047
 10
17.9578922167
 20
11.7343586435
 10
18.185032127
 20
11.3817512435
 10
18.396637992
 20
11.0186717239
 10
18.5939271025
 20
10.6434530655
 10
18.7768994584
 20
10.2560952683
  0
LINE
  5
668
100
AcDbEntity
  8
IMPORT_IGES
100
AcDbLine
 62
253
  6
CONTINUOUS
 10
13.3515368511
 20
14.4605022544
 11
13.8904341395
 21
13.8223790071
  0
LINE
  5
669
100
AcDbEntity
  8
IMPORT_IGES
100
AcDbLine
 62
7
  6
CONTINUOUS
 10
13.4131054289
 20
14.4712993068
 11
13.9520029678
 21
13.8331757728
  0
LWPOLYLINE
  5
66A
100
AcDbEntity
  8
IMPORT_IGES
100
AcDbPolyline
 62
253
  6
CONTINUOUS
 90
3
 70
0
 10
17.2207153309
 20
11.9250046222
 10
17.2655984088
 20
11.8704154602
 10
17.484655823
 20
11.5774429079
  0
LWPOLYLINE
  5
66B
100
AcDbEntity
  8
IMPORT_IGES
100
AcDbPolyline
 62
253
  6
CONTINUOUS
 90
3
 70
0
 10
17.5973114875
 20
11.6615461036
 10
17.3715235813
 20
11.962915568
 10
17.1928170723
 20
12.1802114644
  0
LWPOLYLINE
  5
66C
100
AcDbEntity
  8
IMPORT_IGES
100
AcDbPolyline
 62
253
  6
CONTINUOUS
 90
4
 70
0
 10
17.0084167037
 20
12.8540674136
 10
16.9909160052
 20
12.8822079118
 10
16.9700082091
 20
12.9067538707
 10
16.9460510535
 20
12.927285302
  0
LWPOLYLINE
  5
66D
100
AcDbEntity
  8
IMPORT_IGES
100
AcDbPolyline
 62
253
  6
CONTINUOUS
 90
19
 70
0
 10
14.6364064391
 20
13.8707989036
 10
14.6359379919
 20
13.8716139108
 10
14.6296546719
 20
13.882919896
 10
14.6231165017
 20
13.8950998287
 10
14.6162695056
 20
13.9082148407
 10
14.6091860081
 20
13.9221760654
 10
14.601817963
 20
13.9372188759
 10
14.5941798189
 20
13.9533066422
 10
14.5862909402
 20
13.9704416792
 10
14.5781173333
 20
13.9889106434
 10
14.5697092262
 20
14.00867492
 10
14.5610746369
 20
14.0297316496
 10
14.5521308072
 20
14.0524091105
 10
14.542987677
 20
14.0766440651
 10
14.5336399341
 20
14.1024439243
 10
14.5238759556
 20
14.1302116505
 10
14.5137166173
 20
14.1600367119
 10
14.5033883491
 20
14.1917226301
 10
14.4930427573
 20
14.225222887
  0
LWPOLYLINE
  5
66E
100
AcDbEntity
  8
IMPORT_IGES
100
AcDbPolyline
 62
253
  6
CONTINUOUS
 90
10
 70
0
 10
15.1783952911
 20
13.679764776
 10
15.1800854832
 20
13.6767291339
 10
15.1807362425
 20
13.6715376525
 10
15.1803423398
 20
13.6642320479
 10
15.1789069405
 20
13.6548710246
 10
15.1764415786
 20
13.6435298036
 10
15.1729660647
 20
13.6302995177
 10
15.1685083265
 20
13.6152864793
 10
15.1631041843
 20
13.5986113263
 10
15.1567970633
 20
13.5804080527
  0
LINE
  5
66F
100
AcDbEntity
  8
IMPORT_IGES
100
AcDbLine
 62
253
  6
CONTINUOUS
 10
18.1910254311
 20
10.2648066741
 11
18.1730114143
 21
10.3024883697
  0
LWPOLYLINE
  5
670
100
AcDbEntity
  8
IMPORT_IGES
100
AcDbPolyline
 62
253
  6
CONTINUOUS
 90
7
 70
0
 10
15.1894918124
 20
13.8405921904
 10
15.1735735842
 20
13.8742777985
 10
15.1545848923
 20
13.9048746413
 10
15.1329707733
 20
13.9316656225
 10
15.108879573
 20
13.95441171
 10
15.0821629457
 20
13.9733519359
 10
15.0528208914
 20
13.9884863001
  0
LINE
  5
671
100
AcDbEntity
  8
IMPORT_IGES
100
AcDbLine
 62
253
  6
CONTINUOUS
 10
18.2088470607
 20
10.2270414025
 11
18.1910254311
 21
10.2648066741
  0
LINE
  5
672
100
AcDbEntity
  8
IMPORT_IGES
100
AcDbLine
 62
253
  6
CONTINUOUS
 10
18.2264751014
 20
10.1891951119
 11
18.2088470607
 21
10.2270414025
  0
LWPOLYLINE
  5
673
100
AcDbEntity
  8
IMPORT_IGES
100
AcDbPolyline
 62
253
  6
CONTINUOUS
 90
10
 70
0
 10
18.1730114143
 20
10.3024883697
 10
18.1710273553
 20
10.3067713327
 10
18.1691791203
 20
10.3110813418
 10
18.167466709
 20
10.3154183971
 10
18.165886935
 20
10.3197922108
 10
18.1644429848
 20
10.3241930706
 10
18.1631444183
 20
10.32859184
 10
18.1619944222
 20
10.3329788069
 10
18.1609898099
 20
10.3373636834
 10
18.1601305812
 20
10.3417464695
  0
LINE
  5
674
100
AcDbEntity
  8
IMPORT_IGES
100
AcDbLine
 62
253
  6
CONTINUOUS
 10
17.4689927896
 20
9.4240249561
 11
18.4526246348
 21
7.2511733693
  0
LINE
  5
675
100
AcDbEntity
  8
IMPORT_IGES
100
AcDbLine
 62
7
  6
CONTINUOUS
 10
17.5301612318
 20
9.6538118264
 11
18.513793077
 21
7.4809602397
  0
LWPOLYLINE
  5
676
100
AcDbEntity
  8
IMPORT_IGES
100
AcDbPolyline
 62
253
  6
CONTINUOUS
 90
10
 70
0
 10
18.4526246348
 20
7.2511733693
 10
18.4747273058
 20
7.1983165056
 10
18.4942765169
 20
7.1432718492
 10
18.5112722682
 20
7.0860394003
 10
18.5257411291
 20
7.0264814762
 10
18.5376565301
 20
6.9647357595
 10
18.5469387633
 20
6.9012152979
 10
18.5535612594
 20
6.8360577739
 10
18.5575505876
 20
6.769125505
 10
18.558906748
 20
6.7004184912
  0
LWPOLYLINE
  5
677
100
AcDbEntity
  8
IMPORT_IGES
100
AcDbPolyline
 62
253
  6
CONTINUOUS
 90
10
 70
0
 10
18.0406190092
 20
10.2547625435
 10
18.0506875815
 20
10.2280683878
 10
18.0581135985
 20
10.2011498741
 10
18.0627432888
 20
10.1745644082
 10
18.0644807832
 20
10.1488624984
 10
18.0632901049
 20
10.1245763591
 10
18.0591959148
 20
10.1022088894
 10
18.0522829937
 20
10.0822232569
 10
18.0426944866
 20
10.0650333059
 10
18.0306289441
 20
10.0509949915
  0
LWPOLYLINE
  5
678
100
AcDbEntity
  8
IMPORT_IGES
100
AcDbPolyline
 62
253
  6
CONTINUOUS
 90
10
 70
0
 10
18.7768994584
 20
10.2560952683
 10
18.7840702432
 20
10.2354821714
 10
18.7883331802
 20
10.2164409208
 10
18.7896882695
 20
10.1989715167
 10
18.7879650687
 20
10.1825238914
 10
18.7833340201
 20
10.1676481125
 10
18.776306451
 20
10.1559943823
 10
18.7670528036
 20
10.1481127682
 10
18.7554026358
 20
10.1434532029
 10
18.7413559473
 20
10.1420156862
  0
LWPOLYLINE
  5
679
100
AcDbEntity
  8
IMPORT_IGES
100
AcDbPolyline
 62
253
  6
CONTINUOUS
 90
9
 70
0
 10
17.5301612318
 20
9.6538118264
 10
17.5393501978
 20
9.6271099282
 10
17.5435413244
 20
9.599112385
 10
17.542827267
 20
9.5699338664
 10
17.5372202433
 20
9.5400736248
 10
17.526816191
 20
9.5100425773
 10
17.5117931264
 20
9.4803545633
 10
17.4924080982
 20
9.4515175532
 10
17.4689927896
 20
9.4240249561
  0
LWPOLYLINE
  5
67A
100
AcDbEntity
  8
IMPORT_IGES
100
AcDbPolyline
 62
253
  6
CONTINUOUS
 90
8
 70
0
 10
19.262983781
 20
10.4313590091
 10
19.2751276457
 20
10.3879043417
 10
19.2824134372
 20
10.3450306555
 10
19.2846664391
 20
10.30376608
 10
19.2818326236
 20
10.2651001574
 10
19.2739799466
 20
10.2299601133
 10
19.2612967189
 20
10.1991886209
 10
19.2440870895
 20
10.173523594
  0
LWPOLYLINE
  5
67B
100
AcDbEntity
  8
IMPORT_IGES
100
AcDbPolyline
 62
253
  6
CONTINUOUS
 90
10
 70
0
 10
18.1601305812
 20
10.3417464695
 10
18.1283041211
 20
10.4949321471
 10
18.088511552
 20
10.6471598779
 10
18.040752874
 20
10.7984296619
 10
17.98464294
 20
10.9496446612
 10
17.920566897
 20
11.0999017137
 10
17.8496801861
 20
11.2464913328
 10
17.7723679545
 20
11.3885103564
 10
17.6882450549
 20
11.5268619466
 10
17.5973114875
 20
11.6615461036
  0
LWPOLYLINE
  5
67C
100
AcDbEntity
  8
IMPORT_IGES
100
AcDbPolyline
 62
253
  6
CONTINUOUS
 90
10
 70
0
 10
18.0206740074
 20
10.3204908755
 10
17.9908189315
 20
10.464939356
 10
17.9528429656
 20
10.6102182806
 10
17.9069753918
 20
10.7554505197
 10
17.853493138
 20
10.8997592258
 10
17.7927191062
 20
11.0422731274
 10
17.7250202229
 20
11.1821317889
 10
17.6508052239
 20
11.3184908062
 10
17.5705221862
 20
11.4505269043
 10
17.484655823
 20
11.5774429079
  0
LWPOLYLINE
  5
67D
100
AcDbEntity
  8
IMPORT_IGES
100
AcDbPolyline
 62
253
  6
CONTINUOUS
 90
10
 70
0
 10
18.1510371631
 20
10.2230956077
 10
18.1571189139
 20
10.1936872974
 10
18.1638319221
 20
10.1667132329
 10
18.1709797683
 20
10.1420330921
 10
18.1785389933
 20
10.1190993799
 10
18.1867553769
 20
10.0984719222
 10
18.1954132907
 20
10.0814397351
 10
18.2036513565
 20
10.0681735894
 10
18.2115455018
 20
10.0586294824
 10
18.2195256269
 20
10.0533443358
  0
LWPOLYLINE
  5
67E
100
AcDbEntity
  8
IMPORT_IGES
100
AcDbPolyline
 62
7
  6
CONTINUOUS
 90
3
 70
0
 10
19.3410982469
 20
10.4134033565
 10
19.3313125678
 20
10.463501691
 10
19.3131876978
 20
10.5141614157
  0
LWPOLYLINE
  5
67F
100
AcDbEntity
  8
IMPORT_IGES
100
AcDbPolyline
 62
253
  6
CONTINUOUS
 90
10
 70
0
 10
18.0206740786
 20
10.3204904782
 10
18.0220791514
 20
10.3132110777
 10
18.0236938829
 20
10.3058994049
 10
18.0255157892
 20
10.2985667234
 10
18.0275420775
 20
10.2912242924
 10
18.0297696217
 20
10.2838834609
 10
18.0321949571
 20
10.2765556491
 10
18.0348143289
 20
10.2692521826
 10
18.0376237078
 20
10.2619842753
 10
18.0406187609
 20
10.2547631223
  0
LWPOLYLINE
  5
680
100
AcDbEntity
  8
IMPORT_IGES
100
AcDbPolyline
 62
253
  6
CONTINUOUS
 90
8
 70
0
 10
19.2081153678
 20
6.1708209291
 10
19.202704209
 20
6.2068609448
 10
19.1937865114
 20
6.2435039139
 10
19.1815148808
 20
6.2801227774
 10
19.1660993176
 20
6.3160908883
 10
19.1478036232
 20
6.3507927362
 10
19.1269408861
 20
6.3836344796
 10
19.1038681233
 20
6.4140541083
  0
LWPOLYLINE
  5
681
100
AcDbEntity
  8
RACCORDO
100
AcDbPolyline
 62
7
  6
CONTINUOUS
 90
19
 70
0
 10
1.8808861799
 20
-24.8509194166
 10
1.8871118517
 20
-24.8471008068
 10
1.8930611896
 20
-24.8427890547
 10
1.8987207139
 20
-24.8379939296
 10
1.9040775745
 20
-24.8327263087
 10
1.9091196445
 20
-24.8269981213
 10
1.913835545
 20
-24.8208223248
 10
1.9182145424
 20
-24.8142129354
 10
1.9222467026
 20
-24.8071849331
 10
1.9259229797
 20
-24.7997541992
 10
1.9292349747
 20
-24.7919376031
 10
1.932175149
 20
-24.7837528705
 10
1.9347369735
 20
-24.7752184822
 10
1.9369145548
 20
-24.7663538172
 10
1.9387029031
 20
-24.7571789856
 10
1.9400981386
 20
-24.7477146908
 10
1.9410970966
 20
-24.7379823764
 10
1.9416973341
 20
-24.7280041773
 10
1.9418973901
 20
-24.7178027475
  0
LWPOLYLINE
  5
682
100
AcDbEntity
  8
RACCORDO
100
AcDbPolyline
 62
253
  6
CONTINUOUS
 90
18
 70
0
 10
2.4064820721
 20
-24.5813526528
 10
2.41207318
 20
-24.5782390216
 10
2.4187908168
 20
-24.5737934447
 10
2.4251618616
 20
-24.5687586487
 10
2.4311688102
 20
-24.5631484459
 10
2.436795164
 20
-24.5569782341
 10
2.4420254871
 20
-24.5502649369
 10
2.4468454423
 20
-24.5430269519
 10
2.451241809
 20
-24.5352841256
 10
2.4552025306
 20
-24.527057685
 10
2.4587167438
 20
-24.5183701863
 10
2.4617748073
 20
-24.5092454573
 10
2.4643683362
 20
-24.4997085115
 10
2.4664902157
 20
-24.4897855043
 10
2.4681346224
 20
-24.4795036746
 10
2.4692970493
 20
-24.4688912281
 10
2.4699743138
 20
-24.4579772568
 10
2.4701645619
 20
-24.4467916889
  0
LWPOLYLINE
  5
683
100
AcDbEntity
  8
RACCORDO
100
AcDbPolyline
 62
253
  6
CONTINUOUS
 90
18
 70
0
 10
0.2743550641
 20
-25.6336879454
 10
0.2817229734
 20
-25.6296811058
 10
0.2884344718
 20
-25.6252335053
 10
0.2948071023
 20
-25.6201928805
 10
0.3008234265
 20
-25.6145730452
 10
0.3064670022
 20
-25.6083893628
 10
0.3117224174
 20
-25.6016586935
 10
0.3165751835
 20
-25.5943995643
 10
0.3210118641
 20
-25.5866321162
 10
0.325020256
 20
-25.578377851
 10
0.328589495
 20
-25.5696592924
 10
0.3317099135
 20
-25.5605001174
 10
0.3343734872
 20
-25.5509233004
 10
0.3365721795
 20
-25.5409570592
 10
0.3382990245
 20
-25.5306353107
 10
0.3395499688
 20
-25.5199892426
 10
0.3403228973
 20
-25.5090464448
 10
0.3406165993
 20
-25.4978373472
  0
LWPOLYLINE
  5
684
100
AcDbEntity
  8
RACCORDO
100
AcDbPolyline
 62
7
  6
CONTINUOUS
 90
22
 70
0
 10
2.4064820721
 20
-24.5813526528
 10
2.4162888075
 20
-24.5760417184
 10
2.4273004318
 20
-24.5693750679
 10
2.4379640952
 20
-24.5621434446
 10
2.4482507931
 20
-24.5543642274
 10
2.4581394794
 20
-24.5460499365
 10
2.4676026715
 20
-24.5372189553
 10
2.4766109325
 20
-24.5278938632
 10
2.4851402897
 20
-24.5180940941
 10
2.4931651144
 20
-24.5078427871
 10
2.5006596275
 20
-24.4971662009
 10
2.5076007238
 20
-24.4860900914
 10
2.5139657404
 20
-24.474642727
 10
2.5197334801
 20
-24.4628536538
 10
2.5248847796
 20
-24.4507523392
 10
2.5294019203
 20
-24.4383688819
 10
2.5332673606
 20
-24.4257382832
 10
2.5364651499
 20
-24.4128992077
 10
2.5389827376
 20
-24.3998875614
 10
2.5408096885
 20
-24.3867390886
 10
2.5419372144
 20
-24.3734937412
 10
2.5423624188
 20
-24.3589187205
  0
LINE
  5
685
100
AcDbEntity
  8
RACCORDO
100
AcDbLine
 62
7
  6
CONTINUOUS
 10
1.877792291
 20
-24.8525805183
 11
1.8808861799
 21
-24.8509194166
  0
LINE
  5
686
100
AcDbEntity
  8
RACCORDO
100
AcDbLine
 62
253
  6
CONTINUOUS
 10
2.4701645619
 20
-24.4467916889
 11
1.9418973901
 21
-24.7178027475
  0
LINE
  5
687
100
AcDbEntity
  8
RACCORDO
100
AcDbLine
 62
7
  6
CONTINUOUS
 10
2.4064765243
 20
-24.5813554992
 11
1.8777942608
 21
-24.8525795078
  0
LINE
  5
688
100
AcDbEntity
  8
RACCORDO
100
AcDbLine
 62
7
  6
CONTINUOUS
 10
1.8760558736
 20
-24.8534487413
 11
1.877792291
 21
-24.8525805183
  0
LINE
  5
689
100
AcDbEntity
  8
RACCORDO
100
AcDbLine
 62
253
  6
CONTINUOUS
 10
1.9418973901
 20
-24.7178027475
 11
0.3406165993
 21
-25.4978373472
  0
LINE
  5
68A
100
AcDbEntity
  8
RACCORDO
100
AcDbLine
 62
7
  6
CONTINUOUS
 10
1.8760531097
 20
-24.8534500877
 11
0.2743550067
 21
-25.6336879734
  0
LINE
  5
68B
100
AcDbEntity
  8
RACCORDO
100
AcDbLine
 62
7
  6
CONTINUOUS
 10
2.1500361981
 20
-23.1251615413
 11
2.1396224013
 21
-23.1299097448
  0
LINE
  5
68C
100
AcDbEntity
  8
RACCORDO
100
AcDbLine
 62
253
  6
CONTINUOUS
 10
-3.2130081335
 20
-25.1600929771
 11
2.284681139
 21
-22.8523863291
  0
LINE
  5
68D
100
AcDbEntity
  8
RACCORDO
100
AcDbLine
 62
7
  6
CONTINUOUS
 10
-3.3668153789
 20
-25.4412886755
 11
2.1396322334
 21
-23.1299056321
  0
LINE
  5
68E
100
AcDbEntity
  8
0
100
AcDbLine
 62
7
  6
CONTINUOUS
 10
0.06806442
 20
23.1849415158
 11
-1.2918675202
 21
23.1111933284
  0
LWPOLYLINE
  5
68F
100
AcDbEntity
  8
RACCORDO
100
AcDbPolyline
 62
7
  6
CONTINUOUS
 90
18
 70
0
 10
-0.1918190517
 20
23.9965997891
 10
-0.211381136
 20
24.0056895222
 10
-0.2342769162
 20
24.0146749369
 10
-0.2577862025
 20
24.0221771696
 10
-0.2819275246
 20
24.0282113395
 10
-0.306617278
 20
24.0327571239
 10
-0.3318787042
 20
24.0358111073
 10
-0.3576885617
 20
24.0373767053
 10
-0.3838935206
 20
24.0374438418
 10
-0.4104774832
 20
24.0360050659
 10
-0.4374565472
 20
24.0330678285
 10
-0.4647256758
 20
24.0286444073
 10
-0.4922998555
 20
24.0227260216
 10
-0.5201640997
 20
24.0153214521
 10
-0.5481684128
 20
24.0064693175
 10
-0.576262796
 20
23.9961824908
 10
-0.604497248
 20
23.9844480991
 10
-0.6328717688
 20
23.9712661423
  0
LWPOLYLINE
  5
690
100
AcDbEntity
  8
IMPORT_IGES
100
AcDbPolyline
 62
7
  6
CONTINUOUS
 90
3
 70
0
 10
16.437685672
 20
14.1382242731
 10
16.3954938375
 20
14.1826292837
 10
16.3495704639
 20
14.2204490381
  0
LINE
  5
691
100
AcDbEntity
  8
IMPORT_IGES
100
AcDbLine
 62
7
  6
CONTINUOUS
 10
16.4755994815
 20
14.0873624707
 11
16.437685672
 21
14.1382242731
  0
LWPOLYLINE
  5
692
100
AcDbEntity
  8
IMPORT_IGES
100
AcDbPolyline
 62
253
  6
CONTINUOUS
 90
10
 70
0
 10
19.0341410239
 20
10.3682865792
 10
18.8475296836
 20
10.7642927629
 10
18.6438359864
 20
11.1518433148
 10
18.4240887162
 20
11.5289808557
 10
18.1893977378
 20
11.893800599
 10
17.9409483911
 20
12.2444599709
 10
17.6799955049
 20
12.5791879165
 10
17.4078570587
 20
12.8962938449
 10
17.1259075262
 20
13.1941761675
 10
16.8355709337
 20
13.4713303875
  0
LWPOLYLINE
  5
693
100
AcDbEntity
  8
IMPORT_IGES
100
AcDbPolyline
 62
253
  6
CONTINUOUS
 90
12
 70
0
 10
19.2462730583
 20
10.4743525961
 10
19.059661718
 20
10.87035878
 10
18.8559680208
 20
11.2579093319
 10
18.6362207506
 20
11.6350468728
 10
18.4015297721
 20
11.9998666162
 10
18.1530804254
 20
12.3505259881
 10
17.8921275392
 20
12.6852539337
 10
17.619989093
 20
13.002359862
 10
17.3380395606
 20
13.3002421847
 10
17.0477029681
 20
13.5773964047
 10
16.7504457016
 20
13.8324227155
 10
16.5172759002
 20
14.0108459579
  0
LINE
  5
694
100
AcDbEntity
  8
IMPORT_IGES
100
AcDbLine
 62
253
  6
CONTINUOUS
 10
19.2462730583
 20
10.4743525961
 11
19.262983781
 21
10.4313590091
  0
LWPOLYLINE
  5
695
100
AcDbEntity
  8
ASSI
100
AcDbPolyline
 62
7
  6
CONTINUOUS
 90
16
 70
0
 10
-3.3129050695
 20
24.8354856671
 10
-3.3007602006
 20
24.8388473838
 10
-3.2880387758
 20
24.8414489192
 10
-3.2747469797
 20
24.8432737136
 10
-3.2608852649
 20
24.8443191951
 10
-3.246470658
 20
24.8445539185
 10
-3.231538966
 20
24.8439191757
 10
-3.2161076808
 20
24.8423924921
 10
-3.200192527
 20
24.8399652443
 10
-3.1838326059
 20
24.8366022339
 10
-3.1670880949
 20
24.8322991871
 10
-3.1499464471
 20
24.8270344022
 10
-3.1323371297
 20
24.82074217
 10
-3.1142746579
 20
24.8134042517
 10
-3.0957950598
 20
24.8050003767
 10
-3.0881248108
 20
24.8012466957
  0
ELLIPSE
  5
696
100
AcDbEntity
  8
RACCORDO
100
AcDbEllipse
 62
7
  6
CONTINUOUS
 10
-15.6297061224
 20
20.5425453
 30
0.0
 11
-0.1116009943
 21
0.2239381218
 31
0.0
 40
0.6122032814
 41
-0.6832419393
 42
0.031533549
  0
ELLIPSE
  5
697
100
AcDbEntity
  8
RACCORDO
100
AcDbEllipse
 62
7
  6
CONTINUOUS
 10
-2.6189413485
 20
14.037162913
 30
0.0
 11
-0.1116009943
 21
0.2239381218
 31
0.0
 40
0.6122032814
 41
-1.759583684
 42
-0.6832419393
  0
ELLIPSE
  5
698
100
AcDbEntity
  8
IMPORT_IGES
100
AcDbEllipse
 62
7
  6
CONTINUOUS
 10
5.9263939156
 20
-8.2809614133
 30
0.0
 11
0.5384358886
 21
-0.0547002141
 31
0.0
 40
0.1703160628
 41
-0.3632055326
 42
-0.2624835386
  0
ELLIPSE
  5
699
100
AcDbEntity
  8
IMPORT_IGES
100
AcDbEllipse
 62
7
  6
CONTINUOUS
 10
16.8264951341
 20
4.2657254889
 30
0.0
 11
0.2996199708
 21
-0.1851753256
 31
0.0
 40
0.0815198604
 41
0.04869168
 42
0.8357376436
  0
ELLIPSE
  5
69A
100
AcDbEntity
  8
IMPORT_IGES
100
AcDbEllipse
 62
7
  6
CONTINUOUS
 10
5.6790238889
 20
-8.3377092684
 30
0.0
 11
0.3920619587
 21
-0.0495046541
 31
0.0
 40
0.744155334
 41
-1.269334162
 42
-0.8389244363
  0
ELLIPSE
  5
69B
100
AcDbEntity
  8
IMPORT_IGES
100
AcDbEllipse
 62
7
  6
CONTINUOUS
 10
16.1193883529
 20
4.8199817474
 30
0.0
 11
0.0998733236
 21
-0.0617251085
 31
0.0
 40
0.0815198604
 41
0.1003424052
 42
0.8357376436
  0
ELLIPSE
  5
69C
100
AcDbEntity
  8
IMPORT_IGES
100
AcDbEllipse
 62
7
  6
CONTINUOUS
 10
16.5213989123
 20
0.4455385151
 30
0.0
 11
1.0928315712
 21
-0.9651456019
 31
0.0
 40
0.2700310038
 41
5.5155896746
 42
7.0606723592
  0
ELLIPSE
  5
69D
100
AcDbEntity
  8
IMPORT_IGES
100
AcDbEllipse
 62
7
  6
CONTINUOUS
 10
3.688847345
 20
8.5975707421
 30
0.0
 11
0.4959991763
 21
0.8693232548
 31
0.0
 40
0.6500195766
 41
0.1820502219
 42
0.7203881215
  0
ELLIPSE
  5
69E
100
AcDbEntity
  8
IMPORT_IGES
100
AcDbEllipse
 62
7
  6
CONTINUOUS
 10
6.1172593435
 20
10.7261017751
 30
0.0
 11
0.2999899059
 21
-0.0050528313
 31
0.0
 40
0.4870476356
 41
-1.9904499309
 42
-0.7771948395
  0
ELLIPSE
  5
69F
100
AcDbEntity
  8
IMPORT_IGES
100
AcDbEllipse
 62
7
  6
CONTINUOUS
 10
3.0698362956
 20
12.249813299
 30
0.0
 11
0.2999899059
 21
-0.0050528313
 31
0.0
 40
0.4870476356
 41
-1.7892089969
 42
-0.7771948395
  0
ELLIPSE
  5
6A0
100
AcDbEntity
  8
IMPORT_IGES
100
AcDbEllipse
 62
7
  6
CONTINUOUS
 10
4.3077883712
 20
9.1732912617
 30
0.0
 11
0.9919983524
 21
1.7386465091
 31
0.0
 40
0.6500195766
 41
5.9398720091
 42
7.0035734287
  0
ELLIPSE
  5
6A1
100
AcDbEntity
  8
IMPORT_IGES
100
AcDbEllipse
 62
7
  6
CONTINUOUS
 10
5.6929952748
 20
10.5248707598
 30
0.0
 11
0.2999899059
 21
-0.0050528313
 31
0.0
 40
0.4870476356
 41
-0.7771948395
 42
0.0082045976
  0
ELLIPSE
  5
6A2
100
AcDbEntity
  8
IMPORT_IGES
100
AcDbEllipse
 62
7
  6
CONTINUOUS
 10
7.2805535881
 20
9.9260852941
 30
0.0
 11
0.2996199708
 21
-0.1851753256
 31
0.0
 40
0.0815198604
 41
1.5570317333
 42
2.4065339704
  0
ELLIPSE
  5
6A3
100
AcDbEntity
  8
IMPORT_IGES
100
AcDbEllipse
 62
7
  6
CONTINUOUS
 10
3.8972853117
 20
8.7320155369
 30
0.0
 11
0.3679630777
 21
0.7104103382
 31
0.0
 40
0.6229838795
 41
0.6936054221
 42
1.4790035855
  0
ELLIPSE
  5
6A4
100
AcDbEntity
  8
IMPORT_IGES
100
AcDbEllipse
 62
7
  6
CONTINUOUS
 10
-12.3239819203
 20
-8.1083713297
 30
0.0
 11
0.2952573947
 21
0.0837317531
 31
0.0
 40
0.6345570966
 41
-2.5342423105
 42
-0.9634459838
  0
ELLIPSE
  5
6A5
100
AcDbEntity
  8
RACCORDO
100
AcDbEllipse
 62
7
  6
CONTINUOUS
 10
7.1986004206
 20
19.2588733211
 30
0.0
 11
0.499996712
 21
0.0035883639
 31
0.0
 40
0.5053247124
 41
-0.7715714568
 42
-0.0036478305
  0
ELLIPSE
  5
6A6
100
AcDbEntity
  8
ASSI
100
AcDbEllipse
 62
7
  6
CONTINUOUS
 10
-3.365905106
 20
24.3811157322
 30
0.0
 11
0.2257019663
 21
0.4461636818
 31
0.0
 40
0.6159267166
 41
0.5380090616
 42
0.6817883054
  0
ELLIPSE
  5
6A7
100
AcDbEntity
  8
RACCORDO
100
AcDbEllipse
 62
7
  6
CONTINUOUS
 10
-9.3474158047
 20
-8.7564921884
 30
0.0
 11
0.2205149116
 21
0.4487546221
 31
0.0
 40
0.607010042
 41
0.6892518406
 42
0.6987800003
  0
ELLIPSE
  5
6A8
100
AcDbEntity
  8
RACCORDO
100
AcDbEllipse
 62
7
  6
CONTINUOUS
 10
-10.1475457127
 20
-9.7287695324
 30
0.0
 11
0.2205149116
 21
0.4487546221
 31
0.0
 40
0.607010042
 41
0.6892518406
 42
0.7019827992
  0
ELLIPSE
  5
6A9
100
AcDbEntity
  8
RACCORDO
100
AcDbEllipse
 62
7
  6
CONTINUOUS
 10
-8.69799677
 20
21.8585960635
 30
0.0
 11
0.4999985559
 21
0.0023864752
 31
0.0
 40
0.5035541159
 41
2.3596088132
 42
3.0002042076
  0
ELLIPSE
  5
6AA
100
AcDbEntity
  8
RACCORDO
100
AcDbEllipse
 62
7
  6
CONTINUOUS
 10
2.6489503152
 20
-22.3214848884
 30
0.0
 11
-0.2236445579
 21
0.4471998343
 31
0.0
 40
0.6124778111
 41
-3.1448859382
 42
-2.255529033
  0
ELLIPSE
  5
6AB
100
AcDbEntity
  8
RACCORDO
100
AcDbEllipse
 62
7
  6
CONTINUOUS
 10
2.6489503152
 20
15.5952794421
 30
0.0
 11
-0.2237046003
 21
0.4472532382
 31
0.0
 40
0.6122950388
 41
-2.2557482655
 42
-0.6847996396
  0
ELLIPSE
  5
6AC
100
AcDbEntity
  8
RACCORDO
100
AcDbEllipse
 62
7
  6
CONTINUOUS
 10
-4.4130881619
 20
24.9892113182
 30
0.0
 11
0.9987332359
 21
0.6172510855
 31
0.0
 40
0.0815198604
 41
0.0509898783
 42
0.7263320369
  0
ELLIPSE
  5
6AD
100
AcDbEntity
  8
RACCORDO
100
AcDbEllipse
 62
7
  6
CONTINUOUS
 10
7.3776441265
 20
-17.8208223703
 30
0.0
 11
0.9987332359
 21
0.6172510855
 31
0.0
 40
0.0815198604
 41
-2.3978073241
 42
-1.2985018509
  0
ELLIPSE
  5
6AE
100
AcDbEntity
  8
RACCORDO
100
AcDbEllipse
 62
7
  6
CONTINUOUS
 10
-12.4882262214
 20
21.956731247
 30
0.0
 11
0.249929385
 21
0.0111824824
 31
0.0
 40
0.5313301283
 41
-2.3799630874
 42
-0.8149845248
  0
ELLIPSE
  5
6AF
100
AcDbEntity
  8
RACCORDO
100
AcDbEllipse
 62
7
  6
CONTINUOUS
 10
-0.4571203906
 20
15.9411783316
 30
0.0
 11
0.249929385
 21
0.0111824824
 31
0.0
 40
0.5313301283
 41
3.1178369227
 42
3.9032222197
  0
ELLIPSE
  5
6B0
100
AcDbEntity
  8
ASSI
100
AcDbEllipse
 62
7
  6
CONTINUOUS
 10
2.7949271648
 20
21.3006995968
 30
0.0
 11
0.221538876
 21
0.4482453432
 31
0.0
 40
0.6088015717
 41
0.5323082896
 42
0.6760875334
  0
ELLIPSE
  5
6B1
100
AcDbEntity
  8
RACCORDO
100
AcDbEllipse
 62
7
  6
CONTINUOUS
 10
-13.6820738271
 20
-9.1165705276
 30
0.0
 11
0.2267599918
 21
0.4456316896
 31
0.0
 40
0.6176975122
 41
0.6978040307
 42
0.7132373732
  0
ELLIPSE
  5
6B2
100
AcDbEntity
  8
RACCORDO
100
AcDbEllipse
 62
7
  6
CONTINUOUS
 10
-13.6961157673
 20
-7.9544845051
 30
0.0
 11
0.2267599918
 21
0.4456316896
 31
0.0
 40
0.6176975122
 41
0.6978040307
 42
0.7105349894
  0
ELLIPSE
  5
6B3
100
AcDbEntity
  8
RACCORDO
100
AcDbEllipse
 62
7
  6
CONTINUOUS
 10
-14.5092885657
 20
-7.5478981059
 30
0.0
 11
0.2267599918
 21
0.4456316896
 31
0.0
 40
0.6176975122
 41
0.6978040307
 42
0.7105350355
  0
ELLIPSE
  5
6B4
100
AcDbEntity
  8
RACCORDO
100
AcDbEllipse
 62
7
  6
CONTINUOUS
 10
-14.5225611073
 20
-6.1689195371
 30
0.0
 11
0.2267599918
 21
0.4456316896
 31
0.0
 40
0.6176975122
 41
0.6978040307
 42
0.7073321904
  0
ELLIPSE
  5
6B5
100
AcDbEntity
  8
RACCORDO
100
AcDbEllipse
 62
7
  6
CONTINUOUS
 10
-16.5024600946
 20
-5.1789700435
 30
0.0
 11
0.2267599918
 21
0.4456316896
 31
0.0
 40
0.6176975122
 41
0.6978040307
 42
0.7073323213
  0
ELLIPSE
  5
6B6
100
AcDbEntity
  8
DRAFT
100
AcDbEllipse
 62
7
  6
CONTINUOUS
 10
2.5429381541
 20
20.6787723406
 30
0.0
 11
0.4279673669
 21
-0.0030279657
 31
0.0
 40
0.4946372042
 41
-0.7760807437
 42
0.0034305001
  0
ELLIPSE
  5
6B7
100
AcDbEntity
  8
DRAFT
100
AcDbEllipse
 62
7
  6
CONTINUOUS
 10
-3.012050275
 20
23.4562665552
 30
0.0
 11
0.4279673669
 21
-0.0030279657
 31
0.0
 40
0.4946372042
 41
-0.7818985079
 42
0.0034334511
  0
ELLIPSE
  5
6B8
100
AcDbEntity
  8
RACCORDO
100
AcDbEllipse
 62
7
  6
CONTINUOUS
 10
7.1986004206
 20
-18.0300426892
 30
0.0
 11
0.499366618
 21
0.3086255427
 31
0.0
 40
0.0815198604
 41
6.1080157147
 42
7.0007906979
  0
ELLIPSE
  5
6B9
100
AcDbEntity
  8
RACCORDO
100
AcDbEllipse
 62
7
  6
CONTINUOUS
 10
7.1986004206
 20
20.18921598
 30
0.0
 11
-0.3708957
 21
0.6001218488
 31
0.0
 40
0.5587454355
 41
-3.1744788413
 42
-2.2817038581
  0
ELLIPSE
  5
6BA
100
AcDbEntity
  8
RACCORDO
100
AcDbEllipse
 62
7
  6
CONTINUOUS
 10
7.1986004206
 20
-17.0997000303
 30
0.0
 11
0.4999969381
 21
-0.0035375912
 31
0.0
 40
0.4946372042
 41
-0.7644452153
 42
0.7888978189
  0
ELLIPSE
  5
6BB
100
AcDbEntity
  8
RACCORDO
100
AcDbEllipse
 62
7
  6
CONTINUOUS
 10
-8.69799677
 20
20.6259864583
 30
0.0
 11
0.4998587701
 21
0.0223649649
 31
0.0
 40
0.5313301283
 41
3.1178197826
 42
3.9032222197
  0
ELLIPSE
  5
6BC
100
AcDbEntity
  8
RACCORDO
100
AcDbEllipse
 62
7
  6
CONTINUOUS
 10
-3.1866896703
 20
19.1029425137
 30
0.0
 11
0.4999985559
 21
0.0023864752
 31
0.0
 40
0.5035541159
 41
-1.4342147631
 42
-0.7936193687
  0
ELLIPSE
  5
6BD
100
AcDbEntity
  8
RACCORDO
100
AcDbEllipse
 62
7
  6
CONTINUOUS
 10
-3.1866896703
 20
17.8703329085
 30
0.0
 11
0.4998587701
 21
0.0223649649
 31
0.0
 40
0.5313301283
 41
-2.3799630874
 42
-0.8149845248
  0
ELLIPSE
  5
6BE
100
AcDbEntity
  8
RACCORDO
100
AcDbEllipse
 62
7
  6
CONTINUOUS
 10
-13.821438555
 20
22.6233374138
 30
0.0
 11
0.249929385
 21
0.0111824824
 31
0.0
 40
0.5313301283
 41
3.1179086008
 42
3.9032222197
  0
ELLIPSE
  5
6BF
100
AcDbEntity
  8
RACCORDO
100
AcDbEllipse
 62
7
  6
CONTINUOUS
 10
7.3776441265
 20
19.093845174
 30
0.0
 11
-0.7417913999
 21
1.2002436976
 31
0.0
 40
0.5587454355
 41
5.1248137075
 42
6.2241191807
  0
ELLIPSE
  5
6C0
100
AcDbEntity
  8
RACCORDO
100
AcDbEllipse
 62
7
  6
CONTINUOUS
 10
0.876091943
 20
15.2745721648
 30
0.0
 11
0.249929385
 21
0.0111824824
 31
0.0
 40
0.5313301283
 41
-2.3799630874
 42
-1.3352760237
  0
ENDSEC
  0
SECTION
  2
OBJECTS
  0
DICTIONARY
  5
C
100
AcDbDictionary
280
0
281
1
  3
ACAD_GROUP
350
D
  3
ACAD_MLINESTYLE
350
17
  3
ACAD_LAYOUT
350
1A
  3
ACAD_PLOTSETTINGS
350
19
  3
ACAD_PLOTSTYLENAME
350
E
  0
DICTIONARY
  5
D
102
{ACAD_REACTORS
330
C
102
}
100
AcDbDictionary
280
0
281
1
  0
ACDBDICTIONARYWDFLT
  5
E
102
{ACAD_REACTORS
330
C
102
}
100
AcDbDictionary
281
1
  3
Normal
350
F
100
AcDbDictionaryWithDefault
340
F
  0
DICTIONARY
  5
17
102
{ACAD_REACTORS
330
C
102
}
100
AcDbDictionary
280
0
281
1
  3
Standard
350
18
  0
DICTIONARY
  5
19
102
{ACAD_REACTORS
330
C
102
}
100
AcDbDictionary
281
1
  0
DICTIONARY
  5
1A
102
{ACAD_REACTORS
330
C
102
}
100
AcDbDictionary
281
1
  3
Model
350
6C1
  3
Layout1
350
6C2
  0
ACDBPLACEHOLDER
  5
F
102
{ACAD_REACTORS
330
E
102
}
  0
MLINESTYLE
  5
18
102
{ACAD_REACTORS
330
17
102
}
100
AcDbMlineStyle
  2
STANDARD
 70
0
  3

 62
256
 51
90.0
 52
90.0
 71
2
 49
0.5
 62
256
  6
BYLAYER
 49
-0.5
 62
256
  6
BYLAYER
  0
LAYOUT
  5
6C1
102
{ACAD_REACTORS
330
1A
102
}
100
AcDbPlotSettings
  1

  2
none_device
  4
ISO_A4_(297.00_x_210.00_MM)
  6

 40
0.0
 41
0.0
 42
0.0
 43
0.0
 44
297.0
 45
210.0
 46
0.0
 47
0.0
 48
0.0
 49
0.0
140
0.0
141
0.0
142
1.0
143
1.0
 70
1024
 72
1
 73
0
 74
0
  7

 75
0
147
1.0
148
0.0
149
0.0
100
AcDbLayout
  1
Model
 70
0
 71
0
 10
0.0
 20
0.0
 11
297.0
 21
210.0
 12
0.0
 22
0.0
 32
0.0
 14
0.0
 24
0.0
 34
0.0
 15
0.0
 25
0.0
 35
0.0
146
0.0
 13
0.0
 23
0.0
 33
0.0
 16
1.0
 26
0.0
 36
0.0
 17
0.0
 27
1.0
 37
0.0
 76
0
330
21D
345
0
346
0
  0
LAYOUT
  5
6C2
102
{ACAD_REACTORS
330
1A
102
}
100
AcDbPlotSettings
  1

  2
none_device
  4
ISO_A4_(297.00_x_210.00_MM)
  6

 40
0.0
 41
0.0
 42
0.0
 43
0.0
 44
297.0
 45
210.0
 46
0.0
 47
0.0
 48
0.0
 49
0.0
140
0.0
141
0.0
142
1.0
143
1.0
 70
0
 72
1
 73
0
 74
0
  7

 75
0
147
1.0
148
0.0
149
0.0
100
AcDbLayout
  1
Layout1
 70
0
 71
1
 10
0.0
 20
0.0
 11
297.0
 21
210.0
 12
0.0
 22
0.0
 32
0.0
 14
0.0
 24
0.0
 34
0.0
 15
0.0
 25
0.0
 35
0.0
146
0.0
 13
0.0
 23
0.0
 33
0.0
 16
1.0
 26
0.0
 36
0.0
 17
0.0
 27
1.0
 37
0.0
 76
0
330
21E
345
0
346
0
  0
ENDSEC
  0
EOF
