0
SECTION
2
HEADER
9
$ACADVER
1
AC1014
9
$HANDSEED
5
       44A
9
$EXTMAX
10
297.0000000000
20
210.0000000000
9
$EXTMIN
10
0.0000000000
20
0.0000000000
9
$LIMMIN
10
0.0000000000
20
0.0000000000
9
$LIMMAX
10
297.0000000000
20
210.0000000000
9
$VIEWCTR
10
148.5000000000
20
105.0000000000
9
$VIEWSIZE
40
210.0000000000
9
$CLAYER
8
0
9
$LTSCALE
40
16.3350000000
9
$CELTYPE
6
BYLAYER
9
$DIMSCALE
40
1
9
$DIMASZ
40
3.0000000000
9
$DIMEXO
40
1.8562500000
9
$DIMDLI
40
11.2860000000
9
$DIMEXE
40
5.3460000000
9
$DIMCEN
40
2.6730000000
9
$DIMLFAC
40
1.0000000000
9
$DIMTXT
40
3.0000000000
9
$DIMTOL
70
1
9
$DIMLIM
70
0
9
$DIMTFAC
40
1.0000000000
9
$DIMTP
40
0.0100000000
9
$DIMTM
40
0.0100000000
9
$MEASUREMENT
70
1
0
ENDSEC
0
SECTION
2
CLASSES
0
ENDSEC
0
SECTION
2
TABLES
0
TABLE
2
VPORT
5
8
100
AcDbSymbolTable
70
2
0
VPORT
5
1F4
100
AcDbSymbolTableRecord
100
AcDbViewportTableRecord
2
*ACTIVE
70
0
10
0.0
20
0.0
11
1.0
21
1.0
12
148.5000000000
22
105.0000000000
13
0.0
23
0.0
14
1.0
24
1.0
15
0.0
25
0.0
16
0.0
26
0.0
36
1.0
17
0.0
27
0.0
37
0.0
40
210.0000000000
41
1.4142857143
42
50.0
43
0.0
44
0.0
50
0.0
51
0.0
71
0
72
100
73
1
74
1
75
0
76
0
77
0
78
0
0
ENDTAB
0
TABLE
2
LTYPE
5
5
100
AcDbSymbolTable
70
6
0
LTYPE
5
14
100
AcDbSymbolTableRecord
100
AcDbLinetypeTableRecord
2
BYBLOCK
70
0
3

72
65
73
0
40
0.0
0
LTYPE
5
15
100
AcDbSymbolTableRecord
100
AcDbLinetypeTableRecord
2
BYLAYER
70
0
3

72
65
73
0
40
0.0
0
LTYPE
5
16
100
AcDbSymbolTableRecord
100
AcDbLinetypeTableRecord
2
CONTINUOUS
70
64
3
Solid line
72
65
73
0
40
0
0
LTYPE
5
1F5
100
AcDbSymbolTableRecord
100
AcDbLinetypeTableRecord
2
CENTER
70
64
3
____ _ ____ _ ____ _ ____ _ ____ _ ____ _ ____
72
65
73
4
40
0.6
49
0.375
74
0
49
-0.075
74
0
49
0.075
74
0
49
-0.075
74
0
0
LTYPE
5
1F6
100
AcDbSymbolTableRecord
100
AcDbLinetypeTableRecord
2
HIDDEN
70
64
3
- - - - - - - - - - - - - - - - - - - -
72
65
73
2
40
0.2
49
0.1
74
0
49
-0.1
74
0
0
LTYPE
5
1F7
100
AcDbSymbolTableRecord
100
AcDbLinetypeTableRecord
2
PHANTOM
70
64
3
_____ _ _ _____ _ _ _____ _ _ _____
72
65
73
6
40
0.8
49
0.45
74
0
49
-0.05
74
0
49
0.1
74
0
49
-0.05
74
0
49
0.1
74
0
49
-0.05
74
0
0
LTYPE
5
1F8
100
AcDbSymbolTableRecord
100
AcDbLinetypeTableRecord
2
DOT
70
64
3
. . . . . . . . . . . . . . . . . . . .
72
65
73
2
40
0.2
49
0.1
74
0
49
-0.1
74
0
0
LTYPE
5
1F9
100
AcDbSymbolTableRecord
100
AcDbLinetypeTableRecord
2
DASHED
70
64
3
- - - - - - - - - - - - - - - - - - - -
72
65
73
2
40
0.2
49
0.1
74
0
49
-0.1
74
0
0
ENDTAB
0
TABLE
2
LAYER
5
2
100
AcDbSymbolTable
70
36
0
LAYER
5
10
100
AcDbSymbolTableRecord
100
AcDbLayerTableRecord
2
0
70
0
62
7
6
CONTINUOUS
0
LAYER
5
1FA
100
AcDbSymbolTableRecord
100
AcDbLayerTableRecord
2
DEFAULT_1
70
0
62
7
6
CENTER
0
LAYER
5
1FB
100
AcDbSymbolTableRecord
100
AcDbLayerTableRecord
2
DEFAULT_2
70
0
62
8
6
HIDDEN
0
LAYER
5
1FC
100
AcDbSymbolTableRecord
100
AcDbLayerTableRecord
2
DEFAULT_3
70
0
62
7
6
PHANTOM
0
LAYER
5
1FD
100
AcDbSymbolTableRecord
100
AcDbLayerTableRecord
2
_BLACK_HOLE
70
0
62
7
6
CONTINUOUS
0
LAYER
5
1FE
100
AcDbSymbolTableRecord
100
AcDbLayerTableRecord
2
ASSI
70
0
62
7
6
CONTINUOUS
0
LAYER
5
1FF
100
AcDbSymbolTableRecord
100
AcDbLayerTableRecord
2
COORDINATE
70
0
62
7
6
CONTINUOUS
0
LAYER
5
200
100
AcDbSymbolTableRecord
100
AcDbLayerTableRecord
2
COORD_ORIGINE
70
0
62
7
6
CONTINUOUS
0
LAYER
5
201
100
AcDbSymbolTableRecord
100
AcDbLayerTableRecord
2
CURVE
70
0
62
7
6
CONTINUOUS
0
LAYER
5
202
100
AcDbSymbolTableRecord
100
AcDbLayerTableRecord
2
DRAFT
70
0
62
7
6
CONTINUOUS
0
LAYER
5
203
100
AcDbSymbolTableRecord
100
AcDbLayerTableRecord
2
IMPORT
70
0
62
7
6
CONTINUOUS
0
LAYER
5
204
100
AcDbSymbolTableRecord
100
AcDbLayerTableRecord
2
LAY0001
70
0
62
7
6
CONTINUOUS
0
LAYER
5
205
100
AcDbSymbolTableRecord
100
AcDbLayerTableRecord
2
NOTE
70
0
62
7
6
CONTINUOUS
0
LAYER
5
206
100
AcDbSymbolTableRecord
100
AcDbLayerTableRecord
2
PIANI
70
0
62
7
6
CONTINUOUS
0
LAYER
5
207
100
AcDbSymbolTableRecord
100
AcDbLayerTableRecord
2
PIANI_ORIGINE
70
0
62
7
6
CONTINUOUS
0
LAYER
5
208
100
AcDbSymbolTableRecord
100
AcDbLayerTableRecord
2
PIANI_RIFERIMENTO
70
0
62
7
6
CONTINUOUS
0
LAYER
5
209
100
AcDbSymbolTableRecord
100
AcDbLayerTableRecord
2
PUNTI
70
0
62
7
6
CONTINUOUS
0
LAYER
5
20A
100
AcDbSymbolTableRecord
100
AcDbLayerTableRecord
2
RACCORDO
70
0
62
7
6
CONTINUOUS
0
LAYER
5
20B
100
AcDbSymbolTableRecord
100
AcDbLayerTableRecord
2
SMUSSO
70
0
62
7
6
CONTINUOUS
0
LAYER
5
20C
100
AcDbSymbolTableRecord
100
AcDbLayerTableRecord
2
SNAPLINE
70
0
62
7
6
CONTINUOUS
0
LAYER
5
20D
100
AcDbSymbolTableRecord
100
AcDbLayerTableRecord
2
SUPERFICI
70
0
62
7
6
CONTINUOUS
0
LAYER
5
20E
100
AcDbSymbolTableRecord
100
AcDbLayerTableRecord
2
TRASH
70
0
62
7
6
CONTINUOUS
0
LAYER
5
20F
100
AcDbSymbolTableRecord
100
AcDbLayerTableRecord
2
XSEC_DATUMS
70
0
62
7
6
CONTINUOUS
0
ENDTAB
0
TABLE
2
STYLE
5
3
100
AcDbSymbolTable
70
1
0
STYLE
5
11
100
AcDbSymbolTableRecord
100
AcDbTextStyleTableRecord
2
STANDARD
70
0
40
0.0
41
0.8000000000
50
0.0
71
0
42
0.2
3
txt
4

0
ENDTAB
0
TABLE
2
VIEW
5
6
100
AcDbSymbolTable
70
0
0
ENDTAB
0
TABLE
2
UCS
5
7
100
AcDbSymbolTable
70
0
0
ENDTAB
0
TABLE
2
APPID
5
9
100
AcDbSymbolTable
70
1
0
APPID
5
210
100
AcDbSymbolTableRecord
100
AcDbRegAppTableRecord
2
ACAD
70
0
0
ENDTAB
0
TABLE
2
DIMSTYLE
5
A
100
AcDbSymbolTable
70
1
0
DIMSTYLE
105
211
100
AcDbSymbolTableRecord
100
AcDbDimStyleTableRecord
2
STANDARD
70
0
3

4

5

6

7

40
1.0
41
3.0000000000
42
0.0625
43
0.38
44
0.18
45
0.0
46
0.0
47
0.0100000000
48
0.0100000000
140
3.0000000000
141
0.09
142
0.0
143
25.4
144
1.0000000000
145
0.0
146
1.0000000000
147
0.09
71
1
72
0
73
0
74
0
75
0
76
0
77
1
78
8
170
0
171
2
172
0
173
0
174
0
175
0
176
0
177
0
178
0
270
2
271
2
272
2
273
2
274
2
340
11
275
0
280
0
281
0
282
0
283
1
284
8
285
0
286
0
287
3
288
0
0
ENDTAB
0
TABLE
2
BLOCK_RECORD
5
1
100
AcDbSymbolTable
70
0
0
BLOCK_RECORD
5
1B
100
AcDbSymbolTableRecord
100
AcDbBlockTableRecord
2
*MODEL_SPACE
0
BLOCK_RECORD
5
1C
100
AcDbSymbolTableRecord
100
AcDbBlockTableRecord
2
*PAPER_SPACE
0
ENDTAB
0
ENDSEC
0
SECTION
2
BLOCKS
0
BLOCK
5
1E
100
AcDbEntity
8
0
100
AcDbBlockBegin
2
*MODEL_SPACE
70
0
10
0.0
20
0.0
30
0.0
3
*MODEL_SPACE
1

0
ENDBLK
5
1F
100
AcDbEntity
8
0
100
AcDbBlockEnd
0
BLOCK
5
20
100
AcDbEntity
8
0
100
AcDbBlockBegin
2
*PAPER_SPACE
70
0
10
0.0
20
0.0
30
0.0
3
*PAPER_SPACE
1

0
ENDBLK
5
21
100
AcDbEntity
8
0
100
AcDbBlockEnd
0
ENDSEC
0
SECTION
2
ENTITIES
0
LINE
5
212
100
AcDbEntity
8
0
100
AcDbLine
62
7
6
CONTINUOUS
10
-14.9252921103
20
24.9486170636
11
-16.5084638053
21
24.1364200163
0
LINE
5
213
100
AcDbEntity
8
0
100
AcDbLine
62
9
6
CONTINUOUS
10
-14.8126215360
20
24.9419561385
11
-16.3953781391
21
24.1299720412
0
LINE
5
214
100
AcDbEntity
8
0
100
AcDbLine
62
7
6
CONTINUOUS
10
-14.9235537248
20
24.9494862964
11
-14.9252901366
21
24.9486180762
0
LINE
5
215
100
AcDbEntity
8
0
100
AcDbLine
62
7
6
CONTINUOUS
10
-14.3886837684
20
25.2100383961
11
-14.9235509592
21
24.9494876436
0
LINE
5
216
100
AcDbEntity
8
0
100
AcDbLine
62
9
6
CONTINUOUS
10
-14.2781716573
20
25.2023036051
11
-14.8126215360
21
24.9419561385
0
LINE
5
217
100
AcDbEntity
8
0
100
AcDbLine
62
7
6
CONTINUOUS
10
-20.5303315723
20
20.1125737521
11
-15.9413567455
21
22.7883663940
0
LINE
5
218
100
AcDbEntity
8
0
100
AcDbLine
62
9
6
CONTINUOUS
10
-15.9413567455
20
22.6435322175
11
-20.2969775248
21
20.1038063589
0
LINE
5
219
100
AcDbEntity
8
0
100
AcDbLine
62
7
6
CONTINUOUS
10
-19.5903827156
20
19.7505089544
11
-17.7117563472
21
20.8104039492
0
LINE
5
21A
100
AcDbEntity
8
0
100
AcDbLine
62
7
6
CONTINUOUS
10
-19.5214362921
20
19.6032939391
11
-17.6508674834
21
20.6586429702
0
LINE
5
21B
100
AcDbEntity
8
0
100
AcDbLine
62
9
6
CONTINUOUS
10
-19.4078439651
20
19.5971408594
11
-17.5349796519
21
20.6537849824
0
LINE
5
21C
100
AcDbEntity
8
0
100
AcDbLine
62
9
6
CONTINUOUS
10
-13.4691126685
20
24.2702017048
11
-15.0703934593
21
23.4674797013
0
LINE
5
21D
100
AcDbEntity
8
0
100
AcDbLine
62
9
6
CONTINUOUS
10
-13.2923389648
20
23.9653121660
11
-14.8936197556
21
23.1625901625
0
LINE
5
21E
100
AcDbEntity
8
0
100
AcDbLine
62
9
6
CONTINUOUS
10
-12.9408454967
20
24.5336405248
11
-13.4691126685
21
24.2702017048
0
LINE
5
21F
100
AcDbEntity
8
0
100
AcDbLine
62
9
6
CONTINUOUS
10
-12.7640717930
20
24.2287509860
11
-13.2923389648
21
23.9653121660
0
LINE
5
220
100
AcDbEntity
8
0
100
AcDbLine
62
9
6
CONTINUOUS
10
-13.2923389648
20
23.2382673135
11
-12.7640717930
21
23.8812194693
0
LINE
5
221
100
AcDbEntity
8
0
100
AcDbLine
62
7
6
CONTINUOUS
10
-13.2923389648
20
23.1487368472
11
-12.7487112207
21
23.8103843027
0
LINE
5
222
100
AcDbEntity
8
0
100
AcDbLine
62
7
6
CONTINUOUS
10
-13.2923389648
20
22.3631615050
11
-14.1823991475
21
21.8664805837
0
LINE
5
223
100
AcDbEntity
8
0
100
AcDbLine
62
7
6
CONTINUOUS
10
-10.9235192464
20
22.0330430917
11
-10.5699778572
21
22.2144165165
0
LINE
5
224
100
AcDbEntity
8
0
100
AcDbLine
62
7
6
CONTINUOUS
10
-5.5697559032
20
25.5034655340
11
-11.8842962298
21
22.3586892295
0
LINE
5
225
100
AcDbEntity
8
0
100
AcDbLine
62
7
6
CONTINUOUS
10
-10.5699778572
20
22.2144165165
11
-5.2337544513
21
24.8138599820
0
LINE
5
226
100
AcDbEntity
8
0
100
AcDbLine
62
7
6
CONTINUOUS
10
-20.9051270698
20
-18.0193111544
11
-6.0712286603
21
-25.4362603592
0
LINE
5
227
100
AcDbEntity
8
0
100
AcDbLine
62
7
6
CONTINUOUS
10
-6.0713158770
20
-25.4362167417
11
-6.0712289869
21
-25.4362601959
0
LINE
5
228
100
AcDbEntity
8
0
100
AcDbLine
62
9
6
CONTINUOUS
10
-21.2895435348
20
-17.2632376646
11
-6.4646974572
21
-24.6756607034
0
LINE
5
229
100
AcDbEntity
8
0
100
AcDbLine
62
7
6
CONTINUOUS
10
-12.3377448102
20
18.9511407550
11
-13.1155622695
21
18.5123069103
0
LINE
5
22A
100
AcDbEntity
8
0
100
AcDbLine
62
7
6
CONTINUOUS
10
-4.6282240166
20
24.5110947647
11
-9.2264749730
21
22.2447334672
0
LINE
5
22B
100
AcDbEntity
8
0
100
AcDbLine
62
7
6
CONTINUOUS
10
-7.9983941499
20
21.6306930556
11
-4.5793479851
21
23.3036727347
0
LINE
5
22C
100
AcDbEntity
8
0
100
AcDbLine
62
7
6
CONTINUOUS
10
-2.5027899593
20
23.9699825621
11
-7.6448407593
21
21.4539163603
0
LINE
5
22D
100
AcDbEntity
8
0
100
AcDbLine
62
9
6
CONTINUOUS
10
0.6002463714
20
-24.1005437523
11
0.0719791996
21
-23.9920414753
0
LINE
5
22E
100
AcDbEntity
8
0
100
AcDbLine
62
9
6
CONTINUOUS
10
0.5108325760
20
-23.7809769463
11
0.0719791996
21
-23.6908396196
0
LINE
5
22F
100
AcDbEntity
8
0
100
AcDbLine
62
7
6
CONTINUOUS
10
-3.1418349342
20
-24.9713343137
11
-1.8168502544
21
-25.6338266536
0
LINE
5
230
100
AcDbEntity
8
0
100
AcDbLine
62
9
6
CONTINUOUS
10
-3.2068082307
20
-24.8361158636
11
-1.8818235508
21
-25.4986082035
0
LINE
5
231
100
AcDbEntity
8
0
100
AcDbLine
62
9
6
CONTINUOUS
10
-1.8818235508
20
-25.1586342694
11
-3.1042269212
21
-24.5474325842
0
LINE
5
232
100
AcDbEntity
8
0
100
AcDbLine
62
9
6
CONTINUOUS
10
-1.7934352032
20
-24.9269400956
11
-2.8042698311
21
-24.4215227816
0
LINE
5
233
100
AcDbEntity
8
0
100
AcDbLine
62
7
6
CONTINUOUS
10
-1.6559059710
20
-23.9394862781
11
-1.1711171711
21
-24.1818806781
0
LINE
5
234
100
AcDbEntity
8
0
100
AcDbLine
62
7
6
CONTINUOUS
10
-3.1617857106
20
23.1099097482
11
-7.0593066228
21
21.1611492921
0
LINE
5
235
100
AcDbEntity
8
0
100
AcDbLine
62
7
6
CONTINUOUS
10
-12.4580972855
20
18.1153437992
11
-12.3377448102
21
18.1755200369
0
LINE
5
236
100
AcDbEntity
8
0
100
AcDbLine
62
7
6
CONTINUOUS
10
-20.6111791271
20
13.6120496142
11
-20.7238136245
21
13.5557323655
0
LINE
5
237
100
AcDbEntity
8
0
100
AcDbLine
62
9
6
CONTINUOUS
10
0.0719791996
20
-23.5615502581
11
0.5108325760
21
-23.7809769463
0
LINE
5
238
100
AcDbEntity
8
0
100
AcDbLine
62
7
6
CONTINUOUS
10
0.0719791996
20
-23.5579301086
11
0.5342476273
21
-23.7890643224
0
LINE
5
239
100
AcDbEntity
8
0
100
AcDbLine
62
7
6
CONTINUOUS
10
-8.0951041231
20
16.8298204115
11
-8.8729215824
21
16.3909865668
0
LINE
5
23A
100
AcDbEntity
8
0
100
AcDbLine
62
7
6
CONTINUOUS
10
-4.3474381828
20
17.8907111140
11
-4.7051173320
21
17.6911151621
0
LINE
5
23B
100
AcDbEntity
8
0
100
AcDbLine
62
7
6
CONTINUOUS
10
-4.7051173320
20
18.9238421345
11
-4.3474381828
21
19.1031466793
0
LINE
5
23C
100
AcDbEntity
8
0
100
AcDbLine
62
7
6
CONTINUOUS
10
-4.3474381828
20
19.1031466793
11
0.9270538864
21
21.7334558132
0
LINE
5
23D
100
AcDbEntity
8
0
100
AcDbLine
62
7
6
CONTINUOUS
10
-4.3474381828
20
17.8907111140
11
0.9773958874
21
20.5270425459
0
LINE
5
23E
100
AcDbEntity
8
0
100
AcDbLine
62
7
6
CONTINUOUS
10
0.3215234517
20
22.0362210305
11
-4.2767275047
21
19.7698597330
0
LINE
5
23F
100
AcDbEntity
8
0
100
AcDbLine
62
7
6
CONTINUOUS
10
1.7398507279
20
21.8486622185
11
1.1009899513
21
21.5360600934
0
LINE
5
240
100
AcDbEntity
8
0
100
AcDbLine
62
7
6
CONTINUOUS
10
-17.7117563472
20
20.8104039492
11
-17.7117563472
21
20.6242903160
0
LINE
5
241
100
AcDbEntity
8
0
100
AcDbLine
62
7
6
CONTINUOUS
10
-17.6056903300
20
1.5944219655
11
-17.6056903300
21
-4.3623897456
0
LINE
5
242
100
AcDbEntity
8
0
100
AcDbLine
62
7
6
CONTINUOUS
10
-17.0046495660
20
1.2939015834
11
-17.0046495660
21
-4.0986533807
0
LINE
5
243
100
AcDbEntity
8
0
100
AcDbLine
62
7
6
CONTINUOUS
10
-16.7925175317
20
1.1878355663
11
-16.7925175317
21
-3.9925873635
0
LINE
5
244
100
AcDbEntity
8
0
100
AcDbLine
62
7
6
CONTINUOUS
10
-16.7571621926
20
1.1701578967
11
-16.7571621926
21
-3.9749096940
0
LINE
5
245
100
AcDbEntity
8
0
100
AcDbLine
62
7
6
CONTINUOUS
10
-16.6443496998
20
23.9139835739
11
-16.6443496998
21
23.5740096397
0
LINE
5
246
100
AcDbEntity
8
0
100
AcDbLine
62
9
6
CONTINUOUS
10
-16.5711263951
20
23.8255952262
11
-16.5711263951
21
23.4856212921
0
LINE
5
247
100
AcDbEntity
8
0
100
AcDbLine
62
7
6
CONTINUOUS
10
-15.9413567455
20
23.0680046654
11
-15.9413567455
21
22.6140475708
0
LINE
5
248
100
AcDbEntity
8
0
100
AcDbLine
62
9
6
CONTINUOUS
10
-15.8681334408
20
23.0313930131
11
-15.8681334408
21
22.5223188689
0
LINE
5
249
100
AcDbEntity
8
0
100
AcDbLine
62
7
6
CONTINUOUS
10
-15.6257913427
20
-5.3523392392
11
-15.6257913427
21
-6.7379798853
0
LINE
5
24A
100
AcDbEntity
8
0
100
AcDbLine
62
7
6
CONTINUOUS
10
-1.5609739459
20
18.2664579814
11
-3.1441456408
21
17.4542609341
0
LINE
5
24B
100
AcDbEntity
8
0
100
AcDbLine
62
9
6
CONTINUOUS
10
-1.4483033715
20
18.2597970563
11
-3.0310599747
21
17.4478129590
0
LINE
5
24C
100
AcDbEntity
8
0
100
AcDbLine
62
9
6
CONTINUOUS
10
-0.1047945040
20
17.5880426226
11
-1.7060752949
21
16.7853206191
0
LINE
5
24D
100
AcDbEntity
8
0
100
AcDbLine
62
9
6
CONTINUOUS
10
0.0719791996
20
17.2831530838
11
-1.5293015912
21
16.4804310803
0
LINE
5
24E
100
AcDbEntity
8
0
100
AcDbLine
62
7
6
CONTINUOUS
10
-1.5592355603
20
18.2673272142
11
-1.5609719722
21
18.2664589940
0
LINE
5
24F
100
AcDbEntity
8
0
100
AcDbLine
62
9
6
CONTINUOUS
10
0.4234726677
20
17.8514814426
11
-0.1047945040
21
17.5880426226
0
LINE
5
250
100
AcDbEntity
8
0
100
AcDbLine
62
9
6
CONTINUOUS
10
0.6002463714
20
17.5465919038
11
0.0719791996
21
17.2831530838
0
LINE
5
251
100
AcDbEntity
8
0
100
AcDbLine
62
7
6
CONTINUOUS
10
-1.0243656039
20
18.5278793139
11
-1.5592327948
21
18.2673285614
0
LINE
5
252
100
AcDbEntity
8
0
100
AcDbLine
62
9
6
CONTINUOUS
10
-0.9138534928
20
18.5201445229
11
-1.4483033715
21
18.2597970563
0
LINE
5
253
100
AcDbEntity
8
0
100
AcDbLine
62
7
6
CONTINUOUS
10
4.8068166718
20
20.3151792465
11
0.1232797922
21
18.0635552512
0
LINE
5
254
100
AcDbEntity
8
0
100
AcDbLine
62
9
6
CONTINUOUS
10
-16.2590673760
20
-9.1247245860
11
-12.0036065787
21
-11.2524549846
0
LINE
5
255
100
AcDbEntity
8
0
100
AcDbLine
62
9
6
CONTINUOUS
10
-15.2461417153
20
22.8231289522
11
-15.2461417153
21
23.1631028863
0
LINE
5
256
100
AcDbEntity
8
0
100
AcDbLine
62
7
6
CONTINUOUS
10
-15.0954612568
20
-5.0532475353
11
-15.0954612568
21
-6.4388881814
0
LINE
5
257
100
AcDbEntity
8
0
100
AcDbLine
62
9
6
CONTINUOUS
10
-14.8936197556
20
22.8226162283
11
-14.8936197556
21
23.1625901625
0
LINE
5
258
100
AcDbEntity
8
0
100
AcDbLine
62
7
6
CONTINUOUS
10
-14.8833292225
20
-4.9471815181
11
-14.8833292225
21
-6.3328221642
0
LINE
5
259
100
AcDbEntity
8
0
100
AcDbLine
62
7
6
CONTINUOUS
10
-14.8479738834
20
-4.9295038486
11
-14.8479738834
21
-6.3151444947
0
LINE
5
25A
100
AcDbEntity
8
0
100
AcDbLine
62
7
6
CONTINUOUS
10
-14.8126185443
20
-7.1445662845
11
-14.8126185443
21
-8.3137005796
0
LINE
5
25B
100
AcDbEntity
8
0
100
AcDbLine
62
9
6
CONTINUOUS
10
-14.5349211072
20
22.5445333250
11
-14.5349211072
21
21.8557127021
0
LINE
5
25C
100
AcDbEntity
8
0
100
AcDbLine
62
7
6
CONTINUOUS
10
-14.2115777803
20
-6.8808299196
11
-14.2115777803
21
-7.9200604042
0
LINE
5
25D
100
AcDbEntity
8
0
100
AcDbLine
62
9
6
CONTINUOUS
10
-14.1823991475
20
22.6741127055
11
-14.1823991475
21
21.8664805837
0
LINE
5
25E
100
AcDbEntity
8
0
100
AcDbLine
62
7
6
CONTINUOUS
10
-13.9994457460
20
-6.7747639024
11
-13.9994457460
21
-7.8139943870
0
LINE
5
25F
100
AcDbEntity
8
0
100
AcDbLine
62
7
6
CONTINUOUS
10
-13.9640904069
20
-6.7570862329
11
-13.9640904069
21
-7.7963167174
0
LINE
5
260
100
AcDbEntity
8
0
100
AcDbLine
62
7
6
CONTINUOUS
10
-13.2923389648
20
22.3631615050
11
-13.2923389648
21
23.9653121660
0
LINE
5
261
100
AcDbEntity
8
0
100
AcDbLine
62
7
6
CONTINUOUS
10
-13.2569836257
20
-6.4035328423
11
-13.2569836257
21
-7.4427633269
0
LINE
5
262
100
AcDbEntity
8
0
100
AcDbLine
62
9
6
CONTINUOUS
10
-4.5242148781
20
14.1484025955
11
-6.3970791913
21
13.0917584725
0
LINE
5
263
100
AcDbEntity
8
0
100
AcDbLine
62
7
6
CONTINUOUS
10
-6.1553538731
20
13.0329945331
11
-4.2767275047
21
14.0928895279
0
LINE
5
264
100
AcDbEntity
8
0
100
AcDbLine
62
9
6
CONTINUOUS
10
-5.4487590640
20
12.6796971285
11
-0.9297279256
21
15.1467690568
0
LINE
5
265
100
AcDbEntity
8
0
100
AcDbLine
62
7
6
CONTINUOUS
10
5.6883521304
20
19.5813210552
11
0.1968088021
21
16.6185074443
0
LINE
5
266
100
AcDbEntity
8
0
100
AcDbLine
62
7
6
CONTINUOUS
10
5.6883521304
20
19.0839910982
11
0.3302007932
21
16.2514407180
0
LINE
5
267
100
AcDbEntity
8
0
100
AcDbLine
62
9
6
CONTINUOUS
10
0.7789782707
20
16.0270519792
11
0.0719791996
21
15.6931083468
0
LINE
5
268
100
AcDbEntity
8
0
100
AcDbLine
62
9
6
CONTINUOUS
10
1.1326393714
20
15.4171262886
11
0.4147629485
21
15.0780448526
0
LINE
5
269
100
AcDbEntity
8
0
100
AcDbLine
62
9
6
CONTINUOUS
10
-15.5551042387
20
-8.6863870793
11
-12.1585657735
21
-10.3846563120
0
LINE
5
26A
100
AcDbEntity
8
0
100
AcDbLine
62
9
6
CONTINUOUS
10
-17.0862960490
20
-7.5548889758
11
-16.2731232506
21
-7.9614753750
0
LINE
5
26B
100
AcDbEntity
8
0
100
AcDbLine
62
9
6
CONTINUOUS
10
-12.0174194894
20
-10.0893272556
11
-11.2042466910
21
-10.4959136548
0
LINE
5
26C
100
AcDbEntity
8
0
100
AcDbLine
62
7
6
CONTINUOUS
10
-14.8126185443
20
-8.3137005796
11
-12.1667634390
21
-9.6366281322
0
LINE
5
26D
100
AcDbEntity
8
0
100
AcDbLine
62
9
6
CONTINUOUS
10
-16.3823189773
20
-7.1177146576
11
-15.5691461790
21
-7.5243010568
0
LINE
5
26E
100
AcDbEntity
8
0
100
AcDbLine
62
9
6
CONTINUOUS
10
-12.0205222744
20
-9.2986130091
11
-11.3576522252
21
-9.6300480337
0
LINE
5
26F
100
AcDbEntity
8
0
100
AcDbLine
62
7
6
CONTINUOUS
10
-14.2115777803
20
-7.9200604042
11
-11.7429342555
21
-9.1543821666
0
LINE
5
270
100
AcDbEntity
8
0
100
AcDbLine
62
7
6
CONTINUOUS
10
-13.9994457460
20
-7.8139943870
11
-11.5348772217
21
-9.0462786491
0
LINE
5
271
100
AcDbEntity
8
0
100
AcDbLine
62
7
6
CONTINUOUS
10
-13.9640904069
20
-7.7963167174
11
-11.5002010494
21
-9.0282613962
0
LINE
5
272
100
AcDbEntity
8
0
100
AcDbLine
62
7
6
CONTINUOUS
10
-13.1155622695
20
18.5123069103
11
-13.1155622695
21
18.4440762912
0
LINE
5
273
100
AcDbEntity
8
0
100
AcDbLine
62
9
6
CONTINUOUS
10
-12.7640717930
20
24.2287509860
11
-12.7640717930
21
23.8812194693
0
LINE
5
274
100
AcDbEntity
8
0
100
AcDbLine
62
7
6
CONTINUOUS
10
-12.6918739360
20
24.3166236182
11
-12.6918739360
21
23.9690921014
0
LINE
5
275
100
AcDbEntity
8
0
100
AcDbLine
62
7
6
CONTINUOUS
10
-12.3377448102
20
18.9511407550
11
-12.3377448102
21
18.1755200369
0
LINE
5
276
100
AcDbEntity
8
0
100
AcDbLine
62
7
6
CONTINUOUS
10
-11.3124399775
20
-8.4121915659
11
-11.3124399775
21
-8.3303988210
0
LINE
5
277
100
AcDbEntity
8
0
100
AcDbLine
62
7
6
CONTINUOUS
10
-11.0679149604
20
21.8488860905
11
-11.0679149604
21
20.6086970578
0
LINE
5
278
100
AcDbEntity
8
0
100
AcDbLine
62
7
6
CONTINUOUS
10
-11.0649526040
20
-8.2455713441
11
-11.0649526040
21
-8.2066551343
0
LINE
5
279
100
AcDbEntity
8
0
100
AcDbLine
62
9
6
CONTINUOUS
10
0.4147629485
20
15.0780448526
11
-5.0829263240
21
12.0766946828
0
LINE
5
27A
100
AcDbEntity
8
0
100
AcDbLine
62
7
6
CONTINUOUS
10
1.1326393714
20
13.0757975296
11
1.7336801354
21
13.3763179116
0
LINE
5
27B
100
AcDbEntity
8
0
100
AcDbLine
62
7
6
CONTINUOUS
10
1.1326393714
20
12.8159899085
11
1.7336801354
21
13.1165102905
0
LINE
5
27C
100
AcDbEntity
8
0
100
AcDbLine
62
9
6
CONTINUOUS
10
-19.0794807488
20
-5.1845806119
11
-17.0995817615
21
-6.1745301056
0
LINE
5
27D
100
AcDbEntity
8
0
100
AcDbLine
62
9
6
CONTINUOUS
10
-11.2173027522
20
-9.1156696102
11
-9.2374037649
21
-10.1056191039
0
LINE
5
27E
100
AcDbEntity
8
0
100
AcDbLine
62
7
6
CONTINUOUS
10
-15.6257913427
20
-6.7379798853
11
-14.8126185443
21
-7.1445662845
0
LINE
5
27F
100
AcDbEntity
8
0
100
AcDbLine
62
7
6
CONTINUOUS
10
5.6822356208
20
-16.9279857598
11
5.4402078066
21
-16.8069718527
0
LINE
5
280
100
AcDbEntity
8
0
100
AcDbLine
62
7
6
CONTINUOUS
10
-15.0954612568
20
-6.4388881814
11
-14.2115777803
21
-6.8808299196
0
LINE
5
281
100
AcDbEntity
8
0
100
AcDbLine
62
7
6
CONTINUOUS
10
-11.3124399775
20
-8.3303988210
11
-11.2632414786
21
-8.3549980705
0
LINE
5
282
100
AcDbEntity
8
0
100
AcDbLine
62
9
6
CONTINUOUS
10
-18.3754905063
20
-4.7487865952
11
-16.3955915189
21
-5.7387360888
0
LINE
5
283
100
AcDbEntity
8
0
100
AcDbLine
62
9
6
CONTINUOUS
10
-11.2203923664
20
-8.3263356651
11
-9.3889444784
21
-9.2420596091
0
LINE
5
284
100
AcDbEntity
8
0
100
AcDbLine
62
7
6
CONTINUOUS
10
-14.8833292225
20
-6.3328221642
11
-13.9994457460
21
-6.7747639024
0
LINE
5
285
100
AcDbEntity
8
0
100
AcDbLine
62
7
6
CONTINUOUS
10
-11.1003079431
20
-8.2243328039
11
-11.0614601367
21
-8.2437567071
0
LINE
5
286
100
AcDbEntity
8
0
100
AcDbLine
62
7
6
CONTINUOUS
10
-14.8479738834
20
-6.3151444947
11
-13.9640904069
21
-6.7570862329
0
LINE
5
287
100
AcDbEntity
8
0
100
AcDbLine
62
7
6
CONTINUOUS
10
-11.0649526040
20
-8.2066551343
11
-11.0267839644
21
-8.2257394541
0
LINE
5
288
100
AcDbEntity
8
0
100
AcDbLine
62
9
6
CONTINUOUS
10
1.1326393714
20
-14.2129293085
11
4.2360247405
21
-15.7646219931
0
LINE
5
289
100
AcDbEntity
8
0
100
AcDbLine
62
7
6
CONTINUOUS
10
1.1326393714
20
-14.0899938245
11
4.3930847144
21
-15.7202164959
0
LINE
5
28A
100
AcDbEntity
8
0
100
AcDbLine
62
7
6
CONTINUOUS
10
-17.6056903300
20
-4.3623897456
11
-15.6257913427
21
-5.3523392392
0
LINE
5
28B
100
AcDbEntity
8
0
100
AcDbLine
62
7
6
CONTINUOUS
10
-10.4639118400
20
-7.9332789906
11
-9.3935967458
21
-8.4684365377
0
LINE
5
28C
100
AcDbEntity
8
0
100
AcDbLine
62
7
6
CONTINUOUS
10
-14.1408671022
20
-5.9615911041
11
-13.2569836257
21
-6.4035328423
0
LINE
5
28D
100
AcDbEntity
8
0
100
AcDbLine
62
7
6
CONTINUOUS
10
-17.0046495660
20
-4.0986533807
11
-15.0954612568
21
-5.0532475353
0
LINE
5
28E
100
AcDbEntity
8
0
100
AcDbLine
62
7
6
CONTINUOUS
10
-10.4285565010
20
-7.3866999132
11
-9.3963246131
21
-7.9028158572
0
LINE
5
28F
100
AcDbEntity
8
0
100
AcDbLine
62
7
6
CONTINUOUS
10
-16.7925175317
20
-3.9925873635
11
-14.8833292225
21
-4.9471815181
0
LINE
5
290
100
AcDbEntity
8
0
100
AcDbLine
62
7
6
CONTINUOUS
10
-10.2164244666
20
-7.2806338961
11
-9.3972011683
21
-7.6902455452
0
LINE
5
291
100
AcDbEntity
8
0
100
AcDbLine
62
7
6
CONTINUOUS
10
-16.7571621926
20
-3.9749096940
11
-14.8479738834
21
-4.9295038486
0
LINE
5
292
100
AcDbEntity
8
0
100
AcDbLine
62
7
6
CONTINUOUS
10
-10.1810691276
20
-7.2629562265
11
-9.3973472609
21
-7.6548171599
0
LINE
5
293
100
AcDbEntity
8
0
100
AcDbLine
62
9
6
CONTINUOUS
10
-10.9214683510
20
21.5058162595
11
-10.9214683510
21
20.4252329487
0
LINE
5
294
100
AcDbEntity
8
0
100
AcDbLine
62
7
6
CONTINUOUS
10
-10.4285565010
20
-7.9509566601
11
-10.4285565010
21
-7.3866999132
0
LINE
5
295
100
AcDbEntity
8
0
100
AcDbLine
62
7
6
CONTINUOUS
10
-10.1810691276
20
-7.2983115656
11
-10.1810691276
21
-7.2629562265
0
LINE
5
296
100
AcDbEntity
8
0
100
AcDbLine
62
7
6
CONTINUOUS
10
-8.8729215824
20
16.3909865668
11
-8.8729215824
21
16.3227559477
0
LINE
5
297
100
AcDbEntity
8
0
100
AcDbLine
62
9
6
CONTINUOUS
10
0.0719791996
20
16.5561082313
11
0.6002463714
21
17.1990603870
0
LINE
5
298
100
AcDbEntity
8
0
100
AcDbLine
62
7
6
CONTINUOUS
10
0.0719791996
20
16.4665777650
11
0.6156069438
21
17.1282252205
0
LINE
5
299
100
AcDbEntity
8
0
100
AcDbLine
62
7
6
CONTINUOUS
10
8.7340372692
20
16.2401003754
11
10.3603828659
21
17.0532731738
0
LINE
5
29A
100
AcDbEntity
8
0
100
AcDbLine
62
7
6
CONTINUOUS
10
10.1482508315
20
16.6873995355
11
8.9938448903
21
16.1101965648
0
LINE
5
29B
100
AcDbEntity
8
0
100
AcDbLine
62
7
6
CONTINUOUS
10
10.7846469346
20
16.4514297077
11
10.5725149003
21
16.3453636905
0
LINE
5
29C
100
AcDbEntity
8
0
100
AcDbLine
62
7
6
CONTINUOUS
10
-7.3749777371
20
6.9442513548
11
-7.2849396772
21
6.9892703847
0
LINE
5
29D
100
AcDbEntity
8
0
100
AcDbLine
62
7
6
CONTINUOUS
10
11.6331750720
20
16.2047450364
11
10.2189615097
21
15.4976382552
0
LINE
5
29E
100
AcDbEntity
8
0
100
AcDbLine
62
7
6
CONTINUOUS
10
1.1326393714
20
10.4392362604
11
3.8196451399
21
11.7827391446
0
LINE
5
29F
100
AcDbEntity
8
0
100
AcDbLine
62
7
6
CONTINUOUS
10
2.1218104523
20
-12.3103116320
11
1.1326393714
21
-11.8157260915
0
LINE
5
2A0
100
AcDbEntity
8
0
100
AcDbLine
62
9
6
CONTINUOUS
10
2.1225888651
20
-12.1874226761
11
1.1326393714
21
-11.6924479293
0
LINE
5
2A1
100
AcDbEntity
8
0
100
AcDbLine
62
7
6
CONTINUOUS
10
2.4054315776
20
9.9497993385
11
1.1326393714
21
9.3134032354
0
LINE
5
2A2
100
AcDbEntity
8
0
100
AcDbLine
62
7
6
CONTINUOUS
10
6.2591635350
20
11.1135762118
11
14.0373381281
21
15.0026635083
0
LINE
5
2A3
100
AcDbEntity
8
0
100
AcDbLine
62
7
6
CONTINUOUS
10
6.4712955694
20
10.9598346079
11
14.0373381281
21
14.7428558872
0
LINE
5
2A4
100
AcDbEntity
8
0
100
AcDbLine
62
7
6
CONTINUOUS
10
1.5215481011
20
8.3204233368
11
1.1326393714
21
8.1259689719
0
LINE
5
2A5
100
AcDbEntity
8
0
100
AcDbLine
62
7
6
CONTINUOUS
10
14.1434041453
20
14.5599190680
11
6.5773615866
21
10.7768977887
0
LINE
5
2A6
100
AcDbEntity
8
0
100
AcDbLine
62
7
6
CONTINUOUS
10
6.7894936209
20
10.6708317715
11
14.5676682140
21
14.5599190680
0
LINE
5
2A7
100
AcDbEntity
8
0
100
AcDbLine
62
7
6
CONTINUOUS
10
14.5676682140
20
14.5044961777
11
15.2747749952
21
14.8580495683
0
LINE
5
2A8
100
AcDbEntity
8
0
100
AcDbLine
62
7
6
CONTINUOUS
10
1.2033500495
20
-9.0097353880
11
1.1326393714
21
-8.9743800489
0
LINE
5
2A9
100
AcDbEntity
8
0
100
AcDbLine
62
9
6
CONTINUOUS
10
1.8627812439
20
-8.6800197908
11
2.1225888651
21
-8.8099236013
0
LINE
5
2AA
100
AcDbEntity
8
0
100
AcDbLine
62
9
6
CONTINUOUS
10
-5.4101612513
20
17.6695793989
11
-5.4101612513
21
18.7501627097
0
LINE
5
2AB
100
AcDbEntity
8
0
100
AcDbLine
62
9
6
CONTINUOUS
10
-4.7051173320
20
17.6911151621
11
-4.7051173320
21
18.9238421345
0
LINE
5
2AC
100
AcDbEntity
8
0
100
AcDbLine
62
9
6
CONTINUOUS
10
-4.5793479851
20
23.3036727347
11
-4.5793479851
21
24.5310233318
0
LINE
5
2AD
100
AcDbEntity
8
0
100
AcDbLine
62
7
6
CONTINUOUS
10
-4.4539984778
20
23.4527008932
11
-4.4539984778
21
24.5403461003
0
LINE
5
2AE
100
AcDbEntity
8
0
100
AcDbLine
62
7
6
CONTINUOUS
10
-4.3474381828
20
19.1031466793
11
-4.3474381828
21
17.8907111140
0
LINE
5
2AF
100
AcDbEntity
8
0
100
AcDbLine
62
7
6
CONTINUOUS
10
4.1731985305
20
8.4088116844
11
2.7589849681
21
7.7017049032
0
LINE
5
2B0
100
AcDbEntity
8
0
100
AcDbLine
62
7
6
CONTINUOUS
10
15.4869070295
20
14.0448767700
11
14.5676682140
21
13.5852573622
0
LINE
5
2B1
100
AcDbEntity
8
0
100
AcDbLine
62
7
6
CONTINUOUS
10
1.1326393714
20
5.2832553890
11
6.5773615866
21
8.0056164966
0
LINE
5
2B2
100
AcDbEntity
8
0
100
AcDbLine
62
7
6
CONTINUOUS
10
-9.3926156601
20
-2.5121153695
11
-18.6810598635
21
2.1321067322
0
LINE
5
2B3
100
AcDbEntity
8
0
100
AcDbLine
62
9
6
CONTINUOUS
10
-9.2442940651
20
-2.3774126315
11
-19.0864922468
21
2.5436864594
0
LINE
5
2B4
100
AcDbEntity
8
0
100
AcDbLine
62
7
6
CONTINUOUS
10
-3.2800315354
20
17.2318244917
11
-3.2800315354
21
16.8918505575
0
LINE
5
2B5
100
AcDbEntity
8
0
100
AcDbLine
62
7
6
CONTINUOUS
10
-3.2800315354
20
-24.6212282203
11
-3.2800315354
21
-24.7477275160
0
LINE
5
2B6
100
AcDbEntity
8
0
100
AcDbLine
62
9
6
CONTINUOUS
10
-3.2068082307
20
17.1434361440
11
-3.2068082307
21
16.8034622099
0
LINE
5
2B7
100
AcDbEntity
8
0
100
AcDbLine
62
9
6
CONTINUOUS
10
-3.2068082307
20
-24.5904920512
11
-3.2068082307
21
-24.8361158636
0
LINE
5
2B8
100
AcDbEntity
8
0
100
AcDbLine
62
7
6
CONTINUOUS
10
-2.5770385811
20
15.9318733903
11
-2.5770385811
21
16.3858455832
0
LINE
5
2B9
100
AcDbEntity
8
0
100
AcDbLine
62
9
6
CONTINUOUS
10
-2.5038152764
20
15.8401597867
11
-2.5038152764
21
16.3492339309
0
LINE
5
2BA
100
AcDbEntity
8
0
100
AcDbLine
62
7
6
CONTINUOUS
10
-17.6056903300
20
-4.3623897456
11
-18.3754905063
21
-4.7487865952
0
LINE
5
2BB
100
AcDbEntity
8
0
100
AcDbLine
62
7
6
CONTINUOUS
10
-15.6257913427
20
-5.3523392392
11
-16.3955915189
21
-5.7387360888
0
LINE
5
2BC
100
AcDbEntity
8
0
100
AcDbLine
62
7
6
CONTINUOUS
10
1.2033500495
20
5.1064786937
11
6.7894936209
21
7.8995504794
0
LINE
5
2BD
100
AcDbEntity
8
0
100
AcDbLine
62
7
6
CONTINUOUS
10
-17.0046495660
20
-4.0986533807
11
-16.7925175317
21
-3.9925873635
0
LINE
5
2BE
100
AcDbEntity
8
0
100
AcDbLine
62
7
6
CONTINUOUS
10
-16.7571621926
20
-3.9749096940
11
-11.6120946019
21
-1.4023758986
0
LINE
5
2BF
100
AcDbEntity
8
0
100
AcDbLine
62
7
6
CONTINUOUS
10
-15.0954612568
20
-5.0532475353
11
-14.8833292225
21
-4.9471815181
0
LINE
5
2C0
100
AcDbEntity
8
0
100
AcDbLine
62
7
6
CONTINUOUS
10
-14.8479738834
20
-4.9295038486
11
-9.7029062926
21
-2.3569700532
0
LINE
5
2C1
100
AcDbEntity
8
0
100
AcDbLine
62
9
6
CONTINUOUS
10
-1.8818235508
20
-25.4986082035
11
-1.8818235508
21
-25.1586342694
0
LINE
5
2C2
100
AcDbEntity
8
0
100
AcDbLine
62
9
6
CONTINUOUS
10
-1.8818235508
20
16.1409698700
11
-1.8818235508
21
16.4809438041
0
LINE
5
2C3
100
AcDbEntity
8
0
100
AcDbLine
62
7
6
CONTINUOUS
10
-1.8018537705
20
23.4544582283
11
-1.8018537705
21
23.1836579356
0
LINE
5
2C4
100
AcDbEntity
8
0
100
AcDbLine
62
9
6
CONTINUOUS
10
-1.5293015912
20
-25.4991209274
11
-1.5293015912
21
-25.1591469933
0
LINE
5
2C5
100
AcDbEntity
8
0
100
AcDbLine
62
9
6
CONTINUOUS
10
-1.5293015912
20
16.1404571461
11
-1.5293015912
21
16.4804310803
0
LINE
5
2C6
100
AcDbEntity
8
0
100
AcDbLine
62
9
6
CONTINUOUS
10
-1.1706029427
20
-24.1821377923
11
-1.1706029427
21
-23.7357757792
0
LINE
5
2C7
100
AcDbEntity
8
0
100
AcDbLine
62
9
6
CONTINUOUS
10
-1.1706029427
20
15.1735536199
11
-1.1706029427
21
15.8623742428
0
LINE
5
2C8
100
AcDbEntity
8
0
100
AcDbLine
62
9
6
CONTINUOUS
10
-0.8180809831
20
-24.3076505161
11
-0.8180809831
21
-23.5878013795
0
LINE
5
2C9
100
AcDbEntity
8
0
100
AcDbLine
62
9
6
CONTINUOUS
10
-0.8180809831
20
15.1834527993
11
-0.8180809831
21
15.9919536233
0
LINE
5
2CA
100
AcDbEntity
8
0
100
AcDbLine
62
7
6
CONTINUOUS
10
0.0719791996
20
-23.2141902678
11
0.0719791996
21
-24.7190863277
0
LINE
5
2CB
100
AcDbEntity
8
0
100
AcDbLine
62
7
6
CONTINUOUS
10
0.0719791996
20
15.6807339272
11
0.0719791996
21
17.2831530838
0
LINE
5
2CC
100
AcDbEntity
8
0
100
AcDbLine
62
7
6
CONTINUOUS
10
-15.6257913427
20
-6.7379798853
11
-16.3823189773
21
-7.1177146576
0
LINE
5
2CD
100
AcDbEntity
8
0
100
AcDbLine
62
7
6
CONTINUOUS
10
-14.8126185443
20
-7.1445662845
11
-15.5691461790
21
-7.5243010568
0
LINE
5
2CE
100
AcDbEntity
8
0
100
AcDbLine
62
7
6
CONTINUOUS
10
14.5676682140
20
9.2719059969
11
16.2647244888
21
10.1204341344
0
LINE
5
2CF
100
AcDbEntity
8
0
100
AcDbLine
62
7
6
CONTINUOUS
10
16.9718312700
20
10.4739875250
11
19.8002583947
21
11.8882010873
0
LINE
5
2D0
100
AcDbEntity
8
0
100
AcDbLine
62
7
6
CONTINUOUS
10
14.5676682140
20
9.0120983758
11
16.2647244888
21
9.8606265132
0
LINE
5
2D1
100
AcDbEntity
8
0
100
AcDbLine
62
7
6
CONTINUOUS
10
17.2316388911
20
10.3440837144
11
19.8002583947
21
11.6283934662
0
LINE
5
2D2
100
AcDbEntity
8
0
100
AcDbLine
62
7
6
CONTINUOUS
10
-15.0954612568
20
-6.4388881814
11
-14.8833292225
21
-6.3328221642
0
LINE
5
2D3
100
AcDbEntity
8
0
100
AcDbLine
62
7
6
CONTINUOUS
10
-14.8479738834
20
-6.3151444947
11
-14.1408671022
21
-5.9615911041
0
LINE
5
2D4
100
AcDbEntity
8
0
100
AcDbLine
62
7
6
CONTINUOUS
10
21.4266039915
20
11.7821350702
11
20.7194972103
21
11.4285816796
0
LINE
5
2D5
100
AcDbEntity
8
0
100
AcDbLine
62
7
6
CONTINUOUS
10
17.8910700855
20
10.0143681172
11
17.1839633044
21
9.6608147266
0
LINE
5
2D6
100
AcDbEntity
8
0
100
AcDbLine
62
7
6
CONTINUOUS
10
-9.3979028344
20
-3.6767115105
11
-14.0542645618
21
-6.0048923743
0
LINE
5
2D7
100
AcDbEntity
8
0
100
AcDbLine
62
7
6
CONTINUOUS
10
21.4266039915
20
11.5223274490
11
20.7194972103
21
11.1687740584
0
LINE
5
2D8
100
AcDbEntity
8
0
100
AcDbLine
62
7
6
CONTINUOUS
10
17.8910700855
20
9.7545604961
11
17.1839633044
21
9.4010071055
0
LINE
5
2D9
100
AcDbEntity
8
0
100
AcDbLine
62
7
6
CONTINUOUS
10
-14.2115777803
20
-6.8808299196
11
-13.9994457460
21
-6.7747639024
0
LINE
5
2DA
100
AcDbEntity
8
0
100
AcDbLine
62
7
6
CONTINUOUS
10
-13.9640904069
20
-6.7570862329
11
-13.2569836257
21
-6.4035328423
0
LINE
5
2DB
100
AcDbEntity
8
0
100
AcDbLine
62
9
6
CONTINUOUS
10
0.6002463714
20
17.5465919038
11
0.6002463714
21
17.1990603870
0
LINE
5
2DC
100
AcDbEntity
8
0
100
AcDbLine
62
9
6
CONTINUOUS
10
0.6002463714
20
-24.1005437523
11
0.6002463714
21
-24.4480752691
0
LINE
5
2DD
100
AcDbEntity
8
0
100
AcDbLine
62
7
6
CONTINUOUS
10
0.6724442284
20
17.6344645360
11
0.6724442284
21
17.2869330192
0
LINE
5
2DE
100
AcDbEntity
8
0
100
AcDbLine
62
7
6
CONTINUOUS
10
0.6724442284
20
-24.0126711202
11
0.6724442284
21
-24.3602026369
0
LINE
5
2DF
100
AcDbEntity
8
0
100
AcDbLine
62
9
6
CONTINUOUS
10
0.9773958874
20
20.5270425459
11
0.9773958874
21
21.7540925132
0
LINE
5
2E0
100
AcDbEntity
8
0
100
AcDbLine
62
7
6
CONTINUOUS
10
1.1009899513
20
20.6752061667
11
1.1009899513
21
21.7628936892
0
LINE
5
2E1
100
AcDbEntity
8
0
100
AcDbLine
62
7
6
CONTINUOUS
10
1.1326393714
20
15.4171262886
11
1.1326393714
21
-22.4995061420
0
LINE
5
2E2
100
AcDbEntity
8
0
100
AcDbLine
62
7
6
CONTINUOUS
10
1.2033500495
20
5.1064786937
11
1.2033500495
21
-9.0097353880
0
LINE
5
2E3
100
AcDbEntity
8
0
100
AcDbLine
62
7
6
CONTINUOUS
10
1.5215481011
20
8.3204233368
11
1.5215481011
21
9.5078576003
0
LINE
5
2E4
100
AcDbEntity
8
0
100
AcDbLine
62
7
6
CONTINUOUS
10
1.7336801354
20
13.1165102905
11
1.7336801354
21
13.3763179116
0
LINE
5
2E5
100
AcDbEntity
8
0
100
AcDbLine
62
7
6
CONTINUOUS
10
2.1225888651
20
-12.1874226761
11
2.1225888651
21
-8.8099236013
0
LINE
5
2E6
100
AcDbEntity
8
0
100
AcDbLine
62
7
6
CONTINUOUS
10
-10.4639118400
20
-7.9332789906
11
-11.2203923664
21
-8.3263356651
0
LINE
5
2E7
100
AcDbEntity
8
0
100
AcDbLine
62
7
6
CONTINUOUS
10
-14.8126185443
20
-8.3137005796
11
-15.5551042387
21
-8.6863870793
0
LINE
5
2E8
100
AcDbEntity
8
0
100
AcDbLine
62
7
6
CONTINUOUS
10
-14.2115777803
20
-7.9200604042
11
-13.9994457460
21
-7.8139943870
0
LINE
5
2E9
100
AcDbEntity
8
0
100
AcDbLine
62
7
6
CONTINUOUS
10
-13.9640904069
20
-7.7963167174
11
-13.2569836257
21
-7.4427633269
0
LINE
5
2EA
100
AcDbEntity
8
0
100
AcDbLine
62
7
6
CONTINUOUS
10
-10.4285565010
20
-7.3866999132
11
-10.2164244666
21
-7.2806338961
0
LINE
5
2EB
100
AcDbEntity
8
0
100
AcDbLine
62
7
6
CONTINUOUS
10
-10.1810691276
20
-7.2629562265
11
-9.3997789661
21
-6.8723111458
0
LINE
5
2EC
100
AcDbEntity
8
0
100
AcDbLine
62
7
6
CONTINUOUS
10
-11.3124399775
20
-8.3303988210
11
-11.1003079431
21
-8.2243328039
0
LINE
5
2ED
100
AcDbEntity
8
0
100
AcDbLine
62
7
6
CONTINUOUS
10
-11.0649526040
20
-8.2066551343
11
-10.4285565010
21
-7.8884570828
0
LINE
5
2EE
100
AcDbEntity
8
0
100
AcDbLine
62
7
6
CONTINUOUS
10
2.7589849681
20
7.7017049032
11
2.7589849681
21
9.6935633319
0
LINE
5
2EF
100
AcDbEntity
8
0
100
AcDbLine
62
7
6
CONTINUOUS
10
3.5014470884
20
12.0678424629
11
3.5014470884
21
12.2326268140
0
LINE
5
2F0
100
AcDbEntity
8
0
100
AcDbLine
62
7
6
CONTINUOUS
10
4.1731985305
20
11.5265031380
11
4.1731985305
21
8.4088116844
0
LINE
5
2F1
100
AcDbEntity
8
0
100
AcDbLine
62
7
6
CONTINUOUS
10
-11.3635905132
20
-8.9572804770
11
-12.0205222744
21
-9.2986130091
0
LINE
5
2F2
100
AcDbEntity
8
0
100
AcDbLine
62
7
6
CONTINUOUS
10
14.3555361796
20
3.8017405843
11
13.7191400765
21
3.4835425328
0
LINE
5
2F3
100
AcDbEntity
8
0
100
AcDbLine
62
7
6
CONTINUOUS
10
-7.2887847819
20
6.8382179442
11
-20.7238136245
21
13.5557323655
0
LINE
5
2F4
100
AcDbEntity
8
0
100
AcDbLine
62
7
6
CONTINUOUS
10
-7.4281940561
20
6.9271651339
11
-20.5849602474
21
13.5055482295
0
LINE
5
2F5
100
AcDbEntity
8
0
100
AcDbLine
62
9
6
CONTINUOUS
10
-7.5271496449
20
7.0204726272
11
-20.5379144188
21
13.5258550142
0
LINE
5
2F6
100
AcDbEntity
8
0
100
AcDbLine
62
7
6
CONTINUOUS
10
5.4402078066
20
-16.8069718527
11
5.4402078066
21
-15.9682745531
0
LINE
5
2F7
100
AcDbEntity
8
0
100
AcDbLine
62
7
6
CONTINUOUS
10
5.4402078066
20
18.7204618882
11
5.4402078066
21
18.9528112837
0
LINE
5
2F8
100
AcDbEntity
8
0
100
AcDbLine
62
9
6
CONTINUOUS
10
5.6883521304
20
19.5813210552
11
5.6883521304
21
19.0839910982
0
LINE
5
2F9
100
AcDbEntity
8
0
100
AcDbLine
62
9
6
CONTINUOUS
10
5.6883521304
20
-17.2747141531
11
5.6883521304
21
-17.7720441100
0
LINE
5
2FA
100
AcDbEntity
8
0
100
AcDbLine
62
7
6
CONTINUOUS
10
5.8286822302
20
19.8818255639
11
5.8286822302
21
19.2602551718
0
LINE
5
2FB
100
AcDbEntity
8
0
100
AcDbLine
62
7
6
CONTINUOUS
10
5.8286822302
20
-17.1036490414
11
5.8286822302
21
-17.7252194335
0
LINE
5
2FC
100
AcDbEntity
8
0
100
AcDbLine
62
7
6
CONTINUOUS
10
6.2591635350
20
7.8465174708
11
6.2591635350
21
11.1135762118
0
LINE
5
2FD
100
AcDbEntity
8
0
100
AcDbLine
62
7
6
CONTINUOUS
10
6.4712955694
20
10.9598346079
11
6.4712955694
21
7.9525834880
0
LINE
5
2FE
100
AcDbEntity
8
0
100
AcDbLine
62
7
6
CONTINUOUS
10
6.5773615866
20
10.7768977887
11
6.5773615866
21
8.0056164966
0
LINE
5
2FF
100
AcDbEntity
8
0
100
AcDbLine
62
7
6
CONTINUOUS
10
6.6127169256
20
10.7945754582
11
6.6127169256
21
11.0305452860
0
LINE
5
300
100
AcDbEntity
8
0
100
AcDbLine
62
7
6
CONTINUOUS
10
6.7894936209
20
10.6708317715
11
6.7894936209
21
7.8995504794
0
LINE
5
301
100
AcDbEntity
8
0
100
AcDbLine
62
7
6
CONTINUOUS
10
1.2033500495
20
5.1064786937
11
1.1326393714
21
5.1418340328
0
LINE
5
302
100
AcDbEntity
8
0
100
AcDbLine
62
9
6
CONTINUOUS
10
-7.4013346769
20
11.3456979606
11
-20.4120994508
21
17.8510803476
0
LINE
5
303
100
AcDbEntity
8
0
100
AcDbLine
62
9
6
CONTINUOUS
10
-21.2895435348
20
18.3520022030
11
-20.5946349173
21
18.0045478943
0
LINE
5
304
100
AcDbEntity
8
0
100
AcDbLine
62
9
6
CONTINUOUS
10
-7.1596060747
20
11.2870334730
11
-6.4646974572
21
10.9395791642
0
LINE
5
305
100
AcDbEntity
8
0
100
AcDbLine
62
7
6
CONTINUOUS
10
8.0622858270
20
11.5193599089
11
8.0622858270
21
11.7553297367
0
LINE
5
306
100
AcDbEntity
8
0
100
AcDbLine
62
7
6
CONTINUOUS
10
1.9104568307
20
-8.6561819974
11
1.2033500495
21
-9.0097353880
0
LINE
5
307
100
AcDbEntity
8
0
100
AcDbLine
62
7
6
CONTINUOUS
10
1.8425150651
20
8.1599398547
11
1.5215481011
21
8.3204233368
0
LINE
5
308
100
AcDbEntity
8
0
100
AcDbLine
62
9
6
CONTINUOUS
10
-6.3970791913
20
13.0917584725
11
-19.4078439651
21
19.5971408594
0
LINE
5
309
100
AcDbEntity
8
0
100
AcDbLine
62
9
6
CONTINUOUS
10
-20.2969775248
20
20.1038063589
11
-19.5903827156
21
19.7505089544
0
LINE
5
30A
100
AcDbEntity
8
0
100
AcDbLine
62
9
6
CONTINUOUS
10
-6.1553538731
20
13.0329945331
11
-5.4487590640
21
12.6796971285
0
LINE
5
30B
100
AcDbEntity
8
0
100
AcDbLine
62
7
6
CONTINUOUS
10
10.1482508315
20
15.5329935942
11
10.1482508315
21
16.6873995355
0
LINE
5
30C
100
AcDbEntity
8
0
100
AcDbLine
62
7
6
CONTINUOUS
10
10.3603828659
20
17.0532731738
11
10.3603828659
21
15.5683489333
0
LINE
5
30D
100
AcDbEntity
8
0
100
AcDbLine
62
7
6
CONTINUOUS
10
10.5725149003
20
15.6744149505
11
10.5725149003
21
16.3453636905
0
LINE
5
30E
100
AcDbEntity
8
0
100
AcDbLine
62
7
6
CONTINUOUS
10
3.7135791228
20
9.0954718836
11
6.2353257416
21
7.8345985741
0
LINE
5
30F
100
AcDbEntity
8
0
100
AcDbLine
62
9
6
CONTINUOUS
10
2.7589849681
20
9.6935633319
11
2.3259722663
21
9.9100696829
0
LINE
5
310
100
AcDbEntity
8
0
100
AcDbLine
62
7
6
CONTINUOUS
10
6.7894936209
20
7.8995504794
11
6.5773615866
21
8.0056164966
0
LINE
5
311
100
AcDbEntity
8
0
100
AcDbLine
62
7
6
CONTINUOUS
10
-17.5349796519
20
20.6537849824
11
-4.5242148781
21
14.1484025955
0
LINE
5
312
100
AcDbEntity
8
0
100
AcDbLine
62
7
6
CONTINUOUS
10
-4.2767275047
20
14.0928895279
11
-8.8729215824
21
16.3909865668
0
LINE
5
313
100
AcDbEntity
8
0
100
AcDbLine
62
7
6
CONTINUOUS
10
-13.1155622695
20
18.5123069103
11
-17.7117563472
21
20.8104039492
0
LINE
5
314
100
AcDbEntity
8
0
100
AcDbLine
62
7
6
CONTINUOUS
10
13.5070080422
20
-6.4952130875
11
13.5070080422
21
3.1176688945
0
LINE
5
315
100
AcDbEntity
8
0
100
AcDbLine
62
9
6
CONTINUOUS
10
13.5070080422
20
-6.4952130875
11
2.1225888651
21
-12.1874226761
0
LINE
5
316
100
AcDbEntity
8
0
100
AcDbLine
62
7
6
CONTINUOUS
10
13.3502937180
20
-6.6968484119
11
2.1233672779
21
-12.3103116320
0
LINE
5
317
100
AcDbEntity
8
0
100
AcDbLine
62
7
6
CONTINUOUS
10
-12.3377448102
20
18.9511407550
11
-8.0951041231
21
16.8298204115
0
LINE
5
318
100
AcDbEntity
8
0
100
AcDbLine
62
9
6
CONTINUOUS
10
1.4428914918
20
12.9711159687
11
3.8196451399
21
11.7827391446
0
LINE
5
319
100
AcDbEntity
8
0
100
AcDbLine
62
7
6
CONTINUOUS
10
1.5688957843
20
13.0341181149
11
4.0432519377
21
11.7969400382
0
LINE
5
31A
100
AcDbEntity
8
0
100
AcDbLine
62
7
6
CONTINUOUS
10
1.7336801354
20
13.1165102905
11
3.5014470884
21
12.2326268140
0
LINE
5
31B
100
AcDbEntity
8
0
100
AcDbLine
62
7
6
CONTINUOUS
10
6.5773615866
20
10.7768977887
11
6.7894936209
21
10.6708317715
0
LINE
5
31C
100
AcDbEntity
8
0
100
AcDbLine
62
7
6
CONTINUOUS
10
1.7336801354
20
13.3763179116
11
6.2591635350
21
11.1135762118
0
LINE
5
31D
100
AcDbEntity
8
0
100
AcDbLine
62
7
6
CONTINUOUS
10
-15.8681334408
20
22.5223188689
11
-14.5349211072
21
21.8557127021
0
LINE
5
31E
100
AcDbEntity
8
0
100
AcDbLine
62
7
6
CONTINUOUS
10
-2.5038152764
20
15.8401597867
11
-1.1706029427
21
15.1735536199
0
LINE
5
31F
100
AcDbEntity
8
0
100
AcDbLine
62
7
6
CONTINUOUS
10
-5.4101612513
20
17.6695793989
11
-10.9214683510
21
20.4252329487
0
LINE
5
320
100
AcDbEntity
8
0
100
AcDbLine
62
7
6
CONTINUOUS
10
-16.5061530987
20
23.3504028420
11
-15.1811684188
21
22.6879105021
0
LINE
5
321
100
AcDbEntity
8
0
100
AcDbLine
62
7
6
CONTINUOUS
10
-3.1418349342
20
16.6682437598
11
-1.8168502544
21
16.0057514199
0
LINE
5
322
100
AcDbEntity
8
0
100
AcDbLine
62
9
6
CONTINUOUS
10
-16.5711263951
20
23.4856212921
11
-15.2461417153
21
22.8231289522
0
LINE
5
323
100
AcDbEntity
8
0
100
AcDbLine
62
9
6
CONTINUOUS
10
-3.2068082307
20
16.8034622099
11
-1.8818235508
21
16.1409698700
0
LINE
5
324
100
AcDbEntity
8
0
100
AcDbLine
62
7
6
CONTINUOUS
10
14.0373381281
20
14.7428558872
11
14.0373381281
21
15.0026635083
0
LINE
5
325
100
AcDbEntity
8
0
100
AcDbLine
62
7
6
CONTINUOUS
10
14.5676682140
20
4.1676142226
11
14.5676682140
21
14.5599190680
0
LINE
5
326
100
AcDbEntity
8
0
100
AcDbLine
62
9
6
CONTINUOUS
10
-1.1711171711
20
-24.1818806781
11
-1.7934352032
21
-24.9269400956
0
LINE
5
327
100
AcDbEntity
8
0
100
AcDbLine
62
9
6
CONTINUOUS
10
-0.8180809831
20
-24.3076505161
11
-1.5293015912
21
-25.1591469933
0
LINE
5
328
100
AcDbEntity
8
0
100
AcDbLine
62
7
6
CONTINUOUS
10
-1.7561450847
20
15.9846359853
11
-1.1317390003
21
15.8542594156
0
LINE
5
329
100
AcDbEntity
8
0
100
AcDbLine
62
9
6
CONTINUOUS
10
-1.5293015912
20
16.1404571461
11
-0.8180809831
21
15.9919536233
0
LINE
5
32A
100
AcDbEntity
8
0
100
AcDbLine
62
9
6
CONTINUOUS
10
-1.8818235508
20
16.4809438041
11
-3.2068082307
21
17.1434361440
0
LINE
5
32B
100
AcDbEntity
8
0
100
AcDbLine
62
9
6
CONTINUOUS
10
-15.2461417153
20
23.1631028863
11
-16.5711263951
21
23.8255952262
0
LINE
5
32C
100
AcDbEntity
8
0
100
AcDbLine
62
7
6
CONTINUOUS
10
-3.2535444575
20
17.3437642513
11
-4.3474381828
21
17.8907111140
0
LINE
5
32D
100
AcDbEntity
8
0
100
AcDbLine
62
7
6
CONTINUOUS
10
-11.0679149604
20
21.2509495028
11
-13.2923389648
21
22.3631615050
0
LINE
5
32E
100
AcDbEntity
8
0
100
AcDbLine
62
9
6
CONTINUOUS
10
-1.7060752949
20
16.7853206191
11
-3.0310599747
21
17.4478129590
0
LINE
5
32F
100
AcDbEntity
8
0
100
AcDbLine
62
9
6
CONTINUOUS
10
-15.0703934593
20
23.4674797013
11
-16.3953781391
21
24.1299720412
0
LINE
5
330
100
AcDbEntity
8
0
100
AcDbLine
62
9
6
CONTINUOUS
10
-5.4101612513
20
18.7501627097
11
-10.9214683510
21
21.5058162595
0
LINE
5
331
100
AcDbEntity
8
0
100
AcDbLine
62
9
6
CONTINUOUS
10
-4.9873388715
20
18.8525522741
11
-11.0630935213
21
21.8904295990
0
LINE
5
332
100
AcDbEntity
8
0
100
AcDbLine
62
7
6
CONTINUOUS
10
-13.2923389648
20
23.0627105970
11
-11.8842962298
21
22.3586892295
0
LINE
5
333
100
AcDbEntity
8
0
100
AcDbLine
62
7
6
CONTINUOUS
10
0.0719791996
20
16.3805515148
11
0.7789782707
21
16.0270519792
0
LINE
5
334
100
AcDbEntity
8
0
100
AcDbLine
62
7
6
CONTINUOUS
10
-10.5699778572
20
22.2144165165
11
-4.3474381828
21
19.1031466793
0
LINE
5
335
100
AcDbEntity
8
0
100
AcDbLine
62
7
6
CONTINUOUS
10
-14.8126215360
20
24.9419561385
11
-13.4691126685
21
24.2702017048
0
LINE
5
336
100
AcDbEntity
8
0
100
AcDbLine
62
7
6
CONTINUOUS
10
-1.4483033715
20
18.2597970563
11
-0.1047945040
21
17.5880426226
0
LINE
5
337
100
AcDbEntity
8
0
100
AcDbLine
62
7
6
CONTINUOUS
10
-4.2767275047
20
19.7698597330
11
-9.2264749730
21
22.2447334672
0
LINE
5
338
100
AcDbEntity
8
0
100
AcDbLine
62
7
6
CONTINUOUS
10
16.2647244888
20
9.8606265132
11
16.2647244888
21
10.1204341344
0
LINE
5
339
100
AcDbEntity
8
0
100
AcDbLine
62
7
6
CONTINUOUS
10
17.1839633044
20
9.4010071055
11
17.1839633044
21
9.6608147266
0
LINE
5
33A
100
AcDbEntity
8
0
100
AcDbLine
62
7
6
CONTINUOUS
10
17.8910700855
20
9.7545604961
11
17.8910700855
21
10.0143681172
0
LINE
5
33B
100
AcDbEntity
8
0
100
AcDbLine
62
7
6
CONTINUOUS
10
5.6883521304
20
-17.2747141531
11
1.1326393714
21
-19.5839461500
0
LINE
5
33C
100
AcDbEntity
8
0
100
AcDbLine
62
7
6
CONTINUOUS
10
5.4402078066
20
-16.8069718527
11
1.1326393714
21
-18.9396539065
0
LINE
5
33D
100
AcDbEntity
8
0
100
AcDbLine
62
7
6
CONTINUOUS
10
17.1839633044
20
9.4010071055
11
16.2647244888
21
9.8606265132
0
LINE
5
33E
100
AcDbEntity
8
0
100
AcDbLine
62
9
6
CONTINUOUS
10
-14.2781716573
20
25.2023036051
11
-12.9408454967
21
24.5336405248
0
LINE
5
33F
100
AcDbEntity
8
0
100
AcDbLine
62
9
6
CONTINUOUS
10
-0.9138534928
20
18.5201445229
11
0.4234726677
21
17.8514814426
0
LINE
5
340
100
AcDbEntity
8
0
100
AcDbLine
62
7
6
CONTINUOUS
10
-14.1673966977
20
25.2088934962
11
-12.8300705372
21
24.5402304159
0
LINE
5
341
100
AcDbEntity
8
0
100
AcDbLine
62
7
6
CONTINUOUS
10
-0.8030785333
20
18.5267344140
11
0.5342476273
21
17.8580713337
0
LINE
5
342
100
AcDbEntity
8
0
100
AcDbLine
62
7
6
CONTINUOUS
10
17.1839633044
20
9.6608147266
11
16.2647244888
21
10.1204341344
0
LINE
5
343
100
AcDbEntity
8
0
100
AcDbLine
62
7
6
CONTINUOUS
10
16.9718312700
20
10.4739875250
11
17.8910700855
21
10.0143681172
0
LINE
5
344
100
AcDbEntity
8
0
100
AcDbLine
62
7
6
CONTINUOUS
10
19.8002583947
20
11.6283934662
11
19.8002583947
21
11.8882010873
0
LINE
5
345
100
AcDbEntity
8
0
100
AcDbLine
62
7
6
CONTINUOUS
10
4.8068166718
20
-18.3314731541
11
1.1326393714
21
-20.1757056934
0
LINE
5
346
100
AcDbEntity
8
0
100
AcDbLine
62
7
6
CONTINUOUS
10
5.6883521304
20
-17.7720441100
11
1.1326393714
21
-20.0317112236
0
LINE
5
347
100
AcDbEntity
8
0
100
AcDbLine
62
7
6
CONTINUOUS
10
-15.1204632491
20
22.6667950676
11
-14.4960571647
21
22.5364184978
0
LINE
5
348
100
AcDbEntity
8
0
100
AcDbLine
62
9
6
CONTINUOUS
10
-14.8936197556
20
22.8226162283
11
-14.1823991475
21
22.6741127055
0
LINE
5
349
100
AcDbEntity
8
0
100
AcDbLine
62
7
6
CONTINUOUS
10
12.5509553784
20
13.9996645124
11
12.6814294315
21
13.9344274858
0
LINE
5
34A
100
AcDbEntity
8
0
100
AcDbLine
62
7
6
CONTINUOUS
10
8.7340372692
20
16.2401003754
11
10.2189615097
21
15.4976382552
0
LINE
5
34B
100
AcDbEntity
8
0
100
AcDbLine
62
7
6
CONTINUOUS
10
20.7194972103
20
11.1687740584
11
19.8002583947
21
11.6283934662
0
LINE
5
34C
100
AcDbEntity
8
0
100
AcDbLine
62
7
6
CONTINUOUS
10
15.2270994084
20
13.9149729594
11
14.5676682140
21
14.2446885566
0
LINE
5
34D
100
AcDbEntity
8
0
100
AcDbLine
62
7
6
CONTINUOUS
10
-0.3512360636
20
21.7046349247
11
-3.1617857106
21
23.1099097482
0
LINE
5
34E
100
AcDbEntity
8
0
100
AcDbLine
62
7
6
CONTINUOUS
10
10.5725149003
20
16.3453636905
11
11.2434636403
21
16.0098893205
0
LINE
5
34F
100
AcDbEntity
8
0
100
AcDbLine
62
7
6
CONTINUOUS
10
13.9074343175
20
14.6779039819
11
14.1434041453
21
14.5599190680
0
LINE
5
350
100
AcDbEntity
8
0
100
AcDbLine
62
7
6
CONTINUOUS
10
20.7194972103
20
11.4285816796
11
19.8002583947
21
11.8882010873
0
LINE
5
351
100
AcDbEntity
8
0
100
AcDbLine
62
7
6
CONTINUOUS
10
15.4869070295
20
14.0448767700
11
14.5676682140
21
14.5044961777
0
LINE
5
352
100
AcDbEntity
8
0
100
AcDbLine
62
7
6
CONTINUOUS
10
14.5676682140
20
14.5599190680
11
14.0373381281
21
14.8250841110
0
LINE
5
353
100
AcDbEntity
8
0
100
AcDbLine
62
7
6
CONTINUOUS
10
11.4555956747
20
16.1159553377
11
10.7846469346
21
16.4514297077
0
LINE
5
354
100
AcDbEntity
8
0
100
AcDbLine
62
7
6
CONTINUOUS
10
14.0373381281
20
15.0026635083
11
11.6331750720
21
16.2047450364
0
LINE
5
355
100
AcDbEntity
8
0
100
AcDbLine
62
9
6
CONTINUOUS
10
0.9270538864
20
21.7334558132
11
0.3215234517
21
22.0362210305
0
LINE
5
356
100
AcDbEntity
8
0
100
AcDbLine
62
9
6
CONTINUOUS
10
-4.6282240166
20
24.5110947647
11
-5.2337544513
21
24.8138599820
0
LINE
5
357
100
AcDbEntity
8
0
100
AcDbLine
62
7
6
CONTINUOUS
10
10.3603828659
20
17.0532731738
11
5.8286822302
21
19.3191234916
0
LINE
5
358
100
AcDbEntity
8
0
100
AcDbLine
62
7
6
CONTINUOUS
10
1.2992853508
20
21.6330883749
11
1.1009899513
21
21.7322360747
0
LINE
5
359
100
AcDbEntity
8
0
100
AcDbLine
62
7
6
CONTINUOUS
10
0.4340085524
20
22.0657267742
11
-1.8018537705
21
23.1836579356
0
LINE
5
35A
100
AcDbEntity
8
0
100
AcDbLine
62
7
6
CONTINUOUS
10
1.0938710143
20
21.7740019910
11
0.5974826993
21
22.0221961485
0
LINE
5
35B
100
AcDbEntity
8
0
100
AcDbLine
62
7
6
CONTINUOUS
10
-4.4610858538
20
24.5514804250
11
-4.9574738612
21
24.7996744287
0
LINE
5
35C
100
AcDbEntity
8
0
100
AcDbLine
62
7
6
CONTINUOUS
10
15.2747749952
20
14.8580495683
11
21.4266039915
21
11.7821350702
0
LINE
5
35D
100
AcDbEntity
8
0
100
AcDbLine
62
7
6
CONTINUOUS
10
20.7194972103
20
11.1687740584
11
20.7194972103
21
11.4285816796
0
LINE
5
35E
100
AcDbEntity
8
0
100
AcDbLine
62
7
6
CONTINUOUS
10
21.4266039915
20
11.5223274490
11
21.4266039915
21
11.7821350702
0
LINE
5
35F
100
AcDbEntity
8
0
100
AcDbLine
62
9
6
CONTINUOUS
10
0.6002463714
20
-24.4480752691
11
0.0719791996
21
-24.7190863277
0
LINE
5
360
100
AcDbEntity
8
0
100
AcDbLine
62
7
6
CONTINUOUS
10
0.5365583339
20
-24.5826390794
11
0.0078760703
21
-24.8538630880
0
LINE
5
361
100
AcDbEntity
8
0
100
AcDbLine
62
7
6
CONTINUOUS
10
0.0061376832
20
-24.8547323215
11
0.0078741006
21
-24.8538640985
0
LINE
5
362
100
AcDbEntity
8
0
100
AcDbLine
62
9
6
CONTINUOUS
10
0.4147629485
20
-22.8536699093
11
1.1326393714
21
-22.4995061420
0
LINE
5
363
100
AcDbEntity
8
0
100
AcDbLine
62
7
6
CONTINUOUS
10
0.2801185294
20
-23.1264448641
11
1.0017647142
21
-22.7704212878
0
LINE
5
364
100
AcDbEntity
8
0
100
AcDbLine
62
9
6
CONTINUOUS
10
0.0719791996
20
-24.7190863277
11
-1.5293015912
21
-25.4991209274
0
LINE
5
365
100
AcDbEntity
8
0
100
AcDbLine
62
7
6
CONTINUOUS
10
0.0061349192
20
-24.8547336679
11
-1.5955631838
21
-25.6349715536
0
LINE
5
366
100
AcDbEntity
8
0
100
AcDbLine
62
7
6
CONTINUOUS
10
0.2801180077
20
-23.1264451215
11
0.2697042108
21
-23.1311933250
0
LINE
5
367
100
AcDbEntity
8
0
100
AcDbLine
62
9
6
CONTINUOUS
10
-5.0829263240
20
-25.1613765573
11
0.4147629485
21
-22.8536699093
0
LINE
5
368
100
AcDbEntity
8
0
100
AcDbLine
62
7
6
CONTINUOUS
10
-5.2367335694
20
-25.4425722557
11
0.2697140430
21
-23.1311892123
0
LINE
5
369
100
AcDbEntity
8
0
100
AcDbLine
62
9
6
CONTINUOUS
10
-5.5697559032
20
25.5034655340
11
-2.5027899593
21
23.9699825621
0
LINE
5
36A
100
AcDbEntity
8
0
100
AcDbLine
62
9
6
CONTINUOUS
10
1.7398507279
20
21.8486622185
11
4.8068166718
21
20.3151792465
0
LINE
5
36B
100
AcDbEntity
8
0
100
AcDbLine
62
7
6
CONTINUOUS
10
-5.2889256465
20
25.6089213738
11
-2.0617469562
21
23.9953320287
0
LINE
5
36C
100
AcDbEntity
8
0
100
AcDbLine
62
7
6
CONTINUOUS
10
2.1808937309
20
21.8740116851
11
5.4080724212
21
20.2604223400
0
LINE
5
36D
100
AcDbEntity
8
0
100
AcDbLine
62
7
6
CONTINUOUS
10
-1.8018537705
20
23.1836579356
11
-3.1617857106
21
23.1099097482
0
SPLINE
5
36E
100
AcDbEntity
8
0
100
AcDbSpline
62
7
6
CONTINUOUS
70
0
71
3
72
8
73
4
74
2
42
0.0000001000
43
0.0000001000
44
0.0000000001
12
-0.0019248630
22
-0.0773884279
32
0.0000000000
13
0.0223366374
23
-0.0736642890
33
0.0000000000
40
0.0000000000
40
0.0000000000
40
0.0000000000
40
0.0000000000
40
1.0000000000
40
1.0000000000
40
1.0000000000
40
1.0000000000
10
-20.6117038764
20
13.5914959096
30
0.0000000000
10
-20.6123454974
20
13.5656997670
30
0.0000000000
10
-20.6099407667
20
13.5396250712
30
0.0000000000
10
-20.6024952209
20
13.5150703082
30
0.0000000000
11
-20.6117038764
21
13.5914959096
31
0.0000000000
11
-20.6024952209
21
13.5150703082
31
0.0000000000
0
SPLINE
5
36F
100
AcDbEntity
8
0
100
AcDbSpline
62
7
6
CONTINUOUS
70
0
71
3
72
10
73
6
74
4
42
0.0000001000
43
0.0000001000
44
0.0000000001
12
-0.1434066291
22
-4.3467342145
32
0.0000000000
13
-0.1092624453
23
-4.3477266007
33
0.0000000000
40
0.0000000000
40
0.0000000000
40
0.0000000000
40
0.0000000000
40
0.3368907040
40
0.6733457500
40
1.0000000000
40
1.0000000000
40
1.0000000000
40
1.0000000000
10
-20.4853358126
20
17.9387501544
30
0.0000000000
10
-20.5014399327
20
17.4506253712
30
0.0000000000
10
-20.5323440532
20
16.4749641844
30
0.0000000000
10
-20.5744160070
20
15.0258735509
30
0.0000000000
10
-20.5998069466
20
14.0648982656
30
0.0000000000
10
-20.6117039606
20
13.5914971416
30
0.0000000000
11
-20.4853358126
21
17.9387501544
31
0.0000000000
11
-20.5317194277
21
16.4743134435
31
0.0000000000
11
-20.5741828382
21
15.0116533356
31
0.0000000000
11
-20.6117039606
21
13.5914971416
31
0.0000000000
0
SPLINE
5
370
100
AcDbEntity
8
0
100
AcDbSpline
62
7
6
CONTINUOUS
70
0
71
3
72
14
73
10
74
8
42
0.0000001000
43
0.0000001000
44
0.0000000001
12
0.0658852427
22
1.9970180581
32
0.0000000000
13
1.7402438255
23
0.9818214794
33
0.0000000000
40
0.0000000000
40
0.0000000000
40
0.0000000000
40
0.0000000000
40
0.1404041680
40
0.2857889558
40
0.4335133235
40
0.5811613566
40
0.7263180685
40
0.8666351293
40
1.0000000000
40
1.0000000000
40
1.0000000000
40
1.0000000000
10
-20.4853358126
20
17.9387501544
30
0.0000000000
10
-20.4822522917
20
18.0322133740
30
0.0000000000
10
-20.4597913689
20
18.2221509899
30
0.0000000000
10
-20.3847648019
20
18.5018348614
30
0.0000000000
10
-20.2716775868
20
18.7736449239
30
0.0000000000
10
-20.1248860547
20
19.0286173422
30
0.0000000000
10
-19.9488955331
20
19.2583367668
30
0.0000000000
10
-19.7488844602
20
19.4541864825
30
0.0000000000
10
-19.5987987563
20
19.5596471075
30
0.0000000000
10
-19.5214362921
20
19.6032939391
30
0.0000000000
11
-20.4853358126
21
17.9387501544
31
0.0000000000
11
-20.4536661459
21
18.2174990843
31
0.0000000000
11
-20.3791477243
21
18.4982726169
31
0.0000000000
11
-20.2659956258
21
18.7708917410
31
0.0000000000
11
-20.1186124186
21
19.0264553470
31
0.0000000000
11
-19.9416733361
21
19.2562699959
31
0.0000000000
11
-19.7404670012
21
19.4515193712
31
0.0000000000
11
-19.5214362921
21
19.6032939391
31
0.0000000000
0
SPLINE
5
371
100
AcDbEntity
8
0
100
AcDbSpline
62
7
6
CONTINUOUS
70
0
71
3
72
11
73
7
74
5
42
0.0000001000
43
0.0000001000
44
0.0000000001
12
0.1054087895
22
0.0594007417
32
0.0000000000
13
0.1077406501
23
-0.0538703251
33
0.0000000000
40
0.0000000000
40
0.0000000000
40
0.0000000000
40
0.0000000000
40
0.1590663727
40
0.4159157775
40
0.6936033502
40
1.0000000000
40
1.0000000000
40
1.0000000000
40
1.0000000000
10
-17.6508430485
20
20.6586457299
30
0.0000000000
10
-17.6452540506
20
20.6617952834
30
0.0000000000
10
-17.6298032581
20
20.6685562985
30
0.0000000000
10
-17.6018090990
20
20.6726546709
30
0.0000000000
10
-17.5680084334
20
20.6679118706
30
0.0000000000
10
-17.5459834433
20
20.6592868781
30
0.0000000000
10
-17.5349796519
20
20.6537849824
30
0.0000000000
11
-17.6508430485
21
20.6586457299
31
0.0000000000
11
-17.6332404071
21
20.6663373121
31
0.0000000000
11
-17.6026706568
21
20.6711062174
31
0.0000000000
11
-17.5694905230
21
20.6668688777
31
0.0000000000
11
-17.5349796519
21
20.6537849824
31
0.0000000000
0
SPLINE
5
372
100
AcDbEntity
8
0
100
AcDbSpline
62
7
6
CONTINUOUS
70
0
71
3
72
8
73
4
74
2
42
0.0000001000
43
0.0000001000
44
0.0000000001
12
-0.0457875090
22
-0.0231684982
32
0.0000000000
13
-0.0490959256
23
-0.0140558529
33
0.0000000000
40
0.0000000000
40
0.0000000000
40
0.0000000000
40
0.0000000000
40
1.0000000000
40
1.0000000000
40
1.0000000000
40
1.0000000000
10
-7.3752774223
20
6.9440850620
30
0.0000000000
10
-7.3905399253
20
6.9363622293
30
0.0000000000
10
-7.4063958461
20
6.9298885593
30
0.0000000000
10
-7.4227611546
20
6.9252032750
30
0.0000000000
11
-7.3752774223
21
6.9440850620
31
0.0000000000
11
-7.4227611546
21
6.9252032750
31
0.0000000000
0
SPLINE
5
373
100
AcDbEntity
8
0
100
AcDbSpline
62
7
6
CONTINUOUS
70
0
71
3
72
11
73
7
74
5
42
0.0000001000
43
0.0000001000
44
0.0000000001
12
0.1596834300
22
-0.0798417150
32
0.0000000000
13
0.0899953593
23
-0.1543176246
33
0.0000000000
40
0.0000000000
40
0.0000000000
40
0.0000000000
40
0.0000000000
40
0.2275346209
40
0.4741620919
40
0.7358941462
40
1.0000000000
40
1.0000000000
40
1.0000000000
40
1.0000000000
10
-4.5242148781
20
14.1484025955
30
0.0000000000
10
-4.5121037085
20
14.1423470107
30
0.0000000000
10
-4.4880992825
20
14.1271849069
30
0.0000000000
10
-4.4551430692
20
14.0981261693
30
0.0000000000
10
-4.4250889465
20
14.0631624426
30
0.0000000000
10
-4.4077424856
20
14.0370284021
30
0.0000000000
10
-4.3998197186
20
14.0234430061
30
0.0000000000
11
-4.5242148781
21
14.1484025955
31
0.0000000000
11
-4.4897036175
21
14.1269753299
31
0.0000000000
11
-4.4565227109
21
14.0980316536
31
0.0000000000
11
-4.4259523412
21
14.0626918180
31
0.0000000000
11
-4.3998197186
21
14.0234430061
31
0.0000000000
0
SPLINE
5
374
100
AcDbEntity
8
0
100
AcDbSpline
62
7
6
CONTINUOUS
70
0
71
3
72
8
73
4
74
2
42
0.0000001000
43
0.0000001000
44
0.0000000001
12
0.0171842774
22
-0.0101555606
32
0.0000000000
13
0.0178862502
23
-0.0089120489
33
0.0000000000
40
0.0000000000
40
0.0000000000
40
0.0000000000
40
0.0000000000
40
1.0000000000
40
1.0000000000
40
1.0000000000
40
1.0000000000
10
-20.6024952209
20
13.5150703082
30
0.0000000000
10
-20.5967671285
20
13.5116851213
30
0.0000000000
10
-20.5909097138
20
13.5085116939
30
0.0000000000
10
-20.5849476304
20
13.5055410109
30
0.0000000000
11
-20.6024952209
21
13.5150703082
31
0.0000000000
11
-20.5849476304
21
13.5055410109
31
0.0000000000
0
SPLINE
5
375
100
AcDbEntity
8
0
100
AcDbSpline
62
9
6
CONTINUOUS
70
0
71
3
72
10
73
6
74
4
42
0.0000001000
43
0.0000001000
44
0.0000000001
12
0.1030841543
22
0.0590508091
32
0.0000000000
13
0.1051851893
23
-0.0525925946
33
0.0000000000
40
0.0000000000
40
0.0000000000
40
0.0000000000
40
0.0000000000
40
0.1068379060
40
0.5172959890
40
1.0000000000
40
1.0000000000
40
1.0000000000
40
1.0000000000
10
-19.5213950281
20
19.6032219052
30
0.0000000000
10
-19.5177239297
20
19.6053248601
30
0.0000000000
10
-19.4992541890
20
19.6142041345
30
0.0000000000
10
-19.4585194428
20
19.6174451724
30
0.0000000000
10
-19.4247684027
20
19.6056030782
30
0.0000000000
10
-19.4078439651
20
19.5971408594
30
0.0000000000
11
-19.5213950281
21
19.6032219052
31
0.0000000000
11
-19.5099837673
21
19.6086853265
31
0.0000000000
11
-19.4620181540
21
19.6140987152
31
0.0000000000
11
-19.4078439651
21
19.5971408594
31
0.0000000000
0
SPLINE
5
376
100
AcDbEntity
8
0
100
AcDbSpline
62
9
6
CONTINUOUS
70
0
71
3
72
11
73
7
74
5
42
0.0000001000
43
0.0000001000
44
0.0000000001
12
-0.2470839880
22
-0.0258389626
32
0.0000000000
13
-0.2220330937
23
0.1110165479
33
0.0000000000
40
0.0000000000
40
0.0000000000
40
0.0000000000
40
0.0000000000
40
0.1087809803
40
0.4238358935
40
0.7282101840
40
1.0000000000
40
1.0000000000
40
1.0000000000
40
1.0000000000
10
-7.1585676009
20
11.3089972696
30
0.0000000000
10
-7.1675269471
20
11.3080603403
30
0.0000000000
10
-7.2025379271
20
11.3054035160
30
0.0000000000
10
-7.2630080279
20
11.3069535998
30
0.0000000000
10
-7.3359025874
20
11.3196254690
30
0.0000000000
10
-7.3812192324
20
11.3356402383
30
0.0000000000
10
-7.4013346769
20
11.3456979606
30
0.0000000000
11
-7.1585676009
21
11.3089972696
31
0.0000000000
11
-7.1855107869
21
11.3069309929
31
0.0000000000
11
-7.2636950551
21
11.3089136740
31
0.0000000000
11
-7.3380628993
21
11.3222718606
31
0.0000000000
11
-7.4013346769
21
11.3456979606
31
0.0000000000
0
SPLINE
5
377
100
AcDbEntity
8
0
100
AcDbSpline
62
9
6
CONTINUOUS
70
0
71
3
72
15
73
11
74
9
42
0.0000001000
43
0.0000001000
44
0.0000000001
12
0.0659606582
22
1.9993040221
32
0.0000000000
13
1.6750990811
23
1.0969541355
33
0.0000000000
40
0.0000000000
40
0.0000000000
40
0.0000000000
40
0.0000000000
40
0.1216008012
40
0.2533107260
40
0.3919572328
40
0.5333699630
40
0.6732407717
40
0.8074357746
40
0.9322911304
40
1.0000000000
40
1.0000000000
40
1.0000000000
40
1.0000000000
10
-20.4120994508
20
17.8510803476
30
0.0000000000
10
-20.4094258278
20
17.9321193378
30
0.0000000000
10
-20.3916293916
20
18.1006756151
30
0.0000000000
10
-20.3316747789
20
18.3556800345
30
0.0000000000
10
-20.2375505080
20
18.6142809659
30
0.0000000000
10
-20.1120101643
20
18.8652547156
30
0.0000000000
10
-19.9600641249
20
19.0976643150
30
0.0000000000
10
-19.7884539397
20
19.3018187390
30
0.0000000000
10
-19.6275068841
20
19.4495962672
30
0.0000000000
10
-19.5232250298
20
19.5251159059
30
0.0000000000
10
-19.4854186747
20
19.5498737475
30
0.0000000000
11
-20.4120994508
21
17.8510803476
31
0.0000000000
11
-20.3875116886
21
18.0930837314
31
0.0000000000
11
-20.3278834456
21
18.3497190368
31
0.0000000000
11
-20.2333527092
21
18.6104593000
31
0.0000000000
11
-20.1068031115
21
18.8634549208
31
0.0000000000
11
-19.9533861271
21
19.0974405303
31
0.0000000000
11
-19.7801004214
21
19.3024612249
31
0.0000000000
11
-19.5953933108
21
19.4705777215
31
0.0000000000
11
-19.4854186747
21
19.5498737475
31
0.0000000000
0
SPLINE
5
378
100
AcDbEntity
8
0
100
AcDbSpline
62
9
6
CONTINUOUS
70
0
71
3
72
8
73
4
74
2
42
0.0000001000
43
0.0000001000
44
0.0000000001
12
0.0760466613
22
0.0497998599
32
0.0000000000
13
0.0790945574
23
0.0446240545
33
0.0000000000
40
0.0000000000
40
0.0000000000
40
0.0000000000
40
0.0000000000
40
1.0000000000
40
1.0000000000
40
1.0000000000
40
1.0000000000
10
-19.4854186747
20
19.5498737475
30
0.0000000000
10
-19.4600697876
20
19.5664737008
30
0.0000000000
10
-19.4342088176
20
19.5822661746
30
0.0000000000
10
-19.4078439651
20
19.5971408594
30
0.0000000000
11
-19.4854186747
21
19.5498737475
31
0.0000000000
11
-19.4078439651
21
19.5971408594
31
0.0000000000
0
SPLINE
5
379
100
AcDbEntity
8
0
100
AcDbSpline
62
9
6
CONTINUOUS
70
0
71
3
72
10
73
6
74
4
42
0.0000001000
43
0.0000001000
44
0.0000000001
12
-0.1426800641
22
-4.3247116283
32
0.0000000000
13
-0.1088836473
23
-4.3256944668
33
0.0000000000
40
0.0000000000
40
0.0000000000
40
0.0000000000
40
0.0000000000
40
0.3337590665
40
0.6670920104
40
1.0000000000
40
1.0000000000
40
1.0000000000
40
1.0000000000
10
-7.4013346769
20
11.3456979606
30
0.0000000000
10
-7.4172082653
20
10.8645607220
30
0.0000000000
10
-7.4476884125
20
9.9028589074
30
0.0000000000
10
-7.4896292870
20
8.4611124725
30
0.0000000000
10
-7.5150668996
20
7.5004920435
30
0.0000000000
10
-7.5271496449
20
7.0204726272
30
0.0000000000
11
-7.4013346769
21
11.3456979606
31
0.0000000000
11
-7.4470816520
21
9.9022256426
31
0.0000000000
11
-7.4890200321
21
8.4604822893
31
0.0000000000
11
-7.5271496449
21
7.0204726272
31
0.0000000000
0
SPLINE
5
37A
100
AcDbEntity
8
0
100
AcDbSpline
62
7
6
CONTINUOUS
70
0
71
3
72
9
73
5
74
3
42
0.0000001000
43
0.0000001000
44
0.0000000001
12
-0.0548696522
22
0.0324270828
32
0.0000000000
13
-0.0476532156
23
0.0423826879
33
0.0000000000
40
0.0000000000
40
0.0000000000
40
0.0000000000
40
0.0000000000
40
0.7508224114
40
1.0000000000
40
1.0000000000
40
1.0000000000
40
1.0000000000
10
-7.4227611546
20
6.9252032750
30
0.0000000000
10
-7.4364936095
20
6.9333189352
30
0.0000000000
10
-7.4539019996
20
6.9456638452
30
0.0000000000
10
-7.4700883700
20
6.9594558344
30
0.0000000000
10
-7.4740464078
20
6.9629761064
30
0.0000000000
11
-7.4227611546
21
6.9252032750
31
0.0000000000
11
-7.4619459340
21
6.9526723735
31
0.0000000000
11
-7.4740464078
21
6.9629761064
31
0.0000000000
0
SPLINE
5
37B
100
AcDbEntity
8
0
100
AcDbSpline
62
7
6
CONTINUOUS
70
0
71
3
72
9
73
5
74
3
42
0.0000001000
43
0.0000001000
44
0.0000000001
12
-0.0585764189
22
0.0520977662
32
0.0000000000
13
-0.0475371389
23
0.0622747962
33
0.0000000000
40
0.0000000000
40
0.0000000000
40
0.0000000000
40
0.0000000000
40
0.4032510336
40
1.0000000000
40
1.0000000000
40
1.0000000000
40
1.0000000000
10
-7.4740464078
20
6.9629761064
30
0.0000000000
10
-7.4819200750
20
6.9699789324
30
0.0000000000
10
-7.5007071598
20
6.9881654238
30
0.0000000000
10
-7.5176937321
20
7.0080851538
30
0.0000000000
10
-7.5271496449
20
7.0204726272
30
0.0000000000
11
-7.4740464078
21
6.9629761064
31
0.0000000000
11
-7.4967791139
21
6.9849282197
31
0.0000000000
11
-7.5271496449
21
7.0204726272
31
0.0000000000
0
SPLINE
5
37C
100
AcDbEntity
8
0
100
AcDbSpline
62
9
6
CONTINUOUS
70
0
71
3
72
10
73
6
74
4
42
0.0000001000
43
0.0000001000
44
0.0000000001
12
-0.0958665548
22
0.1588403769
32
0.0000000000
13
-0.1656994266
23
0.0828497175
33
0.0000000000
40
0.0000000000
40
0.0000000000
40
0.0000000000
40
0.0000000000
40
0.2376284740
40
0.6398027057
40
1.0000000000
40
1.0000000000
40
1.0000000000
40
1.0000000000
10
-6.2666914233
20
12.9629142668
30
0.0000000000
10
-6.2742849643
20
12.9754959323
30
0.0000000000
10
-6.2964899190
20
13.0083077238
30
0.0000000000
10
-6.3382879896
20
13.0542277527
30
0.0000000000
10
-6.3771843627
20
13.0818110579
30
0.0000000000
10
-6.3970791910
20
13.0917584726
30
0.0000000000
11
-6.2666914233
21
12.9629142668
31
0.0000000000
11
-6.2914051363
21
12.9993956902
31
0.0000000000
11
-6.3419991110
21
13.0540890941
31
0.0000000000
11
-6.3970791910
21
13.0917584726
31
0.0000000000
0
SPLINE
5
37D
100
AcDbEntity
8
0
100
AcDbSpline
62
9
6
CONTINUOUS
70
0
71
3
72
15
73
11
74
9
42
0.0000001000
43
0.0000001000
44
0.0000000001
12
-1.8213304204
22
-1.0275694137
32
0.0000000000
13
-0.0689551604
23
-2.0900690386
33
0.0000000000
40
0.0000000000
40
0.0000000000
40
0.0000000000
40
0.0000000000
40
0.1081952929
40
0.2276285798
40
0.3559959227
40
0.4897925894
40
0.6250642167
40
0.7576897490
40
0.8836799329
40
1.0000000000
40
1.0000000000
40
1.0000000000
40
1.0000000000
10
-6.3970791913
20
13.0917584725
30
0.0000000000
10
-6.4627656507
20
13.0546990813
30
0.0000000000
10
-6.5943809248
20
12.9647453570
30
0.0000000000
10
-6.7776891659
20
12.7964363521
30
0.0000000000
10
-6.9492993511
20
12.5922819281
30
0.0000000000
10
-7.1012453905
20
12.3598723287
30
0.0000000000
10
-7.2267857342
20
12.1088985790
30
0.0000000000
10
-7.3209100051
20
11.8502976475
30
0.0000000000
10
-7.3808646178
20
11.5952932282
30
0.0000000000
10
-7.3986610540
20
11.4267369509
30
0.0000000000
10
-7.4013346769
20
11.3456979606
30
0.0000000000
11
-6.3970791913
21
13.0917584725
31
0.0000000000
11
-6.5846285369
21
12.9651953346
31
0.0000000000
11
-6.7693356476
21
12.7970788380
31
0.0000000000
11
-6.9426213533
21
12.5920581434
31
0.0000000000
11
-7.0960383377
21
12.3580725339
31
0.0000000000
11
-7.2225879354
21
12.1050769131
31
0.0000000000
11
-7.3171186718
21
11.8443366499
31
0.0000000000
11
-7.3767469148
21
11.5877013445
31
0.0000000000
11
-7.4013346769
21
11.3456979606
31
0.0000000000
0
SPLINE
5
37E
100
AcDbEntity
8
0
100
AcDbSpline
62
9
6
CONTINUOUS
70
0
71
3
72
10
73
6
74
4
42
0.0000001000
43
0.0000001000
44
0.0000000001
12
-0.0034584266
22
-0.1216206841
32
0.0000000000
13
0.1067606141
23
-0.0533803106
33
0.0000000000
40
0.0000000000
40
0.0000000000
40
0.0000000000
40
0.0000000000
40
0.1716219808
40
0.5344523509
40
1.0000000000
40
1.0000000000
40
1.0000000000
40
1.0000000000
10
-20.4850640118
20
17.9387424254
30
0.0000000000
10
-20.4852618592
20
17.9317848312
30
0.0000000000
10
-20.4823281830
20
17.9099526826
30
0.0000000000
10
-20.4567997748
20
17.8770788328
30
0.0000000000
10
-20.4286668351
20
17.8593640401
30
0.0000000000
10
-20.4120994508
20
17.8510803474
30
0.0000000000
11
-20.4850640118
21
17.9387424254
31
0.0000000000
11
-20.4822733687
21
17.9182030114
31
0.0000000000
11
-20.4580818000
21
17.8822813675
31
0.0000000000
11
-20.4120994508
21
17.8510803474
31
0.0000000000
0
SPLINE
5
37F
100
AcDbEntity
8
0
100
AcDbSpline
62
7
6
CONTINUOUS
70
0
71
3
72
9
73
5
74
3
42
0.0000001000
43
0.0000001000
44
0.0000000001
12
-0.0824321919
22
-0.0747530991
32
0.0000000000
13
-0.0996975706
23
-0.0504470114
33
0.0000000000
40
0.0000000000
40
0.0000000000
40
0.0000000000
40
0.0000000000
40
0.7142558731
40
1.0000000000
40
1.0000000000
40
1.0000000000
40
1.0000000000
10
-7.2843596229
20
7.0080353099
30
0.0000000000
10
-7.3039855153
20
6.9902376966
30
0.0000000000
10
-7.3333528207
20
6.9673979886
30
0.0000000000
10
-7.3657814239
20
6.9488900411
30
0.0000000000
10
-7.3752774223
20
6.9440850620
30
0.0000000000
11
-7.2843596229
21
7.0080353099
31
0.0000000000
11
-7.3474988121
21
6.9598208027
31
0.0000000000
11
-7.3752774223
21
6.9440850620
31
0.0000000000
0
SPLINE
5
380
100
AcDbEntity
8
0
100
AcDbSpline
62
7
6
CONTINUOUS
70
0
71
3
72
10
73
6
74
4
42
0.0000001000
43
0.0000001000
44
0.0000000001
12
0.0548401962
22
-0.0112930332
32
0.0000000000
13
0.0541270925
23
0.0144740433
33
0.0000000000
40
0.0000000000
40
0.0000000000
40
0.0000000000
40
0.0000000000
40
0.2855267567
40
0.6805072245
40
1.0000000000
40
1.0000000000
40
1.0000000000
40
1.0000000000
10
-20.6024952209
20
13.5150703082
30
0.0000000000
10
-20.5972757732
20
13.5139954871
30
0.0000000000
10
-20.5843330657
20
13.5147812607
30
0.0000000000
10
-20.5660981597
20
13.5184309586
30
0.0000000000
10
-20.5531656317
20
13.5217180585
30
0.0000000000
10
-20.5474012267
20
13.5232595092
30
0.0000000000
11
-20.6024952209
21
13.5150703082
31
0.0000000000
11
-20.5865087485
21
13.5149537808
31
0.0000000000
11
-20.5647509344
21
13.5189141299
31
0.0000000000
11
-20.5474012267
21
13.5232595092
31
0.0000000000
0
SPLINE
5
381
100
AcDbEntity
8
0
100
AcDbSpline
62
7
6
CONTINUOUS
70
0
71
3
72
8
73
4
74
2
42
0.0000001000
43
0.0000001000
44
0.0000000001
12
0.0095036376
22
0.0025413533
32
0.0000000000
13
0.0094700605
23
0.0026389807
33
0.0000000000
40
0.0000000000
40
0.0000000000
40
0.0000000000
40
0.0000000000
40
1.0000000000
40
1.0000000000
40
1.0000000000
40
1.0000000000
10
-20.5474012267
20
13.5232595092
30
0.0000000000
10
-20.5442333475
20
13.5241066270
30
0.0000000000
10
-20.5410711056
20
13.5249753539
30
0.0000000000
10
-20.5379144188
20
13.5258550142
30
0.0000000000
11
-20.5474012267
21
13.5232595092
31
0.0000000000
11
-20.5379144188
21
13.5258550142
31
0.0000000000
0
SPLINE
5
382
100
AcDbEntity
8
0
100
AcDbSpline
62
9
6
CONTINUOUS
70
0
71
3
72
10
73
6
74
4
42
0.0000001000
43
0.0000001000
44
0.0000000001
12
0.1088836473
22
4.3256944668
32
0.0000000000
13
0.1426800641
23
4.3247116283
33
0.0000000000
40
0.0000000000
40
0.0000000000
40
0.0000000000
40
0.0000000000
40
0.3329079896
40
0.6662409335
40
1.0000000000
40
1.0000000000
40
1.0000000000
40
1.0000000000
10
-20.5379144188
20
13.5258550142
30
0.0000000000
10
-20.5258316734
20
14.0058744304
30
0.0000000000
10
-20.5003940608
20
14.9664948595
30
0.0000000000
10
-20.4584531864
20
16.4082412943
30
0.0000000000
10
-20.4279730391
20
17.3699431089
30
0.0000000000
10
-20.4120994508
20
17.8510803476
30
0.0000000000
11
-20.5379144188
21
13.5258550142
31
0.0000000000
11
-20.4997848059
21
14.9658646762
31
0.0000000000
11
-20.4578464258
21
16.4076080295
31
0.0000000000
11
-20.4120994508
21
17.8510803476
31
0.0000000000
0
SPLINE
5
383
100
AcDbEntity
8
0
100
AcDbSpline
62
7
6
CONTINUOUS
70
0
71
3
72
11
73
7
74
5
42
0.0000001000
43
0.0000001000
44
0.0000000001
12
0.2396703768
22
0.1194177922
32
0.0000000000
13
0.0000000000
23
0.2674352735
33
0.0000000000
40
0.0000000000
40
0.0000000000
40
0.0000000000
40
0.0000000000
40
0.1604268734
40
0.4454209176
40
0.7220007722
40
1.0000000000
40
1.0000000000
40
1.0000000000
40
1.0000000000
10
13.3505442469
20
-6.6967305402
30
0.0000000000
10
13.3633607700
20
-6.6903445991
30
0.0000000000
10
13.3980911913
20
-6.6709096702
30
0.0000000000
10
13.4492581572
20
-6.6309625626
30
0.0000000000
10
13.4946550323
20
-6.5699175024
30
0.0000000000
10
13.5070080422
20
-6.5199953540
30
0.0000000000
10
13.5070080422
20
-6.4952130875
30
0.0000000000
11
13.3505442469
21
-6.6967305402
31
0.0000000000
11
13.3879679570
21
-6.6756690931
31
0.0000000000
11
13.4474250828
21
-6.6279831263
31
0.0000000000
11
13.4901923605
21
-6.5676332467
31
0.0000000000
11
13.5070080422
21
-6.4952130875
31
0.0000000000
0
SPLINE
5
384
100
AcDbEntity
8
0
100
AcDbSpline
62
7
6
CONTINUOUS
70
0
71
3
72
10
73
6
74
4
42
0.0000001000
43
0.0000001000
44
0.0000000001
12
0.1237660608
22
0.0618830304
32
0.0000000000
13
0.1244168713
23
-0.0629527646
33
0.0000000000
40
0.0000000000
40
0.0000000000
40
0.0000000000
40
0.0000000000
40
0.4931032076
40
0.9267812438
40
1.0000000000
40
1.0000000000
40
1.0000000000
40
1.0000000000
10
1.9104568307
20
-8.6561819974
30
0.0000000000
10
1.9307999779
20
-8.6460104238
30
0.0000000000
10
1.9722050090
20
-8.6318350217
30
0.0000000000
10
2.0200247150
20
-8.6364705779
30
0.0000000000
10
2.0415078492
20
-8.6461347892
30
0.0000000000
10
2.0445443987
20
-8.6476712302
30
0.0000000000
11
1.9104568307
21
-8.6561819974
31
0.0000000000
11
1.9756846388
21
-8.6361551660
31
0.0000000000
11
2.0352440693
21
-8.6434955051
31
0.0000000000
11
2.0445443987
21
-8.6476712302
31
0.0000000000
0
SPLINE
5
385
100
AcDbEntity
8
0
100
AcDbSpline
62
7
6
CONTINUOUS
70
0
71
3
72
12
73
8
74
6
42
0.0000001000
43
0.0000001000
44
0.0000000001
12
0.0000000000
22
0.4409637184
32
0.0000000000
13
0.3944099400
23
0.1972049700
33
0.0000000000
40
0.0000000000
40
0.0000000000
40
0.0000000000
40
0.0000000000
40
0.1943894074
40
0.4051922094
40
0.6169088013
40
0.8200336078
40
1.0000000000
40
1.0000000000
40
1.0000000000
40
1.0000000000
10
13.5070080422
20
3.1176688945
30
0.0000000000
10
13.5070080422
20
3.1462417864
30
0.0000000000
10
13.5148996234
20
3.2058970972
30
0.0000000000
10
13.5449224953
20
3.2920036493
30
0.0000000000
10
13.5911850645
20
3.3721504307
30
0.0000000000
10
13.6491084115
20
3.4383871087
30
0.0000000000
10
13.6954798986
20
3.4717124438
30
0.0000000000
10
13.7191400765
20
3.4835425328
30
0.0000000000
11
13.5070080422
21
3.1176688945
31
0.0000000000
11
13.5173021877
21
3.2027672021
31
0.0000000000
11
13.5475365214
21
3.2906692785
31
0.0000000000
11
13.5943528380
21
3.3714417865
31
0.0000000000
11
13.6539122684
21
3.4383415561
31
0.0000000000
11
13.7191400765
21
3.4835425328
31
0.0000000000
0
SPLINE
5
386
100
AcDbEntity
8
0
100
AcDbSpline
62
7
6
CONTINUOUS
70
0
71
3
72
12
73
8
74
6
42
0.0000001000
43
0.0000001000
44
0.0000000001
12
0.3944099485
22
0.1972049743
32
0.0000000000
13
0.0000000000
23
0.4409637280
33
0.0000000000
40
0.0000000000
40
0.0000000000
40
0.0000000000
40
0.0000000000
40
0.1801238002
40
0.3827869496
40
0.5944974290
40
0.8057778055
40
1.0000000000
40
1.0000000000
40
1.0000000000
40
1.0000000000
10
14.3555361796
20
3.8017405843
30
0.0000000000
10
14.3792170525
20
3.8135810208
30
0.0000000000
10
14.4255485841
20
3.8468867919
30
0.0000000000
10
14.4834462302
20
3.9130800226
30
0.0000000000
10
14.5297315068
20
3.9932156654
30
0.0000000000
10
14.5597771310
20
4.0793652918
30
0.0000000000
10
14.5676682140
20
4.1390659083
30
0.0000000000
10
14.5676682140
20
4.1676142226
30
0.0000000000
11
14.3555361796
21
3.8017405843
31
0.0000000000
11
14.4208160895
21
3.8469882413
31
0.0000000000
11
14.4802447193
21
3.9137319013
31
0.0000000000
11
14.5270825147
21
3.9944888426
31
0.0000000000
11
14.5573909122
21
4.0825881483
31
0.0000000000
11
14.5676682140
21
4.1676142226
31
0.0000000000
0
SPLINE
5
387
100
AcDbEntity
8
0
100
AcDbSpline
62
7
6
CONTINUOUS
70
0
71
3
72
10
73
6
74
4
42
0.0000001000
43
0.0000001000
44
0.0000000001
12
0.0000000000
22
0.0000000000
32
0.0000000000
13
0.0000000000
23
0.1208712057
33
0.0000000000
40
0.0000000000
40
0.0000000000
40
0.0000000000
40
0.0000000000
40
0.1480306790
40
0.4704088707
40
1.0000000000
40
1.0000000000
40
1.0000000000
40
1.0000000000
10
2.1225888651
20
-12.3091769778
30
0.0000000000
10
2.1225888651
20
-12.3091769778
30
0.0000000000
10
2.1225888651
20
-12.2763041007
30
0.0000000000
10
2.1225888651
20
-12.2474991022
30
0.0000000000
10
2.1225888651
20
-12.2087601155
30
0.0000000000
10
2.1225888651
20
-12.1874226761
30
0.0000000000
11
2.1225888651
21
-12.3091769778
31
0.0000000000
11
2.1225888651
21
-12.2904012352
31
0.0000000000
11
2.1225888651
21
-12.2514349944
31
0.0000000000
11
2.1225888651
21
-12.1874226761
31
0.0000000000
0
SPLINE
5
388
100
AcDbEntity
8
0
100
AcDbSpline
62
7
6
CONTINUOUS
70
0
71
3
72
10
73
6
74
4
42
0.0000001000
43
0.0000001000
44
0.0000000001
12
0.1693283326
22
-0.0856771800
32
0.0000000000
13
0.0000000000
23
-0.1883245468
33
0.0000000000
40
0.0000000000
40
0.0000000000
40
0.0000000000
40
0.0000000000
40
0.2532996538
40
0.5990477411
40
1.0000000000
40
1.0000000000
40
1.0000000000
40
1.0000000000
10
2.0445443987
20
-8.6476712302
30
0.0000000000
10
2.0588413347
20
-8.6549052302
30
0.0000000000
10
2.0891624842
20
-8.6793790529
30
0.0000000000
10
2.1171574755
20
-8.7375025463
30
0.0000000000
10
2.1225888651
20
-8.7847538838
30
0.0000000000
10
2.1225888651
20
-8.8099236013
30
0.0000000000
11
2.0445443987
21
-8.6476712302
31
0.0000000000
11
2.0820603858
21
-8.6774516965
31
0.0000000000
11
2.1122947195
21
-8.7351194392
31
0.0000000000
11
2.1225888651
21
-8.8099236013
31
0.0000000000
0
SPLINE
5
389
100
AcDbEntity
8
0
100
AcDbSpline
62
7
6
CONTINUOUS
70
0
71
3
72
10
73
6
74
4
42
0.0000001000
43
0.0000001000
44
0.0000000001
12
0.2068514505
22
0.1034257252
32
0.0000000000
13
0.2086230066
23
-0.1039838077
33
0.0000000000
40
0.0000000000
40
0.0000000000
40
0.0000000000
40
0.0000000000
40
0.4130410095
40
0.7863529120
40
1.0000000000
40
1.0000000000
40
1.0000000000
40
1.0000000000
10
2.4054315776
20
9.9497993385
30
0.0000000000
10
2.4339109549
20
9.9640390272
30
0.0000000000
10
2.4917490072
20
9.9850558024
30
0.0000000000
10
2.5707319673
20
9.9863903152
30
0.0000000000
10
2.6142246940
20
9.9712946669
30
0.0000000000
10
2.6290819266
20
9.9638893877
30
0.0000000000
11
2.4054315776
21
9.9497993385
31
0.0000000000
11
2.4958493840
21
9.9806086433
31
0.0000000000
11
2.5821830269
21
9.9801802112
31
0.0000000000
11
2.6290819266
21
9.9638893877
31
0.0000000000
0
SPLINE
5
38A
100
AcDbEntity
8
0
100
AcDbSpline
62
7
6
CONTINUOUS
70
0
71
3
72
11
73
7
74
5
42
0.0000001000
43
0.0000001000
44
0.0000000001
12
0.0000000000
22
0.3143765183
32
0.0000000000
13
-0.2835889695
23
0.1413815624
33
0.0000000000
40
0.0000000000
40
0.0000000000
40
0.0000000000
40
0.0000000000
40
0.3356395771
40
0.6374111666
40
0.9023475864
40
1.0000000000
40
1.0000000000
40
1.0000000000
40
1.0000000000
10
4.1731985305
20
11.5265031380
30
0.0000000000
10
4.1731985305
20
11.5616755386
30
0.0000000000
10
4.1666455214
20
11.6288273678
30
0.0000000000
10
4.1325758284
20
11.7186208917
30
0.0000000000
10
4.0854180010
20
11.7723946703
30
0.0000000000
10
4.0525378944
20
11.7922205778
30
0.0000000000
10
4.0433068452
20
11.7968226614
30
0.0000000000
11
4.1731985305
21
11.5265031380
31
0.0000000000
11
4.1614413077
21
11.6313632713
31
0.0000000000
11
4.1258459322
21
11.7193022699
31
0.0000000000
11
4.0697303484
21
11.7808508706
31
0.0000000000
11
4.0433068452
21
11.7968226614
31
0.0000000000
0
SPLINE
5
38B
100
AcDbEntity
8
0
100
AcDbSpline
62
7
6
CONTINUOUS
70
0
71
3
72
8
73
4
74
2
42
0.0000001000
43
0.0000001000
44
0.0000000001
12
-0.0793620272
22
0.0728329608
32
0.0000000000
13
-0.0962311087
23
0.0481727015
33
0.0000000000
40
0.0000000000
40
0.0000000000
40
0.0000000000
40
0.0000000000
40
1.0000000000
40
1.0000000000
40
1.0000000000
40
1.0000000000
10
12.7696934209
20
13.8732923498
30
0.0000000000
10
12.7432394119
20
13.8975700034
30
0.0000000000
10
12.7135181824
20
13.9183627374
30
0.0000000000
10
12.6814411461
20
13.9344203045
30
0.0000000000
11
12.7696934209
21
13.8732923498
31
0.0000000000
11
12.6814411461
21
13.9344203045
31
0.0000000000
0
SPLINE
5
38C
100
AcDbEntity
8
0
100
AcDbSpline
62
7
6
CONTINUOUS
70
0
71
3
72
10
73
6
74
4
42
0.0000001000
43
0.0000001000
44
0.0000000001
12
-0.2086280326
22
0.1040102415
32
0.0000000000
13
-0.2068609055
23
-0.1034304528
33
0.0000000000
40
0.0000000000
40
0.0000000000
40
0.0000000000
40
0.0000000000
40
0.2130760283
40
0.5871146623
40
1.0000000000
40
1.0000000000
40
1.0000000000
40
1.0000000000
10
4.0433068452
20
11.7968226614
30
0.0000000000
10
4.0284889677
20
11.8042100244
30
0.0000000000
10
3.9849914064
20
11.8193295915
30
0.0000000000
10
3.9059945307
20
11.8180092738
30
0.0000000000
10
3.8481150849
20
11.7969741171
30
0.0000000000
10
3.8196451399
20
11.7827391446
30
0.0000000000
11
4.0433068452
21
11.7968226614
31
0.0000000000
11
3.9965369627
21
11.8130909113
31
0.0000000000
11
3.9100314146
21
11.8135428977
31
0.0000000000
11
3.8196451399
21
11.7827391446
31
0.0000000000
0
SPLINE
5
38D
100
AcDbEntity
8
0
100
AcDbSpline
62
7
6
CONTINUOUS
70
0
71
3
72
11
73
7
74
5
42
0.0000001000
43
0.0000001000
44
0.0000000001
12
0.2836051867
22
-0.1413571191
32
0.0000000000
13
-0.0000000000
23
-0.3143876997
33
0.0000000000
40
0.0000000000
40
0.0000000000
40
0.0000000000
40
0.0000000000
40
0.0970275296
40
0.3621276886
40
0.6644842065
40
1.0000000000
40
1.0000000000
40
1.0000000000
40
1.0000000000
10
2.6290819266
20
9.9638893877
30
0.0000000000
10
2.6382544302
20
9.9593175436
30
0.0000000000
10
2.6711030930
20
9.9395364916
30
0.0000000000
10
2.7183211981
20
9.8857875678
30
0.0000000000
10
2.7524292773
20
9.7959251012
30
0.0000000000
10
2.7589849681
20
9.7287240114
30
0.0000000000
10
2.7589849681
20
9.6935633319
30
0.0000000000
11
2.6290819266
21
9.9638893877
31
0.0000000000
11
2.6553463400
21
9.9480345943
31
0.0000000000
11
2.7115512976
21
9.8864938494
31
0.0000000000
11
2.7472360851
21
9.7983890168
31
0.0000000000
11
2.7589849681
21
9.6935633319
31
0.0000000000
0
SPLINE
5
38E
100
AcDbEntity
8
0
100
AcDbSpline
62
7
6
CONTINUOUS
70
0
71
3
72
10
73
6
74
4
42
0.0000001000
43
0.0000001000
44
0.0000000001
12
-0.1665377100
22
0.0833677539
32
0.0000000000
13
-0.1860381753
23
-0.0000409498
33
0.0000000000
40
0.0000000000
40
0.0000000000
40
0.0000000000
40
0.0000000000
40
0.0320592269
40
0.7863437130
40
1.0000000000
40
1.0000000000
40
1.0000000000
40
1.0000000000
10
12.6814411461
20
13.9344203045
30
0.0000000000
10
12.6796614561
20
13.9353112064
30
0.0000000000
10
12.6358316270
20
13.9568055939
30
0.0000000000
10
12.5746638237
20
13.9728251058
30
0.0000000000
10
12.5146419620
20
13.9754373738
30
0.0000000000
10
12.5013925534
20
13.9754344574
30
0.0000000000
11
12.6814411461
21
13.9344203045
31
0.0000000000
11
12.6760804765
21
13.9370490690
31
0.0000000000
11
12.5410998387
21
13.9736559293
31
0.0000000000
11
12.5013925534
21
13.9754344574
31
0.0000000000
0
SPLINE
5
38F
100
AcDbEntity
8
0
100
AcDbSpline
62
7
6
CONTINUOUS
70
0
71
3
72
10
73
6
74
4
42
0.0000001000
43
0.0000001000
44
0.0000000001
12
0.0104626218
22
-1.3810145260
32
0.0000000000
13
0.0140765267
23
-1.3809824588
33
0.0000000000
40
0.0000000000
40
0.0000000000
40
0.0000000000
40
0.0000000000
40
0.3423038382
40
0.7860574626
40
1.0000000000
40
1.0000000000
40
1.0000000000
40
1.0000000000
10
-11.3661405979
20
-8.6346917809
30
0.0000000000
10
-11.3649467994
20
-8.7922673052
30
0.0000000000
10
-11.3620436486
20
-9.1541183574
30
0.0000000000
10
-11.3578771848
20
-9.6144509636
30
0.0000000000
10
-11.3548760796
20
-9.9172074547
30
0.0000000000
10
-11.3538722237
20
-10.0156910851
30
0.0000000000
11
-11.3661405979
21
-8.6346917809
31
0.0000000000
11
-11.3623478035
21
-9.1074167021
31
0.0000000000
11
-11.3568009433
21
-9.7202393635
31
0.0000000000
11
-11.3538722237
21
-10.0156910851
31
0.0000000000
0
SPLINE
5
390
100
AcDbEntity
8
0
100
AcDbSpline
62
7
6
CONTINUOUS
70
0
71
3
72
10
73
6
74
4
42
0.0000001000
43
0.0000001000
44
0.0000000001
12
0.0118626281
22
-1.1637871841
32
0.0000000000
13
0.0144386204
23
-1.1637581018
33
0.0000000000
40
0.0000000000
40
0.0000000000
40
0.0000000000
40
0.0000000000
40
0.3435831607
40
0.8078026958
40
1.0000000000
40
1.0000000000
40
1.0000000000
40
1.0000000000
10
-12.1670450220
20
-9.6091046858
30
0.0000000000
10
-12.1656864223
20
-9.7423905788
30
0.0000000000
10
-12.1623732417
20
-10.0557595197
30
0.0000000000
10
-12.1579251369
20
-10.4436832806
30
0.0000000000
10
-12.1548201422
20
-10.6983207606
30
0.0000000000
10
-12.1538951209
20
-10.7728778172
30
0.0000000000
11
-12.1670450220
21
-9.6091046858
31
0.0000000000
11
-12.1628173729
21
-10.0089607861
31
0.0000000000
11
-12.1566225366
21
-10.5492060627
31
0.0000000000
11
-12.1538951209
21
-10.7728778172
31
0.0000000000
0
SPLINE
5
391
100
AcDbEntity
8
0
100
AcDbSpline
62
7
6
CONTINUOUS
70
0
71
3
72
8
73
4
74
2
42
0.0000001000
43
0.0000001000
44
0.0000000001
12
-0.0000177355
22
-0.0030877548
32
0.0000000000
13
-0.0000177179
23
-0.0030877549
33
0.0000000000
40
0.0000000000
40
0.0000000000
40
0.0000000000
40
0.0000000000
40
1.0000000000
40
1.0000000000
40
1.0000000000
40
1.0000000000
10
-9.3925994808
20
-2.5090276058
30
0.0000000000
10
-9.3926053927
20
-2.5100568574
30
0.0000000000
10
-9.3926113016
20
-2.5110861090
30
0.0000000000
10
-9.3926172075
20
-2.5121153606
30
0.0000000000
11
-9.3925994808
21
-2.5090276058
31
0.0000000000
11
-9.3926172075
21
-2.5121153606
31
0.0000000000
0
SPLINE
5
392
100
AcDbEntity
8
0
100
AcDbSpline
62
7
6
CONTINUOUS
70
0
71
3
72
8
73
4
74
2
42
0.0000001000
43
0.0000001000
44
0.0000000001
12
-0.0000078375
22
-0.0013658615
32
0.0000000000
13
-0.0000078340
23
-0.0013658615
33
0.0000000000
40
0.0000000000
40
0.0000000000
40
0.0000000000
40
0.0000000000
40
1.0000000000
40
1.0000000000
40
1.0000000000
40
1.0000000000
10
-9.3926172075
20
-2.5121153606
30
0.0000000000
10
-9.3926198200
20
-2.5125706478
30
0.0000000000
10
-9.3926224319
20
-2.5130259350
30
0.0000000000
10
-9.3926250433
20
-2.5134812222
30
0.0000000000
11
-9.3926172075
21
-2.5121153606
31
0.0000000000
11
-9.3926250433
21
-2.5134812222
31
0.0000000000
0
SPLINE
5
393
100
AcDbEntity
8
0
100
AcDbSpline
62
7
6
CONTINUOUS
70
0
71
3
72
10
73
6
74
4
42
0.0000001000
43
0.0000001000
44
0.0000000001
12
-0.0407862262
22
-7.1110938938
32
0.0000000000
13
0.0538732903
23
-7.1110067504
33
0.0000000000
40
0.0000000000
40
0.0000000000
40
0.0000000000
40
0.0000000000
40
0.3186132457
40
0.6821031291
40
1.0000000000
40
1.0000000000
40
1.0000000000
40
1.0000000000
10
-9.3926250433
20
-2.5134812222
30
0.0000000000
10
-9.3969567206
20
-3.2687107908
30
0.0000000000
10
-9.4028361048
20
-4.8855654453
30
0.0000000000
10
-9.4007342540
20
-7.2559755002
30
0.0000000000
10
-9.3919503277
20
-8.8711190132
30
0.0000000000
10
-9.3862416109
20
-9.6246412782
30
0.0000000000
11
-9.3926250433
21
-2.5134812222
31
0.0000000000
11
-9.4008536803
21
-4.7791920986
31
0.0000000000
11
-9.3985462966
21
-7.3640432324
31
0.0000000000
11
-9.3862416109
21
-9.6246412782
31
0.0000000000
0
SPLINE
5
394
100
AcDbEntity
8
0
100
AcDbSpline
62
7
6
CONTINUOUS
70
0
71
3
72
8
73
4
74
2
42
0.0000001000
43
0.0000001000
44
0.0000000001
12
4.2404670984
22
3.0482730079
32
0.0000000000
13
4.2404670984
23
3.0482730079
33
0.0000000000
40
0.0000000000
40
0.0000000000
40
0.0000000000
40
0.0000000000
40
1.0000000000
40
1.0000000000
40
1.0000000000
40
1.0000000000
10
1.1273040392
20
15.4940451040
30
0.0000000000
10
2.5407930720
20
16.5101361066
30
0.0000000000
10
3.9542821048
20
17.5262271092
30
0.0000000000
10
5.3677711376
20
18.5423181118
30
0.0000000000
11
1.1273040392
21
15.4940451040
31
0.0000000000
11
5.3677711376
21
18.5423181118
31
0.0000000000
0
SPLINE
5
395
100
AcDbEntity
8
0
100
AcDbSpline
62
7
6
CONTINUOUS
70
0
71
3
72
21
73
17
74
15
42
0.0000001000
43
0.0000001000
44
0.0000000001
12
0.6174460174
22
0.1743976524
32
0.0000000000
13
0.0000000000
23
-0.6399288064
33
0.0000000000
40
0.0000000000
40
0.0000000000
40
0.0000000000
40
0.0000000000
40
0.0315201537
40
0.0859866308
40
0.1444633242
40
0.2076753134
40
0.2759595838
40
0.3491935247
40
0.4266288474
40
0.5076805248
40
0.5909974565
40
0.6756339104
40
0.7600791494
40
0.8431241970
40
0.9234751499
40
1.0000000000
40
1.0000000000
40
1.0000000000
40
1.0000000000
10
5.0696656908
20
-15.5289309280
30
0.0000000000
10
5.0761530219
20
-15.5270985811
30
0.0000000000
10
5.0942343506
20
-15.5234439608
30
0.0000000000
10
5.1253161757
20
-15.5233374012
30
0.0000000000
10
5.1623099183
20
-15.5311823373
30
0.0000000000
10
5.1999654163
20
-15.5466521703
30
0.0000000000
10
5.2374693562
20
-15.5693122024
30
0.0000000000
10
5.2739900328
20
-15.5986181188
30
0.0000000000
10
5.3087298767
20
-15.6339221561
30
0.0000000000
10
5.3408496937
20
-15.6743956718
30
0.0000000000
10
5.3696103585
20
-15.7191503173
30
0.0000000000
10
5.3942743312
20
-15.7671002356
30
0.0000000000
10
5.4142289071
20
-15.8171315557
30
0.0000000000
10
5.4289424336
20
-15.8680042769
30
0.0000000000
10
5.4380213676
20
-15.9184632240
30
0.0000000000
10
5.4402078066
20
-15.9519510677
30
0.0000000000
10
5.4402078066
20
-15.9682745531
30
0.0000000000
11
5.0696656908
21
-15.5289309280
31
0.0000000000
11
5.0894654866
21
-15.5249017925
31
0.0000000000
11
5.1243181658
21
-15.5245294828
31
0.0000000000
11
5.1609841260
21
-15.5320082967
31
0.0000000000
11
5.1985033632
21
-15.5471279601
31
0.0000000000
11
5.2360226005
21
-15.5695275340
31
0.0000000000
11
5.2726885607
21
-15.5987146802
31
0.0000000000
11
5.3075412399
21
-15.6339396691
31
0.0000000000
11
5.3398560845
21
-15.6745101998
31
0.0000000000
11
5.3687229171
21
-15.7193365123
31
0.0000000000
11
5.3935061378
21
-15.7674949894
31
0.0000000000
11
5.4134976533
21
-15.8177000336
31
0.0000000000
11
5.4281938487
21
-15.8687704907
31
0.0000000000
11
5.4371823763
21
-15.9193976431
31
0.0000000000
11
5.4402078066
21
-15.9682745531
31
0.0000000000
0
SPLINE
5
396
100
AcDbEntity
8
0
100
AcDbSpline
62
7
6
CONTINUOUS
70
0
71
3
72
8
73
4
74
2
42
0.0000001000
43
0.0000001000
44
0.0000000001
12
-3.9370245895
22
-1.1131132258
32
0.0000000000
13
-3.9370245895
23
-1.1131132258
33
0.0000000000
40
0.0000000000
40
0.0000000000
40
0.0000000000
40
0.0000000000
40
1.0000000000
40
1.0000000000
40
1.0000000000
40
1.0000000000
10
5.0696639609
20
-15.5289275440
30
0.0000000000
10
3.7573224311
20
-15.8999652859
30
0.0000000000
10
2.4449809013
20
-16.2710030278
30
0.0000000000
10
1.1326393714
20
-16.6420407697
30
0.0000000000
11
5.0696639609
21
-15.5289275440
31
0.0000000000
11
1.1326393714
21
-16.6420407697
31
0.0000000000
0
SPLINE
5
397
100
AcDbEntity
8
0
100
AcDbSpline
62
7
6
CONTINUOUS
70
0
71
3
72
15
73
11
74
9
42
0.0000001000
43
0.0000001000
44
0.0000000001
12
-0.0000000000
22
0.2765187015
32
0.0000000000
13
-0.2476701277
23
0.1238065108
33
0.0000000000
40
0.0000000000
40
0.0000000000
40
0.0000000000
40
0.0000000000
40
0.1372038061
40
0.2753693855
40
0.4143226051
40
0.5538334203
40
0.6936450402
40
0.8334813200
40
0.9730599772
40
1.0000000000
40
1.0000000000
40
1.0000000000
40
1.0000000000
10
0.6724442284
20
-24.0126711202
30
0.0000000000
10
0.6724442284
20
-24.0000246474
30
0.0000000000
10
0.6705109224
20
-23.9746010359
30
0.0000000000
10
0.6618307949
20
-23.9372651647
30
0.0000000000
10
0.6474661995
20
-23.9014854575
30
0.0000000000
10
0.6276998870
20
-23.8682059882
30
0.0000000000
10
0.6029919711
20
-23.8383039348
30
0.0000000000
10
0.5739617222
20
-23.8125644898
30
0.0000000000
10
0.5501098323
20
-23.7972502997
30
0.0000000000
10
0.5364651837
20
-23.7901733379
30
0.0000000000
10
0.5342411040
20
-23.7890615545
30
0.0000000000
11
0.6724442284
21
-24.0126711202
31
0.0000000000
11
0.6695654295
21
-23.9748410795
31
0.0000000000
11
0.6609154053
21
-23.9376278141
31
0.0000000000
11
0.6465993904
21
-23.9019712406
31
0.0000000000
11
0.6268995549
21
-23.8688030574
31
0.0000000000
11
0.6022734083
21
-23.8390005525
31
0.0000000000
11
0.5733413409
21
-23.8133471090
31
0.0000000000
11
0.5408623513
21
-23.7924958532
31
0.0000000000
11
0.5342411040
21
-23.7890615545
31
0.0000000000
0
SPLINE
5
398
100
AcDbEntity
8
0
100
AcDbSpline
62
7
6
CONTINUOUS
70
0
71
3
72
15
73
11
74
9
42
0.0000001000
43
0.0000001000
44
0.0000000001
12
0.2439506744
22
0.1251622801
32
0.0000000000
13
-0.0000014006
23
0.2741811332
33
0.0000000000
40
0.0000000000
40
0.0000000000
40
0.0000000000
40
0.0000000000
40
0.0876378359
40
0.2288019426
40
0.3706942186
40
0.5134365948
40
0.6570525146
40
0.8015690353
40
0.9468109337
40
1.0000000000
40
1.0000000000
40
1.0000000000
40
1.0000000000
10
0.5365638985
20
-24.5826362660
30
0.0000000000
10
0.5436903349
20
-24.5789799489
30
0.0000000000
10
0.5618344910
20
-24.5685415187
30
0.0000000000
10
0.5889384887
20
-24.5480422717
30
0.0000000000
10
0.6160557803
20
-24.5199655000
30
0.0000000000
10
0.6386095903
20
-24.4878287735
30
0.0000000000
10
0.6559663353
20
-24.4523422602
30
0.0000000000
10
0.6675908297
20
-24.4143462175
30
0.0000000000
10
0.6719155785
20
-24.3831981332
30
0.0000000000
10
0.6724442483
20
-24.3650634469
30
0.0000000000
10
0.6724442235
20
-24.3602023007
30
0.0000000000
11
0.5365638985
21
-24.5826362660
31
0.0000000000
11
0.5573822413
21
-24.5706586481
31
0.0000000000
11
0.5882212890
21
-24.5473335167
31
0.0000000000
11
0.6152220992
21
-24.5193776743
31
0.0000000000
11
0.6376825334
21
-24.4873736716
31
0.0000000000
11
0.6549665891
21
-24.4520359194
31
0.0000000000
11
0.6665469594
21
-24.4141827879
31
0.0000000000
11
0.6720190239
21
-24.3747773214
31
0.0000000000
11
0.6724442235
21
-24.3602023007
31
0.0000000000
0
SPLINE
5
399
100
AcDbEntity
8
0
100
AcDbSpline
62
7
6
CONTINUOUS
70
0
71
3
72
13
73
9
74
7
42
0.0000001000
43
0.0000001000
44
0.0000000001
12
0.2050220842
22
-0.1025016079
32
0.0000000000
13
0.2060829017
23
0.1003804627
33
0.0000000000
40
0.0000000000
40
0.0000000000
40
0.0000000000
40
0.0000000000
40
0.1540119293
40
0.3230916615
40
0.4931832018
40
0.6643140495
40
0.8365165073
40
1.0000000000
40
1.0000000000
40
1.0000000000
40
1.0000000000
10
-1.8168501383
20
-25.6338266028
30
0.0000000000
10
-1.8063248560
20
-25.6390887596
30
0.0000000000
10
-1.7834623134
20
-25.6485689470
30
0.0000000000
10
-1.7467927685
20
-25.6577335455
30
0.0000000000
10
-1.7078371770
20
-25.6612262186
30
0.0000000000
10
-1.6685724033
20
-25.6585903989
30
0.0000000000
10
-1.6306985384
20
-25.6499447764
30
0.0000000000
10
-1.6067935395
20
-25.6404416492
30
0.0000000000
10
-1.5955631553
20
-25.6349714663
30
0.0000000000
11
-1.8168501383
21
-25.6338266028
31
0.0000000000
11
-1.7842649058
21
-25.6473369167
31
0.0000000000
11
-1.7467006456
21
-25.6567253564
31
0.0000000000
11
-1.7079048243
21
-25.6602035194
31
0.0000000000
11
-1.6688033961
21
-25.6575787281
31
0.0000000000
11
-1.6303576202
21
-25.6488021648
31
0.0000000000
11
-1.5955631553
21
-25.6349714663
31
0.0000000000
0
SPLINE
5
39A
100
AcDbEntity
8
0
100
AcDbSpline
62
7
6
CONTINUOUS
70
0
71
3
72
14
73
10
74
8
42
0.0000001000
43
0.0000001000
44
0.0000000001
12
0.0000000000
22
-0.2764437653
32
0.0000000000
13
0.2475925103
23
-0.1237730878
33
0.0000000000
40
0.0000000000
40
0.0000000000
40
0.0000000000
40
0.0000000000
40
0.1550886622
40
0.3119188690
40
0.4696359821
40
0.6278490431
40
0.7864071094
40
0.9450859973
40
1.0000000000
40
1.0000000000
40
1.0000000000
40
1.0000000000
10
-3.2800315354
20
-24.7477275160
30
0.0000000000
10
-3.2800315354
20
-24.7620186139
30
0.0000000000
10
-3.2775549213
20
-24.7908218961
30
0.0000000000
10
-3.2664356839
20
-24.8328603843
30
0.0000000000
10
-3.2480771897
20
-24.8726145192
30
0.0000000000
10
-3.2229896907
20
-24.9086967222
30
0.0000000000
10
-3.1919278897
20
-24.9399134001
30
0.0000000000
10
-3.1637201127
20
-24.9597238772
30
0.0000000000
10
-3.1463596080
20
-24.9690715936
30
0.0000000000
10
-3.1418275094
20
-24.9713372188
30
0.0000000000
11
-3.2800315354
21
-24.7477275160
31
0.0000000000
11
-3.2763552967
21
-24.7904429065
31
0.0000000000
11
-3.2652715534
21
-24.8323569076
31
0.0000000000
11
-3.2469909971
21
-24.8719393993
31
0.0000000000
11
-3.2220234474
21
-24.9078496747
31
0.0000000000
11
-3.1911064259
21
-24.9389208204
31
0.0000000000
11
-3.1552088667
21
-24.9641313877
31
0.0000000000
11
-3.1418275094
21
-24.9713372188
31
0.0000000000
0
SPLINE
5
39B
100
AcDbEntity
8
0
100
AcDbSpline
62
7
6
CONTINUOUS
70
0
71
3
72
10
73
6
74
4
42
0.0000001000
43
0.0000001000
44
0.0000000001
12
-0.0630782860
22
0.0131708046
32
0.0000000000
13
-0.0576482341
23
0.0288264877
33
0.0000000000
40
0.0000000000
40
0.0000000000
40
0.0000000000
40
0.0000000000
40
0.3605731417
40
0.7227503039
40
1.0000000000
40
1.0000000000
40
1.0000000000
40
1.0000000000
10
-1.7561450847
20
15.9846359853
30
0.0000000000
10
-1.7637265300
20
15.9862189981
30
0.0000000000
10
-1.7787852350
20
15.9901013919
30
0.0000000000
10
-1.7990220743
20
15.9973856271
30
0.0000000000
10
-1.8115331981
20
16.0030927278
30
0.0000000000
10
-1.8168608499
20
16.0057567728
30
0.0000000000
11
-1.7561450847
21
15.9846359853
31
0.0000000000
11
-1.7786441634
21
15.9904368157
31
0.0000000000
11
-1.8006031529
21
15.9983409152
31
0.0000000000
11
-1.8168608499
21
16.0057567728
31
0.0000000000
0
SPLINE
5
39C
100
AcDbEntity
8
0
100
AcDbSpline
62
7
6
CONTINUOUS
70
0
71
3
72
15
73
11
74
9
42
0.0000001000
43
0.0000001000
44
0.0000000001
12
0.2475544838
22
-0.1237895513
32
0.0000000000
13
-0.0000014603
23
-0.2767702945
33
0.0000000000
40
0.0000000000
40
0.0000000000
40
0.0000000000
40
0.0000000000
40
0.0928271037
40
0.2331953172
40
0.3743023787
40
0.5162612877
40
0.6590952351
40
0.8028330546
40
0.9473090579
40
1.0000000000
40
1.0000000000
40
1.0000000000
40
1.0000000000
10
0.5342539935
20
17.8580682117
30
0.0000000000
10
0.5419139154
20
17.8542378699
30
0.0000000000
10
0.5606591163
20
17.8436283213
30
0.0000000000
10
0.5883571833
20
17.8228280614
30
0.0000000000
10
0.6156586593
20
17.7947198567
30
0.0000000000
10
0.6383725432
20
17.7625072339
30
0.0000000000
10
0.6558553501
20
17.7269075548
30
0.0000000000
10
0.6675640564
20
17.6887690060
30
0.0000000000
10
0.6719139952
20
17.6575146127
30
0.0000000000
10
0.6724442498
20
17.6393252824
30
0.0000000000
10
0.6724442241
20
17.6344641866
30
0.0000000000
11
0.5342539935
21
17.8580682117
31
0.0000000000
11
0.5566016338
21
17.8454190111
31
0.0000000000
11
0.5876359102
21
17.8221123664
31
0.0000000000
11
0.6148197959
21
17.7941255551
31
0.0000000000
11
0.6374389241
21
17.7620469831
31
0.0000000000
11
0.6548478658
21
17.7265978596
31
0.0000000000
11
0.6665115010
21
17.6886047839
31
0.0000000000
11
0.6720190333
21
17.6490390598
31
0.0000000000
11
0.6724442241
21
17.6344641866
31
0.0000000000
0
SPLINE
5
39D
100
AcDbEntity
8
0
100
AcDbSpline
62
7
6
CONTINUOUS
70
0
71
3
72
12
73
8
74
6
42
0.0000001000
43
0.0000001000
44
0.0000000001
12
0.0000000000
22
-0.1717800015
32
0.0000000000
13
-0.1091598300
23
-0.1328577590
33
0.0000000000
40
0.0000000000
40
0.0000000000
40
0.0000000000
40
0.0000000000
40
0.2203789968
40
0.4423990769
40
0.6656689359
40
0.8898016135
40
1.0000000000
40
1.0000000000
40
1.0000000000
40
1.0000000000
10
0.6724442284
20
17.2869330192
30
0.0000000000
10
0.6724442284
20
17.2743141178
30
0.0000000000
10
0.6705189595
20
17.2489406058
30
0.0000000000
10
0.6618729261
20
17.2116726482
30
0.0000000000
10
0.6475614475
20
17.1759488524
30
0.0000000000
10
0.6312206847
20
17.1483720119
30
0.0000000000
10
0.6196161764
20
17.1331053592
30
0.0000000000
10
0.6156064307
20
17.1282251223
30
0.0000000000
11
0.6724442284
21
17.2869330192
31
0.0000000000
11
0.6695779682
21
17.2491849779
31
0.0000000000
11
0.6609603598
21
17.2120327186
31
0.0000000000
11
0.6466967101
21
17.1764304200
31
0.0000000000
11
0.6270697759
21
17.1433071675
31
0.0000000000
11
0.6156064307
21
17.1282251223
31
0.0000000000
0
SPLINE
5
39E
100
AcDbEntity
8
0
100
AcDbSpline
62
7
6
CONTINUOUS
70
0
71
3
72
13
73
9
74
7
42
0.0000001000
43
0.0000001000
44
0.0000000001
12
0.2058509839
22
0.1002765354
32
0.0000000000
13
0.2050420785
23
-0.1025286694
33
0.0000000000
40
0.0000000000
40
0.0000000000
40
0.0000000000
40
0.0000000000
40
0.1774292252
40
0.3593739775
40
0.5423737539
40
0.7260526449
40
0.9117680367
40
1.0000000000
40
1.0000000000
40
1.0000000000
40
1.0000000000
10
-1.0243656039
20
18.5278793139
30
0.0000000000
10
-1.0121909438
20
18.5338099766
30
0.0000000000
10
-0.9865052124
20
18.5438324832
30
0.0000000000
10
-0.9458128512
20
18.5523845031
30
0.0000000000
10
-0.9037732696
20
18.5540624904
30
0.0000000000
10
-0.8617605927
20
18.5486445995
30
0.0000000000
10
-0.8282051061
20
18.5383523367
30
0.0000000000
10
-0.8091031434
20
18.5297464599
30
0.0000000000
10
-0.8030727217
20
18.5267310247
30
0.0000000000
11
-1.0243656039
21
18.5278793139
31
0.0000000000
11
-0.9865167213
21
18.5426447492
31
0.0000000000
11
-0.9457467827
21
18.5512150222
31
0.0000000000
11
-0.9038775278
21
18.5528853050
31
0.0000000000
11
-0.8621648684
21
18.5475062389
31
0.0000000000
11
-0.8215099275
21
18.5350363671
31
0.0000000000
11
-0.8030727217
21
18.5267310247
31
0.0000000000
0
SPLINE
5
39F
100
AcDbEntity
8
0
100
AcDbSpline
62
7
6
CONTINUOUS
70
0
71
3
72
14
73
10
74
8
42
0.0000001000
43
0.0000001000
44
0.0000000001
12
0.0000000000
22
0.2738582159
32
0.0000000000
13
0.2439931792
23
0.1251474837
33
0.0000000000
40
0.0000000000
40
0.0000000000
40
0.0000000000
40
0.0000000000
40
0.1562679989
40
0.3143610164
40
0.4733409827
40
0.6327902268
40
0.7925669787
40
0.9524347924
40
1.0000000000
40
1.0000000000
40
1.0000000000
40
1.0000000000
10
-3.2800315354
20
17.2318244917
30
0.0000000000
10
-3.2800315354
20
17.2460895835
30
0.0000000000
10
-3.2775634244
20
17.2748466400
30
0.0000000000
10
-3.2664796172
20
17.3168247655
30
0.0000000000
10
-3.2481752542
20
17.3565322749
30
0.0000000000
10
-3.2231620668
20
17.3925800825
30
0.0000000000
10
-3.1921941015
20
17.4237795921
30
0.0000000000
10
-3.1646519663
20
17.4431868352
30
0.0000000000
10
-3.1480067311
20
17.4522798371
30
0.0000000000
10
-3.1441382023
20
17.4542640591
30
0.0000000000
11
-3.2800315354
21
17.2318244917
31
0.0000000000
11
-3.2763686642
21
17.2744627253
31
0.0000000000
11
-3.2653182980
21
17.3163238367
31
0.0000000000
11
-3.2470904817
21
17.3558624448
31
0.0000000000
11
-3.2221970167
21
17.3917383052
31
0.0000000000
11
-3.1913721651
21
17.4227936023
31
0.0000000000
11
-3.1555832138
21
17.4480113924
31
0.0000000000
11
-3.1441382023
21
17.4542640591
31
0.0000000000
0
SPLINE
5
3A0
100
AcDbEntity
8
0
100
AcDbSpline
62
7
6
CONTINUOUS
70
0
71
3
72
14
73
10
74
8
42
0.0000001000
43
0.0000001000
44
0.0000000001
12
-0.2474251876
22
0.1236744997
32
0.0000000000
13
0.0000034737
23
0.2768655877
33
0.0000000000
40
0.0000000000
40
0.0000000000
40
0.0000000000
40
0.0000000000
40
0.1343949792
40
0.2816796795
40
0.4304347255
40
0.5807315551
40
0.7329732372
40
0.8871115457
40
1.0000000000
40
1.0000000000
40
1.0000000000
40
1.0000000000
10
-3.1417955827
20
16.6682242131
30
0.0000000000
10
-3.1528798171
20
16.6737646237
30
0.0000000000
10
-3.1752822225
20
16.6871263414
30
0.0000000000
10
-3.2059107684
20
16.7126066897
30
0.0000000000
10
-3.2329464404
20
16.7438659600
30
0.0000000000
10
-3.2546984353
20
16.7795471431
30
0.0000000000
10
-3.2703845276
20
16.8188237352
30
0.0000000000
10
-3.2784917181
20
16.8568013152
30
0.0000000000
10
-3.2800313911
20
16.8814442509
30
0.0000000000
10
-3.2800312604
20
16.8918625603
30
0.0000000000
11
-3.1417955827
21
16.6682242131
31
0.0000000000
11
-3.1737201054
21
16.6872690460
31
0.0000000000
11
-3.2050305210
21
16.7133138525
31
0.0000000000
11
-3.2319375095
21
16.7444260766
31
0.0000000000
11
-3.2535705152
21
16.7799116255
31
0.0000000000
11
-3.2691837425
21
16.8190067396
31
0.0000000000
11
-3.2780819134
21
16.8606895246
31
0.0000000000
11
-3.2800312604
21
16.8918625603
31
0.0000000000
0
SPLINE
5
3A1
100
AcDbEntity
8
0
100
AcDbSpline
62
7
6
CONTINUOUS
70
0
71
3
72
14
73
10
74
8
42
0.0000001000
43
0.0000001000
44
0.0000000001
12
0.2472867605
22
-0.1236433802
32
0.0000000000
13
0.0000162066
23
-0.2767915247
33
0.0000000000
40
0.0000000000
40
0.0000000000
40
0.0000000000
40
0.0000000000
40
0.1437525298
40
0.2886119094
40
0.4331946815
40
0.5818895261
40
0.7310838435
40
0.8800925955
40
1.0000000000
40
1.0000000000
40
1.0000000000
40
1.0000000000
10
-12.8300705372
20
24.5402304159
30
0.0000000000
10
-12.8182211714
20
24.5343057330
30
0.0000000000
10
-12.7953375376
20
24.5204902675
30
0.0000000000
10
-12.7647560253
20
24.4945731367
30
0.0000000000
10
-12.7383960235
20
24.4637575163
30
0.0000000000
10
-12.7171514958
20
24.4287348428
30
0.0000000000
10
-12.7017918767
20
24.3903185005
30
0.0000000000
10
-12.6935235769
20
24.3525042862
30
0.0000000000
10
-12.6918747168
20
24.3276935219
30
0.0000000000
10
-12.6918740690
20
24.3166304042
30
0.0000000000
11
-12.8300705372
21
24.5402304159
31
0.0000000000
11
-12.7960477430
21
24.5196869616
31
0.0000000000
11
-12.7654927686
21
24.4937949583
31
0.0000000000
11
-12.7395094863
21
24.4634181327
31
0.0000000000
11
-12.7181881624
21
24.4282689256
31
0.0000000000
11
-12.7028748486
21
24.3899682582
31
0.0000000000
11
-12.6940746219
21
24.3497219553
31
0.0000000000
11
-12.6918740690
21
24.3166304042
31
0.0000000000
0
SPLINE
5
3A2
100
AcDbEntity
8
0
100
AcDbSpline
62
7
6
CONTINUOUS
70
0
71
3
72
12
73
8
74
6
42
0.0000001000
43
0.0000001000
44
0.0000000001
12
0.0000004376
22
-0.1719756981
32
0.0000000000
13
-0.1091615697
23
-0.1328611563
33
0.0000000000
40
0.0000000000
40
0.0000000000
40
0.0000000000
40
0.0000000000
40
0.1973507919
40
0.4160346585
40
0.6354683657
40
0.8556414886
40
1.0000000000
40
1.0000000000
40
1.0000000000
40
1.0000000000
10
-12.6918738523
20
23.9690897893
30
0.0000000000
10
-12.6918738236
20
23.9577766092
30
0.0000000000
10
-12.6934948869
20
23.9339353320
30
0.0000000000
10
-12.7011426246
20
23.8982174531
30
0.0000000000
10
-12.7145289416
20
23.8628269170
30
0.0000000000
10
-12.7309987323
20
23.8335761253
30
0.0000000000
10
-12.7434594500
20
23.8167761744
30
0.0000000000
10
-12.7487122506
20
23.8103829615
30
0.0000000000
11
-12.6918738523
21
23.9690897893
31
0.0000000000
11
-12.6941736392
21
23.9352607114
31
0.0000000000
11
-12.7020396025
21
23.8985265826
31
0.0000000000
11
-12.7153757504
21
23.8632687963
31
0.0000000000
11
-12.7339321194
21
23.8303109755
31
0.0000000000
11
-12.7487122506
21
23.8103829615
31
0.0000000000
0
SPLINE
5
3A3
100
AcDbEntity
8
0
100
AcDbSpline
62
7
6
CONTINUOUS
70
0
71
3
72
13
73
9
74
7
42
0.0000001000
43
0.0000001000
44
0.0000000001
12
-0.2048013009
22
0.1024006505
32
0.0000000000
13
-0.2060921486
23
-0.1004031776
33
0.0000000000
40
0.0000000000
40
0.0000000000
40
0.0000000000
40
0.0000000000
40
0.1780417675
40
0.3605922599
40
0.5441907093
40
0.7285502135
40
0.9149400794
40
1.0000000000
40
1.0000000000
40
1.0000000000
40
1.0000000000
10
-14.1673966977
20
25.2088934962
30
0.0000000000
10
-14.1795510929
20
25.2149706938
30
0.0000000000
10
-14.2052221422
20
25.2252864411
30
0.0000000000
10
-14.2459684021
20
25.2342550956
30
0.0000000000
10
-14.2881367338
20
25.2363165974
30
0.0000000000
10
-14.3303433022
20
25.2312323793
30
0.0000000000
10
-14.3638449671
20
25.2212398725
30
0.0000000000
10
-14.3828468232
20
25.2128815324
30
0.0000000000
10
-14.3886902172
20
25.2100347703
30
0.0000000000
11
-14.1673966977
21
25.2088934962
31
0.0000000000
11
-14.2052249785
21
25.2240913925
31
0.0000000000
11
-14.2460468371
21
25.2330786704
31
0.0000000000
11
-14.2880361563
21
25.2351304978
31
0.0000000000
11
-14.3299468739
21
25.2300820509
31
0.0000000000
11
-14.3708449682
21
25.2178833827
31
0.0000000000
11
-14.3886902172
21
25.2100347703
31
0.0000000000
0
SPLINE
5
3A4
100
AcDbEntity
8
0
100
AcDbSpline
62
7
6
CONTINUOUS
70
0
71
3
72
14
73
10
74
8
42
0.0000001000
43
0.0000001000
44
0.0000000001
12
-0.2436935158
22
-0.1250193865
32
0.0000000000
13
-0.0000157062
23
-0.2742008108
33
0.0000000000
40
0.0000000000
40
0.0000000000
40
0.0000000000
40
0.0000000000
40
0.1443176514
40
0.2898310469
40
0.4351225178
40
0.5845208251
40
0.7343315250
40
0.8839295348
40
1.0000000000
40
1.0000000000
40
1.0000000000
40
1.0000000000
10
-16.5084638053
20
24.1364200163
30
0.0000000000
10
-16.5201868972
20
24.1304058483
30
0.0000000000
10
-16.5428136340
20
24.1164371328
30
0.0000000000
10
-16.5730070603
20
24.0903731723
30
0.0000000000
10
-16.5989858855
20
24.0594847977
30
0.0000000000
10
-16.6198618429
20
24.0244720784
30
0.0000000000
10
-16.6348825325
20
23.9861512269
30
0.0000000000
10
-16.6428018168
20
23.9488806128
30
0.0000000000
10
-16.6443489246
20
23.9245988425
30
0.0000000000
10
-16.6443495322
20
23.9139899706
30
0.0000000000
11
-16.5084638053
21
24.1364200163
31
0.0000000000
11
-16.5420966671
21
24.1156536848
31
0.0000000000
11
-16.5722670259
21
24.0896122306
31
0.0000000000
11
-16.5978802973
21
24.0591569044
31
0.0000000000
11
-16.6188356540
21
24.0240110993
31
0.0000000000
11
-16.6338096905
21
23.9858091463
31
0.0000000000
11
-16.6423257917
21
23.9457303506
31
0.0000000000
11
-16.6443495322
21
23.9139899706
31
0.0000000000
0
SPLINE
5
3A5
100
AcDbEntity
8
0
100
AcDbSpline
62
7
6
CONTINUOUS
70
0
71
3
72
14
73
10
74
8
42
0.0000001000
43
0.0000001000
44
0.0000000001
12
-0.2474251876
22
0.1236744997
32
0.0000000000
13
0.0000034737
23
0.2768655877
33
0.0000000000
40
0.0000000000
40
0.0000000000
40
0.0000000000
40
0.0000000000
40
0.1343949792
40
0.2816796795
40
0.4304347255
40
0.5807315551
40
0.7329732372
40
0.8871115457
40
1.0000000000
40
1.0000000000
40
1.0000000000
40
1.0000000000
10
-16.5061137472
20
23.3503832953
30
0.0000000000
10
-16.5171979815
20
23.3559237059
30
0.0000000000
10
-16.5396003869
20
23.3692854236
30
0.0000000000
10
-16.5702289328
20
23.3947657720
30
0.0000000000
10
-16.5972646049
20
23.4260250422
30
0.0000000000
10
-16.6190165997
20
23.4617062253
30
0.0000000000
10
-16.6347026921
20
23.5009828174
30
0.0000000000
10
-16.6428098826
20
23.5389603974
30
0.0000000000
10
-16.6443495556
20
23.5636033331
30
0.0000000000
10
-16.6443494249
20
23.5740216425
30
0.0000000000
11
-16.5061137472
21
23.3503832953
31
0.0000000000
11
-16.5380382698
21
23.3694281282
31
0.0000000000
11
-16.5693486854
21
23.3954729347
31
0.0000000000
11
-16.5962556740
21
23.4265851588
31
0.0000000000
11
-16.6178886796
21
23.4620707077
31
0.0000000000
11
-16.6335019069
21
23.5011658218
31
0.0000000000
11
-16.6424000778
21
23.5428486068
31
0.0000000000
11
-16.6443494249
21
23.5740216425
31
0.0000000000
0
SPLINE
5
3A6
100
AcDbEntity
8
0
100
AcDbSpline
62
7
6
CONTINUOUS
70
0
71
3
72
10
73
6
74
4
42
0.0000001000
43
0.0000001000
44
0.0000000001
12
-0.0630782860
22
0.0131708046
32
0.0000000000
13
-0.0576482341
23
0.0288264877
33
0.0000000000
40
0.0000000000
40
0.0000000000
40
0.0000000000
40
0.0000000000
40
0.3605731417
40
0.7227503039
40
1.0000000000
40
1.0000000000
40
1.0000000000
40
1.0000000000
10
-15.1204632491
20
22.6667950676
30
0.0000000000
10
-15.1280446944
20
22.6683780804
30
0.0000000000
10
-15.1431033994
20
22.6722604741
30
0.0000000000
10
-15.1633402388
20
22.6795447093
30
0.0000000000
10
-15.1758513625
20
22.6852518100
30
0.0000000000
10
-15.1811790143
20
22.6879158550
30
0.0000000000
11
-15.1204632491
21
22.6667950676
31
0.0000000000
11
-15.1429623278
21
22.6725958980
31
0.0000000000
11
-15.1649213174
21
22.6804999974
31
0.0000000000
11
-15.1811790143
21
22.6879158550
31
0.0000000000
0
SPLINE
5
3A7
100
AcDbEntity
8
0
100
AcDbSpline
62
7
6
CONTINUOUS
70
0
71
3
72
13
73
9
74
7
42
0.0000001000
43
0.0000001000
44
0.0000000001
12
-0.0000532121
22
0.2409317012
32
0.0000000000
13
-0.2147313561
23
0.1073656781
33
0.0000000000
40
0.0000000000
40
0.0000000000
40
0.0000000000
40
0.0000000000
40
0.0818987178
40
0.2321567084
40
0.3955644679
40
0.5763345295
40
0.7778386145
40
1.0000000000
40
1.0000000000
40
1.0000000000
40
1.0000000000
10
5.8286725377
20
-17.1036608550
30
0.0000000000
10
5.8286710851
20
-17.0970835225
30
0.0000000000
10
5.8271832189
20
-17.0784365362
30
0.0000000000
10
5.8175735733
20
-17.0478714761
30
0.0000000000
10
5.7965623166
20
-17.0139454010
30
0.0000000000
10
5.7663687179
20
-16.9820659361
30
0.0000000000
10
5.7277033597
20
-16.9527239589
30
0.0000000000
10
5.6981372926
20
-16.9359365958
30
0.0000000000
10
5.6822356208
20
-16.9279857598
30
0.0000000000
11
5.8286725377
21
-17.1036608550
31
0.0000000000
11
5.8271046091
21
-17.0840153545
31
0.0000000000
11
5.8165828646
21
-17.0495104431
31
0.0000000000
11
5.7963042541
21
-17.0159276326
31
0.0000000000
11
5.7667776136
21
-16.9841215497
31
0.0000000000
11
5.7284672972
21
-16.9545816757
31
0.0000000000
11
5.6822356208
21
-16.9279857598
31
0.0000000000
0
SPLINE
5
3A8
100
AcDbEntity
8
0
100
AcDbSpline
62
7
6
CONTINUOUS
70
0
71
3
72
13
73
9
74
7
42
0.0000001000
43
0.0000001000
44
0.0000000001
12
0.0000447718
22
-0.2369216055
32
0.0000000000
13
-0.2087426030
23
-0.1103503620
33
0.0000000000
40
0.0000000000
40
0.0000000000
40
0.0000000000
40
0.0000000000
40
0.0662401735
40
0.2209740190
40
0.3878784249
40
0.5714556151
40
0.7754283906
40
1.0000000000
40
1.0000000000
40
1.0000000000
40
1.0000000000
10
5.8286731363
20
19.2602563641
30
0.0000000000
10
5.8286741249
20
19.2550251214
30
0.0000000000
10
5.8276183402
20
19.2375752038
30
0.0000000000
10
5.8195309571
20
19.2077553273
30
0.0000000000
10
5.7997252707
20
19.1728723780
30
0.0000000000
10
5.7706368844
20
19.1400043566
30
0.0000000000
10
5.7329791156
20
19.1096706574
30
0.0000000000
10
5.7039780178
20
19.0922516177
30
0.0000000000
10
5.6883521304
20
19.0839910982
30
0.0000000000
11
5.8286731363
21
19.2602563641
31
0.0000000000
11
5.8277220097
21
19.2446048637
31
0.0000000000
11
5.8184185935
21
19.2092741330
31
0.0000000000
11
5.7993248997
21
19.1747997663
31
0.0000000000
11
5.7709193210
21
19.1420590652
31
0.0000000000
11
5.7336489579
21
19.1115562624
31
0.0000000000
11
5.6883521304
21
19.0839910982
31
0.0000000000
0
SPLINE
5
3A9
100
AcDbEntity
8
0
100
AcDbSpline
62
7
6
CONTINUOUS
70
0
71
3
72
8
73
4
74
2
42
0.0000001000
43
0.0000001000
44
0.0000000001
12
0.0000075722
22
0.0718432513
32
0.0000000000
13
-0.0075338391
23
0.0713991650
33
0.0000000000
40
0.0000000000
40
0.0000000000
40
0.0000000000
40
0.0000000000
40
1.0000000000
40
1.0000000000
40
1.0000000000
40
1.0000000000
10
5.8286822214
20
19.8816852121
30
0.0000000000
10
5.8286847455
20
19.9056329626
30
0.0000000000
10
5.8273029267
20
19.9295775616
30
0.0000000000
10
5.8247916470
20
19.9533772833
30
0.0000000000
11
5.8286822214
21
19.8816852121
31
0.0000000000
11
5.8247916470
21
19.9533772833
31
0.0000000000
0
SPLINE
5
3AA
100
AcDbEntity
8
0
100
AcDbSpline
62
7
6
CONTINUOUS
70
0
71
3
72
9
73
5
74
3
42
0.0000001000
43
0.0000001000
44
0.0000000001
12
0.0493400830
22
0.0240351174
32
0.0000000000
13
0.0524116030
23
0.0162835663
33
0.0000000000
40
0.0000000000
40
0.0000000000
40
0.0000000000
40
0.0000000000
40
0.5100065127
40
1.0000000000
40
1.0000000000
40
1.0000000000
40
1.0000000000
10
-5.2337544513
20
24.8138599820
30
0.0000000000
10
-5.2253665301
20
24.8179460041
30
0.0000000000
10
-5.2086348757
20
24.8253886601
30
0.0000000000
10
-5.1913837080
20
24.8315424731
30
0.0000000000
10
-5.1828232600
20
24.8342020869
30
0.0000000000
11
-5.2337544513
21
24.8138599820
31
0.0000000000
11
-5.2081648958
21
24.8252023735
31
0.0000000000
11
-5.1828232600
21
24.8342020869
31
0.0000000000
0
SPLINE
5
3AB
100
AcDbEntity
8
0
100
AcDbSpline
62
7
6
CONTINUOUS
70
0
71
3
72
19
73
15
74
13
42
0.0000001000
43
0.0000001000
44
0.0000000001
12
-1.6392388543
22
-0.9558232936
32
0.0000000000
13
-0.0615618724
23
-1.8965059819
33
0.0000000000
40
0.0000000000
40
0.0000000000
40
0.0000000000
40
0.0000000000
40
0.0733560381
40
0.1551556283
40
0.2382544236
40
0.3226372788
40
0.4081268794
40
0.4944262556
40
0.5811634727
40
0.6679240473
40
0.7542968871
40
0.8399172863
40
0.9245126198
40
1.0000000000
40
1.0000000000
40
1.0000000000
40
1.0000000000
10
-20.5303211260
20
20.1125797585
30
0.0000000000
10
-20.5704038154
20
20.0892079551
30
0.0000000000
10
-20.6527061580
20
20.0354070790
30
0.0000000000
10
-20.7703562044
20
19.9409048451
30
0.0000000000
10
-20.8836660731
20
19.8309762474
30
0.0000000000
10
-20.9885308250
20
19.7098991756
30
0.0000000000
10
-21.0843483438
20
19.5790440216
30
0.0000000000
10
-21.1704098029
20
19.4398339943
30
0.0000000000
10
-21.2459556742
20
19.2937474837
30
0.0000000000
10
-21.3102093092
20
19.1423022050
30
0.0000000000
10
-21.3624009720
20
18.9870279023
30
0.0000000000
10
-21.4017730477
20
18.8294126361
30
0.0000000000
10
-21.4267588588
20
18.6758600500
30
0.0000000000
10
-21.4344771191
20
18.5747579929
30
0.0000000000
10
-21.4360261673
20
18.5270372368
30
0.0000000000
11
-20.5303211260
21
20.1125797585
31
0.0000000000
11
-20.6469561711
21
20.0366046339
31
0.0000000000
11
-20.7681218362
21
19.9396210383
31
0.0000000000
11
-20.8814325965
21
19.8299906626
31
0.0000000000
11
-20.9863745839
21
19.7090795844
31
0.0000000000
11
-21.0822950772
21
19.5782806837
31
0.0000000000
11
-21.1684518408
21
19.4390439187
31
0.0000000000
11
-21.2440610621
21
19.2928733313
31
0.0000000000
11
-21.3083248475
21
19.1413235075
31
0.0000000000
11
-21.3604594671
21
18.9859609960
31
0.0000000000
11
-21.3997014258
21
18.8283230269
31
0.0000000000
11
-21.4252944156
21
18.6698725405
31
0.0000000000
11
-21.4360261673
21
18.5270372368
31
0.0000000000
0
SPLINE
5
3AC
100
AcDbEntity
8
0
100
AcDbSpline
62
7
6
CONTINUOUS
70
0
71
3
72
14
73
10
74
8
42
0.0000001000
43
0.0000001000
44
0.0000000001
12
-1.1557659283
22
-35.6002163911
32
0.0000000000
13
1.1959283560
23
-35.5988900199
33
0.0000000000
40
0.0000000000
40
0.0000000000
40
0.0000000000
40
0.0000000000
40
0.1446706599
40
0.2890281538
40
0.4326996305
40
0.5756779962
40
0.7179560000
40
0.8595271151
40
1.0000000000
40
1.0000000000
40
1.0000000000
40
1.0000000000
10
-21.4360259577
20
18.5270457522
30
0.0000000000
10
-21.4917610975
20
16.8102768191
30
0.0000000000
10
-21.5875346196
20
13.3799283960
30
0.0000000000
10
-21.6836599997
20
8.2433193267
30
0.0000000000
10
-21.7318229668
20
3.1261245010
30
0.0000000000
10
-21.7319343888
20
-1.9666067577
30
0.0000000000
10
-21.6839930407
20
-7.0341764650
30
0.0000000000
10
-21.5880914994
20
-12.0713085435
30
0.0000000000
10
-21.4920058384
20
-15.4186977759
30
0.0000000000
10
-21.4360073362
20
-17.0855907030
30
0.0000000000
11
-21.4360259577
21
18.5270457522
31
0.0000000000
11
-21.5797299955
21
13.3760296709
31
0.0000000000
11
-21.6758243409
21
8.2350622419
31
0.0000000000
11
-21.7238724213
21
3.1178575904
31
0.0000000000
11
-21.7238665608
21
-1.9748847259
31
0.0000000000
11
-21.6758056340
21
-7.0424529721
31
0.0000000000
11
-21.5796950634
21
-12.0841544689
31
0.0000000000
11
-21.4360073362
21
-17.0855907030
31
0.0000000000
0
SPLINE
5
3AD
100
AcDbEntity
8
0
100
AcDbSpline
62
7
6
CONTINUOUS
70
0
71
3
72
16
73
12
74
10
42
0.0000001000
43
0.0000001000
44
0.0000000001
12
0.0378874726
22
-1.1277409945
32
0.0000000000
13
1.0099127999
23
-0.5048009375
33
0.0000000000
40
0.0000000000
40
0.0000000000
40
0.0000000000
40
0.0000000000
40
0.1238237390
40
0.2542516470
40
0.3792268275
40
0.4988872523
40
0.6132898544
40
0.7231186319
40
0.8296885909
40
0.9342080273
40
1.0000000000
40
1.0000000000
40
1.0000000000
40
1.0000000000
10
-21.4360073429
20
-17.0855895197
30
0.0000000000
10
-21.4344435534
20
-17.1321365552
30
0.0000000000
10
-21.4268501823
20
-17.2276329803
30
0.0000000000
10
-21.4007989628
20
-17.3681436375
30
0.0000000000
10
-21.3590536469
20
-17.5032320376
30
0.0000000000
10
-21.3034788810
20
-17.6266806828
30
0.0000000000
10
-21.2355132037
20
-17.7371407221
30
0.0000000000
10
-21.1567126124
20
-17.8338773624
30
0.0000000000
10
-21.0683958437
20
-17.9166719596
30
0.0000000000
10
-20.9832710761
20
-17.9771657197
30
0.0000000000
10
-20.9271448230
20
-18.0083033358
30
0.0000000000
10
-20.9049967713
20
-18.0193739523
30
0.0000000000
11
-21.4360073429
21
-17.0855895197
31
0.0000000000
11
-21.4247058240
21
-17.2248461671
31
0.0000000000
11
-21.3975865337
21
-17.3694749979
31
0.0000000000
11
-21.3556857406
21
-17.5041028423
31
0.0000000000
11
-21.3000437858
21
-17.6271043784
31
0.0000000000
11
-21.2322409967
21
-17.7369303447
31
0.0000000000
11
-21.1538745052
21
-17.8329107013
31
0.0000000000
11
-21.0660968886
21
-17.9150752253
31
0.0000000000
11
-20.9699464841
21
-17.9833399685
31
0.0000000000
11
-20.9049967713
21
-18.0193739523
31
0.0000000000
0
SPLINE
5
3AE
100
AcDbEntity
8
0
100
AcDbSpline
62
7
6
CONTINUOUS
70
0
71
3
72
15
73
11
74
9
42
0.0000001000
43
0.0000001000
44
0.0000000001
12
0.7705219390
22
-0.3853436163
32
0.0000000000
13
0.7940118393
23
0.3332686344
33
0.0000000000
40
0.0000000000
40
0.0000000000
40
0.0000000000
40
0.0000000000
40
0.0705272486
40
0.1949252633
40
0.3216085121
40
0.4512662261
40
0.5845947735
40
0.7224838247
40
0.8660308643
40
1.0000000000
40
1.0000000000
40
1.0000000000
40
1.0000000000
10
-6.0713127346
20
-25.4362165069
30
0.0000000000
10
-6.0531984705
20
-25.4452755819
30
0.0000000000
10
-6.0022649580
20
-25.4686100646
30
0.0000000000
10
-5.9149045438
20
-25.4990388786
30
0.0000000000
10
-5.8079021029
20
-25.5224390268
30
0.0000000000
10
-5.6963268870
20
-25.5331860482
30
0.0000000000
10
-5.5810478479
20
-25.5306852876
30
0.0000000000
10
-5.4628740126
20
-25.5143952677
30
0.0000000000
10
-5.3471144890
20
-25.4849431065
30
0.0000000000
10
-5.2722023324
20
-25.4574592287
30
0.0000000000
10
-5.2367446391
20
-25.4425766584
30
0.0000000000
11
-6.0713127346
21
-25.4362165069
31
0.0000000000
11
-6.0160774516
21
-25.4615208167
31
0.0000000000
11
-5.9149457642
21
-25.4967792460
31
0.0000000000
11
-5.8084065975
21
-25.5201351050
31
0.0000000000
11
-5.6972989973
21
-25.5309230212
31
0.0000000000
11
-5.5825330269
21
-25.5285483770
31
0.0000000000
11
-5.4649084031
21
-25.5124809845
31
0.0000000000
11
-5.3450935464
21
-25.4821749637
31
0.0000000000
11
-5.2367446391
21
-25.4425766584
31
0.0000000000
0
SPLINE
5
3AF
100
AcDbEntity
8
0
100
AcDbSpline
62
7
6
CONTINUOUS
70
0
71
3
72
10
73
6
74
4
42
0.0000001000
43
0.0000001000
44
0.0000000001
12
-0.0010000660
22
0.0130065049
32
0.0000000000
13
-0.0113777965
23
0.0062951535
33
0.0000000000
40
0.0000000000
40
0.0000000000
40
0.0000000000
40
0.0000000000
40
0.0766708862
40
0.8305484688
40
1.0000000000
40
1.0000000000
40
1.0000000000
40
1.0000000000
10
1.1010711404
20
21.7631265551
30
0.0000000000
10
1.1010455818
20
21.7634589619
30
0.0000000000
10
1.1006312272
20
21.7670610012
30
0.0000000000
10
1.0982194185
20
21.7713980121
30
0.0000000000
10
1.0948819531
20
21.7736168815
30
0.0000000000
10
1.0942392914
20
21.7739724559
30
0.0000000000
11
1.1010711404
21
21.7631265551
31
0.0000000000
11
1.1009555415
21
21.7641239965
31
0.0000000000
11
1.0960695475
21
21.7727423168
31
0.0000000000
11
1.0942392914
21
21.7739724559
31
0.0000000000
0
SPLINE
5
3B0
100
AcDbEntity
8
0
100
AcDbSpline
62
7
6
CONTINUOUS
70
0
71
3
72
10
73
6
74
4
42
0.0000001000
43
0.0000001000
44
0.0000000001
12
-0.0009580392
22
0.0129440354
32
0.0000000000
13
-0.0113357510
23
0.0063711878
33
0.0000000000
40
0.0000000000
40
0.0000000000
40
0.0000000000
40
0.0000000000
40
0.0941232471
40
0.8508875680
40
1.0000000000
40
1.0000000000
40
1.0000000000
40
1.0000000000
10
-4.4539007007
20
24.5406264223
30
0.0000000000
10
-4.4539307586
20
24.5410325338
30
0.0000000000
10
-4.4543762123
20
24.5447020000
30
0.0000000000
10
-4.4568996190
20
24.5489708295
30
0.0000000000
10
-4.4601856265
20
24.5511395691
30
0.0000000000
10
-4.4607490603
20
24.5514562435
30
0.0000000000
11
-4.4539007007
21
24.5406264223
31
0.0000000000
11
-4.4540501310
21
24.5418438950
31
0.0000000000
11
-4.4591309338
21
24.5503795802
31
0.0000000000
11
-4.4607490603
21
24.5514562435
31
0.0000000000
0
SPLINE
5
3B1
100
AcDbEntity
8
0
100
AcDbSpline
62
7
6
CONTINUOUS
70
0
71
3
72
9
73
5
74
3
42
0.0000001000
43
0.0000001000
44
0.0000000001
12
0.0473762501
22
0.0233505524
32
0.0000000000
13
0.0502803636
23
0.0161753641
33
0.0000000000
40
0.0000000000
40
0.0000000000
40
0.0000000000
40
0.0000000000
40
0.5097876014
40
1.0000000000
40
1.0000000000
40
1.0000000000
40
1.0000000000
10
0.3215234517
20
22.0362210305
30
0.0000000000
10
0.3295740600
20
22.0401889712
30
0.0000000000
10
0.3456334581
20
22.0474442462
30
0.0000000000
10
0.3621834640
20
22.0535064763
30
0.0000000000
10
0.3703994832
20
22.0561495976
30
0.0000000000
11
0.3215234517
21
22.0362210305
31
0.0000000000
11
0.3460753249
21
22.0472762171
31
0.0000000000
11
0.3703994832
21
22.0561495976
31
0.0000000000
0
SPLINE
5
3B2
100
AcDbEntity
8
0
100
AcDbSpline
62
7
6
CONTINUOUS
70
0
71
3
72
12
73
8
74
6
42
0.0000001000
43
0.0000001000
44
0.0000000001
12
0.2221397990
22
0.0690157895
32
0.0000000000
13
0.2082352426
23
-0.1040153569
33
0.0000000000
40
0.0000000000
40
0.0000000000
40
0.0000000000
40
0.0000000000
40
0.1674222120
40
0.3531927844
40
0.5606790767
40
0.7923182696
40
1.0000000000
40
1.0000000000
40
1.0000000000
40
1.0000000000
10
-5.1828232600
20
24.8342020869
30
0.0000000000
10
-5.1704262145
20
24.8380536789
30
0.0000000000
10
-5.1433615561
20
24.8434253271
30
0.0000000000
10
-5.0996741222
20
24.8437847218
30
0.0000000000
10
-5.0516307724
20
24.8361016733
30
0.0000000000
10
-5.0036386502
20
24.8210239897
30
0.0000000000
10
-4.9724599131
20
24.8071610893
30
0.0000000000
10
-4.9580443613
20
24.7999603928
30
0.0000000000
11
-5.1828232600
21
24.8342020869
31
0.0000000000
11
-5.1446651702
21
24.8419901334
31
0.0000000000
11
-5.1014571565
21
24.8426355955
31
0.0000000000
11
-5.0537507964
21
24.8353186537
31
0.0000000000
11
-5.0022553202
21
24.8194585898
31
0.0000000000
11
-4.9580443613
21
24.7999603928
31
0.0000000000
0
SPLINE
5
3B3
100
AcDbEntity
8
0
100
AcDbSpline
62
7
6
CONTINUOUS
70
0
71
3
72
12
73
8
74
6
42
0.0000001000
43
0.0000001000
44
0.0000000001
12
0.2232175716
22
0.0718098524
32
0.0000000000
13
0.2099060047
23
-0.1048614227
33
0.0000000000
40
0.0000000000
40
0.0000000000
40
0.0000000000
40
0.0000000000
40
0.1663459446
40
0.3509032283
40
0.5570405402
40
0.7870913540
40
1.0000000000
40
1.0000000000
40
1.0000000000
40
1.0000000000
10
0.3703994832
20
22.0561495976
30
0.0000000000
10
0.3827765958
20
22.0601313569
30
0.0000000000
10
0.4098355869
20
22.0657590260
30
0.0000000000
10
0.4535894559
20
22.0664330568
30
0.0000000000
10
0.5017424195
20
22.0590002204
30
0.0000000000
10
0.5503556486
20
22.0439439786
30
0.0000000000
10
0.5820685640
20
22.0298973069
30
0.0000000000
10
0.5969654984
20
22.0224553390
30
0.0000000000
11
0.3703994832
21
22.0561495976
31
0.0000000000
11
0.4085443948
21
22.0642977035
31
0.0000000000
11
0.4518094765
21
22.0652575357
31
0.0000000000
11
0.4996263843
21
22.0581933725
31
0.0000000000
11
0.5512451686
21
22.0425289756
31
0.0000000000
11
0.5969654984
21
22.0224553390
31
0.0000000000
0
SPLINE
5
3B4
100
AcDbEntity
8
0
100
AcDbSpline
62
7
6
CONTINUOUS
70
0
71
3
72
10
73
6
74
4
42
0.0000001000
43
0.0000001000
44
0.0000000001
12
0.0033308982
22
0.0017699077
32
0.0000000000
13
0.0033470867
23
0.0017390993
33
0.0000000000
40
0.0000000000
40
0.0000000000
40
0.0000000000
40
0.0000000000
40
0.3338577217
40
0.6671911250
40
1.0000000000
40
1.0000000000
40
1.0000000000
40
1.0000000000
10
-11.2237313647
20
-8.3280902182
30
0.0000000000
10
-11.2233606827
20
-8.3278932524
30
0.0000000000
10
-11.2226192983
20
-8.3275007628
30
0.0000000000
10
-11.2215062952
20
-8.3269159064
30
0.0000000000
10
-11.2207636798
20
-8.3265285944
30
0.0000000000
10
-11.2203923664
20
-8.3263356651
30
0.0000000000
11
-11.2237313647
21
-8.3280902182
31
0.0000000000
11
-11.2226184148
21
-8.3275010249
31
0.0000000000
11
-11.2215054117
21
-8.3269161719
31
0.0000000000
11
-11.2203923664
21
-8.3263356651
31
0.0000000000
0
SPLINE
5
3B5
100
AcDbEntity
8
0
100
AcDbSpline
62
7
6
CONTINUOUS
70
0
71
3
72
18
73
14
74
12
42
0.0000001000
43
0.0000001000
44
0.0000000001
12
0.6585649027
22
-0.3292824513
32
0.0000000000
13
0.0000000000
23
-0.7362979450
33
0.0000000000
40
0.0000000000
40
0.0000000000
40
0.0000000000
40
0.0000000000
40
0.0792653594
40
0.1637066815
40
0.2524724019
40
0.3451271580
40
0.4401120866
40
0.5368851972
40
0.6335836001
40
0.7296003675
40
0.8232033591
40
0.9137385471
40
1.0000000000
40
1.0000000000
40
1.0000000000
40
1.0000000000
10
0.7789782707
20
16.0270519792
30
0.0000000000
10
0.7963787319
20
16.0183517486
30
0.0000000000
10
0.8310503043
20
15.9977785370
30
0.0000000000
10
0.8802041082
20
15.9598429689
30
0.0000000000
10
0.9273290646
20
15.9145391694
30
0.0000000000
10
0.9714141412
20
15.8628424889
30
0.0000000000
10
1.0116655887
20
15.8056965625
30
0.0000000000
10
1.0471985447
20
15.7443577172
30
0.0000000000
10
1.0773724419
20
15.6799343711
30
0.0000000000
10
1.1015241024
20
15.6138448712
30
0.0000000000
10
1.1192096734
20
15.5472946905
30
0.0000000000
10
1.1300501265
20
15.4817172549
30
0.0000000000
10
1.1326393714
20
15.4382976655
30
0.0000000000
10
1.1326393714
20
15.4171262886
30
0.0000000000
11
0.7789782707
21
16.0270519792
31
0.0000000000
11
0.8292977529
21
15.9974854393
31
0.0000000000
11
0.8786444026
21
15.9596633432
31
0.0000000000
11
0.9258684062
21
15.9144796743
31
0.0000000000
11
0.9702203492
21
15.8626426306
31
0.0000000000
11
1.0105495496
21
15.8055044767
31
0.0000000000
11
1.0462904078
21
15.7438627610
31
0.0000000000
11
1.0764789413
21
15.6793807744
31
0.0000000000
11
1.1006957756
21
15.6129608718
31
0.0000000000
11
1.1183071927
21
15.5463293349
31
0.0000000000
11
1.1290417779
21
15.4805384491
31
0.0000000000
11
1.1326393714
21
15.4171262886
31
0.0000000000
0
SPLINE
5
3B6
100
AcDbEntity
8
0
100
AcDbSpline
62
7
6
CONTINUOUS
70
0
71
3
72
14
73
10
74
8
42
0.0000001000
43
0.0000001000
44
0.0000000001
12
0.0000000000
22
-0.3164868317
32
0.0000000000
13
-0.2844942199
23
-0.1402506731
33
0.0000000000
40
0.0000000000
40
0.0000000000
40
0.0000000000
40
0.0000000000
40
0.1893369747
40
0.3665734988
40
0.5311546098
40
0.6848972396
40
0.8292569482
40
0.9687228975
40
1.0000000000
40
1.0000000000
40
1.0000000000
40
1.0000000000
10
1.1326393714
20
-22.4995061420
30
0.0000000000
10
1.1326393714
20
-22.5194803618
30
0.0000000000
10
1.1304629455
20
-22.5582051272
30
0.0000000000
10
1.1199806550
20
-22.6134324841
30
0.0000000000
10
1.1025235661
20
-22.6629564874
30
0.0000000000
10
1.0783622056
20
-22.7057013589
30
0.0000000000
10
1.0478234758
20
-22.7407840490
30
0.0000000000
10
1.0207183957
20
-22.7605428719
30
0.0000000000
10
1.0047384347
20
-22.7689526123
30
0.0000000000
10
1.0017723831
20
-22.7704148239
30
0.0000000000
11
1.1326393714
21
-22.4995061420
31
0.0000000000
11
1.1290417779
21
-22.5593207089
31
0.0000000000
11
1.1183071927
21
-22.6143770096
31
0.0000000000
11
1.1006957756
21
-22.6633971294
31
0.0000000000
11
1.0764789413
21
-22.7056001977
31
0.0000000000
11
1.0462904078
21
-22.7398936507
31
0.0000000000
11
1.0105495496
21
-22.7657945083
31
0.0000000000
11
1.0017723831
21
-22.7704148239
31
0.0000000000
0
SPLINE
5
3B7
100
AcDbEntity
8
0
100
AcDbSpline
62
7
6
CONTINUOUS
70
0
71
3
72
16
73
12
74
10
42
0.0000001000
43
0.0000001000
44
0.0000000001
12
-0.3137971646
22
-0.1667394216
32
0.0000000000
13
0.0026890752
23
-0.3554092477
33
0.0000000000
40
0.0000000000
40
0.0000000000
40
0.0000000000
40
0.0000000000
40
0.1188505564
40
0.2350817133
40
0.3507335569
40
0.4672395930
40
0.5855017490
40
0.7060222786
40
0.8290231833
40
0.9545476939
40
1.0000000000
40
1.0000000000
40
1.0000000000
40
1.0000000000
10
-11.2237313647
20
-8.3280902182
30
0.0000000000
10
-11.2361630206
20
-8.3346959092
30
0.0000000000
10
-11.2595674069
20
-8.3501493722
30
0.0000000000
10
-11.2895415960
20
-8.3792168934
30
0.0000000000
10
-11.3139939226
20
-8.4126793641
30
0.0000000000
10
-11.3332679456
20
-8.4495906636
30
0.0000000000
10
-11.3477831858
20
-8.4892003434
30
0.0000000000
10
-11.3579428152
20
-8.5309112703
30
0.0000000000
10
-11.3641145768
20
-8.5742471005
30
0.0000000000
10
-11.3660728862
20
-8.6090503516
30
0.0000000000
10
-11.3661815300
20
-8.6293078985
30
0.0000000000
10
-11.3661407884
20
-8.6346926218
30
0.0000000000
11
-11.2237313647
21
-8.3280902182
31
0.0000000000
11
-11.2589811325
21
-8.3513514491
31
0.0000000000
11
-11.2887011961
21
-8.3800323615
31
0.0000000000
11
-11.3130591589
21
-8.4131322747
31
0.0000000000
11
-11.3323533640
21
-8.4497613436
31
0.0000000000
11
-11.3469427995
21
-8.4891715254
31
0.0000000000
11
-11.3571956663
21
-8.5307525977
31
0.0000000000
11
-11.3634598309
21
-8.5740092468
31
0.0000000000
11
-11.3660509544
21
-8.6185385407
31
0.0000000000
11
-11.3661407884
21
-8.6346926218
31
0.0000000000
0
SPLINE
5
3B8
100
AcDbEntity
8
0
100
AcDbSpline
62
7
6
CONTINUOUS
70
0
71
3
72
10
73
6
74
4
42
0.0000001000
43
0.0000001000
44
0.0000000001
12
0.0044467599
22
0.0023804360
32
0.0000000000
13
0.0044757226
23
0.0023255227
33
0.0000000000
40
0.0000000000
40
0.0000000000
40
0.0000000000
40
0.0000000000
40
0.3340332679
40
0.6673667319
40
1.0000000000
40
1.0000000000
40
1.0000000000
40
1.0000000000
10
-12.0249835295
20
-9.3009661063
30
0.0000000000
10
-12.0244884076
20
-9.3007010580
30
0.0000000000
10
-12.0234981214
20
-9.3001735305
30
0.0000000000
10
-12.0220110277
20
-9.2993891520
30
0.0000000000
10
-12.0210185325
20
-9.2988708578
30
0.0000000000
10
-12.0205222744
20
-9.2986130091
30
0.0000000000
11
-12.0249835295
21
-9.3009661063
31
0.0000000000
11
-12.0234965442
21
-9.3001739943
31
0.0000000000
11
-12.0220094502
21
-9.2993896239
31
0.0000000000
11
-12.0205222744
21
-9.2986130091
31
0.0000000000
0
SPLINE
5
3B9
100
AcDbEntity
8
0
100
AcDbSpline
62
7
6
CONTINUOUS
70
0
71
3
72
16
73
12
74
10
42
0.0000001000
43
0.0000001000
44
0.0000000001
12
-0.3144206056
22
-0.1683153932
32
0.0000000000
13
0.0036326496
23
-0.3566929388
33
0.0000000000
40
0.0000000000
40
0.0000000000
40
0.0000000000
40
0.0000000000
40
0.1186196281
40
0.2346406674
40
0.3500846696
40
0.4663717315
40
0.5843954953
40
0.7046538896
40
0.8273672446
40
0.9525787271
40
1.0000000000
40
1.0000000000
40
1.0000000000
40
1.0000000000
10
-12.0249835295
20
-9.3009661063
30
0.0000000000
10
-12.0374156813
20
-9.3076212761
30
0.0000000000
10
-12.0608147101
20
-9.3231705913
30
0.0000000000
10
-12.0907658514
20
-9.3523671058
30
0.0000000000
10
-12.1151861556
20
-9.3859443815
30
0.0000000000
10
-12.1344204960
20
-9.4229570351
30
0.0000000000
10
-12.1488893222
20
-9.4626553370
30
0.0000000000
10
-12.1589966458
20
-9.5044427838
30
0.0000000000
10
-12.1651109913
20
-9.5478436322
30
0.0000000000
10
-12.1670347222
20
-9.5829387731
30
0.0000000000
10
-12.1671026395
20
-9.6034671851
30
0.0000000000
10
-12.1670452179
20
-9.6091054628
30
0.0000000000
11
-12.0249835295
21
-9.3009661063
31
0.0000000000
11
-12.0602241916
21
-9.3243700136
31
0.0000000000
11
-12.0899236613
21
-9.3531803634
31
0.0000000000
11
-12.1142510724
21
-9.3863960794
31
0.0000000000
11
-12.1335062196
21
-9.4231274601
31
0.0000000000
11
-12.1480493806
21
-9.4626269389
31
0.0000000000
11
-12.1582498593
21
-9.5042849272
31
0.0000000000
11
-12.1644564528
21
-9.5476067838
31
0.0000000000
11
-12.1669856044
21
-9.5921902285
31
0.0000000000
11
-12.1670452179
21
-9.6091054628
31
0.0000000000
0
SPLINE
5
3BA
100
AcDbEntity
8
0
100
AcDbSpline
62
7
6
CONTINUOUS
70
0
71
3
72
8
73
4
74
2
42
0.0000001000
43
0.0000001000
44
0.0000000001
12
0.0055971906
22
0.0084399740
32
0.0000000000
13
-0.0019635754
23
0.0093247255
33
0.0000000000
40
0.0000000000
40
0.0000000000
40
0.0000000000
40
0.0000000000
40
1.0000000000
40
1.0000000000
40
1.0000000000
40
1.0000000000
10
5.8247916470
20
-17.7345180682
30
0.0000000000
10
5.8266573772
20
-17.7317047435
30
0.0000000000
10
5.8293859584
20
-17.7282341216
30
0.0000000000
10
5.8287314333
20
-17.7251258797
30
0.0000000000
11
5.8247916470
21
-17.7345180682
31
0.0000000000
11
5.8287314333
21
-17.7251258797
31
0.0000000000
0
SPLINE
5
3BB
100
AcDbEntity
8
0
100
AcDbSpline
62
7
6
CONTINUOUS
70
0
71
3
72
11
73
7
74
5
42
0.0000001000
43
0.0000001000
44
0.0000000001
12
-0.3714534514
22
0.3656050754
32
0.0000000000
13
-0.4665225503
23
0.2329349302
33
0.0000000000
40
0.0000000000
40
0.0000000000
40
0.0000000000
40
0.0000000000
40
0.3313178509
40
0.6331039431
40
0.9049039262
40
1.0000000000
40
1.0000000000
40
1.0000000000
40
1.0000000000
10
5.8247916470
20
19.9533772833
30
0.0000000000
10
5.7837685939
20
19.9937544459
30
0.0000000000
10
5.7021949520
20
20.0677761881
30
0.0000000000
10
5.5767381836
20
20.1628602269
30
0.0000000000
10
5.4778390224
20
20.2241580538
30
0.0000000000
10
5.4213545543
20
20.2537934616
30
0.0000000000
10
5.4065664000
20
20.2611771940
30
0.0000000000
11
5.8247916470
21
19.9533772833
31
0.0000000000
11
5.6966917541
21
20.0691756975
31
0.0000000000
11
5.5711104650
21
20.1638823093
31
0.0000000000
11
5.4504859244
21
20.2381624407
31
0.0000000000
11
5.4065664000
21
20.2611771940
31
0.0000000000
0
SPLINE
5
3BC
100
AcDbEntity
8
0
100
AcDbSpline
62
7
6
CONTINUOUS
70
0
71
3
72
13
73
9
74
7
42
0.0000001000
43
0.0000001000
44
0.0000000001
12
0.4109068760
22
0.2010615886
32
0.0000000000
13
0.4098481622
23
-0.2048837263
33
0.0000000000
40
0.0000000000
40
0.0000000000
40
0.0000000000
40
0.0000000000
40
0.2005143800
40
0.3892497752
40
0.5669911938
40
0.7362259433
40
0.8992258387
40
1.0000000000
40
1.0000000000
40
1.0000000000
40
1.0000000000
10
1.7398507279
20
21.8486622185
30
0.0000000000
10
1.7673149737
20
21.8621007984
30
0.0000000000
10
1.8222047411
20
21.8851621688
30
0.0000000000
10
1.9059370471
20
21.9078049181
30
0.0000000000
10
1.9874541613
20
21.9170540199
30
0.0000000000
10
2.0655054691
20
21.9126348023
30
0.0000000000
10
2.1299964254
20
21.8966888615
30
0.0000000000
10
2.1671385450
20
21.8808831317
30
0.0000000000
10
2.1809059133
20
21.8740008031
30
0.0000000000
11
1.7398507279
21
21.8486622185
31
0.0000000000
11
1.8245540838
21
21.8838653937
31
0.0000000000
11
1.9079968208
21
21.9060404835
31
0.0000000000
11
1.9888289761
21
21.9148399181
31
0.0000000000
11
2.0661052187
21
21.9101532001
31
0.0000000000
11
2.1384455804
21
21.8920710131
31
0.0000000000
11
2.1809059133
21
21.8740008031
31
0.0000000000
0
SPLINE
5
3BD
100
AcDbEntity
8
0
100
AcDbSpline
62
7
6
CONTINUOUS
70
0
71
3
72
15
73
11
74
9
42
0.0000001000
43
0.0000001000
44
0.0000000001
12
0.0000000000
22
0.6311300022
32
0.0000000000
13
-0.5654420458
23
0.2826653478
33
0.0000000000
40
0.0000000000
40
0.0000000000
40
0.0000000000
40
0.0000000000
40
0.1606293349
40
0.3126800366
40
0.4557227302
40
0.5905083928
40
0.7175351878
40
0.8389320932
40
0.9563750069
40
1.0000000000
40
1.0000000000
40
1.0000000000
40
1.0000000000
10
-1.8018537705
20
23.4544582283
30
0.0000000000
10
-1.8018537705
20
23.4882508924
30
0.0000000000
10
-1.8049888511
20
23.5540922361
30
0.0000000000
10
-1.8199200762
20
23.6490012847
30
0.0000000000
10
-1.8447951058
20
23.7362131302
30
0.0000000000
10
-1.8793123605
20
23.8144108680
30
0.0000000000
10
-1.9231138934
20
23.8825255206
30
0.0000000000
10
-1.9756112735
20
23.9393962670
30
0.0000000000
10
-2.0237107706
20
23.9749233666
30
0.0000000000
10
-2.0535123054
20
23.9912107221
30
0.0000000000
10
-2.0617347738
20
23.9953211467
30
0.0000000000
11
-1.8018537705
21
23.4544582283
31
0.0000000000
11
-1.8069511095
21
23.5557079912
31
0.0000000000
11
-1.8221818055
21
23.6504553873
31
0.0000000000
11
-1.8472903189
21
23.7371720324
31
0.0000000000
11
-1.8819892012
21
23.8148407451
31
0.0000000000
11
-1.9256531066
21
23.8820773410
31
0.0000000000
11
-1.9778320965
21
23.9381803964
31
0.0000000000
11
-2.0375430676
21
23.9820966031
31
0.0000000000
11
-2.0617347738
21
23.9953211467
31
0.0000000000
0
SPLINE
5
3BE
100
AcDbEntity
8
0
100
AcDbSpline
62
7
6
CONTINUOUS
70
0
71
3
72
14
73
10
74
8
42
0.0000001000
43
0.0000001000
44
0.0000000001
12
0.2708906112
22
0.1349093253
32
0.0000000000
13
0.2717712229
23
-0.1267148392
33
0.0000000000
40
0.0000000000
40
0.0000000000
40
0.0000000000
40
0.0000000000
40
0.2329202022
40
0.4399164115
40
0.6194083446
40
0.7700461865
40
0.8880329346
40
0.9699863429
40
1.0000000000
40
1.0000000000
40
1.0000000000
40
1.0000000000
10
-5.5697559032
20
25.5034655340
30
0.0000000000
10
-5.5487239379
20
25.5139399031
30
0.0000000000
10
-5.5088299393
20
25.5333969396
30
0.0000000000
10
-5.4521267959
20
25.5595990683
30
0.0000000000
10
-5.4021808684
20
25.5808234040
30
0.0000000000
10
-5.3601892776
20
25.5969946370
30
0.0000000000
10
-5.3255424175
20
25.6069026681
30
0.0000000000
10
-5.3041669328
20
25.6117088590
30
0.0000000000
10
-5.2908532672
20
25.6097623115
30
0.0000000000
10
-5.2881343178
20
25.6084945862
30
0.0000000000
11
-5.5697559032
21
25.5034655340
31
0.0000000000
11
-5.5063731220
21
25.5343058778
31
0.0000000000
11
-5.4494489319
21
25.5604535480
31
0.0000000000
11
-5.3994275870
21
25.5816290716
31
0.0000000000
11
-5.3566970584
21
25.5975119019
31
0.0000000000
11
-5.3223901787
21
25.6074085094
31
0.0000000000
11
-5.2977821443
21
25.6104978628
31
0.0000000000
11
-5.2881343178
21
25.6084945862
31
0.0000000000
0
SPLINE
5
3BF
100
AcDbEntity
8
0
100
AcDbSpline
62
7
6
CONTINUOUS
70
0
71
3
72
17
73
13
74
11
42
0.0000001000
43
0.0000001000
44
0.0000000001
12
1.0551396127
22
0.5296213678
32
0.0000000000
13
0.9898942831
23
0.6433721347
33
0.0000000000
40
0.0000000000
40
0.0000000000
40
0.0000000000
40
0.0000000000
40
0.0675213051
40
0.1418306670
40
0.2230260770
40
0.3118684727
40
0.4084188083
40
0.5131016756
40
0.6257109067
40
0.7455368430
40
0.8710698098
40
1.0000000000
40
1.0000000000
40
1.0000000000
40
1.0000000000
10
4.8068166718
20
-18.3314731541
30
0.0000000000
10
4.8305648063
20
-18.3195529121
30
0.0000000000
10
4.8802311856
20
-18.2940799862
30
0.0000000000
10
4.9577670085
20
-18.2529479301
30
0.0000000000
10
5.0421651131
20
-18.2068622349
30
0.0000000000
10
5.1336920794
20
-18.1555824874
30
0.0000000000
10
5.2327121608
20
-18.0987784615
30
0.0000000000
10
5.3392436788
20
-18.0362835107
30
0.0000000000
10
5.4530291957
20
-17.9680632887
30
0.0000000000
10
5.5731470482
20
-17.8944602267
30
0.0000000000
10
5.6979639590
20
-17.8162465793
30
0.0000000000
10
5.7822492276
20
-17.7621680987
30
0.0000000000
10
5.8247916470
20
-17.7345180682
30
0.0000000000
11
4.8068166718
21
-18.3314731541
31
0.0000000000
11
4.8777729017
21
-18.2951439922
31
0.0000000000
11
4.9552931105
21
-18.2540694631
31
0.0000000000
11
5.0394433660
21
-18.2081591864
31
0.0000000000
11
5.1309619622
21
-18.1569174544
31
0.0000000000
11
5.2298472451
21
-18.1002179805
31
0.0000000000
11
5.3364563827
21
-18.0376987480
31
0.0000000000
11
5.4504859244
21
-17.9693463509
31
0.0000000000
11
5.5711104650
21
-17.8954374870
31
0.0000000000
11
5.6966917541
21
-17.8167363885
31
0.0000000000
11
5.8247916470
21
-17.7345180682
31
0.0000000000
0
SPLINE
5
3C0
100
AcDbEntity
8
0
100
AcDbSpline
62
7
6
CONTINUOUS
70
0
71
3
72
15
73
11
74
9
42
0.0000001000
43
0.0000001000
44
0.0000000001
12
0.0548220266
22
0.1975428018
32
0.0000000000
13
0.1824057236
23
0.0935775889
33
0.0000000000
40
0.0000000000
40
0.0000000000
40
0.0000000000
40
0.0000000000
40
0.1029198789
40
0.2104743227
40
0.3238712057
40
0.4440050729
40
0.5714710305
40
0.7065956721
40
0.8494731527
40
1.0000000000
40
1.0000000000
40
1.0000000000
40
1.0000000000
10
-11.0630935213
20
21.8904295990
30
0.0000000000
10
-11.0612127625
20
21.8972066261
30
0.0000000000
10
-11.0562964541
20
21.9107876381
30
0.0000000000
10
-11.0459085920
20
21.9303999063
30
0.0000000000
10
-11.0324601295
20
21.9495063433
30
0.0000000000
10
-11.0160506668
20
21.9679879259
30
0.0000000000
10
-10.9967903618
20
21.9857388203
30
0.0000000000
10
-10.9748034162
20
22.0026540592
30
0.0000000000
10
-10.9502306695
20
22.0186316543
30
0.0000000000
10
-10.9326715659
20
22.0283477785
30
0.0000000000
10
-10.9235192464
20
22.0330430917
30
0.0000000000
11
-11.0630935213
21
21.8904295990
31
0.0000000000
11
-11.0559660700
21
21.9102887930
31
0.0000000000
11
-11.0457109412
21
21.9298084646
31
0.0000000000
11
-11.0323938656
21
21.9488635232
31
0.0000000000
11
-11.0161001947
21
21.9673318575
31
0.0000000000
11
-10.9969343537
21
21.9850951170
31
0.0000000000
11
-10.9750191686
21
22.0020394727
31
0.0000000000
11
-10.9504950808
21
22.0180563435
31
0.0000000000
11
-10.9235192464
21
22.0330430917
31
0.0000000000
0
SPLINE
5
3C1
100
AcDbEntity
8
0
100
AcDbSpline
62
7
6
CONTINUOUS
70
0
71
3
72
9
73
5
74
3
42
0.0000001000
43
0.0000001000
44
0.0000000001
12
-0.0110755293
22
-0.0399089786
32
0.0000000000
13
0.0000076398
23
-0.0414526487
33
0.0000000000
40
0.0000000000
40
0.0000000000
40
0.0000000000
40
0.0000000000
40
0.7184555853
40
1.0000000000
40
1.0000000000
40
1.0000000000
40
1.0000000000
10
-11.0630935213
20
21.8904295990
30
0.0000000000
10
-11.0657459466
20
21.8808719895
30
0.0000000000
10
-11.0675597117
20
21.8670571155
30
0.0000000000
10
-11.0679178585
20
21.8532329440
30
0.0000000000
10
-11.0679171415
20
21.8493426901
30
0.0000000000
11
-11.0630935213
21
21.8904295990
31
0.0000000000
11
-11.0676008071
21
21.8610164436
31
0.0000000000
11
-11.0679171415
21
21.8493426901
31
0.0000000000
0
SPLINE
5
3C2
100
AcDbEntity
8
0
100
AcDbSpline
62
7
6
CONTINUOUS
70
0
71
3
72
10
73
6
74
4
42
0.0000001000
43
0.0000001000
44
0.0000000001
12
0.1112636021
22
4.4493102782
32
0.0000000000
13
0.1470217362
23
4.4482722657
33
0.0000000000
40
0.0000000000
40
0.0000000000
40
0.0000000000
40
0.0000000000
40
0.3328942135
40
0.6662280562
40
1.0000000000
40
1.0000000000
40
1.0000000000
40
1.0000000000
10
-7.2887847819
20
6.8382179442
30
0.0000000000
10
-7.2764384455
20
7.3319344928
30
0.0000000000
10
-7.2503996806
20
8.3199868835
30
0.0000000000
10
-7.2073373478
20
9.8029304621
30
0.0000000000
10
-7.1759633183
20
10.7921306462
30
0.0000000000
10
-7.1596060747
20
11.2870334730
30
0.0000000000
11
-7.2887847819
21
6.8382179442
31
0.0000000000
11
-7.2497550949
21
8.3193164706
31
0.0000000000
11
-7.2066953578
21
9.8022607947
31
0.0000000000
11
-7.1596060747
21
11.2870334730
31
0.0000000000
0
SPLINE
5
3C3
100
AcDbEntity
8
0
100
AcDbSpline
62
7
6
CONTINUOUS
70
0
71
3
72
21
73
17
74
15
42
0.0000001000
43
0.0000001000
44
0.0000000001
12
-1.8220730423
22
-1.0279883910
32
0.0000000000
13
-0.0691077900
23
-2.0909171234
33
0.0000000000
40
0.0000000000
40
0.0000000000
40
0.0000000000
40
0.0000000000
40
0.0628301167
40
0.1285692219
40
0.1969675825
40
0.2676917819
40
0.3403416378
40
0.4144655345
40
0.4895745455
40
0.5651557105
40
0.6406847897
40
0.7156387800
40
0.7895084579
40
0.8618112130
40
0.9321044658
40
1.0000000000
40
1.0000000000
40
1.0000000000
40
1.0000000000
10
-6.1553538731
20
13.0329945331
30
0.0000000000
10
-6.1935142271
20
13.0114649896
30
0.0000000000
10
-6.2694259570
20
12.9634641577
30
0.0000000000
10
-6.3786557020
20
12.8799293362
30
0.0000000000
10
-6.4847826316
20
12.7840682961
30
0.0000000000
10
-6.5866329065
20
12.6769463698
30
0.0000000000
10
-6.6830952407
20
12.5597409336
30
0.0000000000
10
-6.7731082379
20
12.4337444419
30
0.0000000000
10
-6.8556809505
20
12.3003462949
30
0.0000000000
10
-6.9299027236
20
12.1610185377
30
0.0000000000
10
-6.9949545166
20
12.0172990394
30
0.0000000000
10
-7.0501182173
20
11.8707735794
30
0.0000000000
10
-7.0947846807
20
11.7230593780
30
0.0000000000
10
-7.1284605007
20
11.5757800889
30
0.0000000000
10
-7.1507719630
20
11.4305699451
30
0.0000000000
10
-7.1580420379
20
11.3343547847
30
0.0000000000
10
-7.1596060747
20
11.2870334730
30
0.0000000000
11
-6.1553538731
21
13.0329945331
31
0.0000000000
11
-6.2666067898
21
12.9629917241
31
0.0000000000
11
-6.3760045546
21
12.8796451500
31
0.0000000000
11
-6.4823301784
21
12.7838819949
31
0.0000000000
11
-6.5844008479
21
12.6767675705
31
0.0000000000
11
-6.6810810838
21
12.5594934651
31
0.0000000000
11
-6.7712953724
21
12.4333642877
31
0.0000000000
11
-6.8540401301
21
12.2997831550
31
0.0000000000
11
-6.9283948675
21
12.1602360829
31
0.0000000000
11
-6.9935324297
21
12.0162754545
31
0.0000000000
11
-7.0487281975
21
11.8695027516
31
0.0000000000
11
-7.0933681489
21
11.7215507387
31
0.0000000000
11
-7.1269556893
21
11.5740652995
31
0.0000000000
11
-7.1491171759
21
11.4286871272
31
0.0000000000
11
-7.1596060747
21
11.2870334730
31
0.0000000000
0
SPLINE
5
3C4
100
AcDbEntity
8
0
100
AcDbSpline
62
7
6
CONTINUOUS
70
0
71
3
72
13
73
9
74
7
42
0.0000001000
43
0.0000001000
44
0.0000000001
12
0.0000000000
22
-0.1992493579
32
0.0000000000
13
-0.1622253429
23
-0.1165489567
33
0.0000000000
40
0.0000000000
40
0.0000000000
40
0.0000000000
40
0.0000000000
40
0.2306214966
40
0.4444126734
40
0.6413062557
40
0.8231321383
40
0.9941125441
40
1.0000000000
40
1.0000000000
40
1.0000000000
40
1.0000000000
10
5.4402078066
20
18.7204618882
30
0.0000000000
10
5.4402078066
20
18.7051448265
30
0.0000000000
10
5.4383990497
20
18.6755787868
30
0.0000000000
10
5.4296363170
20
18.6337245817
30
0.0000000000
10
5.4150900525
20
18.5969183522
30
0.0000000000
10
5.3950299745
20
18.5660749531
30
0.0000000000
10
5.3776222778
20
18.5494611059
30
0.0000000000
10
5.3680893157
20
18.5425470181
30
0.0000000000
10
5.3677709509
20
18.5423182925
30
0.0000000000
11
5.4402078066
21
18.7204618882
31
0.0000000000
11
5.4371823763
21
18.6746104086
31
0.0000000000
11
5.4281938487
21
18.6329717837
31
0.0000000000
11
5.4134976533
21
18.5965975220
31
0.0000000000
11
5.3935061378
21
18.5663839934
31
0.0000000000
11
5.3687229171
21
18.5430087370
31
0.0000000000
11
5.3677709509
21
18.5423182925
31
0.0000000000
0
SPLINE
5
3C5
100
AcDbEntity
8
0
100
AcDbSpline
62
7
6
CONTINUOUS
70
0
71
3
72
19
73
15
74
13
42
0.0000001000
43
0.0000001000
44
0.0000000001
12
0.6274176198
22
-0.3540982572
32
0.0000000000
13
0.0132648680
23
-0.7203211011
33
0.0000000000
40
0.0000000000
40
0.0000000000
40
0.0000000000
40
0.0000000000
40
0.0737301764
40
0.1523825260
40
0.2346017262
40
0.3194320527
40
0.4069395039
40
0.4966528261
40
0.5867439860
40
0.6755159765
40
0.7616763982
40
0.8447126847
40
0.9243093786
40
1.0000000000
40
1.0000000000
40
1.0000000000
40
1.0000000000
10
0.0718739583
20
15.6806829810
30
0.0000000000
10
0.0872938289
20
15.6719804054
30
0.0000000000
10
0.1180803427
20
15.6520337692
30
0.0000000000
10
0.1620145166
20
15.6166275382
30
0.0000000000
10
0.2042603786
20
15.5753141705
30
0.0000000000
10
0.2441483465
20
15.5288971620
30
0.0000000000
10
0.2811918989
20
15.4779416889
30
0.0000000000
10
0.3148029946
20
15.4231744795
30
0.0000000000
10
0.3442595211
20
15.3657252762
30
0.0000000000
10
0.3689299512
20
15.3069891468
30
0.0000000000
10
0.3884867685
20
15.2481411233
30
0.0000000000
10
0.4028093042
20
15.1900677578
30
0.0000000000
10
0.4118593994
20
15.1334878644
30
0.0000000000
10
0.4144282731
20
15.0962187032
30
0.0000000000
10
0.4147629485
20
15.0780448526
30
0.0000000000
11
0.0718739583
21
15.6806829810
31
0.0000000000
11
0.1165592314
21
15.6519637983
31
0.0000000000
11
0.1607569753
21
15.6165035253
31
0.0000000000
11
0.2031945483
21
15.5751785853
31
0.0000000000
11
0.2430884950
21
15.5288798884
31
0.0000000000
11
0.2802050347
21
15.4779198314
31
0.0000000000
11
0.3140365637
21
15.4228480756
31
0.0000000000
11
0.3436514390
21
15.3650926285
31
0.0000000000
11
0.3683947568
21
15.3061177762
31
0.0000000000
11
0.3879231956
21
15.2471959350
31
0.0000000000
11
0.4021766025
21
15.1890958199
31
0.0000000000
11
0.4111333452
21
15.1324547198
31
0.0000000000
11
0.4147629485
21
15.0780448526
31
0.0000000000
0
SPLINE
5
3C6
100
AcDbEntity
8
0
100
AcDbSpline
62
7
6
CONTINUOUS
70
0
71
3
72
14
73
10
74
8
42
0.0000001000
43
0.0000001000
44
0.0000000001
12
-0.0057788785
22
-0.3193905886
32
0.0000000000
13
-0.2869840828
23
-0.1415769231
33
0.0000000000
40
0.0000000000
40
0.0000000000
40
0.0000000000
40
0.0000000000
40
0.1650267205
40
0.3218437865
40
0.4702492848
40
0.6110082444
40
0.7453354189
40
0.8743373476
40
1.0000000000
40
1.0000000000
40
1.0000000000
40
1.0000000000
10
0.4147629485
20
-22.8536699093
30
0.0000000000
10
0.4144450587
20
-22.8712392364
30
0.0000000000
10
0.4121791148
20
-22.9055067261
30
0.0000000000
10
0.4033778670
20
-22.9549117102
30
0.0000000000
10
0.3892528163
20
-23.0003989750
30
0.0000000000
10
0.3697936820
20
-23.0412739672
30
0.0000000000
10
0.3450356896
20
-23.0767388372
30
0.0000000000
10
0.3151965848
20
-23.1058575268
30
0.0000000000
10
0.2921390675
20
-23.1205148098
30
0.0000000000
10
0.2801180071
20
-23.1264451203
30
0.0000000000
11
0.4147629485
21
-22.8536699093
31
0.0000000000
11
0.4111333452
21
-22.9062614178
31
0.0000000000
11
0.4021766025
21
-22.9555482810
31
0.0000000000
11
0.3879231956
21
-23.0007619005
31
0.0000000000
11
0.3683947568
21
-23.0412642635
31
0.0000000000
11
0.3436514390
21
-23.0763217033
31
0.0000000000
11
0.3140365637
21
-23.1049768926
31
0.0000000000
11
0.2801180071
21
-23.1264451203
31
0.0000000000
0
SPLINE
5
3C7
100
AcDbEntity
8
0
100
AcDbSpline
62
9
6
CONTINUOUS
70
0
71
3
72
10
73
6
74
4
42
0.0000001000
43
0.0000001000
44
0.0000000001
12
-0.0148637617
22
1.3802261115
32
0.0000000000
13
-0.0112507622
23
1.3802602909
33
0.0000000000
40
0.0000000000
40
0.0000000000
40
0.0000000000
40
0.0000000000
40
0.3331847902
40
0.6665180870
40
1.0000000000
40
1.0000000000
40
1.0000000000
40
1.0000000000
10
-11.2042466910
20
-10.4959136548
30
0.0000000000
10
-11.2058974841
20
-10.3426235390
30
0.0000000000
10
-11.2090658139
20
-10.0359735227
30
0.0000000000
10
-11.2134177462
20
-9.5758920044
30
0.0000000000
10
-11.2160521103
20
-9.2691002243
30
0.0000000000
10
-11.2173027522
20
-9.1156696102
30
0.0000000000
11
-11.2042466910
21
-10.4959136548
31
0.0000000000
11
-11.2089982157
21
-10.0360411883
31
0.0000000000
11
-11.2133502366
21
-9.5759597737
31
0.0000000000
11
-11.2173027522
21
-9.1156696102
31
0.0000000000
0
SPLINE
5
3C8
100
AcDbEntity
8
0
100
AcDbSpline
62
9
6
CONTINUOUS
70
0
71
3
72
14
73
10
74
8
42
0.0000001000
43
0.0000001000
44
0.0000000001
12
-0.0143836992
22
-0.3374192641
32
0.0000000000
13
-0.3120967205
23
-0.1310012098
33
0.0000000000
40
0.0000000000
40
0.0000000000
40
0.0000000000
40
0.0000000000
40
0.1814597712
40
0.3519887890
40
0.5113357285
40
0.6601982272
40
0.8003674891
40
0.9347434728
40
1.0000000000
40
1.0000000000
40
1.0000000000
40
1.0000000000
10
-5.0829263240
20
-25.1613765573
30
0.0000000000
10
-5.0837963449
20
-25.1817858981
30
0.0000000000
10
-5.0876819836
20
-25.2213326366
30
0.0000000000
10
-5.1006064487
20
-25.2776027672
30
0.0000000000
10
-5.1202539751
20
-25.3280245168
30
0.0000000000
10
-5.1463173515
20
-25.3715676521
30
0.0000000000
10
-5.1783769211
20
-25.4072854840
30
0.0000000000
10
-5.2096649944
20
-25.4298418952
30
0.0000000000
10
-5.2299466229
20
-25.4397183199
30
0.0000000000
10
-5.2367354056
20
-25.4425678813
30
0.0000000000
11
-5.0829263240
21
-25.1613765573
31
0.0000000000
11
-5.0891344645
21
-25.2223449274
31
0.0000000000
11
-5.1022787860
21
-25.2784169259
31
0.0000000000
11
-5.1220920185
21
-25.3284524135
31
0.0000000000
11
-5.1481712898
21
-25.3714339940
31
0.0000000000
11
-5.1799863175
21
-25.4064877022
31
0.0000000000
11
-5.2168901909
21
-25.4329007736
31
0.0000000000
11
-5.2367354056
21
-25.4425678813
31
0.0000000000
0
SPLINE
5
3C9
100
AcDbEntity
8
0
100
AcDbSpline
62
9
6
CONTINUOUS
70
0
71
3
72
21
73
17
74
15
42
0.0000001000
43
0.0000001000
44
0.0000000001
12
0.0358334250
22
-1.0301968179
32
0.0000000000
13
0.9504873542
23
0.3989527635
33
0.0000000000
40
0.0000000000
40
0.0000000000
40
0.0000000000
40
0.0000000000
40
0.0851355384
40
0.1662715009
40
0.2433647188
40
0.3165869972
40
0.3863331043
40
0.4532230892
40
0.5180904390
40
0.5819429826
40
0.6458820989
40
0.7109992396
40
0.7782802907
40
0.8485311005
40
0.9223307366
40
1.0000000000
40
1.0000000000
40
1.0000000000
40
1.0000000000
10
-5.7641139833
20
-24.6610608892
30
0.0000000000
10
-5.7630970840
20
-24.6902963428
30
0.0000000000
10
-5.7585876098
20
-24.7473500197
30
0.0000000000
10
-5.7437503099
20
-24.8297928344
30
0.0000000000
10
-5.7211320176
20
-24.9062225295
30
0.0000000000
10
-5.6909440506
20
-24.9757750766
30
0.0000000000
10
-5.6534715507
20
-25.0376644251
30
0.0000000000
10
-5.6090812110
20
-25.0911578408
30
0.0000000000
10
-5.5582408866
20
-25.1355844184
30
0.0000000000
10
-5.5015373641
20
-25.1703608621
30
0.0000000000
10
-5.4396735468
20
-25.1950346939
30
0.0000000000
10
-5.3734335628
20
-25.2093191154
30
0.0000000000
10
-5.3036345599
20
-25.2130963768
30
0.0000000000
10
-5.2310917496
20
-25.2063892718
30
0.0000000000
10
-5.1566384400
20
-25.1893455255
30
0.0000000000
10
-5.1075342082
20
-25.1717053464
30
0.0000000000
10
-5.0829263240
20
-25.1613765573
30
0.0000000000
11
-5.7641139833
21
-24.6610608892
31
0.0000000000
11
-5.7570037231
21
-24.7485317797
31
0.0000000000
11
-5.7419746051
21
-24.8308069253
31
0.0000000000
11
-5.7191936769
21
-24.9069409247
31
0.0000000000
11
-5.6889153383
21
-24.9760806246
31
0.0000000000
11
-5.6514757166
21
-25.0374586508
31
0.0000000000
11
-5.6072905050
21
-25.0903923788
31
0.0000000000
11
-5.5568521626
21
-25.1342912304
31
0.0000000000
11
-5.5007215567
21
-25.1686669353
31
0.0000000000
11
-5.4395226558
21
-25.1931370040
31
0.0000000000
11
-5.3739376888
21
-25.2074285686
31
0.0000000000
11
-5.3046958702
21
-25.2113829145
31
0.0000000000
11
-5.2325657335
21
-25.2049556321
31
0.0000000000
11
-5.1583554045
21
-25.1882194421
31
0.0000000000
11
-5.0829263240
21
-25.1613765573
31
0.0000000000
0
SPLINE
5
3CA
100
AcDbEntity
8
0
100
AcDbSpline
62
9
6
CONTINUOUS
70
0
71
3
72
15
73
11
74
9
42
0.0000001000
43
0.0000001000
44
0.0000000001
12
0.0310416962
22
-0.8977066990
32
0.0000000000
13
0.8042870030
23
-0.4023069738
33
0.0000000000
40
0.0000000000
40
0.0000000000
40
0.0000000000
40
0.0000000000
40
0.1465674326
40
0.2861254853
40
0.4186548540
40
0.5444398215
40
0.6641513047
40
0.7788532701
40
0.8899850540
40
1.0000000000
40
1.0000000000
40
1.0000000000
40
1.0000000000
10
-6.4646974572
20
-24.6756607034
30
0.0000000000
10
-6.4631808899
20
-24.7195188921
30
0.0000000000
10
-6.4564551935
20
-24.8050729985
30
0.0000000000
10
-6.4343253571
20
-24.9286750953
30
0.0000000000
10
-6.4005972524
20
-25.0432055907
30
0.0000000000
10
-6.3555831335
20
-25.1473916328
30
0.0000000000
10
-6.2997063527
20
-25.2400573224
30
0.0000000000
10
-6.2335111515
20
-25.3201066834
30
0.0000000000
10
-6.1575322817
20
-25.3866746612
30
0.0000000000
10
-6.1008104067
20
-25.4214634803
30
0.0000000000
10
-6.0713158763
20
-25.4362167403
30
0.0000000000
11
-6.4646974572
21
-24.6756607034
31
0.0000000000
11
-6.4540866162
21
-24.8068856106
31
0.0000000000
11
-6.4316695292
21
-24.9302220238
31
0.0000000000
11
-6.3976929139
21
-25.0443139619
31
0.0000000000
11
-6.3525364959
21
-25.1478833597
31
0.0000000000
11
-6.2967015055
21
-25.2397809174
31
0.0000000000
11
-6.2308078911
21
-25.3189848752
31
0.0000000000
11
-6.1555896872
21
-25.3846120611
31
0.0000000000
11
-6.0713158763
21
-25.4362167403
31
0.0000000000
0
SPLINE
5
3CB
100
AcDbEntity
8
0
100
AcDbSpline
62
9
6
CONTINUOUS
70
0
71
3
72
18
73
14
74
12
42
0.0000001000
43
0.0000001000
44
0.0000000001
12
-0.6380970856
22
-0.3397258123
32
0.0000000000
13
-0.6467991106
23
0.3228504744
33
0.0000000000
40
0.0000000000
40
0.0000000000
40
0.0000000000
40
0.0000000000
40
0.0824426650
40
0.1702426433
40
0.2623898895
40
0.3576875487
40
0.4548144295
40
0.5523807451
40
0.6489805877
40
0.7432436837
40
0.8338887643
40
0.9197813561
40
1.0000000000
40
1.0000000000
40
1.0000000000
40
1.0000000000
10
-5.7641139833
20
-24.6610608892
30
0.0000000000
10
-5.7816494581
20
-24.6703968563
30
0.0000000000
10
-5.8189864125
20
-24.6876031847
30
0.0000000000
10
-5.8787605154
20
-24.7084548167
30
0.0000000000
10
-5.9431058629
20
-24.7248519314
30
0.0000000000
10
-6.0107553160
20
-24.7364688025
30
0.0000000000
10
-6.0803848161
20
-24.7430780584
30
0.0000000000
10
-6.1506245903
20
-24.7445488401
30
0.0000000000
10
-6.2200935436
20
-24.7408523421
30
0.0000000000
10
-6.2874257362
20
-24.7320623525
30
0.0000000000
10
-6.3513054301
20
-24.7183504084
30
0.0000000000
10
-6.4104761434
20
-24.6999887934
30
0.0000000000
10
-6.4474022249
20
-24.6842935150
30
0.0000000000
10
-6.4646973407
20
-24.6756606393
30
0.0000000000
11
-5.7641139833
21
-24.6610608892
31
0.0000000000
11
-5.8181504360
21
-24.6861993098
31
0.0000000000
11
-5.8780258662
21
-24.7072570442
31
0.0000000000
11
-5.9425482519
21
-24.7238148671
31
0.0000000000
11
-6.0104330578
21
-24.7355431393
31
0.0000000000
11
-6.0803288080
21
-24.7422083700
31
0.0000000000
11
-6.1508439923
21
-24.7436778655
31
0.0000000000
11
-6.2205747686
21
-24.7399223704
31
0.0000000000
11
-6.2881329108
21
-24.7310166505
31
0.0000000000
11
-6.3521734466
21
-24.7171380042
31
0.0000000000
11
-6.4114214335
21
-24.6985627327
31
0.0000000000
11
-6.4646973407
21
-24.6756606393
31
0.0000000000
0
SPLINE
5
3CC
100
AcDbEntity
8
0
100
AcDbSpline
62
9
6
CONTINUOUS
70
0
71
3
72
14
73
10
74
8
42
0.0000001000
43
0.0000001000
44
0.0000000001
12
-1.1963802455
22
-35.5662953333
32
0.0000000000
13
1.2365004139
23
-35.5649231146
33
0.0000000000
40
0.0000000000
40
0.0000000000
40
0.0000000000
40
0.0000000000
40
0.1448612373
40
0.2890651229
40
0.4326049489
40
0.5754743190
40
0.7176671223
40
0.8591775337
40
1.0000000000
40
1.0000000000
40
1.0000000000
40
1.0000000000
10
-5.7641139833
20
10.9185637385
30
0.0000000000
10
-5.8218836909
20
9.2011712221
30
0.0000000000
10
-5.9209979529
20
5.7736129061
30
0.0000000000
10
-6.0203860914
20
0.6428814052
30
0.0000000000
10
-6.0701422513
20
-4.4649484403
30
0.0000000000
10
-6.0702592731
20
-9.5491643613
30
0.0000000000
10
-6.0207370429
20
-14.6090676896
30
0.0000000000
10
-5.9215825446
20
-19.6439522058
30
0.0000000000
10
-5.8221563292
20
-22.9916141604
30
0.0000000000
10
-5.7641139833
20
-24.6610608892
30
0.0000000000
11
-5.7641139833
21
10.9185637385
31
0.0000000000
11
-5.9130102543
21
5.7656228839
31
0.0000000000
11
-6.0122858877
21
0.6348844205
31
0.0000000000
11
-6.0619271328
21
-4.4729416865
31
0.0000000000
11
-6.0619271346
21
-9.5571498963
31
0.0000000000
11
-6.0122858934
21
-14.6170380128
31
0.0000000000
11
-5.9130102636
21
-19.6519071139
31
0.0000000000
11
-5.7641139833
21
-24.6610608892
31
0.0000000000
0
SPLINE
5
3CD
100
AcDbEntity
8
0
100
AcDbSpline
62
9
6
CONTINUOUS
70
0
71
3
72
14
73
10
74
8
42
0.0000001000
43
0.0000001000
44
0.0000000001
12
-1.1975571035
22
-35.6018976943
32
0.0000000000
13
1.2377174667
23
-35.6005241243
33
0.0000000000
40
0.0000000000
40
0.0000000000
40
0.0000000000
40
0.0000000000
40
0.1448613000
40
0.2890652005
40
0.4326050301
40
0.5754743923
40
0.7176671754
40
0.8591775541
40
1.0000000000
40
1.0000000000
40
1.0000000000
40
1.0000000000
10
-6.4646974572
20
10.9395791642
30
0.0000000000
10
-6.5225240168
20
9.2204667699
30
0.0000000000
10
-6.6217357798
20
5.7894765182
30
0.0000000000
10
-6.7212216999
20
0.6536081884
30
0.0000000000
10
-6.7710268038
20
-4.4593346975
30
0.0000000000
10
-6.7711439410
20
-9.5486395974
30
0.0000000000
10
-6.7215729972
20
-14.6136071444
30
0.0000000000
10
-6.6223209502
20
-19.6535307131
30
0.0000000000
10
-6.5227969242
20
-23.0045430764
30
0.0000000000
10
-6.4646974572
20
-24.6756607034
30
0.0000000000
11
-6.4646974572
21
10.9395791642
31
0.0000000000
11
-6.6137402404
21
5.7814779374
31
0.0000000000
11
-6.7131135300
21
0.6456030697
31
0.0000000000
11
-6.7628036053
21
-4.4673360821
31
0.0000000000
11
-6.7628036053
21
-9.5566332713
31
0.0000000000
11
-6.7131135300
21
-14.6215855994
31
0.0000000000
11
-6.6137402404
21
-19.6614934455
31
0.0000000000
11
-6.4646974572
21
-24.6756607034
31
0.0000000000
0
SPLINE
5
3CE
100
AcDbEntity
8
0
100
AcDbSpline
62
9
6
CONTINUOUS
70
0
71
3
72
18
73
14
74
12
42
0.0000001000
43
0.0000001000
44
0.0000000001
12
-0.6598811159
22
-0.2859158686
32
0.0000000000
13
-0.6430024739
23
0.3220850659
33
0.0000000000
40
0.0000000000
40
0.0000000000
40
0.0000000000
40
0.0000000000
40
0.0801802321
40
0.1664109950
40
0.2576286248
40
0.3525680072
40
0.4498271329
40
0.5479234206
40
0.6453460049
40
0.7406067501
40
0.8322922827
40
0.9191197082
40
1.0000000000
40
1.0000000000
40
1.0000000000
40
1.0000000000
10
-5.7641139833
20
10.9185637385
30
0.0000000000
10
-5.7817504570
20
10.9109221383
30
0.0000000000
10
-5.8192651786
20
10.8971220200
30
0.0000000000
10
-5.8790056672
20
10.8811922286
30
0.0000000000
10
-5.9433164748
20
10.8695115102
30
0.0000000000
10
-6.0109317104
20
10.8623145112
30
0.0000000000
10
-6.0805271916
20
10.8597438369
30
0.0000000000
10
-6.1507322224
20
10.8618517379
30
0.0000000000
10
-6.2201642637
20
10.8685967710
30
0.0000000000
10
-6.2874557255
20
10.8798446046
30
0.0000000000
10
-6.3512882306
20
10.8953732479
30
0.0000000000
10
-6.4104050532
20
10.9148722708
30
0.0000000000
10
-6.4473620478
20
10.9308957196
30
0.0000000000
10
-6.4646974570
20
10.9395791643
30
0.0000000000
11
-5.7641139833
21
10.9185637385
31
0.0000000000
11
-5.8181504358
21
10.8984387511
31
0.0000000000
11
-5.8780258699
21
10.8822946410
31
0.0000000000
11
-5.9425482631
21
10.8704528113
31
0.0000000000
11
-6.0104330794
21
10.8631490135
31
0.0000000000
11
-6.0803288424
21
10.8605286545
31
0.0000000000
11
-6.1508440411
21
10.8626439013
31
0.0000000000
11
-6.2205748324
21
10.8694526427
31
0.0000000000
11
-6.2881329896
21
10.8808193278
31
0.0000000000
11
-6.3521735397
21
10.8965176644
31
0.0000000000
11
-6.4114215393
21
10.9162351241
31
0.0000000000
11
-6.4646974570
21
10.9395791643
31
0.0000000000
0
SPLINE
5
3CF
100
AcDbEntity
8
0
100
AcDbSpline
62
9
6
CONTINUOUS
70
0
71
3
72
21
73
17
74
15
42
0.0000001000
43
0.0000001000
44
0.0000000001
12
-1.2263250671
22
-0.6695138293
32
0.0000000000
13
-0.0469947056
23
-1.3963930090
33
0.0000000000
40
0.0000000000
40
0.0000000000
40
0.0000000000
40
0.0000000000
40
0.0632423494
40
0.1293238015
40
0.1979766025
40
0.2688666363
40
0.3416015236
40
0.4157381206
40
0.4907946243
40
0.5662687081
40
0.6416481346
40
0.7164208463
40
0.7900920006
40
0.8621954529
40
0.9322989743
40
1.0000000000
40
1.0000000000
40
1.0000000000
40
1.0000000000
10
-5.0829263240
20
12.0766946828
30
0.0000000000
10
-5.1087782168
20
12.0625808070
30
0.0000000000
10
-5.1602233765
20
12.0310582255
30
0.0000000000
10
-5.2343205774
20
11.9760092436
30
0.0000000000
10
-5.3063227678
20
11.9127146659
30
0.0000000000
10
-5.3754236600
20
11.8418839922
30
0.0000000000
10
-5.4408683532
20
11.7642974960
30
0.0000000000
10
-5.5019366662
20
11.6808108834
30
0.0000000000
10
-5.5579560782
20
11.5923454720
30
0.0000000000
10
-5.6083086565
20
11.4998781413
30
0.0000000000
10
-5.6524388002
20
11.4044299498
30
0.0000000000
10
-5.6898594817
20
11.3070541688
30
0.0000000000
10
-5.7201580376
20
11.2088250370
30
0.0000000000
10
-5.7429990099
20
11.1108229950
30
0.0000000000
10
-5.7581278101
20
11.0141514350
30
0.0000000000
10
-5.7630534534
20
10.9500761515
30
0.0000000000
10
-5.7641139833
20
10.9185637385
30
0.0000000000
11
-5.0829263240
21
12.0766946828
31
0.0000000000
11
-5.1583663078
21
12.0306891885
31
0.0000000000
11
-5.2325768263
21
11.9757597460
31
0.0000000000
11
-5.3047070374
21
11.9125301042
31
0.0000000000
11
-5.3739488193
21
11.8417080516
31
0.0000000000
11
-5.4395335424
21
11.7640802255
31
0.0000000000
11
-5.5007320458
21
11.6805095121
31
0.0000000000
11
-5.5568618555
21
11.5919280134
31
0.0000000000
11
-5.6072989562
21
11.4993210810
31
0.0000000000
11
-5.6514827127
21
11.4037184365
31
0.0000000000
11
-5.6889209081
21
11.3061858057
31
0.0000000000
11
-5.7191978527
21
11.2078073054
31
0.0000000000
11
-5.7419774328
21
11.1096747789
31
0.0000000000
11
-5.7570053423
21
11.0128870086
31
0.0000000000
11
-5.7641139833
21
10.9185637385
31
0.0000000000
0
SPLINE
5
3D0
100
AcDbEntity
8
0
100
AcDbSpline
62
9
6
CONTINUOUS
70
0
71
3
72
21
73
17
74
15
42
0.0000001000
43
0.0000001000
44
0.0000000001
12
-1.8337301161
22
-1.0121382920
32
0.0000000000
13
-0.0700221748
23
-2.0933434873
33
0.0000000000
40
0.0000000000
40
0.0000000000
40
0.0000000000
40
0.0000000000
40
0.0631226289
40
0.1290868232
40
0.1976523963
40
0.2684837715
40
0.3411865805
40
0.4153151671
40
0.4903850914
40
0.5658908224
40
0.6413163917
40
0.7161456439
40
0.7898792796
40
0.8620463819
40
0.9322095142
40
1.0000000000
40
1.0000000000
40
1.0000000000
40
1.0000000000
10
-5.4487590640
20
12.6796971285
30
0.0000000000
10
-5.4873423525
20
12.6584008520
30
0.0000000000
10
-5.5641001934
20
12.6108710352
30
0.0000000000
10
-5.6746133490
20
12.5279690580
30
0.0000000000
10
-5.7819856555
20
12.4327222081
30
0.0000000000
10
-5.8850312845
20
12.3261869270
30
0.0000000000
10
-5.9826245927
20
12.2095362662
30
0.0000000000
10
-6.0736920493
20
12.0840564567
30
0.0000000000
10
-6.1572310813
20
11.9511316999
30
0.0000000000
10
-6.2323204463
20
11.8122293036
30
0.0000000000
10
-6.2981316429
20
11.6688827526
30
0.0000000000
10
-6.3539384687
20
11.5226737224
30
0.0000000000
10
-6.3991253042
20
11.3752149615
30
0.0000000000
10
-6.4331925162
20
11.2281284875
30
0.0000000000
10
-6.4557632780
20
11.0830427767
30
0.0000000000
10
-6.4631151781
20
10.9868820882
30
0.0000000000
10
-6.4646974572
20
10.9395791642
30
0.0000000000
11
-5.4487590640
21
12.6796971285
31
0.0000000000
11
-5.5613149907
21
12.6103359195
31
0.0000000000
11
-5.6719853075
21
12.5276250929
31
0.0000000000
11
-5.7795527871
21
12.4324751013
31
0.0000000000
11
-5.8828124788
21
12.3259512426
31
0.0000000000
11
-5.9806183451
21
12.2092365520
31
0.0000000000
11
-6.0718832287
21
12.0836282754
31
0.0000000000
11
-6.1555899249
21
11.9505266483
31
0.0000000000
11
-6.2308080911
21
11.8114117170
31
0.0000000000
11
-6.2967016822
21
11.6678300554
31
0.0000000000
11
-6.3525366617
21
11.5213819700
31
0.0000000000
11
-6.3976930327
21
11.3736950464
31
0.0000000000
11
-6.4316696161
21
11.2264081369
31
0.0000000000
11
-6.4540866778
21
11.0811702776
31
0.0000000000
11
-6.4646974572
21
10.9395791642
31
0.0000000000
0
SPLINE
5
3D1
100
AcDbEntity
8
0
100
AcDbSpline
62
9
6
CONTINUOUS
70
0
71
3
72
18
73
14
74
12
42
0.0000001000
43
0.0000001000
44
0.0000000001
12
-0.0325473818
22
0.7320804071
32
0.0000000000
13
-0.6504608185
23
0.3374933751
33
0.0000000000
40
0.0000000000
40
0.0000000000
40
0.0000000000
40
0.0000000000
40
0.0850839003
40
0.1748243756
40
0.2682332455
40
0.3641524548
40
0.4613158552
40
0.5584058763
40
0.6541079433
40
0.7471650214
40
0.8364347003
40
0.9209517528
40
1.0000000000
40
1.0000000000
40
1.0000000000
40
1.0000000000
10
-5.0829263240
20
12.0766946828
30
0.0000000000
10
-5.0838494100
20
12.0974574349
30
0.0000000000
10
-5.0882459717
20
12.1400329173
30
0.0000000000
10
-5.1015055586
20
12.2042924984
30
0.0000000000
10
-5.1213589647
20
12.2695998018
30
0.0000000000
10
-5.1474076735
20
12.3346396549
30
0.0000000000
10
-5.1791299916
20
12.3981131849
30
0.0000000000
10
-5.2158895666
20
12.4587464460
30
0.0000000000
10
-5.2569496172
20
12.5153239583
30
0.0000000000
10
-5.3014872717
20
12.5667121282
30
0.0000000000
10
-5.3486195723
20
12.6118868279
30
0.0000000000
10
-5.3974016497
20
12.6499408592
30
0.0000000000
10
-5.4316198015
20
12.6708043753
30
0.0000000000
10
-5.4487590640
20
12.6796971285
30
0.0000000000
11
-5.0829263240
21
12.0766946828
31
0.0000000000
11
-5.0891344626
21
12.1387346271
31
0.0000000000
11
-5.1022787800
21
12.2031697567
31
0.0000000000
11
-5.1220920075
21
12.2686898813
31
0.0000000000
11
-5.1481712739
21
12.3339627488
31
0.0000000000
11
-5.1799862977
21
12.3976611340
31
0.0000000000
11
-5.2168901692
21
12.4584898261
31
0.0000000000
11
-5.2581325043
21
12.5152119649
31
0.0000000000
11
-5.3028747025
21
12.5666741905
31
0.0000000000
11
-5.3502069987
21
12.6118300951
31
0.0000000000
11
-5.3991669617
21
12.6497615007
31
0.0000000000
11
-5.4487590640
21
12.6796971285
31
0.0000000000
0
SPLINE
5
3D2
100
AcDbEntity
8
0
100
AcDbSpline
62
7
6
CONTINUOUS
70
0
71
3
72
10
73
6
74
4
42
0.0000001000
43
0.0000001000
44
0.0000000001
12
0.8899815397
22
0.4974375475
32
0.0000000000
13
0.8901386879
23
0.4971562843
33
0.0000000000
40
0.0000000000
40
0.0000000000
40
0.0000000000
40
0.0000000000
40
0.3330127956
40
0.6663150956
40
1.0000000000
40
1.0000000000
40
1.0000000000
40
1.0000000000
10
-0.8180809831
20
15.1834527993
30
0.0000000000
10
-0.7192892362
20
15.2386704888
30
0.0000000000
10
-0.5216140314
20
15.3491434469
30
0.0000000000
10
-0.2249273043
20
15.5149090551
30
0.0000000000
10
-0.0270294147
20
15.6254517611
30
0.0000000000
10
0.0719791996
20
15.6807496102
30
0.0000000000
11
-0.8180809831
21
15.1834527993
31
0.0000000000
11
-0.5216970109
21
15.3490902448
31
0.0000000000
11
-0.2250379115
21
15.5148404300
31
0.0000000000
11
0.0719791996
21
15.6807496102
31
0.0000000000
0
SPLINE
5
3D3
100
AcDbEntity
8
0
100
AcDbSpline
62
9
6
CONTINUOUS
70
0
71
3
72
10
73
6
74
4
42
0.0000001000
43
0.0000001000
44
0.0000000001
12
-0.0151012967
22
1.1631119261
32
0.0000000000
13
-0.0125259716
23
1.1631425114
33
0.0000000000
40
0.0000000000
40
0.0000000000
40
0.0000000000
40
0.0000000000
40
0.3332075479
40
0.6665408646
40
1.0000000000
40
1.0000000000
40
1.0000000000
40
1.0000000000
10
-12.0036065787
20
-11.2524549846
30
0.0000000000
10
-12.0052838674
20
-11.1232690937
30
0.0000000000
10
-12.0085435887
20
-10.8648473004
30
0.0000000000
10
-12.0131478393
20
-10.4771379547
30
0.0000000000
10
-12.0160271895
20
-10.2186140877
30
0.0000000000
10
-12.0174194894
20
-10.0893272556
30
0.0000000000
11
-12.0036065787
21
-11.2524549846
31
0.0000000000
11
-12.0084952916
21
-10.8648954796
31
0.0000000000
11
-12.0130995956
21
-10.4771861855
31
0.0000000000
11
-12.0174194894
21
-10.0893272556
31
0.0000000000
0
SPLINE
5
3D4
100
AcDbEntity
8
0
100
AcDbSpline
62
9
6
CONTINUOUS
70
0
71
3
72
9
73
5
74
3
42
0.0000001000
43
0.0000001000
44
0.0000000001
12
-0.0222190764
22
0.0111115533
32
0.0000000000
13
-0.0242595856
23
0.0050243247
33
0.0000000000
40
0.0000000000
40
0.0000000000
40
0.0000000000
40
0.0000000000
40
0.0704920348
40
1.0000000000
40
1.0000000000
40
1.0000000000
40
1.0000000000
10
0.5342412684
20
-23.7890612256
30
0.0000000000
10
0.5337191791
20
-23.7888001336
30
0.0000000000
10
0.5262774977
20
-23.7851659085
30
0.0000000000
10
0.5183490687
20
-23.7825336629
30
0.0000000000
10
0.5108325760
20
-23.7809769463
30
0.0000000000
11
0.5342412684
21
-23.7890612256
31
0.0000000000
11
0.5326676019
21
-23.7882927447
31
0.0000000000
11
0.5108325760
21
-23.7809769463
31
0.0000000000
0
SPLINE
5
3D5
100
AcDbEntity
8
0
100
AcDbSpline
62
7
6
CONTINUOUS
70
0
71
3
72
10
73
6
74
4
42
0.0000001000
43
0.0000001000
44
0.0000000001
12
0.0054823748
22
0.0028546073
32
0.0000000000
13
0.0055241844
23
0.0027728331
33
0.0000000000
40
0.0000000000
40
0.0000000000
40
0.0000000000
40
0.0000000000
40
0.3341491732
40
0.6674827217
40
1.0000000000
40
1.0000000000
40
1.0000000000
40
1.0000000000
10
-15.5606075484
20
-8.6892010043
30
0.0000000000
10
-15.5599969048
20
-8.6888830494
30
0.0000000000
10
-15.5587755462
20
-8.6882509096
30
0.0000000000
10
-15.5569410936
20
-8.6873129124
30
0.0000000000
10
-15.5557165343
20
-8.6866944176
30
0.0000000000
10
-15.5551042387
20
-8.6863870793
30
0.0000000000
11
-15.5606075484
21
-8.6892010043
31
0.0000000000
11
-15.5587732752
21
-8.6882516516
31
0.0000000000
11
-15.5569388224
21
-8.6873136683
31
0.0000000000
11
-15.5551042387
21
-8.6863870793
31
0.0000000000
0
SPLINE
5
3D6
100
AcDbEntity
8
0
100
AcDbSpline
62
9
6
CONTINUOUS
70
0
71
3
72
10
73
6
74
4
42
0.0000001000
43
0.0000001000
44
0.0000000001
12
0.0127464286
22
-1.1632645150
32
0.0000000000
13
0.0153667659
23
-1.1632328510
33
0.0000000000
40
0.0000000000
40
0.0000000000
40
0.0000000000
40
0.0000000000
40
0.3334568704
40
0.6667901848
40
1.0000000000
40
1.0000000000
40
1.0000000000
40
1.0000000000
10
-16.2731232506
20
-7.9614753750
30
0.0000000000
10
-16.2717064559
20
-8.0907748899
30
0.0000000000
10
-16.2687764484
20
-8.3493249588
30
0.0000000000
10
-16.2640912097
20
-8.7370748022
30
0.0000000000
10
-16.2607741618
20
-8.9955243849
30
0.0000000000
10
-16.2590673760
20
-9.1247245860
30
0.0000000000
11
-16.2731232506
21
-7.9614753750
31
0.0000000000
11
-16.2687273716
21
-8.3493722981
31
0.0000000000
11
-16.2640420795
21
-8.7371220859
31
0.0000000000
11
-16.2590673760
21
-9.1247245860
31
0.0000000000
0
SPLINE
5
3D7
100
AcDbEntity
8
0
100
AcDbSpline
62
7
6
CONTINUOUS
70
0
71
3
72
26
73
22
74
20
42
0.0000001000
43
0.0000001000
44
0.0000000001
12
-0.7305869790
22
-0.3804079465
32
0.0000000000
13
-0.6655940482
23
-0.4852340700
33
0.0000000000
40
0.0000000000
40
0.0000000000
40
0.0000000000
40
0.0000000000
40
0.0548515765
40
0.1126370137
40
0.1722112310
40
0.2326605639
40
0.2932931933
40
0.3535980482
40
0.4131949997
40
0.4717980119
40
0.5291788101
40
0.5851454173
40
0.6395293794
40
0.6921762154
40
0.7429381977
40
0.7916709619
40
0.8382337893
40
0.8824856636
40
0.9242868186
40
0.9635009844
40
1.0000000000
40
1.0000000000
40
1.0000000000
40
1.0000000000
10
-15.5606075484
20
-8.6892010043
30
0.0000000000
10
-15.5739654976
20
-8.6961563295
30
0.0000000000
10
-15.6012701189
20
-8.7106810760
30
0.0000000000
10
-15.6427133767
20
-8.7334457950
30
0.0000000000
10
-15.6852398431
20
-8.7574243231
30
0.0000000000
10
-15.7282140103
20
-8.7821954262
30
0.0000000000
10
-15.7711530421
20
-8.8074254816
30
0.0000000000
10
-15.8137004374
20
-8.8328571524
30
0.0000000000
10
-15.8555945524
20
-8.8582932153
30
0.0000000000
10
-15.8966389955
20
-8.8835797291
30
0.0000000000
10
-15.9366802101
20
-8.9085925545
30
0.0000000000
10
-15.9755909917
20
-8.9332269146
30
0.0000000000
10
-16.0132604082
20
-8.9573906566
30
0.0000000000
10
-16.0495871026
20
-8.9809995270
30
0.0000000000
10
-16.0844748127
20
-9.0039737970
30
0.0000000000
10
-16.1178301826
20
-9.0262363405
30
0.0000000000
10
-16.1495613416
20
-9.0477112037
30
0.0000000000
10
-16.1795776272
20
-9.0683229051
30
0.0000000000
10
-16.2077898100
20
-9.0879960135
30
0.0000000000
10
-16.2341121948
20
-9.1066560001
30
0.0000000000
10
-16.2509695335
20
-9.1188210640
30
0.0000000000
10
-16.2590673760
20
-9.1247245860
30
0.0000000000
11
-15.5606075484
21
-8.6892010043
31
0.0000000000
11
-15.6005119322
21
-8.7103892642
31
0.0000000000
11
-15.6422406701
21
-8.7332851567
31
0.0000000000
11
-15.6849923620
21
-8.7573731913
31
0.0000000000
11
-15.7281356452
21
-8.7822299847
31
0.0000000000
11
-15.7711986670
21
-8.8075249852
31
0.0000000000
11
-15.8138375457
21
-8.8330062002
31
0.0000000000
11
-15.8557998582
21
-8.8584805610
31
0.0000000000
11
-15.8968980851
21
-8.8837986506
31
0.0000000000
11
-15.9369839005
21
-8.9088390135
31
0.0000000000
11
-15.9759332066
21
-8.9334984752
31
0.0000000000
11
-16.0136373640
21
-8.9576861273
31
0.0000000000
11
-16.0499967213
21
-8.9813186977
31
0.0000000000
11
-16.0849158043
21
-9.0043169246
31
0.0000000000
11
-16.1183011806
21
-9.0266036295
31
0.0000000000
11
-16.1500618473
21
-9.0481034763
31
0.0000000000
11
-16.1801067444
21
-9.0687407859
31
0.0000000000
11
-16.2083460621
21
-9.0884398232
31
0.0000000000
11
-16.2346930395
21
-9.1071254001
31
0.0000000000
11
-16.2590673760
21
-9.1247245860
31
0.0000000000
0
SPLINE
5
3D8
100
AcDbEntity
8
0
100
AcDbSpline
62
9
6
CONTINUOUS
70
0
71
3
72
11
73
7
74
5
42
0.0000001000
43
0.0000001000
44
0.0000000001
12
0.0117707916
22
-1.1626003307
32
0.0000000000
13
0.0143875245
23
-1.1625708923
33
0.0000000000
40
0.0000000000
40
0.0000000000
40
0.0000000000
40
0.0000000000
40
0.2501043160
40
0.5001390476
40
0.7501042555
40
1.0000000000
40
1.0000000000
40
1.0000000000
40
1.0000000000
10
-15.5736859851
20
-7.5266148785
30
0.0000000000
10
-15.5727046765
20
-7.6235386653
30
0.0000000000
10
-15.5706878693
20
-7.8173587257
30
0.0000000000
10
-15.5674996005
20
-8.1080466401
30
0.0000000000
10
-15.5641486952
20
-8.3986518873
30
0.0000000000
10
-15.5618060088
20
-8.5923604981
30
0.0000000000
10
-15.5606075484
20
-8.6892010043
30
0.0000000000
11
-15.5736859851
21
-7.5266148785
31
0.0000000000
11
-15.5706603309
21
-7.8173854000
31
0.0000000000
11
-15.5674720398
21
-8.1080732759
31
0.0000000000
11
-15.5641211122
21
-8.3986784846
31
0.0000000000
11
-15.5606075484
21
-8.6892010043
31
0.0000000000
0
SPLINE
5
3D9
100
AcDbEntity
8
0
100
AcDbSpline
62
7
6
CONTINUOUS
70
0
71
3
72
10
73
6
74
4
42
0.0000001000
43
0.0000001000
44
0.0000000001
12
0.0045255909
22
0.0023415650
32
0.0000000000
13
0.0045539871
23
0.0022858481
33
0.0000000000
40
0.0000000000
40
0.0000000000
40
0.0000000000
40
0.0000000000
40
0.3340069139
40
0.6673403889
40
1.0000000000
40
1.0000000000
40
1.0000000000
40
1.0000000000
10
-16.3868587835
20
-7.1200284793
30
0.0000000000
10
-16.3863549239
20
-7.1197677797
30
0.0000000000
10
-16.3853471615
20
-7.1192489500
30
0.0000000000
10
-16.3838338837
20
-7.1184776637
30
0.0000000000
10
-16.3828239532
20
-7.1179681274
30
0.0000000000
10
-16.3823189773
20
-7.1177146576
30
0.0000000000
11
-16.3868587835
21
-7.1200284793
31
0.0000000000
11
-16.3853456162
21
-7.1192494583
31
0.0000000000
11
-16.3838323384
21
-7.1184781798
31
0.0000000000
11
-16.3823189773
21
-7.1177146576
31
0.0000000000
0
SPLINE
5
3DA
100
AcDbEntity
8
0
100
AcDbSpline
62
7
6
CONTINUOUS
70
0
71
3
72
26
73
22
74
20
42
0.0000001000
43
0.0000001000
44
0.0000000001
12
-0.7320091062
22
-0.3787454378
32
0.0000000000
13
-0.6661878775
23
-0.4852619397
33
0.0000000000
40
0.0000000000
40
0.0000000000
40
0.0000000000
40
0.0000000000
40
0.0547590295
40
0.1124653518
40
0.1719738151
40
0.2323702411
40
0.2929620714
40
0.3532374246
40
0.4128153808
40
0.4714091723
40
0.5287898666
40
0.5847648977
40
0.6391652808
40
0.6918360499
40
0.7426290230
40
0.7913993986
40
0.8380060254
40
0.8823074441
40
0.9241634205
40
0.9634371782
40
1.0000000000
40
1.0000000000
40
1.0000000000
40
1.0000000000
10
-15.5736859851
20
-7.5266148785
30
0.0000000000
10
-15.5870473545
20
-7.5335281227
30
0.0000000000
10
-15.6143619202
20
-7.5479733528
30
0.0000000000
10
-15.6558226733
20
-7.5706297595
30
0.0000000000
10
-15.6983752840
20
-7.5945110495
30
0.0000000000
10
-15.7413829714
20
-7.6191959996
30
0.0000000000
10
-15.7843617641
20
-7.6443506963
30
0.0000000000
10
-15.8269541846
20
-7.6697173439
30
0.0000000000
10
-15.8688977683
20
-7.6950981985
30
0.0000000000
10
-15.9099954351
20
-7.7203387990
30
0.0000000000
10
-15.9500930437
20
-7.7453145176
30
0.0000000000
10
-15.9890628825
20
-7.7699201320
30
0.0000000000
10
-16.0267935689
20
-7.7940630850
30
0.0000000000
10
-16.0631833346
20
-7.8176587537
30
0.0000000000
10
-16.0981355309
20
-7.8406270661
30
0.0000000000
10
-16.1315564298
20
-7.8628905677
30
0.0000000000
10
-16.1633537933
20
-7.8843729804
30
0.0000000000
10
-16.1934365884
20
-7.9049984905
30
0.0000000000
10
-16.2217152056
20
-7.9246913139
30
0.0000000000
10
-16.2481035550
20
-7.9433765343
30
0.0000000000
10
-16.2650040144
20
-7.9555611931
30
0.0000000000
10
-16.2731232506
20
-7.9614753750
30
0.0000000000
11
-15.5736859851
21
-7.5266148785
31
0.0000000000
11
-15.6135985608
21
-7.5476828290
31
0.0000000000
11
-15.6553454521
21
-7.5704694680
31
0.0000000000
11
-15.6981238881
21
-7.5944596715
31
0.0000000000
11
-15.7413012123
21
-7.6192299637
31
0.0000000000
11
-15.7844044308
21
-7.6444494138
31
0.0000000000
11
-15.8270886945
21
-7.6698655096
31
0.0000000000
11
-15.8691007711
21
-7.6952846246
31
0.0000000000
11
-15.9102524669
21
-7.7205567972
31
0.0000000000
11
-15.9503948830
21
-7.7455600705
31
0.0000000000
11
-15.9894034232
21
-7.7701908178
31
0.0000000000
11
-16.0271690050
21
-7.7943577230
31
0.0000000000
11
-16.0635915719
21
-7.8179771434
31
0.0000000000
11
-16.0985752678
21
-7.8409694739
31
0.0000000000
11
-16.1320262909
21
-7.8632572086
31
0.0000000000
11
-16.1638532756
21
-7.8847646887
31
0.0000000000
11
-16.1939647937
21
-7.9054159052
31
0.0000000000
11
-16.2222706573
21
-7.9251347720
31
0.0000000000
11
-16.2486837125
21
-7.9438457160
31
0.0000000000
11
-16.2731232506
21
-7.9614753750
31
0.0000000000
0
SPLINE
5
3DB
100
AcDbEntity
8
0
100
AcDbSpline
62
9
6
CONTINUOUS
70
0
71
3
72
10
73
6
74
4
42
0.0000001000
43
0.0000001000
44
0.0000000001
12
0.0114487954
22
-1.3803756905
32
0.0000000000
13
0.0151250286
23
-1.3803403042
33
0.0000000000
40
0.0000000000
40
0.0000000000
40
0.0000000000
40
0.0000000000
40
0.3334792600
40
0.6668125537
40
1.0000000000
40
1.0000000000
40
1.0000000000
40
1.0000000000
10
-17.0995817615
20
-6.1745301056
30
0.0000000000
10
-17.0983091162
20
-6.3279723269
30
0.0000000000
10
-17.0956284029
20
-6.6347884970
30
0.0000000000
10
-17.0911999200
20
-7.0949082965
30
0.0000000000
10
-17.0879758722
20
-7.4015849555
30
0.0000000000
10
-17.0862960490
20
-7.5548889758
30
0.0000000000
11
-17.0995817615
21
-6.1745301056
31
0.0000000000
11
-17.0955597226
21
-6.6348550313
31
0.0000000000
11
-17.0911311513
21
-7.0949747209
31
0.0000000000
11
-17.0862960490
21
-7.5548889758
31
0.0000000000
0
SPLINE
5
3DC
100
AcDbEntity
8
0
100
AcDbSpline
62
9
6
CONTINUOUS
70
0
71
3
72
14
73
10
74
8
42
0.0000001000
43
0.0000001000
44
0.0000000001
12
-1.1960367407
22
35.6014909397
32
0.0000000000
13
1.1558713618
23
35.6028176190
33
0.0000000000
40
0.0000000000
40
0.0000000000
40
0.0000000000
40
0.0000000000
40
0.1407483867
40
0.2822109274
40
0.4243811696
40
0.5672523671
40
0.7108174905
40
0.8550692288
40
1.0000000000
40
1.0000000000
40
1.0000000000
40
1.0000000000
10
-21.2895435348
20
-17.2632376646
30
0.0000000000
10
-21.3456569487
20
-15.5929535265
30
0.0000000000
10
-21.4417752932
20
-12.2433372136
30
0.0000000000
10
-21.5376204309
20
-7.2051330697
30
0.0000000000
10
-21.5854877997
20
-2.1410336872
30
0.0000000000
10
-21.5853706641
20
2.9482549052
30
0.0000000000
10
-21.5372691229
20
8.0620331176
30
0.0000000000
10
-21.4411900580
20
13.1995887437
30
0.0000000000
10
-21.3453839774
20
16.6320209317
30
0.0000000000
10
-21.2895435348
20
18.3520022030
30
0.0000000000
11
-21.2895435348
21
-17.2632376646
31
0.0000000000
11
-21.4334775037
21
-12.2516248139
31
0.0000000000
11
-21.5294445251
21
-7.2134201018
31
0.0000000000
11
-21.5774313488
21
-2.1493193995
31
0.0000000000
11
-21.5774313488
21
2.9399777897
31
0.0000000000
11
-21.5294445251
21
8.0537685673
31
0.0000000000
11
-21.4334775037
21
13.1913465690
31
0.0000000000
11
-21.2895435348
21
18.3520022030
31
0.0000000000
0
SPLINE
5
3DD
100
AcDbEntity
8
0
100
AcDbSpline
62
7
6
CONTINUOUS
70
0
71
3
72
26
73
22
74
20
42
0.0000001000
43
0.0000001000
44
0.0000000001
12
-0.7320091062
22
-0.3787454378
32
0.0000000000
13
-0.6661878774
23
-0.4852619398
33
0.0000000000
40
0.0000000000
40
0.0000000000
40
0.0000000000
40
0.0000000000
40
0.0547590300
40
0.1124653529
40
0.1719738168
40
0.2323702432
40
0.2929620739
40
0.3532374274
40
0.4128153838
40
0.4714091754
40
0.5287898697
40
0.5847649007
40
0.6391652836
40
0.6918360525
40
0.7426290253
40
0.7913994004
40
0.8380060269
40
0.8823074452
40
0.9241634212
40
0.9634371786
40
1.0000000000
40
1.0000000000
40
1.0000000000
40
1.0000000000
10
-16.3868587835
20
-7.1200284793
30
0.0000000000
10
-16.4002201530
20
-7.1269417236
30
0.0000000000
10
-16.4275347190
20
-7.1413869538
30
0.0000000000
10
-16.4689954725
20
-7.1640433607
30
0.0000000000
10
-16.5115480835
20
-7.1879246510
30
0.0000000000
10
-16.5545557713
20
-7.2126096013
30
0.0000000000
10
-16.5975345643
20
-7.2377642982
30
0.0000000000
10
-16.6401269849
20
-7.2631309459
30
0.0000000000
10
-16.6820705688
20
-7.2885118006
30
0.0000000000
10
-16.7231682356
20
-7.3137524012
30
0.0000000000
10
-16.7632658442
20
-7.3387281198
30
0.0000000000
10
-16.8022356829
20
-7.3633337341
30
0.0000000000
10
-16.8399663692
20
-7.3874766870
30
0.0000000000
10
-16.8763561347
20
-7.4110723557
30
0.0000000000
10
-16.9113083308
20
-7.4340406679
30
0.0000000000
10
-16.9447292295
20
-7.4563041693
30
0.0000000000
10
-16.9765265927
20
-7.4777865819
30
0.0000000000
10
-17.0066093875
20
-7.4984120918
30
0.0000000000
10
-17.0348880044
20
-7.5181049150
30
0.0000000000
10
-17.0612763535
20
-7.5367901353
30
0.0000000000
10
-17.0781768129
20
-7.5489747939
30
0.0000000000
10
-17.0862960490
20
-7.5548889758
30
0.0000000000
11
-16.3868587835
21
-7.1200284793
31
0.0000000000
11
-16.4267713596
21
-7.1410964300
31
0.0000000000
11
-16.4685182513
21
-7.1638830693
31
0.0000000000
11
-16.5112966877
21
-7.1878732730
31
0.0000000000
11
-16.5544740121
21
-7.2126435654
31
0.0000000000
11
-16.5975772309
21
-7.2378630157
31
0.0000000000
11
-16.6402614948
21
-7.2632791116
31
0.0000000000
11
-16.6822735715
21
-7.2886982267
31
0.0000000000
11
-16.7234252675
21
-7.3139703993
31
0.0000000000
11
-16.7635676835
21
-7.3389736726
31
0.0000000000
11
-16.8025762237
21
-7.3636044199
31
0.0000000000
11
-16.8403418053
21
-7.3877713251
31
0.0000000000
11
-16.8767643720
21
-7.4113907454
31
0.0000000000
11
-16.9117480678
21
-7.4343830757
31
0.0000000000
11
-16.9451990905
21
-7.4566708102
31
0.0000000000
11
-16.9770260749
21
-7.4781782903
31
0.0000000000
11
-17.0071375928
21
-7.4988295065
31
0.0000000000
11
-17.0354434561
21
-7.5185483732
31
0.0000000000
11
-17.0618565110
21
-7.5372593170
31
0.0000000000
11
-17.0862960490
21
-7.5548889758
31
0.0000000000
0
SPLINE
5
3DE
100
AcDbEntity
8
0
100
AcDbSpline
62
9
6
CONTINUOUS
70
0
71
3
72
11
73
7
74
5
42
0.0000001000
43
0.0000001000
44
0.0000000001
12
0.0102961352
22
-1.3795825247
32
0.0000000000
13
0.0139673092
23
-1.3795502409
33
0.0000000000
40
0.0000000000
40
0.0000000000
40
0.0000000000
40
0.0000000000
40
0.2501232156
40
0.5001642337
40
0.7501231349
40
1.0000000000
40
1.0000000000
40
1.0000000000
40
1.0000000000
10
-16.3989893083
20
-5.7404612463
30
0.0000000000
10
-16.3981308742
20
-5.8554831188
30
0.0000000000
10
-16.3963378920
20
-6.0854885013
30
0.0000000000
10
-16.3934195236
20
-6.4304380438
30
0.0000000000
10
-16.3902727032
20
-6.7752722830
30
0.0000000000
10
-16.3880221526
20
-7.0051225828
30
0.0000000000
10
-16.3868587835
20
-7.1200284793
30
0.0000000000
11
-16.3989893083
21
-5.7404612463
31
0.0000000000
11
-16.3962993557
21
-6.0855259889
31
0.0000000000
11
-16.3933809502
21
-6.4304754694
31
0.0000000000
11
-16.3902340927
21
-6.7753096467
31
0.0000000000
11
-16.3868587835
21
-7.1200284793
31
0.0000000000
0
SPLINE
5
3DF
100
AcDbEntity
8
0
100
AcDbSpline
62
9
6
CONTINUOUS
70
0
71
3
72
21
73
17
74
15
42
0.0000001000
43
0.0000001000
44
0.0000000001
12
0.0682286066
22
2.0885788301
32
0.0000000000
13
1.8102180440
23
1.0439958360
33
0.0000000000
40
0.0000000000
40
0.0000000000
40
0.0000000000
40
0.0000000000
40
0.0679965129
40
0.1384063205
40
0.2108392276
40
0.2848373543
40
0.3599105661
40
0.4355415802
40
0.5111975361
40
0.5863471078
40
0.6604708300
40
0.7330718806
40
0.8036939646
40
0.8719340777
40
0.9374505364
40
1.0000000000
40
1.0000000000
40
1.0000000000
40
1.0000000000
10
-21.2895435348
20
18.3520022030
30
0.0000000000
10
-21.2879970990
20
18.3993408955
30
0.0000000000
10
-21.2808106305
20
18.4956020048
30
0.0000000000
10
-21.2587607914
20
18.6409259030
30
0.0000000000
10
-21.2254815490
20
18.7883848848
30
0.0000000000
10
-21.1813404893
20
18.9363465306
30
0.0000000000
10
-21.1268254220
20
19.0831826173
30
0.0000000000
10
-21.0625375972
20
19.2272731112
30
0.0000000000
10
-20.9891864415
20
19.3670278018
30
0.0000000000
10
-20.9075813880
20
19.5009036161
30
0.0000000000
10
-20.8186224926
20
19.6274227168
30
0.0000000000
10
-20.7232892561
20
19.7451896488
30
0.0000000000
10
-20.6226303206
20
19.8529062000
30
0.0000000000
10
-20.5177450566
20
19.9493872989
30
0.0000000000
10
-20.4097910120
20
20.0335633175
30
0.0000000000
10
-20.3347202473
20
20.0820392324
30
0.0000000000
10
-20.2969775248
20
20.1038063589
30
0.0000000000
11
-21.2895435348
21
18.3520022030
31
0.0000000000
11
-21.2791768611
21
18.4937153693
31
0.0000000000
11
-21.2572755155
21
18.6392110866
31
0.0000000000
11
-21.2240805882
21
18.7868888241
31
0.0000000000
11
-21.1799630676
21
18.9350951729
31
0.0000000000
11
-21.1254126125
21
19.0821855206
31
0.0000000000
11
-21.0610349510
21
19.2265251469
31
0.0000000000
11
-20.9875472350
21
19.3665053033
31
0.0000000000
11
-20.9057662753
21
19.5005697987
31
0.0000000000
11
-20.8166010096
21
19.6272278842
31
0.0000000000
11
-20.7210452458
21
19.7450676261
31
0.0000000000
11
-20.6201611120
21
19.8527792637
31
0.0000000000
11
-20.5150683304
21
19.9491666044
31
0.0000000000
11
-20.4069440090
21
20.0331504287
31
0.0000000000
11
-20.2969775248
21
20.1038063589
31
0.0000000000
0
SPLINE
5
3E0
100
AcDbEntity
8
0
100
AcDbSpline
62
7
6
CONTINUOUS
70
0
71
3
72
10
73
6
74
4
42
0.0000001000
43
0.0000001000
44
0.0000000001
12
0.0033898463
22
0.0017407374
32
0.0000000000
13
0.0034057162
23
0.0017094800
33
0.0000000000
40
0.0000000000
40
0.0000000000
40
0.0000000000
40
0.0000000000
40
0.3338379771
40
0.6671713866
40
1.0000000000
40
1.0000000000
40
1.0000000000
40
1.0000000000
10
-18.3788882948
20
-4.7505117522
30
0.0000000000
10
-18.3785110750
20
-4.7503180442
30
0.0000000000
10
-18.3777566146
20
-4.7499320702
30
0.0000000000
10
-18.3766240146
20
-4.7493570126
30
0.0000000000
10
-18.3758683462
20
-4.7489762498
30
0.0000000000
10
-18.3754905063
20
-4.7487865952
30
0.0000000000
11
-18.3788882948
21
-4.7505117522
31
0.0000000000
11
-18.3777557491
21
-4.7499323572
31
0.0000000000
11
-18.3766231491
21
-4.7493573029
31
0.0000000000
11
-18.3754905063
21
-4.7487865952
31
0.0000000000
0
SPLINE
5
3E1
100
AcDbEntity
8
0
100
AcDbSpline
62
7
6
CONTINUOUS
70
0
71
3
72
26
73
22
74
20
42
0.0000001000
43
0.0000001000
44
0.0000000001
12
-0.7336898140
22
-0.3767608357
32
0.0000000000
13
-0.6668914041
23
-0.4852889095
33
0.0000000000
40
0.0000000000
40
0.0000000000
40
0.0000000000
40
0.0000000000
40
0.0546496503
40
0.1122624444
40
0.1716931572
40
0.2320270103
40
0.2925705767
40
0.3528110203
40
0.4123664884
40
0.4709493503
40
0.5283298971
40
0.5843148677
40
0.6387346508
40
0.6914337076
40
0.7422633199
40
0.7910781694
40
0.8377365946
40
0.8820966125
40
0.9240174360
40
0.9633616902
40
1.0000000000
40
1.0000000000
40
1.0000000000
40
1.0000000000
10
-16.3989893083
20
-5.7404612463
30
0.0000000000
10
-16.4123546056
20
-5.7473245290
30
0.0000000000
10
-16.4396807171
20
-5.7616753442
30
0.0000000000
10
-16.4811618739
20
-5.7842031483
30
0.0000000000
10
-16.5237451585
20
-5.8079689324
30
0.0000000000
10
-16.5667922826
20
-5.8325514924
30
0.0000000000
10
-16.6098179303
20
-5.8576165763
30
0.0000000000
10
-16.6524634668
20
-5.8829058486
30
0.0000000000
10
-16.6944654547
20
-5.9082209517
30
0.0000000000
10
-16.7356259969
20
-5.9334068113
30
0.0000000000
10
-16.7757902587
20
-5.9583382228
30
0.0000000000
10
-16.8148299268
20
-5.9829094375
30
0.0000000000
10
-16.8526330845
20
-6.0070274211
30
0.0000000000
10
-16.8890974752
20
-6.0306071145
30
0.0000000000
10
-16.9241259920
20
-6.0535680399
30
0.0000000000
10
-16.9576244652
20
-6.0758323553
30
0.0000000000
10
-16.9895002212
20
-6.0973233996
30
0.0000000000
10
-17.0196617875
20
-6.1179649667
30
0.0000000000
10
-17.0480191035
20
-6.1376808557
30
0.0000000000
10
-17.0744856111
20
-6.1563956927
30
0.0000000000
10
-17.0914371702
20
-6.1686033838
30
0.0000000000
10
-17.0995817615
20
-6.1745301056
30
0.0000000000
11
-16.3989893083
21
-5.7404612463
31
0.0000000000
11
-16.4389112381
21
-5.7613863963
31
0.0000000000
11
-16.4806793079
21
-5.7840433056
31
0.0000000000
11
-16.5234891254
21
-5.8079172915
31
0.0000000000
11
-16.5667065014
21
-5.8325847749
31
0.0000000000
11
-16.6098570903
21
-5.8577143800
31
0.0000000000
11
-16.6525948958
21
-5.8830529830
31
0.0000000000
11
-16.6946657260
21
-5.9084062993
31
0.0000000000
11
-16.7358805877
21
-5.9336237241
31
0.0000000000
11
-16.7760899018
21
-5.9585827086
31
0.0000000000
11
-16.8151684810
21
-5.9831790920
31
0.0000000000
11
-16.8530067170
21
-6.0073210763
31
0.0000000000
11
-16.8895040729
21
-6.0309245812
31
0.0000000000
11
-16.9245642396
21
-6.0539095960
31
0.0000000000
11
-16.9580929767
21
-6.0761982283
31
0.0000000000
11
-16.9899984885
21
-6.0977144383
31
0.0000000000
11
-17.0201889103
21
-6.1183818268
31
0.0000000000
11
-17.0485736053
21
-6.1381238937
31
0.0000000000
11
-17.0750649533
21
-6.1568646108
31
0.0000000000
11
-17.0995817615
21
-6.1745301056
31
0.0000000000
0
SPLINE
5
3E2
100
AcDbEntity
8
0
100
AcDbSpline
62
9
6
CONTINUOUS
70
0
71
3
72
10
73
6
74
4
42
0.0000001000
43
0.0000001000
44
0.0000000001
12
-0.0496620809
22
-7.7281727037
32
0.0000000000
13
0.0640963546
23
-7.7280664670
33
0.0000000000
40
0.0000000000
40
0.0000000000
40
0.0000000000
40
0.0000000000
40
0.3341375803
40
0.6674692119
40
1.0000000000
40
1.0000000000
40
1.0000000000
40
1.0000000000
10
-19.0864922468
20
2.5436864594
30
0.0000000000
10
-19.0920235693
20
1.6829288169
30
0.0000000000
10
-19.0988899533
20
-0.0365402868
30
0.0000000000
10
-19.0965680235
20
-2.6126592985
30
0.0000000000
10
-19.0865854193
20
-4.3279739343
30
0.0000000000
10
-19.0794807488
20
-5.1845806119
30
0.0000000000
11
-19.0864922468
21
2.5436864594
31
0.0000000000
11
-19.0967891099
21
-0.0386192558
31
0.0000000000
11
-19.0944519580
21
-2.6147158001
31
0.0000000000
11
-19.0794807488
21
-5.1845806119
31
0.0000000000
0
SPLINE
5
3E3
100
AcDbEntity
8
0
100
AcDbSpline
62
7
6
CONTINUOUS
70
0
71
3
72
26
73
22
74
20
42
0.0000001000
43
0.0000001000
44
0.0000000001
12
-0.7336898158
22
-0.3767608344
32
0.0000000000
13
-0.6668914038
23
-0.4852889116
33
0.0000000000
40
0.0000000000
40
0.0000000000
40
0.0000000000
40
0.0000000000
40
0.0546496530
40
0.1122624497
40
0.1716931649
40
0.2320270203
40
0.2925705884
40
0.3528110334
40
0.4123665024
40
0.4709493649
40
0.5283299117
40
0.5843148818
40
0.6387346641
40
0.6914337198
40
0.7422633305
40
0.7910781782
40
0.8377366016
40
0.8820966175
40
0.9240174392
40
0.9633616916
40
1.0000000000
40
1.0000000000
40
1.0000000000
40
1.0000000000
10
-18.3788882948
20
-4.7505117522
30
0.0000000000
10
-18.3922535928
20
-4.7573750352
30
0.0000000000
10
-18.4195797056
20
-4.7717258510
30
0.0000000000
10
-18.4610608644
20
-4.7942536562
30
0.0000000000
10
-18.5036441507
20
-4.8180194412
30
0.0000000000
10
-18.5466912764
20
-4.8426020022
30
0.0000000000
10
-18.5897169255
20
-4.8676670868
30
0.0000000000
10
-18.6323624629
20
-4.8929563597
30
0.0000000000
10
-18.6743644515
20
-4.9182714633
30
0.0000000000
10
-18.7155249942
20
-4.9434573232
30
0.0000000000
10
-18.7556892559
20
-4.9683887347
30
0.0000000000
10
-18.7947289239
20
-4.9929599494
30
0.0000000000
10
-18.8325320809
20
-5.0170779328
30
0.0000000000
10
-18.8689964709
20
-5.0406576257
30
0.0000000000
10
-18.9040249866
20
-5.0636185505
30
0.0000000000
10
-18.9375234587
20
-5.0858828652
30
0.0000000000
10
-18.9693992134
20
-5.1073739088
30
0.0000000000
10
-18.9995607783
20
-5.1280154751
30
0.0000000000
10
-19.0279180930
20
-5.1477313634
30
0.0000000000
10
-19.0543845995
20
-5.1664461996
30
0.0000000000
10
-19.0713361579
20
-5.1786538903
30
0.0000000000
10
-19.0794807488
20
-5.1845806119
30
0.0000000000
11
-18.3788882948
21
-4.7505117522
31
0.0000000000
11
-18.4188102266
21
-4.7714369032
31
0.0000000000
11
-18.4605782984
21
-4.7940938135
31
0.0000000000
11
-18.5033881178
21
-4.8179678004
31
0.0000000000
11
-18.5466054954
21
-4.8426352847
31
0.0000000000
11
-18.5897560855
21
-4.8677648906
31
0.0000000000
11
-18.6324938920
21
-4.8931034942
31
0.0000000000
11
-18.6745647230
21
-4.9184568110
31
0.0000000000
11
-18.7157795850
21
-4.9436742360
31
0.0000000000
11
-18.7559888991
21
-4.9686332207
31
0.0000000000
11
-18.7950674781
21
-4.9932296039
31
0.0000000000
11
-18.8329057136
21
-5.0173715880
31
0.0000000000
11
-18.8694030686
21
-5.0409750925
31
0.0000000000
11
-18.9044632342
21
-5.0639601067
31
0.0000000000
11
-18.9379919701
21
-5.0862487382
31
0.0000000000
11
-18.9698974806
21
-5.1077649475
31
0.0000000000
11
-19.0000879011
21
-5.1284323352
31
0.0000000000
11
-19.0284725948
21
-5.1481744013
31
0.0000000000
11
-19.0549639417
21
-5.1669151177
31
0.0000000000
11
-19.0794807488
21
-5.1845806119
31
0.0000000000
0
SPLINE
5
3E4
100
AcDbEntity
8
0
100
AcDbSpline
62
9
6
CONTINUOUS
70
0
71
3
72
12
73
8
74
6
42
0.0000001000
43
0.0000001000
44
0.0000000001
12
-0.0362326784
22
-6.7349041295
32
0.0000000000
13
0.0502634107
23
-6.7348134845
33
0.0000000000
40
0.0000000000
40
0.0000000000
40
0.0000000000
40
0.0000000000
40
0.1862607704
40
0.3900873977
40
0.5936522144
40
0.7969560970
40
1.0000000000
40
1.0000000000
40
1.0000000000
40
1.0000000000
10
-18.3857672455
20
1.9844414417
30
0.0000000000
10
-18.3880168210
20
1.5662919646
30
0.0000000000
10
-18.3916905443
20
0.6905522920
30
0.0000000000
10
-18.3939627878
20
-0.6421966301
30
0.0000000000
10
-18.3927212223
20
-2.0132088914
30
0.0000000000
10
-18.3878976008
20
-3.3824558840
30
0.0000000000
10
-18.3822901878
20
-4.2946908136
30
0.0000000000
10
-18.3788882948
20
-4.7505117522
30
0.0000000000
11
-18.3857672455
21
1.9844414417
31
0.0000000000
11
-18.3910279473
21
0.7299859015
31
0.0000000000
11
-18.3933661326
21
-0.6427846553
31
0.0000000000
11
-18.3921222681
21
-2.0137933448
31
0.0000000000
11
-18.3872963471
21
-3.3830367019
31
0.0000000000
11
-18.3788882948
21
-4.7505117522
31
0.0000000000
0
SPLINE
5
3E5
100
AcDbEntity
8
0
100
AcDbSpline
62
9
6
CONTINUOUS
70
0
71
3
72
10
73
6
74
4
42
0.0000001000
43
0.0000001000
44
0.0000000001
12
-0.0629924887
22
7.7280127095
32
0.0000000000
13
0.0488005706
23
7.7281153586
33
0.0000000000
40
0.0000000000
40
0.0000000000
40
0.0000000000
40
0.0000000000
40
0.3325165514
40
0.6658482746
40
1.0000000000
40
1.0000000000
40
1.0000000000
40
1.0000000000
10
-9.2374037649
20
-10.1056191039
30
0.0000000000
10
-9.2443857799
20
-9.2490550587
30
0.0000000000
10
-9.2541958573
20
-7.5337900975
30
0.0000000000
10
-9.2564773860
20
-4.9576923124
30
0.0000000000
10
-9.2497296634
20
-3.2382003252
30
0.0000000000
10
-9.2442940651
20
-2.3774126315
30
0.0000000000
11
-9.2374037649
21
-10.1056191039
31
0.0000000000
11
-9.2521161878
21
-7.5358837180
31
0.0000000000
11
-9.2544129409
21
-4.9598073733
31
0.0000000000
11
-9.2442940651
21
-2.3774126315
31
0.0000000000
0
SPLINE
5
3E6
100
AcDbEntity
8
0
100
AcDbSpline
62
7
6
CONTINUOUS
70
0
71
3
72
15
73
11
74
9
42
0.0000001000
43
0.0000001000
44
0.0000000001
12
0.3062164604
22
0.1652108055
32
0.0000000000
13
0.0000366968
23
0.3481724997
33
0.0000000000
40
0.0000000000
40
0.0000000000
40
0.0000000000
40
0.0000000000
40
0.1139539270
40
0.2311612393
40
0.3544660466
40
0.4887041879
40
0.6374071998
40
0.8045195132
40
0.9932614312
40
1.0000000000
40
1.0000000000
40
1.0000000000
40
1.0000000000
10
5.6883521304
20
19.5813210552
30
0.0000000000
10
5.6999836531
20
19.5875965285
30
0.0000000000
10
5.7224791697
20
19.6024963252
30
0.0000000000
10
5.7522517180
20
19.6311474609
30
0.0000000000
10
5.7779982683
20
19.6664221564
30
0.0000000000
10
5.7993169082
20
19.7086546043
30
0.0000000000
10
5.8156698279
20
19.7584109613
30
0.0000000000
10
5.8262346515
20
19.8161367406
30
0.0000000000
10
5.8286369194
20
19.8582160766
30
0.0000000000
10
5.8286821390
20
19.8809031507
30
0.0000000000
10
5.8286822214
20
19.8816852121
30
0.0000000000
11
5.6883521304
21
19.5813210552
31
0.0000000000
11
5.7214141680
21
19.6032063619
31
0.0000000000
11
5.7508662718
21
19.6314142488
31
0.0000000000
11
5.7762892066
21
19.6659732906
31
0.0000000000
11
5.7975298065
21
19.7075711251
31
0.0000000000
11
5.8139228786
21
19.7566454162
31
0.0000000000
11
5.8246584629
21
19.8137910181
31
0.0000000000
11
5.8286775361
21
19.8793390227
31
0.0000000000
11
5.8286822214
21
19.8816852121
31
0.0000000000
0
SPLINE
5
3E7
100
AcDbEntity
8
0
100
AcDbSpline
62
9
6
CONTINUOUS
70
0
71
3
72
12
73
8
74
6
42
0.0000001000
43
0.0000001000
44
0.0000000001
12
-0.1029857849
22
0.0515382536
32
0.0000000000
13
-0.1030131196
23
-0.0507725545
33
0.0000000000
40
0.0000000000
40
0.0000000000
40
0.0000000000
40
0.0000000000
40
0.0703997960
40
0.2817532383
40
0.5036958317
40
0.7420180863
40
1.0000000000
40
1.0000000000
40
1.0000000000
40
1.0000000000
10
-14.1673980773
20
25.2088907395
30
0.0000000000
10
-14.1698148034
20
25.2101001670
30
0.0000000000
10
-14.1796940417
20
25.2145244371
30
0.0000000000
10
-14.1985882741
20
25.2192924813
30
0.0000000000
10
-14.2245196839
20
25.2194547053
30
0.0000000000
10
-14.2516067625
20
25.2138334629
30
0.0000000000
10
-14.2693131500
20
25.2066697387
30
0.0000000000
10
-14.2781716573
20
25.2023036051
30
0.0000000000
11
-14.1673980773
21
25.2088907395
31
0.0000000000
11
-14.1747947784
21
25.2122013901
31
0.0000000000
11
-14.1983043777
21
25.2182412435
31
0.0000000000
11
-14.2237912005
21
25.2185873073
31
0.0000000000
11
-14.2506323072
21
25.2132311232
31
0.0000000000
11
-14.2781716573
21
25.2023036051
31
0.0000000000
0
SPLINE
5
3E8
100
AcDbEntity
8
0
100
AcDbSpline
62
7
6
CONTINUOUS
70
0
71
3
72
13
73
9
74
7
42
0.0000001000
43
0.0000001000
44
0.0000000001
12
0.2071169455
22
0.1049849064
32
0.0000000000
13
-0.0000514674
23
0.2330319311
33
0.0000000000
40
0.0000000000
40
0.0000000000
40
0.0000000000
40
0.0000000000
40
0.2260097833
40
0.4306123287
40
0.6140728523
40
0.7802918706
40
0.9341126742
40
1.0000000000
40
1.0000000000
40
1.0000000000
40
1.0000000000
10
5.6883521304
20
-17.2747141531
30
0.0000000000
10
5.7039556157
20
-17.2668049477
30
0.0000000000
10
5.7329100409
20
-17.2500951947
30
0.0000000000
10
5.7705740619
20
-17.2208128245
30
0.0000000000
10
5.7996819235
20
-17.1889497383
30
0.0000000000
10
5.8195191124
20
-17.1549896767
30
0.0000000000
10
5.8276206372
20
-17.1258434684
30
0.0000000000
10
5.8286736681
20
-17.1087788052
30
0.0000000000
10
5.8286725377
20
-17.1036608550
30
0.0000000000
11
5.6883521304
21
-17.2747141531
31
0.0000000000
11
5.7336489579
21
-17.2482110218
31
0.0000000000
11
5.7709193210
21
-17.2187475029
31
0.0000000000
11
5.7993248997
21
-17.1869996714
31
0.0000000000
11
5.8184185935
21
-17.1534563673
31
0.0000000000
11
5.8277220097
21
-17.1189712777
31
0.0000000000
11
5.8286725377
21
-17.1036608550
31
0.0000000000
0
SPLINE
5
3E9
100
AcDbEntity
8
0
100
AcDbSpline
62
9
6
CONTINUOUS
70
0
71
3
72
12
73
8
74
6
42
0.0000001000
43
0.0000001000
44
0.0000000001
12
-0.1029857849
22
0.0515382536
32
0.0000000000
13
-0.1030131196
23
-0.0507725545
33
0.0000000000
40
0.0000000000
40
0.0000000000
40
0.0000000000
40
0.0000000000
40
0.0703997960
40
0.2817532383
40
0.5036958317
40
0.7420180863
40
1.0000000000
40
1.0000000000
40
1.0000000000
40
1.0000000000
10
-12.8300719167
20
24.5402276592
30
0.0000000000
10
-12.8324886428
20
24.5414370867
30
0.0000000000
10
-12.8423678811
20
24.5458613569
30
0.0000000000
10
-12.8612621136
20
24.5506294010
30
0.0000000000
10
-12.8871935234
20
24.5507916251
30
0.0000000000
10
-12.9142806019
20
24.5451703827
30
0.0000000000
10
-12.9319869895
20
24.5380066584
30
0.0000000000
10
-12.9408454967
20
24.5336405248
30
0.0000000000
11
-12.8300719167
21
24.5402276592
31
0.0000000000
11
-12.8374686179
21
24.5435383098
31
0.0000000000
11
-12.8609782172
21
24.5495781632
31
0.0000000000
11
-12.8864650399
21
24.5499242271
31
0.0000000000
11
-12.9133061466
21
24.5445680430
31
0.0000000000
11
-12.9408454967
21
24.5336405248
31
0.0000000000
0
SPLINE
5
3EA
100
AcDbEntity
8
0
100
AcDbSpline
62
9
6
CONTINUOUS
70
0
71
3
72
12
73
8
74
6
42
0.0000001000
43
0.0000001000
44
0.0000000001
12
-0.0000227722
22
-0.1197212051
32
0.0000000000
13
-0.1064692941
23
-0.0538576921
33
0.0000000000
40
0.0000000000
40
0.0000000000
40
0.0000000000
40
0.0000000000
40
0.1619863906
40
0.3382910533
40
0.5341892806
40
0.7543267983
40
1.0000000000
40
1.0000000000
40
1.0000000000
40
1.0000000000
10
0.6724441872
20
-24.3602026336
30
0.0000000000
10
0.6724429576
20
-24.3666670356
30
0.0000000000
10
0.6702914425
20
-24.3801694094
30
0.0000000000
10
0.6608613368
20
-24.3995008465
30
0.0000000000
10
0.6455931134
20
-24.4176827798
30
0.0000000000
10
0.6250325120
20
-24.4343071608
30
0.0000000000
10
0.6089652555
20
-24.4436648052
30
0.0000000000
10
0.6002463714
20
-24.4480752691
30
0.0000000000
11
0.6724441872
21
-24.3602026336
31
0.0000000000
11
0.6695065503
21
-24.3793089782
31
0.0000000000
11
0.6605288596
21
-24.3983330328
31
0.0000000000
11
0.6457294037
21
-24.4164248089
31
0.0000000000
11
0.6254700394
21
-24.4331418583
31
0.0000000000
11
0.6002463714
21
-24.4480752691
31
0.0000000000
0
SPLINE
5
3EB
100
AcDbEntity
8
0
100
AcDbSpline
62
9
6
CONTINUOUS
70
0
71
3
72
12
73
8
74
6
42
0.0000001000
43
0.0000001000
44
0.0000000001
12
-0.0000227722
22
-0.1197212051
32
0.0000000000
13
-0.1064692941
23
-0.0538576921
33
0.0000000000
40
0.0000000000
40
0.0000000000
40
0.0000000000
40
0.0000000000
40
0.1619863906
40
0.3382910533
40
0.5341892806
40
0.7543267983
40
1.0000000000
40
1.0000000000
40
1.0000000000
40
1.0000000000
10
-12.6918739772
20
24.3166236214
30
0.0000000000
10
-12.6918752068
20
24.3101592195
30
0.0000000000
10
-12.6940267219
20
24.2966568457
30
0.0000000000
10
-12.7034568276
20
24.2773254086
30
0.0000000000
10
-12.7187250511
20
24.2591434753
30
0.0000000000
10
-12.7392856524
20
24.2425190942
30
0.0000000000
10
-12.7553529089
20
24.2331614499
30
0.0000000000
10
-12.7640717930
20
24.2287509860
30
0.0000000000
11
-12.6918739772
21
24.3166236214
31
0.0000000000
11
-12.6948116142
21
24.2975172769
31
0.0000000000
11
-12.7037893048
21
24.2784932223
31
0.0000000000
11
-12.7185887607
21
24.2604014462
31
0.0000000000
11
-12.7388481250
21
24.2436843968
31
0.0000000000
11
-12.7640717930
21
24.2287509860
31
0.0000000000
0
SPLINE
5
3EC
100
AcDbEntity
8
0
100
AcDbSpline
62
9
6
CONTINUOUS
70
0
71
3
72
17
73
13
74
11
42
0.0000001000
43
0.0000001000
44
0.0000000001
12
-0.0017609284
22
0.3677011697
32
0.0000000000
13
-0.3281085914
23
0.1659879614
33
0.0000000000
40
0.0000000000
40
0.0000000000
40
0.0000000000
40
0.0000000000
40
0.0950969031
40
0.1952231436
40
0.2990856170
40
0.4051767205
40
0.5118688155
40
0.6175016985
40
0.7204748375
40
0.8193217329
40
0.9128365321
40
1.0000000000
40
1.0000000000
40
1.0000000000
40
1.0000000000
10
-14.8936197556
20
23.1625901625
30
0.0000000000
10
-14.8936755752
20
23.1742459100
30
0.0000000000
10
-14.8953551922
20
23.1981837644
30
0.0000000000
10
-14.9020234626
20
23.2342969410
30
0.0000000000
10
-14.9127499108
20
23.2708251473
30
0.0000000000
10
-14.9272739998
20
23.3068793436
30
0.0000000000
10
-14.9452437694
20
23.3415897964
30
0.0000000000
10
-14.9662244970
20
23.3741158820
30
0.0000000000
10
-14.9897081760
20
23.4036700118
30
0.0000000000
10
-15.0151340283
20
23.4295409271
30
0.0000000000
10
-15.0418723986
20
23.4510886064
30
0.0000000000
10
-15.0608604317
20
23.4626570058
30
0.0000000000
10
-15.0703934593
20
23.4674797013
30
0.0000000000
11
-14.8936197556
21
23.1625901625
31
0.0000000000
11
-14.8959461810
21
23.1974803306
31
0.0000000000
11
-14.9025445126
21
23.2337011867
31
0.0000000000
11
-14.9132521800
21
23.2703601879
31
0.0000000000
11
-14.9278053444
21
23.3065542010
31
0.0000000000
11
-14.9458454384
21
23.3413916322
31
0.0000000000
11
-14.9669277631
21
23.3740140090
31
0.0000000000
11
-14.9905335122
21
23.4036186417
31
0.0000000000
11
-15.0160789052
21
23.4294740775
31
0.0000000000
11
-15.0429366887
21
23.4509461354
31
0.0000000000
11
-15.0703934593
21
23.4674797013
31
0.0000000000
0
SPLINE
5
3ED
100
AcDbEntity
8
0
100
AcDbSpline
62
7
6
CONTINUOUS
70
0
71
3
72
18
73
14
74
12
42
0.0000001000
43
0.0000001000
44
0.0000000001
12
0.0000000000
22
0.3680541714
32
0.0000000000
13
-0.3291976587
23
0.1645988293
33
0.0000000000
40
0.0000000000
40
0.0000000000
40
0.0000000000
40
0.0000000000
40
0.0862976154
40
0.1767716919
40
0.2704937047
40
0.3663768358
40
0.4632356557
40
0.5598417779
40
0.6549778366
40
0.7474918948
40
0.8363544548
40
0.9207205835
40
1.0000000000
40
1.0000000000
40
1.0000000000
40
1.0000000000
10
-13.2923389648
20
23.9653121660
30
0.0000000000
10
-13.2923389648
20
23.9758995651
30
0.0000000000
10
-13.2936331617
20
23.9976007254
30
0.0000000000
10
-13.2990525749
20
24.0303924874
30
0.0000000000
10
-13.3078901598
20
24.0636503402
30
0.0000000000
10
-13.3199678413
20
24.0967036224
30
0.0000000000
10
-13.3350431067
20
24.1288918913
30
0.0000000000
10
-13.3528133519
20
24.1595688380
30
0.0000000000
10
-13.3729225327
20
24.1881192221
30
0.0000000000
10
-13.3949680526
20
24.2139705569
30
0.0000000000
10
-13.4185138985
20
24.2366068041
30
0.0000000000
10
-13.4430883773
20
24.2555715884
30
0.0000000000
10
-13.4604131357
20
24.2658519384
30
0.0000000000
10
-13.4691126685
20
24.2702017048
30
0.0000000000
11
-13.2923389648
21
23.9653121660
31
0.0000000000
11
-13.2941382163
21
23.9970233607
31
0.0000000000
11
-13.2994993814
21
24.0298883173
31
0.0000000000
11
-13.3083133752
21
24.0632380280
31
0.0000000000
11
-13.3204008098
21
24.0963935883
31
0.0000000000
11
-13.3355156410
21
24.1286800243
31
0.0000000000
11
-13.3533501750
21
24.1594400452
31
0.0000000000
11
-13.3735413356
21
24.1880474375
31
0.0000000000
11
-13.3956780626
21
24.2139198247
31
0.0000000000
11
-13.4193096896
21
24.2365305318
31
0.0000000000
11
-13.4439551277
21
24.2554193104
31
0.0000000000
11
-13.4691126685
21
24.2702017048
31
0.0000000000
0
SPLINE
5
3EE
100
AcDbEntity
8
0
100
AcDbSpline
62
9
6
CONTINUOUS
70
0
71
3
72
17
73
13
74
11
42
0.0000001000
43
0.0000001000
44
0.0000000001
12
0.3245266520
22
-0.1622633260
32
0.0000000000
13
0.3252757427
23
0.1607564184
33
0.0000000000
40
0.0000000000
40
0.0000000000
40
0.0000000000
40
0.0000000000
40
0.0888945257
40
0.1849224476
40
0.2865165059
40
0.3919916139
40
0.4994659308
40
0.6069809794
40
0.7125725625
40
0.8143619900
40
0.9106460770
40
1.0000000000
40
1.0000000000
40
1.0000000000
40
1.0000000000
10
-15.2461417153
20
23.1631028863
30
0.0000000000
10
-15.2365255010
20
23.1582947792
30
0.0000000000
10
-15.2158642571
20
23.1495805979
30
0.0000000000
10
-15.1826591100
20
23.1394978111
30
0.0000000000
10
-15.1467083126
20
23.1320925867
30
0.0000000000
10
-15.1088965469
20
23.1275522808
30
0.0000000000
10
-15.0701304157
20
23.1259865316
30
0.0000000000
10
-15.0313456323
20
23.1274340442
30
0.0000000000
10
-14.9934774180
20
23.1318592312
30
0.0000000000
10
-14.9574344836
20
23.1391554391
30
0.0000000000
10
-14.9240861251
20
23.1491436796
30
0.0000000000
10
-14.9033079768
20
23.1578020903
30
0.0000000000
10
-14.8936197556
20
23.1625901625
30
0.0000000000
11
-15.2461417153
21
23.1631028863
31
0.0000000000
11
-15.2164833536
21
23.1504266557
31
0.0000000000
11
-15.1831773170
21
23.1401957252
31
0.0000000000
11
-15.1470888938
21
23.1326857212
31
0.0000000000
11
-15.1090973270
21
23.1280799867
31
0.0000000000
11
-15.0701345783
21
23.1264918262
31
0.0000000000
11
-15.0311523374
21
23.1279600730
31
0.0000000000
11
-14.9931042281
21
23.1324489183
31
0.0000000000
11
-14.9569206760
21
23.1398486463
31
0.0000000000
11
-14.9234865773
21
23.1499783284
31
0.0000000000
11
-14.8936197556
21
23.1625901625
31
0.0000000000
0
SPLINE
5
3EF
100
AcDbEntity
8
0
100
AcDbSpline
62
9
6
CONTINUOUS
70
0
71
3
72
17
73
13
74
11
42
0.0000001000
43
0.0000001000
44
0.0000000001
12
0.3245266433
22
-0.1622633217
32
0.0000000000
13
0.3252757340
23
0.1607564141
33
0.0000000000
40
0.0000000000
40
0.0000000000
40
0.0000000000
40
0.0000000000
40
0.0890628786
40
0.1850997776
40
0.2867012896
40
0.3921723352
40
0.4996398690
40
0.6071422920
40
0.7127180571
40
0.8144820594
40
0.9107406962
40
1.0000000000
40
1.0000000000
40
1.0000000000
40
1.0000000000
10
-15.2461417153
20
22.8231289522
30
0.0000000000
10
-15.2365072896
20
22.8183117394
30
0.0000000000
10
-15.2158249984
20
22.8095915864
30
0.0000000000
10
-15.1825967504
20
22.7995081286
30
0.0000000000
10
-15.1466433367
20
22.7921081886
30
0.0000000000
10
-15.1088313636
20
22.7875732373
30
0.0000000000
10
-15.0700678779
20
22.7860125975
30
0.0000000000
10
-15.0312875412
20
22.7874646727
30
0.0000000000
10
-14.9934263264
20
22.7918935578
30
0.0000000000
10
-14.9573921543
20
22.7991922655
30
0.0000000000
10
-14.9240617447
20
22.8091790822
30
0.0000000000
10
-14.9032977175
20
22.8178332265
30
0.0000000000
10
-14.8936197556
20
22.8226162283
30
0.0000000000
11
-15.2461417153
21
22.8231289522
31
0.0000000000
11
-15.2164258648
21
22.8104318064
31
0.0000000000
11
-15.1831148978
21
22.8002058390
31
0.0000000000
11
-15.1470226478
21
22.7927009575
31
0.0000000000
11
-15.1090318922
21
22.7881007904
31
0.0000000000
11
-15.0700713973
21
22.7865177988
31
0.0000000000
11
-15.0310939158
21
22.7879906604
31
0.0000000000
11
-14.9930520399
21
22.7924833456
31
0.0000000000
11
-14.9568783739
21
22.7998853662
31
0.0000000000
11
-14.9234542197
21
22.8100160211
31
0.0000000000
11
-14.8936197556
21
22.8226162283
31
0.0000000000
0
SPLINE
5
3F0
100
AcDbEntity
8
0
100
AcDbSpline
62
9
6
CONTINUOUS
70
0
71
3
72
13
73
9
74
7
42
0.0000001000
43
0.0000001000
44
0.0000000001
12
0.0000000000
22
-0.1576933306
32
0.0000000000
13
0.1414123212
23
-0.0707561396
33
0.0000000000
40
0.0000000000
40
0.0000000000
40
0.0000000000
40
0.0000000000
40
0.1988100076
40
0.3840579127
40
0.5557910586
40
0.7154061696
40
0.8658306840
40
1.0000000000
40
1.0000000000
40
1.0000000000
40
1.0000000000
10
-15.2461417153
20
22.8231289522
30
0.0000000000
10
-15.2461417153
20
22.8126786148
30
0.0000000000
10
-15.2449534118
20
22.7924600201
30
0.0000000000
10
-15.2392096066
20
22.7637092579
30
0.0000000000
10
-15.2296484337
20
22.7381470905
30
0.0000000000
10
-15.2164144725
20
22.7163549340
30
0.0000000000
10
-15.2001432636
20
22.6993201945
30
0.0000000000
10
-15.1875033952
20
22.6910803236
30
0.0000000000
10
-15.1811789971
20
22.6879158893
30
0.0000000000
11
-15.2461417153
21
22.8231289522
31
0.0000000000
11
-15.2441663026
21
22.7918402367
31
0.0000000000
11
-15.2382842106
21
22.7632262031
31
0.0000000000
11
-15.2286265374
21
22.7379256258
31
0.0000000000
11
-15.2154092787
21
22.7165049588
31
0.0000000000
11
-15.1989289435
21
22.6994438428
31
0.0000000000
11
-15.1811789971
21
22.6879158893
31
0.0000000000
0
SPLINE
5
3F1
100
AcDbEntity
8
0
100
AcDbSpline
62
9
6
CONTINUOUS
70
0
71
3
72
13
73
9
74
7
42
0.0000001000
43
0.0000001000
44
0.0000000001
12
0.0000000000
22
-0.1577064518
32
0.0000000000
13
0.1414342224
23
-0.0707420511
33
0.0000000000
40
0.0000000000
40
0.0000000000
40
0.0000000000
40
0.0000000000
40
0.1987934667
40
0.3840259591
40
0.5557448168
40
0.7153466478
40
0.8657586469
40
1.0000000000
40
1.0000000000
40
1.0000000000
40
1.0000000000
10
-16.5711263951
20
23.4856212921
30
0.0000000000
10
-16.5711263951
20
23.4751709547
30
0.0000000000
10
-16.5699380916
20
23.4549523600
30
0.0000000000
10
-16.5641942864
20
23.4262015978
30
0.0000000000
10
-16.5546331135
20
23.4006394304
30
0.0000000000
10
-16.5413991523
20
23.3788472739
30
0.0000000000
10
-16.5251248956
20
23.3618093435
30
0.0000000000
10
-16.5124806838
20
23.3535678456
30
0.0000000000
10
-16.5061519100
20
23.3504023427
30
0.0000000000
11
-16.5711263951
21
23.4856212921
31
0.0000000000
11
-16.5691509824
21
23.4543325766
31
0.0000000000
11
-16.5632688904
21
23.4257185430
31
0.0000000000
11
-16.5536112172
21
23.4004179657
31
0.0000000000
11
-16.5403939585
21
23.3789972987
31
0.0000000000
11
-16.5239136234
21
23.3619361828
31
0.0000000000
11
-16.5061519100
21
23.3504023427
31
0.0000000000
0
SPLINE
5
3F2
100
AcDbEntity
8
0
100
AcDbSpline
62
9
6
CONTINUOUS
70
0
71
3
72
13
73
9
74
7
42
0.0000001000
43
0.0000001000
44
0.0000000001
12
-0.1077461777
22
0.0538730888
32
0.0000000000
13
0.0000211851
23
0.1208726111
33
0.0000000000
40
0.0000000000
40
0.0000000000
40
0.0000000000
40
0.0000000000
40
0.2442354863
40
0.4631880297
40
0.6580384859
40
0.8332459522
40
0.9970779764
40
1.0000000000
40
1.0000000000
40
1.0000000000
40
1.0000000000
10
-16.5711263951
20
23.4856212921
30
0.0000000000
10
-16.5798982084
20
23.4900071988
30
0.0000000000
10
-16.5960751540
20
23.4993193405
30
0.0000000000
10
-16.6168219268
20
23.5158781745
30
0.0000000000
10
-16.6322951138
20
23.5340047944
30
0.0000000000
10
-16.6420076836
20
23.5534091816
30
0.0000000000
10
-16.6443313811
20
23.5671732625
30
0.0000000000
10
-16.6443496857
20
23.5738919101
30
0.0000000000
10
-16.6443496650
20
23.5740096410
30
0.0000000000
11
-16.5711263951
21
23.4856212921
31
0.0000000000
11
-16.5965206866
21
23.5004792173
31
0.0000000000
11
-16.6169726215
21
23.5171347008
31
0.0000000000
11
-16.6319823845
21
23.5351808259
31
0.0000000000
11
-16.6411827187
21
23.5541762036
31
0.0000000000
11
-16.6443487018
21
23.5736564511
31
0.0000000000
11
-16.6443496650
21
23.5740096410
31
0.0000000000
0
SPLINE
5
3F3
100
AcDbEntity
8
0
100
AcDbSpline
62
9
6
CONTINUOUS
70
0
71
3
72
13
73
9
74
7
42
0.0000001000
43
0.0000001000
44
0.0000000001
12
-0.1077461224
22
0.0538730612
32
0.0000000000
13
0.0000205346
23
0.1208725739
33
0.0000000000
40
0.0000000000
40
0.0000000000
40
0.0000000000
40
0.0000000000
40
0.2442642826
40
0.4632407856
40
0.6581066906
40
0.8333266092
40
0.9971724336
40
1.0000000000
40
1.0000000000
40
1.0000000000
40
1.0000000000
10
-16.5711263951
20
23.8255952262
30
0.0000000000
10
-16.5798992382
20
23.8299816478
30
0.0000000000
10
-16.5960779708
20
23.8392949616
30
0.0000000000
10
-16.6168264293
20
23.8558561401
30
0.0000000000
10
-16.6322998531
20
23.8739853900
30
0.0000000000
10
-16.6420110458
20
23.8933924678
30
0.0000000000
10
-16.6443319825
20
23.9071542548
30
0.0000000000
10
-16.6443496866
20
23.9138696517
30
0.0000000000
10
-16.6443496672
20
23.9139835768
30
0.0000000000
11
-16.5711263951
21
23.8255952262
31
0.0000000000
11
-16.5965235404
21
23.8404551131
31
0.0000000000
11
-16.6169771604
21
23.8571130768
31
0.0000000000
11
-16.6319868817
21
23.8751616414
31
0.0000000000
11
-16.6411856979
21
23.8941594090
31
0.0000000000
11
-16.6443487653
21
23.9136418040
31
0.0000000000
11
-16.6443496672
21
23.9139835768
31
0.0000000000
0
SPLINE
5
3F4
100
AcDbEntity
8
0
100
AcDbSpline
62
9
6
CONTINUOUS
70
0
71
3
72
17
73
13
74
11
42
0.0000001000
43
0.0000001000
44
0.0000000001
12
0.0000000000
22
0.3668786876
32
0.0000000000
13
0.3272083824
23
0.1659356678
33
0.0000000000
40
0.0000000000
40
0.0000000000
40
0.0000000000
40
0.0000000000
40
0.0951260700
40
0.1951871607
40
0.2989216269
40
0.4048562768
40
0.5113989431
40
0.6169244000
40
0.7198650762
40
0.8187836095
40
0.9124975085
40
1.0000000000
40
1.0000000000
40
1.0000000000
40
1.0000000000
10
-16.5711263951
20
23.8255952262
30
0.0000000000
10
-16.5711263951
20
23.8372284688
30
0.0000000000
10
-16.5695623193
20
23.8611161308
30
0.0000000000
10
-16.5630611624
20
23.8971562574
30
0.0000000000
10
-16.5524973299
20
23.9335990262
30
0.0000000000
10
-16.5381256979
20
23.9695638925
30
0.0000000000
10
-16.5202920760
20
24.0041897053
30
0.0000000000
10
-16.4994247162
20
24.0366440458
30
0.0000000000
10
-16.4760251300
20
24.0661467305
30
0.0000000000
10
-16.4506480036
20
24.0919926890
30
0.0000000000
10
-16.4239176046
20
24.1135465612
30
0.0000000000
10
-16.4049219887
20
24.1251321131
30
0.0000000000
10
-16.3953781391
20
24.1299720412
30
0.0000000000
11
-16.5711263951
21
23.8255952262
31
0.0000000000
11
-16.5689650809
21
23.8604279654
31
0.0000000000
11
-16.5625339272
21
23.8965705308
31
0.0000000000
11
-16.5519902232
21
23.9331388093
31
0.0000000000
11
-16.5375918637
21
23.9692385091
31
0.0000000000
11
-16.5196910024
21
24.0039868784
31
0.0000000000
11
-16.4987256763
21
24.0365339137
31
0.0000000000
11
-16.4752080241
21
24.0660846616
31
0.0000000000
11
-16.4497154212
21
24.0919143201
31
0.0000000000
11
-16.4228692108
21
24.1133940227
31
0.0000000000
11
-16.3953781391
21
24.1299720412
31
0.0000000000
0
SPLINE
5
3F5
100
AcDbEntity
8
0
100
AcDbSpline
62
9
6
CONTINUOUS
70
0
71
3
72
17
73
13
74
11
42
0.0000001000
43
0.0000001000
44
0.0000000001
12
0.0000000000
22
0.3668786542
32
0.0000000000
13
0.3272083526
23
0.1659356527
33
0.0000000000
40
0.0000000000
40
0.0000000000
40
0.0000000000
40
0.0000000000
40
0.0951043724
40
0.1951411062
40
0.2988504059
40
0.4047604858
40
0.5112804371
40
0.6167872853
40
0.7197115413
40
0.8186252806
40
0.9123372168
40
1.0000000000
40
1.0000000000
40
1.0000000000
40
1.0000000000
10
-15.2461417153
20
23.1631028863
30
0.0000000000
10
-15.2461417153
20
23.1747334744
30
0.0000000000
10
-15.2445783626
20
23.1986154922
30
0.0000000000
10
-15.2380801066
20
23.2346472462
30
0.0000000000
10
-15.2275208977
20
23.2710818751
30
0.0000000000
10
-15.2131553109
20
23.3070395716
30
0.0000000000
10
-15.1953287183
20
23.3416598928
30
0.0000000000
10
-15.1744690118
20
23.3741107097
30
0.0000000000
10
-15.1510767247
20
23.4036128939
30
0.0000000000
10
-15.1257060864
20
23.4294612130
30
0.0000000000
10
-15.0989656329
20
23.4510323834
30
0.0000000000
10
-15.0799547909
20
23.4626309076
30
0.0000000000
10
-15.0703934593
20
23.4674797013
30
0.0000000000
11
-15.2461417153
21
23.1631028863
31
0.0000000000
11
-15.2439813597
21
23.1979277060
31
0.0000000000
11
-15.2375530955
21
23.2340617059
31
0.0000000000
11
-15.2270140401
21
23.2706217118
31
0.0000000000
11
-15.2126217852
21
23.3067141377
31
0.0000000000
11
-15.1947281009
21
23.3414568256
31
0.0000000000
11
-15.1737703381
21
23.3740006074
31
0.0000000000
11
-15.1502607389
21
23.4035500601
31
0.0000000000
11
-15.1247739161
21
23.4293829467
31
0.0000000000
11
-15.0979328094
21
23.4508678693
31
0.0000000000
11
-15.0703934593
21
23.4674797013
31
0.0000000000
0
SPLINE
5
3F6
100
AcDbEntity
8
0
100
AcDbSpline
62
9
6
CONTINUOUS
70
0
71
3
72
12
73
8
74
6
42
0.0000001000
43
0.0000001000
44
0.0000000001
12
-0.1051861010
22
0.0519803208
32
0.0000000000
13
-0.1046732520
23
-0.0537307392
33
0.0000000000
40
0.0000000000
40
0.0000000000
40
0.0000000000
40
0.0000000000
40
0.2550938295
40
0.4906955133
40
0.7098693081
40
0.9181747115
40
1.0000000000
40
1.0000000000
40
1.0000000000
40
1.0000000000
10
-16.3953781391
20
24.1299720412
30
0.0000000000
10
-16.4043222476
20
24.1343919942
30
0.0000000000
10
-16.4221937275
20
24.1416562544
30
0.0000000000
10
-16.4495230223
20
24.1474173076
30
0.0000000000
10
-16.4756760474
20
24.1473766277
30
0.0000000000
10
-16.4952208851
20
24.1425637007
30
0.0000000000
10
-16.5056071864
20
24.1378823212
30
0.0000000000
10
-16.5084621594
20
24.1364168101
30
0.0000000000
11
-16.3953781391
21
24.1299720412
31
0.0000000000
11
-16.4231792612
21
24.1410578500
31
0.0000000000
11
-16.4502705343
21
24.1465525770
31
0.0000000000
11
-16.4759849101
21
24.1463209295
31
0.0000000000
11
-16.4996892425
21
24.1403686113
31
0.0000000000
11
-16.5084621594
21
24.1364168101
31
0.0000000000
0
SPLINE
5
3F7
100
AcDbEntity
8
0
100
AcDbSpline
62
9
6
CONTINUOUS
70
0
71
3
72
12
73
8
74
6
42
0.0000001000
43
0.0000001000
44
0.0000000001
12
-0.0000215680
22
-0.1197211386
32
0.0000000000
13
-0.1064693987
23
-0.0538577450
33
0.0000000000
40
0.0000000000
40
0.0000000000
40
0.0000000000
40
0.0000000000
40
0.1621342377
40
0.3384131525
40
0.5342805221
40
0.7543772349
40
1.0000000000
40
1.0000000000
40
1.0000000000
40
1.0000000000
10
0.6724441916
20
-24.0126711202
30
0.0000000000
10
0.6724430259
20
-24.0191414187
30
0.0000000000
10
0.6702885789
20
-24.0326485450
30
0.0000000000
10
0.6608530065
20
-24.0519812038
30
0.0000000000
10
0.6455853062
20
-24.0701583414
30
0.0000000000
10
0.6250276818
20
-24.0867785717
30
0.0000000000
10
0.6089634741
20
-24.0961341896
30
0.0000000000
10
0.6002463714
20
-24.1005437523
30
0.0000000000
11
0.6724441916
21
-24.0126711202
31
0.0000000000
11
0.6695013237
21
-24.0317943497
31
0.0000000000
11
0.6605209979
21
-24.0508137860
31
0.0000000000
11
0.6457216869
21
-24.0689009533
31
0.0000000000
11
0.6254651101
21
-24.0856137716
31
0.0000000000
11
0.6002463714
21
-24.1005437523
31
0.0000000000
0
SPLINE
5
3F8
100
AcDbEntity
8
0
100
AcDbSpline
62
7
6
CONTINUOUS
70
0
71
3
72
12
73
8
74
6
42
0.0000001000
43
0.0000001000
44
0.0000000001
12
-0.1029117008
22
0.0514558504
32
0.0000000000
13
-0.1036858895
23
-0.0504661476
33
0.0000000000
40
0.0000000000
40
0.0000000000
40
0.0000000000
40
0.0000000000
40
0.2365135992
40
0.4564779312
40
0.6620569350
40
0.8571721465
40
1.0000000000
40
1.0000000000
40
1.0000000000
40
1.0000000000
10
-14.8126215360
20
24.9419561385
30
0.0000000000
10
-14.8207348749
20
24.9460128080
30
0.0000000000
10
-14.8369529346
20
24.9528055700
30
0.0000000000
10
-14.8617616748
20
24.9587646615
30
0.0000000000
10
-14.8856948623
20
24.9599503123
30
0.0000000000
10
-14.9064360563
20
24.9565494940
30
0.0000000000
10
-14.9186167020
20
24.9518876968
30
0.0000000000
10
-14.9235531131
20
24.9494850396
30
0.0000000000
11
-14.8126215360
21
24.9419561385
31
0.0000000000
11
-14.8377790767
21
24.9523312849
31
0.0000000000
11
-14.8624245149
21
24.9580879445
31
0.0000000000
11
-14.8860561418
21
24.9591088643
31
0.0000000000
11
-14.9081928688
21
24.9553732041
31
0.0000000000
11
-14.9235531131
21
24.9494850396
31
0.0000000000
0
SPLINE
5
3F9
100
AcDbEntity
8
0
100
AcDbSpline
62
9
6
CONTINUOUS
70
0
71
3
72
12
73
8
74
6
42
0.0000001000
43
0.0000001000
44
0.0000000001
12
-0.1023063762
22
0.0517475861
32
0.0000000000
13
-0.1033358100
23
-0.0503876481
33
0.0000000000
40
0.0000000000
40
0.0000000000
40
0.0000000000
40
0.0000000000
40
0.2587066551
40
0.4980489301
40
0.7208658535
40
0.9330787874
40
1.0000000000
40
1.0000000000
40
1.0000000000
40
1.0000000000
10
-14.2781716573
20
25.2023036051
30
0.0000000000
10
-14.2869941041
20
25.2067660867
30
0.0000000000
10
-14.3046584589
20
25.2141236317
30
0.0000000000
10
-14.3317444902
20
25.2200150419
30
0.0000000000
10
-14.3577407447
20
25.2200695225
30
0.0000000000
10
-14.3765717595
20
25.2154543781
30
0.0000000000
10
-14.3863773462
20
25.2111597262
30
0.0000000000
10
-14.3886824655
20
25.2100357253
30
0.0000000000
11
-14.2781716573
21
25.2023036051
31
0.0000000000
11
-14.3056284278
21
25.2135227645
31
0.0000000000
11
-14.3324862113
21
25.2191471060
31
0.0000000000
11
-14.3580316044
21
25.2190118557
31
0.0000000000
11
-14.3816373535
21
25.2131196427
31
0.0000000000
11
-14.3886824655
21
25.2100357253
31
0.0000000000
0
SPLINE
5
3FA
100
AcDbEntity
8
0
100
AcDbSpline
62
7
6
CONTINUOUS
70
0
71
3
72
18
73
14
74
12
42
0.0000001000
43
0.0000001000
44
0.0000000001
12
0.0051784205
22
-0.5084734804
32
0.0000000000
13
0.2581821930
23
-0.4379578070
33
0.0000000000
40
0.0000000000
40
0.0000000000
40
0.0000000000
40
0.0000000000
40
0.0562634381
40
0.1473656392
40
0.2398759665
40
0.3335948240
40
0.4282900428
40
0.5236984929
40
0.6195299183
40
0.7154584715
40
0.8111212332
40
0.9061156120
40
1.0000000000
40
1.0000000000
40
1.0000000000
40
1.0000000000
10
-11.3538724195
20
-10.0156918622
30
0.0000000000
10
-11.3537753009
20
-10.0252280176
30
0.0000000000
10
-11.3529509158
20
-10.0501994616
30
0.0000000000
10
-11.3493756771
20
-10.0907203025
30
0.0000000000
10
-11.3423944571
20
-10.1372236819
30
0.0000000000
10
-11.3327060706
20
-10.1838575108
30
0.0000000000
10
-11.3204996570
20
-10.2304013712
30
0.0000000000
10
-11.3059562910
20
-10.2766418543
30
0.0000000000
10
-11.2892544863
20
-10.3223679799
30
0.0000000000
10
-11.2705755568
20
-10.3673677921
30
0.0000000000
10
-11.2501089185
20
-10.4114258057
30
0.0000000000
10
-11.2280575700
20
-10.4543213983
30
0.0000000000
10
-11.2123264501
20
-10.4822078546
30
0.0000000000
10
-11.2042466910
20
-10.4959136548
30
0.0000000000
11
-11.3538724195
21
-10.0156918622
31
0.0000000000
11
-11.3529458118
21
-10.0442846085
31
0.0000000000
11
-11.3489325186
21
-10.0904262725
31
0.0000000000
11
-11.3419968233
21
-10.1369438160
31
0.0000000000
11
-11.3323425842
21
-10.1836016393
31
0.0000000000
11
-11.3201597983
21
-10.2301772105
31
0.0000000000
11
-11.3056304369
21
-10.2764551371
31
0.0000000000
11
-11.2889331639
21
-10.3222247458
31
0.0000000000
11
-11.2702495527
21
-10.3672735266
31
0.0000000000
11
-11.2497692362
21
-10.4113854831
31
0.0000000000
11
-11.2276949690
21
-10.4543400880
31
0.0000000000
11
-11.2042466910
21
-10.4959136548
31
0.0000000000
0
SPLINE
5
3FB
100
AcDbEntity
8
0
100
AcDbSpline
62
7
6
CONTINUOUS
70
0
71
3
72
18
73
14
74
12
42
0.0000001000
43
0.0000001000
44
0.0000000001
12
0.0038511130
22
-0.5089932616
32
0.0000000000
13
0.2576528427
23
-0.4388584961
33
0.0000000000
40
0.0000000000
40
0.0000000000
40
0.0000000000
40
0.0000000000
40
0.0576142916
40
0.1485478311
40
0.2408979263
40
0.3344645372
40
0.4290150970
40
0.5242861280
40
0.6199870699
40
0.7157918190
40
0.8113372392
40
0.9062205555
40
1.0000000000
40
1.0000000000
40
1.0000000000
40
1.0000000000
10
-11.3661407884
20
-8.6346926218
30
0.0000000000
10
-11.3660668287
20
-8.6444677172
30
0.0000000000
10
-11.3652845674
20
-8.6696665575
30
0.0000000000
10
-11.3617481517
20
-8.7104057279
30
0.0000000000
10
-11.3548382995
20
-8.7568846837
30
0.0000000000
10
-11.3452234400
20
-8.8035030734
30
0.0000000000
10
-11.3330922560
20
-8.8500400776
30
0.0000000000
10
-11.3186253823
20
-8.8962819023
30
0.0000000000
10
-11.3020008989
20
-8.9420171848
30
0.0000000000
10
-11.2833996842
20
-8.9870335765
30
0.0000000000
10
-11.2630107096
20
-9.0311151724
30
0.0000000000
10
-11.2410365126
20
-9.0740408913
30
0.0000000000
10
-11.2253569324
20
-9.1019509749
30
0.0000000000
10
-11.2173027522
20
-9.1156696102
30
0.0000000000
11
-11.3661407884
21
-8.6346926218
31
0.0000000000
11
-11.3652496640
21
-8.6640028275
31
0.0000000000
11
-11.3613052211
21
-8.7101107219
31
0.0000000000
11
-11.3544409999
21
-8.7566039349
31
0.0000000000
11
-11.3448603795
21
-8.8032464279
31
0.0000000000
11
-11.3327529051
21
-8.8498152633
31
0.0000000000
11
-11.3183001104
21
-8.8960946614
31
0.0000000000
11
-11.3016802307
21
-8.9418735672
31
0.0000000000
11
-11.2830744059
21
-8.9869390791
31
0.0000000000
11
-11.2626718251
21
-9.0310747838
31
0.0000000000
11
-11.2406747849
21
-9.0740596950
31
0.0000000000
11
-11.2173027522
21
-9.1156696102
31
0.0000000000
0
SPLINE
5
3FC
100
AcDbEntity
8
0
100
AcDbSpline
62
9
6
CONTINUOUS
70
0
71
3
72
12
73
8
74
6
42
0.0000001000
43
0.0000001000
44
0.0000000001
12
-0.0000262980
22
-0.1197188418
32
0.0000000000
13
-0.1064673255
23
-0.0538566962
33
0.0000000000
40
0.0000000000
40
0.0000000000
40
0.0000000000
40
0.0000000000
40
0.1620958053
40
0.3383824453
40
0.5342591991
40
0.7543655721
40
1.0000000000
40
1.0000000000
40
1.0000000000
40
1.0000000000
10
-12.6918739740
20
23.9690897893
30
0.0000000000
10
-12.6918753949
20
23.9626211486
30
0.0000000000
10
-12.6940294985
20
23.9491155621
30
0.0000000000
10
-12.7034639402
20
23.9297837383
30
0.0000000000
10
-12.7187317576
20
23.9116058745
30
0.0000000000
10
-12.7392898270
20
23.8949850474
30
0.0000000000
10
-12.7553544462
20
23.8856291555
30
0.0000000000
10
-12.7640717930
20
23.8812194693
30
0.0000000000
11
-12.6918739740
21
23.9690897893
31
0.0000000000
11
-12.6948160541
21
23.9499714126
31
0.0000000000
11
-12.7037960125
21
23.9309512364
31
0.0000000000
11
-12.7185954359
21
23.9128633024
31
0.0000000000
11
-12.7388523787
21
23.8961499201
31
0.0000000000
11
-12.7640717930
21
23.8812194693
31
0.0000000000
0
SPLINE
5
3FD
100
AcDbEntity
8
0
100
AcDbSpline
62
9
6
CONTINUOUS
70
0
71
3
72
13
73
9
74
7
42
0.0000001000
43
0.0000001000
44
0.0000000001
12
0.1395220720
22
0.0716304563
32
0.0000000000
13
-0.0007403311
23
0.1563941955
33
0.0000000000
40
0.0000000000
40
0.0000000000
40
0.0000000000
40
0.0000000000
40
0.0921946389
40
0.2497147002
40
0.4163695907
40
0.5959673764
40
0.7904363281
40
1.0000000000
40
1.0000000000
40
1.0000000000
40
1.0000000000
10
0.5365622301
20
-24.5826330163
30
0.0000000000
10
0.5408499591
20
-24.5804317016
30
0.0000000000
10
0.5520097337
20
-24.5735820967
30
0.0000000000
10
0.5679542423
20
-24.5585290269
30
0.0000000000
10
0.5824578169
20
-24.5363836817
30
0.0000000000
10
0.5928913036
20
-24.5100192312
30
0.0000000000
10
0.5990917411
20
-24.4801055373
30
0.0000000000
10
0.6002980869
20
-24.4590001164
30
0.0000000000
10
0.6002463714
20
-24.4480752691
30
0.0000000000
11
0.5365622301
21
-24.5826330163
31
0.0000000000
11
0.5488726263
21
-24.5750770249
31
0.0000000000
11
0.5668769735
21
-24.5582618143
31
0.0000000000
11
0.5813236185
21
-24.5365677058
31
0.0000000000
11
0.5918566168
21
-24.5105290375
31
0.0000000000
11
0.5982164319
21
-24.4807872548
31
0.0000000000
11
0.6002463714
21
-24.4480752691
31
0.0000000000
0
SPLINE
5
3FE
100
AcDbEntity
8
0
100
AcDbSpline
62
9
6
CONTINUOUS
70
0
71
3
72
12
73
8
74
6
42
0.0000001000
43
0.0000001000
44
0.0000000001
12
0.0395149698
22
-0.0643285686
32
0.0000000000
13
-0.0470637143
23
-0.0601727452
33
0.0000000000
40
0.0000000000
40
0.0000000000
40
0.0000000000
40
0.0000000000
40
0.3204150150
40
0.5829496920
40
0.7894317962
40
0.9517884504
40
1.0000000000
40
1.0000000000
40
1.0000000000
40
1.0000000000
10
-12.7640717930
20
23.8812194693
30
0.0000000000
10
-12.7598513965
20
23.8743488562
30
0.0000000000
10
-12.7527040303
20
23.8614998833
30
0.0000000000
10
-12.7454330120
20
23.8429145868
30
0.0000000000
10
-12.7427108095
20
23.8271157623
30
0.0000000000
10
-12.7446493046
20
23.8163795770
30
0.0000000000
10
-12.7475817821
20
23.8118850979
30
0.0000000000
10
-12.7483381203
20
23.8109180908
30
0.0000000000
11
-12.7640717930
21
23.8812194693
31
0.0000000000
11
-12.7525315693
21
23.8599597214
31
0.0000000000
11
-12.7456366600
21
23.8413774209
31
0.0000000000
11
-12.7435562270
21
23.8259283647
31
0.0000000000
11
-12.7463413654
21
23.8139917575
31
0.0000000000
11
-12.7483381203
21
23.8109180908
31
0.0000000000
0
SPLINE
5
3FF
100
AcDbEntity
8
0
100
AcDbSpline
62
9
6
CONTINUOUS
70
0
71
3
72
8
73
4
74
2
42
0.0000001000
43
0.0000001000
44
0.0000000001
12
-0.0003996950
22
-0.0005110253
32
0.0000000000
13
-0.0004152185
23
-0.0004992523
33
0.0000000000
40
0.0000000000
40
0.0000000000
40
0.0000000000
40
0.0000000000
40
1.0000000000
40
1.0000000000
40
1.0000000000
40
1.0000000000
10
-12.7483381203
20
23.8109180908
30
0.0000000000
10
-12.7484713520
20
23.8107477490
30
0.0000000000
10
-12.7486072188
20
23.8105793326
30
0.0000000000
10
-12.7487456249
20
23.8104129151
30
0.0000000000
11
-12.7483381203
21
23.8109180908
31
0.0000000000
11
-12.7487456249
21
23.8104129151
31
0.0000000000
0
SPLINE
5
400
100
AcDbEntity
8
0
100
AcDbSpline
62
7
6
CONTINUOUS
70
0
71
3
72
8
73
4
74
2
42
0.0000001000
43
0.0000001000
44
0.0000000001
12
0.0031252547
22
0.0016020349
32
0.0000000000
13
0.0030623916
23
0.0017186206
33
0.0000000000
40
0.0000000000
40
0.0000000000
40
0.0000000000
40
0.0000000000
40
1.0000000000
40
1.0000000000
40
1.0000000000
40
1.0000000000
10
0.0078737600
20
-24.8538634341
30
0.0000000000
10
0.0089155116
20
-24.8533294225
30
0.0000000000
10
0.0099471922
20
-24.8527758703
30
0.0000000000
10
0.0109679894
20
-24.8522029968
30
0.0000000000
11
0.0078737600
21
-24.8538634341
31
0.0000000000
11
0.0109679894
21
-24.8522029968
31
0.0000000000
0
SPLINE
5
401
100
AcDbEntity
8
0
100
AcDbSpline
62
7
6
CONTINUOUS
70
0
71
3
72
13
73
9
74
7
42
0.0000001000
43
0.0000001000
44
0.0000000001
12
0.1339245570
22
0.0751587447
32
0.0000000000
13
0.0000000000
23
0.1532497058
33
0.0000000000
40
0.0000000000
40
0.0000000000
40
0.0000000000
40
0.0000000000
40
0.1437253460
40
0.2929995974
40
0.4514947733
40
0.6216146730
40
0.8044628653
40
1.0000000000
40
1.0000000000
40
1.0000000000
40
1.0000000000
10
0.0109679894
20
-24.8522029968
30
0.0000000000
10
0.0173841072
20
-24.8486022579
30
0.0000000000
10
0.0295875267
20
-24.8397056643
30
0.0000000000
10
0.0448451267
20
-24.8221756467
30
0.0000000000
10
0.0569276398
20
-24.8007973540
30
0.0000000000
10
0.0656509617
20
-24.7760463947
30
0.0000000000
10
0.0708912972
20
-24.7484306239
30
0.0000000000
10
0.0719791996
20
-24.7290749972
30
0.0000000000
10
0.0719791996
20
-24.7190863277
30
0.0000000000
11
0.0109679894
21
-24.8522029968
31
0.0000000000
11
0.0288025234
21
-24.8392775098
31
0.0000000000
11
0.0439173546
21
-24.8221059050
31
0.0000000000
11
0.0560047893
21
-24.8010377794
31
0.0000000000
11
0.0648187830
21
-24.7765020624
31
0.0000000000
11
0.0701799482
21
-24.7489982710
31
0.0000000000
11
0.0719791996
21
-24.7190863277
31
0.0000000000
0
SPLINE
5
402
100
AcDbEntity
8
0
100
AcDbSpline
62
9
6
CONTINUOUS
70
0
71
3
72
17
73
13
74
11
42
0.0000001000
43
0.0000001000
44
0.0000000001
12
0.0017352843
22
0.3683326427
32
0.0000000000
13
-0.3302054118
23
0.1632064119
33
0.0000000000
40
0.0000000000
40
0.0000000000
40
0.0000000000
40
0.0000000000
40
0.0952855389
40
0.1954450498
40
0.2992254493
40
0.4051614696
40
0.5116692082
40
0.6171330614
40
0.7199975207
40
0.8188410132
40
0.9125015613
40
1.0000000000
40
1.0000000000
40
1.0000000000
40
1.0000000000
10
-12.7640717930
20
24.2287509860
30
0.0000000000
10
-12.7640166772
20
24.2404499108
30
0.0000000000
10
-12.7654903850
20
24.2644718756
30
0.0000000000
10
-12.7719211803
20
24.3007120418
30
0.0000000000
10
-12.7824751263
20
24.3373350406
30
0.0000000000
10
-12.7968956146
20
24.3734495602
30
0.0000000000
10
-12.8148330916
20
24.4081847379
30
0.0000000000
10
-12.8358537829
20
24.4406995693
30
0.0000000000
10
-12.8594490351
20
24.4702068261
30
0.0000000000
10
-12.8850558779
20
24.4959961389
30
0.0000000000
10
-12.9120403221
20
24.5174288190
30
0.0000000000
10
-12.9312146774
20
24.5288804227
30
0.0000000000
10
-12.9408454967
20
24.5336405248
30
0.0000000000
11
-12.7640717930
21
24.2287509860
31
0.0000000000
11
-12.7661017325
21
24.2637893971
31
0.0000000000
11
-12.7724615476
21
24.3001295114
31
0.0000000000
11
-12.7829945459
21
24.3368758472
31
0.0000000000
11
-12.7974411909
21
24.3731231200
31
0.0000000000
11
-12.8154455381
21
24.4079784246
31
0.0000000000
11
-12.8365637669
21
24.4405828493
31
0.0000000000
11
-12.8602761865
21
24.4701341468
31
0.0000000000
11
-12.8859963721
21
24.4959021864
31
0.0000000000
11
-12.9130927714
21
24.5172549363
31
0.0000000000
11
-12.9408454967
21
24.5336405248
31
0.0000000000
0
SPLINE
5
403
100
AcDbEntity
8
0
100
AcDbSpline
62
7
6
CONTINUOUS
70
0
71
3
72
18
73
14
74
12
42
0.0000001000
43
0.0000001000
44
0.0000000001
12
0.0062989679
22
-0.5080253274
32
0.0000000000
13
0.2586244156
23
-0.4371909675
33
0.0000000000
40
0.0000000000
40
0.0000000000
40
0.0000000000
40
0.0000000000
40
0.0551115147
40
0.1463571433
40
0.2390038124
40
0.3328522996
40
0.4276707704
40
0.5231963854
40
0.6191391427
40
0.7151734075
40
0.8109364390
40
0.9060257961
40
1.0000000000
40
1.0000000000
40
1.0000000000
40
1.0000000000
10
-12.1538953209
20
-10.7728785368
30
0.0000000000
10
-12.1537796057
20
-10.7822112185
30
0.0000000000
10
-12.1529203257
20
-10.8069888585
30
0.0000000000
10
-12.1493129122
20
-10.8473235103
30
0.0000000000
10
-12.1422713516
20
-10.8938472182
30
0.0000000000
10
-12.1325208186
20
-10.9404937965
30
0.0000000000
10
-12.1202508375
20
-10.9870431669
30
0.0000000000
10
-12.1056428537
20
-11.0332822470
30
0.0000000000
10
-12.0888757466
20
-11.0790003802
30
0.0000000000
10
-12.0701311973
20
-11.1239859434
30
0.0000000000
10
-12.0495989962
20
-11.1680238065
30
0.0000000000
10
-12.0274825310
20
-11.2108937353
30
0.0000000000
10
-12.0117079199
20
-11.2387600936
30
0.0000000000
10
-12.0036065787
20
-11.2524549846
30
0.0000000000
11
-12.1538953209
21
-10.7728785368
31
0.0000000000
11
-12.1529410849
21
-10.8008604213
31
0.0000000000
11
-12.1488695597
21
-10.8470302986
31
0.0000000000
11
-12.1418734349
21
-10.8935680918
31
0.0000000000
11
-12.1321569723
21
-10.9402385722
31
0.0000000000
11
-12.1199105504
21
-10.9868195516
31
0.0000000000
11
-12.1053165087
21
-11.0330959654
31
0.0000000000
11
-12.0885538730
21
-11.0788574635
31
0.0000000000
11
-12.0698045818
21
-11.1238918671
31
0.0000000000
11
-12.0492586423
21
-11.1679835331
31
0.0000000000
11
-12.0271191952
21
-11.2109123222
31
0.0000000000
11
-12.0036065787
21
-11.2524549846
31
0.0000000000
0
SPLINE
5
404
100
AcDbEntity
8
0
100
AcDbSpline
62
7
6
CONTINUOUS
70
0
71
3
72
13
73
9
74
7
42
0.0000001000
43
0.0000001000
44
0.0000000001
12
-0.1103075893
22
0.0551537946
32
0.0000000000
13
0.0000555049
23
0.1236898856
33
0.0000000000
40
0.0000000000
40
0.0000000000
40
0.0000000000
40
0.0000000000
40
0.2283605529
40
0.4360928621
40
0.6234281536
40
0.7955910661
40
0.9576329960
40
1.0000000000
40
1.0000000000
40
1.0000000000
40
1.0000000000
10
-15.8681334408
20
22.5223188689
30
0.0000000000
10
-15.8765300748
20
22.5265171859
30
0.0000000000
10
-15.8921121836
20
22.5355134119
30
0.0000000000
10
-15.9122177730
20
22.5515912245
30
0.0000000000
10
-15.9275502088
20
22.5693741271
30
0.0000000000
10
-15.9376536255
20
22.5885329383
30
0.0000000000
10
-15.9410478025
20
22.6038462372
30
0.0000000000
10
-15.9413551457
20
22.6122726543
30
0.0000000000
10
-15.9413543618
20
22.6140194443
30
0.0000000000
11
-15.8681334408
21
22.5223188689
31
0.0000000000
11
-15.8924329780
21
22.5365560193
31
0.0000000000
11
-15.9123054362
21
22.5527246755
31
0.0000000000
11
-15.9272127360
21
22.5703754429
31
0.0000000000
11
-15.9369309773
21
22.5892532736
31
0.0000000000
11
-15.9411617969
21
22.6087845390
31
0.0000000000
11
-15.9413543618
21
22.6140194443
31
0.0000000000
0
SPLINE
5
405
100
AcDbEntity
8
0
100
AcDbSpline
62
7
6
CONTINUOUS
70
0
71
3
72
18
73
14
74
12
42
0.0000001000
43
0.0000001000
44
0.0000000001
12
0.0051784204
22
-0.5084734805
32
0.0000000000
13
0.2581821931
23
-0.4379578071
33
0.0000000000
40
0.0000000000
40
0.0000000000
40
0.0000000000
40
0.0000000000
40
0.0562634335
40
0.1473656345
40
0.2398759619
40
0.3335948195
40
0.4282900387
40
0.5236984893
40
0.6195299153
40
0.7154584692
40
0.8111212316
40
0.9061156112
40
1.0000000000
40
1.0000000000
40
1.0000000000
40
1.0000000000
10
-12.1670452179
20
-9.6091054628
30
0.0000000000
10
-12.1669480993
20
-9.6186416174
30
0.0000000000
10
-12.1661237143
20
-9.6436130606
30
0.0000000000
10
-12.1625484758
20
-9.6841339008
30
0.0000000000
10
-12.1555672559
20
-9.7306372803
30
0.0000000000
10
-12.1458788695
20
-9.7772711094
30
0.0000000000
10
-12.1336724560
20
-9.8238149699
30
0.0000000000
10
-12.1191290900
20
-9.8700554534
30
0.0000000000
10
-12.1024272852
20
-9.9157815792
30
0.0000000000
10
-12.0837483557
20
-9.9607813918
30
0.0000000000
10
-12.0632817172
20
-10.0048394058
30
0.0000000000
10
-12.0412303685
20
-10.0477349987
30
0.0000000000
10
-12.0254992485
20
-10.0756214553
30
0.0000000000
10
-12.0174194894
20
-10.0893272556
30
0.0000000000
11
-12.1670452179
21
-9.6091054628
31
0.0000000000
11
-12.1661186103
21
-9.6376982068
31
0.0000000000
11
-12.1621053173
21
-9.6838398708
31
0.0000000000
11
-12.1551696221
21
-9.7303574144
31
0.0000000000
11
-12.1455153831
21
-9.7770152378
31
0.0000000000
11
-12.1333325973
21
-9.8235908092
31
0.0000000000
11
-12.1188032359
21
-9.8698687361
31
0.0000000000
11
-12.1021059629
21
-9.9156383451
31
0.0000000000
11
-12.0834223515
21
-9.9606871263
31
0.0000000000
11
-12.0629420349
21
-10.0047990832
31
0.0000000000
11
-12.0408677676
21
-10.0477536885
31
0.0000000000
11
-12.0174194894
21
-10.0893272556
31
0.0000000000
0
SPLINE
5
406
100
AcDbEntity
8
0
100
AcDbSpline
62
9
6
CONTINUOUS
70
0
71
3
72
13
73
9
74
7
42
0.0000001000
43
0.0000001000
44
0.0000000001
12
0.1432600702
22
0.0698558459
32
0.0000000000
13
0.0007575953
23
0.1589430313
33
0.0000000000
40
0.0000000000
40
0.0000000000
40
0.0000000000
40
0.0000000000
40
0.1031677965
40
0.2584156470
40
0.4230714038
40
0.6007243952
40
0.7931373892
40
1.0000000000
40
1.0000000000
40
1.0000000000
40
1.0000000000
10
-1.5955644193
20
-25.6349688742
30
0.0000000000
10
-1.5906378107
20
-25.6325665830
30
0.0000000000
10
-1.5788208247
20
-25.6254693820
30
0.0000000000
10
-1.5623642746
20
-25.6099196701
30
0.0000000000
10
-1.5477717150
20
-25.5877193469
30
0.0000000000
10
-1.5371757960
20
-25.5612711395
30
0.0000000000
10
-1.5307494838
20
-25.5312639938
30
0.0000000000
10
-1.5293538306
20
-25.5100807175
30
0.0000000000
10
-1.5293015912
20
-25.4991209274
30
0.0000000000
11
-1.5955644193
21
-25.6349688742
31
0.0000000000
11
-1.5814837186
21
-25.6265170855
31
0.0000000000
11
-1.5634511883
21
-25.6096729430
31
0.0000000000
11
-1.5489063263
21
-25.5879156964
31
0.0000000000
11
-1.5382082770
21
-25.5617836976
31
0.0000000000
11
-1.5316191659
21
-25.5319188909
31
0.0000000000
11
-1.5293015912
21
-25.4991209274
31
0.0000000000
0
SPLINE
5
407
100
AcDbEntity
8
0
100
AcDbSpline
62
7
6
CONTINUOUS
70
0
71
3
72
17
73
13
74
11
42
0.0000001000
43
0.0000001000
44
0.0000000001
12
-0.2293550453
22
-0.2745954237
32
0.0000000000
13
-0.3507160826
23
0.0730796552
33
0.0000000000
40
0.0000000000
40
0.0000000000
40
0.0000000000
40
0.0000000000
40
0.1021387792
40
0.2069864708
40
0.3136189946
40
0.4210326509
40
0.5281801696
40
0.6340088688
40
0.7375134601
40
0.8378124364
40
0.9342621822
40
1.0000000000
40
1.0000000000
40
1.0000000000
40
1.0000000000
10
-14.1823991475
20
22.6741127055
30
0.0000000000
10
-14.1902078290
20
22.6647637584
30
0.0000000000
10
-14.2069026977
20
22.6465283238
30
0.0000000000
10
-14.2345140565
20
22.6212313862
30
0.0000000000
10
-14.2647425281
20
22.5980697425
30
0.0000000000
10
-14.2971613730
20
22.5775654763
30
0.0000000000
10
-14.3312785743
20
22.5602289978
30
0.0000000000
10
-14.3665324516
20
22.5465574139
30
0.0000000000
10
-14.4022929245
20
22.5370266937
30
0.0000000000
10
-14.4378594402
20
22.5320813370
30
0.0000000000
10
-14.4692830528
20
22.5321287371
30
0.0000000000
10
-14.4884935195
20
22.5348400958
30
0.0000000000
10
-14.4961786228
20
22.5364414615
30
0.0000000000
11
-14.1823991475
21
22.6741127055
31
0.0000000000
11
-14.2070563808
21
22.6471418747
31
0.0000000000
11
-14.2347078206
21
22.6217927729
31
0.0000000000
11
-14.2649946901
21
22.5985936027
31
0.0000000000
11
-14.2974868999
21
22.5780715479
31
0.0000000000
11
-14.3316835196
21
22.5607458414
31
0.0000000000
11
-14.3670106970
21
22.5471214012
31
0.0000000000
11
-14.4028188355
21
22.5376802545
31
0.0000000000
11
-14.4383798310
21
22.5328693238
31
0.0000000000
11
-14.4728869413
21
22.5330827830
31
0.0000000000
11
-14.4961786228
21
22.5364414615
31
0.0000000000
0
SPLINE
5
408
100
AcDbEntity
8
0
100
AcDbSpline
62
9
6
CONTINUOUS
70
0
71
3
72
16
73
12
74
10
42
0.0000001000
43
0.0000001000
44
0.0000000001
12
-0.1071013476
22
-0.2788209496
32
0.0000000000
13
-0.2929013579
23
0.0611246108
33
0.0000000000
40
0.0000000000
40
0.0000000000
40
0.0000000000
40
0.0000000000
40
0.1290416048
40
0.2553227214
40
0.3779246327
40
0.4962207269
40
0.6099585570
40
0.7193265840
40
0.8249876573
40
0.9280542617
40
1.0000000000
40
1.0000000000
40
1.0000000000
40
1.0000000000
10
-14.8936197556
20
22.8226162283
30
0.0000000000
10
-14.8982265989
20
22.8106230607
30
0.0000000000
10
-14.9088106089
20
22.7874244883
30
0.0000000000
10
-14.9287181545
20
22.7553745453
30
0.0000000000
10
-14.9520722842
20
22.7270959765
30
0.0000000000
10
-14.9783213040
20
22.7032862834
30
0.0000000000
10
-15.0068495907
20
22.6845358434
30
0.0000000000
10
-15.0369827905
20
22.6713294016
30
0.0000000000
10
-15.0679921327
20
22.6640311274
30
0.0000000000
10
-15.0961021343
20
22.6629813816
30
0.0000000000
10
-15.1134387894
20
22.6653297812
30
0.0000000000
10
-15.1204631242
20
22.6667956663
30
0.0000000000
11
-14.8936197556
21
22.8226162283
31
0.0000000000
11
-14.9096569545
21
22.7875685478
31
0.0000000000
11
-14.9296121745
21
22.7555616267
31
0.0000000000
11
-14.9529958661
21
22.7273806714
31
0.0000000000
11
-14.9792343716
21
22.7037170283
31
0.0000000000
11
-15.0076839975
21
22.6851512230
31
0.0000000000
11
-15.0376468066
21
22.6721387193
31
0.0000000000
11
-15.0683877392
21
22.6649987450
31
0.0000000000
11
-15.0991526470
21
22.6639064607
31
0.0000000000
11
-15.1204631242
21
22.6667956663
31
0.0000000000
0
SPLINE
5
409
100
AcDbEntity
8
0
100
AcDbSpline
62
7
6
CONTINUOUS
70
0
71
3
72
17
73
13
74
11
42
0.0000001000
43
0.0000001000
44
0.0000000001
12
-0.3181250359
22
-0.1775235416
32
0.0000000000
13
-0.3258443141
23
0.1629221571
33
0.0000000000
40
0.0000000000
40
0.0000000000
40
0.0000000000
40
0.0000000000
40
0.0909700039
40
0.1886105471
40
0.2907022515
40
0.3966963028
40
0.5038835773
40
0.6107295677
40
0.7156871758
40
0.8161327365
40
0.9115989935
40
1.0000000000
40
1.0000000000
40
1.0000000000
40
1.0000000000
10
-14.1823991475
20
21.8664805837
30
0.0000000000
10
-14.1920457594
20
21.8610974780
30
0.0000000000
10
-14.2127808962
20
21.8512253336
30
0.0000000000
10
-14.2461410934
20
21.8395150952
30
0.0000000000
10
-14.2822286240
20
21.8305777055
30
0.0000000000
10
-14.3200989153
20
21.8246497303
30
0.0000000000
10
-14.3589059050
20
21.8218636010
30
0.0000000000
10
-14.3976850171
20
21.8222846968
30
0.0000000000
10
-14.4354776401
20
21.8259022034
30
0.0000000000
10
-14.4714436615
20
21.8326321876
30
0.0000000000
10
-14.5046495352
20
21.8422940575
30
0.0000000000
10
-14.5253194521
20
21.8509118745
30
0.0000000000
10
-14.5349211072
20
21.8557127021
30
0.0000000000
11
-14.1823991475
21
21.8664805837
31
0.0000000000
11
-14.2122590908
21
21.8521035768
31
0.0000000000
11
-14.2457869197
21
21.8402218069
31
0.0000000000
11
-14.2818721977
21
21.8312142393
31
0.0000000000
11
-14.3200157945
21
21.8252042693
31
0.0000000000
11
-14.3589637477
21
21.8223988163
31
0.0000000000
11
-14.3978857724
21
21.8228404785
31
0.0000000000
11
-14.4359436640
21
21.8265327936
31
0.0000000000
11
-14.4718974279
21
21.8333417194
31
0.0000000000
11
-14.5052578114
21
21.8431729086
31
0.0000000000
11
-14.5349211072
21
21.8557127021
31
0.0000000000
0
SPLINE
5
40A
100
AcDbEntity
8
0
100
AcDbSpline
62
7
6
CONTINUOUS
70
0
71
3
72
13
73
9
74
7
42
0.0000001000
43
0.0000001000
44
0.0000000001
12
-0.1102935773
22
0.0551467886
32
0.0000000000
13
0.0000035654
23
0.1236934328
33
0.0000000000
40
0.0000000000
40
0.0000000000
40
0.0000000000
40
0.0000000000
40
0.2387871820
40
0.4551702042
40
0.6490863712
40
0.8273924715
40
0.9964896319
40
1.0000000000
40
1.0000000000
40
1.0000000000
40
1.0000000000
10
-2.5038152764
20
15.8401597867
30
0.0000000000
10
-2.5125941739
20
15.8445492354
30
0.0000000000
10
-2.5288370171
20
15.8539844010
30
0.0000000000
10
-2.5495894472
20
15.8709670616
30
0.0000000000
10
-2.5650665892
20
15.8898131906
30
0.0000000000
10
-2.5747344816
20
15.9101482758
30
0.0000000000
10
-2.5770164900
20
15.9246081947
30
0.0000000000
10
-2.5770385926
20
15.9317250343
30
0.0000000000
10
-2.5770385884
20
15.9318697708
30
0.0000000000
11
-2.5038152764
21
15.8401597867
31
0.0000000000
11
-2.5291713287
21
15.8551296673
31
0.0000000000
11
-2.5496598993
21
15.8722229551
31
0.0000000000
11
-2.5646249367
21
15.8908734300
31
0.0000000000
11
-2.5738596180
21
15.9108274013
31
0.0000000000
11
-2.5770372385
21
15.9314355617
31
0.0000000000
11
-2.5770385884
21
15.9318697708
31
0.0000000000
0
SPLINE
5
40B
100
AcDbEntity
8
0
100
AcDbSpline
62
7
6
CONTINUOUS
70
0
71
3
72
10
73
6
74
4
42
0.0000001000
43
0.0000001000
44
0.0000000001
12
0.0045255910
22
0.0023415650
32
0.0000000000
13
0.0045539871
23
0.0022858481
33
0.0000000000
40
0.0000000000
40
0.0000000000
40
0.0000000000
40
0.0000000000
40
0.3340069139
40
0.6673403889
40
1.0000000000
40
1.0000000000
40
1.0000000000
40
1.0000000000
10
-15.5736859851
20
-7.5266148785
30
0.0000000000
10
-15.5731821256
20
-7.5263541788
30
0.0000000000
10
-15.5721743632
20
-7.5258353492
30
0.0000000000
10
-15.5706610854
20
-7.5250640628
30
0.0000000000
10
-15.5696511548
20
-7.5245545266
30
0.0000000000
10
-15.5691461790
20
-7.5243010568
30
0.0000000000
11
-15.5736859851
21
-7.5266148785
31
0.0000000000
11
-15.5721728179
21
-7.5258358575
31
0.0000000000
11
-15.5706595401
21
-7.5250645790
31
0.0000000000
11
-15.5691461790
21
-7.5243010568
31
0.0000000000
0
SPLINE
5
40C
100
AcDbEntity
8
0
100
AcDbSpline
62
9
6
CONTINUOUS
70
0
71
3
72
13
73
9
74
7
42
0.0000001000
43
0.0000001000
44
0.0000000001
12
-0.1077461777
22
0.0538730888
32
0.0000000000
13
0.0000211851
23
0.1208726111
33
0.0000000000
40
0.0000000000
40
0.0000000000
40
0.0000000000
40
0.0000000000
40
0.2442354863
40
0.4631880297
40
0.6580384859
40
0.8332459522
40
0.9970779764
40
1.0000000000
40
1.0000000000
40
1.0000000000
40
1.0000000000
10
-3.2068082307
20
16.8034622099
30
0.0000000000
10
-3.2155800440
20
16.8078481166
30
0.0000000000
10
-3.2317569896
20
16.8171602583
30
0.0000000000
10
-3.2525037624
20
16.8337190923
30
0.0000000000
10
-3.2679769494
20
16.8518457122
30
0.0000000000
10
-3.2776895192
20
16.8712500994
30
0.0000000000
10
-3.2800132167
20
16.8850141803
30
0.0000000000
10
-3.2800315212
20
16.8917328279
30
0.0000000000
10
-3.2800315006
20
16.8918505588
30
0.0000000000
11
-3.2068082307
21
16.8034622099
31
0.0000000000
11
-3.2322025222
21
16.8183201351
31
0.0000000000
11
-3.2526544571
21
16.8349756186
31
0.0000000000
11
-3.2676642201
21
16.8530217436
31
0.0000000000
11
-3.2768645543
21
16.8720171214
31
0.0000000000
11
-3.2800305374
21
16.8914973689
31
0.0000000000
11
-3.2800315006
21
16.8918505588
31
0.0000000000
0
SPLINE
5
40D
100
AcDbEntity
8
0
100
AcDbSpline
62
7
6
CONTINUOUS
70
0
71
3
72
10
73
6
74
4
42
0.0000001000
43
0.0000001000
44
0.0000000001
12
0.0033898472
22
0.0017407379
32
0.0000000000
13
0.0034057171
23
0.0017094804
33
0.0000000000
40
0.0000000000
40
0.0000000000
40
0.0000000000
40
0.0000000000
40
0.3338379773
40
0.6671713868
40
1.0000000000
40
1.0000000000
40
1.0000000000
40
1.0000000000
10
-16.3989893083
20
-5.7404612463
30
0.0000000000
10
-16.3986120884
20
-5.7402675382
30
0.0000000000
10
-16.3978576278
20
-5.7398815642
30
0.0000000000
10
-16.3967250275
20
-5.7393065064
30
0.0000000000
10
-16.3959693590
20
-5.7389257435
30
0.0000000000
10
-16.3955915189
20
-5.7387360888
30
0.0000000000
11
-16.3989893083
21
-5.7404612463
31
0.0000000000
11
-16.3978567623
21
-5.7398818511
31
0.0000000000
11
-16.3967241620
21
-5.7393067967
31
0.0000000000
11
-16.3955915189
21
-5.7387360888
31
0.0000000000
0
SPLINE
5
40E
100
AcDbEntity
8
0
100
AcDbSpline
62
9
6
CONTINUOUS
70
0
71
3
72
13
73
9
74
7
42
0.0000001000
43
0.0000001000
44
0.0000000001
12
-0.1077462308
22
0.0538731154
32
0.0000000000
13
0.0000217754
23
0.1208726378
33
0.0000000000
40
0.0000000000
40
0.0000000000
40
0.0000000000
40
0.0000000000
40
0.2442126372
40
0.4631472823
40
0.6579815541
40
0.8331752334
40
0.9969917700
40
1.0000000000
40
1.0000000000
40
1.0000000000
40
1.0000000000
10
-3.2068082307
20
17.1434361440
30
0.0000000000
10
-3.2155792277
20
17.1478216425
30
0.0000000000
10
-3.2317547950
20
17.1571328772
30
0.0000000000
10
-3.2525001395
20
17.1736897912
30
0.0000000000
10
-3.2679729669
20
17.1918141059
30
0.0000000000
10
-3.2776865285
20
17.2112158307
30
0.0000000000
10
-3.2800126677
20
17.2249817901
30
0.0000000000
10
-3.2800315204
20
17.2317032874
30
0.0000000000
10
-3.2800314985
20
17.2318244917
30
0.0000000000
11
-3.2068082307
21
17.1434361440
31
0.0000000000
11
-3.2322002598
21
17.1582925142
31
0.0000000000
11
-3.2526509552
21
17.1749461260
31
0.0000000000
11
-3.2676604683
21
17.1929899380
31
0.0000000000
11
-3.2768619421
21
17.2119829298
31
0.0000000000
11
-3.2800304777
21
17.2314608819
31
0.0000000000
11
-3.2800314985
21
17.2318244917
31
0.0000000000
0
SPLINE
5
40F
100
AcDbEntity
8
0
100
AcDbSpline
62
9
6
CONTINUOUS
70
0
71
3
72
12
73
8
74
6
42
0.0000001000
43
0.0000001000
44
0.0000000001
12
-0.1051788256
22
0.0519767254
32
0.0000000000
13
-0.1046705139
23
-0.0537184034
33
0.0000000000
40
0.0000000000
40
0.0000000000
40
0.0000000000
40
0.0000000000
40
0.2551656286
40
0.4908310022
40
0.7100613736
40
0.9184212323
40
1.0000000000
40
1.0000000000
40
1.0000000000
40
1.0000000000
10
-3.0310599747
20
17.4478129590
30
0.0000000000
10
-3.0400059817
20
17.4522338503
30
0.0000000000
10
-3.0578813137
20
17.4594993597
30
0.0000000000
10
-3.0852165576
20
17.4652599173
30
0.0000000000
10
-3.1113747941
20
17.4652160051
30
0.0000000000
10
-3.1309122550
20
17.4604008335
30
0.0000000000
10
-3.1412905422
20
17.4557221640
30
0.0000000000
10
-3.1441368393
20
17.4542614036
30
0.0000000000
11
-3.0310599747
21
17.4478129590
31
0.0000000000
11
-3.0588672014
21
17.4589006116
31
0.0000000000
11
-3.0859642811
21
17.4643946814
31
0.0000000000
11
-3.1116834862
21
17.4641597511
31
0.0000000000
11
-3.1353912158
21
17.4582016723
31
0.0000000000
11
-3.1441368393
21
17.4542614036
31
0.0000000000
0
SPLINE
5
410
100
AcDbEntity
8
0
100
AcDbSpline
62
7
6
CONTINUOUS
70
0
71
3
72
12
73
8
74
6
42
0.0000001000
43
0.0000001000
44
0.0000000001
12
-0.1029117008
22
0.0514558504
32
0.0000000000
13
-0.1036858895
23
-0.0504661476
33
0.0000000000
40
0.0000000000
40
0.0000000000
40
0.0000000000
40
0.0000000000
40
0.2365135992
40
0.4564779312
40
0.6620569350
40
0.8571721465
40
1.0000000000
40
1.0000000000
40
1.0000000000
40
1.0000000000
10
-1.4483033715
20
18.2597970563
30
0.0000000000
10
-1.4564167104
20
18.2638537258
30
0.0000000000
10
-1.4726347701
20
18.2706464878
30
0.0000000000
10
-1.4974435103
20
18.2766055793
30
0.0000000000
10
-1.5213766979
20
18.2777912301
30
0.0000000000
10
-1.5421178919
20
18.2743904118
30
0.0000000000
10
-1.5542985376
20
18.2697286146
30
0.0000000000
10
-1.5592349486
20
18.2673259574
30
0.0000000000
11
-1.4483033715
21
18.2597970563
31
0.0000000000
11
-1.4734609123
21
18.2701722027
31
0.0000000000
11
-1.4981063504
21
18.2759288622
31
0.0000000000
11
-1.5217379774
21
18.2769497820
31
0.0000000000
11
-1.5438747044
21
18.2732141219
31
0.0000000000
11
-1.5592349486
21
18.2673259574
31
0.0000000000
0
SPLINE
5
411
100
AcDbEntity
8
0
100
AcDbSpline
62
9
6
CONTINUOUS
70
0
71
3
72
12
73
8
74
6
42
0.0000001000
43
0.0000001000
44
0.0000000001
12
-0.1023063227
22
0.0517475591
32
0.0000000000
13
-0.1033354543
23
-0.0503876774
33
0.0000000000
40
0.0000000000
40
0.0000000000
40
0.0000000000
40
0.0000000000
40
0.2591427862
40
0.4984240280
40
0.7211919206
40
0.9333519805
40
1.0000000000
40
1.0000000000
40
1.0000000000
40
1.0000000000
10
-0.9138534928
20
18.5201445229
30
0.0000000000
10
-0.9226908080
20
18.5246145251
30
0.0000000000
10
-0.9403697828
20
18.5319756233
30
0.0000000000
10
-0.9674700217
20
18.5378606489
30
0.0000000000
10
-0.9934600557
20
18.5379057475
30
0.0000000000
10
-1.0122752799
20
18.5332872922
30
0.0000000000
10
-1.0220686069
20
18.5289960693
30
0.0000000000
10
-1.0243643081
20
18.5278766563
30
0.0000000000
11
-0.9138534928
21
18.5201445229
31
0.0000000000
11
-0.9413581885
21
18.5313785449
31
0.0000000000
11
-0.9682109788
21
18.5369925133
31
0.0000000000
11
-0.9937506875
21
18.5368481993
31
0.0000000000
11
-1.0173484693
21
18.5309491565
31
0.0000000000
11
-1.0243643081
21
18.5278766563
31
0.0000000000
0
SPLINE
5
412
100
AcDbEntity
8
0
100
AcDbSpline
62
7
6
CONTINUOUS
70
0
71
3
72
13
73
9
74
7
42
0.0000001000
43
0.0000001000
44
0.0000000001
12
-0.4098481622
22
0.2048837263
32
0.0000000000
13
-0.4109068760
23
-0.2010615886
33
0.0000000000
40
0.0000000000
40
0.0000000000
40
0.0000000000
40
0.0000000000
40
0.1007741613
40
0.2637740567
40
0.4330088062
40
0.6107502248
40
0.7994856200
40
1.0000000000
40
1.0000000000
40
1.0000000000
40
1.0000000000
10
-2.0617347738
20
23.9953211467
30
0.0000000000
10
-2.0755021421
20
24.0022034752
30
0.0000000000
10
-2.1126442618
20
24.0180092050
30
0.0000000000
10
-2.1771352180
20
24.0339551459
30
0.0000000000
10
-2.2551865258
20
24.0383743634
30
0.0000000000
10
-2.3367036400
20
24.0291252616
30
0.0000000000
10
-2.4204359460
20
24.0064825123
30
0.0000000000
10
-2.4753257134
20
23.9834211420
30
0.0000000000
10
-2.5027899593
20
23.9699825621
30
0.0000000000
11
-2.0617347738
21
23.9953211467
31
0.0000000000
11
-2.1041951067
21
24.0133913567
31
0.0000000000
11
-2.1765354684
21
24.0314735437
31
0.0000000000
11
-2.2538117110
21
24.0361602616
31
0.0000000000
11
-2.3346438663
21
24.0273608271
31
0.0000000000
11
-2.4180866033
21
24.0051857373
31
0.0000000000
11
-2.5027899593
21
23.9699825621
31
0.0000000000
0
SPLINE
5
413
100
AcDbEntity
8
0
100
AcDbSpline
62
7
6
CONTINUOUS
70
0
71
3
72
19
73
15
74
13
42
0.0000001000
43
0.0000001000
44
0.0000000001
12
-0.5237739020
22
0.2618893581
32
0.0000000000
13
-0.2913485939
23
0.5078115893
33
0.0000000000
40
0.0000000000
40
0.0000000000
40
0.0000000000
40
0.0000000000
40
0.0801238804
40
0.1616865402
40
0.2443372852
40
0.3278895955
40
0.4121395148
40
0.4968640084
40
0.5818201160
40
0.6667469989
40
0.7513577084
40
0.8353377166
40
0.9183427982
40
1.0000000000
40
1.0000000000
40
1.0000000000
40
1.0000000000
10
-18.6810590203
20
2.1321063108
30
0.0000000000
10
-18.6950479528
20
2.1391008413
30
0.0000000000
10
-18.7227349237
20
2.1542905296
30
0.0000000000
10
-18.7629273726
20
2.1800064223
30
0.0000000000
10
-18.8020179504
20
2.2085098755
30
0.0000000000
10
-18.8398685513
20
2.2394691946
30
0.0000000000
10
-18.8763791667
20
2.2725987679
30
0.0000000000
10
-18.9114538012
20
2.3076305207
30
0.0000000000
10
-18.9449987110
20
2.3443065563
30
0.0000000000
10
-18.9769211550
20
2.3823723801
30
0.0000000000
10
-19.0071291592
20
2.4215708710
30
0.0000000000
10
-19.0355320275
20
2.4616367557
30
0.0000000000
10
-19.0620418198
20
2.5022914780
30
0.0000000000
10
-19.0785620099
20
2.5298643016
30
0.0000000000
10
-19.0864922468
20
2.5436864594
30
0.0000000000
11
-18.6810590203
21
2.1321063108
31
0.0000000000
11
-18.7222208234
21
2.1546041232
31
0.0000000000
11
-18.7624760139
21
2.1802886877
31
0.0000000000
11
-18.8016026414
21
2.2087584501
31
0.0000000000
11
-18.8394907355
21
2.2396982679
31
0.0000000000
11
-18.8760394287
21
2.2728207108
31
0.0000000000
11
-18.9111521003
21
2.3078562565
31
0.0000000000
11
-18.9447342085
21
2.3445455145
31
0.0000000000
11
-18.9766936613
21
2.3826342439
31
0.0000000000
11
-19.0069382939
21
2.4218649367
31
0.0000000000
11
-19.0353771604
21
2.4619719246
31
0.0000000000
11
-19.0619223202
21
2.5026768868
31
0.0000000000
11
-19.0864922468
21
2.5436864594
31
0.0000000000
0
SPLINE
5
414
100
AcDbEntity
8
0
100
AcDbSpline
62
9
6
CONTINUOUS
70
0
71
3
72
12
73
8
74
6
42
0.0000001000
43
0.0000001000
44
0.0000000001
12
0.0398505226
22
-0.0648748332
32
0.0000000000
13
-0.0493056869
23
-0.0592883479
33
0.0000000000
40
0.0000000000
40
0.0000000000
40
0.0000000000
40
0.0000000000
40
0.3174765695
40
0.5778483146
40
0.7826335121
40
0.9436603428
40
1.0000000000
40
1.0000000000
40
1.0000000000
40
1.0000000000
10
0.6002463714
20
17.1990603870
30
0.0000000000
10
0.6044635738
20
17.1921949739
30
0.0000000000
10
0.6116088593
20
17.1793505677
30
0.0000000000
10
0.6188809898
20
17.1607698554
30
0.0000000000
10
0.6216070299
20
17.1449686276
30
0.0000000000
10
0.6196324777
20
17.1340082897
30
0.0000000000
10
0.6164984302
20
17.1293673188
30
0.0000000000
10
0.6155724751
20
17.1282538904
30
0.0000000000
11
0.6002463714
21
17.1990603870
31
0.0000000000
11
0.6117788904
21
17.1778172881
31
0.0000000000
11
0.6186777470
21
17.1592325801
31
0.0000000000
11
0.6207622337
21
17.1437808641
31
0.0000000000
11
0.6179808259
21
17.1318404739
31
0.0000000000
11
0.6155724751
21
17.1282538904
31
0.0000000000
0
SPLINE
5
415
100
AcDbEntity
8
0
100
AcDbSpline
62
7
6
CONTINUOUS
70
0
71
3
72
14
73
10
74
8
42
0.0000001000
43
0.0000001000
44
0.0000000001
12
-0.5575549069
22
0.2783874290
32
0.0000000000
13
-0.5613902463
23
-0.2698899959
33
0.0000000000
40
0.0000000000
40
0.0000000000
40
0.0000000000
40
0.0000000000
40
0.1238265934
40
0.3054769581
40
0.4682472532
40
0.6158055794
40
0.7510618594
40
0.8780877179
40
1.0000000000
40
1.0000000000
40
1.0000000000
40
1.0000000000
10
5.4065664000
20
20.2611771940
30
0.0000000000
10
5.3835530250
20
20.2726677830
30
0.0000000000
10
5.3258960063
20
20.2992374170
30
0.0000000000
10
5.2342190399
20
20.3322266517
30
0.0000000000
10
5.1344277835
20
20.3552461722
30
0.0000000000
10
5.0420621887
20
20.3642184682
30
0.0000000000
10
4.9567402411
20
20.3603731209
30
0.0000000000
10
4.8782242214
20
20.3445768393
30
0.0000000000
10
4.8296301271
20
20.3261468817
30
0.0000000000
10
4.8068166718
20
20.3151792465
30
0.0000000000
11
5.4065664000
21
20.2611771940
31
0.0000000000
11
5.3364563827
21
20.2933785993
31
0.0000000000
11
5.2298472451
21
20.3312897975
31
0.0000000000
11
5.1309619622
21
20.3536823916
31
0.0000000000
11
5.0394433660
21
20.3621935951
31
0.0000000000
11
4.9552931105
21
20.3580825268
31
0.0000000000
11
4.8777729017
21
20.3422328659
31
0.0000000000
11
4.8068166718
21
20.3151792465
31
0.0000000000
0
SPLINE
5
416
100
AcDbEntity
8
0
100
AcDbSpline
62
7
6
CONTINUOUS
70
0
71
3
72
15
73
11
74
9
42
0.0000001000
43
0.0000001000
44
0.0000000001
12
-0.0296530563
22
0.1408179220
32
0.0000000000
13
-0.1370097288
23
-0.0679578355
33
0.0000000000
40
0.0000000000
40
0.0000000000
40
0.0000000000
40
0.0000000000
40
0.0016125503
40
0.0406221323
40
0.1108236727
40
0.2212611171
40
0.3685290421
40
0.5483905742
40
0.7598644468
40
1.0000000000
40
1.0000000000
40
1.0000000000
40
1.0000000000
10
5.8287314333
20
-17.7251258797
30
0.0000000000
10
5.8287154942
20
-17.7250501877
30
0.0000000000
10
5.8282634308
20
-17.7231488266
30
0.0000000000
10
5.8234505732
20
-17.7183591549
30
0.0000000000
10
5.8115988923
20
-17.7212102091
30
0.0000000000
10
5.7957442780
20
-17.7247397716
30
0.0000000000
10
5.7746313160
20
-17.7326967154
30
0.0000000000
10
5.7493356133
20
-17.7431526100
30
0.0000000000
10
5.7200295300
20
-17.7565644500
30
0.0000000000
10
5.6993190994
20
-17.7666044125
30
0.0000000000
10
5.6883521304
20
-17.7720441100
30
0.0000000000
11
5.8287314333
21
-17.7251258797
31
0.0000000000
11
5.8286775361
21
-17.7248994632
31
0.0000000000
11
5.8246584629
21
-17.7204903111
31
0.0000000000
11
5.8139228786
21
-17.7206274822
31
0.0000000000
11
5.7975298065
21
-17.7246945265
31
0.0000000000
11
5.7762892066
21
-17.7321854599
31
0.0000000000
11
5.7508662718
21
-17.7426898741
31
0.0000000000
11
5.7214141680
21
-17.7560539841
31
0.0000000000
11
5.6883521304
21
-17.7720441100
31
0.0000000000
0
SPLINE
5
417
100
AcDbEntity
8
0
100
AcDbSpline
62
9
6
CONTINUOUS
70
0
71
3
72
17
73
13
74
11
42
0.0000001000
43
0.0000001000
44
0.0000000001
12
0.0017352841
22
0.3683326084
32
0.0000000000
13
-0.3302053811
23
0.1632063967
33
0.0000000000
40
0.0000000000
40
0.0000000000
40
0.0000000000
40
0.0000000000
40
0.0952638912
40
0.1953992108
40
0.2991546379
40
0.4050663005
40
0.5115515346
40
0.6169969640
40
0.7198451571
40
0.8186838905
40
0.9123424471
40
1.0000000000
40
1.0000000000
40
1.0000000000
40
1.0000000000
10
0.6002463714
20
17.5465919038
30
0.0000000000
10
0.6003014747
20
17.5582881696
30
0.0000000000
10
0.5988284703
20
17.5823044906
30
0.0000000000
10
0.5924005653
20
17.6185362931
30
0.0000000000
10
0.5818512448
20
17.6551511835
30
0.0000000000
10
0.5674368167
20
17.6912585810
30
0.0000000000
10
0.5495063943
20
17.7259883315
30
0.0000000000
10
0.5284933885
20
17.7584997191
30
0.0000000000
10
0.5049054715
20
17.7880065635
30
0.0000000000
10
0.4793051503
20
17.8137983306
30
0.0000000000
10
0.4523106325
20
17.8352482561
30
0.0000000000
10
0.4331209996
20
17.8467126848
30
0.0000000000
10
0.4234726677
20
17.8514814426
30
0.0000000000
11
0.6002463714
21
17.5465919038
31
0.0000000000
11
0.5982173646
21
17.5816223787
31
0.0000000000
11
0.5918604260
21
17.6179539469
31
0.0000000000
11
0.5813320778
21
17.6546920431
31
0.0000000000
11
0.5668915516
21
17.6909320924
31
0.0000000000
11
0.5488944059
21
17.7257817828
31
0.0000000000
11
0.5277837711
21
17.7583830363
31
0.0000000000
11
0.5040794387
21
17.7879331362
31
0.0000000000
11
0.4783650629
21
17.8137044924
31
0.0000000000
11
0.4512737898
21
17.8350625558
31
0.0000000000
11
0.4234726677
21
17.8514814426
31
0.0000000000
0
SPLINE
5
418
100
AcDbEntity
8
0
100
AcDbSpline
62
9
6
CONTINUOUS
70
0
71
3
72
17
73
13
74
11
42
0.0000001000
43
0.0000001000
44
0.0000000001
12
-0.0017609283
22
0.3677011356
32
0.0000000000
13
-0.3281085610
23
0.1659879460
33
0.0000000000
40
0.0000000000
40
0.0000000000
40
0.0000000000
40
0.0000000000
40
0.0950752777
40
0.1951772889
40
0.2990147184
40
0.4050813897
40
0.5117509338
40
0.6173654056
40
0.7203223727
40
0.8191647087
40
0.9126778229
40
1.0000000000
40
1.0000000000
40
1.0000000000
40
1.0000000000
10
-1.5293015912
20
16.4804310803
30
0.0000000000
10
-1.5293573981
20
16.4920841761
30
0.0000000000
10
-1.5310362675
20
16.5160164019
30
0.0000000000
10
-1.5377016160
20
16.5521212363
30
0.0000000000
10
-1.5484234388
20
16.5886413401
30
0.0000000000
10
-1.5629415014
20
16.6246884031
30
0.0000000000
10
-1.5809042832
20
16.6593934007
30
0.0000000000
10
-1.6018774222
20
16.6919159995
30
0.0000000000
10
-1.6253538865
20
16.7214696608
30
0.0000000000
10
-1.6507733507
20
16.7473429648
30
0.0000000000
10
-1.6775217428
20
16.7689078424
30
0.0000000000
10
-1.6965249102
20
16.7804891428
30
0.0000000000
10
-1.7060752949
20
16.7853206191
30
0.0000000000
11
-1.5293015912
21
16.4804310803
31
0.0000000000
11
-1.5316270244
21
16.5153133419
31
0.0000000000
11
-1.5382224457
21
16.5515256687
31
0.0000000000
11
-1.5489254611
21
16.5881764314
31
0.0000000000
11
-1.5634725379
21
16.6243632054
31
0.0000000000
11
-1.5815054944
21
16.6591949904
31
0.0000000000
11
-1.6025803185
21
16.6918141493
31
0.0000000000
11
-1.6261781002
21
16.7214175246
31
0.0000000000
11
-1.6517178089
21
16.7472762143
31
0.0000000000
11
-1.6785705992
21
16.7687535190
31
0.0000000000
11
-1.7060752949
21
16.7853206191
31
0.0000000000
0
SPLINE
5
419
100
AcDbEntity
8
0
100
AcDbSpline
62
7
6
CONTINUOUS
70
0
71
3
72
18
73
14
74
12
42
0.0000001000
43
0.0000001000
44
0.0000000001
12
0.0000000000
22
0.3680541714
32
0.0000000000
13
-0.3291976587
23
0.1645988293
33
0.0000000000
40
0.0000000000
40
0.0000000000
40
0.0000000000
40
0.0000000000
40
0.0862976154
40
0.1767716919
40
0.2704937047
40
0.3663768358
40
0.4632356557
40
0.5598417779
40
0.6549778366
40
0.7474918948
40
0.8363544548
40
0.9207205835
40
1.0000000000
40
1.0000000000
40
1.0000000000
40
1.0000000000
10
0.0719791996
20
17.2831530838
30
0.0000000000
10
0.0719791996
20
17.2937404829
30
0.0000000000
10
0.0706850027
20
17.3154416432
30
0.0000000000
10
0.0652655896
20
17.3482334052
30
0.0000000000
10
0.0564280046
20
17.3814912580
30
0.0000000000
10
0.0443503231
20
17.4145445402
30
0.0000000000
10
0.0292750578
20
17.4467328091
30
0.0000000000
10
0.0115048125
20
17.4774097558
30
0.0000000000
10
-0.0086043683
20
17.5059601399
30
0.0000000000
10
-0.0306498882
20
17.5318114747
30
0.0000000000
10
-0.0541957340
20
17.5544477219
30
0.0000000000
10
-0.0787702129
20
17.5734125062
30
0.0000000000
10
-0.0960949713
20
17.5836928562
30
0.0000000000
10
-0.1047945040
20
17.5880426226
30
0.0000000000
11
0.0719791996
21
17.2831530838
31
0.0000000000
11
0.0701799482
21
17.3148642785
31
0.0000000000
11
0.0648187830
21
17.3477292351
31
0.0000000000
11
0.0560047893
21
17.3810789458
31
0.0000000000
11
0.0439173546
21
17.4142345061
31
0.0000000000
11
0.0288025234
21
17.4465209421
31
0.0000000000
11
0.0109679894
21
17.4772809630
31
0.0000000000
11
-0.0092231712
21
17.5058883553
31
0.0000000000
11
-0.0313598982
21
17.5317607425
31
0.0000000000
11
-0.0549915251
21
17.5543714496
31
0.0000000000
11
-0.0796369633
21
17.5732602282
31
0.0000000000
11
-0.1047945040
21
17.5880426226
31
0.0000000000
0
SPLINE
5
41A
100
AcDbEntity
8
0
100
AcDbSpline
62
9
6
CONTINUOUS
70
0
71
3
72
17
73
13
74
11
42
0.0000001000
43
0.0000001000
44
0.0000000001
12
0.3245266519
22
-0.1622633259
32
0.0000000000
13
0.3252757425
23
0.1607564183
33
0.0000000000
40
0.0000000000
40
0.0000000000
40
0.0000000000
40
0.0000000000
40
0.0890743650
40
0.1851250120
40
0.2867396756
40
0.3922235448
40
0.4997027408
40
0.6072145441
40
0.7127988709
40
0.8145684647
40
0.9108304184
40
1.0000000000
40
1.0000000000
40
1.0000000000
40
1.0000000000
10
-1.8818235508
20
16.4809438041
30
0.0000000000
10
-1.8721878824
20
16.4761259699
30
0.0000000000
10
-1.8515026876
20
16.4674047915
30
0.0000000000
10
-1.8182697861
20
16.4573206198
30
0.0000000000
10
-1.7823114473
20
16.4499207020
30
0.0000000000
10
-1.7444947849
20
16.4453865156
30
0.0000000000
10
-1.7057271291
20
16.4438273199
30
0.0000000000
10
-1.6669432738
20
16.4452814303
30
0.0000000000
10
-1.6290794730
20
16.4497128615
30
0.0000000000
10
-1.5930437391
20
16.4570145543
30
0.0000000000
10
-1.5597235346
20
16.4670015098
30
0.0000000000
10
-1.5389698251
20
16.4756528861
30
0.0000000000
10
-1.5293015912
20
16.4804310803
30
0.0000000000
11
-1.8818235508
21
16.4809438041
31
0.0000000000
11
-1.8521037770
21
16.4682452314
31
0.0000000000
11
-1.8187878497
21
16.4580184214
31
0.0000000000
11
-1.7826907205
21
16.4505135608
31
0.0000000000
11
-1.7446951853
21
16.4459141527
31
0.0000000000
11
-1.7057303953
21
16.4443326190
31
0.0000000000
11
-1.6667495846
21
16.4458075398
31
0.0000000000
11
-1.6287048891
21
16.4503028443
31
0.0000000000
11
-1.5925297699
21
16.4577078875
31
0.0000000000
11
-1.5591053752
21
16.4678419006
31
0.0000000000
11
-1.5293015912
21
16.4804310803
31
0.0000000000
0
SPLINE
5
41B
100
AcDbEntity
8
0
100
AcDbSpline
62
9
6
CONTINUOUS
70
0
71
3
72
17
73
13
74
11
42
0.0000001000
43
0.0000001000
44
0.0000000001
12
0.3245266433
22
-0.1622633217
32
0.0000000000
13
0.3252757340
23
0.1607564141
33
0.0000000000
40
0.0000000000
40
0.0000000000
40
0.0000000000
40
0.0000000000
40
0.0890628786
40
0.1850997776
40
0.2867012896
40
0.3921723352
40
0.4996398690
40
0.6071422920
40
0.7127180571
40
0.8144820594
40
0.9107406962
40
1.0000000000
40
1.0000000000
40
1.0000000000
40
1.0000000000
10
-1.8818235508
20
16.1409698700
30
0.0000000000
10
-1.8721891252
20
16.1361526571
30
0.0000000000
10
-1.8515068340
20
16.1274325042
30
0.0000000000
10
-1.8182785860
20
16.1173490464
30
0.0000000000
10
-1.7823251722
20
16.1099491063
30
0.0000000000
10
-1.7445131992
20
16.1054141551
30
0.0000000000
10
-1.7057497135
20
16.1038535153
30
0.0000000000
10
-1.6669693768
20
16.1053055905
30
0.0000000000
10
-1.6291081620
20
16.1097344755
30
0.0000000000
10
-1.5930739899
20
16.1170331833
30
0.0000000000
10
-1.5597435802
20
16.1270200000
30
0.0000000000
10
-1.5389795530
20
16.1356741443
30
0.0000000000
10
-1.5293015912
20
16.1404571461
30
0.0000000000
11
-1.8818235508
21
16.1409698700
31
0.0000000000
11
-1.8521077004
21
16.1282727242
31
0.0000000000
11
-1.8187967334
21
16.1180467567
31
0.0000000000
11
-1.7827044833
21
16.1105418753
31
0.0000000000
11
-1.7447137277
21
16.1059417081
31
0.0000000000
11
-1.7057532329
21
16.1043587166
31
0.0000000000
11
-1.6667757514
21
16.1058315782
31
0.0000000000
11
-1.6287338755
21
16.1103242634
31
0.0000000000
11
-1.5925602095
21
16.1177262840
31
0.0000000000
11
-1.5591360553
21
16.1278569389
31
0.0000000000
11
-1.5293015912
21
16.1404571461
31
0.0000000000
0
SPLINE
5
41C
100
AcDbEntity
8
0
100
AcDbSpline
62
9
6
CONTINUOUS
70
0
71
3
72
13
73
9
74
7
42
0.0000001000
43
0.0000001000
44
0.0000000001
12
0.0000000000
22
-0.1576933306
32
0.0000000000
13
0.1414123212
23
-0.0707561396
33
0.0000000000
40
0.0000000000
40
0.0000000000
40
0.0000000000
40
0.0000000000
40
0.1988100076
40
0.3840579127
40
0.5557910586
40
0.7154061696
40
0.8658306840
40
1.0000000000
40
1.0000000000
40
1.0000000000
40
1.0000000000
10
-1.8818235508
20
16.1409698700
30
0.0000000000
10
-1.8818235508
20
16.1305195326
30
0.0000000000
10
-1.8806352474
20
16.1103009379
30
0.0000000000
10
-1.8748914422
20
16.0815501757
30
0.0000000000
10
-1.8653302693
20
16.0559880083
30
0.0000000000
10
-1.8520963080
20
16.0341958518
30
0.0000000000
10
-1.8358250992
20
16.0171611123
30
0.0000000000
10
-1.8231852308
20
16.0089212414
30
0.0000000000
10
-1.8168608327
20
16.0057568071
30
0.0000000000
11
-1.8818235508
21
16.1409698700
31
0.0000000000
11
-1.8798481381
21
16.1096811545
31
0.0000000000
11
-1.8739660461
21
16.0810671209
31
0.0000000000
11
-1.8643083729
21
16.0557665436
31
0.0000000000
11
-1.8510911142
21
16.0343458766
31
0.0000000000
11
-1.8346107791
21
16.0172847606
31
0.0000000000
11
-1.8168608327
21
16.0057568071
31
0.0000000000
0
SPLINE
5
41D
100
AcDbEntity
8
0
100
AcDbSpline
62
9
6
CONTINUOUS
70
0
71
3
72
13
73
9
74
7
42
0.0000001000
43
0.0000001000
44
0.0000000001
12
0.0000000000
22
-0.1577064518
32
0.0000000000
13
0.1414342224
23
-0.0707420511
33
0.0000000000
40
0.0000000000
40
0.0000000000
40
0.0000000000
40
0.0000000000
40
0.1987934667
40
0.3840259591
40
0.5557448168
40
0.7153466478
40
0.8657586469
40
1.0000000000
40
1.0000000000
40
1.0000000000
40
1.0000000000
10
-3.2068082307
20
16.8034622099
30
0.0000000000
10
-3.2068082307
20
16.7930118725
30
0.0000000000
10
-3.2056199272
20
16.7727932778
30
0.0000000000
10
-3.1998761220
20
16.7440425156
30
0.0000000000
10
-3.1903149491
20
16.7184803482
30
0.0000000000
10
-3.1770809879
20
16.6966881917
30
0.0000000000
10
-3.1608067311
20
16.6796502613
30
0.0000000000
10
-3.1481625194
20
16.6714087634
30
0.0000000000
10
-3.1418337456
20
16.6682432605
30
0.0000000000
11
-3.2068082307
21
16.8034622099
31
0.0000000000
11
-3.2048328180
21
16.7721734944
31
0.0000000000
11
-3.1989507260
21
16.7435594608
31
0.0000000000
11
-3.1892930528
21
16.7182588835
31
0.0000000000
11
-3.1760757940
21
16.6968382165
31
0.0000000000
11
-3.1595954589
21
16.6797771005
31
0.0000000000
11
-3.1418337456
21
16.6682432605
31
0.0000000000
0
SPLINE
5
41E
100
AcDbEntity
8
0
100
AcDbSpline
62
7
6
CONTINUOUS
70
0
71
3
72
17
73
13
74
11
42
0.0000001000
43
0.0000001000
44
0.0000000001
12
-0.2293550453
22
-0.2745954237
32
0.0000000000
13
-0.3507160826
23
0.0730796552
33
0.0000000000
40
0.0000000000
40
0.0000000000
40
0.0000000000
40
0.0000000000
40
0.1021387792
40
0.2069864708
40
0.3136189946
40
0.4210326509
40
0.5281801696
40
0.6340088688
40
0.7375134601
40
0.8378124364
40
0.9342621822
40
1.0000000000
40
1.0000000000
40
1.0000000000
40
1.0000000000
10
-0.8180809831
20
15.9919536233
30
0.0000000000
10
-0.8258896645
20
15.9826046761
30
0.0000000000
10
-0.8425845332
20
15.9643692416
30
0.0000000000
10
-0.8701958921
20
15.9390723040
30
0.0000000000
10
-0.9004243637
20
15.9159106603
30
0.0000000000
10
-0.9328432086
20
15.8954063941
30
0.0000000000
10
-0.9669604099
20
15.8780699156
30
0.0000000000
10
-1.0022142872
20
15.8643983317
30
0.0000000000
10
-1.0379747601
20
15.8548676114
30
0.0000000000
10
-1.0735412758
20
15.8499222548
30
0.0000000000
10
-1.1049648884
20
15.8499696548
30
0.0000000000
10
-1.1241753550
20
15.8526810136
30
0.0000000000
10
-1.1318604583
20
15.8542823793
30
0.0000000000
11
-0.8180809831
21
15.9919536233
31
0.0000000000
11
-0.8427382163
21
15.9649827925
31
0.0000000000
11
-0.8703896562
21
15.9396336906
31
0.0000000000
11
-0.9006765257
21
15.9164345204
31
0.0000000000
11
-0.9331687354
21
15.8959124657
31
0.0000000000
11
-0.9673653552
21
15.8785867592
31
0.0000000000
11
-1.0026925325
21
15.8649623190
31
0.0000000000
11
-1.0385006711
21
15.8555211722
31
0.0000000000
11
-1.0740616666
21
15.8507102416
31
0.0000000000
11
-1.1085687769
21
15.8509237008
31
0.0000000000
11
-1.1318604583
21
15.8542823793
31
0.0000000000
0
SPLINE
5
41F
100
AcDbEntity
8
0
100
AcDbSpline
62
9
6
CONTINUOUS
70
0
71
3
72
16
73
12
74
10
42
0.0000001000
43
0.0000001000
44
0.0000000001
12
-0.1071013476
22
-0.2788209496
32
0.0000000000
13
-0.2929013579
23
0.0611246108
33
0.0000000000
40
0.0000000000
40
0.0000000000
40
0.0000000000
40
0.0000000000
40
0.1290416048
40
0.2553227214
40
0.3779246327
40
0.4962207269
40
0.6099585570
40
0.7193265840
40
0.8249876573
40
0.9280542617
40
1.0000000000
40
1.0000000000
40
1.0000000000
40
1.0000000000
10
-1.5293015912
20
16.1404571461
30
0.0000000000
10
-1.5339084344
20
16.1284639785
30
0.0000000000
10
-1.5444924445
20
16.1052654061
30
0.0000000000
10
-1.5643999901
20
16.0732154631
30
0.0000000000
10
-1.5877541198
20
16.0449368943
30
0.0000000000
10
-1.6140031396
20
16.0211272012
30
0.0000000000
10
-1.6425314263
20
16.0023767612
30
0.0000000000
10
-1.6726646261
20
15.9891703194
30
0.0000000000
10
-1.7036739682
20
15.9818720452
30
0.0000000000
10
-1.7317839699
20
15.9808222994
30
0.0000000000
10
-1.7491206249
20
15.9831706990
30
0.0000000000
10
-1.7561449598
20
15.9846365841
30
0.0000000000
11
-1.5293015912
21
16.1404571461
31
0.0000000000
11
-1.5453387901
21
16.1054094655
31
0.0000000000
11
-1.5652940101
21
16.0734025444
31
0.0000000000
11
-1.5886777017
21
16.0452215892
31
0.0000000000
11
-1.6149162072
21
16.0215579461
31
0.0000000000
11
-1.6433658331
21
16.0029921408
31
0.0000000000
11
-1.6733286421
21
15.9899796371
31
0.0000000000
11
-1.7040695748
21
15.9828396628
31
0.0000000000
11
-1.7348344825
21
15.9817473785
31
0.0000000000
11
-1.7561449598
21
15.9846365841
31
0.0000000000
0
SPLINE
5
420
100
AcDbEntity
8
0
100
AcDbSpline
62
7
6
CONTINUOUS
70
0
71
3
72
11
73
7
74
5
42
0.0000001000
43
0.0000001000
44
0.0000000001
12
-0.1030364129
22
-0.0575901614
32
0.0000000000
13
-0.1163063543
23
-0.0201484743
33
0.0000000000
40
0.0000000000
40
0.0000000000
40
0.0000000000
40
0.0000000000
40
0.2315549567
40
0.4767646435
40
0.7337478709
40
1.0000000000
40
1.0000000000
40
1.0000000000
40
1.0000000000
10
-0.8180809831
20
15.1834527993
30
0.0000000000
10
-0.8260338471
20
15.1790077035
30
0.0000000000
10
-0.8429450126
20
15.1707944544
30
0.0000000000
10
-0.8700524018
20
15.1607550032
30
0.0000000000
10
-0.8992138316
20
15.1526553560
30
0.0000000000
10
-0.9194056541
20
15.1485572482
30
0.0000000000
10
-0.9297279256
20
15.1467690568
30
0.0000000000
11
-0.8180809831
21
15.1834527993
31
0.0000000000
11
-0.8426263327
21
15.1714283193
31
0.0000000000
11
-0.8697377583
21
15.1612923011
31
0.0000000000
11
-0.8989430825
21
15.1530948523
31
0.0000000000
11
-0.9297279256
21
15.1467690568
31
0.0000000000
0
SPLINE
5
421
100
AcDbEntity
8
0
100
AcDbSpline
62
7
6
CONTINUOUS
70
0
71
3
72
14
73
10
74
8
42
0.0000001000
43
0.0000001000
44
0.0000000001
12
-0.2424152710
22
-0.0419951076
32
0.0000000000
13
-0.2200522714
23
0.1100261357
33
0.0000000000
40
0.0000000000
40
0.0000000000
40
0.0000000000
40
0.0000000000
40
0.1502520783
40
0.3021346675
40
0.4524318522
40
0.5999254049
40
0.7411746963
40
0.8753095783
40
1.0000000000
40
1.0000000000
40
1.0000000000
40
1.0000000000
10
-0.9297279256
20
15.1467690568
30
0.0000000000
10
-0.9418690584
20
15.1446657727
30
0.0000000000
10
-0.9664691315
20
15.1414486220
30
0.0000000000
10
-1.0035610991
20
15.1395640524
30
0.0000000000
10
-1.0404631589
20
15.1406055947
30
0.0000000000
10
-1.0762938331
20
15.1445461755
30
0.0000000000
10
-1.1103567217
20
15.1513085997
30
0.0000000000
10
-1.1418381840
20
15.1607273124
30
0.0000000000
10
-1.1614568059
20
15.1689805515
30
0.0000000000
10
-1.1706029427
20
15.1735536199
30
0.0000000000
11
-0.9297279256
21
15.1467690568
31
0.0000000000
11
-0.9663784160
21
15.1419503711
31
0.0000000000
11
-1.0036972295
21
15.1400522553
31
0.0000000000
11
-1.0406588931
21
15.1411172316
31
0.0000000000
11
-1.0767234836
21
15.1451308167
31
0.0000000000
11
-1.1107949445
21
15.1519694297
31
0.0000000000
11
-1.1423804420
21
15.1615297512
31
0.0000000000
11
-1.1706029427
21
15.1735536199
31
0.0000000000
0
SPLINE
5
422
100
AcDbEntity
8
0
100
AcDbSpline
62
9
6
CONTINUOUS
70
0
71
3
72
17
73
13
74
11
42
0.0000001000
43
0.0000001000
44
0.0000000001
12
0.0000000000
22
0.3668786628
32
0.0000000000
13
0.3272083604
23
0.1659356566
33
0.0000000000
40
0.0000000000
40
0.0000000000
40
0.0000000000
40
0.0000000000
40
0.0949365385
40
0.1949784340
40
0.2986958379
40
0.4046250491
40
0.5111655508
40
0.6166961316
40
0.7196450137
40
0.8185830339
40
0.9123176468
40
1.0000000000
40
1.0000000000
40
1.0000000000
40
1.0000000000
10
-3.2068082307
20
17.1434361440
30
0.0000000000
10
-3.2068082307
20
17.1550462075
30
0.0000000000
10
-3.2052489124
20
17.1789082523
30
0.0000000000
10
-3.1987604055
20
17.2149226149
30
0.0000000000
10
-3.1882056803
20
17.2513626866
30
0.0000000000
10
-3.1738426515
20
17.2873277443
30
0.0000000000
10
-3.1560163742
20
17.3219569872
30
0.0000000000
10
-3.1351551797
20
17.3544169079
30
0.0000000000
10
-3.1117596727
20
17.3839279231
30
0.0000000000
10
-3.0863844623
20
17.4097840829
30
0.0000000000
10
-3.0596385415
20
17.4313615094
30
0.0000000000
10
-3.0406234410
20
17.4429630827
30
0.0000000000
10
-3.0310599747
20
17.4478129590
30
0.0000000000
11
-3.2068082307
21
17.1434361440
31
0.0000000000
11
-3.2046552804
21
17.1781997307
31
0.0000000000
11
-3.1982331926
21
17.2143367531
31
0.0000000000
11
-3.1876989850
21
17.2509012513
31
0.0000000000
11
-3.1733089361
21
17.2870021137
31
0.0000000000
11
-3.1554157223
21
17.3217535255
31
0.0000000000
11
-3.1344563550
21
17.3543066312
31
0.0000000000
11
-3.1109434551
21
17.3838650042
31
0.0000000000
11
-3.0854519510
21
17.4097057873
31
0.0000000000
11
-3.0586052195
21
17.4311969973
31
0.0000000000
11
-3.0310599747
21
17.4478129590
31
0.0000000000
0
SPLINE
5
423
100
AcDbEntity
8
0
100
AcDbSpline
62
9
6
CONTINUOUS
70
0
71
3
72
17
73
13
74
11
42
0.0000001000
43
0.0000001000
44
0.0000000001
12
0.0000000000
22
0.3668786876
32
0.0000000000
13
0.3272083824
23
0.1659356678
33
0.0000000000
40
0.0000000000
40
0.0000000000
40
0.0000000000
40
0.0000000000
40
0.0951260700
40
0.1951871607
40
0.2989216269
40
0.4048562768
40
0.5113989431
40
0.6169244000
40
0.7198650762
40
0.8187836095
40
0.9124975085
40
1.0000000000
40
1.0000000000
40
1.0000000000
40
1.0000000000
10
-1.8818235508
20
16.4809438041
30
0.0000000000
10
-1.8818235508
20
16.4925770467
30
0.0000000000
10
-1.8802594751
20
16.5164647087
30
0.0000000000
10
-1.8737583182
20
16.5525048353
30
0.0000000000
10
-1.8631944857
20
16.5889476041
30
0.0000000000
10
-1.8488228537
20
16.6249124704
30
0.0000000000
10
-1.8309892318
20
16.6595382831
30
0.0000000000
10
-1.8101218720
20
16.6919926237
30
0.0000000000
10
-1.7867222857
20
16.7214953084
30
0.0000000000
10
-1.7613451593
20
16.7473412669
30
0.0000000000
10
-1.7346147603
20
16.7688951390
30
0.0000000000
10
-1.7156191444
20
16.7804806910
30
0.0000000000
10
-1.7060752949
20
16.7853206191
30
0.0000000000
11
-1.8818235508
21
16.4809438041
31
0.0000000000
11
-1.8796622366
21
16.5157765433
31
0.0000000000
11
-1.8732310830
21
16.5519191087
31
0.0000000000
11
-1.8626873790
21
16.5884873872
31
0.0000000000
11
-1.8482890194
21
16.6245870869
31
0.0000000000
11
-1.8303881582
21
16.6593354563
31
0.0000000000
11
-1.8094228320
21
16.6918824916
31
0.0000000000
11
-1.7859051798
21
16.7214332394
31
0.0000000000
11
-1.7604125769
21
16.7472628980
31
0.0000000000
11
-1.7335663666
21
16.7687426006
31
0.0000000000
11
-1.7060752949
21
16.7853206191
31
0.0000000000
0
SPLINE
5
424
100
AcDbEntity
8
0
100
AcDbSpline
62
7
6
CONTINUOUS
70
0
71
3
72
18
73
14
74
12
42
0.0000001000
43
0.0000001000
44
0.0000000001
12
0.0038511159
22
-0.5089932577
32
0.0000000000
13
0.2576528404
23
-0.4388584930
33
0.0000000000
40
0.0000000000
40
0.0000000000
40
0.0000000000
40
0.0000000000
40
0.0576143069
40
0.1485478474
40
0.2408979431
40
0.3344645537
40
0.4290151125
40
0.5242861417
40
0.6199870814
40
0.7157918278
40
0.8113372450
40
0.9062205583
40
1.0000000000
40
1.0000000000
40
1.0000000000
40
1.0000000000
10
-9.3862418006
20
-9.6246421191
30
0.0000000000
10
-9.3861678408
20
-9.6344172170
30
0.0000000000
10
-9.3853855791
20
-9.6596160599
30
0.0000000000
10
-9.3818491625
20
-9.7003552328
30
0.0000000000
10
-9.3749393097
20
-9.7468341884
30
0.0000000000
10
-9.3653244498
20
-9.7934525774
30
0.0000000000
10
-9.3531932656
20
-9.8399895806
30
0.0000000000
10
-9.3387263918
20
-9.8862314041
30
0.0000000000
10
-9.3221019086
20
-9.9319666850
30
0.0000000000
10
-9.3035006944
20
-9.9769830750
30
0.0000000000
10
-9.2831117205
20
-10.0210646692
30
0.0000000000
10
-9.2611375242
20
-10.0639903864
30
0.0000000000
10
-9.2454579447
20
-10.0919004691
30
0.0000000000
10
-9.2374037649
20
-10.1056191039
30
0.0000000000
11
-9.3862418006
21
-9.6246421191
31
0.0000000000
11
-9.3853506756
21
-9.6539523324
31
0.0000000000
11
-9.3814062319
21
-9.7000602270
31
0.0000000000
11
-9.3745420101
21
-9.7465534397
31
0.0000000000
11
-9.3649613893
21
-9.7931959320
31
0.0000000000
11
-9.3528539146
21
-9.8397647664
31
0.0000000000
11
-9.3384011200
21
-9.8860441633
31
0.0000000000
11
-9.3217812405
21
-9.9318230675
31
0.0000000000
11
-9.3031754161
21
-9.9768885777
31
0.0000000000
11
-9.2827728360
21
-10.0210242806
31
0.0000000000
11
-9.2607757966
21
-10.0640091902
31
0.0000000000
11
-9.2374037649
21
-10.1056191039
31
0.0000000000
0
SPLINE
5
425
100
AcDbEntity
8
0
100
AcDbSpline
62
7
6
CONTINUOUS
70
0
71
3
72
18
73
14
74
12
42
0.0000001000
43
0.0000001000
44
0.0000000001
12
-0.0033438745
22
0.1973322494
32
0.0000000000
13
0.1619930533
23
0.1172266540
33
0.0000000000
40
0.0000000000
40
0.0000000000
40
0.0000000000
40
0.0000000000
40
0.0197642684
40
0.0596470799
40
0.1144768376
40
0.1838613338
40
0.2670157307
40
0.3630309382
40
0.4709421031
40
0.5897289556
40
0.7183031661
40
0.8554879319
40
1.0000000000
40
1.0000000000
40
1.0000000000
40
1.0000000000
10
-9.3926615660
20
-2.5090260237
30
0.0000000000
10
-9.3926835958
20
-2.5077259812
30
0.0000000000
10
-9.3913507537
20
-2.5036130898
30
0.0000000000
10
-9.3874650712
20
-2.4972367513
30
0.0000000000
10
-9.3804757282
20
-2.4886828669
30
0.0000000000
10
-9.3709263317
20
-2.4787263370
30
0.0000000000
10
-9.3588616578
20
-2.4673482044
30
0.0000000000
10
-9.3444821030
20
-2.4547256327
30
0.0000000000
10
-9.3279461665
20
-2.4409643398
30
0.0000000000
10
-9.3094358175
20
-2.4261942710
30
0.0000000000
10
-9.2891376674
20
-2.4105418063
30
0.0000000000
10
-9.2672538722
20
-2.3941426276
30
0.0000000000
10
-9.2520973821
20
-2.3830595202
30
0.0000000000
10
-9.2442940651
20
-2.3774126315
30
0.0000000000
11
-9.3926615660
21
-2.5090260237
31
0.0000000000
11
-9.3917243606
21
-2.5050871390
31
0.0000000000
11
-9.3878271472
21
-2.4981292969
31
0.0000000000
11
-9.3810119715
21
-2.4895411140
31
0.0000000000
11
-9.3714818833
21
-2.4794580618
31
0.0000000000
11
-9.3594261164
21
-2.4680067354
31
0.0000000000
11
-9.3450259040
21
-2.4553086377
31
0.0000000000
11
-9.3284591861
21
-2.4414829936
31
0.0000000000
11
-9.3099068044
21
-2.4266508080
31
0.0000000000
11
-9.2895576430
21
-2.4109378341
31
0.0000000000
11
-9.2676136828
21
-2.3944774319
31
0.0000000000
11
-9.2442940651
21
-2.3774126315
31
0.0000000000
0
SPLINE
5
426
100
AcDbEntity
8
0
100
AcDbSpline
62
9
6
CONTINUOUS
70
0
71
3
72
13
73
9
74
7
42
0.0000001000
43
0.0000001000
44
0.0000000001
12
-0.0076215060
22
-0.2409157842
32
0.0000000000
13
0.2148670919
23
-0.1072384621
33
0.0000000000
40
0.0000000000
40
0.0000000000
40
0.0000000000
40
0.0000000000
40
0.0939915575
40
0.2396244475
40
0.3993033888
40
0.5780570175
40
0.7782167291
40
1.0000000000
40
1.0000000000
40
1.0000000000
40
1.0000000000
10
-21.4360173730
20
18.5270369585
30
0.0000000000
10
-21.4362561587
20
18.5194889419
30
0.0000000000
10
-21.4349436680
20
18.5001759182
30
0.0000000000
10
-21.4248426757
20
18.4694214846
30
0.0000000000
10
-21.4037727572
20
18.4365137508
30
0.0000000000
10
-21.3735820325
20
18.4054188045
30
0.0000000000
10
-21.3349254494
20
18.3765617560
30
0.0000000000
10
-21.3054279825
20
18.3599301894
30
0.0000000000
10
-21.2895433403
20
18.3520022905
30
0.0000000000
11
-21.4360173730
21
18.5270369585
31
0.0000000000
11
-21.4344958310
21
18.5044699271
31
0.0000000000
11
-21.4239315858
21
18.4711311682
31
0.0000000000
11
-21.4036591764
21
18.4385825849
31
0.0000000000
11
-21.3740821935
21
18.4074721662
31
0.0000000000
11
-21.3357894663
21
18.3784192695
31
0.0000000000
11
-21.2895433403
21
18.3520022905
31
0.0000000000
0
SPLINE
5
427
100
AcDbEntity
8
0
100
AcDbSpline
62
9
6
CONTINUOUS
70
0
71
3
72
13
73
9
74
7
42
0.0000001000
43
0.0000001000
44
0.0000000001
12
0.2101879257
22
0.1225972081
32
0.0000000000
13
0.2187261972
23
-0.1053806163
33
0.0000000000
40
0.0000000000
40
0.0000000000
40
0.0000000000
40
0.0000000000
40
0.0115934350
40
0.1876347380
40
0.3702861887
40
0.5646089199
40
0.7739742056
40
1.0000000000
40
1.0000000000
40
1.0000000000
40
1.0000000000
10
-20.5303209994
20
20.1125795414
30
0.0000000000
10
-20.5295087327
20
20.1130533157
30
0.0000000000
10
-20.5163012018
20
20.1206156499
30
0.0000000000
10
-20.4883198458
20
20.1321233622
30
0.0000000000
10
-20.4437573356
20
20.1392022860
30
0.0000000000
10
-20.3960676892
20
20.1367664855
30
0.0000000000
10
-20.3462396173
20
20.1250381345
30
0.0000000000
10
-20.3134567789
20
20.1117459381
30
0.0000000000
10
-20.2969775248
20
20.1038063589
30
0.0000000000
11
-20.5303209994
21
20.1125795414
31
0.0000000000
11
-20.5278729100
21
20.1139812188
31
0.0000000000
11
-20.4883861420
21
20.1303388004
31
0.0000000000
11
-20.4446311272
21
20.1375524134
31
0.0000000000
11
-20.3974975578
21
20.1354753798
31
0.0000000000
11
-20.3479438235
21
20.1241499330
31
0.0000000000
11
-20.2969775248
21
20.1038063589
31
0.0000000000
0
SPLINE
5
428
100
AcDbEntity
8
0
100
AcDbSpline
62
9
6
CONTINUOUS
70
0
71
3
72
14
73
10
74
8
42
0.0000001000
43
0.0000001000
44
0.0000000001
12
0.0000000000
22
0.2525393650
32
0.0000000000
13
0.1611079861
23
0.1944745425
33
0.0000000000
40
0.0000000000
40
0.0000000000
40
0.0000000000
40
0.0000000000
40
0.1317222825
40
0.2702766791
40
0.4138725525
40
0.5606727360
40
0.7086638743
40
0.8557781998
40
1.0000000000
40
1.0000000000
40
1.0000000000
40
1.0000000000
10
-1.8818235508
20
-25.1586342694
30
0.0000000000
10
-1.8818235508
20
-25.1475459155
30
0.0000000000
10
-1.8804020269
20
-25.1247783968
30
0.0000000000
10
-1.8744655426
20
-25.0903891697
30
0.0000000000
10
-1.8647922460
20
-25.0555402468
30
0.0000000000
10
-1.8515988002
20
-25.0210199676
30
0.0000000000
10
-1.8351747773
20
-24.9875840263
30
0.0000000000
10
-1.8158849802
20
-24.9559729278
30
0.0000000000
10
-1.8011802978
20
-24.9362892518
30
0.0000000000
10
-1.7934352032
20
-24.9269400956
30
0.0000000000
11
-1.8818235508
21
-25.1586342694
31
0.0000000000
11
-1.8798547863
21
-25.1254275188
31
0.0000000000
11
-1.8739794348
21
-25.0909338804
31
0.0000000000
11
-1.8643288158
21
-25.0559779794
31
0.0000000000
11
-1.8511177317
21
-25.0213389606
31
0.0000000000
11
-1.8346418866
21
-24.9877929979
31
0.0000000000
11
-1.8152702290
21
-24.9560909198
31
0.0000000000
11
-1.7934352032
21
-24.9269400956
31
0.0000000000
0
SPLINE
5
429
100
AcDbEntity
8
0
100
AcDbSpline
62
7
6
CONTINUOUS
70
0
71
3
72
9
73
5
74
3
42
0.0000001000
43
0.0000001000
44
0.0000000001
12
0.0487246985
22
0.0242982675
32
0.0000000000
13
0.0518542419
23
0.0166023986
33
0.0000000000
40
0.0000000000
40
0.0000000000
40
0.0000000000
40
0.0000000000
40
0.5102396839
40
1.0000000000
40
1.0000000000
40
1.0000000000
40
1.0000000000
10
0.9270538864
20
21.7334558132
30
0.0000000000
10
0.9353409779
20
21.7375884600
30
0.0000000000
10
0.9518710811
20
21.7451249342
30
0.0000000000
10
0.9689305041
20
21.7513821145
30
0.0000000000
10
0.9773958874
20
21.7540925132
30
0.0000000000
11
0.9270538864
21
21.7334558132
31
0.0000000000
11
0.9523474127
21
21.7449462193
31
0.0000000000
11
0.9773958874
21
21.7540925132
31
0.0000000000
0
SPLINE
5
42A
100
AcDbEntity
8
0
100
AcDbSpline
62
9
6
CONTINUOUS
70
0
71
3
72
13
73
9
74
7
42
0.0000001000
43
0.0000001000
44
0.0000000001
12
-0.1077462308
22
0.0538731154
32
0.0000000000
13
0.0000217754
23
0.1208726378
33
0.0000000000
40
0.0000000000
40
0.0000000000
40
0.0000000000
40
0.0000000000
40
0.2442126372
40
0.4631472823
40
0.6579815541
40
0.8331752334
40
0.9969917700
40
1.0000000000
40
1.0000000000
40
1.0000000000
40
1.0000000000
10
-3.2068082307
20
-24.8361158636
30
0.0000000000
10
-3.2155792277
20
-24.8317303651
30
0.0000000000
10
-3.2317547950
20
-24.8224191304
30
0.0000000000
10
-3.2525001395
20
-24.8058622164
30
0.0000000000
10
-3.2679729669
20
-24.7877379018
30
0.0000000000
10
-3.2776865285
20
-24.7683361770
30
0.0000000000
10
-3.2800126677
20
-24.7545702176
30
0.0000000000
10
-3.2800315204
20
-24.7478487202
30
0.0000000000
10
-3.2800314985
20
-24.7477275160
30
0.0000000000
11
-3.2068082307
21
-24.8361158636
31
0.0000000000
11
-3.2322002598
21
-24.8212594934
31
0.0000000000
11
-3.2526509552
21
-24.8046058816
31
0.0000000000
11
-3.2676604683
21
-24.7865620697
31
0.0000000000
11
-3.2768619421
21
-24.7675690778
31
0.0000000000
11
-3.2800304777
21
-24.7480911257
31
0.0000000000
11
-3.2800314985
21
-24.7477275160
31
0.0000000000
0
SPLINE
5
42B
100
AcDbEntity
8
0
100
AcDbSpline
62
9
6
CONTINUOUS
70
0
71
3
72
13
73
9
74
7
42
0.0000001000
43
0.0000001000
44
0.0000000001
12
0.0000000000
22
-0.1576822990
32
0.0000000000
13
0.1413985279
23
-0.0707619133
33
0.0000000000
40
0.0000000000
40
0.0000000000
40
0.0000000000
40
0.0000000000
40
0.2072625031
40
0.4000615424
40
0.5781478185
40
0.7433327842
40
0.8992402980
40
1.0000000000
40
1.0000000000
40
1.0000000000
40
1.0000000000
10
-1.8818235508
20
-25.4986082035
30
0.0000000000
10
-1.8818235508
20
-25.5095020795
30
0.0000000000
10
-1.8805338335
20
-25.5305650056
30
0.0000000000
10
-1.8742732035
20
-25.5604243910
30
0.0000000000
10
-1.8638395830
20
-25.5867708546
30
0.0000000000
10
-1.8494008326
20
-25.6089222668
30
0.0000000000
10
-1.8331865579
20
-25.6243704434
30
0.0000000000
10
-1.8215979928
20
-25.6314472402
30
0.0000000000
10
-1.8168489016
20
-25.6338238900
30
0.0000000000
11
-1.8818235508
21
-25.4986082035
31
0.0000000000
11
-1.8796706006
21
-25.5312188400
31
0.0000000000
11
-1.8732485128
21
-25.5609337745
31
0.0000000000
11
-1.8627143052
21
-25.5869640652
31
0.0000000000
11
-1.8483242563
21
-25.6086748787
31
0.0000000000
11
-1.8304310425
21
-25.6255330766
31
0.0000000000
11
-1.8168489016
21
-25.6338238900
31
0.0000000000
0
SPLINE
5
42C
100
AcDbEntity
8
0
100
AcDbSpline
62
9
6
CONTINUOUS
70
0
71
3
72
13
73
9
74
7
42
0.0000001000
43
0.0000001000
44
0.0000000001
12
0.0000000000
22
-0.1576822990
32
0.0000000000
13
0.1413985279
23
-0.0707619133
33
0.0000000000
40
0.0000000000
40
0.0000000000
40
0.0000000000
40
0.0000000000
40
0.2072625031
40
0.4000615424
40
0.5781478185
40
0.7433327842
40
0.8992402980
40
1.0000000000
40
1.0000000000
40
1.0000000000
40
1.0000000000
10
-3.2068082307
20
-24.8361158636
30
0.0000000000
10
-3.2068082307
20
-24.8470097396
30
0.0000000000
10
-3.2055185133
20
-24.8680726657
30
0.0000000000
10
-3.1992578833
20
-24.8979320511
30
0.0000000000
10
-3.1888242628
20
-24.9242785147
30
0.0000000000
10
-3.1743855124
20
-24.9464299269
30
0.0000000000
10
-3.1581712377
20
-24.9618781035
30
0.0000000000
10
-3.1465826726
20
-24.9689549003
30
0.0000000000
10
-3.1418335815
20
-24.9713315500
30
0.0000000000
11
-3.2068082307
21
-24.8361158636
31
0.0000000000
11
-3.2046552804
21
-24.8687265001
31
0.0000000000
11
-3.1982331926
21
-24.8984414346
31
0.0000000000
11
-3.1876989850
21
-24.9244717253
31
0.0000000000
11
-3.1733089361
21
-24.9461825388
31
0.0000000000
11
-3.1554157223
21
-24.9630407367
31
0.0000000000
11
-3.1418335815
21
-24.9713315500
31
0.0000000000
0
SPLINE
5
42D
100
AcDbEntity
8
0
100
AcDbSpline
62
9
6
CONTINUOUS
70
0
71
3
72
13
73
9
74
7
42
0.0000001000
43
0.0000001000
44
0.0000000001
12
0.0080751905
22
-0.2417710549
32
0.0000000000
13
0.2156181963
23
-0.1079921319
33
0.0000000000
40
0.0000000000
40
0.0000000000
40
0.0000000000
40
0.0000000000
40
0.0675610516
40
0.2247009876
40
0.3924610559
40
0.5760093709
40
0.7782297886
40
1.0000000000
40
1.0000000000
40
1.0000000000
40
1.0000000000
10
-21.4359994635
20
-17.0855904401
30
0.0000000000
10
-21.4358176074
20
-17.0910352090
30
0.0000000000
10
-21.4341516645
20
-17.1091071720
30
0.0000000000
10
-21.4250636754
20
-17.1396920097
30
0.0000000000
10
-21.4040723461
20
-17.1751652844
30
0.0000000000
10
-21.3738626971
20
-17.2081852061
30
0.0000000000
10
-21.3351445633
20
-17.2382515352
30
0.0000000000
10
-21.3054827657
20
-17.2552545185
30
0.0000000000
10
-21.2895435347
20
-17.2632376645
30
0.0000000000
11
-21.4359994635
21
-17.0855904401
31
0.0000000000
11
-21.4344960214
21
-17.1018519368
31
0.0000000000
11
-21.4239317894
21
-17.1382439579
31
0.0000000000
11
-21.4036593869
21
-17.1732535204
31
0.0000000000
11
-21.3740824044
21
-17.2061836408
31
0.0000000000
11
-21.3357896716
21
-17.2363787339
31
0.0000000000
11
-21.2895435347
21
-17.2632376645
31
0.0000000000
0
SPLINE
5
42E
100
AcDbEntity
8
0
100
AcDbSpline
62
9
6
CONTINUOUS
70
0
71
3
72
17
73
13
74
11
42
0.0000001000
43
0.0000001000
44
0.0000000001
12
0.1279716299
22
0.3378013546
32
0.0000000000
13
-0.3232575311
23
0.1612174365
33
0.0000000000
40
0.0000000000
40
0.0000000000
40
0.0000000000
40
0.0000000000
40
0.1079910110
40
0.2163717187
40
0.3240308943
40
0.4300053495
40
0.5334387342
40
0.6336780368
40
0.7303326621
40
0.8233384017
40
0.9129992442
40
1.0000000000
40
1.0000000000
40
1.0000000000
40
1.0000000000
10
0.6002463714
20
-24.1005437523
30
0.0000000000
10
0.6048529666
20
-24.0883839157
30
0.0000000000
10
0.6125675365
20
-24.0634170966
30
0.0000000000
10
0.6194628832
20
-24.0249206028
30
0.0000000000
10
0.6215744130
20
-23.9861034427
30
0.0000000000
10
0.6188424742
20
-23.9479188898
30
0.0000000000
10
0.6113259430
20
-23.9112850162
30
0.0000000000
10
0.5991930830
20
-23.8770872886
30
0.0000000000
10
0.5827191783
20
-23.8461562240
30
0.0000000000
10
0.5622741368
20
-23.8192513707
30
0.0000000000
10
0.5383437320
20
-23.7970597301
30
0.0000000000
10
0.5202071259
20
-23.7856522926
30
0.0000000000
10
0.5108325760
20
-23.7809769463
30
0.0000000000
11
0.6002463714
21
-24.1005437523
31
0.0000000000
11
0.6117788904
21
-24.0632779219
31
0.0000000000
11
0.6186777470
21
-24.0247402854
31
0.0000000000
11
0.6207622337
21
-23.9859065583
31
0.0000000000
11
0.6179808259
21
-23.9477266756
31
0.0000000000
11
0.6104014361
21
-23.9111403661
31
0.0000000000
11
0.5982099391
21
-23.8770451325
31
0.0000000000
11
0.5817055258
21
-23.8462778711
31
0.0000000000
11
0.5612931806
21
-23.8195935469
31
0.0000000000
11
0.5374741242
21
-23.7976471994
31
0.0000000000
11
0.5108325760
21
-23.7809769463
31
0.0000000000
0
SPLINE
5
42F
100
AcDbEntity
8
0
100
AcDbSpline
62
7
6
CONTINUOUS
70
0
71
3
72
12
73
8
74
6
42
0.0000001000
43
0.0000001000
44
0.0000000001
12
-0.1050645875
22
0.0590508927
32
0.0000000000
13
-0.1158133502
23
-0.0372575489
33
0.0000000000
40
0.0000000000
40
0.0000000000
40
0.0000000000
40
0.0000000000
40
0.0910585072
40
0.2473016875
40
0.4551566144
40
0.7089557730
40
1.0000000000
40
1.0000000000
40
1.0000000000
40
1.0000000000
10
-4.4607490603
20
24.5514562435
30
0.0000000000
10
-4.4639380685
20
24.5532486056
30
0.0000000000
10
-4.4745598499
20
24.5546091222
30
0.0000000000
10
-4.4926874930
20
24.5536193013
30
0.0000000000
10
-4.5174927856
20
24.5488560812
30
0.0000000000
10
-4.5469757629
20
24.5411484711
30
0.0000000000
10
-4.5681123828
20
24.5346378633
30
0.0000000000
10
-4.5793479851
20
24.5310233318
30
0.0000000000
11
-4.4607490603
21
24.5514562435
31
0.0000000000
11
-4.4716553982
21
24.5539931434
31
0.0000000000
11
-4.4906532207
21
24.5533604935
31
0.0000000000
11
-4.5155571263
21
24.5489733716
31
0.0000000000
11
-4.5454724581
21
24.5413277506
31
0.0000000000
11
-4.5793479851
21
24.5310233318
31
0.0000000000
0
SPLINE
5
430
100
AcDbEntity
8
0
100
AcDbSpline
62
7
6
CONTINUOUS
70
0
71
3
72
12
73
8
74
6
42
0.0000001000
43
0.0000001000
44
0.0000000001
12
-0.1037200218
22
0.0573866358
32
0.0000000000
13
-0.1140915795
23
-0.0365291981
33
0.0000000000
40
0.0000000000
40
0.0000000000
40
0.0000000000
40
0.0000000000
40
0.0886652678
40
0.2450458152
40
0.4532573839
40
0.7077714598
40
1.0000000000
40
1.0000000000
40
1.0000000000
40
1.0000000000
10
1.0942392914
20
21.7739724559
30
0.0000000000
10
1.0911738369
20
21.7756685231
30
0.0000000000
10
1.0808051602
20
21.7771089521
30
0.0000000000
10
1.0630354911
20
21.7762116798
30
0.0000000000
10
1.0385399678
20
21.7716006687
30
0.0000000000
10
1.0094061625
20
21.7640499545
30
0.0000000000
10
0.9885094927
20
21.7576508046
30
0.0000000000
10
0.9773958874
20
21.7540925132
30
0.0000000000
11
1.0942392914
21
21.7739724559
31
0.0000000000
11
1.0837701492
21
21.7764588146
31
0.0000000000
11
1.0650432406
21
21.7759475046
31
0.0000000000
11
1.0404633902
21
21.7717062706
31
0.0000000000
11
1.0109053902
21
21.7642254377
31
0.0000000000
11
0.9773958874
21
21.7540925132
31
0.0000000000
0
SPLINE
5
431
100
AcDbEntity
8
0
100
AcDbSpline
62
9
6
CONTINUOUS
70
0
71
3
72
17
73
13
74
11
42
0.0000001000
43
0.0000001000
44
0.0000000001
12
0.3245266357
22
-0.1622633178
32
0.0000000000
13
0.3252757263
23
0.1607564103
33
0.0000000000
40
0.0000000000
40
0.0000000000
40
0.0000000000
40
0.0000000000
40
0.0890537733
40
0.1850803105
40
0.2866692718
40
0.3921274525
40
0.4995824897
40
0.6070742397
40
0.7126409721
40
0.8144054754
40
0.9106661329
40
1.0000000000
40
1.0000000000
40
1.0000000000
40
1.0000000000
10
-1.8818235508
20
-25.1586342694
30
0.0000000000
10
-1.8721901104
20
-25.1634509896
30
0.0000000000
10
-1.8515100610
20
-25.1721703549
30
0.0000000000
10
-1.8182856824
20
-25.1822531812
30
0.0000000000
10
-1.7823366876
20
-25.1896530521
30
0.0000000000
10
-1.7445294151
20
-25.1941885797
30
0.0000000000
10
-1.7057703558
20
-25.1957504864
30
0.0000000000
10
-1.6669938580
20
-25.1943003211
30
0.0000000000
10
-1.6291347225
20
-25.1898738055
30
0.0000000000
10
-1.5931008476
20
-25.1825776157
30
0.0000000000
10
-1.5597607739
20
-25.1725906567
30
0.0000000000
10
-1.5389876373
20
-25.1639339905
30
0.0000000000
10
-1.5293015912
20
-25.1591469933
30
0.0000000000
11
-1.8818235508
21
-25.1586342694
31
0.0000000000
11
-1.8521108105
21
-25.1713302840
31
0.0000000000
11
-1.8188035869
21
-25.1815556317
31
0.0000000000
11
-1.7827159630
21
-25.1890603882
31
0.0000000000
11
-1.7447299792
21
-25.1936611251
31
0.0000000000
11
-1.7057740750
21
-25.1952453929
31
0.0000000000
11
-1.6668003965
21
-25.1937744694
31
0.0000000000
11
-1.6287615238
21
-25.1892843065
31
0.0000000000
11
-1.5925871893
21
-25.1818846510
31
0.0000000000
11
-1.5591615527
21
-25.1717563626
31
0.0000000000
11
-1.5293015912
21
-25.1591469933
31
0.0000000000
0
SPLINE
5
432
100
AcDbEntity
8
0
100
AcDbSpline
62
9
6
CONTINUOUS
70
0
71
3
72
17
73
13
74
11
42
0.0000001000
43
0.0000001000
44
0.0000000001
12
0.3245266357
22
-0.1622633178
32
0.0000000000
13
0.3252757263
23
0.1607564103
33
0.0000000000
40
0.0000000000
40
0.0000000000
40
0.0000000000
40
0.0000000000
40
0.0890537733
40
0.1850803105
40
0.2866692718
40
0.3921274525
40
0.4995824897
40
0.6070742397
40
0.7126409721
40
0.8144054754
40
0.9106661329
40
1.0000000000
40
1.0000000000
40
1.0000000000
40
1.0000000000
10
-1.8818235508
20
-25.4986082035
30
0.0000000000
10
-1.8721901104
20
-25.5034249238
30
0.0000000000
10
-1.8515100610
20
-25.5121442891
30
0.0000000000
10
-1.8182856824
20
-25.5222271153
30
0.0000000000
10
-1.7823366876
20
-25.5296269862
30
0.0000000000
10
-1.7445294151
20
-25.5341625138
30
0.0000000000
10
-1.7057703558
20
-25.5357244206
30
0.0000000000
10
-1.6669938580
20
-25.5342742552
30
0.0000000000
10
-1.6291347225
20
-25.5298477396
30
0.0000000000
10
-1.5931008476
20
-25.5225515498
30
0.0000000000
10
-1.5597607739
20
-25.5125645908
30
0.0000000000
10
-1.5389876373
20
-25.5039079246
30
0.0000000000
10
-1.5293015912
20
-25.4991209274
30
0.0000000000
11
-1.8818235508
21
-25.4986082035
31
0.0000000000
11
-1.8521108105
21
-25.5113042181
31
0.0000000000
11
-1.8188035869
21
-25.5215295658
31
0.0000000000
11
-1.7827159630
21
-25.5290343223
31
0.0000000000
11
-1.7447299792
21
-25.5336350593
31
0.0000000000
11
-1.7057740750
21
-25.5352193270
31
0.0000000000
11
-1.6668003965
21
-25.5337484036
31
0.0000000000
11
-1.6287615238
21
-25.5292582406
31
0.0000000000
11
-1.5925871893
21
-25.5218585851
31
0.0000000000
11
-1.5591615527
21
-25.5117302967
31
0.0000000000
11
-1.5293015912
21
-25.4991209274
31
0.0000000000
0
SPLINE
5
433
100
AcDbEntity
8
0
100
AcDbSpline
62
9
6
CONTINUOUS
70
0
71
3
72
17
73
13
74
11
42
0.0000001000
43
0.0000001000
44
0.0000000001
12
-0.1868918921
22
0.3018128027
32
0.0000000000
13
-0.3165618022
23
0.1606492223
33
0.0000000000
40
0.0000000000
40
0.0000000000
40
0.0000000000
40
0.0000000000
40
0.0800941069
40
0.1704443718
40
0.2691568347
40
0.3741111937
40
0.4829686126
40
0.5932766950
40
0.7025372388
40
0.8082846853
40
0.9081609336
40
1.0000000000
40
1.0000000000
40
1.0000000000
40
1.0000000000
10
-1.5293015912
20
-25.1591469933
30
0.0000000000
10
-1.5342912376
20
-25.1510891843
30
0.0000000000
10
-1.5457648014
20
-25.1344684001
30
0.0000000000
10
-1.5656705187
20
-25.1095823731
30
0.0000000000
10
-1.5889480779
20
-25.0837018799
30
0.0000000000
10
-1.6150323182
20
-25.0574677361
30
0.0000000000
10
-1.6432935292
20
-25.0315207111
30
0.0000000000
10
-1.6730431287
20
-25.0064962392
30
0.0000000000
10
-1.7035550425
20
-24.9830053216
30
0.0000000000
10
-1.7340840771
20
-24.9616190982
30
0.0000000000
10
-1.7638823613
20
-24.9428563550
30
0.0000000000
10
-1.7837442897
20
-24.9318580538
30
0.0000000000
10
-1.7934352032
20
-24.9269400956
30
0.0000000000
11
-1.5293015912
21
-25.1591469933
31
0.0000000000
11
-1.5453243227
21
-25.1356587881
31
0.0000000000
11
-1.5652772511
21
-25.1105470442
31
0.0000000000
11
-1.5886592623
21
-25.0844465660
31
0.0000000000
11
-1.6148987548
21
-25.0579957255
31
0.0000000000
11
-1.6433502588
21
-25.0318454732
31
0.0000000000
11
-1.6733158651
21
-25.0066372942
31
0.0000000000
11
-1.7040600829
21
-24.9829899350
31
0.0000000000
11
-1.7348285124
21
-24.9614836531
31
0.0000000000
11
-1.7648657617
21
-24.9426464020
31
0.0000000000
11
-1.7934352032
21
-24.9269400956
31
0.0000000000
0
SPLINE
5
434
100
AcDbEntity
8
0
100
AcDbSpline
62
7
6
CONTINUOUS
70
0
71
3
72
18
73
14
74
12
42
0.0000001000
43
0.0000001000
44
0.0000000001
12
0.3353955161
22
-0.1676977581
32
0.0000000000
13
0.3670659709
23
-0.0766502660
33
0.0000000000
40
0.0000000000
40
0.0000000000
40
0.0000000000
40
0.0000000000
40
0.0874747542
40
0.1827740860
40
0.2825387408
40
0.3843626605
40
0.4860661331
40
0.5857057676
40
0.6815642338
40
0.7721350640
40
0.8561099964
40
0.9323726426
40
1.0000000000
40
1.0000000000
40
1.0000000000
40
1.0000000000
10
-1.1706029427
20
-24.1821377923
30
0.0000000000
10
-1.1608233960
20
-24.1870275657
30
0.0000000000
10
-1.1402504400
20
-24.1969705848
30
0.0000000000
10
-1.1079833308
20
-24.2113357028
30
0.0000000000
10
-1.0737438390
20
-24.2256521319
30
0.0000000000
10
-1.0384651613
20
-24.2395363661
30
0.0000000000
10
-1.0029412889
20
-24.2527345878
30
0.0000000000
10
-0.9678815339
20
-24.2650223596
30
0.0000000000
10
-0.9339197980
20
-24.2762170868
30
0.0000000000
10
-0.9016169076
20
-24.2861696203
30
0.0000000000
10
-0.8714650641
20
-24.2947627200
30
0.0000000000
10
-0.8438911255
20
-24.3019080212
30
0.0000000000
10
-0.8263555503
20
-24.3059226311
30
0.0000000000
10
-0.8180809831
20
-24.3076505161
30
0.0000000000
11
-1.1706029427
21
-24.1821377923
31
0.0000000000
11
-1.1410623144
21
-24.1963959846
31
0.0000000000
11
-1.1084409657
21
-24.2109866258
31
0.0000000000
11
-1.0739323939
21
-24.2254322015
31
0.0000000000
11
-1.0384075066
21
-24.2394275689
31
0.0000000000
11
-1.0026588547
21
-24.2527119506
31
0.0000000000
11
-0.9673972709
21
-24.2650663620
31
0.0000000000
11
-0.9332554466
21
-24.2763093209
31
0.0000000000
11
-0.9007933685
21
-24.2862928056
31
0.0000000000
11
-0.8705030762
21
-24.2948991554
31
0.0000000000
11
-0.8428114928
21
-24.3020390696
31
0.0000000000
11
-0.8180809831
21
-24.3076505161
31
0.0000000000
0
SPLINE
5
435
100
AcDbEntity
8
0
100
AcDbSpline
62
7
6
CONTINUOUS
70
0
71
3
72
16
73
12
74
10
42
0.0000001000
43
0.0000001000
44
0.0000000001
12
0.0000699534
22
-0.3795606888
32
0.0000000000
13
0.2340882352
23
-0.2983680849
33
0.0000000000
40
0.0000000000
40
0.0000000000
40
0.0000000000
40
0.0000000000
40
0.0597108165
40
0.1596350220
40
0.2670631249
40
0.3804958614
40
0.4987285191
40
0.6207319988
40
0.7455653644
40
0.8723118181
40
1.0000000000
40
1.0000000000
40
1.0000000000
40
1.0000000000
10
-11.0679171415
20
21.8493426901
30
0.0000000000
10
-11.0679157492
20
21.8417880639
30
0.0000000000
10
-11.0668881910
20
21.8216098007
30
0.0000000000
10
-11.0618011090
20
21.7881642214
30
0.0000000000
10
-11.0519200276
20
21.7487862909
30
0.0000000000
10
-11.0381851693
20
21.7081378719
30
0.0000000000
10
-11.0209099958
20
21.6668660045
30
0.0000000000
10
-11.0003743261
20
21.6255042908
30
0.0000000000
10
-10.9768391757
20
21.5845288577
30
0.0000000000
10
-10.9505676007
20
21.5443932850
30
0.0000000000
10
-10.9314317847
20
21.5185156189
30
0.0000000000
10
-10.9214683510
20
21.5058162595
30
0.0000000000
11
-11.0679171415
21
21.8493426901
31
0.0000000000
11
-11.0668653730
21
21.8267189542
31
0.0000000000
11
-11.0613780150
21
21.7892233848
31
0.0000000000
11
-11.0515980310
21
21.7496739373
31
0.0000000000
11
-11.0379163199
21
21.7088897349
31
0.0000000000
11
-11.0206632531
21
21.6675037794
31
0.0000000000
11
-11.0001266508
21
21.6260429653
31
0.0000000000
11
-10.9765712737
21
21.5849776871
31
0.0000000000
11
-10.9502577894
21
21.5447528992
31
0.0000000000
11
-10.9214683510
21
21.5058162595
31
0.0000000000
0
SPLINE
5
436
100
AcDbEntity
8
0
100
AcDbSpline
62
9
6
CONTINUOUS
70
0
71
3
72
12
73
8
74
6
42
0.0000001000
43
0.0000001000
44
0.0000000001
12
-0.1029861430
22
0.0515381947
32
0.0000000000
13
-0.1030131708
23
-0.0507725798
33
0.0000000000
40
0.0000000000
40
0.0000000000
40
0.0000000000
40
0.0000000000
40
0.0706737044
40
0.2820803272
40
0.5040720840
40
0.7424554046
40
1.0000000000
40
1.0000000000
40
1.0000000000
40
1.0000000000
10
0.5342462398
20
17.8580685655
30
0.0000000000
10
0.5318201023
20
17.8592826972
30
0.0000000000
10
0.5219285594
20
17.8637104968
30
0.0000000000
10
0.5030184392
20
17.8684753045
30
0.0000000000
10
0.4770807058
20
17.8686282110
30
0.0000000000
10
0.4500078324
20
17.8630004735
30
0.0000000000
10
0.4323161628
20
17.8558401771
30
0.0000000000
10
0.4234726677
20
17.8514814426
30
0.0000000000
11
0.5342462398
21
17.8580685655
31
0.0000000000
11
0.5268202049
21
17.8613908523
31
0.0000000000
11
0.5033025526
21
17.8674239479
31
0.0000000000
11
0.4778099498
21
17.8677610036
31
0.0000000000
11
0.4509637394
21
17.8623944958
31
0.0000000000
11
0.4234726677
21
17.8514814426
31
0.0000000000
0
SPLINE
5
437
100
AcDbEntity
8
0
100
AcDbSpline
62
9
6
CONTINUOUS
70
0
71
3
72
12
73
8
74
6
42
0.0000001000
43
0.0000001000
44
0.0000000001
12
-0.1029861430
22
0.0515381947
32
0.0000000000
13
-0.1030131708
23
-0.0507725798
33
0.0000000000
40
0.0000000000
40
0.0000000000
40
0.0000000000
40
0.0000000000
40
0.0706737044
40
0.2820803272
40
0.5040720840
40
0.7424554046
40
1.0000000000
40
1.0000000000
40
1.0000000000
40
1.0000000000
10
-0.8030799208
20
18.5267316458
30
0.0000000000
10
-0.8055060582
20
18.5279457775
30
0.0000000000
10
-0.8153976012
20
18.5323735771
30
0.0000000000
10
-0.8343077214
20
18.5371383847
30
0.0000000000
10
-0.8602454547
20
18.5372912913
30
0.0000000000
10
-0.8873183282
20
18.5316635538
30
0.0000000000
10
-0.9050099977
20
18.5245032574
30
0.0000000000
10
-0.9138534928
20
18.5201445229
30
0.0000000000
11
-0.8030799208
21
18.5267316458
31
0.0000000000
11
-0.8105059557
21
18.5300539326
31
0.0000000000
11
-0.8340236079
21
18.5360870282
31
0.0000000000
11
-0.8595162108
21
18.5364240838
31
0.0000000000
11
-0.8863624212
21
18.5310575761
31
0.0000000000
11
-0.9138534928
21
18.5201445229
31
0.0000000000
0
SPLINE
5
438
100
AcDbEntity
8
0
100
AcDbSpline
62
9
6
CONTINUOUS
70
0
71
3
72
15
73
11
74
9
42
0.0000001000
43
0.0000001000
44
0.0000000001
12
-0.7966349698
22
0.3983059990
32
0.0000000000
13
-0.0300473752
23
0.8890654044
33
0.0000000000
40
0.0000000000
40
0.0000000000
40
0.0000000000
40
0.0000000000
40
0.1087663053
40
0.2188773683
40
0.3329549534
40
0.4524694754
40
0.5784812100
40
0.7116323438
40
0.8521626911
40
1.0000000000
40
1.0000000000
40
1.0000000000
40
1.0000000000
10
-20.9051270677
20
-18.0193111501
30
0.0000000000
10
-20.9340094151
20
-18.0048703928
30
0.0000000000
10
-20.9895480786
20
-17.9706470523
30
0.0000000000
10
-21.0638081431
20
-17.9048868376
30
0.0000000000
10
-21.1284621125
20
-17.8255718639
30
0.0000000000
10
-21.1830237948
20
-17.7335439065
30
0.0000000000
10
-21.2269723872
20
-17.6298880704
30
0.0000000000
10
-21.2599000230
20
-17.5157685301
30
0.0000000000
10
-21.2815034322
20
-17.3924479613
30
0.0000000000
10
-21.2880628271
20
-17.3070500102
30
0.0000000000
10
-21.2895435348
20
-17.2632376646
30
0.0000000000
11
-20.9051270677
21
-18.0193111501
31
0.0000000000
11
-20.9875470139
21
-17.9686333978
31
0.0000000000
11
-21.0610347648
21
-17.9038714383
31
0.0000000000
11
-21.1254124468
21
-17.8254254468
31
0.0000000000
11
-21.1799629099
21
-17.7341701527
31
0.0000000000
11
-21.2240804754
21
-17.6311201811
31
0.0000000000
11
-21.2572754300
21
-17.5174190734
31
0.0000000000
11
-21.2791768030
21
-17.3943405172
31
0.0000000000
11
-21.2895435348
21
-17.2632376646
31
0.0000000000
0
SPLINE
5
439
100
AcDbEntity
8
0
100
AcDbSpline
62
7
6
CONTINUOUS
70
0
71
3
72
13
73
9
74
7
42
0.0000001000
43
0.0000001000
44
0.0000000001
12
-0.2206694136
22
0.1103347068
32
0.0000000000
13
-0.0000090274
23
0.2474874123
33
0.0000000000
40
0.0000000000
40
0.0000000000
40
0.0000000000
40
0.0000000000
40
0.2181056656
40
0.4173085111
40
0.5980290005
40
0.7641011752
40
0.9198313393
40
1.0000000000
40
1.0000000000
40
1.0000000000
40
1.0000000000
10
-10.9214683510
20
20.4252329487
30
0.0000000000
10
-10.9375114341
20
20.4332544903
30
0.0000000000
10
-10.9673751201
20
20.4503922208
30
0.0000000000
10
-11.0062707860
20
20.4808074373
30
0.0000000000
10
-11.0365418703
20
20.5143365792
30
0.0000000000
10
-11.0574196490
20
20.5504214298
30
0.0000000000
10
-11.0665575379
20
20.5825840675
30
0.0000000000
10
-11.0679065766
20
20.6020442433
30
0.0000000000
10
-11.0679068179
20
20.6086578214
30
0.0000000000
11
-10.9214683510
21
20.4252329487
31
0.0000000000
11
-10.9679842993
21
20.4522847020
31
0.0000000000
11
-11.0064704185
21
20.4828493564
31
0.0000000000
11
-11.0360453118
21
20.5162153913
31
0.0000000000
11
-11.0562369360
21
20.5518672650
31
0.0000000000
11
-11.0665261102
21
20.5888850237
31
0.0000000000
11
-11.0679068179
21
20.6086578214
31
0.0000000000
0
SPLINE
5
43A
100
AcDbEntity
8
0
100
AcDbSpline
62
9
6
CONTINUOUS
70
0
71
3
72
12
73
8
74
6
42
0.0000001000
43
0.0000001000
44
0.0000000001
12
-0.0000210200
22
-0.1197208695
32
0.0000000000
13
-0.1064691081
23
-0.0538575979
33
0.0000000000
40
0.0000000000
40
0.0000000000
40
0.0000000000
40
0.0000000000
40
0.1623537572
40
0.3386920285
40
0.5346196794
40
0.7547877079
40
1.0000000000
40
1.0000000000
40
1.0000000000
40
1.0000000000
10
0.6724441957
20
17.6344641866
30
0.0000000000
10
0.6724430582
20
17.6279851423
30
0.0000000000
10
0.6702836034
20
17.6144670417
30
0.0000000000
10
0.6608344882
20
17.5951259083
30
0.0000000000
10
0.6455556892
20
17.5769483309
30
0.0000000000
10
0.6250019570
20
17.5603411831
30
0.0000000000
10
0.6089488827
20
17.5509940855
30
0.0000000000
10
0.6002463714
20
17.5465919038
30
0.0000000000
11
0.6724441957
21
17.6344641866
31
0.0000000000
11
0.6694934523
21
17.6153159005
31
0.0000000000
11
0.6605028434
21
17.5962935527
31
0.0000000000
11
0.6456927568
21
17.5782059932
31
0.0000000000
11
0.6254247307
21
17.5614937958
31
0.0000000000
11
0.6002463714
21
17.5465919038
31
0.0000000000
0
SPLINE
5
43B
100
AcDbEntity
8
0
100
AcDbSpline
62
7
6
CONTINUOUS
70
0
71
3
72
17
73
13
74
11
42
0.0000001000
43
0.0000001000
44
0.0000000001
12
-0.4345868483
22
-0.0321613807
32
0.0000000000
13
-0.4202201649
23
-0.1153910576
33
0.0000000000
40
0.0000000000
40
0.0000000000
40
0.0000000000
40
0.0000000000
40
0.1190594671
40
0.2358227810
40
0.3491116527
40
0.4582120724
40
0.5626289027
40
0.6619448783
40
0.7557608845
40
0.8436671436
40
0.9252339727
40
1.0000000000
40
1.0000000000
40
1.0000000000
40
1.0000000000
10
-4.9873388715
20
18.8525522741
30
0.0000000000
10
-5.0045860977
20
18.8512759018
30
0.0000000000
10
-5.0386388385
20
18.8472117752
30
0.0000000000
10
-5.0885618552
20
18.8382156240
30
0.0000000000
10
-5.1366572158
20
18.8274975677
30
0.0000000000
10
-5.1826809972
20
18.8158471350
30
0.0000000000
10
-5.2265045830
20
18.8038212998
30
0.0000000000
10
-5.2680324339
20
18.7918382981
30
0.0000000000
10
-5.3071711604
20
18.7802322511
30
0.0000000000
10
-5.3438161415
20
18.7692859029
30
0.0000000000
10
-5.3778451985
20
18.7592508007
30
0.0000000000
10
-5.3996885206
20
18.7530384867
30
0.0000000000
10
-5.4101612513
20
18.7501627097
30
0.0000000000
11
-4.9873388715
21
18.8525522741
31
0.0000000000
11
-5.0388862755
21
18.8466591777
31
0.0000000000
11
-5.0889881916
21
18.8377803635
31
0.0000000000
11
-5.1371945453
21
18.8271316499
31
0.0000000000
11
-5.1832991677
21
18.8155245056
31
0.0000000000
11
-5.2271913361
21
18.8035272430
31
0.0000000000
11
-5.2687846348
21
18.7915644702
31
0.0000000000
11
-5.3079901487
21
18.7799747143
31
0.0000000000
11
-5.3447050971
21
18.7690445988
31
0.0000000000
11
-5.3788096006
21
18.7590288048
31
0.0000000000
11
-5.4101612513
21
18.7501627097
31
0.0000000000
0
SPLINE
5
43C
100
AcDbEntity
8
0
100
AcDbSpline
62
7
6
CONTINUOUS
70
0
71
3
72
15
73
11
74
9
42
0.0000001000
43
0.0000001000
44
0.0000000001
12
0.2920381734
22
0.0216121378
32
0.0000000000
13
0.2617849119
23
0.1312327670
33
0.0000000000
40
0.0000000000
40
0.0000000000
40
0.0000000000
40
0.0000000000
40
0.1351030000
40
0.2684611538
40
0.3994593401
40
0.5275107861
40
0.6520655063
40
0.7726194424
40
0.8887245171
40
1.0000000000
40
1.0000000000
40
1.0000000000
40
1.0000000000
10
-4.9873388715
20
18.8525522741
30
0.0000000000
10
-4.9741871271
20
18.8535255624
30
0.0000000000
10
-4.9480894541
20
18.8559909103
30
0.0000000000
10
-4.9094456576
20
18.8612736528
30
0.0000000000
10
-4.8717405287
20
18.8680893384
30
0.0000000000
10
-4.8352152380
20
18.8763943677
30
0.0000000000
10
-4.8001023089
20
18.8861357052
30
0.0000000000
10
-4.7666246252
20
18.8972515920
30
0.0000000000
10
-4.7349964510
20
18.9096707061
30
0.0000000000
10
-4.7148274129
20
18.9189744713
30
0.0000000000
10
-4.7051173320
20
18.9238421345
30
0.0000000000
11
-4.9873388715
21
18.8525522741
31
0.0000000000
11
-4.9479519154
21
18.8562817157
31
0.0000000000
11
-4.9092613278
21
18.8615836579
31
0.0000000000
11
-4.8715150552
21
18.8684241180
31
0.0000000000
11
-4.8349549884
21
18.8767592544
31
0.0000000000
11
-4.7998154149
21
18.8865356476
31
0.0000000000
11
-4.7663215130
21
18.8976906449
31
0.0000000000
11
-4.7346879149
21
18.9101527606
31
0.0000000000
11
-4.7051173320
21
18.9238421345
31
0.0000000000
0
SPLINE
5
43D
100
AcDbEntity
8
0
100
AcDbSpline
62
7
6
CONTINUOUS
70
0
71
3
72
18
73
14
74
12
42
0.0000001000
43
0.0000001000
44
0.0000000001
12
-0.6362934147
22
-0.3550712700
32
0.0000000000
13
-0.6517330228
23
0.3258665114
33
0.0000000000
40
0.0000000000
40
0.0000000000
40
0.0000000000
40
0.0000000000
40
0.0824711995
40
0.1703927471
40
0.2624911810
40
0.3579786781
40
0.4549885733
40
0.5527374323
40
0.6491673466
40
0.7435257574
40
0.8339975930
40
0.9198803357
40
1.0000000000
40
1.0000000000
40
1.0000000000
40
1.0000000000
10
-4.7051173320
20
17.6911151621
30
0.0000000000
10
-4.7226092924
20
17.6813541110
30
0.0000000000
10
-4.7599538205
20
17.6633012868
30
0.0000000000
10
-4.8198815086
20
17.6412972148
30
0.0000000000
10
-4.8845601081
20
17.6238212838
30
0.0000000000
10
-4.9526042793
20
17.6112493741
30
0.0000000000
10
-5.0227750348
20
17.6038057226
30
0.0000000000
10
-5.0935350577
20
17.6016516192
30
0.0000000000
10
-5.1636137386
20
17.6048223162
30
0.0000000000
10
-5.2314810421
20
17.6132434197
30
0.0000000000
10
-5.2959153703
20
17.6267627175
30
0.0000000000
10
-5.3555467965
20
17.6450866274
30
0.0000000000
10
-5.3927557077
20
17.6608766270
30
0.0000000000
10
-5.4101612513
20
17.6695793989
30
0.0000000000
11
-4.7051173320
21
17.6911151621
31
0.0000000000
11
-4.7591239708
21
17.6647617155
31
0.0000000000
11
-4.8192052244
21
17.6425231773
31
0.0000000000
11
-4.8839602251
21
17.6249070147
31
0.0000000000
11
-4.9523668643
21
17.6121942551
31
0.0000000000
11
-5.0226563571
21
17.6047064516
31
0.0000000000
11
-5.0938492532
21
17.6025465952
31
0.0000000000
11
-5.1640399236
21
17.6057687588
31
0.0000000000
11
-5.2322608543
21
17.6143231626
31
0.0000000000
11
-5.2967517971
21
17.6279900456
31
0.0000000000
11
-5.3565153867
21
17.6465502457
31
0.0000000000
11
-5.4101612513
21
17.6695793989
31
0.0000000000
0
SPLINE
5
43E
100
AcDbEntity
8
0
100
AcDbSpline
62
7
6
CONTINUOUS
70
0
71
3
72
13
73
9
74
7
42
0.0000001000
43
0.0000001000
44
0.0000000001
12
0.0001642299
22
-0.2033186216
32
0.0000000000
13
-0.1815612064
23
-0.0898911607
33
0.0000000000
40
0.0000000000
40
0.0000000000
40
0.0000000000
40
0.0000000000
40
0.0343386883
40
0.1926287897
40
0.3631221672
40
0.5522760236
40
0.7643520725
40
1.0000000000
40
1.0000000000
40
1.0000000000
40
1.0000000000
10
1.1009849556
20
20.6751870358
30
0.0000000000
10
1.1009868355
20
20.6728598043
30
0.0000000000
10
1.1005626252
20
20.6598070450
30
0.0000000000
10
1.0950720340
20
20.6355334397
30
0.0000000000
10
1.0780658895
20
20.6045389045
30
0.0000000000
10
1.0521475930
20
20.5755684810
30
0.0000000000
10
1.0180411236
20
20.5490732017
30
0.0000000000
10
0.9916573948
20
20.5341034345
30
0.0000000000
10
0.9773958874
20
20.5270425459
30
0.0000000000
11
1.1009849556
21
20.6751870358
31
0.0000000000
11
1.1007565158
21
20.6682117389
31
0.0000000000
11
1.0939066253
21
20.6368830010
31
0.0000000000
11
1.0776683581
21
20.6063967536
31
0.0000000000
11
1.0524538228
21
20.5775388282
31
0.0000000000
11
1.0187634164
21
20.5508742096
31
0.0000000000
11
0.9773958874
21
20.5270425459
31
0.0000000000
0
SPLINE
5
43F
100
AcDbEntity
8
0
100
AcDbSpline
62
9
6
CONTINUOUS
70
0
71
3
72
12
73
8
74
6
42
0.0000001000
43
0.0000001000
44
0.0000000001
12
-0.0000215680
22
-0.1197211386
32
0.0000000000
13
-0.1064693987
23
-0.0538577450
33
0.0000000000
40
0.0000000000
40
0.0000000000
40
0.0000000000
40
0.0000000000
40
0.1621342377
40
0.3384131525
40
0.5342805221
40
0.7543772349
40
1.0000000000
40
1.0000000000
40
1.0000000000
40
1.0000000000
10
0.6724441916
20
17.2869330192
30
0.0000000000
10
0.6724430259
20
17.2804627207
30
0.0000000000
10
0.6702885789
20
17.2669555944
30
0.0000000000
10
0.6608530065
20
17.2476229356
30
0.0000000000
10
0.6455853062
20
17.2294457980
30
0.0000000000
10
0.6250276818
20
17.2128255676
30
0.0000000000
10
0.6089634741
20
17.2034699498
30
0.0000000000
10
0.6002463714
20
17.1990603870
30
0.0000000000
11
0.6724441916
21
17.2869330192
31
0.0000000000
11
0.6695013237
21
17.2678097897
31
0.0000000000
11
0.6605209979
21
17.2487903534
31
0.0000000000
11
0.6457216869
21
17.2307031861
31
0.0000000000
11
0.6254651101
21
17.2139903678
31
0.0000000000
11
0.6002463714
21
17.1990603870
31
0.0000000000
0
SPLINE
5
440
100
AcDbEntity
8
0
100
AcDbSpline
62
7
6
CONTINUOUS
70
0
71
3
72
9
73
5
74
3
42
0.0000001000
43
0.0000001000
44
0.0000000001
12
0.0473762501
22
0.0233505524
32
0.0000000000
13
0.0502803636
23
0.0161753641
33
0.0000000000
40
0.0000000000
40
0.0000000000
40
0.0000000000
40
0.0000000000
40
0.5097876014
40
1.0000000000
40
1.0000000000
40
1.0000000000
40
1.0000000000
10
-4.6282240166
20
24.5110947647
30
0.0000000000
10
-4.6201734083
20
24.5150627054
30
0.0000000000
10
-4.6041140102
20
24.5223179804
30
0.0000000000
10
-4.5875640043
20
24.5283802104
30
0.0000000000
10
-4.5793479851
20
24.5310233318
30
0.0000000000
11
-4.6282240166
21
24.5110947647
31
0.0000000000
11
-4.6036721434
21
24.5221499513
31
0.0000000000
11
-4.5793479851
21
24.5310233318
31
0.0000000000
0
SPLINE
5
441
100
AcDbEntity
8
0
100
AcDbSpline
62
9
6
CONTINUOUS
70
0
71
3
72
8
73
4
74
2
42
0.0000001000
43
0.0000001000
44
0.0000000001
12
-4.3075684352
22
-1.2746222199
32
0.0000000000
13
-4.3075684352
23
-1.2746222199
33
0.0000000000
40
0.0000000000
40
0.0000000000
40
0.0000000000
40
0.0000000000
40
1.0000000000
40
1.0000000000
40
1.0000000000
40
1.0000000000
10
5.4402078066
20
-15.9682745531
30
0.0000000000
10
4.0043516615
20
-16.3931486264
30
0.0000000000
10
2.5684955165
20
-16.8180226997
30
0.0000000000
10
1.1326393714
20
-17.2428967730
30
0.0000000000
11
5.4402078066
21
-15.9682745531
31
0.0000000000
11
1.1326393714
21
-17.2428967730
31
0.0000000000
0
SPLINE
5
442
100
AcDbEntity
8
0
100
AcDbSpline
62
7
6
CONTINUOUS
70
0
71
3
72
13
73
9
74
7
42
0.0000001000
43
0.0000001000
44
0.0000000001
12
0.0001621197
22
-0.2053015825
32
0.0000000000
13
-0.1837351430
23
-0.0899037760
33
0.0000000000
40
0.0000000000
40
0.0000000000
40
0.0000000000
40
0.0000000000
40
0.0400211980
40
0.1970867995
40
0.3665716191
40
0.5547424593
40
0.7657022224
40
1.0000000000
40
1.0000000000
40
1.0000000000
40
1.0000000000
10
-4.4540047982
20
23.4526818803
30
0.0000000000
10
-4.4540026354
20
23.4499430752
30
0.0000000000
10
-4.4545186188
20
23.4364583312
30
0.0000000000
10
-4.4604031823
20
23.4117877215
30
0.0000000000
10
-4.4777701148
20
23.3808636349
30
0.0000000000
10
-4.5040208653
20
23.3519813896
30
0.0000000000
10
-4.5384326299
20
23.3255908330
30
0.0000000000
10
-4.5649984065
20
23.3106941531
30
0.0000000000
10
-4.5793479851
20
23.3036727347
30
0.0000000000
11
-4.4540047982
21
23.4526818803
31
0.0000000000
11
-4.4543213742
21
23.4444756452
31
0.0000000000
11
-4.4615400374
21
23.4131691129
31
0.0000000000
11
-4.4781376039
21
23.3827320262
31
0.0000000000
11
-4.5036927028
21
23.3539489675
31
0.0000000000
11
-4.5376982667
21
23.3273834377
31
0.0000000000
11
-4.5793479851
21
23.3036727347
31
0.0000000000
0
SPLINE
5
443
100
AcDbEntity
8
0
100
AcDbSpline
62
7
6
CONTINUOUS
70
0
71
3
72
21
73
17
74
15
42
0.0000001000
43
0.0000001000
44
0.0000000001
12
-1.8220730423
22
-1.0279883910
32
0.0000000000
13
-0.0691077900
23
-2.0909171234
33
0.0000000000
40
0.0000000000
40
0.0000000000
40
0.0000000000
40
0.0000000000
40
0.0628301167
40
0.1285692219
40
0.1969675825
40
0.2676917819
40
0.3403416378
40
0.4144655345
40
0.4895745455
40
0.5651557105
40
0.6406847897
40
0.7156387800
40
0.7895084579
40
0.8618112130
40
0.9321044658
40
1.0000000000
40
1.0000000000
40
1.0000000000
40
1.0000000000
10
-19.5903827156
20
19.7505089544
30
0.0000000000
10
-19.6285430696
20
19.7289794109
30
0.0000000000
10
-19.7044547995
20
19.6809785789
30
0.0000000000
10
-19.8136845446
20
19.5974437575
30
0.0000000000
10
-19.9198114741
20
19.5015827174
30
0.0000000000
10
-20.0216617491
20
19.3944607911
30
0.0000000000
10
-20.1181240832
20
19.2772553549
30
0.0000000000
10
-20.2081370805
20
19.1512588632
30
0.0000000000
10
-20.2907097930
20
19.0178607161
30
0.0000000000
10
-20.3649315661
20
18.8785329590
30
0.0000000000
10
-20.4299833591
20
18.7348134607
30
0.0000000000
10
-20.4851470598
20
18.5882880007
30
0.0000000000
10
-20.5298135233
20
18.4405737992
30
0.0000000000
10
-20.5634893432
20
18.2932945101
30
0.0000000000
10
-20.5858008055
20
18.1480843664
30
0.0000000000
10
-20.5930708805
20
18.0518692060
30
0.0000000000
10
-20.5946349173
20
18.0045478943
30
0.0000000000
11
-19.5903827156
21
19.7505089544
31
0.0000000000
11
-19.7016356323
21
19.6805061454
31
0.0000000000
11
-19.8110333971
21
19.5971595713
31
0.0000000000
11
-19.9173590209
21
19.5013964161
31
0.0000000000
11
-20.0194296904
21
19.3942819917
31
0.0000000000
11
-20.1161099263
21
19.2770078863
31
0.0000000000
11
-20.2063242150
21
19.1508787089
31
0.0000000000
11
-20.2890689727
21
19.0172975763
31
0.0000000000
11
-20.3634237101
21
18.8777505041
31
0.0000000000
11
-20.4285612722
21
18.7337898757
31
0.0000000000
11
-20.4837570401
21
18.5870171728
31
0.0000000000
11
-20.5283969915
21
18.4390651600
31
0.0000000000
11
-20.5619845318
21
18.2915797208
31
0.0000000000
11
-20.5841460185
21
18.1462015485
31
0.0000000000
11
-20.5946349173
21
18.0045478943
31
0.0000000000
0
SPLINE
5
444
100
AcDbEntity
8
0
100
AcDbSpline
62
7
6
CONTINUOUS
70
0
71
3
72
10
73
6
74
4
42
0.0000001000
43
0.0000001000
44
0.0000000001
12
0.1112636021
22
4.4493102782
32
0.0000000000
13
0.1470217362
23
4.4482722657
33
0.0000000000
40
0.0000000000
40
0.0000000000
40
0.0000000000
40
0.0000000000
40
0.3328942135
40
0.6662280562
40
1.0000000000
40
1.0000000000
40
1.0000000000
40
1.0000000000
10
-20.7238136245
20
13.5557323655
30
0.0000000000
10
-20.7114672881
20
14.0494489141
30
0.0000000000
10
-20.6854285232
20
15.0375013047
30
0.0000000000
10
-20.6423661903
20
16.5204448834
30
0.0000000000
10
-20.6109921608
20
17.5096450674
30
0.0000000000
10
-20.5946349173
20
18.0045478943
30
0.0000000000
11
-20.7238136245
21
13.5557323655
31
0.0000000000
11
-20.6847839374
21
15.0368308919
31
0.0000000000
11
-20.6417242003
21
16.5197752160
31
0.0000000000
11
-20.5946349173
21
18.0045478943
31
0.0000000000
0
SPLINE
5
445
100
AcDbEntity
8
0
100
AcDbSpline
62
9
6
CONTINUOUS
70
0
71
3
72
8
73
4
74
2
42
0.0000001000
43
0.0000001000
44
0.0000000001
12
-4.3398533472
22
-3.1064704853
32
0.0000000000
13
-4.3398533472
23
-3.1064704853
33
0.0000000000
40
0.0000000000
40
0.0000000000
40
0.0000000000
40
0.0000000000
40
1.0000000000
40
1.0000000000
40
1.0000000000
40
1.0000000000
10
5.4402078066
20
18.7204618882
30
0.0000000000
10
3.9935900242
20
17.6849717265
30
0.0000000000
10
2.5469722418
20
16.6494815647
30
0.0000000000
10
1.1003544594
20
15.6139914029
30
0.0000000000
11
5.4402078066
21
18.7204618882
31
0.0000000000
11
1.1003544594
21
15.6139914029
31
0.0000000000
0
ENDSEC
0
SECTION
2
OBJECTS
0
DICTIONARY
5
446
100
AcDbDictionary
3
ACAD_GROUP
350
447
3
ACAD_MLINESTYLE
350
448
0
DICTIONARY
5
447
102
{ACAD_REACTORS
330
446
102
}
100
AcDbDictionary
0
DICTIONARY
5
448
102
{ACAD_REACTORS
330
446
102
}
100
AcDbDictionary
3
STANDARD
350
449
0
MLINESTYLE
5
449
102
{ACAD_REACTORS
330
448
102
}
100
AcDbMlineStyle
2
STANDARD
70
0
3

62
256
51
90.0
52
90.0
71
2
49
0.5
62
256
6
BYLAYER
49
-0.5
62
256
6
BYLAYER
0
ENDSEC
0
EOF
