  0
SECTION
  2
HEADER
  9
$ACADVER
  1
AC1015
  9
$DWGCODEPAGE
  3
ANSI_1252
  9
$EXTMAX
 10
297.0
 20
210.0
 30
0.0
  9
$EXTMIN
 10
0.0
 20
0.0
 30
0.0
  9
$LIMMIN
 10
0.0
 20
0.0
  9
$LIMMAX
 10
297.0
 20
210.0
  9
$VIEWCTR
 10
148.5
 20
105.0
  9
$VIEWSIZE
 40
210.0
  9
$CLAYER
  8
0
  9
$LTSCALE
 40
16.335
  9
$CELTYPE
  6
BYLAYER
  9
$DIMSCALE
 40
1.0
  9
$DIMASZ
 40
3.0
  9
$DIMEXO
 40
0.5
  9
$DIMDLI
 40
11.286
  9
$DIMEXE
 40
1.5
  9
$DIMCEN
 40
2.673
  9
$DIMLFAC
 40
1.0
  9
$DIMBLK
  1
_FILLED
  9
$DIMTXT
 40
3.0
  9
$DIMTOL
 70
1
  9
$DIMLIM
 70
0
  9
$DIMTFAC
 40
1.0
  9
$DIMTP
 40
0.01
  9
$DIMTM
 40
0.01
  9
$DIMGAP
 40
0.625
  9
$DIMDSEP
 70
44
  9
$PDMODE
 70
3
  9
$PDSIZE
 40
3.0
  9
$HANDSEED
  5
4B4
  9
$TILEMODE
 70
1
  9
$MEASUREMENT
 70
1
  9
$INSUNITS
 70
4
  0
ENDSEC
  0
SECTION
  2
CLASSES
  0
CLASS
  1
ACDBDICTIONARYWDFLT
  2
AcDbDictionaryWithDefault
  3
AutoCAD 2000
 90
0
280
0
281
0
  0
CLASS
  1
ACDBPLACEHOLDER
  2
AcDbPlaceHolder
  3
AutoCAD 2000
 90
0
280
0
281
0
  0
CLASS
  1
LAYOUT
  2
AcDbLayout
  3
AutoCAD 2000
 90
0
280
0
281
0
  0
ENDSEC
  0
SECTION
  2
TABLES
  0
TABLE
  2
VPORT
  5
8
100
AcDbSymbolTable
 70
2
  0
VPORT
  5
1F4
100
AcDbSymbolTableRecord
100
AcDbViewportTableRecord
  2
*ACTIVE
 70
0
 10
0.0
 20
0.0
 11
1.0
 21
1.0
 12
148.5
 22
105.0
 13
0.0
 23
0.0
 14
1.0
 24
1.0
 15
0.0
 25
0.0
 16
0.0
 26
0.0
 36
1.0
 17
0.0
 27
0.0
 37
0.0
 40
210.0
 41
1.4142857143
 42
50.0
 43
0.0
 44
0.0
 50
0.0
 51
0.0
 71
0
 72
100
 73
1
 74
1
 75
0
 76
0
 77
0
 78
0
  0
ENDTAB
  0
TABLE
  2
LTYPE
  5
5
100
AcDbSymbolTable
 70
6
  0
LTYPE
  5
14
100
AcDbSymbolTableRecord
100
AcDbLinetypeTableRecord
  2
BYBLOCK
 70
0
  3

 72
65
 73
0
 40
0.0
  0
LTYPE
  5
15
100
AcDbSymbolTableRecord
100
AcDbLinetypeTableRecord
  2
BYLAYER
 70
0
  3

 72
65
 73
0
 40
0.0
  0
LTYPE
  5
16
100
AcDbSymbolTableRecord
100
AcDbLinetypeTableRecord
  2
CONTINUOUS
 70
64
  3
Solid line
 72
65
 73
0
 40
0.0
  0
LTYPE
  5
1F5
100
AcDbSymbolTableRecord
100
AcDbLinetypeTableRecord
  2
CENTER
 70
64
  3
____ _ ____ _ ____ _ ____ _ ____ _ ____ _ ____
 72
65
 73
4
 40
0.6
 49
0.375
 74
0
 49
-0.075
 74
0
 49
0.075
 74
0
 49
-0.075
 74
0
  0
LTYPE
  5
1F6
100
AcDbSymbolTableRecord
100
AcDbLinetypeTableRecord
  2
HIDDEN
 70
64
  3
- - - - - - - - - - - - - - - - - - - -
 72
65
 73
2
 40
0.2
 49
0.1
 74
0
 49
-0.1
 74
0
  0
LTYPE
  5
1F7
100
AcDbSymbolTableRecord
100
AcDbLinetypeTableRecord
  2
PHANTOM
 70
64
  3
_____ _ _ _____ _ _ _____ _ _ _____
 72
65
 73
6
 40
0.8
 49
0.45
 74
0
 49
-0.05
 74
0
 49
0.1
 74
0
 49
-0.05
 74
0
 49
0.1
 74
0
 49
-0.05
 74
0
  0
LTYPE
  5
1F8
100
AcDbSymbolTableRecord
100
AcDbLinetypeTableRecord
  2
DOT
 70
64
  3
. . . . . . . . . . . . . . . . . . . .
 72
65
 73
2
 40
0.2
 49
0.1
 74
0
 49
-0.1
 74
0
  0
LTYPE
  5
1F9
100
AcDbSymbolTableRecord
100
AcDbLinetypeTableRecord
  2
DASHED
 70
64
  3
- - - - - - - - - - - - - - - - - - - -
 72
65
 73
2
 40
0.2
 49
0.1
 74
0
 49
-0.1
 74
0
  0
ENDTAB
  0
TABLE
  2
LAYER
  5
2
100
AcDbSymbolTable
 70
36
  0
LAYER
  5
10
100
AcDbSymbolTableRecord
100
AcDbLayerTableRecord
  2
0
 70
0
 62
7
  6
CONTINUOUS
370
-3
390
F
  0
LAYER
  5
1FA
100
AcDbSymbolTableRecord
100
AcDbLayerTableRecord
  2
DEFAULT_1
 70
0
 62
7
  6
CENTER
370
-3
390
F
  0
LAYER
  5
1FB
100
AcDbSymbolTableRecord
100
AcDbLayerTableRecord
  2
DEFAULT_2
 70
0
 62
7
  6
HIDDEN
370
-3
390
F
  0
LAYER
  5
1FC
100
AcDbSymbolTableRecord
100
AcDbLayerTableRecord
  2
DEFAULT_3
 70
0
 62
7
  6
PHANTOM
370
-3
390
F
  0
LAYER
  5
1FD
100
AcDbSymbolTableRecord
100
AcDbLayerTableRecord
  2
ASSI
 70
0
 62
7
  6
CONTINUOUS
370
-3
390
F
  0
LAYER
  5
1FE
100
AcDbSymbolTableRecord
100
AcDbLayerTableRecord
  2
COORDINATE
 70
0
 62
7
  6
CONTINUOUS
370
-3
390
F
  0
LAYER
  5
1FF
100
AcDbSymbolTableRecord
100
AcDbLayerTableRecord
  2
COORD_ORIGINE
 70
0
 62
7
  6
CONTINUOUS
370
-3
390
F
  0
LAYER
  5
200
100
AcDbSymbolTableRecord
100
AcDbLayerTableRecord
  2
CURVE
 70
0
 62
7
  6
CONTINUOUS
370
-3
390
F
  0
LAYER
  5
201
100
AcDbSymbolTableRecord
100
AcDbLayerTableRecord
  2
DRAFT
 70
0
 62
7
  6
CONTINUOUS
370
-3
390
F
  0
LAYER
  5
202
100
AcDbSymbolTableRecord
100
AcDbLayerTableRecord
  2
IMPORT
 70
0
 62
7
  6
CONTINUOUS
370
-3
390
F
  0
LAYER
  5
203
100
AcDbSymbolTableRecord
100
AcDbLayerTableRecord
  2
NOTE
 70
0
 62
7
  6
CONTINUOUS
370
-3
390
F
  0
LAYER
  5
204
100
AcDbSymbolTableRecord
100
AcDbLayerTableRecord
  2
PIANI
 70
0
 62
7
  6
CONTINUOUS
370
-3
390
F
  0
LAYER
  5
205
100
AcDbSymbolTableRecord
100
AcDbLayerTableRecord
  2
PIANI_ORIGINE
 70
0
 62
7
  6
CONTINUOUS
370
-3
390
F
  0
LAYER
  5
206
100
AcDbSymbolTableRecord
100
AcDbLayerTableRecord
  2
PIANI_RIFERIMENTO
 70
0
 62
7
  6
CONTINUOUS
370
-3
390
F
  0
LAYER
  5
207
100
AcDbSymbolTableRecord
100
AcDbLayerTableRecord
  2
PIANI_SFORMO
 70
0
 62
7
  6
CONTINUOUS
370
-3
390
F
  0
LAYER
  5
208
100
AcDbSymbolTableRecord
100
AcDbLayerTableRecord
  2
PUNTI
 70
0
 62
7
  6
CONTINUOUS
370
-3
390
F
  0
LAYER
  5
209
100
AcDbSymbolTableRecord
100
AcDbLayerTableRecord
  2
RACCORDO
 70
0
 62
7
  6
CONTINUOUS
370
-3
390
F
  0
LAYER
  5
20A
100
AcDbSymbolTableRecord
100
AcDbLayerTableRecord
  2
SMUSSO
 70
0
 62
7
  6
CONTINUOUS
370
-3
390
F
  0
LAYER
  5
20B
100
AcDbSymbolTableRecord
100
AcDbLayerTableRecord
  2
SNAPLINE
 70
0
 62
7
  6
CONTINUOUS
370
-3
390
F
  0
LAYER
  5
20C
100
AcDbSymbolTableRecord
100
AcDbLayerTableRecord
  2
SUPERFICI
 70
0
 62
7
  6
CONTINUOUS
370
-3
390
F
  0
LAYER
  5
20D
100
AcDbSymbolTableRecord
100
AcDbLayerTableRecord
  2
TRASH
 70
0
 62
7
  6
CONTINUOUS
370
-3
390
F
  0
LAYER
  5
20E
100
AcDbSymbolTableRecord
100
AcDbLayerTableRecord
  2
XSEC_DATUMS
 70
0
 62
7
  6
CONTINUOUS
370
-3
390
F
  0
ENDTAB
  0
TABLE
  2
STYLE
  5
3
100
AcDbSymbolTable
 70
1
  0
STYLE
  5
11
100
AcDbSymbolTableRecord
100
AcDbTextStyleTableRecord
  2
STANDARD
 70
0
 40
0.0
 41
0.8
 50
0.0
 71
0
 42
0.2
  3
txt
  4

  0
STYLE
  5
20F
100
AcDbSymbolTableRecord
100
AcDbTextStyleTableRecord
  2
TEXTSTYLE_1
 70
0
 40
0.0
 41
0.8
 50
0.0
 71
0
 42
0.2
  3
gdt
  4

  0
ENDTAB
  0
TABLE
  2
VIEW
  5
6
100
AcDbSymbolTable
 70
0
  0
ENDTAB
  0
TABLE
  2
UCS
  5
7
100
AcDbSymbolTable
 70
0
  0
ENDTAB
  0
TABLE
  2
APPID
  5
9
100
AcDbSymbolTable
 70
1
  0
APPID
  5
210
100
AcDbSymbolTableRecord
100
AcDbRegAppTableRecord
  2
ACAD
 70
0
  0
ENDTAB
  0
TABLE
  2
BLOCK_RECORD
  5
1
100
AcDbSymbolTable
 70
0
  0
BLOCK_RECORD
  5
211
100
AcDbSymbolTableRecord
100
AcDbBlockTableRecord
  2
*Model_Space
  0
BLOCK_RECORD
  5
212
100
AcDbSymbolTableRecord
100
AcDbBlockTableRecord
  2
*Paper_Space
  0
ENDTAB
  0
TABLE
  2
DIMSTYLE
  5
A
100
AcDbSymbolTable
 70
1
100
AcDbDimStyleTable
 71
0
  0
DIMSTYLE
105
213
100
AcDbSymbolTableRecord
100
AcDbDimStyleTableRecord
  2
STANDARD
 70
0
  3

  4

 40
1.0
 41
3.0
 42
0.5
 43
0.38
 44
1.5
 45
0.0
 46
0.0
 47
0.01
 48
0.01
140
3.0
141
0.09
142
0.0
143
25.4
144
1.0
145
0.0
146
1.0
147
0.625
 71
1.0
 72
0.0
 73
0
 74
0
 75
0
 76
0
 77
1
 78
8
170
0
171
2
172
0
173
0
174
0
175
0
176
0
177
0
178
0
270
2
271
2
272
2
273
2
274
2
275
0
280
0
281
0
282
0
283
1
284
8
285
0
286
0
287
3
288
0
340
11
278
44
  0
ENDTAB
  0
ENDSEC
  0
SECTION
  2
BLOCKS
  0
BLOCK
  5
20
100
AcDbEntity
  8
0
100
AcDbBlockBegin
  2
*Model_Space
 70
0
 10
0.0
 20
0.0
 30
0.0
  3
*Model_Space
  1

  0
ENDBLK
  5
21
100
AcDbEntity
  8
0
100
AcDbBlockEnd
  0
BLOCK
  5
1C
100
AcDbEntity
  8
0
100
AcDbBlockBegin
  2
*Paper_Space
 70
0
 10
0.0
 20
0.0
 30
0.0
  3
*Paper_Space
  1

  0
ENDBLK
  5
1D
100
AcDbEntity
  8
0
100
AcDbBlockEnd
  0
ENDSEC
  0
SECTION
  2
ENTITIES
  0
LWPOLYLINE
  5
214
100
AcDbEntity
  8
RACCORDO
100
AcDbPolyline
 62
7
  6
CONTINUOUS
 90
22
 70
0
 10
-15.9688685831
 20
25.0992596827
 10
-15.9803955873
 20
25.0929581746
 10
-15.991620774
 20
25.0860303525
 10
-16.002501445
 20
25.0784933511
 10
-16.0130006968
 20
25.0703642799
 10
-16.0230740171
 20
25.0616705625
 10
-16.0326718037
 20
25.052451897
 10
-16.0417217473
 20
25.0427848022
 10
-16.0502375561
 20
25.0326640752
 10
-16.0582850751
 20
25.0219965707
 10
-16.0658624605
 20
25.0107389578
 10
-16.0728738274
 20
24.9989868566
 10
-16.0792404319
 20
24.9868507656
 10
-16.0849263712
 20
24.974398336
 10
-16.0899234808
 20
24.9616497681
 10
-16.0942144683
 20
24.9486488126
 10
-16.0977844967
 20
24.9354441386
 10
-16.1006247112
 20
24.9220761756
 10
-16.1027305696
 20
24.908570017
 10
-16.1040961538
 20
24.8949541083
 10
-16.1047147276
 20
24.8812811961
 10
-16.1047544773
 20
24.8768296369
  0
LINE
  5
215
100
AcDbEntity
  8
RACCORDO
100
AcDbLine
 62
7
  6
CONTINUOUS
 10
-14.3856968882
 20
25.91145673
 11
-15.9688685831
 21
25.0992596827
  0
LINE
  5
216
100
AcDbEntity
  8
RACCORDO
100
AcDbLine
 62
253
  6
CONTINUOUS
 10
-14.2730263138
 20
25.9047958049
 11
-15.855782917
 21
25.0928117075
  0
LINE
  5
217
100
AcDbEntity
  8
RACCORDO
100
AcDbLine
 62
7
  6
CONTINUOUS
 10
-14.3839585026
 20
25.9123259627
 11
-14.3856949144
 21
25.9114577425
  0
LINE
  5
218
100
AcDbEntity
  8
RACCORDO
100
AcDbLine
 62
7
  6
CONTINUOUS
 10
-13.8490885462
 20
26.1728780625
 11
-14.3839557371
 21
25.9123273099
  0
LINE
  5
219
100
AcDbEntity
  8
RACCORDO
100
AcDbLine
 62
253
  6
CONTINUOUS
 10
-13.7385764351
 20
26.1651432714
 11
-14.2730263138
 21
25.9047958049
  0
LWPOLYLINE
  5
21A
100
AcDbEntity
  8
RACCORDO
100
AcDbPolyline
 62
7
  6
CONTINUOUS
 90
37
 70
0
 10
-19.9907246255
 20
21.0754202514
 10
-20.0223959962
 20
21.0563777983
 10
-20.0653068784
 20
21.0287091254
 10
-20.107397628
 20
20.9994177381
 10
-20.1486547814
 20
20.9685627352
 10
-20.1890674978
 20
20.9361980908
 10
-20.228620113
 20
20.9023785513
 10
-20.267297708
 20
20.8671556808
 10
-20.3050856784
 20
20.8305779886
 10
-20.3419595212
 20
20.7927015009
 10
-20.3779015854
 20
20.7535739162
 10
-20.4128933473
 20
20.7132414889
 10
-20.4469019181
 20
20.6717659957
 10
-20.4799061214
 20
20.6291950625
 10
-20.5118849297
 20
20.5855741364
 10
-20.5428015538
 20
20.5409697174
 10
-20.5726328954
 20
20.4954295557
 10
-20.6013554236
 20
20.4490003074
 10
-20.6289304329
 20
20.4017533612
 10
-20.6553338391
 20
20.3537368396
 10
-20.6805406287
 20
20.3049988335
 10
-20.7045119918
 20
20.2556148616
 10
-20.7272233073
 20
20.2056337711
 10
-20.7486492902
 20
20.1551039391
 10
-20.7687533015
 20
20.1041013118
 10
-20.7875108723
 20
20.0526736995
 10
-20.8048962252
 20
20.0008698302
 10
-20.8208750036
 20
19.9487647063
 10
-20.8354224047
 20
19.8964049591
 10
-20.8485121969
 20
19.8438381285
 10
-20.8601122997
 20
19.7911347322
 10
-20.8701965465
 20
19.7383401787
 10
-20.8787372974
 20
19.6854998035
 10
-20.8857034847
 20
19.6326749877
 10
-20.8910656051
 20
19.5799123705
 10
-20.8947929314
 20
19.5272516458
 10
-20.8964310548
 20
19.4898755751
  0
LWPOLYLINE
  5
21B
100
AcDbEntity
  8
RACCORDO
100
AcDbPolyline
 62
253
  6
CONTINUOUS
 90
6
 70
0
 10
-17.3524247514
 20
22.4942261275
 10
-17.0843211277
 20
22.6540629015
 10
-16.8102285128
 20
22.8170638983
 10
-16.5301542284
 20
22.9832326608
 10
-16.2456870378
 20
23.151207445
 10
-15.9564956183
 20
23.3208344226
  0
LWPOLYLINE
  5
21C
100
AcDbEntity
  8
RACCORDO
100
AcDbPolyline
 62
253
  6
CONTINUOUS
 90
9
 70
0
 10
-19.5851963489
 20
21.1672001067
 10
-19.4078185131
 20
21.2712516884
 10
-19.219208265
 20
21.3823229528
 10
-19.0187191574
 20
21.5008115156
 10
-18.8069976375
 20
21.626319761
 10
-18.5859830469
 20
21.7576548418
 10
-18.3557402984
 20
21.8948480413
 10
-18.1162044792
 20
22.0378680761
 10
-17.3524247514
 20
22.4942261275
  0
LINE
  5
21D
100
AcDbEntity
  8
RACCORDO
100
AcDbLine
 62
253
  6
CONTINUOUS
 10
-15.9564956183
 20
23.3208344226
 11
-15.4017615234
 21
23.6446271572
  0
LWPOLYLINE
  5
21E
100
AcDbEntity
  8
RACCORDO
100
AcDbPolyline
 62
7
  6
CONTINUOUS
 90
8
 70
0
 10
-15.4017615234
 20
23.774970821
 10
-15.9875958874
 20
23.4333692287
 10
-16.6170932746
 20
23.064873521
 10
-17.2268830566
 20
22.705460499
 10
-17.8172645099
 20
22.3562444614
 10
-18.3889139644
 20
22.0178443797
 10
-18.9423514286
 20
21.6907611388
 10
-19.477887933
 20
21.3755094619
  0
LINE
  5
21F
100
AcDbEntity
  8
RACCORDO
100
AcDbLine
 62
7
  6
CONTINUOUS
 10
-19.9907363501
 20
21.0754134184
 11
-19.477887933
 21
21.3755094619
  0
LINE
  5
220
100
AcDbEntity
  8
RACCORDO
100
AcDbLine
 62
253
  6
CONTINUOUS
 10
-19.7685863125
 20
21.0601099296
 11
-19.5851963489
 21
21.1672001067
  0
LWPOLYLINE
  5
221
100
AcDbEntity
  8
RACCORDO
100
AcDbPolyline
 62
253
  6
CONTINUOUS
 90
3
 70
0
 10
-19.9907246268
 20
21.0754202536
 10
-19.9882776882
 20
21.076820885
 10
-19.975641217
 20
21.0832726448
  0
LINE
  5
222
100
AcDbEntity
  8
RACCORDO
100
AcDbLine
 62
253
  6
CONTINUOUS
 10
-12.9295174463
 20
25.2330413711
 11
-14.5307982371
 21
24.4303193676
  0
LINE
  5
223
100
AcDbEntity
  8
RACCORDO
100
AcDbLine
 62
253
  6
CONTINUOUS
 10
-12.7527437426
 20
24.9281518323
 11
-14.3540245335
 21
24.1254298288
  0
LINE
  5
224
100
AcDbEntity
  8
RACCORDO
100
AcDbLine
 62
253
  6
CONTINUOUS
 10
-12.4012502746
 20
25.4964801912
 11
-12.9295174463
 21
25.2330413711
  0
LINE
  5
225
100
AcDbEntity
  8
RACCORDO
100
AcDbLine
 62
253
  6
CONTINUOUS
 10
-12.2244765709
 20
25.1915906523
 11
-12.7527437426
 21
24.9281518323
  0
LINE
  5
226
100
AcDbEntity
  8
RACCORDO
100
AcDbLine
 62
253
  6
CONTINUOUS
 10
-12.7527437426
 20
24.2011069798
 11
-12.2244765709
 21
24.8440591356
  0
LINE
  5
227
100
AcDbEntity
  8
RACCORDO
100
AcDbLine
 62
7
  6
CONTINUOUS
 10
-12.7527437426
 20
24.1115765135
 11
-12.2091159985
 21
24.773223969
  0
LWPOLYLINE
  5
228
100
AcDbEntity
  8
RACCORDO
100
AcDbPolyline
 62
7
  6
CONTINUOUS
 90
30
 70
0
 10
-13.6428039254
 20
23.6369523718
 10
-13.6506830484
 20
23.6278179686
 10
-13.6589032974
 20
23.6188205276
 10
-13.6674611586
 20
23.6099815411
 10
-13.6763595892
 20
23.6013250112
 10
-13.6855860242
 20
23.5928703319
 10
-13.6951125985
 20
23.5846324392
 10
-13.7049327868
 20
23.5766336856
 10
-13.715038685
 20
23.5688958088
 10
-13.725399468
 20
23.561433269
 10
-13.7360059893
 20
23.5542684912
 10
-13.7468479007
 20
23.5474231859
 10
-13.7578916777
 20
23.5409112142
 10
-13.7691255262
 20
23.5347546951
 10
-13.780536477
 20
23.5289750313
 10
-13.7920882974
 20
23.5235855077
 10
-13.8037664293
 20
23.51860755
 10
-13.8155551608
 20
23.5140618528
 10
-13.8274154748
 20
23.5099610676
 10
-13.8393299225
 20
23.5063254421
 10
-13.8512799358
 20
23.5031744571
 10
-13.8632236134
 20
23.5005199208
 10
-13.875140463
 20
23.4983802884
 10
-13.8870090302
 20
23.4967731509
 10
-13.8987846089
 20
23.4957089902
 10
-13.9104434294
 20
23.4952036849
 10
-13.9219613665
 20
23.4952720509
 10
-13.9332917192
 20
23.4959224493
 10
-13.9443969816
 20
23.4971658421
 10
-13.9552613333
 20
23.4990133376
  0
LINE
  5
229
100
AcDbEntity
  8
RACCORDO
100
AcDbLine
 62
7
  6
CONTINUOUS
 10
-12.7527437426
 20
23.3260011713
 11
-13.6428039254
 21
22.8293202501
  0
LINE
  5
22A
100
AcDbEntity
  8
RACCORDO
100
AcDbLine
 62
7
  6
CONTINUOUS
 10
-10.3839240243
 20
22.995882758
 11
-10.0303826351
 21
23.1772561828
  0
LINE
  5
22B
100
AcDbEntity
  8
RACCORDO
100
AcDbLine
 62
7
  6
CONTINUOUS
 10
-5.030160681
 20
26.4663052004
 11
-11.3447010077
 21
23.3215288958
  0
LINE
  5
22C
100
AcDbEntity
  8
ASSI
100
AcDbLine
 62
7
  6
CONTINUOUS
 10
-10.0303826351
 20
23.1772561828
 11
-4.6941592291
 21
25.7766996483
  0
LWPOLYLINE
  5
22D
100
AcDbEntity
  8
RACCORDO
100
AcDbPolyline
 62
253
  6
CONTINUOUS
 90
15
 70
0
 10
-19.975641217
 20
21.0832726448
 10
-19.9624690261
 20
21.0887292876
 10
-19.9487909202
 20
21.0931784667
 10
-19.9346378483
 20
21.0966101149
 10
-19.9200418347
 20
21.0990164675
 10
-19.9050359054
 20
21.1003920796
 10
-19.8896540142
 20
21.1007338388
 10
-19.8739309656
 20
21.1000409717
 10
-19.8579023359
 20
21.0983150461
 10
-19.8416043929
 20
21.0955599671
 10
-19.8250740137
 20
21.0917819687
 10
-19.8083486015
 20
21.0869895993
 10
-19.7914660007
 20
21.0811937026
 10
-19.7744644113
 20
21.0744073928
 10
-19.7573823026
 20
21.0666460253
  0
LWPOLYLINE
  5
22E
100
AcDbEntity
  8
RACCORDO
100
AcDbPolyline
 62
7
  6
CONTINUOUS
 90
24
 70
0
 10
-5.531716427
 20
-24.4733791876
 10
-5.4990032668
 20
-24.4889147656
 10
-5.466919205
 20
-24.502608133
 10
-5.4341930528
 20
-24.5150826489
 10
-5.4008512838
 20
-24.5263147043
 10
-5.3668951744
 20
-24.5362881501
 10
-5.3323621509
 20
-24.5449747808
 10
-5.2972939341
 20
-24.5523478944
 10
-5.2616952284
 20
-24.5583891677
 10
-5.2256032228
 20
-24.5630735146
 10
-5.1890612921
 20
-24.5663773777
 10
-5.1520793268
 20
-24.5682810984
 10
-5.1146979931
 20
-24.56876279
 10
-5.0769556433
 20
-24.5678027629
 10
-5.0388534074
 20
-24.5653801454
 10
-5.0004294986
 20
-24.5614747385
 10
-4.9617205468
 20
-24.5560679114
 10
-4.922719384
 20
-24.5491339542
 10
-4.8834565888
 20
-24.5406508305
 10
-4.8439720153
 20
-24.5305995248
 10
-4.8042667918
 20
-24.5189507586
 10
-4.7643624514
 20
-24.5056780807
 10
-4.7243044936
 20
-24.4907632345
 10
-4.6973777871
 20
-24.4798328865
  0
LINE
  5
22F
100
AcDbEntity
  8
RACCORDO
100
AcDbLine
 62
7
  6
CONTINUOUS
 10
-5.5317166366
 20
-24.4733790853
 11
-5.5316338407
 21
-24.4734204916
  0
LINE
  5
230
100
AcDbEntity
  8
RACCORDO
100
AcDbLine
 62
253
  6
CONTINUOUS
 10
-20.7499483126
 20
-16.3003979982
 11
-5.925102235
 21
-23.712821037
  0
LINE
  5
231
100
AcDbEntity
  8
RACCORDO
100
AcDbLine
 62
253
  6
CONTINUOUS
 10
-20.3655318576
 20
-17.0564714831
 11
-20.3723446392
 21
-17.052993357
  0
LWPOLYLINE
  5
232
100
AcDbEntity
  8
RACCORDO
100
AcDbPolyline
 62
253
  6
CONTINUOUS
 90
3
 70
0
 10
-20.3723446392
 20
-17.052993357
 10
-20.3794412458
 20
-17.0492672333
 10
-20.3877906987
 20
-17.0446973627
  0
LWPOLYLINE
  5
233
100
AcDbEntity
  8
RACCORDO
100
AcDbPolyline
 62
253
  6
CONTINUOUS
 90
79
 70
0
 10
-20.3877906987
 20
-17.0446973627
 10
-20.3960649242
 20
-17.0399810802
 10
-20.4042630023
 20
-17.0351189096
 10
-20.4123840547
 20
-17.0301113739
 10
-20.4204271807
 20
-17.0249590276
 10
-20.4283914859
 20
-17.0196624422
 10
-20.4362761143
 20
-17.0142221907
 10
-20.4440801912
 20
-17.0086388752
 10
-20.4518028491
 20
-17.0029131144
 10
-20.4594432568
 20
-16.9970455299
 10
-20.4670005659
 20
-16.9910367714
 10
-20.4744739374
 20
-16.9848875037
 10
-20.4818625684
 20
-16.9785983946
 10
-20.4891656379
 20
-16.9721701405
 10
-20.4963823359
 20
-16.9656034517
 10
-20.5035118898
 20
-16.9588990398
 10
-20.5105535073
 20
-16.9520576467
 10
-20.5175064076
 20
-16.9450800276
 10
-20.5243698493
 20
-16.9379669365
 10
-20.5311430704
 20
-16.9307191588
 10
-20.5378253188
 20
-16.9233374948
 10
-20.5444158826
 20
-16.9158227418
 10
-20.5509140314
 20
-16.9081757273
 10
-20.5573190421
 20
-16.9003972966
 10
-20.5636302283
 20
-16.8924882951
 10
-20.5698468907
 20
-16.8844495934
 10
-20.5759683373
 20
-16.8762820797
 10
-20.5819939091
 20
-16.8679866466
 10
-20.5879229375
 20
-16.8595642089
 10
-20.5937547638
 20
-16.851015695
 10
-20.5994887608
 20
-16.84234204
 10
-20.6051242919
 20
-16.8335442003
 10
-20.6106607315
 20
-16.8246231455
 10
-20.6160974851
 20
-16.8155798502
 10
-20.6214339492
 20
-16.8064153121
 10
-20.6266695316
 20
-16.7971305402
 10
-20.6318036718
 20
-16.7877265473
 10
-20.6368357991
 20
-16.7782043713
 10
-20.641765356
 20
-16.7685650592
 10
-20.6465918177
 20
-16.7588096565
 10
-20.6513146482
 20
-16.7489392381
 10
-20.6559333235
 20
-16.73895489
 10
-20.660447353
 20
-16.7288576923
 10
-20.6648562377
 20
-16.7186487514
 10
-20.6691594853
 20
-16.7083291952
 10
-20.6733566331
 20
-16.6979001546
 10
-20.6774472154
 20
-16.6873627765
 10
-20.6814307774
 20
-16.6767182206
 10
-20.6853068905
 20
-16.6659676549
 10
-20.6890751249
 20
-16.6551122617
 10
-20.6927350616
 20
-16.6441532353
 10
-20.6962863072
 20
-16.6330917788
 10
-20.6997284679
 20
-16.6219291085
 10
-20.7030611613
 20
-16.6106664525
 10
-20.7062840291
 20
-16.5993050479
 10
-20.7093967138
 20
-16.5878461451
 10
-20.7123988702
 20
-16.5762910033
 10
-20.7152901766
 20
-16.5646408884
 10
-20.7180703112
 20
-16.5528970882
 10
-20.7207389669
 20
-16.5410608874
 10
-20.7232958625
 20
-16.5291335613
 10
-20.7257407155
 20
-16.5171164149
 10
-20.7280732525
 20
-16.5050107745
 10
-20.7302932241
 20
-16.4928179624
 10
-20.7324003843
 20
-16.4805393147
 10
-20.734394498
 20
-16.4681761837
 10
-20.7362753503
 20
-16.4557299304
 10
-20.7380427325
 20
-16.4432019219
 10
-20.7396964481
 20
-16.4305935347
 10
-20.7412363189
 20
-16.4179061565
 10
-20.7426621745
 20
-16.4051411809
 10
-20.7439738562
 20
-16.3923000103
 10
-20.745171223
 20
-16.3793840589
 10
-20.7462541428
 20
-16.3663947451
 10
-20.747222495
 20
-16.3533334958
 10
-20.7480761757
 20
-16.34020175
 10
-20.7488150917
 20
-16.3270009515
 10
-20.7494391603
 20
-16.3137325486
 10
-20.7499483126
 20
-16.3003979982
  0
LWPOLYLINE
  5
234
100
AcDbEntity
  8
RACCORDO
100
AcDbPolyline
 62
253
  6
CONTINUOUS
 90
17
 70
0
 10
-20.8962228189
 20
-16.1266990892
 10
-20.8949007994
 20
-16.1390122705
 10
-20.8924750963
 20
-16.1512522379
 10
-20.8889510834
 20
-16.1633918759
 10
-20.8843365674
 20
-16.1754042916
 10
-20.8786417709
 20
-16.1872628737
 10
-20.8718793098
 20
-16.1989413517
 10
-20.8640641648
 20
-16.2104138541
 10
-20.8552136492
 20
-16.2216549658
 10
-20.8453473694
 20
-16.2326397843
 10
-20.8344871824
 20
-16.2433439746
 10
-20.8226571468
 20
-16.2537438236
 10
-20.80988347
 20
-16.2638162926
 10
-20.7961944496
 20
-16.2735390677
 10
-20.781620411
 20
-16.28289061
 10
-20.7661936403
 20
-16.291850203
 10
-20.7499483126
 20
-16.3003979982
  0
LWPOLYLINE
  5
235
100
AcDbEntity
  8
RACCORDO
100
AcDbPolyline
 62
7
  6
CONTINUOUS
 90
28
 70
0
 10
-20.8964121918
 20
-16.1227487266
 10
-20.8946781331
 20
-16.1603801391
 10
-20.8908254656
 20
-16.2110161962
 10
-20.8852731176
 20
-16.2607583206
 10
-20.8780310468
 20
-16.3096061246
 10
-20.8691158068
 20
-16.3575002042
 10
-20.8585613285
 20
-16.4043250923
 10
-20.8463885907
 20
-16.4500571749
 10
-20.8326205051
 20
-16.4946640615
 10
-20.8173151311
 20
-16.5380215073
 10
-20.8005077974
 20
-16.580101919
 10
-20.7822342905
 20
-16.6208792945
 10
-20.7625798369
 20
-16.6602357022
 10
-20.7416124809
 20
-16.6981200333
 10
-20.7193721252
 20
-16.7345394404
 10
-20.6959213421
 20
-16.7694633008
 10
-20.6713448717
 20
-16.802839565
 10
-20.6456850886
 20
-16.8346818418
 10
-20.6189410733
 20
-16.8650455579
 10
-20.5911759263
 20
-16.8939027405
 10
-20.5624498488
 20
-16.9212341005
 10
-20.5327469776
 20
-16.9470876867
 10
-20.5021291856
 20
-16.9714338687
 10
-20.4706566881
 20
-16.9942497834
 10
-20.438300267
 20
-17.0155730573
 10
-20.4050873384
 20
-17.0353913893
 10
-20.3711096678
 20
-17.0536572585
 10
-5.5316333469
 20
-24.4734207385
  0
LWPOLYLINE
  5
236
100
AcDbEntity
  8
RACCORDO
100
AcDbPolyline
 62
253
  6
CONTINUOUS
 90
67
 70
0
 10
-20.7499483126
 20
-16.3003979982
 10
-20.7674874113
 20
-15.7701446551
 10
-20.7844871279
 20
-15.2395852172
 10
-20.8009474356
 20
-14.708720509
 10
-20.816868308
 20
-14.177551356
 10
-20.8322497203
 20
-13.6460785836
 10
-20.8470916494
 20
-13.1143030172
 10
-20.861394072
 20
-12.5822254832
 10
-20.8751569655
 20
-12.0498468088
 10
-20.888380309
 20
-11.5171678207
 10
-20.901064082
 20
-10.984189347
 10
-20.9132082641
 20
-10.4509122159
 10
-20.9248128373
 20
-9.9173372558
 10
-20.9358777832
 20
-9.383465296
 10
-20.9464030843
 20
-8.8492971662
 10
-20.9563887248
 20
-8.3148336961
 10
-20.9658346891
 20
-7.7800757164
 10
-20.974740962
 20
-7.245024058
 10
-20.9831075304
 20
-6.7096795513
 10
-20.990934381
 20
-6.1740430278
 10
-20.9982215013
 20
-5.6381153203
 10
-21.0049688806
 20
-5.1018972611
 10
-21.0111765081
 20
-4.5653896835
 10
-21.016844374
 20
-4.0285934212
 10
-21.0219724699
 20
-3.4915093082
 10
-21.0265607875
 20
-2.9541381789
 10
-21.0306093198
 20
-2.4164808687
 10
-21.0341180605
 20
-1.8785382124
 10
-21.0370870042
 20
-1.3403110462
 10
-21.0395161462
 20
-0.8018002063
 10
-21.0414054828
 20
-0.2630065292
 10
-21.0427550111
 20
0.2760691477
 10
-21.0435647288
 20
0.8154259868
 10
-21.0438346349
 20
1.3550631507
 10
-21.0435647288
 20
1.8949798008
 10
-21.0427550111
 20
2.4351750982
 10
-21.0414054828
 20
2.9756482038
 10
-21.0395161462
 20
3.516398278
 10
-21.0370870042
 20
4.0574244805
 10
-21.0341180605
 20
4.5987259707
 10
-21.0306093198
 20
5.1403019076
 10
-21.0265607875
 20
5.6821514496
 10
-21.0219724699
 20
6.2242737549
 10
-21.016844374
 20
6.7666679811
 10
-21.0111765081
 20
7.3093332855
 10
-21.0049688806
 20
7.8522688249
 10
-20.9982215013
 20
8.3954737556
 10
-20.990934381
 20
8.9389472338
 10
-20.9831075304
 20
9.482688415
 10
-20.9747409621
 20
10.0266964542
 10
-20.9658346891
 20
10.5709705065
 10
-20.9563887249
 20
11.1155097267
 10
-20.9464030843
 20
11.6603132692
 10
-20.9358777832
 20
12.2053802873
 10
-20.9248128373
 20
12.7507099337
 10
-20.9132082641
 20
13.2963013614
 10
-20.901064082
 20
13.8421537227
 10
-20.888380309
 20
14.388266169
 10
-20.8751569655
 20
14.9346378519
 10
-20.861394072
 20
15.4812679226
 10
-20.8470916494
 20
16.0281555313
 10
-20.8322497202
 20
16.5752998284
 10
-20.816868308
 20
17.1226999639
 10
-20.8009474356
 20
17.6703550868
 10
-20.7844871279
 20
18.2182643461
 10
-20.7674874113
 20
18.7664268908
 10
-20.7499483126
 20
19.3148418694
  0
LWPOLYLINE
  5
237
100
AcDbEntity
  8
RACCORDO
100
AcDbPolyline
 62
7
  6
CONTINUOUS
 90
22
 70
0
 10
-20.8964307351
 20
19.4898854368
 10
-20.9493859659
 20
17.7790422997
 10
-20.9974283905
 20
16.0576929215
 10
-21.0401345628
 20
14.3388783635
 10
-21.0775037882
 20
12.622625084
 10
-21.1095354569
 20
10.9089593811
 10
-21.136229041
 20
9.1979074386
 10
-21.1575840913
 20
7.4894955161
 10
-21.1736002402
 20
5.7837498573
 10
-21.1842772023
 20
4.0806965556
 10
-21.1896147725
 20
2.3803617022
 10
-21.189612827
 20
0.682771464
 10
-21.1842713245
 20
-1.0120480148
 10
-21.173590306
 20
-2.7040706523
 10
-21.1575698938
 20
-4.3932705276
 10
-21.1362102905
 20
-6.0796218042
 10
-21.1095117811
 20
-7.7630985766
 10
-21.0774747318
 20
-9.4436750081
 10
-21.0400995874
 20
-11.1213254276
 10
-20.9973868747
 20
-12.7960241295
 10
-20.9493372053
 20
-14.4677453302
 10
-20.8964121142
 20
-16.1227510379
  0
LWPOLYLINE
  5
238
100
AcDbEntity
  8
RACCORDO
100
AcDbPolyline
 62
253
  6
CONTINUOUS
 90
138
 70
0
 10
-20.7499483126
 20
19.3148418694
 10
-20.749426815
 20
19.3289993613
 10
-20.7487853519
 20
19.3432105492
 10
-20.7480239972
 20
19.3574738053
 10
-20.7471428399
 20
19.3717874989
 10
-20.7461419805
 20
19.3861499875
 10
-20.7450215314
 20
19.4005596174
 10
-20.7437816225
 20
19.4150147384
 10
-20.7424223968
 20
19.4295136949
 10
-20.7409440071
 20
19.4440548169
 10
-20.7393466249
 20
19.4586364392
 10
-20.7376304351
 20
19.473256892
 10
-20.7357956303
 20
19.4879144907
 10
-20.733842424
 20
19.5026075572
 10
-20.7317710422
 20
19.517334409
 10
-20.7295817177
 20
19.5320933488
 10
-20.7272747063
 20
19.5468826799
 10
-20.7248502741
 20
19.5617007161
 10
-20.7223086902
 20
19.5765457706
 10
-20.7196502496
 20
19.5914161441
 10
-20.71687526
 20
19.6063101344
 10
-20.7139840287
 20
19.621226046
 10
-20.7109768898
 20
19.6361621784
 10
-20.707854192
 20
19.6511168156
 10
-20.7046162855
 20
19.6660882352
 10
-20.7012635457
 20
19.6810747244
 10
-20.6977963606
 20
19.6960745677
 10
-20.6942151189
 20
19.7110860367
 10
-20.6905202361
 20
19.7261074139
 10
-20.6867121399
 20
19.7411369802
 10
-20.6827912577
 20
19.756173003
 10
-20.6787580443
 20
19.771213762
 10
-20.6746129669
 20
19.7862575364
 10
-20.6703564905
 20
19.8013025915
 10
-20.6659891098
 20
19.8163472041
 10
-20.6615113302
 20
19.8313896553
 10
-20.6569236517
 20
19.8464282183
 10
-20.6522266074
 20
19.8614611706
 10
-20.6474207406
 20
19.8764867951
 10
-20.6425065856
 20
19.8915033737
 10
-20.6374847121
 20
19.9065091901
 10
-20.6323557019
 20
19.921502527
 10
-20.627120126
 20
19.9364816663
 10
-20.6217785908
 20
19.9514448976
 10
-20.6163317154
 20
19.9663905073
 10
-20.610780109
 20
19.9813167752
 10
-20.6051244146
 20
19.9962219964
 10
-20.5993652876
 20
20.0111044647
 10
-20.5935033744
 20
20.0259624614
 10
-20.5875393546
 20
20.040794288
 10
-20.5814739191
 20
20.0555982486
 10
-20.5753077484
 20
20.0703726333
 10
-20.5690415579
 20
20.0851157527
 10
-20.5626760734
 20
20.0998259221
 10
-20.5562120083
 20
20.1145014438
 10
-20.5496501126
 20
20.1291406401
 10
-20.5429911465
 20
20.1437418381
 10
-20.5362358556
 20
20.1583033541
 10
-20.5293850258
 20
20.1728235191
 10
-20.5224394488
 20
20.1873006786
 10
-20.5153998949
 20
20.2017331778
 10
-20.508267179
 20
20.2161193703
 10
-20.5010421287
 20
20.2304576091
 10
-20.4937255491
 20
20.2447462472
 10
-20.4863182867
 20
20.2589836555
 10
-20.4788212013
 20
20.2731682033
 10
-20.4712351339
 20
20.2872982503
 10
-20.463560964
 20
20.3013721823
 10
-20.4557995807
 20
20.3153883912
 10
-20.447951855
 20
20.3293452551
 10
-20.4400186969
 20
20.3432411801
 10
-20.4320010257
 20
20.3570745787
 10
-20.4238997413
 20
20.3708438491
 10
-20.4157157834
 20
20.3845474192
 10
-20.4074501004
 20
20.3981837237
 10
-20.3991036205
 20
20.4117511829
 10
-20.3906773146
 20
20.4252482435
 10
-20.3821721567
 20
20.4386733687
 10
-20.3735890935
 20
20.4520250158
 10
-20.3649291212
 20
20.4653016596
 10
-20.3561932426
 20
20.4785017852
 10
-20.3473824285
 20
20.4916238778
 10
-20.3384976973
 20
20.5046664439
 10
-20.3295400817
 20
20.5176279897
 10
-20.3205105863
 20
20.5305070136
 10
-20.3114102581
 20
20.543302046
 10
-20.3022401517
 20
20.5560116258
 10
-20.2930012964
 20
20.5686342796
 10
-20.2836947637
 20
20.5811685667
 10
-20.274321632
 20
20.5936130569
 10
-20.2648829526
 20
20.6059663078
 10
-20.2553798201
 20
20.61822691
 10
-20.2458133361
 20
20.6303934646
 10
-20.2361845729
 20
20.6424645617
 10
-20.2264946482
 20
20.6544388233
 10
-20.2167446844
 20
20.6663148845
 10
-20.2069357716
 20
20.678091372
 10
-20.1970690484
 20
20.6897669417
 10
-20.1871456575
 20
20.701340263
 10
-20.1771667053
 20
20.7128100008
 10
-20.167133348
 20
20.7241748482
 10
-20.1570467496
 20
20.7354335081
 10
-20.1469080374
 20
20.746584678
 10
-20.1367183861
 20
20.7576270871
 10
-20.1264789778
 20
20.7685594758
 10
-20.116190959
 20
20.779380576
 10
-20.1058555221
 20
20.7900891551
 10
-20.0954738657
 20
20.8006839917
 10
-20.0850471542
 20
20.8111638547
 10
-20.0745765966
 20
20.8215275499
 10
-20.0640634069
 20
20.8317738964
 10
-20.0535087637
 20
20.8419017033
 10
-20.0429138914
 20
20.8519098166
 10
-20.0322800179
 20
20.8617970966
 10
-20.0216083345
 20
20.8715623945
 10
-20.0109000792
 20
20.8812045979
 10
-20.000156493
 20
20.8907226092
 10
-19.9893787784
 20
20.9001153227
 10
-19.9785681863
 20
20.9093816685
 10
-19.9677259692
 20
20.9185205925
 10
-19.9568533375
 20
20.9275310348
 10
-19.9459515514
 20
20.9364119704
 10
-19.9350218756
 20
20.9451623883
 10
-19.9240655325
 20
20.9537812711
 10
-19.9130837915
 20
20.9622676389
 10
-19.9020779269
 20
20.9706205256
 10
-19.8910491722
 20
20.9788389574
 10
-19.8799988065
 20
20.9869219996
 10
-19.8689281108
 20
20.9948687332
 10
-19.8578383258
 20
21.0026782311
 10
-19.8467307379
 20
21.0103496056
 10
-19.8356066345
 20
21.0178819851
 10
-19.8244672614
 20
21.0252744905
 10
-19.8133139105
 20
21.0325262818
 10
-19.8021478747
 20
21.0396365357
 10
-19.7909704039
 20
21.0466044221
 10
-19.7797827791
 20
21.0534291425
 10
-19.7685863125
 20
21.0601099296
  0
LWPOLYLINE
  5
239
100
AcDbEntity
  8
RACCORDO
100
AcDbPolyline
 62
253
  6
CONTINUOUS
 90
27
 70
0
 10
-14.3540245335
 20
23.7854558947
 10
-14.3589085506
 20
23.7734872365
 10
-14.364259154
 20
23.7617940324
 10
-14.3700617324
 20
23.7504082141
 10
-14.37630044
 20
23.7393608739
 10
-14.3829582404
 20
23.7286821798
 10
-14.3900169523
 20
23.718401293
 10
-14.3974573001
 20
23.7085462885
 10
-14.4052589655
 20
23.6991440783
 10
-14.413400644
 20
23.6902203377
 10
-14.4218601023
 20
23.6817994358
 10
-14.4306142393
 20
23.6739043682
 10
-14.4396391495
 20
23.6665566946
 10
-14.4489101875
 20
23.6597764801
 10
-14.4584020362
 20
23.6535822399
 10
-14.4680887754
 20
23.6479908894
 10
-14.4779439525
 20
23.6430176972
 10
-14.4879406551
 20
23.6386762441
 10
-14.4980515844
 20
23.6349783857
 10
-14.5082491295
 20
23.6319342201
 10
-14.518505443
 20
23.6295520602
 10
-14.5287925171
 20
23.6278384114
 10
-14.5390822599
 20
23.626797953
 10
-14.5493465724
 20
23.6264335265
 10
-14.5595574248
 20
23.6267461271
 10
-14.5696869334
 20
23.627734901
 10
-14.5797074367
 20
23.6293971481
  0
LINE
  5
23A
100
AcDbEntity
  8
0
100
AcDbLine
 62
7
  6
CONTINUOUS
 10
-5.0806351668
 20
23.197080466
 11
-4.3735283856
 21
23.5506338566
  0
LINE
  5
23B
100
AcDbEntity
  8
0
100
AcDbLine
 62
7
  6
CONTINUOUS
 10
-2.6221904885
 20
24.0727494145
 11
-4.019974995
 21
23.3738571613
  0
LINE
  5
23C
100
AcDbEntity
  8
ASSI
100
AcDbLine
 62
7
  6
CONTINUOUS
 10
-4.0886287945
 20
25.473934431
 11
-8.6868797508
 21
23.2075731335
  0
LINE
  5
23D
100
AcDbEntity
  8
DRAFT
100
AcDbLine
 62
7
  6
CONTINUOUS
 10
-4.3735283856
 20
24.1031920459
 11
-4.0397527629
 21
24.2665124011
  0
LINE
  5
23E
100
AcDbEntity
  8
RACCORDO
100
AcDbLine
 62
7
  6
CONTINUOUS
 10
-1.9631947371
 20
24.9328222284
 11
-4.019974995
 21
23.9264153506
  0
LWPOLYLINE
  5
23F
100
AcDbEntity
  8
ASSI
100
AcDbPolyline
 62
7
  6
CONTINUOUS
 90
7
 70
0
 10
-4.0886287945
 20
25.473934431
 10
-4.0804195351
 20
25.4778619161
 10
-4.0722355774
 20
25.4815469783
 10
-4.0640769213
 20
25.4849896176
 10
-4.0559435668
 20
25.488189834
 10
-4.0478355141
 20
25.4911476275
 10
-4.0397527629
 20
25.4938629981
  0
LINE
  5
240
100
AcDbEntity
  8
RACCORDO
100
AcDbLine
 62
253
  6
CONTINUOUS
 10
1.1398415935
 20
-23.137704086
 11
0.6115744218
 21
-23.0292018089
  0
LINE
  5
241
100
AcDbEntity
  8
RACCORDO
100
AcDbLine
 62
253
  6
CONTINUOUS
 10
1.0504277982
 20
-22.81813728
 11
0.6115744218
 21
-22.7279999533
  0
LWPOLYLINE
  5
242
100
AcDbEntity
  8
RACCORDO
100
AcDbPolyline
 62
7
  6
CONTINUOUS
 90
34
 70
0
 10
-0.2784857609
 20
-23.3448108498
 10
-0.2863792233
 20
-23.3430952016
 10
-0.2946266036
 20
-23.3412277779
 10
-0.3032162706
 20
-23.3391994032
 10
-0.3121345738
 20
-23.336990083
 10
-0.3213688743
 20
-23.3346020359
 10
-0.3309078541
 20
-23.3320594891
 10
-0.3407359352
 20
-23.3293533401
 10
-0.3508370404
 20
-23.3264758369
 10
-0.3611981463
 20
-23.3234531393
 10
-0.3718008951
 20
-23.3202768137
 10
-0.382626487
 20
-23.3169396818
 10
-0.3936602245
 20
-23.3134696546
 10
-0.4048809727
 20
-23.309859109
 10
-0.416267103
 20
-23.3061016111
 10
-0.4278020488
 20
-23.3022266957
 10
-0.4394618795
 20
-23.2982277438
 10
-0.4512220213
 20
-23.2940992523
 10
-0.4630636326
 20
-23.2898722843
 10
-0.4749599668
 20
-23.285541505
 10
-0.4868834076
 20
-23.2811025546
 10
-0.4988122844
 20
-23.2765879026
 10
-0.5107170456
 20
-23.2719938967
 10
-0.5225670235
 20
-23.2673175662
 10
-0.5343371717
 20
-23.2625925352
 10
-0.5459951707
 20
-23.2578173812
 10
-0.5575075444
 20
-23.25299079
 10
-0.5688457436
 20
-23.2481469594
 10
-0.5799865361
 20
-23.243283931
 10
-0.5908817705
 20
-23.2384051558
 10
-0.6014670923
 20
-23.2335563182
 10
-0.6117002249
 20
-23.2287578767
 10
-0.62155796
 20
-23.2240025448
 10
-0.6310077206
 20
-23.2192981259
  0
LWPOLYLINE
  5
243
100
AcDbEntity
  8
RACCORDO
100
AcDbPolyline
 62
253
  6
CONTINUOUS
 90
31
 70
0
 10
-1.3422283287
 20
-24.5357685372
 10
-1.3327703105
 20
-24.5402570708
 10
-1.3228570735
 20
-24.5444929171
 10
-1.3125155883
 20
-24.5484645518
 10
-1.3017739908
 20
-24.5521611693
 10
-1.2906615051
 20
-24.5555727124
 10
-1.2792083647
 20
-24.5586898994
 10
-1.2674457299
 20
-24.5615042495
 10
-1.2554056029
 20
-24.5640081058
 10
-1.2431207408
 20
-24.566194656
 10
-1.2306245668
 20
-24.5680579513
 10
-1.2179510787
 20
-24.5695929224
 10
-1.205134757
 20
-24.5707953929
 10
-1.1922104707
 20
-24.5716620915
 10
-1.1792133824
 20
-24.5721906601
 10
-1.1661788529
 20
-24.5723796607
 10
-1.1531423449
 20
-24.572228579
 10
-1.1401393264
 20
-24.5717378261
 10
-1.1272051743
 20
-24.5709087372
 10
-1.1143750782
 20
-24.569743568
 10
-1.1016839445
 20
-24.5682454884
 10
-1.0891663017
 20
-24.5664185743
 10
-1.076856206
 20
-24.5642677961
 10
-1.0647871492
 20
-24.5617990053
 10
-1.0529919672
 20
-24.5590189188
 10
-1.0415027507
 20
-24.5559351002
 10
-1.0303507582
 20
-24.5525559395
 10
-1.0195663306
 20
-24.5488906304
 10
-1.0091788086
 20
-24.5449491449
 10
-0.9992164533
 20
-24.5407422066
 10
-0.989706369
 20
-24.536281261
  0
LWPOLYLINE
  5
244
100
AcDbEntity
  8
RACCORDO
100
AcDbPolyline
 62
253
  6
CONTINUOUS
 90
31
 70
0
 10
-1.3422283287
 20
-24.1957946031
 10
-1.3327703105
 20
-24.2002831367
 10
-1.3228570735
 20
-24.204518983
 10
-1.3125155883
 20
-24.2084906177
 10
-1.3017739908
 20
-24.2121872352
 10
-1.2906615051
 20
-24.2155987783
 10
-1.2792083647
 20
-24.2187159653
 10
-1.2674457299
 20
-24.2215303154
 10
-1.2554056029
 20
-24.2240341716
 10
-1.2431207408
 20
-24.2262207219
 10
-1.2306245668
 20
-24.2280840172
 10
-1.2179510787
 20
-24.2296189882
 10
-1.205134757
 20
-24.2308214588
 10
-1.1922104707
 20
-24.2316881574
 10
-1.1792133824
 20
-24.232216726
 10
-1.1661788529
 20
-24.2324057266
 10
-1.1531423449
 20
-24.2322546449
 10
-1.1401393264
 20
-24.231763892
 10
-1.1272051743
 20
-24.2309348031
 10
-1.1143750782
 20
-24.2297696338
 10
-1.1016839445
 20
-24.2282715543
 10
-1.0891663017
 20
-24.2264446402
 10
-1.076856206
 20
-24.224293862
 10
-1.0647871492
 20
-24.2218250712
 10
-1.0529919672
 20
-24.2190449847
 10
-1.0415027507
 20
-24.215961166
 10
-1.0303507582
 20
-24.2125820054
 10
-1.0195663306
 20
-24.2089166963
 10
-1.0091788086
 20
-24.2049752108
 10
-0.9992164533
 20
-24.2007682725
 10
-0.989706369
 20
-24.1963073269
  0
LWPOLYLINE
  5
245
100
AcDbEntity
  8
RACCORDO
100
AcDbPolyline
 62
7
  6
CONTINUOUS
 90
19
 70
0
 10
-1.2772549597
 20
-24.6709870236
 10
-1.268604374
 20
-24.6751070261
 10
-1.256768071
 20
-24.6801060115
 10
-1.2446695749
 20
-24.6844972867
 10
-1.232338042
 20
-24.6882664871
 10
-1.2198069661
 20
-24.6913996515
 10
-1.2071053258
 20
-24.6938857065
 10
-1.1942654043
 20
-24.6957141715
 10
-1.1813221652
 20
-24.6968759334
 10
-1.1683095189
 20
-24.697363854
 10
-1.1552626558
 20
-24.6971724727
 10
-1.1422171376
 20
-24.6962981644
 10
-1.1292081073
 20
-24.694739052
 10
-1.1162698036
 20
-24.6924947497
 10
-1.103440695
 20
-24.6895673971
 10
-1.0907623495
 20
-24.6859624833
 10
-1.0782713428
 20
-24.6816868197
 10
-1.0660032491
 20
-24.6767489295
 10
-1.0559679043
 20
-24.6721318593
  0
LINE
  5
246
100
AcDbEntity
  8
RACCORDO
100
AcDbLine
 62
7
  6
CONTINUOUS
 10
-2.6022397121
 20
-24.0084946474
 11
-1.2772550323
 21
-24.6709869873
  0
LINE
  5
247
100
AcDbEntity
  8
RACCORDO
100
AcDbLine
 62
253
  6
CONTINUOUS
 10
-2.6672130085
 20
-23.8732761973
 11
-1.3422283287
 21
-24.5357685372
  0
LINE
  5
248
100
AcDbEntity
  8
RACCORDO
100
AcDbLine
 62
253
  6
CONTINUOUS
 10
-1.3422283287
 20
-24.1957946031
 11
-2.5522852363
 21
-23.5907661493
  0
LINE
  5
249
100
AcDbEntity
  8
RACCORDO
100
AcDbLine
 62
253
  6
CONTINUOUS
 10
-1.253839981
 20
-23.9641004292
 11
-2.2498625336
 21
-23.466089153
  0
LINE
  5
24A
100
AcDbEntity
  8
RACCORDO
100
AcDbLine
 62
7
  6
CONTINUOUS
 10
-1.0940632519
 20
-22.9877703603
 11
-0.631521949
 21
-23.2190410117
  0
LWPOLYLINE
  5
24B
100
AcDbEntity
  8
RACCORDO
100
AcDbPolyline
 62
253
  6
CONTINUOUS
 90
16
 70
0
 10
-2.6672130085
 20
-23.8732761973
 10
-2.6761900757
 20
-23.8685471882
 10
-2.6846617683
 20
-23.8635905697
 10
-2.6926050377
 20
-23.8584198271
 10
-2.6999982727
 20
-23.8530490283
 10
-2.706821359
 20
-23.8474927855
 10
-2.713055733
 20
-23.8417662153
 10
-2.7186844332
 20
-23.8358848979
 10
-2.7236921457
 20
-23.8298648344
 10
-2.7280652461
 20
-23.8237224033
 10
-2.7317918368
 20
-23.8174743163
 10
-2.7348617788
 20
-23.8111375723
 10
-2.73726672
 20
-23.8047294115
 10
-2.7390001171
 20
-23.7982672683
 10
-2.7400572544
 20
-23.7917687241
 10
-2.7404363132
 20
-23.7848878496
  0
LWPOLYLINE
  5
24C
100
AcDbEntity
  8
RACCORDO
100
AcDbPolyline
 62
253
  6
CONTINUOUS
 90
18
 70
0
 10
-20.8964310548
 20
19.4898755751
 10
-20.8962228184
 20
19.4784835766
 10
-20.8949007988
 20
19.4673095755
 10
-20.8924750957
 20
19.4561496456
 10
-20.8889510828
 20
19.4450285095
 10
-20.8843365669
 20
19.4339708042
 10
-20.8786417704
 20
19.4230010258
 10
-20.8718793093
 20
19.4121434758
 10
-20.8640641644
 20
19.4014222071
 10
-20.8552136488
 20
19.3908609706
 10
-20.845347369
 20
19.3804831628
 10
-20.834487182
 20
19.3703117738
 10
-20.8226571466
 20
19.3603693364
 10
-20.8098834698
 20
19.3506778761
 10
-20.7961944494
 20
19.3412588625
 10
-20.7816204109
 20
19.3321331618
 10
-20.7661936403
 20
19.3233209902
 10
-20.7499483126
 20
19.3148418694
  0
LINE
  5
24D
100
AcDbEntity
  8
RACCORDO
100
AcDbLine
 62
7
  6
CONTINUOUS
 10
-5.1065911864
 20
22.6740690309
 11
-6.0366160051
 21
21.8824412606
  0
LINE
  5
24E
100
AcDbEntity
  8
0
100
AcDbLine
 62
253
  6
CONTINUOUS
 10
-5.0099244886
 20
22.6738936092
 11
-5.9755904306
 21
21.8519284734
  0
LWPOLYLINE
  5
24F
100
AcDbEntity
  8
RACCORDO
100
AcDbPolyline
 62
7
  6
CONTINUOUS
 90
5
 70
0
 10
-5.1065777387
 20
22.6740805852
 10
-5.1043346597
 20
22.6758964583
 10
-5.1010517213
 20
22.6782452973
 10
-5.0976130368
 20
22.6803599187
 10
-5.0948877916
 20
22.6818136747
  0
LINE
  5
250
100
AcDbEntity
  8
RACCORDO
100
AcDbLine
 62
7
  6
CONTINUOUS
 10
-5.0948803295
 20
22.6818174057
 11
-5.0333306913
 21
22.7125922249
  0
LINE
  5
251
100
AcDbEntity
  8
RACCORDO
100
AcDbLine
 62
253
  6
CONTINUOUS
 10
-5.0099244886
 20
22.6738936092
 11
-4.9438879722
 21
22.7069118674
  0
LWPOLYLINE
  5
252
100
AcDbEntity
  8
RACCORDO
100
AcDbPolyline
 62
7
  6
CONTINUOUS
 90
20
 70
0
 10
-5.0948877916
 20
22.6818136747
 10
-5.0940218592
 20
22.6822378228
 10
-5.090283668
 20
22.6838758397
 10
-5.0864043105
 20
22.6852710552
 10
-5.0823878739
 20
22.6864218848
 10
-5.0782403678
 20
22.687326223
 10
-5.0739681567
 20
22.687982227
 10
-5.0695761088
 20
22.6883892603
 10
-5.0650706931
 20
22.6885463172
 10
-5.060458709
 20
22.6884526572
 10
-5.0557457254
 20
22.6881086047
 10
-5.0509385867
 20
22.6875142724
 10
-5.0460444432
 20
22.6866700333
 10
-5.0410694829
 20
22.6855771632
 10
-5.0360208431
 20
22.6842368955
 10
-5.0309059308
 20
22.6826507131
 10
-5.0257314517
 20
22.6808208116
 10
-5.0205046147
 20
22.6787495562
 10
-5.0152331221
 20
22.6764394887
 10
-5.0099244886
 20
22.6738936092
  0
LWPOLYLINE
  5
253
100
AcDbEntity
  8
RACCORDO
100
AcDbPolyline
 62
253
  6
CONTINUOUS
 90
55
 70
0
 10
-4.9438879722
 20
22.7069118674
 10
-4.9281368659
 20
22.7145795953
 10
-4.9120074609
 20
22.7220246557
 10
-4.895499757
 20
22.7292470485
 10
-4.8786003996
 20
22.736251979
 10
-4.8613227433
 20
22.7430342419
 10
-4.8437068527
 20
22.7495782213
 10
-4.8257522535
 20
22.7558831682
 10
-4.80745942
 20
22.7619498315
 10
-4.7888698388
 20
22.7677648422
 10
-4.7699829267
 20
22.7733275569
 10
-4.7507992669
 20
22.7786386189
 10
-4.7313620958
 20
22.7836865891
 10
-4.7116709354
 20
22.7884708219
 10
-4.6917262636
 20
22.7929919629
 10
-4.6715727512
 20
22.7972405089
 10
-4.6512099392
 20
22.8012158214
 10
-4.6306382865
 20
22.804918539
 10
-4.6099038404
 20
22.808341074
 10
-4.5890063697
 20
22.8114827584
 10
-4.5679461056
 20
22.8143442603
 10
-4.5467697898
 20
22.8169199965
 10
-4.5254772648
 20
22.8192093078
 10
-4.504068688
 20
22.8212128535
 10
-4.4825912738
 20
22.8229270281
 10
-4.4610450366
 20
22.8243511758
 10
-4.439429962
 20
22.8254859523
 10
-4.4177932209
 20
22.8263297192
 10
-4.3961348657
 20
22.8268818371
 10
-4.3744548441
 20
22.8271429453
 10
-4.3528001698
 20
22.8271133235
 10
-4.3311710571
 20
22.8267923474
 10
-4.3095672919
 20
22.8261806413
 10
-4.2880352446
 20
22.8252803575
 10
-4.2665751562
 20
22.8240908886
 10
-4.2451867858
 20
22.8226128421
 10
-4.2239157817
 20
22.8208501925
 10
-4.2027625406
 20
22.8188023589
 10
-4.1817266658
 20
22.8164699221
 10
-4.1608526154
 20
22.8138585993
 10
-4.1401408623
 20
22.810967841
 10
-4.1195909336
 20
22.8077981967
 10
-4.0992458681
 20
22.8043570309
 10
-4.0791062056
 20
22.8006438261
 10
-4.0591714063
 20
22.7966590999
 10
-4.03948289
 20
22.7924117696
 10
-4.02004113
 20
22.7879013144
 10
-4.0008456529
 20
22.7831282551
 10
-3.9819364584
 20
22.7781030709
 10
-3.9633140604
 20
22.772825224
 10
-3.9449779449
 20
22.7672952522
 10
-3.9269665692
 20
22.7615252483
 10
-3.9092927524
 20
22.7555192433
 10
-3.8919436755
 20
22.7492732063
 10
-3.8749193384
 20
22.7427871371
  0
LWPOLYLINE
  5
254
100
AcDbEntity
  8
RACCORDO
100
AcDbPolyline
 62
253
  6
CONTINUOUS
 90
17
 70
0
 10
-5.0333306912
 20
22.7125922249
 10
-5.0299798343
 20
22.7141655516
 10
-5.0250039248
 20
22.7161460631
 10
-5.0198736066
 20
22.7177792912
 10
-5.0145986454
 20
22.7190621267
 10
-5.0091890824
 20
22.7199921279
 10
-5.0036552152
 20
22.7205675243
 10
-4.9980075776
 20
22.7207872207
 10
-4.9922569204
 20
22.7206507989
 10
-4.9864141902
 20
22.7201585187
 10
-4.9804905089
 20
22.719311317
 10
-4.9744971527
 20
22.7181108065
 10
-4.9684455303
 20
22.7165592727
 10
-4.9623471612
 20
22.7146596688
 10
-4.9562136541
 20
22.7124156109
 10
-4.9500566844
 20
22.7098313707
 10
-4.9438879722
 20
22.7069118674
  0
LWPOLYLINE
  5
255
100
AcDbEntity
  8
ASSI
100
AcDbPolyline
 62
7
  6
CONTINUOUS
 90
16
 70
0
 10
0.9099947054
 20
23.018989264
 10
0.9221386435
 20
23.0224783844
 10
0.9348673617
 20
23.0252013855
 10
0.9481747439
 20
23.0271414271
 10
0.9620614761
 20
23.0282959173
 10
0.9765094877
 20
23.0286327971
 10
0.9914793885
 20
23.0280923916
 10
1.0069530226
 20
23.0266515963
 10
1.0229145412
 20
23.0243022833
 10
1.0393215346
 20
23.0210103933
 10
1.0561131004
 20
23.0167712723
 10
1.0733013619
 20
23.0115639392
 10
1.0909537821
 20
23.0053258306
 10
1.1090515868
 20
22.9980410043
 10
1.1275619681
 20
22.9896878169
 10
1.136560772
 20
22.9852985825
  0
LWPOLYLINE
  5
256
100
AcDbEntity
  8
RACCORDO
100
AcDbPolyline
 62
253
  6
CONTINUOUS
 90
5
 70
0
 10
1.0738365235
 20
-22.8262214934
 10
1.072262824
 20
-22.8254530784
 10
1.0652351241
 20
-22.8224468729
 10
1.0579507426
 20
-22.8200062499
 10
1.0504277982
 20
-22.81813728
  0
LINE
  5
257
100
AcDbEntity
  8
RACCORDO
100
AcDbLine
 62
253
  6
CONTINUOUS
 10
0.6115744218
 20
-22.5987105918
 11
1.0504277982
 21
-22.81813728
  0
LINE
  5
258
100
AcDbEntity
  8
RACCORDO
100
AcDbLine
 62
7
  6
CONTINUOUS
 10
0.6115744218
 20
-22.5950904423
 11
1.0738428494
 21
-22.8262246561
  0
LWPOLYLINE
  5
259
100
AcDbEntity
  8
RACCORDO
100
AcDbPolyline
 62
253
  6
CONTINUOUS
 90
7
 70
0
 10
-18.3353166439
 20
-3.2913325553
 10
-18.341886987
 20
-1.9915015675
 10
-18.3452276191
 20
-0.6900655316
 10
-18.3453385102
 20
0.6129637668
 10
-18.3422196593
 20
1.9175745271
 10
-18.3358710945
 20
3.2237549345
 10
-18.3262928727
 20
4.5314931598
  0
LWPOLYLINE
  5
25A
100
AcDbEntity
  8
RACCORDO
100
AcDbPolyline
 62
253
  6
CONTINUOUS
 90
7
 70
0
 10
-17.6338600237
 20
-2.857861474
 10
-17.6389010859
 20
-1.7028890684
 10
-17.6413913558
 20
-0.5466645462
 10
-17.6413308334
 20
0.6108120929
 10
-17.6387195185
 20
1.7695408487
 10
-17.6335574112
 20
2.9295217213
 10
-17.6266355
 20
3.9716656688
  0
LINE
  5
25B
100
AcDbEntity
  8
DRAFT
100
AcDbLine
 62
7
  6
CONTINUOUS
 10
-16.8539630735
 20
-2.4663856119
 11
-16.8539630735
 21
3.5853294556
  0
LINE
  5
25C
100
AcDbEntity
  8
0
100
AcDbLine
 62
7
  6
CONTINUOUS
 10
-16.8009300649
 20
2.384249553
 11
-16.8009300649
 21
0.9120063665
  0
LWPOLYLINE
  5
25D
100
AcDbEntity
  8
RACCORDO
100
AcDbPolyline
 62
253
  6
CONTINUOUS
 90
27
 70
0
 10
-14.7027119563
 20
24.1727097347
 10
-14.7005672565
 20
24.1847653344
 10
-14.6979578734
 20
24.1969013722
 10
-14.6948909061
 20
24.20908483
 10
-14.6913746988
 20
24.2212825607
 10
-14.687418818
 20
24.2334613782
 10
-14.6830340263
 20
24.245588148
 10
-14.6782322533
 20
24.2576298771
 10
-14.673026563
 20
24.269553804
 10
-14.6674311184
 20
24.2813274877
 10
-14.6614611429
 20
24.2929188958
 10
-14.6551328787
 20
24.3042964919
 10
-14.648463543
 20
24.3154293214
 10
-14.6414712809
 20
24.3262870955
 10
-14.634175116
 20
24.3368402738
 10
-14.6265948987
 20
24.3470601445
 10
-14.6187512522
 20
24.3569189029
 10
-14.6106655167
 20
24.3663897265
 10
-14.6023596906
 20
24.3754468482
 10
-14.5938563715
 20
24.3840656267
 10
-14.5851786939
 20
24.3922226131
 10
-14.5763502671
 20
24.3998956149
 10
-14.5673951102
 20
24.4070637565
 10
-14.5583375873
 20
24.4137075357
 10
-14.5492023408
 20
24.4198088769
 10
-14.5400142248
 20
24.4253511805
 10
-14.5307982371
 20
24.4303193676
  0
LINE
  5
25E
100
AcDbEntity
  8
RACCORDO
100
AcDbLine
 62
7
  6
CONTINUOUS
 10
-3.8078429606
 20
18.8535507803
 11
-4.1655221099
 21
18.6539548285
  0
LINE
  5
25F
100
AcDbEntity
  8
RACCORDO
100
AcDbLine
 62
7
  6
CONTINUOUS
 10
-4.1655221099
 20
19.8866818008
 11
-3.8078429606
 21
20.0659863456
  0
LINE
  5
260
100
AcDbEntity
  8
ASSI
100
AcDbLine
 62
7
  6
CONTINUOUS
 10
-3.8078429606
 20
20.0659863456
 11
1.4666491085
 21
22.6962954795
  0
LINE
  5
261
100
AcDbEntity
  8
DRAFT
100
AcDbLine
 62
7
  6
CONTINUOUS
 10
-3.8078429606
 20
18.8535507803
 11
1.5169911096
 21
21.4898822122
  0
LINE
  5
262
100
AcDbEntity
  8
ASSI
100
AcDbLine
 62
7
  6
CONTINUOUS
 10
0.8611186739
 20
22.9990606969
 11
-3.7371322825
 21
20.7326993993
  0
LINE
  5
263
100
AcDbEntity
  8
RACCORDO
100
AcDbLine
 62
7
  6
CONTINUOUS
 10
2.27944595
 20
22.8115018848
 11
1.6405851735
 21
22.4988997597
  0
LWPOLYLINE
  5
264
100
AcDbEntity
  8
ASSI
100
AcDbPolyline
 62
7
  6
CONTINUOUS
 90
7
 70
0
 10
0.8611186739
 20
22.9990606969
 10
0.8693279332
 20
23.002988182
 10
0.877511891
 20
23.0066732441
 10
0.885670547
 20
23.0101158834
 10
0.8938039015
 20
23.0133160998
 10
0.9019119542
 20
23.0162738933
 10
0.9099947054
 20
23.018989264
  0
LWPOLYLINE
  5
265
100
AcDbEntity
  8
RACCORDO
100
AcDbPolyline
 62
7
  6
CONTINUOUS
 90
18
 70
0
 10
2.27944595
 20
22.8115018848
 10
2.3078204708
 20
22.8246838416
 10
2.3360549228
 20
22.8364182334
 10
2.364149306
 20
22.8467050601
 10
2.3921536191
 20
22.8555571947
 10
2.4200178633
 20
22.8629617642
 10
2.447592043
 20
22.8688801499
 10
2.4748611716
 20
22.8733035711
 10
2.5018402356
 20
22.8762408085
 10
2.5284241982
 20
22.8776795844
 10
2.5546291571
 20
22.8776124478
 10
2.5804390146
 20
22.8760468499
 10
2.6057004408
 20
22.8729928664
 10
2.6303901942
 20
22.8684470821
 10
2.6545315163
 20
22.8624129122
 10
2.6780408026
 20
22.8549106794
 10
2.7009365828
 20
22.8459252648
 10
2.7204986671
 20
22.8368355317
  0
LINE
  5
266
100
AcDbEntity
  8
RACCORDO
100
AcDbLine
 62
7
  6
CONTINUOUS
 10
-4.7291894126
 20
19.7544041365
 11
-4.8167729935
 21
19.7284289311
  0
LWPOLYLINE
  5
267
100
AcDbEntity
  8
RACCORDO
100
AcDbPolyline
 62
7
  6
CONTINUOUS
 90
4
 70
0
 10
-4.8167729935
 20
19.7284289311
 10
-4.8499673329
 20
19.7187651273
 10
-4.8604167653
 20
19.7158049919
 10
-4.8705660292
 20
19.713002376
  0
LWPOLYLINE
  5
268
100
AcDbEntity
  8
RACCORDO
100
AcDbPolyline
 62
253
  6
CONTINUOUS
 90
19
 70
0
 10
-16.0315311729
 20
24.4484609584
 10
-16.0313113183
 20
24.4377763019
 10
-16.030652301
 20
24.4273380755
 10
-16.0295557602
 20
24.417172243
 10
-16.0280244293
 20
24.4073041244
 10
-16.0260621141
 20
24.3977582298
 10
-16.0236736682
 20
24.3885582094
 10
-16.0208649981
 20
24.3797268975
 10
-16.0176430926
 20
24.3712863404
 10
-16.014015995
 20
24.3632576321
 10
-16.0099927154
 20
24.3556607212
 10
-16.0055832729
 20
24.3485145304
 10
-16.0007987363
 20
24.341836965
 10
-15.9956511029
 20
24.3356446877
 10
-15.9901531349
 20
24.3299529753
 10
-15.9843184012
 20
24.3247758491
 10
-15.9781601848
 20
24.320125334
 10
-15.9716949106
 20
24.3160140604
 10
-15.9665567259
 20
24.313241933
  0
LINE
  5
269
100
AcDbEntity
  8
RACCORDO
100
AcDbLine
 62
253
  6
CONTINUOUS
 10
-15.5921066684
 20
-7.0693463887
 11
-15.5975175813
 21
-6.5519280635
  0
LINE
  5
26A
100
AcDbEntity
  8
RACCORDO
100
AcDbLine
 62
253
  6
CONTINUOUS
 10
-14.8926691928
 20
-6.6344857801
 11
-14.897646657
 21
-6.1173665603
  0
LINE
  5
26B
100
AcDbEntity
  8
RACCORDO
100
AcDbLine
 62
253
  6
CONTINUOUS
 10
-15.5975175813
 20
-6.5519280635
 11
-15.6024139764
 21
-6.0342494149
  0
LINE
  5
26C
100
AcDbEntity
  8
RACCORDO
100
AcDbLine
 62
253
  6
CONTINUOUS
 10
-16.3448760934
 20
-5.6630183563
 11
-16.3487964862
 21
-5.2026439836
  0
LINE
  5
26D
100
AcDbEntity
  8
RACCORDO
100
AcDbLine
 62
253
  6
CONTINUOUS
 10
-14.897646657
 20
-6.1173665603
 11
-14.9021098625
 21
-5.5999819949
  0
LINE
  5
26E
100
AcDbEntity
  8
RACCORDO
100
AcDbLine
 62
253
  6
CONTINUOUS
 10
-15.6445719083
 20
-5.2287508967
 11
-15.6481078422
 21
-4.768646145
  0
LINE
  5
26F
100
AcDbEntity
  8
RACCORDO
100
AcDbLine
 62
253
  6
CONTINUOUS
 10
-16.3487964862
 20
-5.2026439836
 11
-16.3523103424
 21
-4.7420650393
  0
LINE
  5
270
100
AcDbEntity
  8
RACCORDO
100
AcDbLine
 62
253
  6
CONTINUOUS
 10
-16.3523103424
 20
-4.7420650393
 11
-16.3554176579
 21
-4.2812820483
  0
LINE
  5
271
100
AcDbEntity
  8
RACCORDO
100
AcDbLine
 62
253
  6
CONTINUOUS
 10
-15.6481078422
 20
-4.768646145
 11
-15.6512375807
 21
-4.3083328501
  0
LINE
  5
272
100
AcDbEntity
  8
RACCORDO
100
AcDbLine
 62
253
  6
CONTINUOUS
 10
-15.6512375807
 20
-4.3083328501
 11
-15.6539611239
 21
-3.8478110122
  0
LINE
  5
273
100
AcDbEntity
  8
0
100
AcDbLine
 62
7
  6
CONTINUOUS
 10
-16.6418310392
 20
3.4792634384
 11
-16.6418310392
 21
2.3047000401
  0
LINE
  5
274
100
AcDbEntity
  8
0
100
AcDbLine
 62
7
  6
CONTINUOUS
 10
-16.6418310392
 20
0.8324568537
 11
-16.6418310392
 21
-2.068728249
  0
LINE
  5
275
100
AcDbEntity
  8
RACCORDO
100
AcDbLine
 62
7
  6
CONTINUOUS
 10
-16.1047544776
 20
24.8768232402
 11
-16.1047544776
 21
24.5368493061
  0
LINE
  5
276
100
AcDbEntity
  8
RACCORDO
100
AcDbLine
 62
253
  6
CONTINUOUS
 10
-16.0315311729
 20
24.7884348926
 11
-16.0315311729
 21
24.4484609584
  0
LINE
  5
277
100
AcDbEntity
  8
RACCORDO
100
AcDbLine
 62
7
  6
CONTINUOUS
 10
-15.4017615234
 20
23.5768721389
 11
-15.4017615234
 21
24.0308443318
  0
LINE
  5
278
100
AcDbEntity
  8
RACCORDO
100
AcDbLine
 62
253
  6
CONTINUOUS
 10
-15.3285382187
 20
23.4851585352
 11
-15.3285382187
 21
23.9942326794
  0
LINE
  5
279
100
AcDbEntity
  8
DRAFT
100
AcDbLine
 62
7
  6
CONTINUOUS
 10
-14.8740640862
 20
-4.8419757516
 11
-14.8740640862
 21
-3.4563351055
  0
LINE
  5
27A
100
AcDbEntity
  8
0
100
AcDbLine
 62
7
  6
CONTINUOUS
 10
-14.767998069
 20
-3.0056447341
 11
-14.767998069
 21
-4.3912853802
  0
LINE
  5
27B
100
AcDbEntity
  8
RACCORDO
100
AcDbLine
 62
253
  6
CONTINUOUS
 10
-14.7065464931
 20
23.7859686185
 11
-14.7065464931
 21
24.1259425527
  0
LWPOLYLINE
  5
27C
100
AcDbEntity
  8
RACCORDO
100
AcDbPolyline
 62
253
  6
CONTINUOUS
 90
31
 70
0
 10
-16.0315311729
 20
24.7884348926
 10
-16.0312905917
 20
24.799846802
 10
-16.0305695005
 20
24.8114682586
 10
-16.0293698587
 20
24.8232676317
 10
-16.0276949262
 20
24.8352128183
 10
-16.0255492597
 20
24.8472712934
 10
-16.0229387051
 20
24.8594101972
 10
-16.0198703716
 20
24.8715964793
 10
-16.0163526103
 20
24.8837969788
 10
-16.0123950011
 20
24.8959784757
 10
-16.0080083192
 20
24.9081078113
 10
-16.0032045062
 20
24.9201519734
 10
-15.9979966415
 20
24.9320781754
 10
-15.9923988962
 20
24.9438539701
 10
-15.9864265146
 20
24.9554472925
 10
-15.9800957803
 20
24.9668265447
 10
-15.9734239593
 20
24.9779607125
 10
-15.966429191
 20
24.988819544
 10
-15.9591304541
 20
24.99937358
 10
-15.9515475115
 20
25.0095942228
 10
-15.9437010932
 20
25.0194535117
 10
-15.9356128019
 20
25.0289243279
 10
-15.9273048341
 20
25.037980756
 10
-15.9187996618
 20
25.0465983726
 10
-15.910120199
 20
25.0547539864
 10
-15.9012881085
 20
25.0624270349
 10
-15.8923293255
 20
25.0695947825
 10
-15.8832739886
 20
25.0762336891
 10
-15.8741488199
 20
25.0823254865
 10
-15.8649768153
 20
25.0878561338
 10
-15.855782917
 20
25.0928117075
  0
LWPOLYLINE
  5
27D
100
AcDbEntity
  8
RACCORDO
100
AcDbPolyline
 62
253
  6
CONTINUOUS
 90
5
 70
0
 10
-14.7065464931
 20
24.1259425527
 10
-14.7063060176
 20
24.1373519285
 10
-14.7055852454
 20
24.1489707388
 10
-14.7043861375
 20
24.1607673724
 10
-14.7027119563
 20
24.1727097347
  0
LWPOLYLINE
  5
27E
100
AcDbEntity
  8
RACCORDO
100
AcDbPolyline
 62
7
  6
CONTINUOUS
 90
5
 70
0
 10
-10.5234982991
 20
22.8532692653
 10
-10.5255348424
 20
22.8441478674
 10
-10.5270492013
 20
22.8343142698
 10
-10.528005585
 20
22.8238561099
 10
-10.5283373318
 20
22.8121823536
  0
LINE
  5
27F
100
AcDbEntity
  8
RACCORDO
100
AcDbLine
 62
7
  6
CONTINUOUS
 10
-1.0213787237
 20
19.2292976477
 11
-2.6045504187
 21
18.4171006005
  0
LINE
  5
280
100
AcDbEntity
  8
RACCORDO
100
AcDbLine
 62
253
  6
CONTINUOUS
 10
-0.9087081494
 20
19.2226367227
 11
-2.4914647525
 21
18.4106526253
  0
LINE
  5
281
100
AcDbEntity
  8
RACCORDO
100
AcDbLine
 62
253
  6
CONTINUOUS
 10
0.4348007181
 20
18.5508822889
 11
-1.1664800727
 21
17.7481602854
  0
LINE
  5
282
100
AcDbEntity
  8
RACCORDO
100
AcDbLine
 62
253
  6
CONTINUOUS
 10
0.6115744218
 20
18.2459927501
 11
-0.989706369
 21
17.4432707466
  0
LINE
  5
283
100
AcDbEntity
  8
RACCORDO
100
AcDbLine
 62
7
  6
CONTINUOUS
 10
-1.0196403382
 20
19.2301668805
 11
-1.02137675
 21
19.2292986603
  0
LINE
  5
284
100
AcDbEntity
  8
RACCORDO
100
AcDbLine
 62
253
  6
CONTINUOUS
 10
0.9630678899
 20
18.8143211089
 11
0.4348007181
 21
18.5508822889
  0
LINE
  5
285
100
AcDbEntity
  8
RACCORDO
100
AcDbLine
 62
253
  6
CONTINUOUS
 10
1.1398415935
 20
18.5094315701
 11
0.6115744218
 21
18.2459927501
  0
LINE
  5
286
100
AcDbEntity
  8
RACCORDO
100
AcDbLine
 62
7
  6
CONTINUOUS
 10
-0.4847703818
 20
19.4907189803
 11
-1.0196375726
 21
19.2301682277
  0
LINE
  5
287
100
AcDbEntity
  8
RACCORDO
100
AcDbLine
 62
253
  6
CONTINUOUS
 10
-0.3742582707
 20
19.4829841892
 11
-0.9087081494
 21
19.2226367227
  0
LINE
  5
288
100
AcDbEntity
  8
RACCORDO
100
AcDbLine
 62
7
  6
CONTINUOUS
 10
5.3464118939
 20
21.2780189129
 11
0.6628750144
 21
19.0263949176
  0
LWPOLYLINE
  5
289
100
AcDbEntity
  8
RACCORDO
100
AcDbPolyline
 62
7
  6
CONTINUOUS
 90
18
 70
0
 10
-0.4847703818
 20
19.4907189803
 10
-0.472549422
 20
19.4962713465
 10
-0.4599202984
 20
19.5012057866
 10
-0.4469214992
 20
19.5054844155
 10
-0.4335762487
 20
19.5090769894
 10
-0.4199505194
 20
19.5119452166
 10
-0.4061515606
 20
19.5140546885
 10
-0.3922525785
 20
19.5153909366
 10
-0.3782831572
 20
19.5159493243
 10
-0.3642823057
 20
19.5157249713
 10
-0.3503088414
 20
19.514716365
 10
-0.3364030861
 20
19.5129248975
 10
-0.3225696463
 20
19.5103459052
 10
-0.3088015848
 20
19.506964643
 10
-0.2952005358
 20
19.5027925445
 10
-0.2819147053
 20
19.4978760335
 10
-0.26898055
 20
19.4922392432
 10
-0.2634773062
 20
19.4895710776
  0
LWPOLYLINE
  5
28A
100
AcDbEntity
  8
RACCORDO
100
AcDbPolyline
 62
253
  6
CONTINUOUS
 90
31
 70
0
 10
-14.3540245335
 20
24.1254298288
 10
-14.3543196279
 20
24.136858068
 10
-14.3550958115
 20
24.1484987633
 10
-14.3563509589
 20
24.160319997
 10
-14.3580816333
 20
24.1722893672
 10
-14.3602830911
 20
24.184374043
 10
-14.3629492904
 20
24.196540853
 10
-14.3660729171
 20
24.208756427
 10
-14.3696454066
 20
24.2209872771
 10
-14.3736569579
 20
24.2331998542
 10
-14.3780965681
 20
24.2453606689
 10
-14.3829520622
 20
24.2574363785
 10
-14.3882101223
 20
24.2693938673
 10
-14.3938563349
 20
24.2812003623
 10
-14.3998752101
 20
24.292823477
 10
-14.4062502163
 20
24.3042312985
 10
-14.4129638387
 20
24.3153925051
 10
-14.4199976892
 20
24.3262765465
 10
-14.4273325409
 20
24.3368536753
 10
-14.4349483848
 20
24.3470950174
 10
-14.442824248
 20
24.3569723501
 10
-14.45093829
 20
24.3664583081
 10
-14.4592680819
 20
24.3755267446
 10
-14.4677909246
 20
24.3841530199
 10
-14.4764836831
 20
24.3923137439
 10
-14.4853244711
 20
24.3999881641
 10
-14.4942871614
 20
24.4071533981
 10
-14.5033414666
 20
24.4137858017
 10
-14.5124605111
 20
24.4198670027
 10
-14.5216211296
 20
24.425382856
 10
-14.5307982371
 20
24.4303193676
  0
LWPOLYLINE
  5
28B
100
AcDbEntity
  8
RACCORDO
100
AcDbPolyline
 62
253
  6
CONTINUOUS
 90
19
 70
0
 10
-14.7065464931
 20
23.7859686185
 10
-14.7063266384
 20
23.775283962
 10
-14.7056676212
 20
23.7648457355
 10
-14.7045710804
 20
23.7546799031
 10
-14.7030397495
 20
23.7448117845
 10
-14.7010774342
 20
23.7352658899
 10
-14.6986889884
 20
23.7260658695
 10
-14.6958803183
 20
23.7172345575
 10
-14.6926584128
 20
23.7087940005
 10
-14.6890313152
 20
23.7007652921
 10
-14.6850080356
 20
23.6931683813
 10
-14.6805985931
 20
23.6860221905
 10
-14.6758140565
 20
23.6793446251
 10
-14.6706664231
 20
23.6731523478
 10
-14.6651684551
 20
23.6674606354
 10
-14.6593337214
 20
23.6622835092
 10
-14.6531755049
 20
23.6576329941
 10
-14.6467102307
 20
23.6535217205
 10
-14.6415838298
 20
23.6507554858
  0
LWPOLYLINE
  5
28C
100
AcDbEntity
  8
RACCORDO
100
AcDbPolyline
 62
7
  6
CONTINUOUS
 90
34
 70
0
 10
-12.7527437426
 20
24.9281518323
 10
-12.7529437987
 20
24.9385536409
 10
-12.7535440361
 20
24.949132009
 10
-12.7545429941
 20
24.9598630271
 10
-12.7559382297
 20
24.9707224802
 10
-12.7577265779
 20
24.9816857727
 10
-12.7599041593
 20
24.9927279836
 10
-12.7624659838
 20
25.0038241305
 10
-12.765406158
 20
25.0149491239
 10
-12.768718153
 20
25.0260776944
 10
-12.7723944301
 20
25.0371846522
 10
-12.7764265904
 20
25.0482448734
 10
-12.7808055877
 20
25.0592332546
 10
-12.7855214883
 20
25.0701249122
 10
-12.7905635583
 20
25.0808951993
 10
-12.7959204189
 20
25.0915196906
 10
-12.8015799431
 20
25.1019743151
 10
-12.8075292811
 20
25.1122354052
 10
-12.8137549528
 20
25.1222797116
 10
-12.8202428853
 20
25.1320844665
 10
-12.8269783742
 20
25.1416274637
 10
-12.8339461134
 20
25.1508871039
 10
-12.8411303705
 20
25.1598423863
 10
-12.8485148861
 20
25.1684730183
 10
-12.8560828405
 20
25.176759491
 10
-12.863817162
 20
25.1846829983
 10
-12.8717003679
 20
25.1922255744
 10
-12.8797144674
 20
25.1993701981
 10
-12.8878413978
 20
25.2061006409
 10
-12.8960628088
 20
25.2124016294
 10
-12.9043599055
 20
25.2182589767
 10
-12.9127138989
 20
25.2236594135
 10
-12.921106048
 20
25.2285906181
 10
-12.9295174463
 20
25.2330413711
  0
LINE
  5
28D
100
AcDbEntity
  8
RACCORDO
100
AcDbLine
 62
253
  6
CONTINUOUS
 10
-14.3540245335
 20
23.7854558947
 11
-14.3540245335
 21
24.1254298288
  0
LINE
  5
28E
100
AcDbEntity
  8
DRAFT
100
AcDbLine
 62
7
  6
CONTINUOUS
 10
-14.1316019659
 20
-6.2524372962
 11
-14.1316019659
 21
-5.2132068117
  0
LINE
  5
28F
100
AcDbEntity
  8
RACCORDO
100
AcDbLine
 62
253
  6
CONTINUOUS
 10
-13.995325885
 20
23.5073729914
 11
-13.995325885
 21
22.8185523684
  0
LINE
  5
290
100
AcDbEntity
  8
0
100
AcDbLine
 62
7
  6
CONTINUOUS
 10
-13.8770435247
 20
-4.8367626523
 11
-13.8770435247
 21
-5.6161855157
  0
LINE
  5
291
100
AcDbEntity
  8
0
100
AcDbLine
 62
7
  6
CONTINUOUS
 10
-13.7073378972
 20
-3.8609552943
 11
-13.7073378972
 21
-2.8650260799
  0
LINE
  5
292
100
AcDbEntity
  8
RACCORDO
100
AcDbLine
 62
253
  6
CONTINUOUS
 10
-13.6428039254
 20
23.6369523718
 11
-13.6428039254
 21
22.8293202501
  0
LINE
  5
293
100
AcDbEntity
  8
0
100
AcDbLine
 62
7
  6
CONTINUOUS
 10
-12.8163833529
 20
-4.3064325664
 11
-12.8163833529
 21
-5.0858554298
  0
LINE
  5
294
100
AcDbEntity
  8
RACCORDO
100
AcDbLine
 62
7
  6
CONTINUOUS
 10
-12.7527437426
 20
23.3260011713
 11
-12.7527437426
 21
24.9281518323
  0
LWPOLYLINE
  5
295
100
AcDbEntity
  8
RACCORDO
100
AcDbPolyline
 62
7
  6
CONTINUOUS
 90
15
 70
0
 10
-12.1522787139
 20
24.9319294556
 10
-12.152438475
 20
24.922995604
 10
-12.1531966335
 20
24.9105280951
 10
-12.154578429
 20
24.8981002902
 10
-12.1565826838
 20
24.8857423666
 10
-12.1592060437
 20
24.873487974
 10
-12.1624444003
 20
24.8613661812
 10
-12.1662917406
 20
24.8494081443
 10
-12.1707401068
 20
24.8376456424
 10
-12.1757805508
 20
24.8261084145
 10
-12.1814020944
 20
24.8148270327
 10
-12.1875920797
 20
24.8038316152
 10
-12.1943369171
 20
24.7931506121
 10
-12.20162127
 20
24.7828123853
 10
-12.2091170715
 20
24.7732226632
  0
LWPOLYLINE
  5
296
100
AcDbEntity
  8
RACCORDO
100
AcDbPolyline
 62
253
  6
CONTINUOUS
 90
16
 70
0
 10
-12.1522787139
 20
25.2794632878
 10
-12.1525799844
 20
25.2733284557
 10
-12.153559703
 20
25.2668255075
 10
-12.155216392
 20
25.2603569432
 10
-12.1575455435
 20
25.2539403765
 10
-12.1605408238
 20
25.2475932654
 10
-12.1641940827
 20
25.2413328886
 10
-12.1684953808
 20
25.2351762854
 10
-12.1734330133
 20
25.229140215
 10
-12.1789935386
 20
25.2232411125
 10
-12.1851618277
 20
25.2174950311
 10
-12.191921089
 20
25.2119176154
 10
-12.1992529028
 20
25.2065240632
 10
-12.207137301
 20
25.2013290587
 10
-12.2155528267
 20
25.1963467352
 10
-12.2244765709
 20
25.1915906523
  0
LWPOLYLINE
  5
297
100
AcDbEntity
  8
RACCORDO
100
AcDbPolyline
 62
253
  6
CONTINUOUS
 90
16
 70
0
 10
-12.1522787139
 20
24.9319294556
 10
-12.1525816371
 20
24.9257801448
 10
-12.1535628742
 20
24.9192783979
 10
-12.1552208319
 20
24.9128110789
 10
-12.1575509983
 20
24.9063957871
 10
-12.1605470339
 20
24.9000499748
 10
-12.1642007904
 20
24.8937909027
 10
-12.168502335
 20
24.8876355922
 10
-12.1734399607
 20
24.8816008005
 10
-12.1790002138
 20
24.8757029687
 10
-12.1851679473
 20
24.8699581544
 10
-12.1919263859
 20
24.8643819748
 10
-12.1992571565
 20
24.8589895865
 10
-12.2071403206
 20
24.8537956566
 10
-12.2155544232
 20
24.8488143219
 10
-12.2244765709
 20
24.8440591356
  0
LWPOLYLINE
  5
298
100
AcDbEntity
  8
RACCORDO
100
AcDbPolyline
 62
253
  6
CONTINUOUS
 90
141
 70
0
 10
-4.5508573037
 20
13.0353779954
 10
-4.5583770766
 20
13.0311299846
 10
-4.5658904204
 20
13.0267903166
 10
-4.5733982047
 20
13.0223584604
 10
-4.58089956
 20
13.017834947
 10
-4.5883918777
 20
13.0132213701
 10
-4.5958751201
 20
13.0085177343
 10
-4.6033493249
 20
13.003724035
 10
-4.6108119969
 20
12.9988418521
 10
-4.6182631295
 20
12.9938711492
 10
-4.6257027292
 20
12.9888119627
 10
-4.6331283198
 20
12.9836659819
 10
-4.6405398939
 20
12.9784331807
 10
-4.6479374589
 20
12.9731135853
 10
-4.6553185598
 20
12.9677089628
 10
-4.662683181
 20
12.9622192923
 10
-4.6700313382
 20
12.9566445947
 10
-4.6773606235
 20
12.9509867011
 10
-4.6846710177
 20
12.9452455958
 10
-4.6919625401
 20
12.9394212945
 10
-4.6992328394
 20
12.9335156753
 10
-4.7064819258
 20
12.9275286985
 10
-4.7137097893
 20
12.9214604038
 10
-4.720914048
 20
12.915312788
 10
-4.7280946981
 20
12.9090858213
 10
-4.7352517434
 20
12.9027795336
 10
-4.7423828138
 20
12.8963960112
 10
-4.7494879002
 20
12.8899352286
 10
-4.7565670117
 20
12.8833972114
 10
-4.7636178055
 20
12.8767841232
 10
-4.7706402705
 20
12.87009594
 10
-4.7776344177
 20
12.8633326857
 10
-4.784597937
 20
12.856496595
 10
-4.7915308187
 20
12.8495876431
 10
-4.7984330725
 20
12.8426058549
 10
-4.805302417
 20
12.83555354
 10
-4.8121388439
 20
12.8284306717
 10
-4.8189423615
 20
12.8212372768
 10
-4.8257107134
 20
12.8139757449
 10
-4.8324438775
 20
12.8066460647
 10
-4.8391418759
 20
12.7992482475
 10
-4.8458025181
 20
12.7917847169
 10
-4.8524257842
 20
12.7842554615
 10
-4.859011694
 20
12.7766604926
 10
-4.8655581171
 20
12.7690022678
 10
-4.8720650413
 20
12.7612807679
 10
-4.8785324786
 20
12.7534960121
 10
-4.8849583356
 20
12.7456505153
 10
-4.8913426044
 20
12.737744252
 10
-4.8976852928
 20
12.7297772478
 10
-4.90398433
 20
12.7217520936
 10
-4.9102397216
 20
12.713668744
 10
-4.9164514621
 20
12.7055272443
 10
-4.9226174639
 20
12.6973303219
 10
-4.9287377274
 20
12.6890779329
 10
-4.9348122522
 20
12.680770121
 10
-4.9408389499
 20
12.6724097448
 10
-4.9468177975
 20
12.6639967905
 10
-4.9527488179
 20
12.6555312718
 10
-4.9586299909
 20
12.6470160893
 10
-4.9644612503
 20
12.6384512993
 10
-4.9702426622
 20
12.6298368454
 10
-4.9759724053
 20
12.6211754587
 10
-4.9816504484
 20
12.6124671541
 10
-4.9872768227
 20
12.6037119167
 10
-4.9928498002
 20
12.5949124327
 10
-4.9983694164
 20
12.5860686074
 10
-5.0038356358
 20
12.5771805354
 10
-5.0092466235
 20
12.5682511876
 10
-5.0146023911
 20
12.5592804931
 10
-5.019902927
 20
12.5502685227
 10
-5.0251463618
 20
12.5412184595
 10
-5.0303326299
 20
12.5321303663
 10
-5.0354617968
 20
12.5230041804
 10
-5.0405321898
 20
12.5138428969
 10
-5.0455437522
 20
12.5046465801
 10
-5.0504965406
 20
12.4954151656
 10
-5.0553890527
 20
12.4861514557
 10
-5.0602212964
 20
12.4768553971
 10
-5.0649932638
 20
12.4675270431
 10
-5.0697034279
 20
12.458169355
 10
-5.0743518065
 20
12.4487822463
 10
-5.0789383819
 20
12.4393658035
 10
-5.0834615744
 20
12.4299232469
 10
-5.0879213651
 20
12.4204545541
 10
-5.0923177728
 20
12.4109597476
 10
-5.0966492745
 20
12.4014421148
 10
-5.1009158357
 20
12.3919016682
 10
-5.1051174909
 20
12.3823383954
 10
-5.1092528205
 20
12.3727555466
 10
-5.1133217808
 20
12.3631531646
 10
-5.1173244155
 20
12.3535312066
 10
-5.1212594358
 20
12.343892795
 10
-5.1251268135
 20
12.3342379453
 10
-5.1289265768
 20
12.3245666419
 10
-5.1326575219
 20
12.3148819608
 10
-5.1363196353
 20
12.3051838804
 10
-5.1399129305
 20
12.2954724222
 10
-5.1434362447
 20
12.2857507262
 10
-5.1468895645
 20
12.2760187631
 10
-5.1502729034
 20
12.2662765622
 10
-5.1535851376
 20
12.2565273521
 10
-5.1568262473
 20
12.2467711161
 10
-5.1599962524
 20
12.2370078709
 10
-5.163094089
 20
12.2272408954
 10
-5.1661197203
 20
12.2174702291
 10
-5.169073183
 20
12.2076958325
 10
-5.171953523
 20
12.197920866
 10
-5.1747607151
 20
12.1881453407
 10
-5.1774947846
 20
12.1783692454
 10
-5.1801548526
 20
12.1685957074
 10
-5.1827409046
 20
12.158824696
 10
-5.1852529551
 20
12.1490562417
 10
-5.1876901693
 20
12.1392935631
 10
-5.1900525416
 20
12.1295365671
 10
-5.1923400775
 20
12.1197853466
 10
-5.194551959
 20
12.1100433997
 10
-5.1966881453
 20
12.1003107708
 10
-5.1987486772
 20
12.0905874154
 10
-5.2007328599
 20
12.0808766979
 10
-5.2026406425
 20
12.0711787548
 10
-5.2044720759
 20
12.0614934497
 10
-5.2062266171
 20
12.0518237371
 10
-5.2079042396
 20
12.0421696866
 10
-5.2095049699
 20
12.0325312287
 10
-5.2110283449
 20
12.0229111101
 10
-5.2124743659
 20
12.0133092133
 10
-5.2138430317
 20
12.0037256558
 10
-5.2151338756
 20
11.994163537
 10
-5.2163468814
 20
11.9846227768
 10
-5.2174820653
 20
11.9751034552
 10
-5.2185390097
 20
11.9656089114
 10
-5.2195176817
 20
11.9561391606
 10
-5.2204181141
 20
11.9466941876
 10
-5.2212399876
 20
11.937277286
 10
-5.2219832734
 20
11.9278883888
 10
-5.2226480003
 20
11.918527563
 10
-5.2232339358
 20
11.9091983023
 10
-5.2237410024
 20
11.8999017714
 10
-5.2241692775
 20
11.8906368056
 10
-5.2245187611
 20
11.8814034049
  0
LINE
  5
299
100
AcDbEntity
  8
RACCORDO
100
AcDbLine
 62
253
  6
CONTINUOUS
 10
-1.9528782604
 20
14.4833910421
 11
-2.8471819805
 21
13.9813699
  0
LWPOLYLINE
  5
29A
100
AcDbEntity
  8
RACCORDO
100
AcDbPolyline
 62
253
  6
CONTINUOUS
 90
9
 70
0
 10
-2.8471819805
 20
13.9813699
 10
-3.0661011573
 20
13.8585625963
 10
-3.2817147201
 20
13.7378660683
 10
-3.4921048159
 20
13.6203467856
 10
-3.6991892975
 20
13.5049382787
 10
-3.907409985
 20
13.3893789421
 10
-4.1182474848
 20
13.2729149074
 10
-4.3302211904
 20
13.1563000431
 10
-4.5508573037
 20
13.0353779954
  0
LWPOLYLINE
  5
29B
100
AcDbEntity
  8
RACCORDO
100
AcDbPolyline
 62
253
  6
CONTINUOUS
 90
142
 70
0
 10
-4.9091638418
 20
13.6425367949
 10
-4.9203876449
 20
13.6362704581
 10
-4.9316040218
 20
13.6298654116
 10
-4.9428117555
 20
13.6233223662
 10
-4.9540096269
 20
13.6166420748
 10
-4.9651964239
 20
13.6098252523
 10
-4.9763709407
 20
13.6028725715
 10
-4.987531993
 20
13.5957847671
 10
-4.9986783409
 20
13.5885626545
 10
-5.0098086977
 20
13.5812070495
 10
-5.0209218586
 20
13.5737187709
 10
-5.0320166146
 20
13.5660986428
 10
-5.0430916754
 20
13.558347514
 10
-5.054145834
 20
13.5504662453
 10
-5.0651778964
 20
13.5424557081
 10
-5.0761865959
 20
13.5343167908
 10
-5.0871707237
 20
13.5260504074
 10
-5.0981291029
 20
13.5176574629
 10
-5.1090605192
 20
13.5091388542
 10
-5.119963767
 20
13.50049554
 10
-5.1308376833
 20
13.4917284625
 10
-5.1416811213
 20
13.4828385105
 10
-5.1524929291
 20
13.4738266444
 10
-5.163271908
 20
13.4646938799
 10
-5.1740168454
 20
13.4554412064
 10
-5.1847265807
 20
13.4460696398
 10
-5.1953999456
 20
13.4365802201
 10
-5.2060357218
 20
13.4269739919
 10
-5.2166327544
 20
13.4172520165
 10
-5.2271898939
 20
13.4074153672
 10
-5.237705937
 20
13.3974651268
 10
-5.2481797403
 20
13.3874023963
 10
-5.2586101697
 20
13.3772282854
 10
-5.2689960428
 20
13.3669439089
 10
-5.2793362336
 20
13.3565504018
 10
-5.2896296195
 20
13.3460489131
 10
-5.299875031
 20
13.3354405976
 10
-5.3100713607
 20
13.3247266226
 10
-5.3202174986
 20
13.3139081761
 10
-5.3303122797
 20
13.3029864621
 10
-5.3403545939
 20
13.2919627045
 10
-5.3503433682
 20
13.2808381048
 10
-5.3602775016
 20
13.2696138506
 10
-5.3701559043
 20
13.2582911952
 10
-5.3799775177
 20
13.2468713751
 10
-5.3897412951
 20
13.2353555661
 10
-5.3994461762
 20
13.2237450381
 10
-5.4090911081
 20
13.212041071
 10
-5.4186750629
 20
13.2002448675
 10
-5.4281970067
 20
13.1883577167
 10
-5.4376558971
 20
13.176380937
 10
-5.447050702
 20
13.1643157879
 10
-5.4563804295
 20
13.1521635576
 10
-5.4656440347
 20
13.1399256218
 10
-5.474840418
 20
13.1276033862
 10
-5.4839686056
 20
13.1151981732
 10
-5.4930275801
 20
13.1027113837
 10
-5.5020161918
 20
13.0901445606
 10
-5.5109334602
 20
13.0774991009
 10
-5.5197784267
 20
13.0647763914
 10
-5.5285499922
 20
13.0519779783
 10
-5.5372471361
 20
13.0391053863
 10
-5.5458689941
 20
13.0261599307
 10
-5.554414714
 20
13.0131428565
 10
-5.562883344
 20
13.0000556404
 10
-5.5712739943
 20
12.9868996858
 10
-5.5795859093
 20
12.973676132
 10
-5.5878182596
 20
12.9603863094
 10
-5.5959700718
 20
12.9470318017
 10
-5.6040403831
 20
12.9336141353
 10
-5.6120283642
 20
12.9201347037
 10
-5.619933097
 20
12.9065950723
 10
-5.6277535064
 20
12.8929970408
 10
-5.6354886823
 20
12.8793422253
 10
-5.6431378562
 20
12.8656320173
 10
-5.6507001853
 20
12.8518678928
 10
-5.6581747927
 20
12.8380514808
 10
-5.6655609326
 20
12.8241841944
 10
-5.672857966
 20
12.8102671893
 10
-5.6800651324
 20
12.7963019285
 10
-5.6871816117
 20
12.7822900148
 10
-5.6942066801
 20
12.7682328167
 10
-5.701139625
 20
12.7541317635
 10
-5.7079796305
 20
12.7399885191
 10
-5.7147258336
 20
12.7258048115
 10
-5.7213775076
 20
12.7115821827
 10
-5.7279339196
 20
12.6973222154
 10
-5.7343942214
 20
12.6830267092
 10
-5.7407576995
 20
12.66869727
 10
-5.7470236803
 20
12.6543354443
 10
-5.753191399
 20
12.6399429505
 10
-5.7592601601
 20
12.625521448
 10
-5.7652293425
 20
12.6110724517
 10
-5.7710983105
 20
12.5965974689
 10
-5.7768664186
 20
12.5820981235
 10
-5.7825330576
 20
12.5675759813
 10
-5.7880976572
 20
12.5530324656
 10
-5.7935596236
 20
12.5384691495
 10
-5.7989183549
 20
12.5238876617
 10
-5.80417328
 20
12.5092895101
 10
-5.809323841
 20
12.4946762606
 10
-5.8143694635
 20
12.4800495597
 10
-5.8193095688
 20
12.4654110385
 10
-5.8241436268
 20
12.4507622852
 10
-5.8288711052
 20
12.4361049322
 10
-5.8334914423
 20
12.4214406795
 10
-5.838004119
 20
12.4067712006
 10
-5.842408667
 20
12.3920980478
 10
-5.846704618
 20
12.3774227393
 10
-5.8508915004
 20
12.3627469055
 10
-5.8549688646
 20
12.3480721431
 10
-5.8589362889
 20
12.3333999201
 10
-5.862793351
 20
12.3187318027
 10
-5.8665396163
 20
12.3040694505
 10
-5.8701746596
 20
12.2894144712
 10
-5.8736981163
 20
12.2747683328
 10
-5.8771095649
 20
12.2601327891
 10
-5.8804085229
 20
12.2455098742
 10
-5.8835946251
 20
12.2309012549
 10
-5.8866675464
 20
12.2163084756
 10
-5.8896268987
 20
12.2017333822
 10
-5.8924723346
 20
12.1871777722
 10
-5.8952035989
 20
12.1726430442
 10
-5.8978204583
 20
12.1581304423
 10
-5.9003226159
 20
12.1436416591
 10
-5.9027098231
 20
12.1291781857
 10
-5.9049819141
 20
12.1147409649
 10
-5.9071386575
 20
12.1003314032
 10
-5.9091797791
 20
12.085951269
 10
-5.9111050504
 20
12.0716020477
 10
-5.9129142645
 20
12.0572851886
 10
-5.914607194
 20
12.0430023999
 10
-5.9161836031
 20
12.0287555488
 10
-5.9176433133
 20
12.0145462101
 10
-5.9189861613
 20
12.0003759391
 10
-5.9202119674
 20
11.9862465633
 10
-5.9213205991
 20
11.9721596248
 10
-5.9223119361
 20
11.9581166808
 10
-5.9231858502
 20
11.9441195687
 10
-5.9239422483
 20
11.9301699209
 10
-5.9245810637
 20
11.9162691671
 10
-5.925102235
 20
11.9024188306
  0
LINE
  5
29C
100
AcDbEntity
  8
RACCORDO
100
AcDbLine
 62
7
  6
CONTINUOUS
 10
0.6115744218
 20
16.6438420891
 11
-0.2784857609
 21
16.1471611678
  0
LWPOLYLINE
  5
29D
100
AcDbEntity
  8
RACCORDO
100
AcDbPolyline
 62
253
  6
CONTINUOUS
 90
7
 70
0
 10
-0.5535688886
 20
15.2607403128
 10
-0.7355426836
 20
15.160740389
 10
-0.9228418788
 20
15.0574143134
 10
-1.1144622639
 20
14.9513604796
 10
-1.3130149805
 20
14.8410810221
 10
-1.520439431
 20
14.7254218477
 10
-1.9528782604
 20
14.4833910421
  0
LINE
  5
29E
100
AcDbEntity
  8
RACCORDO
100
AcDbLine
 62
253
  6
CONTINUOUS
 10
-0.1969610958
 20
15.4558499314
 11
-0.5535688886
 21
15.2607403128
  0
LINE
  5
29F
100
AcDbEntity
  8
RACCORDO
100
AcDbLine
 62
253
  6
CONTINUOUS
 10
0.2273481902
 20
16.4098117938
 11
-0.5194738715
 21
16.0018902763
  0
LINE
  5
2A0
100
AcDbEntity
  8
RACCORDO
100
AcDbLine
 62
253
  6
CONTINUOUS
 10
0.6348329415
 20
16.6322128293
 11
0.2273481902
 21
16.4098117938
  0
LWPOLYLINE
  5
2A1
100
AcDbEntity
  8
RACCORDO
100
AcDbPolyline
 62
253
  6
CONTINUOUS
 90
3
 70
0
 10
0.9541443397
 20
16.0840930321
 10
0.1657341696
 20
15.6537300456
 10
-0.1969610958
 20
15.4558499314
  0
LWPOLYLINE
  5
2A2
100
AcDbEntity
  8
RACCORDO
100
AcDbPolyline
 62
253
  6
CONTINUOUS
 90
7
 70
0
 10
-0.5194738715
 20
16.0018902763
 10
-0.8770677664
 20
15.8070198825
 10
-1.0598200122
 20
15.7078003765
 10
-1.2481812719
 20
15.6058754072
 10
-1.4411229396
 20
15.5017638418
 10
-1.6413898254
 20
15.3940311106
 10
-1.8510085075
 20
15.2816525378
  0
LINE
  5
2A3
100
AcDbEntity
  8
RACCORDO
100
AcDbLine
 62
7
  6
CONTINUOUS
 10
6.2279473525
 20
20.5441607215
 11
0.7364040243
 21
17.5813471106
  0
LWPOLYLINE
  5
2A4
100
AcDbEntity
  8
RACCORDO
100
AcDbPolyline
 62
253
  6
CONTINUOUS
 90
8
 70
0
 10
-3.4186576338
 20
14.4454981182
 10
-3.6372245324
 20
14.3287308243
 10
-3.8502508827
 20
14.2147098339
 10
-4.0596900357
 20
14.1023856165
 10
-4.2698682793
 20
13.9892563828
 10
-4.4822277095
 20
13.8744882031
 10
-4.6953262304
 20
13.7589150071
 10
-4.9091638418
 20
13.6425367949
  0
LINE
  5
2A5
100
AcDbEntity
  8
RACCORDO
100
AcDbLine
 62
253
  6
CONTINUOUS
 10
-1.8510085075
 20
15.2816525378
 11
-2.2888866005
 21
15.0476713527
  0
LINE
  5
2A6
100
AcDbEntity
  8
RACCORDO
100
AcDbLine
 62
253
  6
CONTINUOUS
 10
-2.2888866005
 20
15.0476713527
 11
-3.4186576338
 21
14.4454981182
  0
LINE
  5
2A7
100
AcDbEntity
  8
RACCORDO
100
AcDbLine
 62
7
  6
CONTINUOUS
 10
6.2279473525
 20
20.0468307646
 11
0.8697960154
 21
17.2142803843
  0
LINE
  5
2A8
100
AcDbEntity
  8
DRAFT
100
AcDbLine
 62
7
  6
CONTINUOUS
 10
1.3643139297
 20
16.9667274082
 11
7.0304767681
 21
19.7190608366
  0
LINE
  5
2A9
100
AcDbEntity
  8
RACCORDO
100
AcDbLine
 62
253
  6
CONTINUOUS
 10
1.3539396029
 20
16.9722085905
 11
0.6344902269
 21
16.6323841865
  0
LINE
  5
2AA
100
AcDbEntity
  8
RACCORDO
100
AcDbLine
 62
253
  6
CONTINUOUS
 10
1.6722345936
 20
16.423275469
 11
0.9541443397
 21
16.0840930321
  0
LINE
  5
2AB
100
AcDbEntity
  8
RACCORDO
100
AcDbLine
 62
253
  6
CONTINUOUS
 10
10.0123003734
 20
20.5645059529
 11
7.2736237477
 21
19.2996943306
  0
LINE
  5
2AC
100
AcDbEntity
  8
RACCORDO
100
AcDbLine
 62
253
  6
CONTINUOUS
 10
-11.6192456253
 20
-9.0557769102
 11
-15.5921066684
 21
-7.0693463887
  0
LINE
  5
2AD
100
AcDbEntity
  8
RACCORDO
100
AcDbLine
 62
253
  6
CONTINUOUS
 10
-11.7726562882
 20
-8.1899087248
 11
-14.8881296006
 21
-6.6321720686
  0
LINE
  5
2AE
100
AcDbEntity
  8
RACCORDO
100
AcDbLine
 62
253
  6
CONTINUOUS
 10
-10.8869126415
 20
-8.3920000823
 11
-11.6293747612
 21
-8.0207690225
  0
LINE
  5
2AF
100
AcDbEntity
  8
RACCORDO
100
AcDbLine
 62
253
  6
CONTINUOUS
 10
-15.6024139764
 20
-6.0342494149
 11
-16.3448760934
 21
-5.6630183563
  0
LWPOLYLINE
  5
2B0
100
AcDbEntity
  8
RACCORDO
100
AcDbPolyline
 62
253
  6
CONTINUOUS
 90
31
 70
0
 10
-0.989706369
 20
-24.1963073269
 10
-0.9945848688
 20
-24.1886945666
 10
-0.9999305104
 20
-24.1808581015
 10
-1.0057291006
 20
-24.1728191217
 10
-1.0119657857
 20
-24.1645986326
 10
-1.0186233799
 20
-24.1562196707
 10
-1.025682029
 20
-24.1477073778
 10
-1.0331216847
 20
-24.1390858778
 10
-1.0409227208
 20
-24.1303778645
 10
-1.0490640402
 20
-24.1216068996
 10
-1.0575235756
 20
-24.1127967871
 10
-1.0662781124
 20
-24.1039717327
 10
-1.0753035326
 20
-24.0951560592
 10
-1.084575099
 20
-24.0863739252
 10
-1.0940675683
 20
-24.0776492379
 10
-1.1037550366
 20
-24.0690058068
 10
-1.1136110612
 20
-24.0604672275
 10
-1.123608707
 20
-24.0520568368
 10
-1.133720643
 20
-24.0437976279
 10
-1.143919241
 20
-24.0357121662
 10
-1.1541766527
 20
-24.0278225298
 10
-1.1644648608
 20
-24.0201502687
 10
-1.1747557793
 20
-24.0127163279
 10
-1.1850212843
 20
-24.0055410241
 10
-1.1952332902
 20
-23.9986439867
 10
-1.2053638753
 20
-23.9920440693
 10
-1.2153854011
 20
-23.9857592734
 10
-1.2252705396
 20
-23.9798067357
 10
-1.2349923052
 20
-23.9742027061
 10
-1.2445241304
 20
-23.9689624998
 10
-1.253839981
 20
-23.9641004292
  0
LWPOLYLINE
  5
2B1
100
AcDbEntity
  8
RACCORDO
100
AcDbPolyline
 62
253
  6
CONTINUOUS
 90
31
 70
0
 10
-12.2244765709
 20
25.1915906523
 10
-12.224666819
 20
25.2030713147
 10
-12.2253440835
 20
25.2147614696
 10
-12.2265065104
 20
25.2266290635
 10
-12.228150917
 20
25.2386415676
 10
-12.2302727965
 20
25.2507660325
 10
-12.2328663255
 20
25.2629691777
 10
-12.235924389
 20
25.2752175334
 10
-12.2394386021
 20
25.2874775216
 10
-12.2433993238
 20
25.2997155135
 10
-12.2477956905
 20
25.31189795
 10
-12.2526156456
 20
25.3239914291
 10
-12.2578459687
 20
25.3359627863
 10
-12.2634723225
 20
25.3477792108
 10
-12.2694792711
 20
25.3594082888
 10
-12.2758503159
 20
25.3708180909
 10
-12.2825679527
 20
25.3819772903
 10
-12.2896137822
 20
25.3928553422
 10
-12.2969685447
 20
25.4034225157
 10
-12.3046121771
 20
25.4136499635
 10
-12.3125236302
 20
25.4235095013
 10
-12.3206809644
 20
25.4329738131
 10
-12.3290616306
 20
25.4420168125
 10
-12.3376427903
 20
25.4506139293
 10
-12.3464011499
 20
25.4587418527
 10
-12.3553146601
 20
25.4663799119
 10
-12.3643569805
 20
25.4735053308
 10
-12.3734975492
 20
25.4800946026
 10
-12.3827092221
 20
25.4861294894
 10
-12.3919685859
 20
25.4915959701
 10
-12.4012502746
 20
25.4964801912
  0
LWPOLYLINE
  5
2B2
100
AcDbEntity
  8
RACCORDO
100
AcDbPolyline
 62
7
  6
CONTINUOUS
 90
35
 70
0
 10
-11.7688678982
 20
-8.5755534902
 10
-11.7687385518
 20
-8.5835720272
 10
-11.7682503482
 20
-8.5980355571
 10
-11.7674357426
 20
-8.6125652547
 10
-11.7663170249
 20
-8.6271539206
 10
-11.7648950645
 20
-8.6417928897
 10
-11.7631693916
 20
-8.6564732497
 10
-11.7611597278
 20
-8.671188265
 10
-11.7588669774
 20
-8.6859302798
 10
-11.7562910619
 20
-8.7006911896
 10
-11.7534497348
 20
-8.7154642079
 10
-11.7503439314
 20
-8.7302425277
 10
-11.7469739165
 20
-8.7450187122
 10
-11.7433560337
 20
-8.7597854909
 10
-11.7394912652
 20
-8.774536789
 10
-11.7353801984
 20
-8.7892657261
 10
-11.7310382887
 20
-8.8039641689
 10
-11.7264666843
 20
-8.8186264424
 10
-11.7216662168
 20
-8.8332463958
 10
-11.716651674
 20
-8.8478154543
 10
-11.7114242407
 20
-8.8623287639
 10
-11.7059851241
 20
-8.8767803807
 10
-11.70034907
 20
-8.8911603301
 10
-11.6945174659
 20
-8.9054642297
 10
-11.6884918266
 20
-8.9196866464
 10
-11.6822871622
 20
-8.9338162665
 10
-11.6759051021
 20
-8.9478492501
 10
-11.6693475189
 20
-8.961780614
 10
-11.6626300138
 20
-8.9755976046
 10
-11.6557545251
 20
-8.9892969021
 10
-11.6487233204
 20
-9.0028740584
 10
-11.641552876
 20
-9.0163149757
 10
-11.6342504353
 20
-9.029612787
 10
-11.6268138146
 20
-9.0427677786
 10
-11.6192456237
 20
-9.0557769111
  0
LWPOLYLINE
  5
2B3
100
AcDbEntity
  8
RACCORDO
100
AcDbPolyline
 62
7
  6
CONTINUOUS
 90
35
 70
0
 10
-11.7784064487
 20
-7.5399781868
 10
-11.7782809475
 20
-7.5485493109
 10
-11.777808528
 20
-7.5630029792
 10
-11.7770099426
 20
-7.5775235691
 10
-11.7759074786
 20
-7.5921038639
 10
-11.7745019884
 20
-7.606735189
 10
-11.7727929845
 20
-7.6214086231
 10
-11.7708001858
 20
-7.6361174159
 10
-11.7685244817
 20
-7.6508539025
 10
-11.7659657771
 20
-7.6656099694
 10
-11.7631418226
 20
-7.680378818
 10
-11.7600535397
 20
-7.6951536324
 10
-11.756701178
 20
-7.7099269667
 10
-11.7531010773
 20
-7.72469154
 10
-11.7492542071
 20
-7.7394412687
 10
-11.7451611406
 20
-7.7541692634
 10
-11.740837328
 20
-7.7688673813
 10
-11.7362839055
 20
-7.7835299385
 10
-11.7315016916
 20
-7.7981507751
 10
-11.726505468
 20
-7.8127213072
 10
-11.7212964085
 20
-7.8272366717
 10
-11.7158757079
 20
-7.8416909153
 10
-11.7102581035
 20
-7.8560740542
 10
-11.7044449729
 20
-7.8703816966
 10
-11.6984378187
 20
-7.8846083992
 10
-11.6922516407
 20
-7.8987428383
 10
-11.6858880589
 20
-7.9127811641
 10
-11.6793489346
 20
-7.9267183827
 10
-11.672649856
 20
-7.9405417285
 10
-11.6657927524
 20
-7.9542478709
 10
-11.6587798812
 20
-7.9678323508
 10
-11.6516277039
 20
-7.9812810563
 10
-11.6443434533
 20
-7.9945871075
 10
-11.6369249386
 20
-8.0077507801
 10
-11.6293747609
 20
-8.0207690226
  0
LWPOLYLINE
  5
2B4
100
AcDbEntity
  8
RACCORDO
100
AcDbPolyline
 62
7
  6
CONTINUOUS
 90
35
 70
0
 10
-11.0359443285
 20
-7.9112092471
 10
-11.0358188272
 20
-7.9197803713
 10
-11.0353464078
 20
-7.9342340395
 10
-11.0345478224
 20
-7.9487546294
 10
-11.0334453583
 20
-7.9633349241
 10
-11.0320398682
 20
-7.977966249
 10
-11.0303308643
 20
-7.9926396831
 10
-11.0283380656
 20
-8.0073484757
 10
-11.0260623615
 20
-8.0220849623
 10
-11.0235036569
 20
-8.0368410291
 10
-11.0206797025
 20
-8.0516098776
 10
-11.0175914196
 20
-8.0663846919
 10
-11.014239058
 20
-8.0811580261
 10
-11.0106389572
 20
-8.0959225994
 10
-11.0067920871
 20
-8.110672328
 10
-11.0026990206
 20
-8.1254003226
 10
-10.9983752081
 20
-8.1400984405
 10
-10.9938217855
 20
-8.1547609977
 10
-10.9890395717
 20
-8.1693818342
 10
-10.9840433481
 20
-8.1839523663
 10
-10.9788342887
 20
-8.1984677308
 10
-10.973413588
 20
-8.2129219744
 10
-10.9677959837
 20
-8.2273051133
 10
-10.961982853
 20
-8.2416127556
 10
-10.9559756989
 20
-8.2558394583
 10
-10.9497895209
 20
-8.2699738974
 10
-10.9434259391
 20
-8.2840122234
 10
-10.9368868147
 20
-8.297949442
 10
-10.9301877361
 20
-8.3117727878
 10
-10.9233306325
 20
-8.3254789304
 10
-10.9163177612
 20
-8.3390634104
 10
-10.9091655839
 20
-8.3525121159
 10
-10.9018813333
 20
-8.3658181673
 10
-10.8944628184
 20
-8.3789818401
 10
-10.8869126407
 20
-8.3920000827
  0
LWPOLYLINE
  5
2B5
100
AcDbEntity
  8
RACCORDO
100
AcDbPolyline
 62
7
  6
CONTINUOUS
 90
35
 70
0
 10
-11.0455145045
 20
-6.5288166752
 10
-11.0453967353
 20
-6.5381185333
 10
-11.0449453074
 20
-6.5525589533
 10
-11.0441680302
 20
-6.5670673004
 10
-11.0430871874
 20
-6.5816363342
 10
-11.0417036093
 20
-6.5962573677
 10
-11.0400167843
 20
-6.6109214677
 10
-11.0380464279
 20
-6.6256218643
 10
-11.0357934095
 20
-6.6403508808
 10
-11.0332576119
 20
-6.6551003915
 10
-11.0304567819
 20
-6.6698635815
 10
-11.0273918225
 20
-6.6846336233
 10
-11.0240629632
 20
-6.699403059
 10
-11.0204865384
 20
-6.7141645939
 10
-11.0166635009
 20
-6.7289121325
 10
-11.012594405
 20
-6.7436387735
 10
-11.0082946939
 20
-6.7583363617
 10
-11.0037654876
 20
-6.7729992013
 10
-10.9990075875
 20
-6.7876211199
 10
-10.994035767
 20
-6.8021935222
 10
-10.9888511855
 20
-6.8167115329
 10
-10.9834550208
 20
-6.8311691858
 10
-10.9778619997
 20
-6.8455564854
 10
-10.9720734857
 20
-6.859869027
 10
-10.9660909659
 20
-6.8741013543
 10
-10.959929427
 20
-6.8882421305
 10
-10.9535904751
 20
-6.902287492
 10
-10.9470759575
 20
-6.9162324314
 10
-10.9404014494
 20
-6.9300641699
 10
-10.9335688788
 20
-6.9437793706
 10
-10.9265804775
 20
-6.9573735512
 10
-10.9194526587
 20
-6.9708325607
 10
-10.9121926327
 20
-6.9841494965
 10
-10.9047982106
 20
-6.9973246269
 10
-10.8972719836
 20
-7.0103548854
  0
LINE
  5
2B6
100
AcDbEntity
  8
RACCORDO
100
AcDbLine
 62
253
  6
CONTINUOUS
 10
-11.626223102
 20
-8.365889292
 11
-11.6192456253
 21
-9.0557769102
  0
LINE
  5
2B7
100
AcDbEntity
  8
RACCORDO
100
AcDbLine
 62
7
  6
CONTINUOUS
 10
-11.775357504
 20
-7.8962521872
 11
-11.7688711321
 21
-8.5755542974
  0
LINE
  5
2B8
100
AcDbEntity
  8
RACCORDO
100
AcDbLine
 62
253
  6
CONTINUOUS
 10
-11.6293747612
 20
-8.0207690225
 11
-11.626223102
 21
-8.365889292
  0
LINE
  5
2B9
100
AcDbEntity
  8
RACCORDO
100
AcDbLine
 62
7
  6
CONTINUOUS
 10
-11.7784096979
 20
-7.5399789929
 11
-11.775357504
 21
-7.8962521872
  0
LINE
  5
2BA
100
AcDbEntity
  8
RACCORDO
100
AcDbLine
 62
253
  6
CONTINUOUS
 10
-10.8907652643
 20
-7.9316595947
 11
-10.8869126415
 21
-8.3920000823
  0
LINE
  5
2BB
100
AcDbEntity
  8
RACCORDO
100
AcDbLine
 62
7
  6
CONTINUOUS
 10
-11.0398334209
 20
-7.410174447
 11
-11.0359475776
 21
-7.9112100532
  0
LINE
  5
2BC
100
AcDbEntity
  8
RACCORDO
100
AcDbLine
 62
253
  6
CONTINUOUS
 10
-10.8942183797
 20
-7.4711110207
 11
-10.8907652643
 21
-7.9316595947
  0
LINE
  5
2BD
100
AcDbEntity
  8
RACCORDO
100
AcDbLine
 62
7
  6
CONTINUOUS
 10
-11.0439457066
 20
-6.7966061366
 11
-11.0398334209
 21
-7.410174447
  0
LINE
  5
2BE
100
AcDbEntity
  8
RACCORDO
100
AcDbLine
 62
253
  6
CONTINUOUS
 10
-10.8972719837
 20
-7.0103548854
 11
-10.8942183797
 21
-7.4711110207
  0
LINE
  5
2BF
100
AcDbEntity
  8
RACCORDO
100
AcDbLine
 62
253
  6
CONTINUOUS
 10
-12.2244765709
 20
25.1915906523
 11
-12.2244765709
 21
24.8440591356
  0
LINE
  5
2C0
100
AcDbEntity
  8
RACCORDO
100
AcDbLine
 62
7
  6
CONTINUOUS
 10
-12.1522787139
 20
25.2794632845
 11
-12.1522787139
 21
24.9319317678
  0
LINE
  5
2C1
100
AcDbEntity
  8
0
100
AcDbLine
 62
7
  6
CONTINUOUS
 10
-10.9920478575
 20
-6.307974486
 11
-10.9920478575
 21
-6.2792604859
  0
LINE
  5
2C2
100
AcDbEntity
  8
RACCORDO
100
AcDbLine
 62
7
  6
CONTINUOUS
 10
-10.5283197383
 20
22.8117257569
 11
-10.5283197383
 21
21.5715367242
  0
LINE
  5
2C3
100
AcDbEntity
  8
RACCORDO
100
AcDbLine
 62
253
  6
CONTINUOUS
 10
-10.3818731289
 20
22.4686559259
 11
-10.3818731289
 21
21.388072615
  0
LINE
  5
2C4
100
AcDbEntity
  8
0
100
AcDbLine
 62
7
  6
CONTINUOUS
 10
-10.1010933132
 20
-5.842820492
 11
-10.1010933132
 21
-5.339097112
  0
LWPOLYLINE
  5
2C5
100
AcDbEntity
  8
RACCORDO
100
AcDbPolyline
 62
7
  6
CONTINUOUS
 90
30
 70
0
 10
-0.2784857609
 20
16.9547932896
 10
-0.2863648839
 20
16.9456588864
 10
-0.294585133
 20
16.9366614454
 10
-0.3031429942
 20
16.9278224588
 10
-0.3120414247
 20
16.919165929
 10
-0.3212678598
 20
16.9107112497
 10
-0.3307944341
 20
16.902473357
 10
-0.3406146223
 20
16.8944746034
 10
-0.3507205206
 20
16.8867367266
 10
-0.3610813035
 20
16.8792741868
 10
-0.3716878248
 20
16.8721094089
 10
-0.3825297362
 20
16.8652641036
 10
-0.3935735133
 20
16.858752132
 10
-0.4048073617
 20
16.8525956129
 10
-0.4162183126
 20
16.846815949
 10
-0.427770133
 20
16.8414264255
 10
-0.4394482649
 20
16.8364484678
 10
-0.4512369964
 20
16.8319027705
 10
-0.4630973104
 20
16.8278019854
 10
-0.4750117581
 20
16.8241663599
 10
-0.4869617714
 20
16.8210153749
 10
-0.498905449
 20
16.8183608386
 10
-0.5108222986
 20
16.8162212062
 10
-0.5226908658
 20
16.8146140687
 10
-0.5344664444
 20
16.813549908
 10
-0.5461252649
 20
16.8130446026
 10
-0.5576432021
 20
16.8131129687
 10
-0.5689735548
 20
16.8137633671
 10
-0.5800788171
 20
16.8150067599
 10
-0.5909431689
 20
16.8168542553
  0
LINE
  5
2C6
100
AcDbEntity
  8
RACCORDO
100
AcDbLine
 62
253
  6
CONTINUOUS
 10
8.205725982
 20
17.6920557823
 11
1.6722345936
 21
14.3681238274
  0
LINE
  5
2C7
100
AcDbEntity
  8
RACCORDO
100
AcDbLine
 62
7
  6
CONTINUOUS
 10
7.9652158504
 20
18.1068743984
 11
11.4913925323
 21
19.8249598735
  0
LINE
  5
2C8
100
AcDbEntity
  8
SMUSSO
100
AcDbLine
 62
7
  6
CONTINUOUS
 10
8.4779332433
 20
17.0874434121
 11
12.5883952046
 21
19.0902145801
  0
LWPOLYLINE
  5
2C9
100
AcDbEntity
  8
RACCORDO
100
AcDbPolyline
 62
253
  6
CONTINUOUS
 90
34
 70
0
 10
-5.2245187611
 20
11.8814034049
 10
-5.2418130924
 20
11.8742759383
 10
-5.2598385539
 20
11.8675626518
 10
-5.2785552136
 20
11.8612784174
 10
-5.2979216083
 20
11.8554371567
 10
-5.3178948353
 20
11.8500518099
 10
-5.3384306478
 20
11.8451343073
 10
-5.3594835524
 20
11.8406955426
 10
-5.3810069105
 20
11.836745349
 10
-5.402953041
 20
11.8332924776
 10
-5.4252733265
 20
11.8303445774
 10
-5.4479183205
 20
11.827908179
 10
-5.4708378573
 20
11.8259886798
 10
-5.493981163
 20
11.8245903321
 10
-5.5172969679
 20
11.8237162336
 10
-5.5407336203
 20
11.8233683208
 10
-5.5642392006
 20
11.8235473643
 10
-5.5877616367
 20
11.8242529676
 10
-5.611248819
 20
11.8254835675
 10
-5.634648716
 20
11.8272364379
 10
-5.6579094897
 20
11.8295076955
 10
-5.6809796103
 20
11.832292309
 10
-5.7038079701
 20
11.8355841093
 10
-5.7263439973
 20
11.8393758043
 10
-5.7485377676
 20
11.8436589941
 10
-5.7703401147
 20
11.8484241901
 10
-5.7917027396
 20
11.8536608359
 10
-5.8125783176
 20
11.8593573307
 10
-5.8329206027
 20
11.865501055
 10
-5.8526845303
 20
11.8720783985
 10
-5.8718263172
 20
11.8790747904
 10
-5.8903035584
 20
11.8864747314
 10
-5.908075321
 20
11.8942618284
 10
-5.925102235
 20
11.9024188306
  0
LINE
  5
2CA
100
AcDbEntity
  8
DRAFT
100
AcDbLine
 62
7
  6
CONTINUOUS
 10
-11.7690574007
 20
-7.4337095788
 11
-14.1316019659
 21
-6.2524372962
  0
LINE
  5
2CB
100
AcDbEntity
  8
RACCORDO
100
AcDbLine
 62
253
  6
CONTINUOUS
 10
-11.0389538101
 20
-7.5278465873
 11
-11.6324673276
 21
-7.2310898285
  0
LINE
  5
2CC
100
AcDbEntity
  8
RACCORDO
100
AcDbLine
 62
253
  6
CONTINUOUS
 10
-14.8984266874
 20
-5.5981101486
 11
-15.6408888077
 21
-5.2268790885
  0
LINE
  5
2CD
100
AcDbEntity
  8
0
100
AcDbLine
 62
7
  6
CONTINUOUS
 10
-13.8770435247
 20
-5.6161855157
 11
-11.1493141413
 21
-6.9800502074
  0
LINE
  5
2CE
100
AcDbEntity
  8
RACCORDO
100
AcDbLine
 62
253
  6
CONTINUOUS
 10
-8.9173729973
 20
-8.0003043786
 11
-10.8972719837
 21
-7.0103548854
  0
LINE
  5
2CF
100
AcDbEntity
  8
RACCORDO
100
AcDbLine
 62
253
  6
CONTINUOUS
 10
-16.3554176579
 20
-4.2812820483
 11
-18.3353166439
 21
-3.2913325553
  0
LINE
  5
2D0
100
AcDbEntity
  8
DRAFT
100
AcDbLine
 62
7
  6
CONTINUOUS
 10
-14.1316019659
 20
-5.2132068117
 11
-14.8740640862
 21
-4.8419757516
  0
LINE
  5
2D1
100
AcDbEntity
  8
0
100
AcDbLine
 62
7
  6
CONTINUOUS
 10
-14.767998069
 20
-4.3912853802
 11
-13.8770435247
 21
-4.8367626523
  0
LINE
  5
2D2
100
AcDbEntity
  8
0
100
AcDbLine
 62
7
  6
CONTINUOUS
 10
-10.9920478575
 20
-6.2792604859
 11
-10.9772294739
 21
-6.2866696777
  0
LINE
  5
2D3
100
AcDbEntity
  8
RACCORDO
100
AcDbLine
 62
253
  6
CONTINUOUS
 10
-9.0675575281
 20
-7.138455668
 11
-10.9003540999
 21
-6.2220573821
  0
LINE
  5
2D4
100
AcDbEntity
  8
RACCORDO
100
AcDbLine
 62
253
  6
CONTINUOUS
 10
-15.6514199173
 20
-3.8465244734
 11
-17.6313189046
 21
-2.8565749798
  0
LINE
  5
2D5
100
AcDbEntity
  8
0
100
AcDbLine
 62
7
  6
CONTINUOUS
 10
-12.8163833529
 20
-5.0858554298
 11
-10.7255897058
 21
-6.1312522534
  0
LINE
  5
2D6
100
AcDbEntity
  8
DRAFT
100
AcDbLine
 62
7
  6
CONTINUOUS
 10
-9.0707215659
 20
-6.3580063657
 11
-10.1364486522
 21
-5.8251428225
  0
LINE
  5
2D7
100
AcDbEntity
  8
DRAFT
100
AcDbLine
 62
7
  6
CONTINUOUS
 10
-14.8740640862
 20
-3.4563351055
 11
-16.8539630735
 21
-2.4663856119
  0
LWPOLYLINE
  5
2D8
100
AcDbEntity
  8
RACCORDO
100
AcDbPolyline
 62
7
  6
CONTINUOUS
 90
27
 70
0
 10
-10.5283373318
 20
22.8121823536
 10
-10.5280613349
 20
22.8014184706
 10
-10.5272701508
 20
22.7895586205
 10
-10.5259583804
 20
22.777345804
 10
-10.5241056226
 20
22.7648399989
 10
-10.5217827929
 20
22.7520630511
 10
-10.5189882566
 20
22.7390580948
 10
-10.5157105586
 20
22.7258711163
 10
-10.5120028088
 20
22.7125136036
 10
-10.5078647937
 20
22.69901804
 10
-10.5032905899
 20
22.6854205892
 10
-10.4983210978
 20
22.6717294012
 10
-10.4929566298
 20
22.6579702302
 10
-10.4871945851
 20
22.6441722258
 10
-10.481068031
 20
22.6303434457
 10
-10.4745774859
 20
22.6165051258
 10
-10.4677224402
 20
22.6026815917
 10
-10.4605314287
 20
22.5888826317
 10
-10.4530051304
 20
22.5751263454
 10
-10.445144491
 20
22.5614337181
 10
-10.4369760516
 20
22.5478173534
 10
-10.4285005233
 20
22.534292696
 10
-10.4197202521
 20
22.5208787165
 10
-10.4106625672
 20
22.5075925655
 10
-10.4013377255
 20
22.4944503236
 10
-10.3917401282
 20
22.4814666734
 10
-10.3818731289
 20
22.4686559259
  0
LWPOLYLINE
  5
2D9
100
AcDbEntity
  8
RACCORDO
100
AcDbPolyline
 62
7
  6
CONTINUOUS
 90
35
 70
0
 10
-9.0656155171
 20
-7.5187661732
 10
-9.065497748
 20
-7.528068027
 10
-9.0650463201
 20
-7.542508447
 10
-9.0642690429
 20
-7.5570167941
 10
-9.0631882001
 20
-7.5715858278
 10
-9.061804622
 20
-7.5862068614
 10
-9.0601177969
 20
-7.6008709614
 10
-9.0581474406
 20
-7.615571358
 10
-9.0558944222
 20
-7.6303003744
 10
-9.0533586246
 20
-7.6450498851
 10
-9.0505577946
 20
-7.6598130752
 10
-9.0474928352
 20
-7.674583117
 10
-9.0441639758
 20
-7.6893525526
 10
-9.040587551
 20
-7.7041140875
 10
-9.0367645136
 20
-7.7188616262
 10
-9.0326954177
 20
-7.7335882672
 10
-9.0283957065
 20
-7.7482858554
 10
-9.0238665003
 20
-7.7629486949
 10
-9.0191086002
 20
-7.7775706136
 10
-9.0141367797
 20
-7.7921430159
 10
-9.0089521982
 20
-7.8066610265
 10
-9.0035560335
 20
-7.8211186795
 10
-8.9979630124
 20
-7.835505979
 10
-8.9921744984
 20
-7.8498185206
 10
-8.9861919786
 20
-7.8640508479
 10
-8.9800304397
 20
-7.8781916242
 10
-8.9736914877
 20
-7.8922369857
 10
-8.9671769702
 20
-7.906181925
 10
-8.9605024621
 20
-7.9200136635
 10
-8.9536698915
 20
-7.9337288643
 10
-8.9466814901
 20
-7.9473230448
 10
-8.9395536713
 20
-7.9607820544
 10
-8.9322936454
 20
-7.9740989901
 10
-8.9248992233
 20
-7.9872741206
 10
-8.9173729963
 20
-8.0003043791
  0
LWPOLYLINE
  5
2DA
100
AcDbEntity
  8
RACCORDO
100
AcDbPolyline
 62
253
  6
CONTINUOUS
 90
7
 70
0
 10
-8.9085052067
 20
-0.1774006732
 10
-8.9179178617
 20
-1.4852216819
 10
-8.9241566878
 20
-2.7914569586
 10
-8.9272216279
 20
-4.0960946744
 10
-8.927112654
 20
-5.3991230141
 10
-8.9238297671
 20
-6.7005301775
 10
-8.9173729973
 20
-8.0003043786
  0
LWPOLYLINE
  5
2DB
100
AcDbEntity
  8
RACCORDO
100
AcDbPolyline
 62
7
  6
CONTINUOUS
 90
10
 70
0
 10
-9.0574608276
 20
-0.3097330616
 10
-9.061505551
 20
-0.8619138847
 10
-9.0667556448
 20
-1.7361957285
 10
-9.0705855681
 20
-2.6097676408
 10
-9.0729953057
 20
-3.4826260998
 10
-9.0739848538
 20
-4.3547675861
 10
-9.0735542089
 20
-5.2261885601
 10
-9.0717033674
 20
-6.0968855029
 10
-9.0684323257
 20
-6.9668549165
 10
-9.0656187521
 20
-7.5187669692
  0
LWPOLYLINE
  5
2DC
100
AcDbEntity
  8
RACCORDO
100
AcDbPolyline
 62
7
  6
CONTINUOUS
 90
27
 70
0
 10
-9.0574582086
 20
-0.3097345792
 10
-9.0573136582
 20
-0.3082666568
 10
-9.056843866
 20
-0.3064734029
 10
-9.0560479474
 20
-0.3045050587
 10
-9.0549481891
 20
-0.3023577038
 10
-9.0535454411
 20
-0.3000398071
 10
-9.0518392124
 20
-0.2975608576
 10
-9.0498492218
 20
-0.2949170715
 10
-9.047576356
 20
-0.2921162784
 10
-9.0450205174
 20
-0.2891672191
 10
-9.0421994559
 20
-0.2860663584
 10
-9.0391140908
 20
-0.2828209985
 10
-9.0357646691
 20
-0.2794392683
 10
-9.03216753
 20
-0.2759180062
 10
-9.0283236409
 20
-0.2722640836
 10
-9.0242335726
 20
-0.2684851436
 10
-9.0199127745
 20
-0.2645785406
 10
-9.0153623806
 20
-0.260550864
 10
-9.0105832075
 20
-0.256409322
 10
-9.0055900357
 20
-0.2521517317
 10
-9.0003840373
 20
-0.2477843105
 10
-8.9949664048
 20
-0.2433140252
 10
-8.9893518744
 20
-0.2387395062
 10
-8.9835418218
 20
-0.2340667515
 10
-8.9775377478
 20
-0.2293024779
 10
-8.9713546503
 20
-0.2244462316
 10
-8.9649941478
 20
-0.2195037932
  0
LINE
  5
2DD
100
AcDbEntity
  8
RACCORDO
100
AcDbLine
 62
253
  6
CONTINUOUS
 10
0.6115744218
 20
17.5189478976
 11
1.1398415935
 21
18.1619000534
  0
LINE
  5
2DE
100
AcDbEntity
  8
RACCORDO
100
AcDbLine
 62
7
  6
CONTINUOUS
 10
0.6115744218
 20
17.4294174313
 11
1.1552021659
 21
18.0910648868
  0
LINE
  5
2DF
100
AcDbEntity
  8
DRAFT
100
AcDbLine
 62
7
  6
CONTINUOUS
 10
12.5883952046
 20
18.7391597371
 11
11.6070848692
 21
18.2398654111
  0
LINE
  5
2E0
100
AcDbEntity
  8
RACCORDO
100
AcDbLine
 62
253
  6
CONTINUOUS
 10
8.6198764577
 20
16.2604222077
 11
1.6722345936
 21
12.7257900439
  0
LINE
  5
2E1
100
AcDbEntity
  8
0
100
AcDbLine
 62
7
  6
CONTINUOUS
 10
10.7585567318
 20
17.4099980484
 11
8.6183878937
 21
16.3399136294
  0
LINE
  5
2E2
100
AcDbEntity
  8
0
100
AcDbLine
 62
7
  6
CONTINUOUS
 10
-16.6418310392
 20
2.3047000401
 11
-15.4672676408
 21
2.8919817392
  0
LINE
  5
2E3
100
AcDbEntity
  8
DRAFT
100
AcDbLine
 62
7
  6
CONTINUOUS
 10
11.6070848692
 20
18.2398654111
 11
8.5724849404
 21
16.7285696625
  0
LINE
  5
2E4
100
AcDbEntity
  8
RACCORDO
100
AcDbLine
 62
7
  6
CONTINUOUS
 10
8.6198764577
 20
14.933659384
 11
15.1415711858
 21
17.9998705467
  0
LINE
  5
2E5
100
AcDbEntity
  8
0
100
AcDbLine
 62
7
  6
CONTINUOUS
 10
-13.7073378972
 20
-3.8609552943
 11
-12.8163833529
 21
-4.3064325664
  0
LINE
  5
2E6
100
AcDbEntity
  8
0
100
AcDbLine
 62
7
  6
CONTINUOUS
 10
-16.6418310392
 20
-2.068728249
 11
-14.767998069
 21
-3.0056447341
  0
LINE
  5
2E7
100
AcDbEntity
  8
0
100
AcDbLine
 62
7
  6
CONTINUOUS
 10
-10.1010933132
 20
-5.339097112
 11
-9.0722206611
 21
-5.853533438
  0
LWPOLYLINE
  5
2E8
100
AcDbEntity
  8
RACCORDO
100
AcDbPolyline
 62
253
  6
CONTINUOUS
 90
142
 70
0
 10
-5.2245187611
 20
-23.6982212229
 10
-5.2241694993
 20
-23.7071131008
 10
-5.2237414129
 20
-23.7159614546
 10
-5.2232345019
 20
-23.7247662841
 10
-5.2226486921
 20
-23.7335288868
 10
-5.2219840576
 20
-23.7422479653
 10
-5.221240821
 20
-23.7509196276
 10
-5.2204189393
 20
-23.7595437165
 10
-5.2195184554
 20
-23.7681203892
 10
-5.2185397197
 20
-23.7766462261
 10
-5.2174827006
 20
-23.7851211087
 10
-5.2163474298
 20
-23.7935451553
 10
-5.2151343527
 20
-23.8019153013
 10
-5.2138434611
 20
-23.8102313868
 10
-5.2124747633
 20
-23.8184935716
 10
-5.2110287296
 20
-23.8266992699
 10
-5.209505365
 20
-23.8348483606
 10
-5.2079046645
 20
-23.8429409648
 10
-5.2062270845
 20
-23.8509748604
 10
-5.2044725961
 20
-23.8589501108
 10
-5.202641228
 20
-23.8668666526
 10
-5.2007335232
 20
-23.8747220737
 10
-5.1987494337
 20
-23.8825164557
 10
-5.1966890074
 20
-23.890249717
 10
-5.1945529311
 20
-23.8979192014
 10
-5.1923411627
 20
-23.9055249212
 10
-5.1900537443
 20
-23.9130668639
 10
-5.1876914881
 20
-23.9205423363
 10
-5.1852543922
 20
-23.9279512328
 10
-5.1827424586
 20
-23.9352936588
 10
-5.1801565057
 20
-23.9425672373
 10
-5.1774965116
 20
-23.9497719446
 10
-5.1747624983
 20
-23.9569078044
 10
-5.1719553501
 20
-23.9639725097
 10
-5.1690750397
 20
-23.9709660485
 10
-5.1661215944
 20
-23.9778884329
 10
-5.1630959799
 20
-23.9847373919
 10
-5.1599981571
 20
-23.9915129311
 10
-5.1568281651
 20
-23.998215045
 10
-5.1535870881
 20
-24.0048414461
 10
-5.1502749126
 20
-24.0113920835
 10
-5.146891652
 20
-24.0178670082
 10
-5.1434384304
 20
-24.024264086
 10
-5.1399152421
 20
-24.0305832643
 10
-5.1363220927
 20
-24.0368245958
 10
-5.1326601236
 20
-24.0429861045
 10
-5.1289293235
 20
-24.0490677567
 10
-5.1251297037
 20
-24.0550695861
 10
-5.1212624387
 20
-24.0609897175
 10
-5.1173274963
 20
-24.0668281486
 10
-5.1133249088
 20
-24.0725848817
 10
-5.1092559467
 20
-24.0782580493
 10
-5.1051205494
 20
-24.0838476733
 10
-5.1009187777
 20
-24.0893537317
 10
-5.0966520846
 20
-24.0947742909
 10
-5.0923204306
 20
-24.1001093297
 10
-5.0879238553
 20
-24.1053588693
 10
-5.0834639305
 20
-24.1105210391
 10
-5.0789406387
 20
-24.1155957908
 10
-5.0743539974
 20
-24.1205831727
 10
-5.0697056314
 20
-24.1254814586
 10
-5.0649956091
 20
-24.1302905309
 10
-5.0602238622
 20
-24.1350105072
 10
-5.0553918101
 20
-24.1396400134
 10
-5.0504994507
 20
-24.144179025
 10
-5.0455467862
 20
-24.1486275665
 10
-5.0405352427
 20
-24.1529843379
 10
-5.0354647085
 20
-24.1572493944
 10
-5.0303352954
 20
-24.1614226808
 10
-5.025148764
 20
-24.1655027316
 10
-5.0199050488
 20
-24.1694895368
 10
-5.0146042154
 20
-24.1733831064
 10
-5.0092482216
 20
-24.177182005
 10
-5.0038371088
 20
-24.180886148
 10
-4.9983708356
 20
-24.18449562
 10
-4.9928512348
 20
-24.188009239
 10
-4.9872783536
 20
-24.1914269394
 10
-4.9816521448
 20
-24.1947487869
 10
-4.975974299
 20
-24.1979737958
 10
-4.970244789
 20
-24.2011019528
 10
-4.964463642
 20
-24.2041332714
 10
-4.9586326296
 20
-24.2070668061
 10
-4.9527516738
 20
-24.209902558
 10
-4.9468208527
 20
-24.2126405261
 10
-4.9408421717
 20
-24.2152797627
 10
-4.9348156003
 20
-24.2178202351
 10
-4.9287411691
 20
-24.2202619759
 10
-4.9226209759
 20
-24.2226041346
 10
-4.9164550193
 20
-24.2248466676
 10
-4.9102433008
 20
-24.2269896185
 10
-4.9039879228
 20
-24.2290322683
 10
-4.8976888904
 20
-24.2309745758
 10
-4.8913461984
 20
-24.2328165821
 10
-4.8849619337
 20
-24.2345576913
 10
-4.8785360907
 20
-24.2361978691
 10
-4.872068675
 20
-24.2377371497
 10
-4.8655617892
 20
-24.2391750399
 10
-4.8590154217
 20
-24.2405115079
 10
-4.8524295842
 20
-24.2417465855
 10
-4.8458064148
 20
-24.2428798741
 10
-4.8391458983
 20
-24.2439113424
 10
-4.8324480499
 20
-24.2448410217
 10
-4.8257150526
 20
-24.2456686077
 10
-4.8189468911
 20
-24.2463940681
 10
-4.8121435808
 20
-24.2470174351
 10
-4.8053073504
 20
-24.2475385009
 10
-4.7984381924
 20
-24.2479572324
 10
-4.7915361143
 20
-24.2482736628
 10
-4.7846033681
 20
-24.2484876831
 10
-4.777639941
 20
-24.2485992606
 10
-4.7706458457
 20
-24.2486084282
 10
-4.7636233724
 20
-24.2485151753
 10
-4.756572491
 20
-24.2483194666
 10
-4.7494932315
 20
-24.2480213375
 10
-4.7423879738
 20
-24.2476208833
 10
-4.735256698
 20
-24.2471180659
 10
-4.728099424
 20
-24.2465129234
 10
-4.7209185917
 20
-24.2458056657
 10
-4.7137141951
 20
-24.244996255
 10
-4.7064862403
 20
-24.2440847291
 10
-4.6992371859
 20
-24.2430714113
 10
-4.6919670727
 20
-24.2419562749
 10
-4.6846758599
 20
-24.2407393467
 10
-4.6773658838
 20
-24.2394210304
 10
-4.6700371708
 20
-24.2380013053
 10
-4.6626896944
 20
-24.2364801922
 10
-4.655325711
 20
-24.2348581576
 10
-4.6479452188
 20
-24.233135177
 10
-4.6405482196
 20
-24.2313112748
 10
-4.6331369755
 20
-24.2293869912
 10
-4.6257114258
 20
-24.2273622859
 10
-4.6182716313
 20
-24.2252371991
 10
-4.610820036
 20
-24.2230123917
 10
-4.6033565519
 20
-24.2206877869
 10
-4.595881267
 20
-24.2182634616
 10
-4.5883968902
 20
-24.2157403064
 10
-4.5809033617
 20
-24.2131182791
 10
-4.5734007413
 20
-24.2103974221
 10
-4.5658919163
 20
-24.207578753
 10
-4.5583778493
 20
-24.204662611
 10
-4.5508575778
 20
-24.201648657
 10
-4.303569261
 20
-24.0984537625
  0
LWPOLYLINE
  5
2E9
100
AcDbEntity
  8
RACCORDO
100
AcDbPolyline
 62
253
  6
CONTINUOUS
 90
82
 70
0
 10
-5.925102235
 20
-23.712821037
 10
-5.9245813245
 20
-23.726156226
 10
-5.9239427981
 20
-23.7394284014
 10
-5.9231866789
 20
-23.7526360811
 10
-5.9223129753
 20
-23.7657781697
 10
-5.9213217571
 20
-23.7788528137
 10
-5.9202131899
 20
-23.7918574232
 10
-5.9189873853
 20
-23.8047904844
 10
-5.9176444553
 20
-23.8176506454
 10
-5.9161846392
 20
-23.8304356048
 10
-5.9146081205
 20
-23.8431438303
 10
-5.9129150643
 20
-23.8557740692
 10
-5.9111057383
 20
-23.8683244766
 10
-5.9091803923
 20
-23.8807934836
 10
-5.9071392275
 20
-23.893179947
 10
-5.9049824655
 20
-23.9054826797
 10
-5.9027103876
 20
-23.9177001819
 10
-5.9003232287
 20
-23.9298312919
 10
-5.8978211369
 20
-23.9418753271
 10
-5.8952043569
 20
-23.9538310753
 10
-5.8924731934
 20
-23.9656971139
 10
-5.8896278761
 20
-23.9774724379
 10
-5.886668664
 20
-23.9891558966
 10
-5.8835959038
 20
-24.0007460501
 10
-5.8804099698
 20
-24.0122414707
 10
-5.8771111841
 20
-24.0236409503
 10
-5.8736999145
 20
-24.0349431762
 10
-5.870176636
 20
-24.0461465909
 10
-5.8665417733
 20
-24.05724985
 10
-5.8627956864
 20
-24.0682518613
 10
-5.8589387794
 20
-24.0791514691
 10
-5.8549714728
 20
-24.0899474774
 10
-5.8508941973
 20
-24.100638708
 10
-5.846707387
 20
-24.1112240456
 10
-5.8424114884
 20
-24.1217023459
 10
-5.8380069734
 20
-24.1320724448
 10
-5.8334943289
 20
-24.1423332127
 10
-5.8288740215
 20
-24.1524835717
 10
-5.8241465722
 20
-24.1625223616
 10
-5.8193125706
 20
-24.1724483518
 10
-5.8143725617
 20
-24.1822604233
 10
-5.8093270671
 20
-24.1919575415
 10
-5.8041766629
 20
-24.2015386256
 10
-5.7989219346
 20
-24.2110025886
 10
-5.7935634327
 20
-24.2203484418
 10
-5.7881016945
 20
-24.2295752682
 10
-5.7825373226
 20
-24.2386820396
 10
-5.7768709096
 20
-24.2476677776
 10
-5.7711029847
 20
-24.2565316483
 10
-5.7652341472
 20
-24.2652727046
 10
-5.7592650473
 20
-24.2738899525
 10
-5.7531962998
 20
-24.2823824986
 10
-5.747028498
 20
-24.2907494793
 10
-5.7407623578
 20
-24.2989898911
 10
-5.7343986979
 20
-24.3071026554
 10
-5.7279381877
 20
-24.3150869043
 10
-5.7213815436
 20
-24.3229417383
 10
-5.7147296847
 20
-24.3306660714
 10
-5.7079833519
 20
-24.3382590511
 10
-5.7011432689
 20
-24.3457198715
 10
-5.6942103578
 20
-24.3530475574
 10
-5.6871855125
 20
-24.3602411926
 10
-5.6800693787
 20
-24.3673001448
 10
-5.6728625171
 20
-24.3742238818
 10
-5.6655657238
 20
-24.3810116382
 10
-5.6581797793
 20
-24.3876626883
 10
-5.6507052154
 20
-24.3941765509
 10
-5.6431426908
 20
-24.4005526201
 10
-5.6354931572
 20
-24.4067900625
 10
-5.6277575942
 20
-24.4128880686
 10
-5.6199367757
 20
-24.418846012
 10
-5.6120316058
 20
-24.4246631882
 10
-5.604043288
 20
-24.4303387173
 10
-5.5959727915
 20
-24.4358719255
 10
-5.5878209024
 20
-24.4412622885
 10
-5.579588574
 20
-24.4465091935
 10
-5.5712767989
 20
-24.4516120246
 10
-5.5628863934
 20
-24.4565702978
 10
-5.5544180533
 20
-24.4613836101
 10
-5.5458726732
 20
-24.4660514494
 10
-5.537251202
 20
-24.4705732938
 10
-5.5317166366
 20
-24.4733790853
  0
LWPOLYLINE
  5
2EA
100
AcDbEntity
  8
RACCORDO
100
AcDbPolyline
 62
253
  6
CONTINUOUS
 90
67
 70
0
 10
-5.925102235
 20
11.9024188306
 10
-5.9432638562
 20
11.3543155648
 10
-5.9608669543
 20
10.806455004
 10
-5.9779115021
 20
10.2588379998
 10
-5.9943974752
 20
9.7114653466
 10
-6.0103248458
 20
9.1643379526
 10
-6.025693583
 20
8.6174568389
 10
-6.040503662
 20
8.0708229042
 10
-6.0547550619
 20
7.5244369493
 10
-6.068447759
 20
6.9782998483
 10
-6.0815817321
 20
6.4324124714
 10
-6.0941569618
 20
5.8867756456
 10
-6.1061734289
 20
5.3413901793
 10
-6.1176311152
 20
4.7962569133
 10
-6.1285300031
 20
4.2513767019
 10
-6.1388700753
 20
3.7067503733
 10
-6.1486513164
 20
3.1623787591
 10
-6.157873711
 20
2.6182627203
 10
-6.1665372439
 20
2.0744031294
 10
-6.1746419017
 20
1.5308008454
 10
-6.1821876722
 20
0.9874566992
 10
-6.1891745437
 20
0.4443715203
 10
-6.1956025054
 20
-0.0984538528
 10
-6.2014715475
 20
-0.641018571
 10
-6.2067816606
 20
-1.1833217896
 10
-6.2115328364
 20
-1.7253626654
 10
-6.2157250679
 20
-2.2671403566
 10
-6.2193583482
 20
-2.8086540217
 10
-6.2224326719
 20
-3.3499028177
 10
-6.2249480341
 20
-3.890885905
 10
-6.226904431
 20
-4.4316024477
 10
-6.2283018594
 20
-4.9720516071
 10
-6.2291403173
 20
-5.5122325418
 10
-6.2294198033
 20
-6.0521444125
 10
-6.229140317
 20
-6.5917863834
 10
-6.2283018587
 20
-7.1311576127
 10
-6.22690443
 20
-7.6702572521
 10
-6.2249480328
 20
-8.2090844571
 10
-6.2224326702
 20
-8.7476383973
 10
-6.2193583463
 20
-9.2859182454
 10
-6.2157250657
 20
-9.8239231685
 10
-6.2115328339
 20
-10.3616523271
 10
-6.2067816577
 20
-10.8991048848
 10
-6.2014715443
 20
-11.436280006
 10
-6.1956025019
 20
-11.9731768565
 10
-6.1891745399
 20
-12.5097946032
 10
-6.1821876679
 20
-13.0461324131
 10
-6.1746418969
 20
-13.582189452
 10
-6.1665372387
 20
-14.1179648857
 10
-6.1578737059
 20
-14.6534578805
 10
-6.1486513117
 20
-15.1886676056
 10
-6.1388700708
 20
-15.7235932312
 10
-6.1285299983
 20
-16.2582339221
 10
-6.1176311098
 20
-16.7925888517
 10
-6.1061734225
 20
-17.3266572037
 10
-6.0941569526
 20
-17.8604382052
 10
-6.0815817195
 20
-18.39393097
 10
-6.0684477474
 20
-18.9271345125
 10
-6.0547550441
 20
-19.4600484851
 10
-6.0405036425
 20
-19.992671579
 10
-6.0256936114
 20
-20.5250013713
 10
-6.0103250486
 20
-21.0570346658
 10
-5.9943979179
 20
-21.5887730135
 10
-5.9779120763
 20
-22.1202211058
 10
-5.9608674778
 20
-22.6513799477
 10
-5.9432641923
 20
-23.1822468685
 10
-5.925102235
 20
-23.712821037
  0
LWPOLYLINE
  5
2EB
100
AcDbEntity
  8
RACCORDO
100
AcDbPolyline
 62
253
  6
CONTINUOUS
 90
67
 70
0
 10
-5.2245187611
 20
11.8814034049
 10
-5.2426625743
 20
11.3338470354
 10
-5.2602483607
 20
10.78653481
 10
-5.2772761203
 20
10.2394667285
 10
-5.29374588
 20
9.6926418797
 10
-5.3096576128
 20
9.1460611748
 10
-5.3250112387
 20
8.5997273481
 10
-5.339806753
 20
8.0536404542
 10
-5.3540441603
 20
7.5078004385
 10
-5.3677233939
 20
6.9622098707
 10
-5.3808444506
 20
6.4168687733
 10
-5.3934073335
 20
5.8717771238
 10
-5.4054119852
 20
5.3269374244
 10
-5.4168584034
 20
4.7823496691
 10
-5.4277465905
 20
4.2380138638
 10
-5.4380764958
 20
3.6939325282
 10
-5.4478481173
 20
3.1501056483
 10
-5.4570614571
 20
2.606533238
 10
-5.4657164718
 20
2.0632178584
 10
-5.4738131587
 20
1.5201595245
 10
-5.4813515206
 20
0.9773582214
 10
-5.4883315226
 20
0.4348164647
 10
-5.4947531622
 20
-0.1074657499
 10
-5.500616442
 20
-0.649488418
 10
-5.5059213345
 20
-1.1912490112
 10
-5.5106678371
 20
-1.7327475278
 10
-5.5148559525
 20
-2.2739839695
 10
-5.5184856612
 20
-2.8149558135
 10
-5.5215569605
 20
-3.3556630571
 10
-5.5240698531
 20
-3.896105703
 10
-5.5260243273
 20
-4.4362812365
 10
-5.5274203805
 20
-4.976189658
 10
-5.5282580152
 20
-5.515830967
 10
-5.5285372275
 20
-6.0552026479
 10
-5.5282580149
 20
-6.5943047029
 10
-5.5274203799
 20
-7.1331371297
 10
-5.5260243264
 20
-7.6716974064
 10
-5.524069852
 20
-8.209985525
 10
-5.5215569591
 20
-8.7480014935
 10
-5.5184856595
 20
-9.2857428135
 10
-5.5148559505
 20
-9.8232094872
 10
-5.5106678348
 20
-10.3604015124
 10
-5.5059213319
 20
-10.8973163842
 10
-5.5006164392
 20
-11.4339541005
 10
-5.4947531592
 20
-11.9703146634
 10
-5.4883315193
 20
-12.5063955737
 10
-5.4813515168
 20
-13.0421968309
 10
-5.4738131544
 20
-13.5777184355
 10
-5.4657164673
 20
-14.1129578899
 10
-5.4570614527
 20
-14.6479151916
 10
-5.4478481133
 20
-15.1825903432
 10
-5.4380764921
 20
-15.7169808541
 10
-5.4277465864
 20
-16.251086719
 10
-5.4168583988
 20
-16.7849079433
 10
-5.4054119796
 20
-17.3184420527
 10
-5.3934073248
 20
-17.8516891026
 10
-5.3808444384
 20
-18.3846490376
 10
-5.3677233833
 20
-18.9173192174
 10
-5.354044141
 20
-19.4497001188
 10
-5.33980673
 20
-19.9817912651
 10
-5.3250112681
 20
-20.5135885854
 10
-5.3096578281
 20
-21.0450897152
 10
-5.2937463373
 20
-21.576297019
 10
-5.2772766952
 20
-22.1072135194
 10
-5.2602488684
 20
-22.6378402239
 10
-5.2426628904
 20
-23.1681761251
 10
-5.2245187611
 20
-23.6982212229
  0
LWPOLYLINE
  5
2EC
100
AcDbEntity
  8
RACCORDO
100
AcDbPolyline
 62
253
  6
CONTINUOUS
 90
27
 70
0
 10
-0.989706369
 20
17.1032968125
 10
-0.9945903862
 20
17.0913281543
 10
-0.9999409896
 20
17.0796349502
 10
-1.005743568
 20
17.0682491319
 10
-1.0119822756
 20
17.0572017917
 10
-1.018640076
 20
17.0465230976
 10
-1.0256987879
 20
17.0362422108
 10
-1.0331391356
 20
17.0263872063
 10
-1.0409408011
 20
17.0169849961
 10
-1.0490824796
 20
17.0080612555
 10
-1.0575419378
 20
16.9996403536
 10
-1.0662960749
 20
16.9917452859
 10
-1.075320985
 20
16.9843976124
 10
-1.0845920231
 20
16.9776173979
 10
-1.0940838718
 20
16.9714231577
 10
-1.103770611
 20
16.9658318072
 10
-1.1136257881
 20
16.9608586149
 10
-1.1236224907
 20
16.9565171618
 10
-1.13373342
 20
16.9528193035
 10
-1.143930965
 20
16.9497751379
 10
-1.1541872786
 20
16.947392978
 10
-1.1644743527
 20
16.9456793291
 10
-1.1747640955
 20
16.9446388708
 10
-1.185028408
 20
16.9442744443
 10
-1.1952392604
 20
16.9445870449
 10
-1.205368769
 20
16.9455758188
 10
-1.2153892723
 20
16.9472380659
  0
LINE
  5
2ED
100
AcDbEntity
  8
RACCORDO
100
AcDbLine
 62
7
  6
CONTINUOUS
 10
-18.3199788175
 20
-3.2802564041
 11
-18.3353166449
 21
-3.2913325548
  0
LINE
  5
2EE
100
AcDbEntity
  8
RACCORDO
100
AcDbLine
 62
7
  6
CONTINUOUS
 10
-18.3038524087
 20
-3.2687375855
 11
-18.3199788175
 21
-3.2802564041
  0
LINE
  5
2EF
100
AcDbEntity
  8
RACCORDO
100
AcDbLine
 62
7
  6
CONTINUOUS
 10
-18.2869320575
 20
-3.2567988658
 11
-18.3038524087
 21
-3.2687375855
  0
LINE
  5
2F0
100
AcDbEntity
  8
RACCORDO
100
AcDbLine
 62
7
  6
CONTINUOUS
 10
-18.2692490414
 20
-3.2444582089
 11
-18.2869320575
 21
-3.2567988658
  0
LINE
  5
2F1
100
AcDbEntity
  8
RACCORDO
100
AcDbLine
 62
7
  6
CONTINUOUS
 10
-18.2508295744
 20
-3.23173205
 11
-18.2692490414
 21
-3.2444582089
  0
LINE
  5
2F2
100
AcDbEntity
  8
RACCORDO
100
AcDbLine
 62
7
  6
CONTINUOUS
 10
-18.2218562677
 20
-3.2119685624
 11
-18.2508295744
 21
-3.23173205
  0
LINE
  5
2F3
100
AcDbEntity
  8
RACCORDO
100
AcDbLine
 62
7
  6
CONTINUOUS
 10
-18.1913452462
 20
-3.1914522906
 11
-18.2218562677
 21
-3.2119685624
  0
LINE
  5
2F4
100
AcDbEntity
  8
RACCORDO
100
AcDbLine
 62
7
  6
CONTINUOUS
 10
-18.1593749386
 20
-3.1702485067
 11
-18.1913452462
 21
-3.1914522906
  0
LINE
  5
2F5
100
AcDbEntity
  8
RACCORDO
100
AcDbLine
 62
7
  6
CONTINUOUS
 10
-18.1260240737
 20
-3.1484225037
 11
-18.1593749386
 21
-3.1702485067
  0
LINE
  5
2F6
100
AcDbEntity
  8
RACCORDO
100
AcDbLine
 62
7
  6
CONTINUOUS
 10
-18.0913746319
 20
-3.1260418815
 11
-18.1260240737
 21
-3.1484225037
  0
LINE
  5
2F7
100
AcDbEntity
  8
RACCORDO
100
AcDbLine
 62
7
  6
CONTINUOUS
 10
-18.0555092083
 20
-3.1031752557
 11
-18.0913746319
 21
-3.1260418815
  0
LINE
  5
2F8
100
AcDbEntity
  8
RACCORDO
100
AcDbLine
 62
7
  6
CONTINUOUS
 10
-18.0185137236
 20
-3.0798944537
 11
-18.0555092083
 21
-3.1031752557
  0
LINE
  5
2F9
100
AcDbEntity
  8
RACCORDO
100
AcDbLine
 62
7
  6
CONTINUOUS
 10
-17.9804808967
 20
-3.0562771632
 11
-18.0185137236
 21
-3.0798944537
  0
LINE
  5
2FA
100
AcDbEntity
  8
RACCORDO
100
AcDbLine
 62
7
  6
CONTINUOUS
 10
-17.9415150578
 20
-3.0324103897
 11
-17.9804808967
 21
-3.0562771632
  0
LINE
  5
2FB
100
AcDbEntity
  8
0
100
AcDbLine
 62
7
  6
CONTINUOUS
 10
-16.8009300649
 20
0.9120063665
 11
-14.1541234802
 21
2.2354096589
  0
LINE
  5
2FC
100
AcDbEntity
  8
0
100
AcDbLine
 62
7
  6
CONTINUOUS
 10
-16.6418310392
 20
0.8324568537
 11
-13.9950244544
 21
2.155860146
  0
LINE
  5
2FD
100
AcDbEntity
  8
RACCORDO
100
AcDbLine
 62
7
  6
CONTINUOUS
 10
17.1482467818
 20
16.9965327488
 11
8.6198764577
 21
12.841191
  0
LINE
  5
2FE
100
AcDbEntity
  8
0
100
AcDbLine
 62
7
  6
CONTINUOUS
 10
-16.8009300649
 20
0.9120063665
 11
-16.6418310392
 21
0.8324568537
  0
LINE
  5
2FF
100
AcDbEntity
  8
0
100
AcDbLine
 62
7
  6
CONTINUOUS
 10
-16.6418310392
 20
2.3047000401
 11
-16.8009300649
 21
2.384249553
  0
LWPOLYLINE
  5
300
100
AcDbEntity
  8
RACCORDO
100
AcDbPolyline
 62
253
  6
CONTINUOUS
 90
34
 70
0
 10
-4.5433311047
 20
13.0395343506
 10
-4.5446186594
 20
13.0598692803
 10
-4.5466892917
 20
13.0805650551
 10
-4.5495383235
 20
13.1015748429
 10
-4.5531593399
 20
13.1228510874
 10
-4.5575441313
 20
13.1443456561
 10
-4.5626827077
 20
13.1660099525
 10
-4.568563435
 20
13.1877949612
 10
-4.5751730194
 20
13.2096513824
 10
-4.5824964586
 20
13.2315297887
 10
-4.5905171744
 20
13.2533806803
 10
-4.5992170262
 20
13.2751546112
 10
-4.6085763007
 20
13.2968023297
 10
-4.6185738136
 20
13.318274858
 10
-4.6291869484
 20
13.3395236078
 10
-4.6403916791
 20
13.3605005063
 10
-4.6521626465
 20
13.3811580933
 10
-4.6644732198
 20
13.401449625
 10
-4.6772955468
 20
13.4213291864
 10
-4.6906006092
 20
13.4407517994
 10
-4.7043583046
 20
13.4596735151
 10
-4.7185375201
 20
13.4780515102
 10
-4.7331061681
 20
13.4958442036
 10
-4.7480312876
 20
13.5130113343
 10
-4.7632791373
 20
13.5295140418
 10
-4.7788152123
 20
13.545314988
 10
-4.7946043635
 20
13.560378418
 10
-4.8106109081
 20
13.5746702245
 10
-4.8267986246
 20
13.5881580714
 10
-4.8431308904
 20
13.6008114375
 10
-4.8595708082
 20
13.6126016611
 10
-4.8760811994
 20
13.6235020537
 10
-4.892624688
 20
13.6334879613
 10
-4.9091638416
 20
13.6425367886
  0
LWPOLYLINE
  5
301
100
AcDbEntity
  8
RACCORDO
100
AcDbPolyline
 62
7
  6
CONTINUOUS
 90
20
 70
0
 10
-2.7404363132
 20
-23.7848878496
 10
-2.7400308458
 20
-23.7991204654
 10
-2.7388076618
 20
-23.8133777061
 10
-2.7367600746
 20
-23.8276032401
 10
-2.7338860768
 20
-23.8417404002
 10
-2.7301887715
 20
-23.8557310472
 10
-2.7256763312
 20
-23.8695172413
 10
-2.7203623282
 20
-23.8830409319
 10
-2.7142631534
 20
-23.8962500763
 10
-2.707395775
 20
-23.9090997329
 10
-2.6997826931
 20
-23.9215410353
 10
-2.6914516402
 20
-23.9335244476
 10
-2.6824282253
 20
-23.9450100083
 10
-2.672738062
 20
-23.9559611447
 10
-2.6624182724
 20
-23.9663326227
 10
-2.6515112037
 20
-23.976081154
 10
-2.6400424932
 20
-23.9851826094
 10
-2.6280544638
 20
-23.9936011569
 10
-2.6156136445
 20
-24.0012917214
 10
-2.60223261
 20
-24.0084981981
  0
LWPOLYLINE
  5
302
100
AcDbEntity
  8
RACCORDO
100
AcDbPolyline
 62
253
  6
CONTINUOUS
 90
18
 70
0
 10
-2.6672130085
 20
-23.8732761973
 10
-2.6669736536
 20
-23.8844193425
 10
-2.6662556484
 20
-23.895299563
 10
-2.6650600583
 20
-23.9058868338
 10
-2.6633888608
 20
-23.9161539038
 10
-2.6612459259
 20
-23.9260700198
 10
-2.6586379704
 20
-23.9356017683
 10
-2.6555727984
 20
-23.9447212971
 10
-2.6520582441
 20
-23.9534058682
 10
-2.6481037629
 20
-23.9616320589
 10
-2.6437199991
 20
-23.969377583
 10
-2.6389189195
 20
-23.9766211672
 10
-2.633713714
 20
-23.9833428725
 10
-2.628118625
 20
-23.9895243351
 10
-2.6221488221
 20
-23.9951488218
 10
-2.6158205002
 20
-24.0002010704
 10
-2.6091508491
 20
-24.0046673369
 10
-2.6022397363
 20
-24.0084946353
  0
LINE
  5
303
100
AcDbEntity
  8
DRAFT
100
AcDbLine
 62
253
  6
CONTINUOUS
 10
-5.0806351668
 20
22.6889399871
 11
-5.0806351668
 21
23.197080466
  0
LINE
  5
304
100
AcDbEntity
  8
RACCORDO
100
AcDbLine
 62
253
  6
CONTINUOUS
 10
-4.8705660292
 20
18.6324190652
 11
-4.8705660292
 21
19.713002376
  0
LINE
  5
305
100
AcDbEntity
  8
DRAFT
100
AcDbLine
 62
7
  6
CONTINUOUS
 10
-4.3735283856
 20
23.5506338566
 11
-4.3735283856
 21
24.1031920459
  0
LINE
  5
306
100
AcDbEntity
  8
RACCORDO
100
AcDbLine
 62
253
  6
CONTINUOUS
 10
-4.1655221099
 20
18.6539548285
 11
-4.1655221099
 21
19.8866818008
  0
LINE
  5
307
100
AcDbEntity
  8
ASSI
100
AcDbLine
 62
253
  6
CONTINUOUS
 10
-4.0397527629
 20
25.4938629981
 11
-4.0397527629
 21
24.2665124011
  0
LINE
  5
308
100
AcDbEntity
  8
DRAFT
100
AcDbLine
 62
7
  6
CONTINUOUS
 10
-4.019974995
 20
23.3738571613
 11
-4.019974995
 21
23.9264153506
  0
LINE
  5
309
100
AcDbEntity
  8
ASSI
100
AcDbLine
 62
7
  6
CONTINUOUS
 10
-3.9144032557
 20
25.5031828206
 11
-3.9144032557
 21
24.4155405595
  0
LINE
  5
30A
100
AcDbEntity
  8
DRAFT
100
AcDbLine
 62
7
  6
CONTINUOUS
 10
-3.8078429606
 20
20.0659863456
 11
-3.8078429606
 21
18.8535507803
  0
LINE
  5
30B
100
AcDbEntity
  8
DRAFT
100
AcDbLine
 62
253
  6
CONTINUOUS
 10
-3.6664216044
 20
22.6889399871
 11
-3.6664216044
 21
23.197080466
  0
LWPOLYLINE
  5
30C
100
AcDbEntity
  8
RACCORDO
100
AcDbPolyline
 62
7
  6
CONTINUOUS
 90
20
 70
0
 10
-2.7404363132
 20
18.194664158
 10
-2.7400324411
 20
18.2088687699
 10
-2.7388138295
 20
18.2231001939
 10
-2.736773442
 20
18.2373023917
 10
-2.7339086906
 20
18.2514197866
 10
-2.7302223683
 20
18.2653935558
 10
-2.7257230759
 20
18.279163503
 10
-2.7204244825
 20
18.2926715144
 10
-2.7143427409
 20
18.3058662782
 10
-2.7074952595
 20
18.3187021112
 10
-2.699904589
 20
18.3311304225
 10
-2.6915982025
 20
18.3431023412
 10
-2.6826017946
 20
18.3545779716
 10
-2.6729404863
 20
18.3655214865
 10
-2.6626512138
 20
18.3758878539
 10
-2.6517769429
 20
18.3856332686
 10
-2.6403427793
 20
18.394734274
 10
-2.6283906232
 20
18.4031554248
 10
-2.6159879917
 20
18.4108510587
 10
-2.6045432607
 20
18.4171042723
  0
LWPOLYLINE
  5
30D
100
AcDbEntity
  8
RACCORDO
100
AcDbPolyline
 62
7
  6
CONTINUOUS
 90
3
 70
0
 10
-8.9649941478
 20
-0.2195037932
 10
-8.9517620925
 20
-0.209380618
 10
-8.9449080547
 20
-0.204206134
  0
LINE
  5
30E
100
AcDbEntity
  8
RACCORDO
100
AcDbLine
 62
7
  6
CONTINUOUS
 10
-8.9449080547
 20
-0.204206134
 11
-8.9307491085
 21
-0.1936579044
  0
LWPOLYLINE
  5
30F
100
AcDbEntity
  8
RACCORDO
100
AcDbPolyline
 62
7
  6
CONTINUOUS
 90
3
 70
0
 10
-8.9307491085
 20
-0.1936579044
 10
-8.9160523866
 20
-0.1828695429
 10
-8.9085052061
 20
-0.1774006735
  0
LINE
  5
310
100
AcDbEntity
  8
RACCORDO
100
AcDbLine
 62
7
  6
CONTINUOUS
 10
-16.3295871725
 20
-5.651965248
 11
-16.3448760974
 21
-5.6630183544
  0
LINE
  5
311
100
AcDbEntity
  8
RACCORDO
100
AcDbLine
 62
7
  6
CONTINUOUS
 10
-16.3400798301
 20
-4.2702058977
 11
-16.3554176576
 21
-4.2812820485
  0
LINE
  5
312
100
AcDbEntity
  8
RACCORDO
100
AcDbLine
 62
7
  6
CONTINUOUS
 10
-16.3135100341
 20
-5.6404672743
 11
-16.3295871725
 21
-5.651965248
  0
LINE
  5
313
100
AcDbEntity
  8
RACCORDO
100
AcDbLine
 62
7
  6
CONTINUOUS
 10
-16.3239534213
 20
-4.2586870791
 11
-16.3400798301
 21
-4.2702058977
  0
LINE
  5
314
100
AcDbEntity
  8
RACCORDO
100
AcDbLine
 62
7
  6
CONTINUOUS
 10
-16.2966392523
 20
-5.6285470303
 11
-16.3135100341
 21
-5.6404672743
  0
LINE
  5
315
100
AcDbEntity
  8
RACCORDO
100
AcDbLine
 62
7
  6
CONTINUOUS
 10
-16.3070330701
 20
-4.2467483594
 11
-16.3239534213
 21
-4.2586870791
  0
LINE
  5
316
100
AcDbEntity
  8
RACCORDO
100
AcDbLine
 62
7
  6
CONTINUOUS
 10
-16.2790060698
 20
-5.6162221587
 11
-16.2966392523
 21
-5.6285470303
  0
LINE
  5
317
100
AcDbEntity
  8
RACCORDO
100
AcDbLine
 62
7
  6
CONTINUOUS
 10
-16.2893500539
 20
-4.2344077024
 11
-16.3070330701
 21
-4.2467483594
  0
LINE
  5
318
100
AcDbEntity
  8
RACCORDO
100
AcDbLine
 62
7
  6
CONTINUOUS
 10
-16.2606365526
 20
-5.6035090322
 11
-16.2790060698
 21
-5.6162221587
  0
LINE
  5
319
100
AcDbEntity
  8
RACCORDO
100
AcDbLine
 62
7
  6
CONTINUOUS
 10
-16.2709305869
 20
-4.2216815436
 11
-16.2893500539
 21
-4.2344077024
  0
LINE
  5
31A
100
AcDbEntity
  8
RACCORDO
100
AcDbLine
 62
7
  6
CONTINUOUS
 10
-16.2317381271
 20
-5.5837597057
 11
-16.2606365526
 21
-5.6035090322
  0
LINE
  5
31B
100
AcDbEntity
  8
RACCORDO
100
AcDbLine
 62
7
  6
CONTINUOUS
 10
-16.2419572802
 20
-4.2019180559
 11
-16.2709305869
 21
-4.2216815436
  0
LINE
  5
31C
100
AcDbEntity
  8
RACCORDO
100
AcDbLine
 62
7
  6
CONTINUOUS
 10
-16.2116116752
 20
-5.5701682036
 11
-16.2317381271
 21
-5.5837597057
  0
LINE
  5
31D
100
AcDbEntity
  8
RACCORDO
100
AcDbLine
 62
7
  6
CONTINUOUS
 10
-16.2114462587
 20
-4.1814017841
 11
-16.2419572802
 21
-4.2019180559
  0
LINE
  5
31E
100
AcDbEntity
  8
RACCORDO
100
AcDbLine
 62
7
  6
CONTINUOUS
 10
-16.179475951
 20
-4.1601980002
 11
-16.2114462587
 21
-4.1814017841
  0
LINE
  5
31F
100
AcDbEntity
  8
RACCORDO
100
AcDbLine
 62
7
  6
CONTINUOUS
 10
-16.1461250862
 20
-4.1383719973
 11
-16.179475951
 21
-4.1601980002
  0
LINE
  5
320
100
AcDbEntity
  8
RACCORDO
100
AcDbLine
 62
7
  6
CONTINUOUS
 10
-16.1114756445
 20
-4.1159913751
 11
-16.1461250862
 21
-4.1383719973
  0
LINE
  5
321
100
AcDbEntity
  8
RACCORDO
100
AcDbLine
 62
7
  6
CONTINUOUS
 10
-16.0756102209
 20
-4.0931247493
 11
-16.1114756445
 21
-4.1159913751
  0
LINE
  5
322
100
AcDbEntity
  8
RACCORDO
100
AcDbLine
 62
7
  6
CONTINUOUS
 10
-16.0386147363
 20
-4.0698439474
 11
-16.0756102209
 21
-4.0931247493
  0
LINE
  5
323
100
AcDbEntity
  8
RACCORDO
100
AcDbLine
 62
7
  6
CONTINUOUS
 10
-16.0005819095
 20
-4.0462266569
 11
-16.0386147363
 21
-4.0698439474
  0
LINE
  5
324
100
AcDbEntity
  8
RACCORDO
100
AcDbLine
 62
7
  6
CONTINUOUS
 10
-15.9616160706
 20
-4.0223598834
 11
-16.0005819095
 21
-4.0462266569
  0
LINE
  5
325
100
AcDbEntity
  8
RACCORDO
100
AcDbLine
 62
7
  6
CONTINUOUS
 10
-17.9017386657
 20
-3.0083949339
 11
-17.9415150578
 21
-3.0324103897
  0
LINE
  5
326
100
AcDbEntity
  8
RACCORDO
100
AcDbLine
 62
7
  6
CONTINUOUS
 10
-15.9218396786
 20
-3.9983444277
 11
-15.9616160706
 21
-4.0223598834
  0
LINE
  5
327
100
AcDbEntity
  8
RACCORDO
100
AcDbLine
 62
7
  6
CONTINUOUS
 10
-17.8613012347
 20
-2.9843512338
 11
-17.9017386657
 21
-3.0083949339
  0
LINE
  5
328
100
AcDbEntity
  8
RACCORDO
100
AcDbLine
 62
7
  6
CONTINUOUS
 10
-15.8814022477
 20
-3.9743007276
 11
-15.9218396786
 21
-3.9983444277
  0
LINE
  5
329
100
AcDbEntity
  8
RACCORDO
100
AcDbLine
 62
7
  6
CONTINUOUS
 10
-17.8340671603
 20
-2.9683819606
 11
-17.8613012347
 21
-2.9843512338
  0
LWPOLYLINE
  5
32A
100
AcDbEntity
  8
RACCORDO
100
AcDbPolyline
 62
7
  6
CONTINUOUS
 90
3
 70
0
 10
-15.8404976258
 20
-3.9503797067
 10
-15.8541681732
 20
-3.9583314544
 10
-15.8814022477
 20
-3.9743007276
  0
LINE
  5
32B
100
AcDbEntity
  8
RACCORDO
100
AcDbLine
 62
7
  6
CONTINUOUS
 10
-17.8066954762
 20
-2.9525226988
 11
-17.8340671603
 21
-2.9683819606
  0
LINE
  5
32C
100
AcDbEntity
  8
RACCORDO
100
AcDbLine
 62
7
  6
CONTINUOUS
 10
-17.7792884199
 20
-2.9368278631
 11
-17.8066954762
 21
-2.9525226988
  0
LINE
  5
32D
100
AcDbEntity
  8
RACCORDO
100
AcDbLine
 62
7
  6
CONTINUOUS
 10
-17.7519369867
 20
-2.9213949211
 11
-17.7792884199
 21
-2.9368278631
  0
LINE
  5
32E
100
AcDbEntity
  8
RACCORDO
100
AcDbLine
 62
7
  6
CONTINUOUS
 10
-17.7247785239
 20
-2.9063047463
 11
-17.7519369867
 21
-2.9213949211
  0
LINE
  5
32F
100
AcDbEntity
  8
RACCORDO
100
AcDbLine
 62
7
  6
CONTINUOUS
 10
-17.6979932847
 20
-2.8916570678
 11
-17.7247785239
 21
-2.9063047463
  0
LWPOLYLINE
  5
330
100
AcDbEntity
  8
RACCORDO
100
AcDbPolyline
 62
7
  6
CONTINUOUS
 90
5
 70
0
 10
-17.6338601178
 20
-2.8578615219
 10
-17.646276115
 20
-2.8642201574
 10
-17.6589064154
 20
-2.8708048798
 10
-17.6717383359
 20
-2.8775911685
 10
-17.6979932847
 20
-2.8916570678
  0
LINE
  5
331
100
AcDbEntity
  8
DRAFT
100
AcDbLine
 62
7
  6
CONTINUOUS
 10
18.245249454
 20
15.9107326124
 11
17.2639391187
 21
15.4114382864
  0
LINE
  5
332
100
AcDbEntity
  8
RACCORDO
100
AcDbLine
 62
7
  6
CONTINUOUS
 10
-16.8539630735
 20
-2.4663856119
 11
-17.6313189046
 21
-2.8565749798
  0
LINE
  5
333
100
AcDbEntity
  8
ASSI
100
AcDbLine
 62
7
  6
CONTINUOUS
 10
16.4861216594
 20
14.5462155846
 11
14.8803732239
 21
13.7433413669
  0
LINE
  5
334
100
AcDbEntity
  8
ASSI
100
AcDbLine
 62
7
  6
CONTINUOUS
 10
14.556336189
 20
13.5813228494
 11
11.344839318
 21
11.9755744139
  0
LINE
  5
335
100
AcDbEntity
  8
ASSI
100
AcDbLine
 62
7
  6
CONTINUOUS
 10
11.0208022831
 20
11.8135558964
 11
8.6198764577
 21
10.6130929837
  0
LINE
  5
336
100
AcDbEntity
  8
0
100
AcDbLine
 62
7
  6
CONTINUOUS
 10
-16.6418310392
 20
-2.068728249
 11
-11.0938393517
 21
0.7052675947
  0
LINE
  5
337
100
AcDbEntity
  8
0
100
AcDbLine
 62
7
  6
CONTINUOUS
 10
9.4150538476
 20
10.7985496443
 11
9.8393179163
 21
11.0106816787
  0
LINE
  5
338
100
AcDbEntity
  8
DRAFT
100
AcDbLine
 62
7
  6
CONTINUOUS
 10
17.2639391187
 20
15.4114382864
 11
8.6198764577
 21
11.106509974
  0
LINE
  5
339
100
AcDbEntity
  8
SMUSSO
100
AcDbLine
 62
7
  6
CONTINUOUS
 10
18.245249454
 20
16.2617874553
 11
8.6198764577
 21
11.5719448782
  0
LINE
  5
33A
100
AcDbEntity
  8
RACCORDO
100
AcDbLine
 62
7
  6
CONTINUOUS
 10
20.7984254353
 20
15.171443422
 11
8.6198764577
 21
9.4456306727
  0
LINE
  5
33B
100
AcDbEntity
  8
RACCORDO
100
AcDbLine
 62
7
  6
CONTINUOUS
 10
-17.9204932831
 20
4.1185945604
 11
-9.0574840989
 21
-0.3129100317
  0
LINE
  5
33C
100
AcDbEntity
  8
RACCORDO
100
AcDbLine
 62
253
  6
CONTINUOUS
 10
-18.3262928727
 20
4.5314931598
 11
-8.9085052067
 21
-0.1774006732
  0
LWPOLYLINE
  5
33D
100
AcDbEntity
  8
RACCORDO
100
AcDbPolyline
 62
7
  6
CONTINUOUS
 90
39
 70
0
 10
-17.9204183762
 20
4.1185571246
 10
-17.9332569627
 20
4.125167708
 10
-17.9463236849
 20
4.1322798954
 10
-17.9592944468
 20
4.1397212271
 10
-17.9721695887
 20
4.1474812155
 10
-17.9849368699
 20
4.1555449491
 10
-17.9975956343
 20
4.1639024813
 10
-18.0101463558
 20
4.1725441456
 10
-18.0225778943
 20
4.1814571488
 10
-18.0348900423
 20
4.1906324935
 10
-18.0470833663
 20
4.2000612193
 10
-18.0591473296
 20
4.2097319824
 10
-18.0710820956
 20
4.2196365912
 10
-18.0828882897
 20
4.229766667
 10
-18.0945555764
 20
4.2401117017
 10
-18.1060844404
 20
4.2506641761
 10
-18.1174755632
 20
4.2614161786
 10
-18.1287185008
 20
4.272357479
 10
-18.1398140392
 20
4.2834811152
 10
-18.1507629307
 20
4.2947795351
 10
-18.1615543854
 20
4.3062422645
 10
-18.1721893073
 20
4.3178625989
 10
-18.1826687431
 20
4.3296334453
 10
-18.1929819246
 20
4.3415442123
 10
-18.2031302045
 20
4.3535887726
 10
-18.2131145948
 20
4.3657600693
 10
-18.2229237406
 20
4.3780464264
 10
-18.2325592464
 20
4.3904419603
 10
-18.2420223841
 20
4.4029398398
 10
-18.2513013747
 20
4.4155271301
 10
-18.2603981472
 20
4.428198206
 10
-18.2693142504
 20
4.4409463675
 10
-18.2780375612
 20
4.4537571159
 10
-18.2865703565
 20
4.4666250165
 10
-18.2949145428
 20
4.4795435271
 10
-18.3030578223
 20
4.4924964523
 10
-18.3109978404
 20
4.5054744719
 10
-18.3187419907
 20
4.518475259
 10
-18.3262928733
 20
4.5314931601
  0
LWPOLYLINE
  5
33E
100
AcDbEntity
  8
ASSI
100
AcDbPolyline
 62
7
  6
CONTINUOUS
 90
6
 70
0
 10
-3.9144032846
 20
25.5034591471
 10
-3.9144562789
 20
25.5046996595
 10
-3.9152536339
 20
25.5081400831
 10
-3.9169667215
 20
25.5109667169
 10
-3.9195515768
 20
25.5132297253
 10
-3.9212150269
 20
25.5141864097
  0
LWPOLYLINE
  5
33F
100
AcDbEntity
  8
RACCORDO
100
AcDbPolyline
 62
253
  6
CONTINUOUS
 90
18
 70
0
 10
-1.3422283287
 20
-24.5357685372
 10
-1.3419889738
 20
-24.5469116824
 10
-1.3412709686
 20
-24.5577919029
 10
-1.3400753785
 20
-24.5683791737
 10
-1.338404181
 20
-24.5786462437
 10
-1.3362612461
 20
-24.5885623597
 10
-1.3336532906
 20
-24.5980941082
 10
-1.3305881186
 20
-24.607213637
 10
-1.3270735643
 20
-24.6158982081
 10
-1.3231190831
 20
-24.6241243988
 10
-1.3187353193
 20
-24.6318699229
 10
-1.3139342396
 20
-24.6391135071
 10
-1.3087290342
 20
-24.6458352124
 10
-1.3031339452
 20
-24.652016675
 10
-1.2971641423
 20
-24.6576411617
 10
-1.2908358204
 20
-24.6626934103
 10
-1.2841661693
 20
-24.6671596768
 10
-1.2772550565
 20
-24.6709869752
  0
LWPOLYLINE
  5
340
100
AcDbEntity
  8
RACCORDO
100
AcDbPolyline
 62
253
  6
CONTINUOUS
 90
19
 70
0
 10
-2.6672130085
 20
17.7663018762
 10
-2.6669931538
 20
17.7556172197
 10
-2.6663341366
 20
17.7451789932
 10
-2.6652375958
 20
17.7350131608
 10
-2.6637062649
 20
17.7251450422
 10
-2.6617439496
 20
17.7155991476
 10
-2.6593555038
 20
17.7063991272
 10
-2.6565468337
 20
17.6975678152
 10
-2.6533249282
 20
17.6891272582
 10
-2.6496978306
 20
17.6810985498
 10
-2.645674551
 20
17.673501639
 10
-2.6412651084
 20
17.6663554481
 10
-2.6364805719
 20
17.6596778828
 10
-2.6313329385
 20
17.6534856055
 10
-2.6258349705
 20
17.6477938931
 10
-2.6200002368
 20
17.6426167669
 10
-2.6138420203
 20
17.6379662518
 10
-2.6073767461
 20
17.6338549782
 10
-2.6022385614
 20
17.6310828508
  0
LWPOLYLINE
  5
341
100
AcDbEntity
  8
RACCORDO
100
AcDbPolyline
 62
253
  6
CONTINUOUS
 90
19
 70
0
 10
-1.3422283287
 20
17.1038095363
 10
-1.342008474
 20
17.0931248798
 10
-1.3413494568
 20
17.0826866533
 10
-1.340252916
 20
17.0725208209
 10
-1.3387215851
 20
17.0626527023
 10
-1.3367592698
 20
17.0531068077
 10
-1.334370824
 20
17.0439067872
 10
-1.3315621539
 20
17.0350754753
 10
-1.3283402484
 20
17.0266349183
 10
-1.3247131508
 20
17.0186062099
 10
-1.3206898712
 20
17.0110092991
 10
-1.3162804286
 20
17.0038631082
 10
-1.3114958921
 20
16.9971855429
 10
-1.3063482586
 20
16.9909932656
 10
-1.3008502907
 20
16.9853015532
 10
-1.295015557
 20
16.980124427
 10
-1.2888573405
 20
16.9754739119
 10
-1.2823920663
 20
16.9713626383
 10
-1.2772656654
 20
16.9685964036
  0
LINE
  5
342
100
AcDbEntity
  8
RACCORDO
100
AcDbLine
 62
7
  6
CONTINUOUS
 10
-2.7404363132
 20
18.194664158
 11
-2.7404363132
 21
17.8546902239
  0
LINE
  5
343
100
AcDbEntity
  8
RACCORDO
100
AcDbLine
 62
7
  6
CONTINUOUS
 10
-2.7404363132
 20
-23.6682902874
 11
-2.7404363132
 21
-23.7848878496
  0
LINE
  5
344
100
AcDbEntity
  8
RACCORDO
100
AcDbLine
 62
253
  6
CONTINUOUS
 10
-2.6672130085
 20
18.1062758104
 11
-2.6672130085
 21
17.7663018762
  0
LINE
  5
345
100
AcDbEntity
  8
RACCORDO
100
AcDbLine
 62
253
  6
CONTINUOUS
 10
-2.6672130085
 20
-23.6381199919
 11
-2.6672130085
 21
-23.8732761973
  0
LINE
  5
346
100
AcDbEntity
  8
RACCORDO
100
AcDbLine
 62
7
  6
CONTINUOUS
 10
-2.0374433589
 20
16.8947130566
 11
-2.0374433589
 21
17.3486852495
  0
LINE
  5
347
100
AcDbEntity
  8
RACCORDO
100
AcDbLine
 62
253
  6
CONTINUOUS
 10
-1.9642200542
 20
16.802999453
 11
-1.9642200542
 21
17.3120735972
  0
LINE
  5
348
100
AcDbEntity
  8
RACCORDO
100
AcDbLine
 62
253
  6
CONTINUOUS
 10
-1.3422283287
 20
-24.5357685372
 11
-1.3422283287
 21
-24.1957946031
  0
LINE
  5
349
100
AcDbEntity
  8
RACCORDO
100
AcDbLine
 62
253
  6
CONTINUOUS
 10
-1.3422283287
 20
17.1038095363
 11
-1.3422283287
 21
17.4437834704
  0
LINE
  5
34A
100
AcDbEntity
  8
RACCORDO
100
AcDbLine
 62
7
  6
CONTINUOUS
 10
-1.2622585484
 20
24.4172978946
 11
-1.2622585484
 21
24.1464976019
  0
LINE
  5
34B
100
AcDbEntity
  8
RACCORDO
100
AcDbLine
 62
253
  6
CONTINUOUS
 10
-0.989706369
 20
-24.536281261
 11
-0.989706369
 21
-24.1963073269
  0
LINE
  5
34C
100
AcDbEntity
  8
RACCORDO
100
AcDbLine
 62
253
  6
CONTINUOUS
 10
-0.989706369
 20
17.1032968125
 11
-0.989706369
 21
17.4432707466
  0
LWPOLYLINE
  5
34D
100
AcDbEntity
  8
RACCORDO
100
AcDbPolyline
 62
253
  6
CONTINUOUS
 90
31
 70
0
 10
-2.6672130085
 20
18.1062758104
 10
-2.6669736536
 20
18.1176583105
 10
-2.6662556484
 20
18.1292565362
 10
-2.6650600583
 20
18.1410393971
 10
-2.6633888608
 20
18.1529776645
 10
-2.6612459259
 20
18.1650367155
 10
-2.6586379704
 20
18.1771764194
 10
-2.6555727984
 20
18.1893611202
 10
-2.6520582441
 20
18.2015602456
 10
-2.6481037629
 20
18.2137409176
 10
-2.6437199991
 20
18.2258702055
 10
-2.6389189195
 20
18.2379148693
 10
-2.633713714
 20
18.2498417801
 10
-2.628118625
 20
18.2616183316
 10
-2.6221488221
 20
18.2732126213
 10
-2.6158205002
 20
18.2845931918
 10
-2.6091508491
 20
18.2957291094
 10
-2.6021580416
 20
18.3065900129
 10
-2.5948611329
 20
18.3171462975
 10
-2.5872799904
 20
18.3273692177
 10
-2.5794352391
 20
18.3372309581
 10
-2.5713482329
 20
18.3467046705
 10
-2.5630409807
 20
18.3557645684
 10
-2.554536094
 20
18.364385988
 10
-2.5458567289
 20
18.3725454536
 10
-2.5370265029
 20
18.3802207601
 10
-2.5280694566
 20
18.3873910092
 10
-2.5190099974
 20
18.3940366636
 10
-2.5098727939
 20
18.4001396323
 10
-2.5006827075
 20
18.4056833147
 10
-2.4914647525
 20
18.4106526253
  0
LWPOLYLINE
  5
34E
100
AcDbEntity
  8
RACCORDO
100
AcDbPolyline
 62
253
  6
CONTINUOUS
 90
31
 70
0
 10
-1.3422283287
 20
17.4437834704
 10
-1.3419877474
 20
17.4551953798
 10
-1.3412666563
 20
17.4668168365
 10
-1.3400670145
 20
17.4786162096
 10
-1.338392082
 20
17.4905613962
 10
-1.3362464154
 20
17.5026198713
 10
-1.3336358608
 20
17.5147587751
 10
-1.3305675274
 20
17.5269450572
 10
-1.3270497661
 20
17.5391455566
 10
-1.3230921568
 20
17.5513270535
 10
-1.3187054749
 20
17.5634563892
 10
-1.3139016619
 20
17.5755005513
 10
-1.3086937973
 20
17.5874267533
 10
-1.3030960519
 20
17.599202548
 10
-1.2971236703
 20
17.6107958704
 10
-1.290792936
 20
17.6221751226
 10
-1.2841211151
 20
17.6333092903
 10
-1.2771263467
 20
17.6441681219
 10
-1.2698276099
 20
17.6547221579
 10
-1.2622446673
 20
17.6649428007
 10
-1.254398249
 20
17.6748020896
 10
-1.2463099577
 20
17.6842729058
 10
-1.2380019899
 20
17.6933293338
 10
-1.2294968175
 20
17.7019469504
 10
-1.2208173548
 20
17.7101025643
 10
-1.2119852643
 20
17.7177756128
 10
-1.2030264813
 20
17.7249433604
 10
-1.1939711444
 20
17.731582267
 10
-1.1848459756
 20
17.7376740643
 10
-1.1756739711
 20
17.7432047117
 10
-1.1664800727
 20
17.7481602854
  0
LWPOLYLINE
  5
34F
100
AcDbEntity
  8
RACCORDO
100
AcDbPolyline
 62
253
  6
CONTINUOUS
 90
21
 70
0
 10
-4.5433304021
 20
-24.1985372533
 10
-4.5446400887
 20
-24.2193380599
 10
-4.5467317502
 20
-24.2396844514
 10
-4.5496006497
 20
-24.2595303943
 10
-4.5532403106
 20
-24.2788309941
 10
-4.5576424756
 20
-24.2975425782
 10
-4.5627971256
 20
-24.315622794
 10
-4.5686925939
 20
-24.3330307357
 10
-4.5753155408
 20
-24.3497270205
 10
-4.5826509294
 20
-24.3656738575
 10
-4.5906821577
 20
-24.380835167
 10
-4.5993910572
 20
-24.3951766503
 10
-4.6087578851
 20
-24.4086658489
 10
-4.6187614422
 20
-24.4212722423
 10
-4.6293791001
 20
-24.4329673127
 10
-4.6405868161
 20
-24.4437245952
 10
-4.6523592252
 20
-24.4535197493
 10
-4.6646696986
 20
-24.4623306173
 10
-4.6774903852
 20
-24.4701372668
 10
-4.6907922703
 20
-24.4769220321
 10
-4.6973797717
 20
-24.47982813
  0
LINE
  5
350
100
AcDbEntity
  8
RACCORDO
100
AcDbLine
 62
7
  6
CONTINUOUS
 10
-15.5768543466
 20
-7.0583108315
 11
-15.592106672
 21
-7.0693463869
  0
LINE
  5
351
100
AcDbEntity
  8
RACCORDO
100
AcDbLine
 62
7
  6
CONTINUOUS
 10
-15.5871250521
 20
-6.0231963079
 11
-15.6024139771
 21
-6.0342494145
  0
LINE
  5
352
100
AcDbEntity
  8
RACCORDO
100
AcDbLine
 62
7
  6
CONTINUOUS
 10
-15.560814162
 20
-7.046828638
 11
-15.5768543466
 21
-7.0583108315
  0
LINE
  5
353
100
AcDbEntity
  8
RACCORDO
100
AcDbLine
 62
7
  6
CONTINUOUS
 10
-15.5710479135
 20
-6.0116983342
 11
-15.5871250521
 21
-6.0231963079
  0
LINE
  5
354
100
AcDbEntity
  8
RACCORDO
100
AcDbLine
 62
7
  6
CONTINUOUS
 10
-15.5439806096
 20
-7.0349223073
 11
-15.560814162
 21
-7.046828638
  0
LINE
  5
355
100
AcDbEntity
  8
RACCORDO
100
AcDbLine
 62
7
  6
CONTINUOUS
 10
-15.5541771316
 20
-5.9997780901
 11
-15.5710479135
 21
-6.0116983342
  0
LINE
  5
356
100
AcDbEntity
  8
RACCORDO
100
AcDbLine
 62
7
  6
CONTINUOUS
 10
-15.5263848302
 20
-7.0226093868
 11
-15.5439806096
 21
-7.0349223073
  0
LINE
  5
357
100
AcDbEntity
  8
RACCORDO
100
AcDbLine
 62
7
  6
CONTINUOUS
 10
-15.5365439489
 20
-5.9874532184
 11
-15.5541771316
 21
-5.9997780901
  0
LINE
  5
358
100
AcDbEntity
  8
RACCORDO
100
AcDbLine
 62
7
  6
CONTINUOUS
 10
-15.5080528024
 20
-7.0099061592
 11
-15.5263848302
 21
-7.0226093868
  0
LINE
  5
359
100
AcDbEntity
  8
RACCORDO
100
AcDbLine
 62
7
  6
CONTINUOUS
 10
-15.5181744317
 20
-5.9747400919
 11
-15.5365439489
 21
-5.9874532184
  0
LINE
  5
35A
100
AcDbEntity
  8
RACCORDO
100
AcDbLine
 62
7
  6
CONTINUOUS
 10
-15.4792105833
 20
-6.9901676519
 11
-15.5080528024
 21
-7.0099061592
  0
LINE
  5
35B
100
AcDbEntity
  8
RACCORDO
100
AcDbLine
 62
7
  6
CONTINUOUS
 10
-15.4892760061
 20
-5.9549907653
 11
-15.5181744317
 21
-5.9747400919
  0
LINE
  5
35C
100
AcDbEntity
  8
RACCORDO
100
AcDbLine
 62
7
  6
CONTINUOUS
 10
-15.4488299643
 20
-6.9696645229
 11
-15.4792105833
 21
-6.9901676519
  0
LINE
  5
35D
100
AcDbEntity
  8
RACCORDO
100
AcDbLine
 62
7
  6
CONTINUOUS
 10
-15.4588394694
 20
-5.9344818853
 11
-15.4892760061
 21
-5.9549907653
  0
LINE
  5
35E
100
AcDbEntity
  8
RACCORDO
100
AcDbLine
 62
7
  6
CONTINUOUS
 10
-16.1801933924
 20
-5.5491893491
 11
-16.2116116752
 21
-5.5701682036
  0
LINE
  5
35F
100
AcDbEntity
  8
RACCORDO
100
AcDbLine
 62
7
  6
CONTINUOUS
 10
-15.4169887217
 20
-6.9484614652
 11
-15.4488299643
 21
-6.9696645229
  0
LINE
  5
360
100
AcDbEntity
  8
RACCORDO
100
AcDbLine
 62
7
  6
CONTINUOUS
 10
-15.4269428766
 20
-5.9132783946
 11
-15.4588394694
 21
-5.9344818853
  0
LINE
  5
361
100
AcDbEntity
  8
RACCORDO
100
AcDbLine
 62
7
  6
CONTINUOUS
 10
-16.1473666382
 20
-5.5275587596
 11
-16.1801933924
 21
-5.5491893491
  0
LINE
  5
362
100
AcDbEntity
  8
RACCORDO
100
AcDbLine
 62
7
  6
CONTINUOUS
 10
-15.3837649388
 20
-6.9266232017
 11
-15.4169887217
 21
-6.9484614652
  0
LINE
  5
363
100
AcDbEntity
  8
RACCORDO
100
AcDbLine
 62
7
  6
CONTINUOUS
 10
-15.3936645873
 20
-5.8914452614
 11
-15.4269428766
 21
-5.9132783946
  0
LINE
  5
364
100
AcDbEntity
  8
RACCORDO
100
AcDbLine
 62
7
  6
CONTINUOUS
 10
-16.1132126712
 20
-5.5053433937
 11
-16.1473666382
 21
-5.5275587596
  0
LINE
  5
365
100
AcDbEntity
  8
RACCORDO
100
AcDbLine
 62
7
  6
CONTINUOUS
 10
-15.3492399339
 20
-6.904216754
 11
-15.3837649388
 21
-6.9266232017
  0
LINE
  5
366
100
AcDbEntity
  8
RACCORDO
100
AcDbLine
 62
7
  6
CONTINUOUS
 10
-15.3590862032
 20
-5.869049756
 11
-15.3936645873
 21
-5.8914452614
  0
LINE
  5
367
100
AcDbEntity
  8
RACCORDO
100
AcDbLine
 62
7
  6
CONTINUOUS
 10
-16.0778131608
 20
-5.4826109283
 11
-16.1132126712
 21
-5.5053433937
  0
LINE
  5
368
100
AcDbEntity
  8
RACCORDO
100
AcDbLine
 62
7
  6
CONTINUOUS
 10
-15.3134956248
 20
-6.8813101333
 11
-15.3492399339
 21
-6.904216754
  0
LINE
  5
369
100
AcDbEntity
  8
RACCORDO
100
AcDbLine
 62
7
  6
CONTINUOUS
 10
-15.3232899319
 20
-5.8461601492
 11
-15.3590862032
 21
-5.869049756
  0
LINE
  5
36A
100
AcDbEntity
  8
RACCORDO
100
AcDbLine
 62
7
  6
CONTINUOUS
 10
-16.0412521912
 20
-5.4594315076
 11
-16.0778131608
 21
-5.4826109283
  0
LINE
  5
36B
100
AcDbEntity
  8
RACCORDO
100
AcDbLine
 62
7
  6
CONTINUOUS
 10
-15.2766172167
 20
-6.8579745176
 11
-15.3134956248
 21
-6.8813101333
  0
LINE
  5
36C
100
AcDbEntity
  8
RACCORDO
100
AcDbLine
 62
7
  6
CONTINUOUS
 10
-15.2863612853
 20
-5.8228478979
 11
-15.3232899319
 21
-5.8461601492
  0
LINE
  5
36D
100
AcDbEntity
  8
RACCORDO
100
AcDbLine
 62
7
  6
CONTINUOUS
 10
-16.0036193078
 20
-5.4358801308
 11
-16.0412521912
 21
-5.4594315076
  0
LINE
  5
36E
100
AcDbEntity
  8
RACCORDO
100
AcDbLine
 62
7
  6
CONTINUOUS
 10
-15.2386966522
 20
-6.8342868848
 11
-15.2766172167
 21
-6.8579745176
  0
LINE
  5
36F
100
AcDbEntity
  8
RACCORDO
100
AcDbLine
 62
7
  6
CONTINUOUS
 10
-15.2483925383
 20
-5.7991902849
 11
-15.2863612853
 21
-5.8228478979
  0
LINE
  5
370
100
AcDbEntity
  8
RACCORDO
100
AcDbLine
 62
7
  6
CONTINUOUS
 10
-15.9650138797
 20
-5.4120398412
 11
-16.0036193078
 21
-5.4358801308
  0
LINE
  5
371
100
AcDbEntity
  8
RACCORDO
100
AcDbLine
 62
7
  6
CONTINUOUS
 10
-15.2094875271
 20
-5.7752738688
 11
-15.2483925383
 21
-5.7991902849
  0
LINE
  5
372
100
AcDbEntity
  8
RACCORDO
100
AcDbLine
 62
7
  6
CONTINUOUS
 10
-15.9255509038
 20
-5.3880057836
 11
-15.9650138797
 21
-5.4120398412
  0
LINE
  5
373
100
AcDbEntity
  8
RACCORDO
100
AcDbLine
 62
7
  6
CONTINUOUS
 10
-15.1697681492
 20
-5.7511989579
 11
-15.2094875271
 21
-5.7752738688
  0
LINE
  5
374
100
AcDbEntity
  8
RACCORDO
100
AcDbLine
 62
7
  6
CONTINUOUS
 10
-15.8988307929
 20
-5.3719336432
 11
-15.9255509038
 21
-5.3880057836
  0
LINE
  5
375
100
AcDbEntity
  8
RACCORDO
100
AcDbLine
 62
7
  6
CONTINUOUS
 10
-15.8718453881
 20
-5.3558543903
 11
-15.8988307929
 21
-5.3719336432
  0
LINE
  5
376
100
AcDbEntity
  8
RACCORDO
100
AcDbLine
 62
7
  6
CONTINUOUS
 10
-15.1293832688
 20
-5.727085451
 11
-15.1697681492
 21
-5.7511989579
  0
LINE
  5
377
100
AcDbEntity
  8
RACCORDO
100
AcDbLine
 62
7
  6
CONTINUOUS
 10
-15.8309880849
 20
-5.3318526447
 11
-15.8718453881
 21
-5.3558543903
  0
LINE
  5
378
100
AcDbEntity
  8
RACCORDO
100
AcDbLine
 62
7
  6
CONTINUOUS
 10
-15.0885259656
 20
-5.7030837053
 11
-15.1293832688
 21
-5.727085451
  0
LINE
  5
379
100
AcDbEntity
  8
RACCORDO
100
AcDbLine
 62
7
  6
CONTINUOUS
 10
-15.8036119817
 20
-5.3160111425
 11
-15.8309880849
 21
-5.3318526447
  0
LINE
  5
37A
100
AcDbEntity
  8
RACCORDO
100
AcDbLine
 62
7
  6
CONTINUOUS
 10
-15.0611498624
 20
-5.6872422032
 11
-15.0885259656
 21
-5.7030837053
  0
LINE
  5
37B
100
AcDbEntity
  8
RACCORDO
100
AcDbLine
 62
7
  6
CONTINUOUS
 10
-15.8130933324
 20
-3.9345983535
 11
-15.8404976258
 21
-3.9503797067
  0
LINE
  5
37C
100
AcDbEntity
  8
RACCORDO
100
AcDbLine
 62
7
  6
CONTINUOUS
 10
-15.7762356204
 20
-5.3003760275
 11
-15.8036119817
 21
-5.3160111425
  0
LINE
  5
37D
100
AcDbEntity
  8
RACCORDO
100
AcDbLine
 62
7
  6
CONTINUOUS
 10
-15.0337735011
 20
-5.6716070881
 11
-15.0611498624
 21
-5.6872422032
  0
LINE
  5
37E
100
AcDbEntity
  8
RACCORDO
100
AcDbLine
 62
7
  6
CONTINUOUS
 10
-15.7856918193
 20
-3.9190286325
 11
-15.8130933324
 21
-3.9345983535
  0
LINE
  5
37F
100
AcDbEntity
  8
RACCORDO
100
AcDbLine
 62
7
  6
CONTINUOUS
 10
-15.7489963738
 20
-5.2850221195
 11
-15.7762356204
 21
-5.3003760275
  0
LINE
  5
380
100
AcDbEntity
  8
RACCORDO
100
AcDbLine
 62
7
  6
CONTINUOUS
 10
-15.0065342544
 20
-5.6562531801
 11
-15.0337735011
 21
-5.6716070881
  0
LINE
  5
381
100
AcDbEntity
  8
RACCORDO
100
AcDbLine
 62
7
  6
CONTINUOUS
 10
-15.7584308057
 20
-3.9037454803
 11
-15.7856918193
 21
-3.9190286325
  0
LWPOLYLINE
  5
382
100
AcDbEntity
  8
RACCORDO
100
AcDbPolyline
 62
7
  6
CONTINUOUS
 90
3
 70
0
 10
-15.7086853364
 20
-5.2627669119
 10
-15.7220157739
 20
-5.2700677867
 10
-15.7489963738
 20
-5.2850221195
  0
LWPOLYLINE
  5
383
100
AcDbEntity
  8
RACCORDO
100
AcDbPolyline
 62
7
  6
CONTINUOUS
 90
3
 70
0
 10
-15.7180942976
 20
-3.8816065615
 10
-15.7314322025
 20
-3.8888673134
 10
-15.7584308057
 20
-3.9037454803
  0
LWPOLYLINE
  5
384
100
AcDbEntity
  8
RACCORDO
100
AcDbPolyline
 62
7
  6
CONTINUOUS
 90
5
 70
0
 10
-15.6445720902
 20
-5.2287509898
 10
-15.656986592
 20
-5.2351562675
 10
-15.6696141047
 20
-5.2417863705
 10
-15.6824419933
 20
-5.2486167537
 10
-15.7086853364
 20
-5.2627669119
  0
LWPOLYLINE
  5
385
100
AcDbEntity
  8
RACCORDO
100
AcDbPolyline
 62
7
  6
CONTINUOUS
 90
5
 70
0
 10
-15.6539611304
 20
-3.8478110156
 10
-15.6663771277
 20
-3.8541696511
 10
-15.6790074282
 20
-3.8607543735
 10
-15.6918393486
 20
-3.8675406622
 10
-15.7180942976
 20
-3.8816065615
  0
LINE
  5
386
100
AcDbEntity
  8
RACCORDO
100
AcDbLine
 62
7
  6
CONTINUOUS
 10
-14.8740640862
 20
-3.4563351055
 11
-15.6514199173
 21
-3.8465244734
  0
LINE
  5
387
100
AcDbEntity
  8
RACCORDO
100
AcDbLine
 62
7
  6
CONTINUOUS
 10
-14.8740640862
 20
-4.8419757516
 11
-15.6408888077
 21
-5.2268790885
  0
LINE
  5
388
100
AcDbEntity
  8
0
100
AcDbLine
 62
7
  6
CONTINUOUS
 10
-14.767998069
 20
-3.0056447341
 11
-9.2200063816
 21
-0.2316488904
  0
LINE
  5
389
100
AcDbEntity
  8
0
100
AcDbLine
 62
7
  6
CONTINUOUS
 10
-9.0591543763
 20
-0.5409343195
 11
-13.7073378972
 21
-2.8650260799
  0
LINE
  5
38A
100
AcDbEntity
  8
0
100
AcDbLine
 62
7
  6
CONTINUOUS
 10
-14.767998069
 20
-4.3912853802
 11
-13.7073378972
 21
-3.8609552943
  0
LINE
  5
38B
100
AcDbEntity
  8
RACCORDO
100
AcDbLine
 62
253
  6
CONTINUOUS
 10
8.6198764577
 20
7.6576066534
 11
22.2775175941
 21
14.4318973426
  0
LWPOLYLINE
  5
38C
100
AcDbEntity
  8
RACCORDO
100
AcDbPolyline
 62
253
  6
CONTINUOUS
 90
31
 70
0
 10
-0.989706369
 20
17.4432707466
 10
-0.9900013459
 20
17.4546964543
 10
-0.9907771992
 20
17.4663345074
 10
-0.9920318022
 20
17.4781530082
 10
-0.9937617165
 20
17.4901195645
 10
-0.9959622007
 20
17.5022013781
 10
-0.9986272236
 20
17.5143653351
 10
-1.0017494809
 20
17.5265780963
 10
-1.0053204151
 20
17.5388061888
 10
-1.0093302389
 20
17.5510160978
 10
-1.0137679622
 20
17.5631743581
 10
-1.018621422
 20
17.5752476463
 10
-1.0238773158
 20
17.5872028717
 10
-1.0295212383
 20
17.5990072673
 10
-1.0355377204
 20
17.6106284795
 10
-1.0419102723
 20
17.6220346567
 10
-1.0486214278
 20
17.6331945368
 10
-1.0556527931
 20
17.6440775325
 10
-1.0629850963
 20
17.6546538156
 10
-1.0705982411
 20
17.6648943986
 10
-1.0784713613
 20
17.6747712138
 10
-1.086582878
 20
17.6842571909
 10
-1.0949105593
 20
17.6933263305
 10
-1.1034315803
 20
17.7019537758
 10
-1.1121225867
 20
17.7101158806
 10
-1.1209597581
 20
17.7177902741
 10
-1.1299188733
 20
17.7249559223
 10
-1.1389753771
 20
17.7315931854
 10
-1.1481044474
 20
17.7376838719
 10
-1.157281063
 20
17.7432112885
 10
-1.1664800727
 20
17.7481602854
  0
LWPOLYLINE
  5
38D
100
AcDbEntity
  8
RACCORDO
100
AcDbPolyline
 62
7
  6
CONTINUOUS
 90
23
 70
0
 10
1.2120394505
 20
-23.0498314538
 10
1.2117210426
 20
-23.0372179015
 10
1.2107624259
 20
-23.0245949533
 10
1.2091606516
 20
-23.0120014132
 10
1.2069164917
 20
-22.9994803397
 10
1.2040324516
 20
-22.9870669147
 10
1.2005106274
 20
-22.9747881478
 10
1.1963572622
 20
-22.962681221
 10
1.1915824074
 20
-22.9507858537
 10
1.1861946125
 20
-22.9391315742
 10
1.180206252
 20
-22.9277525994
 10
1.1736342108
 20
-22.9166862046
 10
1.166494777
 20
-22.9059633911
 10
1.158804984
 20
-22.8956130217
 10
1.1505876642
 20
-22.8856682085
 10
1.1418686304
 20
-22.8761608862
 10
1.1326674144
 20
-22.8671128234
 10
1.1230109649
 20
-22.8585511058
 10
1.1129365631
 20
-22.8505074427
 10
1.1024640133
 20
-22.8429959101
 10
1.0916213233
 20
-22.8360359014
 10
1.0804575735
 20
-22.8296561869
 10
1.0738365235
 20
-22.8262214934
  0
LWPOLYLINE
  5
38E
100
AcDbEntity
  8
RACCORDO
100
AcDbPolyline
 62
7
  6
CONTINUOUS
 90
34
 70
0
 10
0.6115744218
 20
18.2459927501
 10
0.6113743658
 20
18.2563945587
 10
0.6107741283
 20
18.2669729268
 10
0.6097751703
 20
18.2777039449
 10
0.6083799348
 20
18.288563398
 10
0.6065915865
 20
18.2995266905
 10
0.6044140052
 20
18.3105689014
 10
0.6018521807
 20
18.3216650483
 10
0.5989120064
 20
18.3327900417
 10
0.5956000114
 20
18.3439186122
 10
0.5919237343
 20
18.35502557
 10
0.5878915741
 20
18.3660857912
 10
0.5835125767
 20
18.3770741724
 10
0.5787966762
 20
18.38796583
 10
0.5737546062
 20
18.3987361171
 10
0.5683977455
 20
18.4093606084
 10
0.5627382213
 20
18.4198152329
 10
0.5567888834
 20
18.430076323
 10
0.5505632116
 20
18.4401206294
 10
0.5440752791
 20
18.4499253843
 10
0.5373397902
 20
18.4594683814
 10
0.530372051
 20
18.4687280217
 10
0.5231877939
 20
18.4776833041
 10
0.5158032783
 20
18.486313936
 10
0.5082353239
 20
18.4946004088
 10
0.5005010024
 20
18.5025239161
 10
0.4926177965
 20
18.5100664922
 10
0.484603697
 20
18.5172111159
 10
0.4764767667
 20
18.5239415587
 10
0.4682553556
 20
18.5302425472
 10
0.4599582589
 20
18.5360998945
 10
0.4516042655
 20
18.5415003313
 10
0.4432121164
 20
18.5464315359
 10
0.4348007181
 20
18.5508822889
  0
LWPOLYLINE
  5
38F
100
AcDbEntity
  8
RACCORDO
100
AcDbPolyline
 62
7
  6
CONTINUOUS
 90
24
 70
0
 10
-1.2622585484
 20
24.4172978946
 10
-1.2628317328
 20
24.4517703008
 10
-1.2645308458
 20
24.4855202217
 10
-1.2673558873
 20
24.5185476575
 10
-1.2713163219
 20
24.5509092149
 10
-1.276402685
 20
24.5825482871
 10
-1.2825865834
 20
24.6132950536
 10
-1.2898691988
 20
24.6431305811
 10
-1.2982493495
 20
24.6720738028
 10
-1.3076950967
 20
24.7000116988
 10
-1.3182189552
 20
24.7269578616
 10
-1.3298084103
 20
24.7528986985
 10
-1.342393979
 20
24.7776804114
 10
-1.3559691649
 20
24.8012777128
 10
-1.3705404644
 20
24.8237158901
 10
-1.3860578845
 20
24.8449170074
 10
-1.4025411718
 20
24.8648940973
 10
-1.4199705797
 20
24.8836341271
 10
-1.4382368743
 20
24.9010200627
 10
-1.4573255302
 20
24.917028989
 10
-1.4772510729
 20
24.9316838211
 10
-1.4979478454
 20
24.9449362695
 10
-1.51944036
 20
24.9567921308
 10
-4.7493304243
 20
26.5717610401
  0
LINE
  5
390
100
AcDbEntity
  8
RACCORDO
100
AcDbLine
 62
253
  6
CONTINUOUS
 10
-0.6310077206
 20
16.8252139091
 11
-0.6310077206
 21
16.1363932862
  0
LINE
  5
391
100
AcDbEntity
  8
RACCORDO
100
AcDbLine
 62
253
  6
CONTINUOUS
 10
-0.6310077206
 20
-22.7944019627
 11
-0.6310077206
 21
-23.2192981259
  0
LINE
  5
392
100
AcDbEntity
  8
RACCORDO
100
AcDbLine
 62
253
  6
CONTINUOUS
 10
-0.2784857609
 20
16.9547932896
 11
-0.2784857609
 21
16.1471611678
  0
LINE
  5
393
100
AcDbEntity
  8
RACCORDO
100
AcDbLine
 62
253
  6
CONTINUOUS
 10
-0.2784857609
 20
-22.6466355943
 11
-0.2784857609
 21
-23.3448108498
  0
LINE
  5
394
100
AcDbEntity
  8
RACCORDO
100
AcDbLine
 62
7
  6
CONTINUOUS
 10
0.6115744218
 20
-22.2730052871
 11
0.6115744218
 21
-23.7562466614
  0
LINE
  5
395
100
AcDbEntity
  8
RACCORDO
100
AcDbLine
 62
7
  6
CONTINUOUS
 10
0.6115744218
 20
16.6438420891
 11
0.6115744218
 21
18.2459927501
  0
LINE
  5
396
100
AcDbEntity
  8
RACCORDO
100
AcDbLine
 62
253
  6
CONTINUOUS
 10
1.1398415935
 20
18.5094315701
 11
1.1398415935
 21
18.1619000534
  0
LINE
  5
397
100
AcDbEntity
  8
RACCORDO
100
AcDbLine
 62
253
  6
CONTINUOUS
 10
1.1398415935
 20
-23.137704086
 11
1.1398415935
 21
-23.4852356027
  0
LINE
  5
398
100
AcDbEntity
  8
RACCORDO
100
AcDbLine
 62
7
  6
CONTINUOUS
 10
1.2120394505
 20
18.5973042023
 11
1.2120394505
 21
18.2497726856
  0
LINE
  5
399
100
AcDbEntity
  8
RACCORDO
100
AcDbLine
 62
7
  6
CONTINUOUS
 10
1.2120394505
 20
-23.0498314538
 11
1.2120394505
 21
-23.3973629706
  0
LWPOLYLINE
  5
39A
100
AcDbEntity
  8
RACCORDO
100
AcDbPolyline
 62
253
  6
CONTINUOUS
 90
22
 70
0
 10
-1.3422283287
 20
-24.1957946031
 10
-1.3420094575
 20
-24.1849147397
 10
-1.3413529018
 20
-24.1738367674
 10
-1.3402595641
 20
-24.1625878524
 10
-1.3387311143
 20
-24.1511935485
 10
-1.3367707957
 20
-24.1396840332
 10
-1.3343842126
 20
-24.128094214
 10
-1.3315778799
 20
-24.1164551546
 10
-1.3283583628
 20
-24.1047935968
 10
-1.3247335936
 20
-24.0931383131
 10
-1.3207125105
 20
-24.0815181446
 10
-1.3163051374
 20
-24.0699621497
 10
-1.3115225095
 20
-24.0584992943
 10
-1.3063765366
 20
-24.0471581203
 10
-1.3008800077
 20
-24.0359668112
 10
-1.2950466644
 20
-24.0249533316
 10
-1.2888910756
 20
-24.0141451514
 10
-1.2824285204
 20
-24.0035690636
 10
-1.2756750069
 20
-23.9932512535
 10
-1.268647307
 20
-23.9832173481
 10
-1.2613629254
 20
-23.9734923436
 10
-1.253839981
 20
-23.9641004292
  0
LWPOLYLINE
  5
39B
100
AcDbEntity
  8
RACCORDO
100
AcDbPolyline
 62
7
  6
CONTINUOUS
 90
15
 70
0
 10
1.2120394505
 20
18.2497726856
 10
1.2117225216
 20
18.2371884452
 10
1.2107681751
 20
18.2245929117
 10
1.2091731904
 20
18.2120246443
 10
1.2069378852
 20
18.199525729
 10
1.2040645294
 20
18.1871319546
 10
1.200555582
 20
18.1748723849
 10
1.1964174494
 20
18.1627844473
 10
1.1916599848
 20
18.1509070687
 10
1.1862919323
 20
18.1392700863
 10
1.1803256489
 20
18.1279074504
 10
1.1737778839
 20
18.1168560357
 10
1.1666649981
 20
18.1061468338
 10
1.1590038065
 20
18.0958082662
 10
1.155201911
 20
18.0910645765
  0
LWPOLYLINE
  5
39C
100
AcDbEntity
  8
RACCORDO
100
AcDbPolyline
 62
253
  6
CONTINUOUS
 90
16
 70
0
 10
1.2120394505
 20
18.2497726856
 10
1.2117362295
 20
18.2436180413
 10
1.2107547237
 20
18.2371165321
 10
1.2090965459
 20
18.230649456
 10
1.2067662074
 20
18.224234408
 10
1.2037700482
 20
18.2178888411
 10
1.20011622
 20
18.2116300197
 10
1.1958146636
 20
18.2054749719
 10
1.1908770821
 20
18.1994404435
 10
1.185316909
 20
18.1935428524
 10
1.1791492718
 20
18.1877982442
 10
1.1723909505
 20
18.182222248
 10
1.1650603323
 20
18.1768300341
 10
1.1571773613
 20
18.1716362732
 10
1.1487634846
 20
18.1666550955
 10
1.1398415935
 20
18.1619000534
  0
LWPOLYLINE
  5
39D
100
AcDbEntity
  8
RACCORDO
100
AcDbPolyline
 62
253
  6
CONTINUOUS
 90
16
 70
0
 10
1.2120394505
 20
18.5973038529
 10
1.2117339455
 20
18.5911264365
 10
1.2107497738
 20
18.584623754
 10
1.2090886745
 20
18.5781555668
 10
1.2067551284
 20
18.5717393973
 10
1.2037554988
 20
18.5653927937
 10
1.2000980655
 20
18.5591332191
 10
1.1957929266
 20
18.5529778208
 10
1.1908517867
 20
18.5469432184
 10
1.185287979
 20
18.5410456595
 10
1.1791152205
 20
18.5352999482
 10
1.1723514711
 20
18.5297230399
 10
1.1650199529
 20
18.5243334622
 10
1.1571433813
 20
18.5191465792
 10
1.1487426762
 20
18.5141749272
 10
1.1398415935
 20
18.5094315701
  0
LINE
  5
39E
100
AcDbEntity
  8
RACCORDO
100
AcDbLine
 62
7
  6
CONTINUOUS
 10
-15.1998373974
 20
-6.8103334576
 11
-15.2386966522
 21
-6.8342868848
  0
LINE
  5
39F
100
AcDbEntity
  8
RACCORDO
100
AcDbLine
 62
7
  6
CONTINUOUS
 10
-15.160160929
 20
-6.7862141732
 11
-15.1998373974
 21
-6.8103334576
  0
LINE
  5
3A0
100
AcDbEntity
  8
RACCORDO
100
AcDbLine
 62
7
  6
CONTINUOUS
 10
-15.1198156245
 20
-6.762048525
 11
-15.160160929
 21
-6.7862141732
  0
LINE
  5
3A1
100
AcDbEntity
  8
RACCORDO
100
AcDbLine
 62
7
  6
CONTINUOUS
 10
-15.0789939877
 20
-6.7379864436
 11
-15.1198156245
 21
-6.762048525
  0
LINE
  5
3A2
100
AcDbEntity
  8
RACCORDO
100
AcDbLine
 62
7
  6
CONTINUOUS
 10
-15.0516391535
 20
-6.7220999639
 11
-15.0789939877
 21
-6.7379864436
  0
LINE
  5
3A3
100
AcDbEntity
  8
RACCORDO
100
AcDbLine
 62
7
  6
CONTINUOUS
 10
-15.0242817887
 20
-6.7064159331
 11
-15.0516391535
 21
-6.7220999639
  0
LINE
  5
3A4
100
AcDbEntity
  8
RACCORDO
100
AcDbLine
 62
7
  6
CONTINUOUS
 10
-14.9970590065
 20
-6.6910090828
 11
-15.0242817887
 21
-6.7064159331
  0
LWPOLYLINE
  5
3A5
100
AcDbEntity
  8
RACCORDO
100
AcDbPolyline
 62
7
  6
CONTINUOUS
 90
3
 70
0
 10
-14.9567672923
 20
-6.6686668331
 10
-14.9700920543
 20
-6.6759977437
 10
-14.9970590065
 20
-6.6910090828
  0
LWPOLYLINE
  5
3A6
100
AcDbEntity
  8
RACCORDO
100
AcDbPolyline
 62
7
  6
CONTINUOUS
 90
3
 70
0
 10
-14.9662232167
 20
-5.6339979723
 10
-14.9795536543
 20
-5.6412988472
 10
-15.0065342544
 20
-5.6562531801
  0
LWPOLYLINE
  5
3A7
100
AcDbEntity
  8
RACCORDO
100
AcDbPolyline
 62
7
  6
CONTINUOUS
 90
5
 70
0
 10
-14.8926693816
 20
-6.6344858773
 10
-14.9050826804
 20
-6.640926092
 10
-14.9177080222
 20
-6.647590183
 10
-14.9305328078
 20
-6.6544535872
 10
-14.9567672923
 20
-6.6686668331
  0
LWPOLYLINE
  5
3A8
100
AcDbEntity
  8
RACCORDO
100
AcDbPolyline
 62
7
  6
CONTINUOUS
 90
5
 70
0
 10
-14.9021099699
 20
-5.59998205
 10
-14.9145244719
 20
-5.6063873277
 10
-14.9271519847
 20
-5.6130174307
 10
-14.9399798734
 20
-5.619847814
 10
-14.9662232167
 20
-5.6339979723
  0
LINE
  5
3A9
100
AcDbEntity
  8
RACCORDO
100
AcDbLine
 62
7
  6
CONTINUOUS
 10
-14.8926691928
 20
-6.6344857801
 11
-14.8881296006
 21
-6.6321720686
  0
LINE
  5
3AA
100
AcDbEntity
  8
RACCORDO
100
AcDbLine
 62
7
  6
CONTINUOUS
 10
-14.1316019659
 20
-5.2132068117
 11
-14.8984266874
 21
-5.5981101486
  0
LINE
  5
3AB
100
AcDbEntity
  8
RACCORDO
100
AcDbLine
 62
7
  6
CONTINUOUS
 10
-14.1316019659
 20
-6.2524372962
 11
-14.8881296006
 21
-6.6321720686
  0
LINE
  5
3AC
100
AcDbEntity
  8
0
100
AcDbLine
 62
7
  6
CONTINUOUS
 10
-13.8770435247
 20
-4.8367626523
 11
-12.8163833529
 21
-4.3064325664
  0
LINE
  5
3AD
100
AcDbEntity
  8
0
100
AcDbLine
 62
7
  6
CONTINUOUS
 10
-13.8770435247
 20
-5.6161855157
 11
-12.8163833529
 21
-5.0858554298
  0
LINE
  5
3AE
100
AcDbEntity
  8
RACCORDO
100
AcDbLine
 62
253
  6
CONTINUOUS
 10
8.6198764577
 20
6.0875368484
 11
22.9845166795
 21
13.2125042959
  0
LWPOLYLINE
  5
3AF
100
AcDbEntity
  8
RACCORDO
100
AcDbPolyline
 62
7
  6
CONTINUOUS
 90
34
 70
0
 10
0.9541416695
 20
16.0840917709
 10
0.9534494273
 20
16.1026615272
 10
0.9520531462
 20
16.121555344
 10
0.9499551259
 20
16.1407298319
 10
0.9471584058
 20
16.1601404029
 10
0.9436693379
 20
16.1797431292
 10
0.9394975135
 20
16.1994948588
 10
0.934651359
 20
16.219350304
 10
0.9291411034
 20
16.239264093
 10
0.9229812376
 20
16.2591926446
 10
0.9161848852
 20
16.2790904442
 10
0.9087664735
 20
16.2989119806
 10
0.900744533
 20
16.3186138063
 10
0.8921364194
 20
16.3381509692
 10
0.8829606779
 20
16.357478817
 10
0.8732395595
 20
16.3765549093
 10
0.862994323
 20
16.3953357444
 10
0.8522472549
 20
16.4137784026
 10
0.8410238968
 20
16.431842294
 10
0.8293489955
 20
16.4494862243
 10
0.8172481401
 20
16.4666698514
 10
0.8047496632
 20
16.4833552428
 10
0.7918813152
 20
16.4995043252
 10
0.7786714865
 20
16.5150801311
 10
0.7651507436
 20
16.5300481416
 10
0.7513492985
 20
16.5443741576
 10
0.7372977852
 20
16.5580253208
 10
0.7230283993
 20
16.5709712186
 10
0.708579315
 20
16.5831773347
 10
0.6939768465
 20
16.5946210986
 10
0.6792355119
 20
16.6052894748
 10
0.6643819688
 20
16.6151588637
 10
0.6494556077
 20
16.6241985126
 10
0.6344902269
 20
16.6323841865
  0
LWPOLYLINE
  5
3B0
100
AcDbEntity
  8
ASSI
100
AcDbPolyline
 62
7
  6
CONTINUOUS
 90
6
 70
0
 10
1.6405851535
 20
22.7259602831
 10
1.6405496902
 20
22.7269792391
 10
1.6398137126
 20
22.7304444268
 10
1.6381658107
 20
22.7332989891
 10
1.63564981
 20
22.7355922611
 10
1.6337695225
 20
22.736694131
  0
LWPOLYLINE
  5
3B1
100
AcDbEntity
  8
RACCORDO
100
AcDbPolyline
 62
253
  6
CONTINUOUS
 90
31
 70
0
 10
1.1398415935
 20
18.5094315701
 10
1.1396514406
 20
18.5209096898
 10
1.1389744866
 20
18.5325971925
 10
1.1378125868
 20
18.544462045
 10
1.1361689258
 20
18.5564717279
 10
1.1340480086
 20
18.568593325
 10
1.1314556482
 20
18.5807936132
 10
1.1283989498
 20
18.5930391539
 10
1.1248862912
 20
18.6052963842
 10
1.1209272999
 20
18.6175317094
 10
1.1165328269
 20
18.6297115949
 10
1.1117149165
 20
18.6418026578
 10
1.1064867738
 20
18.6537717587
 10
1.100862728
 20
18.6655860927
 10
1.0948581937
 20
18.6772132788
 10
1.0884896281
 20
18.6886214492
 10
1.0817744863
 20
18.6997793361
 10
1.0747311732
 20
18.7106563578
 10
1.0673789933
 20
18.7212227026
 10
1.0597380974
 20
18.7314494101
 10
1.0518294278
 20
18.7413084506
 10
1.0436746608
 20
18.7507728026
 10
1.035296147
 20
18.7598165259
 10
1.0267168503
 20
18.7684148334
 10
1.017960285
 20
18.7765441587
 10
1.0090504512
 20
18.784182221
 10
1.0000117691
 20
18.7913080857
 10
0.9908690119
 20
18.7979022221
 10
0.9816472384
 20
18.803946557
 10
0.9723717235
 20
18.809424524
 10
0.9630678899
 20
18.8143211089
  0
LINE
  5
3B2
100
AcDbEntity
  8
ASSI
100
AcDbLine
 62
253
  6
CONTINUOUS
 10
1.5169911096
 20
22.7169321795
 11
1.5169911096
 21
21.4898822122
  0
LINE
  5
3B3
100
AcDbEntity
  8
ASSI
100
AcDbLine
 62
7
  6
CONTINUOUS
 10
1.6405851735
 20
22.7257304262
 11
1.6405851735
 21
21.638045833
  0
LINE
  5
3B4
100
AcDbEntity
  8
RACCORDO
100
AcDbLine
 62
7
  6
CONTINUOUS
 10
1.6722345936
 20
16.423275469
 11
1.6722345936
 21
-21.5799759897
  0
LWPOLYLINE
  5
3B5
100
AcDbEntity
  8
RACCORDO
100
AcDbPolyline
 62
7
  6
CONTINUOUS
 90
20
 70
0
 10
0.9541532475
 20
-21.9342408557
 10
0.9534609354
 20
-21.9527704152
 10
0.9520645078
 20
-21.9708883676
 10
0.9499662648
 20
-21.988554313
 10
0.947169215
 20
-22.0057291937
 10
0.9436797419
 20
-22.0223744815
 10
0.9395075289
 20
-22.0384522157
 10
0.9346610379
 20
-22.0539266714
 10
0.9291504623
 20
-22.0687633985
 10
0.9229902793
 20
-22.082928307
 10
0.9161936093
 20
-22.0963898739
 10
0.9087748827
 20
-22.1091182316
 10
0.9007526265
 20
-22.1210840429
 10
0.8921441957
 20
-22.1322606801
 10
0.8829681361
 20
-22.1426233656
 10
0.8732466965
 20
-22.1521480762
 10
0.8630011354
 20
-22.1608135974
 10
0.8522537396
 20
-22.1686007344
 10
0.8410300486
 20
-22.1754912549
 10
0.8329923343
 20
-22.1797289098
  0
LWPOLYLINE
  5
3B6
100
AcDbEntity
  8
RACCORDO
100
AcDbPolyline
 62
253
  6
CONTINUOUS
 90
16
 70
0
 10
1.2120394505
 20
-23.3973629673
 10
1.21173818
 20
-23.4034977994
 10
1.2107584614
 20
-23.4100007476
 10
1.2091017724
 20
-23.4164693119
 10
1.2067726209
 20
-23.4228858786
 10
1.2037773407
 20
-23.4292329897
 10
1.2001240818
 20
-23.4354933665
 10
1.1958227837
 20
-23.4416499696
 10
1.1908851511
 20
-23.4476860401
 10
1.1853246259
 20
-23.4535851425
 10
1.1791563367
 20
-23.459331224
 10
1.1723970754
 20
-23.4649086396
 10
1.1650652616
 20
-23.4703021919
 10
1.1571808634
 20
-23.4754971964
 10
1.1487653377
 20
-23.4804795199
 10
1.1398415935
 20
-23.4852356027
  0
LWPOLYLINE
  5
3B7
100
AcDbEntity
  8
RACCORDO
100
AcDbPolyline
 62
253
  6
CONTINUOUS
 90
16
 70
0
 10
1.2120394505
 20
-23.0498314538
 10
1.2117362295
 20
-23.0559860981
 10
1.2107547237
 20
-23.0624876073
 10
1.2090965459
 20
-23.0689546834
 10
1.2067662074
 20
-23.0753697314
 10
1.2037700482
 20
-23.0817152982
 10
1.20011622
 20
-23.0879741197
 10
1.1958146636
 20
-23.0941291675
 10
1.1908770821
 20
-23.1001636959
 10
1.185316909
 20
-23.1060612869
 10
1.1791492718
 20
-23.1118058952
 10
1.1723909505
 20
-23.1173818914
 10
1.1650603323
 20
-23.1227741052
 10
1.1571773613
 20
-23.1279678662
 10
1.1487634846
 20
-23.1329490439
 10
1.1398415935
 20
-23.137704086
  0
LWPOLYLINE
  5
3B8
100
AcDbEntity
  8
ASSI
100
AcDbPolyline
 62
7
  6
CONTINUOUS
 90
10
 70
0
 10
11.344839318
 20
11.9755744139
 10
11.3237824635
 20
11.9511023534
 10
11.298737887
 20
11.9281223402
 10
11.2697055887
 20
11.9066343744
 10
11.236351026
 20
11.8864711847
 10
11.1990087414
 20
11.8678000424
 10
11.1586823621
 20
11.8511227611
 10
11.1157064305
 20
11.8366066119
 10
11.0697464041
 20
11.8240843237
 10
11.0208022831
 20
11.8135558964
  0
LWPOLYLINE
  5
3B9
100
AcDbEntity
  8
ASSI
100
AcDbPolyline
 62
7
  6
CONTINUOUS
 90
10
 70
0
 10
14.8803732239
 20
13.7433413669
 10
14.8593163694
 20
13.7188693063
 10
14.834271793
 20
13.6958892932
 10
14.8052394946
 20
13.6744013274
 10
14.7718849319
 20
13.6542381377
 10
14.7345426473
 20
13.6355669954
 10
14.694216268
 20
13.6188897141
 10
14.6512403364
 20
13.6043735649
 10
14.6052803101
 20
13.5918512767
 10
14.556336189
 20
13.5813228494
  0
LWPOLYLINE
  5
3BA
100
AcDbEntity
  8
RACCORDO
100
AcDbPolyline
 62
7
  6
CONTINUOUS
 90
28
 70
0
 10
-11.6360868792
 20
-7.2329935953
 10
-11.647827575
 20
-7.239735776
 10
-11.6590368246
 20
-7.2470750105
 10
-11.6697019929
 20
-7.2549867538
 10
-11.6797966537
 20
-7.2634548715
 10
-11.6893248014
 20
-7.2724471793
 10
-11.6983208702
 20
-7.2819152385
 10
-11.7067743988
 20
-7.2918335772
 10
-11.7146789984
 20
-7.3021808072
 10
-11.7220764667
 20
-7.3129154404
 10
-11.7289603711
 20
-7.3240136521
 10
-11.7353251098
 20
-7.3354560825
 10
-11.7412145219
 20
-7.3472098724
 10
-11.7466251868
 20
-7.3592538145
 10
-11.7515523086
 20
-7.3715705328
 10
-11.7560379706
 20
-7.3841353126
 10
-11.7600807421
 20
-7.3969299265
 10
-11.7636766814
 20
-7.4099387437
 10
-11.7668640159
 20
-7.4231433293
 10
-11.7696424242
 20
-7.4365278275
 10
-11.7720089224
 20
-7.4500785704
 10
-11.7739973665
 20
-7.4637825523
 10
-11.7756081176
 20
-7.477626579
 10
-11.7768389115
 20
-7.491598176
 10
-11.7777191191
 20
-7.5056872215
 10
-11.7782493827
 20
-7.5198823503
 10
-11.7784281601
 20
-7.5341724736
 10
-11.7784064487
 20
-7.5399781868
  0
LWPOLYLINE
  5
3BB
100
AcDbEntity
  8
RACCORDO
100
AcDbPolyline
 62
7
  6
CONTINUOUS
 90
28
 70
0
 10
-10.9028513431
 20
-6.2233659092
 10
-10.9145934944
 20
-6.2300614677
 10
-10.9258054575
 20
-6.2373553587
 10
-10.9364745493
 20
-6.2452230618
 10
-10.9465742939
 20
-6.2536484612
 10
-10.9561086381
 20
-6.2625993911
 10
-10.9651119688
 20
-6.27202743
 10
-10.9735737731
 20
-6.2819071217
 10
-10.9814876135
 20
-6.2922170761
 10
-10.9888952461
 20
-6.3029157914
 10
-10.9957901886
 20
-6.3139794476
 10
-11.002166792
 20
-6.325388677
 10
-11.0080688629
 20
-6.337110588
 10
-11.0134929345
 20
-6.3491239697
 10
-11.0184341674
 20
-6.3614114356
 10
-11.0229346209
 20
-6.3739482303
 10
-11.0269928235
 20
-6.3867161174
 10
-11.0306047935
 20
-6.3996994544
 10
-11.0338087416
 20
-6.4128797653
 10
-11.03660431
 20
-6.4262411832
 10
-11.0389884789
 20
-6.4397700273
 10
-11.0409950942
 20
-6.4534532527
 10
-11.0426244856
 20
-6.4672776529
 10
-11.043874356
 20
-6.4812307405
 10
-11.0447740698
 20
-6.4953023605
 10
-11.0453242415
 20
-6.5094811347
 10
-11.0455232995
 20
-6.5237559618
 10
-11.0439457066
 20
-6.7966061366
  0
LINE
  5
3BC
100
AcDbEntity
  8
RACCORDO
100
AcDbLine
 62
7
  6
CONTINUOUS
 10
-11.6360866529
 20
-7.2329934753
 11
-11.6324673276
 21
-7.2310898285
  0
LINE
  5
3BD
100
AcDbEntity
  8
RACCORDO
100
AcDbLine
 62
7
  6
CONTINUOUS
 10
-10.1364486522
 20
-5.8251428225
 11
-10.9003540999
 21
-6.2220573821
  0
LINE
  5
3BE
100
AcDbEntity
  8
RACCORDO
100
AcDbLine
 62
7
  6
CONTINUOUS
 10
-11.0431355142
 20
-6.9248812816
 11
-11.6324673276
 21
-7.2310898285
  0
LINE
  5
3BF
100
AcDbEntity
  8
0
100
AcDbLine
 62
7
  6
CONTINUOUS
 10
-10.1010933132
 20
-5.339097112
 11
-9.0737522603
 21
-4.8254265856
  0
LINE
  5
3C0
100
AcDbEntity
  8
0
100
AcDbLine
 62
7
  6
CONTINUOUS
 10
-10.9920478575
 20
-6.2792604859
 11
-10.9531266703
 21
-6.2597998924
  0
LINE
  5
3C1
100
AcDbEntity
  8
0
100
AcDbLine
 62
7
  6
CONTINUOUS
 10
-10.1101305914
 20
-5.8383018529
 11
-10.1010933132
 21
-5.8337832138
  0
LINE
  5
3C2
100
AcDbEntity
  8
0
100
AcDbLine
 62
7
  6
CONTINUOUS
 10
8.7433024054
 20
-0.4746082725
 11
9.3423565123
 21
-0.7741353259
  0
LWPOLYLINE
  5
3C3
100
AcDbEntity
  8
RACCORDO
100
AcDbPolyline
 62
253
  6
CONTINUOUS
 90
14
 70
0
 10
-12.2244765709
 20
24.8440591356
 10
-12.2201288802
 20
24.8367060381
 10
-12.216278634
 20
24.8296129985
 10
-12.2129363472
 20
24.8227993878
 10
-12.2101111495
 20
24.8162838187
 10
-12.2078107535
 20
24.8100840794
 10
-12.2060414378
 20
24.8042170873
 10
-12.2048080365
 20
24.7986988572
 10
-12.2041139258
 20
24.7935444735
 10
-12.2039610048
 20
24.788768031
 10
-12.2043496888
 20
24.7843825789
 10
-12.2052789142
 20
24.7804000858
 10
-12.2067461433
 20
24.7768314239
 10
-12.2087155411
 20
24.7737363594
  0
LINE
  5
3C4
100
AcDbEntity
  8
RACCORDO
100
AcDbLine
 62
7
  6
CONTINUOUS
 10
22.9845166795
 20
8.2517787878
 11
9.4005344363
 21
1.1498960359
  0
LINE
  5
3C5
100
AcDbEntity
  8
0
100
AcDbLine
 62
7
  6
CONTINUOUS
 10
8.7433024054
 20
-0.4746082725
 11
8.6198764577
 21
-0.5363212464
  0
LINE
  5
3C6
100
AcDbEntity
  8
0
100
AcDbLine
 62
7
  6
CONTINUOUS
 10
10.0868052897
 20
0.1971431696
 11
12.2788363114
 21
1.2931586804
  0
LINE
  5
3C7
100
AcDbEntity
  8
0
100
AcDbLine
 62
7
  6
CONTINUOUS
 10
13.6223391956
 20
1.9649101226
 11
15.8143702173
 21
3.0609256334
  0
LINE
  5
3C8
100
AcDbEntity
  8
0
100
AcDbLine
 62
7
  6
CONTINUOUS
 10
17.1578731016
 20
3.7326770755
 11
19.3499041232
 21
4.8286925864
  0
LINE
  5
3C9
100
AcDbEntity
  8
0
100
AcDbLine
 62
7
  6
CONTINUOUS
 10
10.4757140193
 20
0.3915975344
 11
11.0414889545
 21
0.1087100668
  0
LINE
  5
3CA
100
AcDbEntity
  8
0
100
AcDbLine
 62
7
  6
CONTINUOUS
 10
11.0555009736
 20
0.1159905155
 11
10.4900004775
 21
0.3987407635
  0
LINE
  5
3CB
100
AcDbEntity
  8
0
100
AcDbLine
 62
7
  6
CONTINUOUS
 10
11.1828208005
 20
0.745150925
 11
11.7350124003
 21
0.4690551251
  0
LINE
  5
3CC
100
AcDbEntity
  8
0
100
AcDbLine
 62
253
  6
CONTINUOUS
 10
9.4005344363
 20
-2.3410315401
 11
8.6198764577
 21
-1.6920941624
  0
LINE
  5
3CD
100
AcDbEntity
  8
RACCORDO
100
AcDbLine
 62
253
  6
CONTINUOUS
 10
6.2279473525
 20
20.5441607215
 11
6.2279473525
 21
20.0468307646
  0
LINE
  5
3CE
100
AcDbEntity
  8
RACCORDO
100
AcDbLine
 62
253
  6
CONTINUOUS
 10
6.2279473525
 20
-16.5162586829
 11
6.2279473525
 21
-16.8092044437
  0
LINE
  5
3CF
100
AcDbEntity
  8
RACCORDO
100
AcDbLine
 62
7
  6
CONTINUOUS
 10
6.3682774523
 20
20.8446652302
 11
6.3682774523
 21
20.2230948382
  0
LINE
  5
3D0
100
AcDbEntity
  8
RACCORDO
100
AcDbLine
 62
7
  6
CONTINUOUS
 10
6.3682774523
 20
-16.4420498145
 11
6.3682774523
 21
-16.7623797671
  0
LINE
  5
3D1
100
AcDbEntity
  8
RACCORDO
100
AcDbLine
 62
7
  6
CONTINUOUS
 10
21.3298031106
 20
5.4543738458
 11
8.6198764577
 21
-1.1495258321
  0
LINE
  5
3D2
100
AcDbEntity
  8
RACCORDO
100
AcDbLine
 62
7
  6
CONTINUOUS
 10
22.9845166795
 20
4.6237111029
 11
9.4005344363
 21
-2.3410315401
  0
LINE
  5
3D3
100
AcDbEntity
  8
0
100
AcDbLine
 62
7
  6
CONTINUOUS
 10
19.9842938337
 20
4.3412933518
 11
8.6198764577
 21
-1.3512640948
  0
LINE
  5
3D4
100
AcDbEntity
  8
0
100
AcDbLine
 62
7
  6
CONTINUOUS
 10
19.9842938337
 20
4.3412933518
 11
21.773669399
 21
5.2324407016
  0
LINE
  5
3D5
100
AcDbEntity
  8
0
100
AcDbLine
 62
7
  6
CONTINUOUS
 10
19.9842938337
 20
4.3412933518
 11
22.779372012
 21
5.7089581239
  0
LINE
  5
3D6
100
AcDbEntity
  8
0
100
AcDbLine
 62
7
  6
CONTINUOUS
 10
12.2788363114
 20
1.2931586804
 11
12.8099737413
 21
1.0275899655
  0
LINE
  5
3D7
100
AcDbEntity
  8
RACCORDO
100
AcDbLine
 62
253
  6
CONTINUOUS
 10
-20.7499483126
 20
19.3148418694
 11
-5.925102235
 21
11.9024188306
  0
LINE
  5
3D8
100
AcDbEntity
  8
0
100
AcDbLine
 62
7
  6
CONTINUOUS
 10
14.0112479253
 20
2.1593644874
 11
14.5091061836
 21
1.9104353582
  0
LINE
  5
3D9
100
AcDbEntity
  8
0
100
AcDbLine
 62
7
  6
CONTINUOUS
 10
14.5231182026
 20
1.9177158069
 11
14.0255343834
 21
2.1665077165
  0
LWPOLYLINE
  5
3DA
100
AcDbEntity
  8
ASSI
100
AcDbPolyline
 62
7
  6
CONTINUOUS
 90
12
 70
0
 10
8.6904622456
 20
15.8013301212
 10
8.6916733642
 20
15.7684918686
 10
8.701362313
 20
15.7033612046
 10
8.7209021587
 20
15.6387855054
 10
8.7501309532
 20
15.5747556473
 10
8.7885628522
 20
15.512335942
 10
8.8363516831
 20
15.4515533027
 10
8.8933436183
 20
15.3923808162
 10
8.9585913316
 20
15.3358020543
 10
9.0317790475
 20
15.2821448742
 10
9.1132225413
 20
15.2310814186
 10
9.178013964
 20
15.1960708466
  0
LINE
  5
3DB
100
AcDbEntity
  8
RACCORDO
100
AcDbLine
 62
7
  6
CONTINUOUS
 10
8.6198764577
 20
-14.2226289688
 11
8.6198764577
 21
16.2604222077
  0
LINE
  5
3DC
100
AcDbEntity
  8
0
100
AcDbLine
 62
7
  6
CONTINUOUS
 10
8.7433024054
 20
0.6016101459
 11
8.7433024054
 21
-0.4746082725
  0
LINE
  5
3DD
100
AcDbEntity
  8
0
100
AcDbLine
 62
7
  6
CONTINUOUS
 10
9.4504091866
 20
-0.7179926714
 11
9.4504091866
 21
1.1759712047
  0
LINE
  5
3DE
100
AcDbEntity
  8
0
100
AcDbLine
 62
7
  6
CONTINUOUS
 10
9.8393179163
 20
11.0106816787
 11
9.8393179163
 21
10.58641761
  0
LINE
  5
3DF
100
AcDbEntity
  8
DRAFT
100
AcDbLine
 62
7
  6
CONTINUOUS
 10
9.9257817138
 20
17.4025404356
 11
9.9257817138
 21
16.9936105394
  0
LINE
  5
3E0
100
AcDbEntity
  8
0
100
AcDbLine
 62
7
  6
CONTINUOUS
 10
10.0868052897
 20
-0.3873301794
 11
10.0868052897
 21
1.5086873719
  0
LWPOLYLINE
  5
3E1
100
AcDbEntity
  8
RACCORDO
100
AcDbPolyline
 62
253
  6
CONTINUOUS
 90
31
 70
0
 10
1.1398415935
 20
-23.137704086
 10
1.1441847348
 20
-23.1254805051
 10
1.1480325438
 20
-23.1130473147
 10
1.1513741125
 20
-23.1004382556
 10
1.1542001368
 20
-23.0876864117
 10
1.1565021367
 20
-23.0748276528
 10
1.1582729692
 20
-23.0619006191
 10
1.1595077002
 20
-23.0489419257
 10
1.1602031631
 20
-23.0359856629
 10
1.1603574559
 20
-23.023066892
 10
1.1599701061
 20
-23.0102206867
 10
1.1590421243
 20
-22.9974823547
 10
1.157576048
 20
-22.9848870092
 10
1.1555759023
 20
-22.9724691649
 10
1.1530471394
 20
-22.9602626244
 10
1.1499966582
 20
-22.9483006998
 10
1.1464327809
 20
-22.9366160468
 10
1.1423652425
 20
-22.9252406024
 10
1.1378051612
 20
-22.9142054661
 10
1.1327649967
 20
-22.9035407877
 10
1.127258512
 20
-22.8932756878
 10
1.1213007479
 20
-22.8834382047
 10
1.1149079675
 20
-22.8740551948
 10
1.1080976407
 20
-22.865152302
 10
1.1008884028
 20
-22.8567538806
 10
1.0932999733
 20
-22.8488828853
 10
1.0853530633
 20
-22.8415607816
 10
1.0770693464
 20
-22.8348075331
 10
1.0684714358
 20
-22.828641576
 10
1.0595828271
 20
-22.8230797614
 10
1.0504277982
 20
-22.81813728
  0
LWPOLYLINE
  5
3E2
100
AcDbEntity
  8
ASSI
100
AcDbPolyline
 62
7
  6
CONTINUOUS
 90
23
 70
0
 10
11.8234729512
 20
2.4166398331
 10
11.7967345102
 20
2.3588473167
 10
11.7364483206
 20
2.24300253
 10
11.6707718154
 20
2.1297273146
 10
11.600796677
 20
2.0209045438
 10
11.5264510549
 20
1.9166086392
 10
11.4478067996
 20
1.8167651794
 10
11.3661711447
 20
1.7230337736
 10
11.2814940901
 20
1.6355165833
 10
11.1938256359
 20
1.554111447
 10
11.1046230173
 20
1.4801714903
 10
11.0138605911
 20
1.4138214916
 10
10.9215640005
 20
1.3549366724
 10
10.8292674099
 20
1.3044958229
 10
10.7369708193
 20
1.2626400818
 10
10.6446742287
 20
1.2292283104
 10
10.5539118026
 20
1.204815883
 10
10.464709184
 20
1.1895532211
 10
10.3770407298
 20
1.1832899032
 10
10.2923636751
 20
1.1861300388
 10
10.2107280203
 20
1.1982257898
 10
10.132083765
 20
1.2194249943
 10
10.0868052897
 20
1.2376655186
  0
LWPOLYLINE
  5
3E3
100
AcDbEntity
  8
ASSI
100
AcDbPolyline
 62
7
  6
CONTINUOUS
 90
14
 70
0
 10
8.6198764577
 20
10.2434595139
 10
8.6437068482
 20
10.247127615
 10
8.7717665644
 20
10.2617420123
 10
8.9009179629
 20
10.2715119351
 10
9.0311792909
 20
10.2763564096
 10
9.1625323012
 20
10.2763564096
 10
9.2927936292
 20
10.2715119351
 10
9.4219450277
 20
10.2617420123
 10
9.5500047438
 20
10.247127615
 10
9.6748441545
 20
10.2279116655
 10
9.796409433
 20
10.2040172501
 10
9.914754406
 20
10.1755212825
 10
10.0279119299
 20
10.1428974258
 10
10.0713945345
 20
10.128069995
  0
LINE
  5
3E4
100
AcDbEntity
  8
0
100
AcDbLine
 62
7
  6
CONTINUOUS
 10
14.7183547065
 20
2.512917878
 11
15.2026296294
 21
2.2707804165
  0
LINE
  5
3E5
100
AcDbEntity
  8
0
100
AcDbLine
 62
7
  6
CONTINUOUS
 10
15.8143702173
 20
3.0609256334
 11
16.2775909704
 21
2.8293152569
  0
LINE
  5
3E6
100
AcDbEntity
  8
RACCORDO
100
AcDbLine
 62
253
  6
CONTINUOUS
 10
-19.7573823026
 20
21.0666460253
 11
-4.9091638418
 21
13.6425367949
  0
LWPOLYLINE
  5
3E7
100
AcDbEntity
  8
RACCORDO
100
AcDbPolyline
 62
253
  6
CONTINUOUS
 90
14
 70
0
 10
1.1398415935
 20
18.1619000534
 10
1.1441847348
 20
18.1545549723
 10
1.1480325438
 20
18.1474674235
 10
1.1513741125
 20
18.1406569545
 10
1.1542001368
 20
18.1341417958
 10
1.1565021367
 20
18.127940631
 10
1.1582729692
 20
18.1220722464
 10
1.1595077002
 20
18.1165532088
 10
1.1602031631
 20
18.1113979821
 10
1.1603574559
 20
18.1066205305
 10
1.1599701061
 20
18.1022338606
 10
1.1590421243
 20
18.0982500655
 10
1.157576048
 20
18.0946801402
 10
1.1555759023
 20
18.0915338623
  0
LINE
  5
3E8
100
AcDbEntity
  8
0
100
AcDbLine
 62
7
  6
CONTINUOUS
 10
12.2788363114
 20
2.6547097257
 11
12.2788363114
 21
1.2931586804
  0
LINE
  5
3E9
100
AcDbEntity
  8
SMUSSO
100
AcDbLine
 62
7
  6
CONTINUOUS
 10
12.5883952046
 20
18.7391597371
 11
12.5883952046
 21
19.0902145801
  0
LWPOLYLINE
  5
3EA
100
AcDbEntity
  8
ASSI
100
AcDbPolyline
 62
7
  6
CONTINUOUS
 90
32
 70
0
 10
10.8824932672
 20
11.1697807045
 10
10.8837043858
 20
11.202618957
 10
10.8933933347
 20
11.267749621
 10
10.9129331804
 20
11.3323253203
 10
10.9421619749
 20
11.3963551784
 10
10.9805938739
 20
11.4587748837
 10
11.0283827047
 20
11.5195575229
 10
11.08537464
 20
11.5787300095
 10
11.1506223533
 20
11.6353087714
 10
11.2242638377
 20
11.6892504554
 10
11.3061611001
 20
11.7405984148
 10
11.3949528349
 20
11.788499138
 10
11.4907542813
 20
11.8328950054
 10
11.5934502001
 20
11.8738436366
 10
11.7013335681
 20
11.9106643788
 10
11.8144910919
 20
11.9432882354
 10
11.932836065
 20
11.9717842031
 10
12.0544013435
 20
11.9956786185
 10
12.1792407542
 20
12.014894568
 10
12.3073004703
 20
12.0295089652
 10
12.4364518688
 20
12.0392788881
 10
12.5667131968
 20
12.0441233625
 10
12.6980662071
 20
12.0441233625
 10
12.8283275351
 20
12.0392788881
 10
12.9574789336
 20
12.0295089652
 10
13.0855386498
 20
12.014894568
 10
13.2103780604
 20
11.9956786185
 10
13.3319433389
 20
11.9717842031
 10
13.450288312
 20
11.9432882354
 10
13.5634458359
 20
11.9106643788
 10
13.6707601961
 20
11.8740705209
 10
13.7326075388
 20
11.8494097158
  0
LINE
  5
3EB
100
AcDbEntity
  8
0
100
AcDbLine
 62
7
  6
CONTINUOUS
 10
17.5467818312
 20
3.9271314404
 11
17.9767234127
 21
3.7121606496
  0
LINE
  5
3EC
100
AcDbEntity
  8
0
100
AcDbLine
 62
7
  6
CONTINUOUS
 10
17.9907354317
 20
3.7194410983
 11
17.5610682894
 21
3.9342746694
  0
LINE
  5
3ED
100
AcDbEntity
  8
0
100
AcDbLine
 62
7
  6
CONTINUOUS
 10
18.2538886124
 20
4.280684831
 11
18.6702468585
 21
4.0725057079
  0
LINE
  5
3EE
100
AcDbEntity
  8
0
100
AcDbLine
 62
7
  6
CONTINUOUS
 10
12.9859430926
 20
1.119021173
 11
12.9859430926
 21
3.024394356
  0
LINE
  5
3EF
100
AcDbEntity
  8
0
100
AcDbLine
 62
7
  6
CONTINUOUS
 10
13.6223391956
 20
1.449683665
 11
13.6223391956
 21
3.3571105232
  0
LWPOLYLINE
  5
3F0
100
AcDbEntity
  8
ASSI
100
AcDbPolyline
 62
7
  6
CONTINUOUS
 90
33
 70
0
 10
14.4180271732
 20
12.9375476574
 10
14.4192382918
 20
12.97038591
 10
14.4289272406
 20
13.035516574
 10
14.4484670863
 20
13.1000922733
 10
14.4776958809
 20
13.1641221313
 10
14.5161277799
 20
13.2265418366
 10
14.5639166107
 20
13.2873244759
 10
14.620908546
 20
13.3464969624
 10
14.6861562592
 20
13.4030757244
 10
14.7597977436
 20
13.4570174084
 10
14.841695006
 20
13.5083653678
 10
14.9304867408
 20
13.556266091
 10
15.0262881872
 20
13.6006619584
 10
15.128984106
 20
13.6416105896
 10
15.236867474
 20
13.6784313317
 10
15.3500249979
 20
13.7110551884
 10
15.4683699709
 20
13.739551156
 10
15.5899352495
 20
13.7634455714
 10
15.7147746601
 20
13.7826615209
 10
15.8428343762
 20
13.7972759182
 10
15.9719857747
 20
13.8070458411
 10
16.1022471027
 20
13.8118903155
 10
16.2336001131
 20
13.8118903155
 10
16.3638614411
 20
13.8070458411
 10
16.4930128396
 20
13.7972759182
 10
16.6210725557
 20
13.7826615209
 10
16.7459119663
 20
13.7634455714
 10
16.8674772449
 20
13.739551156
 10
16.9858222179
 20
13.7110551884
 10
17.0989797418
 20
13.6784313317
 10
17.206294102
 20
13.6418374738
 10
17.3084210131
 20
13.6011157269
 10
17.3840175727
 20
13.5661405155
  0
LWPOLYLINE
  5
3F1
100
AcDbEntity
  8
ASSI
100
AcDbPolyline
 62
7
  6
CONTINUOUS
 90
24
 70
0
 10
15.4050694916
 20
4.2891451294
 10
15.3870741925
 20
4.2450715773
 10
15.3322684161
 20
4.1266142697
 10
15.2719822265
 20
4.010769483
 10
15.2063057213
 20
3.8974942675
 10
15.1363305829
 20
3.7886714968
 10
15.0619849608
 20
3.6843755922
 10
14.9833407055
 20
3.5845321323
 10
14.9017050507
 20
3.4908007266
 10
14.817027996
 20
3.4032835362
 10
14.7293595418
 20
3.3218784
 10
14.6401569232
 20
3.2479384433
 10
14.5493944971
 20
3.1815884446
 10
14.4570979065
 20
3.1227036254
 10
14.3648013159
 20
3.0722627759
 10
14.2725047253
 20
3.0304070348
 10
14.1802081347
 20
2.9969952634
 10
14.0894457085
 20
2.9725828359
 10
14.0002430899
 20
2.957320174
 10
13.9125746358
 20
2.9510568561
 10
13.8278975811
 20
2.9538969918
 10
13.7462619263
 20
2.9659927427
 10
13.6676176709
 20
2.9871919472
 10
13.6223391956
 20
3.0054324715
  0
LWPOLYLINE
  5
3F2
100
AcDbEntity
  8
RACCORDO
100
AcDbPolyline
 62
253
  6
CONTINUOUS
 90
31
 70
0
 10
-1.3422283287
 20
17.1038095363
 10
-1.3327693584
 20
17.0993205739
 10
-1.322855082
 20
17.0950843494
 10
-1.3125124782
 20
17.0911123906
 10
-1.3017697078
 20
17.0874155112
 10
-1.2906559886
 20
17.0840037651
 10
-1.2792015112
 20
17.0808864231
 10
-1.2674374058
 20
17.0780719642
 10
-1.2553957155
 20
17.0755680613
 10
-1.2431092612
 20
17.0733815416
 10
-1.2306114968
 20
17.0715183577
 10
-1.217936414
 20
17.0699835765
 10
-1.2051185056
 20
17.0687813745
 10
-1.1921926422
 20
17.0679150227
 10
-1.1791940091
 20
17.0673868797
 10
-1.1661580108
 20
17.0671983829
 10
-1.1531201429
 20
17.0673500422
 10
-1.1401158637
 20
17.0678414419
 10
-1.1271805292
 20
17.0686712445
 10
-1.1143492236
 20
17.0698372043
 10
-1.1016569824
 20
17.0713361422
 10
-1.0891386533
 20
17.0731639297
 10
-1.076828489
 20
17.0753155304
 10
-1.0647597582
 20
17.0777850937
 10
-1.0529649873
 20
17.0805659503
 10
-1.0414751248
 20
17.0836508604
 10
-1.030322643
 20
17.087031164
 10
-1.0195408331
 20
17.0906966052
 10
-1.009159644
 20
17.0946366031
 10
-0.9992059319
 20
17.0988405506
 10
-0.989706369
 20
17.1032968125
  0
LINE
  5
3F3
100
AcDbEntity
  8
0
100
AcDbLine
 62
7
  6
CONTINUOUS
 10
19.3499041232
 20
4.8286925864
 11
19.7452081995
 21
4.6310405482
  0
LINE
  5
3F4
100
AcDbEntity
  8
0
100
AcDbLine
 62
7
  6
CONTINUOUS
 10
10.4242341339
 20
10.2939595012
 11
9.4150538476
 21
10.7985496443
  0
LINE
  5
3F5
100
AcDbEntity
  8
RACCORDO
100
AcDbLine
 62
7
  6
CONTINUOUS
 10
-15.3285382187
 20
23.4851585352
 11
-13.995325885
 21
22.8185523684
  0
LINE
  5
3F6
100
AcDbEntity
  8
RACCORDO
100
AcDbLine
 62
7
  6
CONTINUOUS
 10
-1.9642200542
 20
16.802999453
 11
-0.6310077206
 21
16.1363932862
  0
LINE
  5
3F7
100
AcDbEntity
  8
0
100
AcDbLine
 62
7
  6
CONTINUOUS
 10
9.8393179163
 20
11.0106816787
 11
10.8615496302
 21
10.4995658217
  0
LINE
  5
3F8
100
AcDbEntity
  8
0
100
AcDbLine
 62
7
  6
CONTINUOUS
 10
21.7894225183
 20
5.2245641419
 11
21.773669399
 21
5.2324407016
  0
LINE
  5
3F9
100
AcDbEntity
  8
DRAFT
100
AcDbLine
 62
7
  6
CONTINUOUS
 10
21.3298031106
 20
5.4543738458
 11
21.773669399
 21
5.2324407016
  0
LINE
  5
3FA
100
AcDbEntity
  8
RACCORDO
100
AcDbLine
 62
7
  6
CONTINUOUS
 10
-4.8705660292
 20
18.6324190652
 11
-10.3818731289
 21
21.388072615
  0
LINE
  5
3FB
100
AcDbEntity
  8
RACCORDO
100
AcDbLine
 62
7
  6
CONTINUOUS
 10
-15.9665578765
 20
24.3132425083
 11
-14.6415731967
 21
23.6507501684
  0
LINE
  5
3FC
100
AcDbEntity
  8
RACCORDO
100
AcDbLine
 62
7
  6
CONTINUOUS
 10
-2.6022397121
 20
17.6310834261
 11
-1.2772550323
 21
16.9685910862
  0
LINE
  5
3FD
100
AcDbEntity
  8
RACCORDO
100
AcDbLine
 62
253
  6
CONTINUOUS
 10
-16.0315311729
 20
24.4484609584
 11
-14.7065464931
 21
23.7859686185
  0
LINE
  5
3FE
100
AcDbEntity
  8
RACCORDO
100
AcDbLine
 62
253
  6
CONTINUOUS
 10
-2.6672130085
 20
17.7663018762
 11
-1.3422283287
 21
17.1038095363
  0
LINE
  5
3FF
100
AcDbEntity
  8
RACCORDO
100
AcDbLine
 62
253
  6
CONTINUOUS
 10
-1.3422283287
 20
17.4437834704
 11
-2.6672130085
 21
18.1062758104
  0
LINE
  5
400
100
AcDbEntity
  8
RACCORDO
100
AcDbLine
 62
253
  6
CONTINUOUS
 10
-14.7065464931
 20
24.1259425527
 11
-16.0315311729
 21
24.7884348926
  0
LINE
  5
401
100
AcDbEntity
  8
RACCORDO
100
AcDbLine
 62
7
  6
CONTINUOUS
 10
0.6344902269
 20
16.6323841865
 11
0.6115744218
 21
16.6438420891
  0
LINE
  5
402
100
AcDbEntity
  8
DRAFT
100
AcDbLine
 62
7
  6
CONTINUOUS
 10
-2.7139492353
 20
18.3066039177
 11
-3.8078429606
 21
18.8535507803
  0
LINE
  5
403
100
AcDbEntity
  8
DRAFT
100
AcDbLine
 62
7
  6
CONTINUOUS
 10
-10.5283197383
 20
22.2137891692
 11
-12.7527437426
 21
23.3260011713
  0
LWPOLYLINE
  5
404
100
AcDbEntity
  8
RACCORDO
100
AcDbPolyline
 62
7
  6
CONTINUOUS
 90
22
 70
0
 10
-15.9665185672
 20
24.3132228652
 10
-15.9752376605
 20
24.3177972897
 10
-15.9870454462
 20
24.3247194188
 10
-15.9984436696
 20
24.3322682314
 10
-16.0093576351
 20
24.3403859202
 10
-16.019779278
 20
24.3490546968
 10
-16.0297539643
 20
24.3583130922
 10
-16.0392596083
 20
24.368154741
 10
-16.0482357693
 20
24.3785300409
 10
-16.0566608185
 20
24.3894253273
 10
-16.0644978576
 20
24.4008062455
 10
-16.0717146806
 20
24.4126387176
 10
-16.0782936976
 20
24.4249108536
 10
-16.0842051123
 20
24.4375900186
 10
-16.0894170569
 20
24.4506317104
 10
-16.0939068169
 20
24.4640059219
 10
-16.0976484943
 20
24.4776674118
 10
-16.1006201932
 20
24.491571831
 10
-16.102804902
 20
24.5056886426
 10
-16.1041836249
 20
24.5199643884
 10
-16.1047419977
 20
24.5343514207
 10
-16.1047544765
 20
24.5368613087
  0
LWPOLYLINE
  5
405
100
AcDbEntity
  8
RACCORDO
100
AcDbPolyline
 62
7
  6
CONTINUOUS
 90
22
 70
0
 10
-2.6022004028
 20
17.631063783
 10
-2.6109194961
 20
17.6356382075
 10
-2.6227272818
 20
17.6425603366
 10
-2.6341255052
 20
17.6501091492
 10
-2.6450394707
 20
17.658226838
 10
-2.6554611136
 20
17.6668956146
 10
-2.6654357999
 20
17.67615401
 10
-2.6749414439
 20
17.6859956588
 10
-2.6839176049
 20
17.6963709587
 10
-2.692342654
 20
17.7072662451
 10
-2.7001796932
 20
17.7186471633
 10
-2.7073965161
 20
17.7304796354
 10
-2.7139755332
 20
17.7427517714
 10
-2.7198869479
 20
17.7554309364
 10
-2.7250988925
 20
17.7684726282
 10
-2.7295886525
 20
17.7818468397
 10
-2.7333303299
 20
17.7955083296
 10
-2.7363020288
 20
17.8094127488
 10
-2.7384867376
 20
17.8235295604
 10
-2.7398654605
 20
17.8378053062
 10
-2.7404238333
 20
17.8521923385
 10
-2.7404363121
 20
17.8547022265
  0
LWPOLYLINE
  5
406
100
AcDbEntity
  8
RACCORDO
100
AcDbPolyline
 62
253
  6
CONTINUOUS
 90
16
 70
0
 10
-16.0315311729
 20
24.4484609584
 10
-16.0405090978
 20
24.4531904436
 10
-16.0489815467
 20
24.4581475818
 10
-16.0569254645
 20
24.4633188837
 10
-16.0643192232
 20
24.4686902689
 10
-16.0711427154
 20
24.4742471285
 10
-16.0773773994
 20
24.4799743672
 10
-16.0830063171
 20
24.4858564199
 10
-16.0880141229
 20
24.4918772651
 10
-16.0923871624
 20
24.4980204922
 10
-16.0961135301
 20
24.5042693744
 10
-16.0991830926
 20
24.5106069158
 10
-16.1015874966
 20
24.51701587
 10
-16.1033202002
 20
24.5234788017
 10
-16.1043764861
 20
24.5299781182
 10
-16.1047544776
 20
24.5368493073
  0
LWPOLYLINE
  5
407
100
AcDbEntity
  8
RACCORDO
100
AcDbPolyline
 62
253
  6
CONTINUOUS
 90
16
 70
0
 10
-16.0315311729
 20
24.7884348926
 10
-16.0405101598
 20
24.7931649672
 10
-16.048983564
 20
24.7981227605
 10
-16.0569283183
 20
24.8032947795
 10
-16.0643228015
 20
24.8086669536
 10
-16.071146874
 20
24.8142246563
 10
-16.0773819383
 20
24.8199527431
 10
-16.0830110206
 20
24.8258356178
 10
-16.0880188054
 20
24.8318572714
 10
-16.0923916596
 20
24.8380013077
 10
-16.0961176833
 20
24.8442510015
 10
-16.0991867391
 20
24.8505893424
 10
-16.1015904757
 20
24.8569990754
 10
-16.1033223565
 20
24.8634627611
 10
-16.1043776684
 20
24.8699627987
 10
-16.1047544776
 20
24.8768232431
  0
LWPOLYLINE
  5
408
100
AcDbEntity
  8
RACCORDO
100
AcDbPolyline
 62
253
  6
CONTINUOUS
 90
16
 70
0
 10
-2.6672130085
 20
17.7663018762
 10
-2.6761909334
 20
17.7710313614
 10
-2.6846633823
 20
17.7759884996
 10
-2.6926073
 20
17.7811598014
 10
-2.7000010588
 20
17.7865311867
 10
-2.706824551
 20
17.7920880463
 10
-2.713059235
 20
17.797815285
 10
-2.7186881527
 20
17.8036973376
 10
-2.7236959585
 20
17.8097181828
 10
-2.7280689979
 20
17.81586141
 10
-2.7317953657
 20
17.8221102922
 10
-2.7348649281
 20
17.8284478336
 10
-2.7372693322
 20
17.8348567878
 10
-2.7390020358
 20
17.8413197195
 10
-2.7400583217
 20
17.847819036
 10
-2.7404363132
 20
17.8546902251
  0
LWPOLYLINE
  5
409
100
AcDbEntity
  8
RACCORDO
100
AcDbPolyline
 62
253
  6
CONTINUOUS
 90
16
 70
0
 10
-2.6672130085
 20
18.1062758104
 10
-2.6761900757
 20
18.1110048194
 10
-2.6846617683
 20
18.1159614379
 10
-2.6926050377
 20
18.1211321805
 10
-2.6999982727
 20
18.1265029793
 10
-2.706821359
 20
18.1320592222
 10
-2.713055733
 20
18.1377857923
 10
-2.7186844332
 20
18.1436671097
 10
-2.7236921457
 20
18.1496871733
 10
-2.7280652461
 20
18.1558296043
 10
-2.7317918368
 20
18.1620776913
 10
-2.7348617788
 20
18.1684144353
 10
-2.73726672
 20
18.1748225962
 10
-2.7390001171
 20
18.1812847394
 10
-2.7400572544
 20
18.1877832835
 10
-2.7404363132
 20
18.194664158
  0
LWPOLYLINE
  5
40A
100
AcDbEntity
  8
ASSI
100
AcDbPolyline
 62
7
  6
CONTINUOUS
 90
10
 70
0
 10
11.2077798792
 20
10.662347905
 10
11.1506223533
 20
10.7042526375
 10
11.08537464
 20
10.7608313995
 10
11.0283827047
 20
10.820003886
 10
10.9805938739
 20
10.8807865252
 10
10.9421619749
 20
10.9432062306
 10
10.9129331804
 20
11.0072360886
 10
10.8933933347
 20
11.0718117879
 10
10.8837043858
 20
11.1369424519
 10
10.8824932672
 20
11.1697807045
  0
LINE
  5
40B
100
AcDbEntity
  8
0
100
AcDbLine
 62
7
  6
CONTINUOUS
 10
15.8143702173
 20
4.503132877
 11
15.8143702173
 21
3.0609256334
  0
LINE
  5
40C
100
AcDbEntity
  8
0
100
AcDbLine
 62
7
  6
CONTINUOUS
 10
16.5214769985
 20
2.9560350174
 11
16.5214769985
 21
4.8728175073
  0
LINE
  5
40D
100
AcDbEntity
  8
0
100
AcDbLine
 62
7
  6
CONTINUOUS
 10
17.1578731016
 20
3.2866975094
 11
17.1578731016
 21
5.2055336745
  0
LWPOLYLINE
  5
40E
100
AcDbEntity
  8
ASSI
100
AcDbPolyline
 62
7
  6
CONTINUOUS
 90
25
 70
0
 10
18.9808084548
 20
6.158588008
 10
18.9720235592
 20
6.133865409
 10
18.9226080984
 20
6.0128385302
 10
18.8678023221
 20
5.8943812226
 10
18.8075161325
 20
5.778536436
 10
18.7418396273
 20
5.6652612205
 10
18.6718644889
 20
5.5564384498
 10
18.5975188668
 20
5.4521425452
 10
18.5188746114
 20
5.3522990853
 10
18.4372389566
 20
5.2585676796
 10
18.3525619019
 20
5.1710504892
 10
18.2648934478
 20
5.089645353
 10
18.1756908292
 20
5.0157053963
 10
18.084928403
 20
4.9493553975
 10
17.9926318124
 20
4.8904705783
 10
17.9003352218
 20
4.8400297289
 10
17.8080386312
 20
4.7981739877
 10
17.7157420406
 20
4.7647622163
 10
17.6249796144
 20
4.7403497889
 10
17.5357769958
 20
4.725087127
 10
17.4481085417
 20
4.7188238091
 10
17.363431487
 20
4.7216639448
 10
17.2817958322
 20
4.7337596957
 10
17.2031515768
 20
4.7549589002
 10
17.1578731016
 20
4.7731994245
  0
LINE
  5
40F
100
AcDbEntity
  8
RACCORDO
100
AcDbLine
 62
253
  6
CONTINUOUS
 10
-0.631521949
 20
-23.2190410117
 11
-1.253839981
 21
-23.9641004292
  0
LINE
  5
410
100
AcDbEntity
  8
RACCORDO
100
AcDbLine
 62
253
  6
CONTINUOUS
 10
-0.2784857609
 20
-23.3448108498
 11
-0.989706369
 21
-24.1963073269
  0
LINE
  5
411
100
AcDbEntity
  8
RACCORDO
100
AcDbLine
 62
7
  6
CONTINUOUS
 10
-1.2165498626
 20
16.9474756517
 11
-0.5909431689
 21
16.8168542553
  0
LINE
  5
412
100
AcDbEntity
  8
RACCORDO
100
AcDbLine
 62
253
  6
CONTINUOUS
 10
-0.989706369
 20
17.1032968125
 11
-0.2784857609
 21
16.9547932896
  0
LWPOLYLINE
  5
413
100
AcDbEntity
  8
RACCORDO
100
AcDbPolyline
 62
7
  6
CONTINUOUS
 90
10
 70
0
 10
-1.2165498626
 20
16.9474756517
 10
-1.2240914347
 20
16.9491724263
 10
-1.2315946097
 20
16.9511063945
 10
-1.2390487041
 20
16.953276409
 10
-1.2464591555
 20
16.9556861901
 10
-1.2537977874
 20
16.9583283539
 10
-1.2610070188
 20
16.9611802043
 10
-1.2680647608
 20
16.9642273906
 10
-1.2749802195
 20
16.9674680718
 10
-1.2772656654
 20
16.9685964036
  0
LWPOLYLINE
  5
414
100
AcDbEntity
  8
RACCORDO
100
AcDbPolyline
 62
253
  6
CONTINUOUS
 90
15
 70
0
 10
-2.4914647525
 20
18.4106526253
 10
-2.5007706254
 20
18.4149559282
 10
-2.5100481809
 20
18.4186551948
 10
-2.5192719792
 20
18.4217402779
 10
-2.5284167368
 20
18.4242027162
 10
-2.5374573687
 20
18.4260357504
 10
-2.5463690589
 20
18.4272343477
 10
-2.5551273658
 20
18.4277952228
 10
-2.5637082796
 20
18.4277168403
 10
-2.572088264
 20
18.4269994175
 10
-2.5802443403
 20
18.4256449251
 10
-2.5881541469
 20
18.4236570805
 10
-2.5957959936
 20
18.4210413387
 10
-2.6031489366
 20
18.4178048717
 10
-2.6045432607
 20
18.4171042723
  0
LWPOLYLINE
  5
415
100
AcDbEntity
  8
RACCORDO
100
AcDbPolyline
 62
253
  6
CONTINUOUS
 90
15
 70
0
 10
-15.855782917
 20
25.0928117075
 10
-15.8650867506
 20
25.0971141322
 10
-15.8743622655
 20
25.1008127809
 10
-15.883584039
 20
25.1038975163
 10
-15.8927267962
 20
25.1063598837
 10
-15.9017654783
 20
25.1081931343
 10
-15.9106753121
 20
25.1093922433
 10
-15.9194318774
 20
25.1099539243
 10
-15.9280111741
 20
25.1098766379
 10
-15.9363896879
 20
25.1091605958
 10
-15.9445444549
 20
25.1078077607
 10
-15.9524531245
 20
25.1058218402
 10
-15.9600940204
 20
25.1032082776
 10
-15.9674462003
 20
25.0999742361
 10
-15.9688685831
 20
25.0992596827
  0
LWPOLYLINE
  5
416
100
AcDbEntity
  8
RACCORDO
100
AcDbPolyline
 62
7
  6
CONTINUOUS
 90
16
 70
0
 10
-0.9087081494
 20
19.2226367227
 10
-0.9171192248
 20
19.2265972065
 10
-0.9255114424
 20
19.2300581853
 10
-0.9338656901
 20
19.233011869
 10
-0.9421628641
 20
19.2354516571
 10
-0.9503841625
 20
19.2373720233
 10
-0.9585111283
 20
19.2387685286
 10
-0.9665252937
 20
19.2396380372
 10
-0.974408413
 20
19.2399786238
 10
-0.9821427552
 20
19.2397894484
 10
-0.9897107628
 20
19.2390709566
 10
-0.9970952197
 20
19.2378248109
 10
-1.0042794822
 20
19.2360537883
 10
-1.0112472609
 20
19.233761907
 10
-1.0179827201
 20
19.2309543839
 10
-1.0196403382
 20
19.2301668805
  0
LWPOLYLINE
  5
417
100
AcDbEntity
  8
RACCORDO
100
AcDbPolyline
 62
7
  6
CONTINUOUS
 90
16
 70
0
 10
-14.2730263138
 20
25.9047958049
 10
-14.2814373892
 20
25.9087562887
 10
-14.2898296068
 20
25.9122172675
 10
-14.2981838546
 20
25.9151709512
 10
-14.3064810285
 20
25.9176107393
 10
-14.3147023269
 20
25.9195311055
 10
-14.3228292927
 20
25.9209276108
 10
-14.3308434581
 20
25.9217971195
 10
-14.3387265774
 20
25.922137706
 10
-14.3464609196
 20
25.9219485306
 10
-14.3540289272
 20
25.9212300388
 10
-14.3614133841
 20
25.9199838931
 10
-14.3685976467
 20
25.9182128705
 10
-14.3755654253
 20
25.9159209892
 10
-14.3823008845
 20
25.9131134661
 10
-14.3839585026
 20
25.9123259627
  0
LWPOLYLINE
  5
418
100
AcDbEntity
  8
RACCORDO
100
AcDbPolyline
 62
253
  6
CONTINUOUS
 90
31
 70
0
 10
-14.7065464931
 20
23.7859686185
 10
-14.6970875228
 20
23.7814796561
 10
-14.6871732464
 20
23.7772434316
 10
-14.6768306427
 20
23.7732714728
 10
-14.6660878722
 20
23.7695745934
 10
-14.654974153
 20
23.7661628473
 10
-14.6435196757
 20
23.7630455053
 10
-14.6317555703
 20
23.7602310464
 10
-14.6197138799
 20
23.7577271436
 10
-14.6074274256
 20
23.7555406238
 10
-14.5949296612
 20
23.75367744
 10
-14.5822545785
 20
23.7521426587
 10
-14.56943667
 20
23.7509404567
 10
-14.5565108067
 20
23.7500741049
 10
-14.5435121735
 20
23.7495459619
 10
-14.5304761752
 20
23.7493574651
 10
-14.5174383073
 20
23.7495091244
 10
-14.5044340281
 20
23.7500005241
 10
-14.4914986936
 20
23.7508303268
 10
-14.478667388
 20
23.7519962865
 10
-14.4659751468
 20
23.7534952244
 10
-14.4534568177
 20
23.7553230119
 10
-14.4411466534
 20
23.7574746126
 10
-14.4290779226
 20
23.759944176
 10
-14.4172831517
 20
23.7627250325
 10
-14.4057932892
 20
23.7658099426
 10
-14.3946408074
 20
23.7691902462
 10
-14.3838589976
 20
23.7728556874
 10
-14.3734778085
 20
23.7767956854
 10
-14.3635240963
 20
23.7809996329
 10
-14.3540245335
 20
23.7854558947
  0
LWPOLYLINE
  5
419
100
AcDbEntity
  8
RACCORDO
100
AcDbPolyline
 62
253
  6
CONTINUOUS
 90
31
 70
0
 10
-1.3422283287
 20
17.4437834704
 10
-1.3327681793
 20
17.439293977
 10
-1.3228525927
 20
17.4350572749
 10
-1.3125085549
 20
17.4310848978
 10
-1.3017642067
 20
17.4273876562
 10
-1.2906488012
 20
17.4239756199
 10
-1.2791926276
 20
17.4208580878
 10
-1.2674268783
 20
17.4180435466
 10
-1.255383571
 20
17.4155396542
 10
-1.2430954984
 20
17.4133532271
 10
-1.2305961108
 20
17.4114902152
 10
-1.217919429
 20
17.4099556874
 10
-1.2050999631
 20
17.408753819
 10
-1.1921725916
 20
17.4078878787
 10
-1.1791725165
 20
17.4073602227
 10
-1.1661351731
 20
17.4071722853
 10
-1.1530961017
 20
17.4073245706
 10
-1.1400907368
 20
17.4078166564
 10
-1.1271543625
 20
17.4086472061
 10
-1.1143220233
 20
17.4098139792
 10
-1.1016288162
 20
17.4113137939
 10
-1.089109667
 20
17.4131425106
 10
-1.0767988703
 20
17.41529508
 10
-1.0647296655
 20
17.41776565
 10
-1.0529345478
 20
17.4205475539
 10
-1.0414431252
 20
17.4236339331
 10
-1.0302893087
 20
17.4270158078
 10
-1.0195101531
 20
17.4306815669
 10
-1.0091363871
 20
17.4346198527
 10
-0.9991930831
 20
17.4388202053
 10
-0.989706369
 20
17.4432707466
  0
LWPOLYLINE
  5
41A
100
AcDbEntity
  8
RACCORDO
100
AcDbPolyline
 62
253
  6
CONTINUOUS
 90
31
 70
0
 10
-14.7065464931
 20
24.1259425527
 10
-14.697111082
 20
24.121464202
 10
-14.6872162896
 20
24.117234811
 10
-14.6768881314
 20
24.113266322
 10
-14.6661516429
 20
24.1095692753
 10
-14.6550373837
 20
24.1061550805
 10
-14.6435820948
 20
24.1030353916
 10
-14.6318195075
 20
24.1002192699
 10
-14.6197792198
 20
24.0977136804
 10
-14.6074936717
 20
24.0955253876
 10
-14.5949960499
 20
24.0936603405
 10
-14.582320576
 20
24.0921236831
 10
-14.5695021049
 20
24.0909196531
 10
-14.5565756874
 20
24.0900515333
 10
-14.5435763484
 20
24.0895216667
 10
-14.5305393562
 20
24.0893314925
 10
-14.5175001401
 20
24.0894815356
 10
-14.5044942437
 20
24.0899713949
 10
-14.4915571152
 20
24.0907997394
 10
-14.4787239818
 20
24.0919643151
 10
-14.4660297595
 20
24.0934619552
 10
-14.453509006
 20
24.0952885847
 10
-14.4411957997
 20
24.0974392337
 10
-14.4291236587
 20
24.09990805
 10
-14.4173254539
 20
24.1026883126
 10
-14.405833291
 20
24.1057724572
 10
-14.3946784597
 20
24.1091520878
 10
-14.3838913551
 20
24.1128179948
 10
-14.3735013462
 20
24.1167601938
 10
-14.3635366992
 20
24.1209679567
 10
-14.3540245335
 20
24.1254298288
  0
LINE
  5
41B
100
AcDbEntity
  8
RACCORDO
100
AcDbLine
 62
253
  6
CONTINUOUS
 10
-1.1664800727
 20
17.7481602854
 11
-2.4914647525
 21
18.4106526253
  0
LINE
  5
41C
100
AcDbEntity
  8
RACCORDO
100
AcDbLine
 62
253
  6
CONTINUOUS
 10
-14.5307982371
 20
24.4303193676
 11
-15.855782917
 21
25.0928117075
  0
LINE
  5
41D
100
AcDbEntity
  8
RACCORDO
100
AcDbLine
 62
253
  6
CONTINUOUS
 10
-4.8705660292
 20
19.713002376
 11
-10.3818731289
 21
22.4686559259
  0
LINE
  5
41E
100
AcDbEntity
  8
RACCORDO
100
AcDbLine
 62
253
  6
CONTINUOUS
 10
-4.4477436494
 20
19.8153919405
 11
-10.5234982991
 21
22.8532692653
  0
LINE
  5
41F
100
AcDbEntity
  8
RACCORDO
100
AcDbLine
 62
7
  6
CONTINUOUS
 10
-12.7527437426
 20
24.0255502633
 11
-11.3447010077
 21
23.3215288958
  0
LINE
  5
420
100
AcDbEntity
  8
RACCORDO
100
AcDbLine
 62
7
  6
CONTINUOUS
 10
0.6115744218
 20
17.3433911811
 11
1.3539396029
 21
16.9722085905
  0
LINE
  5
421
100
AcDbEntity
  8
DRAFT
100
AcDbLine
 62
7
  6
CONTINUOUS
 10
-10.0303826351
 20
23.1772561828
 11
-3.8078429606
 21
20.0659863456
  0
LINE
  5
422
100
AcDbEntity
  8
RACCORDO
100
AcDbLine
 62
7
  6
CONTINUOUS
 10
-14.2730263138
 20
25.9047958049
 11
-12.9295174463
 21
25.2330413711
  0
LINE
  5
423
100
AcDbEntity
  8
RACCORDO
100
AcDbLine
 62
7
  6
CONTINUOUS
 10
-0.9087081494
 20
19.2226367227
 11
0.4348007181
 21
18.5508822889
  0
LINE
  5
424
100
AcDbEntity
  8
DRAFT
100
AcDbLine
 62
7
  6
CONTINUOUS
 10
-3.7371322825
 20
20.7326993993
 11
-8.6868797508
 21
23.2075731335
  0
LINE
  5
425
100
AcDbEntity
  8
RACCORDO
100
AcDbLine
 62
253
  6
CONTINUOUS
 10
-13.7385764351
 20
26.1651432714
 11
-12.4012502746
 21
25.4964801912
  0
LINE
  5
426
100
AcDbEntity
  8
RACCORDO
100
AcDbLine
 62
253
  6
CONTINUOUS
 10
-0.3742582707
 20
19.4829841892
 11
0.9630678899
 21
18.8143211089
  0
LINE
  5
427
100
AcDbEntity
  8
RACCORDO
100
AcDbLine
 62
7
  6
CONTINUOUS
 10
-13.6278014756
 20
26.1717331625
 11
-12.290475315
 21
25.5030700823
  0
LINE
  5
428
100
AcDbEntity
  8
RACCORDO
100
AcDbLine
 62
7
  6
CONTINUOUS
 10
-0.2634833111
 20
19.4895740803
 11
1.0738428494
 21
18.8209110001
  0
LWPOLYLINE
  5
429
100
AcDbEntity
  8
RACCORDO
100
AcDbPolyline
 62
7
  6
CONTINUOUS
 90
22
 70
0
 10
1.0738491914
 20
18.8209078287
 10
1.08511799
 20
18.8149085982
 10
1.0961969687
 20
18.8082586057
 10
1.1069268152
 20
18.8010384693
 10
1.1172784684
 20
18.7932655437
 10
1.1272312191
 20
18.7849519563
 10
1.1367574051
 20
18.7761159367
 10
1.1458268616
 20
18.7667804175
 10
1.1544150819
 20
18.7569651445
 10
1.1624960016
 20
18.7466935297
 10
1.170043516
 20
18.7359920127
 10
1.1770341891
 20
18.7248865773
 10
1.1834450035
 20
18.7134058005
 10
1.1892544514
 20
18.7015795271
 10
1.1944431129
 20
18.6894374628
 10
1.1989929593
 20
18.6770101286
 10
1.2028862076
 20
18.6643328498
 10
1.2061067342
 20
18.6514444002
 10
1.2086418066
 20
18.6383806915
 10
1.2104806572
 20
18.6251783268
 10
1.2116142574
 20
18.6118786924
 10
1.2120394505
 20
18.5973038529
  0
LWPOLYLINE
  5
42A
100
AcDbEntity
  8
RACCORDO
100
AcDbPolyline
 62
7
  6
CONTINUOUS
 90
22
 70
0
 10
-12.290475315
 20
25.5030700823
 10
-12.2788187491
 20
25.496851498
 10
-12.2674633664
 20
25.489997892
 10
-12.2564525209
 20
25.4825266279
 10
-12.2458239588
 20
25.4744553601
 10
-12.2356224703
 20
25.4658116046
 10
-12.2258975465
 20
25.4566346247
 10
-12.2167230279
 20
25.4470016006
 10
-12.2080847588
 20
25.4369075846
 10
-12.1999142642
 20
25.4262577991
 10
-12.1922134682
 20
25.4150088209
 10
-12.1850799443
 20
25.4032562342
 10
-12.1785929402
 20
25.3911085919
 10
-12.1727893083
 20
25.3786328999
 10
-12.1676786647
 20
25.365850881
 10
-12.1632796265
 20
25.3528079245
 10
-12.1596080351
 20
25.3395543952
 10
-12.1566730497
 20
25.3261308065
 10
-12.1544793998
 20
25.3125616216
 10
-12.1530336278
 20
25.2988768607
 10
-12.1523429433
 20
25.2851298987
 10
-12.1522787143
 20
25.2794700705
  0
LINE
  5
42B
100
AcDbEntity
  8
RACCORDO
100
AcDbLine
 62
7
  6
CONTINUOUS
 10
8.205725982
 20
17.6920557823
 11
7.0304767681
 21
19.7190608366
  0
LINE
  5
42C
100
AcDbEntity
  8
SMUSSO
100
AcDbLine
 62
7
  6
CONTINUOUS
 10
18.245249454
 20
16.2617874553
 11
18.245249454
 21
15.9107326124
  0
LINE
  5
42D
100
AcDbEntity
  8
0
100
AcDbLine
 62
7
  6
CONTINUOUS
 10
19.3499041232
 20
6.3515560283
 11
19.3499041232
 21
4.8286925864
  0
LINE
  5
42E
100
AcDbEntity
  8
RACCORDO
100
AcDbLine
 62
7
  6
CONTINUOUS
 10
7.0304767681
 20
-16.0918679081
 11
8.205725982
 21
-15.2401120678
  0
LWPOLYLINE
  5
42F
100
AcDbEntity
  8
RACCORDO
100
AcDbPolyline
 62
253
  6
CONTINUOUS
 90
31
 70
0
 10
22.7468342728
 20
-7.101370288
 10
22.7613741498
 20
-7.0926964766
 10
22.7755373677
 20
-7.0833640558
 10
22.7893131753
 20
-7.0733801099
 10
22.8026911154
 20
-7.0627522176
 10
22.8156610331
 20
-7.0514884464
 10
22.828213083
 20
-7.0395973466
 10
22.8403377368
 20
-7.0270879446
 10
22.852025791
 20
-7.0139697361
 10
22.8632683731
 20
-7.0002526791
 10
22.874056949
 20
-6.9859471862
 10
22.8843833293
 20
-6.9710641164
 10
22.8942396752
 20
-6.9556147674
 10
22.9036185049
 20
-6.9396108667
 10
22.912512699
 20
-6.9230645626
 10
22.920915506
 20
-6.9059884154
 10
22.9288205473
 20
-6.8883953874
 10
22.9362218224
 20
-6.8702988332
 10
22.943113713
 20
-6.85171249
 10
22.9494909874
 20
-6.8326504663
 10
22.9553488049
 20
-6.8131272321
 10
22.9606827187
 20
-6.7931576072
 10
22.96548868
 20
-6.7727567504
 10
22.9697630405
 20
-6.7519401478
 10
22.9735025556
 20
-6.7307236011
 10
22.9767043868
 20
-6.7091232157
 10
22.9793661035
 20
-6.6871553881
 10
22.9814856852
 20
-6.6648367941
 10
22.9830615229
 20
-6.6421843754
 10
22.9840924206
 20
-6.6192153273
 10
22.9845775955
 20
-6.5959470854
  0
LWPOLYLINE
  5
430
100
AcDbEntity
  8
RACCORDO
100
AcDbPolyline
 62
7
  6
CONTINUOUS
 90
41
 70
0
 10
22.7399991577
 20
-7.1051498302
 10
22.7561144152
 20
-7.0962629021
 10
22.7793442096
 20
-7.0827580224
 10
22.8022182489
 20
-7.0686240336
 10
22.8247181641
 20
-7.053870607
 10
22.8468229391
 20
-7.038510111
 10
22.8685195494
 20
-7.0225501787
 10
22.8898014282
 20
-7.0059933303
 10
22.9106587465
 20
-6.9888437219
 10
22.9310671147
 20
-6.9711178537
 10
22.9509987023
 20
-6.9528376148
 10
22.9704310827
 20
-6.9340226451
 10
22.9893565648
 20
-6.9146794547
 10
23.007769931
 20
-6.8948110327
 10
23.0256582875
 20
-6.8744278331
 10
23.0430042828
 20
-6.8535460745
 10
23.0597954736
 20
-6.8321770874
 10
23.0760180591
 20
-6.8103343752
 10
23.0916573358
 20
-6.7880335391
 10
23.1066998104
 20
-6.7652895229
 10
23.1211321454
 20
-6.742118011
 10
23.1349414656
 20
-6.7185350099
 10
23.148115515
 20
-6.6945565354
 10
23.1606422875
 20
-6.6701992344
 10
23.1725100132
 20
-6.6454805248
 10
23.1837074236
 20
-6.6204181481
 10
23.1942240698
 20
-6.5950293652
 10
23.2040493652
 20
-6.5693332213
 10
23.2131727517
 20
-6.5433507466
 10
23.2215856983
 20
-6.51709924
 10
23.229279004
 20
-6.4905998447
 10
23.2362427121
 20
-6.4638800788
 10
23.2424680116
 20
-6.436969148
 10
23.2479510912
 20
-6.4098784306
 10
23.25268936
 20
-6.3826089166
 10
23.2566785592
 20
-6.3551620107
 10
23.2599089149
 20
-6.3275775273
 10
23.2623719534
 20
-6.2999145296
 10
23.2640646783
 20
-6.2722185769
 10
23.2649883086
 20
-6.2444873353
 10
23.2651768792
 20
-6.2250666475
  0
LINE
  5
431
100
AcDbEntity
  8
RACCORDO
100
AcDbLine
 62
253
  6
CONTINUOUS
 10
22.9845166795
 20
-6.5723973125
 11
8.6173304663
 21
-14.3238238821
  0
LINE
  5
432
100
AcDbEntity
  8
RACCORDO
100
AcDbLine
 62
7
  6
CONTINUOUS
 10
22.7400006997
 20
-7.1051489983
 11
8.535835356
 21
-14.7686220687
  0
LINE
  5
433
100
AcDbEntity
  8
DRAFT
100
AcDbLine
 62
7
  6
CONTINUOUS
 10
1.6722345936
 20
-18.925394634
 11
7.0304767681
 21
-16.0918679081
  0
LINE
  5
434
100
AcDbEntity
  8
RACCORDO
100
AcDbLine
 62
253
  6
CONTINUOUS
 10
1.6722345936
 20
-17.8824905646
 11
8.6198764577
 21
-14.2226289688
  0
LINE
  5
435
100
AcDbEntity
  8
RACCORDO
100
AcDbLine
 62
253
  6
CONTINUOUS
 10
1.6722345936
 20
-18.6818085004
 11
8.205725982
 21
-15.2401120678
  0
LINE
  5
436
100
AcDbEntity
  8
RACCORDO
100
AcDbLine
 62
7
  6
CONTINUOUS
 10
5.3464118939
 20
-17.3686334877
 11
1.6722345936
 21
-19.2128660271
  0
LINE
  5
437
100
AcDbEntity
  8
RACCORDO
100
AcDbLine
 62
7
  6
CONTINUOUS
 10
6.2279473525
 20
-16.8092044437
 11
1.6722345936
 21
-19.0688715573
  0
LWPOLYLINE
  5
438
100
AcDbEntity
  8
RACCORDO
100
AcDbPolyline
 62
253
  6
CONTINUOUS
 90
14
 70
0
 10
1.0738428477
 20
18.8209110009
 10
1.066415427
 20
18.8242305186
 10
1.0588324844
 20
18.8268682188
 10
1.0509860661
 20
18.8288810893
 10
1.0428977748
 20
18.8302636143
 10
1.034589807
 20
18.8310120745
 10
1.0260846347
 20
18.8311245188
 10
1.0174051719
 20
18.8306006699
 10
1.0085730814
 20
18.8294416279
 10
0.9996142984
 20
18.8276505925
 10
0.9905589615
 20
18.8252341622
 10
0.9814337928
 20
18.8222007908
 10
0.9722617882
 20
18.8185594336
 10
0.9630678899
 20
18.8143211089
  0
LWPOLYLINE
  5
439
100
AcDbEntity
  8
RACCORDO
100
AcDbPolyline
 62
253
  6
CONTINUOUS
 90
14
 70
0
 10
-0.2634833129
 20
19.4895740812
 10
-0.2709107335
 20
19.4928935989
 10
-0.2784936761
 20
19.4955312991
 10
-0.2863400945
 20
19.4975441696
 10
-0.2944283858
 20
19.4989266945
 10
-0.3027363535
 20
19.4996751548
 10
-0.3112415259
 20
19.4997875991
 10
-0.3199209886
 20
19.4992637502
 10
-0.3287530791
 20
19.4981047082
 10
-0.3377118621
 20
19.4963136728
 10
-0.346767199
 20
19.4938972425
 10
-0.3558923678
 20
19.4908638711
 10
-0.3650643723
 20
19.4872225138
 10
-0.3742582707
 20
19.4829841892
  0
LWPOLYLINE
  5
43A
100
AcDbEntity
  8
RACCORDO
100
AcDbPolyline
 62
253
  6
CONTINUOUS
 90
14
 70
0
 10
-12.290475315
 20
25.5030700823
 10
-12.2978733957
 20
25.5063779761
 10
-12.3054536131
 20
25.5090176296
 10
-12.3132972595
 20
25.5110327416
 10
-12.321382995
 20
25.5124178296
 10
-12.3296888211
 20
25.5131691252
 10
-12.3381921402
 20
25.5132845846
 10
-12.3468698178
 20
25.5127638934
 10
-12.3556982446
 20
25.5116084684
 10
-12.3646534015
 20
25.5098214531
 10
-12.3737109244
 20
25.5074077093
 10
-12.3828461709
 20
25.5043738041
 10
-12.3920342869
 20
25.5007279917
 10
-12.4012502746
 20
25.4964801912
  0
LWPOLYLINE
  5
43B
100
AcDbEntity
  8
RACCORDO
100
AcDbPolyline
 62
253
  6
CONTINUOUS
 90
14
 70
0
 10
-13.6278014756
 20
26.1717331625
 10
-13.6351995563
 20
26.1750410564
 10
-13.6427797736
 20
26.1776807099
 10
-13.65062342
 20
26.1796958218
 10
-13.6587091556
 20
26.1810809098
 10
-13.6670149816
 20
26.1818322055
 10
-13.6755183008
 20
26.1819476648
 10
-13.6841959783
 20
26.1814269737
 10
-13.6930244052
 20
26.1802715487
 10
-13.7019795621
 20
26.1784845333
 10
-13.711037085
 20
26.1760707896
 10
-13.7201723315
 20
26.1730368844
 10
-13.7293604474
 20
26.169391072
 10
-13.7385764351
 20
26.1651432714
  0
LWPOLYLINE
  5
43C
100
AcDbEntity
  8
RACCORDO
100
AcDbPolyline
 62
7
  6
CONTINUOUS
 90
18
 70
0
 10
-13.6278014756
 20
26.1717331625
 10
-13.6400072878
 20
26.1774303501
 10
-13.6526295665
 20
26.1825091581
 10
-13.6656297564
 20
26.1869310588
 10
-13.6789843376
 20
26.1906653315
 10
-13.6926273254
 20
26.193672918
 10
-13.7064516149
 20
26.1959183368
 10
-13.7203827489
 20
26.1973862889
 10
-13.7343914377
 20
26.1980719987
 10
-13.7484409341
 20
26.1979701641
 10
-13.7624732464
 20
26.1970782426
 10
-13.7764457925
 20
26.1953969586
 10
-13.7903516517
 20
26.1929217173
 10
-13.8041965578
 20
26.1896380913
 10
-13.8178788164
 20
26.1855567546
 10
-13.8312497461
 20
26.180723049
 10
-13.8442724672
 20
26.1751609323
 10
-13.8490951856
 20
26.1728748279
  0
LWPOLYLINE
  5
43D
100
AcDbEntity
  8
RACCORDO
100
AcDbPolyline
 62
253
  6
CONTINUOUS
 90
14
 70
0
 10
-0.3742582707
 20
19.4829841892
 10
-0.3834572804
 20
19.4873390259
 10
-0.392633896
 20
19.4910871242
 10
-0.4017629663
 20
19.4942182113
 10
-0.4108194701
 20
19.4967237053
 10
-0.4197785854
 20
19.4985967393
 10
-0.4286157567
 20
19.4998321796
 10
-0.4373067631
 20
19.5004266401
 10
-0.4458277842
 20
19.5003784915
 10
-0.4541554654
 20
19.4996878657
 10
-0.4622669821
 20
19.4983566556
 10
-0.4701401023
 20
19.4963885099
 10
-0.4777532471
 20
19.4937888228
 10
-0.4847703818
 20
19.4907189803
  0
LWPOLYLINE
  5
43E
100
AcDbEntity
  8
RACCORDO
100
AcDbPolyline
 62
253
  6
CONTINUOUS
 90
14
 70
0
 10
-13.7385764351
 20
26.1651432714
 10
-13.7477535427
 20
26.1694884485
 10
-13.7569141611
 20
26.1732319589
 10
-13.7660332057
 20
26.1763624308
 10
-13.7750875109
 20
26.178870596
 10
-13.7840502012
 20
26.1807476825
 10
-13.7928909892
 20
26.1819867723
 10
-13.8015837476
 20
26.182584408
 10
-13.8101065903
 20
26.1825392923
 10
-13.8184363823
 20
26.1818515221
 10
-13.8265504242
 20
26.1805228983
 10
-13.8344262874
 20
26.1785570187
 10
-13.8420421314
 20
26.175959309
 10
-13.8490885457
 20
26.1728780627
  0
LWPOLYLINE
  5
43F
100
AcDbEntity
  8
RACCORDO
100
AcDbPolyline
 62
7
  6
CONTINUOUS
 90
3
 70
0
 10
-3.7906782313
 20
22.7510683006
 10
-3.7929729136
 20
22.7521615295
 10
-3.7958089116
 20
22.7533687529
  0
LWPOLYLINE
  5
440
100
AcDbEntity
  8
0
100
AcDbPolyline
 62
7
  6
CONTINUOUS
 90
40
 70
0
 10
-3.6664216044
 20
23.197080466
 10
-3.6955480247
 20
23.2110626921
 10
-3.7256739326
 20
23.2244074788
 10
-3.7567993281
 20
23.237114826
 10
-3.7889779079
 20
23.2492032962
 10
-3.8221559753
 20
23.2606543269
 10
-3.8561724395
 20
23.2714122309
 10
-3.891031401
 20
23.2814736254
 10
-3.9267287593
 20
23.2908418932
 10
-3.9630911224
 20
23.2994714944
 10
-4.0001213952
 20
23.3073587908
 10
-4.0378166728
 20
23.3145074206
 10
-4.0759948483
 20
23.3208827589
 10
-4.1146587336
 20
23.3264811268
 10
-4.1538055169
 20
23.3313062033
 10
-4.1932446554
 20
23.3353343996
 10
-4.2329774715
 20
23.3385617965
 10
-4.2730026428
 20
23.3409923133
 10
-4.3131256598
 20
23.3426141196
 10
-4.3533469138
 20
23.3434232708
 10
-4.3936660134
 20
23.3434237115
 10
-4.4338872748
 20
23.3426154454
 10
-4.4740102215
 20
23.340994541
 10
-4.5140353299
 20
23.3385649299
 10
-4.5537683457
 20
23.3353384103
 10
-4.5932078479
 20
23.3313111083
 10
-4.6323552575
 20
23.326486898
 10
-4.671020583
 20
23.3208892001
 10
-4.7092014797
 20
23.3145142546
 10
-4.7469002924
 20
23.3073658215
 10
-4.7839340637
 20
23.2994786023
 10
-4.8202995594
 20
23.2908490055
 10
-4.8560000138
 20
23.2814806226
 10
-4.890862172
 20
23.271418929
 10
-4.9248819572
 20
23.2606605546
 10
-4.9580634462
 20
23.2492088697
 10
-4.9902456141
 20
23.2371194597
 10
-5.0213747861
 20
23.2244108534
 10
-5.0515046369
 20
23.2110645222
 10
-5.0806351668
 20
23.197080466
  0
LINE
  5
441
100
AcDbEntity
  8
RACCORDO
100
AcDbLine
 62
7
  6
CONTINUOUS
 10
-2.4229703022
 20
21.3804165159
 11
-5.0099244886
 21
22.6738936092
  0
LINE
  5
442
100
AcDbEntity
  8
RACCORDO
100
AcDbLine
 62
253
  6
CONTINUOUS
 10
-1.7820071074
 20
21.6963310216
 11
-3.8749193384
 21
22.7427871371
  0
LINE
  5
443
100
AcDbEntity
  8
RACCORDO
100
AcDbLine
 62
7
  6
CONTINUOUS
 10
-1.7312436829
 20
21.7213510263
 11
-3.7906704657
 21
22.7510644178
  0
LINE
  5
444
100
AcDbEntity
  8
ASSI
100
AcDbLine
 62
7
  6
CONTINUOUS
 10
-3.6664216044
 20
23.197080466
 11
-1.2194565377
 21
21.9735979327
  0
LINE
  5
445
100
AcDbEntity
  8
0
100
AcDbLine
 62
7
  6
CONTINUOUS
 10
-4.019974995
 20
23.3738571613
 11
-4.3735283856
 21
23.5506338566
  0
LINE
  5
446
100
AcDbEntity
  8
DRAFT
100
AcDbLine
 62
7
  6
CONTINUOUS
 10
-4.3735283856
 20
24.1031920459
 11
-4.019974995
 21
23.9264153506
  0
LWPOLYLINE
  5
447
100
AcDbEntity
  8
ASSI
100
AcDbPolyline
 62
7
  6
CONTINUOUS
 90
11
 70
0
 10
14.8379366476
 20
12.3690863633
 10
14.7593439751
 20
12.4183624104
 10
14.6861562592
 20
12.4720195905
 10
14.620908546
 20
12.5285983524
 10
14.5639166107
 20
12.5877708389
 10
14.5161277799
 20
12.6485534782
 10
14.4776958809
 20
12.7109731835
 10
14.4484670863
 20
12.7750030416
 10
14.4289272406
 20
12.8395787408
 10
14.4192382918
 20
12.9047094048
 10
14.4180271732
 20
12.9375476574
  0
LINE
  5
448
100
AcDbEntity
  8
RACCORDO
100
AcDbLine
 62
7
  6
CONTINUOUS
 10
22.9722836604
 20
5.5491921893
 11
22.779372012
 21
5.7089581239
  0
LINE
  5
449
100
AcDbEntity
  8
0
100
AcDbLine
 62
7
  6
CONTINUOUS
 10
14.6639595427
 20
13.6086697812
 11
14.4848067572
 21
14.0273708569
  0
LINE
  5
44A
100
AcDbEntity
  8
RACCORDO
100
AcDbLine
 62
7
  6
CONTINUOUS
 10
12.5812693962
 20
19.1088940038
 11
12.5883952046
 21
19.0902145801
  0
LINE
  5
44B
100
AcDbEntity
  8
0
100
AcDbLine
 62
7
  6
CONTINUOUS
 10
20.0570109044
 20
4.7930488618
 11
20.0570109044
 21
6.7212406586
  0
LINE
  5
44C
100
AcDbEntity
  8
0
100
AcDbLine
 62
7
  6
CONTINUOUS
 10
20.375208956
 20
4.9583801078
 11
20.375208956
 21
6.8875987422
  0
LWPOLYLINE
  5
44D
100
AcDbEntity
  8
RACCORDO
100
AcDbPolyline
 62
253
  6
CONTINUOUS
 90
34
 70
0
 10
-5.224518764
 20
-23.6982212214
 10
-5.2418130953
 20
-23.7070247846
 10
-5.2598385568
 20
-23.7154104546
 10
-5.2785552164
 20
-23.7233596546
 10
-5.297921611
 20
-23.7308547745
 10
-5.3178948379
 20
-23.7378792103
 10
-5.3384306503
 20
-23.7444174008
 10
-5.3594835547
 20
-23.7504548618
 10
-5.3810069126
 20
-23.7559782184
 10
-5.4029530429
 20
-23.7609752346
 10
-5.4252733282
 20
-23.7654348406
 10
-5.447918322
 20
-23.7693471569
 10
-5.4708378585
 20
-23.7727035165
 10
-5.493981164
 20
-23.775496484
 10
-5.5172969686
 20
-23.7777198721
 10
-5.5407336207
 20
-23.7793687553
 10
-5.5642392007
 20
-23.7804394809
 10
-5.5877616365
 20
-23.7809296768
 10
-5.6112488184
 20
-23.7808382572
 10
-5.6346487152
 20
-23.7801654244
 10
-5.6579094886
 20
-23.7789126691
 10
-5.6809796088
 20
-23.7770827665
 10
-5.7038079683
 20
-23.7746797705
 10
-5.7263439951
 20
-23.7717090043
 10
-5.748537765
 20
-23.7681770492
 10
-5.7703401118
 20
-23.7640917295
 10
-5.7917027365
 20
-23.7594620956
 10
-5.8125783141
 20
-23.7542984035
 10
-5.8329205989
 20
-23.7486120923
 10
-5.8526845262
 20
-23.7424157591
 10
-5.8718263129
 20
-23.7357231306
 10
-5.8903035538
 20
-23.7285490332
 10
-5.9080753161
 20
-23.7209093596
 10
-5.9251022299
 20
-23.7128210342
  0
LINE
  5
44E
100
AcDbEntity
  8
RACCORDO
100
AcDbLine
 62
253
  6
CONTINUOUS
 10
0.9541501425
 20
-21.9342423875
 11
1.6722345936
 21
-21.5799759897
  0
LINE
  5
44F
100
AcDbEntity
  8
RACCORDO
100
AcDbLine
 62
7
  6
CONTINUOUS
 10
0.8330058615
 20
-22.1797222361
 11
1.5544474153
 21
-21.8237996144
  0
LWPOLYLINE
  5
450
100
AcDbEntity
  8
RACCORDO
100
AcDbPolyline
 62
7
  6
CONTINUOUS
 90
18
 70
0
 10
-4.4477436494
 20
19.8153919405
 10
-4.4650383173
 20
19.8138996048
 10
-4.4822327156
 20
19.811906027
 10
-4.4992910533
 20
19.8094988441
 10
-4.5161818868
 20
19.8067878904
 10
-4.5328861495
 20
19.8038308779
 10
-4.5493929695
 20
19.8006200298
 10
-4.5656863764
 20
19.7972098019
 10
-4.5817561693
 20
19.7936652722
 10
-4.5975993232
 20
19.7899713162
 10
-4.6132081348
 20
19.7861680339
 10
-4.6285772175
 20
19.7823044457
 10
-4.6437039455
 20
19.778364172
 10
-4.6585849631
 20
19.7743781247
 10
-4.6732174891
 20
19.7703840387
 10
-4.687596114
 20
19.7663669093
 10
-4.701719667
 20
19.7623517488
 10
-4.7291894126
 20
19.7544041365
  0
LINE
  5
451
100
AcDbEntity
  8
RACCORDO
100
AcDbLine
 62
7
  6
CONTINUOUS
 10
-14.580868027
 20
23.6296347339
 11
-13.9552613333
 21
23.4990133376
  0
LINE
  5
452
100
AcDbEntity
  8
RACCORDO
100
AcDbLine
 62
253
  6
CONTINUOUS
 10
-14.3540245335
 20
23.7854558947
 11
-13.6428039254
 21
23.6369523718
  0
LWPOLYLINE
  5
453
100
AcDbEntity
  8
RACCORDO
100
AcDbPolyline
 62
7
  6
CONTINUOUS
 90
10
 70
0
 10
-14.580868027
 20
23.6296347339
 10
-14.5884095991
 20
23.6313315085
 10
-14.5959127742
 20
23.6332654767
 10
-14.6033668685
 20
23.6354354912
 10
-14.61077732
 20
23.6378452724
 10
-14.6181159518
 20
23.6404874361
 10
-14.6253251832
 20
23.6433392865
 10
-14.6323829252
 20
23.6463864728
 10
-14.6392983839
 20
23.649627154
 10
-14.6415838298
 20
23.6507554858
  0
LWPOLYLINE
  5
454
100
AcDbEntity
  8
RACCORDO
100
AcDbPolyline
 62
7
  6
CONTINUOUS
 90
19
 70
0
 10
-3.7966942451
 20
22.7537144223
 10
-3.8005100752
 20
22.7550427197
 10
-3.8044154849
 20
22.7561447203
 10
-3.8084060901
 20
22.7570193215
 10
-3.8124766977
 20
22.7576653448
 10
-3.8166220617
 20
22.7580819106
 10
-3.8208375637
 20
22.7582687784
 10
-3.8251177228
 20
22.7582255985
 10
-3.8294570235
 20
22.7579523206
 10
-3.8338506724
 20
22.7574495688
 10
-3.8382929605
 20
22.7567178236
 10
-3.8427781646
 20
22.755757863
 10
-3.8473013772
 20
22.7545711679
 10
-3.8518567245
 20
22.753159042
 10
-3.8564383377
 20
22.7515230805
 10
-3.8610412563
 20
22.7496656041
 10
-3.8656598494
 20
22.7475888873
 10
-3.870287823
 20
22.7452951587
 10
-3.8749191924
 20
22.7427870641
  0
LWPOLYLINE
  5
455
100
AcDbEntity
  8
RACCORDO
100
AcDbPolyline
 62
7
  6
CONTINUOUS
 90
51
 70
0
 10
-3.7958089116
 20
22.7533687529
 10
-3.8063804167
 20
22.7575211286
 10
-3.8293417798
 20
22.7661357516
 10
-3.852612371
 20
22.7743285801
 10
-3.8761783346
 20
22.7821045594
 10
-3.9000336821
 20
22.7894701539
 10
-3.9241604157
 20
22.796427153
 10
-3.9485406511
 20
22.8029776934
 10
-3.9731678123
 20
22.8091262517
 10
-3.9980240137
 20
22.8148738917
 10
-4.0230919175
 20
22.8202220583
 10
-4.0483650355
 20
22.8251738611
 10
-4.0738260148
 20
22.8297299411
 10
-4.0994573293
 20
22.8338910905
 10
-4.1252515547
 20
22.837659219
 10
-4.1511911428
 20
22.8410346409
 10
-4.1772589629
 20
22.8440178134
 10
-4.2034476321
 20
22.8466098661
 10
-4.2297395876
 20
22.8488109133
 10
-4.2561178514
 20
22.8506211162
 10
-4.2825755097
 20
22.8520409677
 10
-4.3090953378
 20
22.8530704185
 10
-4.335660083
 20
22.8537093331
 10
-4.3622625879
 20
22.8539575772
 10
-4.388885669
 20
22.8538149253
 10
-4.4155119729
 20
22.8532810088
 10
-4.4421341161
 20
22.8523551197
 10
-4.4687349727
 20
22.8510368309
 10
-4.4952969396
 20
22.849325553
 10
-4.5218121904
 20
22.8472200256
 10
-4.5482634258
 20
22.8447195933
 10
-4.574632891
 20
22.8418234352
 10
-4.6009125909
 20
22.8385296828
 10
-4.6270865093
 20
22.8348371567
 10
-4.6531351178
 20
22.8307449317
 10
-4.6790459933
 20
22.8262511895
 10
-4.7048026955
 20
22.8213545045
 10
-4.7303857516
 20
22.8160538034
 10
-4.7557794551
 20
22.8103475286
 10
-4.7809659074
 20
22.8042343097
 10
-4.8059269711
 20
22.7977126698
 10
-4.8306481773
 20
22.7907802855
 10
-4.8551116317
 20
22.7834352548
 10
-4.8792990246
 20
22.7756757096
 10
-4.9031968701
 20
22.7674981638
 10
-4.926786329
 20
22.7589001932
 10
-4.9500497813
 20
22.7498788023
 10
-4.9729772982
 20
22.7404274404
 10
-4.9955535819
 20
22.7305405042
 10
-5.0177552896
 20
22.7202158662
 10
-5.0333347505
 20
22.7125901669
  0
LWPOLYLINE
  5
456
100
AcDbEntity
  8
ASSI
100
AcDbPolyline
 62
7
  6
CONTINUOUS
 90
16
 70
0
 10
-3.9212150269
 20
25.5141864097
 10
-3.922961607
 20
25.5149468863
 10
-3.9271506608
 20
25.5161337359
 10
-3.9320938146
 20
25.5168357446
 10
-3.9377512231
 20
25.5170712563
 10
-3.9440867406
 20
25.5168475968
 10
-3.951102267
 20
25.5161949756
 10
-3.9587892095
 20
25.5151238821
 10
-3.9671046255
 20
25.5136481231
 10
-3.9760069912
 20
25.511803047
 10
-3.9854656844
 20
25.5095898649
 10
-3.9954483798
 20
25.5070241521
 10
-4.0059048439
 20
25.5041596003
 10
-4.0167941141
 20
25.501016587
 10
-4.0280879673
 20
25.497583377
 10
-4.0397527629
 20
25.4938629981
  0
LWPOLYLINE
  5
457
100
AcDbEntity
  8
ASSI
100
AcDbPolyline
 62
7
  6
CONTINUOUS
 90
16
 70
0
 10
1.6337695225
 20
22.736694131
 10
1.6323116492
 20
22.7373416242
 10
1.6281972907
 20
22.7385628794
 10
1.6233333166
 20
22.7393015488
 10
1.6177607844
 20
22.7395753884
 10
1.6115156556
 20
22.7393919139
 10
1.6045962327
 20
22.7387824166
 10
1.5970118603
 20
22.7377576526
 10
1.5888051451
 20
22.7363306812
 10
1.5800155463
 20
22.7345365215
 10
1.5706729946
 20
22.7323766943
 10
1.5608097552
 20
22.7298662871
 10
1.5504742566
 20
22.7270576975
 10
1.5397063929
 20
22.7239709368
 10
1.528534304
 20
22.7205947334
 10
1.5169911096
 20
22.7169321795
  0
LWPOLYLINE
  5
458
100
AcDbEntity
  8
ASSI
100
AcDbPolyline
 62
7
  6
CONTINUOUS
 90
33
 70
0
 10
11.6777955474
 20
16.4200485548
 10
11.5808560854
 20
16.4648981907
 10
11.4787291744
 20
16.5056199376
 10
11.3714148142
 20
16.5422137956
 10
11.2582572903
 20
16.5748376522
 10
11.1399123173
 20
16.6033336198
 10
11.0183470387
 20
16.6272280352
 10
10.8935076281
 20
16.6464439847
 10
10.765447912
 20
16.661058382
 10
10.6362965135
 20
16.6708283049
 10
10.5060351855
 20
16.6756727793
 10
10.3746821751
 20
16.6756727793
 10
10.2444208471
 20
16.6708283049
 10
10.1152694486
 20
16.661058382
 10
9.9872097325
 20
16.6464439847
 10
9.8623703219
 20
16.6272280352
 10
9.7408050433
 20
16.6033336198
 10
9.6224600703
 20
16.5748376522
 10
9.5093025464
 20
16.5422137956
 10
9.4014191784
 20
16.5053930534
 10
9.2987232596
 20
16.4644444222
 10
9.2029218132
 20
16.4200485548
 10
9.1141300784
 20
16.3721478316
 10
9.032232816
 20
16.3207998722
 10
8.9585913316
 20
16.2668581882
 10
8.8933436183
 20
16.2102794262
 10
8.8363516831
 20
16.1511069397
 10
8.7885628522
 20
16.0903243004
 10
8.7501309532
 20
16.0279045951
 10
8.7209021587
 20
15.9638747371
 10
8.701362313
 20
15.8992990378
 10
8.6916733642
 20
15.8341683738
 10
8.6904622456
 20
15.8013301212
  0
LINE
  5
459
100
AcDbEntity
  8
0
100
AcDbLine
 62
7
  6
CONTINUOUS
 10
0.1883591585
 20
22.6674745911
 11
-2.6221904885
 21
24.0727494145
  0
LINE
  5
45A
100
AcDbEntity
  8
0
100
AcDbLine
 62
7
  6
CONTINUOUS
 10
17.9314834883
 20
13.8235346702
 11
16.4861216594
 21
14.5462155846
  0
LINE
  5
45B
100
AcDbEntity
  8
0
100
AcDbLine
 62
7
  6
CONTINUOUS
 10
12.2746292388
 20
16.6519617949
 11
10.7585567318
 21
17.4099980484
  0
LINE
  5
45C
100
AcDbEntity
  8
DRAFT
100
AcDbLine
 62
7
  6
CONTINUOUS
 10
6.2917032357
 20
20.0884476028
 11
7.0304767681
 21
19.7190608366
  0
LINE
  5
45D
100
AcDbEntity
  8
ASSI
100
AcDbLine
 62
253
  6
CONTINUOUS
 10
1.4666491085
 20
22.6962954795
 11
0.8611186739
 21
22.9990606969
  0
LINE
  5
45E
100
AcDbEntity
  8
ASSI
100
AcDbLine
 62
253
  6
CONTINUOUS
 10
-4.0886287945
 20
25.473934431
 11
-4.6941592291
 21
25.7766996483
  0
LINE
  5
45F
100
AcDbEntity
  8
0
100
AcDbLine
 62
7
  6
CONTINUOUS
 10
1.838880573
 20
22.5959280413
 11
1.6405851735
 21
22.695075741
  0
LINE
  5
460
100
AcDbEntity
  8
0
100
AcDbLine
 62
7
  6
CONTINUOUS
 10
0.9736064402
 20
23.0285651077
 11
-1.2622585484
 21
24.1464976019
  0
LINE
  5
461
100
AcDbEntity
  8
ASSI
100
AcDbLine
 62
7
  6
CONTINUOUS
 10
1.6334683566
 20
22.7368405972
 11
1.1370803492
 21
22.9850346009
  0
LINE
  5
462
100
AcDbEntity
  8
ASSI
100
AcDbLine
 62
7
  6
CONTINUOUS
 10
-3.9214882038
 20
25.5143188775
 11
-4.4178765188
 21
25.762513035
  0
LINE
  5
463
100
AcDbEntity
  8
RACCORDO
100
AcDbLine
 62
253
  6
CONTINUOUS
 10
-5.030160681
 20
26.4663052004
 11
-1.9631947371
 21
24.9328222284
  0
LINE
  5
464
100
AcDbEntity
  8
RACCORDO
100
AcDbLine
 62
253
  6
CONTINUOUS
 10
2.27944595
 20
22.8115018848
 11
5.3464118939
 21
21.2780189129
  0
LINE
  5
465
100
AcDbEntity
  8
DRAFT
100
AcDbLine
 62
7
  6
CONTINUOUS
 10
11.6070848692
 20
18.2398654111
 11
13.5673409009
 21
17.2597373953
  0
LINE
  5
466
100
AcDbEntity
  8
DRAFT
100
AcDbLine
 62
7
  6
CONTINUOUS
 10
19.2241951504
 20
14.4313102705
 11
17.2639391187
 21
15.4114382864
  0
LINE
  5
467
100
AcDbEntity
  8
RACCORDO
100
AcDbLine
 62
7
  6
CONTINUOUS
 10
2.7204889531
 20
22.8368513514
 11
5.9476676434
 21
21.2232620063
  0
LINE
  5
468
100
AcDbEntity
  8
ASSI
100
AcDbLine
 62
7
  6
CONTINUOUS
 10
11.7259803956
 20
16.3940114802
 11
11.6777955474
 21
16.4200485548
  0
LWPOLYLINE
  5
469
100
AcDbEntity
  8
RACCORDO
100
AcDbPolyline
 62
7
  6
CONTINUOUS
 90
42
 70
0
 10
23.2651768792
 20
13.5598334812
 10
23.2648125122
 20
13.5868260901
 10
23.2637185508
 20
13.6138198674
 10
23.2618944025
 20
13.640791364
 10
23.2593414306
 20
13.6677076891
 10
23.2560604006
 20
13.6945548493
 10
23.2520489309
 20
13.7213375168
 10
23.2473115514
 20
13.7480128789
 10
23.2418474373
 20
13.7745766323
 10
23.2356383906
 20
13.8010894755
 10
23.2286582378
 20
13.8276088938
 10
23.2209234772
 20
13.8540246444
 10
23.2124878792
 20
13.8801487465
 10
23.2034068959
 20
13.9058456715
 10
23.1936580389
 20
13.9312129853
 10
23.1831777582
 20
13.9564118293
 10
23.1719295854
 20
13.9814962965
 10
23.1599480964
 20
14.0063583617
 10
23.1472678461
 20
14.0309125893
 10
23.1338790804
 20
14.0551682019
 10
23.1198075585
 20
14.0790698454
 10
23.1051587865
 20
14.1024478889
 10
23.0900729498
 20
14.1251178988
 10
23.0744625327
 20
14.147248778
 10
23.0580750004
 20
14.1691877045
 10
23.0407061111
 20
14.1911451397
 10
23.0225389132
 20
14.2128286952
 10
23.0039044822
 20
14.2338375825
 10
22.9850131176
 20
14.2539774071
 10
22.9657160324
 20
14.2734474488
 10
22.9458173637
 20
14.2924510696
 10
22.9252166158
 20
14.3110641688
 10
22.9040289376
 20
14.3291630903
 10
22.8823725752
 20
14.3466431614
 10
22.8602884419
 20
14.3634765785
 10
22.8377690369
 20
14.3796738443
 10
22.8148666715
 20
14.3952023412
 10
22.791645833
 20
14.4100278358
 10
22.7680764317
 20
14.424178343
 10
22.7440644821
 20
14.4377097047
 10
22.7195121711
 20
14.4506642409
 10
21.1492914646
 20
15.2358101772
  0
LINE
  5
46A
100
AcDbEntity
  8
0
100
AcDbLine
 62
7
  6
CONTINUOUS
 10
21.7894225183
 20
5.2245641419
 11
21.7894225183
 21
7.6269680027
  0
LINE
  5
46B
100
AcDbEntity
  8
0
100
AcDbLine
 62
7
  6
CONTINUOUS
 10
22.779372012
 20
5.7089581239
 11
22.779372012
 21
8.1445264851
  0
LINE
  5
46C
100
AcDbEntity
  8
RACCORDO
100
AcDbLine
 62
253
  6
CONTINUOUS
 10
22.9845166795
 20
4.6237111029
 11
22.9845775955
 21
-6.5959470854
  0
LINE
  5
46D
100
AcDbEntity
  8
RACCORDO
100
AcDbLine
 62
7
  6
CONTINUOUS
 10
23.2651768792
 20
13.5598334812
 11
23.2651768792
 21
8.5362453957
  0
LINE
  5
46E
100
AcDbEntity
  8
RACCORDO
100
AcDbLine
 62
7
  6
CONTINUOUS
 10
23.2651768792
 20
5.0339028655
 11
23.2651768792
 21
-6.2250681272
  0
LWPOLYLINE
  5
46F
100
AcDbEntity
  8
RACCORDO
100
AcDbPolyline
 62
253
  6
CONTINUOUS
 90
58
 70
0
 10
22.9845166795
 20
8.2517787878
 10
22.9845775955
 20
13.2366635268
 10
22.9840924206
 20
13.2610680733
 10
22.9830615229
 20
13.28569941
 10
22.9814856852
 20
13.3105388396
 10
22.9793661035
 20
13.3355675066
 10
22.9767043868
 20
13.360766412
 10
22.9735025556
 20
13.3861164275
 10
22.9697630405
 20
13.4115983102
 10
22.96548868
 20
13.4371927169
 10
22.9606827187
 20
13.4628802192
 10
22.9553488049
 20
13.4886413179
 10
22.9494909874
 20
13.5144564579
 10
22.943113713
 20
13.5403060433
 10
22.9362218224
 20
13.5661704518
 10
22.9288205473
 20
13.5920300499
 10
22.920915506
 20
13.6178652079
 10
22.912512699
 20
13.6436563145
 10
22.9036185049
 20
13.6693837919
 10
22.8942396752
 20
13.6950281106
 10
22.8843833293
 20
13.7205698042
 10
22.874056949
 20
13.7459894842
 10
22.8632683731
 20
13.7712678548
 10
22.852025791
 20
13.7963857273
 10
22.8403377368
 20
13.8213240351
 10
22.828213083
 20
13.8460638476
 10
22.8156610331
 20
13.870586385
 10
22.8026911154
 20
13.8948730326
 10
22.7893131753
 20
13.9189053545
 10
22.7755373677
 20
13.9426651079
 10
22.7613741498
 20
13.9661342572
 10
22.7468342728
 20
13.989294987
 10
22.7319287737
 20
14.0121297162
 10
22.7166689672
 20
14.0346211112
 10
22.701066437
 20
14.0567520989
 10
22.6851330267
 20
14.0785058799
 10
22.6688808312
 20
14.0998659411
 10
22.6523221875
 20
14.1208160683
 10
22.6354696651
 20
14.1413403584
 10
22.6183360566
 20
14.1614232315
 10
22.600934368
 20
14.181049443
 10
22.5832778087
 20
14.2002040947
 10
22.5653797817
 20
14.2188726465
 10
22.5472538732
 20
14.2370409273
 10
22.5289138424
 20
14.2546951457
 10
22.5103736112
 20
14.2718219005
 10
22.4916472533
 20
14.2884081909
 10
22.4727489836
 20
14.3044414265
 10
22.4536931476
 20
14.3199094365
 10
22.4344942106
 20
14.3348004793
 10
22.4151667462
 20
14.3491032513
 10
22.3957254258
 20
14.3628068953
 10
22.3761850072
 20
14.3759010089
 10
22.3565603231
 20
14.3883756527
 10
22.3368662707
 20
14.4002213572
 10
22.3171177995
 20
14.4114291303
 10
22.2973299004
 20
14.4219904645
 10
20.7984254353
 20
15.171443422
  0
LWPOLYLINE
  5
470
100
AcDbEntity
  8
RACCORDO
100
AcDbPolyline
 62
253
  6
CONTINUOUS
 90
30
 70
0
 10
23.2651768792
 20
13.5598334812
 10
23.2651648783
 20
13.5573839061
 10
23.2646600867
 20
13.5437608495
 10
23.2634130734
 20
13.5301497285
 10
23.2614247643
 20
13.5165606509
 10
23.2586966362
 20
13.5030037079
 10
23.2552307148
 20
13.489488967
 10
23.2510295739
 20
13.4760264643
 10
23.2460963335
 20
13.4626261972
 10
23.2404346569
 20
13.4492981168
 10
23.2340487484
 20
13.4360521205
 10
23.2269433504
 20
13.4228980449
 10
23.2191237394
 20
13.4098456584
 10
23.2105957221
 20
13.3969046536
 10
23.2013656317
 20
13.3840846406
 10
23.1914403223
 20
13.3713951398
 10
23.1808271645
 20
13.3588455742
 10
23.1695340399
 20
13.3464452634
 10
23.1575693347
 20
13.3342034159
 10
23.1449419339
 20
13.3221291225
 10
23.1316612147
 20
13.3102313496
 10
23.1177370395
 20
13.2985189327
 10
23.1031797485
 20
13.2870005694
 10
23.0880001519
 20
13.2756848133
 10
23.0722095222
 20
13.2645800675
 10
23.0558195857
 20
13.2536945786
 10
23.0388425135
 20
13.2430364301
 10
23.021290913
 20
13.2326135368
 10
23.0031778181
 20
13.2224336389
 10
22.9845166795
 20
13.2125042959
  0
LWPOLYLINE
  5
471
100
AcDbEntity
  8
RACCORDO
100
AcDbPolyline
 62
253
  6
CONTINUOUS
 90
29
 70
0
 10
23.2651489248
 20
-6.227945638
 10
23.2646603219
 20
-6.2411371017
 10
23.2634134932
 20
-6.2547483501
 10
23.2614253547
 20
-6.2683375594
 10
23.2586973827
 20
-6.2818946374
 10
23.2552316028
 20
-6.2954095166
 10
23.2510305885
 20
-6.3088721603
 10
23.2460974594
 20
-6.3222725708
 10
23.2404358787
 20
-6.3356007966
 10
23.2340500506
 20
-6.3488469397
 10
23.2269447174
 20
-6.3620011632
 10
23.2191251555
 20
-6.3750536984
 10
23.2105971716
 20
-6.3879948521
 10
23.2013670989
 20
-6.4008150138
 10
23.1914417917
 20
-6.4135046629
 10
23.1808286206
 20
-6.4260543759
 10
23.1695354672
 20
-6.4384548328
 10
23.1575707178
 20
-6.4506968249
 10
23.1449432578
 20
-6.4627712609
 10
23.1316624648
 20
-6.4746691738
 10
23.1177382015
 20
-6.486381728
 10
23.1031808081
 20
-6.4979002254
 10
23.0880010953
 20
-6.5092161122
 10
23.0722103351
 20
-6.5203209854
 10
23.0558202548
 20
-6.5312065978
 10
23.0388430285
 20
-6.5418648639
 10
23.0212912651
 20
-6.5522878682
 10
23.0031779983
 20
-6.5624678709
 10
22.9845166795
 20
-6.5723973125
  0
LWPOLYLINE
  5
472
100
AcDbEntity
  8
RACCORDO
100
AcDbPolyline
 62
7
  6
CONTINUOUS
 90
19
 70
0
 10
0.5505632116
 20
-23.8893633305
 10
0.5567888834
 20
-23.8855447207
 10
0.5627382213
 20
-23.8812329685
 10
0.5683977455
 20
-23.8764378434
 10
0.5737546062
 20
-23.8711702226
 10
0.5787966762
 20
-23.8654420351
 10
0.5835125767
 20
-23.8592662386
 10
0.5878915741
 20
-23.8526568492
 10
0.5919237343
 20
-23.845628847
 10
0.5956000114
 20
-23.8381981131
 10
0.5989120064
 20
-23.8303815169
 10
0.6018521807
 20
-23.8221967844
 10
0.6044140052
 20
-23.8136623961
 10
0.6065915865
 20
-23.804797731
 10
0.6083799348
 20
-23.7956228995
 10
0.6097751703
 20
-23.7861586047
 10
0.6107741283
 20
-23.7764262902
 10
0.6113743658
 20
-23.7664480911
 10
0.6115744218
 20
-23.7562466614
  0
LWPOLYLINE
  5
473
100
AcDbEntity
  8
RACCORDO
100
AcDbPolyline
 62
253
  6
CONTINUOUS
 90
18
 70
0
 10
1.0761591041
 20
-23.6197965665
 10
1.0817502117
 20
-23.6166829355
 10
1.0884678485
 20
-23.6122373585
 10
1.0948388933
 20
-23.6072025626
 10
1.1008458419
 20
-23.6015923597
 10
1.1064721957
 20
-23.5954221479
 10
1.1117025188
 20
-23.5887088507
 10
1.116522474
 20
-23.5814708657
 10
1.1209188406
 20
-23.5737280395
 10
1.1248795623
 20
-23.5655015989
 10
1.1283937755
 20
-23.5568141001
 10
1.131451839
 20
-23.5476893712
 10
1.1340453679
 20
-23.5381524253
 10
1.1361672474
 20
-23.5282294182
 10
1.1378116541
 20
-23.5179475885
 10
1.1389740809
 20
-23.5073351419
 10
1.1396513454
 20
-23.4964211706
 10
1.1398415935
 20
-23.4852356027
  0
LWPOLYLINE
  5
474
100
AcDbEntity
  8
RACCORDO
100
AcDbPolyline
 62
253
  6
CONTINUOUS
 90
18
 70
0
 10
-1.0559679043
 20
-24.6721318593
 10
-1.0485999949
 20
-24.6681250196
 10
-1.0418884965
 20
-24.6636774192
 10
-1.035515866
 20
-24.6586367943
 10
-1.0294995418
 20
-24.6530169591
 10
-1.0238559661
 20
-24.6468332767
 10
-1.0186005509
 20
-24.6401026073
 10
-1.0137477848
 20
-24.6328434781
 10
-1.0093111042
 20
-24.6250760301
 10
-1.0053027123
 20
-24.6168217649
 10
-1.0017334733
 20
-24.6081032063
 10
-0.9986130548
 20
-24.5989440312
 10
-0.9959494811
 20
-24.5893672143
 10
-0.9937507889
 20
-24.5794009731
 10
-0.9920239438
 20
-24.5690792245
 10
-0.9907729995
 20
-24.5584331564
 10
-0.990000071
 20
-24.5474903587
 10
-0.989706369
 20
-24.536281261
  0
LWPOLYLINE
  5
475
100
AcDbEntity
  8
RACCORDO
100
AcDbPolyline
 62
7
  6
CONTINUOUS
 90
22
 70
0
 10
1.0761591041
 20
-23.6197965665
 10
1.0859659649
 20
-23.6144855604
 10
1.0969775759
 20
-23.6078189097
 10
1.1076412306
 20
-23.6005872841
 10
1.1179279198
 20
-23.5928080656
 10
1.1278165976
 20
-23.5844937738
 10
1.1372797817
 20
-23.575662792
 10
1.1462880352
 20
-23.5663376996
 10
1.1548173849
 20
-23.5565379309
 10
1.1628422024
 20
-23.546286625
 10
1.1703367085
 20
-23.5356100404
 10
1.1772777982
 20
-23.524533933
 10
1.1836428085
 20
-23.5130865712
 10
1.1894105423
 20
-23.5012975011
 10
1.1945618362
 20
-23.48919619
 10
1.1990789718
 20
-23.4768127367
 10
1.2029444075
 20
-23.4641821423
 10
1.2061421926
 20
-23.4513430715
 10
1.2086597767
 20
-23.4383314304
 10
1.2104867246
 20
-23.4251829631
 10
1.211614248
 20
-23.4119376214
 10
1.2120394505
 20
-23.3973626344
  0
LINE
  5
476
100
AcDbEntity
  8
RACCORDO
100
AcDbLine
 62
7
  6
CONTINUOUS
 10
0.5474693227
 20
-23.8910244322
 11
0.5505632116
 21
-23.8893633305
  0
LINE
  5
477
100
AcDbEntity
  8
RACCORDO
100
AcDbLine
 62
253
  6
CONTINUOUS
 10
1.1398415935
 20
-23.4852356027
 11
0.6115744218
 21
-23.7562466614
  0
LINE
  5
478
100
AcDbEntity
  8
RACCORDO
100
AcDbLine
 62
7
  6
CONTINUOUS
 10
1.076153556
 20
-23.619799413
 11
0.5474712925
 21
-23.8910234216
  0
LINE
  5
479
100
AcDbEntity
  8
RACCORDO
100
AcDbLine
 62
7
  6
CONTINUOUS
 10
0.5457329053
 20
-23.8918926552
 11
0.5474693227
 21
-23.8910244322
  0
LINE
  5
47A
100
AcDbEntity
  8
RACCORDO
100
AcDbLine
 62
253
  6
CONTINUOUS
 10
0.6115744218
 20
-23.7562466614
 11
-0.989706369
 21
-24.536281261
  0
LINE
  5
47B
100
AcDbEntity
  8
RACCORDO
100
AcDbLine
 62
7
  6
CONTINUOUS
 10
0.5457301414
 20
-23.8918940016
 11
-1.0559679616
 21
-24.6721318872
  0
LWPOLYLINE
  5
47C
100
AcDbEntity
  8
RACCORDO
100
AcDbPolyline
 62
7
  6
CONTINUOUS
 90
3
 70
0
 10
0.8329923343
 20
-22.1797289098
 10
0.829354809
 20
-22.1814697766
 10
0.823636624
 20
-22.1839952725
  0
LINE
  5
47D
100
AcDbEntity
  8
RACCORDO
100
AcDbLine
 62
253
  6
CONTINUOUS
 10
0.0752575574
 20
-22.3032582835
 11
0.501314347
 21
-22.1242823302
  0
LINE
  5
47E
100
AcDbEntity
  8
RACCORDO
100
AcDbLine
 62
253
  6
CONTINUOUS
 10
0.501314347
 20
-22.1242823302
 11
0.9541501425
 21
-21.9342423875
  0
LWPOLYLINE
  5
47F
100
AcDbEntity
  8
RACCORDO
100
AcDbPolyline
 62
7
  6
CONTINUOUS
 90
10
 70
0
 10
-4.6974037601
 20
-24.4798381897
 10
-4.1707871551
 20
-24.2597177332
 10
-3.6124756549
 20
-24.028082012
 10
-3.0339052505
 20
-23.7892086834
 10
-2.4355159776
 20
-23.5426535566
 10
-1.817763109
 20
-23.2878892013
 10
-1.1812229355
 20
-23.0241675679
 10
-0.5267976077
 20
-22.750884628
 10
0.1452870933
 20
-22.4687225744
 10
0.8236365389
 20
-22.1839953146
  0
LWPOLYLINE
  5
480
100
AcDbEntity
  8
RACCORDO
100
AcDbPolyline
 62
253
  6
CONTINUOUS
 90
8
 70
0
 10
-4.303569261
 20
-24.0984537625
 10
-4.0653229617
 20
-23.9995633015
 10
-3.8285922041
 20
-23.9018655081
 10
-3.595467458
 20
-23.8063129466
 10
-3.3638582535
 20
-23.7119530525
 10
-3.1274931809
 20
-23.6159281332
 10
-2.8832105703
 20
-23.5169507331
 10
-2.1293066082
 20
-23.2121718146
  0
LWPOLYLINE
  5
481
100
AcDbEntity
  8
RACCORDO
100
AcDbPolyline
 62
253
  6
CONTINUOUS
 90
11
 70
0
 10
-2.1293066082
 20
-23.2121718146
 10
-1.8734796034
 20
-23.1086777468
 10
-1.6258090976
 20
-23.0081397573
 10
-1.3895479905
 20
-22.911794848
 10
-1.1614433823
 20
-22.8184060172
 10
-0.9414353408
 20
-22.7278786893
 10
-0.732299996
 20
-22.641262403
 10
-0.5312612179
 20
-22.5575076197
 10
-0.3299306845
 20
-22.4733711486
 10
-0.1274824412
 20
-22.3885055599
 10
0.0752575574
 20
-22.3032582835
  0
LWPOLYLINE
  5
482
100
AcDbEntity
  8
RACCORDO
100
AcDbPolyline
 62
253
  6
CONTINUOUS
 90
25
 70
0
 10
10.4392381674
 20
20.5907040715
 10
10.4246420621
 20
20.5972190551
 10
10.409078989
 20
20.6033529868
 10
10.3932121017
 20
20.6088104711
 10
10.3770531829
 20
20.6135874551
 10
10.3606142324
 20
20.6176803916
 10
10.3439074578
 20
20.6210862411
 10
10.3269452657
 20
20.6238024742
 10
10.3097402523
 20
20.6258270741
 10
10.2923051942
 20
20.6271585371
 10
10.2746530386
 20
20.6277958745
 10
10.2567968942
 20
20.6277386131
 10
10.2387500211
 20
20.6269867954
 10
10.2205258209
 20
20.6255409796
 10
10.2021378271
 20
20.6234022395
 10
10.1835996947
 20
20.6205721632
 10
10.1649251901
 20
20.6170528524
 10
10.1461281813
 20
20.6128469206
 10
10.1272226269
 20
20.6079574911
 10
10.1082225663
 20
20.6023881949
 10
10.0891421091
 20
20.5961431677
 10
10.0699954246
 20
20.5892270471
 10
10.050796731
 20
20.581644969
 10
10.0315602856
 20
20.573402564
 10
10.0123003734
 20
20.5645059529
  0
LWPOLYLINE
  5
483
100
AcDbEntity
  8
RACCORDO
100
AcDbPolyline
 62
7
  6
CONTINUOUS
 90
18
 70
0
 10
-1.5221420201
 20
24.9581558753
 10
-1.5417041044
 20
24.9672456083
 10
-1.5645998846
 20
24.976231023
 10
-1.5881091708
 20
24.9837332558
 10
-1.6122504929
 20
24.9897674256
 10
-1.6369402463
 20
24.99431321
 10
-1.6622016725
 20
24.9973671934
 10
-1.68801153
 20
24.9989327914
 10
-1.7142164889
 20
24.998999928
 10
-1.7408004515
 20
24.997561152
 10
-1.7677795155
 20
24.9946239147
 10
-1.7950486441
 20
24.9902004934
 10
-1.8226228238
 20
24.9842821078
 10
-1.8504870681
 20
24.9768775382
 10
-1.8784913811
 20
24.9680254036
 10
-1.9065857643
 20
24.9577385769
 10
-1.9348202163
 20
24.9460041852
 10
-1.9631947371
 20
24.9328222284
  0
LWPOLYLINE
  5
484
100
AcDbEntity
  8
RACCORDO
100
AcDbPolyline
 62
7
  6
CONTINUOUS
 90
34
 70
0
 10
10.447173254
 20
20.5868692825
 10
10.4229119077
 20
20.5985940624
 10
10.3983093514
 20
20.609675716
 10
10.3733865135
 20
20.6201017187
 10
10.3481543153
 20
20.6298643448
 10
10.3226453165
 20
20.6389482807
 10
10.2969141763
 20
20.6473337159
 10
10.2711588128
 20
20.6549653477
 10
10.2452299166
 20
20.6618968353
 10
10.2186544804
 20
20.6682353969
 10
10.1910676919
 20
20.6740111004
 10
10.1628728308
 20
20.6790825013
 10
10.1347490148
 20
20.6833163668
 10
10.1070300243
 20
20.686693537
 10
10.0794357433
 20
20.6892788645
 10
10.051726027
 20
20.6911013142
 10
10.0238877009
 20
20.6921557749
 10
9.9959848709
 20
20.692434192
 10
9.9678944844
 20
20.6919278716
 10
9.9394163509
 20
20.6906076627
 10
9.9108097243
 20
20.6884603088
 10
9.8826308209
 20
20.685535211
 10
9.8553376532
 20
20.6819290673
 10
9.8284936959
 20
20.6776321355
 10
9.8013190622
 20
20.6725144937
 10
9.7733199256
 20
20.6664207516
 10
9.7450740362
 20
20.6594133005
 10
9.7174012486
 20
20.6516921867
 10
9.6907329381
 20
20.643430438
 10
9.6646342443
 20
20.6345444565
 10
9.638611587
 20
20.6248730923
 10
9.6123972808
 20
20.6142855723
 10
9.5863161159
 20
20.6028810074
 10
7.1660904884
 20
19.4851617681
  0
LWPOLYLINE
  5
485
100
AcDbEntity
  8
RACCORDO
100
AcDbPolyline
 62
253
  6
CONTINUOUS
 90
26
 70
0
 10
22.7123839343
 20
14.4542639423
 10
22.7051106208
 20
14.4578028995
 10
22.6898628517
 20
14.4646089458
 10
22.6742997007
 20
14.4707430889
 10
22.6584327257
 20
14.4762007731
 10
22.6422737096
 20
14.4809779452
 10
22.6258346524
 20
14.4850710574
 10
22.6091277623
 20
14.4884770699
 10
22.5921654462
 20
14.4911934532
 10
22.5749603005
 20
14.4932181898
 10
22.5575251024
 20
14.4945497759
 10
22.5398727997
 20
14.4951872227
 10
22.5220165013
 20
14.4951300565
 10
22.5039694676
 20
14.4943783199
 10
22.4857451009
 20
14.4929325708
 10
22.4673569349
 20
14.490793883
 10
22.4488186254
 20
14.4879638446
 10
22.4301439396
 20
14.4844445572
 10
22.4113467455
 20
14.4802386344
 10
22.3924410023
 20
14.4753491994
 10
22.373440749
 20
14.469779883
 10
22.3543600964
 20
14.4635348212
 10
22.3352132172
 20
14.4566186529
 10
22.3160143312
 20
14.4490365149
 10
22.296777695
 20
14.4407940377
 10
22.2775175941
 20
14.4318973426
  0
LINE
  5
486
100
AcDbEntity
  8
DRAFT
100
AcDbLine
 62
7
  6
CONTINUOUS
 10
12.5883952046
 20
18.7391597371
 11
14.5877437258
 21
17.7394854765
  0
LINE
  5
487
100
AcDbEntity
  8
DRAFT
100
AcDbLine
 62
7
  6
CONTINUOUS
 10
20.2445979753
 20
14.9110583517
 11
18.245249454
 21
15.9107326124
  0
LINE
  5
488
100
AcDbEntity
  8
RACCORDO
100
AcDbLine
 62
253
  6
CONTINUOUS
 10
15.1415711858
 20
17.9998705467
 11
17.1482467818
 21
16.9965327488
  0
LWPOLYLINE
  5
489
100
AcDbEntity
  8
RACCORDO
100
AcDbPolyline
 62
253
  6
CONTINUOUS
 90
25
 70
0
 10
11.4913925323
 20
19.8249598735
 10
9.9931584411
 20
20.5740761941
 10
9.9740216716
 20
20.5829771943
 10
9.9549045913
 20
20.5912021969
 10
9.935821712
 20
20.5987449583
 10
9.9167875193
 20
20.6055997529
 10
9.8978164618
 20
20.6117613773
 10
9.8789229403
 20
20.6172251542
 10
9.8601212968
 20
20.6219869362
 10
9.8414258034
 20
20.6260431086
 10
9.8228506517
 20
20.6293905924
 10
9.804409942
 20
20.6320268466
 10
9.7861176723
 20
20.6339498699
 10
9.7679877283
 20
20.6351582027
 10
9.7500338723
 20
20.6356509278
 10
9.7322697327
 20
20.635427671
 10
9.7147087943
 20
20.6344886018
 10
9.6973643875
 20
20.6328344332
 10
9.6802496781
 20
20.6304664208
 10
9.6633776578
 20
20.627386362
 10
9.6467611341
 20
20.623596595
 10
9.6304127204
 20
20.6190999966
 10
9.6143448266
 20
20.61389998
 10
9.5985696497
 20
20.6080004925
 10
9.5830991646
 20
20.6014060125
  0
LINE
  5
48A
100
AcDbEntity
  8
RACCORDO
100
AcDbLine
 62
7
  6
CONTINUOUS
 10
10.447173254
 20
20.5868692825
 11
12.0102722641
 21
19.8053197775
  0
LINE
  5
48B
100
AcDbEntity
  8
RACCORDO
100
AcDbLine
 62
7
  6
CONTINUOUS
 10
15.4924372151
 20
18.064237302
 11
17.6671265136
 21
16.9768926527
  0
LINE
  5
48C
100
AcDbEntity
  8
RACCORDO
100
AcDbLine
 62
7
  6
CONTINUOUS
 10
18.2381236457
 20
16.2804668791
 11
18.245249454
 21
16.2617874553
  0
LINE
  5
48D
100
AcDbEntity
  8
0
100
AcDbLine
 62
7
  6
CONTINUOUS
 10
-1.2622585484
 20
24.1464976019
 11
-2.6221904885
 21
24.0727494145
  0
LWPOLYLINE
  5
48E
100
AcDbEntity
  8
ASSI
100
AcDbPolyline
 62
7
  6
CONTINUOUS
 90
16
 70
0
 10
-4.6432280378
 20
25.7970417532
 10
-4.6310724475
 20
25.8004060264
 10
-4.6183397037
 20
25.8030087797
 10
-4.6050360479
 20
25.8048334342
 10
-4.591161453
 20
25.8058773019
 10
-4.5767335183
 20
25.8061089969
 10
-4.5617898304
 20
25.8054701583
 10
-4.5463489002
 20
25.8039383942
 10
-4.5304258459
 20
25.801505232
 10
-4.5140591795
 20
25.7981359921
 10
-4.4973085266
 20
25.7938262928
 10
-4.4801620675
 20
25.788554664
 10
-4.4625505932
 20
25.7822564632
 10
-4.4444900372
 20
25.7749142281
 10
-4.4260152441
 20
25.7665073127
 10
-4.418448866
 20
25.7628033995
  0
ELLIPSE
  5
48F
100
AcDbEntity
  8
RACCORDO
100
AcDbEllipse
 62
7
  6
CONTINUOUS
 10
1.3539880716
 20
-21.4209120836
 30
0.0
 11
-0.2012801021
 21
0.4024798509
 31
0.0
 40
0.6124778111
 41
-3.1449381207
 42
-2.255529033
  0
ELLIPSE
  5
490
100
AcDbEntity
  8
RACCORDO
100
AcDbEllipse
 62
7
  6
CONTINUOUS
 10
1.3539880716
 20
16.5824580849
 30
0.0
 11
-0.2013341403
 21
0.4025279144
 31
0.0
 40
0.6122950388
 41
-2.2557482655
 42
-0.6847996396
  0
ELLIPSE
  5
491
100
AcDbEntity
  8
RACCORDO
100
AcDbEllipse
 62
7
  6
CONTINUOUS
 10
5.8682774523
 20
20.2204294073
 30
0.0
 11
0.499996712
 21
0.0035883639
 31
0.0
 40
0.5053247124
 41
-0.7715714568
 42
-0.0036478305
  0
ELLIPSE
  5
492
100
AcDbEntity
  8
ASSI
100
AcDbEllipse
 62
7
  6
CONTINUOUS
 10
-4.6962280743
 20
25.3426718183
 30
0.0
 11
0.2257019663
 21
0.4461636818
 31
0.0
 40
0.6159267166
 41
0.5380090616
 42
0.6817883054
  0
ELLIPSE
  5
493
100
AcDbEntity
  8
RACCORDO
100
AcDbEllipse
 62
7
  6
CONTINUOUS
 10
-10.8972957287
 20
-6.6534974856
 30
0.0
 11
0.2205149116
 21
0.4487546221
 31
0.0
 40
0.607010042
 41
0.6892518406
 42
0.6963772915
  0
ELLIPSE
  5
494
100
AcDbEntity
  8
RACCORDO
100
AcDbEllipse
 62
7
  6
CONTINUOUS
 10
-5.7434111302
 20
25.9507674043
 30
0.0
 11
0.9987332359
 21
0.6172510855
 31
0.0
 40
0.0815198604
 41
0.0509898783
 42
0.7263320369
  0
ELLIPSE
  5
495
100
AcDbEntity
  8
RACCORDO
100
AcDbEllipse
 62
7
  6
CONTINUOUS
 10
6.0473211582
 20
-16.8592662841
 30
0.0
 11
0.9987332359
 21
0.6172510855
 31
0.0
 40
0.0815198604
 41
-2.3978073241
 42
-1.2985018509
  0
ELLIPSE
  5
496
100
AcDbEntity
  8
RACCORDO
100
AcDbEllipse
 62
7
  6
CONTINUOUS
 10
-10.0283197383
 20
22.8201521497
 30
0.0
 11
0.4999985559
 21
0.0023864752
 31
0.0
 40
0.5035541159
 41
2.3596088132
 42
3.0002042076
  0
ELLIPSE
  5
497
100
AcDbEntity
  8
RACCORDO
100
AcDbEllipse
 62
7
  6
CONTINUOUS
 10
6.0473211582
 20
20.0554012601
 30
0.0
 11
-0.7417913999
 21
1.2002436976
 31
0.0
 40
0.5587454355
 41
5.1248137075
 42
6.2241191807
  0
ELLIPSE
  5
498
100
AcDbEntity
  8
RACCORDO
100
AcDbEllipse
 62
7
  6
CONTINUOUS
 10
5.8682774523
 20
-17.068486603
 30
0.0
 11
0.499366618
 21
0.3086255427
 31
0.0
 40
0.0815198604
 41
6.1080157147
 42
7.0007906979
  0
ELLIPSE
  5
499
100
AcDbEntity
  8
DRAFT
100
AcDbEllipse
 62
7
  6
CONTINUOUS
 10
1.2126151858
 20
21.6403284267
 30
0.0
 11
0.4279673669
 21
-0.0030279657
 31
0.0
 40
0.4946372042
 41
-0.7760807437
 42
0.0034304302
  0
ELLIPSE
  5
49A
100
AcDbEntity
  8
DRAFT
100
AcDbEllipse
 62
7
  6
CONTINUOUS
 10
-4.3423732434
 20
24.4178226413
 30
0.0
 11
0.4279673669
 21
-0.0030279657
 31
0.0
 40
0.4946372042
 41
-0.7818985079
 42
0.0034334386
  0
ELLIPSE
  5
49B
100
AcDbEntity
  8
ASSI
100
AcDbEllipse
 62
7
  6
CONTINUOUS
 10
1.4646041964
 20
22.262255683
 30
0.0
 11
0.221538876
 21
0.4482453432
 31
0.0
 40
0.6088015717
 41
0.5323082896
 42
0.6760875334
  0
ELLIPSE
  5
49C
100
AcDbEntity
  8
RACCORDO
100
AcDbEllipse
 62
7
  6
CONTINUOUS
 10
-17.6282066834
 20
-3.2880420082
 30
0.0
 11
0.2267599918
 21
0.4456316896
 31
0.0
 40
0.6176975122
 41
0.6978040307
 42
0.7049297733
  0
ELLIPSE
  5
49D
100
AcDbEntity
  8
RACCORDO
100
AcDbEllipse
 62
7
  6
CONTINUOUS
 10
-15.6483076961
 20
-4.2779915019
 30
0.0
 11
0.2267599918
 21
0.4456316896
 31
0.0
 40
0.6176975122
 41
0.6978040307
 42
0.7049300188
  0
ELLIPSE
  5
49E
100
AcDbEntity
  8
RACCORDO
100
AcDbEllipse
 62
7
  6
CONTINUOUS
 10
-15.6377765865
 20
-5.658346117
 30
0.0
 11
0.2267599918
 21
0.4456316896
 31
0.0
 40
0.6176975122
 41
0.6978040307
 42
0.7081323303
  0
ELLIPSE
  5
49F
100
AcDbEntity
  8
RACCORDO
100
AcDbEllipse
 62
7
  6
CONTINUOUS
 10
-14.8953144662
 20
-6.0295771771
 30
0.0
 11
0.2267599918
 21
0.4456316896
 31
0.0
 40
0.6176975122
 41
0.6978040307
 42
0.708132539
  0
ELLIPSE
  5
4A0
100
AcDbEntity
  8
RACCORDO
100
AcDbEllipse
 62
7
  6
CONTINUOUS
 10
5.8682774523
 20
21.1507720661
 30
0.0
 11
-0.3708957
 21
0.6001218488
 31
0.0
 40
0.5587454355
 41
-3.1744788413
 42
-2.2817038581
  0
ELLIPSE
  5
4A1
100
AcDbEntity
  8
RACCORDO
100
AcDbEllipse
 62
7
  6
CONTINUOUS
 10
-4.5170126386
 20
18.8318889946
 30
0.0
 11
0.4998587701
 21
0.0223649649
 31
0.0
 40
0.5313301283
 41
-2.3799630874
 42
-0.8149845248
  0
ELLIPSE
  5
4A2
100
AcDbEntity
  8
RACCORDO
100
AcDbEllipse
 62
7
  6
CONTINUOUS
 10
-4.5170126386
 20
20.0644985998
 30
0.0
 11
0.4999985559
 21
0.0023864752
 31
0.0
 40
0.5035541159
 41
-1.4342147631
 42
-0.7936193687
  0
ELLIPSE
  5
4A3
100
AcDbEntity
  8
RACCORDO
100
AcDbEllipse
 62
7
  6
CONTINUOUS
 10
-10.0283197383
 20
21.5875425445
 30
0.0
 11
0.4998587701
 21
0.0223649649
 31
0.0
 40
0.5313301283
 41
3.1178197826
 42
3.9032222197
  0
ELLIPSE
  5
4A4
100
AcDbEntity
  8
RACCORDO
100
AcDbEllipse
 62
7
  6
CONTINUOUS
 10
-15.1517615234
 20
23.5848934999
 30
0.0
 11
0.249929385
 21
0.0111824824
 31
0.0
 40
0.5313301283
 41
3.1178369227
 42
3.9032222197
  0
ELLIPSE
  5
4A5
100
AcDbEntity
  8
RACCORDO
100
AcDbEllipse
 62
7
  6
CONTINUOUS
 10
-13.8185491897
 20
22.9182873331
 30
0.0
 11
0.249929385
 21
0.0111824824
 31
0.0
 40
0.5313301283
 41
-2.3799630874
 42
-0.8149845248
  0
ELLIPSE
  5
4A6
100
AcDbEntity
  8
RACCORDO
100
AcDbEllipse
 62
7
  6
CONTINUOUS
 10
-1.7874433589
 20
16.9027344177
 30
0.0
 11
0.249929385
 21
0.0111824824
 31
0.0
 40
0.5313301283
 41
3.1178369227
 42
3.9032222197
  0
ELLIPSE
  5
4A7
100
AcDbEntity
  8
RACCORDO
100
AcDbEllipse
 62
7
  6
CONTINUOUS
 10
-0.4542310253
 20
16.2361282509
 30
0.0
 11
0.249929385
 21
0.0111824824
 31
0.0
 40
0.5313301283
 41
-2.3799630874
 42
-0.8149845248
  0
ELLIPSE
  5
4A8
100
AcDbEntity
  8
RACCORDO
100
AcDbEllipse
 62
7
  6
CONTINUOUS
 10
22.2651768792
 20
8.3669517733
 30
0.0
 11
0.9980132943
 21
0.1905986291
 31
0.0
 40
0.3305568633
 41
-0.8309903123
 42
-0.0630795998
  0
ELLIPSE
  5
4A9
100
AcDbEntity
  8
RACCORDO
100
AcDbEllipse
 62
7
  6
CONTINUOUS
 10
14.7208230327
 20
17.3320104044
 30
0.0
 11
0.8015998653
 21
0.7095690041
 31
0.0
 40
0.2925003
 41
0.1172816892
 42
0.7844297192
  0
ELLIPSE
  5
4AA
100
AcDbEntity
  8
RACCORDO
100
AcDbEllipse
 62
7
  6
CONTINUOUS
 10
20.3776772822
 20
14.5035832797
 30
0.0
 11
0.8015998653
 21
0.7095690041
 31
0.0
 40
0.2925003
 41
0.1172816892
 42
0.7844297192
  0
ELLIPSE
  5
4AB
100
AcDbEntity
  8
RACCORDO
100
AcDbEllipse
 62
7
  6
CONTINUOUS
 10
7.2054474709
 20
16.9674181456
 30
0.0
 11
-0.894612936
 21
1.7887945813
 31
0.0
 40
0.6124635976
 41
-2.2555607096
 42
-1.470288718
  0
ELLIPSE
  5
4AC
100
AcDbEntity
  8
RACCORDO
100
AcDbEllipse
 62
7
  6
CONTINUOUS
 10
7.2054474709
 20
-13.5151959199
 30
0.0
 11
-0.894811907
 21
1.788971565
 31
0.0
 40
0.6123121697
 41
-3.0410143285
 42
-2.2557423369
  0
ELLIPSE
  5
4AD
100
AcDbEntity
  8
0
100
AcDbEllipse
 62
7
  6
CONTINUOUS
 10
9.4062051969
 20
-0.5926316298
 30
0.0
 11
0.8766937781
 21
1.8149893181
 31
0.0
 40
0.6016130338
 41
0.6805509319
 42
1.272789154
  0
ELLIPSE
  5
4AE
100
AcDbEntity
  8
RACCORDO
100
AcDbEllipse
 62
7
  6
CONTINUOUS
 10
22.2651768792
 20
5.2031964879
 30
0.0
 11
0.9839279921
 21
-0.2843414674
 31
0.0
 40
0.627997363
 41
-0.5884163501
 42
0.9649266842
  0
ELLIPSE
  5
4AF
100
AcDbEntity
  8
RACCORDO
100
AcDbEllipse
 62
7
  6
CONTINUOUS
 10
11.8874592555
 20
18.748692293
 30
0.0
 11
-0.3059798455
 21
1.1103385921
 31
0.0
 40
0.6705926962
 41
4.8543332371
 42
6.4076762714
  0
ELLIPSE
  5
4B0
100
AcDbEntity
  8
RACCORDO
100
AcDbEllipse
 62
7
  6
CONTINUOUS
 10
17.544313505
 20
15.9202651683
 30
0.0
 11
-0.3059798455
 21
1.1103385921
 31
0.0
 40
0.6705926962
 41
4.8543332371
 42
6.4076762714
  0
ELLIPSE
  5
4B1
100
AcDbEntity
  8
0
100
AcDbEllipse
 62
7
  6
CONTINUOUS
 10
9.4062051969
 20
-0.5926316298
 30
0.0
 11
0.8766937781
 21
1.8149893181
 31
0.0
 40
0.6016130338
 41
-3.0613792266
 42
-2.4691410043
  0
ENDSEC
  0
SECTION
  2
OBJECTS
  0
DICTIONARY
  5
C
100
AcDbDictionary
280
0
281
1
  3
ACAD_GROUP
350
D
  3
ACAD_MLINESTYLE
350
17
  3
ACAD_LAYOUT
350
1A
  3
ACAD_PLOTSETTINGS
350
19
  3
ACAD_PLOTSTYLENAME
350
E
  0
DICTIONARY
  5
D
102
{ACAD_REACTORS
330
C
102
}
100
AcDbDictionary
280
0
281
1
  0
ACDBDICTIONARYWDFLT
  5
E
102
{ACAD_REACTORS
330
C
102
}
100
AcDbDictionary
281
1
  3
Normal
350
F
100
AcDbDictionaryWithDefault
340
F
  0
DICTIONARY
  5
17
102
{ACAD_REACTORS
330
C
102
}
100
AcDbDictionary
280
0
281
1
  3
Standard
350
18
  0
DICTIONARY
  5
19
102
{ACAD_REACTORS
330
C
102
}
100
AcDbDictionary
281
1
  0
DICTIONARY
  5
1A
102
{ACAD_REACTORS
330
C
102
}
100
AcDbDictionary
281
1
  3
Model
350
4B2
  3
Layout1
350
4B3
  0
ACDBPLACEHOLDER
  5
F
102
{ACAD_REACTORS
330
E
102
}
  0
MLINESTYLE
  5
18
102
{ACAD_REACTORS
330
17
102
}
100
AcDbMlineStyle
  2
STANDARD
 70
0
  3

 62
256
 51
90.0
 52
90.0
 71
2
 49
0.5
 62
256
  6
BYLAYER
 49
-0.5
 62
256
  6
BYLAYER
  0
LAYOUT
  5
4B2
102
{ACAD_REACTORS
330
1A
102
}
100
AcDbPlotSettings
  1

  2
none_device
  4
ISO_A4_(297.00_x_210.00_MM)
  6

 40
0.0
 41
0.0
 42
0.0
 43
0.0
 44
297.0
 45
210.0
 46
0.0
 47
0.0
 48
0.0
 49
0.0
140
0.0
141
0.0
142
1.0
143
1.0
 70
1024
 72
1
 73
0
 74
0
  7

 75
0
147
1.0
148
0.0
149
0.0
100
AcDbLayout
  1
Model
 70
0
 71
0
 10
0.0
 20
0.0
 11
297.0
 21
210.0
 12
0.0
 22
0.0
 32
0.0
 14
0.0
 24
0.0
 34
0.0
 15
0.0
 25
0.0
 35
0.0
146
0.0
 13
0.0
 23
0.0
 33
0.0
 16
1.0
 26
0.0
 36
0.0
 17
0.0
 27
1.0
 37
0.0
 76
0
330
211
345
0
346
0
  0
LAYOUT
  5
4B3
102
{ACAD_REACTORS
330
1A
102
}
100
AcDbPlotSettings
  1

  2
none_device
  4
ISO_A4_(297.00_x_210.00_MM)
  6

 40
0.0
 41
0.0
 42
0.0
 43
0.0
 44
297.0
 45
210.0
 46
0.0
 47
0.0
 48
0.0
 49
0.0
140
0.0
141
0.0
142
1.0
143
1.0
 70
0
 72
1
 73
0
 74
0
  7

 75
0
147
1.0
148
0.0
149
0.0
100
AcDbLayout
  1
Layout1
 70
0
 71
1
 10
0.0
 20
0.0
 11
297.0
 21
210.0
 12
0.0
 22
0.0
 32
0.0
 14
0.0
 24
0.0
 34
0.0
 15
0.0
 25
0.0
 35
0.0
146
0.0
 13
0.0
 23
0.0
 33
0.0
 16
1.0
 26
0.0
 36
0.0
 17
0.0
 27
1.0
 37
0.0
 76
0
330
212
345
0
346
0
  0
ENDSEC
  0
EOF
