  0
SECTION
  2
HEADER
  9
$ACADVER
  1
AC1015
  9
$DWGCODEPAGE
  3
ANSI_1252
  9
$EXTMAX
 10
297.0
 20
210.0
 30
0.0
  9
$EXTMIN
 10
0.0
 20
0.0
 30
0.0
  9
$LIMMIN
 10
0.0
 20
0.0
  9
$LIMMAX
 10
297.0
 20
210.0
  9
$VIEWCTR
 10
148.5
 20
105.0
  9
$VIEWSIZE
 40
210.0
  9
$CLAYER
  8
0
  9
$LTSCALE
 40
16.335
  9
$CELTYPE
  6
BYLAYER
  9
$DIMSCALE
 40
1.0
  9
$DIMASZ
 40
3.0
  9
$DIMEXO
 40
1.85625
  9
$DIMDLI
 40
11.286
  9
$DIMEXE
 40
5.346
  9
$DIMCEN
 40
2.673
  9
$DIMLFAC
 40
1.0
  9
$DIMBLK
  1
_FILLED
  9
$DIMTXT
 40
3.0
  9
$DIMTOL
 70
1
  9
$DIMLIM
 70
0
  9
$DIMTFAC
 40
1.0
  9
$DIMTP
 40
0.01
  9
$DIMTM
 40
0.01
  9
$PDMODE
 70
3
  9
$PDSIZE
 40
3.0
  9
$HANDSEED
  5
456
  9
$TILEMODE
 70
1
  9
$MEASUREMENT
 70
1
  9
$INSUNITS
 70
4
  0
ENDSEC
  0
SECTION
  2
CLASSES
  0
CLASS
  1
ACDBDICTIONARYWDFLT
  2
AcDbDictionaryWithDefault
  3
AutoCAD 2000
 90
0
280
0
281
0
  0
CLASS
  1
ACDBPLACEHOLDER
  2
AcDbPlaceHolder
  3
AutoCAD 2000
 90
0
280
0
281
0
  0
CLASS
  1
LAYOUT
  2
AcDbLayout
  3
AutoCAD 2000
 90
0
280
0
281
0
  0
ENDSEC
  0
SECTION
  2
TABLES
  0
TABLE
  2
VPORT
  5
8
100
AcDbSymbolTable
 70
2
  0
VPORT
  5
1F4
100
AcDbSymbolTableRecord
100
AcDbViewportTableRecord
  2
*ACTIVE
 70
0
 10
0.0
 20
0.0
 11
1.0
 21
1.0
 12
148.5
 22
105.0
 13
0.0
 23
0.0
 14
1.0
 24
1.0
 15
0.0
 25
0.0
 16
0.0
 26
0.0
 36
1.0
 17
0.0
 27
0.0
 37
0.0
 40
210.0
 41
1.4142857143
 42
50.0
 43
0.0
 44
0.0
 50
0.0
 51
0.0
 71
0
 72
100
 73
1
 74
1
 75
0
 76
0
 77
0
 78
0
  0
ENDTAB
  0
TABLE
  2
LTYPE
  5
5
100
AcDbSymbolTable
 70
6
  0
LTYPE
  5
14
100
AcDbSymbolTableRecord
100
AcDbLinetypeTableRecord
  2
BYBLOCK
 70
0
  3

 72
65
 73
0
 40
0.0
  0
LTYPE
  5
15
100
AcDbSymbolTableRecord
100
AcDbLinetypeTableRecord
  2
BYLAYER
 70
0
  3

 72
65
 73
0
 40
0.0
  0
LTYPE
  5
16
100
AcDbSymbolTableRecord
100
AcDbLinetypeTableRecord
  2
CONTINUOUS
 70
64
  3
Solid line
 72
65
 73
0
 40
0.0
  0
LTYPE
  5
1F5
100
AcDbSymbolTableRecord
100
AcDbLinetypeTableRecord
  2
CENTER
 70
64
  3
____ _ ____ _ ____ _ ____ _ ____ _ ____ _ ____
 72
65
 73
4
 40
0.6
 49
0.375
 74
0
 49
-0.075
 74
0
 49
0.075
 74
0
 49
-0.075
 74
0
  0
LTYPE
  5
1F6
100
AcDbSymbolTableRecord
100
AcDbLinetypeTableRecord
  2
HIDDEN
 70
64
  3
- - - - - - - - - - - - - - - - - - - -
 72
65
 73
2
 40
0.2
 49
0.1
 74
0
 49
-0.1
 74
0
  0
LTYPE
  5
1F7
100
AcDbSymbolTableRecord
100
AcDbLinetypeTableRecord
  2
PHANTOM
 70
64
  3
_____ _ _ _____ _ _ _____ _ _ _____
 72
65
 73
6
 40
0.8
 49
0.45
 74
0
 49
-0.05
 74
0
 49
0.1
 74
0
 49
-0.05
 74
0
 49
0.1
 74
0
 49
-0.05
 74
0
  0
LTYPE
  5
1F8
100
AcDbSymbolTableRecord
100
AcDbLinetypeTableRecord
  2
DOT
 70
64
  3
. . . . . . . . . . . . . . . . . . . .
 72
65
 73
2
 40
0.2
 49
0.1
 74
0
 49
-0.1
 74
0
  0
LTYPE
  5
1F9
100
AcDbSymbolTableRecord
100
AcDbLinetypeTableRecord
  2
DASHED
 70
64
  3
- - - - - - - - - - - - - - - - - - - -
 72
65
 73
2
 40
0.2
 49
0.1
 74
0
 49
-0.1
 74
0
  0
ENDTAB
  0
TABLE
  2
LAYER
  5
2
100
AcDbSymbolTable
 70
36
  0
LAYER
  5
10
100
AcDbSymbolTableRecord
100
AcDbLayerTableRecord
  2
0
 70
0
 62
7
  6
CONTINUOUS
370
-3
390
F
  0
LAYER
  5
1FA
100
AcDbSymbolTableRecord
100
AcDbLayerTableRecord
  2
DEFAULT_1
 70
0
 62
7
  6
CENTER
370
-3
390
F
  0
LAYER
  5
1FB
100
AcDbSymbolTableRecord
100
AcDbLayerTableRecord
  2
DEFAULT_2
 70
0
 62
7
  6
HIDDEN
370
-3
390
F
  0
LAYER
  5
1FC
100
AcDbSymbolTableRecord
100
AcDbLayerTableRecord
  2
DEFAULT_3
 70
0
 62
7
  6
PHANTOM
370
-3
390
F
  0
LAYER
  5
1FD
100
AcDbSymbolTableRecord
100
AcDbLayerTableRecord
  2
ASSI
 70
0
 62
7
  6
CONTINUOUS
370
-3
390
F
  0
LAYER
  5
1FE
100
AcDbSymbolTableRecord
100
AcDbLayerTableRecord
  2
COORDINATE
 70
0
 62
7
  6
CONTINUOUS
370
-3
390
F
  0
LAYER
  5
1FF
100
AcDbSymbolTableRecord
100
AcDbLayerTableRecord
  2
COORD_ORIGINE
 70
0
 62
7
  6
CONTINUOUS
370
-3
390
F
  0
LAYER
  5
200
100
AcDbSymbolTableRecord
100
AcDbLayerTableRecord
  2
COPY_PUBLISH
 70
0
 62
7
  6
CONTINUOUS
370
-3
390
F
  0
LAYER
  5
201
100
AcDbSymbolTableRecord
100
AcDbLayerTableRecord
  2
COSMETIC
 70
0
 62
7
  6
CONTINUOUS
370
-3
390
F
  0
LAYER
  5
202
100
AcDbSymbolTableRecord
100
AcDbLayerTableRecord
  2
COSMETICI
 70
0
 62
7
  6
CONTINUOUS
370
-3
390
F
  0
LAYER
  5
203
100
AcDbSymbolTableRecord
100
AcDbLayerTableRecord
  2
CURVE
 70
0
 62
7
  6
CONTINUOUS
370
-3
390
F
  0
LAYER
  5
204
100
AcDbSymbolTableRecord
100
AcDbLayerTableRecord
  2
DRAFT
 70
0
 62
7
  6
CONTINUOUS
370
-3
390
F
  0
LAYER
  5
205
100
AcDbSymbolTableRecord
100
AcDbLayerTableRecord
  2
IMPORT_IGES
 70
0
 62
7
  6
CONTINUOUS
370
-3
390
F
  0
LAYER
  5
206
100
AcDbSymbolTableRecord
100
AcDbLayerTableRecord
  2
NOTE
 70
0
 62
7
  6
CONTINUOUS
370
-3
390
F
  0
LAYER
  5
207
100
AcDbSymbolTableRecord
100
AcDbLayerTableRecord
  2
PIANI
 70
0
 62
7
  6
CONTINUOUS
370
-3
390
F
  0
LAYER
  5
208
100
AcDbSymbolTableRecord
100
AcDbLayerTableRecord
  2
PIANI_ORIGINE
 70
0
 62
7
  6
CONTINUOUS
370
-3
390
F
  0
LAYER
  5
209
100
AcDbSymbolTableRecord
100
AcDbLayerTableRecord
  2
PIANI_RIFERIMENTO
 70
0
 62
7
  6
CONTINUOUS
370
-3
390
F
  0
LAYER
  5
20A
100
AcDbSymbolTableRecord
100
AcDbLayerTableRecord
  2
PUNTI
 70
0
 62
7
  6
CONTINUOUS
370
-3
390
F
  0
LAYER
  5
20B
100
AcDbSymbolTableRecord
100
AcDbLayerTableRecord
  2
RACCORDO
 70
0
 62
7
  6
CONTINUOUS
370
-3
390
F
  0
LAYER
  5
20C
100
AcDbSymbolTableRecord
100
AcDbLayerTableRecord
  2
SIMBOLI
 70
0
 62
7
  6
CONTINUOUS
370
-3
390
F
  0
LAYER
  5
20D
100
AcDbSymbolTableRecord
100
AcDbLayerTableRecord
  2
SMUSSO
 70
0
 62
7
  6
CONTINUOUS
370
-3
390
F
  0
LAYER
  5
20E
100
AcDbSymbolTableRecord
100
AcDbLayerTableRecord
  2
SNAPLINE
 70
0
 62
7
  6
CONTINUOUS
370
-3
390
F
  0
LAYER
  5
20F
100
AcDbSymbolTableRecord
100
AcDbLayerTableRecord
  2
SUPERFICI
 70
0
 62
7
  6
CONTINUOUS
370
-3
390
F
  0
LAYER
  5
210
100
AcDbSymbolTableRecord
100
AcDbLayerTableRecord
  2
TRASH
 70
0
 62
7
  6
CONTINUOUS
370
-3
390
F
  0
LAYER
  5
211
100
AcDbSymbolTableRecord
100
AcDbLayerTableRecord
  2
XSEC_DATUMS
 70
0
 62
7
  6
CONTINUOUS
370
-3
390
F
  0
ENDTAB
  0
TABLE
  2
STYLE
  5
3
100
AcDbSymbolTable
 70
1
  0
STYLE
  5
11
100
AcDbSymbolTableRecord
100
AcDbTextStyleTableRecord
  2
STANDARD
 70
0
 40
0.0
 41
0.8
 50
0.0
 71
0
 42
0.2
  3
txt
  4

  0
STYLE
  5
212
100
AcDbSymbolTableRecord
100
AcDbTextStyleTableRecord
  2
TEXTSTYLE_1
 70
0
 40
0.0
 41
0.8
 50
0.0
 71
0
 42
0.2
  3
gdt
  4

  0
ENDTAB
  0
TABLE
  2
VIEW
  5
6
100
AcDbSymbolTable
 70
0
  0
ENDTAB
  0
TABLE
  2
UCS
  5
7
100
AcDbSymbolTable
 70
0
  0
ENDTAB
  0
TABLE
  2
APPID
  5
9
100
AcDbSymbolTable
 70
1
  0
APPID
  5
213
100
AcDbSymbolTableRecord
100
AcDbRegAppTableRecord
  2
ACAD
 70
0
  0
ENDTAB
  0
TABLE
  2
BLOCK_RECORD
  5
1
100
AcDbSymbolTable
 70
0
  0
BLOCK_RECORD
  5
214
100
AcDbSymbolTableRecord
100
AcDbBlockTableRecord
  2
*Model_Space
  0
BLOCK_RECORD
  5
215
100
AcDbSymbolTableRecord
100
AcDbBlockTableRecord
  2
*Paper_Space
  0
ENDTAB
  0
TABLE
  2
DIMSTYLE
  5
A
100
AcDbSymbolTable
 70
1
100
AcDbDimStyleTable
 71
0
  0
DIMSTYLE
105
216
100
AcDbSymbolTableRecord
100
AcDbDimStyleTableRecord
  2
STANDARD
 70
0
  3

  4

 40
1.0
 41
3.0
 42
0.0625
 43
0.38
 44
0.18
 45
0.0
 46
0.0
 47
0.01
 48
0.01
140
3.0
141
0.09
142
0.0
143
25.4
144
1.0
145
0.0
146
1.0
147
0.09
 71
1.0
 72
0.0
 73
0
 74
0
 75
0
 76
0
 77
1
 78
8
170
0
171
2
172
0
173
0
174
0
175
0
176
0
177
0
178
0
270
2
271
2
272
2
273
2
274
2
275
0
280
0
281
0
282
0
283
1
284
8
285
0
286
0
287
3
288
0
340
11
  0
ENDTAB
  0
ENDSEC
  0
SECTION
  2
BLOCKS
  0
BLOCK
  5
20
100
AcDbEntity
  8
0
100
AcDbBlockBegin
  2
*Model_Space
 70
0
 10
0.0
 20
0.0
 30
0.0
  3
*Model_Space
  1

  0
ENDBLK
  5
21
100
AcDbEntity
  8
0
100
AcDbBlockEnd
  0
BLOCK
  5
1C
100
AcDbEntity
  8
0
100
AcDbBlockBegin
  2
*Paper_Space
 70
0
 10
0.0
 20
0.0
 30
0.0
  3
*Paper_Space
  1

  0
ENDBLK
  5
1D
100
AcDbEntity
  8
0
100
AcDbBlockEnd
  0
ENDSEC
  0
SECTION
  2
ENTITIES
  0
LINE
  5
217
100
AcDbEntity
  8
RACCORDO
100
AcDbLine
 62
7
  6
CONTINUOUS
 10
-5.8406535331
 20
24.9734732258
 11
-7.4234101885
 21
24.1614891017
  0
LINE
  5
218
100
AcDbEntity
  8
RACCORDO
100
AcDbLine
 62
253
  6
CONTINUOUS
 10
-5.7275679192
 20
24.9670252239
 11
-7.3103245224
 21
24.1550411266
  0
LINE
  5
219
100
AcDbEntity
  8
RACCORDO
100
AcDbLine
 62
7
  6
CONTINUOUS
 10
-5.8389156954
 20
24.9743421886
 11
-5.8406535299
 21
24.9734732275
  0
LINE
  5
21A
100
AcDbEntity
  8
RACCORDO
100
AcDbLine
 62
7
  6
CONTINUOUS
 10
-5.3036301516
 20
25.2351074815
 11
-5.8388761847
 21
24.9743721829
  0
LINE
  5
21B
100
AcDbEntity
  8
RACCORDO
100
AcDbLine
 62
253
  6
CONTINUOUS
 10
-5.1931180405
 20
25.2273726905
 11
-5.7275679192
 21
24.9670252239
  0
LWPOLYLINE
  5
21C
100
AcDbEntity
  8
RACCORDO
100
AcDbPolyline
 62
7
  6
CONTINUOUS
 90
3
 70
0
 10
-5.2659907247
 20
25.249810173
 10
-5.2958769527
 20
25.2387213911
 10
-5.3037942915
 20
25.2350273254
  0
LWPOLYLINE
  5
21D
100
AcDbEntity
  8
RACCORDO
100
AcDbPolyline
 62
7
  6
CONTINUOUS
 90
19
 70
0
 10
-11.4454978494
 20
20.1375144822
 10
-11.4760364729
 20
20.1191641412
 10
-11.5644166168
 20
20.0598549951
 10
-11.6492301265
 20
19.9937526874
 10
-11.7303664775
 20
19.9213222
 10
-11.8076857969
 20
19.8429952912
 10
-11.8809231164
 20
19.7592993255
 10
-11.9498919478
 20
19.6706620932
 10
-12.0143919321
 20
19.5774900582
 10
-12.0740587714
 20
19.4804259729
 10
-12.1286728536
 20
19.3799121928
 10
-12.178002114
 20
19.2763814894
 10
-12.2216889605
 20
19.1705496183
 10
-12.25951619
 20
19.062854961
 10
-12.2912457852
 20
18.9537438683
 10
-12.3165742557
 20
18.8439037359
 10
-12.3352689617
 20
18.7338016366
 10
-12.3470938112
 20
18.6237690875
 10
-12.3509748684
 20
18.5520304915
  0
LINE
  5
21E
100
AcDbEntity
  8
RACCORDO
100
AcDbLine
 62
253
  6
CONTINUOUS
 10
-9.6581056221
 20
21.0477113389
 11
-8.9509325126
 21
21.4704804403
  0
LWPOLYLINE
  5
21F
100
AcDbEntity
  8
RACCORDO
100
AcDbPolyline
 62
253
  6
CONTINUOUS
 90
4
 70
0
 10
-8.9509325126
 20
21.4704804403
 10
-8.2777701091
 20
21.8717065977
 10
-7.9468293885
 20
22.067878277
 10
-7.6173486457
 20
22.2617953632
  0
LWPOLYLINE
  5
220
100
AcDbEntity
  8
RACCORDO
100
AcDbPolyline
 62
7
  6
CONTINUOUS
 90
3
 70
0
 10
-9.8667765087
 20
21.0662700769
 10
-10.4296670818
 20
20.7337069514
 10
-10.9744105177
 20
20.4131250309
  0
LWPOLYLINE
  5
221
100
AcDbEntity
  8
RACCORDO
100
AcDbPolyline
 62
253
  6
CONTINUOUS
 90
5
 70
0
 10
-11.2364460525
 20
20.1143754529
 10
-10.8052280927
 20
20.3679861861
 10
-10.4104778438
 20
20.6008929642
 10
-10.0276731613
 20
20.8275957787
 10
-9.6581056221
 20
21.0477113389
  0
LINE
  5
222
100
AcDbEntity
  8
RACCORDO
100
AcDbLine
 62
7
  6
CONTINUOUS
 10
-10.9744105177
 20
20.4131250309
 11
-11.4456401771
 21
20.1371829496
  0
LINE
  5
223
100
AcDbEntity
  8
RACCORDO
100
AcDbLine
 62
253
  6
CONTINUOUS
 10
-7.6173486457
 20
22.2617953632
 11
-6.8563031288
 21
22.7069719697
  0
LWPOLYLINE
  5
224
100
AcDbEntity
  8
RACCORDO
100
AcDbPolyline
 62
7
  6
CONTINUOUS
 90
5
 70
0
 10
-6.8563031288
 20
22.8371952468
 10
-7.4239333808
 20
22.5061132366
 10
-8.0642445034
 20
22.1313501473
 10
-8.6845877039
 20
21.7659309575
 10
-9.8667765087
 20
21.0662700769
  0
LINE
  5
225
100
AcDbEntity
  8
RACCORDO
100
AcDbLine
 62
7
  6
CONTINUOUS
 10
-10.4010273363
 20
19.6806817101
 11
-8.5304585276
 21
20.7360307412
  0
LINE
  5
226
100
AcDbEntity
  8
RACCORDO
100
AcDbLine
 62
253
  6
CONTINUOUS
 10
-10.5991926081
 20
19.8225097943
 11
-8.7041717157
 21
20.8742075272
  0
LINE
  5
227
100
AcDbEntity
  8
RACCORDO
100
AcDbLine
 62
253
  6
CONTINUOUS
 10
-10.5254009707
 20
19.7022137727
 11
-8.6334906406
 21
20.7521852073
  0
LINE
  5
228
100
AcDbEntity
  8
RACCORDO
100
AcDbLine
 62
253
  6
CONTINUOUS
 10
-4.3840590517
 20
24.2952707902
 11
-5.9853398426
 21
23.4925487867
  0
LINE
  5
229
100
AcDbEntity
  8
RACCORDO
100
AcDbLine
 62
253
  6
CONTINUOUS
 10
-4.2072853481
 20
23.9903812513
 11
-5.8085661389
 21
23.1876592478
  0
LINE
  5
22A
100
AcDbEntity
  8
RACCORDO
100
AcDbLine
 62
253
  6
CONTINUOUS
 10
-3.85579188
 20
24.5587096102
 11
-4.3840590517
 21
24.2952707902
  0
LINE
  5
22B
100
AcDbEntity
  8
RACCORDO
100
AcDbLine
 62
253
  6
CONTINUOUS
 10
-3.6790181763
 20
24.2538200714
 11
-4.2072853481
 21
23.9903812513
  0
LWPOLYLINE
  5
22C
100
AcDbEntity
  8
RACCORDO
100
AcDbPolyline
 62
253
  6
CONTINUOUS
 90
8
 70
0
 10
-11.4453899444
 20
20.1373289508
 10
-11.4199062457
 20
20.1495806761
 10
-11.3893928886
 20
20.15849793
 10
-11.3567270539
 20
20.1624728199
 10
-11.3222641632
 20
20.1614610215
 10
-11.2863796767
 20
20.1554722564
 10
-11.2494653104
 20
20.1445709885
 10
-11.2119238977
 20
20.1288752119
  0
LWPOLYLINE
  5
22D
100
AcDbEntity
  8
RACCORDO
100
AcDbPolyline
 62
253
  6
CONTINUOUS
 90
8
 70
0
 10
-10.4010273363
 20
19.6806817101
 10
-10.3895748115
 20
19.6860730976
 10
-10.3745838538
 20
19.6903759571
 10
-10.3585367108
 20
19.6921870342
 10
-10.3416091982
 20
19.6914864863
 10
-10.3239867774
 20
19.6882819887
 10
-10.3058625234
 20
19.6826086507
 10
-10.2874350093
 20
19.6745286305
  0
LWPOLYLINE
  5
22E
100
AcDbEntity
  8
RACCORDO
100
AcDbPolyline
 62
253
  6
CONTINUOUS
 90
3
 70
0
 10
-10.4124502316
 20
19.5948474187
 10
-10.3498546408
 20
19.6370446005
 10
-10.2874350093
 20
19.6745286305
  0
LINE
  5
22F
100
AcDbEntity
  8
RACCORDO
100
AcDbLine
 62
253
  6
CONTINUOUS
 10
-10.2874350093
 20
19.6745286305
 11
-8.4145706961
 21
20.7311727535
  0
LINE
  5
230
100
AcDbEntity
  8
RACCORDO
100
AcDbLine
 62
7
  6
CONTINUOUS
 10
-4.2072853481
 20
22.3882305904
 11
-5.0973455308
 21
21.8915496691
  0
LINE
  5
231
100
AcDbEntity
  8
RACCORDO
100
AcDbLine
 62
7
  6
CONTINUOUS
 10
-1.8384656297
 20
22.058112177
 11
-1.4849242405
 21
22.2394856019
  0
LINE
  5
232
100
AcDbEntity
  8
RACCORDO
100
AcDbLine
 62
7
  6
CONTINUOUS
 10
3.5152977135
 20
25.5285346194
 11
-2.7992426131
 21
22.3837583149
  0
LINE
  5
233
100
AcDbEntity
  8
ASSI
100
AcDbLine
 62
7
  6
CONTINUOUS
 10
-1.4849242405
 20
22.2394856019
 11
3.8512991655
 21
24.8389290674
  0
LWPOLYLINE
  5
234
100
AcDbEntity
  8
ASSI
100
AcDbPolyline
 62
7
  6
CONTINUOUS
 90
7
 70
0
 10
4.5057056316
 20
24.5561129507
 10
4.4975683249
 20
24.5533662099
 10
4.4894275388
 20
24.5503882254
 10
4.4812832733
 20
24.5471789972
 10
4.4731355283
 20
24.5437385252
 10
4.4649843039
 20
24.5400668095
 10
4.4568296001
 20
24.53616385
  0
LINE
  5
235
100
AcDbEntity
  8
RACCORDO
100
AcDbLine
 62
253
  6
CONTINUOUS
 10
9.6852999881
 20
-24.075474667
 11
9.1570328164
 21
-23.9669723899
  0
LINE
  5
236
100
AcDbEntity
  8
RACCORDO
100
AcDbLine
 62
253
  6
CONTINUOUS
 10
9.5958861928
 20
-23.755907861
 11
9.1570328164
 21
-23.6657705343
  0
LWPOLYLINE
  5
237
100
AcDbEntity
  8
RACCORDO
100
AcDbPolyline
 62
7
  6
CONTINUOUS
 90
16
 70
0
 10
8.2669726336
 20
-24.2825814308
 10
8.2490637302
 20
-24.2788076267
 10
8.2296572023
 20
-24.2739930175
 10
8.2088037611
 20
-24.2682557629
 10
8.1864953677
 20
-24.2618446667
 10
8.1629060296
 20
-24.2547917225
 10
8.1383849826
 20
-24.2469100829
 10
8.1130618246
 20
-24.2383818878
 10
8.0870938641
 20
-24.2293850693
 10
8.060895557
 20
-24.2197464992
 10
8.0346767159
 20
-24.2096813051
 10
8.008648749
 20
-24.1994053037
 10
7.9832585301
 20
-24.1887715911
 10
7.958843756
 20
-24.1779005188
 10
7.9356315775
 20
-24.1671651538
 10
7.9139364456
 20
-24.1568115927
  0
LWPOLYLINE
  5
238
100
AcDbEntity
  8
RACCORDO
100
AcDbPolyline
 62
253
  6
CONTINUOUS
 90
16
 70
0
 10
7.2032300659
 20
-25.4735391182
 10
7.2226667493
 20
-25.4822900013
 10
7.2438267845
 20
-25.489978026
 10
7.2664787972
 20
-25.4965188555
 10
7.290378652
 20
-25.5018413893
 10
7.315261502
 20
-25.5058860713
 10
7.3408433869
 20
-25.5086074736
 10
7.3668359559
 20
-25.5099771799
 10
7.3929622146
 20
-25.5099828139
 10
7.4189481056
 20
-25.5086250307
 10
7.4445523739
 20
-25.5059127926
 10
7.46945028
 20
-25.5018767926
 10
7.4932610517
 20
-25.4965884949
 10
7.5157073733
 20
-25.4901333213
 10
7.5366045401
 20
-25.4825893866
 10
7.5557520255
 20
-25.474051842
  0
LWPOLYLINE
  5
239
100
AcDbEntity
  8
RACCORDO
100
AcDbPolyline
 62
7
  6
CONTINUOUS
 90
11
 70
0
 10
3.0128487891
 20
-25.4107020243
 10
3.0792936131
 20
-25.4406826446
 10
3.1535737002
 20
-25.4668599782
 10
3.2307468944
 20
-25.4866355991
 10
3.3104285802
 20
-25.4997583337
 10
3.3924204524
 20
-25.5060203631
 10
3.4762904218
 20
-25.5051962641
 10
3.5615888213
 20
-25.4971124818
 10
3.6482121027
 20
-25.4815723948
 10
3.7359077747
 20
-25.4583607536
 10
3.8241949501
 20
-25.427335656
  0
LINE
  5
23A
100
AcDbEntity
  8
RACCORDO
100
AcDbLine
 62
7
  6
CONTINUOUS
 10
3.0138248526
 20
-25.4111912219
 11
-11.8200736964
 21
-17.9942419474
  0
LINE
  5
23B
100
AcDbEntity
  8
RACCORDO
100
AcDbLine
 62
253
  6
CONTINUOUS
 10
2.6203561595
 20
-24.650591618
 11
-12.2044899181
 21
-17.2381685792
  0
LWPOLYLINE
  5
23C
100
AcDbEntity
  8
RACCORDO
100
AcDbPolyline
 62
253
  6
CONTINUOUS
 90
3
 70
0
 10
-11.8200735188
 20
-17.9942420362
 10
-11.8396415044
 20
-17.9839612087
 10
-11.8581015805
 20
-17.973313962
  0
LWPOLYLINE
  5
23D
100
AcDbEntity
  8
RACCORDO
100
AcDbPolyline
 62
253
  6
CONTINUOUS
 90
35
 70
0
 10
-11.8581015805
 20
-17.973313962
 10
-11.8761774411
 20
-17.9619384184
 10
-11.8938594869
 20
-17.9498404325
 10
-11.9111373077
 20
-17.9370269286
 10
-11.9280019103
 20
-17.9235044633
 10
-11.9444444284
 20
-17.9092798563
 10
-11.9604550066
 20
-17.8943613256
 10
-11.9760236081
 20
-17.8787582451
 10
-11.9911414369
 20
-17.8624794848
 10
-12.0058002953
 20
-17.8455339126
 10
-12.0199916119
 20
-17.8279317393
 10
-12.0337069621
 20
-17.8096837258
 10
-12.0469395188
 20
-17.7907992603
 10
-12.0596834458
 20
-17.7712869486
 10
-12.071931453
 20
-17.7511578405
 10
-12.0836769048
 20
-17.7304227073
 10
-12.0949150089
 20
-17.7090898205
 10
-12.1056400419
 20
-17.6871690528
 10
-12.1158449486
 20
-17.6646737562
 10
-12.1255232713
 20
-17.6416177976
 10
-12.1346702669
 20
-17.6180117315
 10
-12.1432798573
 20
-17.5938703949
 10
-12.1513446929
 20
-17.5692151905
 10
-12.158859575
 20
-17.5440641141
 10
-12.1658220579
 20
-17.5184275385
 10
-12.1722296949
 20
-17.4923161324
 10
-12.1780787225
 20
-17.465746336
 10
-12.1833665596
 20
-17.4387310578
 10
-12.1880921531
 20
-17.4112753581
 10
-12.1922531833
 20
-17.3833888273
 10
-12.1958459811
 20
-17.3550915492
 10
-12.1988676673
 20
-17.3264044621
 10
-12.2013163657
 20
-17.2973452086
 10
-12.2031908239
 20
-17.2679278683
 10
-12.2044899181
 20
-17.2381685792
  0
LWPOLYLINE
  5
23E
100
AcDbEntity
  8
RACCORDO
100
AcDbPolyline
 62
7
  6
CONTINUOUS
 90
15
 70
0
 10
-5.0973455308
 20
22.6991817908
 10
-5.1152544342
 20
22.6793094963
 10
-5.1346609621
 20
22.6601817885
 10
-5.1555144034
 20
22.6420323562
 10
-5.1778227967
 20
22.6251258719
 10
-5.2014121349
 20
22.6096655459
 10
-5.2259331819
 20
22.5958005507
 10
-5.2512563399
 20
22.5837676183
 10
-5.2772243003
 20
22.5737874599
 10
-5.3034226075
 20
22.5659958617
 10
-5.3296414485
 20
22.5606049157
 10
-5.3556694155
 20
22.5578002413
 10
-5.3810596343
 20
22.5576907694
 10
-5.4054744085
 20
22.5604243596
 10
-5.4106552913
 20
22.5614153904
  0
LINE
  5
23F
100
AcDbEntity
  8
DRAFT
100
AcDbLine
 62
7
  6
CONTINUOUS
 10
-4.0372965629
 20
18.5407699508
 11
-3.2526911935
 21
18.9762098404
  0
LINE
  5
240
100
AcDbEntity
  8
ASSI
100
AcDbLine
 62
7
  6
CONTINUOUS
 10
4.4568296001
 20
24.53616385
 11
-0.1414213562
 21
22.2698025525
  0
LINE
  5
241
100
AcDbEntity
  8
DRAFT
100
AcDbLine
 62
7
  6
CONTINUOUS
 10
1.0866594668
 20
21.655762141
 11
4.5057056316
 21
23.3287418201
  0
LINE
  5
242
100
AcDbEntity
  8
RACCORDO
100
AcDbLine
 62
7
  6
CONTINUOUS
 10
6.5822636575
 20
23.9950516474
 11
1.4402128574
 21
21.4789854457
  0
LINE
  5
243
100
AcDbEntity
  8
RACCORDO
100
AcDbLine
 62
253
  6
CONTINUOUS
 10
10.2176929881
 20
-16.673942338
 11
14.1644863399
 21
-15.5707765683
  0
LINE
  5
244
100
AcDbEntity
  8
RACCORDO
100
AcDbLine
 62
7
  6
CONTINUOUS
 10
10.2176929881
 20
-16.6200910537
 11
14.0182598208
 21
-15.557796968
  0
LWPOLYLINE
  5
245
100
AcDbEntity
  8
RACCORDO
100
AcDbPolyline
 62
253
  6
CONTINUOUS
 90
8
 70
0
 10
14.0187160758
 20
-15.5576694603
 10
14.0324378399
 20
-15.5542995386
 10
14.055543186
 20
-15.5506930204
 10
14.0784207149
 20
-15.5496869378
 10
14.1009037084
 20
-15.5512510089
 10
14.1228372675
 20
-15.5553367151
 10
14.144078622
 20
-15.5618731191
 10
14.1644851892
 20
-15.5707768899
  0
LWPOLYLINE
  5
246
100
AcDbEntity
  8
RACCORDO
100
AcDbPolyline
 62
253
  6
CONTINUOUS
 90
16
 70
0
 10
7.2032300659
 20
-25.133565184
 10
7.2226193809
 20
-25.1422968813
 10
7.2437240335
 20
-25.1499707033
 10
7.266314226
 20
-25.1565029423
 10
7.2901444501
 20
-25.1618224161
 10
7.3149546668
 20
-25.1658708969
 10
7.3404729547
 20
-25.1686040195
 10
7.366420297
 20
-25.1699921079
 10
7.3925148131
 20
-25.170020287
 10
7.4184732197
 20
-25.1686883051
 10
7.4440262699
 20
-25.1660088505
 10
7.4688812255
 20
-25.1620114734
 10
7.4927302931
 20
-25.1567490163
 10
7.5153077958
 20
-25.1502882416
 10
7.5363884083
 20
-25.1427021927
 10
7.5557520255
 20
-25.1340779079
  0
LINE
  5
247
100
AcDbEntity
  8
RACCORDO
100
AcDbLine
 62
7
  6
CONTINUOUS
 10
5.9432186825
 20
-24.9462652284
 11
7.2682033623
 21
-25.6087575683
  0
LINE
  5
248
100
AcDbEntity
  8
RACCORDO
100
AcDbLine
 62
253
  6
CONTINUOUS
 10
5.8782453861
 20
-24.8110467783
 11
7.2032300659
 21
-25.4735391182
  0
LINE
  5
249
100
AcDbEntity
  8
RACCORDO
100
AcDbLine
 62
253
  6
CONTINUOUS
 10
7.2032300659
 20
-25.133565184
 11
5.9932195651
 21
-24.5285599336
  0
LINE
  5
24A
100
AcDbEntity
  8
RACCORDO
100
AcDbLine
 62
253
  6
CONTINUOUS
 10
7.2916184135
 20
-24.9018710102
 11
6.2955942604
 21
-24.4038589336
  0
LINE
  5
24B
100
AcDbEntity
  8
RACCORDO
100
AcDbLine
 62
253
  6
CONTINUOUS
 10
7.2680435043
 20
-25.6086774486
 11
7.2682036832
 21
-25.6087577287
  0
LWPOLYLINE
  5
24C
100
AcDbEntity
  8
RACCORDO
100
AcDbPolyline
 62
253
  6
CONTINUOUS
 90
9
 70
0
 10
5.8782453861
 20
-24.8110467783
 10
5.8610583614
 20
-24.8015223567
 10
5.8458487532
 20
-24.7911173942
 10
5.8328079582
 20
-24.7799316431
 10
5.8220932355
 20
-24.7680570891
 10
5.8138768771
 20
-24.7556318686
 10
5.8083038589
 20
-24.7428457947
 10
5.8054374393
 20
-24.7298609723
 10
5.8050220814
 20
-24.7226610639
  0
LWPOLYLINE
  5
24D
100
AcDbEntity
  8
RACCORDO
100
AcDbPolyline
 62
7
  6
CONTINUOUS
 90
4
 70
0
 10
5.9432186825
 20
-24.9462652284
 10
5.9203047278
 20
-24.9332554623
 10
5.8986621628
 20
-24.9177263524
 10
5.8786409139
 20
-24.8998297708
  0
LWPOLYLINE
  5
24E
100
AcDbEntity
  8
0
100
AcDbPolyline
 62
7
  6
CONTINUOUS
 90
11
 70
0
 10
-16.7937860532
 20
-5.6374411849
 10
-16.7767562592
 20
-5.232505091
 10
-16.7294956507
 20
-4.8535559357
 10
-16.6520042276
 20
-4.5005937187
 10
-16.5430401972
 20
-4.1709090753
 10
-16.4038453522
 20
-3.8672113702
 10
-16.2381450712
 20
-3.5976286988
 10
-16.0452235835
 20
-3.3630823266
 10
-15.8257966598
 20
-3.1626509879
 10
-15.5857369915
 20
-3.0016989808
 10
-15.508038703
 20
-2.960593653
  0
LWPOLYLINE
  5
24F
100
AcDbEntity
  8
0
100
AcDbPolyline
 62
7
  6
CONTINUOUS
 90
9
 70
0
 10
-16.4755880016
 20
-5.7965402106
 10
-16.45169439
 20
-5.3463268843
 10
-16.3877287548
 20
-4.9340125028
 10
-16.2836910961
 20
-4.5595970662
 10
-16.1371130768
 20
-4.2190786097
 10
-15.950463034
 20
-3.9164590981
 10
-15.7311459782
 20
-3.6637444259
 10
-15.4778485349
 20
-3.462941013
 10
-15.305045998
 20
-3.3638093069
  0
LWPOLYLINE
  5
250
100
AcDbEntity
  8
RACCORDO
100
AcDbPolyline
 62
7
  6
CONTINUOUS
 90
6
 70
0
 10
-3.6636576039
 20
23.8354533881
 10
-3.6491767896
 20
23.8549342018
 10
-3.6366361208
 20
23.8757597016
 10
-3.6261654364
 20
23.8977333642
 10
-3.6178671935
 20
23.9206669494
 10
-3.6118379882
 20
23.9443248811
  0
LINE
  5
251
100
AcDbEntity
  8
RACCORDO
100
AcDbLine
 62
253
  6
CONTINUOUS
 10
-4.2072853481
 20
23.2633363989
 11
-3.6790181763
 21
23.9062885546
  0
LINE
  5
252
100
AcDbEntity
  8
RACCORDO
100
AcDbLine
 62
7
  6
CONTINUOUS
 10
-4.2072853481
 20
23.1738059325
 11
-3.6636576039
 21
23.8354533881
  0
LINE
  5
253
100
AcDbEntity
  8
RACCORDO
100
AcDbLine
 62
7
  6
CONTINUOUS
 10
-11.7444442788
 20
13.5323727159
 11
-11.7309536167
 21
13.5416966848
  0
LWPOLYLINE
  5
254
100
AcDbEntity
  8
RACCORDO
100
AcDbPolyline
 62
7
  6
CONTINUOUS
 90
3
 70
0
 10
-11.7309536167
 20
13.5416966848
 10
-11.7233852531
 20
13.5468797452
 10
-11.715166702
 20
13.5522985246
  0
LWPOLYLINE
  5
255
100
AcDbEntity
  8
RACCORDO
100
AcDbPolyline
 62
7
  6
CONTINUOUS
 90
3
 70
0
 10
-11.715166702
 20
13.5522985246
 10
-11.6970794499
 20
13.5637994928
 10
-11.6873744128
 20
13.569802851
  0
LWPOLYLINE
  5
256
100
AcDbEntity
  8
RACCORDO
100
AcDbPolyline
 62
7
  6
CONTINUOUS
 90
3
 70
0
 10
-11.6873744128
 20
13.569802851
 10
-11.6668097696
 20
13.5820843784
 10
-11.6560767613
 20
13.588326007
  0
LWPOLYLINE
  5
257
100
AcDbEntity
  8
RACCORDO
100
AcDbPolyline
 62
7
  6
CONTINUOUS
 90
5
 70
0
 10
-11.6560767613
 20
13.588326007
 10
-11.6342709607
 20
13.6004121639
 10
-11.6237539821
 20
13.6061488389
 10
-11.6135207412
 20
13.611401415
 10
-11.6036761699
 20
13.6159831139
  0
LINE
  5
258
100
AcDbEntity
  8
RACCORDO
100
AcDbLine
 62
7
  6
CONTINUOUS
 10
-11.6014664125
 20
13.6170922892
 11
-11.4926974268
 21
13.671688267
  0
LINE
  5
259
100
AcDbEntity
  8
0
100
AcDbLine
 62
7
  6
CONTINUOUS
 10
5.9232679061
 20
23.1349788336
 11
2.0257469939
 21
21.1862183775
  0
LINE
  5
25A
100
AcDbEntity
  8
RACCORDO
100
AcDbLine
 62
7
  6
CONTINUOUS
 10
-3.2526911935
 20
18.2005891223
 11
-3.3040355428
 21
18.1759051768
  0
LWPOLYLINE
  5
25B
100
AcDbEntity
  8
ASSI
100
AcDbPolyline
 62
7
  6
CONTINUOUS
 90
7
 70
0
 10
9.4554530999
 20
22.0812392166
 10
9.4473157933
 20
22.0784924758
 10
9.4391750071
 20
22.0755144913
 10
9.4310307416
 20
22.072305263
 10
9.4228829966
 20
22.068864791
 10
9.4147317722
 20
22.0651930753
 10
9.4065770684
 20
22.0612901159
  0
LWPOLYLINE
  5
25C
100
AcDbEntity
  8
RACCORDO
100
AcDbPolyline
 62
7
  6
CONTINUOUS
 90
5
 70
0
 10
3.7898229005
 20
18.8088610854
 10
3.7583776759
 20
18.7994768319
 10
3.7288071817
 20
18.7904781093
 10
3.7010002866
 20
18.7823171003
 10
3.6748923654
 20
18.775231795
  0
LINE
  5
25D
100
AcDbEntity
  8
RACCORDO
100
AcDbLine
 62
253
  6
CONTINUOUS
 10
14.1856587821
 20
-15.5668334949
 11
14.1644863399
 21
-15.5707765683
  0
LINE
  5
25E
100
AcDbEntity
  8
RACCORDO
100
AcDbLine
 62
253
  6
CONTINUOUS
 10
14.1901751263
 20
-15.5690913063
 11
14.1688989585
 21
-15.5729837738
  0
LWPOLYLINE
  5
25F
100
AcDbEntity
  8
RACCORDO
100
AcDbPolyline
 62
7
  6
CONTINUOUS
 90
4
 70
0
 10
14.0939704272
 20
-15.5458639233
 10
14.0619534014
 20
-15.5486261898
 10
14.0299315112
 20
-15.554751032
 10
14.0186270411
 20
-15.5577054165
  0
LWPOLYLINE
  5
260
100
AcDbEntity
  8
RACCORDO
100
AcDbPolyline
 62
253
  6
CONTINUOUS
 90
3
 70
0
 10
9.6191700244
 20
-23.7639297555
 10
9.6131448378
 20
-23.7611897444
 10
9.5958861928
 20
-23.755907861
  0
LINE
  5
261
100
AcDbEntity
  8
RACCORDO
100
AcDbLine
 62
7
  6
CONTINUOUS
 10
7.914450674
 20
-24.1570687069
 11
7.4512560506
 21
-23.9254713952
  0
LINE
  5
262
100
AcDbEntity
  8
RACCORDO
100
AcDbLine
 62
253
  6
CONTINUOUS
 10
9.1570328164
 20
-23.5364811728
 11
9.5958861928
 21
-23.755907861
  0
LINE
  5
263
100
AcDbEntity
  8
RACCORDO
100
AcDbLine
 62
7
  6
CONTINUOUS
 10
9.1570328164
 20
-23.5328610232
 11
9.619301244
 21
-23.763995237
  0
LWPOLYLINE
  5
264
100
AcDbEntity
  8
RACCORDO
100
AcDbPolyline
 62
253
  6
CONTINUOUS
 90
3
 70
0
 10
5.9233307363
 20
-24.9329377711
 10
5.9363283361
 20
-24.9424505969
 10
5.9432186825
 20
-24.9462652284
  0
LWPOLYLINE
  5
265
100
AcDbEntity
  8
0
100
AcDbPolyline
 62
7
  6
CONTINUOUS
 90
7
 70
0
 10
-14.9164776333
 20
-8.3876055137
 10
-15.1184163688
 20
-7.9719701445
 10
-15.2845947362
 20
-7.5557437927
 10
-15.4150127355
 20
-7.1389264581
 10
-15.5096703668
 20
-6.7215181409
 10
-15.56856763
 20
-6.3035188409
 10
-15.5917045252
 20
-5.8849285583
  0
LINE
  5
266
100
AcDbEntity
  8
0
100
AcDbLine
 62
7
  6
CONTINUOUS
 10
-15.0328085063
 20
-7.2469083225
 11
-15.0328085063
 21
-5.081844813
  0
LINE
  5
267
100
AcDbEntity
  8
0
100
AcDbLine
 62
7
  6
CONTINUOUS
 10
-14.0428590126
 20
-3.7059453193
 11
-14.0428590126
 21
-4.4942878051
  0
LINE
  5
268
100
AcDbEntity
  8
0
100
AcDbLine
 62
7
  6
CONTINUOUS
 10
-14.0428590126
 20
-5.5768195598
 11
-14.0428590126
 21
-7.7418830693
  0
LINE
  5
269
100
AcDbEntity
  8
0
100
AcDbLine
 62
7
  6
CONTINUOUS
 10
-14.0428590126
 20
-8.824414824
 11
-14.0428590126
 21
-9.6127573098
  0
LWPOLYLINE
  5
26A
100
AcDbEntity
  8
0
100
AcDbPolyline
 62
7
  6
CONTINUOUS
 90
7
 70
0
 10
-15.5917045252
 20
-5.8849285583
 10
-15.56856763
 20
-5.4894751708
 10
-15.5096703668
 20
-5.1303731341
 10
-15.4150127355
 20
-4.8076224481
 10
-15.2845947362
 20
-4.5212231129
 10
-15.1184163688
 20
-4.2711751284
 10
-14.9164776333
 20
-4.0574784948
  0
LWPOLYLINE
  5
26B
100
AcDbEntity
  8
RACCORDO
100
AcDbPolyline
 62
253
  6
CONTINUOUS
 90
14
 70
0
 10
-5.8085661389
 20
22.8476853137
 10
-5.8187413964
 20
22.8241463604
 10
-5.8307249398
 20
22.8017877517
 10
-5.8443950637
 20
22.7808580112
 10
-5.8596190213
 20
22.7615824036
 10
-5.8762306855
 20
22.7441911178
 10
-5.8940254386
 20
22.7289061559
 10
-5.9127981728
 20
22.7159011354
 10
-5.9323528089
 20
22.7053094654
 10
-5.9524762845
 20
22.6972466602
 10
-5.9729492835
 20
22.6918010015
 10
-5.99354722
 20
22.6890326296
 10
-6.0140434695
 20
22.6889720015
 10
-6.035409075
 20
22.6918640365
  0
LINE
  5
26C
100
AcDbEntity
  8
DRAFT
100
AcDbLine
 62
7
  6
CONTINUOUS
 10
0.2189199445
 20
16.4126616971
 11
0.9899494937
 21
16.8548894968
  0
LINE
  5
26D
100
AcDbEntity
  8
RACCORDO
100
AcDbLine
 62
7
  6
CONTINUOUS
 10
4.3799362847
 20
18.9489112199
 11
4.7376154339
 21
19.1282157647
  0
LINE
  5
26E
100
AcDbEntity
  8
ASSI
100
AcDbLine
 62
7
  6
CONTINUOUS
 10
4.7376154339
 20
19.1282157647
 11
10.0121075031
 21
21.7585248986
  0
LINE
  5
26F
100
AcDbEntity
  8
ASSI
100
AcDbLine
 62
7
  6
CONTINUOUS
 10
9.4065770684
 20
22.0612901159
 11
4.8083261121
 21
19.7949288184
  0
LINE
  5
270
100
AcDbEntity
  8
RACCORDO
100
AcDbLine
 62
7
  6
CONTINUOUS
 10
10.8249043446
 20
21.8737313039
 11
10.186043568
 21
21.5611291788
  0
LWPOLYLINE
  5
271
100
AcDbEntity
  8
RACCORDO
100
AcDbPolyline
 62
7
  6
CONTINUOUS
 90
9
 70
0
 10
10.8249043446
 20
21.8737313039
 10
10.8869129246
 20
21.9006111984
 10
10.9475133118
 20
21.9205356547
 10
11.0067055061
 20
21.9335046729
 10
11.0649108399
 20
21.9395115089
 10
11.1217079809
 20
21.9385629067
 10
11.1758329318
 20
21.9306790979
 10
11.2272273366
 20
21.9157040729
 10
11.265977294
 20
21.8989541568
  0
LWPOLYLINE
  5
272
100
AcDbEntity
  8
RACCORDO
100
AcDbPolyline
 62
7
  6
CONTINUOUS
 90
7
 70
0
 10
8.0606880128
 20
18.5529483993
 10
8.0889097051
 20
18.5646201733
 10
8.1187738815
 20
18.5728556168
 10
8.1497754271
 20
18.5773632979
 10
8.1814702654
 20
18.5779411962
 10
8.2131191427
 20
18.5744800983
 10
8.2438711873
 20
18.5670865995
  0
LINE
  5
273
100
AcDbEntity
  8
RACCORDO
100
AcDbLine
 62
7
  6
CONTINUOUS
 10
14.1255911262
 20
-15.5464999447
 11
14.0939704272
 21
-15.5458639233
  0
LINE
  5
274
100
AcDbEntity
  8
0
100
AcDbLine
 62
7
  6
CONTINUOUS
 10
-14.9164776333
 20
-8.3876055137
 11
-14.0428590126
 21
-8.824414824
  0
LINE
  5
275
100
AcDbEntity
  8
RACCORDO
100
AcDbLine
 62
253
  6
CONTINUOUS
 10
9.6139434767
 20
-23.7664213102
 11
9.5958861928
 21
-23.755907861
  0
LWPOLYLINE
  5
276
100
AcDbEntity
  8
ASSI
100
AcDbPolyline
 62
7
  6
CONTINUOUS
 90
13
 70
0
 10
-13.2228968082
 20
-9.5808060878
 10
-13.2853695272
 20
-9.53941098
 10
-13.3407864522
 20
-9.4896496995
 10
-13.3891475833
 20
-9.4315222464
 10
-13.431906494
 20
-9.3618515207
 10
-13.4676096107
 20
-9.2838146223
 10
-13.491896213
 20
-9.2069428508
 10
-13.5033127274
 20
-9.1313845524
 10
-13.5033127274
 20
-9.0569913809
 10
-13.491896213
 20
-8.9928495969
 10
-13.4676096107
 20
-8.9402644277
 10
-13.431906494
 20
-8.897930646
 10
-13.4011089609
 20
-8.8764551989
  0
LWPOLYLINE
  5
277
100
AcDbEntity
  8
ASSI
100
AcDbPolyline
 62
7
  6
CONTINUOUS
 90
13
 70
0
 10
-13.2228968082
 20
-8.8879857647
 10
-13.1604240892
 20
-8.9293808725
 10
-13.1050071642
 20
-8.979142153
 10
-13.0566460331
 20
-9.0372696061
 10
-13.0138871224
 20
-9.1069403318
 10
-12.9781840057
 20
-9.1849772302
 10
-12.9538974034
 20
-9.2618490017
 10
-12.942480889
 20
-9.3374073001
 10
-12.942480889
 20
-9.4118004716
 10
-12.9538974034
 20
-9.4759422556
 10
-12.9781840057
 20
-9.5285274248
 10
-13.0138871224
 20
-9.5708612065
 10
-13.0446846554
 20
-9.5923366536
  0
LWPOLYLINE
  5
278
100
AcDbEntity
  8
ASSI
100
AcDbPolyline
 62
7
  6
CONTINUOUS
 90
13
 70
0
 10
-11.8793939239
 20
-9.5597372069
 10
-11.9418666429
 20
-9.5183420991
 10
-11.9972835679
 20
-9.4685808186
 10
-12.045644699
 20
-9.4104533655
 10
-12.0884036097
 20
-9.3407826398
 10
-12.1241067264
 20
-9.2627457414
 10
-12.1483933287
 20
-9.1858739699
 10
-12.1598098431
 20
-9.1103156715
 10
-12.1598098431
 20
-9.0359225
 10
-12.1483933287
 20
-8.971780716
 10
-12.1241067264
 20
-8.9191955468
 10
-12.0884036097
 20
-8.8768617651
 10
-12.0576060767
 20
-8.855386318
  0
LWPOLYLINE
  5
279
100
AcDbEntity
  8
RACCORDO
100
AcDbPolyline
 62
253
  6
CONTINUOUS
 90
9
 70
0
 10
-12.3509526463
 20
-17.0605534475
 10
-12.3501038732
 20
-17.0718648401
 10
-12.344285016
 20
-17.0987438501
 10
-12.333183376
 20
-17.1250334546
 10
-12.3169179018
 20
-17.1504519732
 10
-12.29566287
 20
-17.174727059
 10
-12.2696460178
 20
-17.1975986163
 10
-12.2391461032
 20
-17.2188215875
 10
-12.2044899177
 20
-17.238168579
  0
LWPOLYLINE
  5
27A
100
AcDbEntity
  8
RACCORDO
100
AcDbPolyline
 62
7
  6
CONTINUOUS
 90
14
 70
0
 10
-12.3509526468
 20
-17.0605534475
 10
-12.3469041212
 20
-17.1312318284
 10
-12.3350211337
 20
-17.2321805118
 10
-12.3163694605
 20
-17.328464412
 10
-12.2912612966
 20
-17.4197938821
 10
-12.2599544793
 20
-17.5060989425
 10
-12.2226187604
 20
-17.5874090971
 10
-12.1795362768
 20
-17.6634296676
 10
-12.1310074311
 20
-17.7339022698
 10
-12.0772375085
 20
-17.798712638
 10
-12.0186238599
 20
-17.8575151892
 10
-11.9556257979
 20
-17.9099967887
 10
-11.8886181002
 20
-17.955976863
 10
-11.8191955664
 20
-17.9946799292
  0
LWPOLYLINE
  5
27B
100
AcDbEntity
  8
RACCORDO
100
AcDbPolyline
 62
253
  6
CONTINUOUS
 90
6
 70
0
 10
-12.2044899181
 20
-17.2381685792
 10
-12.2423639222
 20
-16.071207873
 10
-12.27762718
 20
-14.9027702192
 10
-12.3102794199
 20
-13.7328644071
 10
-12.3403203896
 20
-12.5614991208
 10
-12.3538832138
 20
-11.981586499
  0
LWPOLYLINE
  5
27C
100
AcDbEntity
  8
RACCORDO
100
AcDbPolyline
 62
7
  6
CONTINUOUS
 90
3
 70
0
 10
-12.4937956603
 20
-11.9589777455
 10
-12.4656284552
 20
-13.2192344866
 10
-12.3509537189
 20
-17.0605216301
  0
LWPOLYLINE
  5
27D
100
AcDbEntity
  8
RACCORDO
100
AcDbPolyline
 62
253
  6
CONTINUOUS
 90
18
 70
0
 10
-12.4948076042
 20
-1.453862283
 10
-12.4970698951
 20
-0.7695394853
 10
-12.4983762403
 20
0.4172921682
 10
-12.4970698969
 20
1.6054765465
 10
-12.4931508737
 20
2.7950047065
 10
-12.4866191994
 20
3.985867682
 10
-12.4774749253
 20
5.1780564879
 10
-12.4657181202
 20
6.3715621875
 10
-12.4513488688
 20
7.5663758723
 10
-12.4343672917
 20
8.7624878848
 10
-12.4147735104
 20
9.9598899017
 10
-12.3925676259
 20
11.1585750078
 10
-12.3677497332
 20
12.3585370448
 10
-12.340320056
 20
13.5597641534
 10
-12.3102789474
 20
14.7622408402
 10
-12.2776267231
 20
15.9659558923
 10
-12.2423636138
 20
17.1709023993
 10
-12.2044899181
 20
18.3770712884
  0
LWPOLYLINE
  5
27E
100
AcDbEntity
  8
RACCORDO
100
AcDbPolyline
 62
253
  6
CONTINUOUS
 90
7
 70
0
 10
-11.7444443611
 20
13.5323727571
 10
-11.724964162
 20
14.2892240453
 10
-11.7044213025
 20
15.0465555525
 10
-11.6828158434
 20
15.8043650207
 10
-11.6601478482
 20
16.5626501905
 10
-11.636417384
 20
17.321408801
 10
-11.6116245208
 20
18.0806385898
  0
LWPOLYLINE
  5
27F
100
AcDbEntity
  8
RACCORDO
100
AcDbPolyline
 62
7
  6
CONTINUOUS
 90
7
 70
0
 10
-12.3509723406
 20
18.552114847
 10
-12.465786861
 20
14.5865341706
 10
-12.55348898
 20
10.5698077592
 10
-12.6119544714
 20
6.567347183
 10
-12.6411779057
 20
2.5794901981
 10
-12.6411563404
 20
-1.3934286687
 10
-12.6401719395
 20
-1.5265444506
  0
LWPOLYLINE
  5
280
100
AcDbEntity
  8
RACCORDO
100
AcDbPolyline
 62
253
  6
CONTINUOUS
 90
63
 70
0
 10
-12.2044899181
 20
18.3770712884
 10
-12.2031910239
 20
18.4081562047
 10
-12.2013163466
 20
18.4394964208
 10
-12.1988665411
 20
18.4710748588
 10
-12.1958421321
 20
18.5028788863
 10
-12.1922447032
 20
18.5348865963
 10
-12.1880777267
 20
18.5670665519
 10
-12.1833447979
 20
18.5993951507
 10
-12.178048203
 20
18.6318602514
 10
-12.1721904864
 20
18.6644473143
 10
-12.1657750248
 20
18.6971387303
 10
-12.1588056092
 20
18.7299161828
 10
-12.1512855612
 20
18.7627640599
 10
-12.1432192358
 20
18.7956638612
 10
-12.1346110551
 20
18.828597981
 10
-12.1254645773
 20
18.8615521383
 10
-12.1157843857
 20
18.8945094661
 10
-12.1055760403
 20
18.9274506452
 10
-12.0948448094
 20
18.9603577132
 10
-12.0835957139
 20
18.9932149075
 10
-12.0718355924
 20
19.0260018318
 10
-12.0595731794
 20
19.0586936576
 10
-12.0468161797
 20
19.09127072
 10
-12.033571196
 20
19.1237169347
 10
-12.0198460956
 20
19.1560130246
 10
-12.0056493733
 20
19.1881399486
 10
-11.9909885414
 20
19.2200815839
 10
-11.9758703184
 20
19.251823158
 10
-11.9603032657
 20
19.2833471949
 10
-11.9442960532
 20
19.3146365952
 10
-11.9278556759
 20
19.3456772171
 10
-11.9109908052
 20
19.3764527965
 10
-11.8937111633
 20
19.4069456704
 10
-11.8760255127
 20
19.4371397188
 10
-11.8579430366
 20
19.4670192942
 10
-11.8394742618
 20
19.4965670023
 10
-11.8206303489
 20
19.5257644052
 10
-11.801422086
 20
19.5545950898
 10
-11.7818598709
 20
19.5830437189
 10
-11.7619546869
 20
19.6110938716
 10
-11.7417182811
 20
19.6387293712
 10
-11.721161308
 20
19.6659360188
 10
-11.7002933431
 20
19.6927006418
 10
-11.6791255942
 20
19.7190089894
 10
-11.6576701437
 20
19.7448461499
 10
-11.6359380479
 20
19.770198212
 10
-11.6139402191
 20
19.7950524785
 10
-11.5916899472
 20
19.81939395
 10
-11.5692021639
 20
19.8432058495
 10
-11.546490414
 20
19.866474295
 10
-11.5235664161
 20
19.8891877147
 10
-11.5004426468
 20
19.9113334721
 10
-11.4771335238
 20
19.9328982292
 10
-11.453650559
 20
19.953871805
 10
-11.4300019245
 20
19.974246457
 10
-11.4061991699
 20
19.9940121432
 10
-11.3822570093
 20
20.0131565173
 10
-11.3581884057
 20
20.0316685515
 10
-11.3340047563
 20
20.0495393465
 10
-11.3097214267
 20
20.066757449
 10
-11.2853575078
 20
20.0833090266
 10
-11.2609284645
 20
20.0991839899
 10
-11.2364460525
 20
20.1143754529
  0
LWPOLYLINE
  5
281
100
AcDbEntity
  8
RACCORDO
100
AcDbPolyline
 62
253
  6
CONTINUOUS
 90
23
 70
0
 10
-11.291690495
 20
17.9284681186
 10
-11.2872835036
 20
18.0070599776
 10
-11.2791134451
 20
18.0878110573
 10
-11.2671027328
 20
18.1704715025
 10
-11.251170989
 20
18.254852982
 10
-11.2312806589
 20
18.3405840568
 10
-11.2074744898
 20
18.4271068079
 10
-11.1797663681
 20
18.5141087759
 10
-11.14819679
 20
18.6012347916
 10
-11.1129437535
 20
18.6878470711
 10
-11.0741210767
 20
18.7735840306
 10
-11.0318469593
 20
18.8581098039
 10
-10.9863941557
 20
18.9408426918
 10
-10.9379427137
 20
19.0214534423
 10
-10.8866842065
 20
19.0996218904
 10
-10.8329771713
 20
19.1748283014
 10
-10.7770450943
 20
19.2468108918
 10
-10.7191348215
 20
19.3153008502
 10
-10.6596914656
 20
19.379848996
 10
-10.5989863454
 20
19.4402642896
 10
-10.5372700565
 20
19.4963974971
 10
-10.474984355
 20
19.5479654926
 10
-10.4124502316
 20
19.5948474187
  0
LWPOLYLINE
  5
282
100
AcDbEntity
  8
RACCORDO
100
AcDbPolyline
 62
7
  6
CONTINUOUS
 90
22
 70
0
 10
-11.3649268568
 20
18.0161379255
 10
-11.3593535104
 20
18.1082337632
 10
-11.3487539871
 20
18.2012718469
 10
-11.3332571901
 20
18.2948868554
 10
-11.3129914073
 20
18.38874466
 10
-11.2880960698
 20
18.4824775195
 10
-11.2587387686
 20
18.5756603879
 10
-11.2251001405
 20
18.6678882334
 10
-11.187333947
 20
18.7588582185
 10
-11.14558667
 20
18.848279512
 10
-11.1000329022
 20
18.935803728
 10
-11.0508542022
 20
19.0210869422
 10
-10.9982034628
 20
19.103843118
 10
-10.9422512856
 20
19.1837569257
 10
-10.8832051992
 20
19.2604714011
 10
-10.8212643803
 20
19.333657767
 10
-10.7565881769
 20
19.4030384175
 10
-10.6894167465
 20
19.4682530704
 10
-10.6200580454
 20
19.5289071423
 10
-10.548746917
 20
19.5847022873
 10
-10.4756622963
 20
19.6353884667
 10
-10.4010273363
 20
19.6806817101
  0
LWPOLYLINE
  5
283
100
AcDbEntity
  8
RACCORDO
100
AcDbPolyline
 62
253
  6
CONTINUOUS
 90
22
 70
0
 10
-11.6116245208
 20
18.0806385898
 10
-11.6058963436
 20
18.1744855645
 10
-11.5949193813
 20
18.2702104622
 10
-11.5787459998
 20
18.367340627
 10
-11.5574551481
 20
18.4653869401
 10
-11.5311496082
 20
18.5638737507
 10
-11.4999511631
 20
18.6623414543
 10
-11.4639995478
 20
18.7603213957
 10
-11.4234727314
 20
18.8573074963
 10
-11.3785856559
 20
18.9527877623
 10
-11.3295631558
 20
19.0462787622
 10
-11.2766421919
 20
19.1373259612
 10
-11.2200912426
 20
19.2254767519
 10
-11.1601819268
 20
19.3103014589
 10
-11.097214685
 20
19.3913701727
 10
-11.0315291615
 20
19.4682588816
 10
-10.9634644077
 20
19.5405758837
 10
-10.8933439313
 20
19.6079833256
 10
-10.8215021077
 20
19.6701724328
 10
-10.7482875474
 20
19.7268421026
 10
-10.674063064
 20
19.7777049866
 10
-10.5991926081
 20
19.8225097943
  0
LWPOLYLINE
  5
284
100
AcDbEntity
  8
RACCORDO
100
AcDbPolyline
 62
253
  6
CONTINUOUS
 90
22
 70
0
 10
-11.4708827366
 20
18.0767399722
 10
-11.4654776739
 20
18.1646921263
 10
-11.4552941268
 20
18.2536205863
 10
-11.4403320954
 20
18.3435253524
 10
-11.4204749746
 20
18.4348873834
 10
-11.3958393695
 20
18.5272257205
 10
-11.3667750952
 20
18.6190974862
 10
-11.3332110007
 20
18.7104798281
 10
-11.295218237
 20
18.8013955988
 10
-11.2533600717
 20
18.8904704787
 10
-11.2075775554
 20
18.9776707693
 10
-11.1579296375
 20
19.0630301692
 10
-11.1051564338
 20
19.1452754542
 10
-11.0492050756
 20
19.2243620891
 10
-10.9901284316
 20
19.300334609
 10
-10.9288252245
 20
19.3720533956
 10
-10.8652485331
 20
19.4394550467
 10
-10.7994452786
 20
19.5026029645
 10
-10.7324549466
 20
19.5605477371
 10
-10.6646240322
 20
19.6129728941
 10
-10.5956060402
 20
19.660194906
 10
-10.5254009707
 20
19.7022137727
  0
LWPOLYLINE
  5
285
100
AcDbEntity
  8
RACCORDO
100
AcDbPolyline
 62
253
  6
CONTINUOUS
 90
12
 70
0
 10
-6.1461744847
 20
23.2826662092
 10
-6.1378574434
 20
23.3070739262
 10
-6.1278578786
 20
23.3311461498
 10
-6.116306266
 20
23.3545803672
 10
-6.1033135733
 20
23.3771614681
 10
-6.0890154544
 20
23.3986519594
 10
-6.0735621437
 20
23.4188211658
 10
-6.0571254992
 20
23.4374402733
 10
-6.0398922049
 20
23.454296466
 10
-6.022053739
 20
23.4692033924
 10
-6.0038030087
 20
23.4820007522
 10
-5.9853398426
 20
23.4925487867
  0
LWPOLYLINE
  5
286
100
AcDbEntity
  8
RACCORDO
100
AcDbPolyline
 62
7
  6
CONTINUOUS
 90
12
 70
0
 10
5.9409883198
 20
17.4793711887
 10
5.9201015388
 20
17.4673607887
 10
5.8991364132
 20
17.4523408998
 10
5.8797915951
 20
17.435203074
 10
5.862254095
 20
17.4160805847
 10
5.846729605
 20
17.3951478502
 10
5.8334228516
 20
17.3726250811
 10
5.8225035934
 20
17.3487366648
 10
5.8141196706
 20
17.3237219279
 10
5.808401824
 20
17.2978624129
 10
5.8054475919
 20
17.2714735026
 10
5.8050220986
 20
17.2569399944
  0
LINE
  5
287
100
AcDbEntity
  8
RACCORDO
100
AcDbLine
 62
7
  6
CONTINUOUS
 10
4.7376154339
 20
17.9157801994
 11
4.3799362847
 21
17.7161842475
  0
LINE
  5
288
100
AcDbEntity
  8
RACCORDO
100
AcDbLine
 62
7
  6
CONTINUOUS
 10
7.5236646313
 20
18.2913141436
 11
5.9409079759
 21
17.4793300195
  0
LINE
  5
289
100
AcDbEntity
  8
RACCORDO
100
AcDbLine
 62
253
  6
CONTINUOUS
 10
7.6367502452
 20
18.2848661417
 11
6.053993642
 21
17.4728820443
  0
LINE
  5
28A
100
AcDbEntity
  8
RACCORDO
100
AcDbLine
 62
253
  6
CONTINUOUS
 10
5.9409883198
 20
17.4793711887
 11
5.9409084794
 21
17.4793302778
  0
LINE
  5
28B
100
AcDbEntity
  8
RACCORDO
100
AcDbLine
 62
7
  6
CONTINUOUS
 10
7.5254024691
 20
18.2921831063
 11
7.5236646346
 21
18.2913141453
  0
LINE
  5
28C
100
AcDbEntity
  8
DRAFT
100
AcDbLine
 62
7
  6
CONTINUOUS
 10
4.7376154339
 20
17.9157801994
 11
10.0624495042
 21
20.5521116313
  0
LINE
  5
28D
100
AcDbEntity
  8
RACCORDO
100
AcDbLine
 62
7
  6
CONTINUOUS
 10
8.0606880128
 20
18.5529483993
 11
7.5254419797
 21
18.2922131007
  0
LINE
  5
28E
100
AcDbEntity
  8
RACCORDO
100
AcDbLine
 62
253
  6
CONTINUOUS
 10
8.1712001239
 20
18.5452136083
 11
7.6367502452
 21
18.2848661417
  0
LINE
  5
28F
100
AcDbEntity
  8
RACCORDO
100
AcDbLine
 62
7
  6
CONTINUOUS
 10
13.8918702885
 20
20.3402483319
 11
9.2083334089
 21
18.0886243366
  0
LINE
  5
290
100
AcDbEntity
  8
RACCORDO
100
AcDbLine
 62
7
  6
CONTINUOUS
 10
14.1564346247
 20
-15.550434547
 11
14.1255911262
 21
-15.5464999447
  0
LINE
  5
291
100
AcDbEntity
  8
0
100
AcDbLine
 62
7
  6
CONTINUOUS
 10
-14.0428590126
 20
-7.7418830693
 11
-15.0328085063
 21
-7.2469083225
  0
LINE
  5
292
100
AcDbEntity
  8
0
100
AcDbLine
 62
7
  6
CONTINUOUS
 10
-10.3659037505
 20
-9.2772518091
 11
-10.719457141
 21
-9.1004751138
  0
LWPOLYLINE
  5
293
100
AcDbEntity
  8
RACCORDO
100
AcDbPolyline
 62
253
  6
CONTINUOUS
 90
9
 70
0
 10
-4.9477286383
 20
-11.9468439937
 10
-5.3054735651
 20
-11.7571879177
 10
-5.6623942426
 20
-11.546383376
 10
-6.0175988377
 20
-11.3150091778
 10
-6.3702322411
 20
-11.0636938985
 10
-6.7193936089
 20
-10.7931130526
 10
-7.0641397318
 20
-10.5039935195
 10
-7.4035775026
 20
-10.1971667096
 10
-7.5533700154
 20
-10.0516799772
  0
LWPOLYLINE
  5
294
100
AcDbEntity
  8
RACCORDO
100
AcDbPolyline
 62
253
  6
CONTINUOUS
 90
9
 70
0
 10
-5.0178075849
 20
-12.0702468331
 10
-5.3803453989
 20
-11.8777907623
 10
-5.7403376092
 20
-11.6651941448
 10
-6.0977801317
 20
-11.4324548371
 10
-6.4535686192
 20
-11.1788214105
 10
-6.8067910911
 20
-10.9050367314
 10
-7.1547284945
 20
-10.6133382583
 10
-7.4972414863
 20
-10.3036669874
 10
-7.6875529282
 20
-10.1187714336
  0
LWPOLYLINE
  5
295
100
AcDbEntity
  8
ASSI
100
AcDbPolyline
 62
7
  6
CONTINUOUS
 90
13
 70
0
 10
-11.8793939239
 20
-8.8669168838
 10
-11.816921205
 20
-8.9083119916
 10
-11.7615042799
 20
-8.9580732721
 10
-11.7131431488
 20
-9.0162007252
 10
-11.6703842382
 20
-9.0858714509
 10
-11.6346811215
 20
-9.1639083493
 10
-11.6103945191
 20
-9.2407801208
 10
-11.5989780047
 20
-9.3163384192
 10
-11.5989780047
 20
-9.3907315907
 10
-11.6103945191
 20
-9.4548733747
 10
-11.6346811215
 20
-9.5074585439
 10
-11.6703842382
 20
-9.5497923256
 10
-11.7011817712
 20
-9.5712677727
  0
LWPOLYLINE
  5
296
100
AcDbEntity
  8
ASSI
100
AcDbPolyline
 62
7
  6
CONTINUOUS
 90
13
 70
0
 10
-11.8793939239
 20
-6.615250834
 10
-11.9418666429
 20
-6.5738557262
 10
-11.9972835679
 20
-6.5240944458
 10
-12.045644699
 20
-6.4659669926
 10
-12.0884036097
 20
-6.3962962669
 10
-12.1241067264
 20
-6.3182593685
 10
-12.1483933287
 20
-6.241387597
 10
-12.1598098431
 20
-6.1658292986
 10
-12.1598098431
 20
-6.0914361271
 10
-12.1483933287
 20
-6.0272943432
 10
-12.1241067264
 20
-5.9747091739
 10
-12.0884036097
 20
-5.9323753923
 10
-12.0576060767
 20
-5.9108999451
  0
LWPOLYLINE
  5
297
100
AcDbEntity
  8
RACCORDO
100
AcDbPolyline
 62
7
  6
CONTINUOUS
 90
8
 70
0
 10
5.8786409139
 20
-24.8998297708
 10
5.8606085208
 20
-24.8798314708
 10
5.8447947722
 20
-24.8579524356
 10
5.8313363077
 20
-24.834303738
 10
5.8204433775
 20
-24.8091039285
 10
5.8123616946
 20
-24.7827910392
 10
5.8072227672
 20
-24.7557567677
 10
5.8050832422
 20
-24.7281863953
  0
LINE
  5
298
100
AcDbEntity
  8
0
100
AcDbLine
 62
7
  6
CONTINUOUS
 10
-10.4501018958
 20
-7.0625842002
 11
-10.3035238766
 21
-7.5496806759
  0
LWPOLYLINE
  5
299
100
AcDbEntity
  8
RACCORDO
100
AcDbPolyline
 62
253
  6
CONTINUOUS
 90
23
 70
0
 10
-12.1768785561
 20
-1.2948977589
 10
-12.1814701202
 20
-1.2652933627
 10
-12.2358002002
 20
-0.804407557
 10
-12.2720519048
 20
-0.3509991911
 10
-12.2901193096
 20
0.0945483284
 10
-12.290102933
 20
0.5326202344
 10
-12.2720059538
 20
0.9607879245
 10
-12.2357299771
 20
1.3793254508
 10
-12.181378906
 20
1.7879551308
 10
-12.1092737398
 20
2.1834136153
 10
-12.0192674521
 20
2.5655801666
 10
-11.9115295461
 20
2.9345635732
 10
-11.7868718517
 20
3.2874368854
 10
-11.645192705
 20
3.6240140017
 10
-11.4866306484
 20
3.9444621897
 10
-11.3123717607
 20
4.2463777719
 10
-11.1223207706
 20
4.5296128065
 10
-10.9166199335
 20
4.7942917388
 10
-10.6968228465
 20
5.0384140711
 10
-10.4628336668
 20
5.2618150174
 10
-10.214801291
 20
5.4646332254
 10
-9.9546549538
 20
5.645319292
 10
-9.6823568079
 20
5.803671183
  0
LWPOLYLINE
  5
29A
100
AcDbEntity
  8
RACCORDO
100
AcDbPolyline
 62
253
  6
CONTINUOUS
 90
23
 70
0
 10
-12.0442974812
 20
-1.2286072214
 10
-12.0955914293
 20
-0.7939139597
 10
-12.1314399307
 20
-0.3447411381
 10
-12.1493339523
 20
0.0966792074
 10
-12.1493240152
 20
0.5296251154
 10
-12.1314112061
 20
0.9538360604
 10
-12.0955477902
 20
1.3685543232
 10
-12.0417895201
 20
1.7723965516
 10
-11.9702816349
 20
2.1641594525
 10
-11.8811620187
 20
2.5428585275
 10
-11.7746321221
 20
2.9075316371
 10
-11.6510391659
 20
3.2570872505
 10
-11.510691037
 20
3.5906165543
 10
-11.3539181737
 20
3.907333005
 10
-11.1811837123
 20
4.2064060771
 10
-10.9928968523
 20
4.4870980768
 10
-10.7895210683
 20
4.7487036069
 10
-10.5716604474
 20
4.9905119311
 10
-10.3398297586
 20
5.2119370511
 10
-10.0946090325
 20
5.4124147303
 10
-9.8367623347
 20
5.591359381
 10
-9.566954931
 20
5.7483277634
 10
-9.4485796673
 20
5.8084135196
  0
LWPOLYLINE
  5
29B
100
AcDbEntity
  8
RACCORDO
100
AcDbPolyline
 62
253
  6
CONTINUOUS
 90
9
 70
0
 10
-12.3509748684
 20
18.5520304915
 10
-12.3501036918
 20
18.5340082753
 10
-12.3442848335
 20
18.5094778605
 10
-12.3331831953
 20
18.4852304478
 10
-12.3169177255
 20
18.4615258363
 10
-12.2956627007
 20
18.4386180091
 10
-12.2696458577
 20
18.4167524125
 10
-12.2391459542
 20
18.3961633253
 10
-12.2044897816
 20
18.3770713498
  0
LWPOLYLINE
  5
29C
100
AcDbEntity
  8
RACCORDO
100
AcDbPolyline
 62
253
  6
CONTINUOUS
 90
9
 70
0
 10
-11.3649268568
 20
18.0161379255
 10
-11.3646094812
 20
18.0080127653
 10
-11.3618644129
 20
17.9955907825
 10
-11.3564153236
 20
17.9833035936
 10
-11.34832191
 20
17.9712858211
 10
-11.3376728442
 20
17.9596691385
 10
-11.324584799
 20
17.9485808229
 10
-11.3092011676
 20
17.9381423604
 10
-11.291690495
 20
17.9284681184
  0
LWPOLYLINE
  5
29D
100
AcDbEntity
  8
RACCORDO
100
AcDbPolyline
 62
7
  6
CONTINUOUS
 90
4
 70
0
 10
-11.4912896143
 20
13.6688835487
 10
-11.4904985531
 20
13.6428395884
 10
-11.487420581
 20
13.6171168867
 10
-11.4820862652
 20
13.5924580792
  0
LINE
  5
29E
100
AcDbEntity
  8
0
100
AcDbLine
 62
7
  6
CONTINUOUS
 10
-10.719457141
 20
-9.1004751138
 11
-10.719457141
 21
-7.5416293869
  0
LWPOLYLINE
  5
29F
100
AcDbEntity
  8
RACCORDO
100
AcDbPolyline
 62
253
  6
CONTINUOUS
 90
7
 70
0
 10
-11.6014664125
 20
13.6170922892
 10
-11.5822610249
 20
14.3591229474
 10
-11.5620322139
 20
15.1016511879
 10
-11.5407799796
 20
15.8446770107
 10
-11.5185043219
 20
16.5882004156
 10
-11.4952052409
 20
17.3322214028
 10
-11.4708827366
 20
18.0767399722
  0
LINE
  5
2A0
100
AcDbEntity
  8
RACCORDO
100
AcDbLine
 62
7
  6
CONTINUOUS
 10
-11.4670571115
 20
14.6018853361
 11
-11.4912950048
 21
13.6688849127
  0
LINE
  5
2A1
100
AcDbEntity
  8
RACCORDO
100
AcDbLine
 62
253
  6
CONTINUOUS
 10
-11.417505463
 20
13.6032427852
 11
-11.3925089424
 21
14.5630558255
  0
LINE
  5
2A2
100
AcDbEntity
  8
RACCORDO
100
AcDbLine
 62
7
  6
CONTINUOUS
 10
-11.4400550211
 20
15.576396076
 11
-11.4670571115
 21
14.6018853361
  0
LINE
  5
2A3
100
AcDbEntity
  8
RACCORDO
100
AcDbLine
 62
253
  6
CONTINUOUS
 10
-11.3925089424
 20
14.5630558255
 11
-11.3658195726
 21
15.5236413005
  0
LINE
  5
2A4
100
AcDbEntity
  8
RACCORDO
100
AcDbLine
 62
7
  6
CONTINUOUS
 10
-11.4113104719
 20
16.5517012145
 11
-11.4400550211
 21
15.576396076
  0
LINE
  5
2A5
100
AcDbEntity
  8
RACCORDO
100
AcDbLine
 62
253
  6
CONTINUOUS
 10
-11.3658195726
 20
15.5236413005
 11
-11.33743747
 21
16.4849958006
  0
LWPOLYLINE
  5
2A6
100
AcDbEntity
  8
RACCORDO
100
AcDbPolyline
 62
253
  6
CONTINUOUS
 90
3
 70
0
 10
-11.33743747
 20
16.4849958006
 10
-11.3073626348
 20
17.447119532
 10
-11.291690495
 20
17.9284681186
  0
LWPOLYLINE
  5
2A7
100
AcDbEntity
  8
RACCORDO
100
AcDbPolyline
 62
7
  6
CONTINUOUS
 90
3
 70
0
 10
-11.3649268568
 20
18.0161379254
 10
-11.3808236086
 20
17.5277959568
 10
-11.4113104719
 20
16.5517012145
  0
LINE
  5
2A8
100
AcDbEntity
  8
RACCORDO
100
AcDbLine
 62
253
  6
CONTINUOUS
 10
4.5961940777
 20
14.2257903666
 11
2.7233297645
 21
13.1691462436
  0
LINE
  5
2A9
100
AcDbEntity
  8
RACCORDO
100
AcDbLine
 62
7
  6
CONTINUOUS
 10
14.7734057471
 20
19.6063901406
 11
9.2818624188
 21
16.6435765297
  0
LINE
  5
2AA
100
AcDbEntity
  8
RACCORDO
100
AcDbLine
 62
7
  6
CONTINUOUS
 10
14.7734057471
 20
19.1090601836
 11
9.41525441
 21
16.2765098033
  0
LINE
  5
2AB
100
AcDbEntity
  8
RACCORDO
100
AcDbLine
 62
253
  6
CONTINUOUS
 10
8.9802591127
 20
17.6131117079
 11
7.3789783219
 21
16.8103897044
  0
LINE
  5
2AC
100
AcDbEntity
  8
RACCORDO
100
AcDbLine
 62
253
  6
CONTINUOUS
 10
9.1570328164
 20
17.3082221691
 11
7.5557520255
 21
16.5055001656
  0
LINE
  5
2AD
100
AcDbEntity
  8
RACCORDO
100
AcDbLine
 62
253
  6
CONTINUOUS
 10
9.5085262844
 20
17.876550528
 11
8.9802591127
 21
17.6131117079
  0
LINE
  5
2AE
100
AcDbEntity
  8
RACCORDO
100
AcDbLine
 62
253
  6
CONTINUOUS
 10
9.6852999881
 20
17.5716609892
 11
9.1570328164
 21
17.3082221691
  0
LINE
  5
2AF
100
AcDbEntity
  8
RACCORDO
100
AcDbLine
 62
253
  6
CONTINUOUS
 10
9.8993979975
 20
16.0344380096
 11
9.1799486215
 21
15.6946136056
  0
LWPOLYLINE
  5
2B0
100
AcDbEntity
  8
DRAFT
100
AcDbPolyline
 62
7
  6
CONTINUOUS
 90
10
 70
0
 10
0.7603809334
 20
-11.2585828472
 10
0.4977439135
 20
-11.2723658541
 10
0.1676708591
 20
-11.2659843992
 10
-0.1677259004
 20
-11.236349922
 10
-0.5086442666
 20
-11.1832849505
 10
-0.8548863379
 20
-11.1069669568
 10
-1.2036930257
 20
-11.0079857703
 10
-1.5541446339
 20
-10.8865380007
 10
-1.9071608586
 20
-10.7424270383
 10
-2.2627416998
 20
-10.5756528831
  0
LINE
  5
2B1
100
AcDbEntity
  8
RACCORDO
100
AcDbLine
 62
7
  6
CONTINUOUS
 10
14.1866393343
 20
-15.5577281337
 11
14.1564346247
 21
-15.550434547
  0
LWPOLYLINE
  5
2B2
100
AcDbEntity
  8
RACCORDO
100
AcDbPolyline
 62
253
  6
CONTINUOUS
 90
3
 70
0
 10
14.2242210967
 20
-15.5723924235
 10
14.2057315088
 20
-15.5673766742
 10
14.1856587821
 20
-15.5668334949
  0
LWPOLYLINE
  5
2B3
100
AcDbEntity
  8
RACCORDO
100
AcDbPolyline
 62
253
  6
CONTINUOUS
 90
3
 70
0
 10
14.2289490873
 20
-15.5747562
 10
14.2103529832
 20
-15.5696867602
 10
14.1901751263
 20
-15.5690913063
  0
LINE
  5
2B4
100
AcDbEntity
  8
0
100
AcDbLine
 62
7
  6
CONTINUOUS
 10
-10.719457141
 20
-7.5416293869
 11
-10.3659037505
 21
-7.7184060822
  0
LINE
  5
2B5
100
AcDbEntity
  8
0
100
AcDbLine
 62
7
  6
CONTINUOUS
 10
-15.0328085063
 20
-5.081844813
 11
-14.0428590126
 21
-5.5768195598
  0
LINE
  5
2B6
100
AcDbEntity
  8
0
100
AcDbLine
 62
7
  6
CONTINUOUS
 10
-14.0428590126
 20
-4.4942878051
 11
-14.9164776333
 21
-4.0574784948
  0
LWPOLYLINE
  5
2B7
100
AcDbEntity
  8
DRAFT
100
AcDbPolyline
 62
7
  6
CONTINUOUS
 90
8
 70
0
 10
-2.2627416998
 20
-10.5756528831
 10
-2.618322541
 20
-10.3868461971
 10
-2.9713387657
 20
-10.1779409348
 10
-3.3217903739
 20
-9.9489370962
 10
-3.6705970617
 20
-9.6991115949
 10
-4.016839133
 20
-9.4291875173
 10
-4.3577574992
 20
-9.1413341226
 10
-4.4091456214
 20
-9.094486474
  0
LWPOLYLINE
  5
2B8
100
AcDbEntity
  8
ASSI
100
AcDbPolyline
 62
7
  6
CONTINUOUS
 90
13
 70
0
 10
-13.2228968082
 20
-5.2506790688
 10
-13.2853695272
 20
-5.2092839611
 10
-13.3407864522
 20
-5.1595226806
 10
-13.3891475833
 20
-5.1013952275
 10
-13.431906494
 20
-5.0317245018
 10
-13.4676096107
 20
-4.9536876034
 10
-13.491896213
 20
-4.8768158319
 10
-13.5033127274
 20
-4.8012575335
 10
-13.5033127274
 20
-4.726864362
 10
-13.491896213
 20
-4.662722578
 10
-13.4676096107
 20
-4.6101374088
 10
-13.431906494
 20
-4.5678036271
 10
-13.4011089609
 20
-4.5463281799
  0
LWPOLYLINE
  5
2B9
100
AcDbEntity
  8
ASSI
100
AcDbPolyline
 62
7
  6
CONTINUOUS
 90
13
 70
0
 10
-11.8793939239
 20
-5.922430511
 10
-11.816921205
 20
-5.9638256187
 10
-11.7615042799
 20
-6.0135868992
 10
-11.7131431488
 20
-6.0717143523
 10
-11.6703842382
 20
-6.141385078
 10
-11.6346811215
 20
-6.2194219764
 10
-11.6103945191
 20
-6.2962937479
 10
-11.5989780047
 20
-6.3718520463
 10
-11.5989780047
 20
-6.4462452178
 10
-11.6103945191
 20
-6.5103870018
 10
-11.6346811215
 20
-6.562972171
 10
-11.6703842382
 20
-6.6053059527
 10
-11.7011817712
 20
-6.6267813999
  0
LWPOLYLINE
  5
2BA
100
AcDbEntity
  8
ASSI
100
AcDbPolyline
 62
7
  6
CONTINUOUS
 90
13
 70
0
 10
-13.2228968082
 20
-4.5578587458
 10
-13.1604240892
 20
-4.5992538536
 10
-13.1050071642
 20
-4.649015134
 10
-13.0566460331
 20
-4.7071425872
 10
-13.0138871224
 20
-4.7768133129
 10
-12.9781840057
 20
-4.8548502113
 10
-12.9538974034
 20
-4.9317219828
 10
-12.942480889
 20
-5.0072802812
 10
-12.942480889
 20
-5.0816734527
 10
-12.9538974034
 20
-5.1458152366
 10
-12.9781840057
 20
-5.1984004059
 10
-13.0138871224
 20
-5.2407341875
 10
-13.0446846554
 20
-5.2622096347
  0
LWPOLYLINE
  5
2BB
100
AcDbEntity
  8
RACCORDO
100
AcDbPolyline
 62
7
  6
CONTINUOUS
 90
4
 70
0
 10
9.6780889445
 20
-23.8048489876
 10
9.6583949576
 20
-23.7882780236
 10
9.6371594889
 20
-23.7738549032
 10
9.6191700244
 20
-23.7639297555
  0
LINE
  5
2BC
100
AcDbEntity
  8
0
100
AcDbLine
 62
7
  6
CONTINUOUS
 10
-10.0441747755
 20
-7.4203417861
 11
-9.935210745
 21
-7.85899046
  0
LWPOLYLINE
  5
2BD
100
AcDbEntity
  8
0
100
AcDbPolyline
 62
7
  6
CONTINUOUS
 90
4
 70
0
 10
-10.3035238766
 20
-7.5496806759
 10
-10.1994862178
 20
-8.0281337713
 10
-10.1355205826
 20
-8.504413788
 10
-10.111626971
 20
-8.978520726
  0
LWPOLYLINE
  5
2BE
100
AcDbEntity
  8
0
100
AcDbPolyline
 62
7
  6
CONTINUOUS
 90
4
 70
0
 10
-9.935210745
 20
-7.85899046
 10
-9.8577193219
 20
-8.2894441
 10
-9.8104587134
 20
-8.7156538639
 10
-9.7934289194
 20
-9.1376197518
  0
LWPOLYLINE
  5
2BF
100
AcDbEntity
  8
DRAFT
100
AcDbPolyline
 62
7
  6
CONTINUOUS
 90
17
 70
0
 10
-9.3275384068
 20
0.7446910096
 10
-9.3493594293
 20
1.0218664396
 10
-9.3669758261
 20
1.4631880568
 10
-9.3669758261
 20
1.8968509193
 10
-9.3493594293
 20
2.3205561397
 10
-9.3139588725
 20
2.7348212464
 10
-9.260941919
 20
3.1391287109
 10
-9.1908118583
 20
3.5296270612
 10
-9.1035483456
 20
3.9056811884
 10
-8.9991717257
 20
4.2679262012
 10
-8.8782463227
 20
4.6144159537
 10
-8.7404798104
 20
4.9454880081
 10
-8.5861645148
 20
5.2608048021
 10
-8.4167417386
 20
5.5574075028
 10
-8.2323169077
 20
5.8347916825
 10
-8.032784596
 20
6.0934617689
 10
-7.9423979342
 20
6.1944297858
  0
LINE
  5
2C0
100
AcDbEntity
  8
RACCORDO
100
AcDbLine
 62
7
  6
CONTINUOUS
 10
-8.6334906406
 20
20.6779014491
 11
-8.6334906406
 21
20.7521852073
  0
LWPOLYLINE
  5
2C1
100
AcDbEntity
  8
RACCORDO
100
AcDbPolyline
 62
253
  6
CONTINUOUS
 90
16
 70
0
 10
-7.4860727784
 20
23.8506643116
 10
-7.4851418691
 20
23.8733196128
 10
-7.4823417107
 20
23.8967770613
 10
-7.4776763571
 20
23.9207952528
 10
-7.4711591645
 20
23.9451585491
 10
-7.4628421232
 20
23.9695662662
 10
-7.4528425585
 20
23.9936384897
 10
-7.4412909458
 20
24.0170727071
 10
-7.4282982531
 20
24.039653808
 10
-7.4140001343
 20
24.0611442993
 10
-7.3985468236
 20
24.0813135057
 10
-7.382110179
 20
24.0999326132
 10
-7.3648768847
 20
24.1167888059
 10
-7.3470384188
 20
24.1316957323
 10
-7.3287876885
 20
24.1444930921
 10
-7.3103245224
 20
24.1550411266
  0
LWPOLYLINE
  5
2C2
100
AcDbEntity
  8
0
100
AcDbPolyline
 62
7
  6
CONTINUOUS
 90
11
 70
0
 10
-9.7934289194
 20
-9.1376197518
 10
-9.8104587134
 20
-9.5425558456
 10
-9.8577193219
 20
-9.921505001
 10
-9.935210745
 20
-10.2744672179
 10
-10.0441747755
 20
-10.6041518614
 10
-10.1833696205
 20
-10.9078495664
 10
-10.3490699014
 20
-11.1774322379
 10
-10.5419913892
 20
-11.4119786101
 10
-10.7614183128
 20
-11.6124099487
 10
-11.0014779811
 20
-11.7733619559
 10
-11.0791762696
 20
-11.8144672836
  0
LWPOLYLINE
  5
2C3
100
AcDbEntity
  8
SMUSSO
100
AcDbPolyline
 62
7
  6
CONTINUOUS
 90
10
 70
0
 10
-8.4903396412
 20
1.1632903923
 10
-8.4898695383
 20
1.1739007237
 10
-8.3980738075
 20
1.8293444426
 10
-8.2455805485
 20
2.4411943334
 10
-8.0327587209
 20
3.0034714437
 10
-7.7617336072
 20
3.5073197602
 10
-7.4366219602
 20
3.9443692892
 10
-7.0608109199
 20
4.3101752936
 10
-6.6391124494
 20
4.6001369393
 10
-6.5038007957
 20
4.6721345953
  0
LINE
  5
2C4
100
AcDbEntity
  8
0
100
AcDbLine
 62
7
  6
CONTINUOUS
 10
-10.111626971
 20
-8.978520726
 11
-10.1355205826
 21
-9.4287340524
  0
LWPOLYLINE
  5
2C5
100
AcDbEntity
  8
RACCORDO
100
AcDbPolyline
 62
7
  6
CONTINUOUS
 90
10
 70
0
 10
-7.5592960831
 20
23.9390526592
 10
-7.5572475341
 20
23.9709870968
 10
-7.5510504448
 20
24.0027288317
 10
-7.5407117961
 20
24.0336400144
 10
-7.5263371226
 20
24.0631218829
 10
-7.5081789873
 20
24.090530662
 10
-7.4866156751
 20
24.1152847854
 10
-7.4618793876
 20
24.1370887892
 10
-7.4344882421
 20
24.155447951
 10
-7.4234227864
 20
24.1614826375
  0
LWPOLYLINE
  5
2C6
100
AcDbEntity
  8
SMUSSO
100
AcDbPolyline
 62
7
  6
CONTINUOUS
 90
12
 70
0
 10
-8.4328809356
 20
1.1920197452
 10
-8.405062912
 20
1.3911127752
 10
-8.263156025
 20
1.9616151963
 10
-8.0632461524
 20
2.484320066
 10
-7.8078023719
 20
2.9593576975
 10
-7.5058701994
 20
3.3680303294
 10
-7.1544489032
 20
3.7067967018
 10
-6.756539215
 20
3.9791980747
 10
-6.3301888448
 20
4.1771604669
 10
-5.8746290731
 20
4.2959431841
 10
-5.3906286195
 20
4.3402869205
 10
-4.8985413534
 20
4.3163397778
  0
LWPOLYLINE
  5
2C7
100
AcDbEntity
  8
0
100
AcDbPolyline
 62
7
  6
CONTINUOUS
 90
8
 70
0
 10
-10.1355205826
 20
-9.4287340524
 10
-10.1994862178
 20
-9.8410484339
 10
-10.3035238766
 20
-10.2154638705
 10
-10.4501018958
 20
-10.5559823269
 10
-10.6367519387
 20
-10.8586018385
 10
-10.8560689944
 20
-11.1113165108
 10
-11.1093664377
 20
-11.3121199237
 10
-11.2821689746
 20
-11.4112516297
  0
LWPOLYLINE
  5
2C8
100
AcDbEntity
  8
RACCORDO
100
AcDbPolyline
 62
253
  6
CONTINUOUS
 90
8
 70
0
 10
-3.6071469261
 20
23.9878413478
 10
-3.609797382
 20
23.9749279575
 10
-3.6151562912
 20
23.9621514325
 10
-3.6231510453
 20
23.9497239547
 10
-3.6336759594
 20
23.9377994209
 10
-3.6465975088
 20
23.9265106695
 10
-3.6617696068
 20
23.9159703633
 10
-3.6790181763
 20
23.9062885546
  0
LWPOLYLINE
  5
2C9
100
AcDbEntity
  8
RACCORDO
100
AcDbPolyline
 62
253
  6
CONTINUOUS
 90
20
 70
0
 10
2.9499122536
 20
12.9657173278
 10
2.8768851712
 20
12.9142557433
 10
2.8048459562
 20
12.8569984008
 10
2.7341629143
 20
12.7942299028
 10
2.6651791639
 20
12.7262540978
 10
2.598212604
 20
12.6533879988
 10
2.5335864014
 20
12.5759696295
 10
2.4716399483
 20
12.4943905213
 10
2.4126974353
 20
12.4090824129
 10
2.3570583779
 20
12.3204756763
 10
2.3049953199
 20
12.2289995244
 10
2.2567640607
 20
12.135112904
 10
2.2126005867
 20
12.0392708373
 10
2.1727307069
 20
11.9419562683
 10
2.1373596076
 20
11.8436860689
 10
2.1066640148
 20
11.7449669392
 10
2.0807849065
 20
11.6462669128
 10
2.0598380392
 20
11.5480486075
 10
2.0439241862
 20
11.4507886784
 10
2.0331243053
 20
11.3549752401
  0
LWPOLYLINE
  5
2CA
100
AcDbEntity
  8
RACCORDO
100
AcDbPolyline
 62
7
  6
CONTINUOUS
 90
20
 70
0
 10
2.9559738297
 20
13.0006041625
 10
2.8769698882
 20
12.9495936146
 10
2.799239675
 20
12.8920229472
 10
2.7231829695
 20
12.8282145085
 10
2.6491710124
 20
12.758551223
 10
2.5776039597
 20
12.6834743086
 10
2.5088375292
 20
12.6033998184
 10
2.4431824012
 20
12.5187628541
 10
2.3809855996
 20
12.4300558039
 10
2.3225777528
 20
12.3377662083
 10
2.2682259237
 20
12.2423802423
 10
2.2181934374
 20
12.1443907277
 10
2.1727458445
 20
12.0443035576
 10
2.1321051106
 20
11.9426530978
 10
2.0964801775
 20
11.8399665618
 10
2.066082537
 20
11.7367918401
 10
2.0410608592
 20
11.6336286269
 10
2.0215491842
 20
11.5309173297
 10
2.0076959393
 20
11.4291514227
 10
1.9996021888
 20
11.3289258953
  0
LINE
  5
2CB
100
AcDbEntity
  8
RACCORDO
100
AcDbLine
 62
253
  6
CONTINUOUS
 10
3.0235632528
 20
13.0111318639
 11
2.9499122536
 21
12.9657173278
  0
LWPOLYLINE
  5
2CC
100
AcDbEntity
  8
RACCORDO
100
AcDbPolyline
 62
253
  6
CONTINUOUS
 90
25
 70
0
 10
2.7233297645
 20
13.1691462436
 10
2.660910133
 20
13.1316622136
 10
2.5983145423
 20
13.0894650318
 10
2.5357804189
 20
13.0425831057
 10
2.4734947173
 20
12.9910151101
 10
2.4117784285
 20
12.9348819027
 10
2.3510733082
 20
12.8744666091
 10
2.2916299523
 20
12.8099184633
 10
2.2337196795
 20
12.7414285049
 10
2.1777876025
 20
12.6694459144
 10
2.1240805674
 20
12.5942395035
 10
2.0728220602
 20
12.5160710553
 10
2.0243706181
 20
12.4354603049
 10
1.9789178145
 20
12.352727417
 10
1.9366436972
 20
12.2682016437
 10
1.8978210204
 20
12.1824646841
 10
1.8625679838
 20
12.0958524047
 10
1.8309984057
 20
12.008726389
 10
1.803290284
 20
11.921724421
 10
1.7794841149
 20
11.8352016699
 10
1.7595937848
 20
11.7494705951
 10
1.743662041
 20
11.6650891156
 10
1.7316513288
 20
11.5824286704
 10
1.7234812703
 20
11.5016775907
 10
1.7190742788
 20
11.4230857317
  0
LINE
  5
2CD
100
AcDbEntity
  8
RACCORDO
100
AcDbLine
 62
7
  6
CONTINUOUS
 10
2.977545769
 20
13.0132529513
 11
2.9559738297
 21
13.0006041625
  0
LINE
  5
2CE
100
AcDbEntity
  8
RACCORDO
100
AcDbLine
 62
7
  6
CONTINUOUS
 10
4.8392019923
 20
14.081025111
 11
2.9775110859
 21
13.0132431119
  0
LINE
  5
2CF
100
AcDbEntity
  8
RACCORDO
100
AcDbLine
 62
253
  6
CONTINUOUS
 10
4.8857950973
 20
14.0792241207
 11
3.0235632528
 21
13.0111318639
  0
LWPOLYLINE
  5
2D0
100
AcDbEntity
  8
RACCORDO
100
AcDbPolyline
 62
253
  6
CONTINUOUS
 90
67
 70
0
 10
3.6362945527
 20
12.7047662139
 10
3.6123248176
 20
12.6912106048
 10
3.5883955657
 20
12.677025453
 10
3.5645186483
 20
12.6622179394
 10
3.5407057623
 20
12.6467956288
 10
3.5169688292
 20
12.6307662495
 10
3.4933199894
 20
12.6141376871
 10
3.4697709495
 20
12.5969183405
 10
3.4463333773
 20
12.5791169109
 10
3.4230192812
 20
12.5607421783
 10
3.3998402051
 20
12.5418034121
 10
3.3768076304
 20
12.5223101761
 10
3.3539333702
 20
12.5022721157
 10
3.3312287624
 20
12.4816993449
 10
3.3087050406
 20
12.4606022339
 10
3.2863737359
 20
12.4389912134
 10
3.2642459232
 20
12.4168771877
 10
3.2423325445
 20
12.3942712915
 10
3.2206447816
 20
12.3711846742
 10
3.1991933615
 20
12.3476289404
 10
3.1779889238
 20
12.3236159743
 10
3.157042346
 20
12.2991576937
 10
3.1363639932
 20
12.2742663927
 10
3.1159641166
 20
12.2489546198
 10
3.0958532207
 20
12.2232350013
 10
3.0760412684
 20
12.1971204796
 10
3.0565380655
 20
12.1706242013
 10
3.0373536548
 20
12.1437594001
 10
3.0184975566
 20
12.1165396187
 10
2.9999790808
 20
12.0889785307
 10
2.9818077085
 20
12.0610898337
 10
2.9639924553
 20
12.0328875765
 10
2.9465421182
 20
12.0043859232
 10
2.929465589
 20
11.975598976
 10
2.9127713297
 20
11.9465412035
 10
2.8964675994
 20
11.9172272156
 10
2.880562709
 20
11.8876715235
 10
2.8650645299
 20
11.8578889485
 10
2.8499807464
 20
11.8278944848
 10
2.8353190897
 20
11.7977030695
 10
2.8210868144
 20
11.7673298315
 10
2.8072909799
 20
11.7367900654
 10
2.7939387019
 20
11.7060990927
 10
2.7810365979
 20
11.6752723233
 10
2.7685910477
 20
11.6443252442
 10
2.7566084675
 20
11.6132733956
 10
2.7450948061
 20
11.5821324045
 10
2.7340557348
 20
11.5509178719
 10
2.7234969005
 20
11.5196453644
 10
2.7134235502
 20
11.4883306294
 10
2.703840638
 20
11.4569893342
 10
2.6947530191
 20
11.4256369535
 10
2.6861651902
 20
11.3942891682
 10
2.6780814103
 20
11.3629617583
 10
2.6705058163
 20
11.3316703417
 10
2.6634421675
 20
11.3004305967
 10
2.6568939586
 20
11.2692582131
 10
2.65086455
 20
11.2381687849
 10
2.6453569375
 20
11.2071779002
 10
2.6403738413
 20
11.1763011045
 10
2.6359178193
 20
11.1455538515
 10
2.6319910883
 20
11.1149515519
 10
2.6285955842
 20
11.0845095534
 10
2.6257330484
 20
11.054243104
 10
2.623404918
 20
11.0241673698
 10
2.6216123258
 20
10.9942974288
 10
2.6203561595
 20
10.9646482496
  0
LINE
  5
2D1
100
AcDbEntity
  8
RACCORDO
100
AcDbLine
 62
253
  6
CONTINUOUS
 10
7.0683253841
 20
13.8111094068
 11
5.8692813096
 21
13.1395613531
  0
LWPOLYLINE
  5
2D2
100
AcDbEntity
  8
RACCORDO
100
AcDbPolyline
 62
253
  6
CONTINUOUS
 90
67
 70
0
 10
4.0021272928
 20
12.1017637682
 10
3.9860416284
 20
12.0927639165
 10
3.9699990753
 20
12.0833542162
 10
3.9539996334
 20
12.0735346674
 10
3.9380353653
 20
12.0632999614
 10
3.9221142084
 20
12.0526554068
 10
3.9062599746
 20
12.0416169292
 10
3.8904727273
 20
12.0301839024
 10
3.874752403
 20
12.0183569527
 10
3.8591226229
 20
12.0061538838
 10
3.8435835266
 20
11.9935741437
 10
3.8281349745
 20
11.9806182843
 10
3.812800169
 20
11.9673057658
 10
3.7975792882
 20
11.953636051
 10
3.7824721541
 20
11.9396096769
 10
3.7675014349
 20
11.9252477144
 10
3.752667342
 20
11.9105496736
 10
3.7379696642
 20
11.8955160445
 10
3.7234304354
 20
11.8801693675
 10
3.7090498811
 20
11.8645091586
 10
3.694827776
 20
11.848535902
 10
3.6807854777
 20
11.8322735904
 10
3.6669232474
 20
11.8157217784
 10
3.653240824
 20
11.7988809114
 10
3.6397587812
 20
11.7817763194
 10
3.6264774216
 20
11.7644076029
 10
3.6133964427
 20
11.7467751613
 10
3.6005355097
 20
11.7289055219
 10
3.5878949665
 20
11.7107983452
 10
3.5754744694
 20
11.6924539707
 10
3.5632926528
 20
11.6738999439
 10
3.5513498839
 20
11.6551359674
 10
3.5396457955
 20
11.6361623386
 10
3.5281979207
 20
11.6170074962
 10
3.5170066413
 20
11.5976711703
 10
3.5060715755
 20
11.5781536306
 10
3.4954091108
 20
11.5584841255
 10
3.4850196455
 20
11.5386624096
 10
3.4749027814
 20
11.5186887283
 10
3.4650737113
 20
11.4985930647
 10
3.455532858
 20
11.4783752123
 10
3.4462797986
 20
11.4580353776
 10
3.4373284577
 20
11.437604164
 10
3.4286792923
 20
11.417081432
 10
3.4203318454
 20
11.396467321
 10
3.4122986705
 20
11.3757928522
 10
3.4045802503
 20
11.3550579605
 10
3.3971761021
 20
11.334262711
 10
3.3900973311
 20
11.3134383194
 10
3.383344436
 20
11.2925847786
 10
3.3769169181
 20
11.2717020959
 10
3.3708243868
 20
11.2508215087
 10
3.3650673281
 20
11.2299429885
 10
3.3596452561
 20
11.2090665639
 10
3.3545663222
 20
11.1882235584
 10
3.3498310455
 20
11.1674140126
 10
3.345438907
 20
11.1466378858
 10
3.3413965019
 20
11.1259263794
 10
3.337704345
 20
11.1052795747
 10
3.3343619216
 20
11.0846973904
 10
3.3313742823
 20
11.0642107837
 10
3.3287419763
 20
11.0438199762
 10
3.3264644543
 20
11.0235247464
 10
3.3245451188
 20
11.003355387
 10
3.3229851039
 20
10.9833219955
 10
3.3217832754
 20
10.9634144745
 10
3.3209396334
 20
10.9436328239
  0
LINE
  5
2D3
100
AcDbEntity
  8
RACCORDO
100
AcDbLine
 62
7
  6
CONTINUOUS
 10
9.1570328164
 20
15.7060715082
 11
8.2669726336
 21
15.2093905869
  0
LWPOLYLINE
  5
2D4
100
AcDbEntity
  8
RACCORDO
100
AcDbPolyline
 62
253
  6
CONTINUOUS
 90
3
 70
0
 10
5.8692813096
 20
13.1395613531
 10
4.6355862421
 20
12.4532060787
 10
4.0083824449
 20
12.1051786396
  0
LWPOLYLINE
  5
2D5
100
AcDbEntity
  8
RACCORDO
100
AcDbPolyline
 62
253
  6
CONTINUOUS
 90
6
 70
0
 10
9.1802877728
 20
15.6944440299
 10
8.5665558863
 20
15.3577624459
 10
7.9544544575
 20
15.0240325234
 10
7.3439834865
 20
14.6932542626
 10
6.7378410315
 20
14.3677383486
 10
5.5223533205
 20
13.7186294494
  0
LINE
  5
2D6
100
AcDbEntity
  8
RACCORDO
100
AcDbLine
 62
253
  6
CONTINUOUS
 10
3.6425497049
 20
12.7081810853
 11
3.6362945527
 21
12.7047662139
  0
LINE
  5
2D7
100
AcDbEntity
  8
RACCORDO
100
AcDbLine
 62
253
  6
CONTINUOUS
 10
4.0083824449
 20
12.1051786396
 11
4.0021272928
 21
12.1017637682
  0
LWPOLYLINE
  5
2D8
100
AcDbEntity
  8
RACCORDO
100
AcDbPolyline
 62
253
  6
CONTINUOUS
 90
5
 70
0
 10
9.4996292139
 20
15.1463349585
 10
8.8854530806
 20
14.8129266352
 10
8.2749242071
 20
14.4790967341
 10
7.6680425932
 20
14.1448452554
 10
7.0683253841
 20
13.8111094068
  0
LWPOLYLINE
  5
2D9
100
AcDbEntity
  8
RACCORDO
100
AcDbPolyline
 62
253
  6
CONTINUOUS
 90
3
 70
0
 10
5.5223533205
 20
13.7186294494
 10
4.9022158319
 20
13.3857937226
 10
3.6425497049
 20
12.7081810853
  0
LINE
  5
2DA
100
AcDbEntity
  8
RACCORDO
100
AcDbLine
 62
7
  6
CONTINUOUS
 10
-9.4485796673
 20
5.8084135196
 11
-9.4451417349
 21
5.8100831626
  0
LWPOLYLINE
  5
2DB
100
AcDbEntity
  8
RACCORDO
100
AcDbPolyline
 62
253
  6
CONTINUOUS
 90
15
 70
0
 10
-9.6823568079
 20
5.803671183
 10
-9.3979992522
 20
5.9398643652
 10
-9.1037122919
 20
6.0529131518
 10
-8.7995068246
 20
6.1426448846
 10
-8.4854227269
 20
6.2092077155
 10
-8.1636357336
 20
6.2520961406
 10
-7.8341100512
 20
6.2711694926
 10
-7.496923936
 20
6.2665480842
 10
-7.1544239991
 20
6.2381180098
 10
-6.8064938045
 20
6.1856878617
 10
-6.4532805694
 20
6.109434365
 10
-6.097524333
 20
6.0097968069
 10
-5.7401440694
 20
5.886918941
 10
-5.3802371261
 20
5.7406492511
 10
-5.0178075849
 20
5.5709857978
  0
LINE
  5
2DC
100
AcDbEntity
  8
RACCORDO
100
AcDbLine
 62
253
  6
CONTINUOUS
 10
10.2176929881
 20
15.485504888
 11
9.4996292139
 21
15.1463349585
  0
LWPOLYLINE
  5
2DD
100
AcDbEntity
  8
RACCORDO
100
AcDbPolyline
 62
7
  6
CONTINUOUS
 90
14
 70
0
 10
-9.445187065
 20
5.8100461106
 10
-9.3057994184
 20
5.8742297971
 10
-9.0127537065
 20
5.9880677357
 10
-8.7094115025
 20
6.0783069801
 10
-8.3965624591
 20
6.144713766
 10
-8.0750620978
 20
6.1870973013
 10
-7.7457317626
 20
6.205299727
 10
-7.4094426649
 20
6.1992875912
 10
-7.067155299
 20
6.1690814206
 10
-6.7197608921
 20
6.1147266625
 10
-6.3681738256
 20
6.0363835038
 10
-6.0134072007
 20
5.9342860919
 10
-5.656425587
 20
5.8087088581
 10
-5.2982285762
 20
5.6600848936
  0
LWPOLYLINE
  5
2DE
100
AcDbEntity
  8
RACCORDO
100
AcDbPolyline
 62
253
  6
CONTINUOUS
 90
16
 70
0
 10
3.3209396334
 20
10.9436328239
 10
3.2819304991
 20
10.9285004406
 10
3.2396178664
 20
10.9154570367
 10
3.1944550944
 20
10.9046423659
 10
3.1469260801
 20
10.8961723021
 10
3.0975400737
 20
10.8901375979
 10
3.0468262219
 20
10.8866029124
 10
2.9953278991
 20
10.8856061181
 10
2.9435968844
 20
10.887157895
 10
2.8921874503
 20
10.8912416168
 10
2.8416504239
 20
10.8978135283
 10
2.7925272845
 20
10.9068032147
 10
2.7453443627
 20
10.9181143557
 10
2.7006072002
 20
10.9316257578
 10
2.6587951339
 20
10.9471926529
 10
2.6203561595
 20
10.9646482496
  0
LINE
  5
2DF
100
AcDbEntity
  8
SMUSSO
100
AcDbLine
 62
7
  6
CONTINUOUS
 10
-2.8845494693
 20
-8.94323759
 11
-3.3941125497
 21
-8.7164671774
  0
LINE
  5
2E0
100
AcDbEntity
  8
RACCORDO
100
AcDbLine
 62
253
  6
CONTINUOUS
 10
14.2338566956
 20
-15.5769863034
 11
14.2242210967
 21
-15.5723924235
  0
LWPOLYLINE
  5
2E1
100
AcDbEntity
  8
RACCORDO
100
AcDbPolyline
 62
7
  6
CONTINUOUS
 90
3
 70
0
 10
14.22873375
 20
-15.5744679078
 10
14.2159036219
 20
-15.5684782273
 10
14.1866393343
 20
-15.5577281337
  0
LINE
  5
2E2
100
AcDbEntity
  8
RACCORDO
100
AcDbLine
 62
7
  6
CONTINUOUS
 10
14.3858234446
 20
-16.712183778
 11
14.7672892375
 21
-16.9029166745
  0
LINE
  5
2E3
100
AcDbEntity
  8
RACCORDO
100
AcDbLine
 62
253
  6
CONTINUOUS
 10
10.2176929881
 20
-14.1878602232
 11
13.337900246
 21
-15.7479638521
  0
LINE
  5
2E4
100
AcDbEntity
  8
RACCORDO
100
AcDbLine
 62
7
  6
CONTINUOUS
 10
10.2176929881
 20
-14.0649247391
 11
13.4956090394
 21
-15.7038827647
  0
LINE
  5
2E5
100
AcDbEntity
  8
SMUSSO
100
AcDbLine
 62
7
  6
CONTINUOUS
 10
-3.3941125497
 20
-8.7164671774
 11
-3.5168527953
 21
-8.6483400609
  0
LINE
  5
2E6
100
AcDbEntity
  8
SMUSSO
100
AcDbLine
 62
7
  6
CONTINUOUS
 10
-3.0405591591
 20
-8.972703184
 11
-3.5710564874
 21
-8.675441907
  0
LWPOLYLINE
  5
2E7
100
AcDbEntity
  8
RACCORDO
100
AcDbPolyline
 62
7
  6
CONTINUOUS
 90
9
 70
0
 10
-7.5592960831
 20
23.5990787251
 10
-7.5580232932
 20
23.5738852012
 10
-7.5541811141
 20
23.5487668765
 10
-7.54776726
 20
23.5240354191
 10
-7.5388294339
 20
23.500010878
 10
-7.5274556085
 20
23.4769868779
 10
-7.5137514095
 20
23.4552106624
 10
-7.4978274762
 20
23.4348961747
 10
-7.4798871824
 20
23.4163256779
  0
LWPOLYLINE
  5
2E8
100
AcDbEntity
  8
RACCORDO
100
AcDbPolyline
 62
253
  6
CONTINUOUS
 90
9
 70
0
 10
-7.4860727784
 20
23.5106903775
 10
-7.4849133981
 20
23.4865145026
 10
-7.4814268234
 20
23.4637029875
 10
-7.4756240534
 20
23.4425832364
 10
-7.4675328878
 20
23.4234374217
 10
-7.457237761
 20
23.4065967479
 10
-7.4449149717
 20
23.392394245
 10
-7.4307586055
 20
23.3810411275
 10
-7.4210994539
 20
23.3754719134
  0
LINE
  5
2E9
100
AcDbEntity
  8
RACCORDO
100
AcDbLine
 62
7
  6
CONTINUOUS
 10
-7.5592960831
 20
23.9390526592
 11
-7.5592960831
 21
23.5990787251
  0
LINE
  5
2EA
100
AcDbEntity
  8
RACCORDO
100
AcDbLine
 62
253
  6
CONTINUOUS
 10
-7.4860727784
 20
23.8506643116
 11
-7.4860727784
 21
23.5106903775
  0
LINE
  5
2EB
100
AcDbEntity
  8
RACCORDO
100
AcDbLine
 62
7
  6
CONTINUOUS
 10
-6.8563031288
 20
22.6391014859
 11
-6.8563031288
 21
23.0930737508
  0
LINE
  5
2EC
100
AcDbEntity
  8
RACCORDO
100
AcDbLine
 62
253
  6
CONTINUOUS
 10
-6.7830798241
 20
22.5473879543
 11
-6.7830798241
 21
23.0564620984
  0
LINE
  5
2ED
100
AcDbEntity
  8
RACCORDO
100
AcDbLine
 62
253
  6
CONTINUOUS
 10
-6.1610880985
 20
22.8481980376
 11
-6.1610880985
 21
23.1881719717
  0
LWPOLYLINE
  5
2EE
100
AcDbEntity
  8
RACCORDO
100
AcDbPolyline
 62
253
  6
CONTINUOUS
 90
5
 70
0
 10
-6.1610880985
 20
23.1881719717
 10
-6.1601571893
 20
23.2108272729
 10
-6.1573570309
 20
23.2342847214
 10
-6.1526916773
 20
23.2583029129
 10
-6.1461744847
 20
23.2826662092
  0
LINE
  5
2EF
100
AcDbEntity
  8
RACCORDO
100
AcDbLine
 62
7
  6
CONTINUOUS
 10
-3.6118379882
 20
23.9443248811
 11
-3.6081477797
 21
23.9684324471
  0
LWPOLYLINE
  5
2F0
100
AcDbEntity
  8
0
100
AcDbPolyline
 62
7
  6
CONTINUOUS
 90
6
 70
0
 10
-10.3659037505
 20
-9.2772518091
 10
-10.4912531594
 20
-9.6750303434
 10
-10.6608078674
 20
-10.0092944765
 10
-10.8745678746
 20
-10.2800442083
 10
-11.139067981
 20
-10.4908753391
 10
-11.2638307293
 20
-10.560786601
  0
LINE
  5
2F1
100
AcDbEntity
  8
0
100
AcDbLine
 62
253
  6
CONTINUOUS
 10
10.1975759663
 20
15.6313274843
 11
14.2876343591
 21
18.5887308544
  0
LINE
  5
2F2
100
AcDbEntity
  8
RACCORDO
100
AcDbLine
 62
7
  6
CONTINUOUS
 10
10.2163562001
 20
15.5196897531
 11
14.3029794813
 21
18.474609293
  0
LINE
  5
2F3
100
AcDbEntity
  8
0
100
AcDbLine
 62
7
  6
CONTINUOUS
 10
-6.5064406411
 20
4.6708163671
 11
-5.7286470649
 21
5.0597131552
  0
LWPOLYLINE
  5
2F4
100
AcDbEntity
  8
SMUSSO
100
AcDbPolyline
 62
7
  6
CONTINUOUS
 90
3
 70
0
 10
-6.5038007957
 20
4.6721345953
 10
-6.1804776271
 20
4.8097065889
 10
-5.6916640602
 20
4.9386234221
  0
LINE
  5
2F5
100
AcDbEntity
  8
0
100
AcDbLine
 62
7
  6
CONTINUOUS
 10
-14.2043449507
 20
-3.1991897848
 11
-13.8461526042
 21
-3.2733495156
  0
LWPOLYLINE
  5
2F6
100
AcDbEntity
  8
0
100
AcDbPolyline
 62
7
  6
CONTINUOUS
 90
12
 70
0
 10
-13.8461526042
 20
-3.2733495156
 10
-13.4802575291
 20
-3.4048627871
 10
-13.1069574435
 20
-3.59151283
 10
-12.7410623684
 20
-3.8258946335
 10
-12.3828700219
 20
-4.1099272492
 10
-12.0320826861
 20
-4.4416916256
 10
-11.7026172286
 20
-4.8080255972
 10
-11.395330894
 20
-5.2103190317
 10
-11.1093664377
 20
-5.6471820615
 10
-10.8560689944
 20
-6.1012829177
 10
-10.6367519387
 20
-6.5733146458
 10
-10.4501018958
 20
-7.0625842002
  0
LINE
  5
2F7
100
AcDbEntity
  8
RACCORDO
100
AcDbLine
 62
253
  6
CONTINUOUS
 10
14.2291975777
 20
-15.5746566567
 11
14.2287516822
 21
-15.5744355667
  0
LINE
  5
2F8
100
AcDbEntity
  8
RACCORDO
100
AcDbLine
 62
253
  6
CONTINUOUS
 10
14.1644863399
 20
-15.5707765683
 11
14.1689000292
 21
-15.572983413
  0
LINE
  5
2F9
100
AcDbEntity
  8
RACCORDO
100
AcDbLine
 62
7
  6
CONTINUOUS
 10
14.229197579
 20
-15.5746566573
 11
14.2339547578
 21
-15.5770352467
  0
LWPOLYLINE
  5
2FA
100
AcDbEntity
  8
RACCORDO
100
AcDbPolyline
 62
253
  6
CONTINUOUS
 90
4
 70
0
 10
14.1688988919
 20
-15.5729837412
 10
14.1885252518
 20
-15.5840767733
 10
14.2072886065
 20
-15.597497421
 10
14.2250416906
 20
-15.6131953663
  0
LWPOLYLINE
  5
2FB
100
AcDbEntity
  8
RACCORDO
100
AcDbPolyline
 62
253
  6
CONTINUOUS
 90
16
 70
0
 10
7.5557520255
 20
-25.1340779079
 10
7.545517405
 20
-25.118613755
 10
7.533476119
 20
-25.1023479864
 10
7.5197596067
 20
-25.0854581544
 10
7.5045175935
 20
-25.0681286233
 10
7.4879164567
 20
-25.0505485573
 10
7.4701374095
 20
-25.0329098552
 10
7.4513745228
 20
-25.0154050558
 10
7.4318326065
 20
-24.9982252364
 10
7.4117249746
 20
-24.9815579269
 10
7.391271116
 20
-24.9655850626
 10
7.3706942991
 20
-24.9504809987
 10
7.3502191342
 20
-24.9364106066
 10
7.3300691223
 20
-24.9235274747
 10
7.3104642149
 20
-24.9119722313
 10
7.2916184135
 20
-24.9018710102
  0
LWPOLYLINE
  5
2FC
100
AcDbEntity
  8
RACCORDO
100
AcDbPolyline
 62
253
  6
CONTINUOUS
 90
9
 70
0
 10
-6.1610880985
 20
22.8481980376
 10
-6.1599287183
 20
22.8240221627
 10
-6.1564421436
 20
22.8012106476
 10
-6.1506393736
 20
22.7800908965
 10
-6.142548208
 20
22.7609450818
 10
-6.1322530812
 20
22.744104408
 10
-6.1199302918
 20
22.7299019051
 10
-6.1057739256
 20
22.7185487876
 10
-6.0961147741
 20
22.7129795735
  0
LWPOLYLINE
  5
2FD
100
AcDbEntity
  8
RACCORDO
100
AcDbPolyline
 62
253
  6
CONTINUOUS
 90
16
 70
0
 10
-5.8085661389
 20
23.1876592478
 10
-5.8096048909
 20
23.2103497211
 10
-5.8125150365
 20
23.2338526408
 10
-5.8172911047
 20
23.2579243844
 10
-5.8239182847
 20
23.2823469591
 10
-5.8323426354
 20
23.3068171106
 10
-5.8424445028
 20
23.3309521546
 10
-5.8540913402
 20
23.354446869
 10
-5.867170371
 20
23.377083665
 10
-5.8815440186
 20
23.3986226897
 10
-5.8970600838
 20
23.4188309943
 10
-5.9135447322
 20
23.4374776509
 10
-5.9308094243
 20
23.454348019
 10
-5.948660958
 20
23.469254206
 10
-5.9669048408
 20
23.4820346761
 10
-5.9853398426
 20
23.4925487867
  0
LINE
  5
2FE
100
AcDbEntity
  8
RACCORDO
100
AcDbLine
 62
253
  6
CONTINUOUS
 10
-5.8085661389
 20
22.8476853137
 11
-5.8085661389
 21
23.1876592478
  0
LINE
  5
2FF
100
AcDbEntity
  8
RACCORDO
100
AcDbLine
 62
253
  6
CONTINUOUS
 10
-5.4498674904
 20
22.5696024104
 11
-5.4498674904
 21
21.8807817875
  0
LINE
  5
300
100
AcDbEntity
  8
RACCORDO
100
AcDbLine
 62
253
  6
CONTINUOUS
 10
-5.0973455308
 20
22.6991817908
 11
-5.0973455308
 21
21.8915496691
  0
LINE
  5
301
100
AcDbEntity
  8
RACCORDO
100
AcDbLine
 62
7
  6
CONTINUOUS
 10
-4.2072853481
 20
22.3882305904
 11
-4.2072853481
 21
23.9903812513
  0
LWPOLYLINE
  5
302
100
AcDbEntity
  8
RACCORDO
100
AcDbPolyline
 62
253
  6
CONTINUOUS
 90
9
 70
0
 10
-3.6068203578
 20
24.341623339
 10
-3.6070952227
 20
24.3358323253
 10
-3.6096836115
 20
24.3228284009
 10
-3.6149776219
 20
24.3100220953
 10
-3.6229220608
 20
24.2975576702
 10
-3.6334277943
 20
24.2855772427
 10
-3.646377329
 20
24.2742135442
 10
-3.6616298883
 20
24.2635890935
 10
-3.6790181763
 20
24.2538200714
  0
LINE
  5
303
100
AcDbEntity
  8
RACCORDO
100
AcDbLine
 62
7
  6
CONTINUOUS
 10
-3.6081477797
 20
23.9684324471
 11
-3.6068203208
 21
23.9941749914
  0
LWPOLYLINE
  5
304
100
AcDbEntity
  8
0
100
AcDbPolyline
 62
7
  6
CONTINUOUS
 90
9
 70
0
 10
-4.8436814511
 20
-6.6627460176
 10
-4.8699644239
 20
-7.1579806766
 10
-4.9403266226
 20
-7.6115264963
 10
-5.0547680473
 20
-8.0233834765
 10
-5.2160038685
 20
-8.3979537787
 10
-5.4213189156
 20
-8.7308352414
 10
-5.6625676769
 20
-9.0088213809
 10
-5.9411948646
 20
-9.229705135
 10
-6.1312776551
 20
-9.3387500117
  0
LWPOLYLINE
  5
305
100
AcDbEntity
  8
RACCORDO
100
AcDbPolyline
 62
7
  6
CONTINUOUS
 90
3
 70
0
 10
-1.9780399046
 20
21.9154986844
 10
-1.9813237762
 20
21.8915142323
 10
-1.9820799503
 20
21.8738684163
  0
LWPOLYLINE
  5
306
100
AcDbEntity
  8
RACCORDO
100
AcDbPolyline
 62
7
  6
CONTINUOUS
 90
15
 70
0
 10
8.2669726336
 20
16.0170227086
 10
8.2491580358
 20
15.9968635312
 10
8.2296832967
 20
15.9777499904
 10
8.2086872054
 20
15.959778969
 10
8.1863501603
 20
15.9429246405
 10
8.1628421452
 20
15.9273882329
 10
8.1383156282
 20
15.913605471
 10
8.1130033611
 20
15.9016454613
 10
8.087152128
 20
15.8915804646
 10
8.0609640457
 20
15.8838540146
 10
8.0347217559
 20
15.8785181979
 10
8.0087595575
 20
15.8756063301
 10
7.9833908746
 20
15.8755248306
 10
7.9589650437
 20
15.878403673
 10
7.9537232336
 20
15.8794217531
  0
LWPOLYLINE
  5
307
100
AcDbEntity
  8
RACCORDO
100
AcDbPolyline
 62
253
  6
CONTINUOUS
 90
10
 70
0
 10
14.3030027628
 20
18.4746261278
 10
14.3087044276
 20
18.4799168677
 10
14.3131896265
 20
18.4869844642
 10
14.3160462258
 20
18.4957726956
 10
14.3170471198
 20
18.5063414536
 10
14.3160083742
 20
18.5187597973
 10
14.3127826604
 20
18.533199608
 10
14.3071454341
 20
18.5497278227
 10
14.2988371034
 20
18.5682659474
 10
14.2876343591
 20
18.5887308544
  0
LWPOLYLINE
  5
308
100
AcDbEntity
  8
RACCORDO
100
AcDbPolyline
 62
7
  6
CONTINUOUS
 90
9
 70
0
 10
14.3030042424
 20
18.4746262747
 10
14.3188843006
 20
18.4873896743
 10
14.3367964663
 20
18.505529895
 10
14.3522575397
 20
18.5258031585
 10
14.3650145969
 20
18.5478789076
 10
14.3748608183
 20
18.571400498
 10
14.3816353241
 20
18.5959862187
 10
14.3852277508
 20
18.621245986
 10
14.3858275252
 20
18.6367189295
  0
LWPOLYLINE
  5
309
100
AcDbEntity
  8
0
100
AcDbPolyline
 62
7
  6
CONTINUOUS
 90
5
 70
0
 10
-10.8056008071
 20
0.0036953825
 10
-11.093860018
 20
-0.1696083378
 10
-11.4261477044
 20
-0.4702960895
 10
-11.7119173274
 20
-0.8512156325
 10
-11.8560667183
 20
-1.13449184
  0
LINE
  5
30A
100
AcDbEntity
  8
RACCORDO
100
AcDbLine
 62
7
  6
CONTINUOUS
 10
1.7454312186
 20
7.0216391258
 11
1.8761812668
 21
7.0870141499
  0
LINE
  5
30B
100
AcDbEntity
  8
0
100
AcDbLine
 62
7
  6
CONTINUOUS
 10
-10.8035347933
 20
0.0066928163
 11
-5.8537873249
 21
2.4815665505
  0
LINE
  5
30C
100
AcDbEntity
  8
0
100
AcDbLine
 62
7
  6
CONTINUOUS
 10
-15.507314784
 20
-2.9601158729
 11
-10.5575673157
 21
-0.4852421387
  0
LINE
  5
30D
100
AcDbEntity
  8
0
100
AcDbLine
 62
7
  6
CONTINUOUS
 10
10.2176929881
 20
9.9023880132
 11
11.0799001886
 21
10.3334916134
  0
LWPOLYLINE
  5
30E
100
AcDbEntity
  8
0
100
AcDbPolyline
 62
7
  6
CONTINUOUS
 90
21
 70
0
 10
-10.5564423809
 20
-0.4865634566
 10
-10.4319642696
 20
-0.4296199024
 10
-10.0939493014
 20
-0.3251120924
 10
-9.7315372982
 20
-0.2845567269
 10
-9.3456712288
 20
-0.3054819823
 10
-8.9516596476
 20
-0.3870576862
 10
-8.5491750651
 20
-0.5317222849
 10
-8.1385449709
 20
-0.737037332
 10
-7.7360603884
 20
-0.9948573158
 10
-7.3420488072
 20
-1.3072931931
 10
-6.9561827378
 20
-1.6722340071
 10
-6.5937707346
 20
-2.0752013759
 10
-6.2557557665
 20
-2.5177241539
 10
-5.9411948646
 20
-2.9982734867
 10
-5.6625676769
 20
-3.4977844285
 10
-5.4213189156
 20
-4.0170193294
 10
-5.2160038685
 20
-4.5552158392
 10
-5.0547680473
 20
-5.0910219625
 10
-4.9403266226
 20
-5.6173203674
 10
-4.8699644239
 20
-6.1412283858
 10
-4.8436814511
 20
-6.6627460176
  0
LWPOLYLINE
  5
30F
100
AcDbEntity
  8
RACCORDO
100
AcDbPolyline
 62
7
  6
CONTINUOUS
 90
3
 70
0
 10
1.7451242026
 20
7.021487321
 10
1.7235246656
 20
7.0116442634
 10
1.6976478012
 20
7.0025910461
  0
LWPOLYLINE
  5
310
100
AcDbEntity
  8
0
100
AcDbPolyline
 62
7
  6
CONTINUOUS
 90
25
 70
0
 10
11.0791762696
 20
10.3330138333
 10
11.2627275746
 20
10.4123150543
 10
11.5446099126
 20
10.4932422716
 10
11.8395807614
 20
10.53252424
 10
12.1479935723
 20
10.5290363428
 10
12.469494894
 20
10.4839031968
 10
12.7954801396
 20
10.398332735
 10
13.1260703961
 20
10.2712329606
 10
13.4611445765
 20
10.1036958704
 10
13.791734833
 20
9.9002053884
 10
14.1177200786
 20
9.6597906045
 10
14.4392214003
 20
9.3834224288
 10
14.7476342112
 20
9.0784975151
 10
15.0426050601
 20
8.7442446978
 10
15.3244873981
 20
8.3814351425
 10
15.5857369915
 20
7.9997790003
 10
15.8257966598
 20
7.5987673249
 10
16.0452235835
 20
7.1789090626
 10
16.2381450712
 20
6.7514412026
 10
16.4038453522
 20
6.3161582502
 10
16.5430401972
 20
5.8732657002
 10
16.6520042276
 20
5.4346170263
 10
16.7294956507
 20
5.0041633863
 10
16.7767562592
 20
4.5779536224
 10
16.7937860532
 20
4.1559877346
  0
LWPOLYLINE
  5
311
100
AcDbEntity
  8
0
100
AcDbPolyline
 62
7
  6
CONTINUOUS
 90
7
 70
0
 10
-5.8544947955
 20
2.4811667731
 10
-5.5323428693
 20
2.608406856
 10
-5.1372138769
 20
2.6902407498
 10
-4.7242587443
 20
2.7031773447
 10
-4.2987028196
 20
2.6461344356
 10
-3.8553207548
 20
2.5201942277
 10
-3.3941125497
 20
2.3253567208
  0
LWPOLYLINE
  5
312
100
AcDbEntity
  8
0
100
AcDbPolyline
 62
7
  6
CONTINUOUS
 90
13
 70
0
 10
-14.0428590126
 20
-3.7059453193
 10
-13.6642459295
 20
-3.728332671
 10
-13.2862927915
 20
-3.8193203911
 10
-12.9089995986
 20
-3.9789084795
 10
-12.5243860329
 20
-4.2133967579
 10
-12.1404324125
 20
-4.5164854047
 10
-11.781079691
 20
-4.8692749547
 10
-11.4477733865
 20
-5.2755961866
 10
-11.139067981
 20
-5.7316183217
 10
-10.8745678746
 20
-6.2069495589
 10
-10.6608078674
 20
-6.6914592979
 10
-10.4912531594
 20
-7.195278139
 10
-10.3659037505
 20
-7.7184060822
  0
LWPOLYLINE
  5
313
100
AcDbEntity
  8
0
100
AcDbPolyline
 62
7
  6
CONTINUOUS
 90
20
 70
0
 10
-8.343860018
 20
-0.1495170134
 10
-7.8225881983
 20
-0.4565718995
 10
-7.3264917732
 20
-0.8254775862
 10
-6.8555707426
 20
-1.2562340733
 10
-6.4027108836
 20
-1.7582203852
 10
-5.975026419
 20
-2.3220574975
 10
-5.593860018
 20
-2.9196083378
 10
-5.2615723316
 20
-3.5525837759
 10
-4.9758027086
 20
-4.2192729418
 10
-4.7508118646
 20
-4.8864061537
 10
-4.5896841389
 20
-5.5540059454
 10
-4.489335192
 20
-6.222049783
 10
-4.4547727215
 20
-6.8572003824
 10
-4.489335192
 20
-7.4577885113
 10
-4.5896841389
 20
-8.0254834021
 10
-4.7508118646
 20
-8.5319554681
 10
-4.9758027086
 20
-8.9740978359
 10
-5.2615723316
 20
-9.3550173789
 10
-5.593860018
 20
-9.6557051305
 10
-5.8821192289
 20
-9.8290088509
  0
LWPOLYLINE
  5
314
100
AcDbEntity
  8
RACCORDO
100
AcDbPolyline
 62
7
  6
CONTINUOUS
 90
13
 70
0
 10
-4.2072853481
 20
23.9903812513
 10
-4.2089238063
 20
24.0193337274
 10
-4.2135411536
 20
24.0493118958
 10
-4.2210583889
 20
24.0798028438
 10
-4.2313468947
 20
24.110284886
 10
-4.2442306402
 20
24.1402364881
 10
-4.2594891933
 20
24.1691451906
 10
-4.2768614892
 20
24.1965163777
 10
-4.2960502939
 20
24.221881742
 10
-4.3167272928
 20
24.2448072952
 10
-4.3385387111
 20
24.2649007921
 10
-4.3611113666
 20
24.2818184415
 10
-4.3840590517
 20
24.2952707902
  0
LWPOLYLINE
  5
315
100
AcDbEntity
  8
RACCORDO
100
AcDbPolyline
 62
253
  6
CONTINUOUS
 90
16
 70
0
 10
-3.6790181763
 20
24.2538200714
 10
-3.6798912581
 20
24.2770620934
 10
-3.6827154782
 20
24.3010178849
 10
-3.6874599546
 20
24.3254233445
 10
-3.6940737116
 20
24.3500129231
 10
-3.7024834775
 20
24.3745118094
 10
-3.712591934
 20
24.3986392507
 10
-3.7242820978
 20
24.4221231165
 10
-3.7374261596
 20
24.4447127816
 10
-3.7518844235
 20
24.4661699292
 10
-3.7675250685
 20
24.4862907725
 10
-3.7841523256
 20
24.5048159096
 10
-3.8015010454
 20
24.5214681034
 10
-3.8193438099
 20
24.5360698258
 10
-3.8375069966
 20
24.5485181822
 10
-3.85579188
 20
24.5587096102
  0
LWPOLYLINE
  5
316
100
AcDbEntity
  8
RACCORDO
100
AcDbPolyline
 62
7
  6
CONTINUOUS
 90
12
 70
0
 10
-1.9820799503
 20
21.8738684163
 10
-1.9819846865
 20
21.8637991648
 10
-1.9796295706
 20
21.8333432525
 10
-1.9737280408
 20
21.8011871792
 10
-1.9645277208
 20
21.768015037
 10
-1.9528716243
 20
21.7339824951
 10
-1.9388040213
 20
21.699437328
 10
-1.92223185
 20
21.6648884606
 10
-1.903650165
 20
21.6304907523
 10
-1.8832015337
 20
21.596482467
 10
-1.8607681818
 20
21.5632013345
 10
-1.8364147343
 20
21.5308853449
  0
LINE
  5
317
100
AcDbEntity
  8
RACCORDO
100
AcDbLine
 62
253
  6
CONTINUOUS
 10
-3.6790181763
 20
24.2538200714
 11
-3.6790181763
 21
23.9062885546
  0
LINE
  5
318
100
AcDbEntity
  8
RACCORDO
100
AcDbLine
 62
7
  6
CONTINUOUS
 10
-3.6068203193
 20
24.3416927035
 11
-3.6068203193
 21
23.9941611868
  0
LINE
  5
319
100
AcDbEntity
  8
DRAFT
100
AcDbLine
 62
7
  6
CONTINUOUS
 10
-3.2526911935
 20
18.2005891223
 11
-3.2526911935
 21
18.9762098404
  0
LINE
  5
31A
100
AcDbEntity
  8
RACCORDO
100
AcDbLine
 62
7
  6
CONTINUOUS
 10
-1.9828613437
 20
21.870337601
 11
-1.9828613437
 21
20.6337290917
  0
LINE
  5
31B
100
AcDbEntity
  8
RACCORDO
100
AcDbLine
 62
253
  6
CONTINUOUS
 10
-1.8364147343
 20
21.5308853449
 11
-1.8364147343
 21
20.4503020341
  0
LWPOLYLINE
  5
31C
100
AcDbEntity
  8
RACCORDO
100
AcDbPolyline
 62
7
  6
CONTINUOUS
 90
6
 70
0
 10
9.7006605605
 20
17.1532943058
 10
9.7151413749
 20
17.1727751196
 10
9.7276820437
 20
17.1936006194
 10
9.738152728
 20
17.215574282
 10
9.7464509709
 20
17.2385078672
 10
9.7524801762
 20
17.2621657989
  0
LINE
  5
31D
100
AcDbEntity
  8
RACCORDO
100
AcDbLine
 62
253
  6
CONTINUOUS
 10
9.1570328164
 20
16.5811773167
 11
9.6852999881
 21
17.2241294724
  0
LINE
  5
31E
100
AcDbEntity
  8
RACCORDO
100
AcDbLine
 62
7
  6
CONTINUOUS
 10
9.1570328164
 20
16.4916468503
 11
9.7006605605
 21
17.1532943058
  0
LWPOLYLINE
  5
31F
100
AcDbEntity
  8
RACCORDO
100
AcDbPolyline
 62
7
  6
CONTINUOUS
 90
8
 70
0
 10
1.8771862831
 20
7.1270996766
 10
1.8618104984
 20
7.1104190659
 10
1.8409956546
 20
7.0899660805
 10
1.8192030706
 20
7.0708197994
 10
1.7964459351
 20
7.0531562315
 10
1.7729101437
 20
7.0372085737
 10
1.7486241231
 20
7.0232782502
 10
1.7451242026
 20
7.021487321
  0
LINE
  5
320
100
AcDbEntity
  8
0
100
AcDbLine
 62
7
  6
CONTINUOUS
 10
-14.9164776333
 20
-4.0574784948
 11
-13.5564643485
 21
-3.3774718524
  0
LINE
  5
321
100
AcDbEntity
  8
0
100
AcDbLine
 62
7
  6
CONTINUOUS
 10
-14.0428590126
 20
-3.7059453193
 11
-13.4604757387
 21
-3.4147536823
  0
LWPOLYLINE
  5
322
100
AcDbEntity
  8
0
100
AcDbPolyline
 62
7
  6
CONTINUOUS
 90
5
 70
0
 10
-15.305045998
 20
-3.3638093069
 10
-15.1918840786
 20
-3.3120424394
 10
-14.884597744
 20
-3.2170353395
 10
-14.5551322865
 20
-3.1801668253
 10
-14.2043449507
 20
-3.1991897848
  0
LWPOLYLINE
  5
323
100
AcDbEntity
  8
0
100
AcDbPolyline
 62
7
  6
CONTINUOUS
 90
21
 70
0
 10
-15.508038703
 20
-2.960593653
 10
-15.3244873981
 20
-2.881292432
 10
-15.0426050601
 20
-2.8003652148
 10
-14.7476342112
 20
-2.7610832463
 10
-14.4392214003
 20
-2.7645711435
 10
-14.1177200786
 20
-2.8097042895
 10
-13.791734833
 20
-2.8952747513
 10
-13.4611445765
 20
-3.0223745257
 10
-13.1260703961
 20
-3.1899116159
 10
-12.7954801396
 20
-3.393402098
 10
-12.469494894
 20
-3.6338168818
 10
-12.1479935723
 20
-3.9101850575
 10
-11.8395807614
 20
-4.2151099712
 10
-11.5446099126
 20
-4.5493627885
 10
-11.2627275746
 20
-4.9121723438
 10
-11.0014779811
 20
-5.293828486
 10
-10.7614183128
 20
-5.6948401614
 10
-10.5419913892
 20
-6.1146984237
 10
-10.3490699014
 20
-6.5421662837
 10
-10.1833696205
 20
-6.9774492361
 10
-10.0441747755
 20
-7.4203417861
  0
LWPOLYLINE
  5
324
100
AcDbEntity
  8
0
100
AcDbPolyline
 62
7
  6
CONTINUOUS
 90
7
 70
0
 10
-8.343860018
 20
-0.1495170134
 10
-8.8651318377
 20
0.0646999202
 10
-9.3612282628
 20
0.1918906586
 10
-9.8321492934
 20
0.2320552021
 10
-10.2850091524
 20
0.1829287493
 10
-10.712693617
 20
0.0467761014
 10
-10.8056008071
 20
0.0036953825
  0
LWPOLYLINE
  5
325
100
AcDbEntity
  8
RACCORDO
100
AcDbPolyline
 62
253
  6
CONTINUOUS
 90
6
 70
0
 10
9.6833127514
 20
-23.8520873223
 10
9.6727655137
 20
-23.8311315453
 10
9.6604102394
 20
-23.8118865679
 10
9.6463828655
 20
-23.7945641282
 10
9.6308373231
 20
-23.7793537976
 10
9.6139434767
 20
-23.7664213102
  0
LINE
  5
326
100
AcDbEntity
  8
0
100
AcDbLine
 62
7
  6
CONTINUOUS
 10
-15.0328085063
 20
-7.2469083225
 11
-14.0428590126
 21
-6.7519335756
  0
LWPOLYLINE
  5
327
100
AcDbEntity
  8
ASSI
100
AcDbPolyline
 62
7
  6
CONTINUOUS
 90
5
 70
0
 10
-13.4011089609
 20
-4.5463281799
 10
-13.3891475833
 20
-4.5408918121
 10
-13.3407864522
 20
-4.53112549
 10
-13.2853695272
 20
-4.5367811346
 10
-13.2228968082
 20
-4.5578587458
  0
LWPOLYLINE
  5
328
100
AcDbEntity
  8
ASSI
100
AcDbPolyline
 62
7
  6
CONTINUOUS
 90
5
 70
0
 10
-13.0446846554
 20
-5.2622096347
 10
-13.0566460331
 20
-5.2676460026
 10
-13.1050071642
 20
-5.2774123246
 10
-13.1604240892
 20
-5.27175668
 10
-13.2228968082
 20
-5.2506790688
  0
LWPOLYLINE
  5
329
100
AcDbEntity
  8
RACCORDO
100
AcDbPolyline
 62
253
  6
CONTINUOUS
 90
4
 70
0
 10
14.2250416906
 20
-15.6131953663
 10
14.2416305124
 20
-15.6311061368
 10
14.2569107369
 20
-15.6511397363
 10
14.2707498561
 20
-15.673178785
  0
LWPOLYLINE
  5
32A
100
AcDbEntity
  8
0
100
AcDbPolyline
 62
7
  6
CONTINUOUS
 90
13
 70
0
 10
0.1751218445
 20
-2.3340106059
 10
0.3311704708
 20
-2.9371321297
 10
0.4358907721
 20
-3.5256741284
 10
0.4872190971
 20
-4.0990504334
 10
0.4872190971
 20
-4.6578472134
 10
0.4358907721
 20
-5.1798951934
 10
0.3311704708
 20
-5.6637168909
 10
0.1751218445
 20
-6.1107897883
 10
-0.0260641534
 20
-6.5033770586
 10
-0.2742022671
 20
-6.8392881113
 10
-0.5674777524
 20
-7.1207135368
 10
-0.8942554225
 20
-7.3364882785
 10
-0.9337303039
 20
-7.3567327731
  0
LWPOLYLINE
  5
32B
100
AcDbEntity
  8
RACCORDO
100
AcDbPolyline
 62
253
  6
CONTINUOUS
 90
64
 70
0
 10
3.3209396334
 20
-24.6359918038
 10
3.3218324996
 20
-24.6558574114
 10
3.3231183313
 20
-24.6754803549
 10
3.3247971285
 20
-24.6948606344
 10
3.3268702454
 20
-24.7140086433
 10
3.3293363277
 20
-24.7329139881
 10
3.3321913133
 20
-24.7515454882
 10
3.3354358463
 20
-24.7699026899
 10
3.3390692826
 20
-24.7879860468
 10
3.3430856276
 20
-24.8057657392
 10
3.347485513
 20
-24.8232412644
 10
3.3522683072
 20
-24.8404131252
 10
3.3574261202
 20
-24.85725301
 10
3.3629595588
 20
-24.8737603435
 10
3.3688680163
 20
-24.889935701
 10
3.3751417826
 20
-24.9057524977
 10
3.3817814584
 20
-24.9212101572
 10
3.3887864429
 20
-24.9363092559
 10
3.3961452239
 20
-24.9510249379
 10
3.4038583976
 20
-24.9653565959
 10
3.4119253677
 20
-24.9793048371
 10
3.4203328334
 20
-24.992846628
 10
3.4290813586
 20
-25.0059812939
 10
3.4381703792
 20
-25.0187095093
 10
3.4475849027
 20
-25.0310102643
 10
3.4573254665
 20
-25.0428828485
 10
3.4673915332
 20
-25.0543279722
 10
3.4777664975
 20
-25.065326756
 10
3.4884508627
 20
-25.0758784556
 10
3.4994441256
 20
-25.0859838153
 10
3.510728172
 20
-25.095626188
 10
3.5223034591
 20
-25.1048048001
 10
3.5341695296
 20
-25.1135204253
 10
3.5463068978
 20
-25.1217587373
 10
3.5587160369
 20
-25.1295189713
 10
3.5713964737
 20
-25.1368018921
 10
3.5843273022
 20
-25.1435954684
 10
3.5975089402
 20
-25.1498988912
 10
3.6109409699
 20
-25.1557129694
 10
3.6246012326
 20
-25.1610280978
 10
3.6384901042
 20
-25.1658434495
 10
3.6526072089
 20
-25.1701598513
 10
3.6669292599
 20
-25.1739701792
 10
3.6814565939
 20
-25.177273595
 10
3.6961888744
 20
-25.1800709368
 10
3.7111018049
 20
-25.1823575942
 10
3.7261956645
 20
-25.1841327249
 10
3.7414701742
 20
-25.1853971712
 10
3.7569001993
 20
-25.1861488498
 10
3.7724860056
 20
-25.186386917
 10
3.7882273275
 20
-25.1861122164
 10
3.804098233
 20
-25.1853251955
 10
3.8200989449
 20
-25.1840250122
 10
3.8362292405
 20
-25.1822125086
 10
3.8524625192
 20
-25.1798906586
 10
3.8687989495
 20
-25.1770586128
 10
3.8852383631
 20
-25.1737172206
 10
3.9017536537
 20
-25.1698720044
 10
3.9183453161
 20
-25.1655219897
 10
3.9350128556
 20
-25.160668151
 10
3.951727682
 20
-25.1553189352
 10
3.9684802653
 20
-25.1494771579
 10
3.9852801356
 20
-25.1431400035
 10
4.0021272928
 20
-25.1363074719
  0
LWPOLYLINE
  5
32C
100
AcDbEntity
  8
RACCORDO
100
AcDbPolyline
 62
253
  6
CONTINUOUS
 90
37
 70
0
 10
2.6203561595
 20
-24.650591618
 10
2.6216855164
 20
-24.6803592493
 10
2.6236035505
 20
-24.7097932361
 10
2.6261092222
 20
-24.7388773999
 10
2.6292011969
 20
-24.7675957801
 10
2.6328777729
 20
-24.7959325714
 10
2.6371368801
 20
-24.823872134
 10
2.6419762153
 20
-24.8513991248
 10
2.6473931377
 20
-24.8784984191
 10
2.6533845935
 20
-24.905155052
 10
2.6599473349
 20
-24.931354391
 10
2.6670777837
 20
-24.9570820502
 10
2.6747719205
 20
-24.9823238167
 10
2.683025556
 20
-25.0070658009
 10
2.6918342043
 20
-25.0312944692
 10
2.7011929505
 20
-25.0549965516
 10
2.711096729
 20
-25.0781590606
 10
2.7215401457
 20
-25.1007692694
 10
2.7325173613
 20
-25.1228147343
 10
2.7440224478
 20
-25.1442834008
 10
2.7560491325
 20
-25.1651634496
 10
2.7685906286
 20
-25.1854432675
 10
2.7816401329
 20
-25.2051117416
 10
2.7951905484
 20
-25.2241580905
 10
2.8092342274
 20
-25.2425717121
 10
2.8237635445
 20
-25.2603425265
 10
2.8387705974
 20
-25.277460806
 10
2.8542469214
 20
-25.2939170166
 10
2.8701841018
 20
-25.3097021548
 10
2.8865734768
 20
-25.3248076002
 10
2.9034058339
 20
-25.3392249515
 10
2.9206720031
 20
-25.3529463172
 10
2.9383626192
 20
-25.365964229
 10
2.9564678305
 20
-25.3782714832
 10
2.974977853
 20
-25.3898613884
 10
2.9938825836
 20
-25.4007275873
 10
3.0128475557
 20
-25.4107014135
  0
LINE
  5
32D
100
AcDbEntity
  8
RACCORDO
100
AcDbLine
 62
253
  6
CONTINUOUS
 10
1.9161118921
 20
7.4686860182
 11
1.8969687576
 21
6.7116661978
  0
LINE
  5
32E
100
AcDbEntity
  8
RACCORDO
100
AcDbLine
 62
7
  6
CONTINUOUS
 10
1.892516885
 20
7.7215471436
 11
1.8692249471
 21
6.8095582265
  0
LINE
  5
32F
100
AcDbEntity
  8
RACCORDO
100
AcDbLine
 62
253
  6
CONTINUOUS
 10
1.6182558314
 20
8.0576734385
 11
1.5932593108
 21
7.0978603983
  0
LINE
  5
330
100
AcDbEntity
  8
RACCORDO
100
AcDbLine
 62
7
  6
CONTINUOUS
 10
1.9209157004
 20
8.7620004289
 11
1.892516885
 21
7.7215471436
  0
LWPOLYLINE
  5
331
100
AcDbEntity
  8
RACCORDO
100
AcDbPolyline
 62
253
  6
CONTINUOUS
 90
29
 70
0
 10
2.5446229124
 20
8.5548136747
 10
2.5108117192
 20
7.3516760161
 10
2.4797044824
 20
6.1497368494
 10
2.4513014356
 20
4.9490052146
 10
2.4256027997
 20
3.7494901388
 10
2.4026087656
 20
2.5512006444
 10
2.3823195023
 20
1.3541457459
 10
2.3647351674
 20
0.1583344436
 10
2.3498558921
 20
-1.0362242682
 10
2.3376817851
 20
-2.2295214038
 10
2.3282129411
 20
-3.4215479901
 10
2.3214494311
 20
-4.612295059
 10
2.3173913039
 20
-5.8017536569
 10
2.3160385912
 20
-6.989914846
 10
2.317391304
 20
-8.1767696908
 10
2.3214494311
 20
-9.3623092644
 10
2.3282129411
 20
-10.5465246579
 10
2.3376817851
 20
-11.7294069683
 10
2.3498558921
 20
-12.9109472967
 10
2.3647351674
 20
-14.0911367551
 10
2.3823195023
 20
-15.2699664688
 10
2.4026087656
 20
-16.4474275725
 10
2.4256027997
 20
-17.6235112078
 10
2.4513014356
 20
-18.7982085314
 10
2.4797044824
 20
-19.9715107097
 10
2.5108117191
 20
-21.1434089144
 10
2.5446229123
 20
-22.313894332
 10
2.5811378158
 20
-23.4829581632
 10
2.6203561595
 20
-24.650591618
  0
LINE
  5
332
100
AcDbEntity
  8
RACCORDO
100
AcDbLine
 62
253
  6
CONTINUOUS
 10
1.6449452012
 20
9.0182589135
 11
1.6182558314
 21
8.0576734385
  0
LINE
  5
333
100
AcDbEntity
  8
RACCORDO
100
AcDbLine
 62
7
  6
CONTINUOUS
 10
1.9512826688
 20
9.8033494885
 11
1.9209157004
 21
8.7620004289
  0
LINE
  5
334
100
AcDbEntity
  8
RACCORDO
100
AcDbLine
 62
253
  6
CONTINUOUS
 10
1.6733273038
 20
9.9796134137
 11
1.6449452012
 21
9.0182589135
  0
LWPOLYLINE
  5
335
100
AcDbEntity
  8
RACCORDO
100
AcDbPolyline
 62
253
  6
CONTINUOUS
 90
6
 70
0
 10
2.0274907623
 20
11.2610809483
 10
2.0031267796
 20
10.5016367192
 10
1.9798068328
 20
9.74267285
 10
1.9575309919
 20
8.9841916031
 10
1.9362993237
 20
8.2261952394
 10
1.9161118921
 20
7.4686860182
  0
LWPOLYLINE
  5
336
100
AcDbEntity
  8
RACCORDO
100
AcDbPolyline
 62
7
  6
CONTINUOUS
 90
3
 70
0
 10
1.9981952367
 20
11.2961189228
 10
1.9836175986
 20
10.8455889058
 10
1.9512826688
 20
9.8033494885
  0
LWPOLYLINE
  5
337
100
AcDbEntity
  8
RACCORDO
100
AcDbPolyline
 62
253
  6
CONTINUOUS
 90
3
 70
0
 10
1.7190742788
 20
11.4230857317
 10
1.7034021391
 20
10.9417371451
 10
1.6733273038
 20
9.9796134137
  0
LINE
  5
338
100
AcDbEntity
  8
RACCORDO
100
AcDbLine
 62
253
  6
CONTINUOUS
 10
2.6203561595
 20
10.9646482496
 11
2.588736649
 21
9.992716426
  0
LINE
  5
339
100
AcDbEntity
  8
RACCORDO
100
AcDbLine
 62
253
  6
CONTINUOUS
 10
2.588736649
 20
9.992716426
 11
2.5446229124
 21
8.5548136747
  0
LINE
  5
33A
100
AcDbEntity
  8
RACCORDO
100
AcDbLine
 62
7
  6
CONTINUOUS
 10
1.9996021888
 20
11.3289258953
 11
1.9982035231
 21
11.2961025198
  0
LINE
  5
33B
100
AcDbEntity
  8
RACCORDO
100
AcDbLine
 62
253
  6
CONTINUOUS
 10
2.0331243053
 20
11.3549752401
 11
2.0274907623
 21
11.2610809483
  0
LWPOLYLINE
  5
33C
100
AcDbEntity
  8
RACCORDO
100
AcDbPolyline
 62
253
  6
CONTINUOUS
 90
14
 70
0
 10
7.5557520255
 20
16.1655262315
 10
7.545576768
 20
16.1419872782
 10
7.5335932246
 20
16.1196286694
 10
7.5199231007
 20
16.098698929
 10
7.5046991431
 20
16.0794233214
 10
7.4880874789
 20
16.0620320356
 10
7.4702927258
 20
16.0467470737
 10
7.4515199916
 20
16.0337420532
 10
7.4319653555
 20
16.0231503832
 10
7.4118418799
 20
16.015087578
 10
7.3913688809
 20
16.0096419193
 10
7.3707709444
 20
16.0068735474
 10
7.350274695
 20
16.0068129193
 10
7.3289090894
 20
16.0097049543
  0
LINE
  5
33D
100
AcDbEntity
  8
0
100
AcDbLine
 62
7
  6
CONTINUOUS
 10
-10.3659037505
 20
-7.7184060822
 11
-10.2765500301
 21
-7.6737292221
  0
LWPOLYLINE
  5
33E
100
AcDbEntity
  8
ASSI
100
AcDbPolyline
 62
7
  6
CONTINUOUS
 90
5
 70
0
 10
-12.0576060767
 20
-5.9108999451
 10
-12.045644699
 20
-5.9054635772
 10
-11.9972835679
 20
-5.8956972552
 10
-11.9418666429
 20
-5.9013528998
 10
-11.8793939239
 20
-5.922430511
  0
LWPOLYLINE
  5
33F
100
AcDbEntity
  8
ASSI
100
AcDbPolyline
 62
7
  6
CONTINUOUS
 90
5
 70
0
 10
-11.7011817712
 20
-6.6267813999
 10
-11.7131431488
 20
-6.6322177677
 10
-11.7615042799
 20
-6.6419840898
 10
-11.816921205
 20
-6.6363284452
 10
-11.8793939239
 20
-6.615250834
  0
LWPOLYLINE
  5
340
100
AcDbEntity
  8
SMUSSO
100
AcDbPolyline
 62
7
  6
CONTINUOUS
 90
7
 70
0
 10
-3.3941125497
 20
3.8409011774
 10
-2.8843071309
 20
3.5579330849
 10
-2.3826181508
 20
3.2147390671
 10
-1.8890456092
 20
2.8113191242
 10
-1.3967949485
 20
2.3429178559
 10
-0.9126607264
 20
1.8142906623
 10
-0.6502982086
 20
1.4834329254
  0
LWPOLYLINE
  5
341
100
AcDbEntity
  8
0
100
AcDbPolyline
 62
7
  6
CONTINUOUS
 90
11
 70
0
 10
-3.3941125497
 20
2.3253567208
 10
-2.9329043446
 20
2.0589860226
 10
-2.4895222798
 20
1.7415441657
 10
-2.0639663551
 20
1.3730311501
 10
-1.6510112225
 20
0.9471394226
 10
-1.2558822301
 20
0.4701765364
 10
-0.8942554225
 20
-0.0389348487
 10
-0.5674777524
 20
-0.5814872605
 10
-0.2742022671
 20
-1.1561881713
 10
-0.0260641534
 20
-1.7402373378
 10
0.1751218445
 20
-2.3340106059
  0
LINE
  5
342
100
AcDbEntity
  8
SMUSSO
100
AcDbLine
 62
7
  6
CONTINUOUS
 10
1.5211186535
 20
-3.1391396438
 11
1.617110507
 21
-3.6214584713
  0
LWPOLYLINE
  5
343
100
AcDbEntity
  8
SMUSSO
100
AcDbPolyline
 62
7
  6
CONTINUOUS
 90
5
 70
0
 10
1.617110507
 20
-3.6214584713
 10
1.703347139
 20
-4.3258989638
 10
1.7324115813
 20
-5.0017609192
 10
1.7032107918
 20
-5.6485091158
 10
1.6168378126
 20
-6.2666787752
  0
LINE
  5
344
100
AcDbEntity
  8
RACCORDO
100
AcDbLine
 62
253
  6
CONTINUOUS
 10
3.6748923654
 20
17.6946484842
 11
3.6748923654
 21
18.775231795
  0
LWPOLYLINE
  5
345
100
AcDbEntity
  8
RACCORDO
100
AcDbPolyline
 62
253
  6
CONTINUOUS
 90
31
 70
0
 10
3.3209396334
 20
10.9436328239
 10
3.2817594198
 20
9.7393161203
 10
3.2452804953
 20
8.5361966791
 10
3.21150286
 20
7.3342745003
 10
3.1804263005
 20
6.1335405623
 10
3.1520510302
 20
4.9340038866
 10
3.1263776891
 20
3.735691538
 10
3.1034063382
 20
2.5386035441
 10
3.0831369165
 20
1.3427398772
 10
3.0655698812
 20
0.1481275191
 10
3.0507052934
 20
-1.0452335019
 10
3.0385430919
 20
-2.237343214
 10
3.0290835512
 20
-3.4281747202
 10
3.022326732
 20
-4.617727989
 10
3.0182725735
 20
-5.8060030518
 10
3.0169211671
 20
-6.992973106
 10
3.0182725735
 20
-8.178638122
 10
3.0223267321
 20
-9.3629981293
 10
3.0290835512
 20
-10.5460264134
 10
3.038543092
 20
-11.727722947
 10
3.0507052935
 20
-12.9080877574
 10
3.0655698814
 20
-14.0870942125
 10
3.0831369167
 20
-15.2647422816
 10
3.1034063383
 20
-16.4410319952
 10
3.1263776893
 20
-17.6159368133
 10
3.1520510304
 20
-18.7894567049
 10
3.1804263008
 20
-19.9615917008
 10
3.2115028602
 20
-21.1323153534
 10
3.2452804955
 20
-22.3016188468
 10
3.2817594199
 20
-23.469510997
 10
3.3209396334
 20
-24.6359918038
  0
LWPOLYLINE
  5
346
100
AcDbEntity
  8
RACCORDO
100
AcDbPolyline
 62
253
  6
CONTINUOUS
 90
15
 70
0
 10
2.0556331782
 20
-7.9509102931
 10
2.0034247732
 20
-8.3584657076
 10
1.9341415847
 20
-8.7525074959
 10
1.8476144103
 20
-9.1329264806
 10
1.7439899581
 20
-9.4998423755
 10
1.624017394
 20
-9.8503633949
 10
1.4875562912
 20
-10.1843242332
 10
1.3347102047
 20
-10.5019082374
 10
1.1665803432
 20
-10.800753753
 10
0.9830224369
 20
-11.0807373018
 10
0.7841337745
 20
-11.3420058483
 10
0.5713666732
 20
-11.5826092291
 10
0.3445693546
 20
-11.8024105299
 10
0.1038405442
 20
-12.0015735804
 10
-0.1490002129
 20
-12.1786038055
  0
LWPOLYLINE
  5
347
100
AcDbEntity
  8
SMUSSO
100
AcDbPolyline
 62
7
  6
CONTINUOUS
 90
3
 70
0
 10
1.6168378126
 20
-6.2666787752
 10
1.4749309256
 20
-6.8371811964
 10
1.275021053
 20
-7.3598860661
  0
LINE
  5
348
100
AcDbEntity
  8
0
100
AcDbLine
 62
7
  6
CONTINUOUS
 10
-10.719457141
 20
-9.1004751138
 11
-10.1205718629
 21
-8.8010324747
  0
LINE
  5
349
100
AcDbEntity
  8
0
100
AcDbLine
 62
7
  6
CONTINUOUS
 10
-10.3659037505
 20
-9.2772518091
 11
-10.1209819387
 21
-9.1547909032
  0
LWPOLYLINE
  5
34A
100
AcDbEntity
  8
ASSI
100
AcDbPolyline
 62
7
  6
CONTINUOUS
 90
5
 70
0
 10
-13.4011089609
 20
-8.8764551989
 10
-13.3891475833
 20
-8.871018831
 10
-13.3407864522
 20
-8.8612525089
 10
-13.2853695272
 20
-8.8669081535
 10
-13.2228968082
 20
-8.8879857647
  0
LWPOLYLINE
  5
34B
100
AcDbEntity
  8
ASSI
100
AcDbPolyline
 62
7
  6
CONTINUOUS
 90
5
 70
0
 10
-12.0576060767
 20
-8.855386318
 10
-12.045644699
 20
-8.8499499501
 10
-11.9972835679
 20
-8.840183628
 10
-11.9418666429
 20
-8.8458392726
 10
-11.8793939239
 20
-8.8669168838
  0
LWPOLYLINE
  5
34C
100
AcDbEntity
  8
ASSI
100
AcDbPolyline
 62
7
  6
CONTINUOUS
 90
5
 70
0
 10
-13.0446846554
 20
-9.5923366536
 10
-13.0566460331
 20
-9.5977730215
 10
-13.1050071642
 20
-9.6075393435
 10
-13.1604240892
 20
-9.601883699
 10
-13.2228968082
 20
-9.5808060878
  0
LWPOLYLINE
  5
34D
100
AcDbEntity
  8
ASSI
100
AcDbPolyline
 62
7
  6
CONTINUOUS
 90
5
 70
0
 10
-11.7011817712
 20
-9.5712677727
 10
-11.7131431488
 20
-9.5767041406
 10
-11.7615042799
 20
-9.5864704626
 10
-11.816921205
 20
-9.5808148181
 10
-11.8793939239
 20
-9.5597372069
  0
LWPOLYLINE
  5
34E
100
AcDbEntity
  8
SMUSSO
100
AcDbPolyline
 62
7
  6
CONTINUOUS
 90
4
 70
0
 10
-4.8985413534
 20
4.3163397778
 10
-4.405151898
 20
4.2261511234
 10
-3.9036756301
 20
4.0676715899
 10
-3.3941125497
 20
3.8409011774
  0
LINE
  5
34F
100
AcDbEntity
  8
RACCORDO
100
AcDbLine
 62
7
  6
CONTINUOUS
 10
-5.2982285762
 20
5.6600848936
 11
-4.9918346586
 21
5.5151243998
  0
LWPOLYLINE
  5
350
100
AcDbEntity
  8
RACCORDO
100
AcDbPolyline
 62
7
  6
CONTINUOUS
 90
51
 70
0
 10
-4.991830387
 20
5.5151235093
 10
-4.6964198007
 20
5.3597516337
 10
-4.3449492665
 20
5.1549097243
 10
-3.9950506161
 20
4.9291637663
 10
-3.6477025322
 20
4.6830603479
 10
-3.3037657196
 20
4.4172068859
 10
-2.964060507
 20
4.1322267012
 10
-2.6293862907
 20
3.8287444305
 10
-2.3005948451
 20
3.5075399285
 10
-1.9785767802
 20
3.1694833907
 10
-1.6641529303
 20
2.8154098566
 10
-1.3580719464
 20
2.4462043756
 10
-1.0611027444
 20
2.0628303812
 10
-0.7739805698
 20
1.666236474
 10
-0.4973839422
 20
1.2574243799
 10
-0.2319856891
 20
0.8374461163
 10
0.0215624144
 20
0.4073456853
 10
0.2626671936
 20
-0.0317876198
 10
0.4907548055
 20
-0.4788279285
 10
0.7052680474
 20
-0.9326562687
 10
0.9057147344
 20
-1.3921291057
 10
1.0916306353
 20
-1.8560791392
 10
1.2625589426
 20
-2.3233294101
 10
1.4181201688
 20
-2.7927192462
 10
1.5579757303
 20
-3.263103052
 10
1.681781187
 20
-3.7332950987
 10
1.7892629096
 20
-4.2021221393
 10
1.8801953821
 20
-4.6684547436
 10
1.9543501878
 20
-5.1311294966
 10
2.0115637945
 20
-5.5889770459
 10
2.0517212581
 20
-6.0408571598
 10
2.0747151947
 20
-6.4856257662
 10
2.0805073186
 20
-6.9221740496
 10
2.0691081492
 20
-7.3494166588
 10
2.0405399
 20
-7.7662391345
 10
1.9948901384
 20
-8.1716390599
 10
1.9322821994
 20
-8.564697689
 10
1.8528535531
 20
-8.9444063063
 10
1.7568070296
 20
-9.3098219552
 10
1.6443717578
 20
-9.6601202634
 10
1.515800633
 20
-9.9943993071
 10
1.3714098898
 20
-10.3118241698
 10
1.2115336747
 20
-10.6116776489
 10
1.0365162907
 20
-10.8932144907
 10
0.8467916921
 20
-11.1557086427
 10
0.6428453869
 20
-11.3985119027
 10
0.4251471799
 20
-11.6210168204
 10
0.194201853
 20
-11.8227102803
 10
-0.0494417448
 20
-12.0031451229
 10
-0.3052340334
 20
-12.1618797172
 10
-0.4373259392
 20
-12.2329025097
  0
LWPOLYLINE
  5
351
100
AcDbEntity
  8
RACCORDO
100
AcDbPolyline
 62
253
  6
CONTINUOUS
 90
35
 70
0
 10
-5.0178075849
 20
5.5709857978
 10
-4.6556495533
 20
5.3783413508
 10
-4.2967585996
 20
5.165196238
 10
-3.9411306398
 20
4.9315524001
 10
-3.5878665634
 20
4.6766604531
 10
-3.2378491536
 20
4.4012775463
 10
-2.8937436481
 20
4.1076670979
 10
-2.5556644259
 20
3.795782177
 10
-2.2234663183
 20
3.4656844014
 10
-1.8994231924
 20
3.1198010057
 10
-1.583577184
 20
2.7580722559
 10
-1.2758436922
 20
2.3805782417
 10
-0.9783062862
 20
1.9899560603
 10
-0.6909608604
 20
1.5860765017
 10
-0.4137607529
 20
1.169093279
 10
-0.1487279608
 20
0.7420668411
 10
0.1040950383
 20
0.304889327
 10
0.344805268
 20
-0.1423048377
 10
0.5715845857
 20
-0.5960943065
 10
0.7843343453
 20
-1.0564930086
 10
0.9832062448
 20
-1.5234608777
 10
1.1667491423
 20
-1.9934996239
 10
1.334866382
 20
-2.4666129575
 10
1.4877016211
 20
-2.9427736634
 10
1.6241529879
 20
-3.4184424515
 10
1.74411863
 20
-3.8936711773
 10
1.8477373467
 20
-4.3683891175
 10
1.934254309
 20
-4.8388798935
 10
2.0035207308
 20
-5.3050987109
 10
2.0557079189
 20
-5.7670783927
 10
2.090525074
 20
-6.2212269121
 10
2.1078718011
 20
-6.6671600339
 10
2.1078539164
 20
-7.105258406
 10
2.090475483
 20
-7.5330845115
 10
2.0556331782
 20
-7.9509102931
  0
LWPOLYLINE
  5
352
100
AcDbEntity
  8
RACCORDO
100
AcDbPolyline
 62
253
  6
CONTINUOUS
 90
16
 70
0
 10
4.0021272928
 20
12.1017637682
 10
3.9982605905
 20
12.1469723584
 10
3.9906352169
 20
12.1936542322
 10
3.9793346195
 20
12.2412985272
 10
3.9644824659
 20
12.2893838486
 10
3.9462412903
 20
12.3373839754
 10
3.9248107151
 20
12.3847736194
 10
3.9004252656
 20
12.4310341728
 10
3.8733518032
 20
12.4756593839
 10
3.8438866062
 20
12.5181608976
 10
3.8123521266
 20
12.5580735994
 10
3.7790934616
 20
12.5949607054
 10
3.7444745768
 20
12.6284185423
 10
3.7088743237
 20
12.6580809647
 10
3.6726822932
 20
12.6836233628
 10
3.6362945527
 20
12.7047662139
  0
LWPOLYLINE
  5
353
100
AcDbEntity
  8
RACCORDO
100
AcDbPolyline
 62
253
  6
CONTINUOUS
 90
10
 70
0
 10
7.2032300659
 20
-25.4735391182
 10
7.2041975244
 20
-25.4956754774
 10
7.2070895174
 20
-25.5166031719
 10
7.2118746942
 20
-25.5360928991
 10
7.2185020878
 20
-25.5539335605
 10
7.2268988308
 20
-25.5699264641
 10
7.236968371
 20
-25.5838903586
 10
7.2485949492
 20
-25.5956717431
 10
7.2616524445
 20
-25.6051488964
 10
7.2680435043
 20
-25.6086774486
  0
LWPOLYLINE
  5
354
100
AcDbEntity
  8
RACCORDO
100
AcDbPolyline
 62
253
  6
CONTINUOUS
 90
8
 70
0
 10
5.8782453861
 20
-24.8110467783
 10
5.8792066337
 20
-24.8331137167
 10
5.8820799229
 20
-24.8539794234
 10
5.8868340058
 20
-24.8734169781
 10
5.8934171804
 20
-24.891214992
 10
5.9017578529
 20
-24.9071799067
 10
5.9117653162
 20
-24.9211380995
 10
5.9233307363
 20
-24.9329377711
  0
LINE
  5
355
100
AcDbEntity
  8
RACCORDO
100
AcDbLine
 62
7
  6
CONTINUOUS
 10
5.8050832422
 20
-24.7281863953
 11
5.8050221199
 21
-24.7225890661
  0
LINE
  5
356
100
AcDbEntity
  8
RACCORDO
100
AcDbLine
 62
253
  6
CONTINUOUS
 10
4.3799362847
 20
17.7161842475
 11
4.3799362847
 21
18.9489112199
  0
LINE
  5
357
100
AcDbEntity
  8
ASSI
100
AcDbLine
 62
253
  6
CONTINUOUS
 10
4.5057056316
 20
23.3287418201
 11
4.5057056316
 21
24.5561129507
  0
LINE
  5
358
100
AcDbEntity
  8
RACCORDO
100
AcDbLine
 62
7
  6
CONTINUOUS
 10
4.6310551389
 20
23.4777922663
 11
4.6310551389
 21
24.5647062283
  0
LINE
  5
359
100
AcDbEntity
  8
DRAFT
100
AcDbLine
 62
7
  6
CONTINUOUS
 10
4.7376154339
 20
19.1282157647
 11
4.7376154339
 21
17.9157801994
  0
LINE
  5
35A
100
AcDbEntity
  8
RACCORDO
100
AcDbLine
 62
7
  6
CONTINUOUS
 10
5.8050220814
 20
17.256893577
 11
5.8050220814
 21
16.9169196429
  0
LINE
  5
35B
100
AcDbEntity
  8
RACCORDO
100
AcDbLine
 62
7
  6
CONTINUOUS
 10
5.8050220814
 20
-24.6060974724
 11
5.8050220814
 21
-24.7226584306
  0
LINE
  5
35C
100
AcDbEntity
  8
RACCORDO
100
AcDbLine
 62
253
  6
CONTINUOUS
 10
5.8782453861
 20
17.1685052294
 11
5.8782453861
 21
16.8285312953
  0
LINE
  5
35D
100
AcDbEntity
  8
RACCORDO
100
AcDbLine
 62
253
  6
CONTINUOUS
 10
5.8782453861
 20
-24.5759294026
 11
5.8782453861
 21
-24.8110467783
  0
LWPOLYLINE
  5
35E
100
AcDbEntity
  8
RACCORDO
100
AcDbPolyline
 62
253
  6
CONTINUOUS
 90
16
 70
0
 10
5.8782453861
 20
17.1685052294
 10
5.8792066337
 20
17.1915334155
 10
5.8820799229
 20
17.2152724114
 10
5.8868340058
 20
17.2394640489
 10
5.8934171804
 20
17.2638452374
 10
5.9017578529
 20
17.2881508247
 10
5.9117653162
 20
17.3121164807
 10
5.9233307363
 20
17.3354815725
 10
5.9363283361
 20
17.3579919981
 10
5.9506167632
 20
17.3794029505
 10
5.9660406269
 20
17.3994815796
 10
5.9824321885
 20
17.4180095249
 10
5.9996131852
 20
17.4347852898
 10
6.017396769
 20
17.4496264332
 10
6.0355895384
 20
17.4623715536
 10
6.053993642
 20
17.4728820443
  0
LWPOLYLINE
  5
35F
100
AcDbEntity
  8
RACCORDO
100
AcDbPolyline
 62
253
  6
CONTINUOUS
 90
6
 70
0
 10
4.0021272928
 20
-25.1363074719
 10
3.9982606266
 20
-25.1814467675
 10
3.9906352848
 20
-25.2241240619
 10
3.979334715
 20
-25.263872317
 10
3.9644825847
 20
-25.3002565483
 10
3.9462414278
 20
-25.3328785853
  0
LWPOLYLINE
  5
360
100
AcDbEntity
  8
RACCORDO
100
AcDbPolyline
 62
253
  6
CONTINUOUS
 90
8
 70
0
 10
9.7571712383
 20
17.3056822656
 10
9.7545207824
 20
17.2927688753
 10
9.7491618733
 20
17.2799923503
 10
9.7411671191
 20
17.2675648724
 10
9.730642205
 20
17.2556403386
 10
9.7177206556
 20
17.2443515873
 10
9.7025485576
 20
17.2338112811
 10
9.6852999881
 20
17.2241294724
  0
LWPOLYLINE
  5
361
100
AcDbEntity
  8
SMUSSO
100
AcDbPolyline
 62
7
  6
CONTINUOUS
 90
4
 70
0
 10
2.0729645437
 20
-7.2048784049
 10
1.9516136504
 20
-7.5254974292
 10
1.6806040584
 20
-8.0293379849
 10
1.3555095525
 20
-8.4663789434
  0
LWPOLYLINE
  5
362
100
AcDbEntity
  8
SMUSSO
100
AcDbPolyline
 62
7
  6
CONTINUOUS
 90
4
 70
0
 10
1.275021053
 20
-7.3598860661
 10
1.0195772725
 20
-7.8349236975
 10
0.7176451
 20
-8.2435963294
 10
0.3662238038
 20
-8.5823627018
  0
LINE
  5
363
100
AcDbEntity
  8
0
100
AcDbLine
 62
7
  6
CONTINUOUS
 10
-11.2630031126
 20
-10.5648557393
 11
-10.2614605473
 21
-10.0640844566
  0
LINE
  5
364
100
AcDbEntity
  8
0
100
AcDbLine
 62
7
  6
CONTINUOUS
 10
-11.0799001886
 20
-11.8149450638
 11
-6.1301527203
 21
-9.3400713296
  0
LINE
  5
365
100
AcDbEntity
  8
0
100
AcDbLine
 62
7
  6
CONTINUOUS
 10
11.7853560402
 20
-0.3823169494
 11
15.507314784
 21
1.4786624225
  0
LINE
  5
366
100
AcDbEntity
  8
0
100
AcDbLine
 62
7
  6
CONTINUOUS
 10
-5.8841852428
 20
-9.8320062847
 11
-0.9344377744
 21
-7.3571325505
  0
LINE
  5
367
100
AcDbEntity
  8
0
100
AcDbLine
 62
7
  6
CONTINUOUS
 10
10.2176929881
 20
-1.7810671692
 11
10.7328241151
 21
-1.5235016057
  0
LWPOLYLINE
  5
368
100
AcDbEntity
  8
0
100
AcDbPolyline
 62
7
  6
CONTINUOUS
 90
21
 70
0
 10
-11.2821689746
 20
-11.4112516297
 10
-11.395330894
 20
-11.4630184972
 10
-11.7026172286
 20
-11.5580255972
 10
-12.0320826861
 20
-11.5948941113
 10
-12.3828700219
 20
-11.5758711518
 10
-12.7410623684
 20
-11.501711421
 10
-13.1069574435
 20
-11.3701981495
 10
-13.4802575291
 20
-11.1835481067
 10
-13.8461526042
 20
-10.9491663032
 10
-14.2043449507
 20
-10.6651336874
 10
-14.5551322865
 20
-10.3333693111
 10
-14.884597744
 20
-9.9670353395
 10
-15.1918840786
 20
-9.5647419049
 10
-15.4778485349
 20
-9.1278788751
 10
-15.7311459782
 20
-8.6737780189
 10
-15.950463034
 20
-8.2017462909
 10
-16.1371130768
 20
-7.7124767365
 10
-16.2836910961
 20
-7.2253802607
 10
-16.3877287548
 20
-6.7469271653
 10
-16.45169439
 20
-6.2706471487
 10
-16.4755880016
 20
-5.7965402106
  0
LWPOLYLINE
  5
369
100
AcDbEntity
  8
0
100
AcDbPolyline
 62
7
  6
CONTINUOUS
 90
9
 70
0
 10
-11.2638307293
 20
-10.560786601
 10
-11.4477733865
 20
-10.6381920687
 10
-11.781079691
 20
-10.711206996
 10
-12.1404324125
 20
-10.7046438246
 10
-12.5243860329
 20
-10.6237788509
 10
-12.9089995986
 20
-10.4736535637
 10
-13.2862927915
 20
-10.2559484592
 10
-13.6642459295
 20
-9.9689830413
 10
-14.0428590126
 20
-9.6127573098
  0
LWPOLYLINE
  5
36A
100
AcDbEntity
  8
0
100
AcDbPolyline
 62
7
  6
CONTINUOUS
 90
3
 70
0
 10
-4.7189299336
 20
5.3537540724
 10
-5.2757026047
 20
5.2384426766
 10
-5.7296439552
 20
5.0591498325
  0
LWPOLYLINE
  5
36B
100
AcDbEntity
  8
SMUSSO
100
AcDbPolyline
 62
7
  6
CONTINUOUS
 90
5
 70
0
 10
-5.6916640602
 20
4.9386234221
 10
-5.1785200204
 20
4.9879354379
 10
-4.6502649476
 20
4.9596395892
 10
-4.1143373299
 20
4.8576630444
 10
-3.7147346484
 20
4.7305540112
  0
LINE
  5
36C
100
AcDbEntity
  8
0
100
AcDbLine
 62
7
  6
CONTINUOUS
 10
-4.6878022503
 20
5.3547292055
 11
-4.7189299336
 21
5.3537540724
  0
LWPOLYLINE
  5
36D
100
AcDbEntity
  8
RACCORDO
100
AcDbPolyline
 62
7
  6
CONTINUOUS
 90
3
 70
0
 10
-11.4820862652
 20
13.5924580792
 10
-11.4680866647
 20
13.5847295539
 10
-11.4645382384
 20
13.5829296574
  0
LWPOLYLINE
  5
36E
100
AcDbEntity
  8
RACCORDO
100
AcDbPolyline
 62
7
  6
CONTINUOUS
 90
6
 70
0
 10
1.646367797
 20
7.0403697792
 10
1.6347505749
 20
7.0511313188
 10
1.6236298419
 20
7.0623159907
 10
1.6130163148
 20
7.0738799382
 10
1.6028960086
 20
7.0857483658
 10
1.5932593108
 20
7.0978603983
  0
LWPOLYLINE
  5
36F
100
AcDbEntity
  8
RACCORDO
100
AcDbPolyline
 62
7
  6
CONTINUOUS
 90
10
 70
0
 10
1.8969686752
 20
6.7116662389
 10
1.8912214592
 20
6.7224599122
 10
1.886072753
 20
6.7335478884
 10
1.8815415515
 20
6.7448762228
 10
1.8775841362
 20
6.7563918025
 10
1.8742647511
 20
6.7680184234
 10
1.8717665242
 20
6.7796563138
 10
1.870070399
 20
6.7911970668
 10
1.8691949237
 20
6.8025726974
 10
1.8691792755
 20
6.8095484155
  0
LWPOLYLINE
  5
370
100
AcDbEntity
  8
RACCORDO
100
AcDbPolyline
 62
253
  6
CONTINUOUS
 90
13
 70
0
 10
14.2707498561
 20
-15.673178785
 10
14.2829890894
 20
-15.6971201112
 10
14.2934987086
 20
-15.7228018577
 10
14.3022048564
 20
-15.7499819355
 10
14.308971464
 20
-15.7784451228
 10
14.3137075849
 20
-15.8080262606
 10
14.3164218569
 20
-15.8385336344
 10
14.3170015802
 20
-15.8698136836
 10
14.3153702731
 20
-15.9015775105
 10
14.3116245253
 20
-15.9334162803
 10
14.3057894706
 20
-15.9650327161
 10
14.2977934564
 20
-15.996244363
 10
14.2876343591
 20
-16.0268135406
  0
LWPOLYLINE
  5
371
100
AcDbEntity
  8
ASSI
100
AcDbPolyline
 62
7
  6
CONTINUOUS
 90
4
 70
0
 10
4.6310551017
 20
24.5657318669
 10
4.630768028
 20
24.5685168346
 10
4.6278879059
 20
24.5738045273
 10
4.624205479
 20
24.5764118607
  0
LWPOLYLINE
  5
372
100
AcDbEntity
  8
RACCORDO
100
AcDbPolyline
 62
7
  6
CONTINUOUS
 90
6
 70
0
 10
5.8050220814
 20
16.9169196429
 10
5.8062948713
 20
16.891726119
 10
5.8101370504
 20
16.8666077943
 10
5.8165509044
 20
16.8418763369
 10
5.8254887305
 20
16.8178517958
 10
5.8368625559
 20
16.7948277957
  0
LWPOLYLINE
  5
373
100
AcDbEntity
  8
RACCORDO
100
AcDbPolyline
 62
253
  6
CONTINUOUS
 90
9
 70
0
 10
5.8782453861
 20
16.8285312953
 10
5.8794047663
 20
16.8043554204
 10
5.882891341
 20
16.7815439053
 10
5.888694111
 20
16.7604241542
 10
5.8967852766
 20
16.7412783395
 10
5.9070804034
 20
16.7244376657
 10
5.9194031928
 20
16.7102351628
 10
5.933559559
 20
16.6988820453
 10
5.9432187105
 20
16.6933128312
  0
LWPOLYLINE
  5
374
100
AcDbEntity
  8
RACCORDO
100
AcDbPolyline
 62
253
  6
CONTINUOUS
 90
9
 70
0
 10
7.2032300659
 20
16.1660389553
 10
7.2043894462
 20
16.1418630805
 10
7.2078760208
 20
16.1190515654
 10
7.2136787908
 20
16.0979318142
 10
7.2217699564
 20
16.0787859996
 10
7.2320650833
 20
16.0619453257
 10
7.2443878726
 20
16.0477428228
 10
7.2585442388
 20
16.0363897054
 10
7.2682033903
 20
16.0308204913
  0
LWPOLYLINE
  5
375
100
AcDbEntity
  8
RACCORDO
100
AcDbPolyline
 62
253
  6
CONTINUOUS
 90
16
 70
0
 10
7.5557520255
 20
16.5055001656
 10
7.5546811954
 20
16.5285639264
 10
7.551696678
 20
16.5523489835
 10
7.546831171
 20
16.5765947541
 10
7.5401379795
 20
16.6010356078
 10
7.5316904324
 20
16.6254037771
 10
7.5215810788
 20
16.6494322907
 10
7.5099206741
 20
16.6728578986
 10
7.4968369667
 20
16.6954239558
 10
7.4824732983
 20
16.7168832346
 10
7.4669870333
 20
16.7370006329
 10
7.4505478353
 20
16.7555557495
 10
7.4333358078
 20
16.7723452996
 10
7.4155395213
 20
16.7871853413
 10
7.3973539472
 20
16.7999132909
 10
7.3789783219
 20
16.8103897044
  0
LWPOLYLINE
  5
376
100
AcDbEntity
  8
RACCORDO
100
AcDbPolyline
 62
7
  6
CONTINUOUS
 90
12
 70
0
 10
7.2831998462
 20
23.4795273136
 10
7.2803735397
 20
23.5540919507
 10
7.2724309397
 20
23.6244283823
 10
7.2593720463
 20
23.6905366083
 10
7.2410230283
 20
23.7528476156
 10
7.2175577168
 20
23.8109304174
 10
7.1894976049
 20
23.8634920534
 10
7.1567386299
 20
23.9104101305
 10
7.1193848544
 20
23.9518070417
 10
7.07826996
 20
23.9867570065
 10
7.0333088642
 20
24.0151141847
 10
7.0233366068
 20
24.0202745004
  0
LINE
  5
377
100
AcDbEntity
  8
RACCORDO
100
AcDbLine
 62
7
  6
CONTINUOUS
 10
6.5080150356
 20
15.9569424037
 11
6.5080150356
 21
16.4109146686
  0
LINE
  5
378
100
AcDbEntity
  8
RACCORDO
100
AcDbLine
 62
253
  6
CONTINUOUS
 10
6.5812383403
 20
15.8652288721
 11
6.5812383403
 21
16.3743030162
  0
LINE
  5
379
100
AcDbEntity
  8
RACCORDO
100
AcDbLine
 62
253
  6
CONTINUOUS
 10
7.2032300659
 20
-25.4735391182
 11
7.2032300659
 21
-25.133565184
  0
LINE
  5
37A
100
AcDbEntity
  8
RACCORDO
100
AcDbLine
 62
253
  6
CONTINUOUS
 10
7.2032300659
 20
16.1660389553
 11
7.2032300659
 21
16.5060128895
  0
LINE
  5
37B
100
AcDbEntity
  8
RACCORDO
100
AcDbLine
 62
7
  6
CONTINUOUS
 10
7.2831998462
 20
23.4795273136
 11
7.2831998462
 21
23.208727021
  0
LINE
  5
37C
100
AcDbEntity
  8
RACCORDO
100
AcDbLine
 62
253
  6
CONTINUOUS
 10
7.5557520255
 20
-25.474051842
 11
7.5557520255
 21
-25.1340779079
  0
LINE
  5
37D
100
AcDbEntity
  8
RACCORDO
100
AcDbLine
 62
253
  6
CONTINUOUS
 10
7.5557520255
 20
16.1655262315
 11
7.5557520255
 21
16.5055001656
  0
LINE
  5
37E
100
AcDbEntity
  8
RACCORDO
100
AcDbLine
 62
253
  6
CONTINUOUS
 10
7.914450674
 20
15.8874433282
 11
7.914450674
 21
15.1986227052
  0
LINE
  5
37F
100
AcDbEntity
  8
RACCORDO
100
AcDbLine
 62
253
  6
CONTINUOUS
 10
7.914450674
 20
-23.7322502798
 11
7.914450674
 21
-24.1570687069
  0
LINE
  5
380
100
AcDbEntity
  8
RACCORDO
100
AcDbLine
 62
253
  6
CONTINUOUS
 10
8.2669726336
 20
16.0170227086
 11
8.2669726336
 21
15.2093905869
  0
LINE
  5
381
100
AcDbEntity
  8
RACCORDO
100
AcDbLine
 62
253
  6
CONTINUOUS
 10
8.2669726336
 20
-23.5846257317
 11
8.2669726336
 21
-24.2825814308
  0
LWPOLYLINE
  5
382
100
AcDbEntity
  8
RACCORDO
100
AcDbPolyline
 62
253
  6
CONTINUOUS
 90
16
 70
0
 10
7.2032300659
 20
16.5060128895
 10
7.2041975244
 20
16.5291167072
 10
7.2070895174
 20
16.5529363948
 10
7.2118746942
 20
16.5772112987
 10
7.2185020878
 20
16.6016793538
 10
7.2268988308
 20
16.6260690003
 10
7.236968371
 20
16.650102435
 10
7.2485949492
 20
16.6735103977
 10
7.2616524445
 20
16.6960450463
 10
7.2760031732
 20
16.717470516
 10
7.2915175455
 20
16.7375852505
 10
7.3080024985
 20
16.7561314481
 10
7.3251961821
 20
16.7728325348
 10
7.3428745165
 20
16.7875112698
 10
7.3608670345
 20
16.8000649825
 10
7.3789783219
 20
16.8103897044
  0
LWPOLYLINE
  5
383
100
AcDbEntity
  8
RACCORDO
100
AcDbPolyline
 62
253
  6
CONTINUOUS
 90
10
 70
0
 10
7.2032300659
 20
-25.133565184
 10
7.2044374549
 20
-25.1077002935
 10
7.2080431363
 20
-25.0809812876
 10
7.2139978673
 20
-25.0537731472
 10
7.2222359493
 20
-25.0264018287
 10
7.2326364514
 20
-24.9992877981
 10
7.2449896843
 20
-24.9729335111
 10
7.259073801
 20
-24.9477261588
 10
7.2746933452
 20
-24.9239409723
 10
7.2916184135
 20
-24.9018710102
  0
LINE
  5
384
100
AcDbEntity
  8
RACCORDO
100
AcDbLine
 62
7
  6
CONTINUOUS
 10
9.7524801762
 20
17.2621657989
 11
9.7561703847
 21
17.2862733649
  0
LINE
  5
385
100
AcDbEntity
  8
SMUSSO
100
AcDbLine
 62
7
  6
CONTINUOUS
 10
1.3555095525
 20
-8.4663789434
 11
0.9796990045
 21
-8.8321847016
  0
LWPOLYLINE
  5
386
100
AcDbEntity
  8
0
100
AcDbPolyline
 62
7
  6
CONTINUOUS
 90
4
 70
0
 10
1.9881994837
 20
-8.2136436297
 10
1.7202436964
 20
-8.4707724224
 10
1.2597842522
 20
-8.7748186494
 10
1.2041605556
 20
-8.8033449826
  0
LWPOLYLINE
  5
387
100
AcDbEntity
  8
SMUSSO
100
AcDbPolyline
 62
7
  6
CONTINUOUS
 90
3
 70
0
 10
0.9796990045
 20
-8.8321847016
 10
0.5580026454
 20
-9.1221452916
 10
0.4226992386
 20
-9.1941388243
  0
LINE
  5
388
100
AcDbEntity
  8
SMUSSO
100
AcDbLine
 62
7
  6
CONTINUOUS
 10
0.3662238038
 20
-8.5823627018
 11
-0.0316858844
 21
-8.8547640748
  0
LINE
  5
389
100
AcDbEntity
  8
0
100
AcDbLine
 62
7
  6
CONTINUOUS
 10
0.4253700891
 20
-9.1928050934
 11
1.2031636653
 21
-8.8039083053
  0
LWPOLYLINE
  5
38A
100
AcDbEntity
  8
SMUSSO
100
AcDbPolyline
 62
7
  6
CONTINUOUS
 90
7
 70
0
 10
-0.0316858844
 20
-8.8547640748
 10
-0.4580362546
 20
-9.0527264669
 10
-0.9135960263
 20
-9.1715091841
 10
-1.3975964799
 20
-9.2158529205
 10
-1.889683746
 20
-9.1919057779
 10
-2.3830732014
 20
-9.1017171234
 10
-2.8845494693
 20
-8.94323759
  0
LWPOLYLINE
  5
38B
100
AcDbEntity
  8
0
100
AcDbPolyline
 62
7
  6
CONTINUOUS
 90
6
 70
0
 10
-5.8821192289
 20
-9.8290088509
 10
-5.975026419
 20
-9.8720895697
 10
-6.4027108836
 20
-10.0082422176
 10
-6.8555707426
 20
-10.0573686704
 10
-7.3264917732
 20
-10.017204127
 10
-7.4308876423
 20
-9.9904387906
  0
LWPOLYLINE
  5
38C
100
AcDbEntity
  8
0
100
AcDbPolyline
 62
7
  6
CONTINUOUS
 90
25
 70
0
 10
-11.0791762696
 20
-11.8144672836
 10
-11.2627275746
 20
-11.8937685046
 10
-11.5446099126
 20
-11.9746957219
 10
-11.8395807614
 20
-12.0139776903
 10
-12.1479935723
 20
-12.0104897931
 10
-12.469494894
 20
-11.9653566471
 10
-12.7954801396
 20
-11.8797861854
 10
-13.1260703961
 20
-11.7526864109
 10
-13.4611445765
 20
-11.5851493207
 10
-13.791734833
 20
-11.3816588387
 10
-14.1177200786
 20
-11.1412440548
 10
-14.4392214003
 20
-10.8648758791
 10
-14.7476342112
 20
-10.5599509654
 10
-15.0426050601
 20
-10.2256981481
 10
-15.3244873981
 20
-9.8628885929
 10
-15.5857369915
 20
-9.4812324506
 10
-15.8257966598
 20
-9.0802207753
 10
-16.0452235835
 20
-8.6603625129
 10
-16.2381450712
 20
-8.2328946529
 10
-16.4038453522
 20
-7.7976117006
 10
-16.5430401972
 20
-7.3547191505
 10
-16.6520042276
 20
-6.9160704766
 10
-16.7294956507
 20
-6.4856168366
 10
-16.7767562592
 20
-6.0594070727
 10
-16.7937860532
 20
-5.6374411849
  0
LINE
  5
38D
100
AcDbEntity
  8
RACCORDO
100
AcDbLine
 62
253
  6
CONTINUOUS
 10
1.8969687576
 20
6.7116661978
 11
-11.7444443611
 21
13.5323727571
  0
LINE
  5
38E
100
AcDbEntity
  8
RACCORDO
100
AcDbLine
 62
253
  6
CONTINUOUS
 10
1.870957609
 20
6.8786662245
 11
-11.6036761699
 21
13.6159831139
  0
LINE
  5
38F
100
AcDbEntity
  8
RACCORDO
100
AcDbLine
 62
7
  6
CONTINUOUS
 10
1.6922148997
 20
7.0045529049
 11
-11.4645512916
 21
13.5829360005
  0
LINE
  5
390
100
AcDbEntity
  8
RACCORDO
100
AcDbLine
 62
253
  6
CONTINUOUS
 10
1.5932593108
 20
7.0978603983
 11
-11.417505463
 21
13.6032427852
  0
LWPOLYLINE
  5
391
100
AcDbEntity
  8
RACCORDO
100
AcDbPolyline
 62
7
  6
CONTINUOUS
 90
5
 70
0
 10
1.6976478012
 20
7.0025910461
 10
1.6841032631
 20
7.0110881384
 10
1.6710392886
 20
7.0202699636
 10
1.6584630218
 20
7.0300601446
 10
1.646367797
 20
7.0403697792
  0
LWPOLYLINE
  5
392
100
AcDbEntity
  8
RACCORDO
100
AcDbPolyline
 62
253
  6
CONTINUOUS
 90
13
 70
0
 10
2.8915305511
 20
12.9589950113
 10
2.89031225
 20
12.9628740165
 10
2.8810490255
 20
12.9868071898
 10
2.870159155
 20
13.0104199807
 10
2.8577619441
 20
13.0334536826
 10
2.8439932144
 20
13.0556559301
 10
2.8290038195
 20
13.0767834612
 10
2.8129579834
 20
13.0966047948
 10
2.7960315065
 20
13.1149027587
 10
2.7784098448
 20
13.1314768652
 10
2.760286068
 20
13.146145519
 10
2.7418587428
 20
13.1587480052
 10
2.7233297647
 20
13.1691462437
  0
LWPOLYLINE
  5
393
100
AcDbEntity
  8
RACCORDO
100
AcDbPolyline
 62
7
  6
CONTINUOUS
 90
16
 70
0
 10
9.4996292139
 20
15.1463349585
 10
9.4971607056
 20
15.1876017211
 10
9.4913180262
 20
15.2301943564
 10
9.482155424
 20
15.2736406372
 10
9.4697549313
 20
15.3174532087
 10
9.4542522878
 20
15.3611537424
 10
9.4358342587
 20
15.404278092
 10
9.4146944808
 20
15.4463507
 10
9.3910542596
 20
15.4869063523
 10
9.3651852413
 20
15.5255133391
 10
9.3373710134
 20
15.5617398717
 10
9.3079017708
 20
15.5951919576
 10
9.2770884444
 20
15.6255268743
 10
9.2452596093
 20
15.6524103648
 10
9.2127615302
 20
15.6755274292
 10
9.1799486215
 20
15.6946136056
  0
LWPOLYLINE
  5
394
100
AcDbEntity
  8
RACCORDO
100
AcDbPolyline
 62
7
  6
CONTINUOUS
 90
13
 70
0
 10
9.1570328164
 20
17.3082221691
 10
9.1553943581
 20
17.3371746452
 10
9.1507770109
 20
17.3671528136
 10
9.1432597755
 20
17.3976437616
 10
9.1329712697
 20
17.4281258038
 10
9.1200875242
 20
17.4580774059
 10
9.1048289711
 20
17.4869861083
 10
9.0874566752
 20
17.5143572955
 10
9.0682678705
 20
17.5397226598
 10
9.0475908716
 20
17.562648213
 10
9.0257794533
 20
17.5827417099
 10
9.0032067978
 20
17.5996593593
 10
8.9802591127
 20
17.6131117079
  0
LWPOLYLINE
  5
395
100
AcDbEntity
  8
RACCORDO
100
AcDbPolyline
 62
7
  6
CONTINUOUS
 90
9
 70
0
 10
9.7574978451
 20
-23.9876020348
 10
9.7562250552
 20
-23.9624085109
 10
9.7523828761
 20
-23.9372901862
 10
9.745969022
 20
-23.9125587288
 10
9.7370311959
 20
-23.8885341877
 10
9.7256573706
 20
-23.8655101876
 10
9.7119531716
 20
-23.8437339721
 10
9.6960292383
 20
-23.8234194844
 10
9.6780889445
 20
-23.8048489876
  0
LWPOLYLINE
  5
396
100
AcDbEntity
  8
RACCORDO
100
AcDbPolyline
 62
253
  6
CONTINUOUS
 90
16
 70
0
 10
9.6852999881
 20
17.5716609892
 10
9.6844619062
 20
17.5944517975
 10
9.6817292398
 20
17.6180434567
 10
9.6771052113
 20
17.6421912202
 10
9.6706027835
 20
17.666676171
 10
9.6622738789
 20
17.6911940456
 10
9.6522364589
 20
17.7153613133
 10
9.6406223343
 20
17.7388723841
 10
9.6275440601
 20
17.7615095584
 10
9.6131391885
 20
17.7830329711
 10
9.5975602021
 20
17.8032098151
 10
9.5809815971
 20
17.8218094934
 10
9.5635929744
 20
17.8386178962
 10
9.5455889315
 20
17.8534478286
 10
9.5271656307
 20
17.8661385897
 10
9.5085262844
 20
17.876550528
  0
LINE
  5
397
100
AcDbEntity
  8
RACCORDO
100
AcDbLine
 62
7
  6
CONTINUOUS
 10
9.1570328164
 20
-23.2108648765
 11
9.1570328164
 21
-24.6940172424
  0
LINE
  5
398
100
AcDbEntity
  8
RACCORDO
100
AcDbLine
 62
7
  6
CONTINUOUS
 10
9.1570328164
 20
15.7060715082
 11
9.1570328164
 21
17.3082221691
  0
LINE
  5
399
100
AcDbEntity
  8
RACCORDO
100
AcDbLine
 62
253
  6
CONTINUOUS
 10
9.6852999881
 20
17.5716609892
 11
9.6852999881
 21
17.2241294724
  0
LINE
  5
39A
100
AcDbEntity
  8
RACCORDO
100
AcDbLine
 62
253
  6
CONTINUOUS
 10
9.6852999881
 20
-24.075474667
 11
9.6852999881
 21
-24.4230061837
  0
LINE
  5
39B
100
AcDbEntity
  8
RACCORDO
100
AcDbLine
 62
7
  6
CONTINUOUS
 10
9.7574978451
 20
17.6595336213
 11
9.7574978451
 21
17.3120021046
  0
LINE
  5
39C
100
AcDbEntity
  8
RACCORDO
100
AcDbLine
 62
7
  6
CONTINUOUS
 10
9.7574978451
 20
-23.9876020348
 11
9.7574978451
 21
-24.3351335515
  0
LINE
  5
39D
100
AcDbEntity
  8
ASSI
100
AcDbLine
 62
253
  6
CONTINUOUS
 10
10.0624495042
 20
20.5521116313
 11
10.0624495042
 21
21.7791615985
  0
LINE
  5
39E
100
AcDbEntity
  8
RACCORDO
100
AcDbLine
 62
7
  6
CONTINUOUS
 10
10.186043568
 20
20.7002981384
 11
10.186043568
 21
21.7872826231
  0
LINE
  5
39F
100
AcDbEntity
  8
RACCORDO
100
AcDbLine
 62
7
  6
CONTINUOUS
 10
10.2176929881
 20
-22.5177465707
 11
10.2176929881
 21
15.485504888
  0
LWPOLYLINE
  5
3A0
100
AcDbEntity
  8
RACCORDO
100
AcDbPolyline
 62
253
  6
CONTINUOUS
 90
9
 70
0
 10
9.7574978451
 20
17.6595336213
 10
9.7571946241
 20
17.6533789771
 10
9.7545549405
 20
17.6404103918
 10
9.7492284428
 20
17.6276497769
 10
9.7412730582
 20
17.6152359076
 10
9.7307753036
 20
17.6033037882
 10
9.717849345
 20
17.5919831837
 10
9.7026357559
 20
17.5813972089
 10
9.6852999881
 20
17.5716609892
  0
LINE
  5
3A1
100
AcDbEntity
  8
RACCORDO
100
AcDbLine
 62
7
  6
CONTINUOUS
 10
9.7561703847
 20
17.2862733649
 11
9.7574978436
 21
17.3120159092
  0
LWPOLYLINE
  5
3A2
100
AcDbEntity
  8
RACCORDO
100
AcDbPolyline
 62
253
  6
CONTINUOUS
 90
16
 70
0
 10
-0.1490002129
 20
-12.1786038055
 10
-0.4140505194
 20
-12.3333290301
 10
-0.6912673235
 20
-12.4659494134
 10
-0.9786255008
 20
-12.5755317488
 10
-1.2761708912
 20
-12.6619317538
 10
-1.5839084281
 20
-12.7253199783
 10
-1.8997538869
 20
-12.7652366931
 10
-2.2237906806
 20
-12.781565055
 10
-2.5559778582
 20
-12.774444015
 10
-2.8940444516
 20
-12.7437974651
 10
-3.2381438107
 20
-12.6894524633
 10
-3.588153366
 20
-12.6115980496
 10
-3.9413862182
 20
-12.5107000315
 10
-4.2969523618
 20
-12.3869166302
 10
-4.6557581235
 20
-12.2400981834
 10
-5.0178075849
 20
-12.0702468331
  0
LWPOLYLINE
  5
3A3
100
AcDbEntity
  8
SMUSSO
100
AcDbPolyline
 62
7
  6
CONTINUOUS
 90
8
 70
0
 10
0.4226992386
 20
-9.1941388243
 10
0.0994197537
 20
-9.3316889759
 10
-0.3892198993
 20
-9.4605188522
 10
-0.9021402062
 20
-9.5097190015
 10
-1.4302900191
 20
-9.4813705229
 10
-1.9662869475
 20
-9.3794286334
 10
-2.5049380135
 20
-9.2082435265
 10
-3.0405591591
 20
-8.972703184
  0
LWPOLYLINE
  5
3A4
100
AcDbEntity
  8
RACCORDO
100
AcDbPolyline
 62
253
  6
CONTINUOUS
 90
8
 70
0
 10
-3.6790181763
 20
23.9062885546
 10
-3.6708204669
 20
23.8918428573
 10
-3.664653077
 20
23.8785140368
 10
-3.6605833282
 20
23.8664475865
 10
-3.6586556445
 20
23.8557752202
 10
-3.658891068
 20
23.8466134343
 10
-3.6612870289
 20
23.8390622362
 10
-3.6636576039
 20
23.8354533881
  0
LWPOLYLINE
  5
3A5
100
AcDbEntity
  8
ASSI
100
AcDbPolyline
 62
7
  6
CONTINUOUS
 90
4
 70
0
 10
10.1860435365
 20
21.7882336367
 10
10.1858009136
 20
21.7908046186
 10
10.1830431646
 20
21.7961398901
 10
10.1791949923
 20
21.7989195893
  0
LWPOLYLINE
  5
3A6
100
AcDbEntity
  8
RACCORDO
100
AcDbPolyline
 62
7
  6
CONTINUOUS
 90
10
 70
0
 10
9.7574978451
 20
17.6595336213
 10
9.7554431727
 20
17.6915155366
 10
9.7492268536
 20
17.7233059617
 10
9.7388555373
 20
17.754262805
 10
9.7244380428
 20
17.7837790879
 10
9.7062280627
 20
17.8112118832
 10
9.6845987965
 20
17.8359854647
 10
9.6597844773
 20
17.8577979779
 10
9.6323098232
 20
17.876148416
 10
9.6193191612
 20
17.8831314581
  0
LWPOLYLINE
  5
3A7
100
AcDbEntity
  8
RACCORDO
100
AcDbPolyline
 62
253
  6
CONTINUOUS
 90
9
 70
0
 10
9.7574978279
 20
-24.3351799689
 10
9.7572229417
 20
-24.3409939298
 10
9.7546345529
 20
-24.3539978542
 10
9.7493405425
 20
-24.3668041598
 10
9.7413961036
 20
-24.3792685848
 10
9.7308903701
 20
-24.3912490124
 10
9.7179408355
 20
-24.4026127109
 10
9.7026882761
 20
-24.4132371616
 10
9.6852999881
 20
-24.4230061837
  0
LWPOLYLINE
  5
3A8
100
AcDbEntity
  8
RACCORDO
100
AcDbPolyline
 62
253
  6
CONTINUOUS
 90
9
 70
0
 10
9.7574978451
 20
-23.9876020348
 10
9.7571946241
 20
-23.993756679
 10
9.7545549405
 20
-24.0067252643
 10
9.7492284428
 20
-24.0194858792
 10
9.7412730582
 20
-24.0318997485
 10
9.7307753036
 20
-24.0438318679
 10
9.717849345
 20
-24.0551524724
 10
9.7026357559
 20
-24.0657384472
 10
9.6852999881
 20
-24.075474667
  0
LWPOLYLINE
  5
3A9
100
AcDbEntity
  8
RACCORDO
100
AcDbPolyline
 62
7
  6
CONTINUOUS
 90
10
 70
0
 10
9.4998567241
 20
-22.8718905256
 10
9.4973775826
 20
-22.9121193822
 10
9.4915233014
 20
-22.950118559
 10
9.4823481342
 20
-22.9854784064
 10
9.4699337831
 20
-23.0178218373
 10
9.4544163289
 20
-23.0467980642
 10
9.4359835358
 20
-23.0720849084
 10
9.4148295399
 20
-23.0934096226
 10
9.3911751293
 20
-23.110544303
 10
9.3785830882
 20
-23.1174341914
  0
LWPOLYLINE
  5
3AA
100
AcDbEntity
  8
RACCORDO
100
AcDbPolyline
 62
253
  6
CONTINUOUS
 90
10
 70
0
 10
14.3858234441
 20
18.636729488
 10
14.3851337858
 20
18.6306628285
 10
14.3823420083
 20
18.6235205666
 10
14.3772236185
 20
18.6166932243
 10
14.3695963628
 20
18.6103239872
 10
14.3592952203
 20
18.6045128571
 10
14.346095574
 20
18.5992728544
 10
14.3298101699
 20
18.5947374056
 10
14.3103459017
 20
18.5911507965
 10
14.2876343591
 20
18.5887308544
  0
LINE
  5
3AB
100
AcDbEntity
  8
RACCORDO
100
AcDbLine
 62
7
  6
CONTINUOUS
 10
-0.430891607
 20
-12.2296172594
 11
-0.4374405309
 21
-12.2329742199
  0
LWPOLYLINE
  5
3AC
100
AcDbEntity
  8
RACCORDO
100
AcDbPolyline
 62
253
  6
CONTINUOUS
 90
15
 70
0
 10
-0.4374405309
 20
-12.2329742199
 10
-0.6632620323
 20
-12.3389618884
 10
-0.9480163729
 20
-12.447447306
 10
-1.2428121037
 20
-12.5330945881
 10
-1.5469464237
 20
-12.5957108516
 10
-1.8599172262
 20
-12.6352067055
 10
-2.1809679819
 20
-12.6514534222
 10
-2.509287421
 20
-12.6443720216
 10
-2.8442824456
 20
-12.6139667713
 10
-3.1851968558
 20
-12.5602426125
 10
-3.5311207933
 20
-12.4832695376
 10
-3.8812119277
 20
-12.3832137869
 10
-4.2346031597
 20
-12.2602838668
 10
-4.5904059556
 20
-12.1147229569
 10
-4.9477286383
 20
-11.9468439937
  0
LWPOLYLINE
  5
3AD
100
AcDbEntity
  8
RACCORDO
100
AcDbPolyline
 62
253
  6
CONTINUOUS
 90
13
 70
0
 10
2.0047825839
 20
11.3930751215
 10
1.9853545631
 20
11.3894596938
 10
1.9604812336
 20
11.3862523459
 10
1.9348981689
 20
11.3843187639
 10
1.9088856625
 20
11.3836801325
 10
1.8827287127
 20
11.3843434487
 10
1.8567139007
 20
11.386301445
 10
1.8311262502
 20
11.3895326692
 10
1.8062461047
 20
11.3940017194
 10
1.7823460564
 20
11.3996596317
 10
1.7596879593
 20
11.4064444168
 10
1.7385200601
 20
11.4142817392
 10
1.7190742788
 20
11.4230857317
  0
LWPOLYLINE
  5
3AE
100
AcDbEntity
  8
RACCORDO
100
AcDbPolyline
 62
7
  6
CONTINUOUS
 90
9
 70
0
 10
-11.4820862652
 20
13.5924580792
 10
-11.4773981351
 20
13.5918388374
 10
-11.4720716923
 20
13.5918254541
 10
-11.4660997927
 20
13.5923415518
 10
-11.4594593357
 20
13.5932833455
 10
-11.4521831269
 20
13.5945981697
 10
-11.4443419787
 20
13.596301901
 10
-11.4359549405
 20
13.5983655659
 10
-11.4270062311
 20
13.6006994857
  0
LWPOLYLINE
  5
3AF
100
AcDbEntity
  8
RACCORDO
100
AcDbPolyline
 62
253
  6
CONTINUOUS
 90
10
 70
0
 10
-11.6116153659
 20
18.0806427036
 10
-11.5983438811
 20
18.0750092239
 10
-11.5833484863
 20
18.0704993136
 10
-11.5670797066
 20
18.0672484697
 10
-11.5500263251
 20
18.0653543612
 10
-11.5327006978
 20
18.0648738952
 10
-11.5156233598
 20
18.0658215068
 10
-11.4993073868
 20
18.0681687256
 10
-11.4842429797
 20
18.0718450315
 10
-11.4708827372
 20
18.0767399725
  0
LINE
  5
3B0
100
AcDbEntity
  8
RACCORDO
100
AcDbLine
 62
253
  6
CONTINUOUS
 10
2.6203561595
 20
10.9646482496
 11
2.0274907623
 21
11.2610809483
  0
LINE
  5
3B1
100
AcDbEntity
  8
RACCORDO
100
AcDbLine
 62
253
  6
CONTINUOUS
 10
-11.6116245208
 20
18.0806385898
 11
-12.2044899181
 21
18.3770712884
  0
LINE
  5
3B2
100
AcDbEntity
  8
RACCORDO
100
AcDbLine
 62
253
  6
CONTINUOUS
 10
1.7190742788
 20
11.4230857317
 11
-11.291690495
 21
17.9284681186
  0
LWPOLYLINE
  5
3B3
100
AcDbEntity
  8
RACCORDO
100
AcDbPolyline
 62
253
  6
CONTINUOUS
 90
6
 70
0
 10
2.027490767
 20
11.2610809483
 10
2.0163407698
 20
11.2676583855
 10
2.0076488026
 20
11.2749926499
 10
2.00167605
 20
11.2828633545
 10
1.9986019868
 20
11.2910339929
 10
1.9981947143
 20
11.2961027988
  0
LWPOLYLINE
  5
3B4
100
AcDbEntity
  8
RACCORDO
100
AcDbPolyline
 62
253
  6
CONTINUOUS
 90
10
 70
0
 10
-10.5991926081
 20
19.8225097943
 10
-10.5869684638
 20
19.8150271067
 10
-10.5750031499
 20
19.80520159
 10
-10.5636600156
 20
19.7933316146
 10
-10.5532835165
 20
19.7797776343
 10
-10.5441887543
 20
19.7649512413
 10
-10.536651908
 20
19.749302667
 10
-10.5309018479
 20
19.7333071097
 10
-10.5271131855
 20
19.7174503044
 10
-10.5254009707
 20
19.7022137727
  0
LWPOLYLINE
  5
3B5
100
AcDbEntity
  8
0
100
AcDbPolyline
 62
7
  6
CONTINUOUS
 90
3
 70
0
 10
10.2176929881
 20
6.545809142
 10
10.6419829388
 20
5.9864471814
 10
11.0231493399
 20
5.3888963411
  0
LWPOLYLINE
  5
3B6
100
AcDbEntity
  8
0
100
AcDbPolyline
 62
7
  6
CONTINUOUS
 90
14
 70
0
 10
11.0231493399
 20
5.3888963411
 10
11.3554370263
 20
4.7559209031
 10
11.6412066493
 20
4.0892317371
 10
11.8661974933
 20
3.4220985253
 10
12.027325219
 20
2.7544987336
 10
12.1276741658
 20
2.086454896
 10
12.1622366364
 20
1.4513042965
 10
12.1276741658
 20
0.8507161676
 10
12.027325219
 20
0.2830212768
 10
11.8661974933
 20
-0.2234507891
 10
11.6412066493
 20
-0.6655931569
 10
11.3554370263
 20
-1.0465126999
 10
11.0231493399
 20
-1.3472004515
 10
10.734890129
 20
-1.5205041719
  0
LWPOLYLINE
  5
3B7
100
AcDbEntity
  8
RACCORDO
100
AcDbPolyline
 62
7
  6
CONTINUOUS
 90
10
 70
0
 10
14.3858242113
 20
-15.8358110092
 10
14.3838970431
 20
-15.799780874
 10
14.3776322331
 20
-15.7627823787
 10
14.3671295303
 20
-15.7275092506
 10
14.3528094699
 20
-15.6948737389
 10
14.3350729262
 20
-15.6652187911
 10
14.3139637245
 20
-15.6383030319
 10
14.2899643984
 20
-15.614557714
 10
14.2637768202
 20
-15.5944318895
 10
14.2338448843
 20
-15.5770140391
  0
LINE
  5
3B8
100
AcDbEntity
  8
RACCORDO
100
AcDbLine
 62
253
  6
CONTINUOUS
 10
14.2876343591
 20
18.8522604325
 11
14.2876343591
 21
18.5887308544
  0
LINE
  5
3B9
100
AcDbEntity
  8
RACCORDO
100
AcDbLine
 62
253
  6
CONTINUOUS
 10
14.2876343591
 20
-16.0268135406
 11
14.2876343591
 21
-16.8995521984
  0
LINE
  5
3BA
100
AcDbEntity
  8
RACCORDO
100
AcDbLine
 62
7
  6
CONTINUOUS
 10
14.3858234446
 20
18.9041674269
 11
14.3858234446
 21
18.6368349612
  0
LINE
  5
3BB
100
AcDbEntity
  8
RACCORDO
100
AcDbLine
 62
7
  6
CONTINUOUS
 10
14.3858234446
 20
-15.8359437024
 11
14.3858234446
 21
-16.7818253143
  0
LWPOLYLINE
  5
3BC
100
AcDbEntity
  8
RACCORDO
100
AcDbPolyline
 62
253
  6
CONTINUOUS
 90
6
 70
0
 10
3.0235632528
 20
13.0111318639
 10
3.0112372213
 20
13.015924131
 10
2.9993980457
 20
13.0180005359
 10
2.9884052516
 20
13.017298109
 10
2.9785926207
 20
13.0138382607
 10
2.9775414563
 20
13.0132605107
  0
LINE
  5
3BD
100
AcDbEntity
  8
RACCORDO
100
AcDbLine
 62
253
  6
CONTINUOUS
 10
3.6362945527
 20
12.7047662139
 11
3.0235632528
 21
13.0111318639
  0
LINE
  5
3BE
100
AcDbEntity
  8
RACCORDO
100
AcDbLine
 62
253
  6
CONTINUOUS
 10
-10.5991926081
 20
19.8225097943
 11
-11.211923908
 21
20.1288754443
  0
LINE
  5
3BF
100
AcDbEntity
  8
RACCORDO
100
AcDbLine
 62
253
  6
CONTINUOUS
 10
2.7233297645
 20
13.1691462436
 11
-10.2874350093
 21
19.6745286305
  0
LWPOLYLINE
  5
3C0
100
AcDbEntity
  8
RACCORDO
100
AcDbPolyline
 62
7
  6
CONTINUOUS
 90
4
 70
0
 10
-7.4798871824
 20
23.4163256779
 10
-7.4601931956
 20
23.399754714
 10
-7.4389577268
 20
23.3853315936
 10
-7.4209682623
 20
23.3754064458
  0
LWPOLYLINE
  5
3C1
100
AcDbEntity
  8
RACCORDO
100
AcDbPolyline
 62
7
  6
CONTINUOUS
 90
4
 70
0
 10
5.8368625559
 20
16.7948277957
 10
5.8505667549
 20
16.7730515802
 10
5.8664906882
 20
16.7527370925
 10
5.884430982
 20
16.7341665957
  0
LINE
  5
3C2
100
AcDbEntity
  8
RACCORDO
100
AcDbLine
 62
253
  6
CONTINUOUS
 10
14.7734057471
 20
19.6063901406
 11
14.7734057471
 21
19.1090601836
  0
LINE
  5
3C3
100
AcDbEntity
  8
RACCORDO
100
AcDbLine
 62
253
  6
CONTINUOUS
 10
14.7734057471
 20
-17.2496450677
 11
14.7734057471
 21
-17.7469750246
  0
LINE
  5
3C4
100
AcDbEntity
  8
RACCORDO
100
AcDbLine
 62
7
  6
CONTINUOUS
 10
14.9137358469
 20
19.908842697
 11
14.9137358469
 21
19.2853288462
  0
LINE
  5
3C5
100
AcDbEntity
  8
RACCORDO
100
AcDbLine
 62
7
  6
CONTINUOUS
 10
14.9137358469
 20
-17.078584545
 11
14.9137358469
 21
-17.7020983959
  0
LWPOLYLINE
  5
3C6
100
AcDbEntity
  8
0
100
AcDbPolyline
 62
7
  6
CONTINUOUS
 90
11
 70
0
 10
16.7937860532
 20
4.1559877346
 10
16.7767562592
 20
3.7510516407
 10
16.7294956507
 20
3.3721024853
 10
16.6520042276
 20
3.0191402684
 10
16.5430401972
 20
2.6894556249
 10
16.4038453522
 20
2.3857579199
 10
16.2381450712
 20
2.1161752484
 10
16.0452235835
 20
1.8816288762
 10
15.8257966598
 20
1.6811975376
 10
15.5857369915
 20
1.5202455304
 10
15.508038703
 20
1.4791402027
  0
LWPOLYLINE
  5
3C7
100
AcDbEntity
  8
RACCORDO
100
AcDbPolyline
 62
253
  6
CONTINUOUS
 90
10
 70
0
 10
14.3858234403
 20
-15.835811453
 10
14.3850530583
 20
-15.8522381543
 10
14.3817452694
 20
-15.8740775455
 10
14.3758153926
 20
-15.8962426518
 10
14.3672491247
 20
-15.9186719897
 10
14.3560806694
 20
-15.941187009
 10
14.3424175554
 20
-15.9633938746
 10
14.3263815686
 20
-15.9850913051
 10
14.3080746364
 20
-16.0062648664
 10
14.2876343591
 20
-16.0268135406
  0
LINE
  5
3C8
100
AcDbEntity
  8
RACCORDO
100
AcDbLine
 62
7
  6
CONTINUOUS
 10
-11.4270062311
 20
13.6006994857
 11
-11.417505463
 21
13.6032427852
  0
LINE
  5
3C9
100
AcDbEntity
  8
RACCORDO
100
AcDbLine
 62
7
  6
CONTINUOUS
 10
-8.7041717157
 20
20.8742075272
 11
-4.0372965629
 21
18.5407699508
  0
LINE
  5
3CA
100
AcDbEntity
  8
RACCORDO
100
AcDbLine
 62
7
  6
CONTINUOUS
 10
0.2189199445
 20
16.4126616971
 11
4.8857950973
 21
14.0792241207
  0
LINE
  5
3CB
100
AcDbEntity
  8
RACCORDO
100
AcDbLine
 62
7
  6
CONTINUOUS
 10
-8.4145706961
 20
20.7311727535
 11
4.5961940777
 21
14.2257903666
  0
LINE
  5
3CC
100
AcDbEntity
  8
DRAFT
100
AcDbLine
 62
7
  6
CONTINUOUS
 10
-3.2526911935
 20
18.9762098404
 11
0.9899494937
 21
16.8548894968
  0
LWPOLYLINE
  5
3CD
100
AcDbEntity
  8
RACCORDO
100
AcDbPolyline
 62
7
  6
CONTINUOUS
 90
4
 70
0
 10
5.884430982
 20
16.7341665957
 10
5.9041249688
 20
16.7175956317
 10
5.9253604376
 20
16.7031725113
 10
5.9433499021
 20
16.6932473636
  0
LWPOLYLINE
  5
3CE
100
AcDbEntity
  8
RACCORDO
100
AcDbPolyline
 62
253
  6
CONTINUOUS
 90
10
 70
0
 10
9.6852999881
 20
-24.075474667
 10
9.6934593707
 20
-24.0509277762
 10
9.6996184311
 20
-24.0256569259
 10
9.7037008195
 20
-23.9999333177
 10
9.7056527267
 20
-23.9740216849
 10
9.7054400838
 20
-23.9482182456
 10
9.7030605045
 20
-23.9228461175
 10
9.6985430647
 20
-23.8981960099
 10
9.6919365094
 20
-23.8745237443
 10
9.6833127514
 20
-23.8520873223
  0
LWPOLYLINE
  5
3CF
100
AcDbEntity
  8
RACCORDO
100
AcDbPolyline
 62
253
  6
CONTINUOUS
 90
5
 70
0
 10
3.9462414278
 20
-25.3328785853
 10
3.9248108655
 20
-25.3613814295
 10
3.9004254227
 20
-25.3854531602
 10
3.8733519612
 20
-25.4048303487
 10
3.8483200479
 20
-25.4175031701
  0
LWPOLYLINE
  5
3D0
100
AcDbEntity
  8
RACCORDO
100
AcDbPolyline
 62
7
  6
CONTINUOUS
 90
8
 70
0
 10
4.0977147452
 20
18.8776213595
 10
4.0547437396
 20
18.8734804744
 10
4.012604138
 20
18.8665047525
 10
3.9716890054
 20
18.8576839645
 10
3.9322341569
 20
18.8482060803
 10
3.8942865414
 20
18.838607906
 10
3.8578868626
 20
18.8286032516
 10
3.7898229005
 20
18.8088610854
  0
LINE
  5
3D1
100
AcDbEntity
  8
RACCORDO
100
AcDbLine
 62
7
  6
CONTINUOUS
 10
7.328908532
 20
16.0097050707
 11
7.9543367116
 21
15.8791150865
  0
LINE
  5
3D2
100
AcDbEntity
  8
RACCORDO
100
AcDbLine
 62
253
  6
CONTINUOUS
 10
7.5557520255
 20
16.1655262315
 11
8.2669726336
 21
16.0170227086
  0
LWPOLYLINE
  5
3D3
100
AcDbEntity
  8
RACCORDO
100
AcDbPolyline
 62
253
  6
CONTINUOUS
 90
8
 70
0
 10
6.053993642
 20
17.4728820443
 10
6.0357087586
 20
17.4807748297
 10
6.0175455719
 20
17.4863121808
 10
5.9997028074
 20
17.4894011832
 10
5.9823540876
 20
17.4899729571
 10
5.9657268306
 20
17.4879796308
 10
5.9500861855
 20
17.4834349852
 10
5.9409883198
 20
17.4793711887
  0
LWPOLYLINE
  5
3D4
100
AcDbEntity
  8
RACCORDO
100
AcDbPolyline
 62
7
  6
CONTINUOUS
 90
4
 70
0
 10
7.2682037134
 20
16.0308203297
 10
7.2886849903
 20
16.0217035738
 10
7.313107111
 20
16.0135446826
 10
7.3289090894
 20
16.0097049543
  0
LWPOLYLINE
  5
3D5
100
AcDbEntity
  8
RACCORDO
100
AcDbPolyline
 62
7
  6
CONTINUOUS
 90
4
 70
0
 10
-6.096114451
 20
22.7129794119
 10
-6.0756331742
 20
22.703862656
 10
-6.0512110534
 20
22.6957037648
 10
-6.035409075
 20
22.6918640365
  0
LWPOLYLINE
  5
3D6
100
AcDbEntity
  8
RACCORDO
100
AcDbPolyline
 62
253
  6
CONTINUOUS
 90
16
 70
0
 10
7.2032300659
 20
16.5060128895
 10
7.2226667493
 20
16.4972620063
 10
7.2438267845
 20
16.4895739816
 10
7.2664787972
 20
16.4830331522
 10
7.290378652
 20
16.4777106184
 10
7.315261502
 20
16.4736659363
 10
7.3408433869
 20
16.4709445341
 10
7.3668359559
 20
16.4695748278
 10
7.3929622146
 20
16.4695691937
 10
7.4189481056
 20
16.470926977
 10
7.4445523739
 20
16.4736392151
 10
7.46945028
 20
16.477675215
 10
7.4932610517
 20
16.4829635127
 10
7.5157073733
 20
16.4894186863
 10
7.5366045401
 20
16.496962621
 10
7.5557520255
 20
16.5055001656
  0
LWPOLYLINE
  5
3D7
100
AcDbEntity
  8
RACCORDO
100
AcDbPolyline
 62
253
  6
CONTINUOUS
 90
16
 70
0
 10
7.2032300659
 20
16.1660389553
 10
7.2226013211
 20
16.1573145754
 10
7.2436844038
 20
16.1496463232
 10
7.2662500298
 20
16.1431175931
 10
7.2900527917
 20
16.1377993868
 10
7.3148338278
 20
16.1337495412
 10
7.3403236376
 20
16.1310120996
 10
7.3662450122
 20
16.1296168324
 10
7.3923160497
 20
16.1295789135
 10
7.4182532203
 20
16.1308987553
 10
7.44377445
 20
16.1335620042
 10
7.4686021886
 20
16.1375396965
 10
7.4924664274
 20
16.1427885738
 10
7.5151076364
 20
16.149251553
 10
7.536279586
 20
16.1568583476
 10
7.5557520255
 20
16.1655262315
  0
LWPOLYLINE
  5
3D8
100
AcDbEntity
  8
RACCORDO
100
AcDbPolyline
 62
253
  6
CONTINUOUS
 90
16
 70
0
 10
-6.1610880985
 20
22.8481980376
 10
-6.1417168434
 20
22.8394736576
 10
-6.1206337606
 20
22.8318054054
 10
-6.0980681346
 20
22.8252766753
 10
-6.0742653727
 20
22.819958469
 10
-6.0494843366
 20
22.8159086234
 10
-6.0239945269
 20
22.8131711818
 10
-5.9980731522
 20
22.8117759146
 10
-5.9720021147
 20
22.8117379957
 10
-5.9460649442
 20
22.8130578375
 10
-5.9205437144
 20
22.8157210864
 10
-5.8957159758
 20
22.8196987787
 10
-5.871851737
 20
22.824947656
 10
-5.8492105281
 20
22.8314106352
 10
-5.8280385784
 20
22.8390174298
 10
-5.8085661389
 20
22.8476853137
  0
LWPOLYLINE
  5
3D9
100
AcDbEntity
  8
RACCORDO
100
AcDbPolyline
 62
253
  6
CONTINUOUS
 90
16
 70
0
 10
-6.1610880985
 20
23.1881719717
 10
-6.1417168434
 20
23.1794475918
 10
-6.1206337606
 20
23.1717793396
 10
-6.0980681346
 20
23.1652506094
 10
-6.0742653727
 20
23.1599324031
 10
-6.0494843366
 20
23.1558825576
 10
-6.0239945269
 20
23.153145116
 10
-5.9980731522
 20
23.1517498488
 10
-5.9720021147
 20
23.1517119299
 10
-5.9460649442
 20
23.1530317717
 10
-5.9205437144
 20
23.1556950205
 10
-5.8957159758
 20
23.1596727128
 10
-5.871851737
 20
23.1649215901
 10
-5.8492105281
 20
23.1713845694
 10
-5.8280385784
 20
23.1789913639
 10
-5.8085661389
 20
23.1876592478
  0
LINE
  5
3DA
100
AcDbEntity
  8
RACCORDO
100
AcDbLine
 62
7
  6
CONTINUOUS
 10
7.914450674
 20
15.1986227052
 11
6.5812383403
 21
15.8652288721
  0
LINE
  5
3DB
100
AcDbEntity
  8
RACCORDO
100
AcDbLine
 62
7
  6
CONTINUOUS
 10
-5.4498674904
 20
21.8807817875
 11
-6.7830798241
 21
22.5473879543
  0
LINE
  5
3DC
100
AcDbEntity
  8
RACCORDO
100
AcDbLine
 62
7
  6
CONTINUOUS
 10
-1.8364147343
 20
20.4503020341
 11
3.6748923654
 21
17.6946484842
  0
LINE
  5
3DD
100
AcDbEntity
  8
RACCORDO
100
AcDbLine
 62
7
  6
CONTINUOUS
 10
-7.4210994819
 20
23.3754719274
 11
-6.0961148021
 21
22.7129795875
  0
LINE
  5
3DE
100
AcDbEntity
  8
RACCORDO
100
AcDbLine
 62
7
  6
CONTINUOUS
 10
5.9432186825
 20
16.6933128452
 11
7.2682033623
 21
16.0308205052
  0
LINE
  5
3DF
100
AcDbEntity
  8
RACCORDO
100
AcDbLine
 62
253
  6
CONTINUOUS
 10
-7.4860727784
 20
23.5106903775
 11
-6.1610880985
 21
22.8481980376
  0
LINE
  5
3E0
100
AcDbEntity
  8
RACCORDO
100
AcDbLine
 62
253
  6
CONTINUOUS
 10
5.8782453861
 20
16.8285312953
 11
7.2032300659
 21
16.1660389553
  0
LINE
  5
3E1
100
AcDbEntity
  8
RACCORDO
100
AcDbLine
 62
253
  6
CONTINUOUS
 10
7.2032300659
 20
16.5060128895
 11
5.8782453861
 21
17.1685052294
  0
LINE
  5
3E2
100
AcDbEntity
  8
RACCORDO
100
AcDbLine
 62
253
  6
CONTINUOUS
 10
-6.1610880985
 20
23.1881719717
 11
-7.4860727784
 21
23.8506643116
  0
LINE
  5
3E3
100
AcDbEntity
  8
DRAFT
100
AcDbLine
 62
7
  6
CONTINUOUS
 10
-4.2072853481
 20
22.3882305904
 11
-1.9828613437
 21
21.2760185882
  0
LINE
  5
3E4
100
AcDbEntity
  8
DRAFT
100
AcDbLine
 62
7
  6
CONTINUOUS
 10
4.7376154339
 20
17.9157801994
 11
5.831656087
 21
17.3687598728
  0
LINE
  5
3E5
100
AcDbEntity
  8
RACCORDO
100
AcDbLine
 62
7
  6
CONTINUOUS
 10
9.1570328164
 20
15.7060715082
 11
9.1802877728
 21
15.6944440299
  0
LINE
  5
3E6
100
AcDbEntity
  8
RACCORDO
100
AcDbLine
 62
253
  6
CONTINUOUS
 10
7.3789783219
 20
16.8103897044
 11
6.053993642
 21
17.4728820443
  0
LINE
  5
3E7
100
AcDbEntity
  8
RACCORDO
100
AcDbLine
 62
253
  6
CONTINUOUS
 10
-5.9853398426
 20
23.4925487867
 11
-7.3103245224
 21
24.1550411266
  0
LINE
  5
3E8
100
AcDbEntity
  8
RACCORDO
100
AcDbLine
 62
253
  6
CONTINUOUS
 10
3.6748923654
 20
18.775231795
 11
-1.8364147343
 21
21.5308853449
  0
LWPOLYLINE
  5
3E9
100
AcDbEntity
  8
RACCORDO
100
AcDbPolyline
 62
253
  6
CONTINUOUS
 90
9
 70
0
 10
5.8782453861
 20
17.1685052294
 10
5.8610583614
 20
17.1780296509
 10
5.8458487532
 20
17.1884346134
 10
5.8328079582
 20
17.1996203646
 10
5.8220932355
 20
17.2114949186
 10
5.8138768771
 20
17.223920139
 10
5.8083038589
 20
17.2367062129
 10
5.8054374393
 20
17.2496910353
 10
5.8050220814
 20
17.2568909437
  0
LWPOLYLINE
  5
3EA
100
AcDbEntity
  8
RACCORDO
100
AcDbPolyline
 62
253
  6
CONTINUOUS
 90
9
 70
0
 10
-7.4860727784
 20
23.5106903775
 10
-7.5035215382
 20
23.5203760051
 10
-7.5188580426
 20
23.5309175464
 10
-7.5319155029
 20
23.5422003594
 10
-7.5425519155
 20
23.5541017404
 10
-7.5506516066
 20
23.5664922584
 10
-7.5561264898
 20
23.5792371633
 10
-7.5589170242
 20
23.5921978506
 10
-7.5592960831
 20
23.5990787251
  0
LWPOLYLINE
  5
3EB
100
AcDbEntity
  8
RACCORDO
100
AcDbPolyline
 62
253
  6
CONTINUOUS
 90
9
 70
0
 10
-7.4860727784
 20
23.8506643116
 10
-7.5035215382
 20
23.8603499392
 10
-7.5188580426
 20
23.8708914806
 10
-7.5319155029
 20
23.8821742936
 10
-7.5425519155
 20
23.8940756745
 10
-7.5506516066
 20
23.9064661926
 10
-7.5561264898
 20
23.9192110974
 10
-7.5589170242
 20
23.9321717848
 10
-7.5592960831
 20
23.9390526592
  0
LWPOLYLINE
  5
3EC
100
AcDbEntity
  8
RACCORDO
100
AcDbPolyline
 62
253
  6
CONTINUOUS
 90
9
 70
0
 10
5.8782453861
 20
16.8285312953
 10
5.8607966262
 20
16.8382169228
 10
5.8454601218
 20
16.8487584642
 10
5.8324026616
 20
16.8600412772
 10
5.8217662489
 20
16.8719426582
 10
5.8136665578
 20
16.8843331762
 10
5.8081916746
 20
16.8970780811
 10
5.8054011402
 20
16.9100387684
 10
5.8050220814
 20
16.9169196429
  0
LWPOLYLINE
  5
3ED
100
AcDbEntity
  8
RACCORDO
100
AcDbPolyline
 62
253
  6
CONTINUOUS
 90
8
 70
0
 10
9.6852999881
 20
17.2241294724
 10
9.6934976976
 20
17.2096837751
 10
9.6996650874
 20
17.1963549546
 10
9.7037348363
 20
17.1842885042
 10
9.7056625199
 20
17.1736161379
 10
9.7054270964
 20
17.1644543521
 10
9.7030311355
 20
17.156903154
 10
9.7006605605
 20
17.1532943058
  0
LINE
  5
3EE
100
AcDbEntity
  8
RACCORDO
100
AcDbLine
 62
253
  6
CONTINUOUS
 10
10.2176929881
 20
-16.713430435
 11
14.1689000292
 21
-15.572983413
  0
LINE
  5
3EF
100
AcDbEntity
  8
RACCORDO
100
AcDbLine
 62
253
  6
CONTINUOUS
 10
10.2176929881
 20
-17.2015311568
 11
14.2876343591
 21
-16.0268135406
  0
LINE
  5
3F0
100
AcDbEntity
  8
ASSI
100
AcDbLine
 62
7
  6
CONTINUOUS
 10
9.4554530999
 20
22.081218683
 11
9.4811903975
 21
22.0875824379
  0
LWPOLYLINE
  5
3F1
100
AcDbEntity
  8
ASSI
100
AcDbPolyline
 62
7
  6
CONTINUOUS
 90
5
 70
0
 10
10.1430266555
 20
21.800053812
 10
10.1263371921
 20
21.7969536336
 10
10.1072319053
 20
21.7923689988
 10
10.0858784939
 20
21.786411472
 10
10.0624495042
 20
21.7791615985
  0
LWPOLYLINE
  5
3F2
100
AcDbEntity
  8
RACCORDO
100
AcDbPolyline
 62
7
  6
CONTINUOUS
 90
3
 70
0
 10
8.2438711873
 20
18.5670865995
 10
8.2735623324
 20
18.5558154955
 10
8.2821349414
 20
18.5517233797
  0
LWPOLYLINE
  5
3F3
100
AcDbEntity
  8
RACCORDO
100
AcDbPolyline
 62
7
  6
CONTINUOUS
 90
7
 70
0
 10
7.6367502452
 20
18.2848661417
 10
7.6135517221
 20
18.2944868971
 10
7.5907677098
 20
18.3002475816
 10
7.5687880324
 20
18.3020496326
 10
7.5479887532
 20
18.2998622184
 10
7.5287257377
 20
18.2937227642
 10
7.5254024691
 20
18.2921831063
  0
LWPOLYLINE
  5
3F4
100
AcDbEntity
  8
RACCORDO
100
AcDbPolyline
 62
253
  6
CONTINUOUS
 90
8
 70
0
 10
-7.3103245224
 20
24.1550411266
 10
-7.3289638687
 20
24.1630641901
 10
-7.3473871694
 20
24.1686173118
 10
-7.3653912124
 20
24.171638913
 10
-7.3827798351
 20
24.1720952023
 10
-7.3993584401
 20
24.1699801725
 10
-7.4149374265
 20
24.1653193937
 10
-7.4234132665
 20
24.1614875225
  0
LWPOLYLINE
  5
3F5
100
AcDbEntity
  8
RACCORDO
100
AcDbPolyline
 62
253
  6
CONTINUOUS
 90
8
 70
0
 10
8.1712001239
 20
18.5452136083
 10
8.1528244985
 20
18.5533165432
 10
8.1346389244
 20
18.5589531243
 10
8.1168426379
 20
18.5620615986
 10
8.0996306104
 20
18.5626079105
 10
8.0831914124
 20
18.5605860747
 10
8.0677051475
 20
18.5560182418
 10
8.0606880128
 20
18.5529483993
  0
LWPOLYLINE
  5
3F6
100
AcDbEntity
  8
RACCORDO
100
AcDbPolyline
 62
253
  6
CONTINUOUS
 90
8
 70
0
 10
8.2819747625
 20
18.5518036598
 10
8.2741752725
 20
18.5552695684
 10
8.2586609003
 20
18.5598699307
 10
8.2421759473
 20
18.5619311754
 10
8.2249822637
 20
18.5614385784
 10
8.2073039293
 20
18.558438979
 10
8.1893114112
 20
18.5530001736
 10
8.1712001239
 20
18.5452136083
  0
LWPOLYLINE
  5
3F7
100
AcDbEntity
  8
RACCORDO
100
AcDbPolyline
 62
253
  6
CONTINUOUS
 90
8
 70
0
 10
9.6193040225
 20
17.8831390298
 10
9.6122018963
 20
17.8863293126
 10
9.5967485856
 20
17.8910452083
 10
9.5803119411
 20
17.8932276713
 10
9.5630786468
 20
17.8928505697
 10
9.5452401809
 20
17.8899190302
 10
9.5269894505
 20
17.8844656596
 10
9.5085262844
 20
17.876550528
  0
LINE
  5
3F8
100
AcDbEntity
  8
RACCORDO
100
AcDbLine
 62
253
  6
CONTINUOUS
 10
4.0977147452
 20
18.8776213595
 11
-1.9780399046
 21
21.9154986844
  0
LINE
  5
3F9
100
AcDbEntity
  8
RACCORDO
100
AcDbLine
 62
7
  6
CONTINUOUS
 10
-4.2072853481
 20
23.0877796824
 11
-2.7992426131
 21
22.3837583149
  0
LINE
  5
3FA
100
AcDbEntity
  8
RACCORDO
100
AcDbLine
 62
7
  6
CONTINUOUS
 10
9.1570328164
 20
16.4056206001
 11
9.8993979975
 21
16.0344380096
  0
LINE
  5
3FB
100
AcDbEntity
  8
DRAFT
100
AcDbLine
 62
7
  6
CONTINUOUS
 10
-1.4849242405
 20
22.2394856019
 11
4.7376154339
 21
19.1282157647
  0
LINE
  5
3FC
100
AcDbEntity
  8
RACCORDO
100
AcDbLine
 62
7
  6
CONTINUOUS
 10
-5.7275679192
 20
24.9670252239
 11
-4.3840590517
 21
24.2952707902
  0
LINE
  5
3FD
100
AcDbEntity
  8
RACCORDO
100
AcDbLine
 62
7
  6
CONTINUOUS
 10
7.6367502452
 20
18.2848661417
 11
8.9802591127
 21
17.6131117079
  0
LINE
  5
3FE
100
AcDbEntity
  8
DRAFT
100
AcDbLine
 62
7
  6
CONTINUOUS
 10
-0.1414213562
 20
22.2698025525
 11
4.8083261121
 21
19.7949288184
  0
LINE
  5
3FF
100
AcDbEntity
  8
RACCORDO
100
AcDbLine
 62
253
  6
CONTINUOUS
 10
-5.1931180405
 20
25.2273726905
 11
-3.85579188
 21
24.5587096102
  0
LINE
  5
400
100
AcDbEntity
  8
RACCORDO
100
AcDbLine
 62
253
  6
CONTINUOUS
 10
8.1712001239
 20
18.5452136083
 11
9.5085262844
 21
17.876550528
  0
LINE
  5
401
100
AcDbEntity
  8
RACCORDO
100
AcDbLine
 62
7
  6
CONTINUOUS
 10
-5.082343081
 20
25.2339625816
 11
-3.7450169204
 21
24.5652995013
  0
LINE
  5
402
100
AcDbEntity
  8
RACCORDO
100
AcDbLine
 62
7
  6
CONTINUOUS
 10
8.2819750834
 20
18.5518034994
 11
9.619301244
 21
17.8831404191
  0
LWPOLYLINE
  5
403
100
AcDbEntity
  8
RACCORDO
100
AcDbPolyline
 62
7
  6
CONTINUOUS
 90
12
 70
0
 10
-3.7450169204
 20
24.5652995013
 10
-3.7221029657
 20
24.5522897352
 10
-3.7004604008
 20
24.5367606254
 10
-3.6804391519
 20
24.5188640437
 10
-3.6624067588
 20
24.4988657438
 10
-3.6465930101
 20
24.4769867086
 10
-3.6331345457
 20
24.453338011
 10
-3.6222416155
 20
24.4281382014
 10
-3.6141599326
 20
24.4018253122
 10
-3.6090210052
 20
24.3747910406
 10
-3.6068814801
 20
24.3472206682
 10
-3.6068203578
 20
24.341623339
  0
LINE
  5
404
100
AcDbEntity
  8
RACCORDO
100
AcDbLine
 62
253
  6
CONTINUOUS
 10
7.9139364456
 20
-24.1568115927
 11
7.2916184135
 21
-24.9018710102
  0
LINE
  5
405
100
AcDbEntity
  8
RACCORDO
100
AcDbLine
 62
253
  6
CONTINUOUS
 10
8.2669726336
 20
-24.2825814308
 11
7.5557520255
 21
-25.1340779079
  0
LINE
  5
406
100
AcDbEntity
  8
RACCORDO
100
AcDbLine
 62
7
  6
CONTINUOUS
 10
14.7734057471
 20
-17.2496450677
 11
10.2176929881
 21
-19.5588770647
  0
LINE
  5
407
100
AcDbEntity
  8
RACCORDO
100
AcDbLine
 62
7
  6
CONTINUOUS
 10
13.8918702885
 20
-18.3064040687
 11
10.2176929881
 21
-20.150636608
  0
LINE
  5
408
100
AcDbEntity
  8
RACCORDO
100
AcDbLine
 62
7
  6
CONTINUOUS
 10
14.7734057471
 20
-17.7469750246
 11
10.2176929881
 21
-20.0066421382
  0
LINE
  5
409
100
AcDbEntity
  8
RACCORDO
100
AcDbLine
 62
7
  6
CONTINUOUS
 10
14.2876343591
 20
-16.8995521984
 11
10.2176929881
 21
-18.9145848211
  0
LWPOLYLINE
  5
40A
100
AcDbEntity
  8
ASSI
100
AcDbPolyline
 62
7
  6
CONTINUOUS
 90
8
 70
0
 10
9.4811903975
 20
22.0875824379
 10
9.5088955862
 20
22.0906128619
 10
9.5384035335
 20
22.0902232179
 10
9.5695190096
 20
22.0863114696
 10
9.6020586461
 20
22.0788268089
 10
9.6358571958
 20
22.0677644461
 10
9.6706754388
 20
22.0530237313
 10
9.6818170463
 20
22.0476093159
  0
LINE
  5
40B
100
AcDbEntity
  8
RACCORDO
100
AcDbLine
 62
7
  6
CONTINUOUS
 10
-6.0354096324
 20
22.6918641529
 11
-5.4099865891
 21
22.5612752412
  0
LINE
  5
40C
100
AcDbEntity
  8
RACCORDO
100
AcDbLine
 62
253
  6
CONTINUOUS
 10
-5.8085661389
 20
22.8476853137
 11
-5.0973455308
 21
22.6991817908
  0
LWPOLYLINE
  5
40D
100
AcDbEntity
  8
RACCORDO
100
AcDbPolyline
 62
7
  6
CONTINUOUS
 90
7
 70
0
 10
-5.7275679192
 20
24.9670252239
 10
-5.7507664423
 20
24.9766459794
 10
-5.7735504546
 20
24.9824066639
 10
-5.7955301321
 20
24.9842087148
 10
-5.8163294112
 20
24.9820213006
 10
-5.8355924267
 20
24.9758818464
 10
-5.8389156954
 20
24.9743421886
  0
LWPOLYLINE
  5
40E
100
AcDbEntity
  8
RACCORDO
100
AcDbPolyline
 62
7
  6
CONTINUOUS
 90
7
 70
0
 10
-5.082343081
 20
25.2339625816
 10
-5.1105367931
 20
25.2459592201
 10
-5.1404205422
 20
25.254514005
 10
-5.1714865529
 20
25.2593267213
 10
-5.2032846463
 20
25.2601886564
 10
-5.2350708127
 20
25.2569834268
 10
-5.2659907247
 20
25.249810173
  0
LWPOLYLINE
  5
40F
100
AcDbEntity
  8
RACCORDO
100
AcDbPolyline
 62
253
  6
CONTINUOUS
 90
8
 70
0
 10
-5.1931180405
 20
25.2273726905
 10
-5.2112022539
 20
25.2353658109
 10
-5.2291879614
 20
25.2409919016
 10
-5.2468786862
 20
25.2441569238
 10
-5.2641026538
 20
25.2447910737
 10
-5.2806344647
 20
25.2428454705
 10
-5.2962106624
 20
25.2383330486
 10
-5.3036298799
 20
25.2351076139
  0
LWPOLYLINE
  5
410
100
AcDbEntity
  8
RACCORDO
100
AcDbPolyline
 62
253
  6
CONTINUOUS
 90
8
 70
0
 10
-3.7450169204
 20
24.5652995013
 10
-3.7524150012
 20
24.5686073952
 10
-3.7678388649
 20
24.5732621606
 10
-3.7842304265
 20
24.5753985443
 10
-3.8014114232
 20
24.5749933124
 10
-3.8191950069
 20
24.5720508721
 10
-3.8373877763
 20
24.5666032231
 10
-3.85579188
 20
24.5587096102
  0
LWPOLYLINE
  5
411
100
AcDbEntity
  8
RACCORDO
100
AcDbPolyline
 62
253
  6
CONTINUOUS
 90
8
 70
0
 10
-5.082343081
 20
25.2339625816
 10
-5.0897411617
 20
25.2372704754
 10
-5.1051650254
 20
25.2419252409
 10
-5.121556587
 20
25.2440616245
 10
-5.1387375837
 20
25.2436563927
 10
-5.1565211675
 20
25.2407139524
 10
-5.1747139369
 20
25.2352663034
 10
-5.1931180405
 20
25.2273726905
  0
LWPOLYLINE
  5
412
100
AcDbEntity
  8
RACCORDO
100
AcDbPolyline
 62
7
  6
CONTINUOUS
 90
9
 70
0
 10
9.6827283313
 20
-24.5134430485
 10
9.7002658315
 20
-24.4943205592
 10
9.7157903215
 20
-24.4733878247
 10
9.7290970749
 20
-24.4508650556
 10
9.740016333
 20
-24.4269766393
 10
9.7484002559
 20
-24.4019619024
 10
9.7541181025
 20
-24.3761023874
 10
9.7570723345
 20
-24.3497134771
 10
9.7574978279
 20
-24.3351799689
  0
LINE
  5
413
100
AcDbEntity
  8
RACCORDO
100
AcDbLine
 62
253
  6
CONTINUOUS
 10
9.4996592699
 20
-22.8719879394
 11
10.2176929881
 21
-22.5177465707
  0
LWPOLYLINE
  5
414
100
AcDbEntity
  8
RACCORDO
100
AcDbPolyline
 62
253
  6
CONTINUOUS
 90
16
 70
0
 10
3.3209396334
 20
-24.6359918038
 10
3.2819305007
 20
-24.6548064143
 10
3.2396178693
 20
-24.6714925881
 10
3.1944550985
 20
-24.6858715408
 10
3.1469260853
 20
-24.6977892084
 10
3.0975400796
 20
-24.7071178989
 10
3.0468262284
 20
-24.7137576601
 10
2.9953279059
 20
-24.7176373504
 10
2.9435968913
 20
-24.7187154004
 10
2.892187457
 20
-24.7169802592
 10
2.8416504301
 20
-24.712450518
 10
2.79252729
 20
-24.7051747108
 10
2.7453443671
 20
-24.6952307936
 10
2.7006072034
 20
-24.6827253105
 10
2.6587951356
 20
-24.6677922519
 10
2.6203561595
 20
-24.650591618
  0
LWPOLYLINE
  5
415
100
AcDbEntity
  8
RACCORDO
100
AcDbPolyline
 62
253
  6
CONTINUOUS
 90
8
 70
0
 10
4.0021272928
 20
-25.1363074719
 10
4.3956840971
 20
-24.9728469375
 10
4.7937563783
 20
-24.8086756647
 10
5.2025992883
 20
-24.6411679948
 10
5.6209882783
 20
-24.4714094636
 10
6.0501478972
 20
-24.2983145354
 10
6.4937517918
 20
-24.1186266026
 10
7.4242520964
 20
-23.7390447077
  0
LWPOLYLINE
  5
416
100
AcDbEntity
  8
RACCORDO
100
AcDbPolyline
 62
253
  6
CONTINUOUS
 90
5
 70
0
 10
7.4242520964
 20
-23.7390447077
 10
7.9149027764
 20
-23.5367481694
 10
8.424976551
 20
-23.3243705146
 10
8.9532287155
 20
-23.1027837713
 10
9.4996592699
 20
-22.8719879394
  0
LWPOLYLINE
  5
417
100
AcDbEntity
  8
ASSI
100
AcDbPolyline
 62
7
  6
CONTINUOUS
 90
9
 70
0
 10
3.9022303567
 20
24.8592711723
 10
3.9279860592
 20
24.8653831669
 10
3.9556872556
 20
24.8681843871
 10
3.9851711702
 20
24.867588865
 10
4.0162468008
 20
24.8634949856
 10
4.0487316123
 20
24.8558524234
 10
4.082457019
 20
24.8446577131
 10
4.1171842781
 20
24.8298116673
 10
4.1268350213
 20
24.8251029325
  0
LWPOLYLINE
  5
418
100
AcDbEntity
  8
ASSI
100
AcDbPolyline
 62
7
  6
CONTINUOUS
 90
5
 70
0
 10
4.5872044083
 20
24.577419728
 10
4.5703080646
 20
24.5742213036
 10
4.5509789292
 20
24.5695303829
 10
4.5293867931
 20
24.5634601563
 10
4.5057056316
 20
24.5560924171
  0
LINE
  5
419
100
AcDbEntity
  8
0
100
AcDbLine
 62
7
  6
CONTINUOUS
 10
5.9232679061
 20
23.1349788336
 11
7.2831998462
 21
23.208727021
  0
LWPOLYLINE
  5
41A
100
AcDbEntity
  8
ASSI
100
AcDbPolyline
 62
7
  6
CONTINUOUS
 90
5
 70
0
 10
4.624205479
 20
24.5764118607
 10
4.6219922146
 20
24.5773562277
 10
4.613170538
 20
24.5790816774
 10
4.6015308419
 20
24.5790508246
 10
4.5872044083
 20
24.577419728
  0
LWPOLYLINE
  5
41B
100
AcDbEntity
  8
ASSI
100
AcDbPolyline
 62
7
  6
CONTINUOUS
 90
5
 70
0
 10
10.1791949923
 20
21.7989195893
 10
10.1772888232
 20
21.7997507288
 10
10.1686266087
 20
21.8015464509
 10
10.1571626034
 20
21.8015957223
 10
10.1430266555
 20
21.800053812
  0
LINE
  5
41C
100
AcDbEntity
  8
0
100
AcDbLine
 62
7
  6
CONTINUOUS
 10
8.7338175531
 20
21.7297040101
 11
5.9232679061
 21
23.1349788336
  0
LINE
  5
41D
100
AcDbEntity
  8
ASSI
100
AcDbLine
 62
253
  6
CONTINUOUS
 10
3.8512991655
 20
24.8389290674
 11
4.4568296001
 21
24.53616385
  0
LINE
  5
41E
100
AcDbEntity
  8
ASSI
100
AcDbLine
 62
253
  6
CONTINUOUS
 10
9.4065770684
 20
22.0612901159
 11
10.0121075031
 21
21.7585248986
  0
LINE
  5
41F
100
AcDbEntity
  8
0
100
AcDbLine
 62
7
  6
CONTINUOUS
 10
7.2831998462
 20
23.208727021
 11
9.519713869
 21
22.0904700096
  0
LINE
  5
420
100
AcDbEntity
  8
0
100
AcDbLine
 62
7
  6
CONTINUOUS
 10
10.186043568
 20
21.7573051601
 11
10.3843389676
 21
21.6581574603
  0
LINE
  5
421
100
AcDbEntity
  8
ASSI
100
AcDbLine
 62
7
  6
CONTINUOUS
 10
4.129093024
 20
24.8239868799
 11
4.6223911916
 21
24.5773377961
  0
LINE
  5
422
100
AcDbEntity
  8
ASSI
100
AcDbLine
 62
7
  6
CONTINUOUS
 10
9.6841119324
 20
22.0464774257
 11
10.1774095506
 21
21.7998286166
  0
LINE
  5
423
100
AcDbEntity
  8
RACCORDO
100
AcDbLine
 62
253
  6
CONTINUOUS
 10
3.5152977135
 20
25.5285346194
 11
6.5822636575
 21
23.9950516474
  0
LINE
  5
424
100
AcDbEntity
  8
RACCORDO
100
AcDbLine
 62
253
  6
CONTINUOUS
 10
10.8249043446
 20
21.8737313039
 11
13.8918702885
 21
20.3402483319
  0
LINE
  5
425
100
AcDbEntity
  8
RACCORDO
100
AcDbLine
 62
7
  6
CONTINUOUS
 10
3.7949015759
 20
25.6346036563
 11
7.0233066605
 21
24.020401114
  0
LINE
  5
426
100
AcDbEntity
  8
RACCORDO
100
AcDbLine
 62
7
  6
CONTINUOUS
 10
11.2659473477
 20
21.8990807705
 11
14.4943524323
 21
20.2848782282
  0
LWPOLYLINE
  5
427
100
AcDbEntity
  8
RACCORDO
100
AcDbPolyline
 62
253
  6
CONTINUOUS
 90
9
 70
0
 10
9.6268920048
 20
-24.5546433632
 10
9.6400360666
 20
-24.5451970032
 10
9.6517262304
 20
-24.5334345252
 10
9.6618346869
 20
-24.5194784616
 10
9.6702444528
 20
-24.5034832978
 10
9.6768582098
 20
-24.4856314069
 10
9.6816026862
 20
-24.4661229329
 10
9.6844269063
 20
-24.4451707794
 10
9.6852999881
 20
-24.4230061837
  0
LWPOLYLINE
  5
428
100
AcDbEntity
  8
RACCORDO
100
AcDbPolyline
 62
7
  6
CONTINUOUS
 90
8
 70
0
 10
9.0925061965
 20
-24.8290003398
 10
9.1048289711
 20
-24.8214291588
 10
9.1200875242
 20
-24.807754132
 10
9.1329712697
 20
-24.7906120645
 10
9.1432597755
 20
-24.7702962479
 10
9.1507770109
 20
-24.7471542761
 10
9.1553943581
 20
-24.7215820981
 10
9.1570328164
 20
-24.6940172424
  0
LWPOLYLINE
  5
429
100
AcDbEntity
  8
RACCORDO
100
AcDbPolyline
 62
7
  6
CONTINUOUS
 90
4
 70
0
 10
9.6215316067
 20
-24.5576111632
 10
9.6424183877
 20
-24.5456007632
 10
9.6633835133
 20
-24.5305808743
 10
9.6827283313
 20
-24.5134430485
  0
LINE
  5
42A
100
AcDbEntity
  8
RACCORDO
100
AcDbLine
 62
253
  6
CONTINUOUS
 10
9.6216114471
 20
-24.5575702523
 11
9.6268920048
 21
-24.5546433632
  0
LWPOLYLINE
  5
42B
100
AcDbEntity
  8
RACCORDO
100
AcDbPolyline
 62
253
  6
CONTINUOUS
 90
10
 70
0
 10
7.489490433
 20
-25.6099024682
 10
7.4968369667
 20
-25.6059085249
 10
7.5099206741
 20
-25.5964261751
 10
7.5215810788
 20
-25.5846291474
 10
7.5316904324
 20
-25.5706466869
 10
7.5401379795
 20
-25.5546319819
 10
7.546831171
 20
-25.5367604852
 10
7.551696678
 20
-25.5172279922
 10
7.5546811954
 20
-25.4962484959
 10
7.5557520255
 20
-25.474051842
  0
LINE
  5
42C
100
AcDbEntity
  8
RACCORDO
100
AcDbLine
 62
253
  6
CONTINUOUS
 10
9.6852999881
 20
-24.4230061837
 11
9.1570328164
 21
-24.6940172424
  0
LINE
  5
42D
100
AcDbEntity
  8
RACCORDO
100
AcDbLine
 62
7
  6
CONTINUOUS
 10
9.6216119506
 20
-24.557569994
 11
9.092550727
 21
-24.8289884163
  0
LINE
  5
42E
100
AcDbEntity
  8
RACCORDO
100
AcDbLine
 62
7
  6
CONTINUOUS
 10
9.0907712795
 20
-24.8298678414
 11
9.0925061965
 21
-24.8290003398
  0
LINE
  5
42F
100
AcDbEntity
  8
RACCORDO
100
AcDbLine
 62
7
  6
CONTINUOUS
 10
9.3786333546
 20
-23.1174093925
 11
10.0999012814
 21
-22.7615724294
  0
LINE
  5
430
100
AcDbEntity
  8
RACCORDO
100
AcDbLine
 62
253
  6
CONTINUOUS
 10
9.1570328164
 20
-24.6940172424
 11
7.5557520255
 21
-25.474051842
  0
LINE
  5
431
100
AcDbEntity
  8
RACCORDO
100
AcDbLine
 62
7
  6
CONTINUOUS
 10
9.090771276
 20
-24.8298678431
 11
7.489490433
 21
-25.6099024682
  0
LINE
  5
432
100
AcDbEntity
  8
RACCORDO
100
AcDbLine
 62
7
  6
CONTINUOUS
 10
9.3785830882
 20
-23.1174341914
 11
9.3691912436
 21
-23.121716112
  0
LINE
  5
433
100
AcDbEntity
  8
RACCORDO
100
AcDbLine
 62
7
  6
CONTINUOUS
 10
8.04062297
 20
-23.6796176486
 11
9.369192424
 21
-23.1217155283
  0
LWPOLYLINE
  5
434
100
AcDbEntity
  8
RACCORDO
100
AcDbPolyline
 62
7
  6
CONTINUOUS
 90
3
 70
0
 10
3.8483200478
 20
-25.4175031701
 10
4.3428571596
 20
-25.210756926
 10
4.9095523427
 20
-24.9755465446
  0
LWPOLYLINE
  5
435
100
AcDbEntity
  8
RACCORDO
100
AcDbPolyline
 62
7
  6
CONTINUOUS
 90
3
 70
0
 10
6.7306785156
 20
-24.2243260627
 10
7.3764301603
 20
-23.9566849311
 10
8.04062297
 20
-23.6796176486
  0
LWPOLYLINE
  5
436
100
AcDbEntity
  8
RACCORDO
100
AcDbPolyline
 62
7
  6
CONTINUOUS
 90
9
 70
0
 10
7.489490433
 20
-25.6099024682
 10
7.4612687406
 20
-25.6215742422
 10
7.4314045642
 20
-25.6298096857
 10
7.4004030186
 20
-25.6343173668
 10
7.3687081804
 20
-25.6348952651
 10
7.3370593031
 20
-25.6314341672
 10
7.3063072584
 20
-25.6240406684
 10
7.2766161134
 20
-25.6127695644
 10
7.2680435043
 20
-25.6086774486
  0
LINE
  5
437
100
AcDbEntity
  8
RACCORDO
100
AcDbLine
 62
7
  6
CONTINUOUS
 10
4.9095523427
 20
-24.9755465446
 11
6.7306785156
 21
-24.2243260627
  0
LINE
  5
438
100
AcDbEntity
  8
RACCORDO
100
AcDbLine
 62
7
  6
CONTINUOUS
 10
3.8241949501
 20
-25.427335656
 11
3.848133201
 21
-25.4175814618
  0
LWPOLYLINE
  5
439
100
AcDbEntity
  8
RACCORDO
100
AcDbPolyline
 62
7
  6
CONTINUOUS
 90
9
 70
0
 10
7.0233366068
 20
24.0202745004
 10
6.9845866495
 20
24.0370244164
 10
6.9331922447
 20
24.0519994415
 10
6.8790672938
 20
24.0598832503
 10
6.8222701528
 20
24.0608318525
 10
6.764064819
 20
24.0548250164
 10
6.7048726247
 20
24.0418559983
 10
6.6442722375
 20
24.021931542
 10
6.5822636575
 20
23.9950516474
  0
ELLIPSE
  5
43A
100
AcDbEntity
  8
RACCORDO
100
AcDbEllipse
 62
7
  6
CONTINUOUS
 10
-8.4145706961
 20
20.5143692809
 30
0.0
 11
-0.1116009943
 21
0.2239381218
 31
0.0
 40
0.6122032814
 41
-0.6832419393
 42
0.031533549
  0
ELLIPSE
  5
43B
100
AcDbEntity
  8
RACCORDO
100
AcDbEllipse
 62
7
  6
CONTINUOUS
 10
4.5961940777
 20
14.008986894
 30
0.0
 11
-0.1116009943
 21
0.2239381218
 31
0.0
 40
0.6122032814
 41
-1.7710329065
 42
-0.6832419393
  0
ELLIPSE
  5
43C
100
AcDbEntity
  8
ASSI
100
AcDbEllipse
 62
7
  6
CONTINUOUS
 10
3.8492303202
 20
24.4049012374
 30
0.0
 11
0.2257019663
 21
0.4461636818
 31
0.0
 40
0.6159267166
 41
0.5380090616
 42
0.6817883054
  0
ELLIPSE
  5
43D
100
AcDbEntity
  8
RACCORDO
100
AcDbEllipse
 62
7
  6
CONTINUOUS
 10
14.4137358469
 20
19.2826588263
 30
0.0
 11
0.499996712
 21
0.0035883639
 31
0.0
 40
0.5053247124
 41
-0.7715714568
 42
-0.0035790528
  0
ELLIPSE
  5
43E
100
AcDbEntity
  8
RACCORDO
100
AcDbEllipse
 62
7
  6
CONTINUOUS
 10
9.8994464661
 20
-22.3586826646
 30
0.0
 11
-0.2012801021
 21
0.4024798509
 31
0.0
 40
0.6124778111
 41
-3.1449277555
 42
-2.255529033
  0
ELLIPSE
  5
43F
100
AcDbEntity
  8
RACCORDO
100
AcDbEllipse
 62
7
  6
CONTINUOUS
 10
9.8994464661
 20
15.644687504
 30
0.0
 11
-0.2013341403
 21
0.4025279144
 31
0.0
 40
0.6122950388
 41
-2.2557482655
 42
-0.6847996396
  0
ELLIPSE
  5
440
100
AcDbEntity
  8
RACCORDO
100
AcDbEllipse
 62
7
  6
CONTINUOUS
 10
14.5927795528
 20
-17.7970368651
 30
0.0
 11
0.9987332359
 21
0.6172510855
 31
0.0
 40
0.0815198604
 41
-2.3978073241
 42
-1.2985018509
  0
ELLIPSE
  5
441
100
AcDbEntity
  8
RACCORDO
100
AcDbEllipse
 62
7
  6
CONTINUOUS
 10
2.8020472644
 20
25.0129968234
 30
0.0
 11
0.9987332359
 21
0.6172510855
 31
0.0
 40
0.0815198604
 41
0.0511676451
 42
0.7263320369
  0
ELLIPSE
  5
442
100
AcDbEntity
  8
RACCORDO
100
AcDbEllipse
 62
7
  6
CONTINUOUS
 10
-1.4828613437
 20
21.8823815687
 30
0.0
 11
0.4999985559
 21
0.0023864752
 31
0.0
 40
0.5035541159
 41
2.3596088132
 42
3.0002042076
  0
ELLIPSE
  5
443
100
AcDbEntity
  8
RACCORDO
100
AcDbEllipse
 62
7
  6
CONTINUOUS
 10
14.0458234446
 20
-16.7800304693
 30
0.0
 11
0.3399979179
 21
-0.002405562
 31
0.0
 40
0.4946372042
 41
-0.7760807437
 42
0.0035227982
  0
ELLIPSE
  5
444
100
AcDbEntity
  8
ASSI
100
AcDbEllipse
 62
7
  6
CONTINUOUS
 10
10.010062591
 20
21.324485102
 30
0.0
 11
0.221538876
 21
0.4482453432
 31
0.0
 40
0.6088015717
 41
0.5323082896
 42
0.6760875334
  0
ELLIPSE
  5
445
100
AcDbEntity
  8
RACCORDO
100
AcDbEllipse
 62
7
  6
CONTINUOUS
 10
4.8858273929
 20
13.9924865839
 30
0.0
 11
-0.0446624459
 21
0.0895909595
 31
0.0
 40
0.611934274
 41
-0.6831563312
 42
0.0364757791
  0
ELLIPSE
  5
446
100
AcDbEntity
  8
RACCORDO
100
AcDbEllipse
 62
7
  6
CONTINUOUS
 10
14.5927795528
 20
19.1176306791
 30
0.0
 11
-0.7417913999
 21
1.2002436976
 31
0.0
 40
0.5587454355
 41
5.1248137075
 42
6.2241191807
  0
ELLIPSE
  5
447
100
AcDbEntity
  8
RACCORDO
100
AcDbEllipse
 62
7
  6
CONTINUOUS
 10
14.4137358469
 20
-18.006257184
 30
0.0
 11
0.499366618
 21
0.3086255427
 31
0.0
 40
0.0815198604
 41
6.1080157147
 42
7.0007906979
  0
ELLIPSE
  5
448
100
AcDbEntity
  8
RACCORDO
100
AcDbEllipse
 62
7
  6
CONTINUOUS
 10
14.4137358469
 20
-17.0759145251
 30
0.0
 11
0.4999969381
 21
-0.0035375912
 31
0.0
 40
0.4946372042
 41
-0.7644452153
 42
0.7888978189
  0
ELLIPSE
  5
449
100
AcDbEntity
  8
RACCORDO
100
AcDbEllipse
 62
7
  6
CONTINUOUS
 10
14.4137358469
 20
20.2130014851
 30
0.0
 11
-0.3708957
 21
0.6001218488
 31
0.0
 40
0.5587454355
 41
-3.1744788413
 42
-2.2817038581
  0
ELLIPSE
  5
44A
100
AcDbEntity
  8
DRAFT
100
AcDbEllipse
 62
7
  6
CONTINUOUS
 10
4.2030851512
 20
23.4800520603
 30
0.0
 11
0.4279673669
 21
-0.0030279657
 31
0.0
 40
0.4946372042
 41
-0.7818985079
 42
0.0035022668
  0
ELLIPSE
  5
44B
100
AcDbEntity
  8
DRAFT
100
AcDbEllipse
 62
7
  6
CONTINUOUS
 10
9.7580735804
 20
20.7025578458
 30
0.0
 11
0.4279673669
 21
-0.0030279657
 31
0.0
 40
0.4946372042
 41
-0.7760807437
 42
0.0034869953
  0
ELLIPSE
  5
44C
100
AcDbEntity
  8
RACCORDO
100
AcDbEllipse
 62
7
  6
CONTINUOUS
 10
-8.7042040113
 20
20.7875022859
 30
0.0
 11
-0.0446262308
 21
0.0895589985
 31
0.0
 40
0.6124818573
 41
-2.2537489731
 42
-0.6834093579
  0
ELLIPSE
  5
44D
100
AcDbEntity
  8
RACCORDO
100
AcDbEllipse
 62
7
  6
CONTINUOUS
 10
8.0912273693
 20
15.2983576699
 30
0.0
 11
0.249929385
 21
0.0111824824
 31
0.0
 40
0.5313301283
 41
-2.3799630874
 42
-0.8149845248
  0
ELLIPSE
  5
44E
100
AcDbEntity
  8
RACCORDO
100
AcDbEllipse
 62
7
  6
CONTINUOUS
 10
6.7580150356
 20
15.9649638368
 30
0.0
 11
0.249929385
 21
0.0111824824
 31
0.0
 40
0.5313301283
 41
3.1178391979
 42
3.9032222197
  0
ELLIPSE
  5
44F
100
AcDbEntity
  8
RACCORDO
100
AcDbEllipse
 62
7
  6
CONTINUOUS
 10
-5.2730907951
 20
21.9805167522
 30
0.0
 11
0.249929385
 21
0.0111824824
 31
0.0
 40
0.5313301283
 41
-2.3799630874
 42
-0.8149845248
  0
ELLIPSE
  5
450
100
AcDbEntity
  8
RACCORDO
100
AcDbEllipse
 62
7
  6
CONTINUOUS
 10
-1.4828613437
 20
20.6497719635
 30
0.0
 11
0.4998587701
 21
0.0223649649
 31
0.0
 40
0.5313301283
 41
3.1178391682
 42
3.9032222197
  0
ELLIPSE
  5
451
100
AcDbEntity
  8
RACCORDO
100
AcDbEllipse
 62
7
  6
CONTINUOUS
 10
4.028445756
 20
17.8941184136
 30
0.0
 11
0.4998587701
 21
0.0223649649
 31
0.0
 40
0.5313301283
 41
-2.3799630874
 42
-0.8149845248
  0
ELLIPSE
  5
452
100
AcDbEntity
  8
RACCORDO
100
AcDbEllipse
 62
7
  6
CONTINUOUS
 10
4.028445756
 20
19.1267280188
 30
0.0
 11
0.4999985559
 21
0.0023864752
 31
0.0
 40
0.5035541159
 41
-1.4342147631
 42
-0.7936193687
  0
ELLIPSE
  5
453
100
AcDbEntity
  8
RACCORDO
100
AcDbEllipse
 62
7
  6
CONTINUOUS
 10
-6.6063031288
 20
22.647122919
 30
0.0
 11
0.249929385
 21
0.0111824824
 31
0.0
 40
0.5313301283
 41
3.1178391979
 42
3.9032222197
  0
ENDSEC
  0
SECTION
  2
OBJECTS
  0
DICTIONARY
  5
C
100
AcDbDictionary
280
0
281
1
  3
ACAD_GROUP
350
D
  3
ACAD_MLINESTYLE
350
17
  3
ACAD_LAYOUT
350
1A
  3
ACAD_PLOTSETTINGS
350
19
  3
ACAD_PLOTSTYLENAME
350
E
  0
DICTIONARY
  5
D
102
{ACAD_REACTORS
330
C
102
}
100
AcDbDictionary
280
0
281
1
  0
ACDBDICTIONARYWDFLT
  5
E
102
{ACAD_REACTORS
330
C
102
}
100
AcDbDictionary
281
1
  3
Normal
350
F
100
AcDbDictionaryWithDefault
340
F
  0
DICTIONARY
  5
17
102
{ACAD_REACTORS
330
C
102
}
100
AcDbDictionary
280
0
281
1
  3
Standard
350
18
  0
DICTIONARY
  5
19
102
{ACAD_REACTORS
330
C
102
}
100
AcDbDictionary
281
1
  0
DICTIONARY
  5
1A
102
{ACAD_REACTORS
330
C
102
}
100
AcDbDictionary
281
1
  3
Model
350
454
  3
Layout1
350
455
  0
ACDBPLACEHOLDER
  5
F
102
{ACAD_REACTORS
330
E
102
}
  0
MLINESTYLE
  5
18
102
{ACAD_REACTORS
330
17
102
}
100
AcDbMlineStyle
  2
STANDARD
 70
0
  3

 62
256
 51
90.0
 52
90.0
 71
2
 49
0.5
 62
256
  6
BYLAYER
 49
-0.5
 62
256
  6
BYLAYER
  0
LAYOUT
  5
454
102
{ACAD_REACTORS
330
1A
102
}
100
AcDbPlotSettings
  1

  2
none_device
  4
ISO_A4_(297.00_x_210.00_MM)
  6

 40
0.0
 41
0.0
 42
0.0
 43
0.0
 44
297.0
 45
210.0
 46
0.0
 47
0.0
 48
0.0
 49
0.0
140
0.0
141
0.0
142
1.0
143
1.0
 70
1024
 72
1
 73
0
 74
0
  7

 75
0
147
1.0
148
0.0
149
0.0
100
AcDbLayout
  1
Model
 70
0
 71
0
 10
0.0
 20
0.0
 11
297.0
 21
210.0
 12
0.0
 22
0.0
 32
0.0
 14
0.0
 24
0.0
 34
0.0
 15
0.0
 25
0.0
 35
0.0
146
0.0
 13
0.0
 23
0.0
 33
0.0
 16
1.0
 26
0.0
 36
0.0
 17
0.0
 27
1.0
 37
0.0
 76
0
330
214
345
0
346
0
  0
LAYOUT
  5
455
102
{ACAD_REACTORS
330
1A
102
}
100
AcDbPlotSettings
  1

  2
none_device
  4
ISO_A4_(297.00_x_210.00_MM)
  6

 40
0.0
 41
0.0
 42
0.0
 43
0.0
 44
297.0
 45
210.0
 46
0.0
 47
0.0
 48
0.0
 49
0.0
140
0.0
141
0.0
142
1.0
143
1.0
 70
0
 72
1
 73
0
 74
0
  7

 75
0
147
1.0
148
0.0
149
0.0
100
AcDbLayout
  1
Layout1
 70
0
 71
1
 10
0.0
 20
0.0
 11
297.0
 21
210.0
 12
0.0
 22
0.0
 32
0.0
 14
0.0
 24
0.0
 34
0.0
 15
0.0
 25
0.0
 35
0.0
146
0.0
 13
0.0
 23
0.0
 33
0.0
 16
1.0
 26
0.0
 36
0.0
 17
0.0
 27
1.0
 37
0.0
 76
0
330
215
345
0
346
0
  0
ENDSEC
  0
EOF
