  0
SECTION
  2
HEADER
  9
$ACADVER
  1
AC1021
  9
$DWGCODEPAGE
  3
ANSI_1252
  9
$EXTMAX
 10
558.8
 20
431.8
 30
0.0
  9
$EXTMIN
 10
0.0
 20
0.0
 30
0.0
  9
$LIMMIN
 10
0.0
 20
0.0
  9
$LIMMAX
 10
558.8
 20
431.8
  9
$VIEWCTR
 10
279.4
 20
215.9
  9
$VIEWSIZE
 40
431.8
  9
$CLAYER
  8
0
  9
$LTSCALE
 40
30.734
  9
$CELTYPE
  6
BYLAYER
  9
$DIMSCALE
 40
1.0
  9
$DIMASZ
 40
3.0
  9
$DIMEXO
 40
0.5
  9
$DIMDLI
 40
21.2344
  9
$DIMEXE
 40
1.5
  9
$DIMCEN
 40
5.0292
  9
$DIMLFAC
 40
1.0
  9
$DIMBLK
  1
_FILLED
  9
$DIMALT
 70
0
  9
$DIMALTF
 40
25.4
  9
$DIMTXT
 40
3.0
  9
$DIMTOL
 70
1
  9
$DIMLIM
 70
0
  9
$DIMTFAC
 40
1.0
  9
$DIMTP
 40
0.01
  9
$DIMTM
 40
0.01
  9
$DIMGAP
 40
0.625
  9
$DIMDSEP
 70
44
  9
$AUNITS
 70
0
  9
$PDMODE
 70
3
  9
$PDSIZE
 40
3.0
  9
$HANDSEED
  5
48B
  9
$TILEMODE
 70
1
  9
$MEASUREMENT
 70
1
  9
$INSUNITS
 70
4
  0
ENDSEC
  0
SECTION
  2
CLASSES
  0
CLASS
  1
ACDBDICTIONARYWDFLT
  2
AcDbDictionaryWithDefault
  3
AutoCAD 2000
 90
0
 91
1
280
0
281
0
  0
CLASS
  1
ACDBPLACEHOLDER
  2
AcDbPlaceHolder
  3
AutoCAD 2000
 90
0
 91
1
280
0
281
0
  0
CLASS
  1
LAYOUT
  2
AcDbLayout
  3
AutoCAD 2000
 90
0
 91
0
280
0
281
0
  0
ENDSEC
  0
SECTION
  2
TABLES
  0
TABLE
  2
VPORT
  5
8
100
AcDbSymbolTable
 70
2
  0
VPORT
  5
1F4
100
AcDbSymbolTableRecord
100
AcDbViewportTableRecord
  2
*ACTIVE
 70
0
 10
0.0
 20
0.0
 11
1.0
 21
1.0
 12
279.4
 22
215.9
 13
0.0
 23
0.0
 14
1.0
 24
1.0
 15
0.0
 25
0.0
 16
0.0
 26
0.0
 36
1.0
 17
0.0
 27
0.0
 37
0.0
 40
431.8
 41
1.2941176471
 42
50.0
 43
0.0
 44
0.0
 50
0.0
 51
0.0
 71
0
 72
100
 73
1
 74
1
 75
0
 76
0
 77
0
 78
0
  0
ENDTAB
  0
TABLE
  2
LTYPE
  5
5
100
AcDbSymbolTable
 70
6
  0
LTYPE
  5
14
100
AcDbSymbolTableRecord
100
AcDbLinetypeTableRecord
  2
BYBLOCK
 70
0
  3

 72
65
 73
0
 40
0.0
  0
LTYPE
  5
15
100
AcDbSymbolTableRecord
100
AcDbLinetypeTableRecord
  2
BYLAYER
 70
0
  3

 72
65
 73
0
 40
0.0
  0
LTYPE
  5
16
100
AcDbSymbolTableRecord
100
AcDbLinetypeTableRecord
  2
CONTINUOUS
 70
64
  3
Solid line
 72
65
 73
0
 40
0.0
  0
LTYPE
  5
1F5
100
AcDbSymbolTableRecord
100
AcDbLinetypeTableRecord
  2
CENTER
 70
64
  3
____ _ ____ _ ____ _ ____ _ ____ _ ____ _ ____
 72
65
 73
4
 40
0.6
 49
0.375
 74
0
 49
-0.075
 74
0
 49
0.075
 74
0
 49
-0.075
 74
0
  0
LTYPE
  5
1F6
100
AcDbSymbolTableRecord
100
AcDbLinetypeTableRecord
  2
HIDDEN
 70
64
  3
- - - - - - - - - - - - - - - - - - - -
 72
65
 73
2
 40
0.2
 49
0.1
 74
0
 49
-0.1
 74
0
  0
LTYPE
  5
1F7
100
AcDbSymbolTableRecord
100
AcDbLinetypeTableRecord
  2
PHANTOM
 70
64
  3
_____ _ _ _____ _ _ _____ _ _ _____
 72
65
 73
6
 40
0.8
 49
0.45
 74
0
 49
-0.05
 74
0
 49
0.1
 74
0
 49
-0.05
 74
0
 49
0.1
 74
0
 49
-0.05
 74
0
  0
LTYPE
  5
1F8
100
AcDbSymbolTableRecord
100
AcDbLinetypeTableRecord
  2
DOT
 70
64
  3
. . . . . . . . . . . . . . . . . . . .
 72
65
 73
2
 40
0.2
 49
0.1
 74
0
 49
-0.1
 74
0
  0
LTYPE
  5
1F9
100
AcDbSymbolTableRecord
100
AcDbLinetypeTableRecord
  2
DASHED
 70
64
  3
- - - - - - - - - - - - - - - - - - - -
 72
65
 73
2
 40
0.2
 49
0.1
 74
0
 49
-0.1
 74
0
  0
ENDTAB
  0
TABLE
  2
LAYER
  5
2
100
AcDbSymbolTable
 70
36
  0
LAYER
  5
10
100
AcDbSymbolTableRecord
100
AcDbLayerTableRecord
  2
0
 70
0
 62
7
  6
CONTINUOUS
370
-3
390
F
  0
LAYER
  5
1FA
100
AcDbSymbolTableRecord
100
AcDbLayerTableRecord
  2
DEFAULT_1
 70
0
 62
7
  6
CENTER
370
-3
390
F
  0
LAYER
  5
1FB
100
AcDbSymbolTableRecord
100
AcDbLayerTableRecord
  2
DEFAULT_2
 70
0
 62
7
  6
HIDDEN
370
-3
390
F
  0
LAYER
  5
1FC
100
AcDbSymbolTableRecord
100
AcDbLayerTableRecord
  2
DEFAULT_3
 70
0
 62
7
  6
PHANTOM
370
-3
390
F
  0
LAYER
  5
1FD
100
AcDbSymbolTableRecord
100
AcDbLayerTableRecord
  2
21814370
 70
0
 62
7
  6
CONTINUOUS
370
-3
390
F
  0
LAYER
  5
1FE
100
AcDbSymbolTableRecord
100
AcDbLayerTableRecord
  2
ASSI
 70
0
 62
7
  6
CONTINUOUS
370
-3
390
F
  0
LAYER
  5
1FF
100
AcDbSymbolTableRecord
100
AcDbLayerTableRecord
  2
COLOR5
 70
0
 62
7
  6
CONTINUOUS
370
-3
390
F
  0
LAYER
  5
200
100
AcDbSymbolTableRecord
100
AcDbLayerTableRecord
  2
COORDINATE
 70
0
 62
7
  6
CONTINUOUS
370
-3
390
F
  0
LAYER
  5
201
100
AcDbSymbolTableRecord
100
AcDbLayerTableRecord
  2
COORD_ORIGINE
 70
0
 62
7
  6
CONTINUOUS
370
-3
390
F
  0
LAYER
  5
202
100
AcDbSymbolTableRecord
100
AcDbLayerTableRecord
  2
COPY-PUBBLISH
 70
0
 62
7
  6
CONTINUOUS
370
-3
390
F
  0
LAYER
  5
203
100
AcDbSymbolTableRecord
100
AcDbLayerTableRecord
  2
COSMETICHE
 70
0
 62
7
  6
CONTINUOUS
370
-3
390
F
  0
LAYER
  5
204
100
AcDbSymbolTableRecord
100
AcDbLayerTableRecord
  2
CURVE
 70
0
 62
7
  6
CONTINUOUS
370
-3
390
F
  0
LAYER
  5
205
100
AcDbSymbolTableRecord
100
AcDbLayerTableRecord
  2
DRAFT
 70
0
 62
7
  6
CONTINUOUS
370
-3
390
F
  0
LAYER
  5
206
100
AcDbSymbolTableRecord
100
AcDbLayerTableRecord
  2
IGES_SCRITTE
 70
0
 62
7
  6
CONTINUOUS
370
-3
390
F
  0
LAYER
  5
207
100
AcDbSymbolTableRecord
100
AcDbLayerTableRecord
  2
INTF_1
 70
0
 62
7
  6
CONTINUOUS
370
-3
390
F
  0
LAYER
  5
208
100
AcDbSymbolTableRecord
100
AcDbLayerTableRecord
  2
INTF_YELLOW
 70
0
 62
7
  6
CONTINUOUS
370
-3
390
F
  0
LAYER
  5
209
100
AcDbSymbolTableRecord
100
AcDbLayerTableRecord
  2
NOTE
 70
0
 62
7
  6
CONTINUOUS
370
-3
390
F
  0
LAYER
  5
20A
100
AcDbSymbolTableRecord
100
AcDbLayerTableRecord
  2
PIANI
 70
0
 62
7
  6
CONTINUOUS
370
-3
390
F
  0
LAYER
  5
20B
100
AcDbSymbolTableRecord
100
AcDbLayerTableRecord
  2
PIANI_ORIGINE
 70
0
 62
7
  6
CONTINUOUS
370
-3
390
F
  0
LAYER
  5
20C
100
AcDbSymbolTableRecord
100
AcDbLayerTableRecord
  2
PIANI_RIFERIMENTO
 70
0
 62
7
  6
CONTINUOUS
370
-3
390
F
  0
LAYER
  5
20D
100
AcDbSymbolTableRecord
100
AcDbLayerTableRecord
  2
PIANI_SFORMO
 70
0
 62
7
  6
CONTINUOUS
370
-3
390
F
  0
LAYER
  5
20E
100
AcDbSymbolTableRecord
100
AcDbLayerTableRecord
  2
PUNTI
 70
0
 62
7
  6
CONTINUOUS
370
-3
390
F
  0
LAYER
  5
20F
100
AcDbSymbolTableRecord
100
AcDbLayerTableRecord
  2
RACCORDO
 70
0
 62
7
  6
CONTINUOUS
370
-3
390
F
  0
LAYER
  5
210
100
AcDbSymbolTableRecord
100
AcDbLayerTableRecord
  2
SCRITTE
 70
0
 62
7
  6
CONTINUOUS
370
-3
390
F
  0
LAYER
  5
211
100
AcDbSymbolTableRecord
100
AcDbLayerTableRecord
  2
SMUSSO
 70
0
 62
7
  6
CONTINUOUS
370
-3
390
F
  0
LAYER
  5
212
100
AcDbSymbolTableRecord
100
AcDbLayerTableRecord
  2
SNAPLINE
 70
0
 62
7
  6
CONTINUOUS
370
-3
390
F
  0
LAYER
  5
213
100
AcDbSymbolTableRecord
100
AcDbLayerTableRecord
  2
SUPERFICI
 70
0
 62
7
  6
CONTINUOUS
370
-3
390
F
  0
LAYER
  5
214
100
AcDbSymbolTableRecord
100
AcDbLayerTableRecord
  2
TRASH
 70
0
 62
7
  6
CONTINUOUS
370
-3
390
F
  0
LAYER
  5
215
100
AcDbSymbolTableRecord
100
AcDbLayerTableRecord
  2
XSEC_DATUMS
 70
0
 62
7
  6
CONTINUOUS
370
-3
390
F
  0
ENDTAB
  0
TABLE
  2
STYLE
  5
3
100
AcDbSymbolTable
 70
1
  0
STYLE
  5
11
100
AcDbSymbolTableRecord
100
AcDbTextStyleTableRecord
  2
STANDARD
 70
0
 40
0.0
 41
0.8
 50
0.0
 71
0
 42
0.2
  3
txt
  4

  0
STYLE
  5
216
100
AcDbSymbolTableRecord
100
AcDbTextStyleTableRecord
  2
TEXTSTYLE_1
 70
0
 40
0.0
 41
0.8
 50
0.0
 71
0
 42
0.2
  3
gdt
  4

  0
ENDTAB
  0
TABLE
  2
VIEW
  5
6
100
AcDbSymbolTable
 70
0
  0
ENDTAB
  0
TABLE
  2
UCS
  5
7
100
AcDbSymbolTable
 70
0
  0
ENDTAB
  0
TABLE
  2
APPID
  5
9
100
AcDbSymbolTable
 70
1
  0
APPID
  5
217
100
AcDbSymbolTableRecord
100
AcDbRegAppTableRecord
  2
ACAD
 70
0
  0
ENDTAB
  0
TABLE
  2
BLOCK_RECORD
  5
1
100
AcDbSymbolTable
 70
0
  0
BLOCK_RECORD
  5
218
100
AcDbSymbolTableRecord
100
AcDbBlockTableRecord
  2
*Model_Space
  0
BLOCK_RECORD
  5
219
100
AcDbSymbolTableRecord
100
AcDbBlockTableRecord
  2
*Paper_Space
  0
BLOCK_RECORD
  5
21A
100
AcDbSymbolTableRecord
100
AcDbBlockTableRecord
  2
_FILLED
  0
ENDTAB
  0
TABLE
  2
DIMSTYLE
  5
A
100
AcDbSymbolTable
 70
1
100
AcDbDimStyleTable
 71
0
  0
DIMSTYLE
105
21B
100
AcDbSymbolTableRecord
100
AcDbDimStyleTableRecord
  2
STANDARD
 70
0
  3

  4

 40
1.0
 41
3.0
 42
0.5
 43
0.38
 44
1.5
 45
0.0
 46
0.0
 47
0.01
 48
0.01
140
3.0
141
0.09
142
0.0
143
25.4
144
1.0
145
0.0
146
1.0
147
0.625
 71
1.0
 72
0.0
 73
0
 74
0
 75
0
 76
0
 77
1
 78
8
 79
2
170
0
171
1
172
0
173
0
174
0
175
0
176
0
177
0
178
0
270
2
179
2
271
2
272
2
273
2
274
2
275
0
280
0
281
0
282
0
283
1
284
8
285
0
286
0
287
3
288
0
340
11
278
44
341
21A
342
21A
343
21A
344
21A
  0
ENDTAB
  0
ENDSEC
  0
SECTION
  2
BLOCKS
  0
BLOCK
  5
20
100
AcDbEntity
  8
0
100
AcDbBlockBegin
  2
*Model_Space
 70
0
 10
0.0
 20
0.0
 30
0.0
  3
*Model_Space
  1

  0
ENDBLK
  5
21
100
AcDbEntity
  8
0
100
AcDbBlockEnd
  0
BLOCK
  5
1C
100
AcDbEntity
  8
0
100
AcDbBlockBegin
  2
*Paper_Space
 70
0
 10
0.0
 20
0.0
 30
0.0
  3
*Paper_Space
  1

  0
ENDBLK
  5
1D
100
AcDbEntity
  8
0
100
AcDbBlockEnd
  0
BLOCK
  5
21C
100
AcDbEntity
  8
0
100
AcDbBlockBegin
  2
_FILLED
 70
64
 10
0.0
 20
0.0
  3
_FILLED
  1

  0
SOLID
  5
21D
100
AcDbEntity
  8
0
  6
BYBLOCK
 62
0
100
AcDbTrace
 10
0.0
 20
0.0
 11
-1.0
 21
0.3166666667
 12
-1.0
 22
-0.3166666667
 13
-1.0
 23
-0.3166666667
  0
ENDBLK
  5
21E
100
AcDbEntity
  8
0
  6
BYBLOCK
 62
0
100
AcDbBlockEnd
  0
ENDSEC
  0
SECTION
  2
ENTITIES
  0
LINE
  5
21F
100
AcDbEntity
  8
RACCORDO
100
AcDbLine
 62
250
  6
CONTINUOUS
 10
-16.2322986525
 20
31.566614123
 11
-15.7987500059
 21
32.1956887188
  0
LINE
  5
220
100
AcDbEntity
  8
RACCORDO
100
AcDbLine
 62
7
  6
CONTINUOUS
 10
-16.2286019563
 20
31.4669645821
 11
-15.793266407
 21
32.0986319552
  0
LWPOLYLINE
  5
221
100
AcDbEntity
  8
RACCORDO
100
AcDbPolyline
 62
7
  6
CONTINUOUS
 90
34
 70
0
 10
-16.9860976687
 20
31.0649813834
 10
-16.9926432839
 20
31.0559864201
 10
-16.9995710163
 20
31.0470449355
 10
-17.006879607
 20
31.0381781518
 10
-17.0145733642
 20
31.0294111186
 10
-17.0226427463
 20
31.0207621933
 10
-17.0310646167
 20
31.0122431341
 10
-17.0398345094
 20
31.0038767901
 10
-17.0489465731
 20
30.9956854467
 10
-17.0583746908
 20
30.9876806395
 10
-17.0681116138
 20
30.9798858373
 10
-17.078148853
 20
30.9723238699
 10
-17.0884575255
 20
30.9650059618
 10
-17.099027523
 20
30.9579558553
 10
-17.1098475008
 20
30.951196689
 10
-17.1208857659
 20
30.9447394646
 10
-17.1321291852
 20
30.9386078479
 10
-17.1435633768
 20
30.9328249396
 10
-17.1551536994
 20
30.9274015683
 10
-17.1668838116
 20
30.9223608752
 10
-17.1787361053
 20
30.9177254824
 10
-17.1906727835
 20
30.9135059985
 10
-17.202674077
 20
30.9097244622
 10
-17.2147190244
 20
30.9064024081
 10
-17.2267665792
 20
30.9035499612
 10
-17.2387932251
 20
30.9011873237
 10
-17.2507747526
 20
30.8993340926
 10
-17.2626674474
 20
30.8979993084
 10
-17.2744325954
 20
30.8972013826
 10
-17.2860543619
 20
30.8969547012
 10
-17.2975211681
 20
30.8972675953
 10
-17.3088076308
 20
30.8981587857
 10
-17.3198752066
 20
30.8996497967
 10
-17.3306897115
 20
30.9017573968
  0
LWPOLYLINE
  5
222
100
AcDbEntity
  8
RACCORDO
100
AcDbPolyline
 62
7
  6
CONTINUOUS
 90
37
 70
0
 10
-22.806471071
 20
28.3649622325
 10
-22.8327999019
 20
28.3488670175
 10
-22.8710101919
 20
28.323619386
 10
-22.9088703859
 20
28.2963027006
 10
-22.9464209602
 20
28.2668283268
 10
-22.9835281365
 20
28.2352418609
 10
-23.0199033216
 20
28.2017595413
 10
-23.0555243704
 20
28.1663944924
 10
-23.0903706458
 20
28.1291574031
 10
-23.1241931712
 20
28.0903238567
 10
-23.1569782158
 20
28.0499448658
 10
-23.1887287245
 20
28.0080474678
 10
-23.2192515243
 20
27.9649345579
 10
-23.2485095185
 20
27.9207379616
 10
-23.2765569732
 20
27.8754474132
 10
-23.3033527874
 20
27.8291979265
 10
-23.3288850861
 20
27.782086039
 10
-23.3531780041
 20
27.7341362188
 10
-23.3762406368
 20
27.6853942549
 10
-23.3980719463
 20
27.6359174368
 10
-23.4186706197
 20
27.5857610678
 10
-23.4380360322
 20
27.5349752364
 10
-23.4561621878
 20
27.4836157478
 10
-23.4730441235
 20
27.4317369898
 10
-23.4886750626
 20
27.3793906394
 10
-23.5030462103
 20
27.326633046
 10
-23.5161493642
 20
27.273517058
 10
-23.5279748161
 20
27.2200911897
 10
-23.5385121102
 20
27.1664091594
 10
-23.5477486927
 20
27.1125245473
 10
-23.555672376
 20
27.0584856151
 10
-23.5622696236
 20
27.004346164
 10
-23.5675245228
 20
26.950159573
 10
-23.5714222965
 20
26.8959670151
 10
-23.5739448124
 20
26.8418128598
 10
-23.5750726667
 20
26.7877564696
 10
-23.5750096258
 20
26.7488698569
  0
LINE
  5
223
100
AcDbEntity
  8
RACCORDO
100
AcDbLine
 62
7
  6
CONTINUOUS
 10
-22.8064523483
 20
28.3649734636
 11
-18.9104076175
 21
30.669796943
  0
LINE
  5
224
100
AcDbEntity
  8
RACCORDO
100
AcDbLine
 62
250
  6
CONTINUOUS
 10
-18.9067604361
 20
30.5714821414
 11
-22.5850011488
 21
28.3955072378
  0
LWPOLYLINE
  5
225
100
AcDbEntity
  8
RACCORDO
100
AcDbPolyline
 62
250
  6
CONTINUOUS
 90
14
 70
0
 10
-22.8064523483
 20
28.3649734636
 10
-22.7981329948
 20
28.3696973721
 10
-22.7825342696
 20
28.3775476583
 10
-22.7664136314
 20
28.384395775
 10
-22.7498075559
 20
28.3902262273
 10
-22.7327536175
 20
28.3950258226
 10
-22.7152904041
 20
28.398783701
 10
-22.6974574295
 20
28.4014913594
 10
-22.679295044
 20
28.4031426714
 10
-22.6608443435
 20
28.4037339005
 10
-22.6421470763
 20
28.4032637089
 10
-22.6232455483
 20
28.4017331606
 10
-22.604182528
 20
28.3991457187
 10
-22.5850011488
 20
28.3955072378
  0
LINE
  5
226
100
AcDbEntity
  8
RACCORDO
100
AcDbLine
 62
7
  6
CONTINUOUS
 10
-18.0884832947
 20
32.9673462886
 11
-19.4325724888
 21
32.2899445932
  0
LINE
  5
227
100
AcDbEntity
  8
RACCORDO
100
AcDbLine
 62
250
  6
CONTINUOUS
 10
-17.9858718431
 20
32.9781079512
 11
-19.3296360003
 21
32.3008700697
  0
LINE
  5
228
100
AcDbEntity
  8
RACCORDO
100
AcDbLine
 62
250
  6
CONTINUOUS
 10
-16.4697175151
 20
32.6342851684
 11
-17.8343862811
 21
31.9617878866
  0
LINE
  5
229
100
AcDbEntity
  8
RACCORDO
100
AcDbLine
 62
250
  6
CONTINUOUS
 10
-16.2615247194
 20
32.3544430527
 11
-17.6261934854
 21
31.6819457709
  0
LINE
  5
22A
100
AcDbEntity
  8
RACCORDO
100
AcDbLine
 62
7
  6
CONTINUOUS
 10
-18.0855334443
 20
32.9687891688
 11
-18.0884832852
 21
32.9673462934
  0
LINE
  5
22B
100
AcDbEntity
  8
RACCORDO
100
AcDbLine
 62
250
  6
CONTINUOUS
 10
-16.0209130255
 20
32.852117481
 11
-16.4697175151
 21
32.6342851684
  0
LINE
  5
22C
100
AcDbEntity
  8
RACCORDO
100
AcDbLine
 62
250
  6
CONTINUOUS
 10
-15.8127202298
 20
32.5722753653
 11
-16.2615247194
 21
32.3544430527
  0
LINE
  5
22D
100
AcDbEntity
  8
RACCORDO
100
AcDbLine
 62
7
  6
CONTINUOUS
 10
-17.6294268253
 20
33.1851934028
 11
-18.0855334496
 21
32.9687891661
  0
LINE
  5
22E
100
AcDbEntity
  8
RACCORDO
100
AcDbLine
 62
250
  6
CONTINUOUS
 10
-17.5300901477
 20
33.1943580223
 11
-17.9858718431
 21
32.9781079512
  0
LINE
  5
22F
100
AcDbEntity
  8
RACCORDO
100
AcDbLine
 62
250
  6
CONTINUOUS
 10
-21.3848508945
 20
-12.9281714945
 11
-21.3896203967
 21
-12.9270643451
  0
LWPOLYLINE
  5
230
100
AcDbEntity
  8
RACCORDO
100
AcDbPolyline
 62
250
  6
CONTINUOUS
 90
32
 70
0
 10
-21.3896203967
 20
-12.9270643451
 10
-21.4184796342
 20
-12.9192566768
 10
-21.4468941615
 20
-12.9096486742
 10
-21.4748282136
 20
-12.8982523682
 10
-21.5022483604
 20
-12.8850815834
 10
-21.5291202908
 20
-12.8701526571
 10
-21.5554101262
 20
-12.8534842111
 10
-21.5810861283
 20
-12.8350967757
 10
-21.6061160273
 20
-12.8150132924
 10
-21.6304684517
 20
-12.7932586898
 10
-21.654114238
 20
-12.7698596444
 10
-21.6770237527
 20
-12.7448452042
 10
-21.6991681981
 20
-12.7182464327
 10
-21.7205210414
 20
-12.6900959952
 10
-21.741055595
 20
-12.660428699
 10
-21.7607459698
 20
-12.6292814268
 10
-21.7795683852
 20
-12.5966927822
 10
-21.7974992318
 20
-12.5627032997
 10
-21.814516048
 20
-12.5273550236
 10
-21.830598463
 20
-12.4906914257
 10
-21.8457263467
 20
-12.4527579827
 10
-21.8598807038
 20
-12.4136016456
 10
-21.8730446275
 20
-12.3732703973
 10
-21.8852017841
 20
-12.3318136806
 10
-21.8963367056
 20
-12.2892832604
 10
-21.9064357298
 20
-12.2457327287
 10
-21.9154861349
 20
-12.2012170471
 10
-21.9234768242
 20
-12.1557904091
 10
-21.9303984882
 20
-12.1095069949
 10
-21.9362425838
 20
-12.0624233107
 10
-21.9410014997
 20
-12.0145982449
 10
-21.9446692135
 20
-11.9660909222
  0
LWPOLYLINE
  5
231
100
AcDbEntity
  8
RACCORDO
100
AcDbPolyline
 62
250
  6
CONTINUOUS
 90
20
 70
0
 10
-22.143671337
 20
-11.8330767224
 10
-22.1423685636
 20
-11.8418174905
 10
-22.1399635109
 20
-11.8504651217
 10
-22.136461507
 20
-11.8590004587
 10
-22.1318703099
 20
-11.867404593
 10
-22.1262000904
 20
-11.8756589069
 10
-22.11946341
 20
-11.8837451144
 10
-22.1116751924
 20
-11.8916453022
 10
-22.1028526911
 20
-11.8993419689
 10
-22.0930154505
 20
-11.9068180638
 10
-22.0821852632
 20
-11.9140570252
 10
-22.0703861215
 20
-11.9210428165
 10
-22.0576441643
 20
-11.9277599619
 10
-22.0439876188
 20
-11.934193581
 10
-22.0294467386
 20
-11.9403294211
 10
-22.0140537362
 20
-11.9461538896
 10
-21.9978427121
 20
-11.9516540833
 10
-21.9808495787
 20
-11.9568178178
 10
-21.963111981
 20
-11.9616336535
 10
-21.9446692134
 20
-11.9660909221
  0
LWPOLYLINE
  5
232
100
AcDbEntity
  8
RACCORDO
100
AcDbPolyline
 62
7
  6
CONTINUOUS
 90
33
 70
0
 10
-22.1437846337
 20
-11.8315549263
 10
-22.140835938
 20
-11.8712819836
 10
-22.1355586158
 20
-11.9244081579
 10
-22.1287407175
 20
-11.9772072108
 10
-22.1203248303
 20
-12.0297406483
 10
-22.1102863264
 20
-12.0818309341
 10
-22.098665176
 20
-12.1330808566
 10
-22.0854471021
 20
-12.1834553536
 10
-22.070616131
 20
-12.2329069272
 10
-22.0542695473
 20
-12.2810672831
 10
-22.0364230656
 20
-12.3279037115
 10
-22.0170811341
 20
-12.3734026458
 10
-21.9963841905
 20
-12.4172714667
 10
-21.9743964108
 20
-12.4594516592
 10
-21.9511276519
 20
-12.4999896167
 10
-21.9266803215
 20
-12.5387762917
 10
-21.9011146163
 20
-12.5757934795
 10
-21.8744699174
 20
-12.6110542045
 10
-21.8468440742
 20
-12.6445027441
 10
-21.8183299821
 20
-12.6761069471
 10
-21.788962805
 20
-12.7059031647
 10
-21.7587673026
 20
-12.7339312568
 10
-21.7278191322
 20
-12.7601802339
 10
-21.6961770176
 20
-12.7846569465
 10
-21.6638411378
 20
-12.8074088542
 10
-21.6308807673
 20
-12.8284291995
 10
-21.5973648491
 20
-12.8477153958
 10
-21.563291414
 20
-12.8653027374
 10
-21.5287364101
 20
-12.8811814981
 10
-21.4937646153
 20
-12.8953532631
 10
-21.458353277
 20
-12.9078508737
 10
-21.4225393737
 20
-12.9186756035
 10
-21.3847329368
 20
-12.9281978805
  0
LWPOLYLINE
  5
233
100
AcDbEntity
  8
RACCORDO
100
AcDbPolyline
 62
250
  6
CONTINUOUS
 90
22
 70
0
 10
-21.9446692135
 20
-11.9660909222
 10
-22.0579078878
 20
-10.1520517663
 10
-22.1666488277
 20
-8.3354635173
 10
-22.2708903495
 20
-6.5163540612
 10
-22.3706308304
 20
-4.6947513287
 10
-22.465868738
 20
-2.8706832756
 10
-22.5566026312
 20
-1.0441778828
 10
-22.6428311142
 20
0.7847368162
 10
-22.7245528519
 20
2.616032745
 10
-22.8017666003
 20
4.4496818027
 10
-22.8744711756
 20
6.2856558419
 10
-22.9426654557
 20
8.1239266843
 10
-23.0063483943
 20
9.96446613
 10
-23.0655190207
 20
11.8072459338
 10
-23.1201764249
 20
13.6522378073
 10
-23.170319758
 20
15.4994134353
 10
-23.2159482619
 20
17.348744466
 10
-23.2570612394
 20
19.2002025174
 10
-23.29365804
 20
21.0537591796
 10
-23.3257381034
 20
22.9093860074
 10
-23.3533009599
 20
24.76705452
 10
-23.376346201
 20
26.6267362077
  0
LWPOLYLINE
  5
234
100
AcDbEntity
  8
RACCORDO
100
AcDbPolyline
 62
250
  6
CONTINUOUS
 90
21
 70
0
 10
-23.5750096258
 20
26.7488698569
 10
-23.5747932808
 20
26.7447926208
 10
-23.5735427976
 20
26.7374615926
 10
-23.5711879777
 20
26.7301682194
 10
-23.5677340377
 20
26.7229286585
 10
-23.5631886292
 20
26.7157589476
 10
-23.5575618216
 20
26.70867497
 10
-23.5508660801
 20
26.7016924187
 10
-23.5431162379
 20
26.6948267624
 10
-23.5343294633
 20
26.6880932107
 10
-23.5245252216
 20
26.6815066803
 10
-23.5137252324
 20
26.6750817625
 10
-23.501953421
 20
26.6688326906
 10
-23.4892358655
 20
26.6627733082
 10
-23.4756007394
 20
26.6569170386
 10
-23.4610782487
 20
26.6512768553
 10
-23.4457005652
 20
26.6458652532
 10
-23.4295017552
 20
26.6406942205
 10
-23.4125177042
 20
26.6357752127
 10
-23.3947860372
 20
26.631119127
 10
-23.3763460352
 20
26.626736278
  0
LWPOLYLINE
  5
235
100
AcDbEntity
  8
RACCORDO
100
AcDbPolyline
 62
7
  6
CONTINUOUS
 90
22
 70
0
 10
-23.5750098178
 20
26.7488735738
 10
-23.5521433554
 20
24.9024670753
 10
-23.5245972775
 20
23.0440243963
 10
-23.492528794
 20
21.1876212504
 10
-23.4559383884
 20
19.3332896008
 10
-23.4148266359
 20
17.4810572543
 10
-23.3691941122
 20
15.6309503577
 10
-23.3190414499
 20
13.7829964048
 10
-23.2643694364
 20
11.9372239592
 10
-23.2051788633
 20
10.0936607797
 10
-23.1414705559
 20
8.2523347958
 10
-23.0732455136
 20
6.4132748243
 10
-23.0005047897
 20
4.5765099538
 10
-22.9232494697
 20
2.7420689601
 10
-22.8414807425
 20
0.9099795878
 10
-22.7551998159
 20
-0.9197306218
 10
-22.6644079611
 20
-2.7470333521
 10
-22.5691065203
 20
-4.5719014722
 10
-22.4692967917
 20
-6.3943092105
 10
-22.3649801963
 20
-8.2142291829
 10
-22.2561585461
 20
-10.0316300857
 10
-22.143784128
 20
-11.831564353
  0
LWPOLYLINE
  5
236
100
AcDbEntity
  8
RACCORDO
100
AcDbPolyline
 62
250
  6
CONTINUOUS
 90
43
 70
0
 10
-23.376346201
 20
26.6267362077
 10
-23.376345533
 20
26.6770788503
 10
-23.3752437357
 20
26.7278359664
 10
-23.3730423037
 20
26.7789447547
 10
-23.3697442851
 20
26.8303413083
 10
-23.3653537905
 20
26.8819627349
 10
-23.3598758354
 20
26.933747262
 10
-23.3533171786
 20
26.9856320297
 10
-23.3456860786
 20
27.0375517484
 10
-23.3369917773
 20
27.0894408389
 10
-23.3272454245
 20
27.1412345952
 10
-23.3164591645
 20
27.1928695686
 10
-23.3046457632
 20
27.2442822461
 10
-23.2918201164
 20
27.2954091924
 10
-23.2779983219
 20
27.346187118
 10
-23.2631968144
 20
27.396553254
 10
-23.2474341962
 20
27.446445545
 10
-23.2307302772
 20
27.4958021471
 10
-23.2131051218
 20
27.5445614981
 10
-23.1945810123
 20
27.5926632229
 10
-23.1751811453
 20
27.6400480477
 10
-23.1549286615
 20
27.6866572913
 10
-23.1338490684
 20
27.7324333979
 10
-23.1119688259
 20
27.7773198145
 10
-23.089314048
 20
27.8212609009
 10
-23.0659131748
 20
27.864202533
 10
-23.041795651
 20
27.9060915268
 10
-23.0169905123
 20
27.9468755265
 10
-22.9915290777
 20
27.9865040679
 10
-22.9654432403
 20
28.0249283884
 10
-22.9387641405
 20
28.062100843
 10
-22.9115253864
 20
28.0979755127
 10
-22.8837611474
 20
28.1325081893
 10
-22.8555044401
 20
28.1656561589
 10
-22.8267904759
 20
28.1973788512
 10
-22.7976556193
 20
28.2276367277
 10
-22.7681354964
 20
28.2563913443
 10
-22.7382679105
 20
28.2836067436
 10
-22.7080897472
 20
28.3092501237
 10
-22.6776358993
 20
28.3332905453
 10
-22.6469435991
 20
28.3556984458
 10
-22.6160524127
 20
28.3764458976
 10
-22.5850011488
 20
28.3955072378
  0
LWPOLYLINE
  5
237
100
AcDbEntity
  8
RACCORDO
100
AcDbPolyline
 62
250
  6
CONTINUOUS
 90
31
 70
0
 10
-17.6125270645
 20
31.3135485534
 10
-17.6163636658
 20
31.3010823995
 10
-17.6207321651
 20
31.2887749948
 10
-17.6256206328
 20
31.2766599482
 10
-17.6310157197
 20
31.2647703433
 10
-17.6369026929
 20
31.2531386483
 10
-17.6432654763
 20
31.2417966269
 10
-17.6500866944
 20
31.2307752516
 10
-17.6573477199
 20
31.2201046196
 10
-17.6650287246
 20
31.2098138702
 10
-17.6731087331
 20
31.1999311052
 10
-17.6815656807
 20
31.1904833124
 10
-17.6903764733
 20
31.1814962918
 10
-17.6995170503
 20
31.1729945849
 10
-17.7089624508
 20
31.1650014083
 10
-17.7186868813
 20
31.1575385895
 10
-17.7286637866
 20
31.150626508
 10
-17.7388659217
 20
31.1442840393
 10
-17.7492654268
 20
31.1385285032
 10
-17.7598339029
 20
31.1333756169
 10
-17.7705424898
 20
31.128839452
 10
-17.7813619446
 20
31.1249323957
 10
-17.7922627217
 20
31.1216651173
 10
-17.8032150532
 20
31.1190465392
 10
-17.8141890306
 20
31.117083812
 10
-17.8251546864
 20
31.1157822957
 10
-17.8360820755
 20
31.1151455444
 10
-17.8469413577
 20
31.1151752968
 10
-17.8577028784
 20
31.1158714719
 10
-17.8683372502
 20
31.1172321683
 10
-17.8788154329
 20
31.1192536705
  0
LINE
  5
238
100
AcDbEntity
  8
RACCORDO
100
AcDbLine
 62
7
  6
CONTINUOUS
 10
-16.1971207665
 20
30.6183457044
 11
-16.9536321195
 21
30.189827742
  0
LINE
  5
239
100
AcDbEntity
  8
RACCORDO
100
AcDbLine
 62
7
  6
CONTINUOUS
 10
-13.4738224979
 20
31.0841805942
 11
-13.1736650094
 21
31.2354556677
  0
LINE
  5
23A
100
AcDbEntity
  8
RACCORDO
100
AcDbLine
 62
7
  6
CONTINUOUS
 10
-9.443678657
 20
33.3166718161
 11
-14.8041206411
 21
30.7250645747
  0
LINE
  5
23B
100
AcDbEntity
  8
ASSI
100
AcDbLine
 62
7
  6
CONTINUOUS
 10
-7.9395621879
 20
33.2396442389
 11
-11.8535995971
 21
31.3614211172
  0
LINE
  5
23C
100
AcDbEntity
  8
ASSI
100
AcDbLine
 62
7
  6
CONTINUOUS
 10
-13.1736650094
 20
31.2354556677
 11
-8.6229053436
 21
33.3946079791
  0
LWPOLYLINE
  5
23D
100
AcDbEntity
  8
ASSI
100
AcDbPolyline
 62
7
  6
CONTINUOUS
 90
7
 70
0
 10
-7.9395621879
 20
33.2396442389
 10
-7.9325696857
 20
33.242868861
 10
-7.9255894765
 20
33.245833971
 10
-7.9186215605
 20
33.2485395687
 10
-7.9116659375
 20
33.2509856543
 10
-7.9047226076
 20
33.2531722277
 10
-7.8977915707
 20
33.2550992888
  0
LWPOLYLINE
  5
23E
100
AcDbEntity
  8
RACCORDO
100
AcDbPolyline
 62
7
  6
CONTINUOUS
 90
15
 70
0
 10
-4.6389664416
 20
-16.725684676
 10
-4.6033297797
 20
-16.7329701423
 10
-4.566419366
 20
-16.7388550649
 10
-4.528959207
 20
-16.743139296
 10
-4.4910218903
 20
-16.7457775718
 10
-4.4527101678
 20
-16.7467321312
 10
-4.4140847392
 20
-16.7459744289
 10
-4.3752101477
 20
-16.7434791597
 10
-4.3361923781
 20
-16.7392307057
 10
-4.297090876
 20
-16.733218132
 10
-4.257965901
 20
-16.725433721
 10
-4.2189156471
 20
-16.7158829229
 10
-4.1800066007
 20
-16.7045732156
 10
-4.1412795631
 20
-16.6915093933
 10
-4.1163038105
 20
-16.682110637
  0
LWPOLYLINE
  5
23F
100
AcDbEntity
  8
RACCORDO
100
AcDbPolyline
 62
250
  6
CONTINUOUS
 90
31
 70
0
 10
-1.2060391163
 20
-17.2552990795
 10
-1.1954324638
 20
-17.2575578956
 10
-1.1844454202
 20
-17.2596104013
 10
-1.1731078776
 20
-17.2614510124
 10
-1.1614506816
 20
-17.2630747212
 10
-1.1495055476
 20
-17.2644771101
 10
-1.1373049745
 20
-17.2656543636
 10
-1.1248821559
 20
-17.2666032789
 10
-1.1122708902
 20
-17.2673212743
 10
-1.0995054885
 20
-17.2678063963
 10
-1.0866206813
 20
-17.2680573251
 10
-1.0736515238
 20
-17.268073378
 10
-1.0606333008
 20
-17.2678545113
 10
-1.0476014307
 20
-17.2674013205
 10
-1.0345913687
 20
-17.2667150386
 10
-1.0216385111
 20
-17.2657975327
 10
-1.0087780983
 20
-17.264651299
 10
-0.9960451191
 20
-17.2632794561
 10
-0.9834742158
 20
-17.2616857362
 10
-0.9710995898
 20
-17.2598744755
 10
-0.9589549082
 20
-17.2578506017
 10
-0.9470732127
 20
-17.2556196211
 10
-0.9354868294
 20
-17.2531876034
 10
-0.9242272812
 20
-17.2505611655
 10
-0.9133252015
 20
-17.2477474529
 10
-0.9028102513
 20
-17.2447541209
 10
-0.8927110383
 20
-17.2415893132
 10
-0.883055039
 20
-17.2382616404
 10
-0.8738685243
 20
-17.2347801559
 10
-0.8651764877
 20
-17.2311543317
 10
-0.8570025773
 20
-17.2273940323
  0
LWPOLYLINE
  5
240
100
AcDbEntity
  8
RACCORDO
100
AcDbPolyline
 62
250
  6
CONTINUOUS
 90
31
 70
0
 10
-1.2197055372
 20
-16.886901862
 10
-1.2090988847
 20
-16.8891606781
 10
-1.1981118411
 20
-16.8912131838
 10
-1.1867742985
 20
-16.8930537949
 10
-1.1751171025
 20
-16.8946775037
 10
-1.1631719685
 20
-16.8960798925
 10
-1.1509713954
 20
-16.8972571461
 10
-1.1385485768
 20
-16.8982060614
 10
-1.1259373111
 20
-16.8989240568
 10
-1.1131719094
 20
-16.8994091788
 10
-1.1002871022
 20
-16.8996601076
 10
-1.0873179447
 20
-16.8996761605
 10
-1.0742997217
 20
-16.8994572938
 10
-1.0612678515
 20
-16.899004103
 10
-1.0482577896
 20
-16.8983178211
 10
-1.035304932
 20
-16.8974003152
 10
-1.0224445192
 20
-16.8962540815
 10
-1.00971154
 20
-16.8948822386
 10
-0.9971406367
 20
-16.8932885187
 10
-0.9847660107
 20
-16.891477258
 10
-0.972621329
 20
-16.8894533842
 10
-0.9607396335
 20
-16.8872224036
 10
-0.9491532503
 20
-16.8847903859
 10
-0.9378937021
 20
-16.882163948
 10
-0.9269916224
 20
-16.8793502354
 10
-0.9164766722
 20
-16.8763569034
 10
-0.9063774591
 20
-16.8731920957
 10
-0.8967214599
 20
-16.8698644229
 10
-0.8875349452
 20
-16.8663829384
 10
-0.8788429086
 20
-16.8627571141
 10
-0.8706689981
 20
-16.8589968148
  0
LINE
  5
241
100
AcDbEntity
  8
RACCORDO
100
AcDbLine
 62
7
  6
CONTINUOUS
 10
-21.3848508945
 20
-12.9281714945
 11
-4.6388300348
 21
-16.7257159701
  0
LINE
  5
242
100
AcDbEntity
  8
RACCORDO
100
AcDbLine
 62
7
  6
CONTINUOUS
 10
-2.606156311
 20
-17.0864544745
 11
-1.1109065919
 21
-17.4255366575
  0
LINE
  5
243
100
AcDbEntity
  8
RACCORDO
100
AcDbLine
 62
250
  6
CONTINUOUS
 10
-2.7012888355
 20
-16.9162168965
 11
-1.2060391163
 21
-17.2552990795
  0
LINE
  5
244
100
AcDbEntity
  8
RACCORDO
100
AcDbLine
 62
250
  6
CONTINUOUS
 10
-1.2197055372
 20
-16.886901862
 11
-2.7149552564
 21
-16.5478196789
  0
LINE
  5
245
100
AcDbEntity
  8
RACCORDO
100
AcDbLine
 62
250
  6
CONTINUOUS
 10
-21.9446692135
 20
-11.9660909222
 11
-5.2147799764
 21
-15.7599771822
  0
LINE
  5
246
100
AcDbEntity
  8
RACCORDO
100
AcDbLine
 62
250
  6
CONTINUOUS
 10
-1.1520317805
 20
-16.6469400845
 11
-2.6472814997
 21
-16.3078579015
  0
LINE
  5
247
100
AcDbEntity
  8
RACCORDO
100
AcDbLine
 62
7
  6
CONTINUOUS
 10
-1.6037029574
 20
-15.697532135
 11
-0.6390796918
 21
-15.9162825942
  0
LINE
  5
248
100
AcDbEntity
  8
RACCORDO
100
AcDbLine
 62
7
  6
CONTINUOUS
 10
-4.638960218
 20
-16.7256864302
 11
-4.6388300941
 21
-16.7257159567
  0
LWPOLYLINE
  5
249
100
AcDbEntity
  8
RACCORDO
100
AcDbPolyline
 62
7
  6
CONTINUOUS
 90
5
 70
0
 10
-0.6384993834
 20
-15.9164141925
 10
-0.6278931082
 20
-15.918909135
 10
-0.6169453652
 20
-15.92153811
 10
-0.6056905623
 20
-15.9242984834
 10
-0.5941522417
 20
-15.9272015111
  0
LWPOLYLINE
  5
24A
100
AcDbEntity
  8
RACCORDO
100
AcDbPolyline
 62
250
  6
CONTINUOUS
 90
19
 70
0
 10
-2.7012888355
 20
-16.9162168965
 10
-2.7114862396
 20
-16.9137579154
 10
-2.7212466516
 20
-16.9111054595
 10
-2.7305435166
 20
-16.9082667451
 10
-2.739351541
 20
-16.9052494956
 10
-2.747646761
 20
-16.9020619198
 10
-2.755406608
 20
-16.8987126901
 10
-2.7626099701
 20
-16.8952109186
 10
-2.7692372493
 20
-16.8915661325
 10
-2.775270415
 20
-16.887788248
 10
-2.7806930529
 20
-16.8838875435
 10
-2.7854904098
 20
-16.8798746316
 10
-2.7896494338
 20
-16.8757604301
 10
-2.7931588094
 20
-16.8715561322
 10
-2.7960089888
 20
-16.8672731767
 10
-2.7981922176
 20
-16.8629232158
 10
-2.799702556
 20
-16.8585180846
 10
-2.8005358948
 20
-16.8540697677
 10
-2.8006950623
 20
-16.8519128225
  0
LWPOLYLINE
  5
24B
100
AcDbEntity
  8
RACCORDO
100
AcDbPolyline
 62
250
  6
CONTINUOUS
 90
19
 70
0
 10
-2.7149552564
 20
-16.5478196789
 10
-2.7251526605
 20
-16.5453606979
 10
-2.7349130725
 20
-16.542708242
 10
-2.7442099375
 20
-16.5398695276
 10
-2.7530179619
 20
-16.5368522781
 10
-2.7613131818
 20
-16.5336647023
 10
-2.7690730289
 20
-16.5303154726
 10
-2.776276391
 20
-16.5268137011
 10
-2.7829036702
 20
-16.5231689149
 10
-2.7889368359
 20
-16.5193910305
 10
-2.7943594738
 20
-16.515490326
 10
-2.7991568307
 20
-16.5114774141
 10
-2.8033158546
 20
-16.5073632125
 10
-2.8068252302
 20
-16.5031589147
 10
-2.8096754096
 20
-16.4988759591
 10
-2.8118586385
 20
-16.4945259983
 10
-2.8133689769
 20
-16.490120867
 10
-2.8142023157
 20
-16.4856725502
 10
-2.8143614832
 20
-16.483515605
  0
LWPOLYLINE
  5
24C
100
AcDbEntity
  8
RACCORDO
100
AcDbPolyline
 62
7
  6
CONTINUOUS
 90
3
 70
0
 10
-0.5941522417
 20
-15.9272015111
 10
-0.5704284108
 20
-15.9333519021
 10
-0.5583603249
 20
-15.9365621466
  0
LWPOLYLINE
  5
24D
100
AcDbEntity
  8
RACCORDO
100
AcDbPolyline
 62
7
  6
CONTINUOUS
 90
3
 70
0
 10
-0.5583603249
 20
-15.9365621466
 10
-0.5339566238
 20
-15.9432276853
 10
-0.5216831688
 20
-15.9466513657
  0
LWPOLYLINE
  5
24E
100
AcDbEntity
  8
RACCORDO
100
AcDbPolyline
 62
7
  6
CONTINUOUS
 90
3
 70
0
 10
-0.5216831688
 20
-15.9466513657
 10
-0.4971457696
 20
-15.9536586545
 10
-0.484936736
 20
-15.9572109764
  0
LWPOLYLINE
  5
24F
100
AcDbEntity
  8
RACCORDO
100
AcDbPolyline
 62
7
  6
CONTINUOUS
 90
3
 70
0
 10
-0.484936736
 20
-15.9572109764
 10
-0.460773894
 20
-15.9643965644
 10
-0.4488678491
 20
-15.9679995999
  0
LWPOLYLINE
  5
250
100
AcDbEntity
  8
RACCORDO
100
AcDbPolyline
 62
7
  6
CONTINUOUS
 90
3
 70
0
 10
-0.4488678491
 20
-15.9679995999
 10
-0.4255263084
 20
-15.9752142667
 10
-0.4141321569
 20
-15.9787970832
  0
LWPOLYLINE
  5
251
100
AcDbEntity
  8
RACCORDO
100
AcDbPolyline
 62
7
  6
CONTINUOUS
 90
3
 70
0
 10
-0.4141321569
 20
-15.9787970832
 10
-0.3920017147
 20
-15.9859055291
 10
-0.3813011118
 20
-15.9894039122
  0
LWPOLYLINE
  5
252
100
AcDbEntity
  8
RACCORDO
100
AcDbPolyline
 62
7
  6
CONTINUOUS
 90
3
 70
0
 10
-0.3813011118
 20
-15.9894039122
 10
-0.3607194343
 20
-15.9962840131
 10
-0.3508689788
 20
-15.999640113
  0
LWPOLYLINE
  5
253
100
AcDbEntity
  8
RACCORDO
100
AcDbPolyline
 62
7
  6
CONTINUOUS
 90
8
 70
0
 10
-0.3508689788
 20
-15.999640113
 10
-0.3321253658
 20
-16.0061822461
 10
-0.3232580998
 20
-16.009344338
 10
-0.3147447466
 20
-16.0124434423
 10
-0.3065956619
 20
-16.0154510587
 10
-0.2988214467
 20
-16.0183623343
 10
-0.2914325845
 20
-16.0211961761
 10
-0.2844380397
 20
-16.023959683
  0
LINE
  5
254
100
AcDbEntity
  8
DRAFT
100
AcDbLine
 62
7
  6
CONTINUOUS
 10
-19.2632802251
 20
6.9491417909
 11
-19.2635492689
 21
6.9565665519
  0
LWPOLYLINE
  5
255
100
AcDbEntity
  8
0
100
AcDbPolyline
 62
7
  6
CONTINUOUS
 90
24
 70
0
 10
2.1680939758
 20
35.3887665252
 10
2.1330801756
 20
35.3716282724
 10
2.0991120594
 20
35.3542597018
 10
2.0662068264
 20
35.3366690699
 10
2.0343769503
 20
35.3188626286
 10
2.0036432328
 20
35.3008509438
 10
1.9740332829
 20
35.2826491544
 10
1.9455583849
 20
35.2642644768
 10
1.9182346606
 20
35.245707613
 10
1.8920924299
 20
35.2269996322
 10
1.8671505128
 20
35.2081570055
 10
1.8434082176
 20
35.1891823485
 10
1.8208648314
 20
35.1700761616
 10
1.7995341312
 20
35.1508518057
 10
1.7794202941
 20
35.1315147965
 10
1.7605126451
 20
35.1120534082
 10
1.7428131966
 20
35.0924658243
 10
1.7263440193
 20
35.0727722863
 10
1.7111250984
 20
35.0529941019
 10
1.6971637561
 20
35.0331405313
 10
1.6844671939
 20
35.0132215553
 10
1.6730492758
 20
34.9932598885
 10
1.6629158668
 20
34.9732711255
 10
1.6543378029
 20
34.9538740067
  0
LINE
  5
256
100
AcDbEntity
  8
0
100
AcDbLine
 62
7
  6
CONTINUOUS
 10
-8.7120877915
 20
30.8970477568
 11
-8.110400082
 21
31.1913355237
  0
LINE
  5
257
100
AcDbEntity
  8
0
100
AcDbLine
 62
7
  6
CONTINUOUS
 10
-6.5220181876
 20
31.6825942419
 11
-7.7114138778
 21
31.100856247
  0
LINE
  5
258
100
AcDbEntity
  8
RACCORDO
100
AcDbLine
 62
7
  6
CONTINUOUS
 10
5.7196108249
 20
37.1058154663
 11
2.1706902162
 21
35.3900159982
  0
LINE
  5
259
100
AcDbEntity
  8
0
100
AcDbLine
 62
7
  6
CONTINUOUS
 10
2.1706902162
 20
35.3900159982
 11
2.1680939758
 21
35.3887665252
  0
LINE
  5
25A
100
AcDbEntity
  8
DRAFT
100
AcDbLine
 62
7
  6
CONTINUOUS
 10
-8.1326120577
 20
31.7900899546
 11
-7.8484539947
 21
31.9251369021
  0
LINE
  5
25B
100
AcDbEntity
  8
RACCORDO
100
AcDbLine
 62
7
  6
CONTINUOUS
 10
-5.9825971546
 20
32.5317921692
 11
-7.7336258536
 21
31.6996106779
  0
LINE
  5
25C
100
AcDbEntity
  8
RACCORDO
100
AcDbLine
 62
7
  6
CONTINUOUS
 10
4.8390020877
 20
37.5312632322
 11
1.821571662
 21
36.1287862372
  0
LINE
  5
25D
100
AcDbEntity
  8
RACCORDO
100
AcDbLine
 62
7
  6
CONTINUOUS
 10
3.284032423
 20
37.8838882833
 11
-7.5166816584
 21
32.9708140505
  0
LWPOLYLINE
  5
25E
100
AcDbEntity
  8
RACCORDO
100
AcDbPolyline
 62
7
  6
CONTINUOUS
 90
20
 70
0
 10
3.284032423
 20
37.8838882833
 10
3.298002598
 20
37.8899349206
 10
3.3121267562
 20
37.8954399104
 10
3.3263958833
 20
37.9004024886
 10
3.340799718
 20
37.9048211537
 10
3.355330295
 20
37.908696625
 10
3.3699820014
 20
37.9120317608
 10
3.384745573
 20
37.9148265632
 10
3.3996118439
 20
37.9170815084
 10
3.4145753591
 20
37.9188003883
 10
3.4296267614
 20
37.9199838355
 10
3.4447568249
 20
37.9206329554
 10
3.4599603011
 20
37.9207524864
 10
3.4752277773
 20
37.9203436815
 10
3.4905500015
 20
37.9194082551
 10
3.5059219821
 20
37.9179518825
 10
3.5213342912
 20
37.9159764219
 10
3.5367776864
 20
37.9134841719
 10
3.5522474812
 20
37.9104817144
 10
3.5600237246
 20
37.9087824463
  0
LWPOLYLINE
  5
25F
100
AcDbEntity
  8
RACCORDO
100
AcDbPolyline
 62
250
  6
CONTINUOUS
 90
33
 70
0
 10
3.309453327
 20
34.5499374892
 10
3.3906328686
 20
34.5731866153
 10
3.4924858917
 20
34.5998449924
 10
3.5960071655
 20
34.6243407554
 10
3.7011734535
 20
34.6467961792
 10
3.8056109017
 20
34.6671218086
 10
3.9090069699
 20
34.6851996257
 10
4.0116741984
 20
34.7011476484
 10
4.1121763535
 20
34.7152304748
 10
4.2102804995
 20
34.7274125764
 10
4.3062195723
 20
34.7377294817
 10
4.3992561461
 20
34.7465523746
 10
4.4892239408
 20
34.7538827365
 10
4.5762892364
 20
34.759719086
 10
4.6602134479
 20
34.7644281633
 10
4.7408622155
 20
34.7680279439
 10
4.8183698988
 20
34.7705004523
 10
4.8929009922
 20
34.7721585021
 10
4.9644114256
 20
34.773026849
 10
5.0329452691
 20
34.7730807374
 10
5.0987992264
 20
34.7725587134
 10
5.1619495562
 20
34.7714828225
 10
5.22242
 20
34.7698310193
 10
5.2805784856
 20
34.7677757141
 10
5.336413292
 20
34.7653359005
 10
5.3899361404
 20
34.762492585
 10
5.4415501222
 20
34.7593611969
 10
5.4912520234
 20
34.7559573459
 10
5.539045058
 20
34.7522654223
 10
5.5853419597
 20
34.748354026
 10
5.6302803065
 20
34.7442460237
 10
5.6737225203
 20
34.7399185487
 10
5.7156686013
 20
34.735371601
  0
LINE
  5
260
100
AcDbEntity
  8
RACCORDO
100
AcDbLine
 62
250
  6
CONTINUOUS
 10
0.9431080605
 20
-15.9768566495
 11
0.47935212
 21
-15.7916519892
  0
LINE
  5
261
100
AcDbEntity
  8
RACCORDO
100
AcDbLine
 62
7
  6
CONTINUOUS
 10
0.8354623872
 20
-15.6998752662
 11
0.4705411836
 21
-15.5541410521
  0
LWPOLYLINE
  5
262
100
AcDbEntity
  8
RACCORDO
100
AcDbPolyline
 62
250
  6
CONTINUOUS
 90
16
 70
0
 10
-19.4568133227
 20
31.6247256893
 10
-19.4561923197
 20
31.6131201321
 10
-19.455198706
 20
31.6017264417
 10
-19.4538349529
 20
31.5905729584
 10
-19.4521044591
 20
31.5796874624
 10
-19.4500115247
 20
31.5690969909
 10
-19.4475613281
 20
31.5588277812
 10
-19.4447599318
 20
31.5489053187
 10
-19.4416143094
 20
31.5393543705
 10
-19.4381323146
 20
31.5301988047
 10
-19.4343225972
 20
31.5214613695
 10
-19.4301946447
 20
31.5131638281
 10
-19.425758818
 20
31.5053269733
 10
-19.4210262367
 20
31.4979703678
 10
-19.4160086309
 20
31.4911121688
 10
-19.410718383
 20
31.4847692743
  0
LWPOLYLINE
  5
263
100
AcDbEntity
  8
RACCORDO
100
AcDbPolyline
 62
250
  6
CONTINUOUS
 90
22
 70
0
 10
-17.9615636036
 20
31.2856435062
 10
-17.9609426005
 20
31.2740379491
 10
-17.9599489868
 20
31.2626442586
 10
-17.9585852337
 20
31.2514907753
 10
-17.9568547399
 20
31.2406052794
 10
-17.9547618055
 20
31.2300148078
 10
-17.952311609
 20
31.2197455982
 10
-17.9495102127
 20
31.2098231356
 10
-17.9463645902
 20
31.2002721875
 10
-17.9428825954
 20
31.1911166216
 10
-17.939072878
 20
31.1823791864
 10
-17.9349449255
 20
31.174081645
 10
-17.9305090989
 20
31.1662447902
 10
-17.9257765175
 20
31.1588881848
 10
-17.9207589117
 20
31.1520299857
 10
-17.9154686638
 20
31.1456870913
 10
-17.9099178268
 20
31.1398742002
 10
-17.9041212147
 20
31.1346070619
 10
-17.8980967032
 20
31.1299012721
 10
-17.8918608321
 20
31.1257682973
 10
-17.8854283189
 20
31.1222164901
 10
-17.8788154329
 20
31.1192536705
  0
LINE
  5
264
100
AcDbEntity
  8
RACCORDO
100
AcDbLine
 62
7
  6
CONTINUOUS
 10
-19.5698859704
 20
32.0574269808
 11
-19.5562195495
 21
31.6890297632
  0
LINE
  5
265
100
AcDbEntity
  8
RACCORDO
100
AcDbLine
 62
250
  6
CONTINUOUS
 10
-19.4704797436
 20
31.9931229068
 11
-19.4568133227
 21
31.6247256893
  0
LINE
  5
266
100
AcDbEntity
  8
RACCORDO
100
AcDbLine
 62
7
  6
CONTINUOUS
 10
-18.9330442948
 20
31.2799997908
 11
-18.9063329664
 21
30.5599591058
  0
LINE
  5
267
100
AcDbEntity
  8
RACCORDO
100
AcDbLine
 62
250
  6
CONTINUOUS
 10
-18.8346440576
 20
31.2428135537
 11
-18.8067498503
 21
30.4908867374
  0
LINE
  5
268
100
AcDbEntity
  8
RACCORDO
100
AcDbLine
 62
250
  6
CONTINUOUS
 10
-17.9615636036
 20
31.2856435062
 11
-17.9752300244
 21
31.6540407237
  0
LINE
  5
269
100
AcDbEntity
  8
RACCORDO
100
AcDbLine
 62
250
  6
CONTINUOUS
 10
-17.6125270645
 20
31.3135485534
 11
-17.6261934854
 21
31.6819457709
  0
LINE
  5
26A
100
AcDbEntity
  8
RACCORDO
100
AcDbLine
 62
250
  6
CONTINUOUS
 10
-17.3301094031
 20
30.9016257985
 11
-17.3022151958
 21
30.1496989822
  0
LWPOLYLINE
  5
26B
100
AcDbEntity
  8
RACCORDO
100
AcDbPolyline
 62
250
  6
CONTINUOUS
 90
31
 70
0
 10
-17.9752300244
 20
31.6540407237
 10
-17.975479206
 20
31.6663737649
 10
-17.9753184612
 20
31.6788734168
 10
-17.9747482275
 20
31.6915056721
 10
-17.9737700563
 20
31.7042361626
 10
-17.9723866088
 20
31.7170302529
 10
-17.9706016489
 20
31.7298531344
 10
-17.968420033
 20
31.7426699203
 10
-17.9658476964
 20
31.7554457404
 10
-17.9628916377
 20
31.7681458359
 10
-17.9595598994
 20
31.7807356541
 10
-17.9558615459
 20
31.7931809421
 10
-17.9518066393
 20
31.8054478406
 10
-17.9474062117
 20
31.8175029752
 10
-17.942672235
 20
31.8293135481
 10
-17.9376175891
 20
31.8408474264
 10
-17.9322560258
 20
31.8520732304
 10
-17.9266021321
 20
31.8629604183
 10
-17.9206712906
 20
31.8734793697
 10
-17.914479637
 20
31.8836014661
 10
-17.9080440168
 20
31.8932991684
 10
-17.9013819391
 20
31.9025460926
 10
-17.8945115293
 20
31.9113170807
 10
-17.8874514795
 20
31.9195882698
 10
-17.8802209978
 20
31.9273371567
 10
-17.8728397559
 20
31.9345426593
 10
-17.8653278357
 20
31.9411851738
 10
-17.8577056747
 20
31.9472466281
 10
-17.8499940103
 20
31.9527105309
 10
-17.8422138233
 20
31.9575620169
 10
-17.8343862811
 20
31.9617878866
  0
LWPOLYLINE
  5
26C
100
AcDbEntity
  8
RACCORDO
100
AcDbPolyline
 62
250
  6
CONTINUOUS
 90
31
 70
0
 10
-19.4704797436
 20
31.9931229068
 10
-19.4707289349
 20
32.00545868
 10
-19.4705680186
 20
32.0179611595
 10
-19.46999743
 20
32.0305963163
 10
-19.469018718
 20
32.0433297729
 10
-19.467634544
 20
32.0561268575
 10
-19.4658486789
 20
32.0689526973
 10
-19.4636659866
 20
32.0817723721
 10
-19.4610924078
 20
32.0945509972
 10
-19.4581349514
 20
32.1072537791
 10
-19.4548016698
 20
32.1198461401
 10
-19.4511016372
 20
32.1322938084
 10
-19.4470449282
 20
32.1445628989
 10
-19.4426425813
 20
32.1566200321
 10
-19.437906586
 20
32.168432377
 10
-19.4328498551
 20
32.1799677396
 10
-19.4274861808
 20
32.1911946816
 10
-19.4218301468
 20
32.2020827006
 10
-19.4158970996
 20
32.2126022583
 10
-19.4097031032
 20
32.2227248489
 10
-19.4032650899
 20
32.2324227779
 10
-19.3966007859
 20
32.241669373
 10
-19.3897284827
 20
32.2504393404
 10
-19.3826667721
 20
32.2587090377
 10
-19.3754346803
 20
32.2664562131
 10
-19.3680502491
 20
32.2736613061
 10
-19.3605351547
 20
32.2803029382
 10
-19.352914702
 20
32.286359387
 10
-19.3452114317
 20
32.291814214
 10
-19.3374448094
 20
32.2966550931
 10
-19.3296360003
 20
32.3008700697
  0
LINE
  5
26D
100
AcDbEntity
  8
RACCORDO
100
AcDbLine
 62
7
  6
CONTINUOUS
 10
-6.1027698008
 20
28.329220003
 11
-6.4067810827
 21
28.1570159845
  0
LINE
  5
26E
100
AcDbEntity
  8
RACCORDO
100
AcDbLine
 62
7
  6
CONTINUOUS
 10
-7.1013970002
 20
29.2719704299
 11
-7.1473849959
 21
29.2476831889
  0
LWPOLYLINE
  5
26F
100
AcDbEntity
  8
RACCORDO
100
AcDbPolyline
 62
7
  6
CONTINUOUS
 90
3
 70
0
 10
-7.0641652426
 20
29.2912184546
 10
-7.0768210202
 20
29.2847266207
 10
-7.1013970002
 20
29.2719704299
  0
LINE
  5
270
100
AcDbEntity
  8
RACCORDO
100
AcDbLine
 62
7
  6
CONTINUOUS
 10
-6.4563347806
 20
29.4928042346
 11
-6.1515078158
 21
29.6430203972
  0
LINE
  5
271
100
AcDbEntity
  8
RACCORDO
100
AcDbLine
 62
7
  6
CONTINUOUS
 10
5.7156686013
 20
34.735371601
 11
5.4530385939
 21
34.6069182569
  0
LINE
  5
272
100
AcDbEntity
  8
ASSI
100
AcDbLine
 62
7
  6
CONTINUOUS
 10
-6.1515078158
 20
29.6430203972
 11
-1.6704121737
 21
31.8179706245
  0
LINE
  5
273
100
AcDbEntity
  8
DRAFT
100
AcDbLine
 62
7
  6
CONTINUOUS
 10
2.1855010401
 20
34.9195351068
 11
5.7699468014
 21
36.6525033245
  0
LINE
  5
274
100
AcDbEntity
  8
DRAFT
100
AcDbLine
 62
7
  6
CONTINUOUS
 10
-6.1027698008
 20
28.329220003
 11
-1.5781375849
 21
30.5042510101
  0
LINE
  5
275
100
AcDbEntity
  8
ASSI
100
AcDbLine
 62
7
  6
CONTINUOUS
 10
-2.3537553294
 20
31.9729343647
 11
-6.2677927386
 21
30.094711243
  0
LINE
  5
276
100
AcDbEntity
  8
RACCORDO
100
AcDbLine
 62
7
  6
CONTINUOUS
 10
-1.1947627045
 20
31.4460408485
 11
-1.519244817
 21
31.291829779
  0
LWPOLYLINE
  5
277
100
AcDbEntity
  8
ASSI
100
AcDbPolyline
 62
7
  6
CONTINUOUS
 90
7
 70
0
 10
-2.3537553294
 20
31.9729343647
 10
-2.3467628272
 20
31.9761589868
 10
-2.339782618
 20
31.9791240967
 10
-2.332814702
 20
31.9818296945
 10
-2.325859079
 20
31.9842757801
 10
-2.3189157491
 20
31.9864623534
 10
-2.3119847122
 20
31.9883894146
  0
LINE
  5
278
100
AcDbEntity
  8
RACCORDO
100
AcDbLine
 62
7
  6
CONTINUOUS
 10
9.9094767209
 20
36.3814167646
 11
6.8624241592
 21
34.9856572686
  0
LWPOLYLINE
  5
279
100
AcDbEntity
  8
0
100
AcDbPolyline
 62
7
  6
CONTINUOUS
 90
108
 70
0
 10
6.8624241592
 20
34.9856572686
 10
6.8210856041
 20
34.9671145748
 10
6.7786576969
 20
34.9488557039
 10
6.7351404378
 20
34.9308806559
 10
6.6905118288
 20
34.9131808798
 10
6.6447938677
 20
34.8957649267
 10
6.5980525487
 20
34.8786584496
 10
6.5502884001
 20
34.861862641
 10
6.5015008935
 20
34.8453763084
 10
6.4517544375
 20
34.8292215269
 10
6.4010451243
 20
34.8133980826
 10
6.3493768617
 20
34.7979061895
 10
6.2968257811
 20
34.7827685646
 10
6.2433940758
 20
34.7679865999
 10
6.1890795525
 20
34.7535589034
 10
6.1339517637
 20
34.7395040156
 10
6.0780052848
 20
34.7258214866
 10
6.0212455403
 20
34.7125117662
 10
5.9637583556
 20
34.6995947443
 10
5.9055486786
 20
34.6870722531
 10
5.8466115613
 20
34.6749424605
 10
5.7870179847
 20
34.6632197598
 10
5.72676101
 20
34.6519034629
 10
5.665847576
 20
34.6409942579
 10
5.6043694805
 20
34.6305086033
 10
5.5423333243
 20
34.6204483014
 10
5.4797325066
 20
34.6108115498
 10
5.4166390227
 20
34.601609399
 10
5.3530437091
 20
34.5928411825
 10
5.2889557293
 20
34.5845075668
 10
5.2244745691
 20
34.5766216018
 10
5.1596085001
 20
34.5691848947
 10
5.0943492506
 20
34.5621958382
 10
5.0287714911
 20
34.55566266
 10
4.9628640495
 20
34.5495850614
 10
4.8966380979
 20
34.543963341
 10
4.8302018236
 20
34.5388066229
 10
4.7635662193
 20
34.5341163521
 10
4.6967202922
 20
34.5298910835
 10
4.6297392515
 20
34.526135606
 10
4.5626109088
 20
34.522850008
 10
4.4953474525
 20
34.5200342012
 10
4.4280606566
 20
34.5176927097
 10
4.3607639766
 20
34.5158266258
 10
4.2934439571
 20
34.5144348573
 10
4.2261720056
 20
34.5135186511
 10
4.158935138
 20
34.5130784466
 10
4.0917463383
 20
34.5131138046
 10
4.0247159663
 20
34.5136246542
 10
3.9578581458
 20
34.5146114764
 10
3.891158753
 20
34.5160737903
 10
3.8246857772
 20
34.5180100821
 10
3.758425132
 20
34.5204214279
 10
3.6923909038
 20
34.5233067516
 10
3.626693341
 20
34.5266613103
 10
3.5613468132
 20
34.530484918
 10
3.4963369509
 20
34.5347777607
 10
3.4317308935
 20
34.5395356539
 10
3.3675141402
 20
34.5447604911
 10
3.3037011917
 20
34.5504503789
 10
3.2404026895
 20
34.5565954515
 10
3.1776340364
 20
34.5631948514
 10
3.1153798296
 20
34.5702494362
 10
3.0537045016
 20
34.5777519133
 10
2.9925943691
 20
34.5857047643
 10
2.9320631155
 20
34.5941055075
 10
2.8722162238
 20
34.6029394058
 10
2.8130695396
 20
34.6122048477
 10
2.7546072173
 20
34.6219034447
 10
2.696887203
 20
34.6320252938
 10
2.6398969372
 20
34.6425733298
 10
2.5836489795
 20
34.653544618
 10
2.5282389549
 20
34.6649204511
 10
2.4736813589
 20
34.6766985355
 10
2.4199616959
 20
34.6888811648
 10
2.3671321039
 20
34.7014565123
 10
2.315180969
 20
34.7144282064
 10
2.264119905
 20
34.7277926186
 10
2.2140358925
 20
34.7415270379
 10
2.1649417497
 20
34.755628644
 10
2.1168246582
 20
34.7701002571
 10
2.0697331439
 20
34.7849276261
 10
2.0236571079
 20
34.8001150265
 10
1.978606649
 20
34.8156581828
 10
1.9346605894
 20
34.831530018
 10
1.8918308368
 20
34.847727206
 10
1.8501054835
 20
34.864253073
 10
1.8095276291
 20
34.8810905197
 10
1.7700895083
 20
34.8982439471
 10
1.7317988865
 20
34.9157089543
 10
1.6947221589
 20
34.9334552402
 10
1.6588698079
 20
34.9514790207
 10
1.6242313512
 20
34.9697840799
 10
1.590841737
 20
34.988351469
 10
1.558695494
 20
35.0071855075
 10
1.5277980934
 20
35.0262818759
 10
1.4982008973
 20
35.0456086671
 10
1.4699118544
 20
35.0651619463
 10
1.442923016
 20
35.0849456483
 10
1.4172618977
 20
35.1049396702
 10
1.392925045
 20
35.1251484977
 10
1.3699159124
 20
35.1455676452
 10
1.3482723794
 20
35.1661635533
 10
1.3280001683
 20
35.1869324048
 10
1.3090935567
 20
35.207878017
 10
1.2915732569
 20
35.2289782828
 10
1.2754378348
 20
35.2502377008
 10
1.2642997935
 20
35.2662036072
  0
LWPOLYLINE
  5
27A
100
AcDbEntity
  8
RACCORDO
100
AcDbPolyline
 62
7
  6
CONTINUOUS
 90
12
 70
0
 10
-1.1947627045
 20
31.4460408485
 10
-1.1705779898
 20
31.4567605684
 10
-1.1464570871
 20
31.4659292956
 10
-1.1223999965
 20
31.47354703
 10
-1.0983636859
 20
31.4796214401
 10
-1.0743911873
 20
31.4841448575
 10
-1.0506115969
 20
31.4870942764
 10
-1.0270376149
 20
31.488462065
 10
-1.0036565411
 20
31.4882558551
 10
-0.9805593704
 20
31.4864755373
 10
-0.9577317819
 20
31.4831110152
 10
-0.9440463112
 20
31.4803083817
  0
LWPOLYLINE
  5
27B
100
AcDbEntity
  8
RACCORDO
100
AcDbPolyline
 62
250
  6
CONTINUOUS
 90
31
 70
0
 10
-17.6261934854
 20
31.6819457709
 10
-17.6269675219
 20
31.6942666684
 10
-17.6282840436
 20
31.7066790271
 10
-17.6301394439
 20
31.7191488125
 10
-17.6325286411
 20
31.7316418442
 10
-17.6354450857
 20
31.7441238536
 10
-17.6388807733
 20
31.7565605787
 10
-17.6428262792
 20
31.7689179093
 10
-17.6472707854
 20
31.7811619693
 10
-17.6522020989
 20
31.7932591738
 10
-17.6576066944
 20
31.8051763506
 10
-17.6634697507
 20
31.8168808257
 10
-17.6697751866
 20
31.8283405021
 10
-17.6765057179
 20
31.8395239718
 10
-17.6836428797
 20
31.850400558
 10
-17.6911670696
 20
31.860940399
 10
-17.6990576163
 20
31.8711145597
 10
-17.7072929089
 20
31.8808951948
 10
-17.7158504366
 20
31.8902555735
 10
-17.7247068542
 20
31.8991701391
 10
-17.7338377716
 20
31.907614321
 10
-17.743217869
 20
31.9155647302
 10
-17.7528212207
 20
31.922999471
 10
-17.7626216599
 20
31.9298983619
 10
-17.7725925846
 20
31.9362427036
 10
-17.7827088825
 20
31.9420162995
 10
-17.7929406488
 20
31.9472018672
 10
-17.8032533299
 20
31.9517825011
 10
-17.8136163663
 20
31.9557460317
 10
-17.8240034834
 20
31.9590838051
 10
-17.8343862811
 20
31.9617878866
  0
LWPOLYLINE
  5
27C
100
AcDbEntity
  8
RACCORDO
100
AcDbPolyline
 62
7
  6
CONTINUOUS
 90
34
 70
0
 10
-16.2615247194
 20
32.3544430527
 10
-16.2621646371
 20
32.3656572372
 10
-16.2632551686
 20
32.3769484157
 10
-16.2647937578
 20
32.3882910552
 10
-16.2667767666
 20
32.3996595399
 10
-16.2691996998
 20
32.4110281201
 10
-16.2720572155
 20
32.4223709701
 10
-16.2753427925
 20
32.433662421
 10
-16.2790489116
 20
32.4448769331
 10
-16.2831672893
 20
32.4559890441
 10
-16.2876885663
 20
32.4669735984
 10
-16.2926024402
 20
32.4778057429
 10
-16.2978978542
 20
32.488460898
 10
-16.3035628011
 20
32.4989149332
 10
-16.3095844048
 20
32.5091441887
 10
-16.3159490606
 20
32.5191254684
 10
-16.3226423576
 20
32.5288361588
 10
-16.3296491084
 20
32.5382542752
 10
-16.3369534374
 20
32.5473584782
 10
-16.3445388236
 20
32.556128132
 10
-16.3523880777
 20
32.5645433747
 10
-16.3604833768
 20
32.5725851588
 10
-16.3688064264
 20
32.5802352465
 10
-16.3773383853
 20
32.5874763033
 10
-16.3860598472
 20
32.5942919617
 10
-16.3949511166
 20
32.6006667535
 10
-16.4039920845
 20
32.6065862244
 10
-16.4131621564
 20
32.6120370201
 10
-16.4224406375
 20
32.6170067568
 10
-16.4318065604
 20
32.6214841545
 10
-16.4412385625
 20
32.6254591441
 10
-16.450715283
 20
32.6289227209
 10
-16.4602154111
 20
32.6318669657
 10
-16.4697175151
 20
32.6342851684
  0
LWPOLYLINE
  5
27D
100
AcDbEntity
  8
RACCORDO
100
AcDbPolyline
 62
250
  6
CONTINUOUS
 90
31
 70
0
 10
-15.8127202298
 20
32.5722753653
 10
-15.813405051
 20
32.5846398984
 10
-15.8146374009
 20
32.5970934258
 10
-15.8164139039
 20
32.6096018001
 10
-15.8187296946
 20
32.6221307352
 10
-15.8215784248
 20
32.634645864
 10
-15.8249522761
 20
32.6471128335
 10
-15.8288419933
 20
32.6594974506
 10
-15.8332369113
 20
32.6717657643
 10
-15.8381249732
 20
32.6838841234
 10
-15.8434927721
 20
32.6958192976
 10
-15.8493255878
 20
32.7075385634
 10
-15.8556074219
 20
32.7190097835
 10
-15.8623210549
 20
32.7302015183
 10
-15.8694480683
 20
32.7410830681
 10
-15.8769688874
 20
32.7516245578
 10
-15.88486285
 20
32.7617970477
 10
-15.8931083357
 20
32.7715726974
 10
-15.9016828058
 20
32.7809247895
 10
-15.910562869
 20
32.7898277899
 10
-15.9197240704
 20
32.7982571598
 10
-15.9291410057
 20
32.8061895514
 10
-15.9387876471
 20
32.8136031191
 10
-15.9486377092
 20
32.8204777392
 10
-15.9586644549
 20
32.8267947786
 10
-15.9688426331
 20
32.8325381086
 10
-15.9791421579
 20
32.8376905354
 10
-15.9895282419
 20
32.8422352676
 10
-15.9999700972
 20
32.8461602477
 10
-16.0104412381
 20
32.8494569247
 10
-16.0209130255
 20
32.852117481
  0
LINE
  5
27E
100
AcDbEntity
  8
RACCORDO
100
AcDbLine
 62
250
  6
CONTINUOUS
 10
-16.9860976687
 20
31.0649813834
 11
-16.9536321195
 21
30.189827742
  0
LINE
  5
27F
100
AcDbEntity
  8
RACCORDO
100
AcDbLine
 62
7
  6
CONTINUOUS
 10
-16.1971207665
 20
30.6183457044
 11
-16.2615247194
 21
32.3544430527
  0
LINE
  5
280
100
AcDbEntity
  8
RACCORDO
100
AcDbLine
 62
250
  6
CONTINUOUS
 10
-15.8127202298
 20
32.5722753653
 11
-15.7987500059
 21
32.1956887188
  0
LINE
  5
281
100
AcDbEntity
  8
RACCORDO
100
AcDbLine
 62
7
  6
CONTINUOUS
 10
-15.763256916
 20
32.6263540841
 11
-15.7492866921
 21
32.2497674375
  0
LWPOLYLINE
  5
282
100
AcDbEntity
  8
RACCORDO
100
AcDbPolyline
 62
250
  6
CONTINUOUS
 90
14
 70
0
 10
-15.7632567214
 20
32.6263488266
 10
-15.7632615267
 20
32.6240433988
 10
-15.7637855442
 20
32.6195441771
 10
-15.7649881156
 20
32.6150382557
 10
-15.7668659709
 20
32.6105379007
 10
-15.7694140028
 20
32.6060553608
 10
-15.7726252793
 20
32.6016028377
 10
-15.7764910593
 20
32.5971924547
 10
-15.7810008255
 20
32.5928362135
 10
-15.7861423019
 20
32.5885459744
 10
-15.7919014773
 20
32.5843334278
 10
-15.798262665
 20
32.5802100434
 10
-15.8052085523
 20
32.5761870395
 10
-15.8127202298
 20
32.5722753653
  0
LWPOLYLINE
  5
283
100
AcDbEntity
  8
RACCORDO
100
AcDbPolyline
 62
250
  6
CONTINUOUS
 90
14
 70
0
 10
-15.7492866921
 20
32.2497674375
 10
-15.7492917143
 20
32.2474467534
 10
-15.7498170902
 20
32.2429483072
 10
-15.7510207696
 20
32.2384431983
 10
-15.7528994796
 20
32.2339436803
 10
-15.7554481144
 20
32.2294619894
 10
-15.7586597391
 20
32.2250103264
 10
-15.7625256023
 20
32.2206008192
 10
-15.7670351703
 20
32.2162454741
 10
-15.7721761757
 20
32.2119561317
 10
-15.7779346417
 20
32.207744451
 10
-15.7842949063
 20
32.2036218878
 10
-15.7912396595
 20
32.1995996624
 10
-15.7987500059
 20
32.1956887188
  0
LWPOLYLINE
  5
284
100
AcDbEntity
  8
DRAFT
100
AcDbPolyline
 62
7
  6
CONTINUOUS
 90
8
 70
0
 10
-20.9467716795
 20
15.4578030811
 10
-20.9299220318
 20
15.4722411308
 10
-20.9124707876
 20
15.4856280625
 10
-20.8944180122
 20
15.4979638463
 10
-20.8757203273
 20
15.5092706056
 10
-20.8564212298
 20
15.5195261625
 10
-20.8366510976
 20
15.5286640347
 10
-20.8265220243
 20
15.5328376482
  0
LWPOLYLINE
  5
285
100
AcDbEntity
  8
DRAFT
100
AcDbPolyline
 62
7
  6
CONTINUOUS
 90
8
 70
0
 10
-19.5104213445
 20
15.1320776849
 10
-19.4935716967
 20
15.1465157345
 10
-19.4761204526
 20
15.1599026662
 10
-19.4580676771
 20
15.1722384501
 10
-19.4393699923
 20
15.1835452094
 10
-19.4200708948
 20
15.1938007663
 10
-19.4003007626
 20
15.2029386385
 10
-19.3901716892
 20
15.207112252
  0
LINE
  5
286
100
AcDbEntity
  8
RACCORDO
100
AcDbLine
 62
7
  6
CONTINUOUS
 10
-3.0068047767
 20
29.5472296281
 11
-4.3508939708
 21
28.8698279327
  0
LINE
  5
287
100
AcDbEntity
  8
RACCORDO
100
AcDbLine
 62
250
  6
CONTINUOUS
 10
-2.9041933252
 20
29.5579912907
 11
-4.2479574823
 21
28.8807534092
  0
LINE
  5
288
100
AcDbEntity
  8
RACCORDO
100
AcDbLine
 62
250
  6
CONTINUOUS
 10
-1.3880389972
 20
29.214168508
 11
-2.7527077632
 21
28.5416712262
  0
LINE
  5
289
100
AcDbEntity
  8
RACCORDO
100
AcDbLine
 62
250
  6
CONTINUOUS
 10
-1.1798462015
 20
28.9343263922
 11
-2.5445149674
 21
28.2618291104
  0
LINE
  5
28A
100
AcDbEntity
  8
RACCORDO
100
AcDbLine
 62
7
  6
CONTINUOUS
 10
-3.0038549263
 20
29.5486725083
 11
-3.0068047673
 21
29.5472296329
  0
LINE
  5
28B
100
AcDbEntity
  8
RACCORDO
100
AcDbLine
 62
250
  6
CONTINUOUS
 10
-0.9392345076
 20
29.4320008206
 11
-1.3880389972
 21
29.214168508
  0
LINE
  5
28C
100
AcDbEntity
  8
RACCORDO
100
AcDbLine
 62
250
  6
CONTINUOUS
 10
-0.7310417118
 20
29.1521587048
 11
-1.1798462015
 21
28.9343263922
  0
LINE
  5
28D
100
AcDbEntity
  8
RACCORDO
100
AcDbLine
 62
7
  6
CONTINUOUS
 10
-2.5477483073
 20
29.7650767423
 11
-3.0038549316
 21
29.5486725056
  0
LINE
  5
28E
100
AcDbEntity
  8
RACCORDO
100
AcDbLine
 62
250
  6
CONTINUOUS
 10
-2.4484116297
 20
29.7742413618
 11
-2.9041933252
 21
29.5579912907
  0
LINE
  5
28F
100
AcDbEntity
  8
RACCORDO
100
AcDbLine
 62
7
  6
CONTINUOUS
 10
2.266318798
 20
30.6611612016
 11
-0.694787959
 21
29.277658713
  0
LINE
  5
290
100
AcDbEntity
  8
RACCORDO
100
AcDbLine
 62
7
  6
CONTINUOUS
 10
-13.5726449286
 20
30.9743131832
 11
-13.5723254332
 21
30.970038045
  0
LINE
  5
291
100
AcDbEntity
  8
RACCORDO
100
AcDbLine
 62
7
  6
CONTINUOUS
 10
-13.5727293046
 20
30.9765268143
 11
-13.5226422807
 21
29.6253240702
  0
LINE
  5
292
100
AcDbEntity
  8
RACCORDO
100
AcDbLine
 62
250
  6
CONTINUOUS
 10
-13.3669138089
 20
30.6581040574
 11
-13.3234760485
 21
29.4871793334
  0
LWPOLYLINE
  5
293
100
AcDbEntity
  8
DRAFT
100
AcDbPolyline
 62
7
  6
CONTINUOUS
 90
8
 70
0
 10
-18.0740710094
 20
14.8063522886
 10
-18.0572213617
 20
14.8207903383
 10
-18.0397701175
 20
14.83417727
 10
-18.0217173421
 20
14.8465130538
 10
-18.0030196572
 20
14.8578198132
 10
-17.9837205597
 20
14.8680753701
 10
-17.9639504276
 20
14.8772132423
 10
-17.9538213542
 20
14.8813868557
  0
LWPOLYLINE
  5
294
100
AcDbEntity
  8
DRAFT
100
AcDbPolyline
 62
7
  6
CONTINUOUS
 90
8
 70
0
 10
-16.6377206744
 20
14.4806268924
 10
-16.6208710266
 20
14.4950649421
 10
-16.6034197825
 20
14.5084518738
 10
-16.5853670071
 20
14.5207876576
 10
-16.5666693222
 20
14.5320944169
 10
-16.5473702247
 20
14.5423499738
 10
-16.5276000925
 20
14.551487846
 10
-16.5174710192
 20
14.5556614595
  0
LWPOLYLINE
  5
295
100
AcDbEntity
  8
DRAFT
100
AcDbPolyline
 62
7
  6
CONTINUOUS
 90
8
 70
0
 10
-15.2013703393
 20
14.1549014962
 10
-15.1845206916
 20
14.1693395458
 10
-15.1670694475
 20
14.1827264775
 10
-15.149016672
 20
14.1950622613
 10
-15.1303189871
 20
14.2063690207
 10
-15.1110198896
 20
14.2166245776
 10
-15.0912497575
 20
14.2257624498
 10
-15.0811206841
 20
14.2299360633
  0
LWPOLYLINE
  5
296
100
AcDbEntity
  8
RACCORDO
100
AcDbPolyline
 62
250
  6
CONTINUOUS
 90
43
 70
0
 10
-5.8287360977
 20
24.5956396568
 10
-5.8607668743
 20
24.5768004435
 10
-5.8926321256
 20
24.5562738833
 10
-5.9242930429
 20
24.5340856389
 10
-5.9557112241
 20
24.510263902
 10
-5.9868482729
 20
24.4848379712
 10
-6.0176658045
 20
24.4578379939
 10
-6.0481269327
 20
24.4292967719
 10
-6.0781938548
 20
24.3992502626
 10
-6.1078274533
 20
24.3677361184
 10
-6.1369913
 20
24.3347938635
 10
-6.1656502473
 20
24.3004640826
 10
-6.1937679789
 20
24.2647887412
 10
-6.2213102718
 20
24.2278120354
 10
-6.2482435714
 20
24.1895798964
 10
-6.274533599
 20
24.1501392575
 10
-6.3001483935
 20
24.1095388658
 10
-6.3250567038
 20
24.067829201
 10
-6.3492265607
 20
24.0250619536
 10
-6.3726284362
 20
23.9812902887
 10
-6.3952339733
 20
23.9365683494
 10
-6.4170143744
 20
23.890951167
 10
-6.4379430885
 20
23.8444952741
 10
-6.457994699
 20
23.7972582472
 10
-6.4771436536
 20
23.7492982203
 10
-6.4953666572
 20
23.7006744451
 10
-6.5126415258
 20
23.6514473189
 10
-6.5289460778
 20
23.6016779238
 10
-6.5442603941
 20
23.551428079
 10
-6.5585659818
 20
23.5007598646
 10
-6.5718446168
 20
23.4497356438
 10
-6.5840800866
 20
23.39841868
 10
-6.5952576101
 20
23.3468724346
 10
-6.6053629772
 20
23.295160093
 10
-6.6143839273
 20
23.2433450776
 10
-6.6223094267
 20
23.1914921207
 10
-6.6291291368
 20
23.1396665529
 10
-6.6348346708
 20
23.0879336345
 10
-6.639419398
 20
23.0363562547
 10
-6.6428775924
 20
22.9849960246
 10
-6.6452049062
 20
22.9339157828
 10
-6.6463985282
 20
22.8831794901
 10
-6.6464569639
 20
22.8328499477
  0
LWPOLYLINE
  5
297
100
AcDbEntity
  8
RACCORDO
100
AcDbPolyline
 62
250
  6
CONTINUOUS
 90
43
 70
0
 10
-5.4019335805
 20
24.041735677
 10
-5.4234820418
 20
24.0291903772
 10
-5.4448711012
 20
24.0155544341
 10
-5.4661007587
 20
24.0008278476
 10
-5.4871976618
 20
23.9849893206
 10
-5.5081351631
 20
23.9680601503
 10
-5.5288333194
 20
23.9501042282
 10
-5.549290621
 20
23.9311179938
 10
-5.5695085777
 20
23.9111050076
 10
-5.5894117756
 20
23.8901398424
 10
-5.6089988174
 20
23.8682191601
 10
-5.6282711004
 20
23.8453462988
 10
-5.6471574029
 20
23.8216058447
 10
-5.6656563321
 20
23.7969945645
 10
-5.6837692807
 20
23.7715156915
 10
-5.7014292051
 20
23.7452635125
 10
-5.7186344892
 20
23.7182350446
 10
-5.7353867492
 20
23.6904332707
 10
-5.75162379
 20
23.661961426
 10
-5.7673436377
 20
23.6328171168
 10
-5.7825482663
 20
23.6030027369
 10
-5.7971814027
 20
23.5726287029
 10
-5.8112409265
 20
23.5416929558
 10
-5.8247289582
 20
23.5101975546
 10
-5.8375955852
 20
23.4782590931
 10
-5.8498385365
 20
23.445875826
 10
-5.8614600833
 20
23.4130494985
 10
-5.8724171263
 20
23.3799019406
 10
-5.882707158
 20
23.3464320781
 10
-5.892332686
 20
23.3126409853
 10
-5.9012581342
 20
23.2786537144
 10
-5.909480912
 20
23.2444696059
 10
-5.91700361
 20
23.2100893194
 10
-5.923798424
 20
23.1756398856
 10
-5.9298626922
 20
23.1411206668
 10
-5.9351990764
 20
23.1065323008
 10
-5.9397877576
 20
23.0720037315
 10
-5.9436258944
 20
23.037533737
 10
-5.9467163281
 20
23.0031235392
 10
-5.9490477644
 20
22.968905748
 10
-5.9506164383
 20
22.9349245669
 10
-5.9514261147
 20
22.9011357923
 10
-5.9514767936
 20
22.8675394244
  0
LINE
  5
298
100
AcDbEntity
  8
RACCORDO
100
AcDbLine
 62
7
  6
CONTINUOUS
 10
-1.8719186811
 20
26.7687697521
 11
-1.1154320859
 21
27.197955095
  0
LINE
  5
299
100
AcDbEntity
  8
RACCORDO
100
AcDbLine
 62
250
  6
CONTINUOUS
 10
-5.8287360977
 20
24.5956396568
 11
-1.9733644456
 21
26.7332075959
  0
LINE
  5
29A
100
AcDbEntity
  8
RACCORDO
100
AcDbLine
 62
250
  6
CONTINUOUS
 10
-0.7116283526
 20
26.6422232524
 11
-5.4019335805
 21
24.041735677
  0
LWPOLYLINE
  5
29B
100
AcDbEntity
  8
RACCORDO
100
AcDbPolyline
 62
7
  6
CONTINUOUS
 90
13
 70
0
 10
-1.8719186811
 20
26.7687697521
 10
-1.8786546919
 20
26.765112655
 10
-1.8857531362
 20
26.761572133
 10
-1.8932007865
 20
26.758153944
 10
-1.9009844014
 20
26.7548677953
 10
-1.9090888385
 20
26.7517149631
 10
-1.9174968889
 20
26.7486882134
 10
-1.9261928692
 20
26.7457957389
 10
-1.9351601618
 20
26.7430389554
 10
-1.944379013
 20
26.7403999872
 10
-1.9538309186
 20
26.7378755121
 10
-1.9634988438
 20
26.7354768428
 10
-1.9733644456
 20
26.7332075959
  0
LINE
  5
29C
100
AcDbEntity
  8
RACCORDO
100
AcDbLine
 62
7
  6
CONTINUOUS
 10
3.188986341
 20
29.9724810969
 11
-1.1326689335
 21
27.6625980881
  0
LINE
  5
29D
100
AcDbEntity
  8
RACCORDO
100
AcDbLine
 62
7
  6
CONTINUOUS
 10
3.2089782281
 20
29.4335722161
 11
-0.5302809739
 21
27.4881439099
  0
LINE
  5
29E
100
AcDbEntity
  8
DRAFT
100
AcDbLine
 62
7
  6
CONTINUOUS
 10
-0.1727679589
 20
27.1980614962
 11
4.0292157546
 21
29.1648832455
  0
LINE
  5
29F
100
AcDbEntity
  8
RACCORDO
100
AcDbLine
 62
7
  6
CONTINUOUS
 10
18.6461980608
 20
34.4001647324
 11
4.915690849
 21
27.9733287294
  0
LINE
  5
2A0
100
AcDbEntity
  8
RACCORDO
100
AcDbLine
 62
250
  6
CONTINUOUS
 10
-0.513572283
 20
27.4843548308
 11
-1.1157938913
 21
27.2077080595
  0
LINE
  5
2A1
100
AcDbEntity
  8
RACCORDO
100
AcDbLine
 62
250
  6
CONTINUOUS
 10
-0.0970547797
 20
26.9245442325
 11
-0.7116283526
 21
26.6422232524
  0
LWPOLYLINE
  5
2A2
100
AcDbEntity
  8
RACCORDO
100
AcDbPolyline
 62
7
  6
CONTINUOUS
 90
20
 70
0
 10
18.6461980608
 20
34.4001647324
 10
18.659731965
 20
34.406311953
 10
18.6730780383
 20
34.4119930846
 10
18.6862291372
 20
34.4172078594
 10
18.6991766069
 20
34.4219565115
 10
18.7119150495
 20
34.4262391312
 10
18.7244423229
 20
34.4300555673
 10
18.7367514592
 20
34.4334066321
 10
18.7488358682
 20
34.4362932835
 10
18.760694097
 20
34.4387158402
 10
18.7723194326
 20
34.4406758311
 10
18.7837055617
 20
34.4421749386
 10
18.7948517607
 20
34.4432139813
 10
18.8057515946
 20
34.4437951873
 10
18.816399042
 20
34.4439209419
 10
18.8267941366
 20
34.4435925765
 10
18.8369307446
 20
34.4428129959
 10
18.8468031499
 20
34.4415852603
 10
18.8564121584
 20
34.4399112123
 10
18.8611370399
 20
34.4389031682
  0
LWPOLYLINE
  5
2A3
100
AcDbEntity
  8
RACCORDO
100
AcDbPolyline
 62
250
  6
CONTINUOUS
 90
34
 70
0
 10
-5.9514767936
 20
22.8675394244
 10
-5.9664157047
 20
22.8617080203
 10
-5.9821936344
 20
22.8560956327
 10
-5.9987756297
 20
22.8507146951
 10
-6.0161249564
 20
22.8455771277
 10
-6.0342031802
 20
22.8406943119
 10
-6.0529702522
 20
22.8360770647
 10
-6.0723845975
 20
22.8317356147
 10
-6.0924032072
 20
22.8276795796
 10
-6.112981734
 20
22.8239179448
 10
-6.1340745899
 20
22.8204590435
 10
-6.1556350476
 20
22.8173105381
 10
-6.1776153441
 20
22.8144794037
 10
-6.1999667861
 20
22.8119719121
 10
-6.2226398582
 20
22.8097936181
 10
-6.2455843324
 20
22.8079493474
 10
-6.2687493796
 20
22.8064431856
 10
-6.292083682
 20
22.8052784693
 10
-6.3155355468
 20
22.8044577787
 10
-6.3390530208
 20
22.8039829319
 10
-6.3625840054
 20
22.8038549809
 10
-6.3860763722
 20
22.804074209
 10
-6.4094780783
 20
22.8046401307
 10
-6.4327372816
 20
22.8055514922
 10
-6.4558024556
 20
22.8068062747
 10
-6.4786225039
 20
22.8084016982
 10
-6.5011468728
 20
22.8103342286
 10
-6.5233256639
 20
22.8125995846
 10
-6.5451097442
 20
22.8151927478
 10
-6.5664508552
 20
22.8181079735
 10
-6.5873017197
 20
22.8213388035
 10
-6.6076161465
 20
22.8248780806
 10
-6.6273491327
 20
22.8287179642
 10
-6.6464569638
 20
22.8328499477
  0
LWPOLYLINE
  5
2A4
100
AcDbEntity
  8
RACCORDO
100
AcDbPolyline
 62
250
  6
CONTINUOUS
 90
31
 70
0
 10
-0.8706689981
 20
-16.8589968148
 10
-0.8752878059
 20
-16.8502449266
 10
-0.8804367342
 20
-16.8413899815
 10
-0.8861021788
 20
-16.8324560482
 10
-0.8922696991
 20
-16.823466612
 10
-0.8989223663
 20
-16.8144470032
 10
-0.9060403678
 20
-16.8054243441
 10
-0.9136034777
 20
-16.796424184
 10
-0.9215917351
 20
-16.787470193
 10
-0.9299835387
 20
-16.7785866033
 10
-0.9387561477
 20
-16.7697975377
 10
-0.9478854932
 20
-16.7611271574
 10
-0.9573464265
 20
-16.7525993639
 10
-0.9671130161
 20
-16.7442375252
 10
-0.9771586703
 20
-16.7360644023
 10
-0.9874559758
 20
-16.7281023001
 10
-0.9979768256
 20
-16.7203729555
 10
-1.0086924684
 20
-16.7128974952
 10
-1.0195736103
 20
-16.7056963564
 10
-1.0305905216
 20
-16.698789214
 10
-1.0417131193
 20
-16.6921949282
 10
-1.0529110229
 20
-16.6859315108
 10
-1.0641536633
 20
-16.680016061
 10
-1.0754103155
 20
-16.6744647461
 10
-1.0866501821
 20
-16.6692927515
 10
-1.0978425302
 20
-16.6645142122
 10
-1.1089568237
 20
-16.6601421586
 10
-1.1199627544
 20
-16.6561885105
 10
-1.1308302773
 20
-16.6526640615
 10
-1.1415296938
 20
-16.6495784437
 10
-1.1520317805
 20
-16.6469400845
  0
LINE
  5
2A5
100
AcDbEntity
  8
RACCORDO
100
AcDbLine
 62
250
  6
CONTINUOUS
 10
-1.1506201345
 20
28.1464974625
 11
-0.7170714879
 21
28.7755720583
  0
LINE
  5
2A6
100
AcDbEntity
  8
RACCORDO
100
AcDbLine
 62
7
  6
CONTINUOUS
 10
-1.1469234384
 20
28.0468479216
 11
-0.7115878891
 21
28.6785152947
  0
LWPOLYLINE
  5
2A7
100
AcDbEntity
  8
RACCORDO
100
AcDbPolyline
 62
7
  6
CONTINUOUS
 90
34
 70
0
 10
-1.9044191508
 20
27.6448647229
 10
-1.9109647659
 20
27.6358697596
 10
-1.9178924984
 20
27.6269282751
 10
-1.925201089
 20
27.6180614913
 10
-1.9328948462
 20
27.6092944582
 10
-1.9409642283
 20
27.6006455328
 10
-1.9493860988
 20
27.5921264736
 10
-1.9581559914
 20
27.5837601296
 10
-1.9672680551
 20
27.5755687862
 10
-1.9766961728
 20
27.567563979
 10
-1.9864330959
 20
27.5597691768
 10
-1.9964703351
 20
27.5522072095
 10
-2.0067790076
 20
27.5448893013
 10
-2.0173490051
 20
27.5378391948
 10
-2.0281689828
 20
27.5310800285
 10
-2.0392072479
 20
27.5246228041
 10
-2.0504506672
 20
27.5184911874
 10
-2.0618848589
 20
27.5127082791
 10
-2.0734751815
 20
27.5072849079
 10
-2.0852052937
 20
27.5022442147
 10
-2.0970575874
 20
27.4976088219
 10
-2.1089942656
 20
27.493389338
 10
-2.1209955591
 20
27.4896078017
 10
-2.1330405065
 20
27.4862857476
 10
-2.1450880612
 20
27.4834333008
 10
-2.1571147072
 20
27.4810706632
 10
-2.1690962346
 20
27.4792174321
 10
-2.1809889295
 20
27.4778826479
 10
-2.1927540775
 20
27.4770847221
 10
-2.204375844
 20
27.4768380407
 10
-2.2158426501
 20
27.4771509348
 10
-2.2271291129
 20
27.4780421252
 10
-2.2381966886
 20
27.4795331362
 10
-2.2490111936
 20
27.4816407363
  0
LWPOLYLINE
  5
2A8
100
AcDbEntity
  8
DRAFT
100
AcDbPolyline
 62
7
  6
CONTINUOUS
 90
8
 70
0
 10
-13.7650200043
 20
13.8291760999
 10
-13.7481703566
 20
13.8436141496
 10
-13.7307191124
 20
13.8570010813
 10
-13.712666337
 20
13.8693368651
 10
-13.6939686521
 20
13.8806436245
 10
-13.6746695546
 20
13.8908991814
 10
-13.6548994224
 20
13.9000370536
 10
-13.6447703491
 20
13.904210667
  0
LWPOLYLINE
  5
2A9
100
AcDbEntity
  8
DRAFT
100
AcDbPolyline
 62
7
  6
CONTINUOUS
 90
8
 70
0
 10
-12.3286696692
 20
13.5034507037
 10
-12.3118200215
 20
13.5178887533
 10
-12.2943687774
 20
13.5312756851
 10
-12.2763160019
 20
13.5436114689
 10
-12.2576183171
 20
13.5549182282
 10
-12.2383192195
 20
13.5651737851
 10
-12.2185490874
 20
13.5743116573
 10
-12.208420014
 20
13.5784852708
  0
LINE
  5
2AA
100
AcDbEntity
  8
RACCORDO
100
AcDbLine
 62
250
  6
CONTINUOUS
 10
18.9478588031
 20
33.9946877798
 11
-0.0116650238
 21
24.6227456308
  0
LINE
  5
2AB
100
AcDbEntity
  8
RACCORDO
100
AcDbLine
 62
250
  6
CONTINUOUS
 10
19.4644543555
 20
32.5617641766
 11
0.0498373816
 21
22.9648634957
  0
LWPOLYLINE
  5
2AC
100
AcDbEntity
  8
RACCORDO
100
AcDbPolyline
 62
250
  6
CONTINUOUS
 90
26
 70
0
 10
18.9478588031
 20
33.9946877798
 10
18.9646632621
 20
34.0026581602
 10
18.9809987004
 20
34.0101745963
 10
18.9968516022
 20
34.0172308689
 10
19.0122088506
 20
34.0238211398
 10
19.0270577391
 20
34.0299399561
 10
19.0413859816
 20
34.0355822551
 10
19.0551817228
 20
34.0407433683
 10
19.0684335482
 20
34.0454190253
 10
19.0811304931
 20
34.0496053576
 10
19.093262052
 20
34.0532989014
 10
19.1048181873
 20
34.0564966006
 10
19.1157893373
 20
34.0591958093
 10
19.1261664245
 20
34.0613942944
 10
19.1359408628
 20
34.0630902367
 10
19.1451045649
 20
34.064282233
 10
19.1536499487
 20
34.064969297
 10
19.1615699436
 20
34.0651508604
 10
19.1688579967
 20
34.0648267728
 10
19.1755080778
 20
34.0639973023
 10
19.1815146846
 20
34.0626631354
 10
19.1868728473
 20
34.0608253759
 10
19.1915781323
 20
34.0584855444
 10
19.1956266467
 20
34.0556455768
 10
19.1990150405
 20
34.052307823
 10
19.2001228161
 20
34.0509177606
  0
LINE
  5
2AD
100
AcDbEntity
  8
DRAFT
100
AcDbLine
 62
7
  6
CONTINUOUS
 10
-20.6958384195
 20
15.5603448806
 11
-20.9467716795
 21
15.4578030811
  0
LINE
  5
2AE
100
AcDbEntity
  8
DRAFT
100
AcDbLine
 62
7
  6
CONTINUOUS
 10
-19.2594887353
 20
15.2346194517
 11
-19.5104213445
 21
15.1320776849
  0
LWPOLYLINE
  5
2AF
100
AcDbEntity
  8
DRAFT
100
AcDbPolyline
 62
7
  6
CONTINUOUS
 90
31
 70
0
 10
-20.8265220243
 20
15.5328376482
 10
-20.8164314571
 20
15.5366695421
 10
-20.7957408914
 20
15.5435573145
 10
-20.7746453651
 20
15.5493048339
 10
-20.7531143519
 20
15.55391314
 10
-20.7311784639
 20
15.5573811535
 10
-20.7089953712
 20
15.5596831795
 10
-20.6865896186
 20
15.5608100296
 10
-20.6639367231
 20
15.5607708636
 10
-20.6411208076
 20
15.5595675106
 10
-20.6181250706
 20
15.5571947594
 10
-20.5949663453
 20
15.5536578066
 10
-20.5717791989
 20
15.548974096
 10
-20.5485634024
 20
15.5431348611
 10
-20.5253191849
 20
15.5361488683
 10
-20.5021817941
 20
15.5280598639
 10
-20.4791679929
 20
15.5188702723
 10
-20.456260987
 20
15.5085776836
 10
-20.4335456802
 20
15.4972185955
 10
-20.4109967854
 20
15.4847725604
 10
-20.3886395279
 20
15.4712600542
 10
-20.3666345753
 20
15.4567789624
 10
-20.3450128553
 20
15.4413443161
 10
-20.3237433543
 20
15.4249411237
 10
-20.3028938259
 20
15.4076222374
 10
-20.2824417825
 20
15.3893630794
 10
-20.2624096021
 20
15.3701882778
 10
-20.2429323373
 20
15.3502244939
 10
-20.2240549681
 20
15.3295139652
 10
-20.2057323958
 20
15.3080145088
 10
-20.1879645552
 20
15.2857261545
  0
LWPOLYLINE
  5
2B0
100
AcDbEntity
  8
DRAFT
100
AcDbPolyline
 62
7
  6
CONTINUOUS
 90
31
 70
0
 10
-19.3901716892
 20
15.207112252
 10
-19.3800811221
 20
15.2109441459
 10
-19.3593905564
 20
15.2178319183
 10
-19.3382950301
 20
15.2235794377
 10
-19.3167640168
 20
15.2281877437
 10
-19.2948281289
 20
15.2316557573
 10
-19.2726450362
 20
15.2339577832
 10
-19.2502392835
 20
15.2350846334
 10
-19.227586388
 20
15.2350454674
 10
-19.2047704726
 20
15.2338421143
 10
-19.1817747356
 20
15.2314693631
 10
-19.1586160102
 20
15.2279324104
 10
-19.1354288639
 20
15.2232486998
 10
-19.1122130673
 20
15.2174094649
 10
-19.0889688498
 20
15.2104234721
 10
-19.065831459
 20
15.2023344676
 10
-19.0428176579
 20
15.1931448761
 10
-19.0199106519
 20
15.1828522874
 10
-18.9971953452
 20
15.1714931993
 10
-18.9746464504
 20
15.1590471641
 10
-18.9522891928
 20
15.145534658
 10
-18.9302842403
 20
15.1310535662
 10
-18.9086625202
 20
15.1156189199
 10
-18.8873930193
 20
15.0992157274
 10
-18.8665434908
 20
15.0818968412
 10
-18.8460914474
 20
15.0636376831
 10
-18.8260592671
 20
15.0444628816
 10
-18.8065820023
 20
15.0244990976
 10
-18.7877046331
 20
15.003788569
 10
-18.7693820607
 20
14.9822891125
 10
-18.7516142202
 20
14.9600007582
  0
LWPOLYLINE
  5
2B1
100
AcDbEntity
  8
RACCORDO
100
AcDbPolyline
 62
7
  6
CONTINUOUS
 90
30
 70
0
 10
-13.5723254332
 20
30.970038045
 10
-13.5713880233
 20
30.9627987482
 10
-13.5698894236
 20
30.954899392
 10
-13.5677714722
 20
30.9464389556
 10
-13.565055071
 20
30.9374936687
 10
-13.5618360041
 20
30.9281020018
 10
-13.5581128504
 20
30.9183256663
 10
-13.5538690408
 20
30.9082291906
 10
-13.5491759981
 20
30.8978299416
 10
-13.5440347528
 20
30.8871732058
 10
-13.5384364554
 20
30.8763086236
 10
-13.5324344431
 20
30.8652438476
 10
-13.5260302083
 20
30.8540134031
 10
-13.5192196727
 20
30.8426563798
 10
-13.5120442852
 20
30.8311772187
 10
-13.5045055294
 20
30.8196035608
 10
-13.4966021358
 20
30.8079669717
 10
-13.4883681987
 20
30.7962717235
 10
-13.4798050637
 20
30.7845408227
 10
-13.4709132245
 20
30.7728006348
 10
-13.4617227759
 20
30.7610569481
 10
-13.4522349799
 20
30.7493295602
 10
-13.4424515608
 20
30.7376412301
 10
-13.4324011617
 20
30.7260002497
 10
-13.4220848295
 20
30.7144237793
 10
-13.4115055636
 20
30.7029323352
 10
-13.4006934568
 20
30.6915382285
 10
-13.3896599557
 20
30.6802569374
 10
-13.3783989077
 20
30.6691069042
 10
-13.3669138089
 20
30.6581040574
  0
LWPOLYLINE
  5
2B2
100
AcDbEntity
  8
RACCORDO
100
AcDbPolyline
 62
250
  6
CONTINUOUS
 90
43
 70
0
 10
-4.521231483
 20
-15.6866948783
 10
-4.5187321457
 20
-15.7190917345
 10
-4.51548605
 20
-15.7509673354
 10
-4.5114931957
 20
-15.7823216811
 10
-4.5067467613
 20
-15.8131934474
 10
-4.5012535684
 20
-15.8435439584
 10
-4.495034082
 20
-15.8732571868
 10
-4.4880856083
 20
-15.9023298141
 10
-4.4804108411
 20
-15.9307651588
 10
-4.4720383267
 20
-15.9584571497
 10
-4.4629655441
 20
-15.9854027031
 10
-4.4531950143
 20
-16.0116049027
 10
-4.4427628472
 20
-16.0369669285
 10
-4.43166659
 20
-16.0614857286
 10
-4.4199086954
 20
-16.0851643549
 10
-4.407532631
 20
-16.1079151431
 10
-4.3945360458
 20
-16.1297347362
 10
-4.3809212908
 20
-16.1506264912
 10
-4.3667388865
 20
-16.1705128152
 10
-4.351986768
 20
-16.1893899025
 10
-4.3366670002
 20
-16.2072615587
 10
-4.3208362981
 20
-16.2240616075
 10
-4.3044927741
 20
-16.2397860807
 10
-4.2876383159
 20
-16.2544389465
 10
-4.2703353013
 20
-16.2679659335
 10
-4.2525820055
 20
-16.280362898
 10
-4.2343801533
 20
-16.2916339837
 10
-4.215797298
 20
-16.3017373502
 10
-4.1968320867
 20
-16.3106686225
 10
-4.1774858722
 20
-16.3184321756
 10
-4.1578302664
 20
-16.3249992942
 10
-4.1378641651
 20
-16.3303655635
 10
-4.1175886725
 20
-16.3345353984
 10
-4.0970787127
 20
-16.337493328
 10
-4.0763331771
 20
-16.3392348254
 10
-4.0553531744
 20
-16.3397644175
 10
-4.0342169555
 20
-16.3390802145
 10
-4.012922985
 20
-16.3371772536
 10
-3.9914727983
 20
-16.3340604976
 10
-3.9699492516
 20
-16.3297429452
 10
-3.9483799636
 20
-16.3242289295
 10
-3.9267373157
 20
-16.3175141175
 10
-3.9050213077
 20
-16.3095985092
  0
LWPOLYLINE
  5
2B3
100
AcDbEntity
  8
RACCORDO
100
AcDbPolyline
 62
250
  6
CONTINUOUS
 90
33
 70
0
 10
-5.2147799764
 20
-15.7599771822
 10
-5.2110544929
 20
-15.8084976056
 10
-5.206203751
 20
-15.8563434951
 10
-5.2002337731
 20
-15.9034557259
 10
-5.1931519339
 20
-15.9497754635
 10
-5.1849670131
 20
-15.9952461479
 10
-5.1756890296
 20
-16.0398134382
 10
-5.1653289507
 20
-16.08342317
 10
-5.1538996277
 20
-16.1260203525
 10
-5.1414158205
 20
-16.1675511447
 10
-5.1278928817
 20
-16.207963808
 10
-5.1133472603
 20
-16.2472088732
 10
-5.0977973075
 20
-16.2852380301
 10
-5.0812619032
 20
-16.3220043537
 10
-5.0637612927
 20
-16.3574623412
 10
-5.0453176362
 20
-16.3915681151
 10
-5.0259532858
 20
-16.4242796559
 10
-5.0056919604
 20
-16.4555564043
 10
-4.9845595576
 20
-16.4853592765
 10
-4.9625818682
 20
-16.5136514122
 10
-4.9397856781
 20
-16.5403979818
 10
-4.916199932
 20
-16.5655657729
 10
-4.8918533373
 20
-16.5891237428
 10
-4.8667756178
 20
-16.6110428227
 10
-4.8409986209
 20
-16.6312957276
 10
-4.8145536349
 20
-16.6498575477
 10
-4.7874730127
 20
-16.6667053227
 10
-4.7597914265
 20
-16.6818178571
 10
-4.7315426864
 20
-16.6951765444
 10
-4.7027611719
 20
-16.706765032
 10
-4.6734834514
 20
-16.7165687834
 10
-4.6437452363
 20
-16.7245757801
 10
-4.638960218
 20
-16.7256864302
  0
LINE
  5
2B4
100
AcDbEntity
  8
DRAFT
100
AcDbLine
 62
250
  6
CONTINUOUS
 10
-8.7028083233
 20
30.6469068994
 11
-8.7120877915
 21
30.8970477568
  0
LINE
  5
2B5
100
AcDbEntity
  8
DRAFT
100
AcDbLine
 62
7
  6
CONTINUOUS
 10
-8.110400082
 20
31.1913355237
 11
-8.1326120577
 21
31.7900899546
  0
LINE
  5
2B6
100
AcDbEntity
  8
ASSI
100
AcDbLine
 62
250
  6
CONTINUOUS
 10
-7.8977915707
 20
33.2550992888
 11
-7.8484539947
 21
31.9251369021
  0
LINE
  5
2B7
100
AcDbEntity
  8
ASSI
100
AcDbLine
 62
7
  6
CONTINUOUS
 10
-7.8073515095
 20
33.2332386116
 11
-7.7622068318
 21
32.0163015787
  0
LINE
  5
2B8
100
AcDbEntity
  8
DRAFT
100
AcDbLine
 62
7
  6
CONTINUOUS
 10
-7.7114138778
 20
31.100856247
 11
-7.7336258536
 21
31.6996106779
  0
LINE
  5
2B9
100
AcDbEntity
  8
DRAFT
100
AcDbLine
 62
250
  6
CONTINUOUS
 10
-7.294377924
 20
30.5238210836
 11
-7.3124276736
 21
31.0103769702
  0
LINE
  5
2BA
100
AcDbEntity
  8
RACCORDO
100
AcDbLine
 62
250
  6
CONTINUOUS
 10
-7.1039472354
 20
28.0767584649
 11
-7.1473849959
 21
29.2476831889
  0
LWPOLYLINE
  5
2BB
100
AcDbEntity
  8
RACCORDO
100
AcDbPolyline
 62
250
  6
CONTINUOUS
 90
22
 70
0
 10
-6.6464569639
 20
22.8328499477
 10
-6.6255469752
 20
20.9736524774
 10
-6.5999058901
 20
19.1164197706
 10
-6.5695341172
 20
17.2611803369
 10
-6.5344321457
 20
15.4079626614
 10
-6.4946005162
 20
13.5567951851
 10
-6.4500398204
 20
11.7077063044
 10
-6.4007507455
 20
9.8607243991
 10
-6.3467340596
 20
8.0158778231
 10
-6.287990582
 20
6.1731948851
 10
-6.2245212128
 20
4.3327038712
 10
-6.1563269327
 20
2.4944330288
 10
-6.0834087879
 20
0.6584105578
 10
-6.0057678908
 20
-1.1753353657
 10
-5.9234054348
 20
-3.006776592
 10
-5.8363226936
 20
-4.8358850138
 10
-5.7445209924
 20
-6.6626325565
 10
-5.6480017366
 20
-8.4869911846
 10
-5.5467664267
 20
-10.308932904
 10
-5.4408166145
 20
-12.1284297541
 10
-5.3301539032
 20
-13.9454538089
 10
-5.2147799764
 20
-15.7599771822
  0
LWPOLYLINE
  5
2BC
100
AcDbEntity
  8
RACCORDO
100
AcDbPolyline
 62
250
  6
CONTINUOUS
 90
31
 70
0
 10
-2.5308485466
 20
27.8934318929
 10
-2.5346851479
 20
27.880965739
 10
-2.5390536471
 20
27.8686583343
 10
-2.5439421149
 20
27.8565432877
 10
-2.5493372018
 20
27.8446536829
 10
-2.555224175
 20
27.8330219879
 10
-2.5615869583
 20
27.8216799664
 10
-2.5684081764
 20
27.8106585911
 10
-2.575669202
 20
27.7999879592
 10
-2.5833502066
 20
27.7896972097
 10
-2.5914302152
 20
27.7798144448
 10
-2.5998871628
 20
27.770366652
 10
-2.6086979553
 20
27.7613796313
 10
-2.6178385323
 20
27.7528779245
 10
-2.6272839328
 20
27.7448847478
 10
-2.6370083634
 20
27.737421929
 10
-2.6469852686
 20
27.7305098475
 10
-2.6571874037
 20
27.7241673788
 10
-2.6675869088
 20
27.7184118427
 10
-2.678155385
 20
27.7132589565
 10
-2.6888639719
 20
27.7087227915
 10
-2.6996834267
 20
27.7048157352
 10
-2.7105842037
 20
27.7015484568
 10
-2.7215365352
 20
27.6989298787
 10
-2.7325105127
 20
27.6969671516
 10
-2.7434761684
 20
27.6956656352
 10
-2.7544035576
 20
27.6950288839
 10
-2.7652628397
 20
27.6950586364
 10
-2.7760243604
 20
27.6957548114
 10
-2.7866587322
 20
27.6971155079
 10
-2.7971369149
 20
27.69913701
  0
LWPOLYLINE
  5
2BD
100
AcDbEntity
  8
DRAFT
100
AcDbPolyline
 62
7
  6
CONTINUOUS
 90
8
 70
0
 10
-10.8923193342
 20
13.1777253075
 10
-10.8754696865
 20
13.1921633571
 10
-10.8580184423
 20
13.2055502888
 10
-10.8399656669
 20
13.2178860726
 10
-10.821267982
 20
13.229192832
 10
-10.8019688845
 20
13.2394483889
 10
-10.7821987523
 20
13.2485862611
 10
-10.772069679
 20
13.2527598745
  0
LWPOLYLINE
  5
2BE
100
AcDbEntity
  8
DRAFT
100
AcDbPolyline
 62
7
  6
CONTINUOUS
 90
8
 70
0
 10
-9.4559689992
 20
12.8519999112
 10
-9.4391193514
 20
12.8664379609
 10
-9.4216681073
 20
12.8798248926
 10
-9.4036153318
 20
12.8921606764
 10
-9.384917647
 20
12.9034674357
 10
-9.3656185495
 20
12.9137229927
 10
-9.3458484173
 20
12.9228608649
 10
-9.3357193439
 20
12.9270344783
  0
LWPOLYLINE
  5
2BF
100
AcDbEntity
  8
RACCORDO
100
AcDbPolyline
 62
250
  6
CONTINUOUS
 90
24
 70
0
 10
19.4644543555
 20
32.5617641766
 10
19.4810222814
 20
32.5703906484
 10
19.496907666
 20
32.5791554359
 10
19.5120973657
 20
32.5880512872
 10
19.5265788123
 20
32.5970708418
 10
19.540340024
 20
32.6062066369
 10
19.5533696147
 20
32.6154511135
 10
19.5656568035
 20
32.6247966226
 10
19.5771914242
 20
32.6342354319
 10
19.5879639328
 20
32.6437597315
 10
19.5979654163
 20
32.6533616411
 10
19.6071875992
 20
32.663033216
 10
19.6156228512
 20
32.6727664539
 10
19.6232641928
 20
32.6825533015
 10
19.6301053017
 20
32.692385661
 10
19.6361405175
 20
32.7022553973
 10
19.6413648466
 20
32.712154344
 10
19.6457739664
 20
32.7220743107
 10
19.6493642287
 20
32.7320070896
 10
19.652132663
 20
32.7419444623
 10
19.6540769786
 20
32.7518782066
 10
19.6551955669
 20
32.7618001032
 10
19.6554875023
 20
32.7717019427
 10
19.655415208
 20
32.7746304086
  0
LINE
  5
2C0
100
AcDbEntity
  8
DRAFT
100
AcDbLine
 62
7
  6
CONTINUOUS
 10
-17.8231384003
 20
14.9088940554
 11
-18.0740710094
 21
14.8063522886
  0
LINE
  5
2C1
100
AcDbEntity
  8
DRAFT
100
AcDbLine
 62
7
  6
CONTINUOUS
 10
-16.3867880652
 20
14.5831686592
 11
-16.6377206744
 21
14.4806268924
  0
LINE
  5
2C2
100
AcDbEntity
  8
DRAFT
100
AcDbLine
 62
7
  6
CONTINUOUS
 10
-14.9504377302
 20
14.257443263
 11
-15.2013703393
 21
14.1549014962
  0
LWPOLYLINE
  5
2C3
100
AcDbEntity
  8
DRAFT
100
AcDbPolyline
 62
7
  6
CONTINUOUS
 90
31
 70
0
 10
-17.9538213542
 20
14.8813868557
 10
-17.943730787
 20
14.8852187497
 10
-17.9230402213
 20
14.8921065221
 10
-17.901944695
 20
14.8978540414
 10
-17.8804136818
 20
14.9024623475
 10
-17.8584777939
 20
14.9059303611
 10
-17.8362947011
 20
14.908232387
 10
-17.8138889485
 20
14.9093592371
 10
-17.791236053
 20
14.9093200711
 10
-17.7684201375
 20
14.9081167181
 10
-17.7454244006
 20
14.9057439669
 10
-17.7222656752
 20
14.9022070142
 10
-17.6990785289
 20
14.8975233035
 10
-17.6758627323
 20
14.8916840686
 10
-17.6526185148
 20
14.8846980758
 10
-17.629481124
 20
14.8766090714
 10
-17.6064673229
 20
14.8674194799
 10
-17.5835603169
 20
14.8571268912
 10
-17.5608450101
 20
14.845767803
 10
-17.5382961153
 20
14.8333217679
 10
-17.5159388578
 20
14.8198092617
 10
-17.4939339052
 20
14.8053281699
 10
-17.4723121852
 20
14.7898935237
 10
-17.4510426843
 20
14.7734903312
 10
-17.4301931558
 20
14.7561714449
 10
-17.4097411124
 20
14.7379122869
 10
-17.3897089321
 20
14.7187374853
 10
-17.3702316672
 20
14.6987737014
 10
-17.351354298
 20
14.6780631728
 10
-17.3330317257
 20
14.6565637163
 10
-17.3152638851
 20
14.634275362
  0
LWPOLYLINE
  5
2C4
100
AcDbEntity
  8
DRAFT
100
AcDbPolyline
 62
7
  6
CONTINUOUS
 90
31
 70
0
 10
-16.5174710192
 20
14.5556614595
 10
-16.507380452
 20
14.5594933534
 10
-16.4866898863
 20
14.5663811258
 10
-16.46559436
 20
14.5721286452
 10
-16.4440633467
 20
14.5767369513
 10
-16.4221274588
 20
14.5802049648
 10
-16.3999443661
 20
14.5825069908
 10
-16.3775386134
 20
14.5836338409
 10
-16.3548857179
 20
14.5835946749
 10
-16.3320698025
 20
14.5823913218
 10
-16.3090740655
 20
14.5800185707
 10
-16.2859153401
 20
14.5764816179
 10
-16.2627281938
 20
14.5717979073
 10
-16.2395123973
 20
14.5659586724
 10
-16.2162681798
 20
14.5589726796
 10
-16.1931307889
 20
14.5508836752
 10
-16.1701169878
 20
14.5416940836
 10
-16.1472099819
 20
14.5314014949
 10
-16.1244946751
 20
14.5200424068
 10
-16.1019457803
 20
14.5075963717
 10
-16.0795885227
 20
14.4940838655
 10
-16.0575835702
 20
14.4796027737
 10
-16.0359618502
 20
14.4641681274
 10
-16.0146923492
 20
14.447764935
 10
-15.9938428207
 20
14.4304460487
 10
-15.9733907774
 20
14.4121868906
 10
-15.953358597
 20
14.3930120891
 10
-15.9338813322
 20
14.3730483052
 10
-15.915003963
 20
14.3523377765
 10
-15.8966813907
 20
14.3308383201
 10
-15.8789135501
 20
14.3085499658
  0
LWPOLYLINE
  5
2C5
100
AcDbEntity
  8
DRAFT
100
AcDbPolyline
 62
7
  6
CONTINUOUS
 90
31
 70
0
 10
-15.0811206841
 20
14.2299360633
 10
-15.071030117
 20
14.2337679572
 10
-15.0503395512
 20
14.2406557296
 10
-15.0292440249
 20
14.246403249
 10
-15.0077130117
 20
14.251011555
 10
-14.9857771238
 20
14.2544795686
 10
-14.963594031
 20
14.2567815945
 10
-14.9411882784
 20
14.2579084446
 10
-14.9185353829
 20
14.2578692787
 10
-14.8957194674
 20
14.2566659256
 10
-14.8727237305
 20
14.2542931744
 10
-14.8495650051
 20
14.2507562217
 10
-14.8263778588
 20
14.246072511
 10
-14.8031620622
 20
14.2402332762
 10
-14.7799178447
 20
14.2332472834
 10
-14.7567804539
 20
14.2251582789
 10
-14.7337666528
 20
14.2159686874
 10
-14.7108596468
 20
14.2056760987
 10
-14.68814434
 20
14.1943170106
 10
-14.6655954452
 20
14.1818709754
 10
-14.6432381877
 20
14.1683584693
 10
-14.6212332351
 20
14.1538773775
 10
-14.5996115151
 20
14.1384427312
 10
-14.5783420142
 20
14.1220395387
 10
-14.5574924857
 20
14.1047206525
 10
-14.5370404423
 20
14.0864614944
 10
-14.517008262
 20
14.0672866928
 10
-14.4975309972
 20
14.0473229089
 10
-14.4786536279
 20
14.0266123803
 10
-14.4603310556
 20
14.0051129238
 10
-14.442563215
 20
13.9828245695
  0
LWPOLYLINE
  5
2C6
100
AcDbEntity
  8
RACCORDO
100
AcDbPolyline
 62
250
  6
CONTINUOUS
 90
34
 70
0
 10
-5.4019335805
 20
24.041735677
 10
-5.4039714175
 20
24.0637613332
 10
-5.4068954069
 20
24.0859476584
 10
-5.4106989329
 20
24.1082444517
 10
-5.4153733892
 20
24.1306012626
 10
-5.4209081989
 20
24.1529675045
 10
-5.4272908387
 20
24.1752925696
 10
-5.4345068666
 20
24.1975259433
 10
-5.4425399551
 20
24.2196173184
 10
-5.4513719278
 20
24.241516709
 10
-5.4609828007
 20
24.2631745636
 10
-5.4713508275
 20
24.2845418772
 10
-5.4824525486
 20
24.3055703023
 10
-5.4942628444
 20
24.326212258
 10
-5.5067549917
 20
24.3464210381
 10
-5.5199007248
 20
24.3661509162
 10
-5.5336702991
 20
24.38535725
 10
-5.5480325583
 20
24.4039965812
 10
-5.5629550051
 20
24.422026735
 10
-5.5784038746
 20
24.4394069146
 10
-5.594344211
 20
24.4560977942
 10
-5.6107399461
 20
24.4720616073
 10
-5.6275539816
 20
24.4872622328
 10
-5.6447482724
 20
24.5016652764
 10
-5.6622839134
 20
24.5152381485
 10
-5.6801212267
 20
24.5279501378
 10
-5.6982198521
 20
24.539772481
 10
-5.716538838
 20
24.5506784278
 10
-5.7350367342
 20
24.5606433014
 10
-5.7536716858
 20
24.5696445543
 10
-5.7724015275
 20
24.5776618196
 10
-5.7911838796
 20
24.5846769566
 10
-5.8099762434
 20
24.5906740922
 10
-5.8287360977
 20
24.5956396568
  0
LWPOLYLINE
  5
2C7
100
AcDbEntity
  8
ASSI
100
AcDbPolyline
 62
7
  6
CONTINUOUS
 90
9
 70
0
 10
-7.8073513784
 20
33.2332350763
 10
-7.8076698566
 20
33.2370699744
 10
-7.8088613349
 20
33.2425620123
 10
-7.8108573193
 20
33.2473219523
 10
-7.8136294746
 20
33.2514105901
 10
-7.8171431391
 20
33.2548440001
 10
-7.8213648913
 20
33.2576294501
 10
-7.8262896633
 20
33.2598136727
 10
-7.8315701851
 20
33.2613363531
  0
LWPOLYLINE
  5
2C8
100
AcDbEntity
  8
RACCORDO
100
AcDbPolyline
 62
250
  6
CONTINUOUS
 90
23
 70
0
 10
-2.7012888355
 20
-16.9162168965
 10
-2.7006324169
 20
-16.9283217235
 10
-2.6995696564
 20
-16.9402017704
 10
-2.6981026888
 20
-16.9518243683
 10
-2.696234332
 20
-16.9631597393
 10
-2.693969193
 20
-16.9741740731
 10
-2.6913144655
 20
-16.9848303187
 10
-2.6882780666
 20
-16.9950973152
 10
-2.6848677339
 20
-17.0049494395
 10
-2.6810926448
 20
-17.0143601229
 10
-2.6769629666
 20
-17.0233038787
 10
-2.6724899776
 20
-17.031756152
 10
-2.667685968
 20
-17.03969368
 10
-2.6625640813
 20
-17.0470947743
 10
-2.6571382029
 20
-17.0539393975
 10
-2.6514230526
 20
-17.0602089768
 10
-2.6454341553
 20
-17.06588646
 10
-2.6391878297
 20
-17.0709563568
 10
-2.6327010972
 20
-17.0754048419
 10
-2.6259916196
 20
-17.0792197994
 10
-2.6190776505
 20
-17.0823908469
 10
-2.6119780103
 20
-17.0849093483
 10
-2.606156311
 20
-17.0864544745
  0
LWPOLYLINE
  5
2C9
100
AcDbEntity
  8
RACCORDO
100
AcDbPolyline
 62
7
  6
CONTINUOUS
 90
30
 70
0
 10
-5.3513485519
 20
31.885118703
 10
-5.3532335405
 20
31.922545152
 10
-5.3560701861
 20
31.959330148
 10
-5.3598584885
 20
31.9954736911
 10
-5.364608967
 20
32.0310383094
 10
-5.3703111025
 20
32.0659614748
 10
-5.3769333373
 20
32.1000556023
 10
-5.3844759399
 20
32.1333003241
 10
-5.3929386419
 20
32.1657160081
 10
-5.4022890811
 20
32.197176173
 10
-5.4125387042
 20
32.2276971202
 10
-5.4236760646
 20
32.2572625483
 10
-5.435634459
 20
32.2856970729
 10
-5.4484072124
 20
32.3129724761
 10
-5.462001
 20
32.3391169758
 10
-5.476369144
 20
32.36403984
 10
-5.4915293682
 20
32.3877576718
 10
-5.5074639487
 20
32.4102538683
 10
-5.5240730371
 20
32.431387889
 10
-5.54134306
 20
32.4511330787
 10
-5.5592875908
 20
32.4695160927
 10
-5.5778474999
 20
32.4864763568
 10
-5.5970443711
 20
32.5020232314
 10
-5.6168566206
 20
32.5161473561
 10
-5.6371603685
 20
32.5287600755
 10
-5.6579388673
 20
32.5398426791
 10
-5.6792088643
 20
32.5494138775
 10
-5.700896722
 20
32.5574411469
 10
-5.7230225467
 20
32.5639237059
 10
-5.7318807613
 20
32.5660597025
  0
LINE
  5
2CA
100
AcDbEntity
  8
RACCORDO
100
AcDbLine
 62
250
  6
CONTINUOUS
 10
-6.4067810827
 20
28.1570159845
 11
-6.4563347806
 21
29.4928042346
  0
LINE
  5
2CB
100
AcDbEntity
  8
DRAFT
100
AcDbLine
 62
7
  6
CONTINUOUS
 10
-6.1515078158
 20
29.6430203972
 11
-6.1027698008
 21
28.329220003
  0
LINE
  5
2CC
100
AcDbEntity
  8
RACCORDO
100
AcDbLine
 62
7
  6
CONTINUOUS
 10
-5.3513485519
 20
31.885118703
 11
-5.3404628033
 21
31.591678341
  0
LINE
  5
2CD
100
AcDbEntity
  8
RACCORDO
100
AcDbLine
 62
7
  6
CONTINUOUS
 10
-4.4882074525
 20
28.6373103203
 11
-4.4745410316
 21
28.2689131028
  0
LINE
  5
2CE
100
AcDbEntity
  8
RACCORDO
100
AcDbLine
 62
7
  6
CONTINUOUS
 10
-2.8143614832
 20
-16.483515605
 11
-2.8006950623
 21
-16.8519128225
  0
LINE
  5
2CF
100
AcDbEntity
  8
RACCORDO
100
AcDbLine
 62
250
  6
CONTINUOUS
 10
-4.3888012257
 20
28.5730062463
 11
-4.3751348048
 21
28.2046090288
  0
LINE
  5
2D0
100
AcDbEntity
  8
RACCORDO
100
AcDbLine
 62
250
  6
CONTINUOUS
 10
-2.7149552564
 20
-16.5478196789
 11
-2.7012888355
 21
-16.9162168965
  0
LWPOLYLINE
  5
2D1
100
AcDbEntity
  8
RACCORDO
100
AcDbPolyline
 62
250
  6
CONTINUOUS
 90
31
 70
0
 10
-4.3888012257
 20
28.5730062463
 10
-4.3890503029
 20
28.5853103055
 10
-4.3888911407
 20
28.5977879996
 10
-4.3883234174
 20
28.6104057726
 10
-4.3873476805
 20
28.6231322007
 10
-4.3859659089
 20
28.6359302525
 10
-4.38418234
 20
28.6487572859
 10
-4.3820023377
 20
28.6615756442
 10
-4.379431497
 20
28.6743531833
 10
-4.3764767319
 20
28.6870554642
 10
-4.3731459901
 20
28.6996481401
 10
-4.3694483585
 20
28.7120966953
 10
-4.3653939942
 20
28.7243668879
 10
-4.3609939916
 20
28.7364251749
 10
-4.3562602811
 20
28.748238892
 10
-4.3512057044
 20
28.7597759861
 10
-4.3458439905
 20
28.7710050967
 10
-4.3401897477
 20
28.7818956072
 10
-4.3342583831
 20
28.7924178312
 10
-4.3280660463
 20
28.8025431157
 10
-4.3216295836
 20
28.8122439106
 10
-4.3149665153
 20
28.8214938055
 10
-4.3080949749
 20
28.8302676227
 10
-4.3010336659
 20
28.8385414769
 10
-4.293801814
 20
28.8462928383
 10
-4.2864190976
 20
28.8535006123
 10
-4.2789056165
 20
28.8601451731
 10
-4.2712818443
 20
28.8662084161
 10
-4.2635685407
 20
28.8716738367
 10
-4.2557866929
 20
28.8765265691
 10
-4.2479574823
 20
28.8807534092
  0
LWPOLYLINE
  5
2D2
100
AcDbEntity
  8
RACCORDO
100
AcDbPolyline
 62
250
  6
CONTINUOUS
 90
22
 70
0
 10
-5.9514767936
 20
22.8675394244
 10
-5.9305879928
 20
21.0101544929
 10
-5.9049736521
 20
19.1547890884
 10
-5.8746337714
 20
17.301443211
 10
-5.8395677396
 20
15.4500884276
 10
-5.7997761678
 20
13.6007531712
 10
-5.7552608902
 20
11.7535227409
 10
-5.7060216899
 20
9.9083972839
 10
-5.6520587837
 20
8.0653766529
 10
-5.5933746564
 20
6.2245457051
 10
-5.5299690909
 20
4.3859045446
 10
-5.4618423043
 20
2.5494530673
 10
-5.388997433
 20
0.715275818
 10
-5.3114342597
 20
-1.1166271021
 10
-5.2291530017
 20
-2.9462557943
 10
-5.1421574472
 20
-4.7735260177
 10
-5.050447377
 20
-6.5984376977
 10
-4.9540230104
 20
-8.420990909
 10
-4.8528887931
 20
-10.2411016344
 10
-4.747046207
 20
-12.0587418682
 10
-4.6364937704
 20
-13.8739396162
 10
-4.521231483
 20
-15.6866948783
  0
LINE
  5
2D3
100
AcDbEntity
  8
DRAFT
100
AcDbLine
 62
7
  6
CONTINUOUS
 10
-13.5140873951
 20
13.9317178667
 11
-13.7650200043
 21
13.8291760999
  0
LINE
  5
2D4
100
AcDbEntity
  8
DRAFT
100
AcDbLine
 62
7
  6
CONTINUOUS
 10
-12.0777370601
 20
13.6059924705
 11
-12.3286696692
 21
13.5034507037
  0
LINE
  5
2D5
100
AcDbEntity
  8
DRAFT
100
AcDbLine
 62
7
  6
CONTINUOUS
 10
-10.6413867251
 20
13.2802670742
 11
-10.8923193342
 21
13.1777253075
  0
LINE
  5
2D6
100
AcDbEntity
  8
DRAFT
100
AcDbLine
 62
7
  6
CONTINUOUS
 10
-9.20503639
 20
12.954541678
 11
-9.4559689992
 21
12.8519999112
  0
LWPOLYLINE
  5
2D7
100
AcDbEntity
  8
DRAFT
100
AcDbPolyline
 62
7
  6
CONTINUOUS
 90
31
 70
0
 10
-13.6447703491
 20
13.904210667
 10
-13.6346797819
 20
13.908042561
 10
-13.6139892162
 20
13.9149303334
 10
-13.5928936899
 20
13.9206778527
 10
-13.5713626766
 20
13.9252861588
 10
-13.5494267887
 20
13.9287541724
 10
-13.527243696
 20
13.9310561983
 10
-13.5048379434
 20
13.9321830484
 10
-13.4821850478
 20
13.9321438824
 10
-13.4593691324
 20
13.9309405294
 10
-13.4363733954
 20
13.9285677782
 10
-13.41321467
 20
13.9250308255
 10
-13.3900275237
 20
13.9203471148
 10
-13.3668117272
 20
13.9145078799
 10
-13.3435675097
 20
13.9075218871
 10
-13.3204301189
 20
13.8994328827
 10
-13.2974163177
 20
13.8902432912
 10
-13.2745093118
 20
13.8799507025
 10
-13.251794005
 20
13.8685916143
 10
-13.2292451102
 20
13.8561455792
 10
-13.2068878527
 20
13.842633073
 10
-13.1848829001
 20
13.8281519812
 10
-13.1632611801
 20
13.8127173349
 10
-13.1419916791
 20
13.7963141425
 10
-13.1211421506
 20
13.7789952562
 10
-13.1006901073
 20
13.7607360982
 10
-13.0806579269
 20
13.7415612966
 10
-13.0611806621
 20
13.7215975127
 10
-13.0423032929
 20
13.700886984
 10
-13.0239807206
 20
13.6793875276
 10
-13.00621288
 20
13.6570991733
  0
LWPOLYLINE
  5
2D8
100
AcDbEntity
  8
DRAFT
100
AcDbPolyline
 62
7
  6
CONTINUOUS
 90
31
 70
0
 10
-12.208420014
 20
13.5784852708
 10
-12.1983294469
 20
13.5823171647
 10
-12.1776388812
 20
13.5892049371
 10
-12.1565433549
 20
13.5949524565
 10
-12.1350123416
 20
13.5995607626
 10
-12.1130764537
 20
13.6030287761
 10
-12.090893361
 20
13.605330802
 10
-12.0684876083
 20
13.6064576522
 10
-12.0458347128
 20
13.6064184862
 10
-12.0230187973
 20
13.6052151331
 10
-12.0000230604
 20
13.602842382
 10
-11.976864335
 20
13.5993054292
 10
-11.9536771887
 20
13.5946217186
 10
-11.9304613921
 20
13.5887824837
 10
-11.9072171746
 20
13.5817964909
 10
-11.8840797838
 20
13.5737074864
 10
-11.8610659827
 20
13.5645178949
 10
-11.8381589767
 20
13.5542253062
 10
-11.81544367
 20
13.5428662181
 10
-11.7928947752
 20
13.5304201829
 10
-11.7705375176
 20
13.5169076768
 10
-11.7485325651
 20
13.502426585
 10
-11.726910845
 20
13.4869919387
 10
-11.7056413441
 20
13.4705887462
 10
-11.6847918156
 20
13.45326986
 10
-11.6643397722
 20
13.4350107019
 10
-11.6443075919
 20
13.4158359004
 10
-11.6248303271
 20
13.3958721165
 10
-11.6059529579
 20
13.3751615878
 10
-11.5876303855
 20
13.3536621314
 10
-11.569862545
 20
13.3313737771
  0
LWPOLYLINE
  5
2D9
100
AcDbEntity
  8
DRAFT
100
AcDbPolyline
 62
7
  6
CONTINUOUS
 90
31
 70
0
 10
-10.772069679
 20
13.2527598745
 10
-10.7619791118
 20
13.2565917685
 10
-10.7412885461
 20
13.2634795409
 10
-10.7201930198
 20
13.2692270602
 10
-10.6986620066
 20
13.2738353663
 10
-10.6767261186
 20
13.2773033799
 10
-10.6545430259
 20
13.2796054058
 10
-10.6321372733
 20
13.2807322559
 10
-10.6094843778
 20
13.28069309
 10
-10.5866684623
 20
13.2794897369
 10
-10.5636727253
 20
13.2771169857
 10
-10.540514
 20
13.273580033
 10
-10.5173268536
 20
13.2688963223
 10
-10.4941110571
 20
13.2630570874
 10
-10.4708668396
 20
13.2560710946
 10
-10.4477294488
 20
13.2479820902
 10
-10.4247156476
 20
13.2387924987
 10
-10.4018086417
 20
13.22849991
 10
-10.3790933349
 20
13.2171408218
 10
-10.3565444401
 20
13.2046947867
 10
-10.3341871826
 20
13.1911822806
 10
-10.31218223
 20
13.1767011888
 10
-10.29056051
 20
13.1612665425
 10
-10.269291009
 20
13.14486335
 10
-10.2484414806
 20
13.1275444637
 10
-10.2279894372
 20
13.1092853057
 10
-10.2079572568
 20
13.0901105041
 10
-10.188479992
 20
13.0701467202
 10
-10.1696026228
 20
13.0494361916
 10
-10.1512800505
 20
13.0279367351
 10
-10.1335122099
 20
13.0056483808
  0
LWPOLYLINE
  5
2DA
100
AcDbEntity
  8
RACCORDO
100
AcDbPolyline
 62
250
  6
CONTINUOUS
 90
15
 70
0
 10
-15.7987500059
 20
32.1956887188
 10
-15.7947312013
 20
32.1870643457
 10
-15.7912705609
 20
32.1785859023
 10
-15.7883775356
 20
32.1702765429
 10
-15.7860600278
 20
32.1621589664
 10
-15.784324364
 20
32.1542553349
 10
-15.783175282
 20
32.1465872146
 10
-15.7826159238
 20
32.1391755346
 10
-15.7826478241
 20
32.1320405531
 10
-15.783270897
 20
32.1252017803
 10
-15.7844834371
 20
32.1186779009
 10
-15.7862821319
 20
32.1124867209
 10
-15.7886620698
 20
32.1066451425
 10
-15.7916167526
 20
32.1011691169
 10
-15.7932654089
 20
32.0986334035
  0
LWPOLYLINE
  5
2DB
100
AcDbEntity
  8
RACCORDO
100
AcDbPolyline
 62
250
  6
CONTINUOUS
 90
31
 70
0
 10
-2.5445149674
 20
28.2618291104
 10
-2.5452887746
 20
28.2741472938
 10
-2.5466048263
 20
28.2865568798
 10
-2.5484595154
 20
28.2990238559
 10
-2.5508477587
 20
28.3115140527
 10
-2.5537630103
 20
28.3239932367
 10
-2.5571972803
 20
28.3364272049
 10
-2.5611411557
 20
28.3487818781
 10
-2.5655838273
 20
28.3610233945
 10
-2.5705131185
 20
28.3731182023
 10
-2.575915519
 20
28.385033152
 10
-2.5817762219
 20
28.396735587
 10
-2.5880791641
 20
28.408193433
 10
-2.5948070704
 20
28.4193752862
 10
-2.6019415008
 20
28.4302504993
 10
-2.6094629013
 20
28.4407892653
 10
-2.6173506571
 20
28.4509626996
 10
-2.6255831493
 20
28.4607429185
 10
-2.6341378142
 20
28.4701031164
 10
-2.6429912051
 20
28.4790176388
 10
-2.6521190565
 20
28.4874620525
 10
-2.6614963506
 20
28.495413213
 10
-2.6710973861
 20
28.5028493277
 10
-2.6808958484
 20
28.5097500156
 10
-2.6908648816
 20
28.5160963632
 10
-2.7009771626
 20
28.5218709763
 10
-2.7112049754
 20
28.5270580279
 10
-2.7215202876
 20
28.5316433012
 10
-2.7318948268
 20
28.5356142287
 10
-2.7423001583
 20
28.538959927
 10
-2.7527077632
 20
28.5416712262
  0
LWPOLYLINE
  5
2DC
100
AcDbEntity
  8
RACCORDO
100
AcDbPolyline
 62
250
  6
CONTINUOUS
 90
23
 70
0
 10
-1.2060391163
 20
-17.2552990795
 10
-1.2053826978
 20
-17.2674039065
 10
-1.2043199372
 20
-17.2792839535
 10
-1.2028529696
 20
-17.2909065514
 10
-1.2009846128
 20
-17.3022419224
 10
-1.1987194738
 20
-17.3132562562
 10
-1.1960647464
 20
-17.3239125017
 10
-1.1930283474
 20
-17.3341794983
 10
-1.1896180147
 20
-17.3440316226
 10
-1.1858429256
 20
-17.3534423059
 10
-1.1817132474
 20
-17.3623860617
 10
-1.1772402584
 20
-17.3708383351
 10
-1.1724362488
 20
-17.378775863
 10
-1.1673143621
 20
-17.3861769574
 10
-1.1618884838
 20
-17.3930215806
 10
-1.1561733334
 20
-17.3992911599
 10
-1.1501844361
 20
-17.4049686431
 10
-1.1439381105
 20
-17.4100385399
 10
-1.137451378
 20
-17.4144870249
 10
-1.1307419004
 20
-17.4183019825
 10
-1.1238279313
 20
-17.42147303
 10
-1.1167282912
 20
-17.4239915314
 10
-1.110907609
 20
-17.4255364269
  0
LWPOLYLINE
  5
2DD
100
AcDbEntity
  8
RACCORDO
100
AcDbPolyline
 62
250
  6
CONTINUOUS
 90
16
 70
0
 10
-4.3751348048
 20
28.2046090288
 10
-4.3745138018
 20
28.1930034717
 10
-4.373520188
 20
28.1816097812
 10
-4.3721564349
 20
28.1704562979
 10
-4.3704259411
 20
28.1595708019
 10
-4.3683330067
 20
28.1489803304
 10
-4.3658828102
 20
28.1387111208
 10
-4.3630814139
 20
28.1287886582
 10
-4.3599357914
 20
28.11923771
 10
-4.3564537966
 20
28.1100821442
 10
-4.3526440793
 20
28.101344709
 10
-4.3485161268
 20
28.0930471676
 10
-4.3440803001
 20
28.0852103128
 10
-4.3393477187
 20
28.0778537073
 10
-4.334330113
 20
28.0709955083
 10
-4.329039865
 20
28.0646526138
  0
LWPOLYLINE
  5
2DE
100
AcDbEntity
  8
RACCORDO
100
AcDbPolyline
 62
250
  6
CONTINUOUS
 90
22
 70
0
 10
-2.8798850856
 20
27.8655268457
 10
-2.8792640826
 20
27.8539212886
 10
-2.8782704689
 20
27.8425275981
 10
-2.8769067158
 20
27.8313741148
 10
-2.8751762219
 20
27.8204886189
 10
-2.8730832876
 20
27.8098981474
 10
-2.870633091
 20
27.7996289377
 10
-2.8678316947
 20
27.7897064751
 10
-2.8646860723
 20
27.780155527
 10
-2.8612040775
 20
27.7709999612
 10
-2.8573943601
 20
27.7622625259
 10
-2.8532664076
 20
27.7539649845
 10
-2.8488305809
 20
27.7461281298
 10
-2.8440979996
 20
27.7387715243
 10
-2.8390803938
 20
27.7319133253
 10
-2.8337901458
 20
27.7255704308
 10
-2.8282393088
 20
27.7197575397
 10
-2.8224426968
 20
27.7144904014
 10
-2.8164181852
 20
27.7097846116
 10
-2.8101823142
 20
27.7056516369
 10
-2.8037498009
 20
27.7020998296
 10
-2.7971369149
 20
27.69913701
  0
LINE
  5
2DF
100
AcDbEntity
  8
RACCORDO
100
AcDbLine
 62
7
  6
CONTINUOUS
 10
-3.8246544485
 20
27.1398424453
 11
-3.8513657769
 21
27.8598831303
  0
LINE
  5
2E0
100
AcDbEntity
  8
RACCORDO
100
AcDbLine
 62
250
  6
CONTINUOUS
 10
-3.7250713324
 20
27.0707700769
 11
-3.7529655396
 21
27.8226968932
  0
LINE
  5
2E1
100
AcDbEntity
  8
RACCORDO
100
AcDbLine
 62
250
  6
CONTINUOUS
 10
-1.2060391163
 20
-17.2552990795
 11
-1.2197055372
 21
-16.886901862
  0
LINE
  5
2E2
100
AcDbEntity
  8
RACCORDO
100
AcDbLine
 62
250
  6
CONTINUOUS
 10
-2.8798850856
 20
27.8655268457
 11
-2.8935515065
 21
28.2339240633
  0
LINE
  5
2E3
100
AcDbEntity
  8
RACCORDO
100
AcDbLine
 62
250
  6
CONTINUOUS
 10
-0.8570025773
 20
-17.2273940323
 11
-0.8706689981
 21
-16.8589968148
  0
LINE
  5
2E4
100
AcDbEntity
  8
RACCORDO
100
AcDbLine
 62
250
  6
CONTINUOUS
 10
-2.5308485466
 20
27.8934318929
 11
-2.5445149674
 21
28.2618291104
  0
LINE
  5
2E5
100
AcDbEntity
  8
RACCORDO
100
AcDbLine
 62
250
  6
CONTINUOUS
 10
-0.6384993834
 20
-15.9164141925
 11
-0.6603327216
 21
-15.3278664572
  0
LINE
  5
2E6
100
AcDbEntity
  8
RACCORDO
100
AcDbLine
 62
250
  6
CONTINUOUS
 10
-2.2205366779
 20
26.7295823217
 11
-2.2484308851
 21
27.481509138
  0
LINE
  5
2E7
100
AcDbEntity
  8
RACCORDO
100
AcDbLine
 62
250
  6
CONTINUOUS
 10
-0.2844380397
 20
-16.023959683
 11
-0.3152769572
 21
-15.1926541427
  0
LINE
  5
2E8
100
AcDbEntity
  8
RACCORDO
100
AcDbLine
 62
250
  6
CONTINUOUS
 10
-1.8719186811
 20
26.7687697521
 11
-1.9044191508
 21
27.6448647229
  0
LWPOLYLINE
  5
2E9
100
AcDbEntity
  8
RACCORDO
100
AcDbPolyline
 62
250
  6
CONTINUOUS
 90
22
 70
0
 10
-2.7149552564
 20
-16.5478196789
 10
-2.71520197
 20
-16.536057706
 10
-2.7150754178
 20
-16.5241360417
 10
-2.7145752941
 20
-16.5120840102
 10
-2.7137020259
 20
-16.4999290918
 10
-2.7124572252
 20
-16.4877035797
 10
-2.7108443702
 20
-16.4754445958
 10
-2.7088678867
 20
-16.4631849824
 10
-2.7065324182
 20
-16.4509528922
 10
-2.7038437172
 20
-16.4387785071
 10
-2.7008084096
 20
-16.4266919566
 10
-2.6974340582
 20
-16.4147234692
 10
-2.6937291106
 20
-16.4029030462
 10
-2.6897027929
 20
-16.3912601199
 10
-2.6853651117
 20
-16.3798236233
 10
-2.6807269119
 20
-16.368622133
 10
-2.675799779
 20
-16.3576835854
 10
-2.6705959442
 20
-16.3470350941
 10
-2.6651282983
 20
-16.3367030227
 10
-2.6594104197
 20
-16.326713034
 10
-2.6534565503
 20
-16.3170900151
 10
-2.6472814997
 20
-16.3078579015
  0
LWPOLYLINE
  5
2EA
100
AcDbEntity
  8
RACCORDO
100
AcDbPolyline
 62
250
  6
CONTINUOUS
 90
22
 70
0
 10
-1.2197055372
 20
-16.886901862
 10
-1.2199522508
 20
-16.875139889
 10
-1.2198256987
 20
-16.8632182248
 10
-1.2193255749
 20
-16.8511661933
 10
-1.2184523067
 20
-16.8390112749
 10
-1.217207506
 20
-16.8267857628
 10
-1.2155946511
 20
-16.8145267788
 10
-1.2136181675
 20
-16.8022671654
 10
-1.211282699
 20
-16.7900350753
 10
-1.208593998
 20
-16.7778606902
 10
-1.2055586904
 20
-16.7657741397
 10
-1.202184339
 20
-16.7538056522
 10
-1.1984793915
 20
-16.7419852293
 10
-1.1944530738
 20
-16.7303423029
 10
-1.1901153925
 20
-16.7189058064
 10
-1.1854771927
 20
-16.7077043161
 10
-1.1805500598
 20
-16.6967657685
 10
-1.175346225
 20
-16.6861172772
 10
-1.1698785791
 20
-16.6757852058
 10
-1.1641607005
 20
-16.665795217
 10
-1.1582068312
 20
-16.6561721981
 10
-1.1520317805
 20
-16.6469400845
  0
LWPOLYLINE
  5
2EB
100
AcDbEntity
  8
RACCORDO
100
AcDbPolyline
 62
250
  6
CONTINUOUS
 90
31
 70
0
 10
-2.8935515065
 20
28.2339240633
 10
-2.8938006977
 20
28.2462598364
 10
-2.8936397815
 20
28.258762316
 10
-2.8930691929
 20
28.2713974727
 10
-2.8920904809
 20
28.2841309294
 10
-2.8907063068
 20
28.2969280139
 10
-2.8889204418
 20
28.3097538538
 10
-2.8867377495
 20
28.3225735285
 10
-2.8841641707
 20
28.3353521537
 10
-2.8812067143
 20
28.3480549355
 10
-2.8778734326
 20
28.3606472966
 10
-2.8741734001
 20
28.3730949648
 10
-2.870116691
 20
28.3853640554
 10
-2.8657143442
 20
28.3974211885
 10
-2.8609783489
 20
28.4092335335
 10
-2.8559216179
 20
28.4207688961
 10
-2.8505579437
 20
28.431995838
 10
-2.8449019097
 20
28.442883857
 10
-2.8389688624
 20
28.4534034148
 10
-2.8327748661
 20
28.4635260053
 10
-2.8263368528
 20
28.4732239343
 10
-2.8196725487
 20
28.4824705295
 10
-2.8128002456
 20
28.4912404969
 10
-2.805738535
 20
28.4995101942
 10
-2.7985064432
 20
28.5072573696
 10
-2.791122012
 20
28.5144624626
 10
-2.7836069176
 20
28.5211040946
 10
-2.7759864648
 20
28.5271605435
 10
-2.7682831946
 20
28.5326153705
 10
-2.7605165723
 20
28.5374562496
 10
-2.7527077632
 20
28.5416712262
  0
LWPOLYLINE
  5
2EC
100
AcDbEntity
  8
RACCORDO
100
AcDbPolyline
 62
250
  6
CONTINUOUS
 90
24
 70
0
 10
-3.9050213077
 20
-16.3095985092
 10
-3.9054059129
 20
-16.3321380058
 10
-3.9066804116
 20
-16.3544159966
 10
-3.9088419202
 20
-16.3763820735
 10
-3.9118855477
 20
-16.3979865342
 10
-3.9158044074
 20
-16.4191804945
 10
-3.9205896322
 20
-16.4399159991
 10
-3.9262303945
 20
-16.4601461299
 10
-3.9327139311
 20
-16.4798251126
 10
-3.9400255717
 20
-16.4989084196
 10
-3.9481487725
 20
-16.5173528714
 10
-3.957065153
 20
-16.535116734
 10
-3.9667545384
 20
-16.5521598133
 10
-3.9771950046
 20
-16.5684435461
 10
-3.988362928
 20
-16.5839310874
 10
-4.0002330391
 20
-16.5985873936
 10
-4.0127784795
 20
-16.6123793022
 10
-4.0259708629
 20
-16.6252756064
 10
-4.039780339
 20
-16.6372471259
 10
-4.0541756612
 20
-16.6482667727
 10
-4.0691242574
 20
-16.658309613
 10
-4.0845923036
 20
-16.6673529228
 10
-4.1005448004
 20
-16.67537624
 10
-4.116273763
 20
-16.6820991212
  0
LWPOLYLINE
  5
2ED
100
AcDbEntity
  8
DRAFT
100
AcDbPolyline
 62
7
  6
CONTINUOUS
 90
5
 70
0
 10
-19.5399198685
 20
-2.1832118703
 10
-19.5563331898
 20
-2.1974365111
 10
-19.5733691286
 20
-2.2106203153
 10
-19.5910277498
 20
-2.2227633168
 10
-19.6042699719
 20
-2.2309438289
  0
LINE
  5
2EE
100
AcDbEntity
  8
RACCORDO
100
AcDbLine
 62
7
  6
CONTINUOUS
 10
19.7817207604
 20
24.0094108018
 11
12.5606254525
 21
20.3188832554
  0
LINE
  5
2EF
100
AcDbEntity
  8
RACCORDO
100
AcDbLine
 62
7
  6
CONTINUOUS
 10
19.7343403016
 20
25.2866163943
 11
12.5106117384
 21
21.6670718754
  0
LINE
  5
2F0
100
AcDbEntity
  8
RACCORDO
100
AcDbLine
 62
7
  6
CONTINUOUS
 10
18.6472252336
 20
24.2117625891
 11
12.1135198564
 21
20.9451753949
  0
LINE
  5
2F1
100
AcDbEntity
  8
DRAFT
100
AcDbLine
 62
7
  6
CONTINUOUS
 10
19.5497567978
 20
24.6531942395
 11
18.6472252336
 21
24.2117625891
  0
LWPOLYLINE
  5
2F2
100
AcDbEntity
  8
RACCORDO
100
AcDbPolyline
 62
7
  6
CONTINUOUS
 90
18
 70
0
 10
12.5606254525
 20
20.3188832554
 10
12.54730449
 20
20.3124104758
 10
12.5339983563
 20
20.3066055672
 10
12.5207070513
 20
20.3014685297
 10
12.5074178414
 20
20.2969959567
 10
12.4941434603
 20
20.2931912548
 10
12.4809221085
 20
20.2900646428
 10
12.4677527821
 20
20.2876181737
 10
12.454636485
 20
20.2858497946
 10
12.4416144296
 20
20.284763565
 10
12.4286891462
 20
20.2843616101
 10
12.4158581045
 20
20.2846418048
 10
12.4031549265
 20
20.2856018334
 10
12.3905770961
 20
20.2872442569
 10
12.3781271293
 20
20.2895665143
 10
12.365846196
 20
20.2925586064
 10
12.3537385065
 20
20.2962214934
 10
12.3507392561
 20
20.2972415541
  0
LWPOLYLINE
  5
2F3
100
AcDbEntity
  8
DRAFT
100
AcDbPolyline
 62
7
  6
CONTINUOUS
 90
31
 70
0
 10
-9.3357193439
 20
12.9270344783
 10
-9.3256287768
 20
12.9308663722
 10
-9.3049382111
 20
12.9377541447
 10
-9.2838426848
 20
12.943501664
 10
-9.2623116715
 20
12.9481099701
 10
-9.2403757836
 20
12.9515779837
 10
-9.2181926909
 20
12.9538800096
 10
-9.1957869382
 20
12.9550068597
 10
-9.1731340427
 20
12.9549676937
 10
-9.1503181273
 20
12.9537643407
 10
-9.1273223903
 20
12.9513915895
 10
-9.1041636649
 20
12.9478546367
 10
-9.0809765186
 20
12.9431709261
 10
-9.057760722
 20
12.9373316912
 10
-9.0345165045
 20
12.9303456984
 10
-9.0113791137
 20
12.922256694
 10
-8.9883653126
 20
12.9130671024
 10
-8.9654583066
 20
12.9027745138
 10
-8.9427429999
 20
12.8914154256
 10
-8.9201941051
 20
12.8789693905
 10
-8.8978368475
 20
12.8654568843
 10
-8.875831895
 20
12.8509757925
 10
-8.8542101749
 20
12.8355411462
 10
-8.832940674
 20
12.8191379538
 10
-8.8120911455
 20
12.8018190675
 10
-8.7916391021
 20
12.7835599095
 10
-8.7716069218
 20
12.7643851079
 10
-8.752129657
 20
12.744421324
 10
-8.7332522878
 20
12.7237107953
 10
-8.7149297154
 20
12.7022113389
 10
-8.6971618749
 20
12.6799229846
  0
LWPOLYLINE
  5
2F4
100
AcDbEntity
  8
ASSI
100
AcDbPolyline
 62
7
  6
CONTINUOUS
 90
9
 70
0
 10
-1.53852804
 20
31.8116356402
 10
-1.5387932138
 20
31.8150493393
 10
-1.539919587
 20
31.8205738313
 10
-1.5418472615
 20
31.8253697
 10
-1.5445469491
 20
31.829496741
 10
-1.5479830048
 20
31.8329700718
 10
-1.5521218624
 20
31.835797732
 10
-1.5569580876
 20
31.8380280051
 10
-1.5627468713
 20
31.8397365184
  0
LWPOLYLINE
  5
2F5
100
AcDbEntity
  8
RACCORDO
100
AcDbPolyline
 62
7
  6
CONTINUOUS
 90
34
 70
0
 10
-1.1798462015
 20
28.9343263922
 10
-1.1804861192
 20
28.9455405767
 10
-1.1815766506
 20
28.9568317552
 10
-1.1831152398
 20
28.9681743947
 10
-1.1850982486
 20
28.9795428795
 10
-1.1875211819
 20
28.9909114597
 10
-1.1903786976
 20
29.0022543096
 10
-1.1936642745
 20
29.0135457605
 10
-1.1973703936
 20
29.0247602726
 10
-1.2014887714
 20
29.0358723836
 10
-1.2060100484
 20
29.0468569379
 10
-1.2109239222
 20
29.0576890824
 10
-1.2162193363
 20
29.0683442375
 10
-1.2218842831
 20
29.0787982727
 10
-1.2279058868
 20
29.0890275282
 10
-1.2342705427
 20
29.0990088079
 10
-1.2409638396
 20
29.1087194984
 10
-1.2479705905
 20
29.1181376147
 10
-1.2552749195
 20
29.1272418177
 10
-1.2628603057
 20
29.1360114716
 10
-1.2707095598
 20
29.1444267143
 10
-1.2788048588
 20
29.1524684983
 10
-1.2871279084
 20
29.1601185861
 10
-1.2956598674
 20
29.1673596428
 10
-1.3043813292
 20
29.1741753013
 10
-1.3132725986
 20
29.180550093
 10
-1.3223135665
 20
29.1864695639
 10
-1.3314836385
 20
29.1919203596
 10
-1.3407621196
 20
29.1968900963
 10
-1.3501280425
 20
29.2013674941
 10
-1.3595600446
 20
29.2053424836
 10
-1.3690367651
 20
29.2088060604
 10
-1.3785368932
 20
29.2117503052
 10
-1.3880389972
 20
29.214168508
  0
LWPOLYLINE
  5
2F6
100
AcDbEntity
  8
RACCORDO
100
AcDbPolyline
 62
250
  6
CONTINUOUS
 90
31
 70
0
 10
-0.7310417118
 20
29.1521587048
 10
-0.7317263227
 20
29.1645205145
 10
-0.7329582195
 20
29.1769712608
 10
-0.7347340261
 20
29.1894768188
 10
-0.7370488751
 20
29.2020029129
 10
-0.7398964221
 20
29.2145152116
 10
-0.7432688624
 20
29.2269794209
 10
-0.7471569528
 20
29.2393613788
 10
-0.7515500368
 20
29.2516271486
 10
-0.7564360738
 20
29.2637431122
 10
-0.7618016721
 20
29.2756760621
 10
-0.7676321254
 20
29.2873932922
 10
-0.7739114538
 20
29.2988626878
 10
-0.7806224467
 20
29.3100528134
 10
-0.7877467106
 20
29.320932999
 10
-0.7952647191
 20
29.3314734241
 10
-0.8031558668
 20
29.3416451993
 10
-0.8113985256
 20
29.3514204458
 10
-0.8199701039
 20
29.3607723713
 10
-0.8288471086
 20
29.369675344
 10
-0.8380052095
 20
29.3781049625
 10
-0.8474193059
 20
29.3860381229
 10
-0.8570635957
 20
29.3934530818
 10
-0.8669116455
 20
29.4003295162
 10
-0.8769364638
 20
29.4066485792
 10
-0.8871105744
 20
29.4123929512
 10
-0.8974060919
 20
29.4175468882
 10
-0.9077947983
 20
29.422096264
 10
-0.9182482201
 20
29.4260286098
 10
-0.9287377064
 20
29.4293331477
 10
-0.9392345076
 20
29.4320008206
  0
LINE
  5
2F7
100
AcDbEntity
  8
ASSI
100
AcDbLine
 62
250
  6
CONTINUOUS
 10
-1.6274630761
 20
31.8338876332
 11
-1.5781375849
 21
30.5042510101
  0
LINE
  5
2F8
100
AcDbEntity
  8
ASSI
100
AcDbLine
 62
7
  6
CONTINUOUS
 10
-1.5385281675
 20
31.8116390776
 11
-1.4933834897
 21
30.5947020447
  0
LINE
  5
2F9
100
AcDbEntity
  8
RACCORDO
100
AcDbLine
 62
7
  6
CONTINUOUS
 10
0.5085781869
 20
-16.579480919
 11
0.4460637435
 21
-14.8943179058
  0
LINE
  5
2FA
100
AcDbEntity
  8
RACCORDO
100
AcDbLine
 62
7
  6
CONTINUOUS
 10
-1.1154314554
 20
27.1979381009
 11
-1.1798462015
 21
28.9343263922
  0
LINE
  5
2FB
100
AcDbEntity
  8
RACCORDO
100
AcDbLine
 62
250
  6
CONTINUOUS
 10
-0.7310417118
 20
29.1521587048
 11
-0.7170714879
 21
28.7755720583
  0
LINE
  5
2FC
100
AcDbEntity
  8
RACCORDO
100
AcDbLine
 62
250
  6
CONTINUOUS
 10
0.9431080605
 20
-15.9768566495
 11
0.9570782844
 21
-16.353443296
  0
LINE
  5
2FD
100
AcDbEntity
  8
RACCORDO
100
AcDbLine
 62
7
  6
CONTINUOUS
 10
-0.681578398
 20
29.2062374236
 11
-0.6676081741
 21
28.829650777
  0
LINE
  5
2FE
100
AcDbEntity
  8
RACCORDO
100
AcDbLine
 62
7
  6
CONTINUOUS
 10
0.9925713743
 20
-15.9227779307
 11
1.0065415982
 21
-16.2993645773
  0
LINE
  5
2FF
100
AcDbEntity
  8
RACCORDO
100
AcDbLine
 62
7
  6
CONTINUOUS
 10
-0.0970547797
 20
26.9245442325
 11
1.4271345925
 21
-14.1620817788
  0
LWPOLYLINE
  5
300
100
AcDbEntity
  8
RACCORDO
100
AcDbPolyline
 62
7
  6
CONTINUOUS
 90
26
 70
0
 10
0.8131673058
 20
-14.4607460379
 10
0.8132725737
 20
-14.4801318581
 10
0.8127090285
 20
-14.499360841
 10
0.8114733205
 20
-14.5183994156
 10
0.8095629199
 20
-14.5372114806
 10
0.8069773357
 20
-14.5557662378
 10
0.8037170938
 20
-14.5740377796
 10
0.7997840887
 20
-14.5919863288
 10
0.795178975
 20
-14.6095849619
 10
0.7898983203
 20
-14.6268250866
 10
0.7839424437
 20
-14.6436740629
 10
0.7773146064
 20
-14.6600947249
 10
0.7700126769
 20
-14.6760683988
 10
0.7620329093
 20
-14.6915717622
 10
0.753386004
 20
-14.7065549442
 10
0.7440943651
 20
-14.7209606799
 10
0.7341644374
 20
-14.734761807
 10
0.7236117758
 20
-14.7479203959
 10
0.7124820897
 20
-14.7603722232
 10
0.7007925327
 20
-14.7720950477
 10
0.6885655358
 20
-14.7830632977
 10
0.675866307
 20
-14.7932226937
 10
0.6627436345
 20
-14.8025463804
 10
0.6492054094
 20
-14.811040413
 10
0.6352594106
 20
-14.8187062804
 10
0.6301389981
 20
-14.8212635918
  0
LWPOLYLINE
  5
301
100
AcDbEntity
  8
RACCORDO
100
AcDbPolyline
 62
250
  6
CONTINUOUS
 90
14
 70
0
 10
1.0065415982
 20
-16.2993645773
 10
1.0065369875
 20
-16.3016752625
 10
1.0060129699
 20
-16.3061744842
 10
1.0048103986
 20
-16.3106804057
 10
1.0029325433
 20
-16.3151807606
 10
1.0003845113
 20
-16.3196633005
 10
0.9971732348
 20
-16.3241158236
 10
0.9933074549
 20
-16.3285262066
 10
0.9887976887
 20
-16.3328824479
 10
0.9836562122
 20
-16.337172687
 10
0.9778970369
 20
-16.3413852335
 10
0.9715358492
 20
-16.3455086179
 10
0.9645899619
 20
-16.3495316218
 10
0.9570782844
 20
-16.353443296
  0
LWPOLYLINE
  5
302
100
AcDbEntity
  8
RACCORDO
100
AcDbPolyline
 62
250
  6
CONTINUOUS
 90
14
 70
0
 10
-0.6676081741
 20
28.829650777
 10
-0.6676132696
 20
28.8273283223
 10
-0.6681388835
 20
28.8228300262
 10
-0.6693427534
 20
28.8183250723
 10
-0.6712216039
 20
28.813825717
 10
-0.6737703233
 20
28.8093442018
 10
-0.6769819773
 20
28.8048927192
 10
-0.6808478282
 20
28.8004833802
 10
-0.6853573582
 20
28.7961281814
 10
-0.6904982984
 20
28.7918389716
 10
-0.6962566619
 20
28.7876274204
 10
-0.7026167822
 20
28.7835049861
 10
-0.7095613555
 20
28.7794828845
 10
-0.7170714879
 20
28.7755720583
  0
LWPOLYLINE
  5
303
100
AcDbEntity
  8
RACCORDO
100
AcDbPolyline
 62
250
  6
CONTINUOUS
 90
14
 70
0
 10
0.9925713743
 20
-15.9227779307
 10
0.9925662789
 20
-15.9251003854
 10
0.9920406649
 20
-15.9295986815
 10
0.9908367951
 20
-15.9341036355
 10
0.9889579445
 20
-15.9386029907
 10
0.9864092252
 20
-15.943084506
 10
0.9831975711
 20
-15.9475359886
 10
0.9793317202
 20
-15.9519453275
 10
0.9748221902
 20
-15.9563005264
 10
0.9696812501
 20
-15.9605897362
 10
0.9639228865
 20
-15.9648012873
 10
0.9575627662
 20
-15.9689237216
 10
0.9506181929
 20
-15.9729458233
 10
0.9431080605
 20
-15.9768566495
  0
LWPOLYLINE
  5
304
100
AcDbEntity
  8
RACCORDO
100
AcDbPolyline
 62
250
  6
CONTINUOUS
 90
14
 70
0
 10
-0.6815781094
 20
29.2062296154
 10
-0.6815842315
 20
29.2038972628
 10
-0.6821127087
 20
29.1993979558
 10
-0.6833197254
 20
29.194892027
 10
-0.6852019349
 20
29.1903918767
 10
-0.6877541026
 20
29.1859098387
 10
-0.6909692579
 20
29.1814580213
 10
-0.694838715
 20
29.1770484127
 10
-0.6993530073
 20
29.172692062
 10
-0.7044990666
 20
29.1684018043
 10
-0.7102590525
 20
29.1641919527
 10
-0.7166147486
 20
29.1600746539
 10
-0.7235489301
 20
29.15606001
 10
-0.7310417118
 20
29.1521587048
  0
LWPOLYLINE
  5
305
100
AcDbEntity
  8
DRAFT
100
AcDbPolyline
 62
7
  6
CONTINUOUS
 90
5
 70
0
 10
-18.1035695335
 20
-2.5089372666
 10
-18.1199828547
 20
-2.5231619073
 10
-18.1370187935
 20
-2.5363457116
 10
-18.1546774148
 20
-2.548488713
 10
-18.1679196368
 20
-2.5566692251
  0
LWPOLYLINE
  5
306
100
AcDbEntity
  8
DRAFT
100
AcDbPolyline
 62
7
  6
CONTINUOUS
 90
5
 70
0
 10
-16.6672191984
 20
-2.8346626628
 10
-16.6836325197
 20
-2.8488873035
 10
-16.7006684585
 20
-2.8620711078
 10
-16.7183270797
 20
-2.8742141093
 10
-16.7315693018
 20
-2.8823946214
  0
LWPOLYLINE
  5
307
100
AcDbEntity
  8
DRAFT
100
AcDbPolyline
 62
7
  6
CONTINUOUS
 90
5
 70
0
 10
-15.2308688634
 20
-3.1603880591
 10
-15.2472821847
 20
-3.1746126998
 10
-15.2643181234
 20
-3.187796504
 10
-15.2819767447
 20
-3.1999395055
 10
-15.2952189667
 20
-3.2081200176
  0
LINE
  5
308
100
AcDbEntity
  8
RACCORDO
100
AcDbLine
 62
7
  6
CONTINUOUS
 10
19.8596666261
 20
21.9082725235
 11
9.7057646905
 21
16.8205259706
  0
LINE
  5
309
100
AcDbEntity
  8
RACCORDO
100
AcDbLine
 62
7
  6
CONTINUOUS
 10
18.772551558
 20
20.8334187183
 11
9.3020393561
 21
16.0985474476
  0
LINE
  5
30A
100
AcDbEntity
  8
DRAFT
100
AcDbLine
 62
7
  6
CONTINUOUS
 10
19.6750831222
 20
21.2748503687
 11
18.772551558
 21
20.8334187183
  0
LINE
  5
30B
100
AcDbEntity
  8
RACCORDO
100
AcDbLine
 62
250
  6
CONTINUOUS
 10
12.8199651906
 20
3.5454820801
 11
13.1872570749
 21
3.4271639013
  0
LINE
  5
30C
100
AcDbEntity
  8
RACCORDO
100
AcDbLine
 62
250
  6
CONTINUOUS
 10
9.7576947198
 20
5.429356149
 11
10.1328255099
 21
5.3085127713
  0
LWPOLYLINE
  5
30D
100
AcDbEntity
  8
RACCORDO
100
AcDbPolyline
 62
7
  6
CONTINUOUS
 90
90
 70
0
 10
9.9184569075
 20
5.286409211
 10
9.9152255278
 20
5.2875584741
 10
9.9034799514
 20
5.2921820518
 10
9.8919171075
 20
5.2974447404
 10
9.8805395255
 20
5.3033433173
 10
9.8693826961
 20
5.3098565711
 10
9.858450861
 20
5.3169838927
 10
9.8477397786
 20
5.3247258912
 10
9.8372722147
 20
5.3330631831
 10
9.8270453222
 20
5.3420003801
 10
9.8170619483
 20
5.3515328705
 10
9.8073534001
 20
5.3616274359
 10
9.7979240525
 20
5.3722815872
 10
9.7887695305
 20
5.3834978135
 10
9.7799080168
 20
5.3952503642
 10
9.7713370239
 20
5.4075451455
 10
9.7630590392
 20
5.4203762512
 10
9.7550997081
 20
5.4337002117
 10
9.7474629849
 20
5.4475127769
 10
9.7401449153
 20
5.461818197
 10
9.7331592815
 20
5.4765857522
 10
9.7265041984
 20
5.4918226169
 10
9.7201815511
 20
5.5075216168
 10
9.7142107772
 20
5.5236305089
 10
9.7085952308
 20
5.5401431911
 10
9.7033315579
 20
5.5570657656
 10
9.6984291334
 20
5.5743642961
 10
9.6938867598
 20
5.5920474683
 10
9.6897056348
 20
5.6101065964
 10
9.685898726
 20
5.6284816873
 10
9.6824686244
 20
5.6471646382
 10
9.6794127391
 20
5.6661635518
 10
9.6767362651
 20
5.6854427442
 10
9.6744388997
 20
5.7050123932
 10
9.6725209456
 20
5.7248623209
 10
9.670988506
 20
5.7449263093
 10
9.6698431548
 20
5.7651946953
 10
9.6690833181
 20
5.7856771419
 10
9.6687103769
 20
5.8063364203
 10
9.6687251435
 20
5.8271834012
 10
9.6691268056
 20
5.8482072139
 10
9.6699143075
 20
5.8693380174
 10
9.6710880988
 20
5.8905657083
 10
9.6726477299
 20
5.9119003899
 10
9.674590796
 20
5.9333025323
 10
9.6769192023
 20
5.9547825137
 10
9.6796310436
 20
5.9763299557
 10
9.682718199
 20
5.9978741931
 10
9.6861801478
 20
6.0194056704
 10
9.6900174108
 20
6.040933943
 10
9.6942234299
 20
6.0624170113
 10
9.6988009913
 20
6.0838640849
 10
9.7037473087
 20
6.1052659542
 10
9.7090474657
 20
6.1265529907
 10
9.7147001691
 20
6.1477164118
 10
9.7207067121
 20
6.1687650001
 10
9.7270560576
 20
6.1896554759
 10
9.7337517047
 20
6.2103958609
 10
9.7407901542
 20
6.2309781333
 10
9.7481498719
 20
6.2513349474
 10
9.7558288919
 20
6.2714581431
 10
9.7638291801
 20
6.2913558805
 10
9.7721350992
 20
6.3109852937
 10
9.7807506817
 20
6.3303531267
 10
9.7896718952
 20
6.3494526355
 10
9.7988710055
 20
6.3682207229
 10
9.8083456063
 20
6.3866501186
 10
9.8180981041
 20
6.4047480928
 10
9.8281079835
 20
6.4224733589
 10
9.8383792854
 20
6.4398307175
 10
9.848907969
 20
6.456815368
 10
9.8596613963
 20
6.4733716212
 10
9.8706373657
 20
6.4894938602
 10
9.8818380788
 20
6.5051877018
 10
9.8932375021
 20
6.5204143077
 10
9.9048387192
 20
6.5351757396
 10
9.9166386466
 20
6.5494699358
 10
9.9286020005
 20
6.5632518719
 10
9.9407276872
 20
6.5765181118
 10
9.9530168006
 20
6.5892720916
 10
9.9654373381
 20
6.6014790963
 10
9.9779905953
 20
6.6131384951
 10
9.9906752767
 20
6.6242509189
 10
10.0034554934
 20
6.6347835446
 10
10.0163314155
 20
6.6447344512
 10
10.0293028729
 20
6.6541055599
 10
10.0423334664
 20
6.6628698109
 10
10.0554110629
 20
6.6710181843
 10
10.0685477954
 20
6.6785597001
 10
10.081743664
 20
6.6854943582
  0
LWPOLYLINE
  5
30E
100
AcDbEntity
  8
RACCORDO
100
AcDbPolyline
 62
7
  6
CONTINUOUS
 90
87
 70
0
 10
12.9773708785
 20
3.4055222001
 10
12.968431473
 20
3.4088348611
 10
12.9566903899
 20
3.413824538
 10
12.9451438631
 20
3.4194748203
 10
12.9337949092
 20
3.4257820576
 10
12.9226811169
 20
3.4327224198
 10
12.9118067958
 20
3.4402954329
 10
12.9011676363
 20
3.4485015708
 10
12.8907882996
 20
3.4573184247
 10
12.8806667127
 20
3.4667501428
 10
12.8708049485
 20
3.476792577
 10
12.8612338867
 20
3.487410874
 10
12.8519566663
 20
3.4986041309
 10
12.8429701483
 20
3.5103732506
 10
12.8342957951
 20
3.5226860892
 10
12.8259330981
 20
3.5355459365
 10
12.817882566
 20
3.5489495025
 10
12.8101671875
 20
3.5628547741
 10
12.8027887229
 20
3.5772616934
 10
12.7957454118
 20
3.5921703182
 10
12.7890549612
 20
3.6075388079
 10
12.7827180556
 20
3.6233687359
 10
12.7767340105
 20
3.6396585288
 10
12.7711184792
 20
3.6563616261
 10
12.7658724545
 20
3.6734791115
 10
12.7609949437
 20
3.6910099013
 10
12.7564986215
 20
3.7089041845
 10
12.7523845887
 20
3.7271622586
 10
12.7486517445
 20
3.7457838261
 10
12.7453094625
 20
3.7647181833
 10
12.7423586306
 20
3.7839666418
 10
12.7397983608
 20
3.8035278901
 10
12.7376353622
 20
3.8233472895
 10
12.7358706915
 20
3.8434250648
 10
12.7345032921
 20
3.8637609911
 10
12.733536703
 20
3.884299755
 10
12.7329718974
 20
3.9050418489
 10
12.732807902
 20
3.9259867802
 10
12.7330453366
 20
3.9470777582
 10
12.7336852353
 20
3.9683156159
 10
12.734726564
 20
3.9896995202
 10
12.7361668399
 20
4.0111701806
 10
12.7380070139
 20
4.0327272162
 10
12.7402461352
 20
4.0543710079
 10
12.7428788684
 20
4.0760434086
 10
12.7459062952
 20
4.097745225
 10
12.7493273339
 20
4.1194756503
 10
12.7531334043
 20
4.141174117
 10
12.7573255416
 20
4.1628405676
 10
12.7619027106
 20
4.1844750596
 10
12.7668532257
 20
4.206017197
 10
12.772177861
 20
4.2274661446
 10
12.7778758423
 20
4.2488227376
 10
12.7839331625
 20
4.270029086
 10
12.7903515131
 20
4.2910869943
 10
12.7971292024
 20
4.3119946579
 10
12.804247149
 20
4.3326887731
 10
12.8117051025
 20
4.3531656658
 10
12.8195033132
 20
4.3734290101
 10
12.8276234505
 20
4.3934265238
 10
12.836068472
 20
4.4131621952
 10
12.8448354201
 20
4.432632036
 10
12.8538970916
 20
4.4517717992
 10
12.863251792
 20
4.47057543
 10
12.8729012158
 20
4.4890489832
 10
12.8828232427
 20
4.5071463754
 10
12.8930219887
 20
4.5248723444
 10
12.9034933379
 20
4.5422221525
 10
12.9142028222
 20
4.5591355035
 10
12.9251478022
 20
4.575605885
 10
12.9363309173
 20
4.5916398094
 10
12.947725618
 20
4.6071965186
 10
12.9593360293
 20
4.6222792705
 10
12.9711580262
 20
4.636884807
 10
12.9831526844
 20
4.6509625959
 10
12.995317767
 20
4.6645076708
 10
13.0076555109
 20
4.677524998
 10
13.0201337019
 20
4.6899789444
 10
13.0327549318
 20
4.7018699768
 10
13.0455166089
 20
4.7131976282
 10
13.0583787439
 20
4.7239248649
 10
13.0713405195
 20
4.734048712
 10
13.084402753
 20
4.7435721443
 10
13.0975279076
 20
4.7524670523
 10
13.110703471
 20
4.7607240663
 10
13.1239419554
 20
4.7683525559
 10
13.1372433608
 20
4.7753525214
  0
LINE
  5
30F
100
AcDbEntity
  8
DRAFT
100
AcDbLine
 62
7
  6
CONTINUOUS
 10
2.1507845073
 20
34.8737655601
 11
2.1497424998
 21
34.9018543108
  0
LINE
  5
310
100
AcDbEntity
  8
0
100
AcDbLine
 62
250
  6
CONTINUOUS
 10
2.1855010401
 20
34.9195351068
 11
2.1680939758
 21
35.3887665252
  0
LINE
  5
311
100
AcDbEntity
  8
DRAFT
100
AcDbLine
 62
7
  6
CONTINUOUS
 10
2.7650568302
 20
35.1997323343
 11
2.7824632642
 21
34.7305179078
  0
LINE
  5
312
100
AcDbEntity
  8
RACCORDO
100
AcDbLine
 62
250
  6
CONTINUOUS
 10
3.188986341
 20
29.9724810969
 11
3.2089782281
 21
29.4335722161
  0
LINE
  5
313
100
AcDbEntity
  8
RACCORDO
100
AcDbLine
 62
250
  6
CONTINUOUS
 10
4.6739411368
 20
-10.0565228121
 11
4.6905332493
 21
-10.5037860825
  0
LINE
  5
314
100
AcDbEntity
  8
RACCORDO
100
AcDbLine
 62
7
  6
CONTINUOUS
 10
3.2808265176
 20
30.1770421589
 11
3.3043683087
 21
29.5424407228
  0
LINE
  5
315
100
AcDbEntity
  8
RACCORDO
100
AcDbLine
 62
7
  6
CONTINUOUS
 10
4.7714737855
 20
-10.0054101833
 11
4.7896539176
 21
-10.4954807105
  0
LWPOLYLINE
  5
316
100
AcDbEntity
  8
DRAFT
100
AcDbPolyline
 62
7
  6
CONTINUOUS
 90
5
 70
0
 10
-13.7945185283
 20
-3.4861134553
 10
-13.8109318496
 20
-3.500338096
 10
-13.8279677884
 20
-3.5135219003
 10
-13.8456264096
 20
-3.5256649017
 10
-13.8588686317
 20
-3.5338454138
  0
LWPOLYLINE
  5
317
100
AcDbEntity
  8
DRAFT
100
AcDbPolyline
 62
7
  6
CONTINUOUS
 90
5
 70
0
 10
-12.3581681933
 20
-3.8118388515
 10
-12.3745815146
 20
-3.8260634922
 10
-12.3916174534
 20
-3.8392472965
 10
-12.4092760746
 20
-3.851390298
 10
-12.4225182966
 20
-3.8595708101
  0
LWPOLYLINE
  5
318
100
AcDbEntity
  8
DRAFT
100
AcDbPolyline
 62
7
  6
CONTINUOUS
 90
34
 70
0
 10
-19.6042699719
 20
-2.2309438289
 10
-19.609351785
 20
-2.2338873227
 10
-19.6282986211
 20
-2.2439705872
 10
-19.6477403067
 20
-2.2529478149
 10
-19.6676559001
 20
-2.2608046117
 10
-19.6880664522
 20
-2.2675554283
 10
-19.7089070013
 20
-2.2731782374
 10
-19.7302079706
 20
-2.2776740281
 10
-19.7519390227
 20
-2.2810418557
 10
-19.7739440526
 20
-2.2832567904
 10
-19.7961989402
 20
-2.2843098518
 10
-19.8187278674
 20
-2.2842100525
 10
-19.841447177
 20
-2.2829594491
 10
-19.8643737409
 20
-2.2805528651
 10
-19.8874907186
 20
-2.2769954934
 10
-19.9106638766
 20
-2.2723049411
 10
-19.9338936618
 20
-2.2664725481
 10
-19.9571796273
 20
-2.2595069744
 10
-19.9803861914
 20
-2.2514518028
 10
-20.0034965986
 20
-2.2423094617
 10
-20.0265275729
 20
-2.2320775064
 10
-20.0493937448
 20
-2.220792207
 10
-20.0721207025
 20
-2.2084332631
 10
-20.094682796
 20
-2.195020943
 10
-20.1169177926
 20
-2.1806523666
 10
-20.1387944901
 20
-2.1653424308
 10
-20.1603440049
 20
-2.1490761942
 10
-20.1814975806
 20
-2.1319060186
 10
-20.2022780702
 20
-2.1138075048
 10
-20.2226625114
 20
-2.0948049954
 10
-20.2425134253
 20
-2.0750239647
 10
-20.2617849484
 20
-2.0545062182
 10
-20.2805228259
 20
-2.0332098891
 10
-20.2987269928
 20
-2.0111349437
  0
LWPOLYLINE
  5
319
100
AcDbEntity
  8
DRAFT
100
AcDbPolyline
 62
7
  6
CONTINUOUS
 90
34
 70
0
 10
-18.1679196368
 20
-2.5566692251
 10
-18.17300145
 20
-2.5596127189
 10
-18.1919482861
 20
-2.5696959834
 10
-18.2113899716
 20
-2.5786732111
 10
-18.231305565
 20
-2.5865300079
 10
-18.2517161171
 20
-2.5932808246
 10
-18.2725566663
 20
-2.5989036336
 10
-18.2938576356
 20
-2.6033994243
 10
-18.3155886877
 20
-2.6067672519
 10
-18.3375937176
 20
-2.6089821866
 10
-18.3598486052
 20
-2.6100352481
 10
-18.3823775324
 20
-2.6099354487
 10
-18.4050968419
 20
-2.6086848453
 10
-18.4280234058
 20
-2.6062782614
 10
-18.4511403836
 20
-2.6027208897
 10
-18.4743135416
 20
-2.5980303373
 10
-18.4975433268
 20
-2.5921979443
 10
-18.5208292923
 20
-2.5852323706
 10
-18.5440358564
 20
-2.5771771991
 10
-18.5671462635
 20
-2.5680348579
 10
-18.5901772379
 20
-2.5578029027
 10
-18.6130434097
 20
-2.5465176032
 10
-18.6357703675
 20
-2.5341586593
 10
-18.6583324609
 20
-2.5207463392
 10
-18.6805674576
 20
-2.5063777629
 10
-18.702444155
 20
-2.491067827
 10
-18.7239936699
 20
-2.4748015904
 10
-18.7451472455
 20
-2.4576314148
 10
-18.7659277351
 20
-2.4395329011
 10
-18.7863121763
 20
-2.4205303916
 10
-18.8061630903
 20
-2.4007493609
 10
-18.8254346134
 20
-2.3802316145
 10
-18.8441724909
 20
-2.3589352854
 10
-18.8623766577
 20
-2.3368603399
  0
LINE
  5
31A
100
AcDbEntity
  8
RACCORDO
100
AcDbLine
 62
7
  6
CONTINUOUS
 10
19.9070470848
 20
20.631066931
 11
9.7568465365
 21
15.4435443837
  0
LINE
  5
31B
100
AcDbEntity
  8
RACCORDO
100
AcDbLine
 62
7
  6
CONTINUOUS
 10
19.9849929505
 20
18.5299286527
 11
6.9009176427
 21
11.9739800658
  0
LINE
  5
31C
100
AcDbEntity
  8
RACCORDO
100
AcDbLine
 62
7
  6
CONTINUOUS
 10
18.8978778825
 20
17.4550748475
 11
6.4906825582
 21
11.2519813464
  0
LINE
  5
31D
100
AcDbEntity
  8
DRAFT
100
AcDbLine
 62
7
  6
CONTINUOUS
 10
19.8004094467
 20
17.8965064979
 11
18.8978778825
 21
17.4550748475
  0
LWPOLYLINE
  5
31E
100
AcDbEntity
  8
RACCORDO
100
AcDbPolyline
 62
7
  6
CONTINUOUS
 90
18
 70
0
 10
9.7568465365
 20
15.4435443837
 10
9.7436319774
 20
15.4371135531
 10
9.7304301795
 20
15.4313259652
 10
9.7172411427
 20
15.4261816198
 10
9.7040525242
 20
15.4216771504
 10
9.6908766669
 20
15.4178159236
 10
9.6777505991
 20
15.4146080391
 10
9.6646743447
 20
15.4120555163
 10
9.6516478799
 20
15.4101563358
 10
9.6387081612
 20
15.4089145395
 10
9.6258563904
 20
15.408332022
 10
9.6130913657
 20
15.4084068888
 10
9.6004464382
 20
15.4091374981
 10
9.5879203043
 20
15.410526073
 10
9.5755142676
 20
15.4125703903
 10
9.5632655904
 20
15.4152621392
 10
9.5511773926
 20
15.4186023971
 10
9.542477934
 20
15.4214408234
  0
LINE
  5
31F
100
AcDbEntity
  8
RACCORDO
100
AcDbLine
 62
250
  6
CONTINUOUS
 10
6.6954190932
 20
7.3132318787
 11
7.0783939449
 21
7.1898616413
  0
LWPOLYLINE
  5
320
100
AcDbEntity
  8
RACCORDO
100
AcDbPolyline
 62
7
  6
CONTINUOUS
 90
22
 70
0
 10
6.8595428511
 20
7.167295891
 10
6.8562439027
 20
7.1684691854
 10
6.8442527239
 20
7.173189443
 10
6.8324480985
 20
7.1785621756
 10
6.8208326089
 20
7.1845840929
 10
6.809442488
 20
7.1912335402
 10
6.798282066
 20
7.1985098955
 10
6.7873470126
 20
7.2064137808
 10
6.7766605698
 20
7.2149254072
 10
6.7662198309
 20
7.2240494828
 10
6.7560277026
 20
7.2337812995
 10
6.7461161467
 20
7.2440869444
 10
6.7364896294
 20
7.2549638762
 10
6.7271436846
 20
7.2664146361
 10
6.7180968748
 20
7.278412935
 10
6.7093466606
 20
7.2909648027
 10
6.7008955816
 20
7.3040642094
 10
6.6927698193
 20
7.3176667766
 10
6.6849734106
 20
7.3317681655
 10
6.6775023187
 20
7.3463727148
 10
6.6703706138
 20
7.3614490626
 10
6.6635763716
 20
7.3770045333
  0
LWPOLYLINE
  5
321
100
AcDbEntity
  8
RACCORDO
100
AcDbPolyline
 62
250
  6
CONTINUOUS
 90
6
 70
0
 10
-19.410718383
 20
31.4847692743
 10
-19.4051675459
 20
31.4789563832
 10
-19.3993709339
 20
31.4736892449
 10
-19.3933464223
 20
31.4689834551
 10
-19.3871105513
 20
31.4648504804
 10
-19.380678038
 20
31.4612986731
  0
LINE
  5
322
100
AcDbEntity
  8
DRAFT
100
AcDbLine
 62
7
  6
CONTINUOUS
 10
3.8977778375
 20
35.0564835877
 11
3.9110313956
 21
34.6992156578
  0
LINE
  5
323
100
AcDbEntity
  8
RACCORDO
100
AcDbLine
 62
7
  6
CONTINUOUS
 10
5.7639432997
 20
36.8143359894
 11
5.7699468014
 21
36.6525033245
  0
LWPOLYLINE
  5
324
100
AcDbEntity
  8
DRAFT
100
AcDbPolyline
 62
7
  6
CONTINUOUS
 90
5
 70
0
 10
-10.9218178582
 20
-4.1375642478
 10
-10.9382311795
 20
-4.1517888885
 10
-10.9552671183
 20
-4.1649726927
 10
-10.9729257395
 20
-4.1771156942
 10
-10.9861679616
 20
-4.1852962063
  0
LWPOLYLINE
  5
325
100
AcDbEntity
  8
DRAFT
100
AcDbPolyline
 62
7
  6
CONTINUOUS
 90
5
 70
0
 10
-9.4854675232
 20
-4.463289644
 10
-9.5018808445
 20
-4.4775142847
 10
-9.5189167833
 20
-4.490698089
 10
-9.5365754045
 20
-4.5028410905
 10
-9.5498176266
 20
-4.5110216025
  0
LWPOLYLINE
  5
326
100
AcDbEntity
  8
DRAFT
100
AcDbPolyline
 62
7
  6
CONTINUOUS
 90
34
 70
0
 10
-16.7315693018
 20
-2.8823946214
 10
-16.7366511149
 20
-2.8853381152
 10
-16.755597951
 20
-2.8954213796
 10
-16.7750396366
 20
-2.9043986073
 10
-16.79495523
 20
-2.9122554041
 10
-16.8153657821
 20
-2.9190062208
 10
-16.8362063312
 20
-2.9246290299
 10
-16.8575073005
 20
-2.9291248206
 10
-16.8792383527
 20
-2.9324926481
 10
-16.9012433826
 20
-2.9347075829
 10
-16.9234982702
 20
-2.9357606443
 10
-16.9460271973
 20
-2.935660845
 10
-16.9687465069
 20
-2.9344102416
 10
-16.9916730708
 20
-2.9320036576
 10
-17.0147900485
 20
-2.9284462859
 10
-17.0379632066
 20
-2.9237557335
 10
-17.0611929917
 20
-2.9179233405
 10
-17.0844789572
 20
-2.9109577668
 10
-17.1076855213
 20
-2.9029025953
 10
-17.1307959285
 20
-2.8937602542
 10
-17.1538269028
 20
-2.8835282989
 10
-17.1766930747
 20
-2.8722429994
 10
-17.1994200324
 20
-2.8598840556
 10
-17.2219821259
 20
-2.8464717355
 10
-17.2442171226
 20
-2.8321031591
 10
-17.26609382
 20
-2.8167932233
 10
-17.2876433349
 20
-2.8005269867
 10
-17.3087969105
 20
-2.783356811
 10
-17.3295774001
 20
-2.7652582973
 10
-17.3499618413
 20
-2.7462557879
 10
-17.3698127552
 20
-2.7264747572
 10
-17.3890842783
 20
-2.7059570107
 10
-17.4078221558
 20
-2.6846606816
 10
-17.4260263227
 20
-2.6625857362
  0
LWPOLYLINE
  5
327
100
AcDbEntity
  8
DRAFT
100
AcDbPolyline
 62
7
  6
CONTINUOUS
 90
34
 70
0
 10
-15.2952189667
 20
-3.2081200176
 10
-15.3003007799
 20
-3.2110635114
 10
-15.319247616
 20
-3.2211467759
 10
-15.3386893015
 20
-3.2301240036
 10
-15.358604895
 20
-3.2379808004
 10
-15.379015447
 20
-3.244731617
 10
-15.3998559962
 20
-3.2503544261
 10
-15.4211569655
 20
-3.2548502168
 10
-15.4428880176
 20
-3.2582180444
 10
-15.4648930475
 20
-3.2604329791
 10
-15.4871479351
 20
-3.2614860406
 10
-15.5096768623
 20
-3.2613862412
 10
-15.5323961718
 20
-3.2601356378
 10
-15.5553227358
 20
-3.2577290538
 10
-15.5784397135
 20
-3.2541716821
 10
-15.6016128715
 20
-3.2494811298
 10
-15.6248426567
 20
-3.2436487368
 10
-15.6481286222
 20
-3.2366831631
 10
-15.6713351863
 20
-3.2286279916
 10
-15.6944455935
 20
-3.2194856504
 10
-15.7174765678
 20
-3.2092536951
 10
-15.7403427396
 20
-3.1979683957
 10
-15.7630696974
 20
-3.1856094518
 10
-15.7856317909
 20
-3.1721971317
 10
-15.8078667875
 20
-3.1578285553
 10
-15.8297434849
 20
-3.1425186195
 10
-15.8512929998
 20
-3.1262523829
 10
-15.8724465755
 20
-3.1090822073
 10
-15.8932270651
 20
-3.0909836936
 10
-15.9136115062
 20
-3.0719811841
 10
-15.9334624202
 20
-3.0522001534
 10
-15.9527339433
 20
-3.031682407
 10
-15.9714718208
 20
-3.0103860778
 10
-15.9896759877
 20
-2.9883111324
  0
LINE
  5
328
100
AcDbEntity
  8
RACCORDO
100
AcDbLine
 62
7
  6
CONTINUOUS
 10
10.4203001854
 20
10.2484484223
 11
12.3242619743
 21
11.2223589273
  0
LINE
  5
329
100
AcDbEntity
  8
RACCORDO
100
AcDbLine
 62
7
  6
CONTINUOUS
 10
20.0323734093
 20
17.2527230601
 11
6.9530676205
 21
10.5682055121
  0
LINE
  5
32A
100
AcDbEntity
  8
RACCORDO
100
AcDbLine
 62
7
  6
CONTINUOUS
 10
20.110319275
 20
15.1515847819
 11
7.0262439671
 21
8.595636195
  0
LINE
  5
32B
100
AcDbEntity
  8
0
100
AcDbLine
 62
7
  6
CONTINUOUS
 10
21.6622396594
 20
16.9229776307
 11
20.2687474116
 21
16.2414152265
  0
LINE
  5
32C
100
AcDbEntity
  8
0
100
AcDbLine
 62
7
  6
CONTINUOUS
 10
22.1769866721
 20
16.8407812479
 11
25.4041757062
 21
18.4192117849
  0
LINE
  5
32D
100
AcDbEntity
  8
0
100
AcDbLine
 62
7
  6
CONTINUOUS
 10
22.5279731047
 20
16.121887068
 11
25.7556684794
 21
17.7005652582
  0
LWPOLYLINE
  5
32E
100
AcDbEntity
  8
RACCORDO
100
AcDbPolyline
 62
7
  6
CONTINUOUS
 90
18
 70
0
 10
6.9530676205
 20
10.5682055121
 10
6.9395767423
 20
10.5616402115
 10
6.926098892
 20
10.5557316039
 10
6.9126340698
 20
10.5504796892
 10
6.8991696746
 20
10.5458810304
 10
6.8857183074
 20
10.5419390646
 10
6.8723177708
 20
10.5386641026
 10
6.8589680893
 20
10.536058206
 10
6.8456692385
 20
10.5341193132
 10
6.8324589476
 20
10.5328515507
 10
6.8193384436
 20
10.5322568527
 10
6.8063064996
 20
10.532333285
 10
6.7933971642
 20
10.5330791714
 10
6.7806091062
 20
10.5344967817
 10
6.7679436567
 20
10.5365838461
 10
6.7554388572
 20
10.5393318801
 10
6.7430978927
 20
10.5427419834
 10
6.7342165266
 20
10.5456397618
  0
LINE
  5
32F
100
AcDbEntity
  8
DRAFT
100
AcDbLine
 62
7
  6
CONTINUOUS
 10
-19.5645898307
 20
-1.6607986398
 11
-19.9696293717
 21
-1.8542574806
  0
LINE
  5
330
100
AcDbEntity
  8
DRAFT
100
AcDbLine
 62
7
  6
CONTINUOUS
 10
-18.128239446
 20
-1.9865250873
 11
-18.4831754136
 21
-2.1560754555
  0
LINE
  5
331
100
AcDbEntity
  8
DRAFT
100
AcDbLine
 62
7
  6
CONTINUOUS
 10
-16.691889111
 20
-2.3122504835
 11
-17.0468250785
 21
-2.4818008517
  0
LINE
  5
332
100
AcDbEntity
  8
DRAFT
100
AcDbLine
 62
7
  6
CONTINUOUS
 10
-19.9696293717
 20
-1.8542574806
 11
-20.2987269928
 21
-2.0111349437
  0
LINE
  5
333
100
AcDbEntity
  8
DRAFT
100
AcDbLine
 62
7
  6
CONTINUOUS
 10
-18.4831754136
 20
-2.1560754555
 11
-18.8623766577
 21
-2.3368603399
  0
LINE
  5
334
100
AcDbEntity
  8
DRAFT
100
AcDbLine
 62
7
  6
CONTINUOUS
 10
-17.0468250785
 20
-2.4818008517
 11
-17.4260263227
 21
-2.6625857362
  0
LINE
  5
335
100
AcDbEntity
  8
COPY-PUBBLISH
100
AcDbLine
 62
7
  6
CONTINUOUS
 10
18.9329631058
 20
14.3763554879
 11
12.8913274934
 21
11.519225353
  0
LWPOLYLINE
  5
336
100
AcDbEntity
  8
COPY-PUBBLISH
100
AcDbPolyline
 62
7
  6
CONTINUOUS
 90
4
 70
0
 10
12.8913274934
 20
11.519225353
 10
12.8458852403
 20
11.4994999549
 10
12.796868142
 20
11.4812817364
 10
12.7652183839
 20
11.4712250564
  0
LWPOLYLINE
  5
337
100
AcDbEntity
  8
0
100
AcDbPolyline
 62
7
  6
CONTINUOUS
 90
6
 70
0
 10
25.4042352731
 20
18.4190898423
 10
25.4244166859
 20
18.4277733689
 10
25.4576676797
 20
18.437378977
 10
25.4921390254
 20
18.4417316634
 10
25.5282487807
 20
18.4410253586
 10
25.5659969456
 20
18.4352600628
  0
LINE
  5
338
100
AcDbEntity
  8
0
100
AcDbLine
 62
7
  6
CONTINUOUS
 10
10.9402616229
 20
10.0355881316
 11
10.4238523179
 21
10.1526957907
  0
LINE
  5
339
100
AcDbEntity
  8
DRAFT
100
AcDbLine
 62
7
  6
CONTINUOUS
 10
13.0051548573
 20
11.0679508427
 11
12.3242619743
 21
11.2223589273
  0
LINE
  5
33A
100
AcDbEntity
  8
RACCORDO
100
AcDbLine
 62
250
  6
CONTINUOUS
 10
6.5700927687
 20
10.6915757495
 11
6.9530676205
 21
10.5682055121
  0
LWPOLYLINE
  5
33B
100
AcDbEntity
  8
RACCORDO
100
AcDbPolyline
 62
7
  6
CONTINUOUS
 90
90
 70
0
 10
6.7342165266
 20
10.5456397618
 10
6.7309175782
 20
10.5468130562
 10
6.7189263994
 20
10.5515333139
 10
6.707121774
 20
10.5569060464
 10
6.6955062844
 20
10.5629279637
 10
6.6841161635
 20
10.569577411
 10
6.6729557415
 20
10.5768537663
 10
6.6620206881
 20
10.5847576516
 10
6.6513342453
 20
10.593269278
 10
6.6408935064
 20
10.6023933536
 10
6.6307013781
 20
10.6121251703
 10
6.6207898222
 20
10.6224308152
 10
6.611163305
 20
10.633307747
 10
6.6018173601
 20
10.6447585069
 10
6.5927705503
 20
10.6567568058
 10
6.5840203361
 20
10.6693086735
 10
6.5755692571
 20
10.6824080802
 10
6.5674434948
 20
10.6960106474
 10
6.5596470861
 20
10.7101120363
 10
6.5521759942
 20
10.7247165856
 10
6.5450442894
 20
10.7397929334
 10
6.5382500471
 20
10.7553484041
 10
6.531795192
 20
10.7713756732
 10
6.5256995679
 20
10.7878214056
 10
6.5199665994
 20
10.8046793714
 10
6.5145928619
 20
10.8219558004
 10
6.5095879267
 20
10.8396160467
 10
6.5049505712
 20
10.8576689776
 10
6.500682018
 20
10.8761057258
 10
6.496795506
 20
10.8948650437
 10
6.4932936803
 20
10.9139386588
 10
6.4901738958
 20
10.9333348436
 10
6.4874414561
 20
10.9530171678
 10
6.4850960524
 20
10.9729960222
 10
6.4831379935
 20
10.993261016
 10
6.4815735102
 20
11.0137445465
 10
6.4804042095
 20
11.0344367486
 10
6.4796284845
 20
11.0553474873
 10
6.479247745
 20
11.0764387555
 10
6.4792628203
 20
11.097721651
 10
6.4796728813
 20
11.1191850759
 10
6.48047685
 20
11.1407577289
 10
6.4816751855
 20
11.1624292951
 10
6.4832674288
 20
11.1842100893
 10
6.4852511248
 20
11.2060597548
 10
6.4876282186
 20
11.2279888871
 10
6.490396765
 20
11.2499868905
 10
6.4935484735
 20
11.2719816223
 10
6.4970828124
 20
11.2939633272
 10
6.5010003134
 20
11.3159417604
 10
6.5052942812
 20
11.3378740441
 10
6.5099675603
 20
11.3597695803
 10
6.5150173062
 20
11.3816189671
 10
6.5204282906
 20
11.40335112
 10
6.5261991932
 20
11.4249570725
 10
6.5323313342
 20
11.4464457911
 10
6.5388134458
 20
11.467773091
 10
6.5456491002
 20
11.4889471617
 10
6.5528347252
 20
11.5099598136
 10
6.5603483361
 20
11.5307422928
 10
6.568187926
 20
11.5512862687
 10
6.5763555018
 20
11.5716000718
 10
6.5848350994
 20
11.5916399401
 10
6.5936308355
 20
11.6114127584
 10
6.6027385934
 20
11.6309116419
 10
6.612130059
 20
11.6500721738
 10
6.6218027757
 20
11.668886932
 10
6.6317592001
 20
11.6873633386
 10
6.6419783881
 20
11.7054592436
 10
6.6524644651
 20
11.7231795481
 10
6.6632133056
 20
11.7405193511
 10
6.6741915893
 20
11.757421799
 10
6.6853970684
 20
11.7738811572
 10
6.6968319907
 20
11.7899031603
 10
6.7084697784
 20
11.8054481576
 10
6.7203135793
 20
11.8205182542
 10
6.7323602455
 20
11.8351113449
 10
6.7445737556
 20
11.8491814642
 10
6.756952993
 20
11.8627251038
 10
6.7694990742
 20
11.8757457719
 10
6.7821793277
 20
11.8882080276
 10
6.7949950761
 20
11.9001112268
 10
6.8079449968
 20
11.9114560136
 10
6.8209924504
 20
11.9222088787
 10
6.8341376107
 20
11.9323678609
 10
6.8473803039
 20
11.9419349213
 10
6.8606833698
 20
11.9508824346
 10
6.8740344214
 20
11.9592011922
 10
6.8874458457
 20
11.9669004026
 10
6.9009176427
 20
11.9739800658
  0
LWPOLYLINE
  5
33C
100
AcDbEntity
  8
RACCORDO
100
AcDbPolyline
 62
7
  6
CONTINUOUS
 90
69
 70
0
 10
6.6635763716
 20
7.3770045333
 10
6.6571215164
 20
7.3930318024
 10
6.6510258924
 20
7.4094775348
 10
6.6452929239
 20
7.4263355006
 10
6.6399191864
 20
7.4436119296
 10
6.6349142512
 20
7.4612721759
 10
6.6302768957
 20
7.4793251068
 10
6.6260083425
 20
7.497761855
 10
6.6221218305
 20
7.5165211728
 10
6.6186200047
 20
7.535594788
 10
6.6155002202
 20
7.5549909728
 10
6.6127677806
 20
7.574673297
 10
6.6104223769
 20
7.5946521514
 10
6.608464318
 20
7.6149171452
 10
6.6068998347
 20
7.6354006757
 10
6.605730534
 20
7.6560928778
 10
6.6049548089
 20
7.6770036165
 10
6.6045740695
 20
7.6980948847
 10
6.6045891448
 20
7.7193777802
 10
6.6049992058
 20
7.7408412051
 10
6.6058031745
 20
7.7624138581
 10
6.60700151
 20
7.7840854243
 10
6.6085937533
 20
7.8058662185
 10
6.6105774493
 20
7.827715884
 10
6.6129545431
 20
7.8496450162
 10
6.6157230895
 20
7.8716430197
 10
6.618874798
 20
7.8936377515
 10
6.6224091369
 20
7.9156194564
 10
6.6263266378
 20
7.9375978896
 10
6.6306206057
 20
7.9595301733
 10
6.6352938848
 20
7.9814257095
 10
6.6403436307
 20
8.0032750963
 10
6.6457546151
 20
8.0250072491
 10
6.6515255177
 20
8.0466132017
 10
6.6576576587
 20
8.0681019203
 10
6.6641397703
 20
8.0894292202
 10
6.6709754247
 20
8.1106032909
 10
6.6781610497
 20
8.1316159428
 10
6.6856746606
 20
8.152398422
 10
6.6935142505
 20
8.1729423979
 10
6.7016818263
 20
8.193256201
 10
6.7101614239
 20
8.2132960693
 10
6.71895716
 20
8.2330688876
 10
6.7280649178
 20
8.2525677711
 10
6.7374563834
 20
8.271728303
 10
6.7471291001
 20
8.2905430611
 10
6.7570855246
 20
8.3090194677
 10
6.7673047126
 20
8.3271153728
 10
6.7777907896
 20
8.3448356773
 10
6.7885396301
 20
8.3621754803
 10
6.7995179138
 20
8.3790779281
 10
6.8107233929
 20
8.3955372864
 10
6.8221583152
 20
8.4115592895
 10
6.8337961029
 20
8.4271042868
 10
6.8456399038
 20
8.4421743834
 10
6.85768657
 20
8.4567674741
 10
6.8699000801
 20
8.4708375933
 10
6.8822793175
 20
8.484381233
 10
6.8948253987
 20
8.4974019011
 10
6.9075056522
 20
8.5098641568
 10
6.9203214006
 20
8.521767356
 10
6.9332713213
 20
8.5331121428
 10
6.9463187749
 20
8.5438650079
 10
6.9594639352
 20
8.5540239901
 10
6.9727066284
 20
8.5635910505
 10
6.9860096943
 20
8.5725385638
 10
6.9993607459
 20
8.5808573214
 10
7.0127721702
 20
8.5885565318
 10
7.0262439671
 20
8.595636195
  0
LINE
  5
33D
100
AcDbEntity
  8
0
100
AcDbLine
 62
250
  6
CONTINUOUS
 10
9.5134196446
 20
9.3222251216
 11
9.4944942375
 21
9.8323855633
  0
LINE
  5
33E
100
AcDbEntity
  8
0
100
AcDbLine
 62
250
  6
CONTINUOUS
 10
9.3880933202
 20
12.7005689924
 11
9.3691679131
 21
13.2107294341
  0
LWPOLYLINE
  5
33F
100
AcDbEntity
  8
RACCORDO
100
AcDbPolyline
 62
250
  6
CONTINUOUS
 90
29
 70
0
 10
0.9431080605
 20
-15.9768566495
 10
0.9463360847
 20
-15.9642668456
 10
0.9490100007
 20
-15.9515857174
 10
0.9511220535
 20
-15.9388477802
 10
0.952666128
 20
-15.9260865735
 10
0.9536373131
 20
-15.9133381093
 10
0.9540324491
 20
-15.9006407458
 10
0.9538505044
 20
-15.8880304295
 10
0.9530920447
 20
-15.8755403167
 10
0.9517591012
 20
-15.8632042114
 10
0.9498552354
 20
-15.8510556172
 10
0.9473856223
 20
-15.8391279362
 10
0.9443570476
 20
-15.8274540515
 10
0.9407778183
 20
-15.816065951
 10
0.9366576858
 20
-15.8049946328
 10
0.9320078917
 20
-15.7942703111
 10
0.9268411238
 20
-15.7839222645
 10
0.9211714979
 20
-15.7739787779
 10
0.915014512
 20
-15.7644670364
 10
0.9083869887
 20
-15.7554130274
 10
0.9013070257
 20
-15.7468414735
 10
0.8937939615
 20
-15.738775787
 10
0.8858683049
 20
-15.7312379877
 10
0.8775517154
 20
-15.7242486769
 10
0.8688669489
 20
-15.717826973
 10
0.859837759
 20
-15.7119904247
 10
0.850488787
 20
-15.7067549456
 10
0.8408455297
 20
-15.7021348087
 10
0.8354856181
 20
-15.6998845457
  0
LWPOLYLINE
  5
340
100
AcDbEntity
  8
DRAFT
100
AcDbPolyline
 62
7
  6
CONTINUOUS
 90
5
 70
0
 10
-8.0491171882
 20
-4.7890150402
 10
-8.0655305095
 20
-4.803239681
 10
-8.0825664482
 20
-4.8164234852
 10
-8.1002250695
 20
-4.8285664867
 10
-8.1134672915
 20
-4.8367469988
  0
LWPOLYLINE
  5
341
100
AcDbEntity
  8
DRAFT
100
AcDbPolyline
 62
7
  6
CONTINUOUS
 90
34
 70
0
 10
-13.8588686317
 20
-3.5338454138
 10
-13.8639504449
 20
-3.5367889076
 10
-13.8828972809
 20
-3.5468721721
 10
-13.9023389665
 20
-3.5558493998
 10
-13.9222545599
 20
-3.5637061966
 10
-13.942665112
 20
-3.5704570133
 10
-13.9635056611
 20
-3.5760798223
 10
-13.9848066305
 20
-3.580575613
 10
-14.0065376826
 20
-3.5839434406
 10
-14.0285427125
 20
-3.5861583753
 10
-14.0507976001
 20
-3.5872114368
 10
-14.0733265273
 20
-3.5871116374
 10
-14.0960458368
 20
-3.585861034
 10
-14.1189724007
 20
-3.5834544501
 10
-14.1420893784
 20
-3.5798970784
 10
-14.1652625365
 20
-3.575206526
 10
-14.1884923216
 20
-3.569374133
 10
-14.2117782871
 20
-3.5624085593
 10
-14.2349848512
 20
-3.5543533878
 10
-14.2580952584
 20
-3.5452110467
 10
-14.2811262327
 20
-3.5349790914
 10
-14.3039924046
 20
-3.5236937919
 10
-14.3267193623
 20
-3.511334848
 10
-14.3492814558
 20
-3.4979225279
 10
-14.3715164525
 20
-3.4835539516
 10
-14.3933931499
 20
-3.4682440157
 10
-14.4149426648
 20
-3.4519777792
 10
-14.4360962404
 20
-3.4348076035
 10
-14.45687673
 20
-3.4167090898
 10
-14.4772611712
 20
-3.3977065803
 10
-14.4971120851
 20
-3.3779255497
 10
-14.5163836083
 20
-3.3574078032
 10
-14.5351214857
 20
-3.3361114741
 10
-14.5533256526
 20
-3.3140365287
  0
LWPOLYLINE
  5
342
100
AcDbEntity
  8
DRAFT
100
AcDbPolyline
 62
7
  6
CONTINUOUS
 90
34
 70
0
 10
-12.4225182966
 20
-3.8595708101
 10
-12.4276001098
 20
-3.8625143039
 10
-12.4465469459
 20
-3.8725975684
 10
-12.4659886315
 20
-3.8815747961
 10
-12.4859042249
 20
-3.8894315928
 10
-12.5063147769
 20
-3.8961824095
 10
-12.5271553261
 20
-3.9018052186
 10
-12.5484562954
 20
-3.9063010093
 10
-12.5701873475
 20
-3.9096688369
 10
-12.5921923774
 20
-3.9118837716
 10
-12.614447265
 20
-3.912936833
 10
-12.6369761922
 20
-3.9128370337
 10
-12.6596955018
 20
-3.9115864303
 10
-12.6826220657
 20
-3.9091798463
 10
-12.7057390434
 20
-3.9056224746
 10
-12.7289122014
 20
-3.9009319222
 10
-12.7521419866
 20
-3.8950995292
 10
-12.7754279521
 20
-3.8881339555
 10
-12.7986345162
 20
-3.880078784
 10
-12.8217449234
 20
-3.8709364429
 10
-12.8447758977
 20
-3.8607044876
 10
-12.8676420695
 20
-3.8494191882
 10
-12.8903690273
 20
-3.8370602443
 10
-12.9129311208
 20
-3.8236479242
 10
-12.9351661174
 20
-3.8092793478
 10
-12.9570428149
 20
-3.793969412
 10
-12.9785923297
 20
-3.7777031754
 10
-12.9997459054
 20
-3.7605329998
 10
-13.020526395
 20
-3.742434486
 10
-13.0409108362
 20
-3.7234319766
 10
-13.0607617501
 20
-3.7036509459
 10
-13.0800332732
 20
-3.6831331994
 10
-13.0987711507
 20
-3.6618368703
 10
-13.1169753176
 20
-3.6397619249
  0
LWPOLYLINE
  5
343
100
AcDbEntity
  8
DRAFT
100
AcDbPolyline
 62
7
  6
CONTINUOUS
 90
34
 70
0
 10
-10.9861679616
 20
-4.1852962063
 10
-10.9912497748
 20
-4.1882397001
 10
-11.0101966109
 20
-4.1983229646
 10
-11.0296382964
 20
-4.2073001923
 10
-11.0495538898
 20
-4.2151569891
 10
-11.0699644419
 20
-4.2219078057
 10
-11.0908049911
 20
-4.2275306148
 10
-11.1121059604
 20
-4.2320264055
 10
-11.1338370125
 20
-4.2353942331
 10
-11.1558420424
 20
-4.2376091678
 10
-11.17809693
 20
-4.2386622293
 10
-11.2006258572
 20
-4.2385624299
 10
-11.2233451667
 20
-4.2373118265
 10
-11.2462717306
 20
-4.2349052425
 10
-11.2693887083
 20
-4.2313478709
 10
-11.2925618664
 20
-4.2266573185
 10
-11.3157916516
 20
-4.2208249255
 10
-11.3390776171
 20
-4.2138593518
 10
-11.3622841812
 20
-4.2058041803
 10
-11.3853945883
 20
-4.1966618391
 10
-11.4084255627
 20
-4.1864298838
 10
-11.4312917345
 20
-4.1751445844
 10
-11.4540186923
 20
-4.1627856405
 10
-11.4765807857
 20
-4.1493733204
 10
-11.4988157824
 20
-4.1350047441
 10
-11.5206924798
 20
-4.1196948082
 10
-11.5422419947
 20
-4.1034285716
 10
-11.5633955703
 20
-4.086258396
 10
-11.5841760599
 20
-4.0681598823
 10
-11.6045605011
 20
-4.0491573728
 10
-11.6244114151
 20
-4.0293763421
 10
-11.6436829382
 20
-4.0088585957
 10
-11.6624208157
 20
-3.9875622666
 10
-11.6806249825
 20
-3.9654873211
  0
LWPOLYLINE
  5
344
100
AcDbEntity
  8
0
100
AcDbPolyline
 62
7
  6
CONTINUOUS
 90
26
 70
0
 10
22.2773056864
 20
15.6654412846
 10
22.3178480988
 20
15.6882708284
 10
22.3614570053
 20
15.7212100236
 10
22.4012799792
 20
15.7607393956
 10
22.4360317002
 20
15.8055827626
 10
22.465546675
 20
15.8559134923
 10
22.4899903969
 20
15.911558217
 10
22.5085740262
 20
15.9707206527
 10
22.5211063439
 20
16.0335155449
 10
22.527778569
 20
16.099828148
 10
22.5283755194
 20
16.1675179419
 10
22.5226989691
 20
16.2366298241
 10
22.5109471441
 20
16.3071188971
 10
22.4934995402
 20
16.3767099471
 10
22.4701703271
 20
16.4453736363
 10
22.4411453351
 20
16.5131393026
 10
22.4073615502
 20
16.5778197457
 10
22.3686637254
 20
16.6393142706
 10
22.3252071078
 20
16.6977235723
 10
22.2783944254
 20
16.7511625367
 10
22.2281162023
 20
16.7994689736
 10
22.1744819143
 20
16.8428050732
 10
22.1192227174
 20
16.8797722917
 10
22.0629156634
 20
16.9099044479
 10
22.0049837004
 20
16.9336677229
 10
21.9454268284
 20
16.9510621169
  0
LINE
  5
345
100
AcDbEntity
  8
RACCORDO
100
AcDbLine
 62
7
  6
CONTINUOUS
 10
20.1576997338
 20
13.8743791893
 11
7.0783939449
 21
7.1898616413
  0
LINE
  5
346
100
AcDbEntity
  8
RACCORDO
100
AcDbLine
 62
7
  6
CONTINUOUS
 10
19.023204207
 20
14.0767309766
 11
6.6160088826
 21
7.8736374756
  0
LINE
  5
347
100
AcDbEntity
  8
DRAFT
100
AcDbLine
 62
7
  6
CONTINUOUS
 10
19.9257357712
 20
14.5181626271
 11
19.023204207
 21
14.0767309766
  0
LINE
  5
348
100
AcDbEntity
  8
0
100
AcDbLine
 62
7
  6
CONTINUOUS
 10
22.2773520125
 20
15.6653462089
 11
19.9269202016
 21
14.5157409932
  0
LINE
  5
349
100
AcDbEntity
  8
0
100
AcDbLine
 62
7
  6
CONTINUOUS
 10
20.4144453211
 20
12.3139271953
 11
27.2480465179
 21
15.6562677565
  0
LWPOLYLINE
  5
34A
100
AcDbEntity
  8
RACCORDO
100
AcDbPolyline
 62
7
  6
CONTINUOUS
 90
18
 70
0
 10
7.0783939449
 20
7.1898616413
 10
7.0649030667
 20
7.1832963407
 10
7.0514252165
 20
7.1773877331
 10
7.0379603942
 20
7.1721358184
 10
7.0244959991
 20
7.1675371596
 10
7.0110446319
 20
7.1635951938
 10
6.9976440953
 20
7.1603202318
 10
6.9842944138
 20
7.1577143352
 10
6.970995563
 20
7.1557754424
 10
6.9577852721
 20
7.1545076799
 10
6.9446647681
 20
7.1539129819
 10
6.9316328241
 20
7.1539894141
 10
6.9187234886
 20
7.1547353006
 10
6.9059354307
 20
7.1561529109
 10
6.8932699812
 20
7.1582399753
 10
6.8807651817
 20
7.1609880092
 10
6.8684242172
 20
7.1643981126
 10
6.8595428511
 20
7.167295891
  0
LINE
  5
34B
100
AcDbEntity
  8
DRAFT
100
AcDbLine
 62
7
  6
CONTINUOUS
 10
-15.2555387759
 20
-2.6379758798
 11
-15.6104747435
 21
-2.807526248
  0
LINE
  5
34C
100
AcDbEntity
  8
DRAFT
100
AcDbLine
 62
7
  6
CONTINUOUS
 10
-13.8191884409
 20
-2.963701276
 11
-14.1741244084
 21
-3.1332516442
  0
LINE
  5
34D
100
AcDbEntity
  8
DRAFT
100
AcDbLine
 62
7
  6
CONTINUOUS
 10
-12.3828381058
 20
-3.2894266722
 11
-12.7377740734
 21
-3.4589770405
  0
LINE
  5
34E
100
AcDbEntity
  8
DRAFT
100
AcDbLine
 62
7
  6
CONTINUOUS
 10
-15.6104747435
 20
-2.807526248
 11
-15.9896759877
 21
-2.9883111324
  0
LINE
  5
34F
100
AcDbEntity
  8
DRAFT
100
AcDbLine
 62
7
  6
CONTINUOUS
 10
-14.1741244084
 20
-3.1332516442
 11
-14.5533256526
 21
-3.3140365287
  0
LINE
  5
350
100
AcDbEntity
  8
DRAFT
100
AcDbLine
 62
7
  6
CONTINUOUS
 10
-12.7377740734
 20
-3.4589770405
 11
-13.1169753176
 21
-3.6397619249
  0
LWPOLYLINE
  5
351
100
AcDbEntity
  8
0
100
AcDbPolyline
 62
7
  6
CONTINUOUS
 90
7
 70
0
 10
27.248092775
 20
15.6561728222
 10
27.255090376
 20
15.6594872334
 10
27.3063921721
 20
15.6790266681
 10
27.3598229898
 20
15.6913459318
 10
27.4148308672
 20
15.6962348731
 10
27.4719677662
 20
15.6939036434
 10
27.5312336869
 20
15.6843522427
  0
LINE
  5
352
100
AcDbEntity
  8
RACCORDO
100
AcDbLine
 62
7
  6
CONTINUOUS
 10
20.1955508075
 20
7.7532193019
 11
20.1763884202
 21
7.7614748855
  0
LWPOLYLINE
  5
353
100
AcDbEntity
  8
RACCORDO
100
AcDbPolyline
 62
250
  6
CONTINUOUS
 90
15
 70
0
 10
-0.7170714879
 20
28.7755720583
 10
-0.7130568341
 20
28.7669571758
 10
-0.7095982149
 20
28.7584855471
 10
-0.7067055273
 20
28.7501804
 10
-0.7043869495
 20
28.7420637999
 10
-0.7026495852
 20
28.7341588488
 10
-0.7014989028
 20
28.7264894162
 10
-0.7009380716
 20
28.7190771835
 10
-0.7009684777
 20
28.7119416085
 10
-0.7015900607
 20
28.705102011
 10
-0.7028011919
 20
28.6985769875
 10
-0.7045986016
 20
28.6923844997
 10
-0.7069773577
 20
28.6865416275
 10
-0.7099309335
 20
28.6810643781
 10
-0.7115868717
 20
28.678516771
  0
LINE
  5
354
100
AcDbEntity
  8
0
100
AcDbLine
 62
7
  6
CONTINUOUS
 10
10.5628473016
 20
6.4058943665
 11
10.5438847442
 21
6.9170562447
  0
LINE
  5
355
100
AcDbEntity
  8
0
100
AcDbLine
 62
7
  6
CONTINUOUS
 10
10.4375209771
 20
9.7842382373
 11
10.4185584198
 21
10.2954001155
  0
LINE
  5
356
100
AcDbEntity
  8
0
100
AcDbLine
 62
7
  6
CONTINUOUS
 10
10.3121946526
 20
13.1625821081
 11
10.2932320953
 21
13.6737439863
  0
LINE
  5
357
100
AcDbEntity
  8
0
100
AcDbLine
 62
7
  6
CONTINUOUS
 10
10.1868683281
 20
16.5409259789
 11
10.1679057708
 21
17.0520878571
  0
LINE
  5
358
100
AcDbEntity
  8
DRAFT
100
AcDbLine
 62
7
  6
CONTINUOUS
 10
11.5865639339
 20
10.8450131868
 11
11.5852662345
 21
10.8799944617
  0
LINE
  5
359
100
AcDbEntity
  8
COPY-PUBBLISH
100
AcDbLine
 62
250
  6
CONTINUOUS
 10
11.9410138823
 20
7.0949216556
 11
11.9219959205
 21
7.6075770348
  0
LINE
  5
35A
100
AcDbEntity
  8
COPY-PUBBLISH
100
AcDbLine
 62
250
  6
CONTINUOUS
 10
11.6903612333
 20
13.8516093972
 11
11.6713432716
 21
14.3642647764
  0
LINE
  5
35B
100
AcDbEntity
  8
COPY-PUBBLISH
100
AcDbLine
 62
250
  6
CONTINUOUS
 10
11.5650349088
 20
17.229953268
 11
11.5460169471
 21
17.7426086472
  0
LWPOLYLINE
  5
35C
100
AcDbEntity
  8
DRAFT
100
AcDbPolyline
 62
7
  6
CONTINUOUS
 90
34
 70
0
 10
-9.5498176266
 20
-4.5110216025
 10
-9.5548994397
 20
-4.5139650963
 10
-9.5738462758
 20
-4.5240483608
 10
-9.5932879614
 20
-4.5330255885
 10
-9.6132035548
 20
-4.5408823853
 10
-9.6336141069
 20
-4.547633202
 10
-9.654454656
 20
-4.553256011
 10
-9.6757556253
 20
-4.5577518017
 10
-9.6974866774
 20
-4.5611196293
 10
-9.7194917073
 20
-4.563334564
 10
-9.741746595
 20
-4.5643876255
 10
-9.7642755221
 20
-4.5642878261
 10
-9.7869948317
 20
-4.5630372227
 10
-9.8099213956
 20
-4.5606306388
 10
-9.8330383733
 20
-4.5570732671
 10
-9.8562115313
 20
-4.5523827147
 10
-9.8794413165
 20
-4.5465503217
 10
-9.902727282
 20
-4.539584748
 10
-9.9259338461
 20
-4.5315295765
 10
-9.9490442533
 20
-4.5223872354
 10
-9.9720752276
 20
-4.5121552801
 10
-9.9949413995
 20
-4.5008699806
 10
-10.0176683572
 20
-4.4885110368
 10
-10.0402304507
 20
-4.4750987166
 10
-10.0624654473
 20
-4.4607301403
 10
-10.0843421448
 20
-4.4454202044
 10
-10.1058916596
 20
-4.4291539679
 10
-10.1270452353
 20
-4.4119837922
 10
-10.1478257249
 20
-4.3938852785
 10
-10.1682101661
 20
-4.3748827691
 10
-10.18806108
 20
-4.3551017384
 10
-10.2073326031
 20
-4.3345839919
 10
-10.2260704806
 20
-4.3132876628
 10
-10.2442746475
 20
-4.2912127174
  0
LWPOLYLINE
  5
35D
100
AcDbEntity
  8
DRAFT
100
AcDbPolyline
 62
7
  6
CONTINUOUS
 90
34
 70
0
 10
-8.1134672915
 20
-4.8367469988
 10
-8.1185491047
 20
-4.8396904926
 10
-8.1374959408
 20
-4.8497737571
 10
-8.1569376263
 20
-4.8587509848
 10
-8.1768532197
 20
-4.8666077816
 10
-8.1972637718
 20
-4.8733585982
 10
-8.218104321
 20
-4.8789814073
 10
-8.2394052903
 20
-4.883477198
 10
-8.2611363424
 20
-4.8868450256
 10
-8.2831413723
 20
-4.8890599603
 10
-8.3053962599
 20
-4.8901130217
 10
-8.3279251871
 20
-4.8900132224
 10
-8.3506444966
 20
-4.888762619
 10
-8.3735710605
 20
-4.886356035
 10
-8.3966880383
 20
-4.8827986633
 10
-8.4198611963
 20
-4.878108111
 10
-8.4430909815
 20
-4.8722757179
 10
-8.466376947
 20
-4.8653101443
 10
-8.4895835111
 20
-4.8572549727
 10
-8.5126939182
 20
-4.8481126316
 10
-8.5357248926
 20
-4.8378806763
 10
-8.5585910644
 20
-4.8265953769
 10
-8.5813180222
 20
-4.814236433
 10
-8.6038801156
 20
-4.8008241129
 10
-8.6261151123
 20
-4.7864555365
 10
-8.6479918097
 20
-4.7711456007
 10
-8.6695413246
 20
-4.7548793641
 10
-8.6906949003
 20
-4.7377091885
 10
-8.7114753899
 20
-4.7196106747
 10
-8.731859831
 20
-4.7006081653
 10
-8.751710745
 20
-4.6808271346
 10
-8.7709822681
 20
-4.6603093881
 10
-8.7897201456
 20
-4.639013059
 10
-8.8079243124
 20
-4.6169381136
  0
LWPOLYLINE
  5
35E
100
AcDbEntity
  8
0
100
AcDbPolyline
 62
7
  6
CONTINUOUS
 90
24
 70
0
 10
31.3414157709
 20
16.4339773266
 10
31.3528469424
 20
16.4399583993
 10
31.3815669437
 20
16.4591001976
 10
31.4072780658
 20
16.4828992005
 10
31.4300966049
 20
16.5111754024
 10
31.4491172757
 20
16.542806995
 10
31.4641873853
 20
16.5779288815
 10
31.4754596267
 20
16.6164061587
 10
31.4824867935
 20
16.6567123087
 10
31.4850982129
 20
16.698920861
 10
31.4834645578
 20
16.7429582861
 10
31.4776506406
 20
16.7870774768
 10
31.4674883942
 20
16.8312817206
 10
31.4531458856
 20
16.8755677301
 10
31.4351921286
 20
16.9181785362
 10
31.4134819331
 20
16.9590467873
 10
31.3881604892
 20
16.9982398349
 10
31.3602323805
 20
17.0342027641
 10
31.329592806
 20
17.0668057083
 10
31.2963465667
 20
17.0961785341
 10
31.2618126482
 20
17.1211559265
 10
31.2264307126
 20
17.1413494472
 10
31.1897610979
 20
17.1571475345
 10
31.1518038041
 20
17.1685501885
  0
LINE
  5
35F
100
AcDbEntity
  8
RACCORDO
100
AcDbLine
 62
7
  6
CONTINUOUS
 10
20.2830260583
 20
10.4960353185
 11
10.1328255099
 21
5.3085127713
  0
LINE
  5
360
100
AcDbEntity
  8
RACCORDO
100
AcDbLine
 62
7
  6
CONTINUOUS
 10
20.2356455995
 20
11.7732409111
 11
10.081743664
 21
6.6854943582
  0
LINE
  5
361
100
AcDbEntity
  8
RACCORDO
100
AcDbLine
 62
7
  6
CONTINUOUS
 10
19.1485305315
 20
10.6983871058
 11
9.6780183296
 21
5.9635158352
  0
LINE
  5
362
100
AcDbEntity
  8
0
100
AcDbLine
 62
7
  6
CONTINUOUS
 10
30.9899825647
 20
17.1525019107
 11
27.7627940146
 21
15.5740716103
  0
LINE
  5
363
100
AcDbEntity
  8
DRAFT
100
AcDbLine
 62
7
  6
CONTINUOUS
 10
20.0510620957
 20
11.1398187563
 11
19.1485305315
 21
10.6983871058
  0
LINE
  5
364
100
AcDbEntity
  8
0
100
AcDbLine
 62
7
  6
CONTINUOUS
 10
31.3414753379
 20
16.4338553839
 11
28.1137795997
 21
14.855177016
  0
LINE
  5
365
100
AcDbEntity
  8
0
100
AcDbLine
 62
7
  6
CONTINUOUS
 10
20.4676525808
 20
10.7814658367
 11
27.863158871
 21
14.3986363347
  0
LWPOLYLINE
  5
366
100
AcDbEntity
  8
RACCORDO
100
AcDbPolyline
 62
7
  6
CONTINUOUS
 90
18
 70
0
 10
10.1328255099
 20
5.3085127713
 10
10.1196109509
 20
5.3020819407
 10
10.1064091529
 20
5.2962943527
 10
10.0932201161
 20
5.2911500074
 10
10.0800314977
 20
5.286645538
 10
10.0668556403
 20
5.2827843112
 10
10.0537295725
 20
5.2795764267
 10
10.0406533182
 20
5.2770239039
 10
10.0276268534
 20
5.2751247233
 10
10.0146871347
 20
5.2738829271
 10
10.0018353639
 20
5.2733004096
 10
9.9890703392
 20
5.2733752764
 10
9.9764254117
 20
5.2741058857
 10
9.9638992778
 20
5.2754944605
 10
9.9514932411
 20
5.2775387779
 10
9.9392445639
 20
5.2802305268
 10
9.9271563661
 20
5.2835707847
 10
9.9184569075
 20
5.286409211
  0
LINE
  5
367
100
AcDbEntity
  8
DRAFT
100
AcDbLine
 62
7
  6
CONTINUOUS
 10
-10.9464877708
 20
-3.6151520685
 11
-11.3014237383
 21
-3.7847024367
  0
LINE
  5
368
100
AcDbEntity
  8
DRAFT
100
AcDbLine
 62
7
  6
CONTINUOUS
 10
-9.5101374358
 20
-3.9408774647
 11
-9.8650734033
 21
-4.1104278329
  0
LINE
  5
369
100
AcDbEntity
  8
DRAFT
100
AcDbLine
 62
7
  6
CONTINUOUS
 10
-8.0737871007
 20
-4.2666028609
 11
-8.4287230683
 21
-4.4361532292
  0
LINE
  5
36A
100
AcDbEntity
  8
DRAFT
100
AcDbLine
 62
7
  6
CONTINUOUS
 10
-11.3014237383
 20
-3.7847024367
 11
-11.6806249825
 21
-3.9654873211
  0
LINE
  5
36B
100
AcDbEntity
  8
DRAFT
100
AcDbLine
 62
7
  6
CONTINUOUS
 10
-9.8650734033
 20
-4.1104278329
 11
-10.2442746475
 21
-4.2912127174
  0
LINE
  5
36C
100
AcDbEntity
  8
DRAFT
100
AcDbLine
 62
7
  6
CONTINUOUS
 10
-8.4287230683
 20
-4.4361532292
 11
-8.8079243124
 21
-4.6169381136
  0
LINE
  5
36D
100
AcDbEntity
  8
RACCORDO
100
AcDbLine
 62
250
  6
CONTINUOUS
 10
9.7568465365
 20
15.4435443837
 11
9.3817157463
 21
15.5643877614
  0
LWPOLYLINE
  5
36E
100
AcDbEntity
  8
RACCORDO
100
AcDbPolyline
 62
7
  6
CONTINUOUS
 90
90
 70
0
 10
9.542477934
 20
15.4214408234
 10
9.5392465544
 20
15.4225900865
 10
9.527500978
 20
15.4272136642
 10
9.5159381341
 20
15.4324763528
 10
9.504560552
 20
15.4383749297
 10
9.4934037227
 20
15.4448881835
 10
9.4824718876
 20
15.4520155051
 10
9.4717608051
 20
15.4597575036
 10
9.4612932412
 20
15.4680947955
 10
9.4510663488
 20
15.4770319925
 10
9.4410829749
 20
15.4865644829
 10
9.4313744267
 20
15.4966590484
 10
9.421945079
 20
15.5073131996
 10
9.412790557
 20
15.5185294259
 10
9.4039290434
 20
15.5302819766
 10
9.3953580504
 20
15.5425767579
 10
9.3870800657
 20
15.5554078636
 10
9.3791207346
 20
15.5687318241
 10
9.3714840114
 20
15.5825443894
 10
9.3641659418
 20
15.5968498094
 10
9.357180308
 20
15.6116173646
 10
9.3505252249
 20
15.6268542293
 10
9.3442025776
 20
15.6425532292
 10
9.3382318037
 20
15.6586621213
 10
9.3326162574
 20
15.6751748036
 10
9.3273525844
 20
15.6920973781
 10
9.3224501599
 20
15.7093959086
 10
9.3179077864
 20
15.7270790807
 10
9.3137266613
 20
15.7451382088
 10
9.3099197525
 20
15.7635132998
 10
9.3064896509
 20
15.7821962506
 10
9.3034337656
 20
15.8011951642
 10
9.3007572916
 20
15.8204743566
 10
9.2984599262
 20
15.8400440056
 10
9.2965419722
 20
15.8598939334
 10
9.2950095325
 20
15.8799579217
 10
9.2938641814
 20
15.9002263077
 10
9.2931043446
 20
15.9207087543
 10
9.2927314034
 20
15.9413680327
 10
9.29274617
 20
15.9622150136
 10
9.2931478321
 20
15.9832388263
 10
9.293935334
 20
16.0043696299
 10
9.2951091253
 20
16.0255973207
 10
9.2966687564
 20
16.0469320024
 10
9.2986118225
 20
16.0683341447
 10
9.3009402288
 20
16.0898141261
 10
9.3036520701
 20
16.1113615682
 10
9.3067392256
 20
16.1329058055
 10
9.3102011744
 20
16.1544372828
 10
9.3140384374
 20
16.1759655554
 10
9.3182444565
 20
16.1974486237
 10
9.3228220178
 20
16.2188956973
 10
9.3277683352
 20
16.2402975666
 10
9.3330684922
 20
16.2615846032
 10
9.3387211957
 20
16.2827480242
 10
9.3447277387
 20
16.3037966126
 10
9.3510770841
 20
16.3246870883
 10
9.3577727312
 20
16.3454274733
 10
9.3648111808
 20
16.3660097457
 10
9.3721708984
 20
16.3863665598
 10
9.3798499185
 20
16.4064897555
 10
9.3878502066
 20
16.4263874929
 10
9.3961561258
 20
16.4460169061
 10
9.4047717082
 20
16.4653847391
 10
9.4136929217
 20
16.4844842479
 10
9.422892032
 20
16.5032523353
 10
9.4323666329
 20
16.521681731
 10
9.4421191306
 20
16.5397797052
 10
9.45212901
 20
16.5575049713
 10
9.4624003119
 20
16.57486233
 10
9.4729289955
 20
16.5918469804
 10
9.4836824228
 20
16.6084032336
 10
9.4946583922
 20
16.6245254726
 10
9.5058591053
 20
16.6402193142
 10
9.5172585287
 20
16.6554459201
 10
9.5288597457
 20
16.6702073521
 10
9.5406596731
 20
16.6845015482
 10
9.552623027
 20
16.6982834844
 10
9.5647487138
 20
16.7115497242
 10
9.5770378271
 20
16.724303704
 10
9.5894583647
 20
16.7365107087
 10
9.6020116219
 20
16.7481701076
 10
9.6146963033
 20
16.7592825313
 10
9.62747652
 20
16.769815157
 10
9.6403524421
 20
16.7797660637
 10
9.6533238995
 20
16.7891371723
 10
9.6663544929
 20
16.7979014233
 10
9.6794320894
 20
16.8060497967
 10
9.6925688219
 20
16.8135913125
 10
9.7057646905
 20
16.8205259706
  0
LINE
  5
36F
100
AcDbEntity
  8
RACCORDO
100
AcDbLine
 62
7
  6
CONTINUOUS
 10
20.0702244831
 20
11.1315631727
 11
20.0510620957
 21
11.1398187563
  0
LWPOLYLINE
  5
370
100
AcDbEntity
  8
RACCORDO
100
AcDbPolyline
 62
250
  6
CONTINUOUS
 90
6
 70
0
 10
-4.329039865
 20
28.0646526138
 10
-4.323489028
 20
28.0588397228
 10
-4.317692416
 20
28.0535725845
 10
-4.3116679044
 20
28.0488667946
 10
-4.3054320334
 20
28.0447338199
 10
-4.2989995201
 20
28.0411820127
  0
LINE
  5
371
100
AcDbEntity
  8
COPY-PUBBLISH
100
AcDbLine
 62
250
  6
CONTINUOUS
 10
13.1604889313
 20
4.2636076868
 11
13.1414988916
 21
4.7755103887
  0
LINE
  5
372
100
AcDbEntity
  8
COPY-PUBBLISH
100
AcDbLine
 62
250
  6
CONTINUOUS
 10
13.0351626068
 20
7.6419515576
 11
13.0161006586
 21
8.1557926513
  0
LINE
  5
373
100
AcDbEntity
  8
COPY-PUBBLISH
100
AcDbLine
 62
250
  6
CONTINUOUS
 10
12.8913274934
 20
11.519225353
 11
12.8907743342
 21
11.5341365221
  0
LINE
  5
374
100
AcDbEntity
  8
COPY-PUBBLISH
100
AcDbLine
 62
250
  6
CONTINUOUS
 10
12.7845099578
 20
14.3986392992
 11
12.7654480097
 21
14.9124803929
  0
LINE
  5
375
100
AcDbEntity
  8
COPY-PUBBLISH
100
AcDbLine
 62
250
  6
CONTINUOUS
 10
12.6591836333
 20
17.77698317
 11
12.6401216852
 21
18.2908242637
  0
LINE
  5
376
100
AcDbEntity
  8
COPY-PUBBLISH
100
AcDbLine
 62
250
  6
CONTINUOUS
 10
12.5338573088
 20
21.1553270408
 11
12.5148672692
 21
21.6672297427
  0
LINE
  5
377
100
AcDbEntity
  8
RACCORDO
100
AcDbLine
 62
7
  6
CONTINUOUS
 10
-2.7703817683
 20
-16.3323801227
 11
-2.6026243912
 21
-16.0889659061
  0
LINE
  5
378
100
AcDbEntity
  8
RACCORDO
100
AcDbLine
 62
250
  6
CONTINUOUS
 10
-2.6472814997
 20
-16.3078579015
 11
-2.457132786
 21
-16.0319540874
  0
LWPOLYLINE
  5
379
100
AcDbEntity
  8
RACCORDO
100
AcDbPolyline
 62
250
  6
CONTINUOUS
 90
18
 70
0
 10
-2.7703817683
 20
-16.3323801227
 10
-2.7685183765
 20
-16.3298324852
 10
-2.7644408626
 20
-16.3251302032
 10
-2.7598173075
 20
-16.3208352
 10
-2.7546603421
 20
-16.3169592177
 10
-2.7489840626
 20
-16.3135128542
 10
-2.7428039784
 20
-16.3105055251
 10
-2.7361369655
 20
-16.3079454417
 10
-2.7290012343
 20
-16.3058395966
 10
-2.7214162636
 20
-16.3041937397
 10
-2.7134027815
 20
-16.3030123699
 10
-2.7049827152
 20
-16.3022987162
 10
-2.6961790951
 20
-16.3020547215
 10
-2.6870159476
 20
-16.3022810429
 10
-2.6775182633
 20
-16.30297706
 10
-2.6677119693
 20
-16.3041408733
 10
-2.6576238634
 20
-16.3057693032
 10
-2.6472814997
 20
-16.3078579015
  0
LINE
  5
37A
100
AcDbEntity
  8
RACCORDO
100
AcDbLine
 62
7
  6
CONTINUOUS
 10
20.4083523828
 20
7.1176914477
 11
13.1872570749
 21
3.4271639013
  0
LINE
  5
37B
100
AcDbEntity
  8
RACCORDO
100
AcDbLine
 62
7
  6
CONTINUOUS
 10
20.360971924
 20
8.3948970403
 11
13.1372433608
 21
4.7753525214
  0
LINE
  5
37C
100
AcDbEntity
  8
RACCORDO
100
AcDbLine
 62
7
  6
CONTINUOUS
 10
19.273856856
 20
7.320043235
 11
12.7401514789
 21
4.0534560408
  0
LINE
  5
37D
100
AcDbEntity
  8
DRAFT
100
AcDbLine
 62
7
  6
CONTINUOUS
 10
20.1763884202
 20
7.7614748855
 11
19.273856856
 21
7.320043235
  0
LWPOLYLINE
  5
37E
100
AcDbEntity
  8
RACCORDO
100
AcDbPolyline
 62
7
  6
CONTINUOUS
 90
18
 70
0
 10
13.1872570749
 20
3.4271639013
 10
13.1739361125
 20
3.4206911218
 10
13.1606299787
 20
3.4148862132
 10
13.1473386737
 20
3.4097491756
 10
13.1340494639
 20
3.4052766027
 10
13.1207750827
 20
3.4014719008
 10
13.1075537309
 20
3.3983452888
 10
13.0943844045
 20
3.3958988197
 10
13.0812681074
 20
3.3941304406
 10
13.0682460521
 20
3.393044211
 10
13.0553207687
 20
3.3926422561
 10
13.042489727
 20
3.3929224508
 10
13.0297865489
 20
3.3938824794
 10
13.0172087185
 20
3.3955249029
 10
13.0047587517
 20
3.3978471603
 10
12.9924778185
 20
3.4008392524
 10
12.9803701289
 20
3.4045021394
 10
12.9773708785
 20
3.4055222001
  0
LWPOLYLINE
  5
37F
100
AcDbEntity
  8
0
100
AcDbPolyline
 62
7
  6
CONTINUOUS
 90
7
 70
0
 10
21.9454268284
 20
16.9510621169
 10
21.8861579751
 20
16.9606136674
 10
21.8290185683
 20
16.962944502
 10
21.7740086079
 20
16.9580546206
 10
21.7205761086
 20
16.9457337696
 10
21.6692730557
 20
16.9261922028
 10
21.6622859494
 20
16.9228826291
  0
LINE
  5
380
100
AcDbEntity
  8
RACCORDO
100
AcDbLine
 62
250
  6
CONTINUOUS
 10
-23.376346201
 20
26.6267362077
 11
-6.6464569639
 21
22.8328499477
  0
LINE
  5
381
100
AcDbEntity
  8
RACCORDO
100
AcDbLine
 62
7
  6
CONTINUOUS
 10
19.9448981586
 20
14.5099070435
 11
19.9257357712
 21
14.5181626271
  0
LINE
  5
382
100
AcDbEntity
  8
RACCORDO
100
AcDbLine
 62
250
  6
CONTINUOUS
 10
-19.380678038
 20
31.4612986731
 11
-19.374065152
 21
31.4583358536
  0
LWPOLYLINE
  5
383
100
AcDbEntity
  8
RACCORDO
100
AcDbPolyline
 62
7
  6
CONTINUOUS
 90
92
 70
0
 10
20.4231774072
 20
8.4288309042
 10
20.445465109
 20
8.409277553
 10
20.4911617465
 20
8.3676633761
 10
20.5362480633
 20
8.3250641878
 10
20.580690236
 20
8.2815151813
 10
20.6244539926
 20
8.2370547124
 10
20.6675380363
 20
8.1916887567
 10
20.7099573065
 20
8.1454033473
 10
20.7517149629
 20
8.0981934179
 10
20.7927692587
 20
8.0501043402
 10
20.8330681928
 20
8.0011984843
 10
20.8725826402
 20
7.9515154954
 10
20.9113094395
 20
7.9010635337
 10
20.9492373991
 20
7.8498600437
 10
20.9863496235
 20
7.7979302837
 10
21.0226314425
 20
7.7452970817
 10
21.0580745621
 20
7.6919739669
 10
21.0926688066
 20
7.6379765188
 10
21.1263931892
 20
7.5833375613
 10
21.1592237973
 20
7.5280970197
 10
21.191143432
 20
7.472286016
 10
21.2221418646
 20
7.415924451
 10
21.2522067315
 20
7.3590361965
 10
21.2813249626
 20
7.3016470666
 10
21.3094838167
 20
7.2437830436
 10
21.3366717335
 20
7.1854684112
 10
21.362876559
 20
7.1267294007
 10
21.3880864808
 20
7.0675923834
 10
21.4122907847
 20
7.0080819653
 10
21.4354808343
 20
6.9482179111
 10
21.4576429467
 20
6.8880336951
 10
21.4787602441
 20
6.827574863
 10
21.4988198022
 20
6.766880219
 10
21.5178169515
 20
6.7059654263
 10
21.5357478947
 20
6.6448414071
 10
21.5526049104
 20
6.5835307854
 10
21.5683780821
 20
6.5220652554
 10
21.5830598933
 20
6.4604691298
 10
21.5966458962
 20
6.3987529521
 10
21.6091243288
 20
6.3369608153
 10
21.6204796834
 20
6.275167376
 10
21.6307027405
 20
6.2134314577
 10
21.6397956439
 20
6.1517489924
 10
21.6477605233
 20
6.0901001723
 10
21.6545941465
 20
6.0284877621
 10
21.6602877413
 20
5.966963745
 10
21.6648345997
 20
5.9055818941
 10
21.6682317386
 20
5.8443659882
 10
21.6704761157
 20
5.783346506
 10
21.6715650474
 20
5.722586421
 10
21.6714988758
 20
5.662139064
 10
21.6702787811
 20
5.6020036243
 10
21.6679033792
 20
5.5421616696
 10
21.664368848
 20
5.4826047754
 10
21.65967524
 20
5.4233951616
 10
21.6538285178
 20
5.3646195813
 10
21.6468343387
 20
5.3063213164
 10
21.6386947557
 20
5.2485071342
 10
21.6294147585
 20
5.191207232
 10
21.6190013927
 20
5.1344578279
 10
21.6074579921
 20
5.0782712342
 10
21.5947830374
 20
5.0226420596
 10
21.5809702259
 20
4.9675553947
 10
21.5660328564
 20
4.9130764605
 10
21.5500031226
 20
4.8593176462
 10
21.5329052538
 20
4.8063401221
 10
21.5147387197
 20
4.7541237568
 10
21.495502586
 20
4.7026567371
 10
21.4752040244
 20
4.651953995
 10
21.4538557972
 20
4.6020435813
 10
21.4314631846
 20
4.5529349047
 10
21.408019443
 20
4.5046149646
 10
21.3835511804
 20
4.4571404454
 10
21.358119677
 20
4.410620929
 10
21.3317726968
 20
4.3651225896
 10
21.3045005384
 20
4.3206083634
 10
21.2762807006
 20
4.2770314982
 10
21.2471162059
 20
4.2343935514
 10
21.2170332214
 20
4.1927297744
 10
21.1860399964
 20
4.1520481418
 10
21.1541343108
 20
4.1123449406
 10
21.1213491692
 20
4.0736604243
 10
21.0877498498
 20
4.0360646822
 10
21.053389444
 20
3.999603287
 10
21.0182588246
 20
3.9642529995
 10
20.9823312679
 20
3.9299799905
 10
20.945608836
 20
3.8967842753
 10
20.9081271684
 20
3.8646960516
 10
20.8699076519
 20
3.8337302419
 10
20.8309714004
 20
3.8039003832
 10
20.7913389908
 20
3.7752186075
 10
20.7510318973
 20
3.7476967899
  0
LWPOLYLINE
  5
384
100
AcDbEntity
  8
RACCORDO
100
AcDbPolyline
 62
250
  6
CONTINUOUS
 90
94
 70
0
 10
20.3776801888
 20
8.403453419
 10
20.3938481596
 20
8.3890172699
 10
20.4380196241
 20
8.3481490345
 10
20.4816534382
 20
8.3063333498
 10
20.5247295297
 20
8.2635894516
 10
20.5672280764
 20
8.2199370068
 10
20.6091294859
 20
8.1753961372
 10
20.6504144301
 20
8.1299873889
 10
20.6910638738
 20
8.0837317012
 10
20.7310591181
 20
8.0366503553
 10
20.7703817767
 20
7.9887649948
 10
20.8090137615
 20
7.9400976428
 10
20.8469372545
 20
7.8906707419
 10
20.8841347525
 20
7.840507105
 10
20.9205891
 20
7.7896298719
 10
20.9562835341
 20
7.738062442
 10
20.9912016534
 20
7.6858285104
 10
21.025327399
 20
7.6329520942
 10
21.0586450267
 20
7.5794575834
 10
21.0911391538
 20
7.5253696764
 10
21.1227947923
 20
7.4707133271
 10
21.1535973892
 20
7.4155136683
 10
21.1835327934
 20
7.3597960592
 10
21.2125872383
 20
7.3035861173
 10
21.2407473173
 20
7.2469097728
 10
21.2680000284
 20
7.1897931941
 10
21.294332802
 20
7.1322627317
 10
21.3197335326
 20
7.0743448398
 10
21.3441905498
 20
7.0160661291
 10
21.3676926045
 20
6.9574533978
 10
21.3902288529
 20
6.8985336824
 10
21.4117888921
 20
6.8393341807
 10
21.4323627803
 20
6.7798821978
 10
21.4519410581
 20
6.7202050767
 10
21.4705147267
 20
6.6603302465
 10
21.4880752406
 20
6.6002852479
 10
21.5046144993
 20
6.5400977706
 10
21.5201248719
 20
6.4797955838
 10
21.5345992091
 20
6.4194064905
 10
21.5480308535
 20
6.3589582744
 10
21.560413628
 20
6.298478736
 10
21.5717418327
 20
6.2379957071
 10
21.5820102443
 20
6.1775370671
 10
21.5912141284
 20
6.1171306909
 10
21.5993492446
 20
6.0568044153
 10
21.6064118494
 20
5.9965860087
 10
21.6123986923
 20
5.9365031877
 10
21.617307016
 20
5.8765836167
 10
21.6211345589
 20
5.8168549005
 10
21.6238795575
 20
5.7573445543
 10
21.6255407477
 20
5.6980799864
 10
21.6261173642
 20
5.6390884923
 10
21.6256091417
 20
5.5803972473
 10
21.6240163148
 20
5.5220332905
 10
21.6213396174
 20
5.4640234944
 10
21.6175802815
 20
5.406394559
 10
21.6127400363
 20
5.3491730114
 10
21.6068211113
 20
5.2923852215
 10
21.5998262357
 20
5.2360573715
 10
21.5917586352
 20
5.1802154251
 10
21.582622024
 20
5.1248850791
 10
21.5724206039
 20
5.0700917802
 10
21.5611590665
 20
5.0158607386
 10
21.5488426019
 20
4.962216959
 10
21.5354768928
 20
4.9091851913
 10
21.5210681052
 20
4.85678989
 10
21.5056228691
 20
4.8050551545
 10
21.4891482835
 20
4.7540047635
 10
21.4716519226
 20
4.7036621972
 10
21.4531418537
 20
4.6540506767
 10
21.4336266211
 20
4.6051931029
 10
21.4131152297
 20
4.5571120108
 10
21.3916171142
 20
4.5098295084
 10
21.3691421522
 20
4.4633673203
 10
21.3457006752
 20
4.4177468128
 10
21.3213034945
 20
4.3729890338
 10
21.2959618745
 20
4.3291146484
 10
21.2696875088
 20
4.2861438947
 10
21.2424924811
 20
4.244096528
 10
21.2143892853
 20
4.2029918659
 10
21.185390841
 20
4.1628488113
 10
21.1555105233
 20
4.1236858859
 10
21.1247621275
 20
4.0855211707
 10
21.0931598399
 20
4.048372268
 10
21.0607181948
 20
4.0122562575
 10
21.0274520995
 20
3.9771897349
 10
20.9933768508
 20
3.9431888297
 10
20.9585081636
 20
3.9102692273
 10
20.9228621308
 20
3.8784461211
 10
20.886455193
 20
3.8477341845
 10
20.8493040979
 20
3.8181475415
 10
20.8114259246
 20
3.7896997933
 10
20.7728380974
 20
3.7624040296
 10
20.7510318978
 20
3.7476967903
  0
LINE
  5
385
100
AcDbEntity
  8
0
100
AcDbLine
 62
250
  6
CONTINUOUS
 10
1.821571662
 20
36.1287862372
 11
2.1706902162
 21
35.3900159982
  0
LINE
  5
386
100
AcDbEntity
  8
RACCORDO
100
AcDbLine
 62
250
  6
CONTINUOUS
 10
-0.6390796918
 20
-15.9162825942
 11
-1.1520317805
 21
-16.6469400845
  0
LINE
  5
387
100
AcDbEntity
  8
RACCORDO
100
AcDbLine
 62
250
  6
CONTINUOUS
 10
-0.2844380397
 20
-16.023959683
 11
-0.8706689981
 21
-16.8589968148
  0
LWPOLYLINE
  5
388
100
AcDbEntity
  8
0
100
AcDbPolyline
 62
7
  6
CONTINUOUS
 90
6
 70
0
 10
31.1518038041
 20
17.1685501885
 10
31.1140556392
 20
17.1743154844
 10
31.0779458839
 20
17.1750217891
 10
31.0434745382
 20
17.1706691028
 10
31.0102235444
 20
17.1610634946
 10
30.9900421316
 20
17.152379968
  0
LINE
  5
389
100
AcDbEntity
  8
RACCORDO
100
AcDbLine
 62
250
  6
CONTINUOUS
 10
-22.5850011488
 20
28.3955072378
 11
-5.8287360977
 21
24.5956396568
  0
LWPOLYLINE
  5
38A
100
AcDbEntity
  8
0
100
AcDbPolyline
 62
7
  6
CONTINUOUS
 90
26
 70
0
 10
27.5312336869
 20
15.6843522427
 10
27.59079353
 20
15.6669566596
 10
27.648728073
 20
15.6431918357
 10
27.7050373157
 20
15.6130577708
 10
27.7602983415
 20
15.5760881689
 10
27.8139340671
 20
15.5327493262
 10
27.8642132426
 20
15.4844401303
 10
27.9110263472
 20
15.4309984038
 10
27.9544829017
 20
15.3725863242
 10
27.9931802188
 20
15.3110893121
 10
28.0269630093
 20
15.2464067094
 10
28.0559865625
 20
15.1786391743
 10
28.0793140581
 20
15.1099741021
 10
28.0967596397
 20
15.040382207
 10
28.1085091639
 20
14.9698927749
 10
28.1141833803
 20
14.9007810581
 10
28.1135840579
 20
14.8330920103
 10
28.1069094277
 20
14.7667806779
 10
28.0943749331
 20
14.703987453
 10
28.0757893725
 20
14.644827128
 10
28.0513439473
 20
14.5891849106
 10
28.0218277053
 20
14.5388568159
 10
27.9870751906
 20
14.4940162386
 10
27.9472518591
 20
14.454489784
 10
27.903643125
 20
14.4215532842
 10
27.863112581
 20
14.3987313363
  0
LINE
  5
38B
100
AcDbEntity
  8
RACCORDO
100
AcDbLine
 62
250
  6
CONTINUOUS
 10
12.1933335681
 20
20.4372014341
 11
12.5606254525
 21
20.3188832554
  0
LWPOLYLINE
  5
38C
100
AcDbEntity
  8
RACCORDO
100
AcDbPolyline
 62
7
  6
CONTINUOUS
 90
87
 70
0
 10
12.3507392561
 20
20.2972415541
 10
12.3417998506
 20
20.3005542152
 10
12.3300587674
 20
20.305543892
 10
12.3185122407
 20
20.3111941743
 10
12.3071632867
 20
20.3175014117
 10
12.2960494945
 20
20.3244417738
 10
12.2851751733
 20
20.3320147869
 10
12.2745360139
 20
20.3402209248
 10
12.2641566771
 20
20.3490377788
 10
12.2540350903
 20
20.3584694969
 10
12.2441733261
 20
20.368511931
 10
12.2346022643
 20
20.379130228
 10
12.2253250439
 20
20.3903234849
 10
12.2163385258
 20
20.4020926047
 10
12.2076641726
 20
20.4144054433
 10
12.1993014757
 20
20.4272652905
 10
12.1912509436
 20
20.4406688566
 10
12.183535565
 20
20.4545741281
 10
12.1761571004
 20
20.4689810474
 10
12.1691137894
 20
20.4838896722
 10
12.1624233387
 20
20.4992581619
 10
12.1560864331
 20
20.5150880899
 10
12.150102388
 20
20.5313778828
 10
12.1444868567
 20
20.5480809802
 10
12.1392408321
 20
20.5651984656
 10
12.1343633212
 20
20.5827292554
 10
12.1298669991
 20
20.6006235386
 10
12.1257529662
 20
20.6188816127
 10
12.1220201221
 20
20.6375031801
 10
12.11867784
 20
20.6564375373
 10
12.1157270081
 20
20.6756859959
 10
12.1131667383
 20
20.6952472442
 10
12.1110037397
 20
20.7150666435
 10
12.1092390691
 20
20.7351444188
 10
12.1078716697
 20
20.7554803452
 10
12.1069050806
 20
20.776019109
 10
12.1063402749
 20
20.7967612029
 10
12.1061762795
 20
20.8177061343
 10
12.1064137141
 20
20.8387971122
 10
12.1070536128
 20
20.8600349699
 10
12.1080949415
 20
20.8814188742
 10
12.1095352174
 20
20.9028895346
 10
12.1113753915
 20
20.9244465702
 10
12.1136145128
 20
20.9460903619
 10
12.116247246
 20
20.9677627626
 10
12.1192746727
 20
20.989464579
 10
12.1226957114
 20
21.0111950044
 10
12.1265017819
 20
21.032893471
 10
12.1306939191
 20
21.0545599217
 10
12.1352710881
 20
21.0761944136
 10
12.1402216033
 20
21.097736551
 10
12.1455462385
 20
21.1191854986
 10
12.1512442199
 20
21.1405420917
 10
12.1573015401
 20
21.1617484401
 10
12.1637198906
 20
21.1828063483
 10
12.17049758
 20
21.203714012
 10
12.1776155266
 20
21.2244081271
 10
12.1850734801
 20
21.2448850199
 10
12.1928716907
 20
21.2651483641
 10
12.2009918281
 20
21.2851458778
 10
12.2094368496
 20
21.3048815492
 10
12.2182037977
 20
21.32435139
 10
12.2272654692
 20
21.3434911532
 10
12.2366201696
 20
21.362294784
 10
12.2462695933
 20
21.3807683372
 10
12.2561916202
 20
21.3988657295
 10
12.2663903663
 20
21.4165916984
 10
12.2768617155
 20
21.4339415065
 10
12.2875711998
 20
21.4508548575
 10
12.2985161798
 20
21.467325239
 10
12.3096992948
 20
21.4833591635
 10
12.3210939955
 20
21.4989158726
 10
12.3327044068
 20
21.5139986245
 10
12.3445264037
 20
21.528604161
 10
12.3565210619
 20
21.5426819499
 10
12.3686861446
 20
21.5562270248
 10
12.3810238884
 20
21.5692443521
 10
12.3935020795
 20
21.5816982984
 10
12.4061233094
 20
21.5935893308
 10
12.4188849864
 20
21.6049169823
 10
12.4317471214
 20
21.615644219
 10
12.444708897
 20
21.625768066
 10
12.4577711306
 20
21.6352914983
 10
12.4708962852
 20
21.6441864064
 10
12.4840718485
 20
21.6524434203
 10
12.4973103329
 20
21.66007191
 10
12.5106117384
 20
21.6670718754
  0
LWPOLYLINE
  5
38D
100
AcDbEntity
  8
RACCORDO
100
AcDbPolyline
 62
250
  6
CONTINUOUS
 90
4
 70
0
 10
-19.3991105625
 20
31.4661270988
 10
-19.3945805338
 20
31.4643937446
 10
-19.3844293956
 20
31.4610408498
 10
-19.374065152
 20
31.4583358536
  0
LWPOLYLINE
  5
38E
100
AcDbEntity
  8
RACCORDO
100
AcDbPolyline
 62
7
  6
CONTINUOUS
 90
4
 70
0
 10
-18.8584390483
 20
31.2502055863
 10
-18.8543879883
 20
31.2486545958
 10
-18.8444872406
 20
31.2453905584
 10
-18.8340637491
 20
31.2426819554
  0
LINE
  5
38F
100
AcDbEntity
  8
RACCORDO
100
AcDbLine
 62
250
  6
CONTINUOUS
 10
-17.8788154329
 20
31.1192536705
 11
-17.3306897115
 21
30.9017573968
  0
LINE
  5
390
100
AcDbEntity
  8
RACCORDO
100
AcDbLine
 62
250
  6
CONTINUOUS
 10
-17.6125270645
 20
31.3135485534
 11
-16.9860976687
 21
31.0649813834
  0
LINE
  5
391
100
AcDbEntity
  8
RACCORDO
100
AcDbLine
 62
7
  6
CONTINUOUS
 10
-18.8584462614
 20
31.2502084669
 11
-19.3991105625
 21
31.4661270988
  0
LINE
  5
392
100
AcDbEntity
  8
RACCORDO
100
AcDbLine
 62
250
  6
CONTINUOUS
 10
-18.8340637491
 20
31.2426819554
 11
-19.374065152
 21
31.4583358536
  0
LINE
  5
393
100
AcDbEntity
  8
RACCORDO
100
AcDbLine
 62
7
  6
CONTINUOUS
 10
19.8195718341
 20
17.8882509143
 11
19.8004094467
 21
17.8965064979
  0
LINE
  5
394
100
AcDbEntity
  8
RACCORDO
100
AcDbLine
 62
250
  6
CONTINUOUS
 10
-4.2989995201
 20
28.0411820127
 11
-4.2923866341
 21
28.0382191931
  0
LINE
  5
395
100
AcDbEntity
  8
DRAFT
100
AcDbLine
 62
7
  6
CONTINUOUS
 10
4.915690849
 20
27.9733287294
 11
4.0292157546
 21
29.1648832455
  0
LWPOLYLINE
  5
396
100
AcDbEntity
  8
0
100
AcDbPolyline
 62
7
  6
CONTINUOUS
 90
42
 70
0
 10
1.2642997935
 20
35.2662036072
 10
1.2606887244
 20
35.2716517724
 10
1.2473509406
 20
35.293184895
 10
1.2354289202
 20
35.3148333607
 10
1.2249182264
 20
35.3366008774
 10
1.2158305624
 20
35.3584629658
 10
1.2081663742
 20
35.3804234871
 10
1.2019252158
 20
35.4024785801
 10
1.1971174533
 20
35.4245921819
 10
1.1937460339
 20
35.4467607564
 10
1.1918080102
 20
35.4689878396
 10
1.191304906
 20
35.4912479764
 10
1.1922385673
 20
35.5135442535
 10
1.194607148
 20
35.5358735842
 10
1.1984066334
 20
35.5582012526
 10
1.2036381983
 20
35.5805242166
 10
1.2103006679
 20
35.6028455184
 10
1.218386503
 20
35.625139569
 10
1.2278986986
 20
35.6474090222
 10
1.2388342596
 20
35.6696512242
 10
1.2511766615
 20
35.6918326237
 10
1.264926257
 20
35.7139508558
 10
1.2800826934
 20
35.7360082855
 10
1.2966283886
 20
35.757978456
 10
1.314567019
 20
35.7798635373
 10
1.3338949081
 20
35.8016613595
 10
1.3545834449
 20
35.823338956
 10
1.3766331504
 20
35.8448944919
 10
1.4000435035
 20
35.8663298022
 10
1.4247843303
 20
35.8876174261
 10
1.4508589152
 20
35.9087584983
 10
1.4782639737
 20
35.9297518842
 10
1.5069594792
 20
35.9505667195
 10
1.5369460937
 20
35.9712017222
 10
1.5682231552
 20
35.9916581743
 10
1.6007486503
 20
36.0119090573
 10
1.6345257244
 20
36.0319548884
 10
1.6695512322
 20
36.0517951503
 10
1.7057737247
 20
36.0714012732
 10
1.7431760524
 20
36.0907637336
 10
1.7817753648
 20
36.1098920549
 10
1.821571662
 20
36.1287862372
  0
LINE
  5
397
100
AcDbEntity
  8
COPY-PUBBLISH
100
AcDbLine
 62
7
  6
CONTINUOUS
 10
19.1961717407
 20
7.2812038341
 11
19.1768671491
 21
7.8015857177
  0
LINE
  5
398
100
AcDbEntity
  8
COPY-PUBBLISH
100
AcDbLine
 62
7
  6
CONTINUOUS
 10
19.0708454162
 20
10.6595477049
 11
19.0515408246
 21
11.1799295885
  0
LINE
  5
399
100
AcDbEntity
  8
COPY-PUBBLISH
100
AcDbLine
 62
7
  6
CONTINUOUS
 10
18.9329631058
 20
14.3763554879
 11
18.9262145001
 21
14.5582734593
  0
LINE
  5
39A
100
AcDbEntity
  8
COPY-PUBBLISH
100
AcDbLine
 62
7
  6
CONTINUOUS
 10
18.8201927672
 20
17.4162354465
 11
18.8008881756
 21
17.9366173301
  0
LINE
  5
39B
100
AcDbEntity
  8
COPY-PUBBLISH
100
AcDbLine
 62
7
  6
CONTINUOUS
 10
18.6948664428
 20
20.7945793173
 11
18.6755618511
 21
21.3149612009
  0
LINE
  5
39C
100
AcDbEntity
  8
COPY-PUBBLISH
100
AcDbLine
 62
7
  6
CONTINUOUS
 10
18.5695401183
 20
24.1729231881
 11
18.5502355266
 21
24.6933050717
  0
LINE
  5
39D
100
AcDbEntity
  8
DRAFT
100
AcDbLine
 62
7
  6
CONTINUOUS
 10
19.273856856
 20
7.320043235
 11
19.2545491413
 21
7.840509305
  0
LINE
  5
39E
100
AcDbEntity
  8
DRAFT
100
AcDbLine
 62
7
  6
CONTINUOUS
 10
19.1485305315
 20
10.6983871058
 11
19.1292228168
 21
11.2188531758
  0
LINE
  5
39F
100
AcDbEntity
  8
DRAFT
100
AcDbLine
 62
7
  6
CONTINUOUS
 10
19.023204207
 20
14.0767309766
 11
19.0038964923
 21
14.5971970466
  0
LINE
  5
3A0
100
AcDbEntity
  8
DRAFT
100
AcDbLine
 62
7
  6
CONTINUOUS
 10
18.8978778825
 20
17.4550748475
 11
18.8785701678
 21
17.9755409174
  0
LINE
  5
3A1
100
AcDbEntity
  8
DRAFT
100
AcDbLine
 62
7
  6
CONTINUOUS
 10
18.772551558
 20
20.8334187183
 11
18.7532438434
 21
21.3538847882
  0
LINE
  5
3A2
100
AcDbEntity
  8
DRAFT
100
AcDbLine
 62
7
  6
CONTINUOUS
 10
18.6472252336
 20
24.2117625891
 11
18.6279175189
 21
24.732228659
  0
LINE
  5
3A3
100
AcDbEntity
  8
DRAFT
100
AcDbLine
 62
7
  6
CONTINUOUS
 10
6.2811197039
 20
-8.833688646
 11
5.4687591291
 21
-9.6399931935
  0
LINE
  5
3A4
100
AcDbEntity
  8
DRAFT
100
AcDbLine
 62
7
  6
CONTINUOUS
 10
20.7326778706
 20
3.7355300579
 11
20.7510318973
 21
3.74769679
  0
LWPOLYLINE
  5
3A5
100
AcDbEntity
  8
RACCORDO
100
AcDbPolyline
 62
250
  6
CONTINUOUS
 90
31
 70
0
 10
-2.8798850856
 20
27.8655268457
 10
-2.8692773718
 20
27.8632678177
 10
-2.8582891945
 20
27.8612151411
 10
-2.8469504548
 20
27.8593744018
 10
-2.8352920253
 20
27.857750611
 10
-2.8233456142
 20
27.8563481846
 10
-2.8111436748
 20
27.855170934
 10
-2.7987193705
 20
27.8542220635
 10
-2.7861065446
 20
27.853504162
 10
-2.7733395756
 20
27.8530191881
 10
-2.7604532253
 20
27.8527684616
 10
-2.7474825422
 20
27.8527526641
 10
-2.7344628234
 20
27.8529718384
 10
-2.7214294887
 20
27.8534253887
 10
-2.708418016
 20
27.8541120805
 10
-2.6954638445
 20
27.8550300427
 10
-2.6826022461
 20
27.8561767736
 10
-2.6698681987
 20
27.8575491522
 10
-2.6572963234
 20
27.8591434465
 10
-2.6449207197
 20
27.8609553355
 10
-2.6327751801
 20
27.8629798749
 10
-2.620893048
 20
27.8652114975
 10
-2.6093068251
 20
27.8676440735
 10
-2.598047814
 20
27.8702710045
 10
-2.587146355
 20
27.8730852017
 10
-2.5766310683
 20
27.8760793191
 10
-2.5665316883
 20
27.8792449341
 10
-2.5568783166
 20
27.8825724859
 10
-2.5476976567
 20
27.8860524632
 10
-2.539013344
 20
27.8896755847
 10
-2.5308485466
 20
27.8934318929
  0
LINE
  5
3A6
100
AcDbEntity
  8
RACCORDO
100
AcDbLine
 62
7
  6
CONTINUOUS
 10
-18.8067498503
 20
30.4908867374
 11
-17.3022151958
 21
30.1496989822
  0
LINE
  5
3A7
100
AcDbEntity
  8
RACCORDO
100
AcDbLine
 62
7
  6
CONTINUOUS
 10
-3.7250713324
 20
27.0707700769
 11
-2.2205366779
 21
26.7295823217
  0
LINE
  5
3A8
100
AcDbEntity
  8
RACCORDO
100
AcDbLine
 62
7
  6
CONTINUOUS
 10
-7.1039472354
 20
28.0767584649
 11
-13.3234760485
 21
29.4871793334
  0
LINE
  5
3A9
100
AcDbEntity
  8
DRAFT
100
AcDbLine
 62
7
  6
CONTINUOUS
 10
-3.8498236423
 20
27.8183127666
 11
-6.1027698008
 21
28.329220003
  0
LINE
  5
3AA
100
AcDbEntity
  8
DRAFT
100
AcDbLine
 62
7
  6
CONTINUOUS
 10
-13.537102736
 20
30.0151255805
 11
-16.1971207665
 21
30.6183457044
  0
LINE
  5
3AB
100
AcDbEntity
  8
RACCORDO
100
AcDbLine
 62
7
  6
CONTINUOUS
 10
-18.8346440576
 20
31.2428135537
 11
-17.3301094031
 21
30.9016257985
  0
LINE
  5
3AC
100
AcDbEntity
  8
RACCORDO
100
AcDbLine
 62
7
  6
CONTINUOUS
 10
-3.7529655396
 20
27.8226968932
 11
-2.2484308851
 21
27.481509138
  0
LINE
  5
3AD
100
AcDbEntity
  8
RACCORDO
100
AcDbLine
 62
250
  6
CONTINUOUS
 10
-19.374065152
 20
31.4583358536
 11
-17.8788154329
 21
31.1192536705
  0
LINE
  5
3AE
100
AcDbEntity
  8
RACCORDO
100
AcDbLine
 62
250
  6
CONTINUOUS
 10
-4.2923866341
 20
28.0382191931
 11
-2.7971369149
 21
27.69913701
  0
LINE
  5
3AF
100
AcDbEntity
  8
RACCORDO
100
AcDbLine
 62
250
  6
CONTINUOUS
 10
-19.4568133227
 20
31.6247256893
 11
-17.9615636036
 21
31.2856435062
  0
LINE
  5
3B0
100
AcDbEntity
  8
RACCORDO
100
AcDbLine
 62
250
  6
CONTINUOUS
 10
-4.3751348048
 20
28.2046090288
 11
-2.8798850856
 21
27.8655268457
  0
LINE
  5
3B1
100
AcDbEntity
  8
RACCORDO
100
AcDbLine
 62
7
  6
CONTINUOUS
 10
-16.2129314602
 20
31.0445447538
 11
-14.8041206411
 21
30.7250645747
  0
LINE
  5
3B2
100
AcDbEntity
  8
RACCORDO
100
AcDbLine
 62
7
  6
CONTINUOUS
 10
-1.1312529423
 20
27.6244280933
 11
-0.513572283
 21
27.4843548308
  0
LWPOLYLINE
  5
3B3
100
AcDbEntity
  8
RACCORDO
100
AcDbPolyline
 62
250
  6
CONTINUOUS
 90
19
 70
0
 10
-19.4568133227
 20
31.6247256893
 10
-19.4670117078
 20
31.6271849216
 10
-19.4767730126
 20
31.6298376662
 10
-19.4860706746
 20
31.6326767045
 10
-19.4948793801
 20
31.6356943062
 10
-19.503175173
 20
31.638882264
 10
-19.5109355124
 20
31.6422319182
 10
-19.5181392939
 20
31.6457341664
 10
-19.5247668824
 20
31.6493794704
 10
-19.5308002087
 20
31.6531578948
 10
-19.5362228468
 20
31.6570591516
 10
-19.5410200494
 20
31.6610726298
 10
-19.5451787619
 20
31.6651874076
 10
-19.54868767
 20
31.669392291
 10
-19.5515372212
 20
31.6736758339
 10
-19.5537196567
 20
31.6780263691
 10
-19.5552290405
 20
31.6824320499
 10
-19.5560612742
 20
31.6868808941
 10
-19.556219464
 20
31.6890274604
  0
LWPOLYLINE
  5
3B4
100
AcDbEntity
  8
RACCORDO
100
AcDbPolyline
 62
250
  6
CONTINUOUS
 90
19
 70
0
 10
-4.3751348048
 20
28.2046090288
 10
-4.3853331899
 20
28.2070682611
 10
-4.3950944947
 20
28.2097210057
 10
-4.4043921567
 20
28.212560044
 10
-4.4132008621
 20
28.2155776457
 10
-4.4214966551
 20
28.2187656035
 10
-4.4292569944
 20
28.2221152577
 10
-4.4364607759
 20
28.2256175059
 10
-4.4430883645
 20
28.2292628099
 10
-4.4491216908
 20
28.2330412344
 10
-4.4545443288
 20
28.2369424911
 10
-4.4593415314
 20
28.2409559693
 10
-4.463500244
 20
28.2450707472
 10
-4.467009152
 20
28.2492756305
 10
-4.4698587033
 20
28.2535591735
 10
-4.4720411388
 20
28.2579097086
 10
-4.4735505226
 20
28.2623153895
 10
-4.4743827562
 20
28.2667642336
 10
-4.4745409461
 20
28.2689107999
  0
LWPOLYLINE
  5
3B5
100
AcDbEntity
  8
RACCORDO
100
AcDbPolyline
 62
250
  6
CONTINUOUS
 90
19
 70
0
 10
-19.4704797436
 20
31.9931229068
 10
-19.4806793434
 20
31.9955824502
 10
-19.4904417755
 20
31.9982355586
 10
-19.4997404645
 20
32.0010750117
 10
-19.5085501059
 20
32.0040930856
 10
-19.5168467072
 20
32.0072815636
 10
-19.5246076584
 20
32.0106317573
 10
-19.5318118311
 20
32.0141345448
 10
-19.5384396232
 20
32.0177803938
 10
-19.5444729907
 20
32.021559377
 10
-19.5498955136
 20
32.0254612067
 10
-19.5546924366
 20
32.0294752629
 10
-19.5588507049
 20
32.0335906176
 10
-19.5623590078
 20
32.0377960737
 10
-19.5652077953
 20
32.0420801793
 10
-19.5673893102
 20
32.0464312561
 10
-19.568897622
 20
32.0508374417
 10
-19.569728648
 20
32.0552867607
 10
-19.5698859704
 20
32.0574269808
  0
LWPOLYLINE
  5
3B6
100
AcDbEntity
  8
RACCORDO
100
AcDbPolyline
 62
250
  6
CONTINUOUS
 90
19
 70
0
 10
-4.3888012257
 20
28.5730062463
 10
-4.3989986298
 20
28.5754652274
 10
-4.4087590418
 20
28.5781176833
 10
-4.4180559068
 20
28.5809563976
 10
-4.4268639312
 20
28.5839736472
 10
-4.4351591511
 20
28.587161223
 10
-4.4429189982
 20
28.5905104527
 10
-4.4501223603
 20
28.5940122242
 10
-4.4567496395
 20
28.5976570103
 10
-4.4627828052
 20
28.6014348948
 10
-4.4682054431
 20
28.6053355993
 10
-4.4730028
 20
28.6093485112
 10
-4.4771618239
 20
28.6134627127
 10
-4.4806711995
 20
28.6176670105
 10
-4.4835213789
 20
28.6219499661
 10
-4.4857046078
 20
28.6262999269
 10
-4.4872149462
 20
28.6307050582
 10
-4.488048285
 20
28.635153375
 10
-4.4882074525
 20
28.6373103203
  0
LWPOLYLINE
  5
3B7
100
AcDbEntity
  8
0
100
AcDbPolyline
 62
7
  6
CONTINUOUS
 90
24
 70
0
 10
25.5659969456
 20
18.4352600628
 10
25.6039542394
 20
18.4238574088
 10
25.6406238541
 20
18.4080593214
 10
25.6760057897
 20
18.3878658007
 10
25.7105397082
 20
18.3628884083
 10
25.7437859475
 20
18.3335155826
 10
25.774425522
 20
18.3009126384
 10
25.8023536307
 20
18.2649497092
 10
25.8276750746
 20
18.2257566615
 10
25.8493852701
 20
18.1848884104
 10
25.8673390271
 20
18.1422776044
 10
25.8816815357
 20
18.0979915949
 10
25.8918437821
 20
18.0537873511
 10
25.8976576993
 20
18.0096681603
 10
25.8992913544
 20
17.9656307353
 10
25.896679935
 20
17.9234221829
 10
25.8896527682
 20
17.883116033
 10
25.8783805268
 20
17.8446387557
 10
25.8633104172
 20
17.8095168692
 10
25.8442897464
 20
17.7778852766
 10
25.8214712073
 20
17.7496090747
 10
25.7957600852
 20
17.7258100719
 10
25.7670400839
 20
17.7066682736
 10
25.7556089124
 20
17.7006872009
  0
LWPOLYLINE
  5
3B8
100
AcDbEntity
  8
RACCORDO
100
AcDbPolyline
 62
7
  6
CONTINUOUS
 90
37
 70
0
 10
-1.1155212187
 20
27.197895865
 10
-1.0985802469
 20
27.192742794
 10
-1.0816118078
 20
27.1867351028
 10
-1.0646476884
 20
27.1798794945
 10
-1.0476982396
 20
27.172177318
 10
-1.0308175791
 20
27.1636439782
 10
-1.0141020166
 20
27.1543177328
 10
-0.997598121
 20
27.1442266042
 10
-0.9813191805
 20
27.1333874127
 10
-0.9653087041
 20
27.1218334193
 10
-0.9496167985
 20
27.1096095437
 10
-0.934246733
 20
27.0967272599
 10
-0.9191731261
 20
27.0831659279
 10
-0.90441496
 20
27.0689387058
 10
-0.8900103657
 20
27.0540785627
 10
-0.8759671109
 20
27.0385866829
 10
-0.8622928004
 20
27.0224614072
 10
-0.8490390786
 20
27.0057528723
 10
-0.8362762674
 20
26.988544651
 10
-0.824029126
 20
26.97087393
 10
-0.8123167765
 20
26.9527715303
 10
-0.8011904195
 20
26.9343212571
 10
-0.7906687357
 20
26.9155694372
 10
-0.7807603271
 20
26.8965470602
 10
-0.7714921565
 20
26.877319742
 10
-0.7628788467
 20
26.8579433523
 10
-0.7549183538
 20
26.838440446
 10
-0.7476098154
 20
26.8188265587
 10
-0.7409593391
 20
26.7991412518
 10
-0.7349697075
 20
26.7794182976
 10
-0.7296379913
 20
26.7596626584
 10
-0.7249668856
 20
26.739902424
 10
-0.7209613028
 20
26.7201791591
 10
-0.7176236259
 20
26.7005170259
 10
-0.7149556372
 20
26.6809464981
 10
-0.7129575081
 20
26.6615042937
 10
-0.7116283526
 20
26.6422232524
  0
LWPOLYLINE
  5
3B9
100
AcDbEntity
  8
RACCORDO
100
AcDbPolyline
 62
250
  6
CONTINUOUS
 90
4
 70
0
 10
-4.3174320445
 20
28.0460104383
 10
-4.3129020158
 20
28.0442770842
 10
-4.3027508777
 20
28.0409241893
 10
-4.2923866341
 20
28.0382191931
  0
LWPOLYLINE
  5
3BA
100
AcDbEntity
  8
RACCORDO
100
AcDbPolyline
 62
7
  6
CONTINUOUS
 90
4
 70
0
 10
-3.7767605304
 20
27.8300889258
 10
-3.7727094703
 20
27.8285379353
 10
-3.7628087227
 20
27.8252738979
 10
-3.7523852312
 20
27.8225652949
  0
LINE
  5
3BB
100
AcDbEntity
  8
RACCORDO
100
AcDbLine
 62
250
  6
CONTINUOUS
 10
-2.7971369149
 20
27.69913701
 11
-2.2490111936
 21
27.4816407363
  0
LINE
  5
3BC
100
AcDbEntity
  8
RACCORDO
100
AcDbLine
 62
250
  6
CONTINUOUS
 10
-2.5308485466
 20
27.8934318929
 11
-1.9044191508
 21
27.6448647229
  0
LINE
  5
3BD
100
AcDbEntity
  8
RACCORDO
100
AcDbLine
 62
7
  6
CONTINUOUS
 10
-3.7767677435
 20
27.8300918065
 11
-4.3174320445
 21
28.0460104383
  0
LINE
  5
3BE
100
AcDbEntity
  8
RACCORDO
100
AcDbLine
 62
250
  6
CONTINUOUS
 10
-3.7523852312
 20
27.8225652949
 11
-4.2923866341
 21
28.0382191931
  0
LWPOLYLINE
  5
3BF
100
AcDbEntity
  8
RACCORDO
100
AcDbPolyline
 62
250
  6
CONTINUOUS
 90
25
 70
0
 10
20.6570641079
 20
5.7738032854
 10
20.6589710087
 20
5.7544545531
 10
20.6638657739
 20
5.7005882392
 10
20.6683066976
 20
5.6478325302
 10
20.6723315527
 20
5.5962180817
 10
20.6759696285
 20
5.5457466279
 10
20.6792775086
 20
5.4961668697
 10
20.6822782219
 20
5.4475029433
 10
20.6849943471
 20
5.3997567175
 10
20.68745964
 20
5.352644195
 10
20.689682915
 20
5.306186854
 10
20.6916785985
 20
5.2603875179
 10
20.693465009
 20
5.2149373474
 10
20.6950380875
 20
5.1698481352
 10
20.6964009138
 20
5.1251355584
 10
20.6975576563
 20
5.0805022396
 10
20.6984935571
 20
5.0359547727
 10
20.6991979981
 20
4.9915218781
 10
20.6996572812
 20
4.9469470979
 10
20.6998481836
 20
4.9022446546
 10
20.6997455717
 20
4.8574476319
 10
20.6993103494
 20
4.8123373
 10
20.698512214
 20
4.7669386984
 10
20.6973108071
 20
4.7212904057
 10
20.6967152217
 20
4.704952844
  0
LWPOLYLINE
  5
3C0
100
AcDbEntity
  8
RACCORDO
100
AcDbPolyline
 62
7
  6
CONTINUOUS
 90
31
 70
0
 10
19.6554151971
 20
32.7746304082
 10
19.6537319039
 20
32.8113894957
 10
19.6507575688
 20
32.8570062578
 10
19.646805157
 20
32.9026374918
 10
19.6418772165
 20
32.9482763396
 10
19.6359779445
 20
32.9938996641
 10
19.6291146353
 20
33.0394654502
 10
19.6212916127
 20
33.0849607719
 10
19.6125129345
 20
33.1303701284
 10
19.6027892638
 20
33.1756472815
 10
19.5921257767
 20
33.2207790273
 10
19.5805269823
 20
33.2657512721
 10
19.5680069238
 20
33.3105170278
 10
19.5545714996
 20
33.3550624913
 10
19.5402258452
 20
33.3993747194
 10
19.5249863484
 20
33.4434086184
 10
19.508859955
 20
33.4871490622
 10
19.4918520251
 20
33.5305851544
 10
19.4739785942
 20
33.5736786629
 10
19.4552463806
 20
33.6164161976
 10
19.4356613781
 20
33.6587854352
 10
19.4152403489
 20
33.7007504146
 10
19.3939899935
 20
33.7422985741
 10
19.3719163165
 20
33.7834169958
 10
19.3490377415
 20
33.8240704396
 10
19.3253616044
 20
33.8642454118
 10
19.3008936436
 20
33.9039294618
 10
19.2756519342
 20
33.9430911049
 10
19.2496466546
 20
33.9817121213
 10
19.2228810039
 20
34.0197845832
 10
19.2001228088
 20
34.0509177552
  0
LWPOLYLINE
  5
3C1
100
AcDbEntity
  8
RACCORDO
100
AcDbPolyline
 62
250
  6
CONTINUOUS
 90
37
 70
0
 10
19.4644543555
 20
32.5617641766
 10
19.4626461221
 20
32.6028332387
 10
19.4600744862
 20
32.6440523447
 10
19.4567406397
 20
32.6854018609
 10
19.4526461143
 20
32.7268620015
 10
19.4477928586
 20
32.7684131124
 10
19.4421832228
 20
32.810035682
 10
19.4358198275
 20
32.8517100156
 10
19.4287056771
 20
32.8934161473
 10
19.4208442329
 20
32.9351341241
 10
19.4122392369
 20
32.9768440261
 10
19.4028947461
 20
33.0185260568
 10
19.3928152339
 20
33.060160456
 10
19.3820054873
 20
33.1017274109
 10
19.3704706294
 20
33.1432071332
 10
19.3582161562
 20
33.1845799487
 10
19.3452478859
 20
33.2258262009
 10
19.331571981
 20
33.2669262286
 10
19.3171949677
 20
33.3078604427
 10
19.3021236927
 20
33.3486093699
 10
19.2863653205
 20
33.3891536193
 10
19.2699273566
 20
33.4294738599
 10
19.25281765
 20
33.4695508868
 10
19.2350443331
 20
33.5093656617
 10
19.2166158185
 20
33.5488992788
 10
19.1975408949
 20
33.588132938
 10
19.1778286463
 20
33.627047977
 10
19.1574883876
 20
33.6656259105
 10
19.1365297909
 20
33.7038484536
 10
19.114962871
 20
33.7416973679
 10
19.0927979059
 20
33.7791544957
 10
19.0700455465
 20
33.8162019273
 10
19.0467165824
 20
33.8528221596
 10
19.0228219189
 20
33.8889979356
 10
18.9983728767
 20
33.924712104
 10
18.9733811963
 20
33.9599476356
 10
18.9478588031
 20
33.9946877798
  0
LINE
  5
3C2
100
AcDbEntity
  8
0
100
AcDbLine
 62
7
  6
CONTINUOUS
 10
20.1763884202
 20
7.7614748855
 11
20.156687599
 21
8.2925376836
  0
LINE
  5
3C3
100
AcDbEntity
  8
0
100
AcDbLine
 62
7
  6
CONTINUOUS
 10
20.0510620957
 20
11.1398187563
 11
20.0313612745
 21
11.6708815544
  0
LINE
  5
3C4
100
AcDbEntity
  8
0
100
AcDbLine
 62
7
  6
CONTINUOUS
 10
19.9257357712
 20
14.5181626271
 11
19.90603495
 21
15.0492254252
  0
LINE
  5
3C5
100
AcDbEntity
  8
0
100
AcDbLine
 62
7
  6
CONTINUOUS
 10
19.8004094467
 20
17.8965064979
 11
19.7807086255
 21
18.427569296
  0
LINE
  5
3C6
100
AcDbEntity
  8
0
100
AcDbLine
 62
7
  6
CONTINUOUS
 10
19.6750831222
 20
21.2748503687
 11
19.655382301
 21
21.8059131668
  0
LINE
  5
3C7
100
AcDbEntity
  8
0
100
AcDbLine
 62
7
  6
CONTINUOUS
 10
19.5497567978
 20
24.6531942395
 11
19.5300559766
 21
25.1842570376
  0
LINE
  5
3C8
100
AcDbEntity
  8
RACCORDO
100
AcDbLine
 62
250
  6
CONTINUOUS
 10
20.6782383288
 20
-0.1574563346
 11
20.4083523828
 21
7.1176914477
  0
LINE
  5
3C9
100
AcDbEntity
  8
RACCORDO
100
AcDbLine
 62
250
  6
CONTINUOUS
 10
20.360971924
 20
8.3948970403
 11
20.2830260583
 21
10.4960353185
  0
LINE
  5
3CA
100
AcDbEntity
  8
RACCORDO
100
AcDbLine
 62
250
  6
CONTINUOUS
 10
20.2356455995
 20
11.7732409111
 11
20.1576997338
 21
13.8743791893
  0
LINE
  5
3CB
100
AcDbEntity
  8
RACCORDO
100
AcDbLine
 62
250
  6
CONTINUOUS
 10
20.110319275
 20
15.1515847819
 11
20.0323734093
 21
17.2527230601
  0
LINE
  5
3CC
100
AcDbEntity
  8
RACCORDO
100
AcDbLine
 62
250
  6
CONTINUOUS
 10
19.9849929505
 20
18.5299286527
 11
19.9070470848
 21
20.631066931
  0
LINE
  5
3CD
100
AcDbEntity
  8
RACCORDO
100
AcDbLine
 62
250
  6
CONTINUOUS
 10
19.8596666261
 20
21.9082725235
 11
19.7817207604
 21
24.0094108018
  0
LINE
  5
3CE
100
AcDbEntity
  8
RACCORDO
100
AcDbLine
 62
250
  6
CONTINUOUS
 10
19.7343403016
 20
25.2866163943
 11
19.4644543555
 21
32.5617641766
  0
LINE
  5
3CF
100
AcDbEntity
  8
RACCORDO
100
AcDbLine
 62
7
  6
CONTINUOUS
 10
20.8691991739
 20
0.0554100995
 11
20.5980294807
 21
7.365163055
  0
LINE
  5
3D0
100
AcDbEntity
  8
RACCORDO
100
AcDbLine
 62
7
  6
CONTINUOUS
 10
20.5532165161
 20
8.573158301
 11
20.4727031562
 21
10.7435069258
  0
LINE
  5
3D1
100
AcDbEntity
  8
RACCORDO
100
AcDbLine
 62
7
  6
CONTINUOUS
 10
20.4278901916
 20
11.9515021718
 11
20.3473768317
 21
14.1218507966
  0
LINE
  5
3D2
100
AcDbEntity
  8
RACCORDO
100
AcDbLine
 62
7
  6
CONTINUOUS
 10
20.3025638672
 20
15.3298460427
 11
20.2220505072
 21
17.5001946674
  0
LINE
  5
3D3
100
AcDbEntity
  8
RACCORDO
100
AcDbLine
 62
7
  6
CONTINUOUS
 10
20.1772375427
 20
18.7081899135
 11
20.0967241827
 21
20.8785385382
  0
LINE
  5
3D4
100
AcDbEntity
  8
RACCORDO
100
AcDbLine
 62
7
  6
CONTINUOUS
 10
20.0519112182
 20
22.0865337843
 11
19.9713978583
 21
24.256882409
  0
LINE
  5
3D5
100
AcDbEntity
  8
RACCORDO
100
AcDbLine
 62
7
  6
CONTINUOUS
 10
19.9265848937
 20
25.4648776551
 11
19.6554152005
 21
32.7746306107
  0
LWPOLYLINE
  5
3D6
100
AcDbEntity
  8
RACCORDO
100
AcDbPolyline
 62
250
  6
CONTINUOUS
 90
22
 70
0
 10
20.6948062547
 20
-0.1488298629
 10
20.7106916392
 20
-0.1400650754
 10
20.7258813387
 20
-0.1311692241
 10
20.7403627853
 20
-0.1221496696
 10
20.754123997
 20
-0.1130138746
 10
20.7671535876
 20
-0.103769398
 10
20.7794407764
 20
-0.0944238889
 10
20.790975397
 20
-0.0849850797
 10
20.8017479057
 20
-0.0754607801
 10
20.8117493891
 20
-0.0658588706
 10
20.820971572
 20
-0.0561872958
 10
20.829406824
 20
-0.0464540579
 10
20.8370481657
 20
-0.0366672104
 10
20.8438892746
 20
-0.0268348509
 10
20.8499244904
 20
-0.0169651147
 10
20.8551488196
 20
-0.007066168
 10
20.8595579394
 20
0.0028537987
 10
20.8631482018
 20
0.0127865775
 10
20.8659166361
 20
0.0227239502
 10
20.8678609518
 20
0.0326576944
 10
20.8689795402
 20
0.042579591
 10
20.8692714756
 20
0.0524814305
  0
LWPOLYLINE
  5
3D7
100
AcDbEntity
  8
RACCORDO
100
AcDbPolyline
 62
250
  6
CONTINUOUS
 90
8
 70
0
 10
20.2600934396
 20
-1.3784060945
 10
20.2768528211
 20
-1.3692205877
 10
20.2931024901
 20
-1.3593921186
 10
20.3088290016
 20
-1.3489288195
 10
20.3240193433
 20
-1.3378393477
 10
20.3386609469
 20
-1.3261328786
 10
20.3527416976
 20
-1.3138190982
 10
20.3652704142
 20
-1.3018836144
  0
LWPOLYLINE
  5
3D8
100
AcDbEntity
  8
RACCORDO
100
AcDbPolyline
 62
7
  6
CONTINUOUS
 90
10
 70
0
 10
19.9836533054
 20
-1.6527854086
 10
19.997141328
 20
-1.6454013855
 10
20.0104054375
 20
-1.6375108081
 10
20.0234387256
 20
-1.6291202813
 10
20.0362327937
 20
-1.620236474
 10
20.048782512
 20
-1.6108665317
 10
20.0610860123
 20
-1.6010179836
 10
20.0731366235
 20
-1.5906980198
 10
20.0849280709
 20
-1.5799141833
 10
20.0940227544
 20
-1.5711086421
  0
LINE
  5
3D9
100
AcDbEntity
  8
RACCORDO
100
AcDbLine
 62
7
  6
CONTINUOUS
 10
19.9836533054
 20
-1.6527854086
 11
6.2811197039
 21
-8.833688646
  0
LINE
  5
3DA
100
AcDbEntity
  8
DRAFT
100
AcDbLine
 62
7
  6
CONTINUOUS
 10
1.3396524067
 20
-11.8038788436
 11
5.4687591291
 21
-9.6399931935
  0
LINE
  5
3DB
100
AcDbEntity
  8
RACCORDO
100
AcDbLine
 62
250
  6
CONTINUOUS
 10
1.2802424312
 20
-10.202401042
 11
20.6948062547
 21
-0.1488298629
  0
LINE
  5
3DC
100
AcDbEntity
  8
RACCORDO
100
AcDbLine
 62
250
  6
CONTINUOUS
 10
1.3168010784
 20
-11.1878897829
 11
20.2600934396
 21
-1.3784060945
  0
LWPOLYLINE
  5
3DD
100
AcDbEntity
  8
RACCORDO
100
AcDbPolyline
 62
7
  6
CONTINUOUS
 90
13
 70
0
 10
-7.4307182327
 20
30.5546513763
 10
-7.4328919078
 20
30.5549766257
 10
-7.4365972404
 20
30.5553352704
 10
-7.440339705
 20
30.5554537845
 10
-7.4441143433
 20
30.5553319805
 10
-7.4479162066
 20
30.5549699736
 10
-7.4517412898
 20
30.5543683882
 10
-7.4555845242
 20
30.5535279081
 10
-7.4594408671
 20
30.552449516
 10
-7.4633063155
 20
30.5511347141
 10
-7.4671761312
 20
30.5495851301
 10
-7.4710448466
 20
30.5478025181
 10
-7.4749073555
 20
30.5457889934
  0
LWPOLYLINE
  5
3DE
100
AcDbEntity
  8
RACCORDO
100
AcDbPolyline
 62
7
  6
CONTINUOUS
 90
33
 70
0
 10
-7.4307181174
 20
30.5546513504
 10
-7.4423311154
 20
30.5565782115
 10
-7.4671704307
 20
30.56043544
 10
-7.4922223506
 20
30.5639748164
 10
-7.517473527
 20
30.5672013316
 10
-7.5429268745
 20
30.5701209776
 10
-7.5685607271
 20
30.5727361524
 10
-7.5943540754
 20
30.5750495106
 10
-7.6203103231
 20
30.5770652233
 10
-7.6464083339
 20
30.5787850658
 10
-7.6726277018
 20
30.5802108972
 10
-7.6989724852
 20
30.5813453867
 10
-7.7254224365
 20
30.5821897887
 10
-7.7519571056
 20
30.5827452748
 10
-7.7785799516
 20
30.5830132155
 10
-7.8052724521
 20
30.5829943629
 10
-7.8320128175
 20
30.5826893423
 10
-7.8587994181
 20
30.582098533
 10
-7.8856136528
 20
30.5812223163
 10
-7.912433717
 20
30.5800610867
 10
-7.9392531377
 20
30.5786147203
 10
-7.9660514508
 20
30.5768834899
 10
-7.9928084235
 20
30.5748676808
 10
-8.0195180039
 20
30.5725665797
 10
-8.0461582531
 20
30.5699803839
 10
-8.0727100421
 20
30.5671091877
 10
-8.0991715111
 20
30.5639510542
 10
-8.1255211717
 20
30.5605057457
 10
-8.1517387633
 20
30.5567731229
 10
-8.1778240364
 20
30.5527498258
 10
-8.2037541305
 20
30.5484353013
 10
-8.2295091332
 20
30.5438287751
 10
-8.2396732008
 20
30.5418803835
  0
LWPOLYLINE
  5
3DF
100
AcDbEntity
  8
RACCORDO
100
AcDbPolyline
 62
250
  6
CONTINUOUS
 90
12
 70
0
 10
-4.2479574823
 20
28.8807534092
 10
-4.2584326921
 20
28.8827776207
 10
-4.2688529369
 20
28.884154172
 10
-4.2791896436
 20
28.8848792844
 10
-4.2894144778
 20
28.8849509655
 10
-4.2994993916
 20
28.8843690135
 10
-4.3094167024
 20
28.8831350245
 10
-4.3191392107
 20
28.8812523852
 10
-4.3286402636
 20
28.8787262587
 10
-4.3378938008
 20
28.8755635767
 10
-4.3468744486
 20
28.8717730152
 10
-4.3508923378
 20
28.8698287557
  0
LWPOLYLINE
  5
3E0
100
AcDbEntity
  8
RACCORDO
100
AcDbPolyline
 62
250
  6
CONTINUOUS
 90
12
 70
0
 10
-19.3296360003
 20
32.3008700697
 10
-19.3401089171
 20
32.302893908
 10
-19.3505268776
 20
32.3042703689
 10
-19.3608613281
 20
32.30499568
 10
-19.3710839439
 20
32.3050678531
 10
-19.3811667066
 20
32.3044866906
 10
-19.3910819813
 20
32.3032537852
 10
-19.4008025921
 20
32.3013725162
 10
-19.4103018966
 20
32.2988480397
 10
-19.4195538591
 20
32.2956872749
 10
-19.4285331215
 20
32.2918988848
 10
-19.4325724888
 20
32.2899445932
  0
LINE
  5
3E1
100
AcDbEntity
  8
RACCORDO
100
AcDbLine
 62
7
  6
CONTINUOUS
 10
-7.4276600936
 20
30.5540458738
 11
-7.4307182327
 21
30.5546513763
  0
LWPOLYLINE
  5
3E2
100
AcDbEntity
  8
RACCORDO
100
AcDbPolyline
 62
7
  6
CONTINUOUS
 90
12
 70
0
 10
-2.9041933252
 20
29.5579912907
 10
-2.9136754399
 20
29.5598781952
 10
-2.9231165269
 20
29.5612293055
 10
-2.9324951133
 20
29.5620416022
 10
-2.9417898021
 20
29.5623133195
 10
-2.9509795327
 20
29.562043842
 10
-2.9600436287
 20
29.5612337055
 10
-2.9689615082
 20
29.5598847678
 10
-2.977712892
 20
29.558000121
 10
-2.9862780623
 20
29.5555839774
 10
-2.9946375849
 20
29.5526418242
 10
-3.0027724618
 20
29.5491803548
  0
LWPOLYLINE
  5
3E3
100
AcDbEntity
  8
RACCORDO
100
AcDbPolyline
 62
250
  6
CONTINUOUS
 90
12
 70
0
 10
-2.4484116297
 20
29.7742413618
 10
-2.4587953502
 20
29.7763088263
 10
-2.469129156
 20
29.7777264477
 10
-2.4793847239
 20
29.7784903406
 10
-2.4895339454
 20
29.7785984111
 10
-2.4995490034
 20
29.7780503632
 10
-2.5094024485
 20
29.7768476989
 10
-2.5190672743
 20
29.7749937146
 10
-2.5285169912
 20
29.7724934916
 10
-2.5377256994
 20
29.7693538825
 10
-2.5466681596
 20
29.7655834926
 10
-2.5477483073
 20
29.7650767423
  0
LWPOLYLINE
  5
3E4
100
AcDbEntity
  8
RACCORDO
100
AcDbPolyline
 62
7
  6
CONTINUOUS
 90
12
 70
0
 10
-17.9858718431
 20
32.9781079512
 10
-17.9953539579
 20
32.9799948556
 10
-18.0047950448
 20
32.981345966
 10
-18.0141736312
 20
32.9821582626
 10
-18.0234683201
 20
32.98242998
 10
-18.0326580507
 20
32.9821605024
 10
-18.0417221467
 20
32.981350366
 10
-18.0506400262
 20
32.9800014283
 10
-18.05939141
 20
32.9781167814
 10
-18.0679565802
 20
32.9757006379
 10
-18.0763161029
 20
32.9727584847
 10
-18.0844509797
 20
32.9692970153
  0
LWPOLYLINE
  5
3E5
100
AcDbEntity
  8
RACCORDO
100
AcDbPolyline
 62
250
  6
CONTINUOUS
 90
12
 70
0
 10
-17.5300901477
 20
33.1943580223
 10
-17.5404491746
 20
33.1964213311
 10
-17.5507650463
 20
33.1978385862
 10
-17.5610094681
 20
33.1986046941
 10
-17.5711563612
 20
33.1987162855
 10
-17.5811755523
 20
33.1981715938
 10
-17.5910331599
 20
33.196971838
 10
-17.6007000603
 20
33.1951207847
 10
-17.6101519232
 20
33.1926233189
 10
-17.6193630906
 20
33.1894861921
 10
-17.6283084586
 20
33.1857178741
 10
-17.6294240314
 20
33.1851947283
  0
LWPOLYLINE
  5
3E6
100
AcDbEntity
  8
RACCORDO
100
AcDbPolyline
 62
250
  6
CONTINUOUS
 90
31
 70
0
 10
-17.9615636036
 20
31.2856435062
 10
-17.9509558897
 20
31.2833844782
 10
-17.9399677124
 20
31.2813318016
 10
-17.9286289727
 20
31.2794910623
 10
-17.9169705432
 20
31.2778672715
 10
-17.9050241321
 20
31.2764648451
 10
-17.8928221927
 20
31.2752875945
 10
-17.8803978885
 20
31.274338724
 10
-17.8677850626
 20
31.2736208225
 10
-17.8550180936
 20
31.2731358486
 10
-17.8421317433
 20
31.2728851221
 10
-17.8291610601
 20
31.2728693246
 10
-17.8161413413
 20
31.2730884989
 10
-17.8031080066
 20
31.2735420491
 10
-17.7900965339
 20
31.274228741
 10
-17.7771423624
 20
31.2751467032
 10
-17.7642807641
 20
31.2762934341
 10
-17.7515467166
 20
31.2776658127
 10
-17.7389748413
 20
31.279260107
 10
-17.7265992376
 20
31.281071996
 10
-17.7144536981
 20
31.2830965354
 10
-17.7025715659
 20
31.285328158
 10
-17.6909853431
 20
31.287760734
 10
-17.679726332
 20
31.290387665
 10
-17.668824873
 20
31.2932018622
 10
-17.6583095863
 20
31.2961959796
 10
-17.6482102062
 20
31.2993615946
 10
-17.6385568345
 20
31.3026891464
 10
-17.6293761746
 20
31.3061691237
 10
-17.6206918619
 20
31.3097922452
 10
-17.6125270645
 20
31.3135485534
  0
LWPOLYLINE
  5
3E7
100
AcDbEntity
  8
RACCORDO
100
AcDbPolyline
 62
250
  6
CONTINUOUS
 90
31
 70
0
 10
-2.8935515065
 20
28.2339240633
 10
-2.8829424783
 20
28.2316647728
 10
-2.8719528718
 20
28.2296118802
 10
-2.8606125966
 20
28.2277709747
 10
-2.848952505
 20
28.2261470669
 10
-2.8370043444
 20
28.2247445806
 10
-2.8248006735
 20
28.2235673382
 10
-2.8123747194
 20
28.222618544
 10
-2.7997602961
 20
28.2219007792
 10
-2.7869917511
 20
28.2214159972
 10
-2.7741038421
 20
28.2211655164
 10
-2.7611316467
 20
28.2211500173
 10
-2.7481104791
 20
28.2213695407
 10
-2.735075766
 20
28.2218234883
 10
-2.7220630013
 20
28.222510623
 10
-2.7091076539
 20
28.223429069
 10
-2.6962450382
 20
28.224576317
 10
-2.6835101067
 20
28.2259492439
 10
-2.6709374096
 20
28.2275441236
 10
-2.6585610088
 20
28.229356642
 10
-2.6464147567
 20
28.2313818482
 10
-2.6345320707
 20
28.233614161
 10
-2.6229454909
 20
28.2360474387
 10
-2.6116862901
 20
28.2386750843
 10
-2.6007847786
 20
28.2414900132
 10
-2.5902683557
 20
28.244485243
 10
-2.5801680908
 20
28.2476520209
 10
-2.5705174343
 20
28.2509795737
 10
-2.5613436458
 20
28.2544578054
 10
-2.5526686363
 20
28.2580776766
 10
-2.5445149674
 20
28.2618291104
  0
LWPOLYLINE
  5
3E8
100
AcDbEntity
  8
RACCORDO
100
AcDbPolyline
 62
250
  6
CONTINUOUS
 90
31
 70
0
 10
-17.9752300244
 20
31.6540407237
 10
-17.964648573
 20
31.6517869399
 10
-17.9536815761
 20
31.6497372948
 10
-17.9423580966
 20
31.64789773
 10
-17.9307058379
 20
31.6462733233
 10
-17.9187582126
 20
31.6448692944
 10
-17.9065548185
 20
31.6436905315
 10
-17.8941315551
 20
31.6427404217
 10
-17.8815196493
 20
31.6420212742
 10
-17.868753085
 20
31.641535036
 10
-17.8558663586
 20
31.6412830458
 10
-17.8428947676
 20
31.6412660187
 10
-17.8298739844
 20
31.6414840095
 10
-17.8168396105
 20
31.6419364159
 10
-17.8038269608
 20
31.6426220058
 10
-17.79087134
 20
31.6435389203
 10
-17.7780079586
 20
31.6446846729
 10
-17.7652718832
 20
31.6460561459
 10
-17.7526978275
 20
31.6476496039
 10
-17.7403200306
 20
31.6494607092
 10
-17.7281721702
 20
31.6514845352
 10
-17.716287317
 20
31.6537155737
 10
-17.7046978193
 20
31.6561477538
 10
-17.6934352258
 20
31.6587744561
 10
-17.6825302032
 20
31.6615885292
 10
-17.6720124274
 20
31.6645823165
 10
-17.6619105352
 20
31.6677476675
 10
-17.6522520525
 20
31.6710759566
 10
-17.6430632746
 20
31.67455812
 10
-17.6343691987
 20
31.6781846821
 10
-17.6261934854
 20
31.6819457709
  0
LWPOLYLINE
  5
3E9
100
AcDbEntity
  8
0
100
AcDbPolyline
 62
7
  6
CONTINUOUS
 90
40
 70
0
 10
-7.3124276736
 20
31.0103769702
 10
-7.3451356636
 20
31.0174403509
 10
-7.3786559097
 20
31.0239952138
 10
-7.4129884119
 20
31.0300415591
 10
-7.4481914673
 20
31.0355875593
 10
-7.4842067788
 20
31.0406250419
 10
-7.5208594553
 20
31.0451294885
 10
-7.5581526161
 20
31.049098297
 10
-7.5960831419
 20
31.0525340695
 10
-7.6344667836
 20
31.0554200936
 10
-7.6733054065
 20
31.0577536912
 10
-7.7125971453
 20
31.0595375405
 10
-7.7521521558
 20
31.0607629633
 10
-7.7919721998
 20
31.0614272617
 10
-7.8320555154
 20
31.0615331336
 10
-7.872206973
 20
31.0610799944
 10
-7.9124267933
 20
31.060065104
 10
-7.9527147555
 20
31.0584912025
 10
-7.9928750677
 20
31.0563659259
 10
-8.0329070223
 20
31.0536865916
 10
-8.0728113269
 20
31.0504558823
 10
-8.1123943124
 20
31.0466894817
 10
-8.1516544159
 20
31.0423847855
 10
-8.1905932002
 20
31.0375443981
 10
-8.2290216853
 20
31.0321918157
 10
-8.2669373892
 20
31.0263245487
 10
-8.3043427939
 20
31.0199450867
 10
-8.3410563643
 20
31.0130843962
 10
-8.377074736
 20
31.0057401378
 10
-8.4124012736
 20
30.9979146509
 10
-8.4468645351
 20
30.9896459195
 10
-8.4804603227
 20
30.9809317892
 10
-8.5131928343
 20
30.9717744145
 10
-8.5449032213
 20
30.9622182435
 10
-8.5755865136
 20
30.9522613378
 10
-8.6052476813
 20
30.9419056357
 10
-8.6337427867
 20
30.9312014002
 10
-8.6610238506
 20
30.9201653858
 10
-8.6871388522
 20
30.9087808379
 10
-8.7120877915
 20
30.8970477568
  0
LWPOLYLINE
  5
3EA
100
AcDbEntity
  8
RACCORDO
100
AcDbPolyline
 62
250
  6
CONTINUOUS
 90
10
 70
0
 10
-0.8761567778
 20
29.440788052
 10
-0.8776088573
 20
29.441102897
 10
-0.8850215027
 20
29.4422931312
 10
-0.8925603796
 20
29.4428157691
 10
-0.9002066636
 20
29.4426692816
 10
-0.9079378934
 20
29.441853878
 10
-0.9157280831
 20
29.4403729225
 10
-0.9235542974
 20
29.4382322191
 10
-0.9313968661
 20
29.4354385829
 10
-0.9392345076
 20
29.4320008206
  0
LWPOLYLINE
  5
3EB
100
AcDbEntity
  8
RACCORDO
100
AcDbPolyline
 62
250
  6
CONTINUOUS
 90
10
 70
0
 10
-2.385304216
 20
29.7830218713
 10
-2.3867859794
 20
29.7833434382
 10
-2.3941986249
 20
29.7845336724
 10
-2.4017375017
 20
29.7850563104
 10
-2.4093837858
 20
29.7849098229
 10
-2.4171150156
 20
29.7840944193
 10
-2.4249052053
 20
29.7826134638
 10
-2.4327314195
 20
29.7804727604
 10
-2.4405739883
 20
29.7776791242
 10
-2.4484116297
 20
29.7742413618
  0
LWPOLYLINE
  5
3EC
100
AcDbEntity
  8
RACCORDO
100
AcDbPolyline
 62
250
  6
CONTINUOUS
 90
10
 70
0
 10
-15.9577956672
 20
32.860895736
 10
-15.9592528568
 20
32.8612123897
 10
-15.9666640093
 20
32.8624056582
 10
-15.9742014582
 20
32.8629314936
 10
-15.9818446965
 20
32.8627884653
 10
-15.9895729295
 20
32.8619769624
 10
-15.9973651314
 20
32.8604991927
 10
-16.0052001019
 20
32.8583591767
 10
-16.0130565249
 20
32.8555627368
 10
-16.0209130255
 20
32.852117481
  0
LWPOLYLINE
  5
3ED
100
AcDbEntity
  8
RACCORDO
100
AcDbPolyline
 62
250
  6
CONTINUOUS
 90
10
 70
0
 10
-17.4669727894
 20
33.2031362773
 10
-17.468429979
 20
33.2034529309
 10
-17.4758411315
 20
33.2046461995
 10
-17.4833785804
 20
33.2051720349
 10
-17.4910218187
 20
33.2050290066
 10
-17.4987500517
 20
33.2042175037
 10
-17.5065422535
 20
33.202739734
 10
-17.5143772241
 20
33.200599718
 10
-17.522233647
 20
33.197803278
 10
-17.5300901477
 20
33.1943580223
  0
LINE
  5
3EE
100
AcDbEntity
  8
RACCORDO
100
AcDbLine
 62
250
  6
CONTINUOUS
 10
-2.8935515065
 20
28.2339240633
 11
-4.3888012257
 21
28.5730062463
  0
LINE
  5
3EF
100
AcDbEntity
  8
RACCORDO
100
AcDbLine
 62
250
  6
CONTINUOUS
 10
-17.9752300244
 20
31.6540407237
 11
-19.4704797436
 21
31.9931229068
  0
LINE
  5
3F0
100
AcDbEntity
  8
RACCORDO
100
AcDbLine
 62
250
  6
CONTINUOUS
 10
-7.1473849959
 20
29.2476831889
 11
-13.3669138089
 21
30.6581040574
  0
LINE
  5
3F1
100
AcDbEntity
  8
RACCORDO
100
AcDbLine
 62
250
  6
CONTINUOUS
 10
-6.7162195109
 20
29.4216558926
 11
-13.5727293046
 21
30.9765268143
  0
LINE
  5
3F2
100
AcDbEntity
  8
RACCORDO
100
AcDbLine
 62
250
  6
CONTINUOUS
 10
-2.7527077632
 20
28.5416712262
 11
-4.2479574823
 21
28.8807534092
  0
LINE
  5
3F3
100
AcDbEntity
  8
RACCORDO
100
AcDbLine
 62
250
  6
CONTINUOUS
 10
-17.8343862811
 20
31.9617878866
 11
-19.3296360003
 21
32.3008700697
  0
LINE
  5
3F4
100
AcDbEntity
  8
DRAFT
100
AcDbLine
 62
7
  6
CONTINUOUS
 10
-13.1736650094
 20
31.2354556677
 11
-6.1515078158
 21
29.6430203972
  0
LINE
  5
3F5
100
AcDbEntity
  8
DRAFT
100
AcDbLine
 62
7
  6
CONTINUOUS
 10
-6.2677927386
 20
30.094711243
 11
-11.8535995971
 21
31.3614211172
  0
LINE
  5
3F6
100
AcDbEntity
  8
RACCORDO
100
AcDbLine
 62
250
  6
CONTINUOUS
 10
-6.0168354486
 20
30.2151377323
 11
-7.474907519
 21
30.5457890305
  0
LINE
  5
3F7
100
AcDbEntity
  8
RACCORDO
100
AcDbLine
 62
7
  6
CONTINUOUS
 10
-5.9899883366
 20
30.2280208148
 11
-7.4276602167
 21
30.5540459017
  0
LINE
  5
3F8
100
AcDbEntity
  8
RACCORDO
100
AcDbLine
 62
7
  6
CONTINUOUS
 10
-17.9858718431
 20
32.9781079512
 11
-16.4697175151
 21
32.6342851684
  0
LINE
  5
3F9
100
AcDbEntity
  8
RACCORDO
100
AcDbLine
 62
7
  6
CONTINUOUS
 10
-2.9041933252
 20
29.5579912907
 11
-1.3880389972
 21
29.214168508
  0
LINE
  5
3FA
100
AcDbEntity
  8
RACCORDO
100
AcDbLine
 62
250
  6
CONTINUOUS
 10
-17.5300901477
 20
33.1943580223
 11
-16.0209130255
 21
32.852117481
  0
LINE
  5
3FB
100
AcDbEntity
  8
RACCORDO
100
AcDbLine
 62
250
  6
CONTINUOUS
 10
-2.4484116297
 20
29.7742413618
 11
-0.9392345076
 21
29.4320008206
  0
LINE
  5
3FC
100
AcDbEntity
  8
RACCORDO
100
AcDbLine
 62
7
  6
CONTINUOUS
 10
-17.4669727894
 20
33.2031362773
 11
-15.9577956672
 21
32.860895736
  0
LINE
  5
3FD
100
AcDbEntity
  8
RACCORDO
100
AcDbLine
 62
7
  6
CONTINUOUS
 10
-2.3852942715
 20
29.7830196168
 11
-0.8761171493
 21
29.4407790756
  0
LINE
  5
3FE
100
AcDbEntity
  8
ASSI
100
AcDbLine
 62
7
  6
CONTINUOUS
 10
-7.3124276736
 20
31.0103769702
 11
-5.3072337104
 21
30.5556532289
  0
LINE
  5
3FF
100
AcDbEntity
  8
0
100
AcDbLine
 62
7
  6
CONTINUOUS
 10
-7.7114138778
 20
31.100856247
 11
-8.110400082
 21
31.1913355237
  0
LINE
  5
400
100
AcDbEntity
  8
DRAFT
100
AcDbLine
 62
7
  6
CONTINUOUS
 10
-8.1326120577
 20
31.7900899546
 11
-7.7336258536
 21
31.6996106779
  0
LINE
  5
401
100
AcDbEntity
  8
DRAFT
100
AcDbLine
 62
7
  6
CONTINUOUS
 10
3.0983002876
 20
29.375989688
 11
4.0292157546
 21
29.1648832455
  0
LINE
  5
402
100
AcDbEntity
  8
RACCORDO
100
AcDbLine
 62
7
  6
CONTINUOUS
 10
19.6942455096
 20
21.2665947851
 11
19.6750831222
 21
21.2748503687
  0
LWPOLYLINE
  5
403
100
AcDbEntity
  8
RACCORDO
100
AcDbPolyline
 62
250
  6
CONTINUOUS
 90
37
 70
0
 10
20.2600934396
 20
-1.3784060945
 10
20.2834445755
 20
-1.3546170076
 10
20.3062191929
 20
-1.3300885458
 10
20.3284064214
 20
-1.304832409
 10
20.3499956016
 20
-1.2788607069
 10
20.3709765064
 20
-1.252185761
 10
20.3913393347
 20
-1.2248200857
 10
20.4110744264
 20
-1.1967766285
 10
20.4301722937
 20
-1.1680688254
 10
20.4486238413
 20
-1.1387104009
 10
20.4664202511
 20
-1.1087153804
 10
20.4835530579
 20
-1.0780980096
 10
20.5000141708
 20
-1.0468727997
 10
20.5157957496
 20
-1.015054612
 10
20.5308902649
 20
-0.9826585973
 10
20.5452905754
 20
-0.9497001174
 10
20.5589898359
 20
-0.9161948288
 10
20.571981502
 20
-0.882158702
 10
20.5842593873
 20
-0.8476079574
 10
20.5958176562
 20
-0.8125590307
 10
20.6066508032
 20
-0.7770286011
 10
20.6167536575
 20
-0.7410336109
 10
20.6261214216
 20
-0.7045912062
 10
20.6347496493
 20
-0.6677187011
 10
20.6426342237
 20
-0.6304336066
 10
20.6497714136
 20
-0.5927536521
 10
20.6561578318
 20
-0.5546967595
 10
20.6617904087
 20
-0.5162810055
 10
20.6666664968
 20
-0.4775245922
 10
20.670783779
 20
-0.438446008
 10
20.6741402295
 20
-0.3990640012
 10
20.6767342837
 20
-0.3593974082
 10
20.6785647468
 20
-0.319464977
 10
20.6796306904
 20
-0.2792855224
 10
20.6799316016
 20
-0.2388780839
 10
20.6794673968
 20
-0.1982619206
 10
20.6782383288
 20
-0.1574563346
  0
LWPOLYLINE
  5
404
100
AcDbEntity
  8
RACCORDO
100
AcDbPolyline
 62
7
  6
CONTINUOUS
 90
37
 70
0
 10
20.3652748554
 20
-1.3018791891
 10
20.3854215591
 20
-1.2815196515
 10
20.4122120903
 20
-1.2532755168
 10
20.4384024309
 20
-1.2242836695
 10
20.4639704858
 20
-1.1945595045
 10
20.488899242
 20
-1.1641141353
 10
20.5131766465
 20
-1.1329534151
 10
20.5367850039
 20
-1.1010903035
 10
20.5597070903
 20
-1.0685381688
 10
20.5819317561
 20
-1.0353027886
 10
20.6034429999
 20
-1.0013968394
 10
20.6242234605
 20
-0.9668358966
 10
20.6442605782
 20
-0.9316292404
 10
20.6635392867
 20
-0.8957908937
 10
20.6820442334
 20
-0.859336005
 10
20.6997633457
 20
-0.8222747342
 10
20.7166826451
 20
-0.784621829
 10
20.7327881811
 20
-0.7463923913
 10
20.7480687844
 20
-0.7075962191
 10
20.7625132474
 20
-0.6682433352
 10
20.7761066842
 20
-0.6283536036
 10
20.7888341143
 20
-0.5879509583
 10
20.8006860231
 20
-0.547044573
 10
20.8116492092
 20
-0.5056556156
 10
20.8217068896
 20
-0.4638260109
 10
20.8308510961
 20
-0.4215684893
 10
20.8390724246
 20
-0.3789013136
 10
20.8463571785
 20
-0.3358749346
 10
20.8526997138
 20
-0.2925040271
 10
20.8580939248
 20
-0.2488049631
 10
20.862530957
 20
-0.2048310388
 10
20.8660075882
 20
-0.1605973749
 10
20.8685203936
 20
-0.1161197133
 10
20.8700652798
 20
-0.0714517198
 10
20.8706410979
 20
-0.0266207797
 10
20.8702475276
 20
0.0183693488
 10
20.8691991716
 20
0.0554098637
  0
LINE
  5
405
100
AcDbEntity
  8
RACCORDO
100
AcDbLine
 62
250
  6
CONTINUOUS
 10
19.9836533054
 20
-1.6527854086
 11
20.2600934396
 21
-1.3784060945
  0
LINE
  5
406
100
AcDbEntity
  8
RACCORDO
100
AcDbLine
 62
7
  6
CONTINUOUS
 10
20.0940232059
 20
-1.5711087151
 11
20.3652704142
 21
-1.3018836144
  0
LWPOLYLINE
  5
407
100
AcDbEntity
  8
RACCORDO
100
AcDbPolyline
 62
250
  6
CONTINUOUS
 90
34
 70
0
 10
-4.521231483
 20
-15.6866948783
 10
-4.5361030194
 20
-15.6943425052
 10
-4.5518137231
 20
-15.7017670919
 10
-4.5683287902
 20
-15.7089521906
 10
-4.5856116345
 20
-15.7158818842
 10
-4.6036239693
 20
-15.7225408211
 10
-4.6223258915
 20
-15.7289142498
 10
-4.6416759706
 20
-15.7349880512
 10
-4.6616313402
 20
-15.7407487699
 10
-4.6821477929
 20
-15.746183644
 10
-4.7031798783
 20
-15.7512806337
 10
-4.7246810039
 20
-15.7560284476
 10
-4.7466035379
 20
-15.7604165677
 10
-4.7688989151
 20
-15.764435273
 10
-4.7915177444
 20
-15.7680756608
 10
-4.8144099179
 20
-15.7713296665
 10
-4.8375247223
 20
-15.7741900816
 10
-4.8608109513
 20
-15.7766505692
 10
-4.8842170184
 20
-15.7787056786
 10
-4.9076910721
 20
-15.7803508572
 10
-4.9311811099
 20
-15.7815824603
 10
-4.9546350942
 20
-15.7823977595
 10
-4.978001067
 20
-15.7827949488
 10
-5.0012272654
 20
-15.7827731482
 10
-5.0242622362
 20
-15.782332406
 10
-5.0470549497
 20
-15.7814736986
 10
-5.069554913
 20
-15.7801989283
 10
-5.0917122816
 20
-15.7785109191
 10
-5.1134779701
 20
-15.7764134105
 10
-5.1348037608
 20
-15.7739110491
 10
-5.1556424102
 20
-15.7710093785
 10
-5.1759477544
 20
-15.7677148266
 10
-5.1956748107
 20
-15.764034692
 10
-5.2147798775
 20
-15.7599771274
  0
LINE
  5
408
100
AcDbEntity
  8
RACCORDO
100
AcDbLine
 62
7
  6
CONTINUOUS
 10
3.8198538322
 20
-11.2165175896
 11
1.3629442566
 21
-12.4317427737
  0
LINE
  5
409
100
AcDbEntity
  8
RACCORDO
100
AcDbLine
 62
250
  6
CONTINUOUS
 10
0.8131673058
 20
-14.4607460379
 11
1.4271345925
 21
-14.1620817788
  0
LINE
  5
40A
100
AcDbEntity
  8
RACCORDO
100
AcDbLine
 62
7
  6
CONTINUOUS
 10
0.6301389981
 20
-14.8212635918
 11
1.2472515796
 21
-14.5210693047
  0
LINE
  5
40B
100
AcDbEntity
  8
RACCORDO
100
AcDbLine
 62
7
  6
CONTINUOUS
 10
4.6905332493
 20
-10.5037860825
 11
1.3506111027
 21
-12.0992856035
  0
LWPOLYLINE
  5
40C
100
AcDbEntity
  8
RACCORDO
100
AcDbPolyline
 62
7
  6
CONTINUOUS
 90
23
 70
0
 10
-6.7162195109
 20
29.4216558926
 10
-6.7330344851
 20
29.4190718916
 10
-6.7497920529
 20
29.415845337
 10
-6.7664645631
 20
29.4120666969
 10
-6.7830331789
 20
29.4078438685
 10
-6.799479477
 20
29.4032441633
 10
-6.8157812664
 20
29.3982792985
 10
-6.8319256152
 20
29.393008375
 10
-6.8479074651
 20
29.3874985317
 10
-6.8637147967
 20
29.381748213
 10
-6.8793417921
 20
29.3758011523
 10
-6.8947864503
 20
29.3697085431
 10
-6.9100392101
 20
29.3634637744
 10
-6.9250980185
 20
29.3571005674
 10
-6.9399623427
 20
29.3506588159
 10
-6.9546213711
 20
29.3441311096
 10
-6.9690749134
 20
29.3375447099
 10
-6.9833233738
 20
29.330931562
 10
-6.9973536082
 20
29.3242852256
 10
-7.0111665781
 20
29.31762862
 10
-7.0247631613
 20
29.3109881979
 10
-7.0381273669
 20
29.3043592966
 10
-7.0641652426
 20
29.2912184546
  0
LINE
  5
40D
100
AcDbEntity
  8
0
100
AcDbLine
 62
7
  6
CONTINUOUS
 10
-5.3404628033
 20
31.591678341
 11
-6.5220181876
 21
31.6825942419
  0
LWPOLYLINE
  5
40E
100
AcDbEntity
  8
ASSI
100
AcDbPolyline
 62
7
  6
CONTINUOUS
 90
9
 70
0
 10
-7.8315701851
 20
33.2613363531
 10
-7.83818479
 20
33.2624282924
 10
-7.8450859194
 20
33.2628972352
 10
-7.8525829308
 20
33.2628185747
 10
-7.8606464889
 20
33.2622082577
 10
-7.8692334937
 20
33.2611207616
 10
-7.8783062984
 20
33.2595778534
 10
-7.8878364755
 20
33.2575691189
 10
-7.8977915707
 20
33.2550992888
  0
LWPOLYLINE
  5
40F
100
AcDbEntity
  8
ASSI
100
AcDbPolyline
 62
7
  6
CONTINUOUS
 90
9
 70
0
 10
-1.5627468713
 20
31.8397365184
 10
-1.568657225
 20
31.8407465312
 10
-1.5754526323
 20
31.8412730318
 10
-1.5828399021
 20
31.8412561896
 10
-1.5907897839
 20
31.8407113403
 10
-1.5992607041
 20
31.8396917756
 10
-1.6082160044
 20
31.8382188736
 10
-1.6176274352
 20
31.836282582
 10
-1.6274630761
 20
31.8338876332
  0
LWPOLYLINE
  5
410
100
AcDbEntity
  8
RACCORDO
100
AcDbPolyline
 62
7
  6
CONTINUOUS
 90
12
 70
0
 10
-5.7318807613
 20
32.5660597025
 10
-5.7455662321
 20
32.568862336
 10
-5.7683938205
 20
32.5722268581
 10
-5.7914909912
 20
32.5740071759
 10
-5.8148720651
 20
32.5742133858
 10
-5.838446047
 20
32.5728455972
 10
-5.8622256375
 20
32.5698961783
 10
-5.886198136
 20
32.5653727609
 10
-5.9102344467
 20
32.5592983507
 10
-5.9342915373
 20
32.5516806164
 10
-5.9584124399
 20
32.5425118892
 10
-5.9825971546
 20
32.5317921692
  0
LINE
  5
411
100
AcDbEntity
  8
0
100
AcDbLine
 62
7
  6
CONTINUOUS
 10
-4.1022933447
 20
31.133866112
 11
-6.5220181876
 21
31.6825942419
  0
LINE
  5
412
100
AcDbEntity
  8
0
100
AcDbLine
 62
7
  6
CONTINUOUS
 10
-3.8517718054
 20
31.2540834985
 11
-5.3404628033
 21
31.591678341
  0
LINE
  5
413
100
AcDbEntity
  8
RACCORDO
100
AcDbLine
 62
250
  6
CONTINUOUS
 10
-9.443678657
 20
33.3166718161
 11
-8.9994784057
 21
33.2159392167
  0
LINE
  5
414
100
AcDbEntity
  8
RACCORDO
100
AcDbLine
 62
250
  6
CONTINUOUS
 10
-7.7965903511
 20
32.9431567495
 11
-5.9825971546
 21
32.5317921692
  0
LINE
  5
415
100
AcDbEntity
  8
RACCORDO
100
AcDbLine
 62
250
  6
CONTINUOUS
 10
-1.1947627045
 20
31.4460408485
 11
2.266318798
 21
30.6611612016
  0
LINE
  5
416
100
AcDbEntity
  8
RACCORDO
100
AcDbLine
 62
7
  6
CONTINUOUS
 10
-9.2667482632
 20
33.3676818093
 11
-8.869517239
 21
33.2776005599
  0
LINE
  5
417
100
AcDbEntity
  8
RACCORDO
100
AcDbLine
 62
7
  6
CONTINUOUS
 10
-7.7999997923
 20
33.0350629383
 11
-5.7318786497
 21
32.5660690151
  0
LINE
  5
418
100
AcDbEntity
  8
RACCORDO
100
AcDbLine
 62
7
  6
CONTINUOUS
 10
-0.9440441995
 20
31.4803176943
 11
2.590825414
 21
30.6787049001
  0
LINE
  5
419
100
AcDbEntity
  8
ASSI
100
AcDbLine
 62
250
  6
CONTINUOUS
 10
-1.6704121737
 20
31.8179706245
 11
-2.3537553294
 21
31.9729343647
  0
LINE
  5
41A
100
AcDbEntity
  8
ASSI
100
AcDbLine
 62
250
  6
CONTINUOUS
 10
-7.9395621879
 20
33.2396442389
 11
-8.6229053436
 21
33.3946079791
  0
LINE
  5
41B
100
AcDbEntity
  8
ASSI
100
AcDbLine
 62
7
  6
CONTINUOUS
 10
-1.5627467191
 20
31.8397381407
 11
-2.2092780231
 21
31.9863539488
  0
LINE
  5
41C
100
AcDbEntity
  8
ASSI
100
AcDbLine
 62
7
  6
CONTINUOUS
 10
-7.8315700611
 20
33.2613376747
 11
-8.4781013651
 21
33.4079534829
  0
LINE
  5
41D
100
AcDbEntity
  8
RACCORDO
100
AcDbLine
 62
7
  6
CONTINUOUS
 10
19.5689191851
 20
24.6449386559
 11
19.5497567978
 21
24.6531942395
  0
LINE
  5
41E
100
AcDbEntity
  8
RACCORDO
100
AcDbLine
 62
7
  6
CONTINUOUS
 10
5.8657608123
 20
34.6788835498
 11
5.7969765004
 21
34.7304327602
  0
LWPOLYLINE
  5
41F
100
AcDbEntity
  8
RACCORDO
100
AcDbPolyline
 62
250
  6
CONTINUOUS
 90
20
 70
0
 10
0.8741531025
 20
-16.5292600693
 10
0.8821994607
 20
-16.5244408363
 10
0.8902192127
 20
-16.5188397362
 10
0.8978728868
 20
-16.5126622888
 10
0.9051395618
 20
-16.5059253759
 10
0.9119993338
 20
-16.4986474283
 10
0.918433355
 20
-16.4908484193
 10
0.9244239533
 20
-16.4825497576
 10
0.9299546935
 20
-16.4737742057
 10
0.9350104146
 20
-16.464545814
 10
0.9395772491
 20
-16.4548898877
 10
0.9436426728
 20
-16.4448328997
 10
0.9471955345
 20
-16.4344024265
 10
0.9502260871
 20
-16.4236270772
 10
0.9527260207
 20
-16.4125363904
 10
0.954688477
 20
-16.4011607837
 10
0.9561080703
 20
-16.3895314827
 10
0.9569809108
 20
-16.3776803885
 10
0.9573046102
 20
-16.3656399875
 10
0.9570782844
 20
-16.353443296
  0
LWPOLYLINE
  5
420
100
AcDbEntity
  8
RACCORDO
100
AcDbPolyline
 62
7
  6
CONTINUOUS
 90
22
 70
0
 10
0.4242625408
 20
-16.7560613714
 10
0.4318934876
 20
-16.7515858985
 10
0.4392462694
 20
-16.7466180482
 10
0.4463041883
 20
-16.7411690938
 10
0.4530512498
 20
-16.7352513812
 10
0.4594721951
 20
-16.728878303
 10
0.465552476
 20
-16.7220642992
 10
0.4712782938
 20
-16.7148248178
 10
0.4766366846
 20
-16.7071762553
 10
0.4816155465
 20
-16.6991359239
 10
0.4862035576
 20
-16.6907220589
 10
0.4903903132
 20
-16.6819537267
 10
0.4941664039
 20
-16.6728507585
 10
0.4975232156
 20
-16.6634338056
 10
0.5004531139
 20
-16.6537242155
 10
0.502949574
 20
-16.643743934
 10
0.5050068644
 20
-16.6335156075
 10
0.5066202765
 20
-16.6230624299
 10
0.5077863024
 20
-16.612408014
 10
0.5085022976
 20
-16.6015764983
 10
0.5087664872
 20
-16.5905924922
 10
0.5085781869
 20
-16.579480919
  0
LINE
  5
421
100
AcDbEntity
  8
RACCORDO
100
AcDbLine
 62
250
  6
CONTINUOUS
 10
0.8731809231
 20
-16.5297957945
 11
0.8741531025
 21
-16.5292600693
  0
LINE
  5
422
100
AcDbEntity
  8
RACCORDO
100
AcDbLine
 62
250
  6
CONTINUOUS
 10
0.8692281165
 20
-16.5318821897
 11
0.8731809231
 21
-16.5297957945
  0
LINE
  5
423
100
AcDbEntity
  8
RACCORDO
100
AcDbLine
 62
7
  6
CONTINUOUS
 10
0.4204029917
 20
-16.758083622
 11
0.4242625408
 21
-16.7560613714
  0
LWPOLYLINE
  5
424
100
AcDbEntity
  8
RACCORDO
100
AcDbPolyline
 62
250
  6
CONTINUOUS
 90
21
 70
0
 10
-0.948449456
 20
-17.4075923122
 10
-0.9408600385
 20
-17.4036981074
 10
-0.9325218263
 20
-17.3986962158
 10
-0.9245211499
 20
-17.3930993983
 10
-0.9168799549
 20
-17.3869230107
 10
-0.9096192184
 20
-17.380184019
 10
-0.9027588699
 20
-17.3729009429
 10
-0.8963176814
 20
-17.3650937344
 10
-0.8903132561
 20
-17.356783735
 10
-0.8847619927
 20
-17.3479936096
 10
-0.8796791964
 20
-17.3387475606
 10
-0.8750789389
 20
-17.3290712337
 10
-0.8709738677
 20
-17.3189913923
 10
-0.8673751026
 20
-17.3085355206
 10
-0.8642923887
 20
-17.2977320062
 10
-0.8617336773
 20
-17.2866080048
 10
-0.8597067167
 20
-17.275196347
 10
-0.8582178316
 20
-17.2635357204
 10
-0.8572702296
 20
-17.2516610236
 10
-0.8568651162
 20
-17.2396027068
 10
-0.8570025773
 20
-17.2273940323
  0
LINE
  5
425
100
AcDbEntity
  8
RACCORDO
100
AcDbLine
 62
250
  6
CONTINUOUS
 10
0.9570782844
 20
-16.353443296
 11
0.5085781869
 21
-16.579480919
  0
LINE
  5
426
100
AcDbEntity
  8
RACCORDO
100
AcDbLine
 62
7
  6
CONTINUOUS
 10
0.8692281165
 20
-16.5318821897
 11
0.4204029821
 21
-16.7580836265
  0
LINE
  5
427
100
AcDbEntity
  8
RACCORDO
100
AcDbLine
 62
7
  6
CONTINUOUS
 10
0.4174531424
 20
-16.7595265014
 11
0.4204029917
 21
-16.758083622
  0
LINE
  5
428
100
AcDbEntity
  8
RACCORDO
100
AcDbLine
 62
250
  6
CONTINUOUS
 10
0.5085781869
 20
-16.579480919
 11
-0.8570025773
 21
-17.2273940323
  0
LINE
  5
429
100
AcDbEntity
  8
RACCORDO
100
AcDbLine
 62
7
  6
CONTINUOUS
 10
0.417453137
 20
-16.759526504
 11
-0.948452556
 21
-17.4075937831
  0
LWPOLYLINE
  5
42A
100
AcDbEntity
  8
RACCORDO
100
AcDbPolyline
 62
7
  6
CONTINUOUS
 90
3
 70
0
 10
0.6301389981
 20
-14.8212635918
 10
0.6209419791
 20
-14.8255286978
 10
0.6102733191
 20
-14.829971344
  0
LINE
  5
42B
100
AcDbEntity
  8
RACCORDO
100
AcDbLine
 62
250
  6
CONTINUOUS
 10
-3.9050213077
 20
-16.3095985092
 11
0.8131673058
 21
-14.4607460379
  0
LINE
  5
42C
100
AcDbEntity
  8
RACCORDO
100
AcDbLine
 62
7
  6
CONTINUOUS
 10
-4.116273763
 20
-16.6820991212
 11
0.6102736088
 21
-14.8299712168
  0
LWPOLYLINE
  5
42D
100
AcDbEntity
  8
ASSI
100
AcDbPolyline
 62
7
  6
CONTINUOUS
 90
9
 70
0
 10
-2.3119847122
 20
31.9883894146
 10
-2.3014917745
 20
31.9907412348
 10
-2.2903451239
 20
31.9923862853
 10
-2.278546139
 20
31.9933127576
 10
-2.2660907296
 20
31.9935236307
 10
-2.2529905729
 20
31.9929912437
 10
-2.2392761638
 20
31.9916583346
 10
-2.2249606745
 20
31.9895051174
 10
-2.2092784373
 20
31.9863526388
  0
LWPOLYLINE
  5
42E
100
AcDbEntity
  8
RACCORDO
100
AcDbPolyline
 62
250
  6
CONTINUOUS
 90
37
 70
0
 10
-8.2047583139
 20
30.5339626318
 10
-8.2007160033
 20
30.534735203
 10
-8.1806667527
 20
30.5383461158
 10
-8.1604233188
 20
30.5417742646
 10
-8.1399853625
 20
30.5450192192
 10
-8.119353223
 20
30.5480814097
 10
-8.0985726285
 20
30.5509546295
 10
-8.0776434118
 20
30.5536384365
 10
-8.0565657402
 20
30.5561332727
 10
-8.0353858438
 20
30.558434257
 10
-8.0141035962
 20
30.5605409554
 10
-7.9927191239
 20
30.5624538019
 10
-7.9712790358
 20
30.5641692167
 10
-7.9497833718
 20
30.5656867631
 10
-7.928232092
 20
30.567006878
 10
-7.9066716866
 20
30.568127292
 10
-7.8851022245
 20
30.5690475777
 10
-7.8635236367
 20
30.5697681626
 10
-7.8419822072
 20
30.57028806
 10
-7.8204781687
 20
30.5706068477
 10
-7.7990112885
 20
30.5707249478
 10
-7.7776271521
 20
30.5706426403
 10
-7.7563260746
 20
30.570359518
 10
-7.7351077409
 20
30.5698759881
 10
-7.7140167913
 20
30.5691935513
 10
-7.6930536167
 20
30.5683118166
 10
-7.6722178261
 20
30.5672311752
 10
-7.6515528872
 20
30.5659543009
 10
-7.6310591218
 20
30.5644808056
 10
-7.6107362081
 20
30.5628110775
 10
-7.5906266487
 20
30.5609489549
 10
-7.5707308039
 20
30.558894035
 10
-7.5510483134
 20
30.5566467206
 10
-7.5316205976
 20
30.5542120582
 10
-7.5124614633
 20
30.5515917302
 10
-7.4935571038
 20
30.5487840543
 10
-7.474907519
 20
30.5457890305
  0
LINE
  5
42F
100
AcDbEntity
  8
DRAFT
100
AcDbLine
 62
7
  6
CONTINUOUS
 10
2.7824632642
 20
34.7305179078
 11
2.1507845073
 21
34.8737655601
  0
LWPOLYLINE
  5
430
100
AcDbEntity
  8
RACCORDO
100
AcDbPolyline
 62
7
  6
CONTINUOUS
 90
6
 70
0
 10
5.7969765004
 20
34.7304327602
 10
5.7891181466
 20
34.7356264462
 10
5.7809031643
 20
34.7396674206
 10
5.7723315532
 20
34.7425556834
 10
5.7633205908
 20
34.7443030002
 10
5.7622425689
 20
34.7444323042
  0
LWPOLYLINE
  5
431
100
AcDbEntity
  8
ASSI
100
AcDbPolyline
 62
7
  6
CONTINUOUS
 90
9
 70
0
 10
-8.5792913428
 20
33.4103742058
 10
-8.5687673649
 20
33.4126167911
 10
-8.557597394
 20
33.4141570025
 10
-8.5457830051
 20
33.4149831968
 10
-8.5333207648
 20
33.415098182
 10
-8.5202220395
 20
33.414474841
 10
-8.5065158103
 20
33.4130571013
 10
-8.4922156376
 20
33.4108259071
 10
-8.4781018649
 20
33.4079519021
  0
LWPOLYLINE
  5
432
100
AcDbEntity
  8
RACCORDO
100
AcDbPolyline
 62
7
  6
CONTINUOUS
 90
6
 70
0
 10
5.7622425689
 20
34.7444323042
 10
5.7539529997
 20
34.7448976053
 10
5.7444769483
 20
34.7443042021
 10
5.7349751594
 20
34.7425110247
 10
5.7253649101
 20
34.739529839
 10
5.7156462004
 20
34.7353606447
  0
LWPOLYLINE
  5
433
100
AcDbEntity
  8
RACCORDO
100
AcDbPolyline
 62
7
  6
CONTINUOUS
 90
22
 70
0
 10
5.762250076
 20
34.7444721617
 10
5.6558944744
 20
34.7556500207
 10
5.5354778278
 20
34.766027208
 10
5.4133941393
 20
34.7741965305
 10
5.2899639299
 20
34.7801500643
 10
5.1654580957
 20
34.7838870067
 10
5.0400990328
 20
34.7854090696
 10
4.9141835762
 20
34.7847179863
 10
4.7880137653
 20
34.78181987
 10
4.6618222627
 20
34.776721971
 10
4.5359095549
 20
34.7694357643
 10
4.4105746431
 20
34.7599770642
 10
4.286047118
 20
34.7483590144
 10
4.1626320809
 20
34.7346033365
 10
4.0406178572
 20
34.7187344294
 10
3.9202053093
 20
34.7007667297
 10
3.8017017728
 20
34.6807308416
 10
3.6853831435
 20
34.6586566557
 10
3.5713991008
 20
34.634549192
 10
3.4600606434
 20
34.608444772
 10
3.3516322994
 20
34.5803732596
 10
3.2611653796
 20
34.5545797919
  0
LWPOLYLINE
  5
434
100
AcDbEntity
  8
DRAFT
100
AcDbPolyline
 62
7
  6
CONTINUOUS
 90
10
 70
0
 10
6.4677063942
 20
35.0504953815
 10
6.5078007385
 20
35.042831578
 10
6.5474134309
 20
35.0349198728
 10
6.5865444714
 20
35.026760266
 10
6.6252053366
 20
35.018350155
 10
6.66338455
 20
35.0096921423
 10
6.7010476814
 20
35.0007940358
 10
6.7381832541
 20
34.9916584381
 10
6.7748027449
 20
34.9822827466
 10
6.8109061537
 20
34.9726669612
  0
LINE
  5
435
100
AcDbEntity
  8
0
100
AcDbLine
 62
7
  6
CONTINUOUS
 10
6.3481372056
 20
34.7975490998
 11
4.7779170348
 21
35.153632553
  0
LINE
  5
436
100
AcDbEntity
  8
DRAFT
100
AcDbLine
 62
7
  6
CONTINUOUS
 10
6.4677063942
 20
35.0504953815
 11
6.8109061537
 21
34.9726669612
  0
LINE
  5
437
100
AcDbEntity
  8
DRAFT
100
AcDbLine
 62
7
  6
CONTINUOUS
 10
5.7699468014
 20
36.6525033245
 11
8.9345844834
 21
35.9348491159
  0
LINE
  5
438
100
AcDbEntity
  8
RACCORDO
100
AcDbLine
 62
250
  6
CONTINUOUS
 10
18.9478588031
 20
33.9946877798
 11
18.6461980608
 21
34.4001647324
  0
LINE
  5
439
100
AcDbEntity
  8
RACCORDO
100
AcDbLine
 62
250
  6
CONTINUOUS
 10
18.6461980608
 20
34.4001647324
 11
9.9094767209
 21
36.3814167646
  0
LINE
  5
43A
100
AcDbEntity
  8
RACCORDO
100
AcDbLine
 62
250
  6
CONTINUOUS
 10
4.8390020877
 20
37.5312632322
 11
3.284032423
 21
37.8838882833
  0
LINE
  5
43B
100
AcDbEntity
  8
RACCORDO
100
AcDbLine
 62
7
  6
CONTINUOUS
 10
18.8611360593
 20
34.4389033906
 11
10.1168125032
 21
36.4218793997
  0
LINE
  5
43C
100
AcDbEntity
  8
RACCORDO
100
AcDbLine
 62
7
  6
CONTINUOUS
 10
5.1225948635
 20
37.5544328443
 11
3.5600229825
 21
37.9087818723
  0
LWPOLYLINE
  5
43D
100
AcDbEntity
  8
RACCORDO
100
AcDbPolyline
 62
7
  6
CONTINUOUS
 90
15
 70
0
 10
18.8611370399
 20
34.4389031682
 10
18.8657519559
 20
34.4377944051
 10
18.8748171466
 20
34.4352385413
 10
18.8836093186
 20
34.4322459547
 10
18.8921230075
 20
34.4288208079
 10
18.9003531357
 20
34.4249674102
 10
18.9083020321
 20
34.4206885703
 10
18.9159645804
 20
34.4159890328
 10
18.9233360494
 20
34.4108736711
 10
18.93041951
 20
34.4053457255
 10
18.9372102159
 20
34.3994104749
 10
18.9437037788
 20
34.3930733175
 10
18.9499039716
 20
34.3863378845
 10
18.9558064261
 20
34.3792099456
 10
18.9587542786
 20
34.3753529054
  0
LINE
  5
43E
100
AcDbEntity
  8
RACCORDO
100
AcDbLine
 62
7
  6
CONTINUOUS
 10
19.2001228839
 20
34.0509176696
 11
18.9587543827
 21
34.375352873
  0
ARC
  5
43F
100
AcDbEntity
  8
RACCORDO
100
AcDbCircle
 62
7
  6
CONTINUOUS
 10
0.7427432201
 20
-15.9320457985
 40
0.25
100
AcDbArc
 50
2.1245256462
 51
68.2245729738
  0
ARC
  5
440
100
AcDbEntity
  8
RACCORDO
100
AcDbCircle
 62
7
  6
CONTINUOUS
 10
0.756713444
 20
-16.308632445
 40
0.25
100
AcDbArc
 50
296.7430345243
 51
2.1258959501
  0
ARC
  5
441
100
AcDbEntity
  8
RACCORDO
100
AcDbCircle
 62
7
  6
CONTINUOUS
 10
-1.0556171889
 20
-17.1817271378
 40
0.25
100
AcDbArc
 50
257.2227267877
 51
295.3832436754
  0
ARC
  5
442
100
AcDbEntity
  8
RACCORDO
100
AcDbCircle
 62
7
  6
CONTINUOUS
 10
-2.5508669081
 20
-16.8426449547
 40
0.25
100
AcDbArc
 50
182.1245256462
 51
257.223629142
  0
ARC
  5
443
100
AcDbEntity
  8
RACCORDO
100
AcDbCircle
 62
7
  6
CONTINUOUS
 10
-2.564533329
 20
-16.4742477372
 40
0.25
100
AcDbArc
 50
145.4263900918
 51
182.1245256462
  0
ARC
  5
444
100
AcDbEntity
  8
RACCORDO
100
AcDbCircle
 62
7
  6
CONTINUOUS
 10
-0.9314065522
 20
29.1969695558
 40
0.25
100
AcDbArc
 50
2.1227349268
 51
77.232278071
  0
ARC
  5
445
100
AcDbEntity
  8
RACCORDO
100
AcDbCircle
 62
7
  6
CONTINUOUS
 10
-0.9174363283
 20
28.8203829093
 40
0.25
100
AcDbArc
 50
325.4263900918
 51
2.1245256462
  0
ARC
  5
446
100
AcDbEntity
  8
RACCORDO
100
AcDbCircle
 62
7
  6
CONTINUOUS
 10
-2.4405836744
 20
29.5392100971
 40
0.25
100
AcDbArc
 50
77.2253027641
 51
115.3824572845
  0
ARC
  5
447
100
AcDbEntity
  8
RACCORDO
100
AcDbCircle
 62
7
  6
CONTINUOUS
 10
-4.2383792983
 20
28.6465781881
 40
0.25
100
AcDbArc
 50
116.7470304076
 51
182.1245256462
  0
ARC
  5
448
100
AcDbEntity
  8
RACCORDO
100
AcDbCircle
 62
7
  6
CONTINUOUS
 10
-4.2247128774
 20
28.2781809705
 40
0.25
100
AcDbArc
 50
182.1250537778
 51
248.2303061467
  0
ARC
  5
449
100
AcDbEntity
  8
RACCORDO
100
AcDbCircle
 62
7
  6
CONTINUOUS
 10
-16.0130850702
 20
32.6170862163
 40
0.25
100
AcDbArc
 50
2.1233198989
 51
77.2229658074
  0
ARC
  5
44A
100
AcDbEntity
  8
RACCORDO
100
AcDbCircle
 62
7
  6
CONTINUOUS
 10
-15.9991148463
 20
32.2404995697
 40
0.25
100
AcDbArc
 50
325.4263823175
 51
2.1247482057
  0
ARC
  5
44B
100
AcDbEntity
  8
RACCORDO
100
AcDbCircle
 62
7
  6
CONTINUOUS
 10
-17.5222621923
 20
32.9593267576
 40
0.25
100
AcDbArc
 50
77.2229658074
 51
115.3817485734
  0
ARC
  5
44C
100
AcDbEntity
  8
RACCORDO
100
AcDbCircle
 62
7
  6
CONTINUOUS
 10
-19.3200578162
 20
32.0666948485
 40
0.25
100
AcDbArc
 50
116.7474495065
 51
182.1223572495
  0
ARC
  5
44D
100
AcDbEntity
  8
RACCORDO
100
AcDbCircle
 62
7
  6
CONTINUOUS
 10
-19.3063913954
 20
31.698297631
 40
0.25
100
AcDbArc
 50
182.1250537778
 51
248.2303061467
  0
ELLIPSE
  5
44E
100
AcDbEntity
  8
RACCORDO
100
AcDbEllipse
 62
7
  6
CONTINUOUS
 10
2.8048049933
 20
29.5213982339
 30
0.0
 11
0.499549316
 21
0.0213928226
 31
0.0
 40
0.3501840637
 41
-0.6433685743
 42
-0.0020024165
  0
ELLIPSE
  5
44F
100
AcDbEntity
  8
ASSI
100
AcDbEllipse
 62
7
  6
CONTINUOUS
 10
-8.6072629373
 20
32.924548512
 30
0.0
 11
0.112045971
 21
0.4872855474
 31
0.0
 40
0.579202598
 41
0.2856666675
 42
0.4294459113
  0
ELLIPSE
  5
450
100
AcDbEntity
  8
RACCORDO
100
AcDbEllipse
 62
7
  6
CONTINUOUS
 10
-13.0730934062
 20
30.9945747736
 30
0.0
 11
0.4995853317
 21
0.0204371797
 31
0.0
 40
0.3480296011
 41
2.4872665277
 42
3.1278619221
  0
ELLIPSE
  5
451
100
AcDbEntity
  8
DRAFT
100
AcDbEllipse
 62
7
  6
CONTINUOUS
 10
260.0214258296
 20
158.410640468
 30
0.0
 11
98.2482334784
 21
490.368308911
 31
0.0
 40
0.5357273522
 41
-4.3110207813
 42
-4.2737884498
  0
ELLIPSE
  5
452
100
AcDbEntity
  8
DRAFT
100
AcDbEllipse
 62
7
  6
CONTINUOUS
 10
261.4577761647
 20
158.0849150718
 30
0.0
 11
98.2482334784
 21
490.368308911
 31
0.0
 40
0.5357273522
 41
-4.3110207813
 42
-4.2737884498
  0
ELLIPSE
  5
453
100
AcDbEntity
  8
DRAFT
100
AcDbEllipse
 62
7
  6
CONTINUOUS
 10
262.8941264997
 20
157.7591896755
 30
0.0
 11
98.2482334784
 21
490.368308911
 31
0.0
 40
0.5357273522
 41
-4.3110207813
 42
-4.2737884498
  0
ELLIPSE
  5
454
100
AcDbEntity
  8
DRAFT
100
AcDbEllipse
 62
7
  6
CONTINUOUS
 10
264.3304768348
 20
157.4334642793
 30
0.0
 11
98.2482334784
 21
490.368308911
 31
0.0
 40
0.5357273522
 41
-4.3110207813
 42
-4.2737884498
  0
ELLIPSE
  5
455
100
AcDbEntity
  8
DRAFT
100
AcDbEllipse
 62
7
  6
CONTINUOUS
 10
265.7668271698
 20
157.1077388831
 30
0.0
 11
98.2482334784
 21
490.368308911
 31
0.0
 40
0.5357273522
 41
-4.3110207813
 42
-4.2737884498
  0
ELLIPSE
  5
456
100
AcDbEntity
  8
DRAFT
100
AcDbEllipse
 62
7
  6
CONTINUOUS
 10
267.2031775048
 20
156.7820134868
 30
0.0
 11
98.2482334784
 21
490.368308911
 31
0.0
 40
0.5357273522
 41
-4.3110207813
 42
-4.2737884498
  0
ELLIPSE
  5
457
100
AcDbEntity
  8
DRAFT
100
AcDbEllipse
 62
7
  6
CONTINUOUS
 10
268.6395278399
 20
156.4562880906
 30
0.0
 11
98.2482334784
 21
490.368308911
 31
0.0
 40
0.5357273522
 41
-4.3110207813
 42
-4.2737884498
  0
ELLIPSE
  5
458
100
AcDbEntity
  8
DRAFT
100
AcDbEllipse
 62
7
  6
CONTINUOUS
 10
270.0758781749
 20
156.1305626944
 30
0.0
 11
98.2482334784
 21
490.368308911
 31
0.0
 40
0.5357273522
 41
-4.3110207813
 42
-4.2737884498
  0
ELLIPSE
  5
459
100
AcDbEntity
  8
DRAFT
100
AcDbEllipse
 62
7
  6
CONTINUOUS
 10
271.51222851
 20
155.8048372981
 30
0.0
 11
98.2482334784
 21
490.368308911
 31
0.0
 40
0.5357273522
 41
-4.3110207813
 42
-4.2737884498
  0
ELLIPSE
  5
45A
100
AcDbEntity
  8
RACCORDO
100
AcDbEllipse
 62
7
  6
CONTINUOUS
 10
4.5777336647
 20
-10.4616442449
 30
0.0
 11
0.9646627894
 21
0.800132057
 31
0.0
 40
0.1471697039
 41
-2.5866959071
 42
-1.4873904339
  0
ELLIPSE
  5
45B
100
AcDbEntity
  8
RACCORDO
100
AcDbEllipse
 62
7
  6
CONTINUOUS
 10
-10.2120597879
 20
32.5566622461
 30
0.0
 11
0.9646627894
 21
0.800132057
 31
0.0
 40
0.1471697039
 41
0.1126493399
 42
0.537443454
  0
ELLIPSE
  5
45C
100
AcDbEntity
  8
RACCORDO
100
AcDbEllipse
 62
7
  6
CONTINUOUS
 10
1.0280902626
 20
-14.0716601832
 30
0.0
 11
-0.2197044516
 21
0.4491441775
 31
0.0
 40
0.7426804268
 41
-3.1432200221
 42
-2.1096302529
  0
ELLIPSE
  5
45D
100
AcDbEntity
  8
RACCORDO
100
AcDbEllipse
 62
7
  6
CONTINUOUS
 10
-0.4961044118
 20
27.0151087554
 30
0.0
 11
-0.2198410723
 21
0.449152025
 31
0.0
 40
0.7424811442
 41
-2.1100317148
 42
-0.539083089
  0
ELLIPSE
  5
45E
100
AcDbEntity
  8
RACCORDO
100
AcDbEllipse
 62
7
  6
CONTINUOUS
 10
-6.8040156132
 20
28.2484928344
 30
0.0
 11
0.4989568022
 21
0.0361651101
 31
0.0
 40
0.3822225743
 41
-2.2431034356
 42
-0.678124873
  0
ELLIPSE
  5
45F
100
AcDbEntity
  8
RACCORDO
100
AcDbEllipse
 62
7
  6
CONTINUOUS
 10
-6.8535645931
 20
29.5841539051
 30
0.0
 11
0.4995853317
 21
0.0204371797
 31
0.0
 40
0.3480296011
 41
-1.3065570487
 42
-0.6659616543
  0
ELLIPSE
  5
460
100
AcDbEntity
  8
RACCORDO
100
AcDbEllipse
 62
7
  6
CONTINUOUS
 10
3.0938217152
 20
29.5392483053
 30
0.0
 11
-0.8951433583
 21
1.0792112145
 31
0.0
 40
0.4672483318
 41
5.0625038376
 42
6.1618093108
  0
ELLIPSE
  5
461
100
AcDbEntity
  8
RACCORDO
100
AcDbEllipse
 62
7
  6
CONTINUOUS
 10
4.3037611463
 20
-10.8850315639
 30
0.0
 11
0.4823313947
 21
0.4000660285
 31
0.0
 40
0.1471697039
 41
5.9191271317
 42
6.8119021149
  0
ELLIPSE
  5
462
100
AcDbEntity
  8
RACCORDO
100
AcDbEllipse
 62
7
  6
CONTINUOUS
 10
-13.0235444263
 20
29.658913703
 30
0.0
 11
0.4989568022
 21
0.0361651101
 31
0.0
 40
0.3822225743
 41
3.1281049951
 42
4.0400818716
  0
ELLIPSE
  5
463
100
AcDbEntity
  8
DRAFT
100
AcDbEllipse
 62
7
  6
CONTINUOUS
 10
301.0753341687
 20
149.10072475
 30
0.0
 11
124.6480920337
 21
484.3479828362
 31
0.0
 40
0.613481721
 41
-4.2797608123
 42
-4.2425284808
  0
ELLIPSE
  5
464
100
AcDbEntity
  8
DRAFT
100
AcDbEllipse
 62
7
  6
CONTINUOUS
 10
-1.9211388944
 20
30.580982198
 30
0.0
 11
0.4277648388
 21
0.0134445033
 31
0.0
 40
0.3372244246
 41
-0.6510927584
 42
0.0019089276
  0
ELLIPSE
  5
465
100
AcDbEntity
  8
DRAFT
100
AcDbEllipse
 62
7
  6
CONTINUOUS
 10
302.5116845038
 20
148.7749993537
 30
0.0
 11
124.6480920337
 21
484.3479828362
 31
0.0
 40
0.613481721
 41
-4.262372445
 42
-4.2425284808
  0
ELLIPSE
  5
466
100
AcDbEntity
  8
DRAFT
100
AcDbEllipse
 62
7
  6
CONTINUOUS
 10
302.5116845038
 20
148.7749993537
 30
0.0
 11
124.6480920337
 21
484.3479828362
 31
0.0
 40
0.613481721
 41
-4.2797608123
 42
-4.2623882629
  0
ELLIPSE
  5
467
100
AcDbEntity
  8
ASSI
100
AcDbEllipse
 62
7
  6
CONTINUOUS
 10
-1.6547427587
 20
31.3479050325
 30
0.0
 11
0.1091329264
 21
0.4879461923
 31
0.0
 40
0.5705627504
 41
0.2822321037
 42
0.4260113475
  0
ELLIPSE
  5
468
100
AcDbEntity
  8
DRAFT
100
AcDbEllipse
 62
7
  6
CONTINUOUS
 10
303.9480348388
 20
148.4492739575
 30
0.0
 11
124.6480920337
 21
484.3479828362
 31
0.0
 40
0.613481721
 41
-4.2797608123
 42
-4.2425284808
  0
ELLIPSE
  5
469
100
AcDbEntity
  8
DRAFT
100
AcDbEllipse
 62
7
  6
CONTINUOUS
 10
-8.1899622364
 20
32.002581732
 30
0.0
 11
0.4277648388
 21
0.0134445033
 31
0.0
 40
0.3372244246
 41
-0.6569105226
 42
0.0019089276
  0
ELLIPSE
  5
46A
100
AcDbEntity
  8
DRAFT
100
AcDbEllipse
 62
7
  6
CONTINUOUS
 10
305.3843851739
 20
148.1235485613
 30
0.0
 11
124.6480920337
 21
484.3479828362
 31
0.0
 40
0.613481721
 41
-4.2797608123
 42
-4.2425284808
  0
ELLIPSE
  5
46B
100
AcDbEntity
  8
DRAFT
100
AcDbEllipse
 62
7
  6
CONTINUOUS
 10
306.8207355089
 20
147.797823165
 30
0.0
 11
124.6480920337
 21
484.3479828362
 31
0.0
 40
0.613481721
 41
-4.2797608123
 42
-4.2425284808
  0
ELLIPSE
  5
46C
100
AcDbEntity
  8
DRAFT
100
AcDbEllipse
 62
7
  6
CONTINUOUS
 10
308.257085844
 20
147.4720977688
 30
0.0
 11
124.6480920337
 21
484.3479828362
 31
0.0
 40
0.613481721
 41
-4.2797608123
 42
-4.2425284808
  0
ELLIPSE
  5
46D
100
AcDbEntity
  8
DRAFT
100
AcDbEllipse
 62
7
  6
CONTINUOUS
 10
309.693436179
 20
147.1463723726
 30
0.0
 11
124.6480920337
 21
484.3479828362
 31
0.0
 40
0.613481721
 41
-4.2797608123
 42
-4.2425284808
  0
ELLIPSE
  5
46E
100
AcDbEntity
  8
DRAFT
100
AcDbEllipse
 62
7
  6
CONTINUOUS
 10
311.129786514
 20
146.8206469763
 30
0.0
 11
124.6480920337
 21
484.3479828362
 31
0.0
 40
0.613481721
 41
-4.2797608123
 42
-4.2425284808
  0
ELLIPSE
  5
46F
100
AcDbEntity
  8
DRAFT
100
AcDbEllipse
 62
7
  6
CONTINUOUS
 10
312.5661368491
 20
146.4949215801
 30
0.0
 11
124.6480920337
 21
484.3479828362
 31
0.0
 40
0.613481721
 41
-4.2797608123
 42
-4.2425284808
  0
ELLIPSE
  5
470
100
AcDbEntity
  8
RACCORDO
100
AcDbEllipse
 62
7
  6
CONTINUOUS
 10
-2.0705708668
 20
26.8154495065
 30
0.0
 11
0.2494784011
 21
0.018082555
 31
0.0
 40
0.3822225743
 41
-2.2431034356
 42
-1.1984163719
  0
ELLIPSE
  5
471
100
AcDbEntity
  8
RACCORDO
100
AcDbEllipse
 62
7
  6
CONTINUOUS
 10
-3.5751055213
 20
27.1566372617
 30
0.0
 11
0.2494784011
 21
0.018082555
 31
0.0
 40
0.3822225743
 41
3.1281049952
 42
4.0400818716
  0
ELLIPSE
  5
472
100
AcDbEntity
  8
RACCORDO
100
AcDbEllipse
 62
7
  6
CONTINUOUS
 10
-17.1522493847
 20
30.235566167
 30
0.0
 11
0.2494784011
 21
0.018082555
 31
0.0
 40
0.3822225743
 41
-2.2431034356
 42
-0.678124873
  0
ELLIPSE
  5
473
100
AcDbEntity
  8
RACCORDO
100
AcDbEllipse
 62
7
  6
CONTINUOUS
 10
-18.6567840392
 20
30.5767539222
 30
0.0
 11
0.2494784011
 21
0.018082555
 31
0.0
 40
0.3822225743
 41
3.1281049951
 42
4.0400818716
  0
ELLIPSE
  5
474
100
AcDbEntity
  8
RACCORDO
100
AcDbEllipse
 62
7
  6
CONTINUOUS
 10
2.7674066722
 20
30.5295215412
 30
0.0
 11
-0.4475716792
 21
0.5396056073
 31
0.0
 40
0.4672483318
 41
-3.2367887112
 42
-2.344013728
  0
ELLIPSE
  5
475
100
AcDbEntity
  8
RACCORDO
100
AcDbEllipse
 62
7
  6
CONTINUOUS
 10
19.5587576652
 20
8.4052468789
 30
0.0
 11
0.9936185272
 21
0.1758244321
 31
0.0
 40
0.2380161325
 41
-0.6744251636
 42
-0.0330590058
  0
ELLIPSE
  5
476
100
AcDbEntity
  8
RACCORDO
100
AcDbEllipse
 62
7
  6
CONTINUOUS
 10
19.4334313407
 20
11.7835907497
 30
0.0
 11
0.9936185272
 21
0.1758244321
 31
0.0
 40
0.2380161325
 41
-0.6744251636
 42
-0.0330590058
  0
ELLIPSE
  5
477
100
AcDbEntity
  8
RACCORDO
100
AcDbEllipse
 62
7
  6
CONTINUOUS
 10
19.3081050163
 20
15.1619346205
 30
0.0
 11
0.9936185272
 21
0.1758244321
 31
0.0
 40
0.2380161325
 41
-0.6744251636
 42
-0.0330590058
  0
ELLIPSE
  5
478
100
AcDbEntity
  8
RACCORDO
100
AcDbEllipse
 62
7
  6
CONTINUOUS
 10
19.1827786918
 20
18.5402784913
 30
0.0
 11
0.9936185272
 21
0.1758244321
 31
0.0
 40
0.2380161325
 41
-0.6744251636
 42
-0.0330590058
  0
ELLIPSE
  5
479
100
AcDbEntity
  8
RACCORDO
100
AcDbEllipse
 62
7
  6
CONTINUOUS
 10
19.0574523673
 20
21.9186223621
 30
0.0
 11
0.9936185272
 21
0.1758244321
 31
0.0
 40
0.2380161325
 41
-0.6744251636
 42
-0.0330590058
  0
ELLIPSE
  5
47A
100
AcDbEntity
  8
RACCORDO
100
AcDbEllipse
 62
7
  6
CONTINUOUS
 10
18.9321260428
 20
25.2969662329
 30
0.0
 11
0.9936185272
 21
0.1758244321
 31
0.0
 40
0.2380161325
 41
-0.6744251636
 42
-0.0330590058
  0
ELLIPSE
  5
47B
100
AcDbEntity
  8
DRAFT
100
AcDbEllipse
 62
7
  6
CONTINUOUS
 10
4.983586557
 20
34.2313626953
 30
0.0
 11
2.7570729936
 21
0.086653866
 31
0.0
 40
0.3372244246
 41
1.0243189937
 42
2.484682131
  0
ELLIPSE
  5
47C
100
AcDbEntity
  8
DRAFT
100
AcDbEllipse
 62
7
  6
CONTINUOUS
 10
4.3942881821
 20
34.4287838105
 30
0.0
 11
2.7486817779
 21
0.0863901329
 31
0.0
 40
0.3372244246
 41
2.4934087773
 42
2.6247987811
  0
ELLIPSE
  5
47D
100
AcDbEntity
  8
RACCORDO
100
AcDbEllipse
 62
7
  6
CONTINUOUS
 10
9.4729320237
 20
35.5425034305
 30
0.0
 11
0.6946814244
 21
0.8553844037
 31
0.0
 40
0.3184272331
 41
0.1561230737
 42
0.5721905318
  0
ELLIPSE
  5
47E
100
AcDbEntity
  8
RACCORDO
100
AcDbEllipse
 62
7
  6
CONTINUOUS
 10
5.1692193899
 20
36.518469021
 30
0.0
 11
0.2168354716
 21
0.9762149711
 31
0.0
 40
0.5683984993
 41
-1.1397942456
 42
-0.8055542999
  0
ELLIPSE
  5
47F
100
AcDbEntity
  8
RACCORDO
100
AcDbEllipse
 62
7
  6
CONTINUOUS
 10
5.3241601194
 20
36.4833326554
 30
0.0
 11
-0.4843922175
 21
1.0482854822
 31
0.0
 40
0.5722499793
 41
5.0653594871
 42
6.2844625756
  0
ELLIPSE
  5
480
100
AcDbEntity
  8
DRAFT
100
AcDbEllipse
 62
7
  6
CONTINUOUS
 10
4.9043335452
 20
36.3677368994
 30
0.0
 11
2.7906733869
 21
-1.3074753646
 31
0.0
 40
0.2238007846
 41
-0.7192844819
 42
-0.7115372544
  0
ELLIPSE
  5
481
100
AcDbEntity
  8
DRAFT
100
AcDbEllipse
 62
7
  6
CONTINUOUS
 10
4.966180123
 20
34.7005771218
 30
0.0
 11
2.7570729936
 21
0.086653866
 31
0.0
 40
0.3372244246
 41
0.4975360919
 42
2.484682131
  0
ELLIPSE
  5
482
100
AcDbEntity
  8
DRAFT
100
AcDbEllipse
 62
7
  6
CONTINUOUS
 10
4.9043335452
 20
36.3677368994
 30
0.0
 11
2.7906733869
 21
-1.3074753646
 31
0.0
 40
0.2238007846
 41
-0.9077569987
 42
-0.8753631367
  0
ELLIPSE
  5
483
100
AcDbEntity
  8
RACCORDO
100
AcDbEllipse
 62
7
  6
CONTINUOUS
 10
19.4685367736
 20
10.8372754057
 30
0.0
 11
1.0028247019
 21
-0.1249427545
 31
0.0
 40
0.4358130823
 41
-0.5706912098
 42
0.9826518244
  0
ELLIPSE
  5
484
100
AcDbEntity
  8
RACCORDO
100
AcDbEllipse
 62
7
  6
CONTINUOUS
 10
19.3432104491
 20
14.2156192765
 30
0.0
 11
1.0028247019
 21
-0.1249427545
 31
0.0
 40
0.4358130823
 41
-0.5706912098
 42
0.9826518244
  0
ELLIPSE
  5
485
100
AcDbEntity
  8
RACCORDO
100
AcDbEllipse
 62
7
  6
CONTINUOUS
 10
19.2178841246
 20
17.5939631474
 30
0.0
 11
1.0028247019
 21
-0.1249427545
 31
0.0
 40
0.4358130823
 41
-0.5706912098
 42
0.9826518244
  0
ELLIPSE
  5
486
100
AcDbEntity
  8
RACCORDO
100
AcDbEllipse
 62
7
  6
CONTINUOUS
 10
19.0925578001
 20
20.9723070182
 30
0.0
 11
1.0028247019
 21
-0.1249427545
 31
0.0
 40
0.4358130823
 41
-0.5706912098
 42
0.9826518244
  0
ELLIPSE
  5
487
100
AcDbEntity
  8
RACCORDO
100
AcDbEllipse
 62
7
  6
CONTINUOUS
 10
18.9672314756
 20
24.350650889
 30
0.0
 11
1.0028247019
 21
-0.1249427545
 31
0.0
 40
0.4358130823
 41
-0.5706912098
 42
0.9826518244
  0
ELLIPSE
  5
488
100
AcDbEntity
  8
RACCORDO
100
AcDbEllipse
 62
7
  6
CONTINUOUS
 10
19.5938630981
 20
7.4589315349
 30
0.0
 11
1.0028247019
 21
-0.1249427545
 31
0.0
 40
0.4358130823
 41
-0.5706912098
 42
0.9826518244
  0
ENDSEC
  0
SECTION
  2
OBJECTS
  0
DICTIONARY
  5
C
100
AcDbDictionary
280
0
281
1
  3
ACAD_GROUP
350
D
  3
ACAD_MLINESTYLE
350
17
  3
ACAD_LAYOUT
350
1A
  3
ACAD_PLOTSETTINGS
350
19
  3
ACAD_PLOTSTYLENAME
350
E
  0
DICTIONARY
  5
D
102
{ACAD_REACTORS
330
C
102
}
100
AcDbDictionary
280
0
281
1
  0
ACDBDICTIONARYWDFLT
  5
E
102
{ACAD_REACTORS
330
C
102
}
100
AcDbDictionary
281
1
  3
Normal
350
F
100
AcDbDictionaryWithDefault
340
F
  0
DICTIONARY
  5
17
102
{ACAD_REACTORS
330
C
102
}
100
AcDbDictionary
280
0
281
1
  3
Standard
350
18
  0
DICTIONARY
  5
19
102
{ACAD_REACTORS
330
C
102
}
100
AcDbDictionary
281
1
  0
DICTIONARY
  5
1A
102
{ACAD_REACTORS
330
C
102
}
100
AcDbDictionary
281
1
  3
Model
350
489
  3
Layout1
350
48A
  0
ACDBPLACEHOLDER
  5
F
102
{ACAD_REACTORS
330
E
102
}
  0
MLINESTYLE
  5
18
102
{ACAD_REACTORS
330
17
102
}
100
AcDbMlineStyle
  2
STANDARD
 70
0
  3

 62
256
 51
90.0
 52
90.0
 71
2
 49
0.5
 62
256
  6
BYLAYER
 49
-0.5
 62
256
  6
BYLAYER
  0
LAYOUT
  5
489
102
{ACAD_REACTORS
330
1A
102
}
100
AcDbPlotSettings
  1

  2
none_device
  4
ANSI_C_(22.00_x_17.00_Inches)
  6

 40
0.0
 41
0.0
 42
0.0
 43
0.0
 44
558.8
 45
431.8
 46
0.0
 47
0.0
 48
0.0
 49
0.0
140
0.0
141
0.0
142
1.0
143
1.0
 70
1024
 72
1
 73
0
 74
0
  7

 75
0
147
1.0
148
0.0
149
0.0
100
AcDbLayout
  1
Model
 70
0
 71
0
 10
0.0
 20
0.0
 11
558.8
 21
431.8
 12
0.0
 22
0.0
 32
0.0
 14
0.0
 24
0.0
 34
0.0
 15
0.0
 25
0.0
 35
0.0
146
0.0
 13
0.0
 23
0.0
 33
0.0
 16
1.0
 26
0.0
 36
0.0
 17
0.0
 27
1.0
 37
0.0
 76
0
330
218
345
0
346
0
  0
LAYOUT
  5
48A
102
{ACAD_REACTORS
330
1A
102
}
100
AcDbPlotSettings
  1

  2
none_device
  4
ANSI_C_(22.00_x_17.00_Inches)
  6

 40
0.0
 41
0.0
 42
0.0
 43
0.0
 44
558.8
 45
431.8
 46
0.0
 47
0.0
 48
0.0
 49
0.0
140
0.0
141
0.0
142
1.0
143
1.0
 70
0
 72
1
 73
0
 74
0
  7

 75
0
147
1.0
148
0.0
149
0.0
100
AcDbLayout
  1
Layout1
 70
0
 71
1
 10
0.0
 20
0.0
 11
558.8
 21
431.8
 12
0.0
 22
0.0
 32
0.0
 14
0.0
 24
0.0
 34
0.0
 15
0.0
 25
0.0
 35
0.0
146
0.0
 13
0.0
 23
0.0
 33
0.0
 16
1.0
 26
0.0
 36
0.0
 17
0.0
 27
1.0
 37
0.0
 76
0
330
219
345
0
346
0
  0
ENDSEC
  0
EOF
