  0
SECTION
  2
HEADER
  9
$ACADVER
  1
AC1024
  9
$DWGCODEPAGE
  3
ANSI_1252
  9
$EXTMAX
 10
297.0
 20
210.0
 30
0.0
  9
$EXTMIN
 10
0.0
 20
0.0
 30
0.0
  9
$LIMMIN
 10
0.0
 20
0.0
  9
$LIMMAX
 10
297.0
 20
210.0
  9
$VIEWCTR
 10
148.5
 20
105.0
  9
$VIEWSIZE
 40
210.0
  9
$CLAYER
  8
0
  9
$LTSCALE
 40
16.335
  9
$CELTYPE
  6
BYLAYER
  9
$DIMSCALE
 40
1.0
  9
$DIMASZ
 40
3.0
  9
$DIMEXO
 40
0.5
  9
$DIMDLI
 40
11.286
  9
$DIMEXE
 40
1.5
  9
$DIMCEN
 40
2.673
  9
$DIMLFAC
 40
1.0
  9
$DIMBLK
  1
_FILLED
  9
$DIMALT
 70
0
  9
$DIMALTF
 40
0.0393700787
  9
$DIMTXT
 40
3.0
  9
$DIMTOL
 70
1
  9
$DIMLIM
 70
0
  9
$DIMTFAC
 40
1.0
  9
$DIMTP
 40
0.01
  9
$DIMTM
 40
0.01
  9
$DIMGAP
 40
0.625
  9
$DIMDSEP
 70
44
  9
$AUNITS
 70
0
  9
$PDMODE
 70
3
  9
$PDSIZE
 40
3.0
  9
$HANDSEED
  5
544
  9
$TILEMODE
 70
1
  9
$MEASUREMENT
 70
1
  9
$INSUNITS
 70
4
  0
ENDSEC
  0
SECTION
  2
CLASSES
  0
CLASS
  1
ACDBDICTIONARYWDFLT
  2
AcDbDictionaryWithDefault
  3
AutoCAD 2000
 90
0
 91
1
280
0
281
0
  0
CLASS
  1
ACDBPLACEHOLDER
  2
AcDbPlaceHolder
  3
AutoCAD 2000
 90
0
 91
1
280
0
281
0
  0
CLASS
  1
LAYOUT
  2
AcDbLayout
  3
AutoCAD 2000
 90
0
 91
0
280
0
281
0
  0
ENDSEC
  0
SECTION
  2
TABLES
  0
TABLE
  2
VPORT
  5
8
100
AcDbSymbolTable
 70
2
  0
VPORT
  5
1F4
100
AcDbSymbolTableRecord
100
AcDbViewportTableRecord
  2
*ACTIVE
 70
0
 10
0.0
 20
0.0
 11
1.0
 21
1.0
 12
148.5
 22
105.0
 13
0.0
 23
0.0
 14
1.0
 24
1.0
 15
0.0
 25
0.0
 16
0.0
 26
0.0
 36
1.0
 17
0.0
 27
0.0
 37
0.0
 40
210.0
 41
1.4142857143
 42
50.0
 43
0.0
 44
0.0
 50
0.0
 51
0.0
 71
0
 72
100
 73
1
 74
1
 75
0
 76
0
 77
0
 78
0
  0
ENDTAB
  0
TABLE
  2
LTYPE
  5
5
100
AcDbSymbolTable
 70
6
  0
LTYPE
  5
14
100
AcDbSymbolTableRecord
100
AcDbLinetypeTableRecord
  2
BYBLOCK
 70
0
  3

 72
65
 73
0
 40
0.0
  0
LTYPE
  5
15
100
AcDbSymbolTableRecord
100
AcDbLinetypeTableRecord
  2
BYLAYER
 70
0
  3

 72
65
 73
0
 40
0.0
  0
LTYPE
  5
16
100
AcDbSymbolTableRecord
100
AcDbLinetypeTableRecord
  2
CONTINUOUS
 70
64
  3
Solid line
 72
65
 73
0
 40
0.0
  0
LTYPE
  5
1F5
100
AcDbSymbolTableRecord
100
AcDbLinetypeTableRecord
  2
CENTER
 70
64
  3
____ _ ____ _ ____ _ ____ _ ____ _ ____ _ ____
 72
65
 73
4
 40
0.6
 49
0.375
 74
0
 49
-0.075
 74
0
 49
0.075
 74
0
 49
-0.075
 74
0
  0
LTYPE
  5
1F6
100
AcDbSymbolTableRecord
100
AcDbLinetypeTableRecord
  2
HIDDEN
 70
64
  3
- - - - - - - - - - - - - - - - - - - -
 72
65
 73
2
 40
0.2
 49
0.1
 74
0
 49
-0.1
 74
0
  0
LTYPE
  5
1F7
100
AcDbSymbolTableRecord
100
AcDbLinetypeTableRecord
  2
PHANTOM
 70
64
  3
_____ _ _ _____ _ _ _____ _ _ _____
 72
65
 73
6
 40
0.8
 49
0.45
 74
0
 49
-0.05
 74
0
 49
0.1
 74
0
 49
-0.05
 74
0
 49
0.1
 74
0
 49
-0.05
 74
0
  0
LTYPE
  5
1F8
100
AcDbSymbolTableRecord
100
AcDbLinetypeTableRecord
  2
DOT
 70
64
  3
. . . . . . . . . . . . . . . . . . . .
 72
65
 73
2
 40
0.2
 49
0.1
 74
0
 49
-0.1
 74
0
  0
LTYPE
  5
1F9
100
AcDbSymbolTableRecord
100
AcDbLinetypeTableRecord
  2
DASHED
 70
64
  3
- - - - - - - - - - - - - - - - - - - -
 72
65
 73
2
 40
0.2
 49
0.1
 74
0
 49
-0.1
 74
0
  0
ENDTAB
  0
TABLE
  2
LAYER
  5
2
100
AcDbSymbolTable
 70
36
  0
LAYER
  5
10
100
AcDbSymbolTableRecord
100
AcDbLayerTableRecord
  2
0
 70
0
 62
7
  6
CONTINUOUS
370
-3
390
F
  0
LAYER
  5
1FA
100
AcDbSymbolTableRecord
100
AcDbLayerTableRecord
  2
DEFAULT_1
 70
0
 62
7
  6
CENTER
370
-3
390
F
  0
LAYER
  5
1FB
100
AcDbSymbolTableRecord
100
AcDbLayerTableRecord
  2
DEFAULT_2
 70
0
 62
7
  6
HIDDEN
370
-3
390
F
  0
LAYER
  5
1FC
100
AcDbSymbolTableRecord
100
AcDbLayerTableRecord
  2
DEFAULT_3
 70
0
 62
7
  6
PHANTOM
370
-3
390
F
  0
LAYER
  5
1FD
100
AcDbSymbolTableRecord
100
AcDbLayerTableRecord
  2
ASSI
 70
0
 62
7
  6
CONTINUOUS
370
-3
390
F
  0
LAYER
  5
1FE
100
AcDbSymbolTableRecord
100
AcDbLayerTableRecord
  2
COORDINATE
 70
0
 62
7
  6
CONTINUOUS
370
-3
390
F
  0
LAYER
  5
1FF
100
AcDbSymbolTableRecord
100
AcDbLayerTableRecord
  2
COORD_ORIGINE
 70
0
 62
7
  6
CONTINUOUS
370
-3
390
F
  0
LAYER
  5
200
100
AcDbSymbolTableRecord
100
AcDbLayerTableRecord
  2
COSMETICHE
 70
0
 62
7
  6
CONTINUOUS
370
-3
390
F
  0
LAYER
  5
201
100
AcDbSymbolTableRecord
100
AcDbLayerTableRecord
  2
CURVE
 70
0
 62
7
  6
CONTINUOUS
370
-3
390
F
  0
LAYER
  5
202
100
AcDbSymbolTableRecord
100
AcDbLayerTableRecord
  2
DRAFT
 70
0
 62
7
  6
CONTINUOUS
370
-3
390
F
  0
LAYER
  5
203
100
AcDbSymbolTableRecord
100
AcDbLayerTableRecord
  2
IMPORT
 70
0
 62
7
  6
CONTINUOUS
370
-3
390
F
  0
LAYER
  5
204
100
AcDbSymbolTableRecord
100
AcDbLayerTableRecord
  2
INTF_1
 70
0
 62
7
  6
CONTINUOUS
370
-3
390
F
  0
LAYER
  5
205
100
AcDbSymbolTableRecord
100
AcDbLayerTableRecord
  2
NOTE
 70
0
 62
7
  6
CONTINUOUS
370
-3
390
F
  0
LAYER
  5
206
100
AcDbSymbolTableRecord
100
AcDbLayerTableRecord
  2
PIANI
 70
0
 62
7
  6
CONTINUOUS
370
-3
390
F
  0
LAYER
  5
207
100
AcDbSymbolTableRecord
100
AcDbLayerTableRecord
  2
PIANI_ORIGINE
 70
0
 62
7
  6
CONTINUOUS
370
-3
390
F
  0
LAYER
  5
208
100
AcDbSymbolTableRecord
100
AcDbLayerTableRecord
  2
PIANI_SFORMI
 70
0
 62
7
  6
CONTINUOUS
370
-3
390
F
  0
LAYER
  5
209
100
AcDbSymbolTableRecord
100
AcDbLayerTableRecord
  2
PUNTI
 70
0
 62
7
  6
CONTINUOUS
370
-3
390
F
  0
LAYER
  5
20A
100
AcDbSymbolTableRecord
100
AcDbLayerTableRecord
  2
RACCORDO
 70
0
 62
7
  6
CONTINUOUS
370
-3
390
F
  0
LAYER
  5
20B
100
AcDbSymbolTableRecord
100
AcDbLayerTableRecord
  2
SMUSSO
 70
0
 62
7
  6
CONTINUOUS
370
-3
390
F
  0
LAYER
  5
20C
100
AcDbSymbolTableRecord
100
AcDbLayerTableRecord
  2
SNAPLINE
 70
0
 62
7
  6
CONTINUOUS
370
-3
390
F
  0
LAYER
  5
20D
100
AcDbSymbolTableRecord
100
AcDbLayerTableRecord
  2
SUPERFICI
 70
0
 62
7
  6
CONTINUOUS
370
-3
390
F
  0
LAYER
  5
20E
100
AcDbSymbolTableRecord
100
AcDbLayerTableRecord
  2
TRASH
 70
0
 62
7
  6
CONTINUOUS
370
-3
390
F
  0
LAYER
  5
20F
100
AcDbSymbolTableRecord
100
AcDbLayerTableRecord
  2
XSEC_DATUMS
 70
0
 62
7
  6
CONTINUOUS
370
-3
390
F
  0
ENDTAB
  0
TABLE
  2
STYLE
  5
3
100
AcDbSymbolTable
 70
1
  0
STYLE
  5
11
100
AcDbSymbolTableRecord
100
AcDbTextStyleTableRecord
  2
STANDARD
 70
0
 40
0.0
 41
0.8
 50
0.0
 71
0
 42
0.2
  3
txt
  4

  0
STYLE
  5
210
100
AcDbSymbolTableRecord
100
AcDbTextStyleTableRecord
  2
TEXTSTYLE_1
 70
0
 40
0.0
 41
0.8
 50
0.0
 71
0
 42
0.2
  3
gdt
  4

  0
ENDTAB
  0
TABLE
  2
VIEW
  5
6
100
AcDbSymbolTable
 70
0
  0
ENDTAB
  0
TABLE
  2
UCS
  5
7
100
AcDbSymbolTable
 70
0
  0
ENDTAB
  0
TABLE
  2
APPID
  5
9
100
AcDbSymbolTable
 70
1
  0
APPID
  5
211
100
AcDbSymbolTableRecord
100
AcDbRegAppTableRecord
  2
ACAD
 70
0
  0
ENDTAB
  0
TABLE
  2
BLOCK_RECORD
  5
1
100
AcDbSymbolTable
 70
0
  0
BLOCK_RECORD
  5
212
100
AcDbSymbolTableRecord
100
AcDbBlockTableRecord
  2
*Model_Space
  0
BLOCK_RECORD
  5
213
100
AcDbSymbolTableRecord
100
AcDbBlockTableRecord
  2
*Paper_Space
  0
BLOCK_RECORD
  5
214
100
AcDbSymbolTableRecord
100
AcDbBlockTableRecord
  2
_FILLED
  0
ENDTAB
  0
TABLE
  2
DIMSTYLE
  5
A
100
AcDbSymbolTable
 70
1
100
AcDbDimStyleTable
 71
0
  0
DIMSTYLE
105
215
100
AcDbSymbolTableRecord
100
AcDbDimStyleTableRecord
  2
STANDARD
 70
0
  3

  4

 40
1.0
 41
3.0
 42
0.5
 43
0.38
 44
1.5
 45
0.0
 46
0.0
 47
0.01
 48
0.01
140
3.0
141
0.09
142
0.0
143
25.4
144
1.0
145
0.0
146
1.0
147
0.625
 71
1
 72
0
 73
0
 74
0
 75
0
 76
0
 77
1
 78
8
 79
2
170
0
171
1
172
0
173
0
174
0
175
0
176
0
177
0
178
0
270
2
179
2
271
2
272
2
273
2
274
2
275
0
280
0
281
0
282
0
283
1
284
8
285
0
286
0
287
3
288
0
340
11
278
44
341
214
342
214
343
214
344
214
  0
ENDTAB
  0
ENDSEC
  0
SECTION
  2
BLOCKS
  0
BLOCK
  5
20
100
AcDbEntity
  8
0
100
AcDbBlockBegin
  2
*Model_Space
 70
0
 10
0.0
 20
0.0
 30
0.0
  3
*Model_Space
  1

  0
ENDBLK
  5
21
100
AcDbEntity
  8
0
100
AcDbBlockEnd
  0
BLOCK
  5
1C
100
AcDbEntity
  8
0
100
AcDbBlockBegin
  2
*Paper_Space
 70
0
 10
0.0
 20
0.0
 30
0.0
  3
*Paper_Space
  1

  0
ENDBLK
  5
1D
100
AcDbEntity
  8
0
100
AcDbBlockEnd
  0
BLOCK
  5
216
100
AcDbEntity
  8
0
100
AcDbBlockBegin
  2
_FILLED
 70
64
 10
0.0
 20
0.0
  3
_FILLED
  1

  0
SOLID
  5
217
100
AcDbEntity
  8
0
  6
BYBLOCK
 62
0
100
AcDbTrace
 10
0.0
 20
0.0
 11
-1.0
 21
0.3166666667
 12
-1.0
 22
-0.3166666667
 13
-1.0
 23
-0.3166666667
  0
ENDBLK
  5
218
100
AcDbEntity
  8
0
  6
BYBLOCK
 62
0
100
AcDbBlockEnd
  0
ENDSEC
  0
SECTION
  2
ENTITIES
  0
LWPOLYLINE
  5
219
100
AcDbEntity
  8
RACCORDO
100
AcDbPolyline
 62
250
  6
CONTINUOUS
 90
13
 70
0
 10
-15.9131612039
 20
19.412913707
 10
-15.9359509697
 20
19.3949219122
 10
-15.9583077781
 20
19.3743101726
 10
-15.9798575396
 20
19.3514233782
 10
-16.0002396687
 20
19.3266444866
 10
-16.0191131175
 20
19.3003881152
 10
-16.0361620825
 20
19.2730936038
 10
-16.0511012887
 20
19.2452176629
 10
-16.0636807629
 20
19.217226732
 10
-16.0736900168
 20
19.1895891747
 10
-16.0809615686
 20
19.1627674416
 10
-16.0853737457
 20
19.1372103325
 10
-16.0868527205
 20
19.1133454865
  0
LINE
  5
21A
100
AcDbEntity
  8
RACCORDO
100
AcDbLine
 62
7
  6
CONTINUOUS
 10
-16.0600754702
 20
19.4383459027
 11
-14.4929377929
 21
20.6136923654
  0
LINE
  5
21B
100
AcDbEntity
  8
RACCORDO
100
AcDbLine
 62
250
  6
CONTINUOUS
 10
-15.9131612039
 20
19.412913707
 11
-14.3469104577
 21
20.5875949752
  0
LINE
  5
21C
100
AcDbEntity
  8
RACCORDO
100
AcDbLine
 62
7
  6
CONTINUOUS
 10
-14.492939429
 20
20.6136911383
 11
-14.490810401
 21
20.6152189919
  0
LINE
  5
21D
100
AcDbEntity
  8
RACCORDO
100
AcDbLine
 62
7
  6
CONTINUOUS
 10
-14.4908089708
 20
20.6152200646
 11
-13.9533716557
 21
20.9840205839
  0
LINE
  5
21E
100
AcDbEntity
  8
RACCORDO
100
AcDbLine
 62
250
  6
CONTINUOUS
 10
-14.3468902649
 20
20.5875806967
 11
-13.8103759479
 21
20.9557478358
  0
LWPOLYLINE
  5
21F
100
AcDbEntity
  8
RACCORDO
100
AcDbPolyline
 62
250
  6
CONTINUOUS
 90
9
 70
0
 10
-16.0600754702
 20
19.4383459027
 10
-16.0542835455
 20
19.4421996472
 10
-16.0389372749
 20
19.4487180881
 10
-16.0213247562
 20
19.4516030381
 10
-16.0017812523
 20
19.4507868544
 10
-15.9807884568
 20
19.4463248462
 10
-15.9587830822
 20
19.4383855703
 10
-15.9361110024
 20
19.4271649139
 10
-15.9131612039
 20
19.412913707
  0
LWPOLYLINE
  5
220
100
AcDbEntity
  8
RACCORDO
100
AcDbPolyline
 62
7
  6
CONTINUOUS
 90
9
 70
0
 10
-14.490810401
 20
20.6152189919
 10
-14.4874454444
 20
20.6173730357
 10
-14.4722085288
 20
20.6239712439
 10
-14.4548163054
 20
20.6269298892
 10
-14.4355640299
 20
20.6262000703
 10
-14.4147797318
 20
20.621796728
 10
-14.3928205942
 20
20.6137954282
 10
-14.3700664361
 20
20.602330267
 10
-14.3469104577
 20
20.5875949752
  0
LWPOLYLINE
  5
221
100
AcDbEntity
  8
RACCORDO
100
AcDbPolyline
 62
250
  6
CONTINUOUS
 90
9
 70
0
 10
-13.95334932
 20
20.9840359041
 10
-13.9496589471
 20
20.9863819705
 10
-13.9342531327
 20
20.9929388889
 10
-13.9166917062
 20
20.9957787842
 10
-13.8973102483
 20
20.9948341543
 10
-13.8765899893
 20
20.9901654483
 10
-13.8549623404
 20
20.9819498352
 10
-13.832764517
 20
20.9703907658
 10
-13.8103759479
 20
20.9557478358
  0
LWPOLYLINE
  5
222
100
AcDbEntity
  8
RACCORDO
100
AcDbPolyline
 62
7
  6
CONTINUOUS
 90
4
 70
0
 10
0.0641240747
 20
26.6621157115
 10
0.0379923375
 20
26.6525097559
 10
0.0121073805
 20
26.6423447414
 10
-0.0135152863
 20
26.631627416
  0
LINE
  5
223
100
AcDbEntity
  8
RACCORDO
100
AcDbLine
 62
250
  6
CONTINUOUS
 10
0.0924837438
 20
26.6712605199
 11
0.1145172386
 21
26.6787312339
  0
LINE
  5
224
100
AcDbEntity
  8
ASSI
100
AcDbLine
 62
7
  6
CONTINUOUS
 10
0.1189182436
 20
26.6801825727
 11
0.0476380496
 21
26.6561312724
  0
LWPOLYLINE
  5
225
100
AcDbEntity
  8
RACCORDO
100
AcDbPolyline
 62
250
  6
CONTINUOUS
 90
6
 70
0
 10
-0.0738620966
 20
26.586761728
 10
-0.0953259901
 20
26.5800414705
 10
-0.1163095343
 20
26.5725081128
 10
-0.1368028003
 20
26.5641652151
 10
-0.1567960941
 20
26.5550167147
 10
-0.17627995
 20
26.5450669566
  0
LWPOLYLINE
  5
226
100
AcDbEntity
  8
ASSI
100
AcDbPolyline
 62
250
  6
CONTINUOUS
 90
6
 70
0
 10
-0.0738620966
 20
26.586761728
 10
-0.0953259901
 20
26.5800414705
 10
-0.1163095343
 20
26.5725081128
 10
-0.1368028003
 20
26.5641652151
 10
-0.1567960941
 20
26.5550167147
 10
-0.17627995
 20
26.5450669566
  0
LINE
  5
227
100
AcDbEntity
  8
ASSI
100
AcDbLine
 62
250
  6
CONTINUOUS
 10
0.1145172386
 20
26.6787312339
 11
0.1322777843
 21
26.6841899813
  0
LINE
  5
228
100
AcDbEntity
  8
RACCORDO
100
AcDbLine
 62
250
  6
CONTINUOUS
 10
0.1145172386
 20
26.6787312339
 11
0.1326221576
 21
26.6842909456
  0
LINE
  5
229
100
AcDbEntity
  8
ASSI
100
AcDbLine
 62
7
  6
CONTINUOUS
 10
0.1322777877
 20
26.6841899698
 11
0.1189182436
 21
26.6801825727
  0
LWPOLYLINE
  5
22A
100
AcDbEntity
  8
RACCORDO
100
AcDbPolyline
 62
7
  6
CONTINUOUS
 90
4
 70
0
 10
0.1189182436
 20
26.6801825727
 10
0.1170769061
 20
26.6796305495
 10
0.090489311
 20
26.6711573442
 10
0.0641240747
 20
26.6621157115
  0
LINE
  5
22B
100
AcDbEntity
  8
RACCORDO
100
AcDbLine
 62
7
  6
CONTINUOUS
 10
0.4816758391
 20
26.7865264021
 11
0.1326363983
 21
26.6842951168
  0
LINE
  5
22C
100
AcDbEntity
  8
ASSI
100
AcDbLine
 62
7
  6
CONTINUOUS
 10
0.4816758391
 20
26.7865264021
 11
0.1322777843
 21
26.6841899813
  0
LINE
  5
22D
100
AcDbEntity
  8
RACCORDO
100
AcDbLine
 62
250
  6
CONTINUOUS
 10
0.2834957286
 20
26.6914294117
 11
-0.0738620966
 21
26.586761728
  0
LINE
  5
22E
100
AcDbEntity
  8
ASSI
100
AcDbLine
 62
250
  6
CONTINUOUS
 10
0.2834957286
 20
26.6914294117
 11
-0.0738620966
 21
26.586761728
  0
LWPOLYLINE
  5
22F
100
AcDbEntity
  8
RACCORDO
100
AcDbPolyline
 62
7
  6
CONTINUOUS
 90
15
 70
0
 10
-5.791993819
 20
-26.6664245205
 10
-5.7778174407
 20
-26.6762399639
 10
-5.709389936
 20
-26.7174074862
 10
-5.6376741904
 20
-26.7509540587
 10
-5.5627567057
 20
-26.7770832746
 10
-5.4830522615
 20
-26.7961159634
 10
-5.398031999
 20
-26.8074589453
 10
-5.3090833744
 20
-26.8102546529
 10
-5.2170540547
 20
-26.8040551999
 10
-5.1217366498
 20
-26.7883869725
 10
-5.0239141479
 20
-26.7628902454
 10
-4.9255869991
 20
-26.7279274992
 10
-4.8274163266
 20
-26.6838154169
 10
-4.7289558125
 20
-26.6303751547
 10
-4.6857043351
 20
-26.6039749932
  0
LINE
  5
230
100
AcDbEntity
  8
RACCORDO
100
AcDbLine
 62
7
  6
CONTINUOUS
 10
-5.7911662641
 20
-26.6670183214
 11
-20.6468327435
 21
-16.1624758148
  0
LINE
  5
231
100
AcDbEntity
  8
RACCORDO
100
AcDbLine
 62
250
  6
CONTINUOUS
 10
-5.9871628139
 20
-26.2335679626
 11
-20.8383192513
 21
-15.7322145372
  0
LINE
  5
232
100
AcDbEntity
  8
RACCORDO
100
AcDbLine
 62
250
  6
CONTINUOUS
 10
-20.6468335213
 20
-16.1624752648
 11
-20.65379718
 21
-16.1574275913
  0
LWPOLYLINE
  5
233
100
AcDbEntity
  8
RACCORDO
100
AcDbPolyline
 62
250
  6
CONTINUOUS
 90
9
 70
0
 10
-20.65379718
 20
-16.1574275913
 10
-20.6935147581
 20
-16.1232981341
 10
-20.7287633589
 20
-16.0832675957
 10
-20.7593644668
 20
-16.0375435171
 10
-20.7851708308
 20
-15.9863500337
 10
-20.8060618836
 20
-15.9299307688
 10
-20.8219343111
 20
-15.8685604677
 10
-20.8327050579
 20
-15.8025463003
 10
-20.8383192513
 20
-15.7322145372
  0
LWPOLYLINE
  5
234
100
AcDbEntity
  8
RACCORDO
100
AcDbPolyline
 62
250
  6
CONTINUOUS
 90
7
 70
0
 10
-12.2993728033
 20
19.7105373017
 10
-12.2780567545
 20
19.7280265061
 10
-12.2601409061
 20
19.7473372293
 10
-12.2459343919
 20
19.7681414121
 10
-12.2356826215
 20
19.7900872009
 10
-12.2295662348
 20
19.8127983412
 10
-12.2276854702
 20
19.8343249008
  0
LINE
  5
235
100
AcDbEntity
  8
RACCORDO
100
AcDbLine
 62
250
  6
CONTINUOUS
 10
-12.2993728033
 20
19.4283254965
 11
-12.2782738917
 21
19.4456113378
  0
LWPOLYLINE
  5
236
100
AcDbEntity
  8
RACCORDO
100
AcDbPolyline
 62
7
  6
CONTINUOUS
 90
19
 70
0
 10
-20.1359961966
 20
15.0689194718
 10
-20.1681113031
 20
15.0431297964
 10
-20.2498482887
 20
14.9723138496
 10
-20.3286146565
 20
14.8966451609
 10
-20.4042237356
 20
14.8165804879
 10
-20.4765091032
 20
14.7325207874
 10
-20.5452041562
 20
14.6449203703
 10
-20.6100602439
 20
14.5542280745
 10
-20.6708015452
 20
14.4608629266
 10
-20.7271025273
 20
14.3653317986
 10
-20.7787100128
 20
14.268029972
 10
-20.82533089
 20
14.1693476643
 10
-20.8666850251
 20
14.0696835128
 10
-20.9024856198
 20
13.9693384733
 10
-20.9324022717
 20
13.8686248538
 10
-20.9561297699
 20
13.7676334351
 10
-20.9732438009
 20
13.6664100372
 10
-20.9832164445
 20
13.5652736303
 10
-20.9846930264
 20
13.5358975121
  0
LWPOLYLINE
  5
237
100
AcDbEntity
  8
RACCORDO
100
AcDbPolyline
 62
250
  6
CONTINUOUS
 90
13
 70
0
 10
-14.6252538522
 20
18.5022256851
 10
-14.6480436181
 20
18.4842338903
 10
-14.6704004265
 20
18.4636221507
 10
-14.6919501879
 20
18.4407353563
 10
-14.712332317
 20
18.4159564647
 10
-14.7312057658
 20
18.3897000933
 10
-14.7482547308
 20
18.3624055819
 10
-14.763193937
 20
18.334529641
 10
-14.7757734113
 20
18.3065387101
 10
-14.7857826652
 20
18.2789011528
 10
-14.793054217
 20
18.2520794197
 10
-14.797466394
 20
18.2265223106
 10
-14.7989453688
 20
18.2026574646
  0
LINE
  5
238
100
AcDbEntity
  8
RACCORDO
100
AcDbLine
 62
7
  6
CONTINUOUS
 10
-20.1361211993
 20
15.0688322839
 11
-15.8603084365
 21
18.4277796029
  0
LINE
  5
239
100
AcDbEntity
  8
RACCORDO
100
AcDbLine
 62
250
  6
CONTINUOUS
 10
-19.845749222
 20
15.0156302944
 11
-15.566911856
 21
18.3769536488
  0
LINE
  5
23A
100
AcDbEntity
  8
RACCORDO
100
AcDbLine
 62
7
  6
CONTINUOUS
 10
-15.8432226099
 20
18.5189453367
 11
-15.7684963801
 21
18.5729984508
  0
LWPOLYLINE
  5
23B
100
AcDbEntity
  8
RACCORDO
100
AcDbPolyline
 62
250
  6
CONTINUOUS
 90
11
 70
0
 10
-20.1360014783
 20
15.0689262003
 10
-20.1289795984
 20
15.0739976555
 10
-20.1067907712
 20
15.0854675792
 10
-20.0815427469
 20
15.0924526211
 10
-20.0535118268
 20
15.0948763406
 10
-20.0230047668
 20
15.0927122138
 10
-19.9903554204
 20
15.0859839237
 10
-19.9559210854
 20
15.0747651011
 10
-19.9200785932
 20
15.059178519
 10
-19.8832201856
 20
15.039394749
 10
-19.845749222
 20
15.0156302944
  0
LINE
  5
23C
100
AcDbEntity
  8
RACCORDO
100
AcDbLine
 62
250
  6
CONTINUOUS
 10
-12.4761427675
 20
20.0123025062
 11
-13.0033739184
 21
19.6375711775
  0
LINE
  5
23D
100
AcDbEntity
  8
RACCORDO
100
AcDbLine
 62
250
  6
CONTINUOUS
 10
-12.2993728033
 20
19.7105373017
 11
-12.8266039542
 21
19.3358059729
  0
LINE
  5
23E
100
AcDbEntity
  8
RACCORDO
100
AcDbLine
 62
250
  6
CONTINUOUS
 10
-13.0033537256
 20
19.637556899
 11
-14.6252538522
 21
18.5022256851
  0
LINE
  5
23F
100
AcDbEntity
  8
RACCORDO
100
AcDbLine
 62
250
  6
CONTINUOUS
 10
-12.8266039542
 20
19.3358261658
 11
-14.4485040809
 21
18.2004949519
  0
LINE
  5
240
100
AcDbEntity
  8
ASSI
100
AcDbLine
 62
7
  6
CONTINUOUS
 10
-0.1556001768
 20
26.5593548073
 11
-0.2193557826
 21
26.5190015828
  0
LWPOLYLINE
  5
241
100
AcDbEntity
  8
RACCORDO
100
AcDbPolyline
 62
250
  6
CONTINUOUS
 90
13
 70
0
 10
-14.4485040809
 20
18.2004949519
 10
-14.4732764511
 20
18.1856519962
 10
-14.500567962
 20
18.1732015372
 10
-14.5299198035
 20
18.1633556904
 10
-14.5608404013
 20
18.1562823744
 10
-14.592805887
 20
18.1521043006
 10
-14.6252682201
 20
18.1508943564
 10
-14.6577463832
 20
18.1526799995
 10
-14.6896208483
 20
18.1574367195
 10
-14.720153704
 20
18.1650245438
 10
-14.7487991152
 20
18.1752357941
 10
-14.7751907855
 20
18.1878643438
 10
-14.7989453688
 20
18.2026574646
  0
LWPOLYLINE
  5
242
100
AcDbEntity
  8
RACCORDO
100
AcDbPolyline
 62
250
  6
CONTINUOUS
 90
13
 70
0
 10
-14.4485040809
 20
17.9414460611
 10
-14.4732240068
 20
17.9266306068
 10
-14.5004416268
 20
17.9142024112
 10
-14.5296986685
 20
17.9043689651
 10
-14.5605001811
 20
17.897294539
 10
-14.5923311765
 20
17.893095435
 10
-14.624666036
 20
17.8918406989
 10
-14.656989827
 20
17.8935550288
 10
-14.6887314312
 20
17.898212859
 10
-14.7192880338
 20
17.9057162323
 10
-14.7481356168
 20
17.9159122589
 10
-14.7748303888
 20
17.928618573
 10
-14.7989453688
 20
17.9436085738
  0
LWPOLYLINE
  5
243
100
AcDbEntity
  8
RACCORDO
100
AcDbPolyline
 62
7
  6
CONTINUOUS
 90
5
 70
0
 10
-0.1372660085
 20
26.5699904931
 10
-0.1610561852
 20
26.5561090273
 10
-0.1844978869
 20
26.5417307808
 10
-0.2075822848
 20
26.5268641211
 10
-0.2191569258
 20
26.5191360344
  0
LWPOLYLINE
  5
244
100
AcDbEntity
  8
RACCORDO
100
AcDbPolyline
 62
250
  6
CONTINUOUS
 90
3
 70
0
 10
-0.17627995
 20
26.5450669566
 10
-0.1952451264
 20
26.5343206768
 10
-0.2136826803
 20
26.522782929
  0
LWPOLYLINE
  5
245
100
AcDbEntity
  8
ASSI
100
AcDbPolyline
 62
250
  6
CONTINUOUS
 90
4
 70
0
 10
-0.17627995
 20
26.5450669566
 10
-0.1952451264
 20
26.5343206768
 10
-0.2136826803
 20
26.522782929
 10
-0.2191485054
 20
26.5191418857
  0
LINE
  5
246
100
AcDbEntity
  8
ASSI
100
AcDbLine
 62
7
  6
CONTINUOUS
 10
-0.0897015893
 20
26.5956921749
 11
-0.1556001768
 21
26.5593548073
  0
LWPOLYLINE
  5
247
100
AcDbEntity
  8
RACCORDO
100
AcDbPolyline
 62
7
  6
CONTINUOUS
 90
3
 70
0
 10
-0.0886888086
 20
26.5962248279
 10
-0.1131388276
 20
26.5833657992
 10
-0.1372660085
 20
26.5699904931
  0
LWPOLYLINE
  5
248
100
AcDbEntity
  8
RACCORDO
100
AcDbPolyline
 62
7
  6
CONTINUOUS
 90
4
 70
0
 10
-0.0135152863
 20
26.631627416
 10
-0.0388638809
 20
26.6203636723
 10
-0.0639267631
 20
26.6085599213
 10
-0.0886888086
 20
26.5962248279
  0
LWPOLYLINE
  5
249
100
AcDbEntity
  8
ASSI
100
AcDbPolyline
 62
7
  6
CONTINUOUS
 90
3
 70
0
 10
0.0476380496
 20
26.6561312724
 10
-0.0222250458
 20
26.6278323695
 10
-0.0897015893
 20
26.5956921749
  0
LINE
  5
24A
100
AcDbEntity
  8
DRAFT
100
AcDbLine
 62
7
  6
CONTINUOUS
 10
-6.1389074733
 20
22.3266006218
 11
-5.3862133893
 21
22.5470596149
  0
LINE
  5
24B
100
AcDbEntity
  8
ASSI
100
AcDbLine
 62
7
  6
CONTINUOUS
 10
-6.1389074733
 20
22.3266006218
 11
-5.3862133893
 21
22.5470596149
  0
LINE
  5
24C
100
AcDbEntity
  8
RACCORDO
100
AcDbLine
 62
250
  6
CONTINUOUS
 10
1.0649453611
 20
-23.7426600769
 11
0.5377142102
 21
-23.8149561226
  0
LINE
  5
24D
100
AcDbEntity
  8
RACCORDO
100
AcDbLine
 62
250
  6
CONTINUOUS
 10
0.9750210965
 20
-23.4031625446
 11
0.5377142102
 21
-23.4631278151
  0
LWPOLYLINE
  5
24E
100
AcDbEntity
  8
RACCORDO
100
AcDbPolyline
 62
7
  6
CONTINUOUS
 90
11
 70
0
 10
-20.9846114078
 20
-15.4889047164
 10
-20.978985053
 20
-15.5637132119
 10
-20.9657508648
 20
-15.6505775143
 10
-20.9458265639
 20
-15.7325248084
 10
-20.9196493277
 20
-15.8092752442
 10
-20.8875804177
 20
-15.8809070293
 10
-20.8498319533
 20
-15.9475928178
 10
-20.8068683069
 20
-16.0089591411
 10
-20.7591427344
 20
-16.064805435
 10
-20.7067871744
 20
-16.1152597494
 10
-20.6459596359
 20
-16.1630855896
  0
LWPOLYLINE
  5
24F
100
AcDbEntity
  8
RACCORDO
100
AcDbPolyline
 62
250
  6
CONTINUOUS
 90
9
 70
0
 10
-20.9846229121
 20
-15.4889052081
 10
-20.9839328298
 20
-15.4998332845
 10
-20.9781140624
 20
-15.5371419385
 10
-20.9670125013
 20
-15.5737088938
 10
-20.9507470942
 20
-15.6091423536
 10
-20.9294921168
 20
-15.6430626658
 10
-20.903475306
 20
-15.675106391
 10
-20.872975419
 20
-15.7049301962
 10
-20.8383192472
 20
-15.7322145341
  0
LINE
  5
250
100
AcDbEntity
  8
RACCORDO
100
AcDbLine
 62
7
  6
CONTINUOUS
 10
-20.9846319815
 20
-15.4886892045
 11
-20.9846229121
 21
-15.4889052081
  0
LWPOLYLINE
  5
251
100
AcDbEntity
  8
RACCORDO
100
AcDbPolyline
 62
250
  6
CONTINUOUS
 90
10
 70
0
 10
-20.8383192513
 20
-15.7322145372
 10
-20.9538863486
 20
-12.594331881
 10
-21.0405702319
 20
-9.4343618626
 10
-21.0983635634
 20
-6.2525674413
 10
-21.1272614515
 20
-3.0492133936
 10
-21.1272614515
 20
0.1754338042
 10
-21.0983635635
 20
3.4211059998
 10
-21.0405702319
 20
6.6875332598
 10
-20.9538863487
 20
9.9744438896
 10
-20.8383192513
 20
13.281564553
  0
LWPOLYLINE
  5
252
100
AcDbEntity
  8
RACCORDO
100
AcDbPolyline
 62
250
  6
CONTINUOUS
 90
9
 70
0
 10
-20.9847002277
 20
13.5358977842
 10
-20.9839250589
 20
13.506317521
 10
-20.9781058273
 20
13.4709226319
 10
-20.9670039417
 20
13.4360198354
 10
-20.9507383509
 20
13.4019830894
 10
-20.9294833286
 20
13.3691770731
 10
-20.9034666071
 20
13.337953279
 10
-20.8729669366
 20
13.3086462472
 10
-20.8383110987
 20
13.2815699814
  0
LWPOLYLINE
  5
253
100
AcDbEntity
  8
RACCORDO
100
AcDbPolyline
 62
7
  6
CONTINUOUS
 90
10
 70
0
 10
-20.9846800508
 20
13.5364278983
 10
-21.0990051838
 20
10.2697644552
 10
-21.1863537446
 20
6.9690718842
 10
-21.2445850486
 20
3.6889442406
 10
-21.273690704
 20
0.4296940551
 10
-21.2736682905
 20
-2.8084224997
 10
-21.244516501
 20
-6.0251709858
 10
-21.1862351151
 20
-9.220297126
 10
-21.0988298855
 20
-12.3934989348
 10
-20.9846319815
 20
-15.4886892045
  0
LWPOLYLINE
  5
254
100
AcDbEntity
  8
RACCORDO
100
AcDbPolyline
 62
250
  6
CONTINUOUS
 90
22
 70
0
 10
-20.8383192513
 20
13.281564553
 10
-20.832704562
 20
13.3600322963
 10
-20.8219329702
 20
13.4416400976
 10
-20.8060597012
 20
13.525983843
 10
-20.7851684828
 20
13.6126416508
 10
-20.7593627788
 20
13.7011895538
 10
-20.7287620789
 20
13.7912046817
 10
-20.6935124129
 20
13.8822595036
 10
-20.6537927121
 20
13.9738893328
 10
-20.6098080311
 20
14.0656085806
 10
-20.561793865
 20
14.1569438846
 10
-20.5099820798
 20
14.2474676336
 10
-20.454601796
 20
14.3367649128
 10
-20.3959146683
 20
14.4244159419
 10
-20.3342243058
 20
14.5099671528
 10
-20.2698457217
 20
14.592965539
 10
-20.2031120169
 20
14.6729926541
 10
-20.1343483219
 20
14.7496679281
 10
-20.0638767958
 20
14.8226178663
 10
-19.9920423049
 20
14.8914841676
 10
-19.9192116157
 20
14.9559272614
 10
-19.845749222
 20
15.0156302944
  0
LWPOLYLINE
  5
255
100
AcDbEntity
  8
RACCORDO
100
AcDbPolyline
 62
250
  6
CONTINUOUS
 90
9
 70
0
 10
-13.9089170489
 20
18.0037141939
 10
-13.9220567484
 20
17.9769479386
 10
-13.9379126841
 20
17.9527862998
 10
-13.9562165597
 20
17.9316381172
 10
-13.9766586587
 20
17.9138612389
 10
-13.9988930808
 20
17.89975647
 10
-14.0225435947
 20
17.8895624802
 10
-14.0472100094
 20
17.883451762
 10
-14.0538972877
 20
17.8825277436
  0
LWPOLYLINE
  5
256
100
AcDbEntity
  8
RACCORDO
100
AcDbPolyline
 62
250
  6
CONTINUOUS
 90
9
 70
0
 10
-14.4485040809
 20
17.9414460611
 10
-14.4616747448
 20
17.9146254366
 10
-14.477569624
 20
17.8904254928
 10
-14.4959173338
 20
17.8692558113
 10
-14.5164032261
 20
17.8514755546
 10
-14.5386800584
 20
17.8373826304
 10
-14.5623753552
 20
17.827211989
 10
-14.5871088348
 20
17.8211337891
 10
-14.5935089716
 20
17.8202567639
  0
LINE
  5
257
100
AcDbEntity
  8
RACCORDO
100
AcDbLine
 62
250
  6
CONTINUOUS
 10
-12.8266039542
 20
18.7418757186
 11
-12.2993728033
 21
19.4283254965
  0
LINE
  5
258
100
AcDbEntity
  8
RACCORDO
100
AcDbLine
 62
7
  6
CONTINUOUS
 10
-12.8266039542
 20
18.6875164475
 11
-12.2794168085
 21
19.3999487346
  0
LINE
  5
259
100
AcDbEntity
  8
RACCORDO
100
AcDbLine
 62
7
  6
CONTINUOUS
 10
-13.009605329
 20
18.3098373317
 11
-12.8266039542
 21
18.5386422217
  0
LWPOLYLINE
  5
25A
100
AcDbEntity
  8
RACCORDO
100
AcDbPolyline
 62
250
  6
CONTINUOUS
 90
5
 70
0
 10
-12.2782738917
 20
19.4456113378
 10
-12.2604669968
 20
19.4647194676
 10
-12.2462733161
 20
19.4853403086
 10
-12.2359503208
 20
19.5071514109
 10
-12.2297104743
 20
19.5297752042
  0
LINE
  5
25B
100
AcDbEntity
  8
RACCORDO
100
AcDbLine
 62
7
  6
CONTINUOUS
 10
-13.7290547049
 20
17.395935545
 11
-13.009605329
 21
17.8995506073
  0
LINE
  5
25C
100
AcDbEntity
  8
RACCORDO
100
AcDbLine
 62
7
  6
CONTINUOUS
 10
0.2834957286
 20
26.6914294117
 11
-6.1389074733
 21
22.3266006218
  0
LINE
  5
25D
100
AcDbEntity
  8
ASSI
100
AcDbLine
 62
7
  6
CONTINUOUS
 10
0.2834957286
 20
26.6914294117
 11
-6.1389074733
 21
22.3266006218
  0
LINE
  5
25E
100
AcDbEntity
  8
DRAFT
100
AcDbLine
 62
7
  6
CONTINUOUS
 10
-11.7224973879
 20
18.240759629
 11
-5.3862133893
 21
22.5470596149
  0
LINE
  5
25F
100
AcDbEntity
  8
ASSI
100
AcDbLine
 62
7
  6
CONTINUOUS
 10
-11.7224973879
 20
18.240759629
 11
-5.3862133893
 21
22.5470596149
  0
LINE
  5
260
100
AcDbEntity
  8
RACCORDO
100
AcDbLine
 62
7
  6
CONTINUOUS
 10
-12.0877737383
 20
18.4990490134
 11
-0.2191485149
 21
26.5191418793
  0
LINE
  5
261
100
AcDbEntity
  8
ASSI
100
AcDbLine
 62
7
  6
CONTINUOUS
 10
-12.0877737383
 20
18.4990490134
 11
-0.2191485149
 21
26.5191418793
  0
LINE
  5
262
100
AcDbEntity
  8
RACCORDO
100
AcDbLine
 62
250
  6
CONTINUOUS
 10
-12.0656773846
 20
18.4834245318
 11
-0.0738620966
 21
26.586761728
  0
LINE
  5
263
100
AcDbEntity
  8
ASSI
100
AcDbLine
 62
250
  6
CONTINUOUS
 10
-12.0656773846
 20
18.4834245318
 11
-0.0738620966
 21
26.586761728
  0
LINE
  5
264
100
AcDbEntity
  8
RACCORDO
100
AcDbLine
 62
7
  6
CONTINUOUS
 10
-11.6075913928
 20
18.1595088206
 11
-5.27845004
 21
22.4270458476
  0
LINE
  5
265
100
AcDbEntity
  8
RACCORDO
100
AcDbLine
 62
7
  6
CONTINUOUS
 10
-11.4122826879
 20
18.021404711
 11
-4.9309600037
 21
22.391552729
  0
LWPOLYLINE
  5
266
100
AcDbEntity
  8
RACCORDO
100
AcDbPolyline
 62
7
  6
CONTINUOUS
 90
12
 70
0
 10
0.2834957286
 20
26.6914294117
 10
0.3021647278
 20
26.7037392029
 10
0.320975998
 20
26.7153903738
 10
0.3399146959
 20
26.7263785837
 10
0.358964192
 20
26.7366993721
 10
0.3781112967
 20
26.7463500185
 10
0.3973463347
 20
26.7553293971
 10
0.4166543158
 20
26.7636349695
 10
0.4360204371
 20
26.7712646905
 10
0.4554353903
 20
26.7782186603
 10
0.4748842193
 20
26.7844956307
 10
0.4816759225
 20
26.7865264266
  0
LWPOLYLINE
  5
267
100
AcDbEntity
  8
ASSI
100
AcDbPolyline
 62
7
  6
CONTINUOUS
 90
12
 70
0
 10
0.2834957286
 20
26.6914294117
 10
0.3021647278
 20
26.7037392029
 10
0.320975998
 20
26.7153903738
 10
0.3399146959
 20
26.7263785837
 10
0.358964192
 20
26.7366993721
 10
0.3781112967
 20
26.7463500185
 10
0.3973463347
 20
26.7553293971
 10
0.4166543158
 20
26.7636349695
 10
0.4360204371
 20
26.7712646905
 10
0.4554353903
 20
26.7782186603
 10
0.4748842193
 20
26.7844956307
 10
0.4816759225
 20
26.7865264266
  0
LWPOLYLINE
  5
268
100
AcDbEntity
  8
RACCORDO
100
AcDbPolyline
 62
250
  6
CONTINUOUS
 90
9
 70
0
 10
-0.0738620966
 20
26.586761728
 10
-0.0541787874
 20
26.5996577588
 10
-0.0341480131
 20
26.6119039759
 10
-0.0137846489
 20
26.6234912852
 10
0.0068961834
 20
26.6344110819
 10
0.0278791261
 20
26.6446552569
 10
0.0491485972
 20
26.6542162028
 10
0.0706888017
 20
26.6630868196
 10
0.0924837438
 20
26.6712605199
  0
LWPOLYLINE
  5
269
100
AcDbEntity
  8
ASSI
100
AcDbPolyline
 62
250
  6
CONTINUOUS
 90
9
 70
0
 10
-0.0738620966
 20
26.586761728
 10
-0.0541787874
 20
26.5996577588
 10
-0.0341480131
 20
26.6119039759
 10
-0.0137846489
 20
26.6234912852
 10
0.0068961834
 20
26.6344110819
 10
0.0278791261
 20
26.6446552569
 10
0.0491485972
 20
26.6542162028
 10
0.0706888017
 20
26.6630868196
 10
0.0924837438
 20
26.6712605199
  0
LWPOLYLINE
  5
26A
100
AcDbEntity
  8
RACCORDO
100
AcDbPolyline
 62
250
  6
CONTINUOUS
 90
13
 70
0
 10
-13.7290547049
 20
17.820346093
 10
-13.7537213755
 20
17.8055585809
 10
-13.7808811933
 20
17.7931462461
 10
-13.8100797108
 20
17.783316787
 10
-13.8408283743
 20
17.776234683
 10
-13.8726126718
 20
17.7720184483
 10
-13.9049007398
 20
17.7707386409
 10
-13.9371523032
 20
17.7724166759
 10
-13.9688277133
 20
17.7770244759
 10
-13.9993969496
 20
17.7844849397
 10
-14.028348504
 20
17.794673233
 10
-14.0551979398
 20
17.8074188781
 10
-14.0794959928
 20
17.8225086057
  0
LWPOLYLINE
  5
26B
100
AcDbEntity
  8
RACCORDO
100
AcDbPolyline
 62
7
  6
CONTINUOUS
 90
12
 70
0
 10
-4.6927950755
 20
20.801209415
 10
-4.6671173029
 20
20.8124189576
 10
-4.6395531747
 20
20.8202824271
 10
-4.6102844482
 20
20.8246885865
 10
-4.5795154176
 20
20.8255035162
 10
-4.5474451785
 20
20.8226723656
 10
-4.5142630263
 20
20.8162146661
 10
-4.4802238702
 20
20.8060358661
 10
-4.4455347587
 20
20.7921086806
 10
-4.4103195431
 20
20.7745475851
 10
-4.3748695486
 20
20.7533078616
 10
-4.3551836049
 20
20.7399103874
  0
LINE
  5
26C
100
AcDbEntity
  8
RACCORDO
100
AcDbLine
 62
7
  6
CONTINUOUS
 10
-2.175153957
 20
-25.0189806198
 11
-1.4021880764
 21
-25.5655500356
  0
LINE
  5
26D
100
AcDbEntity
  8
RACCORDO
100
AcDbLine
 62
250
  6
CONTINUOUS
 10
-2.1331751722
 20
-24.9924778854
 11
-1.4346272044
 21
-25.4864258904
  0
LINE
  5
26E
100
AcDbEntity
  8
RACCORDO
100
AcDbLine
 62
250
  6
CONTINUOUS
 10
-1.9396302415
 20
-24.8702859276
 11
-1.4346272044
 21
-25.2273769997
  0
LINE
  5
26F
100
AcDbEntity
  8
RACCORDO
100
AcDbLine
 62
250
  6
CONTINUOUS
 10
-1.7318566766
 20
-24.7391109153
 11
-1.3462388567
 21
-25.0117838907
  0
LINE
  5
270
100
AcDbEntity
  8
RACCORDO
100
AcDbLine
 62
250
  6
CONTINUOUS
 10
-0.8066518248
 20
-24.3371433222
 11
-0.942741202
 21
-24.2409136007
  0
LINE
  5
271
100
AcDbEntity
  8
RACCORDO
100
AcDbLine
 62
7
  6
CONTINUOUS
 10
-17.9477728354
 20
-4.9706157345
 11
-17.9501232519
 21
-4.9460462888
  0
LWPOLYLINE
  5
272
100
AcDbEntity
  8
RACCORDO
100
AcDbPolyline
 62
7
  6
CONTINUOUS
 90
19
 70
0
 10
-17.9409960835
 20
-4.9739770767
 10
-17.9396990591
 20
-5.007131738
 10
-17.9359095998
 20
-5.0404763292
 10
-17.9297631196
 20
-5.0739477268
 10
-17.9212988981
 20
-5.1077533652
 10
-17.910625861
 20
-5.1416480564
 10
-17.8981069443
 20
-5.1748341404
 10
-17.8840645294
 20
-5.206937455
 10
-17.8685359787
 20
-5.2382226044
 10
-17.8515863393
 20
-5.2687429761
 10
-17.8333394722
 20
-5.2983938006
 10
-17.813877021
 20
-5.327123761
 10
-17.7931734092
 20
-5.3549974806
 10
-17.7712798359
 20
-5.381928047
 10
-17.7482617552
 20
-5.4077974664
 10
-17.7240571234
 20
-5.4326046711
 10
-17.6986376988
 20
-5.4562646739
 10
-17.6720546381
 20
-5.4785917216
 10
-17.644334103
 20
-5.4994084196
  0
LWPOLYLINE
  5
273
100
AcDbEntity
  8
RACCORDO
100
AcDbPolyline
 62
250
  6
CONTINUOUS
 90
22
 70
0
 10
-17.8824174397
 20
-5.073977069
 10
-17.8818097625
 20
-5.0903403119
 10
-17.8800468569
 20
-5.1072784036
 10
-17.8771287229
 20
-5.1247913441
 10
-17.8730268121
 20
-5.1429889336
 10
-17.8677696729
 20
-5.161761372
 10
-17.8614429504
 20
-5.1807792589
 10
-17.8540266803
 20
-5.2000442512
 10
-17.8455408268
 20
-5.219554692
 10
-17.836130928
 20
-5.2389762098
 10
-17.8257842544
 20
-5.258301602
 10
-17.8145135355
 20
-5.2775380712
 10
-17.8025024971
 20
-5.2963728545
 10
-17.789735861
 20
-5.3148036457
 10
-17.7762289056
 20
-5.3328327511
 10
-17.762211192
 20
-5.3501543264
 10
-17.7476686002
 20
-5.366759196
 10
-17.7326152504
 20
-5.3826565355
 10
-17.7173230639
 20
-5.3975680278
 10
-17.7018826811
 20
-5.4114009003
 10
-17.6862034616
 20
-5.4242479255
 10
-17.6702854054
 20
-5.4361091034
  0
LINE
  5
274
100
AcDbEntity
  8
RACCORDO
100
AcDbLine
 62
7
  6
CONTINUOUS
 10
-17.9501232519
 20
-4.9460462888
 11
-17.9509625967
 21
-4.9224458144
  0
LINE
  5
275
100
AcDbEntity
  8
RACCORDO
100
AcDbLine
 62
7
  6
CONTINUOUS
 10
-10.1042428467
 20
17.0926011903
 11
-10.4576875934
 21
16.8275191628
  0
LINE
  5
276
100
AcDbEntity
  8
RACCORDO
100
AcDbLine
 62
7
  6
CONTINUOUS
 10
-4.1614605885
 20
20.3484746937
 11
-8.7607399624
 21
17.1364303629
  0
LINE
  5
277
100
AcDbEntity
  8
RACCORDO
100
AcDbLine
 62
7
  6
CONTINUOUS
 10
-4.4473885972
 20
19.1588388221
 11
-4.1057879439
 21
19.3974058568
  0
LINE
  5
278
100
AcDbEntity
  8
RACCORDO
100
AcDbLine
 62
7
  6
CONTINUOUS
 10
-4.7515485611
 20
20.7657299007
 11
-10.1042428467
 21
17.0926011903
  0
LWPOLYLINE
  5
279
100
AcDbEntity
  8
RACCORDO
100
AcDbPolyline
 62
7
  6
CONTINUOUS
 90
4
 70
0
 10
-4.0255278039
 20
20.4316434094
 10
-4.0420808753
 20
20.4204246472
 10
-4.0610819256
 20
20.4084676862
 10
-4.0823743847
 20
20.3959315965
  0
LWPOLYLINE
  5
27A
100
AcDbEntity
  8
RACCORDO
100
AcDbPolyline
 62
7
  6
CONTINUOUS
 90
7
 70
0
 10
-4.7515485611
 20
20.7657299007
 10
-4.7416005679
 20
20.7724135894
 10
-4.7317148729
 20
20.7787888278
 10
-4.7218914762
 20
20.7848556157
 10
-4.7121303777
 20
20.7906139533
 10
-4.7024315775
 20
20.7960638405
 10
-4.6927950755
 20
20.8012052773
  0
LWPOLYLINE
  5
27B
100
AcDbEntity
  8
0
100
AcDbPolyline
 62
7
  6
CONTINUOUS
 90
19
 70
0
 10
-5.1544953784
 20
18.2076769498
 10
-5.0892458039
 20
18.2497713361
 10
-5.0202102102
 20
18.2872288146
 10
-4.9473885972
 20
18.3200493855
 10
-4.870172221
 20
18.3484113455
 10
-4.7891698256
 20
18.3721363979
 10
-4.7062076423
 20
18.3906896517
 10
-4.6212411525
 20
18.4039536238
 10
-4.5343148748
 20
18.4120457973
 10
-4.4473885972
 20
18.414783731
 10
-4.3604623196
 20
18.4120457973
 10
-4.2735360419
 20
18.4039536238
 10
-4.1885695521
 20
18.3906896517
 10
-4.1056073688
 20
18.3721363979
 10
-4.0246049734
 20
18.3484113455
 10
-3.9473885972
 20
18.3200493855
 10
-3.8745669842
 20
18.2872288146
 10
-3.8055313904
 20
18.2497713361
 10
-3.740281816
 20
18.2076769498
  0
LWPOLYLINE
  5
27C
100
AcDbEntity
  8
RACCORDO
100
AcDbPolyline
 62
7
  6
CONTINUOUS
 90
7
 70
0
 10
-4.0823743847
 20
20.3959315965
 10
-4.1149200494
 20
20.3778986627
 10
-4.1241108223
 20
20.3725811639
 10
-4.1333602627
 20
20.3669800176
 10
-4.1426683706
 20
20.3610952238
 10
-4.1520351458
 20
20.3549267825
 10
-4.1614605885
 20
20.3484746937
  0
LWPOLYLINE
  5
27D
100
AcDbEntity
  8
ASSI
100
AcDbPolyline
 62
250
  6
CONTINUOUS
 90
22
 70
0
 10
-5.1299452853
 20
17.7455349529
 10
-5.1260832237
 20
17.7476160915
 10
-5.1220149402
 20
17.7493783685
 10
-5.117748179
 20
17.7508184292
 10
-5.1132910622
 20
17.7519335324
 10
-5.1086520741
 20
17.7527215554
 10
-5.1038400453
 20
17.7531809983
 10
-5.0988641358
 20
17.7533109863
 10
-5.0937338175
 20
17.7531112722
 10
-5.0884588563
 20
17.7525822361
 10
-5.0830492934
 20
17.751724885
 10
-5.0775154262
 20
17.750540851
 10
-5.0718677886
 20
17.7490323879
 10
-5.0661171314
 20
17.7472023672
 10
-5.0602744013
 20
17.7450542725
 10
-5.0543507201
 20
17.7425921927
 10
-5.0483573639
 20
17.7398208147
 10
-5.0423057416
 20
17.7367454139
 10
-5.0362073726
 20
17.7333718444
 10
-5.0300738655
 20
17.7297065282
 10
-5.0239168959
 20
17.7257564423
 10
-5.0177481838
 20
17.7215291059
  0
LINE
  5
27E
100
AcDbEntity
  8
RACCORDO
100
AcDbLine
 62
7
  6
CONTINUOUS
 10
-3.8989779392
 20
17.8016209738
 11
-3.9033172396
 21
17.7999416905
  0
LINE
  5
27F
100
AcDbEntity
  8
0
100
AcDbLine
 62
7
  6
CONTINUOUS
 10
-1.33611876
 20
19.912702203
 11
-2.6960507001
 21
19.446059853
  0
LWPOLYLINE
  5
280
100
AcDbEntity
  8
RACCORDO
100
AcDbPolyline
 62
250
  6
CONTINUOUS
 90
5
 70
0
 10
1.0308390904
 20
-23.4145389703
 10
1.0216521133
 20
-23.4091783331
 10
1.0075678633
 20
-23.4043048151
 10
0.9919475882
 20
-23.4023051816
 10
0.9750210965
 20
-23.4031625446
  0
LINE
  5
281
100
AcDbEntity
  8
RACCORDO
100
AcDbLine
 62
250
  6
CONTINUOUS
 10
1.0309703162
 20
-23.4146315083
 11
1.0308390904
 21
-23.4145389703
  0
LINE
  5
282
100
AcDbEntity
  8
RACCORDO
100
AcDbLine
 62
250
  6
CONTINUOUS
 10
-0.7151778284
 20
-24.1237320964
 11
-0.7349676372
 21
-24.1097385885
  0
LINE
  5
283
100
AcDbEntity
  8
RACCORDO
100
AcDbLine
 62
250
  6
CONTINUOUS
 10
0.7120166315
 20
-23.2171903039
 11
0.9750210965
 21
-23.4031625446
  0
LINE
  5
284
100
AcDbEntity
  8
RACCORDO
100
AcDbLine
 62
7
  6
CONTINUOUS
 10
0.732104244
 20
-23.203301282
 11
1.0309703162
 21
-23.4146315083
  0
LWPOLYLINE
  5
285
100
AcDbEntity
  8
RACCORDO
100
AcDbPolyline
 62
250
  6
CONTINUOUS
 90
13
 70
0
 10
-1.0841859165
 20
-25.2295395124
 10
-1.0973565804
 20
-25.2165299335
 10
-1.1132514596
 20
-25.2015833731
 10
-1.1315991693
 20
-25.1849546921
 10
-1.1520850617
 20
-25.1669287005
 10
-1.174361894
 20
-25.1478106242
 10
-1.1980571908
 20
-25.1279200597
 10
-1.2227906704
 20
-25.1075768671
 10
-1.2481222903
 20
-25.0871435934
 10
-1.2735627058
 20
-25.0670137022
 10
-1.2986623967
 20
-25.0475398414
 10
-1.3230218144
 20
-25.0290289434
 10
-1.3462388567
 20
-25.0117838907
  0
LWPOLYLINE
  5
286
100
AcDbEntity
  8
RACCORDO
100
AcDbPolyline
 62
7
  6
CONTINUOUS
 90
4
 70
0
 10
-17.9374940195
 20
-5.0265345446
 10
-17.938583623
 20
-5.0222356856
 10
-17.9439210588
 20
-4.9960486908
 10
-17.9477728354
 20
-4.9706157345
  0
LWPOLYLINE
  5
287
100
AcDbEntity
  8
RACCORDO
100
AcDbPolyline
 62
250
  6
CONTINUOUS
 90
7
 70
0
 10
-17.6702854054
 20
-5.4361091034
 10
-17.6695106844
 20
-5.45034385
 10
-17.6671950094
 20
-5.4633270168
 10
-17.6633637515
 20
-5.4749163575
 10
-17.6580588867
 20
-5.4849848969
 10
-17.6513385363
 20
-5.4934223219
 10
-17.644334103
 20
-5.4994084196
  0
LINE
  5
288
100
AcDbEntity
  8
RACCORDO
100
AcDbLine
 62
7
  6
CONTINUOUS
 10
-17.9409960835
 20
-2.4991033349
 11
-17.9409960835
 21
-4.9739770749
  0
LINE
  5
289
100
AcDbEntity
  8
RACCORDO
100
AcDbLine
 62
250
  6
CONTINUOUS
 10
-17.8824174397
 20
-2.5991033349
 11
-17.8824174397
 21
-5.073977069
  0
LINE
  5
28A
100
AcDbEntity
  8
RACCORDO
100
AcDbLine
 62
7
  6
CONTINUOUS
 10
-16.1600760252
 20
18.9792965957
 11
-16.1600760252
 21
19.2383454865
  0
LINE
  5
28B
100
AcDbEntity
  8
RACCORDO
100
AcDbLine
 62
250
  6
CONTINUOUS
 10
-16.0868527205
 20
18.8542965957
 11
-16.0868527205
 21
19.1133454865
  0
LWPOLYLINE
  5
28C
100
AcDbEntity
  8
RACCORDO
100
AcDbPolyline
 62
7
  6
CONTINUOUS
 90
8
 70
0
 10
-17.9524597463
 20
-2.9986011705
 10
-17.9528875033
 20
-3.2738896109
 10
-17.9531013818
 20
-3.549027647
 10
-17.9531013818
 20
-3.8240149465
 10
-17.9528875033
 20
-4.0988505127
 10
-17.9524597463
 20
-4.3735340133
 10
-17.9518181107
 20
-4.6480657805
 10
-17.9509625967
 20
-4.9224458144
  0
LINE
  5
28D
100
AcDbEntity
  8
RACCORDO
100
AcDbLine
 62
7
  6
CONTINUOUS
 10
-17.9509625967
 20
-2.4475720802
 11
-17.9524597463
 21
-2.9986011705
  0
LWPOLYLINE
  5
28E
100
AcDbEntity
  8
RACCORDO
100
AcDbPolyline
 62
7
  6
CONTINUOUS
 90
11
 70
0
 10
-17.9509625967
 20
-2.4475720802
 10
-17.9501232518
 20
-2.4249256594
 10
-17.9477728351
 20
-2.4034462535
 10
-17.9439210579
 20
-2.3832255893
 10
-17.9385836211
 20
-2.3643496938
 10
-17.9317834602
 20
-2.3468994495
 10
-17.9235506474
 20
-2.3309502507
 10
-17.9139200517
 20
-2.3165701227
 10
-17.9029325876
 20
-2.3038204141
 10
-17.8906363518
 20
-2.292756462
 10
-17.885311157
 20
-2.2887770663
  0
LWPOLYLINE
  5
28F
100
AcDbEntity
  8
RACCORDO
100
AcDbPolyline
 62
250
  6
CONTINUOUS
 90
8
 70
0
 10
-17.6702854054
 20
-2.5369713005
 10
-17.6695107037
 20
-2.5216411142
 10
-17.6671950773
 20
-2.5053832581
 10
-17.6633638878
 20
-2.4883758485
 10
-17.658059101
 20
-2.4708052146
 10
-17.6513388288
 20
-2.4528638599
 10
-17.6432766932
 20
-2.4347483539
 10
-17.6339610169
 20
-2.4166571715
  0
LWPOLYLINE
  5
290
100
AcDbEntity
  8
RACCORDO
100
AcDbPolyline
 62
7
  6
CONTINUOUS
 90
6
 70
0
 10
-17.91632045
 20
-2.366610303
 10
-17.9248612889
 20
-2.3902430315
 10
-17.9317270188
 20
-2.4153209588
 10
-17.9367967464
 20
-2.4418749005
 10
-17.9399269113
 20
-2.469817944
 10
-17.9409960835
 20
-2.4991033349
  0
LINE
  5
291
100
AcDbEntity
  8
RACCORDO
100
AcDbLine
 62
7
  6
CONTINUOUS
 10
-5.1949255207
 20
17.699230753
 11
-7.0081450376
 21
15.8971586069
  0
LINE
  5
292
100
AcDbEntity
  8
ASSI
100
AcDbLine
 62
7
  6
CONTINUOUS
 10
-5.1949255207
 20
17.699230753
 11
-7.0081450376
 21
15.8971586069
  0
LINE
  5
293
100
AcDbEntity
  8
0
100
AcDbLine
 62
250
  6
CONTINUOUS
 10
-5.0837847003
 20
17.6748342373
 11
-6.928863841
 21
15.8410983351
  0
LINE
  5
294
100
AcDbEntity
  8
ASSI
100
AcDbLine
 62
250
  6
CONTINUOUS
 10
-5.0837847003
 20
17.6748342373
 11
-6.928863841
 21
15.8410983351
  0
LWPOLYLINE
  5
295
100
AcDbEntity
  8
ASSI
100
AcDbPolyline
 62
7
  6
CONTINUOUS
 90
4
 70
0
 10
-5.1908541894
 20
17.7026523543
 10
-5.192425046
 20
17.7014674699
 10
-5.1945168722
 20
17.6996297089
 10
-5.1949258096
 20
17.6992304658
  0
LINE
  5
296
100
AcDbEntity
  8
0
100
AcDbLine
 62
7
  6
CONTINUOUS
 10
-4.4473885972
 20
18.7076769498
 11
-5.1544953784
 21
18.2076769498
  0
LINE
  5
297
100
AcDbEntity
  8
RACCORDO
100
AcDbLine
 62
7
  6
CONTINUOUS
 10
-5.1908543897
 20
17.7026521519
 11
-5.1332182376
 21
17.7434070659
  0
LINE
  5
298
100
AcDbEntity
  8
ASSI
100
AcDbLine
 62
7
  6
CONTINUOUS
 10
-5.1908543897
 20
17.7026521519
 11
-5.1332182376
 21
17.7434070659
  0
LINE
  5
299
100
AcDbEntity
  8
0
100
AcDbLine
 62
7
  6
CONTINUOUS
 10
-2.6960507001
 20
19.446059853
 11
-4.0938352066
 21
18.4576769498
  0
LINE
  5
29A
100
AcDbEntity
  8
RACCORDO
100
AcDbLine
 62
250
  6
CONTINUOUS
 10
-5.0837847003
 20
17.6748342373
 11
-5.0177481838
 21
17.7215291059
  0
LINE
  5
29B
100
AcDbEntity
  8
ASSI
100
AcDbLine
 62
250
  6
CONTINUOUS
 10
-5.0837847003
 20
17.6748342373
 11
-5.0177481838
 21
17.7215291059
  0
LINE
  5
29C
100
AcDbEntity
  8
RACCORDO
100
AcDbLine
 62
7
  6
CONTINUOUS
 10
-2.0370549487
 20
20.3452528405
 11
-4.0938352066
 21
18.9088388221
  0
LWPOLYLINE
  5
29D
100
AcDbEntity
  8
RACCORDO
100
AcDbPolyline
 62
250
  6
CONTINUOUS
 90
55
 70
0
 10
-5.0177481838
 20
17.7215291059
 10
-5.0019975437
 20
17.7323726185
 10
-4.9858685001
 20
17.7429013067
 10
-4.9693610529
 20
17.7531151703
 10
-4.9524618144
 20
17.7630215944
 10
-4.9351841724
 20
17.772613194
 10
-4.9175682901
 20
17.7818678143
 10
-4.8996137316
 20
17.7907843714
 10
-4.881320933
 20
17.7993639492
 10
-4.8627313657
 20
17.807587644
 10
-4.8438444353
 20
17.8154545502
 10
-4.8246607364
 20
17.8229655733
 10
-4.8052235246
 20
17.8301045265
 10
-4.7855323282
 20
17.8368704941
 10
-4.7655876189
 20
17.8432643916
 10
-4.7454340677
 20
17.8492727798
 10
-4.7250712153
 20
17.8548947555
 10
-4.704499521
 20
17.8601312218
 10
-4.6837650337
 20
17.8649714481
 10
-4.6628675227
 20
17.8694144893
 10
-4.6418072187
 20
17.8734612904
 10
-4.6206308628
 20
17.8771039561
 10
-4.5993382971
 20
17.8803415542
 10
-4.5779296796
 20
17.8831750168
 10
-4.5564522252
 20
17.885599245
 10
-4.5349059488
 20
17.8876133116
 10
-4.5132908355
 20
17.8892181439
 10
-4.4916540557
 20
17.8904114249
 10
-4.469995661
 20
17.8911922504
 10
-4.4483155997
 20
17.8915615246
 10
-4.4266608872
 20
17.891519643
 10
-4.4050317386
 20
17.8910657228
 10
-4.3834279388
 20
17.8902006469
 10
-4.3618958575
 20
17.8889274593
 10
-4.3404357346
 20
17.8872453009
 10
-4.3190473302
 20
17.8851550308
 10
-4.2977762947
 20
17.8826622704
 10
-4.2766230259
 20
17.8797661983
 10
-4.255587126
 20
17.8764676358
 10
-4.2347130509
 20
17.8727746679
 10
-4.2140012731
 20
17.8686865178
 10
-4.1934513203
 20
17.8642039623
 10
-4.1731062311
 20
17.8593374166
 10
-4.1529665456
 20
17.8540861491
 10
-4.1330317238
 20
17.8484508915
 10
-4.1133431843
 20
17.8424442542
 10
-4.0939013985
 20
17.8360655001
 10
-4.0747058949
 20
17.8293153664
 10
-4.0557966785
 20
17.8222086752
 10
-4.0371742643
 20
17.8147446658
 10
-4.0188381373
 20
17.8069240989
 10
-4.0008267564
 20
17.7987640784
 10
-3.9831529414
 20
17.7902703055
 10
-3.9658038726
 20
17.781437079
 10
-3.94877955
 20
17.7722643989
  0
LWPOLYLINE
  5
29E
100
AcDbEntity
  8
ASSI
100
AcDbPolyline
 62
250
  6
CONTINUOUS
 90
55
 70
0
 10
-5.0177481838
 20
17.7215291059
 10
-5.0019975437
 20
17.7323726185
 10
-4.9858685001
 20
17.7429013067
 10
-4.9693610529
 20
17.7531151703
 10
-4.9524618144
 20
17.7630215944
 10
-4.9351841724
 20
17.772613194
 10
-4.9175682901
 20
17.7818678143
 10
-4.8996137316
 20
17.7907843714
 10
-4.881320933
 20
17.7993639492
 10
-4.8627313657
 20
17.807587644
 10
-4.8438444353
 20
17.8154545502
 10
-4.8246607364
 20
17.8229655733
 10
-4.8052235246
 20
17.8301045265
 10
-4.7855323282
 20
17.8368704941
 10
-4.7655876189
 20
17.8432643916
 10
-4.7454340677
 20
17.8492727798
 10
-4.7250712153
 20
17.8548947555
 10
-4.704499521
 20
17.8601312218
 10
-4.6837650337
 20
17.8649714481
 10
-4.6628675227
 20
17.8694144893
 10
-4.6418072187
 20
17.8734612904
 10
-4.6206308628
 20
17.8771039561
 10
-4.5993382971
 20
17.8803415542
 10
-4.5779296796
 20
17.8831750168
 10
-4.5564522252
 20
17.885599245
 10
-4.5349059488
 20
17.8876133116
 10
-4.5132908355
 20
17.8892181439
 10
-4.4916540557
 20
17.8904114249
 10
-4.469995661
 20
17.8911922504
 10
-4.4483155997
 20
17.8915615246
 10
-4.4266608872
 20
17.891519643
 10
-4.4050317386
 20
17.8910657228
 10
-4.3834279388
 20
17.8902006469
 10
-4.3618958575
 20
17.8889274593
 10
-4.3404357346
 20
17.8872453009
 10
-4.3190473302
 20
17.8851550308
 10
-4.2977762947
 20
17.8826622704
 10
-4.2766230259
 20
17.8797661983
 10
-4.255587126
 20
17.8764676358
 10
-4.2347130509
 20
17.8727746679
 10
-4.2140012731
 20
17.8686865178
 10
-4.1934513203
 20
17.8642039623
 10
-4.1731062311
 20
17.8593374166
 10
-4.1529665456
 20
17.8540861491
 10
-4.1330317238
 20
17.8484508915
 10
-4.1133431843
 20
17.8424442542
 10
-4.0939013985
 20
17.8360655001
 10
-4.0747058949
 20
17.8293153664
 10
-4.0557966785
 20
17.8222086752
 10
-4.0371742643
 20
17.8147446658
 10
-4.0188381373
 20
17.8069240989
 10
-4.0008267564
 20
17.7987640784
 10
-3.9831529414
 20
17.7902703055
 10
-3.9658038726
 20
17.781437079
 10
-3.94877955
 20
17.7722643989
  0
LINE
  5
29F
100
AcDbEntity
  8
ASSI
100
AcDbLine
 62
7
  6
CONTINUOUS
 10
-5.0725681961
 20
17.7830072045
 11
-5.1332741885
 21
17.7433673998
  0
LWPOLYLINE
  5
2A0
100
AcDbEntity
  8
RACCORDO
100
AcDbPolyline
 62
250
  6
CONTINUOUS
 90
23
 70
0
 10
-5.1332182376
 20
17.7434070659
 10
-5.1299452853
 20
17.7455349529
 10
-5.1260832237
 20
17.7476160915
 10
-5.1220149402
 20
17.7493783685
 10
-5.117748179
 20
17.7508184292
 10
-5.1132910622
 20
17.7519335324
 10
-5.1086520741
 20
17.7527215554
 10
-5.1038400453
 20
17.7531809983
 10
-5.0988641358
 20
17.7533109863
 10
-5.0937338175
 20
17.7531112722
 10
-5.0884588563
 20
17.7525822361
 10
-5.0830492934
 20
17.751724885
 10
-5.0775154262
 20
17.750540851
 10
-5.0718677886
 20
17.7490323879
 10
-5.0661171314
 20
17.7472023672
 10
-5.0602744013
 20
17.7450542725
 10
-5.0543507201
 20
17.7425921927
 10
-5.0483573639
 20
17.7398208147
 10
-5.0423057416
 20
17.7367454139
 10
-5.0362073726
 20
17.7333718444
 10
-5.0300738655
 20
17.7297065282
 10
-5.0239168959
 20
17.7257564423
 10
-5.0177481838
 20
17.7215291059
  0
LWPOLYLINE
  5
2A1
100
AcDbEntity
  8
RACCORDO
100
AcDbPolyline
 62
7
  6
CONTINUOUS
 90
5
 70
0
 10
-5.0559365706
 20
17.792812539
 10
-5.0775144793
 20
17.7800086775
 10
-5.0986493925
 20
17.7667514619
 10
-5.1193287723
 20
17.7530463318
 10
-5.133218712
 20
17.7434066852
  0
LWPOLYLINE
  5
2A2
100
AcDbEntity
  8
RACCORDO
100
AcDbPolyline
 62
7
  6
CONTINUOUS
 90
11
 70
0
 10
-3.9033172396
 20
17.7999416905
 10
-3.9077108882
 20
17.7980563289
 10
-3.9121531759
 20
17.7959669747
 10
-3.9166383796
 20
17.7936759865
 10
-3.9211615919
 20
17.791186568
 10
-3.9257169389
 20
17.788501527
 10
-3.9302985518
 20
17.7856239321
 10
-3.93490147
 20
17.7825577261
 10
-3.9395200628
 20
17.7793066371
 10
-3.9441480361
 20
17.7758741776
 10
-3.9487794051
 20
17.7722642964
  0
LINE
  5
2A3
100
AcDbEntity
  8
RACCORDO
100
AcDbLine
 62
250
  6
CONTINUOUS
 10
0.9974293153
 20
-23.4212474603
 11
0.9750210965
 21
-23.4031625446
  0
LWPOLYLINE
  5
2A4
100
AcDbEntity
  8
RACCORDO
100
AcDbPolyline
 62
250
  6
CONTINUOUS
 90
13
 70
0
 10
-0.5445988845
 20
-24.5548989438
 10
-0.5577385398
 20
-24.5419191912
 10
-0.5735944304
 20
-24.5270073535
 10
-0.5918982687
 20
-24.5104157465
 10
-0.6123403502
 20
-24.4924251054
 10
-0.6345747765
 20
-24.4733398496
 10
-0.6582253025
 20
-24.4534829356
 10
-0.6828917323
 20
-24.4331903668
 10
-0.7081566912
 20
-24.4128055088
 10
-0.7335926671
 20
-24.3926732969
 10
-0.7587692564
 20
-24.3731343895
 10
-0.7832604474
 20
-24.3545194032
 10
-0.8066518247
 20
-24.3371433222
  0
LWPOLYLINE
  5
2A5
100
AcDbEntity
  8
RACCORDO
100
AcDbPolyline
 62
250
  6
CONTINUOUS
 90
7
 70
0
 10
-16.1600754189
 20
19.237956179
 10
-16.1575315294
 20
19.2131882467
 10
-16.1508045115
 20
19.1906495962
 10
-16.1400737073
 20
19.1690596069
 10
-16.1256328187
 20
19.1488042424
 10
-16.1077733525
 20
19.1301425134
 10
-16.0868527205
 20
19.1133454865
  0
LWPOLYLINE
  5
2A6
100
AcDbEntity
  8
RACCORDO
100
AcDbPolyline
 62
250
  6
CONTINUOUS
 90
7
 70
0
 10
-16.1600760252
 20
18.9792965957
 10
-16.1577277768
 20
18.9551241948
 10
-16.1512293369
 20
18.9326860805
 10
-16.1406831093
 20
18.911031038
 10
-16.1262666209
 20
18.8905226515
 10
-16.1082221044
 20
18.8715048259
 10
-16.0868527205
 20
18.8542965957
  0
LWPOLYLINE
  5
2A7
100
AcDbEntity
  8
RACCORDO
100
AcDbPolyline
 62
250
  6
CONTINUOUS
 90
7
 70
0
 10
-16.0868527205
 20
18.8542965957
 10
-16.0856456065
 20
18.8345268149
 10
-16.082040743
 20
18.8167341216
 10
-16.0760873515
 20
18.8011615194
 10
-16.0678514519
 20
18.7880022593
 10
-16.0574537282
 20
18.7774640632
 10
-16.0544135925
 20
18.7751724505
  0
LWPOLYLINE
  5
2A8
100
AcDbEntity
  8
RACCORDO
100
AcDbPolyline
 62
250
  6
CONTINUOUS
 90
7
 70
0
 10
-14.7989453688
 20
17.9436085738
 10
-14.797750068
 20
17.9239312574
 10
-14.7941803301
 20
17.9062104535
 10
-14.7882844296
 20
17.8906858056
 10
-14.7801420985
 20
17.8775672579
 10
-14.7698634478
 20
17.8670322162
 10
-14.7665062408
 20
17.8644844286
  0
LINE
  5
2A9
100
AcDbEntity
  8
RACCORDO
100
AcDbLine
 62
250
  6
CONTINUOUS
 10
-14.7989453688
 20
18.2026574646
 11
-14.7989453688
 21
17.9436085738
  0
LINE
  5
2AA
100
AcDbEntity
  8
RACCORDO
100
AcDbLine
 62
250
  6
CONTINUOUS
 10
-14.4485040809
 20
18.2004949519
 11
-14.4485040809
 21
17.9414460611
  0
LINE
  5
2AB
100
AcDbEntity
  8
RACCORDO
100
AcDbLine
 62
250
  6
CONTINUOUS
 10
-14.0794959928
 20
17.8225086057
 11
-14.0794959928
 21
17.395066261
  0
LINE
  5
2AC
100
AcDbEntity
  8
RACCORDO
100
AcDbLine
 62
250
  6
CONTINUOUS
 10
-13.7290547049
 20
17.820346093
 11
-13.7290547049
 21
17.395935545
  0
LINE
  5
2AD
100
AcDbEntity
  8
RACCORDO
100
AcDbLine
 62
250
  6
CONTINUOUS
 10
-12.2297104743
 20
19.5297752042
 11
-12.2276854156
 21
19.55222992
  0
LWPOLYLINE
  5
2AE
100
AcDbEntity
  8
RACCORDO
100
AcDbPolyline
 62
250
  6
CONTINUOUS
 90
5
 70
0
 10
-17.6339610169
 20
-2.4166571715
 10
-17.6234938589
 20
-2.3987885251
 10
-17.6119898982
 20
-2.3813381951
 10
-17.5995751709
 20
-2.3644973733
 10
-17.5870941548
 20
-2.3493125161
  0
LWPOLYLINE
  5
2AF
100
AcDbEntity
  8
RACCORDO
100
AcDbPolyline
 62
7
  6
CONTINUOUS
 90
7
 70
0
 10
0.7882868798
 20
16.8484746937
 10
0.7977123225
 20
16.8549267825
 10
0.8070790978
 20
16.8610952238
 10
0.8163872056
 20
16.8669800176
 10
0.825636646
 20
16.8725811639
 10
0.8348274189
 20
16.8778986627
 10
0.8439595244
 20
16.882932514
  0
LWPOLYLINE
  5
2B0
100
AcDbEntity
  8
RACCORDO
100
AcDbPolyline
 62
7
  6
CONTINUOUS
 90
7
 70
0
 10
1.4591641156
 20
16.4802877514
 10
1.426641979
 20
16.4621543676
 10
1.4171109952
 20
16.4565858173
 10
1.4075187906
 20
16.450708054
 10
1.3978653653
 20
16.4445210778
 10
1.3881507193
 20
16.4380248888
 10
1.3783748525
 20
16.4312194868
  0
LWPOLYLINE
  5
2B1
100
AcDbEntity
  8
RACCORDO
100
AcDbPolyline
 62
7
  6
CONTINUOUS
 90
12
 70
0
 10
0.8439595244
 20
16.8829379065
 10
0.8696071158
 20
16.8945578141
 10
0.8971765324
 20
16.9027984269
 10
0.9264824529
 20
16.9075466126
 10
0.9573150171
 20
16.9086667108
 10
0.9894730216
 20
16.906103097
 10
1.0227693452
 20
16.8998743386
 10
1.0569470692
 20
16.8898835447
 10
1.0917942812
 20
16.8761026843
 10
1.1271856837
 20
16.8586465394
 10
1.1628257924
 20
16.8374688375
 10
1.1841523203
 20
16.8230048967
  0
LWPOLYLINE
  5
2B2
100
AcDbEntity
  8
RACCORDO
100
AcDbPolyline
 62
250
  6
CONTINUOUS
 90
9
 70
0
 10
-9.679978778
 20
-10.873977069
 10
-9.6644214999
 20
-10.8838821049
 10
-9.6474852287
 20
-10.8925829982
 10
-9.6293555217
 20
-10.8999844201
 10
-9.6102310116
 20
-10.9060052791
 10
-9.5903212308
 20
-10.9105796094
 10
-9.5698443147
 20
-10.9136572937
 10
-9.549024613
 20
-10.9152046122
 10
-9.5280902305
 20
-10.9152046122
  0
LWPOLYLINE
  5
2B3
100
AcDbEntity
  8
RACCORDO
100
AcDbPolyline
 62
7
  6
CONTINUOUS
 90
14
 70
0
 10
-9.8661595038
 20
-10.9994084239
 10
-9.8351580165
 20
-11.0198534423
 10
-9.8043552235
 20
-11.0373080168
 10
-9.7738015276
 20
-11.0518703026
 10
-9.7434143193
 20
-11.0636661288
 10
-9.7133255581
 20
-11.0727090671
 10
-9.6839610485
 20
-11.078984323
 10
-9.6556131452
 20
-11.0826112001
 10
-9.6281527776
 20
-11.0837846753
 10
-9.6014845686
 20
-11.0826340694
 10
-9.5758047277
 20
-11.0792809438
 10
-9.5511641663
 20
-11.0738514712
 10
-9.527343376
 20
-11.066365715
 10
-9.5056142523
 20
-11.0573568488
  0
LWPOLYLINE
  5
2B4
100
AcDbEntity
  8
RACCORDO
100
AcDbPolyline
 62
250
  6
CONTINUOUS
 90
22
 70
0
 10
-9.8921108123
 20
-10.9361091034
 10
-9.8761772622
 20
-10.9467681475
 10
-9.860485733
 20
-10.9561008286
 10
-9.8450362248
 20
-10.9641071466
 10
-9.8297391242
 20
-10.9708219193
 10
-9.8146840446
 20
-10.9762103291
 10
-9.8001398261
 20
-10.9801679221
 10
-9.7861189287
 20
-10.9826659236
 10
-9.7726088924
 20
-10.9837331084
 10
-9.7598411778
 20
-10.9833513472
 10
-9.7478319888
 20
-10.9814964526
 10
-9.7365651214
 20
-10.978192612
 10
-9.7262234247
 20
-10.9734942575
 10
-9.7168200084
 20
-10.9673768408
 10
-9.7083417629
 20
-10.9598649103
 10
-9.7009322079
 20
-10.9510865432
 10
-9.6946105035
 20
-10.9410140715
 10
-9.6893574897
 20
-10.9296751634
 10
-9.6852592063
 20
-10.9172809009
 10
-9.6823443332
 20
-10.9039016447
 10
-9.6805841904
 20
-10.889467034
 10
-9.679978778
 20
-10.873977069
  0
LINE
  5
2B5
100
AcDbEntity
  8
RACCORDO
100
AcDbLine
 62
7
  6
CONTINUOUS
 10
-17.644334103
 20
-5.4994084196
 11
-9.8661595043
 21
-10.9994084236
  0
LINE
  5
2B6
100
AcDbEntity
  8
RACCORDO
100
AcDbLine
 62
250
  6
CONTINUOUS
 10
-17.6702854054
 20
-5.4361091034
 11
-9.8921108123
 21
-10.9361091034
  0
LWPOLYLINE
  5
2B7
100
AcDbEntity
  8
RACCORDO
100
AcDbPolyline
 62
250
  6
CONTINUOUS
 90
8
 70
0
 10
-17.8824174397
 20
-5.073977069
 10
-17.896425124
 20
-5.0629765463
 10
-17.9087299556
 20
-5.0510009257
 10
-17.919197113
 20
-5.038181407
 10
-17.9277119075
 20
-5.0246584364
 10
-17.9341810384
 20
-5.0105801697
 10
-17.9385336169
 20
-4.9961008501
 10
-17.9407219448
 20
-4.9813791129
  0
LWPOLYLINE
  5
2B8
100
AcDbEntity
  8
RACCORDO
100
AcDbPolyline
 62
250
  6
CONTINUOUS
 90
13
 70
0
 10
-14.4485040809
 20
18.2004949519
 10
-14.4504123908
 20
18.2244690331
 10
-14.455283784
 20
18.250229374
 10
-14.4630365665
 20
18.2773328316
 10
-14.4735401854
 20
18.3053148822
 10
-14.4866148087
 20
18.3336904527
 10
-14.5020322387
 20
18.3619621149
 10
-14.5195648064
 20
18.3896983939
 10
-14.5388783232
 20
18.4163582731
 10
-14.5594980017
 20
18.4413207274
 10
-14.5809975544
 20
18.4641440806
 10
-14.6030415578
 20
18.4845424698
 10
-14.6252538522
 20
18.5022256851
  0
LWPOLYLINE
  5
2B9
100
AcDbEntity
  8
RACCORDO
100
AcDbPolyline
 62
7
  6
CONTINUOUS
 90
13
 70
0
 10
-12.8266039542
 20
19.3358261658
 10
-12.8282056805
 20
19.3599006496
 10
-12.8327967486
 20
19.3857065711
 10
-12.8402951046
 20
19.4128058209
 10
-12.8505686482
 20
19.4407390204
 10
-12.8634411013
 20
19.469028552
 10
-12.8786944934
 20
19.4971866635
 10
-12.8960702404
 20
19.5247299766
 10
-12.9152687155
 20
19.5511889441
 10
-12.9359572549
 20
19.5761113264
 10
-12.9577821656
 20
19.5990700241
 10
-12.9803751018
 20
19.6196701008
 10
-13.0033537256
 20
19.637556899
  0
LINE
  5
2BA
100
AcDbEntity
  8
RACCORDO
100
AcDbLine
 62
250
  6
CONTINUOUS
 10
-14.0807347997
 20
17.8421976231
 11
-14.0794959928
 21
17.8225086057
  0
LWPOLYLINE
  5
2BB
100
AcDbEntity
  8
RACCORDO
100
AcDbPolyline
 62
250
  6
CONTINUOUS
 90
13
 70
0
 10
-12.2993728033
 20
19.7105373017
 10
-12.3007100967
 20
19.7349146044
 10
-12.3051015068
 20
19.7610168219
 10
-12.3124740687
 20
19.7883948863
 10
-12.322704354
 20
19.8165798213
 10
-12.3356175525
 20
19.8450823552
 10
-12.3509878086
 20
19.8734012419
 10
-12.3685892989
 20
19.901105074
 10
-12.3880859075
 20
19.9276513886
 10
-12.4089929014
 20
19.9524175954
 10
-12.4308735911
 20
19.9749670236
 10
-12.4533855051
 20
19.9950225127
 10
-12.4761427675
 20
20.0123025062
  0
LWPOLYLINE
  5
2BC
100
AcDbEntity
  8
RACCORDO
100
AcDbPolyline
 62
250
  6
CONTINUOUS
 90
13
 70
0
 10
-13.7290547049
 20
17.820346093
 10
-13.7305520368
 20
17.8506862815
 10
-13.7346674413
 20
17.878485683
 10
-13.7414009184
 20
17.9037442977
 10
-13.7508447793
 20
17.9265947626
 10
-13.7629067129
 20
17.9469044405
 10
-13.7773097852
 20
17.9642754202
 10
-13.7940883969
 20
17.978659458
 10
-13.8132081474
 20
17.9901047976
 10
-13.8342889014
 20
17.998358259
 10
-13.857203947
 20
18.0033354488
 10
-13.8820799962
 20
18.0051207605
 10
-13.9089170489
 20
18.0037141939
  0
LINE
  5
2BD
100
AcDbEntity
  8
RACCORDO
100
AcDbLine
 62
250
  6
CONTINUOUS
 10
-13.009605329
 20
17.8995506073
 11
-13.009605329
 21
18.3098373317
  0
LINE
  5
2BE
100
AcDbEntity
  8
RACCORDO
100
AcDbLine
 62
7
  6
CONTINUOUS
 10
-12.9332699216
 20
18.0289488552
 11
-12.9332699216
 21
18.4052787704
  0
LINE
  5
2BF
100
AcDbEntity
  8
RACCORDO
100
AcDbLine
 62
7
  6
CONTINUOUS
 10
-12.8266039542
 20
19.3358059729
 11
-12.8266039542
 21
18.5386422217
  0
LINE
  5
2C0
100
AcDbEntity
  8
RACCORDO
100
AcDbLine
 62
250
  6
CONTINUOUS
 10
-12.2993728033
 20
19.4283254965
 11
-12.2993728033
 21
19.7105373017
  0
LINE
  5
2C1
100
AcDbEntity
  8
RACCORDO
100
AcDbLine
 62
7
  6
CONTINUOUS
 10
-12.2276854156
 20
19.55222992
 11
-12.2276854156
 21
19.8344417251
  0
LINE
  5
2C2
100
AcDbEntity
  8
RACCORDO
100
AcDbLine
 62
250
  6
CONTINUOUS
 10
-12.2276854702
 20
19.8343249008
 11
-12.2276854156
 21
19.8344417251
  0
LWPOLYLINE
  5
2C3
100
AcDbEntity
  8
RACCORDO
100
AcDbPolyline
 62
7
  6
CONTINUOUS
 90
6
 70
0
 10
-17.8553891247
 20
-2.2733527196
 10
-17.867383226
 20
-2.2861747052
 10
-17.8816544991
 20
-2.304171482
 10
-17.8945838015
 20
-2.3235143399
 10
-17.9061792228
 20
-2.344333762
 10
-17.91632045
 20
-2.366610303
  0
LINE
  5
2C4
100
AcDbEntity
  8
RACCORDO
100
AcDbLine
 62
7
  6
CONTINUOUS
 10
1.3783748525
 20
16.4312194868
 11
-3.8817031722
 21
12.6926011903
  0
LINE
  5
2C5
100
AcDbEntity
  8
RACCORDO
100
AcDbLine
 62
7
  6
CONTINUOUS
 10
1.436111742
 20
15.4823066832
 11
-3.8817031722
 21
11.7026516966
  0
LINE
  5
2C6
100
AcDbEntity
  8
RACCORDO
100
AcDbLine
 62
7
  6
CONTINUOUS
 10
-3.8817031722
 20
12.6926011903
 11
-4.2477059217
 21
12.4363990117
  0
LINE
  5
2C7
100
AcDbEntity
  8
RACCORDO
100
AcDbLine
 62
7
  6
CONTINUOUS
 10
-3.8817031722
 20
11.7026516966
 11
-4.2477059217
 21
11.4464495181
  0
LINE
  5
2C8
100
AcDbEntity
  8
RACCORDO
100
AcDbLine
 62
7
  6
CONTINUOUS
 10
0.7882868798
 20
16.8484746937
 11
-3.8109924941
 21
13.6364303629
  0
LINE
  5
2C9
100
AcDbEntity
  8
RACCORDO
100
AcDbLine
 62
7
  6
CONTINUOUS
 10
2.2055857384
 20
17.3452528405
 11
1.3201340683
 21
16.7268711798
  0
LWPOLYLINE
  5
2CA
100
AcDbEntity
  8
RACCORDO
100
AcDbPolyline
 62
7
  6
CONTINUOUS
 90
16
 70
0
 10
2.2055857384
 20
17.3452528405
 10
2.2518808187
 20
17.3760346183
 10
2.2975710235
 20
17.4034646385
 10
2.3426563527
 20
17.4275429012
 10
2.3873220831
 20
17.448342776
 10
2.431382938
 20
17.4657908932
 10
2.4742830871
 20
17.4796671439
 10
2.5160078262
 20
17.4899262784
 10
2.5565718595
 20
17.4966135464
 10
2.5954634694
 20
17.4996445875
 10
2.632661469
 20
17.4989730835
 10
2.6681870453
 20
17.4946453526
 10
2.701592041
 20
17.4867159895
 10
2.7328495918
 20
17.4751393675
 10
2.761986562
 20
17.4599611132
 10
2.7767198446
 20
17.4503385125
  0
LWPOLYLINE
  5
2CB
100
AcDbEntity
  8
RACCORDO
100
AcDbPolyline
 62
7
  6
CONTINUOUS
 90
3
 70
0
 10
1.4987833158
 20
16.5045203516
 10
1.4801104213
 20
16.4926950822
 10
1.4591641156
 20
16.4802877514
  0
LINE
  5
2CC
100
AcDbEntity
  8
0
100
AcDbLine
 62
250
  6
CONTINUOUS
 10
11.5386048731
 20
-8.7920483132
 11
11.485678516
 21
-8.8065587952
  0
LINE
  5
2CD
100
AcDbEntity
  8
0
100
AcDbLine
 62
250
  6
CONTINUOUS
 10
11.5650680476
 20
-8.6756964097
 11
11.6179944006
 21
-8.661185688
  0
LINE
  5
2CE
100
AcDbEntity
  8
0
100
AcDbLine
 62
250
  6
CONTINUOUS
 10
10.8770254542
 20
-8.8400910127
 11
10.7182464075
 21
-8.883622926
  0
LWPOLYLINE
  5
2CF
100
AcDbEntity
  8
RACCORDO
100
AcDbPolyline
 62
250
  6
CONTINUOUS
 90
9
 70
0
 10
-9.679978778
 20
-8.3991033349
 10
-9.6644216874
 20
-8.4090082619
 10
-9.6474856006
 20
-8.4177090906
 10
-9.629356062
 20
-8.4251104875
 10
-9.6102316923
 20
-8.4311313556
 10
-9.5903220157
 20
-8.4357057213
 10
-9.569845165
 20
-8.4387834587
 10
-9.5490254843
 20
-8.4403308399
 10
-9.5280910782
 20
-8.4403309037
  0
LWPOLYLINE
  5
2D0
100
AcDbEntity
  8
RACCORDO
100
AcDbPolyline
 62
250
  6
CONTINUOUS
 90
22
 70
0
 10
-17.6702854054
 20
-2.5369713005
 10
-17.6862189555
 20
-2.5263122564
 10
-17.7019104847
 20
-2.5169795754
 10
-17.7173599929
 20
-2.5089732574
 10
-17.7326570935
 20
-2.5022584846
 10
-17.7477121731
 20
-2.4968700749
 10
-17.7622563916
 20
-2.4929124819
 10
-17.776277289
 20
-2.4904144803
 10
-17.7897873253
 20
-2.4893472955
 10
-17.8025550399
 20
-2.4897290568
 10
-17.8145642289
 20
-2.4915839513
 10
-17.8258310963
 20
-2.4948877919
 10
-17.836172793
 20
-2.4995861464
 10
-17.8455762093
 20
-2.5057035631
 10
-17.8540544548
 20
-2.5132154937
 10
-17.8614640098
 20
-2.5219938607
 10
-17.8677857142
 20
-2.5320663324
 10
-17.873038728
 20
-2.5434052405
 10
-17.8771370114
 20
-2.5557995031
 10
-17.8800518845
 20
-2.5691787593
 10
-17.8818120273
 20
-2.5836133699
 10
-17.8824174397
 20
-2.5991033349
  0
LINE
  5
2D1
100
AcDbEntity
  8
DRAFT
100
AcDbLine
 62
7
  6
CONTINUOUS
 10
0.5116151122
 20
-15.7890268988
 11
1.598374382
 21
-16.557481748
  0
LINE
  5
2D2
100
AcDbEntity
  8
RACCORDO
100
AcDbLine
 62
250
  6
CONTINUOUS
 10
-9.8921108123
 20
-8.0369713005
 11
-17.6702854054
 21
-2.5369713005
  0
LINE
  5
2D3
100
AcDbEntity
  8
RACCORDO
100
AcDbLine
 62
7
  6
CONTINUOUS
 10
-17.5959949811
 20
-2.3430186815
 11
-9.817820388
 21
-7.8430186815
  0
LWPOLYLINE
  5
2D4
100
AcDbEntity
  8
RACCORDO
100
AcDbPolyline
 62
7
  6
CONTINUOUS
 90
25
 70
0
 10
-9.817820388
 20
-7.8430186815
 10
-9.7947004
 20
-7.860129071
 10
-9.7716859994
 20
-7.8786848216
 10
-9.7488757817
 20
-7.8986065041
 10
-9.7263677021
 20
-7.9198090095
 10
-9.7042580388
 20
-7.9422014661
 10
-9.6826409792
 20
-7.9656876269
 10
-9.6616093625
 20
-7.9901671081
 10
-9.6412533114
 20
-8.0155351296
 10
-9.6216592267
 20
-8.0416825149
 10
-9.6029113246
 20
-8.0684975158
 10
-9.5850900479
 20
-8.0958654207
 10
-9.5682707499
 20
-8.1236683549
 10
-9.5525257867
 20
-8.1517874944
 10
-9.5379228307
 20
-8.1801026109
 10
-9.5245233533
 20
-8.208491716
 10
-9.5123850682
 20
-8.2368334818
 10
-9.5015602815
 20
-8.2650067782
 10
-9.4920942922
 20
-8.2928902282
 10
-9.4840279593
 20
-8.3203646604
 10
-9.4773962075
 20
-8.3473126981
 10
-9.4722264782
 20
-8.3736182793
 10
-9.46854083
 20
-8.3991687061
 10
-9.4663558409
 20
-8.4238551266
 10
-9.4656812225
 20
-8.4475720802
  0
LWPOLYLINE
  5
2D5
100
AcDbEntity
  8
RACCORDO
100
AcDbPolyline
 62
250
  6
CONTINUOUS
 90
9
 70
0
 10
-17.8824174397
 20
-2.5991033349
 10
-17.8964252758
 20
-2.5881026781
 10
-17.9087301971
 20
-2.5761269259
 10
-17.9191973883
 20
-2.5633072871
 10
-17.9277121688
 20
-2.5497842163
 10
-17.9341812488
 20
-2.5357058753
 10
-17.9385337516
 20
-2.5212265091
 10
-17.9407219904
 20
-2.5065047568
 10
-17.9409960835
 20
-2.4991033349
  0
LWPOLYLINE
  5
2D6
100
AcDbEntity
  8
RACCORDO
100
AcDbPolyline
 62
250
  6
CONTINUOUS
 90
7
 70
0
 10
-9.8921108123
 20
-10.9361091034
 10
-9.8913361077
 20
-10.950343694
 10
-9.8890204788
 20
-10.9633267581
 10
-9.8851892872
 20
-10.974916046
 10
-9.8798844988
 20
-10.9849845774
 10
-9.8731642253
 20
-10.9934220311
 10
-9.8661595043
 20
-10.9994084236
  0
LWPOLYLINE
  5
2D7
100
AcDbEntity
  8
RACCORDO
100
AcDbPolyline
 62
250
  6
CONTINUOUS
 90
22
 70
0
 10
-9.679978778
 20
-8.3991033349
 10
-9.6805864552
 20
-8.3827400921
 10
-9.6823493608
 20
-8.3658020004
 10
-9.6852674948
 20
-8.3482890598
 10
-9.6893694056
 20
-8.3300914703
 10
-9.6946265448
 20
-8.3113190319
 10
-9.7009532673
 20
-8.2923011451
 10
-9.7083695374
 20
-8.2730361528
 10
-9.7168553909
 20
-8.253525712
 10
-9.7262652897
 20
-8.2341041941
 10
-9.7366119633
 20
-8.214778802
 10
-9.7478826822
 20
-8.1955423328
 10
-9.7598937206
 20
-8.1767075494
 10
-9.7726603567
 20
-8.1582767582
 10
-9.7861673121
 20
-8.1402476528
 10
-9.8001850257
 20
-8.1229260775
 10
-9.8147276175
 20
-8.1063212079
 10
-9.8297809673
 20
-8.0904238684
 10
-9.8450731538
 20
-8.0755123762
 10
-9.8605135366
 20
-8.0616795037
 10
-9.8761927561
 20
-8.0488324784
 10
-9.8921108123
 20
-8.0369713005
  0
LINE
  5
2D8
100
AcDbEntity
  8
RACCORDO
100
AcDbLine
 62
7
  6
CONTINUOUS
 10
-10.5980176932
 20
16.5776642784
 11
-10.5980176932
 21
15.5877147848
  0
LINE
  5
2D9
100
AcDbEntity
  8
RACCORDO
100
AcDbLine
 62
250
  6
CONTINUOUS
 10
-10.4515710838
 20
16.3258567473
 11
-10.4515710838
 21
15.3359072536
  0
LINE
  5
2DA
100
AcDbEntity
  8
RACCORDO
100
AcDbLine
 62
250
  6
CONTINUOUS
 10
-9.679978778
 20
-10.873977069
 11
-9.679978778
 21
-8.3991033349
  0
LWPOLYLINE
  5
2DB
100
AcDbEntity
  8
RACCORDO
100
AcDbPolyline
 62
7
  6
CONTINUOUS
 90
10
 70
0
 10
-9.4656812225
 20
-8.4475720802
 10
-9.4665367365
 20
-8.7231619936
 10
-9.467178372
 20
-8.9986011705
 10
-9.4676061291
 20
-9.2738896109
 10
-9.4678200076
 20
-9.549027647
 10
-9.4678200076
 20
-9.8240149465
 10
-9.4676061291
 20
-10.0988505127
 10
-9.467178372
 20
-10.3735340133
 10
-9.4665367365
 20
-10.6480657805
 10
-9.4656812225
 20
-10.9224458144
  0
LWPOLYLINE
  5
2DC
100
AcDbEntity
  8
RACCORDO
100
AcDbPolyline
 62
7
  6
CONTINUOUS
 90
3
 70
0
 10
-9.4656812225
 20
-10.9224458144
 10
-9.466355841
 20
-10.9449757561
 10
-9.4685408303
 20
-10.966338187
  0
LWPOLYLINE
  5
2DD
100
AcDbEntity
  8
RACCORDO
100
AcDbPolyline
 62
250
  6
CONTINUOUS
 90
8
 70
0
 10
-9.8921108123
 20
-8.0369713005
 10
-9.8913360913
 20
-8.021640933
 10
-9.8890204164
 20
-8.0053829073
 10
-9.8851891585
 20
-7.9883753497
 10
-9.8798842937
 20
-7.9708045986
 10
-9.8731639432
 20
-7.9528631628
 10
-9.8651017367
 20
-7.9347476124
 10
-9.8557860052
 20
-7.9166564252
  0
LWPOLYLINE
  5
2DE
100
AcDbEntity
  8
RACCORDO
100
AcDbPolyline
 62
250
  6
CONTINUOUS
 90
13
 70
0
 10
-2.5488430395
 20
9.962913707
 10
-2.5717247792
 20
9.9448432432
 10
-2.5941743386
 20
9.924127056
 10
-2.6158123244
 20
9.9011128338
 10
-2.636274213
 20
9.8761853844
 10
-2.6552113002
 20
9.8497664431
 10
-2.6722980265
 20
9.8223086964
 10
-2.6872744677
 20
9.7942170313
 10
-2.6998481913
 20
9.7660253246
 10
-2.7097492171
 20
9.7383924122
 10
-2.7168514784
 20
9.7118272051
 10
-2.7211175804
 20
9.6866850472
 10
-2.722534556
 20
9.6633454865
  0
LINE
  5
2DF
100
AcDbEntity
  8
RACCORDO
100
AcDbLine
 62
7
  6
CONTINUOUS
 10
-2.6957573057
 20
9.9883459027
 11
-1.1286196285
 21
11.1636923654
  0
LINE
  5
2E0
100
AcDbEntity
  8
RACCORDO
100
AcDbLine
 62
250
  6
CONTINUOUS
 10
-2.5488430395
 20
9.962913707
 11
-0.9825922933
 21
11.1375949752
  0
LINE
  5
2E1
100
AcDbEntity
  8
RACCORDO
100
AcDbLine
 62
7
  6
CONTINUOUS
 10
-0.204600179
 20
11.4622461461
 11
5.0994907934
 21
15.298952952
  0
LINE
  5
2E2
100
AcDbEntity
  8
RACCORDO
100
AcDbLine
 62
7
  6
CONTINUOUS
 10
-1.1286212646
 20
11.1636911383
 11
-1.1264922366
 21
11.1652189919
  0
LINE
  5
2E3
100
AcDbEntity
  8
RACCORDO
100
AcDbLine
 62
7
  6
CONTINUOUS
 10
-1.1264908064
 20
11.1652200646
 11
-0.5890534913
 21
11.5340205839
  0
LINE
  5
2E4
100
AcDbEntity
  8
RACCORDO
100
AcDbLine
 62
250
  6
CONTINUOUS
 10
-0.9825721005
 20
11.1375806967
 11
-0.4460577835
 21
11.5057478358
  0
LWPOLYLINE
  5
2E5
100
AcDbEntity
  8
RACCORDO
100
AcDbPolyline
 62
250
  6
CONTINUOUS
 90
9
 70
0
 10
-2.6957355959
 20
9.9883621776
 10
-2.6907859541
 20
9.9917092919
 10
-2.6755435821
 20
9.9984473166
 10
-2.6580877921
 20
10.0015363768
 10
-2.6386909568
 20
10.0009410766
 10
-2.6176938898
 20
9.9966733959
 10
-2.5954623383
 20
9.988810781
 10
-2.5723791426
 20
9.9774915635
 10
-2.5488430395
 20
9.962913707
  0
LWPOLYLINE
  5
2E6
100
AcDbEntity
  8
RACCORDO
100
AcDbPolyline
 62
7
  6
CONTINUOUS
 90
9
 70
0
 10
-1.1264922366
 20
11.1652189919
 10
-1.12312728
 20
11.1673730357
 10
-1.1078903644
 20
11.1739712439
 10
-1.0904981409
 20
11.1769298892
 10
-1.0712458654
 20
11.1762000703
 10
-1.0504615674
 20
11.171796728
 10
-1.0285024298
 20
11.1637954282
 10
-1.0057482717
 20
11.152330267
 10
-0.9825922933
 20
11.1375949752
  0
LWPOLYLINE
  5
2E7
100
AcDbEntity
  8
RACCORDO
100
AcDbPolyline
 62
250
  6
CONTINUOUS
 90
9
 70
0
 10
-0.5890311555
 20
11.5340359041
 10
-0.5853407827
 20
11.5363819705
 10
-0.5699349682
 20
11.5429388889
 10
-0.5523735418
 20
11.5457787842
 10
-0.5329920838
 20
11.5448341543
 10
-0.5122718249
 20
11.5401654483
 10
-0.490644176
 20
11.5319498352
 10
-0.4684463526
 20
11.5203907658
 10
-0.4460577835
 20
11.5057478358
  0
LINE
  5
2E8
100
AcDbEntity
  8
0
100
AcDbLine
 62
250
  6
CONTINUOUS
 10
11.3533626272
 20
-7.9821855205
 11
11.5121416904
 21
-7.9386535951
  0
LINE
  5
2E9
100
AcDbEntity
  8
0
100
AcDbLine
 62
250
  6
CONTINUOUS
 10
10.8770254542
 20
-8.0400500934
 11
10.7182464075
 21
-8.0835820067
  0
LINE
  5
2EA
100
AcDbEntity
  8
0
100
AcDbLine
 62
250
  6
CONTINUOUS
 10
13.6225799845
 20
-7.2660981609
 11
13.5696536273
 21
-7.2806086428
  0
LINE
  5
2EB
100
AcDbEntity
  8
0
100
AcDbLine
 62
250
  6
CONTINUOUS
 10
13.6490431589
 20
-7.1497462573
 11
13.701969512
 21
-7.1352355356
  0
LINE
  5
2EC
100
AcDbEntity
  8
0
100
AcDbLine
 62
250
  6
CONTINUOUS
 10
12.9610005655
 20
-7.3141408603
 11
12.8022215189
 21
-7.3576727736
  0
LINE
  5
2ED
100
AcDbEntity
  8
0
100
AcDbLine
 62
250
  6
CONTINUOUS
 10
11.3533626272
 20
-7.1821446012
 11
11.5121416904
 21
-7.1386126758
  0
LINE
  5
2EE
100
AcDbEntity
  8
0
100
AcDbLine
 62
250
  6
CONTINUOUS
 10
13.4373377386
 20
-6.4562353681
 11
13.5961168018
 21
-6.4127034427
  0
LINE
  5
2EF
100
AcDbEntity
  8
0
100
AcDbLine
 62
250
  6
CONTINUOUS
 10
12.9610005655
 20
-6.514099941
 11
12.8022215189
 21
-6.5576318543
  0
LINE
  5
2F0
100
AcDbEntity
  8
0
100
AcDbLine
 62
250
  6
CONTINUOUS
 10
13.4373377386
 20
-5.6561944488
 11
13.5961168018
 21
-5.6126625234
  0
LWPOLYLINE
  5
2F1
100
AcDbEntity
  8
RACCORDO
100
AcDbPolyline
 62
250
  6
CONTINUOUS
 90
5
 70
0
 10
-9.5280902305
 20
-10.9152046122
 10
-9.5072705287
 20
-10.9136572937
 10
-9.4867936127
 20
-10.9105796094
 10
-9.4668838318
 20
-10.9060052791
 10
-9.465733613
 20
-10.9056431624
  0
LWPOLYLINE
  5
2F2
100
AcDbEntity
  8
RACCORDO
100
AcDbPolyline
 62
250
  6
CONTINUOUS
 90
4
 70
0
 10
1.0519836138
 20
-23.494155792
 10
1.0362407719
 20
-23.467134479
 10
1.0179522765
 20
-23.4426930743
 10
0.9974293153
 20
-23.4212474603
  0
LWPOLYLINE
  5
2F3
100
AcDbEntity
  8
RACCORDO
100
AcDbPolyline
 62
250
  6
CONTINUOUS
 90
22
 70
0
 10
-5.2865779845
 20
-26.2235966369
 10
-5.2826870219
 20
-26.270700027
 10
-5.2753510741
 20
-26.3146510721
 10
-5.264570141
 20
-26.3554497721
 10
-5.2502574053
 20
-26.393287491
 10
-5.2324996842
 20
-26.4279728648
 10
-5.2115574297
 20
-26.4589318021
 10
-5.1873811379
 20
-26.4860908933
 10
-5.1600203126
 20
-26.509523548
 10
-5.1298839172
 20
-26.5288759041
 10
-5.0969368419
 20
-26.5440843241
 10
-5.0612141966
 20
-26.5552124454
 10
-5.0232302747
 20
-26.5620973182
 10
-4.9829412994
 20
-26.5646762875
 10
-4.9403910475
 20
-26.5630120082
 10
-4.8962251426
 20
-26.5571294952
 10
-4.8504071145
 20
-26.5469529567
 10
-4.8029734335
 20
-26.5325581843
 10
-4.7546791346
 20
-26.5141975683
 10
-4.7057758964
 20
-26.4919552385
 10
-4.6560120405
 20
-26.4657470649
 10
-4.6053875667
 20
-26.4355730476
  0
LWPOLYLINE
  5
2F4
100
AcDbEntity
  8
RACCORDO
100
AcDbPolyline
 62
250
  6
CONTINUOUS
 90
10
 70
0
 10
-5.9871628139
 20
-26.2335679626
 10
-5.9814133034
 20
-26.3039954092
 10
-5.9703893868
 20
-26.3701885948
 10
-5.9541459364
 20
-26.4318212487
 10
-5.9327630465
 20
-26.4885882949
 10
-5.9063469925
 20
-26.5402128942
 10
-5.8750272259
 20
-26.5864451412
 10
-5.8389492568
 20
-26.6270621317
 10
-5.7982933415
 20
-26.6618550934
 10
-5.7920736698
 20
-26.6663747105
  0
LWPOLYLINE
  5
2F5
100
AcDbEntity
  8
RACCORDO
100
AcDbPolyline
 62
7
  6
CONTINUOUS
 90
6
 70
0
 10
-9.4685408303
 20
-10.966338187
 10
-9.472226479
 20
-10.9864413807
 10
-9.4773962094
 20
-11.0051986899
 10
-9.4840279628
 20
-11.0225298521
 10
-9.4920942977
 20
-11.0383613332
 10
-9.5015602894
 20
-11.0526250686
  0
LWPOLYLINE
  5
2F6
100
AcDbEntity
  8
RACCORDO
100
AcDbPolyline
 62
250
  6
CONTINUOUS
 90
7
 70
0
 10
1.0649453611
 20
10.2605373017
 10
1.0861821605
 20
10.2779522132
 10
1.1040423925
 20
10.2971690294
 10
1.1182238448
 20
10.3178625832
 10
1.1284865537
 20
10.33968272
 10
1.1346568643
 20
10.3622602221
 10
1.1366327489
 20
10.3844417251
  0
LINE
  5
2F7
100
AcDbEntity
  8
RACCORDO
100
AcDbLine
 62
250
  6
CONTINUOUS
 10
1.0649453611
 20
9.9783254965
 11
1.0861821605
 21
9.9957404081
  0
LWPOLYLINE
  5
2F8
100
AcDbEntity
  8
RACCORDO
100
AcDbPolyline
 62
250
  6
CONTINUOUS
 90
13
 70
0
 10
-1.2609356878
 20
9.0522256851
 10
-1.2838174275
 20
9.0341552213
 10
-1.3062669869
 20
9.0134390341
 10
-1.3279049728
 20
8.9904248119
 10
-1.3483668613
 20
8.9654973625
 10
-1.3673039486
 20
8.9390784212
 10
-1.3843906748
 20
8.9116206745
 10
-1.3993671161
 20
8.8835290094
 10
-1.4119408396
 20
8.8553373027
 10
-1.4218418654
 20
8.8277043903
 10
-1.4289441267
 20
8.8011391832
 10
-1.4332102288
 20
8.7759970253
 10
-1.4346272044
 20
8.7526574646
  0
LWPOLYLINE
  5
2F9
100
AcDbEntity
  8
RACCORDO
100
AcDbPolyline
 62
250
  6
CONTINUOUS
 90
22
 70
0
 10
-4.9712203067
 20
4.4977500314
 10
-5.0464265967
 20
4.4392801194
 10
-5.1209693454
 20
4.3760476344
 10
-5.1944840591
 20
4.3083694301
 10
-5.2666118294
 20
4.2365906333
 10
-5.3369999317
 20
4.1610639888
 10
-5.4053026326
 20
4.0821463214
 10
-5.4711942577
 20
4.0002178168
 10
-5.5343422499
 20
3.9156973058
 10
-5.5944096529
 20
3.8290222787
 10
-5.6510913682
 20
3.7406452506
 10
-5.7041272305
 20
3.6509870547
 10
-5.7532706444
 20
3.5604502495
 10
-5.7982886498
 20
3.4694616724
 10
-5.8389468458
 20
3.3784954595
 10
-5.8750259854
 20
3.288027164
 10
-5.906345345
 20
3.1985202053
 10
-5.9327606872
 20
3.1104033816
 10
-5.9541437059
 20
3.0240933291
 10
-5.9703879987
 20
2.9400119371
 10
-5.9814127764
 20
2.8585831654
 10
-5.9871628139
 20
2.7802111277
  0
LINE
  5
2FA
100
AcDbEntity
  8
RACCORDO
100
AcDbLine
 62
7
  6
CONTINUOUS
 10
1.1318109712
 20
10.3909478605
 11
6.1540871409
 21
14.1130190512
  0
LINE
  5
2FB
100
AcDbEntity
  8
RACCORDO
100
AcDbLine
 62
250
  6
CONTINUOUS
 10
-0.5403545065
 20
7.7515730491
 11
-4.9712203067
 21
4.4977500314
  0
LINE
  5
2FC
100
AcDbEntity
  8
RACCORDO
100
AcDbLine
 62
7
  6
CONTINUOUS
 10
0.9969559719
 20
10.6126176438
 11
6.1540871409
 21
14.3430212809
  0
LINE
  5
2FD
100
AcDbEntity
  8
RACCORDO
100
AcDbLine
 62
250
  6
CONTINUOUS
 10
0.888175397
 20
10.5623025062
 11
0.360944246
 21
10.1875711775
  0
LINE
  5
2FE
100
AcDbEntity
  8
RACCORDO
100
AcDbLine
 62
250
  6
CONTINUOUS
 10
1.0649453611
 20
10.2605373017
 11
0.5377142102
 21
9.8858059729
  0
LINE
  5
2FF
100
AcDbEntity
  8
RACCORDO
100
AcDbLine
 62
250
  6
CONTINUOUS
 10
-17.9358433291
 20
-2.4368811435
 11
-17.9509625967
 21
-2.4475720802
  0
LINE
  5
300
100
AcDbEntity
  8
RACCORDO
100
AcDbLine
 62
250
  6
CONTINUOUS
 10
0.3609644388
 20
10.187556899
 11
-1.2609356878
 21
9.0522256851
  0
LINE
  5
301
100
AcDbEntity
  8
RACCORDO
100
AcDbLine
 62
250
  6
CONTINUOUS
 10
0.5377142102
 20
9.8858261658
 11
-1.0841859165
 21
8.7504949519
  0
LINE
  5
302
100
AcDbEntity
  8
RACCORDO
100
AcDbLine
 62
7
  6
CONTINUOUS
 10
-0.3647365405
 20
7.945935545
 11
0.5291948871
 21
8.5716881646
  0
LINE
  5
303
100
AcDbEntity
  8
DRAFT
100
AcDbLine
 62
7
  6
CONTINUOUS
 10
0.7112991045
 20
9.4487378134
 11
6.9566165565
 21
13.8193608611
  0
LINE
  5
304
100
AcDbEntity
  8
ASSI
100
AcDbLine
 62
7
  6
CONTINUOUS
 10
0.7112991045
 20
9.4487378134
 11
6.9566165565
 21
13.8193608611
  0
LINE
  5
305
100
AcDbEntity
  8
RACCORDO
100
AcDbLine
 62
250
  6
CONTINUOUS
 10
0.5377142102
 20
8.594850233
 11
1.2447132812
 21
9.0715570318
  0
LINE
  5
306
100
AcDbEntity
  8
RACCORDO
100
AcDbLine
 62
7
  6
CONTINUOUS
 10
0.5291948871
 20
8.5716881646
 11
0.5377142102
 21
8.5774324709
  0
LWPOLYLINE
  5
307
100
AcDbEntity
  8
RACCORDO
100
AcDbPolyline
 62
7
  6
CONTINUOUS
 90
3
 70
0
 10
-17.885311157
 20
-2.2887770663
 10
-17.8770836677
 20
-2.2834254122
 10
-17.8623322317
 20
-2.2758669853
  0
LWPOLYLINE
  5
308
100
AcDbEntity
  8
RACCORDO
100
AcDbPolyline
 62
250
  6
CONTINUOUS
 90
13
 70
0
 10
-1.0841859165
 20
8.7504949519
 10
-1.1088526792
 20
8.7357073911
 10
-1.1360125763
 20
8.7232950369
 10
-1.1652111497
 20
8.7134655812
 10
-1.1959598287
 20
8.7063834974
 10
-1.2277441053
 20
8.7021672876
 10
-1.260032143
 20
8.7008875004
 10
-1.292283676
 20
8.7025655501
 10
-1.3239590496
 20
8.7071733585
 10
-1.3545282495
 20
8.7146338244
 10
-1.3834797708
 20
8.7248221143
 10
-1.4103291767
 20
8.7375677506
 10
-1.4346272044
 20
8.7526574646
  0
LWPOLYLINE
  5
309
100
AcDbEntity
  8
RACCORDO
100
AcDbPolyline
 62
250
  6
CONTINUOUS
 90
13
 70
0
 10
-0.3647365405
 20
8.370346093
 10
-0.3894032111
 20
8.3555585809
 10
-0.4165630289
 20
8.3431462461
 10
-0.4457615463
 20
8.333316787
 10
-0.4765102098
 20
8.326234683
 10
-0.5082945074
 20
8.3220184483
 10
-0.5405825754
 20
8.3207386409
 10
-0.5728341388
 20
8.3224166759
 10
-0.6045095489
 20
8.3270244759
 10
-0.6350787852
 20
8.3344849397
 10
-0.6640303396
 20
8.344673233
 10
-0.6908797754
 20
8.3574188781
 10
-0.7151778284
 20
8.3725086057
  0
LWPOLYLINE
  5
30A
100
AcDbEntity
  8
RACCORDO
100
AcDbPolyline
 62
250
  6
CONTINUOUS
 90
13
 70
0
 10
-1.0841859165
 20
8.4914460611
 10
-1.1089058423
 20
8.4766306068
 10
-1.1361234624
 20
8.4642024112
 10
-1.1653805041
 20
8.4543689651
 10
-1.1961820167
 20
8.447294539
 10
-1.228013012
 20
8.443095435
 10
-1.2603478716
 20
8.4418406989
 10
-1.2926716626
 20
8.4435550288
 10
-1.3244132668
 20
8.448212859
 10
-1.3549698694
 20
8.4557162323
 10
-1.3838174524
 20
8.4659122589
 10
-1.4105122244
 20
8.478618573
 10
-1.4346272044
 20
8.4936085738
  0
LINE
  5
30B
100
AcDbEntity
  8
0
100
AcDbLine
 62
250
  6
CONTINUOUS
 10
12.8816110753
 20
-4.0993778839
 11
13.1991691686
 21
-4.0123140573
  0
LWPOLYLINE
  5
30C
100
AcDbEntity
  8
RACCORDO
100
AcDbPolyline
 62
250
  6
CONTINUOUS
 90
5
 70
0
 10
-9.5280910782
 20
-8.4403309037
 10
-9.5072713161
 20
-8.4387836422
 10
-9.4867943047
 20
-8.4357060014
 10
-9.4668843989
 20
-8.4311316946
 10
-9.4661553903
 20
-8.4309021868
  0
LINE
  5
30D
100
AcDbEntity
  8
0
100
AcDbLine
 62
250
  6
CONTINUOUS
 10
10.7182464075
 20
-8.883622926
 11
10.5594673609
 21
-8.854423648
  0
LINE
  5
30E
100
AcDbEntity
  8
DRAFT
100
AcDbLine
 62
250
  6
CONTINUOUS
 10
-5.1544953784
 20
17.7283618553
 11
-5.1544953784
 21
18.2076769498
  0
LINE
  5
30F
100
AcDbEntity
  8
RACCORDO
100
AcDbLine
 62
250
  6
CONTINUOUS
 10
-4.9485884975
 20
11.4447109501
 11
-4.9485884975
 21
12.4346604437
  0
LINE
  5
310
100
AcDbEntity
  8
DRAFT
100
AcDbLine
 62
7
  6
CONTINUOUS
 10
-4.4473885972
 20
19.1588388221
 11
-4.4473885972
 21
18.7076769498
  0
LWPOLYLINE
  5
311
100
AcDbEntity
  8
RACCORDO
100
AcDbPolyline
 62
250
  6
CONTINUOUS
 90
10
 70
0
 10
-5.9871628139
 20
2.7802111277
 10
-6.1068321569
 20
-0.5240088101
 10
-6.1965927244
 20
-3.8087438956
 10
-6.2564371787
 20
-7.0737207927
 10
-6.2863606282
 20
-10.3186678068
 10
-6.2863606283
 20
-13.5433150045
 10
-6.2564371789
 20
-16.7473942337
 10
-6.1965927245
 20
-19.9306390178
 10
-6.106832157
 20
-23.0927845805
 10
-5.9871628139
 20
-26.2335679626
  0
LWPOLYLINE
  5
312
100
AcDbEntity
  8
RACCORDO
100
AcDbPolyline
 62
250
  6
CONTINUOUS
 90
10
 70
0
 10
-5.2865779845
 20
2.7611686742
 10
-5.4061378427
 20
-0.5401942787
 10
-5.495807727
 20
-3.821551178
 10
-5.5555876374
 20
-7.0829020236
 10
-5.5854775613
 20
-10.3245165686
 10
-5.5854775114
 20
-13.54612506
 10
-5.5555875249
 20
-16.7469182385
 10
-5.4958076146
 20
-19.9266263509
 10
-5.4061377677
 20
-23.0855191504
 10
-5.2865779845
 20
-26.2235966369
  0
LWPOLYLINE
  5
313
100
AcDbEntity
  8
RACCORDO
100
AcDbPolyline
 62
7
  6
CONTINUOUS
 90
7
 70
0
 10
-3.983679671
 20
20.4743015028
 10
-3.9838522531
 20
20.4726266568
 10
-3.9863887247
 20
20.4667865621
 10
-3.991899427
 20
20.4597441955
 10
-4.0003180154
 20
20.4514448107
 10
-4.0115648721
 20
20.4420077158
 10
-4.0255278039
 20
20.4316434094
  0
LWPOLYLINE
  5
314
100
AcDbEntity
  8
RACCORDO
100
AcDbPolyline
 62
250
  6
CONTINUOUS
 90
9
 70
0
 10
-0.5445988845
 20
8.5537141939
 10
-0.557738584
 20
8.5269479386
 10
-0.5735945196
 20
8.5027862998
 10
-0.5918983953
 20
8.4816381172
 10
-0.6123404942
 20
8.4638612389
 10
-0.6345749164
 20
8.44975647
 10
-0.6582254303
 20
8.4395624802
 10
-0.682891845
 20
8.433451762
 10
-0.6895791233
 20
8.4325277436
  0
LWPOLYLINE
  5
315
100
AcDbEntity
  8
RACCORDO
100
AcDbPolyline
 62
250
  6
CONTINUOUS
 90
9
 70
0
 10
-1.0841859165
 20
8.4914460611
 10
-1.0973565804
 20
8.4646254366
 10
-1.1132514596
 20
8.4404254928
 10
-1.1315991693
 20
8.4192558113
 10
-1.1520850617
 20
8.4014755546
 10
-1.174361894
 20
8.3873826304
 10
-1.1980571908
 20
8.377211989
 10
-1.2227906704
 20
8.3711337891
 10
-1.2291908072
 20
8.3702567639
  0
LWPOLYLINE
  5
316
100
AcDbEntity
  8
RACCORDO
100
AcDbPolyline
 62
250
  6
CONTINUOUS
 90
5
 70
0
 10
-9.8557860052
 20
-7.9166564252
 10
-9.8453188139
 20
-7.8987878121
 10
-9.8338148436
 20
-7.8813375452
 10
-9.8214001342
 20
-7.8644968134
 10
-9.8090694883
 20
-7.8494949522
  0
LINE
  5
317
100
AcDbEntity
  8
RACCORDO
100
AcDbLine
 62
250
  6
CONTINUOUS
 10
0.5377142102
 20
9.2918757186
 11
1.0649453611
 21
9.9783254965
  0
LINE
  5
318
100
AcDbEntity
  8
RACCORDO
100
AcDbLine
 62
7
  6
CONTINUOUS
 10
0.5377142102
 20
9.2375164475
 11
1.084901356
 21
9.9499487346
  0
LWPOLYLINE
  5
319
100
AcDbEntity
  8
RACCORDO
100
AcDbPolyline
 62
250
  6
CONTINUOUS
 90
5
 70
0
 10
1.0861821605
 20
9.9957404081
 10
1.1040423925
 20
10.0149572242
 10
1.1182238448
 20
10.0356507781
 10
1.1284865537
 20
10.0574709149
 10
1.1346568643
 20
10.080048417
  0
LWPOLYLINE
  5
31A
100
AcDbEntity
  8
RACCORDO
100
AcDbPolyline
 62
250
  6
CONTINUOUS
 90
22
 70
0
 10
-4.6053875667
 20
3.9034401371
 10
-4.6559733742
 20
3.8645101629
 10
-4.7057058503
 20
3.8227859149
 10
-4.7545849953
 20
3.778267393
 10
-4.8028648871
 20
3.7306928272
 10
-4.8502914477
 20
3.6803239876
 10
-4.8961024425
 20
3.6279461842
 10
-4.9402569154
 20
3.5735391992
 10
-4.9827958224
 20
3.5171232504
 10
-5.0230797974
 20
3.4595443003
 10
-5.0610680631
 20
3.4007961569
 10
-5.0968013968
 20
3.3408850123
 10
-5.1297627638
 20
3.280675405
 10
-5.1599183101
 20
3.2201478293
 10
-5.1873018898
 20
3.1593217909
 10
-5.2114980299
 20
3.0991203457
 10
-5.2324545249
 20
3.0395439774
 10
-5.2502235804
 20
2.9805922022
 10
-5.2645463397
 20
2.923186624
 10
-5.2753365174
 20
2.8676344438
 10
-5.282680399
 20
2.8136284606
 10
-5.2865779845
 20
2.7611686742
  0
LINE
  5
31B
100
AcDbEntity
  8
RACCORDO
100
AcDbLine
 62
250
  6
CONTINUOUS
 10
-0.1870702405
 20
7.1480481355
 11
-4.6053875667
 21
3.9034401371
  0
LINE
  5
31C
100
AcDbEntity
  8
RACCORDO
100
AcDbLine
 62
250
  6
CONTINUOUS
 10
14.3968687551
 20
16.3544098141
 11
1.598374382
 21
7.0771403933
  0
LINE
  5
31D
100
AcDbEntity
  8
ASSI
100
AcDbLine
 62
250
  6
CONTINUOUS
 10
14.3968687551
 20
16.3544098141
 11
1.598374382
 21
7.0771403933
  0
LWPOLYLINE
  5
31E
100
AcDbEntity
  8
RACCORDO
100
AcDbPolyline
 62
250
  6
CONTINUOUS
 90
39
 70
0
 10
14.3968687551
 20
16.3544098141
 10
14.4157052703
 20
16.3679046185
 10
14.434147387
 20
16.381274186
 10
14.4521814099
 20
16.3945085883
 10
14.4697939468
 20
16.4075979973
 10
14.4869719186
 20
16.4205326929
 10
14.5037025688
 20
16.4333030697
 10
14.5199734732
 20
16.4458996443
 10
14.5357725488
 20
16.4583130624
 10
14.5510880633
 20
16.4705341058
 10
14.5659086431
 20
16.482553699
 10
14.5802232825
 20
16.4943629162
 10
14.5940213514
 20
16.5059529879
 10
14.6072926032
 20
16.5173153071
 10
14.6200271826
 20
16.5284414363
 10
14.6322156328
 20
16.5393231129
 10
14.6438489027
 20
16.5499522563
 10
14.6549183533
 20
16.5603209732
 10
14.6654157643
 20
16.5704215638
 10
14.6753333404
 20
16.5802465272
 10
14.6846637167
 20
16.5897885673
 10
14.6933999644
 20
16.5990405984
 10
14.7015355958
 20
16.6079957496
 10
14.7090645696
 20
16.6166473709
 10
14.7159812945
 20
16.6249890375
 10
14.7222806342
 20
16.6330145549
 10
14.7279579108
 20
16.6407179632
 10
14.7330089083
 20
16.648093542
 10
14.7374298758
 20
16.6551358139
 10
14.7412175302
 20
16.6618395495
 10
14.7443690589
 20
16.6681997704
 10
14.7468821214
 20
16.6742117536
 10
14.7487548517
 20
16.6798710344
 10
14.7499858588
 20
16.6851734104
 10
14.7505742289
 20
16.6901149438
 10
14.7505195248
 20
16.6946919652
 10
14.7498217872
 20
16.6989010755
 10
14.7484815342
 20
16.7027391492
 10
14.747460402
 20
16.7047087711
  0
LWPOLYLINE
  5
31F
100
AcDbEntity
  8
ASSI
100
AcDbPolyline
 62
250
  6
CONTINUOUS
 90
39
 70
0
 10
14.3968687551
 20
16.3544098141
 10
14.4157052703
 20
16.3679046185
 10
14.434147387
 20
16.381274186
 10
14.4521814099
 20
16.3945085883
 10
14.4697939468
 20
16.4075979973
 10
14.4869719186
 20
16.4205326929
 10
14.5037025688
 20
16.4333030697
 10
14.5199734732
 20
16.4458996443
 10
14.5357725488
 20
16.4583130624
 10
14.5510880633
 20
16.4705341058
 10
14.5659086431
 20
16.482553699
 10
14.5802232825
 20
16.4943629162
 10
14.5940213514
 20
16.5059529879
 10
14.6072926032
 20
16.5173153071
 10
14.6200271826
 20
16.5284414363
 10
14.6322156328
 20
16.5393231129
 10
14.6438489027
 20
16.5499522563
 10
14.6549183533
 20
16.5603209732
 10
14.6654157643
 20
16.5704215638
 10
14.6753333404
 20
16.5802465272
 10
14.6846637167
 20
16.5897885673
 10
14.6933999644
 20
16.5990405984
 10
14.7015355958
 20
16.6079957496
 10
14.7090645696
 20
16.6166473709
 10
14.7159812945
 20
16.6249890375
 10
14.7222806342
 20
16.6330145549
 10
14.7279579108
 20
16.6407179632
 10
14.7330089083
 20
16.648093542
 10
14.7374298758
 20
16.6551358139
 10
14.7412175302
 20
16.6618395495
 10
14.7443690589
 20
16.6681997704
 10
14.7468821214
 20
16.6742117536
 10
14.7487548517
 20
16.6798710344
 10
14.7499858588
 20
16.6851734104
 10
14.7505742289
 20
16.6901149438
 10
14.7505195248
 20
16.6946919652
 10
14.7498217872
 20
16.6989010755
 10
14.7484815342
 20
16.7027391492
 10
14.747460402
 20
16.7047087711
  0
LINE
  5
320
100
AcDbEntity
  8
RACCORDO
100
AcDbLine
 62
250
  6
CONTINUOUS
 10
-17.9409960835
 20
-4.9153984253
 11
-17.9509625967
 21
-4.9224458144
  0
LWPOLYLINE
  5
321
100
AcDbEntity
  8
RACCORDO
100
AcDbPolyline
 62
7
  6
CONTINUOUS
 90
39
 70
0
 10
7.7093106405
 20
12.5344316862
 10
14.0577131639
 20
16.9770995331
 10
14.0756624713
 20
16.9893598517
 10
14.0933465582
 20
17.0012336493
 10
14.1107510649
 20
17.0127173073
 10
14.1278662915
 20
17.0238055764
 10
14.1446871901
 20
17.0344914549
 10
14.1612019827
 20
17.0447717185
 10
14.1773994819
 20
17.0546430081
 10
14.1932757897
 20
17.064098555
 10
14.2088196915
 20
17.0731362588
 10
14.2240206148
 20
17.0817539375
 10
14.2388759055
 20
17.0899451638
 10
14.2533749636
 20
17.0977089467
 10
14.2675078613
 20
17.1050442629
 10
14.2812732548
 20
17.1119451125
 10
14.2946611994
 20
17.1184115871
 10
14.3076624453
 20
17.124443795
 10
14.3202770099
 20
17.1300362357
 10
14.3324956692
 20
17.135190058
 10
14.3443098465
 20
17.1399064449
 10
14.3557208615
 20
17.1441804083
 10
14.3667202102
 20
17.1480141017
 10
14.377300045
 20
17.1514097552
 10
14.3874630117
 20
17.1543629357
 10
14.3972013705
 20
17.1568767537
 10
14.4065079923
 20
17.1589544193
 10
14.4153867811
 20
17.1605920513
 10
14.4238307742
 20
17.1617936583
 10
14.4318335686
 20
17.1625633671
 10
14.4394002448
 20
17.1628978362
 10
14.4465246223
 20
17.16280191
 10
14.4532010259
 20
17.1622805657
 10
14.4594356222
 20
17.1613309835
 10
14.465223011
 20
17.1599587787
 10
14.470558242
 20
17.1581697121
 10
14.4754484736
 20
17.1559614624
 10
14.4798890772
 20
17.1533403505
 10
14.4807747066
 20
17.1527305516
  0
LWPOLYLINE
  5
322
100
AcDbEntity
  8
ASSI
100
AcDbPolyline
 62
7
  6
CONTINUOUS
 90
39
 70
0
 10
7.7093106405
 20
12.5344316862
 10
14.0577131639
 20
16.9770995331
 10
14.0756624713
 20
16.9893598517
 10
14.0933465582
 20
17.0012336493
 10
14.1107510649
 20
17.0127173073
 10
14.1278662915
 20
17.0238055764
 10
14.1446871901
 20
17.0344914549
 10
14.1612019827
 20
17.0447717185
 10
14.1773994819
 20
17.0546430081
 10
14.1932757897
 20
17.064098555
 10
14.2088196915
 20
17.0731362588
 10
14.2240206148
 20
17.0817539375
 10
14.2388759055
 20
17.0899451638
 10
14.2533749636
 20
17.0977089467
 10
14.2675078613
 20
17.1050442629
 10
14.2812732548
 20
17.1119451125
 10
14.2946611994
 20
17.1184115871
 10
14.3076624453
 20
17.124443795
 10
14.3202770099
 20
17.1300362357
 10
14.3324956692
 20
17.135190058
 10
14.3443098465
 20
17.1399064449
 10
14.3557208615
 20
17.1441804083
 10
14.3667202102
 20
17.1480141017
 10
14.377300045
 20
17.1514097552
 10
14.3874630117
 20
17.1543629357
 10
14.3972013705
 20
17.1568767537
 10
14.4065079923
 20
17.1589544193
 10
14.4153867811
 20
17.1605920513
 10
14.4238307742
 20
17.1617936583
 10
14.4318335686
 20
17.1625633671
 10
14.4394002448
 20
17.1628978362
 10
14.4465246223
 20
17.16280191
 10
14.4532010259
 20
17.1622805657
 10
14.4594356222
 20
17.1613309835
 10
14.465223011
 20
17.1599587787
 10
14.470558242
 20
17.1581697121
 10
14.4754484736
 20
17.1559614624
 10
14.4798890772
 20
17.1533403505
 10
14.4807747066
 20
17.1527305516
  0
LINE
  5
323
100
AcDbEntity
  8
RACCORDO
100
AcDbLine
 62
250
  6
CONTINUOUS
 10
-0.200249058
 20
7.2551060676
 11
1.598374382
 21
8.467860168
  0
LWPOLYLINE
  5
324
100
AcDbEntity
  8
RACCORDO
100
AcDbPolyline
 62
250
  6
CONTINUOUS
 90
16
 70
0
 10
-5.2865779845
 20
2.7611686742
 10
-5.3255872596
 20
2.7386642948
 10
-5.3679000312
 20
2.7191260067
 10
-5.4130629389
 20
2.7027631531
 10
-5.4605920841
 20
2.6897510539
 10
-5.5099782154
 20
2.6802291273
 10
-5.5606921847
 20
2.6742993962
 10
-5.6121906166
 20
2.6720253947
 10
-5.6639217306
 20
2.6734314876
 10
-5.7153312534
 20
2.6785026094
 10
-5.765868357
 20
2.6871844253
 10
-5.8149915611
 20
2.6993839142
 10
-5.8621745349
 20
2.7149703644
 10
-5.9069117357
 20
2.7337767749
 10
-5.9487238265
 20
2.7556016441
 10
-5.9871628112
 20
2.7802111294
  0
LINE
  5
325
100
AcDbEntity
  8
0
100
AcDbLine
 62
250
  6
CONTINUOUS
 10
12.9610005655
 20
-1.4229308737
 11
12.8022215189
 21
-1.4664630297
  0
LINE
  5
326
100
AcDbEntity
  8
0
100
AcDbLine
 62
250
  6
CONTINUOUS
 10
10.5594673609
 20
-3.6905241177
 11
10.797635964
 21
-3.6615916978
  0
LINE
  5
327
100
AcDbEntity
  8
0
100
AcDbLine
 62
250
  6
CONTINUOUS
 10
10.7182464075
 20
-8.0835820067
 11
10.5594673609
 21
-8.0543829714
  0
LINE
  5
328
100
AcDbEntity
  8
0
100
AcDbLine
 62
250
  6
CONTINUOUS
 10
11.5121416904
 20
-7.9386535951
 11
11.6709207536
 21
-7.9678526182
  0
LINE
  5
329
100
AcDbEntity
  8
0
100
AcDbLine
 62
250
  6
CONTINUOUS
 10
10.5594673609
 20
-7.3270730006
 11
10.7182464075
 21
-7.3562720359
  0
LINE
  5
32A
100
AcDbEntity
  8
0
100
AcDbLine
 62
250
  6
CONTINUOUS
 10
11.5121416904
 20
-7.1386126758
 11
11.6709207536
 21
-7.1678119416
  0
LINE
  5
32B
100
AcDbEntity
  8
0
100
AcDbLine
 62
250
  6
CONTINUOUS
 10
12.8022215189
 20
-7.3576727736
 11
12.6434424723
 21
-7.3284734956
  0
LINE
  5
32C
100
AcDbEntity
  8
0
100
AcDbLine
 62
250
  6
CONTINUOUS
 10
11.6709207536
 20
-6.5132329194
 11
11.3533626272
 21
-6.4548348732
  0
LWPOLYLINE
  5
32D
100
AcDbEntity
  8
RACCORDO
100
AcDbPolyline
 62
250
  6
CONTINUOUS
 90
3
 70
0
 10
1.0748087219
 20
-23.5540629444
 10
1.06491293
 20
-23.5232972324
 10
1.0519836138
 20
-23.494155792
  0
LWPOLYLINE
  5
32E
100
AcDbEntity
  8
RACCORDO
100
AcDbPolyline
 62
250
  6
CONTINUOUS
 90
16
 70
0
 10
-4.6053875667
 20
3.9034401371
 10
-4.6092541233
 20
3.9403727938
 10
-4.6168792427
 20
3.979684515
 10
-4.628179517
 20
4.0209451279
 10
-4.6430313205
 20
4.0637031298
 10
-4.6612721575
 20
4.1074906159
 10
-4.6827024357
 20
4.1518283984
 10
-4.7070876633
 20
4.1962312777
 10
-4.7341610033
 20
4.2402133271
 10
-4.7636261813
 20
4.2832931972
 10
-4.79516076
 20
4.3249994357
 10
-4.8284196474
 20
4.3648756115
 10
-4.8630388513
 20
4.4024852896
 10
-4.8986395047
 20
4.4374168616
 10
-4.934832016
 20
4.4692880441
 10
-4.9712203048
 20
4.4977500329
  0
LWPOLYLINE
  5
32F
100
AcDbEntity
  8
RACCORDO
100
AcDbPolyline
 62
250
  6
CONTINUOUS
 90
6
 70
0
 10
-1.4346272044
 20
-25.4864258904
 10
-1.4331482296
 20
-25.5081991502
 10
-1.4287360525
 20
-25.5275164987
 10
-1.4214645007
 20
-25.5440547046
 10
-1.4114552469
 20
-25.5575370394
 10
-1.4021880764
 20
-25.5655500356
  0
LWPOLYLINE
  5
330
100
AcDbEntity
  8
RACCORDO
100
AcDbPolyline
 62
250
  6
CONTINUOUS
 90
5
 70
0
 10
-2.722534556
 20
9.4042965957
 10
-2.7213392553
 20
9.3846192793
 10
-2.7177695173
 20
9.3668984754
 10
-2.7118736168
 20
9.3513738275
 10
-2.7037312857
 20
9.3382552798
  0
LINE
  5
331
100
AcDbEntity
  8
RACCORDO
100
AcDbLine
 62
250
  6
CONTINUOUS
 10
-4.2477059217
 20
11.4464495181
 11
-4.2477059217
 21
12.4363990117
  0
LINE
  5
332
100
AcDbEntity
  8
RACCORDO
100
AcDbLine
 62
250
  6
CONTINUOUS
 10
-4.1057879439
 20
20.382932514
 11
-4.1057879439
 21
19.3974058568
  0
LINE
  5
333
100
AcDbEntity
  8
DRAFT
100
AcDbLine
 62
7
  6
CONTINUOUS
 10
-4.0938352066
 20
18.9088388221
 11
-4.0938352066
 21
18.4576769498
  0
LINE
  5
334
100
AcDbEntity
  8
RACCORDO
100
AcDbLine
 62
7
  6
CONTINUOUS
 10
-3.9836796705
 20
20.4742675403
 11
-3.9836796705
 21
19.6040385865
  0
LINE
  5
335
100
AcDbEntity
  8
DRAFT
100
AcDbLine
 62
7
  6
CONTINUOUS
 10
-3.8817031722
 20
11.7026516966
 11
-3.8817031722
 21
12.6926011903
  0
LINE
  5
336
100
AcDbEntity
  8
ASSI
100
AcDbLine
 62
250
  6
CONTINUOUS
 10
-3.740281816
 20
17.7283618553
 11
-3.740281816
 21
18.2076769498
  0
LINE
  5
337
100
AcDbEntity
  8
RACCORDO
100
AcDbLine
 62
7
  6
CONTINUOUS
 10
-2.7957578607
 20
9.5292965957
 11
-2.7957578607
 21
9.7883454865
  0
LINE
  5
338
100
AcDbEntity
  8
RACCORDO
100
AcDbLine
 62
250
  6
CONTINUOUS
 10
-2.722534556
 20
9.4042965957
 11
-2.722534556
 21
9.6633454865
  0
LWPOLYLINE
  5
339
100
AcDbEntity
  8
RACCORDO
100
AcDbPolyline
 62
250
  6
CONTINUOUS
 90
26
 70
0
 10
14.8110192307
 20
15.0617135092
 10
14.8296803693
 20
15.0757557207
 10
14.8477934644
 20
15.0901522705
 10
14.865345065
 20
15.1048924676
 10
14.8823221372
 20
15.1199653659
 10
14.8987120738
 20
15.135359772
 10
14.9145027036
 20
15.1510642542
 10
14.9296823002
 20
15.16706715
 10
14.9442395913
 20
15.1833565757
 10
14.9581637665
 20
15.1999204347
 10
14.9714444857
 20
15.2167464265
 10
14.9840718865
 20
15.2338220561
 10
14.9960365918
 20
15.251134643
 10
15.0073297164
 20
15.2686713308
 10
15.0179428741
 20
15.2864190967
 10
15.0278681835
 20
15.304364761
 10
15.037098274
 20
15.3224949973
 10
15.0456262912
 20
15.3407963418
 10
15.0534459022
 20
15.359255204
 10
15.0605513002
 20
15.3778578761
 10
15.0669372086
 20
15.3965905438
 10
15.0725988851
 20
15.415439296
 10
15.0775321255
 20
15.4343901356
 10
15.0817332663
 20
15.4534289895
 10
15.0851991876
 20
15.4725417194
 10
15.0879273157
 20
15.4917141321
  0
LWPOLYLINE
  5
33A
100
AcDbEntity
  8
ASSI
100
AcDbPolyline
 62
250
  6
CONTINUOUS
 90
29
 70
0
 10
14.8110192307
 20
15.0617135092
 10
14.8296803693
 20
15.0757557207
 10
14.8477934644
 20
15.0901522705
 10
14.865345065
 20
15.1048924676
 10
14.8823221372
 20
15.1199653659
 10
14.8987120738
 20
15.135359772
 10
14.9145027036
 20
15.1510642542
 10
14.9296823002
 20
15.16706715
 10
14.9442395913
 20
15.1833565757
 10
14.9581637665
 20
15.1999204347
 10
14.9714444857
 20
15.2167464265
 10
14.9840718865
 20
15.2338220561
 10
14.9960365918
 20
15.251134643
 10
15.0073297164
 20
15.2686713308
 10
15.0179428741
 20
15.2864190967
 10
15.0278681835
 20
15.304364761
 10
15.037098274
 20
15.3224949973
 10
15.0456262912
 20
15.3407963418
 10
15.0534459022
 20
15.359255204
 10
15.0605513002
 20
15.3778578761
 10
15.0669372086
 20
15.3965905438
 10
15.0725988851
 20
15.415439296
 10
15.0775321255
 20
15.4343901356
 10
15.0817332663
 20
15.4534289895
 10
15.0851991876
 20
15.4725417194
 10
15.0879273157
 20
15.4917141321
 10
15.0899156247
 20
15.51093199
 10
15.0911626379
 20
15.5301810219
 10
15.0916674295
 20
15.5494469333
  0
LINE
  5
33B
100
AcDbEntity
  8
0
100
AcDbLine
 62
250
  6
CONTINUOUS
 10
3.4342571957
 20
5.6782775057
 11
3.2457070778
 21
5.5402153573
  0
LINE
  5
33C
100
AcDbEntity
  8
RACCORDO
100
AcDbLine
 62
250
  6
CONTINUOUS
 10
14.8110192307
 20
15.0617135092
 11
1.598374382
 21
5.4842380305
  0
LINE
  5
33D
100
AcDbEntity
  8
ASSI
100
AcDbLine
 62
250
  6
CONTINUOUS
 10
14.8110192307
 20
15.0617135092
 11
1.598374382
 21
5.4842380305
  0
LWPOLYLINE
  5
33E
100
AcDbEntity
  8
RACCORDO
100
AcDbPolyline
 62
7
  6
CONTINUOUS
 90
4
 70
0
 10
-17.8623322317
 20
-2.2758669853
 10
-17.8464462615
 20
-2.2701142942
 10
-17.8294935255
 20
-2.266191796
 10
-17.8115462839
 20
-2.2641160553
  0
LINE
  5
33F
100
AcDbEntity
  8
0
100
AcDbLine
 62
250
  6
CONTINUOUS
 10
13.4373377386
 20
-0.5650253815
 11
13.5961168018
 21
-0.5214941844
  0
LINE
  5
340
100
AcDbEntity
  8
0
100
AcDbLine
 62
250
  6
CONTINUOUS
 10
10.5594673609
 20
-2.1631729848
 11
10.797635964
 21
-2.1342410504
  0
LINE
  5
341
100
AcDbEntity
  8
0
100
AcDbLine
 62
250
  6
CONTINUOUS
 10
11.6709207536
 20
-3.0221459335
 11
10.8770254542
 21
-3.0943434086
  0
LINE
  5
342
100
AcDbEntity
  8
0
100
AcDbLine
 62
250
  6
CONTINUOUS
 10
11.6709207536
 20
-1.4947952861
 11
10.8770254542
 21
-1.5669927613
  0
LWPOLYLINE
  5
343
100
AcDbEntity
  8
RACCORDO
100
AcDbPolyline
 62
7
  6
CONTINUOUS
 90
11
 70
0
 10
-17.8115462839
 20
-2.2641160553
 10
-17.7926823486
 20
-2.2638966424
 10
-17.7729823333
 20
-2.2655343846
 10
-17.7525302833
 20
-2.2690220509
 10
-17.7314145458
 20
-2.2743452521
 10
-17.7097254757
 20
-2.2814811513
 10
-17.6875556796
 20
-2.2903990023
 10
-17.6650005943
 20
-2.3010609675
 10
-17.6421569141
 20
-2.3134214664
 10
-17.6191221779
 20
-2.3274273729
 10
-17.5959949811
 20
-2.3430186815
  0
LINE
  5
344
100
AcDbEntity
  8
0
100
AcDbLine
 62
250
  6
CONTINUOUS
 10
12.8022215189
 20
-6.5576318543
 11
12.6434424723
 21
-6.528432819
  0
LINE
  5
345
100
AcDbEntity
  8
0
100
AcDbLine
 62
250
  6
CONTINUOUS
 10
13.5961168018
 20
-6.4127034427
 11
13.754895865
 21
-6.4419024658
  0
LINE
  5
346
100
AcDbEntity
  8
0
100
AcDbLine
 62
250
  6
CONTINUOUS
 10
12.6434424723
 20
-5.8011228482
 11
12.8022215189
 21
-5.8303218835
  0
LINE
  5
347
100
AcDbEntity
  8
0
100
AcDbLine
 62
250
  6
CONTINUOUS
 10
11.6709207536
 20
-5.4949991545
 11
11.591531222
 21
-5.4803998857
  0
LINE
  5
348
100
AcDbEntity
  8
0
100
AcDbLine
 62
250
  6
CONTINUOUS
 10
13.5961168018
 20
-5.6126625234
 11
13.754895865
 21
-5.6418617892
  0
LINE
  5
349
100
AcDbEntity
  8
0
100
AcDbLine
 62
250
  6
CONTINUOUS
 10
11.6709207536
 20
-4.8404203749
 11
11.5121416904
 21
-4.8112213518
  0
LINE
  5
34A
100
AcDbEntity
  8
0
100
AcDbLine
 62
250
  6
CONTINUOUS
 10
13.754895865
 20
-4.987282767
 11
13.4373377386
 21
-4.9288847208
  0
LINE
  5
34B
100
AcDbEntity
  8
0
100
AcDbLine
 62
250
  6
CONTINUOUS
 10
10.8770254542
 20
-4.1853078793
 11
10.5594673609
 21
-4.1269098089
  0
LWPOLYLINE
  5
34C
100
AcDbEntity
  8
RACCORDO
100
AcDbPolyline
 62
250
  6
CONTINUOUS
 90
4
 70
0
 10
-14.0920686626
 20
17.8781227798
 10
-14.0905075236
 20
17.8756513089
 10
-14.0844210453
 20
17.8599917734
 10
-14.0807347997
 20
17.8421976231
  0
LINE
  5
34D
100
AcDbEntity
  8
RACCORDO
100
AcDbLine
 62
250
  6
CONTINUOUS
 10
1.0815026079
 20
-23.5859294344
 11
1.0748087219
 21
-23.5540629444
  0
LWPOLYLINE
  5
34E
100
AcDbEntity
  8
RACCORDO
100
AcDbPolyline
 62
250
  6
CONTINUOUS
 90
7
 70
0
 10
-2.7957578607
 20
9.5292965957
 10
-2.7933209583
 20
9.504674322
 10
-2.7867337917
 20
9.4822296184
 10
-2.7761224193
 20
9.4606228375
 10
-2.7617030602
 20
9.4402245159
 10
-2.7437336186
 20
9.4213484616
 10
-2.722534556
 20
9.4042965957
  0
LWPOLYLINE
  5
34F
100
AcDbEntity
  8
RACCORDO
100
AcDbPolyline
 62
250
  6
CONTINUOUS
 90
7
 70
0
 10
-2.7957578607
 20
9.7883454865
 10
-2.7933752208
 20
9.7639975606
 10
-2.7868587958
 20
9.7415996892
 10
-2.7763081037
 20
9.7199840006
 10
-2.761899686
 20
9.6995121836
 10
-2.7438746342
 20
9.6805267866
 10
-2.722534556
 20
9.6633454865
  0
LWPOLYLINE
  5
350
100
AcDbEntity
  8
RACCORDO
100
AcDbPolyline
 62
250
  6
CONTINUOUS
 90
13
 70
0
 10
-1.0841859165
 20
8.7504949519
 10
-1.0860099257
 20
8.7738442735
 10
-1.0906907717
 20
8.7990680561
 10
-1.0982068862
 20
8.8257775451
 10
-1.1085117511
 20
8.8536065883
 10
-1.1214672796
 20
8.8820334154
 10
-1.1367896026
 20
8.9103839432
 10
-1.1541742332
 20
8.9381089009
 10
-1.1733503593
 20
8.9647888034
 10
-1.1939810987
 20
8.9899564269
 10
-1.2157071945
 20
9.0131765624
 10
-1.2381546138
 20
9.0340523516
 10
-1.2609356878
 20
9.0522256851
  0
LINE
  5
351
100
AcDbEntity
  8
RACCORDO
100
AcDbLine
 62
250
  6
CONTINUOUS
 10
-0.7164166353
 20
8.3921976231
 11
-0.7151778284
 21
8.3725086057
  0
LWPOLYLINE
  5
352
100
AcDbEntity
  8
RACCORDO
100
AcDbPolyline
 62
250
  6
CONTINUOUS
 90
7
 70
0
 10
-1.4346272044
 20
8.4936085738
 10
-1.4334319036
 20
8.4739312574
 10
-1.4298621657
 20
8.4562104535
 10
-1.4239662652
 20
8.4406858056
 10
-1.4158239341
 20
8.4275672579
 10
-1.4055452833
 20
8.4170322162
 10
-1.4021880764
 20
8.4144844286
  0
LWPOLYLINE
  5
353
100
AcDbEntity
  8
RACCORDO
100
AcDbPolyline
 62
250
  6
CONTINUOUS
 90
13
 70
0
 10
-0.3647365405
 20
8.370346093
 10
-0.3662338724
 20
8.4006862815
 10
-0.3703492769
 20
8.428485683
 10
-0.377082754
 20
8.4537442977
 10
-0.3865266149
 20
8.4765947626
 10
-0.3985885484
 20
8.4969044405
 10
-0.4129916208
 20
8.5142754202
 10
-0.4297702325
 20
8.528659458
 10
-0.448889983
 20
8.5401047976
 10
-0.4699707369
 20
8.548358259
 10
-0.4928857826
 20
8.5533354488
 10
-0.5177618318
 20
8.5551207605
 10
-0.5445988845
 20
8.5537141939
  0
LWPOLYLINE
  5
354
100
AcDbEntity
  8
RACCORDO
100
AcDbPolyline
 62
7
  6
CONTINUOUS
 90
11
 70
0
 10
-1.33611876
 20
20.133809716
 10
-1.3376684774
 20
20.1790242677
 10
-1.3421474078
 20
20.2215882172
 10
-1.3495555514
 20
20.2615015645
 10
-1.3599489298
 20
20.298910469
 10
-1.3732715212
 20
20.3336687714
 10
-1.3893552605
 20
20.3653379936
 10
-1.4082351267
 20
20.3938790022
 10
-1.4298761408
 20
20.4193309306
 10
-1.4540053
 20
20.4413727012
 10
-1.4659208425
 20
20.4503385125
  0
LINE
  5
355
100
AcDbEntity
  8
RACCORDO
100
AcDbLine
 62
250
  6
CONTINUOUS
 10
-1.4346272044
 20
8.7526574646
 11
-1.4346272044
 21
8.4936085738
  0
LINE
  5
356
100
AcDbEntity
  8
RACCORDO
100
AcDbLine
 62
250
  6
CONTINUOUS
 10
-1.4346272044
 20
-25.2273769997
 11
-1.4346272044
 21
-25.4864258904
  0
LINE
  5
357
100
AcDbEntity
  8
RACCORDO
100
AcDbLine
 62
7
  6
CONTINUOUS
 10
-1.33611876
 20
20.133809716
 11
-1.33611876
 21
19.912702203
  0
LINE
  5
358
100
AcDbEntity
  8
RACCORDO
100
AcDbLine
 62
250
  6
CONTINUOUS
 10
-1.0841859165
 20
8.7504949519
 11
-1.0841859165
 21
8.4914460611
  0
LINE
  5
359
100
AcDbEntity
  8
RACCORDO
100
AcDbLine
 62
250
  6
CONTINUOUS
 10
-1.0841859165
 20
-25.2295395124
 11
-1.0841859165
 21
-25.4885884031
  0
LINE
  5
35A
100
AcDbEntity
  8
RACCORDO
100
AcDbLine
 62
250
  6
CONTINUOUS
 10
-0.7151778284
 20
8.3725086057
 11
-0.7151778284
 21
7.945066261
  0
LINE
  5
35B
100
AcDbEntity
  8
RACCORDO
100
AcDbLine
 62
250
  6
CONTINUOUS
 10
-0.7151778284
 20
-24.0972445621
 11
-0.7151778284
 21
-24.1237320964
  0
LINE
  5
35C
100
AcDbEntity
  8
RACCORDO
100
AcDbLine
 62
250
  6
CONTINUOUS
 10
-0.3647365405
 20
8.370346093
 11
-0.3647365405
 21
7.945935545
  0
LINE
  5
35D
100
AcDbEntity
  8
RACCORDO
100
AcDbLine
 62
250
  6
CONTINUOUS
 10
-0.3647365405
 20
-23.9165212329
 11
-0.3647365405
 21
-24.1258946091
  0
LINE
  5
35E
100
AcDbEntity
  8
RACCORDO
100
AcDbLine
 62
7
  6
CONTINUOUS
 10
-0.1870702405
 20
-23.6461285395
 11
-0.1870702405
 21
7.1480481355
  0
LWPOLYLINE
  5
35F
100
AcDbEntity
  8
RACCORDO
100
AcDbPolyline
 62
7
  6
CONTINUOUS
 90
8
 70
0
 10
1.5556586969
 20
16.5573942656
 10
1.5555352629
 20
16.5559866708
 10
1.5531773195
 20
16.550253779
 10
1.5478752173
 20
16.5433270351
 10
1.5396934547
 20
16.5351505088
 10
1.5287084077
 20
16.5258410789
 10
1.5150297185
 20
16.5156070907
 10
1.4987833158
 20
16.5045203516
  0
LINE
  5
360
100
AcDbEntity
  8
RACCORDO
100
AcDbLine
 62
250
  6
CONTINUOUS
 10
1.1346568643
 20
10.080048417
 11
1.1366327489
 21
10.10222992
  0
LWPOLYLINE
  5
361
100
AcDbEntity
  8
RACCORDO
100
AcDbPolyline
 62
250
  6
CONTINUOUS
 90
8
 70
0
 10
-4.6053875667
 20
-26.4355730476
 10
-4.6092542327
 20
-26.4724084157
 10
-4.6168795749
 20
-26.5060574749
 10
-4.6281801455
 20
-26.5361519874
 10
-4.6430322768
 20
-26.5623626144
 10
-4.661273435
 20
-26.5844025203
 10
-4.6827039981
 20
-26.6020305119
 10
-4.6857009996
 20
-26.6039802743
  0
LINE
  5
362
100
AcDbEntity
  8
0
100
AcDbLine
 62
250
  6
CONTINUOUS
 10
3.2457070778
 20
5.5402153573
 11
3.0571569599
 21
5.1910313396
  0
LWPOLYLINE
  5
363
100
AcDbEntity
  8
RACCORDO
100
AcDbPolyline
 62
7
  6
CONTINUOUS
 90
3
 70
0
 10
-9.5015602894
 20
-11.0526250686
 10
-9.512385079
 20
-11.065259749
 10
-9.5245233669
 20
-11.0762120151
  0
LWPOLYLINE
  5
364
100
AcDbEntity
  8
0
100
AcDbPolyline
 62
250
  6
CONTINUOUS
 90
17
 70
0
 10
4.3770078638
 20
3.5083413755
 10
4.107154828
 20
3.2838132726
 10
3.8475804105
 20
3.0139704203
 10
3.6081717201
 20
2.7090910488
 10
3.3946125751
 20
2.3747880127
 10
3.2225072292
 20
2.0354880322
 10
3.0943764538
 20
1.6984216227
 10
3.0151007103
 20
1.376427539
 10
2.9876911229
 20
1.0768277115
 10
3.0141504444
 20
0.8215131801
 10
3.0925205815
 20
0.6146721447
 10
3.2198164402
 20
0.4641831161
 10
3.3946125751
 20
0.3747880127
 10
3.6041370523
 20
0.3530187204
 10
3.8430999386
 20
0.3975677323
 10
4.1023992118
 20
0.5067381907
 10
4.3770079853
 20
0.6799143396
  0
LINE
  5
365
100
AcDbEntity
  8
DRAFT
100
AcDbLine
 62
7
  6
CONTINUOUS
 10
0.5116151122
 20
1.1581666195
 11
0.5458084998
 21
1.1825307811
  0
LINE
  5
366
100
AcDbEntity
  8
DRAFT
100
AcDbLine
 62
7
  6
CONTINUOUS
 10
1.598374382
 20
2.5344013441
 11
-0.1870702405
 21
1.3152192659
  0
LINE
  5
367
100
AcDbEntity
  8
0
100
AcDbLine
 62
250
  6
CONTINUOUS
 10
12.9610005655
 20
1.6317704211
 11
12.8022215189
 21
1.588238265
  0
LINE
  5
368
100
AcDbEntity
  8
0
100
AcDbLine
 62
250
  6
CONTINUOUS
 10
11.5386048731
 20
1.7297005099
 11
11.485678516
 21
1.7151897851
  0
LINE
  5
369
100
AcDbEntity
  8
0
100
AcDbLine
 62
250
  6
CONTINUOUS
 10
11.5650680476
 20
1.8460528989
 11
11.6179944006
 21
1.8605626496
  0
LINE
  5
36A
100
AcDbEntity
  8
0
100
AcDbLine
 62
250
  6
CONTINUOUS
 10
13.4373377386
 20
2.4896759132
 11
13.5961168018
 21
2.5332071104
  0
LINE
  5
36B
100
AcDbEntity
  8
0
100
AcDbLine
 62
250
  6
CONTINUOUS
 10
11.5386048731
 20
2.9661273631
 11
11.485678516
 21
2.9516166384
  0
LINE
  5
36C
100
AcDbEntity
  8
0
100
AcDbLine
 62
250
  6
CONTINUOUS
 10
11.5650680476
 20
3.0824787811
 11
11.6179944006
 21
3.0969895028
  0
LINE
  5
36D
100
AcDbEntity
  8
0
100
AcDbLine
 62
250
  6
CONTINUOUS
 10
12.6434424723
 20
0.0173554616
 11
12.8816110753
 21
0.046288367
  0
LINE
  5
36E
100
AcDbEntity
  8
0
100
AcDbLine
 62
250
  6
CONTINUOUS
 10
13.754895865
 20
0.6857341313
 11
12.9610005655
 21
0.6135366561
  0
LINE
  5
36F
100
AcDbEntity
  8
0
100
AcDbLine
 62
250
  6
CONTINUOUS
 10
12.6434424723
 20
-4.0555791125
 11
12.8816110753
 21
-4.0993778839
  0
LINE
  5
370
100
AcDbEntity
  8
0
100
AcDbLine
 62
250
  6
CONTINUOUS
 10
13.754895865
 20
-3.9690490021
 11
13.6755063334
 21
-3.9544497333
  0
LINE
  5
371
100
AcDbEntity
  8
0
100
AcDbLine
 62
250
  6
CONTINUOUS
 10
13.754895865
 20
-3.2417390313
 11
13.5961168018
 21
-3.2125400082
  0
LINE
  5
372
100
AcDbEntity
  8
0
100
AcDbLine
 62
250
  6
CONTINUOUS
 10
12.9610005655
 20
-2.5866270212
 11
12.6434424723
 21
-2.5282284652
  0
LINE
  5
373
100
AcDbEntity
  8
0
100
AcDbLine
 62
250
  6
CONTINUOUS
 10
3.4342571957
 20
-2.8388236737
 11
3.0571569599
 21
-2.692704188
  0
LINE
  5
374
100
AcDbEntity
  8
RACCORDO
100
AcDbLine
 62
250
  6
CONTINUOUS
 10
-5.9871628139
 20
2.7802111277
 11
-20.8383192513
 21
13.281564553
  0
LINE
  5
375
100
AcDbEntity
  8
DRAFT
100
AcDbLine
 62
7
  6
CONTINUOUS
 10
0.5116151122
 20
-0.2326777127
 11
1.598374382
 21
-1.0011325619
  0
LWPOLYLINE
  5
376
100
AcDbEntity
  8
RACCORDO
100
AcDbPolyline
 62
7
  6
CONTINUOUS
 90
13
 70
0
 10
0.5377142102
 20
9.8858261658
 10
0.536112484
 20
9.9099006496
 10
0.5315214158
 20
9.9357065711
 10
0.5240230598
 20
9.9628058209
 10
0.5137495163
 20
9.9907390204
 10
0.5008770631
 20
10.019028552
 10
0.485623671
 20
10.0471866635
 10
0.468247924
 20
10.0747299766
 10
0.4490494489
 20
10.1011889441
 10
0.4283609095
 20
10.1261113264
 10
0.4065359988
 20
10.1490700241
 10
0.3839430626
 20
10.1696701008
 10
0.3609644388
 20
10.187556899
  0
LWPOLYLINE
  5
377
100
AcDbEntity
  8
RACCORDO
100
AcDbPolyline
 62
250
  6
CONTINUOUS
 90
13
 70
0
 10
1.0649453611
 20
10.2605373017
 10
1.0636808232
 20
10.2842650862
 10
1.0594786109
 20
10.3098134634
 10
1.0523487603
 20
10.3367881252
 10
1.0423273566
 20
10.3648199958
 10
1.0295433777
 20
10.393380091
 10
1.0142773812
 20
10.4217845684
 10
0.9968342713
 20
10.4494816014
 10
0.9774856114
 20
10.4760535048
 10
0.956572534
 20
10.5010336153
 10
0.9344600258
 20
10.5239897139
 10
0.9115288719
 20
10.5445300309
 10
0.888175397
 20
10.5623025062
  0
LINE
  5
378
100
AcDbEntity
  8
DRAFT
100
AcDbLine
 62
7
  6
CONTINUOUS
 10
0.5116151122
 20
-13.7640360638
 11
0.5116151122
 21
-15.7890268988
  0
LINE
  5
379
100
AcDbEntity
  8
DRAFT
100
AcDbLine
 62
7
  6
CONTINUOUS
 10
0.5116151122
 20
-0.2326777127
 11
0.5116151122
 21
1.7923131223
  0
LINE
  5
37A
100
AcDbEntity
  8
RACCORDO
100
AcDbLine
 62
7
  6
CONTINUOUS
 10
0.5377142102
 20
-23.3377068734
 11
0.5377142102
 21
-24.4088863769
  0
LINE
  5
37B
100
AcDbEntity
  8
RACCORDO
100
AcDbLine
 62
7
  6
CONTINUOUS
 10
0.5377142102
 20
8.5774324709
 11
0.5377142102
 21
9.8858059729
  0
LINE
  5
37C
100
AcDbEntity
  8
DRAFT
100
AcDbLine
 62
7
  6
CONTINUOUS
 10
0.5458084998
 20
-0.2568560889
 11
0.5458084998
 21
1.8156619088
  0
LINE
  5
37D
100
AcDbEntity
  8
ASSI
100
AcDbLine
 62
7
  6
CONTINUOUS
 10
0.5458084998
 20
-0.2568560889
 11
0.5458084998
 21
1.8156619088
  0
LINE
  5
37E
100
AcDbEntity
  8
RACCORDO
100
AcDbLine
 62
7
  6
CONTINUOUS
 10
0.7579405341
 20
-15.963205275
 11
0.7579405341
 21
-13.5958339611
  0
LINE
  5
37F
100
AcDbEntity
  8
ASSI
100
AcDbLine
 62
7
  6
CONTINUOUS
 10
0.7579405341
 20
-15.963205275
 11
0.7579405341
 21
-13.5958339611
  0
LINE
  5
380
100
AcDbEntity
  8
RACCORDO
100
AcDbLine
 62
250
  6
CONTINUOUS
 10
1.0649453611
 20
-24.024871882
 11
1.0649453611
 21
-23.7426600769
  0
LINE
  5
381
100
AcDbEntity
  8
RACCORDO
100
AcDbLine
 62
250
  6
CONTINUOUS
 10
1.0649453611
 20
9.9783254965
 11
1.0649453611
 21
10.2605373017
  0
LINE
  5
382
100
AcDbEntity
  8
RACCORDO
100
AcDbLine
 62
7
  6
CONTINUOUS
 10
1.1366327489
 20
-23.9009674586
 11
1.1366327489
 21
-23.6187556535
  0
LINE
  5
383
100
AcDbEntity
  8
RACCORDO
100
AcDbLine
 62
7
  6
CONTINUOUS
 10
1.1366327489
 20
10.10222992
 11
1.1366327489
 21
10.3844417251
  0
LINE
  5
384
100
AcDbEntity
  8
RACCORDO
100
AcDbLine
 62
250
  6
CONTINUOUS
 10
1.436111742
 20
16.467413705
 11
1.436111742
 21
15.4823066832
  0
LINE
  5
385
100
AcDbEntity
  8
RACCORDO
100
AcDbLine
 62
7
  6
CONTINUOUS
 10
1.5556586973
 20
16.5573638171
 11
1.5556586973
 21
15.6871348634
  0
LINE
  5
386
100
AcDbEntity
  8
ASSI
100
AcDbLine
 62
7
  6
CONTINUOUS
 10
1.598374382
 20
5.4842380305
 11
1.598374382
 21
-19.5073184344
  0
LINE
  5
387
100
AcDbEntity
  8
DRAFT
100
AcDbLine
 62
7
  6
CONTINUOUS
 10
1.598374382
 20
-13.0219478421
 11
1.598374382
 21
-1.0011325619
  0
LINE
  5
388
100
AcDbEntity
  8
RACCORDO
100
AcDbLine
 62
7
  6
CONTINUOUS
 10
1.598374382
 20
-22.4909405719
 11
1.598374382
 21
8.467860168
  0
LINE
  5
389
100
AcDbEntity
  8
RACCORDO
100
AcDbLine
 62
250
  6
CONTINUOUS
 10
1.1366326999
 20
-23.6188663145
 11
1.1366327489
 21
-23.6187556535
  0
LWPOLYLINE
  5
38A
100
AcDbEntity
  8
RACCORDO
100
AcDbPolyline
 62
250
  6
CONTINUOUS
 90
10
 70
0
 10
-0.7151778284
 20
-24.1237320964
 10
-0.716424179
 20
-24.1451071844
 10
-0.720128327
 20
-24.1678190933
 10
-0.7262374401
 20
-24.1915564626
 10
-0.7346702696
 20
-24.2159857092
 10
-0.7453088218
 20
-24.2407810221
 10
-0.7580043006
 20
-24.2656294674
 10
-0.7725893566
 20
-24.2902000051
 10
-0.7888760526
 20
-24.3141475252
 10
-0.8066518248
 20
-24.3371433222
  0
LWPOLYLINE
  5
38B
100
AcDbEntity
  8
RACCORDO
100
AcDbPolyline
 62
250
  6
CONTINUOUS
 90
6
 70
0
 10
1.0649453611
 20
-24.024871882
 10
1.0636080677
 20
-24.0468238563
 10
1.0592166576
 20
-24.06626591
 10
1.0518440957
 20
-24.0828600079
 10
1.0416138105
 20
-24.0963179716
 10
1.0338601001
 20
-24.1030172034
  0
LWPOLYLINE
  5
38C
100
AcDbEntity
  8
RACCORDO
100
AcDbPolyline
 62
7
  6
CONTINUOUS
 90
6
 70
0
 10
0.5377142102
 20
-24.4089065697
 10
0.536112484
 20
-24.430966688
 10
0.5315214158
 20
-24.4505078607
 10
0.5240230598
 20
-24.4671926593
 10
0.5137495163
 20
-24.4807322973
 10
0.5056873363
 20
-24.4877174551
  0
LWPOLYLINE
  5
38D
100
AcDbEntity
  8
RACCORDO
100
AcDbPolyline
 62
250
  6
CONTINUOUS
 90
6
 70
0
 10
-1.0841859165
 20
-25.4885884031
 10
-1.0860942264
 20
-25.5109314989
 10
-1.0909656196
 20
-25.5307017731
 10
-1.0987184021
 20
-25.5475559628
 10
-1.109222021
 20
-25.5612017186
 10
-1.1193162803
 20
-25.5695322753
  0
LWPOLYLINE
  5
38E
100
AcDbEntity
  8
0
100
AcDbPolyline
 62
250
  6
CONTINUOUS
 90
17
 70
0
 10
4.3770078638
 20
0.6799142507
 10
4.6468608996
 20
0.9044423535
 10
4.9064353171
 20
1.1742852059
 10
5.1458440074
 20
1.4791645774
 10
5.3594031525
 20
1.8134676134
 10
5.5315084984
 20
2.152767594
 10
5.6596392738
 20
2.4898340035
 10
5.7389150173
 20
2.8118280872
 10
5.7663246047
 20
3.1114279147
 10
5.7398652832
 20
3.3667424461
 10
5.661495146
 20
3.5735834815
 10
5.5341992874
 20
3.7240725101
 10
5.3594031525
 20
3.8134676134
 10
5.1498786753
 20
3.8352369058
 10
4.910915789
 20
3.7906878938
 10
4.6516165157
 20
3.6815174355
 10
4.3770077423
 20
3.5083412865
  0
LINE
  5
38F
100
AcDbEntity
  8
0
100
AcDbLine
 62
250
  6
CONTINUOUS
 10
11.5386048731
 20
6.3844831577
 11
11.5650680476
 21
6.4038603014
  0
LINE
  5
390
100
AcDbEntity
  8
0
100
AcDbLine
 62
250
  6
CONTINUOUS
 10
11.5650680476
 20
6.306886027
 11
11.5386048731
 21
6.2875088834
  0
LINE
  5
391
100
AcDbEntity
  8
0
100
AcDbLine
 62
250
  6
CONTINUOUS
 10
11.591531222
 20
5.526221523
 11
10.9564150106
 21
5.0611700576
  0
LINE
  5
392
100
AcDbEntity
  8
DRAFT
100
AcDbLine
 62
7
  6
CONTINUOUS
 10
-0.1870702405
 20
-0.7181745303
 11
0.5116151122
 21
-0.2326777127
  0
LINE
  5
393
100
AcDbEntity
  8
DRAFT
100
AcDbLine
 62
7
  6
CONTINUOUS
 10
1.598374382
 20
-1.0011325619
 11
-0.1870702405
 21
-2.2203146401
  0
LINE
  5
394
100
AcDbEntity
  8
0
100
AcDbLine
 62
250
  6
CONTINUOUS
 10
11.5386048731
 20
5.0510820301
 11
11.485678516
 21
5.0365713054
  0
LINE
  5
395
100
AcDbEntity
  8
0
100
AcDbLine
 62
250
  6
CONTINUOUS
 10
11.5650680476
 20
5.1674344192
 11
11.6179944006
 21
5.1819451409
  0
LINE
  5
396
100
AcDbEntity
  8
0
100
AcDbLine
 62
250
  6
CONTINUOUS
 10
10.6653200586
 20
3.3449153456
 11
11.6444575771
 21
3.4800221189
  0
LINE
  5
397
100
AcDbEntity
  8
0
100
AcDbLine
 62
250
  6
CONTINUOUS
 10
12.9610005655
 20
-2.0047789474
 11
12.6434424723
 21
-1.9463803914
  0
LINE
  5
398
100
AcDbEntity
  8
0
100
AcDbLine
 62
250
  6
CONTINUOUS
 10
12.8022215189
 20
-1.4664630297
 11
12.6434424723
 21
-1.437263509
  0
LINE
  5
399
100
AcDbEntity
  8
0
100
AcDbLine
 62
250
  6
CONTINUOUS
 10
13.5961168018
 20
-0.5214941844
 11
13.754895865
 21
-0.5506927219
  0
LINE
  5
39A
100
AcDbEntity
  8
RACCORDO
100
AcDbLine
 62
250
  6
CONTINUOUS
 10
-4.9712203067
 20
4.4977500314
 11
-19.845749222
 21
15.0156302944
  0
LINE
  5
39B
100
AcDbEntity
  8
0
100
AcDbLine
 62
250
  6
CONTINUOUS
 10
11.0358045008
 20
-6.0327818415
 11
10.9564150106
 21
-5.9696949197
  0
LINE
  5
39C
100
AcDbEntity
  8
0
100
AcDbLine
 62
250
  6
CONTINUOUS
 10
3.0571569599
 20
5.1910313396
 11
3.0571569599
 21
4.8743485138
  0
LINE
  5
39D
100
AcDbEntity
  8
0
100
AcDbLine
 62
250
  6
CONTINUOUS
 10
4.3770078638
 20
6.3685883054
 11
4.3770078638
 21
5.629661719
  0
LINE
  5
39E
100
AcDbEntity
  8
0
100
AcDbLine
 62
250
  6
CONTINUOUS
 10
4.3770078638
 20
-1.0878527023
 11
4.3770078638
 21
0.6799142507
  0
LINE
  5
39F
100
AcDbEntity
  8
0
100
AcDbLine
 62
250
  6
CONTINUOUS
 10
4.3770078638
 20
3.5083413755
 11
4.3770078638
 21
5.2761083284
  0
LINE
  5
3A0
100
AcDbEntity
  8
0
100
AcDbLine
 62
250
  6
CONTINUOUS
 10
3.3946125751
 20
0.3747880127
 11
5.3594031525
 21
3.8134676134
  0
LINE
  5
3A1
100
AcDbEntity
  8
0
100
AcDbLine
 62
250
  6
CONTINUOUS
 10
11.485678516
 20
6.3214852958
 11
11.5386048731
 21
6.3844831577
  0
LINE
  5
3A2
100
AcDbEntity
  8
0
100
AcDbLine
 62
250
  6
CONTINUOUS
 10
11.6179944006
 20
6.3698838859
 11
11.5650680476
 21
6.306886027
  0
LINE
  5
3A3
100
AcDbEntity
  8
RACCORDO
100
AcDbLine
 62
7
  6
CONTINUOUS
 10
-9.5245233669
 20
-11.0762120151
 11
-9.5297862954
 21
-11.0801473819
  0
LINE
  5
3A4
100
AcDbEntity
  8
0
100
AcDbLine
 62
250
  6
CONTINUOUS
 10
11.5386048731
 20
5.1480572755
 11
11.5650680476
 21
5.1674344192
  0
LINE
  5
3A5
100
AcDbEntity
  8
0
100
AcDbLine
 62
250
  6
CONTINUOUS
 10
11.5650680476
 20
5.0704591738
 11
11.5386048731
 21
5.0510820301
  0
LINE
  5
3A6
100
AcDbEntity
  8
0
100
AcDbLine
 62
250
  6
CONTINUOUS
 10
10.5594673609
 20
3.8977424675
 11
11.6709207536
 21
4.7115825488
  0
LINE
  5
3A7
100
AcDbEntity
  8
0
100
AcDbLine
 62
250
  6
CONTINUOUS
 10
11.591531222
 20
4.2170649351
 11
10.9564150106
 21
3.7520134696
  0
LINE
  5
3A8
100
AcDbEntity
  8
0
100
AcDbLine
 62
250
  6
CONTINUOUS
 10
3.0571569599
 20
-2.692704188
 11
4.3770078638
 21
-1.7262690915
  0
LINE
  5
3A9
100
AcDbEntity
  8
0
100
AcDbLine
 62
250
  6
CONTINUOUS
 10
11.5386048731
 20
3.0631016375
 11
11.5650680476
 21
3.0824787811
  0
LINE
  5
3AA
100
AcDbEntity
  8
0
100
AcDbLine
 62
250
  6
CONTINUOUS
 10
11.5650680476
 20
2.9855045068
 11
11.5386048731
 21
2.9661273631
  0
LWPOLYLINE
  5
3AB
100
AcDbEntity
  8
RACCORDO
100
AcDbPolyline
 62
7
  6
CONTINUOUS
 90
15
 70
0
 10
-9.5297862954
 20
-11.0801473819
 10
-9.5379228469
 20
-11.0854347332
 10
-9.5525258053
 20
-11.0928881706
 10
-9.5682707703
 20
-11.0985411559
 10
-9.5850900691
 20
-11.1023692998
 10
-9.6029113458
 20
-11.1043559699
 10
-9.6216592472
 20
-11.1044933344
 10
-9.6412533302
 20
-11.1027806867
 10
-9.6616093787
 20
-11.0992251371
 10
-9.6826409925
 20
-11.0938424515
 10
-9.7042580491
 20
-11.086655631
 10
-9.7263677093
 20
-11.0776952575
 10
-9.7488757862
 20
-11.0670000524
 10
-9.7716860018
 20
-11.0546158905
 10
-9.7847894595
 20
-11.0466333124
  0
LINE
  5
3AC
100
AcDbEntity
  8
0
100
AcDbLine
 62
250
  6
CONTINUOUS
 10
13.754895865
 20
3.3040492494
 11
12.6434424723
 21
2.7811329622
  0
LINE
  5
3AD
100
AcDbEntity
  8
0
100
AcDbLine
 62
250
  6
CONTINUOUS
 10
11.6709207536
 20
0.3962108322
 11
10.5594673609
 21
-0.126705455
  0
LINE
  5
3AE
100
AcDbEntity
  8
0
100
AcDbLine
 62
250
  6
CONTINUOUS
 10
11.5386048731
 20
6.2875088834
 11
11.485678516
 21
6.2729981586
  0
LINE
  5
3AF
100
AcDbEntity
  8
0
100
AcDbLine
 62
250
  6
CONTINUOUS
 10
11.5650680476
 20
6.4038603014
 11
11.6179944006
 21
6.4183710231
  0
LINE
  5
3B0
100
AcDbEntity
  8
0
100
AcDbLine
 62
250
  6
CONTINUOUS
 10
10.9564150106
 20
1.7397895084
 11
10.8770254542
 21
1.754388759
  0
LINE
  5
3B1
100
AcDbEntity
  8
0
100
AcDbLine
 62
250
  6
CONTINUOUS
 10
12.8022215189
 20
1.588238265
 11
12.6434424723
 21
1.6174377858
  0
LINE
  5
3B2
100
AcDbEntity
  8
0
100
AcDbLine
 62
250
  6
CONTINUOUS
 10
13.754895865
 20
1.776698602
 11
13.5961168018
 21
1.8058981106
  0
LINE
  5
3B3
100
AcDbEntity
  8
0
100
AcDbLine
 62
250
  6
CONTINUOUS
 10
5.3594031525
 20
1.8134676134
 11
3.3946125751
 21
2.3747880127
  0
LINE
  5
3B4
100
AcDbEntity
  8
0
100
AcDbLine
 62
250
  6
CONTINUOUS
 10
13.1197796122
 20
-4.5068316892
 11
13.040390122
 21
-4.4437447673
  0
LWPOLYLINE
  5
3B5
100
AcDbEntity
  8
RACCORDO
100
AcDbPolyline
 62
250
  6
CONTINUOUS
 90
3
 70
0
 10
-2.7037312857
 20
9.3382552798
 10
-2.693452635
 20
9.3277202381
 10
-2.690095428
 20
9.3251724505
  0
LWPOLYLINE
  5
3B6
100
AcDbEntity
  8
RACCORDO
100
AcDbPolyline
 62
250
  6
CONTINUOUS
 90
5
 70
0
 10
-12.2993728033
 20
19.4283254965
 10
-12.289485875
 20
19.417657789
 10
-12.2828012537
 20
19.4092798919
 10
-12.2794326815
 20
19.4033343593
 10
-12.2794168085
 20
19.3999487346
  0
LWPOLYLINE
  5
3B7
100
AcDbEntity
  8
RACCORDO
100
AcDbPolyline
 62
250
  6
CONTINUOUS
 90
4
 70
0
 10
-0.7277504981
 20
8.4281227798
 10
-0.7261893592
 20
8.4256513089
 10
-0.7201028809
 20
8.4099917734
 10
-0.7164166353
 20
8.3921976231
  0
LINE
  5
3B8
100
AcDbEntity
  8
RACCORDO
100
AcDbLine
 62
250
  6
CONTINUOUS
 10
6.1540871409
 20
14.3430212809
 11
6.1540871409
 21
14.1130190512
  0
LINE
  5
3B9
100
AcDbEntity
  8
RACCORDO
100
AcDbLine
 62
7
  6
CONTINUOUS
 10
6.2944172407
 20
14.6857243776
 11
6.2944172407
 21
14.3607457424
  0
LINE
  5
3BA
100
AcDbEntity
  8
0
100
AcDbLine
 62
250
  6
CONTINUOUS
 10
11.6709207536
 20
5.6570856079
 11
11.591531222
 21
5.526221523
  0
LINE
  5
3BB
100
AcDbEntity
  8
0
100
AcDbLine
 62
250
  6
CONTINUOUS
 10
11.485678516
 20
5.0850594136
 11
11.5386048731
 21
5.1480572755
  0
LINE
  5
3BC
100
AcDbEntity
  8
0
100
AcDbLine
 62
250
  6
CONTINUOUS
 10
11.6179944006
 20
5.1334570327
 11
11.5650680476
 21
5.0704591738
  0
LINE
  5
3BD
100
AcDbEntity
  8
0
100
AcDbLine
 62
250
  6
CONTINUOUS
 10
11.485678516
 20
3.0001037756
 11
11.5386048731
 21
3.0631016375
  0
LINE
  5
3BE
100
AcDbEntity
  8
0
100
AcDbLine
 62
250
  6
CONTINUOUS
 10
11.6179944006
 20
3.0485023657
 11
11.5650680476
 21
2.9855045068
  0
LINE
  5
3BF
100
AcDbEntity
  8
0
100
AcDbLine
 62
250
  6
CONTINUOUS
 10
11.591531222
 20
2.2048409739
 11
10.9564150106
 21
1.7397895084
  0
LINE
  5
3C0
100
AcDbEntity
  8
0
100
AcDbLine
 62
250
  6
CONTINUOUS
 10
11.5386048731
 20
1.8266757553
 11
11.5650680476
 21
1.8460528989
  0
LINE
  5
3C1
100
AcDbEntity
  8
0
100
AcDbLine
 62
250
  6
CONTINUOUS
 10
11.5650680476
 20
1.7490776535
 11
11.5386048731
 21
1.7297005099
  0
LINE
  5
3C2
100
AcDbEntity
  8
0
100
AcDbLine
 62
250
  6
CONTINUOUS
 10
11.6709207536
 20
1.3902000574
 11
11.0358045008
 21
0.9251485616
  0
LINE
  5
3C3
100
AcDbEntity
  8
0
100
AcDbLine
 62
250
  6
CONTINUOUS
 10
12.9610005655
 20
2.1408873035
 11
13.4373377386
 21
2.4896759132
  0
LINE
  5
3C4
100
AcDbEntity
  8
0
100
AcDbLine
 62
250
  6
CONTINUOUS
 10
11.591531222
 20
0.8956834148
 11
11.3533626272
 21
0.7212891039
  0
LINE
  5
3C5
100
AcDbEntity
  8
0
100
AcDbLine
 62
250
  6
CONTINUOUS
 10
13.4373377386
 20
1.9805590308
 11
12.9610005655
 21
1.6317704211
  0
LINE
  5
3C6
100
AcDbEntity
  8
0
100
AcDbLine
 62
250
  6
CONTINUOUS
 10
13.5961168018
 20
1.8058981106
 11
13.2785586919
 21
1.5733723748
  0
LINE
  5
3C7
100
AcDbEntity
  8
0
100
AcDbLine
 62
250
  6
CONTINUOUS
 10
13.1197796122
 20
1.0207233121
 11
12.6434424723
 21
0.6719347266
  0
LINE
  5
3C8
100
AcDbEntity
  8
0
100
AcDbLine
 62
250
  6
CONTINUOUS
 10
11.4327521671
 20
-0.8691489144
 11
10.5594673609
 21
-1.2904016025
  0
LWPOLYLINE
  5
3C9
100
AcDbEntity
  8
RACCORDO
100
AcDbPolyline
 62
7
  6
CONTINUOUS
 90
16
 70
0
 10
14.90762972
 20
-0.7193173886
 10
14.9001876564
 20
-0.7224572787
 10
14.8928728852
 20
-0.7252735365
 10
14.8856854065
 20
-0.7277661621
 10
14.8786171285
 20
-0.7299349333
 10
14.8716761429
 20
-0.7317800723
 10
14.8648867251
 20
-0.733302245
 10
14.8582525989
 20
-0.7344956706
 10
14.8517700405
 20
-0.7353661299
 10
14.8454521541
 20
-0.7359316314
 10
14.8393036756
 20
-0.7361872834
 10
14.8333198692
 20
-0.7361379774
 10
14.8274996318
 20
-0.7358163971
 10
14.8218425958
 20
-0.7352334369
 10
14.8163491287
 20
-0.7343782022
 10
14.8110192307
 20
-0.7332506932
  0
LWPOLYLINE
  5
3CA
100
AcDbEntity
  8
ASSI
100
AcDbPolyline
 62
7
  6
CONTINUOUS
 90
16
 70
0
 10
14.90762972
 20
-0.7193173886
 10
14.9001876564
 20
-0.7224572787
 10
14.8928728852
 20
-0.7252735365
 10
14.8856854065
 20
-0.7277661621
 10
14.8786171285
 20
-0.7299349333
 10
14.8716761429
 20
-0.7317800723
 10
14.8648867251
 20
-0.733302245
 10
14.8582525989
 20
-0.7344956706
 10
14.8517700405
 20
-0.7353661299
 10
14.8454521541
 20
-0.7359316314
 10
14.8393036756
 20
-0.7361872834
 10
14.8333198692
 20
-0.7361379774
 10
14.8274996318
 20
-0.7358163971
 10
14.8218425958
 20
-0.7352334369
 10
14.8163491287
 20
-0.7343782022
 10
14.8110192307
 20
-0.7332506932
  0
LINE
  5
3CB
100
AcDbEntity
  8
0
100
AcDbLine
 62
250
  6
CONTINUOUS
 10
3.0571569599
 20
4.8743485138
 11
3.3399821761
 21
4.8703198739
  0
LINE
  5
3CC
100
AcDbEntity
  8
0
100
AcDbLine
 62
250
  6
CONTINUOUS
 10
4.3770078638
 20
5.629661719
 11
3.4342571957
 21
5.6782775057
  0
LINE
  5
3CD
100
AcDbEntity
  8
0
100
AcDbLine
 62
250
  6
CONTINUOUS
 10
13.5961168018
 20
2.5332071104
 11
13.754895865
 21
2.5040085728
  0
LINE
  5
3CE
100
AcDbEntity
  8
0
100
AcDbLine
 62
250
  6
CONTINUOUS
 10
10.9564150106
 20
5.0611700576
 11
10.8770254542
 21
5.0757712503
  0
LINE
  5
3CF
100
AcDbEntity
  8
RACCORDO
100
AcDbLine
 62
7
  6
CONTINUOUS
 10
-15.566911856
 20
18.3769536488
 11
-0.5403545065
 21
7.7515730491
  0
LINE
  5
3D0
100
AcDbEntity
  8
RACCORDO
100
AcDbLine
 62
7
  6
CONTINUOUS
 10
-16.0544135925
 20
18.7751724505
 11
-14.7665062408
 21
17.8644844286
  0
LINE
  5
3D1
100
AcDbEntity
  8
RACCORDO
100
AcDbLine
 62
7
  6
CONTINUOUS
 10
-2.690095428
 20
9.3251724505
 11
-1.4021880764
 21
8.4144844286
  0
LINE
  5
3D2
100
AcDbEntity
  8
RACCORDO
100
AcDbLine
 62
7
  6
CONTINUOUS
 10
-0.4165366183
 20
7.7338950362
 11
-0.7151778284
 21
7.945066261
  0
LINE
  5
3D3
100
AcDbEntity
  8
RACCORDO
100
AcDbLine
 62
7
  6
CONTINUOUS
 10
-2.7468395679
 20
9.3816680541
 11
-14.0794959928
 21
17.395066261
  0
LINE
  5
3D4
100
AcDbEntity
  8
RACCORDO
100
AcDbLine
 62
250
  6
CONTINUOUS
 10
-16.0868527205
 20
18.8542965957
 11
-14.7989453688
 21
17.9436085738
  0
LINE
  5
3D5
100
AcDbEntity
  8
RACCORDO
100
AcDbLine
 62
250
  6
CONTINUOUS
 10
-2.722534556
 20
9.4042965957
 11
-1.4346272044
 21
8.4936085738
  0
LINE
  5
3D6
100
AcDbEntity
  8
RACCORDO
100
AcDbLine
 62
250
  6
CONTINUOUS
 10
-16.0868527205
 20
19.1133454865
 11
-14.7989453688
 21
18.2026574646
  0
LINE
  5
3D7
100
AcDbEntity
  8
RACCORDO
100
AcDbLine
 62
250
  6
CONTINUOUS
 10
-2.722534556
 20
9.6633454865
 11
-1.4346272044
 21
8.7526574646
  0
LINE
  5
3D8
100
AcDbEntity
  8
RACCORDO
100
AcDbLine
 62
250
  6
CONTINUOUS
 10
-0.7151778284
 20
8.3725086057
 11
-0.7845572958
 21
8.4215672975
  0
LINE
  5
3D9
100
AcDbEntity
  8
RACCORDO
100
AcDbLine
 62
250
  6
CONTINUOUS
 10
-14.0794959928
 20
17.8225086057
 11
-14.1488754602
 21
17.8715672975
  0
LINE
  5
3DA
100
AcDbEntity
  8
RACCORDO
100
AcDbLine
 62
7
  6
CONTINUOUS
 10
-10.4515710838
 20
15.3359072536
 11
-4.9485884975
 21
11.4447109501
  0
LINE
  5
3DB
100
AcDbEntity
  8
RACCORDO
100
AcDbLine
 62
250
  6
CONTINUOUS
 10
-15.9131612039
 20
19.412913707
 11
-14.6252538522
 21
18.5022256851
  0
LINE
  5
3DC
100
AcDbEntity
  8
RACCORDO
100
AcDbLine
 62
250
  6
CONTINUOUS
 10
-2.5488430395
 20
9.962913707
 11
-1.2609356878
 21
9.0522256851
  0
LWPOLYLINE
  5
3DD
100
AcDbEntity
  8
RACCORDO
100
AcDbPolyline
 62
250
  6
CONTINUOUS
 90
6
 70
0
 10
1.0649453611
 20
-23.7426600769
 10
1.0748322894
 20
-23.7134724655
 10
1.0815169107
 20
-23.6826732014
 10
1.0848854829
 20
-23.6507863489
 10
1.0848806881
 20
-23.6183544786
 10
1.0815026079
 20
-23.5859294344
  0
LINE
  5
3DE
100
AcDbEntity
  8
0
100
AcDbLine
 62
250
  6
CONTINUOUS
 10
11.6709207536
 20
4.4206577836
 11
11.591531222
 21
4.2170649351
  0
LINE
  5
3DF
100
AcDbEntity
  8
0
100
AcDbLine
 62
250
  6
CONTINUOUS
 10
11.6709207536
 20
2.3357031166
 11
11.591531222
 21
2.2048409739
  0
LINE
  5
3E0
100
AcDbEntity
  8
0
100
AcDbLine
 62
250
  6
CONTINUOUS
 10
11.485678516
 20
1.7636769223
 11
11.5386048731
 21
1.8266757553
  0
LINE
  5
3E1
100
AcDbEntity
  8
0
100
AcDbLine
 62
250
  6
CONTINUOUS
 10
11.6179944006
 20
1.8120755124
 11
11.5650680476
 21
1.7490776535
  0
LINE
  5
3E2
100
AcDbEntity
  8
0
100
AcDbLine
 62
250
  6
CONTINUOUS
 10
11.0358045008
 20
0.9251485616
 11
10.8770254542
 21
0.7361549941
  0
LINE
  5
3E3
100
AcDbEntity
  8
0
100
AcDbLine
 62
250
  6
CONTINUOUS
 10
12.8022215189
 20
1.9518927649
 11
12.9610005655
 21
2.1408873035
  0
LINE
  5
3E4
100
AcDbEntity
  8
0
100
AcDbLine
 62
250
  6
CONTINUOUS
 10
13.5961168018
 20
2.1695526105
 11
13.4373377386
 21
1.9805590308
  0
LINE
  5
3E5
100
AcDbEntity
  8
0
100
AcDbLine
 62
250
  6
CONTINUOUS
 10
12.6434424723
 20
2.199285374
 11
13.754895865
 21
3.3040492494
  0
LINE
  5
3E6
100
AcDbEntity
  8
0
100
AcDbLine
 62
250
  6
CONTINUOUS
 10
10.5594673609
 20
-0.7085540143
 11
11.6709207536
 21
0.3962108322
  0
LINE
  5
3E7
100
AcDbEntity
  8
0
100
AcDbLine
 62
250
  6
CONTINUOUS
 10
12.9610005655
 20
0.6135366561
 11
12.8022215189
 21
0.4972737943
  0
LINE
  5
3E8
100
AcDbEntity
  8
0
100
AcDbLine
 62
250
  6
CONTINUOUS
 10
11.6709207536
 20
-0.3553427072
 11
11.1151940572
 21
-0.7622627478
  0
LINE
  5
3E9
100
AcDbEntity
  8
0
100
AcDbLine
 62
250
  6
CONTINUOUS
 10
10.8770254542
 20
-1.5669927613
 11
10.7182464075
 21
-1.6832556231
  0
LINE
  5
3EA
100
AcDbEntity
  8
0
100
AcDbLine
 62
250
  6
CONTINUOUS
 10
12.9610005655
 20
-0.9138139912
 11
13.4373377386
 21
-0.5650253815
  0
LINE
  5
3EB
100
AcDbEntity
  8
0
100
AcDbLine
 62
250
  6
CONTINUOUS
 10
13.4373377386
 20
-1.0741422639
 11
12.9610005655
 21
-1.4229308737
  0
LINE
  5
3EC
100
AcDbEntity
  8
0
100
AcDbLine
 62
250
  6
CONTINUOUS
 10
10.8770254542
 20
-3.0943434086
 11
10.7182464075
 21
-3.2106062705
  0
LINE
  5
3ED
100
AcDbEntity
  8
0
100
AcDbLine
 62
250
  6
CONTINUOUS
 10
12.6434424723
 20
-1.9463803914
 11
13.754895865
 21
-1.1325403102
  0
LINE
  5
3EE
100
AcDbEntity
  8
RACCORDO
100
AcDbLine
 62
7
  6
CONTINUOUS
 10
-1.2291908072
 20
8.3702567639
 11
-0.6896037752
 21
8.4325248967
  0
LINE
  5
3EF
100
AcDbEntity
  8
RACCORDO
100
AcDbLine
 62
250
  6
CONTINUOUS
 10
-1.0841859165
 20
8.4914460611
 11
-0.5445988845
 21
8.5537141939
  0
LWPOLYLINE
  5
3F0
100
AcDbEntity
  8
RACCORDO
100
AcDbPolyline
 62
250
  6
CONTINUOUS
 90
9
 70
0
 10
1.030918244
 20
10.5886026511
 10
1.0277778397
 20
10.590679751
 10
1.0126456044
 20
10.5975251399
 10
0.9953881557
 20
10.6007071847
 10
0.976270761
 20
10.6001901533
 10
0.9556268598
 20
10.5959848416
 10
0.933812824
 20
10.5881675106
 10
0.9112001564
 20
10.5768747591
 10
0.888175397
 20
10.5623025062
  0
LINE
  5
3F1
100
AcDbEntity
  8
RACCORDO
100
AcDbLine
 62
7
  6
CONTINUOUS
 10
-4.9485884975
 20
12.4346604437
 11
-10.4515710838
 21
16.3258567473
  0
LINE
  5
3F2
100
AcDbEntity
  8
RACCORDO
100
AcDbLine
 62
7
  6
CONTINUOUS
 10
-12.9332699216
 20
18.1030759254
 11
-10.5980176932
 21
16.451803239
  0
LINE
  5
3F3
100
AcDbEntity
  8
DRAFT
100
AcDbLine
 62
7
  6
CONTINUOUS
 10
-3.8817031722
 20
11.7026516966
 11
-2.0947594606
 21
10.4390916805
  0
LINE
  5
3F4
100
AcDbEntity
  8
DRAFT
100
AcDbLine
 62
7
  6
CONTINUOUS
 10
-3.8817031722
 20
12.6926011903
 11
-10.1042428467
 21
17.0926011903
  0
LINE
  5
3F5
100
AcDbEntity
  8
RACCORDO
100
AcDbLine
 62
7
  6
CONTINUOUS
 10
1.2447132812
 20
9.0715570318
 11
0.7039403452
 21
9.4539412419
  0
LINE
  5
3F6
100
AcDbEntity
  8
RACCORDO
100
AcDbLine
 62
7
  6
CONTINUOUS
 10
-11.4122826879
 20
18.021404711
 11
-12.6603778192
 21
18.9039412419
  0
LINE
  5
3F7
100
AcDbEntity
  8
RACCORDO
100
AcDbLine
 62
7
  6
CONTINUOUS
 10
-0.9825721005
 20
11.1375806967
 11
0.360944246
 21
10.1875711775
  0
LINE
  5
3F8
100
AcDbEntity
  8
RACCORDO
100
AcDbLine
 62
7
  6
CONTINUOUS
 10
-13.0033739184
 20
19.6375711775
 11
-14.3468902649
 21
20.5875806967
  0
LINE
  5
3F9
100
AcDbEntity
  8
DRAFT
100
AcDbLine
 62
7
  6
CONTINUOUS
 10
-3.8109924941
 20
13.6364303629
 11
-8.7607399624
 21
17.1364303629
  0
LINE
  5
3FA
100
AcDbEntity
  8
RACCORDO
100
AcDbLine
 62
250
  6
CONTINUOUS
 10
-13.8103759479
 20
20.9557478358
 11
-12.4761427675
 21
20.0123025062
  0
LINE
  5
3FB
100
AcDbEntity
  8
RACCORDO
100
AcDbLine
 62
250
  6
CONTINUOUS
 10
-0.4460577835
 20
11.5057478358
 11
0.888175397
 21
10.5623025062
  0
LINE
  5
3FC
100
AcDbEntity
  8
RACCORDO
100
AcDbLine
 62
7
  6
CONTINUOUS
 10
-13.6675810287
 20
20.9820111999
 11
-12.3333478483
 21
20.0385658703
  0
LINE
  5
3FD
100
AcDbEntity
  8
RACCORDO
100
AcDbLine
 62
7
  6
CONTINUOUS
 10
-0.3032628643
 20
11.5320111999
 11
1.0309703162
 21
10.5885658703
  0
LWPOLYLINE
  5
3FE
100
AcDbEntity
  8
RACCORDO
100
AcDbPolyline
 62
250
  6
CONTINUOUS
 90
5
 70
0
 10
1.0649453611
 20
9.9783254965
 10
1.0747742079
 20
9.9677245079
 10
1.0814571855
 20
9.9593648265
 10
1.0848607313
 20
9.953402497
 10
1.0849056681
 20
9.9499543728
  0
LINE
  5
3FF
100
AcDbEntity
  8
0
100
AcDbLine
 62
250
  6
CONTINUOUS
 10
11.3533626272
 20
0.7212891039
 11
11.2739731039
 21
0.8086190845
  0
LINE
  5
400
100
AcDbEntity
  8
0
100
AcDbLine
 62
250
  6
CONTINUOUS
 10
10.5594673609
 20
-1.9449798965
 11
10.5594673609
 21
-2.1631729848
  0
LINE
  5
401
100
AcDbEntity
  8
0
100
AcDbLine
 62
250
  6
CONTINUOUS
 10
10.5594673609
 20
-3.4723305438
 11
10.5594673609
 21
-3.6905241177
  0
LINE
  5
402
100
AcDbEntity
  8
0
100
AcDbLine
 62
250
  6
CONTINUOUS
 10
10.5594673609
 20
-6.381570427
 11
10.5594673609
 21
-6.6724942211
  0
LINE
  5
403
100
AcDbEntity
  8
0
100
AcDbLine
 62
250
  6
CONTINUOUS
 10
10.5594673609
 20
-7.1088799123
 11
10.5594673609
 21
-7.3270730006
  0
LINE
  5
404
100
AcDbEntity
  8
0
100
AcDbLine
 62
250
  6
CONTINUOUS
 10
10.5594673609
 20
-8.854423648
 11
10.5594673609
 21
-8.7816926995
  0
LINE
  5
405
100
AcDbEntity
  8
0
100
AcDbLine
 62
250
  6
CONTINUOUS
 10
10.5594673609
 20
-8.0543829714
 11
10.5594673609
 21
-7.9816520229
  0
LINE
  5
406
100
AcDbEntity
  8
0
100
AcDbLine
 62
250
  6
CONTINUOUS
 10
10.5594673609
 20
-5.9451842503
 11
10.5594673609
 21
-5.5087985592
  0
LINE
  5
407
100
AcDbEntity
  8
0
100
AcDbLine
 62
250
  6
CONTINUOUS
 10
10.8770254542
 20
0.7361549941
 11
10.8770254542
 21
0.3725004942
  0
LINE
  5
408
100
AcDbEntity
  8
0
100
AcDbLine
 62
250
  6
CONTINUOUS
 10
10.8770254542
 20
-10.6583655149
 11
10.8770254542
 21
-10.3674415387
  0
LINE
  5
409
100
AcDbEntity
  8
0
100
AcDbLine
 62
250
  6
CONTINUOUS
 10
10.8770254542
 20
-10.0037866747
 11
10.8770254542
 21
-9.7128627592
  0
LINE
  5
40A
100
AcDbEntity
  8
0
100
AcDbLine
 62
250
  6
CONTINUOUS
 10
10.8770254542
 20
1.754388759
 11
10.8770254542
 21
2.0453125531
  0
LINE
  5
40B
100
AcDbEntity
  8
0
100
AcDbLine
 62
250
  6
CONTINUOUS
 10
10.8770254542
 20
3.839343426
 11
10.8770254542
 21
4.1302681911
  0
LINE
  5
40C
100
AcDbEntity
  8
0
100
AcDbLine
 62
250
  6
CONTINUOUS
 10
10.8770254542
 20
5.0757712503
 11
10.8770254542
 21
5.3666940733
  0
LINE
  5
40D
100
AcDbEntity
  8
0
100
AcDbLine
 62
250
  6
CONTINUOUS
 10
11.0358045008
 20
-5.3054718707
 11
11.0358045008
 21
-5.5963956649
  0
LINE
  5
40E
100
AcDbEntity
  8
0
100
AcDbLine
 62
250
  6
CONTINUOUS
 10
11.0358045008
 20
-6.0327818415
 11
11.0358045008
 21
-6.1782437386
  0
LINE
  5
40F
100
AcDbEntity
  8
0
100
AcDbLine
 62
250
  6
CONTINUOUS
 10
11.1945835806
 20
-6.8620215291
 11
11.1945835806
 21
-6.5468541664
  0
LINE
  5
410
100
AcDbEntity
  8
0
100
AcDbLine
 62
250
  6
CONTINUOUS
 10
11.2739731039
 20
-2.5127624357
 11
11.2739731039
 21
-2.076376259
  0
LINE
  5
411
100
AcDbEntity
  8
0
100
AcDbLine
 62
250
  6
CONTINUOUS
 10
11.2739731039
 20
0.8086190845
 11
11.2739731039
 21
1.0995428786
  0
LINE
  5
412
100
AcDbEntity
  8
0
100
AcDbLine
 62
250
  6
CONTINUOUS
 10
11.3533626272
 20
-11.0853740662
 11
11.3533626272
 21
-10.6974754895
  0
LINE
  5
413
100
AcDbEntity
  8
0
100
AcDbLine
 62
250
  6
CONTINUOUS
 10
11.4327521671
 20
-0.360032032
 11
11.4327521671
 21
-0.8691489144
  0
LINE
  5
414
100
AcDbEntity
  8
0
100
AcDbLine
 62
250
  6
CONTINUOUS
 10
11.485678516
 20
-8.8065587952
 11
11.485678516
 21
-8.7580714153
  0
LINE
  5
415
100
AcDbEntity
  8
0
100
AcDbLine
 62
250
  6
CONTINUOUS
 10
11.485678516
 20
1.7151897851
 11
11.485678516
 21
1.7636769223
  0
LINE
  5
416
100
AcDbEntity
  8
0
100
AcDbLine
 62
250
  6
CONTINUOUS
 10
11.485678516
 20
2.9516166384
 11
11.485678516
 21
3.0001037756
  0
LINE
  5
417
100
AcDbEntity
  8
0
100
AcDbLine
 62
250
  6
CONTINUOUS
 10
11.485678516
 20
5.0365713054
 11
11.485678516
 21
5.0850594136
  0
LINE
  5
418
100
AcDbEntity
  8
0
100
AcDbLine
 62
250
  6
CONTINUOUS
 10
11.485678516
 20
6.2729981586
 11
11.485678516
 21
6.3214852958
  0
LINE
  5
419
100
AcDbEntity
  8
0
100
AcDbLine
 62
250
  6
CONTINUOUS
 10
11.6179944006
 20
6.4183710231
 11
11.6179944006
 21
6.3698838859
  0
LINE
  5
41A
100
AcDbEntity
  8
0
100
AcDbLine
 62
250
  6
CONTINUOUS
 10
11.6179944006
 20
5.1819451409
 11
11.6179944006
 21
5.1334570327
  0
LINE
  5
41B
100
AcDbEntity
  8
0
100
AcDbLine
 62
250
  6
CONTINUOUS
 10
11.6179944006
 20
3.0969895028
 11
11.6179944006
 21
3.0485023657
  0
LINE
  5
41C
100
AcDbEntity
  8
0
100
AcDbLine
 62
250
  6
CONTINUOUS
 10
11.6179944006
 20
1.8605626496
 11
11.6179944006
 21
1.8120755124
  0
LINE
  5
41D
100
AcDbEntity
  8
0
100
AcDbLine
 62
250
  6
CONTINUOUS
 10
11.6179944006
 20
-8.661185688
 11
11.6179944006
 21
-8.709673068
  0
LINE
  5
41E
100
AcDbEntity
  8
0
100
AcDbLine
 62
250
  6
CONTINUOUS
 10
11.6709207536
 20
5.9480084309
 11
11.6709207536
 21
5.6570856079
  0
LINE
  5
41F
100
AcDbEntity
  8
0
100
AcDbLine
 62
250
  6
CONTINUOUS
 10
11.6709207536
 20
4.7115825488
 11
11.6709207536
 21
4.4206577836
  0
LINE
  5
420
100
AcDbEntity
  8
0
100
AcDbLine
 62
250
  6
CONTINUOUS
 10
11.6709207536
 20
2.6266269107
 11
11.6709207536
 21
2.3357031166
  0
LINE
  5
421
100
AcDbEntity
  8
0
100
AcDbLine
 62
250
  6
CONTINUOUS
 10
11.6709207536
 20
1.3902000574
 11
11.6709207536
 21
1.0992762633
  0
LINE
  5
422
100
AcDbEntity
  8
0
100
AcDbLine
 62
250
  6
CONTINUOUS
 10
11.6709207536
 20
-0.9856784037
 11
11.6709207536
 21
-1.4947952861
  0
LINE
  5
423
100
AcDbEntity
  8
0
100
AcDbLine
 62
250
  6
CONTINUOUS
 10
11.6709207536
 20
-2.513029051
 11
11.6709207536
 21
-3.0221459335
  0
LINE
  5
424
100
AcDbEntity
  8
0
100
AcDbLine
 62
250
  6
CONTINUOUS
 10
11.6709207536
 20
-7.1678119416
 11
11.6709207536
 21
-7.2405428902
  0
LINE
  5
425
100
AcDbEntity
  8
0
100
AcDbLine
 62
250
  6
CONTINUOUS
 10
11.6709207536
 20
-7.9678526182
 11
11.6709207536
 21
-8.0405835667
  0
LINE
  5
426
100
AcDbEntity
  8
0
100
AcDbLine
 62
250
  6
CONTINUOUS
 10
11.6709207536
 20
-5.8586541399
 11
11.6709207536
 21
-5.4949991545
  0
LINE
  5
427
100
AcDbEntity
  8
0
100
AcDbLine
 62
250
  6
CONTINUOUS
 10
11.6709207536
 20
-5.1313441691
 11
11.6709207536
 21
-4.8404203749
  0
LINE
  5
428
100
AcDbEntity
  8
0
100
AcDbLine
 62
250
  6
CONTINUOUS
 10
11.6709207536
 20
1.0992762633
 11
11.591531222
 21
0.8956834148
  0
LINE
  5
429
100
AcDbEntity
  8
0
100
AcDbLine
 62
250
  6
CONTINUOUS
 10
13.3314850408
 20
3.7455684663
 11
13.490264104
 21
4.05578086
  0
LINE
  5
42A
100
AcDbEntity
  8
0
100
AcDbLine
 62
250
  6
CONTINUOUS
 10
12.6434424723
 20
1.6901684915
 11
12.8022215189
 21
1.9518927649
  0
LINE
  5
42B
100
AcDbEntity
  8
0
100
AcDbLine
 62
250
  6
CONTINUOUS
 10
10.7182464075
 20
-1.6832556231
 11
10.5594673609
 21
-1.9449798965
  0
LINE
  5
42C
100
AcDbEntity
  8
0
100
AcDbLine
 62
250
  6
CONTINUOUS
 10
13.754895865
 20
2.431277867
 11
13.5961168018
 21
2.1695526105
  0
LINE
  5
42D
100
AcDbEntity
  8
0
100
AcDbLine
 62
250
  6
CONTINUOUS
 10
13.2785586919
 20
1.5733723748
 11
13.1197796122
 21
1.3116471062
  0
LINE
  5
42E
100
AcDbEntity
  8
0
100
AcDbLine
 62
250
  6
CONTINUOUS
 10
12.8022215189
 20
0.4972737943
 11
12.6434424723
 21
0.2355485499
  0
LINE
  5
42F
100
AcDbEntity
  8
0
100
AcDbLine
 62
250
  6
CONTINUOUS
 10
10.7182464075
 20
-3.2106062705
 11
10.5594673609
 21
-3.4723305438
  0
LINE
  5
430
100
AcDbEntity
  8
0
100
AcDbLine
 62
250
  6
CONTINUOUS
 10
12.6434424723
 20
-1.3645328032
 11
12.8022215189
 21
-1.1028085299
  0
LINE
  5
431
100
AcDbEntity
  8
0
100
AcDbLine
 62
250
  6
CONTINUOUS
 10
12.8022215189
 20
-1.1028085299
 11
12.9610005655
 21
-0.9138139912
  0
LINE
  5
432
100
AcDbEntity
  8
0
100
AcDbLine
 62
250
  6
CONTINUOUS
 10
13.5961168018
 20
-0.8851486842
 11
13.4373377386
 21
-1.0741422639
  0
LINE
  5
433
100
AcDbEntity
  8
DRAFT
100
AcDbLine
 62
7
  6
CONTINUOUS
 10
15.174871409
 20
-1.9431713553
 11
16.2796954734
 21
-0.9813957593
  0
LINE
  5
434
100
AcDbEntity
  8
ASSI
100
AcDbLine
 62
7
  6
CONTINUOUS
 10
15.174871409
 20
-1.9431713553
 11
16.2796954734
 21
-0.9813957593
  0
LINE
  5
435
100
AcDbEntity
  8
0
100
AcDbLine
 62
250
  6
CONTINUOUS
 10
12.6434424723
 20
-2.5282284652
 11
13.754895865
 21
-1.7143883839
  0
LINE
  5
436
100
AcDbEntity
  8
0
100
AcDbLine
 62
250
  6
CONTINUOUS
 10
10.5594673609
 20
-4.1269098089
 11
11.6709207536
 21
-3.3130697276
  0
LINE
  5
437
100
AcDbEntity
  8
0
100
AcDbLine
 62
250
  6
CONTINUOUS
 10
13.5961168018
 20
-3.2125400082
 11
13.2785586919
 21
-3.4450657439
  0
LINE
  5
438
100
AcDbEntity
  8
0
100
AcDbLine
 62
250
  6
CONTINUOUS
 10
11.5121416904
 20
-4.8112213518
 11
11.1945835806
 21
-5.0437470876
  0
LINE
  5
439
100
AcDbEntity
  8
0
100
AcDbLine
 62
250
  6
CONTINUOUS
 10
11.0358045008
 20
-5.5963956649
 11
10.5594673609
 21
-5.9451842503
  0
LINE
  5
43A
100
AcDbEntity
  8
0
100
AcDbLine
 62
250
  6
CONTINUOUS
 10
13.1991691686
 20
-4.0123140573
 11
13.5961168018
 21
-3.7216568906
  0
LINE
  5
43B
100
AcDbEntity
  8
0
100
AcDbLine
 62
250
  6
CONTINUOUS
 10
13.6755063334
 20
-3.9544497333
 11
13.2785586919
 21
-4.245106906
  0
LINE
  5
43C
100
AcDbEntity
  8
0
100
AcDbLine
 62
250
  6
CONTINUOUS
 10
11.591531222
 20
-5.4803998857
 11
11.1945835806
 21
-5.7710570584
  0
LINE
  5
43D
100
AcDbEntity
  8
0
100
AcDbLine
 62
250
  6
CONTINUOUS
 10
13.040390122
 20
-4.4437447673
 11
12.8022215189
 21
-4.6181390843
  0
LINE
  5
43E
100
AcDbEntity
  8
0
100
AcDbLine
 62
250
  6
CONTINUOUS
 10
10.9564150106
 20
-5.9696949197
 11
10.7182464075
 21
-6.1440892367
  0
LWPOLYLINE
  5
43F
100
AcDbEntity
  8
RACCORDO
100
AcDbPolyline
 62
250
  6
CONTINUOUS
 90
54
 70
0
 10
14.9076287618
 20
-1.9446064124
 10
14.9137897926
 20
-1.9402419222
 10
14.9200197875
 20
-1.9359776774
 10
14.9263181909
 20
-1.9318128891
 10
14.9326754947
 20
-1.9277427268
 10
14.9390998724
 20
-1.9237702115
 10
14.9456169842
 20
-1.919905956
 10
14.9522339721
 20
-1.916141222
 10
14.9589413393
 20
-1.9124817247
 10
14.9657391696
 20
-1.9089590048
 10
14.9726348743
 20
-1.9055664196
 10
14.9796172501
 20
-1.9023059304
 10
14.9866577097
 20
-1.8992211194
 10
14.9937614602
 20
-1.8963093499
 10
15.0009178167
 20
-1.8935666838
 10
15.0080737682
 20
-1.8910341314
 10
15.0152204699
 20
-1.8887147404
 10
15.0223599694
 20
-1.8865974676
 10
15.0294553124
 20
-1.8847019323
 10
15.0364878553
 20
-1.8830286584
 10
15.043468449
 20
-1.8815680254
 10
15.0504037945
 20
-1.8803237682
 10
15.0572832513
 20
-1.879287677
 10
15.0641076962
 20
-1.878456474
 10
15.0708994845
 20
-1.8778393423
 10
15.0776576197
 20
-1.8774234042
 10
15.084369774
 20
-1.8772056504
 10
15.0910388135
 20
-1.8772070619
 10
15.0976647404
 20
-1.8774146042
 10
15.1042297701
 20
-1.8778198117
 10
15.1107075938
 20
-1.8784474973
 10
15.1170928412
 20
-1.8792848659
 10
15.1233689255
 20
-1.8803177166
 10
15.1294909566
 20
-1.8815665798
 10
15.1354375202
 20
-1.8830103452
 10
15.1412053832
 20
-1.8846391368
 10
15.1467735514
 20
-1.8864860756
 10
15.1521305267
 20
-1.8885211365
 10
15.1572550317
 20
-1.8907321518
 10
15.1621043482
 20
-1.8931700376
 10
15.1666667992
 20
-1.8957953887
 10
15.170909432
 20
-1.8985886569
 10
15.1747479153
 20
-1.9016179405
 10
15.1781673798
 20
-1.9048347453
 10
15.1811224871
 20
-1.9082056191
 10
15.1834728441
 20
-1.9118073617
 10
15.1851932653
 20
-1.9155888628
 10
15.186232687
 20
-1.919493499
 10
15.1864074775
 20
-1.9235833625
 10
15.1856662698
 20
-1.9278255504
 10
15.1839785985
 20
-1.9321311498
 10
15.1812086171
 20
-1.9365003009
 10
15.1772647749
 20
-1.9409539984
 10
15.1748252315
 20
-1.9432115538
  0
LWPOLYLINE
  5
440
100
AcDbEntity
  8
ASSI
100
AcDbPolyline
 62
250
  6
CONTINUOUS
 90
54
 70
0
 10
14.9076287618
 20
-1.9446064124
 10
14.9137897926
 20
-1.9402419222
 10
14.9200197875
 20
-1.9359776774
 10
14.9263181909
 20
-1.9318128891
 10
14.9326754947
 20
-1.9277427268
 10
14.9390998724
 20
-1.9237702115
 10
14.9456169842
 20
-1.919905956
 10
14.9522339721
 20
-1.916141222
 10
14.9589413393
 20
-1.9124817247
 10
14.9657391696
 20
-1.9089590048
 10
14.9726348743
 20
-1.9055664196
 10
14.9796172501
 20
-1.9023059304
 10
14.9866577097
 20
-1.8992211194
 10
14.9937614602
 20
-1.8963093499
 10
15.0009178167
 20
-1.8935666838
 10
15.0080737682
 20
-1.8910341314
 10
15.0152204699
 20
-1.8887147404
 10
15.0223599694
 20
-1.8865974676
 10
15.0294553124
 20
-1.8847019323
 10
15.0364878553
 20
-1.8830286584
 10
15.043468449
 20
-1.8815680254
 10
15.0504037945
 20
-1.8803237682
 10
15.0572832513
 20
-1.879287677
 10
15.0641076962
 20
-1.878456474
 10
15.0708994845
 20
-1.8778393423
 10
15.0776576197
 20
-1.8774234042
 10
15.084369774
 20
-1.8772056504
 10
15.0910388135
 20
-1.8772070619
 10
15.0976647404
 20
-1.8774146042
 10
15.1042297701
 20
-1.8778198117
 10
15.1107075938
 20
-1.8784474973
 10
15.1170928412
 20
-1.8792848659
 10
15.1233689255
 20
-1.8803177166
 10
15.1294909566
 20
-1.8815665798
 10
15.1354375202
 20
-1.8830103452
 10
15.1412053832
 20
-1.8846391368
 10
15.1467735514
 20
-1.8864860756
 10
15.1521305267
 20
-1.8885211365
 10
15.1572550317
 20
-1.8907321518
 10
15.1621043482
 20
-1.8931700376
 10
15.1666667992
 20
-1.8957953887
 10
15.170909432
 20
-1.8985886569
 10
15.1747479153
 20
-1.9016179405
 10
15.1781673798
 20
-1.9048347453
 10
15.1811224871
 20
-1.9082056191
 10
15.1834728441
 20
-1.9118073617
 10
15.1851932653
 20
-1.9155888628
 10
15.186232687
 20
-1.919493499
 10
15.1864074775
 20
-1.9235833625
 10
15.1856662698
 20
-1.9278255504
 10
15.1839785985
 20
-1.9321311498
 10
15.1812086171
 20
-1.9365003009
 10
15.1772647749
 20
-1.9409539984
 10
15.1748252315
 20
-1.9432115538
  0
LINE
  5
441
100
AcDbEntity
  8
DRAFT
100
AcDbLine
 62
7
  6
CONTINUOUS
 10
1.598374382
 20
-13.0219478421
 11
-0.1870702405
 21
-14.2411299202
  0
LINE
  5
442
100
AcDbEntity
  8
0
100
AcDbLine
 62
250
  6
CONTINUOUS
 10
13.4373377386
 20
-4.9288847208
 11
13.1197796122
 21
-5.0886792774
  0
LINE
  5
443
100
AcDbEntity
  8
0
100
AcDbLine
 62
250
  6
CONTINUOUS
 10
11.3533626272
 20
-6.4548348732
 11
11.0358045008
 21
-6.6146294298
  0
LWPOLYLINE
  5
444
100
AcDbEntity
  8
RACCORDO
100
AcDbPolyline
 62
250
  6
CONTINUOUS
 90
9
 70
0
 10
-0.3032628643
 20
11.5320111999
 10
-0.3069636793
 20
11.534436429
 10
-0.3220562078
 20
11.5411136231
 10
-0.339273065
 20
11.5441828191
 10
-0.3583229251
 20
11.5435920833
 10
-0.3788834463
 20
11.5393514116
 10
-0.4006067247
 20
11.5315325603
 10
-0.4231251817
 20
11.5202678316
 10
-0.4460577835
 20
11.5057478358
  0
LWPOLYLINE
  5
445
100
AcDbEntity
  8
RACCORDO
100
AcDbPolyline
 62
250
  6
CONTINUOUS
 90
9
 70
0
 10
-12.3333478483
 20
20.0385658703
 10
-12.3370486633
 20
20.0409910995
 10
-12.3521411918
 20
20.0476682935
 10
-12.369358049
 20
20.0507374895
 10
-12.3884079092
 20
20.0501467538
 10
-12.4089684303
 20
20.0459060821
 10
-12.4306917087
 20
20.0380872307
 10
-12.4532101657
 20
20.0268225021
 10
-12.4761427675
 20
20.0123025062
  0
LWPOLYLINE
  5
446
100
AcDbEntity
  8
RACCORDO
100
AcDbPolyline
 62
250
  6
CONTINUOUS
 90
9
 70
0
 10
-13.6675810287
 20
20.9820111999
 10
-13.6712818437
 20
20.984436429
 10
-13.6863743722
 20
20.9911136231
 10
-13.7035912294
 20
20.9941828191
 10
-13.7226410896
 20
20.9935920833
 10
-13.7432016107
 20
20.9893514116
 10
-13.7649248892
 20
20.9815325603
 10
-13.7874433462
 20
20.9702678316
 10
-13.8103759479
 20
20.9557478358
  0
LWPOLYLINE
  5
447
100
AcDbEntity
  8
RACCORDO
100
AcDbPolyline
 62
7
  6
CONTINUOUS
 90
29
 70
0
 10
-5.0837847003
 20
17.6748342373
 10
-5.0887408708
 20
17.6782685667
 10
-5.0936647278
 20
17.6815406267
 10
-5.0985502913
 20
17.6846464634
 10
-5.1033917992
 20
17.6875821454
 10
-5.1081833168
 20
17.6903442488
 10
-5.1129187418
 20
17.6929298558
 10
-5.1175925705
 20
17.6953356858
 10
-5.1221992176
 20
17.6975588061
 10
-5.1267326234
 20
17.699597112
 10
-5.1311876318
 20
17.7014479232
 10
-5.13555904
 20
17.7031089195
 10
-5.1398409152
 20
17.7045788471
 10
-5.144028509
 20
17.7058556571
 10
-5.1481170543
 20
17.7069376639
 10
-5.1521008169
 20
17.7078244835
 10
-5.1559755038
 20
17.7085147204
 10
-5.1597368405
 20
17.7090073409
 10
-5.1633793733
 20
17.7093028398
 10
-5.1668993136
 20
17.7094004882
 10
-5.1702929209
 20
17.7092999102
 10
-5.1735550879
 20
17.7090024685
 10
-5.1766825698
 20
17.7085081048
 10
-5.1796721971
 20
17.7078170996
 10
-5.1825192669
 20
17.7069316584
 10
-5.1852211095
 20
17.7058523891
 10
-5.1877751567
 20
17.7045802189
 10
-5.1901771589
 20
17.7031181588
 10
-5.1908541894
 20
17.7026523543
  0
LWPOLYLINE
  5
448
100
AcDbEntity
  8
ASSI
100
AcDbPolyline
 62
7
  6
CONTINUOUS
 90
29
 70
0
 10
-5.0837847003
 20
17.6748342373
 10
-5.0887408708
 20
17.6782685667
 10
-5.0936647278
 20
17.6815406267
 10
-5.0985502913
 20
17.6846464634
 10
-5.1033917992
 20
17.6875821454
 10
-5.1081833168
 20
17.6903442488
 10
-5.1129187418
 20
17.6929298558
 10
-5.1175925705
 20
17.6953356858
 10
-5.1221992176
 20
17.6975588061
 10
-5.1267326234
 20
17.699597112
 10
-5.1311876318
 20
17.7014479232
 10
-5.13555904
 20
17.7031089195
 10
-5.1398409152
 20
17.7045788471
 10
-5.144028509
 20
17.7058556571
 10
-5.1481170543
 20
17.7069376639
 10
-5.1521008169
 20
17.7078244835
 10
-5.1559755038
 20
17.7085147204
 10
-5.1597368405
 20
17.7090073409
 10
-5.1633793733
 20
17.7093028398
 10
-5.1668993136
 20
17.7094004882
 10
-5.1702929209
 20
17.7092999102
 10
-5.1735550879
 20
17.7090024685
 10
-5.1766825698
 20
17.7085081048
 10
-5.1796721971
 20
17.7078170996
 10
-5.1825192669
 20
17.7069316584
 10
-5.1852211095
 20
17.7058523891
 10
-5.1877751567
 20
17.7045802189
 10
-5.1901771589
 20
17.7031181588
 10
-5.1908541894
 20
17.7026523543
  0
LINE
  5
449
100
AcDbEntity
  8
RACCORDO
100
AcDbLine
 62
7
  6
CONTINUOUS
 10
-1.5780265852
 20
15.195888901
 11
-5.0837847003
 21
17.6748342373
  0
LINE
  5
44A
100
AcDbEntity
  8
ASSI
100
AcDbLine
 62
7
  6
CONTINUOUS
 10
-1.5780265852
 20
15.195888901
 11
-5.0837847003
 21
17.6748342373
  0
LWPOLYLINE
  5
44B
100
AcDbEntity
  8
RACCORDO
100
AcDbPolyline
 62
7
  6
CONTINUOUS
 90
3
 70
0
 10
-3.9861588777
 20
20.4789688335
 10
-3.9843518625
 20
20.4770506548
 10
-3.983679671
 20
20.4743015028
  0
LINE
  5
44C
100
AcDbEntity
  8
0
100
AcDbLine
 62
250
  6
CONTINUOUS
 10
10.9564150106
 20
3.7520134696
 11
10.8770254542
 21
3.839343426
  0
LINE
  5
44D
100
AcDbEntity
  8
0
100
AcDbLine
 62
250
  6
CONTINUOUS
 10
12.6434424723
 20
0.2355485499
 11
12.6434424723
 21
0.0173554616
  0
LINE
  5
44E
100
AcDbEntity
  8
0
100
AcDbLine
 62
250
  6
CONTINUOUS
 10
12.6434424723
 20
-4.8556202746
 11
12.6434424723
 21
-5.1465440687
  0
LINE
  5
44F
100
AcDbEntity
  8
0
100
AcDbLine
 62
250
  6
CONTINUOUS
 10
12.6434424723
 20
-5.5829297599
 11
12.6434424723
 21
-5.8011228482
  0
LINE
  5
450
100
AcDbEntity
  8
0
100
AcDbLine
 62
250
  6
CONTINUOUS
 10
12.6434424723
 20
-7.3284734956
 11
12.6434424723
 21
-7.2557425471
  0
LINE
  5
451
100
AcDbEntity
  8
0
100
AcDbLine
 62
250
  6
CONTINUOUS
 10
12.6434424723
 20
-6.528432819
 11
12.6434424723
 21
-6.4557018705
  0
LINE
  5
452
100
AcDbEntity
  8
0
100
AcDbLine
 62
250
  6
CONTINUOUS
 10
12.6434424723
 20
-1.437263509
 11
12.6434424723
 21
-1.3645328032
  0
LINE
  5
453
100
AcDbEntity
  8
0
100
AcDbLine
 62
250
  6
CONTINUOUS
 10
12.6434424723
 20
0.6719347266
 11
12.6434424723
 21
1.1083209033
  0
LINE
  5
454
100
AcDbEntity
  8
0
100
AcDbLine
 62
250
  6
CONTINUOUS
 10
12.6434424723
 20
1.6174377858
 11
12.6434424723
 21
1.6901684915
  0
LINE
  5
455
100
AcDbEntity
  8
0
100
AcDbLine
 62
250
  6
CONTINUOUS
 10
12.9610005655
 20
-9.1324153625
 11
12.9610005655
 21
-8.8414913863
  0
LINE
  5
456
100
AcDbEntity
  8
0
100
AcDbLine
 62
250
  6
CONTINUOUS
 10
12.9610005655
 20
-8.4778365223
 11
12.9610005655
 21
-8.1869126068
  0
LINE
  5
457
100
AcDbEntity
  8
0
100
AcDbLine
 62
250
  6
CONTINUOUS
 10
13.1197796122
 20
1.3116471062
 11
13.1197796122
 21
1.0207233121
  0
LINE
  5
458
100
AcDbEntity
  8
0
100
AcDbLine
 62
250
  6
CONTINUOUS
 10
13.1197796122
 20
-3.7067905271
 11
13.1197796122
 21
-4.0219583753
  0
LINE
  5
459
100
AcDbEntity
  8
0
100
AcDbLine
 62
250
  6
CONTINUOUS
 10
13.1197796122
 20
-4.5068316892
 11
13.1197796122
 21
-4.6522935862
  0
LINE
  5
45A
100
AcDbEntity
  8
0
100
AcDbLine
 62
250
  6
CONTINUOUS
 10
13.2785586919
 20
-5.3360713767
 11
13.2785586919
 21
-5.020904014
  0
LINE
  5
45B
100
AcDbEntity
  8
0
100
AcDbLine
 62
250
  6
CONTINUOUS
 10
13.3579482153
 20
-0.3322330183
 11
13.3579482153
 21
0.1041531584
  0
LINE
  5
45C
100
AcDbEntity
  8
0
100
AcDbLine
 62
250
  6
CONTINUOUS
 10
13.4373377386
 20
-9.5594239138
 11
13.4373377386
 21
-9.1715253371
  0
LINE
  5
45D
100
AcDbEntity
  8
0
100
AcDbLine
 62
250
  6
CONTINUOUS
 10
13.5696536273
 20
-7.2806086428
 11
13.5696536273
 21
-7.2321212629
  0
LINE
  5
45E
100
AcDbEntity
  8
0
100
AcDbLine
 62
250
  6
CONTINUOUS
 10
13.701969512
 20
-7.1352355356
 11
13.701969512
 21
-7.1837229156
  0
LINE
  5
45F
100
AcDbEntity
  8
0
100
AcDbLine
 62
250
  6
CONTINUOUS
 10
13.754895865
 20
2.5040085728
 11
13.754895865
 21
2.431277867
  0
LINE
  5
460
100
AcDbEntity
  8
0
100
AcDbLine
 62
250
  6
CONTINUOUS
 10
13.754895865
 20
1.1948510138
 11
13.754895865
 21
0.6857341313
  0
LINE
  5
461
100
AcDbEntity
  8
0
100
AcDbLine
 62
250
  6
CONTINUOUS
 10
13.754895865
 20
-0.5506927219
 11
13.754895865
 21
-0.6234234277
  0
LINE
  5
462
100
AcDbEntity
  8
0
100
AcDbLine
 62
250
  6
CONTINUOUS
 10
13.754895865
 20
-5.6418617892
 11
13.754895865
 21
-5.7145927378
  0
LINE
  5
463
100
AcDbEntity
  8
0
100
AcDbLine
 62
250
  6
CONTINUOUS
 10
13.754895865
 20
-6.4419024658
 11
13.754895865
 21
-6.5146334143
  0
LINE
  5
464
100
AcDbEntity
  8
0
100
AcDbLine
 62
250
  6
CONTINUOUS
 10
13.754895865
 20
-4.3327039875
 11
13.754895865
 21
-3.9690490021
  0
LINE
  5
465
100
AcDbEntity
  8
0
100
AcDbLine
 62
250
  6
CONTINUOUS
 10
13.754895865
 20
-3.4599321196
 11
13.754895865
 21
-3.2417390313
  0
LINE
  5
466
100
AcDbEntity
  8
0
100
AcDbLine
 62
250
  6
CONTINUOUS
 10
13.754895865
 20
1.4857748079
 11
13.754895865
 21
1.776698602
  0
LWPOLYLINE
  5
467
100
AcDbEntity
  8
RACCORDO
100
AcDbPolyline
 62
250
  6
CONTINUOUS
 90
4
 70
0
 10
15.0879273157
 20
15.4917141321
 10
15.0899156247
 20
15.51093199
 10
15.0911626379
 20
15.5301810219
 10
15.0916674295
 20
15.5494469333
  0
LWPOLYLINE
  5
468
100
AcDbEntity
  8
RACCORDO
100
AcDbPolyline
 62
7
  6
CONTINUOUS
 90
16
 70
0
 10
14.8110192307
 20
-2.0721544379
 10
14.8163490865
 20
-2.0632215712
 10
14.8218425057
 20
-2.0543214408
 10
14.8274994883
 20
-2.0454540466
 10
14.8333196646
 20
-2.0366090348
 10
14.8393034042
 20
-2.0277967593
 10
14.8454518162
 20
-2.0190482818
 10
14.8517696384
 20
-2.0103615564
 10
14.858252133
 20
-2.001738629
 10
14.864886195
 20
-1.9932166985
 10
14.8716755493
 20
-1.9847960917
 10
14.8786164711
 20
-1.9764764819
 10
14.8856846811
 20
-1.9682940872
 10
14.8928720864
 20
-1.9602609804
 10
14.90018678
 20
-1.9523650889
 10
14.9076287618
 20
-1.9446064124
  0
LWPOLYLINE
  5
469
100
AcDbEntity
  8
ASSI
100
AcDbPolyline
 62
7
  6
CONTINUOUS
 90
16
 70
0
 10
14.8110192307
 20
-2.0721544379
 10
14.8163490865
 20
-2.0632215712
 10
14.8218425057
 20
-2.0543214408
 10
14.8274994883
 20
-2.0454540466
 10
14.8333196646
 20
-2.0366090348
 10
14.8393034042
 20
-2.0277967593
 10
14.8454518162
 20
-2.0190482818
 10
14.8517696384
 20
-2.0103615564
 10
14.858252133
 20
-2.001738629
 10
14.864886195
 20
-1.9932166985
 10
14.8716755493
 20
-1.9847960917
 10
14.8786164711
 20
-1.9764764819
 10
14.8856846811
 20
-1.9682940872
 10
14.8928720864
 20
-1.9602609804
 10
14.90018678
 20
-1.9523650889
 10
14.9076287618
 20
-1.9446064124
  0
LINE
  5
46A
100
AcDbEntity
  8
0
100
AcDbLine
 62
250
  6
CONTINUOUS
 10
13.754895865
 20
-0.6234234277
 11
13.5961168018
 21
-0.8851486842
  0
LINE
  5
46B
100
AcDbEntity
  8
0
100
AcDbLine
 62
250
  6
CONTINUOUS
 10
11.1945835806
 20
-5.0437470876
 11
11.0358045008
 21
-5.3054718707
  0
LINE
  5
46C
100
AcDbEntity
  8
0
100
AcDbLine
 62
250
  6
CONTINUOUS
 10
11.1945835806
 20
-5.7710570584
 11
11.0358045008
 21
-6.0327818415
  0
LINE
  5
46D
100
AcDbEntity
  8
0
100
AcDbLine
 62
250
  6
CONTINUOUS
 10
10.7182464075
 20
-6.8471551534
 11
10.5594673609
 21
-7.1088799123
  0
LINE
  5
46E
100
AcDbEntity
  8
0
100
AcDbLine
 62
250
  6
CONTINUOUS
 10
11.0358045008
 20
-7.1237463122
 11
11.1945835806
 21
-6.8620215291
  0
LINE
  5
46F
100
AcDbEntity
  8
0
100
AcDbLine
 62
250
  6
CONTINUOUS
 10
13.2785586919
 20
-3.4450657439
 11
13.1197796122
 21
-3.7067905271
  0
LINE
  5
470
100
AcDbEntity
  8
0
100
AcDbLine
 62
250
  6
CONTINUOUS
 10
10.5594673609
 20
-7.9816520229
 11
10.7182464075
 21
-7.7199270213
  0
LINE
  5
471
100
AcDbEntity
  8
0
100
AcDbLine
 62
250
  6
CONTINUOUS
 10
13.2785586919
 20
-4.245106906
 11
13.1197796122
 21
-4.5068316892
  0
LINE
  5
472
100
AcDbEntity
  8
0
100
AcDbLine
 62
250
  6
CONTINUOUS
 10
13.5961168018
 20
-3.7216568906
 11
13.754895865
 21
-3.4599321196
  0
LINE
  5
473
100
AcDbEntity
  8
0
100
AcDbLine
 62
250
  6
CONTINUOUS
 10
10.5594673609
 20
-8.7816926995
 11
10.7182464075
 21
-8.5199679406
  0
LINE
  5
474
100
AcDbEntity
  8
0
100
AcDbLine
 62
250
  6
CONTINUOUS
 10
12.8022215189
 20
-5.321205001
 11
12.6434424723
 21
-5.5829297599
  0
LINE
  5
475
100
AcDbEntity
  8
0
100
AcDbLine
 62
250
  6
CONTINUOUS
 10
11.6709207536
 20
-7.2405428902
 11
11.5121416904
 21
-7.5022676612
  0
LINE
  5
476
100
AcDbEntity
  8
0
100
AcDbLine
 62
250
  6
CONTINUOUS
 10
10.7182464075
 20
-6.1440892367
 11
10.5594673609
 21
-6.381570427
  0
LINE
  5
477
100
AcDbEntity
  8
0
100
AcDbLine
 62
250
  6
CONTINUOUS
 10
12.8022215189
 20
-4.6181390843
 11
12.6434424723
 21
-4.8556202746
  0
LWPOLYLINE
  5
478
100
AcDbEntity
  8
RACCORDO
100
AcDbPolyline
 62
250
  6
CONTINUOUS
 90
10
 70
0
 10
-1.3462388567
 20
-25.0117838907
 10
-1.3634142315
 20
-25.0352251364
 10
-1.379162038
 20
-25.0595744958
 10
-1.3932693142
 20
-25.0845026856
 10
-1.4055452833
 20
-25.1096725949
 10
-1.4158239341
 20
-25.1347438438
 10
-1.4239662652
 20
-25.1593773866
 10
-1.4298621657
 20
-25.183240097
 10
-1.4334319036
 20
-25.2060092727
 10
-1.4346272044
 20
-25.2273769997
  0
LINE
  5
479
100
AcDbEntity
  8
0
100
AcDbLine
 62
250
  6
CONTINUOUS
 10
10.7182464075
 20
-7.7199270213
 11
10.8770254542
 21
-7.5309332109
  0
LINE
  5
47A
100
AcDbEntity
  8
0
100
AcDbLine
 62
250
  6
CONTINUOUS
 10
11.5121416904
 20
-7.5022676612
 11
11.3533626272
 21
-7.6912614836
  0
LINE
  5
47B
100
AcDbEntity
  8
0
100
AcDbLine
 62
250
  6
CONTINUOUS
 10
10.7182464075
 20
-8.5199679406
 11
10.8770254542
 21
-8.3309741302
  0
LINE
  5
47C
100
AcDbEntity
  8
0
100
AcDbLine
 62
250
  6
CONTINUOUS
 10
12.8022215189
 20
-6.1939768689
 11
12.9610005655
 21
-6.0049830585
  0
LWPOLYLINE
  5
47D
100
AcDbEntity
  8
RACCORDO
100
AcDbPolyline
 62
250
  6
CONTINUOUS
 90
63
 70
0
 10
14.8110192307
 20
-2.0721542077
 10
14.8166890813
 20
-2.0659459919
 10
14.8222332459
 20
-2.060009091
 10
14.8276533517
 20
-2.0543451027
 10
14.832938729
 20
-2.0489738667
 10
14.8381035265
 20
-2.0438787567
 10
14.8431856552
 20
-2.0390060108
 10
14.848185233
 20
-2.0343514083
 10
14.8531035527
 20
-2.0299208853
 10
14.8579783589
 20
-2.0256746891
 10
14.8628103061
 20
-2.0216067613
 10
14.8675981727
 20
-2.0177236196
 10
14.8723749649
 20
-2.0140032351
 10
14.8771404903
 20
-2.0104395446
 10
14.8818924647
 20
-2.0070380158
 10
14.8866589168
 20
-2.0037928992
 10
14.8914356784
 20
-2.0006995231
 10
14.8962225636
 20
-1.9977610762
 10
14.9010515033
 20
-1.994982535
 10
14.9059171705
 20
-1.9923572539
 10
14.9108178745
 20
-1.9898892618
 10
14.9157883187
 20
-1.9875982623
 10
14.920829481
 20
-1.9854746318
 10
14.9259294991
 20
-1.983523892
 10
14.931101345
 20
-1.9817873925
 10
14.9363436501
 20
-1.980260666
 10
14.9416440375
 20
-1.9789433738
 10
14.9469977001
 20
-1.9778826516
 10
14.9524053187
 20
-1.9770798211
 10
14.9578505722
 20
-1.9765287196
 10
14.9633038712
 20
-1.9762657578
 10
14.9687592138
 20
-1.9762979458
 10
14.9742082685
 20
-1.976614814
 10
14.9796204066
 20
-1.9772277252
 10
14.9849789649
 20
-1.9781389841
 10
14.9902888972
 20
-1.9793445565
 10
14.9955526769
 20
-1.9808467479
 10
15.0007541317
 20
-1.982639406
 10
15.0058955871
 20
-1.9847269162
 10
15.0110034341
 20
-1.9871263488
 10
15.0160683011
 20
-1.9898329997
 10
15.0210779391
 20
-1.9928483607
 10
15.0260482122
 20
-1.9961972387
 10
15.0309674036
 20
-1.9998790849
 10
15.0358175417
 20
-2.0038905041
 10
15.0405994852
 20
-2.0082509738
 10
15.0453014548
 20
-2.012968643
 10
15.0498977309
 20
-2.0180316299
 10
15.0543657937
 20
-2.0234293552
 10
15.0586765639
 20
-2.0291509528
 10
15.0628210497
 20
-2.0352060148
 10
15.0668015529
 20
-2.0416143864
 10
15.0705889683
 20
-2.0483710953
 10
15.0741595221
 20
-2.0554804637
 10
15.0775094965
 20
-2.0629750863
 10
15.0806010568
 20
-2.070856544
 10
15.0833969734
 20
-2.079124478
 10
15.0858750223
 20
-2.0878078275
 10
15.0879847952
 20
-2.0969216759
 10
15.0896718191
 20
-2.1064569339
 10
15.0908862557
 20
-2.116406996
 10
15.0915622365
 20
-2.1268104444
 10
15.0916794297
 20
-2.133312852
  0
LWPOLYLINE
  5
47E
100
AcDbEntity
  8
ASSI
100
AcDbPolyline
 62
250
  6
CONTINUOUS
 90
63
 70
0
 10
14.8110192307
 20
-2.0721542077
 10
14.8166890813
 20
-2.0659459919
 10
14.8222332459
 20
-2.060009091
 10
14.8276533517
 20
-2.0543451027
 10
14.832938729
 20
-2.0489738667
 10
14.8381035265
 20
-2.0438787567
 10
14.8431856552
 20
-2.0390060108
 10
14.848185233
 20
-2.0343514083
 10
14.8531035527
 20
-2.0299208853
 10
14.8579783589
 20
-2.0256746891
 10
14.8628103061
 20
-2.0216067613
 10
14.8675981727
 20
-2.0177236196
 10
14.8723749649
 20
-2.0140032351
 10
14.8771404903
 20
-2.0104395446
 10
14.8818924647
 20
-2.0070380158
 10
14.8866589168
 20
-2.0037928992
 10
14.8914356784
 20
-2.0006995231
 10
14.8962225636
 20
-1.9977610762
 10
14.9010515033
 20
-1.994982535
 10
14.9059171705
 20
-1.9923572539
 10
14.9108178745
 20
-1.9898892618
 10
14.9157883187
 20
-1.9875982623
 10
14.920829481
 20
-1.9854746318
 10
14.9259294991
 20
-1.983523892
 10
14.931101345
 20
-1.9817873925
 10
14.9363436501
 20
-1.980260666
 10
14.9416440375
 20
-1.9789433738
 10
14.9469977001
 20
-1.9778826516
 10
14.9524053187
 20
-1.9770798211
 10
14.9578505722
 20
-1.9765287196
 10
14.9633038712
 20
-1.9762657578
 10
14.9687592138
 20
-1.9762979458
 10
14.9742082685
 20
-1.976614814
 10
14.9796204066
 20
-1.9772277252
 10
14.9849789649
 20
-1.9781389841
 10
14.9902888972
 20
-1.9793445565
 10
14.9955526769
 20
-1.9808467479
 10
15.0007541317
 20
-1.982639406
 10
15.0058955871
 20
-1.9847269162
 10
15.0110034341
 20
-1.9871263488
 10
15.0160683011
 20
-1.9898329997
 10
15.0210779391
 20
-1.9928483607
 10
15.0260482122
 20
-1.9961972387
 10
15.0309674036
 20
-1.9998790849
 10
15.0358175417
 20
-2.0038905041
 10
15.0405994852
 20
-2.0082509738
 10
15.0453014548
 20
-2.012968643
 10
15.0498977309
 20
-2.0180316299
 10
15.0543657937
 20
-2.0234293552
 10
15.0586765639
 20
-2.0291509528
 10
15.0628210497
 20
-2.0352060148
 10
15.0668015529
 20
-2.0416143864
 10
15.0705889683
 20
-2.0483710953
 10
15.0741595221
 20
-2.0554804637
 10
15.0775094965
 20
-2.0629750863
 10
15.0806010568
 20
-2.070856544
 10
15.0833969734
 20
-2.079124478
 10
15.0858750223
 20
-2.0878078275
 10
15.0879847952
 20
-2.0969216759
 10
15.0896718191
 20
-2.1064569339
 10
15.0908862557
 20
-2.116406996
 10
15.0915622365
 20
-2.1268104444
 10
15.0916788669
 20
-2.1328768221
  0
LWPOLYLINE
  5
47F
100
AcDbEntity
  8
RACCORDO
100
AcDbPolyline
 62
250
  6
CONTINUOUS
 90
3
 70
0
 10
16.352712635
 20
-0.9095988061
 10
16.3296350774
 20
-0.9341980311
 10
16.3057382492
 20
-0.9577449183
  0
LWPOLYLINE
  5
480
100
AcDbEntity
  8
RACCORDO
100
AcDbPolyline
 62
7
  6
CONTINUOUS
 90
121
 70
0
 10
14.9076287618
 20
-1.9446064124
 10
14.957158612
 20
-1.8936941161
 10
15.005052714
 20
-1.8441649195
 10
15.0513110678
 20
-1.7960188227
 10
15.0958855539
 20
-1.7492958695
 10
15.1388242918
 20
-1.7039560161
 10
15.1802716405
 20
-1.6598791307
 10
15.22023504
 20
-1.6170584628
 10
15.2587070504
 20
-1.5755007629
 10
15.2958097109
 20
-1.5351061509
 10
15.3315436371
 20
-1.4958751811
 10
15.3659082134
 20
-1.4578072992
 10
15.3990236318
 20
-1.4208009615
 10
15.4308962789
 20
-1.3848502777
 10
15.4615197681
 20
-1.3499611381
 10
15.4909951318
 20
-1.3160496691
 10
15.5193328086
 20
-1.2831043035
 10
15.5465223599
 20
-1.2511366086
 10
15.5726335028
 20
-1.2200974134
 10
15.5976635481
 20
-1.1899900423
 10
15.6216151849
 20
-1.1608111709
 10
15.6445661982
 20
-1.1325016556
 10
15.6665158209
 20
-1.1050630745
 10
15.6874648199
 20
-1.0784938496
 10
15.7074932809
 20
-1.0527301032
 10
15.7266046779
 20
-1.0277679841
 10
15.7447955367
 20
-1.0036113435
 10
15.7621355211
 20
-0.9802078579
 10
15.7786263543
 20
-0.9575554488
 10
15.794266313
 20
-0.9356561947
 10
15.8091198905
 20
-0.9144640065
 10
15.8231886357
 20
-0.893976507
 10
15.8364709996
 20
-0.8741960734
 10
15.849026829
 20
-0.8550837485
 10
15.8608568451
 20
-0.8366376764
 10
15.8719603265
 20
-0.8188597131
 10
15.8823949556
 20
-0.8017164686
 10
15.8921608057
 20
-0.7852063059
 10
15.9012578035
 20
-0.769330862
 10
15.9097434109
 20
-0.7540616589
 10
15.9176165536
 20
-0.7393983657
 10
15.9248783061
 20
-0.7253413132
 10
15.931589354
 20
-0.711863016
 10
15.9377458802
 20
-0.6989702089
 10
15.9433517019
 20
-0.6866561569
 10
15.9484789564
 20
-0.67487317
 10
15.9531248627
 20
-0.6636328467
 10
15.9572922018
 20
-0.6529235883
 10
15.9610614545
 20
-0.6426629084
 10
15.964436477
 20
-0.6328541144
 10
15.967413413
 20
-0.6234938989
 10
15.9700611751
 20
-0.6144898532
 10
15.972387353
 20
-0.6058361048
 10
15.974384357
 20
-0.5975385261
 10
15.9760983304
 20
-0.5895223257
 10
15.9775360211
 20
-0.5817812879
 10
15.9786906812
 20
-0.5743216284
 10
15.9795882109
 20
-0.5670872032
 10
15.9802343557
 20
-0.5600734278
 10
15.9806233701
 20
-0.5532848867
 10
15.980763918
 20
-0.5466791899
 10
15.9806614917
 20
-0.5402522985
 10
15.9803105989
 20
-0.5340082514
 10
15.9797034255
 20
-0.5279167758
 10
15.9788456975
 20
-0.5219740631
 10
15.977731689
 20
-0.5161839218
 10
15.976336408
 20
-0.5105275051
 10
15.9746664673
 20
-0.505001039
 10
15.9727152541
 20
-0.4996082975
 10
15.9704379375
 20
-0.4943417555
 10
15.9678424774
 20
-0.4891967659
 10
15.964920914
 20
-0.4841779758
 10
15.9616045376
 20
-0.4792918022
 10
15.9578981678
 20
-0.4745293959
 10
15.953796985
 20
-0.4698996062
 10
15.9492178205
 20
-0.4654353967
 10
15.9441571915
 20
-0.4611279342
 10
15.9386185809
 20
-0.456986052
 10
15.9325292689
 20
-0.4530692138
 10
15.9258848735
 20
-0.449376283
 10
15.9186897767
 20
-0.4459083962
 10
15.9108844048
 20
-0.442728426
 10
15.9024683062
 20
-0.4398387155
 10
15.8934419324
 20
-0.4372369216
 10
15.883747064
 20
-0.4349788881
 10
15.8733834718
 20
-0.4330660907
 10
15.862351385
 20
-0.4314970536
 10
15.8505932715
 20
-0.430323194
 10
15.8381099087
 20
-0.4295453718
 10
15.8249005194
 20
-0.429162727
 10
15.8109052396
 20
-0.4292240964
 10
15.7961255066
 20
-0.4297296292
 10
15.7805598832
 20
-0.4306791762
 10
15.7641441942
 20
-0.4321211268
 10
15.7468804149
 20
-0.4340550153
 10
15.7287665701
 20
-0.4364813075
 10
15.709732559
 20
-0.4394497902
 10
15.6897807497
 20
-0.442959499
 10
15.6689087741
 20
-0.4470113984
 10
15.647039428
 20
-0.4516581687
 10
15.6241754319
 20
-0.4568984384
 10
15.6003140652
 20
-0.4627335791
 10
15.5753699625
 20
-0.4692203857
 10
15.5493461667
 20
-0.4763571435
 10
15.5222396347
 20
-0.4841455673
 10
15.4939558725
 20
-0.492647596
 10
15.4644981504
 20
-0.5018612443
 10
15.433863198
 20
-0.5117884976
 10
15.4019467099
 20
-0.5224972508
 10
15.3687522306
 20
-0.5339852677
 10
15.3342762157
 20
-0.5462547845
 10
15.2984037268
 20
-0.5593804046
 10
15.2611386447
 20
-0.5733596326
 10
15.2224770886
 20
-0.588194964
 10
15.1822924772
 20
-0.6039684884
 10
15.140591423
 20
-0.6206764019
 10
15.0973673135
 20
-0.6383225084
 10
15.0524737303
 20
-0.6570003102
 10
15.0058618672
 20
-0.6767409745
 10
14.9575805305
 20
-0.6975133339
 10
14.90762972
 20
-0.7193173886
  0
LWPOLYLINE
  5
481
100
AcDbEntity
  8
ASSI
100
AcDbPolyline
 62
7
  6
CONTINUOUS
 90
121
 70
0
 10
14.9076287618
 20
-1.9446064124
 10
14.957158612
 20
-1.8936941161
 10
15.005052714
 20
-1.8441649195
 10
15.0513110678
 20
-1.7960188227
 10
15.0958855539
 20
-1.7492958695
 10
15.1388242918
 20
-1.7039560161
 10
15.1802716405
 20
-1.6598791307
 10
15.22023504
 20
-1.6170584628
 10
15.2587070504
 20
-1.5755007629
 10
15.2958097109
 20
-1.5351061509
 10
15.3315436371
 20
-1.4958751811
 10
15.3659082134
 20
-1.4578072992
 10
15.3990236318
 20
-1.4208009615
 10
15.4308962789
 20
-1.3848502777
 10
15.4615197681
 20
-1.3499611381
 10
15.4909951318
 20
-1.3160496691
 10
15.5193328086
 20
-1.2831043035
 10
15.5465223599
 20
-1.2511366086
 10
15.5726335028
 20
-1.2200974134
 10
15.5976635481
 20
-1.1899900423
 10
15.6216151849
 20
-1.1608111709
 10
15.6445661982
 20
-1.1325016556
 10
15.6665158209
 20
-1.1050630745
 10
15.6874648199
 20
-1.0784938496
 10
15.7074932809
 20
-1.0527301032
 10
15.7266046779
 20
-1.0277679841
 10
15.7447955367
 20
-1.0036113435
 10
15.7621355211
 20
-0.9802078579
 10
15.7786263543
 20
-0.9575554488
 10
15.794266313
 20
-0.9356561947
 10
15.8091198905
 20
-0.9144640065
 10
15.8231886357
 20
-0.893976507
 10
15.8364709996
 20
-0.8741960734
 10
15.849026829
 20
-0.8550837485
 10
15.8608568451
 20
-0.8366376764
 10
15.8719603265
 20
-0.8188597131
 10
15.8823949556
 20
-0.8017164686
 10
15.8921608057
 20
-0.7852063059
 10
15.9012578035
 20
-0.769330862
 10
15.9097434109
 20
-0.7540616589
 10
15.9176165536
 20
-0.7393983657
 10
15.9248783061
 20
-0.7253413132
 10
15.931589354
 20
-0.711863016
 10
15.9377458802
 20
-0.6989702089
 10
15.9433517019
 20
-0.6866561569
 10
15.9484789564
 20
-0.67487317
 10
15.9531248627
 20
-0.6636328467
 10
15.9572922018
 20
-0.6529235883
 10
15.9610614545
 20
-0.6426629084
 10
15.964436477
 20
-0.6328541144
 10
15.967413413
 20
-0.6234938989
 10
15.9700611751
 20
-0.6144898532
 10
15.972387353
 20
-0.6058361048
 10
15.974384357
 20
-0.5975385261
 10
15.9760983304
 20
-0.5895223257
 10
15.9775360211
 20
-0.5817812879
 10
15.9786906812
 20
-0.5743216284
 10
15.9795882109
 20
-0.5670872032
 10
15.9802343557
 20
-0.5600734278
 10
15.9806233701
 20
-0.5532848867
 10
15.980763918
 20
-0.5466791899
 10
15.9806614917
 20
-0.5402522985
 10
15.9803105989
 20
-0.5340082514
 10
15.9797034255
 20
-0.5279167758
 10
15.9788456975
 20
-0.5219740631
 10
15.977731689
 20
-0.5161839218
 10
15.976336408
 20
-0.5105275051
 10
15.9746664673
 20
-0.505001039
 10
15.9727152541
 20
-0.4996082975
 10
15.9704379375
 20
-0.4943417555
 10
15.9678424774
 20
-0.4891967659
 10
15.964920914
 20
-0.4841779758
 10
15.9616045376
 20
-0.4792918022
 10
15.9578981678
 20
-0.4745293959
 10
15.953796985
 20
-0.4698996062
 10
15.9492178205
 20
-0.4654353967
 10
15.9441571915
 20
-0.4611279342
 10
15.9386185809
 20
-0.456986052
 10
15.9325292689
 20
-0.4530692138
 10
15.9258848735
 20
-0.449376283
 10
15.9186897767
 20
-0.4459083962
 10
15.9108844048
 20
-0.442728426
 10
15.9024683062
 20
-0.4398387155
 10
15.8934419324
 20
-0.4372369216
 10
15.883747064
 20
-0.4349788881
 10
15.8733834718
 20
-0.4330660907
 10
15.862351385
 20
-0.4314970536
 10
15.8505932715
 20
-0.430323194
 10
15.8381099087
 20
-0.4295453718
 10
15.8249005194
 20
-0.429162727
 10
15.8109052396
 20
-0.4292240964
 10
15.7961255066
 20
-0.4297296292
 10
15.7805598832
 20
-0.4306791762
 10
15.7641441942
 20
-0.4321211268
 10
15.7468804149
 20
-0.4340550153
 10
15.7287665701
 20
-0.4364813075
 10
15.709732559
 20
-0.4394497902
 10
15.6897807497
 20
-0.442959499
 10
15.6689087741
 20
-0.4470113984
 10
15.647039428
 20
-0.4516581687
 10
15.6241754319
 20
-0.4568984384
 10
15.6003140652
 20
-0.4627335791
 10
15.5753699625
 20
-0.4692203857
 10
15.5493461667
 20
-0.4763571435
 10
15.5222396347
 20
-0.4841455673
 10
15.4939558725
 20
-0.492647596
 10
15.4644981504
 20
-0.5018612443
 10
15.433863198
 20
-0.5117884976
 10
15.4019467099
 20
-0.5224972508
 10
15.3687522306
 20
-0.5339852677
 10
15.3342762157
 20
-0.5462547845
 10
15.2984037268
 20
-0.5593804046
 10
15.2611386447
 20
-0.5733596326
 10
15.2224770886
 20
-0.588194964
 10
15.1822924772
 20
-0.6039684884
 10
15.140591423
 20
-0.6206764019
 10
15.0973673135
 20
-0.6383225084
 10
15.0524737303
 20
-0.6570003102
 10
15.0058618672
 20
-0.6767409745
 10
14.9575805305
 20
-0.6975133339
 10
14.90762972
 20
-0.7193173886
  0
LINE
  5
482
100
AcDbEntity
  8
ASSI
100
AcDbLine
 62
7
  6
CONTINUOUS
 10
16.3689829445
 20
-0.8939692254
 11
16.2796954731
 21
-0.9813957595
  0
LINE
  5
483
100
AcDbEntity
  8
0
100
AcDbLine
 62
250
  6
CONTINUOUS
 10
13.1197796122
 20
-5.0886792774
 11
12.8022215189
 21
-5.321205001
  0
LINE
  5
484
100
AcDbEntity
  8
0
100
AcDbLine
 62
250
  6
CONTINUOUS
 10
11.0358045008
 20
-6.6146294298
 11
10.7182464075
 21
-6.8471551534
  0
LINE
  5
485
100
AcDbEntity
  8
0
100
AcDbLine
 62
250
  6
CONTINUOUS
 10
10.7182464075
 20
-7.3562720359
 11
11.0358045008
 21
-7.1237463122
  0
LINE
  5
486
100
AcDbEntity
  8
0
100
AcDbLine
 62
250
  6
CONTINUOUS
 10
12.8022215189
 20
-5.8303218835
 11
13.1197796122
 21
-5.5977961598
  0
LINE
  5
487
100
AcDbEntity
  8
0
100
AcDbLine
 62
250
  6
CONTINUOUS
 10
10.8770254542
 20
-7.5309332109
 11
11.3533626272
 21
-7.1821446012
  0
LINE
  5
488
100
AcDbEntity
  8
0
100
AcDbLine
 62
250
  6
CONTINUOUS
 10
12.9610005655
 20
-6.0049830585
 11
13.4373377386
 21
-5.6561944488
  0
LINE
  5
489
100
AcDbEntity
  8
0
100
AcDbLine
 62
250
  6
CONTINUOUS
 10
13.4373377386
 20
-6.1653113313
 11
12.9610005655
 21
-6.514099941
  0
LINE
  5
48A
100
AcDbEntity
  8
0
100
AcDbLine
 62
250
  6
CONTINUOUS
 10
11.3533626272
 20
-7.6912614836
 11
10.8770254542
 21
-8.0400500934
  0
LINE
  5
48B
100
AcDbEntity
  8
0
100
AcDbLine
 62
250
  6
CONTINUOUS
 10
10.8770254542
 20
-8.3309741302
 11
11.3533626272
 21
-7.9821855205
  0
LINE
  5
48C
100
AcDbEntity
  8
0
100
AcDbLine
 62
250
  6
CONTINUOUS
 10
12.9610005655
 20
-6.8050239779
 11
13.4373377386
 21
-6.4562353681
  0
LINE
  5
48D
100
AcDbEntity
  8
0
100
AcDbLine
 62
250
  6
CONTINUOUS
 10
13.4373377386
 20
-6.9653522506
 11
12.9610005655
 21
-7.3141408603
  0
LINE
  5
48E
100
AcDbEntity
  8
0
100
AcDbLine
 62
250
  6
CONTINUOUS
 10
11.3533626272
 20
-8.491302403
 11
10.8770254542
 21
-8.8400910127
  0
LINE
  5
48F
100
AcDbEntity
  8
0
100
AcDbLine
 62
250
  6
CONTINUOUS
 10
11.5386048731
 20
-8.6950735534
 11
11.5650680476
 21
-8.6756964097
  0
LINE
  5
490
100
AcDbEntity
  8
0
100
AcDbLine
 62
250
  6
CONTINUOUS
 10
13.6225799845
 20
-7.169123401
 11
13.6490431589
 21
-7.1497462573
  0
LINE
  5
491
100
AcDbEntity
  8
0
100
AcDbLine
 62
250
  6
CONTINUOUS
 10
13.6490431589
 20
-7.2467210172
 11
13.6225799845
 21
-7.2660981609
  0
LINE
  5
492
100
AcDbEntity
  8
0
100
AcDbLine
 62
250
  6
CONTINUOUS
 10
11.5650680476
 20
-8.7726711696
 11
11.5386048731
 21
-8.7920483132
  0
LINE
  5
493
100
AcDbEntity
  8
DRAFT
100
AcDbLine
 62
7
  6
CONTINUOUS
 10
0.5116151122
 20
-15.2324373462
 11
0.7579405341
 21
-15.0573607171
  0
LINE
  5
494
100
AcDbEntity
  8
DRAFT
100
AcDbLine
 62
7
  6
CONTINUOUS
 10
-0.1870702405
 20
-16.2745237164
 11
0.5116151122
 21
-15.7890268988
  0
LWPOLYLINE
  5
495
100
AcDbEntity
  8
ASSI
100
AcDbPolyline
 62
7
  6
CONTINUOUS
 90
16
 70
0
 10
-3.8436776942
 20
17.8012065469
 10
-3.884935601
 20
17.8233351728
 10
-3.9619298772
 20
17.8586333516
 10
-4.0428617684
 20
17.8884432306
 10
-4.1271048036
 20
17.9125680178
 10
-4.2138343673
 20
17.9308134534
 10
-4.3023652491
 20
17.94308448
 10
-4.3921311788
 20
17.9493269165
 10
-4.482419689
 20
17.949492924
 10
-4.572618374
 20
17.9435642928
 10
-4.6620613644
 20
17.9315427142
 10
-4.7499629467
 20
17.9134831311
 10
-4.8358565783
 20
17.8893989642
 10
-4.9189482803
 20
17.8593966408
 10
-4.9980806607
 20
17.8238308675
 10
-5.0725681961
 20
17.7830072045
  0
LINE
  5
496
100
AcDbEntity
  8
RACCORDO
100
AcDbLine
 62
7
  6
CONTINUOUS
 10
-3.8399555446
 20
17.7988418248
 11
-3.8409929475
 21
17.799553653
  0
LWPOLYLINE
  5
497
100
AcDbEntity
  8
ASSI
100
AcDbPolyline
 62
7
  6
CONTINUOUS
 90
3
 70
0
 10
-3.8399555446
 20
17.7988418248
 10
-3.8409929475
 20
17.799553653
 10
-3.8436777373
 20
17.8012065772
  0
LINE
  5
498
100
AcDbEntity
  8
RACCORDO
100
AcDbLine
 62
250
  6
CONTINUOUS
 10
-0.9376790078
 20
15.6430947866
 11
-3.94877955
 21
17.7722643989
  0
LINE
  5
499
100
AcDbEntity
  8
ASSI
100
AcDbLine
 62
250
  6
CONTINUOUS
 10
-0.9376790078
 20
15.6430947866
 11
-3.94877955
 21
17.7722643989
  0
LINE
  5
49A
100
AcDbEntity
  8
RACCORDO
100
AcDbLine
 62
7
  6
CONTINUOUS
 10
-0.8640193862
 20
15.6945371868
 11
-3.839955601
 21
17.7988418647
  0
LINE
  5
49B
100
AcDbEntity
  8
ASSI
100
AcDbLine
 62
7
  6
CONTINUOUS
 10
-0.8640193862
 20
15.6945371868
 11
-3.839955601
 21
17.7988418647
  0
LINE
  5
49C
100
AcDbEntity
  8
0
100
AcDbLine
 62
7
  6
CONTINUOUS
 10
-4.4473885972
 20
18.7076769498
 11
-4.0938352066
 21
18.4576769498
  0
LINE
  5
49D
100
AcDbEntity
  8
0
100
AcDbLine
 62
7
  6
CONTINUOUS
 10
-3.740281816
 20
18.2076769498
 11
-0.5229879867
 21
15.932706666
  0
LINE
  5
49E
100
AcDbEntity
  8
DRAFT
100
AcDbLine
 62
7
  6
CONTINUOUS
 10
-4.0938352066
 20
18.9088388221
 11
-4.4473885972
 21
19.1588388221
  0
LWPOLYLINE
  5
49F
100
AcDbEntity
  8
ASSI
100
AcDbPolyline
 62
7
  6
CONTINUOUS
 90
27
 70
0
 10
15.0916794304
 20
3.4807905557
 10
15.1172949113
 20
3.4559542458
 10
15.2718186056
 20
3.2938035594
 10
15.4216108901
 20
3.1240717698
 10
15.5659831665
 20
2.9476265493
 10
15.704302975
 20
2.7653152874
 10
15.8360798793
 20
2.577821354
 10
15.9606912083
 20
2.3860297841
 10
16.0775382564
 20
2.1908438269
 10
16.1861640027
 20
1.992962611
 10
16.2860069737
 20
1.7932886676
 10
16.3765256237
 20
1.5927488151
 10
16.4573015893
 20
1.3920315156
 10
16.5278505154
 20
1.1919781314
 10
16.5876607939
 20
0.9935724318
 10
16.6363042005
 20
0.7976045936
 10
16.6734109223
 20
0.6044929872
 10
16.6984201991
 20
0.4155822339
 10
16.7108807394
 20
0.2327472377
 10
16.7105805724
 20
0.0561106692
 10
16.6972642227
 20
-0.1130758119
 10
16.6712049193
 20
-0.2719013089
 10
16.6328632956
 20
-0.4197744545
 10
16.5825494779
 20
-0.5568136146
 10
16.5211980047
 20
-0.6817242594
 10
16.4497834552
 20
-0.7940402905
 10
16.3689829445
 20
-0.8939692254
  0
LWPOLYLINE
  5
4A0
100
AcDbEntity
  8
RACCORDO
100
AcDbPolyline
 62
7
  6
CONTINUOUS
 90
93
 70
0
 10
15.0916794304
 20
3.481511556
 10
15.1172919152
 20
3.4559572754
 10
15.1618944613
 20
3.4104402214
 10
15.2061646335
 20
3.3642408738
 10
15.2500735321
 20
3.3173911653
 10
15.293589566
 20
3.2699274804
 10
15.3366862218
 20
3.2218822858
 10
15.3793593662
 20
3.1732636549
 10
15.4216108901
 20
3.1240717698
 10
15.463430522
 20
3.0743199891
 10
15.5047974095
 20
3.0240344279
 10
15.5456971138
 20
2.9732340258
 10
15.586114229
 20
2.9219391877
 10
15.6260338908
 20
2.8701699573
 10
15.6654425317
 20
2.8179449507
 10
15.7043240981
 20
2.7652863672
 10
15.7426652222
 20
2.7122131409
 10
15.7804563116
 20
2.6587390001
 10
15.8176829005
 20
2.6048845279
 10
15.8543305709
 20
2.5506705875
 10
15.8903896293
 20
2.4961111857
 10
15.9258484729
 20
2.4412230528
 10
15.9606903226
 20
2.3860312042
 10
15.9948979889
 20
2.3305621058
 10
16.0284533886
 20
2.2748446399
 10
16.061347991
 20
2.2188923951
 10
16.0935788523
 20
2.162708729
 10
16.1251360449
 20
2.1063082199
 10
16.1560024193
 20
2.0497185869
 10
16.1861640027
 20
1.992962611
 10
16.215607722
 20
1.9360619038
 10
16.244321018
 20
1.8790375097
 10
16.2722912001
 20
1.8219111524
 10
16.2995011071
 20
1.7647145848
 10
16.3259438085
 20
1.7074587947
 10
16.3516211743
 20
1.6501339701
 10
16.3765307173
 20
1.5927369033
 10
16.4006484486
 20
1.5353135827
 10
16.4239449817
 20
1.4779274483
 10
16.4463970594
 20
1.4206326659
 10
16.4680079854
 20
1.3634172923
 10
16.4887880222
 20
1.3062451193
 10
16.5087342478
 20
1.2491093878
 10
16.5278238139
 20
1.1920597099
 10
16.5460362558
 20
1.1351438103
 10
16.5633574939
 20
1.0783937391
 10
16.5797805827
 20
1.0218192029
 10
16.5952971688
 20
0.9654332162
 10
16.609894375
 20
0.9092653886
 10
16.6235642579
 20
0.8533273484
 10
16.6363042005
 20
0.7976045936
 10
16.6481106847
 20
0.7420765209
 10
16.6589618002
 20
0.6868062122
 10
16.6688306892
 20
0.6319020759
 10
16.6777016786
 20
0.5774391035
 10
16.6855786702
 20
0.5233785065
 10
16.6924647055
 20
0.4696563395
 10
16.6983549165
 20
0.4162286576
 10
16.7032290229
 20
0.3631806203
 10
16.7070688687
 20
0.3106391174
 10
16.7098679077
 20
0.2586561789
 10
16.7116241863
 20
0.2072115334
 10
16.7123327508
 20
0.1563184286
 10
16.7119881384
 20
0.1059749093
 10
16.7105847053
 20
0.0562146295
 10
16.7081201037
 20
0.0071006601
 10
16.7045890793
 20
-0.0413894138
 10
16.699990762
 20
-0.0892054516
 10
16.694342498
 20
-0.136185302
 10
16.687662025
 20
-0.1822590146
 10
16.6799499604
 20
-0.2274855059
 10
16.6712049193
 20
-0.2719013089
 10
16.6614135013
 20
-0.3155732886
 10
16.6505946482
 20
-0.3584145304
 10
16.6388058096
 20
-0.4002382433
 10
16.6260874132
 20
-0.4409767323
 10
16.6124386547
 20
-0.4807012804
 10
16.5978665402
 20
-0.5194407986
 10
16.5823910347
 20
-0.5571848923
 10
16.5660255134
 20
-0.5939404396
 10
16.5487616635
 20
-0.6297555396
 10
16.5305854336
 20
-0.6646747465
 10
16.5115355323
 20
-0.6986381285
 10
16.491688681
 20
-0.7315394567
 10
16.4711084419
 20
-0.7633198795
 10
16.4497825053
 20
-0.7940427502
 10
16.4276770897
 20
-0.8237849249
 10
16.404789195
 20
-0.8525669116
 10
16.3811585515
 20
-0.8803547523
 10
16.3568112521
 20
-0.9071366325
 10
16.3317710735
 20
-0.9329056702
 10
16.3060582681
 20
-0.9576598864
 10
16.2796954733
 20
-0.9813957593
  0
LWPOLYLINE
  5
4A1
100
AcDbEntity
  8
RACCORDO
100
AcDbPolyline
 62
7
  6
CONTINUOUS
 90
3
 70
0
 10
1.5531792227
 20
16.5620687912
 10
1.5548889769
 20
16.5603156188
 10
1.5556586969
 20
16.5573942656
  0
LWPOLYLINE
  5
4A2
100
AcDbEntity
  8
RACCORDO
100
AcDbPolyline
 62
250
  6
CONTINUOUS
 90
88
 70
0
 10
15.0916794304
 20
3.3051891466
 10
15.0925382872
 20
3.30428547
 10
15.1366278682
 20
3.2568943433
 10
15.18038195
 20
3.2088559166
 10
15.2237828112
 20
3.1601896484
 10
15.2668128598
 20
3.1109152655
 10
15.3094546518
 20
3.0610527434
 10
15.3516908876
 20
3.0106223108
 10
15.3935044282
 20
2.959644433
 10
15.4348783012
 20
2.9081398036
 10
15.4757957442
 20
2.8561292913
 10
15.516240199
 20
2.803633943
 10
15.5561952866
 20
2.7506750155
 10
15.5956447784
 20
2.697274016
 10
15.6345726404
 20
2.6434526493
 10
15.6729630653
 20
2.5892327722
 10
15.7108005063
 20
2.5346363444
 10
15.748069646
 20
2.4796854677
 10
15.7847553876
 20
2.4244023992
 10
15.8208428343
 20
2.3688095853
 10
15.8563173236
 20
2.3129296136
 10
15.8911644514
 20
2.2567851765
 10
15.9253701058
 20
2.2003990132
 10
15.958920444
 20
2.1437939425
 10
15.9918018776
 20
2.0869928877
 10
16.0240010517
 20
2.0300189159
 10
16.0555048809
 20
1.9728951803
 10
16.0863005734
 20
1.9156448786
 10
16.1163756586
 20
1.8582911971
 10
16.1457179639
 20
1.8008573488
 10
16.174315604
 20
1.7433665951
 10
16.2021569646
 20
1.6858422813
 10
16.229230733
 20
1.6283077811
 10
16.2555259171
 20
1.5707864569
 10
16.2810318682
 20
1.5133016063
 10
16.3057382621
 20
1.4558764981
 10
16.3296350899
 20
1.3985343924
 10
16.3527126471
 20
1.3412985724
 10
16.3749615584
 20
1.2841922902
 10
16.3963727922
 20
1.2272387308
 10
16.4169376766
 20
1.170460965
 10
16.436647885
 20
1.1138819812
 10
16.4554954311
 20
1.0575247016
 10
16.4734726621
 20
1.0014120051
 10
16.490572277
 20
0.9455666809
 10
16.506787336
 20
0.8900113969
 10
16.5221112704
 20
0.8347686621
 10
16.5365378737
 20
0.7798608512
 10
16.5500612988
 20
0.7253102148
 10
16.562676056
 20
0.671138893
 10
16.574377024
 20
0.6173688782
 10
16.5851594555
 20
0.5640219899
 10
16.5950189812
 20
0.5111198482
 10
16.6039516064
 20
0.458683889
 10
16.6119537094
 20
0.4067353672
 10
16.6190220429
 20
0.3552953607
 10
16.6251537384
 20
0.3043847436
 10
16.6303463091
 20
0.2540241688
 10
16.6345976501
 20
0.2042340526
 10
16.6379060382
 20
0.1550345793
 10
16.6402701317
 20
0.1064456984
 10
16.6416889714
 20
0.0584871181
 10
16.6421619817
 20
0.01117829
 10
16.6416889709
 20
-0.0354616001
 10
16.6402701307
 20
-0.0814136379
 10
16.6379060367
 20
-0.1266591854
 10
16.6345976481
 20
-0.1711798909
 10
16.6303463066
 20
-0.2149577024
 10
16.6251537354
 20
-0.257974873
 10
16.6190220394
 20
-0.3002139627
 10
16.6119537054
 20
-0.3416578357
 10
16.6039516019
 20
-0.3822896745
 10
16.5950189762
 20
-0.4220929936
 10
16.58515945
 20
-0.4610516597
 10
16.5743770181
 20
-0.4991498868
 10
16.5626760496
 20
-0.5363722335
 10
16.5500612918
 20
-0.5727035941
 10
16.5365378662
 20
-0.6081292188
 10
16.5221112624
 20
-0.6426347311
 10
16.5067873275
 20
-0.6762061495
 10
16.4905722681
 20
-0.7088298767
 10
16.4734726528
 20
-0.7404926932
 10
16.4554954213
 20
-0.7711817451
 10
16.4366478747
 20
-0.800884569
 10
16.4169376658
 20
-0.8295891081
 10
16.396372781
 20
-0.8572837351
 10
16.3749615468
 20
-0.8839572367
 10
16.352712635
 20
-0.9095988061
  0
LWPOLYLINE
  5
4A3
100
AcDbEntity
  8
ASSI
100
AcDbPolyline
 62
250
  6
CONTINUOUS
 90
91
 70
0
 10
15.0916794304
 20
3.3051891466
 10
15.0925382872
 20
3.30428547
 10
15.1366278682
 20
3.2568943433
 10
15.18038195
 20
3.2088559166
 10
15.2237828112
 20
3.1601896484
 10
15.2668128598
 20
3.1109152655
 10
15.3094546518
 20
3.0610527434
 10
15.3516908876
 20
3.0106223108
 10
15.3935044282
 20
2.959644433
 10
15.4348783012
 20
2.9081398036
 10
15.4757957442
 20
2.8561292913
 10
15.516240199
 20
2.803633943
 10
15.5561952866
 20
2.7506750155
 10
15.5956447784
 20
2.697274016
 10
15.6345726404
 20
2.6434526493
 10
15.6729630653
 20
2.5892327722
 10
15.7108005063
 20
2.5346363444
 10
15.748069646
 20
2.4796854677
 10
15.7847553876
 20
2.4244023992
 10
15.8208428343
 20
2.3688095853
 10
15.8563173236
 20
2.3129296136
 10
15.8911644514
 20
2.2567851765
 10
15.9253701058
 20
2.2003990132
 10
15.958920444
 20
2.1437939425
 10
15.9918018776
 20
2.0869928877
 10
16.0240010517
 20
2.0300189159
 10
16.0555048809
 20
1.9728951803
 10
16.0863005734
 20
1.9156448786
 10
16.1163756586
 20
1.8582911971
 10
16.1457179639
 20
1.8008573488
 10
16.174315604
 20
1.7433665951
 10
16.2021569646
 20
1.6858422813
 10
16.229230733
 20
1.6283077811
 10
16.2555259171
 20
1.5707864569
 10
16.2810318682
 20
1.5133016063
 10
16.3057382621
 20
1.4558764981
 10
16.3296350899
 20
1.3985343924
 10
16.3527126471
 20
1.3412985724
 10
16.3749615584
 20
1.2841922902
 10
16.3963727922
 20
1.2272387308
 10
16.4169376766
 20
1.170460965
 10
16.436647885
 20
1.1138819812
 10
16.4554954311
 20
1.0575247016
 10
16.4734726621
 20
1.0014120051
 10
16.490572277
 20
0.9455666809
 10
16.506787336
 20
0.8900113969
 10
16.5221112704
 20
0.8347686621
 10
16.5365378737
 20
0.7798608512
 10
16.5500612988
 20
0.7253102148
 10
16.562676056
 20
0.671138893
 10
16.574377024
 20
0.6173688782
 10
16.5851594555
 20
0.5640219899
 10
16.5950189812
 20
0.5111198482
 10
16.6039516064
 20
0.458683889
 10
16.6119537094
 20
0.4067353672
 10
16.6190220429
 20
0.3552953607
 10
16.6251537384
 20
0.3043847436
 10
16.6303463091
 20
0.2540241688
 10
16.6345976501
 20
0.2042340526
 10
16.6379060382
 20
0.1550345793
 10
16.6402701317
 20
0.1064456984
 10
16.6416889714
 20
0.0584871181
 10
16.6421619817
 20
0.01117829
 10
16.6416889709
 20
-0.0354616001
 10
16.6402701307
 20
-0.0814136379
 10
16.6379060367
 20
-0.1266591854
 10
16.6345976481
 20
-0.1711798909
 10
16.6303463066
 20
-0.2149577024
 10
16.6251537354
 20
-0.257974873
 10
16.6190220394
 20
-0.3002139627
 10
16.6119537054
 20
-0.3416578357
 10
16.6039516019
 20
-0.3822896745
 10
16.5950189762
 20
-0.4220929936
 10
16.58515945
 20
-0.4610516597
 10
16.5743770181
 20
-0.4991498868
 10
16.5626760496
 20
-0.5363722335
 10
16.5500612918
 20
-0.5727035941
 10
16.5365378662
 20
-0.6081292188
 10
16.5221112624
 20
-0.6426347311
 10
16.5067873275
 20
-0.6762061495
 10
16.4905722681
 20
-0.7088298767
 10
16.4734726528
 20
-0.7404926932
 10
16.4554954213
 20
-0.7711817451
 10
16.4366478747
 20
-0.800884569
 10
16.4169376658
 20
-0.8295891081
 10
16.396372781
 20
-0.8572837351
 10
16.3749615468
 20
-0.8839572367
 10
16.352712635
 20
-0.9095988061
 10
16.3296350774
 20
-0.9341980311
 10
16.3057382492
 20
-0.9577449183
 10
16.2796954732
 20
-0.9813957594
  0
LINE
  5
4A4
100
AcDbEntity
  8
0
100
AcDbLine
 62
250
  6
CONTINUOUS
 10
13.4108745641
 20
3.633993946
 11
13.3314850408
 21
3.7455684663
  0
LINE
  5
4A5
100
AcDbEntity
  8
DRAFT
100
AcDbLine
 62
7
  6
CONTINUOUS
 10
7.7093106405
 20
12.5344316862
 11
6.9566165565
 21
13.8193608611
  0
LINE
  5
4A6
100
AcDbEntity
  8
ASSI
100
AcDbLine
 62
7
  6
CONTINUOUS
 10
7.7093106405
 20
12.5344316862
 11
6.9566165565
 21
13.8193608611
  0
LINE
  5
4A7
100
AcDbEntity
  8
0
100
AcDbLine
 62
250
  6
CONTINUOUS
 10
13.490264104
 20
4.05578086
 11
13.4108745641
 21
4.1915979657
  0
LWPOLYLINE
  5
4A8
100
AcDbEntity
  8
RACCORDO
100
AcDbPolyline
 62
7
  6
CONTINUOUS
 90
25
 70
0
 10
15.0913419969
 20
15.5869452326
 10
15.0899648787
 20
15.629910414
 10
15.0875150954
 20
15.6733299566
 10
15.0839735337
 20
15.71727267
 10
15.079330556
 20
15.7616658435
 10
15.0736023584
 20
15.8062945811
 10
15.0667894495
 20
15.8511598504
 10
15.0588909192
 20
15.8962616923
 10
15.0499502773
 20
15.9413835391
 10
15.0399789432
 20
15.9865262853
 10
15.0289861825
 20
16.0316926908
 10
15.0170403578
 20
16.0766661786
 10
15.0041689713
 20
16.121424561
 10
14.9903843899
 20
16.1659943385
 10
14.9757543648
 20
16.2102269029
 10
14.9603170101
 20
16.2540863152
 10
14.9440823852
 20
16.2976119392
 10
14.9270891361
 20
16.3407606067
 10
14.909361
 20
16.3835279521
 10
14.8909165676
 20
16.4259185729
 10
14.8717916776
 20
16.4678953862
 10
14.8520075251
 20
16.5094545447
 10
14.8315816412
 20
16.5505969744
 10
14.8105488307
 20
16.5912874879
 10
14.7889334338
 20
16.6315127981
  0
LWPOLYLINE
  5
4A9
100
AcDbEntity
  8
ASSI
100
AcDbPolyline
 62
7
  6
CONTINUOUS
 90
9
 70
0
 10
15.0916788993
 20
15.5521890653
 10
15.0910423208
 20
15.5997103953
 10
15.0806951985
 20
15.7496166186
 10
15.0583706955
 20
15.8990378048
 10
15.0246909248
 20
16.0482990994
 10
14.980152051
 20
16.1972269351
 10
14.9255225244
 20
16.3446274006
 10
14.8614341064
 20
16.4898743998
 10
14.7879538282
 20
16.6332995155
  0
LINE
  5
4AA
100
AcDbEntity
  8
RACCORDO
100
AcDbLine
 62
7
  6
CONTINUOUS
 10
15.0916794206
 20
15.5529190179
 11
15.0913419969
 21
15.5869452326
  0
LWPOLYLINE
  5
4AB
100
AcDbEntity
  8
RACCORDO
100
AcDbPolyline
 62
250
  6
CONTINUOUS
 90
37
 70
0
 10
14.8110192307
 20
15.0617135092
 10
14.8107893019
 20
15.0928757808
 10
14.8098808185
 20
15.1244947821
 10
14.8082941726
 20
15.156555429
 10
14.8060300475
 20
15.1890423421
 10
14.8030895225
 20
15.2219401148
 10
14.7994740595
 20
15.2552333282
 10
14.7951853326
 20
15.2889062206
 10
14.7902253473
 20
15.3229426466
 10
14.7845965429
 20
15.357326347
 10
14.7783015921
 20
15.3920408944
 10
14.7713434507
 20
15.4270697972
 10
14.763725466
 20
15.4623964646
 10
14.7554512524
 20
15.4980040813
 10
14.7465247224
 20
15.5338756865
 10
14.7369501388
 20
15.5699942762
 10
14.7267320462
 20
15.6063426908
 10
14.7158752947
 20
15.6429035993
 10
14.7043850679
 20
15.6796595796
 10
14.6922668402
 20
15.7165931488
 10
14.6795263699
 20
15.753686729
 10
14.6661697223
 20
15.7909226307
 10
14.6522032806
 20
15.8282831226
 10
14.6376336838
 20
15.8657504559
 10
14.6224678199
 20
15.9033068303
 10
14.6067129293
 20
15.9409343942
 10
14.5903765178
 20
15.9786152534
 10
14.5734662921
 20
16.0163314958
 10
14.5559903028
 20
16.0540652582
 10
14.537956906
 20
16.0917985439
 10
14.5193746772
 20
16.129513231
 10
14.500252558
 20
16.1671912958
 10
14.4805996254
 20
16.2048149425
 10
14.4604250442
 20
16.2423664197
 10
14.4397383729
 20
16.2798279304
 10
14.4185495686
 20
16.3171816417
 10
14.0395109298
 20
16.9644577808
  0
LWPOLYLINE
  5
4AC
100
AcDbEntity
  8
ASSI
100
AcDbPolyline
 62
250
  6
CONTINUOUS
 90
37
 70
0
 10
14.8110192307
 20
15.0617135092
 10
14.8107893019
 20
15.0928757808
 10
14.8098808185
 20
15.1244947821
 10
14.8082941726
 20
15.156555429
 10
14.8060300475
 20
15.1890423421
 10
14.8030895225
 20
15.2219401148
 10
14.7994740595
 20
15.2552333282
 10
14.7951853326
 20
15.2889062206
 10
14.7902253473
 20
15.3229426466
 10
14.7845965429
 20
15.357326347
 10
14.7783015921
 20
15.3920408944
 10
14.7713434507
 20
15.4270697972
 10
14.763725466
 20
15.4623964646
 10
14.7554512524
 20
15.4980040813
 10
14.7465247224
 20
15.5338756865
 10
14.7369501388
 20
15.5699942762
 10
14.7267320462
 20
15.6063426908
 10
14.7158752947
 20
15.6429035993
 10
14.7043850679
 20
15.6796595796
 10
14.6922668402
 20
15.7165931488
 10
14.6795263699
 20
15.753686729
 10
14.6661697223
 20
15.7909226307
 10
14.6522032806
 20
15.8282831226
 10
14.6376336838
 20
15.8657504559
 10
14.6224678199
 20
15.9033068303
 10
14.6067129293
 20
15.9409343942
 10
14.5903765178
 20
15.9786152534
 10
14.5734662921
 20
16.0163314958
 10
14.5559903028
 20
16.0540652582
 10
14.537956906
 20
16.0917985439
 10
14.5193746772
 20
16.129513231
 10
14.500252558
 20
16.1671912958
 10
14.4805996254
 20
16.2048149425
 10
14.4604250442
 20
16.2423664197
 10
14.4397383729
 20
16.2798279304
 10
14.4185495686
 20
16.3171816417
 10
14.0395109298
 20
16.9644577808
  0
LINE
  5
4AD
100
AcDbEntity
  8
RACCORDO
100
AcDbLine
 62
250
  6
CONTINUOUS
 10
14.8110192307
 20
-2.0721544379
 11
14.8110192307
 21
-9.7353906401
  0
LINE
  5
4AE
100
AcDbEntity
  8
ASSI
100
AcDbLine
 62
250
  6
CONTINUOUS
 10
14.8110192307
 20
-2.0721544379
 11
14.8110192307
 21
-9.7353906401
  0
LINE
  5
4AF
100
AcDbEntity
  8
RACCORDO
100
AcDbLine
 62
250
  6
CONTINUOUS
 10
14.8110192307
 20
-0.7332506932
 11
14.8110192307
 21
15.0617135092
  0
LINE
  5
4B0
100
AcDbEntity
  8
ASSI
100
AcDbLine
 62
250
  6
CONTINUOUS
 10
14.8110192307
 20
-0.7332506932
 11
14.8110192307
 21
15.0617135092
  0
LINE
  5
4B1
100
AcDbEntity
  8
RACCORDO
100
AcDbLine
 62
7
  6
CONTINUOUS
 10
15.0916794304
 20
-2.1333167034
 11
15.0916794304
 21
-9.2441929958
  0
LINE
  5
4B2
100
AcDbEntity
  8
ASSI
100
AcDbLine
 62
7
  6
CONTINUOUS
 10
15.0916788669
 20
-2.1328768221
 11
15.0916794304
 21
-9.2441929958
  0
LINE
  5
4B3
100
AcDbEntity
  8
RACCORDO
100
AcDbLine
 62
7
  6
CONTINUOUS
 10
15.0916794304
 20
0.3103069866
 11
15.0916794304
 21
15.5529111536
  0
LINE
  5
4B4
100
AcDbEntity
  8
ASSI
100
AcDbLine
 62
7
  6
CONTINUOUS
 10
15.0916794304
 20
0.3103069866
 11
15.0916794304
 21
15.5529111536
  0
LINE
  5
4B5
100
AcDbEntity
  8
ASSI
100
AcDbLine
 62
7
  6
CONTINUOUS
 10
15.0916794304
 20
-9.2441929958
 11
15.0916793715
 21
-9.2444356607
  0
LWPOLYLINE
  5
4B6
100
AcDbEntity
  8
RACCORDO
100
AcDbPolyline
 62
250
  6
CONTINUOUS
 90
3
 70
0
 10
15.0916794302
 20
-9.2442059987
 10
15.0916674295
 20
-9.2476572162
 10
15.0911626379
 20
-9.2669231276
  0
LWPOLYLINE
  5
4B7
100
AcDbEntity
  8
ASSI
100
AcDbPolyline
 62
250
  6
CONTINUOUS
 90
30
 70
0
 10
15.0916793715
 20
-9.2444356607
 10
15.0916674295
 20
-9.2476572162
 10
15.0911626379
 20
-9.2669231276
 10
15.0899156247
 20
-9.2861721595
 10
15.0879273157
 20
-9.3053900174
 10
15.0851991876
 20
-9.3245624301
 10
15.0817332663
 20
-9.34367516
 10
15.0775321255
 20
-9.3627140139
 10
15.0725988851
 20
-9.3816648535
 10
15.0669372085
 20
-9.4005136057
 10
15.0605513001
 20
-9.4192462733
 10
15.0534459022
 20
-9.4378489455
 10
15.0456262912
 20
-9.4563078076
 10
15.0370982739
 20
-9.4746091522
 10
15.0278681835
 20
-9.4927393884
 10
15.0179428741
 20
-9.5106850527
 10
15.0073297164
 20
-9.5284328186
 10
14.9960365917
 20
-9.5459695064
 10
14.9840718865
 20
-9.5632820933
 10
14.9714444857
 20
-9.5803577229
 10
14.9581637665
 20
-9.5971837147
 10
14.9442395913
 20
-9.6137475737
 10
14.9296823002
 20
-9.6300369994
 10
14.9145027035
 20
-9.6460398952
 10
14.8987120738
 20
-9.6617443773
 10
14.8823221372
 20
-9.6771387835
 10
14.8653450649
 20
-9.6922116817
 10
14.8477934643
 20
-9.7069518788
 10
14.8296803693
 20
-9.7213484286
 10
14.8110192307
 20
-9.7353906401
  0
LWPOLYLINE
  5
4B8
100
AcDbEntity
  8
RACCORDO
100
AcDbPolyline
 62
250
  6
CONTINUOUS
 90
63
 70
0
 10
15.0916794303
 20
0.3103051133
 10
15.091573885
 20
0.2835856509
 10
15.0909159074
 20
0.2384626194
 10
15.0897172797
 20
0.1952031975
 10
15.0880438772
 20
0.1537202971
 10
15.0859458671
 20
0.1138495148
 10
15.0834779311
 20
0.0756223402
 10
15.0806905628
 20
0.0390133618
 10
15.077606285
 20
0.0037720812
 10
15.0742624967
 20
-0.0301066619
 10
15.0706971379
 20
-0.0626164465
 10
15.066914127
 20
-0.0939896676
 10
15.0629374641
 20
-0.1242490999
 10
15.0587962618
 20
-0.1533726091
 10
15.0544880019
 20
-0.1815240296
 10
15.0500217148
 20
-0.2087658407
 10
15.0454264995
 20
-0.2350368151
 10
15.0407245029
 20
-0.2603149421
 10
15.03594107
 20
-0.284565115
 10
15.0310882844
 20
-0.3078261251
 10
15.0261659534
 20
-0.3301868064
 10
15.0211922947
 20
-0.3516358678
 10
15.0161789017
 20
-0.3721885513
 10
15.011110099
 20
-0.3919724531
 10
15.0059982689
 20
-0.4109875915
 10
15.0008527636
 20
-0.4292371764
 10
14.9956471409
 20
-0.4468520342
 10
14.9903792726
 20
-0.4638656737
 10
14.9850652124
 20
-0.4802463662
 10
14.9797019021
 20
-0.4960260215
 10
14.9742841012
 20
-0.5112327685
 10
14.9688287283
 20
-0.525840185
 10
14.9633666117
 20
-0.5397987949
 10
14.9579060001
 20
-0.5530989656
 10
14.9524529906
 20
-0.5657537826
 10
14.9470376848
 20
-0.5777490374
 10
14.9416769639
 20
-0.5890627853
 10
14.9363696747
 20
-0.5997218401
 10
14.9311195627
 20
-0.6097856221
 10
14.9259393491
 20
-0.6192465064
 10
14.9208300352
 20
-0.6281169058
 10
14.9157763784
 20
-0.6364858247
 10
14.9107868465
 20
-0.6443545012
 10
14.9058635828
 20
-0.6517256556
 10
14.9009795745
 20
-0.6586895379
 10
14.8961388329
 20
-0.6652526933
 10
14.8913447605
 20
-0.6714113885
 10
14.8865670544
 20
-0.6772393282
 10
14.8818089117
 20
-0.6827422424
 10
14.877071934
 20
-0.687916127
 10
14.8723211832
 20
-0.6928189314
 10
14.8675584467
 20
-0.6974564742
 10
14.8627843629
 20
-0.7018235111
 10
14.8579600721
 20
-0.7059601765
 10
14.8530827958
 20
-0.7098739938
 10
14.8481554655
 20
-0.7135567362
 10
14.8431458565
 20
-0.7170237675
 10
14.8380506365
 20
-0.720280085
 10
14.8328716466
 20
-0.7233189204
 10
14.8275829449
 20
-0.7261370453
 10
14.8221746995
 20
-0.7287323011
 10
14.8166539064
 20
-0.7311040538
 10
14.8110192307
 20
-0.7332509069
  0
LWPOLYLINE
  5
4B9
100
AcDbEntity
  8
ASSI
100
AcDbPolyline
 62
250
  6
CONTINUOUS
 90
63
 70
0
 10
15.0916794303
 20
0.3103051133
 10
15.091573885
 20
0.2835856509
 10
15.0909159074
 20
0.2384626194
 10
15.0897172797
 20
0.1952031975
 10
15.0880438772
 20
0.1537202971
 10
15.0859458671
 20
0.1138495148
 10
15.0834779311
 20
0.0756223402
 10
15.0806905628
 20
0.0390133618
 10
15.077606285
 20
0.0037720812
 10
15.0742624967
 20
-0.0301066619
 10
15.0706971379
 20
-0.0626164465
 10
15.066914127
 20
-0.0939896676
 10
15.0629374641
 20
-0.1242490999
 10
15.0587962618
 20
-0.1533726091
 10
15.0544880019
 20
-0.1815240296
 10
15.0500217148
 20
-0.2087658407
 10
15.0454264995
 20
-0.2350368151
 10
15.0407245029
 20
-0.2603149421
 10
15.03594107
 20
-0.284565115
 10
15.0310882844
 20
-0.3078261251
 10
15.0261659534
 20
-0.3301868064
 10
15.0211922947
 20
-0.3516358678
 10
15.0161789017
 20
-0.3721885513
 10
15.011110099
 20
-0.3919724531
 10
15.0059982689
 20
-0.4109875915
 10
15.0008527636
 20
-0.4292371764
 10
14.9956471409
 20
-0.4468520342
 10
14.9903792726
 20
-0.4638656737
 10
14.9850652124
 20
-0.4802463662
 10
14.9797019021
 20
-0.4960260215
 10
14.9742841012
 20
-0.5112327685
 10
14.9688287283
 20
-0.525840185
 10
14.9633666117
 20
-0.5397987949
 10
14.9579060001
 20
-0.5530989656
 10
14.9524529906
 20
-0.5657537826
 10
14.9470376848
 20
-0.5777490374
 10
14.9416769639
 20
-0.5890627853
 10
14.9363696747
 20
-0.5997218401
 10
14.9311195627
 20
-0.6097856221
 10
14.9259393491
 20
-0.6192465064
 10
14.9208300352
 20
-0.6281169058
 10
14.9157763784
 20
-0.6364858247
 10
14.9107868465
 20
-0.6443545012
 10
14.9058635828
 20
-0.6517256556
 10
14.9009795745
 20
-0.6586895379
 10
14.8961388329
 20
-0.6652526933
 10
14.8913447605
 20
-0.6714113885
 10
14.8865670544
 20
-0.6772393282
 10
14.8818089117
 20
-0.6827422424
 10
14.877071934
 20
-0.687916127
 10
14.8723211832
 20
-0.6928189314
 10
14.8675584467
 20
-0.6974564742
 10
14.8627843629
 20
-0.7018235111
 10
14.8579600721
 20
-0.7059601765
 10
14.8530827958
 20
-0.7098739938
 10
14.8481554655
 20
-0.7135567362
 10
14.8431458565
 20
-0.7170237675
 10
14.8380506365
 20
-0.720280085
 10
14.8328716466
 20
-0.7233189204
 10
14.8275829449
 20
-0.7261370453
 10
14.8221746995
 20
-0.7287323011
 10
14.8166539064
 20
-0.7311040538
 10
14.8110192307
 20
-0.7332509069
  0
LWPOLYLINE
  5
4BA
100
AcDbEntity
  8
RACCORDO
100
AcDbPolyline
 62
250
  6
CONTINUOUS
 90
25
 70
0
 10
14.8110192307
 20
-9.7353906401
 10
14.8107893017
 20
-9.7659209761
 10
14.809880818
 20
-9.7959649089
 10
14.8082941718
 20
-9.8255081846
 10
14.8060300465
 20
-9.8545367618
 10
14.8030895215
 20
-9.8830368919
 10
14.7994740585
 20
-9.9109951169
 10
14.7951853315
 20
-9.9383982328
 10
14.7902253458
 20
-9.9652331463
 10
14.784596541
 20
-9.9914869545
 10
14.7783015898
 20
-10.0171471441
 10
14.771343448
 20
-10.0422015748
 10
14.763725463
 20
-10.0666383271
 10
14.7554512493
 20
-10.0904457829
 10
14.7465247194
 20
-10.1136126337
 10
14.7369501358
 20
-10.1361278651
 10
14.726732043
 20
-10.1579807791
 10
14.7158752913
 20
-10.1791609724
 10
14.7043850641
 20
-10.1996583408
 10
14.6922668355
 20
-10.2194631264
 10
14.6795263641
 20
-10.2385659116
 10
14.6661697155
 20
-10.2569575972
 10
14.6522032729
 20
-10.27462941
 10
14.6376336752
 20
-10.2915729562
 10
14.6224678107
 20
-10.3077802153
  0
LWPOLYLINE
  5
4BB
100
AcDbEntity
  8
ASSI
100
AcDbPolyline
 62
250
  6
CONTINUOUS
 90
27
 70
0
 10
14.8110192307
 20
-9.7353906401
 10
14.8107893017
 20
-9.7659209761
 10
14.809880818
 20
-9.7959649089
 10
14.8082941718
 20
-9.8255081846
 10
14.8060300465
 20
-9.8545367618
 10
14.8030895215
 20
-9.8830368919
 10
14.7994740585
 20
-9.9109951169
 10
14.7951853315
 20
-9.9383982328
 10
14.7902253458
 20
-9.9652331463
 10
14.784596541
 20
-9.9914869545
 10
14.7783015898
 20
-10.0171471441
 10
14.771343448
 20
-10.0422015748
 10
14.763725463
 20
-10.0666383271
 10
14.7554512493
 20
-10.0904457829
 10
14.7465247194
 20
-10.1136126337
 10
14.7369501358
 20
-10.1361278651
 10
14.726732043
 20
-10.1579807791
 10
14.7158752913
 20
-10.1791609724
 10
14.7043850641
 20
-10.1996583408
 10
14.6922668355
 20
-10.2194631264
 10
14.6795263641
 20
-10.2385659116
 10
14.6661697155
 20
-10.2569575972
 10
14.6522032729
 20
-10.27462941
 10
14.6376336752
 20
-10.2915729562
 10
14.6224678107
 20
-10.3077802153
 10
14.6067129201
 20
-10.3232434564
 10
14.5903765091
 20
-10.3379553143
  0
LWPOLYLINE
  5
4BC
100
AcDbEntity
  8
RACCORDO
100
AcDbPolyline
 62
7
  6
CONTINUOUS
 90
23
 70
0
 10
15.0917345244
 20
-2.1284927173
 10
15.0917481975
 20
-2.1272911363
 10
15.0923274945
 20
-2.1147897759
 10
15.0934775497
 20
-2.1024880678
 10
15.0951758536
 20
-2.0904018994
 10
15.0973960826
 20
-2.0785694561
 10
15.1001026614
 20
-2.0670504835
 10
15.1032645485
 20
-2.0558631455
 10
15.1068490493
 20
-2.0450283627
 10
15.11080681
 20
-2.0346043055
 10
15.1150993806
 20
-2.0246042994
 10
15.1196898671
 20
-2.015036319
 10
15.1245212667
 20
-2.0059435049
 10
15.1295511517
 20
-1.9973313584
 10
15.1347411274
 20
-1.989197663
 10
15.1400334869
 20
-1.9815671599
 10
15.1453876883
 20
-1.9744342962
 10
15.1507640729
 20
-1.9677923808
 10
15.156101777
 20
-1.9616581424
 10
15.161356811
 20
-1.956024183
 10
15.1664956866
 20
-1.9508720284
 10
15.171471546
 20
-1.9461969401
 10
15.174869262
 20
-1.9431727761
  0
LINE
  5
4BD
100
AcDbEntity
  8
ASSI
100
AcDbLine
 62
7
  6
CONTINUOUS
 10
15.0916792333
 20
-2.1328679746
 11
15.0917345244
 21
-2.1284927173
  0
LWPOLYLINE
  5
4BE
100
AcDbEntity
  8
RACCORDO
100
AcDbPolyline
 62
250
  6
CONTINUOUS
 90
28
 70
0
 10
15.0911626379
 20
-9.2669231276
 10
15.0899156247
 20
-9.2861721595
 10
15.0879273157
 20
-9.3053900174
 10
15.0851991876
 20
-9.3245624301
 10
15.0817332663
 20
-9.34367516
 10
15.0775321255
 20
-9.3627140139
 10
15.0725988851
 20
-9.3816648535
 10
15.0669372085
 20
-9.4005136057
 10
15.0605513001
 20
-9.4192462733
 10
15.0534459022
 20
-9.4378489455
 10
15.0456262912
 20
-9.4563078076
 10
15.0370982739
 20
-9.4746091522
 10
15.0278681835
 20
-9.4927393884
 10
15.0179428741
 20
-9.5106850527
 10
15.0073297164
 20
-9.5284328186
 10
14.9960365917
 20
-9.5459695064
 10
14.9840718865
 20
-9.5632820933
 10
14.9714444857
 20
-9.5803577229
 10
14.9581637665
 20
-9.5971837147
 10
14.9442395913
 20
-9.6137475737
 10
14.9296823002
 20
-9.6300369994
 10
14.9145027035
 20
-9.6460398952
 10
14.8987120738
 20
-9.6617443773
 10
14.8823221372
 20
-9.6771387835
 10
14.8653450649
 20
-9.6922116817
 10
14.8477934643
 20
-9.7069518788
 10
14.8296803693
 20
-9.7213484286
 10
14.8110192307
 20
-9.7353906401
  0
LWPOLYLINE
  5
4BF
100
AcDbEntity
  8
ASSI
100
AcDbPolyline
 62
7
  6
CONTINUOUS
 90
8
 70
0
 10
15.0917345244
 20
-2.1284927173
 10
15.09528713
 20
-2.0897293588
 10
15.1040213406
 20
-2.0534379548
 10
15.1169319761
 20
-2.0206614424
 10
15.132598559
 20
-1.9924712782
 10
15.1498347814
 20
-1.9689054913
 10
15.167394329
 20
-1.9500053795
 10
15.174855289
 20
-1.9431849359
  0
LINE
  5
4C0
100
AcDbEntity
  8
0
100
AcDbLine
 62
250
  6
CONTINUOUS
 10
13.1197796122
 20
-5.5977961598
 11
13.2785586919
 21
-5.3360713767
  0
LINE
  5
4C1
100
AcDbEntity
  8
0
100
AcDbLine
 62
250
  6
CONTINUOUS
 10
11.6709207536
 20
-8.0405835667
 11
11.5121416904
 21
-8.3023085805
  0
LINE
  5
4C2
100
AcDbEntity
  8
0
100
AcDbLine
 62
250
  6
CONTINUOUS
 10
12.6434424723
 20
-6.4557018705
 11
12.8022215189
 21
-6.1939768689
  0
LINE
  5
4C3
100
AcDbEntity
  8
0
100
AcDbLine
 62
250
  6
CONTINUOUS
 10
12.6434424723
 20
-7.2557425471
 11
12.8022215189
 21
-6.9940177882
  0
LINE
  5
4C4
100
AcDbEntity
  8
0
100
AcDbLine
 62
250
  6
CONTINUOUS
 10
13.754895865
 20
-5.7145927378
 11
13.5961168018
 21
-5.9763175088
  0
LINE
  5
4C5
100
AcDbEntity
  8
0
100
AcDbLine
 62
250
  6
CONTINUOUS
 10
13.754895865
 20
-6.5146334143
 11
13.5961168018
 21
-6.7763584281
  0
LINE
  5
4C6
100
AcDbEntity
  8
0
100
AcDbLine
 62
250
  6
CONTINUOUS
 10
10.8770254542
 20
-10.3674415387
 11
10.9564150106
 21
-10.260822825
  0
LINE
  5
4C7
100
AcDbEntity
  8
0
100
AcDbLine
 62
250
  6
CONTINUOUS
 10
12.9610005655
 20
-8.8414913863
 11
13.040390122
 21
-8.7348726726
  0
LWPOLYLINE
  5
4C8
100
AcDbEntity
  8
RACCORDO
100
AcDbPolyline
 62
250
  6
CONTINUOUS
 90
13
 70
0
 10
-0.5445988845
 20
-24.5548989439
 10
-0.5177097045
 20
-24.5195796415
 10
-0.4927938493
 20
-24.4837561467
 10
-0.4698513189
 20
-24.4474284595
 10
-0.4487559632
 20
-24.4103338641
 10
-0.4296339322
 20
-24.3727350763
 10
-0.412863677
 20
-24.3354202438
 10
-0.3984843033
 20
-24.2983993414
 10
-0.3864567053
 20
-24.2616623942
 10
-0.3770420166
 20
-24.2259676251
 10
-0.3703272819
 20
-24.191567775
 10
-0.3662254565
 20
-24.158210103
 10
-0.3647365405
 20
-24.1258946091
  0
LINE
  5
4C9
100
AcDbEntity
  8
RACCORDO
100
AcDbLine
 62
250
  6
CONTINUOUS
 10
-0.8066518248
 20
-24.3371433222
 11
-1.3462388567
 21
-25.0117838907
  0
LINE
  5
4CA
100
AcDbEntity
  8
RACCORDO
100
AcDbLine
 62
250
  6
CONTINUOUS
 10
-0.5445988845
 20
-24.5548989439
 11
-1.0841859165
 21
-25.2295395124
  0
LINE
  5
4CB
100
AcDbEntity
  8
0
100
AcDbLine
 62
250
  6
CONTINUOUS
 10
11.5121416904
 20
-8.3023085805
 11
11.3533626272
 21
-8.491302403
  0
LINE
  5
4CC
100
AcDbEntity
  8
0
100
AcDbLine
 62
250
  6
CONTINUOUS
 10
13.5961168018
 20
-5.9763175088
 11
13.4373377386
 21
-6.1653113313
  0
LINE
  5
4CD
100
AcDbEntity
  8
0
100
AcDbLine
 62
250
  6
CONTINUOUS
 10
12.8022215189
 20
-6.9940177882
 11
12.9610005655
 21
-6.8050239779
  0
LINE
  5
4CE
100
AcDbEntity
  8
0
100
AcDbLine
 62
250
  6
CONTINUOUS
 10
11.485678516
 20
-8.7580714153
 11
11.5386048731
 21
-8.6950735534
  0
LINE
  5
4CF
100
AcDbEntity
  8
0
100
AcDbLine
 62
250
  6
CONTINUOUS
 10
11.6179944006
 20
-8.709673068
 11
11.5650680476
 21
-8.7726711696
  0
LINE
  5
4D0
100
AcDbEntity
  8
0
100
AcDbLine
 62
250
  6
CONTINUOUS
 10
13.5961168018
 20
-6.7763584281
 11
13.4373377386
 21
-6.9653522506
  0
LINE
  5
4D1
100
AcDbEntity
  8
0
100
AcDbLine
 62
250
  6
CONTINUOUS
 10
13.5696536273
 20
-7.2321212629
 11
13.6225799845
 21
-7.169123401
  0
LINE
  5
4D2
100
AcDbEntity
  8
0
100
AcDbLine
 62
250
  6
CONTINUOUS
 10
13.701969512
 20
-7.1837229156
 11
13.6490431589
 21
-7.2467210172
  0
LINE
  5
4D3
100
AcDbEntity
  8
0
100
AcDbLine
 62
250
  6
CONTINUOUS
 10
10.5594673609
 20
-11.4727390998
 11
11.6709207536
 21
-10.3679750727
  0
LINE
  5
4D4
100
AcDbEntity
  8
0
100
AcDbLine
 62
250
  6
CONTINUOUS
 10
12.6434424723
 20
-9.9467889474
 11
13.754895865
 21
-8.8420249203
  0
LINE
  5
4D5
100
AcDbEntity
  8
0
100
AcDbLine
 62
250
  6
CONTINUOUS
 10
13.754895865
 20
-7.7753038362
 11
12.6434424723
 21
-8.5891439175
  0
LINE
  5
4D6
100
AcDbEntity
  8
0
100
AcDbLine
 62
250
  6
CONTINUOUS
 10
11.6709207536
 20
-9.3012539886
 11
10.5594673609
 21
-10.1150940698
  0
LINE
  5
4D7
100
AcDbEntity
  8
0
100
AcDbLine
 62
250
  6
CONTINUOUS
 10
10.9564150106
 20
-10.260822825
 11
11.1151940572
 21
-10.1445599631
  0
LINE
  5
4D8
100
AcDbEntity
  8
0
100
AcDbLine
 62
250
  6
CONTINUOUS
 10
13.040390122
 20
-8.7348726726
 11
13.1991691686
 21
-8.6186098107
  0
LINE
  5
4D9
100
AcDbEntity
  8
0
100
AcDbLine
 62
250
  6
CONTINUOUS
 10
13.754895865
 20
-8.5511010048
 11
12.9610005655
 21
-9.1324153625
  0
LINE
  5
4DA
100
AcDbEntity
  8
0
100
AcDbLine
 62
250
  6
CONTINUOUS
 10
11.6709207536
 20
-10.0770511572
 11
10.8770254542
 21
-10.6583655149
  0
LINE
  5
4DB
100
AcDbEntity
  8
DRAFT
100
AcDbLine
 62
7
  6
CONTINUOUS
 10
1.598374382
 20
-16.557481748
 11
-0.1870702405
 21
-17.7766638262
  0
LINE
  5
4DC
100
AcDbEntity
  8
0
100
AcDbLine
 62
250
  6
CONTINUOUS
 10
13.754895865
 20
-9.423872812
 11
12.6434424723
 21
-9.9467889474
  0
LINE
  5
4DD
100
AcDbEntity
  8
0
100
AcDbLine
 62
250
  6
CONTINUOUS
 10
11.6709207536
 20
-10.9498229644
 11
10.5594673609
 21
-11.4727390998
  0
LWPOLYLINE
  5
4DE
100
AcDbEntity
  8
RACCORDO
100
AcDbPolyline
 62
7
  6
CONTINUOUS
 90
47
 70
0
 10
-3.8966548106
 20
17.8291900594
 10
-3.9192645705
 20
17.8399807115
 10
-3.9422411085
 20
17.8502943989
 10
-3.965569788
 20
17.8601261331
 10
-3.9892358467
 20
17.8694714068
 10
-4.0132154753
 20
17.8783227967
 10
-4.0374929064
 20
17.8866761548
 10
-4.0620533935
 20
17.8945281775
 10
-4.0868737426
 20
17.9018733459
 10
-4.1119363487
 20
17.9087080471
 10
-4.1372272305
 20
17.9150301877
 10
-4.1627280139
 20
17.9208367793
 10
-4.1884223397
 20
17.9261251977
 10
-4.2142945029
 20
17.9308934486
 10
-4.2403267175
 20
17.9351393796
 10
-4.2665024585
 20
17.9388609194
 10
-4.292805789
 20
17.9420565811
 10
-4.3192194892
 20
17.9447248954
 10
-4.3457270982
 20
17.9468643175
 10
-4.3723123374
 20
17.9484738187
 10
-4.3989580038
 20
17.9495524607
 10
-4.4256476948
 20
17.9500991914
 10
-4.4523648825
 20
17.9501134573
 10
-4.4790919712
 20
17.9495948351
 10
-4.5058127571
 20
17.9485427506
 10
-4.5325104071
 20
17.9469571529
 10
-4.5591662383
 20
17.9448382413
 10
-4.5857637803
 20
17.9421859892
 10
-4.6122864664
 20
17.9390008835
 10
-4.6387154029
 20
17.9352837902
 10
-4.6650345656
 20
17.9310351332
 10
-4.6912270335
 20
17.9262559764
 10
-4.7172726031
 20
17.9209481119
 10
-4.7431571557
 20
17.9151120805
 10
-4.7688620612
 20
17.9087498914
 10
-4.7943606573
 20
17.9018659619
 10
-4.8196374319
 20
17.8944621372
 10
-4.8446758646
 20
17.8865410508
 10
-4.8694484513
 20
17.8781091706
 10
-4.8939396051
 20
17.8691694865
 10
-4.9181339816
 20
17.8597253922
 10
-4.9420053153
 20
17.8497848444
 10
-4.9655384866
 20
17.8393517819
 10
-4.9887187808
 20
17.828430514
 10
-5.0115215133
 20
17.8170303186
 10
-5.0339318327
 20
17.8051561541
 10
-5.0559365706
 20
17.792812539
  0
LINE
  5
4DF
100
AcDbEntity
  8
RACCORDO
100
AcDbLine
 62
7
  6
CONTINUOUS
 10
-3.8821346232
 20
17.8218328719
 11
-3.8966548106
 21
17.8291900594
  0
LWPOLYLINE
  5
4E0
100
AcDbEntity
  8
RACCORDO
100
AcDbPolyline
 62
7
  6
CONTINUOUS
 90
16
 70
0
 10
-3.8437234384
 20
17.8012324943
 10
-3.8467401917
 20
17.8027929824
 10
-3.8498018976
 20
17.8040990441
 10
-3.8529838772
 20
17.8051937646
 10
-3.8562820274
 20
17.8060757019
 10
-3.8596925994
 20
17.8067440298
 10
-3.8632111467
 20
17.8071977824
 10
-3.8668331325
 20
17.8074362829
 10
-3.8705544637
 20
17.807459526
 10
-3.8743702935
 20
17.8072673163
 10
-3.8782757029
 20
17.8068597485
 10
-3.8822663078
 20
17.80623764
 10
-3.8863369151
 20
17.8054015666
 10
-3.8904822787
 20
17.8043523917
 10
-3.8946977805
 20
17.8030917478
 10
-3.8989779392
 20
17.8016209738
  0
LWPOLYLINE
  5
4E1
100
AcDbEntity
  8
ASSI
100
AcDbPolyline
 62
7
  6
CONTINUOUS
 90
27
 70
0
 10
-3.8436777373
 20
17.8012065772
 10
-3.8467401917
 20
17.8027929824
 10
-3.8498018976
 20
17.8040990441
 10
-3.8529838772
 20
17.8051937646
 10
-3.8562820274
 20
17.8060757019
 10
-3.8596925994
 20
17.8067440298
 10
-3.8632111467
 20
17.8071977824
 10
-3.8668331325
 20
17.8074362829
 10
-3.8705544637
 20
17.807459526
 10
-3.8743702935
 20
17.8072673163
 10
-3.8782757029
 20
17.8068597485
 10
-3.8822663078
 20
17.80623764
 10
-3.8863369151
 20
17.8054015666
 10
-3.8904822787
 20
17.8043523917
 10
-3.8946977805
 20
17.8030917478
 10
-3.8989779392
 20
17.8016209738
 10
-3.9033172396
 20
17.7999416905
 10
-3.9077108882
 20
17.7980563289
 10
-3.9121531759
 20
17.7959669747
 10
-3.9166383796
 20
17.7936759865
 10
-3.9211615919
 20
17.791186568
 10
-3.9257169389
 20
17.788501527
 10
-3.9302985518
 20
17.7856239321
 10
-3.93490147
 20
17.7825577261
 10
-3.9395200628
 20
17.7793066371
 10
-3.9441480361
 20
17.7758741776
 10
-3.9487794051
 20
17.7722642964
  0
LINE
  5
4E2
100
AcDbEntity
  8
RACCORDO
100
AcDbLine
 62
250
  6
CONTINUOUS
 10
-4.7515485611
 20
20.7657299007
 11
-4.1614605885
 21
20.3484746937
  0
LINE
  5
4E3
100
AcDbEntity
  8
RACCORDO
100
AcDbLine
 62
250
  6
CONTINUOUS
 10
0.7882868798
 20
16.8484746937
 11
1.3783748525
 21
16.4312194868
  0
LINE
  5
4E4
100
AcDbEntity
  8
0
100
AcDbLine
 62
7
  6
CONTINUOUS
 10
-2.6960507001
 20
19.446059853
 11
0.9000139547
 21
16.90325815
  0
LINE
  5
4E5
100
AcDbEntity
  8
RACCORDO
100
AcDbLine
 62
7
  6
CONTINUOUS
 10
-4.355172138
 20
20.7399186836
 11
-3.9861602617
 21
20.4789878835
  0
LINE
  5
4E6
100
AcDbEntity
  8
RACCORDO
100
AcDbLine
 62
7
  6
CONTINUOUS
 10
1.1841662298
 20
16.8230149604
 11
1.5531781061
 21
16.5620841603
  0
LINE
  5
4E7
100
AcDbEntity
  8
DRAFT
100
AcDbLine
 62
7
  6
CONTINUOUS
 10
-5.3862133893
 20
22.5470596149
 11
-5.2464289723
 21
22.4482171057
  0
LINE
  5
4E8
100
AcDbEntity
  8
ASSI
100
AcDbLine
 62
7
  6
CONTINUOUS
 10
-5.3862133893
 20
22.5470596149
 11
-5.2464289723
 21
22.4482171057
  0
LINE
  5
4E9
100
AcDbEntity
  8
DRAFT
100
AcDbLine
 62
7
  6
CONTINUOUS
 10
6.2854751113
 20
14.2939295282
 11
6.9566165565
 21
13.8193608611
  0
LINE
  5
4EA
100
AcDbEntity
  8
ASSI
100
AcDbLine
 62
7
  6
CONTINUOUS
 10
6.2854751113
 20
14.2939295282
 11
6.9566165565
 21
13.8193608611
  0
LINE
  5
4EB
100
AcDbEntity
  8
RACCORDO
100
AcDbLine
 62
250
  6
CONTINUOUS
 10
-4.9309600037
 20
22.391552729
 11
-2.0370549487
 21
20.3452528405
  0
LINE
  5
4EC
100
AcDbEntity
  8
RACCORDO
100
AcDbLine
 62
250
  6
CONTINUOUS
 10
2.2055857384
 20
17.3452528405
 11
5.0994907934
 21
15.298952952
  0
LINE
  5
4ED
100
AcDbEntity
  8
0
100
AcDbLine
 62
7
  6
CONTINUOUS
 10
2.2515665002
 20
17.3758256267
 11
-1.33611876
 21
19.912702203
  0
LINE
  5
4EE
100
AcDbEntity
  8
RACCORDO
100
AcDbLine
 62
7
  6
CONTINUOUS
 10
-4.643690876
 20
22.6973612599
 11
-1.465875272
 21
20.4503062969
  0
LINE
  5
4EF
100
AcDbEntity
  8
RACCORDO
100
AcDbLine
 62
7
  6
CONTINUOUS
 10
2.7767654152
 20
17.4503062969
 11
5.9545810192
 21
15.203251334
  0
LWPOLYLINE
  5
4F0
100
AcDbEntity
  8
RACCORDO
100
AcDbPolyline
 62
250
  6
CONTINUOUS
 90
63
 70
0
 10
15.0916794304
 20
1.1266810931
 10
15.0969737523
 20
1.10793813
 10
15.1093755427
 20
1.0601721562
 10
15.120991953
 20
1.0112612977
 10
15.1317959516
 20
0.9612545143
 10
15.1417064044
 20
0.9102557881
 10
15.1507027833
 20
0.8583039832
 10
15.1587775426
 20
0.8053694324
 10
15.1658722364
 20
0.7514540949
 10
15.1720000672
 20
0.69601175
 10
15.1771103602
 20
0.6395997614
 10
15.181087821
 20
0.5838776272
 10
15.1838943666
 20
0.5291173168
 10
15.1856201079
 20
0.4750600379
 10
15.1863974405
 20
0.4225695673
 10
15.186255814
 20
0.3718675787
 10
15.1852470857
 20
0.3227385811
 10
15.1835543084
 20
0.2753894192
 10
15.181228239
 20
0.2299300176
 10
15.1782943338
 20
0.1862504257
 10
15.1748935865
 20
0.1442274629
 10
15.1710714248
 20
0.1038980776
 10
15.1668427937
 20
0.0652221515
 10
15.16229271
 20
0.0279616745
 10
15.1574542699
 20
-0.0078855149
 10
15.1523391765
 20
-0.0423214112
 10
15.1469906613
 20
-0.0755826647
 10
15.1414302396
 20
-0.1076899048
 10
15.1356693119
 20
-0.1386266649
 10
15.1297288445
 20
-0.1685729615
 10
15.123612448
 20
-0.1975897026
 10
15.117341235
 20
-0.2256198527
 10
15.1109589778
 20
-0.2526659889
 10
15.1044814637
 20
-0.278711998
 10
15.0979148355
 20
-0.3037780377
 10
15.0912866458
 20
-0.3279207822
 10
15.0846150144
 20
-0.3511181578
 10
15.0778996919
 20
-0.3733959007
 10
15.0711382247
 20
-0.394881903
 10
15.0643430027
 20
-0.4155741312
 10
15.057515033
 20
-0.435477589
 10
15.0506322908
 20
-0.454730204
 10
15.0436943999
 20
-0.4733580279
 10
15.0367115598
 20
-0.4913373414
 10
15.0296759674
 20
-0.5087310688
 10
15.0225765772
 20
-0.525573754
 10
15.0154322451
 20
-0.5418327821
 10
15.0082794187
 20
-0.557470175
 10
15.0011155518
 20
-0.5724868652
 10
14.9939500059
 20
-0.586883544
 10
14.986836816
 20
-0.6006217291
 10
14.9797871363
 20
-0.6136767745
 10
14.9727953247
 20
-0.6260745063
 10
14.9658896416
 20
-0.6378519434
 10
14.9590821567
 20
-0.6489924062
 10
14.9523646147
 20
-0.659513261
 10
14.9457340298
 20
-0.6695023986
 10
14.9391973444
 20
-0.6789572024
 10
14.9327499785
 20
-0.6878806012
 10
14.9263710439
 20
-0.6963686812
 10
14.9200539656
 20
-0.7044534917
 10
14.9138066704
 20
-0.7121030618
 10
14.90762972
 20
-0.7193173886
  0
LWPOLYLINE
  5
4F1
100
AcDbEntity
  8
ASSI
100
AcDbPolyline
 62
250
  6
CONTINUOUS
 90
63
 70
0
 10
15.0916794304
 20
1.1266810931
 10
15.0969737523
 20
1.10793813
 10
15.1093755427
 20
1.0601721562
 10
15.120991953
 20
1.0112612977
 10
15.1317959516
 20
0.9612545143
 10
15.1417064044
 20
0.9102557881
 10
15.1507027833
 20
0.8583039832
 10
15.1587775426
 20
0.8053694324
 10
15.1658722364
 20
0.7514540949
 10
15.1720000672
 20
0.69601175
 10
15.1771103602
 20
0.6395997614
 10
15.181087821
 20
0.5838776272
 10
15.1838943666
 20
0.5291173168
 10
15.1856201079
 20
0.4750600379
 10
15.1863974405
 20
0.4225695673
 10
15.186255814
 20
0.3718675787
 10
15.1852470857
 20
0.3227385811
 10
15.1835543084
 20
0.2753894192
 10
15.181228239
 20
0.2299300176
 10
15.1782943338
 20
0.1862504257
 10
15.1748935865
 20
0.1442274629
 10
15.1710714248
 20
0.1038980776
 10
15.1668427937
 20
0.0652221515
 10
15.16229271
 20
0.0279616745
 10
15.1574542699
 20
-0.0078855149
 10
15.1523391765
 20
-0.0423214112
 10
15.1469906613
 20
-0.0755826647
 10
15.1414302396
 20
-0.1076899048
 10
15.1356693119
 20
-0.1386266649
 10
15.1297288445
 20
-0.1685729615
 10
15.123612448
 20
-0.1975897026
 10
15.117341235
 20
-0.2256198527
 10
15.1109589778
 20
-0.2526659889
 10
15.1044814637
 20
-0.278711998
 10
15.0979148355
 20
-0.3037780377
 10
15.0912866458
 20
-0.3279207822
 10
15.0846150144
 20
-0.3511181578
 10
15.0778996919
 20
-0.3733959007
 10
15.0711382247
 20
-0.394881903
 10
15.0643430027
 20
-0.4155741312
 10
15.057515033
 20
-0.435477589
 10
15.0506322908
 20
-0.454730204
 10
15.0436943999
 20
-0.4733580279
 10
15.0367115598
 20
-0.4913373414
 10
15.0296759674
 20
-0.5087310688
 10
15.0225765772
 20
-0.525573754
 10
15.0154322451
 20
-0.5418327821
 10
15.0082794187
 20
-0.557470175
 10
15.0011155518
 20
-0.5724868652
 10
14.9939500059
 20
-0.586883544
 10
14.986836816
 20
-0.6006217291
 10
14.9797871363
 20
-0.6136767745
 10
14.9727953247
 20
-0.6260745063
 10
14.9658896416
 20
-0.6378519434
 10
14.9590821567
 20
-0.6489924062
 10
14.9523646147
 20
-0.659513261
 10
14.9457340298
 20
-0.6695023986
 10
14.9391973444
 20
-0.6789572024
 10
14.9327499785
 20
-0.6878806012
 10
14.9263710439
 20
-0.6963686812
 10
14.9200539656
 20
-0.7044534917
 10
14.9138066704
 20
-0.7121030618
 10
14.90762972
 20
-0.7193173886
  0
LWPOLYLINE
  5
4F2
100
AcDbEntity
  8
RACCORDO
100
AcDbPolyline
 62
250
  6
CONTINUOUS
 90
3
 70
0
 10
14.6224678107
 20
-10.3077802153
 10
14.6067129201
 20
-10.3232434564
 10
14.5903765091
 20
-10.3379553143
  0
LWPOLYLINE
  5
4F3
100
AcDbEntity
  8
RACCORDO
100
AcDbPolyline
 62
7
  6
CONTINUOUS
 90
37
 70
0
 10
14.6241121364
 20
-10.3115306859
 10
14.647623257
 20
-10.2911720296
 10
14.6706340073
 20
-10.2702252289
 10
14.6931481146
 20
-10.2486854096
 10
14.7151508243
 20
-10.2265640926
 10
14.7366274012
 20
-10.2038737994
 10
14.7575800019
 20
-10.1806090702
 10
14.7779943394
 20
-10.1567813854
 10
14.7978557187
 20
-10.1324036425
 10
14.8171641199
 20
-10.1074704469
 10
14.8359052228
 20
-10.0819937013
 10
14.8540650483
 20
-10.0559861917
 10
14.8716425978
 20
-10.0294418015
 10
14.8886227946
 20
-10.0023743737
 10
14.9049931517
 20
-9.9747948366
 10
14.920754745
 20
-9.94669032
 10
14.93589228
 20
-9.9180752726
 10
14.9503936677
 20
-9.8889594915
 10
14.9642619779
 20
-9.8593200263
 10
14.9774825175
 20
-9.8291676177
 10
14.9900409566
 20
-9.7985140792
 10
15.00193727
 20
-9.7673343
 10
15.0131561236
 20
-9.7356379553
 10
15.0236821766
 20
-9.703436122
 10
15.0335118249
 20
-9.670701788
 10
15.0426288888
 20
-9.6374437037
 10
15.0510172496
 20
-9.6036718128
 10
15.0586696219
 20
-9.569356321
 10
15.0655687852
 20
-9.534503836
 10
15.071697381
 20
-9.4991238154
 10
15.0770439118
 20
-9.4631855917
 10
15.0815896568
 20
-9.4266930772
 10
15.08531578
 20
-9.3896544942
 10
15.0882062708
 20
-9.3520395162
 10
15.0902409978
 20
-9.3138391702
 10
15.0913985518
 20
-9.2750712736
 10
15.0916794211
 20
-9.2442059987
  0
LWPOLYLINE
  5
4F4
100
AcDbEntity
  8
RACCORDO
100
AcDbPolyline
 62
250
  6
CONTINUOUS
 90
3
 70
0
 10
14.5903765091
 20
-10.3379553143
 10
14.5734662834
 20
-10.3519088389
 10
14.5608939827
 20
-10.3615161995
  0
LWPOLYLINE
  5
4F5
100
AcDbEntity
  8
ASSI
100
AcDbPolyline
 62
250
  6
CONTINUOUS
 90
3
 70
0
 10
14.5903765091
 20
-10.3379553143
 10
14.5734662834
 20
-10.3519088389
 10
14.5608939827
 20
-10.3615161995
  0
LINE
  5
4F6
100
AcDbEntity
  8
RACCORDO
100
AcDbLine
 62
7
  6
CONTINUOUS
 10
14.600108806
 20
-10.3312941566
 11
14.6241121364
 21
-10.3115306859
  0
LWPOLYLINE
  5
4F7
100
AcDbEntity
  8
ASSI
100
AcDbPolyline
 62
7
  6
CONTINUOUS
 90
12
 70
0
 10
14.5599885085
 20
-10.3621842329
 10
14.6309807515
 20
-10.3056875922
 10
14.7131933856
 20
-10.2285769887
 10
14.7878968075
 20
-10.1447809979
 10
14.8550038304
 20
-10.0546037037
 10
14.9149808478
 20
-9.9571745019
 10
14.9671860327
 20
-9.8528208624
 10
15.0108833297
 20
-9.7422603136
 10
15.0459102368
 20
-9.6246422553
 10
15.0715900075
 20
-9.4997824607
 10
15.0870438896
 20
-9.3685692505
 10
15.0916793624
 20
-9.2444356607
  0
LWPOLYLINE
  5
4F8
100
AcDbEntity
  8
RACCORDO
100
AcDbPolyline
 62
7
  6
CONTINUOUS
 90
3
 70
0
 10
14.5608885001
 20
-10.3615201887
 10
14.5756345865
 20
-10.3504451323
 10
14.600108806
 20
-10.3312941566
  0
LINE
  5
4F9
100
AcDbEntity
  8
RACCORDO
100
AcDbLine
 62
250
  6
CONTINUOUS
 10
1.598374382
 20
-19.5073184344
 11
14.8110192307
 21
-9.7353906401
  0
LINE
  5
4FA
100
AcDbEntity
  8
ASSI
100
AcDbLine
 62
250
  6
CONTINUOUS
 10
1.598374382
 20
-19.5073184344
 11
14.8110192307
 21
-9.7353906401
  0
LINE
  5
4FB
100
AcDbEntity
  8
RACCORDO
100
AcDbLine
 62
7
  6
CONTINUOUS
 10
1.598374382
 20
-19.9484540928
 11
14.5608939833
 21
-10.3615161991
  0
LINE
  5
4FC
100
AcDbEntity
  8
ASSI
100
AcDbLine
 62
7
  6
CONTINUOUS
 10
1.598374382
 20
-19.9484540928
 11
14.5608939833
 21
-10.3615161991
  0
LWPOLYLINE
  5
4FD
100
AcDbEntity
  8
RACCORDO
100
AcDbPolyline
 62
7
  6
CONTINUOUS
 90
16
 70
0
 10
-1.4659208425
 20
20.4503385125
 10
-1.4806541251
 20
20.4599611132
 10
-1.5097910953
 20
20.4751393675
 10
-1.5410486462
 20
20.4867159895
 10
-1.5744536418
 20
20.4946453526
 10
-1.6099792181
 20
20.4989730835
 10
-1.6471772178
 20
20.4996445875
 10
-1.6860688277
 20
20.4966135464
 10
-1.726632861
 20
20.4899262784
 10
-1.7683576001
 20
20.4796671439
 10
-1.8112577491
 20
20.4657908932
 10
-1.855318604
 20
20.448342776
 10
-1.8999843344
 20
20.4275429012
 10
-1.9450696636
 20
20.4034646385
 10
-1.9907598684
 20
20.3760346183
 10
-2.0370549487
 20
20.3452528405
  0
LWPOLYLINE
  5
4FE
100
AcDbEntity
  8
RACCORDO
100
AcDbPolyline
 62
250
  6
CONTINUOUS
 90
7
 70
0
 10
1.0649453611
 20
-24.024871882
 10
1.08626141
 20
-24.0073826776
 10
1.1041772584
 20
-23.9880719544
 10
1.1183837726
 20
-23.9672677716
 10
1.128635543
 20
-23.9453219828
 10
1.1347519296
 20
-23.9226108425
 10
1.1366327489
 20
-23.9009674586
  0
LWPOLYLINE
  5
4FF
100
AcDbEntity
  8
RACCORDO
100
AcDbPolyline
 62
250
  6
CONTINUOUS
 90
7
 70
0
 10
1.0649453611
 20
-23.7426600769
 10
1.0860442727
 20
-23.7253742357
 10
1.1038511676
 20
-23.7062661059
 10
1.1180448483
 20
-23.6856452649
 10
1.1283678436
 20
-23.6638341626
 10
1.1346076901
 20
-23.6412103693
 10
1.1366326999
 20
-23.6188663145
  0
LINE
  5
500
100
AcDbEntity
  8
RACCORDO
100
AcDbLine
 62
250
  6
CONTINUOUS
 10
1.0338601001
 20
-24.1030172034
 11
1.0338194455
 21
-24.1030468398
  0
LINE
  5
501
100
AcDbEntity
  8
RACCORDO
100
AcDbLine
 62
250
  6
CONTINUOUS
 10
0.5377142102
 20
-24.4088863769
 11
1.0649453611
 21
-24.024871882
  0
LINE
  5
502
100
AcDbEntity
  8
RACCORDO
100
AcDbLine
 62
7
  6
CONTINUOUS
 10
0.5056889697
 20
-24.4877163676
 11
1.0338194455
 21
-24.1030468398
  0
LINE
  5
503
100
AcDbEntity
  8
RACCORDO
100
AcDbLine
 62
7
  6
CONTINUOUS
 10
0.5056873363
 20
-24.4877174551
 11
0.5035166829
 21
-24.4892294625
  0
LINE
  5
504
100
AcDbEntity
  8
RACCORDO
100
AcDbLine
 62
250
  6
CONTINUOUS
 10
-0.200249058
 20
-23.7345488092
 11
1.598374382
 21
-22.4909405719
  0
LINE
  5
505
100
AcDbEntity
  8
RACCORDO
100
AcDbLine
 62
7
  6
CONTINUOUS
 10
-0.2662159767
 20
-23.8935620794
 11
1.5324074632
 21
-22.6499538421
  0
LINE
  5
506
100
AcDbEntity
  8
RACCORDO
100
AcDbLine
 62
250
  6
CONTINUOUS
 10
-1.0841859165
 20
-25.4885884031
 11
0.5377142102
 21
-24.4089065697
  0
LINE
  5
507
100
AcDbEntity
  8
RACCORDO
100
AcDbLine
 62
7
  6
CONTINUOUS
 10
-1.1193162803
 20
-25.5695322753
 11
0.5035180902
 21
-24.4892285256
  0
LWPOLYLINE
  5
508
100
AcDbEntity
  8
RACCORDO
100
AcDbPolyline
 62
250
  6
CONTINUOUS
 90
16
 70
0
 10
-5.2865779846
 20
-26.2235966368
 10
-5.3255871423
 20
-26.2490993483
 10
-5.367899592
 20
-26.271603868
 10
-5.413061991
 20
-26.2908690788
 10
-5.460590462
 20
-26.3066885701
 10
-5.5099757774
 20
-26.3188928493
 10
-5.5606888148
 20
-26.3273511577
 10
-5.6121862264
 20
-26.3319728717
 10
-5.6639162606
 20
-26.3327084734
 10
-5.7153246734
 20
-26.3295500815
 10
-5.7658606666
 20
-26.3225315355
 10
-5.8149827894
 20
-26.3117280332
 10
-5.8621647393
 20
-26.2972553253
 10
-5.9069010013
 20
-26.2792684748
 10
-5.9487122637
 20
-26.2579601955
 10
-5.9871505539
 20
-26.2335587881
  0
LINE
  5
509
100
AcDbEntity
  8
RACCORDO
100
AcDbLine
 62
250
  6
CONTINUOUS
 10
-4.6053875667
 20
-26.4355730476
 11
-0.1870702405
 21
-23.6461285395
  0
LINE
  5
50A
100
AcDbEntity
  8
RACCORDO
100
AcDbLine
 62
7
  6
CONTINUOUS
 10
-4.6857935689
 20
-26.6040387676
 11
-0.2574572076
 21
-23.8082688779
  0
LWPOLYLINE
  5
50B
100
AcDbEntity
  8
RACCORDO
100
AcDbPolyline
 62
250
  6
CONTINUOUS
 90
13
 70
0
 10
-0.3647365405
 20
-24.1258946092
 10
-0.3894032909
 20
-24.1406821634
 10
-0.4165631777
 20
-24.1530945152
 10
-0.4457617441
 20
-24.1629239714
 10
-0.4765104223
 20
-24.1700060582
 10
-0.5082947032
 20
-24.1742222712
 10
-0.5405827457
 20
-24.1755020608
 10
-0.5728342825
 20
-24.1738240126
 10
-0.60450966
 20
-24.1692162052
 10
-0.6350788637
 20
-24.1617557395
 10
-0.6640303887
 20
-24.1515674493
 10
-0.6908797979
 20
-24.138821812
 10
-0.7151778284
 20
-24.1237320965
  0
LINE
  5
50C
100
AcDbEntity
  8
RACCORDO
100
AcDbLine
 62
7
  6
CONTINUOUS
 10
-14.5935089716
 20
17.8202567639
 11
-14.0539219396
 21
17.8825248967
  0
LINE
  5
50D
100
AcDbEntity
  8
RACCORDO
100
AcDbLine
 62
250
  6
CONTINUOUS
 10
-14.4485040809
 20
17.9414460611
 11
-13.9089170489
 21
18.0037141939
  0
LWPOLYLINE
  5
50E
100
AcDbEntity
  8
RACCORDO
100
AcDbPolyline
 62
250
  6
CONTINUOUS
 90
13
 70
0
 10
-1.0841859165
 20
-25.2295395124
 10
-1.1089058423
 20
-25.2443549667
 10
-1.1361234624
 20
-25.2567831623
 10
-1.1653805041
 20
-25.2666166084
 10
-1.1961820167
 20
-25.2736910345
 10
-1.228013012
 20
-25.2778901384
 10
-1.2603478716
 20
-25.2791448745
 10
-1.2926716626
 20
-25.2774305447
 10
-1.3244132668
 20
-25.2727727145
 10
-1.3549698694
 20
-25.2652693412
 10
-1.3838174524
 20
-25.2550733146
 10
-1.4105122244
 20
-25.2423670005
 10
-1.4346272044
 20
-25.2273769997
  0
LWPOLYLINE
  5
50F
100
AcDbEntity
  8
RACCORDO
100
AcDbPolyline
 62
250
  6
CONTINUOUS
 90
13
 70
0
 10
-1.0841859165
 20
-25.4885884031
 10
-1.1089582867
 20
-25.5034313588
 10
-1.1362497976
 20
-25.5158818177
 10
-1.1656016391
 20
-25.5257276646
 10
-1.1965222369
 20
-25.5328009805
 10
-1.2284877226
 20
-25.5369790544
 10
-1.2609500556
 20
-25.5381889986
 10
-1.2934282188
 20
-25.5364033555
 10
-1.3253026839
 20
-25.5316466355
 10
-1.3558355396
 20
-25.5240588111
 10
-1.3844809508
 20
-25.5138475608
 10
-1.4108726211
 20
-25.5012190112
 10
-1.4346272044
 20
-25.4864258904
  0
LINE
  5
510
100
AcDbEntity
  8
RACCORDO
100
AcDbLine
 62
250
  6
CONTINUOUS
 10
14.0395109298
 20
16.9644577808
 11
0.2834957286
 21
26.6914294117
  0
LINE
  5
511
100
AcDbEntity
  8
ASSI
100
AcDbLine
 62
250
  6
CONTINUOUS
 10
14.0395109298
 20
16.9644577808
 11
0.2834957286
 21
26.6914294117
  0
LINE
  5
512
100
AcDbEntity
  8
RACCORDO
100
AcDbLine
 62
7
  6
CONTINUOUS
 10
14.480773853
 20
17.1527311551
 11
0.9688934345
 21
26.7070579077
  0
LINE
  5
513
100
AcDbEntity
  8
ASSI
100
AcDbLine
 62
7
  6
CONTINUOUS
 10
14.480773853
 20
17.1527311551
 11
0.9688934345
 21
26.7070579077
  0
LWPOLYLINE
  5
514
100
AcDbEntity
  8
RACCORDO
100
AcDbPolyline
 62
7
  6
CONTINUOUS
 90
5
 70
0
 10
14.4807747066
 20
17.1527305516
 10
14.4838758207
 20
17.1503128535
 10
14.4874167574
 20
17.1468771222
 10
14.4905080174
 20
17.1430401185
 10
14.4924950583
 20
17.1399611272
  0
LWPOLYLINE
  5
515
100
AcDbEntity
  8
ASSI
100
AcDbPolyline
 62
7
  6
CONTINUOUS
 90
5
 70
0
 10
14.4807747066
 20
17.1527305516
 10
14.4838758207
 20
17.1503128535
 10
14.4874167574
 20
17.1468771222
 10
14.4905080174
 20
17.1430401185
 10
14.4924950583
 20
17.1399611272
  0
LINE
  5
516
100
AcDbEntity
  8
RACCORDO
100
AcDbLine
 62
7
  6
CONTINUOUS
 10
14.747460402
 20
16.7047087711
 11
14.4924958028
 21
17.1399605673
  0
LINE
  5
517
100
AcDbEntity
  8
ASSI
100
AcDbLine
 62
7
  6
CONTINUOUS
 10
14.747460402
 20
16.7047087711
 11
14.4924958028
 21
17.1399605673
  0
LINE
  5
518
100
AcDbEntity
  8
ASSI
100
AcDbLine
 62
7
  6
CONTINUOUS
 10
14.7879538282
 20
16.6332995155
 11
14.7474236616
 21
16.7047712371
  0
LWPOLYLINE
  5
519
100
AcDbEntity
  8
RACCORDO
100
AcDbPolyline
 62
7
  6
CONTINUOUS
 90
3
 70
0
 10
14.7889334338
 20
16.6315127981
 10
14.7667465632
 20
16.6712821306
 10
14.7474599715
 20
16.7047094943
  0
LWPOLYLINE
  5
51A
100
AcDbEntity
  8
RACCORDO
100
AcDbPolyline
 62
7
  6
CONTINUOUS
 90
28
 70
0
 10
0.4816759225
 20
26.7865264266
 10
0.4943522276
 20
26.7900948714
 10
0.513830591
 20
26.7950177777
 10
0.5333044651
 20
26.7992643744
 10
0.5527593267
 20
26.8028352113
 10
0.572186949
 20
26.8057330032
 10
0.5915726713
 20
26.807959017
 10
0.6109022211
 20
26.809515038
 10
0.6301680971
 20
26.8104050831
 10
0.6493559434
 20
26.8106316171
 10
0.6684517661
 20
26.8101975968
 10
0.6874487791
 20
26.8091082849
 10
0.7063329513
 20
26.8073672951
 10
0.7250906869
 20
26.8049786998
 10
0.7437160541
 20
26.8019489302
 10
0.7621954517
 20
26.7982826807
 10
0.7805157084
 20
26.793985064
 10
0.7986717656
 20
26.7890635762
 10
0.8166505142
 20
26.7835239176
 10
0.8344392622
 20
26.7773721655
 10
0.8520338255
 20
26.7706167697
 10
0.8694216409
 20
26.7632643592
 10
0.8865905432
 20
26.755321897
 10
0.9035372108
 20
26.7467986753
 10
0.9202496705
 20
26.7377021718
 10
0.9367163256
 20
26.7280401569
 10
0.9529346961
 20
26.7178226531
 10
0.9688934345
 20
26.7070579077
  0
LWPOLYLINE
  5
51B
100
AcDbEntity
  8
ASSI
100
AcDbPolyline
 62
7
  6
CONTINUOUS
 90
28
 70
0
 10
0.4816759225
 20
26.7865264266
 10
0.4943522276
 20
26.7900948714
 10
0.513830591
 20
26.7950177777
 10
0.5333044651
 20
26.7992643744
 10
0.5527593267
 20
26.8028352113
 10
0.572186949
 20
26.8057330032
 10
0.5915726713
 20
26.807959017
 10
0.6109022211
 20
26.809515038
 10
0.6301680971
 20
26.8104050831
 10
0.6493559434
 20
26.8106316171
 10
0.6684517661
 20
26.8101975968
 10
0.6874487791
 20
26.8091082849
 10
0.7063329513
 20
26.8073672951
 10
0.7250906869
 20
26.8049786998
 10
0.7437160541
 20
26.8019489302
 10
0.7621954517
 20
26.7982826807
 10
0.7805157084
 20
26.793985064
 10
0.7986717656
 20
26.7890635762
 10
0.8166505142
 20
26.7835239176
 10
0.8344392622
 20
26.7773721655
 10
0.8520338255
 20
26.7706167697
 10
0.8694216409
 20
26.7632643592
 10
0.8865905432
 20
26.755321897
 10
0.9035372108
 20
26.7467986753
 10
0.9202496705
 20
26.7377021718
 10
0.9367163256
 20
26.7280401569
 10
0.9529346961
 20
26.7178226531
 10
0.9688934345
 20
26.7070579077
  0
ARC
  5
51C
100
AcDbEntity
  8
RACCORDO
100
AcDbCircle
 62
7
  6
CONTINUOUS
 10
-2.5457578607
 20
9.5292965957
 40
0.25
100
AcDbArc
 50
179.9686123907
 51
234.7356103172
  0
ARC
  5
51D
100
AcDbEntity
  8
RACCORDO
100
AcDbCircle
 62
7
  6
CONTINUOUS
 10
0.8866327489
 20
10.3844417251
 40
0.25
100
AcDbArc
 50
0.0
 51
54.7502212228
  0
ARC
  5
51E
100
AcDbEntity
  8
RACCORDO
100
AcDbCircle
 62
7
  6
CONTINUOUS
 10
0.8866327489
 20
10.10222992
 40
0.25
100
AcDbArc
 50
322.475383822
 51
360.0
  0
ARC
  5
51F
100
AcDbEntity
  8
RACCORDO
100
AcDbCircle
 62
7
  6
CONTINUOUS
 10
-0.4476004316
 20
11.3278870547
 40
0.25
100
AcDbArc
 50
54.7356103172
 51
124.4525062421
  0
ARC
  5
520
100
AcDbEntity
  8
RACCORDO
100
AcDbCircle
 62
7
  6
CONTINUOUS
 10
-2.5457578607
 20
9.7883454865
 40
0.25
100
AcDbArc
 50
126.863520269
 51
180.0
  0
ARC
  5
521
100
AcDbEntity
  8
RACCORDO
100
AcDbCircle
 62
7
  6
CONTINUOUS
 10
-1.2578505091
 20
8.6186085738
 40
0.25
100
AcDbArc
 50
234.7356103172
 51
276.5610480454
  0
ARC
  5
522
100
AcDbEntity
  8
RACCORDO
100
AcDbCircle
 62
7
  6
CONTINUOUS
 10
0.8866327489
 20
-23.6187556535
 40
0.25
100
AcDbArc
 50
359.9746383502
 51
54.7724107714
  0
ARC
  5
523
100
AcDbEntity
  8
RACCORDO
100
AcDbCircle
 62
7
  6
CONTINUOUS
 10
0.8866327489
 20
-23.9009674586
 40
0.25
100
AcDbArc
 50
306.0796569612
 51
0.0888341224
  0
ARC
  5
524
100
AcDbEntity
  8
RACCORDO
100
AcDbCircle
 62
7
  6
CONTINUOUS
 10
-1.2578505091
 20
-25.3614258904
 40
0.25
100
AcDbArc
 50
234.7356103172
 51
303.6428548517
  0
ARC
  5
525
100
AcDbEntity
  8
RACCORDO
100
AcDbCircle
 62
7
  6
CONTINUOUS
 10
-14.6221686735
 20
18.0686085738
 40
0.25
100
AcDbArc
 50
234.7356103172
 51
276.5610480454
  0
ARC
  5
526
100
AcDbEntity
  8
RACCORDO
100
AcDbCircle
 62
7
  6
CONTINUOUS
 10
-12.4776854156
 20
19.8344417251
 40
0.25
100
AcDbArc
 50
359.9732258299
 51
54.7356103172
  0
ARC
  5
527
100
AcDbEntity
  8
RACCORDO
100
AcDbCircle
 62
7
  6
CONTINUOUS
 10
-12.4776854156
 20
19.55222992
 40
0.25
100
AcDbArc
 50
322.4737570331
 51
0.0108629119
  0
ARC
  5
528
100
AcDbEntity
  8
RACCORDO
100
AcDbCircle
 62
7
  6
CONTINUOUS
 10
-13.811918596
 20
20.7778870547
 40
0.25
100
AcDbArc
 50
54.7356103172
 51
124.4525062421
  0
ARC
  5
529
100
AcDbEntity
  8
RACCORDO
100
AcDbCircle
 62
7
  6
CONTINUOUS
 10
-15.9100760252
 20
19.2383454865
 40
0.25
100
AcDbArc
 50
126.8766117153
 51
180.0892228424
  0
ARC
  5
52A
100
AcDbEntity
  8
RACCORDO
100
AcDbCircle
 62
7
  6
CONTINUOUS
 10
-15.9100760252
 20
18.9792965957
 40
0.25
100
AcDbArc
 50
179.9754533273
 51
234.7714249485
  0
ELLIPSE
  5
52B
100
AcDbEntity
  8
RACCORDO
100
AcDbEllipse
 62
7
  6
CONTINUOUS
 10
-15.5665888752
 20
18.0226866788
 30
0.0
 11
-0.2885651339
 21
0.4089322889
 31
0.0
 40
0.4997717781
 41
-0.9536494309
 42
0.0256894157
  0
ELLIPSE
  5
52C
100
AcDbEntity
  8
RACCORDO
100
AcDbEllipse
 62
7
  6
CONTINUOUS
 10
-0.5406774872
 20
7.3977628428
 30
0.0
 11
-0.288481627
 21
0.4084635305
 31
0.0
 40
0.5006338604
 41
-2.524950663
 42
-0.9550677247
  0
ELLIPSE
  5
52D
100
AcDbEntity
  8
RACCORDO
100
AcDbEllipse
 62
7
  6
CONTINUOUS
 10
-0.5406774872
 20
-23.3957670827
 30
0.0
 11
-0.2885651339
 21
0.4089322889
 31
0.0
 40
0.4997717781
 41
-3.167282058
 42
-2.5253591462
  0
ELLIPSE
  5
52E
100
AcDbEntity
  8
RACCORDO
100
AcDbEllipse
 62
7
  6
CONTINUOUS
 10
5.7944172407
 20
14.3585640255
 30
0.0
 11
0.4999901211
 21
0.0044178673
 31
0.0
 40
0.7114427855
 41
-0.7742310319
 42
-0.0062861608
  0
ELLIPSE
  5
52F
100
AcDbEntity
  8
RACCORDO
100
AcDbEllipse
 62
7
  6
CONTINUOUS
 10
-4.9311208547
 20
22.5263415234
 30
0.0
 11
0.4984744106
 21
0.2502582287
 31
0.0
 40
0.1559548662
 41
1.1167974275
 42
2.2606037339
  0
ELLIPSE
  5
530
100
AcDbEntity
  8
RACCORDO
100
AcDbEllipse
 62
7
  6
CONTINUOUS
 10
1.2447671353
 20
-22.2409563378
 30
0.0
 11
-0.2887305266
 21
0.4082351129
 31
0.0
 40
0.500052747
 41
-3.1469131247
 42
-2.5261688785
  0
ELLIPSE
  5
531
100
AcDbEntity
  8
RACCORDO
100
AcDbEllipse
 62
7
  6
CONTINUOUS
 10
1.2447671353
 20
8.7179520979
 30
0.0
 11
-0.2887443357
 21
0.4083132857
 31
0.0
 40
0.4999091726
 41
-2.5262365275
 42
-0.9552879016
  0
ELLIPSE
  5
532
100
AcDbEntity
  8
RACCORDO
100
AcDbEllipse
 62
7
  6
CONTINUOUS
 10
1.1387549742
 20
15.6889539952
 30
0.0
 11
0.4168960739
 21
-0.0035938462
 31
0.0
 40
0.7027169147
 41
-0.7706138308
 42
0.0060577029
  0
ELLIPSE
  5
533
100
AcDbEntity
  8
RACCORDO
100
AcDbEllipse
 62
7
  6
CONTINUOUS
 10
-10.0980176932
 20
16.5820280446
 30
0.0
 11
0.4999589869
 21
0.0089476213
 31
0.0
 40
0.715722522
 41
8.6440247115
 42
10.1973677457
  0
ELLIPSE
  5
534
100
AcDbEntity
  8
RACCORDO
100
AcDbEllipse
 62
7
  6
CONTINUOUS
 10
-13.1832699216
 20
18.026766972
 30
0.0
 11
0.2499794935
 21
0.0044738107
 31
0.0
 40
0.715722522
 41
-0.8156598343
 42
-0.0128083787
  0
ELLIPSE
  5
535
100
AcDbEntity
  8
RACCORDO
100
AcDbEllipse
 62
7
  6
CONTINUOUS
 10
-5.6444527976
 20
22.1802619296
 30
0.0
 11
1.0103059202
 21
0.5063319662
 31
0.0
 40
0.1519830888
 41
-0.8655581037
 42
0.4079446944
  0
ELLIPSE
  5
536
100
AcDbEntity
  8
RACCORDO
100
AcDbEllipse
 62
7
  6
CONTINUOUS
 10
5.7944172407
 20
14.9422408043
 30
0.0
 11
-0.329514232
 21
0.6180509149
 31
0.0
 40
0.6084595786
 41
3.2249178144
 42
4.3687241208
  0
ELLIPSE
  5
537
100
AcDbEntity
  8
RACCORDO
100
AcDbEllipse
 62
7
  6
CONTINUOUS
 10
5.8006424024
 20
14.0873575024
 30
0.0
 11
-0.6296885255
 21
1.2550138862
 31
0.0
 40
0.6056582408
 41
5.1078449671
 42
6.3813477651
  0
ELLIPSE
  5
538
100
AcDbEntity
  8
RACCORDO
100
AcDbEllipse
 62
7
  6
CONTINUOUS
 10
-10.0980176932
 20
15.592078551
 30
0.0
 11
0.4999589869
 21
0.0089476213
 31
0.0
 40
0.715722522
 41
3.1287842754
 42
3.9141824386
  0
ELLIPSE
  5
539
100
AcDbEntity
  8
RACCORDO
100
AcDbEllipse
 62
7
  6
CONTINUOUS
 10
-4.5950351069
 20
11.7008822475
 30
0.0
 11
0.4999589869
 21
0.0089476213
 31
0.0
 40
0.715722522
 41
-2.3690028686
 42
-0.8156598343
  0
ELLIPSE
  5
53A
100
AcDbEntity
  8
RACCORDO
100
AcDbEllipse
 62
7
  6
CONTINUOUS
 10
-4.5950351069
 20
12.6908317411
 30
0.0
 11
0.4999589869
 21
0.0089476213
 31
0.0
 40
0.715722522
 41
-2.3690028686
 42
-0.8156598343
  0
ELLIPSE
  5
53B
100
AcDbEntity
  8
RACCORDO
100
AcDbEllipse
 62
7
  6
CONTINUOUS
 10
-0.5384011331
 20
8.0731519097
 30
0.0
 11
0.2499794935
 21
0.0044738107
 31
0.0
 40
0.715722522
 41
-2.3690028686
 42
-0.8156598343
  0
ELLIPSE
  5
53C
100
AcDbEntity
  8
RACCORDO
100
AcDbEllipse
 62
7
  6
CONTINUOUS
 10
-4.4005833936
 20
19.6058577184
 30
0.0
 11
0.4168960739
 21
-0.0035938462
 31
0.0
 40
0.7027169147
 41
-0.7793404771
 42
0.0060577021
  0
ELLIPSE
  5
53D
100
AcDbEntity
  8
RACCORDO
100
AcDbEllipse
 62
7
  6
CONTINUOUS
 10
-0.5538563046
 20
-23.4845645751
 30
0.0
 11
-0.2887305266
 21
0.4082351129
 31
0.0
 40
0.500052747
 41
2.5850491642
 42
3.7570164286
  0
ELLIPSE
  5
53E
100
AcDbEntity
  8
RACCORDO
100
AcDbEllipse
 62
7
  6
CONTINUOUS
 10
-15.5534100578
 20
18.1114841712
 30
0.0
 11
-0.2887305266
 21
0.4082351129
 31
0.0
 40
0.500052747
 41
-0.4514016242
 42
0.5161135824
  0
ELLIPSE
  5
53F
100
AcDbEntity
  8
RACCORDO
100
AcDbEllipse
 62
7
  6
CONTINUOUS
 10
-0.5538563046
 20
7.5051979975
 30
0.0
 11
-0.2887443357
 21
0.4083132857
 31
0.0
 40
0.4999091726
 41
-2.5262365275
 42
-1.3542692631
  0
ELLIPSE
  5
540
100
AcDbEntity
  8
RACCORDO
100
AcDbEllipse
 62
7
  6
CONTINUOUS
 10
-13.2146299206
 20
-1.0315555973
 30
0.0
 11
13.7424566842
 21
9.6154624194
 31
0.0
 40
0.0243021604
 41
-0.3902535802
 42
-0.0264888204
  0
ELLIPSE
  5
541
100
AcDbEntity
  8
RACCORDO
100
AcDbEllipse
 62
7
  6
CONTINUOUS
 10
-13.9027192975
 20
17.5231519097
 30
0.0
 11
0.2499794935
 21
0.0044738107
 31
0.0
 40
0.715722522
 41
-2.3690028686
 42
-0.8156598343
  0
ENDSEC
  0
SECTION
  2
OBJECTS
  0
DICTIONARY
  5
C
100
AcDbDictionary
280
0
281
1
  3
ACAD_GROUP
350
D
  3
ACAD_MLINESTYLE
350
17
  3
ACAD_LAYOUT
350
1A
  3
ACAD_PLOTSETTINGS
350
19
  3
ACAD_PLOTSTYLENAME
350
E
  0
DICTIONARY
  5
D
102
{ACAD_REACTORS
330
C
102
}
100
AcDbDictionary
280
0
281
1
  0
ACDBDICTIONARYWDFLT
  5
E
102
{ACAD_REACTORS
330
C
102
}
100
AcDbDictionary
281
1
  3
Normal
350
F
100
AcDbDictionaryWithDefault
340
F
  0
DICTIONARY
  5
17
102
{ACAD_REACTORS
330
C
102
}
100
AcDbDictionary
280
0
281
1
  3
Standard
350
18
  0
DICTIONARY
  5
19
102
{ACAD_REACTORS
330
C
102
}
100
AcDbDictionary
281
1
  0
DICTIONARY
  5
1A
102
{ACAD_REACTORS
330
C
102
}
100
AcDbDictionary
281
1
  3
Model
350
542
  3
Layout1
350
543
  0
ACDBPLACEHOLDER
  5
F
102
{ACAD_REACTORS
330
E
102
}
  0
MLINESTYLE
  5
18
102
{ACAD_REACTORS
330
17
102
}
100
AcDbMlineStyle
  2
STANDARD
 70
0
  3

 62
256
 51
90.0
 52
90.0
 71
2
 49
0.5
 62
256
  6
BYLAYER
 49
-0.5
 62
256
  6
BYLAYER
  0
LAYOUT
  5
542
102
{ACAD_REACTORS
330
1A
102
}
100
AcDbPlotSettings
  1

  2
none_device
  4
ISO_A4_(297.00_x_210.00_MM)
  6

 40
0.0
 41
0.0
 42
0.0
 43
0.0
 44
297.0
 45
210.0
 46
0.0
 47
0.0
 48
0.0
 49
0.0
140
0.0
141
0.0
142
1.0
143
1.0
 70
1024
 72
1
 73
0
 74
0
  7

 75
0
147
1.0
148
0.0
149
0.0
100
AcDbLayout
  1
Model
 70
0
 71
0
 10
0.0
 20
0.0
 11
297.0
 21
210.0
 12
0.0
 22
0.0
 32
0.0
 14
0.0
 24
0.0
 34
0.0
 15
0.0
 25
0.0
 35
0.0
146
0.0
 13
0.0
 23
0.0
 33
0.0
 16
1.0
 26
0.0
 36
0.0
 17
0.0
 27
1.0
 37
0.0
 76
0
330
212
345
0
346
0
  0
LAYOUT
  5
543
102
{ACAD_REACTORS
330
1A
102
}
100
AcDbPlotSettings
  1

  2
none_device
  4
ISO_A4_(297.00_x_210.00_MM)
  6

 40
0.0
 41
0.0
 42
0.0
 43
0.0
 44
297.0
 45
210.0
 46
0.0
 47
0.0
 48
0.0
 49
0.0
140
0.0
141
0.0
142
1.0
143
1.0
 70
0
 72
1
 73
0
 74
0
  7

 75
0
147
1.0
148
0.0
149
0.0
100
AcDbLayout
  1
Layout1
 70
0
 71
1
 10
0.0
 20
0.0
 11
297.0
 21
210.0
 12
0.0
 22
0.0
 32
0.0
 14
0.0
 24
0.0
 34
0.0
 15
0.0
 25
0.0
 35
0.0
146
0.0
 13
0.0
 23
0.0
 33
0.0
 16
1.0
 26
0.0
 36
0.0
 17
0.0
 27
1.0
 37
0.0
 76
0
330
213
345
0
346
0
  0
ENDSEC
  0
EOF
