  0
SECTION
  2
HEADER
  9
$ACADVER
  1
AC1015
  9
$DWGCODEPAGE
  3
ANSI_1252
  9
$EXTMAX
 10
297.0
 20
210.0
 30
0.0
  9
$EXTMIN
 10
0.0
 20
0.0
 30
0.0
  9
$LIMMIN
 10
0.0
 20
0.0
  9
$LIMMAX
 10
297.0
 20
210.0
  9
$VIEWCTR
 10
148.5
 20
105.0
  9
$VIEWSIZE
 40
210.0
  9
$CLAYER
  8
0
  9
$LTSCALE
 40
16.335
  9
$CELTYPE
  6
BYLAYER
  9
$DIMSCALE
 40
1.0
  9
$DIMASZ
 40
3.0
  9
$DIMEXO
 40
0.5
  9
$DIMDLI
 40
11.286
  9
$DIMEXE
 40
1.5
  9
$DIMCEN
 40
2.673
  9
$DIMLFAC
 40
1.0
  9
$DIMBLK
  1
_FILLED
  9
$DIMALT
 70
0
  9
$DIMALTF
 40
0.0393700787
  9
$DIMTXT
 40
3.0
  9
$DIMTOL
 70
1
  9
$DIMLIM
 70
0
  9
$DIMTFAC
 40
1.0
  9
$DIMTP
 40
0.01
  9
$DIMTM
 40
0.01
  9
$DIMGAP
 40
0.625
  9
$DIMDSEP
 70
44
  9
$AUNITS
 70
0
  9
$PDMODE
 70
3
  9
$PDSIZE
 40
3.0
  9
$HANDSEED
  5
45B
  9
$TILEMODE
 70
1
  9
$MEASUREMENT
 70
1
  9
$INSUNITS
 70
4
  0
ENDSEC
  0
SECTION
  2
CLASSES
  0
CLASS
  1
ACDBDICTIONARYWDFLT
  2
AcDbDictionaryWithDefault
  3
AutoCAD 2000
 90
0
280
0
281
0
  0
CLASS
  1
ACDBPLACEHOLDER
  2
AcDbPlaceHolder
  3
AutoCAD 2000
 90
0
280
0
281
0
  0
CLASS
  1
LAYOUT
  2
AcDbLayout
  3
AutoCAD 2000
 90
0
280
0
281
0
  0
ENDSEC
  0
SECTION
  2
TABLES
  0
TABLE
  2
VPORT
  5
8
100
AcDbSymbolTable
 70
2
  0
VPORT
  5
1F4
100
AcDbSymbolTableRecord
100
AcDbViewportTableRecord
  2
*ACTIVE
 70
0
 10
0.0
 20
0.0
 11
1.0
 21
1.0
 12
148.5
 22
105.0
 13
0.0
 23
0.0
 14
1.0
 24
1.0
 15
0.0
 25
0.0
 16
0.0
 26
0.0
 36
1.0
 17
0.0
 27
0.0
 37
0.0
 40
210.0
 41
1.4142857143
 42
50.0
 43
0.0
 44
0.0
 50
0.0
 51
0.0
 71
0
 72
100
 73
1
 74
1
 75
0
 76
0
 77
0
 78
0
  0
ENDTAB
  0
TABLE
  2
LTYPE
  5
5
100
AcDbSymbolTable
 70
6
  0
LTYPE
  5
14
100
AcDbSymbolTableRecord
100
AcDbLinetypeTableRecord
  2
BYBLOCK
 70
0
  3

 72
65
 73
0
 40
0.0
  0
LTYPE
  5
15
100
AcDbSymbolTableRecord
100
AcDbLinetypeTableRecord
  2
BYLAYER
 70
0
  3

 72
65
 73
0
 40
0.0
  0
LTYPE
  5
16
100
AcDbSymbolTableRecord
100
AcDbLinetypeTableRecord
  2
CONTINUOUS
 70
64
  3
Solid line
 72
65
 73
0
 40
0.0
  0
LTYPE
  5
1F5
100
AcDbSymbolTableRecord
100
AcDbLinetypeTableRecord
  2
CENTER
 70
64
  3
____ _ ____ _ ____ _ ____ _ ____ _ ____ _ ____
 72
65
 73
4
 40
0.6
 49
0.375
 74
0
 49
-0.075
 74
0
 49
0.075
 74
0
 49
-0.075
 74
0
  0
LTYPE
  5
1F6
100
AcDbSymbolTableRecord
100
AcDbLinetypeTableRecord
  2
HIDDEN
 70
64
  3
- - - - - - - - - - - - - - - - - - - -
 72
65
 73
2
 40
0.2
 49
0.1
 74
0
 49
-0.1
 74
0
  0
LTYPE
  5
1F7
100
AcDbSymbolTableRecord
100
AcDbLinetypeTableRecord
  2
PHANTOM
 70
64
  3
_____ _ _ _____ _ _ _____ _ _ _____
 72
65
 73
6
 40
0.8
 49
0.45
 74
0
 49
-0.05
 74
0
 49
0.1
 74
0
 49
-0.05
 74
0
 49
0.1
 74
0
 49
-0.05
 74
0
  0
LTYPE
  5
1F8
100
AcDbSymbolTableRecord
100
AcDbLinetypeTableRecord
  2
DOT
 70
64
  3
. . . . . . . . . . . . . . . . . . . .
 72
65
 73
2
 40
0.2
 49
0.1
 74
0
 49
-0.1
 74
0
  0
LTYPE
  5
1F9
100
AcDbSymbolTableRecord
100
AcDbLinetypeTableRecord
  2
DASHED
 70
64
  3
- - - - - - - - - - - - - - - - - - - -
 72
65
 73
2
 40
0.2
 49
0.1
 74
0
 49
-0.1
 74
0
  0
ENDTAB
  0
TABLE
  2
LAYER
  5
2
100
AcDbSymbolTable
 70
36
  0
LAYER
  5
10
100
AcDbSymbolTableRecord
100
AcDbLayerTableRecord
  2
0
 70
0
 62
7
  6
CONTINUOUS
370
-3
390
F
  0
LAYER
  5
1FA
100
AcDbSymbolTableRecord
100
AcDbLayerTableRecord
  2
DEFAULT_1
 70
0
 62
7
  6
CENTER
370
-3
390
F
  0
LAYER
  5
1FB
100
AcDbSymbolTableRecord
100
AcDbLayerTableRecord
  2
DEFAULT_2
 70
0
 62
7
  6
HIDDEN
370
-3
390
F
  0
LAYER
  5
1FC
100
AcDbSymbolTableRecord
100
AcDbLayerTableRecord
  2
DEFAULT_3
 70
0
 62
7
  6
PHANTOM
370
-3
390
F
  0
LAYER
  5
1FD
100
AcDbSymbolTableRecord
100
AcDbLayerTableRecord
  2
ASSI
 70
0
 62
7
  6
CONTINUOUS
370
-3
390
F
  0
LAYER
  5
1FE
100
AcDbSymbolTableRecord
100
AcDbLayerTableRecord
  2
COORDINATE
 70
0
 62
7
  6
CONTINUOUS
370
-3
390
F
  0
LAYER
  5
1FF
100
AcDbSymbolTableRecord
100
AcDbLayerTableRecord
  2
COORD_ORIGINE
 70
0
 62
7
  6
CONTINUOUS
370
-3
390
F
  0
LAYER
  5
200
100
AcDbSymbolTableRecord
100
AcDbLayerTableRecord
  2
COSMETICHE
 70
0
 62
7
  6
CONTINUOUS
370
-3
390
F
  0
LAYER
  5
201
100
AcDbSymbolTableRecord
100
AcDbLayerTableRecord
  2
COSMETICI
 70
0
 62
7
  6
CONTINUOUS
370
-3
390
F
  0
LAYER
  5
202
100
AcDbSymbolTableRecord
100
AcDbLayerTableRecord
  2
CURVE
 70
0
 62
7
  6
CONTINUOUS
370
-3
390
F
  0
LAYER
  5
203
100
AcDbSymbolTableRecord
100
AcDbLayerTableRecord
  2
DRAFT
 70
0
 62
7
  6
CONTINUOUS
370
-3
390
F
  0
LAYER
  5
204
100
AcDbSymbolTableRecord
100
AcDbLayerTableRecord
  2
IMPORT
 70
0
 62
7
  6
CONTINUOUS
370
-3
390
F
  0
LAYER
  5
205
100
AcDbSymbolTableRecord
100
AcDbLayerTableRecord
  2
NOTE
 70
0
 62
7
  6
CONTINUOUS
370
-3
390
F
  0
LAYER
  5
206
100
AcDbSymbolTableRecord
100
AcDbLayerTableRecord
  2
PIANI
 70
0
 62
7
  6
CONTINUOUS
370
-3
390
F
  0
LAYER
  5
207
100
AcDbSymbolTableRecord
100
AcDbLayerTableRecord
  2
PIANI_ORIGINE
 70
0
 62
7
  6
CONTINUOUS
370
-3
390
F
  0
LAYER
  5
208
100
AcDbSymbolTableRecord
100
AcDbLayerTableRecord
  2
PIANI_RIFERIMENTO
 70
0
 62
7
  6
CONTINUOUS
370
-3
390
F
  0
LAYER
  5
209
100
AcDbSymbolTableRecord
100
AcDbLayerTableRecord
  2
PIANI_SFORMO
 70
0
 62
7
  6
CONTINUOUS
370
-3
390
F
  0
LAYER
  5
20A
100
AcDbSymbolTableRecord
100
AcDbLayerTableRecord
  2
PUNTI
 70
0
 62
7
  6
CONTINUOUS
370
-3
390
F
  0
LAYER
  5
20B
100
AcDbSymbolTableRecord
100
AcDbLayerTableRecord
  2
RACCORDO
 70
0
 62
7
  6
CONTINUOUS
370
-3
390
F
  0
LAYER
  5
20C
100
AcDbSymbolTableRecord
100
AcDbLayerTableRecord
  2
SIMBOLI
 70
0
 62
7
  6
CONTINUOUS
370
-3
390
F
  0
LAYER
  5
20D
100
AcDbSymbolTableRecord
100
AcDbLayerTableRecord
  2
SMUSSO
 70
0
 62
7
  6
CONTINUOUS
370
-3
390
F
  0
LAYER
  5
20E
100
AcDbSymbolTableRecord
100
AcDbLayerTableRecord
  2
SUPERFICI
 70
0
 62
7
  6
CONTINUOUS
370
-3
390
F
  0
LAYER
  5
20F
100
AcDbSymbolTableRecord
100
AcDbLayerTableRecord
  2
TRASH
 70
0
 62
7
  6
CONTINUOUS
370
-3
390
F
  0
LAYER
  5
210
100
AcDbSymbolTableRecord
100
AcDbLayerTableRecord
  2
XSEC_DATUMS
 70
0
 62
7
  6
CONTINUOUS
370
-3
390
F
  0
ENDTAB
  0
TABLE
  2
STYLE
  5
3
100
AcDbSymbolTable
 70
1
  0
STYLE
  5
11
100
AcDbSymbolTableRecord
100
AcDbTextStyleTableRecord
  2
STANDARD
 70
0
 40
0.0
 41
0.8
 50
0.0
 71
0
 42
0.2
  3
txt
  4

  0
STYLE
  5
211
100
AcDbSymbolTableRecord
100
AcDbTextStyleTableRecord
  2
TEXTSTYLE_1
 70
0
 40
0.0
 41
0.8
 50
0.0
 71
0
 42
0.2
  3
gdt
  4

  0
ENDTAB
  0
TABLE
  2
VIEW
  5
6
100
AcDbSymbolTable
 70
0
  0
ENDTAB
  0
TABLE
  2
UCS
  5
7
100
AcDbSymbolTable
 70
0
  0
ENDTAB
  0
TABLE
  2
APPID
  5
9
100
AcDbSymbolTable
 70
1
  0
APPID
  5
212
100
AcDbSymbolTableRecord
100
AcDbRegAppTableRecord
  2
ACAD
 70
0
  0
ENDTAB
  0
TABLE
  2
BLOCK_RECORD
  5
1
100
AcDbSymbolTable
 70
0
  0
BLOCK_RECORD
  5
213
100
AcDbSymbolTableRecord
100
AcDbBlockTableRecord
  2
*Model_Space
  0
BLOCK_RECORD
  5
214
100
AcDbSymbolTableRecord
100
AcDbBlockTableRecord
  2
*Paper_Space
  0
ENDTAB
  0
TABLE
  2
DIMSTYLE
  5
A
100
AcDbSymbolTable
 70
1
100
AcDbDimStyleTable
 71
0
  0
DIMSTYLE
105
215
100
AcDbSymbolTableRecord
100
AcDbDimStyleTableRecord
  2
STANDARD
 70
0
  3

  4

 40
1.0
 41
3.0
 42
0.5
 43
0.38
 44
1.5
 45
0.0
 46
0.0
 47
0.01
 48
0.01
140
3.0
141
0.09
142
0.0
143
25.4
144
1.0
145
0.0
146
1.0
147
0.625
 71
1.0
 72
0.0
 73
0
 74
0
 75
0
 76
0
 77
1
 78
8
170
0
171
2
172
0
173
0
174
0
175
0
176
0
177
0
178
0
270
2
271
2
272
2
273
2
274
2
275
0
280
0
281
0
282
0
283
1
284
8
285
0
286
0
287
3
288
0
340
11
278
44
  0
ENDTAB
  0
ENDSEC
  0
SECTION
  2
BLOCKS
  0
BLOCK
  5
20
100
AcDbEntity
  8
0
100
AcDbBlockBegin
  2
*Model_Space
 70
0
 10
0.0
 20
0.0
 30
0.0
  3
*Model_Space
  1

  0
ENDBLK
  5
21
100
AcDbEntity
  8
0
100
AcDbBlockEnd
  0
BLOCK
  5
1C
100
AcDbEntity
  8
0
100
AcDbBlockBegin
  2
*Paper_Space
 70
0
 10
0.0
 20
0.0
 30
0.0
  3
*Paper_Space
  1

  0
ENDBLK
  5
1D
100
AcDbEntity
  8
0
100
AcDbBlockEnd
  0
ENDSEC
  0
SECTION
  2
ENTITIES
  0
LWPOLYLINE
  5
216
100
AcDbEntity
  8
RACCORDO
100
AcDbPolyline
 62
253
  6
CONTINUOUS
 90
22
 70
0
 10
-17.5667355667
 20
17.7414401947
 10
-17.6402038225
 20
17.6904794457
 10
-17.7130390772
 20
17.6338869648
 10
-17.7848768073
 20
17.5719417925
 10
-17.8553498199
 20
17.5049509502
 10
-17.9241137489
 20
17.4332437196
 10
-17.9908477418
 20
17.3571674605
 10
-18.0552266374
 20
17.2770837186
 10
-18.1169173082
 20
17.1933961499
 10
-18.1756057804
 20
17.1065456155
 10
-18.2309895388
 20
17.0169805178
 10
-18.2828051556
 20
16.9251254131
 10
-18.3308206573
 20
16.8314056633
 10
-18.374803029
 20
16.7362630544
 10
-18.4145190239
 20
16.640184883
 10
-18.449765814
 20
16.5436742886
 10
-18.4803649741
 20
16.4472219841
 10
-18.5061691857
 20
16.3512898044
 10
-18.5270581666
 20
16.2563380706
 10
-18.5429284585
 20
16.1628317678
 10
-18.5536966835
 20
16.0712378228
 10
-18.5593077585
 20
15.9820096142
  0
LWPOLYLINE
  5
217
100
AcDbEntity
  8
RACCORDO
100
AcDbPolyline
 62
7
  6
CONTINUOUS
 90
19
 70
0
 10
-17.82336154
 20
17.7619410357
 10
-17.8707021084
 20
17.7294329707
 10
-17.955067651
 20
17.6649305882
 10
-18.0359933941
 20
17.594637478
 10
-18.1133297538
 20
17.5190305735
 10
-18.1869912804
 20
17.4385159529
 10
-18.2567918777
 20
17.3535184171
 10
-18.3225498615
 20
17.2644585355
 10
-18.3840526037
 20
17.1717431727
 10
-18.4409875219
 20
17.0759039018
 10
-18.4931445861
 20
16.9773586735
 10
-18.5402780376
 20
16.8765050898
 10
-18.582094437
 20
16.773887884
 10
-18.6183604881
 20
16.669902507
 10
-18.6488091015
 20
16.5649292465
 10
-18.6731741539
 20
16.4593594891
 10
-18.6911569756
 20
16.3534828871
 10
-18.7024289596
 20
16.2476716137
 10
-18.7057606422
 20
16.1861781716
  0
LINE
  5
218
100
AcDbEntity
  8
RACCORDO
100
AcDbLine
 62
7
  6
CONTINUOUS
 10
-13.5378223159
 20
20.6450372796
 11
-13.1958867339
 21
20.8705405801
  0
LINE
  5
219
100
AcDbEntity
  8
RACCORDO
100
AcDbLine
 62
7
  6
CONTINUOUS
 10
-13.5452909213
 20
20.583292621
 11
-17.8235049986
 21
17.7618506721
  0
LINE
  5
21A
100
AcDbEntity
  8
RACCORDO
100
AcDbLine
 62
253
  6
CONTINUOUS
 10
-13.287176855
 20
20.5637689174
 11
-17.5667355667
 21
17.7414401947
  0
LWPOLYLINE
  5
21B
100
AcDbEntity
  8
RACCORDO
100
AcDbPolyline
 62
7
  6
CONTINUOUS
 90
19
 70
0
 10
-13.7760608868
 20
21.9976814172
 10
-13.7879573733
 20
21.9901926975
 10
-13.7994915964
 20
21.9819887164
 10
-13.8106093293
 20
21.9730888911
 10
-13.8212624709
 20
21.963513129
 10
-13.8313944598
 20
21.9532951245
 10
-13.8409446017
 20
21.9424837047
 10
-13.8498637372
 20
21.9311280066
 10
-13.8581211192
 20
21.9192629454
 10
-13.8656911123
 20
21.9069192202
 10
-13.8725358204
 20
21.894153793
 10
-13.8786332468
 20
21.8810052039
 10
-13.8839784787
 20
21.8674700487
 10
-13.8885537624
 20
21.8535570494
 10
-13.8923175997
 20
21.839352397
 10
-13.8952386624
 20
21.8249609496
 10
-13.8973097645
 20
21.8104222649
 10
-13.8985236356
 20
21.7957870167
 10
-13.8988796882
 20
21.7824508742
  0
LINE
  5
21C
100
AcDbEntity
  8
RACCORDO
100
AcDbLine
 62
7
  6
CONTINUOUS
 10
-12.1928808178
 20
22.9331857041
 11
-13.7760608868
 21
21.9976814172
  0
LINE
  5
21D
100
AcDbEntity
  8
RACCORDO
100
AcDbLine
 62
253
  6
CONTINUOUS
 10
-12.0671515244
 20
22.9212234847
 11
-13.6499081275
 21
21.9859694247
  0
LINE
  5
21E
100
AcDbEntity
  8
RACCORDO
100
AcDbLine
 62
7
  6
CONTINUOUS
 10
-12.1914265888
 20
22.9340253575
 11
-12.1928808318
 21
22.9331856958
  0
LINE
  5
21F
100
AcDbEntity
  8
RACCORDO
100
AcDbLine
 62
253
  6
CONTINUOUS
 10
-10.1953754851
 20
22.450513492
 11
-12.3249234477
 21
21.2209398765
  0
LINE
  5
220
100
AcDbEntity
  8
RACCORDO
100
AcDbLine
 62
253
  6
CONTINUOUS
 10
-10.0186017815
 20
22.1443324561
 11
-12.148149744
 21
20.9147588406
  0
LINE
  5
221
100
AcDbEntity
  8
RACCORDO
100
AcDbLine
 62
7
  6
CONTINUOUS
 10
-11.6565482733
 20
23.2357123805
 11
-12.1914265748
 21
22.9340253658
  0
LINE
  5
222
100
AcDbEntity
  8
RACCORDO
100
AcDbLine
 62
253
  6
CONTINUOUS
 10
-11.5327016457
 20
23.2226688565
 11
-12.0671515244
 21
22.9212234847
  0
LINE
  5
223
100
AcDbEntity
  8
RACCORDO
100
AcDbLine
 62
253
  6
CONTINUOUS
 10
3.345716383
 20
-24.8360884453
 11
2.8174492112
 21
-24.7904455024
  0
LINE
  5
224
100
AcDbEntity
  8
RACCORDO
100
AcDbLine
 62
253
  6
CONTINUOUS
 10
3.2563025876
 20
-24.5068100079
 11
2.8174492112
 21
-24.4688925284
  0
LWPOLYLINE
  5
225
100
AcDbEntity
  8
RACCORDO
100
AcDbPolyline
 62
7
  6
CONTINUOUS
 90
34
 70
0
 10
1.9273890285
 20
-25.1812482778
 10
1.9195099055
 20
-25.1804584127
 10
1.9112896564
 20
-25.179453108
 10
1.9027317952
 20
-25.1782406553
 10
1.8938333647
 20
-25.1768400019
 10
1.8846069297
 20
-25.1752507504
 10
1.8750803554
 20
-25.1734530381
 10
1.8652601671
 20
-25.1714582778
 10
1.8551542689
 20
-25.1692772634
 10
1.8447934859
 20
-25.1668899658
 10
1.8341869646
 20
-25.1643095557
 10
1.8233450532
 20
-25.1615487269
 10
1.8123012761
 20
-25.1585875068
 10
1.8010674277
 20
-25.1554407804
 10
1.7896564769
 20
-25.1521231547
 10
1.7781046564
 20
-25.1486150551
 10
1.7664265246
 20
-25.1449330225
 10
1.754637793
 20
-25.1410935958
 10
1.742777479
 20
-25.13707808
 10
1.7308630314
 20
-25.1329045576
 10
1.718913018
 20
-25.1285915211
 10
1.7069693405
 20
-25.12412184
 10
1.6950524908
 20
-25.1195149443
 10
1.6831839236
 20
-25.1147912599
 10
1.671408345
 20
-25.1099361222
 10
1.6597495245
 20
-25.1049700625
 10
1.6482315874
 20
-25.0999152518
 10
1.6369012347
 20
-25.0947603966
 10
1.6257959723
 20
-25.0895338119
 10
1.6149316205
 20
-25.0842514822
 10
1.6043249349
 20
-25.0788868178
 10
1.5940028766
 20
-25.0734495014
 10
1.5840011801
 20
-25.0679824082
 10
1.5743528405
 20
-25.0625119546
  0
LWPOLYLINE
  5
226
100
AcDbEntity
  8
RACCORDO
100
AcDbPolyline
 62
253
  6
CONTINUOUS
 90
16
 70
0
 10
-3.7081770014
 20
-26.052958716
 10
-3.6697380109
 20
-26.072848962
 10
-3.6279259066
 20
-26.0901614461
 10
-3.5831886849
 20
-26.1047106734
 10
-3.5360056829
 20
-26.1163407562
 10
-3.4868824435
 20
-26.1249270838
 10
-3.4363452981
 20
-26.130377658
 10
-3.3849357272
 20
-26.1326340783
 10
-3.3332045593
 20
-26.1316721685
 10
-3.2817060684
 20
-26.1275022349
 10
-3.2309920356
 20
-26.1201689563
 10
-3.1816058368
 20
-26.1097509052
 10
-3.134076621
 20
-26.0963597059
 10
-3.0889136402
 20
-26.0801388385
 10
-3.0466007937
 20
-26.0612621017
 10
-3.0075914429
 20
-26.0399317503
  0
LWPOLYLINE
  5
227
100
AcDbEntity
  8
RACCORDO
100
AcDbPolyline
 62
7
  6
CONTINUOUS
 90
15
 70
0
 10
-3.3954451449
 20
-26.6916111035
 10
-3.3792206908
 20
-26.7007603659
 10
-3.3162190899
 20
-26.7320470693
 10
-3.2503951433
 20
-26.7581739536
 10
-3.1820343081
 20
-26.7789427323
 10
-3.1112668551
 20
-26.7942248088
 10
-3.038423701
 20
-26.8038381505
 10
-2.963867935
 20
-26.8076275694
 10
-2.8876791888
 20
-26.8054602151
 10
-2.8101391902
 20
-26.7972104646
 10
-2.7315244257
 20
-26.7827729116
 10
-2.6517777106
 20
-26.7619511508
 10
-2.5710060093
 20
-26.7345383336
 10
-2.4895776666
 20
-26.7004377749
 10
-2.4508795244
 20
-26.68192482
  0
LINE
  5
228
100
AcDbEntity
  8
RACCORDO
100
AcDbLine
 62
7
  6
CONTINUOUS
 10
-18.2531797292
 20
-18.112950156
 11
-3.3948397116
 21
-26.6919694635
  0
LINE
  5
229
100
AcDbEntity
  8
RACCORDO
100
AcDbLine
 62
253
  6
CONTINUOUS
 10
-18.5593077585
 20
-17.4781019455
 11
-3.7081770016
 21
-26.0529587162
  0
LINE
  5
22A
100
AcDbEntity
  8
RACCORDO
100
AcDbLine
 62
7
  6
CONTINUOUS
 10
-3.3948393237
 20
-26.6919696874
 11
-3.3954568632
 21
-26.6916125537
  0
LWPOLYLINE
  5
22B
100
AcDbEntity
  8
RACCORDO
100
AcDbPolyline
 62
253
  6
CONTINUOUS
 90
12
 70
0
 10
-18.2531797292
 20
-18.112950156
 10
-18.282802122
 20
-18.0944044709
 10
-18.3308175862
 20
-18.057436488
 10
-18.3748007543
 20
-18.0142766203
 10
-18.4145177872
 20
-17.965144287
 10
-18.4497651905
 20
-17.9102928951
 10
-18.4803643586
 20
-17.8500058357
 10
-18.506168444
 20
-17.7845764567
 10
-18.5270575103
 20
-17.7143151119
 10
-18.5429280666
 20
-17.6395634876
 10
-18.5536965417
 20
-17.5606958604
 10
-18.5593077585
 20
-17.4781019455
  0
LWPOLYLINE
  5
22C
100
AcDbEntity
  8
RACCORDO
100
AcDbPolyline
 62
253
  6
CONTINUOUS
 90
12
 70
0
 10
-3.3954568632
 20
-26.6916125537
 10
-3.4251648563
 20
-26.6730177118
 10
-3.4743096173
 20
-26.6353970799
 10
-3.5193252327
 20
-26.5916407935
 10
-3.5599795929
 20
-26.5419674578
 10
-3.5960557472
 20
-26.4866378376
 10
-3.6273735108
 20
-26.4259355888
 10
-3.6537873247
 20
-26.3601534425
 10
-3.6751680618
 20
-26.2896077142
 10
-3.6914093158
 20
-26.2146422156
 10
-3.7024306567
 20
-26.1356292929
 10
-3.7081770016
 20
-26.0529587162
  0
LWPOLYLINE
  5
22D
100
AcDbEntity
  8
RACCORDO
100
AcDbPolyline
 62
7
  6
CONTINUOUS
 90
28
 70
0
 10
-11.4369291359
 20
20.5287486549
 10
-11.4448082589
 20
20.5193463925
 10
-11.453028508
 20
20.5101080796
 10
-11.4615863692
 20
20.5010551888
 10
-11.4704847997
 20
20.4922107206
 10
-11.4797112347
 20
20.4835948477
 10
-11.489237809
 20
20.4752250817
 10
-11.4990579973
 20
20.4671234727
 10
-11.5091638956
 20
20.4593114948
 10
-11.5195246785
 20
20.451806183
 10
-11.5301311998
 20
20.4446294846
 10
-11.5409731112
 20
20.4378026538
 10
-11.5520168883
 20
20.4313420977
 10
-11.5632507367
 20
20.4252692728
 10
-11.5746616875
 20
20.4196049203
 10
-11.586213508
 20
20.4143648091
 10
-11.5978916399
 20
20.4095695086
 10
-11.6096803714
 20
20.4052388296
 10
-11.6215406854
 20
20.4013877947
 10
-11.6334551331
 20
20.3980355947
 10
-11.6454051464
 20
20.3952005828
 10
-11.657348824
 20
20.3928967482
 10
-11.6692656736
 20
20.3911412847
 10
-11.6811342408
 20
20.3899503885
 10
-11.6929098194
 20
20.3893364225
 10
-11.7045686399
 20
20.3893137948
 10
-11.7160865771
 20
20.3898956445
 10
-11.7190617332
 20
20.3901480219
  0
LINE
  5
22E
100
AcDbEntity
  8
RACCORDO
100
AcDbLine
 62
7
  6
CONTINUOUS
 10
-10.5468689532
 20
20.3288438005
 11
-11.4369291359
 21
19.7673303188
  0
LINE
  5
22F
100
AcDbEntity
  8
RACCORDO
100
AcDbLine
 62
7
  6
CONTINUOUS
 10
-2.8242858916
 20
23.9712241793
 11
-9.1388262182
 21
20.3252815307
  0
LINE
  5
230
100
AcDbEntity
  8
RACCORDO
100
AcDbLine
 62
7
  6
CONTINUOUS
 10
-2.8242858916
 20
23.9712241793
 11
-2.5375408005
 21
24.1368103131
  0
LINE
  5
231
100
AcDbEntity
  8
RACCORDO
100
AcDbLine
 62
7
  6
CONTINUOUS
 10
2.941437694
 20
26.8076860881
 11
0.0243764797
 21
25.1822040647
  0
LINE
  5
232
100
AcDbEntity
  8
RACCORDO
100
AcDbLine
 62
7
  6
CONTINUOUS
 10
2.5632307296
 20
26.6988058242
 11
-2.3255672754
 21
24.0144246049
  0
LWPOLYLINE
  5
233
100
AcDbEntity
  8
RACCORDO
100
AcDbPolyline
 62
7
  6
CONTINUOUS
 90
7
 70
0
 10
-1.8282423412
 20
22.5864274526
 10
-1.837295085
 20
22.5827547792
 10
-1.8463608422
 20
22.5788030437
 10
-1.8554396128
 20
22.574572246
 10
-1.8645313968
 20
22.5700623861
 10
-1.8736361942
 20
22.5652734641
 10
-1.882754005
 20
22.5602054799
  0
LINE
  5
234
100
AcDbEntity
  8
RACCORDO
100
AcDbLine
 62
7
  6
CONTINUOUS
 10
-1.8056455184
 20
22.5952097222
 11
-1.8282423412
 21
22.5864274526
  0
LWPOLYLINE
  5
235
100
AcDbEntity
  8
RACCORDO
100
AcDbPolyline
 62
7
  6
CONTINUOUS
 90
18
 70
0
 10
-2.4317178063
 20
22.9365333792
 10
-2.4197144217
 20
22.9406488845
 10
-2.4071566346
 20
22.944014288
 10
-2.3940525703
 20
22.9466117898
 10
-2.3804096
 20
22.9484355267
 10
-2.36624156
 20
22.9494553053
 10
-2.3515694901
 20
22.9496172358
 10
-2.3364090753
 20
22.9488991544
 10
-2.3207778431
 20
22.9472884082
 10
-2.3047034227
 20
22.9447466558
 10
-2.2882320095
 20
22.9412619045
 10
-2.2713631933
 20
22.9368150265
 10
-2.2540548175
 20
22.9313531712
 10
-2.2363437254
 20
22.9248654142
 10
-2.2182448046
 20
22.9173231256
 10
-2.199680591
 20
22.908634399
 10
-2.1806701451
 20
22.8987686599
 10
-2.1683653542
 20
22.8918702712
  0
LWPOLYLINE
  5
236
100
AcDbEntity
  8
RACCORDO
100
AcDbPolyline
 62
7
  6
CONTINUOUS
 90
19
 70
0
 10
0.915417116
 20
-26.4928992406
 10
0.927825023
 20
-26.4996040332
 10
0.9406798884
 20
-26.505637034
 10
0.9539376545
 20
-26.5109603512
 10
0.9675565152
 20
-26.5155416311
 10
0.9814790937
 20
-26.5193482187
 10
0.9956334268
 20
-26.5223514138
 10
1.009952047
 20
-26.5245324513
 10
1.0243888355
 20
-26.5258816479
 10
1.0389047205
 20
-26.5263917656
 10
1.0534307524
 20
-26.5260577523
 10
1.0679220772
 20
-26.5248793927
 10
1.0823798141
 20
-26.5228505083
 10
1.0967876742
 20
-26.5199595943
 10
1.1110487403
 20
-26.5162130294
 10
1.1250547163
 20
-26.5116356148
 10
1.1387667661
 20
-26.5062409639
 10
1.1521370132
 20
-26.5000479232
 10
1.1632390003
 20
-26.4941491459
  0
LWPOLYLINE
  5
237
100
AcDbEntity
  8
RACCORDO
100
AcDbPolyline
 62
253
  6
CONTINUOUS
 90
28
 70
0
 10
0.8636464607
 20
-26.3784650253
 10
0.8741504682
 20
-26.38418921
 10
0.8852187762
 20
-26.3895578402
 10
0.8968157003
 20
-26.3945520581
 10
0.9089069976
 20
-26.3991553889
 10
0.9214501185
 20
-26.4033499724
 10
0.9343931793
 20
-26.4071177718
 10
0.9476887929
 20
-26.4104452282
 10
0.9612959584
 20
-26.4133223102
 10
0.9751695851
 20
-26.4157394507
 10
0.9892635214
 20
-26.4176885192
 10
1.0035300105
 20
-26.4191628229
 10
1.0179204504
 20
-26.4201573091
 10
1.0323861989
 20
-26.4206686344
 10
1.0468789156
 20
-26.4206951083
 10
1.0613500509
 20
-26.4202366385
 10
1.0757510472
 20
-26.4192947477
 10
1.090033426
 20
-26.4178725915
 10
1.1041491085
 20
-26.4159749492
 10
1.1180506314
 20
-26.4136081991
 10
1.1316912931
 20
-26.4107802892
 10
1.1450252369
 20
-26.4075007229
 10
1.1580076644
 20
-26.4037805146
 10
1.170594922
 20
-26.3996321695
 10
1.1827446441
 20
-26.3950696508
 10
1.1944159822
 20
-26.3901083047
 10
1.2055697347
 20
-26.3847648024
 10
1.2161684204
 20
-26.379057106
  0
LWPOLYLINE
  5
238
100
AcDbEntity
  8
RACCORDO
100
AcDbPolyline
 62
253
  6
CONTINUOUS
 90
28
 70
0
 10
0.8636464607
 20
-26.0579448525
 10
0.8741839526
 20
-26.063686253
 10
0.8852797875
 20
-26.069065555
 10
0.8968966982
 20
-26.0740646909
 10
0.9089956673
 20
-26.0786668704
 10
0.9215360582
 20
-26.0828566363
 10
0.934475752
 20
-26.0866199165
 10
0.9477712885
 20
-26.0899440714
 10
0.9613780122
 20
-26.0928179362
 10
0.9752502227
 20
-26.0952318585
 10
0.9893413277
 20
-26.0971777309
 10
1.0036039998
 20
-26.0986490177
 10
1.0179903355
 20
-26.0996407774
 10
1.0324520156
 20
-26.1001496789
 10
1.0469404682
 20
-26.1001740131
 10
1.0614070313
 20
-26.0997136982
 10
1.0758031164
 20
-26.0987702802
 10
1.0900803718
 20
-26.0973469279
 10
1.1041908449
 20
-26.0954484216
 10
1.1180871432
 20
-26.0930811381
 10
1.1317225936
 20
-26.090253028
 10
1.145051399
 20
-26.0869735903
 10
1.1580287925
 20
-26.0832538393
 10
1.1706111871
 20
-26.0791062686
 10
1.1827563228
 20
-26.0745448084
 10
1.194423408
 20
-26.0695847792
 10
1.2055732568
 20
-26.0642428402
 10
1.2161684204
 20
-26.0585369331
  0
LINE
  5
239
100
AcDbEntity
  8
RACCORDO
100
AcDbLine
 62
7
  6
CONTINUOUS
 10
-0.4095675638
 20
-25.7278696924
 11
0.915417116
 21
-26.4928992406
  0
LINE
  5
23A
100
AcDbEntity
  8
RACCORDO
100
AcDbLine
 62
253
  6
CONTINUOUS
 10
-0.3892777469
 20
-25.6550422907
 11
0.8636464607
 21
-26.3784650253
  0
LINE
  5
23B
100
AcDbEntity
  8
RACCORDO
100
AcDbLine
 62
253
  6
CONTINUOUS
 10
0.8636464607
 20
-26.0579448525
 11
-0.0912549748
 21
-25.5065967313
  0
LINE
  5
23C
100
AcDbEntity
  8
RACCORDO
100
AcDbLine
 62
253
  6
CONTINUOUS
 10
0.9520348084
 20
-25.830139528
 11
0.1680128408
 21
-25.37745507
  0
LWPOLYLINE
  5
23D
100
AcDbEntity
  8
RACCORDO
100
AcDbPolyline
 62
7
  6
CONTINUOUS
 90
6
 70
0
 10
-0.4095675638
 20
-25.7278696924
 10
-0.421603953
 20
-25.7204586028
 10
-0.4332783931
 20
-25.7123227719
 10
-0.4445359338
 20
-25.7034818676
 10
-0.4553270412
 20
-25.6939569105
 10
-0.4593667182
 20
-25.6899537052
  0
LWPOLYLINE
  5
23E
100
AcDbEntity
  8
RACCORDO
100
AcDbPolyline
 62
7
  6
CONTINUOUS
 90
15
 70
0
 10
-18.7057289882
 20
-17.2752494879
 10
-18.6999645636
 20
-17.3609271927
 10
-18.6886821815
 20
-17.4454691531
 10
-18.6722402492
 20
-17.5259704836
 10
-18.6509352071
 20
-17.6022095032
 10
-18.6250190099
 20
-17.6742763604
 10
-18.5946217333
 20
-17.7423976957
 10
-18.5599798439
 20
-17.8064135201
 10
-18.5213474944
 20
-17.8661934617
 10
-18.4788326868
 20
-17.9218288526
 10
-18.4327310258
 20
-17.9731087153
 10
-18.383340523
 20
-18.0198654138
 10
-18.3307514489
 20
-18.0621231915
 10
-18.2752166681
 20
-18.0997546817
 10
-18.2525688652
 20
-18.1132937031
  0
LWPOLYLINE
  5
23F
100
AcDbEntity
  8
RACCORDO
100
AcDbPolyline
 62
7
  6
CONTINUOUS
 90
14
 70
0
 10
-10.0009017809
 20
21.7623433508
 10
-9.9926545041
 20
21.7732942151
 10
-9.9850093545
 20
21.7846974061
 10
-9.9779916858
 20
21.7965210726
 10
-9.9716204767
 20
21.8087417986
 10
-9.9659235795
 20
21.8213160091
 10
-9.9609319026
 20
21.8341785628
 10
-9.9566606148
 20
21.8472861164
 10
-9.9531187351
 20
21.8606075393
 10
-9.9503181551
 20
21.8740944756
 10
-9.9482651071
 20
21.8877115032
 10
-9.946965042
 20
21.9014197812
 10
-9.9464218514
 20
21.9151664165
 10
-9.9464039245
 20
21.9181608645
  0
LINE
  5
240
100
AcDbEntity
  8
RACCORDO
100
AcDbLine
 62
253
  6
CONTINUOUS
 10
-10.5468689532
 20
21.1538748892
 11
-10.0186017815
 21
21.8166871556
  0
LINE
  5
241
100
AcDbEntity
  8
RACCORDO
100
AcDbLine
 62
7
  6
CONTINUOUS
 10
-10.5468689532
 20
21.0773230463
 11
-10.0009017809
 21
21.7623433508
  0
LWPOLYLINE
  5
242
100
AcDbEntity
  8
ASSI
100
AcDbPolyline
 62
7
  6
CONTINUOUS
 90
11
 70
0
 10
0.2214314174
 20
24.0167010587
 10
0.196375163
 20
23.9990555338
 10
0.1722644125
 20
23.982328624
 10
0.1490927292
 20
23.9665393292
 10
0.1271723134
 20
23.9519149645
 10
0.1064983027
 20
23.938536693
 10
0.0870381088
 20
23.9263618085
 10
0.0690712896
 20
23.9154221331
 10
0.0526891337
 20
23.9057301306
 10
0.0377914757
 20
23.8972821409
 10
0.0243774255
 20
23.8900790404
  0
LWPOLYLINE
  5
243
100
AcDbEntity
  8
ASSI
100
AcDbPolyline
 62
7
  6
CONTINUOUS
 90
7
 70
0
 10
0.4731548895
 20
24.1919449634
 10
0.4495413679
 20
24.1763385803
 10
0.419085169
 20
24.1558156856
 10
0.3889318382
 20
24.1351389436
 10
0.3593732939
 20
24.1145859642
 10
0.330379561
 20
24.0941935435
 10
0.2214314174
 20
24.0167010587
  0
LINE
  5
244
100
AcDbEntity
  8
RACCORDO
100
AcDbLine
 62
7
  6
CONTINUOUS
 10
-8.1780492348
 20
19.6911366858
 11
-7.8245078456
 21
19.9000450037
  0
LINE
  5
245
100
AcDbEntity
  8
ASSI
100
AcDbLine
 62
7
  6
CONTINUOUS
 10
2.2871191253
 20
25.2897233673
 11
3.3477792971
 21
25.9128230996
  0
LINE
  5
246
100
AcDbEntity
  8
RACCORDO
100
AcDbLine
 62
7
  6
CONTINUOUS
 10
-1.882754005
 20
22.5602054799
 11
-6.4810049614
 21
19.9361223779
  0
LINE
  5
247
100
AcDbEntity
  8
ASSI
100
AcDbLine
 62
7
  6
CONTINUOUS
 10
2.2871191253
 20
25.2897233673
 11
0.8440317801
 21
24.471044226
  0
LINE
  5
248
100
AcDbEntity
  8
RACCORDO
100
AcDbLine
 62
7
  6
CONTINUOUS
 10
-2.8747603773
 20
20.8365506097
 11
-1.8282423412
 21
21.4302516702
  0
LINE
  5
249
100
AcDbEntity
  8
RACCORDO
100
AcDbLine
 62
7
  6
CONTINUOUS
 10
-7.8245078456
 20
19.9000450037
 11
-2.4882844397
 21
22.9098311638
  0
LINE
  5
24A
100
AcDbEntity
  8
ASSI
100
AcDbLine
 62
253
  6
CONTINUOUS
 10
-0.5321334253
 20
23.4705076629
 11
0.0058649434
 21
23.7703916995
  0
LWPOLYLINE
  5
24B
100
AcDbEntity
  8
RACCORDO
100
AcDbPolyline
 62
253
  6
CONTINUOUS
 90
13
 70
0
 10
-7.3295330988
 20
-18.5973058092
 10
-7.3139758208
 20
-18.6053937582
 10
-7.2970395496
 20
-18.6124984655
 10
-7.2789098425
 20
-18.6185420906
 10
-7.2597853325
 20
-18.6234584181
 10
-7.2398755516
 20
-18.6271935838
 10
-7.2193986356
 20
-18.6297066644
 10
-7.1985789338
 20
-18.6309701261
 10
-7.1776445513
 20
-18.6309701261
 10
-7.1568248496
 20
-18.6297066644
 10
-7.1363479335
 20
-18.6271935838
 10
-7.1164381527
 20
-18.6234584181
 10
-7.0973136426
 20
-18.6185420906
  0
LWPOLYLINE
  5
24C
100
AcDbEntity
  8
RACCORDO
100
AcDbPolyline
 62
7
  6
CONTINUOUS
 90
13
 70
0
 10
-7.5002486021
 20
-18.8113118904
 10
-7.4679715261
 20
-18.8283151298
 10
-7.435854022
 20
-18.8420839534
 10
-7.4040510197
 20
-18.8527178769
 10
-7.3727464579
 20
-18.8603196426
 10
-7.3420205907
 20
-18.8650259641
 10
-7.311908594
 20
-18.866961901
 10
-7.2826803691
 20
-18.8662417259
 10
-7.2543963985
 20
-18.863004418
 10
-7.226855927
 20
-18.857307067
 10
-7.2001350091
 20
-18.8491864964
 10
-7.174536764
 20
-18.8387660692
 10
-7.1581919229
 20
-18.8302982279
  0
LWPOLYLINE
  5
24D
100
AcDbEntity
  8
RACCORDO
100
AcDbPolyline
 62
253
  6
CONTINUOUS
 90
22
 70
0
 10
-7.5416651332
 20
-18.7197645143
 10
-7.525731583
 20
-18.7282626838
 10
-7.5100400539
 20
-18.7352872136
 10
-7.4945905457
 20
-18.7408381036
 10
-7.4792934451
 20
-18.7449341318
 10
-7.4642383654
 20
-18.7475565202
 10
-7.449694147
 20
-18.7486489351
 10
-7.4356732496
 20
-18.7481811304
 10
-7.4221632133
 20
-18.7461833521
 10
-7.4093954987
 20
-18.7426900053
 10
-7.3973863096
 20
-18.7376770359
 10
-7.3861194422
 20
-18.731168498
 10
-7.3757777455
 20
-18.7232709584
 10
-7.3663743293
 20
-18.7139592064
 10
-7.3578960837
 20
-18.7032584528
 10
-7.3504865287
 20
-18.691350897
 10
-7.3441648244
 20
-18.6782091724
 10
-7.3389118106
 20
-18.6638606456
 10
-7.3348135271
 20
-18.6485696159
 10
-7.331898654
 20
-18.6324241832
 10
-7.3301385112
 20
-18.6153362476
 10
-7.3295330988
 20
-18.5973058092
  0
LWPOLYLINE
  5
24E
100
AcDbEntity
  8
RACCORDO
100
AcDbPolyline
 62
253
  6
CONTINUOUS
 90
7
 70
0
 10
3.2928703734
 20
-24.5180836762
 10
3.2913199471
 20
-24.51721182
 10
3.2848546729
 20
-24.5140211059
 10
3.278102306
 20
-24.5113805952
 10
3.2710814472
 20
-24.5092962598
 10
3.2638087263
 20
-24.5077717863
 10
3.2563025876
 20
-24.5068100079
  0
LINE
  5
24F
100
AcDbEntity
  8
RACCORDO
100
AcDbLine
 62
253
  6
CONTINUOUS
 10
3.29292028
 20
-24.5181124687
 11
3.2928703734
 21
-24.5180836762
  0
LINE
  5
250
100
AcDbEntity
  8
RACCORDO
100
AcDbLine
 62
7
  6
CONTINUOUS
 10
1.2158583765
 20
-24.8555217441
 11
1.5743528405
 21
-25.0625119546
  0
LINE
  5
251
100
AcDbEntity
  8
RACCORDO
100
AcDbLine
 62
7
  6
CONTINUOUS
 10
-15.278423202
 20
-14.3202913599
 11
-7.5002486031
 21
-18.8113118899
  0
LINE
  5
252
100
AcDbEntity
  8
RACCORDO
100
AcDbLine
 62
253
  6
CONTINUOUS
 10
-15.3198397262
 20
-14.2287439877
 11
-7.5416651332
 21
-18.7197645143
  0
LINE
  5
253
100
AcDbEntity
  8
RACCORDO
100
AcDbLine
 62
253
  6
CONTINUOUS
 10
2.8174492112
 20
-24.2534215685
 11
3.2563025876
 21
-24.5068100079
  0
LINE
  5
254
100
AcDbEntity
  8
RACCORDO
100
AcDbLine
 62
7
  6
CONTINUOUS
 10
2.8174492112
 20
-24.2435814326
 11
3.29292028
 21
-24.5181124687
  0
LWPOLYLINE
  5
255
100
AcDbEntity
  8
RACCORDO
100
AcDbPolyline
 62
7
  6
CONTINUOUS
 90
21
 70
0
 10
3.2928703734
 20
-24.5180836762
 10
3.2963444915
 20
-24.5201260287
 10
3.3075507559
 20
-24.52724697
 10
3.3183709767
 20
-24.5349587011
 10
3.328755743
 20
-24.5432256511
 10
3.3386816902
 20
-24.5520270579
 10
3.3481461863
 20
-24.5613627839
 10
3.3571193721
 20
-24.5712096479
 10
3.3655662652
 20
-24.58153471
 10
3.3734727569
 20
-24.5923279607
 10
3.3808117225
 20
-24.6035631983
 10
3.3875527921
 20
-24.6152046695
 10
3.3936754783
 20
-24.6272288189
 10
3.3991544798
 20
-24.6395997997
 10
3.4039679031
 20
-24.652282665
 10
3.4080997536
 20
-24.6652545433
 10
3.4115308413
 20
-24.6784819954
 10
3.4142414795
 20
-24.6919200046
 10
3.4162161953
 20
-24.7055268646
 10
3.4174418995
 20
-24.7192547622
 10
3.4179094288
 20
-24.7330643913
  0
LWPOLYLINE
  5
256
100
AcDbEntity
  8
RACCORDO
100
AcDbPolyline
 62
253
  6
CONTINUOUS
 90
9
 70
0
 10
-15.5319717606
 20
-13.8613205266
 10
-15.5459794448
 20
-13.8523380592
 10
-15.5582842764
 20
-13.8425593764
 10
-15.5687514339
 20
-13.8320916092
 10
-15.5772662284
 20
-13.8210494388
 10
-15.5837353593
 20
-13.8095538418
 10
-15.5880879378
 20
-13.7977307653
 10
-15.5902762656
 20
-13.7857097429
 10
-15.5905504043
 20
-13.7796656157
  0
LWPOLYLINE
  5
257
100
AcDbEntity
  8
RACCORDO
100
AcDbPolyline
 62
253
  6
CONTINUOUS
 90
8
 70
0
 10
-18.7049211403
 20
-17.2870665054
 10
-18.6991024216
 20
-17.3178529821
 10
-18.688000903
 20
-17.3479918001
 10
-18.671735532
 20
-17.3771600366
 10
-18.650480584
 20
-17.4050451684
 10
-18.6244637953
 20
-17.43134842
 10
-18.593963923
 20
-17.4557879649
 10
-18.5593077582
 20
-17.4781019454
  0
LWPOLYLINE
  5
258
100
AcDbEntity
  8
RACCORDO
100
AcDbPolyline
 62
253
  6
CONTINUOUS
 90
9
 70
0
 10
-18.997347634
 20
-1.0995218527
 10
-18.9964285285
 20
-1.1166884568
 10
-18.9906224841
 20
-1.14642997
 10
-18.9795322129
 20
-1.175673422
 10
-18.9632765172
 20
-1.2041122751
 10
-18.9420295596
 20
-1.2314484735
 10
-18.9160189973
 20
-1.2573955088
 10
-18.8855235431
 20
-1.2816814388
 10
-18.8508699784
 20
-1.3040517915
  0
LWPOLYLINE
  5
259
100
AcDbEntity
  8
RACCORDO
100
AcDbPolyline
 62
253
  6
CONTINUOUS
 90
10
 70
0
 10
-18.5593077585
 20
-17.4781019455
 10
-18.6192368253
 20
-15.6982120125
 10
-18.672286907
 20
-13.9139544913
 10
-18.718457405
 20
-12.1253650316
 10
-18.7577473098
 20
-10.3325062744
 10
-18.7901570599
 20
-8.5353872449
 10
-18.8156874924
 20
-6.73396272
 10
-18.834337854
 20
-4.9282410081
 10
-18.8461068505
 20
-3.1182845789
 10
-18.8509937712
 20
-1.3041290146
  0
LWPOLYLINE
  5
25A
100
AcDbEntity
  8
RACCORDO
100
AcDbPolyline
 62
7
  6
CONTINUOUS
 90
10
 70
0
 10
-18.9973934928
 20
-0.3370822104
 10
-18.9970939108
 20
-0.3535762567
 10
-18.9947202834
 20
-0.3843497285
 10
-18.9900508523
 20
-0.4143804669
 10
-18.9832452945
 20
-0.4434358279
 10
-18.9745672968
 20
-0.471117214
 10
-18.9641769992
 20
-0.4974350484
 10
-18.9524032009
 20
-0.5219845252
 10
-18.9394764801
 20
-0.5446942851
 10
-18.9253688093
 20
-0.5658715016
  0
LWPOLYLINE
  5
25B
100
AcDbEntity
  8
RACCORDO
100
AcDbPolyline
 62
253
  6
CONTINUOUS
 90
11
 70
0
 10
-18.8509978985
 20
-0.5407481855
 10
-18.8508044834
 20
-0.5579876373
 10
-18.8503183674
 20
-0.5744367047
 10
-18.8494539377
 20
-0.5899329253
 10
-18.8481077364
 20
-0.6043457137
 10
-18.8462272587
 20
-0.6174389053
 10
-18.8438432477
 20
-0.6289020066
 10
-18.8409659125
 20
-0.6385318884
 10
-18.8375612075
 20
-0.6461916941
 10
-18.8336453461
 20
-0.6517022688
 10
-18.8304210192
 20
-0.6543091229
  0
LWPOLYLINE
  5
25C
100
AcDbEntity
  8
RACCORDO
100
AcDbPolyline
 62
7
  6
CONTINUOUS
 90
10
 70
0
 10
-18.9974408693
 20
-1.0993884087
 10
-18.9926954017
 20
-2.8830925701
 10
-18.9809678297
 20
-4.702368638
 10
-18.9622882715
 20
-6.5174205061
 10
-18.9366569714
 20
-8.3282070418
 10
-18.9040743911
 20
-10.1346941535
 10
-18.8645410087
 20
-11.9368504246
 10
-18.8180574168
 20
-13.7346418033
 10
-18.7646246717
 20
-15.5280276168
 10
-18.7057340322
 20
-17.2752176524
  0
LWPOLYLINE
  5
25D
100
AcDbEntity
  8
RACCORDO
100
AcDbPolyline
 62
253
  6
CONTINUOUS
 90
19
 70
0
 10
-18.8509978985
 20
-1.3041266316
 10
-18.8509069481
 20
-1.284521452
 10
-18.8503950564
 20
-1.2636089672
 10
-18.8494386996
 20
-1.2414962337
 10
-18.8480568119
 20
-1.2183719674
 10
-18.8462189428
 20
-1.1942923001
 10
-18.8437986083
 20
-1.1691730875
 10
-18.8406461581
 20
-1.1430681624
 10
-18.836856537
 20
-1.1162350062
 10
-18.8326729663
 20
-1.0889096364
 10
-18.8283175982
 20
-1.0612962058
 10
-18.8236757224
 20
-1.0335686166
 10
-18.8185146153
 20
-1.0059386029
 10
-18.8128755758
 20
-0.9785629306
 10
-18.8068792377
 20
-0.9517561308
 10
-18.8004321561
 20
-0.9259792891
 10
-18.7936069174
 20
-0.9015328839
 10
-18.7866331137
 20
-0.8785702201
 10
-18.7796873881
 20
-0.8573127013
  0
LWPOLYLINE
  5
25E
100
AcDbEntity
  8
RACCORDO
100
AcDbPolyline
 62
7
  6
CONTINUOUS
 90
10
 70
0
 10
-18.705759428
 20
16.1863296097
 10
-18.7646430779
 20
14.3689328432
 10
-18.8180701232
 20
12.5118480526
 10
-18.8645493281
 20
10.6586431164
 10
-18.9040794659
 20
8.8093600543
 10
-18.9366597734
 20
6.9640337164
 10
-18.9622896005
 20
5.1226961982
 10
-18.9809683151
 20
3.2853822754
 10
-18.9926955018
 20
1.4521335058
 10
-18.9974408706
 20
-0.3372188565
  0
LWPOLYLINE
  5
25F
100
AcDbEntity
  8
RACCORDO
100
AcDbPolyline
 62
253
  6
CONTINUOUS
 90
10
 70
0
 10
-18.5593077585
 20
15.9820096142
 10
-18.6192368117
 20
14.130459149
 10
-18.672286887
 20
12.2827666257
 10
-18.7184573842
 20
10.438968386
 10
-18.7577472929
 20
8.5991281896
 10
-18.7901570488
 20
6.7632546042
 10
-18.8156874862
 20
4.9313015849
 10
-18.834337851
 20
3.1032783576
 10
-18.8461068497
 20
1.2792488387
 10
-18.8509937712
 20
-0.5407505685
  0
LWPOLYLINE
  5
260
100
AcDbEntity
  8
RACCORDO
100
AcDbPolyline
 62
253
  6
CONTINUOUS
 90
22
 70
0
 10
-12.148149744
 20
20.5942386678
 10
-12.1535977675
 20
20.5812250437
 10
-12.1596205534
 20
20.5685959878
 10
-12.1661984283
 20
20.5563944204
 10
-12.1733106723
 20
20.5446605584
 10
-12.1809331266
 20
20.533435909
 10
-12.1890376918
 20
20.5227625109
 10
-12.1975959208
 20
20.5126776012
 10
-12.2065799599
 20
20.5032137877
 10
-12.215959826
 20
20.4944027059
 10
-12.2257041406
 20
20.486273962
 10
-12.2357798832
 20
20.4788552274
 10
-12.2461527709
 20
20.4721717903
 10
-12.2567876997
 20
20.4662462525
 10
-12.2676489249
 20
20.4610985146
 10
-12.2786998508
 20
20.4567459248
 10
-12.289903233
 20
20.4532031616
 10
-12.3012212731
 20
20.4504821871
 10
-12.3126157741
 20
20.4485921875
 10
-12.3240483234
 20
20.4475395356
 10
-12.3354803558
 20
20.4473277837
 10
-12.3468183188
 20
20.4479525715
  0
LWPOLYLINE
  5
261
100
AcDbEntity
  8
RACCORDO
100
AcDbPolyline
 62
7
  6
CONTINUOUS
 90
5
 70
0
 10
-2.8982324623
 20
19.7910297247
 10
-2.899937196
 20
19.7899986933
 10
-2.9027842658
 20
19.788052367
 10
-2.9054861085
 20
19.7859093377
 10
-2.906648225
 20
19.7848865228
  0
LINE
  5
262
100
AcDbEntity
  8
ASSI
100
AcDbLine
 62
7
  6
CONTINUOUS
 10
-0.416315699
 20
21.3196858601
 11
-1.908834551
 21
20.4579241806
  0
LINE
  5
263
100
AcDbEntity
  8
RACCORDO
100
AcDbLine
 62
7
  6
CONTINUOUS
 10
-2.8982324601
 20
19.7910297268
 11
-2.8380180148
 21
19.8257967929
  0
LINE
  5
264
100
AcDbEntity
  8
RACCORDO
100
AcDbLine
 62
253
  6
CONTINUOUS
 10
-2.8040496992
 20
19.7777599004
 11
-2.7380131828
 21
19.8158885573
  0
LINE
  5
265
100
AcDbEntity
  8
RACCORDO
100
AcDbLine
 62
7
  6
CONTINUOUS
 10
6.1278235371
 20
24.6406546121
 11
3.5256782992
 21
23.160597349
  0
LINE
  5
266
100
AcDbEntity
  8
RACCORDO
100
AcDbLine
 62
7
  6
CONTINUOUS
 10
0.2426800523
 20
22.2003964814
 11
-1.908834551
 21
20.979818854
  0
LWPOLYLINE
  5
267
100
AcDbEntity
  8
RACCORDO
100
AcDbPolyline
 62
253
  6
CONTINUOUS
 90
55
 70
0
 10
-2.7380131828
 20
19.8158885573
 10
-2.7222625427
 20
19.8247428187
 10
-2.706133499
 20
19.8333400105
 10
-2.6896260518
 20
19.8416801325
 10
-2.6727268133
 20
19.8497692151
 10
-2.6554491713
 20
19.8576012279
 10
-2.6378332891
 20
19.8651580806
 10
-2.6198787306
 20
19.8724388881
 10
-2.6015859319
 20
19.8794445353
 10
-2.5829963647
 20
19.8861595866
 10
-2.5641094343
 20
19.8925833025
 10
-2.5449257354
 20
19.8987164223
 10
-2.5254885236
 20
19.9045457288
 10
-2.5057973271
 20
19.910070474
 10
-2.4858526178
 20
19.9152914059
 10
-2.4656990667
 20
19.9201975504
 10
-2.4453362143
 20
19.9247881701
 10
-2.42476452
 20
19.9290640024
 10
-2.4040300327
 20
19.9330162852
 10
-2.3831325217
 20
19.9366442469
 10
-2.3620722176
 20
19.939948659
 10
-2.3408958618
 20
19.9429230747
 10
-2.3196032961
 20
19.9455667328
 10
-2.2981946786
 20
19.9478803944
 10
-2.2767172242
 20
19.949859896
 10
-2.2551709478
 20
19.9515044804
 10
-2.2335558345
 20
19.952814905
 10
-2.2119190546
 20
19.9537892776
 10
-2.1902606599
 20
19.95442686
 10
-2.1685805987
 20
19.9547283905
 10
-2.1469258862
 20
19.9546941921
 10
-2.1252967376
 20
19.954323544
 10
-2.1036929377
 20
19.9536171669
 10
-2.0821608564
 20
19.9525775466
 10
-2.0607007335
 20
19.9512039816
 10
-2.0393123292
 20
19.9494971732
 10
-2.0180412936
 20
19.9474617117
 10
-1.9968880249
 20
19.9450969264
 10
-1.9758521249
 20
19.9424034879
 10
-1.9549780499
 20
19.9393879979
 10
-1.9342662721
 20
19.9360498223
 10
-1.9137163192
 20
19.9323895953
 10
-1.89337123
 20
19.9284158214
 10
-1.8732315446
 20
19.9241279032
 10
-1.8532967228
 20
19.9195264381
 10
-1.8336081833
 20
19.9146217233
 10
-1.8141663974
 20
19.9094131569
 10
-1.7949708939
 20
19.9039013407
 10
-1.7760616774
 20
19.8980983778
 10
-1.7574392633
 20
19.892003647
 10
-1.7391031362
 20
19.8856177694
 10
-1.7210917553
 20
19.8789547113
 10
-1.7034179403
 20
19.872019128
 10
-1.6860688715
 20
19.864806364
 10
-1.6690445489
 20
19.8573164195
  0
LWPOLYLINE
  5
268
100
AcDbEntity
  8
RACCORDO
100
AcDbPolyline
 62
253
  6
CONTINUOUS
 90
19
 70
0
 10
-2.8380180148
 20
19.8257967929
 10
-2.8335560612
 20
19.8281527741
 10
-2.8289170731
 20
19.8301717777
 10
-2.8241050443
 20
19.8318527529
 10
-2.8191291348
 20
19.8331924998
 10
-2.8139988165
 20
19.8341884681
 10
-2.8087238553
 20
19.834838762
 10
-2.8033142924
 20
19.8351421437
 10
-2.7977804251
 20
19.8350980355
 10
-2.7921327876
 20
19.8347065215
 10
-2.7863821304
 20
19.833968347
 10
-2.7805394002
 20
19.8328849172
 10
-2.774615719
 20
19.8314582943
 10
-2.7686223629
 20
19.8296911941
 10
-2.7625707405
 20
19.8275869804
 10
-2.7564723715
 20
19.8251496586
 10
-2.7503388645
 20
19.8223838684
 10
-2.7441818948
 20
19.8192948746
 10
-2.7380131828
 20
19.8158885573
  0
LWPOLYLINE
  5
269
100
AcDbEntity
  8
RACCORDO
100
AcDbPolyline
 62
7
  6
CONTINUOUS
 90
18
 70
0
 10
3.1215051271
 20
19.7285052993
 10
3.1334988553
 20
19.732748354
 10
3.146053522
 20
19.736236667
 10
3.1591609715
 20
19.7389522215
 10
3.172814141
 20
19.7408891398
 10
3.1869987768
 20
19.7420167833
 10
3.2016925811
 20
19.7422804769
 10
3.216879871
 20
19.7416576411
 10
3.232542666
 20
19.7401357606
 10
3.2486511398
 20
19.7376767683
 10
3.2651581554
 20
19.7342685204
 10
3.2820642869
 20
19.7298921534
 10
3.299411068
 20
19.7244958811
 10
3.3171598075
 20
19.7180696231
 10
3.3352968249
 20
19.7105841688
 10
3.3539037916
 20
19.7019462047
 10
3.3729622889
 20
19.6921249343
 10
3.386590698
 20
19.6845088021
  0
LWPOLYLINE
  5
26A
100
AcDbEntity
  8
RACCORDO
100
AcDbPolyline
 62
253
  6
CONTINUOUS
 90
10
 70
0
 10
-7.3295330988
 20
-15.7396598404
 10
-7.3139760082
 20
-15.7477477001
 10
-7.2970399214
 20
-15.7548523542
 10
-7.2789103828
 20
-15.7608959585
 10
-7.2597860131
 20
-15.7658122932
 10
-7.2398763365
 20
-15.7695474875
 10
-7.2193994858
 20
-15.7720606113
 10
-7.1985798052
 20
-15.7733241242
 10
-7.1776453991
 20
-15.7733241763
 10
-7.1568256369
 20
-15.7720607613
  0
LWPOLYLINE
  5
26B
100
AcDbEntity
  8
RACCORDO
100
AcDbPolyline
 62
253
  6
CONTINUOUS
 90
9
 70
0
 10
-15.5319717606
 20
-11.0036745578
 10
-15.5459795966
 20
-10.9946919805
 10
-15.5582845179
 20
-10.9849131898
 10
-15.5687517092
 20
-10.9744453241
 10
-15.5772664896
 20
-10.9634030717
 10
-15.5837355696
 20
-10.9519074138
 10
-15.5880880724
 20
-10.9400842991
 10
-15.5902763113
 20
-10.9280632642
 10
-15.5905504043
 20
-10.9220196392
  0
LWPOLYLINE
  5
26C
100
AcDbEntity
  8
RACCORDO
100
AcDbPolyline
 62
253
  6
CONTINUOUS
 90
9
 70
0
 10
-15.3198397262
 20
-14.2287439877
 10
-15.3190650052
 20
-14.2453655501
 10
-15.3167493303
 20
-14.2609103749
 10
-15.3129180724
 20
-14.2752081497
 10
-15.3076132076
 20
-14.2881022249
 10
-15.3008928571
 20
-14.2994513306
 10
-15.2928306505
 20
-14.3091311234
 10
-15.2835149191
 20
-14.3170355496
 10
-15.278423202
 20
-14.3202913599
  0
LWPOLYLINE
  5
26D
100
AcDbEntity
  8
RACCORDO
100
AcDbPolyline
 62
253
  6
CONTINUOUS
 90
9
 70
0
 10
-15.3198397262
 20
4.958307517
 10
-15.3190650052
 20
4.9416859545
 10
-15.3167493303
 20
4.9261411297
 10
-15.3129180724
 20
4.911843355
 10
-15.3076132076
 20
4.8989492797
 10
-15.3008928571
 20
4.8876001741
 10
-15.2928306505
 20
4.8779203812
 10
-15.2835149191
 20
4.8700159551
 10
-15.278423202
 20
4.8667601447
  0
LWPOLYLINE
  5
26E
100
AcDbEntity
  8
RACCORDO
100
AcDbPolyline
 62
7
  6
CONTINUOUS
 90
19
 70
0
 10
-15.5905504043
 20
-13.7796656158
 10
-15.589267153
 20
-13.8152798104
 10
-15.5855162502
 20
-13.8509267173
 10
-15.5794329406
 20
-13.8864908268
 10
-15.5711056909
 20
-13.9219786878
 10
-15.5606381267
 20
-13.9572213724
 10
-15.5482246799
 20
-13.9918226542
 10
-15.534040619
 20
-14.0255592031
 10
-15.518144723
 20
-14.0584697962
 10
-15.5006008056
 20
-14.0905048555
 10
-15.4814808097
 20
-14.1215642594
 10
-15.4608533155
 20
-14.1515353026
 10
-15.4387529124
 20
-14.1803343641
 10
-15.4151555034
 20
-14.2079162895
 10
-15.3901556758
 20
-14.2340700735
 10
-15.3639428051
 20
-14.2585127168
 10
-15.3365912529
 20
-14.2810978939
 10
-15.3080738365
 20
-14.301743801
 10
-15.278423202
 20
-14.3202913599
  0
LWPOLYLINE
  5
26F
100
AcDbEntity
  8
RACCORDO
100
AcDbPolyline
 62
7
  6
CONTINUOUS
 90
19
 70
0
 10
-15.5905504043
 20
5.4073858889
 10
-15.589267153
 20
5.3717716942
 10
-15.5855162502
 20
5.3361247873
 10
-15.5794329406
 20
5.3005606778
 10
-15.5711056909
 20
5.2650728168
 10
-15.5606381267
 20
5.2298301322
 10
-15.5482246799
 20
5.1952288504
 10
-15.534040619
 20
5.1614923016
 10
-15.518144723
 20
5.1285817085
 10
-15.5006008056
 20
5.0965466492
 10
-15.4814808097
 20
5.0654872452
 10
-15.4608533155
 20
5.0355162021
 10
-15.4387529124
 20
5.0067171405
 10
-15.4151555034
 20
4.9791352151
 10
-15.3901556758
 20
4.9529814311
 10
-15.3639428051
 20
4.9285387879
 10
-15.3365912529
 20
4.9059536107
 10
-15.3080738365
 20
4.8853077036
 10
-15.278423202
 20
4.8667601447
  0
LWPOLYLINE
  5
270
100
AcDbEntity
  8
RACCORDO
100
AcDbPolyline
 62
253
  6
CONTINUOUS
 90
22
 70
0
 10
-15.5319717606
 20
-13.8613205266
 10
-15.5313640833
 20
-13.880069278
 10
-15.5296011777
 20
-13.8992055911
 10
-15.5266830437
 20
-13.9187294658
 10
-15.5225811329
 20
-13.9387608589
 10
-15.5173239937
 20
-13.9591798137
 10
-15.5109972712
 20
-13.9796264598
 10
-15.5035810011
 20
-14.0000979375
 10
-15.4950951477
 20
-14.0205971065
 10
-15.4856852488
 20
-14.0407726761
 10
-15.4753385753
 20
-14.0606132862
 10
-15.4640678563
 20
-14.0801302968
 10
-15.452056818
 20
-14.0990064978
 10
-15.4392901819
 20
-14.1172355735
 10
-15.4257832264
 20
-14.1348238396
 10
-15.4117655128
 20
-14.1514730332
 10
-15.3972229211
 20
-14.1671691837
 10
-15.3821695713
 20
-14.1819262617
 10
-15.3668773847
 20
-14.1954879161
 10
-15.3514370019
 20
-14.2077686968
 10
-15.3357577824
 20
-14.218854054
 10
-15.3198397262
 20
-14.2287439877
  0
LWPOLYLINE
  5
271
100
AcDbEntity
  8
RACCORDO
100
AcDbPolyline
 62
253
  6
CONTINUOUS
 90
22
 70
0
 10
-15.5319717606
 20
5.325730978
 10
-15.5313640833
 20
5.3069822266
 10
-15.5296011777
 20
5.2878459135
 10
-15.5266830437
 20
5.2683220388
 10
-15.5225811329
 20
5.2482906457
 10
-15.5173239937
 20
5.2278716909
 10
-15.5109972712
 20
5.2074250448
 10
-15.5035810011
 20
5.1869535671
 10
-15.4950951477
 20
5.1664543981
 10
-15.4856852488
 20
5.1462788285
 10
-15.4753385753
 20
5.1264382185
 10
-15.4640678563
 20
5.1069212079
 10
-15.452056818
 20
5.0880450069
 10
-15.4392901819
 20
5.0698159312
 10
-15.4257832264
 20
5.052227665
 10
-15.4117655128
 20
5.0355784714
 10
-15.3972229211
 20
5.019882321
 10
-15.3821695713
 20
5.005125243
 10
-15.3668773847
 20
4.9915635885
 10
-15.3514370019
 20
4.9792828078
 10
-15.3357577824
 20
4.9681974507
 10
-15.3198397262
 20
4.958307517
  0
LINE
  5
272
100
AcDbEntity
  8
RACCORDO
100
AcDbLine
 62
7
  6
CONTINUOUS
 10
-15.5905504043
 20
-11.5461680897
 11
-15.5970744034
 21
-11.1954820156
  0
LINE
  5
273
100
AcDbEntity
  8
RACCORDO
100
AcDbLine
 62
7
  6
CONTINUOUS
 10
-15.5970744034
 20
-11.1954820156
 11
-15.6026826757
 21
-10.8811785543
  0
LINE
  5
274
100
AcDbEntity
  8
RACCORDO
100
AcDbLine
 62
7
  6
CONTINUOUS
 10
-15.6023636863
 20
5.4205922005
 11
-15.6026826757
 21
5.4481994567
  0
LINE
  5
275
100
AcDbEntity
  8
RACCORDO
100
AcDbLine
 62
7
  6
CONTINUOUS
 10
-15.5905504043
 20
8.2650318655
 11
-15.5905504043
 21
5.4073858899
  0
LINE
  5
276
100
AcDbEntity
  8
RACCORDO
100
AcDbLine
 62
7
  6
CONTINUOUS
 10
-15.5905504043
 20
-10.9220196392
 11
-15.5905504043
 21
-13.7796656147
  0
LINE
  5
277
100
AcDbEntity
  8
RACCORDO
100
AcDbLine
 62
253
  6
CONTINUOUS
 10
-15.5319717606
 20
8.1833769468
 11
-15.5319717606
 21
5.325730978
  0
LINE
  5
278
100
AcDbEntity
  8
RACCORDO
100
AcDbLine
 62
253
  6
CONTINUOUS
 10
-15.5319717606
 20
-11.0036745578
 11
-15.5319717606
 21
-13.8613205266
  0
LWPOLYLINE
  5
279
100
AcDbEntity
  8
RACCORDO
100
AcDbPolyline
 62
7
  6
CONTINUOUS
 90
13
 70
0
 10
-15.6026826757
 20
-10.8811785543
 10
-15.6023636865
 20
-10.8550136462
 10
-15.6005564631
 20
-10.8300395212
 10
-15.597261063
 20
-10.8062562138
 10
-15.592450751
 20
-10.783572394
 10
-15.5861523632
 20
-10.7620794527
 10
-15.5784463659
 20
-10.7420515367
 10
-15.5693148662
 20
-10.7235074863
 10
-15.5587759671
 20
-10.7064285874
 10
-15.5469642234
 20
-10.6910327125
 10
-15.5338634964
 20
-10.6773414998
 10
-15.5194901991
 20
-10.665333476
 10
-15.5061463592
 20
-10.6564068371
  0
LINE
  5
27A
100
AcDbEntity
  8
RACCORDO
100
AcDbLine
 62
7
  6
CONTINUOUS
 10
-15.5970744034
 20
5.7689792103
 11
-15.6026826757
 21
5.4481994567
  0
LINE
  5
27B
100
AcDbEntity
  8
RACCORDO
100
AcDbLine
 62
7
  6
CONTINUOUS
 10
-15.5905504043
 20
6.127199035
 11
-15.5970744034
 21
5.7689792103
  0
LWPOLYLINE
  5
27C
100
AcDbEntity
  8
RACCORDO
100
AcDbPolyline
 62
253
  6
CONTINUOUS
 90
15
 70
0
 10
-15.3198397262
 20
8.3058356518
 10
-15.3190650245
 20
8.3233516374
 10
-15.3167493982
 20
8.3415703607
 10
-15.3129182086
 20
8.360292221
 10
-15.3076134219
 20
8.3793121042
 10
-15.3008931497
 20
8.3984216268
 10
-15.292831014
 20
8.4174114192
 10
-15.2835153378
 20
8.4360734261
 10
-15.2730481797
 20
8.4542031795
 10
-15.2615442191
 20
8.4716020367
 10
-15.2491294918
 20
8.4880793685
 10
-15.2359400143
 20
8.5034546397
 10
-15.2221202988
 20
8.5175593826
 10
-15.2078217595
 20
8.5302390555
 10
-15.1932010532
 20
8.5413547337
  0
LINE
  5
27D
100
AcDbEntity
  8
RACCORDO
100
AcDbLine
 62
7
  6
CONTINUOUS
 10
-2.9066482192
 20
19.784886528
 11
-4.1938091505
 21
18.615524182
  0
LINE
  5
27E
100
AcDbEntity
  8
0
100
AcDbLine
 62
253
  6
CONTINUOUS
 10
-2.8040496992
 20
19.7777599004
 11
-4.126282673
 21
18.5765352402
  0
LWPOLYLINE
  5
27F
100
AcDbEntity
  8
RACCORDO
100
AcDbPolyline
 62
7
  6
CONTINUOUS
 90
3
 70
0
 10
-15.4515727717
 20
8.5607101713
 10
-15.4504349345
 20
8.5616456807
 10
-15.4364218188
 20
8.5709700933
  0
LWPOLYLINE
  5
280
100
AcDbEntity
  8
RACCORDO
100
AcDbPolyline
 62
7
  6
CONTINUOUS
 90
12
 70
0
 10
-15.4511325163
 20
8.5610509572
 10
-15.4727488552
 20
8.5443185232
 10
-15.4930665797
 20
8.5254085191
 10
-15.5118244881
 20
8.5044680992
 10
-15.5289028838
 20
8.4815396136
 10
-15.5442787693
 20
8.4564811037
 10
-15.5577945738
 20
8.4292616738
 10
-15.5691984791
 20
8.4000642478
 10
-15.5783225067
 20
8.3689786494
 10
-15.5850203372
 20
8.3360590089
 10
-15.5891442536
 20
8.3013809898
 10
-15.5905504043
 20
8.2650318655
  0
LINE
  5
281
100
AcDbEntity
  8
RACCORDO
100
AcDbLine
 62
7
  6
CONTINUOUS
 10
-15.4311335278
 20
8.5738282293
 11
-15.4511325163
 21
8.5610509572
  0
LINE
  5
282
100
AcDbEntity
  8
RACCORDO
100
AcDbLine
 62
253
  6
CONTINUOUS
 10
-15.1932010532
 20
8.5413547337
 11
-15.1784183693
 21
8.5507846255
  0
LINE
  5
283
100
AcDbEntity
  8
RACCORDO
100
AcDbLine
 62
7
  6
CONTINUOUS
 10
-15.4364218188
 20
8.5709700933
 11
-15.4341889468
 21
8.5722830449
  0
LINE
  5
284
100
AcDbEntity
  8
RACCORDO
100
AcDbLine
 62
7
  6
CONTINUOUS
 10
3.0669934633
 20
19.7022833266
 11
-1.5312574931
 21
17.0782002246
  0
LWPOLYLINE
  5
285
100
AcDbEntity
  8
RACCORDO
100
AcDbPolyline
 62
7
  6
CONTINUOUS
 90
7
 70
0
 10
3.0669934633
 20
19.7022833266
 10
3.0761112741
 20
19.7073513108
 10
3.0852160715
 20
19.7121402328
 10
3.0943078556
 20
19.7166500927
 10
3.1033866262
 20
19.7208808904
 10
3.1124523833
 20
19.7248326259
 10
3.1215051271
 20
19.7285052993
  0
LWPOLYLINE
  5
286
100
AcDbEntity
  8
RACCORDO
100
AcDbPolyline
 62
7
  6
CONTINUOUS
 90
21
 70
0
 10
4.4853207394
 20
19.7507489214
 10
4.5136952602
 20
19.7661842353
 10
4.5419297122
 20
19.7802399687
 10
4.5700240954
 20
19.7929161217
 10
4.5980284085
 20
19.8042301302
 10
4.6258926528
 20
19.8141645583
 10
4.6534668324
 20
19.8226670976
 10
4.6807359611
 20
19.8297278815
 10
4.7077150251
 20
19.8353567767
 10
4.7342989877
 20
19.8395310744
 10
4.7605039465
 20
19.8422454561
 10
4.786313804
 20
19.8435052405
 10
4.8115752303
 20
19.8433036741
 10
4.8362649836
 20
19.8416350733
 10
4.8604063057
 20
19.8385051217
 10
4.883915592
 20
19.8339241172
 10
4.9068113722
 20
19.8278797699
 10
4.9290751166
 20
19.8203843695
 10
4.9505676311
 20
19.8114850828
 10
4.9712644036
 20
19.8011847764
 10
4.9791749486
 20
19.796759476
  0
LINE
  5
287
100
AcDbEntity
  8
RACCORDO
100
AcDbLine
 62
7
  6
CONTINUOUS
 10
3.7507833823
 20
19.388415718
 11
3.7284361484
 21
19.3797376907
  0
LWPOLYLINE
  5
288
100
AcDbEntity
  8
RACCORDO
100
AcDbPolyline
 62
253
  6
CONTINUOUS
 90
22
 70
0
 10
-15.3198397262
 20
-10.8812158528
 10
-15.3357732763
 20
-10.8727176833
 10
-15.3514648055
 20
-10.8656931535
 10
-15.3669143137
 20
-10.8601422635
 10
-15.3822114143
 20
-10.8560462353
 10
-15.3972664939
 20
-10.8534238469
 10
-15.4118107124
 20
-10.8523314319
 10
-15.4258316098
 20
-10.8527992367
 10
-15.4393416461
 20
-10.8547970149
 10
-15.4521093607
 20
-10.8582903618
 10
-15.4641185498
 20
-10.8633033311
 10
-15.4753854172
 20
-10.8698118691
 10
-15.4857271139
 20
-10.8777094087
 10
-15.4951305301
 20
-10.8870211606
 10
-15.5036087757
 20
-10.8977219142
 10
-15.5110183306
 20
-10.90962947
 10
-15.517340035
 20
-10.9227711947
 10
-15.5225930488
 20
-10.9371197215
 10
-15.5266913322
 20
-10.9524107512
 10
-15.5296062054
 20
-10.9685561839
 10
-15.5313663482
 20
-10.9856441194
 10
-15.5319717606
 20
-11.0036745578
  0
LINE
  5
289
100
AcDbEntity
  8
RACCORDO
100
AcDbLine
 62
253
  6
CONTINUOUS
 10
-7.5416651332
 20
-15.3722363794
 11
-15.3198397262
 21
-10.8812158528
  0
LINE
  5
28A
100
AcDbEntity
  8
RACCORDO
100
AcDbLine
 62
7
  6
CONTINUOUS
 10
-7.4778967746
 20
-15.1720693244
 11
-15.255977932
 21
-10.6811027464
  0
LWPOLYLINE
  5
28B
100
AcDbEntity
  8
RACCORDO
100
AcDbPolyline
 62
7
  6
CONTINUOUS
 90
25
 70
0
 10
-7.4778967746
 20
-15.1720693244
 10
-7.4545924429
 20
-15.186412929
 10
-7.4315545583
 20
-15.2022798704
 10
-7.4087830925
 20
-15.2196701316
 10
-7.3861830338
 20
-15.2386709824
 10
-7.3638492801
 20
-15.2591950847
 10
-7.3420666435
 20
-15.2809804962
 10
-7.3208421061
 20
-15.3040432948
 10
-7.3001684758
 20
-15.3283672766
 10
-7.2803092965
 20
-15.3536420719
 10
-7.2612748746
 20
-15.3798797747
 10
-7.2430546293
 20
-15.4070681265
 10
-7.22588079
 20
-15.4348602387
 10
-7.2097666243
 20
-15.4632637492
 10
-7.1946985676
 20
-15.4922708419
 10
-7.1808686443
 20
-15.5215114735
 10
-7.1682925813
 20
-15.5509885601
 10
-7.1569543773
 20
-15.580699021
 10
-7.1469985354
 20
-15.6102638598
 10
-7.1384426605
 20
-15.6396811733
 10
-7.1312689375
 20
-15.6689527385
 10
-7.1255688336
 20
-15.6977051373
 10
-7.1213728239
 20
-15.7258138884
 10
-7.1186503323
 20
-15.7534034122
 10
-7.1174013015
 20
-15.7804736742
  0
LWPOLYLINE
  5
28C
100
AcDbEntity
  8
RACCORDO
100
AcDbPolyline
 62
7
  6
CONTINUOUS
 90
4
 70
0
 10
-18.9253688093
 20
-0.5658715016
 10
-18.9108913728
 20
-0.5846653287
 10
-18.8959058748
 20
-0.6016439954
 10
-18.8791302764
 20
-0.6181916743
  0
LWPOLYLINE
  5
28D
100
AcDbEntity
  8
RACCORDO
100
AcDbPolyline
 62
7
  6
CONTINUOUS
 90
22
 70
0
 10
-13.8988796882
 20
21.461928945
 10
-13.8985560142
 20
21.4492115984
 10
-13.8975797692
 20
21.4364678209
 10
-13.8959455179
 20
21.4237389489
 10
-13.8936519069
 20
21.4110707017
 10
-13.8906998224
 20
21.398501643
 10
-13.8870903361
 20
21.3860626992
 10
-13.8828294418
 20
21.373795451
 10
-13.8779269086
 20
21.3617422654
 10
-13.8723905732
 20
21.3499339259
 10
-13.866233489
 20
21.3384083992
 10
-13.8594737428
 20
21.3272064743
 10
-13.852127339
 20
21.3163597433
 10
-13.8442121462
 20
21.305899362
 10
-13.8357538481
 20
21.2958625477
 10
-13.8267803113
 20
21.2862833691
 10
-13.8173113843
 20
21.2771838133
 10
-13.8073780939
 20
21.2685943765
 10
-13.7970243853
 20
21.2605508212
 10
-13.7862691722
 20
21.2530650428
 10
-13.7751438717
 20
21.2461574085
 10
-12.4489010484
 20
20.4803965332
  0
LWPOLYLINE
  5
28E
100
AcDbEntity
  8
RACCORDO
100
AcDbPolyline
 62
253
  6
CONTINUOUS
 90
16
 70
0
 10
-13.8256563835
 20
21.3598602966
 10
-13.8254375123
 20
21.3498325405
 10
-13.8247809566
 20
21.340077045
 10
-13.8236876189
 20
21.3306184751
 10
-13.8221591691
 20
21.3214791711
 10
-13.8201988505
 20
21.3126841823
 10
-13.8178122674
 20
21.304260541
 10
-13.8150059347
 20
21.2962307008
 10
-13.8117864176
 20
21.2886129876
 10
-13.8081616484
 20
21.2814262085
 10
-13.8041405653
 20
21.2746881803
 10
-13.7997331922
 20
21.2684157855
 10
-13.7949505643
 20
21.2626247591
 10
-13.7898045914
 20
21.2573295192
 10
-13.7843080625
 20
21.2525432236
 10
-13.7784747192
 20
21.2482778251
  0
LINE
  5
28F
100
AcDbEntity
  8
RACCORDO
100
AcDbLine
 62
7
  6
CONTINUOUS
 10
-13.8988796882
 20
21.7824491178
 11
-13.8988796882
 21
21.461928945
  0
LINE
  5
290
100
AcDbEntity
  8
RACCORDO
100
AcDbLine
 62
253
  6
CONTINUOUS
 10
-13.8256563835
 20
21.6803804695
 11
-13.8256563835
 21
21.3598602966
  0
LINE
  5
291
100
AcDbEntity
  8
RACCORDO
100
AcDbLine
 62
7
  6
CONTINUOUS
 10
-13.1958867339
 20
20.6281681283
 11
-13.1958867339
 21
20.911696706
  0
LINE
  5
292
100
AcDbEntity
  8
RACCORDO
100
AcDbLine
 62
253
  6
CONTINUOUS
 10
-13.1226634292
 20
20.4712780796
 11
-13.1226634292
 21
20.8694184876
  0
LWPOLYLINE
  5
293
100
AcDbEntity
  8
RACCORDO
100
AcDbPolyline
 62
253
  6
CONTINUOUS
 90
28
 70
0
 10
-13.8256563835
 20
21.6803804695
 10
-13.825359319
 20
21.6923803841
 10
-13.8244691199
 20
21.7046830517
 10
-13.8229887723
 20
21.7172471267
 10
-13.8209232418
 20
21.7300304061
 10
-13.8182794669
 20
21.7429899065
 10
-13.8150663455
 20
21.7560820056
 10
-13.8112946858
 20
21.769262681
 10
-13.8069771629
 20
21.7824876517
 10
-13.8021282943
 20
21.7957124598
 10
-13.7967643717
 20
21.8088926788
 10
-13.7909034341
 20
21.8219839902
 10
-13.7845652195
 20
21.8349423246
 10
-13.7777710801
 20
21.8477240642
 10
-13.7705438262
 20
21.8602863298
 10
-13.7629076694
 20
21.8725870443
 10
-13.7548881035
 20
21.8845851046
 10
-13.7465122282
 20
21.8962399325
 10
-13.7378086288
 20
21.9075118062
 10
-13.728806892
 20
21.9183625599
 10
-13.7195370291
 20
21.9287561635
 10
-13.7100297684
 20
21.9386582159
 10
-13.7003141565
 20
21.9480381358
 10
-13.6904256284
 20
21.956861391
 10
-13.6804058852
 20
21.965091665
 10
-13.6702917074
 20
21.9727007995
 10
-13.6601144013
 20
21.9796672718
 10
-13.6499081275
 20
21.9859694247
  0
LWPOLYLINE
  5
294
100
AcDbEntity
  8
RACCORDO
100
AcDbPolyline
 62
253
  6
CONTINUOUS
 90
28
 70
0
 10
-12.5006717037
 20
20.9153509213
 10
-12.5003746391
 20
20.9273508359
 10
-12.49948444
 20
20.9396535035
 10
-12.4980040925
 20
20.9522175785
 10
-12.495938562
 20
20.965000858
 10
-12.4932947871
 20
20.9779603583
 10
-12.4900816657
 20
20.9910524574
 10
-12.4863100059
 20
21.0042331329
 10
-12.4819924831
 20
21.0174581036
 10
-12.4771436145
 20
21.0306829117
 10
-12.4717796919
 20
21.0438631307
 10
-12.4659187543
 20
21.056954442
 10
-12.4595805397
 20
21.0699127764
 10
-12.4527864003
 20
21.0826945161
 10
-12.4455591464
 20
21.0952567816
 10
-12.4379229896
 20
21.1075574961
 10
-12.4299034237
 20
21.1195555565
 10
-12.4215275484
 20
21.1312103843
 10
-12.4128239489
 20
21.1424822581
 10
-12.4038222121
 20
21.1533330117
 10
-12.3945523493
 20
21.1637266153
 10
-12.3850450886
 20
21.1736286677
 10
-12.3753294767
 20
21.1830085876
 10
-12.3654409486
 20
21.1918318428
 10
-12.3554212054
 20
21.2000621168
 10
-12.3453070275
 20
21.2076712514
 10
-12.3351297215
 20
21.2146377237
 10
-12.3249234477
 20
21.2209398765
  0
LWPOLYLINE
  5
295
100
AcDbEntity
  8
RACCORDO
100
AcDbPolyline
 62
253
  6
CONTINUOUS
 90
9
 70
0
 10
-15.3198397262
 20
-10.8812158528
 10
-15.3190650245
 20
-10.8636998673
 10
-15.3167493982
 20
-10.8454811439
 10
-15.3129182086
 20
-10.8267592836
 10
-15.3076134219
 20
-10.8077394005
 10
-15.3008931497
 20
-10.7886298778
 10
-15.292831014
 20
-10.7696400854
 10
-15.2835153378
 20
-10.7509780786
 10
-15.2730481797
 20
-10.7328483251
  0
LINE
  5
296
100
AcDbEntity
  8
RACCORDO
100
AcDbLine
 62
7
  6
CONTINUOUS
 10
-1.6019681712
 20
15.1641701949
 11
-1.9596473205
 21
14.9385206621
  0
LINE
  5
297
100
AcDbEntity
  8
RACCORDO
100
AcDbLine
 62
7
  6
CONTINUOUS
 10
-1.9596473205
 20
16.1007093553
 11
3.672523898
 21
19.3526576427
  0
LINE
  5
298
100
AcDbEntity
  8
RACCORDO
100
AcDbLine
 62
7
  6
CONTINUOUS
 10
-1.6019681712
 20
15.1641701949
 11
3.7284361484
 21
18.2238729365
  0
LINE
  5
299
100
AcDbEntity
  8
RACCORDO
100
AcDbLine
 62
7
  6
CONTINUOUS
 10
4.4853207394
 20
19.7507489214
 11
3.8497285481
 21
19.3901705606
  0
LINE
  5
29A
100
AcDbEntity
  8
RACCORDO
100
AcDbLine
 62
7
  6
CONTINUOUS
 10
-15.4341889468
 20
8.5722830449
 11
-15.4168899859
 21
8.5810314635
  0
LWPOLYLINE
  5
29B
100
AcDbEntity
  8
RACCORDO
100
AcDbPolyline
 62
7
  6
CONTINUOUS
 90
12
 70
0
 10
-15.4168899859
 20
8.5810314635
 10
-15.398551679
 20
8.5879147
 10
-15.3794079972
 20
8.5928440895
 10
-15.3594486882
 20
8.5957944059
 10
-15.3386842789
 20
8.5967907255
 10
-15.3173799265
 20
8.5958198284
 10
-15.2955287326
 20
8.5928562967
 10
-15.2731378059
 20
8.5879254335
 10
-15.2504933067
 20
8.5810901035
 10
-15.2276906614
 20
8.5723712398
 10
-15.2046345575
 20
8.561747847
 10
-15.1813250235
 20
8.5492199098
  0
LWPOLYLINE
  5
29C
100
AcDbEntity
  8
RACCORDO
100
AcDbPolyline
 62
253
  6
CONTINUOUS
 90
3
 70
0
 10
-7.1568256369
 20
-15.7720607613
 10
-7.1363486255
 20
-15.7695477163
 10
-7.1180637038
 20
-15.766117421
  0
LWPOLYLINE
  5
29D
100
AcDbEntity
  8
RACCORDO
100
AcDbPolyline
 62
253
  6
CONTINUOUS
 90
28
 70
0
 10
1.2161684204
 20
-26.0585369331
 10
1.210720397
 20
-26.0510593957
 10
1.204697611
 20
-26.0432590614
 10
1.1981197361
 20
-26.0351618522
 10
1.1910074921
 20
-26.0267937465
 10
1.1833850378
 20
-26.0181836067
 10
1.1752804727
 20
-26.009363348
 10
1.1667222437
 20
-26.0003638697
 10
1.1577382045
 20
-25.9912144045
 10
1.1483583385
 20
-25.9819455014
 10
1.1386140239
 20
-25.9725882021
 10
1.1285382812
 20
-25.963174249
 10
1.1181653935
 20
-25.9537356854
 10
1.1075304647
 20
-25.944304449
 10
1.0966692395
 20
-25.9349122346
 10
1.0856183137
 20
-25.9255906894
 10
1.0744149314
 20
-25.9163712315
 10
1.0630968914
 20
-25.9072849686
 10
1.0517023903
 20
-25.8983625665
 10
1.040269841
 20
-25.8896341042
 10
1.0288378087
 20
-25.8811290258
 10
1.0174449115
 20
-25.8728760601
 10
1.0061296115
 20
-25.8649030635
 10
0.9949300192
 20
-25.8572368842
 10
0.9838838337
 20
-25.8499033255
 10
0.9730282829
 20
-25.8429271036
 10
0.9623999946
 20
-25.8363317577
 10
0.9520348084
 20
-25.830139528
  0
LWPOLYLINE
  5
29E
100
AcDbEntity
  8
RACCORDO
100
AcDbPolyline
 62
7
  6
CONTINUOUS
 90
3
 70
0
 10
-15.5972610639
 20
5.3638454598
 10
-15.6005564632
 20
5.3924742121
 10
-15.6023636863
 20
5.4205922005
  0
LWPOLYLINE
  5
29F
100
AcDbEntity
  8
RACCORDO
100
AcDbPolyline
 62
253
  6
CONTINUOUS
 90
31
 70
0
 10
-12.148149744
 20
20.9147588406
 10
-12.1484447209
 20
20.92555091
 10
-12.1492205741
 20
20.9365947741
 10
-12.1504751772
 20
20.9478601637
 10
-12.1522050915
 20
20.9593162027
 10
-12.1544055757
 20
20.9709314921
 10
-12.1570705986
 20
20.9826741966
 10
-12.1601928559
 20
20.9945121317
 10
-12.1637637901
 20
21.0064128517
 10
-12.1677736139
 20
21.0183437391
 10
-12.1722113372
 20
21.0302720935
 10
-12.1770647969
 20
21.0421652216
 10
-12.1823206908
 20
21.0539905265
 10
-12.1879646132
 20
21.0657155972
 10
-12.1939810954
 20
21.0773082976
 10
-12.2003536473
 20
21.0887368542
 10
-12.2070648028
 20
21.0999699435
 10
-12.2140961681
 20
21.1109767778
 10
-12.2214284713
 20
21.1217271893
 10
-12.2290416161
 20
21.1321917131
 10
-12.2369147363
 20
21.1423416681
 10
-12.245026253
 20
21.152149235
 10
-12.2533539342
 20
21.1615875331
 10
-12.2618749553
 20
21.170630694
 10
-12.2705659617
 20
21.1792539318
 10
-12.2794031331
 20
21.1874336121
 10
-12.2883622483
 20
21.1951473157
 10
-12.2974187521
 20
21.202373901
 10
-12.3065478224
 20
21.2090935611
 10
-12.315724438
 20
21.2152878788
 10
-12.3249234477
 20
21.2209398765
  0
LWPOLYLINE
  5
2A0
100
AcDbEntity
  8
RACCORDO
100
AcDbPolyline
 62
253
  6
CONTINUOUS
 90
17
 70
0
 10
-12.5006717037
 20
20.5948307485
 10
-12.5004528325
 20
20.5848029923
 10
-12.4997962768
 20
20.5750474968
 10
-12.4987029391
 20
20.5655889269
 10
-12.4971744893
 20
20.5564496229
 10
-12.4952141707
 20
20.5476546341
 10
-12.4928275876
 20
20.5392309928
 10
-12.4900212548
 20
20.5312011526
 10
-12.4868017378
 20
20.5235834394
 10
-12.4831769686
 20
20.5163966604
 10
-12.4791558855
 20
20.5096586321
 10
-12.4747485124
 20
20.5033862374
 10
-12.4699658845
 20
20.4975952109
 10
-12.4648199116
 20
20.492299971
 10
-12.4593233827
 20
20.4875136755
 10
-12.4534900394
 20
20.4832482769
 10
-12.4489010713
 20
20.4803965464
  0
LINE
  5
2A1
100
AcDbEntity
  8
RACCORDO
100
AcDbLine
 62
253
  6
CONTINUOUS
 10
-12.5006717037
 20
20.5948307485
 11
-12.5006717037
 21
20.9153509213
  0
LINE
  5
2A2
100
AcDbEntity
  8
RACCORDO
100
AcDbLine
 62
253
  6
CONTINUOUS
 10
-12.148149744
 20
20.5942386678
 11
-12.148149744
 21
20.9147588406
  0
LINE
  5
2A3
100
AcDbEntity
  8
RACCORDO
100
AcDbLine
 62
253
  6
CONTINUOUS
 10
-11.7894510956
 20
20.3966295555
 11
-11.7894510956
 21
19.7572872852
  0
LINE
  5
2A4
100
AcDbEntity
  8
RACCORDO
100
AcDbLine
 62
253
  6
CONTINUOUS
 10
-11.4369291359
 20
20.5287486549
 11
-11.4369291359
 21
19.7673303188
  0
LWPOLYLINE
  5
2A5
100
AcDbEntity
  8
RACCORDO
100
AcDbPolyline
 62
7
  6
CONTINUOUS
 90
5
 70
0
 10
-8.3176235097
 20
19.5267687708
 10
-8.319660053
 20
19.5163361089
 10
-8.3211744119
 20
19.5052426288
 10
-8.3221307956
 20
19.4935747467
 10
-8.3224627818
 20
19.4808112089
  0
LWPOLYLINE
  5
2A6
100
AcDbEntity
  8
RACCORDO
100
AcDbPolyline
 62
7
  6
CONTINUOUS
 90
25
 70
0
 10
-0.5271989882
 20
23.480289754
 10
-0.5163991235
 20
23.5002070699
 10
-0.5043288065
 20
23.5203907554
 10
-0.4909719996
 20
23.5408225154
 10
-0.4762893422
 20
23.5615996142
 10
-0.4602852666
 20
23.5825795752
 10
-0.4430138429
 20
23.6034283148
 10
-0.4244380619
 20
23.6241698848
 10
-0.4045750934
 20
23.6448363974
 10
-0.3835748413
 20
23.6651837116
 10
-0.361417349
 20
23.685269812
 10
-0.3381294689
 20
23.7051575235
 10
-0.3139475407
 20
23.7246634452
 10
-0.288911772
 20
23.7438287668
 10
-0.2630126836
 20
23.7627589683
 10
-0.236422641
 20
23.7813904582
 10
-0.209160371
 20
23.7997814839
 10
-0.1812452137
 20
23.8180007764
 10
-0.1528531891
 20
23.8360008862
 10
-0.1239790354
 20
23.8538348001
 10
-0.0946600899
 20
23.8715384498
 10
-0.0651338043
 20
23.8890289563
 10
-0.035485032
 20
23.9062929002
 10
-0.0056463259
 20
23.923387568
 10
0.0243774255
 20
23.9403249567
  0
LWPOLYLINE
  5
2A7
100
AcDbEntity
  8
RACCORDO
100
AcDbPolyline
 62
7
  6
CONTINUOUS
 90
19
 70
0
 10
-0.4117427224
 20
14.2812916033
 10
-0.4236392088
 20
14.2738028836
 10
-0.435173432
 20
14.2655989025
 10
-0.4462911649
 20
14.2566990772
 10
-0.4569443064
 20
14.2471233151
 10
-0.4670762954
 20
14.2369053106
 10
-0.4766264372
 20
14.2260938908
 10
-0.4855455727
 20
14.2147381927
 10
-0.4938029547
 20
14.2028731315
 10
-0.5013729478
 20
14.1905294063
 10
-0.5082176559
 20
14.1777639791
 10
-0.5143150824
 20
14.16461539
 10
-0.5196603143
 20
14.1510802348
 10
-0.5242355979
 20
14.1371672355
 10
-0.5279994353
 20
14.1229625831
 10
-0.5309204979
 20
14.1085711357
 10
-0.5329916001
 20
14.094032451
 10
-0.5342054711
 20
14.0793972028
 10
-0.5345615238
 20
14.0660610603
  0
LINE
  5
2A8
100
AcDbEntity
  8
RACCORDO
100
AcDbLine
 62
7
  6
CONTINUOUS
 10
1.1714373466
 20
15.2167958902
 11
-0.4117427224
 21
14.2812916033
  0
LINE
  5
2A9
100
AcDbEntity
  8
RACCORDO
100
AcDbLine
 62
253
  6
CONTINUOUS
 10
1.2971666401
 20
15.2048336709
 11
-0.2855899631
 21
14.2695796108
  0
LINE
  5
2AA
100
AcDbEntity
  8
RACCORDO
100
AcDbLine
 62
7
  6
CONTINUOUS
 10
1.1728915757
 20
15.2176355436
 11
1.1714373326
 21
15.2167958819
  0
LINE
  5
2AB
100
AcDbEntity
  8
RACCORDO
100
AcDbLine
 62
253
  6
CONTINUOUS
 10
-15.5905504043
 20
5.4552045105
 11
-15.6026826757
 21
5.4481994567
  0
LINE
  5
2AC
100
AcDbEntity
  8
RACCORDO
100
AcDbLine
 62
253
  6
CONTINUOUS
 10
-15.2369543444
 20
4.8428165461
 11
-15.255977932
 21
4.8318325126
  0
LINE
  5
2AD
100
AcDbEntity
  8
RACCORDO
100
AcDbLine
 62
253
  6
CONTINUOUS
 10
3.1689426793
 20
14.7341236781
 11
1.0393947167
 21
13.5045500626
  0
LINE
  5
2AE
100
AcDbEntity
  8
RACCORDO
100
AcDbLine
 62
253
  6
CONTINUOUS
 10
3.345716383
 20
14.4279426422
 11
1.2161684204
 21
13.1983690267
  0
LINE
  5
2AF
100
AcDbEntity
  8
RACCORDO
100
AcDbLine
 62
7
  6
CONTINUOUS
 10
1.7077698911
 20
15.5193225666
 11
1.1728915896
 21
15.2176355519
  0
LINE
  5
2B0
100
AcDbEntity
  8
RACCORDO
100
AcDbLine
 62
253
  6
CONTINUOUS
 10
1.8316165187
 20
15.5062790426
 11
1.2971666401
 21
15.2048336709
  0
LINE
  5
2B1
100
AcDbEntity
  8
RACCORDO
100
AcDbLine
 62
7
  6
CONTINUOUS
 10
7.5522866834
 20
17.9799212235
 11
2.5352512561
 21
15.1833872174
  0
LINE
  5
2B2
100
AcDbEntity
  8
RACCORDO
100
AcDbLine
 62
7
  6
CONTINUOUS
 10
12.7546531234
 20
20.8144062626
 11
10.0995267507
 21
19.3649396427
  0
LINE
  5
2B3
100
AcDbEntity
  8
DRAFT
100
AcDbLine
 62
7
  6
CONTINUOUS
 10
3.878109383
 20
-16.7092278637
 11
2.7820938722
 21
-16.0764022441
  0
LWPOLYLINE
  5
2B4
100
AcDbEntity
  8
RACCORDO
100
AcDbPolyline
 62
7
  6
CONTINUOUS
 90
4
 70
0
 10
-18.8791302764
 20
-0.6181916743
 10
-18.8608258398
 20
-0.6337089173
 10
-18.8425249393
 20
-0.6468496252
 10
-18.8304284424
 20
-0.6543103063
  0
LWPOLYLINE
  5
2B5
100
AcDbEntity
  8
RACCORDO
100
AcDbPolyline
 62
7
  6
CONTINUOUS
 90
19
 70
0
 10
-9.9464039245
 20
22.2458055691
 10
-9.946803538
 20
22.2599351274
 10
-9.9480117899
 20
22.2741136209
 10
-9.9500391241
 20
22.288283624
 10
-9.9528921036
 20
22.3023917248
 10
-9.9565699998
 20
22.3163724767
 10
-9.9610620101
 20
22.3301511876
 10
-9.966350659
 20
22.3436600271
 10
-9.972421023
 20
22.3568535755
 10
-9.9792602412
 20
22.36969512
 10
-9.9868379989
 20
22.3821218292
 10
-9.9951319606
 20
22.394094464
 10
-10.0041489023
 20
22.4056117218
 10
-10.0138908033
 20
22.4166533386
 10
-10.0243030988
 20
22.427137601
 10
-10.0353099822
 20
22.4369828214
 10
-10.0468794743
 20
22.4461613491
 10
-10.0589709018
 20
22.4546408254
 10
-10.0713977357
 20
22.4623083469
  0
LWPOLYLINE
  5
2B6
100
AcDbEntity
  8
RACCORDO
100
AcDbPolyline
 62
7
  6
CONTINUOUS
 90
34
 70
0
 10
-10.5468689532
 20
21.8393172669
 10
-10.5470690092
 20
21.84914511
 10
-10.5476692467
 20
21.8591817865
 10
-10.5486682047
 20
21.8694046222
 10
-10.5500634402
 20
21.8797905671
 10
-10.5518517885
 20
21.8903160989
 10
-10.5540293698
 20
21.9009572756
 10
-10.5565911943
 20
21.9116900278
 10
-10.5595313686
 20
21.9224900965
 10
-10.5628433636
 20
21.9333329384
 10
-10.5665196407
 20
21.9441940142
 10
-10.5705518009
 20
21.9550487624
 10
-10.5749307983
 20
21.9658725388
 10
-10.5796466988
 20
21.9766408338
 10
-10.5846887688
 20
21.9873292838
 10
-10.5900456295
 20
21.9979136458
 10
-10.5957051537
 20
22.0083699392
 10
-10.6016544916
 20
22.0186744947
 10
-10.6078801634
 20
22.0288039647
 10
-10.6143680959
 20
22.0387353862
 10
-10.6211035848
 20
22.0484462665
 10
-10.628071324
 20
22.0579146293
 10
-10.635255581
 20
22.0671189969
 10
-10.6426400967
 20
22.0760385113
 10
-10.650208051
 20
22.0846530157
 10
-10.6579423726
 20
22.0929429552
 10
-10.6658255785
 20
22.1008895309
 10
-10.673839678
 20
22.1084748164
 10
-10.6819666083
 20
22.1156815775
 10
-10.6901880194
 20
22.1224934573
 10
-10.6984851161
 20
22.1288951243
 10
-10.7068391095
 20
22.1348720756
 10
-10.7152312586
 20
22.1404106695
 10
-10.7236426569
 20
22.1454983028
  0
LWPOLYLINE
  5
2B7
100
AcDbEntity
  8
RACCORDO
100
AcDbPolyline
 62
253
  6
CONTINUOUS
 90
31
 70
0
 10
-10.0186017815
 20
22.1443324561
 10
-10.0187909022
 20
22.1551588835
 10
-10.0194650855
 20
22.1662396019
 10
-10.0206234015
 20
22.1775447851
 10
-10.022263983
 20
22.1890463208
 10
-10.0243830451
 20
22.200710681
 10
-10.0269738966
 20
22.2124987137
 10
-10.0300287139
 20
22.2243754873
 10
-10.033539636
 20
22.2363110035
 10
-10.0374971536
 20
22.2482728754
 10
-10.0418905419
 20
22.2602285399
 10
-10.0467077182
 20
22.2721449839
 10
-10.0519353449
 20
22.2839891738
 10
-10.0575590098
 20
22.2957284832
 10
-10.0635633551
 20
22.3073308785
 10
-10.0699319712
 20
22.3187646467
 10
-10.0766474309
 20
22.3299984807
 10
-10.0836913011
 20
22.3410015258
 10
-10.0910442441
 20
22.3517435662
 10
-10.0986860908
 20
22.3621951335
 10
-10.1065958974
 20
22.3723275803
 10
-10.1147519736
 20
22.3821131174
 10
-10.123131958
 20
22.3915249127
 10
-10.1317128719
 20
22.4005371547
 10
-10.1404711788
 20
22.4091251214
 10
-10.149382869
 20
22.4172652684
 10
-10.1584235009
 20
22.424935268
 10
-10.1675682585
 20
22.4321140677
 10
-10.1767920568
 20
22.4387819798
 10
-10.1860696122
 20
22.4449207309
 10
-10.1953754851
 20
22.450513492
  0
LINE
  5
2B8
100
AcDbEntity
  8
RACCORDO
100
AcDbLine
 62
7
  6
CONTINUOUS
 10
-10.5468689532
 20
20.3288438005
 11
-10.5468689532
 21
21.8393172669
  0
LINE
  5
2B9
100
AcDbEntity
  8
RACCORDO
100
AcDbLine
 62
253
  6
CONTINUOUS
 10
-10.0186017815
 20
22.1443324561
 11
-10.0186017815
 21
21.8166871556
  0
LINE
  5
2BA
100
AcDbEntity
  8
RACCORDO
100
AcDbLine
 62
7
  6
CONTINUOUS
 10
-9.9464039245
 20
22.2458055691
 11
-9.9464039245
 21
21.9181602686
  0
LWPOLYLINE
  5
2BB
100
AcDbEntity
  8
RACCORDO
100
AcDbPolyline
 62
253
  6
CONTINUOUS
 90
15
 70
0
 10
-9.9464039245
 20
22.2458055691
 10
-9.9464888896
 20
22.2420425548
 10
-9.9472861271
 20
22.2336897425
 10
-9.9489200696
 20
22.2253776234
 10
-9.9513852294
 20
22.2171341151
 10
-9.9546733268
 20
22.2089869048
 10
-9.958773318
 20
22.2009633563
 10
-9.9636714327
 20
22.1930904181
 10
-9.9693512196
 20
22.1853945329
 10
-9.9757936022
 20
22.1779015486
 10
-9.9829769427
 20
22.1706366316
 10
-9.9908771144
 20
22.1636241825
 10
-9.9994675835
 20
22.1568877537
 10
-10.0087194972
 20
22.1504499708
 10
-10.0186017815
 20
22.1443324561
  0
LWPOLYLINE
  5
2BC
100
AcDbEntity
  8
RACCORDO
100
AcDbPolyline
 62
253
  6
CONTINUOUS
 90
15
 70
0
 10
-9.9464039245
 20
21.9181602686
 10
-9.9464896757
 20
21.9143798907
 10
-9.9472888341
 20
21.9060259008
 10
-9.9489249597
 20
21.8977125823
 10
-9.9513925514
 20
21.8894679625
 10
-9.9546832004
 20
21.88132
 10
-9.9587856774
 20
21.8732962271
 10
-9.9636861857
 20
21.865423409
 10
-9.9693683837
 20
21.8577277308
 10
-9.9758140544
 20
21.8502341011
 10
-9.9830008672
 20
21.8429686899
 10
-9.9909017862
 20
21.835958316
 10
-9.9994885039
 20
21.8292270085
 10
-10.0087323898
 20
21.8227962112
 10
-10.0186017815
 20
21.8166871556
  0
LWPOLYLINE
  5
2BD
100
AcDbEntity
  8
RACCORDO
100
AcDbPolyline
 62
253
  6
CONTINUOUS
 90
22
 70
0
 10
-2.6922322811
 20
9.1530884189
 10
-2.7674430233
 20
9.1031358436
 10
-2.8419894372
 20
9.0475329516
 10
-2.9155069977
 20
8.9865586536
 10
-2.9876365839
 20
8.9205241436
 10
-3.0580256946
 20
8.8497542753
 10
-3.1263292015
 20
8.7745835395
 10
-3.1922211857
 20
8.6953735216
 10
-3.2553693355
 20
8.6125279531
 10
-3.3154378232
 20
8.526475004
 10
-3.3721224975
 20
8.437662579
 10
-3.425161658
 20
8.3465157703
 10
-3.4743063911
 20
8.2534487073
 10
-3.519322845
 20
8.1589015733
 10
-3.5599783018
 20
8.0633631718
 10
-3.5960551106
 20
7.9673300737
 10
-3.6273728879
 20
7.871292946
 10
-3.6537865643
 20
7.7757136858
 10
-3.6751673797
 20
7.681046241
 10
-3.6914089023
 20
7.5877535048
 10
-3.702430502
 20
7.4963045615
 10
-3.7081770016
 20
7.4071528436
  0
LINE
  5
2BE
100
AcDbEntity
  8
RACCORDO
100
AcDbLine
 62
7
  6
CONTINUOUS
 10
2.8174492112
 20
12.6124539866
 11
2.0288885943
 21
12.1149736745
  0
LWPOLYLINE
  5
2BF
100
AcDbEntity
  8
RACCORDO
100
AcDbPolyline
 62
7
  6
CONTINUOUS
 90
16
 70
0
 10
-18.835871558
 20
-0.7853405284
 10
-18.8418431213
 20
-0.7890890637
 10
-18.8592115567
 20
-0.8013671543
 10
-18.8768256865
 20
-0.8160095587
 10
-18.8932996242
 20
-0.8319023822
 10
-18.9082937067
 20
-0.8484991783
 10
-18.9228016255
 20
-0.8668819175
 10
-18.9368579018
 20
-0.8874223342
 10
-18.9497556975
 20
-0.9093672447
 10
-18.9615688179
 20
-0.9330464738
 10
-18.9720733036
 20
-0.958354669
 10
-18.9809688644
 20
-0.9849055655
 10
-18.9881618713
 20
-1.0128693223
 10
-18.9934260741
 20
-1.0421668568
 10
-18.9965128807
 20
-1.0723519955
 10
-18.997347634
 20
-1.0995218527
  0
LINE
  5
2C0
100
AcDbEntity
  8
RACCORDO
100
AcDbLine
 62
7
  6
CONTINUOUS
 10
8.4338221419
 20
17.2695662113
 11
3.4152517592
 21
14.1660070064
  0
LINE
  5
2C1
100
AcDbEntity
  8
RACCORDO
100
AcDbLine
 62
253
  6
CONTINUOUS
 10
2.8265727971
 20
12.6071861425
 11
2.0288885943
 21
12.1149736745
  0
LINE
  5
2C2
100
AcDbEntity
  8
RACCORDO
100
AcDbLine
 62
253
  6
CONTINUOUS
 10
1.7393804946
 20
11.8876230307
 11
-2.6922322811
 21
9.1530884189
  0
LINE
  5
2C3
100
AcDbEntity
  8
RACCORDO
100
AcDbLine
 62
253
  6
CONTINUOUS
 10
3.1601385829
 20
12.0324388374
 11
2.084132347
 21
11.3684872596
  0
LINE
  5
2C4
100
AcDbEntity
  8
RACCORDO
100
AcDbLine
 62
253
  6
CONTINUOUS
 10
2.0926647605
 20
11.275219134
 11
-2.3263995411
 21
8.5484275806
  0
LINE
  5
2C5
100
AcDbEntity
  8
RACCORDO
100
AcDbLine
 62
7
  6
CONTINUOUS
 10
8.4338221419
 20
16.8006941368
 11
2.8547554298
 21
13.4077410233
  0
LINE
  5
2C6
100
AcDbEntity
  8
RACCORDO
100
AcDbLine
 62
7
  6
CONTINUOUS
 10
-18.8359343109
 20
-0.7853858897
 11
-18.7226867852
 21
-0.7165135201
  0
LINE
  5
2C7
100
AcDbEntity
  8
RACCORDO
100
AcDbLine
 62
253
  6
CONTINUOUS
 10
-18.7796873881
 20
-0.8573127013
 11
-18.6331635774
 21
-0.7682030983
  0
LWPOLYLINE
  5
2C8
100
AcDbEntity
  8
RACCORDO
100
AcDbPolyline
 62
7
  6
CONTINUOUS
 90
20
 70
0
 10
1.9273890285
 20
12.0509381066
 10
1.9175009047
 20
12.0450217777
 10
1.9071255877
 20
12.0394169507
 10
1.8962934999
 20
12.0341384142
 10
1.8850311556
 20
12.0292074376
 10
1.873376484
 20
12.0246297068
 10
1.8613804501
 20
12.0203936159
 10
1.8490773822
 20
12.0165134278
 10
1.836506577
 20
12.0129920109
 10
1.8237304971
 20
12.0097951373
 10
1.8107904261
 20
12.006929196
 10
1.7977234924
 20
12.0043927452
 10
1.7845879086
 20
12.0021339016
 10
1.771424805
 20
12.0001504725
 10
1.7582698517
 20
11.9984386245
 10
1.7451726278
 20
11.9969393236
 10
1.7321713402
 20
11.9956435702
 10
1.7192983703
 20
11.9945454179
 10
1.7065926445
 20
11.9935872384
 10
1.6941003507
 20
11.9927578917
  0
LINE
  5
2C9
100
AcDbEntity
  8
ASSI
100
AcDbLine
 62
7
  6
CONTINUOUS
 10
12.7522994869
 20
19.2472593861
 11
13.8129596587
 21
19.8703591183
  0
LINE
  5
2CA
100
AcDbEntity
  8
RACCORDO
100
AcDbLine
 62
7
  6
CONTINUOUS
 10
10.4895577871
 20
18.3597036681
 11
13.8087186539
 21
20.2761455537
  0
LINE
  5
2CB
100
AcDbEntity
  8
ASSI
100
AcDbLine
 62
7
  6
CONTINUOUS
 10
12.7522994869
 20
19.2472593861
 11
10.4895577871
 21
17.9635814176
  0
LINE
  5
2CC
100
AcDbEntity
  8
DRAFT
100
AcDbLine
 62
7
  6
CONTINUOUS
 10
3.3174863882
 20
13.133162746
 11
9.2363515576
 21
16.4802569268
  0
LWPOLYLINE
  5
2CD
100
AcDbEntity
  8
0
100
AcDbPolyline
 62
7
  6
CONTINUOUS
 90
90
 70
0
 10
13.6142530158
 20
17.3126497341
 10
13.59402689
 20
17.301360345
 10
13.5736422877
 20
17.2901267318
 10
13.553085537
 20
17.278939963
 10
13.5323703097
 20
17.2678089702
 10
13.5115376207
 20
17.2567605482
 10
13.49058946
 20
17.2457964044
 10
13.4695238376
 20
17.2349148314
 10
13.4483757978
 20
17.2241375018
 10
13.4271920952
 20
17.213486677
 10
13.4059259752
 20
17.2029400957
 10
13.3844722188
 20
17.1924526469
 10
13.3629114263
 20
17.1820568466
 10
13.3411629974
 20
17.1717201788
 10
13.3188799123
 20
17.161299984
 10
13.2960748208
 20
17.1507907826
 10
13.272735073
 20
17.1401980542
 10
13.2484756998
 20
17.1293955778
 10
13.2233041355
 20
17.1183721504
 10
13.1972129457
 20
17.1071389751
 10
13.1697948574
 20
17.0956034393
 10
13.1410488533
 20
17.0837470973
 10
13.1109759507
 20
17.071588395
 10
13.0791719286
 20
17.0590900575
 10
13.0456234391
 20
17.0462261112
 10
13.0103438301
 20
17.0330225297
 10
12.9729689241
 20
17.0195199597
 10
12.9333542916
 20
17.0056544758
 10
12.8916443621
 20
16.9914900034
 10
12.8479082457
 20
16.977258965
 10
12.8017962822
 20
16.9628776312
 10
12.7536581319
 20
16.9484297315
 10
12.7046118855
 20
16.9343988771
 10
12.6549042487
 20
16.9208936229
 10
12.6042885158
 20
16.9078054141
 10
12.5531426608
 20
16.8952921963
 10
12.5014836402
 20
16.8833763474
 10
12.4492944976
 20
16.8720354896
 10
12.3969023368
 20
16.8613604363
 10
12.3443388833
 20
16.8513705795
 10
12.2915724116
 20
16.8420465272
 10
12.2388348497
 20
16.8334209161
 10
12.186142712
 20
16.8255047723
 10
12.133479484
 20
16.8182870697
 10
12.08102755
 20
16.8117673672
 10
12.0288358147
 20
16.8059541792
 10
11.9768553733
 20
16.8008389914
 10
11.9251218968
 20
16.7963958194
 10
11.8736513832
 20
16.7926240558
 10
11.8224278345
 20
16.789524308
 10
11.7714389267
 20
16.787072415
 10
11.7206539202
 20
16.7852661692
 10
11.6701035547
 20
16.7841077781
 10
11.6198677257
 20
16.7835797033
 10
11.5699475349
 20
16.7836838107
 10
11.5203418806
 20
16.7844182343
 10
11.4711273542
 20
16.7857598377
 10
11.4223237659
 20
16.7877082748
 10
11.3739113054
 20
16.7902638916
 10
11.3259071327
 20
16.7934045893
 10
11.2783150847
 20
16.7971288412
 10
11.2311313245
 20
16.8014381739
 10
11.1843615023
 20
16.8063150684
 10
11.1380094388
 20
16.8117576092
 10
11.0920713133
 20
16.8177677117
 10
11.0465413142
 20
16.8243336034
 10
11.0014266238
 20
16.8314516972
 10
10.9567200598
 20
16.8391255802
 10
10.9123942637
 20
16.8473542403
 10
10.8684357922
 20
16.8561384886
 10
10.8248580885
 20
16.8654775142
 10
10.7816741237
 20
16.8753678718
 10
10.7388820411
 20
16.8858094143
 10
10.6964836975
 20
16.8968022888
 10
10.6544976339
 20
16.908343492
 10
10.6129298531
 20
16.9204302691
 10
10.5717743524
 20
16.9330653747
 10
10.5310316654
 20
16.9462540699
 10
10.4906775096
 20
16.9600047864
 10
10.4507361674
 20
16.9743090924
 10
10.4112810194
 20
16.9891469534
 10
10.372324473
 20
17.0045145241
 10
10.3338541207
 20
17.0204156497
 10
10.295906121
 20
17.036841832
 10
10.2584755088
 20
17.0537938579
 10
10.2215672491
 20
17.0712709404
 10
10.1852323957
 20
17.08926222
 10
10.1494879664
 20
17.1077640768
 10
10.1143169432
 20
17.1267801307
 10
10.0797193263
 20
17.1463103817
  0
LINE
  5
2CE
100
AcDbEntity
  8
RACCORDO
100
AcDbLine
 62
7
  6
CONTINUOUS
 10
16.5178878927
 20
18.9688138963
 11
13.6008284542
 21
17.3433328623
  0
LINE
  5
2CF
100
AcDbEntity
  8
RACCORDO
100
AcDbLine
 62
253
  6
CONTINUOUS
 10
3.5456679483
 20
13.001413573
 11
2.8262185724
 21
12.6073906674
  0
LINE
  5
2D0
100
AcDbEntity
  8
RACCORDO
100
AcDbLine
 62
253
  6
CONTINUOUS
 10
3.878109383
 20
12.4256519672
 11
3.1601385829
 21
12.0324388374
  0
LWPOLYLINE
  5
2D1
100
AcDbEntity
  8
RACCORDO
100
AcDbPolyline
 62
253
  6
CONTINUOUS
 90
16
 70
0
 10
-4.0102061588
 20
-9.8730069888
 10
-3.9717733077
 20
-9.8928298784
 10
-3.929964067
 20
-9.9102866139
 10
-3.8852263975
 20
-9.9251840398
 10
-3.8380396428
 20
-9.9373560715
 10
-3.7889093935
 20
-9.9466655343
 10
-3.7383620703
 20
-9.9530056953
 10
-3.686939284
 20
-9.9563014757
 10
-3.6351920324
 20
-9.9565103219
 10
-3.5836747959
 20
-9.9536227278
 10
-3.5329395972
 20
-9.9476623998
 10
-3.4835300859
 20
-9.9386860934
 10
-3.4359757124
 20
-9.9267830678
 10
-3.3907860554
 20
-9.9120741639
 10
-3.348445361
 20
-9.8947105752
 10
-3.3094073532
 20
-9.8748723074
  0
LWPOLYLINE
  5
2D2
100
AcDbEntity
  8
RACCORDO
100
AcDbPolyline
 62
7
  6
CONTINUOUS
 90
13
 70
0
 10
-3.9070071781
 20
-9.2709832584
 10
-3.8978736944
 20
-9.2761401333
 10
-3.8565513623
 20
-9.2964811164
 10
-3.813389759
 20
-9.3129807882
 10
-3.7688666491
 20
-9.3254310355
 10
-3.7233958564
 20
-9.3337147266
 10
-3.6773312494
 20
-9.3377660145
 10
-3.6310876498
 20
-9.337545144
 10
-3.5850597991
 20
-9.3330536121
 10
-3.5396421011
 20
-9.3243295178
 10
-3.4952454715
 20
-9.311454838
 10
-3.4522547203
 20
-9.2945488247
 10
-3.4162770772
 20
-9.2766773349
  0
LINE
  5
2D3
100
AcDbEntity
  8
RACCORDO
100
AcDbLine
 62
253
  6
CONTINUOUS
 10
-18.8509978985
 20
-1.3041266316
 11
-4.010212035
 21
-9.8730103904
  0
LINE
  5
2D4
100
AcDbEntity
  8
RACCORDO
100
AcDbLine
 62
253
  6
CONTINUOUS
 10
-18.7796873881
 20
-0.8573127013
 11
-3.6609610175
 21
-9.5866758255
  0
LINE
  5
2D5
100
AcDbEntity
  8
RACCORDO
100
AcDbLine
 62
7
  6
CONTINUOUS
 10
-3.9064295563
 20
-9.2712347527
 11
-18.8304591574
 21
-0.6542871031
  0
LINE
  5
2D6
100
AcDbEntity
  8
RACCORDO
100
AcDbLine
 62
253
  6
CONTINUOUS
 10
-4.010212035
 20
-9.1096319443
 11
-18.8509978985
 21
-0.5407481855
  0
LWPOLYLINE
  5
2D7
100
AcDbEntity
  8
RACCORDO
100
AcDbPolyline
 62
253
  6
CONTINUOUS
 90
9
 70
0
 10
-18.8509920224
 20
-0.5407448015
 10
-18.8856379928
 20
-0.5187354145
 10
-18.9161250268
 20
-0.4947413787
 10
-18.9421263853
 20
-0.4690258417
 10
-18.9633633971
 20
-0.4418707536
 10
-18.9796084459
 20
-0.4135737882
 10
-18.9906874116
 20
-0.3844450922
 10
-18.9964815369
 20
-0.3548038948
 10
-18.9973937006
 20
-0.3372194592
  0
LWPOLYLINE
  5
2D8
100
AcDbEntity
  8
RACCORDO
100
AcDbPolyline
 62
253
  6
CONTINUOUS
 90
8
 70
0
 10
-0.4476645095
 20
-25.6841248187
 10
-0.4469861563
 20
-25.6857128298
 10
-0.4426714741
 20
-25.6939507659
 10
-0.4378257522
 20
-25.7015754624
 10
-0.4324652661
 20
-25.7085613103
 10
-0.4266080196
 20
-25.7148848466
 10
-0.4202736856
 20
-25.7205248325
 10
-0.4135175606
 20
-25.725437586
  0
LWPOLYLINE
  5
2D9
100
AcDbEntity
  8
RACCORDO
100
AcDbPolyline
 62
253
  6
CONTINUOUS
 90
9
 70
0
 10
-7.5416651332
 20
-18.7197645143
 10
-7.5408904285
 20
-18.736385892
 10
-7.5385747997
 20
-18.7519305867
 10
-7.534743608
 20
-18.7662282841
 10
-7.5294388196
 20
-18.7791223315
 10
-7.5227185461
 20
-18.7904714515
 10
-7.5146564096
 20
-18.8001512912
 10
-7.505340733
 20
-18.8080557885
 10
-7.5002486031
 20
-18.8113118899
  0
LWPOLYLINE
  5
2DA
100
AcDbEntity
  8
RACCORDO
100
AcDbPolyline
 62
253
  6
CONTINUOUS
 90
9
 70
0
 10
-7.5416651332
 20
0.4672869904
 10
-7.5408904285
 20
0.4506656126
 10
-7.5385747997
 20
0.435120918
 10
-7.534743608
 20
0.4208232205
 10
-7.5294388196
 20
0.4079291731
 10
-7.5227185461
 20
0.3965800531
 10
-7.5146564096
 20
0.3869002134
 10
-7.505340733
 20
0.3789957162
 10
-7.5002486031
 20
0.3757396148
  0
LWPOLYLINE
  5
2DB
100
AcDbEntity
  8
RACCORDO
100
AcDbPolyline
 62
253
  6
CONTINUOUS
 90
22
 70
0
 10
-7.3295330988
 20
-15.7396598404
 10
-7.330140776
 20
-15.720911089
 10
-7.3319036817
 20
-15.701774776
 10
-7.3348218157
 20
-15.6822509013
 10
-7.3389237265
 20
-15.6622195081
 10
-7.3441808656
 20
-15.6418005534
 10
-7.3505075881
 20
-15.6213539072
 10
-7.3579238582
 20
-15.6008824296
 10
-7.3664097117
 20
-15.5803832605
 10
-7.3758196105
 20
-15.5602076909
 10
-7.3861662841
 20
-15.5403670809
 10
-7.3974370031
 20
-15.5208500703
 10
-7.4094480414
 20
-15.5019738693
 10
-7.4222146775
 20
-15.4837447936
 10
-7.435721633
 20
-15.4661565275
 10
-7.4497393466
 20
-15.4495073339
 10
-7.4642819383
 20
-15.4338111834
 10
-7.4793352881
 20
-15.4190541054
 10
-7.4946274746
 20
-15.4054924509
 10
-7.5100678574
 20
-15.3932116703
 10
-7.5257470769
 20
-15.3821263131
 10
-7.5416651332
 20
-15.3722363794
  0
LWPOLYLINE
  5
2DC
100
AcDbEntity
  8
RACCORDO
100
AcDbPolyline
 62
253
  6
CONTINUOUS
 90
22
 70
0
 10
-7.3295330988
 20
3.4473916642
 10
-7.330140776
 20
3.4661404156
 10
-7.3319036817
 20
3.4852767287
 10
-7.3348218157
 20
3.5048006034
 10
-7.3389237265
 20
3.5248319965
 10
-7.3441808656
 20
3.5452509513
 10
-7.3505075881
 20
3.5656975974
 10
-7.3579238582
 20
3.5861690751
 10
-7.3664097117
 20
3.6066682441
 10
-7.3758196105
 20
3.6268438137
 10
-7.3861662841
 20
3.6466844237
 10
-7.3974370031
 20
3.6662014343
 10
-7.4094480414
 20
3.6850776353
 10
-7.4222146775
 20
3.703306711
 10
-7.435721633
 20
3.7208949771
 10
-7.4497393466
 20
3.7375441708
 10
-7.4642819383
 20
3.7532403212
 10
-7.4793352881
 20
3.7679973992
 10
-7.4946274746
 20
3.7815590537
 10
-7.5100678574
 20
3.7938398344
 10
-7.5257470769
 20
3.8049251915
 10
-7.5416651332
 20
3.8148151252
  0
LWPOLYLINE
  5
2DD
100
AcDbEntity
  8
RACCORDO
100
AcDbPolyline
 62
7
  6
CONTINUOUS
 90
10
 70
0
 10
-7.0592247857
 20
-18.604556775
 10
-7.0665445916
 20
-18.2912879867
 10
-7.0736504699
 20
-17.9778891997
 10
-7.0805424164
 20
-17.6643606038
 10
-7.0872204268
 20
-17.3507023888
 10
-7.0936844971
 20
-17.0369147444
 10
-7.0999346235
 20
-16.7229978608
 10
-7.1059708021
 20
-16.4089519278
 10
-7.1117930293
 20
-16.0947771355
 10
-7.1174013015
 20
-15.7804736742
  0
LWPOLYLINE
  5
2DE
100
AcDbEntity
  8
RACCORDO
100
AcDbPolyline
 62
7
  6
CONTINUOUS
 90
27
 70
0
 10
-8.3224627818
 20
19.4808112089
 10
-8.3221865454
 20
19.4688600015
 10
-8.3213953614
 20
19.4559290958
 10
-8.320083591
 20
19.4426880422
 10
-8.3182308332
 20
19.4291944678
 10
-8.3159080035
 20
19.4154692893
 10
-8.3131134672
 20
19.4015539891
 10
-8.3098357691
 20
19.3874924929
 10
-8.3061280194
 20
19.37329591
 10
-8.3019900043
 20
19.3589952204
 10
-8.2974158005
 20
19.3446248134
 10
-8.2924463083
 20
19.3301929461
 10
-8.2870818403
 20
19.3157240228
 10
-8.2813197957
 20
19.3012456441
 10
-8.2751932416
 20
19.2867663381
 10
-8.2687026965
 20
19.2723061068
 10
-8.2618476508
 20
19.257887902
 10
-8.2546566392
 20
19.2435222557
 10
-8.247130341
 20
19.2292261091
 10
-8.2392697016
 20
19.2150191973
 10
-8.2311012621
 20
19.2009150714
 10
-8.2226257339
 20
19.1869280441
 10
-8.2138454627
 20
19.1730759247
 10
-8.2047877778
 20
19.1593769858
 10
-8.195462936
 20
19.1458469673
 10
-8.1858653387
 20
19.1324986385
 10
-8.1759983394
 20
19.119345136
  0
LINE
  5
2DF
100
AcDbEntity
  8
RACCORDO
100
AcDbLine
 62
7
  6
CONTINUOUS
 10
-8.3224449488
 20
19.4808135949
 11
-8.3224449488
 21
18.3109978997
  0
LINE
  5
2E0
100
AcDbEntity
  8
RACCORDO
100
AcDbLine
 62
253
  6
CONTINUOUS
 10
-8.1759983394
 20
19.119345136
 11
-8.1759983394
 21
18.1005942414
  0
LINE
  5
2E1
100
AcDbEntity
  8
RACCORDO
100
AcDbLine
 62
253
  6
CONTINUOUS
 10
-7.3295330988
 20
-18.5973058092
 11
-7.3295330988
 21
-15.7396598404
  0
LINE
  5
2E2
100
AcDbEntity
  8
RACCORDO
100
AcDbLine
 62
253
  6
CONTINUOUS
 10
-7.3295330988
 20
0.5897456954
 11
-7.3295330988
 21
3.4473916642
  0
LWPOLYLINE
  5
2E3
100
AcDbEntity
  8
RACCORDO
100
AcDbPolyline
 62
7
  6
CONTINUOUS
 90
12
 70
0
 10
-7.0592247857
 20
-18.604556775
 10
-7.05937803
 20
-18.6306206286
 10
-7.0610170253
 20
-18.6554944943
 10
-7.064141829
 20
-18.6791784071
 10
-7.0687783359
 20
-18.7017632872
 10
-7.0749007519
 20
-18.7231582755
 10
-7.0824316534
 20
-18.7430907691
 10
-7.0913891928
 20
-18.7615423269
 10
-7.1017554275
 20
-18.7785315176
 10
-7.1133988848
 20
-18.7938413106
 10
-7.1263360821
 20
-18.8074503592
 10
-7.1405507762
 20
-18.8193801771
  0
LWPOLYLINE
  5
2E4
100
AcDbEntity
  8
RACCORDO
100
AcDbPolyline
 62
7
  6
CONTINUOUS
 90
10
 70
0
 10
-7.0592247857
 20
3.4401682198
 10
-7.0665445916
 20
3.1184467031
 10
-7.0736504699
 20
2.796842226
 10
-7.0805424164
 20
2.4753549831
 10
-7.0872204268
 20
2.153985169
 10
-7.0936844971
 20
1.8327329783
 10
-7.0999346235
 20
1.5115986054
 10
-7.1059708021
 20
1.1905822446
 10
-7.1117930293
 20
0.8696840904
 10
-7.1174013015
 20
0.5489043368
  0
LWPOLYLINE
  5
2E5
100
AcDbEntity
  8
RACCORDO
100
AcDbPolyline
 62
253
  6
CONTINUOUS
 90
15
 70
0
 10
-7.5416651332
 20
3.8148151252
 10
-7.5408904122
 20
3.8323313161
 10
-7.5385747372
 20
3.8505502243
 10
-7.5347434793
 20
3.8692722396
 10
-7.5294386145
 20
3.8882922398
 10
-7.5227182641
 20
3.9074018377
 10
-7.5146560575
 20
3.9263916645
 10
-7.505340326
 20
3.9450536639
 10
-7.4948731348
 20
3.9631833709
 10
-7.4833691645
 20
3.9805821528
 10
-7.470954455
 20
3.9970593848
 10
-7.4577650246
 20
4.0124345389
 10
-7.4439453794
 20
4.0265391618
 10
-7.4296469302
 20
4.0392187201
 10
-7.415026334
 20
4.0503342942
  0
LWPOLYLINE
  5
2E6
100
AcDbEntity
  8
RACCORDO
100
AcDbPolyline
 62
253
  6
CONTINUOUS
 90
9
 70
0
 10
-7.5416651332
 20
-15.3722363794
 10
-7.5408904122
 20
-15.3547201886
 10
-7.5385747372
 20
-15.3365012804
 10
-7.5347434793
 20
-15.317779265
 10
-7.5294386145
 20
-15.2987592649
 10
-7.5227182641
 20
-15.279649667
 10
-7.5146560575
 20
-15.2606598401
 10
-7.505340326
 20
-15.2419978408
 10
-7.4948731348
 20
-15.2238681337
  0
LWPOLYLINE
  5
2E7
100
AcDbEntity
  8
RACCORDO
100
AcDbPolyline
 62
7
  6
CONTINUOUS
 90
14
 70
0
 10
-7.1174013015
 20
0.5489043368
 10
-7.1186503322
 20
0.5222024344
 10
-7.1213728242
 20
0.4966998448
 10
-7.1255688347
 20
0.4723965362
 10
-7.1312689399
 20
0.449198961
 10
-7.1384426646
 20
0.4272006111
 10
-7.1469985417
 20
0.4066819852
 10
-7.1569543865
 20
0.3876619682
 10
-7.1682925938
 20
0.3701215588
 10
-7.1808686598
 20
0.3542843738
 10
-7.194698586
 20
0.3401721307
 10
-7.2097666454
 20
0.3277629598
 10
-7.2258808129
 20
0.3172150582
 10
-7.2281259197
 20
0.3159421854
  0
LWPOLYLINE
  5
2E8
100
AcDbEntity
  8
RACCORDO
100
AcDbPolyline
 62
7
  6
CONTINUOUS
 90
8
 70
0
 10
-15.5289028838
 20
-10.7055118911
 10
-15.5442787693
 20
-10.7305704009
 10
-15.5577945738
 20
-10.7577898308
 10
-15.5691984791
 20
-10.7869872569
 10
-15.5783225067
 20
-10.8180728552
 10
-15.5850203372
 20
-10.8509924957
 10
-15.5891442536
 20
-10.8856705148
 10
-15.5905504043
 20
-10.9220196392
  0
LWPOLYLINE
  5
2E9
100
AcDbEntity
  8
RACCORDO
100
AcDbPolyline
 62
253
  6
CONTINUOUS
 90
4
 70
0
 10
-15.2730481797
 20
-10.7328483251
 10
-15.2615442191
 20
-10.7154494679
 10
-15.2491294918
 20
-10.6989721361
 10
-15.2411465268
 20
-10.6896662139
  0
LWPOLYLINE
  5
2EA
100
AcDbEntity
  8
RACCORDO
100
AcDbPolyline
 62
7
  6
CONTINUOUS
 90
28
 70
0
 10
1.9273890285
 20
12.812358841
 10
1.9195099055
 20
12.8029565786
 10
1.9112896564
 20
12.7937182658
 10
1.9027317952
 20
12.7846653749
 10
1.8938333647
 20
12.7758209067
 10
1.8846069297
 20
12.7672050338
 10
1.8750803554
 20
12.7588352678
 10
1.8652601671
 20
12.7507336588
 10
1.8551542689
 20
12.7429216809
 10
1.8447934859
 20
12.7354163691
 10
1.8341869646
 20
12.7282396708
 10
1.8233450532
 20
12.7214128399
 10
1.8123012761
 20
12.7149522838
 10
1.8010674277
 20
12.7088794589
 10
1.7896564769
 20
12.7032151064
 10
1.7781046564
 20
12.6979749952
 10
1.7664265246
 20
12.6931796948
 10
1.754637793
 20
12.6888490157
 10
1.742777479
 20
12.6849979808
 10
1.7308630314
 20
12.6816457808
 10
1.718913018
 20
12.6788107689
 10
1.7069693405
 20
12.6765069343
 10
1.6950524908
 20
12.6747514708
 10
1.6831839236
 20
12.6735605746
 10
1.671408345
 20
12.6729466086
 10
1.6597495245
 20
12.6729239809
 10
1.6482315874
 20
12.6735058306
 10
1.6452564312
 20
12.673758208
  0
LWPOLYLINE
  5
2EB
100
AcDbEntity
  8
RACCORDO
100
AcDbPolyline
 62
253
  6
CONTINUOUS
 90
22
 70
0
 10
-2.3263995411
 20
8.5484275806
 10
-2.3770386147
 20
8.5151125761
 10
-2.4268090131
 20
8.4783847128
 10
-2.4757107363
 20
8.4382439907
 10
-2.5239933541
 20
8.3944492196
 10
-2.5714072967
 20
8.3472415897
 10
-2.6172038551
 20
8.2973446716
 10
-2.661346039
 20
8.2447232209
 10
-2.7038708387
 20
8.189412482
 10
-2.7441405167
 20
8.1322417594
 10
-2.7821144134
 20
8.0731946472
 10
-2.8178331884
 20
8.0122875513
 10
-2.8507810822
 20
7.950398994
 10
-2.8809237635
 20
7.8875010925
 10
-2.9082955636
 20
7.8236217297
 10
-2.9324837168
 20
7.7597230757
 10
-2.9534372671
 20
7.6957973607
 10
-2.9712071707
 20
7.6318523545
 10
-2.9855335297
 20
7.5688735371
 10
-2.9963297119
 20
7.5071894019
 10
-3.0036823496
 20
7.4464714555
 10
-3.0075914429
 20
7.3867196979
  0
LINE
  5
2EC
100
AcDbEntity
  8
DRAFT
100
AcDbLine
 62
7
  6
CONTINUOUS
 10
12.5354471967
 20
17.0010551335
 11
12.4474206955
 21
16.9447937369
  0
LINE
  5
2ED
100
AcDbEntity
  8
RACCORDO
100
AcDbLine
 62
253
  6
CONTINUOUS
 10
-7.415026334
 20
4.0503342942
 11
-7.4002437769
 21
4.0597640992
  0
LINE
  5
2EE
100
AcDbEntity
  8
RACCORDO
100
AcDbLine
 62
253
  6
CONTINUOUS
 10
16.6766037561
 20
18.1372931413
 11
3.878109383
 21
10.5937894599
  0
LINE
  5
2EF
100
AcDbEntity
  8
RACCORDO
100
AcDbLine
 62
253
  6
CONTINUOUS
 10
16.6766037561
 20
18.1372931413
 11
17.0303645972
 21
18.3415737926
  0
LINE
  5
2F0
100
AcDbEntity
  8
RACCORDO
100
AcDbLine
 62
7
  6
CONTINUOUS
 10
16.3192459309
 20
18.7562550504
 11
9.9890456415
 21
15.1765525322
  0
LINE
  5
2F1
100
AcDbEntity
  8
0
100
AcDbLine
 62
7
  6
CONTINUOUS
 10
13.6343206649
 20
17.3239948992
 11
13.6142530158
 21
17.3126497341
  0
LWPOLYLINE
  5
2F2
100
AcDbEntity
  8
RACCORDO
100
AcDbPolyline
 62
253
  6
CONTINUOUS
 90
16
 70
0
 10
-3.0075914429
 20
7.3867196979
 10
-3.0466007937
 20
7.3688487174
 10
-3.0889136402
 20
7.353394286
 10
-3.134076621
 20
7.3405219902
 10
-3.1816058368
 20
7.3303697503
 10
-3.2309920356
 20
7.3230463428
 10
-3.2817060684
 20
7.3186302342
 10
-3.3332045593
 20
7.317168741
 10
-3.3849357272
 20
7.3186775224
 10
-3.4363452981
 20
7.3231404126
 10
-3.4868824435
 20
7.3305095938
 10
-3.5360056829
 20
7.3407061089
 10
-3.5831886849
 20
7.3536207073
 10
-3.6279259066
 20
7.3691150154
 10
-3.6697380109
 20
7.3870230194
 10
-3.7081770014
 20
7.4071528437
  0
LWPOLYLINE
  5
2F3
100
AcDbEntity
  8
RACCORDO
100
AcDbPolyline
 62
253
  6
CONTINUOUS
 90
10
 70
0
 10
-18.8358204269
 20
-0.7853169631
 10
-18.8332375147
 20
-0.7841553617
 10
-18.8280501281
 20
-0.7838779493
 10
-18.8223001715
 20
-0.7861124257
 10
-18.8160678185
 20
-0.7910324708
 10
-18.8094401362
 20
-0.7987517279
 10
-18.80234984
 20
-0.8092077346
 10
-18.794882915
 20
-0.8224029892
 10
-18.7872677562
 20
-0.8384332987
 10
-18.7796873881
 20
-0.8573127013
  0
LWPOLYLINE
  5
2F4
100
AcDbEntity
  8
RACCORDO
100
AcDbPolyline
 62
253
  6
CONTINUOUS
 90
11
 70
0
 10
-4.010212035
 20
-9.1096319443
 10
-4.0090632366
 20
-9.1285213085
 10
-4.0057554271
 20
-9.1472283458
 10
-4.0002650826
 20
-9.1656188347
 10
-3.9925818753
 20
-9.1835090287
 10
-3.9827046166
 20
-9.200824528
 10
-3.9705946093
 20
-9.2175541034
 10
-3.9562395942
 20
-9.2335504375
 10
-3.9395971247
 20
-9.2485863606
 10
-3.920586036
 20
-9.2625194248
 10
-3.9072287482
 20
-9.27077324
  0
LINE
  5
2F5
100
AcDbEntity
  8
RACCORDO
100
AcDbLine
 62
253
  6
CONTINUOUS
 10
-3.7081770016
 20
-26.0529587162
 11
-3.7702332131
 21
-24.271841014
  0
LWPOLYLINE
  5
2F6
100
AcDbEntity
  8
RACCORDO
100
AcDbPolyline
 62
253
  6
CONTINUOUS
 90
9
 70
0
 10
-3.7702332131
 20
-24.271841014
 10
-3.8251662489
 20
-22.4864965857
 10
-3.8729755085
 20
-20.6969610797
 10
-3.9136599874
 20
-18.9032970923
 10
-3.9472201157
 20
-17.1055136914
 10
-3.9736567106
 20
-15.3035657851
 10
-3.9929690125
 20
-13.4974617258
 10
-4.0051557334
 20
-11.6872639392
 10
-4.0102161623
 20
-9.8730080074
  0
LWPOLYLINE
  5
2F7
100
AcDbEntity
  8
RACCORDO
100
AcDbPolyline
 62
7
  6
CONTINUOUS
 90
14
 70
0
 10
3.3634163835
 20
14.0459535369
 10
3.3716636603
 20
14.0569044012
 10
3.3793088099
 20
14.0683075922
 10
3.3863264786
 20
14.0801312587
 10
3.3926976878
 20
14.0923519847
 10
3.3983945849
 20
14.1049261952
 10
3.4033862619
 20
14.1177887489
 10
3.4076575497
 20
14.1308963025
 10
3.4111994293
 20
14.1442177254
 10
3.4140000093
 20
14.1577046617
 10
3.4160530573
 20
14.1713216893
 10
3.4173531224
 20
14.1850299673
 10
3.417896313
 20
14.1987766026
 10
3.41791424
 20
14.2017710506
  0
LINE
  5
2F8
100
AcDbEntity
  8
RACCORDO
100
AcDbLine
 62
253
  6
CONTINUOUS
 10
2.8174492112
 20
13.4374850753
 11
3.345716383
 21
14.1002973417
  0
LINE
  5
2F9
100
AcDbEntity
  8
RACCORDO
100
AcDbLine
 62
7
  6
CONTINUOUS
 10
2.8174492112
 20
13.3609332324
 11
3.3634163835
 21
14.0459535369
  0
LWPOLYLINE
  5
2FA
100
AcDbEntity
  8
RACCORDO
100
AcDbPolyline
 62
253
  6
CONTINUOUS
 90
29
 70
0
 10
17.0907542318
 20
16.7436803693
 10
17.1094153704
 20
16.7551465257
 10
17.1275284654
 20
16.7669020167
 10
17.145080066
 20
16.7789381127
 10
17.1620571383
 20
16.7912458755
 10
17.1784470749
 20
16.8038161653
 10
17.1942377046
 20
16.8166396474
 10
17.2094173013
 20
16.829706799
 10
17.2239745923
 20
16.8430079163
 10
17.2378987676
 20
16.8565331219
 10
17.2511794868
 20
16.8702723718
 10
17.2638068876
 20
16.8842154633
 10
17.2757715928
 20
16.8983520421
 10
17.2870647175
 20
16.9126716102
 10
17.2976778752
 20
16.927163534
 10
17.3076031846
 20
16.9418170516
 10
17.316833275
 20
16.9566212813
 10
17.3253612922
 20
16.9715652293
 10
17.3331809033
 20
16.9866377982
 10
17.3402863012
 20
17.001827795
 10
17.3466722096
 20
17.0171239395
 10
17.3523338862
 20
17.0325148728
 10
17.3572671266
 20
17.0479891655
 10
17.3614682674
 20
17.0635353261
 10
17.3649341887
 20
17.0791418102
 10
17.3676623168
 20
17.0947970282
 10
17.3696506257
 20
17.1104893544
 10
17.370897639
 20
17.1262071358
 10
17.3714024305
 20
17.1419387
  0
LINE
  5
2FB
100
AcDbEntity
  8
RACCORDO
100
AcDbLine
 62
253
  6
CONTINUOUS
 10
17.0907542318
 20
16.7436803693
 11
3.878109383
 21
8.9560740968
  0
LWPOLYLINE
  5
2FC
100
AcDbEntity
  8
RACCORDO
100
AcDbPolyline
 62
253
  6
CONTINUOUS
 90
4
 70
0
 10
-7.0973140706
 20
3.4261552608
 10
-7.0791842193
 20
3.432198904
 10
-7.0622478029
 20
3.4393036514
 10
-7.0592286871
 20
3.4408732337
  0
LWPOLYLINE
  5
2FD
100
AcDbEntity
  8
RACCORDO
100
AcDbPolyline
 62
7
  6
CONTINUOUS
 90
16
 70
0
 10
17.187364721
 20
-1.5020160386
 10
17.1799226574
 20
-1.5037990671
 10
17.1726078862
 20
-1.5052399241
 10
17.1654204075
 20
-1.5063386094
 10
17.1583521295
 20
-1.5070928635
 10
17.1514111439
 20
-1.5075049459
 10
17.1446217262
 20
-1.5075816359
 10
17.1379875999
 20
-1.5073171803
 10
17.1315050415
 20
-1.5067173323
 10
17.1251871552
 20
-1.5058061296
 10
17.1190386767
 20
-1.5045790966
 10
17.1130548703
 20
-1.5030407091
 10
17.1072346329
 20
-1.5012284322
 10
17.1015775968
 20
-1.4991547546
 10
17.0960841298
 20
-1.4968071877
 10
17.0907542318
 20
-1.4941857315
  0
LINE
  5
2FE
100
AcDbEntity
  8
RACCORDO
100
AcDbLine
 62
7
  6
CONTINUOUS
 10
1.8805327249
 20
-6.4419871843
 11
1.8216600145
 21
-6.4079948192
  0
LWPOLYLINE
  5
2FF
100
AcDbEntity
  8
RACCORDO
100
AcDbPolyline
 62
7
  6
CONTINUOUS
 90
3
 70
0
 10
-15.2792524671
 20
4.8461933214
 10
-15.3022042562
 20
4.8621099732
 10
-15.324833271
 20
4.8795824839
  0
LWPOLYLINE
  5
300
100
AcDbEntity
  8
RACCORDO
100
AcDbPolyline
 62
7
  6
CONTINUOUS
 90
19
 70
0
 10
-15.324833271
 20
4.8795824839
 10
-15.3472333373
 20
4.8986988077
 10
-15.3693105153
 20
4.9193710537
 10
-15.3907831049
 20
4.9413354824
 10
-15.4116432493
 20
4.964608677
 10
-15.4318985951
 20
4.989174171
 10
-15.4512906908
 20
5.0147186545
 10
-15.4698083529
 20
5.041254728
 10
-15.4874624903
 20
5.0687699433
 10
-15.5040278065
 20
5.0969134092
 10
-15.5194902193
 20
5.1256932336
 10
-15.5338635138
 20
5.1551014732
 10
-15.546964238
 20
5.1847631353
 10
-15.5587759788
 20
5.214681532
 10
-15.5693148747
 20
5.2448535033
 10
-15.5784463717
 20
5.2748943086
 10
-15.5861523669
 20
5.304802332
 10
-15.5924507531
 20
5.3345793057
 10
-15.5972610639
 20
5.3638454598
  0
LWPOLYLINE
  5
301
100
AcDbEntity
  8
RACCORDO
100
AcDbPolyline
 62
253
  6
CONTINUOUS
 90
19
 70
0
 10
-3.3093389674
 20
-9.8749134704
 10
-3.3103329314
 20
-9.8570458196
 10
-3.3134001176
 20
-9.8386001312
 10
-3.318625056
 20
-9.8196388763
 10
-3.3261146884
 20
-9.8002222808
 10
-3.3359136295
 20
-9.7804758318
 10
-3.3479820345
 20
-9.7605949472
 10
-3.3622635708
 20
-9.7406677801
 10
-3.3788585863
 20
-9.7209241792
 10
-3.3979012296
 20
-9.7017994054
 10
-3.4194468772
 20
-9.6836556085
 10
-3.4433385481
 20
-9.6665254278
 10
-3.4693638343
 20
-9.6503747427
 10
-3.4975274926
 20
-9.6353883014
 10
-3.5276609804
 20
-9.6218818115
 10
-3.5592670539
 20
-9.6100281363
 10
-3.5920705441
 20
-9.6000374269
 10
-3.6260300182
 20
-9.5921757861
 10
-3.6609610175
 20
-9.5866758255
  0
LWPOLYLINE
  5
302
100
AcDbEntity
  8
RACCORDO
100
AcDbPolyline
 62
253
  6
CONTINUOUS
 90
10
 70
0
 10
-3.0075914429
 20
-26.0399317503
 10
-3.069591872
 20
-24.260399908
 10
-3.1244740803
 20
-22.4767159478
 10
-3.1722380675
 20
-20.6888798695
 10
-3.2128840037
 20
-18.8968827044
 10
-3.2464117188
 20
-17.1007334212
 10
-3.2728207037
 20
-15.3004589272
 10
-3.2921107885
 20
-13.4960681913
 10
-3.3042821429
 20
-11.6875522445
 10
-3.3093347671
 20
-9.8749110868
  0
LINE
  5
303
100
AcDbEntity
  8
DRAFT
100
AcDbLine
 62
253
  6
CONTINUOUS
 10
-2.8747603773
 20
19.8045822132
 11
-2.8747603773
 21
20.8365506097
  0
LINE
  5
304
100
AcDbEntity
  8
RACCORDO
100
AcDbLine
 62
253
  6
CONTINUOUS
 10
-2.6646912398
 20
14.9184345949
 11
-2.6646912398
 21
15.9371854896
  0
LINE
  5
305
100
AcDbEntity
  8
RACCORDO
100
AcDbLine
 62
253
  6
CONTINUOUS
 10
-1.9596473205
 20
14.9385206621
 11
-1.9596473205
 21
16.1007093553
  0
LINE
  5
306
100
AcDbEntity
  8
DRAFT
100
AcDbLine
 62
7
  6
CONTINUOUS
 10
-1.908834551
 20
20.979818854
 11
-1.908834551
 21
20.4579241806
  0
LWPOLYLINE
  5
307
100
AcDbEntity
  8
RACCORDO
100
AcDbPolyline
 62
253
  6
CONTINUOUS
 90
10
 70
0
 10
-3.7081770016
 20
7.4071528436
 10
-3.7702332271
 20
5.5568301317
 10
-3.8251662694
 20
3.710224508
 10
-3.87297553
 20
1.8673723135
 10
-3.913660005
 20
0.0283373518
 10
-3.9472201272
 20
-1.8068718553
 10
-3.973656717
 20
-3.6383014875
 10
-3.9929690156
 20
-5.4659423637
 10
-4.0051557343
 20
-7.2897305226
 10
-4.0102161623
 20
-9.1096295613
  0
LWPOLYLINE
  5
308
100
AcDbEntity
  8
RACCORDO
100
AcDbPolyline
 62
253
  6
CONTINUOUS
 90
10
 70
0
 10
-3.0075914429
 20
7.3867196979
 10
-3.0695918904
 20
5.5380471967
 10
-3.1244741111
 20
3.6931606453
 10
-3.1722381049
 20
1.8520600439
 10
-3.2128840399
 20
0.0147362213
 10
-3.2464117479
 20
-1.8188016515
 10
-3.2728207251
 20
-3.648526061
 10
-3.2921108033
 20
-5.4744278361
 10
-3.3042821506
 20
-7.2965161479
 10
-3.3093347671
 20
-9.1147909965
  0
LWPOLYLINE
  5
309
100
AcDbEntity
  8
RACCORDO
100
AcDbPolyline
 62
253
  6
CONTINUOUS
 90
19
 70
0
 10
-4.010212035
 20
-9.8730103904
 10
-4.0093181239
 20
-9.8551431301
 10
-4.0063663883
 20
-9.8367090902
 10
-4.0012712153
 20
-9.8177718698
 10
-3.9939541464
 20
-9.7983570177
 10
-3.9843376772
 20
-9.7786256331
 10
-3.9723775527
 20
-9.7588804077
 10
-3.9580554744
 20
-9.7393198002
 10
-3.941365904
 20
-9.7200578117
 10
-3.9223355777
 20
-9.7012983958
 10
-3.9009773494
 20
-9.6832881893
 10
-3.8773536657
 20
-9.6661767042
 10
-3.8515846447
 20
-9.6500480756
 10
-3.8236402135
 20
-9.6351172843
 10
-3.7937119062
 20
-9.6216627485
 10
-3.7622854946
 20
-9.6098667821
 10
-3.7296323744
 20
-9.5999381293
 10
-3.6957964502
 20
-9.592132386
 10
-3.6609610175
 20
-9.5866758255
  0
LWPOLYLINE
  5
30A
100
AcDbEntity
  8
RACCORDO
100
AcDbPolyline
 62
253
  6
CONTINUOUS
 90
11
 70
0
 10
-3.3093389674
 20
-9.1147932969
 10
-3.3105346509
 20
-9.133798518
 10
-3.3139085053
 20
-9.1525728383
 10
-3.3194804702
 20
-9.1709805603
 10
-3.3272305565
 20
-9.1888269204
 10
-3.3371839922
 20
-9.2060464638
 10
-3.3494524964
 20
-9.2226607569
 10
-3.3641135665
 20
-9.2385585258
 10
-3.3811236158
 20
-9.2534930167
 10
-3.4004197284
 20
-9.2672577742
 10
-3.4162700268
 20
-9.2766669968
  0
LWPOLYLINE
  5
30B
100
AcDbEntity
  8
RACCORDO
100
AcDbPolyline
 62
253
  6
CONTINUOUS
 90
22
 70
0
 10
1.2161684204
 20
12.8778488539
 10
1.210720397
 20
12.8648352298
 10
1.204697611
 20
12.8522061739
 10
1.1981197361
 20
12.8400046065
 10
1.1910074921
 20
12.8282707445
 10
1.1833850378
 20
12.8170460951
 10
1.1752804727
 20
12.8063726971
 10
1.1667222437
 20
12.7962877873
 10
1.1577382045
 20
12.7868239738
 10
1.1483583385
 20
12.778012892
 10
1.1386140239
 20
12.7698841481
 10
1.1285382812
 20
12.7624654135
 10
1.1181653935
 20
12.7557819764
 10
1.1075304647
 20
12.7498564386
 10
1.0966692395
 20
12.7447087007
 10
1.0856183137
 20
12.7403561109
 10
1.0744149314
 20
12.7368133477
 10
1.0630968914
 20
12.7340923732
 10
1.0517023903
 20
12.7322023736
 10
1.040269841
 20
12.7311497217
 10
1.0288378087
 20
12.7309379698
 10
1.0174998456
 20
12.7315627576
  0
LINE
  5
30C
100
AcDbEntity
  8
DRAFT
100
AcDbLine
 62
7
  6
CONTINUOUS
 10
2.0926647605
 20
4.5560556285
 11
3.878109383
 21
5.76454203
  0
LINE
  5
30D
100
AcDbEntity
  8
RACCORDO
100
AcDbLine
 62
253
  6
CONTINUOUS
 10
-7.4554596573
 20
0.3533725174
 11
-7.4778967746
 21
0.3408659346
  0
LWPOLYLINE
  5
30E
100
AcDbEntity
  8
RACCORDO
100
AcDbPolyline
 62
7
  6
CONTINUOUS
 90
13
 70
0
 10
-7.2281259197
 20
0.3159421854
 10
-7.243054653
 20
0.3085521606
 10
-7.2612748983
 20
0.3017503673
 10
-7.2803093193
 20
0.2968963993
 10
-7.3001684966
 20
0.2940151124
 10
-7.320842124
 20
0.2930814984
 10
-7.3420666583
 20
0.2941074731
 10
-7.3638492916
 20
0.2971180704
 10
-7.3861830418
 20
0.3020881399
 10
-7.4087830974
 20
0.3089543239
 10
-7.431554561
 20
0.3176954814
 10
-7.454592444
 20
0.3283326902
 10
-7.4778967746
 20
0.3408659346
  0
LWPOLYLINE
  5
30F
100
AcDbEntity
  8
RACCORDO
100
AcDbPolyline
 62
253
  6
CONTINUOUS
 90
10
 70
0
 10
-7.3295330988
 20
0.5897456954
 10
-7.3139758208
 20
0.5816577464
 10
-7.2970395496
 20
0.5745530391
 10
-7.2789098425
 20
0.568509414
 10
-7.2597853325
 20
0.5635930865
 10
-7.2398755516
 20
0.5598579208
 10
-7.2193986356
 20
0.5573448402
 10
-7.1985789338
 20
0.5560813786
 10
-7.1776445513
 20
0.5560813786
 10
-7.1568248496
 20
0.5573448402
  0
LWPOLYLINE
  5
310
100
AcDbEntity
  8
RACCORDO
100
AcDbPolyline
 62
7
  6
CONTINUOUS
 90
12
 70
0
 10
-7.5002486021
 20
0.3757396142
 10
-7.4679715261
 20
0.3587363749
 10
-7.435854022
 20
0.3449675512
 10
-7.4040510197
 20
0.3343336278
 10
-7.3727464579
 20
0.326731862
 10
-7.3420205907
 20
0.3220255406
 10
-7.311908594
 20
0.3200896036
 10
-7.2826803691
 20
0.3208097787
 10
-7.2543963985
 20
0.3240470866
 10
-7.226855927
 20
0.3297444376
 10
-7.2001350091
 20
0.3378650082
 10
-7.1949245013
 20
0.3399860801
  0
LWPOLYLINE
  5
311
100
AcDbEntity
  8
RACCORDO
100
AcDbPolyline
 62
253
  6
CONTINUOUS
 90
22
 70
0
 10
-7.5416651332
 20
0.4672869904
 10
-7.525731583
 20
0.4587888208
 10
-7.5100400539
 20
0.451764291
 10
-7.4945905457
 20
0.446213401
 10
-7.4792934451
 20
0.4421173728
 10
-7.4642383654
 20
0.4394949844
 10
-7.449694147
 20
0.4384025695
 10
-7.4356732496
 20
0.4388703743
 10
-7.4221632133
 20
0.4408681525
 10
-7.4093954987
 20
0.4443614993
 10
-7.3973863096
 20
0.4493744687
 10
-7.3861194422
 20
0.4558830067
 10
-7.3757777455
 20
0.4637805462
 10
-7.3663743293
 20
0.4730922982
 10
-7.3578960837
 20
0.4837930518
 10
-7.3504865287
 20
0.4957006076
 10
-7.3441648244
 20
0.5088423322
 10
-7.3389118106
 20
0.523190859
 10
-7.3348135271
 20
0.5384818887
 10
-7.331898654
 20
0.5546273214
 10
-7.3301385112
 20
0.571715257
 10
-7.3295330988
 20
0.5897456954
  0
LINE
  5
312
100
AcDbEntity
  8
RACCORDO
100
AcDbLine
 62
7
  6
CONTINUOUS
 10
-15.255977932
 20
4.8318325126
 11
-7.4778967746
 21
0.3408659346
  0
LINE
  5
313
100
AcDbEntity
  8
RACCORDO
100
AcDbLine
 62
7
  6
CONTINUOUS
 10
-15.278423202
 20
4.8667601447
 11
-7.5002486031
 21
0.3757396148
  0
LINE
  5
314
100
AcDbEntity
  8
RACCORDO
100
AcDbLine
 62
253
  6
CONTINUOUS
 10
-15.3198397262
 20
4.958307517
 11
-7.5416651332
 21
0.4672869904
  0
LINE
  5
315
100
AcDbEntity
  8
RACCORDO
100
AcDbLine
 62
7
  6
CONTINUOUS
 10
-15.255977932
 20
4.8318325126
 11
-15.2792524671
 21
4.8461933214
  0
LWPOLYLINE
  5
316
100
AcDbEntity
  8
RACCORDO
100
AcDbPolyline
 62
253
  6
CONTINUOUS
 90
9
 70
0
 10
-15.5319717606
 20
5.325730978
 10
-15.5459794448
 20
5.3347134454
 10
-15.5582842764
 20
5.3444921283
 10
-15.5687514339
 20
5.3549598954
 10
-15.5772662284
 20
5.3660020658
 10
-15.5837353593
 20
5.3774976628
 10
-15.5880879378
 20
5.3893207393
 10
-15.5902762656
 20
5.4013417618
 10
-15.5905504043
 20
5.4073858889
  0
LWPOLYLINE
  5
317
100
AcDbEntity
  8
RACCORDO
100
AcDbPolyline
 62
253
  6
CONTINUOUS
 90
16
 70
0
 10
-2.3263995411
 20
8.5484275806
 10
-2.3302661488
 20
8.5910561794
 10
-2.3378913702
 20
8.635490934
 10
-2.3491917796
 20
8.68124559
 10
-2.3640437325
 20
8.7278194476
 10
-2.382284716
 20
8.7747028321
 10
-2.4037151244
 20
8.8213826714
 10
-2.4281004506
 20
8.8673481277
 10
-2.4551738468
 20
8.9120961724
 10
-2.4846390363
 20
8.9551370842
 10
-2.5161735753
 20
8.9959998381
 10
-2.5494323694
 20
9.0342372394
 10
-2.5840514378
 20
9.0694308085
 10
-2.6196519203
 20
9.101195389
 10
-2.6558442259
 20
9.129183359
 10
-2.6922322799
 20
9.1530884196
  0
LWPOLYLINE
  5
318
100
AcDbEntity
  8
RACCORDO
100
AcDbPolyline
 62
7
  6
CONTINUOUS
 90
22
 70
0
 10
-0.5345615238
 20
13.7455391311
 10
-0.5342378498
 20
13.7328217845
 10
-0.5332616048
 20
13.720078007
 10
-0.5316273535
 20
13.707349135
 10
-0.5293337425
 20
13.6946808878
 10
-0.526381658
 20
13.6821118292
 10
-0.5227721717
 20
13.6696728854
 10
-0.5185112773
 20
13.6574056371
 10
-0.5136087441
 20
13.6453524515
 10
-0.5080724088
 20
13.633544112
 10
-0.5019153246
 20
13.6220185854
 10
-0.4951555783
 20
13.6108166604
 10
-0.4878091745
 20
13.5999699294
 10
-0.4798939818
 20
13.5895095481
 10
-0.4714356837
 20
13.5794727338
 10
-0.4624621469
 20
13.5698935553
 10
-0.4529932199
 20
13.5607939994
 10
-0.4430599295
 20
13.5522045626
 10
-0.4327062209
 20
13.5441610073
 10
-0.4219510078
 20
13.5366752289
 10
-0.4108257073
 20
13.5297675946
 10
0.915417116
 20
12.7640067193
  0
LWPOLYLINE
  5
319
100
AcDbEntity
  8
RACCORDO
100
AcDbPolyline
 62
253
  6
CONTINUOUS
 90
15
 70
0
 10
0.8636464607
 20
-26.3784650253
 10
0.8639433283
 20
-26.3901180912
 10
0.8648329337
 20
-26.4013892031
 10
0.8663122893
 20
-26.4122405051
 10
0.8683764262
 20
-26.4226355511
 10
0.8710184117
 20
-26.4325394276
 10
0.8742293724
 20
-26.4419188707
 10
0.8779985235
 20
-26.4507423779
 10
0.8823132057
 20
-26.4589803141
 10
0.8871589276
 20
-26.4666050105
 10
0.8925194138
 20
-26.4735908585
 10
0.8983766602
 20
-26.4799143948
 10
0.9047109943
 20
-26.4855543806
 10
0.9115011411
 20
-26.4904918733
 10
0.915417116
 20
-26.4928992406
  0
LWPOLYLINE
  5
31A
100
AcDbEntity
  8
RACCORDO
100
AcDbPolyline
 62
253
  6
CONTINUOUS
 90
16
 70
0
 10
-0.4613382191
 20
13.6434704827
 10
-0.4611193479
 20
13.6334427266
 10
-0.4604627922
 20
13.6236872311
 10
-0.4593694545
 20
13.6142286612
 10
-0.4578410047
 20
13.6050893572
 10
-0.4558806861
 20
13.5962943684
 10
-0.453494103
 20
13.5878707271
 10
-0.4506877702
 20
13.5798408869
 10
-0.4474682532
 20
13.5722231737
 10
-0.443843484
 20
13.5650363946
 10
-0.4398224009
 20
13.5582983664
 10
-0.4354150277
 20
13.5520259716
 10
-0.4306323999
 20
13.5462349452
 10
-0.425486427
 20
13.5409397053
 10
-0.4199898981
 20
13.5361534097
 10
-0.4141565548
 20
13.5318880112
  0
LINE
  5
31B
100
AcDbEntity
  8
RACCORDO
100
AcDbLine
 62
253
  6
CONTINUOUS
 10
-1.8282423412
 20
22.5864274526
 11
-1.8282423412
 21
21.4302516702
  0
LINE
  5
31C
100
AcDbEntity
  8
RACCORDO
100
AcDbLine
 62
7
  6
CONTINUOUS
 10
-1.7052271893
 20
22.6231003491
 11
-1.7052271893
 21
21.5996109146
  0
LINE
  5
31D
100
AcDbEntity
  8
DRAFT
100
AcDbLine
 62
7
  6
CONTINUOUS
 10
-1.6019681712
 20
16.3072285824
 11
-1.6019681712
 21
15.1641701949
  0
LINE
  5
31E
100
AcDbEntity
  8
DRAFT
100
AcDbLine
 62
253
  6
CONTINUOUS
 10
-1.460546815
 20
19.8045822132
 11
-1.460546815
 21
20.3084853077
  0
LINE
  5
31F
100
AcDbEntity
  8
RACCORDO
100
AcDbLine
 62
7
  6
CONTINUOUS
 10
-0.5345615238
 20
14.0660593039
 11
-0.5345615238
 21
13.7455391311
  0
LINE
  5
320
100
AcDbEntity
  8
RACCORDO
100
AcDbLine
 62
253
  6
CONTINUOUS
 10
-0.4613382191
 20
13.9639906556
 11
-0.4613382191
 21
13.6434704827
  0
LINE
  5
321
100
AcDbEntity
  8
DRAFT
100
AcDbLine
 62
7
  6
CONTINUOUS
 10
0.0243774255
 20
23.7596950521
 11
0.0243774255
 21
23.8900790404
  0
LINE
  5
322
100
AcDbEntity
  8
0
100
AcDbLine
 62
253
  6
CONTINUOUS
 10
0.0243774255
 20
23.9403249567
 11
0.0243769687
 21
25.115222082
  0
LINE
  5
323
100
AcDbEntity
  8
0
100
AcDbLine
 62
7
  6
CONTINUOUS
 10
0.0243764797
 20
25.1822040647
 11
0.0243765118
 21
25.1152218182
  0
LINE
  5
324
100
AcDbEntity
  8
RACCORDO
100
AcDbLine
 62
7
  6
CONTINUOUS
 10
0.1684314305
 20
12.9158793929
 11
0.1684314305
 21
13.1953068922
  0
LINE
  5
325
100
AcDbEntity
  8
RACCORDO
100
AcDbLine
 62
253
  6
CONTINUOUS
 10
0.2416547352
 20
12.8106775637
 11
0.2416547352
 21
13.1530286737
  0
LWPOLYLINE
  5
326
100
AcDbEntity
  8
0
100
AcDbPolyline
 62
7
  6
CONTINUOUS
 90
41
 70
0
 10
-0.6199876558
 20
23.8325775729
 10
-0.6199340746
 20
23.8463576389
 10
-0.6190310062
 20
23.8908746368
 10
-0.6170064604
 20
23.9355934768
 10
-0.6138616204
 20
23.9802941031
 10
-0.6095964807
 20
24.0249723149
 10
-0.6042129791
 20
24.0696030586
 10
-0.597734804
 20
24.1139358538
 10
-0.5901745988
 20
24.1579565747
 10
-0.5815457475
 20
24.2016522862
 10
-0.5718943076
 20
24.2447764304
 10
-0.5612462556
 20
24.2873061237
 10
-0.5496246748
 20
24.3292418744
 10
-0.5370904097
 20
24.3703753024
 10
-0.5236811221
 20
24.4106775021
 10
-0.5094259157
 20
24.4501613159
 10
-0.4943864427
 20
24.4886842375
 10
-0.4786072984
 20
24.5262175525
 10
-0.4621198151
 20
24.5627803585
 10
-0.4449721009
 20
24.598304347
 10
-0.4272086207
 20
24.6327682372
 10
-0.4088610594
 20
24.6661888571
 10
-0.38995818
 20
24.698556232
 10
-0.3705410231
 20
24.7298560548
 10
-0.3506390776
 20
24.7601016065
 10
-0.3302590963
 20
24.7893240839
 10
-0.3094360078
 20
24.817515766
 10
-0.2881962687
 20
24.8446849125
 10
-0.266526567
 20
24.8708852506
 10
-0.244454513
 20
24.896114127
 10
-0.2220034167
 20
24.9203747095
 10
-0.1991451382
 20
24.9437271314
 10
-0.1759028669
 20
24.966169384
 10
-0.1522943413
 20
24.9877028998
 10
-0.1282745174
 20
25.0083899165
 10
-0.1038575018
 20
25.0282318481
 10
-0.0790601539
 20
25.0472243388
 10
-0.0538332543
 20
25.0654174979
 10
-0.0281664196
 20
25.0828253248
 10
-0.0020923317
 20
25.0994278001
 10
0.0243774255
 20
25.1152223458
  0
LWPOLYLINE
  5
327
100
AcDbEntity
  8
ASSI
100
AcDbPolyline
 62
7
  6
CONTINUOUS
 90
13
 70
0
 10
0.0058643961
 20
23.7703842433
 10
0.0059951676
 20
23.7813865083
 10
0.0063842731
 20
23.7922133395
 10
0.0070317123
 20
23.8028647368
 10
0.0079383228
 20
23.81334763
 10
0.0091032671
 20
23.8236550894
 10
0.0105240332
 20
23.8337663255
 10
0.0122012073
 20
23.8436815356
 10
0.0141342032
 20
23.8534005224
 10
0.01631875
 20
23.8629019044
 10
0.0187534242
 20
23.8721785545
 10
0.0214396494
 20
23.8812375998
 10
0.0243774255
 20
23.8900790404
  0
LWPOLYLINE
  5
328
100
AcDbEntity
  8
RACCORDO
100
AcDbPolyline
 62
253
  6
CONTINUOUS
 90
28
 70
0
 10
-0.4613382191
 20
13.9639906556
 10
-0.4610411545
 20
13.9759905702
 10
-0.4601509554
 20
13.9882932378
 10
-0.4586706078
 20
14.0008573128
 10
-0.4566050774
 20
14.0136405922
 10
-0.4539613025
 20
14.0266000926
 10
-0.450748181
 20
14.0396921917
 10
-0.4469765213
 20
14.0528728671
 10
-0.4426589984
 20
14.0660978379
 10
-0.4378101299
 20
14.0793226459
 10
-0.4324462073
 20
14.0925028649
 10
-0.4265852697
 20
14.1055941763
 10
-0.4202470551
 20
14.1185525107
 10
-0.4134529157
 20
14.1313342503
 10
-0.4062256618
 20
14.1438965159
 10
-0.398589505
 20
14.1561972304
 10
-0.3905699391
 20
14.1681952907
 10
-0.3821940637
 20
14.1798501186
 10
-0.3734904643
 20
14.1911219923
 10
-0.3644887275
 20
14.201972746
 10
-0.3552188647
 20
14.2123663496
 10
-0.3457116039
 20
14.222268402
 10
-0.3359959921
 20
14.2316483219
 10
-0.326107464
 20
14.2404715771
 10
-0.3160877208
 20
14.2487018511
 10
-0.3059735429
 20
14.2563109856
 10
-0.2957962369
 20
14.2632774579
 10
-0.2855899631
 20
14.2695796108
  0
LWPOLYLINE
  5
329
100
AcDbEntity
  8
RACCORDO
100
AcDbPolyline
 62
7
  6
CONTINUOUS
 90
5
 70
0
 10
-15.469654156
 20
-10.6403374856
 10
-15.4727488552
 20
-10.6427329815
 10
-15.4930665797
 20
-10.6616429855
 10
-15.5118244881
 20
-10.6825834055
 10
-15.5289028838
 20
-10.7055118911
  0
LINE
  5
32A
100
AcDbEntity
  8
RACCORDO
100
AcDbLine
 62
7
  6
CONTINUOUS
 10
3.0376755352
 20
3.293780889
 11
2.7820938722
 21
3.145658853
  0
LINE
  5
32B
100
AcDbEntity
  8
DRAFT
100
AcDbLine
 62
7
  6
CONTINUOUS
 10
2.7820938722
 20
1.8859438454
 11
2.0926647605
 21
1.5715452388
  0
LWPOLYLINE
  5
32C
100
AcDbEntity
  8
RACCORDO
100
AcDbPolyline
 62
253
  6
CONTINUOUS
 90
13
 70
0
 10
-7.3295330988
 20
3.4473916642
 10
-7.3139760082
 20
3.4393038045
 10
-7.2970399214
 20
3.4321991504
 10
-7.2789103828
 20
3.4261555461
 10
-7.2597860131
 20
3.4212392115
 10
-7.2398763365
 20
3.4175040171
 10
-7.2193994858
 20
3.4149908933
 10
-7.1985798052
 20
3.4137273804
 10
-7.1776453991
 20
3.4137273284
 10
-7.1568256369
 20
3.4149907434
 10
-7.1363486255
 20
3.4175037883
 10
-7.1164387197
 20
3.4212389345
 10
-7.0973140706
 20
3.4261552608
  0
LWPOLYLINE
  5
32D
100
AcDbEntity
  8
RACCORDO
100
AcDbPolyline
 62
253
  6
CONTINUOUS
 90
22
 70
0
 10
-15.3198397262
 20
8.3058356518
 10
-15.3357732763
 20
8.3143338214
 10
-15.3514648055
 20
8.3213583511
 10
-15.3669143137
 20
8.3269092412
 10
-15.3822114143
 20
8.3310052693
 10
-15.3972664939
 20
8.3336276578
 10
-15.4118107124
 20
8.3347200727
 10
-15.4258316098
 20
8.3342522679
 10
-15.4393416461
 20
8.3322544897
 10
-15.4521093607
 20
8.3287611429
 10
-15.4641185498
 20
8.3237481735
 10
-15.4753854172
 20
8.3172396355
 10
-15.4857271139
 20
8.309342096
 10
-15.4951305301
 20
8.300030344
 10
-15.5036087757
 20
8.2893295904
 10
-15.5110183306
 20
8.2774220346
 10
-15.517340035
 20
8.26428031
 10
-15.5225930488
 20
8.2499317831
 10
-15.5266913322
 20
8.2346407535
 10
-15.5296062054
 20
8.2184953208
 10
-15.5313663482
 20
8.2014073852
 10
-15.5319717606
 20
8.1833769468
  0
LINE
  5
32E
100
AcDbEntity
  8
RACCORDO
100
AcDbLine
 62
253
  6
CONTINUOUS
 10
-7.5416651332
 20
3.8148151252
 11
-15.3198397262
 21
8.3058356518
  0
LINE
  5
32F
100
AcDbEntity
  8
RACCORDO
100
AcDbLine
 62
7
  6
CONTINUOUS
 10
-15.1813250235
 20
8.5492199098
 11
-7.40295377
 21
4.0580858339
  0
LWPOLYLINE
  5
330
100
AcDbEntity
  8
RACCORDO
100
AcDbPolyline
 62
7
  6
CONTINUOUS
 90
25
 70
0
 10
-7.40295377
 20
4.0580858339
 10
-7.3796880719
 20
4.0437218282
 10
-7.3567587207
 20
4.0277937649
 10
-7.3341656879
 20
4.0103016594
 10
-7.3118151539
 20
3.9911573035
 10
-7.2898008245
 20
3.9704489675
 10
-7.2684039362
 20
3.9484413976
 10
-7.24763241
 20
3.9251179507
 10
-7.2274781147
 20
3.9004953844
 10
-7.2081982025
 20
3.8748885502
 10
-7.1898038567
 20
3.8482849052
 10
-7.1722836194
 20
3.8206971419
 10
-7.1558606981
 20
3.7924779555
 10
-7.1405491981
 20
3.7636196135
 10
-7.126334717
 20
3.7341300103
 10
-7.1133977444
 20
3.7043852574
 10
-7.1017545213
 20
3.67438225
 10
-7.0913885325
 20
3.6441242425
 10
-7.0824312044
 20
3.6139968463
 10
-7.0749004649
 20
3.58400199
 10
-7.0687781766
 20
3.5541378595
 10
-7.0641417623
 20
3.5247844007
 10
-7.0610170159
 20
3.4960682697
 10
-7.0593780428
 20
3.4678628656
 10
-7.0592247857
 20
3.4401682198
  0
LWPOLYLINE
  5
331
100
AcDbEntity
  8
RACCORDO
100
AcDbPolyline
 62
253
  6
CONTINUOUS
 90
9
 70
0
 10
-15.5319717606
 20
8.1833769468
 10
-15.5459795966
 20
8.1923595241
 10
-15.5582845179
 20
8.2021383149
 10
-15.5687517092
 20
8.2126061805
 10
-15.5772664896
 20
8.2236484329
 10
-15.5837355696
 20
8.2351440909
 10
-15.5880880724
 20
8.2469672055
 10
-15.5902763113
 20
8.2589882404
 10
-15.5905504043
 20
8.2650318655
  0
LWPOLYLINE
  5
332
100
AcDbEntity
  8
RACCORDO
100
AcDbPolyline
 62
7
  6
CONTINUOUS
 90
4
 70
0
 10
-1.7052271893
 20
22.6230973895
 10
-1.7052896915
 20
22.6236838666
 10
-1.7061087674
 20
22.6249418262
 10
-1.7064402984
 20
22.625161705
  0
LWPOLYLINE
  5
333
100
AcDbEntity
  8
RACCORDO
100
AcDbPolyline
 62
253
  6
CONTINUOUS
 90
31
 70
0
 10
1.2161684204
 20
13.1983690267
 10
1.2158734435
 20
13.2091610961
 10
1.2150975903
 20
13.2202049602
 10
1.2138429872
 20
13.2314703499
 10
1.2121130729
 20
13.2429263888
 10
1.2099125887
 20
13.2545416782
 10
1.2072475658
 20
13.2662843827
 10
1.2041253085
 20
13.2781223178
 10
1.2005543743
 20
13.2900230378
 10
1.1965445505
 20
13.3019539252
 10
1.1921068272
 20
13.3138822797
 10
1.1872533675
 20
13.3257754077
 10
1.1819974737
 20
13.3376007126
 10
1.1763535512
 20
13.3493257833
 10
1.170337069
 20
13.3609184837
 10
1.1639645171
 20
13.3723470403
 10
1.1572533616
 20
13.3835801296
 10
1.1502219964
 20
13.3945869639
 10
1.1428896931
 20
13.4053373754
 10
1.1352765483
 20
13.4158018992
 10
1.1274034282
 20
13.4259518542
 10
1.1192919114
 20
13.4357594211
 10
1.1109642302
 20
13.4451977192
 10
1.1024432091
 20
13.4542408801
 10
1.0937522027
 20
13.4628641179
 10
1.0849150314
 20
13.4710437982
 10
1.0759559162
 20
13.4787575019
 10
1.0668994123
 20
13.4859840871
 10
1.0577703421
 20
13.4927037472
 10
1.0485937264
 20
13.4988980649
 10
1.0393947167
 20
13.5045500626
  0
LWPOLYLINE
  5
334
100
AcDbEntity
  8
RACCORDO
100
AcDbPolyline
 62
253
  6
CONTINUOUS
 90
17
 70
0
 10
0.8636464607
 20
12.8784409346
 10
0.8638653319
 20
12.8684131784
 10
0.8645218876
 20
12.8586576829
 10
0.8656152253
 20
12.849199113
 10
0.8671436751
 20
12.840059809
 10
0.8691039937
 20
12.8312648202
 10
0.8714905768
 20
12.8228411789
 10
0.8742969096
 20
12.8148113387
 10
0.8775164267
 20
12.8071936255
 10
0.8811411958
 20
12.8000068465
 10
0.8851622789
 20
12.7932688182
 10
0.8895696521
 20
12.7869964235
 10
0.8943522799
 20
12.781205397
 10
0.8994982528
 20
12.7759101571
 10
0.9049947817
 20
12.7711238616
 10
0.910828125
 20
12.7668584631
 10
0.9154170932
 20
12.7640067325
  0
LWPOLYLINE
  5
335
100
AcDbEntity
  8
RACCORDO
100
AcDbPolyline
 62
7
  6
CONTINUOUS
 90
21
 70
0
 10
0.9436162411
 20
21.7886690639
 10
0.9430430567
 20
21.8211081566
 10
0.9413439437
 20
21.8527467593
 10
0.9385189021
 20
21.8835848721
 10
0.9345584676
 20
21.9136748594
 10
0.9294721044
 20
21.9429643568
 10
0.9232882061
 20
21.9712962707
 10
0.9160055906
 20
21.9986526259
 10
0.90762544
 20
22.0250513976
 10
0.8981796927
 20
22.0503894183
 10
0.8876558342
 20
22.0746781765
 10
0.8760663792
 20
22.0979061836
 10
0.8634808104
 20
22.1199358071
 10
0.8499056246
 20
22.1407438951
 10
0.835334325
 20
22.1603535995
 10
0.819816905
 20
22.178696743
 10
0.8033336176
 20
22.1957835196
 10
0.7859042098
 20
22.2116037352
 10
0.7676379151
 20
22.2260586313
 10
0.7485492592
 20
22.2391281437
 10
0.7365342615
 20
22.246407036
  0
LINE
  5
336
100
AcDbEntity
  8
ASSI
100
AcDbLine
 62
7
  6
CONTINUOUS
 10
0.8440317801
 20
24.399823619
 11
0.8440317801
 21
24.471044226
  0
LINE
  5
337
100
AcDbEntity
  8
RACCORDO
100
AcDbLine
 62
253
  6
CONTINUOUS
 10
0.8636464607
 20
-26.3784650253
 11
0.8636464607
 21
-26.0579448525
  0
LINE
  5
338
100
AcDbEntity
  8
RACCORDO
100
AcDbLine
 62
253
  6
CONTINUOUS
 10
0.8636464607
 20
12.8784409346
 11
0.8636464607
 21
13.1989611074
  0
LINE
  5
339
100
AcDbEntity
  8
RACCORDO
100
AcDbLine
 62
7
  6
CONTINUOUS
 10
0.9436162411
 20
21.7886690639
 11
0.9436162411
 21
21.5333643246
  0
LINE
  5
33A
100
AcDbEntity
  8
RACCORDO
100
AcDbLine
 62
253
  6
CONTINUOUS
 10
1.2161684204
 20
-26.379057106
 11
1.2161684204
 21
-26.0585369331
  0
LINE
  5
33B
100
AcDbEntity
  8
RACCORDO
100
AcDbLine
 62
253
  6
CONTINUOUS
 10
1.2161684204
 20
12.8778488539
 11
1.2161684204
 21
13.1983690267
  0
LINE
  5
33C
100
AcDbEntity
  8
RACCORDO
100
AcDbLine
 62
253
  6
CONTINUOUS
 10
1.5748670688
 20
12.6802397416
 11
1.5748670688
 21
11.9851081734
  0
LINE
  5
33D
100
AcDbEntity
  8
RACCORDO
100
AcDbLine
 62
253
  6
CONTINUOUS
 10
1.5748670688
 20
-24.6766990127
 11
1.5748670688
 21
-25.0628088636
  0
LINE
  5
33E
100
AcDbEntity
  8
RACCORDO
100
AcDbLine
 62
253
  6
CONTINUOUS
 10
1.9273890285
 20
12.812358841
 11
1.9273890285
 21
12.0509381066
  0
LINE
  5
33F
100
AcDbEntity
  8
RACCORDO
100
AcDbLine
 62
253
  6
CONTINUOUS
 10
1.9273890285
 20
-24.550810216
 11
1.9273890285
 21
-25.1812482778
  0
LINE
  5
340
100
AcDbEntity
  8
DRAFT
100
AcDbLine
 62
7
  6
CONTINUOUS
 10
2.0794859431
 20
-6.7171619328
 11
2.0794859431
 21
-6.2332645696
  0
LINE
  5
341
100
AcDbEntity
  8
RACCORDO
100
AcDbLine
 62
7
  6
CONTINUOUS
 10
2.0926647605
 20
-6.8093826673
 11
2.0926647605
 21
-24.2408642047
  0
LINE
  5
342
100
AcDbEntity
  8
RACCORDO
100
AcDbLine
 62
7
  6
CONTINUOUS
 10
2.0926647605
 20
-6.1562624034
 11
2.0926647605
 21
11.275219134
  0
LWPOLYLINE
  5
343
100
AcDbEntity
  8
RACCORDO
100
AcDbPolyline
 62
253
  6
CONTINUOUS
 90
22
 70
0
 10
0.8636464607
 20
-26.0579448525
 10
0.8638653319
 20
-26.0476643494
 10
0.8645218876
 20
-26.0371506798
 10
0.8656152253
 20
-26.0264295509
 10
0.8671436751
 20
-26.0155252314
 10
0.8691039937
 20
-26.0044665158
 10
0.8714905768
 20
-25.9932869082
 10
0.8742969096
 20
-25.9820163853
 10
0.8775164267
 20
-25.9706808545
 10
0.8811411958
 20
-25.9593082828
 10
0.8851622789
 20
-25.9479268086
 10
0.8895696521
 20
-25.9365648898
 10
0.8943522799
 20
-25.9252510046
 10
0.8994982528
 20
-25.9140133242
 10
0.9049947817
 20
-25.9028797749
 10
0.910828125
 20
-25.8918781777
 10
0.9169837138
 20
-25.8810359751
 10
0.9234462691
 20
-25.8703800464
 10
0.9301997825
 20
-25.8599367752
 10
0.9372274824
 20
-25.8497321002
 10
0.944511864
 20
-25.8397914426
 10
0.9520348084
 20
-25.830139528
  0
LWPOLYLINE
  5
344
100
AcDbEntity
  8
RACCORDO
100
AcDbPolyline
 62
253
  6
CONTINUOUS
 90
28
 70
0
 10
0.8636464607
 20
13.1989611074
 10
0.8639435253
 20
13.210961022
 10
0.8648337244
 20
13.2232636896
 10
0.866314072
 20
13.2358277646
 10
0.8683796025
 20
13.2486110441
 10
0.8710233773
 20
13.2615705444
 10
0.8742364988
 20
13.2746626435
 10
0.8780081585
 20
13.287843319
 10
0.8823256814
 20
13.3010682897
 10
0.8871745499
 20
13.3142930978
 10
0.8925384725
 20
13.3274733168
 10
0.8983994102
 20
13.3405646281
 10
0.9047376247
 20
13.3535229625
 10
0.9115317641
 20
13.3663047022
 10
0.918759018
 20
13.3788669677
 10
0.9263951748
 20
13.3911676822
 10
0.9344147407
 20
13.4031657426
 10
0.9427906161
 20
13.4148205704
 10
0.9514942155
 20
13.4260924442
 10
0.9604959523
 20
13.4369431978
 10
0.9697658151
 20
13.4473368014
 10
0.9792730759
 20
13.4572388539
 10
0.9889886877
 20
13.4666187737
 10
0.9988772158
 20
13.4754420289
 10
1.008896959
 20
13.4836723029
 10
1.0190111369
 20
13.4912814375
 10
1.0291884429
 20
13.4982479098
 10
1.0393947167
 20
13.5045500626
  0
LWPOLYLINE
  5
345
100
AcDbEntity
  8
RACCORDO
100
AcDbPolyline
 62
253
  6
CONTINUOUS
 90
4
 70
0
 10
-7.4948731348
 20
-15.2238681337
 10
-7.4833691645
 20
-15.2064693518
 10
-7.470954455
 20
-15.1899921199
 10
-7.4632911978
 20
-15.1810589243
  0
LINE
  5
346
100
AcDbEntity
  8
RACCORDO
100
AcDbLine
 62
253
  6
CONTINUOUS
 10
-15.5875332298
 20
-10.872123413
 11
-15.6026826757
 21
-10.8811785543
  0
LWPOLYLINE
  5
347
100
AcDbEntity
  8
RACCORDO
100
AcDbPolyline
 62
7
  6
CONTINUOUS
 90
14
 70
0
 10
-15.5061463592
 20
-10.6564068371
 10
-15.5040277844
 20
-10.6551618882
 10
-15.4874624673
 20
-10.6468503442
 10
-15.4698083299
 20
-10.6403754145
 10
-15.4512906686
 20
-10.6358198171
 10
-15.4318985748
 20
-10.6332082183
 10
-15.4116432317
 20
-10.6325161164
 10
-15.3907830903
 20
-10.633752487
 10
-15.369310504
 20
-10.6369421016
 10
-15.3472333294
 20
-10.6420603146
 10
-15.3248332661
 20
-10.6490419717
 10
-15.3022042535
 20
-10.6578653786
 10
-15.279252466
 20
-10.6685522978
 10
-15.255977932
 20
-10.6811027464
  0
LWPOLYLINE
  5
348
100
AcDbEntity
  8
RACCORDO
100
AcDbPolyline
 62
253
  6
CONTINUOUS
 90
61
 70
0
 10
17.1873643649
 20
6.4725966296
 10
17.1935218969
 20
6.4756799867
 10
17.1997482109
 20
6.4785918367
 10
17.2060427523
 20
6.4813329559
 10
17.2123958745
 20
6.4839138326
 10
17.2188158928
 20
6.4863257445
 10
17.2253288902
 20
6.4885410122
 10
17.2319421076
 20
6.4905672226
 10
17.2386459531
 20
6.4923997119
 10
17.2454406425
 20
6.4939931464
 10
17.2523338343
 20
6.4953513352
 10
17.2593140815
 20
6.4964749644
 10
17.2663521931
 20
6.4973148318
 10
17.2734533194
 20
6.4978692426
 10
17.280606843
 20
6.4981461614
 10
17.2877593439
 20
6.4981114419
 10
17.2949016405
 20
6.4977618092
 10
17.3020361439
 20
6.4971081143
 10
17.3091265426
 20
6.4961376251
 10
17.3161541871
 20
6.494855311
 10
17.3231299582
 20
6.4932648163
 10
17.3300612414
 20
6.4913520658
 10
17.336937703
 20
6.489129291
 10
17.3437599161
 20
6.486595188
 10
17.3505499969
 20
6.4837172505
 10
17.3573069145
 20
6.4805073324
 10
17.3640183837
 20
6.4769687287
 10
17.3706871512
 20
6.4730589642
 10
17.3773133245
 20
6.4687866465
 10
17.3838790211
 20
6.4641637316
 10
17.3903575257
 20
6.4591556396
 10
17.3967430679
 20
6.4537714181
 10
17.403019516
 20
6.4480278733
 10
17.4091428335
 20
6.4419041798
 10
17.4150920658
 20
6.4354304749
 10
17.4208634635
 20
6.4286065702
 10
17.4264354119
 20
6.4213702753
 10
17.4317962328
 20
6.4137541542
 10
17.4369248542
 20
6.405766488
 10
17.4417785632
 20
6.3973172982
 10
17.4463456409
 20
6.3884452132
 10
17.4505932331
 20
6.3791689256
 10
17.4544372383
 20
6.3693807674
 10
17.4578628175
 20
6.3591219736
 10
17.4608246601
 20
6.3484314452
 10
17.4631825905
 20
6.3372115509
 10
17.4649114807
 20
6.3254943288
 10
17.4659602546
 20
6.3133538237
 10
17.4661453589
 20
6.3007618342
 10
17.4654158634
 20
6.2877159515
 10
17.4637409198
 20
6.2743395705
 10
17.4609831703
 20
6.2607721448
 10
17.4570502021
 20
6.2469454521
 10
17.4519799187
 20
6.2330189055
 10
17.44588597
 20
6.2193955657
 10
17.4388182273
 20
6.2061627069
 10
17.430763998
 20
6.1931942516
 10
17.4217832349
 20
6.180514741
 10
17.411884091
 20
6.1681019765
 10
17.4010867165
 20
6.155949419
 10
17.3894725748
 20
6.1440992694
  0
LINE
  5
349
100
AcDbEntity
  8
DRAFT
100
AcDbLine
 62
7
  6
CONTINUOUS
 10
2.0926647605
 20
0.4705603585
 11
3.878109383
 21
1.2531182257
  0
LWPOLYLINE
  5
34A
100
AcDbEntity
  8
RACCORDO
100
AcDbPolyline
 62
253
  6
CONTINUOUS
 90
3
 70
0
 10
-7.1568248496
 20
0.5573448402
 10
-7.1363479335
 20
0.5598579208
 10
-7.1171468188
 20
0.5634601375
  0
LWPOLYLINE
  5
34B
100
AcDbEntity
  8
RACCORDO
100
AcDbPolyline
 62
7
  6
CONTINUOUS
 90
17
 70
0
 10
-13.1226634292
 20
20.4712780796
 10
-13.1313387765
 20
20.4825600842
 10
-13.1395316165
 20
20.4936899267
 10
-13.1472234392
 20
20.5046525963
 10
-13.1543902998
 20
20.5154085307
 10
-13.1610244497
 20
20.5259655849
 10
-13.1671290966
 20
20.5363809782
 10
-13.1726883089
 20
20.5466438906
 10
-13.1776835841
 20
20.5567345514
 10
-13.1821079942
 20
20.5666984878
 10
-13.1859429201
 20
20.5765159882
 10
-13.1891741269
 20
20.5861740438
 10
-13.1917940267
 20
20.5957289816
 10
-13.1937854542
 20
20.6051731133
 10
-13.1951272296
 20
20.6144786814
 10
-13.1958029687
 20
20.6236713787
 10
-13.1958867339
 20
20.6281744619
  0
LWPOLYLINE
  5
34C
100
AcDbEntity
  8
RACCORDO
100
AcDbPolyline
 62
7
  6
CONTINUOUS
 90
34
 70
0
 10
3.1601385829
 20
12.0324388374
 10
3.1594172182
 20
12.0507041017
 10
3.1579616413
 20
12.0693728341
 10
3.1557737553
 20
12.0884023737
 10
3.1528560186
 20
12.1077487715
 10
3.1492147559
 20
12.1273682391
 10
3.1448602014
 20
12.1472172305
 10
3.1398009517
 20
12.1672503392
 10
3.1340471343
 20
12.1874216681
 10
3.1276137942
 20
12.2076862637
 10
3.1205143703
 20
12.2279977436
 10
3.1127637106
 20
12.2483095318
 10
3.1043813681
 20
12.2685762092
 10
3.0953853517
 20
12.2887513911
 10
3.0857949271
 20
12.3087887976
 10
3.0756337566
 20
12.3286434954
 10
3.0649240484
 20
12.3482700704
 10
3.0536890869
 20
12.3676235144
 10
3.0419561511
 20
12.3866603299
 10
3.0297511864
 20
12.4053370296
 10
3.0171010089
 20
12.423610825
 10
3.0040359414
 20
12.4414405762
 10
2.9905851221
 20
12.4587856384
 10
2.9767783347
 20
12.4756063445
 10
2.962648305
 20
12.4918647829
 10
2.9482267511
 20
12.5075240052
 10
2.9335457952
 20
12.5225482997
 10
2.9186398679
 20
12.5369037867
 10
2.9035489604
 20
12.5505525145
 10
2.8883006284
 20
12.5634695747
 10
2.8729107783
 20
12.5756403642
 10
2.8574075078
 20
12.5870389957
 10
2.841831698
 20
12.5976314642
 10
2.8262185724
 20
12.6073906674
  0
LWPOLYLINE
  5
34D
100
AcDbEntity
  8
RACCORDO
100
AcDbPolyline
 62
7
  6
CONTINUOUS
 90
19
 70
0
 10
3.41791424
 20
14.5294157552
 10
3.4175146265
 20
14.5435453135
 10
3.4163063745
 20
14.557723807
 10
3.4142790403
 20
14.5718938101
 10
3.4114260608
 20
14.5860019109
 10
3.4077481647
 20
14.5999826628
 10
3.4032561543
 20
14.6137613737
 10
3.3979675055
 20
14.6272702132
 10
3.3918971414
 20
14.6404637616
 10
3.3850579233
 20
14.6533053061
 10
3.3774801655
 20
14.6657320153
 10
3.3691862039
 20
14.6777046501
 10
3.3601692621
 20
14.689221908
 10
3.3504273612
 20
14.7002635247
 10
3.3400150656
 20
14.7107477871
 10
3.3290081822
 20
14.7205930075
 10
3.3174386901
 20
14.7297715352
 10
3.3053472627
 20
14.7382510115
 10
3.2929204287
 20
14.745918533
  0
LWPOLYLINE
  5
34E
100
AcDbEntity
  8
RACCORDO
100
AcDbPolyline
 62
7
  6
CONTINUOUS
 90
34
 70
0
 10
2.8174492112
 20
14.122927453
 10
2.8172491552
 20
14.1327552961
 10
2.8166489177
 20
14.1427919726
 10
2.8156499597
 20
14.1530148083
 10
2.8142547242
 20
14.1634007532
 10
2.8124663759
 20
14.173926285
 10
2.8102887946
 20
14.1845674617
 10
2.8077269701
 20
14.1953002139
 10
2.8047867958
 20
14.2061002826
 10
2.8014748008
 20
14.2169431245
 10
2.7977985237
 20
14.2278042003
 10
2.7937663635
 20
14.2386589485
 10
2.7893873662
 20
14.2494827249
 10
2.7846714656
 20
14.2602510199
 10
2.7796293956
 20
14.27093947
 10
2.774272535
 20
14.2815238319
 10
2.7686130107
 20
14.2919801253
 10
2.7626636728
 20
14.3022846808
 10
2.756438001
 20
14.3124141508
 10
2.7499500685
 20
14.3223455723
 10
2.7432145797
 20
14.3320564526
 10
2.7362468404
 20
14.3415248154
 10
2.7290625834
 20
14.350729183
 10
2.7216780677
 20
14.3596486974
 10
2.7141101134
 20
14.3682632018
 10
2.7063757919
 20
14.3765531413
 10
2.6984925859
 20
14.384499717
 10
2.6904784865
 20
14.3920850025
 10
2.6823515561
 20
14.3992917636
 10
2.6741301451
 20
14.4061036434
 10
2.6658330483
 20
14.4125053104
 10
2.657479055
 20
14.4184822617
 10
2.6490869058
 20
14.4240208556
 10
2.6406755075
 20
14.4291084889
  0
LWPOLYLINE
  5
34F
100
AcDbEntity
  8
RACCORDO
100
AcDbPolyline
 62
253
  6
CONTINUOUS
 90
31
 70
0
 10
3.345716383
 20
14.4279426422
 10
3.3455272622
 20
14.4387690696
 10
3.3448530789
 20
14.449849788
 10
3.343694763
 20
14.4611549712
 10
3.3420541815
 20
14.4726565069
 10
3.3399351193
 20
14.4843208671
 10
3.3373442678
 20
14.4961088998
 10
3.3342894505
 20
14.5079856734
 10
3.3307785284
 20
14.5199211896
 10
3.3268210109
 20
14.5318830615
 10
3.3224276225
 20
14.5438387261
 10
3.3176104462
 20
14.55575517
 10
3.3123828195
 20
14.5675993599
 10
3.3067591546
 20
14.5793386693
 10
3.3007548093
 20
14.5909410646
 10
3.2943861933
 20
14.6023748329
 10
3.2876707335
 20
14.6136086668
 10
3.2806268633
 20
14.6246117119
 10
3.2732739204
 20
14.6353537523
 10
3.2656320736
 20
14.6458053196
 10
3.257722267
 20
14.6559377664
 10
3.2495661908
 20
14.6657233036
 10
3.2411862064
 20
14.6751350988
 10
3.2326052925
 20
14.6841473408
 10
3.2238469857
 20
14.6927353075
 10
3.2149352954
 20
14.7008754545
 10
3.2058946635
 20
14.7085454541
 10
3.196749906
 20
14.7157242538
 10
3.1875261076
 20
14.7223921659
 10
3.1782485522
 20
14.7285309171
 10
3.1689426793
 20
14.7341236781
  0
LWPOLYLINE
  5
350
100
AcDbEntity
  8
RACCORDO
100
AcDbPolyline
 62
7
  6
CONTINUOUS
 90
9
 70
0
 10
3.3477482819
 20
26.0039790726
 10
3.3476202551
 20
26.0179445648
 10
3.3473952167
 20
26.0319481675
 10
3.3470798196
 20
26.0459847042
 10
3.3466674108
 20
26.0600593514
 10
3.3461380321
 20
26.0741876385
 10
3.3454850305
 20
26.0883747421
 10
3.3447150589
 20
26.1026154855
 10
3.3438281173
 20
26.1169098689
  0
LINE
  5
351
100
AcDbEntity
  8
DRAFT
100
AcDbLine
 62
7
  6
CONTINUOUS
 10
2.7820938722
 20
-16.0764022441
 11
2.7820938722
 21
-12.939647197
  0
LINE
  5
352
100
AcDbEntity
  8
DRAFT
100
AcDbLine
 62
7
  6
CONTINUOUS
 10
2.7820938722
 20
1.8859438454
 11
2.7820938722
 21
5.0226988924
  0
LINE
  5
353
100
AcDbEntity
  8
RACCORDO
100
AcDbLine
 62
7
  6
CONTINUOUS
 10
2.8174492112
 20
-24.115710066
 11
2.8174492112
 21
-25.4758878801
  0
LINE
  5
354
100
AcDbEntity
  8
RACCORDO
100
AcDbLine
 62
7
  6
CONTINUOUS
 10
2.8174492112
 20
12.6124539866
 11
2.8174492112
 21
14.122927453
  0
LINE
  5
355
100
AcDbEntity
  8
DRAFT
100
AcDbLine
 62
7
  6
CONTINUOUS
 10
3.0376755352
 20
-16.2239718931
 11
3.0376755352
 21
-12.7666555733
  0
LINE
  5
356
100
AcDbEntity
  8
DRAFT
100
AcDbLine
 62
7
  6
CONTINUOUS
 10
3.0376755352
 20
1.7383741963
 11
3.0376755352
 21
5.1956905161
  0
LINE
  5
357
100
AcDbEntity
  8
RACCORDO
100
AcDbLine
 62
253
  6
CONTINUOUS
 10
3.345716383
 20
14.4279426422
 11
3.345716383
 21
14.1002973417
  0
LINE
  5
358
100
AcDbEntity
  8
RACCORDO
100
AcDbLine
 62
253
  6
CONTINUOUS
 10
3.345716383
 20
-24.8360884453
 11
3.345716383
 21
-25.1637337458
  0
LINE
  5
359
100
AcDbEntity
  8
RACCORDO
100
AcDbLine
 62
7
  6
CONTINUOUS
 10
3.3477482819
 20
26.0039790726
 11
3.3477792971
 21
25.9128230996
  0
LINE
  5
35A
100
AcDbEntity
  8
RACCORDO
100
AcDbLine
 62
7
  6
CONTINUOUS
 10
3.41791424
 20
14.5294157552
 11
3.41791424
 21
14.2017704547
  0
LINE
  5
35B
100
AcDbEntity
  8
RACCORDO
100
AcDbLine
 62
7
  6
CONTINUOUS
 10
3.4179094288
 20
-24.7330643913
 11
3.41791424
 21
-25.0622606328
  0
LINE
  5
35C
100
AcDbEntity
  8
RACCORDO
100
AcDbLine
 62
253
  6
CONTINUOUS
 10
3.7284361484
 20
19.3797376907
 11
3.7284361484
 21
18.2238729365
  0
LINE
  5
35D
100
AcDbEntity
  8
RACCORDO
100
AcDbLine
 62
7
  6
CONTINUOUS
 10
3.8497285481
 20
19.4157385262
 11
3.8497285481
 21
18.3922490917
  0
LINE
  5
35E
100
AcDbEntity
  8
DRAFT
100
AcDbLine
 62
7
  6
CONTINUOUS
 10
3.878109383
 20
12.4256519672
 11
3.878109383
 21
5.76454203
  0
LINE
  5
35F
100
AcDbEntity
  8
DRAFT
100
AcDbLine
 62
7
  6
CONTINUOUS
 10
3.878109383
 20
1.2531182257
 11
3.878109383
 21
-12.1978040595
  0
LINE
  5
360
100
AcDbEntity
  8
RACCORDO
100
AcDbLine
 62
7
  6
CONTINUOUS
 10
3.878109383
 20
8.9560740968
 11
3.878109383
 21
-19.9007599306
  0
LINE
  5
361
100
AcDbEntity
  8
DRAFT
100
AcDbLine
 62
7
  6
CONTINUOUS
 10
3.878109383
 20
-16.7092278637
 11
3.878109383
 21
-23.3703378009
  0
LWPOLYLINE
  5
362
100
AcDbEntity
  8
RACCORDO
100
AcDbPolyline
 62
253
  6
CONTINUOUS
 90
15
 70
0
 10
3.41791424
 20
14.5294157552
 10
3.4178292748
 20
14.5256527409
 10
3.4170320374
 20
14.5172999286
 10
3.4153980948
 20
14.5089878095
 10
3.412932935
 20
14.5007443012
 10
3.4096448377
 20
14.4925970909
 10
3.4055448464
 20
14.4845735424
 10
3.4006467317
 20
14.4767006043
 10
3.3949669448
 20
14.469004719
 10
3.3885245622
 20
14.4615117347
 10
3.3813412218
 20
14.4542468177
 10
3.37344105
 20
14.4472343686
 10
3.3648505809
 20
14.4404979398
 10
3.3555986672
 20
14.4340601569
 10
3.345716383
 20
14.4279426422
  0
LWPOLYLINE
  5
363
100
AcDbEntity
  8
RACCORDO
100
AcDbPolyline
 62
253
  6
CONTINUOUS
 90
15
 70
0
 10
3.41791424
 20
14.2017704547
 10
3.4178284888
 20
14.1979900768
 10
3.4170293304
 20
14.1896360869
 10
3.4153932047
 20
14.1813227684
 10
3.412925613
 20
14.1730781486
 10
3.409634964
 20
14.1649301861
 10
3.4055324871
 20
14.1569064132
 10
3.4006319788
 20
14.1490335951
 10
3.3949497807
 20
14.1413379169
 10
3.38850411
 20
14.1338442872
 10
3.3813172972
 20
14.126578876
 10
3.3734163782
 20
14.1195685021
 10
3.3648296605
 20
14.1128371946
 10
3.3555857746
 20
14.1064063973
 10
3.345716383
 20
14.1002973417
  0
LWPOLYLINE
  5
364
100
AcDbEntity
  8
RACCORDO
100
AcDbPolyline
 62
253
  6
CONTINUOUS
 90
15
 70
0
 10
3.4179142394
 20
-24.7346251458
 10
3.4178284888
 20
-24.7383957102
 10
3.4170293304
 20
-24.7467497001
 10
3.4153932047
 20
-24.7550630186
 10
3.412925613
 20
-24.7633076384
 10
3.409634964
 20
-24.7714556009
 10
3.4055324871
 20
-24.7794793738
 10
3.4006319788
 20
-24.7873521919
 10
3.3949497807
 20
-24.7950478702
 10
3.38850411
 20
-24.8025414998
 10
3.3813172972
 20
-24.8098069111
 10
3.3734163782
 20
-24.8168172849
 10
3.3648296605
 20
-24.8235485925
 10
3.3555857746
 20
-24.8299793897
 10
3.345716383
 20
-24.8360884453
  0
LWPOLYLINE
  5
365
100
AcDbEntity
  8
RACCORDO
100
AcDbPolyline
 62
7
  6
CONTINUOUS
 90
21
 70
0
 10
3.41791424
 20
-25.0622606059
 10
3.4176415966
 20
-25.0739331372
 10
3.4167133482
 20
-25.0867351855
 10
3.4151273138
 20
-25.0994855722
 10
3.4128838733
 20
-25.1121593175
 10
3.4099851577
 20
-25.1247239885
 10
3.4064358148
 20
-25.1371435972
 10
3.4022407372
 20
-25.1493875097
 10
3.3974069826
 20
-25.1614225261
 10
3.3919441328
 20
-25.1732138081
 10
3.3858629536
 20
-25.1847284172
 10
3.3791763039
 20
-25.1959331444
 10
3.3718988175
 20
-25.2067953765
 10
3.3640464335
 20
-25.2172837365
 10
3.3556359303
 20
-25.2273683764
 10
3.3466883877
 20
-25.2370170465
 10
3.3372293359
 20
-25.2461964865
 10
3.3272829554
 20
-25.2548784216
 10
3.3168744085
 20
-25.2630362992
 10
3.306034076
 20
-25.27064228
 10
3.2950954523
 20
-25.2774929241
  0
LWPOLYLINE
  5
366
100
AcDbEntity
  8
RACCORDO
100
AcDbPolyline
 62
7
  6
CONTINUOUS
 90
18
 70
0
 10
3.1601385829
 20
-23.7777721002
 10
3.1594172182
 20
-23.7959892691
 10
3.1579616413
 20
-23.8137251036
 10
3.1557737553
 20
-23.8309399498
 10
3.1528560186
 20
-23.8475960401
 10
3.1492147559
 20
-23.86365536
 10
3.1448602014
 20
-23.8790797797
 10
3.1398009517
 20
-23.8938347832
 10
3.1340471343
 20
-23.9078873838
 10
3.1276137942
 20
-23.9212040664
 10
3.1205143703
 20
-23.9337550456
 10
3.1127637106
 20
-23.9455123131
 10
3.1043813681
 20
-23.9564476872
 10
3.0953853517
 20
-23.9665367487
 10
3.0857949271
 20
-23.9757570646
 10
3.0756337566
 20
-23.98408639
 10
3.0649240484
 20
-23.9915061935
 10
3.0582828748
 20
-23.9954928703
  0
LWPOLYLINE
  5
367
100
AcDbEntity
  8
RACCORDO
100
AcDbPolyline
 62
7
  6
CONTINUOUS
 90
16
 70
0
 10
17.187364721
 20
7.8873921445
 10
17.1799226574
 20
7.885609116
 10
17.1726078862
 20
7.8841682591
 10
17.1654204075
 20
7.8830695737
 10
17.1583521295
 20
7.8823153197
 10
17.1514111439
 20
7.8819032372
 10
17.1446217262
 20
7.8818265472
 10
17.1379875999
 20
7.8820910028
 10
17.1315050415
 20
7.8826908509
 10
17.1251871552
 20
7.8836020535
 10
17.1190386767
 20
7.8848290865
 10
17.1130548703
 20
7.8863674741
 10
17.1072346329
 20
7.8881797509
 10
17.1015775968
 20
7.8902534285
 10
17.0960841298
 20
7.8926009955
 10
17.0907542318
 20
7.8952224516
  0
LINE
  5
368
100
AcDbEntity
  8
DRAFT
100
AcDbLine
 62
7
  6
CONTINUOUS
 10
3.878109383
 20
1.2531182257
 11
2.7820938722
 21
1.8859438454
  0
LINE
  5
369
100
AcDbEntity
  8
RACCORDO
100
AcDbLine
 62
253
  6
CONTINUOUS
 10
-3.7081770016
 20
7.4071528436
 11
-18.5593077585
 21
15.9820096142
  0
LWPOLYLINE
  5
36A
100
AcDbEntity
  8
RACCORDO
100
AcDbPolyline
 62
253
  6
CONTINUOUS
 90
9
 70
0
 10
-18.5593077582
 20
15.9820096144
 10
-18.5939639229
 20
16.0040840166
 10
-18.6244637953
 20
16.0279280416
 10
-18.650480584
 20
16.0532862123
 10
-18.671735532
 20
16.0798868285
 10
-18.688000903
 20
16.1074448775
 10
-18.6991024215
 20
16.1356650884
 10
-18.7049211403
 20
16.1642450954
 10
-18.7057645259
 20
16.1861783022
  0
LWPOLYLINE
  5
36B
100
AcDbEntity
  8
RACCORDO
100
AcDbPolyline
 62
253
  6
CONTINUOUS
 90
12
 70
0
 10
-10.0186017815
 20
21.8166871556
 10
-10.0138016584
 20
21.8095778831
 10
-10.009617118
 20
21.8028346599
 10
-10.0060622669
 20
21.7964802185
 10
-10.0031490893
 20
21.7905359808
 10
-10.000887406
 20
21.7850219859
 10
-9.9992848413
 20
21.7799568222
 10
-9.9983467979
 20
21.7753575654
 10
-9.998076438
 20
21.7712397203
 10
-9.9984746732
 20
21.7676171688
 10
-9.9995401607
 20
21.7645021231
 10
-10.0009017809
 20
21.7623433508
  0
LWPOLYLINE
  5
36C
100
AcDbEntity
  8
RACCORDO
100
AcDbPolyline
 62
7
  6
CONTINUOUS
 90
4
 70
0
 10
3.8497285481
 20
19.4157360992
 10
3.8496863366
 20
19.4162230625
 10
3.8489325922
 20
19.417510897
 10
3.8485154134
 20
19.4177993256
  0
LWPOLYLINE
  5
36D
100
AcDbEntity
  8
RACCORDO
100
AcDbPolyline
 62
253
  6
CONTINUOUS
 90
14
 70
0
 10
3.4178259689
 20
-25.0660397051
 10
3.4170368304
 20
-25.0743435596
 10
3.415405533
 20
-25.0826585144
 10
3.4129424447
 20
-25.0909049809
 10
3.4096558437
 20
-25.0990551991
 10
3.4055567763
 20
-25.1070817642
 10
3.4006590082
 20
-25.1149577113
 10
3.3949789988
 20
-25.1226565633
 10
3.3885358241
 20
-25.1301524543
 10
3.3813511425
 20
-25.137420179
 10
3.3734491373
 20
-25.1444352763
 10
3.3648563876
 20
-25.1511741606
 10
3.3556017663
 20
-25.1576141976
 10
3.345716383
 20
-25.1637337458
  0
LINE
  5
36E
100
AcDbEntity
  8
RACCORDO
100
AcDbLine
 62
253
  6
CONTINUOUS
 10
17.3770687244
 20
6.1325419653
 11
17.3739790661
 21
6.1298958287
  0
LINE
  5
36F
100
AcDbEntity
  8
DRAFT
100
AcDbLine
 62
7
  6
CONTINUOUS
 10
17.3731834602
 20
6.1270303278
 11
18.337609872
 21
6.8310534653
  0
LINE
  5
370
100
AcDbEntity
  8
RACCORDO
100
AcDbLine
 62
253
  6
CONTINUOUS
 10
1.8805327249
 20
-6.4419871843
 11
-3.6609610175
 21
-9.5866758255
  0
LINE
  5
371
100
AcDbEntity
  8
RACCORDO
100
AcDbLine
 62
253
  6
CONTINUOUS
 10
-3.3093347671
 20
-9.1147909965
 11
2.0926647605
 21
-6.1562624034
  0
LINE
  5
372
100
AcDbEntity
  8
RACCORDO
100
AcDbLine
 62
7
  6
CONTINUOUS
 10
-3.4162700268
 20
-9.2766669968
 11
-3.416348844
 21
-9.2767101704
  0
LINE
  5
373
100
AcDbEntity
  8
RACCORDO
100
AcDbLine
 62
7
  6
CONTINUOUS
 10
-3.4163751808
 20
-9.2767245956
 11
2.0285832267
 21
-6.2946685894
  0
LWPOLYLINE
  5
374
100
AcDbEntity
  8
RACCORDO
100
AcDbPolyline
 62
253
  6
CONTINUOUS
 90
16
 70
0
 10
-3.3093522697
 20
-9.1147853514
 10
-3.3483759312
 20
-9.1341795549
 10
-3.3907032174
 20
-9.1511770185
 10
-3.4358805984
 20
-9.1655897511
 10
-3.4834239974
 20
-9.1772571183
 10
-3.5328239786
 20
-9.1860476233
 10
-3.5835512054
 20
-9.1918603765
 10
-3.6350621105
 20
-9.1946262348
 10
-3.6868047223
 20
-9.1943086131
 10
-3.7382245795
 20
-9.1909039438
 10
-3.7887706706
 20
-9.1844417876
 10
-3.8379013389
 20
-9.1749845317
 10
-3.885090088
 20
-9.1626267986
 10
-3.929831223
 20
-9.1474945613
 10
-3.9716452705
 20
-9.1297438451
 10
-4.0100841169
 20
-9.1095590667
  0
LINE
  5
375
100
AcDbEntity
  8
RACCORDO
100
AcDbLine
 62
253
  6
CONTINUOUS
 10
-2.6922322811
 20
9.1530884189
 11
-17.5667355667
 21
17.7414401947
  0
LINE
  5
376
100
AcDbEntity
  8
DRAFT
100
AcDbLine
 62
7
  6
CONTINUOUS
 10
1.8829863993
 20
24.1495181667
 11
2.0804885634
 21
22.9794420116
  0
LINE
  5
377
100
AcDbEntity
  8
RACCORDO
100
AcDbLine
 62
253
  6
CONTINUOUS
 10
8.4338221419
 20
17.2695662113
 11
8.4338221419
 21
16.8006941368
  0
LINE
  5
378
100
AcDbEntity
  8
RACCORDO
100
AcDbLine
 62
253
  6
CONTINUOUS
 10
8.4338221419
 20
-17.8025838655
 11
8.4338221419
 21
-17.9463896513
  0
LINE
  5
379
100
AcDbEntity
  8
RACCORDO
100
AcDbLine
 62
7
  6
CONTINUOUS
 10
8.5741522418
 20
17.5896168573
 11
8.5741522418
 21
17.0036946277
  0
LINE
  5
37A
100
AcDbEntity
  8
RACCORDO
100
AcDbLine
 62
7
  6
CONTINUOUS
 10
8.5741522418
 20
-17.7174878481
 11
8.5741522418
 21
-17.8653532604
  0
LWPOLYLINE
  5
37B
100
AcDbEntity
  8
RACCORDO
100
AcDbPolyline
 62
253
  6
CONTINUOUS
 90
63
 70
0
 10
17.0907542318
 20
6.3492396493
 10
17.0964281988
 20
6.3549967174
 10
17.101975784
 20
6.3604483596
 10
17.1073986313
 20
6.3655932614
 10
17.1126858011
 20
6.3704120027
 10
17.11785175
 20
6.3749213587
 10
17.1229352494
 20
6.3791748594
 10
17.1279366497
 20
6.3831781278
 10
17.1328569947
 20
6.386924148
 10
17.137734141
 20
6.3904485064
 10
17.1425690502
 20
6.3937581686
 10
17.1473601676
 20
6.3968458053
 10
17.1521396706
 20
6.3997264834
 10
17.1569073252
 20
6.4024066009
 10
17.1616609145
 20
6.4048802328
 10
17.1664278437
 20
6.4071447721
 10
17.1712036031
 20
6.4092057847
 10
17.1759884234
 20
6.4110588824
 10
17.1808147536
 20
6.4126873944
 10
17.1856772213
 20
6.4140992627
 10
17.190574226
 20
6.4152886641
 10
17.1955411561
 20
6.4162193453
 10
17.2005791717
 20
6.4168996472
 10
17.2056762225
 20
6.4173245821
 10
17.2108453809
 20
6.4174387894
 10
17.2160854479
 20
6.4172445904
 10
17.2213838602
 20
6.4167435958
 10
17.226735393
 20
6.4158797057
 10
17.2321407519
 20
6.4146471547
 10
17.2375836197
 20
6.4130556529
 10
17.243034001
 20
6.4110718895
 10
17.2484856821
 20
6.4086868194
 10
17.2539306382
 20
6.4059122854
 10
17.2593386164
 20
6.4027453511
 10
17.2646929051
 20
6.3991882421
 10
17.2699985566
 20
6.3952401357
 10
17.2752585807
 20
6.3908931735
 10
17.2804569609
 20
6.3861587741
 10
17.2855958288
 20
6.3810269783
 10
17.2907015517
 20
6.3754587216
 10
17.2957647823
 20
6.3694580877
 10
17.300773217
 20
6.3630236295
 10
17.3057425931
 20
6.3561092539
 10
17.310661266
 20
6.3487129161
 10
17.3155111805
 20
6.3408398903
 10
17.3202928886
 20
6.3324559164
 10
17.3249943338
 20
6.3235467664
 10
17.3295901852
 20
6.3141297036
 10
17.3340585583
 20
6.3042177233
 10
17.3383706302
 20
6.2938311047
 10
17.3425169907
 20
6.2829506439
 10
17.3464995384
 20
6.2715303323
 10
17.3502891133
 20
6.2595790884
 10
17.3538620291
 20
6.2470885289
 10
17.3572144953
 20
6.2339876512
 10
17.3603086986
 20
6.2202761777
 10
17.3631075019
 20
6.2059533911
 10
17.3655887641
 20
6.1909482369
 10
17.3677021376
 20
6.1752418631
 10
17.3693932347
 20
6.1588482422
 10
17.3706123335
 20
6.1417449788
 10
17.3712936427
 20
6.1238793471
 10
17.371414429
 20
6.1125728984
  0
LWPOLYLINE
  5
37C
100
AcDbEntity
  8
RACCORDO
100
AcDbPolyline
 62
7
  6
CONTINUOUS
 90
121
 70
0
 10
17.1873643649
 20
6.4725966296
 10
17.2373149184
 20
6.5195181394
 10
17.2855960231
 20
6.565221242
 10
17.3322076791
 20
6.6097059374
 10
17.3771010812
 20
6.652937768
 10
17.4203250347
 20
6.6949511914
 10
17.4620259547
 20
6.7358495802
 10
17.5022104535
 20
6.7756380859
 10
17.540871919
 20
6.814311557
 10
17.5781369295
 20
6.851957911
 10
17.6140093661
 20
6.8885798684
 10
17.6484853478
 20
6.9241747087
 10
17.6816798099
 20
6.9588221885
 10
17.7135962966
 20
6.9925248414
 10
17.7442312638
 20
7.0252801338
 10
17.7736890146
 20
7.0571602216
 10
17.8019728194
 20
7.0881675329
 10
17.8290794079
 20
7.1182996396
 10
17.8551032715
 20
7.1476214131
 10
17.8800474535
 20
7.1761352659
 10
17.9039089107
 20
7.2038387855
 10
17.9267730054
 20
7.2307896061
 10
17.9486424581
 20
7.2569900708
 10
17.9695145482
 20
7.2824378365
 10
17.9894664766
 20
7.3071835081
 10
18.008500611
 20
7.3312293897
 10
18.0266145837
 20
7.3545731773
 10
18.0438784918
 20
7.3772585632
 10
18.0602943105
 20
7.3992878608
 10
18.0758600646
 20
7.4206587568
 10
18.0906399258
 20
7.441408004
 10
18.1046353311
 20
7.461537849
 10
18.1178448434
 20
7.4810460454
 10
18.1303283237
 20
7.4999626065
 10
18.1420865493
 20
7.5182896481
 10
18.1531187429
 20
7.5360250545
 10
18.1634824327
 20
7.5531924921
 10
18.173177388
 20
7.5697933315
 10
18.1822038396
 20
7.5858262021
 10
18.1906200078
 20
7.6013106579
 10
18.1984254435
 20
7.6162487585
 10
18.2056205958
 20
7.6306384442
 10
18.212265032
 20
7.6444930907
 10
18.2183543708
 20
7.6578050674
 10
18.2238929936
 20
7.6705820049
 10
18.2289536116
 20
7.6828601694
 10
18.2335327344
 20
7.6946243192
 10
18.2376338524
 20
7.7058896961
 10
18.2413401477
 20
7.7167382916
 10
18.2446564392
 20
7.7271668359
 10
18.2475779081
 20
7.7371785988
 10
18.2501732803
 20
7.7468653806
 10
18.2524505199
 20
7.7562333129
 10
18.2544016628
 20
7.7652762641
 10
18.2560715433
 20
7.7740676401
 10
18.2574667752
 20
7.7826126308
 10
18.2585807447
 20
7.7909060462
 10
18.2594384446
 20
7.7990057224
 10
18.2600456011
 20
7.8069155257
 10
18.2603964879
 20
7.8146315897
 10
18.2604989199
 20
7.8222001517
 10
18.2603583897
 20
7.8296244759
 10
18.2599694046
 20
7.8369012981
 10
18.2593233007
 20
7.8440670621
 10
18.2584258234
 20
7.8511247677
 10
18.2572712273
 20
7.8580714152
 10
18.2558336115
 20
7.8649344493
 10
18.2541197247
 20
7.8717164309
 10
18.2521228182
 20
7.878414799
 10
18.2497967457
 20
7.8850493151
 10
18.2471490984
 20
7.891624153
 10
18.2441722851
 20
7.8981351389
 10
18.240797385
 20
7.9045895126
 10
18.2370282521
 20
7.910996664
 10
18.2328610325
 20
7.9173472032
 10
18.228215244
 20
7.9236202007
 10
18.2230881046
 20
7.9298250343
 10
18.2174823964
 20
7.9359523262
 10
18.2113259839
 20
7.9419530134
 10
18.2046150523
 20
7.94782936
 10
18.1973534165
 20
7.9535791019
 10
18.1894803859
 20
7.959146383
 10
18.1809948848
 20
7.9645292715
 10
18.1718979889
 20
7.9697296992
 10
18.1621322342
 20
7.9746976065
 10
18.1516976939
 20
7.9794312086
 10
18.1405942948
 20
7.9839322902
 10
18.1287643533
 20
7.9881561456
 10
18.116208591
 20
7.9921016729
 10
18.1029262864
 20
7.9957699739
 10
18.0888575919
 20
7.999119648
 10
18.0740040563
 20
8.002150186
 10
18.0583641309
 20
8.004862097
 10
18.0418733214
 20
8.0072155086
 10
18.0245333512
 20
8.0092105086
 10
18.006342497
 20
8.0108470091
 10
17.9872310945
 20
8.0120848744
 10
17.9672026178
 20
8.0129246716
 10
17.9462535928
 20
8.0133658335
 10
17.9243039328
 20
8.0133665224
 10
17.9013528705
 20
8.0129274531
 10
17.8774011733
 20
8.0120479108
 10
17.852371057
 20
8.0106839125
 10
17.8262598299
 20
8.0088354147
 10
17.7990701836
 20
8.0065024609
 10
17.7707324097
 20
8.0036411996
 10
17.7412569478
 20
8.0002533407
 10
17.7106333582
 20
7.9963371744
 10
17.6787606135
 20
7.9918437192
 10
17.6456451032
 20
7.9867753927
 10
17.6112804378
 20
7.9811297772
 10
17.5755464219
 20
7.9748506389
 10
17.5384436693
 20
7.9679395064
 10
17.4999715662
 20
7.960394851
 10
17.4600080761
 20
7.9521558525
 10
17.4185606394
 20
7.943225455
 10
17.3756218158
 20
7.9336007145
 10
17.3310472479
 20
7.9232119785
 10
17.2847888165
 20
7.9120360294
 10
17.2368946409
 20
7.9000960847
 10
17.187364721
 20
7.8873921445
  0
LINE
  5
37D
100
AcDbEntity
  8
RACCORDO
100
AcDbLine
 62
253
  6
CONTINUOUS
 10
17.3894725748
 20
6.1440992694
 11
17.3770687244
 21
6.1325419653
  0
LINE
  5
37E
100
AcDbEntity
  8
RACCORDO
100
AcDbLine
 62
253
  6
CONTINUOUS
 10
2.0926647605
 20
-6.8093826673
 11
-3.3093347671
 21
-9.8749110868
  0
LWPOLYLINE
  5
37F
100
AcDbEntity
  8
RACCORDO
100
AcDbPolyline
 62
253
  6
CONTINUOUS
 90
9
 70
0
 10
-17.5667355667
 20
17.7414401947
 10
-17.6042066928
 20
17.7601805157
 10
-17.6410652402
 20
17.7743712339
 10
-17.6769078461
 20
17.783857058
 10
-17.7113422694
 20
17.7885341854
 10
-17.7439916738
 20
17.7883514367
 10
-17.7744987538
 20
17.7833108198
 10
-17.8025296584
 20
17.7734675072
 10
-17.8233634387
 20
17.7619439183
  0
LWPOLYLINE
  5
380
100
AcDbEntity
  8
0
100
AcDbPolyline
 62
7
  6
CONTINUOUS
 90
15
 70
0
 10
-0.525995046
 20
23.2781492575
 10
-0.5366207486
 20
23.3083311157
 10
-0.5487442654
 20
23.3459054577
 10
-0.5600025541
 20
23.384224493
 10
-0.5703702928
 20
23.4232714247
 10
-0.5798230538
 20
23.4629993381
 10
-0.5883386009
 20
23.5034091051
 10
-0.5958921238
 20
23.5444794732
 10
-0.6024574022
 20
23.5861293944
 10
-0.6080142753
 20
23.6283614753
 10
-0.6125403262
 20
23.6711494049
 10
-0.6160116338
 20
23.7143676835
 10
-0.6184120562
 20
23.7580183778
 10
-0.6197245575
 20
23.8020726235
 10
-0.6199876558
 20
23.8325775729
  0
LINE
  5
381
100
AcDbEntity
  8
DRAFT
100
AcDbLine
 62
7
  6
CONTINUOUS
 10
10.4895577871
 20
17.7172310709
 11
10.4895577871
 21
17.9635814176
  0
LINE
  5
382
100
AcDbEntity
  8
0
100
AcDbLine
 62
253
  6
CONTINUOUS
 10
10.4895577871
 20
17.9635814176
 11
10.4895577871
 21
18.3597036681
  0
LWPOLYLINE
  5
383
100
AcDbEntity
  8
0
100
AcDbPolyline
 62
7
  6
CONTINUOUS
 90
37
 70
0
 10
9.8451927057
 20
17.4614995628
 10
9.8457162461
 20
17.4892099734
 10
9.8472866182
 20
17.5169071954
 10
9.8499030746
 20
17.5445780464
 10
9.8535643699
 20
17.5722093566
 10
9.8582687616
 20
17.5997879748
 10
9.8640140107
 20
17.6273007753
 10
9.8707973827
 20
17.6547346633
 10
9.8786156491
 20
17.682076582
 10
9.8874650888
 20
17.7093135179
 10
9.89734149
 20
17.7364325078
 10
9.9082401521
 20
17.7634206445
 10
9.9201558879
 20
17.7902650831
 10
9.9330830261
 20
17.8169530471
 10
9.9470154141
 20
17.8434718345
 10
9.9619464208
 20
17.8698088239
 10
9.97786894
 20
17.8959514801
 10
9.9947753933
 20
17.9218873607
 10
10.0126577342
 20
17.9476041217
 10
10.0315074516
 20
17.9730895232
 10
10.0513155742
 20
17.9983314357
 10
10.0720726743
 20
18.0233178452
 10
10.0937688727
 20
18.0480368596
 10
10.1163938432
 20
18.0724767141
 10
10.1399368174
 20
18.0966257765
 10
10.1643865902
 20
18.1204725533
 10
10.1897315249
 20
18.1440056946
 10
10.2159595586
 20
18.1672139999
 10
10.2430582083
 20
18.1900864234
 10
10.2710145763
 20
18.212612079
 10
10.2998153571
 20
18.2347802457
 10
10.3294468429
 20
18.2565803727
 10
10.3598949308
 20
18.2780020843
 10
10.3911451293
 20
18.299035185
 10
10.4231825647
 20
18.319669664
 10
10.4559919892
 20
18.3398957005
 10
10.4895577871
 20
18.3597036681
  0
LWPOLYLINE
  5
384
100
AcDbEntity
  8
RACCORDO
100
AcDbPolyline
 62
253
  6
CONTINUOUS
 90
61
 70
0
 10
17.1873637629
 20
-2.9168121166
 10
17.1935247936
 20
-2.9137268855
 10
17.1997547886
 20
-2.9108133759
 10
17.206053192
 20
-2.9080708096
 10
17.2124104958
 20
-2.9054886416
 10
17.2188348734
 20
-2.9030756466
 10
17.2253519853
 20
-2.9008596659
 10
17.2319689732
 20
-2.8988331733
 10
17.2386763403
 20
-2.8970007673
 10
17.2454741707
 20
-2.8954077551
 10
17.2523698753
 20
-2.8940503467
 10
17.2593522512
 20
-2.8929278332
 10
17.2663927107
 20
-2.8920893246
 10
17.2734964613
 20
-2.891536417
 10
17.2806528178
 20
-2.8912612322
 10
17.2878087692
 20
-2.8912980923
 10
17.2949554709
 20
-2.8916502826
 10
17.3020949704
 20
-2.8923069109
 10
17.3091903135
 20
-2.8932808063
 10
17.3162228564
 20
-2.8945671102
 10
17.3232034501
 20
-2.8961620407
 10
17.3301387956
 20
-2.8980794105
 10
17.3370182523
 20
-2.9003069374
 10
17.3438426973
 20
-2.9028459735
 10
17.3506344856
 20
-2.9057289201
 10
17.3573926208
 20
-2.9089438994
 10
17.3641047751
 20
-2.9124876306
 10
17.3707738145
 20
-2.9164025358
 10
17.3773997415
 20
-2.9206798698
 10
17.3839647711
 20
-2.9253078042
 10
17.3904425948
 20
-2.9303212439
 10
17.3968278422
 20
-2.9357115284
 10
17.4031039265
 20
-2.9414613966
 10
17.4092259576
 20
-2.9475907632
 10
17.4151725212
 20
-2.9540690288
 10
17.4209403842
 20
-2.9608969067
 10
17.4265085525
 20
-2.968137169
 10
17.4318655278
 20
-2.975757319
 10
17.4369900327
 20
-2.9837489709
 10
17.4418393493
 20
-2.9922023669
 10
17.4464018003
 20
-3.0010789236
 10
17.450644433
 20
-3.0103598234
 10
17.4544829163
 20
-3.0201527242
 10
17.4579023808
 20
-3.0304163841
 10
17.4608574881
 20
-3.041111819
 10
17.4632078451
 20
-3.0523365444
 10
17.4649282663
 20
-3.0640585522
 10
17.4659676881
 20
-3.076203684
 10
17.4661424786
 20
-3.0887998534
 10
17.4654012709
 20
-3.1018507915
 10
17.4637135995
 20
-3.1152316756
 10
17.4609436182
 20
-3.1287991349
 10
17.4569997759
 20
-3.142619728
 10
17.4519199726
 20
-3.1565369011
 10
17.4458180918
 20
-3.1701504987
 10
17.438744125
 20
-3.1833737823
 10
17.4306852882
 20
-3.1963323703
 10
17.4217010427
 20
-3.2090025525
 10
17.4117993013
 20
-3.2214067495
 10
17.4010003593
 20
-3.2335511641
 10
17.3893857028
 20
-3.2453934901
  0
LINE
  5
385
100
AcDbEntity
  8
RACCORDO
100
AcDbLine
 62
7
  6
CONTINUOUS
 10
-13.287176855
 20
20.5637689174
 11
1.7393804946
 21
11.8876230307
  0
LINE
  5
386
100
AcDbEntity
  8
RACCORDO
100
AcDbLine
 62
7
  6
CONTINUOUS
 10
0.2416547352
 20
12.8106775637
 11
-11.7894510956
 21
19.7572872852
  0
LWPOLYLINE
  5
387
100
AcDbEntity
  8
RACCORDO
100
AcDbPolyline
 62
253
  6
CONTINUOUS
 90
14
 70
0
 10
-13.8256563835
 20
21.3598602966
 10
-13.8356001403
 20
21.3659445124
 10
-13.8449167643
 20
21.3723511084
 10
-13.8535749639
 20
21.379058567
 10
-13.8615456591
 20
21.3860443601
 10
-13.868802079
 20
21.3932850247
 10
-13.8753198516
 20
21.4007562417
 10
-13.8810770858
 20
21.4084329178
 10
-13.8860544449
 20
21.4162892696
 10
-13.8902352118
 20
21.42429891
 10
-13.8936053444
 20
21.4324349375
 10
-13.8961535237
 20
21.4406700256
 10
-13.8978711912
 20
21.4489765155
 10
-13.8987525777
 20
21.4573265084
  0
LINE
  5
388
100
AcDbEntity
  8
RACCORDO
100
AcDbLine
 62
253
  6
CONTINUOUS
 10
-13.7751438717
 20
21.2461574085
 11
-13.7738877302
 21
21.2454272373
  0
LWPOLYLINE
  5
389
100
AcDbEntity
  8
RACCORDO
100
AcDbPolyline
 62
253
  6
CONTINUOUS
 90
12
 70
0
 10
3.345716383
 20
14.1002973417
 10
3.350516506
 20
14.0931880692
 10
3.3547010465
 20
14.086444846
 10
3.3582558975
 20
14.0800904046
 10
3.3611690751
 20
14.0741461669
 10
3.3634307585
 20
14.068632172
 10
3.3650333231
 20
14.0635670083
 10
3.3659713665
 20
14.0589677515
 10
3.3662417264
 20
14.0548499064
 10
3.3658434913
 20
14.0512273549
 10
3.3647780037
 20
14.0481123092
 10
3.3634163835
 20
14.0459535369
  0
LINE
  5
38A
100
AcDbEntity
  8
0
100
AcDbLine
 62
7
  6
CONTINUOUS
 10
0.0243765118
 20
25.1152218182
 11
-0.0091157517
 21
25.201542037
  0
LWPOLYLINE
  5
38B
100
AcDbEntity
  8
RACCORDO
100
AcDbPolyline
 62
253
  6
CONTINUOUS
 90
28
 70
0
 10
3.345716383
 20
-24.8360884453
 10
3.350516506
 20
-24.8226790167
 10
3.3547010465
 20
-24.8089727108
 10
3.3582558975
 20
-24.7950157338
 10
3.3611690751
 20
-24.7808551369
 10
3.3634307585
 20
-24.766538658
 10
3.3650333231
 20
-24.7521145603
 10
3.3659713665
 20
-24.7376314697
 10
3.3662417264
 20
-24.7231382112
 10
3.3658434913
 20
-24.708683644
 10
3.3647780037
 20
-24.6943164969
 10
3.3630488556
 20
-24.6800852038
 10
3.3606618762
 20
-24.6660377409
 10
3.3576251125
 20
-24.6522214644
 10
3.3539488018
 20
-24.6386829514
 10
3.3496453377
 20
-24.6254678424
 10
3.3447292278
 20
-24.6126206878
 10
3.3392170451
 20
-24.6001847974
 10
3.3331273721
 20
-24.5882020948
 10
3.3264807382
 20
-24.5767129755
 10
3.3192995502
 20
-24.5657561714
 10
3.3116080171
 20
-24.5553686196
 10
3.3034320684
 20
-24.5455853383
 10
3.2947992665
 20
-24.5364393086
 10
3.2857387141
 20
-24.5279613633
 10
3.2762809558
 20
-24.5201800829
 10
3.2664578752
 20
-24.5131216994
 10
3.2563025876
 20
-24.5068100079
  0
LWPOLYLINE
  5
38C
100
AcDbEntity
  8
RACCORDO
100
AcDbPolyline
 62
7
  6
CONTINUOUS
 90
16
 70
0
 10
17.0907542318
 20
6.3492393898
 10
17.0960841177
 20
6.3582343437
 10
17.101577569
 20
6.3671510012
 10
17.1072345855
 20
6.3759893623
 10
17.1130547981
 20
6.3847614734
 10
17.119038576
 20
6.393455288
 10
17.1251870269
 20
6.402034667
 10
17.131504888
 20
6.4105008001
 10
17.1379874222
 20
6.4188524976
 10
17.1446215254
 20
6.427050051
 10
17.151410923
 20
6.435092161
 10
17.1583518897
 20
6.442980127
 10
17.1654201452
 20
6.4506781379
 10
17.1726075963
 20
6.4581742568
 10
17.1799223362
 20
6.4654804207
 10
17.1873643649
 20
6.4725966296
  0
LINE
  5
38D
100
AcDbEntity
  8
DRAFT
100
AcDbLine
 62
7
  6
CONTINUOUS
 10
17.3731834641
 20
-3.2623778524
 11
18.337609872
 21
-2.5583547178
  0
LINE
  5
38E
100
AcDbEntity
  8
DRAFT
100
AcDbLine
 62
7
  6
CONTINUOUS
 10
2.0926647605
 20
-13.4062904609
 11
3.878109383
 21
-12.1978040595
  0
LINE
  5
38F
100
AcDbEntity
  8
RACCORDO
100
AcDbLine
 62
7
  6
CONTINUOUS
 10
-7.1405507762
 20
-18.8193801771
 11
-7.1558624263
 21
-18.8294780665
  0
LINE
  5
390
100
AcDbEntity
  8
RACCORDO
100
AcDbLine
 62
7
  6
CONTINUOUS
 10
-7.1558624263
 20
-18.8294780665
 11
-7.1579911539
 21
-18.8306857572
  0
LWPOLYLINE
  5
391
100
AcDbEntity
  8
RACCORDO
100
AcDbPolyline
 62
7
  6
CONTINUOUS
 90
6
 70
0
 10
1.6243026346
 20
11.9891030301
 10
1.6137080436
 20
11.988493635
 10
1.603442782
 20
11.9878027894
 10
1.5935246336
 20
11.9870078965
 10
1.5839907298
 20
11.9861132536
 10
1.5748670688
 20
11.9851081734
  0
LINE
  5
392
100
AcDbEntity
  8
RACCORDO
100
AcDbLine
 62
7
  6
CONTINUOUS
 10
1.6941003507
 20
11.9927578917
 11
1.6697931919
 21
11.9913968809
  0
LINE
  5
393
100
AcDbEntity
  8
RACCORDO
100
AcDbLine
 62
7
  6
CONTINUOUS
 10
1.6697931919
 20
11.9913968809
 11
1.6243026346
 21
11.9891030301
  0
LINE
  5
394
100
AcDbEntity
  8
RACCORDO
100
AcDbLine
 62
7
  6
CONTINUOUS
 10
1.0174998456
 20
12.7315627576
 11
1.645258797
 21
12.6737579902
  0
LINE
  5
395
100
AcDbEntity
  8
RACCORDO
100
AcDbLine
 62
253
  6
CONTINUOUS
 10
1.2161684204
 20
12.8778488539
 11
1.9273890285
 21
12.812358841
  0
LWPOLYLINE
  5
396
100
AcDbEntity
  8
RACCORDO
100
AcDbPolyline
 62
253
  6
CONTINUOUS
 90
17
 70
0
 10
-0.2855899631
 20
14.2695796108
 10
-0.2948937968
 20
14.2746109229
 10
-0.3041693116
 20
14.2790706341
 10
-0.3133910852
 20
14.2829465213
 10
-0.3225338423
 20
14.2862279612
 10
-0.3315725245
 20
14.2889059602
 10
-0.3404823583
 20
14.2909731783
 10
-0.3492389236
 20
14.2924239496
 10
-0.3578182203
 20
14.2932542979
 10
-0.3661967341
 20
14.2934619474
 10
-0.3743515011
 20
14.2930463289
 10
-0.3822601706
 20
14.2920085815
 10
-0.3899010665
 20
14.2903515496
 10
-0.3972532464
 20
14.2880797747
 10
-0.4042965595
 20
14.2851994833
 10
-0.4110117013
 20
14.2817185698
 10
-0.4117427224
 20
14.2812916033
  0
LWPOLYLINE
  5
397
100
AcDbEntity
  8
RACCORDO
100
AcDbPolyline
 62
253
  6
CONTINUOUS
 90
17
 70
0
 10
-13.6499081275
 20
21.9859694247
 10
-13.6592119612
 20
21.9910007368
 10
-13.668487476
 20
21.995460448
 10
-13.6777092496
 20
21.9993363351
 10
-13.6868520067
 20
22.0026177751
 10
-13.6958906889
 20
22.0052957741
 10
-13.7048005227
 20
22.0073629922
 10
-13.713557088
 20
22.0088137635
 10
-13.7221363847
 20
22.0096441118
 10
-13.7305148985
 20
22.0098517613
 10
-13.7386696655
 20
22.0094361428
 10
-13.746578335
 20
22.0083983954
 10
-13.7542192309
 20
22.0067413635
 10
-13.7615714109
 20
22.0044695886
 10
-13.7686147239
 20
22.0015892972
 10
-13.7753298658
 20
21.9981083837
 10
-13.7760608868
 20
21.9976814172
  0
LWPOLYLINE
  5
398
100
AcDbEntity
  8
RACCORDO
100
AcDbPolyline
 62
253
  6
CONTINUOUS
 90
28
 70
0
 10
0.8636464607
 20
12.8784409346
 10
0.8741839526
 20
12.872699534
 10
0.8852797875
 20
12.8673202321
 10
0.8968966982
 20
12.8623210961
 10
0.9089956673
 20
12.8577189166
 10
0.9215360582
 20
12.8535291507
 10
0.934475752
 20
12.8497658705
 10
0.9477712885
 20
12.8464417156
 10
0.9613780122
 20
12.8435678508
 10
0.9752502227
 20
12.8411539285
 10
0.9893413277
 20
12.8392080561
 10
1.0036039998
 20
12.8377367693
 10
1.0179903355
 20
12.8367450097
 10
1.0324520156
 20
12.8362361081
 10
1.0469404682
 20
12.8362117739
 10
1.0614070313
 20
12.8366720889
 10
1.0758031164
 20
12.8376155068
 10
1.0900803718
 20
12.8390388592
 10
1.1041908449
 20
12.8409373654
 10
1.1180871432
 20
12.843304649
 10
1.1317225936
 20
12.846132759
 10
1.145051399
 20
12.8494121968
 10
1.1580287925
 20
12.8531319477
 10
1.1706111871
 20
12.8572795185
 10
1.1827563228
 20
12.8618409786
 10
1.194423408
 20
12.8668010078
 10
1.2055732568
 20
12.8721429468
 10
1.2161684204
 20
12.8778488539
  0
LWPOLYLINE
  5
399
100
AcDbEntity
  8
RACCORDO
100
AcDbPolyline
 62
253
  6
CONTINUOUS
 90
28
 70
0
 10
0.8636464607
 20
13.1989611074
 10
0.8741875444
 20
13.1932178605
 10
0.8852873668
 20
13.1878369417
 10
0.8969086278
 20
13.1828364396
 10
0.9090122946
 20
13.1782331569
 10
0.9215576724
 20
13.174042578
 10
0.9345025335
 20
13.1702788095
 10
0.9478033487
 20
13.1669545036
 10
0.961415431
 20
13.164080825
 10
0.9752930197
 20
13.1616674311
 10
0.9893894941
 20
13.1597224269
 10
1.0036574531
 20
13.15825235
 10
1.0180488624
 20
13.1572621419
 10
1.0325152717
 20
13.1567551205
 10
1.047008141
 20
13.156732971
 10
1.0614789248
 20
13.1571957643
 10
1.07587928
 20
13.1581419733
 10
1.0901605151
 20
13.159568418
 10
1.1042739377
 20
13.1614702031
 10
1.1181717022
 20
13.1638407882
 10
1.1318076004
 20
13.1666721967
 10
1.1451364766
 20
13.169955017
 10
1.1581173236
 20
13.1736793837
 10
1.1707025191
 20
13.1778318739
 10
1.1828397625
 20
13.1823945299
 10
1.1944862788
 20
13.1873495765
 10
1.2056077764
 20
13.1926806611
 10
1.2161684204
 20
13.1983690267
  0
LWPOLYLINE
  5
39A
100
AcDbEntity
  8
RACCORDO
100
AcDbPolyline
 62
253
  6
CONTINUOUS
 90
28
 70
0
 10
-12.5006717037
 20
20.5948307485
 10
-12.4901342118
 20
20.5890893479
 10
-12.4790383769
 20
20.583710046
 10
-12.4674214662
 20
20.57871091
 10
-12.4553224971
 20
20.5741087305
 10
-12.4427821062
 20
20.5699189646
 10
-12.4298424124
 20
20.5661556844
 10
-12.4165468759
 20
20.5628315295
 10
-12.4029401522
 20
20.5599576647
 10
-12.3890679418
 20
20.5575437424
 10
-12.3749768367
 20
20.55559787
 10
-12.3607141646
 20
20.5541265832
 10
-12.3463278289
 20
20.5531348236
 10
-12.3318661488
 20
20.552625922
 10
-12.3173776962
 20
20.5526015878
 10
-12.3029111331
 20
20.5530619027
 10
-12.288515048
 20
20.5540053207
 10
-12.2742377926
 20
20.5554286731
 10
-12.2601273195
 20
20.5573271793
 10
-12.2462310213
 20
20.5596944629
 10
-12.2325955709
 20
20.5625225729
 10
-12.2192667654
 20
20.5658020107
 10
-12.2062893719
 20
20.5695217616
 10
-12.1937069773
 20
20.5736693324
 10
-12.1815618416
 20
20.5782307925
 10
-12.1698947564
 20
20.5831908217
 10
-12.1587449077
 20
20.5885327607
 10
-12.148149744
 20
20.5942386678
  0
LWPOLYLINE
  5
39B
100
AcDbEntity
  8
RACCORDO
100
AcDbPolyline
 62
253
  6
CONTINUOUS
 90
28
 70
0
 10
-12.5006717037
 20
20.9153509213
 10
-12.49013062
 20
20.9096076744
 10
-12.4790307976
 20
20.9042267556
 10
-12.4674095367
 20
20.8992262535
 10
-12.4553058698
 20
20.8946229708
 10
-12.442760492
 20
20.8904323918
 10
-12.4298156309
 20
20.8866686234
 10
-12.4165148158
 20
20.8833443175
 10
-12.4029027334
 20
20.8804706389
 10
-12.3890251447
 20
20.878057245
 10
-12.3749286704
 20
20.8761122408
 10
-12.3606607113
 20
20.8746421639
 10
-12.346269302
 20
20.8736519558
 10
-12.3318028928
 20
20.8731449344
 10
-12.3173100235
 20
20.8731227849
 10
-12.3028392396
 20
20.8735855781
 10
-12.2884388844
 20
20.8745317872
 10
-12.2741576493
 20
20.8759582319
 10
-12.2600442267
 20
20.877860017
 10
-12.2461464623
 20
20.8802306021
 10
-12.232510564
 20
20.8830620106
 10
-12.2191816878
 20
20.8863448309
 10
-12.2062008408
 20
20.8900691976
 10
-12.1936156453
 20
20.8942216878
 10
-12.1814784019
 20
20.8987843438
 10
-12.1698318856
 20
20.9037393904
 10
-12.158710388
 20
20.909070475
 10
-12.148149744
 20
20.9147588406
  0
LWPOLYLINE
  5
39C
100
AcDbEntity
  8
RACCORDO
100
AcDbPolyline
 62
7
  6
CONTINUOUS
 90
10
 70
0
 10
0.9154170932
 20
12.7640067325
 10
0.9256681396
 20
12.758403108
 10
0.9372191609
 20
12.7528059699
 10
0.9490543348
 20
12.7478043219
 10
0.9611518385
 20
12.7434103247
 10
0.9734825187
 20
12.7396383495
 10
0.9860128848
 20
12.736502365
 10
0.998713961
 20
12.734013451
 10
1.0115534664
 20
12.7321820954
 10
1.0174998286
 20
12.7315627591
  0
LWPOLYLINE
  5
39D
100
AcDbEntity
  8
RACCORDO
100
AcDbPolyline
 62
7
  6
CONTINUOUS
 90
10
 70
0
 10
-12.4489010713
 20
20.4803965464
 10
-12.4386500248
 20
20.4747929219
 10
-12.4270990036
 20
20.4691957838
 10
-12.4152638296
 20
20.4641941358
 10
-12.4031663259
 20
20.4598001386
 10
-12.3908356457
 20
20.4560281634
 10
-12.3783052796
 20
20.4528921789
 10
-12.3656042034
 20
20.4504032649
 10
-12.352764698
 20
20.4485719093
 10
-12.3468183358
 20
20.447952573
  0
LINE
  5
39E
100
AcDbEntity
  8
RACCORDO
100
AcDbLine
 62
253
  6
CONTINUOUS
 10
-13.8256563835
 20
21.3598602966
 11
-12.5006717037
 21
20.5948307485
  0
LINE
  5
39F
100
AcDbEntity
  8
RACCORDO
100
AcDbLine
 62
253
  6
CONTINUOUS
 10
-0.4613382191
 20
13.6434704827
 11
0.8636464607
 21
12.8784409346
  0
LINE
  5
3A0
100
AcDbEntity
  8
RACCORDO
100
AcDbLine
 62
7
  6
CONTINUOUS
 10
-2.6646912398
 20
14.9184345949
 11
-8.1759983394
 21
18.1005942414
  0
LINE
  5
3A1
100
AcDbEntity
  8
RACCORDO
100
AcDbLine
 62
253
  6
CONTINUOUS
 10
0.8636464607
 20
13.1989611074
 11
-0.4613382191
 21
13.9639906556
  0
LINE
  5
3A2
100
AcDbEntity
  8
RACCORDO
100
AcDbLine
 62
253
  6
CONTINUOUS
 10
-12.5006717037
 20
20.9153509213
 11
-13.8256563835
 21
21.6803804695
  0
LINE
  5
3A3
100
AcDbEntity
  8
RACCORDO
100
AcDbLine
 62
253
  6
CONTINUOUS
 10
1.0393947167
 20
13.5045500626
 11
-0.2855899631
 21
14.2695796108
  0
LINE
  5
3A4
100
AcDbEntity
  8
RACCORDO
100
AcDbLine
 62
253
  6
CONTINUOUS
 10
-12.3249234477
 20
21.2209398765
 11
-13.6499081275
 21
21.9859694247
  0
LINE
  5
3A5
100
AcDbEntity
  8
RACCORDO
100
AcDbLine
 62
7
  6
CONTINUOUS
 10
2.8262185724
 20
12.6073906674
 11
2.8174492112
 21
12.6124539866
  0
LINE
  5
3A6
100
AcDbEntity
  8
DRAFT
100
AcDbLine
 62
7
  6
CONTINUOUS
 10
-0.244269388
 20
14.3802519334
 11
-1.6019681712
 21
15.1641701949
  0
LINE
  5
3A7
100
AcDbEntity
  8
DRAFT
100
AcDbLine
 62
7
  6
CONTINUOUS
 10
-8.3224449488
 20
19.044489259
 11
-10.5468689532
 21
20.3288438005
  0
LINE
  5
3A8
100
AcDbEntity
  8
RACCORDO
100
AcDbLine
 62
253
  6
CONTINUOUS
 10
-2.6646912398
 20
15.9371854896
 11
-8.1759983394
 21
19.119345136
  0
LINE
  5
3A9
100
AcDbEntity
  8
RACCORDO
100
AcDbLine
 62
253
  6
CONTINUOUS
 10
-2.2418688599
 20
16.0187041831
 11
-8.3176235097
 21
19.5267687708
  0
LINE
  5
3AA
100
AcDbEntity
  8
RACCORDO
100
AcDbLine
 62
7
  6
CONTINUOUS
 10
-10.5136036203
 20
21.1190607727
 11
-9.1388262182
 21
20.3252815307
  0
LINE
  5
3AB
100
AcDbEntity
  8
RACCORDO
100
AcDbLine
 62
7
  6
CONTINUOUS
 10
2.8507145441
 20
13.4026709588
 11
3.5456679483
 21
13.001413573
  0
LINE
  5
3AC
100
AcDbEntity
  8
DRAFT
100
AcDbLine
 62
7
  6
CONTINUOUS
 10
-7.8245078456
 20
19.9000450037
 11
-1.6019681712
 21
16.3072285824
  0
LWPOLYLINE
  5
3AD
100
AcDbEntity
  8
RACCORDO
100
AcDbPolyline
 62
253
  6
CONTINUOUS
 90
15
 70
0
 10
-13.8256563835
 20
21.6803804695
 10
-13.8356033381
 20
21.686466759
 10
-13.8449227623
 20
21.6928756574
 10
-13.8535833281
 20
21.6995856278
 10
-13.8615559339
 20
21.7065741333
 10
-13.868813762
 20
21.7138176773
 10
-13.8753323802
 20
21.7212918778
 10
-13.8810898759
 20
21.7289716018
 10
-13.8860669125
 20
21.7368310476
 10
-13.8902467641
 20
21.7448437934
 10
-13.8936153933
 20
21.752982921
 10
-13.896161477
 20
21.7612210617
 10
-13.8978764572
 20
21.7695304811
 10
-13.8987545876
 20
21.7778832045
 10
-13.8988796882
 20
21.7824491178
  0
LWPOLYLINE
  5
3AE
100
AcDbEntity
  8
RACCORDO
100
AcDbPolyline
 62
253
  6
CONTINUOUS
 90
14
 70
0
 10
-0.4613382191
 20
13.6434704827
 10
-0.4712819759
 20
13.6495546985
 10
-0.4805985999
 20
13.6559612945
 10
-0.4892567995
 20
13.6626687531
 10
-0.4972274947
 20
13.6696545462
 10
-0.5044839146
 20
13.6768952108
 10
-0.5110016871
 20
13.6843664278
 10
-0.5167589213
 20
13.6920431039
 10
-0.5217362805
 20
13.6998994557
 10
-0.5259170473
 20
13.7079090961
 10
-0.52928718
 20
13.7160451236
 10
-0.5318353593
 20
13.7242802117
 10
-0.5335530268
 20
13.7325867016
 10
-0.5344344133
 20
13.7409366945
  0
LWPOLYLINE
  5
3AF
100
AcDbEntity
  8
RACCORDO
100
AcDbPolyline
 62
253
  6
CONTINUOUS
 90
15
 70
0
 10
-0.4613382191
 20
13.9639906556
 10
-0.4712851736
 20
13.9700769451
 10
-0.4806045979
 20
13.9764858435
 10
-0.4892651636
 20
13.9831958139
 10
-0.4972377695
 20
13.9901843195
 10
-0.5044955975
 20
13.9974278634
 10
-0.5110142158
 20
14.0049020639
 10
-0.5167717115
 20
14.0125817879
 10
-0.5217487481
 20
14.0204412337
 10
-0.5259285997
 20
14.0284539795
 10
-0.5292972289
 20
14.0365931071
 10
-0.5318433126
 20
14.0448312478
 10
-0.5335582928
 20
14.0531406672
 10
-0.5344364232
 20
14.0614933906
 10
-0.5345615238
 20
14.0660593039
  0
LINE
  5
3B0
100
AcDbEntity
  8
RACCORDO
100
AcDbLine
 62
253
  6
CONTINUOUS
 10
-0.4108257073
 20
13.5297675946
 11
-0.4095695658
 21
13.5290374234
  0
LWPOLYLINE
  5
3B1
100
AcDbEntity
  8
RACCORDO
100
AcDbPolyline
 62
7
  6
CONTINUOUS
 90
10
 70
0
 10
13.8129596587
 20
20.1893058468
 10
13.8129071841
 20
20.1992185741
 10
13.8127499701
 20
20.2090664068
 10
13.8124880166
 20
20.2188493448
 10
13.8121212538
 20
20.228568819
 10
13.8116497515
 20
20.2382233986
 10
13.8110737194
 20
20.2478087911
 10
13.8103932274
 20
20.2573235657
 10
13.8096082055
 20
20.2667691533
 10
13.8087186539
 20
20.2761455537
  0
LINE
  5
3B2
100
AcDbEntity
  8
0
100
AcDbLine
 62
7
  6
CONTINUOUS
 10
13.6008284542
 20
17.3433328623
 11
13.6008282097
 21
17.3051565611
  0
LINE
  5
3B3
100
AcDbEntity
  8
RACCORDO
100
AcDbLine
 62
7
  6
CONTINUOUS
 10
13.8129596587
 20
20.1893058468
 11
13.8129596587
 21
19.8703591183
  0
LWPOLYLINE
  5
3B4
100
AcDbEntity
  8
RACCORDO
100
AcDbPolyline
 62
253
  6
CONTINUOUS
 90
63
 70
0
 10
17.0907542318
 20
-3.0401685338
 10
17.0964240823
 20
-3.0344154244
 10
17.1019682469
 20
-3.0289669657
 10
17.1073883528
 20
-3.0238244622
 10
17.1126737301
 20
-3.0190070468
 10
17.1178385276
 20
-3.0144982104
 10
17.1229206562
 20
-3.0102452555
 10
17.127920234
 20
-3.0062428574
 10
17.1328385538
 20
-3.0024977414
 10
17.1377133599
 20
-2.9989742841
 10
17.1425453072
 20
-2.9956656802
 10
17.1473331738
 20
-2.9925791101
 10
17.1521099659
 20
-2.9896989963
 10
17.1568754914
 20
-2.9870187502
 10
17.1616274657
 20
-2.9845444742
 10
17.1663939179
 20
-2.9822787979
 10
17.1711706794
 20
-2.9802159486
 10
17.1759575647
 20
-2.978360488
 10
17.1807865043
 20
-2.9767296777
 10
17.1856521716
 20
-2.975315673
 10
17.1905528755
 20
-2.9741241821
 10
17.1955233198
 20
-2.973191746
 10
17.200564482
 20
-2.9725101468
 10
17.2056645002
 20
-2.9720842531
 10
17.2108363461
 20
-2.9719693603
 10
17.2160786511
 20
-2.9721631109
 10
17.2213790385
 20
-2.9726639383
 10
17.2267327012
 20
-2.9735279923
 10
17.2321403197
 20
-2.9747609241
 10
17.2375855733
 20
-2.9763531296
 10
17.2430388722
 20
-2.9783382847
 10
17.2484942149
 20
-2.9807255313
 10
17.2539432695
 20
-2.9835029026
 10
17.2593554076
 20
-2.9866733687
 10
17.2647139659
 20
-2.9902348784
 10
17.2700238983
 20
-2.9941880705
 10
17.275287678
 20
-2.9985403187
 10
17.2804891327
 20
-3.0032801233
 10
17.2856305881
 20
-3.0084175411
 10
17.2907384351
 20
-3.0139914296
 10
17.2958033021
 20
-3.0199976413
 10
17.3008129401
 20
-3.0264377006
 10
17.3057832133
 20
-3.0333577016
 10
17.3107024047
 20
-3.0407595223
 10
17.3155525427
 20
-3.0486380642
 10
17.3203344863
 20
-3.0570280904
 10
17.3250364558
 20
-3.065944479
 10
17.3296327319
 20
-3.0753693041
 10
17.3341007947
 20
-3.0852881146
 10
17.338411565
 20
-3.0956798748
 10
17.3425560508
 20
-3.1065645802
 10
17.3465365539
 20
-3.1179891108
 10
17.3503239693
 20
-3.1299446916
 10
17.3538945231
 20
-3.1424395668
 10
17.3572444975
 20
-3.1555451721
 10
17.3603360579
 20
-3.1692619276
 10
17.3631319745
 20
-3.1835904112
 10
17.3656100233
 20
-3.1986016869
 10
17.3677197962
 20
-3.2143147227
 10
17.3694068201
 20
-3.230715445
 10
17.3706212567
 20
-3.2478259398
 10
17.3712972376
 20
-3.2656987764
 10
17.3714144291
 20
-3.2768354068
  0
LWPOLYLINE
  5
3B5
100
AcDbEntity
  8
RACCORDO
100
AcDbPolyline
 62
7
  6
CONTINUOUS
 90
121
 70
0
 10
17.1873637629
 20
-2.9168121166
 10
17.2373143426
 20
-2.8698905865
 10
17.2855954726
 20
-2.8241874644
 10
17.3322071529
 20
-2.7797027502
 10
17.3771005784
 20
-2.7364709016
 10
17.4203245541
 20
-2.6944574609
 10
17.4620254955
 20
-2.6535590554
 10
17.5022100151
 20
-2.6137705335
 10
17.5408715006
 20
-2.5750970467
 10
17.5781365303
 20
-2.5374506776
 10
17.6140089854
 20
-2.5008287056
 10
17.6484849848
 20
-2.4652338512
 10
17.681679464
 20
-2.4305863577
 10
17.7135959673
 20
-2.3968836916
 10
17.7442309504
 20
-2.3641283865
 10
17.7736887164
 20
-2.3322482863
 10
17.801972536
 20
-2.3012409631
 10
17.8290791386
 20
-2.2711088449
 10
17.8551030158
 20
-2.2417870602
 10
17.8800472109
 20
-2.2132731966
 10
17.9039086808
 20
-2.1855696666
 10
17.9267727876
 20
-2.1586188359
 10
17.948642252
 20
-2.1324183614
 10
17.9695143533
 20
-2.1069705862
 10
17.9894662925
 20
-2.0822249054
 10
18.0085004374
 20
-2.0581790149
 10
18.0266144201
 20
-2.0348352187
 10
18.0438783378
 20
-2.0121498244
 10
18.0602941657
 20
-1.9901205188
 10
18.0758599287
 20
-1.968749615
 10
18.0906397985
 20
-1.9480003601
 10
18.1046352119
 20
-1.9278705077
 10
18.1178447322
 20
-1.9083623042
 10
18.13032822
 20
-1.8894457361
 10
18.1420864529
 20
-1.8711186876
 10
18.1531186534
 20
-1.8533832746
 10
18.1634823498
 20
-1.8362158306
 10
18.1731773116
 20
-1.8196149849
 10
18.1822037693
 20
-1.8035821082
 10
18.1906199432
 20
-1.7880976464
 10
18.1984253845
 20
-1.7731595401
 10
18.205620542
 20
-1.7587698487
 10
18.2122649832
 20
-1.7449151968
 10
18.2183543267
 20
-1.7316032146
 10
18.223892954
 20
-1.7188262719
 10
18.2289535761
 20
-1.7065481023
 10
18.2335327028
 20
-1.6947839477
 10
18.2376338243
 20
-1.6835185663
 10
18.241340123
 20
-1.6726699666
 10
18.2446564175
 20
-1.6622414185
 10
18.2475778891
 20
-1.6522296521
 10
18.2501732639
 20
-1.642542867
 10
18.2524505058
 20
-1.6331749317
 10
18.2544016509
 20
-1.6241319777
 10
18.2560715334
 20
-1.6153405992
 10
18.2574667672
 20
-1.6067956061
 10
18.2585807385
 20
-1.5985021885
 10
18.2594384401
 20
-1.5904025102
 10
18.2600455981
 20
-1.582492705
 10
18.2603964866
 20
-1.5747766392
 10
18.26049892
 20
-1.5672080756
 10
18.2603583913
 20
-1.5597837498
 10
18.2599694076
 20
-1.5525069263
 10
18.259323305
 20
-1.5453411609
 10
18.2584258291
 20
-1.538283454
 10
18.2572712343
 20
-1.5313368052
 10
18.2558336198
 20
-1.5244737701
 10
18.2541197344
 20
-1.5176917874
 10
18.2521228293
 20
-1.5109934182
 10
18.2497967581
 20
-1.5043589011
 10
18.2471491123
 20
-1.4977840623
 10
18.2441723004
 20
-1.4912730755
 10
18.2407974018
 20
-1.4848187009
 10
18.2370282704
 20
-1.4784115486
 10
18.2328610524
 20
-1.4720610085
 10
18.2282152656
 20
-1.4657880101
 10
18.2230881278
 20
-1.4595831755
 10
18.2174824213
 20
-1.4534558826
 10
18.2113260105
 20
-1.4474551944
 10
18.2046150805
 20
-1.4415788466
 10
18.1973534463
 20
-1.4358291035
 10
18.1894804172
 20
-1.4302618211
 10
18.1809949177
 20
-1.4248789314
 10
18.1718980233
 20
-1.4196785024
 10
18.16213227
 20
-1.4147105938
 10
18.151697731
 20
-1.4099769904
 10
18.1405943331
 20
-1.4054759075
 10
18.1287643929
 20
-1.4012520509
 10
18.1162086317
 20
-1.3973065222
 10
18.1029263281
 20
-1.3936382199
 10
18.0888576345
 20
-1.3902885445
 10
18.0740040998
 20
-1.3872580054
 10
18.0583641751
 20
-1.3845460931
 10
18.0418733663
 20
-1.3821926803
 10
18.0245333967
 20
-1.3801976792
 10
18.0063425429
 20
-1.3785611775
 10
17.9872311407
 20
-1.3773233112
 10
17.9672026642
 20
-1.3764835129
 10
17.9462536392
 20
-1.3760423501
 10
17.9243039792
 20
-1.3760416603
 10
17.9013529167
 20
-1.3764807287
 10
17.8774012191
 20
-1.3773602702
 10
17.8523711023
 20
-1.3787242677
 10
17.8262598745
 20
-1.380572765
 10
17.7990702274
 20
-1.3829057182
 10
17.7707324524
 20
-1.3857669789
 10
17.7412569892
 20
-1.3891548374
 10
17.7106333981
 20
-1.3930710033
 10
17.6787606519
 20
-1.3975644583
 10
17.6456451397
 20
-1.4026327847
 10
17.6112804723
 20
-1.4082784
 10
17.5755464542
 20
-1.4145575384
 10
17.538443699
 20
-1.421468671
 10
17.4999715932
 20
-1.4290133267
 10
17.4600081001
 20
-1.4372523256
 10
17.4185606602
 20
-1.4461827235
 10
17.375621833
 20
-1.4558074646
 10
17.3310472613
 20
-1.4661962015
 10
17.2847888258
 20
-1.4773721515
 10
17.2368946457
 20
-1.4893120972
 10
17.187364721
 20
-1.5020160386
  0
LINE
  5
3B6
100
AcDbEntity
  8
RACCORDO
100
AcDbLine
 62
253
  6
CONTINUOUS
 10
17.3893857028
 20
-3.2453934901
 11
17.3769824305
 21
-3.2569432138
  0
LINE
  5
3B7
100
AcDbEntity
  8
RACCORDO
100
AcDbLine
 62
253
  6
CONTINUOUS
 10
17.3769824305
 20
-3.2569432138
 11
17.3739783265
 21
-3.2595147241
  0
LINE
  5
3B8
100
AcDbEntity
  8
RACCORDO
100
AcDbLine
 62
7
  6
CONTINUOUS
 10
3.0376755352
 20
-15.5463064781
 11
2.7820938722
 21
-15.6938763782
  0
LWPOLYLINE
  5
3B9
100
AcDbEntity
  8
RACCORDO
100
AcDbPolyline
 62
7
  6
CONTINUOUS
 90
3
 70
0
 10
-7.1579911539
 20
-18.8306857572
 10
-7.1722854192
 20
-18.8377207122
 10
-7.1730806761
 20
-18.8380117076
  0
LWPOLYLINE
  5
3BA
100
AcDbEntity
  8
RACCORDO
100
AcDbPolyline
 62
253
  6
CONTINUOUS
 90
4
 70
0
 10
-7.0973136426
 20
-18.6185420906
 10
-7.0791839356
 20
-18.6124984655
 10
-7.0622476644
 20
-18.6053937582
 10
-7.0592417433
 20
-18.6038310339
  0
LWPOLYLINE
  5
3BB
100
AcDbEntity
  8
RACCORDO
100
AcDbPolyline
 62
253
  6
CONTINUOUS
 90
14
 70
0
 10
1.9522727777
 20
15.5198895584
 10
1.9446859272
 20
15.5233579072
 10
1.9366697803
 20
15.526101836
 10
1.9282970468
 20
15.5280911753
 10
1.919595905
 20
15.5293192169
 10
1.9105956099
 20
15.5297818272
 10
1.901326395
 20
15.5294774481
 10
1.8918194184
 20
15.5284070976
 10
1.8821066173
 20
15.5265743658
 10
1.8722206477
 20
15.523985409
 10
1.8621947841
 20
15.5206489425
 10
1.8520627402
 20
15.5165761939
 10
1.8418585532
 20
15.5117808529
 10
1.8316165187
 20
15.5062790426
  0
LWPOLYLINE
  5
3BC
100
AcDbEntity
  8
RACCORDO
100
AcDbPolyline
 62
7
  6
CONTINUOUS
 90
21
 70
0
 10
1.9555941423
 20
15.5180739701
 10
1.9453430959
 20
15.5236775946
 10
1.9337920746
 20
15.5292747327
 10
1.9219569006
 20
15.5342763807
 10
1.909859397
 20
15.5386703778
 10
1.8975287168
 20
15.5424423531
 10
1.8849983506
 20
15.5455783376
 10
1.8722972744
 20
15.5480672516
 10
1.8594577691
 20
15.5498986071
 10
1.8465147961
 20
15.5510632833
 10
1.8335022642
 20
15.5515541342
 10
1.8204553625
 20
15.5513656914
 10
1.8074096518
 20
15.5504943217
 10
1.7944002748
 20
15.5489381401
 10
1.78146147
 20
15.5466967533
 10
1.7686317063
 20
15.5437722919
 10
1.755952553
 20
15.5401702358
 10
1.7434605871
 20
15.5358973881
 10
1.7311913848
 20
15.530962264
 10
1.7191842462
 20
15.5253772544
 10
1.7077699046
 20
15.5193225742
  0
LWPOLYLINE
  5
3BD
100
AcDbEntity
  8
RACCORDO
100
AcDbPolyline
 62
7
  6
CONTINUOUS
 90
21
 70
0
 10
-11.4087240221
 20
23.234463784
 10
-11.4189750686
 20
23.2400674085
 10
-11.4305260898
 20
23.2456645466
 10
-11.4423612638
 20
23.2506661946
 10
-11.4544587675
 20
23.2550601917
 10
-11.4667894477
 20
23.258832167
 10
-11.4793198138
 20
23.2619681515
 10
-11.49202089
 20
23.2644570655
 10
-11.5048603954
 20
23.266288421
 10
-11.5178033684
 20
23.2674530972
 10
-11.5308159003
 20
23.2679439481
 10
-11.543862802
 20
23.2677555053
 10
-11.5569085127
 20
23.2668841356
 10
-11.5699178896
 20
23.265327954
 10
-11.5828566944
 20
23.2630865672
 10
-11.5956864581
 20
23.2601621058
 10
-11.6083656115
 20
23.2565600497
 10
-11.6208575774
 20
23.252287202
 10
-11.6331267796
 20
23.2473520779
 10
-11.6451339182
 20
23.2417670683
 10
-11.6565482598
 20
23.2357123881
  0
LWPOLYLINE
  5
3BE
100
AcDbEntity
  8
RACCORDO
100
AcDbPolyline
 62
253
  6
CONTINUOUS
 90
15
 70
0
 10
3.29292028
 20
14.7459186188
 10
3.2896446764
 20
14.7477132846
 10
3.2820120878
 20
14.7512025427
 10
3.2739959409
 20
14.7539464715
 10
3.2656232074
 20
14.7559358109
 10
3.2569220656
 20
14.7571638524
 10
3.2479217704
 20
14.7576264627
 10
3.2386525556
 20
14.7573220836
 10
3.2291455789
 20
14.7562517331
 10
3.2194327779
 20
14.7544190013
 10
3.2095468083
 20
14.7518300445
 10
3.1995209446
 20
14.7484935781
 10
3.1893889007
 20
14.7444208294
 10
3.1791847138
 20
14.7396254884
 10
3.1689426793
 20
14.7341236781
  0
LWPOLYLINE
  5
3BF
100
AcDbEntity
  8
RACCORDO
100
AcDbPolyline
 62
253
  6
CONTINUOUS
 90
15
 70
0
 10
-10.0713978844
 20
22.4623084327
 10
-10.074673488
 20
22.4641030985
 10
-10.0823060766
 20
22.4675923566
 10
-10.0903222236
 20
22.4703362854
 10
-10.0986949571
 20
22.4723256248
 10
-10.1073960988
 20
22.4735536663
 10
-10.116396394
 20
22.4740162766
 10
-10.1256656089
 20
22.4737118975
 10
-10.1351725855
 20
22.472641547
 10
-10.1448853866
 20
22.4708088152
 10
-10.1547713561
 20
22.4682198584
 10
-10.1647972198
 20
22.464883392
 10
-10.1749292637
 20
22.4608106433
 10
-10.1851334506
 20
22.4560153023
 10
-10.1953754851
 20
22.450513492
  0
LWPOLYLINE
  5
3C0
100
AcDbEntity
  8
RACCORDO
100
AcDbPolyline
 62
7
  6
CONTINUOUS
 90
18
 70
0
 10
1.2971666401
 20
15.2048336709
 10
1.2887555646
 20
15.209459123
 10
1.280363347
 20
15.2136116121
 10
1.2720090993
 20
15.2172817899
 10
1.2637119253
 20
15.2204614468
 10
1.2554906269
 20
15.2231433813
 10
1.2473636612
 20
15.2253214161
 10
1.2393494958
 20
15.22699065
 10
1.2314663764
 20
15.2281473528
 10
1.2237320342
 20
15.2287888259
 10
1.2161640267
 20
15.2289136362
 10
1.2087795697
 20
15.2285215415
 10
1.2015953072
 20
15.227613377
 10
1.1946275285
 20
15.2261912075
 10
1.1878920693
 20
15.2242582839
 10
1.1814041466
 20
15.2218189586
 10
1.17517845
 20
15.2188787526
 10
1.1728915757
 20
15.2176355436
  0
LWPOLYLINE
  5
3C1
100
AcDbEntity
  8
RACCORDO
100
AcDbPolyline
 62
7
  6
CONTINUOUS
 90
18
 70
0
 10
-12.0671515244
 20
22.9212234847
 10
-12.0755625998
 20
22.9258489369
 10
-12.0839548174
 20
22.930001426
 10
-12.0923090651
 20
22.9336716038
 10
-12.1006062391
 20
22.9368512607
 10
-12.1088275375
 20
22.9395331952
 10
-12.1169545033
 20
22.94171123
 10
-12.1249686687
 20
22.9433804638
 10
-12.132851788
 20
22.9445371667
 10
-12.1405861302
 20
22.9451786398
 10
-12.1481541377
 20
22.9453034501
 10
-12.1555385947
 20
22.9449113554
 10
-12.1627228572
 20
22.9440031909
 10
-12.1696906359
 20
22.9425810214
 10
-12.1764260951
 20
22.9406480978
 10
-12.1829140178
 20
22.9382087725
 10
-12.1891397145
 20
22.9352685665
 10
-12.1914265888
 20
22.9340253575
  0
LWPOLYLINE
  5
3C2
100
AcDbEntity
  8
RACCORDO
100
AcDbPolyline
 62
253
  6
CONTINUOUS
 90
16
 70
0
 10
1.8316165187
 20
15.5062790426
 10
1.8224154922
 20
15.5113719333
 10
1.8132368558
 20
15.515889556
 10
1.804105778
 20
15.5198195193
 10
1.7950472882
 20
15.5231510465
 10
1.7860862346
 20
15.5258749945
 10
1.7772472148
 20
15.5279838851
 10
1.7685544711
 20
15.5294719362
 10
1.7600318336
 20
15.5303350705
 10
1.7517026788
 20
15.5305709228
 10
1.7435898461
 20
15.5301788497
 10
1.7357155784
 20
15.5291599296
 10
1.7281014686
 20
15.5275169604
 10
1.7207683846
 20
15.5252544479
 10
1.7137364409
 20
15.5223786013
 10
1.7077699046
 20
15.5193225742
  0
LWPOLYLINE
  5
3C3
100
AcDbEntity
  8
RACCORDO
100
AcDbPolyline
 62
253
  6
CONTINUOUS
 90
16
 70
0
 10
-11.5327016457
 20
23.2226688565
 10
-11.5419026722
 20
23.2277617472
 10
-11.5510813086
 20
23.2322793698
 10
-11.5602123864
 20
23.2362093332
 10
-11.5692708762
 20
23.2395408604
 10
-11.5782319299
 20
23.2422648084
 10
-11.5870709497
 20
23.244373699
 10
-11.5957636933
 20
23.2458617501
 10
-11.6042863309
 20
23.2467248844
 10
-11.6126154857
 20
23.2469607367
 10
-11.6207283183
 20
23.2465686636
 10
-11.628602586
 20
23.2455497435
 10
-11.6362166958
 20
23.2439067743
 10
-11.6435497798
 20
23.2416442618
 10
-11.6505817235
 20
23.2387684152
 10
-11.6565482598
 20
23.2357123881
  0
LINE
  5
3C4
100
AcDbEntity
  8
RACCORDO
100
AcDbLine
 62
7
  6
CONTINUOUS
 10
-12.0671515244
 20
22.9212234847
 11
-10.7236426569
 21
22.1454983028
  0
LINE
  5
3C5
100
AcDbEntity
  8
RACCORDO
100
AcDbLine
 62
7
  6
CONTINUOUS
 10
1.2971666401
 20
15.2048336709
 11
2.6406755075
 21
14.4291084889
  0
LINE
  5
3C6
100
AcDbEntity
  8
DRAFT
100
AcDbLine
 62
7
  6
CONTINUOUS
 10
-1.5312574931
 20
17.0782002246
 11
-6.4810049614
 21
19.9361223779
  0
LINE
  5
3C7
100
AcDbEntity
  8
RACCORDO
100
AcDbLine
 62
253
  6
CONTINUOUS
 10
-11.5327016457
 20
23.2226688565
 11
-10.1953754851
 21
22.450513492
  0
LINE
  5
3C8
100
AcDbEntity
  8
RACCORDO
100
AcDbLine
 62
253
  6
CONTINUOUS
 10
1.8316165187
 20
15.5062790426
 11
3.1689426793
 21
14.7341236781
  0
LINE
  5
3C9
100
AcDbEntity
  8
RACCORDO
100
AcDbLine
 62
7
  6
CONTINUOUS
 10
-11.408724045
 20
23.2344637972
 11
-10.0713978844
 21
22.4623084327
  0
LINE
  5
3CA
100
AcDbEntity
  8
RACCORDO
100
AcDbLine
 62
7
  6
CONTINUOUS
 10
1.9555941195
 20
15.5180739833
 11
3.29292028
 21
14.7459186188
  0
LWPOLYLINE
  5
3CB
100
AcDbEntity
  8
RACCORDO
100
AcDbPolyline
 62
7
  6
CONTINUOUS
 90
99
 70
0
 10
17.3714144314
 20
2.4494133199
 10
17.3953020187
 20
2.4275070426
 10
17.4413287337
 20
2.3840641016
 10
17.4869329319
 20
2.339781808
 10
17.5321136308
 20
2.2946671696
 10
17.5768707945
 20
2.248724893
 10
17.6211914788
 20
2.2019720212
 10
17.6650567894
 20
2.1544321161
 10
17.7084570245
 20
2.1061190642
 10
17.751384349
 20
2.0570442089
 10
17.7938149483
 20
2.0072372737
 10
17.8357155198
 20
1.9567409322
 10
17.877062215
 20
1.9055886839
 10
17.9178497838
 20
1.8537916877
 10
17.9580731572
 20
1.8013600311
 10
17.9977148608
 20
1.7483197165
 10
18.036763502
 20
1.6946891092
 10
18.0752221186
 20
1.640465952
 10
18.1130848725
 20
1.5856588006
 10
18.1503278315
 20
1.5303024822
 10
18.1869267693
 20
1.4744341655
 10
18.222863571
 20
1.4180834082
 10
18.2581291407
 20
1.3612662622
 10
18.2927133574
 20
1.3040002024
 10
18.3266041271
 20
1.2463059802
 10
18.3597870123
 20
1.1882087568
 10
18.3922485323
 20
1.1297327074
 10
18.4239737821
 20
1.0709053294
 10
18.4549527069
 20
1.0117457631
 10
18.4851790536
 20
0.9522655729
 10
18.5146411068
 20
0.8924866498
 10
18.5433259652
 20
0.8324337946
 10
18.5712252315
 20
0.7721226841
 10
18.5983306032
 20
0.7115683236
 10
18.6246263368
 20
0.6508026486
 10
18.6500936888
 20
0.5898667529
 10
18.6747182881
 20
0.5287939345
 10
18.6984938268
 20
0.4675984822
 10
18.7214143613
 20
0.4062928674
 10
18.7434679625
 20
0.3449054123
 10
18.7646463269
 20
0.2834552302
 10
18.7849478509
 20
0.2219406033
 10
18.8043661219
 20
0.1603713844
 10
18.8228860073
 20
0.0987851813
 10
18.8404928891
 20
0.0372215209
 10
18.8571792375
 20
-0.0243025232
 10
18.8729340588
 20
-0.085756614
 10
18.8877403517
 20
-0.1470820633
 10
18.901584118
 20
-0.2082232172
 10
18.9144668074
 20
-0.2691894881
 10
18.9263937515
 20
-0.330020144
 10
18.9373593004
 20
-0.3907119277
 10
18.9473503294
 20
-0.4512208441
 10
18.9563583255
 20
-0.5115251033
 10
18.9643799846
 20
-0.5716438026
 10
18.9714000711
 20
-0.6315103825
 10
18.9773988352
 20
-0.6909774667
 10
18.9823687999
 20
-0.7499477027
 10
18.986316957
 20
-0.8084778627
 10
18.9892464648
 20
-0.8666529558
 10
18.9911516259
 20
-0.9244892607
 10
18.9920236429
 20
-0.9819250869
 10
18.9918563161
 20
-1.038927492
 10
18.9906428264
 20
-1.0955141397
 10
18.9883774615
 20
-1.1516227901
 10
18.9850636518
 20
-1.2071057287
 10
18.980707717
 20
-1.2618971189
 10
18.9753093437
 20
-1.3160288137
 10
18.9688681563
 20
-1.3695040217
 10
18.9613845494
 20
-1.4223105498
 10
18.9528604617
 20
-1.4744255613
 10
18.94329646
 20
-1.5258363865
 10
18.9326859282
 20
-1.5765616381
 10
18.9210367723
 20
-1.6265471642
 10
18.9083775388
 20
-1.6756760995
 10
18.8947160823
 20
-1.7239368205
 10
18.880060883
 20
-1.7713161178
 10
18.8644544065
 20
-1.8177046677
 10
18.8479374925
 20
-1.8630273125
 10
18.830502458
 20
-1.90734805
 10
18.8121185082
 20
-1.9507654661
 10
18.7927767853
 20
-1.9933037441
 10
18.7725016911
 20
-2.0349120132
 10
18.751306352
 20
-2.0755702378
 10
18.7291814736
 20
-2.1152998724
 10
18.7061555571
 20
-2.154053049
 10
18.6823077562
 20
-2.1917132212
 10
18.6576918063
 20
-2.2282262999
 10
18.6322956478
 20
-2.2636397299
 10
18.6061052409
 20
-2.2979928915
 10
18.5791284104
 20
-2.331289544
 10
18.5513922462
 20
-2.3635098955
 10
18.5229091303
 20
-2.3946532831
 10
18.4936890809
 20
-2.4247207452
 10
18.4637597419
 20
-2.4536956365
 10
18.4331624819
 20
-2.4815521669
 10
18.401926848
 20
-2.508279879
 10
18.3700683643
 20
-2.5338817039
 10
18.337609872
 20
-2.5583547178
  0
LWPOLYLINE
  5
3CC
100
AcDbEntity
  8
RACCORDO
100
AcDbPolyline
 62
253
  6
CONTINUOUS
 90
98
 70
0
 10
17.3714144314
 20
2.3201058442
 10
17.3722732882
 20
2.3192677399
 10
17.4163628692
 20
2.2750880041
 10
17.4601169511
 20
2.2300806429
 10
17.5035178123
 20
2.184263887
 10
17.5465478608
 20
2.1376563085
 10
17.5891896528
 20
2.0902768016
 10
17.6314258887
 20
2.0421445879
 10
17.6732394292
 20
1.9932792001
 10
17.7146133023
 20
1.9437004745
 10
17.7555307452
 20
1.8934285
 10
17.7959752001
 20
1.8424836198
 10
17.8359302876
 20
1.7908864623
 10
17.8753797795
 20
1.7386579813
 10
17.9143076414
 20
1.685819405
 10
17.9526980664
 20
1.6323921913
 10
17.9905355074
 20
1.5783979793
 10
18.0278046471
 20
1.5238586272
 10
18.0644903887
 20
1.468796225
 10
18.1005778353
 20
1.413233129
 10
18.1360523247
 20
1.357191915
 10
18.1708994525
 20
1.300695341
 10
18.2051051069
 20
1.2437662893
 10
18.2386554451
 20
1.1864277985
 10
18.2715368787
 20
1.1287030885
 10
18.3037360527
 20
1.070615601
 10
18.335239882
 20
1.0121889417
 10
18.3660355745
 20
0.953446838
 10
18.3961106596
 20
0.8944130804
 10
18.425452965
 20
0.8351115623
 10
18.4540506051
 20
0.7755663008
 10
18.4818919657
 20
0.7158014752
 10
18.508965734
 20
0.6558413697
 10
18.5352609181
 20
0.595710332
 10
18.5607668693
 20
0.535432717
 10
18.5854732631
 20
0.4750329238
 10
18.6093700909
 20
0.4145354174
 10
18.6324476482
 20
0.3539647615
 10
18.6546965595
 20
0.2933455634
 10
18.6761077933
 20
0.2327024343
 10
18.6966726776
 20
0.1720599399
 10
18.716382886
 20
0.1114426337
 10
18.7352304321
 20
0.0508750733
 10
18.7532076632
 20
-0.0096181533
 10
18.770307278
 20
-0.0700124778
 10
18.786522337
 20
-0.1302833857
 10
18.8018462714
 20
-0.190406457
 10
18.8162728747
 20
-0.2503573403
 10
18.8297962998
 20
-0.3101117419
 10
18.8424110571
 20
-0.3696454095
 10
18.8541120251
 20
-0.4289341741
 10
18.8648944565
 20
-0.4879539763
 10
18.8747539823
 20
-0.5466808966
 10
18.8836866074
 20
-0.6050911393
 10
18.8916887105
 20
-0.6631610276
 10
18.8987570439
 20
-0.7208670002
 10
18.9048887395
 20
-0.7781856403
 10
18.9100813101
 20
-0.8350936954
 10
18.9143326512
 20
-0.8915680947
 10
18.9176410393
 20
-0.947585944
 10
18.9200051327
 20
-1.0031245293
 10
18.9214239724
 20
-1.0581613236
 10
18.9218969827
 20
-1.1126740044
 10
18.9214239719
 20
-1.1666404644
 10
18.9200051317
 20
-1.220038818
 10
18.9176410378
 20
-1.2728474073
 10
18.9143326492
 20
-1.3250448125
 10
18.9100813076
 20
-1.3766098692
 10
18.9048887365
 20
-1.4275216735
 10
18.8987570404
 20
-1.477759585
 10
18.8916887065
 20
-1.5273032229
 10
18.8836866029
 20
-1.5761324829
 10
18.8747539773
 20
-1.6242275535
 10
18.864894451
 20
-1.6715689402
 10
18.8541120191
 20
-1.7181374604
 10
18.8424110506
 20
-1.76391424
 10
18.8297962929
 20
-1.8088807018
 10
18.8162728673
 20
-1.8530185905
 10
18.8018462635
 20
-1.8963099935
 10
18.7865223286
 20
-1.938737369
 10
18.7703072692
 20
-1.9802835328
 10
18.7532076538
 20
-2.0209316502
 10
18.7352304223
 20
-2.0606652204
 10
18.7163828758
 20
-2.0994681065
 10
18.6966726669
 20
-2.1373245576
 10
18.6761077821
 20
-2.1742192385
 10
18.6546965478
 20
-2.210137211
 10
18.6324476361
 20
-2.2450639235
 10
18.6093700784
 20
-2.2789851941
 10
18.5854732502
 20
-2.3118872423
 10
18.5607668559
 20
-2.3437567105
 10
18.5352609043
 20
-2.374580692
 10
18.5089657197
 20
-2.4043467097
 10
18.481891951
 20
-2.4330427055
 10
18.45405059
 20
-2.460657025
 10
18.4254529496
 20
-2.4871784479
 10
18.3961106438
 20
-2.5125962068
 10
18.3660355582
 20
-2.5369000093
  0
LWPOLYLINE
  5
3CD
100
AcDbEntity
  8
0
100
AcDbPolyline
 62
7
  6
CONTINUOUS
 90
75
 70
0
 10
-0.8131559136
 20
23.5415329985
 10
-0.8330348074
 20
23.56736315
 10
-0.85068044
 20
23.5918264639
 10
-0.8673465425
 20
23.6165019399
 10
-0.8830329058
 20
23.6413906241
 10
-0.8977336302
 20
23.666484598
 10
-0.9114472405
 20
23.6917755326
 10
-0.9241752118
 20
23.7172717569
 10
-0.9359160703
 20
23.7429903396
 10
-0.9466762104
 20
23.7689351087
 10
-0.9564492376
 20
23.7951022362
 10
-0.965214495
 20
23.8214973066
 10
-0.972975847
 20
23.8481247407
 10
-0.9797294293
 20
23.8749801177
 10
-0.9854429914
 20
23.9020557602
 10
-0.9901185638
 20
23.9293525036
 10
-0.9937541161
 20
23.9568695124
 10
-0.9963113066
 20
23.9845966028
 10
-0.9977903558
 20
24.012545191
 10
-0.9981910434
 20
24.0407038609
 10
-0.9974743662
 20
24.0690281799
 10
-0.9956369636
 20
24.0975186298
 10
-0.9926821963
 20
24.1261747288
 10
-0.9885811434
 20
24.1549505998
 10
-0.9833387143
 20
24.1838275796
 10
-0.9769499997
 20
24.2128243313
 10
-0.96937135
 20
24.2419509677
 10
-0.9606032061
 20
24.2712183309
 10
-0.9506451273
 20
24.3006155788
 10
-0.9394521423
 20
24.330120297
 10
-0.9270064981
 20
24.3597625172
 10
-0.9133259478
 20
24.3895122078
 10
-0.898418779
 20
24.419256859
 10
-0.8822670751
 20
24.449001294
 10
-0.8648887528
 20
24.4787406897
 10
-0.8463458497
 20
24.5083480676
 10
-0.8266070538
 20
24.5378379931
 10
-0.8057036772
 20
24.5671959007
 10
-0.7837916932
 20
24.5962511156
 10
-0.7608284411
 20
24.6250178838
 10
-0.7368565817
 20
24.6534819593
 10
-0.7121600706
 20
24.6814299292
 10
-0.6865324373
 20
24.7090087266
 10
-0.6601801523
 20
24.7360714184
 10
-0.6340065838
 20
24.7619637928
 10
-0.6081855731
 20
24.7864698605
 10
-0.5825432789
 20
24.8098056108
 10
-0.5574615456
 20
24.8319647999
 10
-0.5330469492
 20
24.852876127
 10
-0.5091929137
 20
24.8726108929
 10
-0.485961555
 20
24.8913767571
 10
-0.4633978505
 20
24.9091672428
 10
-0.4414568229
 20
24.9259888268
 10
-0.4200656563
 20
24.9420685993
 10
-0.399256167
 20
24.9574065927
 10
-0.3789965387
 20
24.9720027746
 10
-0.3591185078
 20
24.9860841382
 10
-0.3396414653
 20
24.9996550608
 10
-0.3205460202
 20
25.0127111651
 10
-0.3016057357
 20
25.0254663119
 10
-0.2828300205
 20
25.0379276612
 10
-0.2642094659
 20
25.0500880531
 10
-0.2454894098
 20
25.0621398684
 10
-0.2266120145
 20
25.0741276116
 10
-0.2076351177
 20
25.0860067783
 10
-0.1884775694
 20
25.0978362358
 10
-0.16909983
 20
25.1096418045
 10
-0.1495414392
 20
25.121397664
 10
-0.129839866
 20
25.1330852212
 10
-0.1099921478
 20
25.1447055745
 10
-0.0900012473
 20
25.1562576255
 10
-0.0699135217
 20
25.167719486
 10
-0.0497444235
 20
25.1790838601
 10
-0.0294785001
 20
25.1903580438
 10
-0.0091157517
 20
25.201542037
  0
LWPOLYLINE
  5
3CE
100
AcDbEntity
  8
0
100
AcDbPolyline
 62
7
  6
CONTINUOUS
 90
8
 70
0
 10
9.8668263779
 20
17.2843243362
 10
9.8640140107
 20
17.2956983502
 10
9.8582687616
 20
17.3232111507
 10
9.8535643699
 20
17.350789769
 10
9.8499030746
 20
17.3784210791
 10
9.8472866182
 20
17.4060919301
 10
9.8457162461
 20
17.4337891521
 10
9.8451927057
 20
17.4614995628
  0
LINE
  5
3CF
100
AcDbEntity
  8
DRAFT
100
AcDbLine
 62
7
  6
CONTINUOUS
 10
12.5354471967
 20
17.0010551335
 11
12.5461875912
 21
16.9369238758
  0
LWPOLYLINE
  5
3D0
100
AcDbEntity
  8
RACCORDO
100
AcDbPolyline
 62
7
  6
CONTINUOUS
 90
31
 70
0
 10
17.3714144217
 20
17.1447661415
 10
17.3711361159
 20
17.1777219684
 10
17.3700045484
 20
17.2191611977
 10
17.3680075502
 20
17.2607308231
 10
17.3651484361
 20
17.3024463822
 10
17.361432766
 20
17.3442805676
 10
17.3568723929
 20
17.3861603372
 10
17.3514745281
 20
17.4280816978
 10
17.3452457172
 20
17.4700388643
 10
17.3382044171
 20
17.5119541957
 10
17.3303598695
 20
17.5538232511
 10
17.3217201718
 20
17.5956414771
 10
17.3123105091
 20
17.6373290876
 10
17.3021425486
 20
17.6788785098
 10
17.2912254148
 20
17.7202885889
 10
17.2795881761
 20
17.7614871269
 10
17.2672475433
 20
17.8024542936
 10
17.2542104683
 20
17.8432015954
 10
17.2404952677
 20
17.883701795
 10
17.2261146873
 20
17.9239450115
 10
17.2110771825
 20
17.9639321486
 10
17.1953954368
 20
18.0036498784
 10
17.1790789423
 20
18.0430928354
 10
17.1621359722
 20
18.0822564245
 10
17.1445784199
 20
18.1211265572
 10
17.1264147647
 20
18.1596966051
 10
17.1076516762
 20
18.1979616541
 10
17.0882990812
 20
18.2359096133
 10
17.068364163
 20
18.273532763
 10
17.0478522619
 20
18.3108260635
 10
17.0303645913
 20
18.3415737892
  0
LWPOLYLINE
  5
3D1
100
AcDbEntity
  8
RACCORDO
100
AcDbPolyline
 62
253
  6
CONTINUOUS
 90
37
 70
0
 10
17.0907542318
 20
16.7436803693
 10
17.0905243029
 20
16.779555468
 10
17.0896158196
 20
16.8157984926
 10
17.0880291736
 20
16.8523921666
 10
17.0857650486
 20
16.889318958
 10
17.0828245235
 20
16.9265613578
 10
17.0792090605
 20
16.9641018934
 10
17.0749203337
 20
17.0019227975
 10
17.0699603484
 20
17.040005944
 10
17.064331544
 20
17.0783331264
 10
17.0580365932
 20
17.1168860383
 10
17.0510784517
 20
17.155646373
 10
17.043460467
 20
17.1945957634
 10
17.0351862534
 20
17.2337156724
 10
17.0262597235
 20
17.2729874714
 10
17.0166851398
 20
17.3123925388
 10
17.0064670472
 20
17.3519121537
 10
16.9956102958
 20
17.3915274756
 10
16.984120069
 20
17.4312196252
 10
16.9720018412
 20
17.4709697213
 10
16.9592613709
 20
17.510758847
 10
16.9459047233
 20
17.5505680295
 10
16.9319382816
 20
17.5903783091
 10
16.9173686849
 20
17.6301707738
 10
16.902202821
 20
17.6699265235
 10
16.8864479304
 20
17.7096266567
 10
16.8701115189
 20
17.7492522913
 10
16.8532012931
 20
17.7887845982
 10
16.8357253039
 20
17.8282048472
 10
16.8176919071
 20
17.8674942333
 10
16.7991096783
 20
17.9066338976
 10
16.779987559
 20
17.9456051301
 10
16.7603346264
 20
17.9843895206
 10
16.7401600453
 20
18.0229687817
 10
16.719473374
 20
18.0613246271
 10
16.6982845696
 20
18.0994387834
 10
16.3192459309
 20
18.7562550504
  0
LINE
  5
3D2
100
AcDbEntity
  8
RACCORDO
100
AcDbLine
 62
253
  6
CONTINUOUS
 10
17.0907542318
 20
-3.0401687996
 11
17.0907542318
 21
-11.8886266982
  0
LINE
  5
3D3
100
AcDbEntity
  8
RACCORDO
100
AcDbLine
 62
253
  6
CONTINUOUS
 10
17.0907542318
 20
-1.4941857315
 11
17.0907542318
 21
6.3492393898
  0
LINE
  5
3D4
100
AcDbEntity
  8
RACCORDO
100
AcDbLine
 62
253
  6
CONTINUOUS
 10
17.0907542318
 20
7.8952224516
 11
17.0907542318
 21
16.7436803693
  0
LINE
  5
3D5
100
AcDbEntity
  8
RACCORDO
100
AcDbLine
 62
7
  6
CONTINUOUS
 10
17.3714144291
 20
-3.2768354068
 11
17.3714144314
 21
-11.4875396613
  0
LINE
  5
3D6
100
AcDbEntity
  8
RACCORDO
100
AcDbLine
 62
7
  6
CONTINUOUS
 10
17.3714144314
 20
-0.4553092894
 11
17.3714144314
 21
6.1125362838
  0
LINE
  5
3D7
100
AcDbEntity
  8
RACCORDO
100
AcDbLine
 62
7
  6
CONTINUOUS
 10
17.3714144314
 20
8.9340993713
 11
17.3714144314
 21
17.1447674063
  0
LWPOLYLINE
  5
3D8
100
AcDbEntity
  8
RACCORDO
100
AcDbPolyline
 62
253
  6
CONTINUOUS
 90
63
 70
0
 10
17.3714144314
 20
8.9340988937
 10
17.3713088861
 20
8.9067187605
 10
17.3706509084
 20
8.8604842757
 10
17.3694522807
 20
8.8161630599
 10
17.3677788782
 20
8.773662702
 10
17.365680868
 20
8.7328225095
 10
17.363212932
 20
8.693675102
 10
17.3604255636
 20
8.6561928231
 10
17.3573412858
 20
8.6201239606
 10
17.3539974973
 20
8.5854635047
 10
17.3504321383
 20
8.5522174945
 10
17.3466491272
 20
8.520151389
 10
17.3426724641
 20
8.4892420372
 10
17.3385312615
 20
8.4595120671
 10
17.3342230013
 20
8.430796583
 10
17.3297567141
 20
8.4030323654
 10
17.3251614987
 20
8.3762816115
 10
17.320459502
 20
8.3505677839
 10
17.315676069
 20
8.3259274406
 10
17.3108232833
 20
8.302321015
 10
17.3059009523
 20
8.2796577841
 10
17.3009272936
 20
8.2579494909
 10
17.2959139006
 20
8.2371811663
 10
17.2908450977
 20
8.2172228666
 10
17.2857332677
 20
8.1980743324
 10
17.2805877623
 20
8.1797331872
 10
17.2753821396
 20
8.1620675827
 10
17.2701142712
 20
8.1450437459
 10
17.264800211
 20
8.1286939963
 10
17.2594369007
 20
8.1129864899
 10
17.2540190998
 20
8.0978941673
 10
17.2485637269
 20
8.0834426945
 10
17.2431016103
 20
8.0696789545
 10
17.2376409986
 20
8.0566142285
 10
17.232187989
 20
8.044234416
 10
17.2267726831
 20
8.0325473556
 10
17.221411962
 20
8.0215756984
 10
17.2161046725
 20
8.0112928176
 10
17.2108545604
 20
8.0016322342
 10
17.2056743466
 20
7.992601442
 10
17.2005650327
 20
7.9841890379
 10
17.195511376
 20
7.9763005834
 10
17.1905218445
 20
7.9689342489
 10
17.1855985815
 20
7.962088632
 10
17.1807145737
 20
7.9556707333
 10
17.1758738327
 20
7.9496733868
 10
17.1710797608
 20
7.9441014626
 10
17.166302055
 20
7.938880937
 10
17.1615439125
 20
7.9340052422
 10
17.1568069348
 20
7.9294795365
 10
17.152056184
 20
7.925248328
 10
17.1472934474
 20
7.9213048244
 10
17.1425193635
 20
7.9176553488
 10
17.1376950728
 20
7.9142650786
 10
17.1328177967
 20
7.9111260213
 10
17.1278904667
 20
7.9082467438
 10
17.1228808579
 20
7.9056181968
 10
17.1177856383
 20
7.9032350166
 10
17.1126066486
 20
7.9011040131
 10
17.1073179469
 20
7.8992351686
 10
17.1019097014
 20
7.8976326945
 10
17.096388908
 20
7.8962946599
 10
17.0907542318
 20
7.8952222049
  0
LWPOLYLINE
  5
3D9
100
AcDbEntity
  8
RACCORDO
100
AcDbPolyline
 62
253
  6
CONTINUOUS
 90
63
 70
0
 10
17.3714144314
 20
-0.4553092894
 10
17.3713088861
 20
-0.4826894255
 10
17.3706509084
 20
-0.5289239091
 10
17.3694522807
 20
-0.5732451239
 10
17.3677788782
 20
-0.6157454809
 10
17.3656808681
 20
-0.6565856725
 10
17.3632129322
 20
-0.6957330794
 10
17.3604255638
 20
-0.7332153577
 10
17.3573412861
 20
-0.7692842193
 10
17.3539974977
 20
-0.8039446742
 10
17.350432139
 20
-0.8371906831
 10
17.3466491281
 20
-0.8692567874
 10
17.3426724652
 20
-0.9001661379
 10
17.3385312628
 20
-0.9298961067
 10
17.3342230029
 20
-0.9586115899
 10
17.3297567158
 20
-0.9863758072
 10
17.3251615006
 20
-1.0131265612
 10
17.320459504
 20
-1.038840389
 10
17.315676071
 20
-1.0634807325
 10
17.3108232854
 20
-1.0870871584
 10
17.3059009544
 20
-1.1097503896
 10
17.3009272958
 20
-1.131458683
 10
17.2959139028
 20
-1.1522270078
 10
17.2908451
 20
-1.1721853078
 10
17.28573327
 20
-1.1913338422
 10
17.2805877647
 20
-1.2096749877
 10
17.275382142
 20
-1.2273405924
 10
17.2701142737
 20
-1.2443644295
 10
17.2648002135
 20
-1.2607141794
 10
17.2594369031
 20
-1.2764216862
 10
17.2540191023
 20
-1.2915140091
 10
17.2485637294
 20
-1.3059654823
 10
17.2431016128
 20
-1.3197292225
 10
17.2376410012
 20
-1.3327939487
 10
17.2321879916
 20
-1.3451737613
 10
17.2267726858
 20
-1.3568608217
 10
17.2214119649
 20
-1.3678324788
 10
17.2161046757
 20
-1.3781153596
 10
17.2108545637
 20
-1.3877759429
 10
17.2056743501
 20
-1.3968067352
 10
17.2005650363
 20
-1.4052191396
 10
17.1955113795
 20
-1.4131075945
 10
17.1905218475
 20
-1.4204739299
 10
17.1855985838
 20
-1.4273195479
 10
17.1807145755
 20
-1.4337374475
 10
17.1758738339
 20
-1.4397347948
 10
17.1710797616
 20
-1.4453067196
 10
17.1663020555
 20
-1.4505272457
 10
17.1615439128
 20
-1.4554029407
 10
17.156806935
 20
-1.4599286463
 10
17.1520561843
 20
-1.4641598548
 10
17.1472934477
 20
-1.4681033585
 10
17.1425193639
 20
-1.471752834
 10
17.1376950731
 20
-1.4751431043
 10
17.1328177969
 20
-1.4782821617
 10
17.1278904666
 20
-1.4811614394
 10
17.1228808576
 20
-1.4837899865
 10
17.1177856376
 20
-1.4861731668
 10
17.1126066477
 20
-1.4883041704
 10
17.1073179459
 20
-1.4901730149
 10
17.1019097005
 20
-1.4917754889
 10
17.0963889075
 20
-1.4931135234
 10
17.0907542318
 20
-1.4941859783
  0
LWPOLYLINE
  5
3DA
100
AcDbEntity
  8
RACCORDO
100
AcDbPolyline
 62
253
  6
CONTINUOUS
 90
30
 70
0
 10
17.3714144314
 20
-11.4875433055
 10
17.3714024305
 20
-11.4903683676
 10
17.370897639
 20
-11.5060999319
 10
17.3696506257
 20
-11.5218177133
 10
17.3676623168
 20
-11.5375100395
 10
17.3649341887
 20
-11.5531652575
 10
17.3614682673
 20
-11.5687717416
 10
17.3572671266
 20
-11.5843179022
 10
17.3523338862
 20
-11.5997921948
 10
17.3466722096
 20
-11.6151831281
 10
17.3402863012
 20
-11.6304792727
 10
17.3331809032
 20
-11.6456692695
 10
17.3253612922
 20
-11.6607418383
 10
17.316833275
 20
-11.6756857863
 10
17.3076031845
 20
-11.690490016
 10
17.2976778751
 20
-11.7051435336
 10
17.2870647174
 20
-11.7196354574
 10
17.2757715928
 20
-11.7339550255
 10
17.2638068875
 20
-11.7480916043
 10
17.2511794867
 20
-11.7620346958
 10
17.2378987675
 20
-11.7757739457
 10
17.2239745923
 20
-11.7892991513
 10
17.2094173012
 20
-11.8026002686
 10
17.1942377046
 20
-11.8156674201
 10
17.1784470748
 20
-11.8284909022
 10
17.1620571382
 20
-11.841061192
 10
17.145080066
 20
-11.8533689548
 10
17.1275284654
 20
-11.8654050508
 10
17.1094153704
 20
-11.8771605418
 10
17.0907542318
 20
-11.8886266982
  0
LWPOLYLINE
  5
3DB
100
AcDbEntity
  8
RACCORDO
100
AcDbPolyline
 62
253
  6
CONTINUOUS
 90
36
 70
0
 10
17.0907542318
 20
-11.8886266982
 10
17.0905243028
 20
-11.9239857918
 10
17.0896158191
 20
-11.9589426966
 10
17.0880291728
 20
-11.9934808137
 10
17.0857650476
 20
-12.0275837036
 10
17.0828245226
 20
-12.0612352113
 10
17.0792090596
 20
-12.0944194661
 10
17.0749203325
 20
-12.1271207896
 10
17.0699603468
 20
-12.1593235473
 10
17.064331542
 20
-12.1910122732
 10
17.0580365909
 20
-12.2221718568
 10
17.0510784491
 20
-12.2527875446
 10
17.0434604641
 20
-12.2828447839
 10
17.0351862504
 20
-12.3123292809
 10
17.0262597205
 20
-12.3412270227
 10
17.0166851368
 20
-12.3695242788
 10
17.006467044
 20
-12.3972076045
 10
16.9956102923
 20
-12.424263816
 10
16.9841200651
 20
-12.4506800094
 10
16.9720018366
 20
-12.4764436117
 10
16.9592613652
 20
-12.5015423691
 10
16.9459047166
 20
-12.5259643226
 10
16.9319382739
 20
-12.5496978278
 10
16.9173686762
 20
-12.5727316112
 10
16.9022028117
 20
-12.5950547583
 10
16.8864479212
 20
-12.6166566313
 10
16.8701115101
 20
-12.6375269462
 10
16.8532012844
 20
-12.6576558251
 10
16.8357252941
 20
-12.6770336954
 10
16.8176918957
 20
-12.6956512909
 10
16.7991096657
 20
-12.7134997305
 10
16.7799875457
 20
-12.7305704524
 10
16.7603346127
 20
-12.7468553739
 10
16.7401600325
 20
-12.7623468789
 10
16.7194733639
 20
-12.7770376117
 10
16.6982845638
 20
-12.790920494
  0
LWPOLYLINE
  5
3DC
100
AcDbEntity
  8
RACCORDO
100
AcDbPolyline
 62
7
  6
CONTINUOUS
 90
9
 70
0
 10
17.3714147802
 20
6.112582995
 10
17.3715177703
 20
6.1161185421
 10
17.3719503913
 20
6.120669972
 10
17.3726395406
 20
6.1247629483
 10
17.3735090609
 20
6.1283876243
 10
17.37446228
 20
6.1314464186
 10
17.3753463316
 20
6.1337556825
 10
17.3760331602
 20
6.1352754587
 10
17.3764618822
 20
6.1360996317
  0
LWPOLYLINE
  5
3DD
100
AcDbEntity
  8
RACCORDO
100
AcDbPolyline
 62
7
  6
CONTINUOUS
 90
9
 70
0
 10
17.3714147854
 20
-3.2768258104
 10
17.3715177576
 20
-3.2732901594
 10
17.3719503077
 20
-3.2687387264
 10
17.3726394619
 20
-3.2646456544
 10
17.373508968
 20
-3.2610209126
 10
17.374462159
 20
-3.2579620882
 10
17.3753462434
 20
-3.2556527118
 10
17.3760331178
 20
-3.2541328139
 10
17.37646188
 20
-3.2533085582
  0
LWPOLYLINE
  5
3DE
100
AcDbEntity
  8
RACCORDO
100
AcDbPolyline
 62
7
  6
CONTINUOUS
 90
16
 70
0
 10
17.0907542318
 20
-3.0401687996
 10
17.0960840876
 20
-3.0311738983
 10
17.1015775068
 20
-3.0222572909
 10
17.1072344893
 20
-3.0134189776
 10
17.1130546656
 20
-3.0046469114
 10
17.1190384052
 20
-2.9959531392
 10
17.1251868172
 20
-2.9873738013
 10
17.1315046395
 20
-2.9789077087
 10
17.137987134
 20
-2.9705560503
 10
17.1446211961
 20
-2.962358534
 10
17.1514105504
 20
-2.9543164595
 10
17.1583514721
 20
-2.946428527
 10
17.1654196822
 20
-2.9387305456
 10
17.1726070874
 20
-2.9312344516
 10
17.179921781
 20
-2.9239283085
 10
17.1873637629
 20
-2.9168121166
  0
LINE
  5
3DF
100
AcDbEntity
  8
RACCORDO
100
AcDbLine
 62
253
  6
CONTINUOUS
 10
1.5743528405
 20
-25.0625119546
 11
0.9520348084
 21
-25.830139528
  0
LINE
  5
3E0
100
AcDbEntity
  8
RACCORDO
100
AcDbLine
 62
253
  6
CONTINUOUS
 10
1.9273890285
 20
-25.1812482778
 11
1.2161684204
 21
-26.0585369331
  0
LINE
  5
3E1
100
AcDbEntity
  8
DRAFT
100
AcDbLine
 62
7
  6
CONTINUOUS
 10
2.7820938722
 20
-16.0764022441
 11
2.0926647605
 21
-16.3908008506
  0
LINE
  5
3E2
100
AcDbEntity
  8
DRAFT
100
AcDbLine
 62
7
  6
CONTINUOUS
 10
2.0926647605
 20
-17.4917857309
 11
3.878109383
 21
-16.7092278637
  0
LINE
  5
3E3
100
AcDbEntity
  8
RACCORDO
100
AcDbLine
 62
7
  6
CONTINUOUS
 10
-2.4378291561
 20
15.9850136934
 11
-2.5497248073
 21
15.9597797619
  0
LINE
  5
3E4
100
AcDbEntity
  8
RACCORDO
100
AcDbLine
 62
7
  6
CONTINUOUS
 10
-2.4227024281
 20
15.9883354849
 11
-2.4378291561
 21
15.9850136934
  0
LINE
  5
3E5
100
AcDbEntity
  8
RACCORDO
100
AcDbLine
 62
7
  6
CONTINUOUS
 10
-2.5497248073
 20
15.9597797619
 11
-2.5750393518
 21
15.95423186
  0
LWPOLYLINE
  5
3E6
100
AcDbEntity
  8
RACCORDO
100
AcDbPolyline
 62
7
  6
CONTINUOUS
 90
8
 70
0
 10
-2.5750393518
 20
15.95423186
 10
-2.5992350856
 20
15.9491461249
 10
-2.6108982041
 20
15.9467868998
 10
-2.6222729867
 20
15.9445720559
 10
-2.633339589
 20
15.9424926282
 10
-2.6440925434
 20
15.9405552776
 10
-2.6545419759
 20
15.9387818526
 10
-2.6646912398
 20
15.9371854896
  0
LWPOLYLINE
  5
3E7
100
AcDbEntity
  8
RACCORDO
100
AcDbPolyline
 62
7
  6
CONTINUOUS
 90
11
 70
0
 10
-2.2418688599
 20
16.0187041831
 10
-2.2591635279
 20
16.0170813711
 10
-2.2763579261
 20
16.0150413493
 10
-2.2934162639
 20
16.0126705337
 10
-2.3103070973
 20
16.0100795006
 10
-2.3270113601
 20
16.0073209867
 10
-2.34351818
 20
16.0043777317
 10
-2.3598115869
 20
16.0013016868
 10
-2.3758813799
 20
15.9981563686
 10
-2.3917245337
 20
15.9949200013
 10
-2.4227024281
 20
15.9883354849
  0
LWPOLYLINE
  5
3E8
100
AcDbEntity
  8
RACCORDO
100
AcDbPolyline
 62
7
  6
CONTINUOUS
 90
22
 70
0
 10
-1.5796511524
 20
19.8730649089
 10
-1.5834761456
 20
19.8746699763
 10
-1.5870981315
 20
19.8759142939
 10
-1.5908194627
 20
19.8769368661
 10
-1.5946352924
 20
19.8777363195
 10
-1.5985407019
 20
19.8783115763
 10
-1.6025313068
 20
19.8786622064
 10
-1.6066019141
 20
19.8787876442
 10
-1.6107472777
 20
19.8786876214
 10
-1.6149627794
 20
19.8783625598
 10
-1.6192429381
 20
19.877812706
 10
-1.6235822385
 20
19.8770386019
 10
-1.6279758871
 20
19.8760415173
 10
-1.6324181749
 20
19.8748225061
 10
-1.6369033786
 20
19.8733829127
 10
-1.6414265909
 20
19.8717248408
 10
-1.6459819378
 20
19.8698501379
 10
-1.6505635508
 20
19.8677609343
 10
-1.655166469
 20
19.8654601442
 10
-1.6597850618
 20
19.8629505755
 10
-1.664413035
 20
19.8602349298
 10
-1.6690444041
 20
19.8573163359
  0
LWPOLYLINE
  5
3E9
100
AcDbEntity
  8
RACCORDO
100
AcDbPolyline
 62
7
  6
CONTINUOUS
 90
51
 70
0
 10
-1.5796511764
 20
19.8730649227
 10
-1.5905334726
 20
19.8780093952
 10
-1.6135975372
 20
19.8880198882
 10
-1.6370248493
 20
19.897567383
 10
-1.6607995172
 20
19.9066528857
 10
-1.6849076697
 20
19.915277661
 10
-1.7093318595
 20
19.9234411621
 10
-1.7340546685
 20
19.9311433397
 10
-1.7590614999
 20
19.9383846309
 10
-1.7843347764
 20
19.9451643768
 10
-1.8098571342
 20
19.9514823808
 10
-1.8356134619
 20
19.9573385843
 10
-1.8615862211
 20
19.9627323876
 10
-1.8877576786
 20
19.9676634613
 10
-1.914111591
 20
19.9721314079
 10
-1.940629426
 20
19.9761356991
 10
-1.9672941428
 20
19.9796762192
 10
-1.9940910131
 20
19.9827527911
 10
-2.0210008188
 20
19.9853650429
 10
-2.0480070859
 20
19.9875129304
 10
-2.0750987388
 20
19.9891964442
 10
-2.102257833
 20
19.9904153289
 10
-2.1294666267
 20
19.9911692579
 10
-2.1567141412
 20
19.991457872
 10
-2.1839827256
 20
19.9912808914
 10
-2.2112542665
 20
19.9906378669
 10
-2.2385171311
 20
19.9895281336
 10
-2.2657537382
 20
19.9879513585
 10
-2.2929457417
 20
19.9859070257
 10
-2.3200806721
 20
19.9833942594
 10
-2.3471407733
 20
19.9804126677
 10
-2.3741076444
 20
19.9769616834
 10
-2.4009684213
 20
19.9730402129
 10
-2.4277077176
 20
19.9686473071
 10
-2.4543044199
 20
19.9637826748
 10
-2.4807380304
 20
19.9584464784
 10
-2.5069925375
 20
19.9526379412
 10
-2.5330474917
 20
19.946357048
 10
-2.5588772251
 20
19.9396057501
 10
-2.5844639468
 20
19.932384081
 10
-2.6097895843
 20
19.9246920577
 10
-2.6348298867
 20
19.9165320666
 10
-2.6595673282
 20
19.9079042885
 10
-2.6839842888
 20
19.8988089757
 10
-2.7080581537
 20
19.8892485657
 10
-2.7317711337
 20
19.8792234203
 10
-2.7551066698
 20
19.8687334173
 10
-2.7780457386
 20
19.8577794535
 10
-2.8005709914
 20
19.8463612966
 10
-2.822664329
 20
19.8344794243
 10
-2.8380203818
 20
19.8257953894
  0
LWPOLYLINE
  5
3EA
100
AcDbEntity
  8
RACCORDO
100
AcDbPolyline
 62
253
  6
CONTINUOUS
 90
14
 70
0
 10
-11.4120453867
 20
23.2362793723
 10
-11.4196322372
 20
23.2397477211
 10
-11.4276483841
 20
23.2424916499
 10
-11.4360211176
 20
23.2444809892
 10
-11.4447222594
 20
23.2457090308
 10
-11.4537225545
 20
23.2461716411
 10
-11.4629917694
 20
23.245867262
 10
-11.472498746
 20
23.2447969115
 10
-11.4822115471
 20
23.2429641797
 10
-11.4920975167
 20
23.2403752229
 10
-11.5021233803
 20
23.2370387564
 10
-11.5122554243
 20
23.2329660078
 10
-11.5224596112
 20
23.2281706668
 10
-11.5327016457
 20
23.2226688565
  0
LWPOLYLINE
  5
3EB
100
AcDbEntity
  8
RACCORDO
100
AcDbPolyline
 62
7
  6
CONTINUOUS
 90
3
 70
0
 10
-1.5748308066
 20
19.8705683577
 10
-1.5765470263
 20
19.8715218124
 10
-1.5796511524
 20
19.8730649089
  0
LWPOLYLINE
  5
3EC
100
AcDbEntity
  8
RACCORDO
100
AcDbPolyline
 62
7
  6
CONTINUOUS
 90
24
 70
0
 10
-2.8040496992
 20
19.7777599004
 10
-2.8090058697
 20
19.7805346676
 10
-2.8139297267
 20
19.7831179901
 10
-2.8188152903
 20
19.7855067954
 10
-2.8236567981
 20
19.7876980853
 10
-2.8284483158
 20
19.7896893729
 10
-2.8331837407
 20
19.7914786788
 10
-2.8378575694
 20
19.7930637441
 10
-2.8424642166
 20
19.7944426801
 10
-2.8469976224
 20
19.795614398
 10
-2.8514526307
 20
19.7965773291
 10
-2.855824039
 20
19.797330281
 10
-2.8601059142
 20
19.7978730807
 10
-2.864293508
 20
19.7982048675
 10
-2.8683820533
 20
19.7983251555
 10
-2.8723658158
 20
19.7982346947
 10
-2.8762405028
 20
19.7979333413
 10
-2.8800018394
 20
19.7974213192
 10
-2.8836443722
 20
19.796700293
 10
-2.8871643125
 20
19.7957708345
 10
-2.8905579198
 20
19.7946338694
 10
-2.8938200869
 20
19.7932919507
 10
-2.8969475687
 20
19.791746355
 10
-2.8982324623
 20
19.7910297247
  0
LINE
  5
3ED
100
AcDbEntity
  8
RACCORDO
100
AcDbLine
 62
7
  6
CONTINUOUS
 10
0.1800381094
 20
18.0547849991
 11
-2.8040496992
 21
19.7777599004
  0
LINE
  5
3EE
100
AcDbEntity
  8
RACCORDO
100
AcDbLine
 62
253
  6
CONTINUOUS
 10
0.820157961
 20
18.4200820874
 11
-1.6690445489
 21
19.8573164195
  0
LINE
  5
3EF
100
AcDbEntity
  8
RACCORDO
100
AcDbLine
 62
7
  6
CONTINUOUS
 10
0.8790833928
 20
18.4537090537
 11
-1.5748308198
 21
19.8705683653
  0
LINE
  5
3F0
100
AcDbEntity
  8
ASSI
100
AcDbLine
 62
7
  6
CONTINUOUS
 10
-1.460546815
 20
20.3084853077
 11
1.3180014632
 21
18.7041863553
  0
LINE
  5
3F1
100
AcDbEntity
  8
DRAFT
100
AcDbLine
 62
7
  6
CONTINUOUS
 10
9.9890456415
 20
15.1765525322
 11
9.2363515576
 21
16.4802569268
  0
LINE
  5
3F2
100
AcDbEntity
  8
0
100
AcDbLine
 62
253
  6
CONTINUOUS
 10
10.0995267507
 20
19.3649396427
 11
10.4895577871
 21
18.3597036681
  0
LWPOLYLINE
  5
3F3
100
AcDbEntity
  8
RACCORDO
100
AcDbPolyline
 62
253
  6
CONTINUOUS
 90
63
 70
0
 10
17.3714144314
 20
0.3230413097
 10
17.3767087533
 20
0.3043355804
 10
17.3891105437
 20
0.2566652141
 10
17.400726954
 20
0.2078496155
 10
17.4115309527
 20
0.1579340013
 10
17.4214414054
 20
0.1070250464
 10
17.4304377844
 20
0.0551589582
 10
17.4385125437
 20
0.0023034368
 10
17.4456072374
 20
-0.051535942
 10
17.4517350683
 20
-0.1069032021
 10
17.4568453613
 20
-0.1632504121
 10
17.460822822
 20
-0.2189222484
 10
17.4636293677
 20
-0.2736324356
 10
17.4653551089
 20
-0.3276395951
 10
17.4661324416
 20
-0.3800920184
 10
17.465990815
 20
-0.4307561347
 10
17.4649820867
 20
-0.4798389367
 10
17.4632893094
 20
-0.5271468547
 10
17.46096324
 20
-0.5725619077
 10
17.4580293348
 20
-0.6161838854
 10
17.4546285876
 20
-0.6581471004
 10
17.4508064259
 20
-0.6984094239
 10
17.4465777947
 20
-0.7370022107
 10
17.4420277111
 20
-0.7741715619
 10
17.4371892709
 20
-0.8099162741
 10
17.4320741776
 20
-0.8442316385
 10
17.4267256623
 20
-0.8773595353
 10
17.4211652407
 20
-0.9093182232
 10
17.4154043129
 20
-0.9400863805
 10
17.4094638455
 20
-0.9698470706
 10
17.4033474491
 20
-0.9986586642
 10
17.397076236
 20
-1.0264613511
 10
17.3906939789
 20
-1.0532611411
 10
17.3842164648
 20
-1.0790397695
 10
17.3776498366
 20
-1.1038149281
 10
17.3710216469
 20
-1.1276466239
 10
17.3643500154
 20
-1.1505116366
 10
17.3576346929
 20
-1.172433143
 10
17.3508732257
 20
-1.1935407587
 10
17.3440780038
 20
-1.2138319576
 10
17.337250034
 20
-1.2333094924
 10
17.3303672919
 20
-1.2521108934
 10
17.323429401
 20
-1.2702613027
 10
17.3164465609
 20
-1.2877359228
 10
17.3094109685
 20
-1.3045973654
 10
17.3023115782
 20
-1.3208780613
 10
17.2951672462
 20
-1.3365459398
 10
17.2880144198
 20
-1.3515668155
 10
17.2808505528
 20
-1.3659397024
 10
17.2736850069
 20
-1.3796658319
 10
17.266571817
 20
-1.3927142449
 10
17.2595221373
 20
-1.4050600027
 10
17.2525303258
 20
-1.4167280889
 10
17.2456246426
 20
-1.4277623272
 10
17.2388171577
 20
-1.4381467067
 10
17.2320996158
 20
-1.4478971194
 10
17.2254690308
 20
-1.4571051971
 10
17.2189323455
 20
-1.4657690558
 10
17.2124849795
 20
-1.4738903753
 10
17.206106045
 20
-1.4815661391
 10
17.1997889667
 20
-1.4888286064
 10
17.1935416715
 20
-1.4956452855
 10
17.187364721
 20
-1.5020160386
  0
LWPOLYLINE
  5
3F4
100
AcDbEntity
  8
RACCORDO
100
AcDbPolyline
 62
7
  6
CONTINUOUS
 90
43
 70
0
 10
16.6890132389
 20
-12.7966449592
 10
16.70716396
 20
-12.7854393595
 10
16.7358077652
 20
-12.7669228719
 10
16.7639908312
 20
-12.7476653251
 10
16.7916857264
 20
-12.7276843309
 10
16.8188819032
 20
-12.7069868133
 10
16.8455844794
 20
-12.6855668682
 10
16.8717747545
 20
-12.6634362628
 10
16.8974345424
 20
-12.6406073078
 10
16.9225679086
 20
-12.6170720473
 10
16.9471562872
 20
-12.5928424691
 10
16.9711815476
 20
-12.5679312671
 10
16.9946464653
 20
-12.5423288364
 10
17.0175333862
 20
-12.5160460041
 10
17.0398233412
 20
-12.4890965707
 10
17.0615153243
 20
-12.4614725858
 10
17.0825916787
 20
-12.4331856416
 10
17.1030342709
 20
-12.4042490836
 10
17.1228399987
 20
-12.3746550441
 10
17.1419913474
 20
-12.3444159269
 10
17.1604712433
 20
-12.3135446198
 10
17.1782758697
 20
-12.2820311863
 10
17.1953859884
 20
-12.2498918724
 10
17.2117873964
 20
-12.2171353866
 10
17.2274813148
 20
-12.1837367446
 10
17.2424478312
 20
-12.1497117056
 10
17.2566719817
 20
-12.1150673596
 10
17.2701574034
 20
-12.0797604408
 10
17.282891712
 20
-12.043778147
 10
17.2948468147
 20
-12.0071524352
 10
17.3060012209
 20
-11.9699031271
 10
17.3163380844
 20
-11.9320371564
 10
17.3258394001
 20
-11.89356706
 10
17.3344853828
 20
-11.8545184472
 10
17.3422612682
 20
-11.8148987696
 10
17.3491518053
 20
-11.7747188535
 10
17.3551401193
 20
-11.7340066209
 10
17.3602132742
 20
-11.6927694867
 10
17.3643581355
 20
-11.6510164
 10
17.3675606836
 20
-11.608774261
 10
17.3698088843
 20
-11.5660555427
 10
17.371091517
 20
-11.5228624931
 10
17.3714144223
 20
-11.4875433055
  0
LINE
  5
3F5
100
AcDbEntity
  8
RACCORDO
100
AcDbLine
 62
253
  6
CONTINUOUS
 10
16.6982845638
 20
-12.790920494
 11
16.6890394964
 21
-12.7966291863
  0
LINE
  5
3F6
100
AcDbEntity
  8
RACCORDO
100
AcDbLine
 62
253
  6
CONTINUOUS
 10
3.878109383
 20
-19.9007599306
 11
17.0907542318
 21
-11.8886266982
  0
LINE
  5
3F7
100
AcDbEntity
  8
RACCORDO
100
AcDbLine
 62
7
  6
CONTINUOUS
 10
3.878109383
 20
-20.5651630471
 11
16.6890395774
 21
-12.7966291371
  0
LINE
  5
3F8
100
AcDbEntity
  8
RACCORDO
100
AcDbLine
 62
7
  6
CONTINUOUS
 10
8.5741065255
 20
-17.8653796547
 11
3.878109383
 21
-20.5768101336
  0
LINE
  5
3F9
100
AcDbEntity
  8
RACCORDO
100
AcDbLine
 62
7
  6
CONTINUOUS
 10
-12.3468183188
 20
20.4479525715
 11
-11.7190593675
 21
20.3901478041
  0
LINE
  5
3FA
100
AcDbEntity
  8
RACCORDO
100
AcDbLine
 62
253
  6
CONTINUOUS
 10
-12.148149744
 20
20.5942386678
 11
-11.4369291359
 21
20.5287486549
  0
LWPOLYLINE
  5
3FB
100
AcDbEntity
  8
0
100
AcDbPolyline
 62
253
  6
CONTINUOUS
 90
16
 70
0
 10
12.6491258552
 20
16.9193994468
 10
12.6288833145
 20
16.9221214547
 10
12.5196544486
 20
16.9334742995
 10
12.4095693317
 20
16.9416157336
 10
12.2989109906
 20
16.9465248255
 10
12.1879639261
 20
16.9481889535
 10
12.0770133889
 20
16.9466038387
 10
11.9663446419
 20
16.9417735568
 10
11.8562422251
 20
16.9337105277
 10
11.7469892048
 20
16.9224354817
 10
11.6388664534
 20
16.9079774048
 10
11.532151946
 20
16.8903734657
 10
11.4271200593
 20
16.8696689246
 10
11.3240408471
 20
16.8459170154
 10
11.2231793194
 20
16.8191788024
 10
11.1815848457
 20
16.8066410963
  0
LWPOLYLINE
  5
3FC
100
AcDbEntity
  8
0
100
AcDbPolyline
 62
7
  6
CONTINUOUS
 90
15
 70
0
 10
12.6653509275
 20
16.9237319203
 10
12.6417598647
 20
16.9269450694
 10
12.5257635386
 20
16.9390563736
 10
12.4089632288
 20
16.9476101328
 10
12.2916638973
 20
16.9525935017
 10
12.1741369628
 20
16.9540019109
 10
12.0566782888
 20
16.951835873
 10
11.9395767371
 20
16.9461027283
 10
11.8230924809
 20
16.9368136129
 10
11.7075172875
 20
16.9239867641
 10
11.5931362561
 20
16.907646589
 10
11.4801938973
 20
16.8878163739
 10
11.3689627076
 20
16.86452724
 10
11.2597327817
 20
16.837820371
 10
11.1585053868
 20
16.8093510274
  0
LWPOLYLINE
  5
3FD
100
AcDbEntity
  8
ASSI
100
AcDbPolyline
 62
7
  6
CONTINUOUS
 90
16
 70
0
 10
-1.908834551
 20
20.4579241806
 10
-1.8752176511
 20
20.4523555479
 10
-1.8420366924
 20
20.4461307171
 10
-1.809291675
 20
20.4392496883
 10
-1.7769438073
 20
20.4317025109
 10
-1.7450318808
 20
20.4234991355
 10
-1.7136722701
 20
20.4146694134
 10
-1.6828669137
 20
20.4052110284
 10
-1.652613873
 20
20.3951262968
 10
-1.6230237069
 20
20.3844520186
 10
-1.5940990971
 20
20.3731861701
 10
-1.5658373618
 20
20.3613307749
 10
-1.5383410147
 20
20.348928704
 10
-1.5116442267
 20
20.3359942477
 10
-1.4857128268
 20
20.3225131156
 10
-1.460546815
 20
20.3084853077
  0
LWPOLYLINE
  5
3FE
100
AcDbEntity
  8
RACCORDO
100
AcDbPolyline
 62
7
  6
CONTINUOUS
 90
15
 70
0
 10
3.8485154134
 20
19.4177993256
 10
3.8472790484
 20
19.4182690613
 10
3.8447707161
 20
19.418547139
 10
3.8414554234
 20
19.4183669415
 10
3.83738013
 20
19.4177440568
 10
3.8325663846
 20
19.4167174377
 10
3.8270444418
 20
19.41530325
 10
3.820855662
 20
19.4135148558
 10
3.8140225865
 20
19.4113871678
 10
3.8065732585
 20
19.4089287389
 10
3.7985453097
 20
19.4061540455
 10
3.7899715109
 20
19.4031059702
 10
3.7808990373
 20
19.3997983733
 10
3.7713490827
 20
19.3962323914
 10
3.7507833823
 20
19.388415718
  0
LWPOLYLINE
  5
3FF
100
AcDbEntity
  8
RACCORDO
100
AcDbPolyline
 62
7
  6
CONTINUOUS
 90
21
 70
0
 10
0.7365342615
 20
22.246407036
 10
0.7286237165
 20
22.2508323364
 10
0.707926944
 20
22.2611326428
 10
0.6864344294
 20
22.2700319295
 10
0.6641706851
 20
22.2775273298
 10
0.6412749049
 20
22.2835716771
 10
0.6177656186
 20
22.2881526817
 10
0.5936242965
 20
22.2912826332
 10
0.5689345432
 20
22.292951234
 10
0.5436731169
 20
22.2931528004
 10
0.5178632594
 20
22.2918930161
 10
0.4916583006
 20
22.2891786343
 10
0.465074338
 20
22.2850043366
 10
0.4380952739
 20
22.2793754415
 10
0.4108261453
 20
22.2723146576
 10
0.3832519656
 20
22.2638121183
 10
0.3553877214
 20
22.2538776902
 10
0.3273834083
 20
22.2425636816
 10
0.2992890251
 20
22.2298875287
 10
0.2710545731
 20
22.2158317953
 10
0.2426800523
 20
22.2003964814
  0
LINE
  5
400
100
AcDbEntity
  8
0
100
AcDbLine
 62
7
  6
CONTINUOUS
 10
2.7239648349
 20
19.5065272368
 11
-0.416315699
 21
21.3196858601
  0
LINE
  5
401
100
AcDbEntity
  8
RACCORDO
100
AcDbLine
 62
253
  6
CONTINUOUS
 10
-2.4882844397
 20
22.9098311638
 11
-1.882754005
 21
22.5602054799
  0
LINE
  5
402
100
AcDbEntity
  8
RACCORDO
100
AcDbLine
 62
253
  6
CONTINUOUS
 10
3.0669934633
 20
19.7022833266
 11
3.672523898
 21
19.3526576427
  0
LINE
  5
403
100
AcDbEntity
  8
RACCORDO
100
AcDbLine
 62
7
  6
CONTINUOUS
 10
-2.1683655133
 20
22.8918700924
 11
-1.706440363
 21
22.6251602999
  0
LINE
  5
404
100
AcDbEntity
  8
RACCORDO
100
AcDbLine
 62
7
  6
CONTINUOUS
 10
3.3865902241
 20
19.6845082696
 11
3.8485153744
 21
19.4177984771
  0
LINE
  5
405
100
AcDbEntity
  8
DRAFT
100
AcDbLine
 62
7
  6
CONTINUOUS
 10
8.5321519987
 20
16.8868529264
 11
9.2363515576
 21
16.4802569268
  0
LINE
  5
406
100
AcDbEntity
  8
0
100
AcDbLine
 62
7
  6
CONTINUOUS
 10
4.256159591
 20
19.6207433103
 11
0.9436162411
 21
21.5333643246
  0
LINE
  5
407
100
AcDbEntity
  8
RACCORDO
100
AcDbLine
 62
253
  6
CONTINUOUS
 10
-2.8242858916
 20
23.9712241793
 11
0.2426800523
 21
22.2003964814
  0
LINE
  5
408
100
AcDbEntity
  8
RACCORDO
100
AcDbLine
 62
253
  6
CONTINUOUS
 10
4.4853207394
 20
19.7507489214
 11
7.5522866834
 21
17.9799212235
  0
LINE
  5
409
100
AcDbEntity
  8
RACCORDO
100
AcDbLine
 62
7
  6
CONTINUOUS
 10
-2.5375363419
 20
24.1368128873
 11
0.73653362
 21
22.246405925
  0
LINE
  5
40A
100
AcDbEntity
  8
RACCORDO
100
AcDbLine
 62
7
  6
CONTINUOUS
 10
4.9791743072
 20
19.7967583651
 11
8.2532442691
 21
17.9063514028
  0
LWPOLYLINE
  5
40B
100
AcDbEntity
  8
0
100
AcDbPolyline
 62
7
  6
CONTINUOUS
 90
17
 70
0
 10
-0.3854610353
 20
23.188774363
 10
-0.4192832597
 20
23.2087491853
 10
-0.4521881685
 20
23.2290401352
 10
-0.4841757617
 20
23.2496472125
 10
-0.5152520636
 20
23.2705801079
 10
-0.5454110499
 20
23.2918291308
 10
-0.5746346471
 20
23.3133652092
 10
-0.6029215851
 20
23.335185518
 10
-0.630273134
 20
23.3572928822
 10
-0.6566750314
 20
23.3796667055
 10
-0.6821338421
 20
23.4023140811
 10
-0.7066430014
 20
23.4252279158
 10
-0.7301685522
 20
23.4483663331
 10
-0.7526961284
 20
23.4717154799
 10
-0.7742400962
 20
23.4952892093
 10
-0.7948095971
 20
23.5190872041
 10
-0.8131559136
 20
23.5415329985
  0
LINE
  5
40C
100
AcDbEntity
  8
SMUSSO
100
AcDbLine
 62
7
  6
CONTINUOUS
 10
10.4895577871
 20
17.7172310709
 11
10.3843557629
 21
17.8994509471
  0
LWPOLYLINE
  5
40D
100
AcDbEntity
  8
RACCORDO
100
AcDbPolyline
 62
253
  6
CONTINUOUS
 90
63
 70
0
 10
17.3714144314
 20
9.7124494928
 10
17.3767087535
 20
9.6937437631
 10
17.3891105439
 20
9.6460733967
 10
17.4007269542
 20
9.597257798
 10
17.4115309528
 20
9.5473421838
 10
17.4214414056
 20
9.4964332289
 10
17.4304377845
 20
9.4445671404
 10
17.4385125439
 20
9.3917116187
 10
17.4456072375
 20
9.33787224
 10
17.4517350683
 20
9.2825049804
 10
17.4568453612
 20
9.2261577713
 10
17.460822822
 20
9.1704859361
 10
17.4636293675
 20
9.1157757508
 10
17.4653551088
 20
9.0617685936
 10
17.4661324415
 20
9.0093161716
 10
17.4659908151
 20
8.9586520552
 10
17.4649820869
 20
8.9095692523
 10
17.4632893097
 20
8.8622613333
 10
17.4609632403
 20
8.8168462793
 10
17.458029335
 20
8.7732243007
 10
17.4546285877
 20
8.7312610847
 10
17.450806426
 20
8.6909987604
 10
17.4465777948
 20
8.6524059729
 10
17.442027711
 20
8.6152366209
 10
17.4371892707
 20
8.5794919077
 10
17.4320741772
 20
8.5451765421
 10
17.4267256617
 20
8.512048644
 10
17.4211652397
 20
8.4800899548
 10
17.4154043116
 20
8.449321796
 10
17.4094638439
 20
8.4195611049
 10
17.4033474473
 20
8.3907495107
 10
17.3970762341
 20
8.3629468236
 10
17.3906939768
 20
8.3361470336
 10
17.3842164626
 20
8.3103684052
 10
17.3776498344
 20
8.285593247
 10
17.3710216447
 20
8.2617615515
 10
17.3643500132
 20
8.2388965389
 10
17.3576346906
 20
8.2169750327
 10
17.3508732233
 20
8.1958674172
 10
17.3440780014
 20
8.1755762185
 10
17.3372500316
 20
8.1560986839
 10
17.3303672894
 20
8.1372972831
 10
17.3234293985
 20
8.119146874
 10
17.3164465584
 20
8.1016722542
 10
17.309410966
 20
8.0848108119
 10
17.3023115757
 20
8.0685301163
 10
17.2951672437
 20
8.052862238
 10
17.2880144173
 20
8.0378413626
 10
17.2808505503
 20
8.0234684758
 10
17.2736850044
 20
8.0097423464
 10
17.2665718144
 20
7.9966939335
 10
17.2595221345
 20
7.9843481756
 10
17.2525303227
 20
7.9726800892
 10
17.2456246393
 20
7.9616458508
 10
17.2388171542
 20
7.9512614712
 10
17.232099612
 20
7.9415110584
 10
17.2254690271
 20
7.9323029809
 10
17.218932342
 20
7.9236391228
 10
17.2124849766
 20
7.9155178042
 10
17.2061060426
 20
7.9078420412
 10
17.199788965
 20
7.9005795749
 10
17.1935416706
 20
7.8937628967
 10
17.187364721
 20
7.8873921445
  0
LWPOLYLINE
  5
40E
100
AcDbEntity
  8
RACCORDO
100
AcDbPolyline
 62
7
  6
CONTINUOUS
 90
16
 70
0
 10
2.774272535
 20
-25.5846249155
 10
2.7796293956
 20
-25.5802265332
 10
2.7846714656
 20
-25.5753605734
 10
2.7893873662
 20
-25.5700380367
 10
2.7937663635
 20
-25.5642710103
 10
2.7977985237
 20
-25.5580725674
 10
2.8014748008
 20
-25.5514567029
 10
2.8047867958
 20
-25.5444384459
 10
2.8077269701
 20
-25.5370337168
 10
2.8102887946
 20
-25.5292592192
 10
2.8124663759
 20
-25.5211326179
 10
2.8142547242
 20
-25.5126723559
 10
2.8156499597
 20
-25.5038975048
 10
2.8166489177
 20
-25.4948279471
 10
2.8172491552
 20
-25.4854843307
 10
2.8174492112
 20
-25.4758878801
  0
LWPOLYLINE
  5
40F
100
AcDbEntity
  8
RACCORDO
100
AcDbPolyline
 62
253
  6
CONTINUOUS
 90
9
 70
0
 10
-2.4508019772
 20
-26.6818903912
 10
-2.4281008716
 20
-26.6684020926
 10
-2.4037154942
 20
-26.6480596586
 10
-2.3822850185
 20
-26.6231896889
 10
-2.364043959
 20
-26.5940643579
 10
-2.3491919285
 20
-26.5610024117
 10
-2.3378914491
 20
-26.5243656735
 10
-2.3302661749
 20
-26.4845550826
 10
-2.3263995411
 20
-26.4420063098
  0
LINE
  5
410
100
AcDbEntity
  8
0
100
AcDbLine
 62
7
  6
CONTINUOUS
 10
0.9436162411
 20
21.5333643246
 11
-0.416315699
 21
21.3196858601
  0
LWPOLYLINE
  5
411
100
AcDbEntity
  8
RACCORDO
100
AcDbPolyline
 62
7
  6
CONTINUOUS
 90
15
 70
0
 10
-1.7064402984
 20
22.625161705
 10
-1.7078318884
 20
22.6256673057
 10
-1.7104139156
 20
22.6259106975
 10
-1.7138066027
 20
22.6256941899
 10
-1.7179625763
 20
22.6250331798
 10
-1.7228609061
 20
22.6239666556
 10
-1.7284719053
 20
22.6225107174
 10
-1.7347535954
 20
22.6206790797
 10
-1.7416822409
 20
22.6185073188
 10
-1.7492287071
 20
22.6160040672
 10
-1.7573554112
 20
22.6131837505
 10
-1.7660299267
 20
22.6100896779
 10
-1.7752037569
 20
22.6067365457
 10
-1.7848563603
 20
22.6031246687
 10
-1.8056455184
 20
22.5952097222
  0
LINE
  5
412
100
AcDbEntity
  8
DRAFT
100
AcDbLine
 62
7
  6
CONTINUOUS
 10
0.0058649434
 20
23.7703839273
 11
0.0243774255
 21
23.7596950521
  0
LINE
  5
413
100
AcDbEntity
  8
0
100
AcDbLine
 62
7
  6
CONTINUOUS
 10
13.6343206649
 20
17.3239948992
 11
13.6008284542
 21
17.3433328623
  0
LINE
  5
414
100
AcDbEntity
  8
0
100
AcDbLine
 62
7
  6
CONTINUOUS
 10
-0.0091157517
 20
25.201542037
 11
0.0243764797
 21
25.1822040647
  0
LWPOLYLINE
  5
415
100
AcDbEntity
  8
RACCORDO
100
AcDbPolyline
 62
7
  6
CONTINUOUS
 90
99
 70
0
 10
17.3714144314
 20
11.8388215031
 10
17.3953020187
 20
11.8169152258
 10
17.4413287337
 20
11.7734722847
 10
17.4869329319
 20
11.7291899911
 10
17.5321136308
 20
11.6840753527
 10
17.5768707945
 20
11.6381330761
 10
17.6211914788
 20
11.5913802043
 10
17.6650567894
 20
11.5438402992
 10
17.7084570245
 20
11.4955272473
 10
17.751384349
 20
11.446452392
 10
17.7938149483
 20
11.3966454568
 10
17.8357155198
 20
11.3461491153
 10
17.877062215
 20
11.294996867
 10
17.9178497838
 20
11.2431998708
 10
17.9580731572
 20
11.1907682143
 10
17.9977148608
 20
11.1377278996
 10
18.036763502
 20
11.0840972923
 10
18.0752221186
 20
11.0298741351
 10
18.1130848725
 20
10.9750669837
 10
18.1503278315
 20
10.9197106654
 10
18.1869267693
 20
10.8638423486
 10
18.222863571
 20
10.8074915913
 10
18.2581291407
 20
10.7506744453
 10
18.2927133574
 20
10.6934083855
 10
18.3266041271
 20
10.6357141633
 10
18.3597870123
 20
10.57761694
 10
18.3922485323
 20
10.5191408906
 10
18.4239737821
 20
10.4603135125
 10
18.4549527069
 20
10.4011539462
 10
18.4851790536
 20
10.341673756
 10
18.5146411068
 20
10.2818948329
 10
18.5433259652
 20
10.2218419778
 10
18.5712252315
 20
10.1615308672
 10
18.5983306032
 20
10.1009765067
 10
18.6246263368
 20
10.0402108318
 10
18.6500936888
 20
9.979274936
 10
18.6747182881
 20
9.9182021177
 10
18.6984938268
 20
9.8570066653
 10
18.7214143613
 20
9.7957010505
 10
18.7434679625
 20
9.7343135955
 10
18.7646463269
 20
9.6728634133
 10
18.7849478509
 20
9.6113487864
 10
18.8043661219
 20
9.5497795675
 10
18.8228860073
 20
9.4881933644
 10
18.8404928891
 20
9.426629704
 10
18.8571792375
 20
9.3651056599
 10
18.8729340588
 20
9.3036515691
 10
18.8877403517
 20
9.2423261199
 10
18.901584118
 20
9.1811849659
 10
18.9144668074
 20
9.120218695
 10
18.9263937515
 20
9.0593880391
 10
18.9373593004
 20
8.9986962554
 10
18.9473503294
 20
8.9381873391
 10
18.9563583255
 20
8.8778830798
 10
18.9643799846
 20
8.8177643805
 10
18.9714000711
 20
8.7578978007
 10
18.9773988352
 20
8.6984307164
 10
18.9823687999
 20
8.6394604804
 10
18.986316957
 20
8.5809303205
 10
18.9892464648
 20
8.5227552273
 10
18.9911516259
 20
8.4649189224
 10
18.9920236429
 20
8.4074830962
 10
18.9918563161
 20
8.3504806912
 10
18.9906428264
 20
8.2938940434
 10
18.9883774615
 20
8.237785393
 10
18.9850636518
 20
8.1823024545
 10
18.980707717
 20
8.1275110643
 10
18.9753093437
 20
8.0733793694
 10
18.9688681563
 20
8.0199041614
 10
18.9613845494
 20
7.9670976333
 10
18.9528604617
 20
7.9149826218
 10
18.94329646
 20
7.8635717967
 10
18.9326859282
 20
7.812846545
 10
18.9210367723
 20
7.7628610189
 10
18.9083775388
 20
7.7137320836
 10
18.8947160823
 20
7.6654713626
 10
18.880060883
 20
7.6180920653
 10
18.8644544065
 20
7.5717035154
 10
18.8479374925
 20
7.5263808706
 10
18.830502458
 20
7.4820601331
 10
18.8121185082
 20
7.438642717
 10
18.7927767853
 20
7.396104439
 10
18.7725016911
 20
7.3544961699
 10
18.751306352
 20
7.3138379453
 10
18.7291814736
 20
7.2741083107
 10
18.7061555571
 20
7.2353551341
 10
18.6823077562
 20
7.1976949619
 10
18.6576918063
 20
7.1611818832
 10
18.6322956478
 20
7.1257684532
 10
18.6061052409
 20
7.0914152916
 10
18.5791284104
 20
7.0581186391
 10
18.5513922462
 20
7.0258982876
 10
18.5229091303
 20
6.9947549
 10
18.4936890809
 20
6.9646874379
 10
18.4637597419
 20
6.9357125467
 10
18.4331624819
 20
6.9078560162
 10
18.401926848
 20
6.8811283041
 10
18.3700683643
 20
6.8555264792
 10
18.337609872
 20
6.8310534653
  0
LWPOLYLINE
  5
416
100
AcDbEntity
  8
RACCORDO
100
AcDbPolyline
 62
253
  6
CONTINUOUS
 90
98
 70
0
 10
17.3714144314
 20
11.7095140273
 10
17.3722732882
 20
11.708675923
 10
17.4163628692
 20
11.6644961873
 10
17.4601169511
 20
11.619488826
 10
17.5035178123
 20
11.5736720701
 10
17.5465478608
 20
11.5270644916
 10
17.5891896528
 20
11.4796849847
 10
17.6314258887
 20
11.431552771
 10
17.6732394292
 20
11.3826873832
 10
17.7146133023
 20
11.3331086577
 10
17.7555307452
 20
11.2828366831
 10
17.7959752001
 20
11.2318918029
 10
17.8359302876
 20
11.1802946454
 10
17.8753797795
 20
11.1280661645
 10
17.9143076414
 20
11.0752275881
 10
17.9526980664
 20
11.0218003744
 10
17.9905355074
 20
10.9678061625
 10
18.0278046471
 20
10.9132668103
 10
18.0644903887
 20
10.8582044081
 10
18.1005778353
 20
10.8026413122
 10
18.1360523247
 20
10.7466000981
 10
18.1708994525
 20
10.6901035241
 10
18.2051051069
 20
10.6331744724
 10
18.2386554451
 20
10.5758359816
 10
18.2715368787
 20
10.5181112717
 10
18.3037360527
 20
10.4600237841
 10
18.335239882
 20
10.4015971248
 10
18.3660355745
 20
10.3428550211
 10
18.3961106596
 20
10.2838212635
 10
18.425452965
 20
10.2245197454
 10
18.4540506051
 20
10.1649744839
 10
18.4818919657
 20
10.1052096583
 10
18.508965734
 20
10.0452495529
 10
18.5352609181
 20
9.9851185151
 10
18.5607668693
 20
9.9248409001
 10
18.5854732631
 20
9.8644411069
 10
18.6093700909
 20
9.8039436005
 10
18.6324476482
 20
9.7433729447
 10
18.6546965595
 20
9.6827537465
 10
18.6761077933
 20
9.6221106174
 10
18.6966726776
 20
9.561468123
 10
18.716382886
 20
9.5008508168
 10
18.7352304321
 20
9.4402832564
 10
18.7532076632
 20
9.3797900299
 10
18.770307278
 20
9.3193957053
 10
18.786522337
 20
9.2591247974
 10
18.8018462714
 20
9.1990017261
 10
18.8162728747
 20
9.1390508428
 10
18.8297962998
 20
9.0792964412
 10
18.8424110571
 20
9.0197627736
 10
18.8541120251
 20
8.960474009
 10
18.8648944565
 20
8.9014542069
 10
18.8747539823
 20
8.8427272865
 10
18.8836866074
 20
8.7843170439
 10
18.8916887105
 20
8.7262471555
 10
18.8987570439
 20
8.6685411829
 10
18.9048887395
 20
8.6112225428
 10
18.9100813101
 20
8.5543144877
 10
18.9143326512
 20
8.4978400884
 10
18.9176410393
 20
8.4418222392
 10
18.9200051327
 20
8.3862836538
 10
18.9214239724
 20
8.3312468595
 10
18.9218969827
 20
8.2767341787
 10
18.9214239719
 20
8.2227677187
 10
18.9200051317
 20
8.1693693651
 10
18.9176410378
 20
8.1165607759
 10
18.9143326492
 20
8.0643633706
 10
18.9100813076
 20
8.0127983139
 10
18.9048887365
 20
7.9618865096
 10
18.8987570404
 20
7.9116485981
 10
18.8916887065
 20
7.8621049602
 10
18.8836866029
 20
7.8132757002
 10
18.8747539773
 20
7.7651806296
 10
18.864894451
 20
7.7178392429
 10
18.8541120191
 20
7.6712707227
 10
18.8424110506
 20
7.6254939432
 10
18.8297962929
 20
7.5805274814
 10
18.8162728673
 20
7.5363895926
 10
18.8018462635
 20
7.4930981896
 10
18.7865223286
 20
7.4506708141
 10
18.7703072692
 20
7.4091246503
 10
18.7532076538
 20
7.368476533
 10
18.7352304223
 20
7.3287429627
 10
18.7163828758
 20
7.2899400766
 10
18.6966726669
 20
7.2520836255
 10
18.6761077821
 20
7.2151889446
 10
18.6546965478
 20
7.1792709721
 10
18.6324476361
 20
7.1443442596
 10
18.6093700784
 20
7.110422989
 10
18.5854732502
 20
7.0775209409
 10
18.5607668559
 20
7.0456514726
 10
18.5352609043
 20
7.0148274911
 10
18.5089657197
 20
6.9850614734
 10
18.481891951
 20
6.9563654777
 10
18.45405059
 20
6.9287511581
 10
18.4254529496
 20
6.9022297352
 10
18.3961106438
 20
6.8768119763
 10
18.3660355582
 20
6.8525081738
  0
LWPOLYLINE
  5
417
100
AcDbEntity
  8
RACCORDO
100
AcDbPolyline
 62
253
  6
CONTINUOUS
 90
16
 70
0
 10
3.2950954523
 20
-25.2774929241
 10
3.3007136827
 20
-25.2738615077
 10
3.3067206314
 20
-25.2692103176
 10
3.3123469851
 20
-25.2639916616
 10
3.3175773082
 20
-25.2582198527
 10
3.3223972634
 20
-25.2519107082
 10
3.3267936301
 20
-25.2450815272
 10
3.3307543518
 20
-25.2377510314
 10
3.3342685649
 20
-25.2299393201
 10
3.3373266284
 20
-25.2216678189
 10
3.3399201573
 20
-25.2129592019
 10
3.3420420368
 20
-25.2038373529
 10
3.3436864435
 20
-25.1943273115
 10
3.3448488704
 20
-25.1844551665
 10
3.3455261349
 20
-25.1742479812
 10
3.345716383
 20
-25.1637337458
  0
LWPOLYLINE
  5
418
100
AcDbEntity
  8
RACCORDO
100
AcDbPolyline
 62
7
  6
CONTINUOUS
 90
3
 70
0
 10
2.7664047869
 20
-25.5898973013
 10
2.7686130107
 20
-25.5885457608
 10
2.774272535
 20
-25.5846249155
  0
LINE
  5
419
100
AcDbEntity
  8
RACCORDO
100
AcDbLine
 62
253
  6
CONTINUOUS
 10
3.345716383
 20
-25.1637337458
 11
2.8174492112
 21
-25.4758878801
  0
LINE
  5
41A
100
AcDbEntity
  8
RACCORDO
100
AcDbLine
 62
7
  6
CONTINUOUS
 10
3.2950954386
 20
-25.2774929322
 11
2.766404801
 21
-25.5898972933
  0
LINE
  5
41B
100
AcDbEntity
  8
RACCORDO
100
AcDbLine
 62
7
  6
CONTINUOUS
 10
2.7649505438
 20
-25.590736963
 11
2.7664047869
 21
-25.5898973013
  0
LWPOLYLINE
  5
41C
100
AcDbEntity
  8
RACCORDO
100
AcDbPolyline
 62
253
  6
CONTINUOUS
 90
17
 70
0
 10
1.1632413444
 20
-26.4941478239
 10
1.1639427376
 20
-26.4937477255
 10
1.1703177438
 20
-26.4896744787
 10
1.1763366189
 20
-26.4850164025
 10
1.1819828316
 20
-26.4797862801
 10
1.1872408917
 20
-26.4739984563
 10
1.1920963858
 20
-26.467668792
 10
1.196535996
 20
-26.4608146427
 10
1.2005475473
 20
-26.4534547986
 10
1.2041200367
 20
-26.4456094393
 10
1.2072436634
 20
-26.4373000827
 10
1.2099098628
 20
-26.4285495067
 10
1.2121113206
 20
-26.4193817102
 10
1.213841995
 20
-26.4098218588
 10
1.2150971424
 20
-26.3998961782
 10
1.215873326
 20
-26.3896318783
 10
1.2161684204
 20
-26.379057106
  0
LINE
  5
41D
100
AcDbEntity
  8
RACCORDO
100
AcDbLine
 62
253
  6
CONTINUOUS
 10
3.1601385829
 20
-23.7777721002
 11
3.878109383
 21
-23.3703378009
  0
LINE
  5
41E
100
AcDbEntity
  8
RACCORDO
100
AcDbLine
 62
7
  6
CONTINUOUS
 10
3.0582828601
 20
-23.9954928786
 11
3.779746395
 21
-23.5860765211
  0
LINE
  5
41F
100
AcDbEntity
  8
RACCORDO
100
AcDbLine
 62
253
  6
CONTINUOUS
 10
2.8174492112
 20
-25.4758878801
 11
1.2161684204
 21
-26.379057106
  0
LINE
  5
420
100
AcDbEntity
  8
RACCORDO
100
AcDbLine
 62
7
  6
CONTINUOUS
 10
2.764950558
 20
-25.590736955
 11
1.1632413444
 21
-26.4941478239
  0
LWPOLYLINE
  5
421
100
AcDbEntity
  8
RACCORDO
100
AcDbPolyline
 62
7
  6
CONTINUOUS
 90
3
 70
0
 10
3.0582828748
 20
-23.9954928703
 10
3.0536890869
 20
-23.9980000976
 10
3.0507480141
 20
-23.9995036256
  0
LINE
  5
422
100
AcDbEntity
  8
RACCORDO
100
AcDbLine
 62
253
  6
CONTINUOUS
 10
2.0926647605
 20
-24.2408642047
 11
-2.3263995411
 21
-26.4420063098
  0
LINE
  5
423
100
AcDbEntity
  8
RACCORDO
100
AcDbLine
 62
253
  6
CONTINUOUS
 10
2.0865171259
 20
-24.3125444485
 11
3.1601385829
 21
-23.7777721002
  0
LINE
  5
424
100
AcDbEntity
  8
RACCORDO
100
AcDbLine
 62
7
  6
CONTINUOUS
 10
1.980036325
 20
-24.4748836399
 11
-2.4508019772
 21
-26.6818903912
  0
LINE
  5
425
100
AcDbEntity
  8
RACCORDO
100
AcDbLine
 62
7
  6
CONTINUOUS
 10
1.9736152138
 20
-24.5360249596
 11
3.0507482901
 21
-23.9995034687
  0
LWPOLYLINE
  5
426
100
AcDbEntity
  8
RACCORDO
100
AcDbPolyline
 62
253
  6
CONTINUOUS
 90
22
 70
0
 10
-2.3263995411
 20
-26.4420063098
 10
-2.3770892706
 20
-26.4651772865
 10
-2.4268966558
 20
-26.483960342
 10
-2.4758216969
 20
-26.4983554765
 10
-2.5241096353
 20
-26.508397657
 10
-2.5715152296
 20
-26.5140519163
 10
-2.617302755
 20
-26.5152133533
 10
-2.6614395885
 20
-26.5118072573
 10
-2.703958353
 20
-26.503908339
 10
-2.7442211929
 20
-26.4916358286
 10
-2.7821873807
 20
-26.4749278468
 10
-2.8178976439
 20
-26.4538462729
 10
-2.8508363095
 20
-26.4286959756
 10
-2.8809682692
 20
-26.3994118774
 10
-2.9083286313
 20
-26.3660590558
 10
-2.9325070485
 20
-26.329137612
 10
-2.9534535739
 20
-26.2885822589
 10
-2.9712181543
 20
-26.2444582837
 10
-2.9855402822
 20
-26.197461649
 10
-2.9963331216
 20
-26.1478243423
 10
-3.0036835085
 20
-26.0953143761
 10
-3.0075914429
 20
-26.0399317503
  0
LWPOLYLINE
  5
427
100
AcDbEntity
  8
0
100
AcDbPolyline
 62
253
  6
CONTINUOUS
 90
22
 70
0
 10
2.7296206804
 20
22.8481583528
 10
2.6872917448
 20
22.8609558293
 10
2.58648745
 20
22.8877658385
 10
2.4834590865
 20
22.9115911296
 10
2.3784715415
 20
22.9323704476
 10
2.2717947404
 20
22.9500503682
 10
2.1637029529
 20
22.9645854359
 10
2.054474087
 20
22.9759382808
 10
1.9443889701
 20
22.9840797149
 10
1.833730629
 20
22.9889888067
 10
1.7227835645
 20
22.9906529347
 10
1.6118330273
 20
22.98906782
 10
1.5011642803
 20
22.9842375381
 10
1.3910618635
 20
22.976174509
 10
1.2818088432
 20
22.964899463
 10
1.1736860918
 20
22.950441386
 10
1.0669715844
 20
22.9328374469
 10
0.9619396978
 20
22.9121329058
 10
0.8588604855
 20
22.8883809966
 10
0.7579989579
 20
22.8616427836
 10
0.6596144406
 20
22.8319870133
 10
0.6145190239
 20
22.8166665784
  0
LWPOLYLINE
  5
428
100
AcDbEntity
  8
0
100
AcDbPolyline
 62
7
  6
CONTINUOUS
 90
21
 70
0
 10
2.7466314697
 20
22.8526207668
 10
2.7352403776
 20
22.8561463944
 10
2.6272669487
 20
22.8857375172
 10
2.5171262803
 20
22.9118938705
 10
2.4050986679
 20
22.9345789004
 10
2.2914938017
 20
22.9537574975
 10
2.1765795031
 20
22.9694090506
 10
2.060583177
 20
22.9815203549
 10
1.9437828673
 20
22.990074114
 10
1.8264835357
 20
22.995057483
 10
1.7089566013
 20
22.9964658921
 10
1.5914979273
 20
22.9942998543
 10
1.4743963755
 20
22.9885667096
 10
1.3579121193
 20
22.9792775941
 10
1.242336926
 20
22.9664507454
 10
1.1279558945
 20
22.9501105703
 10
1.0150135357
 20
22.9302803552
 10
0.903782346
 20
22.9069912213
 10
0.7945524202
 20
22.8802843523
 10
0.6875830815
 20
22.8502001358
 10
0.5956819602
 20
22.8207976934
  0
LINE
  5
429
100
AcDbEntity
  8
ASSI
100
AcDbLine
 62
7
  6
CONTINUOUS
 10
2.2871191253
 20
25.2897233673
 11
4.7593489477
 21
23.8622888522
  0
LINE
  5
42A
100
AcDbEntity
  8
ASSI
100
AcDbLine
 62
7
  6
CONTINUOUS
 10
12.7522994869
 20
19.2472593861
 11
14.8470573856
 21
18.0377724288
  0
LINE
  5
42B
100
AcDbEntity
  8
DRAFT
100
AcDbLine
 62
7
  6
CONTINUOUS
 10
3.3477792971
 20
25.9128230996
 11
5.8372960107
 21
24.4754073502
  0
LINE
  5
42C
100
AcDbEntity
  8
DRAFT
100
AcDbLine
 62
7
  6
CONTINUOUS
 10
13.8129596587
 20
19.8703591183
 11
15.9359782516
 21
18.6445547904
  0
LINE
  5
42D
100
AcDbEntity
  8
RACCORDO
100
AcDbLine
 62
7
  6
CONTINUOUS
 10
17.0303645972
 20
18.3415737926
 11
16.7944822834
 21
18.7501339443
  0
LINE
  5
42E
100
AcDbEntity
  8
RACCORDO
100
AcDbLine
 62
253
  6
CONTINUOUS
 10
12.7546531234
 20
20.8144062626
 11
6.1278235371
 21
24.6406546121
  0
LINE
  5
42F
100
AcDbEntity
  8
RACCORDO
100
AcDbLine
 62
7
  6
CONTINUOUS
 10
13.3618614958
 20
20.7879342235
 11
6.4959820551
 21
24.752206963
  0
ELLIPSE
  5
430
100
AcDbEntity
  8
RACCORDO
100
AcDbEllipse
 62
7
  6
CONTINUOUS
 10
1.8805004125
 20
-6.6869189375
 30
0.0
 11
-0.1500358188
 21
0.2597935388
 31
0.0
 40
0.5774195892
 41
-2.3562809449
 42
-0.7856369171
  0
ELLIPSE
  5
431
100
AcDbEntity
  8
RACCORDO
100
AcDbEllipse
 62
7
  6
CONTINUOUS
 10
1.7390575138
 20
-24.0363224233
 30
0.0
 11
-0.2498600223
 21
0.43379745
 31
0.0
 40
0.5768037941
 41
-3.1764860545
 42
-2.355482613
  0
ELLIPSE
  5
432
100
AcDbEntity
  8
RACCORDO
100
AcDbEllipse
 62
7
  6
CONTINUOUS
 10
-13.2868538742
 20
20.1547870541
 30
0.0
 11
-0.2498600223
 21
0.43379745
 31
0.0
 40
0.5768037941
 41
-0.7837728977
 42
0.0348934027
  0
ELLIPSE
  5
433
100
AcDbEntity
  8
RACCORDO
100
AcDbEllipse
 62
7
  6
CONTINUOUS
 10
1.8805004125
 20
-6.0337240622
 30
0.0
 11
-0.1500586486
 21
0.259833121
 31
0.0
 40
0.5772437351
 41
-3.1546807054
 42
-2.3564331449
  0
ELLIPSE
  5
434
100
AcDbEntity
  8
RACCORDO
100
AcDbEllipse
 62
7
  6
CONTINUOUS
 10
1.7390575138
 20
11.4790141375
 30
0.0
 11
-0.2496303025
 21
0.4334023309
 31
0.0
 40
0.5778584463
 41
-2.3545649475
 42
-0.7846820092
  0
ELLIPSE
  5
435
100
AcDbEntity
  8
0
100
AcDbEllipse
 62
7
  6
CONTINUOUS
 10
1.5604025412
 20
24.2730732622
 30
0.0
 11
2.7516996141
 21
-0.0407701356
 31
0.0
 40
0.5672256544
 41
-2.3478158673
 42
-0.7669416835
  0
ELLIPSE
  5
436
100
AcDbEntity
  8
RACCORDO
100
AcDbEllipse
 62
7
  6
CONTINUOUS
 10
1.5800123441
 20
23.1078412935
 30
0.0
 11
2.1999797721
 21
-0.0164837555
 31
0.0
 40
0.5723275643
 41
2.8544138288
 42
2.9203297614
  0
ELLIPSE
  5
437
100
AcDbEntity
  8
RACCORDO
100
AcDbEllipse
 62
7
  6
CONTINUOUS
 10
12.0451927057
 20
17.0653773122
 30
0.0
 11
2.1999797721
 21
-0.0164837555
 31
0.0
 40
0.5723275643
 41
2.3604827341
 42
2.9841243919
  0
ELLIPSE
  5
438
100
AcDbEntity
  8
ASSI
100
AcDbEllipse
 62
7
  6
CONTINUOUS
 10
-22.0223470182
 20
11.0904482299
 30
0.0
 11
40.5143695416
 21
22.9860390797
 31
0.0
 40
0.0076230003
 41
0.9667695052
 42
0.9910773888
  0
ELLIPSE
  5
439
100
AcDbEntity
  8
DRAFT
100
AcDbEllipse
 62
7
  6
CONTINUOUS
 10
1.7214337004
 20
22.7798360281
 30
0.0
 11
2.3999779332
 21
-0.0179822787
 31
0.0
 40
0.5723275643
 41
0.452699727
 42
2.3604827341
  0
ELLIPSE
  5
43A
100
AcDbEntity
  8
DRAFT
100
AcDbEllipse
 62
7
  6
CONTINUOUS
 10
12.1866140619
 20
16.7373720469
 30
0.0
 11
2.3999779332
 21
-0.0179822787
 31
0.0
 40
0.5723275643
 41
0.6860974794
 42
2.3604827341
  0
ELLIPSE
  5
43B
100
AcDbEntity
  8
RACCORDO
100
AcDbEllipse
 62
7
  6
CONTINUOUS
 10
3.5509531178
 20
26.1145052718
 30
0.0
 11
1.2054326751
 21
-0.3359710317
 31
0.0
 40
0.5123410576
 41
2.2368827114
 42
2.6587737918
  0
ELLIPSE
  5
43C
100
AcDbEntity
  8
RACCORDO
100
AcDbEllipse
 62
7
  6
CONTINUOUS
 10
2.6406725159
 20
25.5890222439
 30
0.0
 11
0.3250861932
 21
1.2131028077
 31
0.0
 40
0.5176380897
 41
-0.9873283456
 42
0.0383594959
  0
ELLIPSE
  5
43D
100
AcDbEntity
  8
RACCORDO
100
AcDbEllipse
 62
7
  6
CONTINUOUS
 10
5.7072967099
 20
24.052864859
 30
0.0
 11
0.8025603522
 21
0.6879336527
 31
0.0
 40
0.2183519819
 41
0.076726196
 42
0.8447193874
  0
ELLIPSE
  5
43E
100
AcDbEntity
  8
RACCORDO
100
AcDbEllipse
 62
7
  6
CONTINUOUS
 10
16.2171227147
 20
17.750150052
 30
0.0
 11
0.3250861932
 21
1.2131028077
 31
0.0
 40
0.5176380897
 41
-0.477635528
 42
0.0383594959
  0
ELLIPSE
  5
43F
100
AcDbEntity
  8
0
100
AcDbEllipse
 62
7
  6
CONTINUOUS
 10
12.0255829027
 20
18.2306092809
 30
0.0
 11
2.7516996141
 21
-0.0407701356
 31
0.0
 40
0.5672256544
 41
2.3544952561
 42
3.9353694399
  0
ELLIPSE
  5
440
100
AcDbEntity
  8
RACCORDO
100
AcDbEllipse
 62
7
  6
CONTINUOUS
 10
9.2204185019
 20
17.7257840462
 30
0.0
 11
-3.2476259987
 21
4.2374482843
 31
0.0
 40
0.4692630941
 41
-2.0776810673
 42
-1.831312494
  0
ELLIPSE
  5
441
100
AcDbEntity
  8
ASSI
100
AcDbEllipse
 62
7
  6
CONTINUOUS
 10
12.1866140619
 20
17.1456071853
 30
0.0
 11
2.3999779332
 21
-0.0179822787
 31
0.0
 40
0.5723275643
 41
0.4692155248
 42
1.9493448718
  0
ELLIPSE
  5
442
100
AcDbEntity
  8
ASSI
100
AcDbEllipse
 62
7
  6
CONTINUOUS
 10
1.7214337004
 20
23.1880711665
 30
0.0
 11
2.3999779332
 21
-0.0179822787
 31
0.0
 40
0.5723275643
 41
0.2184601105
 42
1.9493448718
  0
ELLIPSE
  5
443
100
AcDbEntity
  8
RACCORDO
100
AcDbEllipse
 62
7
  6
CONTINUOUS
 10
15.3068421128
 20
19.326802302
 30
0.0
 11
1.220886943
 21
-0.3275039943
 31
0.0
 40
0.5021189746
 41
-0.4723189803
 42
-0.0504278999
  0
ELLIPSE
  5
444
100
AcDbEntity
  8
RACCORDO
100
AcDbEllipse
 62
7
  6
CONTINUOUS
 10
13.1504985207
 20
19.7552534186
 30
0.0
 11
-0.2461958753
 21
1.1154658892
 31
0.0
 40
0.6979100611
 41
5.0392720298
 42
6.4830368592
  0
ELLIPSE
  5
445
100
AcDbEntity
  8
RACCORDO
100
AcDbEllipse
 62
7
  6
CONTINUOUS
 10
-2.4903532849
 20
22.5004222274
 30
0.0
 11
0.2522054935
 21
0.4317367776
 31
0.0
 40
0.580680601
 41
0.6227460744
 42
0.7825716451
  0
ELLIPSE
  5
446
100
AcDbEntity
  8
RACCORDO
100
AcDbEllipse
 62
7
  6
CONTINUOUS
 10
3.5457185711
 20
-23.1784779576
 30
0.0
 11
-0.2350561162
 21
0.4070098775
 31
0.0
 40
0.5774195892
 41
-3.1459585602
 42
-2.3562809449
  0
ELLIPSE
  5
447
100
AcDbEntity
  8
RACCORDO
100
AcDbEllipse
 62
7
  6
CONTINUOUS
 10
3.5457185711
 20
12.6176287017
 30
0.0
 11
-0.2350918828
 21
0.4070718896
 31
0.0
 40
0.5772437351
 41
-2.3564331449
 42
-0.7854845191
  0
ELLIPSE
  5
448
100
AcDbEntity
  8
RACCORDO
100
AcDbEllipse
 62
7
  6
CONTINUOUS
 10
-7.8224449488
 20
19.4882042771
 30
0.0
 11
0.4999978344
 21
0.0025340295
 31
0.0
 40
0.5807363987
 41
2.3590690438
 42
2.9996644382
  0
ELLIPSE
  5
449
100
AcDbEntity
  8
RACCORDO
100
AcDbEllipse
 62
7
  6
CONTINUOUS
 10
8.0741522418
 20
17.0011754791
 30
0.0
 11
0.4999950703
 21
0.0038122721
 31
0.0
 40
0.5824033911
 41
-0.7723854459
 42
-0.0044405776
  0
ELLIPSE
  5
44A
100
AcDbEntity
  8
RACCORDO
100
AcDbEllipse
 62
7
  6
CONTINUOUS
 10
-11.6126744003
 20
19.8700532821
 30
0.0
 11
0.249894357
 21
0.0119767658
 31
0.0
 40
0.6067642562
 41
-2.385266879
 42
-0.8202883164
  0
ELLIPSE
  5
44B
100
AcDbEntity
  8
RACCORDO
100
AcDbEllipse
 62
7
  6
CONTINUOUS
 10
0.4184314305
 20
12.9234435606
 30
0.0
 11
0.249894357
 21
0.0119767658
 31
0.0
 40
0.6067642562
 41
3.1125202649
 42
3.8979184282
  0
ELLIPSE
  5
44C
100
AcDbEntity
  8
DRAFT
100
AcDbEllipse
 62
7
  6
CONTINUOUS
 10
-2.1676535961
 20
20.4282760164
 30
0.0
 11
0.9999908055
 21
-0.0074926161
 31
0.0
 40
0.5723275643
 41
1.3132851829
 42
2.3604827341
  0
ELLIPSE
  5
44D
100
AcDbEntity
  8
RACCORDO
100
AcDbEllipse
 62
7
  6
CONTINUOUS
 10
3.6704789859
 20
18.9432348876
 30
0.0
 11
0.247841934
 21
0.4342563559
 31
0.0
 40
0.5739631936
 41
0.6169279165
 42
0.7767534872
  0
ELLIPSE
  5
44E
100
AcDbEntity
  8
RACCORDO
100
AcDbEllipse
 62
7
  6
CONTINUOUS
 10
-7.8224449488
 20
18.3261262351
 30
0.0
 11
0.4997887139
 21
0.0239535316
 31
0.0
 40
0.6067642562
 41
3.1125202636
 42
3.8979184282
  0
ELLIPSE
  5
44F
100
AcDbEntity
  8
RACCORDO
100
AcDbEllipse
 62
7
  6
CONTINUOUS
 10
-2.3111378492
 20
16.3060446306
 30
0.0
 11
0.4999978344
 21
0.0025340295
 31
0.0
 40
0.5807363987
 41
-1.4347545326
 42
-0.7941591381
  0
ELLIPSE
  5
450
100
AcDbEntity
  8
RACCORDO
100
AcDbEllipse
 62
7
  6
CONTINUOUS
 10
-2.3111378492
 20
15.1439665886
 30
0.0
 11
0.4997887139
 21
0.0239535316
 31
0.0
 40
0.6067642562
 41
-2.385266879
 42
-0.8202883164
  0
ELLIPSE
  5
451
100
AcDbEntity
  8
RACCORDO
100
AcDbEllipse
 62
7
  6
CONTINUOUS
 10
8.2531959477
 20
16.7516601652
 30
0.0
 11
-0.7070896968
 21
1.224754734
 31
0.0
 40
0.5773595689
 41
5.1751773485
 42
6.2744828216
  0
ELLIPSE
  5
452
100
AcDbEntity
  8
RACCORDO
100
AcDbEllipse
 62
7
  6
CONTINUOUS
 10
1.7470951312
 20
-24.1237774159
 30
0.0
 11
-0.2348684209
 21
0.407769603
 31
0.0
 40
0.5768037941
 41
2.6330200678
 42
3.8445944994
  0
ELLIPSE
  5
453
100
AcDbEntity
  8
RACCORDO
100
AcDbEllipse
 62
7
  6
CONTINUOUS
 10
-13.2948914916
 20
20.2422420467
 30
0.0
 11
-0.2348684209
 21
0.407769603
 31
0.0
 40
0.5768037941
 41
4.9538133336
 42
6.7706954513
  0
ELLIPSE
  5
454
100
AcDbEntity
  8
RACCORDO
100
AcDbEllipse
 62
7
  6
CONTINUOUS
 10
3.4297285481
 20
18.3943651765
 30
0.0
 11
0.4199961383
 21
-0.0031468988
 31
0.0
 40
0.5723275643
 41
-0.7752921553
 42
0.0042882422
  0
ELLIPSE
  5
455
100
AcDbEntity
  8
RACCORDO
100
AcDbEllipse
 62
7
  6
CONTINUOUS
 10
-2.1252271893
 20
21.6017269994
 30
0.0
 11
0.4199961383
 21
-0.0031468988
 31
0.0
 40
0.5723275643
 41
-0.7811099195
 42
0.0042882439
  0
ELLIPSE
  5
456
100
AcDbEntity
  8
RACCORDO
100
AcDbEllipse
 62
7
  6
CONTINUOUS
 10
1.7470951312
 20
11.5571874911
 30
0.0
 11
-0.2346524843
 21
0.4073981911
 31
0.0
 40
0.5778584463
 41
4.011728696
 42
6.0441023738
  0
ELLIPSE
  5
457
100
AcDbEntity
  8
RACCORDO
100
AcDbEllipse
 62
7
  6
CONTINUOUS
 10
2.0551292096
 20
11.7472604717
 30
0.0
 11
28.7283457432
 21
18.1258592803
 31
0.0
 40
0.0095674747
 41
1.5656732872
 42
1.5692063181
  0
ELLIPSE
  5
458
100
AcDbEntity
  8
RACCORDO
100
AcDbEllipse
 62
7
  6
CONTINUOUS
 10
8.0741522418
 20
17.878282692
 30
0.0
 11
-0.3535448484
 21
0.612377367
 31
0.0
 40
0.5773595689
 41
-3.1241152003
 42
-2.2313402172
  0
ENDSEC
  0
SECTION
  2
OBJECTS
  0
DICTIONARY
  5
C
100
AcDbDictionary
280
0
281
1
  3
ACAD_GROUP
350
D
  3
ACAD_MLINESTYLE
350
17
  3
ACAD_LAYOUT
350
1A
  3
ACAD_PLOTSETTINGS
350
19
  3
ACAD_PLOTSTYLENAME
350
E
  0
DICTIONARY
  5
D
102
{ACAD_REACTORS
330
C
102
}
100
AcDbDictionary
280
0
281
1
  0
ACDBDICTIONARYWDFLT
  5
E
102
{ACAD_REACTORS
330
C
102
}
100
AcDbDictionary
281
1
  3
Normal
350
F
100
AcDbDictionaryWithDefault
340
F
  0
DICTIONARY
  5
17
102
{ACAD_REACTORS
330
C
102
}
100
AcDbDictionary
280
0
281
1
  3
Standard
350
18
  0
DICTIONARY
  5
19
102
{ACAD_REACTORS
330
C
102
}
100
AcDbDictionary
281
1
  0
DICTIONARY
  5
1A
102
{ACAD_REACTORS
330
C
102
}
100
AcDbDictionary
281
1
  3
Model
350
459
  3
Layout1
350
45A
  0
ACDBPLACEHOLDER
  5
F
102
{ACAD_REACTORS
330
E
102
}
  0
MLINESTYLE
  5
18
102
{ACAD_REACTORS
330
17
102
}
100
AcDbMlineStyle
  2
STANDARD
 70
0
  3

 62
256
 51
90.0
 52
90.0
 71
2
 49
0.5
 62
256
  6
BYLAYER
 49
-0.5
 62
256
  6
BYLAYER
  0
LAYOUT
  5
459
102
{ACAD_REACTORS
330
1A
102
}
100
AcDbPlotSettings
  1

  2
none_device
  4
ISO_A4_(297.00_x_210.00_MM)
  6

 40
0.0
 41
0.0
 42
0.0
 43
0.0
 44
297.0
 45
210.0
 46
0.0
 47
0.0
 48
0.0
 49
0.0
140
0.0
141
0.0
142
1.0
143
1.0
 70
1024
 72
1
 73
0
 74
0
  7

 75
0
147
1.0
148
0.0
149
0.0
100
AcDbLayout
  1
Model
 70
0
 71
0
 10
0.0
 20
0.0
 11
297.0
 21
210.0
 12
0.0
 22
0.0
 32
0.0
 14
0.0
 24
0.0
 34
0.0
 15
0.0
 25
0.0
 35
0.0
146
0.0
 13
0.0
 23
0.0
 33
0.0
 16
1.0
 26
0.0
 36
0.0
 17
0.0
 27
1.0
 37
0.0
 76
0
330
213
345
0
346
0
  0
LAYOUT
  5
45A
102
{ACAD_REACTORS
330
1A
102
}
100
AcDbPlotSettings
  1

  2
none_device
  4
ISO_A4_(297.00_x_210.00_MM)
  6

 40
0.0
 41
0.0
 42
0.0
 43
0.0
 44
297.0
 45
210.0
 46
0.0
 47
0.0
 48
0.0
 49
0.0
140
0.0
141
0.0
142
1.0
143
1.0
 70
0
 72
1
 73
0
 74
0
  7

 75
0
147
1.0
148
0.0
149
0.0
100
AcDbLayout
  1
Layout1
 70
0
 71
1
 10
0.0
 20
0.0
 11
297.0
 21
210.0
 12
0.0
 22
0.0
 32
0.0
 14
0.0
 24
0.0
 34
0.0
 15
0.0
 25
0.0
 35
0.0
146
0.0
 13
0.0
 23
0.0
 33
0.0
 16
1.0
 26
0.0
 36
0.0
 17
0.0
 27
1.0
 37
0.0
 76
0
330
214
345
0
346
0
  0
ENDSEC
  0
EOF
