  0
SECTION
  2
HEADER
  9
$ACADVER
  1
AC1024
  9
$DWGCODEPAGE
  3
ANSI_1252
  9
$EXTMAX
 10
297.0
 20
210.0
 30
0.0
  9
$EXTMIN
 10
0.0
 20
0.0
 30
0.0
  9
$LIMMIN
 10
0.0
 20
0.0
  9
$LIMMAX
 10
297.0
 20
210.0
  9
$VIEWCTR
 10
148.5
 20
105.0
  9
$VIEWSIZE
 40
210.0
  9
$CLAYER
  8
0
  9
$LTSCALE
 40
16.335
  9
$CELTYPE
  6
BYLAYER
  9
$DIMSCALE
 40
1.0
  9
$DIMASZ
 40
3.0
  9
$DIMEXO
 40
0.5
  9
$DIMDLI
 40
11.286
  9
$DIMEXE
 40
1.5
  9
$DIMCEN
 40
2.673
  9
$DIMLFAC
 40
1.0
  9
$DIMBLK
  1
_FILLED
  9
$DIMALT
 70
0
  9
$DIMALTF
 40
0.0393700787
  9
$DIMTXT
 40
3.0
  9
$DIMTOL
 70
1
  9
$DIMLIM
 70
0
  9
$DIMTFAC
 40
1.0
  9
$DIMTP
 40
0.01
  9
$DIMTM
 40
0.01
  9
$DIMGAP
 40
0.625
  9
$DIMDSEP
 70
44
  9
$AUNITS
 70
0
  9
$PDMODE
 70
3
  9
$PDSIZE
 40
3.0
  9
$HANDSEED
  5
68A
  9
$TILEMODE
 70
1
  9
$MEASUREMENT
 70
1
  9
$INSUNITS
 70
4
  0
ENDSEC
  0
SECTION
  2
CLASSES
  0
CLASS
  1
ACDBDICTIONARYWDFLT
  2
AcDbDictionaryWithDefault
  3
AutoCAD 2000
 90
0
 91
1
280
0
281
0
  0
CLASS
  1
ACDBPLACEHOLDER
  2
AcDbPlaceHolder
  3
AutoCAD 2000
 90
0
 91
1
280
0
281
0
  0
CLASS
  1
LAYOUT
  2
AcDbLayout
  3
AutoCAD 2000
 90
0
 91
0
280
0
281
0
  0
ENDSEC
  0
SECTION
  2
TABLES
  0
TABLE
  2
VPORT
  5
8
100
AcDbSymbolTable
 70
2
  0
VPORT
  5
1F4
100
AcDbSymbolTableRecord
100
AcDbViewportTableRecord
  2
*ACTIVE
 70
0
 10
0.0
 20
0.0
 11
1.0
 21
1.0
 12
148.5
 22
105.0
 13
0.0
 23
0.0
 14
1.0
 24
1.0
 15
0.0
 25
0.0
 16
0.0
 26
0.0
 36
1.0
 17
0.0
 27
0.0
 37
0.0
 40
210.0
 41
1.4142857143
 42
50.0
 43
0.0
 44
0.0
 50
0.0
 51
0.0
 71
0
 72
100
 73
1
 74
1
 75
0
 76
0
 77
0
 78
0
  0
ENDTAB
  0
TABLE
  2
LTYPE
  5
5
100
AcDbSymbolTable
 70
6
  0
LTYPE
  5
14
100
AcDbSymbolTableRecord
100
AcDbLinetypeTableRecord
  2
BYBLOCK
 70
0
  3

 72
65
 73
0
 40
0.0
  0
LTYPE
  5
15
100
AcDbSymbolTableRecord
100
AcDbLinetypeTableRecord
  2
BYLAYER
 70
0
  3

 72
65
 73
0
 40
0.0
  0
LTYPE
  5
16
100
AcDbSymbolTableRecord
100
AcDbLinetypeTableRecord
  2
CONTINUOUS
 70
64
  3
Solid line
 72
65
 73
0
 40
0.0
  0
LTYPE
  5
1F5
100
AcDbSymbolTableRecord
100
AcDbLinetypeTableRecord
  2
CENTER
 70
64
  3
____ _ ____ _ ____ _ ____ _ ____ _ ____ _ ____
 72
65
 73
4
 40
0.6
 49
0.375
 74
0
 49
-0.075
 74
0
 49
0.075
 74
0
 49
-0.075
 74
0
  0
LTYPE
  5
1F6
100
AcDbSymbolTableRecord
100
AcDbLinetypeTableRecord
  2
HIDDEN
 70
64
  3
- - - - - - - - - - - - - - - - - - - -
 72
65
 73
2
 40
0.2
 49
0.1
 74
0
 49
-0.1
 74
0
  0
LTYPE
  5
1F7
100
AcDbSymbolTableRecord
100
AcDbLinetypeTableRecord
  2
PHANTOM
 70
64
  3
_____ _ _ _____ _ _ _____ _ _ _____
 72
65
 73
6
 40
0.8
 49
0.45
 74
0
 49
-0.05
 74
0
 49
0.1
 74
0
 49
-0.05
 74
0
 49
0.1
 74
0
 49
-0.05
 74
0
  0
LTYPE
  5
1F8
100
AcDbSymbolTableRecord
100
AcDbLinetypeTableRecord
  2
DOT
 70
64
  3
. . . . . . . . . . . . . . . . . . . .
 72
65
 73
2
 40
0.2
 49
0.1
 74
0
 49
-0.1
 74
0
  0
LTYPE
  5
1F9
100
AcDbSymbolTableRecord
100
AcDbLinetypeTableRecord
  2
DASHED
 70
64
  3
- - - - - - - - - - - - - - - - - - - -
 72
65
 73
2
 40
0.2
 49
0.1
 74
0
 49
-0.1
 74
0
  0
ENDTAB
  0
TABLE
  2
LAYER
  5
2
100
AcDbSymbolTable
 70
36
  0
LAYER
  5
10
100
AcDbSymbolTableRecord
100
AcDbLayerTableRecord
  2
0
 70
0
 62
7
  6
CONTINUOUS
370
-3
390
F
  0
LAYER
  5
1FA
100
AcDbSymbolTableRecord
100
AcDbLayerTableRecord
  2
DEFAULT_1
 70
0
 62
7
  6
CENTER
370
-3
390
F
  0
LAYER
  5
1FB
100
AcDbSymbolTableRecord
100
AcDbLayerTableRecord
  2
DEFAULT_2
 70
0
 62
7
  6
HIDDEN
370
-3
390
F
  0
LAYER
  5
1FC
100
AcDbSymbolTableRecord
100
AcDbLayerTableRecord
  2
DEFAULT_3
 70
0
 62
7
  6
PHANTOM
370
-3
390
F
  0
LAYER
  5
1FD
100
AcDbSymbolTableRecord
100
AcDbLayerTableRecord
  2
320200000
 70
0
 62
7
  6
CONTINUOUS
370
-3
390
F
  0
LAYER
  5
1FE
100
AcDbSymbolTableRecord
100
AcDbLayerTableRecord
  2
361200000
 70
0
 62
7
  6
CONTINUOUS
370
-3
390
F
  0
LAYER
  5
1FF
100
AcDbSymbolTableRecord
100
AcDbLayerTableRecord
  2
ASSI
 70
0
 62
7
  6
CONTINUOUS
370
-3
390
F
  0
LAYER
  5
200
100
AcDbSymbolTableRecord
100
AcDbLayerTableRecord
  2
COLOR5
 70
0
 62
7
  6
CONTINUOUS
370
-3
390
F
  0
LAYER
  5
201
100
AcDbSymbolTableRecord
100
AcDbLayerTableRecord
  2
COLOR7
 70
0
 62
7
  6
CONTINUOUS
370
-3
390
F
  0
LAYER
  5
202
100
AcDbSymbolTableRecord
100
AcDbLayerTableRecord
  2
COORDINATE
 70
0
 62
7
  6
CONTINUOUS
370
-3
390
F
  0
LAYER
  5
203
100
AcDbSymbolTableRecord
100
AcDbLayerTableRecord
  2
COORD_ORIGINE
 70
0
 62
7
  6
CONTINUOUS
370
-3
390
F
  0
LAYER
  5
204
100
AcDbSymbolTableRecord
100
AcDbLayerTableRecord
  2
COPY_PUBLISH
 70
0
 62
7
  6
CONTINUOUS
370
-3
390
F
  0
LAYER
  5
205
100
AcDbSymbolTableRecord
100
AcDbLayerTableRecord
  2
COSMETIC
 70
0
 62
7
  6
CONTINUOUS
370
-3
390
F
  0
LAYER
  5
206
100
AcDbSymbolTableRecord
100
AcDbLayerTableRecord
  2
CURVE
 70
0
 62
7
  6
CONTINUOUS
370
-3
390
F
  0
LAYER
  5
207
100
AcDbSymbolTableRecord
100
AcDbLayerTableRecord
  2
DRAFT
 70
0
 62
7
  6
CONTINUOUS
370
-3
390
F
  0
LAYER
  5
208
100
AcDbSymbolTableRecord
100
AcDbLayerTableRecord
  2
GUSCI_ESTERNI
 70
0
 62
7
  6
CONTINUOUS
370
-3
390
F
  0
LAYER
  5
209
100
AcDbSymbolTableRecord
100
AcDbLayerTableRecord
  2
IMPORT
 70
0
 62
7
  6
CONTINUOUS
370
-3
390
F
  0
LAYER
  5
20A
100
AcDbSymbolTableRecord
100
AcDbLayerTableRecord
  2
IMPORT_FEATURES
 70
0
 62
7
  6
CONTINUOUS
370
-3
390
F
  0
LAYER
  5
20B
100
AcDbSymbolTableRecord
100
AcDbLayerTableRecord
  2
IMPORT_IGES
 70
0
 62
7
  6
CONTINUOUS
370
-3
390
F
  0
LAYER
  5
20C
100
AcDbSymbolTableRecord
100
AcDbLayerTableRecord
  2
INTF_1
 70
0
 62
7
  6
CONTINUOUS
370
-3
390
F
  0
LAYER
  5
20D
100
AcDbSymbolTableRecord
100
AcDbLayerTableRecord
  2
INTF_YELLOW
 70
0
 62
7
  6
CONTINUOUS
370
-3
390
F
  0
LAYER
  5
20E
100
AcDbSymbolTableRecord
100
AcDbLayerTableRecord
  2
NOTE
 70
0
 62
7
  6
CONTINUOUS
370
-3
390
F
  0
LAYER
  5
20F
100
AcDbSymbolTableRecord
100
AcDbLayerTableRecord
  2
PIANI
 70
0
 62
7
  6
CONTINUOUS
370
-3
390
F
  0
LAYER
  5
210
100
AcDbSymbolTableRecord
100
AcDbLayerTableRecord
  2
PIANI_ORIGINE
 70
0
 62
7
  6
CONTINUOUS
370
-3
390
F
  0
LAYER
  5
211
100
AcDbSymbolTableRecord
100
AcDbLayerTableRecord
  2
PIANI_RIFERIMENTO
 70
0
 62
7
  6
CONTINUOUS
370
-3
390
F
  0
LAYER
  5
212
100
AcDbSymbolTableRecord
100
AcDbLayerTableRecord
  2
PIANI_SFORMI
 70
0
 62
7
  6
CONTINUOUS
370
-3
390
F
  0
LAYER
  5
213
100
AcDbSymbolTableRecord
100
AcDbLayerTableRecord
  2
PRECARICO_MOLLA
 70
0
 62
7
  6
CONTINUOUS
370
-3
390
F
  0
LAYER
  5
214
100
AcDbSymbolTableRecord
100
AcDbLayerTableRecord
  2
PUNTI
 70
0
 62
7
  6
CONTINUOUS
370
-3
390
F
  0
LAYER
  5
215
100
AcDbSymbolTableRecord
100
AcDbLayerTableRecord
  2
RACCORDO
 70
0
 62
7
  6
CONTINUOUS
370
-3
390
F
  0
LAYER
  5
216
100
AcDbSymbolTableRecord
100
AcDbLayerTableRecord
  2
RGB____0____0____0__
 70
0
 62
7
  6
CONTINUOUS
370
-3
390
F
  0
LAYER
  5
217
100
AcDbSymbolTableRecord
100
AcDbLayerTableRecord
  2
SMUSSO
 70
0
 62
7
  6
CONTINUOUS
370
-3
390
F
  0
LAYER
  5
218
100
AcDbSymbolTableRecord
100
AcDbLayerTableRecord
  2
SUPERFICI
 70
0
 62
7
  6
CONTINUOUS
370
-3
390
F
  0
LAYER
  5
219
100
AcDbSymbolTableRecord
100
AcDbLayerTableRecord
  2
TRASH
 70
0
 62
7
  6
CONTINUOUS
370
-3
390
F
  0
LAYER
  5
21A
100
AcDbSymbolTableRecord
100
AcDbLayerTableRecord
  2
TRECCIE
 70
0
 62
7
  6
CONTINUOUS
370
-3
390
F
  0
LAYER
  5
21B
100
AcDbSymbolTableRecord
100
AcDbLayerTableRecord
  2
VARIE
 70
0
 62
7
  6
CONTINUOUS
370
-3
390
F
  0
LAYER
  5
21C
100
AcDbSymbolTableRecord
100
AcDbLayerTableRecord
  2
XSEC_DATUMS
 70
0
 62
7
  6
CONTINUOUS
370
-3
390
F
  0
LAYER
  5
21D
100
AcDbSymbolTableRecord
100
AcDbLayerTableRecord
  2
___SHELL
 70
0
 62
7
  6
CONTINUOUS
370
-3
390
F
  0
ENDTAB
  0
TABLE
  2
STYLE
  5
3
100
AcDbSymbolTable
 70
1
  0
STYLE
  5
11
100
AcDbSymbolTableRecord
100
AcDbTextStyleTableRecord
  2
STANDARD
 70
0
 40
0.0
 41
0.8
 50
0.0
 71
0
 42
0.2
  3
txt
  4

  0
STYLE
  5
21E
100
AcDbSymbolTableRecord
100
AcDbTextStyleTableRecord
  2
TEXTSTYLE_1
 70
0
 40
0.0
 41
0.8
 50
0.0
 71
0
 42
0.2
  3
gdt
  4

  0
ENDTAB
  0
TABLE
  2
VIEW
  5
6
100
AcDbSymbolTable
 70
0
  0
ENDTAB
  0
TABLE
  2
UCS
  5
7
100
AcDbSymbolTable
 70
0
  0
ENDTAB
  0
TABLE
  2
APPID
  5
9
100
AcDbSymbolTable
 70
1
  0
APPID
  5
21F
100
AcDbSymbolTableRecord
100
AcDbRegAppTableRecord
  2
ACAD
 70
0
  0
ENDTAB
  0
TABLE
  2
BLOCK_RECORD
  5
1
100
AcDbSymbolTable
 70
0
  0
BLOCK_RECORD
  5
220
100
AcDbSymbolTableRecord
100
AcDbBlockTableRecord
  2
*Model_Space
  0
BLOCK_RECORD
  5
221
100
AcDbSymbolTableRecord
100
AcDbBlockTableRecord
  2
*Paper_Space
  0
BLOCK_RECORD
  5
222
100
AcDbSymbolTableRecord
100
AcDbBlockTableRecord
  2
_FILLED
  0
ENDTAB
  0
TABLE
  2
DIMSTYLE
  5
A
100
AcDbSymbolTable
 70
1
100
AcDbDimStyleTable
 71
0
  0
DIMSTYLE
105
223
100
AcDbSymbolTableRecord
100
AcDbDimStyleTableRecord
  2
STANDARD
 70
0
  3

  4

 40
1.0
 41
3.0
 42
0.5
 43
0.38
 44
1.5
 45
0.0
 46
0.0
 47
0.01
 48
0.01
140
3.0
141
0.09
142
0.0
143
25.4
144
1.0
145
0.0
146
1.0
147
0.625
 71
1.0
 72
0.0
 73
0
 74
0
 75
0
 76
0
 77
1
 78
8
 79
2
170
0
171
1
172
0
173
0
174
0
175
0
176
0
177
0
178
0
270
2
179
2
271
2
272
2
273
2
274
2
275
0
280
0
281
0
282
0
283
1
284
8
285
0
286
0
287
3
288
0
340
11
278
44
341
222
342
222
343
222
344
222
  0
ENDTAB
  0
ENDSEC
  0
SECTION
  2
BLOCKS
  0
BLOCK
  5
20
100
AcDbEntity
  8
0
100
AcDbBlockBegin
  2
*Model_Space
 70
0
 10
0.0
 20
0.0
 30
0.0
  3
*Model_Space
  1

  0
ENDBLK
  5
21
100
AcDbEntity
  8
0
100
AcDbBlockEnd
  0
BLOCK
  5
1C
100
AcDbEntity
  8
0
100
AcDbBlockBegin
  2
*Paper_Space
 70
0
 10
0.0
 20
0.0
 30
0.0
  3
*Paper_Space
  1

  0
ENDBLK
  5
1D
100
AcDbEntity
  8
0
100
AcDbBlockEnd
  0
BLOCK
  5
224
100
AcDbEntity
  8
0
100
AcDbBlockBegin
  2
_FILLED
 70
64
 10
0.0
 20
0.0
  3
_FILLED
  1

  0
SOLID
  5
225
100
AcDbEntity
  8
0
  6
BYBLOCK
 62
0
100
AcDbTrace
 10
0.0
 20
0.0
 11
-1.0
 21
0.3166666667
 12
-1.0
 22
-0.3166666667
 13
-1.0
 23
-0.3166666667
  0
ENDBLK
  5
226
100
AcDbEntity
  8
0
  6
BYBLOCK
 62
0
100
AcDbBlockEnd
  0
ENDSEC
  0
SECTION
  2
ENTITIES
  0
LWPOLYLINE
  5
227
100
AcDbEntity
  8
RACCORDO
100
AcDbPolyline
 62
7
  6
CONTINUOUS
 90
24
 70
0
 10
-7.6451769321
 20
-29.6032229496
 10
-7.6223254196
 20
-29.6142465343
 10
-7.58994093
 20
-29.6285258214
 10
-7.5568774268
 20
-29.6415585066
 10
-7.5231643369
 20
-29.6533179881
 10
-7.4888092426
 20
-29.6637842507
 10
-7.4538519987
 20
-29.6729269946
 10
-7.4183357508
 20
-29.6807188336
 10
-7.3822700759
 20
-29.6871401097
 10
-7.3456932837
 20
-29.6921644696
 10
-7.3086515886
 20
-29.6957669767
 10
-7.2711624756
 20
-29.6979280259
 10
-7.2332688742
 20
-29.698626106
 10
-7.1950109321
 20
-29.6978413011
 10
-7.1563965053
 20
-29.6955533817
 10
-7.1174661033
 20
-29.6917441352
 10
-7.0782582479
 20
-29.6863963748
 10
-7.0387718815
 20
-29.6794859892
 10
-6.9990397588
 20
-29.6709929854
 10
-6.9591008706
 20
-29.6609003086
 10
-6.9189570248
 20
-29.6491799684
 10
-6.8786308873
 20
-29.6358069749
 10
-6.8381726121
 20
-29.6207676728
 10
-6.8106081125
 20
-29.609581675
  0
LINE
  5
228
100
AcDbEntity
  8
RACCORDO
100
AcDbLine
 62
7
  6
CONTINUOUS
 10
-22.4789905482
 20
-22.1863161591
 11
-7.6450921387
 21
-29.6032653638
  0
LINE
  5
229
100
AcDbEntity
  8
RACCORDO
100
AcDbLine
 62
7
  6
CONTINUOUS
 10
-7.6451793553
 20
-29.6032217463
 11
-7.6450924652
 21
-29.6032652006
  0
LINE
  5
22A
100
AcDbEntity
  8
RACCORDO
100
AcDbLine
 62
250
  6
CONTINUOUS
 10
-22.8634070132
 20
-21.4302426692
 11
-8.0385609355
 21
-28.842665708
  0
LINE
  5
22B
100
AcDbEntity
  8
RACCORDO
100
AcDbLine
 62
250
  6
CONTINUOUS
 10
-0.973617107
 20
-28.267548757
 11
-1.5018842787
 21
-28.1590464799
  0
LINE
  5
22C
100
AcDbEntity
  8
RACCORDO
100
AcDbLine
 62
250
  6
CONTINUOUS
 10
-1.0630309023
 20
-27.947981951
 11
-1.5018842787
 21
-27.8578446243
  0
LINE
  5
22D
100
AcDbEntity
  8
RACCORDO
100
AcDbLine
 62
7
  6
CONTINUOUS
 10
-4.7156984126
 20
-29.1383393184
 11
-3.3907137328
 21
-29.8008316583
  0
LINE
  5
22E
100
AcDbEntity
  8
RACCORDO
100
AcDbLine
 62
250
  6
CONTINUOUS
 10
-4.780671709
 20
-29.0031208683
 11
-3.4556870292
 21
-29.6656132082
  0
LINE
  5
22F
100
AcDbEntity
  8
RACCORDO
100
AcDbLine
 62
250
  6
CONTINUOUS
 10
-3.4556870292
 20
-29.3256392741
 11
-4.6780903995
 21
-28.7144375889
  0
LINE
  5
230
100
AcDbEntity
  8
RACCORDO
100
AcDbLine
 62
250
  6
CONTINUOUS
 10
-3.3672986816
 20
-29.0939451002
 11
-4.3781333094
 21
-28.5885277863
  0
LINE
  5
231
100
AcDbEntity
  8
CURVE
100
AcDbLine
 62
7
420
10991288
  6
CONTINUOUS
 10
-14.9708666707
 20
-22.3860137641
 11
-15.2938884885
 21
-22.2245028552
  0
LINE
  5
232
100
AcDbEntity
  8
CURVE
100
AcDbLine
 62
7
420
10991288
  6
CONTINUOUS
 10
-16.1193885745
 20
-21.8117528122
 11
-16.550084294
 21
-21.5964049524
  0
LINE
  5
233
100
AcDbEntity
  8
RACCORDO
100
AcDbLine
 62
7
  6
CONTINUOUS
 10
-3.2297694494
 20
-28.1064912828
 11
-2.7449806495
 21
-28.3488856827
  0
LWPOLYLINE
  5
234
100
AcDbEntity
  8
RACCORDO
100
AcDbPolyline
 62
7
  6
CONTINUOUS
 90
27
 70
0
 10
-23.0098707429
 20
-21.2525945217
 10
-23.0081094985
 20
-21.2906784586
 10
-23.0042030005
 20
-21.3417187363
 10
-22.9985693024
 20
-21.3918511718
 10
-22.9912183228
 20
-21.4410691287
 10
-22.9821675866
 20
-21.4893161905
 10
-22.9714500121
 20
-21.5364800026
 10
-22.9590865604
 20
-21.5825373832
 10
-22.9451006317
 20
-21.6274550626
 10
-22.9295492189
 20
-21.6711078469
 10
-22.9124673251
 20
-21.7134684739
 10
-22.8938913585
 20
-21.7545095295
 10
-22.8739072641
 20
-21.7941093831
 10
-22.8525846839
 20
-21.8322143955
 10
-22.8299634691
 20
-21.8688329423
 10
-22.8061044751
 20
-21.9039353494
 10
-22.7810911894
 20
-21.9374696788
 10
-22.7549682728
 20
-21.9694464572
 10
-22.7277379836
 20
-21.999915706
 10
-22.6994640139
 20
-22.0288475077
 10
-22.6702082848
 20
-22.0562212949
 10
-22.6399603669
 20
-22.0820802299
 10
-22.608784019
 20
-22.1063936912
 10
-22.5767413337
 20
-22.1291374005
 10
-22.5438099624
 20
-22.1503449731
 10
-22.510021777
 20
-22.1700033795
 10
-22.4788611789
 20
-22.186380816
  0
LWPOLYLINE
  5
235
100
AcDbEntity
  8
RACCORDO
100
AcDbPolyline
 62
7
  6
CONTINUOUS
 90
18
 70
0
 10
-26.5157188338
 20
0.2766001518
 10
-26.5261706732
 20
0.2534682601
 10
-26.5547684138
 20
0.1831395878
 10
-26.5792371286
 20
0.1112768864
 10
-26.5995298569
 20
0.0375742455
 10
-26.6152797814
 20
-0.0373833571
 10
-26.626064354
 20
-0.1121173676
 10
-26.6318399664
 20
-0.1864517169
 10
-26.6324923977
 20
-0.2602719957
 10
-26.6279795148
 20
-0.3322561932
 10
-26.6184014008
 20
-0.4021038131
 10
-26.6037802971
 20
-0.4697984095
 10
-26.5843764264
 20
-0.5344690657
 10
-26.5604687623
 20
-0.5957634432
 10
-26.5322287756
 20
-0.6536417357
 10
-26.5000634663
 20
-0.7076526784
 10
-26.4644303355
 20
-0.7575085939
 10
-26.4366042887
 20
-0.7910446859
  0
LWPOLYLINE
  5
236
100
AcDbEntity
  8
ASSI
100
AcDbPolyline
 62
7
  6
CONTINUOUS
 90
18
 70
0
 10
-26.5157188338
 20
0.2766001518
 10
-26.5261706732
 20
0.2534682601
 10
-26.5547684138
 20
0.1831395878
 10
-26.5792371286
 20
0.1112768864
 10
-26.5995298569
 20
0.0375742455
 10
-26.6152797814
 20
-0.0373833571
 10
-26.626064354
 20
-0.1121173676
 10
-26.6318399664
 20
-0.1864517169
 10
-26.6324923977
 20
-0.2602719957
 10
-26.6279795148
 20
-0.3322561932
 10
-26.6184014008
 20
-0.4021038131
 10
-26.6037802971
 20
-0.4697984095
 10
-26.5843764264
 20
-0.5344690657
 10
-26.5604687623
 20
-0.5957634432
 10
-26.5322287756
 20
-0.6536417357
 10
-26.5000634663
 20
-0.7076526784
 10
-26.4644303355
 20
-0.7575085939
 10
-26.4366042887
 20
-0.7910446859
  0
LWPOLYLINE
  5
237
100
AcDbEntity
  8
RACCORDO
100
AcDbPolyline
 62
7
  6
CONTINUOUS
 90
5
 70
0
 10
-17.5311765362
 20
18.5498331561
 10
-17.5325659953
 20
18.5478026091
 10
-17.5336837044
 20
18.5462961994
 10
-17.5344698994
 20
18.5453126938
 10
-17.5347256045
 20
18.5450098493
  0
LWPOLYLINE
  5
238
100
AcDbEntity
  8
RACCORDO
100
AcDbPolyline
 62
7
  6
CONTINUOUS
 90
37
 70
0
 10
-22.1041845812
 20
15.945574714
 10
-22.1358607619
 20
15.9265286069
 10
-22.1787486424
 20
15.8988752029
 10
-22.2208196495
 20
15.8695996293
 10
-22.2620561708
 20
15.8387623583
 10
-22.3024492647
 20
15.8064171286
 10
-22.3419853145
 20
15.7726160336
 10
-22.3806501817
 20
15.7374102957
 10
-22.4184287891
 20
15.7008485944
 10
-22.4552960749
 20
15.662985658
 10
-22.4912351661
 20
15.6238692589
 10
-22.5262270045
 20
15.5835448865
 10
-22.5602380623
 20
15.5420745797
 10
-22.5932476313
 20
15.4995058234
 10
-22.62523368
 20
15.4558832925
 10
-22.6561585555
 20
15.411275679
 10
-22.6859987419
 20
15.3657306009
 10
-22.7147306104
 20
15.3192940717
 10
-22.7423153192
 20
15.2720389141
 10
-22.7687280345
 20
15.2240126528
 10
-22.7939442439
 20
15.1752636682
 10
-22.8179245405
 20
15.1258683266
 10
-22.8406439853
 20
15.0758750155
 10
-22.8620779198
 20
15.0253326938
 10
-22.8821883258
 20
14.9743185028
 10
-22.9009512581
 20
14.9228806734
 10
-22.9183411667
 20
14.8710679645
 10
-22.9343229455
 20
14.8189559913
 10
-22.9488727726
 20
14.7665917491
 10
-22.9619638988
 20
14.7140223372
 10
-22.9735649041
 20
14.6613180222
 10
-22.9836500469
 20
14.6085250689
 10
-22.9921909755
 20
14.5556889365
 10
-22.999157894
 20
14.5028675359
 10
-23.0045207409
 20
14.4501049069
 10
-23.0082488984
 20
14.3974450668
 10
-23.0098895353
 20
14.3600322285
  0
LINE
  5
239
100
AcDbEntity
  8
RACCORDO
100
AcDbLine
 62
7
  6
CONTINUOUS
 10
-22.1041950507
 20
15.9455687474
 11
-17.5152202239
 21
18.6213613893
  0
LINE
  5
23A
100
AcDbEntity
  8
RACCORDO
100
AcDbLine
 62
250
  6
CONTINUOUS
 10
-17.6882789057
 20
18.3756181504
 11
-21.8708410031
 21
15.9368013543
  0
LINE
  5
23B
100
AcDbEntity
  8
RACCORDO
100
AcDbLine
 62
7
  6
CONTINUOUS
 10
-16.4991555887
 20
20.781612059
 11
-18.0823272836
 21
19.9694150117
  0
LINE
  5
23C
100
AcDbEntity
  8
RACCORDO
100
AcDbLine
 62
250
  6
CONTINUOUS
 10
-16.3864850143
 20
20.7749511339
 11
-17.9692416175
 21
19.9629670365
  0
LINE
  5
23D
100
AcDbEntity
  8
RACCORDO
100
AcDbLine
 62
250
  6
CONTINUOUS
 10
-15.0429761468
 20
20.1031967001
 11
-16.6442569377
 21
19.3004746966
  0
LINE
  5
23E
100
AcDbEntity
  8
RACCORDO
100
AcDbLine
 62
250
  6
CONTINUOUS
 10
-14.8662024432
 20
19.7983071613
 11
-16.467483234
 21
18.9955851578
  0
LINE
  5
23F
100
AcDbEntity
  8
RACCORDO
100
AcDbLine
 62
7
  6
CONTINUOUS
 10
-16.4974172031
 20
20.7824812917
 11
-16.499153615
 21
20.7816130715
  0
LINE
  5
240
100
AcDbEntity
  8
RACCORDO
100
AcDbLine
 62
250
  6
CONTINUOUS
 10
-14.5147089751
 20
20.3666355202
 11
-15.0429761468
 21
20.1031967001
  0
LINE
  5
241
100
AcDbEntity
  8
RACCORDO
100
AcDbLine
 62
250
  6
CONTINUOUS
 10
-14.3379352714
 20
20.0617459813
 11
-14.8662024432
 21
19.7983071613
  0
LINE
  5
242
100
AcDbEntity
  8
RACCORDO
100
AcDbLine
 62
7
  6
CONTINUOUS
 10
-15.9625472467
 20
21.0430333915
 11
-16.4974144376
 21
20.7824826389
  0
LINE
  5
243
100
AcDbEntity
  8
RACCORDO
100
AcDbLine
 62
250
  6
CONTINUOUS
 10
-15.8520351356
 20
21.0352986004
 11
-16.3864850143
 21
20.7749511339
  0
LWPOLYLINE
  5
244
100
AcDbEntity
  8
RACCORDO
100
AcDbPolyline
 62
7
  6
CONTINUOUS
 90
9
 70
0
 10
-9.9489454173
 20
-21.6629067238
 10
-9.9187960679
 20
-21.6771295313
 10
-9.8563281571
 20
-21.7012410003
 10
-9.7912579089
 20
-21.7193800973
 10
-9.7240717436
 20
-21.7312931878
 10
-9.6550664592
 20
-21.7367782923
 10
-9.5846944668
 20
-21.7356405005
 10
-9.5136427646
 20
-21.7277752351
 10
-9.5023253276
 20
-21.7259025034
  0
LWPOLYLINE
  5
245
100
AcDbEntity
  8
ASSI
100
AcDbPolyline
 62
7
  6
CONTINUOUS
 90
9
 70
0
 10
-9.9489454173
 20
-21.6629067238
 10
-9.9187960679
 20
-21.6771295313
 10
-9.8563281571
 20
-21.7012410003
 10
-9.7912579089
 20
-21.7193800973
 10
-9.7240717436
 20
-21.7312931878
 10
-9.6550664592
 20
-21.7367782923
 10
-9.5846944668
 20
-21.7356405005
 10
-9.5136427646
 20
-21.7277752351
 10
-9.5023253276
 20
-21.7259025034
  0
LINE
  5
246
100
AcDbEntity
  8
CURVE
100
AcDbLine
 62
7
420
10991288
  6
CONTINUOUS
 10
-15.4627362571
 20
-21.2251053124
 11
-14.996149207
 21
-21.4583988375
  0
LINE
  5
247
100
AcDbEntity
  8
RACCORDO
100
AcDbLine
 62
250
  6
CONTINUOUS
 10
-1.5018842787
 20
-27.7285552628
 11
-1.0630309023
 21
-27.947981951
  0
LINE
  5
248
100
AcDbEntity
  8
RACCORDO
100
AcDbLine
 62
7
  6
CONTINUOUS
 10
-1.5018842787
 20
-27.7249351133
 11
-1.0396158511
 21
-27.9560693271
  0
LINE
  5
249
100
AcDbEntity
  8
CURVE
100
AcDbLine
 62
7
420
10991288
  6
CONTINUOUS
 10
-16.5932330508
 20
-19.9725310636
 11
-16.1625373313
 21
-20.1878789234
  0
LINE
  5
24A
100
AcDbEntity
  8
RACCORDO
100
AcDbLine
 62
250
  6
CONTINUOUS
 10
-21.3338910545
 20
-16.889758389
 11
-9.8787611993
 21
-22.6173233166
  0
LINE
  5
24B
100
AcDbEntity
  8
RACCORDO
100
AcDbLine
 62
250
  6
CONTINUOUS
 10
-21.1571862391
 20
-16.5787261126
 11
-9.7020563839
 21
-22.3062910402
  0
LINE
  5
24C
100
AcDbEntity
  8
RACCORDO
100
AcDbLine
 62
7
  6
CONTINUOUS
 10
-9.386124889
 20
-22.1483252927
 11
-20.8412547442
 21
-16.4207603651
  0
LINE
  5
24D
100
AcDbEntity
  8
RACCORDO
100
AcDbLine
 62
7
  6
CONTINUOUS
 10
-9.9482113146
 20
-21.6632757843
 11
-21.3105673357
 21
-15.9820977738
  0
LINE
  5
24E
100
AcDbEntity
  8
ASSI
100
AcDbLine
 62
7
  6
CONTINUOUS
 10
-9.9482113146
 20
-21.6632757843
 11
-21.3105673357
 21
-15.9820977738
  0
LWPOLYLINE
  5
24F
100
AcDbEntity
  8
RACCORDO
100
AcDbPolyline
 62
7
  6
CONTINUOUS
 90
15
 70
0
 10
-21.7161307681
 20
-15.2818105964
 10
-21.7153527368
 20
-15.3067465141
 10
-21.7092454089
 20
-15.381686997
 10
-21.6976878952
 20
-15.4536930603
 10
-21.6809121189
 20
-15.5224877744
 10
-21.6591253191
 20
-15.5880029017
 10
-21.6324697135
 20
-15.6501808691
 10
-21.6011900294
 20
-15.7087117325
 10
-21.5655539926
 20
-15.763355432
 10
-21.5257668744
 20
-15.8139636974
 10
-21.4821800118
 20
-15.8602113833
 10
-21.4351921712
 20
-15.9018415136
 10
-21.3851359373
 20
-15.9387189475
 10
-21.3324422891
 20
-15.9706579927
 10
-21.3097738057
 20
-15.9824928752
  0
LWPOLYLINE
  5
250
100
AcDbEntity
  8
ASSI
100
AcDbPolyline
 62
7
  6
CONTINUOUS
 90
15
 70
0
 10
-21.7161307681
 20
-15.2818105964
 10
-21.7153527368
 20
-15.3067465141
 10
-21.7092454089
 20
-15.381686997
 10
-21.6976878952
 20
-15.4536930603
 10
-21.6809121189
 20
-15.5224877744
 10
-21.6591253191
 20
-15.5880029017
 10
-21.6324697135
 20
-15.6501808691
 10
-21.6011900294
 20
-15.7087117325
 10
-21.5655539926
 20
-15.763355432
 10
-21.5257668744
 20
-15.8139636974
 10
-21.4821800118
 20
-15.8602113833
 10
-21.4351921712
 20
-15.9018415136
 10
-21.3851359373
 20
-15.9387189475
 10
-21.3324422891
 20
-15.9706579927
 10
-21.3097738057
 20
-15.9824928752
  0
LINE
  5
251
100
AcDbEntity
  8
RACCORDO
100
AcDbLine
 62
7
  6
CONTINUOUS
 10
-21.7161391335
 20
-15.2818107617
 11
-21.8555331656
 21
-7.8471082728
  0
LINE
  5
252
100
AcDbEntity
  8
ASSI
100
AcDbLine
 62
7
  6
CONTINUOUS
 10
-21.7161391335
 20
-15.2818107617
 11
-21.8555331656
 21
-7.8471082728
  0
LINE
  5
253
100
AcDbEntity
  8
RACCORDO
100
AcDbLine
 62
250
  6
CONTINUOUS
 10
-21.5697294088
 20
-15.4565960612
 11
-21.7091205673
 21
-8.0220422574
  0
LINE
  5
254
100
AcDbEntity
  8
ASSI
100
AcDbLine
 62
250
  6
CONTINUOUS
 10
-21.5697294088
 20
-15.4565960612
 11
-21.7091205673
 21
-8.0220422574
  0
LWPOLYLINE
  5
255
100
AcDbEntity
  8
RACCORDO
100
AcDbPolyline
 62
7
  6
CONTINUOUS
 90
12
 70
0
 10
-23.3030716496
 20
-4.3349155973
 10
-23.3030715214
 20
-4.4470710745
 10
-23.2977300391
 20
-6.1418897306
 10
-23.2870490231
 20
-7.8339107814
 10
-23.2710286464
 20
-9.5231086491
 10
-23.2496691124
 20
-11.2094579768
 10
-23.2229706646
 20
-12.8929326675
 10
-23.1909336798
 20
-14.5735077338
 10
-23.1535585417
 20
-16.2511594736
 10
-23.1108457066
 20
-17.9258626856
 10
-23.0627959167
 20
-19.5975885665
 10
-23.0098708146
 20
-21.2525957077
  0
LINE
  5
256
100
AcDbEntity
  8
RACCORDO
100
AcDbLine
 62
7
  6
CONTINUOUS
 10
-21.4069401691
 20
7.2296288809
 11
-21.4069401691
 21
7.4179733303
  0
LWPOLYLINE
  5
257
100
AcDbEntity
  8
RACCORDO
100
AcDbPolyline
 62
7
  6
CONTINUOUS
 90
7
 70
0
 10
-23.009889436
 20
14.3600407475
 10
-23.0628446573
 20
12.6491968583
 10
-23.1108871882
 20
10.9278432991
 10
-23.1535934738
 20
9.2090246662
 10
-23.1909626887
 20
7.4927705621
 10
-23.2229942931
 20
5.7791067006
 10
-23.2293864309
 20
5.3693720013
  0
LINE
  5
258
100
AcDbEntity
  8
RACCORDO
100
AcDbLine
 62
250
  6
CONTINUOUS
 10
-14.8662024432
 20
19.0712623088
 11
-14.3379352714
 21
19.7142144646
  0
LINE
  5
259
100
AcDbEntity
  8
RACCORDO
100
AcDbLine
 62
7
  6
CONTINUOUS
 10
-14.8662024432
 20
18.9817318425
 11
-14.322574699
 21
19.643379298
  0
LINE
  5
25A
100
AcDbEntity
  8
GUSCI_ESTERNI
100
AcDbLine
 62
7
  6
CONTINUOUS
 10
-6.6847634178
 20
21.3604612048
 11
-4.0128639031
 21
22.9966588186
  0
LINE
  5
25B
100
AcDbEntity
  8
RACCORDO
100
AcDbLine
 62
250
  6
CONTINUOUS
 10
-15.7562626259
 20
17.8728655479
 11
-14.8662024432
 21
18.3695464691
  0
LINE
  5
25C
100
AcDbEntity
  8
RACCORDO
100
AcDbLine
 62
250
  6
CONTINUOUS
 10
-15.6082649925
 20
17.6324776924
 11
-14.6232962112
 21
18.1821205269
  0
LINE
  5
25D
100
AcDbEntity
  8
RACCORDO
100
AcDbLine
 62
7
  6
CONTINUOUS
 10
-12.4973827248
 20
17.866038087
 11
-12.1438413356
 21
18.0474115118
  0
LINE
  5
25E
100
AcDbEntity
  8
GUSCI_ESTERNI
100
AcDbLine
 62
7
  6
CONTINUOUS
 10
-4.0128639031
 20
22.9966588186
 11
-3.442387272
 21
23.2818971342
  0
LINE
  5
25F
100
AcDbEntity
  8
GUSCI_ESTERNI
100
AcDbLine
 62
7
  6
CONTINUOUS
 10
-2.8501783692
 20
23.5780015856
 11
10.4828520357
 21
30.244516788
  0
LINE
  5
260
100
AcDbEntity
  8
GUSCI_ESTERNI
100
AcDbLine
 62
7
  6
CONTINUOUS
 10
-13.4697753615
 20
18.2050497407
 11
-5.7445249658
 21
22.0676749385
  0
LINE
  5
261
100
AcDbEntity
  8
GUSCI_ESTERNI
100
AcDbLine
 62
7
  6
CONTINUOUS
 10
10.9375901139
 20
30.2693489246
 11
11.3674591389
 21
30.4842834371
  0
LINE
  5
262
100
AcDbEntity
  8
GUSCI_ESTERNI
100
AcDbLine
 62
7
  6
CONTINUOUS
 10
-2.5440305583
 20
23.4333958624
 11
-0.6970162001
 21
24.3569030415
  0
LINE
  5
263
100
AcDbEntity
  8
RACCORDO
100
AcDbLine
 62
7
  6
CONTINUOUS
 10
-7.1374485542
 20
21.3409328049
 11
-13.4519888808
 21
18.1961565003
  0
LINE
  5
264
100
AcDbEntity
  8
ASSI
100
AcDbLine
 62
7
  6
CONTINUOUS
 10
-12.1438413356
 20
18.0474115118
 11
-6.8076179296
 21
20.6468549773
  0
LINE
  5
265
100
AcDbEntity
  8
GUSCI_ESTERNI
100
AcDbLine
 62
7
  6
CONTINUOUS
 10
1.3171720851
 20
-23.1439513347
 11
1.086321402
 21
-23.1867728144
  0
LINE
  5
266
100
AcDbEntity
  8
GUSCI_ESTERNI
100
AcDbLine
 62
7
  6
CONTINUOUS
 10
1.086321402
 20
-23.1867728144
 11
0.4940600818
 21
-23.0641114788
  0
LINE
  5
267
100
AcDbEntity
  8
RACCORDO
100
AcDbLine
 62
250
  6
CONTINUOUS
 10
-10.2086202213
 20
-21.137150655
 11
-21.5697294088
 21
-15.4565960612
  0
LINE
  5
268
100
AcDbEntity
  8
ASSI
100
AcDbLine
 62
250
  6
CONTINUOUS
 10
-10.2086202213
 20
-21.137150655
 11
-21.5697294088
 21
-15.4565960612
  0
LWPOLYLINE
  5
269
100
AcDbEntity
  8
RACCORDO
100
AcDbPolyline
 62
7
  6
CONTINUOUS
 90
15
 70
0
 10
-22.6995211481
 20
-5.0239018323
 10
-22.5887923074
 20
-5.1735667562
 10
-22.4854317576
 20
-5.3329874105
 10
-22.3897197596
 20
-5.5015279249
 10
-22.3016739851
 20
-5.6788712273
 10
-22.2211642966
 20
-5.8651392242
 10
-22.1483552711
 20
-6.059913889
 10
-22.0833897418
 20
-6.2627063758
 10
-22.0262242502
 20
-6.4737052
 10
-21.9770387066
 20
-6.6924720226
 10
-21.9359651477
 20
-6.9185834151
 10
-21.9030254824
 20
-7.1524187615
 10
-21.8783883141
 20
-7.3938647543
 10
-21.8622547334
 20
-7.642160911
 10
-21.855534073
 20
-7.8470978855
  0
LWPOLYLINE
  5
26A
100
AcDbEntity
  8
ASSI
100
AcDbPolyline
 62
7
  6
CONTINUOUS
 90
15
 70
0
 10
-22.6995211481
 20
-5.0239018323
 10
-22.5887923074
 20
-5.1735667562
 10
-22.4854317576
 20
-5.3329874105
 10
-22.3897197596
 20
-5.5015279249
 10
-22.3016739851
 20
-5.6788712273
 10
-22.2211642966
 20
-5.8651392242
 10
-22.1483552711
 20
-6.059913889
 10
-22.0833897418
 20
-6.2627063758
 10
-22.0262242502
 20
-6.4737052
 10
-21.9770387066
 20
-6.6924720226
 10
-21.9359651477
 20
-6.9185834151
 10
-21.9030254824
 20
-7.1524187615
 10
-21.8783883141
 20
-7.3938647543
 10
-21.8622547334
 20
-7.642160911
 10
-21.855534073
 20
-7.8470978855
  0
LWPOLYLINE
  5
26B
100
AcDbEntity
  8
RACCORDO
100
AcDbPolyline
 62
7
  6
CONTINUOUS
 90
16
 70
0
 10
-22.30838639
 20
6.3450850007
 10
-22.6095546018
 20
6.0421862385
 10
-22.9402622785
 20
5.6920954361
 10
-23.2649263062
 20
5.3297020168
 10
-23.583057693
 20
4.9555680897
 10
-23.8942521679
 20
4.5702194821
 10
-24.1981305076
 20
4.1741612764
 10
-24.4943076725
 20
3.7679116711
 10
-24.7823780768
 20
3.3520680016
 10
-25.0619269609
 20
2.9272553424
 10
-25.332559464
 20
2.4940833819
 10
-25.5939392725
 20
2.0531269423
 10
-25.8457364809
 20
1.6049598267
 10
-26.0876110877
 20
1.1501853013
 10
-26.3192100283
 20
0.6895102145
 10
-26.5157254237
 20
0.2766009479
  0
LWPOLYLINE
  5
26C
100
AcDbEntity
  8
ASSI
100
AcDbPolyline
 62
7
  6
CONTINUOUS
 90
16
 70
0
 10
-22.30838639
 20
6.3450850007
 10
-22.6095546018
 20
6.0421862385
 10
-22.9402622785
 20
5.6920954361
 10
-23.2649263062
 20
5.3297020168
 10
-23.583057693
 20
4.9555680897
 10
-23.8942521679
 20
4.5702194821
 10
-24.1981305076
 20
4.1741612764
 10
-24.4943076725
 20
3.7679116711
 10
-24.7823780768
 20
3.3520680016
 10
-25.0619269609
 20
2.9272553424
 10
-25.332559464
 20
2.4940833819
 10
-25.5939392725
 20
2.0531269423
 10
-25.8457364809
 20
1.6049598267
 10
-26.0876110877
 20
1.1501853013
 10
-26.3192100283
 20
0.6895102145
 10
-26.5157254237
 20
0.2766009479
  0
LINE
  5
26D
100
AcDbEntity
  8
RACCORDO
100
AcDbLine
 62
7
  6
CONTINUOUS
 10
-22.3083878414
 20
6.3450841422
 11
-21.067880977
 21
7.5623304161
  0
LINE
  5
26E
100
AcDbEntity
  8
ASSI
100
AcDbLine
 62
7
  6
CONTINUOUS
 10
-22.3083878414
 20
6.3450841422
 11
-21.067880977
 21
7.5623304161
  0
LINE
  5
26F
100
AcDbEntity
  8
RACCORDO
100
AcDbLine
 62
250
  6
CONTINUOUS
 10
-22.0810082626
 20
6.3328436427
 11
-20.9089904108
 21
7.482885133
  0
LINE
  5
270
100
AcDbEntity
  8
ASSI
100
AcDbLine
 62
250
  6
CONTINUOUS
 10
-22.0810082626
 20
6.3328436427
 11
-20.9089904108
 21
7.482885133
  0
LINE
  5
271
100
AcDbEntity
  8
GUSCI_ESTERNI
100
AcDbLine
 62
7
  6
CONTINUOUS
 10
-2.8501783692
 20
23.5780015856
 11
-3.3358429701
 21
23.2278912027
  0
LINE
  5
272
100
AcDbEntity
  8
DRAFT
100
AcDbLine
 62
7
  6
CONTINUOUS
 10
-1.7000858929
 20
22.1952098695
 11
-1.3392497191
 21
22.3756279564
  0
LINE
  5
273
100
AcDbEntity
  8
DRAFT
100
AcDbLine
 62
7
  6
CONTINUOUS
 10
0.9324302318
 20
23.5114679319
 11
6.9126864174
 21
26.5015960247
  0
LINE
  5
274
100
AcDbEntity
  8
DRAFT
100
AcDbLine
 62
7
  6
CONTINUOUS
 10
10.4482203233
 20
28.2693629776
 11
12.5695406669
 21
29.3300231494
  0
LINE
  5
275
100
AcDbEntity
  8
GUSCI_ESTERNI
100
AcDbLine
 62
7
  6
CONTINUOUS
 10
-1.7725209008
 20
22.0702779612
 11
-1.9261483474
 21
21.9934642378
  0
LINE
  5
276
100
AcDbEntity
  8
GUSCI_ESTERNI
100
AcDbLine
 62
7
  6
CONTINUOUS
 10
10.5665210714
 20
27.3737735435
 11
10.4482203233
 21
27.3146231694
  0
LINE
  5
277
100
AcDbEntity
  8
0
100
AcDbLine
 62
7
  6
CONTINUOUS
 10
-4.735649189
 20
18.9429047435
 11
-8.6331701012
 21
16.9941442874
  0
LINE
  5
278
100
AcDbEntity
  8
DRAFT
100
AcDbLine
 62
7
  6
CONTINUOUS
 10
2.6719865909
 20
22.6323733815
 11
0.9633461719
 21
21.778053172
  0
LINE
  5
279
100
AcDbEntity
  8
GUSCI_ESTERNI
100
AcDbLine
 62
7
  6
CONTINUOUS
 10
-3.3403619098
 20
19.4677041087
 11
-3.3872860915
 21
19.4442420179
  0
LINE
  5
27A
100
AcDbEntity
  8
DRAFT
100
AcDbLine
 62
7
  6
CONTINUOUS
 10
-3.381971022
 20
19.4057101465
 11
-3.2910761506
 21
19.4511575822
  0
LINE
  5
27B
100
AcDbEntity
  8
ASSI
100
AcDbLine
 62
7
  6
CONTINUOUS
 10
-6.202087495
 20
20.34408976
 11
-10.8003384513
 21
18.0777284625
  0
LINE
  5
27C
100
AcDbEntity
  8
RACCORDO
100
AcDbLine
 62
7
  6
CONTINUOUS
 10
12.5695406669
 20
29.3787702448
 11
12.5757112593
 21
29.3817895885
  0
LINE
  5
27D
100
AcDbEntity
  8
DRAFT
100
AcDbLine
 62
7
  6
CONTINUOUS
 10
-9.5798969682
 20
17.4675077209
 11
-6.1532114635
 21
19.1442254193
  0
LINE
  5
27E
100
AcDbEntity
  8
RACCORDO
100
AcDbLine
 62
7
  6
CONTINUOUS
 10
-4.0766534376
 20
19.8105352466
 11
-9.2263435776
 21
17.2907310256
  0
LINE
  5
27F
100
AcDbEntity
  8
RACCORDO
100
AcDbLine
 62
7
  6
CONTINUOUS
 10
-9.5017596815
 20
-21.7258118598
 11
-9.2365701773
 21
-21.6740517287
  0
LINE
  5
280
100
AcDbEntity
  8
ASSI
100
AcDbLine
 62
7
  6
CONTINUOUS
 10
-9.5017596815
 20
-21.7258118598
 11
-9.2365701773
 21
-21.6740517287
  0
LINE
  5
281
100
AcDbEntity
  8
RACCORDO
100
AcDbLine
 62
7
  6
CONTINUOUS
 10
-9.5017596815
 20
-21.7258118598
 11
-9.50232414
 21
-21.7259093933
  0
LINE
  5
282
100
AcDbEntity
  8
ASSI
100
AcDbLine
 62
7
  6
CONTINUOUS
 10
-9.5017596815
 20
-21.7258118598
 11
-9.50232414
 21
-21.7259093933
  0
LINE
  5
283
100
AcDbEntity
  8
RACCORDO
100
AcDbLine
 62
250
  6
CONTINUOUS
 10
-22.7050700711
 20
-4.9775069116
 11
-26.3439859421
 21
-0.8620882982
  0
LINE
  5
284
100
AcDbEntity
  8
ASSI
100
AcDbLine
 62
250
  6
CONTINUOUS
 10
-22.7050700711
 20
-4.9775069116
 11
-26.3439859421
 21
-0.8620882982
  0
LINE
  5
285
100
AcDbEntity
  8
RACCORDO
100
AcDbLine
 62
7
  6
CONTINUOUS
 10
-26.4366105658
 20
-0.7910502193
 11
-22.7972824318
 21
-4.9069360658
  0
LINE
  5
286
100
AcDbEntity
  8
ASSI
100
AcDbLine
 62
7
  6
CONTINUOUS
 10
-26.4366105658
 20
-0.7910502193
 11
-22.7972824318
 21
-4.9069360658
  0
LINE
  5
287
100
AcDbEntity
  8
RACCORDO
100
AcDbLine
 62
7
  6
CONTINUOUS
 10
-22.7972905275
 20
-4.9069293472
 11
-22.6995211481
 21
-5.0239018323
  0
LINE
  5
288
100
AcDbEntity
  8
ASSI
100
AcDbLine
 62
7
  6
CONTINUOUS
 10
-22.7972905275
 20
-4.9069293472
 11
-22.6995211481
 21
-5.0239018323
  0
LINE
  5
289
100
AcDbEntity
  8
CURVE
100
AcDbLine
 62
7
420
10991288
  6
CONTINUOUS
 10
-15.5157135133
 20
-21.8850034704
 11
-15.5314498676
 21
-21.3052115562
  0
LINE
  5
28A
100
AcDbEntity
  8
CURVE
100
AcDbLine
 62
7
420
10991288
  6
CONTINUOUS
 10
-16.7719093413
 20
-21.2569055564
 11
-16.8027298551
 21
-20.0969955979
  0
LINE
  5
28B
100
AcDbEntity
  8
RACCORDO
100
AcDbLine
 62
7
  6
CONTINUOUS
 10
-18.2182131782
 20
19.7469785692
 11
-18.2182131782
 21
19.4070046351
  0
LINE
  5
28C
100
AcDbEntity
  8
RACCORDO
100
AcDbLine
 62
250
  6
CONTINUOUS
 10
-18.1449898735
 20
19.6585902216
 11
-18.1449898735
 21
19.3186162874
  0
LINE
  5
28D
100
AcDbEntity
  8
RACCORDO
100
AcDbLine
 62
7
  6
CONTINUOUS
 10
-17.5152202239
 20
18.9009996608
 11
-17.5152202239
 21
18.6071309613
  0
LINE
  5
28E
100
AcDbEntity
  8
RACCORDO
100
AcDbLine
 62
250
  6
CONTINUOUS
 10
-17.4419969192
 20
18.8643880084
 11
-17.4419969192
 21
18.5196793487
  0
LINE
  5
28F
100
AcDbEntity
  8
RACCORDO
100
AcDbLine
 62
250
  6
CONTINUOUS
 10
-16.8200051936
 20
18.6561239475
 11
-16.8200051936
 21
18.9960978817
  0
LINE
  5
290
100
AcDbEntity
  8
RACCORDO
100
AcDbLine
 62
250
  6
CONTINUOUS
 10
-16.467483234
 20
18.6556112237
 11
-16.467483234
 21
18.9955851578
  0
LINE
  5
291
100
AcDbEntity
  8
RACCORDO
100
AcDbLine
 62
250
  6
CONTINUOUS
 10
-16.1087845855
 20
18.3775283204
 11
-16.1087845855
 21
17.8530731818
  0
LWPOLYLINE
  5
292
100
AcDbEntity
  8
RACCORDO
100
AcDbPolyline
 62
7
  6
CONTINUOUS
 90
13
 70
0
 10
-17.5152199717
 20
18.6071135301
 10
-17.5152917017
 20
18.6031301428
 10
-17.5157151523
 20
18.5965607048
 10
-17.516496735
 20
18.5901444335
 10
-17.5176016232
 20
18.5839594089
 10
-17.5189714649
 20
18.5781286452
 10
-17.5205509937
 20
18.5726948366
 10
-17.5222916963
 20
18.5676680042
 10
-17.5241238734
 20
18.5631093488
 10
-17.5259884425
 20
18.5590347223
 10
-17.5278316718
 20
18.5554462407
 10
-17.5295810307
 20
18.5523779232
 10
-17.5311765362
 20
18.5498331561
  0
LINE
  5
293
100
AcDbEntity
  8
RACCORDO
100
AcDbLine
 62
7
  6
CONTINUOUS
 10
-21.5196875556
 20
7.6903414031
 11
-21.5199989619
 21
7.6901854918
  0
LINE
  5
294
100
AcDbEntity
  8
DRAFT
100
AcDbLine
 62
7
  6
CONTINUOUS
 10
2.0054924515
 20
21.2498026738
 11
1.5385477848
 21
21.0163303404
  0
LINE
  5
295
100
AcDbEntity
  8
DRAFT
100
AcDbLine
 62
7
  6
CONTINUOUS
 10
2.1397156444
 20
20.3025680869
 11
16.4232726244
 21
27.4443465768
  0
LINE
  5
296
100
AcDbEntity
  8
DRAFT
100
AcDbLine
 62
7
  6
CONTINUOUS
 10
3.5891574502
 20
19.9910255077
 11
4.056102117
 21
20.2244978411
  0
LINE
  5
297
100
AcDbEntity
  8
RACCORDO
100
AcDbLine
 62
250
  6
CONTINUOUS
 10
-21.4069401691
 20
7.4179733303
 11
-21.7432701502
 21
7.2498083398
  0
LINE
  5
298
100
AcDbEntity
  8
RACCORDO
100
AcDbLine
 62
7
  6
CONTINUOUS
 10
17.2840883317
 20
27.0276010524
 11
17.640673051
 21
27.2051878787
  0
LINE
  5
299
100
AcDbEntity
  8
ASSI
100
AcDbLine
 62
7
  6
CONTINUOUS
 10
-1.2523400267
 20
17.8692160259
 11
-5.850590983
 21
15.6028547283
  0
LINE
  5
29A
100
AcDbEntity
  8
RACCORDO
100
AcDbLine
 62
7
  6
CONTINUOUS
 10
16.786189486
 20
27.6324296612
 11
16.4233262393
 21
27.4579820985
  0
LINE
  5
29B
100
AcDbEntity
  8
RACCORDO
100
AcDbLine
 62
250
  6
CONTINUOUS
 10
-21.7091205673
 20
-8.0220422574
 11
-10.2821921439
 21
-13.7355064691
  0
LINE
  5
29C
100
AcDbEntity
  8
ASSI
100
AcDbLine
 62
250
  6
CONTINUOUS
 10
-21.7091205673
 20
-8.0220422574
 11
-10.2821921439
 21
-13.7355064691
  0
LINE
  5
29D
100
AcDbEntity
  8
CURVE
100
AcDbLine
 62
7
420
10991288
  6
CONTINUOUS
 10
-17.7016511848
 20
-7.0352311623
 11
-19.7151631525
 21
-4.7694435833
  0
LINE
  5
29E
100
AcDbEntity
  8
CURVE
100
AcDbLine
 62
7
420
10991288
  6
CONTINUOUS
 10
-14.7746371705
 20
-21.7980548308
 11
-14.7619959086
 21
-22.2618622738
  0
LINE
  5
29F
100
AcDbEntity
  8
RACCORDO
100
AcDbLine
 62
250
  6
CONTINUOUS
 10
-15.7562626259
 20
18.5071077008
 11
-15.7562626259
 21
17.8728655479
  0
LINE
  5
2A0
100
AcDbEntity
  8
RACCORDO
100
AcDbLine
 62
7
  6
CONTINUOUS
 10
-14.8662024432
 20
18.3695464691
 11
-14.8662024432
 21
19.7983071613
  0
LINE
  5
2A1
100
AcDbEntity
  8
RACCORDO
100
AcDbLine
 62
250
  6
CONTINUOUS
 10
-14.3379352714
 20
20.0617459813
 11
-14.3379352714
 21
19.7142144646
  0
LINE
  5
2A2
100
AcDbEntity
  8
RACCORDO
100
AcDbLine
 62
7
  6
CONTINUOUS
 10
-14.2657374144
 20
20.1496186135
 11
-14.2657374144
 21
19.8020870968
  0
LINE
  5
2A3
100
AcDbEntity
  8
DRAFT
100
AcDbLine
 62
7
  6
CONTINUOUS
 10
-5.8209506022
 20
13.7809477225
 11
-5.9213016611
 21
13.7237061093
  0
LINE
  5
2A4
100
AcDbEntity
  8
RACCORDO
100
AcDbLine
 62
7
  6
CONTINUOUS
 10
-5.9213016611
 20
13.7237061093
 11
-6.2789808104
 21
13.5241101575
  0
LINE
  5
2A5
100
AcDbEntity
  8
RACCORDO
100
AcDbLine
 62
7
  6
CONTINUOUS
 10
-3.1348374242
 20
14.0994529767
 11
-4.7180091192
 21
13.2872559295
  0
LINE
  5
2A6
100
AcDbEntity
  8
RACCORDO
100
AcDbLine
 62
250
  6
CONTINUOUS
 10
-3.0221668499
 20
14.0927920517
 11
-4.6049234531
 21
13.2808079543
  0
LINE
  5
2A7
100
AcDbEntity
  8
RACCORDO
100
AcDbLine
 62
7
  6
CONTINUOUS
 10
-6.2789808104
 20
14.7568371298
 11
-5.9213016611
 21
14.9361416746
  0
LINE
  5
2A8
100
AcDbEntity
  8
DRAFT
100
AcDbLine
 62
7
  6
CONTINUOUS
 10
5.1352761809
 20
19.6920881675
 11
6.8439166
 21
20.546408377
  0
LINE
  5
2A9
100
AcDbEntity
  8
RACCORDO
100
AcDbLine
 62
7
  6
CONTINUOUS
 10
-3.1330990387
 20
14.1003222095
 11
-3.1348354505
 21
14.0994539893
  0
LINE
  5
2AA
100
AcDbEntity
  8
RACCORDO
100
AcDbLine
 62
7
  6
CONTINUOUS
 10
14.4113840162
 20
22.7687541734
 11
15.9378761222
 21
23.5320002264
  0
LINE
  5
2AB
100
AcDbEntity
  8
DRAFT
100
AcDbLine
 62
7
  6
CONTINUOUS
 10
6.007378022
 20
18.3414779121
 11
6.3682141959
 21
18.521895999
  0
LINE
  5
2AC
100
AcDbEntity
  8
DRAFT
100
AcDbLine
 62
7
  6
CONTINUOUS
 10
8.6398941468
 20
19.6577359744
 11
14.6201503323
 21
22.6478640672
  0
LINE
  5
2AD
100
AcDbEntity
  8
DRAFT
100
AcDbLine
 62
7
  6
CONTINUOUS
 10
18.1556842383
 20
24.4156310202
 11
20.2770045818
 21
25.476291192
  0
LINE
  5
2AE
100
AcDbEntity
  8
GUSCI_ESTERNI
100
AcDbLine
 62
7
  6
CONTINUOUS
 10
5.7813155675
 20
18.05312974
 11
5.970366352
 21
18.1476551322
  0
LINE
  5
2AF
100
AcDbEntity
  8
GUSCI_ESTERNI
100
AcDbLine
 62
7
  6
CONTINUOUS
 10
8.6665687205
 20
19.4957563165
 11
14.6201503323
 21
22.4725471224
  0
LINE
  5
2B0
100
AcDbEntity
  8
GUSCI_ESTERNI
100
AcDbLine
 62
7
  6
CONTINUOUS
 10
18.1556842383
 20
24.2403140754
 11
20.2770315063
 21
25.3009877094
  0
LINE
  5
2B1
100
AcDbEntity
  8
ASSI
100
AcDbLine
 62
7
  6
CONTINUOUS
 10
-5.9213016611
 20
14.9361416746
 11
-0.646809592
 21
17.5664508085
  0
LINE
  5
2B2
100
AcDbEntity
  8
DRAFT
100
AcDbLine
 62
7
  6
CONTINUOUS
 10
-5.8209506022
 20
13.7809477225
 11
-0.5964675909
 21
16.3675952304
  0
LINE
  5
2B3
100
AcDbEntity
  8
RACCORDO
100
AcDbLine
 62
7
  6
CONTINUOUS
 10
0.1659872495
 20
17.689214903
 11
-0.472873527
 21
17.3766127779
  0
LINE
  5
2B4
100
AcDbEntity
  8
RACCORDO
100
AcDbLine
 62
7
  6
CONTINUOUS
 10
20.2831751742
 20
25.5280576311
 11
20.2770045818
 21
25.5250382873
  0
LINE
  5
2B5
100
AcDbEntity
  8
RACCORDO
100
AcDbLine
 62
7
  6
CONTINUOUS
 10
-2.5982290823
 20
14.3608743093
 11
-3.1330962731
 21
14.1003235567
  0
LINE
  5
2B6
100
AcDbEntity
  8
RACCORDO
100
AcDbLine
 62
250
  6
CONTINUOUS
 10
-2.4877169712
 20
14.3531395182
 11
-3.0221668499
 21
14.0927920517
  0
LWPOLYLINE
  5
2B7
100
AcDbEntity
  8
RACCORDO
100
AcDbPolyline
 62
7
  6
CONTINUOUS
 90
18
 70
0
 10
-21.5199942549
 20
7.6901877459
 10
-21.5080305403
 20
7.6956043376
 10
-21.4959150524
 20
7.699963662
 10
-21.483522889
 20
7.7033796413
 10
-21.4707666094
 20
7.7059153318
 10
-21.4574270954
 20
7.7076195952
 10
-21.4434554
 20
7.7084739801
 10
-21.4289225711
 20
7.7084535148
 10
-21.4137982029
 20
7.7075387869
 10
-21.3981042991
 20
7.7057068431
 10
-21.3819175476
 20
7.7029482152
 10
-21.3652888985
 20
7.6992572406
 10
-21.3482775416
 20
7.694635409
 10
-21.330945765
 20
7.6890925314
 10
-21.3133336516
 20
7.6826353657
 10
-21.2954884127
 20
7.6752759885
 10
-21.2774785196
 20
7.6670413537
 10
-21.2690094151
 20
7.6628944029
  0
LINE
  5
2B8
100
AcDbEntity
  8
GUSCI_ESTERNI
100
AcDbLine
 62
7
  6
CONTINUOUS
 10
0.4073040305
 20
-16.5403620624
 11
-0.476579446
 21
-16.1117805574
  0
LINE
  5
2B9
100
AcDbEntity
  8
GUSCI_ESTERNI
100
AcDbLine
 62
7
  6
CONTINUOUS
 10
-3.9115189084
 20
-13.7495309053
 11
-4.2694833
 21
-13.5759594768
  0
LINE
  5
2BA
100
AcDbEntity
  8
GUSCI_ESTERNI
100
AcDbLine
 62
7
  6
CONTINUOUS
 10
7.8574559527
 20
-20.1944447887
 11
7.5321849794
 21
-20.0364448875
  0
LINE
  5
2BB
100
AcDbEntity
  8
GUSCI_ESTERNI
100
AcDbLine
 62
7
  6
CONTINUOUS
 10
-3.0006483753
 20
-14.5471273434
 11
-1.8886528716
 21
-15.0883875842
  0
LINE
  5
2BC
100
AcDbEntity
  8
RACCORDO
100
AcDbLine
 62
250
  6
CONTINUOUS
 10
-22.7050700711
 20
-4.9775069116
 11
-11.2781416478
 21
-10.6909711233
  0
LINE
  5
2BD
100
AcDbEntity
  8
ASSI
100
AcDbLine
 62
250
  6
CONTINUOUS
 10
-22.7050700711
 20
-4.9775069116
 11
-11.2781416478
 21
-10.6909711233
  0
LINE
  5
2BE
100
AcDbEntity
  8
GUSCI_ESTERNI
100
AcDbLine
 62
7
  6
CONTINUOUS
 10
-4.6140304875
 20
-13.2403892413
 11
-3.9115189084
 21
-13.7495309053
  0
LINE
  5
2BF
100
AcDbEntity
  8
GUSCI_ESTERNI
100
AcDbLine
 62
7
  6
CONTINUOUS
 10
-1.8886528716
 20
-15.0883875842
 11
-0.476579446
 21
-16.1117805574
  0
LINE
  5
2C0
100
AcDbEntity
  8
GUSCI_ESTERNI
100
AcDbLine
 62
7
  6
CONTINUOUS
 10
0.4073040305
 20
-16.5403620624
 11
-4.6140304875
 21
-12.901175623
  0
LINE
  5
2C1
100
AcDbEntity
  8
DRAFT
100
AcDbLine
 62
7
  6
CONTINUOUS
 10
0.4940600818
 20
-17.2158903537
 11
-4.6140304875
 21
-13.3150547527
  0
LINE
  5
2C2
100
AcDbEntity
  8
RACCORDO
100
AcDbLine
 62
250
  6
CONTINUOUS
 10
-14.9828767546
 20
-6.542642892
 11
-11.2781416478
 21
-10.6909711233
  0
LINE
  5
2C3
100
AcDbEntity
  8
ASSI
100
AcDbLine
 62
250
  6
CONTINUOUS
 10
-14.9828767546
 20
-6.542642892
 11
-11.2781416478
 21
-10.6909711233
  0
LINE
  5
2C4
100
AcDbEntity
  8
RACCORDO
100
AcDbLine
 62
250
  6
CONTINUOUS
 10
-14.3528511071
 20
-6.3229964172
 11
-10.6481160003
 21
-10.4713246486
  0
LINE
  5
2C5
100
AcDbEntity
  8
ASSI
100
AcDbLine
 62
250
  6
CONTINUOUS
 10
-14.3528511071
 20
-6.3229964172
 11
-10.6481160003
 21
-10.4713246486
  0
LINE
  5
2C6
100
AcDbEntity
  8
RACCORDO
100
AcDbLine
 62
7
  6
CONTINUOUS
 10
-12.6417784388
 20
17.6818810859
 11
-12.6417784388
 21
16.4416920532
  0
LINE
  5
2C7
100
AcDbEntity
  8
RACCORDO
100
AcDbLine
 62
250
  6
CONTINUOUS
 10
-12.4953318294
 20
17.3388112549
 11
-12.4953318294
 21
16.2582279441
  0
LINE
  5
2C8
100
AcDbEntity
  8
GUSCI_ESTERNI
100
AcDbLine
 62
7
  6
CONTINUOUS
 10
-1.8023055617
 20
22.4505608838
 11
-0.6970162001
 21
24.3569030415
  0
LINE
  5
2C9
100
AcDbEntity
  8
GUSCI_ESTERNI
100
AcDbLine
 62
7
  6
CONTINUOUS
 10
-3.3403619098
 20
19.5543066491
 11
-1.9261483474
 21
21.9934642378
  0
LINE
  5
2CA
100
AcDbEntity
  8
DRAFT
100
AcDbLine
 62
7
  6
CONTINUOUS
 10
-3.2910761506
 20
19.4511575822
 11
-1.7000858929
 21
22.1952098695
  0
LINE
  5
2CB
100
AcDbEntity
  8
DRAFT
100
AcDbLine
 62
7
  6
CONTINUOUS
 10
0.9324302318
 20
23.5114679319
 11
0.1215858132
 21
22.1129681794
  0
LINE
  5
2CC
100
AcDbEntity
  8
RACCORDO
100
AcDbLine
 62
250
  6
CONTINUOUS
 10
-4.1509020595
 20
11.9708495435
 11
-4.2135444949
 21
11.9351174436
  0
LINE
  5
2CD
100
AcDbEntity
  8
RACCORDO
100
AcDbLine
 62
250
  6
CONTINUOUS
 10
-7.0226225424
 20
8.5126921239
 11
-2.6914527011
 21
10.8772050481
  0
LINE
  5
2CE
100
AcDbEntity
  8
RACCORDO
100
AcDbLine
 62
7
  6
CONTINUOUS
 10
4.114488652
 20
15.4143160505
 11
-1.3770546763
 21
12.4515024396
  0
LINE
  5
2CF
100
AcDbEntity
  8
RACCORDO
100
AcDbLine
 62
7
  6
CONTINUOUS
 10
4.114488652
 20
14.9094284044
 11
-1.228968204
 21
12.0846461619
  0
LINE
  5
2D0
100
AcDbEntity
  8
DRAFT
100
AcDbLine
 62
7
  6
CONTINUOUS
 10
3.7400321843
 20
14.360719955
 11
-0.9553914422
 21
11.947857781
  0
LINE
  5
2D1
100
AcDbEntity
  8
DRAFT
100
AcDbLine
 62
250
  6
CONTINUOUS
 10
3.8457743234
 20
14.5831830112
 11
-1.1461860852
 21
12.0432551026
  0
LINE
  5
2D2
100
AcDbEntity
  8
RACCORDO
100
AcDbLine
 62
250
  6
CONTINUOUS
 10
-1.6786579824
 20
13.4210376179
 11
-3.2799387732
 21
12.6183156144
  0
LINE
  5
2D3
100
AcDbEntity
  8
RACCORDO
100
AcDbLine
 62
250
  6
CONTINUOUS
 10
-1.5018842787
 20
13.1161480791
 11
-3.1031650696
 21
12.3134260756
  0
LINE
  5
2D4
100
AcDbEntity
  8
GUSCI_ESTERNI
100
AcDbLine
 62
7
  6
CONTINUOUS
 10
4.2548187518
 20
15.5578305246
 11
4.3671020051
 21
15.6139721512
  0
LINE
  5
2D5
100
AcDbEntity
  8
GUSCI_ESTERNI
100
AcDbLine
 62
7
  6
CONTINUOUS
 10
8.3717030012
 20
17.5616622809
 11
10.3752709426
 21
18.5634462516
  0
LINE
  5
2D6
100
AcDbEntity
  8
GUSCI_ESTERNI
100
AcDbLine
 62
7
  6
CONTINUOUS
 10
9.4936261687
 20
17.8367580765
 11
12.5341853278
 21
19.357037656
  0
LINE
  5
2D7
100
AcDbEntity
  8
GUSCI_ESTERNI
100
AcDbLine
 62
7
  6
CONTINUOUS
 10
7.8574559527
 20
17.0004270701
 11
8.0751376027
 21
17.1092678951
  0
LINE
  5
2D8
100
AcDbEntity
  8
GUSCI_ESTERNI
100
AcDbLine
 62
7
  6
CONTINUOUS
 10
8.6673465055
 20
17.4053723465
 11
9.5115215682
 21
17.8274598779
  0
LINE
  5
2D9
100
AcDbEntity
  8
GUSCI_ESTERNI
100
AcDbLine
 62
7
  6
CONTINUOUS
 10
12.5523958186
 20
19.3478970031
 11
22.3276411717
 21
24.2355196796
  0
LINE
  5
2DA
100
AcDbEntity
  8
RACCORDO
100
AcDbLine
 62
250
  6
CONTINUOUS
 10
-1.1503908107
 20
13.6844764379
 11
-1.6786579824
 21
13.4210376179
  0
LINE
  5
2DB
100
AcDbEntity
  8
RACCORDO
100
AcDbLine
 62
250
  6
CONTINUOUS
 10
-0.973617107
 20
13.3795868991
 11
-1.5018842787
 21
13.1161480791
  0
LINE
  5
2DC
100
AcDbEntity
  8
RACCORDO
100
AcDbLine
 62
7
  6
CONTINUOUS
 10
3.226782366
 20
16.1588173448
 11
-1.4644605209
 21
13.903488664
  0
LINE
  5
2DD
100
AcDbEntity
  8
RACCORDO
100
AcDbLine
 62
250
  6
CONTINUOUS
 10
-0.7948852077
 20
11.8676046638
 11
-1.4764709853
 21
11.5456647353
  0
LINE
  5
2DE
100
AcDbEntity
  8
RACCORDO
100
AcDbLine
 62
250
  6
CONTINUOUS
 10
-14.9828767546
 20
-6.542642892
 11
-26.3439859421
 21
-0.8620882982
  0
LINE
  5
2DF
100
AcDbEntity
  8
ASSI
100
AcDbLine
 62
250
  6
CONTINUOUS
 10
-14.9828767546
 20
-6.542642892
 11
-26.3439859421
 21
-0.8620882982
  0
LINE
  5
2E0
100
AcDbEntity
  8
RACCORDO
100
AcDbLine
 62
250
  6
CONTINUOUS
 10
-14.9763969426
 20
-5.4930354681
 11
-26.3424389545
 21
0.1899855379
  0
LINE
  5
2E1
100
AcDbEntity
  8
ASSI
100
AcDbLine
 62
250
  6
CONTINUOUS
 10
-14.9763969426
 20
-5.4930354681
 11
-26.3424389545
 21
0.1899855379
  0
LINE
  5
2E2
100
AcDbEntity
  8
RACCORDO
100
AcDbLine
 62
250
  6
CONTINUOUS
 10
-10.2821921439
 20
-13.7355064691
 11
-10.2086202213
 21
-21.137150655
  0
LINE
  5
2E3
100
AcDbEntity
  8
ASSI
100
AcDbLine
 62
250
  6
CONTINUOUS
 10
-10.2821921439
 20
-13.7355064691
 11
-10.2086202213
 21
-21.137150655
  0
LINE
  5
2E4
100
AcDbEntity
  8
RACCORDO
100
AcDbLine
 62
250
  6
CONTINUOUS
 10
-9.5810272461
 20
-13.7333268047
 11
-9.5074553235
 21
-21.1349709907
  0
LINE
  5
2E5
100
AcDbEntity
  8
ASSI
100
AcDbLine
 62
250
  6
CONTINUOUS
 10
-9.5810272461
 20
-13.7333268047
 11
-9.5074553235
 21
-21.1349709907
  0
LWPOLYLINE
  5
2E6
100
AcDbEntity
  8
RACCORDO
100
AcDbPolyline
 62
7
  6
CONTINUOUS
 90
24
 70
0
 10
-9.2299334672
 20
-22.0003518887
 10
-9.2297491791
 20
-22.0236363391
 10
-9.2302580661
 20
-22.0474897659
 10
-9.2314569456
 20
-22.0703995567
 10
-9.2333021821
 20
-22.0922910322
 10
-9.23575383
 20
-22.113189825
 10
-9.2387892449
 20
-22.1331984991
 10
-9.242374957
 20
-22.1522915881
 10
-9.2464723995
 20
-22.1704372163
 10
-9.2510660982
 20
-22.1876979718
 10
-9.2561217373
 20
-22.2040429593
 10
-9.2615982406
 20
-22.2194374902
 10
-9.2674749396
 20
-22.2339087062
 10
-9.2737099694
 20
-22.2474255742
 10
-9.2802559362
 20
-22.2599610679
 10
-9.2870814733
 20
-22.2715276488
 10
-9.2941260204
 20
-22.2820927287
 10
-9.3013505253
 20
-22.291671697
 10
-9.3087638431
 20
-22.3003367274
 10
-9.3162979233
 20
-22.3080630578
 10
-9.3239639034
 20
-22.3149195385
 10
-9.3319428156
 20
-22.3210831204
 10
-9.340341956
 20
-22.3266044867
 10
-9.3492871298
 20
-22.3315130239
  0
LINE
  5
2E7
100
AcDbEntity
  8
DRAFT
100
AcDbLine
 62
7
  6
CONTINUOUS
 10
0.6319713379
 20
17.7020938269
 11
2.1397156444
 21
20.3025680869
  0
LINE
  5
2E8
100
AcDbEntity
  8
RACCORDO
100
AcDbLine
 62
250
  6
CONTINUOUS
 10
-1.5018842787
 20
12.3891032266
 11
-0.973617107
 21
13.0320553824
  0
LINE
  5
2E9
100
AcDbEntity
  8
RACCORDO
100
AcDbLine
 62
7
  6
CONTINUOUS
 10
-1.5018842787
 20
12.2995727603
 11
-0.9582565346
 21
12.9612202158
  0
LINE
  5
2EA
100
AcDbEntity
  8
RACCORDO
100
AcDbLine
 62
250
  6
CONTINUOUS
 10
-1.0564003445
 20
10.9671068978
 11
-6.6567898023
 21
7.9096896782
  0
LINE
  5
2EB
100
AcDbEntity
  8
GUSCI_ESTERNI
100
AcDbLine
 62
7
  6
CONTINUOUS
 10
8.8481638559
 20
15.8054988153
 11
9.4138492808
 21
16.0883415277
  0
LINE
  5
2EC
100
AcDbEntity
  8
GUSCI_ESTERNI
100
AcDbLine
 62
7
  6
CONTINUOUS
 10
0.3797314651
 20
10.0876016998
 11
7.8750633457
 21
13.8352676401
  0
LINE
  5
2ED
100
AcDbEntity
  8
GUSCI_ESTERNI
100
AcDbLine
 62
7
  6
CONTINUOUS
 10
0.4073040305
 20
9.3826838436
 11
11.2459660532
 21
14.802014855
  0
LINE
  5
2EE
100
AcDbEntity
  8
GUSCI_ESTERNI
100
AcDbLine
 62
7
  6
CONTINUOUS
 10
14.3173793493
 20
16.337721503
 11
24.7691655135
 21
21.5636145851
  0
LINE
  5
2EF
100
AcDbEntity
  8
RACCORDO
100
AcDbLine
 62
250
  6
CONTINUOUS
 10
-0.4412241069
 20
11.2576789732
 11
-1.0564003445
 21
10.9671068978
  0
LINE
  5
2F0
100
AcDbEntity
  8
0
100
AcDbLine
 62
7
  6
CONTINUOUS
 10
13.4109139858
 20
-14.8801853272
 11
13.0340777943
 21
-14.7504988465
  0
LINE
  5
2F1
100
AcDbEntity
  8
0
100
AcDbLine
 62
7
  6
CONTINUOUS
 10
12.5280003274
 20
-15.6308712994
 11
13.4109164769
 21
-16.0318386451
  0
LINE
  5
2F2
100
AcDbEntity
  8
GUSCI_ESTERNI
100
AcDbLine
 62
7
  6
CONTINUOUS
 10
13.6130559904
 20
-17.3166447699
 11
13.5948454996
 21
-17.3078900234
  0
LINE
  5
2F3
100
AcDbEntity
  8
RACCORDO
100
AcDbLine
 62
250
  6
CONTINUOUS
 10
-6.9840247297
 20
13.5025743942
 11
-6.9840247297
 21
14.583157705
  0
LINE
  5
2F4
100
AcDbEntity
  8
RACCORDO
100
AcDbLine
 62
250
  6
CONTINUOUS
 10
-6.2789808104
 20
13.5241101575
 11
-6.2789808104
 21
14.7568371298
  0
LINE
  5
2F5
100
AcDbEntity
  8
ASSI
100
AcDbLine
 62
250
  6
CONTINUOUS
 10
-6.1532114635
 20
19.1442254193
 11
-6.1532114635
 21
20.3640183271
  0
LINE
  5
2F6
100
AcDbEntity
  8
RACCORDO
100
AcDbLine
 62
7
  6
CONTINUOUS
 10
-6.0278619562
 20
19.2932535777
 11
-6.0278619562
 21
20.3733410956
  0
LINE
  5
2F7
100
AcDbEntity
  8
DRAFT
100
AcDbLine
 62
7
  6
CONTINUOUS
 10
-5.9213016611
 20
14.9361416746
 11
-5.9213016611
 21
13.7237061093
  0
LINE
  5
2F8
100
AcDbEntity
  8
RACCORDO
100
AcDbLine
 62
250
  6
CONTINUOUS
 10
-9.4458877702
 20
1.5789092009
 11
-10.5415339251
 21
0.5631064739
  0
LINE
  5
2F9
100
AcDbEntity
  8
ASSI
100
AcDbLine
 62
250
  6
CONTINUOUS
 10
-9.4458877702
 20
1.5789092009
 11
-10.5415339251
 21
0.5631064739
  0
LINE
  5
2FA
100
AcDbEntity
  8
RACCORDO
100
AcDbLine
 62
250
  6
CONTINUOUS
 10
-9.2311004336
 20
0.815081921
 11
-10.0710565302
 21
0.036336256
  0
LINE
  5
2FB
100
AcDbEntity
  8
ASSI
100
AcDbLine
 62
250
  6
CONTINUOUS
 10
-9.2311004336
 20
0.815081921
 11
-10.0710565302
 21
0.036336256
  0
LINE
  5
2FC
100
AcDbEntity
  8
RACCORDO
100
AcDbLine
 62
7
  6
CONTINUOUS
 10
5.1822233048
 20
8.8742354748
 11
4.9049842831
 21
8.7356159639
  0
LINE
  5
2FD
100
AcDbEntity
  8
DRAFT
100
AcDbLine
 62
7
  6
CONTINUOUS
 10
0.4940600818
 20
8.8751240818
 11
-0.4412241069
 21
8.4431788492
  0
LINE
  5
2FE
100
AcDbEntity
  8
0
100
AcDbLine
 62
250
  6
CONTINUOUS
 10
6.2896492352
 20
11.5020206722
 11
6.2788421684
 21
11.4972217942
  0
LINE
  5
2FF
100
AcDbEntity
  8
0
100
AcDbLine
 62
7
  6
CONTINUOUS
 10
8.7677309604
 20
9.8787315069
 11
8.6736926517
 21
9.8369737962
  0
LINE
  5
300
100
AcDbEntity
  8
0
100
AcDbLine
 62
250
  6
CONTINUOUS
 10
8.6626921251
 20
9.7870561934
 11
8.2077254749
 21
9.585028254
  0
LINE
  5
301
100
AcDbEntity
  8
0
100
AcDbLine
 62
7
  6
CONTINUOUS
 10
8.7326869943
 20
9.8181374148
 11
8.6661918685
 21
9.7886102545
  0
LINE
  5
302
100
AcDbEntity
  8
GUSCI_ESTERNI
100
AcDbLine
 62
250
  6
CONTINUOUS
 10
15.3780395211
 20
-15.1748883511
 11
14.1034838921
 21
-14.548637187
  0
LINE
  5
303
100
AcDbEntity
  8
0
100
AcDbLine
 62
7
  6
CONTINUOUS
 10
13.6100589909
 20
-15.6883695512
 11
12.8461942514
 21
-15.2428284168
  0
LINE
  5
304
100
AcDbEntity
  8
0
100
AcDbLine
 62
7
  6
CONTINUOUS
 10
12.41143985
 20
-15.9784561957
 11
12.6697379853
 21
-16.1585329802
  0
LINE
  5
305
100
AcDbEntity
  8
GUSCI_ESTERNI
100
AcDbLine
 62
7
  6
CONTINUOUS
 10
-1.795544258
 20
-15.4674150674
 11
-1.8886528716
 21
-15.0883875842
  0
LINE
  5
306
100
AcDbEntity
  8
RACCORDO
100
AcDbLine
 62
7
  6
CONTINUOUS
 10
-4.8538950137
 20
13.064819487
 11
-4.8538950137
 21
12.7248455529
  0
LINE
  5
307
100
AcDbEntity
  8
RACCORDO
100
AcDbLine
 62
7
  6
CONTINUOUS
 10
-4.8538950137
 20
-28.788233225
 11
-4.8538950137
 21
-28.9147325206
  0
LINE
  5
308
100
AcDbEntity
  8
RACCORDO
100
AcDbLine
 62
250
  6
CONTINUOUS
 10
-4.780671709
 20
12.9764311394
 11
-4.780671709
 21
12.6364572052
  0
LINE
  5
309
100
AcDbEntity
  8
RACCORDO
100
AcDbLine
 62
250
  6
CONTINUOUS
 10
-4.780671709
 20
-28.7574970559
 11
-4.780671709
 21
-29.0031208683
  0
LINE
  5
30A
100
AcDbEntity
  8
DRAFT
100
AcDbLine
 62
7
  6
CONTINUOUS
 10
-4.6140304875
 20
-6.1309673912
 11
-4.6140304875
 21
-13.3150547527
  0
LINE
  5
30B
100
AcDbEntity
  8
RACCORDO
100
AcDbLine
 62
7
  6
CONTINUOUS
 10
-4.1509020595
 20
11.9319271739
 11
-4.1509020595
 21
12.2188405785
  0
LINE
  5
30C
100
AcDbEntity
  8
RACCORDO
100
AcDbLine
 62
250
  6
CONTINUOUS
 10
-4.0776787547
 20
11.8375202664
 11
-4.0776787547
 21
12.1822289262
  0
LINE
  5
30D
100
AcDbEntity
  8
RACCORDO
100
AcDbLine
 62
250
  6
CONTINUOUS
 10
-3.4556870292
 20
-29.6656132082
 11
-3.4556870292
 21
-29.3256392741
  0
LINE
  5
30E
100
AcDbEntity
  8
RACCORDO
100
AcDbLine
 62
250
  6
CONTINUOUS
 10
-3.4556870292
 20
11.9739648653
 11
-3.4556870292
 21
12.3139387994
  0
LINE
  5
30F
100
AcDbEntity
  8
RACCORDO
100
AcDbLine
 62
7
  6
CONTINUOUS
 10
-3.3757172489
 20
19.2950109128
 11
-3.3757172489
 21
19.0166529309
  0
LINE
  5
310
100
AcDbEntity
  8
GUSCI_ESTERNI
100
AcDbLine
 62
7
  6
CONTINUOUS
 10
-3.3403619098
 20
19.5543066491
 11
-3.3403619098
 21
19.4677041087
  0
LINE
  5
311
100
AcDbEntity
  8
RACCORDO
100
AcDbLine
 62
250
  6
CONTINUOUS
 10
-3.1031650696
 20
-29.666125932
 11
-3.1031650696
 21
-29.3261519979
  0
LINE
  5
312
100
AcDbEntity
  8
RACCORDO
100
AcDbLine
 62
250
  6
CONTINUOUS
 10
-3.1031650696
 20
11.9734521415
 11
-3.1031650696
 21
12.3134260756
  0
LINE
  5
313
100
AcDbEntity
  8
RACCORDO
100
AcDbLine
 62
250
  6
CONTINUOUS
 10
-2.7444664211
 20
-28.3491427969
 11
-2.7444664211
 21
-27.9027807839
  0
LINE
  5
314
100
AcDbEntity
  8
RACCORDO
100
AcDbLine
 62
250
  6
CONTINUOUS
 10
-2.7444664211
 20
11.1709140996
 11
-2.7444664211
 21
11.6953692382
  0
LINE
  5
315
100
AcDbEntity
  8
GUSCI_ESTERNI
100
AcDbLine
 62
7
  6
CONTINUOUS
 10
-2.5440305583
 20
22.8265317111
 11
-2.5440305583
 21
23.4333958624
  0
LWPOLYLINE
  5
316
100
AcDbEntity
  8
RACCORDO
100
AcDbPolyline
 62
7
  6
CONTINUOUS
 90
9
 70
0
 10
-4.1509020151
 20
11.9318854276
 10
-4.1510642976
 20
11.9270488926
 10
-4.1515228753
 20
11.9224774882
 10
-4.1522130635
 20
11.9183178779
 10
-4.1530741907
 20
11.9145843103
 10
-4.1540374001
 20
11.9113238477
 10
-4.1550133667
 20
11.9086160942
 10
-4.1559221329
 20
11.9064799306
 10
-4.1566982658
 20
11.9048982853
  0
LINE
  5
317
100
AcDbEntity
  8
DRAFT
100
AcDbLine
 62
7
  6
CONTINUOUS
 10
6.8439166
 20
20.546408377
 11
5.8338867534
 21
18.8043645791
  0
LINE
  5
318
100
AcDbEntity
  8
GUSCI_ESTERNI
100
AcDbLine
 62
7
  6
CONTINUOUS
 10
5.7813155675
 20
18.05312974
 11
4.3671020051
 21
15.6139721512
  0
LINE
  5
319
100
AcDbEntity
  8
DRAFT
100
AcDbLine
 62
7
  6
CONTINUOUS
 10
5.864232336
 20
18.0945881243
 11
6.007378022
 21
18.3414779121
  0
LINE
  5
31A
100
AcDbEntity
  8
RACCORDO
100
AcDbLine
 62
250
  6
CONTINUOUS
 10
4.7775377696
 20
7.1496103694
 11
3.7896911151
 21
6.6556870422
  0
LINE
  5
31B
100
AcDbEntity
  8
0
100
AcDbLine
 62
250
  6
CONTINUOUS
 10
8.1270234104
 20
7.6413219439
 11
8.4349829342
 21
7.7780713694
  0
LINE
  5
31C
100
AcDbEntity
  8
RACCORDO
100
AcDbLine
 62
7
  6
CONTINUOUS
 10
7.9733168882
 20
7.3595766128
 11
8.463280973
 21
7.577145163
  0
LINE
  5
31D
100
AcDbEntity
  8
RACCORDO
100
AcDbLine
 62
250
  6
CONTINUOUS
 10
-22.0810082626
 20
6.3328436427
 11
-10.5415339251
 21
0.5631064739
  0
LINE
  5
31E
100
AcDbEntity
  8
ASSI
100
AcDbLine
 62
250
  6
CONTINUOUS
 10
-22.0810082626
 20
6.3328436427
 11
-10.5415339251
 21
0.5631064739
  0
LINE
  5
31F
100
AcDbEntity
  8
RACCORDO
100
AcDbLine
 62
7
  6
CONTINUOUS
 10
-9.8138597827
 20
1.935319819
 11
-21.2689896379
 21
7.6628847466
  0
LINE
  5
320
100
AcDbEntity
  8
RACCORDO
100
AcDbLine
 62
250
  6
CONTINUOUS
 10
-9.8787611993
 20
2.0767477268
 11
-21.3338910545
 21
7.8043126544
  0
LWPOLYLINE
  5
321
100
AcDbEntity
  8
RACCORDO
100
AcDbPolyline
 62
7
  6
CONTINUOUS
 90
43
 70
0
 10
-9.813852064
 20
1.9353157475
 10
-9.8029809598
 20
1.9297373449
 10
-9.7829664399
 20
1.9187291831
 10
-9.7626103241
 20
1.9065623402
 10
-9.7419653388
 20
1.8932289279
 10
-9.7210928064
 20
1.8787323515
 10
-9.7000606959
 20
1.8630860926
 10
-9.6789240807
 20
1.8462993355
 10
-9.6577376645
 20
1.8283859459
 10
-9.636563235
 20
1.8093698282
 10
-9.615455919
 20
1.7892735376
 10
-9.5944674757
 20
1.7681216663
 10
-9.5736496568
 20
1.7459422561
 10
-9.5530517173
 20
1.7227639565
 10
-9.5327258501
 20
1.69862364
 10
-9.5127241559
 20
1.6735623808
 10
-9.4930909268
 20
1.647615161
 10
-9.4738765148
 20
1.6208299482
 10
-9.455137766
 20
1.5932697194
 10
-9.4369178242
 20
1.5649834569
 10
-9.4192576608
 20
1.5360224031
 10
-9.4022059795
 20
1.5064560514
 10
-9.3858010285
 20
1.4763424605
 10
-9.3700760614
 20
1.4457368884
 10
-9.3550679608
 20
1.4147068523
 10
-9.3408073698
 20
1.3833131403
 10
-9.3273218675
 20
1.3516169643
 10
-9.314640072
 20
1.319688212
 10
-9.3027841697
 20
1.287587298
 10
-9.291775752
 20
1.2553814543
 10
-9.2816382062
 20
1.2231527054
 10
-9.27238552
 20
1.1909639094
 10
-9.2640298133
 20
1.1588823726
 10
-9.256585703
 20
1.1269985706
 10
-9.2500575803
 20
1.0953764632
 10
-9.2444466233
 20
1.0640806589
 10
-9.2397553195
 20
1.033203663
 10
-9.2359770404
 20
1.002806676
 10
-9.2331015911
 20
0.9729486212
 10
-9.2311178443
 20
0.943718481
 10
-9.2300078429
 20
0.915182802
 10
-9.2297484994
 20
0.8873867581
 10
-9.2299358937
 20
0.8735091455
  0
LINE
  5
322
100
AcDbEntity
  8
RACCORDO
100
AcDbLine
 62
250
  6
CONTINUOUS
 10
-2.3919444615
 20
-28.4746555208
 11
-2.3919444615
 21
-27.8062634577
  0
LINE
  5
323
100
AcDbEntity
  8
RACCORDO
100
AcDbLine
 62
250
  6
CONTINUOUS
 10
-2.3919444615
 20
11.1565565555
 11
-2.3919444615
 21
11.8249486186
  0
LINE
  5
324
100
AcDbEntity
  8
RACCORDO
100
AcDbLine
 62
7
  6
CONTINUOUS
 10
-1.5018842787
 20
-27.4274515125
 11
-1.5018842787
 21
-28.8860913324
  0
LINE
  5
325
100
AcDbEntity
  8
RACCORDO
100
AcDbLine
 62
7
  6
CONTINUOUS
 10
-1.5018842787
 20
11.6575082592
 11
-1.5018842787
 21
13.1161480791
  0
LINE
  5
326
100
AcDbEntity
  8
RACCORDO
100
AcDbLine
 62
250
  6
CONTINUOUS
 10
-0.973617107
 20
13.3795868991
 11
-0.973617107
 21
13.0320553824
  0
LINE
  5
327
100
AcDbEntity
  8
RACCORDO
100
AcDbLine
 62
250
  6
CONTINUOUS
 10
-0.973617107
 20
-28.267548757
 11
-0.973617107
 21
-28.6150802737
  0
LINE
  5
328
100
AcDbEntity
  8
RACCORDO
100
AcDbLine
 62
7
  6
CONTINUOUS
 10
-0.90141925
 20
13.4674595313
 11
-0.90141925
 21
13.1199280146
  0
LINE
  5
329
100
AcDbEntity
  8
RACCORDO
100
AcDbLine
 62
7
  6
CONTINUOUS
 10
-0.90141925
 20
-28.1796761248
 11
-0.90141925
 21
-28.5272076416
  0
LINE
  5
32A
100
AcDbEntity
  8
ASSI
100
AcDbLine
 62
250
  6
CONTINUOUS
 10
-0.5964675909
 20
16.3675952304
 11
-0.5964675909
 21
17.5870875085
  0
LINE
  5
32B
100
AcDbEntity
  8
GUSCI_ESTERNI
100
AcDbLine
 62
7
  6
CONTINUOUS
 10
-0.476579446
 20
-16.1117805574
 11
-0.476579446
 21
-16.4746534523
  0
LINE
  5
32C
100
AcDbEntity
  8
RACCORDO
100
AcDbLine
 62
7
  6
CONTINUOUS
 10
-0.472873527
 20
16.5157588513
 11
-0.472873527
 21
17.5958886846
  0
LINE
  5
32D
100
AcDbEntity
  8
RACCORDO
100
AcDbLine
 62
7
  6
CONTINUOUS
 10
-0.4412241069
 20
-26.6740688359
 11
-0.4412241069
 21
-23.8595687119
  0
LINE
  5
32E
100
AcDbEntity
  8
RACCORDO
100
AcDbLine
 62
7
  6
CONTINUOUS
 10
-0.4412241069
 20
8.4431788492
 11
-0.4412241069
 21
11.2576789732
  0
LINE
  5
32F
100
AcDbEntity
  8
DRAFT
100
AcDbLine
 62
7
  6
CONTINUOUS
 10
-4.6140304875
 20
-6.1309673912
 11
0.4940600818
 21
2.7026939333
  0
LINE
  5
330
100
AcDbEntity
  8
DRAFT
100
AcDbLine
 62
7
  6
CONTINUOUS
 10
7.3653358236
 20
17.4594480433
 11
8.6398941468
 21
19.6577359744
  0
LINE
  5
331
100
AcDbEntity
  8
GUSCI_ESTERNI
100
AcDbLine
 62
7
  6
CONTINUOUS
 10
8.6665687205
 20
19.4957563165
 11
7.4591039346
 21
17.4131876196
  0
LINE
  5
332
100
AcDbEntity
  8
GUSCI_ESTERNI
100
AcDbLine
 62
7
  6
CONTINUOUS
 10
-4.6140304875
 20
-6.2637565516
 11
0.4073040305
 21
2.3967644059
  0
LINE
  5
333
100
AcDbEntity
  8
GUSCI_ESTERNI
100
AcDbLine
 62
7
  6
CONTINUOUS
 10
3.7896911151
 20
4.6189307076
 11
4.7002385104
 21
5.0742044053
  0
LINE
  5
334
100
AcDbEntity
  8
GUSCI_ESTERNI
100
AcDbLine
 62
250
  6
CONTINUOUS
 10
5.041813551
 20
5.1328974497
 11
3.7896911151
 21
4.5068362318
  0
LINE
  5
335
100
AcDbEntity
  8
GUSCI_ESTERNI
100
AcDbLine
 62
7
  6
CONTINUOUS
 10
0.3797314651
 20
10.0876016998
 11
0.3834237158
 21
9.4238712938
  0
LINE
  5
336
100
AcDbEntity
  8
GUSCI_ESTERNI
100
AcDbLine
 62
7
  6
CONTINUOUS
 10
0.4073040305
 20
-17.1496383777
 11
0.4073040305
 21
-16.5403620624
  0
LINE
  5
337
100
AcDbEntity
  8
GUSCI_ESTERNI
100
AcDbLine
 62
7
  6
CONTINUOUS
 10
0.4073040305
 20
2.3967644059
 11
0.4073040305
 21
2.5526626125
  0
LINE
  5
338
100
AcDbEntity
  8
GUSCI_ESTERNI
100
AcDbLine
 62
7
  6
CONTINUOUS
 10
0.4073040305
 20
9.0247561364
 11
0.4073040305
 21
9.3826838436
  0
LINE
  5
339
100
AcDbEntity
  8
DRAFT
100
AcDbLine
 62
7
  6
CONTINUOUS
 10
0.4940600818
 20
8.8751240818
 11
0.4940600818
 21
2.7026939333
  0
LINE
  5
33A
100
AcDbEntity
  8
DRAFT
100
AcDbLine
 62
7
  6
CONTINUOUS
 10
0.4940600818
 20
-17.2158903537
 11
0.4940600818
 21
-23.3883205022
  0
LINE
  5
33B
100
AcDbEntity
  8
DRAFT
100
AcDbLine
 62
7
  6
CONTINUOUS
 10
0.9633461719
 20
21.288020819
 11
0.9633461719
 21
21.778053172
  0
LINE
  5
33C
100
AcDbEntity
  8
GUSCI_ESTERNI
100
AcDbLine
 62
250
  6
CONTINUOUS
 10
1.828117488
 20
11.864664926
 11
1.828117488
 21
11.4861272057
  0
LINE
  5
33D
100
AcDbEntity
  8
0
100
AcDbLine
 62
7
  6
CONTINUOUS
 10
8.6736926517
 20
9.8369737962
 11
8.666228489
 21
9.8240676042
  0
LINE
  5
33E
100
AcDbEntity
  8
0
100
AcDbLine
 62
7
  6
CONTINUOUS
 10
8.7326869943
 20
9.8181374148
 11
8.7677309604
 21
9.8787315069
  0
LINE
  5
33F
100
AcDbEntity
  8
GUSCI_ESTERNI
100
AcDbLine
 62
7
  6
CONTINUOUS
 10
9.8235496853
 20
4.848920888
 11
3.7896911151
 21
3.8121193449
  0
LINE
  5
340
100
AcDbEntity
  8
0
100
AcDbLine
 62
7
  6
CONTINUOUS
 10
1.4608093837
 20
2.527448274
 11
1.0831058876
 21
2.6574332337
  0
LINE
  5
341
100
AcDbEntity
  8
0
100
AcDbLine
 62
7
  6
CONTINUOUS
 10
0.5778663433
 20
1.7767756454
 11
1.4608118748
 21
1.3757949561
  0
LINE
  5
342
100
AcDbEntity
  8
RACCORDO
100
AcDbLine
 62
250
  6
CONTINUOUS
 10
-22.8634070132
 20
14.1849971984
 11
-8.0385609355
 21
6.7725741596
  0
LINE
  5
343
100
AcDbEntity
  8
GUSCI_ESTERNI
100
AcDbLine
 62
7
  6
CONTINUOUS
 10
0.4073040305
 20
2.3967644059
 11
0.3378449898
 21
2.4325438259
  0
LINE
  5
344
100
AcDbEntity
  8
0
100
AcDbLine
 62
7
  6
CONTINUOUS
 10
1.6599543889
 20
1.71926405
 11
0.8960896494
 21
2.1648051844
  0
LINE
  5
345
100
AcDbEntity
  8
0
100
AcDbLine
 62
7
  6
CONTINUOUS
 10
0.4618277849
 20
1.4288340253
 11
0.7196333832
 21
1.2491006209
  0
LINE
  5
346
100
AcDbEntity
  8
GUSCI_ESTERNI
100
AcDbLine
 62
7
  6
CONTINUOUS
 10
3.7896911151
 20
3.8121193449
 11
3.7896911151
 21
4.9177444993
  0
LINE
  5
347
100
AcDbEntity
  8
GUSCI_ESTERNI
100
AcDbLine
 62
7
  6
CONTINUOUS
 10
3.7896911151
 20
5.8742429309
 11
3.7896911151
 21
6.9798680853
  0
LINE
  5
348
100
AcDbEntity
  8
GUSCI_ESTERNI
100
AcDbLine
 62
7
  6
CONTINUOUS
 10
3.7896911151
 20
7.9363665168
 11
3.7896911151
 21
9.0419916713
  0
LINE
  5
349
100
AcDbEntity
  8
DRAFT
100
AcDbLine
 62
7
  6
CONTINUOUS
 10
3.8457743234
 20
14.5831830112
 11
3.8457743234
 21
14.7673743962
  0
LINE
  5
34A
100
AcDbEntity
  8
GUSCI_ESTERNI
100
AcDbLine
 62
250
  6
CONTINUOUS
 10
3.9494378316
 20
12.9253250978
 11
3.9494378316
 21
12.5467873775
  0
LINE
  5
34B
100
AcDbEntity
  8
DRAFT
100
AcDbLine
 62
7
  6
CONTINUOUS
 10
4.056102117
 20
20.2244978411
 11
4.056102117
 21
19.7441783752
  0
LINE
  5
34C
100
AcDbEntity
  8
RACCORDO
100
AcDbLine
 62
250
  6
CONTINUOUS
 10
4.114488652
 20
15.4143160505
 11
4.114488652
 21
14.9094284044
  0
LINE
  5
34D
100
AcDbEntity
  8
RACCORDO
100
AcDbLine
 62
250
  6
CONTINUOUS
 10
4.114488652
 20
-21.7452930513
 11
4.114488652
 21
-21.9390491147
  0
LINE
  5
34E
100
AcDbEntity
  8
RACCORDO
100
AcDbLine
 62
7
  6
CONTINUOUS
 10
4.2548187518
 20
15.7147955642
 11
4.2548187518
 21
15.085692478
  0
LINE
  5
34F
100
AcDbEntity
  8
RACCORDO
100
AcDbLine
 62
7
  6
CONTINUOUS
 10
4.2548187518
 20
-21.6751280014
 11
4.2548187518
 21
-21.8921994431
  0
LINE
  5
350
100
AcDbEntity
  8
DRAFT
100
AcDbLine
 62
7
  6
CONTINUOUS
 10
5.1352761809
 20
19.6920881675
 11
5.1352761809
 21
19.1736803222
  0
LINE
  5
351
100
AcDbEntity
  8
RACCORDO
100
AcDbLine
 62
7
  6
CONTINUOUS
 10
5.2846394027
 20
9.2988695337
 11
5.2740216138
 21
9.0431404725
  0
LINE
  5
352
100
AcDbEntity
  8
RACCORDO
100
AcDbLine
 62
250
  6
CONTINUOUS
 10
4.24055621
 20
8.9221502548
 11
4.2567258202
 21
9.1222425253
  0
LINE
  5
353
100
AcDbEntity
  8
RACCORDO
100
AcDbLine
 62
250
  6
CONTINUOUS
 10
-21.663919305
 20
-15.5735868975
 11
-21.7432701502
 21
-15.6132623201
  0
LINE
  5
354
100
AcDbEntity
  8
GUSCI_ESTERNI
100
AcDbLine
 62
7
  6
CONTINUOUS
 10
9.1400727781
 20
5.1976491093
 11
3.7896911151
 21
4.2782898137
  0
LINE
  5
355
100
AcDbEntity
  8
GUSCI_ESTERNI
100
AcDbLine
 62
7
  6
CONTINUOUS
 10
3.7896911151
 20
4.9177444993
 11
9.8235496853
 21
5.9545460424
  0
LINE
  5
356
100
AcDbEntity
  8
GUSCI_ESTERNI
100
AcDbLine
 62
7
  6
CONTINUOUS
 10
9.8235496853
 20
6.911044474
 11
3.7896911151
 21
5.8742429309
  0
LINE
  5
357
100
AcDbEntity
  8
GUSCI_ESTERNI
100
AcDbLine
 62
7
  6
CONTINUOUS
 10
9.1400727781
 20
7.2597726953
 11
3.7896911151
 21
6.3404133997
  0
LINE
  5
358
100
AcDbEntity
  8
RACCORDO
100
AcDbLine
 62
250
  6
CONTINUOUS
 10
-21.8708410031
 20
15.9368013543
 11
-7.0226225424
 21
8.5126921239
  0
LINE
  5
359
100
AcDbEntity
  8
DRAFT
100
AcDbLine
 62
7
  6
CONTINUOUS
 10
-0.4412241069
 20
10.4882506897
 11
0.4940600818
 21
8.8751240818
  0
LINE
  5
35A
100
AcDbEntity
  8
GUSCI_ESTERNI
100
AcDbLine
 62
7
  6
CONTINUOUS
 10
0.3834237158
 20
9.4238712938
 11
0.4073040305
 21
9.3826838436
  0
LINE
  5
35B
100
AcDbEntity
  8
GUSCI_ESTERNI
100
AcDbLine
 62
7
  6
CONTINUOUS
 10
7.8574559527
 20
17.0004270701
 11
7.8750633457
 21
13.8352676401
  0
LINE
  5
35C
100
AcDbEntity
  8
GUSCI_ESTERNI
100
AcDbLine
 62
250
  6
CONTINUOUS
 10
6.0707581751
 20
13.9859852696
 11
6.0707581751
 21
13.6074475492
  0
LINE
  5
35D
100
AcDbEntity
  8
GUSCI_ESTERNI
100
AcDbLine
 62
7
  6
CONTINUOUS
 10
6.2645648493
 20
10.4237491434
 11
6.2645648493
 21
11.5293742979
  0
LINE
  5
35E
100
AcDbEntity
  8
DRAFT
100
AcDbLine
 62
7
  6
CONTINUOUS
 10
6.3682141959
 20
18.521895999
 11
6.3682141959
 21
17.9513772121
  0
LINE
  5
35F
100
AcDbEntity
  8
RACCORDO
100
AcDbLine
 62
7
  6
CONTINUOUS
 10
8.2077254749
 20
9.585028254
 11
8.1900223256
 21
9.1586485412
  0
LINE
  5
360
100
AcDbEntity
  8
RACCORDO
100
AcDbLine
 62
7
  6
CONTINUOUS
 10
8.1305291223
 20
7.725756888
 11
8.1270234104
 21
7.6413219439
  0
LINE
  5
361
100
AcDbEntity
  8
0
100
AcDbLine
 62
7
  6
CONTINUOUS
 10
8.7380866564
 20
26.434791592
 11
8.710887555
 21
26.1491680383
  0
LINE
  5
362
100
AcDbEntity
  8
GUSCI_ESTERNI
100
AcDbLine
 62
7
  6
CONTINUOUS
 10
8.4958455285
 20
5.3922099424
 11
8.5417891543
 21
5.7343003603
  0
LINE
  5
363
100
AcDbEntity
  8
GUSCI_ESTERNI
100
AcDbLine
 62
7
  6
CONTINUOUS
 10
8.7373707524
 20
7.1905761642
 11
8.8252798712
 21
7.8451363265
  0
LINE
  5
364
100
AcDbEntity
  8
RACCORDO
100
AcDbLine
 62
250
  6
CONTINUOUS
 10
8.1852311109
 20
11.4377501202
 11
8.278255352
 21
11.8753879467
  0
LINE
  5
365
100
AcDbEntity
  8
RACCORDO
100
AcDbLine
 62
250
  6
CONTINUOUS
 10
-20.8412547442
 20
-16.4207603651
 11
-21.1571862391
 21
-16.5787261126
  0
LINE
  5
366
100
AcDbEntity
  8
RACCORDO
100
AcDbLine
 62
7
  6
CONTINUOUS
 10
5.112617495
 20
9.1698544095
 11
4.24055621
 21
8.9221502548
  0
LINE
  5
367
100
AcDbEntity
  8
GUSCI_ESTERNI
100
AcDbLine
 62
7
  6
CONTINUOUS
 10
3.7896911151
 20
6.9798680853
 11
9.8235496853
 21
8.0166696284
  0
LINE
  5
368
100
AcDbEntity
  8
GUSCI_ESTERNI
100
AcDbLine
 62
7
  6
CONTINUOUS
 10
9.8235496853
 20
8.97316806
 11
3.7896911151
 21
7.9363665168
  0
LINE
  5
369
100
AcDbEntity
  8
GUSCI_ESTERNI
100
AcDbLine
 62
7
  6
CONTINUOUS
 10
9.1400727781
 20
9.3218962812
 11
3.7896911151
 21
8.4025369857
  0
LINE
  5
36A
100
AcDbEntity
  8
GUSCI_ESTERNI
100
AcDbLine
 62
7
  6
CONTINUOUS
 10
3.7896911151
 20
9.0419916713
 11
9.8235496853
 21
10.0787932144
  0
LINE
  5
36B
100
AcDbEntity
  8
GUSCI_ESTERNI
100
AcDbLine
 62
7
  6
CONTINUOUS
 10
8.9586235971
 20
5.1664705875
 11
8.4958455285
 21
5.3922099424
  0
LINE
  5
36C
100
AcDbEntity
  8
GUSCI_ESTERNI
100
AcDbLine
 62
250
  6
CONTINUOUS
 10
5.6280337374
 20
6.6562969169
 11
5.5041759992
 21
6.7179807229
  0
LINE
  5
36D
100
AcDbEntity
  8
RACCORDO
100
AcDbLine
 62
250
  6
CONTINUOUS
 10
-17.5760168535
 20
18.2797016723
 11
-16.2428045199
 21
17.6130955055
  0
LINE
  5
36E
100
AcDbEntity
  8
RACCORDO
100
AcDbLine
 62
250
  6
CONTINUOUS
 10
-4.2116986891
 20
11.5975425901
 11
-2.8784863554
 21
10.9309364232
  0
LINE
  5
36F
100
AcDbEntity
  8
GUSCI_ESTERNI
100
AcDbLine
 62
7
  6
CONTINUOUS
 10
0.3834237158
 20
9.4238712938
 11
0.087525088
 21
9.5762932275
  0
LINE
  5
370
100
AcDbEntity
  8
0
100
AcDbLine
 62
7
  6
CONTINUOUS
 10
8.2624564772
 20
26.5041723049
 11
8.2749420912
 21
26.1632008115
  0
LINE
  5
371
100
AcDbEntity
  8
GUSCI_ESTERNI
100
AcDbLine
 62
7
  6
CONTINUOUS
 10
8.3717030012
 20
17.5616622809
 11
8.3717030012
 21
16.6090872155
  0
LINE
  5
372
100
AcDbEntity
  8
0
100
AcDbLine
 62
7
  6
CONTINUOUS
 10
8.6804533704
 20
26.1489578484
 11
8.6804533704
 21
26.4219645381
  0
LINE
  5
373
100
AcDbEntity
  8
GUSCI_ESTERNI
100
AcDbLine
 62
7
  6
CONTINUOUS
 10
9.1400727781
 20
12.0234745528
 11
9.1400727781
 21
11.3840198672
  0
LINE
  5
374
100
AcDbEntity
  8
GUSCI_ESTERNI
100
AcDbLine
 62
7
  6
CONTINUOUS
 10
9.1400727781
 20
9.9613509668
 11
9.1400727781
 21
9.3218962812
  0
LINE
  5
375
100
AcDbEntity
  8
GUSCI_ESTERNI
100
AcDbLine
 62
7
  6
CONTINUOUS
 10
9.1400727781
 20
7.8992273808
 11
9.1400727781
 21
7.2597726953
  0
LINE
  5
376
100
AcDbEntity
  8
GUSCI_ESTERNI
100
AcDbLine
 62
7
  6
CONTINUOUS
 10
9.1400727781
 20
5.8371037949
 11
9.1400727781
 21
5.1976491093
  0
LINE
  5
377
100
AcDbEntity
  8
GUSCI_ESTERNI
100
AcDbLine
 62
7
  6
CONTINUOUS
 10
9.8235496853
 20
12.1409168004
 11
9.8235496853
 21
11.0352916459
  0
LINE
  5
378
100
AcDbEntity
  8
GUSCI_ESTERNI
100
AcDbLine
 62
7
  6
CONTINUOUS
 10
9.8235496853
 20
10.0787932144
 11
9.8235496853
 21
8.97316806
  0
LINE
  5
379
100
AcDbEntity
  8
GUSCI_ESTERNI
100
AcDbLine
 62
7
  6
CONTINUOUS
 10
9.8235496853
 20
8.0166696284
 11
9.8235496853
 21
6.911044474
  0
LINE
  5
37A
100
AcDbEntity
  8
GUSCI_ESTERNI
100
AcDbLine
 62
7
  6
CONTINUOUS
 10
9.8235496853
 20
5.9545460424
 11
9.8235496853
 21
4.848920888
  0
LINE
  5
37B
100
AcDbEntity
  8
GUSCI_ESTERNI
100
AcDbLine
 62
7
  6
CONTINUOUS
 10
10.4482203233
 20
27.3146231694
 11
10.4482203233
 21
28.1806485732
  0
LINE
  5
37C
100
AcDbEntity
  8
DRAFT
100
AcDbLine
 62
7
  6
CONTINUOUS
 10
10.4482203233
 20
27.4386362714
 11
10.4482203233
 21
28.2693629776
  0
LINE
  5
37D
100
AcDbEntity
  8
0
100
AcDbLine
 62
7
  6
CONTINUOUS
 10
8.6661918685
 20
9.7886102545
 11
8.666228489
 21
9.8240676042
  0
LINE
  5
37E
100
AcDbEntity
  8
0
100
AcDbLine
 62
7
  6
CONTINUOUS
 10
8.6626921251
 20
9.7870561934
 11
8.6464995729
 21
9.3970591591
  0
LINE
  5
37F
100
AcDbEntity
  8
0
100
AcDbLine
 62
7
  6
CONTINUOUS
 10
8.6661918685
 20
9.7886102545
 11
8.6500752888
 21
9.4004430145
  0
LINE
  5
380
100
AcDbEntity
  8
0
100
AcDbLine
 62
7
  6
CONTINUOUS
 10
8.6796628697
 20
9.3684246264
 11
8.6744088173
 21
9.2418809631
  0
LINE
  5
381
100
AcDbEntity
  8
0
100
AcDbLine
 62
7
  6
CONTINUOUS
 10
8.6778687208
 20
9.2424754804
 11
8.6832385856
 21
9.3718084818
  0
LINE
  5
382
100
AcDbEntity
  8
0
100
AcDbLine
 62
7
  6
CONTINUOUS
 10
8.7326869943
 20
9.8181374148
 11
8.7180138917
 21
9.4647362675
  0
LINE
  5
383
100
AcDbEntity
  8
0
100
AcDbLine
 62
7
  6
CONTINUOUS
 10
8.7436068875
 20
9.2537713091
 11
8.7511771885
 21
9.4361017349
  0
LINE
  5
384
100
AcDbEntity
  8
GUSCI_ESTERNI
100
AcDbLine
 62
7
  6
CONTINUOUS
 10
7.8750633457
 20
-19.8650057044
 11
7.8574559527
 21
-20.1944447887
  0
LINE
  5
385
100
AcDbEntity
  8
GUSCI_ESTERNI
100
AcDbLine
 62
7
  6
CONTINUOUS
 10
9.8235496853
 20
11.0352916459
 11
6.2645648493
 21
10.4237491434
  0
LINE
  5
386
100
AcDbEntity
  8
GUSCI_ESTERNI
100
AcDbLine
 62
7
  6
CONTINUOUS
 10
9.1400727781
 20
11.3840198672
 11
6.2645648493
 21
10.8899196123
  0
LINE
  5
387
100
AcDbEntity
  8
GUSCI_ESTERNI
100
AcDbLine
 62
7
  6
CONTINUOUS
 10
6.2645648493
 20
11.5293742979
 11
9.8235496853
 21
12.1409168004
  0
LINE
  5
388
100
AcDbEntity
  8
RACCORDO
100
AcDbLine
 62
7
  6
CONTINUOUS
 10
-3.3300085631
 20
11.8176309807
 11
-2.7056024787
 21
11.6872544109
  0
LINE
  5
389
100
AcDbEntity
  8
RACCORDO
100
AcDbLine
 62
250
  6
CONTINUOUS
 10
-3.1031650696
 20
11.9734521415
 11
-2.3919444615
 21
11.8249486186
  0
LINE
  5
38A
100
AcDbEntity
  8
GUSCI_ESTERNI
100
AcDbLine
 62
7
  6
CONTINUOUS
 10
7.3325470051
 20
6.9491844558
 11
6.3619622265
 21
7.4218629757
  0
LINE
  5
38B
100
AcDbEntity
  8
GUSCI_ESTERNI
100
AcDbLine
 62
7
  6
CONTINUOUS
 10
7.5406736423
 20
6.9849469809
 11
6.5700888636
 21
7.4576255008
  0
LINE
  5
38C
100
AcDbEntity
  8
RACCORDO
100
AcDbLine
 62
7
  6
CONTINUOUS
 10
7.3209125212
 20
7.586639981
 11
7.7520568076
 21
7.3747978259
  0
LINE
  5
38D
100
AcDbEntity
  8
0
100
AcDbLine
 62
7
  6
CONTINUOUS
 10
7.939903508
 20
7.3485761244
 11
8.3847745496
 21
7.1299893469
  0
LINE
  5
38E
100
AcDbEntity
  8
0
100
AcDbLine
 62
250
  6
CONTINUOUS
 10
8.7831631678
 20
7.5315406883
 11
8.5752511274
 21
7.6336979848
  0
LINE
  5
38F
100
AcDbEntity
  8
0
100
AcDbLine
 62
250
  6
CONTINUOUS
 10
5.282672713
 20
9.251501883
 11
5.2117571733
 21
9.2863461364
  0
LINE
  5
390
100
AcDbEntity
  8
GUSCI_ESTERNI
100
AcDbLine
 62
7
  6
CONTINUOUS
 10
-0.4269592861
 20
12.2194060081
 11
1.0652445147
 21
11.4832284394
  0
LINE
  5
391
100
AcDbEntity
  8
GUSCI_ESTERNI
100
AcDbLine
 62
250
  6
CONTINUOUS
 10
6.801183352
 20
6.85787992
 11
5.8465625236
 21
7.3333015351
  0
LINE
  5
392
100
AcDbEntity
  8
RACCORDO
100
AcDbLine
 62
250
  6
CONTINUOUS
 10
-17.4419969192
 20
18.5196793487
 11
-16.1087845855
 21
17.8530731818
  0
LINE
  5
393
100
AcDbEntity
  8
RACCORDO
100
AcDbLine
 62
250
  6
CONTINUOUS
 10
-4.0776787547
 20
11.8375202664
 11
-2.7444664211
 21
11.1709140996
  0
LINE
  5
394
100
AcDbEntity
  8
RACCORDO
100
AcDbLine
 62
7
  6
CONTINUOUS
 10
-6.9840247297
 20
13.5025743942
 11
-12.4953318294
 21
16.2582279441
  0
LINE
  5
395
100
AcDbEntity
  8
RACCORDO
100
AcDbLine
 62
7
  6
CONTINUOUS
 10
-18.080016577
 20
19.1833978373
 11
-16.7550318972
 21
18.5209054974
  0
LINE
  5
396
100
AcDbEntity
  8
RACCORDO
100
AcDbLine
 62
7
  6
CONTINUOUS
 10
-4.7156984126
 20
12.5012387551
 11
-3.3907137328
 21
11.8387464152
  0
LINE
  5
397
100
AcDbEntity
  8
RACCORDO
100
AcDbLine
 62
250
  6
CONTINUOUS
 10
-18.1449898735
 20
19.3186162874
 11
-16.8200051936
 21
18.6561239475
  0
LINE
  5
398
100
AcDbEntity
  8
RACCORDO
100
AcDbLine
 62
250
  6
CONTINUOUS
 10
-4.780671709
 20
12.6364572052
 11
-3.4556870292
 21
11.9739648653
  0
LINE
  5
399
100
AcDbEntity
  8
RACCORDO
100
AcDbLine
 62
250
  6
CONTINUOUS
 10
-3.4556870292
 20
12.3139387994
 11
-4.780671709
 21
12.9764311394
  0
LINE
  5
39A
100
AcDbEntity
  8
RACCORDO
100
AcDbLine
 62
250
  6
CONTINUOUS
 10
-16.8200051936
 20
18.9960978817
 11
-18.1449898735
 21
19.6585902216
  0
LINE
  5
39B
100
AcDbEntity
  8
RACCORDO
100
AcDbLine
 62
7
  6
CONTINUOUS
 10
-4.7671682989
 20
13.2540565708
 11
-5.8209506022
 21
13.7809477225
  0
LINE
  5
39C
100
AcDbEntity
  8
RACCORDO
100
AcDbLine
 62
7
  6
CONTINUOUS
 10
-12.6417784388
 20
17.1913616407
 11
-14.6232962112
 21
18.1821205269
  0
LINE
  5
39D
100
AcDbEntity
  8
RACCORDO
100
AcDbLine
 62
250
  6
CONTINUOUS
 10
-3.2799387732
 20
12.6183156144
 11
-4.6049234531
 21
13.2808079543
  0
LINE
  5
39E
100
AcDbEntity
  8
RACCORDO
100
AcDbLine
 62
250
  6
CONTINUOUS
 10
-16.6442569377
 20
19.3004746966
 11
-17.9692416175
 21
19.9629670365
  0
LINE
  5
39F
100
AcDbEntity
  8
RACCORDO
100
AcDbLine
 62
250
  6
CONTINUOUS
 10
-6.9840247297
 20
14.583157705
 11
-12.4953318294
 21
17.3388112549
  0
LINE
  5
3A0
100
AcDbEntity
  8
RACCORDO
100
AcDbLine
 62
250
  6
CONTINUOUS
 10
-6.5612023499
 20
14.6855472695
 11
-12.6369569996
 21
17.7234245943
  0
LINE
  5
3A1
100
AcDbEntity
  8
RACCORDO
100
AcDbLine
 62
7
  6
CONTINUOUS
 10
-14.8662024432
 20
18.9032632815
 11
-13.4519888808
 21
18.1961565003
  0
LINE
  5
3A2
100
AcDbEntity
  8
RACCORDO
100
AcDbLine
 62
7
  6
CONTINUOUS
 10
-1.5018842787
 20
12.2211041993
 11
-0.7948852077
 21
11.8676046638
  0
LINE
  5
3A3
100
AcDbEntity
  8
DRAFT
100
AcDbLine
 62
7
  6
CONTINUOUS
 10
-12.1438413356
 20
18.0474115118
 11
-5.9213016611
 21
14.9361416746
  0
LINE
  5
3A4
100
AcDbEntity
  8
GUSCI_ESTERNI
100
AcDbLine
 62
7
  6
CONTINUOUS
 10
0.3797314651
 20
10.0876016998
 11
-0.4412241069
 21
10.5038655174
  0
LINE
  5
3A5
100
AcDbEntity
  8
GUSCI_ESTERNI
100
AcDbLine
 62
7
  6
CONTINUOUS
 10
9.8235496853
 20
4.848920888
 11
9.1400727781
 21
5.1976491093
  0
LINE
  5
3A6
100
AcDbEntity
  8
GUSCI_ESTERNI
100
AcDbLine
 62
7
  6
CONTINUOUS
 10
9.8235496853
 20
6.911044474
 11
9.1400727781
 21
7.2597726953
  0
LINE
  5
3A7
100
AcDbEntity
  8
GUSCI_ESTERNI
100
AcDbLine
 62
7
  6
CONTINUOUS
 10
10.9785504092
 20
26.9112958859
 11
10.9785504092
 21
27.0398538879
  0
LINE
  5
3A8
100
AcDbEntity
  8
RACCORDO
100
AcDbLine
 62
7
  6
CONTINUOUS
 10
11.0090960048
 20
27.0019515682
 11
11.0090960048
 21
26.9484000844
  0
LINE
  5
3A9
100
AcDbEntity
  8
GUSCI_ESTERNI
100
AcDbLine
 62
7
  6
CONTINUOUS
 10
11.2459660532
 20
14.802014855
 11
11.2459660532
 21
14.109194532
  0
LINE
  5
3AA
100
AcDbEntity
  8
GUSCI_ESTERNI
100
AcDbLine
 62
7
  6
CONTINUOUS
 10
11.3674591389
 20
30.0626881388
 11
11.3674591389
 21
30.4842834371
  0
LINE
  5
3AB
100
AcDbEntity
  8
GUSCI_ESTERNI
100
AcDbLine
 62
7
  6
CONTINUOUS
 10
12.306626225
 20
-17.5766204029
 11
12.306626225
 21
-16.7105949991
  0
LINE
  5
3AC
100
AcDbEntity
  8
GUSCI_ESTERNI
100
AcDbLine
 62
7
  6
CONTINUOUS
 10
12.5341853278
 20
17.1850832885
 11
12.5341853278
 21
19.357037656
  0
LINE
  5
3AD
100
AcDbEntity
  8
DRAFT
100
AcDbLine
 62
7
  6
CONTINUOUS
 10
12.5695406669
 20
29.3300231494
 11
12.5695406669
 21
29.3787702448
  0
LINE
  5
3AE
100
AcDbEntity
  8
0
100
AcDbLine
 62
7
  6
CONTINUOUS
 10
8.6500752888
 20
9.4004430145
 11
8.6467087491
 21
9.4020971592
  0
LINE
  5
3AF
100
AcDbEntity
  8
RACCORDO
100
AcDbLine
 62
7
  6
CONTINUOUS
 10
6.2645648493
 20
10.9905610135
 11
6.4163208096
 21
10.9159959301
  0
LINE
  5
3B0
100
AcDbEntity
  8
0
100
AcDbLine
 62
7
  6
CONTINUOUS
 10
8.666228489
 20
9.8240676042
 11
8.6635424211
 21
9.8253874
  0
LINE
  5
3B1
100
AcDbEntity
  8
0
100
AcDbLine
 62
7
  6
CONTINUOUS
 10
6.2645648493
 20
11.4488727462
 11
7.1074035672
 21
11.0347450955
  0
LINE
  5
3B2
100
AcDbEntity
  8
0
100
AcDbLine
 62
7
  6
CONTINUOUS
 10
6.2645648493
 20
11.4521464014
 11
7.1123398726
 21
11.0355933039
  0
LINE
  5
3B3
100
AcDbEntity
  8
0
100
AcDbLine
 62
7
  6
CONTINUOUS
 10
6.2896492352
 20
11.5020206722
 11
7.2061296754
 21
11.051709262
  0
LINE
  5
3B4
100
AcDbEntity
  8
0
100
AcDbLine
 62
250
  6
CONTINUOUS
 10
6.2896492352
 20
11.5020206722
 11
6.2586166721
 21
11.5172684796
  0
LINE
  5
3B5
100
AcDbEntity
  8
0
100
AcDbLine
 62
250
  6
CONTINUOUS
 10
8.0547586567
 20
11.1975296897
 11
7.0905326158
 21
11.6713008354
  0
LINE
  5
3B6
100
AcDbEntity
  8
GUSCI_ESTERNI
100
AcDbLine
 62
7
  6
CONTINUOUS
 10
1.6651382444
 20
13.2944832316
 11
3.1865648583
 21
12.5438886112
  0
LINE
  5
3B7
100
AcDbEntity
  8
RACCORDO
100
AcDbLine
 62
7
  6
CONTINUOUS
 10
-16.3864850143
 20
20.7749511339
 11
-15.0429761468
 21
20.1031967001
  0
LINE
  5
3B8
100
AcDbEntity
  8
RACCORDO
100
AcDbLine
 62
7
  6
CONTINUOUS
 10
-3.0221668499
 20
14.0927920517
 11
-1.6786579824
 21
13.4210376179
  0
LINE
  5
3B9
100
AcDbEntity
  8
DRAFT
100
AcDbLine
 62
7
  6
CONTINUOUS
 10
-5.850590983
 20
15.6028547283
 11
-10.8003384513
 21
18.0777284625
  0
LINE
  5
3BA
100
AcDbEntity
  8
RACCORDO
100
AcDbLine
 62
250
  6
CONTINUOUS
 10
-15.8520351356
 20
21.0352986004
 11
-14.5147089751
 21
20.3666355202
  0
LINE
  5
3BB
100
AcDbEntity
  8
RACCORDO
100
AcDbLine
 62
250
  6
CONTINUOUS
 10
-2.4877169712
 20
14.3531395182
 11
-1.1503908107
 21
13.6844764379
  0
LINE
  5
3BC
100
AcDbEntity
  8
RACCORDO
100
AcDbLine
 62
7
  6
CONTINUOUS
 10
-15.7412601761
 20
21.0418884915
 11
-14.4039340155
 21
20.3732254113
  0
LINE
  5
3BD
100
AcDbEntity
  8
RACCORDO
100
AcDbLine
 62
7
  6
CONTINUOUS
 10
-2.3769420117
 20
14.3597294093
 11
-1.0396158511
 21
13.6910663291
  0
LINE
  5
3BE
100
AcDbEntity
  8
GUSCI_ESTERNI
100
AcDbLine
 62
7
  6
CONTINUOUS
 10
9.8235496853
 20
8.97316806
 11
9.1400727781
 21
9.3218962812
  0
LINE
  5
3BF
100
AcDbEntity
  8
GUSCI_ESTERNI
100
AcDbLine
 62
7
  6
CONTINUOUS
 10
1.828117488
 20
11.864664926
 11
0.376278219
 21
12.6321699133
  0
LINE
  5
3C0
100
AcDbEntity
  8
GUSCI_ESTERNI
100
AcDbLine
 62
7
  6
CONTINUOUS
 10
3.9494378316
 20
12.9253250978
 11
2.4693650751
 21
13.7077555268
  0
LINE
  5
3C1
100
AcDbEntity
  8
0
100
AcDbLine
 62
7
  6
CONTINUOUS
 10
8.6464995729
 20
9.3970591591
 11
8.6796628697
 21
9.3684246264
  0
LINE
  5
3C2
100
AcDbEntity
  8
0
100
AcDbLine
 62
7
  6
CONTINUOUS
 10
8.6500752888
 20
9.4004430145
 11
8.6832385856
 21
9.3718084818
  0
LINE
  5
3C3
100
AcDbEntity
  8
0
100
AcDbLine
 62
7
  6
CONTINUOUS
 10
8.7180138917
 20
9.4647362675
 11
8.7511771885
 21
9.4361017349
  0
LINE
  5
3C4
100
AcDbEntity
  8
GUSCI_ESTERNI
100
AcDbLine
 62
7
  6
CONTINUOUS
 10
13.5948454996
 20
-17.3078900234
 11
13.5948454996
 21
-16.2791129274
  0
LINE
  5
3C5
100
AcDbEntity
  8
GUSCI_ESTERNI
100
AcDbLine
 62
7
  6
CONTINUOUS
 10
14.3173793493
 20
16.337721503
 11
14.3173793493
 21
15.64490118
  0
LINE
  5
3C6
100
AcDbEntity
  8
DRAFT
100
AcDbLine
 62
7
  6
CONTINUOUS
 10
14.6201503323
 20
22.4725471224
 11
14.6201503323
 21
22.6478640672
  0
LINE
  5
3C7
100
AcDbEntity
  8
GUSCI_ESTERNI
100
AcDbLine
 62
7
  6
CONTINUOUS
 10
15.3780395211
 20
-16.0409137549
 11
15.3780395211
 21
-15.1748883511
  0
LINE
  5
3C8
100
AcDbEntity
  8
0
100
AcDbLine
 62
7
  6
CONTINUOUS
 10
17.1188635223
 20
22.1459873084
 11
17.1215506258
 21
22.2046031031
  0
LINE
  5
3C9
100
AcDbEntity
  8
0
100
AcDbLine
 62
7
  6
CONTINUOUS
 10
16.4388748455
 20
22.5812965446
 11
16.3929124178
 21
22.0941661267
  0
LINE
  5
3CA
100
AcDbEntity
  8
RACCORDO
100
AcDbLine
 62
250
  6
CONTINUOUS
 10
-9.386124889
 20
-22.1483252927
 11
-9.7020563839
 21
-22.3062910402
  0
LINE
  5
3CB
100
AcDbEntity
  8
RACCORDO
100
AcDbLine
 62
7
  6
CONTINUOUS
 10
-9.3492821493
 20
-22.3315106201
 11
-9.3490228031
 21
-22.3313811177
  0
LINE
  5
3CC
100
AcDbEntity
  8
RACCORDO
100
AcDbLine
 62
7
  6
CONTINUOUS
 10
-16.6943267275
 20
18.4997900629
 11
-16.0699206431
 21
18.3694134931
  0
LINE
  5
3CD
100
AcDbEntity
  8
RACCORDO
100
AcDbLine
 62
250
  6
CONTINUOUS
 10
-16.467483234
 20
18.6556112237
 11
-15.7562626259
 21
18.5071077008
  0
LINE
  5
3CE
100
AcDbEntity
  8
DRAFT
100
AcDbLine
 62
7
  6
CONTINUOUS
 10
0.2285724741
 20
17.7163194707
 11
-3.2910761506
 21
19.4511575822
  0
LINE
  5
3CF
100
AcDbEntity
  8
GUSCI_ESTERNI
100
AcDbLine
 62
7
  6
CONTINUOUS
 10
3.75587127
 20
14.3702336326
 11
5.3078852018
 21
13.6045487829
  0
LINE
  5
3D0
100
AcDbEntity
  8
GUSCI_ESTERNI
100
AcDbLine
 62
7
  6
CONTINUOUS
 10
-3.3972392744
 20
19.4958996298
 11
-3.3403619098
 21
19.4677041087
  0
LINE
  5
3D1
100
AcDbEntity
  8
0
100
AcDbLine
 62
7
  6
CONTINUOUS
 10
-1.925099542
 20
17.5376299201
 11
-4.735649189
 21
18.9429047435
  0
LINE
  5
3D2
100
AcDbEntity
  8
ASSI
100
AcDbLine
 62
250
  6
CONTINUOUS
 10
-0.646809592
 20
17.5664508085
 11
-1.2523400267
 21
17.8692160259
  0
LINE
  5
3D3
100
AcDbEntity
  8
ASSI
100
AcDbLine
 62
250
  6
CONTINUOUS
 10
-6.202087495
 20
20.34408976
 11
-6.8076179296
 21
20.6468549773
  0
LINE
  5
3D4
100
AcDbEntity
  8
0
100
AcDbLine
 62
7
  6
CONTINUOUS
 10
-0.2822174674
 20
17.4699030402
 11
-0.472873527
 21
17.56523107
  0
LINE
  5
3D5
100
AcDbEntity
  8
0
100
AcDbLine
 62
7
  6
CONTINUOUS
 10
-1.139854926
 20
17.8987217695
 11
-3.3757172489
 21
19.0166529309
  0
LINE
  5
3D6
100
AcDbEntity
  8
ASSI
100
AcDbLine
 62
7
  6
CONTINUOUS
 10
-0.4799924641
 20
17.6069969863
 11
-0.9763807791
 21
17.8551911438
  0
LINE
  5
3D7
100
AcDbEntity
  8
ASSI
100
AcDbLine
 62
7
  6
CONTINUOUS
 10
-6.0349493321
 20
20.3844754204
 11
-6.5313373395
 21
20.6326694241
  0
LINE
  5
3D8
100
AcDbEntity
  8
RACCORDO
100
AcDbLine
 62
250
  6
CONTINUOUS
 10
-7.1374485542
 20
21.3409328049
 11
-4.0766534376
 21
19.8105352466
  0
LINE
  5
3D9
100
AcDbEntity
  8
RACCORDO
100
AcDbLine
 62
250
  6
CONTINUOUS
 10
0.1659872495
 20
17.689214903
 11
3.226782366
 21
16.1588173448
  0
LINE
  5
3DA
100
AcDbEntity
  8
GUSCI_ESTERNI
100
AcDbLine
 62
7
  6
CONTINUOUS
 10
-3.4293935518
 20
19.5988224701
 11
-3.3403619098
 21
19.5543066491
  0
LINE
  5
3DB
100
AcDbEntity
  8
RACCORDO
100
AcDbLine
 62
7
  6
CONTINUOUS
 10
-6.8563457741
 20
21.446252383
 11
-3.6356104346
 21
19.8358847132
  0
LINE
  5
3DC
100
AcDbEntity
  8
RACCORDO
100
AcDbLine
 62
7
  6
CONTINUOUS
 10
0.6070302526
 20
17.7145643696
 11
3.8277655921
 21
16.1041966999
  0
LINE
  5
3DD
100
AcDbEntity
  8
GUSCI_ESTERNI
100
AcDbLine
 62
7
  6
CONTINUOUS
 10
7.8750633457
 20
13.8352676401
 11
4.3671020051
 21
15.6139721512
  0
LINE
  5
3DE
100
AcDbEntity
  8
DRAFT
100
AcDbLine
 62
7
  6
CONTINUOUS
 10
4.3705077616
 20
15.6206889848
 11
4.2548187518
 21
15.6793488569
  0
LINE
  5
3DF
100
AcDbEntity
  8
GUSCI_ESTERNI
100
AcDbLine
 62
7
  6
CONTINUOUS
 10
9.8235496853
 20
11.0352916459
 11
9.1400727781
 21
11.3840198672
  0
LINE
  5
3E0
100
AcDbEntity
  8
GUSCI_ESTERNI
100
AcDbLine
 62
7
  6
CONTINUOUS
 10
6.0707581751
 20
13.9859852696
 11
4.1970798554
 21
14.9764926113
  0
LINE
  5
3E1
100
AcDbEntity
  8
GUSCI_ESTERNI
100
AcDbLine
 62
7
  6
CONTINUOUS
 10
8.0751376027
 20
17.1092678951
 11
8.8481638559
 21
15.8054988153
  0
LINE
  5
3E2
100
AcDbEntity
  8
GUSCI_ESTERNI
100
AcDbLine
 62
7
  6
CONTINUOUS
 10
8.6673465055
 20
17.4053723465
 11
9.4138492808
 21
16.0883415277
  0
LINE
  5
3E3
100
AcDbEntity
  8
0
100
AcDbLine
 62
7
  6
CONTINUOUS
 10
7.4698638542
 20
26.7084650373
 11
7.633231956
 21
26.26432772
  0
LINE
  5
3E4
100
AcDbEntity
  8
0
100
AcDbLine
 62
7
  6
CONTINUOUS
 10
15.6563498195
 20
22.1531543424
 11
15.6542839448
 21
22.198200782
  0
LINE
  5
3E5
100
AcDbEntity
  8
0
100
AcDbLine
 62
7
  6
CONTINUOUS
 10
15.9615712148
 20
22.6485982651
 11
15.9814683824
 21
22.1134787193
  0
LINE
  5
3E6
100
AcDbEntity
  8
0
100
AcDbLine
 62
7
  6
CONTINUOUS
 10
16.3817004301
 20
22.0940930682
 11
16.3815149641
 21
22.5682186128
  0
LINE
  5
3E7
100
AcDbEntity
  8
RACCORDO
100
AcDbLine
 62
7
  6
CONTINUOUS
 10
16.2914160506
 20
23.9362009026
 11
16.2914160506
 21
23.116260704
  0
LINE
  5
3E8
100
AcDbEntity
  8
GUSCI_ESTERNI
100
AcDbLine
 62
7
  6
CONTINUOUS
 10
18.1556842383
 20
24.2403140754
 11
18.1556842383
 21
23.3742886716
  0
LINE
  5
3E9
100
AcDbEntity
  8
DRAFT
100
AcDbLine
 62
7
  6
CONTINUOUS
 10
18.1556842383
 20
23.5849043139
 11
18.1556842383
 21
24.4156310202
  0
LINE
  5
3EA
100
AcDbEntity
  8
GUSCI_ESTERNI
100
AcDbLine
 62
7
  6
CONTINUOUS
 10
18.6860143242
 20
22.9820737171
 11
18.6860143242
 21
22.8502622229
  0
LINE
  5
3EB
100
AcDbEntity
  8
RACCORDO
100
AcDbLine
 62
250
  6
CONTINUOUS
 10
-2.7449806495
 20
-28.3488856827
 11
-3.3672986816
 21
-29.0939451002
  0
LINE
  5
3EC
100
AcDbEntity
  8
RACCORDO
100
AcDbLine
 62
250
  6
CONTINUOUS
 10
-2.3919444615
 20
-28.4746555208
 11
-3.1031650696
 21
-29.3261519979
  0
LINE
  5
3ED
100
AcDbEntity
  8
GUSCI_ESTERNI
100
AcDbLine
 62
250
  6
CONTINUOUS
 10
24.7691655135
 20
-7.1451275503
 11
26.2167015438
 21
-6.4213595352
  0
LINE
  5
3EE
100
AcDbEntity
  8
0
100
AcDbLine
 62
7
  6
CONTINUOUS
 10
-3.3757172489
 20
19.0166529309
 11
-4.735649189
 21
18.9429047435
  0
LINE
  5
3EF
100
AcDbEntity
  8
0
100
AcDbLine
 62
7
  6
CONTINUOUS
 10
12.350253814
 20
15.9396042039
 11
11.8249430966
 21
16.1203875251
  0
LINE
  5
3F0
100
AcDbEntity
  8
0
100
AcDbLine
 62
7
  6
CONTINUOUS
 10
11.4315688784
 20
15.2051633917
 11
12.3502563051
 21
14.787950886
  0
LINE
  5
3F1
100
AcDbEntity
  8
GUSCI_ESTERNI
100
AcDbLine
 62
7
  6
CONTINUOUS
 10
-4.0128639031
 20
22.9966588186
 11
-1.9261483474
 21
21.9934642378
  0
LINE
  5
3F2
100
AcDbEntity
  8
DRAFT
100
AcDbLine
 62
7
  6
CONTINUOUS
 10
2.1397156444
 20
20.3025680869
 11
-1.7000858929
 21
22.1952098695
  0
LINE
  5
3F3
100
AcDbEntity
  8
GUSCI_ESTERNI
100
AcDbLine
 62
7
  6
CONTINUOUS
 10
8.0751376027
 20
17.1092678951
 11
5.970366352
 21
18.1476551322
  0
LINE
  5
3F4
100
AcDbEntity
  8
GUSCI_ESTERNI
100
AcDbLine
 62
7
  6
CONTINUOUS
 10
-5.7445249658
 20
22.0676749385
 11
-5.6259093638
 21
22.008874241
  0
LINE
  5
3F5
100
AcDbEntity
  8
GUSCI_ESTERNI
100
AcDbLine
 62
7
  6
CONTINUOUS
 10
-3.442387272
 20
23.2818971342
 11
-1.4979409008
 21
22.2962823656
  0
LINE
  5
3F6
100
AcDbEntity
  8
GUSCI_ESTERNI
100
AcDbLine
 62
7
  6
CONTINUOUS
 10
7.8574559527
 20
17.0004270701
 11
5.7813155675
 21
18.05312974
  0
LINE
  5
3F7
100
AcDbEntity
  8
DRAFT
100
AcDbLine
 62
7
  6
CONTINUOUS
 10
6.007378022
 20
18.3414779121
 11
2.1397156444
 21
20.3025680869
  0
LINE
  5
3F8
100
AcDbEntity
  8
0
100
AcDbLine
 62
7
  6
CONTINUOUS
 10
11.1386371414
 20
14.989231987
 11
11.6090778135
 21
14.6612565509
  0
LINE
  5
3F9
100
AcDbEntity
  8
GUSCI_ESTERNI
100
AcDbLine
 62
7
  6
CONTINUOUS
 10
11.2459660532
 20
14.802014855
 11
9.5115215682
 21
17.8274598779
  0
LINE
  5
3FA
100
AcDbEntity
  8
DRAFT
100
AcDbLine
 62
7
  6
CONTINUOUS
 10
20.2770045818
 20
25.5250382873
 11
20.2770045818
 21
25.476291192
  0
LINE
  5
3FB
100
AcDbEntity
  8
DRAFT
100
AcDbLine
 62
7
  6
CONTINUOUS
 10
0.4940600818
 20
-23.3883205022
 11
-0.4412241069
 21
-24.0661629213
  0
LINE
  5
3FC
100
AcDbEntity
  8
RACCORDO
100
AcDbLine
 62
7
  6
CONTINUOUS
 10
0.7814554091
 20
-23.1236329999
 11
0.4940600818
 21
-23.2693099819
  0
LINE
  5
3FD
100
AcDbEntity
  8
DRAFT
100
AcDbLine
 62
7
  6
CONTINUOUS
 10
0.4940600818
 20
-23.3883205022
 11
-0.4412241069
 21
-23.8595687119
  0
LINE
  5
3FE
100
AcDbEntity
  8
GUSCI_ESTERNI
100
AcDbLine
 62
250
  6
CONTINUOUS
 10
24.7691655135
 20
-8.8771783579
 11
26.2167015438
 21
-8.1534103427
  0
LINE
  5
3FF
100
AcDbEntity
  8
GUSCI_ESTERNI
100
AcDbLine
 62
7
  6
CONTINUOUS
 10
24.7691655135
 20
-9.9044963768
 11
25.5669685796
 21
-9.5055948438
  0
LINE
  5
400
100
AcDbEntity
  8
GUSCI_ESTERNI
100
AcDbLine
 62
7
  6
CONTINUOUS
 10
1.086321402
 20
-23.1867728144
 11
12.306626225
 21
-17.5766204029
  0
LINE
  5
401
100
AcDbEntity
  8
GUSCI_ESTERNI
100
AcDbLine
 62
7
  6
CONTINUOUS
 10
15.3780395211
 20
-16.0409137549
 11
24.7691655135
 21
-11.3453507587
  0
LINE
  5
402
100
AcDbEntity
  8
GUSCI_ESTERNI
100
AcDbLine
 62
7
  6
CONTINUOUS
 10
7.8750633457
 20
-19.8650057044
 11
1.3171720851
 21
-23.1439513347
  0
LINE
  5
403
100
AcDbEntity
  8
GUSCI_ESTERNI
100
AcDbLine
 62
7
  6
CONTINUOUS
 10
-0.6970162001
 20
24.3569030415
 11
1.0371464849
 21
23.5638260584
  0
LINE
  5
404
100
AcDbEntity
  8
DRAFT
100
AcDbLine
 62
7
  6
CONTINUOUS
 10
1.5385477848
 20
21.0163303404
 11
-1.3392497191
 21
22.3756279564
  0
LINE
  5
405
100
AcDbEntity
  8
GUSCI_ESTERNI
100
AcDbLine
 62
7
  6
CONTINUOUS
 10
-2.8501783692
 20
23.5780015856
 11
-2.5440305583
 21
23.4333958624
  0
LINE
  5
406
100
AcDbEntity
  8
GUSCI_ESTERNI
100
AcDbLine
 62
250
  6
CONTINUOUS
 10
14.3173793493
 20
15.64490118
 11
13.0428237203
 21
16.2711523441
  0
LINE
  5
407
100
AcDbEntity
  8
DRAFT
100
AcDbLine
 62
7
  6
CONTINUOUS
 10
4.056102117
 20
20.2244978411
 11
5.1352761809
 21
19.6920881675
  0
LINE
  5
408
100
AcDbEntity
  8
DRAFT
100
AcDbLine
 62
7
  6
CONTINUOUS
 10
6.8439166
 20
20.546408377
 11
8.6398941468
 21
19.6577359744
  0
LINE
  5
409
100
AcDbEntity
  8
DRAFT
100
AcDbLine
 62
7
  6
CONTINUOUS
 10
2.6719865909
 20
22.6323733815
 11
0.9324302318
 21
23.5114679319
  0
LINE
  5
40A
100
AcDbEntity
  8
DRAFT
100
AcDbLine
 62
7
  6
CONTINUOUS
 10
2.0054924515
 20
21.2498026738
 11
0.9633461719
 21
21.778053172
  0
LINE
  5
40B
100
AcDbEntity
  8
GUSCI_ESTERNI
100
AcDbLine
 62
7
  6
CONTINUOUS
 10
9.5115215682
 20
17.8274598779
 11
9.4936261687
 21
17.8367580765
  0
LINE
  5
40C
100
AcDbEntity
  8
DRAFT
100
AcDbLine
 62
7
  6
CONTINUOUS
 10
3.5891574502
 20
19.9910255077
 11
6.3682141959
 21
18.521895999
  0
LINE
  5
40D
100
AcDbEntity
  8
GUSCI_ESTERNI
100
AcDbLine
 62
7
  6
CONTINUOUS
 10
8.3717030012
 20
17.5616622809
 11
8.6673465055
 21
17.4053723465
  0
LINE
  5
40E
100
AcDbEntity
  8
GUSCI_ESTERNI
100
AcDbLine
 62
7
  6
CONTINUOUS
 10
8.6665687205
 20
19.4957563165
 11
10.3752709426
 21
18.5634462516
  0
LINE
  5
40F
100
AcDbEntity
  8
RACCORDO
100
AcDbLine
 62
250
  6
CONTINUOUS
 10
12.559583488
 20
17.1702056091
 11
12.5553220866
 21
17.1726826949
  0
LINE
  5
410
100
AcDbEntity
  8
0
100
AcDbLine
 62
7
  6
CONTINUOUS
 10
12.5493988192
 20
15.1314199799
 11
11.7855340796
 21
15.5769611143
  0
LINE
  5
411
100
AcDbEntity
  8
RACCORDO
100
AcDbLine
 62
250
  6
CONTINUOUS
 10
12.0957104888
 20
17.4419321324
 11
12.0956421999
 21
17.4419721292
  0
LINE
  5
412
100
AcDbEntity
  8
0
100
AcDbLine
 62
7
  6
CONTINUOUS
 10
12.559583568
 20
17.1702055622
 11
12.0957140936
 21
17.4419300209
  0
LINE
  5
413
100
AcDbEntity
  8
GUSCI_ESTERNI
100
AcDbLine
 62
7
  6
CONTINUOUS
 10
14.3173793493
 20
16.337721503
 11
12.5523958186
 21
19.3478970031
  0
LINE
  5
414
100
AcDbEntity
  8
GUSCI_ESTERNI
100
AcDbLine
 62
7
  6
CONTINUOUS
 10
10.5721817399
 20
-18.8370818951
 11
12.306626225
 21
-17.5766204029
  0
LINE
  5
415
100
AcDbEntity
  8
GUSCI_ESTERNI
100
AcDbLine
 62
7
  6
CONTINUOUS
 10
23.7418008852
 20
-12.091960733
 11
24.7691655135
 21
-11.3453507587
  0
LINE
  5
416
100
AcDbEntity
  8
GUSCI_ESTERNI
100
AcDbLine
 62
7
  6
CONTINUOUS
 10
13.6130559904
 20
-17.3166447699
 11
15.3780395211
 21
-16.0409137549
  0
LINE
  5
417
100
AcDbEntity
  8
RACCORDO
100
AcDbLine
 62
7
  6
CONTINUOUS
 10
3.226782366
 20
-22.5029504342
 11
-0.4412241069
 21
-24.3440855616
  0
LINE
  5
418
100
AcDbEntity
  8
GUSCI_ESTERNI
100
AcDbLine
 62
7
  6
CONTINUOUS
 10
10.6509560851
 20
-18.7798347307
 11
13.5948454996
 21
-17.3078900234
  0
LINE
  5
419
100
AcDbEntity
  8
GUSCI_ESTERNI
100
AcDbLine
 62
7
  6
CONTINUOUS
 10
22.3276411717
 20
-12.9593521792
 11
13.6130559904
 21
-17.3166447699
  0
LINE
  5
41A
100
AcDbEntity
  8
GUSCI_ESTERNI
100
AcDbLine
 62
7
  6
CONTINUOUS
 10
10.5721817399
 20
-18.8370818951
 11
7.8574559527
 21
-20.1944447887
  0
LINE
  5
41B
100
AcDbEntity
  8
RACCORDO
100
AcDbLine
 62
7
  6
CONTINUOUS
 10
4.114488652
 20
-21.9390491147
 11
-0.4412241069
 21
-24.1987162283
  0
LINE
  5
41C
100
AcDbEntity
  8
RACCORDO
100
AcDbLine
 62
250
  6
CONTINUOUS
 10
-1.0564003445
 20
-26.9775655477
 11
-0.4412241069
 21
-26.6740688359
  0
LINE
  5
41D
100
AcDbEntity
  8
RACCORDO
100
AcDbLine
 62
7
  6
CONTINUOUS
 10
-1.1910382678
 20
-27.2503372978
 11
-0.5720987642
 21
-26.9449839816
  0
LINE
  5
41E
100
AcDbEntity
  8
GUSCI_ESTERNI
100
AcDbLine
 62
7
  6
CONTINUOUS
 10
12.5523958186
 20
19.3478970031
 11
12.5341853278
 21
19.357037656
  0
LINE
  5
41F
100
AcDbEntity
  8
0
100
AcDbLine
 62
7
  6
CONTINUOUS
 10
15.1621392718
 20
22.8494177167
 11
15.3257624874
 21
22.4093668803
  0
LINE
  5
420
100
AcDbEntity
  8
GUSCI_ESTERNI
100
AcDbLine
 62
7
  6
CONTINUOUS
 10
24.7691655135
 20
-11.3453507587
 11
24.7691655135
 21
-8.8771783579
  0
LINE
  5
421
100
AcDbEntity
  8
GUSCI_ESTERNI
100
AcDbLine
 62
7
  6
CONTINUOUS
 10
24.7691655135
 20
-7.1451275503
 11
24.7691655135
 21
21.5636145851
  0
LINE
  5
422
100
AcDbEntity
  8
GUSCI_ESTERNI
100
AcDbLine
 62
7
  6
CONTINUOUS
 10
26.2167015438
 20
-8.1534103427
 11
26.2167015438
 21
-6.4213595352
  0
LINE
  5
423
100
AcDbEntity
  8
RACCORDO
100
AcDbLine
 62
250
  6
CONTINUOUS
 10
-0.973617107
 20
-28.6150802737
 11
-1.5018842787
 21
-28.8860913324
  0
LINE
  5
424
100
AcDbEntity
  8
RACCORDO
100
AcDbLine
 62
7
  6
CONTINUOUS
 10
-1.0373051445
 20
-28.749644084
 11
-1.5659874081
 21
-29.0208680926
  0
LINE
  5
425
100
AcDbEntity
  8
RACCORDO
100
AcDbLine
 62
7
  6
CONTINUOUS
 10
-1.5677257952
 20
-29.0217373262
 11
-1.5659893778
 21
-29.0208691032
  0
LINE
  5
426
100
AcDbEntity
  8
RACCORDO
100
AcDbLine
 62
250
  6
CONTINUOUS
 10
-1.5018842787
 20
-28.8860913324
 11
-3.1031650696
 21
-29.666125932
  0
LINE
  5
427
100
AcDbEntity
  8
RACCORDO
100
AcDbLine
 62
7
  6
CONTINUOUS
 10
-1.5677285592
 20
-29.0217386726
 11
-3.1694266621
 21
-29.8019765582
  0
LINE
  5
428
100
AcDbEntity
  8
RACCORDO
100
AcDbLine
 62
250
  6
CONTINUOUS
 10
-6.6567898023
 20
-29.328381562
 11
-1.0564003445
 21
-26.9775655477
  0
LINE
  5
429
100
AcDbEntity
  8
RACCORDO
100
AcDbLine
 62
7
  6
CONTINUOUS
 10
-6.8105970478
 20
-29.6095772604
 11
-1.2014512662
 21
-27.255085697
  0
LINE
  5
42A
100
AcDbEntity
  8
RACCORDO
100
AcDbLine
 62
250
  6
CONTINUOUS
 10
15.9378761222
 20
23.5320002264
 11
15.3590891731
 21
23.8225190658
  0
LINE
  5
42B
100
AcDbEntity
  8
GUSCI_ESTERNI
100
AcDbLine
 62
250
  6
CONTINUOUS
 10
12.4791121838
 20
29.2848089079
 11
10.4828520357
 21
30.244516788
  0
LINE
  5
42C
100
AcDbEntity
  8
GUSCI_ESTERNI
100
AcDbLine
 62
7
  6
CONTINUOUS
 10
12.6909295651
 20
29.4264258769
 11
10.7662036442
 21
30.351743469
  0
LINE
  5
42D
100
AcDbEntity
  8
DRAFT
100
AcDbLine
 62
7
  6
CONTINUOUS
 10
16.4232726244
 20
27.4443465768
 11
12.5695406669
 21
29.3300231494
  0
LINE
  5
42E
100
AcDbEntity
  8
DRAFT
100
AcDbLine
 62
7
  6
CONTINUOUS
 10
12.5695406669
 20
29.3787702448
 11
20.2770045818
 21
25.5250382873
  0
LINE
  5
42F
100
AcDbEntity
  8
RACCORDO
100
AcDbLine
 62
250
  6
CONTINUOUS
 10
12.5757112593
 20
29.3817895885
 11
16.4233262393
 21
27.4579820985
  0
LINE
  5
430
100
AcDbEntity
  8
RACCORDO
100
AcDbLine
 62
250
  6
CONTINUOUS
 10
17.2840883317
 20
27.0276010524
 11
20.2831751742
 21
25.5280576311
  0
LINE
  5
431
100
AcDbEntity
  8
RACCORDO
100
AcDbLine
 62
7
  6
CONTINUOUS
 10
13.0167542624
 20
29.4071390551
 11
16.674022378
 21
27.5785049973
  0
LINE
  5
432
100
AcDbEntity
  8
RACCORDO
100
AcDbLine
 62
7
  6
CONTINUOUS
 10
17.7212838005
 20
27.0548742861
 11
20.7242181773
 21
25.5534070977
  0
LINE
  5
433
100
AcDbEntity
  8
RACCORDO
100
AcDbLine
 62
250
  6
CONTINUOUS
 10
16.786189486
 20
27.6324296612
 11
17.640673051
 21
27.2051878787
  0
LINE
  5
434
100
AcDbEntity
  8
DRAFT
100
AcDbLine
 62
7
  6
CONTINUOUS
 10
20.2770045818
 20
25.476291192
 11
16.4232726244
 21
27.4443465768
  0
LINE
  5
435
100
AcDbEntity
  8
GUSCI_ESTERNI
100
AcDbLine
 62
250
  6
CONTINUOUS
 10
20.2770315063
 20
25.3009877094
 11
22.3276411717
 21
24.2355196796
  0
LINE
  5
436
100
AcDbEntity
  8
GUSCI_ESTERNI
100
AcDbLine
 62
7
  6
CONTINUOUS
 10
20.7294964949
 20
25.3267092345
 11
22.9472029496
 21
24.1744200559
  0
LINE
  5
437
100
AcDbEntity
  8
GUSCI_ESTERNI
100
AcDbLine
 62
7
  6
CONTINUOUS
 10
24.7691655135
 20
21.5636145851
 11
23.7418008852
 21
23.3556784005
  0
LINE
  5
438
100
AcDbEntity
  8
RACCORDO
100
AcDbLine
 62
7
  6
CONTINUOUS
 10
17.6759708162
 20
27.6792809323
 11
18.5150637331
 21
27.2597344739
  0
ARC
  5
439
100
AcDbEntity
  8
0
100
AcDbCircle
 62
7
  6
CONTINUOUS
 10
-15.9269478329
 20
-158.9172348475
 40
176.8043636257
100
AcDbArc
 50
80.6382885535
 51
80.9707169467
  0
ARC
  5
43A
100
AcDbEntity
  8
0
100
AcDbCircle
 62
7
  6
CONTINUOUS
 10
-26.8163922632
 20
-172.3293907775
 40
176.8043636257
100
AcDbArc
 50
80.6382885535
 51
80.9707169467
  0
ARC
  5
43B
100
AcDbEntity
  8
0
100
AcDbCircle
 62
7
  6
CONTINUOUS
 10
-14.8662876611
 20
-189.7370243782
 40
176.8043636253
100
AcDbArc
 50
80.6382885535
 51
80.9707169467
  0
ARC
  5
43C
100
AcDbEntity
  8
0
100
AcDbCircle
 62
7
  6
CONTINUOUS
 10
0.0802911425
 20
-17.797591878
 40
20.2424025867
100
AcDbArc
 50
85.631349544
 51
85.7986530854
  0
ARC
  5
43D
100
AcDbEntity
  8
0
100
AcDbCircle
 62
7
  6
CONTINUOUS
 10
2.7479980639
 20
-11.6760528739
 40
10.7008834103
100
AcDbArc
 50
341.0493215054
 51
341.3005563422
  0
ARC
  5
43E
100
AcDbEntity
  8
RACCORDO
100
AcDbCircle
 62
7
  6
CONTINUOUS
 10
-1.1514196483
 20
-28.5272074449
 40
0.2500003968
100
AcDbArc
 50
297.160171877
 51
0.0000315339
  0
ARC
  5
43F
100
AcDbEntity
  8
RACCORDO
100
AcDbCircle
 62
7
  6
CONTINUOUS
 10
-1.1514195165
 20
-28.1796767842
 40
0.2500002666
100
AcDbArc
 50
0.000151117
 51
63.4365832535
  0
ARC
  5
440
100
AcDbEntity
  8
RACCORDO
100
AcDbCircle
 62
7
  6
CONTINUOUS
 10
-3.2789103014
 20
-29.5772254325
 40
0.2499992954
100
AcDbArc
 50
243.4349021262
 51
295.9722454544
  0
ARC
  5
441
100
AcDbEntity
  8
RACCORDO
100
AcDbCircle
 62
7
  6
CONTINUOUS
 10
-4.6038965098
 20
-28.914732638
 40
0.2499985039
100
AcDbArc
 50
179.9999730928
 51
243.4370632661
  0
ARC
  5
442
100
AcDbEntity
  8
RACCORDO
100
AcDbCircle
 62
7
  6
CONTINUOUS
 10
-1.2740521402
 20
-27.082069662
 40
0.1876306701
100
AcDbArc
 50
292.7605617778
 51
296.2526915822
  0
ARC
  5
443
100
AcDbEntity
  8
RACCORDO
100
AcDbCircle
 62
7
  6
CONTINUOUS
 10
-1.6091306335
 20
-28.9368492413
 40
0.0944492137
100
AcDbArc
 50
299.3092916853
 51
303.7409216758
  0
ARC
  5
444
100
AcDbEntity
  8
RACCORDO
100
AcDbCircle
 62
7
  6
CONTINUOUS
 10
-1.6087784052
 20
-28.9374556713
 40
0.0937479892
100
AcDbArc
 50
297.1567006962
 51
299.3030104152
  0
ARC
  5
445
100
AcDbEntity
  8
0
100
AcDbCircle
 62
7
  6
CONTINUOUS
 10
-7.7926435857
 20
9.4153340181
 40
11.3465614953
100
AcDbArc
 50
318.3739669499
 51
318.6083337876
  0
ARC
  5
446
100
AcDbEntity
  8
0
100
AcDbCircle
 62
7
  6
CONTINUOUS
 10
-9.2021065385
 20
5.7315807274
 40
10.7008834106
100
AcDbArc
 50
341.0493215054
 51
341.3005563422
  0
ARC
  5
447
100
AcDbEntity
  8
0
100
AcDbCircle
 62
7
  6
CONTINUOUS
 10
-12.3561650349
 20
-6.6245237107
 40
10.6644602023
100
AcDbArc
 50
319.3063928265
 51
319.6915523437
  0
ARC
  5
448
100
AcDbEntity
  8
ASSI
100
AcDbCircle
 62
7
  6
CONTINUOUS
 10
-12.3561650349
 20
-6.6245237107
 40
10.6644602023
100
AcDbArc
 50
319.3063928265
 51
319.6915523437
  0
ARC
  5
449
100
AcDbEntity
  8
0
100
AcDbCircle
 62
7
  6
CONTINUOUS
 10
0.8637403943
 20
-7.2004734085
 40
9.6163656797
100
AcDbArc
 50
85.8283344113
 51
85.9502361936
  0
ARC
  5
44A
100
AcDbEntity
  8
0
100
AcDbCircle
 62
7
  6
CONTINUOUS
 10
-3.5893644595
 20
6.557698731
 40
6.3356971005
100
AcDbArc
 50
312.8525185206
 51
314.6927602648
  0
ARC
  5
44B
100
AcDbEntity
  8
0
100
AcDbCircle
 62
7
  6
CONTINUOUS
 10
-5.0182897891
 20
3.6775960877
 40
6.1047882179
100
AcDbArc
 50
344.5736484591
 51
346.5382507689
  0
ARC
  5
44C
100
AcDbEntity
  8
0
100
AcDbCircle
 62
7
  6
CONTINUOUS
 10
-2.084856797
 20
6.4897544817
 40
5.3814490524
100
AcDbArc
 50
299.9028877974
 51
301.025781558
  0
ARC
  5
44D
100
AcDbEntity
  8
0
100
AcDbCircle
 62
7
  6
CONTINUOUS
 10
-4.2148127824
 20
2.5243469911
 40
5.153575391
100
AcDbArc
 50
357.514307825
 51
359.2854986057
  0
ARC
  5
44E
100
AcDbEntity
  8
RACCORDO
100
AcDbCircle
 62
7
  6
CONTINUOUS
 10
-0.2324958737
 20
8.8414258147
 40
4.0533271835
100
AcDbArc
 50
2.2976210373
 51
2.9009251157
  0
ARC
  5
44F
100
AcDbEntity
  8
0
100
AcDbCircle
 62
7
  6
CONTINUOUS
 10
-1.3757332094
 20
2.7272825234
 40
3.1420545284
100
AcDbArc
 50
334.5242772553
 51
338.261721618
  0
ARC
  5
450
100
AcDbEntity
  8
0
100
AcDbCircle
 62
7
  6
CONTINUOUS
 10
-1.0736257251
 20
2.7545874449
 40
2.8852110278
100
AcDbArc
 50
330.5286307609
 51
331.4527899208
  0
ARC
  5
451
100
AcDbEntity
  8
0
100
AcDbCircle
 62
7
  6
CONTINUOUS
 10
-0.6809451399
 20
3.3576877466
 40
2.8573139159
100
AcDbArc
 50
321.1043222007
 51
325.0113634316
  0
ARC
  5
452
100
AcDbEntity
  8
0
100
AcDbCircle
 62
7
  6
CONTINUOUS
 10
-0.6461467747
 20
3.1442850143
 40
2.7108646823
100
AcDbArc
 50
328.2866236593
 51
329.237580762
  0
ARC
  5
453
100
AcDbEntity
  8
0
100
AcDbCircle
 62
7
  6
CONTINUOUS
 10
1.4645852551
 20
3.3021909532
 40
2.1840634615
100
AcDbArc
 50
249.1961189608
 51
250.0569917248
  0
ARC
  5
454
100
AcDbEntity
  8
RACCORDO
100
AcDbCircle
 62
250
  6
CONTINUOUS
 10
0.0142897953
 20
2.6859284458
 40
2.1454555144
100
AcDbArc
 50
356.7774119539
 51
359.3638610184
  0
ARC
  5
455
100
AcDbEntity
  8
RACCORDO
100
AcDbCircle
 62
250
  6
CONTINUOUS
 10
0.1148486935
 20
2.6840635114
 40
2.0448822456
100
AcDbArc
 50
359.3848295449
 51
359.9991421536
  0
ARC
  5
456
100
AcDbEntity
  8
RACCORDO
100
AcDbCircle
 62
7
  6
CONTINUOUS
 10
0.1212730419
 20
2.6912373852
 40
2.0395003823
100
AcDbArc
 50
359.8004978796
 51
359.9998983756
  0
ARC
  5
457
100
AcDbEntity
  8
0
100
AcDbCircle
 62
7
  6
CONTINUOUS
 10
-0.0132978008
 20
1.2484806233
 40
1.9516019685
100
AcDbArc
 50
40.9456228014
 51
41.9465260136
  0
ARC
  5
458
100
AcDbEntity
  8
0
100
AcDbCircle
 62
7
  6
CONTINUOUS
 10
1.1598575235
 20
0.8304782257
 40
1.6311921081
100
AcDbArc
 50
71.2834022921
 51
72.1466495887
  0
ARC
  5
459
100
AcDbEntity
  8
RACCORDO
100
AcDbCircle
 62
250
  6
CONTINUOUS
 10
1.1207378203
 20
2.8940645563
 40
1.0071265114
100
AcDbArc
 50
27.9749223216
 51
29.6466055418
  0
ARC
  5
45A
100
AcDbEntity
  8
RACCORDO
100
AcDbCircle
 62
7
  6
CONTINUOUS
 10
-3.2785631605
 20
12.0633506384
 40
0.2510473653
100
AcDbArc
 50
243.4631740971
 51
258.1750029898
  0
ARC
  5
45B
100
AcDbEntity
  8
RACCORDO
100
AcDbCircle
 62
7
  6
CONTINUOUS
 10
-1.1514220206
 20
13.1199295331
 40
0.2500027706
100
AcDbArc
 50
320.5925765273
 51
359.9996519884
  0
ARC
  5
45C
100
AcDbEntity
  8
RACCORDO
100
AcDbCircle
 62
7
  6
CONTINUOUS
 10
-2.4887459072
 20
14.1361209968
 40
0.2500012342
100
AcDbArc
 50
63.4334738355
 51
115.9719157382
  0
ARC
  5
45D
100
AcDbEntity
  8
RACCORDO
100
AcDbCircle
 62
7
  6
CONTINUOUS
 10
-4.6038937359
 20
12.7248461825
 40
0.2500010156
100
AcDbArc
 50
179.9973937935
 51
243.4448180614
  0
ARC
  5
45E
100
AcDbEntity
  8
RACCORDO
100
AcDbCircle
 62
7
  6
CONTINUOUS
 10
-1.1514198182
 20
13.4674592458
 40
0.2500005676
100
AcDbArc
 50
359.9999858629
 51
63.433236595
  0
ARC
  5
45F
100
AcDbEntity
  8
RACCORDO
100
AcDbCircle
 62
7
  6
CONTINUOUS
 10
-4.6038964011
 20
13.0648196435
 40
0.2499986126
100
AcDbArc
 50
117.1565718893
 51
180.0000358743
  0
ARC
  5
460
100
AcDbEntity
  8
RACCORDO
100
AcDbCircle
 62
250
  6
CONTINUOUS
 10
-4.0734565977
 20
11.9318907046
 40
0.0774452051
100
AcDbArc
 50
180.0020901246
 51
187.6628168829
  0
ARC
  5
461
100
AcDbEntity
  8
0
100
AcDbCircle
 62
7
  6
CONTINUOUS
 10
12.0303957446
 20
-35.2052254785
 40
20.2424025861
100
AcDbArc
 50
85.631349544
 51
85.7986530854
  0
ARC
  5
462
100
AcDbEntity
  8
0
100
AcDbCircle
 62
7
  6
CONTINUOUS
 10
12.8138449958
 20
-24.6081070178
 40
9.6163656879
100
AcDbArc
 50
85.8283344114
 51
85.9502361935
  0
ARC
  5
463
100
AcDbEntity
  8
0
100
AcDbCircle
 62
7
  6
CONTINUOUS
 10
8.3607401425
 20
-10.8499348701
 40
6.3356971005
100
AcDbArc
 50
312.8525185206
 51
314.6927602648
  0
ARC
  5
464
100
AcDbEntity
  8
0
100
AcDbCircle
 62
7
  6
CONTINUOUS
 10
6.931814813
 20
-13.7300375134
 40
6.1047882179
100
AcDbArc
 50
344.5736484591
 51
346.5382507689
  0
ARC
  5
465
100
AcDbEntity
  8
0
100
AcDbCircle
 62
7
  6
CONTINUOUS
 10
9.8655087961
 20
-10.9183198074
 40
5.3809368903
100
AcDbArc
 50
299.876691627
 51
301.0258187036
  0
ARC
  5
466
100
AcDbEntity
  8
0
100
AcDbCircle
 62
7
  6
CONTINUOUS
 10
7.7345823493
 20
-14.8832632776
 40
5.1542852058
100
AcDbArc
 50
357.5143907421
 51
359.2569919979
  0
ARC
  5
467
100
AcDbEntity
  8
0
100
AcDbCircle
 62
7
  6
CONTINUOUS
 10
16.3162881773
 20
-13.9294380045
 40
4.1854236387
100
AcDbArc
 50
214.5460818325
 51
214.9098845362
  0
ARC
  5
468
100
AcDbEntity
  8
GUSCI_ESTERNI
100
AcDbCircle
 62
7
  6
CONTINUOUS
 10
15.8361987662
 20
-16.9398963346
 40
3.5592415338
100
AcDbArc
 50
152.2939364018
 51
154.0737757631
  0
ARC
  5
469
100
AcDbEntity
  8
GUSCI_ESTERNI
100
AcDbCircle
 62
7
  6
CONTINUOUS
 10
15.8263503573
 20
-16.9351453589
 40
3.5483071005
100
AcDbArc
 50
154.0732424127
 51
155.4783846081
  0
ARC
  5
46A
100
AcDbEntity
  8
GUSCI_ESTERNI
100
AcDbCircle
 62
7
  6
CONTINUOUS
 10
15.8265232939
 20
-16.9347656233
 40
3.5482899576
100
AcDbArc
 50
150.7455491507
 51
152.2946464642
  0
ARC
  5
46B
100
AcDbEntity
  8
GUSCI_ESTERNI
100
AcDbCircle
 62
7
  6
CONTINUOUS
 10
15.809182272
 20
-16.9272869377
 40
3.5294259632
100
AcDbArc
 50
155.4787782264
 51
156.1990311258
  0
ARC
  5
46C
100
AcDbEntity
  8
GUSCI_ESTERNI
100
AcDbCircle
 62
7
  6
CONTINUOUS
 10
15.7956152921
 20
-16.9173565695
 40
3.5128164103
100
AcDbArc
 50
148.8925573678
 51
150.7469236061
  0
ARC
  5
46D
100
AcDbEntity
  8
GUSCI_ESTERNI
100
AcDbCircle
 62
7
  6
CONTINUOUS
 10
15.785858444
 20
-16.9170486264
 40
3.5039539799
100
AcDbArc
 50
156.1982951348
 51
157.4012208575
  0
ARC
  5
46E
100
AcDbEntity
  8
GUSCI_ESTERNI
100
AcDbCircle
 62
7
  6
CONTINUOUS
 10
15.7598545105
 20
-16.8959049923
 40
3.471115191
100
AcDbArc
 50
148.1338298777
 51
148.8907619108
  0
ARC
  5
46F
100
AcDbEntity
  8
GUSCI_ESTERNI
100
AcDbCircle
 62
7
  6
CONTINUOUS
 10
15.7343187313
 20
-16.8800274686
 40
3.4410457419
100
AcDbArc
 50
147.3867740443
 51
148.1338837882
  0
ARC
  5
470
100
AcDbEntity
  8
0
100
AcDbCircle
 62
7
  6
CONTINUOUS
 10
10.5743713927
 20
-14.6803510778
 40
3.1420545284
100
AcDbArc
 50
334.5242772553
 51
338.261721618
  0
ARC
  5
471
100
AcDbEntity
  8
0
100
AcDbCircle
 62
7
  6
CONTINUOUS
 10
10.8764788771
 20
-14.6530461563
 40
2.8852110277
100
AcDbArc
 50
330.5286307609
 51
331.4527899209
  0
ARC
  5
472
100
AcDbEntity
  8
0
100
AcDbCircle
 62
7
  6
CONTINUOUS
 10
11.2691594621
 20
-14.0499458545
 40
2.8573139159
100
AcDbArc
 50
321.1043222007
 51
325.0113634316
  0
ARC
  5
473
100
AcDbEntity
  8
0
100
AcDbCircle
 62
7
  6
CONTINUOUS
 10
11.3039578273
 20
-14.2633485868
 40
2.7108646823
100
AcDbArc
 50
328.2866236593
 51
329.237580762
  0
ARC
  5
474
100
AcDbEntity
  8
0
100
AcDbCircle
 62
7
  6
CONTINUOUS
 10
13.4146898572
 20
-14.1054426479
 40
2.1840634616
100
AcDbArc
 50
249.1961189608
 51
250.0569917248
  0
ARC
  5
475
100
AcDbEntity
  8
RACCORDO
100
AcDbCircle
 62
250
  6
CONTINUOUS
 10
11.9643943974
 20
-14.7217051553
 40
2.1454555144
100
AcDbArc
 50
356.7774119539
 51
359.3638610184
  0
ARC
  5
476
100
AcDbEntity
  8
RACCORDO
100
AcDbCircle
 62
250
  6
CONTINUOUS
 10
12.0649532956
 20
-14.7235700898
 40
2.0448822456
100
AcDbArc
 50
359.3848295449
 51
359.9991421536
  0
ARC
  5
477
100
AcDbEntity
  8
RACCORDO
100
AcDbCircle
 62
7
  6
CONTINUOUS
 10
12.0713776443
 20
-14.7163962159
 40
2.039500382
100
AcDbArc
 50
359.8004978795
 51
359.9998983756
  0
ARC
  5
478
100
AcDbEntity
  8
0
100
AcDbCircle
 62
7
  6
CONTINUOUS
 10
11.9368068013
 20
-16.1591529779
 40
1.9516019684
100
AcDbArc
 50
40.9456228014
 51
41.9465260136
  0
ARC
  5
479
100
AcDbEntity
  8
0
100
AcDbCircle
 62
7
  6
CONTINUOUS
 10
13.1099621256
 20
-16.5771553753
 40
1.6311921079
100
AcDbArc
 50
71.283402292
 51
72.1466495887
  0
ARC
  5
47A
100
AcDbEntity
  8
0
100
AcDbCircle
 62
7
  6
CONTINUOUS
 10
4.1574610158
 20
-7.9922995825
 40
11.3465614962
100
AcDbArc
 50
318.3739669499
 51
318.6083337876
  0
ARC
  5
47B
100
AcDbEntity
  8
0
100
AcDbCircle
 62
7
  6
CONTINUOUS
 10
4.3661835758
 20
3.4781955971
 40
4.1854236394
100
AcDbArc
 50
214.5460818325
 51
214.9098845362
  0
ARC
  5
47C
100
AcDbEntity
  8
GUSCI_ESTERNI
100
AcDbCircle
 62
7
  6
CONTINUOUS
 10
3.869899985
 20
0.4764000969
 40
3.540907835
100
AcDbArc
 50
155.4580021534
 51
155.7365174516
  0
ARC
  5
47D
100
AcDbEntity
  8
GUSCI_ESTERNI
100
AcDbCircle
 62
7
  6
CONTINUOUS
 10
3.8659659048
 20
0.4782985421
 40
3.536540634
100
AcDbArc
 50
152.3836790246
 51
155.4595068121
  0
ARC
  5
47E
100
AcDbEntity
  8
GUSCI_ESTERNI
100
AcDbCircle
 62
7
  6
CONTINUOUS
 10
3.8501556379
 20
0.4864820372
 40
3.5187380214
100
AcDbArc
 50
149.0441429057
 51
152.2213930465
  0
ARC
  5
47F
100
AcDbEntity
  8
GUSCI_ESTERNI
100
AcDbCircle
 62
7
  6
CONTINUOUS
 10
3.8495189179
 20
0.4867604662
 40
3.5180449168
100
AcDbArc
 50
152.2205721236
 51
152.3816252475
  0
ARC
  5
480
100
AcDbEntity
  8
GUSCI_ESTERNI
100
AcDbCircle
 62
7
  6
CONTINUOUS
 10
3.8443819956
 20
0.4875417946
 40
3.5130654875
100
AcDbArc
 50
155.7311566708
 51
159.1376818352
  0
ARC
  5
481
100
AcDbEntity
  8
GUSCI_ESTERNI
100
AcDbCircle
 62
7
  6
CONTINUOUS
 10
3.8357003828
 20
0.4950521726
 40
3.5019334331
100
AcDbArc
 50
148.8329317028
 51
149.0427355161
  0
ARC
  5
482
100
AcDbEntity
  8
GUSCI_ESTERNI
100
AcDbCircle
 62
7
  6
CONTINUOUS
 10
3.8272898987
 20
0.5001586166
 40
3.4920941377
100
AcDbArc
 50
148.0832875991
 51
148.8332051637
  0
ARC
  5
483
100
AcDbEntity
  8
GUSCI_ESTERNI
100
AcDbCircle
 62
7
  6
CONTINUOUS
 10
3.7882610343
 20
0.5247822026
 40
3.4459476205
100
AcDbArc
 50
145.6581553782
 51
148.0877256622
  0
ARC
  5
484
100
AcDbEntity
  8
0
100
AcDbCircle
 62
7
  6
CONTINUOUS
 10
5.8711546412
 20
17.0897520177
 40
6.1047882179
100
AcDbArc
 50
344.5736484591
 51
346.5382507689
  0
ARC
  5
485
100
AcDbEntity
  8
0
100
AcDbCircle
 62
7
  6
CONTINUOUS
 10
6.7413852167
 20
15.9350874418
 40
5.0868234582
100
AcDbArc
 50
357.497627061
 51
3.7592181855
  0
ARC
  5
486
100
AcDbEntity
  8
0
100
AcDbCircle
 62
7
  6
CONTINUOUS
 10
9.5137112209
 20
16.1394384533
 40
3.1420545284
100
AcDbArc
 50
334.5242772553
 51
338.261721618
  0
ARC
  5
487
100
AcDbEntity
  8
0
100
AcDbCircle
 62
7
  6
CONTINUOUS
 10
9.8158187053
 20
16.1667433748
 40
2.8852110278
100
AcDbArc
 50
330.5286307609
 51
331.4527899208
  0
ARC
  5
488
100
AcDbEntity
  8
0
100
AcDbCircle
 62
7
  6
CONTINUOUS
 10
10.2084992904
 20
16.7698436766
 40
2.8573139159
100
AcDbArc
 50
321.1043222007
 51
325.0113634316
  0
ARC
  5
489
100
AcDbEntity
  8
0
100
AcDbCircle
 62
7
  6
CONTINUOUS
 10
10.2432976556
 20
16.5564409443
 40
2.7108646823
100
AcDbArc
 50
328.2866236593
 51
329.2375807621
  0
ARC
  5
48A
100
AcDbEntity
  8
RACCORDO
100
AcDbCircle
 62
250
  6
CONTINUOUS
 10
10.9037342256
 20
16.0980843758
 40
2.1454555144
100
AcDbArc
 50
356.7774119539
 51
359.3638610184
  0
ARC
  5
48B
100
AcDbEntity
  8
0
100
AcDbCircle
 62
7
  6
CONTINUOUS
 10
10.8761466294
 20
14.6606365532
 40
1.9516019685
100
AcDbArc
 50
40.9456228014
 51
41.9465260136
  0
ARC
  5
48C
100
AcDbEntity
  8
GUSCI_ESTERNI
100
AcDbCircle
 62
7
  6
CONTINUOUS
 10
10.5892793349
 20
8.9217179505
 40
1.6076186059
100
AcDbArc
 50
154.4424927601
 51
160.5143699791
  0
ARC
  5
48D
100
AcDbEntity
  8
GUSCI_ESTERNI
100
AcDbCircle
 62
7
  6
CONTINUOUS
 10
10.5228612857
 20
8.9457191194
 40
1.5369986305
100
AcDbArc
 50
160.5319430255
 51
164.2866855753
  0
ARC
  5
48E
100
AcDbEntity
  8
GUSCI_ESTERNI
100
AcDbCircle
 62
7
  6
CONTINUOUS
 10
10.468812681
 20
8.9610109804
 40
1.480828482
100
AcDbArc
 50
164.2898861168
 51
166.6603130124
  0
ARC
  5
48F
100
AcDbEntity
  8
0
100
AcDbCircle
 62
7
  6
CONTINUOUS
 10
8.167385127
 20
9.8557887864
 40
0.6007840611
100
AcDbArc
 50
2.1885413588
 51
3.9329032506
  0
ARC
  5
490
100
AcDbEntity
  8
0
100
AcDbCircle
 62
7
  6
CONTINUOUS
 10
8.0815785847
 20
9.8098443655
 40
0.5815856859
100
AcDbArc
 50
0.8026774117
 51
1.4197713629
  0
ARC
  5
491
100
AcDbEntity
  8
0
100
AcDbCircle
 62
7
  6
CONTINUOUS
 10
8.0893808406
 20
9.809953362
 40
0.5737826688
100
AcDbArc
 50
0.1798256545
 51
0.8027088922
  0
ARC
  5
492
100
AcDbEntity
  8
0
100
AcDbCircle
 62
7
  6
CONTINUOUS
 10
8.1094535683
 20
9.8099054078
 40
0.5537102016
100
AcDbArc
 50
357.6349805681
 51
0.1913066539
  0
ARC
  5
493
100
AcDbEntity
  8
RACCORDO
100
AcDbCircle
 62
250
  6
CONTINUOUS
 10
4.9810542789
 20
7.0021901989
 40
0.4869524204
100
AcDbArc
 50
25.610076213
 51
31.414429125
  0
ARC
  5
494
100
AcDbEntity
  8
0
100
AcDbCircle
 62
7
  6
CONTINUOUS
 10
8.1967817626
 20
7.8683986428
 40
0.4231243846
100
AcDbArc
 50
347.9670718724
 51
348.5390562975
  0
ARC
  5
495
100
AcDbEntity
  8
0
100
AcDbCircle
 62
7
  6
CONTINUOUS
 10
6.1264499069
 20
11.1702851848
 40
0.3697059025
100
AcDbArc
 50
63.8048346515
 51
68.0647590972
  0
ARC
  5
496
100
AcDbEntity
  8
0
100
AcDbCircle
 62
7
  6
CONTINUOUS
 10
8.3803550763
 20
7.7720179947
 40
0.211781819
100
AcDbArc
 50
297.70889359
 51
307.8548439775
  0
ARC
  5
497
100
AcDbEntity
  8
0
100
AcDbCircle
 62
7
  6
CONTINUOUS
 10
8.3796516332
 20
7.7656035261
 40
0.2061788499
100
AcDbArc
 50
293.9798642888
 51
295.0438126627
  0
ARC
  5
498
100
AcDbEntity
  8
0
100
AcDbCircle
 62
7
  6
CONTINUOUS
 10
8.383171815
 20
7.7671185432
 40
0.2061346165
100
AcDbArc
 50
293.9795381211
 51
297.6489738697
  0
ARC
  5
499
100
AcDbEntity
  8
0
100
AcDbCircle
 62
7
  6
CONTINUOUS
 10
10.9697355724
 20
-4.3854359531
 40
20.2424025917
100
AcDbArc
 50
85.6313495441
 51
85.7986530854
  0
ARC
  5
49A
100
AcDbEntity
  8
0
100
AcDbCircle
 62
7
  6
CONTINUOUS
 10
11.7531848246
 20
6.2116825217
 40
9.6163656795
100
AcDbArc
 50
85.8283344113
 51
85.9502361936
  0
ARC
  5
49B
100
AcDbEntity
  8
0
100
AcDbCircle
 62
7
  6
CONTINUOUS
 10
18.0672551979
 20
15.3068819244
 40
7.454443684
100
AcDbArc
 50
102.6176726766
 51
103.0698628642
  0
ARC
  5
49C
100
AcDbEntity
  8
0
100
AcDbCircle
 62
7
  6
CONTINUOUS
 10
14.7845590624
 20
15.3621059756
 40
7.3809435368
100
AcDbArc
 50
77.5045533205
 51
80.8240771529
  0
ARC
  5
49D
100
AcDbEntity
  8
0
100
AcDbCircle
 62
7
  6
CONTINUOUS
 10
15.2556280058
 20
16.8903515268
 40
4.1854236391
100
AcDbArc
 50
214.5460818325
 51
214.9098845362
  0
ARC
  5
49E
100
AcDbEntity
  8
RACCORDO
100
AcDbCircle
 62
250
  6
CONTINUOUS
 10
12.9266954511
 20
14.9443815969
 40
2.5543818453
100
AcDbArc
 50
133.3622437162
 51
138.4395421084
  0
ARC
  5
49F
100
AcDbEntity
  8
0
100
AcDbCircle
 62
7
  6
CONTINUOUS
 10
12.3540296855
 20
16.7143468833
 40
2.1840634616
100
AcDbArc
 50
249.1961189609
 51
250.0569917248
  0
ARC
  5
4A0
100
AcDbEntity
  8
RACCORDO
100
AcDbCircle
 62
250
  6
CONTINUOUS
 10
11.0042931238
 20
16.0962194413
 40
2.0448822457
100
AcDbArc
 50
359.3848295449
 51
359.9991421535
  0
ARC
  5
4A1
100
AcDbEntity
  8
RACCORDO
100
AcDbCircle
 62
7
  6
CONTINUOUS
 10
11.0107174725
 20
16.1033933152
 40
2.039500382
100
AcDbArc
 50
359.8004978795
 51
359.9998983756
  0
ARC
  5
4A2
100
AcDbEntity
  8
RACCORDO
100
AcDbCircle
 62
250
  6
CONTINUOUS
 10
12.5996720358
 20
15.3431327825
 40
1.9562185445
100
AcDbArc
 50
124.0669615133
 51
127.4766194983
  0
ARC
  5
4A3
100
AcDbEntity
  8
0
100
AcDbCircle
 62
7
  6
CONTINUOUS
 10
12.0493019537
 20
14.2426341556
 40
1.6311921081
100
AcDbArc
 50
71.2834022921
 51
72.1466495887
  0
ARC
  5
4A4
100
AcDbEntity
  8
RACCORDO
100
AcDbCircle
 62
250
  6
CONTINUOUS
 10
12.2276402793
 20
16.4828726469
 40
0.7246519481
100
AcDbArc
 50
57.2126793901
 51
67.2341264473
  0
ARC
  5
4A5
100
AcDbEntity
  8
RACCORDO
100
AcDbCircle
 62
250
  6
CONTINUOUS
 10
-17.0243201919
 20
17.6929734558
 40
1.0124865368
100
AcDbArc
 50
120.0094198809
 51
120.9133941283
  0
ARC
  5
4A6
100
AcDbEntity
  8
RACCORDO
100
AcDbCircle
 62
7
  6
CONTINUOUS
 10
-16.642881325
 20
18.7455097206
 40
0.2510473653
100
AcDbArc
 50
243.4631740971
 51
258.1750029898
  0
ARC
  5
4A7
100
AcDbEntity
  8
RACCORDO
100
AcDbCircle
 62
7
  6
CONTINUOUS
 10
-14.515741757
 20
19.8020886943
 40
0.2500044269
100
AcDbArc
 50
320.5924959403
 51
359.9991037803
  0
ARC
  5
4A8
100
AcDbEntity
  8
RACCORDO
100
AcDbCircle
 62
7
  6
CONTINUOUS
 10
-14.5157396674
 20
20.1496173695
 40
0.2500021202
100
AcDbArc
 50
0.0018403594
 51
63.4346144876
  0
ARC
  5
4A9
100
AcDbEntity
  8
RACCORDO
100
AcDbCircle
 62
7
  6
CONTINUOUS
 10
-17.9682110459
 20
19.7469774548
 40
0.2500019648
100
AcDbArc
 50
117.1590003956
 51
179.9982785534
  0
ARC
  5
4AA
100
AcDbEntity
  8
RACCORDO
100
AcDbCircle
 62
7
  6
CONTINUOUS
 10
-15.8530630928
 20
20.8182798606
 40
0.250001424
100
AcDbArc
 50
63.4352355626
 51
115.9737880832
  0
ARC
  5
4AB
100
AcDbEntity
  8
RACCORDO
100
AcDbCircle
 62
7
  6
CONTINUOUS
 10
-17.9682119003
 20
19.4070052647
 40
0.2500010156
100
AcDbArc
 50
179.9973937935
 51
243.4448180614
  0
ARC
  5
4AC
100
AcDbEntity
  8
RACCORDO
100
AcDbCircle
 62
7
  6
CONTINUOUS
 10
-12.4160055039
 20
17.682475303
 40
0.2257734613
100
AcDbArc
 50
180.0339733368
 51
180.2049219894
  0
ARC
  5
4AD
100
AcDbEntity
  8
RACCORDO
100
AcDbCircle
 62
250
  6
CONTINUOUS
 10
-17.5232919657
 20
18.6623455256
 40
0.0929106608
100
AcDbArc
 50
265.4216997693
 51
271.0178257237
  0
ARC
  5
4AE
100
AcDbEntity
  8
RACCORDO
100
AcDbCircle
 62
250
  6
CONTINUOUS
 10
-14.3381105443
 20
19.6561454382
 40
0.0201077554
100
AcDbArc
 50
320.5893125086
 51
322.4421549304
  0
ARC
  5
4AF
100
AcDbEntity
  8
DRAFT
100
AcDbCircle
 62
7
  6
CONTINUOUS
 10
-3.3327572438
 20
23.4992112468
 40
3.7221171122
100
AcDbArc
 50
332.1831763973
 51
338.1341913975
  0
ARC
  5
4B0
100
AcDbEntity
  8
0
100
AcDbCircle
 62
7
  6
CONTINUOUS
 10
1.6873378918
 20
19.1437366573
 40
10.7008834106
100
AcDbArc
 50
341.0493215054
 51
341.3005563422
  0
ARC
  5
4B1
100
AcDbEntity
  8
0
100
AcDbCircle
 62
7
  6
CONTINUOUS
 10
10.3386321709
 20
19.1074846358
 40
7.5000782112
100
AcDbArc
 50
102.3219011249
 51
102.7729563173
  0
ARC
  5
4B2
100
AcDbEntity
  8
0
100
AcDbCircle
 62
7
  6
CONTINUOUS
 10
7.0569390229
 20
19.2707643987
 40
7.3331754561
100
AcDbArc
 50
77.2091311603
 51
80.5380672238
  0
ARC
  5
4B3
100
AcDbEntity
  8
0
100
AcDbCircle
 62
7
  6
CONTINUOUS
 10
7.3000799708
 20
19.969854661
 40
6.3356971005
100
AcDbArc
 50
312.8525185206
 51
314.6927602648
  0
ARC
  5
4B4
100
AcDbEntity
  8
0
100
AcDbCircle
 62
7
  6
CONTINUOUS
 10
13.0324177661
 20
18.059677781
 40
5.8224936798
100
AcDbArc
 50
44.6866699456
 51
45.0578135595
  0
ARC
  5
4B5
100
AcDbEntity
  8
0
100
AcDbCircle
 62
7
  6
CONTINUOUS
 10
13.0989033465
 20
18.1262839908
 40
5.7283835343
100
AcDbArc
 50
45.0579102072
 51
45.3937444872
  0
ARC
  5
4B6
100
AcDbEntity
  8
0
100
AcDbCircle
 62
7
  6
CONTINUOUS
 10
19.7543667826
 20
18.2085155379
 40
5.7208624895
100
AcDbArc
 50
135.7818423862
 51
136.2226716325
  0
ARC
  5
4B7
100
AcDbEntity
  8
0
100
AcDbCircle
 62
7
  6
CONTINUOUS
 10
8.8003204345
 20
19.9092539149
 40
5.3899413778
100
AcDbArc
 50
295.3732189478
 51
301.024417693
  0
ARC
  5
4B8
100
AcDbEntity
  8
0
100
AcDbCircle
 62
7
  6
CONTINUOUS
 10
17.0997132363
 20
18.3850422522
 40
4.8667074245
100
AcDbArc
 50
113.4612216459
 51
120.4730988652
  0
ARC
  5
4B9
100
AcDbEntity
  8
RACCORDO
100
AcDbCircle
 62
7
  6
CONTINUOUS
 10
16.3943446322
 20
18.3301791308
 40
4.7870797139
100
AcDbArc
 50
85.0922799849
 51
85.9967339862
  0
ARC
  5
4BA
100
AcDbEntity
  8
0
100
AcDbCircle
 62
7
  6
CONTINUOUS
 10
20.2512783598
 20
18.5886331373
 40
4.7823043068
100
AcDbArc
 50
130.3944383867
 51
130.8771460149
  0
ARC
  5
4BB
100
AcDbEntity
  8
0
100
AcDbCircle
 62
250
  6
CONTINUOUS
 10
16.393460547
 20
18.4372129771
 40
4.6728765093
100
AcDbArc
 50
85.4593107155
 51
85.8951957703
  0
ARC
  5
4BC
100
AcDbEntity
  8
0
100
AcDbCircle
 62
7
  6
CONTINUOUS
 10
13.9018409316
 20
18.1760806086
 40
4.463485421
100
AcDbArc
 50
79.3325014362
 51
80.4925517894
  0
ARC
  5
4BD
100
AcDbEntity
  8
RACCORDO
100
AcDbCircle
 62
7
  6
CONTINUOUS
 10
15.7133730559
 20
20.56555402
 40
2.4394974835
100
AcDbArc
 50
117.7341107764
 51
118.2495107737
  0
ARC
  5
4BE
100
AcDbEntity
  8
RACCORDO
100
AcDbCircle
 62
7
  6
CONTINUOUS
 10
15.6873085378
 20
20.613959297
 40
2.3845208752
100
AcDbArc
 50
118.2483263643
 51
119.0810098183
  0
ARC
  5
4BF
100
AcDbEntity
  8
0
100
AcDbCircle
 62
250
  6
CONTINUOUS
 10
15.6202355932
 20
20.8917657391
 40
2.0843698763
100
AcDbArc
 50
119.6181751073
 51
120.093763731
  0
ARC
  5
4C0
100
AcDbEntity
  8
0
100
AcDbCircle
 62
250
  6
CONTINUOUS
 10
15.5975591336
 20
20.9308409507
 40
2.0391914164
100
AcDbArc
 50
120.0930093071
 51
120.7752254087
  0
ARC
  5
4C1
100
AcDbEntity
  8
0
100
AcDbCircle
 62
7
  6
CONTINUOUS
 10
3.0968008444
 20
22.8274899483
 40
11.3465614957
100
AcDbArc
 50
318.3739669499
 51
318.6083337876
  0
ARC
  5
4C2
100
AcDbEntity
  8
0
100
AcDbCircle
 62
7
  6
CONTINUOUS
 10
9.3913282338
 20
22.1968093951
 40
4.903780378
100
AcDbArc
 50
113.0686200051
 51
119.4105904602
  0
ARC
  5
4C3
100
AcDbEntity
  8
RACCORDO
100
AcDbCircle
 62
7
  6
CONTINUOUS
 10
8.6887892176
 20
22.2070422998
 40
4.7638699556
100
AcDbArc
 50
84.8864261812
 51
85.4023833671
  0
ARC
  5
4C4
100
AcDbEntity
  8
GUSCI_ESTERNI
100
AcDbCircle
 62
250
  6
CONTINUOUS
 10
9.1906823505
 20
23.4629402832
 40
4.0961351029
100
AcDbArc
 50
67.5422229899
 51
71.2946357055
  0
ARC
  5
4C5
100
AcDbEntity
  8
RACCORDO
100
AcDbCircle
 62
7
  6
CONTINUOUS
 10
8.0122110045
 20
24.4074528766
 40
2.4529028827
100
AcDbArc
 50
117.7311296934
 51
117.9390987884
  0
ARC
  5
4C6
100
AcDbEntity
  8
RACCORDO
100
AcDbCircle
 62
7
  6
CONTINUOUS
 10
7.9330329283
 20
24.5526034083
 40
2.2875735096
100
AcDbArc
 50
117.8904639356
 51
121.3715427498
  0
ARC
  5
4C7
100
AcDbEntity
  8
0
100
AcDbCircle
 62
250
  6
CONTINUOUS
 10
7.9207563789
 20
24.731445332
 40
2.100530231
100
AcDbArc
 50
119.5943393514
 51
119.7340746978
  0
ARC
  5
4C8
100
AcDbEntity
  8
0
100
AcDbCircle
 62
250
  6
CONTINUOUS
 10
7.8586620752
 20
24.8386673366
 40
1.9766283344
100
AcDbArc
 50
119.7126445663
 51
123.4095528767
  0
ARC
  5
4C9
100
AcDbEntity
  8
0
100
AcDbCircle
 62
7
  6
CONTINUOUS
 10
69.1943845561
 20
62.1013528381
 40
91.4671143065
100
AcDbArc
 50
221.3546602561
 51
221.6120523202
  0
ARC
  5
4CA
100
AcDbEntity
  8
0
100
AcDbCircle
 62
7
  6
CONTINUOUS
 10
81.0847695278
 20
44.6408348939
 40
91.3873448027
100
AcDbArc
 50
221.3539682457
 51
221.6121271768
  0
ARC
  5
4CB
100
AcDbEntity
  8
0
100
AcDbCircle
 62
7
  6
CONTINUOUS
 10
73.2597400364
 20
69.4728852242
 40
82.3535498031
100
AcDbArc
 50
221.2604980334
 51
221.6227956634
  0
ARC
  5
4CC
100
AcDbEntity
  8
RACCORDO
100
AcDbCircle
 62
250
  6
CONTINUOUS
 10
536.482792327
 20
-3.9999746389
 40
559.641728177
100
AcDbArc
 50
178.1379058691
 51
179.0233778125
  0
ARC
  5
4CD
100
AcDbEntity
  8
RACCORDO
100
AcDbCircle
 62
250
  6
CONTINUOUS
 10
531.2208697285
 20
-10.770140639
 40
540.5011191515
100
AcDbArc
 50
178.774948606
 51
179.626273001
  0
ARC
  5
4CE
100
AcDbEntity
  8
RACCORDO
100
AcDbCircle
 62
7
  6
CONTINUOUS
 10
531.0506926761
 20
-10.6805751342
 40
540.4041582799
100
AcDbArc
 50
178.7748975926
 51
179.635660552
  0
ARC
  5
4CF
100
AcDbEntity
  8
RACCORDO
100
AcDbCircle
 62
250
  6
CONTINUOUS
 10
528.3771223559
 20
-11.3025589506
 40
536.0192341119
100
AcDbArc
 50
178.0698072625
 51
179.9339452354
  0
ARC
  5
4D0
100
AcDbEntity
  8
RACCORDO
100
AcDbCircle
 62
7
  6
CONTINUOUS
 10
523.8061722806
 20
-10.6292729348
 40
533.1594581545
100
AcDbArc
 50
179.6362230353
 51
179.9088478493
  0
ARC
  5
4D1
100
AcDbEntity
  8
RACCORDO
100
AcDbCircle
 62
250
  6
CONTINUOUS
 10
499.9498588855
 20
-3.9023015987
 40
523.1070059919
100
AcDbArc
 50
180.0655347092
 51
181.920190429
  0
ARC
  5
4D2
100
AcDbEntity
  8
RACCORDO
100
AcDbCircle
 62
250
  6
CONTINUOUS
 10
513.186000619
 20
-10.7237896726
 40
522.4663362296
100
AcDbArc
 50
179.6184554419
 51
181.2464509141
  0
ARC
  5
4D3
100
AcDbEntity
  8
RACCORDO
100
AcDbCircle
 62
250
  6
CONTINUOUS
 10
499.522952169
 20
-4.277485621
 40
521.7429969687
100
AcDbArc
 50
180.1755863372
 51
181.2455734706
  0
ARC
  5
4D4
100
AcDbEntity
  8
RACCORDO
100
AcDbCircle
 62
250
  6
CONTINUOUS
 10
512.7942324674
 20
-11.0350457742
 40
521.1371316762
100
AcDbArc
 50
178.0417819713
 51
181.9582180287
  0
ARC
  5
4D5
100
AcDbEntity
  8
RACCORDO
100
AcDbCircle
 62
7
  6
CONTINUOUS
 10
511.4224547566
 20
-10.6632602971
 40
520.7758047897
100
AcDbArc
 50
179.9118670274
 51
181.2474059237
  0
ARC
  5
4D6
100
AcDbEntity
  8
RACCORDO
100
AcDbCircle
 62
250
  6
CONTINUOUS
 10
497.7881424824
 20
-4.3041488665
 40
519.6544859415
100
AcDbArc
 50
180.403538527
 51
181.2470124809
  0
ARC
  5
4D7
100
AcDbEntity
  8
RACCORDO
100
AcDbCircle
 62
250
  6
CONTINUOUS
 10
502.7276572296
 20
-11.2137038013
 40
510.3696870357
100
AcDbArc
 50
179.9406007103
 51
181.9778389976
  0
SPLINE
  5
4D8
100
AcDbEntity
  8
RACCORDO
100
AcDbSpline
 62
7
  6
CONTINUOUS
 70
0
 71
3
 72
9
 73
5
 74
0
 42
0.0000001
 43
0.0000001
 44
0.0000000001
 40
0.0
 40
0.0
 40
0.0
 40
0.0
 40
0.2438942813
 40
1.0
 40
1.0
 40
1.0
 40
1.0
 10
3.8175726802
 20
9.0039249386
 30
0.0
 10
3.8195292591
 20
8.9551847014
 30
0.0
 10
3.8239769615
 20
8.7552078872
 30
0.0
 10
3.8145414523
 20
8.5549853034
 30
0.0
 10
3.800572433
 20
8.4044087521
 30
0.0
  0
SPLINE
  5
4D9
100
AcDbEntity
  8
RACCORDO
100
AcDbSpline
 62
7
  6
CONTINUOUS
 70
0
 71
3
 72
11
 73
7
 74
0
 42
0.0000001
 43
0.0000001
 44
0.0000000001
 40
0.0
 40
0.0
 40
0.0
 40
0.0
 40
0.2737850129
 40
0.5289923061
 40
0.7687508175
 40
1.0
 40
1.0
 40
1.0
 40
1.0
 10
7.7520568076
 20
7.3747978259
 30
0.0
 10
7.7707788452
 20
7.3655987783
 30
0.0
 10
7.8084969371
 20
7.3507123312
 30
0.0
 10
7.8664782894
 20
7.3398658452
 30
0.0
 10
7.9222643272
 20
7.3420673771
 30
0.0
 10
7.9571128139
 20
7.3523847281
 30
0.0
 10
7.9732152647
 20
7.3595362056
 30
0.0
  0
SPLINE
  5
4DA
100
AcDbEntity
  8
RACCORDO
100
AcDbSpline
 62
7
  6
CONTINUOUS
 70
0
 71
3
 72
9
 73
5
 74
0
 42
0.0000001
 43
0.0000001
 44
0.0000000001
 40
0.0
 40
0.0
 40
0.0
 40
0.0
 40
0.4852035298
 40
1.0
 40
1.0
 40
1.0
 40
1.0
 10
5.2740216138
 20
9.0431404725
 30
0.0
 10
5.2714390812
 20
8.9809402678
 30
0.0
 10
5.2878663752
 20
8.8516050252
 30
0.0
 10
5.3364821468
 20
8.7312913837
 30
0.0
 10
5.3687358227
 20
8.673651158
 30
0.0
  0
SPLINE
  5
4DB
100
AcDbEntity
  8
0
100
AcDbSpline
 62
7
  6
CONTINUOUS
 70
0
 71
3
 72
9
 73
5
 74
0
 42
0.0000001
 43
0.0000001
 44
0.0000000001
 40
0.0
 40
0.0
 40
0.0
 40
0.0
 40
0.2544973243
 40
1.0
 40
1.0
 40
1.0
 40
1.0
 10
8.6076219833
 20
7.7810734145
 30
0.0
 10
8.6068209488
 20
7.7772022674
 30
0.0
 10
8.6034605524
 20
7.7620364818
 30
0.0
 10
8.5992390513
 20
7.7470588229
 30
0.0
 10
8.5955806794
 20
7.736071853
 30
0.0
  0
SPLINE
  5
4DC
100
AcDbEntity
  8
0
100
AcDbSpline
 62
7
  6
CONTINUOUS
 70
0
 71
3
 72
9
 73
5
 74
0
 42
0.0000001
 43
0.0000001
 44
0.0000000001
 40
0.0
 40
0.0
 40
0.0
 40
0.0
 40
0.2648271901
 40
1.0
 40
1.0
 40
1.0
 40
1.0
 10
8.5955806794
 20
7.736071853
 30
0.0
 10
8.592142013
 20
7.7257447112
 30
0.0
 10
8.5774914281
 20
7.6873639221
 30
0.0
 10
8.5554184378
 20
7.6515107726
 30
0.0
 10
8.5349864543
 20
7.629249846
 30
0.0
  0
SPLINE
  5
4DD
100
AcDbEntity
  8
0
100
AcDbSpline
 62
7
  6
CONTINUOUS
 70
0
 71
3
 72
9
 73
5
 74
0
 42
0.0000001
 43
0.0000001
 44
0.0000000001
 40
0.0
 40
0.0
 40
0.0
 40
0.0
 40
0.2533106455
 40
1.0
 40
1.0
 40
1.0
 40
1.0
 10
8.5349864543
 20
7.629249846
 30
0.0
 10
8.5327706376
 20
7.6268356832
 30
0.0
 10
8.5238293447
 20
7.6174855257
 30
0.0
 10
8.5141055349
 20
7.6088795617
 30
0.0
 10
8.5064625668
 20
7.6029729179
 30
0.0
  0
SPLINE
  5
4DE
100
AcDbEntity
  8
0
100
AcDbSpline
 62
7
  6
CONTINUOUS
 70
0
 71
3
 72
9
 73
5
 74
0
 42
0.0000001
 43
0.0000001
 44
0.0000000001
 40
0.0
 40
0.0
 40
0.0
 40
0.0
 40
0.2520229759
 40
1.0
 40
1.0
 40
1.0
 40
1.0
 10
8.5064625668
 20
7.6029729179
 30
0.0
 10
8.5033792298
 20
7.6005900512
 30
0.0
 10
8.4908950936
 20
7.5914634366
 30
0.0
 10
8.4774073899
 20
7.5837044391
 30
0.0
 10
8.4669294432
 20
7.5788087135
 30
0.0
  0
SPLINE
  5
4DF
100
AcDbEntity
  8
0
100
AcDbSpline
 62
7
  6
CONTINUOUS
 70
0
 71
3
 72
9
 73
5
 74
0
 42
0.0000001
 43
0.0000001
 44
0.0000000001
 40
0.0
 40
0.0
 40
0.0
 40
0.0
 40
0.2595019932
 40
1.0
 40
1.0
 40
1.0
 40
1.0
 10
8.6790953091
 20
7.8196690159
 30
0.0
 10
8.6776593363
 20
7.8120758638
 30
0.0
 10
8.6713601899
 20
7.7829718948
 30
0.0
 10
8.6619041565
 20
7.7545008131
 30
0.0
 10
8.6528729197
 20
7.7343836553
 30
0.0
  0
SPLINE
  5
4E0
100
AcDbEntity
  8
0
100
AcDbSpline
 62
7
  6
CONTINUOUS
 70
0
 71
3
 72
9
 73
5
 74
0
 42
0.0000001
 43
0.0000001
 44
0.0000000001
 40
0.0
 40
0.0
 40
0.0
 40
0.0
 40
0.5205572216
 40
1.0
 40
1.0
 40
1.0
 40
1.0
 10
8.6528729197
 20
7.7343836553
 30
0.0
 10
8.6402962813
 20
7.7063690849
 30
0.0
 10
8.6082320302
 20
7.6553521135
 30
0.0
 10
8.5590023643
 20
7.619657765
 30
0.0
 10
8.5331521468
 20
7.6081826054
 30
0.0
  0
SPLINE
  5
4E1
100
AcDbEntity
  8
RACCORDO
100
AcDbSpline
 62
7
  6
CONTINUOUS
 70
0
 71
3
 72
11
 73
7
 74
0
 42
0.0000001
 43
0.0000001
 44
0.0000000001
 40
0.0
 40
0.0
 40
0.0
 40
0.0
 40
0.2197931869
 40
0.4543272386
 40
0.7136327975
 40
1.0
 40
1.0
 40
1.0
 40
1.0
 10
7.9732152647
 20
7.3595362056
 30
0.0
 10
7.995786033
 20
7.3695604151
 30
0.0
 10
8.0389391175
 20
7.3991050495
 30
0.0
 10
8.0870005791
 20
7.4648187041
 30
0.0
 10
8.1176495384
 20
7.5479012181
 30
0.0
 10
8.1256885772
 20
7.6091725326
 30
0.0
 10
8.1270234104
 20
7.6413219439
 30
0.0
  0
SPLINE
  5
4E2
100
AcDbEntity
  8
RACCORDO
100
AcDbSpline
 62
7
  6
CONTINUOUS
 70
0
 71
3
 72
9
 73
5
 74
0
 42
0.0000001
 43
0.0000001
 44
0.0000000001
 40
0.0
 40
0.0
 40
0.0
 40
0.0
 40
0.2387300777
 40
1.0
 40
1.0
 40
1.0
 40
1.0
 10
8.2077254749
 20
9.585028254
 30
0.0
 10
8.2084308194
 20
9.6020164506
 30
0.0
 10
8.2079653602
 20
9.6733027525
 30
0.0
 10
8.1950481107
 20
9.7442983273
 30
0.0
 10
8.1797070333
 20
9.796301877
 30
0.0
  0
SPLINE
  5
4E3
100
AcDbEntity
  8
0
100
AcDbSpline
 62
7
  6
CONTINUOUS
 70
0
 71
3
 72
9
 73
5
 74
0
 42
0.0000001
 43
0.0000001
 44
0.0000000001
 40
0.0
 40
0.0
 40
0.0
 40
0.0
 40
0.247136192
 40
1.0
 40
1.0
 40
1.0
 40
1.0
 10
8.5103177672
 20
7.6048018536
 30
0.0
 10
8.5128518953
 20
7.6067686379
 30
0.0
 10
8.5229298601
 20
7.6149518973
 30
0.0
 10
8.5322875963
 20
7.624016318
 30
0.0
 10
8.5388779918
 20
7.6312316479
 30
0.0
  0
SPLINE
  5
4E4
100
AcDbEntity
  8
0
100
AcDbSpline
 62
7
  6
CONTINUOUS
 70
0
 71
3
 72
9
 73
5
 74
0
 42
0.0000001
 43
0.0000001
 44
0.0000000001
 40
0.0
 40
0.0
 40
0.0
 40
0.0
 40
0.2371298599
 40
1.0
 40
1.0
 40
1.0
 40
1.0
 10
8.5388779918
 20
7.6312316479
 30
0.0
 10
8.5454925687
 20
7.6384734523
 30
0.0
 10
8.5715209397
 20
7.6707206789
 30
0.0
 10
8.5896330168
 20
7.7089093834
 30
0.0
 10
8.5994946019
 20
7.7388819516
 30
0.0
  0
SPLINE
  5
4E5
100
AcDbEntity
  8
0
100
AcDbSpline
 62
7
  6
CONTINUOUS
 70
0
 71
3
 72
9
 73
5
 74
0
 42
0.0000001
 43
0.0000001
 44
0.0000000001
 40
0.0
 40
0.0
 40
0.0
 40
0.0
 40
0.2459347986
 40
1.0
 40
1.0
 40
1.0
 40
1.0
 10
8.5994946019
 20
7.7388819516
 30
0.0
 10
8.6005908702
 20
7.742213868
 30
0.0
 10
8.6048571094
 20
7.7558242736
 30
0.0
 10
8.6083670498
 20
7.7696698081
 30
0.0
 10
8.6106092377
 20
7.7801882936
 30
0.0
  0
SPLINE
  5
4E6
100
AcDbEntity
  8
0
100
AcDbSpline
 62
7
  6
CONTINUOUS
 70
0
 71
3
 72
11
 73
7
 74
0
 42
0.0000001
 43
0.0000001
 44
0.0000000001
 40
0.0
 40
0.0
 40
0.0
 40
0.0
 40
0.2227820066
 40
0.4556618521
 40
0.7124558606
 40
1.0
 40
1.0
 40
1.0
 40
1.0
 10
10.0411806515
 20
26.7664095055
 30
0.0
 10
10.0540063551
 20
26.7621847183
 30
0.0
 10
10.0789244049
 20
26.7487136854
 30
0.0
 10
10.1077656786
 20
26.7155256155
 30
0.0
 10
10.1268054819
 20
26.6718065502
 30
0.0
 10
10.1323578205
 20
26.6389803377
 30
0.0
 10
10.133670641
 20
26.6216007772
 30
0.0
  0
LINE
  5
4E7
100
AcDbEntity
  8
0
100
AcDbLine
 62
7
  6
CONTINUOUS
 10
10.133670641
 20
26.6216007772
 11
10.1509038868
 21
26.3934199984
  0
SPLINE
  5
4E8
100
AcDbEntity
  8
RACCORDO
100
AcDbSpline
 62
7
  6
CONTINUOUS
 70
0
 71
3
 72
9
 73
5
 74
0
 42
0.0000001
 43
0.0000001
 44
0.0000000001
 40
0.0
 40
0.0
 40
0.0
 40
0.0
 40
0.2399888906
 40
1.0
 40
1.0
 40
1.0
 40
1.0
 10
6.8708188144
 20
26.5786176378
 30
0.0
 10
6.9106115429
 20
26.5995369834
 30
0.0
 10
7.0788076397
 20
26.6821513747
 30
0.0
 10
7.2552242906
 20
26.7475017759
 30
0.0
 10
7.3913880345
 20
26.7890811888
 30
0.0
  0
SPLINE
  5
4E9
100
AcDbEntity
  8
RACCORDO
100
AcDbSpline
 62
7
  6
CONTINUOUS
 70
0
 71
3
 72
9
 73
5
 74
0
 42
0.0000001
 43
0.0000001
 44
0.0000000001
 40
0.0
 40
0.0
 40
0.0
 40
0.0
 40
0.4888251364
 40
1.0
 40
1.0
 40
1.0
 40
1.0
 10
7.3913880345
 20
26.7890811888
 30
0.0
 10
7.6554793736
 20
26.869724997
 30
0.0
 10
8.2148802804
 20
26.9739463819
 30
0.0
 10
8.7828234032
 20
26.9787304735
 30
0.0
 10
9.0706489361
 20
26.9555831398
 30
0.0
  0
SPLINE
  5
4EA
100
AcDbEntity
  8
RACCORDO
100
AcDbSpline
 62
7
  6
CONTINUOUS
 70
0
 71
3
 72
9
 73
5
 74
0
 42
0.0000001
 43
0.0000001
 44
0.0000000001
 40
0.0
 40
0.0
 40
0.0
 40
0.0
 40
0.5114971979
 40
1.0
 40
1.0
 40
1.0
 40
1.0
 10
9.1133942058
 20
26.9519519468
 30
0.0
 10
9.2647143772
 20
26.9384100537
 30
0.0
 10
9.5594721015
 20
26.8977081537
 30
0.0
 10
9.8486141531
 20
26.8267557209
 30
0.0
 10
9.9871686464
 20
26.783683184
 30
0.0
  0
SPLINE
  5
4EB
100
AcDbEntity
  8
0
100
AcDbSpline
 62
7
  6
CONTINUOUS
 70
0
 71
3
 72
9
 73
5
 74
0
 42
0.0000001
 43
0.0000001
 44
0.0000000001
 40
0.0
 40
0.0
 40
0.0
 40
0.0
 40
0.2453635582
 40
1.0
 40
1.0
 40
1.0
 40
1.0
 10
7.1598106612
 20
26.3962261772
 30
0.0
 10
7.2038889594
 20
26.3863173447
 30
0.0
 10
7.382935992
 20
26.34330079
 30
0.0
 10
7.55947474
 20
26.2899825501
 30
0.0
 10
7.6908347809
 20
26.2446881635
 30
0.0
  0
SPLINE
  5
4EC
100
AcDbEntity
  8
0
100
AcDbSpline
 62
7
  6
CONTINUOUS
 70
0
 71
3
 72
9
 73
5
 74
0
 42
0.0000001
 43
0.0000001
 44
0.0000000001
 40
0.0
 40
0.0
 40
0.0
 40
0.0
 40
0.2610384335
 40
1.0
 40
1.0
 40
1.0
 40
1.0
 10
9.9827847579
 20
26.7714102935
 30
0.0
 10
9.9878683508
 20
26.7720420011
 30
0.0
 10
10.0074338346
 20
26.773541514
 30
0.0
 10
10.0274070688
 20
26.770946524
 30
0.0
 10
10.0411806515
 20
26.7664095055
 30
0.0
  0
SPLINE
  5
4ED
100
AcDbEntity
  8
0
100
AcDbSpline
 62
250
  6
CONTINUOUS
 70
0
 71
3
 72
9
 73
5
 74
0
 42
0.0000001
 43
0.0000001
 44
0.0000000001
 40
0.0
 40
0.0
 40
0.0
 40
0.0
 40
0.485456582
 40
1.0
 40
1.0
 40
1.0
 40
1.0
 10
9.9827847579
 20
26.7714102935
 30
0.0
 10
9.8404437846
 20
26.8175363998
 30
0.0
 10
9.5406609866
 20
26.8928180104
 30
0.0
 10
9.2345958523
 20
26.9342124221
 30
0.0
 10
9.0765578012
 20
26.9474716348
 30
0.0
  0
LINE
  5
4EE
100
AcDbEntity
  8
0
100
AcDbLine
 62
250
  6
CONTINUOUS
 10
9.0765578012
 20
26.9474716348
 11
9.0699754978
 21
26.9480191739
  0
SPLINE
  5
4EF
100
AcDbEntity
  8
0
100
AcDbSpline
 62
250
  6
CONTINUOUS
 70
0
 71
3
 72
11
 73
7
 74
0
 42
0.0000001
 43
0.0000001
 44
0.0000000001
 40
0.0
 40
0.0
 40
0.0
 40
0.0
 40
0.2684884404
 40
0.5324969502
 40
0.7797133127
 40
1.0
 40
1.0
 40
1.0
 40
1.0
 10
9.0699754978
 20
26.9480191739
 30
0.0
 10
8.8693505979
 20
26.9645644058
 30
0.0
 10
8.4689316021
 20
26.971753035
 30
0.0
 10
7.8860542434
 20
26.9093042153
 30
0.0
 10
7.3518940804
 20
26.7776525965
 30
0.0
 10
7.0270155355
 20
26.6395163329
 30
0.0
 10
6.8833970037
 20
26.5579482139
 30
0.0
  0
SPLINE
  5
4F0
100
AcDbEntity
  8
0
100
AcDbSpline
 62
7
  6
CONTINUOUS
 70
0
 71
3
 72
9
 73
5
 74
0
 42
0.0000001
 43
0.0000001
 44
0.0000000001
 40
0.0
 40
0.0
 40
0.0
 40
0.0
 40
0.2610651741
 40
1.0
 40
1.0
 40
1.0
 40
1.0
 10
8.7380866564
 20
26.434791592
 30
0.0
 10
8.8420528105
 20
26.4774763076
 30
0.0
 10
9.2448445771
 20
26.6293270117
 30
0.0
 10
9.6671043185
 20
26.732182577
 30
0.0
 10
9.9827847579
 20
26.7714102935
 30
0.0
  0
SPLINE
  5
4F1
100
AcDbEntity
  8
0
100
AcDbSpline
 62
7
  6
CONTINUOUS
 70
0
 71
3
 72
9
 73
5
 74
0
 42
0.0000001
 43
0.0000001
 44
0.0000000001
 40
0.0
 40
0.0
 40
0.0
 40
0.0
 40
0.2436900569
 40
1.0
 40
1.0
 40
1.0
 40
1.0
 10
7.4698638542
 20
26.7084650373
 30
0.0
 10
7.5355073443
 20
26.6976217222
 30
0.0
 10
7.8038368434
 20
26.646913341
 30
0.0
 10
8.0674378652
 20
26.5720392866
 30
0.0
 10
8.2624564772
 20
26.5041723049
 30
0.0
  0
SPLINE
  5
4F2
100
AcDbEntity
  8
0
100
AcDbSpline
 62
7
  6
CONTINUOUS
 70
0
 71
3
 72
9
 73
5
 74
0
 42
0.0000001
 43
0.0000001
 44
0.0000000001
 40
0.0
 40
0.0
 40
0.0
 40
0.0
 40
0.2398345497
 40
1.0
 40
1.0
 40
1.0
 40
1.0
 10
18.3564804749
 20
22.5689397191
 30
0.0
 10
18.2572427719
 20
22.5553278748
 30
0.0
 10
17.8455814523
 20
22.4833889298
 30
0.0
 10
17.4449876043
 20
22.3534271817
 30
0.0
 10
17.1521252946
 20
22.2308419124
 30
0.0
  0
SPLINE
  5
4F3
100
AcDbEntity
  8
0
100
AcDbSpline
 62
7
  6
CONTINUOUS
 70
0
 71
3
 72
11
 73
7
 74
0
 42
0.0000001
 43
0.0000001
 44
0.0000000001
 40
0.0
 40
0.0
 40
0.0
 40
0.0
 40
0.221904977
 40
0.4543445331
 40
0.7114276878
 40
1.0
 40
1.0
 40
1.0
 40
1.0
 10
17.7300738406
 20
22.9187296619
 30
0.0
 10
17.7428506165
 20
22.9146010069
 30
0.0
 10
17.7677136343
 20
22.901267596
 30
0.0
 10
17.7964543094
 20
22.8681604902
 30
0.0
 10
17.8154075363
 20
22.8244341922
 30
0.0
 10
17.8209228699
 20
22.7915809525
 30
0.0
 10
17.8222270774
 20
22.7741684665
 30
0.0
  0
LINE
  5
4F4
100
AcDbEntity
  8
0
100
AcDbLine
 62
7
  6
CONTINUOUS
 10
17.8222270774
 20
22.7741684665
 11
17.845244097
 21
22.466793346
  0
SPLINE
  5
4F5
100
AcDbEntity
  8
RACCORDO
100
AcDbSpline
 62
7
  6
CONTINUOUS
 70
0
 71
3
 72
9
 73
5
 74
0
 42
0.0000001
 43
0.0000001
 44
0.0000000001
 40
0.0
 40
0.0
 40
0.0
 40
0.0
 40
0.2401204581
 40
1.0
 40
1.0
 40
1.0
 40
1.0
 10
14.5781063605
 20
22.7247940489
 30
0.0
 10
14.6172670046
 20
22.7453842533
 30
0.0
 10
14.7826643815
 20
22.8267247773
 30
0.0
 10
14.956041975
 20
22.8913400458
 30
0.0
 10
15.089842087
 20
22.9325847502
 30
0.0
  0
SPLINE
  5
4F6
100
AcDbEntity
  8
RACCORDO
100
AcDbSpline
 62
7
  6
CONTINUOUS
 70
0
 71
3
 72
9
 73
5
 74
0
 42
0.0000001
 43
0.0000001
 44
0.0000000001
 40
0.0
 40
0.0
 40
0.0
 40
0.0
 40
0.4883906845
 40
1.0
 40
1.0
 40
1.0
 40
1.0
 10
15.089842087
 20
22.9325847502
 30
0.0
 10
15.3472423797
 20
23.0119299678
 30
0.0
 10
15.8927705099
 20
23.1162513988
 30
0.0
 10
16.4470779376
 20
23.1252811464
 30
0.0
 10
16.7285466437
 20
23.1055787165
 30
0.0
  0
SPLINE
  5
4F7
100
AcDbEntity
  8
RACCORDO
100
AcDbSpline
 62
7
  6
CONTINUOUS
 70
0
 71
3
 72
9
 73
5
 74
0
 42
0.0000001
 43
0.0000001
 44
0.0000000001
 40
0.0
 40
0.0
 40
0.0
 40
0.0
 40
0.5112336447
 40
1.0
 40
1.0
 40
1.0
 40
1.0
 10
16.8038849007
 20
23.0997083483
 30
0.0
 10
16.9549184381
 20
23.086737465
 30
0.0
 10
17.2493236995
 20
23.0472266928
 30
0.0
 10
17.538284777
 20
22.9777183345
 30
0.0
 10
17.6769015228
 20
22.9354171056
 30
0.0
  0
LINE
  5
4F8
100
AcDbEntity
  8
0
100
AcDbLine
 62
7
  6
CONTINUOUS
 10
14.6316415983
 20
22.5794985394
 11
14.6391007847
 21
22.5782562085
  0
SPLINE
  5
4F9
100
AcDbEntity
  8
0
100
AcDbSpline
 62
7
  6
CONTINUOUS
 70
0
 71
3
 72
9
 73
5
 74
0
 42
0.0000001
 43
0.0000001
 44
0.0000000001
 40
0.0
 40
0.0
 40
0.0
 40
0.0
 40
0.2441077541
 40
1.0
 40
1.0
 40
1.0
 40
1.0
 10
14.7280731091
 20
22.5624278922
 30
0.0
 10
14.7858472897
 20
22.5515477878
 30
0.0
 10
15.0216416607
 20
22.5023635496
 30
0.0
 10
15.2535936353
 20
22.4352145608
 30
0.0
 10
15.4257248678
 20
22.375957663
 30
0.0
  0
SPLINE
  5
4FA
100
AcDbEntity
  8
0
100
AcDbSpline
 62
7
  6
CONTINUOUS
 70
0
 71
3
 72
9
 73
5
 74
0
 42
0.0000001
 43
0.0000001
 44
0.0000000001
 40
0.0
 40
0.0
 40
0.0
 40
0.0
 40
0.2554949876
 40
1.0
 40
1.0
 40
1.0
 40
1.0
 10
15.6542839448
 20
22.198200782
 30
0.0
 10
15.6353013206
 20
22.2139440858
 30
0.0
 10
15.5605392648
 20
22.2749992053
 30
0.0
 10
15.4838871476
 20
22.3337505211
 30
0.0
 10
15.4257248678
 20
22.375957663
 30
0.0
  0
SPLINE
  5
4FB
100
AcDbEntity
  8
0
100
AcDbSpline
 62
7
  6
CONTINUOUS
 70
0
 71
3
 72
9
 73
5
 74
0
 42
0.0000001
 43
0.0000001
 44
0.0000000001
 40
0.0
 40
0.0
 40
0.0
 40
0.0
 40
0.2611171593
 40
1.0
 40
1.0
 40
1.0
 40
1.0
 10
17.6726636505
 20
22.9233224999
 30
0.0
 10
17.6776571729
 20
22.9239703865
 30
0.0
 10
17.696874908
 20
22.9255490712
 30
0.0
 10
17.7165155334
 20
22.9231108591
 30
0.0
 10
17.7300738406
 20
22.9187296619
 30
0.0
  0
SPLINE
  5
4FC
100
AcDbEntity
  8
0
100
AcDbSpline
 62
250
  6
CONTINUOUS
 70
0
 71
3
 72
9
 73
5
 74
0
 42
0.0000001
 43
0.0000001
 44
0.0000000001
 40
0.0
 40
0.0
 40
0.0
 40
0.0
 40
0.4858000104
 40
1.0
 40
1.0
 40
1.0
 40
1.0
 10
17.6726636505
 20
22.9233224999
 30
0.0
 10
17.5296226732
 20
22.9687941103
 30
0.0
 10
17.228752226
 20
23.042738211
 30
0.0
 10
16.9217688843
 20
23.0828453794
 30
0.0
 10
16.7633983891
 20
23.0954230265
 30
0.0
  0
SPLINE
  5
4FD
100
AcDbEntity
  8
0
100
AcDbSpline
 62
250
  6
CONTINUOUS
 70
0
 71
3
 72
11
 73
7
 74
0
 42
0.0000001
 43
0.0000001
 44
0.0000000001
 40
0.0
 40
0.0
 40
0.0
 40
0.0
 40
0.2690192214
 40
0.5328562489
 40
0.7797363644
 40
1.0
 40
1.0
 40
1.0
 40
1.0
 10
16.7279500901
 20
23.0981025506
 30
0.0
 10
16.5311151462
 20
23.1122289939
 30
0.0
 10
16.1390960075
 20
23.1157517301
 30
0.0
 10
15.5692849444
 20
23.050774465
 30
0.0
 10
15.0477388929
 20
22.9194978385
 30
0.0
 10
14.7305665242
 20
22.7836436294
 30
0.0
 10
14.5901031925
 20
22.703788095
 30
0.0
  0
SPLINE
  5
4FE
100
AcDbEntity
  8
0
100
AcDbSpline
 62
7
  6
CONTINUOUS
 70
0
 71
3
 72
9
 73
5
 74
0
 42
0.0000001
 43
0.0000001
 44
0.0000000001
 40
0.0
 40
0.0
 40
0.0
 40
0.0
 40
0.2612781925
 40
1.0
 40
1.0
 40
1.0
 40
1.0
 10
16.4388748455
 20
22.5812965446
 30
0.0
 10
16.5419012217
 20
22.6244209606
 30
0.0
 10
16.9408279306
 20
22.7779004295
 30
0.0
 10
17.3595094608
 20
22.8826921828
 30
0.0
 10
17.6726636505
 20
22.9233224999
 30
0.0
  0
SPLINE
  5
4FF
100
AcDbEntity
  8
0
100
AcDbSpline
 62
7
  6
CONTINUOUS
 70
0
 71
3
 72
9
 73
5
 74
0
 42
0.0000001
 43
0.0000001
 44
0.0000000001
 40
0.0
 40
0.0
 40
0.0
 40
0.0
 40
0.2438089804
 40
1.0
 40
1.0
 40
1.0
 40
1.0
 10
15.1621392718
 20
22.8494177167
 30
0.0
 10
15.2283375891
 20
22.8388636737
 30
0.0
 10
15.4988459672
 20
22.7893573426
 30
0.0
 10
15.7647663422
 20
22.7156443987
 30
0.0
 10
15.9615712148
 20
22.6485982651
 30
0.0
  0
SPLINE
  5
500
100
AcDbEntity
  8
0
100
AcDbSpline
 62
7
  6
CONTINUOUS
 70
0
 71
3
 72
9
 73
5
 74
0
 42
0.0000001
 43
0.0000001
 44
0.0000000001
 40
0.0
 40
0.0
 40
0.0
 40
0.0
 40
0.2576636249
 40
1.0
 40
1.0
 40
1.0
 40
1.0
 10
12.8166663851
 20
-16.1822213052
 30
0.0
 10
12.821235094
 20
-16.1925460377
 30
0.0
 10
12.8389165327
 20
-16.2326384031
 30
0.0
 10
12.8563051788
 20
-16.2728619184
 30
0.0
 10
12.8688787273
 20
-16.3028615064
 30
0.0
  0
SPLINE
  5
501
100
AcDbEntity
  8
0
100
AcDbSpline
 62
7
  6
CONTINUOUS
 70
0
 71
3
 72
9
 73
5
 74
0
 42
0.0000001
 43
0.0000001
 44
0.0000000001
 40
0.0
 40
0.0
 40
0.0
 40
0.0
 40
0.2665191694
 40
1.0
 40
1.0
 40
1.0
 40
1.0
 10
12.8840183032
 20
-16.324703031
 30
0.0
 10
12.8859620086
 20
-16.3554323995
 30
0.0
 10
12.8912466482
 20
-16.4708209963
 30
0.0
 10
12.8877497871
 20
-16.5868254137
 30
0.0
 10
12.8779239518
 20
-16.6709923536
 30
0.0
  0
SPLINE
  5
502
100
AcDbEntity
  8
0
100
AcDbSpline
 62
7
  6
CONTINUOUS
 70
0
 71
3
 72
9
 73
5
 74
0
 42
0.0000001
 43
0.0000001
 44
0.0000000001
 40
0.0
 40
0.0
 40
0.0
 40
0.0
 40
0.2259669984
 40
1.0
 40
1.0
 40
1.0
 40
1.0
 10
13.8938837228
 20
-14.9187209824
 30
0.0
 10
13.8752116303
 20
-14.929215432
 30
0.0
 10
13.7911546512
 20
-14.9731301293
 30
0.0
 10
13.7026672778
 20
-15.0080604734
 30
0.0
 10
13.6333910701
 20
-15.0322250102
 30
0.0
  0
LINE
  5
503
100
AcDbEntity
  8
0
100
AcDbLine
 62
7
  6
CONTINUOUS
 10
13.6100558377
 20
-15.0245144084
 11
13.5723299223
 21
-15.0216355737
  0
LINE
  5
504
100
AcDbEntity
  8
0
100
AcDbLine
 62
7
  6
CONTINUOUS
 10
13.4929803769
 20
-15.015752553
 11
13.3026726979
 21
-14.9562445869
  0
LINE
  5
505
100
AcDbEntity
  8
0
100
AcDbLine
 62
7
  6
CONTINUOUS
 10
13.3026726979
 20
-14.9562445869
 11
12.9579271049
 21
-14.8484815753
  0
LINE
  5
506
100
AcDbEntity
  8
0
100
AcDbLine
 62
7
  6
CONTINUOUS
 10
12.8166663851
 20
-16.1822213052
 11
12.7091242635
 21
-16.1042301296
  0
LINE
  5
507
100
AcDbEntity
  8
0
100
AcDbLine
 62
7
  6
CONTINUOUS
 10
12.7091242635
 20
-16.1042301296
 11
12.6835363677
 21
-16.0856722526
  0
LINE
  5
508
100
AcDbEntity
  8
0
100
AcDbLine
 62
7
  6
CONTINUOUS
 10
12.6835363677
 20
-16.0856722526
 11
12.6584036533
 21
-16.0674440661
  0
LINE
  5
509
100
AcDbEntity
  8
0
100
AcDbLine
 62
7
  6
CONTINUOUS
 10
12.6584036533
 20
-16.0674440661
 11
12.4333870351
 21
-15.9042250604
  0
SPLINE
  5
50A
100
AcDbEntity
  8
RACCORDO
100
AcDbSpline
 62
7
  6
CONTINUOUS
 70
0
 71
3
 72
9
 73
5
 74
0
 42
0.0000001
 43
0.0000001
 44
0.0000000001
 40
0.0
 40
0.0
 40
0.0
 40
0.0
 40
0.2327243921
 40
1.0
 40
1.0
 40
1.0
 40
1.0
 10
13.9562460594
 20
-14.0119375588
 30
0.0
 10
13.9824481834
 20
-14.0617375465
 30
0.0
 10
14.078503395
 20
-14.2844685342
 30
0.0
 10
14.1108780287
 20
-14.5308735912
 30
0.0
 10
14.1108780263
 20
-14.7163998601
 30
0.0
  0
SPLINE
  5
50B
100
AcDbEntity
  8
RACCORDO
100
AcDbSpline
 62
7
  6
CONTINUOUS
 70
0
 71
3
 72
11
 73
7
 74
0
 42
0.0000001
 43
0.0000001
 44
0.0000000001
 40
0.0
 40
0.0
 40
0.0
 40
0.0
 40
0.2377305
 40
0.4913276439
 40
0.7494427633
 40
1.0
 40
1.0
 40
1.0
 40
1.0
 10
14.1108656627
 20
-14.7234976784
 30
0.0
 10
14.1102808664
 20
-14.891532368
 30
0.0
 10
14.0674132631
 20
-15.2392177031
 30
0.0
 10
13.9041443823
 20
-15.7459174626
 30
0.0
 10
13.6517608778
 20
-16.2248432681
 30
0.0
 10
13.4296431489
 20
-16.5107205724
 30
0.0
 10
13.3073496177
 20
-16.6388198841
 30
0.0
  0
SPLINE
  5
50C
100
AcDbEntity
  8
RACCORDO
100
AcDbSpline
 62
7
  6
CONTINUOUS
 70
0
 71
3
 72
9
 73
5
 74
0
 42
0.0000001
 43
0.0000001
 44
0.0000000001
 40
0.0
 40
0.0
 40
0.0
 40
0.0
 40
0.2790712361
 40
1.0
 40
1.0
 40
1.0
 40
1.0
 10
13.3073496177
 20
-16.6388198841
 30
0.0
 10
13.232861611
 20
-16.7168441449
 30
0.0
 10
12.9508716788
 20
-16.9784115111
 30
0.0
 10
12.5835002416
 20
-17.1717447676
 30
0.0
 10
12.3062931272
 20
-17.2002206988
 30
0.0
  0
SPLINE
  5
50D
100
AcDbEntity
  8
RACCORDO
100
AcDbSpline
 62
250
  6
CONTINUOUS
 70
0
 71
3
 72
9
 73
5
 74
0
 42
0.0000001
 43
0.0000001
 44
0.0000000001
 40
0.0
 40
0.0
 40
0.0
 40
0.0
 40
0.2733725644
 40
1.0
 40
1.0
 40
1.0
 40
1.0
 10
14.109835541
 20
-14.7236007062
 30
0.0
 10
14.1098355414
 20
-14.6569616825
 30
0.0
 10
14.0977777154
 20
-14.4139502803
 30
0.0
 10
14.0336737385
 20
-14.1690955321
 30
0.0
 10
13.946008522
 20
-14.0151835815
 30
0.0
  0
SPLINE
  5
50E
100
AcDbEntity
  8
0
100
AcDbSpline
 62
7
  6
CONTINUOUS
 70
0
 71
3
 72
9
 73
5
 74
0
 42
0.0000001
 43
0.0000001
 44
0.0000000001
 40
0.0
 40
0.0
 40
0.0
 40
0.0
 40
0.2572388383
 40
1.0
 40
1.0
 40
1.0
 40
1.0
 10
13.9068820991
 20
-15.0966127447
 30
0.0
 10
13.9068820991
 20
-15.0813104514
 30
0.0
 10
13.9058455964
 20
-15.0218321178
 30
0.0
 10
13.9005621556
 20
-14.9623977682
 30
0.0
 10
13.8938837228
 20
-14.9187209824
 30
0.0
  0
SPLINE
  5
50F
100
AcDbEntity
  8
0
100
AcDbSpline
 62
7
  6
CONTINUOUS
 70
0
 71
3
 72
9
 73
5
 74
0
 42
0.0000001
 43
0.0000001
 44
0.0000000001
 40
0.0
 40
0.0
 40
0.0
 40
0.0
 40
0.2553872221
 40
1.0
 40
1.0
 40
1.0
 40
1.0
 10
12.367552973
 20
-16.1565922567
 30
0.0
 10
12.390675204
 20
-16.15651914
 30
0.0
 10
12.4812083535
 20
-16.1555503531
 30
0.0
 10
12.5717221021
 20
-16.1517899211
 30
0.0
 10
12.6389754177
 20
-16.1471087109
 30
0.0
  0
SPLINE
  5
510
100
AcDbEntity
  8
0
100
AcDbSpline
 62
7
  6
CONTINUOUS
 70
0
 71
3
 72
9
 73
5
 74
0
 42
0.0000001
 43
0.0000001
 44
0.0000000001
 40
0.0
 40
0.0
 40
0.0
 40
0.0
 40
0.2462069534
 40
1.0
 40
1.0
 40
1.0
 40
1.0
 10
13.4929803769
 20
-15.015752553
 30
0.0
 10
13.4866149022
 20
-15.0044097302
 30
0.0
 10
13.4603472107
 20
-14.9585718654
 30
0.0
 10
13.4325431529
 20
-14.9136215985
 30
0.0
 10
13.4109139858
 20
-14.8801853272
 30
0.0
  0
SPLINE
  5
511
100
AcDbEntity
  8
0
100
AcDbSpline
 62
7
  6
CONTINUOUS
 70
0
 71
3
 72
9
 73
5
 74
0
 42
0.0000001
 43
0.0000001
 44
0.0000000001
 40
0.0
 40
0.0
 40
0.0
 40
0.0
 40
0.2450424572
 40
1.0
 40
1.0
 40
1.0
 40
1.0
 10
13.3883478445
 20
-14.8546305201
 30
0.0
 10
13.3775533178
 20
-14.826428227
 30
0.0
 10
13.3319595952
 20
-14.711929792
 30
0.0
 10
13.2805456711
 20
-14.5997748159
 30
0.0
 10
13.2390272052
 20
-14.5165163002
 30
0.0
  0
SPLINE
  5
512
100
AcDbEntity
  8
0
100
AcDbSpline
 62
7
  6
CONTINUOUS
 70
0
 71
3
 72
9
 73
5
 74
0
 42
0.0000001
 43
0.0000001
 44
0.0000000001
 40
0.0
 40
0.0
 40
0.0
 40
0.0
 40
0.255207498
 40
1.0
 40
1.0
 40
1.0
 40
1.0
 10
12.6697379853
 20
-16.1585329802
 30
0.0
 10
12.6821848045
 20
-16.1608533058
 30
0.0
 10
12.7310045876
 20
-16.1696792646
 30
0.0
 10
12.780036202
 20
-16.1773677393
 30
0.0
 10
12.8166663851
 20
-16.1822213052
 30
0.0
  0
SPLINE
  5
513
100
AcDbEntity
  8
RACCORDO
100
AcDbSpline
 62
250
  6
CONTINUOUS
 70
0
 71
3
 72
9
 73
5
 74
0
 42
0.0000001
 43
0.0000001
 44
0.0000000001
 40
0.0
 40
0.0
 40
0.0
 40
0.0
 40
0.2293565351
 40
1.0
 40
1.0
 40
1.0
 40
1.0
 10
12.3064833753
 20
-17.1876612266
 30
0.0
 10
12.3579800016
 20
-17.1841917308
 30
0.0
 10
12.5813081836
 20
-17.1503308882
 30
0.0
 10
12.7904087615
 20
-17.0493396929
 30
0.0
 10
12.9349801274
 20
-16.9535567814
 30
0.0
  0
SPLINE
  5
514
100
AcDbEntity
  8
RACCORDO
100
AcDbSpline
 62
250
  6
CONTINUOUS
 70
0
 71
3
 72
11
 73
7
 74
0
 42
0.0000001
 43
0.0000001
 44
0.0000000001
 40
0.0
 40
0.0
 40
0.0
 40
0.0
 40
0.2358545894
 40
0.4929809383
 40
0.7538574033
 40
1.0
 40
1.0
 40
1.0
 40
1.0
 10
12.9349801274
 20
-16.9535567814
 30
0.0
 10
13.0980171594
 20
-16.8455398064
 30
0.0
 10
13.4043771834
 20
-16.5667138721
 30
0.0
 10
13.7634098667
 20
-16.049867499
 30
0.0
 10
14.0141520789
 20
-15.4634165591
 30
0.0
 10
14.0950081151
 20
-15.0460945923
 30
0.0
 10
14.1064572596
 20
-14.8423121982
 30
0.0
  0
SPLINE
  5
515
100
AcDbEntity
  8
0
100
AcDbSpline
 62
7
  6
CONTINUOUS
 70
0
 71
3
 72
9
 73
5
 74
0
 42
0.0000001
 43
0.0000001
 44
0.0000000001
 40
0.0
 40
0.0
 40
0.0
 40
0.0
 40
0.2346017627
 40
1.0
 40
1.0
 40
1.0
 40
1.0
 10
12.8779239518
 20
-16.6709923536
 30
0.0
 10
12.9032999116
 20
-16.6637112031
 30
0.0
 10
13.0098664083
 20
-16.6271167149
 30
0.0
 10
13.1089052988
 20
-16.5704437481
 30
0.0
 10
13.1790331363
 20
-16.5204377663
 30
0.0
  0
SPLINE
  5
516
100
AcDbEntity
  8
0
100
AcDbSpline
 62
7
  6
CONTINUOUS
 70
0
 71
3
 72
9
 73
5
 74
0
 42
0.0000001
 43
0.0000001
 44
0.0000000001
 40
0.0
 40
0.0
 40
0.0
 40
0.0
 40
0.2462426195
 40
1.0
 40
1.0
 40
1.0
 40
1.0
 10
13.1790331363
 20
-16.5204377663
 30
0.0
 10
13.1995094391
 20
-16.485366381
 30
0.0
 10
13.2793369974
 20
-16.3410171866
 30
0.0
 10
13.3458742709
 20
-16.1893685911
 30
0.0
 10
13.3883483637
 20
-16.0725370357
 30
0.0
  0
LINE
  5
517
100
AcDbEntity
  8
0
100
AcDbLine
 62
7
  6
CONTINUOUS
 10
12.7231627736
 20
-15.4445808381
 11
12.738451497
 21
-15.4525149554
  0
LINE
  5
518
100
AcDbEntity
  8
0
100
AcDbLine
 62
7
  6
CONTINUOUS
 10
12.738451497
 20
-15.4525149554
 11
12.7597631899
 21
-15.4635746896
  0
LINE
  5
519
100
AcDbEntity
  8
0
100
AcDbLine
 62
7
  6
CONTINUOUS
 10
12.7597631899
 20
-15.4635746896
 11
13.492979789
 21
-15.8440656854
  0
LINE
  5
51A
100
AcDbEntity
  8
0
100
AcDbLine
 62
7
  6
CONTINUOUS
 10
12.8568998976
 20
-15.2005155649
 11
12.8932748078
 21
-15.2215734467
  0
LINE
  5
51B
100
AcDbEntity
  8
0
100
AcDbLine
 62
7
  6
CONTINUOUS
 10
12.8932748078
 20
-15.2215734467
 11
13.6333918266
 21
-15.6498999089
  0
SPLINE
  5
51C
100
AcDbEntity
  8
0
100
AcDbSpline
 62
7
  6
CONTINUOUS
 70
0
 71
3
 72
9
 73
5
 74
0
 42
0.0000001
 43
0.0000001
 44
0.0000000001
 40
0.0
 40
0.0
 40
0.0
 40
0.0
 40
0.2558118196
 40
1.0
 40
1.0
 40
1.0
 40
1.0
 10
13.6333918266
 20
-15.6498999089
 30
0.0
 10
13.6584934194
 20
-15.6212497396
 30
0.0
 10
13.7539592456
 20
-15.5069636855
 30
0.0
 10
13.838626976
 20
-15.3835541821
 30
0.0
 10
13.8938837188
 20
-15.2875029138
 30
0.0
  0
LINE
  5
51D
100
AcDbEntity
  8
0
100
AcDbLine
 62
7
  6
CONTINUOUS
 10
13.0446719955
 20
-14.7368666127
 11
13.3883478445
 21
-14.8546305201
  0
SPLINE
  5
51E
100
AcDbEntity
  8
0
100
AcDbSpline
 62
7
  6
CONTINUOUS
 70
0
 71
3
 72
9
 73
5
 74
0
 42
0.0000001
 43
0.0000001
 44
0.0000000001
 40
0.0
 40
0.0
 40
0.0
 40
0.0
 40
0.2557977514
 40
1.0
 40
1.0
 40
1.0
 40
1.0
 10
13.8938837188
 20
-15.2875029138
 30
0.0
 10
13.8960294781
 20
-15.2713239435
 30
0.0
 10
13.9034422052
 20
-15.2079518508
 30
0.0
 10
13.9068820991
 20
-15.1440950179
 30
0.0
 10
13.9068820991
 20
-15.0966127447
 30
0.0
  0
LINE
  5
51F
100
AcDbEntity
  8
0
100
AcDbLine
 62
7
  6
CONTINUOUS
 10
13.1790331363
 20
-16.5204377663
 11
12.9514285924
 21
-16.2652437354
  0
LINE
  5
520
100
AcDbEntity
  8
0
100
AcDbLine
 62
7
  6
CONTINUOUS
 10
12.9514285924
 20
-16.2652437354
 11
12.9338748231
 21
-16.2455307301
  0
LINE
  5
521
100
AcDbEntity
  8
0
100
AcDbLine
 62
7
  6
CONTINUOUS
 10
12.9338748231
 20
-16.2455307301
 11
12.8953875852
 21
-16.2022907758
  0
LINE
  5
522
100
AcDbEntity
  8
0
100
AcDbLine
 62
7
  6
CONTINUOUS
 10
12.8953875852
 20
-16.2022907758
 11
12.7583314234
 21
-16.0480821015
  0
LINE
  5
523
100
AcDbEntity
  8
0
100
AcDbLine
 62
7
  6
CONTINUOUS
 10
13.3883483637
 20
-16.0725370357
 11
12.5126647485
 21
-15.6711812591
  0
LINE
  5
524
100
AcDbEntity
  8
0
100
AcDbLine
 62
7
  6
CONTINUOUS
 10
12.6389754177
 20
-16.1471087109
 11
12.4093622803
 21
-15.9868066137
  0
SPLINE
  5
525
100
AcDbEntity
  8
0
100
AcDbSpline
 62
7
  6
CONTINUOUS
 70
0
 71
3
 72
9
 73
5
 74
0
 42
0.0000001
 43
0.0000001
 44
0.0000000001
 40
0.0
 40
0.0
 40
0.0
 40
0.0
 40
0.2576636249
 40
1.0
 40
1.0
 40
1.0
 40
1.0
 10
11.7560062133
 20
14.6375682259
 30
0.0
 10
11.7605749222
 20
14.6272434934
 30
0.0
 10
11.7782563609
 20
14.587151128
 30
0.0
 10
11.7956450071
 20
14.5469276127
 30
0.0
 10
11.8082185555
 20
14.5169280247
 30
0.0
  0
SPLINE
  5
526
100
AcDbEntity
  8
0
100
AcDbSpline
 62
7
  6
CONTINUOUS
 70
0
 71
3
 72
9
 73
5
 74
0
 42
0.0000001
 43
0.0000001
 44
0.0000000001
 40
0.0
 40
0.0
 40
0.0
 40
0.0
 40
0.2665191694
 40
1.0
 40
1.0
 40
1.0
 40
1.0
 10
11.8233581315
 20
14.4950865002
 30
0.0
 10
11.8253018368
 20
14.4643571316
 30
0.0
 10
11.8305864764
 20
14.3489685348
 30
0.0
 10
11.8270896153
 20
14.2329641174
 30
0.0
 10
11.81726378
 20
14.1487971775
 30
0.0
  0
SPLINE
  5
527
100
AcDbEntity
  8
0
100
AcDbSpline
 62
7
  6
CONTINUOUS
 70
0
 71
3
 72
9
 73
5
 74
0
 42
0.0000001
 43
0.0000001
 44
0.0000000001
 40
0.0
 40
0.0
 40
0.0
 40
0.0
 40
0.2259669984
 40
1.0
 40
1.0
 40
1.0
 40
1.0
 10
12.833223551
 20
15.9010685487
 30
0.0
 10
12.8145514585
 20
15.8905740991
 30
0.0
 10
12.7304944794
 20
15.8466594018
 30
0.0
 10
12.642007106
 20
15.8117290577
 30
0.0
 10
12.5727308983
 20
15.7875645209
 30
0.0
  0
LINE
  5
528
100
AcDbEntity
  8
0
100
AcDbLine
 62
7
  6
CONTINUOUS
 10
12.5493956659
 20
15.7952751227
 11
12.5116697505
 21
15.7981539575
  0
SPLINE
  5
529
100
AcDbEntity
  8
0
100
AcDbSpline
 62
7
  6
CONTINUOUS
 70
0
 71
3
 72
9
 73
5
 74
0
 42
0.0000001
 43
0.0000001
 44
0.0000000001
 40
0.0
 40
0.0
 40
0.0
 40
0.0
 40
0.2346017627
 40
1.0
 40
1.0
 40
1.0
 40
1.0
 10
12.1183729877
 20
16.4191528518
 30
0.0
 10
12.092997028
 20
16.4118717013
 30
0.0
 10
11.9864305313
 20
16.3752772131
 30
0.0
 10
11.8873916407
 20
16.3186042463
 30
0.0
 10
11.8172638033
 20
16.2685982645
 30
0.0
  0
LINE
  5
52A
100
AcDbEntity
  8
0
100
AcDbLine
 62
7
  6
CONTINUOUS
 10
12.4323202051
 20
15.8040369781
 11
12.2420125261
 21
15.8635449442
  0
LINE
  5
52B
100
AcDbEntity
  8
0
100
AcDbLine
 62
7
  6
CONTINUOUS
 10
12.2420125261
 20
15.8635449442
 11
11.8283257061
 21
15.9928522141
  0
LINE
  5
52C
100
AcDbEntity
  8
0
100
AcDbLine
 62
7
  6
CONTINUOUS
 10
11.7560062133
 20
14.6375682259
 11
11.6484640917
 21
14.7155594015
  0
LINE
  5
52D
100
AcDbEntity
  8
0
100
AcDbLine
 62
7
  6
CONTINUOUS
 10
11.6484640917
 20
14.7155594015
 11
11.6228761959
 21
14.7341172785
  0
LINE
  5
52E
100
AcDbEntity
  8
0
100
AcDbLine
 62
7
  6
CONTINUOUS
 10
11.6228761959
 20
14.7341172785
 11
11.5977434815
 21
14.752345465
  0
LINE
  5
52F
100
AcDbEntity
  8
0
100
AcDbLine
 62
7
  6
CONTINUOUS
 10
11.5977434815
 20
14.752345465
 11
11.3436496323
 21
14.9366586739
  0
LINE
  5
530
100
AcDbEntity
  8
0
100
AcDbLine
 62
7
  6
CONTINUOUS
 10
11.3436496323
 20
14.9366586739
 11
11.1868075654
 21
15.0504510778
  0
LINE
  5
531
100
AcDbEntity
  8
0
100
AcDbLine
 62
7
  6
CONTINUOUS
 10
11.1868075654
 20
15.0504510778
 11
11.1655624115
 21
15.0658663142
  0
SPLINE
  5
532
100
AcDbEntity
  8
RACCORDO
100
AcDbSpline
 62
7
  6
CONTINUOUS
 70
0
 71
3
 72
11
 73
7
 74
0
 42
0.0000001
 43
0.0000001
 44
0.0000000001
 40
0.0
 40
0.0
 40
0.0
 40
0.0
 40
0.2242610614
 40
0.461106858
 40
0.7188320059
 40
1.0
 40
1.0
 40
1.0
 40
1.0
 10
12.5595813685
 20
17.1702068507
 30
0.0
 10
12.6386214309
 20
17.1239069773
 30
0.0
 10
12.7851415693
 20
16.9990718776
 30
0.0
 10
12.9404864422
 20
16.7453925125
 30
0.0
 10
13.0319184204
 20
16.4390820287
 30
0.0
 10
13.050217856
 20
16.2182365301
 30
0.0
 10
13.0502178545
 20
16.1033896711
 30
0.0
  0
SPLINE
  5
533
100
AcDbEntity
  8
RACCORDO
100
AcDbSpline
 62
7
  6
CONTINUOUS
 70
0
 71
3
 72
11
 73
7
 74
0
 42
0.0000001
 43
0.0000001
 44
0.0000000001
 40
0.0
 40
0.0
 40
0.0
 40
0.0
 40
0.2377305
 40
0.4913276439
 40
0.7494427633
 40
1.0
 40
1.0
 40
1.0
 40
1.0
 10
13.050205491
 20
16.0962918527
 30
0.0
 10
13.0496206946
 20
15.9282571631
 30
0.0
 10
13.0067530913
 20
15.580571828
 30
0.0
 10
12.8434842105
 20
15.0738720685
 30
0.0
 10
12.591100706
 20
14.594946263
 30
0.0
 10
12.3689829771
 20
14.3090689587
 30
0.0
 10
12.2466894459
 20
14.1809696471
 30
0.0
  0
SPLINE
  5
534
100
AcDbEntity
  8
RACCORDO
100
AcDbSpline
 62
7
  6
CONTINUOUS
 70
0
 71
3
 72
9
 73
5
 74
0
 42
0.0000001
 43
0.0000001
 44
0.0000000001
 40
0.0
 40
0.0
 40
0.0
 40
0.0
 40
0.276926394
 40
1.0
 40
1.0
 40
1.0
 40
1.0
 10
12.2466894459
 20
14.1809696471
 30
0.0
 10
12.1763663226
 20
14.1073079938
 30
0.0
 10
11.9085142832
 20
13.8573987646
 30
0.0
 10
11.5663410898
 20
13.6689387655
 30
0.0
 10
11.3037291606
 20
13.6271813467
 30
0.0
  0
SPLINE
  5
535
100
AcDbEntity
  8
RACCORDO
100
AcDbSpline
 62
7
  6
CONTINUOUS
 70
0
 71
3
 72
13
 73
9
 74
0
 42
0.0000001
 43
0.0000001
 44
0.0000000001
 40
0.0
 40
0.0
 40
0.0
 40
0.0
 40
0.289095184
 40
0.5507851387
 40
0.6704538896
 40
0.7839082814
 40
0.8928214003
 40
1.0
 40
1.0
 40
1.0
 40
1.0
 10
10.2023116552
 20
16.6213910541
 30
0.0
 10
10.324371548
 20
16.8013184277
 30
0.0
 10
10.5944072412
 20
17.1206329464
 30
0.0
 10
11.0143845128
 20
17.4149777635
 30
0.0
 10
11.3671420078
 20
17.5404119282
 30
0.0
 10
11.6244221492
 20
17.5740480365
 30
0.0
 10
11.8734378002
 20
17.5457037649
 30
0.0
 10
12.0258060064
 20
17.4823134526
 30
0.0
 10
12.095372686
 20
17.4415958277
 30
0.0
  0
SPLINE
  5
536
100
AcDbEntity
  8
RACCORDO
100
AcDbSpline
 62
250
  6
CONTINUOUS
 70
0
 71
3
 72
11
 73
7
 74
0
 42
0.0000001
 43
0.0000001
 44
0.0000000001
 40
0.0
 40
0.0
 40
0.0
 40
0.0
 40
0.2194385085
 40
0.4526155438
 40
0.7113064064
 40
1.0
 40
1.0
 40
1.0
 40
1.0
 10
12.5552841378
 20
17.1726109007
 30
0.0
 10
12.4786478499
 20
17.2167975371
 30
0.0
 10
12.3021117348
 20
17.2790110568
 30
0.0
 10
12.0106653719
 20
17.2751126935
 30
0.0
 10
11.7067589546
 20
17.1815771804
 30
0.0
 10
11.5142941792
 20
17.0701153268
 30
0.0
 10
11.4190160435
 20
17.0032823749
 30
0.0
  0
SPLINE
  5
537
100
AcDbEntity
  8
RACCORDO
100
AcDbSpline
 62
250
  6
CONTINUOUS
 70
0
 71
3
 72
9
 73
5
 74
0
 42
0.0000001
 43
0.0000001
 44
0.0000000001
 40
0.0
 40
0.0
 40
0.0
 40
0.0
 40
0.2434340331
 40
1.0
 40
1.0
 40
1.0
 40
1.0
 10
11.4190160435
 20
17.0032823749
 30
0.0
 10
11.3978592976
 20
16.9884419526
 30
0.0
 10
11.312150171
 20
16.9257761903
 30
0.0
 10
11.2312495013
 20
16.8566090486
 30
0.0
 10
11.1728349858
 20
16.8014868929
 30
0.0
  0
SPLINE
  5
538
100
AcDbEntity
  8
RACCORDO
100
AcDbSpline
 62
250
  6
CONTINUOUS
 70
0
 71
3
 72
9
 73
5
 74
0
 42
0.0000001
 43
0.0000001
 44
0.0000000001
 40
0.0
 40
0.0
 40
0.0
 40
0.0
 40
0.2445057376
 40
1.0
 40
1.0
 40
1.0
 40
1.0
 10
11.0153636168
 20
16.6389839783
 30
0.0
 10
10.9721928414
 20
16.590408559
 30
0.0
 10
10.8027770628
 20
16.3854630115
 30
0.0
 10
10.6613964783
 20
16.1576553823
 30
0.0
 10
10.5717978309
 20
15.977951703
 30
0.0
  0
SPLINE
  5
539
100
AcDbEntity
  8
RACCORDO
100
AcDbSpline
 62
250
  6
CONTINUOUS
 70
0
 71
3
 72
11
 73
7
 74
0
 42
0.0000001
 43
0.0000001
 44
0.0000000001
 40
0.0
 40
0.0
 40
0.0
 40
0.0
 40
0.2871269392
 40
0.547753851
 40
0.7826820351
 40
1.0
 40
1.0
 40
1.0
 40
1.0
 10
13.0491753692
 20
16.0961888249
 30
0.0
 10
13.0491753699
 20
16.2040714464
 30
0.0
 10
13.0326559262
 20
16.4104854296
 30
0.0
 10
12.9517812774
 20
16.6956662951
 30
0.0
 10
12.816248305
 20
16.9304010874
 30
0.0
 10
12.6886977071
 20
17.0478569697
 30
0.0
 10
12.6200553835
 20
17.0920777288
 30
0.0
  0
SPLINE
  5
53A
100
AcDbEntity
  8
RACCORDO
100
AcDbSpline
 62
250
  6
CONTINUOUS
 70
0
 71
3
 72
11
 73
7
 74
0
 42
0.0000001
 43
0.0000001
 44
0.0000000001
 40
0.0
 40
0.0
 40
0.0
 40
0.0
 40
0.2202221231
 40
0.4556632006
 40
0.7145602884
 40
1.0
 40
1.0
 40
1.0
 40
1.0
 10
12.5080562629
 20
17.1510697151
 30
0.0
 10
12.4361824708
 20
17.1812085478
 30
0.0
 10
12.276165091
 20
17.218948331
 30
0.0
 10
12.0208758754
 20
17.2016584919
 30
0.0
 10
11.7562814466
 20
17.1157064777
 30
0.0
 10
11.5875675137
 20
17.0202001087
 30
0.0
 10
11.5038738846
 20
16.9636319049
 30
0.0
  0
SPLINE
  5
53B
100
AcDbEntity
  8
RACCORDO
100
AcDbSpline
 62
250
  6
CONTINUOUS
 70
0
 71
3
 72
9
 73
5
 74
0
 42
0.0000001
 43
0.0000001
 44
0.0000000001
 40
0.0
 40
0.0
 40
0.0
 40
0.0
 40
0.2435380568
 40
1.0
 40
1.0
 40
1.0
 40
1.0
 10
11.4094350467
 20
16.8955911245
 30
0.0
 10
11.3874877985
 20
16.8787860927
 30
0.0
 10
11.2987685972
 20
16.8079648851
 30
0.0
 10
11.2155905597
 20
16.7302765341
 30
0.0
 10
11.1558895566
 20
16.6685692205
 30
0.0
  0
SPLINE
  5
53C
100
AcDbEntity
  8
RACCORDO
100
AcDbSpline
 62
250
  6
CONTINUOUS
 70
0
 71
3
 72
9
 73
5
 74
0
 42
0.0000001
 43
0.0000001
 44
0.0000000001
 40
0.0
 40
0.0
 40
0.0
 40
0.0
 40
0.2427247182
 40
1.0
 40
1.0
 40
1.0
 40
1.0
 10
11.1558895566
 20
16.6685692205
 30
0.0
 10
11.1026491128
 20
16.6135395797
 30
0.0
 10
10.8936555783
 20
16.3769427541
 30
0.0
 10
10.7248081974
 20
16.1056132127
 30
0.0
 10
10.6220898784
 20
15.8899376382
 30
0.0
  0
SPLINE
  5
53D
100
AcDbEntity
  8
0
100
AcDbSpline
 62
7
  6
CONTINUOUS
 70
0
 71
3
 72
9
 73
5
 74
0
 42
0.0000001
 43
0.0000001
 44
0.0000000001
 40
0.0
 40
0.0
 40
0.0
 40
0.0
 40
0.2572388383
 40
1.0
 40
1.0
 40
1.0
 40
1.0
 10
12.8462219273
 20
15.7231767864
 30
0.0
 10
12.8462219273
 20
15.7384790797
 30
0.0
 10
12.8451854246
 20
15.7979574133
 30
0.0
 10
12.8399019838
 20
15.8573917629
 30
0.0
 10
12.833223551
 20
15.9010685487
 30
0.0
  0
SPLINE
  5
53E
100
AcDbEntity
  8
0
100
AcDbSpline
 62
7
  6
CONTINUOUS
 70
0
 71
3
 72
9
 73
5
 74
0
 42
0.0000001
 43
0.0000001
 44
0.0000000001
 40
0.0
 40
0.0
 40
0.0
 40
0.0
 40
0.2564471552
 40
1.0
 40
1.0
 40
1.0
 40
1.0
 10
11.2460052445
 20
14.6634009848
 30
0.0
 10
11.2744256363
 20
14.6631235473
 30
0.0
 10
11.385253905
 20
14.6630276062
 30
0.0
 10
11.496107038
 20
14.6669586651
 30
0.0
 10
11.5783152459
 20
14.6726808203
 30
0.0
  0
SPLINE
  5
53F
100
AcDbEntity
  8
0
100
AcDbSpline
 62
7
  6
CONTINUOUS
 70
0
 71
3
 72
9
 73
5
 74
0
 42
0.0000001
 43
0.0000001
 44
0.0000000001
 40
0.0
 40
0.0
 40
0.0
 40
0.0
 40
0.2462069534
 40
1.0
 40
1.0
 40
1.0
 40
1.0
 10
12.4323202051
 20
15.8040369781
 30
0.0
 10
12.4259547305
 20
15.8153798009
 30
0.0
 10
12.399687039
 20
15.8612176657
 30
0.0
 10
12.3718829811
 20
15.9061679326
 30
0.0
 10
12.350253814
 20
15.9396042039
 30
0.0
  0
SPLINE
  5
540
100
AcDbEntity
  8
0
100
AcDbSpline
 62
7
  6
CONTINUOUS
 70
0
 71
3
 72
9
 73
5
 74
0
 42
0.0000001
 43
0.0000001
 44
0.0000000001
 40
0.0
 40
0.0
 40
0.0
 40
0.0
 40
0.2435373174
 40
1.0
 40
1.0
 40
1.0
 40
1.0
 10
12.3276876727
 20
15.965159011
 30
0.0
 10
12.3131750074
 20
16.0030754896
 30
0.0
 10
12.2507783104
 20
16.1576864991
 30
0.0
 10
12.1780107423
 20
16.3080395865
 30
0.0
 10
12.1183729877
 20
16.4191528518
 30
0.0
  0
SPLINE
  5
541
100
AcDbEntity
  8
0
100
AcDbSpline
 62
7
  6
CONTINUOUS
 70
0
 71
3
 72
9
 73
5
 74
0
 42
0.0000001
 43
0.0000001
 44
0.0000000001
 40
0.0
 40
0.0
 40
0.0
 40
0.0
 40
0.255207498
 40
1.0
 40
1.0
 40
1.0
 40
1.0
 10
11.6090778135
 20
14.6612565509
 30
0.0
 10
11.6215246327
 20
14.6589362253
 30
0.0
 10
11.6703444158
 20
14.6501102665
 30
0.0
 10
11.7193760302
 20
14.6424217918
 30
0.0
 10
11.7560062133
 20
14.6375682259
 30
0.0
  0
SPLINE
  5
542
100
AcDbEntity
  8
RACCORDO
100
AcDbSpline
 62
250
  6
CONTINUOUS
 70
0
 71
3
 72
9
 73
5
 74
0
 42
0.0000001
 43
0.0000001
 44
0.0000000001
 40
0.0
 40
0.0
 40
0.0
 40
0.0
 40
0.231039908
 40
1.0
 40
1.0
 40
1.0
 40
1.0
 10
11.3014061271
 20
13.6375152398
 30
0.0
 10
11.3487846588
 20
13.643488358
 30
0.0
 10
11.5519912563
 20
13.684287519
 30
0.0
 10
11.7418246994
 20
13.7784506269
 30
0.0
 10
11.8743199556
 20
13.8662327497
 30
0.0
  0
SPLINE
  5
543
100
AcDbEntity
  8
RACCORDO
100
AcDbSpline
 62
250
  6
CONTINUOUS
 70
0
 71
3
 72
11
 73
7
 74
0
 42
0.0000001
 43
0.0000001
 44
0.0000000001
 40
0.0
 40
0.0
 40
0.0
 40
0.0
 40
0.2358545894
 40
0.4929809383
 40
0.7538574033
 40
1.0
 40
1.0
 40
1.0
 40
1.0
 10
11.8743199556
 20
13.8662327497
 30
0.0
 10
12.0373569876
 20
13.9742497247
 30
0.0
 10
12.3437170116
 20
14.253075659
 30
0.0
 10
12.7027496949
 20
14.7699220321
 30
0.0
 10
12.9534919071
 20
15.356372972
 30
0.0
 10
13.0343479433
 20
15.7736949388
 30
0.0
 10
13.0457970878
 20
15.9774773329
 30
0.0
  0
SPLINE
  5
544
100
AcDbEntity
  8
0
100
AcDbSpline
 62
7
  6
CONTINUOUS
 70
0
 71
3
 72
9
 73
5
 74
0
 42
0.0000001
 43
0.0000001
 44
0.0000000001
 40
0.0
 40
0.0
 40
0.0
 40
0.0
 40
0.2346017627
 40
1.0
 40
1.0
 40
1.0
 40
1.0
 10
11.81726378
 20
14.1487971775
 30
0.0
 10
11.8426397398
 20
14.156078328
 30
0.0
 10
11.9492062365
 20
14.1926728162
 30
0.0
 10
12.048245127
 20
14.249345783
 30
0.0
 10
12.1183729645
 20
14.2993517648
 30
0.0
  0
SPLINE
  5
545
100
AcDbEntity
  8
0
100
AcDbSpline
 62
7
  6
CONTINUOUS
 70
0
 71
3
 72
9
 73
5
 74
0
 42
0.0000001
 43
0.0000001
 44
0.0000000001
 40
0.0
 40
0.0
 40
0.0
 40
0.0
 40
0.2462426195
 40
1.0
 40
1.0
 40
1.0
 40
1.0
 10
12.1183729645
 20
14.2993517648
 30
0.0
 10
12.1388492673
 20
14.3344231501
 30
0.0
 10
12.2186768256
 20
14.4787723445
 30
0.0
 10
12.2852140992
 20
14.63042094
 30
0.0
 10
12.3276881919
 20
14.7472524954
 30
0.0
  0
LINE
  5
546
100
AcDbEntity
  8
0
100
AcDbLine
 62
7
  6
CONTINUOUS
 10
11.6625026018
 20
15.375208693
 11
11.6777913252
 21
15.3672745757
  0
LINE
  5
547
100
AcDbEntity
  8
0
100
AcDbLine
 62
7
  6
CONTINUOUS
 10
11.6777913252
 20
15.3672745757
 11
11.6991030181
 21
15.3562148415
  0
LINE
  5
548
100
AcDbEntity
  8
0
100
AcDbLine
 62
7
  6
CONTINUOUS
 10
11.6991030181
 20
15.3562148415
 11
12.4323196173
 21
14.9757238457
  0
LINE
  5
549
100
AcDbEntity
  8
0
100
AcDbLine
 62
7
  6
CONTINUOUS
 10
11.7962397258
 20
15.6192739662
 11
11.832614636
 21
15.5982160844
  0
LINE
  5
54A
100
AcDbEntity
  8
0
100
AcDbLine
 62
7
  6
CONTINUOUS
 10
11.832614636
 20
15.5982160844
 11
12.5727316548
 21
15.1698896222
  0
SPLINE
  5
54B
100
AcDbEntity
  8
0
100
AcDbSpline
 62
7
  6
CONTINUOUS
 70
0
 71
3
 72
9
 73
5
 74
0
 42
0.0000001
 43
0.0000001
 44
0.0000000001
 40
0.0
 40
0.0
 40
0.0
 40
0.0
 40
0.2558118196
 40
1.0
 40
1.0
 40
1.0
 40
1.0
 10
12.5727316548
 20
15.1698896222
 30
0.0
 10
12.5978332476
 20
15.1985397915
 30
0.0
 10
12.6932990738
 20
15.3128258456
 30
0.0
 10
12.7779668043
 20
15.436235349
 30
0.0
 10
12.833223547
 20
15.5322866173
 30
0.0
  0
LINE
  5
54C
100
AcDbEntity
  8
0
100
AcDbLine
 62
7
  6
CONTINUOUS
 10
11.8244650558
 20
16.1375985192
 11
12.3276876727
 21
15.965159011
  0
SPLINE
  5
54D
100
AcDbEntity
  8
0
100
AcDbSpline
 62
7
  6
CONTINUOUS
 70
0
 71
3
 72
9
 73
5
 74
0
 42
0.0000001
 43
0.0000001
 44
0.0000000001
 40
0.0
 40
0.0
 40
0.0
 40
0.0
 40
0.2557977514
 40
1.0
 40
1.0
 40
1.0
 40
1.0
 10
12.833223547
 20
15.5322866173
 30
0.0
 10
12.8353693064
 20
15.5484655876
 30
0.0
 10
12.8427820334
 20
15.6118376803
 30
0.0
 10
12.8462219273
 20
15.6756945132
 30
0.0
 10
12.8462219273
 20
15.7231767864
 30
0.0
  0
LINE
  5
54E
100
AcDbEntity
  8
0
100
AcDbLine
 62
7
  6
CONTINUOUS
 10
12.1183729645
 20
14.2993517648
 11
11.8907684207
 21
14.5545457958
  0
LINE
  5
54F
100
AcDbEntity
  8
0
100
AcDbLine
 62
7
  6
CONTINUOUS
 10
11.8907684207
 20
14.5545457958
 11
11.8732146513
 21
14.574258801
  0
LINE
  5
550
100
AcDbEntity
  8
0
100
AcDbLine
 62
7
  6
CONTINUOUS
 10
11.8732146513
 20
14.574258801
 11
11.8347274134
 21
14.6174987553
  0
LINE
  5
551
100
AcDbEntity
  8
0
100
AcDbLine
 62
7
  6
CONTINUOUS
 10
11.8347274134
 20
14.6174987553
 11
11.6976712516
 21
14.7717074297
  0
LINE
  5
552
100
AcDbEntity
  8
0
100
AcDbLine
 62
7
  6
CONTINUOUS
 10
12.3276881919
 20
14.7472524954
 11
11.3847881916
 21
15.1794022512
  0
LINE
  5
553
100
AcDbEntity
  8
0
100
AcDbLine
 62
7
  6
CONTINUOUS
 10
11.5783152459
 20
14.6726808203
 11
11.2941656976
 21
14.8710562023
  0
LINE
  5
554
100
AcDbEntity
  8
0
100
AcDbLine
 62
7
  6
CONTINUOUS
 10
11.2941656976
 20
14.8710562023
 11
11.2862121005
 21
14.8766087901
  0
LINE
  5
555
100
AcDbEntity
  8
0
100
AcDbLine
 62
7
  6
CONTINUOUS
 10
11.2862121005
 20
14.8766087901
 11
11.1478121324
 21
14.9732279431
  0
SPLINE
  5
556
100
AcDbEntity
  8
RACCORDO
100
AcDbSpline
 62
250
  6
CONTINUOUS
 70
0
 71
3
 72
14
 73
10
 74
0
 42
0.0000001
 43
0.0000001
 44
0.0000000001
 40
0.0
 40
0.0
 40
0.0
 40
0.0
 40
0.0971955857
 40
0.1982428597
 40
0.3071791741
 40
0.4263599058
 40
0.556487319
 40
0.6968221439
 40
1.0
 40
1.0
 40
1.0
 40
1.0
 10
12.0956178299
 20
17.4419261736
 30
0.0
 10
12.0328791653
 20
17.4787068614
 30
0.0
 10
11.8928716631
 20
17.5349005382
 30
0.0
 10
11.6613103054
 20
17.5564531618
 30
0.0
 10
11.415971854
 20
17.5168122327
 30
0.0
 10
11.1646083188
 20
17.4191564014
 30
0.0
 10
10.9144015166
 20
17.2669825205
 30
0.0
 10
10.5837151767
 20
16.9916514748
 30
0.0
 10
10.37254516
 20
16.7301399473
 30
0.0
 10
10.2493776223
 20
16.5396405262
 30
0.0
  0
SPLINE
  5
557
100
AcDbEntity
  8
0
100
AcDbSpline
 62
7
  6
CONTINUOUS
 70
0
 71
3
 72
9
 73
5
 74
0
 42
0.0000001
 43
0.0000001
 44
0.0000000001
 40
0.0
 40
0.0
 40
0.0
 40
0.0
 40
0.2576636249
 40
1.0
 40
1.0
 40
1.0
 40
1.0
 10
0.866561783
 20
1.225412296
 30
0.0
 10
0.8711304919
 20
1.2150875634
 30
0.0
 10
0.8888119306
 20
1.174995198
 30
0.0
 10
0.9062005768
 20
1.1347716828
 30
0.0
 10
0.9187741253
 20
1.1047720947
 30
0.0
  0
SPLINE
  5
558
100
AcDbEntity
  8
0
100
AcDbSpline
 62
7
  6
CONTINUOUS
 70
0
 71
3
 72
9
 73
5
 74
0
 42
0.0000001
 43
0.0000001
 44
0.0000000001
 40
0.0
 40
0.0
 40
0.0
 40
0.0
 40
0.2665191694
 40
1.0
 40
1.0
 40
1.0
 40
1.0
 10
0.9339137012
 20
1.0829305702
 30
0.0
 10
0.9358574065
 20
1.0522012016
 30
0.0
 10
0.9411420462
 20
0.9368126048
 30
0.0
 10
0.937645185
 20
0.8208081875
 30
0.0
 10
0.9278193498
 20
0.7366412476
 30
0.0
  0
SPLINE
  5
559
100
AcDbEntity
  8
0
100
AcDbSpline
 62
7
  6
CONTINUOUS
 70
0
 71
3
 72
9
 73
5
 74
0
 42
0.0000001
 43
0.0000001
 44
0.0000000001
 40
0.0
 40
0.0
 40
0.0
 40
0.0
 40
0.2259669984
 40
1.0
 40
1.0
 40
1.0
 40
1.0
 10
1.9437791208
 20
2.4889126187
 30
0.0
 10
1.9251070282
 20
2.4784181692
 30
0.0
 10
1.8410500491
 20
2.4345034718
 30
0.0
 10
1.7525626758
 20
2.3995731278
 30
0.0
 10
1.683286468
 20
2.3754085909
 30
0.0
  0
LINE
  5
55A
100
AcDbEntity
  8
0
100
AcDbLine
 62
7
  6
CONTINUOUS
 10
1.6599512356
 20
2.3831191927
 11
1.6222253202
 21
2.3859980275
  0
LINE
  5
55B
100
AcDbEntity
  8
0
100
AcDbLine
 62
7
  6
CONTINUOUS
 10
1.5428757748
 20
2.3918810481
 11
1.3525680959
 21
2.4513890143
  0
LINE
  5
55C
100
AcDbEntity
  8
0
100
AcDbLine
 62
7
  6
CONTINUOUS
 10
1.3525680959
 20
2.4513890143
 11
1.008638192
 21
2.5588971095
  0
LINE
  5
55D
100
AcDbEntity
  8
0
100
AcDbLine
 62
7
  6
CONTINUOUS
 10
0.866561783
 20
1.225412296
 11
0.7590196615
 21
1.3034034716
  0
LINE
  5
55E
100
AcDbEntity
  8
0
100
AcDbLine
 62
7
  6
CONTINUOUS
 10
0.7590196615
 20
1.3034034716
 11
0.7334317656
 21
1.3219613486
  0
LINE
  5
55F
100
AcDbEntity
  8
0
100
AcDbLine
 62
7
  6
CONTINUOUS
 10
0.7334317656
 20
1.3219613486
 11
0.7082990512
 21
1.340189535
  0
LINE
  5
560
100
AcDbEntity
  8
0
100
AcDbLine
 62
7
  6
CONTINUOUS
 10
0.7082990512
 20
1.340189535
 11
0.4828648824
 21
1.5037114503
  0
SPLINE
  5
561
100
AcDbEntity
  8
RACCORDO
100
AcDbSpline
 62
7
  6
CONTINUOUS
 70
0
 71
3
 72
9
 73
5
 74
0
 42
0.0000001
 43
0.0000001
 44
0.0000000001
 40
0.0
 40
0.0
 40
0.0
 40
0.0
 40
0.2467985795
 40
1.0
 40
1.0
 40
1.0
 40
1.0
 10
2.0060035973
 20
3.3959579742
 30
0.0
 10
2.0107546864
 20
3.386933942
 30
0.0
 10
2.0294934539
 20
3.3501014843
 30
0.0
 10
2.0462004588
 20
3.3122414717
 30
0.0
 10
2.0576779132
 20
3.2833108379
 30
0.0
  0
SPLINE
  5
562
100
AcDbEntity
  8
RACCORDO
100
AcDbSpline
 62
7
  6
CONTINUOUS
 70
0
 71
3
 72
9
 73
5
 74
0
 42
0.0000001
 43
0.0000001
 44
0.0000000001
 40
0.0
 40
0.0
 40
0.0
 40
0.0
 40
0.2358160321
 40
1.0
 40
1.0
 40
1.0
 40
1.0
 10
2.0576779132
 20
3.2833108379
 30
0.0
 10
2.0751590445
 20
3.239247042
 30
0.0
 10
2.1384610469
 20
3.0480995725
 30
0.0
 10
2.1607734262
 20
2.844853202
 30
0.0
 10
2.1607734242
 20
2.6912337411
 30
0.0
  0
SPLINE
  5
563
100
AcDbEntity
  8
RACCORDO
100
AcDbSpline
 62
7
  6
CONTINUOUS
 70
0
 71
3
 72
11
 73
7
 74
0
 42
0.0000001
 43
0.0000001
 44
0.0000000001
 40
0.0
 40
0.0
 40
0.0
 40
0.0
 40
0.2377305
 40
0.4913276439
 40
0.7494427633
 40
1.0
 40
1.0
 40
1.0
 40
1.0
 10
2.1607610607
 20
2.6841359227
 30
0.0
 10
2.1601762644
 20
2.5161012332
 30
0.0
 10
2.1173086611
 20
2.168415898
 30
0.0
 10
1.9540397802
 20
1.6617161385
 30
0.0
 10
1.7016562757
 20
1.182790333
 30
0.0
 10
1.4795385469
 20
0.8969130288
 30
0.0
 10
1.3572450156
 20
0.7688137171
 30
0.0
  0
SPLINE
  5
564
100
AcDbEntity
  8
RACCORDO
100
AcDbSpline
 62
7
  6
CONTINUOUS
 70
0
 71
3
 72
9
 73
5
 74
0
 42
0.0000001
 43
0.0000001
 44
0.0000000001
 40
0.0
 40
0.0
 40
0.0
 40
0.0
 40
0.2768916499
 40
1.0
 40
1.0
 40
1.0
 40
1.0
 10
1.3572450156
 20
0.7688137171
 30
0.0
 10
1.2869901222
 20
0.6952235329
 30
0.0
 10
1.0193723035
 20
0.4455081937
 30
0.0
 10
0.6776039134
 20
0.2571338933
 30
0.0
 10
0.4152382901
 20
0.2151774733
 30
0.0
  0
SPLINE
  5
565
100
AcDbEntity
  8
RACCORDO
100
AcDbSpline
 62
250
  6
CONTINUOUS
 70
0
 71
3
 72
9
 73
5
 74
0
 42
0.0000001
 43
0.0000001
 44
0.0000000001
 40
0.0
 40
0.0
 40
0.0
 40
0.0
 40
0.2720692067
 40
1.0
 40
1.0
 40
1.0
 40
1.0
 10
2.159730939
 20
2.6840328949
 30
0.0
 10
2.1597309393
 20
2.7477189752
 30
0.0
 10
2.1486179004
 20
2.9811708391
 30
0.0
 10
2.0901251923
 20
3.2160141811
 30
0.0
 10
2.0101846105
 20
3.3664925586
 30
0.0
  0
SPLINE
  5
566
100
AcDbEntity
  8
0
100
AcDbSpline
 62
7
  6
CONTINUOUS
 70
0
 71
3
 72
9
 73
5
 74
0
 42
0.0000001
 43
0.0000001
 44
0.0000000001
 40
0.0
 40
0.0
 40
0.0
 40
0.0
 40
0.2572388383
 40
1.0
 40
1.0
 40
1.0
 40
1.0
 10
1.956777497
 20
2.3110208564
 30
0.0
 10
1.956777497
 20
2.3263231498
 30
0.0
 10
1.9557409944
 20
2.3858014834
 30
0.0
 10
1.9504575535
 20
2.4452358329
 30
0.0
 10
1.9437791208
 20
2.4889126187
 30
0.0
  0
SPLINE
  5
567
100
AcDbEntity
  8
0
100
AcDbSpline
 62
7
  6
CONTINUOUS
 70
0
 71
3
 72
9
 73
5
 74
0
 42
0.0000001
 43
0.0000001
 44
0.0000000001
 40
0.0
 40
0.0
 40
0.0
 40
0.0
 40
0.2553634972
 40
1.0
 40
1.0
 40
1.0
 40
1.0
 10
0.4187765981
 20
1.2510457359
 30
0.0
 10
0.4417836247
 20
1.2511251182
 30
0.0
 10
0.5318739119
 20
1.2521123712
 30
0.0
 10
0.6219441699
 20
1.2558664181
 30
0.0
 10
0.6888708157
 20
1.2605248903
 30
0.0
  0
SPLINE
  5
568
100
AcDbEntity
  8
0
100
AcDbSpline
 62
7
  6
CONTINUOUS
 70
0
 71
3
 72
9
 73
5
 74
0
 42
0.0000001
 43
0.0000001
 44
0.0000000001
 40
0.0
 40
0.0
 40
0.0
 40
0.0
 40
0.2462069534
 40
1.0
 40
1.0
 40
1.0
 40
1.0
 10
1.5428757748
 20
2.3918810481
 30
0.0
 10
1.5365103002
 20
2.4032238709
 30
0.0
 10
1.5102426087
 20
2.4490617358
 30
0.0
 10
1.4824385509
 20
2.4940120027
 30
0.0
 10
1.4608093837
 20
2.527448274
 30
0.0
  0
SPLINE
  5
569
100
AcDbEntity
  8
0
100
AcDbSpline
 62
7
  6
CONTINUOUS
 70
0
 71
3
 72
9
 73
5
 74
0
 42
0.0000001
 43
0.0000001
 44
0.0000000001
 40
0.0
 40
0.0
 40
0.0
 40
0.0
 40
0.2450468572
 40
1.0
 40
1.0
 40
1.0
 40
1.0
 10
1.4382432425
 20
2.553003081
 30
0.0
 10
1.4274591994
 20
2.581177984
 30
0.0
 10
1.3819120744
 20
2.6955637414
 30
0.0
 10
1.3305558118
 20
2.807610622
 30
0.0
 10
1.289085856
 20
2.8907898887
 30
0.0
  0
SPLINE
  5
56A
100
AcDbEntity
  8
0
100
AcDbSpline
 62
7
  6
CONTINUOUS
 70
0
 71
3
 72
9
 73
5
 74
0
 42
0.0000001
 43
0.0000001
 44
0.0000000001
 40
0.0
 40
0.0
 40
0.0
 40
0.0
 40
0.255207498
 40
1.0
 40
1.0
 40
1.0
 40
1.0
 10
0.7196333832
 20
1.2491006209
 30
0.0
 10
0.7320802024
 20
1.2467802954
 30
0.0
 10
0.7808999855
 20
1.2379543365
 30
0.0
 10
0.8299315999
 20
1.2302658618
 30
0.0
 10
0.866561783
 20
1.225412296
 30
0.0
  0
SPLINE
  5
56B
100
AcDbEntity
  8
RACCORDO
100
AcDbSpline
 62
250
  6
CONTINUOUS
 70
0
 71
3
 72
9
 73
5
 74
0
 42
0.0000001
 43
0.0000001
 44
0.0000000001
 40
0.0
 40
0.0
 40
0.0
 40
0.0
 40
0.231053784
 40
1.0
 40
1.0
 40
1.0
 40
1.0
 10
0.4124056855
 20
0.2254153866
 30
0.0
 10
0.4597505982
 20
0.2314060398
 30
0.0
 10
0.6627958681
 20
0.2722511388
 30
0.0
 10
0.8524770566
 20
0.3663588216
 30
0.0
 10
0.9848755253
 20
0.4540768198
 30
0.0
  0
SPLINE
  5
56C
100
AcDbEntity
  8
RACCORDO
100
AcDbSpline
 62
250
  6
CONTINUOUS
 70
0
 71
3
 72
11
 73
7
 74
0
 42
0.0000001
 43
0.0000001
 44
0.0000000001
 40
0.0
 40
0.0
 40
0.0
 40
0.0
 40
0.2358545894
 40
0.4929809383
 40
0.7538574033
 40
1.0
 40
1.0
 40
1.0
 40
1.0
 10
0.9848755253
 20
0.4540768198
 30
0.0
 10
1.1479125574
 20
0.5620937947
 30
0.0
 10
1.4542725813
 20
0.8409197291
 30
0.0
 10
1.8133052646
 20
1.3577661021
 30
0.0
 10
2.0640474768
 20
1.944217042
 30
0.0
 10
2.1449035131
 20
2.3615390089
 30
0.0
 10
2.1563526575
 20
2.565321403
 30
0.0
  0
SPLINE
  5
56D
100
AcDbEntity
  8
0
100
AcDbSpline
 62
7
  6
CONTINUOUS
 70
0
 71
3
 72
9
 73
5
 74
0
 42
0.0000001
 43
0.0000001
 44
0.0000000001
 40
0.0
 40
0.0
 40
0.0
 40
0.0
 40
0.2346017627
 40
1.0
 40
1.0
 40
1.0
 40
1.0
 10
0.9278193498
 20
0.7366412476
 30
0.0
 10
0.9531953095
 20
0.7439223981
 30
0.0
 10
1.0597618062
 20
0.7805168863
 30
0.0
 10
1.1588006967
 20
0.837189853
 30
0.0
 10
1.2289285342
 20
0.8871958349
 30
0.0
  0
SPLINE
  5
56E
100
AcDbEntity
  8
0
100
AcDbSpline
 62
7
  6
CONTINUOUS
 70
0
 71
3
 72
9
 73
5
 74
0
 42
0.0000001
 43
0.0000001
 44
0.0000000001
 40
0.0
 40
0.0
 40
0.0
 40
0.0
 40
0.2462426195
 40
1.0
 40
1.0
 40
1.0
 40
1.0
 10
1.2289285342
 20
0.8871958349
 30
0.0
 10
1.249404837
 20
0.9222672202
 30
0.0
 10
1.3292323953
 20
1.0666164145
 30
0.0
 10
1.3957696689
 20
1.21826501
 30
0.0
 10
1.4382437616
 20
1.3350965655
 30
0.0
  0
LINE
  5
56F
100
AcDbEntity
  8
0
100
AcDbLine
 62
7
  6
CONTINUOUS
 10
0.7730581715
 20
1.9630527631
 11
0.7883468949
 21
1.9551186458
  0
LINE
  5
570
100
AcDbEntity
  8
0
100
AcDbLine
 62
7
  6
CONTINUOUS
 10
0.7883468949
 20
1.9551186458
 11
0.8096585878
 21
1.9440589115
  0
LINE
  5
571
100
AcDbEntity
  8
0
100
AcDbLine
 62
7
  6
CONTINUOUS
 10
0.8096585878
 20
1.9440589115
 11
1.542875187
 21
1.5635679158
  0
LINE
  5
572
100
AcDbEntity
  8
0
100
AcDbLine
 62
7
  6
CONTINUOUS
 10
0.9067952955
 20
2.2071180363
 11
0.9431702057
 21
2.1860601545
  0
LINE
  5
573
100
AcDbEntity
  8
0
100
AcDbLine
 62
7
  6
CONTINUOUS
 10
0.9431702057
 20
2.1860601545
 11
1.6832872246
 21
1.7577336922
  0
SPLINE
  5
574
100
AcDbEntity
  8
0
100
AcDbSpline
 62
7
  6
CONTINUOUS
 70
0
 71
3
 72
9
 73
5
 74
0
 42
0.0000001
 43
0.0000001
 44
0.0000000001
 40
0.0
 40
0.0
 40
0.0
 40
0.0
 40
0.2558118196
 40
1.0
 40
1.0
 40
1.0
 40
1.0
 10
1.6832872246
 20
1.7577336922
 30
0.0
 10
1.7083888173
 20
1.7863838616
 30
0.0
 10
1.8038546436
 20
1.9006699156
 30
0.0
 10
1.888522374
 20
2.024079419
 30
0.0
 10
1.9437791167
 20
2.1201306873
 30
0.0
  0
LINE
  5
575
100
AcDbEntity
  8
0
100
AcDbLine
 62
7
  6
CONTINUOUS
 10
1.0942607149
 20
2.6708720818
 11
1.4382432425
 21
2.553003081
  0
SPLINE
  5
576
100
AcDbEntity
  8
0
100
AcDbSpline
 62
7
  6
CONTINUOUS
 70
0
 71
3
 72
9
 73
5
 74
0
 42
0.0000001
 43
0.0000001
 44
0.0000000001
 40
0.0
 40
0.0
 40
0.0
 40
0.0
 40
0.2557977514
 40
1.0
 40
1.0
 40
1.0
 40
1.0
 10
1.9437791167
 20
2.1201306873
 30
0.0
 10
1.9459248761
 20
2.1363096577
 30
0.0
 10
1.9533376031
 20
2.1996817503
 30
0.0
 10
1.956777497
 20
2.2635385833
 30
0.0
 10
1.956777497
 20
2.3110208564
 30
0.0
  0
LINE
  5
577
100
AcDbEntity
  8
0
100
AcDbLine
 62
7
  6
CONTINUOUS
 10
1.2289285342
 20
0.8871958349
 11
1.0013239904
 21
1.1423898658
  0
LINE
  5
578
100
AcDbEntity
  8
0
100
AcDbLine
 62
7
  6
CONTINUOUS
 10
1.0013239904
 20
1.1423898658
 11
0.983770221
 21
1.1621028711
  0
LINE
  5
579
100
AcDbEntity
  8
0
100
AcDbLine
 62
7
  6
CONTINUOUS
 10
0.983770221
 20
1.1621028711
 11
0.9452829832
 21
1.2053428253
  0
LINE
  5
57A
100
AcDbEntity
  8
0
100
AcDbLine
 62
7
  6
CONTINUOUS
 10
0.9452829832
 20
1.2053428253
 11
0.8082268214
 21
1.3595514997
  0
LINE
  5
57B
100
AcDbEntity
  8
0
100
AcDbLine
 62
7
  6
CONTINUOUS
 10
1.4382437616
 20
1.3350965655
 11
0.5614315946
 21
1.7369693855
  0
LINE
  5
57C
100
AcDbEntity
  8
0
100
AcDbLine
 62
7
  6
CONTINUOUS
 10
0.6888708157
 20
1.2605248903
 11
0.4595262895
 21
1.4206394622
  0
SPLINE
  5
57D
100
AcDbEntity
  8
RACCORDO
100
AcDbSpline
 62
7
  6
CONTINUOUS
 70
0
 71
3
 72
9
 73
5
 74
0
 42
0.0000001
 43
0.0000001
 44
0.0000000001
 40
0.0
 40
0.0
 40
0.0
 40
0.0
 40
0.2486266293
 40
1.0
 40
1.0
 40
1.0
 40
1.0
 10
8.6052058627
 20
11.2978231977
 30
0.0
 10
8.5722239068
 20
11.3140301783
 30
0.0
 10
8.4373884563
 20
11.3747100672
 30
0.0
 10
8.2943066812
 20
11.4168576562
 30
0.0
 10
8.1852311109
 20
11.4377501202
 30
0.0
  0
SPLINE
  5
57E
100
AcDbEntity
  8
0
100
AcDbSpline
 62
7
  6
CONTINUOUS
 70
0
 71
3
 72
10
 73
6
 74
0
 42
0.0000001
 43
0.0000001
 44
0.0000000001
 40
0.0
 40
0.0
 40
0.0
 40
0.0
 40
0.2832553532
 40
0.5445021504
 40
1.0
 40
1.0
 40
1.0
 40
1.0
 10
5.1068925044
 20
9.2674634465
 30
0.0
 10
5.1074036755
 20
9.2056792196
 30
0.0
 10
5.1165194742
 20
9.0865911405
 30
0.0
 10
5.1669162738
 20
8.8741994517
 30
0.0
 10
5.2480693322
 20
8.7321247592
 30
0.0
 10
5.3194836612
 20
8.6630457629
 30
0.0
  0
SPLINE
  5
57F
100
AcDbEntity
  8
RACCORDO
100
AcDbSpline
 62
7
  6
CONTINUOUS
 70
0
 71
3
 72
10
 73
6
 74
0
 42
0.0000001
 43
0.0000001
 44
0.0000000001
 40
0.0
 40
0.0
 40
0.0
 40
0.0
 40
0.2023363981
 40
0.5878342861
 40
1.0
 40
1.0
 40
1.0
 40
1.0
 10
8.1852311109
 20
11.4377501202
 30
0.0
 10
8.1132593046
 20
11.4515356853
 30
0.0
 10
7.9039007895
 20
11.490227388
 30
0.0
 10
7.5484205737
 20
11.5592876898
 30
0.0
 10
7.2679358824
 20
11.6308130258
 30
0.0
 10
7.1260782737
 20
11.6772797697
 30
0.0
  0
SPLINE
  5
580
100
AcDbEntity
  8
RACCORDO
100
AcDbSpline
 62
250
  6
CONTINUOUS
 70
0
 71
3
 72
11
 73
7
 74
0
 42
0.0000001
 43
0.0000001
 44
0.0000000001
 40
0.0
 40
0.0
 40
0.0
 40
0.0
 40
0.2801732116
 40
0.539671297
 40
0.778752356
 40
1.0
 40
1.0
 40
1.0
 40
1.0
 10
-21.7091205673
 20
-8.0220422574
 30
0.0
 10
-21.7149345126
 20
-7.7172037616
 30
0.0
 10
-21.7621517543
 20
-7.1297212447
 30
0.0
 10
-21.9533968269
 20
-6.3005210324
 30
0.0
 10
-22.2589427105
 20
-5.5746044627
 30
0.0
 10
-22.5456193623
 20
-5.1579099389
 30
0.0
 10
-22.7050700711
 20
-4.9775069116
 30
0.0
  0
SPLINE
  5
581
100
AcDbEntity
  8
RACCORDO
100
AcDbSpline
 62
250
  6
CONTINUOUS
 70
0
 71
3
 72
9
 73
5
 74
0
 42
0.0000001
 43
0.0000001
 44
0.0000000001
 40
0.0
 40
0.0
 40
0.0
 40
0.0
 40
0.2411118693
 40
1.0
 40
1.0
 40
1.0
 40
1.0
 10
-26.3439859421
 20
-0.8620882982
 30
0.0
 10
-26.3517086381
 20
-0.8533735285
 30
0.0
 10
-26.3822527564
 20
-0.8159207491
 30
0.0
 10
-26.4067613412
 20
-0.7737023033
 30
0.0
 10
-26.4220396182
 20
-0.7403891919
 30
0.0
  0
SPLINE
  5
582
100
AcDbEntity
  8
RACCORDO
100
AcDbSpline
 62
250
  6
CONTINUOUS
 70
0
 71
3
 72
11
 73
7
 74
0
 42
0.0000001
 43
0.0000001
 44
0.0000000001
 40
0.0
 40
0.0
 40
0.0
 40
0.0
 40
0.2127278105
 40
0.4547210916
 40
0.7205204308
 40
1.0
 40
1.0
 40
1.0
 40
1.0
 10
-26.4220396182
 20
-0.7403891919
 30
0.0
 10
-26.4503922968
 20
-0.6785683506
 30
0.0
 10
-26.4876821054
 20
-0.5355172799
 30
0.0
 10
-26.4894130814
 20
-0.3035674277
 30
0.0
 10
-26.4420908642
 20
-0.0549460517
 30
0.0
 10
-26.3804756722
 20
0.1091316638
 30
0.0
 10
-26.3424389545
 20
0.1899855379
 30
0.0
  0
SPLINE
  5
583
100
AcDbEntity
  8
RACCORDO
100
AcDbSpline
 62
250
  6
CONTINUOUS
 70
0
 71
3
 72
11
 73
7
 74
0
 42
0.0000001
 43
0.0000001
 44
0.0000000001
 40
0.0
 40
0.0
 40
0.0
 40
0.0
 40
0.2571526514
 40
0.5115366663
 40
0.7600894359
 40
1.0
 40
1.0
 40
1.0
 40
1.0
 10
-26.3424389545
 20
0.1899855379
 30
0.0
 10
-26.0713562148
 20
0.7742005383
 30
0.0
 10
-25.4826910688
 20
1.9141404706
 30
0.0
 10
-24.4671344638
 20
3.5270083868
 30
0.0
 10
-23.3397083581
 20
5.0099907396
 30
0.0
 10
-22.5100990821
 20
5.9122308477
 30
0.0
 10
-22.0810082626
 20
6.3328436427
 30
0.0
  0
SPLINE
  5
584
100
AcDbEntity
  8
RACCORDO
100
AcDbSpline
 62
250
  6
CONTINUOUS
 70
0
 71
3
 72
11
 73
7
 74
0
 42
0.0000001
 43
0.0000001
 44
0.0000000001
 40
0.0
 40
0.0
 40
0.0
 40
0.0
 40
0.2172310042
 40
0.4506294064
 40
0.7104367245
 40
1.0
 40
1.0
 40
1.0
 40
1.0
 10
-21.310566676
 20
-15.9820981887
 30
0.0
 10
-21.3503299109
 20
-15.9622121915
 30
0.0
 10
-21.4256795003
 20
-15.9052023534
 30
0.0
 10
-21.5072825319
 20
-15.7822762994
 30
0.0
 10
-21.557447652
 20
-15.6285293928
 30
0.0
 10
-21.5687443099
 20
-15.5158500392
 30
0.0
 10
-21.5697294088
 20
-15.4565960612
 30
0.0
  0
SPLINE
  5
585
100
AcDbEntity
  8
RACCORDO
100
AcDbSpline
 62
250
  6
CONTINUOUS
 70
0
 71
3
 72
11
 73
7
 74
0
 42
0.0000001
 43
0.0000001
 44
0.0000000001
 40
0.0
 40
0.0
 40
0.0
 40
0.0
 40
0.208347444
 40
0.437036703
 40
0.6996406613
 40
1.0
 40
1.0
 40
1.0
 40
1.0
 10
-21.8555108902
 20
-7.8471078601
 30
0.0
 10
-21.8552000772
 20
-7.863697635
 30
0.0
 10
-21.8474875653
 20
-7.8986314669
 30
0.0
 10
-21.8168102547
 20
-7.9461751939
 30
0.0
 10
-21.769439008
 20
-7.9885918405
 30
0.0
 10
-21.7305712636
 20
-8.0114565884
 30
0.0
 10
-21.7091205673
 20
-8.0220422574
 30
0.0
  0
SPLINE
  5
586
100
AcDbEntity
  8
RACCORDO
100
AcDbSpline
 62
250
  6
CONTINUOUS
 70
0
 71
3
 72
11
 73
7
 74
0
 42
0.0000001
 43
0.0000001
 44
0.0000000001
 40
0.0
 40
0.0
 40
0.0
 40
0.0
 40
0.2820084312
 40
0.5407581314
 40
0.7772809214
 40
1.0
 40
1.0
 40
1.0
 40
1.0
 10
-9.2414169416
 20
-21.4232406938
 30
0.0
 10
-9.2496856462
 20
-21.4620453161
 30
0.0
 10
-9.2731817856
 20
-21.5351901387
 30
0.0
 10
-9.3315573596
 20
-21.6291941803
 30
0.0
 10
-9.4088843914
 20
-21.6968348377
 30
0.0
 10
-9.4708887973
 20
-21.7204422997
 30
0.0
 10
-9.5017595414
 20
-21.725812665
 30
0.0
  0
SPLINE
  5
587
100
AcDbEntity
  8
RACCORDO
100
AcDbSpline
 62
250
  6
CONTINUOUS
 70
0
 71
3
 72
11
 73
7
 74
0
 42
0.0000001
 43
0.0000001
 44
0.0000000001
 40
0.0
 40
0.0
 40
0.0
 40
0.0
 40
0.2373843455
 40
0.5018676156
 40
0.7653458867
 40
1.0
 40
1.0
 40
1.0
 40
1.0
 10
-9.5074553235
 20
-21.1349709907
 30
0.0
 10
-9.5583967917
 20
-21.1606755123
 30
0.0
 10
-9.6748486995
 20
-21.1977115972
 30
0.0
 10
-9.8589508282
 20
-21.2158675354
 30
0.0
 10
-10.0425082902
 20
-21.1989918565
 30
0.0
 10
-10.1583035821
 20
-21.1626365543
 30
0.0
 10
-10.2086202213
 20
-21.137150653
 30
0.0
  0
SPLINE
  5
588
100
AcDbEntity
  8
RACCORDO
100
AcDbSpline
 62
250
  6
CONTINUOUS
 70
0
 71
3
 72
11
 73
7
 74
0
 42
0.0000001
 43
0.0000001
 44
0.0000000001
 40
0.0
 40
0.0
 40
0.0
 40
0.0
 40
0.2882515458
 40
0.5474528064
 40
0.7812593926
 40
1.0
 40
1.0
 40
1.0
 40
1.0
 10
-10.2086202213
 20
-21.137150655
 30
0.0
 10
-10.2078985411
 20
-21.1962064986
 30
0.0
 10
-10.1969712986
 20
-21.3086769953
 30
0.0
 10
-10.1468714544
 20
-21.462344843
 30
0.0
 10
-10.0647930583
 20
-21.5854987034
 30
0.0
 10
-9.9890335805
 20
-21.6427430989
 30
0.0
 10
-9.9489953702
 20
-21.6628826218
 30
0.0
  0
SPLINE
  5
589
100
AcDbEntity
  8
RACCORDO
100
AcDbSpline
 62
250
  6
CONTINUOUS
 70
0
 71
3
 72
12
 73
8
 74
0
 42
0.0000001
 43
0.0000001
 44
0.0000000001
 40
0.0
 40
0.0
 40
0.0
 40
0.0
 40
0.2888481818
 40
0.5355262712
 40
0.6494801067
 40
0.762145522
 40
1.0
 40
1.0
 40
1.0
 40
1.0
 10
-9.5074553235
 20
-21.1349709907
 30
0.0
 10
-9.5070210797
 20
-21.1780145112
 30
0.0
 10
-9.4965582778
 20
-21.2585049725
 30
0.0
 10
-9.4485051322
 20
-21.34642894
 30
0.0
 10
-9.3933013537
 20
-21.3916212874
 30
0.0
 10
-9.329512551
 20
-21.4203037871
 30
0.0
 10
-9.2747143878
 20
-21.4214035463
 30
0.0
 10
-9.2397908113
 20
-21.4153382462
 30
0.0
  0
SPLINE
  5
58A
100
AcDbEntity
  8
RACCORDO
100
AcDbSpline
 62
250
  6
CONTINUOUS
 70
0
 71
3
 72
11
 73
7
 74
0
 42
0.0000001
 43
0.0000001
 44
0.0000000001
 40
0.0
 40
0.0
 40
0.0
 40
0.0
 40
0.2373843689
 40
0.5018676459
 40
0.7653459067
 40
1.0
 40
1.0
 40
1.0
 40
1.0
 10
-9.5810272461
 20
-13.7333268047
 30
0.0
 10
-9.6319687194
 20
-13.7590313289
 30
0.0
 10
-9.7484206349
 20
-13.7960674148
 30
0.0
 10
-9.9325227686
 20
-13.81422335
 30
0.0
 10
-10.1160802247
 20
-13.7973476694
 30
0.0
 10
-10.2318755091
 20
-13.7609923684
 30
0.0
 10
-10.2821921439
 20
-13.7355064691
 30
0.0
  0
SPLINE
  5
58B
100
AcDbEntity
  8
RACCORDO
100
AcDbSpline
 62
250
  6
CONTINUOUS
 70
0
 71
3
 72
11
 73
7
 74
0
 42
0.0000001
 43
0.0000001
 44
0.0000000001
 40
0.0
 40
0.0
 40
0.0
 40
0.0
 40
0.208347097
 40
0.437058425
 40
0.6996685007
 40
1.0
 40
1.0
 40
1.0
 40
1.0
 10
-21.7161168608
 20
-15.2818103376
 30
0.0
 10
-21.7157871926
 20
-15.298389532
 30
0.0
 10
-21.7080439931
 20
-15.3332938368
 30
0.0
 10
-21.6773593904
 20
-15.3807913499
 30
0.0
 10
-21.6300080466
 20
-15.4231701134
 30
0.0
 10
-21.5911649488
 20
-15.4460178714
 30
0.0
 10
-21.5697294088
 20
-15.4565960612
 30
0.0
  0
SPLINE
  5
58C
100
AcDbEntity
  8
RACCORDO
100
AcDbSpline
 62
250
  6
CONTINUOUS
 70
0
 71
3
 72
11
 73
7
 74
0
 42
0.0000001
 43
0.0000001
 44
0.0000000001
 40
0.0
 40
0.0
 40
0.0
 40
0.0
 40
0.2688786104
 40
0.5330601121
 40
0.7784787275
 40
1.0
 40
1.0
 40
1.0
 40
1.0
 10
-10.6481160003
 20
-10.4713246486
 30
0.0
 10
-10.6857530622
 20
-10.5234114049
 30
0.0
 10
-10.7767037309
 20
-10.6157523264
 30
0.0
 10
-10.9423274216
 20
-10.7063180835
 30
0.0
 10
-11.1174410288
 20
-10.7389195529
 30
0.0
 10
-11.2307490659
 20
-10.7145709044
 30
0.0
 10
-11.2781416478
 20
-10.6909711233
 30
0.0
  0
SPLINE
  5
58D
100
AcDbEntity
  8
RACCORDO
100
AcDbSpline
 62
250
  6
CONTINUOUS
 70
0
 71
3
 72
11
 73
7
 74
0
 42
0.0000001
 43
0.0000001
 44
0.0000000001
 40
0.0
 40
0.0
 40
0.0
 40
0.0
 40
0.2230831235
 40
0.4625369643
 40
0.7212925454
 40
1.0
 40
1.0
 40
1.0
 40
1.0
 10
-11.2781416478
 20
-10.6909711233
 30
0.0
 10
-11.1162549578
 20
-10.8721858635
 30
0.0
 10
-10.8254901232
 20
-11.2896608276
 30
0.0
 10
-10.5171563344
 20
-12.0171804594
 30
0.0
 10
-10.3279929794
 20
-12.8458366199
 30
0.0
 10
-10.2851169452
 20
-13.4319375834
 30
0.0
 10
-10.2821921439
 20
-13.7355064691
 30
0.0
  0
SPLINE
  5
58E
100
AcDbEntity
  8
RACCORDO
100
AcDbSpline
 62
250
  6
CONTINUOUS
 70
0
 71
3
 72
11
 73
7
 74
0
 42
0.0000001
 43
0.0000001
 44
0.0000000001
 40
0.0
 40
0.0
 40
0.0
 40
0.0
 40
0.2230218986
 40
0.4624635559
 40
0.7212436969
 40
1.0
 40
1.0
 40
1.0
 40
1.0
 10
-10.6481160003
 20
-10.4713246486
 30
0.0
 10
-10.4747571364
 20
-10.6654579298
 30
0.0
 10
-10.163360502
 20
-11.1127179128
 30
0.0
 10
-9.8331102415
 20
-11.8921501565
 30
0.0
 10
-9.6303542856
 20
-12.7800133955
 30
0.0
 10
-9.5842678921
 20
-13.4080287059
 30
0.0
 10
-9.5810272461
 20
-13.7333268047
 30
0.0
  0
SPLINE
  5
58F
100
AcDbEntity
  8
RACCORDO
100
AcDbSpline
 62
250
  6
CONTINUOUS
 70
0
 71
3
 72
11
 73
7
 74
0
 42
0.0000001
 43
0.0000001
 44
0.0000000001
 40
0.0
 40
0.0
 40
0.0
 40
0.0
 40
0.2688786067
 40
0.5330601079
 40
0.7784787246
 40
1.0
 40
1.0
 40
1.0
 40
1.0
 10
-14.3528511071
 20
-6.3229964172
 30
0.0
 10
-14.3904881685
 20
-6.3750831729
 30
0.0
 10
-14.4814388363
 20
-6.4674240938
 30
0.0
 10
-14.6470625259
 20
-6.5579898515
 30
0.0
 10
-14.8221761338
 20
-6.5905913224
 30
0.0
 10
-14.9354841721
 20
-6.5662426735
 30
0.0
 10
-14.9828767546
 20
-6.542642892
 30
0.0
  0
SPLINE
  5
590
100
AcDbEntity
  8
RACCORDO
100
AcDbSpline
 62
250
  6
CONTINUOUS
 70
0
 71
3
 72
10
 73
6
 74
0
 42
0.0000001
 43
0.0000001
 44
0.0000000001
 40
0.0
 40
0.0
 40
0.0
 40
0.0
 40
0.2111408659
 40
0.47490208
 40
1.0
 40
1.0
 40
1.0
 40
1.0
 10
-14.348377995
 20
-5.7988093083
 30
0.0
 10
-14.3933464446
 20
-5.7789325165
 30
0.0
 10
-14.4937422232
 20
-5.7325400405
 30
0.0
 10
-14.7036754968
 20
-5.6317993018
 30
0.0
 10
-14.8680503112
 20
-5.5497239788
 30
0.0
 10
-14.9763893428
 20
-5.4930388173
 30
0.0
  0
SPLINE
  5
591
100
AcDbEntity
  8
RACCORDO
100
AcDbSpline
 62
250
  6
CONTINUOUS
 70
0
 71
3
 72
13
 73
9
 74
0
 42
0.0000001
 43
0.0000001
 44
0.0000000001
 40
0.0
 40
0.0
 40
0.0
 40
0.0
 40
0.2899538477
 40
0.5597324402
 40
0.6830066622
 40
0.7971671218
 40
0.9024372822
 40
1.0
 40
1.0
 40
1.0
 40
1.0
 10
-14.9763969426
 20
-5.4930354681
 30
0.0
 10
-15.0228993046
 20
-5.588997514
 30
0.0
 10
-15.0948565745
 20
-5.783484721
 30
0.0
 10
-15.1311932685
 20
-6.0346216593
 30
0.0
 10
-15.120442059
 20
-6.2214332201
 30
0.0
 10
-15.0940073579
 20
-6.3452717564
 30
0.0
 10
-15.0494393292
 20
-6.4537388285
 30
0.0
 10
-15.0067397631
 20
-6.5158480535
 30
0.0
 10
-14.9828767546
 20
-6.542642892
 30
0.0
  0
SPLINE
  5
592
100
AcDbEntity
  8
RACCORDO
100
AcDbSpline
 62
250
  6
CONTINUOUS
 70
0
 71
3
 72
12
 73
8
 74
0
 42
0.0000001
 43
0.0000001
 44
0.0000000001
 40
0.0
 40
0.0
 40
0.0
 40
0.0
 40
0.2902252847
 40
0.5601117497
 40
0.6834518237
 40
0.7977362357
 40
1.0
 40
1.0
 40
1.0
 40
1.0
 10
-14.3483779949
 20
-5.7988093084
 30
0.0
 10
-14.371887547
 20
-5.8466276523
 30
0.0
 10
-14.4083418919
 20
-5.943616794
 30
0.0
 10
-14.426968701
 20
-6.0689867406
 30
0.0
 10
-14.4217141131
 20
-6.1623938867
 30
0.0
 10
-14.4050076939
 20
-6.241502649
 30
0.0
 10
-14.3775775927
 20
-6.2952901391
 30
0.0
 10
-14.3528511071
 20
-6.3229964172
 30
0.0
  0
SPLINE
  5
593
100
AcDbEntity
  8
RACCORDO
100
AcDbSpline
 62
250
  6
CONTINUOUS
 70
0
 71
3
 72
12
 73
8
 74
0
 42
0.0000001
 43
0.0000001
 44
0.0000000001
 40
0.0
 40
0.0
 40
0.0
 40
0.0
 40
0.10721448
 40
0.2275287291
 40
0.492145336
 40
0.7610228119
 40
1.0
 40
1.0
 40
1.0
 40
1.0
 10
-10.0710565302
 20
0.036336256
 30
0.0
 10
-10.0796833128
 20
0.0605227953
 30
0.0
 10
-10.101844634
 20
0.1104952323
 30
0.0
 10
-10.1608207025
 20
0.212714242
 30
0.0
 10
-10.2570558655
 20
0.3372562289
 30
0.0
 10
-10.3903990051
 20
0.4661945808
 30
0.0
 10
-10.4908389213
 20
0.5365329911
 30
0.0
 10
-10.5415339251
 20
0.5631064739
 30
0.0
  0
SPLINE
  5
594
100
AcDbEntity
  8
RACCORDO
100
AcDbSpline
 62
250
  6
CONTINUOUS
 70
0
 71
3
 72
11
 73
7
 74
0
 42
0.0000001
 43
0.0000001
 44
0.0000000001
 40
0.0
 40
0.0
 40
0.0
 40
0.0
 40
0.2408902194
 40
0.4897339316
 40
0.743767591
 40
1.0
 40
1.0
 40
1.0
 40
1.0
 10
-10.5415339251
 20
0.5631064739
 30
0.0
 10
-10.9855906569
 20
0.1509857575
 30
0.0
 10
-11.8452440085
 20
-0.7343379561
 30
0.0
 10
-13.0176173189
 20
-2.1950862424
 30
0.0
 10
-14.0761775998
 20
-3.7867421846
 30
0.0
 10
-14.6922538621
 20
-4.9146469183
 30
0.0
 10
-14.9763969426
 20
-5.4930354681
 30
0.0
  0
SPLINE
  5
595
100
AcDbEntity
  8
RACCORDO
100
AcDbSpline
 62
250
  6
CONTINUOUS
 70
0
 71
3
 72
11
 73
7
 74
0
 42
0.0000001
 43
0.0000001
 44
0.0000000001
 40
0.0
 40
0.0
 40
0.0
 40
0.0
 40
0.2409084372
 40
0.4897576111
 40
0.7437847481
 40
1.0
 40
1.0
 40
1.0
 40
1.0
 10
-10.0710565302
 20
0.036336256
 30
0.0
 10
-10.4992923471
 20
-0.3607007277
 30
0.0
 10
-11.3283456805
 20
-1.2136363635
 30
0.0
 10
-12.4590520733
 20
-2.6210581534
 30
0.0
 10
-13.4800426425
 20
-4.1546586828
 30
0.0
 10
-14.0742898396
 20
-5.2414829853
 30
0.0
 10
-14.3483779949
 20
-5.7988093084
 30
0.0
  0
SPLINE
  5
596
100
AcDbEntity
  8
RACCORDO
100
AcDbSpline
 62
250
  6
CONTINUOUS
 70
0
 71
3
 72
9
 73
5
 74
0
 42
0.0000001
 43
0.0000001
 44
0.0000000001
 40
0.0
 40
0.0
 40
0.0
 40
0.0
 40
0.2485949815
 40
1.0
 40
1.0
 40
1.0
 40
1.0
 10
-26.4361967281
 20
-0.7915160472
 30
0.0
 10
-26.4297970271
 20
-0.7987455964
 30
0.0
 10
-26.4026472041
 20
-0.826561342
 30
0.0
 10
-26.3700676073
 20
-0.8489946967
 30
0.0
 10
-26.3439859413
 20
-0.8620882991
 30
0.0
  0
SPLINE
  5
597
100
AcDbEntity
  8
RACCORDO
100
AcDbSpline
 62
250
  6
CONTINUOUS
 70
0
 71
3
 72
18
 73
14
 74
0
 42
0.0000001
 43
0.0000001
 44
0.0000000001
 40
0.0
 40
0.0
 40
0.0
 40
0.0
 40
0.0047415391
 40
0.017488308
 40
0.038430519
 40
0.0675444452
 40
0.1047800246
 40
0.1500613548
 40
0.2640907181
 40
0.4081674922
 40
0.5806822124
 40
0.7790121817
 40
1.0
 40
1.0
 40
1.0
 40
1.0
 10
-26.515721887
 20
0.2765993086
 30
0.0
 10
-26.5158436664
 20
0.276318145
 30
0.0
 10
-26.5144785527
 20
0.275473529
 30
0.0
 10
-26.5128464083
 20
0.2742201919
 30
0.0
 10
-26.5090893896
 20
0.2721187479
 30
0.0
 10
-26.504256365
 20
0.2694244817
 30
0.0
 10
-26.4978421459
 20
0.2660330989
 30
0.0
 10
-26.4865834835
 20
0.260196831
 30
0.0
 10
-26.4690629434
 20
0.2513698263
 30
0.0
 10
-26.4441226985
 20
0.2390393979
 30
0.0
 10
-26.4142105485
 20
0.2244580802
 30
0.0
 10
-26.3797673877
 20
0.2078359292
 30
0.0
 10
-26.3553267139
 20
0.1961354453
 30
0.0
 10
-26.3424384224
 20
0.1899853032
 30
0.0
  0
SPLINE
  5
598
100
AcDbEntity
  8
RACCORDO
100
AcDbSpline
 62
250
  6
CONTINUOUS
 70
0
 71
3
 72
12
 73
8
 74
0
 42
0.0000001
 43
0.0000001
 44
0.0000000001
 40
0.0
 40
0.0
 40
0.0
 40
0.0
 40
0.091046659
 40
0.1868054637
 40
0.5330128329
 40
0.7519207571
 40
1.0
 40
1.0
 40
1.0
 40
1.0
 10
-22.3083739607
 20
6.3450723303
 30
0.0
 10
-22.3031724321
 20
6.3501681733
 30
0.0
 10
-22.2910847556
 20
6.3592674123
 30
0.0
 10
-22.2513995707
 20
6.3758644749
 30
0.0
 10
-22.1959709967
 20
6.3732241206
 30
0.0
 10
-22.133546803
 20
6.3558574495
 30
0.0
 10
-22.0989189841
 20
6.3413798076
 30
0.0
 10
-22.0810082626
 20
6.3328436427
 30
0.0
  0
SPLINE
  5
599
100
AcDbEntity
  8
RACCORDO
100
AcDbSpline
 62
250
  6
CONTINUOUS
 70
0
 71
3
 72
9
 73
5
 74
0
 42
0.0000001
 43
0.0000001
 44
0.0000000001
 40
0.0
 40
0.0
 40
0.0
 40
0.0
 40
0.248594975
 40
1.0
 40
1.0
 40
1.0
 40
1.0
 10
-22.7972808516
 20
-4.9069346676
 30
0.0
 10
-22.7908811515
 20
-4.9141642161
 30
0.0
 10
-22.7637313306
 20
-4.9419799593
 30
0.0
 10
-22.7311517354
 20
-4.9644133107
 30
0.0
 10
-22.7050700711
 20
-4.9775069116
 30
0.0
  0
SPLINE
  5
59A
100
AcDbEntity
  8
ASSI
100
AcDbSpline
 62
250
  6
CONTINUOUS
 70
0
 71
3
 72
11
 73
7
 74
0
 42
0.0000001
 43
0.0000001
 44
0.0000000001
 40
0.0
 40
0.0
 40
0.0
 40
0.0
 40
0.208347444
 40
0.437036703
 40
0.6996406613
 40
1.0
 40
1.0
 40
1.0
 40
1.0
 10
-21.8555108902
 20
-7.8471078601
 30
0.0
 10
-21.8552000772
 20
-7.863697635
 30
0.0
 10
-21.8474875653
 20
-7.8986314669
 30
0.0
 10
-21.8168102547
 20
-7.9461751939
 30
0.0
 10
-21.769439008
 20
-7.9885918405
 30
0.0
 10
-21.7305712636
 20
-8.0114565884
 30
0.0
 10
-21.7091205673
 20
-8.0220422574
 30
0.0
  0
SPLINE
  5
59B
100
AcDbEntity
  8
ASSI
100
AcDbSpline
 62
250
  6
CONTINUOUS
 70
0
 71
3
 72
11
 73
7
 74
0
 42
0.0000001
 43
0.0000001
 44
0.0000000001
 40
0.0
 40
0.0
 40
0.0
 40
0.0
 40
0.2801732116
 40
0.539671297
 40
0.778752356
 40
1.0
 40
1.0
 40
1.0
 40
1.0
 10
-21.7091205673
 20
-8.0220422574
 30
0.0
 10
-21.7149345126
 20
-7.7172037616
 30
0.0
 10
-21.7621517543
 20
-7.1297212447
 30
0.0
 10
-21.9533968269
 20
-6.3005210324
 30
0.0
 10
-22.2589427105
 20
-5.5746044627
 30
0.0
 10
-22.5456193623
 20
-5.1579099389
 30
0.0
 10
-22.7050700711
 20
-4.9775069116
 30
0.0
  0
SPLINE
  5
59C
100
AcDbEntity
  8
ASSI
100
AcDbSpline
 62
250
  6
CONTINUOUS
 70
0
 71
3
 72
9
 73
5
 74
0
 42
0.0000001
 43
0.0000001
 44
0.0000000001
 40
0.0
 40
0.0
 40
0.0
 40
0.0
 40
0.2411118693
 40
1.0
 40
1.0
 40
1.0
 40
1.0
 10
-26.3439859421
 20
-0.8620882982
 30
0.0
 10
-26.3517086381
 20
-0.8533735285
 30
0.0
 10
-26.3822527564
 20
-0.8159207491
 30
0.0
 10
-26.4067613412
 20
-0.7737023033
 30
0.0
 10
-26.4220396182
 20
-0.7403891919
 30
0.0
  0
SPLINE
  5
59D
100
AcDbEntity
  8
ASSI
100
AcDbSpline
 62
250
  6
CONTINUOUS
 70
0
 71
3
 72
11
 73
7
 74
0
 42
0.0000001
 43
0.0000001
 44
0.0000000001
 40
0.0
 40
0.0
 40
0.0
 40
0.0
 40
0.2127278105
 40
0.4547210916
 40
0.7205204308
 40
1.0
 40
1.0
 40
1.0
 40
1.0
 10
-26.4220396182
 20
-0.7403891919
 30
0.0
 10
-26.4503922968
 20
-0.6785683506
 30
0.0
 10
-26.4876821054
 20
-0.5355172799
 30
0.0
 10
-26.4894130814
 20
-0.3035674277
 30
0.0
 10
-26.4420908642
 20
-0.0549460517
 30
0.0
 10
-26.3804756722
 20
0.1091316638
 30
0.0
 10
-26.3424389545
 20
0.1899855379
 30
0.0
  0
SPLINE
  5
59E
100
AcDbEntity
  8
ASSI
100
AcDbSpline
 62
250
  6
CONTINUOUS
 70
0
 71
3
 72
11
 73
7
 74
0
 42
0.0000001
 43
0.0000001
 44
0.0000000001
 40
0.0
 40
0.0
 40
0.0
 40
0.0
 40
0.2571526514
 40
0.5115366663
 40
0.7600894359
 40
1.0
 40
1.0
 40
1.0
 40
1.0
 10
-26.3424389545
 20
0.1899855379
 30
0.0
 10
-26.0713562148
 20
0.7742005383
 30
0.0
 10
-25.4826910688
 20
1.9141404706
 30
0.0
 10
-24.4671344638
 20
3.5270083868
 30
0.0
 10
-23.3397083581
 20
5.0099907396
 30
0.0
 10
-22.5100990821
 20
5.9122308477
 30
0.0
 10
-22.0810082626
 20
6.3328436427
 30
0.0
  0
SPLINE
  5
59F
100
AcDbEntity
  8
ASSI
100
AcDbSpline
 62
250
  6
CONTINUOUS
 70
0
 71
3
 72
9
 73
5
 74
0
 42
0.0000001
 43
0.0000001
 44
0.0000000001
 40
0.0
 40
0.0
 40
0.0
 40
0.0
 40
0.2485949815
 40
1.0
 40
1.0
 40
1.0
 40
1.0
 10
-26.4361967281
 20
-0.7915160472
 30
0.0
 10
-26.4297970271
 20
-0.7987455964
 30
0.0
 10
-26.4026472041
 20
-0.826561342
 30
0.0
 10
-26.3700676073
 20
-0.8489946967
 30
0.0
 10
-26.3439859413
 20
-0.8620882991
 30
0.0
  0
SPLINE
  5
5A0
100
AcDbEntity
  8
ASSI
100
AcDbSpline
 62
250
  6
CONTINUOUS
 70
0
 71
3
 72
18
 73
14
 74
0
 42
0.0000001
 43
0.0000001
 44
0.0000000001
 40
0.0
 40
0.0
 40
0.0
 40
0.0
 40
0.0047415391
 40
0.017488308
 40
0.038430519
 40
0.0675444452
 40
0.1047800246
 40
0.1500613548
 40
0.2640907181
 40
0.4081674922
 40
0.5806822124
 40
0.7790121817
 40
1.0
 40
1.0
 40
1.0
 40
1.0
 10
-26.515721887
 20
0.2765993086
 30
0.0
 10
-26.5158436664
 20
0.276318145
 30
0.0
 10
-26.5144785527
 20
0.275473529
 30
0.0
 10
-26.5128464083
 20
0.2742201919
 30
0.0
 10
-26.5090893896
 20
0.2721187479
 30
0.0
 10
-26.504256365
 20
0.2694244817
 30
0.0
 10
-26.4978421459
 20
0.2660330989
 30
0.0
 10
-26.4865834835
 20
0.260196831
 30
0.0
 10
-26.4690629434
 20
0.2513698263
 30
0.0
 10
-26.4441226985
 20
0.2390393979
 30
0.0
 10
-26.4142105485
 20
0.2244580802
 30
0.0
 10
-26.3797673877
 20
0.2078359292
 30
0.0
 10
-26.3553267139
 20
0.1961354453
 30
0.0
 10
-26.3424384224
 20
0.1899853032
 30
0.0
  0
SPLINE
  5
5A1
100
AcDbEntity
  8
ASSI
100
AcDbSpline
 62
250
  6
CONTINUOUS
 70
0
 71
3
 72
11
 73
7
 74
0
 42
0.0000001
 43
0.0000001
 44
0.0000000001
 40
0.0
 40
0.0
 40
0.0
 40
0.0
 40
0.2820084312
 40
0.5407581314
 40
0.7772809214
 40
1.0
 40
1.0
 40
1.0
 40
1.0
 10
-9.2414169416
 20
-21.4232406938
 30
0.0
 10
-9.2496856462
 20
-21.4620453161
 30
0.0
 10
-9.2731817856
 20
-21.5351901387
 30
0.0
 10
-9.3315573596
 20
-21.6291941803
 30
0.0
 10
-9.4088843914
 20
-21.6968348377
 30
0.0
 10
-9.4708887973
 20
-21.7204422997
 30
0.0
 10
-9.5017595414
 20
-21.725812665
 30
0.0
  0
SPLINE
  5
5A2
100
AcDbEntity
  8
ASSI
100
AcDbSpline
 62
250
  6
CONTINUOUS
 70
0
 71
3
 72
11
 73
7
 74
0
 42
0.0000001
 43
0.0000001
 44
0.0000000001
 40
0.0
 40
0.0
 40
0.0
 40
0.0
 40
0.2373843455
 40
0.5018676156
 40
0.7653458867
 40
1.0
 40
1.0
 40
1.0
 40
1.0
 10
-9.5074553235
 20
-21.1349709907
 30
0.0
 10
-9.5583967917
 20
-21.1606755123
 30
0.0
 10
-9.6748486995
 20
-21.1977115972
 30
0.0
 10
-9.8589508282
 20
-21.2158675354
 30
0.0
 10
-10.0425082902
 20
-21.1989918565
 30
0.0
 10
-10.1583035821
 20
-21.1626365543
 30
0.0
 10
-10.2086202213
 20
-21.137150653
 30
0.0
  0
SPLINE
  5
5A3
100
AcDbEntity
  8
ASSI
100
AcDbSpline
 62
250
  6
CONTINUOUS
 70
0
 71
3
 72
11
 73
7
 74
0
 42
0.0000001
 43
0.0000001
 44
0.0000000001
 40
0.0
 40
0.0
 40
0.0
 40
0.0
 40
0.2882515458
 40
0.5474528064
 40
0.7812593926
 40
1.0
 40
1.0
 40
1.0
 40
1.0
 10
-10.2086202213
 20
-21.137150655
 30
0.0
 10
-10.2078985411
 20
-21.1962064986
 30
0.0
 10
-10.1969712986
 20
-21.3086769953
 30
0.0
 10
-10.1468714544
 20
-21.462344843
 30
0.0
 10
-10.0647930583
 20
-21.5854987034
 30
0.0
 10
-9.9890335805
 20
-21.6427430989
 30
0.0
 10
-9.9489953702
 20
-21.6628826218
 30
0.0
  0
SPLINE
  5
5A4
100
AcDbEntity
  8
ASSI
100
AcDbSpline
 62
250
  6
CONTINUOUS
 70
0
 71
3
 72
12
 73
8
 74
0
 42
0.0000001
 43
0.0000001
 44
0.0000000001
 40
0.0
 40
0.0
 40
0.0
 40
0.0
 40
0.2888481818
 40
0.5355262712
 40
0.6494801067
 40
0.762145522
 40
1.0
 40
1.0
 40
1.0
 40
1.0
 10
-9.5074553235
 20
-21.1349709907
 30
0.0
 10
-9.5070210797
 20
-21.1780145112
 30
0.0
 10
-9.4965582778
 20
-21.2585049725
 30
0.0
 10
-9.4485051322
 20
-21.34642894
 30
0.0
 10
-9.3933013537
 20
-21.3916212874
 30
0.0
 10
-9.329512551
 20
-21.4203037871
 30
0.0
 10
-9.2747143878
 20
-21.4214035463
 30
0.0
 10
-9.2397908113
 20
-21.4153382462
 30
0.0
  0
SPLINE
  5
5A5
100
AcDbEntity
  8
ASSI
100
AcDbSpline
 62
250
  6
CONTINUOUS
 70
0
 71
3
 72
11
 73
7
 74
0
 42
0.0000001
 43
0.0000001
 44
0.0000000001
 40
0.0
 40
0.0
 40
0.0
 40
0.0
 40
0.2373843689
 40
0.5018676459
 40
0.7653459067
 40
1.0
 40
1.0
 40
1.0
 40
1.0
 10
-9.5810272461
 20
-13.7333268047
 30
0.0
 10
-9.6319687194
 20
-13.7590313289
 30
0.0
 10
-9.7484206349
 20
-13.7960674148
 30
0.0
 10
-9.9325227686
 20
-13.81422335
 30
0.0
 10
-10.1160802247
 20
-13.7973476694
 30
0.0
 10
-10.2318755091
 20
-13.7609923684
 30
0.0
 10
-10.2821921439
 20
-13.7355064691
 30
0.0
  0
SPLINE
  5
5A6
100
AcDbEntity
  8
ASSI
100
AcDbSpline
 62
250
  6
CONTINUOUS
 70
0
 71
3
 72
9
 73
5
 74
0
 42
0.0000001
 43
0.0000001
 44
0.0000000001
 40
0.0
 40
0.0
 40
0.0
 40
0.0
 40
0.248594975
 40
1.0
 40
1.0
 40
1.0
 40
1.0
 10
-22.7972808516
 20
-4.9069346676
 30
0.0
 10
-22.7908811515
 20
-4.9141642161
 30
0.0
 10
-22.7637313306
 20
-4.9419799593
 30
0.0
 10
-22.7311517354
 20
-4.9644133107
 30
0.0
 10
-22.7050700711
 20
-4.9775069116
 30
0.0
  0
SPLINE
  5
5A7
100
AcDbEntity
  8
ASSI
100
AcDbSpline
 62
250
  6
CONTINUOUS
 70
0
 71
3
 72
11
 73
7
 74
0
 42
0.0000001
 43
0.0000001
 44
0.0000000001
 40
0.0
 40
0.0
 40
0.0
 40
0.0
 40
0.2688786104
 40
0.5330601121
 40
0.7784787275
 40
1.0
 40
1.0
 40
1.0
 40
1.0
 10
-10.6481160003
 20
-10.4713246486
 30
0.0
 10
-10.6857530622
 20
-10.5234114049
 30
0.0
 10
-10.7767037309
 20
-10.6157523264
 30
0.0
 10
-10.9423274216
 20
-10.7063180835
 30
0.0
 10
-11.1174410288
 20
-10.7389195529
 30
0.0
 10
-11.2307490659
 20
-10.7145709044
 30
0.0
 10
-11.2781416478
 20
-10.6909711233
 30
0.0
  0
SPLINE
  5
5A8
100
AcDbEntity
  8
ASSI
100
AcDbSpline
 62
250
  6
CONTINUOUS
 70
0
 71
3
 72
11
 73
7
 74
0
 42
0.0000001
 43
0.0000001
 44
0.0000000001
 40
0.0
 40
0.0
 40
0.0
 40
0.0
 40
0.2230831235
 40
0.4625369643
 40
0.7212925454
 40
1.0
 40
1.0
 40
1.0
 40
1.0
 10
-11.2781416478
 20
-10.6909711233
 30
0.0
 10
-11.1162549578
 20
-10.8721858635
 30
0.0
 10
-10.8254901232
 20
-11.2896608276
 30
0.0
 10
-10.5171563344
 20
-12.0171804594
 30
0.0
 10
-10.3279929794
 20
-12.8458366199
 30
0.0
 10
-10.2851169452
 20
-13.4319375834
 30
0.0
 10
-10.2821921439
 20
-13.7355064691
 30
0.0
  0
SPLINE
  5
5A9
100
AcDbEntity
  8
ASSI
100
AcDbSpline
 62
250
  6
CONTINUOUS
 70
0
 71
3
 72
11
 73
7
 74
0
 42
0.0000001
 43
0.0000001
 44
0.0000000001
 40
0.0
 40
0.0
 40
0.0
 40
0.0
 40
0.2230218986
 40
0.4624635559
 40
0.7212436969
 40
1.0
 40
1.0
 40
1.0
 40
1.0
 10
-10.6481160003
 20
-10.4713246486
 30
0.0
 10
-10.4747571364
 20
-10.6654579298
 30
0.0
 10
-10.163360502
 20
-11.1127179128
 30
0.0
 10
-9.8331102415
 20
-11.8921501565
 30
0.0
 10
-9.6303542856
 20
-12.7800133955
 30
0.0
 10
-9.5842678921
 20
-13.4080287059
 30
0.0
 10
-9.5810272461
 20
-13.7333268047
 30
0.0
  0
SPLINE
  5
5AA
100
AcDbEntity
  8
ASSI
100
AcDbSpline
 62
250
  6
CONTINUOUS
 70
0
 71
3
 72
11
 73
7
 74
0
 42
0.0000001
 43
0.0000001
 44
0.0000000001
 40
0.0
 40
0.0
 40
0.0
 40
0.0
 40
0.2688786067
 40
0.5330601079
 40
0.7784787246
 40
1.0
 40
1.0
 40
1.0
 40
1.0
 10
-14.3528511071
 20
-6.3229964172
 30
0.0
 10
-14.3904881685
 20
-6.3750831729
 30
0.0
 10
-14.4814388363
 20
-6.4674240938
 30
0.0
 10
-14.6470625259
 20
-6.5579898515
 30
0.0
 10
-14.8221761338
 20
-6.5905913224
 30
0.0
 10
-14.9354841721
 20
-6.5662426735
 30
0.0
 10
-14.9828767546
 20
-6.542642892
 30
0.0
  0
SPLINE
  5
5AB
100
AcDbEntity
  8
ASSI
100
AcDbSpline
 62
250
  6
CONTINUOUS
 70
0
 71
3
 72
10
 73
6
 74
0
 42
0.0000001
 43
0.0000001
 44
0.0000000001
 40
0.0
 40
0.0
 40
0.0
 40
0.0
 40
0.2111408659
 40
0.47490208
 40
1.0
 40
1.0
 40
1.0
 40
1.0
 10
-14.348377995
 20
-5.7988093083
 30
0.0
 10
-14.3933464446
 20
-5.7789325165
 30
0.0
 10
-14.4937422232
 20
-5.7325400405
 30
0.0
 10
-14.7036754968
 20
-5.6317993018
 30
0.0
 10
-14.8680503112
 20
-5.5497239788
 30
0.0
 10
-14.9763893428
 20
-5.4930388173
 30
0.0
  0
SPLINE
  5
5AC
100
AcDbEntity
  8
ASSI
100
AcDbSpline
 62
250
  6
CONTINUOUS
 70
0
 71
3
 72
13
 73
9
 74
0
 42
0.0000001
 43
0.0000001
 44
0.0000000001
 40
0.0
 40
0.0
 40
0.0
 40
0.0
 40
0.2899538477
 40
0.5597324402
 40
0.6830066622
 40
0.7971671218
 40
0.9024372822
 40
1.0
 40
1.0
 40
1.0
 40
1.0
 10
-14.9763969426
 20
-5.4930354681
 30
0.0
 10
-15.0228993046
 20
-5.588997514
 30
0.0
 10
-15.0948565745
 20
-5.783484721
 30
0.0
 10
-15.1311932685
 20
-6.0346216593
 30
0.0
 10
-15.120442059
 20
-6.2214332201
 30
0.0
 10
-15.0940073579
 20
-6.3452717564
 30
0.0
 10
-15.0494393292
 20
-6.4537388285
 30
0.0
 10
-15.0067397631
 20
-6.5158480535
 30
0.0
 10
-14.9828767546
 20
-6.542642892
 30
0.0
  0
SPLINE
  5
5AD
100
AcDbEntity
  8
ASSI
100
AcDbSpline
 62
250
  6
CONTINUOUS
 70
0
 71
3
 72
12
 73
8
 74
0
 42
0.0000001
 43
0.0000001
 44
0.0000000001
 40
0.0
 40
0.0
 40
0.0
 40
0.0
 40
0.2902252847
 40
0.5601117497
 40
0.6834518237
 40
0.7977362357
 40
1.0
 40
1.0
 40
1.0
 40
1.0
 10
-14.3483779949
 20
-5.7988093084
 30
0.0
 10
-14.371887547
 20
-5.8466276523
 30
0.0
 10
-14.4083418919
 20
-5.943616794
 30
0.0
 10
-14.426968701
 20
-6.0689867406
 30
0.0
 10
-14.4217141131
 20
-6.1623938867
 30
0.0
 10
-14.4050076939
 20
-6.241502649
 30
0.0
 10
-14.3775775927
 20
-6.2952901391
 30
0.0
 10
-14.3528511071
 20
-6.3229964172
 30
0.0
  0
SPLINE
  5
5AE
100
AcDbEntity
  8
ASSI
100
AcDbSpline
 62
250
  6
CONTINUOUS
 70
0
 71
3
 72
12
 73
8
 74
0
 42
0.0000001
 43
0.0000001
 44
0.0000000001
 40
0.0
 40
0.0
 40
0.0
 40
0.0
 40
0.10721448
 40
0.2275287291
 40
0.492145336
 40
0.7610228119
 40
1.0
 40
1.0
 40
1.0
 40
1.0
 10
-10.0710565302
 20
0.036336256
 30
0.0
 10
-10.0796833128
 20
0.0605227953
 30
0.0
 10
-10.101844634
 20
0.1104952323
 30
0.0
 10
-10.1608207025
 20
0.212714242
 30
0.0
 10
-10.2570558655
 20
0.3372562289
 30
0.0
 10
-10.3903990051
 20
0.4661945808
 30
0.0
 10
-10.4908389213
 20
0.5365329911
 30
0.0
 10
-10.5415339251
 20
0.5631064739
 30
0.0
  0
SPLINE
  5
5AF
100
AcDbEntity
  8
ASSI
100
AcDbSpline
 62
250
  6
CONTINUOUS
 70
0
 71
3
 72
11
 73
7
 74
0
 42
0.0000001
 43
0.0000001
 44
0.0000000001
 40
0.0
 40
0.0
 40
0.0
 40
0.0
 40
0.2408902194
 40
0.4897339316
 40
0.743767591
 40
1.0
 40
1.0
 40
1.0
 40
1.0
 10
-10.5415339251
 20
0.5631064739
 30
0.0
 10
-10.9855906569
 20
0.1509857575
 30
0.0
 10
-11.8452440085
 20
-0.7343379561
 30
0.0
 10
-13.0176173189
 20
-2.1950862424
 30
0.0
 10
-14.0761775998
 20
-3.7867421846
 30
0.0
 10
-14.6922538621
 20
-4.9146469183
 30
0.0
 10
-14.9763969426
 20
-5.4930354681
 30
0.0
  0
SPLINE
  5
5B0
100
AcDbEntity
  8
ASSI
100
AcDbSpline
 62
250
  6
CONTINUOUS
 70
0
 71
3
 72
11
 73
7
 74
0
 42
0.0000001
 43
0.0000001
 44
0.0000000001
 40
0.0
 40
0.0
 40
0.0
 40
0.0
 40
0.2409084372
 40
0.4897576111
 40
0.7437847481
 40
1.0
 40
1.0
 40
1.0
 40
1.0
 10
-10.0710565302
 20
0.036336256
 30
0.0
 10
-10.4992923471
 20
-0.3607007277
 30
0.0
 10
-11.3283456805
 20
-1.2136363635
 30
0.0
 10
-12.4590520733
 20
-2.6210581534
 30
0.0
 10
-13.4800426425
 20
-4.1546586828
 30
0.0
 10
-14.0742898396
 20
-5.2414829853
 30
0.0
 10
-14.3483779949
 20
-5.7988093084
 30
0.0
  0
SPLINE
  5
5B1
100
AcDbEntity
  8
ASSI
100
AcDbSpline
 62
250
  6
CONTINUOUS
 70
0
 71
3
 72
11
 73
7
 74
0
 42
0.0000001
 43
0.0000001
 44
0.0000000001
 40
0.0
 40
0.0
 40
0.0
 40
0.0
 40
0.2172310042
 40
0.4506294064
 40
0.7104367245
 40
1.0
 40
1.0
 40
1.0
 40
1.0
 10
-21.310566676
 20
-15.9820981887
 30
0.0
 10
-21.3503299109
 20
-15.9622121915
 30
0.0
 10
-21.4256795003
 20
-15.9052023534
 30
0.0
 10
-21.5072825319
 20
-15.7822762994
 30
0.0
 10
-21.557447652
 20
-15.6285293928
 30
0.0
 10
-21.5687443099
 20
-15.5158500392
 30
0.0
 10
-21.5697294088
 20
-15.4565960612
 30
0.0
  0
SPLINE
  5
5B2
100
AcDbEntity
  8
ASSI
100
AcDbSpline
 62
250
  6
CONTINUOUS
 70
0
 71
3
 72
12
 73
8
 74
0
 42
0.0000001
 43
0.0000001
 44
0.0000000001
 40
0.0
 40
0.0
 40
0.0
 40
0.0
 40
0.091046659
 40
0.1868054637
 40
0.5330128329
 40
0.7519207571
 40
1.0
 40
1.0
 40
1.0
 40
1.0
 10
-22.3083739607
 20
6.3450723303
 30
0.0
 10
-22.3031724321
 20
6.3501681733
 30
0.0
 10
-22.2910847556
 20
6.3592674123
 30
0.0
 10
-22.2513995707
 20
6.3758644749
 30
0.0
 10
-22.1959709967
 20
6.3732241206
 30
0.0
 10
-22.133546803
 20
6.3558574495
 30
0.0
 10
-22.0989189841
 20
6.3413798076
 30
0.0
 10
-22.0810082626
 20
6.3328436427
 30
0.0
  0
SPLINE
  5
5B3
100
AcDbEntity
  8
ASSI
100
AcDbSpline
 62
250
  6
CONTINUOUS
 70
0
 71
3
 72
11
 73
7
 74
0
 42
0.0000001
 43
0.0000001
 44
0.0000000001
 40
0.0
 40
0.0
 40
0.0
 40
0.0
 40
0.208347097
 40
0.437058425
 40
0.6996685007
 40
1.0
 40
1.0
 40
1.0
 40
1.0
 10
-21.7161168608
 20
-15.2818103376
 30
0.0
 10
-21.7157871926
 20
-15.298389532
 30
0.0
 10
-21.7080439931
 20
-15.3332938368
 30
0.0
 10
-21.6773593904
 20
-15.3807913499
 30
0.0
 10
-21.6300080466
 20
-15.4231701134
 30
0.0
 10
-21.5911649488
 20
-15.4460178714
 30
0.0
 10
-21.5697294088
 20
-15.4565960612
 30
0.0
  0
SPLINE
  5
5B4
100
AcDbEntity
  8
RACCORDO
100
AcDbSpline
 62
7
  6
CONTINUOUS
 70
0
 71
3
 72
9
 73
5
 74
0
 42
0.0000001
 43
0.0000001
 44
0.0000000001
 40
0.0
 40
0.0
 40
0.0
 40
0.0
 40
0.2366441137
 40
1.0
 40
1.0
 40
1.0
 40
1.0
 10
-1.4952762711
 20
-27.378349659
 30
0.0
 10
-1.4963901562
 20
-27.3821038756
 30
0.0
 10
-1.5004221121
 20
-27.3981674957
 30
0.0
 10
-1.50188428
 20
-27.4148195282
 30
0.0
 10
-1.5018842787
 20
-27.4274515125
 30
0.0
  0
LINE
  5
5B5
100
AcDbEntity
  8
RACCORDO
100
AcDbLine
 62
7
  6
CONTINUOUS
 10
-9.3527339315
 20
-9.8621977752
 11
-9.3526111663
 21
-9.7810671653
  0
SPLINE
  5
5B6
100
AcDbEntity
  8
RACCORDO
100
AcDbSpline
 62
7
  6
CONTINUOUS
 70
0
 71
3
 72
10
 73
6
 74
0
 42
0.0000001
 43
0.0000001
 44
0.0000000001
 40
0.0
 40
0.0
 40
0.0
 40
0.0
 40
0.2292622291
 40
0.5987982106
 40
1.0
 40
1.0
 40
1.0
 40
1.0
 10
-21.34879155
 20
7.6948555149
 30
0.0
 10
-21.3585827505
 20
7.6753870932
 30
0.0
 10
-21.3803825088
 20
7.6225892308
 30
0.0
 10
-21.4020321911
 20
7.5295132632
 30
0.0
 10
-21.4069401691
 20
7.4561084852
 30
0.0
 10
-21.4069401691
 20
7.4179733303
 30
0.0
  0
SPLINE
  5
5B7
100
AcDbEntity
  8
ASSI
100
AcDbSpline
 62
7
  6
CONTINUOUS
 70
0
 71
3
 72
9
 73
5
 74
0
 42
0.0000001
 43
0.0000001
 44
0.0000000001
 40
0.0
 40
0.0
 40
0.0
 40
0.0
 40
0.2566542181
 40
1.0
 40
1.0
 40
1.0
 40
1.0
 10
-1.2523400267
 20
17.8692160259
 30
0.0
 10
-1.2482876377
 20
17.8712133456
 30
0.0
 10
-1.2323685407
 20
17.8787271162
 30
0.0
 10
-1.2159203601
 20
17.885137338
 30
0.0
 10
-1.2034639951
 20
17.889144593
 30
0.0
  0
SPLINE
  5
5B8
100
AcDbEntity
  8
ASSI
100
AcDbSpline
 62
7
  6
CONTINUOUS
 70
0
 71
3
 72
9
 73
5
 74
0
 42
0.0000001
 43
0.0000001
 44
0.0000000001
 40
0.0
 40
0.0
 40
0.0
 40
0.0
 40
0.4881094354
 40
1.0
 40
1.0
 40
1.0
 40
1.0
 10
-0.472873445
 20
17.5961169838
 30
0.0
 10
-0.4728771134
 20
17.5982817703
 30
0.0
 10
-0.4739136352
 20
17.6029124964
 30
0.0
 10
-0.4776565322
 20
17.6058355885
 30
0.0
 10
-0.4796897966
 20
17.6068454978
 30
0.0
  0
SPLINE
  5
5B9
100
AcDbEntity
  8
ASSI
100
AcDbSpline
 62
7
  6
CONTINUOUS
 70
0
 71
3
 72
9
 73
5
 74
0
 42
0.0000001
 43
0.0000001
 44
0.0000000001
 40
0.0
 40
0.0
 40
0.0
 40
0.0
 40
0.4881098029
 40
1.0
 40
1.0
 40
1.0
 40
1.0
 10
-6.0278618467
 20
20.3736162836
 30
0.0
 10
-6.0278662348
 20
20.3757795991
 30
0.0
 10
-6.0289033076
 20
20.3804065024
 30
0.0
 10
-6.0326427638
 20
20.3833281139
 30
0.0
 10
-6.0346744085
 20
20.384337812
 30
0.0
  0
SPLINE
  5
5BA
100
AcDbEntity
  8
DRAFT
100
AcDbSpline
 62
7
  6
CONTINUOUS
 70
0
 71
3
 72
12
 73
8
 74
0
 42
0.0000001
 43
0.0000001
 44
0.0000000001
 40
0.0
 40
0.0
 40
0.0
 40
0.0
 40
0.1077804956
 40
0.217801895
 40
0.4510376574
 40
0.710704186
 40
1.0
 40
1.0
 40
1.0
 40
1.0
 10
3.740031292
 20
14.3607194968
 30
0.0
 10
3.7482895442
 20
14.3649631721
 30
0.0
 10
3.7642348763
 20
14.3750778659
 30
0.0
 10
3.7930067197
 20
14.4014452556
 30
0.0
 10
3.8216964602
 20
14.445829245
 30
0.0
 10
3.8417650007
 20
14.510788263
 30
0.0
 10
3.8457743234
 20
14.5582614914
 30
0.0
 10
3.8457743234
 20
14.5831830112
 30
0.0
  0
SPLINE
  5
5BB
100
AcDbEntity
  8
RACCORDO
100
AcDbSpline
 62
7
  6
CONTINUOUS
 70
0
 71
3
 72
10
 73
6
 74
0
 42
0.0000001
 43
0.0000001
 44
0.0000000001
 40
0.0
 40
0.0
 40
0.0
 40
0.0
 40
0.235221359
 40
0.4867806715
 40
1.0
 40
1.0
 40
1.0
 40
1.0
 10
-1.5018842787
 20
11.6575082592
 30
0.0
 10
-1.5018842802
 20
11.6422697115
 30
0.0
 10
-1.4985300959
 20
11.6106764829
 30
0.0
 10
-1.4808440471
 20
11.548190781
 30
0.0
 10
-1.4563842843
 20
11.503868876
 30
0.0
 10
-1.4358385365
 20
11.4777284159
 30
0.0
  0
SPLINE
  5
5BC
100
AcDbEntity
  8
RACCORDO
100
AcDbSpline
 62
7
  6
CONTINUOUS
 70
0
 71
3
 72
9
 73
5
 74
0
 42
0.0000001
 43
0.0000001
 44
0.0000000001
 40
0.0
 40
0.0
 40
0.0
 40
0.0
 40
0.261582242
 40
1.0
 40
1.0
 40
1.0
 40
1.0
 10
-9.386124889
 20
-22.1483252927
 30
0.0
 10
-9.3751263867
 20
-22.1538245438
 30
0.0
 10
-9.3325018789
 20
-22.1736379586
 30
0.0
 10
-9.2874099744
 20
-22.1883969471
 30
0.0
 10
-9.2534008188
 20
-22.1953479019
 30
0.0
  0
SPLINE
  5
5BD
100
AcDbEntity
  8
RACCORDO
100
AcDbSpline
 62
7
  6
CONTINUOUS
 70
0
 71
3
 72
11
 73
7
 74
0
 42
0.0000001
 43
0.0000001
 44
0.0000000001
 40
0.0
 40
0.0
 40
0.0
 40
0.0
 40
0.2694210592
 40
0.5292705296
 40
0.7741106173
 40
1.0
 40
1.0
 40
1.0
 40
1.0
 10
-21.2420584645
 20
-16.0164492638
 30
0.0
 10
-21.2161431254
 20
-16.0612745046
 30
0.0
 10
-21.1599137477
 20
-16.1463926368
 30
0.0
 10
-21.0626876961
 20
-16.2595525121
 30
0.0
 10
-20.9570385605
 20
-16.3527337117
 30
0.0
 10
-20.8800832026
 20
-16.4013461359
 30
0.0
 10
-20.8412547442
 20
-16.4207603651
 30
0.0
  0
SPLINE
  5
5BE
100
AcDbEntity
  8
ASSI
100
AcDbSpline
 62
7
  6
CONTINUOUS
 70
0
 71
3
 72
11
 73
7
 74
0
 42
0.0000001
 43
0.0000001
 44
0.0000000001
 40
0.0
 40
0.0
 40
0.0
 40
0.0
 40
0.2283686814
 40
0.4716455854
 40
0.7295978027
 40
1.0
 40
1.0
 40
1.0
 40
1.0
 10
-6.7566867384
 20
20.6671970822
 30
0.0
 10
-6.7397859546
 20
20.672447924
 30
0.0
 10
-6.7032059354
 20
20.6782544107
 30
0.0
 10
-6.6464573259
 20
20.6739262821
 30
0.0
 10
-6.5884050898
 20
20.6585167095
 30
0.0
 10
-6.5506559966
 20
20.6423174522
 30
0.0
 10
-6.531908719
 20
20.6329549588
 30
0.0
  0
SPLINE
  5
5BF
100
AcDbEntity
  8
RACCORDO
100
AcDbSpline
 62
7
  6
CONTINUOUS
 70
0
 71
3
 72
9
 73
5
 74
0
 42
0.0000001
 43
0.0000001
 44
0.0000000001
 40
0.0
 40
0.0
 40
0.0
 40
0.0
 40
0.470196659
 40
1.0
 40
1.0
 40
1.0
 40
1.0
 10
-12.6369569996
 20
17.7234245943
 30
0.0
 10
-12.6386945384
 20
17.7171636388
 30
0.0
 10
-12.6411237209
 20
17.7034937663
 30
0.0
 10
-12.6417832494
 20
17.6896627115
 30
0.0
 10
-12.6417789255
 20
17.6823414314
 30
0.0
  0
SPLINE
  5
5C0
100
AcDbEntity
  8
ASSI
100
AcDbSpline
 62
7
  6
CONTINUOUS
 70
0
 71
3
 72
11
 73
7
 74
0
 42
0.0000001
 43
0.0000001
 44
0.0000000001
 40
0.0
 40
0.0
 40
0.0
 40
0.0
 40
0.228161364
 40
0.4713411265
 40
0.7293708923
 40
1.0
 40
1.0
 40
1.0
 40
1.0
 10
-1.2034639951
 20
17.889144593
 30
0.0
 10
-1.1864970565
 20
17.8946029149
 30
0.0
 10
-1.1496810911
 20
17.9007477223
 30
0.0
 10
-1.0924657226
 20
17.8966386304
 30
0.0
 10
-1.0338950139
 20
17.8812186776
 30
0.0
 10
-0.9958117656
 20
17.8648962601
 30
0.0
 10
-0.9768988001
 20
17.855450008
 30
0.0
  0
SPLINE
  5
5C1
100
AcDbEntity
  8
RACCORDO
100
AcDbSpline
 62
7
  6
CONTINUOUS
 70
0
 71
3
 72
14
 73
10
 74
0
 42
0.0000001
 43
0.0000001
 44
0.0000000001
 40
0.0
 40
0.0
 40
0.0
 40
0.0
 40
0.2891525564
 40
0.4227177506
 40
0.5489643138
 40
0.668508974
 40
0.7824375212
 40
0.892292605
 40
1.0
 40
1.0
 40
1.0
 40
1.0
 10
-3.3757172489
 20
19.2950109128
 30
0.0
 10
-3.3757172489
 20
19.3558285214
 30
0.0
 10
-3.3833037056
 20
19.445219946
 30
0.0
 10
-3.4123031364
 20
19.5572066215
 30
0.0
 10
-3.441752783
 20
19.6316161121
 30
0.0
 10
-3.4791610944
 20
19.6976867266
 30
0.0
 10
-3.5241504448
 20
19.7545782858
 30
0.0
 10
-3.5761881383
 20
19.8014836483
 30
0.0
 10
-3.6153343466
 20
19.8257454155
 30
0.0
 10
-3.6355965529
 20
19.8358772285
 30
0.0
  0
SPLINE
  5
5C2
100
AcDbEntity
  8
RACCORDO
100
AcDbSpline
 62
7
  6
CONTINUOUS
 70
0
 71
3
 72
11
 73
7
 74
0
 42
0.0000001
 43
0.0000001
 44
0.0000000001
 40
0.0
 40
0.0
 40
0.0
 40
0.0
 40
0.2787325875
 40
0.5346772883
 40
0.772449667
 40
1.0
 40
1.0
 40
1.0
 40
1.0
 10
0.1659872495
 20
17.689214903
 30
0.0
 10
0.204123425
 20
17.7078753842
 30
0.0
 10
0.2803544146
 20
17.7379618337
 30
0.0
 10
0.3970236173
 20
17.7590160079
 30
0.0
 10
0.5078317685
 20
17.7529036136
 30
0.0
 10
0.576043107
 20
17.7300584847
 30
0.0
 10
0.6070441342
 20
17.714556885
 30
0.0
  0
SPLINE
  5
5C3
100
AcDbEntity
  8
RACCORDO
100
AcDbSpline
 62
250
  6
CONTINUOUS
 70
0
 71
3
 72
12
 73
8
 74
0
 42
0.0000001
 43
0.0000001
 44
0.0000000001
 40
0.0
 40
0.0
 40
0.0
 40
0.0
 40
0.1048972659
 40
0.2122700343
 40
0.4422669275
 40
0.7032089287
 40
1.0
 40
1.0
 40
1.0
 40
1.0
 10
-23.0098703271
 20
-21.2525956913
 30
0.0
 10
-23.0095874804
 20
-21.2610183937
 30
0.0
 10
-23.0074309868
 20
-21.2780492878
 30
0.0
 10
-22.996683629
 20
-21.3120890185
 30
0.0
 10
-22.9705401584
 20
-21.353416227
 30
0.0
 10
-22.9234222842
 20
-21.3964251273
 30
0.0
 10
-22.884726675
 20
-21.4195647404
 30
0.0
 10
-22.863407013
 20
-21.4302426692
 30
0.0
  0
SPLINE
  5
5C4
100
AcDbEntity
  8
RACCORDO
100
AcDbSpline
 62
250
  6
CONTINUOUS
 70
0
 71
3
 72
14
 73
10
 74
0
 42
0.0000001
 43
0.0000001
 44
0.0000000001
 40
0.0
 40
0.0
 40
0.0
 40
0.0
 40
0.1080883287
 40
0.218317187
 40
0.3325125373
 40
0.4521539517
 40
0.5783057388
 40
0.7116101587
 40
1.0
 40
1.0
 40
1.0
 40
1.0
 10
-22.4789905617
 20
-22.186316152
 30
0.0
 10
-22.5076478766
 20
-22.1719875307
 30
0.0
 10
-22.5630949404
 20
-22.1378722359
 30
0.0
 10
-22.63727766
 20
-22.0723078324
 30
0.0
 10
-22.7020486418
 20
-21.9929841876
 30
0.0
 10
-22.756703179
 20
-21.9009248193
 30
0.0
 10
-22.8007336171
 20
-21.7971964364
 30
0.0
 10
-22.8458712657
 20
-21.6409000536
 30
0.0
 10
-22.8605195505
 20
-21.5156791898
 30
0.0
 10
-22.8634070132
 20
-21.4302426692
 30
0.0
  0
SPLINE
  5
5C5
100
AcDbEntity
  8
RACCORDO
100
AcDbSpline
 62
250
  6
CONTINUOUS
 70
0
 71
3
 72
11
 73
7
 74
0
 42
0.0000001
 43
0.0000001
 44
0.0000000001
 40
0.0
 40
0.0
 40
0.0
 40
0.0
 40
0.2274032722
 40
0.4651087917
 40
0.721101419
 40
1.0
 40
1.0
 40
1.0
 40
1.0
 10
-1.0396160016
 20
13.6910660324
 30
0.0
 10
-1.0473995875
 20
13.6949581937
 30
0.0
 10
-1.0645352159
 20
13.7006840572
 30
0.0
 10
-1.0923725323
 20
13.7021713292
 30
0.0
 10
-1.121678285
 20
13.6968104453
 30
0.0
 10
-1.1408173268
 20
13.6891949654
 30
0.0
 10
-1.1503908107
 20
13.6844764379
 30
0.0
  0
SPLINE
  5
5C6
100
AcDbEntity
  8
RACCORDO
100
AcDbSpline
 62
250
  6
CONTINUOUS
 70
0
 71
3
 72
11
 73
7
 74
0
 42
0.0000001
 43
0.0000001
 44
0.0000000001
 40
0.0
 40
0.0
 40
0.0
 40
0.0
 40
0.2274032722
 40
0.4651087917
 40
0.721101419
 40
1.0
 40
1.0
 40
1.0
 40
1.0
 10
-2.3769421622
 20
14.3597291127
 30
0.0
 10
-2.3847257481
 20
14.363621274
 30
0.0
 10
-2.4018613765
 20
14.3693471374
 30
0.0
 10
-2.4296986929
 20
14.3708344095
 30
0.0
 10
-2.4590044455
 20
14.3654735256
 30
0.0
 10
-2.4781434873
 20
14.3578580457
 30
0.0
 10
-2.4877169712
 20
14.3531395182
 30
0.0
  0
SPLINE
  5
5C7
100
AcDbEntity
  8
ASSI
100
AcDbSpline
 62
7
  6
CONTINUOUS
 70
0
 71
3
 72
9
 73
5
 74
0
 42
0.0000001
 43
0.0000001
 44
0.0000000001
 40
0.0
 40
0.0
 40
0.0
 40
0.0
 40
0.2566542181
 40
1.0
 40
1.0
 40
1.0
 40
1.0
 10
-6.202087495
 20
20.34408976
 30
0.0
 10
-6.198035106
 20
20.3460870798
 30
0.0
 10
-6.182116009
 20
20.3536008503
 30
0.0
 10
-6.1656678284
 20
20.3600110721
 30
0.0
 10
-6.1532114635
 20
20.3640183271
 30
0.0
  0
SPLINE
  5
5C8
100
AcDbEntity
  8
RACCORDO
100
AcDbSpline
 62
250
  6
CONTINUOUS
 70
0
 71
3
 72
11
 73
7
 74
0
 42
0.0000001
 43
0.0000001
 44
0.0000000001
 40
0.0
 40
0.0
 40
0.0
 40
0.0
 40
0.206962976
 40
0.435065309
 40
0.6978069212
 40
1.0
 40
1.0
 40
1.0
 40
1.0
 10
-0.9014192519
 20
13.4674591819
 30
0.0
 10
-0.9014193868
 20
13.4592371058
 30
0.0
 10
-0.9050185933
 20
13.4418212636
 30
0.0
 10
-0.9200679997
 20
13.4180261013
 30
0.0
 10
-0.9435449075
 20
13.3966144179
 30
0.0
 10
-0.9629044249
 20
13.3850059294
 30
0.0
 10
-0.973617107
 20
13.3795868991
 30
0.0
  0
SPLINE
  5
5C9
100
AcDbEntity
  8
RACCORDO
100
AcDbSpline
 62
250
  6
CONTINUOUS
 70
0
 71
3
 72
9
 73
5
 74
0
 42
0.0000001
 43
0.0000001
 44
0.0000000001
 40
0.0
 40
0.0
 40
0.0
 40
0.0
 40
0.2486668508
 40
1.0
 40
1.0
 40
1.0
 40
1.0
 10
-1.0396221438
 20
-27.956066098
 30
0.0
 10
-1.0414612193
 20
-27.9551467932
 30
0.0
 10
-1.0489769391
 20
-27.9516936126
 30
0.0
 10
-1.0569477695
 20
-27.9492418091
 30
0.0
 10
-1.0630309023
 20
-27.947981951
 30
0.0
  0
SPLINE
  5
5CA
100
AcDbEntity
  8
RACCORDO
100
AcDbSpline
 62
250
  6
CONTINUOUS
 70
0
 71
3
 72
11
 73
7
 74
0
 42
0.0000001
 43
0.0000001
 44
0.0000000001
 40
0.0
 40
0.0
 40
0.0
 40
0.0
 40
0.2069627866
 40
0.4350648202
 40
0.69780603
 40
1.0
 40
1.0
 40
1.0
 40
1.0
 10
-0.9014192521
 20
13.1199280146
 30
0.0
 10
-0.9014193466
 20
13.1117059222
 30
0.0
 10
-0.9050184633
 20
13.0942900264
 30
0.0
 10
-0.9200678308
 20
13.0704947775
 30
0.0
 10
-0.9435447707
 20
13.0490829797
 30
0.0
 10
-0.9629043623
 20
13.0374744444
 30
0.0
 10
-0.973617107
 20
13.0320553824
 30
0.0
  0
SPLINE
  5
5CB
100
AcDbEntity
  8
RACCORDO
100
AcDbSpline
 62
250
  6
CONTINUOUS
 70
0
 71
3
 72
11
 73
7
 74
0
 42
0.0000001
 43
0.0000001
 44
0.0000000001
 40
0.0
 40
0.0
 40
0.0
 40
0.0
 40
0.2069627842
 40
0.4350648191
 40
0.6978060254
 40
1.0
 40
1.0
 40
1.0
 40
1.0
 10
-0.9014192524
 20
-28.5272076383
 30
0.0
 10
-0.9014193519
 20
-28.5354297308
 30
0.0
 10
-0.9050184607
 20
-28.5528456269
 30
0.0
 10
-0.9200678306
 20
-28.5766408769
 30
0.0
 10
-0.9435447693
 20
-28.5980526761
 30
0.0
 10
-0.9629043619
 20
-28.6096612116
 30
0.0
 10
-0.973617107
 20
-28.6150802737
 30
0.0
  0
SPLINE
  5
5CC
100
AcDbEntity
  8
RACCORDO
100
AcDbSpline
 62
250
  6
CONTINUOUS
 70
0
 71
3
 72
11
 73
7
 74
0
 42
0.0000001
 43
0.0000001
 44
0.0000000001
 40
0.0
 40
0.0
 40
0.0
 40
0.0
 40
0.2069627866
 40
0.4350648202
 40
0.69780603
 40
1.0
 40
1.0
 40
1.0
 40
1.0
 10
-0.9014192521
 20
-28.1796761248
 30
0.0
 10
-0.9014193466
 20
-28.1878982172
 30
0.0
 10
-0.9050184633
 20
-28.205314113
 30
0.0
 10
-0.9200678308
 20
-28.2291093619
 30
0.0
 10
-0.9435447707
 20
-28.2505211597
 30
0.0
 10
-0.9629043623
 20
-28.262129695
 30
0.0
 10
-0.973617107
 20
-28.267548757
 30
0.0
  0
SPLINE
  5
5CD
100
AcDbEntity
  8
RACCORDO
100
AcDbSpline
 62
250
  6
CONTINUOUS
 70
0
 71
3
 72
11
 73
7
 74
0
 42
0.0000001
 43
0.0000001
 44
0.0000000001
 40
0.0
 40
0.0
 40
0.0
 40
0.0
 40
0.21754047
 40
0.4509586233
 40
0.7106393245
 40
1.0
 40
1.0
 40
1.0
 40
1.0
 10
-1.0372997724
 20
-28.7496408954
 30
0.0
 10
-1.0272254076
 20
-28.7444713958
 30
0.0
 10
-1.0082068341
 20
-28.7297385917
 30
0.0
 10
-0.9879002097
 20
-28.6981549134
 30
0.0
 10
-0.9758387764
 20
-28.6588395864
 30
0.0
 10
-0.9735458099
 20
-28.6301417183
 30
0.0
 10
-0.973617107
 20
-28.6150802737
 30
0.0
  0
SPLINE
  5
5CE
100
AcDbEntity
  8
RACCORDO
100
AcDbSpline
 62
7
  6
CONTINUOUS
 70
0
 71
3
 72
11
 73
7
 74
0
 42
0.0000001
 43
0.0000001
 44
0.0000000001
 40
0.0
 40
0.0
 40
0.0
 40
0.0
 40
0.2175593986
 40
0.4527455769
 40
0.7128863445
 40
1.0
 40
1.0
 40
1.0
 40
1.0
 10
-1.5566699055
 20
-29.0153892056
 30
0.0
 10
-1.547878448
 20
-29.0095179869
 30
0.0
 10
-1.5315868483
 20
-28.994093246
 30
0.0
 10
-1.5143284135
 20
-28.9636022641
 30
0.0
 10
-1.5039638547
 20
-28.9267164508
 30
0.0
 10
-1.5018842787
 20
-28.9000428359
 30
0.0
 10
-1.5018842787
 20
-28.8860913324
 30
0.0
  0
SPLINE
  5
5CF
100
AcDbEntity
  8
RACCORDO
100
AcDbSpline
 62
250
  6
CONTINUOUS
 70
0
 71
3
 72
9
 73
5
 74
0
 42
0.0000001
 43
0.0000001
 44
0.0000000001
 40
0.0
 40
0.0
 40
0.0
 40
0.0
 40
0.2361062001
 40
1.0
 40
1.0
 40
1.0
 40
1.0
 10
-2.3807338849
 20
-27.7500826834
 30
0.0
 10
-2.3823828082
 20
-27.754291626
 30
0.0
 10
-2.3884968621
 20
-27.7724574504
 30
0.0
 10
-2.3912821111
 20
-27.7916530525
 30
0.0
 10
-2.3919447722
 20
-27.8062633005
 30
0.0
  0
LINE
  5
5D0
100
AcDbEntity
  8
RACCORDO
100
AcDbLine
 62
250
  6
CONTINUOUS
 10
-17.5195376489
 20
18.5761811524
 11
-17.5307076128
 21
18.5697292754
  0
SPLINE
  5
5D1
100
AcDbEntity
  8
RACCORDO
100
AcDbSpline
 62
250
  6
CONTINUOUS
 70
0
 71
3
 72
14
 73
10
 74
0
 42
0.0000001
 43
0.0000001
 44
0.0000000001
 40
0.0
 40
0.0
 40
0.0
 40
0.0
 40
0.311067246
 40
0.4484812869
 40
0.5734635153
 40
0.6868677001
 40
0.7913609489
 40
0.89263803
 40
1.0
 40
1.0
 40
1.0
 40
1.0
 10
-17.5444768775
 20
18.5616310464
 30
0.0
 10
-17.5668519893
 20
18.5482274873
 30
0.0
 10
-17.5984630362
 20
18.5276688824
 30
0.0
 10
-17.6358512992
 20
18.4973603826
 30
0.0
 10
-17.6583654293
 20
18.4752179729
 30
0.0
 10
-17.6759970625
 20
18.452353118
 30
0.0
 10
-17.687974531
 20
18.428145296
 30
0.0
 10
-17.6929399204
 20
18.4019753207
 30
0.0
 10
-17.69063181
 20
18.3843073813
 30
0.0
 10
-17.6882789057
 20
18.3756181504
 30
0.0
  0
SPLINE
  5
5D2
100
AcDbEntity
  8
RACCORDO
100
AcDbSpline
 62
250
  6
CONTINUOUS
 70
0
 71
3
 72
9
 73
5
 74
0
 42
0.0000001
 43
0.0000001
 44
0.0000000001
 40
0.0
 40
0.0
 40
0.0
 40
0.0
 40
0.2241740794
 40
1.0
 40
1.0
 40
1.0
 40
1.0
 10
-17.5043647259
 20
18.5740327925
 30
0.0
 10
-17.5013008291
 20
18.568601289
 30
0.0
 10
-17.48517982
 20
18.5457341963
 30
0.0
 10
-17.4613004029
 20
18.5293310761
 30
0.0
 10
-17.4419969192
 20
18.5196793487
 30
0.0
  0
SPLINE
  5
5D3
100
AcDbEntity
  8
RACCORDO
100
AcDbSpline
 62
250
  6
CONTINUOUS
 70
0
 71
3
 72
11
 73
7
 74
0
 42
0.0000001
 43
0.0000001
 44
0.0000000001
 40
0.0
 40
0.0
 40
0.0
 40
0.0
 40
0.259254037
 40
0.5193049541
 40
0.7684433035
 40
1.0
 40
1.0
 40
1.0
 40
1.0
 10
-17.6882789215
 20
18.3756185125
 30
0.0
 10
-17.6636721508
 20
18.3803814246
 30
0.0
 10
-17.6156843128
 20
18.398191699
 30
0.0
 10
-17.5561715676
 20
18.4445328645
 30
0.0
 10
-17.5154039493
 20
18.5049693526
 30
0.0
 10
-17.5045526957
 20
18.5516477908
 30
0.0
 10
-17.5043644352
 20
18.5740328368
 30
0.0
  0
SPLINE
  5
5D4
100
AcDbEntity
  8
RACCORDO
100
AcDbSpline
 62
250
  6
CONTINUOUS
 70
0
 71
3
 72
11
 73
7
 74
0
 42
0.0000001
 43
0.0000001
 44
0.0000000001
 40
0.0
 40
0.0
 40
0.0
 40
0.0
 40
0.2274030322
 40
0.4651083369
 40
0.721100729
 40
1.0
 40
1.0
 40
1.0
 40
1.0
 10
-14.4039341638
 20
20.3732251147
 30
0.0
 10
-14.4117177408
 20
20.3771172739
 30
0.0
 10
-14.428853352
 20
20.3828431344
 30
0.0
 10
-14.4566906416
 20
20.3843304147
 30
0.0
 10
-14.4859964065
 20
20.378969543
 30
0.0
 10
-14.5051354672
 20
20.3713540594
 30
0.0
 10
-14.5147089751
 20
20.3666355202
 30
0.0
  0
SPLINE
  5
5D5
100
AcDbEntity
  8
RACCORDO
100
AcDbSpline
 62
250
  6
CONTINUOUS
 70
0
 71
3
 72
11
 73
7
 74
0
 42
0.0000001
 43
0.0000001
 44
0.0000000001
 40
0.0
 40
0.0
 40
0.0
 40
0.0
 40
0.2167636784
 40
0.4498677488
 40
0.709858521
 40
1.0
 40
1.0
 40
1.0
 40
1.0
 10
-3.1694267436
 20
-29.8019762452
 30
0.0
 10
-3.1591190924
 20
-29.7969545139
 30
0.0
 10
-3.1395653985
 20
-29.7823469704
 30
0.0
 10
-3.1185432619
 20
-29.7505375258
 30
0.0
 10
-3.1058554625
 20
-29.7106714501
 30
0.0
 10
-3.1032382205
 20
-29.6814729572
 30
0.0
 10
-3.1031650696
 20
-29.666125932
 30
0.0
  0
SPLINE
  5
5D6
100
AcDbEntity
  8
RACCORDO
100
AcDbSpline
 62
250
  6
CONTINUOUS
 70
0
 71
3
 72
9
 73
5
 74
0
 42
0.0000001
 43
0.0000001
 44
0.0000000001
 40
0.0
 40
0.0
 40
0.0
 40
0.0
 40
0.4593516922
 40
1.0
 40
1.0
 40
1.0
 40
1.0
 10
-17.6882789057
 20
18.3756181504
 30
0.0
 10
-17.6767694154
 20
18.3558900578
 30
0.0
 10
-17.6426893832
 20
18.3181792842
 30
0.0
 10
-17.6000610893
 20
18.2917237639
 30
0.0
 10
-17.5760168535
 20
18.2797016723
 30
0.0
  0
SPLINE
  5
5D7
100
AcDbEntity
  8
RACCORDO
100
AcDbSpline
 62
250
  6
CONTINUOUS
 70
0
 71
3
 72
11
 73
7
 74
0
 42
0.0000001
 43
0.0000001
 44
0.0000000001
 40
0.0
 40
0.0
 40
0.0
 40
0.0
 40
0.2031139741
 40
0.4295716861
 40
0.6936888446
 40
1.0
 40
1.0
 40
1.0
 40
1.0
 10
-9.2299351718
 20
0.8735043077
 30
0.0
 10
-9.230108517
 20
0.8653716331
 30
0.0
 10
-9.2266689636
 20
0.8479548141
 30
0.0
 10
-9.2114221411
 20
0.8241871203
 30
0.0
 10
-9.1874581645
 20
0.8027042878
 30
0.0
 10
-9.1676801291
 20
0.7910169364
 30
0.0
 10
-9.1567077695
 20
0.7855307567
 30
0.0
  0
SPLINE
  5
5D8
100
AcDbEntity
  8
RACCORDO
100
AcDbSpline
 62
250
  6
CONTINUOUS
 70
0
 71
3
 72
11
 73
7
 74
0
 42
0.0000001
 43
0.0000001
 44
0.0000000001
 40
0.0
 40
0.0
 40
0.0
 40
0.0
 40
0.2069627842
 40
0.4350648191
 40
0.6978060254
 40
1.0
 40
1.0
 40
1.0
 40
1.0
 10
-14.2657374168
 20
20.1496186168
 30
0.0
 10
-14.2657375163
 20
20.1413965243
 30
0.0
 10
-14.2693366251
 20
20.1239806282
 30
0.0
 10
-14.2843859951
 20
20.1001853781
 30
0.0
 10
-14.3078629337
 20
20.0787735789
 30
0.0
 10
-14.3272225263
 20
20.0671650435
 30
0.0
 10
-14.3379352714
 20
20.0617459813
 30
0.0
  0
SPLINE
  5
5D9
100
AcDbEntity
  8
RACCORDO
100
AcDbSpline
 62
250
  6
CONTINUOUS
 70
0
 71
3
 72
11
 73
7
 74
0
 42
0.0000001
 43
0.0000001
 44
0.0000000001
 40
0.0
 40
0.0
 40
0.0
 40
0.0
 40
0.2098256298
 40
0.4392166021
 40
0.7009854195
 40
1.0
 40
1.0
 40
1.0
 40
1.0
 10
-9.2299326648
 20
-22.000351978
 30
0.0
 10
-9.2297493782
 20
-22.0087671469
 30
0.0
 10
-9.2258514957
 20
-22.0264363275
 30
0.0
 10
-9.210527822
 20
-22.0505178136
 30
0.0
 10
-9.1868801933
 20
-22.0720347172
 30
0.0
 10
-9.1674364089
 20
-22.0836128375
 30
0.0
 10
-9.1567077695
 20
-22.0889771572
 30
0.0
  0
SPLINE
  5
5DA
100
AcDbEntity
  8
RACCORDO
100
AcDbSpline
 62
250
  6
CONTINUOUS
 70
0
 71
3
 72
11
 73
7
 74
0
 42
0.0000001
 43
0.0000001
 44
0.0000000001
 40
0.0
 40
0.0
 40
0.0
 40
0.0
 40
0.2327757163
 40
0.4915318897
 40
0.7548932977
 40
1.0
 40
1.0
 40
1.0
 40
1.0
 10
-17.5760168535
 20
18.2797016723
 30
0.0
 10
-17.5567323652
 20
18.2905817137
 30
0.0
 10
-17.5202394278
 20
18.3211431808
 30
0.0
 10
-17.4781809697
 20
18.3800602764
 30
0.0
 10
-17.4497782224
 20
18.4479150603
 30
0.0
 10
-17.4419969192
 20
18.4963644381
 30
0.0
 10
-17.4419969192
 20
18.5196793487
 30
0.0
  0
SPLINE
  5
5DB
100
AcDbEntity
  8
RACCORDO
100
AcDbSpline
 62
250
  6
CONTINUOUS
 70
0
 71
3
 72
13
 73
9
 74
0
 42
0.0000001
 43
0.0000001
 44
0.0000000001
 40
0.0
 40
0.0
 40
0.0
 40
0.0
 40
0.1114910213
 40
0.2329002533
 40
0.4943098592
 40
0.7587373965
 40
0.8837620797
 40
1.0
 40
1.0
 40
1.0
 40
1.0
 10
-16.1087845855
 20
17.8530731818
 30
0.0
 10
-16.0966393541
 20
17.847000379
 30
0.0
 10
-16.0700914945
 20
17.8366085301
 30
0.0
 10
-16.0113484019
 20
17.822786353
 30
0.0
 10
-15.9318873519
 20
17.8190995405
 30
0.0
 10
-15.8529905057
 20
17.8319257647
 30
0.0
 10
-15.794711941
 20
17.8522388639
 30
0.0
 10
-15.7683531662
 20
17.8655007903
 30
0.0
 10
-15.7562626259
 20
17.8728655479
 30
0.0
  0
SPLINE
  5
5DC
100
AcDbEntity
  8
RACCORDO
100
AcDbSpline
 62
250
  6
CONTINUOUS
 70
0
 71
3
 72
11
 73
7
 74
0
 42
0.0000001
 43
0.0000001
 44
0.0000000001
 40
0.0
 40
0.0
 40
0.0
 40
0.0
 40
0.2327757185
 40
0.4915318925
 40
0.7548932996
 40
1.0
 40
1.0
 40
1.0
 40
1.0
 10
-16.2428045199
 20
17.6130955055
 30
0.0
 10
-16.2235200313
 20
17.623975547
 30
0.0
 10
-16.1870270938
 20
17.6545370144
 30
0.0
 10
-16.1449686357
 20
17.7134541101
 30
0.0
 10
-16.1165658887
 20
17.7813088939
 30
0.0
 10
-16.1087845855
 20
17.8297582715
 30
0.0
 10
-16.1087845855
 20
17.8530731818
 30
0.0
  0
SPLINE
  5
5DD
100
AcDbEntity
  8
RACCORDO
100
AcDbSpline
 62
250
  6
CONTINUOUS
 70
0
 71
3
 72
15
 73
11
 74
0
 42
0.0000001
 43
0.0000001
 44
0.0000000001
 40
0.0
 40
0.0
 40
0.0
 40
0.0
 40
0.1118480548
 40
0.2338082759
 40
0.3631669531
 40
0.49659957
 40
0.6304916465
 40
0.7612039921
 40
0.8853308778
 40
1.0
 40
1.0
 40
1.0
 40
1.0
 10
-16.2428045199
 20
17.6130955055
 30
0.0
 10
-16.2209426045
 20
17.6021638321
 30
0.0
 10
-16.1732271095
 20
17.5832554867
 30
0.0
 10
-16.0960203669
 20
17.5641023913
 30
0.0
 10
-16.0124406621
 20
17.5534287835
 30
0.0
 10
-15.9256148269
 20
17.55164146
 30
0.0
 10
-15.8387704706
 20
17.5587960311
 30
0.0
 10
-15.7551335792
 20
17.5746257463
 30
0.0
 10
-15.6778182875
 20
17.5985216431
 30
0.0
 10
-15.630147831
 20
17.6202668707
 30
0.0
 10
-15.6082649925
 20
17.6324776924
 30
0.0
  0
SPLINE
  5
5DE
100
AcDbEntity
  8
RACCORDO
100
AcDbSpline
 62
250
  6
CONTINUOUS
 70
0
 71
3
 72
11
 73
7
 74
0
 42
0.0000001
 43
0.0000001
 44
0.0000000001
 40
0.0
 40
0.0
 40
0.0
 40
0.0
 40
0.2069627968
 40
0.4350655478
 40
0.6978069319
 40
1.0
 40
1.0
 40
1.0
 40
1.0
 10
-14.2657374166
 20
19.8020847846
 30
0.0
 10
-14.2657378167
 20
19.7938628491
 30
0.0
 10
-14.2693374261
 20
19.7764474066
 30
0.0
 10
-14.2843869213
 20
19.7526528772
 30
0.0
 10
-14.3078635553
 20
19.7312416724
 30
0.0
 10
-14.3272227636
 20
19.7196334067
 30
0.0
 10
-14.3379352714
 20
19.7142144646
 30
0.0
  0
SPLINE
  5
5DF
100
AcDbEntity
  8
RACCORDO
100
AcDbSpline
 62
250
  6
CONTINUOUS
 70
0
 71
3
 72
11
 73
7
 74
0
 42
0.0000001
 43
0.0000001
 44
0.0000000001
 40
0.0
 40
0.0
 40
0.0
 40
0.0
 40
0.2306948852
 40
0.4907915546
 40
0.7559054063
 40
1.0
 40
1.0
 40
1.0
 40
1.0
 10
-15.6082649925
 20
17.6324776924
 30
0.0
 10
-15.6283558012
 20
17.6426478673
 30
0.0
 10
-15.6669125667
 20
17.6725657789
 30
0.0
 10
-15.7124931475
 20
17.7312998394
 30
0.0
 10
-15.7448112062
 20
17.7997092427
 30
0.0
 10
-15.7552159122
 20
17.8490623134
 30
0.0
 10
-15.7562626259
 20
17.8728655479
 30
0.0
  0
SPLINE
  5
5E0
100
AcDbEntity
  8
RACCORDO
100
AcDbSpline
 62
250
  6
CONTINUOUS
 70
0
 71
3
 72
9
 73
5
 74
0
 42
0.0000001
 43
0.0000001
 44
0.0000000001
 40
0.0
 40
0.0
 40
0.0
 40
0.0
 40
0.4444758261
 40
1.0
 40
1.0
 40
1.0
 40
1.0
 10
-17.515220199
 20
18.607115126
 30
0.0
 10
-17.5152143652
 20
18.6019150376
 30
0.0
 10
-17.5127704214
 20
18.5902304531
 30
0.0
 10
-17.5075578187
 20
18.5796936148
 30
0.0
 10
-17.5043647259
 20
18.5740327925
 30
0.0
  0
SPLINE
  5
5E1
100
AcDbEntity
  8
RACCORDO
100
AcDbSpline
 62
250
  6
CONTINUOUS
 70
0
 71
3
 72
11
 73
7
 74
0
 42
0.0000001
 43
0.0000001
 44
0.0000000001
 40
0.0
 40
0.0
 40
0.0
 40
0.0
 40
0.2274030322
 40
0.4651083369
 40
0.721100729
 40
1.0
 40
1.0
 40
1.0
 40
1.0
 10
-15.7412603244
 20
21.041888195
 30
0.0
 10
-15.7490439013
 20
21.0457803542
 30
0.0
 10
-15.7661795126
 20
21.0515062146
 30
0.0
 10
-15.7940168021
 20
21.052993495
 30
0.0
 10
-15.823322567
 20
21.0476326232
 30
0.0
 10
-15.8424616278
 20
21.0400171397
 30
0.0
 10
-15.8520351356
 20
21.0352986004
 30
0.0
  0
LINE
  5
5E2
100
AcDbEntity
  8
RACCORDO
100
AcDbLine
 62
250
  6
CONTINUOUS
 10
-1.5018842787
 20
-27.4274515711
 11
-2.3919444615
 21
-27.8062634577
  0
SPLINE
  5
5E3
100
AcDbEntity
  8
RACCORDO
100
AcDbSpline
 62
250
  6
CONTINUOUS
 70
0
 71
3
 72
10
 73
6
 74
0
 42
0.0000001
 43
0.0000001
 44
0.0000000001
 40
0.0
 40
0.0
 40
0.0
 40
0.0
 40
0.2230832272
 40
0.4770403106
 40
1.0
 40
1.0
 40
1.0
 40
1.0
 10
-2.3919444615
 20
-27.8062634577
 30
0.0
 10
-2.4090155905
 20
-27.8125844901
 30
0.0
 10
-2.4456960251
 20
-27.8257864448
 30
0.0
 10
-2.5231633651
 20
-27.8503692018
 30
0.0
 10
-2.5880103174
 20
-27.8607713926
 30
0.0
 10
-2.6302758783
 20
-27.854881086
 30
0.0
  0
SPLINE
  5
5E4
100
AcDbEntity
  8
RACCORDO
100
AcDbSpline
 62
250
  6
CONTINUOUS
 70
0
 71
3
 72
9
 73
5
 74
0
 42
0.0000001
 43
0.0000001
 44
0.0000000001
 40
0.0
 40
0.0
 40
0.0
 40
0.0
 40
0.2687227017
 40
1.0
 40
1.0
 40
1.0
 40
1.0
 10
-4.2135444949
 20
11.9351174436
 30
0.0
 10
-4.209503901
 20
11.9331219506
 30
0.0
 10
-4.1941959319
 20
11.9263027784
 30
0.0
 10
-4.1775908912
 20
11.9220585948
 30
0.0
 10
-4.165350828
 20
11.9213002915
 30
0.0
  0
SPLINE
  5
5E5
100
AcDbEntity
  8
RACCORDO
100
AcDbSpline
 62
250
  6
CONTINUOUS
 70
0
 71
3
 72
9
 73
5
 74
0
 42
0.0000001
 43
0.0000001
 44
0.0000000001
 40
0.0
 40
0.0
 40
0.0
 40
0.0
 40
0.2548769617
 40
1.0
 40
1.0
 40
1.0
 40
1.0
 10
-4.165350828
 20
11.9213002915
 30
0.0
 10
-4.1641896719
 20
11.9212283549
 30
0.0
 10
-4.1596293568
 20
11.9210287776
 30
0.0
 10
-4.1550528094
 20
11.9211676684
 30
0.0
 10
-4.1516660373
 20
11.9214795661
 30
0.0
  0
SPLINE
  5
5E6
100
AcDbEntity
  8
RACCORDO
100
AcDbSpline
 62
250
  6
CONTINUOUS
 70
0
 71
3
 72
15
 73
11
 74
0
 42
0.0000001
 43
0.0000001
 44
0.0000000001
 40
0.0
 40
0.0
 40
0.0
 40
0.0
 40
0.1502465098
 40
0.2826275418
 40
0.3991322841
 40
0.5054945043
 40
0.610804272
 40
0.7245728777
 40
0.8533905318
 40
1.0
 40
1.0
 40
1.0
 40
1.0
 10
-4.2135444949
 20
11.9351174436
 30
0.0
 10
-4.2329948183
 20
11.9240226327
 30
0.0
 10
-4.2681585884
 20
11.9003864052
 30
0.0
 10
-4.3104024616
 20
11.8578265369
 30
0.0
 10
-4.3372484632
 20
11.8112933072
 30
0.0
 10
-4.3465705511
 20
11.7621623795
 30
0.0
 10
-4.3369249125
 20
11.7134661516
 30
0.0
 10
-4.3095230032
 20
11.6684444709
 30
0.0
 10
-4.2666697577
 20
11.6285726463
 30
0.0
 10
-4.2312422979
 20
11.6073137547
 30
0.0
 10
-4.2116986891
 20
11.5975425901
 30
0.0
  0
SPLINE
  5
5E7
100
AcDbEntity
  8
RACCORDO
100
AcDbSpline
 62
250
  6
CONTINUOUS
 70
0
 71
3
 72
11
 73
7
 74
0
 42
0.0000001
 43
0.0000001
 44
0.0000000001
 40
0.0
 40
0.0
 40
0.0
 40
0.0
 40
0.2327757163
 40
0.4915318897
 40
0.7548932977
 40
1.0
 40
1.0
 40
1.0
 40
1.0
 10
-4.2116986891
 20
11.5975425901
 30
0.0
 10
-4.1924142007
 20
11.6084226315
 30
0.0
 10
-4.1559212634
 20
11.6389840986
 30
0.0
 10
-4.1138628052
 20
11.6979011942
 30
0.0
 10
-4.085460058
 20
11.765755978
 30
0.0
 10
-4.0776787548
 20
11.8142053559
 30
0.0
 10
-4.0776787547
 20
11.8375202664
 30
0.0
  0
SPLINE
  5
5E8
100
AcDbEntity
  8
RACCORDO
100
AcDbSpline
 62
250
  6
CONTINUOUS
 70
0
 71
3
 72
11
 73
7
 74
0
 42
0.0000001
 43
0.0000001
 44
0.0000000001
 40
0.0
 40
0.0
 40
0.0
 40
0.0
 40
0.215802457
 40
0.4485624502
 40
0.7089643541
 40
1.0
 40
1.0
 40
1.0
 40
1.0
 10
-21.2690092663
 20
7.6628947005
 30
0.0
 10
-21.2795328521
 20
7.6681588242
 30
0.0
 10
-21.2994205591
 20
7.6834978661
 30
0.0
 10
-21.3203343182
 20
7.7167391263
 30
0.0
 10
-21.3323741252
 20
7.7582126347
 30
0.0
 10
-21.3342563098
 20
7.7884479508
 30
0.0
 10
-21.3338910545
 20
7.8043126544
 30
0.0
  0
SPLINE
  5
5E9
100
AcDbEntity
  8
RACCORDO
100
AcDbSpline
 62
250
  6
CONTINUOUS
 70
0
 71
3
 72
9
 73
5
 74
0
 42
0.0000001
 43
0.0000001
 44
0.0000000001
 40
0.0
 40
0.0
 40
0.0
 40
0.0
 40
0.4753957346
 40
1.0
 40
1.0
 40
1.0
 40
1.0
 10
-2.7444664211
 20
11.1709140996
 30
0.0
 10
-2.7291269322
 20
11.1632443425
 30
0.0
 10
-2.6949945105
 20
11.1507794812
 30
0.0
 10
-2.6593661617
 20
11.1442396183
 30
0.0
 10
-2.6405588354
 20
11.1421298472
 30
0.0
  0
SPLINE
  5
5EA
100
AcDbEntity
  8
RACCORDO
100
AcDbSpline
 62
250
  6
CONTINUOUS
 70
0
 71
3
 72
11
 73
7
 74
0
 42
0.0000001
 43
0.0000001
 44
0.0000000001
 40
0.0
 40
0.0
 40
0.0
 40
0.0
 40
0.2327757174
 40
0.4915318912
 40
0.7548932986
 40
1.0
 40
1.0
 40
1.0
 40
1.0
 10
-2.8784863554
 20
10.9309364232
 30
0.0
 10
-2.859201867
 20
10.9418164647
 30
0.0
 10
-2.8227089296
 20
10.972377932
 30
0.0
 10
-2.7806504714
 20
11.0312950276
 30
0.0
 10
-2.7522477243
 20
11.0991498115
 30
0.0
 10
-2.7444664211
 20
11.1475991892
 30
0.0
 10
-2.7444664211
 20
11.1709140996
 30
0.0
  0
SPLINE
  5
5EB
100
AcDbEntity
  8
RACCORDO
100
AcDbSpline
 62
250
  6
CONTINUOUS
 70
0
 71
3
 72
9
 73
5
 74
0
 42
0.0000001
 43
0.0000001
 44
0.0000000001
 40
0.0
 40
0.0
 40
0.0
 40
0.0
 40
0.475099993
 40
1.0
 40
1.0
 40
1.0
 40
1.0
 10
-2.8784863554
 20
10.9309364232
 30
0.0
 10
-2.8508286453
 20
10.917107533
 30
0.0
 10
-2.7894097078
 20
10.8943121369
 30
0.0
 10
-2.7253309552
 20
10.8816109649
 30
0.0
 10
-2.6914527011
 20
10.8772050481
 30
0.0
  0
SPLINE
  5
5EC
100
AcDbEntity
  8
RACCORDO
100
AcDbSpline
 62
250
  6
CONTINUOUS
 70
0
 71
3
 72
12
 73
8
 74
0
 42
0.0000001
 43
0.0000001
 44
0.0000000001
 40
0.0
 40
0.0
 40
0.0
 40
0.0
 40
0.2632533401
 40
0.5250564756
 40
0.7713569479
 40
0.8877290471
 40
1.0
 40
1.0
 40
1.0
 40
1.0
 10
-2.6405588354
 20
11.1421298472
 30
0.0
 10
-2.6184270542
 20
11.139646812
 30
0.0
 10
-2.5744165274
 20
11.1335991087
 30
0.0
 10
-2.509380039
 20
11.1278084804
 30
0.0
 10
-2.4561436596
 20
11.1314507921
 30
0.0
 10
-2.4174663945
 20
11.1429214377
 30
0.0
 10
-2.4000233269
 20
11.1515624161
 30
0.0
 10
-2.3919444615
 20
11.1565565555
 30
0.0
  0
SPLINE
  5
5ED
100
AcDbEntity
  8
RACCORDO
100
AcDbSpline
 62
250
  6
CONTINUOUS
 70
0
 71
3
 72
12
 73
8
 74
0
 42
0.0000001
 43
0.0000001
 44
0.0000000001
 40
0.0
 40
0.0
 40
0.0
 40
0.0
 40
0.0924454946
 40
0.2019562599
 40
0.4585060787
 40
0.7368696179
 40
1.0
 40
1.0
 40
1.0
 40
1.0
 10
-2.6914527272
 20
10.8772056437
 30
0.0
 10
-2.6873562093
 20
10.8845197055
 30
0.0
 10
-2.6796127423
 20
10.9011714715
 30
0.0
 10
-2.6656082485
 20
10.9403533533
 30
0.0
 10
-2.6518885029
 20
10.9973279679
 30
0.0
 10
-2.6419230012
 20
11.0690852435
 30
0.0
 10
-2.6399118035
 20
11.1182778429
 30
0.0
 10
-2.6405585931
 20
11.1421302448
 30
0.0
  0
SPLINE
  5
5EE
100
AcDbEntity
  8
RACCORDO
100
AcDbSpline
 62
250
  6
CONTINUOUS
 70
0
 71
3
 72
11
 73
7
 74
0
 42
0.0000001
 43
0.0000001
 44
0.0000000001
 40
0.0
 40
0.0
 40
0.0
 40
0.0
 40
0.269118146
 40
0.5287652782
 40
0.7723826313
 40
1.0
 40
1.0
 40
1.0
 40
1.0
 10
-2.6914527011
 20
10.8772050481
 30
0.0
 10
-2.6544841198
 20
10.8755822734
 30
0.0
 10
-2.5816801382
 20
10.8749706118
 30
0.0
 10
-2.4756966167
 20
10.8851014116
 30
0.0
 10
-2.3775711797
 20
10.9084871749
 30
0.0
 10
-2.3176357879
 20
10.9342751774
 30
0.0
 10
-2.2903067773
 20
10.9495288576
 30
0.0
  0
SPLINE
  5
5EF
100
AcDbEntity
  8
RACCORDO
100
AcDbSpline
 62
250
  6
CONTINUOUS
 70
0
 71
3
 72
11
 73
7
 74
0
 42
0.0000001
 43
0.0000001
 44
0.0000000001
 40
0.0
 40
0.0
 40
0.0
 40
0.0
 40
0.2493665571
 40
0.5097408807
 40
0.7649906121
 40
1.0
 40
1.0
 40
1.0
 40
1.0
 10
-2.2903067772
 20
10.9495288577
 30
0.0
 10
-2.3048017349
 20
10.9627065567
 30
0.0
 10
-2.3315262683
 20
10.9929315263
 30
0.0
 10
-2.3628167052
 20
11.044579501
 30
0.0
 10
-2.3842421218
 20
11.0998338947
 30
0.0
 10
-2.3910688701
 20
11.1381155182
 30
0.0
 10
-2.3919444615
 20
11.1565565555
 30
0.0
  0
LINE
  5
5F0
100
AcDbEntity
  8
RACCORDO
100
AcDbLine
 62
250
  6
CONTINUOUS
 10
-2.2903067773
 20
10.9495288576
 11
-1.3040221852
 21
11.4998242967
  0
SPLINE
  5
5F1
100
AcDbEntity
  8
RACCORDO
100
AcDbSpline
 62
7
  6
CONTINUOUS
 70
0
 71
3
 72
16
 73
12
 74
0
 42
0.0000001
 43
0.0000001
 44
0.0000000001
 40
0.0
 40
0.0
 40
0.0
 40
0.0
 40
0.2399663166
 40
0.3611050335
 40
0.4833280413
 40
0.6070682221
 40
0.7331487925
 40
0.7975957148
 40
0.8635484618
 40
0.931796966
 40
1.0
 40
1.0
 40
1.0
 40
1.0
 10
-1.4358385365
 20
11.4777284159
 30
0.0
 10
-1.4254840018
 20
11.4810235069
 30
0.0
 10
-1.4098500885
 20
11.485823388
 30
0.0
 10
-1.3887811025
 20
11.4917509965
 30
0.0
 10
-1.372686612
 20
11.4959188413
 30
0.0
 10
-1.3562612213
 20
11.499668159
 30
0.0
 10
-1.3422486504
 20
11.502230455
 30
0.0
 10
-1.3307255603
 20
11.5036413008
 30
0.0
 10
-1.3217072616
 20
11.5041710358
 30
0.0
 10
-1.3126410497
 20
11.5037605945
 30
0.0
 10
-1.3063028618
 20
11.501904579
 30
0.0
 10
-1.3040211085
 20
11.4998233088
 30
0.0
  0
LINE
  5
5F2
100
AcDbEntity
  8
RACCORDO
100
AcDbLine
 62
250
  6
CONTINUOUS
 10
-2.3919444615
 20
11.1565565555
 11
-1.5018842787
 21
11.6575083176
  0
SPLINE
  5
5F3
100
AcDbEntity
  8
RACCORDO
100
AcDbSpline
 62
250
  6
CONTINUOUS
 70
0
 71
3
 72
13
 73
9
 74
0
 42
0.0000001
 43
0.0000001
 44
0.0000000001
 40
0.0
 40
0.0
 40
0.0
 40
0.0
 40
0.108341945
 40
0.2190265967
 40
0.3337554568
 40
0.4538738149
 40
0.7131081105
 40
1.0
 40
1.0
 40
1.0
 40
1.0
 10
-21.5199991914
 20
7.6901853158
 30
0.0
 10
-21.5367068156
 20
7.6818085932
 30
0.0
 10
-21.5690484128
 20
7.6618357744
 30
0.0
 10
-21.6123153608
 20
7.6234637461
 30
0.0
 10
-21.6501099026
 20
7.5770521826
 30
0.0
 10
-21.6936803256
 20
7.5034836235
 30
0.0
 10
-21.7312122231
 20
7.3935367665
 30
0.0
 10
-21.7418883841
 20
7.2992804488
 30
0.0
 10
-21.7432701502
 20
7.2498083398
 30
0.0
  0
SPLINE
  5
5F4
100
AcDbEntity
  8
RACCORDO
100
AcDbSpline
 62
250
  6
CONTINUOUS
 70
0
 71
3
 72
15
 73
11
 74
0
 42
0.0000001
 43
0.0000001
 44
0.0000000001
 40
0.0
 40
0.0
 40
0.0
 40
0.0
 40
0.1206990017
 40
0.2482646144
 40
0.3800794191
 40
0.5131481296
 40
0.6443690693
 40
0.7707988041
 40
0.8899295231
 40
1.0
 40
1.0
 40
1.0
 40
1.0
 10
-9.1567077695
 20
0.7855307567
 30
0.0
 10
-9.1553802727
 20
0.8477711491
 30
0.0
 10
-9.1631586101
 20
0.9761514905
 30
0.0
 10
-9.2020222735
 20
1.1688347815
 30
0.0
 10
-9.2669941654
 20
1.3611011701
 30
0.0
 10
-9.3556699348
 20
1.5457152839
 30
0.0
 10
-9.4647593272
 20
1.7157844678
 30
0.0
 10
-9.5902667027
 20
1.8649510272
 30
0.0
 10
-9.7275215012
 20
1.9875998525
 30
0.0
 10
-9.8279827972
 20
2.0513572938
 30
0.0
 10
-9.8787611993
 20
2.0767477268
 30
0.0
  0
SPLINE
  5
5F5
100
AcDbEntity
  8
RACCORDO
100
AcDbSpline
 62
250
  6
CONTINUOUS
 70
0
 71
3
 72
11
 73
7
 74
0
 42
0.0000001
 43
0.0000001
 44
0.0000000001
 40
0.0
 40
0.0
 40
0.0
 40
0.0
 40
0.2303229085
 40
0.4897175803
 40
0.7547621168
 40
1.0
 40
1.0
 40
1.0
 40
1.0
 10
-9.7020563839
 20
-22.3062910402
 30
0.0
 10
-9.7276783844
 20
-22.3191020404
 30
0.0
 10
-9.776543508
 20
-22.3576147676
 30
0.0
 10
-9.8325226254
 20
-22.4340069591
 30
0.0
 10
-9.8699433811
 20
-22.5230230444
 30
0.0
 10
-9.8794797845
 20
-22.5868304743
 30
0.0
 10
-9.8787611993
 20
-22.6173233166
 30
0.0
  0
SPLINE
  5
5F6
100
AcDbEntity
  8
RACCORDO
100
AcDbSpline
 62
250
  6
CONTINUOUS
 70
0
 71
3
 72
18
 73
14
 74
0
 42
0.0000001
 43
0.0000001
 44
0.0000000001
 40
0.0
 40
0.0
 40
0.0
 40
0.0
 40
0.1366540726
 40
0.2597715819
 40
0.3173535009
 40
0.3730586752
 40
0.4277210125
 40
0.4822627019
 40
0.5376157388
 40
0.5946415846
 40
0.7161884955
 40
0.8509665862
 40
1.0
 40
1.0
 40
1.0
 40
1.0
 10
-9.8787611993
 20
-22.6173233166
 30
0.0
 10
-9.8326465059
 20
-22.6403791216
 30
0.0
 10
-9.7407886984
 20
-22.6766582405
 30
0.0
 10
-9.6208816023
 20
-22.6942094431
 30
0.0
 10
-9.531609946
 20
-22.6878496739
 30
0.0
 10
-9.4695706283
 20
-22.6737091053
 30
0.0
 10
-9.4116688641
 20
-22.6501886578
 30
0.0
 10
-9.3585384317
 20
-22.6175297245
 30
0.0
 10
-9.3107519922
 20
-22.5760957553
 30
0.0
 10
-9.2536191038
 20
-22.5084209491
 30
0.0
 10
-9.1983267437
 20
-22.4021821565
 30
0.0
 10
-9.161245882
 20
-22.252742652
 30
0.0
 10
-9.1554826222
 20
-22.1451914144
 30
0.0
 10
-9.1567077695
 20
-22.0889771572
 30
0.0
  0
SPLINE
  5
5F7
100
AcDbEntity
  8
RACCORDO
100
AcDbSpline
 62
250
  6
CONTINUOUS
 70
0
 71
3
 72
11
 73
7
 74
0
 42
0.0000001
 43
0.0000001
 44
0.0000000001
 40
0.0
 40
0.0
 40
0.0
 40
0.0
 40
0.2822747542
 40
0.5395116293
 40
0.7760233143
 40
1.0
 40
1.0
 40
1.0
 40
1.0
 10
-9.7020563839
 20
-22.3062910402
 30
0.0
 10
-9.671259908
 20
-22.3216888431
 30
0.0
 10
-9.6099550647
 20
-22.3466742875
 30
0.0
 10
-9.5163656918
 20
-22.3649810052
 30
0.0
 10
-9.4279865491
 20
-22.3613971047
 30
0.0
 10
-9.3737308906
 20
-22.3437036152
 30
0.0
 10
-9.349282417
 20
-22.3315107032
 30
0.0
  0
SPLINE
  5
5F8
100
AcDbEntity
  8
RACCORDO
100
AcDbSpline
 62
250
  6
CONTINUOUS
 70
0
 71
3
 72
11
 73
7
 74
0
 42
0.0000001
 43
0.0000001
 44
0.0000000001
 40
0.0
 40
0.0
 40
0.0
 40
0.0
 40
0.2303229089
 40
0.489717581
 40
0.7547621173
 40
1.0
 40
1.0
 40
1.0
 40
1.0
 10
-21.1571862391
 20
-16.5787261126
 30
0.0
 10
-21.1828082396
 20
-16.5915371128
 30
0.0
 10
-21.2316733633
 20
-16.6300498401
 30
0.0
 10
-21.2876524808
 20
-16.7064420317
 30
0.0
 10
-21.3250732364
 20
-16.795458117
 30
0.0
 10
-21.3346096397
 20
-16.8592655468
 30
0.0
 10
-21.3338910545
 20
-16.889758389
 30
0.0
  0
SPLINE
  5
5F9
100
AcDbEntity
  8
RACCORDO
100
AcDbSpline
 62
250
  6
CONTINUOUS
 70
0
 71
3
 72
13
 73
9
 74
0
 42
0.0000001
 43
0.0000001
 44
0.0000000001
 40
0.0
 40
0.0
 40
0.0
 40
0.0
 40
0.113574932
 40
0.2371407239
 40
0.5015581508
 40
0.7651307541
 40
0.8877027356
 40
1.0
 40
1.0
 40
1.0
 40
1.0
 10
-21.7432701502
 20
-15.6132623201
 30
0.0
 10
-21.7554437994
 20
-15.6197430929
 30
0.0
 10
-21.7819901603
 20
-15.631202311
 30
0.0
 10
-21.8406405548
 20
-15.6480463785
 30
0.0
 10
-21.9198474525
 20
-15.6569980926
 30
0.0
 10
-21.9991943114
 20
-15.6506365289
 30
0.0
 10
-22.057963341
 20
-15.6356655791
 30
0.0
 10
-22.0845653762
 20
-15.6250483538
 30
0.0
 10
-22.0967618652
 20
-15.6189501093
 30
0.0
  0
SPLINE
  5
5FA
100
AcDbEntity
  8
RACCORDO
100
AcDbSpline
 62
250
  6
CONTINUOUS
 70
0
 71
3
 72
15
 73
11
 74
0
 42
0.0000001
 43
0.0000001
 44
0.0000000001
 40
0.0
 40
0.0
 40
0.0
 40
0.0
 40
0.1188252874
 40
0.245303237
 40
0.3767613301
 40
0.5100907189
 40
0.6420215075
 40
0.7693885391
 40
0.8894096045
 40
1.0
 40
1.0
 40
1.0
 40
1.0
 10
-22.0967618652
 20
-15.6189501093
 30
0.0
 10
-22.0954266552
 20
-15.6801064317
 30
0.0
 10
-22.0822323626
 20
-15.8062532314
 30
0.0
 10
-22.0358237557
 20
-15.9950861422
 30
0.0
 10
-21.9638295182
 20
-16.1837317471
 30
0.0
 10
-21.8689467722
 20
-16.3651026249
 30
0.0
 10
-21.75473766
 20
-16.5324398733
 30
0.0
 10
-21.6254430645
 20
-16.6795005763
 30
0.0
 10
-21.4859247116
 20
-16.8007714548
 30
0.0
 10
-21.3848115497
 20
-16.864296454
 30
0.0
 10
-21.3338910545
 20
-16.889758389
 30
0.0
  0
SPLINE
  5
5FB
100
AcDbEntity
  8
RACCORDO
100
AcDbSpline
 62
250
  6
CONTINUOUS
 70
0
 71
3
 72
15
 73
11
 74
0
 42
0.0000001
 43
0.0000001
 44
0.0000000001
 40
0.0
 40
0.0
 40
0.0
 40
0.0
 40
0.118531753
 40
0.2448418111
 40
0.3762461157
 40
0.5096161516
 40
0.6416555095
 40
0.7691659046
 40
0.8893249314
 40
1.0
 40
1.0
 40
1.0
 40
1.0
 10
-21.7432701502
 20
-15.6132623201
 30
0.0
 10
-21.7419355257
 20
-15.6597124609
 30
0.0
 10
-21.7312330521
 20
-15.7555251816
 30
0.0
 10
-21.6949716025
 20
-15.8988891482
 30
0.0
 10
-21.6392771467
 20
-16.0421368174
 30
0.0
 10
-21.5662427855
 20
-16.1798865952
 30
0.0
 10
-21.4786168735
 20
-16.3070073782
 30
0.0
 10
-21.3796607181
 20
-16.4187605235
 30
0.0
 10
-21.2731002531
 20
-16.5109614735
 30
0.0
 10
-21.1959944728
 20
-16.5593214516
 30
0.0
 10
-21.1571862391
 20
-16.5787261126
 30
0.0
  0
SPLINE
  5
5FC
100
AcDbEntity
  8
RACCORDO
100
AcDbSpline
 62
250
  6
CONTINUOUS
 70
0
 71
3
 72
13
 73
9
 74
0
 42
0.0000001
 43
0.0000001
 44
0.0000000001
 40
0.0
 40
0.0
 40
0.0
 40
0.0
 40
0.1116397699
 40
0.2341127734
 40
0.498444839
 40
0.763616118
 40
0.8870799708
 40
1.0
 40
1.0
 40
1.0
 40
1.0
 10
-21.7432701502
 20
7.2498083398
 30
0.0
 10
-21.7555071976
 20
7.2440858158
 30
0.0
 10
-21.7821580927
 20
7.2341578168
 30
0.0
 10
-21.840945522
 20
7.2202015459
 30
0.0
 10
-21.9201547555
 20
7.2143675927
 30
0.0
 10
-21.9992391069
 20
7.2228126187
 30
0.0
 10
-22.0579310111
 20
7.2386650868
 30
0.0
 10
-22.0845405011
 20
7.2494471225
 30
0.0
 10
-22.0967618652
 20
7.2555578045
 30
0.0
  0
LINE
  5
5FD
100
AcDbEntity
  8
RACCORDO
100
AcDbLine
 62
250
  6
CONTINUOUS
 10
-22.0967618652
 20
7.2555578045
 11
-22.111596971
 21
6.5384640731
  0
LINE
  5
5FE
100
AcDbEntity
  8
RACCORDO
100
AcDbLine
 62
250
  6
CONTINUOUS
 10
-21.7432701502
 20
7.2498083398
 11
-21.7507809513
 21
6.8924355985
  0
SPLINE
  5
5FF
100
AcDbEntity
  8
RACCORDO
100
AcDbSpline
 62
7
  6
CONTINUOUS
 70
0
 71
3
 72
11
 73
7
 74
0
 42
0.0000001
 43
0.0000001
 44
0.0000000001
 40
0.0
 40
0.0
 40
0.0
 40
0.0
 40
0.227550333
 40
0.4653227117
 40
0.7212674125
 40
1.0
 40
1.0
 40
1.0
 40
1.0
 10
-3.6355965529
 20
19.8358772285
 30
0.0
 10
-3.6665975801
 20
19.8513788282
 30
0.0
 10
-3.7348089187
 20
19.8742239571
 30
0.0
 10
-3.8456170698
 20
19.8803363515
 30
0.0
 10
-3.9622862725
 20
19.8592821773
 30
0.0
 10
-4.0385172621
 20
19.8291957278
 30
0.0
 10
-4.0766534376
 20
19.8105352466
 30
0.0
  0
SPLINE
  5
600
100
AcDbEntity
  8
RACCORDO
100
AcDbSpline
 62
250
  6
CONTINUOUS
 70
0
 71
3
 72
11
 73
7
 74
0
 42
0.0000001
 43
0.0000001
 44
0.0000000001
 40
0.0
 40
0.0
 40
0.0
 40
0.0
 40
0.2158025726
 40
0.4485588168
 40
0.7089597692
 40
1.0
 40
1.0
 40
1.0
 40
1.0
 10
-9.8138597274
 20
1.9353199296
 30
0.0
 10
-9.8243859519
 20
1.9405822821
 30
0.0
 10
-9.8442795121
 20
1.9559193059
 30
0.0
 10
-9.865200023
 20
1.9891625547
 30
0.0
 10
-9.8772436887
 20
2.0306410877
 30
0.0
 10
-9.8791265089
 20
2.0608806679
 30
0.0
 10
-9.8787611993
 20
2.0767477268
 30
0.0
  0
SPLINE
  5
601
100
AcDbEntity
  8
RACCORDO
100
AcDbSpline
 62
250
  6
CONTINUOUS
 70
0
 71
3
 72
18
 73
14
 74
0
 42
0.0000001
 43
0.0000001
 44
0.0000000001
 40
0.0
 40
0.0
 40
0.0
 40
0.0
 40
0.1329669721
 40
0.2541982369
 40
0.311571833
 40
0.3675300996
 40
0.4228376706
 40
0.4783106402
 40
0.5347508199
 40
0.5928837313
 40
0.7162477708
 40
0.8517225296
 40
1.0
 40
1.0
 40
1.0
 40
1.0
 10
-21.3338910545
 20
7.8043126544
 30
0.0
 10
-21.3801895698
 20
7.8274607852
 30
0.0
 10
-21.4731874739
 20
7.8636688322
 30
0.0
 10
-21.5949034717
 20
7.8799459405
 30
0.0
 10
-21.6862061478
 20
7.872347865
 30
0.0
 10
-21.7503332476
 20
7.8571115442
 30
0.0
 10
-21.8106258625
 20
7.8323526115
 30
0.0
 10
-21.8664405052
 20
7.7983372704
 30
0.0
 10
-21.9171924092
 20
7.755439131
 30
0.0
 10
-21.978622109
 20
7.6857277633
 30
0.0
 10
-22.0399013145
 20
7.5769371624
 30
0.0
 10
-22.0847134084
 20
7.4238469555
 30
0.0
 10
-22.0955287871
 20
7.3132676774
 30
0.0
 10
-22.0967618652
 20
7.2555578045
 30
0.0
  0
SPLINE
  5
602
100
AcDbEntity
  8
RACCORDO
100
AcDbSpline
 62
7
  6
CONTINUOUS
 70
0
 71
3
 72
12
 73
8
 74
0
 42
0.0000001
 43
0.0000001
 44
0.0000000001
 40
0.0
 40
0.0
 40
0.0
 40
0.0
 40
0.1460665466
 40
0.2901900051
 40
0.5606459046
 40
0.7988834635
 40
1.0
 40
1.0
 40
1.0
 40
1.0
 10
-6.5612023499
 20
14.6855472695
 30
0.0
 10
-6.5823606703
 20
14.6839814586
 30
0.0
 10
-6.6242297961
 20
14.678572348
 30
0.0
 10
-6.7041397118
 20
14.6627491182
 30
0.0
 10
-6.7958994789
 20
14.6385862484
 30
0.0
 10
-6.8946992357
 20
14.6091561002
 30
0.0
 10
-6.9558552699
 20
14.5908929448
 30
0.0
 10
-6.9840247297
 20
14.583157705
 30
0.0
  0
SPLINE
  5
603
100
AcDbEntity
  8
ASSI
100
AcDbSpline
 62
7
  6
CONTINUOUS
 70
0
 71
3
 72
9
 73
5
 74
0
 42
0.0000001
 43
0.0000001
 44
0.0000000001
 40
0.0
 40
0.0
 40
0.0
 40
0.0
 40
0.2279454238
 40
1.0
 40
1.0
 40
1.0
 40
1.0
 10
-6.0346744085
 20
20.384337812
 30
0.0
 10
-6.0350982701
 20
20.3845484651
 30
0.0
 10
-6.0369953425
 20
20.3853971663
 30
0.0
 10
-6.0390113605
 20
20.385959648
 30
0.0
 10
-6.0405811835
 20
20.3862848227
 30
0.0
  0
SPLINE
  5
604
100
AcDbEntity
  8
ASSI
100
AcDbSpline
 62
7
  6
CONTINUOUS
 70
0
 71
3
 72
11
 73
7
 74
0
 42
0.0000001
 43
0.0000001
 44
0.0000000001
 40
0.0
 40
0.0
 40
0.0
 40
0.0
 40
0.1426204874
 40
0.3530398032
 40
0.6386421628
 40
1.0
 40
1.0
 40
1.0
 40
1.0
 10
-6.0405811835
 20
20.3862848227
 30
0.0
 10
-6.0459600418
 20
20.3873990049
 30
0.0
 10
-6.0597514189
 20
20.3873650588
 30
0.0
 10
-6.0840395972
 20
20.3835492229
 30
0.0
 10
-6.1161328698
 20
20.3755643509
 30
0.0
 10
-6.1399624441
 20
20.3682805817
 30
0.0
 10
-6.1532114635
 20
20.3640183271
 30
0.0
  0
SPLINE
  5
605
100
AcDbEntity
  8
RACCORDO
100
AcDbSpline
 62
250
  6
CONTINUOUS
 70
0
 71
3
 72
11
 73
7
 74
0
 42
0.0000001
 43
0.0000001
 44
0.0000000001
 40
0.0
 40
0.0
 40
0.0
 40
0.0
 40
0.2173733937
 40
0.4510440391
 40
0.7104899962
 40
1.0
 40
1.0
 40
1.0
 40
1.0
 10
-4.1502102128
 20
11.9215639254
 30
0.0
 10
-4.1490957078
 20
11.9132900554
 30
0.0
 10
-4.1438988287
 20
11.8964131856
 30
0.0
 10
-4.1283784325
 20
11.8735849894
 30
0.0
 10
-4.1058364767
 20
11.8533541398
 30
0.0
 10
-4.0876240637
 20
11.8424927677
 30
0.0
 10
-4.0776787547
 20
11.8375202664
 30
0.0
  0
SPLINE
  5
606
100
AcDbEntity
  8
RACCORDO
100
AcDbSpline
 62
7
  6
CONTINUOUS
 70
0
 71
3
 72
11
 73
7
 74
0
 42
0.0000001
 43
0.0000001
 44
0.0000000001
 40
0.0
 40
0.0
 40
0.0
 40
0.0
 40
0.2464750671
 40
0.5060617882
 40
0.7624431204
 40
1.0
 40
1.0
 40
1.0
 40
1.0
 10
-1.3040211085
 20
11.4998233088
 30
0.0
 10
-1.2675235452
 20
11.46653969
 30
0.0
 10
-1.2005203711
 20
11.3892626951
 30
0.0
 10
-1.1234005164
 20
11.2564336281
 30
0.0
 10
-1.0720091533
 20
11.1135811442
 30
0.0
 10
-1.0572767752
 20
11.014706627
 30
0.0
 10
-1.0564003445
 20
10.9671068978
 30
0.0
  0
SPLINE
  5
607
100
AcDbEntity
  8
RACCORDO
100
AcDbSpline
 62
7
  6
CONTINUOUS
 70
0
 71
3
 72
12
 73
8
 74
0
 42
0.0000001
 43
0.0000001
 44
0.0000000001
 40
0.0
 40
0.0
 40
0.0
 40
0.0
 40
0.2898671091
 40
0.5500329903
 40
0.7831916655
 40
0.8928391913
 40
1.0
 40
1.0
 40
1.0
 40
1.0
 10
-1.0564003445
 20
-26.9775655477
 30
0.0
 10
-1.0569579593
 20
-27.0083885819
 30
0.0
 10
-1.0629353516
 20
-27.0670103683
 30
0.0
 10
-1.088989892
 20
-27.1468973171
 30
0.0
 10
-1.1251562032
 20
-27.2012028278
 30
0.0
 10
-1.161050151
 20
-27.2331748688
 30
0.0
 10
-1.1808361266
 20
-27.2453052912
 30
0.0
 10
-1.1910573116
 20
-27.2503465969
 30
0.0
  0
SPLINE
  5
608
100
AcDbEntity
  8
RACCORDO
100
AcDbSpline
 62
250
  6
CONTINUOUS
 70
0
 71
3
 72
12
 73
8
 74
0
 42
0.0000001
 43
0.0000001
 44
0.0000000001
 40
0.0
 40
0.0
 40
0.0
 40
0.0
 40
0.2890978441
 40
0.5488670609
 40
0.7821082425
 40
0.892142372
 40
1.0
 40
1.0
 40
1.0
 40
1.0
 10
-6.6567898023
 20
-29.328381562
 30
0.0
 10
-6.6581742653
 20
-29.3608589156
 30
0.0
 10
-6.6662373275
 20
-29.4225396042
 30
0.0
 10
-6.6968448988
 20
-29.5058785362
 30
0.0
 10
-6.7377970839
 20
-29.5615012672
 30
0.0
 10
-6.7776579444
 20
-29.5932597496
 30
0.0
 10
-6.7994147154
 20
-29.6048827737
 30
0.0
 10
-6.8105972703
 20
-29.6095767302
 30
0.0
  0
SPLINE
  5
609
100
AcDbEntity
  8
RACCORDO
100
AcDbSpline
 62
250
  6
CONTINUOUS
 70
0
 71
3
 72
18
 73
14
 74
0
 42
0.0000001
 43
0.0000001
 44
0.0000000001
 40
0.0
 40
0.0
 40
0.0
 40
0.0
 40
0.1464029236
 40
0.2804158836
 40
0.4031528348
 40
0.4613354097
 40
0.5180568115
 40
0.5739992422
 40
0.6299000675
 40
0.6864996231
 40
0.7444881354
 40
0.8666676619
 40
1.0
 40
1.0
 40
1.0
 40
1.0
 10
-7.3379774617
 20
-28.8280658939
 30
0.0
 10
-7.336230099
 20
-28.8783018815
 30
0.0
 10
-7.3255887738
 20
-28.9745453586
 30
0.0
 10
-7.284985156
 20
-29.1077978565
 30
0.0
 10
-7.2306181639
 20
-29.202676413
 30
0.0
 10
-7.1764957191
 20
-29.264046778
 30
0.0
 10
-7.1317537929
 20
-29.3023004799
 30
0.0
 10
-7.0825552547
 20
-29.3331816221
 30
0.0
 10
-7.0293551767
 20
-29.3564003829
 30
0.0
 10
-6.9726503536
 20
-29.3717430402
 30
0.0
 10
-6.8917313008
 20
-29.3817256993
 30
0.0
 10
-6.7832491244
 20
-29.3729205281
 30
0.0
 10
-6.6990009179
 20
-29.3460990425
 30
0.0
 10
-6.6567898023
 20
-29.328381562
 30
0.0
  0
SPLINE
  5
60A
100
AcDbEntity
  8
RACCORDO
100
AcDbSpline
 62
250
  6
CONTINUOUS
 70
0
 71
3
 72
14
 73
10
 74
0
 42
0.0000001
 43
0.0000001
 44
0.0000000001
 40
0.0
 40
0.0
 40
0.0
 40
0.0
 40
0.2861039621
 40
0.4187738602
 40
0.5446885326
 40
0.6645185806
 40
0.7793312483
 40
0.8905739578
 40
1.0
 40
1.0
 40
1.0
 40
1.0
 10
-8.0385609355
 20
-28.842665708
 30
0.0
 10
-8.035601597
 20
-28.9282479532
 30
0.0
 10
-8.0205439962
 20
-29.0538098588
 30
0.0
 10
-7.9743695779
 20
-29.2104745485
 30
0.0
 10
-7.9292822747
 20
-29.3147264804
 30
0.0
 10
-7.8733230637
 20
-29.4074195167
 30
0.0
 10
-7.8070235807
 20
-29.4874774834
 30
0.0
 10
-7.7311163528
 20
-29.5538727087
 30
0.0
 10
-7.6744713083
 20
-29.5885696204
 30
0.0
 10
-7.6451793435
 20
-29.603221752
 30
0.0
  0
SPLINE
  5
60B
100
AcDbEntity
  8
RACCORDO
100
AcDbSpline
 62
250
  6
CONTINUOUS
 70
0
 71
3
 72
15
 73
11
 74
0
 42
0.0000001
 43
0.0000001
 44
0.0000000001
 40
0.0
 40
0.0
 40
0.0
 40
0.0
 40
0.1147806258
 40
0.2389963489
 40
0.3697512904
 40
0.5036352062
 40
0.6370195477
 40
0.7663105248
 40
0.888205647
 40
1.0
 40
1.0
 40
1.0
 40
1.0
 10
-7.3379774617
 20
-28.8280658939
 30
0.0
 10
-7.3623844355
 20
-28.8410602786
 30
0.0
 10
-7.4153937841
 20
-28.864092726
 30
0.0
 10
-7.5010651433
 20
-28.8891344989
 30
0.0
 10
-7.5935033514
 20
-28.9053817215
 30
0.0
 10
-7.689305538
 20
-28.9122213247
 30
0.0
 10
-7.7849590347
 20
-28.9094077567
 30
0.0
 10
-7.8769609393
 20
-28.8970394459
 30
0.0
 10
-7.9619288689
 20
-28.8755870477
 30
0.0
 10
-8.0144646575
 20
-28.854693269
 30
0.0
 10
-8.0385608191
 20
-28.8426656439
 30
0.0
  0
SPLINE
  5
60C
100
AcDbEntity
  8
RACCORDO
100
AcDbSpline
 62
250
  6
CONTINUOUS
 70
0
 71
3
 72
15
 73
11
 74
0
 42
0.0000001
 43
0.0000001
 44
0.0000000001
 40
0.0
 40
0.0
 40
0.0
 40
0.0
 40
0.111849354
 40
0.2344080018
 40
0.3646187721
 40
0.4988638171
 40
0.6332637546
 40
0.7639293112
 40
0.8872119581
 40
1.0
 40
1.0
 40
1.0
 40
1.0
 10
-7.3379774617
 20
6.7515587339
 30
0.0
 10
-7.3625741678
 20
6.740901377
 30
0.0
 10
-7.4158966447
 20
6.7225819961
 30
0.0
 10
-7.5014782651
 20
6.7041604526
 30
0.0
 10
-7.5938279279
 20
6.6940098529
 30
0.0
 10
-7.6895415072
 20
6.6925243892
 30
0.0
 10
-7.7851018853
 20
6.6997576221
 30
0.0
 10
-7.8769962746
 20
6.7154452344
 30
0.0
 10
-7.9618370231
 20
6.7389894477
 30
0.0
 10
-8.0143922253
 20
6.7604678601
 30
0.0
 10
-8.0385609354
 20
6.7725741597
 30
0.0
  0
SPLINE
  5
60D
100
AcDbEntity
  8
RACCORDO
100
AcDbSpline
 62
250
  6
CONTINUOUS
 70
0
 71
3
 72
15
 73
11
 74
0
 42
0.0000001
 43
0.0000001
 44
0.0000000001
 40
0.0
 40
0.0
 40
0.0
 40
0.0
 40
0.1125344664
 40
0.2331195774
 40
0.3599630807
 40
0.4907311
 40
0.6227817497
 40
0.7533762961
 40
0.8798845481
 40
1.0
 40
1.0
 40
1.0
 40
1.0
 10
-6.6567898023
 20
7.9096896782
 30
0.0
 10
-6.702769439
 20
7.8845870333
 30
0.0
 10
-6.7935065805
 20
7.8240761947
 30
0.0
 10
-6.9182977208
 20
7.7115348125
 30
0.0
 10
-7.0330757728
 20
7.57743443
 30
0.0
 10
-7.1340227598
 20
7.4262382416
 30
0.0
 10
-7.2178207408
 20
7.2629514255
 30
0.0
 10
-7.2816835112
 20
7.0929783401
 30
0.0
 10
-7.3234853767
 20
6.921997576
 30
0.0
 10
-7.3360967501
 20
6.8074418891
 30
0.0
 10
-7.3379774617
 20
6.7515587339
 30
0.0
  0
SPLINE
  5
60E
100
AcDbEntity
  8
RACCORDO
100
AcDbSpline
 62
250
  6
CONTINUOUS
 70
0
 71
3
 72
15
 73
11
 74
0
 42
0.0000001
 43
0.0000001
 44
0.0000000001
 40
0.0
 40
0.0
 40
0.0
 40
0.0
 40
0.1123063341
 40
0.2327572404
 40
0.3595516115
 40
0.4903413233
 40
0.6224664267
 40
0.753167087
 40
0.8797892784
 40
1.0
 40
1.0
 40
1.0
 40
1.0
 10
-7.0226225424
 20
8.5126921239
 30
0.0
 10
-7.0912370249
 20
8.4748199503
 30
0.0
 10
-7.2266206564
 20
8.3836091169
 30
0.0
 10
-7.4127199463
 20
8.2142560578
 30
0.0
 10
-7.5838843264
 20
8.0126139497
 30
0.0
 10
-7.7344204209
 20
7.7853950332
 30
0.0
 10
-7.8593807634
 20
7.5401217202
 30
0.0
 10
-7.9546117852
 20
7.2849134409
 30
0.0
 10
-8.0169451638
 20
7.0282962467
 30
0.0
 10
-8.0357564389
 20
6.8564158109
 30
0.0
 10
-8.0385609355
 20
6.7725741596
 30
0.0
  0
SPLINE
  5
60F
100
AcDbEntity
  8
RACCORDO
100
AcDbSpline
 62
250
  6
CONTINUOUS
 70
0
 71
3
 72
15
 73
11
 74
0
 42
0.0000001
 43
0.0000001
 44
0.0000000001
 40
0.0
 40
0.0
 40
0.0
 40
0.0
 40
0.1182341878
 40
0.2445920214
 40
0.3762598593
 40
0.5099675801
 40
0.6422895236
 40
0.7699078885
 40
0.8898863776
 40
1.0
 40
1.0
 40
1.0
 40
1.0
 10
-6.6567898023
 20
7.9096896782
 30
0.0
 10
-6.6580721101
 20
7.9385323172
 30
0.0
 10
-6.6655617458
 20
7.9980370477
 30
0.0
 10
-6.6890185838
 20
8.0870948551
 30
0.0
 10
-6.724261703
 20
8.1762546912
 30
0.0
 10
-6.7699767717
 20
8.2621617217
 30
0.0
 10
-6.8244489584
 20
8.3416113653
 30
0.0
 10
-6.8856599661
 20
8.4116398385
 30
0.0
 10
-6.9513126475
 20
8.4696322018
 30
0.0
 10
-6.9987556799
 20
8.500308737
 30
0.0
 10
-7.0226225423
 20
8.5126921239
 30
0.0
  0
SPLINE
  5
610
100
AcDbEntity
  8
RACCORDO
100
AcDbSpline
 62
7
  6
CONTINUOUS
 70
0
 71
3
 72
12
 73
8
 74
0
 42
0.0000001
 43
0.0000001
 44
0.0000000001
 40
0.0
 40
0.0
 40
0.0
 40
0.0
 40
0.2547795926
 40
0.534204683
 40
0.7918279598
 40
0.9033431918
 40
1.0
 40
1.0
 40
1.0
 40
1.0
 10
-2.7444664211
 20
-28.3491427969
 30
0.0
 10
-2.7159856466
 20
-28.3633831842
 30
0.0
 10
-2.6549201891
 20
-28.3905461586
 30
0.0
 10
-2.562349493
 20
-28.4256207213
 30
0.0
 10
-2.4852243791
 20
-28.4507091958
 30
0.0
 10
-2.4290950869
 20
-28.4661823695
 30
0.0
 10
-2.4037696066
 20
-28.4721862085
 30
0.0
 10
-2.3919444615
 20
-28.4746555208
 30
0.0
  0
SPLINE
  5
611
100
AcDbEntity
  8
RACCORDO
100
AcDbSpline
 62
250
  6
CONTINUOUS
 70
0
 71
3
 72
13
 73
9
 74
0
 42
0.0000001
 43
0.0000001
 44
0.0000000001
 40
0.0
 40
0.0
 40
0.0
 40
0.0
 40
0.1018786908
 40
0.218994501
 40
0.4830122473
 40
0.75597586
 40
0.8838496227
 40
1.0
 40
1.0
 40
1.0
 40
1.0
 10
-3.1031650696
 20
-29.3261519979
 30
0.0
 10
-3.1095100134
 20
-29.3159055112
 30
0.0
 10
-3.1245246825
 20
-29.2947295788
 30
0.0
 10
-3.161330178
 20
-29.2509719395
 30
0.0
 10
-3.2169622874
 20
-29.1969139834
 30
0.0
 10
-3.278773809
 20
-29.1480285376
 30
0.0
 10
-3.3298901622
 20
-29.1143931725
 30
0.0
 10
-3.3550459448
 20
-29.1001631361
 30
0.0
 10
-3.3672986816
 20
-29.0939451002
 30
0.0
  0
SPLINE
  5
612
100
AcDbEntity
  8
RACCORDO
100
AcDbSpline
 62
250
  6
CONTINUOUS
 70
0
 71
3
 72
13
 73
9
 74
0
 42
0.0000001
 43
0.0000001
 44
0.0000000001
 40
0.0
 40
0.0
 40
0.0
 40
0.0
 40
0.1125245356
 40
0.2354259129
 40
0.4995814041
 40
0.7639631741
 40
0.8871313456
 40
1.0
 40
1.0
 40
1.0
 40
1.0
 10
-3.4556870292
 20
-29.6656132082
 30
0.0
 10
-3.4435252327
 20
-29.6716941065
 30
0.0
 10
-3.4170284855
 20
-29.6823582208
 30
0.0
 10
-3.3585385554
 20
-29.6977455304
 30
0.0
 10
-3.279613732
 20
-29.7052055167
 30
0.0
 10
-3.2006388474
 20
-29.6979651186
 30
0.0
 10
-3.1419995666
 20
-29.6827522697
 30
0.0
 10
-3.1153922173
 20
-29.6721687819
 30
0.0
 10
-3.1031650696
 20
-29.666125932
 30
0.0
  0
SPLINE
  5
613
100
AcDbEntity
  8
RACCORDO
100
AcDbSpline
 62
250
  6
CONTINUOUS
 70
0
 71
3
 72
13
 73
9
 74
0
 42
0.0000001
 43
0.0000001
 44
0.0000000001
 40
0.0
 40
0.0
 40
0.0
 40
0.0
 40
0.1125245356
 40
0.2354259129
 40
0.4995814041
 40
0.7639631741
 40
0.8871313456
 40
1.0
 40
1.0
 40
1.0
 40
1.0
 10
-3.4556870292
 20
-29.3256392741
 30
0.0
 10
-3.4435252327
 20
-29.3317201723
 30
0.0
 10
-3.4170284855
 20
-29.3423842867
 30
0.0
 10
-3.3585385554
 20
-29.3577715963
 30
0.0
 10
-3.279613732
 20
-29.3652315826
 30
0.0
 10
-3.2006388474
 20
-29.3579911845
 30
0.0
 10
-3.1419995666
 20
-29.3427783356
 30
0.0
 10
-3.1153922173
 20
-29.3321948478
 30
0.0
 10
-3.1031650696
 20
-29.3261519979
 30
0.0
  0
SPLINE
  5
614
100
AcDbEntity
  8
RACCORDO
100
AcDbSpline
 62
250
  6
CONTINUOUS
 70
0
 71
3
 72
13
 73
9
 74
0
 42
0.0000001
 43
0.0000001
 44
0.0000000001
 40
0.0
 40
0.0
 40
0.0
 40
0.0
 40
0.2701264394
 40
0.5327826693
 40
0.6577241283
 40
0.7769941193
 40
0.8907279222
 40
1.0
 40
1.0
 40
1.0
 40
1.0
 10
-0.973617107
 20
-28.267548757
 30
0.0
 10
-0.9621193134
 20
-28.2371985127
 30
0.0
 10
-0.9486356785
 20
-28.1734718181
 30
0.0
 10
-0.9564246057
 20
-28.0933534189
 30
0.0
 10
-0.977838586
 20
-28.0360205119
 30
0.0
 10
-1.0003377072
 20
-27.999027233
 30
0.0
 10
-1.0287186279
 20
-27.9688404411
 30
0.0
 10
-1.051282155
 20
-27.953841375
 30
0.0
 10
-1.0630309023
 20
-27.947981951
 30
0.0
  0
SPLINE
  5
615
100
AcDbEntity
  8
RACCORDO
100
AcDbSpline
 62
250
  6
CONTINUOUS
 70
0
 71
3
 72
15
 73
11
 74
0
 42
0.0000001
 43
0.0000001
 44
0.0000000001
 40
0.0
 40
0.0
 40
0.0
 40
0.0
 40
0.1206003709
 40
0.2476870837
 40
0.3788186033
 40
0.5112437986
 40
0.6421179427
 40
0.7687096755
 40
0.8886154668
 40
1.0
 40
1.0
 40
1.0
 40
1.0
 10
-22.8634070132
 20
14.1849971984
 30
0.0
 10
-22.8606654498
 20
14.2689205198
 30
0.0
 10
-22.8422762682
 20
14.441017157
 30
0.0
 10
-22.7814017253
 20
14.6982524705
 30
0.0
 10
-22.6884027217
 20
14.9544748405
 30
0.0
 10
-22.5663715817
 20
15.2011213311
 30
0.0
 10
-22.4193658643
 20
15.4300218584
 30
0.0
 10
-22.2522186778
 20
15.633600082
 30
0.0
 10
-22.0704907834
 20
15.8050846284
 30
0.0
 10
-21.9380208372
 20
15.8980571448
 30
0.0
 10
-21.8708410031
 20
15.9368013543
 30
0.0
  0
SPLINE
  5
616
100
AcDbEntity
  8
RACCORDO
100
AcDbSpline
 62
250
  6
CONTINUOUS
 70
0
 71
3
 72
11
 73
7
 74
0
 42
0.0000001
 43
0.0000001
 44
0.0000000001
 40
0.0
 40
0.0
 40
0.0
 40
0.0
 40
0.2897501958
 40
0.5495852128
 40
0.7828460584
 40
1.0
 40
1.0
 40
1.0
 40
1.0
 10
-4.780671709
 20
-29.0031208683
 30
0.0
 10
-4.780671709
 20
-29.0183260346
 30
0.0
 10
-4.7782180177
 20
-29.0472762377
 30
0.0
 10
-4.7658441382
 20
-29.0868703153
 30
0.0
 10
-4.7451785335
 20
-29.1185701322
 30
0.0
 10
-4.7258905786
 20
-29.1332423735
 30
0.0
 10
-4.7156982888
 20
-29.1383390102
 30
0.0
  0
SPLINE
  5
617
100
AcDbEntity
  8
RACCORDO
100
AcDbSpline
 62
250
  6
CONTINUOUS
 70
0
 71
3
 72
11
 73
7
 74
0
 42
0.0000001
 43
0.0000001
 44
0.0000000001
 40
0.0
 40
0.0
 40
0.0
 40
0.0
 40
0.2897501958
 40
0.5495852128
 40
0.7828460584
 40
1.0
 40
1.0
 40
1.0
 40
1.0
 10
-3.4556870292
 20
-29.6656132082
 30
0.0
 10
-3.4556870292
 20
-29.6808183745
 30
0.0
 10
-3.4532333379
 20
-29.7097685776
 30
0.0
 10
-3.4408594583
 20
-29.7493626552
 30
0.0
 10
-3.4201938537
 20
-29.7810624722
 30
0.0
 10
-3.4009058988
 20
-29.7957347134
 30
0.0
 10
-3.390713609
 20
-29.8008313501
 30
0.0
  0
SPLINE
  5
618
100
AcDbEntity
  8
RACCORDO
100
AcDbSpline
 62
250
  6
CONTINUOUS
 70
0
 71
3
 72
11
 73
7
 74
0
 42
0.0000001
 43
0.0000001
 44
0.0000000001
 40
0.0
 40
0.0
 40
0.0
 40
0.0
 40
0.3025823249
 40
0.5654825874
 40
0.7934322572
 40
1.0
 40
1.0
 40
1.0
 40
1.0
 10
-4.780671709
 20
-29.0031208683
 30
0.0
 10
-4.7915263782
 20
-28.9976935337
 30
0.0
 10
-4.8111448512
 20
-28.9860538033
 30
0.0
 10
-4.8349562214
 20
-28.9645331758
 30
0.0
 10
-4.8502354184
 20
-28.9405788909
 30
0.0
 10
-4.8538951068
 20
-28.9230174831
 30
0.0
 10
-4.8538950116
 20
-28.9147325206
 30
0.0
  0
SPLINE
  5
619
100
AcDbEntity
  8
RACCORDO
100
AcDbSpline
 62
250
  6
CONTINUOUS
 70
0
 71
3
 72
11
 73
7
 74
0
 42
0.0000001
 43
0.0000001
 44
0.0000000001
 40
0.0
 40
0.0
 40
0.0
 40
0.0
 40
0.2352280484
 40
0.4870806614
 40
0.7456469788
 40
1.0
 40
1.0
 40
1.0
 40
1.0
 10
-3.4556870292
 20
-29.3256392741
 30
0.0
 10
-3.4556870292
 20
-29.3058543433
 30
0.0
 10
-3.4511562214
 20
-29.2648290408
 30
0.0
 10
-3.4334066232
 20
-29.2043992992
 30
0.0
 10
-3.4055822081
 20
-29.1461181772
 30
0.0
 10
-3.3809467224
 20
-29.1104197429
 30
0.0
 10
-3.3672986816
 20
-29.0939451002
 30
0.0
  0
SPLINE
  5
61A
100
AcDbEntity
  8
ASSI
100
AcDbSpline
 62
7
  6
CONTINUOUS
 70
0
 71
3
 72
9
 73
5
 74
0
 42
0.0000001
 43
0.0000001
 44
0.0000000001
 40
0.0
 40
0.0
 40
0.0
 40
0.0
 40
0.2291238101
 40
1.0
 40
1.0
 40
1.0
 40
1.0
 10
-0.4796897966
 20
17.6068454978
 30
0.0
 10
-0.4800906204
 20
17.6070445844
 30
0.0
 10
-0.4818733625
 20
17.6078464328
 30
0.0
 10
-0.4837635104
 20
17.6083929513
 30
0.0
 10
-0.4852345386
 20
17.6087143944
 30
0.0
  0
SPLINE
  5
61B
100
AcDbEntity
  8
ASSI
100
AcDbSpline
 62
7
  6
CONTINUOUS
 70
0
 71
3
 72
11
 73
7
 74
0
 42
0.0000001
 43
0.0000001
 44
0.0000000001
 40
0.0
 40
0.0
 40
0.0
 40
0.0
 40
0.1421883464
 40
0.3522946612
 40
0.637951657
 40
1.0
 40
1.0
 40
1.0
 40
1.0
 10
-0.4852345386
 20
17.6087143944
 30
0.0
 10
-0.4905162085
 20
17.6098685233
 30
0.0
 10
-0.5041098473
 20
17.6099256453
 30
0.0
 10
-0.5280745675
 20
17.6062542491
 30
0.0
 10
-0.5597940792
 20
17.598445595
 30
0.0
 10
-0.5833573434
 20
17.5912850736
 30
0.0
 10
-0.5964675909
 20
17.5870875085
 30
0.0
  0
SPLINE
  5
61C
100
AcDbEntity
  8
RACCORDO
100
AcDbSpline
 62
250
  6
CONTINUOUS
 70
0
 71
3
 72
12
 73
8
 74
0
 42
0.0000001
 43
0.0000001
 44
0.0000000001
 40
0.0
 40
0.0
 40
0.0
 40
0.0
 40
0.0992778123
 40
0.2018807808
 40
0.4272192866
 40
0.6918015463
 40
1.0
 40
1.0
 40
1.0
 40
1.0
 10
-23.0098891487
 20
14.360032216
 30
0.0
 10
-23.0101459393
 20
14.3520945888
 30
0.0
 10
-23.0089302247
 20
14.335848523
 30
0.0
 10
-22.9993766917
 20
14.3028175236
 30
0.0
 10
-22.973265844
 20
14.2621172373
 30
0.0
 10
-22.9251686766
 20
14.2193961735
 30
0.0
 10
-22.8854664746
 20
14.1960070852
 30
0.0
 10
-22.8634068187
 20
14.1849972858
 30
0.0
  0
SPLINE
  5
61D
100
AcDbEntity
  8
RACCORDO
100
AcDbSpline
 62
7
  6
CONTINUOUS
 70
0
 71
3
 72
12
 73
8
 74
0
 42
0.0000001
 43
0.0000001
 44
0.0000000001
 40
0.0
 40
0.0
 40
0.0
 40
0.0
 40
0.1017390782
 40
0.2138140225
 40
0.4593746596
 40
0.7238545188
 40
1.0
 40
1.0
 40
1.0
 40
1.0
 10
-12.6417775212
 20
17.6816678116
 30
0.0
 10
-12.6417316589
 20
17.6688363883
 30
0.0
 10
-12.6394162292
 20
17.6418679997
 30
0.0
 10
-12.6278757942
 20
17.5850103519
 30
0.0
 10
-12.601515791
 20
17.510691253
 30
0.0
 10
-12.5556852533
 20
17.422501976
 30
0.0
 10
-12.5168297504
 20
17.3662124334
 30
0.0
 10
-12.4953318294
 20
17.3388112549
 30
0.0
  0
SPLINE
  5
61E
100
AcDbEntity
  8
RACCORDO
100
AcDbSpline
 62
250
  6
CONTINUOUS
 70
0
 71
3
 72
11
 73
7
 74
0
 42
0.0000001
 43
0.0000001
 44
0.0000000001
 40
0.0
 40
0.0
 40
0.0
 40
0.0
 40
0.2233920236
 40
0.4591546751
 40
0.7164478084
 40
1.0
 40
1.0
 40
1.0
 40
1.0
 10
-22.1041846266
 20
15.9455747918
 30
0.0
 10
-22.0885809859
 20
15.9546721519
 30
0.0
 10
-22.0533837573
 20
15.9684306129
 30
0.0
 10
-21.9949700083
 20
15.9731410987
 30
0.0
 10
-21.9325369282
 20
15.9626478751
 30
0.0
 10
-21.8914949857
 20
15.9467522858
 30
0.0
 10
-21.8708410031
 20
15.9368013543
 30
0.0
  0
SPLINE
  5
61F
100
AcDbEntity
  8
RACCORDO
100
AcDbSpline
 62
250
  6
CONTINUOUS
 70
0
 71
3
 72
11
 73
7
 74
0
 42
0.0000001
 43
0.0000001
 44
0.0000000001
 40
0.0
 40
0.0
 40
0.0
 40
0.0
 40
0.2466959546
 40
0.5118836955
 40
0.7705709668
 40
1.0
 40
1.0
 40
1.0
 40
1.0
 10
-16.467483234
 20
18.9955851578
 30
0.0
 10
-16.4676276624
 20
19.0257433921
 30
0.0
 10
-16.4782806867
 20
19.088372553
 30
0.0
 10
-16.5160991701
 20
19.1754988325
 30
0.0
 10
-16.5714146035
 20
19.2500966288
 30
0.0
 10
-16.6192295887
 20
19.2878135267
 30
0.0
 10
-16.6442569377
 20
19.3004746966
 30
0.0
  0
SPLINE
  5
620
100
AcDbEntity
  8
RACCORDO
100
AcDbSpline
 62
7
  6
CONTINUOUS
 70
0
 71
3
 72
11
 73
7
 74
0
 42
0.0000001
 43
0.0000001
 44
0.0000000001
 40
0.0
 40
0.0
 40
0.0
 40
0.0
 40
0.2467927921
 40
0.5117852903
 40
0.7703247525
 40
1.0
 40
1.0
 40
1.0
 40
1.0
 10
-14.8662024432
 20
19.7983071613
 30
0.0
 10
-14.8662024432
 20
19.8285021478
 30
0.0
 10
-14.8766224466
 20
19.8912264863
 30
0.0
 10
-14.9143562203
 20
19.9784602956
 30
0.0
 10
-14.969814826
 20
20.0530564048
 30
0.0
 10
-15.0178421501
 20
20.0906297017
 30
0.0
 10
-15.0429761468
 20
20.1031967001
 30
0.0
  0
SPLINE
  5
621
100
AcDbEntity
  8
RACCORDO
100
AcDbSpline
 62
250
  6
CONTINUOUS
 70
0
 71
3
 72
13
 73
9
 74
0
 42
0.0000001
 43
0.0000001
 44
0.0000000001
 40
0.0
 40
0.0
 40
0.0
 40
0.0
 40
0.1125241888
 40
0.2354256054
 40
0.4995811663
 40
0.763963061
 40
0.8871312928
 40
1.0
 40
1.0
 40
1.0
 40
1.0
 10
-16.8200051936
 20
18.9960978817
 30
0.0
 10
-16.8078434346
 20
18.9900170021
 30
0.0
 10
-16.7813467235
 20
18.9793529001
 30
0.0
 10
-16.7228568283
 20
18.9639655707
 30
0.0
 10
-16.643931976
 20
18.9565055726
 30
0.0
 10
-16.56495706
 20
18.9637459623
 30
0.0
 10
-16.5063177499
 20
18.9789588129
 30
0.0
 10
-16.4797103874
 20
18.9895423051
 30
0.0
 10
-16.467483234
 20
18.9955851578
 30
0.0
  0
SPLINE
  5
622
100
AcDbEntity
  8
RACCORDO
100
AcDbSpline
 62
250
  6
CONTINUOUS
 70
0
 71
3
 72
13
 73
9
 74
0
 42
0.0000001
 43
0.0000001
 44
0.0000000001
 40
0.0
 40
0.0
 40
0.0
 40
0.0
 40
0.1125245594
 40
0.2354259647
 40
0.4995815213
 40
0.7639633273
 40
0.8871315091
 40
1.0
 40
1.0
 40
1.0
 40
1.0
 10
-16.8200051936
 20
18.6561239475
 30
0.0
 10
-16.8078433945
 20
18.650043048
 30
0.0
 10
-16.7813466414
 20
18.6393789316
 30
0.0
 10
-16.7228566968
 20
18.623991621
 30
0.0
 10
-16.6439318574
 20
18.6165316385
 30
0.0
 10
-16.5649569591
 20
18.6237720425
 30
0.0
 10
-16.5063176954
 20
18.6389849008
 30
0.0
 10
-16.479710364
 20
18.6495683826
 30
0.0
 10
-16.467483234
 20
18.6556112237
 30
0.0
  0
SPLINE
  5
623
100
AcDbEntity
  8
RACCORDO
100
AcDbSpline
 62
250
  6
CONTINUOUS
 70
0
 71
3
 72
11
 73
7
 74
0
 42
0.0000001
 43
0.0000001
 44
0.0000000001
 40
0.0
 40
0.0
 40
0.0
 40
0.0
 40
0.2897477791
 40
0.5495860055
 40
0.7828492607
 40
1.0
 40
1.0
 40
1.0
 40
1.0
 10
-16.8200051936
 20
18.6561239475
 30
0.0
 10
-16.8200051936
 20
18.6409200337
 30
0.0
 10
-16.8175517227
 20
18.6119720671
 30
0.0
 10
-16.8051804323
 20
18.5723800483
 30
0.0
 10
-16.7845172353
 20
18.5406824735
 30
0.0
 10
-16.7652336085
 20
18.5260075726
 30
0.0
 10
-16.7550425477
 20
18.5209107401
 30
0.0
  0
SPLINE
  5
624
100
AcDbEntity
  8
RACCORDO
100
AcDbSpline
 62
250
  6
CONTINUOUS
 70
0
 71
3
 72
11
 73
7
 74
0
 42
0.0000001
 43
0.0000001
 44
0.0000000001
 40
0.0
 40
0.0
 40
0.0
 40
0.0
 40
0.2897504308
 40
0.5495880475
 40
0.7828491195
 40
1.0
 40
1.0
 40
1.0
 40
1.0
 10
-18.1449898735
 20
19.3186162874
 30
0.0
 10
-18.1449898735
 20
19.3034109801
 30
0.0
 10
-18.1425359708
 20
19.2744604924
 30
0.0
 10
-18.1301623392
 20
19.2348655202
 30
0.0
 10
-18.1094951399
 20
19.203166784
 30
0.0
 10
-18.0902080841
 20
19.1884930193
 30
0.0
 10
-18.0800154596
 20
19.1833971956
 30
0.0
  0
SPLINE
  5
625
100
AcDbEntity
  8
RACCORDO
100
AcDbSpline
 62
250
  6
CONTINUOUS
 70
0
 71
3
 72
11
 73
7
 74
0
 42
0.0000001
 43
0.0000001
 44
0.0000000001
 40
0.0
 40
0.0
 40
0.0
 40
0.0
 40
0.3025823221
 40
0.5654825801
 40
0.7934322544
 40
1.0
 40
1.0
 40
1.0
 40
1.0
 10
-18.1449898735
 20
19.3186162874
 30
0.0
 10
-18.1558445426
 20
19.324043622
 30
0.0
 10
-18.1754630158
 20
19.3356833522
 30
0.0
 10
-18.1992743853
 20
19.3572039802
 30
0.0
 10
-18.2145535838
 20
19.3811582655
 30
0.0
 10
-18.2182132688
 20
19.3987196737
 30
0.0
 10
-18.2182131761
 20
19.4070046363
 30
0.0
  0
SPLINE
  5
626
100
AcDbEntity
  8
RACCORDO
100
AcDbSpline
 62
250
  6
CONTINUOUS
 70
0
 71
3
 72
11
 73
7
 74
0
 42
0.0000001
 43
0.0000001
 44
0.0000000001
 40
0.0
 40
0.0
 40
0.0
 40
0.0
 40
0.3025823297
 40
0.5654825875
 40
0.7934322591
 40
1.0
 40
1.0
 40
1.0
 40
1.0
 10
-18.1449898735
 20
19.6585902216
 30
0.0
 10
-18.155844543
 20
19.6640175563
 30
0.0
 10
-18.1754630169
 20
19.6756572868
 30
0.0
 10
-18.1992743859
 20
19.6971779157
 30
0.0
 10
-18.2145535852
 20
19.7211322016
 30
0.0
 10
-18.2182132662
 20
19.7386936096
 30
0.0
 10
-18.2182131763
 20
19.7469785721
 30
0.0
  0
SPLINE
  5
627
100
AcDbEntity
  8
RACCORDO
100
AcDbSpline
 62
250
  6
CONTINUOUS
 70
0
 71
3
 72
11
 73
7
 74
0
 42
0.0000001
 43
0.0000001
 44
0.0000000001
 40
0.0
 40
0.0
 40
0.0
 40
0.0
 40
0.2465996066
 40
0.5114086341
 40
0.7699756527
 40
1.0
 40
1.0
 40
1.0
 40
1.0
 10
-18.1449898735
 20
19.6585902216
 30
0.0
 10
-18.1449898735
 20
19.6886686684
 30
0.0
 10
-18.1346471013
 20
19.7511537071
 30
0.0
 10
-18.097163449
 20
19.8381241466
 30
0.0
 10
-18.0420240986
 20
19.9126231109
 30
0.0
 10
-17.9942645827
 20
19.9502772564
 30
0.0
 10
-17.9692416175
 20
19.9629670365
 30
0.0
  0
SPLINE
  5
628
100
AcDbEntity
  8
RACCORDO
100
AcDbSpline
 62
250
  6
CONTINUOUS
 70
0
 71
3
 72
11
 73
7
 74
0
 42
0.0000001
 43
0.0000001
 44
0.0000000001
 40
0.0
 40
0.0
 40
0.0
 40
0.0
 40
0.2465994894
 40
0.5114083944
 40
0.7699753467
 40
1.0
 40
1.0
 40
1.0
 40
1.0
 10
-16.8200051936
 20
18.9960978817
 30
0.0
 10
-16.8200051936
 20
19.0261763142
 30
0.0
 10
-16.8096624317
 20
19.0886613234
 30
0.0
 10
-16.7721788082
 20
19.1756317343
 30
0.0
 10
-16.717039467
 20
19.2501307204
 30
0.0
 10
-16.6692799361
 20
19.2877848996
 30
0.0
 10
-16.6442569377
 20
19.3004746966
 30
0.0
  0
SPLINE
  5
629
100
AcDbEntity
  8
RACCORDO
100
AcDbSpline
 62
250
  6
CONTINUOUS
 70
0
 71
3
 72
11
 73
7
 74
0
 42
0.0000001
 43
0.0000001
 44
0.0000000001
 40
0.0
 40
0.0
 40
0.0
 40
0.0
 40
0.2795168709
 40
0.5356964938
 40
0.7731447513
 40
1.0
 40
1.0
 40
1.0
 40
1.0
 10
-17.9692416175
 20
19.9629670365
 30
0.0
 10
-17.9790381295
 20
19.9678082259
 30
0.0
 10
-17.9986159369
 20
19.9756126529
 30
0.0
 10
-18.0285843122
 20
19.9810654364
 30
0.0
 10
-18.0569996362
 20
19.9794431168
 30
0.0
 10
-18.074436341
 20
19.9734630335
 30
0.0
 10
-18.0823271084
 20
19.9694146702
 30
0.0
  0
SPLINE
  5
62A
100
AcDbEntity
  8
RACCORDO
100
AcDbSpline
 62
7
  6
CONTINUOUS
 70
0
 71
3
 72
11
 73
7
 74
0
 42
0.0000001
 43
0.0000001
 44
0.0000000001
 40
0.0
 40
0.0
 40
0.0
 40
0.0
 40
0.2790833933
 40
0.5352290697
 40
0.7729212505
 40
1.0
 40
1.0
 40
1.0
 40
1.0
 10
-16.3864850143
 20
20.7749511339
 30
0.0
 10
-16.396052583
 20
20.7797349182
 30
0.0
 10
-16.4151840965
 20
20.7874856507
 30
0.0
 10
-16.4445030749
 20
20.7930794741
 30
0.0
 10
-16.4723858445
 20
20.7918457172
 30
0.0
 10
-16.4895923829
 20
20.7862924509
 30
0.0
 10
-16.4974171304
 20
20.7824811469
 30
0.0
  0
SPLINE
  5
62B
100
AcDbEntity
  8
RACCORDO
100
AcDbSpline
 62
250
  6
CONTINUOUS
 70
0
 71
3
 72
11
 73
7
 74
0
 42
0.0000001
 43
0.0000001
 44
0.0000000001
 40
0.0
 40
0.0
 40
0.0
 40
0.0
 40
0.2789492198
 40
0.5349524055
 40
0.7726363297
 40
1.0
 40
1.0
 40
1.0
 40
1.0
 10
-15.8520351356
 20
21.0352986004
 30
0.0
 10
-15.8615448157
 20
21.0401086915
 30
0.0
 10
-15.8805733015
 20
21.0479104853
 30
0.0
 10
-15.9097731427
 20
21.0535684308
 30
0.0
 10
-15.9375753397
 20
21.0523746589
 30
0.0
 10
-15.9547383166
 20
21.0468374186
 30
0.0
 10
-15.9625471066
 20
21.043033105
 30
0.0
  0
SPLINE
  5
62C
100
AcDbEntity
  8
RACCORDO
100
AcDbSpline
 62
250
  6
CONTINUOUS
 70
0
 71
3
 72
13
 73
9
 74
0
 42
0.0000001
 43
0.0000001
 44
0.0000000001
 40
0.0
 40
0.0
 40
0.0
 40
0.0
 40
0.3435705834
 40
0.6194195385
 40
0.7328971391
 40
0.831870818
 40
0.9193401934
 40
1.0
 40
1.0
 40
1.0
 40
1.0
 10
-14.3379352714
 20
19.7142144646
 30
0.0
 10
-14.3334027124
 20
19.7068356653
 30
0.0
 10
-14.325846527
 20
19.6931410297
 30
0.0
 10
-14.3193328914
 20
19.6757034249
 30
0.0
 10
-14.3173326095
 20
19.6635173367
 30
0.0
 10
-14.3173636898
 20
19.6559116677
 30
0.0
 10
-14.3188632159
 20
19.6492815087
 30
0.0
 10
-14.3209310903
 20
19.6455001759
 30
0.0
 10
-14.3221703557
 20
19.643888513
 30
0.0
  0
SPLINE
  5
62D
100
AcDbEntity
  8
RACCORDO
100
AcDbSpline
 62
250
  6
CONTINUOUS
 70
0
 71
3
 72
11
 73
7
 74
0
 42
0.0000001
 43
0.0000001
 44
0.0000000001
 40
0.0
 40
0.0
 40
0.0
 40
0.0
 40
0.2465996066
 40
0.5114086341
 40
0.7699756527
 40
1.0
 40
1.0
 40
1.0
 40
1.0
 10
-3.4556870292
 20
12.3139387994
 30
0.0
 10
-3.4556870292
 20
12.3440172463
 30
0.0
 10
-3.4453442571
 20
12.406502285
 30
0.0
 10
-3.4078606048
 20
12.4934727245
 30
0.0
 10
-3.3527212543
 20
12.5679716887
 30
0.0
 10
-3.3049617384
 20
12.6056258343
 30
0.0
 10
-3.2799387732
 20
12.6183156144
 30
0.0
  0
SPLINE
  5
62E
100
AcDbEntity
  8
RACCORDO
100
AcDbSpline
 62
250
  6
CONTINUOUS
 70
0
 71
3
 72
11
 73
7
 74
0
 42
0.0000001
 43
0.0000001
 44
0.0000000001
 40
0.0
 40
0.0
 40
0.0
 40
0.0
 40
0.2468893536
 40
0.5116863499
 40
0.7700780422
 40
1.0
 40
1.0
 40
1.0
 40
1.0
 10
-14.3379352714
 20
20.0617459813
 30
0.0
 10
-14.3377928478
 20
20.0919769203
 30
0.0
 10
-14.3479833013
 20
20.1547943447
 30
0.0
 10
-14.3856314867
 20
20.2421355117
 30
0.0
 10
-14.4412338754
 20
20.3167289619
 30
0.0
 10
-14.4894698846
 20
20.3541609172
 30
0.0
 10
-14.5147089751
 20
20.3666355202
 30
0.0
  0
SPLINE
  5
62F
100
AcDbEntity
  8
RACCORDO
100
AcDbSpline
 62
250
  6
CONTINUOUS
 70
0
 71
3
 72
11
 73
7
 74
0
 42
0.0000001
 43
0.0000001
 44
0.0000000001
 40
0.0
 40
0.0
 40
0.0
 40
0.0
 40
0.2465991784
 40
0.5114081618
 40
0.7699752382
 40
1.0
 40
1.0
 40
1.0
 40
1.0
 10
-4.780671709
 20
12.9764311394
 30
0.0
 10
-4.780671709
 20
13.0065095339
 30
0.0
 10
-4.7703289664
 20
13.068994515
 30
0.0
 10
-4.7328453658
 20
13.1559649229
 30
0.0
 10
-4.6777060141
 20
13.2304639489
 30
0.0
 10
-4.6299464633
 20
13.2681181513
 30
0.0
 10
-4.6049234531
 20
13.2808079543
 30
0.0
  0
SPLINE
  5
630
100
AcDbEntity
  8
RACCORDO
100
AcDbSpline
 62
250
  6
CONTINUOUS
 70
0
 71
3
 72
13
 73
9
 74
0
 42
0.0000001
 43
0.0000001
 44
0.0000000001
 40
0.0
 40
0.0
 40
0.0
 40
0.0
 40
0.2769976636
 40
0.5361986962
 40
0.658214714
 40
0.775329196
 40
0.8886900049
 40
1.0
 40
1.0
 40
1.0
 40
1.0
 10
-3.1031650696
 20
11.9734521415
 30
0.0
 10
-3.1130369934
 20
11.9477521923
 30
0.0
 10
-3.1387739986
 20
11.9002170993
 30
0.0
 10
-3.1861005731
 20
11.8533119777
 30
0.0
 10
-3.2293816487
 20
11.8287121411
 30
0.0
 10
-3.2627812545
 20
11.8173821322
 30
0.0
 10
-3.2967392035
 20
11.8132245333
 30
0.0
 10
-3.3191790178
 20
11.8153698466
 30
0.0
 10
-3.3300085792
 20
11.8176309036
 30
0.0
  0
SPLINE
  5
631
100
AcDbEntity
  8
RACCORDO
100
AcDbSpline
 62
7
  6
CONTINUOUS
 70
0
 71
3
 72
12
 73
8
 74
0
 42
0.0000001
 43
0.0000001
 44
0.0000000001
 40
0.0
 40
0.0
 40
0.0
 40
0.0
 40
0.2548335856
 40
0.5141953181
 40
0.6424651752
 40
0.7674743832
 40
1.0
 40
1.0
 40
1.0
 40
1.0
 10
-2.3919444615
 20
11.8249486186
 30
0.0
 10
-2.4113878214
 20
11.8016700478
 30
0.0
 10
-2.4560018557
 20
11.7590005018
 30
0.0
 10
-2.5216653683
 20
11.7185645656
 30
0.0
 10
-2.5786469015
 20
11.6962345177
 30
0.0
 10
-2.6348369971
 20
11.6824329335
 30
0.0
 10
-2.6786284139
 20
11.681638263
 30
0.0
 10
-2.7057227056
 20
11.687279524
 30
0.0
  0
SPLINE
  5
632
100
AcDbEntity
  8
RACCORDO
100
AcDbSpline
 62
7
  6
CONTINUOUS
 70
0
 71
3
 72
12
 73
8
 74
0
 42
0.0000001
 43
0.0000001
 44
0.0000000001
 40
0.0
 40
0.0
 40
0.0
 40
0.0
 40
0.2548335856
 40
0.5141953181
 40
0.6424651752
 40
0.7674743832
 40
1.0
 40
1.0
 40
1.0
 40
1.0
 10
-15.7562626259
 20
18.5071077008
 30
0.0
 10
-15.7757059858
 20
18.48382913
 30
0.0
 10
-15.8203200201
 20
18.441159584
 30
0.0
 10
-15.8859835327
 20
18.4007236478
 30
0.0
 10
-15.9429650659
 20
18.3783936
 30
0.0
 10
-15.9991551616
 20
18.3645920157
 30
0.0
 10
-16.0429465783
 20
18.3637973452
 30
0.0
 10
-16.07004087
 20
18.3694386063
 30
0.0
  0
SPLINE
  5
633
100
AcDbEntity
  8
RACCORDO
100
AcDbSpline
 62
250
  6
CONTINUOUS
 70
0
 71
3
 72
11
 73
7
 74
0
 42
0.0000001
 43
0.0000001
 44
0.0000000001
 40
0.0
 40
0.0
 40
0.0
 40
0.0
 40
0.2897504308
 40
0.5495880475
 40
0.7828491195
 40
1.0
 40
1.0
 40
1.0
 40
1.0
 10
-4.780671709
 20
12.6364572052
 30
0.0
 10
-4.780671709
 20
12.6212518979
 30
0.0
 10
-4.7782178064
 20
12.5923014102
 30
0.0
 10
-4.7658441748
 20
12.552706438
 30
0.0
 10
-4.7451769755
 20
12.5210077018
 30
0.0
 10
-4.7258899197
 20
12.5063339371
 30
0.0
 10
-4.7156972952
 20
12.5012381133
 30
0.0
  0
SPLINE
  5
634
100
AcDbEntity
  8
RACCORDO
100
AcDbSpline
 62
250
  6
CONTINUOUS
 70
0
 71
3
 72
13
 73
9
 74
0
 42
0.0000001
 43
0.0000001
 44
0.0000000001
 40
0.0
 40
0.0
 40
0.0
 40
0.0
 40
0.2769976636
 40
0.5361986962
 40
0.658214714
 40
0.775329196
 40
0.8886900049
 40
1.0
 40
1.0
 40
1.0
 40
1.0
 10
-16.467483234
 20
18.6556112237
 30
0.0
 10
-16.4773551579
 20
18.6299112745
 30
0.0
 10
-16.5030921631
 20
18.5823761815
 30
0.0
 10
-16.5504187375
 20
18.5354710599
 30
0.0
 10
-16.5936998131
 20
18.5108712234
 30
0.0
 10
-16.6270994189
 20
18.4995412145
 30
0.0
 10
-16.6610573679
 20
18.4953836155
 30
0.0
 10
-16.6834971822
 20
18.4975289289
 30
0.0
 10
-16.6943267436
 20
18.4997899858
 30
0.0
  0
SPLINE
  5
635
100
AcDbEntity
  8
RACCORDO
100
AcDbSpline
 62
250
  6
CONTINUOUS
 70
0
 71
3
 72
11
 73
7
 74
0
 42
0.0000001
 43
0.0000001
 44
0.0000000001
 40
0.0
 40
0.0
 40
0.0
 40
0.0
 40
0.2897477791
 40
0.5495860055
 40
0.7828492607
 40
1.0
 40
1.0
 40
1.0
 40
1.0
 10
-3.4556870292
 20
11.9739648653
 30
0.0
 10
-3.4556870292
 20
11.9587609515
 30
0.0
 10
-3.4532335582
 20
11.9298129849
 30
0.0
 10
-3.4408622678
 20
11.8902209661
 30
0.0
 10
-3.4201990709
 20
11.8585233913
 30
0.0
 10
-3.4009154441
 20
11.8438484904
 30
0.0
 10
-3.3907243833
 20
11.8387516579
 30
0.0
  0
SPLINE
  5
636
100
AcDbEntity
  8
RACCORDO
100
AcDbSpline
 62
250
  6
CONTINUOUS
 70
0
 71
3
 72
13
 73
9
 74
0
 42
0.0000001
 43
0.0000001
 44
0.0000000001
 40
0.0
 40
0.0
 40
0.0
 40
0.0
 40
0.1125245594
 40
0.2354259647
 40
0.4995815213
 40
0.7639633273
 40
0.8871315091
 40
1.0
 40
1.0
 40
1.0
 40
1.0
 10
-3.4556870292
 20
11.9739648653
 30
0.0
 10
-3.4435252301
 20
11.9678839658
 30
0.0
 10
-3.417028477
 20
11.9572198494
 30
0.0
 10
-3.3585385324
 20
11.9418325387
 30
0.0
 10
-3.279613693
 20
11.9343725563
 30
0.0
 10
-3.2006387946
 20
11.9416129603
 30
0.0
 10
-3.1419995309
 20
11.9568258186
 30
0.0
 10
-3.1153921996
 20
11.9674093004
 30
0.0
 10
-3.1031650696
 20
11.9734521415
 30
0.0
  0
SPLINE
  5
637
100
AcDbEntity
  8
RACCORDO
100
AcDbSpline
 62
250
  6
CONTINUOUS
 70
0
 71
3
 72
13
 73
9
 74
0
 42
0.0000001
 43
0.0000001
 44
0.0000000001
 40
0.0
 40
0.0
 40
0.0
 40
0.0
 40
0.1125245899
 40
0.2354260292
 40
0.4995816495
 40
0.7639634918
 40
0.8871317035
 40
1.0
 40
1.0
 40
1.0
 40
1.0
 10
-3.4556870292
 20
12.3139387994
 30
0.0
 10
-3.4435252268
 20
12.3078578982
 30
0.0
 10
-3.4170284662
 20
12.2971937794
 30
0.0
 10
-3.3585385058
 20
12.2818064679
 30
0.0
 10
-3.2796136498
 20
12.2743464901
 30
0.0
 10
-3.2006387354
 20
12.2815869003
 30
0.0
 10
-3.1419994905
 20
12.2967997697
 30
0.0
 10
-3.1153921785
 20
12.3073832449
 30
0.0
 10
-3.1031650696
 20
12.3134260756
 30
0.0
  0
SPLINE
  5
638
100
AcDbEntity
  8
RACCORDO
100
AcDbSpline
 62
250
  6
CONTINUOUS
 70
0
 71
3
 72
11
 73
7
 74
0
 42
0.0000001
 43
0.0000001
 44
0.0000000001
 40
0.0
 40
0.0
 40
0.0
 40
0.0
 40
0.3025823221
 40
0.5654825801
 40
0.7934322544
 40
1.0
 40
1.0
 40
1.0
 40
1.0
 10
-4.780671709
 20
12.6364572052
 30
0.0
 10
-4.7915263781
 20
12.6418845398
 30
0.0
 10
-4.8111448514
 20
12.65352427
 30
0.0
 10
-4.8349562209
 20
12.6750448979
 30
0.0
 10
-4.8502354194
 20
12.6989991833
 30
0.0
 10
-4.8538951044
 20
12.7165605915
 30
0.0
 10
-4.8538950117
 20
12.7248455541
 30
0.0
  0
SPLINE
  5
639
100
AcDbEntity
  8
RACCORDO
100
AcDbSpline
 62
250
  6
CONTINUOUS
 70
0
 71
3
 72
11
 73
7
 74
0
 42
0.0000001
 43
0.0000001
 44
0.0000000001
 40
0.0
 40
0.0
 40
0.0
 40
0.0
 40
0.3025823249
 40
0.5654825874
 40
0.7934322572
 40
1.0
 40
1.0
 40
1.0
 40
1.0
 10
-4.780671709
 20
12.9764311394
 30
0.0
 10
-4.7915263782
 20
12.9818584739
 30
0.0
 10
-4.8111448512
 20
12.9934982044
 30
0.0
 10
-4.8349562214
 20
13.0150188318
 30
0.0
 10
-4.8502354184
 20
13.0389731167
 30
0.0
 10
-4.8538951068
 20
13.0565345245
 30
0.0
 10
-4.8538950116
 20
13.064819487
 30
0.0
  0
SPLINE
  5
63A
100
AcDbEntity
  8
RACCORDO
100
AcDbSpline
 62
250
  6
CONTINUOUS
 70
0
 71
3
 72
11
 73
7
 74
0
 42
0.0000001
 43
0.0000001
 44
0.0000000001
 40
0.0
 40
0.0
 40
0.0
 40
0.0
 40
0.2795156184
 40
0.5356957389
 40
0.7731450427
 40
1.0
 40
1.0
 40
1.0
 40
1.0
 10
-4.6049234531
 20
13.2808079543
 30
0.0
 10
-4.6147192549
 20
13.2856487928
 30
0.0
 10
-4.6342956389
 20
13.2934527798
 30
0.0
 10
-4.6642618156
 20
13.2989058883
 30
0.0
 10
-4.6926752697
 20
13.297285025
 30
0.0
 10
-4.7101112203
 20
13.2913066698
 30
0.0
 10
-4.7180017862
 20
13.2872592601
 30
0.0
  0
SPLINE
  5
63B
100
AcDbEntity
  8
RACCORDO
100
AcDbSpline
 62
7
  6
CONTINUOUS
 70
0
 71
3
 72
11
 73
7
 74
0
 42
0.0000001
 43
0.0000001
 44
0.0000000001
 40
0.0
 40
0.0
 40
0.0
 40
0.0
 40
0.2467927921
 40
0.5117852903
 40
0.7703247525
 40
1.0
 40
1.0
 40
1.0
 40
1.0
 10
-1.5018842787
 20
13.1161480791
 30
0.0
 10
-1.5018842787
 20
13.1463430656
 30
0.0
 10
-1.5123042821
 20
13.2090674041
 30
0.0
 10
-1.5500380559
 20
13.2963012133
 30
0.0
 10
-1.6054966616
 20
13.3708973226
 30
0.0
 10
-1.6535239856
 20
13.4084706195
 30
0.0
 10
-1.6786579824
 20
13.4210376179
 30
0.0
  0
SPLINE
  5
63C
100
AcDbEntity
  8
RACCORDO
100
AcDbSpline
 62
7
  6
CONTINUOUS
 70
0
 71
3
 72
11
 73
7
 74
0
 42
0.0000001
 43
0.0000001
 44
0.0000000001
 40
0.0
 40
0.0
 40
0.0
 40
0.0
 40
0.2790833933
 40
0.5352290697
 40
0.7729212505
 40
1.0
 40
1.0
 40
1.0
 40
1.0
 10
-3.0221668499
 20
14.0927920517
 30
0.0
 10
-3.0317344186
 20
14.097575836
 30
0.0
 10
-3.050865932
 20
14.1053265685
 30
0.0
 10
-3.0801849105
 20
14.1109203919
 30
0.0
 10
-3.1080676801
 20
14.109686635
 30
0.0
 10
-3.1252742184
 20
14.1041333687
 30
0.0
 10
-3.133098966
 20
14.1003220646
 30
0.0
  0
SPLINE
  5
63D
100
AcDbEntity
  8
RACCORDO
100
AcDbSpline
 62
250
  6
CONTINUOUS
 70
0
 71
3
 72
11
 73
7
 74
0
 42
0.0000001
 43
0.0000001
 44
0.0000000001
 40
0.0
 40
0.0
 40
0.0
 40
0.0
 40
0.2789499081
 40
0.5349528633
 40
0.7726365704
 40
1.0
 40
1.0
 40
1.0
 40
1.0
 10
-2.4877169712
 20
14.3531395182
 30
0.0
 10
-2.4972266749
 20
14.3579496213
 30
0.0
 10
-2.5162551795
 20
14.3657514186
 30
0.0
 10
-2.5454550327
 20
14.3714093526
 30
0.0
 10
-2.5732572027
 20
14.3702155721
 30
0.0
 10
-2.5904201621
 20
14.3646783348
 30
0.0
 10
-2.5982289432
 20
14.3608740237
 30
0.0
  0
SPLINE
  5
63E
100
AcDbEntity
  8
RACCORDO
100
AcDbSpline
 62
250
  6
CONTINUOUS
 70
0
 71
3
 72
11
 73
7
 74
0
 42
0.0000001
 43
0.0000001
 44
0.0000000001
 40
0.0
 40
0.0
 40
0.0
 40
0.0
 40
0.2466958371
 40
0.5118834552
 40
0.7705706608
 40
1.0
 40
1.0
 40
1.0
 40
1.0
 10
-3.1031650696
 20
12.3134260756
 30
0.0
 10
-3.1033094979
 20
12.3435842954
 30
0.0
 10
-3.1139625119
 20
12.4062134269
 30
0.0
 10
-3.1517809664
 20
12.4933396777
 30
0.0
 10
-3.2070963907
 20
12.5679374959
 30
0.0
 10
-3.254911391
 20
12.6056544276
 30
0.0
 10
-3.2799387732
 20
12.6183156144
 30
0.0
  0
SPLINE
  5
63F
100
AcDbEntity
  8
RACCORDO
100
AcDbSpline
 62
250
  6
CONTINUOUS
 70
0
 71
3
 72
11
 73
7
 74
0
 42
0.0000001
 43
0.0000001
 44
0.0000000001
 40
0.0
 40
0.0
 40
0.0
 40
0.0
 40
0.2468892362
 40
0.5116861101
 40
0.7700777364
 40
1.0
 40
1.0
 40
1.0
 40
1.0
 10
-0.973617107
 20
13.3795868991
 30
0.0
 10
-0.9734746834
 20
13.4098178236
 30
0.0
 10
-0.9836651267
 20
13.4726352185
 30
0.0
 10
-1.0213132831
 20
13.5599763567
 30
0.0
 10
-1.0769156623
 20
13.6345698291
 30
0.0
 10
-1.1251516867
 20
13.6720018185
 30
0.0
 10
-1.1503908107
 20
13.6844764379
 30
0.0
  0
SPLINE
  5
640
100
AcDbEntity
  8
RACCORDO
100
AcDbSpline
 62
250
  6
CONTINUOUS
 70
0
 71
3
 72
13
 73
9
 74
0
 42
0.0000001
 43
0.0000001
 44
0.0000000001
 40
0.0
 40
0.0
 40
0.0
 40
0.0
 40
0.3448134119
 40
0.6206437253
 40
0.7337389512
 40
0.8322193127
 40
0.9193069812
 40
1.0
 40
1.0
 40
1.0
 40
1.0
 10
-0.973617107
 20
13.0320553824
 30
0.0
 10
-0.9690294249
 20
13.0245868452
 30
0.0
 10
-0.9614007832
 20
13.0107442709
 30
0.0
 10
-0.9548756558
 20
12.9931113319
 30
0.0
 10
-0.9529656064
 20
12.9808248131
 30
0.0
 10
-0.9531035498
 20
12.9731845559
 30
0.0
 10
-0.9547564693
 20
12.9665484761
 30
0.0
 10
-0.9569545671
 20
12.9628052301
 30
0.0
 10
-0.9582568206
 20
12.9612204557
 30
0.0
  0
SPLINE
  5
641
100
AcDbEntity
  8
GUSCI_ESTERNI
100
AcDbSpline
 62
7
  6
CONTINUOUS
 70
0
 71
3
 72
23
 73
19
 74
0
 42
0.0000001
 43
0.0000001
 44
0.0000000001
 40
0.0
 40
0.0
 40
0.0
 40
0.0
 40
0.0585635435
 40
0.12095921
 40
0.1866331789
 40
0.2549163725
 40
0.325059404
 40
0.3962586194
 40
0.4676806206
 40
0.5384858538
 40
0.6078518788
 40
0.6749973675
 40
0.7392076235
 40
0.7998628483
 40
0.8564720252
 40
0.9087142334
 40
0.956491985
 40
1.0
 40
1.0
 40
1.0
 40
1.0
 10
10.4482203233
 20
27.3146231694
 30
0.0
 10
10.3716771239
 20
27.3528947692
 30
0.0
 10
10.2094365784
 20
27.4238124393
 30
0.0
 10
9.9507703571
 20
27.5111141352
 30
0.0
 10
9.6723810059
 20
27.5816787345
 30
0.0
 10
9.3785958515
 20
27.6343962465
 30
0.0
 10
9.0739570905
 20
27.6684516034
 30
0.0
 10
8.7631988382
 20
27.6833094562
 30
0.0
 10
8.4511531531
 20
27.6787368727
 30
0.0
 10
8.1426743787
 20
27.6548067497
 30
0.0
 10
7.8425576827
 20
27.6118929265
 30
0.0
 10
7.5554593345
 20
27.5506659734
 30
0.0
 10
7.2858189487
 20
27.4720789046
 30
0.0
 10
7.0377825245
 20
27.3773361971
 30
0.0
 10
6.8151404217
 20
27.2678775057
 30
0.0
 10
6.6212414802
 20
27.1452759536
 30
0.0
 10
6.4590676396
 20
27.0113200607
 30
0.0
 10
6.3698535269
 20
26.9111222564
 30
0.0
 10
6.3323372526
 20
26.8597936151
 30
0.0
  0
SPLINE
  5
642
100
AcDbEntity
  8
GUSCI_ESTERNI
100
AcDbSpline
 62
250
  6
CONTINUOUS
 70
0
 71
3
 72
13
 73
9
 74
0
 42
0.0000001
 43
0.0000001
 44
0.0000000001
 40
0.0
 40
0.0
 40
0.0
 40
0.0
 40
0.1208295593
 40
0.2452279828
 40
0.5000000159
 40
0.7547720495
 40
0.8791704683
 40
1.0
 40
1.0
 40
1.0
 40
1.0
 10
7.2582574958
 20
27.4588787356
 30
0.0
 10
7.3705295828
 20
27.4861988014
 30
0.0
 10
7.6003106586
 20
27.5340193779
 30
0.0
 10
8.0737611313
 20
27.602506788
 30
0.0
 10
8.6804534166
 20
27.6363133474
 30
0.0
 10
9.2871456923
 20
27.6025067672
 30
0.0
 10
9.7605961411
 20
27.5340193848
 30
0.0
 10
9.9903771747
 20
27.4861987684
 30
0.0
 10
10.1026492472
 20
27.4588787547
 30
0.0
  0
SPLINE
  5
643
100
AcDbEntity
  8
RACCORDO
100
AcDbSpline
 62
7
  6
CONTINUOUS
 70
0
 71
3
 72
11
 73
7
 74
0
 42
0.0000001
 43
0.0000001
 44
0.0000000001
 40
0.0
 40
0.0
 40
0.0
 40
0.0
 40
0.2772695944
 40
0.5328011051
 40
0.7711835977
 40
1.0
 40
1.0
 40
1.0
 40
1.0
 10
20.9646301248
 20
25.2046749422
 30
0.0
 10
20.9560592457
 20
25.2441761943
 30
0.0
 10
20.9335671554
 20
25.3190143219
 30
0.0
 10
20.8806910448
 20
25.4191518511
 30
0.0
 10
20.8110863965
 20
25.4995760897
 30
0.0
 10
20.7540474404
 20
25.5384927809
 30
0.0
 10
20.7242119974
 20
25.5534101649
 30
0.0
  0
SPLINE
  5
644
100
AcDbEntity
  8
DRAFT
100
AcDbSpline
 62
7
  6
CONTINUOUS
 70
0
 71
3
 72
9
 73
5
 74
0
 42
0.0000001
 43
0.0000001
 44
0.0000000001
 40
0.0
 40
0.0
 40
0.0
 40
0.0
 40
0.5054339081
 40
1.0
 40
1.0
 40
1.0
 40
1.0
 10
7.4268809356
 20
17.4290700872
 30
0.0
 10
7.4924202412
 20
17.5710731015
 30
0.0
 10
7.6405206152
 20
17.8438714085
 30
0.0
 10
7.8232321064
 20
18.0949607816
 30
0.0
 10
7.9219796213
 20
18.2118736004
 30
0.0
  0
SPLINE
  5
645
100
AcDbEntity
  8
0
100
AcDbSpline
 62
7
  6
CONTINUOUS
 70
0
 71
3
 72
9
 73
5
 74
0
 42
0.0000001
 43
0.0000001
 44
0.0000000001
 40
0.0
 40
0.0
 40
0.0
 40
0.0
 40
0.4939276348
 40
1.0
 40
1.0
 40
1.0
 40
1.0
 10
8.0493821603
 20
18.4314246694
 30
0.0
 10
7.9215054515
 20
18.2840930327
 30
0.0
 10
7.6847245496
 20
17.9661086017
 30
0.0
 10
7.4930107795
 20
17.6192978037
 30
0.0
 10
7.4081187912
 20
17.438336421
 30
0.0
  0
SPLINE
  5
646
100
AcDbEntity
  8
RACCORDO
100
AcDbSpline
 62
7
  6
CONTINUOUS
 70
0
 71
3
 72
11
 73
7
 74
0
 42
0.0000001
 43
0.0000001
 44
0.0000000001
 40
0.0
 40
0.0
 40
0.0
 40
0.0
 40
0.2787303141
 40
0.5346774853
 40
0.7724498104
 40
1.0
 40
1.0
 40
1.0
 40
1.0
 10
12.5757112593
 20
29.3817895885
 30
0.0
 10
12.6138452548
 20
29.400449003
 30
0.0
 10
12.6900723477
 20
29.4305340134
 30
0.0
 10
12.8067354163
 20
29.4515901563
 30
0.0
 10
12.9175381379
 20
29.4454800276
 30
0.0
 10
12.9857480195
 20
29.4226418032
 30
0.0
 10
13.0167480825
 20
29.4071421224
 30
0.0
  0
SPLINE
  5
647
100
AcDbEntity
  8
RACCORDO
100
AcDbSpline
 62
7
  6
CONTINUOUS
 70
0
 71
3
 72
11
 73
7
 74
0
 42
0.0000001
 43
0.0000001
 44
0.0000000001
 40
0.0
 40
0.0
 40
0.0
 40
0.0
 40
0.2691457918
 40
0.5296338355
 40
0.7748623323
 40
1.0
 40
1.0
 40
1.0
 40
1.0
 10
4.7451637145
 20
8.5667264859
 30
0.0
 10
4.7550050242
 20
8.5854608721
 30
0.0
 10
4.7767758273
 20
8.6211243378
 30
0.0
 10
4.8153124645
 20
8.6685642638
 30
0.0
 10
4.8578307182
 20
8.7075402549
 30
0.0
 10
4.8891513464
 20
8.7276994955
 30
0.0
 10
4.9049842831
 20
8.7356159639
 30
0.0
  0
SPLINE
  5
648
100
AcDbEntity
  8
RACCORDO
100
AcDbSpline
 62
7
  6
CONTINUOUS
 70
0
 71
3
 72
11
 73
7
 74
0
 42
0.0000001
 43
0.0000001
 44
0.0000000001
 40
0.0
 40
0.0
 40
0.0
 40
0.0
 40
0.2275501896
 40
0.4653225147
 40
0.7212696859
 40
1.0
 40
1.0
 40
1.0
 40
1.0
 10
20.7242119974
 20
25.5534101649
 30
0.0
 10
20.6932119344
 20
25.5689098458
 30
0.0
 10
20.6250020528
 20
25.5917480701
 30
0.0
 10
20.5141993312
 20
25.5978581989
 30
0.0
 10
20.3975362626
 20
25.5768020559
 30
0.0
 10
20.3213091697
 20
25.5467170456
 30
0.0
 10
20.2831751742
 20
25.5280576311
 30
0.0
  0
SPLINE
  5
649
100
AcDbEntity
  8
GUSCI_ESTERNI
100
AcDbSpline
 62
7
  6
CONTINUOUS
 70
0
 71
3
 72
9
 73
5
 74
0
 42
0.0000001
 43
0.0000001
 44
0.0000000001
 40
0.0
 40
0.0
 40
0.0
 40
0.0
 40
0.4721047953
 40
1.0
 40
1.0
 40
1.0
 40
1.0
 10
1.892228271
 20
3.3457407672
 30
0.0
 10
1.708915962
 20
3.2540846127
 30
0.0
 10
1.3536282543
 20
2.9931351359
 30
0.0
 10
1.07228605
 20
2.6579524202
 30
0.0
 10
0.9429885483
 20
2.468741946
 30
0.0
  0
SPLINE
  5
64A
100
AcDbEntity
  8
GUSCI_ESTERNI
100
AcDbSpline
 62
7
  6
CONTINUOUS
 70
0
 71
3
 72
13
 73
9
 74
0
 42
0.0000001
 43
0.0000001
 44
0.0000000001
 40
0.0
 40
0.0
 40
0.0
 40
0.0
 40
0.3015527303
 40
0.5718032131
 40
0.6918497976
 40
0.8017007836
 40
0.9032600022
 40
1.0
 40
1.0
 40
1.0
 40
1.0
 10
0.5616369849
 20
1.7386270491
 30
0.0
 10
0.4748806048
 20
1.5109122853
 30
0.0
 10
0.354681454
 20
1.060552908
 30
0.0
 10
0.3447120383
 20
0.4930363155
 30
0.0
 10
0.4399719928
 20
0.0980564383
 30
0.0
 10
0.5540855096
 20
-0.146645024
 30
0.0
 10
0.7110887365
 20
-0.3433086337
 30
0.0
 10
0.8435978607
 20
-0.4378978183
 30
0.0
 10
0.9131335208
 20
-0.4736196966
 30
0.0
  0
SPLINE
  5
64B
100
AcDbEntity
  8
GUSCI_ESTERNI
100
AcDbSpline
 62
7
  6
CONTINUOUS
 70
0
 71
3
 72
11
 73
7
 74
0
 42
0.0000001
 43
0.0000001
 44
0.0000000001
 40
0.0
 40
0.0
 40
0.0
 40
0.0
 40
0.2894176512
 40
0.549457933
 40
0.7828425694
 40
1.0
 40
1.0
 40
1.0
 40
1.0
 10
11.2459660532
 20
14.109194532
 30
0.0
 10
11.2459660532
 20
13.9781555526
 30
0.0
 10
11.2670463582
 20
13.7284682215
 30
0.0
 10
11.3727453645
 20
13.3865838989
 30
0.0
 10
11.5495340274
 20
13.1120820167
 30
0.0
 10
11.7145573339
 20
12.9837574854
 30
0.0
 10
11.8019920389
 20
12.9387867751
 30
0.0
  0
SPLINE
  5
64C
100
AcDbEntity
  8
GUSCI_ESTERNI
100
AcDbSpline
 62
7
  6
CONTINUOUS
 70
0
 71
3
 72
13
 73
9
 74
0
 42
0.0000001
 43
0.0000001
 44
0.0000000001
 40
0.0
 40
0.0
 40
0.0
 40
0.0
 40
0.0968967916
 40
0.1985355699
 40
0.3083967967
 40
0.4284048079
 40
0.6984385638
 40
1.0
 40
1.0
 40
1.0
 40
1.0
 10
14.8060661925
 20
-13.9964986986
 30
0.0
 10
14.7362385299
 20
-13.9625027536
 30
0.0
 10
14.5822218506
 20
-13.9134584656
 30
0.0
 10
14.3326029445
 20
-13.9050602374
 30
0.0
 10
14.0702632435
 20
-13.9590711323
 30
0.0
 10
13.6996711995
 20
-14.1168660909
 30
0.0
 10
13.2537258663
 20
-14.4601026042
 30
0.0
 10
12.9661015841
 20
-14.8218307911
 30
0.0
 10
12.8358295309
 20
-15.0254234266
 30
0.0
  0
SPLINE
  5
64D
100
AcDbEntity
  8
GUSCI_ESTERNI
100
AcDbSpline
 62
7
  6
CONTINUOUS
 70
0
 71
3
 72
9
 73
5
 74
0
 42
0.0000001
 43
0.0000001
 44
0.0000000001
 40
0.0
 40
0.0
 40
0.0
 40
0.0
 40
0.51761027
 40
1.0
 40
1.0
 40
1.0
 40
1.0
 10
12.5509436379
 20
-15.5705644303
 30
0.0
 10
12.4732792066
 20
-15.7571620682
 30
0.0
 10
12.3538108156
 20
-16.1312622461
 30
0.0
 10
12.306626225
 20
-16.5222328876
 30
0.0
 10
12.306626225
 20
-16.7105949991
 30
0.0
  0
SPLINE
  5
64E
100
AcDbEntity
  8
GUSCI_ESTERNI
100
AcDbSpline
 62
7
  6
CONTINUOUS
 70
0
 71
3
 72
11
 73
7
 74
0
 42
0.0000001
 43
0.0000001
 44
0.0000000001
 40
0.0
 40
0.0
 40
0.0
 40
0.0
 40
0.2270344158
 40
0.4647288762
 40
0.7211703654
 40
1.0
 40
1.0
 40
1.0
 40
1.0
 10
2.8551786011
 20
3.4114732782
 30
0.0
 10
2.787246368
 20
3.4444967142
 30
0.0
 10
2.6378800949
 20
3.492592733
 30
0.0
 10
2.3957574442
 20
3.5032269429
 30
0.0
 10
2.1413068541
 20
3.4544028538
 30
0.0
 10
1.975200513
 20
3.3872268882
 30
0.0
 10
1.892228271
 20
3.3457407672
 30
0.0
  0
SPLINE
  5
64F
100
AcDbEntity
  8
GUSCI_ESTERNI
100
AcDbSpline
 62
7
  6
CONTINUOUS
 70
0
 71
3
 72
9
 73
5
 74
0
 42
0.0000001
 43
0.0000001
 44
0.0000000001
 40
0.0
 40
0.0
 40
0.0
 40
0.0
 40
0.2394841494
 40
1.0
 40
1.0
 40
1.0
 40
1.0
 10
18.7399846419
 20
22.9140107225
 30
0.0
 10
18.7289673283
 20
22.9293048026
 30
0.0
 10
18.6811151312
 20
22.9918311267
 30
0.0
 10
18.6263739264
 20
23.048955068
 30
0.0
 10
18.5822196682
 20
23.0893703553
 30
0.0
  0
SPLINE
  5
650
100
AcDbEntity
  8
GUSCI_ESTERNI
100
AcDbSpline
 62
7
  6
CONTINUOUS
 70
0
 71
3
 72
9
 73
5
 74
0
 42
0.0000001
 43
0.0000001
 44
0.0000000001
 40
0.0
 40
0.0
 40
0.0
 40
0.0
 40
0.2321105492
 40
1.0
 40
1.0
 40
1.0
 40
1.0
 10
18.5822196682
 20
23.0893703553
 30
0.0
 10
18.5528904867
 20
23.1162159494
 30
0.0
 10
18.4214580415
 20
23.2263234436
 30
0.0
 10
18.2733362084
 20
23.3154626865
 30
0.0
 10
18.1556842383
 20
23.3742886716
 30
0.0
  0
SPLINE
  5
651
100
AcDbEntity
  8
GUSCI_ESTERNI
100
AcDbSpline
 62
7
  6
CONTINUOUS
 70
0
 71
3
 72
11
 73
7
 74
0
 42
0.0000001
 43
0.0000001
 44
0.0000000001
 40
0.0
 40
0.0
 40
0.0
 40
0.0
 40
0.2896680422
 40
0.549599329
 40
0.7828426388
 40
1.0
 40
1.0
 40
1.0
 40
1.0
 10
26.2167015438
 20
-8.1534103427
 30
0.0
 10
26.2167015438
 20
-8.3053651499
 30
0.0
 10
26.1921525228
 20
-8.5947617705
 30
0.0
 10
26.0685728525
 20
-8.9906034029
 30
0.0
 10
25.8620052635
 20
-9.3075325033
 30
0.0
 10
25.6693091987
 20
-9.4543367289
 30
0.0
 10
25.5674394767
 20
-9.5053233471
 30
0.0
  0
SPLINE
  5
652
100
AcDbEntity
  8
GUSCI_ESTERNI
100
AcDbSpline
 62
7
  6
CONTINUOUS
 70
0
 71
3
 72
11
 73
7
 74
0
 42
0.0000001
 43
0.0000001
 44
0.0000000001
 40
0.0
 40
0.0
 40
0.0
 40
0.0
 40
0.2399847174
 40
0.4990237675
 40
0.7585862427
 40
1.0
 40
1.0
 40
1.0
 40
1.0
 10
24.7692197643
 20
-3.5684313582
 30
0.0
 10
24.9828184443
 20
-3.7233664163
 30
0.0
 10
25.3793967262
 20
-4.1126495246
 30
0.0
 10
25.8339863848
 20
-4.8187414655
 30
0.0
 10
26.1356732736
 20
-5.6041375374
 30
0.0
 10
26.2167015438
 20
-6.15591466
 30
0.0
 10
26.2167015438
 20
-6.4213595352
 30
0.0
  0
SPLINE
  5
653
100
AcDbEntity
  8
GUSCI_ESTERNI
100
AcDbSpline
 62
7
  6
CONTINUOUS
 70
0
 71
3
 72
17
 73
13
 74
0
 42
0.0000001
 43
0.0000001
 44
0.0000000001
 40
0.0
 40
0.0
 40
0.0
 40
0.0
 40
0.1237607659
 40
0.2615939288
 40
0.4067507049
 40
0.5508557291
 40
0.6857522301
 40
0.8053821918
 40
0.8588924667
 40
0.9084786213
 40
0.955052151
 40
1.0
 40
1.0
 40
1.0
 40
1.0
 10
1.892228271
 20
-0.4159569151
 30
0.0
 10
2.0608689431
 20
-0.3316365791
 30
0.0
 10
2.3895170615
 20
-0.0966441534
 30
0.0
 10
2.8028232371
 20
0.3701626922
 30
0.0
 10
3.1354521211
 20
0.9338783145
 30
0.0
 10
3.3575027941
 20
1.5449038238
 30
0.0
 10
3.449718465
 20
2.1493686682
 30
0.0
 10
3.4086176892
 20
2.6238428444
 30
0.0
 10
3.2968438677
 20
2.9459892126
 30
0.0
 10
3.1817777926
 20
3.1447252119
 30
0.0
 10
3.0349114647
 20
3.3042679614
 30
0.0
 10
2.916764112
 20
3.3815351312
 30
0.0
 10
2.8551786011
 20
3.4114732782
 30
0.0
  0
SPLINE
  5
654
100
AcDbEntity
  8
GUSCI_ESTERNI
100
AcDbSpline
 62
7
  6
CONTINUOUS
 70
0
 71
3
 72
11
 73
7
 74
0
 42
0.0000001
 43
0.0000001
 44
0.0000000001
 40
0.0
 40
0.0
 40
0.0
 40
0.0
 40
0.289840433
 40
0.5497773315
 40
0.7828228659
 40
1.0
 40
1.0
 40
1.0
 40
1.0
 10
15.3780395211
 20
-15.1748883511
 30
0.0
 10
15.3780395211
 20
-15.0419573918
 30
0.0
 10
15.3563776808
 20
-14.7888526249
 30
0.0
 10
15.2475015609
 20
-14.4429635198
 30
0.0
 10
15.0652889595
 20
-14.166894439
 30
0.0
 10
14.895621544
 20
-14.0400991671
 30
0.0
 10
14.8060661925
 20
-13.9964986986
 30
0.0
  0
SPLINE
  5
655
100
AcDbEntity
  8
GUSCI_ESTERNI
100
AcDbSpline
 62
7
  6
CONTINUOUS
 70
0
 71
3
 72
16
 73
12
 74
0
 42
0.0000001
 43
0.0000001
 44
0.0000000001
 40
0.0
 40
0.0
 40
0.0
 40
0.0
 40
0.044803625
 40
0.0909689164
 40
0.1914916251
 40
0.3073544296
 40
0.4380791799
 40
0.5793853791
 40
0.7248206241
 40
0.8672418779
 40
1.0
 40
1.0
 40
1.0
 40
1.0
 10
11.8019920389
 20
12.9387867751
 30
0.0
 10
11.8578860553
 20
12.910038538
 30
0.0
 10
11.9786722551
 20
12.8648597222
 30
0.0
 10
12.2469412365
 20
12.8292823946
 30
0.0
 10
12.6179286138
 20
12.8994665218
 30
0.0
 10
13.0502769017
 20
13.1347154183
 30
0.0
 10
13.4588153397
 20
13.5002372866
 30
0.0
 10
13.8148052633
 20
13.9691992091
 30
0.0
 10
14.092577469
 20
14.5067152703
 30
0.0
 10
14.2711948035
 20
15.0720319667
 30
0.0
 10
14.3173793493
 20
15.4586583347
 30
0.0
 10
14.3173793493
 20
15.64490118
 30
0.0
  0
SPLINE
  5
656
100
AcDbEntity
  8
GUSCI_ESTERNI
100
AcDbSpline
 62
7
  6
CONTINUOUS
 70
0
 71
3
 72
11
 73
7
 74
0
 42
0.0000001
 43
0.0000001
 44
0.0000000001
 40
0.0
 40
0.0
 40
0.0
 40
0.0
 40
0.2271148399
 40
0.4645332269
 40
0.7208417991
 40
1.0
 40
1.0
 40
1.0
 40
1.0
 10
0.9131335208
 20
-0.4736196966
 30
0.0
 10
0.9815493854
 20
-0.5087663133
 30
0.0
 10
1.1326501121
 20
-0.5607029193
 30
0.0
 10
1.3789933231
 20
-0.5745472347
 30
0.0
 10
1.6383769032
 20
-0.5264166538
 30
0.0
 10
1.807668361
 20
-0.4582368701
 30
0.0
 10
1.892228271
 20
-0.4159569151
 30
0.0
  0
ELLIPSE
  5
657
100
AcDbEntity
  8
0
100
AcDbEllipse
 62
7
  6
CONTINUOUS
 10
8.1963720119
 20
8.0057029359
 30
0.0
 11
0.48516288
 21
-0.3299263535
 31
0.0
 40
0.1278396616
 41
0.6519417066
 42
0.7388436286
  0
ELLIPSE
  5
658
100
AcDbEntity
  8
0
100
AcDbEllipse
 62
7
  6
CONTINUOUS
 10
8.2770740763
 20
9.949409246
 30
0.0
 11
0.3953827823
 21
0.581417784
 31
0.0
 40
0.5613165636
 41
4.8745463879
 42
4.9754857589
  0
ELLIPSE
  5
659
100
AcDbEntity
  8
0
100
AcDbEllipse
 62
7
  6
CONTINUOUS
 10
8.282023461
 20
9.9516070202
 30
0.0
 11
0.3953827823
 21
0.581417784
 31
0.0
 40
0.5613165636
 41
4.8917760457
 42
4.9712742355
  0
ELLIPSE
  5
65A
100
AcDbEntity
  8
CURVE
100
AcDbEllipse
 62
7
420
10991288
  6
CONTINUOUS
 10
-15.9426258227
 20
-14.5731775518
 30
0.0
 11
-0.8688688855
 21
1.8708057958
 31
0.0
 40
0.5966024854
 41
0.0
 42
6.2831853072
  0
ELLIPSE
  5
65B
100
AcDbEntity
  8
CURVE
100
AcDbEllipse
 62
7
420
10991288
  6
CONTINUOUS
 10
350.3582525209
 20
163.0208361455
 30
0.0
 11
531.2825344748
 21
293.2147635867
 31
0.0
 40
0.0348711183
 41
2.3097182127
 42
2.3105328802
  0
ELLIPSE
  5
65C
100
AcDbEntity
  8
CURVE
100
AcDbEllipse
 62
7
420
10991288
  6
CONTINUOUS
 10
344.2066708368
 20
166.0966269876
 30
0.0
 11
391.3903076918
 21
359.8662407147
 31
0.0
 40
0.2934908586
 41
-3.8854035488
 42
-3.8843172935
  0
ELLIPSE
  5
65D
100
AcDbEntity
  8
CURVE
100
AcDbEllipse
 62
7
420
10991288
  6
CONTINUOUS
 10
324.5675139794
 20
175.9162054163
 30
0.0
 11
-420.8304345704
 21
617.1904354957
 31
0.0
 40
0.5256876064
 41
1.5330893312
 42
1.5336324974
  0
ELLIPSE
  5
65E
100
AcDbEntity
  8
CURVE
100
AcDbEllipse
 62
7
420
10991288
  6
CONTINUOUS
 10
351.865691771
 20
162.2671165205
 30
0.0
 11
531.2826279048
 21
293.2147179383
 31
0.0
 40
0.0348709923
 41
2.3129769286
 42
2.3135200948
  0
ELLIPSE
  5
65F
100
AcDbEntity
  8
CURVE
100
AcDbEllipse
 62
7
420
10991288
  6
CONTINUOUS
 10
325.7519232402
 20
175.3240007859
 30
0.0
 11
-420.8305744914
 21
617.1904864281
 31
0.0
 40
0.5256875149
 41
1.5314598415
 42
1.5320029787
  0
ELLIPSE
  5
660
100
AcDbEntity
  8
CURVE
100
AcDbEllipse
 62
7
420
10991288
  6
CONTINUOUS
 10
348.7790361473
 20
163.8104443324
 30
0.0
 11
531.2825656181
 21
293.2147483706
 31
0.0
 40
0.0348710763
 41
2.3097181862
 42
2.3102612955
  0
ELLIPSE
  5
661
100
AcDbEntity
  8
CURVE
100
AcDbEllipse
 62
7
420
10991288
  6
CONTINUOUS
 10
323.311316767
 20
176.5443040225
 30
0.0
 11
-420.8304812107
 21
617.1904524731
 31
0.0
 40
0.5256875759
 41
1.5330893147
 42
1.5336324809
  0
ELLIPSE
  5
662
100
AcDbEntity
  8
RACCORDO
100
AcDbEllipse
 62
7
  6
CONTINUOUS
 10
3.7548187518
 20
15.0830270471
 30
0.0
 11
0.499996712
 21
0.0035883639
 31
0.0
 40
0.5053247124
 41
-0.7715714568
 42
-0.0036478305
  0
ELLIPSE
  5
663
100
AcDbEntity
  8
RACCORDO
100
AcDbEllipse
 62
7
  6
CONTINUOUS
 10
-14.7247786936
 20
18.2988874036
 30
0.0
 11
-0.089260153
 21
0.1791289513
 31
0.0
 40
0.6123879345
 41
0.8877563558
 42
2.1619553581
  0
ELLIPSE
  5
664
100
AcDbEntity
  8
ASSI
100
AcDbEllipse
 62
7
  6
CONTINUOUS
 10
-6.8096867749
 20
20.2128271473
 30
0.0
 11
0.2257019663
 21
0.4461636818
 31
0.0
 40
0.6159267166
 41
0.5380090616
 42
0.6817883054
  0
ELLIPSE
  5
665
100
AcDbEntity
  8
RACCORDO
100
AcDbEllipse
 62
7
  6
CONTINUOUS
 10
-12.1417784388
 20
17.6903074787
 30
0.0
 11
0.4999985559
 21
0.0023864752
 31
0.0
 40
0.5035541159
 41
2.3596088132
 42
3.0002042076
  0
ELLIPSE
  5
666
100
AcDbEntity
  8
RACCORDO
100
AcDbEllipse
 62
7
  6
CONTINUOUS
 10
-0.7948313536
 20
11.4345485464
 30
0.0
 11
-0.2237046003
 21
0.4472532382
 31
0.0
 40
0.6122950388
 41
-2.2557482655
 42
-0.6847996396
  0
ELLIPSE
  5
667
100
AcDbEntity
  8
RACCORDO
100
AcDbEllipse
 62
7
  6
CONTINUOUS
 10
-0.7948313536
 20
-26.4973311625
 30
0.0
 11
-0.2236445579
 21
0.4471998343
 31
0.0
 40
0.6124778111
 41
-3.1448859382
 42
-2.255529033
  0
ELLIPSE
  5
668
100
AcDbEntity
  8
RACCORDO
100
AcDbEllipse
 62
7
  6
CONTINUOUS
 10
-7.8506990033
 20
20.8253950088
 30
0.0
 11
0.9987332359
 21
0.6172510855
 31
0.0
 40
0.0815198604
 41
0.0508010625
 42
0.7263320369
  0
ELLIPSE
  5
669
100
AcDbEntity
  8
RACCORDO
100
AcDbEllipse
 62
7
  6
CONTINUOUS
 10
3.9276916303
 20
-21.9935832306
 30
0.0
 11
0.9987332359
 21
0.6172510855
 31
0.0
 40
0.0815198604
 41
-2.3978073241
 42
-1.2925747589
  0
ELLIPSE
  5
66A
100
AcDbEntity
  8
DRAFT
100
AcDbEllipse
 62
7
  6
CONTINUOUS
 10
-0.9008435147
 20
16.5180414449
 30
0.0
 11
0.4279673669
 21
-0.0030279657
 31
0.0
 40
0.4946372042
 41
-0.7760807437
 42
0.0034305001
  0
ELLIPSE
  5
66B
100
AcDbEntity
  8
DRAFT
100
AcDbEllipse
 62
7
  6
CONTINUOUS
 10
-6.4558319439
 20
19.2955356595
 30
0.0
 11
0.4279673669
 21
-0.0030279657
 31
0.0
 40
0.4946372042
 41
-0.7818985079
 42
0.0034334511
  0
ELLIPSE
  5
66C
100
AcDbEntity
  8
RACCORDO
100
AcDbEllipse
 62
7
  6
CONTINUOUS
 10
-16.9531812128
 20
17.0553703497
 30
0.0
 11
2.3335420535
 21
1.123321724
 31
0.0
 40
0.0483206649
 41
0.0373690628
 42
0.3336619107
  0
ELLIPSE
  5
66D
100
AcDbEntity
  8
ASSI
100
AcDbEllipse
 62
7
  6
CONTINUOUS
 10
-0.6488545041
 20
17.132411012
 30
0.0
 11
0.221538876
 21
0.4482453432
 31
0.0
 40
0.6088015717
 41
0.5323082896
 42
0.6760875334
  0
ELLIPSE
  5
66E
100
AcDbEntity
  8
RACCORDO
100
AcDbEllipse
 62
7
  6
CONTINUOUS
 10
3.9276916303
 20
14.936199692
 30
0.0
 11
-0.7417913999
 21
1.2002436976
 31
0.0
 40
0.5587454355
 41
5.1188866155
 42
6.2241191807
  0
ELLIPSE
  5
66F
100
AcDbEntity
  8
RACCORDO
100
AcDbEllipse
 62
7
  6
CONTINUOUS
 10
3.7548187518
 20
-22.198331274
 30
0.0
 11
0.499366618
 21
0.3086255427
 31
0.0
 40
0.0815198604
 41
6.0993940912
 42
7.0007906979
  0
ELLIPSE
  5
670
100
AcDbEntity
  8
RACCORDO
100
AcDbEllipse
 62
7
  6
CONTINUOUS
 10
-6.6304713391
 20
13.7020443236
 30
0.0
 11
0.4998587701
 21
0.0223649649
 31
0.0
 40
0.5313301283
 41
-2.3799630874
 42
-0.8149845248
  0
ELLIPSE
  5
671
100
AcDbEntity
  8
RACCORDO
100
AcDbEllipse
 62
7
  6
CONTINUOUS
 10
-6.6304713391
 20
14.9346539288
 30
0.0
 11
0.4999985559
 21
0.0023864752
 31
0.0
 40
0.5035541159
 41
-1.4342147631
 42
-0.7936193687
  0
ELLIPSE
  5
672
100
AcDbEntity
  8
RACCORDO
100
AcDbEllipse
 62
7
  6
CONTINUOUS
 10
-12.1417784388
 20
16.4576978735
 30
0.0
 11
0.4998587701
 21
0.0223649649
 31
0.0
 40
0.5313301283
 41
3.1178197826
 42
3.9032222197
  0
ELLIPSE
  5
673
100
AcDbEntity
  8
RACCORDO
100
AcDbEllipse
 62
7
  6
CONTINUOUS
 10
3.7548187518
 20
16.0209273951
 30
0.0
 11
-0.3708957
 21
0.6001218488
 31
0.0
 40
0.5587454355
 41
-3.1744788413
 42
-2.2730822346
  0
ELLIPSE
  5
674
100
AcDbEntity
  8
GUSCI_ESTERNI
100
AcDbEllipse
 62
7
  6
CONTINUOUS
 10
9.763213698
 20
29.7243738206
 30
0.0
 11
1.0076619406
 21
0.6236511173
 31
0.0
 40
0.080729531
 41
0.0520212413
 42
0.7267113814
  0
ELLIPSE
  5
675
100
AcDbEntity
  8
GUSCI_ESTERNI
100
AcDbEllipse
 62
7
  6
CONTINUOUS
 10
8.6804533704
 20
27.2967650967
 30
0.0
 11
2.4999846905
 21
0.0176879558
 31
0.0
 40
0.4946372042
 41
0.7818985079
 42
3.8727371871
  0
ELLIPSE
  5
676
100
AcDbEntity
  8
RACCORDO
100
AcDbEllipse
 62
7
  6
CONTINUOUS
 10
16.7737406013
 20
25.8943280623
 30
0.0
 11
0.9070399672
 21
1.7825267583
 31
0.0
 40
0.6176975122
 41
0.0043489267
 42
0.6803507382
  0
ELLIPSE
  5
677
100
AcDbEntity
  8
RACCORDO
100
AcDbEllipse
 62
7
  6
CONTINUOUS
 10
5.05275722
 20
6.6673572435
 30
0.0
 11
-0.317947268
 21
0.6470324617
 31
0.0
 40
0.607010042
 41
-1.9026168748
 42
-0.9103051234
  0
ELLIPSE
  5
678
100
AcDbEntity
  8
DRAFT
100
AcDbEllipse
 62
7
  6
CONTINUOUS
 10
8.6804533704
 20
26.5547527949
 30
0.0
 11
2.4999835599
 21
-0.0179418197
 31
0.0
 40
0.5053247124
 41
0.3530493129
 42
0.7890247493
  0
ELLIPSE
  5
679
100
AcDbEntity
  8
DRAFT
100
AcDbEllipse
 62
7
  6
CONTINUOUS
 10
16.3879172853
 20
22.7010208374
 30
0.0
 11
2.4999846905
 21
0.0176879558
 31
0.0
 40
0.4946372042
 41
0.7818985079
 42
2.7886505361
  0
ELLIPSE
  5
67A
100
AcDbEntity
  8
RACCORDO
100
AcDbEllipse
 62
7
  6
CONTINUOUS
 10
17.2779715892
 20
26.158496403
 30
0.0
 11
0.4410298232
 21
0.8975092442
 31
0.0
 40
0.607010042
 41
-0.0041827738
 42
0.6717985481
  0
ELLIPSE
  5
67B
100
AcDbEntity
  8
RACCORDO
100
AcDbEllipse
 62
7
  6
CONTINUOUS
 10
15.9378491972
 20
23.9650159543
 30
0.0
 11
0.223600295
 21
0.4472172769
 31
0.0
 40
0.6124181287
 41
-2.4568521304
 42
-1.3377321453
  0
ELLIPSE
  5
67C
100
AcDbEntity
  8
RACCORDO
100
AcDbEllipse
 62
7
  6
CONTINUOUS
 10
4.5772028249
 20
9.6423231713
 30
0.0
 11
0.4784425627
 21
0.7091980749
 31
0.0
 40
0.3644322417
 41
-3.6008983977
 42
-2.7336502345
  0
ELLIPSE
  5
67D
100
AcDbEntity
  8
DRAFT
100
AcDbEllipse
 62
7
  6
CONTINUOUS
 10
8.6804533704
 20
27.3854795012
 30
0.0
 11
2.4999846905
 21
0.0176879558
 31
0.0
 40
0.4946372042
 41
3.9234911614
 42
7.065083815
  0
ELLIPSE
  5
67E
100
AcDbEntity
  8
DRAFT
100
AcDbEllipse
 62
7
  6
CONTINUOUS
 10
16.3879172853
 20
23.5317475437
 30
0.0
 11
2.4999835599
 21
-0.0179418197
 31
0.0
 40
0.5053247124
 41
0.7890247493
 42
3.9306174029
  0
ELLIPSE
  5
67F
100
AcDbEntity
  8
RACCORDO
100
AcDbEllipse
 62
7
  6
CONTINUOUS
 10
17.6284395661
 20
25.4669785799
 30
0.0
 11
0.8820596464
 21
1.7950184884
 31
0.0
 40
0.607010042
 41
5.5278922255
 42
6.9549838552
  0
ELLIPSE
  5
680
100
AcDbEntity
  8
GUSCI_ESTERNI
100
AcDbEllipse
 62
7
  6
CONTINUOUS
 10
20.2769776563
 20
24.4349024038
 30
0.0
 11
0.4472606553
 21
0.8944879452
 31
0.0
 40
0.6123267458
 41
-0.0093382437
 42
0.6846978779
  0
ELLIPSE
  5
681
100
AcDbEntity
  8
GUSCI_ESTERNI
100
AcDbEllipse
 62
7
  6
CONTINUOUS
 10
5.6491639151
 20
6.9986079507
 30
0.0
 11
0.223600295
 21
0.4472172769
 31
0.0
 40
0.6124181287
 41
1.2559227628
 42
1.7782727065
  0
ELLIPSE
  5
682
100
AcDbEntity
  8
GUSCI_ESTERNI
100
AcDbEllipse
 62
7
  6
CONTINUOUS
 10
23.0347210284
 20
-12.4454884523
 30
0.0
 11
0.998708517
 21
0.6183295309
 31
0.0
 40
0.0821673147
 41
-2.4069847744
 42
-0.8362646
  0
ELLIPSE
  5
683
100
AcDbEntity
  8
GUSCI_ESTERNI
100
AcDbEllipse
 62
7
  6
CONTINUOUS
 10
1.4400230027
 20
11.677346844
 30
0.0
 11
0.5395112754
 21
-0.0038719511
 31
0.0
 40
0.5053247124
 41
3.9480706954
 42
7.054756764
  0
ELLIPSE
  5
684
100
AcDbEntity
  8
GUSCI_ESTERNI
100
AcDbEllipse
 62
7
  6
CONTINUOUS
 10
23.0347210284
 20
23.002017615
 30
0.0
 11
-0.7385883933
 21
1.2160970551
 31
0.0
 40
0.5543608914
 41
4.6668511558
 42
6.2375713301
  0
ELLIPSE
  5
685
100
AcDbEntity
  8
GUSCI_ESTERNI
100
AcDbEllipse
 62
7
  6
CONTINUOUS
 10
3.5613433463
 20
12.7380070157
 30
0.0
 11
0.5395112754
 21
-0.0038719511
 31
0.0
 40
0.5053247124
 41
3.9480706954
 42
7.054756764
  0
ELLIPSE
  5
686
100
AcDbEntity
  8
GUSCI_ESTERNI
100
AcDbEllipse
 62
7
  6
CONTINUOUS
 10
5.6826636899
 20
13.7986671875
 30
0.0
 11
0.5395112754
 21
-0.0038719511
 31
0.0
 40
0.5053247124
 41
3.9480706954
 42
7.054756764
  0
ELLIPSE
  5
687
100
AcDbEntity
  8
GUSCI_ESTERNI
100
AcDbEllipse
 62
7
  6
CONTINUOUS
 10
16.3879172853
 20
23.3564305989
 30
0.0
 11
2.4999835599
 21
-0.0179418197
 31
0.0
 40
0.5053247124
 41
3.9306174029
 42
7.0722100565
  0
ENDSEC
  0
SECTION
  2
OBJECTS
  0
DICTIONARY
  5
C
100
AcDbDictionary
280
0
281
1
  3
ACAD_GROUP
350
D
  3
ACAD_MLINESTYLE
350
17
  3
ACAD_LAYOUT
350
1A
  3
ACAD_PLOTSETTINGS
350
19
  3
ACAD_PLOTSTYLENAME
350
E
  0
DICTIONARY
  5
D
102
{ACAD_REACTORS
330
C
102
}
100
AcDbDictionary
280
0
281
1
  0
ACDBDICTIONARYWDFLT
  5
E
102
{ACAD_REACTORS
330
C
102
}
100
AcDbDictionary
281
1
  3
Normal
350
F
100
AcDbDictionaryWithDefault
340
F
  0
DICTIONARY
  5
17
102
{ACAD_REACTORS
330
C
102
}
100
AcDbDictionary
280
0
281
1
  3
Standard
350
18
  0
DICTIONARY
  5
19
102
{ACAD_REACTORS
330
C
102
}
100
AcDbDictionary
281
1
  0
DICTIONARY
  5
1A
102
{ACAD_REACTORS
330
C
102
}
100
AcDbDictionary
281
1
  3
Model
350
688
  3
Layout1
350
689
  0
ACDBPLACEHOLDER
  5
F
102
{ACAD_REACTORS
330
E
102
}
  0
MLINESTYLE
  5
18
102
{ACAD_REACTORS
330
17
102
}
100
AcDbMlineStyle
  2
STANDARD
 70
0
  3

 62
256
 51
90.0
 52
90.0
 71
2
 49
0.5
 62
256
  6
BYLAYER
 49
-0.5
 62
256
  6
BYLAYER
  0
LAYOUT
  5
688
102
{ACAD_REACTORS
330
1A
102
}
100
AcDbPlotSettings
  1

  2
none_device
  4
ISO_A4_(297.00_x_210.00_MM)
  6

 40
0.0
 41
0.0
 42
0.0
 43
0.0
 44
297.0
 45
210.0
 46
0.0
 47
0.0
 48
0.0
 49
0.0
140
0.0
141
0.0
142
1.0
143
1.0
 70
1024
 72
1
 73
0
 74
0
  7

 75
0
147
1.0
148
0.0
149
0.0
100
AcDbLayout
  1
Model
 70
0
 71
0
 10
0.0
 20
0.0
 11
297.0
 21
210.0
 12
0.0
 22
0.0
 32
0.0
 14
0.0
 24
0.0
 34
0.0
 15
0.0
 25
0.0
 35
0.0
146
0.0
 13
0.0
 23
0.0
 33
0.0
 16
1.0
 26
0.0
 36
0.0
 17
0.0
 27
1.0
 37
0.0
 76
0
330
220
345
0
346
0
  0
LAYOUT
  5
689
102
{ACAD_REACTORS
330
1A
102
}
100
AcDbPlotSettings
  1

  2
none_device
  4
ISO_A4_(297.00_x_210.00_MM)
  6

 40
0.0
 41
0.0
 42
0.0
 43
0.0
 44
297.0
 45
210.0
 46
0.0
 47
0.0
 48
0.0
 49
0.0
140
0.0
141
0.0
142
1.0
143
1.0
 70
0
 72
1
 73
0
 74
0
  7

 75
0
147
1.0
148
0.0
149
0.0
100
AcDbLayout
  1
Layout1
 70
0
 71
1
 10
0.0
 20
0.0
 11
297.0
 21
210.0
 12
0.0
 22
0.0
 32
0.0
 14
0.0
 24
0.0
 34
0.0
 15
0.0
 25
0.0
 35
0.0
146
0.0
 13
0.0
 23
0.0
 33
0.0
 16
1.0
 26
0.0
 36
0.0
 17
0.0
 27
1.0
 37
0.0
 76
0
330
221
345
0
346
0
  0
ENDSEC
  0
EOF
