  0
SECTION
  2
HEADER
  9
$ACADVER
  1
AC1015
  9
$DWGCODEPAGE
  3
ANSI_1252
  9
$EXTMAX
 10
297.0
 20
210.0
 30
0.0
  9
$EXTMIN
 10
0.0
 20
0.0
 30
0.0
  9
$LIMMIN
 10
0.0
 20
0.0
  9
$LIMMAX
 10
297.0
 20
210.0
  9
$VIEWCTR
 10
148.5
 20
105.0
  9
$VIEWSIZE
 40
210.0
  9
$CLAYER
  8
0
  9
$LTSCALE
 40
16.335
  9
$CELTYPE
  6
BYLAYER
  9
$DIMSCALE
 40
1.0
  9
$DIMASZ
 40
3.0
  9
$DIMEXO
 40
1.85625
  9
$DIMDLI
 40
11.286
  9
$DIMEXE
 40
5.346
  9
$DIMCEN
 40
2.673
  9
$DIMLFAC
 40
1.0
  9
$DIMBLK
  1
_FILLED
  9
$DIMTXT
 40
3.0
  9
$DIMTOL
 70
1
  9
$DIMLIM
 70
0
  9
$DIMTFAC
 40
1.0
  9
$DIMTP
 40
0.01
  9
$DIMTM
 40
0.01
  9
$PDMODE
 70
3
  9
$PDSIZE
 40
3.0
  9
$HANDSEED
  5
3D8
  9
$TILEMODE
 70
1
  9
$MEASUREMENT
 70
1
  9
$INSUNITS
 70
4
  0
ENDSEC
  0
SECTION
  2
CLASSES
  0
CLASS
  1
ACDBDICTIONARYWDFLT
  2
AcDbDictionaryWithDefault
  3
AutoCAD 2000
 90
0
280
0
281
0
  0
CLASS
  1
ACDBPLACEHOLDER
  2
AcDbPlaceHolder
  3
AutoCAD 2000
 90
0
280
0
281
0
  0
CLASS
  1
LAYOUT
  2
AcDbLayout
  3
AutoCAD 2000
 90
0
280
0
281
0
  0
ENDSEC
  0
SECTION
  2
TABLES
  0
TABLE
  2
VPORT
  5
8
100
AcDbSymbolTable
 70
2
  0
VPORT
  5
1F4
100
AcDbSymbolTableRecord
100
AcDbViewportTableRecord
  2
*ACTIVE
 70
0
 10
0.0
 20
0.0
 11
1.0
 21
1.0
 12
148.5
 22
105.0
 13
0.0
 23
0.0
 14
1.0
 24
1.0
 15
0.0
 25
0.0
 16
0.0
 26
0.0
 36
1.0
 17
0.0
 27
0.0
 37
0.0
 40
210.0
 41
1.4142857143
 42
50.0
 43
0.0
 44
0.0
 50
0.0
 51
0.0
 71
0
 72
100
 73
1
 74
1
 75
0
 76
0
 77
0
 78
0
  0
ENDTAB
  0
TABLE
  2
LTYPE
  5
5
100
AcDbSymbolTable
 70
6
  0
LTYPE
  5
14
100
AcDbSymbolTableRecord
100
AcDbLinetypeTableRecord
  2
BYBLOCK
 70
0
  3

 72
65
 73
0
 40
0.0
  0
LTYPE
  5
15
100
AcDbSymbolTableRecord
100
AcDbLinetypeTableRecord
  2
BYLAYER
 70
0
  3

 72
65
 73
0
 40
0.0
  0
LTYPE
  5
16
100
AcDbSymbolTableRecord
100
AcDbLinetypeTableRecord
  2
CONTINUOUS
 70
64
  3
Solid line
 72
65
 73
0
 40
0.0
  0
LTYPE
  5
1F5
100
AcDbSymbolTableRecord
100
AcDbLinetypeTableRecord
  2
CENTER
 70
64
  3
____ _ ____ _ ____ _ ____ _ ____ _ ____ _ ____
 72
65
 73
4
 40
0.6
 49
0.375
 74
0
 49
-0.075
 74
0
 49
0.075
 74
0
 49
-0.075
 74
0
  0
LTYPE
  5
1F6
100
AcDbSymbolTableRecord
100
AcDbLinetypeTableRecord
  2
HIDDEN
 70
64
  3
- - - - - - - - - - - - - - - - - - - -
 72
65
 73
2
 40
0.2
 49
0.1
 74
0
 49
-0.1
 74
0
  0
LTYPE
  5
1F7
100
AcDbSymbolTableRecord
100
AcDbLinetypeTableRecord
  2
PHANTOM
 70
64
  3
_____ _ _ _____ _ _ _____ _ _ _____
 72
65
 73
6
 40
0.8
 49
0.45
 74
0
 49
-0.05
 74
0
 49
0.1
 74
0
 49
-0.05
 74
0
 49
0.1
 74
0
 49
-0.05
 74
0
  0
LTYPE
  5
1F8
100
AcDbSymbolTableRecord
100
AcDbLinetypeTableRecord
  2
DOT
 70
64
  3
. . . . . . . . . . . . . . . . . . . .
 72
65
 73
2
 40
0.2
 49
0.1
 74
0
 49
-0.1
 74
0
  0
LTYPE
  5
1F9
100
AcDbSymbolTableRecord
100
AcDbLinetypeTableRecord
  2
DASHED
 70
64
  3
- - - - - - - - - - - - - - - - - - - -
 72
65
 73
2
 40
0.2
 49
0.1
 74
0
 49
-0.1
 74
0
  0
ENDTAB
  0
TABLE
  2
LAYER
  5
2
100
AcDbSymbolTable
 70
36
  0
LAYER
  5
10
100
AcDbSymbolTableRecord
100
AcDbLayerTableRecord
  2
0
 70
0
 62
7
  6
CONTINUOUS
370
-3
390
F
  0
LAYER
  5
1FA
100
AcDbSymbolTableRecord
100
AcDbLayerTableRecord
  2
DEFAULT_1
 70
0
 62
7
  6
CENTER
370
-3
390
F
  0
LAYER
  5
1FB
100
AcDbSymbolTableRecord
100
AcDbLayerTableRecord
  2
DEFAULT_2
 70
0
 62
7
  6
HIDDEN
370
-3
390
F
  0
LAYER
  5
1FC
100
AcDbSymbolTableRecord
100
AcDbLayerTableRecord
  2
DEFAULT_3
 70
0
 62
7
  6
PHANTOM
370
-3
390
F
  0
LAYER
  5
1FD
100
AcDbSymbolTableRecord
100
AcDbLayerTableRecord
  2
43000491A0
 70
0
 62
7
  6
CONTINUOUS
370
-3
390
F
  0
LAYER
  5
1FE
100
AcDbSymbolTableRecord
100
AcDbLayerTableRecord
  2
ASM0001
 70
0
 62
7
  6
CONTINUOUS
370
-3
390
F
  0
LAYER
  5
1FF
100
AcDbSymbolTableRecord
100
AcDbLayerTableRecord
  2
ASSI
 70
0
 62
7
  6
CONTINUOUS
370
-3
390
F
  0
LAYER
  5
200
100
AcDbSymbolTableRecord
100
AcDbLayerTableRecord
  2
CN-MRT4P5_2SQV01-VIMAR_1600000
 70
0
 62
7
  6
CONTINUOUS
370
-3
390
F
  0
LAYER
  5
201
100
AcDbSymbolTableRecord
100
AcDbLayerTableRecord
  2
COLOR5
 70
0
 62
7
  6
CONTINUOUS
370
-3
390
F
  0
LAYER
  5
202
100
AcDbSymbolTableRecord
100
AcDbLayerTableRecord
  2
COLORE_MATERIALE
 70
0
 62
7
  6
CONTINUOUS
370
-3
390
F
  0
LAYER
  5
203
100
AcDbSymbolTableRecord
100
AcDbLayerTableRecord
  2
COORDINATE
 70
0
 62
7
  6
CONTINUOUS
370
-3
390
F
  0
LAYER
  5
204
100
AcDbSymbolTableRecord
100
AcDbLayerTableRecord
  2
COORD_ORIGINE
 70
0
 62
7
  6
CONTINUOUS
370
-3
390
F
  0
LAYER
  5
205
100
AcDbSymbolTableRecord
100
AcDbLayerTableRecord
  2
COPY_PUBLISH
 70
0
 62
7
  6
CONTINUOUS
370
-3
390
F
  0
LAYER
  5
206
100
AcDbSymbolTableRecord
100
AcDbLayerTableRecord
  2
COSMETIC
 70
0
 62
7
  6
CONTINUOUS
370
-3
390
F
  0
LAYER
  5
207
100
AcDbSymbolTableRecord
100
AcDbLayerTableRecord
  2
CURVE
 70
0
 62
7
  6
CONTINUOUS
370
-3
390
F
  0
LAYER
  5
208
100
AcDbSymbolTableRecord
100
AcDbLayerTableRecord
  2
DRAFT
 70
0
 62
7
  6
CONTINUOUS
370
-3
390
F
  0
LAYER
  5
209
100
AcDbSymbolTableRecord
100
AcDbLayerTableRecord
  2
IMPORT_IGES
 70
0
 62
7
  6
CONTINUOUS
370
-3
390
F
  0
LAYER
  5
20A
100
AcDbSymbolTableRecord
100
AcDbLayerTableRecord
  2
INCISIONI
 70
0
 62
7
  6
CONTINUOUS
370
-3
390
F
  0
LAYER
  5
20B
100
AcDbSymbolTableRecord
100
AcDbLayerTableRecord
  2
INTF_1
 70
0
 62
7
  6
CONTINUOUS
370
-3
390
F
  0
LAYER
  5
20C
100
AcDbSymbolTableRecord
100
AcDbLayerTableRecord
  2
INTF_11
 70
0
 62
7
  6
CONTINUOUS
370
-3
390
F
  0
LAYER
  5
20D
100
AcDbSymbolTableRecord
100
AcDbLayerTableRecord
  2
INTF_GREEN
 70
0
 62
7
  6
CONTINUOUS
370
-3
390
F
  0
LAYER
  5
20E
100
AcDbSymbolTableRecord
100
AcDbLayerTableRecord
  2
INTF_YELLOW
 70
0
 62
7
  6
CONTINUOUS
370
-3
390
F
  0
LAYER
  5
20F
100
AcDbSymbolTableRecord
100
AcDbLayerTableRecord
  2
NOTE
 70
0
 62
7
  6
CONTINUOUS
370
-3
390
F
  0
LAYER
  5
210
100
AcDbSymbolTableRecord
100
AcDbLayerTableRecord
  2
PIANI
 70
0
 62
7
  6
CONTINUOUS
370
-3
390
F
  0
LAYER
  5
211
100
AcDbSymbolTableRecord
100
AcDbLayerTableRecord
  2
PIANI_DI_RIFERIMENTO
 70
0
 62
7
  6
CONTINUOUS
370
-3
390
F
  0
LAYER
  5
212
100
AcDbSymbolTableRecord
100
AcDbLayerTableRecord
  2
PIANI_ORIGINE
 70
0
 62
7
  6
CONTINUOUS
370
-3
390
F
  0
LAYER
  5
213
100
AcDbSymbolTableRecord
100
AcDbLayerTableRecord
  2
PIANI_RIFERIMENTO
 70
0
 62
7
  6
CONTINUOUS
370
-3
390
F
  0
LAYER
  5
214
100
AcDbSymbolTableRecord
100
AcDbLayerTableRecord
  2
PTC-4X7_5X5_0-VIMAR_750000
 70
0
 62
7
  6
CONTINUOUS
370
-3
390
F
  0
LAYER
  5
215
100
AcDbSymbolTableRecord
100
AcDbLayerTableRecord
  2
PUBLISHED_GEOMETRY
 70
0
 62
7
  6
CONTINUOUS
370
-3
390
F
  0
LAYER
  5
216
100
AcDbSymbolTableRecord
100
AcDbLayerTableRecord
  2
PUNTI
 70
0
 62
7
  6
CONTINUOUS
370
-3
390
F
  0
LAYER
  5
217
100
AcDbSymbolTableRecord
100
AcDbLayerTableRecord
  2
RACCORDO
 70
0
 62
7
  6
CONTINUOUS
370
-3
390
F
  0
LAYER
  5
218
100
AcDbSymbolTableRecord
100
AcDbLayerTableRecord
  2
SMUSSO
 70
0
 62
7
  6
CONTINUOUS
370
-3
390
F
  0
LAYER
  5
219
100
AcDbSymbolTableRecord
100
AcDbLayerTableRecord
  2
SNAPLINE
 70
0
 62
7
  6
CONTINUOUS
370
-3
390
F
  0
LAYER
  5
21A
100
AcDbSymbolTableRecord
100
AcDbLayerTableRecord
  2
SUPERFICI
 70
0
 62
7
  6
CONTINUOUS
370
-3
390
F
  0
LAYER
  5
21B
100
AcDbSymbolTableRecord
100
AcDbLayerTableRecord
  2
TRASH
 70
0
 62
7
  6
CONTINUOUS
370
-3
390
F
  0
LAYER
  5
21C
100
AcDbSymbolTableRecord
100
AcDbLayerTableRecord
  2
XSEC_DATUMS
 70
0
 62
7
  6
CONTINUOUS
370
-3
390
F
  0
LAYER
  5
21D
100
AcDbSymbolTableRecord
100
AcDbLayerTableRecord
  2
___SHELL
 70
0
 62
7
  6
CONTINUOUS
370
-3
390
F
  0
ENDTAB
  0
TABLE
  2
STYLE
  5
3
100
AcDbSymbolTable
 70
1
  0
STYLE
  5
11
100
AcDbSymbolTableRecord
100
AcDbTextStyleTableRecord
  2
STANDARD
 70
0
 40
0.0
 41
0.8
 50
0.0
 71
0
 42
0.2
  3
txt
  4

  0
STYLE
  5
21E
100
AcDbSymbolTableRecord
100
AcDbTextStyleTableRecord
  2
TEXTSTYLE_1
 70
0
 40
0.0
 41
0.8
 50
0.0
 71
0
 42
0.2
  3
gdt
  4

  0
ENDTAB
  0
TABLE
  2
VIEW
  5
6
100
AcDbSymbolTable
 70
0
  0
ENDTAB
  0
TABLE
  2
UCS
  5
7
100
AcDbSymbolTable
 70
0
  0
ENDTAB
  0
TABLE
  2
APPID
  5
9
100
AcDbSymbolTable
 70
1
  0
APPID
  5
21F
100
AcDbSymbolTableRecord
100
AcDbRegAppTableRecord
  2
ACAD
 70
0
  0
ENDTAB
  0
TABLE
  2
BLOCK_RECORD
  5
1
100
AcDbSymbolTable
 70
0
  0
BLOCK_RECORD
  5
220
100
AcDbSymbolTableRecord
100
AcDbBlockTableRecord
  2
*Model_Space
  0
BLOCK_RECORD
  5
221
100
AcDbSymbolTableRecord
100
AcDbBlockTableRecord
  2
*Paper_Space
  0
ENDTAB
  0
TABLE
  2
DIMSTYLE
  5
A
100
AcDbSymbolTable
 70
1
100
AcDbDimStyleTable
 71
0
  0
DIMSTYLE
105
222
100
AcDbSymbolTableRecord
100
AcDbDimStyleTableRecord
  2
STANDARD
 70
0
  3

  4

 40
1.0
 41
3.0
 42
0.0625
 43
0.38
 44
0.18
 45
0.0
 46
0.0
 47
0.01
 48
0.01
140
3.0
141
0.09
142
0.0
143
25.4
144
1.0
145
0.0
146
1.0
147
0.09
 71
1.0
 72
0.0
 73
0
 74
0
 75
0
 76
0
 77
1
 78
8
170
0
171
2
172
0
173
0
174
0
175
0
176
0
177
0
178
0
270
2
271
2
272
2
273
2
274
2
275
0
280
0
281
0
282
0
283
1
284
8
285
0
286
0
287
3
288
0
340
11
  0
ENDTAB
  0
ENDSEC
  0
SECTION
  2
BLOCKS
  0
BLOCK
  5
20
100
AcDbEntity
  8
0
100
AcDbBlockBegin
  2
*Model_Space
 70
0
 10
0.0
 20
0.0
 30
0.0
  3
*Model_Space
  1

  0
ENDBLK
  5
21
100
AcDbEntity
  8
0
100
AcDbBlockEnd
  0
BLOCK
  5
1C
100
AcDbEntity
  8
0
100
AcDbBlockBegin
  2
*Paper_Space
 70
0
 10
0.0
 20
0.0
 30
0.0
  3
*Paper_Space
  1

  0
ENDBLK
  5
1D
100
AcDbEntity
  8
0
100
AcDbBlockEnd
  0
ENDSEC
  0
SECTION
  2
ENTITIES
  0
LINE
  5
223
100
AcDbEntity
  8
RACCORDO
100
AcDbLine
 62
7
  6
CONTINUOUS
 10
-12.554166814
 20
24.7459938027
 11
-14.137338509
 21
23.9337967554
  0
LINE
  5
224
100
AcDbEntity
  8
RACCORDO
100
AcDbLine
 62
253
  6
CONTINUOUS
 10
-12.4414962397
 20
24.7393328776
 11
-14.0242528428
 21
23.9273487803
  0
LINE
  5
225
100
AcDbEntity
  8
RACCORDO
100
AcDbLine
 62
7
  6
CONTINUOUS
 10
-12.5524284285
 20
24.7468630355
 11
-12.5541648403
 21
24.7459948153
  0
LINE
  5
226
100
AcDbEntity
  8
RACCORDO
100
AcDbLine
 62
7
  6
CONTINUOUS
 10
-12.0175584721
 20
25.0074151352
 11
-12.5524256629
 21
24.7468643827
  0
LINE
  5
227
100
AcDbEntity
  8
RACCORDO
100
AcDbLine
 62
253
  6
CONTINUOUS
 10
-11.907046361
 20
24.9996803442
 11
-12.4414962397
 21
24.7393328776
  0
LWPOLYLINE
  5
228
100
AcDbEntity
  8
RACCORDO
100
AcDbPolyline
 62
7
  6
CONTINUOUS
 90
37
 70
0
 10
-18.1591965598
 20
19.909955929
 10
-18.1908778377
 20
19.8909066662
 10
-18.2337702219
 20
19.8632501043
 10
-18.2758447754
 20
19.8339713365
 10
-18.3170848134
 20
19.8031306127
 10
-18.3574815203
 20
19.7707814691
 10
-18.3970209936
 20
19.736976138
 10
-18.4356889252
 20
19.7017662516
 10
-18.4734701553
 20
19.6652002687
 10
-18.510339578
 20
19.6273332508
 10
-18.5462803138
 20
19.5882130538
 10
-18.5812732995
 20
19.5478849968
 10
-18.6152850997
 20
19.5064114427
 10
-18.6482948868
 20
19.4638397899
 10
-18.6802807339
 20
19.4202147486
 10
-18.7112051214
 20
19.3756050473
 10
-18.7410444417
 20
19.3300581414
 10
-18.7697752388
 20
19.2836202597
 10
-18.7973585844
 20
19.2363641496
 10
-18.8237696726
 20
19.1883373345
 10
-18.848984132
 20
19.1395883008
 10
-18.8729624048
 20
19.090193307
 10
-18.8956797868
 20
19.0402008099
 10
-18.9171115293
 20
18.9896597763
 10
-18.9372195699
 20
18.9386474037
 10
-18.955980157
 20
18.8872120373
 10
-18.9733675777
 20
18.835402349
 10
-18.9893469857
 20
18.7832938853
 10
-19.0038945025
 20
18.7309337125
 10
-19.0169833427
 20
18.678368863
 10
-19.0285824081
 20
18.6256693823
 10
-19.0386657322
 20
18.5728815623
 10
-19.0472051579
 20
18.5200505406
 10
-19.0541709384
 20
18.467233776
 10
-19.0595328553
 20
18.4144754735
 10
-19.0632605021
 20
18.3618207554
 10
-19.0649008469
 20
18.3244134606
  0
LINE
  5
229
100
AcDbEntity
  8
RACCORDO
100
AcDbLine
 62
7
  6
CONTINUOUS
 10
-18.1592062761
 20
19.9099504912
 11
-13.5702314493
 21
22.5857431331
  0
LINE
  5
22A
100
AcDbEntity
  8
RACCORDO
100
AcDbLine
 62
253
  6
CONTINUOUS
 10
-13.5702314493
 20
22.4409089566
 11
-17.9258522285
 21
19.901183098
  0
LINE
  5
22B
100
AcDbEntity
  8
RACCORDO
100
AcDbLine
 62
253
  6
CONTINUOUS
 10
-11.0979873722
 20
24.0675784439
 11
-12.699268163
 21
23.2648564404
  0
LINE
  5
22C
100
AcDbEntity
  8
RACCORDO
100
AcDbLine
 62
253
  6
CONTINUOUS
 10
-10.9212136685
 20
23.7626889051
 11
-12.5224944594
 21
22.9599669016
  0
LINE
  5
22D
100
AcDbEntity
  8
RACCORDO
100
AcDbLine
 62
253
  6
CONTINUOUS
 10
-10.5697202005
 20
24.3310172639
 11
-11.0979873722
 21
24.0675784439
  0
LINE
  5
22E
100
AcDbEntity
  8
RACCORDO
100
AcDbLine
 62
253
  6
CONTINUOUS
 10
-10.3929464968
 20
24.0261277251
 11
-10.9212136685
 21
23.7626889051
  0
LINE
  5
22F
100
AcDbEntity
  8
RACCORDO
100
AcDbLine
 62
253
  6
CONTINUOUS
 10
-10.9212136685
 20
23.0356440526
 11
-10.3929464968
 21
23.6785962084
  0
LINE
  5
230
100
AcDbEntity
  8
RACCORDO
100
AcDbLine
 62
7
  6
CONTINUOUS
 10
-10.9212136685
 20
22.9461135863
 11
-10.3775859244
 21
23.6077610418
  0
LINE
  5
231
100
AcDbEntity
  8
RACCORDO
100
AcDbLine
 62
7
  6
CONTINUOUS
 10
-10.9212136685
 20
22.1605382441
 11
-11.8112738513
 21
21.6638573228
  0
LINE
  5
232
100
AcDbEntity
  8
RACCORDO
100
AcDbLine
 62
7
  6
CONTINUOUS
 10
-8.5523939502
 20
21.8304198308
 11
-8.198852561
 21
22.0117932556
  0
LINE
  5
233
100
AcDbEntity
  8
RACCORDO
100
AcDbLine
 62
7
  6
CONTINUOUS
 10
-3.1986306069
 20
25.3008422731
 11
-9.5131709335
 21
22.1560659686
  0
LINE
  5
234
100
AcDbEntity
  8
ASSI
100
AcDbLine
 62
7
  6
CONTINUOUS
 10
-2.2570987203
 20
24.3084715038
 11
-6.8553496767
 21
22.0421102063
  0
LINE
  5
235
100
AcDbEntity
  8
ASSI
100
AcDbLine
 62
7
  6
CONTINUOUS
 10
-8.198852561
 20
22.0117932556
 11
-2.862629155
 21
24.6112367211
  0
LINE
  5
236
100
AcDbEntity
  8
RACCORDO
100
AcDbLine
 62
7
  6
CONTINUOUS
 10
4.4643953282
 20
28.2362620213
 11
-2.2472970771
 21
25.0710464764
  0
LINE
  5
237
100
AcDbEntity
  8
RACCORDO
100
AcDbLine
 62
253
  6
CONTINUOUS
 10
4.9032800786
 20
28.2038590863
 11
-2.0009195041
 21
24.9478576898
  0
LINE
  5
238
100
AcDbEntity
  8
RACCORDO
100
AcDbLine
 62
253
  6
CONTINUOUS
 10
2.9713716676
 20
-24.3031670132
 11
2.4431044959
 21
-24.1946647362
  0
LINE
  5
239
100
AcDbEntity
  8
RACCORDO
100
AcDbLine
 62
253
  6
CONTINUOUS
 10
2.8819578723
 20
-23.9836002072
 11
2.4431044959
 21
-23.8934628805
  0
LWPOLYLINE
  5
23A
100
AcDbEntity
  8
RACCORDO
100
AcDbPolyline
 62
7
  6
CONTINUOUS
 90
24
 70
0
 10
-3.7001956713
 20
-25.6388374556
 10
-3.6773422941
 20
-25.6498620986
 10
-3.6449588519
 20
-25.6641412447
 10
-3.6118944956
 20
-25.6771746329
 10
-3.5781788252
 20
-25.6889352386
 10
-3.5438202493
 20
-25.6994025208
 10
-3.5088588218
 20
-25.708546257
 10
-3.4733375398
 20
-25.716338987
 10
-3.4372664777
 20
-25.7227607664
 10
-3.4006838748
 20
-25.7277851184
 10
-3.3636360642
 20
-25.7313872582
 10
-3.3261412489
 20
-25.733547536
 10
-3.288242344
 20
-25.7342443718
 10
-3.2499794961
 20
-25.733457801
 10
-3.2113613904
 20
-25.7311679458
 10
-3.1724285563
 20
-25.7273567157
 10
-3.1332195007
 20
-25.7220069163
 10
-3.0937338587
 20
-25.7150946558
 10
-3.0540044275
 20
-25.7066003875
 10
-3.0140699873
 20
-25.6965071227
 10
-2.9739325975
 20
-25.6847870212
 10
-2.9336155041
 20
-25.6714158165
 10
-2.8931689759
 20
-25.6563801867
 10
-2.8656182763
 20
-25.6451995766
  0
LINE
  5
23B
100
AcDbEntity
  8
RACCORDO
100
AcDbLine
 62
7
  6
CONTINUOUS
 10
-3.70010337
 20
-25.6388836171
 11
-18.5340020841
 21
-18.2219342601
  0
LINE
  5
23C
100
AcDbEntity
  8
RACCORDO
100
AcDbLine
 62
7
  6
CONTINUOUS
 10
-3.7001949274
 20
-25.6388378283
 11
-3.7001036966
 21
-25.6388834538
  0
LINE
  5
23D
100
AcDbEntity
  8
RACCORDO
100
AcDbLine
 62
253
  6
CONTINUOUS
 10
-4.0935721609
 20
-24.8782839643
 11
-18.9184182385
 21
-17.4658609255
  0
LINE
  5
23E
100
AcDbEntity
  8
RACCORDO
100
AcDbLine
 62
7
  6
CONTINUOUS
 10
-0.770709638
 20
-25.1739575746
 11
0.5542750418
 21
-25.8364499145
  0
LINE
  5
23F
100
AcDbEntity
  8
RACCORDO
100
AcDbLine
 62
253
  6
CONTINUOUS
 10
-0.8356829344
 20
-25.0387391245
 11
0.4893017454
 21
-25.7012314644
  0
LINE
  5
240
100
AcDbEntity
  8
0
100
AcDbLine
 62
7
  6
CONTINUOUS
 10
-3.2491050926
 20
22.0316175387
 11
-2.5419983115
 21
22.3851709293
  0
LINE
  5
241
100
AcDbEntity
  8
0
100
AcDbLine
 62
7
  6
CONTINUOUS
 10
-0.7906604144
 20
22.9072864873
 11
-2.1884449209
 21
22.208394234
  0
LINE
  5
242
100
AcDbEntity
  8
DRAFT
100
AcDbLine
 62
7
  6
CONTINUOUS
 10
-2.5419983115
 20
22.9377291187
 11
-2.2082226888
 21
23.1010494738
  0
LINE
  5
243
100
AcDbEntity
  8
RACCORDO
100
AcDbLine
 62
7
  6
CONTINUOUS
 10
-0.131664663
 20
23.7673593012
 11
-2.1884449209
 21
22.7609524234
  0
LINE
  5
244
100
AcDbEntity
  8
RACCORDO
100
AcDbLine
 62
7
  6
CONTINUOUS
 10
-2.396725915
 20
21.1707674043
 11
-2.4074224948
 21
21.1659777426
  0
LINE
  5
245
100
AcDbEntity
  8
RACCORDO
100
AcDbLine
 62
7
  6
CONTINUOUS
 10
-2.3855520114
 20
21.1756871784
 11
-2.396725915
 21
21.1707674043
  0
LINE
  5
246
100
AcDbEntity
  8
RACCORDO
100
AcDbLine
 62
7
  6
CONTINUOUS
 10
-2.3738592794
 20
21.1807374751
 11
-2.3855520114
 21
21.1756871784
  0
LINE
  5
247
100
AcDbEntity
  8
RACCORDO
100
AcDbLine
 62
253
  6
CONTINUOUS
 10
0.4893017454
 20
-25.3612575303
 11
-0.7331016249
 21
-24.7500558451
  0
LINE
  5
248
100
AcDbEntity
  8
RACCORDO
100
AcDbLine
 62
253
  6
CONTINUOUS
 10
0.5776900931
 20
-25.1295633565
 11
-0.4331445348
 21
-24.6241460425
  0
LINE
  5
249
100
AcDbEntity
  8
RACCORDO
100
AcDbLine
 62
7
  6
CONTINUOUS
 10
1.2005223535
 20
-24.3847610532
 11
0.7152193253
 21
-24.142109539
  0
LWPOLYLINE
  5
24A
100
AcDbEntity
  8
RACCORDO
100
AcDbPolyline
 62
7
  6
CONTINUOUS
 90
27
 70
0
 10
-19.0648818729
 20
-17.2882134603
 10
-19.0631185194
 20
-17.3263332875
 10
-19.0592082584
 20
-17.377401131
 10
-19.0535696955
 20
-17.4275522384
 10
-19.0462138673
 20
-17.476780498
 10
-19.0371588473
 20
-17.5250308077
 10
-19.0264375925
 20
-17.5721934749
 10
-19.0140717884
 20
-17.618245458
 10
-19.0000851371
 20
-17.6631535612
 10
-18.9845341711
 20
-17.7067951983
 10
-18.9674543479
 20
-17.7491433594
 10
-18.9488820755
 20
-17.7901707456
 10
-18.9289020888
 20
-17.8297583594
 10
-18.9075838021
 20
-17.8678532364
 10
-18.8849670851
 20
-17.9044630433
 10
-18.8611119325
 20
-17.9395588251
 10
-18.8361013437
 20
-17.9730892513
 10
-18.8099801121
 20
-18.0050640629
 10
-18.782750842
 20
-18.0355322622
 10
-18.7544771493
 20
-18.0644638092
 10
-18.7252209586
 20
-18.0918382435
 10
-18.6949723135
 20
-18.1176979743
 10
-18.6637948097
 20
-18.1420122747
 10
-18.6317506357
 20
-18.164756883
 10
-18.5988183981
 20
-18.1859649409
 10
-18.5650302716
 20
-18.2056232151
 10
-18.533879681
 20
-18.2219954412
  0
LWPOLYLINE
  5
24B
100
AcDbEntity
  8
RACCORDO
100
AcDbPolyline
 62
7
  6
CONTINUOUS
 90
22
 70
0
 10
-19.0649006615
 20
18.3244224912
 10
-19.1178558798
 20
16.613578701
 10
-19.1658984087
 20
14.8922252248
 10
-19.2086046933
 20
13.1734066584
 10
-19.2459739078
 20
11.4571526133
 10
-19.2780055122
 20
9.7434888094
 10
-19.3046990388
 20
8.0324393985
 10
-19.3260540275
 20
6.3240298028
 10
-19.3420701511
 20
4.6182864153
 10
-19.3527471226
 20
2.9152348518
 10
-19.3580846856
 20
1.214900913
 10
-19.3580827476
 20
-0.4826887989
 10
-19.352741267
 20
-2.177507467
 10
-19.3420602525
 20
-3.8695285428
 10
-19.3260398768
 20
-5.5587264478
 10
-19.3046803436
 20
-7.2450758216
 10
-19.2779818962
 20
-8.9285505652
 10
-19.2459449114
 20
-10.609125689
 10
-19.208569773
 20
-12.2867774874
 10
-19.1658569369
 20
-13.9614807649
 10
-19.1178071449
 20
-15.6332067266
 10
-19.0648820399
 20
-17.2882139639
  0
LINE
  5
24C
100
AcDbEntity
  8
DRAFT
100
AcDbLine
 62
7
  6
CONTINUOUS
 10
-3.3905264489
 20
20.4020611338
 11
-3.4793773417
 21
20.3541240388
  0
LINE
  5
24D
100
AcDbEntity
  8
DRAFT
100
AcDbLine
 62
7
  6
CONTINUOUS
 10
-3.2491050926
 20
20.5979185672
 11
-3.6042399975
 21
20.4165553667
  0
LINE
  5
24E
100
AcDbEntity
  8
ASSI
100
AcDbLine
 62
7
  6
CONTINUOUS
 10
2.692648748
 20
21.8335977696
 11
-1.9056022084
 21
19.5672364721
  0
LINE
  5
24F
100
AcDbEntity
  8
RACCORDO
100
AcDbLine
 62
7
  6
CONTINUOUS
 10
-2.5421460953
 20
21.1037454812
 11
-2.427377485
 21
21.1568610711
  0
LINE
  5
250
100
AcDbEntity
  8
RACCORDO
100
AcDbLine
 62
253
  6
CONTINUOUS
 10
-2.329920125
 20
21.0841935372
 11
-2.2466746768
 21
21.1226390438
  0
LINE
  5
251
100
AcDbEntity
  8
DRAFT
100
AcDbLine
 62
7
  6
CONTINUOUS
 10
-3.3148029725
 20
20.4370327446
 11
-3.3905264489
 21
20.4020611338
  0
LWPOLYLINE
  5
252
100
AcDbEntity
  8
RACCORDO
100
AcDbPolyline
 62
7
  6
CONTINUOUS
 90
3
 70
0
 10
-2.4074224948
 20
21.1659777426
 10
-2.4125967146
 20
21.1636348892
 10
-2.427377485
 20
21.1568610711
  0
LINE
  5
253
100
AcDbEntity
  8
RACCORDO
100
AcDbLine
 62
253
  6
CONTINUOUS
 10
2.4431044959
 20
-23.764173519
 11
2.8819578723
 21
-23.9836002072
  0
LINE
  5
254
100
AcDbEntity
  8
RACCORDO
100
AcDbLine
 62
7
  6
CONTINUOUS
 10
2.4431044959
 20
-23.7605533695
 11
2.9053729235
 21
-23.9916875833
  0
LINE
  5
255
100
AcDbEntity
  8
RACCORDO
100
AcDbLine
 62
7
  6
CONTINUOUS
 10
-3.4350408614
 20
20.3319557986
 11
-2.5801481836
 21
21.0790540097
  0
LINE
  5
256
100
AcDbEntity
  8
RACCORDO
100
AcDbLine
 62
253
  6
CONTINUOUS
 10
-3.2812055833
 20
20.2550381595
 11
-2.3315193525
 21
21.0849772882
  0
LINE
  5
257
100
AcDbEntity
  8
RACCORDO
100
AcDbLine
 62
7
  6
CONTINUOUS
 10
-1.9763128865
 20
17.6880878531
 11
-2.3339920358
 21
17.4884919012
  0
LINE
  5
258
100
AcDbEntity
  8
RACCORDO
100
AcDbLine
 62
7
  6
CONTINUOUS
 10
-2.3339920358
 20
18.7212188736
 11
-1.9763128865
 21
18.9005234184
  0
LINE
  5
259
100
AcDbEntity
  8
RACCORDO
100
AcDbLine
 62
7
  6
CONTINUOUS
 10
0.8118897359
 20
18.0647039533
 11
0.8101533241
 21
18.0638357331
  0
LINE
  5
25A
100
AcDbEntity
  8
ASSI
100
AcDbLine
 62
7
  6
CONTINUOUS
 10
-1.9763128865
 20
18.9005234184
 11
3.2981791826
 21
21.5308325523
  0
LINE
  5
25B
100
AcDbEntity
  8
DRAFT
100
AcDbLine
 62
7
  6
CONTINUOUS
 10
-1.9763128865
 20
17.6880878531
 11
3.3485211837
 21
20.324419285
  0
LINE
  5
25C
100
AcDbEntity
  8
RACCORDO
100
AcDbLine
 62
7
  6
CONTINUOUS
 10
4.1109760241
 20
21.6460389576
 11
3.4721152476
 21
21.3334368325
  0
LINE
  5
25D
100
AcDbEntity
  8
RACCORDO
100
AcDbLine
 62
7
  6
CONTINUOUS
 10
1.3467596923
 20
18.325256053
 11
0.8118925015
 21
18.0647053005
  0
LINE
  5
25E
100
AcDbEntity
  8
RACCORDO
100
AcDbLine
 62
253
  6
CONTINUOUS
 10
1.4572718034
 20
18.317521262
 11
0.9228219247
 21
18.0571737954
  0
LINE
  5
25F
100
AcDbEntity
  8
RACCORDO
100
AcDbLine
 62
7
  6
CONTINUOUS
 10
-14.2732244035
 20
23.711360313
 11
-14.2732244035
 21
23.3713863788
  0
LINE
  5
260
100
AcDbEntity
  8
RACCORDO
100
AcDbLine
 62
253
  6
CONTINUOUS
 10
-14.2000010988
 20
23.6229719653
 11
-14.2000010988
 21
23.2829980312
  0
LINE
  5
261
100
AcDbEntity
  8
RACCORDO
100
AcDbLine
 62
7
  6
CONTINUOUS
 10
-13.5702314493
 20
22.8653814045
 11
-13.5702314493
 21
22.4114243099
  0
LINE
  5
262
100
AcDbEntity
  8
RACCORDO
100
AcDbLine
 62
253
  6
CONTINUOUS
 10
-13.4970081445
 20
22.8287697522
 11
-13.4970081445
 21
22.319695608
  0
LINE
  5
263
100
AcDbEntity
  8
RACCORDO
100
AcDbLine
 62
7
  6
CONTINUOUS
 10
0.8101513504
 20
18.0638347205
 11
-0.7730203446
 21
17.2516376732
  0
LINE
  5
264
100
AcDbEntity
  8
RACCORDO
100
AcDbLine
 62
253
  6
CONTINUOUS
 10
0.9228219247
 20
18.0571737954
 11
-0.6599346784
 21
17.2451896981
  0
LINE
  5
265
100
AcDbEntity
  8
RACCORDO
100
AcDbLine
 62
253
  6
CONTINUOUS
 10
2.2663307922
 20
17.3854193617
 11
0.6650500014
 21
16.5826973582
  0
LINE
  5
266
100
AcDbEntity
  8
RACCORDO
100
AcDbLine
 62
253
  6
CONTINUOUS
 10
2.4431044959
 20
17.0805298229
 11
0.8418237051
 21
16.2778078194
  0
LINE
  5
267
100
AcDbEntity
  8
RACCORDO
100
AcDbLine
 62
253
  6
CONTINUOUS
 10
2.794597964
 20
17.6488581817
 11
2.2663307922
 21
17.3854193617
  0
LINE
  5
268
100
AcDbEntity
  8
RACCORDO
100
AcDbLine
 62
253
  6
CONTINUOUS
 10
2.9713716676
 20
17.3439686429
 11
2.4431044959
 21
17.0805298229
  0
LINE
  5
269
100
AcDbEntity
  8
RACCORDO
100
AcDbLine
 62
7
  6
CONTINUOUS
 10
7.177941968
 20
20.1125559856
 11
2.4944050885
 21
17.8609319903
  0
LINE
  5
26A
100
AcDbEntity
  8
RACCORDO
100
AcDbLine
 62
253
  6
CONTINUOUS
 10
-12.875016419
 20
22.6205056913
 11
-12.875016419
 21
22.9604796254
  0
LINE
  5
26B
100
AcDbEntity
  8
RACCORDO
100
AcDbLine
 62
253
  6
CONTINUOUS
 10
-12.5224944594
 20
22.6199929674
 11
-12.5224944594
 21
22.9599669016
  0
LINE
  5
26C
100
AcDbEntity
  8
RACCORDO
100
AcDbLine
 62
253
  6
CONTINUOUS
 10
-12.1637958109
 20
22.3419100641
 11
-12.1637958109
 21
21.6530894412
  0
LINE
  5
26D
100
AcDbEntity
  8
RACCORDO
100
AcDbLine
 62
253
  6
CONTINUOUS
 10
-11.8112738513
 20
22.4714894446
 11
-11.8112738513
 21
21.6638573228
  0
LINE
  5
26E
100
AcDbEntity
  8
RACCORDO
100
AcDbLine
 62
253
  6
CONTINUOUS
 10
-3.0776337677
 20
12.4770738676
 11
1.4413973707
 21
14.9441457959
  0
LINE
  5
26F
100
AcDbEntity
  8
RACCORDO
100
AcDbLine
 62
253
  6
CONTINUOUS
 10
2.7858882448
 20
14.8754215917
 11
-2.7118010277
 21
11.8740714219
  0
LINE
  5
270
100
AcDbEntity
  8
RACCORDO
100
AcDbLine
 62
7
  6
CONTINUOUS
 10
8.0594774266
 20
19.3786977943
 11
2.5679340984
 21
16.4158841834
  0
LINE
  5
271
100
AcDbEntity
  8
DRAFT
100
AcDbLine
 62
7
  6
CONTINUOUS
 10
8.0594774266
 20
18.8738101481
 11
2.7086733301
 21
16.0451438368
  0
LINE
  5
272
100
AcDbEntity
  8
DRAFT
100
AcDbLine
 62
7
  6
CONTINUOUS
 10
3.1438960796
 20
15.827532462
 11
8.7385808945
 21
18.7664761798
  0
LINE
  5
273
100
AcDbEntity
  8
RACCORDO
100
AcDbLine
 62
253
  6
CONTINUOUS
 10
9.4841078302
 20
17.480632421
 11
18.0388332633
 21
21.6360824939
  0
LINE
  5
274
100
AcDbEntity
  8
RACCORDO
100
AcDbLine
 62
253
  6
CONTINUOUS
 10
3.1501035669
 20
15.8244287183
 11
2.4431044959
 21
15.4904850859
  0
LINE
  5
275
100
AcDbEntity
  8
RACCORDO
100
AcDbLine
 62
253
  6
CONTINUOUS
 10
3.5037646677
 20
15.2145030277
 11
2.7858882448
 21
14.8754215917
  0
LINE
  5
276
100
AcDbEntity
  8
RACCORDO
100
AcDbLine
 62
7
  6
CONTINUOUS
 10
-10.9212136685
 20
22.1605382441
 11
-10.9212136685
 21
23.7626889051
  0
LINE
  5
277
100
AcDbEntity
  8
RACCORDO
100
AcDbLine
 62
253
  6
CONTINUOUS
 10
-10.3929464968
 20
24.0261277251
 11
-10.3929464968
 21
23.6785962084
  0
LINE
  5
278
100
AcDbEntity
  8
RACCORDO
100
AcDbLine
 62
7
  6
CONTINUOUS
 10
-10.3207486398
 20
24.1140003573
 11
-10.3207486398
 21
23.7664688405
  0
LINE
  5
279
100
AcDbEntity
  8
RACCORDO
100
AcDbLine
 62
253
  6
CONTINUOUS
 10
18.6644558226
 20
20.9157080262
 11
3.5037646677
 21
13.2026609864
  0
LINE
  5
27A
100
AcDbEntity
  8
RACCORDO
100
AcDbLine
 62
253
  6
CONTINUOUS
 10
9.821776164
 20
16.8982406939
 11
18.5387571109
 21
21.1325062346
  0
LINE
  5
27B
100
AcDbEntity
  8
RACCORDO
100
AcDbLine
 62
7
  6
CONTINUOUS
 10
-8.6967896642
 20
21.6462628296
 11
-8.6967896642
 21
20.4060737969
  0
LINE
  5
27C
100
AcDbEntity
  8
RACCORDO
100
AcDbLine
 62
253
  6
CONTINUOUS
 10
-8.5503430548
 20
21.3031929986
 11
-8.5503430548
 21
20.2226096878
  0
LINE
  5
27D
100
AcDbEntity
  8
RACCORDO
100
AcDbLine
 62
253
  6
CONTINUOUS
 10
2.4431044959
 20
16.3534849704
 11
2.9713716676
 21
16.9964371261
  0
LINE
  5
27E
100
AcDbEntity
  8
RACCORDO
100
AcDbLine
 62
7
  6
CONTINUOUS
 10
2.4431044959
 20
16.2639545041
 11
3.0424646977
 21
16.9934337419
  0
LINE
  5
27F
100
AcDbEntity
  8
DRAFT
100
AcDbLine
 62
7
  6
CONTINUOUS
 10
-13.7182092964
 20
0.5463893798
 11
-13.4658426171
 21
0.6760743801
  0
LINE
  5
280
100
AcDbEntity
  8
RACCORDO
100
AcDbLine
 62
253
  6
CONTINUOUS
 10
19.0786077502
 20
19.4840699145
 11
3.5037646677
 21
11.5603271166
  0
LINE
  5
281
100
AcDbEntity
  8
ASSI
100
AcDbLine
 62
253
  6
CONTINUOUS
 10
14.5505152316
 20
-12.8332250534
 11
13.7117298479
 21
-12.4138323616
  0
LINE
  5
282
100
AcDbEntity
  8
DRAFT
100
AcDbLine
 62
253
  6
CONTINUOUS
 10
-3.2491050926
 20
22.0316175387
 11
-3.2491050926
 21
20.5979185672
  0
LINE
  5
283
100
AcDbEntity
  8
RACCORDO
100
AcDbLine
 62
253
  6
CONTINUOUS
 10
-3.0390359551
 20
17.466956138
 11
-3.0390359551
 21
18.5475394488
  0
LINE
  5
284
100
AcDbEntity
  8
DRAFT
100
AcDbLine
 62
7
  6
CONTINUOUS
 10
-2.5419983115
 20
22.3851709293
 11
-2.5419983115
 21
22.9377291187
  0
LINE
  5
285
100
AcDbEntity
  8
RACCORDO
100
AcDbLine
 62
253
  6
CONTINUOUS
 10
-2.3339920358
 20
17.4884919012
 11
-2.3339920358
 21
18.7212188736
  0
LINE
  5
286
100
AcDbEntity
  8
ASSI
100
AcDbLine
 62
253
  6
CONTINUOUS
 10
-2.2082226888
 20
23.1010494738
 11
-2.2082226888
 21
24.3284000709
  0
LINE
  5
287
100
AcDbEntity
  8
DRAFT
100
AcDbLine
 62
7
  6
CONTINUOUS
 10
-2.1884449209
 20
22.208394234
 11
-2.1884449209
 21
22.7609524234
  0
LINE
  5
288
100
AcDbEntity
  8
ASSI
100
AcDbLine
 62
7
  6
CONTINUOUS
 10
-2.0828731816
 20
23.2500776322
 11
-2.0828731816
 21
24.3377116899
  0
LINE
  5
289
100
AcDbEntity
  8
RACCORDO
100
AcDbLine
 62
253
  6
CONTINUOUS
 10
16.9414303967
 20
-10.7705487838
 11
14.8528285057
 21
-9.7262478383
  0
LINE
  5
28A
100
AcDbEntity
  8
DRAFT
100
AcDbLine
 62
7
  6
CONTINUOUS
 10
-1.9763128865
 20
18.9005234184
 11
-1.9763128865
 21
17.6880878531
  0
LINE
  5
28B
100
AcDbEntity
  8
DRAFT
100
AcDbLine
 62
253
  6
CONTINUOUS
 10
-1.8348915303
 20
22.0316175387
 11
-1.8348915303
 21
21.2983864747
  0
LINE
  5
28C
100
AcDbEntity
  8
RACCORDO
100
AcDbLine
 62
7
  6
CONTINUOUS
 10
-0.9089062391
 20
17.0292012308
 11
-0.9089062391
 21
16.6892272966
  0
LINE
  5
28D
100
AcDbEntity
  8
RACCORDO
100
AcDbLine
 62
7
  6
CONTINUOUS
 10
-0.9089062391
 20
-24.8238514812
 11
-0.9089062391
 21
-24.9503507769
  0
LINE
  5
28E
100
AcDbEntity
  8
RACCORDO
100
AcDbLine
 62
253
  6
CONTINUOUS
 10
-0.8356829344
 20
16.9408128831
 11
-0.8356829344
 21
16.600838949
  0
LINE
  5
28F
100
AcDbEntity
  8
RACCORDO
100
AcDbLine
 62
253
  6
CONTINUOUS
 10
-0.8356829344
 20
-24.7931153121
 11
-0.8356829344
 21
-25.0387391245
  0
LINE
  5
290
100
AcDbEntity
  8
RACCORDO
100
AcDbLine
 62
7
  6
CONTINUOUS
 10
-0.2059132848
 20
15.7292501294
 11
-0.2059132848
 21
16.1832223223
  0
LINE
  5
291
100
AcDbEntity
  8
RACCORDO
100
AcDbLine
 62
253
  6
CONTINUOUS
 10
-0.1326899801
 20
15.6375365258
 11
-0.1326899801
 21
16.14661067
  0
LINE
  5
292
100
AcDbEntity
  8
RACCORDO
100
AcDbLine
 62
253
  6
CONTINUOUS
 10
17.4074066681
 20
-10.5334583344
 11
14.8528285057
 21
-9.2561692532
  0
LINE
  5
293
100
AcDbEntity
  8
ASSI
100
AcDbLine
 62
253
  6
CONTINUOUS
 10
14.5505152316
 20
-8.5030980345
 11
13.7117298479
 21
-8.0837053426
  0
LINE
  5
294
100
AcDbEntity
  8
ASSI
100
AcDbLine
 62
7
  6
CONTINUOUS
 10
19.0663747311
 20
-9.7878539442
 11
18.7772711413
 21
-9.6433021494
  0
LINE
  5
295
100
AcDbEntity
  8
RACCORDO
100
AcDbLine
 62
253
  6
CONTINUOUS
 10
0.4893017454
 20
-25.7012314644
 11
0.4893017454
 21
-25.3612575303
  0
LINE
  5
296
100
AcDbEntity
  8
RACCORDO
100
AcDbLine
 62
253
  6
CONTINUOUS
 10
0.4893017454
 20
15.9383466091
 11
0.4893017454
 21
16.2783205432
  0
LINE
  5
297
100
AcDbEntity
  8
RACCORDO
100
AcDbLine
 62
7
  6
CONTINUOUS
 10
0.5692715258
 20
23.2518349674
 11
0.5692715258
 21
22.9810346747
  0
LINE
  5
298
100
AcDbEntity
  8
RACCORDO
100
AcDbLine
 62
253
  6
CONTINUOUS
 10
0.8418237051
 20
-25.7017441883
 11
0.8418237051
 21
-25.3617702542
  0
LINE
  5
299
100
AcDbEntity
  8
RACCORDO
100
AcDbLine
 62
253
  6
CONTINUOUS
 10
0.8418237051
 20
15.9378338852
 11
0.8418237051
 21
16.2778078194
  0
LINE
  5
29A
100
AcDbEntity
  8
RACCORDO
100
AcDbLine
 62
253
  6
CONTINUOUS
 10
1.2005223535
 20
-24.3847610532
 11
1.2005223535
 21
-23.9383990401
  0
LINE
  5
29B
100
AcDbEntity
  8
RACCORDO
100
AcDbLine
 62
253
  6
CONTINUOUS
 10
1.2005223535
 20
14.970930359
 11
1.2005223535
 21
15.6597509819
  0
LINE
  5
29C
100
AcDbEntity
  8
RACCORDO
100
AcDbLine
 62
253
  6
CONTINUOUS
 10
1.5530443132
 20
-24.510273777
 11
1.5530443132
 21
-23.7904246404
  0
LINE
  5
29D
100
AcDbEntity
  8
RACCORDO
100
AcDbLine
 62
253
  6
CONTINUOUS
 10
1.5530443132
 20
14.9808295384
 11
1.5530443132
 21
15.7893303624
  0
LINE
  5
29E
100
AcDbEntity
  8
RACCORDO
100
AcDbLine
 62
7
  6
CONTINUOUS
 10
2.4431044959
 20
-23.4168135287
 11
2.4431044959
 21
-24.9217095886
  0
LINE
  5
29F
100
AcDbEntity
  8
RACCORDO
100
AcDbLine
 62
7
  6
CONTINUOUS
 10
2.4431044959
 20
15.4781106663
 11
2.4431044959
 21
17.0805298229
  0
LINE
  5
2A0
100
AcDbEntity
  8
DRAFT
100
AcDbLine
 62
7
  6
CONTINUOUS
 10
-9.7046501451
 20
-7.4807289229
 11
-9.4493270554
 21
-7.3565711669
  0
LINE
  5
2A1
100
AcDbEntity
  8
RACCORDO
100
AcDbLine
 62
253
  6
CONTINUOUS
 10
2.9713716676
 20
17.3439686429
 11
2.9713716676
 21
16.9964371261
  0
LINE
  5
2A2
100
AcDbEntity
  8
RACCORDO
100
AcDbLine
 62
253
  6
CONTINUOUS
 10
2.9713716676
 20
-24.3031670132
 11
2.9713716676
 21
-24.65069853
  0
LINE
  5
2A3
100
AcDbEntity
  8
RACCORDO
100
AcDbLine
 62
7
  6
CONTINUOUS
 10
3.0435695246
 20
17.4318412751
 11
3.0435695246
 21
16.9965967961
  0
LINE
  5
2A4
100
AcDbEntity
  8
RACCORDO
100
AcDbLine
 62
7
  6
CONTINUOUS
 10
3.0435695246
 20
-24.2152943811
 11
3.0435695246
 21
-24.5628258978
  0
LINE
  5
2A5
100
AcDbEntity
  8
ASSI
100
AcDbLine
 62
253
  6
CONTINUOUS
 10
3.3485211837
 20
20.324419285
 11
3.3485211837
 21
21.5514692523
  0
LINE
  5
2A6
100
AcDbEntity
  8
ASSI
100
AcDbLine
 62
7
  6
CONTINUOUS
 10
3.4721152476
 20
20.4725829058
 11
3.4721152476
 21
21.5602593949
  0
LINE
  5
2A7
100
AcDbEntity
  8
RACCORDO
100
AcDbLine
 62
7
  6
CONTINUOUS
 10
3.5037646677
 20
-22.7021294029
 11
3.5037646677
 21
15.2145030277
  0
LINE
  5
2A8
100
AcDbEntity
  8
ASSI
100
AcDbLine
 62
7
  6
CONTINUOUS
 10
19.0663747311
 20
-5.4577269253
 11
18.7772711413
 21
-5.3131751304
  0
LINE
  5
2A9
100
AcDbEntity
  8
DRAFT
100
AcDbLine
 62
253
  6
CONTINUOUS
 10
8.0594774266
 20
19.3786977943
 11
8.0594774266
 21
18.8738101481
  0
LINE
  5
2AA
100
AcDbEntity
  8
DRAFT
100
AcDbLine
 62
253
  6
CONTINUOUS
 10
8.0594774266
 20
-17.703522981
 11
8.0594774266
 21
-17.9746673709
  0
LINE
  5
2AB
100
AcDbEntity
  8
RACCORDO
100
AcDbLine
 62
7
  6
CONTINUOUS
 10
8.1998075264
 20
19.679202303
 11
8.1998075264
 21
19.0500742437
  0
LINE
  5
2AC
100
AcDbEntity
  8
RACCORDO
100
AcDbLine
 62
7
  6
CONTINUOUS
 10
8.1998075264
 20
-17.6298061804
 11
8.1998075264
 21
-17.9278426944
  0
LINE
  5
2AD
100
AcDbEntity
  8
RACCORDO
100
AcDbLine
 62
253
  6
CONTINUOUS
 10
-4.0935721609
 20
10.7369559033
 11
-18.9184182385
 21
18.1493789421
  0
LINE
  5
2AE
100
AcDbEntity
  8
ASSI
100
AcDbLine
 62
7
  6
CONTINUOUS
 10
19.0786077502
 20
-2.5213028052
 11
14.5505152316
 21
-4.8657913386
  0
LINE
  5
2AF
100
AcDbEntity
  8
RACCORDO
100
AcDbLine
 62
253
  6
CONTINUOUS
 10
-3.0776337677
 20
12.4770738676
 11
-17.9258522285
 21
19.901183098
  0
LINE
  5
2B0
100
AcDbEntity
  8
ASSI
100
AcDbLine
 62
7
  6
CONTINUOUS
 10
17.6388062119
 20
-6.0855943723
 11
13.7117298479
 21
-8.0837053426
  0
LINE
  5
2B1
100
AcDbEntity
  8
ASSI
100
AcDbLine
 62
7
  6
CONTINUOUS
 10
17.6457119449
 20
-5.8789547286
 11
18.7772711413
 21
-5.3131751304
  0
LINE
  5
2B2
100
AcDbEntity
  8
RACCORDO
100
AcDbLine
 62
7
  6
CONTINUOUS
 10
1.2005223535
 20
14.970930359
 11
-0.1326899801
 21
15.6375365258
  0
LINE
  5
2B3
100
AcDbEntity
  8
RACCORDO
100
AcDbLine
 62
7
  6
CONTINUOUS
 10
-12.1637958109
 20
21.6530894412
 11
-13.4970081445
 21
22.319695608
  0
LINE
  5
2B4
100
AcDbEntity
  8
0
100
AcDbLine
 62
7
  6
CONTINUOUS
 10
14.8528285057
 20
-4.7092640588
 11
14.8528285057
 21
-7.5031101275
  0
LINE
  5
2B5
100
AcDbEntity
  8
0
100
AcDbLine
 62
7
  6
CONTINUOUS
 10
14.8528285057
 20
-9.0393910777
 11
14.8528285057
 21
-11.2527727786
  0
LINE
  5
2B6
100
AcDbEntity
  8
ASSI
100
AcDbLine
 62
7
  6
CONTINUOUS
 10
19.0786077502
 20
-6.1586095011
 11
14.5505152316
 21
-8.5030980345
  0
LINE
  5
2B7
100
AcDbEntity
  8
ASSI
100
AcDbLine
 62
7
  6
CONTINUOUS
 10
19.0786077502
 20
-6.8514298242
 11
14.5505152316
 21
-9.1959183575
  0
LINE
  5
2B8
100
AcDbEntity
  8
RACCORDO
100
AcDbLine
 62
7
  6
CONTINUOUS
 10
0.6149802116
 20
15.7820127244
 11
1.239385461
 21
15.651636329
  0
LINE
  5
2B9
100
AcDbEntity
  8
RACCORDO
100
AcDbLine
 62
253
  6
CONTINUOUS
 10
0.8418237051
 20
15.9378338852
 11
1.5530443132
 21
15.7893303624
  0
LINE
  5
2BA
100
AcDbEntity
  8
RACCORDO
100
AcDbLine
 62
7
  6
CONTINUOUS
 10
-8.5503430548
 20
20.2226096878
 11
-3.0390359551
 21
17.466956138
  0
LINE
  5
2BB
100
AcDbEntity
  8
RACCORDO
100
AcDbLine
 62
7
  6
CONTINUOUS
 10
-14.1350278024
 20
23.1477795811
 11
-12.8100431226
 21
22.4852872412
  0
LINE
  5
2BC
100
AcDbEntity
  8
RACCORDO
100
AcDbLine
 62
7
  6
CONTINUOUS
 10
-0.770709638
 20
16.4656204989
 11
0.5542750418
 21
15.803128159
  0
LINE
  5
2BD
100
AcDbEntity
  8
RACCORDO
100
AcDbLine
 62
253
  6
CONTINUOUS
 10
-14.2000010988
 20
23.2829980312
 11
-12.875016419
 21
22.6205056913
  0
LINE
  5
2BE
100
AcDbEntity
  8
RACCORDO
100
AcDbLine
 62
253
  6
CONTINUOUS
 10
-0.8356829344
 20
16.600838949
 11
0.4893017454
 21
15.9383466091
  0
LINE
  5
2BF
100
AcDbEntity
  8
RACCORDO
100
AcDbLine
 62
253
  6
CONTINUOUS
 10
0.4893017454
 20
16.2783205432
 11
-0.8356829344
 21
16.9408128831
  0
LINE
  5
2C0
100
AcDbEntity
  8
RACCORDO
100
AcDbLine
 62
253
  6
CONTINUOUS
 10
-12.875016419
 20
22.9604796254
 11
-14.2000010988
 21
23.6229719653
  0
LINE
  5
2C1
100
AcDbEntity
  8
DRAFT
100
AcDbLine
 62
7
  6
CONTINUOUS
 10
-10.9212136685
 20
22.1605382441
 11
-8.6967896642
 21
21.0483262419
  0
LINE
  5
2C2
100
AcDbEntity
  8
DRAFT
100
AcDbLine
 62
7
  6
CONTINUOUS
 10
-1.9763128865
 20
17.6880878531
 11
-0.8823722861
 21
17.1411175529
  0
LINE
  5
2C3
100
AcDbEntity
  8
RACCORDO
100
AcDbLine
 62
253
  6
CONTINUOUS
 10
0.6650500014
 20
16.5826973582
 11
-0.6599346784
 21
17.2451896981
  0
LINE
  5
2C4
100
AcDbEntity
  8
RACCORDO
100
AcDbLine
 62
253
  6
CONTINUOUS
 10
-12.699268163
 20
23.2648564404
 11
-14.0242528428
 21
23.9273487803
  0
LINE
  5
2C5
100
AcDbEntity
  8
RACCORDO
100
AcDbLine
 62
253
  6
CONTINUOUS
 10
-3.0390359551
 20
18.5475394488
 11
-8.5503430548
 21
21.3031929986
  0
LINE
  5
2C6
100
AcDbEntity
  8
RACCORDO
100
AcDbLine
 62
253
  6
CONTINUOUS
 10
-2.6162135753
 20
18.6499290132
 11
-8.691968225
 21
21.6878063381
  0
LINE
  5
2C7
100
AcDbEntity
  8
RACCORDO
100
AcDbLine
 62
7
  6
CONTINUOUS
 10
-10.9212136685
 20
22.8600873361
 11
-9.5131709335
 21
22.1560659686
  0
LINE
  5
2C8
100
AcDbEntity
  8
RACCORDO
100
AcDbLine
 62
7
  6
CONTINUOUS
 10
2.4431044959
 20
16.1779282539
 11
3.1501035669
 21
15.8244287183
  0
LINE
  5
2C9
100
AcDbEntity
  8
DRAFT
100
AcDbLine
 62
7
  6
CONTINUOUS
 10
-8.198852561
 20
22.0117932556
 11
-1.9763128865
 21
18.9005234184
  0
LINE
  5
2CA
100
AcDbEntity
  8
RACCORDO
100
AcDbLine
 62
253
  6
CONTINUOUS
 10
17.6369631115
 20
-3.2677361678
 11
17.6369631115
 21
-6.0865321485
  0
LINE
  5
2CB
100
AcDbEntity
  8
RACCORDO
100
AcDbLine
 62
253
  6
CONTINUOUS
 10
17.6369631115
 20
-7.5978631867
 11
17.6369631115
 21
-10.4166591675
  0
LINE
  5
2CC
100
AcDbEntity
  8
ASSI
100
AcDbLine
 62
7
  6
CONTINUOUS
 10
17.6457119449
 20
-3.2632063267
 11
17.6457119449
 21
-5.8789547286
  0
LINE
  5
2CD
100
AcDbEntity
  8
ASSI
100
AcDbLine
 62
7
  6
CONTINUOUS
 10
17.6457119449
 20
-7.5933333456
 11
17.6457119449
 21
-10.2090817476
  0
LINE
  5
2CE
100
AcDbEntity
  8
RACCORDO
100
AcDbLine
 62
253
  6
CONTINUOUS
 10
1.2000081252
 20
-24.384503939
 11
0.5776900931
 21
-25.1295633565
  0
LINE
  5
2CF
100
AcDbEntity
  8
RACCORDO
100
AcDbLine
 62
253
  6
CONTINUOUS
 10
1.5530443132
 20
-24.510273777
 11
0.8418237051
 21
-25.3617702542
  0
LINE
  5
2D0
100
AcDbEntity
  8
RACCORDO
100
AcDbLine
 62
253
  6
CONTINUOUS
 10
3.5037646677
 20
-19.0479534918
 11
19.0786077502
 21
-10.8434741451
  0
LINE
  5
2D1
100
AcDbEntity
  8
ASSI
100
AcDbLine
 62
7
  6
CONTINUOUS
 10
19.0786077502
 20
-10.4887365201
 11
14.5505152316
 21
-12.8332250534
  0
LINE
  5
2D2
100
AcDbEntity
  8
ASSI
100
AcDbLine
 62
7
  6
CONTINUOUS
 10
17.6388062119
 20
-10.4157213912
 11
13.7117298479
 21
-12.4138323616
  0
LINE
  5
2D3
100
AcDbEntity
  8
0
100
AcDbLine
 62
7
  6
CONTINUOUS
 10
14.8528285057
 20
-11.2527727786
 11
13.121075229
 21
-12.118649417
  0
LINE
  5
2D4
100
AcDbEntity
  8
ASSI
100
AcDbLine
 62
7
  6
CONTINUOUS
 10
17.6457119449
 20
-10.2090817476
 11
18.7772711413
 21
-9.6433021494
  0
LWPOLYLINE
  5
2D5
100
AcDbEntity
  8
RACCORDO
100
AcDbPolyline
 62
7
  6
CONTINUOUS
 90
83
 70
0
 10
-1.3905387165
 20
21.2184703579
 10
-1.4022325198
 20
21.2241495152
 10
-1.4196067652
 20
21.2319961783
 10
-1.4369392179
 20
21.2391742342
 10
-1.4541281428
 20
21.2457059187
 10
-1.471161217
 20
21.2516486649
 10
-1.4881110424
 20
21.2570796834
 10
-1.5049494125
 20
21.2620336824
 10
-1.5216348843
 20
21.266539479
 10
-1.5382226568
 20
21.2706475967
 10
-1.5546946945
 20
21.2743837218
 10
-1.5710304406
 20
21.2777709196
 10
-1.5872814369
 20
21.2808435532
 10
-1.6034448534
 20
21.2836207873
 10
-1.6195022595
 20
21.2861174648
 10
-1.6354810865
 20
21.2883536893
 10
-1.6513858329
 20
21.2903435159
 10
-1.6671989129
 20
21.2920970255
 10
-1.6829135223
 20
21.2936249844
 10
-1.6985250481
 20
21.2949375505
 10
-1.7140286924
 20
21.2960440935
 10
-1.729416402
 20
21.2969531494
 10
-1.7446839153
 20
21.2976729959
 10
-1.7598282388
 20
21.2982114305
 10
-1.7748425905
 20
21.2985756777
 10
-1.7897234349
 20
21.2987727184
 10
-1.8044685225
 20
21.2988091715
 10
-1.8190726082
 20
21.2986913337
 10
-1.8335332604
 20
21.2984252428
 10
-1.8478482823
 20
21.2980166598
 10
-1.8620125306
 20
21.297471233
 10
-1.8760282001
 20
21.2967941249
 10
-1.8898894474
 20
21.2959906484
 10
-1.9035789582
 20
21.2950669295
 10
-1.9170971131
 20
21.2940280824
 10
-1.9304409237
 20
21.2928793031
 10
-1.9435880629
 20
21.2916276414
 10
-1.9565361604
 20
21.2902786133
 10
-1.9692861147
 20
21.2888372646
 10
-1.9818206032
 20
21.2873107618
 10
-1.9941307072
 20
21.2857056013
 10
-2.0062249876
 20
21.2840259409
 10
-2.0181122212
 20
21.282275502
 10
-2.0297892692
 20
21.2804595065
 10
-2.0412594183
 20
21.2785821069
 10
-2.0525406366
 20
21.2766446866
 10
-2.06363308
 20
21.274651246
 10
-2.0745368827
 20
21.2726057308
 10
-2.0852694106
 20
21.2705085846
 10
-2.0958316222
 20
21.2683630656
 10
-2.1062228331
 20
21.266172715
 10
-2.116457358
 20
21.2639377234
 10
-2.126535885
 20
21.2616609562
 10
-2.136457906
 20
21.2593455074
 10
-2.1462353693
 20
21.2569914313
 10
-2.1558684644
 20
21.2546013607
 10
-2.1653570197
 20
21.252178015
 10
-2.1747118642
 20
21.2497211674
 10
-2.1839333342
 20
21.2472331479
 10
-2.1930208562
 20
21.2447165212
 10
-2.2019832987
 20
21.2421711514
 10
-2.2108218549
 20
21.2395989133
 10
-2.2195347595
 20
21.2370025359
 10
-2.2281259073
 20
21.234383063
 10
-2.236595207
 20
21.2317426773
 10
-2.2449419275
 20
21.2290837915
 10
-2.2531684624
 20
21.2264077952
 10
-2.2612748808
 20
21.2237168234
 10
-2.2692599487
 20
21.2210134344
 10
-2.2771236879
 20
21.218299818
 10
-2.284865934
 20
21.215578205
 10
-2.2924853274
 20
21.2128513019
 10
-2.2999795263
 20
21.210122184
 10
-2.3073469456
 20
21.2073937411
 10
-2.3145872701
 20
21.2046683922
 10
-2.321699714
 20
21.2019487795
 10
-2.3286820079
 20
21.199238118
 10
-2.3355338701
 20
21.1965389132
 10
-2.342256709
 20
21.1938529731
 10
-2.3488499837
 20
21.1911828878
 10
-2.3553106436
 20
21.1885322773
 10
-2.3616357591
 20
21.1859047806
 10
-2.3738592794
 20
21.1807374751
  0
LINE
  5
2D6
100
AcDbEntity
  8
RACCORDO
100
AcDbLine
 62
7
  6
CONTINUOUS
 10
-12.4414962397
 20
24.7393328776
 11
-11.0979873722
 21
24.0675784439
  0
LINE
  5
2D7
100
AcDbEntity
  8
RACCORDO
100
AcDbLine
 62
7
  6
CONTINUOUS
 10
0.9228219247
 20
18.0571737954
 11
2.2663307922
 21
17.3854193617
  0
LINE
  5
2D8
100
AcDbEntity
  8
DRAFT
100
AcDbLine
 62
7
  6
CONTINUOUS
 10
-6.8553496767
 20
22.0421102063
 11
-1.9056022084
 21
19.5672364721
  0
LINE
  5
2D9
100
AcDbEntity
  8
DRAFT
100
AcDbLine
 62
7
  6
CONTINUOUS
 10
-3.3905264489
 20
20.4020611338
 11
-3.367814752
 21
20.3907052854
  0
LINE
  5
2DA
100
AcDbEntity
  8
RACCORDO
100
AcDbLine
 62
253
  6
CONTINUOUS
 10
-11.907046361
 20
24.9996803442
 11
-10.5697202005
 21
24.3310172639
  0
LINE
  5
2DB
100
AcDbEntity
  8
RACCORDO
100
AcDbLine
 62
253
  6
CONTINUOUS
 10
1.4572718034
 20
18.317521262
 11
2.794597964
 21
17.6488581817
  0
LINE
  5
2DC
100
AcDbEntity
  8
RACCORDO
100
AcDbLine
 62
7
  6
CONTINUOUS
 10
-11.7962714015
 20
25.0062702353
 11
-10.4589452409
 21
24.337607155
  0
LINE
  5
2DD
100
AcDbEntity
  8
RACCORDO
100
AcDbLine
 62
7
  6
CONTINUOUS
 10
1.568046763
 20
18.3241111531
 11
2.9053729235
 21
17.6554480728
  0
LINE
  5
2DE
100
AcDbEntity
  8
RACCORDO
100
AcDbLine
 62
7
  6
CONTINUOUS
 10
-2.329920125
 20
21.0841935372
 11
-0.5914402281
 21
20.2149535887
  0
LINE
  5
2DF
100
AcDbEntity
  8
RACCORDO
100
AcDbLine
 62
253
  6
CONTINUOUS
 10
-0.0314424637
 20
20.4909622868
 11
-1.4775387962
 21
21.214010453
  0
LINE
  5
2E0
100
AcDbEntity
  8
RACCORDO
100
AcDbLine
 62
7
  6
CONTINUOUS
 10
0.0168616745
 20
20.5147701716
 11
-1.3905642197
 21
21.2184831188
  0
LINE
  5
2E1
100
AcDbEntity
  8
RACCORDO
100
AcDbLine
 62
7
  6
CONTINUOUS
 10
9.821776164
 20
16.8982406939
 11
8.7385808945
 21
18.7664761798
  0
LWPOLYLINE
  5
2E2
100
AcDbEntity
  8
RACCORDO
100
AcDbPolyline
 62
7
  6
CONTINUOUS
 90
31
 70
0
 10
19.3592679428
 20
19.8313998268
 10
19.3589579071
 20
19.8672185141
 10
19.3577967465
 20
19.9096285898
 10
19.3557821976
 20
19.9521011755
 10
19.3529205747
 20
19.9946414649
 10
19.3492193448
 20
20.0372291265
 10
19.3446894167
 20
20.0798150038
 10
19.3393387218
 20
20.1223930168
 10
19.3331744808
 20
20.1649554634
 10
19.32621117
 20
20.2074486458
 10
19.3184573485
 20
20.2498660219
 10
19.3099205032
 20
20.2922010441
 10
19.3006188794
 20
20.3343984306
 10
19.2905619504
 20
20.3764494635
 10
19.2797573395
 20
20.4183499013
 10
19.2682251217
 20
20.4600497991
 10
19.2559772643
 20
20.5015330233
 10
19.2430197193
 20
20.5428030324
 10
19.2293654986
 20
20.5838379946
 10
19.2150236279
 20
20.6246282559
 10
19.2000006121
 20
20.6651702614
 10
19.1843058736
 20
20.7054500137
 10
19.1679461445
 20
20.7454604324
 10
19.150927241
 20
20.7851946069
 10
19.1332578555
 20
20.8246379155
 10
19.1149437953
 20
20.86378208
 10
19.0959893945
 20
20.9026198774
 10
19.0764014184
 20
20.9411386312
 10
19.0561842002
 20
20.9793293256
 10
19.0353408477
 20
21.0171844248
 10
19.0173005005
 20
21.0488038986
  0
LINE
  5
2E3
100
AcDbEntity
  8
ASSI
100
AcDbLine
 62
7
  6
CONTINUOUS
 10
18.7772711413
 20
-9.6433021494
 11
18.7772711413
 21
-7.0074514208
  0
LINE
  5
2E4
100
AcDbEntity
  8
ASSI
100
AcDbLine
 62
7
  6
CONTINUOUS
 10
18.7772711413
 20
-5.3131751304
 11
18.7772711413
 21
-2.6773244018
  0
LINE
  5
2E5
100
AcDbEntity
  8
ASSI
100
AcDbLine
 62
253
  6
CONTINUOUS
 10
19.0786077502
 20
19.4840699145
 11
19.0786077502
 21
-2.5213028052
  0
LINE
  5
2E6
100
AcDbEntity
  8
ASSI
100
AcDbLine
 62
253
  6
CONTINUOUS
 10
19.0786077502
 20
-6.1586095011
 11
19.0786077502
 21
-6.8514298242
  0
LINE
  5
2E7
100
AcDbEntity
  8
ASSI
100
AcDbLine
 62
253
  6
CONTINUOUS
 10
19.0786077502
 20
-10.4887365201
 11
19.0786077502
 21
-10.8434741451
  0
LINE
  5
2E8
100
AcDbEntity
  8
RACCORDO
100
AcDbLine
 62
7
  6
CONTINUOUS
 10
19.3592679499
 20
19.8314011326
 11
19.3592679499
 21
-2.17397362
  0
LINE
  5
2E9
100
AcDbEntity
  8
RACCORDO
100
AcDbLine
 62
7
  6
CONTINUOUS
 10
19.3592679499
 20
-5.8112803159
 11
19.3592679499
 21
-6.5041006389
  0
LINE
  5
2EA
100
AcDbEntity
  8
RACCORDO
100
AcDbLine
 62
7
  6
CONTINUOUS
 10
19.3592679499
 20
-10.1414073348
 11
19.3592679499
 21
-10.4961469928
  0
LWPOLYLINE
  5
2EB
100
AcDbEntity
  8
RACCORDO
100
AcDbPolyline
 62
7
  6
CONTINUOUS
 90
40
 70
0
 10
18.7390347041
 20
-11.8145899938
 10
18.7605143417
 20
-11.7987041649
 10
18.7885238432
 20
-11.7770018785
 10
18.8160417111
 20
-11.7545341581
 10
18.8430400602
 20
-11.7313185583
 10
18.8695060197
 20
-11.7073611317
 10
18.8954410549
 20
-11.6826542547
 10
18.9208253727
 20
-11.6572092372
 10
18.9456397969
 20
-11.6310377847
 10
18.9698852126
 20
-11.6041299289
 10
18.9935425302
 20
-11.5764965783
 10
19.0165920605
 20
-11.5481505104
 10
19.0390321075
 20
-11.5190818238
 10
19.0608442361
 20
-11.4893005815
 10
19.0820086567
 20
-11.4588204258
 10
19.1025201876
 20
-11.4276337915
 10
19.1223600555
 20
-11.3957520947
 10
19.1415099667
 20
-11.3631875988
 10
19.1599642847
 20
-11.3299309917
 10
19.1777035898
 20
-11.2959958275
 10
19.1947112037
 20
-11.2613917412
 10
19.210983879
 20
-11.2261000327
 10
19.2265054477
 20
-11.1901257188
 10
19.2412550408
 20
-11.1534851966
 10
19.2552210394
 20
-11.1161733348
 10
19.2683911495
 20
-11.0781834463
 10
19.2807411439
 20
-11.0395424215
 10
19.2922446218
 20
-11.0002936366
 10
19.302887635
 20
-10.9604467712
 10
19.3126556914
 20
-10.9200132216
 10
19.3215279964
 20
-10.879038006
 10
19.3294939619
 20
-10.8375294122
 10
19.3365419877
 20
-10.7954993538
 10
19.3426560556
 20
-10.7529974498
 10
19.3478280562
 20
-10.7100330078
 10
19.3520493985
 20
-10.6666159659
 10
19.3553091656
 20
-10.6227954743
 10
19.3576005874
 20
-10.5785930196
 10
19.3589183642
 20
-10.5340055212
 10
19.3592679428
 20
-10.4961479976
  0
LINE
  5
2EC
100
AcDbEntity
  8
RACCORDO
100
AcDbLine
 62
7
  6
CONTINUOUS
 10
8.7385808945
 20
-17.346783158
 11
9.821776164
 21
-16.5617429417
  0
LINE
  5
2ED
100
AcDbEntity
  8
RACCORDO
100
AcDbLine
 62
253
  6
CONTINUOUS
 10
18.6644558226
 20
-11.8609603293
 11
18.5387571109
 21
-11.952059826
  0
LINE
  5
2EE
100
AcDbEntity
  8
RACCORDO
100
AcDbLine
 62
7
  6
CONTINUOUS
 10
18.7390248686
 20
-11.8145971442
 11
18.6133247049
 21
-11.9056976932
  0
LINE
  5
2EF
100
AcDbEntity
  8
RACCORDO
100
AcDbLine
 62
253
  6
CONTINUOUS
 10
18.5387571109
 20
-11.952059826
 11
9.821776164
 21
-16.5617429417
  0
LINE
  5
2F0
100
AcDbEntity
  8
RACCORDO
100
AcDbLine
 62
7
  6
CONTINUOUS
 10
18.4939691809
 20
-11.97999452
 11
9.8000840618
 21
-16.5774641816
  0
LINE
  5
2F1
100
AcDbEntity
  8
RACCORDO
100
AcDbLine
 62
253
  6
CONTINUOUS
 10
3.5037646677
 20
-19.8472714353
 11
18.6644558226
 21
-11.8609603293
  0
LINE
  5
2F2
100
AcDbEntity
  8
DRAFT
100
AcDbLine
 62
7
  6
CONTINUOUS
 10
3.5037646677
 20
-20.0966843182
 11
8.7385808945
 21
-17.346783158
  0
LINE
  5
2F3
100
AcDbEntity
  8
RACCORDO
100
AcDbLine
 62
7
  6
CONTINUOUS
 10
7.177941968
 20
-18.534096415
 11
3.5037646677
 21
-20.3783289543
  0
LINE
  5
2F4
100
AcDbEntity
  8
RACCORDO
100
AcDbLine
 62
7
  6
CONTINUOUS
 10
8.0594774266
 20
-17.9746673709
 11
3.5037646677
 21
-20.2343344845
  0
LINE
  5
2F5
100
AcDbEntity
  8
RACCORDO
100
AcDbLine
 62
7
  6
CONTINUOUS
 10
-12.7493379529
 20
22.4641718066
 11
-12.1249318685
 21
22.3337952369
  0
LINE
  5
2F6
100
AcDbEntity
  8
RACCORDO
100
AcDbLine
 62
253
  6
CONTINUOUS
 10
-12.5224944594
 20
22.6199929674
 11
-11.8112738513
 21
22.4714894446
  0
LINE
  5
2F7
100
AcDbEntity
  8
ASSI
100
AcDbLine
 62
7
  6
CONTINUOUS
 10
0.6120735364
 20
20.8081350054
 11
-1.8348915303
 21
22.0316175387
  0
LINE
  5
2F8
100
AcDbEntity
  8
0
100
AcDbLine
 62
7
  6
CONTINUOUS
 10
-2.1884449209
 20
22.208394234
 11
-2.5419983115
 21
22.3851709293
  0
LINE
  5
2F9
100
AcDbEntity
  8
DRAFT
100
AcDbLine
 62
7
  6
CONTINUOUS
 10
-2.1884449209
 20
22.7609524234
 11
-2.5419983115
 21
22.9377291187
  0
LINE
  5
2FA
100
AcDbEntity
  8
0
100
AcDbLine
 62
7
  6
CONTINUOUS
 10
2.0198892326
 20
21.5020116638
 11
-0.7906604144
 21
22.9072864873
  0
LINE
  5
2FB
100
AcDbEntity
  8
DRAFT
100
AcDbLine
 62
7
  6
CONTINUOUS
 10
8.1989884095
 20
19.0362724223
 11
8.7385808945
 21
18.7664761798
  0
LINE
  5
2FC
100
AcDbEntity
  8
ASSI
100
AcDbLine
 62
253
  6
CONTINUOUS
 10
-2.862629155
 20
24.6112367211
 11
-2.2570987203
 21
24.3084715038
  0
LINE
  5
2FD
100
AcDbEntity
  8
ASSI
100
AcDbLine
 62
253
  6
CONTINUOUS
 10
2.692648748
 20
21.8335977696
 11
3.2981791826
 21
21.5308325523
  0
LINE
  5
2FE
100
AcDbEntity
  8
0
100
AcDbLine
 62
7
  6
CONTINUOUS
 10
0.5692715258
 20
22.9810346747
 11
2.8051323974
 21
21.8631042389
  0
LINE
  5
2FF
100
AcDbEntity
  8
0
100
AcDbLine
 62
7
  6
CONTINUOUS
 10
3.4721152476
 20
21.5296128138
 11
3.6704106471
 21
21.430465114
  0
LINE
  5
300
100
AcDbEntity
  8
ASSI
100
AcDbLine
 62
7
  6
CONTINUOUS
 10
-2.5863571339
 20
24.5970554523
 11
-2.0899506494
 21
24.34885221
  0
LINE
  5
301
100
AcDbEntity
  8
ASSI
100
AcDbLine
 62
7
  6
CONTINUOUS
 10
2.9685982581
 20
21.8195777563
 11
3.4650050281
 21
21.5713743713
  0
LINE
  5
302
100
AcDbEntity
  8
RACCORDO
100
AcDbLine
 62
253
  6
CONTINUOUS
 10
2.7858882448
 20
-23.0562931702
 11
3.5037646677
 21
-22.7021294029
  0
LINE
  5
303
100
AcDbEntity
  8
RACCORDO
100
AcDbLine
 62
7
  6
CONTINUOUS
 10
2.6512438256
 20
-23.329068125
 11
3.3728900105
 21
-22.9730445487
  0
LINE
  5
304
100
AcDbEntity
  8
RACCORDO
100
AcDbLine
 62
7
  6
CONTINUOUS
 10
2.6512433039
 20
-23.3290683824
 11
2.6408295071
 21
-23.3338165859
  0
LINE
  5
305
100
AcDbEntity
  8
RACCORDO
100
AcDbLine
 62
253
  6
CONTINUOUS
 10
-2.7118010277
 20
-25.3639998182
 11
2.7858882448
 21
-23.0562931702
  0
LINE
  5
306
100
AcDbEntity
  8
RACCORDO
100
AcDbLine
 62
7
  6
CONTINUOUS
 10
-2.8656082731
 20
-25.6451955166
 11
2.6408393392
 21
-23.3338124732
  0
LINE
  5
307
100
AcDbEntity
  8
0
100
AcDbLine
 62
7
  6
CONTINUOUS
 10
-0.7906604144
 20
22.9072864873
 11
0.5692715258
 21
22.9810346747
  0
LINE
  5
308
100
AcDbEntity
  8
RACCORDO
100
AcDbLine
 62
253
  6
CONTINUOUS
 10
-3.1986306069
 20
25.3008422731
 11
-0.131664663
 21
23.7673593012
  0
LINE
  5
309
100
AcDbEntity
  8
RACCORDO
100
AcDbLine
 62
253
  6
CONTINUOUS
 10
4.1109760241
 20
21.6460389576
 11
7.177941968
 21
20.1125559856
  0
LINE
  5
30A
100
AcDbEntity
  8
RACCORDO
100
AcDbLine
 62
7
  6
CONTINUOUS
 10
-2.9175665904
 20
25.406181233
 11
0.3093783401
 21
23.7927087678
  0
LINE
  5
30B
100
AcDbEntity
  8
RACCORDO
100
AcDbLine
 62
7
  6
CONTINUOUS
 10
4.5520190272
 20
21.6713884242
 11
7.7789639577
 21
20.057915959
  0
LINE
  5
30C
100
AcDbEntity
  8
RACCORDO
100
AcDbLine
 62
253
  6
CONTINUOUS
 10
2.9713716676
 20
-24.65069853
 11
2.4431044959
 21
-24.9217095886
  0
LINE
  5
30D
100
AcDbEntity
  8
RACCORDO
100
AcDbLine
 62
7
  6
CONTINUOUS
 10
2.9076836301
 20
-24.7852623403
 11
2.3790013666
 21
-25.0564863489
  0
LINE
  5
30E
100
AcDbEntity
  8
RACCORDO
100
AcDbLine
 62
7
  6
CONTINUOUS
 10
2.3772629794
 20
-25.0573555824
 11
2.3789993968
 21
-25.0564873594
  0
LINE
  5
30F
100
AcDbEntity
  8
RACCORDO
100
AcDbLine
 62
253
  6
CONTINUOUS
 10
2.4431044959
 20
-24.9217095886
 11
0.8418237051
 21
-25.7017441883
  0
LINE
  5
310
100
AcDbEntity
  8
RACCORDO
100
AcDbLine
 62
7
  6
CONTINUOUS
 10
2.3772602155
 20
-25.0573569288
 11
0.7755621125
 21
-25.8375948145
  0
LINE
  5
311
100
AcDbEntity
  8
RACCORDO
100
AcDbLine
 62
253
  6
CONTINUOUS
 10
4.9032800786
 20
28.2038590863
 11
18.0388332633
 21
21.6360824939
  0
LINE
  5
312
100
AcDbEntity
  8
RACCORDO
100
AcDbLine
 62
7
  6
CONTINUOUS
 10
5.3381529592
 20
28.2262224159
 11
18.4737061439
 21
21.6584458235
  0
LINE
  5
313
100
AcDbEntity
  8
RACCORDO
100
AcDbLine
 62
253
  6
CONTINUOUS
 10
18.5387571109
 20
21.1325062346
 11
18.6644558226
 21
20.9157080262
  0
LINE
  5
314
100
AcDbEntity
  8
RACCORDO
100
AcDbLine
 62
7
  6
CONTINUOUS
 10
18.8916003597
 20
21.2656045921
 11
19.0173005234
 21
21.0488038794
  0
ARC
  5
315
100
AcDbEntity
  8
RACCORDO
100
AcDbCircle
 62
253
  6
CONTINUOUS
 10
520.408856266
 20
0.3417590083
 40
539.6211822679
100
AcDbArc
 50
178.1088830888
 51
181.8911169112
  0
ARC
  5
316
100
AcDbEntity
  8
RACCORDO
100
AcDbCircle
 62
253
  6
CONTINUOUS
 10
516.7392212421
 20
-7.0706640305
 40
521.1371316762
100
AcDbArc
 50
178.0417819713
 51
181.9582180287
  0
ARC
  5
317
100
AcDbEntity
  8
RACCORDO
100
AcDbCircle
 62
253
  6
CONTINUOUS
 10
516.9100414043
 20
-7.0738718362
 40
520.6070692416
100
AcDbArc
 50
178.0417483865
 51
181.9582516135
  0
ARC
  5
318
100
AcDbEntity
  8
RACCORDO
100
AcDbCircle
 62
253
  6
CONTINUOUS
 10
-19.9192687808
 20
-19.9785119682
 40
18.9847521392
100
AcDbArc
 50
74.9605853832
 51
78.1225275816
  0
ARC
  5
319
100
AcDbEntity
  8
RACCORDO
100
AcDbCircle
 62
253
  6
CONTINUOUS
 10
-12.9433826681
 20
-0.9629217264
 40
1.6965773567
100
AcDbArc
 50
107.6777456928
 51
117.1743511324
  0
ARC
  5
31A
100
AcDbEntity
  8
RACCORDO
100
AcDbCircle
 62
7
  6
CONTINUOUS
 10
18.0262230548
 20
-11.0955808639
 40
1.0004886868
100
AcDbArc
 50
300.8976982453
 51
305.9315387517
  0
ARC
  5
31B
100
AcDbEntity
  8
RACCORDO
100
AcDbCircle
 62
7
  6
CONTINUOUS
 10
18.0264002847
 20
-11.0958244734
 40
1.0001886542
100
AcDbArc
 50
297.8708874579
 51
300.6678852837
  0
ARC
  5
31C
100
AcDbEntity
  8
RACCORDO
100
AcDbCircle
 62
7
  6
CONTINUOUS
 10
4.8909393718
 20
27.3317941798
 40
1.0000009487
100
AcDbArc
 50
63.4347123609
 51
115.2484099087
  0
ARC
  5
31D
100
AcDbEntity
  8
RACCORDO
100
AcDbCircle
 62
7
  6
CONTINUOUS
 10
18.0264926001
 20
20.7640188863
 40
0.9999997707
100
AcDbArc
 50
30.1049981242
 51
63.4346411817
  0
ARC
  5
31E
100
AcDbEntity
  8
RACCORDO
100
AcDbCircle
 62
7
  6
CONTINUOUS
 10
18.0265809986
 20
-11.0961344867
 40
0.9998298248
100
AcDbArc
 50
300.6680392508
 51
300.8963883947
  0
ARC
  5
31F
100
AcDbEntity
  8
RACCORDO
100
AcDbCircle
 62
253
  6
CONTINUOUS
 10
18.1992119269
 20
-11.2189067789
 40
0.7928963627
100
AcDbArc
 50
305.9277820552
 51
312.1743057004
  0
ARC
  5
320
100
AcDbEntity
  8
RACCORDO
100
AcDbCircle
 62
253
  6
CONTINUOUS
 10
18.3750681071
 20
-11.3123660926
 40
0.6202423496
100
AcDbArc
 50
297.8121585644
 51
305.930089481
  0
ARC
  5
321
100
AcDbEntity
  8
RACCORDO
100
AcDbCircle
 62
253
  6
CONTINUOUS
 10
18.2493679453
 20
-11.4034666446
 40
0.620242346
100
AcDbArc
 50
297.8121585454
 51
305.9300848592
  0
ARC
  5
322
100
AcDbEntity
  8
RACCORDO
100
AcDbCircle
 62
253
  6
CONTINUOUS
 10
4.6266023271
 20
27.8923065317
 40
0.3802847514
100
AcDbArc
 50
113.7297936542
 51
115.2482364726
  0
ARC
  5
323
100
AcDbEntity
  8
RACCORDO
100
AcDbCircle
 62
253
  6
CONTINUOUS
 10
18.3197641642
 20
-11.6508187244
 40
0.3724300095
100
AcDbArc
 50
297.8884983114
 51
306.0159902488
  0
ARC
  5
324
100
AcDbEntity
  8
RACCORDO
100
AcDbCircle
 62
7
  6
CONTINUOUS
 10
-12.697878039
 20
22.7099348064
 40
0.2510925838
100
AcDbArc
 50
243.4673571113
 51
258.1738074015
  0
ARC
  5
325
100
AcDbEntity
  8
RACCORDO
100
AcDbCircle
 62
7
  6
CONTINUOUS
 10
0.6664401254
 20
16.0277757242
 40
0.2510925838
100
AcDbArc
 50
243.4673571113
 51
258.1738074015
  0
ARC
  5
326
100
AcDbEntity
  8
RACCORDO
100
AcDbCircle
 62
7
  6
CONTINUOUS
 10
-10.5707508928
 20
24.1139991133
 40
0.2500021202
100
AcDbArc
 50
0.0018403594
 51
63.4346144876
  0
ARC
  5
327
100
AcDbEntity
  8
RACCORDO
100
AcDbCircle
 62
7
  6
CONTINUOUS
 10
-0.6589039861
 20
-24.9503495329
 40
0.2500021202
100
AcDbArc
 50
180.0018403594
 51
243.4346144876
  0
ARC
  5
328
100
AcDbEntity
  8
RACCORDO
100
AcDbCircle
 62
7
  6
CONTINUOUS
 10
-11.9080743181
 20
24.7826616043
 40
0.250001424
100
AcDbArc
 50
63.4352355626
 51
115.9737880832
  0
ARC
  5
329
100
AcDbEntity
  8
RACCORDO
100
AcDbCircle
 62
7
  6
CONTINUOUS
 10
1.4562428675
 20
18.1005027406
 40
0.2500012342
100
AcDbArc
 50
63.4334738355
 51
115.9719157381
  0
ARC
  5
32A
100
AcDbEntity
  8
RACCORDO
100
AcDbCircle
 62
7
  6
CONTINUOUS
 10
0.6660789373
 20
-25.612841502
 40
0.2500012342
100
AcDbArc
 50
243.4334738355
 51
295.9719157382
  0
ARC
  5
32B
100
AcDbEntity
  8
RACCORDO
100
AcDbCircle
 62
7
  6
CONTINUOUS
 10
-0.6589058407
 20
17.0292010341
 40
0.2500003969
100
AcDbArc
 50
117.1601720062
 51
180.0000315234
  0
ARC
  5
32C
100
AcDbEntity
  8
RACCORDO
100
AcDbCircle
 62
7
  6
CONTINUOUS
 10
2.7935691262
 20
-24.5628257012
 40
0.2500003969
100
AcDbArc
 50
297.1601720062
 51
0.0000315234
  0
ARC
  5
32D
100
AcDbEntity
  8
RACCORDO
100
AcDbCircle
 62
7
  6
CONTINUOUS
 10
-14.023224137
 20
23.3713870382
 40
0.2500002666
100
AcDbArc
 50
180.000151117
 51
243.4365832535
  0
ARC
  5
32E
100
AcDbEntity
  8
RACCORDO
100
AcDbCircle
 62
7
  6
CONTINUOUS
 10
-0.6589059725
 20
16.689227956
 40
0.2500002666
100
AcDbArc
 50
180.000151117
 51
243.4365832535
  0
ARC
  5
32F
100
AcDbEntity
  8
RACCORDO
100
AcDbCircle
 62
7
  6
CONTINUOUS
 10
2.7935692581
 20
-24.2152950404
 40
0.2500002666
100
AcDbArc
 50
0.000151117
 51
63.4365832535
  0
ARC
  5
330
100
AcDbEntity
  8
RACCORDO
100
AcDbCircle
 62
7
  6
CONTINUOUS
 10
-10.5707489434
 20
23.7664687019
 40
0.2500001466
100
AcDbArc
 50
320.5926030822
 51
0.0004114696
  0
ARC
  5
331
100
AcDbEntity
  8
RACCORDO
100
AcDbCircle
 62
7
  6
CONTINUOUS
 10
-14.0232257909
 20
23.7113604695
 40
0.2499986126
100
AcDbArc
 50
117.1565718894
 51
180.0000358743
  0
ARC
  5
332
100
AcDbEntity
  8
RACCORDO
100
AcDbCircle
 62
7
  6
CONTINUOUS
 10
2.7935710207
 20
17.4318413925
 40
0.2499985039
100
AcDbArc
 50
359.9999730928
 51
63.4370632661
  0
ARC
  5
333
100
AcDbEntity
  8
RACCORDO
100
AcDbCircle
 62
7
  6
CONTINUOUS
 10
-2.475738591
 20
20.9599502445
 40
0.1583888448
100
AcDbArc
 50
114.7904438173
 51
131.2191435255
  0
ARC
  5
334
100
AcDbEntity
  8
RACCORDO
100
AcDbCircle
 62
7
  6
CONTINUOUS
 10
2.3362103694
 20
-24.9730739276
 40
0.0937479893
100
AcDbArc
 50
297.1567006962
 51
299.3030104151
  0
ARC
  5
335
100
AcDbEntity
  8
RACCORDO
100
AcDbCircle
 62
253
  6
CONTINUOUS
 10
-10.393122365
 20
23.6205276552
 40
0.0201085158
100
AcDbArc
 50
320.5893497064
 51
322.5112512696
  0
SPLINE
  5
336
100
AcDbEntity
  8
0
100
AcDbSpline
 62
7
  6
CONTINUOUS
 70
0
 71
3
 72
9
 73
5
 74
3
 42
0.0000001
 43
0.0000001
 44
0.0000000001
 12
-0.1065923561
 22
-0.0036114363
 32
0.0
 13
-0.1056172127
 23
-0.0148316297
 33
0.0
 40
0.0
 40
0.0
 40
0.0
 40
0.0
 40
0.2468234144
 40
1.0
 40
1.0
 40
1.0
 40
1.0
 10
13.3781875471
 20
-8.2077099001
 30
0.0
 10
13.3694177173
 20
-8.2080070291
 30
0.0
 10
13.3339047002
 20
-8.2097014781
 30
0.0
 10
13.2984883029
 20
-8.213327227
 30
0.0
 10
13.2719721657
 20
-8.2170508391
 30
0.0
 11
13.3781875471
 21
-8.2077099001
 31
0.0
 11
13.3518927153
 21
-8.2089611468
 31
0.0
 11
13.2719721657
 21
-8.2170508391
 31
0.0
  0
SPLINE
  5
337
100
AcDbEntity
  8
0
100
AcDbSpline
 62
7
  6
CONTINUOUS
 70
0
 71
3
 72
14
 73
10
 74
8
 42
0.0000001
 43
0.0000001
 44
0.0000000001
 12
2.2107834097
 22
1.5380335457
 32
0.0
 13
-0.0110943239
 23
2.6931370905
 33
0.0
 40
0.0
 40
0.0
 40
0.0
 40
0.0
 40
0.1159782864
 40
0.2392555407
 40
0.367632083
 40
0.4987619133
 40
0.7585706579
 40
0.8827183102
 40
1.0
 40
1.0
 40
1.0
 40
1.0
 10
13.0937167702
 20
-7.3475404161
 30
0.0
 10
13.179184394
 20
-7.2880809177
 30
0.0
 10
13.3463222761
 20
-7.1519094261
 30
0.0
 10
13.5740457005
 20
-6.9119530886
 30
0.0
 10
13.7789983818
 20
-6.6350670476
 30
0.0
 10
14.0138566358
 20
-6.231677944
 30
0.0
 10
14.1829623238
 20
-5.7964642378
 30
0.0
 10
14.2717257333
 20
-5.3545445924
 30
0.0
 10
14.287559118
 20
-5.1375409085
 30
0.0
 10
14.2871253977
 20
-5.0322556856
 30
0.0
 11
13.0937167702
 21
-7.3475404161
 31
0.0
 11
13.3367740431
 21
-7.1513657948
 31
0.0
 11
13.5658139437
 21
-6.9110154567
 31
0.0
 11
13.7722416101
 21
-6.6336659097
 31
0.0
 11
13.9502106966
 21
-6.328633987
 31
0.0
 11
14.200916209
 21
-5.6753837004
 31
0.0
 11
14.2658231394
 21
-5.3473948776
 31
0.0
 11
14.2871253977
 21
-5.0322556856
 31
0.0
  0
SPLINE
  5
338
100
AcDbEntity
  8
0
100
AcDbSpline
 62
7
  6
CONTINUOUS
 70
0
 71
3
 72
14
 73
10
 74
8
 42
0.0000001
 43
0.0000001
 44
0.0000000001
 12
2.2107834096
 22
1.5380335457
 32
0.0
 13
-0.011094324
 23
2.6931370905
 33
0.0
 40
0.0
 40
0.0
 40
0.0
 40
0.0
 40
0.1159782864
 40
0.2392555407
 40
0.367632083
 40
0.4987619133
 40
0.7585706579
 40
0.8827183102
 40
1.0
 40
1.0
 40
1.0
 40
1.0
 10
13.0937167702
 20
-11.677667435
 30
0.0
 10
13.179184394
 20
-11.6182079366
 30
0.0
 10
13.3463222761
 20
-11.482036445
 30
0.0
 10
13.5740457005
 20
-11.2420801076
 30
0.0
 10
13.7789983818
 20
-10.9651940665
 30
0.0
 10
14.0138566358
 20
-10.561804963
 30
0.0
 10
14.1829623238
 20
-10.1265912567
 30
0.0
 10
14.2717257333
 20
-9.6846716113
 30
0.0
 10
14.287559118
 20
-9.4676679275
 30
0.0
 10
14.2871253977
 20
-9.3623827045
 30
0.0
 11
13.0937167702
 21
-11.677667435
 31
0.0
 11
13.3367740431
 21
-11.4814928137
 31
0.0
 11
13.5658139437
 21
-11.2411424756
 31
0.0
 11
13.7722416101
 21
-10.9637929286
 31
0.0
 11
13.9502106966
 21
-10.6587610059
 31
0.0
 11
14.200916209
 21
-10.0055107193
 31
0.0
 11
14.2658231394
 21
-9.6775218966
 31
0.0
 11
14.2871253977
 21
-9.3623827045
 31
0.0
  0
SPLINE
  5
339
100
AcDbEntity
  8
ASSI
100
AcDbSpline
 62
7
  6
CONTINUOUS
 70
0
 71
3
 72
9
 73
5
 74
3
 42
0.0000001
 43
0.0000001
 44
0.0000000001
 12
-0.0502723709
 22
-0.0161727928
 32
0.0
 13
-0.0473687191
 23
-0.0233468405
 33
0.0
 40
0.0
 40
0.0
 40
0.0
 40
0.0
 40
0.2435111882
 40
1.0
 40
1.0
 40
1.0
 40
1.0
 10
2.7415247795
 20
21.8535263367
 30
0.0
 10
2.7374441512
 20
21.8522135847
 30
0.0
 10
2.7207943804
 20
21.8464906054
 30
0.0
 10
2.7045933833
 20
21.8394849775
 30
0.0
 10
2.692648748
 20
21.8335977696
 30
0.0
 11
2.7415247795
 21
21.8535263367
 31
0.0
 11
2.7293619515
 21
21.8493503076
 31
0.0
 11
2.692648748
 21
21.8335977696
 31
0.0
  0
SPLINE
  5
33A
100
AcDbEntity
  8
RACCORDO
100
AcDbSpline
 62
7
  6
CONTINUOUS
 70
0
 71
3
 72
8
 73
4
 74
2
 42
0.0000001
 43
0.0000001
 44
0.0000000001
 12
-0.0000053732
 22
-0.0031177234
 32
0.0
 13
-0.0019810057
 23
-0.002407456
 33
0.0
 40
0.0
 40
0.0
 40
0.0
 40
0.0
 40
1.0
 40
1.0
 40
1.0
 40
1.0
 10
3.0435694891
 20
16.9964278358
 30
0.0
 10
3.043567698
 20
16.9953885947
 30
0.0
 10
3.0431745921
 20
16.9942966012
 30
0.0
 10
3.0425142569
 20
16.9934941158
 30
0.0
 11
3.0435694891
 21
16.9964278358
 31
0.0
 11
3.0425142569
 21
16.9934941158
 31
0.0
  0
SPLINE
  5
33B
100
AcDbEntity
  8
ASSI
100
AcDbSpline
 62
7
  6
CONTINUOUS
 70
0
 71
3
 72
11
 73
7
 74
5
 42
0.0000001
 43
0.0000001
 44
0.0000000001
 12
0.2230926208
 22
0.0717696553
 32
0.0
 13
0.2096565956
 23
-0.1047153896
 33
0.0
 40
0.0
 40
0.0
 40
0.0
 40
0.0
 40
0.2281620518
 40
0.4713410479
 40
0.7293701433
 40
1.0
 40
1.0
 40
1.0
 40
1.0
 10
2.7415247795
 20
21.8535263367
 30
0.0
 10
2.7584918695
 20
21.8589847073
 30
0.0
 10
2.7953080589
 20
21.8651295233
 30
0.0
 10
2.8525236978
 20
21.8610202849
 30
0.0
 10
2.9110946687
 20
21.8456001307
 30
0.0
 10
2.9491780996
 20
21.8292775025
 30
0.0
 10
2.9680912111
 20
21.8198311322
 30
0.0
 11
2.7415247795
 21
21.8535263367
 31
0.0
 11
2.7941721841
 21
21.8628716229
 31
0.0
 11
2.8510567064
 21
21.8594114818
 31
0.0
 11
2.9096539378
 21
21.8444795066
 31
0.0
 11
2.9680912111
 21
21.8198311322
 31
0.0
  0
SPLINE
  5
33C
100
AcDbEntity
  8
ASSI
100
AcDbSpline
 62
7
  6
CONTINUOUS
 70
0
 71
3
 72
11
 73
7
 74
5
 42
0.0000001
 43
0.0000001
 44
0.0000000001
 12
0.222019678
 22
0.0689784695
 32
0.0
 13
0.2079932826
 23
-0.103872812
 33
0.0
 40
0.0
 40
0.0
 40
0.0
 40
0.0
 40
0.2283694312
 40
0.4716456017
 40
0.7295971459
 40
1.0
 40
1.0
 40
1.0
 40
1.0
 10
-2.8116979637
 20
24.631578826
 30
0.0
 10
-2.7947971279
 20
24.6368296839
 30
0.0
 10
-2.7582171125
 20
24.6426361727
 30
0.0
 10
-2.701468569
 20
24.6383080306
 30
0.0
 10
-2.6434163978
 20
24.6228984887
 30
0.0
 10
-2.605667318
 20
24.6066992252
 30
0.0
 10
-2.5869199923
 20
24.5973367236
 30
0.0
 11
-2.8116979637
 21
24.631578826
 31
0.0
 11
-2.7593486627
 21
24.6404353793
 31
0.0
 11
-2.7029108342
 21
24.6367375438
 31
0.0
 11
-2.6448300192
 21
24.6218009162
 31
0.0
 11
-2.5869199923
 21
24.5973367236
 31
0.0
  0
SPLINE
  5
33D
100
AcDbEntity
  8
RACCORDO
100
AcDbSpline
 62
7
  6
CONTINUOUS
 70
0
 71
3
 72
14
 73
10
 74
8
 42
0.0000001
 43
0.0000001
 44
0.0000000001
 12
0.0
 22
0.630991571
 32
0.0
 13
-0.5643681094
 23
0.2822038267
 33
0.0
 40
0.0
 40
0.0
 40
0.0
 40
0.0
 40
0.2891525564
 40
0.4227177506
 40
0.5489643138
 40
0.668508974
 40
0.7824375212
 40
0.892292605
 40
1.0
 40
1.0
 40
1.0
 40
1.0
 10
0.5692715258
 20
23.2518349674
 30
0.0
 10
0.5692715258
 20
23.312652576
 30
0.0
 10
0.561685069
 20
23.4020440006
 30
0.0
 10
0.5326856383
 20
23.514030676
 30
0.0
 10
0.5032359916
 20
23.5884401666
 30
0.0
 10
0.4658276802
 20
23.6545107811
 30
0.0
 10
0.4208383298
 20
23.7114023404
 30
0.0
 10
0.3688006364
 20
23.7583077029
 30
0.0
 10
0.329654428
 20
23.7825694701
 30
0.0
 10
0.3093922217
 20
23.7927012831
 30
0.0
 11
0.5692715258
 21
23.2518349674
 31
0.0
 11
0.5519940881
 21
23.4334679044
 31
0.0
 11
0.5305958322
 21
23.5149846645
 31
0.0
 11
0.5010062655
 21
23.5889458404
 31
0.0
 11
0.4635881586
 21
23.6544425774
 31
0.0
 11
0.418799891
 21
23.7106732529
 31
0.0
 11
0.3671904496
 21
23.7569485126
 31
0.0
 11
0.3093922217
 21
23.7927012831
 31
0.0
  0
SPLINE
  5
33E
100
AcDbEntity
  8
RACCORDO
100
AcDbSpline
 62
7
  6
CONTINUOUS
 70
0
 71
3
 72
11
 73
7
 74
5
 42
0.0000001
 43
0.0000001
 44
0.0000000001
 12
0.4104598159
 22
0.2008428369
 32
0.0
 13
0.4087143287
 23
-0.2043714832
 33
0.0
 40
0.0
 40
0.0
 40
0.0
 40
0.0
 40
0.2787325875
 40
0.5346772883
 40
0.772449667
 40
1.0
 40
1.0
 40
1.0
 40
1.0
 10
4.1109760241
 20
21.6460389576
 30
0.0
 10
4.1491121996
 20
21.6646994388
 30
0.0
 10
4.2253431893
 20
21.6947858883
 30
0.0
 10
4.342012392
 20
21.7158400625
 30
0.0
 10
4.4528205431
 20
21.7097276681
 30
0.0
 10
4.5210318816
 20
21.6868825392
 30
0.0
 10
4.5520329088
 20
21.6713809395
 30
0.0
 11
4.1109760241
 21
21.6460389576
 31
0.0
 11
4.2298220312
 21
21.6918522698
 31
0.0
 11
4.3451009943
 21
21.711594505
 31
0.0
 11
4.4535355531
 21
21.7047057117
 31
0.0
 11
4.5520329088
 21
21.6713809395
 31
0.0
  0
SPLINE
  5
33F
100
AcDbEntity
  8
ASSI
100
AcDbSpline
 62
7
  6
CONTINUOUS
 70
0
 71
3
 72
9
 73
5
 74
3
 42
0.0000001
 43
0.0000001
 44
0.0000000001
 12
-0.0000282459
 22
0.0132944178
 32
0.0
 13
-0.0119051738
 23
0.0059168555
 33
0.0
 40
0.0
 40
0.0
 40
0.0
 40
0.0
 40
0.4881036285
 40
1.0
 40
1.0
 40
1.0
 40
1.0
 10
-2.0828730645
 20
24.3379995009
 30
0.0
 10
-2.0828776601
 20
24.3401625188
 30
0.0
 10
-2.0839150626
 20
24.3447886753
 30
0.0
 10
-2.0876540108
 20
24.3477098397
 30
0.0
 10
-2.0896854159
 20
24.3487194453
 30
0.0
 11
-2.0828730645
 21
24.3379995009
 31
0.0
 11
-2.0845340101
 21
24.3442724002
 31
0.0
 11
-2.0896854159
 21
24.3487194453
 31
0.0
  0
SPLINE
  5
340
100
AcDbEntity
  8
ASSI
100
AcDbSpline
 62
7
  6
CONTINUOUS
 70
0
 71
3
 72
9
 73
5
 74
3
 42
0.0000001
 43
0.0000001
 44
0.0000000001
 12
-0.0000238058
 22
0.0133037541
 32
0.0
 13
-0.0119149986
 23
0.0059180442
 33
0.0
 40
0.0
 40
0.0
 40
0.0
 40
0.0
 40
0.4881017562
 40
1.0
 40
1.0
 40
1.0
 40
1.0
 10
3.4721153364
 20
21.5605001691
 30
0.0
 10
3.4721114632
 20
21.5626646976
 30
0.0
 10
3.4710745805
 20
21.5672947885
 30
0.0
 10
3.4673320497
 20
21.5702174349
 30
0.0
 10
3.4652989608
 20
21.571227247
 30
0.0
 11
3.4721153364
 21
21.5605001691
 31
0.0
 11
3.4704546521
 21
21.5667778213
 31
0.0
 11
3.4652989608
 21
21.571227247
 31
0.0
  0
SPLINE
  5
341
100
AcDbEntity
  8
RACCORDO
100
AcDbSpline
 62
7
  6
CONTINUOUS
 70
0
 71
3
 72
26
 73
22
 74
20
 42
0.0000001
 43
0.0000001
 44
0.0000000001
 12
-8.4716232831
 22
4.2358116414
 32
0.0
 13
8.4243510368
 23
4.3290658254
 33
0.0
 40
0.0
 40
0.0
 40
0.0
 40
0.0
 40
0.0601034824
 40
0.1232952285
 40
0.1892949862
 40
0.2575588136
 40
0.3273490818
 40
0.3978057967
 40
0.4680173617
 40
0.5370911157
 40
0.6042236329
 40
0.6687723777
 40
0.730326291
 40
0.7887684861
 40
0.8443136903
 40
0.8711857708
 40
0.8975552666
 40
0.9235204124
 40
0.9491828867
 40
0.9746434909
 40
1.0
 40
1.0
 40
1.0
 40
1.0
 10
-11.9153366469
 20
-7.3577379461
 30
0.0
 10
-12.085061334
 20
-7.2728756026
 30
0.0
 10
-12.4202617827
 20
-7.0720081489
 30
0.0
 10
-12.8898794228
 20
-6.7001593417
 30
0.0
 10
-13.3316859605
 20
-6.2585191275
 30
0.0
 10
-13.7375131773
 20
-5.7567525845
 30
0.0
 10
-14.0994750502
 20
-5.2056504247
 30
0.0
 10
-14.4100912395
 20
-4.6171381763
 30
0.0
 10
-14.6627138774
 20
-4.0039316551
 30
0.0
 10
-14.851749268
 20
-3.3791348246
 30
0.0
 10
-14.9727704256
 20
-2.7557692315
 30
0.0
 10
-15.022470467
 20
-2.146354188
 30
0.0
 10
-14.9983734249
 20
-1.5625392325
 30
0.0
 10
-14.8985683712
 20
-1.0153900892
 30
0.0
 10
-14.7488498407
 20
-0.5939797797
 30
0.0
 10
-14.5892617805
 20
-0.28930667
 30
0.0
 10
-14.4515171904
 20
-0.0800511955
 30
0.0
 10
-14.2947997366
 20
0.1105211134
 30
0.0
 10
-14.1198229198
 20
0.2804621226
 30
0.0
 10
-13.9278293013
 20
0.4277708629
 30
0.0
 10
-13.7894133409
 20
0.5097993808
 30
0.0
 10
-13.7182092964
 20
0.5463893798
 30
0.0
 11
-11.9153366469
 21
-7.3577379461
 31
0.0
 11
-12.4048983521
 21
-7.0672175207
 31
0.0
 11
-12.8753905456
 21
-6.697259713
 31
0.0
 11
-13.3185521697
 21
-6.2563698739
 31
0.0
 11
-13.7259413116
 21
-5.7542936356
 31
0.0
 11
-14.089287262
 21
-5.2020880555
 31
0.0
 11
-14.4008733892
 21
-4.6119606529
 31
0.0
 11
-14.6538680863
 21
-3.9969514669
 31
0.0
 11
-14.8425643272
 21
-3.3705179169
 31
0.0
 11
-14.9624988473
 21
-2.746081577
 31
0.0
 11
-15.0104283072
 21
-2.1365857197
 31
0.0
 11
-14.9841378537
 21
-1.5541670417
 31
0.0
 11
-14.8821090815
 21
-1.0101123887
 31
0.0
 11
-14.7032464746
 21
-0.5153505675
 31
0.0
 11
-14.5848344276
 21
-0.2900522726
 31
0.0
 11
-14.4472236866
 21
-0.0816212076
 31
0.0
 11
-14.2907891069
 21
0.1081419
 31
0.0
 11
-14.1162657765
 21
0.2773210571
 31
0.0
 11
-13.9248455702
 21
0.4239922961
 31
0.0
 11
-13.7182092964
 21
0.5463893798
 31
0.0
  0
SPLINE
  5
342
100
AcDbEntity
  8
RACCORDO
100
AcDbSpline
 62
7
  6
CONTINUOUS
 70
0
 71
3
 72
14
 73
10
 74
8
 42
0.0000001
 43
0.0000001
 44
0.0000000001
 12
-2.062311588
 22
-1.0028547722
 32
0.0
 13
-2.051116141
 23
1.0255580705
 33
0.0
 40
0.0
 40
0.0
 40
0.0
 40
0.0
 40
0.1187465392
 40
0.2381209359
 40
0.3587070373
 40
0.4811210459
 40
0.6059666623
 40
0.7338080851
 40
1.0
 40
1.0
 40
1.0
 40
1.0
 10
-9.7046501451
 20
-7.4807289229
 30
0.0
 10
-9.786280933
 20
-7.5204241008
 30
0.0
 10
-9.9556504969
 20
-7.5888983413
 30
0.0
 10
-10.2221404708
 20
-7.656659773
 30
0.0
 10
-10.4979684582
 20
-7.6894276113
 30
0.0
 10
-10.7798177355
 20
-7.6877230368
 30
0.0
 10
-11.0650215705
 20
-7.6525945748
 30
0.0
 10
-11.4517158226
 20
-7.561829553
 30
0.0
 10
-11.7333398025
 20
-7.4487363683
 30
0.0
 10
-11.9153366469
 20
-7.3577379461
 30
0.0
 11
-9.7046501451
 21
-7.4807289229
 31
0.0
 11
-9.957077698
 21
-7.5828757029
 31
0.0
 11
-10.2223240723
 21
-7.6505826029
 31
0.0
 11
-10.4968791644
 21
-7.6835740213
 31
0.0
 11
-10.7775984038
 21
-7.6823394389
 31
0.0
 11
-11.0618129977
 21
-7.6478618963
 31
0.0
 11
-11.3473439669
 21
-7.5813813977
 31
0.0
 11
-11.9153366469
 21
-7.3577379461
 31
0.0
  0
SPLINE
  5
343
100
AcDbEntity
  8
RACCORDO
100
AcDbSpline
 62
7
  6
CONTINUOUS
 70
0
 71
3
 72
9
 73
5
 74
3
 42
0.0000001
 43
0.0000001
 44
0.0000000001
 12
-0.0110860342
 22
-0.0399468313
 32
0.0
 13
0.0000244836
 23
-0.0414565904
 33
0.0
 40
0.0
 40
0.0
 40
0.0
 40
0.0
 40
0.470196659
 40
1.0
 40
1.0
 40
1.0
 40
1.0
 10
-8.691968225
 20
21.6878063381
 30
0.0
 10
-8.6937057638
 20
21.6815453826
 30
0.0
 10
-8.6961349462
 20
21.66787551
 30
0.0
 10
-8.6967944747
 20
21.6540444552
 30
0.0
 10
-8.6967901509
 20
21.6467231752
 30
0.0
 11
-8.691968225
 21
21.6878063381
 31
0.0
 11
-8.695598907
 21
21.6686546908
 31
0.0
 11
-8.6967901509
 21
21.6467231752
 31
0.0
  0
SPLINE
  5
344
100
AcDbEntity
  8
RACCORDO
100
AcDbSpline
 62
253
  6
CONTINUOUS
 70
0
 71
3
 72
11
 73
7
 74
5
 42
0.0000001
 43
0.0000001
 44
0.0000000001
 12
-0.0000013331
 22
-0.1191821839
 32
0.0
 13
-0.1063496853
 23
-0.0537971877
 33
0.0
 40
0.0
 40
0.0
 40
0.0
 40
0.0
 40
0.2069628811
 40
0.4350650041
 40
0.6978063725
 40
1.0
 40
1.0
 40
1.0
 40
1.0
 10
-10.3207486418
 20
23.7664688393
 30
0.0
 10
-10.3207487338
 20
23.7582467432
 30
0.0
 10
-10.3243478581
 20
23.7408308405
 30
0.0
 10
-10.3393972347
 20
23.7170355821
 30
0.0
 10
-10.3628741807
 20
23.6956237963
 30
0.0
 10
-10.3822337644
 20
23.6840152641
 30
0.0
 10
-10.3929464968
 20
23.6785962084
 30
0.0
 11
-10.3207486418
 21
23.7664688393
 31
0.0
 11
-10.325481829
 21
23.7422609333
 31
0.0
 11
-10.3395021376
 21
23.7189694385
 31
0.0
 11
-10.3622762702
 21
23.6974773208
 31
0.0
 11
-10.3929464968
 21
23.6785962084
 31
0.0
  0
SPLINE
  5
345
100
AcDbEntity
  8
RACCORDO
100
AcDbSpline
 62
253
  6
CONTINUOUS
 70
0
 71
3
 72
11
 73
7
 74
5
 42
0.0000001
 43
0.0000001
 44
0.0000000001
 12
-0.0000014429
 22
-0.119182188
 32
0.0
 13
-0.1063496889
 23
-0.0537971895
 33
0.0
 40
0.0
 40
0.0
 40
0.0
 40
0.0
 40
0.2069627842
 40
0.4350648191
 40
0.6978060254
 40
1.0
 40
1.0
 40
1.0
 40
1.0
 10
-10.3207486422
 20
24.1140003605
 30
0.0
 10
-10.3207487417
 20
24.105778268
 30
0.0
 10
-10.3243478505
 20
24.0883623719
 30
0.0
 10
-10.3393972204
 20
24.0645671219
 30
0.0
 10
-10.3628741591
 20
24.0431553227
 30
0.0
 10
-10.3822337517
 20
24.0315467873
 30
0.0
 10
-10.3929464968
 20
24.0261277251
 30
0.0
 11
-10.3207486422
 21
24.1140003605
 31
0.0
 11
-10.3254818246
 21
24.0897924646
 31
0.0
 11
-10.3395021231
 21
24.0665009748
 31
0.0
 11
-10.3622762352
 21
24.045008862
 31
0.0
 11
-10.3929464968
 21
24.0261277251
 31
0.0
  0
SPLINE
  5
346
100
AcDbEntity
  8
RACCORDO
100
AcDbSpline
 62
253
  6
CONTINUOUS
 70
0
 71
3
 72
36
 73
32
 74
30
 42
0.0000001
 43
0.0000001
 44
0.0000000001
 12
0.0000552341
 22
15.3387440631
 32
0.0
 13
0.0000382542
 23
-15.3387440631
 33
0.0
 40
0.0
 40
0.0
 40
0.0
 40
0.0
 40
0.0323782648
 40
0.063369018
 40
0.0929345858
 40
0.1210939169
 40
0.1479243043
 40
0.1735683447
 40
0.1982373684
 40
0.2222062528
 40
0.2458019595
 40
0.2693814368
 40
0.2933031604
 40
0.317898623
 40
0.3434493416
 40
0.3701728987
 40
0.3982192435
 40
0.4276717755
 40
0.4585525588
 40
0.4908275734
 40
0.5244204654
 40
0.5592150477
 40
0.5950624644
 40
0.6317869106
 40
0.7070297078
 40
0.7832496733
 40
0.8586137988
 40
0.8954337272
 40
0.9313909669
 40
0.9662998973
 40
1.0
 40
1.0
 40
1.0
 40
1.0
 10
-16.0118377489
 20
-1.4002236584
 30
0.0
 10
-16.0118371528
 20
-1.2346763528
 30
0.0
 10
-15.9989744711
 20
-0.9104824938
 30
0.0
 10
-15.938486844
 20
-0.438533216
 30
0.0
 10
-15.8376282732
 20
0.0045034897
 30
0.0
 10
-15.6973475568
 20
0.4143742458
 30
0.0
 10
-15.5188364005
 20
0.7871433667
 30
0.0
 10
-15.3036102858
 20
1.1190894017
 30
0.0
 10
-15.0536503229
 20
1.4068137232
 30
0.0
 10
-14.7712940039
 20
1.6471462082
 30
0.0
 10
-14.4594674925
 20
1.8374222825
 30
0.0
 10
-14.1214844014
 20
1.9753898773
 30
0.0
 10
-13.7611173555
 20
2.0596971855
 30
0.0
 10
-13.3822398316
 20
2.0895981861
 30
0.0
 10
-12.988777751
 20
2.0650347425
 30
0.0
 10
-12.5846145549
 20
1.9865288687
 30
0.0
 10
-12.1736173842
 20
1.8550261415
 30
0.0
 10
-11.7596266197
 20
1.6719745797
 30
0.0
 10
-11.3465567434
 20
1.439138726
 30
0.0
 10
-10.9382273208
 20
1.1588798101
 30
0.0
 10
-10.5384800494
 20
0.8338648852
 30
0.0
 10
-10.1510374031
 20
0.4672414544
 30
0.0
 10
-9.7795200725
 20
0.0625028916
 30
0.0
 10
-9.3063409756
 20
-0.527384008
 30
0.0
 10
-8.7774174278
 20
-1.3343897885
 30
0.0
 10
-8.2609578382
 20
-2.3756383634
 30
0.0
 10
-7.9375040125
 20
-3.2858108631
 30
0.0
 10
-7.7520345853
 20
-4.020631133
 30
0.0
 10
-7.6522371904
 20
-4.562540895
 30
0.0
 10
-7.5916860036
 20
-5.0941561285
 30
0.0
 10
-7.5775379242
 20
-5.4450680354
 30
0.0
 10
-7.5775374945
 20
-5.6173737857
 30
0.0
 11
-16.0118377489
 21
-1.4002236584
 31
0.0
 11
-15.9912832536
 21
-0.9040072677
 31
0.0
 11
-15.9298510625
 21
-0.4326342885
 31
0.0
 11
-15.8281224355
 21
0.0093072649
 31
0.0
 11
-15.6871424626
 21
0.4175805944
 31
0.0
 11
-15.5083068492
 21
0.788237652
 31
0.0
 11
-15.2933735957
 21
1.1176702723
 31
0.0
 11
-15.0444888272
 21
1.4026908995
 31
0.0
 11
-14.7641089174
 21
1.6405049614
 31
0.0
 11
-14.455020118
 21
1.8288035467
 31
0.0
 11
-14.1202489703
 21
1.965699086
 31
0.0
 11
-13.7631063293
 21
2.0498784665
 31
0.0
 11
-13.3870866143
 21
2.0804877286
 31
0.0
 11
-12.9958635489
 21
2.0571936855
 31
0.0
 11
-12.5932522294
 21
1.9802073724
 31
0.0
 11
-12.1831562497
 21
1.8502472541
 31
0.0
 11
-11.769535097
 21
1.6685634039
 31
0.0
 11
-11.356397647
 21
1.4368674408
 31
0.0
 11
-10.9477328552
 21
1.1574471513
 31
0.0
 11
-10.5474459528
 21
0.8329838617
 31
0.0
 11
-10.1593508295
 21
0.4666187312
 31
0.0
 11
-9.7871429088
 21
0.0618952837
 31
0.0
 11
-9.4343487659
 21
-0.3772526825
 31
0.0
 11
-8.8001142137
 21
-1.3414946691
 31
0.0
 11
-8.2804743043
 21
-2.3887828491
 31
0.0
 11
-7.8948649344
 21
-3.4785629558
 31
0.0
 11
-7.757013023
 21
-4.0262523303
 31
0.0
 11
-7.6576088327
 21
-4.5687594387
 31
0.0
 11
-7.5976086906
 21
-5.1008463507
 31
0.0
 11
-7.5775374945
 21
-5.6173737857
 31
0.0
  0
SPLINE
  5
347
100
AcDbEntity
  8
RACCORDO
100
AcDbSpline
 62
253
  6
CONTINUOUS
 70
0
 71
3
 72
9
 73
5
 74
3
 42
0.0000001
 43
0.0000001
 44
0.0000000001
 12
0.7414029886
 22
-0.6355902568
 32
0.0
 13
0.6298533395
 23
-0.7462828799
 33
0.0
 40
0.0
 40
0.0
 40
0.0
 40
0.0
 40
0.2592042939
 40
1.0
 40
1.0
 40
1.0
 40
1.0
 10
-8.2676683513
 20
-4.9272696022
 30
0.0
 10
-8.2036100719
 20
-4.9821855101
 30
0.0
 10
-7.960339171
 20
-5.1984694316
 30
0.0
 10
-7.7330683776
 20
-5.4330927347
 30
0.0
 10
-7.5775374945
 20
-5.6173737857
 30
0.0
 11
-8.2676683513
 21
-4.9272696022
 31
0.0
 11
-8.0785713448
 21
-5.095541118
 31
0.0
 11
-7.5775374945
 21
-5.6173737857
 31
0.0
  0
LINE
  5
348
100
AcDbEntity
  8
DRAFT
100
AcDbLine
 62
253
  6
CONTINUOUS
 10
-8.2726488369
 20
-4.9230039649
 11
-8.2676683513
 21
-4.9272696022
  0
SPLINE
  5
349
100
AcDbEntity
  8
DRAFT
100
AcDbSpline
 62
7
  6
CONTINUOUS
 70
0
 71
3
 72
18
 73
14
 74
12
 42
0.0000001
 43
0.0000001
 44
0.0000000001
 12
0.0
 22
6.6095533126
 32
0.0
 13
-5.9117642164
 23
2.9558820751
 33
0.0
 40
0.0
 40
0.0
 40
0.0
 40
0.0
 40
0.1197861406
 40
0.2468587007
 40
0.3785281498
 40
0.5117127388
 40
0.6432185197
 40
0.707412748
 40
0.7700774103
 40
0.8309030299
 40
0.8896257261
 40
0.9460377126
 40
1.0
 40
1.0
 40
1.0
 40
1.0
 10
-8.2726488369
 20
-4.9230039649
 30
0.0
 10
-8.2726488369
 20
-4.659093004
 30
0.0
 10
-8.3172101098
 20
-4.1146747803
 30
0.0
 10
-8.4983717086
 20
-3.2984179534
 30
0.0
 10
-8.7894884472
 20
-2.4831610151
 30
0.0
 10
-9.1798273499
 20
-1.6997919123
 30
0.0
 10
-9.5792485162
 20
-1.0928060257
 30
0.0
 10
-9.9363643367
 20
-0.6491011663
 30
0.0
 10
-10.2166527687
 20
-0.344637553
 30
0.0
 10
-10.5088258941
 20
-0.0688243492
 30
0.0
 10
-10.8101488938
 20
0.1757242703
 30
0.0
 10
-11.1177635335
 20
0.3866124754
 30
0.0
 10
-11.3299881416
 20
0.5061770922
 30
0.0
 10
-11.4363255816
 20
0.5593458116
 30
0.0
 11
-8.2726488369
 21
-4.9230039649
 31
0.0
 11
-8.3332208716
 21
-4.133591534
 31
0.0
 11
-8.5126590326
 21
-3.31309049
 31
0.0
 11
-8.8042055659
 21
-2.4931018569
 31
0.0
 11
-9.1968714184
 21
-1.7052407382
 31
0.0
 11
-9.6758198551
 21
-0.9799081104
 31
0.0
 11
-9.9420903032
 21
-0.6495651927
 31
0.0
 11
-10.2228992573
 21
-0.3451051806
 31
0.0
 11
-10.515570507
 21
-0.0694753539
 31
0.0
 11
-10.8173019685
 21
0.1746632058
 31
0.0
 11
-11.1252072514
 21
0.3849426597
 31
0.0
 11
-11.4363255816
 21
0.5593458116
 31
0.0
  0
SPLINE
  5
34A
100
AcDbEntity
  8
DRAFT
100
AcDbSpline
 62
7
  6
CONTINUOUS
 70
0
 71
3
 72
14
 73
10
 74
8
 42
0.0000001
 43
0.0000001
 44
0.0000000001
 12
-1.8862708562
 22
0.9431354175
 32
0.0
 13
-1.8757346961
 23
-0.9639198664
 33
0.0
 40
0.0
 40
0.0
 40
0.0
 40
0.0
 40
0.278477248
 40
0.4090760605
 40
0.5343782902
 40
0.6550940003
 40
0.7721560156
 40
0.8866960295
 40
1.0
 40
1.0
 40
1.0
 40
1.0
 10
-11.4363255816
 20
0.5593458116
 30
0.0
 10
-11.6114200873
 20
0.6468930634
 30
0.0
 10
-11.8802568919
 20
0.7551266847
 30
0.0
 10
-12.2467143983
 20
0.8402699151
 30
0.0
 10
-12.5102197023
 20
0.8715570004
 30
0.0
 10
-12.766097725
 20
0.8712479512
 30
0.0
 10
-13.0124246599
 20
0.8392387813
 30
0.0
 10
-13.2471686257
 20
0.7757077196
 30
0.0
 10
-13.3950061465
 20
0.7124759637
 30
0.0
 10
-13.4658488761
 20
0.6760706477
 30
0.0
 11
-11.4363255816
 21
0.5593458116
 31
0.0
 11
-11.9828584025
 21
0.7743000873
 31
0.0
 11
-12.2512730608
 21
0.8360312039
 31
0.0
 11
-12.5137528374
 21
0.8665819852
 31
0.0
 11
-12.7683305711
 21
0.8657290438
 31
0.0
 11
-13.0130898644
 21
0.8334865741
 31
0.0
 11
-13.2461817763
 21
0.7701063835
 31
0.0
 11
-13.4658488761
 21
0.6760706477
 31
0.0
  0
SPLINE
  5
34B
100
AcDbEntity
  8
RACCORDO
100
AcDbSpline
 62
253
  6
CONTINUOUS
 70
0
 71
3
 72
36
 73
32
 74
30
 42
0.0000001
 43
0.0000001
 44
0.0000000001
 12
-0.0000371181
 22
-15.2933368879
 32
0.0
 13
-0.0000569529
 23
15.2933368878
 33
0.0
 40
0.0
 40
0.0
 40
0.0
 40
0.0
 40
0.0324573333
 40
0.0634817106
 40
0.0930272244
 40
0.1211072093
 40
0.1477972842
 40
0.1732435647
 40
0.1976670749
 40
0.2213588381
 40
0.2446671331
 40
0.2679727076
 40
0.2916562
 40
0.3160663871
 40
0.3414951347
 40
0.3681632301
 40
0.3962178601
 40
0.4257352501
 40
0.4567275897
 40
0.4891494032
 40
0.5229126061
 40
0.5578896839
 40
0.5939215162
 40
0.6308235517
 40
0.7063759308
 40
0.7828232813
 40
0.8583399771
 40
0.8952206575
 40
0.9312376814
 40
0.966214374
 40
1.0
 40
1.0
 40
1.0
 40
1.0
 10
-7.5775374945
 20
-5.6173737857
 30
0.0
 10
-7.5775378961
 20
-5.7828340968
 30
0.0
 10
-7.5900730894
 20
-6.1066350391
 30
0.0
 10
-7.6491000884
 20
-6.5778012525
 30
0.0
 10
-7.7475856985
 20
-7.0196255116
 30
0.0
 10
-7.8846728376
 20
-7.4279140769
 30
0.0
 10
-8.0593027506
 20
-7.7988031283
 30
0.0
 10
-8.2701289889
 20
-8.1286498233
 30
0.0
 10
-8.5153644926
 20
-8.4141281446
 30
0.0
 10
-8.7928726376
 20
-8.6521261169
 30
0.0
 10
-9.0999088237
 20
-8.8400296167
 30
0.0
 10
-9.4333103892
 20
-8.9756500715
 30
0.0
 10
-9.7894376896
 20
-9.0577298356
 30
0.0
 10
-10.1645534049
 20
-9.0856381984
 30
0.0
 10
-10.5548758816
 20
-9.0594282642
 30
0.0
 10
-10.9566592007
 20
-8.9797060785
 30
0.0
 10
-11.3661475213
 20
-8.8474703569
 30
0.0
 10
-11.7795730602
 20
-8.6641916068
 30
0.0
 10
-12.1930525748
 20
-8.4316379731
 30
0.0
 10
-12.6027523656
 20
-8.1521490046
 30
0.0
 10
-13.0047788595
 20
-7.8283578111
 30
0.0
 10
-13.3953198129
 20
-7.4633597835
 30
0.0
 10
-13.7706343254
 20
-7.0605836409
 30
0.0
 10
-14.249541232
 20
-6.4738227841
 30
0.0
 10
-14.7865335074
 20
-5.6712437267
 30
0.0
 10
-15.3128637256
 20
-4.6348206988
 30
0.0
 10
-15.643463896
 20
-3.7277686271
 30
0.0
 10
-15.8332050063
 20
-2.9948958635
 30
0.0
 10
-15.935356534
 20
-2.4540860537
 30
0.0
 10
-15.9973616519
 20
-1.9231167528
 30
0.0
 10
-16.0118371075
 20
-1.5724553118
 30
0.0
 10
-16.0118377489
 20
-1.4002236584
 30
0.0
 11
-7.5775374945
 21
-5.6173737857
 31
0.0
 11
-7.5976089122
 21
-6.113348754
 31
0.0
 11
-7.6576094772
 21
-6.5840059094
 31
0.0
 11
-7.7570142422
 21
-7.0247855139
 31
0.0
 11
-7.8948665358
 21
-7.4314949896
 31
0.0
 11
-8.0698909357
 21
-7.8002464265
 31
0.0
 11
-8.2804762263
 21
-8.1275050475
 31
0.0
 11
-8.5246429015
 21
-8.4101666147
 31
0.0
 11
-8.8001161986
 21
-8.6455273506
 31
0.0
 11
-9.1042978951
 21
-8.831372377
 31
0.0
 11
-9.4343511202
 21
-8.9659089377
 31
0.0
 11
-9.7871452921
 21
-9.0479140808
 31
0.0
 11
-10.1593533907
 21
-9.0766175242
 31
0.0
 11
-10.5474485138
 21
-9.0517595091
 31
0.0
 11
-10.9477355099
 21
-8.9736110277
 31
0.0
 11
-11.3564001734
 21
-8.8429352494
 31
0.0
 11
-11.7695375477
 21
-8.6610095113
 31
0.0
 11
-12.1831588066
 21
-8.4295554588
 31
0.0
 11
-12.5932548355
 21
-8.1508507977
 31
0.0
 11
-12.9958660839
 21
-7.8275496864
 31
0.0
 11
-13.3870891704
 21
-7.4627485445
 31
0.0
 11
-13.7631087198
 21
-7.059930919
 31
0.0
 11
-14.1202512629
 21
-6.622957161
 31
0.0
 11
-14.7641108784
 21
-5.6635277241
 31
0.0
 11
-15.2933754583
 21
-4.6210518961
 31
0.0
 11
-15.6871440498
 21
-3.5353514087
 31
0.0
 11
-15.8281236425
 21
-2.9892258775
 31
0.0
 11
-15.9298516768
 21
-2.4478806947
 31
0.0
 11
-15.9912834914
 21
-1.9165096299
 31
0.0
 11
-16.0118377489
 21
-1.4002236584
 31
0.0
  0
SPLINE
  5
34C
100
AcDbEntity
  8
RACCORDO
100
AcDbSpline
 62
253
  6
CONTINUOUS
 70
0
 71
3
 72
33
 73
29
 74
27
 42
0.0000001
 43
0.0000001
 44
0.0000000001
 12
9.4194957506
 22
-4.7097478753
 32
0.0
 13
-9.4194957506
 23
4.7097478753
 33
0.0
 40
0.0
 40
0.0
 40
0.0
 40
0.0
 40
0.0294874034
 40
0.0575405403
 40
0.0842398778
 40
0.1097328992
 40
0.1342391735
 40
0.1580452559
 40
0.1814912099
 40
0.2049467199
 40
0.2287806611
 40
0.2533308597
 40
0.2788807266
 40
0.3056460521
 40
0.3337713044
 40
0.3633325709
 40
0.39434409
 40
0.4267661746
 40
0.4605132043
 40
0.4954611203
 40
0.5682717277
 40
0.6437253365
 40
0.7200692822
 40
0.7954766101
 40
0.86819857
 40
0.9030887254
 40
0.9367709924
 40
1.0
 40
1.0
 40
1.0
 40
1.0
 10
-12.0359832589
 20
-7.1813140416
 30
0.0
 10
-11.9433977686
 20
-7.2276067867
 30
0.0
 10
-11.7583385598
 20
-7.3095557376
 30
0.0
 10
-11.4762437436
 20
-7.4002214034
 30
0.0
 10
-11.1991221164
 20
-7.4546320929
 30
0.0
 10
-10.9296216989
 20
-7.4720846184
 30
0.0
 10
-10.6703636906
 20
-7.4522110722
 30
0.0
 10
-10.423996139
 20
-7.3950038159
 30
0.0
 10
-10.1931517257
 20
-7.3009091443
 30
0.0
 10
-9.9803472981
 20
-7.1708888468
 30
0.0
 10
-9.7878462805
 20
-7.0064029639
 30
0.0
 10
-9.6175667624
 20
-6.8093073264
 30
0.0
 10
-9.4710750834
 20
-6.5817345161
 30
0.0
 10
-9.3496348988
 20
-6.326019623
 30
0.0
 10
-9.2542582492
 20
-6.0446782674
 30
0.0
 10
-9.1857318061
 20
-5.7404104271
 30
0.0
 10
-9.1446193542
 20
-5.4161024521
 30
0.0
 10
-9.131255303
 20
-5.0748261403
 30
0.0
 10
-9.1457280813
 20
-4.719796958
 30
0.0
 10
-9.2027218779
 20
-4.2259535982
 30
0.0
 10
-9.3435654743
 20
-3.5962841113
 30
0.0
 10
-9.6111978763
 20
-2.8526349822
 30
0.0
 10
-9.9698355599
 20
-2.1380649795
 30
0.0
 10
-10.4059714621
 20
-1.4795061198
 30
0.0
 10
-10.8263681392
 20
-0.9909569497
 30
0.0
 10
-11.1880108631
 20
-0.6508412263
 30
0.0
 10
-11.5478500574
 20
-0.3596630322
 30
0.0
 10
-11.8374548027
 20
-0.1768432678
 30
0.0
 10
-12.0359832589
 20
-0.0775790397
 30
0.0
 11
-12.0359832589
 21
-7.1813140416
 31
0.0
 11
-11.7517226687
 21
-7.3063409919
 31
0.0
 11
-11.4702051676
 21
-7.3959546029
 31
0.0
 11
-11.1941321292
 21
-7.4492969281
 31
0.0
 11
-10.9261679302
 21
-7.4658514974
 31
0.0
 11
-10.6688914655
 21
-7.4454597108
 31
0.0
 11
-10.4247808858
 21
-7.3883175969
 31
0.0
 11
-10.1961871517
 21
-7.2949752639
 31
0.0
 11
-9.9853117654
 21
-7.1663317014
 31
0.0
 11
-9.794185461
 21
-7.00362605
 31
0.0
 11
-9.624648803
 21
-6.8084253613
 31
0.0
 11
-9.4783344961
 21
-6.5826095129
 31
0.0
 11
-9.3566516844
 21
-6.328353131
 31
0.0
 11
-9.2607723962
 21
-6.0481046842
 31
0.0
 11
-9.191620105
 21
-5.7445630695
 31
0.0
 11
-9.1498606228
 21
-5.4206517262
 31
0.0
 11
-9.1358959817
 21
-5.0794901795
 31
0.0
 11
-9.1498606227
 21
-4.7243639918
 31
0.0
 11
-9.191620105
 21
-4.3586931662
 31
0.0
 11
-9.3566516843
 21
-3.6098715253
 31
0.0
 11
-9.6246488028
 21
-2.8618021764
 31
0.0
 11
-9.9853117651
 21
-2.1432328739
 31
0.0
 11
-10.4247808855
 21
-1.4817778579
 31
0.0
 11
-10.9261679299
 21
-0.9028569129
 31
0.0
 11
-11.1941321288
 21
-0.6514472832
 31
0.0
 11
-11.4702051672
 21
-0.42871657
 31
0.0
 11
-12.0359832589
 21
-0.0775790397
 31
0.0
  0
SPLINE
  5
34D
100
AcDbEntity
  8
RACCORDO
100
AcDbSpline
 62
253
  6
CONTINUOUS
 70
0
 71
3
 72
33
 73
29
 74
27
 42
0.0000001
 43
0.0000001
 44
0.0000000001
 12
-9.4194957506
 22
4.7097478753
 32
0.0
 13
9.4194957506
 23
-4.7097478753
 33
0.0
 40
0.0
 40
0.0
 40
0.0
 40
0.0
 40
0.0294874034
 40
0.0575405403
 40
0.0842398778
 40
0.1097328992
 40
0.1342391735
 40
0.1580452559
 40
0.1814912099
 40
0.2049467199
 40
0.2287806611
 40
0.2533308597
 40
0.2788807266
 40
0.3056460521
 40
0.3337713044
 40
0.3633325709
 40
0.39434409
 40
0.4267661746
 40
0.4605132043
 40
0.4954611203
 40
0.5682717277
 40
0.6437253365
 40
0.7200692822
 40
0.7954766101
 40
0.86819857
 40
0.9030887254
 40
0.9367709924
 40
1.0
 40
1.0
 40
1.0
 40
1.0
 10
-12.0359832589
 20
-0.0775790397
 30
0.0
 10
-12.1285687492
 20
-0.0312862946
 30
0.0
 10
-12.313627958
 20
0.0506626563
 30
0.0
 10
-12.5957227742
 20
0.1413283222
 30
0.0
 10
-12.8728444014
 20
0.1957390116
 30
0.0
 10
-13.1423448189
 20
0.2131915371
 30
0.0
 10
-13.4016028272
 20
0.1933179909
 30
0.0
 10
-13.6479703788
 20
0.1361107346
 30
0.0
 10
-13.8788147921
 20
0.042016063
 30
0.0
 10
-14.0916192197
 20
-0.0880042345
 30
0.0
 10
-14.2841202373
 20
-0.2524901174
 30
0.0
 10
-14.4543997554
 20
-0.4495857549
 30
0.0
 10
-14.6008914343
 20
-0.6771585652
 30
0.0
 10
-14.722331619
 20
-0.9328734583
 30
0.0
 10
-14.8177082686
 20
-1.2142148139
 30
0.0
 10
-14.8862347117
 20
-1.5184826542
 30
0.0
 10
-14.9273471636
 20
-1.8427906292
 30
0.0
 10
-14.9407112148
 20
-2.184066941
 30
0.0
 10
-14.9262384364
 20
-2.5390961233
 30
0.0
 10
-14.8692446399
 20
-3.0329394831
 30
0.0
 10
-14.7284010434
 20
-3.66260897
 30
0.0
 10
-14.4607686414
 20
-4.4062580991
 30
0.0
 10
-14.1021309579
 20
-5.1208281018
 30
0.0
 10
-13.6659950557
 20
-5.7793869615
 30
0.0
 10
-13.2455983785
 20
-6.2679361316
 30
0.0
 10
-12.8839556547
 20
-6.608051855
 30
0.0
 10
-12.5241164604
 20
-6.8992300491
 30
0.0
 10
-12.2345117151
 20
-7.0820498135
 30
0.0
 10
-12.0359832589
 20
-7.1813140416
 30
0.0
 11
-12.0359832589
 21
-0.0775790397
 31
0.0
 11
-12.3202438491
 21
0.0474479106
 31
0.0
 11
-12.6017613502
 21
0.1370615216
 31
0.0
 11
-12.8778343885
 21
0.1904038468
 31
0.0
 11
-13.1457985875
 21
0.2069584162
 31
0.0
 11
-13.4030750523
 21
0.1865666295
 31
0.0
 11
-13.6471856319
 21
0.1294245156
 31
0.0
 11
-13.8757793661
 21
0.0360821826
 31
0.0
 11
-14.0866547524
 21
-0.0925613799
 31
0.0
 11
-14.2777810568
 21
-0.2552670313
 31
0.0
 11
-14.4473177148
 21
-0.45046772
 31
0.0
 11
-14.5936320217
 21
-0.6762835684
 31
0.0
 11
-14.7153148333
 21
-0.9305399503
 31
0.0
 11
-14.8111941216
 21
-1.2107883971
 31
0.0
 11
-14.8803464127
 21
-1.5143300118
 31
0.0
 11
-14.922105895
 21
-1.8382413551
 31
0.0
 11
-14.9360705361
 21
-2.1794029018
 31
0.0
 11
-14.9221058951
 21
-2.5345290895
 31
0.0
 11
-14.8803464128
 21
-2.9001999151
 31
0.0
 11
-14.7153148335
 21
-3.649021556
 31
0.0
 11
-14.447317715
 21
-4.3970909049
 31
0.0
 11
-14.0866547527
 21
-5.1156602074
 31
0.0
 11
-13.6471856323
 21
-5.7771152234
 31
0.0
 11
-13.1457985879
 21
-6.3560361684
 31
0.0
 11
-12.8778343889
 21
-6.6074457981
 31
0.0
 11
-12.6017613506
 21
-6.8301765113
 31
0.0
 11
-12.0359832589
 21
-7.1813140416
 31
0.0
  0
SPLINE
  5
34E
100
AcDbEntity
  8
RACCORDO
100
AcDbSpline
 62
253
  6
CONTINUOUS
 70
0
 71
3
 72
11
 73
7
 74
5
 42
0.0000001
 43
0.0000001
 44
0.0000000001
 12
-0.1026843425
 22
0.0513470616
 32
0.0
 13
-0.1029781233
 23
-0.0507553057
 33
0.0
 40
0.0
 40
0.0
 40
0.0
 40
0.0
 40
0.2274030322
 40
0.4651083369
 40
0.721100729
 40
1.0
 40
1.0
 40
1.0
 40
1.0
 10
-11.7962715497
 20
25.0062699388
 30
0.0
 10
-11.8040551267
 20
25.0101620979
 30
0.0
 10
-11.821190738
 20
25.0158879584
 30
0.0
 10
-11.8490280275
 20
25.0173752388
 30
0.0
 10
-11.8783337924
 20
25.012014367
 30
0.0
 10
-11.8974728532
 20
25.0043988835
 30
0.0
 10
-11.907046361
 20
24.9996803442
 30
0.0
 11
-11.7962715497
 21
25.0062699388
 31
0.0
 11
-11.8210070498
 21
25.0146216928
 31
0.0
 11
-11.8482451207
 21
25.0163073226
 31
0.0
 11
-11.877201455
 21
25.0112791189
 31
0.0
 11
-11.907046361
 21
24.9996803442
 31
0.0
  0
SPLINE
  5
34F
100
AcDbEntity
  8
RACCORDO
100
AcDbSpline
 62
253
  6
CONTINUOUS
 70
0
 71
3
 72
13
 73
9
 74
7
 42
0.0000001
 43
0.0000001
 44
0.0000000001
 12
-1.6293994714
 22
0.8146997357
 32
0.0
 13
-1.7355797581
 23
-0.5535713142
 33
0.0
 40
0.0
 40
0.0
 40
0.0
 40
0.0
 40
0.2763414572
 40
0.5327629034
 40
0.6544435916
 40
0.7723873196
 40
0.88729684
 40
1.0
 40
1.0
 40
1.0
 40
1.0
 10
-11.6948151454
 20
0.427338245
 30
0.0
 10
-11.8449053535
 20
0.5023833491
 30
0.0
 10
-12.1448568578
 20
0.627337541
 30
0.0
 10
-12.5343001168
 20
0.7175691945
 30
0.0
 10
-12.8350221821
 20
0.741649589
 30
0.0
 10
-13.0506722581
 20
0.7365198323
 30
0.0
 10
-13.2590505903
 20
0.7084882825
 30
0.0
 10
-13.3933686871
 20
0.6743388099
 30
0.0
 10
-13.4585704615
 20
0.6535423977
 30
0.0
 11
-11.6948151454
 21
0.427338245
 31
0.0
 11
-12.1606680209
 21
0.6181539735
 31
0.0
 11
-12.6164222796
 21
0.7206120224
 31
0.0
 11
-12.8374128023
 21
0.7379374348
 31
0.0
 11
-13.0522047606
 21
0.732494178
 31
0.0
 11
-13.2596323945
 21
0.7043115296
 31
0.0
 11
-13.4585704615
 21
0.6535423977
 31
0.0
  0
SPLINE
  5
350
100
AcDbEntity
  8
RACCORDO
100
AcDbSpline
 62
253
  6
CONTINUOUS
 70
0
 71
3
 72
9
 73
5
 74
3
 42
0.0000001
 43
0.0000001
 44
0.0000000001
 12
0.06017299
 22
-0.030086512
 32
0.0
 13
0.06582613
 23
-0.0138891155
 33
0.0
 40
0.0
 40
0.0
 40
0.0
 40
0.0
 40
0.2332045771
 40
1.0
 40
1.0
 40
1.0
 40
1.0
 10
-16.0755004364
 20
-1.3788018367
 30
0.0
 10
-16.0708228975
 20
-1.3811406075
 30
0.0
 10
-16.0503675116
 20
-1.3903710596
 30
0.0
 10
-16.0286628146
 20
-1.3966736304
 30
0.0
 10
-16.0118377562
 20
-1.4002236671
 30
0.0
 11
-16.0755004364
 21
-1.3788018367
 31
0.0
 11
-16.0612143753
 21
-1.3852865439
 31
0.0
 11
-16.0118377562
 21
-1.4002236671
 31
0.0
  0
SPLINE
  5
351
100
AcDbEntity
  8
RACCORDO
100
AcDbSpline
 62
253
  6
CONTINUOUS
 70
0
 71
3
 72
9
 73
5
 74
3
 42
0.0000001
 43
0.0000001
 44
0.0000000001
 12
-0.0479789784
 22
0.0239894756
 32
0.0
 13
-0.0345979438
 23
0.0409934091
 33
0.0
 40
0.0
 40
0.0
 40
0.0
 40
0.0
 40
0.5344169458
 40
1.0
 40
1.0
 40
1.0
 40
1.0
 10
-7.534693851
 20
-5.6492051294
 30
0.0
 10
-7.5432407774
 20
-5.6449316686
 30
0.0
 10
-7.5587045324
 20
-5.6357852331
 30
0.0
 10
-7.5721681064
 20
-5.6237357349
 30
0.0
 10
-7.5775375118
 20
-5.6173737893
 30
0.0
 11
-7.534693851
 21
-5.6492051294
 31
0.0
 11
-7.5591977082
 21
-5.6343265293
 31
0.0
 11
-7.5775375118
 21
-5.6173737893
 31
0.0
  0
SPLINE
  5
352
100
AcDbEntity
  8
RACCORDO
100
AcDbSpline
 62
7
  6
CONTINUOUS
 70
0
 71
3
 72
15
 73
11
 74
9
 42
0.0000001
 43
0.0000001
 44
0.0000000001
 12
0.6271739864
 22
-0.3539607568
 32
0.0
 13
0.0132597171
 23
-0.7200413922
 33
0.0
 40
0.0
 40
0.0
 40
0.0
 40
0.0
 40
0.1110347967
 40
0.2313523873
 40
0.3587689084
 40
0.4905634939
 40
0.6236594143
 40
0.7548811152
 40
0.8812008158
 40
1.0
 40
1.0
 40
1.0
 40
1.0
 10
2.4429992545
 20
15.4780597201
 30
0.0
 10
2.4662119666
 20
15.4649590666
 30
0.0
 10
2.5121444651
 20
15.4332362674
 30
0.0
 10
2.5753008116
 20
15.3743215812
 30
0.0
 10
2.6335148546
 20
15.3039323014
 30
0.0
 10
2.6847202584
 20
15.224651693
 30
0.0
 10
2.7270889952
 20
15.1393010148
 30
0.0
 10
2.7591068226
 20
15.0509352355
 30
0.0
 10
2.7796331635
 20
14.9627354343
 30
0.0
 10
2.7853631636
 20
14.903935035
 30
0.0
 10
2.7858882448
 20
14.8754215917
 30
0.0
 11
2.4429992545
 21
15.4780597201
 31
0.0
 11
2.5091022958
 21
15.4330652533
 31
0.0
 11
2.5727275213
 21
15.3742454911
 31
0.0
 11
2.6314114713
 21
15.3037031312
 31
0.0
 11
2.6830053363
 21
15.22403712
 31
0.0
 11
2.7256140758
 21
15.1381774959
 31
0.0
 11
2.757675238
 21
15.0492812914
 31
0.0
 11
2.7780145447
 21
14.9606133418
 31
0.0
 11
2.7858882448
 21
14.8754215917
 31
0.0
  0
SPLINE
  5
353
100
AcDbEntity
  8
RACCORDO
100
AcDbSpline
 62
7
  6
CONTINUOUS
 70
0
 71
3
 72
12
 73
8
 74
6
 42
0.0000001
 43
0.0000001
 44
0.0000000001
 12
-0.0057716671
 22
-0.318992024
 32
0.0
 13
-0.2861193449
 23
-0.1411557438
 33
0.0
 40
0.0
 40
0.0
 40
0.0
 40
0.0
 40
0.2898656106
 40
0.5500311809
 40
0.7831910579
 40
0.8928393341
 40
1.0
 40
1.0
 40
1.0
 40
1.0
 10
2.7858882448
 20
-23.0562931702
 30
0.0
 10
2.7853305755
 20
-23.0871147761
 30
0.0
 10
2.7793539408
 20
-23.1457339539
 30
0.0
 10
2.7533017194
 20
-23.2256178901
 30
0.0
 10
2.7171389364
 20
-23.2799224657
 30
0.0
 10
2.681248151
 20
-23.3118954378
 30
0.0
 10
2.6614635463
 20
-23.3240262698
 30
0.0
 10
2.6512432998
 20
-23.3290683843
 30
0.0
 11
2.7858882448
 21
-23.0562931702
 31
0.0
 11
2.7756096988
 21
-23.1482001502
 31
0.0
 11
2.7487387019
 21
-23.2267346492
 31
0.0
 11
2.7065932831
 21
-23.2880321614
 31
0.0
 11
2.6804125303
 21
-23.3112346183
 31
0.0
 11
2.6512432998
 21
-23.3290683843
 31
0.0
  0
LINE
  5
354
100
AcDbEntity
  8
RACCORDO
100
AcDbLine
 62
7
  6
CONTINUOUS
 10
1.5530443132
 20
14.9808295384
 11
2.4431044959
 21
15.4781263493
  0
SPLINE
  5
355
100
AcDbEntity
  8
RACCORDO
100
AcDbSpline
 62
253
  6
CONTINUOUS
 70
0
 71
3
 72
15
 73
11
 74
9
 42
0.0000001
 43
0.0000001
 44
0.0000000001
 12
-1.2257468404
 22
-0.6692011747
 32
0.0
 13
-0.0469702942
 23
-1.3957361214
 33
0.0
 40
0.0
 40
0.0
 40
0.0
 40
0.0
 40
0.1125344619
 40
0.2331195696
 40
0.3599630726
 40
0.4907310907
 40
0.6227817409
 40
0.7533762873
 40
0.8798845414
 40
1.0
 40
1.0
 40
1.0
 40
1.0
 10
-2.7118010277
 20
11.8740714219
 30
0.0
 10
-2.7577806148
 20
11.8489686905
 30
0.0
 10
-2.8485178024
 20
11.7884579527
 30
0.0
 10
-2.9733089338
 20
11.6759165478
 30
0.0
 10
-3.0880869886
 20
11.5418161768
 30
0.0
 10
-3.1890339817
 20
11.3906199912
 30
0.0
 10
-3.2728319679
 20
11.2273331799
 30
0.0
 10
-3.3366947481
 20
11.0573600929
 30
0.0
 10
-3.3784965932
 20
10.8863793299
 30
0.0
 10
-3.3911080676
 20
10.7718236391
 30
0.0
 10
-3.392988687
 20
10.7159404776
 30
0.0
 11
-2.7118010277
 21
11.8740714219
 31
0.0
 11
-2.843072614
 21
11.7876642662
 31
0.0
 11
-2.9686011298
 21
11.6754090145
 31
0.0
 11
-3.0841213621
 21
11.5411191986
 31
0.0
 11
-3.1857047845
 21
11.3893587746
 31
0.0
 11
-3.2698958802
 21
11.2252864795
 31
0.0
 11
-3.333830283
 21
11.0544813679
 31
0.0
 11
-3.3753321866
 21
10.8827530315
 31
0.0
 11
-3.392988687
 21
10.7159404776
 31
0.0
  0
SPLINE
  5
356
100
AcDbEntity
  8
RACCORDO
100
AcDbSpline
 62
253
  6
CONTINUOUS
 70
0
 71
3
 72
15
 73
11
 74
9
 42
0.0000001
 43
0.0000001
 44
0.0000000001
 12
-1.8328740634
 22
-1.0116674781
 32
0.0
 13
-0.069987329
 23
-2.0923671265
 33
0.0
 40
0.0
 40
0.0
 40
0.0
 40
0.0
 40
0.1123063317
 40
0.2327572391
 40
0.3595516106
 40
0.4903413227
 40
0.6224664263
 40
0.7531670867
 40
0.8797892771
 40
1.0
 40
1.0
 40
1.0
 40
1.0
 10
-3.0776337677
 20
12.4770738676
 30
0.0
 10
-3.1462482219
 20
12.4392016465
 30
0.0
 10
-3.2816318912
 20
12.3479908841
 30
0.0
 10
-3.4677311607
 20
12.1786377922
 30
0.0
 10
-3.6388955464
 20
11.9769956928
 30
0.0
 10
-3.7894316407
 20
11.7497767737
 30
0.0
 10
-3.9143919813
 20
11.5045034626
 30
0.0
 10
-4.0096230207
 20
11.2492951854
 30
0.0
 10
-4.0719563416
 20
10.9926779891
 30
0.0
 10
-4.0907677518
 20
10.8207975583
 30
0.0
 10
-4.0935721609
 20
10.7369559033
 30
0.0
 11
-3.0776337677
 21
12.4770738676
 31
0.0
 11
-3.2734230273
 21
12.3468939847
 31
0.0
 11
-3.4606446115
 21
12.1779649632
 31
0.0
 11
-3.6329362957
 21
11.9760278139
 31
0.0
 11
-3.7844388459
 21
11.7479475361
 31
0.0
 11
-3.9099994935
 21
11.501478532
 31
0.0
 11
-4.0053478319
 21
11.2450018872
 31
0.0
 11
-4.067240652
 21
10.9872402256
 31
0.0
 11
-4.0935721609
 21
10.7369559033
 31
0.0
  0
SPLINE
  5
357
100
AcDbEntity
  8
RACCORDO
100
AcDbSpline
 62
253
  6
CONTINUOUS
 70
0
 71
3
 72
15
 73
11
 74
9
 42
0.0000001
 43
0.0000001
 44
0.0000000001
 12
-0.0325364716
 22
0.7318350036
 32
0.0
 13
-0.6502427749
 23
0.3373802427
 33
0.0
 40
0.0
 40
0.0
 40
0.0
 40
0.0
 40
0.1182341878
 40
0.2445920213
 40
0.3762598592
 40
0.5099675801
 40
0.6422895236
 40
0.7699078884
 40
0.8898863776
 40
1.0
 40
1.0
 40
1.0
 40
1.0
 10
-2.7118010277
 20
11.8740714219
 30
0.0
 10
-2.7130833355
 20
11.902914061
 30
0.0
 10
-2.7205729712
 20
11.9624187914
 30
0.0
 10
-2.7440298092
 20
12.0514765988
 30
0.0
 10
-2.7792729284
 20
12.1406364349
 30
0.0
 10
-2.8249879971
 20
12.2265434654
 30
0.0
 10
-2.8794601838
 20
12.305993109
 30
0.0
 10
-2.9406711915
 20
12.3760215822
 30
0.0
 10
-3.0063238729
 20
12.4340139455
 30
0.0
 10
-3.0537669053
 20
12.4646904808
 30
0.0
 10
-3.0776337677
 20
12.4770738676
 30
0.0
 11
-2.7118010277
 21
11.8740714219
 31
0.0
 11
-2.7221371989
 21
11.9600658569
 31
0.0
 11
-2.7454081712
 21
12.0496573502
 31
0.0
 11
-2.7807214427
 21
12.1394148458
 31
0.0
 11
-2.8267217392
 21
12.2258897585
 31
0.0
 11
-2.8816426534
 21
12.3057633713
 31
0.0
 11
-2.9433768281
 21
12.3759692716
 31
0.0
 11
-3.0095517949
 21
12.4338116031
 31
0.0
 11
-3.0776337677
 21
12.4770738676
 31
0.0
  0
SPLINE
  5
358
100
AcDbEntity
  8
RACCORDO
100
AcDbSpline
 62
253
  6
CONTINUOUS
 70
0
 71
3
 72
15
 73
11
 74
9
 42
0.0000001
 43
0.0000001
 44
0.0000000001
 12
-0.6597277107
 22
-0.2858494006
 32
0.0
 13
-0.6428529925
 23
0.3220101895
 33
0.0
 40
0.0
 40
0.0
 40
0.0
 40
0.0
 40
0.111849354
 40
0.2344080018
 40
0.364618772
 40
0.4988638171
 40
0.6332637546
 40
0.7639293112
 40
0.8872119581
 40
1.0
 40
1.0
 40
1.0
 40
1.0
 10
-3.392988687
 20
10.7159404776
 30
0.0
 10
-3.4175853931
 20
10.7052831207
 30
0.0
 10
-3.4709078701
 20
10.6869637398
 30
0.0
 10
-3.5564894904
 20
10.6685421963
 30
0.0
 10
-3.6488391533
 20
10.6583915966
 30
0.0
 10
-3.7445527326
 20
10.6569061329
 30
0.0
 10
-3.8401131106
 20
10.6641393658
 30
0.0
 10
-3.9320075001
 20
10.6798269782
 30
0.0
 10
-4.0168482486
 20
10.7033711914
 30
0.0
 10
-4.0694034507
 20
10.7248496038
 30
0.0
 10
-4.0935721608
 20
10.7369559034
 30
0.0
 11
-3.392988687
 21
10.7159404776
 31
0.0
 11
-3.468858047
 21
10.6892752365
 31
0.0
 11
-3.5549254927
 21
10.6703725013
 31
0.0
 11
-3.6479630247
 21
10.6599401658
 31
0.0
 11
-3.7444714907
 21
10.6583717277
 31
0.0
 11
-3.840823855
 21
10.6657254185
 31
0.0
 11
-3.9333989236
 21
10.6817255814
 31
0.0
 11
-4.0187149773
 21
10.7057693131
 31
0.0
 11
-4.0935721608
 21
10.7369559034
 31
0.0
  0
SPLINE
  5
359
100
AcDbEntity
  8
RACCORDO
100
AcDbSpline
 62
253
  6
CONTINUOUS
 70
0
 71
3
 72
18
 73
14
 74
12
 42
0.0000001
 43
0.0000001
 44
0.0000000001
 12
0.035807711
 22
-1.0294053606
 32
0.0
 13
0.9497563548
 23
0.3986482848
 33
0.0
 40
0.0
 40
0.0
 40
0.0
 40
0.0
 40
0.1464028953
 40
0.280415864
 40
0.4031528169
 40
0.4613353922
 40
0.5180567946
 40
0.5739992256
 40
0.6299000508
 40
0.6864996056
 40
0.7444881179
 40
0.8666676364
 40
1.0
 40
1.0
 40
1.0
 40
1.0
 10
-3.392988687
 20
-24.8636841501
 30
0.0
 10
-3.3912412362
 20
-24.9139201252
 30
0.0
 10
-3.3805999963
 20
-25.010163594
 30
0.0
 10
-3.3399963745
 20
-25.1434160951
 30
0.0
 10
-3.2856293863
 20
-25.2382946557
 30
0.0
 10
-3.2315069438
 20
-25.2996650247
 30
0.0
 10
-3.1867650225
 20
-25.3379187327
 30
0.0
 10
-3.1375664884
 20
-25.3687998835
 30
0.0
 10
-3.0843664104
 20
-25.3920186429
 30
0.0
 10
-3.0276615926
 20
-25.4073613202
 30
0.0
 10
-2.9467425379
 20
-25.4173439608
 30
0.0
 10
-2.838260369
 20
-25.4085387998
 30
0.0
 10
-2.7540121143
 20
-25.3817173909
 30
0.0
 10
-2.7118010277
 20
-25.3639998182
 30
0.0
 11
-3.392988687
 21
-24.8636841501
 31
0.0
 11
-3.3753321662
 21
-25.0134459885
 31
0.0
 11
-3.3338302771
 21
-25.145096417
 31
0.0
 11
-3.2698958776
 21
-25.254160798
 31
0.0
 11
-3.2301685026
 21
-25.2990306333
 31
0.0
 11
-3.1857047886
 21
-25.3369307062
 31
0.0
 11
-3.1368837031
 21
-25.3675383419
 31
0.0
 11
-3.0841213711
 21
-25.3905931698
 31
0.0
 11
-3.0278673515
 21
-25.4058991523
 31
0.0
 11
-2.9686011413
 21
-25.4133263992
 31
0.0
 11
-2.8430726319
 21
-25.4043601926
 31
0.0
 11
-2.7118010277
 21
-25.3639998182
 31
0.0
  0
SPLINE
  5
35A
100
AcDbEntity
  8
RACCORDO
100
AcDbSpline
 62
253
  6
CONTINUOUS
 70
0
 71
3
 72
14
 73
10
 74
8
 42
0.0000001
 43
0.0000001
 44
0.0000000001
 12
0.0310315636
 22
-0.8973847835
 32
0.0
 13
0.8030542656
 23
-0.4017041873
 33
0.0
 40
0.0
 40
0.0
 40
0.0
 40
0.0
 40
0.2861038283
 40
0.4187737279
 40
0.544688441
 40
0.6645185496
 40
0.7793312735
 40
0.8905740041
 40
1.0
 40
1.0
 40
1.0
 40
1.0
 10
-4.0935721609
 20
-24.8782839643
 30
0.0
 10
-4.0906127445
 20
-24.9638657049
 30
0.0
 10
-4.0755554056
 20
-25.0894268897
 30
0.0
 10
-4.0293814984
 20
-25.2460907847
 30
0.0
 10
-3.9842947166
 20
-25.3503423013
 30
0.0
 10
-3.9283361479
 20
-25.4430350921
 30
0.0
 10
-3.8620374198
 20
-25.5230930008
 30
0.0
 10
-3.7861310395
 20
-25.5894883729
 30
0.0
 10
-3.7294865865
 20
-25.6241855404
 30
0.0
 10
-3.7001949156
 20
-25.638837834
 30
0.0
 11
-4.0935721609
 21
-24.8782839643
 31
0.0
 11
-4.0604968821
 21
-25.1330445544
 31
0.0
 11
-4.0264690029
 21
-25.247208348
 31
0.0
 11
-3.9812437155
 21
-25.3508306081
 31
0.0
 11
-3.9253251265
 21
-25.4427568767
 31
0.0
 11
-3.8593365035
 21
-25.5219630741
 31
0.0
 11
-3.784013295
 21
-25.5875669407
 31
0.0
 11
-3.7001949156
 21
-25.638837834
 31
0.0
  0
SPLINE
  5
35B
100
AcDbEntity
  8
RACCORDO
100
AcDbSpline
 62
253
  6
CONTINUOUS
 70
0
 71
3
 72
15
 73
11
 74
9
 42
0.0000001
 43
0.0000001
 44
0.0000000001
 12
-0.6379205315
 22
-0.3396317062
 32
0.0
 13
-0.646620102
 23
0.3227611254
 33
0.0
 40
0.0
 40
0.0
 40
0.0
 40
0.0
 40
0.1147806334
 40
0.2389963615
 40
0.3697513051
 40
0.5036352202
 40
0.6370195587
 40
0.7663105315
 40
0.8882056496
 40
1.0
 40
1.0
 40
1.0
 40
1.0
 10
-3.392988687
 20
-24.8636841501
 30
0.0
 10
-3.4173956613
 20
-24.8766785309
 30
0.0
 10
-3.4704050089
 20
-24.8997109707
 30
0.0
 10
-3.5560763636
 20
-24.9247527334
 30
0.0
 10
-3.6485145635
 20
-24.9409999469
 30
0.0
 10
-3.7443167387
 20
-24.9478395425
 30
0.0
 10
-3.8399702218
 20
-24.9450259691
 30
0.0
 10
-3.9319721121
 20
-24.9326576555
 30
0.0
 10
-4.0169400281
 20
-24.9112052573
 30
0.0
 10
-4.0694758084
 20
-24.8903114807
 30
0.0
 10
-4.0935719665
 20
-24.8782838572
 30
0.0
 11
-3.392988687
 21
-24.8636841501
 31
0.0
 11
-3.4688580479
 21
-24.8972226203
 31
0.0
 11
-3.5549254831
 21
-24.9227398744
 31
0.0
 11
-3.6479629942
 21
-24.9392800497
 31
0.0
 11
-3.7444714309
 21
-24.9462198137
 31
0.0
 11
-3.8408237603
 21
-24.9432991423
 31
0.0
 11
-3.9333987921
 21
-24.9306270124
 31
0.0
 11
-4.0187148112
 21
-24.9086812806
 31
0.0
 11
-4.0935719665
 21
-24.8782838572
 31
0.0
  0
SPLINE
  5
35C
100
AcDbEntity
  8
RACCORDO
100
AcDbSpline
 62
253
  6
CONTINUOUS
 70
0
 71
3
 72
12
 73
8
 74
6
 42
0.0000001
 43
0.0000001
 44
0.0000000001
 12
-0.0143667242
 22
-0.337021057
 32
0.0
 13
-0.3110365509
 23
-0.1305597934
 33
0.0
 40
0.0
 40
0.0
 40
0.0
 40
0.0
 40
0.2890978441
 40
0.5488670609
 40
0.7821082425
 40
0.892142372
 40
1.0
 40
1.0
 40
1.0
 40
1.0
 10
-2.7118010277
 20
-25.3639998182
 30
0.0
 10
-2.7131854907
 20
-25.3964771719
 30
0.0
 10
-2.7212485528
 20
-25.4581578604
 30
0.0
 10
-2.7518561242
 20
-25.5414967924
 30
0.0
 10
-2.7928083093
 20
-25.5971195234
 30
0.0
 10
-2.8326691698
 20
-25.6288780058
 30
0.0
 10
-2.8544259408
 20
-25.6405010299
 30
0.0
 10
-2.8656084957
 20
-25.6451949865
 30
0.0
 11
-2.7118010277
 21
-25.3639998182
 31
0.0
 11
-2.7254016091
 21
-25.4605673145
 31
0.0
 11
-2.7568327371
 21
-25.5423634718
 31
0.0
 11
-2.8044157628
 21
-25.6050226652
 31
0.0
 11
-2.8335001646
 21
-25.6280835888
 31
0.0
 11
-2.8656084957
 21
-25.6451949865
 31
0.0
  0
SPLINE
  5
35D
100
AcDbEntity
  8
RACCORDO
100
AcDbSpline
 62
253
  6
CONTINUOUS
 70
0
 71
3
 72
9
 73
5
 74
3
 42
0.0000001
 43
0.0000001
 44
0.0000000001
 12
-0.0221872219
 22
0.0110907997
 32
0.0
 13
-0.0242893561
 23
0.0050304904
 33
0.0
 40
0.0
 40
0.0
 40
0.0
 40
0.0
 40
0.2486668508
 40
1.0
 40
1.0
 40
1.0
 40
1.0
 10
2.9053666308
 20
-23.9916843542
 30
0.0
 10
2.9035275553
 20
-23.9907650495
 30
0.0
 10
2.8960118355
 20
-23.9873118689
 30
0.0
 10
2.8880410051
 20
-23.9848600653
 30
0.0
 10
2.8819578723
 20
-23.9836002072
 30
0.0
 11
2.9053666308
 21
-23.9916843542
 31
0.0
 11
2.8997615927
 21
-23.9891095867
 31
0.0
 11
2.8819578723
 21
-23.9836002072
 31
0.0
  0
SPLINE
  5
35E
100
AcDbEntity
  8
RACCORDO
100
AcDbSpline
 62
253
  6
CONTINUOUS
 70
0
 71
3
 72
11
 73
7
 74
5
 42
0.0000001
 43
0.0000001
 44
0.0000000001
 12
-0.0000014429
 22
-0.119182188
 32
0.0
 13
-0.1063496889
 23
-0.0537971895
 33
0.0
 40
0.0
 40
0.0
 40
0.0
 40
0.0
 40
0.2069627842
 40
0.4350648191
 40
0.6978060254
 40
1.0
 40
1.0
 40
1.0
 40
1.0
 10
3.0435695223
 20
-24.5628258945
 30
0.0
 10
3.0435694227
 20
-24.571047987
 30
0.0
 10
3.0399703139
 20
-24.5884638832
 30
0.0
 10
3.024920944
 20
-24.6122591332
 30
0.0
 10
3.0014440053
 20
-24.6336709324
 30
0.0
 10
2.9820844127
 20
-24.6452794678
 30
0.0
 10
2.9713716676
 20
-24.65069853
 30
0.0
 11
3.0435695223
 21
-24.5628258945
 31
0.0
 11
3.0388363398
 21
-24.5870337905
 31
0.0
 11
3.0248160413
 21
-24.6103252802
 31
0.0
 11
3.0020419292
 21
-24.6318173931
 31
0.0
 11
2.9713716676
 21
-24.65069853
 31
0.0
  0
SPLINE
  5
35F
100
AcDbEntity
  8
RACCORDO
100
AcDbSpline
 62
253
  6
CONTINUOUS
 70
0
 71
3
 72
11
 73
7
 74
5
 42
0.0000001
 43
0.0000001
 44
0.0000000001
 12
-0.0000013698
 22
-0.1191821853
 32
0.0
 13
-0.1063496865
 23
-0.0537971883
 33
0.0
 40
0.0
 40
0.0
 40
0.0
 40
0.0
 40
0.2069627866
 40
0.4350648202
 40
0.69780603
 40
1.0
 40
1.0
 40
1.0
 40
1.0
 10
3.0435695225
 20
-24.2152943811
 30
0.0
 10
3.043569428
 20
-24.2235164735
 30
0.0
 10
3.0399703113
 20
-24.2409323693
 30
0.0
 10
3.0249209438
 20
-24.2647276181
 30
0.0
 10
3.0014440039
 20
-24.2861394159
 30
0.0
 10
2.9820844123
 20
-24.2977479513
 30
0.0
 10
2.9713716676
 20
-24.3031670132
 30
0.0
 11
3.0435695225
 21
-24.2152943811
 31
0.0
 11
3.0388363396
 21
-24.2395022767
 31
0.0
 11
3.0248160406
 21
-24.2627937651
 31
0.0
 11
3.002041928
 21
-24.284285877
 31
0.0
 11
2.9713716676
 21
-24.3031670132
 31
0.0
  0
SPLINE
  5
360
100
AcDbEntity
  8
RACCORDO
100
AcDbSpline
 62
253
  6
CONTINUOUS
 70
0
 71
3
 72
11
 73
7
 74
5
 42
0.0000001
 43
0.0000001
 44
0.0000000001
 12
0.1389309037
 22
0.0712901786
 32
0.0
 13
-0.000739186
 23
0.1561522948
 33
0.0
 40
0.0
 40
0.0
 40
0.0
 40
0.0
 40
0.21754047
 40
0.4509586234
 40
0.7106393246
 40
1.0
 40
1.0
 40
1.0
 40
1.0
 10
2.9076890027
 20
-24.7852591514
 30
0.0
 10
2.9177633674
 20
-24.7800896518
 30
0.0
 10
2.9367819407
 20
-24.7653568476
 30
0.0
 10
2.957088565
 20
-24.7337731694
 30
0.0
 10
2.9691499982
 20
-24.6944578425
 30
0.0
 10
2.9714429648
 20
-24.6657599745
 30
0.0
 10
2.9713716676
 20
-24.65069853
 30
0.0
 11
2.9076890027
 21
-24.7852591514
 31
0.0
 11
2.9346852858
 21
-24.7646399939
 31
0.0
 11
2.9548839773
 21
-24.7342993246
 31
0.0
 11
2.9673121641
 21
-24.695700643
 31
0.0
 11
2.9713716676
 21
-24.65069853
 31
0.0
  0
SPLINE
  5
361
100
AcDbEntity
  8
RACCORDO
100
AcDbSpline
 62
7
  6
CONTINUOUS
 70
0
 71
3
 72
11
 73
7
 74
5
 42
0.0000001
 43
0.0000001
 44
0.0000000001
 12
0.1334232764
 22
0.0748828011
 32
0.0
 13
0.0
 23
0.1530006686
 33
0.0
 40
0.0
 40
0.0
 40
0.0
 40
0.0
 40
0.2171864146
 40
0.4511858794
 40
0.7111959599
 40
1.0
 40
1.0
 40
1.0
 40
1.0
 10
2.3820932857
 20
-25.0548262577
 30
0.0
 10
2.3917525267
 20
-25.049405082
 30
0.0
 10
2.409880398
 20
-25.0343828365
 30
0.0
 10
2.4292085487
 20
-25.0031048504
 30
0.0
 10
2.4407960752
 20
-24.9645264303
 30
0.0
 10
2.4431044959
 20
-24.936438659
 30
0.0
 10
2.4431044959
 20
-24.9217095886
 30
0.0
 11
2.3820932857
 21
-25.0548262577
 31
0.0
 11
2.4078456364
 21
-25.0338256106
 31
0.0
 11
2.4271300694
 21
-25.0036610754
 31
0.0
 11
2.4390645693
 21
-24.9657117321
 31
0.0
 11
2.4431044959
 21
-24.9217095886
 31
0.0
  0
SPLINE
  5
362
100
AcDbEntity
  8
RACCORDO
100
AcDbSpline
 62
253
  6
CONTINUOUS
 70
0
 71
3
 72
15
 73
11
 74
9
 42
0.0000001
 43
0.0000001
 44
0.0000000001
 12
0.0681959732
 22
2.0876384573
 32
0.0
 13
1.8094012684
 23
1.0435286623
 33
0.0
 40
0.0
 40
0.0
 40
0.0
 40
0.0
 40
0.1206003718
 40
0.2476870836
 40
0.378818603
 40
0.511243798
 40
0.6421179418
 40
0.7687096746
 40
0.8886154667
 40
1.0
 40
1.0
 40
1.0
 40
1.0
 10
-18.9184182385
 20
18.1493789421
 30
0.0
 10
-18.9156767519
 20
18.2333022668
 30
0.0
 10
-18.8972874502
 20
18.4053988999
 30
0.0
 10
-18.8364129642
 20
18.6626342168
 30
0.0
 10
-18.7434139476
 20
18.9188565866
 30
0.0
 10
-18.621382813
 20
19.1655030768
 30
0.0
 10
-18.4743770981
 20
19.3944036106
 30
0.0
 10
-18.3072298983
 20
19.5979818126
 30
0.0
 10
-18.125502049
 20
19.769466437
 30
0.0
 10
-17.9930320004
 20
19.8624387804
 30
0.0
 10
-17.9258522285
 20
19.901183098
 30
0.0
 11
-18.9184182385
 21
18.1493789421
 31
0.0
 11
-18.8926924972
 21
18.3999661482
 31
0.0
 11
-18.8322235684
 21
18.6584397555
 31
0.0
 11
-18.7390687891
 21
18.9160131798
 31
0.0
 11
-18.6163967603
 21
19.1639264933
 31
0.0
 11
-18.4683796415
 21
19.3937494868
 31
0.0
 11
-18.3000516537
 21
19.5976684843
 31
0.0
 11
-18.1171372523
 21
19.7687510972
 31
0.0
 11
-17.9258522285
 21
19.901183098
 31
0.0
  0
SPLINE
  5
363
100
AcDbEntity
  8
RACCORDO
100
AcDbSpline
 62
253
  6
CONTINUOUS
 70
0
 71
3
 72
11
 73
7
 74
5
 42
0.0000001
 43
0.0000001
 44
0.0000000001
 12
0.1426575687
 22
0.0695004483
 32
0.0
 13
0.0007563653
 23
0.1586849776
 33
0.0
 40
0.0
 40
0.0
 40
0.0
 40
0.0
 40
0.2167635091
 40
0.4498673846
 40
0.7098578217
 40
1.0
 40
1.0
 40
1.0
 40
1.0
 10
0.7755619734
 20
-25.8375945289
 30
0.0
 10
0.7858696251
 20
-25.8325728085
 30
0.0
 10
0.8054233239
 20
-25.817965286
 30
0.0
 10
0.8264454622
 20
-25.78615587
 30
0.0
 10
0.8391333117
 20
-25.7462897836
 30
0.0
 10
0.8417505539
 20
-25.7170912566
 30
0.0
 10
0.8418237051
 20
-25.7017441883
 30
0.0
 11
0.7755619734
 21
-25.8375945289
 31
0.0
 11
0.8032664246
 21
-25.817206993
 31
0.0
 11
0.8241709029
 21
-25.7866897826
 31
0.0
 11
0.8372390192
 21
-25.7475570836
 31
0.0
 11
0.8418237051
 21
-25.7017441883
 31
0.0
  0
SPLINE
  5
364
100
AcDbEntity
  8
0
100
AcDbSpline
 62
7
  6
CONTINUOUS
 70
0
 71
3
 72
15
 73
11
 74
9
 42
0.0000001
 43
0.0000001
 44
0.0000000001
 12
-1.301960625
 22
0.6509803125
 32
0.0
 13
-1.301960625
 23
-0.6509803125
 33
0.0
 40
0.0
 40
0.0
 40
0.0
 40
0.0
 40
0.1125283523
 40
0.2354661028
 40
0.3658134951
 40
0.4999999817
 40
0.6341864682
 40
0.7645338681
 40
0.8874716303
 40
1.0
 40
1.0
 40
1.0
 40
1.0
 10
-1.8348915303
 20
22.0316175387
 30
0.0
 10
-1.8837273582
 20
22.0560354527
 30
0.0
 10
-1.9901535257
 20
22.0988201713
 30
0.0
 10
-2.1621703418
 20
22.1440036171
 30
0.0
 10
-2.3484559056
 20
22.1718324348
 30
0.0
 10
-2.5419982847
 20
22.1812247985
 30
0.0
 10
-2.7355406677
 20
22.1718324393
 30
0.0
 10
-2.9218262416
 20
22.144003626
 30
0.0
 10
-3.0938430758
 20
22.0988201791
 30
0.0
 10
-3.2002692571
 20
22.0560354565
 30
0.0
 10
-3.2491050926
 20
22.0316175387
 30
0.0
 11
-1.8348915303
 21
22.0316175387
 31
0.0
 11
-1.9864301091
 21
22.0937996314
 31
0.0
 11
-2.1593151006
 21
22.1400038354
 31
0.0
 11
-2.3469079796
 21
22.1684567289
 31
0.0
 11
-2.5419982848
 21
22.1780638665
 31
0.0
 11
-2.73708859
 21
22.168456734
 31
0.0
 11
-2.9246814808
 21
22.1400038442
 31
0.0
 11
-3.0975664897
 21
22.0937996395
 31
0.0
 11
-3.2491050926
 21
22.0316175387
 31
0.0
  0
SPLINE
  5
365
100
AcDbEntity
  8
RACCORDO
100
AcDbSpline
 62
7
  6
CONTINUOUS
 70
0
 71
3
 72
12
 73
8
 74
6
 42
0.0000001
 43
0.0000001
 44
0.0000000001
 12
0.0002238523
 22
-0.3790359227
 32
0.0
 13
0.2339640663
 23
-0.2982098196
 33
0.0
 40
0.0
 40
0.0
 40
0.0
 40
0.0
 40
0.1015870176
 40
0.2135875906
 40
0.4591399651
 40
0.7237133738
 40
1.0
 40
1.0
 40
1.0
 40
1.0
 10
-8.6967901509
 20
21.6467231752
 30
0.0
 10
-8.6967825708
 20
21.6338881322
 30
0.0
 10
-8.6945254266
 20
21.6068938764
 30
0.0
 10
-8.683056743
 20
21.5499462907
 30
0.0
 10
-8.6567110795
 20
21.4754688177
 30
0.0
 10
-8.6108243001
 20
21.3870768166
 30
0.0
 10
-8.5718901023
 20
21.3306567936
 30
0.0
 10
-8.5503430548
 20
21.3031929986
 30
0.0
 11
-8.6967901509
 21
21.6467231752
 31
0.0
 11
-8.6939391847
 21
21.608323729
 31
0.0
 11
-8.6857833163
 21
21.5666622941
 31
0.0
 11
-8.6556252003
 21
21.4786105696
 31
0.0
 11
-8.6097429379
 21
21.3894395725
 31
0.0
 11
-8.5503430548
 21
21.3031929986
 31
0.0
  0
SPLINE
  5
366
100
AcDbEntity
  8
RACCORDO
100
AcDbSpline
 62
7
  6
CONTINUOUS
 70
0
 71
3
 72
9
 73
5
 74
3
 42
0.0000001
 43
0.0000001
 44
0.0000000001
 12
-0.0045884295
 22
-0.005576179
 32
0.0
 13
-0.0070425727
 23
-0.0015967554
 33
0.0
 40
0.0
 40
0.0
 40
0.0
 40
0.0
 40
0.2030518491
 40
1.0
 40
1.0
 40
1.0
 40
1.0
 10
3.0425142569
 20
16.9934941158
 30
0.0
 10
3.0422036938
 20
16.993116698
 30
0.0
 10
3.0404023585
 20
16.991479631
 30
0.0
 10
3.0379917724
 20
16.990732715
 30
0.0
 10
3.0361209173
 20
16.9903085379
 30
0.0
 11
3.0425142569
 21
16.9934941158
 31
0.0
 11
3.0414470455
 21
16.99248858
 31
0.0
 11
3.0361209173
 21
16.9903085379
 31
0.0
  0
SPLINE
  5
367
100
AcDbEntity
  8
RACCORDO
100
AcDbSpline
 62
7
  6
CONTINUOUS
 70
0
 71
3
 72
11
 73
7
 74
5
 42
0.0000001
 43
0.0000001
 44
0.0000000001
 12
-0.063720268
 22
-0.0144472324
 32
0.0
 13
-0.0640012744
 23
0.0131465569
 33
0.0
 40
0.0
 40
0.0
 40
0.0
 40
0.0
 40
0.1602693157
 40
0.3822319954
 40
0.6633948103
 40
1.0
 40
1.0
 40
1.0
 40
1.0
 10
3.0361209173
 20
16.9903085379
 30
0.0
 10
3.0327167827
 20
16.9895367219
 30
0.0
 10
3.0243278193
 20
16.9890634108
 30
0.0
 10
3.0099135747
 20
16.9899707119
 30
0.0
 10
2.9917769871
 20
16.9924751445
 30
0.0
 10
2.9785527213
 20
16.9949620597
 30
0.0
 10
2.9713716676
 20
16.9964371261
 30
0.0
 11
3.0361209173
 21
16.9903085379
 31
0.0
 11
3.02569656
 21
16.989314926
 31
0.0
 11
3.0112125958
 21
16.9900478677
 31
0.0
 11
2.9929989521
 21
16.9924432875
 31
0.0
 11
2.9713716676
 21
16.9964371261
 31
0.0
  0
SPLINE
  5
368
100
AcDbEntity
  8
RACCORDO
100
AcDbSpline
 62
7
  6
CONTINUOUS
 70
0
 71
3
 72
11
 73
7
 74
5
 42
0.0000001
 43
0.0000001
 44
0.0000000001
 12
-0.4087143287
 22
0.2043714832
 32
0.0
 13
-0.4104598159
 23
-0.2008428369
 33
0.0
 40
0.0
 40
0.0
 40
0.0
 40
0.0
 40
0.227550333
 40
0.4653227117
 40
0.7212674125
 40
1.0
 40
1.0
 40
1.0
 40
1.0
 10
0.3093922217
 20
23.7927012831
 30
0.0
 10
0.2783911945
 20
23.8082028828
 30
0.0
 10
0.210179856
 20
23.8310480117
 30
0.0
 10
0.0993717049
 20
23.837160406
 30
0.0
 10
-0.0172974979
 20
23.8161062318
 30
0.0
 10
-0.0935284875
 20
23.7860197824
 30
0.0
 10
-0.131664663
 20
23.7673593012
 30
0.0
 11
0.3093922217
 21
23.7927012831
 31
0.0
 11
0.210894866
 21
23.8260260553
 31
0.0
 11
0.1024603072
 21
23.8329148485
 31
0.0
 11
-0.0128186559
 21
23.8131726134
 31
0.0
 11
-0.131664663
 21
23.7673593012
 31
0.0
  0
SPLINE
  5
369
100
AcDbEntity
  8
RACCORDO
100
AcDbSpline
 62
253
  6
CONTINUOUS
 70
0
 71
3
 72
11
 73
7
 74
5
 42
0.0000001
 43
0.0000001
 44
0.0000000001
 12
-0.1026816329
 22
0.0513348711
 32
0.0
 13
-0.1029710594
 23
-0.0507518241
 33
0.0
 40
0.0
 40
0.0
 40
0.0
 40
0.0
 40
0.2274027353
 40
0.4651090575
 40
0.7211019479
 40
1.0
 40
1.0
 40
1.0
 40
1.0
 10
2.9053656735
 20
17.6554513277
 30
0.0
 10
2.8975823121
 20
17.6593425577
 30
0.0
 10
2.8804474681
 20
17.6650667414
 30
0.0
 10
2.8526120312
 20
17.6665526106
 30
0.0
 10
2.8233084329
 20
17.6611914274
 30
0.0
 10
2.8041707733
 20
17.6535763767
 30
0.0
 10
2.794597964
 20
17.6488581817
 30
0.0
 11
2.9053656735
 21
17.6554513277
 31
0.0
 11
2.8806312911
 21
17.6638006867
 31
0.0
 11
2.8533948913
 21
17.6654849042
 31
0.0
 11
2.8244406116
 21
17.6604563177
 31
0.0
 11
2.794597964
 21
17.6488581817
 31
0.0
  0
SPLINE
  5
36A
100
AcDbEntity
  8
RACCORDO
100
AcDbSpline
 62
253
  6
CONTINUOUS
 70
0
 71
3
 72
11
 73
7
 74
5
 42
0.0000001
 43
0.0000001
 44
0.0000000001
 12
-0.0000013698
 22
-0.1191821853
 32
0.0
 13
-0.1063496865
 23
-0.0537971883
 33
0.0
 40
0.0
 40
0.0
 40
0.0
 40
0.0
 40
0.2069627866
 40
0.4350648202
 40
0.69780603
 40
1.0
 40
1.0
 40
1.0
 40
1.0
 10
3.0435695225
 20
17.4318412751
 30
0.0
 10
3.043569428
 20
17.4236191827
 30
0.0
 10
3.0399703113
 20
17.4062032869
 30
0.0
 10
3.0249209438
 20
17.382408038
 30
0.0
 10
3.0014440039
 20
17.3609962402
 30
0.0
 10
2.9820844123
 20
17.3493877049
 30
0.0
 10
2.9713716676
 20
17.3439686429
 30
0.0
 11
3.0435695225
 21
17.4318412751
 31
0.0
 11
3.0388363396
 21
17.4076333795
 31
0.0
 11
3.0248160406
 21
17.384341891
 31
0.0
 11
3.002041928
 21
17.3628497791
 31
0.0
 11
2.9713716676
 21
17.3439686429
 31
0.0
  0
SPLINE
  5
36B
100
AcDbEntity
  8
RACCORDO
100
AcDbSpline
 62
253
  6
CONTINUOUS
 70
0
 71
3
 72
11
 73
7
 74
5
 42
0.0000001
 43
0.0000001
 44
0.0000000001
 12
-0.1026843522
 22
0.0513470349
 32
0.0
 13
-0.1029781204
 23
-0.0507553043
 33
0.0
 40
0.0
 40
0.0
 40
0.0
 40
0.0
 40
0.2274032722
 40
0.4651087917
 40
0.721101419
 40
1.0
 40
1.0
 40
1.0
 40
1.0
 10
1.5680466125
 20
18.3241108565
 30
0.0
 10
1.5602630266
 20
18.3280030177
 30
0.0
 10
1.5431273981
 20
18.3337288812
 30
0.0
 10
1.5152900817
 20
18.3352161533
 30
0.0
 10
1.4859843291
 20
18.3298552693
 30
0.0
 10
1.4668452873
 20
18.3222397894
 30
0.0
 10
1.4572718034
 20
18.317521262
 30
0.0
 11
1.5680466125
 21
18.3241108565
 31
0.0
 11
1.5433110852
 21
18.3324626138
 31
0.0
 11
1.5160729899
 21
18.3341482358
 31
0.0
 11
1.4871166321
 21
18.3291200143
 31
0.0
 11
1.4572718034
 21
18.317521262
 31
0.0
  0
SPLINE
  5
36C
100
AcDbEntity
  8
RACCORDO
100
AcDbSpline
 62
253
  6
CONTINUOUS
 70
0
 71
3
 72
12
 73
8
 74
6
 42
0.0000001
 43
0.0000001
 44
0.0000000001
 12
0.0080892484
 22
-0.2408843262
 32
0.0
 13
0.2155017185
 23
-0.1079337941
 33
0.0
 40
0.0
 40
0.0
 40
0.0
 40
0.0
 40
0.1048972659
 40
0.2122700343
 40
0.4422669275
 40
0.7032089287
 40
1.0
 40
1.0
 40
1.0
 40
1.0
 10
-19.0648815524
 20
-17.2882139475
 30
0.0
 10
-19.0645987058
 20
-17.2966366499
 30
0.0
 10
-19.0624422121
 20
-17.313667544
 30
0.0
 10
-19.0516948544
 20
-17.3477072747
 30
0.0
 10
-19.0255513837
 20
-17.3890344832
 30
0.0
 10
-18.9784335095
 20
-17.4320433835
 30
0.0
 10
-18.9397379003
 20
-17.4551829966
 30
0.0
 10
-18.9184182384
 20
-17.4658609254
 30
0.0
 11
-19.0648815524
 21
-17.2882139475
 31
0.0
 11
-19.0617343131
 21
-17.3132996436
 31
0.0
 11
-19.0540119189
 21
-17.3379995849
 31
0.0
 11
-19.0251666861
 21
-17.3853373844
 31
0.0
 11
-18.9794100224
 21
-17.4284855641
 31
0.0
 11
-18.9184182384
 21
-17.4658609254
 31
0.0
  0
SPLINE
  5
36D
100
AcDbEntity
  8
RACCORDO
100
AcDbSpline
 62
253
  6
CONTINUOUS
 70
0
 71
3
 72
12
 73
8
 74
6
 42
0.0000001
 43
0.0000001
 44
0.0000000001
 12
-0.0077587338
 22
-0.2398606219
 32
0.0
 13
0.2147279964
 23
-0.1071690416
 33
0.0
 40
0.0
 40
0.0
 40
0.0
 40
0.0
 40
0.099277791
 40
0.2018807832
 40
0.4272193789
 40
0.6918016567
 40
1.0
 40
1.0
 40
1.0
 40
1.0
 10
-19.0649004603
 20
18.3244134481
 30
0.0
 10
-19.0651572169
 20
18.3164758372
 30
0.0
 10
-19.0639414405
 20
18.3002298091
 30
0.0
 10
-19.05438782
 20
18.2671989001
 30
0.0
 10
-19.028276946
 20
18.2264987415
 30
0.0
 10
-18.9801798456
 20
18.1837777998
 30
0.0
 10
-18.9404777263
 20
18.1603887682
 30
0.0
 10
-18.9184181221
 20
18.1493789945
 30
0.0
 11
-19.0649004603
 21
18.3244134481
 31
0.0
 11
-19.0631637219
 21
18.3006515446
 31
0.0
 11
-19.0564357176
 21
18.2769652546
 31
0.0
 11
-19.0283276997
 21
18.2307658722
 31
0.0
 11
-18.9817020132
 21
18.1876637229
 31
0.0
 11
-18.9184181221
 21
18.1493789945
 31
0.0
  0
SPLINE
  5
36E
100
AcDbEntity
  8
RACCORDO
100
AcDbSpline
 62
253
  6
CONTINUOUS
 70
0
 71
3
 72
11
 73
7
 74
5
 42
0.0000001
 43
0.0000001
 44
0.0000000001
 12
0.2095462293
 22
0.1221727803
 32
0.0
 13
0.2185212513
 23
-0.1052818749
 33
0.0
 40
0.0
 40
0.0
 40
0.0
 40
0.0
 40
0.2233920384
 40
0.4591546198
 40
0.7164477244
 40
1.0
 40
1.0
 40
1.0
 40
1.0
 10
-18.1591966442
 20
19.9099560737
 30
0.0
 10
-18.1435929911
 20
19.9190535492
 30
0.0
 10
-18.1083956908
 20
19.9328122221
 30
0.0
 10
-18.0499817346
 20
19.9375228887
 30
0.0
 10
-17.9875484023
 20
19.9270297083
 30
0.0
 10
-17.9465062945
 20
19.9111340698
 30
0.0
 10
-17.9258522285
 20
19.901183098
 30
0.0
 11
-18.1591966442
 21
19.9099560737
 31
0.0
 11
-18.1088140194
 21
19.9298993326
 31
0.0
 11
-18.0518657404
 21
19.9351168895
 31
0.0
 11
-17.9902111267
 21
19.9254409372
 31
0.0
 11
-17.9258522285
 21
19.901183098
 31
0.0
  0
SPLINE
  5
36F
100
AcDbEntity
  8
RACCORDO
100
AcDbSpline
 62
253
  6
CONTINUOUS
 70
0
 71
3
 72
36
 73
32
 74
30
 42
0.0000001
 43
0.0000001
 44
0.0000000001
 12
0.0000553195
 22
15.5329927928
 32
0.0
 13
0.0000549767
 23
-15.5329927928
 33
0.0
 40
0.0
 40
0.0
 40
0.0
 40
0.0
 40
0.0323777689
 40
0.0633683805
 40
0.0929342098
 40
0.1210942256
 40
0.147925706
 40
0.1735711969
 40
0.1982419313
 40
0.2222126608
 40
0.245810184
 40
0.2693913227
 40
0.2933144055
 40
0.3179108514
 40
0.343462151
 40
0.370185891
 40
0.3982320629
 40
0.4276841146
 40
0.4585642038
 40
0.490838349
 40
0.5244302707
 40
0.559223832
 40
0.5950702243
 40
0.6317936723
 40
0.7070346453
 40
0.783253098
 40
0.858616006
 40
0.8954353936
 40
0.9313921171
 40
0.9663004954
 40
1.0
 40
1.0
 40
1.0
 40
1.0
 10
-16.0755004377
 20
-1.3788018374
 30
0.0
 10
-16.0754998406
 20
-1.2111606205
 30
0.0
 10
-16.062472571
 20
-0.8828645048
 30
0.0
 10
-16.0012145775
 20
-0.4049409197
 30
0.0
 10
-15.8990694742
 20
0.0437086326
 30
0.0
 10
-15.7570009044
 20
0.4587772332
 30
0.0
 10
-15.5762152981
 20
0.8362790047
 30
0.0
 10
-15.3582473964
 20
1.1724444344
 30
0.0
 10
-15.105104877
 20
1.4638317723
 30
0.0
 10
-14.8191550429
 20
1.7072295248
 30
0.0
 10
-14.503362169
 20
1.8999392654
 30
0.0
 10
-14.1610818207
 20
2.0396782447
 30
0.0
 10
-13.796135511
 20
2.1250773477
 30
0.0
 10
-13.4124463727
 20
2.1553791882
 30
0.0
 10
-13.0139910895
 20
2.130523744
 30
0.0
 10
-12.6047032916
 20
2.0510388955
 30
0.0
 10
-12.1885001624
 20
1.9178815131
 30
0.0
 10
-11.7692712415
 20
1.7325180684
 30
0.0
 10
-11.350981263
 20
1.4967351946
 30
0.0
 10
-10.9374982279
 20
1.212924533
 30
0.0
 10
-10.5327124392
 20
0.8837875271
 30
0.0
 10
-10.1403930704
 20
0.5125122187
 30
0.0
 10
-9.7642059852
 20
0.1026371042
 30
0.0
 10
-9.2850873016
 20
-0.4947369515
 30
0.0
 10
-8.7495385423
 20
-1.3119838233
 30
0.0
 10
-8.2266273821
 20
-2.3664360934
 30
0.0
 10
-7.8991416342
 20
-3.288139021
 30
0.0
 10
-7.7113625094
 20
-4.0322625429
 30
0.0
 10
-7.610322986
 20
-4.5810303526
 30
0.0
 10
-7.5490182208
 20
-5.1193705834
 30
0.0
 10
-7.5346944699
 20
-5.4747204096
 30
0.0
 10
-7.5346938523
 20
-5.64920513
 30
0.0
 11
-16.0755004377
 21
-1.3788018374
 31
0.0
 11
-16.0546837972
 21
-0.876309185
 31
0.0
 11
-15.9924690097
 21
-0.3989695941
 31
0.0
 11
-15.8894436046
 21
0.048570889
 31
0.0
 11
-15.7466671808
 21
0.462021984
 31
0.0
 11
-15.5655532187
 21
0.8373853095
 31
0.0
 11
-15.34788207
 21
1.1710063061
 31
0.0
 11
-15.0958279753
 21
1.4596564361
 31
0.0
 11
-14.8118788945
 21
1.700504701
 31
0.0
 11
-14.4988574324
 21
1.8912119422
 31
0.0
 11
-14.1598287691
 21
2.0298652796
 31
0.0
 11
-13.7981471274
 21
2.1151341201
 31
0.0
 11
-13.4173519514
 21
2.1461524839
 31
0.0
 11
-13.0211643228
 21
2.1225819706
 31
0.0
 11
-12.6134486232
 21
2.0446356015
 31
0.0
 11
-12.1981586449
 21
1.9130403792
 31
0.0
 11
-11.7793047355
 21
1.7290621542
 31
0.0
 11
-11.3609466447
 21
1.4944338995
 31
0.0
 11
-10.947124374
 21
1.2114729135
 31
0.0
 11
-10.541792313
 21
0.8828949162
 31
0.0
 11
-10.1488123115
 21
0.5118815646
 31
0.0
 11
-9.7719259016
 21
0.1020220442
 31
0.0
 11
-9.4147034737
 21
-0.3426990807
 31
0.0
 11
-8.7725236477
 21
-1.3191752164
 31
0.0
 11
-8.2463901902
 21
-2.3797431768
 31
0.0
 11
-7.8559719681
 21
-3.4833304687
 31
0.0
 11
-7.716403086
 21
-4.0379543202
 31
0.0
 11
-7.6157614486
 21
-4.587327467
 31
0.0
 11
-7.5550146883
 21
-5.1261455516
 31
0.0
 11
-7.5346938523
 21
-5.64920513
 31
0.0
  0
SPLINE
  5
370
100
AcDbEntity
  8
RACCORDO
100
AcDbSpline
 62
253
  6
CONTINUOUS
 70
0
 71
3
 72
36
 73
32
 74
30
 42
0.0000001
 43
0.0000001
 44
0.0000000001
 12
-0.0000534572
 22
-15.4864299501
 32
0.0
 13
-0.0000568645
 23
15.48642995
 33
0.0
 40
0.0
 40
0.0
 40
0.0
 40
0.0
 40
0.0324578308
 40
0.0634825101
 40
0.093028026
 40
0.1211077021
 40
0.1477971142
 40
0.1732423498
 40
0.1976644766
 40
0.2213545811
 40
0.2446610757
 40
0.2679648326
 40
0.2916466689
 40
0.3160554949
 40
0.3414832721
 40
0.3681508429
 40
0.3962054011
 40
0.4257231388
 40
0.4567161864
 40
0.489138991
 40
0.5229033779
 40
0.5578817422
 40
0.5939148784
 40
0.6308181587
 40
0.7063726183
 40
0.7828213214
 40
0.8583387234
 40
0.8952196305
 40
0.9312368888
 40
0.9662138972
 40
1.0
 40
1.0
 40
1.0
 40
1.0
 10
-7.5346938523
 20
-5.64920513
 30
0.0
 10
-7.5346944307
 20
-5.8167571044
 30
0.0
 10
-7.5473851745
 20
-6.1446504001
 30
0.0
 10
-7.6071463578
 20
-6.6217708962
 30
0.0
 10
-7.7068576259
 20
-7.0691773156
 30
0.0
 10
-7.8456515751
 20
-7.4826234766
 30
0.0
 10
-8.0224574003
 20
-7.8581973075
 30
0.0
 10
-8.2359134343
 20
-8.192210085
 30
0.0
 10
-8.4842113175
 20
-8.4812942117
 30
0.0
 10
-8.7651896207
 20
-8.7222981324
 30
0.0
 10
-9.0760702648
 20
-8.9125748955
 30
0.0
 10
-9.4136524976
 20
-9.0499070076
 30
0.0
 10
-9.7742511079
 20
-9.1330218524
 30
0.0
 10
-10.1540826848
 20
-9.1612803818
 30
0.0
 10
-10.5493184148
 20
-9.1347364527
 30
0.0
 10
-10.9561656978
 20
-9.0540043226
 30
0.0
 10
-11.3708215188
 20
-8.9200951509
 30
0.0
 10
-11.7894709678
 20
-8.7344990821
 30
0.0
 10
-12.208180799
 20
-8.4990051936
 30
0.0
 10
-12.623069232
 20
-8.2159843516
 30
0.0
 10
-13.0301922621
 20
-7.8881021632
 30
0.0
 10
-13.425688902
 20
-7.5184937269
 30
0.0
 10
-13.8057697077
 20
-7.1106308677
 30
0.0
 10
-14.2907621384
 20
-6.5164625528
 30
0.0
 10
-14.8345847853
 20
-5.703754913
 30
0.0
 10
-15.3676179315
 20
-4.6542510616
 30
0.0
 10
-15.7024316913
 20
-3.7357478395
 30
0.0
 10
-15.8945907735
 20
-2.9936213132
 30
0.0
 10
-15.9980450374
 20
-2.4459815028
 30
0.0
 10
-16.060839524
 20
-1.9083035139
 30
0.0
 10
-16.0754997973
 20
-1.5532105422
 30
0.0
 10
-16.0755004377
 20
-1.3788018374
 30
0.0
 11
-7.5346938523
 21
-5.64920513
 31
0.0
 11
-7.5550149336
 21
-6.1514501207
 31
0.0
 11
-7.6157620939
 21
-6.6280558872
 31
0.0
 11
-7.7164043226
 21
-7.0744047639
 31
0.0
 11
-7.8559735908
 21
-7.4862522668
 31
0.0
 11
-8.0331795858
 21
-7.8596615946
 31
0.0
 11
-8.2463921125
 21
-8.1910532621
 31
0.0
 11
-8.4936081207
 21
-8.4772843353
 31
0.0
 11
-8.7725256716
 21
-8.7156168155
 31
0.0
 11
-9.0805153676
 21
-8.9038081662
 31
0.0
 11
-9.4147058397
 21
-9.0400423903
 31
0.0
 11
-9.7719283389
 21
-9.1230816568
 31
0.0
 11
-10.1488149206
 21
-9.1521457126
 31
0.0
 11
-10.5417949014
 21
-9.1269713745
 31
0.0
 11
-10.9471270466
 21
-9.0478332216
 31
0.0
 11
-11.360949226
 21
-8.915504098
 31
0.0
 11
-11.7793072191
 21
-8.731277916
 31
0.0
 11
-12.1981612198
 21
-8.4968976225
 31
0.0
 11
-12.6134512776
 21
-8.2146705401
 31
0.0
 11
-13.0211668922
 21
-7.887284325
 31
0.0
 11
-13.4173545307
 21
-7.5178747989
 31
0.0
 11
-13.7981495327
 21
-7.1099695823
 31
0.0
 11
-14.1598310978
 21
-6.6674780343
 31
0.0
 11
-14.8118808787
 21
-5.6959368942
 31
0.0
 11
-15.3478839643
 21
-4.640303765
 31
0.0
 11
-15.7466687885
 21
-3.5408997826
 31
0.0
 11
-15.889444827
 21
-2.987879512
 31
0.0
 11
-15.9924696352
 21
-2.4396979543
 31
0.0
 11
-16.0546840352
 21
-1.9016137006
 31
0.0
 11
-16.0755004377
 21
-1.3788018374
 31
0.0
  0
SPLINE
  5
371
100
AcDbEntity
  8
RACCORDO
100
AcDbSpline
 62
253
  6
CONTINUOUS
 70
0
 71
3
 72
11
 73
7
 74
5
 42
0.0000001
 43
0.0000001
 44
0.0000000001
 12
-0.1076143396
 22
0.0538071698
 32
0.0
 13
-0.0000116247
 23
0.1203164888
 33
0.0
 40
0.0
 40
0.0
 40
0.0
 40
0.0
 40
0.3025789318
 40
0.5654800689
 40
0.7934320357
 40
1.0
 40
1.0
 40
1.0
 40
1.0
 10
-0.8356829344
 20
-25.0387391245
 30
0.0
 10
-0.8465368784
 20
-25.0333121525
 30
0.0
 10
-0.8661542045
 20
-25.0216732155
 30
0.0
 10
-0.8899646841
 20
-25.0001543513
 30
0.0
 10
-0.9052442723
 20
-24.9762021609
 30
0.0
 10
-0.908905436
 20
-24.9586420736
 30
0.0
 10
-0.9089062364
 20
-24.9503575629
 30
0.0
 11
-0.8356829344
 21
-25.0387391245
 31
0.0
 11
-0.8667726495
 21
-25.0197978801
 31
0.0
 11
-0.8898728202
 21
-24.9981894582
 31
0.0
 11
-0.9041004105
 21
-24.9747420273
 31
0.0
 11
-0.9089062364
 21
-24.9503575629
 31
0.0
  0
SPLINE
  5
372
100
AcDbEntity
  8
RACCORDO
100
AcDbSpline
 62
253
  6
CONTINUOUS
 70
0
 71
3
 72
11
 73
7
 74
5
 42
0.0000001
 43
0.0000001
 44
0.0000000001
 12
0.0
 22
0.2523287194
 32
0.0
 13
0.1609736043
 23
0.1943123294
 33
0.0
 40
0.0
 40
0.0
 40
0.0
 40
0.0
 40
0.2352285381
 40
0.4870811593
 40
0.7456475008
 40
1.0
 40
1.0
 40
1.0
 40
1.0
 10
0.4893017454
 20
-25.3612575303
 30
0.0
 10
0.4893017454
 20
-25.3414725584
 30
0.0
 10
0.4938325652
 20
-25.3004472135
 30
0.0
 10
0.5115821973
 20
-25.2400174361
 30
0.0
 10
0.5394066142
 20
-25.1817363608
 30
0.0
 10
0.5640420802
 20
-25.1460379653
 30
0.0
 10
0.5776900931
 20
-25.1295633565
 30
0.0
 11
0.4893017454
 21
-25.3612575303
 31
0.0
 11
0.4953253954
 21
-25.3022090615
 31
0.0
 11
0.5129854909
 21
-25.2411625304
 31
0.0
 11
0.5410780948
 21
-25.1822766424
 31
0.0
 11
0.5776900931
 21
-25.1295633565
 31
0.0
  0
SPLINE
  5
373
100
AcDbEntity
  8
RACCORDO
100
AcDbSpline
 62
253
  6
CONTINUOUS
 70
0
 71
3
 72
13
 73
9
 74
7
 42
0.0000001
 43
0.0000001
 44
0.0000000001
 12
0.3242438587
 22
-0.1621219294
 32
0.0
 13
0.3249922966
 23
0.1606163349
 33
0.0
 40
0.0
 40
0.0
 40
0.0
 40
0.0
 40
0.1125245594
 40
0.2354259647
 40
0.4995815213
 40
0.7639633273
 40
0.8871315091
 40
1.0
 40
1.0
 40
1.0
 40
1.0
 10
0.4893017454
 20
-25.3612575303
 30
0.0
 10
0.5014635445
 20
-25.3673384299
 30
0.0
 10
0.5279602977
 20
-25.3780025463
 30
0.0
 10
0.5864502422
 20
-25.3933898569
 30
0.0
 10
0.6653750817
 20
-25.4008498393
 30
0.0
 10
0.74434998
 20
-25.3936094354
 30
0.0
 10
0.8029892437
 20
-25.378396577
 30
0.0
 10
0.8295965751
 20
-25.3678130953
 30
0.0
 10
0.8418237051
 20
-25.3617702542
 30
0.0
 11
0.4893017454
 21
-25.3612575303
 31
0.0
 11
0.5270360236
 21
-25.3767528369
 31
0.0
 11
0.5700716006
 21
-25.3882840907
 31
0.0
 11
0.6653512638
 21
-25.3978686539
 31
0.0
 11
0.7607408232
 21
-25.3885613943
 31
0.0
 11
0.8039098346
 21
-25.3771555121
 31
0.0
 11
0.8418237051
 21
-25.3617702542
 31
0.0
  0
SPLINE
  5
374
100
AcDbEntity
  8
RACCORDO
100
AcDbSpline
 62
253
  6
CONTINUOUS
 70
0
 71
3
 72
13
 73
9
 74
7
 42
0.0000001
 43
0.0000001
 44
0.0000000001
 12
0.3242438585
 22
-0.1621219293
 32
0.0
 13
0.3249922964
 23
0.1606163348
 33
0.0
 40
0.0
 40
0.0
 40
0.0
 40
0.0
 40
0.1125245899
 40
0.2354260292
 40
0.4995816495
 40
0.7639634918
 40
0.8871317035
 40
1.0
 40
1.0
 40
1.0
 40
1.0
 10
0.4893017454
 20
-25.7012314644
 30
0.0
 10
0.5014635478
 20
-25.7073123656
 30
0.0
 10
0.5279603084
 20
-25.7179764845
 30
0.0
 10
0.5864502688
 20
-25.733363796
 30
0.0
 10
0.6653751249
 20
-25.7408237738
 30
0.0
 10
0.7443500392
 20
-25.7335833636
 30
0.0
 10
0.8029892841
 20
-25.7183704942
 30
0.0
 10
0.8295965961
 20
-25.707787019
 30
0.0
 10
0.8418237051
 20
-25.7017441883
 30
0.0
 11
0.4893017454
 21
-25.7012314644
 31
0.0
 11
0.527036034
 21
-25.7167267746
 31
0.0
 11
0.5700716235
 21
-25.7282580295
 31
0.0
 11
0.6653513103
 21
-25.7378425881
 31
0.0
 11
0.7607408818
 21
-25.728535317
 31
0.0
 11
0.8039099012
 21
-25.7171294228
 31
0.0
 11
0.8418237051
 21
-25.7017441883
 31
0.0
  0
SPLINE
  5
375
100
AcDbEntity
  8
RACCORDO
100
AcDbSpline
 62
253
  6
CONTINUOUS
 70
0
 71
3
 72
11
 73
7
 74
5
 42
0.0000001
 43
0.0000001
 44
0.0000000001
 12
0.0
 22
-0.1574238334
 32
0.0
 13
0.1407964518
 23
-0.0704174871
 33
0.0
 40
0.0
 40
0.0
 40
0.0
 40
0.0
 40
0.2897495234
 40
0.549584515
 40
0.7828462997
 40
1.0
 40
1.0
 40
1.0
 40
1.0
 10
0.4893017454
 20
-25.7012314644
 30
0.0
 10
0.4893017454
 20
-25.716435958
 30
0.0
 10
0.4917552145
 20
-25.745384901
 30
0.0
 10
0.5041279448
 20
-25.7849774735
 30
0.0
 10
0.5247914945
 20
-25.8166766678
 30
0.0
 10
0.5440776956
 20
-25.8313494748
 30
0.0
 10
0.5542691858
 20
-25.8364466141
 30
0.0
 11
0.4893017454
 21
-25.7012314644
 31
0.0
 11
0.4936211514
 21
-25.7466399697
 31
0.0
 11
0.5063673782
 21
-25.785507552
 31
0.0
 11
0.5269181826
 21
-25.815939339
 31
0.0
 11
0.5542691858
 21
-25.8364466141
 31
0.0
  0
SPLINE
  5
376
100
AcDbEntity
  8
RACCORDO
100
AcDbSpline
 62
253
  6
CONTINUOUS
 70
0
 71
3
 72
11
 73
7
 74
5
 42
0.0000001
 43
0.0000001
 44
0.0000000001
 12
0.0
 22
-0.1574304607
 32
0.0
 13
0.1408074022
 23
-0.0704104071
 33
0.0
 40
0.0
 40
0.0
 40
0.0
 40
0.0
 40
0.2897508691
 40
0.5495855602
 40
0.7828462233
 40
1.0
 40
1.0
 40
1.0
 40
1.0
 10
-0.8356829344
 20
-25.0387391245
 30
0.0
 10
-0.8356829344
 20
-25.0539443288
 30
0.0
 10
-0.8332292442
 20
-25.0828945582
 30
0.0
 10
-0.8208553224
 20
-25.1224886386
 30
0.0
 10
-0.8001897268
 20
-25.154188425
 30
0.0
 10
-0.7809017761
 20
-25.1688606495
 30
0.0
 10
-0.7707094897
 20
-25.1739572781
 30
0.0
 11
-0.8356829344
 21
-25.0387391245
 31
0.0
 11
-0.8313631028
 21
-25.0841497311
 31
0.0
 11
-0.8186156411
 21
-25.1230186708
 31
0.0
 11
-0.7980629118
 21
-25.1534508101
 31
0.0
 11
-0.7707094897
 21
-25.1739572781
 31
0.0
  0
SPLINE
  5
377
100
AcDbEntity
  8
RACCORDO
100
AcDbSpline
 62
253
  6
CONTINUOUS
 70
0
 71
3
 72
14
 73
10
 74
8
 42
0.0000001
 43
0.0000001
 44
0.0000000001
 12
-0.7953860169
 22
0.3976920034
 32
0.0
 13
-0.0300379523
 23
0.8887606915
 33
0.0
 40
0.0
 40
0.0
 40
0.0
 40
0.0
 40
0.1080883285
 40
0.2183171873
 40
0.3325125383
 40
0.4521539535
 40
0.5783057402
 40
0.711610161
 40
1.0
 40
1.0
 40
1.0
 40
1.0
 10
-18.534001781
 20
-18.2219344113
 30
0.0
 10
-18.562659096
 20
-18.20760579
 30
0.0
 10
-18.6181061603
 20
-18.1734904948
 30
0.0
 10
-18.6922888808
 20
-18.107926091
 30
0.0
 10
-18.7570598634
 20
-18.0286024454
 30
0.0
 10
-18.8117144031
 20
-17.9365430769
 30
0.0
 10
-18.8557448376
 20
-17.8328146928
 30
0.0
 10
-18.9008825101
 20
-17.676518311
 30
0.0
 10
-18.9155306918
 20
-17.551297443
 30
0.0
 10
-18.9184182385
 20
-17.4658609255
 30
0.0
 11
-18.534001781
 21
-18.2219344113
 31
0.0
 11
-18.6159101437
 21
-18.1716355052
 31
0.0
 11
-18.6895174092
 21
-18.1069015755
 31
0.0
 11
-18.7540030734
 21
-18.028453757
 31
0.0
 11
-18.808648249
 21
-17.9371660847
 31
0.0
 11
-18.8528437093
 21
-17.834055783
 31
0.0
 11
-18.8860966891
 21
-17.7202719032
 31
0.0
 11
-18.9184182385
 21
-17.4658609255
 31
0.0
  0
SPLINE
  5
378
100
AcDbEntity
  8
RACCORDO
100
AcDbSpline
 62
253
  6
CONTINUOUS
 70
0
 71
3
 72
13
 73
9
 74
7
 42
0.0000001
 43
0.0000001
 44
0.0000000001
 12
0.1276934635
 22
0.3370670904
 32
0.0
 13
-0.3225548801
 23
0.1608670051
 33
0.0
 40
0.0
 40
0.0
 40
0.0
 40
0.0
 40
0.2701264394
 40
0.5327826693
 40
0.6577241283
 40
0.7769941193
 40
0.8907279222
 40
1.0
 40
1.0
 40
1.0
 40
1.0
 10
2.9713716676
 20
-24.3031670132
 30
0.0
 10
2.9828694612
 20
-24.2728167689
 30
0.0
 10
2.9963530962
 20
-24.2090900744
 30
0.0
 10
2.9885641689
 20
-24.1289716752
 30
0.0
 10
2.9671501886
 20
-24.0716387681
 30
0.0
 10
2.9446510674
 20
-24.0346454893
 30
0.0
 10
2.9162701467
 20
-24.0044586973
 30
0.0
 10
2.8937066196
 20
-23.9894596312
 30
0.0
 10
2.8819578723
 20
-23.9836002072
 30
0.0
 11
2.9713716676
 21
-24.3031670132
 31
0.0
 11
2.9914541754
 21
-24.2078951802
 31
0.0
 11
2.9815214715
 21
-24.1137448221
 31
0.0
 11
2.9655932462
 21
-24.0716213341
 31
0.0
 11
2.9430782627
 21
-24.0349985507
 31
0.0
 11
2.9148409767
 21
-24.0052795675
 31
0.0
 11
2.8819578723
 21
-23.9836002072
 31
0.0
  0
SPLINE
  5
379
100
AcDbEntity
  8
ASSI
100
AcDbSpline
 62
7
  6
CONTINUOUS
 70
0
 71
3
 72
9
 73
5
 74
3
 42
0.0000001
 43
0.0000001
 44
0.0000000001
 12
-0.0502723709
 22
-0.0161727928
 32
0.0
 13
-0.0473687191
 23
-0.0233468405
 33
0.0
 40
0.0
 40
0.0
 40
0.0
 40
0.0
 40
0.2435111882
 40
1.0
 40
1.0
 40
1.0
 40
1.0
 10
-2.2082226888
 20
24.3284000709
 30
0.0
 10
-2.2123033171
 20
24.3270873189
 30
0.0
 10
-2.2289530879
 20
24.3213643396
 30
0.0
 10
-2.245154085
 20
24.3143587116
 30
0.0
 10
-2.2570987203
 20
24.3084715038
 30
0.0
 11
-2.2082226888
 21
24.3284000709
 31
0.0
 11
-2.2203855168
 21
24.3242240418
 31
0.0
 11
-2.2570987203
 21
24.3084715038
 31
0.0
  0
SPLINE
  5
37A
100
AcDbEntity
  8
RACCORDO
100
AcDbSpline
 62
7
  6
CONTINUOUS
 70
0
 71
3
 72
12
 73
8
 74
6
 42
0.0000001
 43
0.0000001
 44
0.0000000001
 12
0.3495976162
 22
-0.0728101698
 32
0.0
 13
0.2289187257
 23
0.2740730398
 33
0.0
 40
0.0
 40
0.0
 40
0.0
 40
0.0
 40
0.2325109382
 40
0.3575195464
 40
0.4857910002
 40
0.7451588474
 40
1.0
 40
1.0
 40
1.0
 40
1.0
 10
1.2392290897
 20
15.6516740424
 30
0.0
 10
1.2663241796
 20
15.6460309887
 30
0.0
 10
1.3101178739
 20
15.6468081701
 30
0.0
 10
1.3663139925
 20
15.6606074376
 30
0.0
 10
1.4233038929
 20
15.6829353925
 30
0.0
 10
1.4889777475
 20
15.7233741606
 30
0.0
 10
1.5335983425
 20
15.7660486659
 30
0.0
 10
1.5530443132
 20
15.7893303624
 30
0.0
 11
1.2392290897
 21
15.6516740424
 31
0.0
 11
1.3222558839
 21
15.6510084533
 31
0.0
 11
1.3656581677
 21
15.6614493967
 31
0.0
 11
1.4083503815
 21
15.6780485093
 31
0.0
 11
1.487419991
 21
15.7262819936
 31
0.0
 11
1.5530443132
 21
15.7893303624
 31
0.0
  0
SPLINE
  5
37B
100
AcDbEntity
  8
DRAFT
100
AcDbSpline
 62
7
  6
CONTINUOUS
 70
0
 71
3
 72
15
 73
11
 74
9
 42
0.0000001
 43
0.0000001
 44
0.0000000001
 12
2.5597958027
 22
1.2448217595
 32
0.0
 13
-0.0
 23
2.846425085
 33
0.0
 40
0.0
 40
0.0
 40
0.0
 40
0.0
 40
0.107475643
 40
0.2170266866
 40
0.3306657192
 40
0.4500067681
 40
0.5761844452
 40
0.7098400224
 40
0.8511732649
 40
1.0
 40
1.0
 40
1.0
 40
1.0
 10
-9.449311223
 20
-7.3565632251
 30
0.0
 10
-9.3576059898
 20
-7.3119672187
 30
0.0
 10
-9.1803366819
 20
-7.204540737
 30
0.0
 10
-8.9445945436
 20
-6.9951745987
 30
0.0
 10
-8.7408408205
 20
-6.7400965461
 30
0.0
 10
-8.5714772681
 20
-6.4429712261
 30
0.0
 10
-8.4381847929
 20
-6.1076914708
 30
0.0
 10
-8.3423145539
 20
-5.738426912
 30
0.0
 10
-8.2847708302
 20
-5.3397314157
 30
0.0
 10
-8.2726488369
 20
-5.0642120156
 30
0.0
 10
-8.2726488369
 20
-4.9230039649
 30
0.0
 11
-9.449311223
 21
-7.3565632251
 31
0.0
 11
-9.1875606249
 21
-7.1982139066
 31
0.0
 11
-8.9538586738
 21
-6.9917662797
 31
0.0
 11
-8.7510664663
 21
-6.7397644498
 31
0.0
 11
-8.5816636011
 21
-6.4453232778
 31
0.0
 11
-8.4477101166
 21
-6.1120831284
 31
0.0
 11
-8.3508536401
 21
-5.7441784345
 31
0.0
 11
-8.2922592694
 21
-5.34617397
 31
0.0
 11
-8.2726488369
 21
-4.9230039649
 31
0.0
  0
SPLINE
  5
37C
100
AcDbEntity
  8
RACCORDO
100
AcDbSpline
 62
253
  6
CONTINUOUS
 70
0
 71
3
 72
25
 73
21
 74
19
 42
0.0000001
 43
0.0000001
 44
0.0000000001
 12
8.5044319244
 22
4.135587806
 32
0.0
 13
-8.4582952825
 23
4.2291476413
 33
0.0
 40
0.0
 40
0.0
 40
0.0
 40
0.0
 40
0.0223849038
 40
0.0449694378
 40
0.0679622679
 40
0.0915519006
 40
0.1410696352
 40
0.1945049386
 40
0.252251381
 40
0.3142583791
 40
0.3801216873
 40
0.4491693425
 40
0.520536398
 40
0.5932300382
 40
0.6661884063
 40
0.7383362016
 40
0.8086396513
 40
0.8761633803
 40
0.9401319788
 40
1.0
 40
1.0
 40
1.0
 40
1.0
 10
-9.7046502397
 20
-7.4807287188
 30
0.0
 10
-9.6411932763
 20
-7.4498704738
 30
0.0
 10
-9.5174875549
 20
-7.3797513131
 30
0.0
 10
-9.3453539004
 20
-7.2513478235
 30
0.0
 10
-9.1873334319
 20
-7.1003512428
 30
0.0
 10
-8.9937165672
 20
-6.8666126733
 30
0.0
 10
-8.7924379631
 20
-6.5186036376
 30
0.0
 10
-8.6254470611
 20
-6.037749601
 30
0.0
 10
-8.5312156518
 20
-5.4979267836
 30
0.0
 10
-8.5113167955
 20
-4.9115338795
 30
0.0
 10
-8.5657994264
 20
-4.2918290381
 30
0.0
 10
-8.6932683049
 20
-3.6530025121
 30
0.0
 10
-8.8907092843
 20
-3.0097825151
 30
0.0
 10
-9.1535185356
 20
-2.3770825286
 30
0.0
 10
-9.4755757239
 20
-1.7696127831
 30
0.0
 10
-9.8493943265
 20
-1.2015054947
 30
0.0
 10
-10.2662885142
 20
-0.6859740239
 30
0.0
 10
-10.716694621
 20
-0.234953359
 30
0.0
 10
-11.190151585
 20
0.1410205057
 30
0.0
 10
-11.526021345
 20
0.3429413448
 30
0.0
 10
-11.6948151454
 20
0.427338245
 30
0.0
 11
-9.7046502397
 21
-7.4807287188
 31
0.0
 11
-9.5204669702
 21
-7.3763846694
 31
0.0
 11
-9.3491652142
 21
-7.2488319814
 31
0.0
 11
-9.1917598351
 21
-7.0988262956
 31
0.0
 11
-9.0491833681
 21
-6.9272562838
 31
0.0
 11
-8.8118029485
 21
-6.523610853
 31
0.0
 11
-8.6426407801
 21
-6.0474469729
 31
0.0
 11
-8.5456995079
 21
-5.5100317608
 31
0.0
 11
-8.5232729253
 21
-4.9240815803
 31
0.0
 11
-8.5758917149
 21
-4.3034611887
 31
0.0
 11
-8.702310888
 21
-3.6628557256
 31
0.0
 11
-8.8995392194
 21
-3.0174232935
 31
0.0
 11
-9.1629098865
 21
-2.3824362968
 31
0.0
 11
-9.4861908389
 21
-1.772919918
 31
0.0
 11
-9.8617324824
 21
-1.2032965615
 31
0.0
 11
-10.2806486899
 21
-0.6870446551
 31
0.0
 11
-10.733026964
 21
-0.2363798192
 31
0.0
 11
-11.2081626115
 21
0.1380339667
 31
0.0
 11
-11.6948151454
 21
0.427338245
 31
0.0
  0
SPLINE
  5
37D
100
AcDbEntity
  8
RACCORDO
100
AcDbSpline
 62
253
  6
CONTINUOUS
 70
0
 71
3
 72
13
 73
9
 74
7
 42
0.0000001
 43
0.0000001
 44
0.0000000001
 12
-0.1868382045
 22
0.3017261023
 32
0.0
 13
-0.3164708648
 23
0.1606030733
 33
0.0
 40
0.0
 40
0.0
 40
0.0
 40
0.0
 40
0.1018788417
 40
0.2189946503
 40
0.483012367
 40
0.7559759138
 40
0.8838496473
 40
1.0
 40
1.0
 40
1.0
 40
1.0
 10
0.8418237051
 20
-25.3617702542
 30
0.0
 10
0.8354787518
 20
-25.3515237522
 30
0.0
 10
0.8204640717
 20
-25.3303478058
 30
0.0
 10
0.783658561
 20
-25.2865901609
 30
0.0
 10
0.7280264584
 20
-25.2325322146
 30
0.0
 10
0.6662149465
 20
-25.1836467802
 30
0.0
 10
0.6150986044
 20
-25.1500114242
 30
0.0
 10
0.5899428273
 20
-25.135781391
 30
0.0
 10
0.5776900931
 20
-25.1295633565
 30
0.0
 11
0.8418237051
 21
-25.3617702542
 31
0.0
 11
0.8211467381
 21
-25.3321104135
 31
0.0
 11
0.7945339203
 21
-25.3001845104
 31
0.0
 11
0.7277594631
 21
-25.2344550419
 31
0.0
 11
0.6516285914
 21
-25.1745526272
 31
0.0
 11
0.6136571104
 21
-25.149700752
 31
0.0
 11
0.5776900931
 21
-25.1295633565
 31
0.0
  0
SPLINE
  5
37E
100
AcDbEntity
  8
RACCORDO
100
AcDbSpline
 62
7
  6
CONTINUOUS
 70
0
 71
3
 72
13
 73
9
 74
7
 42
0.0000001
 43
0.0000001
 44
0.0000000001
 12
-0.3676034061
 22
0.0767624926
 32
0.0
 13
-0.3358865814
 23
0.1679432907
 33
0.0
 40
0.0
 40
0.0
 40
0.0
 40
0.0
 40
0.0966834289
 40
0.2082492961
 40
0.4660034111
 40
0.7454687051
 40
0.8795048358
 40
1.0
 40
1.0
 40
1.0
 40
1.0
 10
1.5530443132
 20
-24.510273777
 30
0.0
 10
1.5411972606
 20
-24.50779989
 30
0.0
 10
1.5158226746
 20
-24.5017833329
 30
0.0
 10
1.4595812198
 20
-24.4862725637
 30
0.0
 10
1.3823106729
 20
-24.4611368251
 30
0.0
 10
1.3037211236
 20
-24.4312967759
 30
0.0
 10
1.2422726631
 20
-24.4049556973
 30
0.0
 10
1.2134990281
 20
-24.3912493904
 30
0.0
 10
1.2000081252
 20
-24.384503939
 30
0.0
 11
1.5530443132
 21
-24.510273777
 31
0.0
 11
1.5176880469
 21
-24.5020160905
 31
0.0
 11
1.4772780629
 21
-24.4909544404
 31
0.0
 11
1.3851465277
 21
-24.4612716661
 31
0.0
 11
1.2870733307
 21
-24.4239112521
 31
0.0
 11
1.2408575527
 21
-24.4039686369
 31
0.0
 11
1.2000081252
 21
-24.384503939
 31
0.0
  0
SPLINE
  5
37F
100
AcDbEntity
  8
ASSI
100
AcDbSpline
 62
7
  6
CONTINUOUS
 70
0
 71
3
 72
13
 73
9
 74
7
 42
0.0000001
 43
0.0000001
 44
0.0000000001
 12
-0.1074301559
 22
0.0533593358
 32
0.0
 13
-0.114239298
 23
-0.0365764938
 33
0.0
 40
0.0
 40
0.0
 40
0.0
 40
0.0
 40
0.0547027218
 40
0.12553101
 40
0.2154900889
 40
0.3266288228
 40
0.6170723146
 40
1.0
 40
1.0
 40
1.0
 40
1.0
 10
3.4652989608
 20
21.571227247
 30
0.0
 10
3.4633400534
 20
21.572200214
 30
0.0
 10
3.4584500585
 20
21.5736155838
 30
0.0
 10
3.4498371605
 20
21.5743062797
 30
0.0
 10
3.438953886
 20
21.573790039
 30
0.0
 10
3.4194652742
 20
21.5711309452
 30
0.0
 10
3.3888813425
 20
21.5639195386
 30
0.0
 10
3.3631029804
 20
21.5561379696
 30
0.0
 10
3.3485211837
 20
21.5514692523
 30
0.0
 11
3.4652989608
 21
21.571227247
 31
0.0
 11
3.4590540403
 21
21.5732413998
 31
0.0
 11
3.4506001111
 21
21.5740857233
 31
0.0
 11
3.4398166463
 21
21.5736889471
 31
0.0
 11
3.4265947414
 21
21.5719845883
 31
0.0
 11
3.3925747878
 21
21.5644735364
 31
0.0
 11
3.3485211837
 21
21.5514692523
 31
0.0
  0
SPLINE
  5
380
100
AcDbEntity
  8
RACCORDO
100
AcDbSpline
 62
253
  6
CONTINUOUS
 70
0
 71
3
 72
13
 73
9
 74
7
 42
0.0000001
 43
0.0000001
 44
0.0000000001
 12
-0.1069170157
 22
-0.2783410717
 32
0.0
 13
-0.2918756657
 23
0.0609392829
 33
0.0
 40
0.0
 40
0.0
 40
0.0
 40
0.0
 40
0.2769974725
 40
0.5361985654
 40
0.6582146203
 40
0.7753291389
 40
0.8886899808
 40
1.0
 40
1.0
 40
1.0
 40
1.0
 10
0.8418237051
 20
15.9378338852
 30
0.0
 10
0.8319517907
 20
15.9121339608
 30
0.0
 10
0.8062148047
 20
15.8645988914
 30
0.0
 10
0.7588882662
 20
15.8176937735
 30
0.0
 10
0.715607201
 20
15.7930939196
 30
0.0
 10
0.6822075998
 20
15.7817638943
 30
0.0
 10
0.6482496529
 20
15.7776062786
 30
0.0
 10
0.6258098379
 20
15.7797515795
 30
0.0
 10
0.6149802759
 20
15.7820126304
 30
0.0
 11
0.8418237051
 21
15.9378338852
 31
0.0
 11
0.8019402715
 21
15.8655097605
 31
0.0
 11
0.7463896081
 21
15.8117768599
 31
0.0
 11
0.7146895871
 21
15.7939241572
 31
0.0
 11
0.6815780797
 21
15.7828321685
 31
0.0
 11
0.6480159211
 21
15.77882327
 31
0.0
 11
0.6149802759
 21
15.7820126304
 31
0.0
  0
SPLINE
  5
381
100
AcDbEntity
  8
RACCORDO
100
AcDbSpline
 62
7
  6
CONTINUOUS
 70
0
 71
3
 72
9
 73
5
 74
3
 42
0.0000001
 43
0.0000001
 44
0.0000000001
 12
-0.1029438807
 22
-0.0575384424
 32
0.0
 13
-0.1162019051
 23
-0.0201303799
 33
0.0
 40
0.0
 40
0.0
 40
0.0
 40
0.0
 40
0.4764818357
 40
1.0
 40
1.0
 40
1.0
 40
1.0
 10
1.5530443132
 20
14.9808295384
 30
0.0
 10
1.5366940167
 20
14.9716908642
 30
0.0
 10
1.5000958114
 20
14.9565363654
 30
0.0
 10
1.4616753067
 20
14.9476586691
 30
0.0
 10
1.4413973707
 20
14.9441457959
 30
0.0
 11
1.5530443132
 21
14.9808295384
 31
0.0
 11
1.501403531
 21
14.9586742309
 31
0.0
 11
1.4413973707
 21
14.9441457959
 31
0.0
  0
SPLINE
  5
382
100
AcDbEntity
  8
RACCORDO
100
AcDbSpline
 62
253
  6
CONTINUOUS
 70
0
 71
3
 72
11
 73
7
 74
5
 42
0.0000001
 43
0.0000001
 44
0.0000000001
 12
0.0
 22
-0.1574304972
 32
0.0
 13
0.1408119364
 23
-0.0704014205
 33
0.0
 40
0.0
 40
0.0
 40
0.0
 40
0.0
 40
0.289749639
 40
0.5495875602
 40
0.7828489991
 40
1.0
 40
1.0
 40
1.0
 40
1.0
 10
0.4893017454
 20
15.9383466091
 30
0.0
 10
0.4893017454
 20
15.9231414658
 30
0.0
 10
0.4917556069
 20
15.8941912424
 30
0.0
 10
0.5041289803
 20
15.8545965536
 30
0.0
 10
0.5247958069
 20
15.8228979139
 30
0.0
 10
0.5440825263
 20
15.8082240043
 30
0.0
 10
0.5542750106
 20
15.8031280913
 30
0.0
 11
0.4893017454
 21
15.9383466091
 31
0.0
 11
0.4936215555
 21
15.8929361844
 31
0.0
 11
0.5063690447
 21
15.8540667085
 31
0.0
 11
0.5269222602
 21
15.8236347399
 31
0.0
 11
0.5542750106
 21
15.8031280913
 31
0.0
  0
SPLINE
  5
383
100
AcDbEntity
  8
RACCORDO
100
AcDbSpline
 62
253
  6
CONTINUOUS
 70
0
 71
3
 72
11
 73
7
 74
5
 42
0.0000001
 43
0.0000001
 44
0.0000000001
 12
0.0
 22
-0.1574304972
 32
0.0
 13
0.1408119364
 23
-0.0704014205
 33
0.0
 40
0.0
 40
0.0
 40
0.0
 40
0.0
 40
0.289749639
 40
0.5495875602
 40
0.7828489991
 40
1.0
 40
1.0
 40
1.0
 40
1.0
 10
-0.8356829344
 20
16.600838949
 30
0.0
 10
-0.8356829344
 20
16.5856338057
 30
0.0
 10
-0.833229073
 20
16.5566835823
 30
0.0
 10
-0.8208556995
 20
16.5170888936
 30
0.0
 10
-0.8001888729
 20
16.4853902538
 30
0.0
 10
-0.7809021535
 20
16.4707163442
 30
0.0
 10
-0.7707096692
 20
16.4656204312
 30
0.0
 11
-0.8356829344
 21
16.600838949
 31
0.0
 11
-0.8313631243
 21
16.5554285243
 31
0.0
 11
-0.8186156351
 21
16.5165590484
 31
0.0
 11
-0.7980624196
 21
16.4861270798
 31
0.0
 11
-0.7707096692
 21
16.4656204312
 31
0.0
  0
SPLINE
  5
384
100
AcDbEntity
  8
RACCORDO
100
AcDbSpline
 62
253
  6
CONTINUOUS
 70
0
 71
3
 72
11
 73
7
 74
5
 42
0.0000001
 43
0.0000001
 44
0.0000000001
 12
-0.1076203225
 22
0.0538101613
 32
0.0
 13
0.0000013829
 23
0.1203231785
 33
0.0
 40
0.0
 40
0.0
 40
0.0
 40
0.0
 40
0.3025823249
 40
0.5654825874
 40
0.7934322572
 40
1.0
 40
1.0
 40
1.0
 40
1.0
 10
-0.8356829344
 20
16.600838949
 30
0.0
 10
-0.8465376035
 20
16.6062662836
 30
0.0
 10
-0.8661560766
 20
16.617906014
 30
0.0
 10
-0.8899674468
 20
16.6394266415
 30
0.0
 10
-0.9052466438
 20
16.6633809264
 30
0.0
 10
-0.9089063322
 20
16.6809423342
 30
0.0
 10
-0.908906237
 20
16.6892272966
 30
0.0
 11
-0.8356829344
 21
16.600838949
 31
0.0
 11
-0.8667746074
 21
16.6197816546
 31
0.0
 11
-0.8898754439
 21
16.6413917849
 31
0.0
 11
-0.9041024042
 21
16.6648410584
 31
0.0
 11
-0.908906237
 21
16.6892272966
 31
0.0
  0
SPLINE
  5
385
100
AcDbEntity
  8
RACCORDO
100
AcDbSpline
 62
253
  6
CONTINUOUS
 70
0
 71
3
 72
11
 73
7
 74
5
 42
0.0000001
 43
0.0000001
 44
0.0000000001
 12
-0.1076200259
 22
0.053810013
 32
0.0
 13
0.0000008147
 23
0.1203228468
 33
0.0
 40
0.0
 40
0.0
 40
0.0
 40
0.0
 40
0.3025814593
 40
0.565482116
 40
0.7934320761
 40
1.0
 40
1.0
 40
1.0
 40
1.0
 10
-0.8356829344
 20
16.9408128831
 30
0.0
 10
-0.8465375426
 20
16.9462401872
 30
0.0
 10
-0.8661559436
 20
16.9578798729
 30
0.0
 10
-0.889967283
 20
16.9794003897
 30
0.0
 10
-0.9052465181
 20
17.0033545915
 30
0.0
 10
-0.9089062928
 20
17.0209159477
 30
0.0
 10
-0.9089062367
 20
17.0292008946
 30
0.0
 11
-0.8356829344
 21
16.9408128831
 31
0.0
 11
-0.8667744412
 21
16.9597554683
 31
0.0
 11
-0.8898752887
 21
16.9813655289
 31
0.0
 11
-0.9041022984
 21
17.0048147247
 31
0.0
 11
-0.9089062367
 21
17.0292008946
 31
0.0
  0
SPLINE
  5
386
100
AcDbEntity
  8
RACCORDO
100
AcDbSpline
 62
253
  6
CONTINUOUS
 70
0
 71
3
 72
11
 73
7
 74
5
 42
0.0000001
 43
0.0000001
 44
0.0000000001
 12
-0.1051440438
 22
0.0519595372
 32
0.0
 13
-0.1043498228
 23
-0.0535366971
 33
0.0
 40
0.0
 40
0.0
 40
0.0
 40
0.0
 40
0.2795161735
 40
0.5356960478
 40
0.773144514
 40
1.0
 40
1.0
 40
1.0
 40
1.0
 10
-0.6599346784
 20
17.2451896981
 30
0.0
 10
-0.6697311654
 20
17.2500308751
 30
0.0
 10
-0.6893089531
 20
17.2578352974
 30
0.0
 10
-0.7192773145
 20
17.263288095
 30
0.0
 10
-0.7476926653
 20
17.2616657841
 30
0.0
 10
-0.7651293865
 20
17.2556856986
 30
0.0
 10
-0.7730201631
 20
17.2516373341
 30
0.0
 11
-0.6599346784
 21
17.2451896981
 31
0.0
 11
-0.6904848918
 21
17.2570790976
 31
0.0
 11
-0.720093463
 21
17.2621831719
 31
0.0
 11
-0.7478815773
 21
17.2603513453
 31
0.0
 11
-0.7730201631
 21
17.2516373341
 31
0.0
  0
SPLINE
  5
387
100
AcDbEntity
  8
RACCORDO
100
AcDbSpline
 62
7
  6
CONTINUOUS
 70
0
 71
3
 72
11
 73
7
 74
5
 42
0.0000001
 43
0.0000001
 44
0.0000000001
 12
-0.1028463418
 22
0.0514231709
 32
0.0
 13
-0.1033748983
 23
-0.0503521891
 33
0.0
 40
0.0
 40
0.0
 40
0.0
 40
0.0
 40
0.2790833933
 40
0.5352290697
 40
0.7729212505
 40
1.0
 40
1.0
 40
1.0
 40
1.0
 10
0.9228219247
 20
18.0571737954
 30
0.0
 10
0.913254356
 20
18.0619575798
 30
0.0
 10
0.8941228426
 20
18.0697083122
 30
0.0
 10
0.8648038641
 20
18.0753021356
 30
0.0
 10
0.8369210946
 20
18.0740683787
 30
0.0
 10
0.8197145562
 20
18.0685151125
 30
0.0
 10
0.8118898087
 20
18.0647038084
 30
0.0
 11
0.9228219247
 21
18.0571737954
 31
0.0
 11
0.8929845207
 21
18.0689863306
 31
0.0
 11
0.8640050073
 21
18.0742467868
 31
0.0
 11
0.8367118172
 21
18.0728058024
 31
0.0
 11
0.8118898087
 21
18.0647038084
 31
0.0
  0
SPLINE
  5
388
100
AcDbEntity
  8
RACCORDO
100
AcDbSpline
 62
253
  6
CONTINUOUS
 70
0
 71
3
 72
11
 73
7
 74
5
 42
0.0000001
 43
0.0000001
 44
0.0000000001
 12
-0.1022732405
 22
0.0517308258
 32
0.0
 13
-0.1030347895
 23
-0.0501968744
 33
0.0
 40
0.0
 40
0.0
 40
0.0
 40
0.0
 40
0.2789499081
 40
0.5349528633
 40
0.7726365704
 40
1.0
 40
1.0
 40
1.0
 40
1.0
 10
1.4572718034
 20
18.317521262
 30
0.0
 10
1.4477620997
 20
18.322331365
 30
0.0
 10
1.4287335951
 20
18.3301331623
 30
0.0
 10
1.399533742
 20
18.3357910963
 30
0.0
 10
1.3717315719
 20
18.3345973159
 30
0.0
 10
1.3545686125
 20
18.3290600786
 30
0.0
 10
1.3467598315
 20
18.3252557674
 30
0.0
 11
1.4572718034
 21
18.317521262
 31
0.0
 11
1.4275941478
 21
18.3294116258
 31
0.0
 11
1.3987398032
 21
18.3347333385
 31
0.0
 11
1.3715343324
 21
18.3333349201
 31
0.0
 11
1.3467598315
 21
18.3252557674
 31
0.0
  0
SPLINE
  5
389
100
AcDbEntity
  8
ASSI
100
AcDbSpline
 62
7
  6
CONTINUOUS
 70
0
 71
3
 72
13
 73
9
 74
7
 42
0.0000001
 43
0.0000001
 44
0.0000000001
 12
-0.1090711251
 22
0.0542082038
 32
0.0
 13
-0.1159470089
 23
-0.0373005473
 33
0.0
 40
0.0
 40
0.0
 40
0.0
 40
0.0
 40
0.0544143451
 40
0.1250279196
 40
0.214867035
 40
0.3259870749
 40
0.6166718751
 40
1.0
 40
1.0
 40
1.0
 40
1.0
 10
-2.0896854159
 20
24.3487194453
 30
0.0
 10
-2.0916637605
 20
24.3497026799
 30
0.0
 10
-2.0966123176
 20
24.3511270303
 30
0.0
 10
-2.1053340887
 20
24.3518057394
 30
0.0
 10
-2.1163693516
 20
24.35125506
 30
0.0
 10
-2.1361557016
 20
24.3485079947
 30
0.0
 10
-2.1672198641
 20
24.3411164113
 30
0.0
 10
-2.193407439
 20
24.3331661872
 30
0.0
 10
-2.2082226888
 20
24.3284000709
 30
0.0
 11
-2.0896854159
 21
24.3487194453
 31
0.0
 11
-2.0959951214
 21
24.3507474977
 31
0.0
 11
-2.1045550371
 21
24.3515838342
 31
0.0
 11
-2.1154889706
 21
24.3511552423
 31
0.0
 11
-2.1289081764
 21
24.3493937112
 31
0.0
 11
-2.1634650945
 21
24.3416901114
 31
0.0
 11
-2.2082226888
 21
24.3284000709
 31
0.0
  0
SPLINE
  5
38A
100
AcDbEntity
  8
RACCORDO
100
AcDbSpline
 62
253
  6
CONTINUOUS
 70
0
 71
3
 72
11
 73
7
 74
5
 42
0.0000001
 43
0.0000001
 44
0.0000000001
 12
0.0017306169
 22
0.3673419505
 32
0.0
 13
-0.3293172692
 23
0.162767441
 33
0.0
 40
0.0
 40
0.0
 40
0.0
 40
0.0
 40
0.2468889152
 40
0.5116858701
 40
0.7700776245
 40
1.0
 40
1.0
 40
1.0
 40
1.0
 10
2.9713716676
 20
17.3439686429
 30
0.0
 10
2.971514091
 20
17.3741995281
 30
0.0
 10
2.9613236678
 20
17.4370168936
 30
0.0
 10
2.9236755354
 20
17.524358029
 30
0.0
 10
2.8680731455
 20
17.5989515429
 30
0.0
 10
2.8198371002
 20
17.6363835561
 30
0.0
 10
2.794597964
 20
17.6488581817
 30
0.0
 11
2.9713716676
 21
17.3439686429
 31
0.0
 11
2.9582288869
 21
17.4337049659
 31
0.0
 11
2.9200197469
 21
17.5231584448
 31
0.0
 11
2.8625598067
 21
17.5987097971
 31
0.0
 11
2.794597964
 21
17.6488581817
 31
0.0
  0
SPLINE
  5
38B
100
AcDbEntity
  8
RACCORDO
100
AcDbSpline
 62
253
  6
CONTINUOUS
 70
0
 71
3
 72
11
 73
7
 74
5
 42
0.0000001
 43
0.0000001
 44
0.0000000001
 12
-0.0017563531
 22
0.3667457895
 32
0.0
 13
-0.3272560827
 23
0.1655566829
 33
0.0
 40
0.0
 40
0.0
 40
0.0
 40
0.0
 40
0.2466958371
 40
0.5118834552
 40
0.7705706608
 40
1.0
 40
1.0
 40
1.0
 40
1.0
 10
0.8418237051
 20
16.2778078194
 30
0.0
 10
0.8416792767
 20
16.3079660392
 30
0.0
 10
0.8310262627
 20
16.3705951707
 30
0.0
 10
0.7932078082
 20
16.4577214215
 30
0.0
 10
0.7378923839
 20
16.5323192397
 30
0.0
 10
0.6900773837
 20
16.5700361714
 30
0.0
 10
0.6650500014
 20
16.5826973582
 30
0.0
 11
0.8418237051
 21
16.2778078194
 31
0.0
 11
0.8280503715
 21
16.3672289971
 31
0.0
 11
0.7896198018
 21
16.4565717295
 31
0.0
 11
0.7323812963
 21
16.532233744
 31
0.0
 11
0.6650500014
 21
16.5826973582
 31
0.0
  0
SPLINE
  5
38C
100
AcDbEntity
  8
RACCORDO
100
AcDbSpline
 62
7
  6
CONTINUOUS
 70
0
 71
3
 72
11
 73
7
 74
5
 42
0.0000001
 43
0.0000001
 44
0.0000000001
 12
0.0
 22
0.3670486434
 32
0.0
 13
-0.328298287
 23
0.1641491435
 33
0.0
 40
0.0
 40
0.0
 40
0.0
 40
0.0
 40
0.2467927921
 40
0.5117852903
 40
0.7703247525
 40
1.0
 40
1.0
 40
1.0
 40
1.0
 10
2.4431044959
 20
17.0805298229
 30
0.0
 10
2.4431044959
 20
17.1107248094
 30
0.0
 10
2.4326844925
 20
17.1734491479
 30
0.0
 10
2.3949507188
 20
17.2606829571
 30
0.0
 10
2.339492113
 20
17.3352790664
 30
0.0
 10
2.291464789
 20
17.3728523633
 30
0.0
 10
2.2663307922
 20
17.3854193617
 30
0.0
 11
2.4431044959
 21
17.0805298229
 31
0.0
 11
2.4296485318
 21
17.1701097979
 31
0.0
 11
2.3913289084
 21
17.2595084183
 31
0.0
 11
2.3339791612
 21
17.3351150541
 31
0.0
 11
2.2663307922
 21
17.3854193617
 31
0.0
  0
SPLINE
  5
38D
100
AcDbEntity
  8
RACCORDO
100
AcDbSpline
 62
253
  6
CONTINUOUS
 70
0
 71
3
 72
13
 73
9
 74
7
 42
0.0000001
 43
0.0000001
 44
0.0000000001
 12
0.3242438585
 22
-0.1621219293
 32
0.0
 13
0.3249922964
 23
0.1606163348
 33
0.0
 40
0.0
 40
0.0
 40
0.0
 40
0.0
 40
0.1125245899
 40
0.2354260292
 40
0.4995816495
 40
0.7639634918
 40
0.8871317035
 40
1.0
 40
1.0
 40
1.0
 40
1.0
 10
0.4893017454
 20
16.2783205432
 30
0.0
 10
0.5014635478
 20
16.272239642
 30
0.0
 10
0.5279603084
 20
16.2615755231
 30
0.0
 10
0.5864502688
 20
16.2461882116
 30
0.0
 10
0.6653751249
 20
16.2387282339
 30
0.0
 10
0.7443500392
 20
16.2459686441
 30
0.0
 10
0.8029892841
 20
16.2611815135
 30
0.0
 10
0.8295965961
 20
16.2717649887
 30
0.0
 10
0.8418237051
 20
16.2778078194
 30
0.0
 11
0.4893017454
 21
16.2783205432
 31
0.0
 11
0.527036034
 21
16.262825233
 31
0.0
 11
0.5700716235
 21
16.2512939782
 31
0.0
 11
0.6653513103
 21
16.2417094196
 31
0.0
 11
0.7607408818
 21
16.2510166906
 31
0.0
 11
0.8039099012
 21
16.2624225848
 31
0.0
 11
0.8418237051
 21
16.2778078194
 31
0.0
  0
SPLINE
  5
38E
100
AcDbEntity
  8
RACCORDO
100
AcDbSpline
 62
253
  6
CONTINUOUS
 70
0
 71
3
 72
13
 73
9
 74
7
 42
0.0000001
 43
0.0000001
 44
0.0000000001
 12
0.3242438589
 22
-0.1621219295
 32
0.0
 13
0.3249922968
 23
0.160616335
 33
0.0
 40
0.0
 40
0.0
 40
0.0
 40
0.0
 40
0.1125245356
 40
0.2354259129
 40
0.4995814041
 40
0.7639631741
 40
0.8871313456
 40
1.0
 40
1.0
 40
1.0
 40
1.0
 10
0.4893017454
 20
15.9383466091
 30
0.0
 10
0.501463542
 20
15.9322657108
 30
0.0
 10
0.5279602891
 20
15.9216015965
 30
0.0
 10
0.5864502192
 20
15.9062142869
 30
0.0
 10
0.6653750427
 20
15.8987543006
 30
0.0
 10
0.7443499272
 20
15.9059946987
 30
0.0
 10
0.802989208
 20
15.9212075475
 30
0.0
 10
0.8295965573
 20
15.9317910354
 30
0.0
 10
0.8418237051
 20
15.9378338852
 30
0.0
 11
0.4893017454
 21
15.9383466091
 31
0.0
 11
0.5270360154
 21
15.9228513053
 31
0.0
 11
0.5700715822
 21
15.9113200523
 31
0.0
 11
0.6653512212
 21
15.9017354856
 31
0.0
 11
0.7607407687
 21
15.9110427345
 31
0.0
 11
0.8039097786
 21
15.9224486076
 31
0.0
 11
0.8418237051
 21
15.9378338852
 31
0.0
  0
SPLINE
  5
38F
100
AcDbEntity
  8
RACCORDO
100
AcDbSpline
 62
253
  6
CONTINUOUS
 70
0
 71
3
 72
11
 73
7
 74
5
 42
0.0000001
 43
0.0000001
 44
0.0000000001
 12
0.0
 22
0.365918428
 32
0.0
 13
0.3263519549
 23
0.1655013517
 33
0.0
 40
0.0
 40
0.0
 40
0.0
 40
0.0
 40
0.2465994894
 40
0.5114083944
 40
0.7699753467
 40
1.0
 40
1.0
 40
1.0
 40
1.0
 10
-0.8356829344
 20
16.9408128831
 30
0.0
 10
-0.8356829344
 20
16.9708913156
 30
0.0
 10
-0.8253401724
 20
17.0333763249
 30
0.0
 10
-0.7878565489
 20
17.1203467357
 30
0.0
 10
-0.7327172077
 20
17.1948457219
 30
0.0
 10
-0.6849576769
 20
17.2324999011
 30
0.0
 10
-0.6599346784
 20
17.2451896981
 30
0.0
 11
-0.8356829344
 21
16.9408128831
 31
0.0
 11
-0.8223245728
 21
17.0300539224
 31
0.0
 11
-0.78426932
 21
17.1191668224
 31
0.0
 11
-0.7272672974
 21
17.1946827579
 31
0.0
 11
-0.6599346784
 21
17.2451896981
 31
0.0
  0
SPLINE
  5
390
100
AcDbEntity
  8
RACCORDO
100
AcDbSpline
 62
253
  6
CONTINUOUS
 70
0
 71
3
 72
11
 73
7
 74
5
 42
0.0000001
 43
0.0000001
 44
0.0000000001
 12
0.0
 22
0.3659184285
 32
0.0
 13
0.3263519554
 23
0.165501352
 33
0.0
 40
0.0
 40
0.0
 40
0.0
 40
0.0
 40
0.2465996066
 40
0.5114086341
 40
0.7699756527
 40
1.0
 40
1.0
 40
1.0
 40
1.0
 10
0.4893017454
 20
16.2783205432
 30
0.0
 10
0.4893017454
 20
16.30839899
 30
0.0
 10
0.4996445175
 20
16.3708840288
 30
0.0
 10
0.5371281698
 20
16.4578544682
 30
0.0
 10
0.5922675203
 20
16.5323534325
 30
0.0
 10
0.6400270362
 20
16.570007578
 30
0.0
 10
0.6650500014
 20
16.5826973582
 30
0.0
 11
0.4893017454
 21
16.2783205432
 31
0.0
 11
0.5026601194
 21
16.3675616241
 31
0.0
 11
0.5407154042
 21
16.4566745593
 31
0.0
 11
0.597717461
 21
16.5321904995
 31
0.0
 11
0.6650500014
 21
16.5826973582
 31
0.0
  0
SPLINE
  5
391
100
AcDbEntity
  8
RACCORDO
100
AcDbSpline
 62
253
  6
CONTINUOUS
 70
0
 71
3
 72
11
 73
7
 74
5
 42
0.0000001
 43
0.0000001
 44
0.0000000001
 12
0.0
 22
-0.1574304972
 32
0.0
 13
0.1408119364
 23
-0.0704014205
 33
0.0
 40
0.0
 40
0.0
 40
0.0
 40
0.0
 40
0.289749639
 40
0.5495875602
 40
0.7828489991
 40
1.0
 40
1.0
 40
1.0
 40
1.0
 10
-12.875016419
 20
22.6205056913
 30
0.0
 10
-12.875016419
 20
22.605300548
 30
0.0
 10
-12.8725625576
 20
22.5763503246
 30
0.0
 10
-12.8601891841
 20
22.5367556359
 30
0.0
 10
-12.8395223575
 20
22.5050569961
 30
0.0
 10
-12.8202356381
 20
22.4903830865
 30
0.0
 10
-12.8100431538
 20
22.4852871735
 30
0.0
 11
-12.875016419
 21
22.6205056913
 31
0.0
 11
-12.8706966089
 21
22.5750952666
 31
0.0
 11
-12.8579491197
 21
22.5362257907
 31
0.0
 11
-12.8373959042
 21
22.5057938221
 31
0.0
 11
-12.8100431538
 21
22.4852871735
 31
0.0
  0
SPLINE
  5
392
100
AcDbEntity
  8
RACCORDO
100
AcDbSpline
 62
253
  6
CONTINUOUS
 70
0
 71
3
 72
11
 73
7
 74
5
 42
0.0000001
 43
0.0000001
 44
0.0000000001
 12
0.0
 22
-0.1574304972
 32
0.0
 13
0.1408119364
 23
-0.0704014205
 33
0.0
 40
0.0
 40
0.0
 40
0.0
 40
0.0
 40
0.289749639
 40
0.5495875602
 40
0.7828489991
 40
1.0
 40
1.0
 40
1.0
 40
1.0
 10
-14.2000010988
 20
23.2829980312
 30
0.0
 10
-14.2000010988
 20
23.267792888
 30
0.0
 10
-14.1975472374
 20
23.2388426645
 30
0.0
 10
-14.1851738639
 20
23.1992479758
 30
0.0
 10
-14.1645070374
 20
23.167549336
 30
0.0
 10
-14.1452203179
 20
23.1528754264
 30
0.0
 10
-14.1350278336
 20
23.1477795134
 30
0.0
 11
-14.2000010988
 21
23.2829980312
 31
0.0
 11
-14.1956812888
 21
23.2375876065
 31
0.0
 11
-14.1829337996
 21
23.1987181306
 31
0.0
 11
-14.162380584
 21
23.168286162
 31
0.0
 11
-14.1350278336
 21
23.1477795134
 31
0.0
  0
SPLINE
  5
393
100
AcDbEntity
  8
RACCORDO
100
AcDbSpline
 62
7
  6
CONTINUOUS
 70
0
 71
3
 72
12
 73
8
 74
6
 42
0.0000001
 43
0.0000001
 44
0.0000000001
 12
-0.2288947893
 22
-0.2740443819
 32
0.0
 13
-0.3495652491
 23
0.0727824462
 33
0.0
 40
0.0
 40
0.0
 40
0.0
 40
0.0
 40
0.2548335856
 40
0.5141953181
 40
0.6424651752
 40
0.7674743832
 40
1.0
 40
1.0
 40
1.0
 40
1.0
 10
-11.8112738513
 20
22.4714894446
 30
0.0
 10
-11.8307172112
 20
22.4482108738
 30
0.0
 10
-11.8753312455
 20
22.4055413277
 30
0.0
 10
-11.9409947581
 20
22.3651053916
 30
0.0
 10
-11.9979762913
 20
22.3427753437
 30
0.0
 10
-12.0541663869
 20
22.3289737595
 30
0.0
 10
-12.0979578037
 20
22.328179089
 30
0.0
 10
-12.1250520954
 20
22.33382035
 30
0.0
 11
-11.8112738513
 21
22.4714894446
 31
0.0
 11
-11.8768884532
 21
22.408448593
 31
0.0
 11
-11.9559457806
 21
22.3602177641
 31
0.0
 11
-11.9986317607
 21
22.3436174092
 31
0.0
 11
-12.0420285987
 21
22.3331728708
 31
0.0
 11
-12.1250520954
 21
22.33382035
 31
0.0
  0
SPLINE
  5
394
100
AcDbEntity
  8
RACCORDO
100
AcDbSpline
 62
253
  6
CONTINUOUS
 70
0
 71
3
 72
13
 73
9
 74
7
 42
0.0000001
 43
0.0000001
 44
0.0000000001
 12
-0.1069170157
 22
-0.2783410717
 32
0.0
 13
-0.2918756657
 23
0.0609392829
 33
0.0
 40
0.0
 40
0.0
 40
0.0
 40
0.0
 40
0.2769974725
 40
0.5361985654
 40
0.6582146203
 40
0.7753291389
 40
0.8886899808
 40
1.0
 40
1.0
 40
1.0
 40
1.0
 10
-12.5224944594
 20
22.6199929674
 30
0.0
 10
-12.5323663737
 20
22.594293043
 30
0.0
 10
-12.5581033597
 20
22.5467579736
 30
0.0
 10
-12.6054298982
 20
22.4998528557
 30
0.0
 10
-12.6487109634
 20
22.4752530018
 30
0.0
 10
-12.6821105647
 20
22.4639229765
 30
0.0
 10
-12.7160685115
 20
22.4597653608
 30
0.0
 10
-12.7385083266
 20
22.4619106617
 30
0.0
 10
-12.7493378886
 20
22.4641717126
 30
0.0
 11
-12.5224944594
 21
22.6199929674
 31
0.0
 11
-12.5623778929
 21
22.5476688427
 31
0.0
 11
-12.6179285564
 21
22.4939359421
 31
0.0
 11
-12.6496285773
 21
22.4760832394
 31
0.0
 11
-12.6827400848
 21
22.4649912507
 31
0.0
 11
-12.7163022433
 21
22.4609823522
 31
0.0
 11
-12.7493378886
 21
22.4641717126
 31
0.0
  0
SPLINE
  5
395
100
AcDbEntity
  8
RACCORDO
100
AcDbSpline
 62
253
  6
CONTINUOUS
 70
0
 71
3
 72
13
 73
9
 74
7
 42
0.0000001
 43
0.0000001
 44
0.0000000001
 12
0.3242438589
 22
-0.1621219295
 32
0.0
 13
0.3249922968
 23
0.160616335
 33
0.0
 40
0.0
 40
0.0
 40
0.0
 40
0.0
 40
0.1125245356
 40
0.2354259129
 40
0.4995814041
 40
0.7639631741
 40
0.8871313456
 40
1.0
 40
1.0
 40
1.0
 40
1.0
 10
-12.875016419
 20
22.9604796254
 30
0.0
 10
-12.8628546225
 20
22.9543987271
 30
0.0
 10
-12.8363578753
 20
22.9437346128
 30
0.0
 10
-12.7778679452
 20
22.9283473032
 30
0.0
 10
-12.6989431218
 20
22.9208873169
 30
0.0
 10
-12.6199682372
 20
22.928127715
 30
0.0
 10
-12.5613289564
 20
22.9433405639
 30
0.0
 10
-12.5347216071
 20
22.9539240517
 30
0.0
 10
-12.5224944594
 20
22.9599669016
 30
0.0
 11
-12.875016419
 21
22.9604796254
 31
0.0
 11
-12.837282149
 21
22.9449843216
 31
0.0
 11
-12.7942465822
 21
22.9334530687
 31
0.0
 11
-12.6989669432
 21
22.9238685019
 31
0.0
 11
-12.6035773957
 21
22.9331757508
 31
0.0
 11
-12.5604083858
 21
22.9445816239
 31
0.0
 11
-12.5224944594
 21
22.9599669016
 31
0.0
  0
SPLINE
  5
396
100
AcDbEntity
  8
RACCORDO
100
AcDbSpline
 62
253
  6
CONTINUOUS
 70
0
 71
3
 72
13
 73
9
 74
7
 42
0.0000001
 43
0.0000001
 44
0.0000000001
 12
0.3242438589
 22
-0.1621219295
 32
0.0
 13
0.3249922968
 23
0.160616335
 33
0.0
 40
0.0
 40
0.0
 40
0.0
 40
0.0
 40
0.1125245356
 40
0.2354259129
 40
0.4995814041
 40
0.7639631741
 40
0.8871313456
 40
1.0
 40
1.0
 40
1.0
 40
1.0
 10
-12.875016419
 20
22.6205056913
 30
0.0
 10
-12.8628546225
 20
22.614424793
 30
0.0
 10
-12.8363578753
 20
22.6037606787
 30
0.0
 10
-12.7778679452
 20
22.5883733691
 30
0.0
 10
-12.6989431218
 20
22.5809133828
 30
0.0
 10
-12.6199682372
 20
22.5881537809
 30
0.0
 10
-12.5613289564
 20
22.6033666298
 30
0.0
 10
-12.5347216071
 20
22.6139501176
 30
0.0
 10
-12.5224944594
 20
22.6199929674
 30
0.0
 11
-12.875016419
 21
22.6205056913
 31
0.0
 11
-12.837282149
 21
22.6050103875
 31
0.0
 11
-12.7942465822
 21
22.5934791345
 31
0.0
 11
-12.6989669432
 21
22.5838945678
 31
0.0
 11
-12.6035773957
 21
22.5932018167
 31
0.0
 11
-12.5604083858
 21
22.6046076898
 31
0.0
 11
-12.5224944594
 21
22.6199929674
 31
0.0
  0
SPLINE
  5
397
100
AcDbEntity
  8
RACCORDO
100
AcDbSpline
 62
253
  6
CONTINUOUS
 70
0
 71
3
 72
11
 73
7
 74
5
 42
0.0000001
 43
0.0000001
 44
0.0000000001
 12
0.0
 22
0.3659184282
 32
0.0
 13
0.3263519551
 23
0.1655013518
 33
0.0
 40
0.0
 40
0.0
 40
0.0
 40
0.0
 40
0.2465991784
 40
0.5114081618
 40
0.7699752382
 40
1.0
 40
1.0
 40
1.0
 40
1.0
 10
-14.2000010988
 20
23.6229719653
 30
0.0
 10
-14.2000010988
 20
23.6530503599
 30
0.0
 10
-14.1896583562
 20
23.715535341
 30
0.0
 10
-14.1521747556
 20
23.8025057489
 30
0.0
 10
-14.0970354039
 20
23.8770047749
 30
0.0
 10
-14.0492758531
 20
23.9146589773
 30
0.0
 10
-14.0242528428
 20
23.9273487803
 30
0.0
 11
-14.2000010988
 21
23.6229719653
 31
0.0
 11
-14.1866427702
 21
23.7122128945
 31
0.0
 11
-14.1485875275
 21
23.80132583
 31
0.0
 11
-14.0915854898
 21
23.8768418111
 31
0.0
 11
-14.0242528428
 21
23.9273487803
 31
0.0
  0
SPLINE
  5
398
100
AcDbEntity
  8
RACCORDO
100
AcDbSpline
 62
253
  6
CONTINUOUS
 70
0
 71
3
 72
11
 73
7
 74
5
 42
0.0000001
 43
0.0000001
 44
0.0000000001
 12
0.0
 22
0.3659184282
 32
0.0
 13
0.3263519551
 23
0.1655013518
 33
0.0
 40
0.0
 40
0.0
 40
0.0
 40
0.0
 40
0.2465991784
 40
0.5114081618
 40
0.7699752382
 40
1.0
 40
1.0
 40
1.0
 40
1.0
 10
-12.875016419
 20
22.9604796254
 30
0.0
 10
-12.875016419
 20
22.99055802
 30
0.0
 10
-12.8646736764
 20
23.053043001
 30
0.0
 10
-12.8271900757
 20
23.140013409
 30
0.0
 10
-12.7720507241
 20
23.214512435
 30
0.0
 10
-12.7242911733
 20
23.2521666374
 30
0.0
 10
-12.699268163
 20
23.2648564404
 30
0.0
 11
-12.875016419
 21
22.9604796254
 31
0.0
 11
-12.8616580904
 21
23.0497205546
 31
0.0
 11
-12.8236028476
 21
23.1388334901
 31
0.0
 11
-12.76660081
 21
23.2143494712
 31
0.0
 11
-12.699268163
 21
23.2648564404
 31
0.0
  0
SPLINE
  5
399
100
AcDbEntity
  8
RACCORDO
100
AcDbSpline
 62
253
  6
CONTINUOUS
 70
0
 71
3
 72
11
 73
7
 74
5
 42
0.0000001
 43
0.0000001
 44
0.0000000001
 12
-0.1051368994
 22
0.0519560066
 32
0.0
 13
-0.104347279
 23
-0.0535241963
 33
0.0
 40
0.0
 40
0.0
 40
0.0
 40
0.0
 40
0.2795156184
 40
0.5356957389
 40
0.7731450427
 40
1.0
 40
1.0
 40
1.0
 40
1.0
 10
-14.0242528428
 20
23.9273487803
 30
0.0
 10
-14.0340486447
 20
23.9321896187
 30
0.0
 10
-14.0536250287
 20
23.9399936057
 30
0.0
 10
-14.0835912054
 20
23.9454467143
 30
0.0
 10
-14.1120046595
 20
23.943825851
 30
0.0
 10
-14.1294406101
 20
23.9378474958
 30
0.0
 10
-14.137331176
 20
23.9338000861
 30
0.0
 11
-14.0242528428
 21
23.9273487803
 31
0.0
 11
-14.0548008395
 21
23.9392375545
 31
0.0
 11
-14.0844073027
 21
23.9443420093
 31
0.0
 11
-14.1121937145
 21
23.9425116316
 31
0.0
 11
-14.137331176
 21
23.9338000861
 31
0.0
  0
SPLINE
  5
39A
100
AcDbEntity
  8
RACCORDO
100
AcDbSpline
 62
7
  6
CONTINUOUS
 70
0
 71
3
 72
11
 73
7
 74
5
 42
0.0000001
 43
0.0000001
 44
0.0000000001
 12
-0.1028463418
 22
0.0514231709
 32
0.0
 13
-0.1033748983
 23
-0.0503521891
 33
0.0
 40
0.0
 40
0.0
 40
0.0
 40
0.0
 40
0.2790833933
 40
0.5352290697
 40
0.7729212505
 40
1.0
 40
1.0
 40
1.0
 40
1.0
 10
-12.4414962397
 20
24.7393328776
 30
0.0
 10
-12.4510638084
 20
24.744116662
 30
0.0
 10
-12.4701953218
 20
24.7518673944
 30
0.0
 10
-12.4995143003
 20
24.7574612178
 30
0.0
 10
-12.5273970699
 20
24.7562274609
 30
0.0
 10
-12.5446036082
 20
24.7506741947
 30
0.0
 10
-12.5524283558
 20
24.7468628906
 30
0.0
 11
-12.4414962397
 21
24.7393328776
 31
0.0
 11
-12.4713336438
 21
24.7511454128
 31
0.0
 11
-12.5003131571
 21
24.7564058691
 31
0.0
 11
-12.5276063473
 21
24.7549648847
 31
0.0
 11
-12.5524283558
 21
24.7468628906
 31
0.0
  0
SPLINE
  5
39B
100
AcDbEntity
  8
RACCORDO
100
AcDbSpline
 62
253
  6
CONTINUOUS
 70
0
 71
3
 72
11
 73
7
 74
5
 42
0.0000001
 43
0.0000001
 44
0.0000000001
 12
-0.1022732388
 22
0.0517308249
 32
0.0
 13
-0.1030347983
 23
-0.0501968522
 33
0.0
 40
0.0
 40
0.0
 40
0.0
 40
0.0
 40
0.2789492198
 40
0.5349524055
 40
0.7726363297
 40
1.0
 40
1.0
 40
1.0
 40
1.0
 10
-11.907046361
 20
24.9996803442
 30
0.0
 10
-11.9165560411
 20
25.0044904353
 30
0.0
 10
-11.9355845269
 20
25.0122922291
 30
0.0
 10
-11.9647843681
 20
25.0179501746
 30
0.0
 10
-11.9925865651
 20
25.0167564027
 30
0.0
 10
-12.009749542
 20
25.0112191623
 30
0.0
 10
-12.017558332
 20
25.0074148488
 30
0.0
 11
-11.907046361
 21
24.9996803442
 31
0.0
 11
-11.9367239402
 21
25.0115706852
 31
0.0
 11
-11.965578308
 21
25.0168924156
 31
0.0
 11
-11.9927838037
 21
25.0154940051
 31
0.0
 11
-12.017558332
 21
25.0074148488
 31
0.0
  0
SPLINE
  5
39C
100
AcDbEntity
  8
RACCORDO
100
AcDbSpline
 62
253
  6
CONTINUOUS
 70
0
 71
3
 72
11
 73
7
 74
5
 42
0.0000001
 43
0.0000001
 44
0.0000000001
 12
0.0017306169
 22
0.3673419508
 32
0.0
 13
-0.3293172695
 23
0.1627674411
 33
0.0
 40
0.0
 40
0.0
 40
0.0
 40
0.0
 40
0.2468893536
 40
0.5116863499
 40
0.7700780422
 40
1.0
 40
1.0
 40
1.0
 40
1.0
 10
-10.3929464968
 20
24.0261277251
 30
0.0
 10
-10.3928040731
 20
24.056358664
 30
0.0
 10
-10.4029945266
 20
24.1191760885
 30
0.0
 10
-10.4406427121
 20
24.2065172554
 30
0.0
 10
-10.4962451008
 20
24.2811107057
 30
0.0
 10
-10.54448111
 20
24.318542661
 30
0.0
 10
-10.5697202005
 20
24.3310172639
 30
0.0
 11
-10.3929464968
 21
24.0261277251
 31
0.0
 11
-10.406089324
 21
24.1158642041
 31
0.0
 11
-10.444298507
 21
24.2053176813
 31
0.0
 11
-10.5017584662
 21
24.2808689906
 31
0.0
 11
-10.5697202005
 21
24.3310172639
 31
0.0
  0
SPLINE
  5
39D
100
AcDbEntity
  8
RACCORDO
100
AcDbSpline
 62
253
  6
CONTINUOUS
 70
0
 71
3
 72
11
 73
7
 74
5
 42
0.0000001
 43
0.0000001
 44
0.0000000001
 12
-0.0017563531
 22
0.3667457897
 32
0.0
 13
-0.3272560829
 23
0.165556683
 33
0.0
 40
0.0
 40
0.0
 40
0.0
 40
0.0
 40
0.2466955157
 40
0.5118832147
 40
0.7705705489
 40
1.0
 40
1.0
 40
1.0
 40
1.0
 10
-12.5224944594
 20
22.9599669016
 30
0.0
 10
-12.5226388875
 20
22.9901250821
 30
0.0
 10
-12.5332918814
 20
23.0527541845
 30
0.0
 10
-12.5711103124
 20
23.1398804323
 30
0.0
 10
-12.6264257477
 20
23.2144782916
 30
0.0
 10
-12.6742407685
 20
23.2521952474
 30
0.0
 10
-12.699268163
 20
23.2648564404
 30
0.0
 11
-12.5224944594
 21
22.9599669016
 31
0.0
 11
-12.5362677583
 21
23.0493879655
 31
0.0
 11
-12.5746983179
 21
23.1387307346
 31
0.0
 11
-12.6319368392
 21
23.2143927964
 31
0.0
 11
-12.699268163
 21
23.2648564404
 31
0.0
  0
SPLINE
  5
39E
100
AcDbEntity
  8
RACCORDO
100
AcDbSpline
 62
7
  6
CONTINUOUS
 70
0
 71
3
 72
11
 73
7
 74
5
 42
0.0000001
 43
0.0000001
 44
0.0000000001
 12
0.0
 22
0.3670486434
 32
0.0
 13
-0.328298287
 23
0.1641491435
 33
0.0
 40
0.0
 40
0.0
 40
0.0
 40
0.0
 40
0.2467927921
 40
0.5117852903
 40
0.7703247525
 40
1.0
 40
1.0
 40
1.0
 40
1.0
 10
-10.9212136685
 20
23.7626889051
 30
0.0
 10
-10.9212136685
 20
23.7928838916
 30
0.0
 10
-10.9316336719
 20
23.8556082301
 30
0.0
 10
-10.9693674457
 20
23.9428420393
 30
0.0
 10
-11.0248260514
 20
24.0174381486
 30
0.0
 10
-11.0728533754
 20
24.0550114455
 30
0.0
 10
-11.0979873722
 20
24.0675784439
 30
0.0
 11
-10.9212136685
 21
23.7626889051
 31
0.0
 11
-10.9346696327
 21
23.8522688801
 31
0.0
 11
-10.9729892561
 21
23.9416675005
 31
0.0
 11
-11.0303390032
 21
24.0172741363
 31
0.0
 11
-11.0979873722
 21
24.0675784439
 31
0.0
  0
SPLINE
  5
39F
100
AcDbEntity
  8
RACCORDO
100
AcDbSpline
 62
253
  6
CONTINUOUS
 70
0
 71
3
 72
13
 73
9
 74
7
 42
0.0000001
 43
0.0000001
 44
0.0000000001
 12
0.0395649606
 22
-0.0644099514
 32
0.0
 13
-0.0460053766
 23
-0.0599794404
 33
0.0
 40
0.0
 40
0.0
 40
0.0
 40
0.0
 40
0.343523616
 40
0.6193726266
 40
0.732864265
 40
0.8318563311
 40
0.9193403725
 40
1.0
 40
1.0
 40
1.0
 40
1.0
 10
-10.3929464968
 20
23.6785962084
 30
0.0
 10
-10.3884159973
 20
23.6712207619
 30
0.0
 10
-10.3808625281
 20
23.6575316652
 30
0.0
 10
-10.3743493559
 20
23.6401013641
 30
0.0
 10
-10.3723457731
 20
23.6279190576
 30
0.0
 10
-10.3723729285
 20
23.6203147104
 30
0.0
 10
-10.373866821
 20
23.6136848199
 30
0.0
 10
-10.3759298778
 20
23.6099021391
 30
0.0
 10
-10.3771668033
 20
23.6082894994
 30
0.0
 11
-10.3929464968
 21
23.6785962084
 31
0.0
 11
-10.3806674961
 21
23.6557154334
 31
0.0
 11
-10.3738414981
 21
23.6360126053
 31
0.0
 11
-10.3725404805
 21
23.6275328621
 31
0.0
 11
-10.3726630896
 21
23.6200509386
 31
0.0
 11
-10.3742089202
 21
23.613621127
 31
0.0
 11
-10.3771668033
 21
23.6082894994
 31
0.0
  0
SPLINE
  5
3A0
100
AcDbEntity
  8
RACCORDO
100
AcDbSpline
 62
7
  6
CONTINUOUS
 70
0
 71
3
 72
12
 73
8
 74
6
 42
0.0000001
 43
0.0000001
 44
0.0000000001
 12
-0.4345619355
 22
-0.032159537
 32
0.0
 13
-0.4201960756
 23
-0.1153844428
 33
0.0
 40
0.0
 40
0.0
 40
0.0
 40
0.0
 40
0.1460665466
 40
0.2901900051
 40
0.5606459046
 40
0.7988834635
 40
1.0
 40
1.0
 40
1.0
 40
1.0
 10
-2.6162135753
 20
18.6499290132
 30
0.0
 10
-2.6373718957
 20
18.6483632024
 30
0.0
 10
-2.6792410215
 20
18.6429540918
 30
0.0
 10
-2.7591509371
 20
18.627130862
 30
0.0
 10
-2.8509107043
 20
18.6029679922
 30
0.0
 10
-2.949710461
 20
18.573537844
 30
0.0
 10
-3.0108664953
 20
18.5552746886
 30
0.0
 10
-3.0390359551
 20
18.5475394488
 30
0.0
 11
-2.6162135753
 21
18.6499290132
 31
0.0
 11
-2.6793927183
 21
18.642213285
 31
0.0
 11
-2.7410457262
 21
18.630255965
 31
0.0
 11
-2.8552426129
 21
18.6011357867
 31
0.0
 11
-2.9548778544
 21
18.5719850147
 31
0.0
 11
-3.0390359551
 21
18.5475394488
 31
0.0
  0
SPLINE
  5
3A1
100
AcDbEntity
  8
RACCORDO
100
AcDbSpline
 62
253
  6
CONTINUOUS
 70
0
 71
3
 72
11
 73
7
 74
5
 42
0.0000001
 43
0.0000001
 44
0.0000000001
 12
-0.1076203225
 22
0.0538101613
 32
0.0
 13
0.0000013829
 23
0.1203231785
 33
0.0
 40
0.0
 40
0.0
 40
0.0
 40
0.0
 40
0.3025823249
 40
0.5654825874
 40
0.7934322572
 40
1.0
 40
1.0
 40
1.0
 40
1.0
 10
-14.2000010988
 20
23.2829980312
 30
0.0
 10
-14.210855768
 20
23.2884253658
 30
0.0
 10
-14.230474241
 20
23.3000650962
 30
0.0
 10
-14.2542856112
 20
23.3215857237
 30
0.0
 10
-14.2695648082
 20
23.3455400086
 30
0.0
 10
-14.2732244966
 20
23.3631014164
 30
0.0
 10
-14.2732244014
 20
23.3713863788
 30
0.0
 11
-14.2000010988
 21
23.2829980312
 31
0.0
 11
-14.2310927718
 21
23.3019407368
 31
0.0
 11
-14.2541936084
 21
23.3235508671
 31
0.0
 11
-14.2684205686
 21
23.3470001406
 31
0.0
 11
-14.2732244014
 21
23.3713863788
 31
0.0
  0
SPLINE
  5
3A2
100
AcDbEntity
  8
RACCORDO
100
AcDbSpline
 62
253
  6
CONTINUOUS
 70
0
 71
3
 72
11
 73
7
 74
5
 42
0.0000001
 43
0.0000001
 44
0.0000000001
 12
-0.1076203225
 22
0.0538101613
 32
0.0
 13
0.0000013829
 23
0.1203231785
 33
0.0
 40
0.0
 40
0.0
 40
0.0
 40
0.0
 40
0.3025823249
 40
0.5654825874
 40
0.7934322572
 40
1.0
 40
1.0
 40
1.0
 40
1.0
 10
-14.2000010988
 20
23.6229719653
 30
0.0
 10
-14.210855768
 20
23.6283992999
 30
0.0
 10
-14.230474241
 20
23.6400390304
 30
0.0
 10
-14.2542856112
 20
23.6615596578
 30
0.0
 10
-14.2695648082
 20
23.6855139427
 30
0.0
 10
-14.2732244966
 20
23.7030753505
 30
0.0
 10
-14.2732244014
 20
23.711360313
 30
0.0
 11
-14.2000010988
 21
23.6229719653
 31
0.0
 11
-14.2310927718
 21
23.6419146709
 31
0.0
 11
-14.2541936084
 21
23.6635248013
 31
0.0
 11
-14.2684205686
 21
23.6869740747
 31
0.0
 11
-14.2732244014
 21
23.711360313
 31
0.0
  0
SPLINE
  5
3A3
100
AcDbEntity
  8
RACCORDO
100
AcDbSpline
 62
253
  6
CONTINUOUS
 70
0
 71
3
 72
11
 73
7
 74
5
 42
0.0000001
 43
0.0000001
 44
0.0000000001
 12
-0.1026843425
 22
0.0513470616
 32
0.0
 13
-0.1029781233
 23
-0.0507553057
 33
0.0
 40
0.0
 40
0.0
 40
0.0
 40
0.0
 40
0.2274030322
 40
0.4651083369
 40
0.721100729
 40
1.0
 40
1.0
 40
1.0
 40
1.0
 10
-10.4589453892
 20
24.3376068585
 30
0.0
 10
-10.4667289661
 20
24.3414990177
 30
0.0
 10
-10.4838645774
 20
24.3472248781
 30
0.0
 10
-10.511701867
 20
24.3487121585
 30
0.0
 10
-10.5410076319
 20
24.3433512867
 30
0.0
 10
-10.5601466926
 20
24.3357358032
 30
0.0
 10
-10.5697202005
 20
24.3310172639
 30
0.0
 11
-10.4589453892
 21
24.3376068585
 31
0.0
 11
-10.4836808892
 21
24.3459586125
 31
0.0
 11
-10.5109189602
 21
24.3476442423
 31
0.0
 11
-10.5398752945
 21
24.3426160386
 31
0.0
 11
-10.5697202005
 21
24.3310172639
 31
0.0
  0
SPLINE
  5
3A4
100
AcDbEntity
  8
ASSI
100
AcDbSpline
 62
7
  6
CONTINUOUS
 70
0
 71
3
 72
13
 73
9
 74
7
 42
0.0000001
 43
0.0000001
 44
0.0000000001
 12
-0.0000027133
 22
-0.1425291075
 32
0.0
 13
-0.1270314313
 23
-0.0646340618
 33
0.0
 40
0.0
 40
0.0
 40
0.0
 40
0.0
 40
0.1024904437
 40
0.2077977095
 40
0.4356598786
 40
0.5622810427
 40
0.6984260697
 40
1.0
 40
1.0
 40
1.0
 40
1.0
 10
17.7248310478
 20
-10.3105878761
 30
0.0
 10
17.7248309551
 20
-10.3154571666
 30
0.0
 10
17.7238548119
 20
-10.3253557291
 30
0.0
 10
17.7179282901
 20
-10.3452957579
 30
0.0
 10
17.7061101117
 20
-10.3641738365
 30
0.0
 10
17.6900966929
 20
-10.3811458941
 30
0.0
 10
17.6695144147
 20
-10.3984154931
 30
0.0
 10
17.6515760012
 20
-10.4092240752
 30
0.0
 10
17.6388062119
 20
-10.4157213912
 30
0.0
 11
17.7248310478
 21
-10.3105878761
 31
0.0
 11
17.7234178415
 21
-10.3251272281
 31
0.0
 11
17.7191927262
 21
-10.339529624
 31
0.0
 11
17.7024920759
 21
-10.3673835872
 31
0.0
 11
17.6901736757
 21
-10.3805729199
 31
0.0
 11
17.6753568537
 21
-10.3931029407
 31
0.0
 11
17.6388062119
 21
-10.4157213912
 31
0.0
  0
SPLINE
  5
3A5
100
AcDbEntity
  8
ASSI
100
AcDbSpline
 62
7
  6
CONTINUOUS
 70
0
 71
3
 72
13
 73
9
 74
7
 42
0.0000001
 43
0.0000001
 44
0.0000000001
 12
-0.0000027133
 22
-0.1425291075
 32
0.0
 13
-0.1270314313
 23
-0.0646340618
 33
0.0
 40
0.0
 40
0.0
 40
0.0
 40
0.0
 40
0.1024904437
 40
0.2077977095
 40
0.4356598786
 40
0.5622810427
 40
0.6984260697
 40
1.0
 40
1.0
 40
1.0
 40
1.0
 10
17.7248310478
 20
-5.9804608572
 30
0.0
 10
17.7248309551
 20
-5.9853301477
 30
0.0
 10
17.7238548119
 20
-5.9952287102
 30
0.0
 10
17.7179282901
 20
-6.015168739
 30
0.0
 10
17.7061101117
 20
-6.0340468176
 30
0.0
 10
17.6900966929
 20
-6.0510188751
 30
0.0
 10
17.6695144147
 20
-6.0682884742
 30
0.0
 10
17.6515760012
 20
-6.0790970562
 30
0.0
 10
17.6388062119
 20
-6.0855943723
 30
0.0
 11
17.7248310478
 21
-5.9804608572
 31
0.0
 11
17.7234178415
 21
-5.9950002092
 31
0.0
 11
17.7191927262
 21
-6.0094026051
 31
0.0
 11
17.7024920759
 21
-6.0372565682
 31
0.0
 11
17.6901736757
 21
-6.050445901
 31
0.0
 11
17.6753568537
 21
-6.0629759218
 31
0.0
 11
17.6388062119
 21
-6.0855943723
 31
0.0
  0
SPLINE
  5
3A6
100
AcDbEntity
  8
ASSI
100
AcDbSpline
 62
7
  6
CONTINUOUS
 70
0
 71
3
 72
15
 73
11
 74
9
 42
0.0000001
 43
0.0000001
 44
0.0000000001
 12
-0.0000021724
 22
-0.4687398473
 32
0.0
 13
-0.4162539982
 23
-0.2155218167
 33
0.0
 40
0.0
 40
0.0
 40
0.0
 40
0.0
 40
0.1027077972
 40
0.2081767552
 40
0.3188663381
 40
0.4367343548
 40
0.5631677775
 40
0.6990102561
 40
0.844627764
 40
1.0
 40
1.0
 40
1.0
 40
1.0
 10
19.3592678438
 20
-6.5041029599
 30
0.0
 10
19.3592677694
 20
-6.5201507057
 30
0.0
 10
19.3560937111
 20
-6.552759432
 30
0.0
 10
19.3419685176
 20
-6.6008099879
 30
0.0
 10
19.3186990953
 20
-6.6477929273
 30
0.0
 10
19.2866031964
 20
-6.6932643715
 30
0.0
 10
19.246037946
 20
-6.7368625187
 30
0.0
 10
19.1973981188
 20
-6.7782374904
 30
0.0
 10
19.1411355392
 20
-6.8170494674
 30
0.0
 10
19.100165855
 20
-6.8402677886
 30
0.0
 10
19.0786077502
 20
-6.8514298242
 30
0.0
 11
19.3592678438
 21
-6.5041029599
 31
0.0
 11
19.3546637044
 21
-6.5520255348
 31
0.0
 11
19.3408944658
 21
-6.5995068448
 31
0.0
 11
19.31808684
 21
-6.6461096967
 31
0.0
 11
19.2864508507
 21
-6.6914049987
 31
0.0
 11
19.2462779236
 21
-6.7349756661
 31
0.0
 11
19.1979376123
 21
-6.7764207171
 31
0.0
 11
19.1418762451
 21
-6.8153578982
 31
0.0
 11
19.0786077502
 21
-6.8514298242
 31
0.0
  0
SPLINE
  5
3A7
100
AcDbEntity
  8
ASSI
100
AcDbSpline
 62
7
  6
CONTINUOUS
 70
0
 71
3
 72
15
 73
11
 74
9
 42
0.0000001
 43
0.0000001
 44
0.0000000001
 12
-0.0000021724
 22
-0.4687398473
 32
0.0
 13
-0.4162539982
 23
-0.2155218167
 33
0.0
 40
0.0
 40
0.0
 40
0.0
 40
0.0
 40
0.1027077972
 40
0.2081767552
 40
0.3188663381
 40
0.4367343548
 40
0.5631677775
 40
0.6990102561
 40
0.844627764
 40
1.0
 40
1.0
 40
1.0
 40
1.0
 10
19.3592678438
 20
-2.173975941
 30
0.0
 10
19.3592677694
 20
-2.1900236867
 30
0.0
 10
19.3560937111
 20
-2.222632413
 30
0.0
 10
19.3419685176
 20
-2.270682969
 30
0.0
 10
19.3186990953
 20
-2.3176659084
 30
0.0
 10
19.2866031964
 20
-2.3631373526
 30
0.0
 10
19.246037946
 20
-2.4067354997
 30
0.0
 10
19.1973981188
 20
-2.4481104715
 30
0.0
 10
19.1411355392
 20
-2.4869224484
 30
0.0
 10
19.100165855
 20
-2.5101407697
 30
0.0
 10
19.0786077502
 20
-2.5213028052
 30
0.0
 11
19.3592678438
 21
-2.173975941
 31
0.0
 11
19.3546637044
 21
-2.2218985159
 31
0.0
 11
19.3408944658
 21
-2.2693798259
 31
0.0
 11
19.31808684
 21
-2.3159826778
 31
0.0
 11
19.2864508507
 21
-2.3612779798
 31
0.0
 11
19.2462779236
 21
-2.4048486471
 31
0.0
 11
19.1979376123
 21
-2.4462936981
 31
0.0
 11
19.1418762451
 21
-2.4852308793
 31
0.0
 11
19.0786077502
 21
-2.5213028052
 31
0.0
  0
SPLINE
  5
3A8
100
AcDbEntity
  8
ASSI
100
AcDbSpline
 62
7
  6
CONTINUOUS
 70
0
 71
3
 72
15
 73
11
 74
9
 42
0.0000001
 43
0.0000001
 44
0.0000000001
 12
0.4315161028
 22
-0.2157580514
 32
0.0
 13
-0.0000022359
 23
-0.4824496696
 33
0.0
 40
0.0
 40
0.0
 40
0.0
 40
0.0
 40
0.1560120636
 40
0.3021474201
 40
0.4383313505
 40
0.5648889357
 40
0.6826430938
 40
0.7929887037
 40
0.8979275553
 40
1.0
 40
1.0
 40
1.0
 40
1.0
 10
19.0663747311
 20
-5.4577269253
 30
0.0
 10
19.0888153036
 20
-5.4689472116
 30
0.0
 10
19.1314789722
 20
-5.4923386531
 30
0.0
 10
19.1901384741
 20
-5.5316106302
 30
0.0
 10
19.2408979226
 20
-5.5736132698
 30
0.0
 10
19.2832664889
 20
-5.6179863332
 30
0.0
 10
19.3168156712
 20
-5.6643593567
 30
0.0
 10
19.3411573307
 20
-5.7123504372
 30
0.0
 10
19.3559437062
 20
-5.7614894724
 30
0.0
 10
19.3592679198
 20
-5.7948676978
 30
0.0
 10
19.3592678438
 20
-5.8112826369
 30
0.0
 11
19.0663747311
 21
-5.4577269253
 31
0.0
 11
19.1322793223
 21
-5.4940842071
 31
0.0
 11
19.1907379203
 21
-5.5334956129
 31
0.0
 11
19.2411899824
 21
-5.5755827615
 31
0.0
 11
19.283148323
 21
-5.619939679
 31
0.0
 11
19.3162091274
 21
-5.6661393649
 31
0.0
 11
19.3400538603
 21
-5.7137368651
 31
0.0
 11
19.3544529664
 21
-5.7622737706
 31
0.0
 11
19.3592678438
 21
-5.8112826369
 31
0.0
  0
SPLINE
  5
3A9
100
AcDbEntity
  8
ASSI
100
AcDbSpline
 62
7
  6
CONTINUOUS
 70
0
 71
3
 72
15
 73
11
 74
9
 42
0.0000001
 43
0.0000001
 44
0.0000000001
 12
0.4315161028
 22
-0.2157580514
 32
0.0
 13
-0.0000022359
 23
-0.4824496696
 33
0.0
 40
0.0
 40
0.0
 40
0.0
 40
0.0
 40
0.1560120636
 40
0.3021474201
 40
0.4383313505
 40
0.5648889357
 40
0.6826430938
 40
0.7929887037
 40
0.8979275553
 40
1.0
 40
1.0
 40
1.0
 40
1.0
 10
19.0663747311
 20
-9.7878539442
 30
0.0
 10
19.0888153036
 20
-9.7990742305
 30
0.0
 10
19.1314789722
 20
-9.822465672
 30
0.0
 10
19.1901384741
 20
-9.8617376491
 30
0.0
 10
19.2408979226
 20
-9.9037402888
 30
0.0
 10
19.2832664889
 20
-9.9481133521
 30
0.0
 10
19.3168156712
 20
-9.9944863757
 30
0.0
 10
19.3411573307
 20
-10.0424774561
 30
0.0
 10
19.3559437062
 20
-10.0916164913
 30
0.0
 10
19.3592679198
 20
-10.1249947167
 30
0.0
 10
19.3592678438
 20
-10.1414096558
 30
0.0
 11
19.0663747311
 21
-9.7878539442
 31
0.0
 11
19.1322793223
 21
-9.8242112261
 31
0.0
 11
19.1907379203
 21
-9.8636226319
 31
0.0
 11
19.2411899824
 21
-9.9057097804
 31
0.0
 11
19.283148323
 21
-9.9500666979
 31
0.0
 11
19.3162091274
 21
-9.9962663838
 31
0.0
 11
19.3400538603
 21
-10.043863884
 31
0.0
 11
19.3544529664
 21
-10.0924007895
 31
0.0
 11
19.3592678438
 21
-10.1414096558
 31
0.0
  0
SPLINE
  5
3AA
100
AcDbEntity
  8
ASSI
100
AcDbSpline
 62
7
  6
CONTINUOUS
 70
0
 71
3
 72
15
 73
11
 74
9
 42
0.0000001
 43
0.0000001
 44
0.0000000001
 12
-0.0000021724
 22
-0.4687398473
 32
0.0
 13
-0.4162539982
 23
-0.2155218167
 33
0.0
 40
0.0
 40
0.0
 40
0.0
 40
0.0
 40
0.1027077972
 40
0.2081767552
 40
0.3188663381
 40
0.4367343548
 40
0.5631677775
 40
0.6990102561
 40
0.844627764
 40
1.0
 40
1.0
 40
1.0
 40
1.0
 10
19.3592678438
 20
-10.1414096558
 30
0.0
 10
19.3592677694
 20
-10.1574574015
 30
0.0
 10
19.3560937111
 20
-10.1900661279
 30
0.0
 10
19.3419685176
 20
-10.2381166838
 30
0.0
 10
19.3186990953
 20
-10.2850996232
 30
0.0
 10
19.2866031964
 20
-10.3305710674
 30
0.0
 10
19.246037946
 20
-10.3741692145
 30
0.0
 10
19.1973981188
 20
-10.4155441863
 30
0.0
 10
19.1411355392
 20
-10.4543561633
 30
0.0
 10
19.100165855
 20
-10.4775744845
 30
0.0
 10
19.0786077502
 20
-10.4887365201
 30
0.0
 11
19.3592678438
 21
-10.1414096558
 31
0.0
 11
19.3546637044
 21
-10.1893322307
 31
0.0
 11
19.3408944658
 21
-10.2368135407
 31
0.0
 11
19.31808684
 21
-10.2834163926
 31
0.0
 11
19.2864508507
 21
-10.3287116946
 31
0.0
 11
19.2462779236
 21
-10.372282362
 31
0.0
 11
19.1979376123
 21
-10.4137274129
 31
0.0
 11
19.1418762451
 21
-10.4526645941
 31
0.0
 11
19.0786077502
 21
-10.4887365201
 31
0.0
  0
SPLINE
  5
3AB
100
AcDbEntity
  8
RACCORDO
100
AcDbSpline
 62
253
  6
CONTINUOUS
 70
0
 71
3
 72
11
 73
7
 74
5
 42
0.0000001
 43
0.0000001
 44
0.0000000001
 12
0.2032261373
 22
0.0938534834
 32
0.0
 13
0.1988173575
 23
-0.1028639761
 33
0.0
 40
0.0
 40
0.0
 40
0.0
 40
0.0
 40
0.2278649787
 40
0.4657800962
 40
0.7216148493
 40
1.0
 40
1.0
 40
1.0
 40
1.0
 10
-2.4624844789
 20
21.1405357929
 30
0.0
 10
-2.4470484391
 20
21.1476644336
 30
0.0
 10
-2.4132987436
 20
21.1578777417
 30
0.0
 10
-2.3589423878
 20
21.1594448778
 30
0.0
 10
-2.3020861612
 20
21.1477570716
 30
0.0
 10
-2.2651239435
 20
21.1321843116
 30
0.0
 10
-2.2466746768
 20
21.1226390438
 30
0.0
 11
-2.4624844789
 21
21.1405357929
 31
0.0
 11
-2.4137073018
 21
21.1554551289
 31
0.0
 11
-2.3604860486
 21
21.1574216876
 31
0.0
 11
-2.3042913681
 21
21.1463815182
 31
0.0
 11
-2.2466746768
 21
21.1226390438
 31
0.0
  0
SPLINE
  5
3AC
100
AcDbEntity
  8
ASSI
100
AcDbSpline
 62
7
  6
CONTINUOUS
 70
0
 71
3
 72
15
 73
11
 74
9
 42
0.0000001
 43
0.0000001
 44
0.0000000001
 12
-0.0000021724
 22
-0.4687398473
 32
0.0
 13
-0.4162539982
 23
-0.2155218167
 33
0.0
 40
0.0
 40
0.0
 40
0.0
 40
0.0
 40
0.1027077972
 40
0.2081767552
 40
0.3188663381
 40
0.4367343548
 40
0.5631677775
 40
0.6990102561
 40
0.844627764
 40
1.0
 40
1.0
 40
1.0
 40
1.0
 10
19.3592678438
 20
-5.8112826369
 30
0.0
 10
19.3592677694
 20
-5.8273303826
 30
0.0
 10
19.3560937111
 20
-5.8599391089
 30
0.0
 10
19.3419685176
 20
-5.9079896649
 30
0.0
 10
19.3186990953
 20
-5.9549726043
 30
0.0
 10
19.2866031964
 20
-6.0004440485
 30
0.0
 10
19.246037946
 20
-6.0440421956
 30
0.0
 10
19.1973981188
 20
-6.0854171674
 30
0.0
 10
19.1411355392
 20
-6.1242291443
 30
0.0
 10
19.100165855
 20
-6.1474474656
 30
0.0
 10
19.0786077502
 20
-6.1586095011
 30
0.0
 11
19.3592678438
 21
-5.8112826369
 31
0.0
 11
19.3546637044
 21
-5.8592052118
 31
0.0
 11
19.3408944658
 21
-5.9066865218
 31
0.0
 11
19.31808684
 21
-5.9532893737
 31
0.0
 11
19.2864508507
 21
-5.9985846757
 31
0.0
 11
19.2462779236
 21
-6.042155343
 31
0.0
 11
19.1979376123
 21
-6.083600394
 31
0.0
 11
19.1418762451
 21
-6.1225375752
 31
0.0
 11
19.0786077502
 21
-6.1586095011
 31
0.0
  0
SPLINE
  5
3AD
100
AcDbEntity
  8
RACCORDO
100
AcDbSpline
 62
253
  6
CONTINUOUS
 70
0
 71
3
 72
22
 73
18
 74
16
 42
0.0000001
 43
0.0000001
 44
0.0000000001
 12
-0.1918313407
 22
0.3308269857
 32
0.0
 13
-0.3424315025
 23
-0.1702539979
 33
0.0
 40
0.0
 40
0.0
 40
0.0
 40
0.0
 40
0.0058783962
 40
0.0124164818
 40
0.0201045026
 40
0.0292470137
 40
0.052511649
 40
0.0829611472
 40
0.1208327051
 40
0.1661775681
 40
0.2189529458
 40
0.2790564
 40
0.3463420954
 40
0.4206307423
 40
0.5893517344
 40
0.7832485364
 40
1.0
 40
1.0
 40
1.0
 40
1.0
 10
19.0173004981
 20
21.0488038972
 30
0.0
 10
19.0169246113
 20
21.0494521413
 30
0.0
 10
19.0158692691
 20
21.050680883
 30
0.0
 10
19.0136439749
 20
21.0520129837
 30
0.0
 10
19.0107874175
 20
21.0529210783
 30
0.0
 10
19.0057137365
 20
21.0536552351
 30
0.0
 10
18.997658048
 20
21.0533669063
 30
0.0
 10
18.9861139701
 20
21.0515735383
 30
0.0
 10
18.9719973705
 20
21.0482529271
 30
0.0
 10
18.9553479304
 20
21.0434094065
 30
0.0
 10
18.9362056777
 20
21.0370424539
 30
0.0
 10
18.9146294712
 20
21.0291670826
 30
0.0
 10
18.8906845686
 20
21.0198039458
 30
0.0
 10
18.8541185777
 20
21.0047167063
 30
0.0
 10
18.8031461711
 20
20.9822562345
 30
0.0
 10
18.7362316903
 20
20.9509915422
 30
0.0
 10
18.6891981177
 20
20.9280064564
 30
0.0
 10
18.6644572746
 20
20.915705522
 30
0.0
 11
19.0173004981
 21
21.0488038972
 31
0.0
 11
19.0158538403
 21
21.0505245897
 31
0.0
 11
19.0137365436
 21
21.0518544612
 31
0.0
 11
19.0109501055
 21
21.0527923924
 31
0.0
 11
19.0074965885
 21
21.0533375962
 31
0.0
 11
18.9986001487
 21
21.0532487765
 31
0.0
 11
18.9870746428
 21
21.0515881516
 31
0.0
 11
18.9729559121
 21
21.0483609022
 31
0.0
 11
18.9562879799
 21
21.0435771571
 31
0.0
 11
18.937122443
 21
21.0372516691
 31
0.0
 11
18.9155188084
 21
21.0294040685
 31
0.0
 11
18.8915443504
 21
21.0200588419
 31
0.0
 11
18.8652734303
 21
21.0092449484
 31
0.0
 11
18.8061752952
 21
20.9833498669
 31
0.0
 11
18.7389592311
 21
20.9520408935
 31
0.0
 11
18.6644572746
 21
20.915705522
 31
0.0
  0
SPLINE
  5
3AE
100
AcDbEntity
  8
RACCORDO
100
AcDbSpline
 62
253
  6
CONTINUOUS
 70
0
 71
3
 72
15
 73
11
 74
9
 42
0.0000001
 43
0.0000001
 44
0.0000000001
 12
-0.0000002694
 22
-0.468740859
 32
0.0
 13
-0.4162548966
 23
-0.2155222819
 33
0.0
 40
0.0
 40
0.0
 40
0.0
 40
0.0
 40
0.1027078189
 40
0.2081767581
 40
0.318866303
 40
0.436734282
 40
0.5631676818
 40
0.6990101622
 40
0.8446277016
 40
1.0
 40
1.0
 40
1.0
 40
1.0
 10
19.3592678438
 20
19.8313998268
 30
0.0
 10
19.3592678345
 20
19.815352043
 30
0.0
 10
19.3560938939
 20
19.7827432322
 30
0.0
 10
19.3419688208
 20
19.7346925317
 30
0.0
 10
19.3186994653
 20
19.6877094472
 30
0.0
 10
19.286603582
 20
19.6422378617
 30
0.0
 10
19.2460382991
 20
19.5986395803
 30
0.0
 10
19.1973983937
 20
19.5572644838
 30
0.0
 10
19.1411356936
 20
19.5184523942
 30
0.0
 10
19.1001659102
 20
19.4952340114
 30
0.0
 10
19.0786077502
 20
19.4840719473
 30
0.0
 11
19.3592678438
 21
19.8313998268
 31
0.0
 11
19.3546638747
 21
19.7834771209
 31
0.0
 11
19.3408947564
 21
19.7359956741
 31
0.0
 11
19.3180872004
 21
19.6893926831
 31
0.0
 11
19.286451231
 21
19.6440972434
 31
0.0
 11
19.2462782752
 21
19.6005264431
 31
0.0
 11
19.1979378888
 21
19.5590812673
 31
0.0
 11
19.1418764031
 21
19.5201439726
 31
0.0
 11
19.0786077502
 21
19.4840719473
 31
0.0
  0
SPLINE
  5
3AF
100
AcDbEntity
  8
ASSI
100
AcDbSpline
 62
7
  6
CONTINUOUS
 70
0
 71
3
 72
12
 73
8
 74
6
 42
0.0000001
 43
0.0000001
 44
0.0000000001
 12
0.1183205236
 22
-0.064369217
 32
0.0
 13
-0.0000025642
 23
-0.1346964825
 33
0.0
 40
0.0
 40
0.0
 40
0.0
 40
0.0
 40
0.2994237143
 40
0.5609662115
 40
0.7898593732
 40
0.8962382597
 40
1.0
 40
1.0
 40
1.0
 40
1.0
 10
17.6457119449
 20
-10.2090817476
 30
0.0
 10
17.6575212685
 20
-10.2155063042
 30
0.0
 10
17.6788461537
 20
-10.2291860845
 30
0.0
 10
17.704568994
 20
-10.2539996345
 30
0.0
 10
17.7185324666
 20
-10.2774177323
 30
0.0
 10
17.7239406452
 20
-10.2964713355
 30
0.0
 10
17.7248311365
 20
-10.3059290956
 30
0.0
 10
17.7248310478
 20
-10.3105878761
 30
0.0
 11
17.6457119449
 21
-10.2090817476
 31
0.0
 11
17.6794154498
 21
-10.2312332536
 31
0.0
 11
17.704353304
 21
-10.2561164932
 31
0.0
 11
17.7196677152
 21
-10.282875151
 31
0.0
 11
17.7235377196
 21
-10.2966715037
 31
0.0
 11
17.7248310478
 21
-10.3105878761
 31
0.0
  0
SPLINE
  5
3B0
100
AcDbEntity
  8
ASSI
100
AcDbSpline
 62
7
  6
CONTINUOUS
 70
0
 71
3
 72
12
 73
8
 74
6
 42
0.0000001
 43
0.0000001
 44
0.0000000001
 12
0.1183205236
 22
-0.064369217
 32
0.0
 13
-0.0000025642
 23
-0.1346964825
 33
0.0
 40
0.0
 40
0.0
 40
0.0
 40
0.0
 40
0.2994237143
 40
0.5609662115
 40
0.7898593732
 40
0.8962382597
 40
1.0
 40
1.0
 40
1.0
 40
1.0
 10
17.6457119449
 20
-5.8789547286
 30
0.0
 10
17.6575212685
 20
-5.8853792853
 30
0.0
 10
17.6788461537
 20
-5.8990590656
 30
0.0
 10
17.704568994
 20
-5.9238726156
 30
0.0
 10
17.7185324666
 20
-5.9472907134
 30
0.0
 10
17.7239406452
 20
-5.9663443166
 30
0.0
 10
17.7248311365
 20
-5.9758020767
 30
0.0
 10
17.7248310478
 20
-5.9804608572
 30
0.0
 11
17.6457119449
 21
-5.8789547286
 31
0.0
 11
17.6794154498
 21
-5.9011062347
 31
0.0
 11
17.704353304
 21
-5.9259894743
 31
0.0
 11
17.7196677152
 21
-5.9527481321
 31
0.0
 11
17.7235377196
 21
-5.9665444847
 31
0.0
 11
17.7248310478
 21
-5.9804608572
 31
0.0
  0
SPLINE
  5
3B1
100
AcDbEntity
  8
RACCORDO
100
AcDbSpline
 62
253
  6
CONTINUOUS
 70
0
 71
3
 72
22
 73
18
 74
16
 42
0.0000001
 43
0.0000001
 44
0.0000000001
 12
-0.1918547233
 22
0.3308129102
 32
0.0
 13
-0.3424311029
 23
-0.1702537994
 33
0.0
 40
0.0
 40
0.0
 40
0.0
 40
0.0
 40
0.0058784355
 40
0.0124166693
 40
0.0201048993
 40
0.0292476455
 40
0.0525127569
 40
0.0829626808
 40
0.1208345882
 40
0.1661797142
 40
0.2189552641
 40
0.279058799
 40
0.3463444838
 40
0.4206330306
 40
0.5893535652
 40
0.7832495921
 40
1.0
 40
1.0
 40
1.0
 40
1.0
 10
18.8916001085
 20
21.2656049996
 30
0.0
 10
18.8912241733
 20
21.2662532204
 30
0.0
 10
18.8901687302
 20
21.2674819021
 30
0.0
 10
18.8879433277
 20
21.2688139065
 30
0.0
 10
18.885086671
 20
21.2697219194
 30
0.0
 10
18.8800128636
 20
21.2704559682
 30
0.0
 10
18.8719570482
 20
21.2701675314
 30
0.0
 10
18.8604128393
 20
21.2683740562
 30
0.0
 10
18.8462961431
 20
21.265053356
 30
0.0
 10
18.8296466405
 20
21.2602097649
 30
0.0
 10
18.8105043603
 20
21.2538427617
 30
0.0
 10
18.7889281607
 20
21.2459673598
 30
0.0
 10
18.7649832987
 20
21.2366042124
 30
0.0
 10
18.7284174278
 20
21.2215169931
 30
0.0
 10
18.6774452447
 20
21.1990565969
 30
0.0
 10
18.6105311117
 20
21.1677920532
 30
0.0
 10
18.5634978046
 20
21.1448070948
 30
0.0
 10
18.5387571109
 20
21.1325062346
 30
0.0
 11
18.8916001085
 21
21.2656049996
 31
0.0
 11
18.8901533254
 21
21.2673256029
 31
0.0
 11
18.8880359123
 21
21.2686553901
 31
0.0
 11
18.8852493665
 21
21.2695932418
 31
0.0
 11
18.881795751
 21
21.2701383709
 31
0.0
 11
18.8728991408
 21
21.2700494169
 31
0.0
 11
18.8613735006
 21
21.2683886778
 31
0.0
 11
18.8472546715
 21
21.2651613347
 31
0.0
 11
18.8305866767
 21
21.2603775165
 31
0.0
 11
18.8114211125
 21
21.2540519762
 31
0.0
 11
18.7898174852
 21
21.2462043438
 31
0.0
 11
18.7658430682
 21
21.2368591058
 31
0.0
 11
18.7395722218
 21
21.226045221
 31
0.0
 11
18.6804743268
 21
21.2001502152
 31
0.0
 11
18.6132586157
 21
21.1688413906
 31
0.0
 11
18.5387571109
 21
21.1325062346
 31
0.0
  0
SPLINE
  5
3B2
100
AcDbEntity
  8
RACCORDO
100
AcDbSpline
 62
253
  6
CONTINUOUS
 70
0
 71
3
 72
11
 73
7
 74
5
 42
0.0000001
 43
0.0000001
 44
0.0000000001
 12
0.6448435224
 22
-0.3178932542
 32
0.0
 13
0.3570947211
 23
-0.6239893025
 33
0.0
 40
0.0
 40
0.0
 40
0.0
 40
0.0
 40
0.2264202763
 40
0.471277706
 40
0.7308687027
 40
1.0
 40
1.0
 40
1.0
 40
1.0
 10
18.0388332633
 20
21.6360824939
 30
0.0
 10
18.0875018128
 20
21.6120900011
 30
0.0
 10
18.1838786327
 20
21.5518470764
 30
0.0
 10
18.3159335246
 20
21.4358632475
 30
0.0
 10
18.4370126832
 20
21.2947556273
 30
0.0
 10
18.506721989
 20
21.1884845848
 30
0.0
 10
18.5387571109
 20
21.1325062346
 30
0.0
 11
18.0388332633
 21
21.6360824939
 31
0.0
 11
18.1775171529
 21
21.550846436
 31
0.0
 11
18.3103994604
 21
21.4353827045
 31
0.0
 11
18.4323747734
 21
21.294126842
 31
0.0
 11
18.5387571109
 21
21.1325062346
 31
0.0
  0
SPLINE
  5
3B3
100
AcDbEntity
  8
RACCORDO
100
AcDbSpline
 62
253
  6
CONTINUOUS
 70
0
 71
3
 72
13
 73
9
 74
7
 42
0.0000001
 43
0.0000001
 44
0.0000000001
 12
0.003056477
 22
-1.0526021387
 32
0.0
 13
-0.7802356075
 23
-0.7065500699
 33
0.0
 40
0.0
 40
0.0
 40
0.0
 40
0.0
 40
0.2826743123
 40
0.5421661864
 40
0.6635789173
 40
0.7798611582
 40
0.8916960635
 40
1.0
 40
1.0
 40
1.0
 40
1.0
 10
19.0786077439
 20
-10.8434741485
 30
0.0
 10
19.0788957397
 20
-10.9426553437
 30
0.0
 10
19.0660760582
 20
-11.1333146419
 30
0.0
 10
19.0106656354
 20
-11.3610186872
 30
0.0
 10
18.9432085588
 20
-11.5222381692
 30
0.0
 10
18.8832776837
 20
-11.6295718155
 30
0.0
 10
18.813366697
 20
-11.7250546917
 30
0.0
 10
18.7597208034
 20
-11.7810194518
 30
0.0
 10
18.7315532742
 20
-11.8065268365
 30
0.0
 11
19.0786077439
 21
-10.8434741485
 31
0.0
 11
19.0567061304
 21
-11.1402118292
 31
0.0
 11
18.9899122167
 21
-11.4050619592
 31
0.0
 11
18.9402932706
 21
-11.5228361459
 31
0.0
 11
18.880360706
 21
-11.6295587462
 31
0.0
 11
18.810594253
 21
-11.7243754455
 31
0.0
 11
18.7315532742
 21
-11.8065268365
 31
0.0
  0
SPLINE
  5
3B4
100
AcDbEntity
  8
RACCORDO
100
AcDbSpline
 62
253
  6
CONTINUOUS
 70
0
 71
3
 72
11
 73
7
 74
5
 42
0.0000001
 43
0.0000001
 44
0.0000000001
 12
0.7591403876
 22
-1.3008517069
 32
0.0
 13
-0.0043603464
 23
-1.5061508154
 33
0.0
 40
0.0
 40
0.0
 40
0.0
 40
0.0
 40
0.2602702548
 40
0.5174814228
 40
0.7657528112
 40
1.0
 40
1.0
 40
1.0
 40
1.0
 10
18.6644558147
 20
20.9157080222
 30
0.0
 10
18.7303163688
 20
20.8028503538
 30
0.0
 10
18.8477009418
 20
20.5702405036
 30
0.0
 10
18.9784584452
 20
20.2077002537
 30
0.0
 10
19.059491815
 20
19.844231221
 30
0.0
 10
19.0789482102
 20
19.601673776
 30
0.0
 10
19.0786077439
 20
19.4840699112
 30
0.0
 11
18.6644558147
 21
20.9157080222
 31
0.0
 11
18.8410535525
 21
20.5657316915
 31
0.0
 11
18.9719735115
 21
20.2011235998
 31
0.0
 11
19.0521854219
 21
19.8358922035
 31
0.0
 11
19.0786077439
 21
19.4840699112
 31
0.0
  0
SPLINE
  5
3B5
100
AcDbEntity
  8
RACCORDO
100
AcDbSpline
 62
253
  6
CONTINUOUS
 70
0
 71
3
 72
13
 73
9
 74
7
 42
0.0000001
 43
0.0000001
 44
0.0000000001
 12
-0.4029948776
 22
0.2015008827
 32
0.0
 13
-0.4064116181
 23
-0.194517541
 33
0.0
 40
0.0
 40
0.0
 40
0.0
 40
0.0
 40
0.1134934583
 40
0.2282840573
 40
0.3455908828
 40
0.4664899684
 40
0.7220461045
 40
1.0
 40
1.0
 40
1.0
 40
1.0
 10
18.4737061287
 20
21.6584457928
 30
0.0
 10
18.4584603679
 20
21.6660688034
 30
0.0
 10
18.4267023649
 20
21.6793181464
 30
0.0
 10
18.3764016225
 20
21.692695549
 30
0.0
 10
18.3236815336
 20
21.6995483402
 30
0.0
 10
18.2493608034
 20
21.6999530789
 30
0.0
 10
18.1517022359
 20
21.6830766938
 30
0.0
 10
18.0764878275
 20
21.6541047967
 30
0.0
 10
18.0388332633
 20
21.6360824939
 30
0.0
 11
18.4737061287
 21
21.6584457928
 31
0.0
 11
18.4265197954
 21
21.6781521769
 31
0.0
 11
18.3765521101
 21
21.6915026794
 31
0.0
 11
18.3241504974
 21
21.6984044774
 31
0.0
 11
18.2696792873
 21
21.6988095767
 31
0.0
 11
18.1560547712
 21
21.6801636063
 31
0.0
 11
18.0388332633
 21
21.6360824939
 31
0.0
  0
SPLINE
  5
3B6
100
AcDbEntity
  8
RACCORDO
100
AcDbSpline
 62
253
  6
CONTINUOUS
 70
0
 71
3
 72
13
 73
9
 74
7
 42
0.0000001
 43
0.0000001
 44
0.0000000001
 12
-0.4029948776
 22
0.2015008827
 32
0.0
 13
-0.4064116181
 23
-0.194517541
 33
0.0
 40
0.0
 40
0.0
 40
0.0
 40
0.0
 40
0.1134934583
 40
0.2282840573
 40
0.3455908828
 40
0.4664899684
 40
0.7220461045
 40
1.0
 40
1.0
 40
1.0
 40
1.0
 10
5.338152944
 20
28.2262223851
 30
0.0
 10
5.3229071832
 20
28.2338453958
 30
0.0
 10
5.2911491802
 20
28.2470947387
 30
0.0
 10
5.2408484378
 20
28.2604721413
 30
0.0
 10
5.1881283489
 20
28.2673249326
 30
0.0
 10
5.1138076187
 20
28.2677296713
 30
0.0
 10
5.0161490512
 20
28.2508532862
 30
0.0
 10
4.9409346428
 20
28.221881389
 30
0.0
 10
4.9032800786
 20
28.2038590863
 30
0.0
 11
5.338152944
 21
28.2262223851
 31
0.0
 11
5.2909666107
 21
28.2459287692
 31
0.0
 11
5.2409989255
 21
28.2592792718
 31
0.0
 11
5.1885973128
 21
28.2661810698
 31
0.0
 11
5.1341261026
 21
28.2665861691
 31
0.0
 11
5.0205015865
 21
28.2479401986
 31
0.0
 11
4.9032800786
 21
28.2038590863
 31
0.0
  0
SPLINE
  5
3B7
100
AcDbEntity
  8
RACCORDO
100
AcDbSpline
 62
253
  6
CONTINUOUS
 70
0
 71
3
 72
13
 73
9
 74
7
 42
0.0000001
 43
0.0000001
 44
0.0000000001
 12
0.4076682391
 22
0.1792071276
 32
0.0
 13
0.3971666537
 23
-0.2014131004
 33
0.0
 40
0.0
 40
0.0
 40
0.0
 40
0.0
 40
0.1134884496
 40
0.2284345657
 40
0.3459645484
 40
0.4670681869
 40
0.7227161935
 40
1.0
 40
1.0
 40
1.0
 40
1.0
 10
4.4735666679
 20
28.2404395223
 30
0.0
 10
4.4889885467
 20
28.2472188354
 30
0.0
 10
4.5209801988
 20
28.2588072636
 30
0.0
 10
4.5712695896
 20
28.2698607091
 30
0.0
 10
4.6236792581
 20
28.274585869
 30
0.0
 10
4.6971697098
 20
28.2723903579
 30
0.0
 10
4.7930523943
 20
28.2528748286
 30
0.0
 10
4.8665707848
 20
28.2224752833
 30
0.0
 10
4.9032800786
 20
28.2038590863
 30
0.0
 11
4.4735666679
 21
28.2404395223
 31
0.0
 11
4.5210755933
 21
28.2576744544
 31
0.0
 11
4.5710568818
 21
28.2687218409
 31
0.0
 11
4.6231759136
 21
28.2735074353
 31
0.0
 11
4.6770845168
 21
28.2719993392
 31
0.0
 11
4.7888196593
 21
28.250184326
 31
0.0
 11
4.9032800786
 21
28.2038590863
 31
0.0
  0
SPLINE
  5
3B8
100
AcDbEntity
  8
RACCORDO
100
AcDbSpline
 62
7
  6
CONTINUOUS
 70
0
 71
3
 72
12
 73
8
 74
6
 42
0.0000001
 43
0.0000001
 44
0.0000000001
 12
-0.1965698602
 22
0.0944142833
 32
0.0
 13
-0.1979749362
 23
-0.0914313485
 33
0.0
 40
0.0
 40
0.0
 40
0.0
 40
0.0
 40
0.2874014982
 40
0.5468370254
 40
0.7816151617
 40
0.8922543533
 40
1.0
 40
1.0
 40
1.0
 40
1.0
 10
-2.3315193525
 20
21.0849772882
 30
0.0
 10
-2.3503508433
 20
21.0940222236
 30
0.0
 10
-2.3874524794
 20
21.1088236777
 30
0.0
 10
-2.4434108179
 20
21.1204159901
 30
0.0
 10
-2.4878614735
 20
21.1197485184
 30
0.0
 10
-2.5201145573
 20
21.1126224537
 30
0.0
 10
-2.5350408275
 20
21.107026926
 30
0.0
 10
-2.54215114
 20
21.1037431494
 30
0.0
 11
-2.3315193525
 21
21.0849772882
 31
0.0
 11
-2.3899156644
 21
21.1077323731
 31
0.0
 11
-2.4454344472
 21
21.1186115405
 31
0.0
 11
-2.4966147434
 21
21.1172782451
 31
0.0
 11
-2.5201621641
 21
21.1120221912
 31
0.0
 11
-2.54215114
 21
21.1037431494
 31
0.0
  0
SPLINE
  5
3B9
100
AcDbEntity
  8
RACCORDO
100
AcDbSpline
 62
253
  6
CONTINUOUS
 70
0
 71
3
 72
19
 73
15
 74
13
 42
0.0000001
 43
0.0000001
 44
0.0000000001
 12
0.7274473035
 22
0.335967824
 32
0.0
 13
0.7166890846
 23
-0.358344407
 33
0.0
 40
0.0
 40
0.0
 40
0.0
 40
0.0
 40
0.0538897774
 40
0.1068606215
 40
0.160922177
 40
0.2171128989
 40
0.3371380706
 40
0.4667883658
 40
0.6033293856
 40
0.7425592206
 40
0.811391222
 40
0.8782745921
 40
0.941729189
 40
1.0
 40
1.0
 40
1.0
 40
1.0
 10
-2.2466746768
 20
21.1226390438
 30
0.0
 10
-2.2336073523
 20
21.1286741209
 30
0.0
 10
-2.208229181
 20
21.1417737088
 30
0.0
 10
-2.1704343262
 20
21.1622304619
 30
0.0
 10
-2.1314410256
 20
21.1817635501
 30
0.0
 10
-2.0750587629
 20
21.2064115826
 30
0.0
 10
-1.9973409858
 20
21.2322632497
 30
0.0
 10
-1.8961599732
 20
21.2533997864
 30
0.0
 10
-1.7882113013
 20
21.2641044419
 30
0.0
 10
-1.6959443848
 20
21.2633022624
 30
0.0
 10
-1.6228487569
 20
21.255750227
 30
0.0
 10
-1.5704170795
 20
21.2463997224
 30
0.0
 10
-1.521744329
 20
21.2331306999
 30
0.0
 10
-1.491459481
 20
21.2209707928
 30
0.0
 10
-1.4775387962
 20
21.214010453
 30
0.0
 11
-2.2466746768
 21
21.1226390438
 31
0.0
 11
-2.2080822657
 21
21.1420096378
 31
0.0
 11
-2.170584807
 21
21.1618964781
 31
0.0
 11
-2.1317919677
 21
21.1811738163
 31
0.0
 11
-2.0905226381
 21
21.1991755337
 31
0.0
 11
-1.9993314374
 21
21.2297307474
 31
0.0
 11
-1.8976947463
 21
21.2512341382
 31
0.0
 11
-1.7888268061
 21
21.2620910492
 31
0.0
 11
-1.6772718638
 21
21.2607961538
 31
0.0
 11
-1.6224216208
 21
21.2550166553
 31
0.0
 11
-1.5696925444
 21
21.2454354667
 31
0.0
 11
-1.5207130799
 21
21.2317887366
 31
0.0
 11
-1.4775387962
 21
21.214010453
 31
0.0
  0
SPLINE
  5
3BA
100
AcDbEntity
  8
RACCORDO
100
AcDbSpline
 62
253
  6
CONTINUOUS
 70
0
 71
3
 72
11
 73
7
 74
5
 42
0.0000001
 43
0.0000001
 44
0.0000000001
 12
0.081203427
 22
0.0388657522
 32
0.0
 13
0.080521396
 23
-0.0402597571
 33
0.0
 40
0.0
 40
0.0
 40
0.0
 40
0.0
 40
0.2782291411
 40
0.5340276409
 40
0.7720108744
 40
1.0
 40
1.0
 40
1.0
 40
1.0
 10
-1.4775387962
 20
21.214010453
 30
0.0
 10
-1.470007743
 20
21.2176149813
 30
0.0
 10
-1.4549597534
 20
21.2234088807
 30
0.0
 10
-1.4319614319
 20
21.2273887116
 30
0.0
 10
-1.4101271766
 20
21.2260726742
 30
0.0
 10
-1.3966835981
 20
21.2215426261
 30
0.0
 10
-1.3905642639
 20
21.2184830305
 30
0.0
 11
-1.4775387962
 21
21.214010453
 31
0.0
 11
-1.4540940452
 21
21.2228268092
 31
0.0
 11
-1.4313696502
 21
21.2265558055
 31
0.0
 11
-1.4099950502
 21
21.2250944548
 31
0.0
 11
-1.3905642639
 21
21.2184830305
 31
0.0
  0
SPLINE
  5
3BB
100
AcDbEntity
  8
RACCORDO
100
AcDbSpline
 62
253
  6
CONTINUOUS
 70
0
 71
3
 72
15
 73
11
 74
9
 42
0.0000001
 43
0.0000001
 44
0.0000000001
 12
0.0000002949
 22
-0.468741159
 32
0.0
 13
-0.416255163
 23
-0.2155224197
 33
0.0
 40
0.0
 40
0.0
 40
0.0
 40
0.0
 40
0.1027078254
 40
0.208176759
 40
0.3188662926
 40
0.4367342604
 40
0.5631676535
 40
0.6990101344
 40
0.8446276831
 40
1.0
 40
1.0
 40
1.0
 40
1.0
 10
19.3592678438
 20
-10.4961479976
 30
0.0
 10
19.3592678539
 20
-10.5121957926
 30
0.0
 10
19.3560939481
 20
-10.5448046285
 30
0.0
 10
19.3419689106
 20
-10.5928553719
 30
0.0
 10
19.318699575
 20
-10.6398384994
 30
0.0
 10
19.2866036964
 20
-10.6853101268
 30
0.0
 10
19.2460384038
 20
-10.728908448
 30
0.0
 10
19.1973984752
 20
-10.7702835815
 30
0.0
 10
19.1411357394
 20
-10.8090957045
 30
0.0
 10
19.1001659266
 20
-10.8323141055
 30
0.0
 10
19.0786077502
 20
-10.843476178
 30
0.0
 11
19.3592678438
 21
-10.4961479976
 31
0.0
 11
19.3546639252
 21
-10.5440707423
 31
0.0
 11
19.3408948425
 21
-10.5915522297
 31
0.0
 11
19.3180873073
 21
-10.6381552619
 31
0.0
 11
19.2864513438
 21
-10.6834507424
 31
0.0
 11
19.2462783795
 21
-10.7270215821
 31
0.0
 11
19.1979379708
 21
-10.768466795
 31
0.0
 11
19.1418764499
 21
-10.8074041233
 31
0.0
 11
19.0786077502
 21
-10.843476178
 31
0.0
  0
ELLIPSE
  5
3BC
100
AcDbEntity
  8
ASSI
100
AcDbEllipse
 62
7
  6
CONTINUOUS
 10
-2.8646980002
 20
24.1772088911
 30
0.0
 11
0.2257019663
 21
0.4461636818
 31
0.0
 40
0.6159267166
 41
0.5380090616
 42
0.6817883054
  0
ELLIPSE
  5
3BD
100
AcDbEntity
  8
RACCORDO
100
AcDbEllipse
 62
7
  6
CONTINUOUS
 10
3.150157421
 20
15.391372601
 30
0.0
 11
-0.2237046003
 21
0.4472532382
 31
0.0
 40
0.6122950388
 41
-2.2557482655
 42
-0.6847996396
  0
ELLIPSE
  5
3BE
100
AcDbEntity
  8
RACCORDO
100
AcDbEllipse
 62
7
  6
CONTINUOUS
 10
3.150157421
 20
-22.5253917295
 30
0.0
 11
-0.2236445579
 21
0.4471998343
 31
0.0
 40
0.6124778111
 41
-3.1448859382
 42
-2.255529033
  0
ELLIPSE
  5
3BF
100
AcDbEntity
  8
DRAFT
100
AcDbEllipse
 62
7
  6
CONTINUOUS
 10
7.6998075264
 20
19.0474087908
 30
0.0
 11
0.499996712
 21
0.0035883639
 31
0.0
 40
0.5053247124
 41
-0.7715714568
 42
-0.0036408014
  0
ELLIPSE
  5
3C0
100
AcDbEntity
  8
RACCORDO
100
AcDbEllipse
 62
7
  6
CONTINUOUS
 10
7.8788512323
 20
-18.0247292114
 30
0.0
 11
0.9987332359
 21
0.6172510855
 31
0.0
 40
0.0815198604
 41
-2.3978073241
 42
-1.2985018509
  0
ELLIPSE
  5
3C1
100
AcDbEntity
  8
RACCORDO
100
AcDbEllipse
 62
7
  6
CONTINUOUS
 10
-3.9118810561
 20
24.7853044771
 30
0.0
 11
0.9987332359
 21
0.6172510855
 31
0.0
 40
0.0815198604
 41
0.0508301429
 42
0.7263320369
  0
ELLIPSE
  5
3C2
100
AcDbEntity
  8
RACCORDO
100
AcDbEllipse
 62
7
  6
CONTINUOUS
 10
-8.1967896642
 20
21.6546892224
 30
0.0
 11
0.4999985559
 21
0.0023864752
 31
0.0
 40
0.5035541159
 41
2.3596088132
 42
3.0002042076
  0
ELLIPSE
  5
3C3
100
AcDbEntity
  8
DRAFT
100
AcDbEllipse
 62
7
  6
CONTINUOUS
 10
-2.5419983115
 20
20.2443651767
 30
0.0
 11
0.9999934239
 21
0.0071767279
 31
0.0
 40
0.5053247124
 41
2.0833245176
 42
2.3525679043
  0
ELLIPSE
  5
3C4
100
AcDbEntity
  8
ASSI
100
AcDbEllipse
 62
7
  6
CONTINUOUS
 10
3.2961342706
 20
21.0967927557
 30
0.0
 11
0.221538876
 21
0.4482453432
 31
0.0
 40
0.6088015717
 41
0.5323082896
 42
0.6760875334
  0
ELLIPSE
  5
3C5
100
AcDbEntity
  8
RACCORDO
100
AcDbEllipse
 62
7
  6
CONTINUOUS
 10
7.8788512323
 20
18.8899383329
 30
0.0
 11
-0.7417913999
 21
1.2002436976
 31
0.0
 40
0.5587454355
 41
5.1248137075
 42
6.2241191807
  0
ELLIPSE
  5
3C6
100
AcDbEntity
  8
RACCORDO
100
AcDbEllipse
 62
7
  6
CONTINUOUS
 10
7.6998075264
 20
19.9853091389
 30
0.0
 11
-0.3708957
 21
0.6001218488
 31
0.0
 40
0.5587454355
 41
-3.1744788413
 42
-2.2817038581
  0
ELLIPSE
  5
3C7
100
AcDbEntity
  8
RACCORDO
100
AcDbEllipse
 62
7
  6
CONTINUOUS
 10
7.6998075264
 20
-18.2339495303
 30
0.0
 11
0.499366618
 21
0.3086255427
 31
0.0
 40
0.0815198604
 41
6.1080157147
 42
7.0007906979
  0
ELLIPSE
  5
3C8
100
AcDbEntity
  8
RACCORDO
100
AcDbEllipse
 62
7
  6
CONTINUOUS
 10
1.3772990488
 20
15.0706653237
 30
0.0
 11
0.249929385
 21
0.0111824824
 31
0.0
 40
0.5313301283
 41
-2.3799630874
 42
-1.3352760237
  0
ELLIPSE
  5
3C9
100
AcDbEntity
  8
RACCORDO
100
AcDbEllipse
 62
7
  6
CONTINUOUS
 10
0.0440867152
 20
15.7372714905
 30
0.0
 11
0.249929385
 21
0.0111824824
 31
0.0
 40
0.5313301283
 41
3.1178369227
 42
3.9032222197
  0
ELLIPSE
  5
3CA
100
AcDbEntity
  8
RACCORDO
100
AcDbEllipse
 62
7
  6
CONTINUOUS
 10
-11.9870191156
 20
21.7528244059
 30
0.0
 11
0.249929385
 21
0.0111824824
 31
0.0
 40
0.5313301283
 41
-2.3799630874
 42
-0.8149845248
  0
ELLIPSE
  5
3CB
100
AcDbEntity
  8
RACCORDO
100
AcDbEllipse
 62
7
  6
CONTINUOUS
 10
-8.1967896642
 20
20.4220796172
 30
0.0
 11
0.4998587701
 21
0.0223649649
 31
0.0
 40
0.5313301283
 41
3.1178197826
 42
3.9032222197
  0
ELLIPSE
  5
3CC
100
AcDbEntity
  8
RACCORDO
100
AcDbEllipse
 62
7
  6
CONTINUOUS
 10
-2.6854825645
 20
17.6664260674
 30
0.0
 11
0.4998587701
 21
0.0223649649
 31
0.0
 40
0.5313301283
 41
-2.3799630874
 42
-0.8149845248
  0
ELLIPSE
  5
3CD
100
AcDbEntity
  8
RACCORDO
100
AcDbEllipse
 62
7
  6
CONTINUOUS
 10
-13.3202314493
 20
22.4194305727
 30
0.0
 11
0.249929385
 21
0.0111824824
 31
0.0
 40
0.5313301283
 41
3.1179086008
 42
3.9032222197
  0
ELLIPSE
  5
3CE
100
AcDbEntity
  8
RACCORDO
100
AcDbEllipse
 62
7
  6
CONTINUOUS
 10
-2.6854825645
 20
18.8990356726
 30
0.0
 11
0.4999985559
 21
0.0023864752
 31
0.0
 40
0.5035541159
 41
-1.4342147631
 42
-0.7936193687
  0
ELLIPSE
  5
3CF
100
AcDbEntity
  8
DRAFT
100
AcDbEllipse
 62
7
  6
CONTINUOUS
 10
-2.5108431693
 20
23.2523597141
 30
0.0
 11
0.4279673669
 21
-0.0030279657
 31
0.0
 40
0.4946372042
 41
-0.7818985079
 42
0.0034334386
  0
ELLIPSE
  5
3D0
100
AcDbEntity
  8
DRAFT
100
AcDbEllipse
 62
7
  6
CONTINUOUS
 10
3.0441452599
 20
20.4748654995
 30
0.0
 11
0.4279673669
 21
-0.0030279657
 31
0.0
 40
0.4946372042
 41
-0.7760807437
 42
0.0034304302
  0
ELLIPSE
  5
3D1
100
AcDbEntity
  8
ASSI
100
AcDbEllipse
 62
7
  6
CONTINUOUS
 10
13.7117298479
 20
-6.2650519947
 30
0.0
 11
0.9261626287
 21
1.8847694129
 31
0.0
 40
0.607010042
 41
-2.7637651264
 42
-2.4610674593
  0
ELLIPSE
  5
3D2
100
AcDbEntity
  8
ASSI
100
AcDbEllipse
 62
7
  6
CONTINUOUS
 10
13.7117298479
 20
-10.5951790136
 30
0.0
 11
0.9261626287
 21
1.8847694129
 31
0.0
 40
0.607010042
 41
-2.7637651264
 42
-2.4610674593
  0
ELLIPSE
  5
3D3
100
AcDbEntity
  8
RACCORDO
100
AcDbEllipse
 62
7
  6
CONTINUOUS
 10
-3.5165401802
 20
20.1029908173
 30
0.0
 11
1.2181247452
 21
0.9560445338
 31
0.0
 40
0.2321910517
 41
0.1093596625
 42
0.1138484791
  0
ELLIPSE
  5
3D4
100
AcDbEntity
  8
ASSI
100
AcDbEllipse
 62
7
  6
CONTINUOUS
 10
14.5505152316
 20
-6.6844446865
 30
0.0
 11
0.9134242373
 21
1.8910797574
 31
0.0
 40
0.6016116119
 41
0.6764898932
 42
3.8180825468
  0
ELLIPSE
  5
3D5
100
AcDbEntity
  8
ASSI
100
AcDbEllipse
 62
7
  6
CONTINUOUS
 10
14.5505152316
 20
-11.0145717054
 30
0.0
 11
0.9134242373
 21
1.8910797574
 31
0.0
 40
0.6016116119
 41
0.6764898932
 42
3.8180825468
  0
ENDSEC
  0
SECTION
  2
OBJECTS
  0
DICTIONARY
  5
C
100
AcDbDictionary
280
0
281
1
  3
ACAD_GROUP
350
D
  3
ACAD_MLINESTYLE
350
17
  3
ACAD_LAYOUT
350
1A
  3
ACAD_PLOTSETTINGS
350
19
  3
ACAD_PLOTSTYLENAME
350
E
  0
DICTIONARY
  5
D
102
{ACAD_REACTORS
330
C
102
}
100
AcDbDictionary
280
0
281
1
  0
ACDBDICTIONARYWDFLT
  5
E
102
{ACAD_REACTORS
330
C
102
}
100
AcDbDictionary
281
1
  3
Normal
350
F
100
AcDbDictionaryWithDefault
340
F
  0
DICTIONARY
  5
17
102
{ACAD_REACTORS
330
C
102
}
100
AcDbDictionary
280
0
281
1
  3
Standard
350
18
  0
DICTIONARY
  5
19
102
{ACAD_REACTORS
330
C
102
}
100
AcDbDictionary
281
1
  0
DICTIONARY
  5
1A
102
{ACAD_REACTORS
330
C
102
}
100
AcDbDictionary
281
1
  3
Model
350
3D6
  3
Layout1
350
3D7
  0
ACDBPLACEHOLDER
  5
F
102
{ACAD_REACTORS
330
E
102
}
  0
MLINESTYLE
  5
18
102
{ACAD_REACTORS
330
17
102
}
100
AcDbMlineStyle
  2
STANDARD
 70
0
  3

 62
256
 51
90.0
 52
90.0
 71
2
 49
0.5
 62
256
  6
BYLAYER
 49
-0.5
 62
256
  6
BYLAYER
  0
LAYOUT
  5
3D6
102
{ACAD_REACTORS
330
1A
102
}
100
AcDbPlotSettings
  1

  2
none_device
  4
ISO_A4_(297.00_x_210.00_MM)
  6

 40
0.0
 41
0.0
 42
0.0
 43
0.0
 44
297.0
 45
210.0
 46
0.0
 47
0.0
 48
0.0
 49
0.0
140
0.0
141
0.0
142
1.0
143
1.0
 70
1024
 72
1
 73
0
 74
0
  7

 75
0
147
1.0
148
0.0
149
0.0
100
AcDbLayout
  1
Model
 70
0
 71
0
 10
0.0
 20
0.0
 11
297.0
 21
210.0
 12
0.0
 22
0.0
 32
0.0
 14
0.0
 24
0.0
 34
0.0
 15
0.0
 25
0.0
 35
0.0
146
0.0
 13
0.0
 23
0.0
 33
0.0
 16
1.0
 26
0.0
 36
0.0
 17
0.0
 27
1.0
 37
0.0
 76
0
330
220
345
0
346
0
  0
LAYOUT
  5
3D7
102
{ACAD_REACTORS
330
1A
102
}
100
AcDbPlotSettings
  1

  2
none_device
  4
ISO_A4_(297.00_x_210.00_MM)
  6

 40
0.0
 41
0.0
 42
0.0
 43
0.0
 44
297.0
 45
210.0
 46
0.0
 47
0.0
 48
0.0
 49
0.0
140
0.0
141
0.0
142
1.0
143
1.0
 70
0
 72
1
 73
0
 74
0
  7

 75
0
147
1.0
148
0.0
149
0.0
100
AcDbLayout
  1
Layout1
 70
0
 71
1
 10
0.0
 20
0.0
 11
297.0
 21
210.0
 12
0.0
 22
0.0
 32
0.0
 14
0.0
 24
0.0
 34
0.0
 15
0.0
 25
0.0
 35
0.0
146
0.0
 13
0.0
 23
0.0
 33
0.0
 16
1.0
 26
0.0
 36
0.0
 17
0.0
 27
1.0
 37
0.0
 76
0
330
221
345
0
346
0
  0
ENDSEC
  0
EOF
