  0
SECTION
  2
HEADER
  9
$ACADVER
  1
AC1024
  9
$DWGCODEPAGE
  3
ANSI_1252
  9
$EXTMAX
 10
297.0
 20
210.0
 30
0.0
  9
$EXTMIN
 10
0.0
 20
0.0
 30
0.0
  9
$LIMMIN
 10
0.0
 20
0.0
  9
$LIMMAX
 10
297.0
 20
210.0
  9
$VIEWCTR
 10
148.5
 20
105.0
  9
$VIEWSIZE
 40
210.0
  9
$CLAYER
  8
0
  9
$LTSCALE
 40
16.335
  9
$CELTYPE
  6
BYLAYER
  9
$DIMSCALE
 40
1.0
  9
$DIMASZ
 40
3.0
  9
$DIMEXO
 40
0.5
  9
$DIMDLI
 40
11.286
  9
$DIMEXE
 40
1.5
  9
$DIMCEN
 40
2.673
  9
$DIMLFAC
 40
1.0
  9
$DIMBLK
  1
_FILLED
  9
$DIMALT
 70
0
  9
$DIMALTF
 40
0.0393700787
  9
$DIMTXT
 40
3.0
  9
$DIMTOL
 70
1
  9
$DIMLIM
 70
0
  9
$DIMTFAC
 40
1.0
  9
$DIMTP
 40
0.01
  9
$DIMTM
 40
0.01
  9
$DIMGAP
 40
0.625
  9
$DIMDSEP
 70
44
  9
$AUNITS
 70
0
  9
$PDMODE
 70
3
  9
$PDSIZE
 40
3.0
  9
$HANDSEED
  5
689
  9
$TILEMODE
 70
1
  9
$MEASUREMENT
 70
1
  9
$INSUNITS
 70
4
  0
ENDSEC
  0
SECTION
  2
CLASSES
  0
CLASS
  1
ACDBDICTIONARYWDFLT
  2
AcDbDictionaryWithDefault
  3
AutoCAD 2000
 90
0
 91
1
280
0
281
0
  0
CLASS
  1
ACDBPLACEHOLDER
  2
AcDbPlaceHolder
  3
AutoCAD 2000
 90
0
 91
1
280
0
281
0
  0
CLASS
  1
LAYOUT
  2
AcDbLayout
  3
AutoCAD 2000
 90
0
 91
0
280
0
281
0
  0
ENDSEC
  0
SECTION
  2
TABLES
  0
TABLE
  2
VPORT
  5
8
100
AcDbSymbolTable
 70
2
  0
VPORT
  5
1F4
100
AcDbSymbolTableRecord
100
AcDbViewportTableRecord
  2
*ACTIVE
 70
0
 10
0.0
 20
0.0
 11
1.0
 21
1.0
 12
148.5
 22
105.0
 13
0.0
 23
0.0
 14
1.0
 24
1.0
 15
0.0
 25
0.0
 16
0.0
 26
0.0
 36
1.0
 17
0.0
 27
0.0
 37
0.0
 40
210.0
 41
1.4142857143
 42
50.0
 43
0.0
 44
0.0
 50
0.0
 51
0.0
 71
0
 72
100
 73
1
 74
1
 75
0
 76
0
 77
0
 78
0
  0
ENDTAB
  0
TABLE
  2
LTYPE
  5
5
100
AcDbSymbolTable
 70
6
  0
LTYPE
  5
14
100
AcDbSymbolTableRecord
100
AcDbLinetypeTableRecord
  2
BYBLOCK
 70
0
  3

 72
65
 73
0
 40
0.0
  0
LTYPE
  5
15
100
AcDbSymbolTableRecord
100
AcDbLinetypeTableRecord
  2
BYLAYER
 70
0
  3

 72
65
 73
0
 40
0.0
  0
LTYPE
  5
16
100
AcDbSymbolTableRecord
100
AcDbLinetypeTableRecord
  2
CONTINUOUS
 70
64
  3
Solid line
 72
65
 73
0
 40
0.0
  0
LTYPE
  5
1F5
100
AcDbSymbolTableRecord
100
AcDbLinetypeTableRecord
  2
CENTER
 70
64
  3
____ _ ____ _ ____ _ ____ _ ____ _ ____ _ ____
 72
65
 73
4
 40
0.6
 49
0.375
 74
0
 49
-0.075
 74
0
 49
0.075
 74
0
 49
-0.075
 74
0
  0
LTYPE
  5
1F6
100
AcDbSymbolTableRecord
100
AcDbLinetypeTableRecord
  2
HIDDEN
 70
64
  3
- - - - - - - - - - - - - - - - - - - -
 72
65
 73
2
 40
0.2
 49
0.1
 74
0
 49
-0.1
 74
0
  0
LTYPE
  5
1F7
100
AcDbSymbolTableRecord
100
AcDbLinetypeTableRecord
  2
PHANTOM
 70
64
  3
_____ _ _ _____ _ _ _____ _ _ _____
 72
65
 73
6
 40
0.8
 49
0.45
 74
0
 49
-0.05
 74
0
 49
0.1
 74
0
 49
-0.05
 74
0
 49
0.1
 74
0
 49
-0.05
 74
0
  0
LTYPE
  5
1F8
100
AcDbSymbolTableRecord
100
AcDbLinetypeTableRecord
  2
DOT
 70
64
  3
. . . . . . . . . . . . . . . . . . . .
 72
65
 73
2
 40
0.2
 49
0.1
 74
0
 49
-0.1
 74
0
  0
LTYPE
  5
1F9
100
AcDbSymbolTableRecord
100
AcDbLinetypeTableRecord
  2
DASHED
 70
64
  3
- - - - - - - - - - - - - - - - - - - -
 72
65
 73
2
 40
0.2
 49
0.1
 74
0
 49
-0.1
 74
0
  0
ENDTAB
  0
TABLE
  2
LAYER
  5
2
100
AcDbSymbolTable
 70
36
  0
LAYER
  5
10
100
AcDbSymbolTableRecord
100
AcDbLayerTableRecord
  2
0
 70
0
 62
7
  6
CONTINUOUS
370
-3
390
F
  0
LAYER
  5
1FA
100
AcDbSymbolTableRecord
100
AcDbLayerTableRecord
  2
DEFAULT_1
 70
0
 62
7
  6
CENTER
370
-3
390
F
  0
LAYER
  5
1FB
100
AcDbSymbolTableRecord
100
AcDbLayerTableRecord
  2
DEFAULT_2
 70
0
 62
7
  6
HIDDEN
370
-3
390
F
  0
LAYER
  5
1FC
100
AcDbSymbolTableRecord
100
AcDbLayerTableRecord
  2
DEFAULT_3
 70
0
 62
7
  6
PHANTOM
370
-3
390
F
  0
LAYER
  5
1FD
100
AcDbSymbolTableRecord
100
AcDbLayerTableRecord
  2
0402_C_REF_70000
 70
0
 62
7
  6
CONTINUOUS
370
-3
390
F
  0
LAYER
  5
1FE
100
AcDbSymbolTableRecord
100
AcDbLayerTableRecord
  2
0402_C_REF_70000_1
 70
0
 62
7
  6
CONTINUOUS
370
-3
390
F
  0
LAYER
  5
1FF
100
AcDbSymbolTableRecord
100
AcDbLayerTableRecord
  2
0402_C_REF_70000_10
 70
0
 62
7
  6
CONTINUOUS
370
-3
390
F
  0
LAYER
  5
200
100
AcDbSymbolTableRecord
100
AcDbLayerTableRecord
  2
0402_C_REF_70000_11
 70
0
 62
7
  6
CONTINUOUS
370
-3
390
F
  0
LAYER
  5
201
100
AcDbSymbolTableRecord
100
AcDbLayerTableRecord
  2
0402_C_REF_70000_12
 70
0
 62
7
  6
CONTINUOUS
370
-3
390
F
  0
LAYER
  5
202
100
AcDbSymbolTableRecord
100
AcDbLayerTableRecord
  2
0402_C_REF_70000_13
 70
0
 62
7
  6
CONTINUOUS
370
-3
390
F
  0
LAYER
  5
203
100
AcDbSymbolTableRecord
100
AcDbLayerTableRecord
  2
0402_C_REF_70000_14
 70
0
 62
7
  6
CONTINUOUS
370
-3
390
F
  0
LAYER
  5
204
100
AcDbSymbolTableRecord
100
AcDbLayerTableRecord
  2
0402_C_REF_70000_15
 70
0
 62
7
  6
CONTINUOUS
370
-3
390
F
  0
LAYER
  5
205
100
AcDbSymbolTableRecord
100
AcDbLayerTableRecord
  2
0402_C_REF_70000_16
 70
0
 62
7
  6
CONTINUOUS
370
-3
390
F
  0
LAYER
  5
206
100
AcDbSymbolTableRecord
100
AcDbLayerTableRecord
  2
0402_C_REF_70000_17
 70
0
 62
7
  6
CONTINUOUS
370
-3
390
F
  0
LAYER
  5
207
100
AcDbSymbolTableRecord
100
AcDbLayerTableRecord
  2
0402_C_REF_70000_18
 70
0
 62
7
  6
CONTINUOUS
370
-3
390
F
  0
LAYER
  5
208
100
AcDbSymbolTableRecord
100
AcDbLayerTableRecord
  2
0402_C_REF_70000_19
 70
0
 62
7
  6
CONTINUOUS
370
-3
390
F
  0
LAYER
  5
209
100
AcDbSymbolTableRecord
100
AcDbLayerTableRecord
  2
0402_C_REF_70000_2
 70
0
 62
7
  6
CONTINUOUS
370
-3
390
F
  0
LAYER
  5
20A
100
AcDbSymbolTableRecord
100
AcDbLayerTableRecord
  2
0402_C_REF_70000_20
 70
0
 62
7
  6
CONTINUOUS
370
-3
390
F
  0
LAYER
  5
20B
100
AcDbSymbolTableRecord
100
AcDbLayerTableRecord
  2
0402_C_REF_70000_21
 70
0
 62
7
  6
CONTINUOUS
370
-3
390
F
  0
LAYER
  5
20C
100
AcDbSymbolTableRecord
100
AcDbLayerTableRecord
  2
0402_C_REF_70000_22
 70
0
 62
7
  6
CONTINUOUS
370
-3
390
F
  0
LAYER
  5
20D
100
AcDbSymbolTableRecord
100
AcDbLayerTableRecord
  2
0402_C_REF_70000_23
 70
0
 62
7
  6
CONTINUOUS
370
-3
390
F
  0
LAYER
  5
20E
100
AcDbSymbolTableRecord
100
AcDbLayerTableRecord
  2
0402_C_REF_70000_24
 70
0
 62
7
  6
CONTINUOUS
370
-3
390
F
  0
LAYER
  5
20F
100
AcDbSymbolTableRecord
100
AcDbLayerTableRecord
  2
0402_C_REF_70000_25
 70
0
 62
7
  6
CONTINUOUS
370
-3
390
F
  0
LAYER
  5
210
100
AcDbSymbolTableRecord
100
AcDbLayerTableRecord
  2
0402_C_REF_70000_26
 70
0
 62
7
  6
CONTINUOUS
370
-3
390
F
  0
LAYER
  5
211
100
AcDbSymbolTableRecord
100
AcDbLayerTableRecord
  2
0402_C_REF_70000_27
 70
0
 62
7
  6
CONTINUOUS
370
-3
390
F
  0
LAYER
  5
212
100
AcDbSymbolTableRecord
100
AcDbLayerTableRecord
  2
0402_C_REF_70000_28
 70
0
 62
7
  6
CONTINUOUS
370
-3
390
F
  0
LAYER
  5
213
100
AcDbSymbolTableRecord
100
AcDbLayerTableRecord
  2
0402_C_REF_70000_29
 70
0
 62
7
  6
CONTINUOUS
370
-3
390
F
  0
LAYER
  5
214
100
AcDbSymbolTableRecord
100
AcDbLayerTableRecord
  2
0402_C_REF_70000_3
 70
0
 62
7
  6
CONTINUOUS
370
-3
390
F
  0
LAYER
  5
215
100
AcDbSymbolTableRecord
100
AcDbLayerTableRecord
  2
0402_C_REF_70000_30
 70
0
 62
7
  6
CONTINUOUS
370
-3
390
F
  0
LAYER
  5
216
100
AcDbSymbolTableRecord
100
AcDbLayerTableRecord
  2
0402_C_REF_70000_31
 70
0
 62
7
  6
CONTINUOUS
370
-3
390
F
  0
LAYER
  5
217
100
AcDbSymbolTableRecord
100
AcDbLayerTableRecord
  2
0402_C_REF_70000_32
 70
0
 62
7
  6
CONTINUOUS
370
-3
390
F
  0
LAYER
  5
218
100
AcDbSymbolTableRecord
100
AcDbLayerTableRecord
  2
0402_C_REF_70000_33
 70
0
 62
7
  6
CONTINUOUS
370
-3
390
F
  0
LAYER
  5
219
100
AcDbSymbolTableRecord
100
AcDbLayerTableRecord
  2
0402_C_REF_70000_34
 70
0
 62
7
  6
CONTINUOUS
370
-3
390
F
  0
LAYER
  5
21A
100
AcDbSymbolTableRecord
100
AcDbLayerTableRecord
  2
0402_C_REF_70000_35
 70
0
 62
7
  6
CONTINUOUS
370
-3
390
F
  0
LAYER
  5
21B
100
AcDbSymbolTableRecord
100
AcDbLayerTableRecord
  2
0402_C_REF_70000_36
 70
0
 62
7
  6
CONTINUOUS
370
-3
390
F
  0
LAYER
  5
21C
100
AcDbSymbolTableRecord
100
AcDbLayerTableRecord
  2
0402_C_REF_70000_37
 70
0
 62
7
  6
CONTINUOUS
370
-3
390
F
  0
LAYER
  5
21D
100
AcDbSymbolTableRecord
100
AcDbLayerTableRecord
  2
0402_C_REF_70000_38
 70
0
 62
7
  6
CONTINUOUS
370
-3
390
F
  0
LAYER
  5
21E
100
AcDbSymbolTableRecord
100
AcDbLayerTableRecord
  2
0402_C_REF_70000_39
 70
0
 62
7
  6
CONTINUOUS
370
-3
390
F
  0
LAYER
  5
21F
100
AcDbSymbolTableRecord
100
AcDbLayerTableRecord
  2
0402_C_REF_70000_4
 70
0
 62
7
  6
CONTINUOUS
370
-3
390
F
  0
LAYER
  5
220
100
AcDbSymbolTableRecord
100
AcDbLayerTableRecord
  2
0402_C_REF_70000_40
 70
0
 62
7
  6
CONTINUOUS
370
-3
390
F
  0
LAYER
  5
221
100
AcDbSymbolTableRecord
100
AcDbLayerTableRecord
  2
0402_C_REF_70000_41
 70
0
 62
7
  6
CONTINUOUS
370
-3
390
F
  0
LAYER
  5
222
100
AcDbSymbolTableRecord
100
AcDbLayerTableRecord
  2
0402_C_REF_70000_42
 70
0
 62
7
  6
CONTINUOUS
370
-3
390
F
  0
LAYER
  5
223
100
AcDbSymbolTableRecord
100
AcDbLayerTableRecord
  2
0402_C_REF_70000_43
 70
0
 62
7
  6
CONTINUOUS
370
-3
390
F
  0
LAYER
  5
224
100
AcDbSymbolTableRecord
100
AcDbLayerTableRecord
  2
0402_C_REF_70000_5
 70
0
 62
7
  6
CONTINUOUS
370
-3
390
F
  0
LAYER
  5
225
100
AcDbSymbolTableRecord
100
AcDbLayerTableRecord
  2
0402_C_REF_70000_6
 70
0
 62
7
  6
CONTINUOUS
370
-3
390
F
  0
LAYER
  5
226
100
AcDbSymbolTableRecord
100
AcDbLayerTableRecord
  2
0402_C_REF_70000_7
 70
0
 62
7
  6
CONTINUOUS
370
-3
390
F
  0
LAYER
  5
227
100
AcDbSymbolTableRecord
100
AcDbLayerTableRecord
  2
0402_C_REF_70000_8
 70
0
 62
7
  6
CONTINUOUS
370
-3
390
F
  0
LAYER
  5
228
100
AcDbSymbolTableRecord
100
AcDbLayerTableRecord
  2
0402_C_REF_70000_9
 70
0
 62
7
  6
CONTINUOUS
370
-3
390
F
  0
LAYER
  5
229
100
AcDbSymbolTableRecord
100
AcDbLayerTableRecord
  2
0402_L_REF_55000
 70
0
 62
7
  6
CONTINUOUS
370
-3
390
F
  0
LAYER
  5
22A
100
AcDbSymbolTableRecord
100
AcDbLayerTableRecord
  2
0402_L_REF_55000_1
 70
0
 62
7
  6
CONTINUOUS
370
-3
390
F
  0
LAYER
  5
22B
100
AcDbSymbolTableRecord
100
AcDbLayerTableRecord
  2
0402_L_REF_55000_2
 70
0
 62
7
  6
CONTINUOUS
370
-3
390
F
  0
LAYER
  5
22C
100
AcDbSymbolTableRecord
100
AcDbLayerTableRecord
  2
0402_R_REF_30000
 70
0
 62
7
  6
CONTINUOUS
370
-3
390
F
  0
LAYER
  5
22D
100
AcDbSymbolTableRecord
100
AcDbLayerTableRecord
  2
0402_R_REF_30000_1
 70
0
 62
7
  6
CONTINUOUS
370
-3
390
F
  0
LAYER
  5
22E
100
AcDbSymbolTableRecord
100
AcDbLayerTableRecord
  2
0402_R_REF_30000_10
 70
0
 62
7
  6
CONTINUOUS
370
-3
390
F
  0
LAYER
  5
22F
100
AcDbSymbolTableRecord
100
AcDbLayerTableRecord
  2
0402_R_REF_30000_11
 70
0
 62
7
  6
CONTINUOUS
370
-3
390
F
  0
LAYER
  5
230
100
AcDbSymbolTableRecord
100
AcDbLayerTableRecord
  2
0402_R_REF_30000_12
 70
0
 62
7
  6
CONTINUOUS
370
-3
390
F
  0
LAYER
  5
231
100
AcDbSymbolTableRecord
100
AcDbLayerTableRecord
  2
0402_R_REF_30000_13
 70
0
 62
7
  6
CONTINUOUS
370
-3
390
F
  0
LAYER
  5
232
100
AcDbSymbolTableRecord
100
AcDbLayerTableRecord
  2
0402_R_REF_30000_14
 70
0
 62
7
  6
CONTINUOUS
370
-3
390
F
  0
LAYER
  5
233
100
AcDbSymbolTableRecord
100
AcDbLayerTableRecord
  2
0402_R_REF_30000_15
 70
0
 62
7
  6
CONTINUOUS
370
-3
390
F
  0
LAYER
  5
234
100
AcDbSymbolTableRecord
100
AcDbLayerTableRecord
  2
0402_R_REF_30000_16
 70
0
 62
7
  6
CONTINUOUS
370
-3
390
F
  0
LAYER
  5
235
100
AcDbSymbolTableRecord
100
AcDbLayerTableRecord
  2
0402_R_REF_30000_17
 70
0
 62
7
  6
CONTINUOUS
370
-3
390
F
  0
LAYER
  5
236
100
AcDbSymbolTableRecord
100
AcDbLayerTableRecord
  2
0402_R_REF_30000_18
 70
0
 62
7
  6
CONTINUOUS
370
-3
390
F
  0
LAYER
  5
237
100
AcDbSymbolTableRecord
100
AcDbLayerTableRecord
  2
0402_R_REF_30000_19
 70
0
 62
7
  6
CONTINUOUS
370
-3
390
F
  0
LAYER
  5
238
100
AcDbSymbolTableRecord
100
AcDbLayerTableRecord
  2
0402_R_REF_30000_2
 70
0
 62
7
  6
CONTINUOUS
370
-3
390
F
  0
LAYER
  5
239
100
AcDbSymbolTableRecord
100
AcDbLayerTableRecord
  2
0402_R_REF_30000_20
 70
0
 62
7
  6
CONTINUOUS
370
-3
390
F
  0
LAYER
  5
23A
100
AcDbSymbolTableRecord
100
AcDbLayerTableRecord
  2
0402_R_REF_30000_21
 70
0
 62
7
  6
CONTINUOUS
370
-3
390
F
  0
LAYER
  5
23B
100
AcDbSymbolTableRecord
100
AcDbLayerTableRecord
  2
0402_R_REF_30000_22
 70
0
 62
7
  6
CONTINUOUS
370
-3
390
F
  0
LAYER
  5
23C
100
AcDbSymbolTableRecord
100
AcDbLayerTableRecord
  2
0402_R_REF_30000_23
 70
0
 62
7
  6
CONTINUOUS
370
-3
390
F
  0
LAYER
  5
23D
100
AcDbSymbolTableRecord
100
AcDbLayerTableRecord
  2
0402_R_REF_30000_24
 70
0
 62
7
  6
CONTINUOUS
370
-3
390
F
  0
LAYER
  5
23E
100
AcDbSymbolTableRecord
100
AcDbLayerTableRecord
  2
0402_R_REF_30000_25
 70
0
 62
7
  6
CONTINUOUS
370
-3
390
F
  0
LAYER
  5
23F
100
AcDbSymbolTableRecord
100
AcDbLayerTableRecord
  2
0402_R_REF_30000_26
 70
0
 62
7
  6
CONTINUOUS
370
-3
390
F
  0
LAYER
  5
240
100
AcDbSymbolTableRecord
100
AcDbLayerTableRecord
  2
0402_R_REF_30000_27
 70
0
 62
7
  6
CONTINUOUS
370
-3
390
F
  0
LAYER
  5
241
100
AcDbSymbolTableRecord
100
AcDbLayerTableRecord
  2
0402_R_REF_30000_3
 70
0
 62
7
  6
CONTINUOUS
370
-3
390
F
  0
LAYER
  5
242
100
AcDbSymbolTableRecord
100
AcDbLayerTableRecord
  2
0402_R_REF_30000_4
 70
0
 62
7
  6
CONTINUOUS
370
-3
390
F
  0
LAYER
  5
243
100
AcDbSymbolTableRecord
100
AcDbLayerTableRecord
  2
0402_R_REF_30000_5
 70
0
 62
7
  6
CONTINUOUS
370
-3
390
F
  0
LAYER
  5
244
100
AcDbSymbolTableRecord
100
AcDbLayerTableRecord
  2
0402_R_REF_30000_6
 70
0
 62
7
  6
CONTINUOUS
370
-3
390
F
  0
LAYER
  5
245
100
AcDbSymbolTableRecord
100
AcDbLayerTableRecord
  2
0402_R_REF_30000_7
 70
0
 62
7
  6
CONTINUOUS
370
-3
390
F
  0
LAYER
  5
246
100
AcDbSymbolTableRecord
100
AcDbLayerTableRecord
  2
0402_R_REF_30000_8
 70
0
 62
7
  6
CONTINUOUS
370
-3
390
F
  0
LAYER
  5
247
100
AcDbSymbolTableRecord
100
AcDbLayerTableRecord
  2
0402_R_REF_30000_9
 70
0
 62
7
  6
CONTINUOUS
370
-3
390
F
  0
LAYER
  5
248
100
AcDbSymbolTableRecord
100
AcDbLayerTableRecord
  2
0603_C_REF_90000
 70
0
 62
7
  6
CONTINUOUS
370
-3
390
F
  0
LAYER
  5
249
100
AcDbSymbolTableRecord
100
AcDbLayerTableRecord
  2
0603_C_REF_90000_1
 70
0
 62
7
  6
CONTINUOUS
370
-3
390
F
  0
LAYER
  5
24A
100
AcDbSymbolTableRecord
100
AcDbLayerTableRecord
  2
0603_C_REF_90000_10
 70
0
 62
7
  6
CONTINUOUS
370
-3
390
F
  0
LAYER
  5
24B
100
AcDbSymbolTableRecord
100
AcDbLayerTableRecord
  2
0603_C_REF_90000_11
 70
0
 62
7
  6
CONTINUOUS
370
-3
390
F
  0
LAYER
  5
24C
100
AcDbSymbolTableRecord
100
AcDbLayerTableRecord
  2
0603_C_REF_90000_12
 70
0
 62
7
  6
CONTINUOUS
370
-3
390
F
  0
LAYER
  5
24D
100
AcDbSymbolTableRecord
100
AcDbLayerTableRecord
  2
0603_C_REF_90000_2
 70
0
 62
7
  6
CONTINUOUS
370
-3
390
F
  0
LAYER
  5
24E
100
AcDbSymbolTableRecord
100
AcDbLayerTableRecord
  2
0603_C_REF_90000_3
 70
0
 62
7
  6
CONTINUOUS
370
-3
390
F
  0
LAYER
  5
24F
100
AcDbSymbolTableRecord
100
AcDbLayerTableRecord
  2
0603_C_REF_90000_4
 70
0
 62
7
  6
CONTINUOUS
370
-3
390
F
  0
LAYER
  5
250
100
AcDbSymbolTableRecord
100
AcDbLayerTableRecord
  2
0603_C_REF_90000_5
 70
0
 62
7
  6
CONTINUOUS
370
-3
390
F
  0
LAYER
  5
251
100
AcDbSymbolTableRecord
100
AcDbLayerTableRecord
  2
0603_C_REF_90000_6
 70
0
 62
7
  6
CONTINUOUS
370
-3
390
F
  0
LAYER
  5
252
100
AcDbSymbolTableRecord
100
AcDbLayerTableRecord
  2
0603_C_REF_90000_7
 70
0
 62
7
  6
CONTINUOUS
370
-3
390
F
  0
LAYER
  5
253
100
AcDbSymbolTableRecord
100
AcDbLayerTableRecord
  2
0603_C_REF_90000_8
 70
0
 62
7
  6
CONTINUOUS
370
-3
390
F
  0
LAYER
  5
254
100
AcDbSymbolTableRecord
100
AcDbLayerTableRecord
  2
0603_C_REF_90000_9
 70
0
 62
7
  6
CONTINUOUS
370
-3
390
F
  0
LAYER
  5
255
100
AcDbSymbolTableRecord
100
AcDbLayerTableRecord
  2
0603_C_WAVE_90000
 70
0
 62
7
  6
CONTINUOUS
370
-3
390
F
  0
LAYER
  5
256
100
AcDbSymbolTableRecord
100
AcDbLayerTableRecord
  2
0603_C_WAVE_90000_1
 70
0
 62
7
  6
CONTINUOUS
370
-3
390
F
  0
LAYER
  5
257
100
AcDbSymbolTableRecord
100
AcDbLayerTableRecord
  2
0603_C_WAVE_90000_2
 70
0
 62
7
  6
CONTINUOUS
370
-3
390
F
  0
LAYER
  5
258
100
AcDbSymbolTableRecord
100
AcDbLayerTableRecord
  2
0603_C_WAVE_90000_3
 70
0
 62
7
  6
CONTINUOUS
370
-3
390
F
  0
LAYER
  5
259
100
AcDbSymbolTableRecord
100
AcDbLayerTableRecord
  2
0603_R_REF_55000
 70
0
 62
7
  6
CONTINUOUS
370
-3
390
F
  0
LAYER
  5
25A
100
AcDbSymbolTableRecord
100
AcDbLayerTableRecord
  2
0603_R_REF_55000_1
 70
0
 62
7
  6
CONTINUOUS
370
-3
390
F
  0
LAYER
  5
25B
100
AcDbSymbolTableRecord
100
AcDbLayerTableRecord
  2
0603_R_REF_55000_2
 70
0
 62
7
  6
CONTINUOUS
370
-3
390
F
  0
LAYER
  5
25C
100
AcDbSymbolTableRecord
100
AcDbLayerTableRecord
  2
0603_R_WAVE_55000
 70
0
 62
7
  6
CONTINUOUS
370
-3
390
F
  0
LAYER
  5
25D
100
AcDbSymbolTableRecord
100
AcDbLayerTableRecord
  2
0603_R_WAVE_55000_1
 70
0
 62
7
  6
CONTINUOUS
370
-3
390
F
  0
LAYER
  5
25E
100
AcDbSymbolTableRecord
100
AcDbLayerTableRecord
  2
0603_R_WAVE_55000_2
 70
0
 62
7
  6
CONTINUOUS
370
-3
390
F
  0
LAYER
  5
25F
100
AcDbSymbolTableRecord
100
AcDbLayerTableRecord
  2
0603_R_WAVE_55000_3
 70
0
 62
7
  6
CONTINUOUS
370
-3
390
F
  0
LAYER
  5
260
100
AcDbSymbolTableRecord
100
AcDbLayerTableRecord
  2
0603_R_WAVE_55000_4
 70
0
 62
7
  6
CONTINUOUS
370
-3
390
F
  0
LAYER
  5
261
100
AcDbSymbolTableRecord
100
AcDbLayerTableRecord
  2
06___PRT_ALL_SURFS
 70
0
 62
7
  6
CONTINUOUS
370
-3
390
F
  0
LAYER
  5
262
100
AcDbSymbolTableRecord
100
AcDbLayerTableRecord
  2
06___PRT_ALL_SURFS_1
 70
0
 62
7
  6
CONTINUOUS
370
-3
390
F
  0
LAYER
  5
263
100
AcDbSymbolTableRecord
100
AcDbLayerTableRecord
  2
06___PRT_ALL_SURFS_10
 70
0
 62
7
  6
CONTINUOUS
370
-3
390
F
  0
LAYER
  5
264
100
AcDbSymbolTableRecord
100
AcDbLayerTableRecord
  2
06___PRT_ALL_SURFS_11
 70
0
 62
7
  6
CONTINUOUS
370
-3
390
F
  0
LAYER
  5
265
100
AcDbSymbolTableRecord
100
AcDbLayerTableRecord
  2
06___PRT_ALL_SURFS_13
 70
0
 62
7
  6
CONTINUOUS
370
-3
390
F
  0
LAYER
  5
266
100
AcDbSymbolTableRecord
100
AcDbLayerTableRecord
  2
06___PRT_ALL_SURFS_14
 70
0
 62
7
  6
CONTINUOUS
370
-3
390
F
  0
LAYER
  5
267
100
AcDbSymbolTableRecord
100
AcDbLayerTableRecord
  2
06___PRT_ALL_SURFS_16
 70
0
 62
7
  6
CONTINUOUS
370
-3
390
F
  0
LAYER
  5
268
100
AcDbSymbolTableRecord
100
AcDbLayerTableRecord
  2
06___PRT_ALL_SURFS_17
 70
0
 62
7
  6
CONTINUOUS
370
-3
390
F
  0
LAYER
  5
269
100
AcDbSymbolTableRecord
100
AcDbLayerTableRecord
  2
06___PRT_ALL_SURFS_19
 70
0
 62
7
  6
CONTINUOUS
370
-3
390
F
  0
LAYER
  5
26A
100
AcDbSymbolTableRecord
100
AcDbLayerTableRecord
  2
06___PRT_ALL_SURFS_2
 70
0
 62
7
  6
CONTINUOUS
370
-3
390
F
  0
LAYER
  5
26B
100
AcDbSymbolTableRecord
100
AcDbLayerTableRecord
  2
06___PRT_ALL_SURFS_20
 70
0
 62
7
  6
CONTINUOUS
370
-3
390
F
  0
LAYER
  5
26C
100
AcDbSymbolTableRecord
100
AcDbLayerTableRecord
  2
06___PRT_ALL_SURFS_21
 70
0
 62
7
  6
CONTINUOUS
370
-3
390
F
  0
LAYER
  5
26D
100
AcDbSymbolTableRecord
100
AcDbLayerTableRecord
  2
06___PRT_ALL_SURFS_22
 70
0
 62
7
  6
CONTINUOUS
370
-3
390
F
  0
LAYER
  5
26E
100
AcDbSymbolTableRecord
100
AcDbLayerTableRecord
  2
06___PRT_ALL_SURFS_23
 70
0
 62
7
  6
CONTINUOUS
370
-3
390
F
  0
LAYER
  5
26F
100
AcDbSymbolTableRecord
100
AcDbLayerTableRecord
  2
06___PRT_ALL_SURFS_24
 70
0
 62
7
  6
CONTINUOUS
370
-3
390
F
  0
LAYER
  5
270
100
AcDbSymbolTableRecord
100
AcDbLayerTableRecord
  2
06___PRT_ALL_SURFS_25
 70
0
 62
7
  6
CONTINUOUS
370
-3
390
F
  0
LAYER
  5
271
100
AcDbSymbolTableRecord
100
AcDbLayerTableRecord
  2
06___PRT_ALL_SURFS_26
 70
0
 62
7
  6
CONTINUOUS
370
-3
390
F
  0
LAYER
  5
272
100
AcDbSymbolTableRecord
100
AcDbLayerTableRecord
  2
06___PRT_ALL_SURFS_29
 70
0
 62
7
  6
CONTINUOUS
370
-3
390
F
  0
LAYER
  5
273
100
AcDbSymbolTableRecord
100
AcDbLayerTableRecord
  2
06___PRT_ALL_SURFS_3
 70
0
 62
7
  6
CONTINUOUS
370
-3
390
F
  0
LAYER
  5
274
100
AcDbSymbolTableRecord
100
AcDbLayerTableRecord
  2
06___PRT_ALL_SURFS_32
 70
0
 62
7
  6
CONTINUOUS
370
-3
390
F
  0
LAYER
  5
275
100
AcDbSymbolTableRecord
100
AcDbLayerTableRecord
  2
06___PRT_ALL_SURFS_4
 70
0
 62
7
  6
CONTINUOUS
370
-3
390
F
  0
LAYER
  5
276
100
AcDbSymbolTableRecord
100
AcDbLayerTableRecord
  2
06___PRT_ALL_SURFS_6
 70
0
 62
7
  6
CONTINUOUS
370
-3
390
F
  0
LAYER
  5
277
100
AcDbSymbolTableRecord
100
AcDbLayerTableRecord
  2
06___PRT_ALL_SURFS_7
 70
0
 62
7
  6
CONTINUOUS
370
-3
390
F
  0
LAYER
  5
278
100
AcDbSymbolTableRecord
100
AcDbLayerTableRecord
  2
06___PRT_ALL_SURFS_8
 70
0
 62
7
  6
CONTINUOUS
370
-3
390
F
  0
LAYER
  5
279
100
AcDbSymbolTableRecord
100
AcDbLayerTableRecord
  2
06___PRT_ALL_SURFS_9
 70
0
 62
7
  6
CONTINUOUS
370
-3
390
F
  0
LAYER
  5
27A
100
AcDbSymbolTableRecord
100
AcDbLayerTableRecord
  2
0805_C_WAVE_145000
 70
0
 62
7
  6
CONTINUOUS
370
-3
390
F
  0
LAYER
  5
27B
100
AcDbSymbolTableRecord
100
AcDbLayerTableRecord
  2
0805_L_REF_145000
 70
0
 62
7
  6
CONTINUOUS
370
-3
390
F
  0
LAYER
  5
27C
100
AcDbSymbolTableRecord
100
AcDbLayerTableRecord
  2
0805_R_REF_60000
 70
0
 62
7
  6
CONTINUOUS
370
-3
390
F
  0
LAYER
  5
27D
100
AcDbSymbolTableRecord
100
AcDbLayerTableRecord
  2
0805_R_REF_60000_1
 70
0
 62
7
  6
CONTINUOUS
370
-3
390
F
  0
LAYER
  5
27E
100
AcDbSymbolTableRecord
100
AcDbLayerTableRecord
  2
0805_R_WAVE_60000
 70
0
 62
7
  6
CONTINUOUS
370
-3
390
F
  0
LAYER
  5
27F
100
AcDbSymbolTableRecord
100
AcDbLayerTableRecord
  2
1206_C_REF_180000
 70
0
 62
7
  6
CONTINUOUS
370
-3
390
F
  0
LAYER
  5
280
100
AcDbSymbolTableRecord
100
AcDbLayerTableRecord
  2
1206_C_WAVE_180000
 70
0
 62
7
  6
CONTINUOUS
370
-3
390
F
  0
LAYER
  5
281
100
AcDbSymbolTableRecord
100
AcDbLayerTableRecord
  2
1206_C_WAVE_180000_1
 70
0
 62
7
  6
CONTINUOUS
370
-3
390
F
  0
LAYER
  5
282
100
AcDbSymbolTableRecord
100
AcDbLayerTableRecord
  2
1206_C_WAVE_180000_2
 70
0
 62
7
  6
CONTINUOUS
370
-3
390
F
  0
LAYER
  5
283
100
AcDbSymbolTableRecord
100
AcDbLayerTableRecord
  2
1206_R_WAVE_65000
 70
0
 62
7
  6
CONTINUOUS
370
-3
390
F
  0
LAYER
  5
284
100
AcDbSymbolTableRecord
100
AcDbLayerTableRecord
  2
1206_R_WAVE_65000_1
 70
0
 62
7
  6
CONTINUOUS
370
-3
390
F
  0
LAYER
  5
285
100
AcDbSymbolTableRecord
100
AcDbLayerTableRecord
  2
2125-CC-RF-VIMAR_110000
 70
0
 62
7
  6
CONTINUOUS
370
-3
390
F
  0
LAYER
  5
286
100
AcDbSymbolTableRecord
100
AcDbLayerTableRecord
  2
2125-R1-RF-VIMAR_60000
 70
0
 62
7
  6
CONTINUOUS
370
-3
390
F
  0
LAYER
  5
287
100
AcDbSymbolTableRecord
100
AcDbLayerTableRecord
  2
2125-R1-RF-VIMAR_60000_1
 70
0
 62
7
  6
CONTINUOUS
370
-3
390
F
  0
LAYER
  5
288
100
AcDbSymbolTableRecord
100
AcDbLayerTableRecord
  2
3216-CF-RF-VIMAR_100000
 70
0
 62
7
  6
CONTINUOUS
370
-3
390
F
  0
LAYER
  5
289
100
AcDbSymbolTableRecord
100
AcDbLayerTableRecord
  2
3216-CF-RF-VIMAR_100000_1
 70
0
 62
7
  6
CONTINUOUS
370
-3
390
F
  0
LAYER
  5
28A
100
AcDbSymbolTableRecord
100
AcDbLayerTableRecord
  2
43000958A0
 70
0
 62
7
  6
CONTINUOUS
370
-3
390
F
  0
LAYER
  5
28B
100
AcDbSymbolTableRecord
100
AcDbLayerTableRecord
  2
43000959A0
 70
0
 62
7
  6
CONTINUOUS
370
-3
390
F
  0
LAYER
  5
28C
100
AcDbSymbolTableRecord
100
AcDbLayerTableRecord
  2
43900958B0
 70
0
 62
7
  6
CONTINUOUS
370
-3
390
F
  0
LAYER
  5
28D
100
AcDbSymbolTableRecord
100
AcDbLayerTableRecord
  2
43900959B0
 70
0
 62
7
  6
CONTINUOUS
370
-3
390
F
  0
LAYER
  5
28E
100
AcDbSymbolTableRecord
100
AcDbLayerTableRecord
  2
ASSI
 70
0
 62
7
  6
CONTINUOUS
370
-3
390
F
  0
LAYER
  5
28F
100
AcDbSymbolTableRecord
100
AcDbLayerTableRecord
  2
AX-R200-2-VIMAR_550000
 70
0
 62
7
  6
CONTINUOUS
370
-3
390
F
  0
LAYER
  5
290
100
AcDbSymbolTableRecord
100
AcDbLayerTableRecord
  2
BZ-SMD-12X12X3_0_300000
 70
0
 62
7
  6
CONTINUOUS
370
-3
390
F
  0
LAYER
  5
291
100
AcDbSymbolTableRecord
100
AcDbLayerTableRecord
  2
CAP-E-SMD-6_6-6_3-8_0_810000
 70
0
 62
7
  6
CONTINUOUS
370
-3
390
F
  0
LAYER
  5
292
100
AcDbSymbolTableRecord
100
AcDbLayerTableRecord
  2
CAP-E-SMD-8_3-8_3-10_5_1050000
 70
0
 62
7
  6
CONTINUOUS
370
-3
390
F
  0
LAYER
  5
293
100
AcDbSymbolTableRecord
100
AcDbLayerTableRecord
  2
CAP-E-SMD-8_3-8_3-10_5_105000_1
 70
0
 62
7
  6
CONTINUOUS
370
-3
390
F
  0
LAYER
  5
294
100
AcDbSymbolTableRecord
100
AcDbLayerTableRecord
  2
CAPC1005X60N_60000
 70
0
 62
7
  6
CONTINUOUS
370
-3
390
F
  0
LAYER
  5
295
100
AcDbSymbolTableRecord
100
AcDbLayerTableRecord
  2
CAPC1005X60N_60000_1
 70
0
 62
7
  6
CONTINUOUS
370
-3
390
F
  0
LAYER
  5
296
100
AcDbSymbolTableRecord
100
AcDbLayerTableRecord
  2
CAPC1005X60N_60000_2
 70
0
 62
7
  6
CONTINUOUS
370
-3
390
F
  0
LAYER
  5
297
100
AcDbSymbolTableRecord
100
AcDbLayerTableRecord
  2
CAPC1005X60N_60000_3
 70
0
 62
7
  6
CONTINUOUS
370
-3
390
F
  0
LAYER
  5
298
100
AcDbSymbolTableRecord
100
AcDbLayerTableRecord
  2
CAPC1005X60N_60000_4
 70
0
 62
7
  6
CONTINUOUS
370
-3
390
F
  0
LAYER
  5
299
100
AcDbSymbolTableRecord
100
AcDbLayerTableRecord
  2
CAPC1005X60N_60000_5
 70
0
 62
7
  6
CONTINUOUS
370
-3
390
F
  0
LAYER
  5
29A
100
AcDbSymbolTableRecord
100
AcDbLayerTableRecord
  2
CAPC1005X60N_60000_6
 70
0
 62
7
  6
CONTINUOUS
370
-3
390
F
  0
LAYER
  5
29B
100
AcDbSymbolTableRecord
100
AcDbLayerTableRecord
  2
CAPC1005X60N_60000_7
 70
0
 62
7
  6
CONTINUOUS
370
-3
390
F
  0
LAYER
  5
29C
100
AcDbSymbolTableRecord
100
AcDbLayerTableRecord
  2
CAPC1608N_80000
 70
0
 62
7
  6
CONTINUOUS
370
-3
390
F
  0
LAYER
  5
29D
100
AcDbSymbolTableRecord
100
AcDbLayerTableRecord
  2
CAPC1608N_80000_1
 70
0
 62
7
  6
CONTINUOUS
370
-3
390
F
  0
LAYER
  5
29E
100
AcDbSymbolTableRecord
100
AcDbLayerTableRecord
  2
CAPC1608N_80000_10
 70
0
 62
7
  6
CONTINUOUS
370
-3
390
F
  0
LAYER
  5
29F
100
AcDbSymbolTableRecord
100
AcDbLayerTableRecord
  2
CAPC1608N_80000_2
 70
0
 62
7
  6
CONTINUOUS
370
-3
390
F
  0
LAYER
  5
2A0
100
AcDbSymbolTableRecord
100
AcDbLayerTableRecord
  2
CAPC1608N_80000_3
 70
0
 62
7
  6
CONTINUOUS
370
-3
390
F
  0
LAYER
  5
2A1
100
AcDbSymbolTableRecord
100
AcDbLayerTableRecord
  2
CAPC1608N_80000_4
 70
0
 62
7
  6
CONTINUOUS
370
-3
390
F
  0
LAYER
  5
2A2
100
AcDbSymbolTableRecord
100
AcDbLayerTableRecord
  2
CAPC1608N_80000_5
 70
0
 62
7
  6
CONTINUOUS
370
-3
390
F
  0
LAYER
  5
2A3
100
AcDbSymbolTableRecord
100
AcDbLayerTableRecord
  2
CAPC1608N_80000_6
 70
0
 62
7
  6
CONTINUOUS
370
-3
390
F
  0
LAYER
  5
2A4
100
AcDbSymbolTableRecord
100
AcDbLayerTableRecord
  2
CAPC1608N_80000_7
 70
0
 62
7
  6
CONTINUOUS
370
-3
390
F
  0
LAYER
  5
2A5
100
AcDbSymbolTableRecord
100
AcDbLayerTableRecord
  2
CAPC1608N_80000_8
 70
0
 62
7
  6
CONTINUOUS
370
-3
390
F
  0
LAYER
  5
2A6
100
AcDbSymbolTableRecord
100
AcDbLayerTableRecord
  2
CAPC1608N_80000_9
 70
0
 62
7
  6
CONTINUOUS
370
-3
390
F
  0
LAYER
  5
2A7
100
AcDbSymbolTableRecord
100
AcDbLayerTableRecord
  2
CN-SOCKET-SMD2_0-2_430000
 70
0
 62
7
  6
CONTINUOUS
370
-3
390
F
  0
LAYER
  5
2A8
100
AcDbSymbolTableRecord
100
AcDbLayerTableRecord
  2
CN1-TP10_SMD-VIMAR_01_10000
 70
0
 62
7
  6
CONTINUOUS
370
-3
390
F
  0
LAYER
  5
2A9
100
AcDbSymbolTableRecord
100
AcDbLayerTableRecord
  2
CN1-TP10_SMD-VIMAR_01_10000_1
 70
0
 62
7
  6
CONTINUOUS
370
-3
390
F
  0
LAYER
  5
2AA
100
AcDbSymbolTableRecord
100
AcDbLayerTableRecord
  2
CN1-TP10_SMD-VIMAR_01_10000_2
 70
0
 62
7
  6
CONTINUOUS
370
-3
390
F
  0
LAYER
  5
2AB
100
AcDbSymbolTableRecord
100
AcDbLayerTableRecord
  2
CN1-TP10_SMD-VIMAR_01_10000_3
 70
0
 62
7
  6
CONTINUOUS
370
-3
390
F
  0
LAYER
  5
2AC
100
AcDbSymbolTableRecord
100
AcDbLayerTableRecord
  2
CN_M_THT_P5_R1_P2_TET_1600000
 70
0
 62
7
  6
CONTINUOUS
370
-3
390
F
  0
LAYER
  5
2AD
100
AcDbSymbolTableRecord
100
AcDbLayerTableRecord
  2
CN_M_THT_P5_R1_P3_TET_1600000
 70
0
 62
7
  6
CONTINUOUS
370
-3
390
F
  0
LAYER
  5
2AE
100
AcDbSymbolTableRecord
100
AcDbLayerTableRecord
  2
COLOR1
 70
0
 62
7
  6
CONTINUOUS
370
-3
390
F
  0
LAYER
  5
2AF
100
AcDbSymbolTableRecord
100
AcDbLayerTableRecord
  2
COLOR14
 70
0
 62
7
  6
CONTINUOUS
370
-3
390
F
  0
LAYER
  5
2B0
100
AcDbSymbolTableRecord
100
AcDbLayerTableRecord
  2
COLOR15
 70
0
 62
7
  6
CONTINUOUS
370
-3
390
F
  0
LAYER
  5
2B1
100
AcDbSymbolTableRecord
100
AcDbLayerTableRecord
  2
COLOR43
 70
0
 62
7
  6
CONTINUOUS
370
-3
390
F
  0
LAYER
  5
2B2
100
AcDbSymbolTableRecord
100
AcDbLayerTableRecord
  2
COLOR6
 70
0
 62
7
  6
CONTINUOUS
370
-3
390
F
  0
LAYER
  5
2B3
100
AcDbSymbolTableRecord
100
AcDbLayerTableRecord
  2
COLOR69
 70
0
 62
7
  6
CONTINUOUS
370
-3
390
F
  0
LAYER
  5
2B4
100
AcDbSymbolTableRecord
100
AcDbLayerTableRecord
  2
COLORE_MATERIALE
 70
0
 62
7
  6
CONTINUOUS
370
-3
390
F
  0
LAYER
  5
2B5
100
AcDbSymbolTableRecord
100
AcDbLayerTableRecord
  2
COORDINATE
 70
0
 62
7
  6
CONTINUOUS
370
-3
390
F
  0
LAYER
  5
2B6
100
AcDbSymbolTableRecord
100
AcDbLayerTableRecord
  2
COORD_ORIGINE
 70
0
 62
7
  6
CONTINUOUS
370
-3
390
F
  0
LAYER
  5
2B7
100
AcDbSymbolTableRecord
100
AcDbLayerTableRecord
  2
COPY_PUBLISH
 70
0
 62
7
  6
CONTINUOUS
370
-3
390
F
  0
LAYER
  5
2B8
100
AcDbSymbolTableRecord
100
AcDbLayerTableRecord
  2
COSMETICI
 70
0
 62
7
  6
CONTINUOUS
370
-3
390
F
  0
LAYER
  5
2B9
100
AcDbSymbolTableRecord
100
AcDbLayerTableRecord
  2
CP-CE6-RF_820000
 70
0
 62
7
  6
CONTINUOUS
370
-3
390
F
  0
LAYER
  5
2BA
100
AcDbSymbolTableRecord
100
AcDbLayerTableRecord
  2
CP-CE6-RF_820000_1
 70
0
 62
7
  6
CONTINUOUS
370
-3
390
F
  0
LAYER
  5
2BB
100
AcDbSymbolTableRecord
100
AcDbLayerTableRecord
  2
CP-CE9-RF-VIMAR_1080000
 70
0
 62
7
  6
CONTINUOUS
370
-3
390
F
  0
LAYER
  5
2BC
100
AcDbSymbolTableRecord
100
AcDbLayerTableRecord
  2
CP-CE9-RF-VIMAR_1080000_1
 70
0
 62
7
  6
CONTINUOUS
370
-3
390
F
  0
LAYER
  5
2BD
100
AcDbSymbolTableRecord
100
AcDbLayerTableRecord
  2
CP-DO-214AC-D-VIMAR_240000
 70
0
 62
7
  6
CONTINUOUS
370
-3
390
F
  0
LAYER
  5
2BE
100
AcDbSymbolTableRecord
100
AcDbLayerTableRecord
  2
CP-DO-214AC-D-VIMAR_240000_1
 70
0
 62
7
  6
CONTINUOUS
370
-3
390
F
  0
LAYER
  5
2BF
100
AcDbSymbolTableRecord
100
AcDbLayerTableRecord
  2
CURVE
 70
0
 62
7
  6
CONTINUOUS
370
-3
390
F
  0
LAYER
  5
2C0
100
AcDbSymbolTableRecord
100
AcDbLayerTableRecord
  2
CURVE_LED_TASTO
 70
0
 62
7
  6
CONTINUOUS
370
-3
390
F
  0
LAYER
  5
2C1
100
AcDbSymbolTableRecord
100
AcDbLayerTableRecord
  2
DATAMATRIX_RESIST_10000
 70
0
 62
7
  6
CONTINUOUS
370
-3
390
F
  0
LAYER
  5
2C2
100
AcDbSymbolTableRecord
100
AcDbLayerTableRecord
  2
DATAMATRIX_RESIST_10000_1
 70
0
 62
7
  6
CONTINUOUS
370
-3
390
F
  0
LAYER
  5
2C3
100
AcDbSymbolTableRecord
100
AcDbLayerTableRecord
  2
DB-SMD-ABS_145000
 70
0
 62
7
  6
CONTINUOUS
370
-3
390
F
  0
LAYER
  5
2C4
100
AcDbSymbolTableRecord
100
AcDbLayerTableRecord
  2
DL_PLCC-6_200000
 70
0
 62
7
  6
CONTINUOUS
370
-3
390
F
  0
LAYER
  5
2C5
100
AcDbSymbolTableRecord
100
AcDbLayerTableRecord
  2
DL_RGB_1_6-1_6-0_5MM_50000
 70
0
 62
7
  6
CONTINUOUS
370
-3
390
F
  0
LAYER
  5
2C6
100
AcDbSymbolTableRecord
100
AcDbLayerTableRecord
  2
DO-214AC_230000
 70
0
 62
7
  6
CONTINUOUS
370
-3
390
F
  0
LAYER
  5
2C7
100
AcDbSymbolTableRecord
100
AcDbLayerTableRecord
  2
DRAFT
 70
0
 62
7
  6
CONTINUOUS
370
-3
390
F
  0
LAYER
  5
2C8
100
AcDbSymbolTableRecord
100
AcDbLayerTableRecord
  2
E2_MARK_10000
 70
0
 62
7
  6
CONTINUOUS
370
-3
390
F
  0
LAYER
  5
2C9
100
AcDbSymbolTableRecord
100
AcDbLayerTableRecord
  2
FIDUCIAL_1_2_MM_RUOTATO_45_1000
 70
0
 62
7
  6
CONTINUOUS
370
-3
390
F
  0
LAYER
  5
2CA
100
AcDbSymbolTableRecord
100
AcDbLayerTableRecord
  2
FIDUCIAL_1_2_MM_RUOTATO_45_10_1
 70
0
 62
7
  6
CONTINUOUS
370
-3
390
F
  0
LAYER
  5
2CB
100
AcDbSymbolTableRecord
100
AcDbLayerTableRecord
  2
FIDUCIAL_1_2_MM_RUOTATO_45_10_2
 70
0
 62
7
  6
CONTINUOUS
370
-3
390
F
  0
LAYER
  5
2CC
100
AcDbSymbolTableRecord
100
AcDbLayerTableRecord
  2
FIDUCIAL_1_2_MM_RUOTATO_45_10_3
 70
0
 62
7
  6
CONTINUOUS
370
-3
390
F
  0
LAYER
  5
2CD
100
AcDbSymbolTableRecord
100
AcDbLayerTableRecord
  2
GEOMETRIA_SOLIDA
 70
0
 62
7
  6
CONTINUOUS
370
-3
390
F
  0
LAYER
  5
2CE
100
AcDbSymbolTableRecord
100
AcDbLayerTableRecord
  2
GEOMETRIA_SOLIDA_1
 70
0
 62
7
  6
CONTINUOUS
370
-3
390
F
  0
LAYER
  5
2CF
100
AcDbSymbolTableRecord
100
AcDbLayerTableRecord
  2
GEOMETRIA_SOLIDA_2
 70
0
 62
7
  6
CONTINUOUS
370
-3
390
F
  0
LAYER
  5
2D0
100
AcDbSymbolTableRecord
100
AcDbLayerTableRecord
  2
GEOMETRIA_SOLIDA_3
 70
0
 62
7
  6
CONTINUOUS
370
-3
390
F
  0
LAYER
  5
2D1
100
AcDbSymbolTableRecord
100
AcDbLayerTableRecord
  2
GEOMETRIA_SOLIDA_4
 70
0
 62
7
  6
CONTINUOUS
370
-3
390
F
  0
LAYER
  5
2D2
100
AcDbSymbolTableRecord
100
AcDbLayerTableRecord
  2
GEOMETRIA_SOLIDA_5
 70
0
 62
7
  6
CONTINUOUS
370
-3
390
F
  0
LAYER
  5
2D3
100
AcDbSymbolTableRecord
100
AcDbLayerTableRecord
  2
GEOMETRIA_SOLIDA_6
 70
0
 62
7
  6
CONTINUOUS
370
-3
390
F
  0
LAYER
  5
2D4
100
AcDbSymbolTableRecord
100
AcDbLayerTableRecord
  2
GEOMETRIA_SOLIDA_7
 70
0
 62
7
  6
CONTINUOUS
370
-3
390
F
  0
LAYER
  5
2D5
100
AcDbSymbolTableRecord
100
AcDbLayerTableRecord
  2
GEOMETRIA_SOLIDA_8
 70
0
 62
7
  6
CONTINUOUS
370
-3
390
F
  0
LAYER
  5
2D6
100
AcDbSymbolTableRecord
100
AcDbLayerTableRecord
  2
IMPORT_IGES
 70
0
 62
7
  6
CONTINUOUS
370
-3
390
F
  0
LAYER
  5
2D7
100
AcDbSymbolTableRecord
100
AcDbLayerTableRecord
  2
IND-CHIP-0603-H1_0_REF_100000
 70
0
 62
7
  6
CONTINUOUS
370
-3
390
F
  0
LAYER
  5
2D8
100
AcDbSymbolTableRecord
100
AcDbLayerTableRecord
  2
IND-CHIP-0805_H1_1_REF_110000
 70
0
 62
7
  6
CONTINUOUS
370
-3
390
F
  0
LAYER
  5
2D9
100
AcDbSymbolTableRecord
100
AcDbLayerTableRecord
  2
IND-CHIP-0805_H1_1_REF_110000_1
 70
0
 62
7
  6
CONTINUOUS
370
-3
390
F
  0
LAYER
  5
2DA
100
AcDbSymbolTableRecord
100
AcDbLayerTableRecord
  2
IND-PS-10_0-6_0_600000
 70
0
 62
7
  6
CONTINUOUS
370
-3
390
F
  0
LAYER
  5
2DB
100
AcDbSymbolTableRecord
100
AcDbLayerTableRecord
  2
IND-RAD-6_0-8_5-2_5-0_5_850000
 70
0
 62
7
  6
CONTINUOUS
370
-3
390
F
  0
LAYER
  5
2DC
100
AcDbSymbolTableRecord
100
AcDbLayerTableRecord
  2
INDC2012X130N_130000
 70
0
 62
7
  6
CONTINUOUS
370
-3
390
F
  0
LAYER
  5
2DD
100
AcDbSymbolTableRecord
100
AcDbLayerTableRecord
  2
INDC2012X130N_130000_1
 70
0
 62
7
  6
CONTINUOUS
370
-3
390
F
  0
LAYER
  5
2DE
100
AcDbSymbolTableRecord
100
AcDbLayerTableRecord
  2
INTF_1
 70
0
 62
7
  6
CONTINUOUS
370
-3
390
F
  0
LAYER
  5
2DF
100
AcDbSymbolTableRecord
100
AcDbLayerTableRecord
  2
INTF_11
 70
0
 62
7
  6
CONTINUOUS
370
-3
390
F
  0
LAYER
  5
2E0
100
AcDbSymbolTableRecord
100
AcDbLayerTableRecord
  2
INTF_2
 70
0
 62
7
  6
CONTINUOUS
370
-3
390
F
  0
LAYER
  5
2E1
100
AcDbSymbolTableRecord
100
AcDbLayerTableRecord
  2
K_THT_TE_RT33LA05_1570000
 70
0
 62
7
  6
CONTINUOUS
370
-3
390
F
  0
LAYER
  5
2E2
100
AcDbSymbolTableRecord
100
AcDbLayerTableRecord
  2
LEDC2812X90N_SIDE_90000
 70
0
 62
7
  6
CONTINUOUS
370
-3
390
F
  0
LAYER
  5
2E3
100
AcDbSymbolTableRecord
100
AcDbLayerTableRecord
  2
LEDC2812X90N_SIDE_90000_1
 70
0
 62
7
  6
CONTINUOUS
370
-3
390
F
  0
LAYER
  5
2E4
100
AcDbSymbolTableRecord
100
AcDbLayerTableRecord
  2
LEDC2812X90N_SIDE_90000_2
 70
0
 62
7
  6
CONTINUOUS
370
-3
390
F
  0
LAYER
  5
2E5
100
AcDbSymbolTableRecord
100
AcDbLayerTableRecord
  2
LOGO_RESIST-RESTYLING_10000
 70
0
 62
7
  6
CONTINUOUS
370
-3
390
F
  0
LAYER
  5
2E6
100
AcDbSymbolTableRecord
100
AcDbLayerTableRecord
  2
MM3-SOT-89-RF-VIMAR_150000
 70
0
 62
7
  6
CONTINUOUS
370
-3
390
F
  0
LAYER
  5
2E7
100
AcDbSymbolTableRecord
100
AcDbLayerTableRecord
  2
MM4-ABS-VIMAR_180000
 70
0
 62
7
  6
CONTINUOUS
370
-3
390
F
  0
LAYER
  5
2E8
100
AcDbSymbolTableRecord
100
AcDbLayerTableRecord
  2
MM4-SWITCH-10-VIMAR_1300000
 70
0
 62
7
  6
CONTINUOUS
370
-3
390
F
  0
LAYER
  5
2E9
100
AcDbSymbolTableRecord
100
AcDbLayerTableRecord
  2
MM4-X-9-VIMAR_50000
 70
0
 62
7
  6
CONTINUOUS
370
-3
390
F
  0
LAYER
  5
2EA
100
AcDbSymbolTableRecord
100
AcDbLayerTableRecord
  2
NO-PB_MARK_10000
 70
0
 62
7
  6
CONTINUOUS
370
-3
390
F
  0
LAYER
  5
2EB
100
AcDbSymbolTableRecord
100
AcDbLayerTableRecord
  2
NOTE
 70
0
 62
7
  6
CONTINUOUS
370
-3
390
F
  0
LAYER
  5
2EC
100
AcDbSymbolTableRecord
100
AcDbLayerTableRecord
  2
PIANI
 70
0
 62
7
  6
CONTINUOUS
370
-3
390
F
  0
LAYER
  5
2ED
100
AcDbSymbolTableRecord
100
AcDbLayerTableRecord
  2
PIANI_ORIGINE
 70
0
 62
7
  6
CONTINUOUS
370
-3
390
F
  0
LAYER
  5
2EE
100
AcDbSymbolTableRecord
100
AcDbLayerTableRecord
  2
PIANI_RIF
 70
0
 62
7
  6
CONTINUOUS
370
-3
390
F
  0
LAYER
  5
2EF
100
AcDbSymbolTableRecord
100
AcDbLayerTableRecord
  2
PIANI_RIFERIMENTO
 70
0
 62
7
  6
CONTINUOUS
370
-3
390
F
  0
LAYER
  5
2F0
100
AcDbSymbolTableRecord
100
AcDbLayerTableRecord
  2
PUNTI
 70
0
 62
7
  6
CONTINUOUS
370
-3
390
F
  0
LAYER
  5
2F1
100
AcDbSymbolTableRecord
100
AcDbLayerTableRecord
  2
RACCORDO
 70
0
 62
7
  6
CONTINUOUS
370
-3
390
F
  0
LAYER
  5
2F2
100
AcDbSymbolTableRecord
100
AcDbLayerTableRecord
  2
RD-ZNR50-1-VIMAR_1150000
 70
0
 62
7
  6
CONTINUOUS
370
-3
390
F
  0
LAYER
  5
2F3
100
AcDbSymbolTableRecord
100
AcDbLayerTableRecord
  2
RD_D6H8_5_VIMAR_850000
 70
0
 62
7
  6
CONTINUOUS
370
-3
390
F
  0
LAYER
  5
2F4
100
AcDbSymbolTableRecord
100
AcDbLayerTableRecord
  2
RESC1005X40N_50000
 70
0
 62
7
  6
CONTINUOUS
370
-3
390
F
  0
LAYER
  5
2F5
100
AcDbSymbolTableRecord
100
AcDbLayerTableRecord
  2
RESC1005X40N_50000_1
 70
0
 62
7
  6
CONTINUOUS
370
-3
390
F
  0
LAYER
  5
2F6
100
AcDbSymbolTableRecord
100
AcDbLayerTableRecord
  2
RESC1005X40N_50000_2
 70
0
 62
7
  6
CONTINUOUS
370
-3
390
F
  0
LAYER
  5
2F7
100
AcDbSymbolTableRecord
100
AcDbLayerTableRecord
  2
RESC1005X40N_50000_3
 70
0
 62
7
  6
CONTINUOUS
370
-3
390
F
  0
LAYER
  5
2F8
100
AcDbSymbolTableRecord
100
AcDbLayerTableRecord
  2
RESC1608N_45000
 70
0
 62
7
  6
CONTINUOUS
370
-3
390
F
  0
LAYER
  5
2F9
100
AcDbSymbolTableRecord
100
AcDbLayerTableRecord
  2
RESC1608N_45000_1
 70
0
 62
7
  6
CONTINUOUS
370
-3
390
F
  0
LAYER
  5
2FA
100
AcDbSymbolTableRecord
100
AcDbLayerTableRecord
  2
RESC1608N_45000_2
 70
0
 62
7
  6
CONTINUOUS
370
-3
390
F
  0
LAYER
  5
2FB
100
AcDbSymbolTableRecord
100
AcDbLayerTableRecord
  2
RGB____0____0____0__
 70
0
 62
7
  6
CONTINUOUS
370
-3
390
F
  0
LAYER
  5
2FC
100
AcDbSymbolTableRecord
100
AcDbLayerTableRecord
  2
SC70-6_REF_H1_1_110000
 70
0
 62
7
  6
CONTINUOUS
370
-3
390
F
  0
LAYER
  5
2FD
100
AcDbSymbolTableRecord
100
AcDbLayerTableRecord
  2
SC88-6_REF_H1_1_110000
 70
0
 62
7
  6
CONTINUOUS
370
-3
390
F
  0
LAYER
  5
2FE
100
AcDbSymbolTableRecord
100
AcDbLayerTableRecord
  2
SC88-6_REF_H1_1_110000_1
 70
0
 62
7
  6
CONTINUOUS
370
-3
390
F
  0
LAYER
  5
2FF
100
AcDbSymbolTableRecord
100
AcDbLayerTableRecord
  2
SC88-6_REF_H1_1_110000_2
 70
0
 62
7
  6
CONTINUOUS
370
-3
390
F
  0
LAYER
  5
300
100
AcDbSymbolTableRecord
100
AcDbLayerTableRecord
  2
SC88-6_REF_H1_1_110000_3
 70
0
 62
7
  6
CONTINUOUS
370
-3
390
F
  0
LAYER
  5
301
100
AcDbSymbolTableRecord
100
AcDbLayerTableRecord
  2
SC88-6_REF_H1_1_110000_4
 70
0
 62
7
  6
CONTINUOUS
370
-3
390
F
  0
LAYER
  5
302
100
AcDbSymbolTableRecord
100
AcDbLayerTableRecord
  2
SC88-6_REF_H1_1_110000_5
 70
0
 62
7
  6
CONTINUOUS
370
-3
390
F
  0
LAYER
  5
303
100
AcDbSymbolTableRecord
100
AcDbLayerTableRecord
  2
SIMBOLI
 70
0
 62
7
  6
CONTINUOUS
370
-3
390
F
  0
LAYER
  5
304
100
AcDbSymbolTableRecord
100
AcDbLayerTableRecord
  2
SMUSSO
 70
0
 62
7
  6
CONTINUOUS
370
-3
390
F
  0
LAYER
  5
305
100
AcDbSymbolTableRecord
100
AcDbLayerTableRecord
  2
SO8-5_0-6_2-1_75-REF_175000
 70
0
 62
7
  6
CONTINUOUS
370
-3
390
F
  0
LAYER
  5
306
100
AcDbSymbolTableRecord
100
AcDbLayerTableRecord
  2
SOD123_REF_140000
 70
0
 62
7
  6
CONTINUOUS
370
-3
390
F
  0
LAYER
  5
307
100
AcDbSymbolTableRecord
100
AcDbLayerTableRecord
  2
SOD80_SOD-213AA_MINIMELF_WAVE_1
 70
0
 62
7
  6
CONTINUOUS
370
-3
390
F
  0
LAYER
  5
308
100
AcDbSymbolTableRecord
100
AcDbLayerTableRecord
  2
SOIC-8-7A-5_0-6_2-1_75-REF_1750
 70
0
 62
7
  6
CONTINUOUS
370
-3
390
F
  0
LAYER
  5
309
100
AcDbSymbolTableRecord
100
AcDbLayerTableRecord
  2
SOT23-5_REF_H1_5_150000
 70
0
 62
7
  6
CONTINUOUS
370
-3
390
F
  0
LAYER
  5
30A
100
AcDbSymbolTableRecord
100
AcDbLayerTableRecord
  2
SOT323_H1_1_REF_110000
 70
0
 62
7
  6
CONTINUOUS
370
-3
390
F
  0
LAYER
  5
30B
100
AcDbSymbolTableRecord
100
AcDbLayerTableRecord
  2
SOT89_REF_H1_6_160000
 70
0
 62
7
  6
CONTINUOUS
370
-3
390
F
  0
LAYER
  5
30C
100
AcDbSymbolTableRecord
100
AcDbLayerTableRecord
  2
SUB_SMA_143000
 70
0
 62
7
  6
CONTINUOUS
370
-3
390
F
  0
LAYER
  5
30D
100
AcDbSymbolTableRecord
100
AcDbLayerTableRecord
  2
SUPERFICI
 70
0
 62
7
  6
CONTINUOUS
370
-3
390
F
  0
LAYER
  5
30E
100
AcDbSymbolTableRecord
100
AcDbLayerTableRecord
  2
SUP_PRO
 70
0
 62
7
  6
CONTINUOUS
370
-3
390
F
  0
LAYER
  5
30F
100
AcDbSymbolTableRecord
100
AcDbLayerTableRecord
  2
SWITCH_SKRP_250000
 70
0
 62
7
  6
CONTINUOUS
370
-3
390
F
  0
LAYER
  5
310
100
AcDbSymbolTableRecord
100
AcDbLayerTableRecord
  2
SYMBOL_E4_10000
 70
0
 62
7
  6
CONTINUOUS
370
-3
390
F
  0
LAYER
  5
311
100
AcDbSymbolTableRecord
100
AcDbLayerTableRecord
  2
TP-RND-1_0_3500
 70
0
 62
7
  6
CONTINUOUS
370
-3
390
F
  0
LAYER
  5
312
100
AcDbSymbolTableRecord
100
AcDbLayerTableRecord
  2
TP-RND-1_0_3500_1
 70
0
 62
7
  6
CONTINUOUS
370
-3
390
F
  0
LAYER
  5
313
100
AcDbSymbolTableRecord
100
AcDbLayerTableRecord
  2
TP-RND-1_0_3500_2
 70
0
 62
7
  6
CONTINUOUS
370
-3
390
F
  0
LAYER
  5
314
100
AcDbSymbolTableRecord
100
AcDbLayerTableRecord
  2
TP-RND-1_0_3500_3
 70
0
 62
7
  6
CONTINUOUS
370
-3
390
F
  0
LAYER
  5
315
100
AcDbSymbolTableRecord
100
AcDbLayerTableRecord
  2
TP_PROGRAMMAZIONE_SWD_1000
 70
0
 62
7
  6
CONTINUOUS
370
-3
390
F
  0
LAYER
  5
316
100
AcDbSymbolTableRecord
100
AcDbLayerTableRecord
  2
TRASH
 70
0
 62
7
  6
CONTINUOUS
370
-3
390
F
  0
LAYER
  5
317
100
AcDbSymbolTableRecord
100
AcDbLayerTableRecord
  2
VAR_S07_D9_S3_6_H11_1100000
 70
0
 62
7
  6
CONTINUOUS
370
-3
390
F
  0
LAYER
  5
318
100
AcDbSymbolTableRecord
100
AcDbLayerTableRecord
  2
VG_ANTENNA_ABRACON_ACAG0801-245
 70
0
 62
7
  6
CONTINUOUS
370
-3
390
F
  0
LAYER
  5
319
100
AcDbSymbolTableRecord
100
AcDbLayerTableRecord
  2
VG_CN-STRIP-F-SMT-P2-R2-P10-TET
 70
0
 62
7
  6
CONTINUOUS
370
-3
390
F
  0
LAYER
  5
31A
100
AcDbSymbolTableRecord
100
AcDbLayerTableRecord
  2
VG_CN_SMD_HEADER_10P_2R_P2_H7_8
 70
0
 62
7
  6
CONTINUOUS
370
-3
390
F
  0
LAYER
  5
31B
100
AcDbSymbolTableRecord
100
AcDbLayerTableRecord
  2
VG_HVQFN32-5_0-5_0-5_0-5_0-1_0-
 70
0
 62
7
  6
CONTINUOUS
370
-3
390
F
  0
LAYER
  5
31C
100
AcDbSymbolTableRecord
100
AcDbLayerTableRecord
  2
VG_K_THT_TE_RT31LA06_1570000
 70
0
 62
7
  6
CONTINUOUS
370
-3
390
F
  0
LAYER
  5
31D
100
AcDbSymbolTableRecord
100
AcDbLayerTableRecord
  2
VG_PTC-6_5-10_0-5_0-5_0-0-0_6_1
 70
0
 62
7
  6
CONTINUOUS
370
-3
390
F
  0
LAYER
  5
31E
100
AcDbSymbolTableRecord
100
AcDbLayerTableRecord
  2
VG_QCS5F_40000
 70
0
 62
7
  6
CONTINUOUS
370
-3
390
F
  0
LAYER
  5
31F
100
AcDbSymbolTableRecord
100
AcDbLayerTableRecord
  2
VG_QFN73-7_0-7_0-7_0-7_0-0_85-0
 70
0
 62
7
  6
CONTINUOUS
370
-3
390
F
  0
LAYER
  5
320
100
AcDbSymbolTableRecord
100
AcDbLayerTableRecord
  2
VG_SOT23_H1_1_REF_110000
 70
0
 62
7
  6
CONTINUOUS
370
-3
390
F
  0
LAYER
  5
321
100
AcDbSymbolTableRecord
100
AcDbLayerTableRecord
  2
VG_SOT23_H1_2_REF_120000
 70
0
 62
7
  6
CONTINUOUS
370
-3
390
F
  0
LAYER
  5
322
100
AcDbSymbolTableRecord
100
AcDbLayerTableRecord
  2
VG_SOT23_H1_2_WAVE_120000
 70
0
 62
7
  6
CONTINUOUS
370
-3
390
F
  0
LAYER
  5
323
100
AcDbSymbolTableRecord
100
AcDbLayerTableRecord
  2
VG_X-SMT-2-3_2-1_5-1_0_100000
 70
0
 62
7
  6
CONTINUOUS
370
-3
390
F
  0
LAYER
  5
324
100
AcDbSymbolTableRecord
100
AcDbLayerTableRecord
  2
VG_X-SMT-2-5_0-3_2-1_5_150000
 70
0
 62
7
  6
CONTINUOUS
370
-3
390
F
  0
LAYER
  5
325
100
AcDbSymbolTableRecord
100
AcDbLayerTableRecord
  2
X-SMD-4PIN-2_5-2_0_55000
 70
0
 62
7
  6
CONTINUOUS
370
-3
390
F
  0
LAYER
  5
326
100
AcDbSymbolTableRecord
100
AcDbLayerTableRecord
  2
XSEC_DATUMS
 70
0
 62
7
  6
CONTINUOUS
370
-3
390
F
  0
LAYER
  5
327
100
AcDbSymbolTableRecord
100
AcDbLayerTableRecord
  2
___SHELL
 70
0
 62
7
  6
CONTINUOUS
370
-3
390
F
  0
ENDTAB
  0
TABLE
  2
STYLE
  5
3
100
AcDbSymbolTable
 70
1
  0
STYLE
  5
11
100
AcDbSymbolTableRecord
100
AcDbTextStyleTableRecord
  2
STANDARD
 70
0
 40
0.0
 41
0.8
 50
0.0
 71
0
 42
0.2
  3
txt
  4

  0
STYLE
  5
328
100
AcDbSymbolTableRecord
100
AcDbTextStyleTableRecord
  2
TEXTSTYLE_1
 70
0
 40
0.0
 41
0.8
 50
0.0
 71
0
 42
0.2
  3
gdt
  4

  0
ENDTAB
  0
TABLE
  2
VIEW
  5
6
100
AcDbSymbolTable
 70
0
  0
ENDTAB
  0
TABLE
  2
UCS
  5
7
100
AcDbSymbolTable
 70
0
  0
ENDTAB
  0
TABLE
  2
APPID
  5
9
100
AcDbSymbolTable
 70
1
  0
APPID
  5
329
100
AcDbSymbolTableRecord
100
AcDbRegAppTableRecord
  2
ACAD
 70
0
  0
ENDTAB
  0
TABLE
  2
BLOCK_RECORD
  5
1
100
AcDbSymbolTable
 70
0
  0
BLOCK_RECORD
  5
32A
100
AcDbSymbolTableRecord
100
AcDbBlockTableRecord
  2
*Model_Space
  0
BLOCK_RECORD
  5
32B
100
AcDbSymbolTableRecord
100
AcDbBlockTableRecord
  2
*Paper_Space
  0
BLOCK_RECORD
  5
32C
100
AcDbSymbolTableRecord
100
AcDbBlockTableRecord
  2
_FILLED
  0
ENDTAB
  0
TABLE
  2
DIMSTYLE
  5
A
100
AcDbSymbolTable
 70
1
100
AcDbDimStyleTable
 71
0
  0
DIMSTYLE
105
32D
100
AcDbSymbolTableRecord
100
AcDbDimStyleTableRecord
  2
STANDARD
 70
0
  3

  4

 40
1.0
 41
3.0
 42
0.5
 43
0.38
 44
1.5
 45
0.0
 46
0.0
 47
0.01
 48
0.01
140
3.0
141
0.09
142
0.0
143
25.4
144
1.0
145
0.0
146
1.0
147
0.625
 71
1
 72
0
 73
0
 74
0
 75
0
 76
0
 77
1
 78
8
 79
2
170
0
171
1
172
0
173
0
174
0
175
0
176
0
177
0
178
0
270
2
179
2
271
2
272
2
273
2
274
2
275
0
280
0
281
0
282
0
283
1
284
8
285
0
286
0
287
3
288
0
340
11
278
44
341
32C
342
32C
343
32C
344
32C
  0
ENDTAB
  0
ENDSEC
  0
SECTION
  2
BLOCKS
  0
BLOCK
  5
20
100
AcDbEntity
  8
0
100
AcDbBlockBegin
  2
*Model_Space
 70
0
 10
0.0
 20
0.0
 30
0.0
  3
*Model_Space
  1

  0
ENDBLK
  5
21
100
AcDbEntity
  8
0
100
AcDbBlockEnd
  0
BLOCK
  5
1C
100
AcDbEntity
  8
0
100
AcDbBlockBegin
  2
*Paper_Space
 70
0
 10
0.0
 20
0.0
 30
0.0
  3
*Paper_Space
  1

  0
ENDBLK
  5
1D
100
AcDbEntity
  8
0
100
AcDbBlockEnd
  0
BLOCK
  5
32E
100
AcDbEntity
  8
0
100
AcDbBlockBegin
  2
_FILLED
 70
64
 10
0.0
 20
0.0
  3
_FILLED
  1

  0
SOLID
  5
32F
100
AcDbEntity
  8
0
  6
BYBLOCK
 62
0
100
AcDbTrace
 10
0.0
 20
0.0
 11
-1.0
 21
0.1333333333
 12
-1.0
 22
-0.1333333333
 13
-1.0
 23
-0.1333333333
  0
ENDBLK
  5
330
100
AcDbEntity
  8
0
  6
BYBLOCK
 62
0
100
AcDbBlockEnd
  0
ENDSEC
  0
SECTION
  2
ENTITIES
  0
LWPOLYLINE
  5
331
100
AcDbEntity
  8
RACCORDO
100
AcDbPolyline
 62
250
  6
CONTINUOUS
 90
6
 70
0
 10
136.2867094354
 20
135.3734179666
 10
136.3041813128
 20
135.4008762829
 10
136.3235060026
 20
135.4262956234
 10
136.3442037344
 20
135.4490903013
 10
136.3658441932
 20
135.468884328
 10
136.3880921212
 20
135.4854631541
  0
LWPOLYLINE
  5
332
100
AcDbEntity
  8
RACCORDO
100
AcDbPolyline
 62
7
  6
CONTINUOUS
 90
15
 70
0
 10
138.623548084
 20
134.0427611065
 10
138.6056391806
 20
134.0228888119
 10
138.5862326526
 20
134.0037611041
 10
138.5653792114
 20
133.9856116718
 10
138.543070818
 20
133.9687051875
 10
138.5194814799
 20
133.9532448615
 10
138.4949604329
 20
133.9393798663
 10
138.4696372749
 20
133.9273469339
 10
138.4436693145
 20
133.9173667755
 10
138.4174710073
 20
133.9095751773
 10
138.3912521662
 20
133.9041842313
 10
138.3652241993
 20
133.9013795569
 10
138.3398339805
 20
133.901270085
 10
138.3154192063
 20
133.9040036752
 10
138.3097962303
 20
133.9050864932
  0
LWPOLYLINE
  5
333
100
AcDbEntity
  8
RACCORDO
100
AcDbPolyline
 62
250
  6
CONTINUOUS
 90
3
 70
0
 10
132.3626784052
 20
131.3752207041
 10
132.4355073853
 20
131.4268612289
 10
132.5089697067
 20
131.4724547599
  0
LWPOLYLINE
  5
334
100
AcDbEntity
  8
RACCORDO
100
AcDbPolyline
 62
7
  6
CONTINUOUS
 90
19
 70
0
 10
132.2758153817
 20
131.4813244602
 10
132.2638650441
 20
131.4742751724
 10
132.1739796428
 20
131.4159157156
 10
132.0875053538
 20
131.3503988666
 10
132.0046110426
 20
131.2781583802
 10
131.9254559255
 20
131.1996339287
 10
131.8503527777
 20
131.1153519106
 10
131.7794901018
 20
131.0257072991
 10
131.7131119887
 20
130.9311346407
 10
131.6517007262
 20
130.832367744
 10
131.595489021
 20
130.7298737281
 10
131.5447393566
 20
130.6241053092
 10
131.4998934113
 20
130.5159066461
 10
131.4611663703
 20
130.4057672698
 10
131.428827444
 20
130.2941648917
 10
131.4032082645
 20
130.1818919714
 10
131.3845396836
 20
130.0694456324
 10
131.3730748599
 20
129.9571509805
 10
131.3699333243
 20
129.8956101245
  0
LINE
  5
335
100
AcDbEntity
  8
RACCORDO
100
AcDbLine
 62
250
  6
CONTINUOUS
 10
136.3880921212
 20
135.4854631541
 11
136.4105690924
 21
135.4986204422
  0
LINE
  5
336
100
AcDbEntity
  8
RACCORDO
100
AcDbLine
 62
7
  6
CONTINUOUS
 10
132.2756156597
 20
131.4812221534
 11
136.864590486
 21
134.1570147949
  0
LINE
  5
337
100
AcDbEntity
  8
RACCORDO
100
AcDbLine
 62
250
  6
CONTINUOUS
 10
136.864590486
 20
134.0121806185
 11
132.5089697067
 21
131.4724547599
  0
LINE
  5
338
100
AcDbEntity
  8
RACCORDO
100
AcDbLine
 62
7
  6
CONTINUOUS
 10
137.8802400849
 20
136.3170525431
 11
136.2974834262
 21
135.5050684173
  0
LINE
  5
339
100
AcDbEntity
  8
RACCORDO
100
AcDbLine
 62
250
  6
CONTINUOUS
 10
137.9933256955
 20
136.3106045395
 11
136.4105690924
 21
135.4986204422
  0
LINE
  5
33A
100
AcDbEntity
  8
RACCORDO
100
AcDbLine
 62
7
  6
CONTINUOUS
 10
137.8819778358
 20
136.3179214634
 11
137.8802400849
 21
136.3170525431
  0
LINE
  5
33B
100
AcDbEntity
  8
RACCORDO
100
AcDbLine
 62
250
  6
CONTINUOUS
 10
139.8651017348
 20
135.9022889258
 11
137.7355537722
 21
134.8361281023
  0
LINE
  5
33C
100
AcDbEntity
  8
RACCORDO
100
AcDbLine
 62
250
  6
CONTINUOUS
 10
140.0418754385
 20
135.597399387
 11
137.9123274759
 21
134.5312385634
  0
LINE
  5
33D
100
AcDbEntity
  8
RACCORDO
100
AcDbLine
 62
7
  6
CONTINUOUS
 10
138.4172634631
 20
136.5786867971
 11
137.8819741996
 21
136.3179304396
  0
LINE
  5
33E
100
AcDbEntity
  8
RACCORDO
100
AcDbLine
 62
250
  6
CONTINUOUS
 10
138.5277755742
 20
136.5709520061
 11
137.9933256955
 21
136.3106045395
  0
LWPOLYLINE
  5
33F
100
AcDbEntity
  8
RACCORDO
100
AcDbPolyline
 62
250
  6
CONTINUOUS
 90
9
 70
0
 10
131.369940312
 20
94.2830454169
 10
131.3707897451
 20
94.2717144771
 10
131.3766086024
 20
94.2448354673
 10
131.3877102425
 20
94.2185458632
 10
131.4039757168
 20
94.193127345
 10
131.4252307485
 20
94.1688522594
 10
131.4512476006
 20
94.145980702
 10
131.4817475151
 20
94.1247577304
 10
131.5164037005
 20
94.1054107385
  0
LWPOLYLINE
  5
340
100
AcDbEntity
  8
RACCORDO
100
AcDbPolyline
 62
7
  6
CONTINUOUS
 90
14
 70
0
 10
131.3699515843
 20
94.2830458018
 10
131.3709430364
 20
94.2592188649
 10
131.3807478372
 20
94.1477119085
 10
131.398787857
 20
94.0408658455
 10
131.4249869005
 20
93.9387441946
 10
131.459112516
 20
93.8419665094
 10
131.5005209221
 20
93.7518121878
 10
131.5484427288
 20
93.6690187807
 10
131.6025326257
 20
93.5933486856
 10
131.6625084802
 20
93.5247565135
 10
131.7277262829
 20
93.4636628127
 10
131.7975381426
 20
93.410299136
 10
131.8716821631
 20
93.364611697
 10
131.9014879154
 20
93.3490046293
  0
LWPOLYLINE
  5
341
100
AcDbEntity
  8
RACCORDO
100
AcDbPolyline
 62
250
  6
CONTINUOUS
 90
10
 70
0
 10
131.5164036967
 20
94.1054107364
 10
131.4003105037
 20
98.0010092158
 10
131.3132319705
 20
101.9127876244
 10
131.2551755019
 20
105.840419007
 10
131.2261460341
 20
109.7835750657
 10
131.2261460342
 20
113.7419263052
 10
131.255175502
 20
117.7151420622
 10
131.3132319706
 20
121.7028903749
 10
131.4003105037
 20
125.7048380088
 10
131.5164036967
 20
129.720650604
  0
LWPOLYLINE
  5
342
100
AcDbEntity
  8
RACCORDO
100
AcDbPolyline
 62
7
  6
CONTINUOUS
 90
10
 70
0
 10
131.3699212795
 20
129.8956941591
 10
131.2555268438
 20
125.9465879988
 10
131.1676150232
 20
121.9248638276
 10
131.1090103081
 20
117.9174084395
 10
131.0797209626
 20
113.9245878645
 10
131.0797495729
 20
109.9467370028
 10
131.1090966822
 20
105.9842003791
 10
131.1677607427
 20
102.0373111609
 10
131.2557345323
 20
98.1064278063
 10
131.3699398993
 20
94.2830576879
  0
LWPOLYLINE
  5
343
100
AcDbEntity
  8
RACCORDO
100
AcDbPolyline
 62
250
  6
CONTINUOUS
 90
20
 70
0
 10
131.5164036967
 20
129.720650604
 10
131.5220239749
 20
129.8146369059
 10
131.532799946
 20
129.9105405291
 10
131.5486769201
 20
130.0078870886
 10
131.5695721525
 20
130.1061916479
 10
131.5953824428
 20
130.2049721064
 10
131.6259868682
 20
130.3037516966
 10
131.6612380808
 20
130.4020570779
 10
131.7009575496
 20
130.4993880371
 10
131.7449407949
 20
130.5952321936
 10
131.7929519635
 20
130.6890951446
 10
131.8447594974
 20
130.7805392869
 10
131.9001365731
 20
130.8691503761
 10
131.9588240793
 20
130.9545122564
 10
132.0205168591
 20
131.0361775584
 10
132.0848958494
 20
131.1137093693
 10
132.1516250103
 20
131.1867145136
 10
132.2203815884
 20
131.2548498161
 10
132.2908471788
 20
131.3177882201
 10
132.3614412612
 20
131.3742315485
  0
LWPOLYLINE
  5
344
100
AcDbEntity
  8
RACCORDO
100
AcDbPolyline
 62
250
  6
CONTINUOUS
 90
9
 70
0
 10
137.9123274759
 20
134.1912646293
 10
137.8992471011
 20
134.1618694707
 10
137.883393769
 20
134.1344909144
 10
137.8650377322
 20
134.1095956842
 10
137.8444919071
 20
134.0876081704
 10
137.8221065395
 20
134.0689031955
 10
137.7982632339
 20
134.053799624
 10
137.7733684487
 20
134.0425549275
 10
137.7478465664
 20
134.0353607949
  0
LWPOLYLINE
  5
345
100
AcDbEntity
  8
RACCORDO
100
AcDbPolyline
 62
250
  6
CONTINUOUS
 90
8
 70
0
 10
137.5960753764
 20
134.6812701735
 10
137.6112191306
 20
134.7101052265
 10
137.6284920449
 20
134.7374123086
 10
137.6476007571
 20
134.7627276376
 10
137.6682207257
 20
134.7856212592
 10
137.6900017422
 20
134.8057043495
 10
137.7125738791
 20
134.8226358183
 10
137.7355537722
 20
134.8361281023
  0
LINE
  5
346
100
AcDbEntity
  8
RACCORDO
100
AcDbLine
 62
250
  6
CONTINUOUS
 10
140.0572722707
 20
135.1790769638
 11
140.0572360108
 21
135.1790327037
  0
LINE
  5
347
100
AcDbEntity
  8
RACCORDO
100
AcDbLine
 62
250
  6
CONTINUOUS
 10
139.5136082667
 20
134.6069157145
 11
140.0418754385
 21
135.2498678702
  0
LINE
  5
348
100
AcDbEntity
  8
RACCORDO
100
AcDbLine
 62
7
  6
CONTINUOUS
 10
139.5136082667
 20
134.5173852481
 11
140.0572360108
 21
135.1790327037
  0
LINE
  5
349
100
AcDbEntity
  8
RACCORDO
100
AcDbLine
 62
7
  6
CONTINUOUS
 10
139.6151338093
 20
133.7884642772
 11
138.623548084
 21
133.2351289847
  0
LINE
  5
34A
100
AcDbEntity
  8
RACCORDO
100
AcDbLine
 62
7
  6
CONTINUOUS
 10
141.8824279851
 20
133.4016914927
 11
142.2359693743
 21
133.5830649175
  0
LINE
  5
34B
100
AcDbEntity
  8
RACCORDO
100
AcDbLine
 62
7
  6
CONTINUOUS
 10
147.2423621557
 20
136.8765862105
 11
140.9278218291
 21
133.731809906
  0
LINE
  5
34C
100
AcDbEntity
  8
ASSI
100
AcDbLine
 62
7
  6
CONTINUOUS
 10
142.2359693743
 20
133.5830649175
 11
147.5721927802
 21
136.182508383
  0
LINE
  5
34D
100
AcDbEntity
  8
DRAFT
100
AcDbLine
 62
7
  6
CONTINUOUS
 10
139.5136082667
 20
133.7393675952
 11
139.6151338093
 21
133.7884642772
  0
LWPOLYLINE
  5
34E
100
AcDbEntity
  8
RACCORDO
100
AcDbPolyline
 62
250
  6
CONTINUOUS
 90
8
 70
0
 10
132.2758093062
 20
131.4813349034
 10
132.301207102
 20
131.4935269288
 10
132.331714162
 20
131.50241885
 10
132.3643635084
 20
131.5063519334
 10
132.3987978435
 20
131.5052831374
 10
132.4346403356
 20
131.4992241581
 10
132.4714987431
 20
131.4882413021
 10
132.5089697067
 20
131.4724547599
  0
LINE
  5
34F
100
AcDbEntity
  8
RACCORDO
100
AcDbLine
 62
7
  6
CONTINUOUS
 10
160.3646237447
 20
142.447310524
 11
148.1625572387
 21
136.6623596372
  0
LINE
  5
350
100
AcDbEntity
  8
RACCORDO
100
AcDbLine
 62
250
  6
CONTINUOUS
 10
160.887215737
 20
142.4064217613
 11
148.4588820399
 21
136.5141972365
  0
LWPOLYLINE
  5
351
100
AcDbEntity
  8
ASSI
100
AcDbPolyline
 62
7
  6
CONTINUOUS
 90
7
 70
0
 10
147.5721927802
 20
136.182508383
 10
147.5806861493
 20
136.1865212771
 10
147.5891775836
 20
136.1902867295
 10
147.5976670829
 20
136.1938047401
 10
147.6061546473
 20
136.1970753091
 10
147.6146402769
 20
136.2000984363
 10
147.6231239715
 20
136.2028741217
  0
LWPOLYLINE
  5
352
100
AcDbEntity
  8
RACCORDO
100
AcDbPolyline
 62
250
  6
CONTINUOUS
 90
13
 70
0
 10
160.3646237447
 20
142.447310524
 10
160.403088819
 20
142.4633810115
 10
160.4422374462
 20
142.4756400141
 10
160.4827610663
 20
142.4844259648
 10
160.5245329795
 20
142.4897132334
 10
160.5674162388
 20
142.4914917854
 10
160.611276593
 20
142.4897540578
 10
160.6559756397
 20
142.4844966482
 10
160.7013761075
 20
142.4757406535
 10
160.7473453835
 20
142.4635152668
 10
160.793746421
 20
142.44784871
 10
160.8404255514
 20
142.4287899885
 10
160.8872156969
 20
142.4064160484
  0
LWPOLYLINE
  5
353
100
AcDbEntity
  8
RACCORDO
100
AcDbPolyline
 62
250
  6
CONTINUOUS
 90
9
 70
0
 10
131.3699185977
 20
129.8956105952
 10
131.3708054486
 20
129.8775907648
 10
131.376625263
 20
129.8530610294
 10
131.3877275816
 20
129.828814302
 10
131.4039934534
 20
129.8051103633
 10
131.4252486052
 20
129.7822031785
 10
131.4512653084
 20
129.7603381763
 10
131.4817648186
 20
129.7397496195
 10
131.5164203627
 20
129.7206580948
  0
LINE
  5
354
100
AcDbEntity
  8
0
100
AcDbLine
 62
250
  6
CONTINUOUS
 10
146.1478165008
 20
132.329209747
 11
147.2080075677
 21
133.3168226772
  0
LWPOLYLINE
  5
355
100
AcDbEntity
  8
0
100
AcDbPolyline
 62
250
  6
CONTINUOUS
 90
5
 70
0
 10
147.2080075677
 20
133.3168226772
 10
147.2233540352
 20
133.3308627997
 10
147.239294748
 20
133.344820444
 10
147.2558297061
 20
133.3586956101
 10
147.2729589095
 20
133.3724882981
  0
LWPOLYLINE
  5
356
100
AcDbEntity
  8
0
100
AcDbPolyline
 62
7
  6
CONTINUOUS
 90
6
 70
0
 10
147.2040132435
 20
133.3961754107
 10
147.1829425073
 20
133.3793778695
 10
147.1623271786
 20
133.3622244833
 10
147.1421808641
 20
133.344724514
 10
147.122516004
 20
133.3268856529
 10
146.0851522644
 20
132.3605418652
  0
LWPOLYLINE
  5
357
100
AcDbEntity
  8
0
100
AcDbPolyline
 62
250
  6
CONTINUOUS
 90
8
 70
0
 10
147.1204486015
 20
133.324964299
 10
147.1245004221
 20
133.3281590673
 10
147.1340925564
 20
133.332583166
 10
147.1456972321
 20
133.3344815584
 10
147.1591240733
 20
133.3338231038
 10
147.1741528124
 20
133.3306186066
 10
147.1905369038
 20
133.3249206388
 10
147.2080075677
 20
133.3168226772
  0
LINE
  5
358
100
AcDbEntity
  8
0
100
AcDbLine
 62
250
  6
CONTINUOUS
 10
147.2729589095
 20
133.3724882981
 11
147.2906823583
 21
133.3861985079
  0
LINE
  5
359
100
AcDbEntity
  8
0
100
AcDbLine
 62
7
  6
CONTINUOUS
 10
147.2269677598
 20
133.4136845954
 11
147.2040132435
 21
133.3961754107
  0
LINE
  5
35A
100
AcDbEntity
  8
0
100
AcDbLine
 62
250
  6
CONTINUOUS
 10
147.2906823583
 20
133.3861985079
 11
147.3090000524
 21
133.3998262395
  0
LINE
  5
35B
100
AcDbEntity
  8
0
100
AcDbLine
 62
7
  6
CONTINUOUS
 10
147.2269729156
 20
133.4136868229
 11
147.2350549788
 21
133.4182997234
  0
LINE
  5
35C
100
AcDbEntity
  8
0
100
AcDbLine
 62
7
  6
CONTINUOUS
 10
147.1857168426
 20
133.6028892006
 11
147.8928236238
 21
133.9564425912
  0
LINE
  5
35D
100
AcDbEntity
  8
0
100
AcDbLine
 62
7
  6
CONTINUOUS
 10
149.6441615209
 20
134.4785581492
 11
148.2463770144
 21
133.7796658959
  0
LINE
  5
35E
100
AcDbEntity
  8
ASSI
100
AcDbLine
 62
7
  6
CONTINUOUS
 10
148.1777232149
 20
135.8797431656
 11
143.5794722585
 21
133.6133818681
  0
LINE
  5
35F
100
AcDbEntity
  8
DRAFT
100
AcDbLine
 62
7
  6
CONTINUOUS
 10
147.8928236238
 20
134.5165584697
 11
148.2265992464
 21
134.6798788249
  0
LINE
  5
360
100
AcDbEntity
  8
RACCORDO
100
AcDbLine
 62
7
  6
CONTINUOUS
 10
150.3031572722
 20
135.3461886522
 11
148.2463770144
 21
134.3397817744
  0
LWPOLYLINE
  5
361
100
AcDbEntity
  8
ASSI
100
AcDbPolyline
 62
7
  6
CONTINUOUS
 90
7
 70
0
 10
148.1777232149
 20
135.8797431656
 10
148.1858779187
 20
135.8836461251
 10
148.1940291431
 20
135.8873178408
 10
148.2021768881
 20
135.8907583128
 10
148.2103211536
 20
135.893967541
 10
148.2184619397
 20
135.8969455255
 10
148.2265992464
 20
135.8996922664
  0
LWPOLYLINE
  5
362
100
AcDbEntity
  8
0
100
AcDbPolyline
 62
250
  6
CONTINUOUS
 90
22
 70
0
 10
147.3031247039
 20
133.4031646479
 10
147.3485479383
 20
133.4211339377
 10
147.3958943644
 20
133.4372896202
 10
147.4451639821
 20
133.4516316956
 10
147.4965986197
 20
133.4642130647
 10
147.549956449
 20
133.4749808267
 10
147.6045119849
 20
133.4837762783
 10
147.6604468936
 20
133.4905695058
 10
147.7175795089
 20
133.495390423
 10
147.7746393477
 20
133.4981700688
 10
147.8316424608
 20
133.4988150087
 10
147.8885727973
 20
133.4974186772
 10
147.944111721
 20
133.4941924163
 10
147.9977439232
 20
133.4891797542
 10
148.0499847126
 20
133.4823371627
 10
148.1010613793
 20
133.4737453984
 10
148.1509043391
 20
133.463574787
 10
148.1995831762
 20
133.4516550028
 10
148.2475339335
 20
133.437555826
 10
148.2949019589
 20
133.4211338499
 10
148.3415419044
 20
133.4025324811
 10
148.3874537703
 20
133.3817517196
  0
LINE
  5
363
100
AcDbEntity
  8
RACCORDO
100
AcDbLine
 62
250
  6
CONTINUOUS
 10
169.3160961796
 20
79.3131533603
 11
168.7878290078
 21
79.4216556374
  0
LINE
  5
364
100
AcDbEntity
  8
RACCORDO
100
AcDbLine
 62
250
  6
CONTINUOUS
 10
169.2266823842
 20
79.6327201663
 11
168.7878290078
 21
79.722857493
  0
LWPOLYLINE
  5
365
100
AcDbEntity
  8
RACCORDO
100
AcDbPolyline
 62
7
  6
CONTINUOUS
 90
15
 70
0
 10
167.8977688251
 20
79.1060465965
 10
167.8799542272
 20
79.1102092983
 10
167.8604794882
 20
79.1149629697
 10
167.8394833969
 20
79.1204044937
 10
167.8171463518
 20
79.1267506687
 10
167.7936383367
 20
79.1339600977
 10
167.7691118196
 20
79.1417406305
 10
167.7437995525
 20
79.1501761802
 10
167.7179483195
 20
79.159324201
 10
167.6917602371
 20
79.1688559312
 10
167.6655179473
 20
79.1788227272
 10
167.639555749
 20
79.189258635
 10
167.614187066
 20
79.1997999696
 10
167.5897612351
 20
79.2103200031
 10
167.5666560221
 20
79.2209222841
  0
LWPOLYLINE
  5
366
100
AcDbEntity
  8
RACCORDO
100
AcDbPolyline
 62
250
  6
CONTINUOUS
 90
13
 70
0
 10
166.8340262573
 20
77.9150889091
 10
166.8585164561
 20
77.9043449928
 10
166.885593081
 20
77.8952847339
 10
166.9147962638
 20
77.8880620111
 10
166.9456300193
 20
77.882799495
 10
166.9775706685
 20
77.8795865637
 10
167.0100757331
 20
77.8784777856
 10
167.0425931488
 20
77.8794919921
 10
167.0745706415
 20
77.8826119579
 10
167.105465107
 20
77.8877846937
 10
167.1347518353
 20
77.8949223461
 10
167.1619334222
 20
77.9039036895
 10
167.186548217
 20
77.9145761852
  0
LWPOLYLINE
  5
367
100
AcDbEntity
  8
RACCORDO
100
AcDbPolyline
 62
250
  6
CONTINUOUS
 90
13
 70
0
 10
166.8340262573
 20
78.2550628432
 10
166.8585164561
 20
78.244318927
 10
166.885593081
 20
78.235258668
 10
166.9147962638
 20
78.2280359452
 10
166.9456300193
 20
78.2227734291
 10
166.9775706685
 20
78.2195604978
 10
167.0100757331
 20
78.2184517197
 10
167.0425931488
 20
78.2194659262
 10
167.0745706415
 20
78.222585892
 10
167.105465107
 20
78.2277586279
 10
167.1347518353
 20
78.2348962802
 10
167.1619334222
 20
78.2438776236
 10
167.186548217
 20
78.2545501194
  0
LWPOLYLINE
  5
368
100
AcDbEntity
  8
RACCORDO
100
AcDbPolyline
 62
7
  6
CONTINUOUS
 90
11
 70
0
 10
162.643487132
 20
77.9780064531
 10
162.6810301076
 20
77.9602527559
 10
162.7591345629
 20
77.9298518024
 10
162.8413068559
 20
77.9064998037
 10
162.9268985326
 20
77.890714088
 10
163.0150041762
 20
77.8829143617
 10
163.1050796736
 20
77.8833306131
 10
163.1965579151
 20
77.8920963974
 10
163.2886261479
 20
77.9092321217
 10
163.3807851934
 20
77.9347112399
 10
163.4789248709
 20
77.9710639615
  0
LINE
  5
369
100
AcDbEntity
  8
RACCORDO
100
AcDbLine
 62
7
  6
CONTINUOUS
 10
131.9008201135
 20
93.3493372706
 11
162.6446211184
 21
77.9774367682
  0
LINE
  5
36A
100
AcDbEntity
  8
RACCORDO
100
AcDbLine
 62
250
  6
CONTINUOUS
 10
131.5164036967
 20
94.1054107364
 11
162.251152351
 21
78.7380364093
  0
LINE
  5
36B
100
AcDbEntity
  8
RACCORDO
100
AcDbLine
 62
7
  6
CONTINUOUS
 10
162.6434362193
 20
77.9780309236
 11
162.6446208829
 21
77.9774368859
  0
LWPOLYLINE
  5
36C
100
AcDbEntity
  8
RACCORDO
100
AcDbPolyline
 62
250
  6
CONTINUOUS
 90
13
 70
0
 10
131.9008201135
 20
93.3493372706
 10
131.8447713274
 20
93.3816044787
 10
131.7929629546
 20
93.4200157118
 10
131.7449500423
 20
93.4647379049
 10
131.7009636527
 20
93.5155674192
 10
131.6612408028
 20
93.5722441555
 10
131.625987999
 20
93.6344711008
 10
131.5953844569
 20
93.7019248187
 10
131.5695754752
 20
93.7742795478
 10
131.5486801754
 20
93.8511934877
 10
131.5328019848
 20
93.9322931551
 10
131.5220247406
 20
94.0171720351
 10
131.5164036967
 20
94.1054107364
  0
LWPOLYLINE
  5
36D
100
AcDbEntity
  8
RACCORDO
100
AcDbPolyline
 62
250
  6
CONTINUOUS
 90
9
 70
0
 10
136.2348208364
 20
134.8542696931
 10
136.2360282254
 20
134.8296121916
 10
136.2396339068
 20
134.8064988671
 10
136.2455886378
 20
134.7852454576
 10
136.2538267199
 20
134.7661122212
 10
136.2642272219
 20
134.7493986926
 10
136.2765804548
 20
134.7353976385
 10
136.2906645715
 20
134.7242744029
 10
136.2997941328
 20
134.719051243
  0
LINE
  5
36E
100
AcDbEntity
  8
RACCORDO
100
AcDbLine
 62
7
  6
CONTINUOUS
 10
136.1615975317
 20
135.2826319749
 11
136.1615975317
 21
134.9426580407
  0
LINE
  5
36F
100
AcDbEntity
  8
RACCORDO
100
AcDbLine
 62
250
  6
CONTINUOUS
 10
136.2348208364
 20
135.1942436272
 11
136.2348208364
 21
134.8542696931
  0
LINE
  5
370
100
AcDbEntity
  8
RACCORDO
100
AcDbLine
 62
7
  6
CONTINUOUS
 10
136.864590486
 20
133.9826789647
 11
136.864590486
 21
134.4366530664
  0
LINE
  5
371
100
AcDbEntity
  8
RACCORDO
100
AcDbLine
 62
250
  6
CONTINUOUS
 10
136.9378137907
 20
133.8909672699
 11
136.9378137907
 21
134.400041414
  0
LINE
  5
372
100
AcDbEntity
  8
RACCORDO
100
AcDbLine
 62
250
  6
CONTINUOUS
 10
137.5598055162
 20
134.1917773532
 11
137.5598055162
 21
134.5317512873
  0
LWPOLYLINE
  5
373
100
AcDbEntity
  8
RACCORDO
100
AcDbPolyline
 62
250
  6
CONTINUOUS
 90
6
 70
0
 10
137.5598055162
 20
134.5317512873
 10
137.5613066994
 20
134.5606575579
 10
137.5657847528
 20
134.590574069
 10
137.5731636215
 20
134.6209927202
 10
137.5833179831
 20
134.6513968826
 10
137.5960753764
 20
134.6812701735
  0
LWPOLYLINE
  5
374
100
AcDbEntity
  8
RACCORDO
100
AcDbPolyline
 62
250
  6
CONTINUOUS
 90
7
 70
0
 10
136.2348208364
 20
135.1942436272
 10
136.2363339676
 20
135.223267217
 10
136.2408495677
 20
135.2533177749
 10
136.2482933995
 20
135.2838812996
 10
136.2585421739
 20
135.3144375141
 10
136.2714222091
 20
135.3444583704
 10
136.2867094354
 20
135.3734179666
  0
LWPOLYLINE
  5
375
100
AcDbEntity
  8
RACCORDO
100
AcDbPolyline
 62
250
  6
CONTINUOUS
 90
7
 70
0
 10
140.1140732954
 20
135.6852720192
 10
140.1121409435
 20
135.6697603947
 10
140.1059549286
 20
135.6536758345
 10
140.0956198962
 20
135.6381387727
 10
140.0813188884
 20
135.6234166387
 10
140.0632999947
 20
135.6097592349
 10
140.0418754385
 20
135.597399387
  0
LWPOLYLINE
  5
376
100
AcDbEntity
  8
RACCORDO
100
AcDbPolyline
 62
250
  6
CONTINUOUS
 90
7
 70
0
 10
140.1140732954
 20
135.3377405024
 10
140.1120793232
 20
135.3219844702
 10
140.105864341
 20
135.3059714519
 10
140.0955298354
 20
135.2904967988
 10
140.0812482892
 20
135.2758231743
 10
140.0632618838
 20
135.2622025876
 10
140.0418754385
 20
135.2498678702
  0
LINE
  5
377
100
AcDbEntity
  8
0
100
AcDbLine
 62
250
  6
CONTINUOUS
 10
149.8784143563
 20
131.981619283
 11
149.5040972406
 21
131.6190005403
  0
LWPOLYLINE
  5
378
100
AcDbEntity
  8
0
100
AcDbPolyline
 62
250
  6
CONTINUOUS
 90
13
 70
0
 10
153.9047378413
 20
134.452201389
 10
153.8774936837
 20
134.4367210996
 10
153.8506696648
 20
134.4171831493
 10
153.8247096006
 20
134.3939108027
 10
153.8000430126
 20
134.3672891117
 10
153.7770780209
 20
134.3377585447
 10
153.7561945923
 20
134.3058076987
 10
153.7377382527
 20
134.2719652154
 10
153.7220143709
 20
134.2367910346
 10
153.7092831061
 20
134.2008671295
 10
153.6997551028
 20
134.1647878782
 10
153.6935880064
 20
134.1291502286
 10
153.6908838543
 20
134.0945438223
  0
LINE
  5
379
100
AcDbEntity
  8
RACCORDO
100
AcDbLine
 62
7
  6
CONTINUOUS
 10
148.1008298995
 20
130.2924905355
 11
148.4585090487
 21
130.4717950803
  0
LINE
  5
37A
100
AcDbEntity
  8
ASSI
100
AcDbLine
 62
7
  6
CONTINUOUS
 10
148.4585090487
 20
130.4717950803
 11
153.7330011179
 21
133.1021042142
  0
LINE
  5
37B
100
AcDbEntity
  8
ASSI
100
AcDbLine
 62
7
  6
CONTINUOUS
 10
153.1274706832
 20
133.4048694315
 11
148.5292197268
 21
131.138508134
  0
LINE
  5
37C
100
AcDbEntity
  8
0
100
AcDbLine
 62
250
  6
CONTINUOUS
 10
153.1979756604
 20
133.4831530321
 11
153.1698962151
 21
133.4694049595
  0
LINE
  5
37D
100
AcDbEntity
  8
RACCORDO
100
AcDbLine
 62
7
  6
CONTINUOUS
 10
154.5457979593
 20
133.2248683087
 11
153.9069371828
 21
132.9122661836
  0
LINE
  5
37E
100
AcDbEntity
  8
0
100
AcDbLine
 62
250
  6
CONTINUOUS
 10
151.9741765659
 20
134.0672647842
 11
152.774056192
 21
134.4584142509
  0
LINE
  5
37F
100
AcDbEntity
  8
0
100
AcDbLine
 62
250
  6
CONTINUOUS
 10
152.4397165608
 20
133.8344947867
 11
152.9842078235
 21
134.1007566842
  0
LWPOLYLINE
  5
380
100
AcDbEntity
  8
ASSI
100
AcDbPolyline
 62
7
  6
CONTINUOUS
 90
7
 70
0
 10
153.7330011179
 20
133.1021042142
 10
153.7413962327
 20
133.1061662354
 10
153.7497894349
 20
133.1099808038
 10
153.7581807247
 20
133.1135479192
 10
153.766570102
 20
133.1168675817
 10
153.7749575667
 20
133.1199397913
 10
153.7833431189
 20
133.122764548
  0
LWPOLYLINE
  5
381
100
AcDbEntity
  8
ASSI
100
AcDbPolyline
 62
7
  6
CONTINUOUS
 90
7
 70
0
 10
153.1274706832
 20
133.4048694315
 10
153.135625387
 20
133.4087723909
 10
153.1437766114
 20
133.4124441066
 10
153.1519243564
 20
133.4158845786
 10
153.1600686219
 20
133.4190938069
 10
153.168209408
 20
133.4220717914
 10
153.1763467147
 20
133.4248185322
  0
LWPOLYLINE
  5
382
100
AcDbEntity
  8
0
100
AcDbPolyline
 62
250
  6
CONTINUOUS
 90
22
 70
0
 10
152.9842078235
 20
134.1007564134
 10
153.0108191001
 20
134.1133371679
 10
153.0391257169
 20
134.1248473249
 10
153.0689738032
 20
134.1352350502
 10
153.1001833446
 20
134.144452411
 10
153.132604074
 20
134.1524612593
 10
153.1661232294
 20
134.1592270867
 10
153.2006271244
 20
134.1647202614
 10
153.2358796322
 20
134.1689017607
 10
153.2715758502
 20
134.1717376558
 10
153.307335692
 20
134.1732176868
 10
153.3431584845
 20
134.1733599863
 10
153.3793060895
 20
134.1721503434
 10
153.4155975742
 20
134.1695611754
 10
153.4518173695
 20
134.1655637462
 10
153.4881450946
 20
134.1600670159
 10
153.5245791389
 20
134.152963627
 10
153.5605779489
 20
134.1442522876
 10
153.5955006687
 20
134.1340139225
 10
153.6289752563
 20
134.1223099246
 10
153.6608573949
 20
134.1091389199
 10
153.6908838543
 20
134.0945432956
  0
LWPOLYLINE
  5
383
100
AcDbEntity
  8
0
100
AcDbPolyline
 62
250
  6
CONTINUOUS
 90
22
 70
0
 10
152.774056192
 20
134.4584142509
 10
152.8170632216
 20
134.4778903418
 10
152.8622717492
 20
134.4955916699
 10
152.9096817749
 20
134.5115182352
 10
152.9595350894
 20
134.5257271498
 10
153.011589902
 20
134.5381613016
 10
153.0651208401
 20
134.5486493544
 10
153.1202431849
 20
134.5571701096
 10
153.1768416552
 20
134.5637447658
 10
153.233845035
 20
134.568265582
 10
153.2909655166
 20
134.5707193753
 10
153.3484909077
 20
134.5711193287
 10
153.4062134152
 20
134.5693972496
 10
153.4642173911
 20
134.5656143709
 10
153.5224184835
 20
134.5597094597
 10
153.5803558433
 20
134.5514306254
 10
153.6384974122
 20
134.5406642773
 10
153.6963752485
 20
134.5275240061
 10
153.752124677
 20
134.5120986935
 10
153.8051241395
 20
134.4944179668
 10
153.8559951942
 20
134.4744521986
 10
153.9047378413
 20
134.452201389
  0
LWPOLYLINE
  5
384
100
AcDbEntity
  8
RACCORDO
100
AcDbPolyline
 62
7
  6
CONTINUOUS
 90
9
 70
0
 10
154.5457979593
 20
133.2248683087
 10
154.6078065394
 20
133.2517482032
 10
154.6684069266
 20
133.2716726596
 10
154.7275991209
 20
133.2846416777
 10
154.7858044547
 20
133.2906485137
 10
154.8426015956
 20
133.2896999115
 10
154.8967265466
 20
133.2818161027
 10
154.9481209513
 20
133.2668410777
 10
154.9867659311
 20
133.2502552804
  0
LWPOLYLINE
  5
385
100
AcDbEntity
  8
0
100
AcDbPolyline
 62
7
  6
CONTINUOUS
 90
3
 70
0
 10
157.3900565936
 20
86.061293404
 10
157.4420194924
 20
86.0594912889
 10
157.5113435323
 20
86.0655018564
  0
LWPOLYLINE
  5
386
100
AcDbEntity
  8
RACCORDO
100
AcDbPolyline
 62
250
  6
CONTINUOUS
 90
3
 70
0
 10
169.2499662158
 20
79.6246982718
 10
169.2439410293
 20
79.6274382828
 10
169.2266823842
 20
79.6327201663
  0
LINE
  5
387
100
AcDbEntity
  8
RACCORDO
100
AcDbLine
 62
7
  6
CONTINUOUS
 10
165.574014874
 20
78.4423627989
 11
166.8989995538
 21
77.779870459
  0
LINE
  5
388
100
AcDbEntity
  8
RACCORDO
100
AcDbLine
 62
250
  6
CONTINUOUS
 10
165.5090415775
 20
78.577581249
 11
166.8340262573
 21
77.9150889091
  0
LINE
  5
389
100
AcDbEntity
  8
RACCORDO
100
AcDbLine
 62
250
  6
CONTINUOUS
 10
166.8340262573
 20
78.2550628432
 11
165.611622887
 21
78.8662645284
  0
LINE
  5
38A
100
AcDbEntity
  8
RACCORDO
100
AcDbLine
 62
250
  6
CONTINUOUS
 10
166.922414605
 20
78.486757017
 11
165.9115799771
 21
78.992174331
  0
LINE
  5
38B
100
AcDbEntity
  8
RACCORDO
100
AcDbLine
 62
7
  6
CONTINUOUS
 10
167.0599438372
 20
79.4742108345
 11
167.5666560221
 21
79.2209222841
  0
LINE
  5
38C
100
AcDbEntity
  8
RACCORDO
100
AcDbLine
 62
250
  6
CONTINUOUS
 10
168.7878290078
 20
79.8521468545
 11
169.2266823842
 21
79.6327201663
  0
LINE
  5
38D
100
AcDbEntity
  8
RACCORDO
100
AcDbLine
 62
7
  6
CONTINUOUS
 10
168.7878290078
 20
79.855767004
 11
169.2500974354
 21
79.6246327902
  0
LWPOLYLINE
  5
38E
100
AcDbEntity
  8
0
100
AcDbPolyline
 62
7
  6
CONTINUOUS
 90
49
 70
0
 10
151.726985884
 20
87.4117807193
 10
151.6110444681
 20
87.4742925345
 10
151.4961224271
 20
87.5451505953
 10
151.3822204704
 20
87.624355285
 10
151.2687739987
 20
87.7123747232
 10
151.1563504654
 20
87.8087423321
 10
151.0466492296
 20
87.9120567575
 10
150.9398148207
 20
88.0223367701
 10
150.8357079533
 20
88.1395664289
 10
150.7356024314
 20
88.2622924011
 10
150.6395294355
 20
88.3906098665
 10
150.5474646548
 20
88.5244273455
 10
150.4605982436
 20
88.6620112913
 10
150.3790101014
 20
88.803396283
 10
150.3026277298
 20
88.9485517173
 10
150.2324115883
 20
89.0956456793
 10
150.1684396988
 20
89.244707046
 10
150.1106408869
 20
89.395710605
 10
150.0597500546
 20
89.5467423559
 10
150.0158561265
 20
89.6978031185
 10
149.9788754277
 20
89.8488948665
 10
149.949281623
 20
89.998104074
 10
149.9271680945
 20
90.1454102047
 10
149.912444326
 20
90.290835301
 10
149.9053054098
 20
90.4325282443
 10
149.905848284
 20
90.5704463252
 10
149.9139760491
 20
90.7046322434
 10
149.929590158
 20
90.8333614533
 10
149.952787028
 20
90.956562666
 10
149.983467417
 20
91.074305636
 10
150.0212365249
 20
91.1850759107
 10
150.0661811988
 20
91.2887775452
 10
150.118209331
 20
91.3855036622
 10
150.1766553241
 20
91.474022155
 10
150.2415941682
 20
91.5542262592
 10
150.3129440078
 20
91.6262190768
 10
150.3898022058
 20
91.6890823635
 10
150.4722382606
 20
91.7427013368
 10
150.5601752507
 20
91.7871868342
 10
150.6524898148
 20
91.8219584638
 10
150.7492263735
 20
91.8468915318
 10
150.8503336314
 20
91.8621070884
 10
150.9545442384
 20
91.8673931398
 10
151.0619659864
 20
91.8625931804
 10
151.1724858199
 20
91.8478609314
 10
151.2845052839
 20
91.8234498275
 10
151.3974905591
 20
91.7894438179
 10
151.5119726059
 20
91.7457574428
 10
151.6279507125
 20
91.692390326
  0
LWPOLYLINE
  5
38F
100
AcDbEntity
  8
0
100
AcDbPolyline
 62
7
  6
CONTINUOUS
 90
49
 70
0
 10
156.6767333499
 20
84.9369069866
 10
156.5607903471
 20
84.9994198838
 10
156.4458671531
 20
85.0702787922
 10
156.3319644769
 20
85.1494840949
 10
156.2185178083
 20
85.2375039088
 10
156.106094512
 20
85.3338716591
 10
155.9963936806
 20
85.4371859991
 10
155.8895599136
 20
85.5474655011
 10
155.7854538555
 20
85.6646944226
 10
155.6853488335
 20
85.7874200335
 10
155.5892758445
 20
85.9157376264
 10
155.4972107614
 20
86.049555609
 10
155.4103438131
 20
86.1871406992
 10
155.3287548162
 20
86.3285276307
 10
155.252371356
 20
86.473685646
 10
155.1821542157
 20
86.6207826309
 10
155.1181814456
 20
86.7698474965
 10
155.0603818439
 20
86.9208549968
 10
155.0094905539
 20
87.0718908312
 10
154.9655965358
 20
87.2229559177
 10
154.9286160796
 20
87.3740521321
 10
154.8990229856
 20
87.5232653532
 10
154.8769107215
 20
87.6705749219
 10
154.8621886851
 20
87.8160030033
 10
154.8550518458
 20
87.9576982516
 10
154.8555971405
 20
88.0956178053
 10
154.86372767
 20
88.2298045159
 10
154.8793447664
 20
88.3585340675
 10
154.9025447536
 20
88.4817351396
 10
154.9332284823
 20
88.5994775178
 10
154.9710013112
 20
88.7102470733
 10
155.0159502958
 20
88.8139482119
 10
155.0679831204
 20
88.9106737056
 10
155.1264337208
 20
88.9991907189
 10
155.1913772081
 20
89.0793921954
 10
155.2627316045
 20
89.1513815285
 10
155.3395934413
 20
89.2142406201
 10
155.422032178
 20
89.2678544437
 10
155.5099709308
 20
89.3123340803
 10
155.602285622
 20
89.347100015
 10
155.6990200218
 20
89.3720275759
 10
155.8001234851
 20
89.3872377912
 10
155.9043298969
 20
89.3925194798
 10
156.0117477245
 20
89.3877162624
 10
156.1222632381
 20
89.3729817345
 10
156.234277194
 20
89.3485697656
 10
156.3472555103
 20
89.3145644504
 10
156.4617294105
 20
89.270880184
 10
156.5776981832
 20
89.2175165904
  0
LWPOLYLINE
  5
390
100
AcDbEntity
  8
RACCORDO
100
AcDbPolyline
 62
250
  6
CONTINUOUS
 90
7
 70
0
 10
165.5090415775
 20
78.577581249
 10
165.487553745
 20
78.5898263484
 10
165.4694332271
 20
78.6033646608
 10
165.4549877816
 20
78.6179662522
 10
165.4444627493
 20
78.63338313
 10
165.4380368867
 20
78.6493534546
 10
165.4358182728
 20
78.6659695967
  0
LWPOLYLINE
  5
391
100
AcDbEntity
  8
RACCORDO
100
AcDbPolyline
 62
250
  6
CONTINUOUS
 90
13
 70
0
 10
137.9123274759
 20
134.5312385634
 10
137.9106763174
 20
134.5603103182
 10
137.9060204131
 20
134.590423997
 10
137.8984372069
 20
134.621060625
 10
137.8880536231
 20
134.6516945368
 10
137.8750471316
 20
134.681792739
 10
137.8596454403
 20
134.710824922
 10
137.8420747909
 20
134.7383463036
 10
137.8226712057
 20
134.7638144602
 10
137.8019180589
 20
134.7866400074
 10
137.7802484611
 20
134.8064439447
 10
137.7580002003
 20
134.8230092666
 10
137.7355537722
 20
134.8361281023
  0
LWPOLYLINE
  5
392
100
AcDbEntity
  8
RACCORDO
100
AcDbPolyline
 62
250
  6
CONTINUOUS
 90
9
 70
0
 10
137.5598055162
 20
134.1917773532
 10
137.5610129052
 20
134.1671198517
 10
137.5646185866
 20
134.1440065272
 10
137.5705733176
 20
134.1227531177
 10
137.5788113997
 20
134.1036198812
 10
137.5892119017
 20
134.0869063527
 10
137.6015651346
 20
134.0729052986
 10
137.6156492513
 20
134.061782063
 10
137.6247709585
 20
134.0565628306
  0
LINE
  5
393
100
AcDbEntity
  8
RACCORDO
100
AcDbLine
 62
250
  6
CONTINUOUS
 10
137.9123274759
 20
134.1912646293
 11
137.9123274759
 21
134.5312385634
  0
LINE
  5
394
100
AcDbEntity
  8
RACCORDO
100
AcDbLine
 62
250
  6
CONTINUOUS
 10
138.2710261243
 20
133.9182738303
 11
138.2710261243
 21
133.2243611031
  0
LINE
  5
395
100
AcDbEntity
  8
RACCORDO
100
AcDbLine
 62
250
  6
CONTINUOUS
 10
138.623548084
 20
134.0427611065
 11
138.623548084
 21
133.2351289847
  0
LINE
  5
396
100
AcDbEntity
  8
RACCORDO
100
AcDbLine
 62
7
  6
CONTINUOUS
 10
139.5136082667
 20
133.7393675952
 11
139.5136082667
 21
135.3339605669
  0
LINE
  5
397
100
AcDbEntity
  8
RACCORDO
100
AcDbLine
 62
250
  6
CONTINUOUS
 10
140.0418754385
 20
135.597399387
 11
140.0418754385
 21
135.2498678702
  0
LINE
  5
398
100
AcDbEntity
  8
RACCORDO
100
AcDbLine
 62
7
  6
CONTINUOUS
 10
140.1140732954
 20
135.6852720192
 11
140.1140732954
 21
135.3377405024
  0
LWPOLYLINE
  5
399
100
AcDbEntity
  8
RACCORDO
100
AcDbPolyline
 62
7
  6
CONTINUOUS
 90
3
 70
0
 10
141.7428537102
 20
133.259078
 10
141.7395698386
 20
133.2350935479
 10
141.7388216147
 20
133.2182318119
  0
LWPOLYLINE
  5
39A
100
AcDbEntity
  8
0
100
AcDbPolyline
 62
250
  6
CONTINUOUS
 90
7
 70
0
 10
149.9615716219
 20
132.0735404547
 10
149.9497624511
 20
132.0587560476
 10
149.9371331309
 20
132.0437573252
 10
149.9236836614
 20
132.0285442875
 10
149.9094140424
 20
132.0131169346
 10
149.894324274
 20
131.9974752664
 10
149.8784143563
 20
131.981619283
  0
LINE
  5
39B
100
AcDbEntity
  8
RACCORDO
100
AcDbLine
 62
250
  6
CONTINUOUS
 10
149.7518151307
 20
128.8029074442
 11
149.7748872568
 21
128.81646136
  0
LINE
  5
39C
100
AcDbEntity
  8
DRAFT
100
AcDbLine
 62
7
  6
CONTINUOUS
 10
148.5588601076
 20
129.3166011281
 11
148.4585090487
 21
129.259359515
  0
LINE
  5
39D
100
AcDbEntity
  8
RACCORDO
100
AcDbLine
 62
7
  6
CONTINUOUS
 10
148.4585090487
 20
129.259359515
 11
148.1008298995
 21
129.0597635631
  0
LINE
  5
39E
100
AcDbEntity
  8
RACCORDO
100
AcDbLine
 62
7
  6
CONTINUOUS
 10
151.2445582493
 20
129.6348934609
 11
149.6618015907
 21
128.8229093351
  0
LINE
  5
39F
100
AcDbEntity
  8
RACCORDO
100
AcDbLine
 62
250
  6
CONTINUOUS
 10
151.35764386
 20
129.6284454573
 11
149.7748872568
 21
128.81646136
  0
LINE
  5
3A0
100
AcDbEntity
  8
RACCORDO
100
AcDbLine
 62
7
  6
CONTINUOUS
 10
151.2462960002
 20
129.6357623812
 11
151.2445582493
 21
129.6348934609
  0
LINE
  5
3A1
100
AcDbEntity
  8
IMPORT_IGES
100
AcDbLine
 62
7
  6
CONTINUOUS
 10
164.6351177373
 20
135.3148697886
 11
163.9132813932
 21
134.9539516166
  0
LINE
  5
3A2
100
AcDbEntity
  8
RACCORDO
100
AcDbLine
 62
250
  6
CONTINUOUS
 10
153.2294198992
 20
129.2201298436
 11
151.0998719366
 21
128.15396902
  0
LINE
  5
3A3
100
AcDbEntity
  8
DRAFT
100
AcDbLine
 62
7
  6
CONTINUOUS
 10
148.5588601076
 20
129.3166011281
 11
153.7833431189
 21
131.9032486361
  0
LINE
  5
3A4
100
AcDbEntity
  8
RACCORDO
100
AcDbLine
 62
7
  6
CONTINUOUS
 10
151.7815816275
 20
129.8965277149
 11
151.246292364
 21
129.6357713574
  0
LINE
  5
3A5
100
AcDbEntity
  8
RACCORDO
100
AcDbLine
 62
250
  6
CONTINUOUS
 10
151.8920937386
 20
129.8887929239
 11
151.35764386
 21
129.6284454573
  0
LINE
  5
3A6
100
AcDbEntity
  8
RACCORDO
100
AcDbLine
 62
7
  6
CONTINUOUS
 10
157.6065930759
 20
131.6944707504
 11
152.9153501889
 21
129.4391420696
  0
LWPOLYLINE
  5
3A7
100
AcDbEntity
  8
0
100
AcDbPolyline
 62
250
  6
CONTINUOUS
 90
8
 70
0
 10
157.233890413
 20
130.5519911205
 10
157.2457747294
 20
130.5571033145
 10
157.264133187
 20
130.5621198488
 10
157.2835802307
 20
130.5642195198
 10
157.3039121506
 20
130.5633803333
 10
157.3249159676
 20
130.5596110798
 10
157.3463716648
 20
130.5529512426
 10
157.3680544917
 20
130.5434705844
  0
LWPOLYLINE
  5
3A8
100
AcDbEntity
  8
RACCORDO
100
AcDbPolyline
 62
250
  6
CONTINUOUS
 90
3
 70
0
 10
151.8040850272
 20
129.9041653903
 10
151.7848962307
 20
129.8980630454
 10
151.7815816275
 20
129.8965277149
  0
LWPOLYLINE
  5
3A9
100
AcDbEntity
  8
RACCORDO
100
AcDbPolyline
 62
7
  6
CONTINUOUS
 90
5
 70
0
 10
147.5107165153
 20
130.152440401
 10
147.4792712906
 20
130.1430561475
 10
147.4497007965
 20
130.1340574249
 10
147.4218939014
 20
130.1258964159
 10
147.3957859801
 20
130.1188111107
  0
LWPOLYLINE
  5
3AA
100
AcDbEntity
  8
0
100
AcDbPolyline
 62
7
  6
CONTINUOUS
 90
4
 70
0
 10
157.5113435323
 20
86.0655018564
 10
157.5768131826
 20
86.0797559902
 10
157.6383560123
 20
86.1020252212
 10
157.6595104136
 20
86.1119640768
  0
LINE
  5
3AB
100
AcDbEntity
  8
0
100
AcDbLine
 62
7
  6
CONTINUOUS
 10
152.4830438113
 20
88.6132165771
 11
152.5201655938
 21
88.6143357776
  0
LWPOLYLINE
  5
3AC
100
AcDbEntity
  8
RACCORDO
100
AcDbPolyline
 62
250
  6
CONTINUOUS
 90
5
 70
0
 10
152.0656473678
 20
90.8006174858
 10
151.9532701077
 20
90.847789136
 10
151.8428152143
 20
90.8761122748
 10
151.7361735655
 20
90.8851023267
 10
151.6351713465
 20
90.8746064348
  0
LWPOLYLINE
  5
3AD
100
AcDbEntity
  8
0
100
AcDbPolyline
 62
7
  6
CONTINUOUS
 90
10
 70
0
 10
157.0273320409
 20
88.4247535856
 10
156.9530051256
 20
88.4583475804
 10
156.8784955676
 20
88.4848132253
 10
156.8043092347
 20
88.5037278541
 10
156.7305902843
 20
88.5147500127
 10
156.6583053171
 20
88.5174063431
 10
156.5891142895
 20
88.5115622562
 10
156.5237526738
 20
88.4974920016
 10
156.4622823735
 20
88.4754291268
 10
156.43995188
 20
88.4649748802
  0
LWPOLYLINE
  5
3AE
100
AcDbEntity
  8
0
100
AcDbPolyline
 62
7
  6
CONTINUOUS
 90
11
 70
0
 10
152.0962375046
 20
90.8440018805
 10
152.0498670097
 20
90.8657389105
 10
152.0029274343
 20
90.8847388705
 10
151.9555625865
 20
90.9007941863
 10
151.9077213167
 20
90.9137439356
 10
151.8597856569
 20
90.923311197
 10
151.8125426201
 20
90.9292570061
 10
151.7661729873
 20
90.9315390153
 10
151.7208115091
 20
90.9301140536
 10
151.6771099234
 20
90.9250293142
 10
151.6351918608
 20
90.9164061107
  0
LWPOLYLINE
  5
3AF
100
AcDbEntity
  8
0
100
AcDbPolyline
 62
7
  6
CONTINUOUS
 90
49
 70
0
 10
151.6279507125
 20
91.692390326
 10
151.7438626743
 20
91.6298556437
 10
151.8586837466
 20
91.558933486
 10
151.9724146387
 20
91.4796242276
 10
152.0856216781
 20
91.3914601213
 10
152.1977413927
 20
91.294910423
 10
152.3070803631
 20
91.1913813141
 10
152.4134984509
 20
91.0808551804
 10
152.5171410415
 20
90.9633524117
 10
152.6167431683
 20
90.8403362854
 10
152.7122783191
 20
90.7117154164
 10
152.8037798777
 20
90.5775848317
 10
152.8900723066
 20
90.4396872097
 10
152.9710822233
 20
90.2979915833
 10
153.0468904113
 20
90.1525328528
 10
153.116551481
 20
90.0051519168
 10
153.1799932342
 20
89.8558248324
 10
153.2372947123
 20
89.7045791931
 10
153.2877356229
 20
89.5533322698
 10
153.3312325531
 20
89.4020851674
 10
153.3678741635
 20
89.2508395965
 10
153.3971959361
 20
89.1015124967
 10
153.4191074103
 20
88.954126543
 10
153.4337019102
 20
88.8086606155
 10
153.440787872
 20
88.6669645116
 10
153.440268668
 20
88.5290799894
 10
153.4322409671
 20
88.3949653431
 10
153.4168002709
 20
88.2663436361
 10
153.393847446
 20
88.1432846564
 10
153.3634788034
 20
88.0257171331
 10
153.3260802471
 20
87.9151510602
 10
153.2815589165
 20
87.811678551
 10
153.2300024153
 20
87.7152046949
 10
153.1720649769
 20
87.626957677
 10
153.1076640568
 20
87.5470410366
 10
153.0368753326
 20
87.4753475596
 10
152.9605885982
 20
87.4127883439
 10
152.878726558
 20
87.3594743417
 10
152.7913590825
 20
87.3152906123
 10
152.699595619
 20
87.2808088207
 10
152.6033845765
 20
87.2561493467
 10
152.5027706714
 20
87.2411881077
 10
152.3990073971
 20
87.2361298498
 10
152.291980581
 20
87.2411271392
 10
152.181799134
 20
87.2560245702
 10
152.0700513409
 20
87.2805650198
 10
151.9572656297
 20
87.3146622398
 10
151.8429107146
 20
87.3584009344
 10
151.726985884
 20
87.4117807193
  0
LINE
  5
3B0
100
AcDbEntity
  8
RACCORDO
100
AcDbLine
 62
250
  6
CONTINUOUS
 10
152.1780238775
 20
90.7354046484
 11
152.0656473678
 21
90.8006174858
  0
LINE
  5
3B1
100
AcDbEntity
  8
RACCORDO
100
AcDbLine
 62
250
  6
CONTINUOUS
 10
169.2490929191
 20
79.6191857915
 11
169.2266823842
 21
79.6327201663
  0
LWPOLYLINE
  5
3B2
100
AcDbEntity
  8
RACCORDO
100
AcDbPolyline
 62
7
  6
CONTINUOUS
 90
13
 70
0
 10
139.5136082667
 20
135.3339605669
 10
139.5119698084
 20
135.362913043
 10
139.5073524612
 20
135.3928912114
 10
139.4998352259
 20
135.4233821594
 10
139.4895467201
 20
135.4538642016
 10
139.4766629746
 20
135.4838158037
 10
139.4614044214
 20
135.5127245062
 10
139.4440321255
 20
135.5400956933
 10
139.4248433208
 20
135.5654610576
 10
139.404166322
 20
135.5883866108
 10
139.3823549037
 20
135.6084801077
 10
139.3597822482
 20
135.6253977571
 10
139.336834563
 20
135.6388501058
  0
LWPOLYLINE
  5
3B3
100
AcDbEntity
  8
RACCORDO
100
AcDbPolyline
 62
250
  6
CONTINUOUS
 90
7
 70
0
 10
140.0418754385
 20
135.597399387
 10
140.0404760808
 20
135.6265970422
 10
140.0360322205
 20
135.656816743
 10
140.0286176009
 20
135.6875376643
 10
140.0183562007
 20
135.7182326679
 10
140.0054233113
 20
135.7483676711
 10
139.9900453195
 20
135.7774117038
  0
LINE
  5
3B4
100
AcDbEntity
  8
RACCORDO
100
AcDbLine
 62
7
  6
CONTINUOUS
 10
141.7388216147
 20
133.2182318119
 11
141.7389089283
 21
133.2073784804
  0
LINE
  5
3B5
100
AcDbEntity
  8
RACCORDO
100
AcDbLine
 62
7
  6
CONTINUOUS
 10
141.7380322711
 20
133.2181216295
 11
141.7380322711
 21
131.9773047394
  0
LINE
  5
3B6
100
AcDbEntity
  8
RACCORDO
100
AcDbLine
 62
250
  6
CONTINUOUS
 10
141.8844788805
 20
132.8744646605
 11
141.8844788805
 21
131.7938813497
  0
LWPOLYLINE
  5
3B7
100
AcDbEntity
  8
RACCORDO
100
AcDbPolyline
 62
250
  6
CONTINUOUS
 90
6
 70
0
 10
149.6500790309
 20
128.6896160626
 10
149.6673934966
 20
128.7171193653
 10
149.6865710642
 20
128.7426194866
 10
149.7072756422
 20
128.7656718234
 10
149.7291482801
 20
128.7858814575
 10
149.7518151307
 20
128.8029074442
  0
LINE
  5
3B8
100
AcDbEntity
  8
RACCORDO
100
AcDbLine
 62
250
  6
CONTINUOUS
 10
152.8779264311
 20
127.9247566323
 11
153.4061936029
 21
128.567708788
  0
LINE
  5
3B9
100
AcDbEntity
  8
RACCORDO
100
AcDbLine
 62
7
  6
CONTINUOUS
 10
152.9615690481
 20
127.937027307
 11
153.4215541753
 21
128.4968736214
  0
LWPOLYLINE
  5
3BA
100
AcDbEntity
  8
RACCORDO
100
AcDbPolyline
 62
7
  6
CONTINUOUS
 90
15
 70
0
 10
151.9878662484
 20
127.3606020242
 10
151.969957345
 20
127.3407297297
 10
151.9505508171
 20
127.3216020218
 10
151.9296973758
 20
127.3034525896
 10
151.9073889824
 20
127.2865461053
 10
151.8837996443
 20
127.2710857793
 10
151.8592785973
 20
127.257220784
 10
151.8339554393
 20
127.2451878516
 10
151.8079874789
 20
127.2352076933
 10
151.7817891717
 20
127.2274160951
 10
151.7555703307
 20
127.2220251491
 10
151.7295423637
 20
127.2192204747
 10
151.7041521449
 20
127.2191110028
 10
151.6797373707
 20
127.221844593
 10
151.6741143947
 20
127.222927411
  0
LINE
  5
3BB
100
AcDbEntity
  8
RACCORDO
100
AcDbLine
 62
250
  6
CONTINUOUS
 10
152.2979946979
 20
127.5305118658
 11
152.3204716691
 21
127.5436691538
  0
LWPOLYLINE
  5
3BC
100
AcDbEntity
  8
0
100
AcDbPolyline
 62
250
  6
CONTINUOUS
 90
13
 70
0
 10
158.9186914641
 20
131.9452245777
 10
158.8914470727
 20
131.9297441368
 10
158.8646228779
 20
131.9102060056
 10
158.8386627013
 20
131.8869334767
 10
158.8139960673
 20
131.8603116306
 10
158.7910310889
 20
131.8307809553
 10
158.7701477174
 20
131.7988300549
 10
158.7516914693
 20
131.7649875838
 10
158.7359676983
 20
131.7298134848
 10
158.7232365415
 20
131.6938897117
 10
158.7137086302
 20
131.6578106307
 10
158.7075416002
 20
131.6221731872
 10
158.7048374771
 20
131.5875670109
  0
LINE
  5
3BD
100
AcDbEntity
  8
RACCORDO
100
AcDbLine
 62
7
  6
CONTINUOUS
 10
152.2922480379
 20
126.7228242905
 11
151.9878662484
 21
126.5529699025
  0
LINE
  5
3BE
100
AcDbEntity
  8
RACCORDO
100
AcDbLine
 62
7
  6
CONTINUOUS
 10
158.4942993618
 20
130.9499694562
 11
157.634271463
 21
130.4859646742
  0
LINE
  5
3BF
100
AcDbEntity
  8
RACCORDO
100
AcDbLine
 62
7
  6
CONTINUOUS
 10
158.4942993618
 20
130.44508181
 11
158.1160038777
 21
130.2450984669
  0
LINE
  5
3C0
100
AcDbEntity
  8
RACCORDO
100
AcDbLine
 62
7
  6
CONTINUOUS
 10
153.7901426616
 20
128.3621012548
 11
152.2073860029
 21
127.550117129
  0
LINE
  5
3C1
100
AcDbEntity
  8
RACCORDO
100
AcDbLine
 62
250
  6
CONTINUOUS
 10
153.9032282722
 20
128.3556532512
 11
152.3204716691
 21
127.5436691538
  0
LINE
  5
3C2
100
AcDbEntity
  8
0
100
AcDbLine
 62
7
  6
CONTINUOUS
 10
157.233890413
 20
130.5519911205
 11
153.4783914599
 21
128.674241644
  0
LINE
  5
3C3
100
AcDbEntity
  8
0
100
AcDbLine
 62
250
  6
CONTINUOUS
 10
157.3680544917
 20
130.5434705844
 11
153.4705391258
 21
128.5947129014
  0
LINE
  5
3C4
100
AcDbEntity
  8
RACCORDO
100
AcDbLine
 62
7
  6
CONTINUOUS
 10
153.7918804125
 20
128.3629701751
 11
153.7901426616
 21
128.3621012548
  0
LINE
  5
3C5
100
AcDbEntity
  8
0
100
AcDbLine
 62
7
  6
CONTINUOUS
 10
154.4470565804
 20
128.6482868861
 11
157.1205671183
 21
129.985042155
  0
LINE
  5
3C6
100
AcDbEntity
  8
0
100
AcDbLine
 62
7
  6
CONTINUOUS
 10
159.5972372311
 20
128.7467070986
 11
156.1659729636
 21
127.0310749649
  0
LINE
  5
3C7
100
AcDbEntity
  8
RACCORDO
100
AcDbLine
 62
250
  6
CONTINUOUS
 10
153.4061936029
 20
128.9152403048
 11
151.2766456403
 21
127.8490794812
  0
LINE
  5
3C8
100
AcDbEntity
  8
RACCORDO
100
AcDbLine
 62
250
  6
CONTINUOUS
 10
155.7750043115
 20
127.9473376374
 11
153.6454563489
 21
126.8811768139
  0
LINE
  5
3C9
100
AcDbEntity
  8
RACCORDO
100
AcDbLine
 62
250
  6
CONTINUOUS
 10
155.9517780151
 20
127.6424480986
 11
153.8222300526
 21
126.5762872751
  0
LINE
  5
3CA
100
AcDbEntity
  8
0
100
AcDbLine
 62
7
  6
CONTINUOUS
 10
158.7852641852
 20
131.3946392993
 11
158.6335055898
 21
131.3203362578
  0
LINE
  5
3CB
100
AcDbEntity
  8
0
100
AcDbLine
 62
250
  6
CONTINUOUS
 10
158.9190359331
 20
131.3859243803
 11
158.6360129449
 21
131.2473525336
  0
LINE
  5
3CC
100
AcDbEntity
  8
RACCORDO
100
AcDbLine
 62
7
  6
CONTINUOUS
 10
154.3271660398
 20
128.6237355088
 11
153.7918767763
 21
128.3629791513
  0
LINE
  5
3CD
100
AcDbEntity
  8
RACCORDO
100
AcDbLine
 62
250
  6
CONTINUOUS
 10
154.4376781509
 20
128.6160007177
 11
153.9032282722
 21
128.3556532512
  0
LWPOLYLINE
  5
3CE
100
AcDbEntity
  8
0
100
AcDbPolyline
 62
7
  6
CONTINUOUS
 90
4
 70
0
 10
152.5201655938
 20
88.6143357776
 10
152.5784980788
 20
88.6227901925
 10
152.634054586
 20
88.6377667395
 10
152.6862748342
 20
88.659005296
  0
LWPOLYLINE
  5
3CF
100
AcDbEntity
  8
0
100
AcDbPolyline
 62
7
  6
CONTINUOUS
 90
49
 70
0
 10
156.5776981832
 20
89.2175165904
 10
156.6936116738
 20
89.1549808496
 10
156.8084338257
 20
89.0840578958
 10
156.9221653481
 20
89.0047481036
 10
157.0353724691
 20
88.9165837361
 10
157.1474918159
 20
88.8200340389
 10
157.2568302682
 20
88.716505163
 10
157.3632476234
 20
88.6059796971
 10
157.4668893309
 20
88.4884778281
 10
157.5664909146
 20
88.3654621932
 10
157.662026051
 20
88.2368412949
 10
157.7535279355
 20
88.1027102728
 10
157.8398209555
 20
87.9648115033
 10
157.9208318242
 20
87.823113842
 10
157.9966412301
 20
87.677652367
 10
158.0663034231
 20
87.5302682082
 10
158.1297461716
 20
87.3809373874
 10
158.1870485512
 20
87.2296875338
 10
158.2374900104
 20
87.0784362558
 10
158.2809870954
 20
86.927184557
 10
158.3176285082
 20
86.7759342496
 10
158.3469495941
 20
86.626602914
 10
158.3688597993
 20
86.479213359
 10
158.3834525407
 20
86.3337443307
 10
158.3905363956
 20
86.1920458648
 10
158.3900147366
 20
86.0541598854
 10
158.3819842313
 20
85.92004452
 10
158.3665405193
 20
85.7914225712
 10
158.3435845668
 20
85.66836386
 10
158.3132125845
 20
85.5507970821
 10
158.2758103156
 20
85.4402318714
 10
158.2312846925
 20
85.336759978
 10
158.1797235263
 20
85.2402868546
 10
158.121781511
 20
85.1520414153
 10
158.0573759791
 20
85.0721274915
 10
157.98658273
 20
85.0004375762
 10
157.910292384
 20
84.9378826186
 10
157.8284276826
 20
84.8845738129
 10
157.7410584581
 20
84.8403959759
 10
157.6492948732
 20
84.8059198976
 10
157.5530859862
 20
84.7812659343
 10
157.4524758639
 20
84.7663100269
 10
157.3487167682
 20
84.7612561183
 10
157.2416938517
 20
84.766256651
 10
157.131516701
 20
84.7811563437
 10
157.019774396
 20
84.8056976427
 10
156.9069956295
 20
84.8397941562
 10
156.7926488513
 20
84.8835307323
 10
156.6767333499
 20
84.9369069866
  0
LWPOLYLINE
  5
3D0
100
AcDbEntity
  8
CURVE
100
AcDbPolyline
 62
250
  6
CONTINUOUS
 90
52
 70
0
 10
144.1878799538
 20
102.4136230345
 10
144.2478203433
 20
102.3111902016
 10
144.3092936993
 20
102.2098039113
 10
144.3722888791
 20
102.1094807504
 10
144.4531357608
 20
101.9856246062
 10
144.5362002249
 20
101.8636529881
 10
144.621339415
 20
101.743763365
 10
144.7084104745
 20
101.6261532063
 10
144.7972705469
 20
101.5110199812
 10
144.8877767757
 20
101.3985611588
 10
144.9798036558
 20
101.2889473685
 10
145.0732950866
 20
101.1822418808
 10
145.1682123192
 20
101.0784811261
 10
145.2645166044
 20
100.9777015351
 10
145.3621691931
 20
100.8799395382
 10
145.4611313362
 20
100.7852315661
 10
145.5613447466
 20
100.693629435
 10
145.6626729864
 20
100.6052465038
 10
145.7649600796
 20
100.5202115173
 10
145.8680500502
 20
100.4386532202
 10
145.9717869222
 20
100.3607003572
 10
146.0760147197
 20
100.286481673
 10
146.1805940065
 20
100.2161093974
 10
146.2854515052
 20
100.1496297009
 10
146.3905304781
 20
100.0870722391
 10
146.4957741874
 20
100.0284666676
 10
146.6011258956
 20
99.9738426422
 10
146.7065288648
 20
99.9232298183
 10
146.8119119707
 20
99.8766614495
 10
146.9171465417
 20
99.8341851803
 10
147.0220895197
 20
99.795852253
 10
147.1265978464
 20
99.76171391
 10
147.2305284636
 20
99.7318213936
 10
147.3337383131
 20
99.7062259463
 10
147.4360978773
 20
99.6849719358
 10
147.5375318013
 20
99.6680762319
 10
147.6379782712
 20
99.6555488298
 10
147.7373754727
 20
99.6473997247
 10
147.8356615918
 20
99.6436389118
 10
147.9327748142
 20
99.6442763864
 10
148.0286400099
 20
99.6493143087
 10
148.1231287847
 20
99.6587234991
 10
148.2160994282
 20
99.6724669431
 10
148.3074102303
 20
99.690507626
 10
148.3969194808
 20
99.7128085334
 10
148.4844854693
 20
99.7393326506
 10
148.5699966528
 20
99.7700541672
 10
148.6534621565
 20
99.8049920892
 10
148.7349212724
 20
99.8441766267
 10
148.814413293
 20
99.8876379899
 10
148.8919775104
 20
99.9354063888
 10
148.9676532169
 20
99.9875120336
  0
LINE
  5
3D1
100
AcDbEntity
  8
RACCORDO
100
AcDbLine
 62
7
  6
CONTINUOUS
 10
141.7389089283
 20
133.2073784804
 11
141.7412640442
 21
133.1769225681
  0
LWPOLYLINE
  5
3D2
100
AcDbEntity
  8
RACCORDO
100
AcDbPolyline
 62
250
  6
CONTINUOUS
 90
9
 70
0
 10
151.2766456403
 20
127.5091055471
 10
151.2635652655
 20
127.4797103885
 10
151.2477119334
 20
127.4523318322
 10
151.2293558966
 20
127.427436602
 10
151.2088100715
 20
127.4054490882
 10
151.1864247039
 20
127.3867441132
 10
151.1625813984
 20
127.3716405418
 10
151.1376866131
 20
127.3603958453
 10
151.1121647308
 20
127.3532017127
  0
LWPOLYLINE
  5
3D3
100
AcDbEntity
  8
RACCORDO
100
AcDbPolyline
 62
250
  6
CONTINUOUS
 90
6
 70
0
 10
152.1966120121
 20
127.4184666782
 10
152.2140838895
 20
127.4459249945
 10
152.2334085793
 20
127.4713443351
 10
152.2541063111
 20
127.4941390129
 10
152.2757467699
 20
127.5139330397
 10
152.2979946979
 20
127.5305118658
  0
LINE
  5
3D4
100
AcDbEntity
  8
RACCORDO
100
AcDbLine
 62
250
  6
CONTINUOUS
 10
155.9671748474
 20
127.2241256754
 11
155.9671385875
 21
127.2240814153
  0
LINE
  5
3D5
100
AcDbEntity
  8
RACCORDO
100
AcDbLine
 62
250
  6
CONTINUOUS
 10
155.4235108434
 20
126.6519644261
 11
155.9517780151
 21
127.2949165819
  0
LINE
  5
3D6
100
AcDbEntity
  8
RACCORDO
100
AcDbLine
 62
7
  6
CONTINUOUS
 10
155.4235108434
 20
126.5624339598
 11
155.9671385875
 21
127.2240814153
  0
LWPOLYLINE
  5
3D7
100
AcDbEntity
  8
0
100
AcDbPolyline
 62
7
  6
CONTINUOUS
 90
9
 70
0
 10
158.8615482105
 20
131.4465485668
 10
158.8612771509
 20
131.4462333995
 10
158.8586521033
 20
131.4432530951
 10
158.8533717645
 20
131.4380891252
 10
158.8453697215
 20
131.4312849449
 10
158.8344657193
 20
131.4231520164
 10
158.8205587519
 20
131.4140020136
 10
158.8037700114
 20
131.4042253559
 10
158.7853346516
 20
131.3946737706
  0
LWPOLYLINE
  5
3D8
100
AcDbEntity
  8
RACCORDO
100
AcDbPolyline
 62
7
  6
CONTINUOUS
 90
15
 70
0
 10
154.5334506607
 20
126.0878098181
 10
154.5155417573
 20
126.0679375236
 10
154.4961352293
 20
126.0488098157
 10
154.4752817881
 20
126.0306603834
 10
154.4529733947
 20
126.0137538991
 10
154.4293840566
 20
125.9982935731
 10
154.4048630096
 20
125.9844285779
 10
154.3795398516
 20
125.9723956455
 10
154.3535718912
 20
125.9624154871
 10
154.327373584
 20
125.954623889
 10
154.3011547429
 20
125.9492329429
 10
154.275126776
 20
125.9464282686
 10
154.2497365572
 20
125.9463187967
 10
154.225321783
 20
125.9490523869
 10
154.219698807
 20
125.9501352049
  0
LINE
  5
3D9
100
AcDbEntity
  8
RACCORDO
100
AcDbLine
 62
7
  6
CONTINUOUS
 10
155.525036386
 20
125.8335129889
 11
154.5334506607
 21
125.2801776963
  0
LINE
  5
3DA
100
AcDbEntity
  8
RACCORDO
100
AcDbLine
 62
7
  6
CONTINUOUS
 10
157.7923305618
 20
125.4467402043
 11
158.145871951
 21
125.6281136291
  0
LINE
  5
3DB
100
AcDbEntity
  8
0
100
AcDbLine
 62
250
  6
CONTINUOUS
 10
155.6823170801
 20
126.3545622805
 11
160.7140940898
 21
128.8704507853
  0
LINE
  5
3DC
100
AcDbEntity
  8
0
100
AcDbLine
 62
250
  6
CONTINUOUS
 10
156.1450603552
 20
126.1231906429
 11
160.926096899
 21
128.5137089148
  0
LINE
  5
3DD
100
AcDbEntity
  8
RACCORDO
100
AcDbLine
 62
7
  6
CONTINUOUS
 10
163.1522647324
 20
128.9216349222
 11
156.8377244058
 21
125.7768586176
  0
LINE
  5
3DE
100
AcDbEntity
  8
ASSI
100
AcDbLine
 62
7
  6
CONTINUOUS
 10
164.0876257916
 20
127.9247918773
 11
159.4893748352
 21
125.6584305798
  0
LINE
  5
3DF
100
AcDbEntity
  8
ASSI
100
AcDbLine
 62
7
  6
CONTINUOUS
 10
158.145871951
 20
125.6281136291
 11
163.4820953569
 21
128.2275570946
  0
LINE
  5
3E0
100
AcDbEntity
  8
DRAFT
100
AcDbLine
 62
7
  6
CONTINUOUS
 10
155.4235108434
 20
125.7844163068
 11
155.525036386
 21
125.8335129889
  0
LWPOLYLINE
  5
3E1
100
AcDbEntity
  8
ASSI
100
AcDbPolyline
 62
7
  6
CONTINUOUS
 90
7
 70
0
 10
164.0876257916
 20
127.9247918773
 10
164.0957804954
 20
127.9286948367
 10
164.1039317198
 20
127.9323665524
 10
164.1120794647
 20
127.9358070244
 10
164.1202237303
 20
127.9390162527
 10
164.1283645164
 20
127.9419942372
 10
164.1365018231
 20
127.944740978
  0
LWPOLYLINE
  5
3E2
100
AcDbEntity
  8
ASSI
100
AcDbPolyline
 62
7
  6
CONTINUOUS
 90
7
 70
0
 10
163.4820953569
 20
128.2275570946
 10
163.490588726
 20
128.2315699887
 10
163.4990801603
 20
128.2353354411
 10
163.5075696596
 20
128.2388534518
 10
163.516057224
 20
128.2421240207
 10
163.5245428536
 20
128.2451471479
 10
163.5330265482
 20
128.2479228334
  0
LWPOLYLINE
  5
3E3
100
AcDbEntity
  8
0
100
AcDbPolyline
 62
250
  6
CONTINUOUS
 90
10
 70
0
 10
152.0962375046
 20
90.8440018805
 10
152.0582945929
 20
90.953567485
 10
152.0166947778
 20
91.0595960276
 10
151.9714892288
 20
91.1619570889
 10
151.9227335508
 20
91.2605247601
 10
151.8704877152
 20
91.3551777991
 10
151.8148159867
 20
91.4457997783
 10
151.7557868439
 20
91.532279229
 10
151.6934728952
 20
91.6145097778
 10
151.6279507893
 20
91.6923902775
  0
LWPOLYLINE
  5
3E4
100
AcDbEntity
  8
RACCORDO
100
AcDbPolyline
 62
7
  6
CONTINUOUS
 90
10
 70
0
 10
141.7412640442
 20
133.1769225681
 10
141.747165574
 20
133.1447664948
 10
141.756365894
 20
133.1115943526
 10
141.7680219904
 20
133.0775618107
 10
141.7820895935
 20
133.0430166436
 10
141.7986617648
 20
133.0084677762
 10
141.8172434498
 20
132.9740700679
 10
141.837692081
 20
132.9400617826
 10
141.860125433
 20
132.9067806501
 10
141.8844788805
 20
132.8744646605
  0
LINE
  5
3E5
100
AcDbEntity
  8
DRAFT
100
AcDbLine
 62
250
  6
CONTINUOUS
 10
147.1857168426
 20
133.381589563
 11
147.1857168426
 21
133.6028892006
  0
LINE
  5
3E6
100
AcDbEntity
  8
RACCORDO
100
AcDbLine
 62
250
  6
CONTINUOUS
 10
147.3957859801
 20
129.0382277999
 11
147.3957859801
 21
130.1188111107
  0
LINE
  5
3E7
100
AcDbEntity
  8
DRAFT
100
AcDbLine
 62
7
  6
CONTINUOUS
 10
147.8928236238
 20
133.9564425912
 11
147.8928236238
 21
134.5165584697
  0
LINE
  5
3E8
100
AcDbEntity
  8
RACCORDO
100
AcDbLine
 62
250
  6
CONTINUOUS
 10
148.1008298995
 20
129.0597635631
 11
148.1008298995
 21
130.2924905355
  0
LINE
  5
3E9
100
AcDbEntity
  8
ASSI
100
AcDbLine
 62
250
  6
CONTINUOUS
 10
148.2265992464
 20
134.6798788249
 11
148.2265992464
 21
135.8996922664
  0
LINE
  5
3EA
100
AcDbEntity
  8
DRAFT
100
AcDbLine
 62
7
  6
CONTINUOUS
 10
148.2463770144
 20
133.7796658959
 11
148.2463770144
 21
134.3397817744
  0
LINE
  5
3EB
100
AcDbEntity
  8
ASSI
100
AcDbLine
 62
7
  6
CONTINUOUS
 10
148.3519487537
 20
134.8289019536
 11
148.3519487537
 21
135.9092398728
  0
LINE
  5
3EC
100
AcDbEntity
  8
DRAFT
100
AcDbLine
 62
7
  6
CONTINUOUS
 10
148.4585090487
 20
130.4717950803
 11
148.4585090487
 21
129.259359515
  0
LINE
  5
3ED
100
AcDbEntity
  8
DRAFT
100
AcDbLine
 62
250
  6
CONTINUOUS
 10
148.599930405
 20
133.3259151193
 11
148.599930405
 21
133.6028892006
  0
LWPOLYLINE
  5
3EE
100
AcDbEntity
  8
RACCORDO
100
AcDbPolyline
 62
250
  6
CONTINUOUS
 90
7
 70
0
 10
149.5991390008
 20
128.512084545
 10
149.6005750173
 20
128.5403428788
 10
149.6048996213
 20
128.5697850453
 10
149.6121008793
 20
128.5999415167
 10
149.6221422194
 20
128.6303830493
 10
149.6348947305
 20
128.6605174973
 10
149.6500790309
 20
128.6896160626
  0
LWPOLYLINE
  5
3EF
100
AcDbEntity
  8
RACCORDO
100
AcDbPolyline
 62
250
  6
CONTINUOUS
 90
9
 70
0
 10
153.8222300526
 20
126.236313341
 10
153.8091496778
 20
126.2069181824
 10
153.7932963457
 20
126.1795396261
 10
153.7749403089
 20
126.1546443959
 10
153.7543944838
 20
126.1326568821
 10
153.7320091162
 20
126.1139519071
 10
153.7081658106
 20
126.0988483357
 10
153.6832710254
 20
126.0876036391
 10
153.6577491431
 20
126.0804095065
  0
LINE
  5
3F0
100
AcDbEntity
  8
DRAFT
100
AcDbLine
 62
7
  6
CONTINUOUS
 10
162.7404845144
 20
124.0328757402
 11
163.0956194193
 21
124.2142389408
  0
LINE
  5
3F1
100
AcDbEntity
  8
0
100
AcDbLine
 62
7
  6
CONTINUOUS
 10
163.0956194193
 20
125.6479379123
 11
163.8027262005
 21
126.0014913029
  0
LINE
  5
3F2
100
AcDbEntity
  8
0
100
AcDbLine
 62
7
  6
CONTINUOUS
 10
164.1562795911
 20
125.8247146076
 11
165.5540640976
 21
126.5236068608
  0
LINE
  5
3F3
100
AcDbEntity
  8
0
100
AcDbLine
 62
250
  6
CONTINUOUS
 10
167.6936646747
 20
126.235308525
 11
167.6655852294
 21
126.2215604524
  0
LINE
  5
3F4
100
AcDbEntity
  8
0
100
AcDbLine
 62
7
  6
CONTINUOUS
 10
163.0789468143
 20
123.8636445903
 11
164.0700157844
 21
124.3488852354
  0
LINE
  5
3F5
100
AcDbEntity
  8
DRAFT
100
AcDbLine
 62
7
  6
CONTINUOUS
 10
163.8027262005
 20
126.5616071814
 11
164.1365018231
 21
126.7249275366
  0
LINE
  5
3F6
100
AcDbEntity
  8
RACCORDO
100
AcDbLine
 62
7
  6
CONTINUOUS
 10
166.2130598489
 20
127.3912373639
 11
164.1562795911
 21
126.3848304861
  0
LINE
  5
3F7
100
AcDbEntity
  8
0
100
AcDbLine
 62
250
  6
CONTINUOUS
 10
166.9012952519
 20
127.0303938792
 11
167.2697452063
 21
127.2105697437
  0
LINE
  5
3F8
100
AcDbEntity
  8
0
100
AcDbLine
 62
250
  6
CONTINUOUS
 10
166.9354055752
 20
126.5866502795
 11
167.4798968378
 21
126.852912177
  0
LWPOLYLINE
  5
3F9
100
AcDbEntity
  8
0
100
AcDbPolyline
 62
250
  6
CONTINUOUS
 90
22
 70
0
 10
167.4798968378
 20
126.8529119063
 10
167.5065081145
 20
126.8654926608
 10
167.5348147312
 20
126.8770028177
 10
167.5646628175
 20
126.8873905431
 10
167.5958723589
 20
126.8966079038
 10
167.6282930883
 20
126.9046167521
 10
167.6618122437
 20
126.9113825795
 10
167.6963161387
 20
126.9168757543
 10
167.7315686465
 20
126.9210572535
 10
167.7672648645
 20
126.9238931486
 10
167.8030247063
 20
126.9253731797
 10
167.8388474988
 20
126.9255154791
 10
167.8749951038
 20
126.9243058362
 10
167.9112865886
 20
126.9217166682
 10
167.9475063838
 20
126.917719239
 10
167.9838341089
 20
126.9122225088
 10
168.0202681532
 20
126.9051191198
 10
168.0562669633
 20
126.8964077805
 10
168.091189683
 20
126.8861694153
 10
168.1246642706
 20
126.8744654174
 10
168.1565464092
 20
126.8612944128
 10
168.1865728686
 20
126.8466987885
  0
LWPOLYLINE
  5
3FA
100
AcDbEntity
  8
0
100
AcDbPolyline
 62
250
  6
CONTINUOUS
 90
22
 70
0
 10
167.2697452063
 20
127.2105697437
 10
167.3127522359
 20
127.2300458346
 10
167.3579607635
 20
127.2477471628
 10
167.4053707892
 20
127.2636737281
 10
167.4552241037
 20
127.2778826427
 10
167.5072789163
 20
127.2903167945
 10
167.5608098544
 20
127.3008048472
 10
167.6159321992
 20
127.3093256025
 10
167.6725306696
 20
127.3159002586
 10
167.7295340494
 20
127.3204210748
 10
167.786654531
 20
127.3228748682
 10
167.844179922
 20
127.3232748215
 10
167.9019024295
 20
127.3215527425
 10
167.9599064055
 20
127.3177698637
 10
168.0181074979
 20
127.3118649525
 10
168.0760448576
 20
127.3035861183
 10
168.1341864265
 20
127.2928197702
 10
168.1920642628
 20
127.279679499
 10
168.2478136913
 20
127.2642541864
 10
168.3008131538
 20
127.2465734596
 10
168.3516842086
 20
127.2266076914
 10
168.4004268556
 20
127.2043568819
  0
LWPOLYLINE
  5
3FB
100
AcDbEntity
  8
0
100
AcDbPolyline
 62
250
  6
CONTINUOUS
 90
22
 70
0
 10
164.9807933058
 20
124.5643304844
 10
165.0262198995
 20
124.5823003776
 10
165.0735687958
 20
124.5984564377
 10
165.1228399948
 20
124.6127986648
 10
165.1742750416
 20
124.6253798766
 10
165.2276323912
 20
124.6361472553
 10
165.282187408
 20
124.6449423474
 10
165.3381220485
 20
124.6517353201
 10
165.3952543562
 20
124.6565560061
 10
165.452313826
 20
124.6593354511
 10
165.509316475
 20
124.6599802223
 10
165.566246286
 20
124.6585837524
 10
165.6217847036
 20
124.6553573845
 10
165.6754164444
 20
124.6503446505
 10
165.7276567916
 20
124.6435020186
 10
165.7787330399
 20
124.6349102367
 10
165.8285756111
 20
124.6247396261
 10
165.8772540834
 20
124.6128198655
 10
165.9252044855
 20
124.5987207396
 10
165.9725721605
 20
124.5822988433
 10
166.0192117653
 20
124.5636975817
 10
166.0651233
 20
124.5429169548
  0
LWPOLYLINE
  5
3FC
100
AcDbEntity
  8
0
100
AcDbPolyline
 62
7
  6
CONTINUOUS
 90
5
 70
0
 10
164.9127077282
 20
124.5794579948
 10
164.9155489942
 20
124.5805214609
 10
164.924681678
 20
124.5824493739
 10
164.9346518512
 20
124.5824820729
 10
164.9453861238
 20
124.5806503742
  0
LINE
  5
3FD
100
AcDbEntity
  8
CURVE
100
AcDbLine
 62
250
  6
CONTINUOUS
 10
154.3632484194
 20
99.5413850585
 11
150.0296174746
 21
101.7082005309
  0
LWPOLYLINE
  5
3FE
100
AcDbEntity
  8
RACCORDO
100
AcDbPolyline
 62
250
  6
CONTINUOUS
 90
13
 70
0
 10
167.186548217
 20
78.2545501194
 10
167.1735701422
 20
78.273870488
 10
167.1578189701
 20
78.2944064131
 10
167.1395434535
 20
78.315817783
 10
167.1190225004
 20
78.3377618737
 10
167.0966053756
 20
78.3598509103
 10
167.072718636
 20
78.381658962
 10
167.0477895458
 20
78.4027976969
 10
167.022227919
 20
78.4229212869
 10
166.9964719264
 20
78.4416848792
 10
166.9709623756
 20
78.4587675502
 10
166.9461351269
 20
78.4738776358
 10
166.922414605
 20
78.486757017
  0
LWPOLYLINE
  5
3FF
100
AcDbEntity
  8
CURVE
100
AcDbPolyline
 62
250
  6
CONTINUOUS
 90
84
 70
0
 10
148.9676532169
 20
105.8050501727
 10
148.8765607041
 20
105.9593923742
 10
148.7827406791
 20
106.1102003262
 10
148.6861264231
 20
106.2575899883
 10
148.5866512173
 20
106.4016773197
 10
148.4842483429
 20
106.5425782802
 10
148.3789029413
 20
106.6803372594
 10
148.2708075958
 20
106.8147123693
 10
148.1602067503
 20
106.9453901519
 10
148.0473448483
 20
107.0720571494
 10
147.9324663337
 20
107.194399904
 10
147.8157921834
 20
107.3121419971
 10
147.697449508
 20
107.4251551673
 10
147.5775419514
 20
107.5333481926
 10
147.4561731573
 20
107.6366298507
 10
147.3334467697
 20
107.7349089196
 10
147.2094911237
 20
107.8280822023
 10
147.0845333193
 20
107.9159986025
 10
146.958825148
 20
107.9984950493
 10
146.8326184011
 20
108.0754084714
 10
146.70616487
 20
108.1465757978
 10
146.5796898812
 20
108.2118537884
 10
146.4533129017
 20
108.2711785275
 10
146.3271269339
 20
108.3245059301
 10
146.2012249799
 20
108.3717919114
 10
146.075700042
 20
108.4129923866
 10
145.9506753721
 20
108.4480632536
 10
145.8263952203
 20
108.4769603417
 10
145.7031340867
 20
108.4996394628
 10
145.581166471
 20
108.5160564289
 10
145.4607668733
 20
108.5261670522
 10
145.3421744581
 20
108.5299345702
 10
145.225487049
 20
108.5273519236
 10
145.1107671343
 20
108.5184194783
 10
144.9980772025
 20
108.5031376007
 10
144.8874797419
 20
108.4815066568
 10
144.7790685815
 20
108.4535441156
 10
144.6730629128
 20
108.4193358574
 10
144.5697132681
 20
108.3789848649
 10
144.4692701796
 20
108.3325941213
 10
144.3719841795
 20
108.2802666095
 10
144.2780699275
 20
108.222092055
 10
144.1875985928
 20
108.1581071538
 10
144.100605472
 20
108.0883353447
 10
144.0171258619
 20
108.0128000661
 10
143.9371950591
 20
107.9315247569
 10
143.8608715461
 20
107.844570661
 10
143.7883065486
 20
107.7521502444
 10
143.7196744781
 20
107.6545137786
 10
143.6551497461
 20
107.5519115349
 10
143.5949067642
 20
107.4445937847
 10
143.5390935063
 20
107.332774431
 10
143.4877521959
 20
107.2165219017
 10
143.4408986188
 20
107.0958682565
 10
143.3985485609
 20
106.9708455549
 10
143.3607178082
 20
106.8414858564
 10
143.3274298928
 20
106.7078773984
 10
143.2987393324
 20
106.5703331295
 10
143.274708391
 20
106.4292221763
 10
143.2553993326
 20
106.2849136652
 10
143.2408744213
 20
106.1377767228
 10
143.2311855858
 20
105.9881242526
 10
143.2263434137
 20
105.8360442667
 10
143.2263481577
 20
105.681568554
 10
143.2312000702
 20
105.5247289038
 10
143.2408994037
 20
105.3655571051
 10
143.2554359384
 20
105.2041513403
 10
143.2747575653
 20
105.0408753658
 10
143.2988017031
 20
104.876159331
 10
143.3275057706
 20
104.7104333857
 10
143.3608071866
 20
104.5441276794
 10
143.398651171
 20
104.3776078335
 10
143.4410141492
 20
104.2109813561
 10
143.487880348
 20
104.044291227
 10
143.539233994
 20
103.877580426
 10
143.5950593141
 20
103.710891933
 10
143.6553142025
 20
103.5443310368
 10
143.7198512249
 20
103.3782522623
 10
143.7884966145
 20
103.2130724436
 10
143.8610766046
 20
103.0492084145
 10
143.9374174284
 20
102.8870770089
 10
144.0173680125
 20
102.7270349188
 10
144.1008680567
 20
102.569198267
 10
144.1878799538
 20
102.4136230345
  0
LWPOLYLINE
  5
400
100
AcDbEntity
  8
ASSI
100
AcDbPolyline
 62
7
  6
CONTINUOUS
 90
4
 70
0
 10
148.3519487531
 20
135.9092740406
 10
148.3517408288
 20
135.9116918044
 10
148.3490703528
 20
135.917085937
 10
148.3451735666
 20
135.9199676517
  0
LINE
  5
401
100
AcDbEntity
  8
0
100
AcDbLine
 62
7
  6
CONTINUOUS
 10
150.3590116419
 20
132.1799616569
 11
150.3590286326
 21
132.1796667679
  0
LINE
  5
402
100
AcDbEntity
  8
RACCORDO
100
AcDbLine
 62
7
  6
CONTINUOUS
 10
150.3667546733
 20
132.0441825143
 11
150.359028723
 21
132.1796651816
  0
LWPOLYLINE
  5
403
100
AcDbEntity
  8
RACCORDO
100
AcDbPolyline
 62
250
  6
CONTINUOUS
 90
13
 70
0
 10
151.2766456403
 20
127.8490794812
 10
151.2750071681
 20
127.8780319505
 10
151.2703898086
 20
127.9080101128
 10
151.2628725628
 20
127.9385010555
 10
151.2525840472
 20
127.9689830927
 10
151.2397002935
 20
127.9989346907
 10
151.224441737
 20
128.0278433914
 10
151.2070694446
 20
128.0552145801
 10
151.1878806481
 20
128.0805799485
 10
151.167203659
 20
128.1035055066
 10
151.1453922513
 20
128.1235990088
 10
151.122819608
 20
128.1405166644
 10
151.0998719366
 20
128.15396902
  0
LWPOLYLINE
  5
404
100
AcDbEntity
  8
RACCORDO
100
AcDbPolyline
 62
7
  6
CONTINUOUS
 90
19
 70
0
 10
151.1473053121
 20
90.1065562524
 10
151.1545466691
 20
89.9676389652
 10
151.1758355766
 20
89.8263343403
 10
151.2104608601
 20
89.684601392
 10
151.2576469738
 20
89.5443310787
 10
151.3165804891
 20
89.4073256911
 10
151.3863927104
 20
89.2753760474
 10
151.4661820811
 20
89.150213129
 10
151.5548756319
 20
89.033697155
 10
151.6512924272
 20
88.927628843
 10
151.7550431257
 20
88.8329812136
 10
151.8643884958
 20
88.7520210225
 10
151.9760356539
 20
88.6873176909
 10
152.088569197
 20
88.639432556
 10
152.2010163554
 20
88.6086708871
 10
152.3105320331
 20
88.5954977957
 10
152.4151702145
 20
88.5993911899
 10
152.514012115
 20
88.6195246087
 10
152.6056269393
 20
88.6548857026
  0
LWPOLYLINE
  5
405
100
AcDbEntity
  8
RACCORDO
100
AcDbPolyline
 62
250
  6
CONTINUOUS
 90
25
 70
0
 10
151.1919636909
 20
90.0435701809
 10
151.198245138
 20
89.9230538769
 10
151.2169821149
 20
89.7983176072
 10
151.2478541925
 20
89.6714956029
 10
151.2903333647
 20
89.5447576511
 10
151.3436929017
 20
89.4202725165
 10
151.4070196278
 20
89.3001707873
 10
151.4792299242
 20
89.1865075821
 10
151.5590882619
 20
89.081227687
 10
151.6452280118
 20
88.9861327262
 10
151.7361751259
 20
88.9028498635
 10
151.830373509
 20
88.8328039379
 10
151.9262114643
 20
88.7771933407
 10
152.0220496659
 20
88.7369693856
 10
152.116247744
 20
88.7128206311
 10
152.2071925728
 20
88.705160226
 10
152.2933251406
 20
88.7141178011
 10
152.3731756214
 20
88.7395387178
 10
152.4453849234
 20
88.7809921142
 10
152.5087216363
 20
88.8377792696
 10
152.5620913164
 20
88.9089282649
 10
152.6045697422
 20
88.993204744
 10
152.6354326625
 20
89.0891539175
 10
152.654160389
 20
89.1951355259
 10
152.660437615
 20
89.3093332189
  0
LWPOLYLINE
  5
406
100
AcDbEntity
  8
RACCORDO
100
AcDbPolyline
 62
250
  6
CONTINUOUS
 90
24
 70
0
 10
152.660437615
 20
89.3093332189
 10
152.654156168
 20
89.4298495229
 10
152.6354191911
 20
89.5545857927
 10
152.6045471135
 20
89.681407797
 10
152.5620679412
 20
89.8081457487
 10
152.5087084043
 20
89.9326308834
 10
152.4453816781
 20
90.0527326125
 10
152.3731713818
 20
90.1663958177
 10
152.2933130441
 20
90.2716757129
 10
152.2071732942
 20
90.3667706736
 10
152.1162261801
 20
90.4500535363
 10
152.022027797
 20
90.520099462
 10
151.9261898417
 20
90.5757100591
 10
151.8303516401
 20
90.6159340142
 10
151.7361535619
 20
90.6400827687
 10
151.6452087332
 20
90.6477431739
 10
151.5590761654
 20
90.6387855987
 10
151.4792256845
 20
90.613364682
 10
151.4070163825
 20
90.5719112857
 10
151.3436796696
 20
90.5151241303
 10
151.2903099896
 20
90.443975135
 10
151.2478315638
 20
90.3596986558
 10
151.2169686435
 20
90.2637494823
 10
151.1982409169
 20
90.1577678739
  0
LWPOLYLINE
  5
407
100
AcDbEntity
  8
RACCORDO
100
AcDbPolyline
 62
250
  6
CONTINUOUS
 90
12
 70
0
 10
152.9265916106
 20
89.3156789846
 10
152.9192261579
 20
89.4569948708
 10
152.8972558204
 20
89.6032583377
 10
152.8610565041
 20
89.7519668615
 10
152.8112475634
 20
89.900576097
 10
152.7486812168
 20
90.0465433721
 10
152.6744279761
 20
90.1873711955
 10
152.5897583003
 20
90.3206500505
 10
152.4961208676
 20
90.4440995858
 10
152.3951178145
 20
90.5556076037
 10
152.2884772932
 20
90.6532662466
 10
152.1780238775
 20
90.7354046484
  0
LWPOLYLINE
  5
408
100
AcDbEntity
  8
0
100
AcDbPolyline
 62
7
  6
CONTINUOUS
 90
22
 70
0
 10
153.0015534455
 20
89.3302446197
 10
152.9975933494
 20
89.4105711307
 10
152.9887788366
 20
89.4933653558
 10
152.9750650187
 20
89.5781969923
 10
152.9563682644
 20
89.6648456367
 10
152.9327424933
 20
89.752600505
 10
152.9045111606
 20
89.8402532469
 10
152.8719109497
 20
89.9271848762
 10
152.8351143424
 20
90.013018913
 10
152.7945544453
 20
90.0969313822
 10
152.7508287361
 20
90.1779544186
 10
152.7039935652
 20
90.2562400382
 10
152.6535839587
 20
90.3325874505
 10
152.5993973834
 20
90.4070183353
 10
152.5420041229
 20
90.4784656584
 10
152.4820351981
 20
90.5460437439
 10
152.4196622474
 20
90.6094756827
 10
152.3553674149
 20
90.6681890852
 10
152.2903873834
 20
90.7211522891
 10
152.2254279425
 20
90.7680382453
 10
152.1605888382
 20
90.8090018371
 10
152.0962375046
 20
90.8440018805
  0
LWPOLYLINE
  5
409
100
AcDbEntity
  8
RACCORDO
100
AcDbPolyline
 62
250
  6
CONTINUOUS
 90
9
 70
0
 10
149.5991390008
 20
128.1721106109
 10
149.6003463898
 20
128.1474531094
 10
149.6039520712
 20
128.1243397849
 10
149.6099068022
 20
128.1030863754
 10
149.6181448843
 20
128.0839531389
 10
149.6285453863
 20
128.0672396104
 10
149.6408986192
 20
128.0532385563
 10
149.6549827359
 20
128.0421153207
 10
149.6641122973
 20
128.0368921608
  0
LWPOLYLINE
  5
40A
100
AcDbEntity
  8
RACCORDO
100
AcDbPolyline
 62
250
  6
CONTINUOUS
 90
9
 70
0
 10
150.9241236807
 20
127.509618271
 10
150.9253310696
 20
127.4849607695
 10
150.9289367511
 20
127.461847445
 10
150.9348914821
 20
127.4405940355
 10
150.9431295641
 20
127.421460799
 10
150.9535300661
 20
127.4047472705
 10
150.965883299
 20
127.3907462164
 10
150.9799674157
 20
127.3796229808
 10
150.9890891229
 20
127.3744037484
  0
LWPOLYLINE
  5
40B
100
AcDbEntity
  8
RACCORDO
100
AcDbPolyline
 62
7
  6
CONTINUOUS
 90
12
 70
0
 10
151.004093461
 20
134.8306643184
 10
151.0012671545
 20
134.9052289555
 10
150.9933245545
 20
134.9755653871
 10
150.980265661
 20
135.0416736131
 10
150.961916643
 20
135.1039846204
 10
150.9384513316
 20
135.1620674222
 10
150.9103912197
 20
135.2146290583
 10
150.8776322447
 20
135.2615471353
 10
150.8402784692
 20
135.3029440466
 10
150.7991635748
 20
135.3378940114
 10
150.754202479
 20
135.3662511895
 10
150.744125244
 20
135.371575624
  0
LINE
  5
40C
100
AcDbEntity
  8
RACCORDO
100
AcDbLine
 62
7
  6
CONTINUOUS
 10
149.5259156961
 20
128.6004728926
 11
149.5259156961
 21
128.2604989585
  0
LINE
  5
40D
100
AcDbEntity
  8
RACCORDO
100
AcDbLine
 62
250
  6
CONTINUOUS
 10
149.5991390008
 20
128.512084545
 11
149.5991390008
 21
128.1721106109
  0
LINE
  5
40E
100
AcDbEntity
  8
RACCORDO
100
AcDbLine
 62
7
  6
CONTINUOUS
 10
150.2289086504
 20
127.3005198825
 11
150.2289086504
 21
127.7544939842
  0
LINE
  5
40F
100
AcDbEntity
  8
RACCORDO
100
AcDbLine
 62
250
  6
CONTINUOUS
 10
150.3021319551
 20
127.2088081877
 11
150.3021319551
 21
127.7178823318
  0
LINE
  5
410
100
AcDbEntity
  8
RACCORDO
100
AcDbLine
 62
250
  6
CONTINUOUS
 10
150.9241236807
 20
127.509618271
 11
150.9241236807
 21
127.8495922051
  0
LINE
  5
411
100
AcDbEntity
  8
RACCORDO
100
AcDbLine
 62
7
  6
CONTINUOUS
 10
151.004093461
 20
134.8306643184
 11
151.004093461
 21
134.5523063366
  0
LINE
  5
412
100
AcDbEntity
  8
RACCORDO
100
AcDbLine
 62
250
  6
CONTINUOUS
 10
151.2766456403
 20
127.5091055471
 11
151.2766456403
 21
127.8490794812
  0
LINE
  5
413
100
AcDbEntity
  8
RACCORDO
100
AcDbLine
 62
250
  6
CONTINUOUS
 10
151.6353442887
 20
127.2361147481
 11
151.6353442887
 21
126.5422020208
  0
LINE
  5
414
100
AcDbEntity
  8
RACCORDO
100
AcDbLine
 62
250
  6
CONTINUOUS
 10
151.9878662484
 20
127.3606020242
 11
151.9878662484
 21
126.5529699025
  0
LINE
  5
415
100
AcDbEntity
  8
RACCORDO
100
AcDbLine
 62
7
  6
CONTINUOUS
 10
152.0715001084
 20
127.3276806865
 11
152.0715001084
 21
126.9877067524
  0
LINE
  5
416
100
AcDbEntity
  8
RACCORDO
100
AcDbLine
 62
250
  6
CONTINUOUS
 10
152.1447234131
 20
127.2392923389
 11
152.1447234131
 21
126.8993184047
  0
LWPOLYLINE
  5
417
100
AcDbEntity
  8
0
100
AcDbPolyline
 62
250
  6
CONTINUOUS
 90
6
 70
0
 10
150.3590286326
 20
132.1796667679
 10
150.3585654446
 20
132.1445979905
 10
150.3533853897
 20
132.1104926623
 10
150.3435654236
 20
132.0766122972
 10
150.329124579
 20
132.0430522144
 10
150.3151551684
 20
132.0187504268
  0
LWPOLYLINE
  5
418
100
AcDbEntity
  8
RACCORDO
100
AcDbPolyline
 62
250
  6
CONTINUOUS
 90
13
 70
0
 10
150.9241236807
 20
127.8495922051
 10
150.9256368119
 20
127.8786157948
 10
150.9301524119
 20
127.9086663528
 10
150.9375962437
 20
127.9392298774
 10
150.9478450181
 20
127.9697860919
 10
150.9607250533
 20
127.9998069483
 10
150.9760122797
 20
128.0287665444
 10
150.993484157
 20
128.0562248607
 10
151.0128088469
 20
128.0816442013
 10
151.0335065786
 20
128.1044388791
 10
151.0551470375
 20
128.1242329059
 10
151.0773949654
 20
128.140811732
 10
151.0998719366
 20
128.15396902
  0
LWPOLYLINE
  5
419
100
AcDbEntity
  8
RACCORDO
100
AcDbPolyline
 62
250
  6
CONTINUOUS
 90
7
 70
0
 10
152.1447234131
 20
127.2392923389
 10
152.1462365443
 20
127.2683159286
 10
152.1507521444
 20
127.2983664865
 10
152.1581959762
 20
127.3289300112
 10
152.1684447506
 20
127.3594862257
 10
152.1813247858
 20
127.389507082
 10
152.1966120121
 20
127.4184666782
  0
LINE
  5
41A
100
AcDbEntity
  8
RACCORDO
100
AcDbLine
 62
250
  6
CONTINUOUS
 10
151.1982409169
 20
90.1577678739
 11
151.1919636909
 21
90.0435701809
  0
LWPOLYLINE
  5
41B
100
AcDbEntity
  8
RACCORDO
100
AcDbPolyline
 62
250
  6
CONTINUOUS
 90
7
 70
0
 10
153.4783914599
 20
128.6555814202
 10
153.4763619892
 20
128.6396863221
 10
153.4701220576
 20
128.6236975758
 10
153.4597765859
 20
128.608250343
 10
153.4455012811
 20
128.5936069789
 10
153.4275385943
 20
128.5800161854
 10
153.4061936029
 20
128.567708788
  0
LWPOLYLINE
  5
41C
100
AcDbEntity
  8
RACCORDO
100
AcDbPolyline
 62
250
  6
CONTINUOUS
 90
7
 70
0
 10
153.4783914599
 20
129.0031129369
 10
153.4762062397
 20
128.9866217659
 10
153.4697470829
 20
128.9705266545
 10
153.4592113141
 20
128.9550968071
 10
153.4448979302
 20
128.9406130403
 10
153.4271038785
 20
128.9272621382
 10
153.4061936029
 20
128.9152403048
  0
LWPOLYLINE
  5
41D
100
AcDbEntity
  8
0
100
AcDbPolyline
 62
7
  6
CONTINUOUS
 90
6
 70
0
 10
164.8816827732
 20
124.5573406459
 10
164.860612037
 20
124.5405431046
 10
164.8399967082
 20
124.5233897185
 10
164.8198503938
 20
124.5058897492
 10
164.8001855336
 20
124.4880508881
 10
163.7628217941
 20
123.5217071003
  0
LWPOLYLINE
  5
41E
100
AcDbEntity
  8
0
100
AcDbPolyline
 62
250
  6
CONTINUOUS
 90
8
 70
0
 10
164.7981181312
 20
124.4861295342
 10
164.8021699518
 20
124.4893243024
 10
164.8117620861
 20
124.4937484012
 10
164.8233667618
 20
124.4956467936
 10
164.836793603
 20
124.4949883389
 10
164.8518223421
 20
124.4917838418
 10
164.8682064334
 20
124.486085874
 10
164.8856770974
 20
124.4779879124
  0
LINE
  5
41F
100
AcDbEntity
  8
0
100
AcDbLine
 62
250
  6
CONTINUOUS
 10
164.9506284392
 20
124.5336535333
 11
164.968351888
 21
124.5473637431
  0
LINE
  5
420
100
AcDbEntity
  8
0
100
AcDbLine
 62
7
  6
CONTINUOUS
 10
164.9046372895
 20
124.5748498305
 11
164.8816827732
 21
124.5573406459
  0
LINE
  5
421
100
AcDbEntity
  8
0
100
AcDbLine
 62
250
  6
CONTINUOUS
 10
164.968351888
 20
124.5473637431
 11
164.986669582
 21
124.5609914747
  0
LWPOLYLINE
  5
422
100
AcDbEntity
  8
0
100
AcDbPolyline
 62
7
  6
CONTINUOUS
 90
3
 70
0
 10
164.9046328957
 20
124.5748479305
 10
164.907366738
 20
124.5767094871
 10
164.9127077282
 20
124.5794579948
  0
LWPOLYLINE
  5
423
100
AcDbEntity
  8
CURVE
100
AcDbPolyline
 62
250
  6
CONTINUOUS
 90
49
 70
0
 10
142.9587276824
 20
110.6291465449
 10
143.0656520018
 20
110.6962945086
 10
143.1751018955
 20
110.7585840587
 10
143.2869420684
 20
110.8159244985
 10
143.4241450002
 20
110.878096195
 10
143.5645416248
 20
110.9329960154
 10
143.7080784575
 20
110.9806094052
 10
143.8547020135
 20
111.0209218099
 10
144.0043588082
 20
111.0539186751
 10
144.1569587519
 20
111.0795838433
 10
144.3122653348
 20
111.0978947455
 10
144.4700054423
 20
111.1088272096
 10
144.6299059597
 20
111.1123570636
 10
144.7916937723
 20
111.1084601354
 10
144.9551281297
 20
111.0971188052
 10
145.1200977385
 20
111.0783416622
 10
145.2865236697
 20
111.0521438479
 10
145.4543269942
 20
111.0185405036
 10
145.6234287827
 20
110.9775467708
 10
145.7937177879
 20
110.9291910338
 10
145.964953489
 20
110.8735546488
 10
146.1368630468
 20
110.8107322148
 10
146.309173622
 20
110.7408183311
 10
146.4816123756
 20
110.6639075966
 10
146.6539347146
 20
110.5800893315
 10
146.8260090306
 20
110.4894317394
 10
146.9977319617
 20
110.3919977451
 10
147.1690001459
 20
110.2878502733
 10
147.339710221
 20
110.1770522486
 10
147.5097359247
 20
110.0596872087
 10
147.6788593927
 20
109.9359211424
 10
147.8468398606
 20
109.8059406515
 10
148.0134365637
 20
109.6699323378
 10
148.1784087376
 20
109.5280828029
 10
148.3415379153
 20
109.3805652455
 10
148.5026948202
 20
109.2274992519
 10
148.6617724734
 20
109.0689910052
 10
148.818663896
 20
108.9051466885
 10
148.973262109
 20
108.7360724851
 10
149.1254388298
 20
108.5619101339
 10
149.27498056
 20
108.382943598
 10
149.4216524977
 20
108.1994923962
 10
149.5652198409
 20
108.0118760475
 10
149.7054477875
 20
107.8204140707
 10
149.8421518196
 20
107.6253533994
 10
149.9753485558
 20
107.4266506264
 10
150.1051048988
 20
107.224189759
 10
150.2314877513
 20
107.0178548046
 10
150.3545640162
 20
106.8075297705
  0
LWPOLYLINE
  5
424
100
AcDbEntity
  8
0
100
AcDbPolyline
 62
250
  6
CONTINUOUS
 90
13
 70
0
 10
168.4004268556
 20
127.2043568819
 10
168.373182698
 20
127.1888765924
 10
168.3463586791
 20
127.1693386421
 10
168.3203986149
 20
127.1460662956
 10
168.2957320269
 20
127.1194446046
 10
168.2727670353
 20
127.0899140375
 10
168.2518836066
 20
127.0579631915
 10
168.233427267
 20
127.0241207082
 10
168.2177033853
 20
126.9889465274
 10
168.2049721204
 20
126.9530226224
 10
168.1954441171
 20
126.916943371
 10
168.1892770207
 20
126.8813057214
 10
168.1865728686
 20
126.8466993152
  0
LINE
  5
425
100
AcDbEntity
  8
RACCORDO
100
AcDbLine
 62
7
  6
CONTINUOUS
 10
164.0107324761
 20
122.3375392471
 11
164.3684116254
 21
122.5168437919
  0
LINE
  5
426
100
AcDbEntity
  8
ASSI
100
AcDbLine
 62
7
  6
CONTINUOUS
 10
164.3684116254
 20
122.5168437919
 11
169.6429036946
 21
125.1471529258
  0
LINE
  5
427
100
AcDbEntity
  8
DRAFT
100
AcDbLine
 62
7
  6
CONTINUOUS
 10
164.4687626843
 20
121.3616498397
 11
169.6932456956
 21
123.9482973477
  0
LINE
  5
428
100
AcDbEntity
  8
ASSI
100
AcDbLine
 62
7
  6
CONTINUOUS
 10
169.0373732599
 20
125.4499181431
 11
164.4391223035
 21
123.1835568456
  0
LINE
  5
429
100
AcDbEntity
  8
RACCORDO
100
AcDbLine
 62
7
  6
CONTINUOUS
 10
170.455700536
 20
125.2699170203
 11
169.8168397595
 21
124.9573148952
  0
LWPOLYLINE
  5
42A
100
AcDbEntity
  8
ASSI
100
AcDbPolyline
 62
7
  6
CONTINUOUS
 90
7
 70
0
 10
169.6429036946
 20
125.1471529258
 10
169.6512988094
 20
125.1512149471
 10
169.6596920116
 20
125.1550295154
 10
169.6680833014
 20
125.1585966309
 10
169.6764726787
 20
125.1619162934
 10
169.6848601434
 20
125.164988503
 10
169.6932456956
 20
125.1678132597
  0
LWPOLYLINE
  5
42B
100
AcDbEntity
  8
ASSI
100
AcDbPolyline
 62
7
  6
CONTINUOUS
 90
7
 70
0
 10
169.0373732599
 20
125.4499181431
 10
169.0455279637
 20
125.4538211026
 10
169.0536791881
 20
125.4574928183
 10
169.0618269331
 20
125.4609332903
 10
169.0699711986
 20
125.4641425185
 10
169.0781119847
 20
125.467120503
 10
169.0862492914
 20
125.4698672439
  0
LWPOLYLINE
  5
42C
100
AcDbEntity
  8
RACCORDO
100
AcDbPolyline
 62
7
  6
CONTINUOUS
 90
9
 70
0
 10
170.455700536
 20
125.2699170203
 10
170.5177091161
 20
125.2967969149
 10
170.5783095033
 20
125.3167213712
 10
170.6375016976
 20
125.3296903893
 10
170.6957070314
 20
125.3356972254
 10
170.7525041723
 20
125.3347486232
 10
170.8066291233
 20
125.3268648144
 10
170.858023528
 20
125.3118897893
 10
170.8966685078
 20
125.2953039921
  0
LWPOLYLINE
  5
42D
100
AcDbEntity
  8
RACCORDO
100
AcDbPolyline
 62
250
  6
CONTINUOUS
 90
3
 70
0
 10
167.7139876039
 20
121.9492141019
 10
167.6947988074
 20
121.9431117571
 10
167.6914842042
 20
121.9415764266
  0
LWPOLYLINE
  5
42E
100
AcDbEntity
  8
RACCORDO
100
AcDbPolyline
 62
7
  6
CONTINUOUS
 90
5
 70
0
 10
163.420619092
 20
122.1974891126
 10
163.3891738673
 20
122.1881048591
 10
163.3596033732
 20
122.1791061365
 10
163.3317964781
 20
122.1709451276
 10
163.3056885568
 20
122.1638598223
  0
LINE
  5
42F
100
AcDbEntity
  8
CURVE
100
AcDbLine
 62
250
  6
CONTINUOUS
 10
150.0296174746
 20
103.0072386366
 11
154.3632484194
 21
100.8404231642
  0
LWPOLYLINE
  5
430
100
AcDbEntity
  8
0
100
AcDbPolyline
 62
250
  6
CONTINUOUS
 90
10
 70
0
 10
157.0273320409
 20
88.4247535856
 10
156.9898644508
 20
88.5266144115
 10
156.9491577466
 20
88.6252704684
 10
156.9052565517
 20
88.7206136079
 10
156.8582089913
 20
88.8125393131
 10
156.8080666398
 20
88.9009468135
 10
156.754884464
 20
88.9857391954
 10
156.6987207632
 20
89.066823508
 10
156.6396371049
 20
89.1441108652
 10
156.5776982576
 20
89.2175165434
  0
LWPOLYLINE
  5
431
100
AcDbEntity
  8
RACCORDO
100
AcDbPolyline
 62
250
  6
CONTINUOUS
 90
13
 70
0
 10
153.8222300526
 20
126.5762872751
 10
153.8205788941
 20
126.6053590299
 10
153.8159229898
 20
126.6354727087
 10
153.8083397836
 20
126.6661093367
 10
153.7979561998
 20
126.6967432484
 10
153.7849497083
 20
126.7268414506
 10
153.769548017
 20
126.7558736336
 10
153.7519773676
 20
126.7833950152
 10
153.7325737824
 20
126.8088631719
 10
153.7118206356
 20
126.8316887191
 10
153.6901510378
 20
126.8514926563
 10
153.667902777
 20
126.8680579783
 10
153.6454563489
 20
126.8811768139
  0
LWPOLYLINE
  5
432
100
AcDbEntity
  8
RACCORDO
100
AcDbPolyline
 62
7
  6
CONTINUOUS
 90
13
 70
0
 10
152.8779264311
 20
128.6518014847
 10
152.8762879729
 20
128.6807539608
 10
152.8716706256
 20
128.7107321292
 10
152.8641533903
 20
128.7412230772
 10
152.8538648845
 20
128.7717051194
 10
152.840981139
 20
128.8016567215
 10
152.8257225859
 20
128.830565424
 10
152.80835029
 20
128.8579366111
 10
152.7891614853
 20
128.8833019754
 10
152.7684844864
 20
128.9062275286
 10
152.7466730681
 20
128.9263210255
 10
152.7241004126
 20
128.9432386749
 10
152.7011527275
 20
128.9566910235
  0
LWPOLYLINE
  5
433
100
AcDbEntity
  8
RACCORDO
100
AcDbPolyline
 62
250
  6
CONTINUOUS
 90
9
 70
0
 10
152.1447234131
 20
126.8993184047
 10
152.1459308021
 20
126.8746609032
 10
152.1495364835
 20
126.8515475787
 10
152.1554912145
 20
126.8302941693
 10
152.1637292966
 20
126.8111609328
 10
152.1741297986
 20
126.7944474043
 10
152.1864830315
 20
126.7804463502
 10
152.2005671482
 20
126.7693231145
 10
152.2096967095
 20
126.7640999546
  0
LWPOLYLINE
  5
434
100
AcDbEntity
  8
RACCORDO
100
AcDbPolyline
 62
250
  6
CONTINUOUS
 90
9
 70
0
 10
153.4697080929
 20
126.2368260648
 10
153.4709154819
 20
126.2121685633
 10
153.4745211633
 20
126.1890552388
 10
153.4804758943
 20
126.1678018294
 10
153.4887139764
 20
126.1486685929
 10
153.4991144784
 20
126.1319550644
 10
153.5114677113
 20
126.1179540103
 10
153.525551828
 20
126.1068307746
 10
153.5346735352
 20
126.1016115422
  0
LWPOLYLINE
  5
435
100
AcDbEntity
  8
RACCORDO
100
AcDbPolyline
 62
250
  6
CONTINUOUS
 90
7
 70
0
 10
153.4061936029
 20
128.9152403048
 10
153.4048059963
 20
128.9443182068
 10
153.4004000179
 20
128.9744020597
 10
153.3930510521
 20
129.0049771424
 10
153.3828848363
 20
129.0355203295
 10
153.3700753097
 20
129.065509041
 10
153.3548416374
 20
129.0944301838
  0
LINE
  5
436
100
AcDbEntity
  8
RACCORDO
100
AcDbLine
 62
7
  6
CONTINUOUS
 10
152.7744930627
 20
126.0277276764
 11
152.7744930627
 21
126.4817017781
  0
LINE
  5
437
100
AcDbEntity
  8
RACCORDO
100
AcDbLine
 62
250
  6
CONTINUOUS
 10
152.8477163674
 20
125.9360159815
 11
152.8477163674
 21
126.4450901257
  0
LINE
  5
438
100
AcDbEntity
  8
RACCORDO
100
AcDbLine
 62
7
  6
CONTINUOUS
 10
152.8779264311
 20
127.8941170613
 11
152.8779264311
 21
128.6518014847
  0
LINE
  5
439
100
AcDbEntity
  8
0
100
AcDbLine
 62
250
  6
CONTINUOUS
 10
152.9842078235
 20
133.5622491553
 11
152.9842078235
 21
134.1007566842
  0
LINE
  5
43A
100
AcDbEntity
  8
RACCORDO
100
AcDbLine
 62
250
  6
CONTINUOUS
 10
153.4061936029
 20
128.9152403048
 11
153.4061936029
 21
128.567708788
  0
LINE
  5
43B
100
AcDbEntity
  8
RACCORDO
100
AcDbLine
 62
250
  6
CONTINUOUS
 10
153.4697080929
 20
126.2368260648
 11
153.4697080929
 21
126.5767999989
  0
LINE
  5
43C
100
AcDbEntity
  8
RACCORDO
100
AcDbLine
 62
7
  6
CONTINUOUS
 10
153.4783914599
 20
129.0031129369
 11
153.4783914599
 21
128.6555814202
  0
LINE
  5
43D
100
AcDbEntity
  8
0
100
AcDbLine
 62
250
  6
CONTINUOUS
 10
153.6908838543
 20
133.3104602256
 11
153.6908838543
 21
134.0945438223
  0
LINE
  5
43E
100
AcDbEntity
  8
ASSI
100
AcDbLine
 62
250
  6
CONTINUOUS
 10
153.7833431189
 20
131.9032486361
 11
153.7833431189
 21
133.122764548
  0
LINE
  5
43F
100
AcDbEntity
  8
RACCORDO
100
AcDbLine
 62
250
  6
CONTINUOUS
 10
153.8222300526
 20
126.236313341
 11
153.8222300526
 21
126.5762872751
  0
LINE
  5
440
100
AcDbEntity
  8
ASSI
100
AcDbLine
 62
7
  6
CONTINUOUS
 10
153.9069371828
 20
132.051407739
 11
153.9069371828
 21
133.1317456582
  0
LINE
  5
441
100
AcDbEntity
  8
RACCORDO
100
AcDbLine
 62
250
  6
CONTINUOUS
 10
154.180928701
 20
125.963322542
 11
154.180928701
 21
125.2694098147
  0
LINE
  5
442
100
AcDbEntity
  8
CURVE
100
AcDbLine
 62
250
  6
CONTINUOUS
 10
154.3632484194
 20
100.8404231642
 11
154.3632484194
 21
99.5413850303
  0
LINE
  5
443
100
AcDbEntity
  8
RACCORDO
100
AcDbLine
 62
250
  6
CONTINUOUS
 10
154.5334506607
 20
126.0878098181
 11
154.5334506607
 21
125.2801776963
  0
LWPOLYLINE
  5
444
100
AcDbEntity
  8
RACCORDO
100
AcDbPolyline
 62
250
  6
CONTINUOUS
 90
13
 70
0
 10
153.4697080929
 20
126.5767999989
 10
153.4712092761
 20
126.6057062695
 10
153.4756873295
 20
126.6356227807
 10
153.4830661982
 20
126.6660414318
 10
153.4932205598
 20
126.6964455942
 10
153.5059779531
 20
126.7263188852
 10
153.5211217073
 20
126.7551539382
 10
153.5383946216
 20
126.7824610202
 10
153.5575033338
 20
126.8077763492
 10
153.5781233024
 20
126.8306699709
 10
153.5999043189
 20
126.8507530612
 10
153.6224764558
 20
126.8676845299
 10
153.6454563489
 20
126.8811768139
  0
LWPOLYLINE
  5
445
100
AcDbEntity
  8
RACCORDO
100
AcDbPolyline
 62
250
  6
CONTINUOUS
 90
7
 70
0
 10
156.0239758721
 20
127.7303207308
 10
156.0220435202
 20
127.7148091063
 10
156.0158575053
 20
127.6987245461
 10
156.0055224729
 20
127.6831874844
 10
155.9912214651
 20
127.6684653504
 10
155.9732025714
 20
127.6548079466
 10
155.9517780151
 20
127.6424480986
  0
LWPOLYLINE
  5
446
100
AcDbEntity
  8
RACCORDO
100
AcDbPolyline
 62
250
  6
CONTINUOUS
 90
7
 70
0
 10
156.0239758721
 20
127.3827892141
 10
156.0219818999
 20
127.3670331818
 10
156.0157669177
 20
127.3510201636
 10
156.0054324121
 20
127.3355455105
 10
155.9911508659
 20
127.3208718859
 10
155.9731644605
 20
127.3072512993
 10
155.9517780151
 20
127.2949165819
  0
LINE
  5
447
100
AcDbEntity
  8
0
100
AcDbLine
 62
250
  6
CONTINUOUS
 10
163.8254860305
 20
123.4903749822
 11
164.8856770974
 21
124.4779879124
  0
LWPOLYLINE
  5
448
100
AcDbEntity
  8
0
100
AcDbPolyline
 62
250
  6
CONTINUOUS
 90
5
 70
0
 10
164.8856770974
 20
124.4779879124
 10
164.9010235649
 20
124.4920280349
 10
164.9169642777
 20
124.5059856792
 10
164.9334992358
 20
124.5198608453
 10
164.9506284392
 20
124.5336535333
  0
LINE
  5
449
100
AcDbEntity
  8
RACCORDO
100
AcDbLine
 62
250
  6
CONTINUOUS
 10
165.6617177074
 20
120.8479561558
 11
165.6847898335
 21
120.8615100716
  0
LINE
  5
44A
100
AcDbEntity
  8
DRAFT
100
AcDbLine
 62
7
  6
CONTINUOUS
 10
164.4687626843
 20
121.3616498397
 11
164.3684116254
 21
121.3044082266
  0
LWPOLYLINE
  5
44B
100
AcDbEntity
  8
0
100
AcDbPolyline
 62
250
  6
CONTINUOUS
 90
13
 70
0
 10
173.4143804784
 20
124.6973800705
 10
173.387136087
 20
124.6818996296
 10
173.3603118922
 20
124.6623614985
 10
173.3343517156
 20
124.6390889696
 10
173.3096850816
 20
124.6124671235
 10
173.2867201032
 20
124.5829364482
 10
173.2658367317
 20
124.5509855477
 10
173.2473804837
 20
124.5171430767
 10
173.2316567126
 20
124.4819689776
 10
173.2189255558
 20
124.4460452045
 10
173.2093976445
 20
124.4099661235
 10
173.2032306145
 20
124.3743286801
 10
173.2005264914
 20
124.3397225038
  0
LINE
  5
44C
100
AcDbEntity
  8
RACCORDO
100
AcDbLine
 62
7
  6
CONTINUOUS
 10
164.3684116254
 20
121.3044082266
 11
164.0107324761
 21
121.1048122748
  0
LINE
  5
44D
100
AcDbEntity
  8
RACCORDO
100
AcDbLine
 62
7
  6
CONTINUOUS
 10
167.154460826
 20
121.6799421726
 11
165.5717041674
 21
120.8679580467
  0
LINE
  5
44E
100
AcDbEntity
  8
RACCORDO
100
AcDbLine
 62
250
  6
CONTINUOUS
 10
167.2675464367
 20
121.6734941689
 11
165.6847898335
 21
120.8615100716
  0
LINE
  5
44F
100
AcDbEntity
  8
RACCORDO
100
AcDbLine
 62
7
  6
CONTINUOUS
 10
167.1561985769
 20
121.6808110929
 11
167.154460826
 21
121.6799421726
  0
LINE
  5
450
100
AcDbEntity
  8
RACCORDO
100
AcDbLine
 62
250
  6
CONTINUOUS
 10
169.1393224759
 20
121.2651785552
 11
167.0097745133
 21
120.1990177317
  0
LINE
  5
451
100
AcDbEntity
  8
RACCORDO
100
AcDbLine
 62
250
  6
CONTINUOUS
 10
169.3160961796
 20
120.9602890164
 11
167.186548217
 21
119.8941281929
  0
LINE
  5
452
100
AcDbEntity
  8
0
100
AcDbLine
 62
7
  6
CONTINUOUS
 10
173.2809531996
 20
124.1467947921
 11
173.2368621075
 21
124.1252072027
  0
LINE
  5
453
100
AcDbEntity
  8
0
100
AcDbLine
 62
250
  6
CONTINUOUS
 10
173.4147249474
 20
124.1380798732
 11
173.3102621065
 21
124.0869334667
  0
LINE
  5
454
100
AcDbEntity
  8
RACCORDO
100
AcDbLine
 62
7
  6
CONTINUOUS
 10
167.6914842042
 20
121.9415764266
 11
167.1561949407
 21
121.6808200691
  0
LINE
  5
455
100
AcDbEntity
  8
RACCORDO
100
AcDbLine
 62
250
  6
CONTINUOUS
 10
167.8019963153
 20
121.9338416355
 11
167.2675464367
 21
121.6734941689
  0
LINE
  5
456
100
AcDbEntity
  8
RACCORDO
100
AcDbLine
 62
7
  6
CONTINUOUS
 10
173.5164956526
 20
123.7395194621
 11
168.8252527656
 21
121.4841907813
  0
LWPOLYLINE
  5
457
100
AcDbEntity
  8
RACCORDO
100
AcDbPolyline
 62
250
  6
CONTINUOUS
 90
7
 70
0
 10
140.0418754385
 20
135.2498678702
 10
140.0518261643
 20
135.2319430353
 10
140.0585617126
 20
135.2158320968
 10
140.0619685439
 20
135.2018097414
 10
140.0619903021
 20
135.1901156317
 10
140.0586288634
 20
135.1809470789
 10
140.0572722707
 20
135.1790769638
  0
LWPOLYLINE
  5
458
100
AcDbEntity
  8
RACCORDO
100
AcDbPolyline
 62
250
  6
CONTINUOUS
 90
5
 70
0
 10
169.3164848933
 20
79.5309746303
 10
169.3035967424
 20
79.5574349582
 10
169.287881931
 20
79.5812191411
 10
169.269609795
 20
79.6019205195
 10
169.2490929191
 20
79.6191857915
  0
LWPOLYLINE
  5
459
100
AcDbEntity
  8
0
100
AcDbPolyline
 62
7
  6
CONTINUOUS
 90
11
 70
0
 10
150.3590074676
 20
132.1800042403
 10
150.3535940769
 20
132.2264606974
 10
150.3417730076
 20
132.2756738297
 10
150.323663564
 20
132.3241972582
 10
150.2992864702
 20
132.3715507718
 10
150.268457203
 20
132.417637215
 10
150.2307107891
 20
132.4625450771
 10
150.1862011744
 20
132.5055529183
 10
150.1358070335
 20
132.5456504932
 10
150.0800999923
 20
132.5825394772
 10
150.0146911247
 20
132.6185344777
  0
LWPOLYLINE
  5
45A
100
AcDbEntity
  8
ASSI
100
AcDbPolyline
 62
7
  6
CONTINUOUS
 90
4
 70
0
 10
153.9069371823
 20
133.1317780546
 10
153.9067655166
 20
133.1339836409
 10
153.9042123359
 20
133.1394226967
 10
153.9001622336
 20
133.1424758257
  0
LWPOLYLINE
  5
45B
100
AcDbEntity
  8
RACCORDO
100
AcDbPolyline
 62
7
  6
CONTINUOUS
 90
13
 70
0
 10
155.4235108434
 20
127.3790092786
 10
155.4218723851
 20
127.4079617547
 10
155.4172550379
 20
127.4379399231
 10
155.4097378026
 20
127.4684308711
 10
155.3994492968
 20
127.4989129133
 10
155.3865655513
 20
127.5288645154
 10
155.3713069981
 20
127.5577732178
 10
155.3539347022
 20
127.5851444049
 10
155.3347458975
 20
127.6105097692
 10
155.3140688987
 20
127.6334353225
 10
155.2922574804
 20
127.6535288193
 10
155.2696848249
 20
127.6704464687
 10
155.2467371397
 20
127.6838988174
  0
LWPOLYLINE
  5
45C
100
AcDbEntity
  8
RACCORDO
100
AcDbPolyline
 62
250
  6
CONTINUOUS
 90
7
 70
0
 10
155.9517780151
 20
127.6424480986
 10
155.9503786575
 20
127.6716457538
 10
155.9459347972
 20
127.7018654546
 10
155.9385201776
 20
127.7325863759
 10
155.9282587774
 20
127.7632813795
 10
155.915325888
 20
127.7934163827
 10
155.8999478962
 20
127.8224604155
  0
LINE
  5
45D
100
AcDbEntity
  8
RACCORDO
100
AcDbLine
 62
7
  6
CONTINUOUS
 10
156.3572318357
 20
139.0357707584
 11
156.3573380413
 21
139.0329484551
  0
LINE
  5
45E
100
AcDbEntity
  8
RACCORDO
100
AcDbLine
 62
7
  6
CONTINUOUS
 10
157.6487241914
 20
125.2632805236
 11
157.648811505
 21
125.252427192
  0
LINE
  5
45F
100
AcDbEntity
  8
RACCORDO
100
AcDbLine
 62
7
  6
CONTINUOUS
 10
155.4235108434
 20
125.7844163068
 11
155.4235108434
 21
127.3790092786
  0
LINE
  5
460
100
AcDbEntity
  8
RACCORDO
100
AcDbLine
 62
250
  6
CONTINUOUS
 10
155.9517780151
 20
127.6424480986
 11
155.9517780151
 21
127.2949165819
  0
LINE
  5
461
100
AcDbEntity
  8
RACCORDO
100
AcDbLine
 62
7
  6
CONTINUOUS
 10
156.0239758721
 20
127.7303207308
 11
156.0239758721
 21
127.3827892141
  0
LINE
  5
462
100
AcDbEntity
  8
DRAFT
100
AcDbLine
 62
7
  6
CONTINUOUS
 10
157.1205670074
 20
127.5083719868
 11
157.1205671183
 21
129.985042155
  0
LINE
  5
463
100
AcDbEntity
  8
RACCORDO
100
AcDbLine
 62
7
  6
CONTINUOUS
 10
157.6479348478
 20
125.2631703412
 11
157.6479348478
 21
124.022353451
  0
LINE
  5
464
100
AcDbEntity
  8
RACCORDO
100
AcDbLine
 62
250
  6
CONTINUOUS
 10
157.7943814572
 20
124.9195133721
 11
157.7943814572
 21
123.8389300613
  0
LINE
  5
465
100
AcDbEntity
  8
RACCORDO
100
AcDbLine
 62
7
  6
CONTINUOUS
 10
158.2461550381
 20
130.1800228866
 11
158.2461550381
 21
130.3139019955
  0
LWPOLYLINE
  5
466
100
AcDbEntity
  8
0
100
AcDbPolyline
 62
7
  6
CONTINUOUS
 90
8
 70
0
 10
155.9538409293
 20
87.6244078462
 10
155.961402675
 20
87.7619257213
 10
155.9839585284
 20
87.8895288817
 10
156.0211225527
 20
88.0050340021
 10
156.0722588612
 20
88.1064647577
 10
156.1364924973
 20
88.1920856402
 10
156.2127244058
 20
88.2604316526
 10
156.2787074114
 20
88.3005000968
  0
LINE
  5
467
100
AcDbEntity
  8
0
100
AcDbLine
 62
250
  6
CONTINUOUS
 10
158.6912096626
 20
131.3485889449
 11
158.7048374771
 21
131.5875670109
  0
LWPOLYLINE
  5
468
100
AcDbEntity
  8
RACCORDO
100
AcDbPolyline
 62
7
  6
CONTINUOUS
 90
3
 70
0
 10
157.6527562869
 20
125.3041267116
 10
157.6494724153
 20
125.2801422595
 10
157.6487241914
 20
125.2632805236
  0
LWPOLYLINE
  5
469
100
AcDbEntity
  8
0
100
AcDbPolyline
 62
250
  6
CONTINUOUS
 90
10
 70
0
 10
152.1224410602
 20
88.630166381
 10
152.1060062537
 20
88.5565471915
 10
152.0704913696
 20
88.4129268075
 10
152.0314861277
 20
88.2691208186
 10
151.9890360719
 20
88.1252971374
 10
151.9431907682
 20
87.9816236975
 10
151.8940037472
 20
87.8382682567
 10
151.8415324414
 20
87.6953982018
 10
151.7858381179
 20
87.5531803526
 10
151.7269858074
 20
87.4117807677
  0
LWPOLYLINE
  5
46A
100
AcDbEntity
  8
CURVE
100
AcDbPolyline
 62
250
  6
CONTINUOUS
 90
50
 70
0
 10
145.6248398994
 20
105.8315447794
 10
145.6509886914
 20
105.8474129106
 10
145.6776880055
 20
105.8621743598
 10
145.7049323309
 20
105.8758337834
 10
145.7362276936
 20
105.8898854312
 10
145.7682034129
 20
105.9025324323
 10
145.8008570399
 20
105.9137589977
 10
145.8341861259
 20
105.9235493385
 10
145.8730892182
 20
105.9329626493
 10
145.9128002293
 20
105.9404753614
 10
145.9532480445
 20
105.9460833833
 10
145.9943615487
 20
105.9497826238
 10
146.036069627
 20
105.9515689915
 10
146.0783011646
 20
105.9514383951
 10
146.1209850464
 20
105.9493867431
 10
146.1640586568
 20
105.9454115092
 10
146.2074933772
 20
105.9395164266
 10
146.2512690882
 20
105.9317067934
 10
146.2953656704
 20
105.9219879078
 10
146.3397630047
 20
105.910365068
 10
146.3844409715
 20
105.896843572
 10
146.4293794516
 20
105.8814287181
 10
146.4745502679
 20
105.8641304609
 10
146.5198930128
 20
105.8449773807
 10
146.565339221
 20
105.8240027147
 10
146.610820427
 20
105.8012396995
 10
146.6562681655
 20
105.7767215722
 10
146.7016139712
 20
105.7504815698
 10
146.7467893788
 20
105.722552929
 10
146.79173296
 20
105.6929666045
 10
146.8364114349
 20
105.6617444216
 10
146.8807985609
 20
105.6289059234
 10
146.9248680952
 20
105.594470653
 10
146.968593795
 20
105.5584581533
 10
147.0119494178
 20
105.5208879673
 10
147.0549087206
 20
105.4817796382
 10
147.0974386015
 20
105.4411628641
 10
147.1394785208
 20
105.3991079638
 10
147.1809610797
 20
105.3556954111
 10
147.2218188792
 20
105.31100568
 10
147.2619845205
 20
105.2651192444
 10
147.3013906045
 20
105.2181165783
 10
147.3399697325
 20
105.1700781554
 10
147.3776687414
 20
105.1210660145
 10
147.4144914124
 20
105.071068453
 10
147.4504557624
 20
105.0200553332
 10
147.4855798086
 20
104.9679965171
 10
147.5198815681
 20
104.914861867
 10
147.5533790579
 20
104.8606212451
 10
147.586090295
 20
104.8052445136
  0
LWPOLYLINE
  5
46B
100
AcDbEntity
  8
RACCORDO
100
AcDbPolyline
 62
250
  6
CONTINUOUS
 90
22
 70
0
 10
163.2670907442
 20
116.0933942412
 10
163.1918845138
 20
116.0486726646
 10
163.1173434976
 20
115.9978881579
 10
163.0438321078
 20
115.9412957556
 10
162.9717104055
 20
115.8791854075
 10
162.9013295884
 20
115.8118622245
 10
162.8330315248
 20
115.7396415316
 10
162.7671394289
 20
115.6628662735
 10
162.7039888798
 20
115.5819298561
 10
162.6439210223
 20
115.4972581515
 10
162.5872425666
 20
115.4092977523
 10
162.5342110707
 20
115.3184655909
 10
162.4850707784
 20
115.2251672018
 10
162.4400543555
 20
115.1298396342
 10
162.3993965473
 20
115.0329778447
 10
162.3633159314
 20
114.9350871649
 10
162.3319927692
 20
114.8366669433
 10
162.3055726781
 20
114.7381913851
 10
162.2841854874
 20
114.640132805
 10
162.2679373664
 20
114.5429718189
 10
162.256908091
 20
114.4471948479
 10
162.251152351
 20
114.3532762769
  0
LWPOLYLINE
  5
46C
100
AcDbEntity
  8
RACCORDO
100
AcDbPolyline
 62
250
  6
CONTINUOUS
 90
22
 70
0
 10
163.6329234842
 20
115.4903917954
 10
163.5823460971
 20
115.4606010498
 10
163.5326160373
 20
115.4270803724
 10
163.4837333048
 20
115.3898297635
 10
163.4354428805
 20
115.3486193407
 10
163.3879997835
 20
115.3036789863
 10
163.3421690709
 20
115.2556983471
 10
163.2979886229
 20
115.2046315797
 10
163.2554205593
 20
115.1505245275
 10
163.2151162957
 20
115.0942043678
 10
163.1771216572
 20
115.0356536091
 10
163.1413908187
 20
114.9748897429
 10
163.1084377198
 20
114.9127924202
 10
163.0782978814
 20
114.8493305834
 10
163.0509357827
 20
114.7845352903
 10
163.0267588017
 20
114.7193793648
 10
163.0058161873
 20
114.6538372791
 10
162.9880586906
 20
114.5879345611
 10
162.9737459429
 20
114.5227206186
 10
162.9629644879
 20
114.458545254
 10
162.9556277819
 20
114.3950586649
 10
162.9517358249
 20
114.3322608512
  0
LINE
  5
46D
100
AcDbEntity
  8
RACCORDO
100
AcDbLine
 62
250
  6
CONTINUOUS
 10
163.2670907442
 20
116.0933942412
 11
167.7861218826
 21
118.5604661694
  0
LINE
  5
46E
100
AcDbEntity
  8
RACCORDO
100
AcDbLine
 62
250
  6
CONTINUOUS
 10
169.233312942
 20
118.5478090151
 11
163.6329234842
 21
115.4903917954
  0
LINE
  5
46F
100
AcDbEntity
  8
RACCORDO
100
AcDbLine
 62
7
  6
CONTINUOUS
 10
174.4042019385
 20
122.9950181678
 11
168.9126586103
 21
120.0322045569
  0
LINE
  5
470
100
AcDbEntity
  8
RACCORDO
100
AcDbLine
 62
7
  6
CONTINUOUS
 10
174.4042019385
 20
122.4901305217
 11
169.0607450826
 21
119.6653482792
  0
LWPOLYLINE
  5
471
100
AcDbEntity
  8
RACCORDO
100
AcDbPolyline
 62
7
  6
CONTINUOUS
 90
10
 70
0
 10
167.8977688251
 20
118.5971499119
 10
167.8872049393
 20
118.5915914818
 10
167.8760871974
 20
118.5863807172
 10
167.8644524243
 20
118.5815332257
 10
167.8523370003
 20
118.5770758798
 10
167.8397832151
 20
118.5730098578
 10
167.826839878
 20
118.5693099475
 10
167.8135530549
 20
118.5659739838
 10
167.7999651755
 20
118.5630234664
 10
167.7861218826
 20
118.5604661694
  0
LINE
  5
472
100
AcDbEntity
  8
RACCORDO
100
AcDbLine
 62
7
  6
CONTINUOUS
 10
174.0162769888
 20
121.8291650118
 11
169.4343461353
 21
119.4785477529
  0
LINE
  5
473
100
AcDbEntity
  8
RACCORDO
100
AcDbLine
 62
250
  6
CONTINUOUS
 10
174.1100404085
 20
120.2574904519
 11
189.5701268811
 21
128.0649661892
  0
LINE
  5
474
100
AcDbEntity
  8
DRAFT
100
AcDbLine
 62
7
  6
CONTINUOUS
 10
173.9063361613
 20
120.6024839559
 11
169.8484891796
 21
118.6309364698
  0
LINE
  5
475
100
AcDbEntity
  8
RACCORDO
100
AcDbLine
 62
7
  6
CONTINUOUS
 10
168.7878290078
 20
119.101988729
 11
168.8891638266
 21
119.1510413783
  0
LINE
  5
476
100
AcDbEntity
  8
DRAFT
100
AcDbLine
 62
7
  6
CONTINUOUS
 10
173.5254444418
 20
120.7929298156
 11
169.8214624787
 21
119.0179117425
  0
LINE
  5
477
100
AcDbEntity
  8
RACCORDO
100
AcDbLine
 62
250
  6
CONTINUOUS
 10
169.4948280789
 20
119.4483067811
 11
168.7830502443
 21
119.1121059496
  0
LINE
  5
478
100
AcDbEntity
  8
RACCORDO
100
AcDbLine
 62
250
  6
CONTINUOUS
 10
169.8484891796
 20
118.8383810905
 11
169.233312942
 21
118.5478090151
  0
LWPOLYLINE
  5
479
100
AcDbEntity
  8
RACCORDO
100
AcDbPolyline
 62
250
  6
CONTINUOUS
 90
16
 70
0
 10
162.9517358249
 20
114.3322608512
 10
162.9127266906
 20
114.3171284681
 10
162.870414058
 20
114.3040850645
 10
162.8252512862
 20
114.2932703941
 10
162.7777222723
 20
114.2848003308
 10
162.7283362663
 20
114.2787656272
 10
162.6776224151
 20
114.2752309421
 10
162.6261240928
 20
114.274234148
 10
162.5743930787
 20
114.275785925
 10
162.5229836452
 20
114.2798696466
 10
162.4724466193
 20
114.2864415578
 10
162.4233234805
 20
114.2954312437
 10
162.376140559
 20
114.3067423844
 10
162.3314033969
 20
114.3202537866
 10
162.2895913309
 20
114.3358206822
 10
162.2511523569
 20
114.3532762795
  0
LWPOLYLINE
  5
47A
100
AcDbEntity
  8
RACCORDO
100
AcDbPolyline
 62
250
  6
CONTINUOUS
 90
6
 70
0
 10
139.9900453195
 20
135.7774117038
 10
139.972447943
 20
135.8049197219
 10
139.9529675606
 20
135.8303494799
 10
139.9320898926
 20
135.8531127665
 10
139.9102515828
 20
135.8728323477
 10
139.8877939298
 20
135.8892929736
  0
LINE
  5
47B
100
AcDbEntity
  8
RACCORDO
100
AcDbLine
 62
7
  6
CONTINUOUS
 10
157.648811505
 20
125.252427192
 11
157.6511666209
 21
125.2219712798
  0
LWPOLYLINE
  5
47C
100
AcDbEntity
  8
RACCORDO
100
AcDbPolyline
 62
250
  6
CONTINUOUS
 90
22
 70
0
 10
162.9517358249
 20
78.7526362234
 10
162.9556282177
 20
78.6935825683
 10
162.9629680582
 20
78.6371663577
 10
162.9737553465
 20
78.5833875916
 10
162.988075776
 20
78.5319795653
 10
163.0058436532
 20
78.4832089836
 10
163.0268018975
 20
78.4378759606
 10
163.0510042302
 20
78.3960511806
 10
163.07839693
 20
78.3576639594
 10
163.1085617521
 20
78.3233023578
 10
163.1415321493
 20
78.2930372054
 10
163.1772746687
 20
78.2667976727
 10
163.2152707078
 20
78.244959331
 10
163.2555607376
 20
78.2275839131
 10
163.298104287
 20
78.2146096864
 10
163.3422613395
 20
78.2062270241
 10
163.3880735082
 20
78.2025147211
 10
163.43549918
 20
78.2033939826
 10
163.4837734991
 20
78.2088187978
 10
163.5326415135
 20
78.2187738299
 10
163.5823581752
 20
78.2332744157
 10
163.6329234842
 20
78.2523205553
  0
LWPOLYLINE
  5
47D
100
AcDbEntity
  8
RACCORDO
100
AcDbPolyline
 62
250
  6
CONTINUOUS
 90
13
 70
0
 10
162.251152351
 20
78.7380364093
 10
162.2569088862
 20
78.6497299623
 10
162.2679394447
 20
78.5647244251
 10
162.2841887726
 20
78.4834391891
 10
162.3055759683
 20
78.4062793013
 10
162.3319946688
 20
78.3336197127
 10
162.3633169463
 20
78.2658066272
 10
162.3993993082
 20
78.2031649028
 10
162.4400607328
 20
78.1460188792
 10
162.4850804878
 20
78.0946726822
 10
162.5342226264
 20
78.0493858759
 10
162.5872550164
 20
78.0103626342
 10
162.6434362193
 20
77.9780309236
  0
LINE
  5
47E
100
AcDbEntity
  8
RACCORDO
100
AcDbLine
 62
7
  6
CONTINUOUS
 10
159.8927657416
 20
137.2680038055
 11
159.8928719473
 21
137.2651815021
  0
LWPOLYLINE
  5
47F
100
AcDbEntity
  8
RACCORDO
100
AcDbPolyline
 62
250
  6
CONTINUOUS
 90
23
 70
0
 10
160.6406014259
 20
139.0107048295
 10
160.6396837048
 20
139.0633683024
 10
160.6333358658
 20
139.1167191904
 10
160.6220981293
 20
139.1678568968
 10
160.6065446016
 20
139.2168181263
 10
160.5872571848
 20
139.2635045489
 10
160.5647742042
 20
139.3079052628
 10
160.5394761676
 20
139.3502128704
 10
160.5118110956
 20
139.3904116153
 10
160.4822055637
 20
139.428503737
 10
160.4508672646
 20
139.4647132375
 10
160.4181372498
 20
139.499050313
 10
160.3843351043
 20
139.5315403567
 10
160.3495137888
 20
139.5624216565
 10
160.3139051899
 20
139.5917293402
 10
160.2777566452
 20
139.6194810534
 10
160.2410472304
 20
139.645874359
 10
160.2040108962
 20
139.6709000244
 10
160.1667683435
 20
139.6946255328
 10
160.1290368074
 20
139.7173397977
 10
160.0907746881
 20
139.739142988
 10
160.0522323119
 20
139.759966214
 10
160.0135121656
 20
139.7798296883
  0
LINE
  5
480
100
AcDbEntity
  8
RACCORDO
100
AcDbLine
 62
250
  6
CONTINUOUS
 10
158.4942993618
 20
130.9499694562
 11
158.4942993618
 21
130.44508181
  0
LINE
  5
481
100
AcDbEntity
  8
RACCORDO
100
AcDbLine
 62
7
  6
CONTINUOUS
 10
158.6346294617
 20
131.1236340488
 11
158.6346294617
 21
130.6213524993
  0
LWPOLYLINE
  5
482
100
AcDbEntity
  8
0
100
AcDbPolyline
 62
250
  6
CONTINUOUS
 90
9
 70
0
 10
161.0136074922
 20
128.6277230291
 10
161.0132840372
 20
128.6152683002
 10
161.0099342698
 20
128.5994992711
 10
161.0033256988
 20
128.583830899
 10
160.9935332397
 20
128.5684573765
 10
160.9807185085
 20
128.5536029526
 10
160.9650766156
 20
128.539441282
 10
160.9467941693
 20
128.5260986869
 10
160.926096899
 20
128.5137089148
  0
LWPOLYLINE
  5
483
100
AcDbEntity
  8
RACCORDO
100
AcDbPolyline
 62
7
  6
CONTINUOUS
 90
39
 70
0
 10
160.6405969506
 20
139.0107018597
 10
160.6403988164
 20
139.0053150879
 10
160.6341560948
 20
138.9563526502
 10
160.6199184084
 20
138.9070128966
 10
160.5975237656
 20
138.8567234027
 10
160.5661984543
 20
138.8046192135
 10
160.5252899638
 20
138.7507990351
 10
160.4752126031
 20
138.696587682
 10
160.4168184023
 20
138.6431886172
 10
160.3511581733
 20
138.591488855
 10
160.2786015597
 20
138.541644693
 10
160.1987853073
 20
138.4934397502
 10
160.1120850353
 20
138.4472066399
 10
160.0190335903
 20
138.4032926506
 10
159.9188110906
 20
138.3614630956
 10
159.8111170966
 20
138.3218667586
 10
159.6968290685
 20
138.285061684
 10
159.5766364891
 20
138.2514379339
 10
159.4509866343
 20
138.2212660273
 10
159.3203910031
 20
138.1947888276
 10
159.1856802542
 20
138.1722703965
 10
159.0474381587
 20
138.1538898004
 10
158.9062684287
 20
138.1397919859
 10
158.7630628326
 20
138.1301110415
 10
158.618461798
 20
138.1249257991
 10
158.4731373811
 20
138.1242817382
 10
158.3280401545
 20
138.1281876263
 10
158.1838428427
 20
138.1366148188
 10
158.0411967125
 20
138.1495027735
 10
157.9010107866
 20
138.1667350368
 10
157.7639054748
 20
138.1881775168
 10
157.6304857159
 20
138.2136743198
 10
157.5015903333
 20
138.2429792701
 10
157.3777378848
 20
138.2758678821
 10
157.2594334634
 20
138.3120870227
 10
157.1474361386
 20
138.3512539863
 10
157.0422368701
 20
138.3930022538
 10
156.9440525795
 20
138.4370326393
 10
156.9065132132
 20
138.4553524316
  0
LWPOLYLINE
  5
484
100
AcDbEntity
  8
0
100
AcDbPolyline
 62
7
  6
CONTINUOUS
 90
5
 70
0
 10
157.7216078823
 20
86.7405243698
 10
157.7140461366
 20
86.6030064947
 10
157.6914902831
 20
86.4754033343
 10
157.6543262588
 20
86.3598982139
 10
157.6031899504
 20
86.2584674583
  0
LWPOLYLINE
  5
485
100
AcDbEntity
  8
RACCORDO
100
AcDbPolyline
 62
250
  6
CONTINUOUS
 90
6
 70
0
 10
165.5599816076
 20
120.7346647742
 10
165.5772960733
 20
120.7621680769
 10
165.5964736409
 20
120.7876681983
 10
165.6171782189
 20
120.8107205351
 10
165.6390508568
 20
120.8309301691
 10
165.6617177074
 20
120.8479561558
  0
LINE
  5
486
100
AcDbEntity
  8
RACCORDO
100
AcDbLine
 62
250
  6
CONTINUOUS
 10
168.7878290078
 20
119.9698053439
 11
169.3160961796
 21
120.6127574997
  0
LINE
  5
487
100
AcDbEntity
  8
RACCORDO
100
AcDbLine
 62
7
  6
CONTINUOUS
 10
168.7878290078
 20
119.8802748776
 11
169.331456752
 21
120.5419223331
  0
LWPOLYLINE
  5
488
100
AcDbEntity
  8
0
100
AcDbPolyline
 62
7
  6
CONTINUOUS
 90
9
 70
0
 10
173.3572372248
 20
124.1987040596
 10
173.3569661652
 20
124.1983888924
 10
173.3543411176
 20
124.195408588
 10
173.3490607789
 20
124.1902446181
 10
173.3410587359
 20
124.1834404378
 10
173.3301547337
 20
124.1753075093
 10
173.3162477663
 20
124.1661575065
 10
173.2994590258
 20
124.1563808489
 10
173.281023666
 20
124.1468292634
  0
LWPOLYLINE
  5
489
100
AcDbEntity
  8
RACCORDO
100
AcDbPolyline
 62
7
  6
CONTINUOUS
 90
15
 70
0
 10
167.8977688251
 20
119.4056507359
 10
167.8798599217
 20
119.3857784414
 10
167.8604533938
 20
119.3666507335
 10
167.8395999525
 20
119.3485013012
 10
167.8172915591
 20
119.3315948169
 10
167.793702221
 20
119.3161344909
 10
167.769181174
 20
119.3022694957
 10
167.743858016
 20
119.2902365633
 10
167.7178900556
 20
119.2802564049
 10
167.6916917484
 20
119.2724648068
 10
167.6654729074
 20
119.2670738607
 10
167.6394449404
 20
119.2642691864
 10
167.6140547216
 20
119.2641597145
 10
167.5896399474
 20
119.2668933046
 10
167.5840169714
 20
119.2679761226
  0
LWPOLYLINE
  5
48A
100
AcDbEntity
  8
CURVE
100
AcDbPolyline
 62
250
  6
CONTINUOUS
 90
86
 70
0
 10
147.586090295
 20
102.3557547708
 10
147.5478619154
 20
102.3297195938
 10
147.5085590188
 20
102.3062946242
 10
147.4681542463
 20
102.2854594369
 10
147.4266202392
 20
102.2671936067
 10
147.3839296385
 20
102.2514767083
 10
147.3400550856
 20
102.2382883165
 10
147.2949910199
 20
102.2276148717
 10
147.248819074
 20
102.2194702764
 10
147.2016426786
 20
102.2138752986
 10
147.1535652647
 20
102.2108507065
 10
147.1046902631
 20
102.210417268
 10
147.0551211045
 20
102.2125957513
 10
147.0049519278
 20
102.2174012712
 10
146.9542397028
 20
102.2248263295
 10
146.9030321076
 20
102.2348577747
 10
146.8513768201
 20
102.2474824553
 10
146.799321518
 20
102.26268722
 10
146.7469138794
 20
102.2804589172
 10
146.6942105455
 20
102.3007778799
 10
146.6413040111
 20
102.3235983789
 10
146.5882957346
 20
102.3488681691
 10
146.5352871741
 20
102.3765350056
 10
146.482379788
 20
102.4065466435
 10
146.4296750344
 20
102.438850838
 10
146.3772640593
 20
102.4733994146
 10
146.325196759
 20
102.5101604814
 10
146.2735127175
 20
102.549106217
 10
146.2222515188
 20
102.5902088001
 10
146.1714527469
 20
102.6334404093
 10
146.1211559857
 20
102.6787732232
 10
146.0714117163
 20
102.7261648892
 10
146.0223140073
 20
102.7755149294
 10
145.9739678244
 20
102.8267083348
 10
145.9264781332
 20
102.8796300964
 10
145.8799498993
 20
102.934165205
 10
145.8344880885
 20
102.9901986516
 10
145.790183123
 20
103.047629446
 10
145.747067251
 20
103.1064126736
 10
145.7051581777
 20
103.1665174388
 10
145.664473608
 20
103.2279128458
 10
145.6250312468
 20
103.2905679989
 10
145.5868487991
 20
103.3544520025
 10
145.5499575001
 20
103.4195146782
 10
145.5144427059
 20
103.4856287175
 10
145.4804033026
 20
103.552647529
 10
145.4479330146
 20
103.6204187361
 10
145.4171049188
 20
103.6887668193
 10
145.3879869301
 20
103.7575104738
 10
145.3606346806
 20
103.8264957579
 10
145.3350546719
 20
103.8956781841
 10
145.3112411227
 20
103.9650406281
 10
145.2891918964
 20
104.0345678614
 10
145.2689194359
 20
104.1042522387
 10
145.2504398287
 20
104.1740880104
 10
145.233775747
 20
104.2440383623
 10
145.2189762014
 20
104.3139422218
 10
145.2060967873
 20
104.3836074516
 10
145.1951853088
 20
104.4528431649
 10
145.1862584051
 20
104.5214634767
 10
145.179324924
 20
104.5892837524
 10
145.1743896032
 20
104.6561508166
 10
145.1714407388
 20
104.7220373301
 10
145.1704625167
 20
104.786947413
 10
145.1714441462
 20
104.8508817355
 10
145.1743949297
 20
104.9138271695
 10
145.1793291931
 20
104.9757671369
 10
145.1862573168
 20
105.0366597644
 10
145.1951738992
 20
105.096361997
 10
145.2060695936
 20
105.1547054845
 10
145.2189277973
 20
105.2115278272
 10
145.2337028842
 20
105.2666904276
 10
145.2503419723
 20
105.3200606389
 10
145.2687981862
 20
105.3715287847
 10
145.2890486754
 20
105.4210770705
 10
145.3110765958
 20
105.4687106723
 10
145.334869368
 20
105.5144302508
 10
145.360431472
 20
105.5582184053
 10
145.3877716523
 20
105.6000532199
 10
145.4168855265
 20
105.6398970805
 10
145.4477162027
 20
105.6776495805
 10
145.4801936618
 20
105.7131946154
 10
145.5142424938
 20
105.7464247281
 10
145.5497657263
 20
105.7772670519
 10
145.5866609957
 20
105.8056573679
 10
145.6248398994
 20
105.8315447794
  0
LINE
  5
48B
100
AcDbEntity
  8
RACCORDO
100
AcDbLine
 62
250
  6
CONTINUOUS
 10
190.4982562798
 20
126.8573740869
 11
169.8484891796
 21
116.3220715118
  0
LINE
  5
48C
100
AcDbEntity
  8
RACCORDO
100
AcDbLine
 62
250
  6
CONTINUOUS
 10
190.7035400789
 20
126.0770335137
 11
169.8484891796
 21
115.4464459234
  0
LINE
  5
48D
100
AcDbEntity
  8
RACCORDO
100
AcDbLine
 62
250
  6
CONTINUOUS
 10
174.5467532722
 20
119.495254559
 11
190.2071664922
 21
127.4082143396
  0
LWPOLYLINE
  5
48E
100
AcDbEntity
  8
0
100
AcDbPolyline
 62
7
  6
CONTINUOUS
 90
13
 70
0
 10
150.1241101352
 20
131.9245891743
 10
150.1240791645
 20
131.924654112
 10
150.1143127589
 20
131.9420619638
 10
150.1032146505
 20
131.9591388643
 10
150.0909205983
 20
131.9757127497
 10
150.0775661551
 20
131.9916271565
 10
150.0633038104
 20
132.0066441222
 10
150.0483171787
 20
132.020621128
 10
150.0327705179
 20
132.0334421773
 10
150.0168087115
 20
132.0449389074
 10
150.0006056866
 20
132.0550018404
 10
149.9843584904
 20
132.0635760759
 10
149.9682493571
 20
132.0706024261
  0
LINE
  5
48F
100
AcDbEntity
  8
RACCORDO
100
AcDbLine
 62
250
  6
CONTINUOUS
 10
169.3263252779
 20
79.5022915426
 11
169.3164848933
 21
79.5309746303
  0
LWPOLYLINE
  5
490
100
AcDbEntity
  8
RACCORDO
100
AcDbPolyline
 62
7
  6
CONTINUOUS
 90
10
 70
0
 10
157.6511666209
 20
125.2219712798
 10
157.6570681507
 20
125.1898152064
 10
157.6662684707
 20
125.1566430643
 10
157.6779245671
 20
125.1226105223
 10
157.6919921702
 20
125.0880653553
 10
157.7085643415
 20
125.0535164879
 10
157.7271460265
 20
125.0191187795
 10
157.7475946577
 20
124.9851104942
 10
157.7700280097
 20
124.9518293618
 10
157.7943814572
 20
124.9195133721
  0
LWPOLYLINE
  5
491
100
AcDbEntity
  8
RACCORDO
100
AcDbPolyline
 62
250
  6
CONTINUOUS
 90
16
 70
0
 10
163.6329234842
 20
115.4903917954
 10
163.6290569262
 20
115.5355995268
 10
163.6214318048
 20
115.5822806397
 10
163.6101315281
 20
115.6299243078
 10
163.5952797219
 20
115.6780091684
 10
163.5770388824
 20
115.7260090124
 10
163.5556086018
 20
115.7733985432
 10
163.5312233723
 20
115.8196591549
 10
163.5041500311
 20
115.8642845803
 10
163.4746848527
 20
115.9067864199
 10
163.4431502746
 20
115.9466995388
 10
163.4098913886
 20
115.9835871214
 10
163.3752721872
 20
116.0170454353
 10
163.3396715373
 20
116.0467083
 10
163.3034790302
 20
116.0722510863
 10
163.2670907465
 20
116.0933942424
  0
LINE
  5
492
100
AcDbEntity
  8
0
100
AcDbLine
 62
250
  6
CONTINUOUS
 10
160.926096899
 20
128.5137089148
 11
160.9649540791
 21
127.832307377
  0
LINE
  5
493
100
AcDbEntity
  8
0
100
AcDbLine
 62
7
  6
CONTINUOUS
 10
161.0136074922
 20
128.6277230291
 11
161.0563701662
 21
127.8778345459
  0
LWPOLYLINE
  5
494
100
AcDbEntity
  8
RACCORDO
100
AcDbPolyline
 62
250
  6
CONTINUOUS
 90
8
 70
0
 10
165.5090415775
 20
78.577581249
 10
165.510477594
 20
78.5507589317
 10
165.514802198
 20
78.5256413692
 10
165.522003456
 20
78.5026861557
 10
165.5320447961
 20
78.4822859633
 10
165.5447973072
 20
78.4649040263
 10
165.5599816076
 20
78.4509897616
 10
165.5739969567
 20
78.4423717599
  0
LINE
  5
495
100
AcDbEntity
  8
DRAFT
100
AcDbLine
 62
250
  6
CONTINUOUS
 10
163.0956194193
 20
124.2142389408
 11
163.0956194193
 21
125.6479379123
  0
LINE
  5
496
100
AcDbEntity
  8
RACCORDO
100
AcDbLine
 62
250
  6
CONTINUOUS
 10
163.3056885568
 20
121.0832765115
 11
163.3056885568
 21
122.1638598223
  0
LINE
  5
497
100
AcDbEntity
  8
DRAFT
100
AcDbLine
 62
7
  6
CONTINUOUS
 10
163.8027262005
 20
126.0014913029
 11
163.8027262005
 21
126.5616071814
  0
LINE
  5
498
100
AcDbEntity
  8
RACCORDO
100
AcDbLine
 62
250
  6
CONTINUOUS
 10
164.0107324761
 20
121.1048122748
 11
164.0107324761
 21
122.3375392471
  0
LINE
  5
499
100
AcDbEntity
  8
ASSI
100
AcDbLine
 62
250
  6
CONTINUOUS
 10
164.1365018231
 20
126.7249275366
 11
164.1365018231
 21
127.944740978
  0
LINE
  5
49A
100
AcDbEntity
  8
DRAFT
100
AcDbLine
 62
7
  6
CONTINUOUS
 10
164.1562795911
 20
125.8247146076
 11
164.1562795911
 21
126.3848304861
  0
LWPOLYLINE
  5
49B
100
AcDbEntity
  8
RACCORDO
100
AcDbPolyline
 62
250
  6
CONTINUOUS
 90
10
 70
0
 10
162.251152351
 20
114.3532762769
 10
162.1309382363
 20
110.3395241426
 10
162.0407690118
 20
106.3391218543
 10
161.9806520824
 20
102.3524037721
 10
161.9505923842
 20
98.3797031301
 10
161.9505923843
 20
94.4213518906
 10
161.9806520825
 20
90.4776807167
 10
162.040769012
 20
86.5490191037
 10
162.1309382364
 20
82.6356953494
 10
162.251152351
 20
78.7380364093
  0
LWPOLYLINE
  5
49C
100
AcDbEntity
  8
RACCORDO
100
AcDbPolyline
 62
250
  6
CONTINUOUS
 90
10
 70
0
 10
162.9517358249
 20
114.3322608512
 10
162.8316317589
 20
110.3219807991
 10
162.7415536971
 20
106.3256978278
 10
162.6815016393
 20
102.3434119373
 10
162.6514755691
 20
98.3747897597
 10
162.6514755031
 20
94.4201646629
 10
162.6815014906
 20
90.4805367506
 10
162.7415535484
 20
86.5562393904
 10
162.8316316598
 20
82.6469392147
 10
162.9517358249
 20
78.7526362234
  0
LWPOLYLINE
  5
49D
100
AcDbEntity
  8
RACCORDO
100
AcDbPolyline
 62
7
  6
CONTINUOUS
 90
39
 70
0
 10
164.1761308566
 20
137.2429349067
 10
164.1759327224
 20
137.237548135
 10
164.1696900008
 20
137.1885856972
 10
164.1554523143
 20
137.1392459436
 10
164.1330576715
 20
137.0889564497
 10
164.1017323602
 20
137.0368522605
 10
164.0608238698
 20
136.9830320821
 10
164.010746509
 20
136.928820729
 10
163.9523523082
 20
136.8754216642
 10
163.8866920793
 20
136.823721902
 10
163.8141354656
 20
136.7738777401
 10
163.7343192132
 20
136.7256727973
 10
163.6476189412
 20
136.6794396869
 10
163.5545674962
 20
136.6355256977
 10
163.4543449966
 20
136.5936961426
 10
163.3466510025
 20
136.5540998056
 10
163.2323629745
 20
136.517294731
 10
163.112170395
 20
136.4836709809
 10
162.9865205403
 20
136.4534990743
 10
162.855924909
 20
136.4270218747
 10
162.7212141601
 20
136.4045034436
 10
162.5829720646
 20
136.3861228475
 10
162.4418023346
 20
136.3720250329
 10
162.2985967386
 20
136.3623440885
 10
162.1539957039
 20
136.3571588461
 10
162.008671287
 20
136.3565147852
 10
161.8635740605
 20
136.3604206734
 10
161.7193767487
 20
136.3688478658
 10
161.5767306184
 20
136.3817358205
 10
161.4365446925
 20
136.3989680838
 10
161.2994393808
 20
136.4204105638
 10
161.1660196218
 20
136.4459073669
 10
161.0371242392
 20
136.4752123171
 10
160.9132717908
 20
136.5081009291
 10
160.7949673693
 20
136.5443200698
 10
160.6829700445
 20
136.5834870333
 10
160.577770776
 20
136.6252353009
 10
160.4795864854
 20
136.6692656864
 10
160.4420471192
 20
136.6875854786
  0
LWPOLYLINE
  5
49E
100
AcDbEntity
  8
0
100
AcDbPolyline
 62
250
  6
CONTINUOUS
 90
10
 70
0
 10
157.0428825155
 20
86.0284904223
 10
157.0401199765
 20
86.0167256002
 10
157.0052117187
 20
85.8811335733
 10
156.9672123294
 20
85.7454354971
 10
156.9261613017
 20
85.6097724033
 10
156.8821013
 20
85.4742852871
 10
156.8350781161
 20
85.339114961
 10
156.7851406214
 20
85.2044019083
 10
156.7323407162
 20
85.0702861367
 10
156.6767332757
 20
84.9369070335
  0
LWPOLYLINE
  5
49F
100
AcDbEntity
  8
RACCORDO
100
AcDbPolyline
 62
250
  6
CONTINUOUS
 90
9
 70
0
 10
167.186548217
 20
119.5541542588
 10
167.1734678422
 20
119.5247591001
 10
167.1576145101
 20
119.4973805439
 10
167.1392584733
 20
119.4724853136
 10
167.1187126482
 20
119.4504977999
 10
167.0963272806
 20
119.4317928249
 10
167.0724839751
 20
119.4166892534
 10
167.0475891898
 20
119.4054445569
 10
167.0220673075
 20
119.3982504243
  0
LWPOLYLINE
  5
4A0
100
AcDbEntity
  8
RACCORDO
100
AcDbPolyline
 62
250
  6
CONTINUOUS
 90
7
 70
0
 10
153.4061936029
 20
128.567708788
 10
153.416067474
 20
128.5499405213
 10
153.4227981485
 20
128.5339148449
 10
153.4262508454
 20
128.5199148848
 10
153.4263440908
 20
128.508184648
 10
153.4230505291
 20
128.4989509546
 10
153.4215541753
 20
128.4968736214
  0
LWPOLYLINE
  5
4A1
100
AcDbEntity
  8
RACCORDO
100
AcDbPolyline
 62
250
  6
CONTINUOUS
 90
3
 70
0
 10
169.3362466675
 20
79.4402032169
 10
169.3329531058
 20
79.4718540351
 10
169.3263252779
 20
79.5022915426
  0
LWPOLYLINE
  5
4A2
100
AcDbEntity
  8
ASSI
100
AcDbPolyline
 62
7
  6
CONTINUOUS
 90
4
 70
0
 10
164.2618513298
 20
127.9543227523
 10
164.2616434055
 20
127.9567405161
 10
164.2589729295
 20
127.9621346487
 10
164.2550761433
 20
127.9650163634
  0
LWPOLYLINE
  5
4A3
100
AcDbEntity
  8
RACCORDO
100
AcDbPolyline
 62
250
  6
CONTINUOUS
 90
8
 70
0
 10
166.8340262573
 20
77.9150889091
 10
166.8354622738
 20
77.8882665918
 10
166.8397868778
 20
77.8631490293
 10
166.8469881358
 20
77.8401938158
 10
166.8570294759
 20
77.8197936234
 10
166.869781987
 20
77.8024116864
 10
166.8849662875
 20
77.7884974216
 10
166.8989970831
 20
77.7798716944
  0
LWPOLYLINE
  5
4A4
100
AcDbEntity
  8
RACCORDO
100
AcDbPolyline
 62
250
  6
CONTINUOUS
 90
9
 70
0
 10
165.5090415775
 20
120.2171593225
 10
165.5102489665
 20
120.192501821
 10
165.5138546479
 20
120.1693884965
 10
165.5198093789
 20
120.1481350871
 10
165.528047461
 20
120.1290018506
 10
165.538447963
 20
120.1122883221
 10
165.5508011959
 20
120.098287268
 10
165.5648853126
 20
120.0871640323
 10
165.574014874
 20
120.0819408724
  0
LINE
  5
4A5
100
AcDbEntity
  8
RACCORDO
100
AcDbLine
 62
7
  6
CONTINUOUS
 10
163.4282996476
 20
135.5002368525
 11
163.4284058532
 21
135.4974145492
  0
LWPOLYLINE
  5
4A6
100
AcDbEntity
  8
RACCORDO
100
AcDbPolyline
 62
250
  6
CONTINUOUS
 90
23
 70
0
 10
164.1761353319
 20
137.2429378766
 10
164.1752176107
 20
137.2956013495
 10
164.1688697717
 20
137.3489522375
 10
164.1576320352
 20
137.4000899438
 10
164.1420785076
 20
137.4490511734
 10
164.1227910907
 20
137.495737596
 10
164.1003081101
 20
137.5401383099
 10
164.0750100735
 20
137.5824459174
 10
164.0473450016
 20
137.6226446623
 10
164.0177394696
 20
137.660736784
 10
163.9864011706
 20
137.6969462845
 10
163.9536711557
 20
137.73128336
 10
163.9198690102
 20
137.7637734037
 10
163.8850476947
 20
137.7946547035
 10
163.8494390958
 20
137.8239623873
 10
163.8132905511
 20
137.8517141004
 10
163.7765811363
 20
137.8781074061
 10
163.7395448021
 20
137.9031330714
 10
163.7023022495
 20
137.9268585798
 10
163.6645707133
 20
137.9495728448
 10
163.626308594
 20
137.971376035
 10
163.5877662178
 20
137.9921992611
 10
163.5490460715
 20
138.0120627354
  0
LINE
  5
4A7
100
AcDbEntity
  8
ASSI
100
AcDbLine
 62
7
  6
CONTINUOUS
 10
164.2618513303
 20
126.8739506653
 11
164.2618513303
 21
127.9542885844
  0
LINE
  5
4A8
100
AcDbEntity
  8
DRAFT
100
AcDbLine
 62
7
  6
CONTINUOUS
 10
164.3684116254
 20
122.5168437919
 11
164.3684116254
 21
121.3044082266
  0
LINE
  5
4A9
100
AcDbEntity
  8
DRAFT
100
AcDbLine
 62
250
  6
CONTINUOUS
 10
164.5098329817
 20
124.22179663
 11
164.5098329817
 21
125.6479379123
  0
LINE
  5
4AA
100
AcDbEntity
  8
DRAFT
100
AcDbLine
 62
7
  6
CONTINUOUS
 10
164.5513322845
 20
124.8477653975
 11
164.5513322845
 21
124.2562380544
  0
LINE
  5
4AB
100
AcDbEntity
  8
RACCORDO
100
AcDbLine
 62
7
  6
CONTINUOUS
 10
165.4358182728
 20
120.6455216043
 11
165.4358182728
 21
120.3055476702
  0
LINE
  5
4AC
100
AcDbEntity
  8
RACCORDO
100
AcDbLine
 62
7
  6
CONTINUOUS
 10
165.4358182728
 20
78.7924688923
 11
165.4358182728
 21
78.6659695967
  0
LINE
  5
4AD
100
AcDbEntity
  8
RACCORDO
100
AcDbLine
 62
250
  6
CONTINUOUS
 10
165.5090415775
 20
120.5571332566
 11
165.5090415775
 21
120.2171593225
  0
LINE
  5
4AE
100
AcDbEntity
  8
RACCORDO
100
AcDbLine
 62
250
  6
CONTINUOUS
 10
165.5090415775
 20
78.8232050614
 11
165.5090415775
 21
78.577581249
  0
LINE
  5
4AF
100
AcDbEntity
  8
RACCORDO
100
AcDbLine
 62
7
  6
CONTINUOUS
 10
166.1388112271
 20
119.3455685942
 11
166.1388112271
 21
119.7995426958
  0
LINE
  5
4B0
100
AcDbEntity
  8
RACCORDO
100
AcDbLine
 62
250
  6
CONTINUOUS
 10
166.2120345318
 20
119.2538568993
 11
166.2120345318
 21
119.7629310435
  0
LINE
  5
4B1
100
AcDbEntity
  8
RACCORDO
100
AcDbLine
 62
250
  6
CONTINUOUS
 10
166.8340262573
 20
77.9150889091
 11
166.8340262573
 21
78.2550628432
  0
LINE
  5
4B2
100
AcDbEntity
  8
RACCORDO
100
AcDbLine
 62
250
  6
CONTINUOUS
 10
166.8340262573
 20
119.5546669826
 11
166.8340262573
 21
119.8946409167
  0
LINE
  5
4B3
100
AcDbEntity
  8
RACCORDO
100
AcDbLine
 62
7
  6
CONTINUOUS
 10
166.9139960377
 20
126.8757130301
 11
166.9139960377
 21
126.5973550482
  0
LWPOLYLINE
  5
4B4
100
AcDbEntity
  8
RACCORDO
100
AcDbPolyline
 62
7
  6
CONTINUOUS
 90
39
 70
0
 10
167.7116647625
 20
135.4751679537
 10
167.7114666283
 20
135.469781182
 10
167.7052239067
 20
135.4208187442
 10
167.6909862202
 20
135.3714789906
 10
167.6685915774
 20
135.3211894967
 10
167.6372662661
 20
135.2690853076
 10
167.5963577757
 20
135.2152651291
 10
167.5462804149
 20
135.161053776
 10
167.4878862141
 20
135.1076547112
 10
167.4222259852
 20
135.055954949
 10
167.3496693715
 20
135.0061107871
 10
167.2698531191
 20
134.9579058443
 10
167.1831528472
 20
134.9116727339
 10
167.0901014021
 20
134.8677587447
 10
166.9898789025
 20
134.8259291897
 10
166.8821849084
 20
134.7863328527
 10
166.7678968804
 20
134.7495277781
 10
166.647704301
 20
134.715904028
 10
166.5220544462
 20
134.6857321213
 10
166.3914588149
 20
134.6592549217
 10
166.2567480661
 20
134.6367364906
 10
166.1185059705
 20
134.6183558945
 10
165.9773362406
 20
134.6042580799
 10
165.8341306445
 20
134.5945771356
 10
165.6895296099
 20
134.5893918931
 10
165.5442051929
 20
134.5887478323
 10
165.3991079664
 20
134.5926537204
 10
165.2549106546
 20
134.6010809128
 10
165.1122645243
 20
134.6139688676
 10
164.9720785985
 20
134.6312011309
 10
164.8349732867
 20
134.6526436108
 10
164.7015535278
 20
134.6781404139
 10
164.5726581452
 20
134.7074453642
 10
164.4488056967
 20
134.7403339761
 10
164.3305012753
 20
134.7765531168
 10
164.2185039504
 20
134.8157200803
 10
164.113304682
 20
134.8574683479
 10
164.0151203913
 20
134.9014987334
 10
163.9775810251
 20
134.9198185257
  0
LWPOLYLINE
  5
4B5
100
AcDbEntity
  8
RACCORDO
100
AcDbPolyline
 62
250
  6
CONTINUOUS
 90
7
 70
0
 10
165.5090415775
 20
120.5571332566
 10
165.510477594
 20
120.5853915905
 10
165.514802198
 20
120.614833757
 10
165.522003456
 20
120.6449902284
 10
165.5320447961
 20
120.675431761
 10
165.5447973072
 20
120.705566209
 10
165.5599816076
 20
120.7346647742
  0
LWPOLYLINE
  5
4B6
100
AcDbEntity
  8
RACCORDO
100
AcDbPolyline
 62
250
  6
CONTINUOUS
 90
13
 70
0
 10
166.8340262573
 20
119.8946409167
 10
166.8355393886
 20
119.9236645065
 10
166.8400549886
 20
119.9537150644
 10
166.8474988204
 20
119.9842785891
 10
166.8577475948
 20
120.0148348036
 10
166.87062763
 20
120.0448556599
 10
166.8859148564
 20
120.0738152561
 10
166.9033867337
 20
120.1012735724
 10
166.9227114236
 20
120.1266929129
 10
166.9434091553
 20
120.1494875908
 10
166.9650496142
 20
120.1692816176
 10
166.9872975421
 20
120.1858604437
 10
167.0097745133
 20
120.1990177317
  0
LWPOLYLINE
  5
4B7
100
AcDbEntity
  8
RACCORDO
100
AcDbPolyline
 62
250
  6
CONTINUOUS
 90
10
 70
0
 10
163.6329234842
 20
78.2523205553
 10
163.6290568182
 20
78.2071812573
 10
163.6214314761
 20
78.1645039612
 10
163.6101309055
 20
78.1247557052
 10
163.5952787741
 20
78.0883714737
 10
163.577037616
 20
78.0557494368
 10
163.555607053
 20
78.0272465933
 10
163.53122161
 20
78.0031748636
 10
163.5041481487
 20
77.9837976762
 10
163.4791162393
 20
77.9711248572
  0
LWPOLYLINE
  5
4B8
100
AcDbEntity
  8
RACCORDO
100
AcDbPolyline
 62
250
  6
CONTINUOUS
 90
6
 70
0
 10
152.7486479062
 20
88.7626884807
 10
152.8112244352
 20
88.8460884232
 10
152.8610426048
 20
88.9448920682
 10
152.8972491721
 20
89.0574083587
 10
152.9192243853
 20
89.1817129478
 10
152.9265916106
 20
89.3156789846
  0
LWPOLYLINE
  5
4B9
100
AcDbEntity
  8
0
100
AcDbPolyline
 62
7
  6
CONTINUOUS
 90
3
 70
0
 10
151.3998783627
 20
90.7712089345
 10
151.3722993371
 20
90.7369432171
 10
151.3483009262
 20
90.7014257768
  0
LWPOLYLINE
  5
4BA
100
AcDbEntity
  8
CURVE
100
AcDbPolyline
 62
250
  6
CONTINUOUS
 90
79
 70
0
 10
150.3545640162
 20
97.6219432351
 10
150.200269674
 20
97.5173058924
 10
150.0407765209
 20
97.4239984901
 10
149.8759512125
 20
97.3419141086
 10
149.7056604046
 20
97.2709458283
 10
149.5298698823
 20
97.2110289476
 10
149.3489419479
 20
97.1622676349
 10
149.1633380334
 20
97.1248082767
 10
148.9735195705
 20
97.0987972591
 10
148.7799063516
 20
97.0843538755
 10
148.5827516109
 20
97.0814890468
 10
148.382266943
 20
97.0901866009
 10
148.1786639428
 20
97.1104303656
 10
147.9721965363
 20
97.142187891
 10
147.763287976
 20
97.1853616148
 10
147.5524038453
 20
97.2398376968
 10
147.3400097281
 20
97.3055022967
 10
147.1265281627
 20
97.3822465817
 10
146.9122095057
 20
97.4699817477
 10
146.6972610685
 20
97.568623998
 10
146.4818901623
 20
97.6780895358
 10
146.2663574144
 20
97.7982520101
 10
146.0511367157
 20
97.9288148532
 10
145.836755273
 20
98.0694389432
 10
145.6237402933
 20
98.2197851579
 10
145.4125577189
 20
98.3795509544
 10
145.2034284337
 20
98.5485801052
 10
144.9965120573
 20
98.7267529619
 10
144.7919682091
 20
98.9139498761
 10
144.5900179849
 20
99.1099783654
 10
144.3911283859
 20
99.3143546122
 10
144.1958278896
 20
99.5265219651
 10
144.0046449735
 20
99.7459237726
 10
143.8180381499
 20
99.972075905
 10
143.6361860706
 20
100.2047843186
 10
143.4591974222
 20
100.4439274915
 10
143.2871808914
 20
100.6893839017
 10
143.1203026025
 20
100.9409301848
 10
142.9589584307
 20
101.1979356058
 10
142.8036016889
 20
101.4596675872
 10
142.65468569
 20
101.7253935514
 10
142.5125989008
 20
101.9944853495
 10
142.3774704041
 20
102.2667325459
 10
142.2493644365
 20
102.5420291334
 10
142.1283452347
 20
102.8202691051
 10
142.0145173369
 20
103.1012252781
 10
141.908146487
 20
103.3841857665
 10
141.8095387306
 20
103.6683175086
 10
141.719000113
 20
103.9527874429
 10
141.6367904017
 20
104.236887374
 10
141.5629842513
 20
104.5204085725
 10
141.4976100382
 20
104.8032671751
 10
141.440696139
 20
105.0853793187
 10
141.3922843647
 20
105.3665350487
 10
141.3524702639
 20
105.6460200445
 10
141.3213628198
 20
105.9229938939
 10
141.2990710156
 20
106.196616185
 10
141.2856854202
 20
106.4661742513
 10
141.2812229452
 20
106.7314664098
 10
141.285682088
 20
106.9924187231
 10
141.2990613459
 20
107.2489572538
 10
141.3213415976
 20
107.5008987996
 10
141.352433247
 20
107.7476230986
 10
141.392229079
 20
107.9884006241
 10
141.4406218789
 20
108.2225018491
 10
141.4975176477
 20
108.4493069503
 10
141.5628752502
 20
108.6686349183
 10
141.6366667672
 20
108.8804144473
 10
141.7188642793
 20
109.0845742314
 10
141.8093932439
 20
109.280963322
 10
141.907992625
 20
109.4691122007
 10
142.0143547632
 20
109.6484717062
 10
142.128171999
 20
109.8184926773
 10
142.2491776478
 20
109.9787080021
 10
142.3772689244
 20
110.1289787646
 10
142.5123840179
 20
110.2692480981
 10
142.654461118
 20
110.3994591358
 10
142.8033726124
 20
110.519513472
 10
142.9587276824
 20
110.6291465449
  0
LINE
  5
4BB
100
AcDbEntity
  8
RACCORDO
100
AcDbLine
 62
250
  6
CONTINUOUS
 10
131.5164036967
 20
129.720650604
 11
162.251152351
 21
114.3532762769
  0
LWPOLYLINE
  5
4BC
100
AcDbEntity
  8
0
100
AcDbPolyline
 62
250
  6
CONTINUOUS
 90
9
 70
0
 10
150.0130694928
 20
131.8698600573
 10
150.0085314245
 20
131.8755551737
 10
149.9915897274
 20
131.8946143721
 10
149.9735913779
 20
131.9128337193
 10
149.954831637
 20
131.9299143289
 10
149.9356182563
 20
131.9455759953
 10
149.916266429
 20
131.9595617906
 10
149.8970936197
 20
131.9716422796
 10
149.8784143563
 20
131.981619283
  0
LWPOLYLINE
  5
4BD
100
AcDbEntity
  8
RACCORDO
100
AcDbPolyline
 62
250
  6
CONTINUOUS
 90
6
 70
0
 10
155.8999478962
 20
127.8224604155
 10
155.8823505197
 20
127.8499684335
 10
155.8628701373
 20
127.8753981916
 10
155.8419924693
 20
127.8981614782
 10
155.8201541595
 20
127.9178810594
 10
155.7976965065
 20
127.9343416853
  0
LWPOLYLINE
  5
4BE
100
AcDbEntity
  8
RACCORDO
100
AcDbPolyline
 62
250
  6
CONTINUOUS
 90
6
 70
0
 10
153.3548416374
 20
129.0944301838
 10
153.3374444607
 20
129.1217889304
 10
153.3181814372
 20
129.1471171853
 10
153.2973821484
 20
129.1699815935
 10
153.2754024606
 20
129.1899909557
 10
153.2526184361
 20
129.2068029207
  0
LWPOLYLINE
  5
4BF
100
AcDbEntity
  8
RACCORDO
100
AcDbPolyline
 62
250
  6
CONTINUOUS
 90
7
 70
0
 10
155.9517780151
 20
127.2949165819
 10
155.961728741
 20
127.2769917469
 10
155.9684642893
 20
127.2608808085
 10
155.9718711206
 20
127.2468584531
 10
155.9718928788
 20
127.2351643434
 10
155.9685314401
 20
127.2259957905
 10
155.9671748474
 20
127.2241256754
  0
LWPOLYLINE
  5
4C0
100
AcDbEntity
  8
RACCORDO
100
AcDbPolyline
 62
7
  6
CONTINUOUS
 90
16
 70
0
 10
169.233312942
 20
118.5478090151
 10
169.2306646916
 20
118.5927051303
 10
169.2244155299
 20
118.6390322886
 10
169.2146190725
 20
118.6862980838
 10
169.2013561354
 20
118.7339952601
 10
169.1847652155
 20
118.7816221631
 10
169.1650410881
 20
118.8286880602
 10
169.1423827882
 20
118.8746942446
 10
169.1170169369
 20
118.9191512148
 10
169.0892267377
 20
118.9615989875
 10
169.0592994414
 20
119.0015885295
 10
169.0275401448
 20
119.0386942858
 10
168.9942938999
 20
119.0725305944
 10
168.9599114261
 20
119.102741473
 10
168.9247454676
 20
119.1290043757
 10
168.8891638266
 20
119.1510413783
  0
LWPOLYLINE
  5
4C1
100
AcDbEntity
  8
RACCORDO
100
AcDbPolyline
 62
250
  6
CONTINUOUS
 90
13
 70
0
 10
167.186548217
 20
119.8941281929
 10
167.1849097448
 20
119.9230806621
 10
167.1802923853
 20
119.9530588244
 10
167.1727751395
 20
119.9835497672
 10
167.1624866238
 20
120.0140318044
 10
167.1496028702
 20
120.0439834024
 10
167.1343443137
 20
120.072892103
 10
167.1169720213
 20
120.1002632918
 10
167.0977832248
 20
120.1256286601
 10
167.0771062357
 20
120.1485542183
 10
167.055294828
 20
120.1686477204
 10
167.0327221846
 20
120.185565376
 10
167.0097745133
 20
120.1990177317
  0
LWPOLYLINE
  5
4C2
100
AcDbEntity
  8
RACCORDO
100
AcDbPolyline
 62
7
  6
CONTINUOUS
 90
13
 70
0
 10
168.7878290078
 20
120.6968501964
 10
168.7861905496
 20
120.7258026725
 10
168.7815732023
 20
120.7557808408
 10
168.774055967
 20
120.7862717889
 10
168.7637674612
 20
120.816753831
 10
168.7508837157
 20
120.8467054332
 10
168.7356251626
 20
120.8756141356
 10
168.7182528667
 20
120.9029853227
 10
168.699064062
 20
120.928350687
 10
168.6783870631
 20
120.9512762403
 10
168.6565756448
 20
120.9713697371
 10
168.6340029893
 20
120.9882873865
 10
168.6110553041
 20
121.0017397352
  0
LWPOLYLINE
  5
4C3
100
AcDbEntity
  8
RACCORDO
100
AcDbPolyline
 62
250
  6
CONTINUOUS
 90
9
 70
0
 10
166.8340262573
 20
119.5546669826
 10
166.8352336463
 20
119.5300094811
 10
166.8388393278
 20
119.5068961566
 10
166.8447940588
 20
119.4856427472
 10
166.8530321408
 20
119.4665095107
 10
166.8634326428
 20
119.4497959822
 10
166.8757858757
 20
119.4357949281
 10
166.8898699924
 20
119.4246716924
 10
166.8989916996
 20
119.41945246
  0
LWPOLYLINE
  5
4C4
100
AcDbEntity
  8
RACCORDO
100
AcDbPolyline
 62
250
  6
CONTINUOUS
 90
7
 70
0
 10
169.3160961796
 20
120.9602890164
 10
169.314708573
 20
120.9893669184
 10
169.3103025946
 20
121.0194507713
 10
169.3029536288
 20
121.0500258541
 10
169.292787413
 20
121.0805690412
 10
169.2799778864
 20
121.1105577527
 10
169.2647442141
 20
121.1394788955
  0
LWPOLYLINE
  5
4C5
100
AcDbEntity
  8
RACCORDO
100
AcDbPolyline
 62
7
  6
CONTINUOUS
 90
12
 70
0
 10
166.9139960377
 20
126.8757130301
 10
166.9111697312
 20
126.9502776672
 10
166.9032271312
 20
127.0206140987
 10
166.8901682377
 20
127.0867223248
 10
166.8718192197
 20
127.1490333321
 10
166.8483539083
 20
127.2071161339
 10
166.8202937964
 20
127.2596777699
 10
166.7875348214
 20
127.3065958469
 10
166.7501810459
 20
127.3479927582
 10
166.7090661515
 20
127.382942723
 10
166.6641050557
 20
127.4112999012
 10
166.6540278207
 20
127.4166243356
  0
LINE
  5
4C6
100
AcDbEntity
  8
RACCORDO
100
AcDbLine
 62
7
  6
CONTINUOUS
 10
168.3780471159
 20
133.0253631184
 11
168.3781533215
 21
133.022540815
  0
LWPOLYLINE
  5
4C7
100
AcDbEntity
  8
RACCORDO
100
AcDbPolyline
 62
250
  6
CONTINUOUS
 90
23
 70
0
 10
167.7116692378
 20
135.4751709236
 10
167.7107515166
 20
135.5278343965
 10
167.7044036777
 20
135.5811852845
 10
167.6931659412
 20
135.6323229908
 10
167.6776124135
 20
135.6812842204
 10
167.6583249967
 20
135.727970643
 10
167.635842016
 20
135.7723713569
 10
167.6105439794
 20
135.8146789645
 10
167.5828789075
 20
135.8548777093
 10
167.5532733756
 20
135.892969831
 10
167.5219350765
 20
135.9291793316
 10
167.4892050616
 20
135.963516407
 10
167.4554029162
 20
135.9960064508
 10
167.4205816006
 20
136.0268877505
 10
167.3849730017
 20
136.0561954343
 10
167.348824457
 20
136.0839471474
 10
167.3121150423
 20
136.1103404531
 10
167.275078708
 20
136.1353661185
 10
167.2378361554
 20
136.1590916269
 10
167.2001046193
 20
136.1818058918
 10
167.1618425
 20
136.203609082
 10
167.1233001238
 20
136.2244323081
 10
167.0845799774
 20
136.2442957824
  0
LINE
  5
4C8
100
AcDbEntity
  8
RACCORDO
100
AcDbLine
 62
250
  6
CONTINUOUS
 10
167.186548217
 20
77.9145761852
 11
167.186548217
 21
78.2545501194
  0
LINE
  5
4C9
100
AcDbEntity
  8
RACCORDO
100
AcDbLine
 62
250
  6
CONTINUOUS
 10
167.186548217
 20
119.5541542588
 11
167.186548217
 21
119.8941281929
  0
LINE
  5
4CA
100
AcDbEntity
  8
0
100
AcDbLine
 62
250
  6
CONTINUOUS
 10
167.4798968378
 20
126.3144046482
 11
167.4798968378
 21
126.852912177
  0
LINE
  5
4CB
100
AcDbEntity
  8
RACCORDO
100
AcDbLine
 62
250
  6
CONTINUOUS
 10
167.5452468654
 20
119.2811634597
 11
167.5452468654
 21
118.5872507325
  0
LINE
  5
4CC
100
AcDbEntity
  8
RACCORDO
100
AcDbLine
 62
250
  6
CONTINUOUS
 10
167.5452468654
 20
79.6779213334
 11
167.5452468654
 21
79.2315593204
  0
LINE
  5
4CD
100
AcDbEntity
  8
RACCORDO
100
AcDbLine
 62
250
  6
CONTINUOUS
 10
167.8977688251
 20
119.4056507359
 11
167.8977688251
 21
118.5971499119
  0
LINE
  5
4CE
100
AcDbEntity
  8
RACCORDO
100
AcDbLine
 62
250
  6
CONTINUOUS
 10
167.8977688251
 20
79.8258957331
 11
167.8977688251
 21
79.1060465965
  0
LINE
  5
4CF
100
AcDbEntity
  8
0
100
AcDbLine
 62
250
  6
CONTINUOUS
 10
168.1865728686
 20
126.0626157184
 11
168.1865728686
 21
126.8466993152
  0
LINE
  5
4D0
100
AcDbEntity
  8
RACCORDO
100
AcDbLine
 62
7
  6
CONTINUOUS
 10
168.7878290078
 20
78.6946107849
 11
168.7878290078
 21
80.1995068448
  0
LINE
  5
4D1
100
AcDbEntity
  8
RACCORDO
100
AcDbLine
 62
7
  6
CONTINUOUS
 10
168.7878290078
 20
119.101988729
 11
168.7878290078
 21
120.6968501964
  0
LINE
  5
4D2
100
AcDbEntity
  8
RACCORDO
100
AcDbLine
 62
250
  6
CONTINUOUS
 10
169.3160961796
 20
120.9602890164
 11
169.3160961796
 21
120.6127574997
  0
LINE
  5
4D3
100
AcDbEntity
  8
RACCORDO
100
AcDbLine
 62
250
  6
CONTINUOUS
 10
169.3160961796
 20
79.3131533603
 11
169.3160961796
 21
78.9656218435
  0
LINE
  5
4D4
100
AcDbEntity
  8
RACCORDO
100
AcDbLine
 62
7
  6
CONTINUOUS
 10
169.3882940366
 20
121.0481616486
 11
169.3882940366
 21
120.7006301319
  0
LINE
  5
4D5
100
AcDbEntity
  8
RACCORDO
100
AcDbLine
 62
7
  6
CONTINUOUS
 10
169.3882940366
 20
79.4010259925
 11
169.3882940366
 21
79.0534944757
  0
LINE
  5
4D6
100
AcDbEntity
  8
ASSI
100
AcDbLine
 62
250
  6
CONTINUOUS
 10
169.6932456956
 20
123.9482973477
 11
169.6932456956
 21
125.1678132597
  0
LINE
  5
4D7
100
AcDbEntity
  8
ASSI
100
AcDbLine
 62
7
  6
CONTINUOUS
 10
169.8168397595
 20
124.0964564507
 11
169.8168397595
 21
125.1767943698
  0
LINE
  5
4D8
100
AcDbEntity
  8
RACCORDO
100
AcDbLine
 62
7
  6
CONTINUOUS
 10
169.8484891796
 20
118.8383810905
 11
169.8484891796
 21
80.9066332814
  0
LINE
  5
4D9
100
AcDbEntity
  8
RACCORDO
100
AcDbLine
 62
250
  6
CONTINUOUS
 10
169.3882940366
 20
79.0534944757
 11
169.3882938916
 21
79.0533598531
  0
LWPOLYLINE
  5
4DA
100
AcDbEntity
  8
RACCORDO
100
AcDbPolyline
 62
250
  6
CONTINUOUS
 90
10
 70
0
 10
166.8340262573
 20
78.2550628432
 10
166.8351856376
 20
78.2803980984
 10
166.8386722123
 20
78.3066961881
 10
166.8444749823
 20
78.3336187093
 10
166.8525661479
 20
78.3608556895
 10
166.8628612747
 20
78.3879914902
 10
166.875184064
 20
78.4145167824
 10
166.8893404302
 20
78.4400262661
 10
166.90515596
 20
78.4642164885
 10
166.922414605
 20
78.486757017
  0
LWPOLYLINE
  5
4DB
100
AcDbEntity
  8
RACCORDO
100
AcDbPolyline
 62
250
  6
CONTINUOUS
 90
7
 70
0
 10
169.3882940366
 20
120.7006301319
 10
169.3862645659
 20
120.6847350337
 10
169.3800246343
 20
120.6687462874
 10
169.3696791626
 20
120.6532990547
 10
169.3554038578
 20
120.6386556905
 10
169.337441171
 20
120.6250648971
 10
169.3160961796
 20
120.6127574997
  0
LWPOLYLINE
  5
4DC
100
AcDbEntity
  8
RACCORDO
100
AcDbPolyline
 62
250
  6
CONTINUOUS
 90
7
 70
0
 10
169.3882940366
 20
121.0481616486
 10
169.3861088164
 20
121.0316704776
 10
169.3796496596
 20
121.0155753661
 10
169.3691138908
 20
121.0001455188
 10
169.3548005069
 20
120.9856617519
 10
169.3370064552
 20
120.9723108498
 10
169.3160961796
 20
120.9602890164
  0
LWPOLYLINE
  5
4DD
100
AcDbEntity
  8
RACCORDO
100
AcDbPolyline
 62
250
  6
CONTINUOUS
 90
4
 70
0
 10
167.0220673075
 20
119.3982504243
 10
166.9963534011
 20
119.3952294944
 10
166.970885817
 20
119.396433265
 10
166.9597047235
 20
119.398333098
  0
LINE
  5
4DE
100
AcDbEntity
  8
RACCORDO
100
AcDbLine
 62
250
  6
CONTINUOUS
 10
132.5089697067
 20
131.4724547599
 11
163.2670907442
 21
116.0933942412
  0
LWPOLYLINE
  5
4DF
100
AcDbEntity
  8
0
100
AcDbPolyline
 62
250
  6
CONTINUOUS
 90
18
 70
0
 10
150.0630156032
 20
132.5206698333
 10
150.0880637615
 20
132.4954656671
 10
150.109408915
 20
132.4695711687
 10
150.1271312751
 20
132.4429069764
 10
150.1411506303
 20
132.4155524518
 10
150.1512600316
 20
132.3879107502
 10
150.1574014752
 20
132.3599754711
 10
150.1596329647
 20
132.3317530149
 10
150.1579215614
 20
132.3036657386
 10
150.1522284611
 20
132.2757385479
 10
150.142592468
 20
132.2479465371
 10
150.1290970549
 20
132.2206373465
 10
150.1117327997
 20
132.1938162737
 10
150.0905091245
 20
132.167478021
 10
150.0655377688
 20
132.1419543353
 10
150.0368559788
 20
132.1173557987
 10
150.0044265083
 20
132.093571829
 10
149.9682493571
 20
132.0706024261
  0
LWPOLYLINE
  5
4E0
100
AcDbEntity
  8
0
100
AcDbPolyline
 62
250
  6
CONTINUOUS
 90
4
 70
0
 10
158.8323598524
 20
131.4833412119
 10
158.8410588897
 20
131.4661645563
 10
158.8471586604
 20
131.4487251126
 10
158.8498628695
 20
131.4351054929
  0
LWPOLYLINE
  5
4E1
100
AcDbEntity
  8
ASSI
100
AcDbPolyline
 62
7
  6
CONTINUOUS
 90
4
 70
0
 10
169.816839759
 20
125.1768267663
 10
169.8166680933
 20
125.1790323526
 10
169.8141149126
 20
125.1844714083
 10
169.8100648103
 20
125.1875245374
  0
LINE
  5
4E2
100
AcDbEntity
  8
0
100
AcDbLine
 62
7
  6
CONTINUOUS
 10
171.9135810218
 20
131.2575961654
 11
171.9136872274
 21
131.2547738621
  0
LWPOLYLINE
  5
4E3
100
AcDbEntity
  8
RACCORDO
100
AcDbPolyline
 62
250
  6
CONTINUOUS
 90
23
 70
0
 10
172.6614167061
 20
133.0002971894
 10
172.660498985
 20
133.0529606623
 10
172.654151146
 20
133.1063115503
 10
172.6429134095
 20
133.1574492567
 10
172.6273598818
 20
133.2064104863
 10
172.608072465
 20
133.2530969089
 10
172.5855894843
 20
133.2974976227
 10
172.5602914477
 20
133.3398052303
 10
172.5326263758
 20
133.3800039752
 10
172.5030208439
 20
133.4180960969
 10
172.4716825448
 20
133.4543055974
 10
172.4389525299
 20
133.4886426729
 10
172.4051503845
 20
133.5211327166
 10
172.3703290689
 20
133.5520140164
 10
172.3347204701
 20
133.5813217002
 10
172.2985719253
 20
133.6090734133
 10
172.2618625106
 20
133.635466719
 10
172.2248261763
 20
133.6604923843
 10
172.1875836237
 20
133.6842178927
 10
172.1498520876
 20
133.7069321576
 10
172.1115899683
 20
133.7287353479
 10
172.0730475921
 20
133.7495585739
 10
172.0343274457
 20
133.7694220482
  0
LWPOLYLINE
  5
4E4
100
AcDbEntity
  8
RACCORDO
100
AcDbPolyline
 62
7
  6
CONTINUOUS
 90
39
 70
0
 10
172.6614122308
 20
133.0002942196
 10
172.6612140966
 20
132.9949074478
 10
172.654971375
 20
132.9459450101
 10
172.6407336885
 20
132.8966052565
 10
172.6183390457
 20
132.8463157626
 10
172.5870137344
 20
132.7942115734
 10
172.546105244
 20
132.740391395
 10
172.4960278832
 20
132.6861800419
 10
172.4376336824
 20
132.6327809771
 10
172.3719734535
 20
132.5810812149
 10
172.2994168398
 20
132.5312370529
 10
172.2196005874
 20
132.4830321102
 10
172.1329003155
 20
132.4367989998
 10
172.0398488704
 20
132.3928850105
 10
171.9396263708
 20
132.3510554555
 10
171.8319323767
 20
132.3114591185
 10
171.7176443487
 20
132.2746540439
 10
171.5974517693
 20
132.2410302938
 10
171.4718019145
 20
132.2108583872
 10
171.3412062832
 20
132.1843811876
 10
171.2064955344
 20
132.1618627565
 10
171.0682534388
 20
132.1434821603
 10
170.9270837089
 20
132.1293843458
 10
170.7838781128
 20
132.1197034014
 10
170.6392770782
 20
132.114518159
 10
170.4939526613
 20
132.1138740981
 10
170.3488554347
 20
132.1177799863
 10
170.2046581229
 20
132.1262071787
 10
170.0620119926
 20
132.1390951334
 10
169.9218260668
 20
132.1563273967
 10
169.784720755
 20
132.1777698767
 10
169.6513009961
 20
132.2032666798
 10
169.5224056135
 20
132.23257163
 10
169.398553165
 20
132.265460242
 10
169.2802487436
 20
132.3016793826
 10
169.1682514187
 20
132.3408463462
 10
169.0630521503
 20
132.3825946137
 10
168.9648678596
 20
132.4266249992
 10
168.9273284934
 20
132.4449447915
  0
LINE
  5
4E5
100
AcDbEntity
  8
0
100
AcDbLine
 62
250
  6
CONTINUOUS
 10
173.1896401017
 20
124.1488182056
 11
173.2005264914
 21
124.3397225038
  0
LWPOLYLINE
  5
4E6
100
AcDbEntity
  8
RACCORDO
100
AcDbPolyline
 62
7
  6
CONTINUOUS
 90
10
 70
0
 10
169.233312942
 20
80.6031365696
 10
169.2306646916
 20
80.5593364541
 10
169.2244155299
 20
80.5178968656
 10
169.2146190725
 20
80.4792479996
 10
169.2013561354
 20
80.4437858586
 10
169.1847652155
 20
80.4118833519
 10
169.1650410881
 20
80.3838864934
 10
169.1423827882
 20
80.3600862899
 10
169.1170169369
 20
80.3407281066
 10
169.0986660721
 20
80.3303604057
  0
LWPOLYLINE
  5
4E7
100
AcDbEntity
  8
0
100
AcDbPolyline
 62
7
  6
CONTINUOUS
 90
4
 70
0
 10
157.6031899504
 20
86.2584674583
 10
157.5389563143
 20
86.1728465758
 10
157.4627244058
 20
86.1045005634
 10
157.3967414002
 20
86.0644321193
  0
LWPOLYLINE
  5
4E8
100
AcDbEntity
  8
0
100
AcDbPolyline
 62
7
  6
CONTINUOUS
 90
4
 70
0
 10
151.4900114231
 20
90.8513580391
 10
151.4586419944
 20
90.8279772801
 10
151.4285033916
 20
90.8012528592
 10
151.3998783627
 20
90.7712089345
  0
LWPOLYLINE
  5
4E9
100
AcDbEntity
  8
RACCORDO
100
AcDbPolyline
 62
7
  6
CONTINUOUS
 90
10
 70
0
 10
151.5166036269
 20
90.8329323273
 10
151.4472649778
 20
90.7909663384
 10
151.3827006627
 20
90.7383969956
 10
151.3240296316
 20
90.675340131
 10
151.2721051702
 20
90.6017396929
 10
151.2281299918
 20
90.518207907
 10
151.1932581142
 20
90.4261888861
 10
151.1679758943
 20
90.3266351054
 10
151.1525343069
 20
90.2198679173
 10
151.1473053121
 20
90.1065562554
  0
LWPOLYLINE
  5
4EA
100
AcDbEntity
  8
RACCORDO
100
AcDbPolyline
 62
7
  6
CONTINUOUS
 90
8
 70
0
 10
163.7285109367
 20
122.2662493868
 10
163.685539931
 20
122.2621085016
 10
163.6434003295
 20
122.2551327798
 10
163.6024851968
 20
122.2463119918
 10
163.5630303484
 20
122.2368341076
 10
163.5250827328
 20
122.2272359332
 10
163.4886830541
 20
122.2172312789
 10
163.420619092
 20
122.1974891126
  0
LINE
  5
4EB
100
AcDbEntity
  8
RACCORDO
100
AcDbLine
 62
7
  6
CONTINUOUS
 10
166.9597047235
 20
119.398333098
 11
167.5839003205
 21
119.2680004782
  0
LINE
  5
4EC
100
AcDbEntity
  8
RACCORDO
100
AcDbLine
 62
250
  6
CONTINUOUS
 10
167.186548217
 20
119.5541542588
 11
167.8977688251
 21
119.4056507359
  0
LWPOLYLINE
  5
4ED
100
AcDbEntity
  8
RACCORDO
100
AcDbPolyline
 62
250
  6
CONTINUOUS
 90
7
 70
0
 10
165.6847898335
 20
120.8615100716
 10
165.6614982301
 20
120.871161921
 10
165.6386186907
 20
120.8769232236
 10
165.6165467011
 20
120.87869067
 10
165.5956623242
 20
120.8764293474
 10
165.576330274
 20
120.8701740096
 10
165.5717041674
 20
120.8679580467
  0
LWPOLYLINE
  5
4EE
100
AcDbEntity
  8
RACCORDO
100
AcDbPolyline
 62
250
  6
CONTINUOUS
 90
13
 70
0
 10
166.8340262573
 20
119.8946409167
 10
166.8586193171
 20
119.883857518
 10
166.885827609
 20
119.8747689722
 10
166.9151875226
 20
119.8675328472
 10
166.946201297
 20
119.8622747344
 10
166.9783350064
 20
119.8590879149
 10
167.01102666
 20
119.8580293144
 10
167.0437852947
 20
119.8591218745
 10
167.0759755176
 20
119.8623514529
 10
167.1068352122
 20
119.8676193373
 10
167.1358027459
 20
119.8747760292
 10
167.1625045502
 20
119.8836730551
 10
167.186548217
 20
119.8941281929
  0
LWPOLYLINE
  5
4EF
100
AcDbEntity
  8
RACCORDO
100
AcDbPolyline
 62
250
  6
CONTINUOUS
 90
13
 70
0
 10
166.8340262573
 20
119.5546669826
 10
166.8585556479
 20
119.5439080179
 10
166.8856796982
 20
119.5348377587
 10
166.914936571
 20
119.5276109314
 10
166.9458283607
 20
119.5223508332
 10
166.9778285148
 20
119.5191474144
 10
167.010390699
 20
119.5180555002
 10
167.0429833121
 20
119.5190952314
 10
167.0750268581
 20
119.5222504359
 10
167.1059082956
 20
119.5274536718
 10
167.1350910777
 20
119.5345974329
 10
167.1621174748
 20
119.5435516678
 10
167.186548217
 20
119.5541542588
  0
LWPOLYLINE
  5
4F0
100
AcDbEntity
  8
RACCORDO
100
AcDbPolyline
 62
250
  6
CONTINUOUS
 90
13
 70
0
 10
153.4697080929
 20
126.2368260648
 10
153.4942374835
 20
126.2260671001
 10
153.5213615338
 20
126.2169968409
 10
153.5506184066
 20
126.2097700136
 10
153.5815101963
 20
126.2045099154
 10
153.6135103504
 20
126.2013064966
 10
153.6460725346
 20
126.2002145824
 10
153.6786651477
 20
126.2012543136
 10
153.7107086937
 20
126.2044095181
 10
153.7415901312
 20
126.209612754
 10
153.7707729133
 20
126.2167565151
 10
153.7977993103
 20
126.22571075
 10
153.8222300526
 20
126.236313341
  0
LWPOLYLINE
  5
4F1
100
AcDbEntity
  8
RACCORDO
100
AcDbPolyline
 62
250
  6
CONTINUOUS
 90
13
 70
0
 10
150.9241236807
 20
127.509618271
 10
150.9486530712
 20
127.4988593062
 10
150.9757771215
 20
127.489789047
 10
151.0050339943
 20
127.4825622198
 10
151.035925784
 20
127.4773021216
 10
151.0679259381
 20
127.4740987027
 10
151.1004881223
 20
127.4730067886
 10
151.1330807354
 20
127.4740465197
 10
151.1651242814
 20
127.4772017243
 10
151.1960057189
 20
127.4824049602
 10
151.225188501
 20
127.4895487213
 10
151.2522148981
 20
127.4985029561
 10
151.2766456403
 20
127.5091055471
  0
LINE
  5
4F2
100
AcDbEntity
  8
RACCORDO
100
AcDbLine
 62
7
  6
CONTINUOUS
 10
136.9378137907
 20
133.8909672699
 11
138.2710261243
 21
133.2243611031
  0
LINE
  5
4F3
100
AcDbEntity
  8
RACCORDO
100
AcDbLine
 62
7
  6
CONTINUOUS
 10
150.3021319551
 20
127.2088081877
 11
151.6353442887
 21
126.5422020208
  0
LINE
  5
4F4
100
AcDbEntity
  8
RACCORDO
100
AcDbLine
 62
7
  6
CONTINUOUS
 10
152.8477163674
 20
125.9360159815
 11
154.180928701
 21
125.2694098147
  0
LINE
  5
4F5
100
AcDbEntity
  8
RACCORDO
100
AcDbLine
 62
7
  6
CONTINUOUS
 10
166.2120345318
 20
119.2538568993
 11
167.5452468654
 21
118.5872507325
  0
LINE
  5
4F6
100
AcDbEntity
  8
RACCORDO
100
AcDbLine
 62
7
  6
CONTINUOUS
 10
163.3056885568
 20
121.0832765115
 11
157.7943814572
 21
123.8389300613
  0
LINE
  5
4F7
100
AcDbEntity
  8
RACCORDO
100
AcDbLine
 62
7
  6
CONTINUOUS
 10
147.3957859801
 20
129.0382277999
 11
141.8844788805
 21
131.7938813497
  0
LINE
  5
4F8
100
AcDbEntity
  8
RACCORDO
100
AcDbLine
 62
7
  6
CONTINUOUS
 10
136.2997941328
 20
134.719051243
 11
137.6247788126
 21
134.0565589031
  0
LINE
  5
4F9
100
AcDbEntity
  8
RACCORDO
100
AcDbLine
 62
7
  6
CONTINUOUS
 10
149.6641122973
 20
128.0368921608
 11
150.9890969771
 21
127.3743998209
  0
LINE
  5
4FA
100
AcDbEntity
  8
RACCORDO
100
AcDbLine
 62
7
  6
CONTINUOUS
 10
152.2096967095
 20
126.7640999546
 11
153.5346813893
 21
126.1016076147
  0
LINE
  5
4FB
100
AcDbEntity
  8
RACCORDO
100
AcDbLine
 62
7
  6
CONTINUOUS
 10
165.574014874
 20
120.0819408724
 11
166.8989995538
 21
119.4194485325
  0
LINE
  5
4FC
100
AcDbEntity
  8
RACCORDO
100
AcDbLine
 62
250
  6
CONTINUOUS
 10
136.2348208364
 20
134.8542696931
 11
137.5598055162
 21
134.1917773532
  0
LINE
  5
4FD
100
AcDbEntity
  8
RACCORDO
100
AcDbLine
 62
250
  6
CONTINUOUS
 10
149.5991390008
 20
128.1721106109
 11
150.9241236807
 21
127.509618271
  0
LINE
  5
4FE
100
AcDbEntity
  8
RACCORDO
100
AcDbLine
 62
250
  6
CONTINUOUS
 10
152.1447234131
 20
126.8993184047
 11
153.4697080929
 21
126.2368260648
  0
LINE
  5
4FF
100
AcDbEntity
  8
RACCORDO
100
AcDbLine
 62
250
  6
CONTINUOUS
 10
165.5090415775
 20
120.2171593225
 11
166.8340262573
 21
119.5546669826
  0
LINE
  5
500
100
AcDbEntity
  8
RACCORDO
100
AcDbLine
 62
250
  6
CONTINUOUS
 10
166.8340262573
 20
119.8946409167
 11
165.5090415775
 21
120.5571332566
  0
LINE
  5
501
100
AcDbEntity
  8
RACCORDO
100
AcDbLine
 62
250
  6
CONTINUOUS
 10
153.4697080929
 20
126.5767999989
 11
152.1447234131
 21
127.2392923389
  0
LINE
  5
502
100
AcDbEntity
  8
RACCORDO
100
AcDbLine
 62
250
  6
CONTINUOUS
 10
150.9241236807
 20
127.8495922051
 11
149.5991390008
 21
128.512084545
  0
LINE
  5
503
100
AcDbEntity
  8
RACCORDO
100
AcDbLine
 62
250
  6
CONTINUOUS
 10
137.5598055162
 20
134.5317512873
 11
136.2348208364
 21
135.1942436272
  0
LINE
  5
504
100
AcDbEntity
  8
DRAFT
100
AcDbLine
 62
7
  6
CONTINUOUS
 10
165.5229964852
 20
120.8345329393
 11
164.4687626843
 21
121.3616498397
  0
LINE
  5
505
100
AcDbEntity
  8
DRAFT
100
AcDbLine
 62
7
  6
CONTINUOUS
 10
157.6479348478
 20
124.772063758
 11
155.525036386
 21
125.8335129889
  0
LINE
  5
506
100
AcDbEntity
  8
DRAFT
100
AcDbLine
 62
7
  6
CONTINUOUS
 10
149.6130939085
 20
128.7894842276
 11
148.5588601076
 21
129.3166011281
  0
LINE
  5
507
100
AcDbEntity
  8
DRAFT
100
AcDbLine
 62
7
  6
CONTINUOUS
 10
141.7380322711
 20
132.7270150464
 11
139.6151338093
 21
133.7884642772
  0
LINE
  5
508
100
AcDbEntity
  8
RACCORDO
100
AcDbLine
 62
250
  6
CONTINUOUS
 10
167.0097745133
 20
120.1990177317
 11
165.6847898335
 21
120.8615100716
  0
LINE
  5
509
100
AcDbEntity
  8
RACCORDO
100
AcDbLine
 62
250
  6
CONTINUOUS
 10
153.6454563489
 20
126.8811768139
 11
152.3204716691
 21
127.5436691538
  0
LINE
  5
50A
100
AcDbEntity
  8
RACCORDO
100
AcDbLine
 62
250
  6
CONTINUOUS
 10
151.0998719366
 20
128.15396902
 11
149.7748872568
 21
128.81646136
  0
LINE
  5
50B
100
AcDbEntity
  8
RACCORDO
100
AcDbLine
 62
250
  6
CONTINUOUS
 10
137.7355537722
 20
134.8361281023
 11
136.4105690924
 21
135.4986204422
  0
LINE
  5
50C
100
AcDbEntity
  8
RACCORDO
100
AcDbLine
 62
250
  6
CONTINUOUS
 10
163.3056885568
 20
122.1638598223
 11
157.7943814572
 21
124.9195133721
  0
LINE
  5
50D
100
AcDbEntity
  8
RACCORDO
100
AcDbLine
 62
250
  6
CONTINUOUS
 10
147.3957859801
 20
130.1188111107
 11
141.8844788805
 21
132.8744646605
  0
LWPOLYLINE
  5
50E
100
AcDbEntity
  8
RACCORDO
100
AcDbPolyline
 62
250
  6
CONTINUOUS
 90
7
 70
0
 10
136.2348208364
 20
134.8542696931
 10
136.213302907
 20
134.8665343884
 10
136.1951623885
 20
134.8800964135
 10
136.1807087341
 20
134.8947248499
 10
136.1701885377
 20
134.9101707448
 10
136.1637817
 20
134.9261708218
 10
136.1615975317
 20
134.9426580407
  0
LWPOLYLINE
  5
50F
100
AcDbEntity
  8
RACCORDO
100
AcDbPolyline
 62
250
  6
CONTINUOUS
 90
7
 70
0
 10
149.5991390008
 20
128.1721106109
 10
149.5776210714
 20
128.1843753062
 10
149.559480553
 20
128.1979373313
 10
149.5450268985
 20
128.2125657677
 10
149.5345067021
 20
128.2280116625
 10
149.5280998644
 20
128.2440117396
 10
149.5259156961
 20
128.2604989585
  0
LWPOLYLINE
  5
510
100
AcDbEntity
  8
RACCORDO
100
AcDbPolyline
 62
250
  6
CONTINUOUS
 90
7
 70
0
 10
152.1447234131
 20
126.8993184047
 10
152.1232054836
 20
126.9115831
 10
152.1050649652
 20
126.9251451251
 10
152.0906113108
 20
126.9397735616
 10
152.0800911144
 20
126.9552194564
 10
152.0736842767
 20
126.9712195335
 10
152.0715001084
 20
126.9877067524
  0
LWPOLYLINE
  5
511
100
AcDbEntity
  8
RACCORDO
100
AcDbPolyline
 62
250
  6
CONTINUOUS
 90
7
 70
0
 10
149.5991390008
 20
128.512084545
 10
149.5776511683
 20
128.5243296444
 10
149.5595306504
 20
128.5378679568
 10
149.5450852049
 20
128.5524695482
 10
149.5345601726
 20
128.567886426
 10
149.52813431
 20
128.5838567506
 10
149.5259156961
 20
128.6004728926
  0
LWPOLYLINE
  5
512
100
AcDbEntity
  8
RACCORDO
100
AcDbPolyline
 62
250
  6
CONTINUOUS
 90
7
 70
0
 10
165.5090415775
 20
120.2171593225
 10
165.4875236481
 20
120.2294240178
 10
165.4693831297
 20
120.2429860429
 10
165.4549294752
 20
120.2576144794
 10
165.4444092788
 20
120.2730603742
 10
165.4380024411
 20
120.2890604513
 10
165.4358182728
 20
120.3055476702
  0
LWPOLYLINE
  5
513
100
AcDbEntity
  8
RACCORDO
100
AcDbPolyline
 62
250
  6
CONTINUOUS
 90
7
 70
0
 10
165.5090415775
 20
120.5571332566
 10
165.487553745
 20
120.569378356
 10
165.4694332271
 20
120.5829166684
 10
165.4549877816
 20
120.5975182599
 10
165.4444627493
 20
120.6129351376
 10
165.4380368867
 20
120.6289054622
 10
165.4358182728
 20
120.6455216043
  0
LWPOLYLINE
  5
514
100
AcDbEntity
  8
RACCORDO
100
AcDbPolyline
 62
250
  6
CONTINUOUS
 90
7
 70
0
 10
136.2348208364
 20
135.1942436272
 10
136.213254039
 20
135.2065401571
 10
136.1950769473
 20
135.220144303
 10
136.1806046973
 20
135.2348242598
 10
136.1700884716
 20
135.250331147
 10
136.1637148327
 20
135.2663980017
 10
136.1615975317
 20
135.2826319749
  0
LWPOLYLINE
  5
515
100
AcDbEntity
  8
RACCORDO
100
AcDbPolyline
 62
250
  6
CONTINUOUS
 90
7
 70
0
 10
152.1447234131
 20
127.2392923389
 10
152.1231566157
 20
127.2515888687
 10
152.104979524
 20
127.2651930147
 10
152.090507274
 20
127.2798729715
 10
152.0799910483
 20
127.2953798587
 10
152.0736174094
 20
127.3114467134
 10
152.0715001084
 20
127.3276806865
  0
LINE
  5
516
100
AcDbEntity
  8
RACCORDO
100
AcDbLine
 62
250
  6
CONTINUOUS
 10
139.8877939298
 20
135.8892929736
 11
139.8651017348
 21
135.9022889258
  0
LWPOLYLINE
  5
517
100
AcDbEntity
  8
0
100
AcDbPolyline
 62
250
  6
CONTINUOUS
 90
3
 70
0
 10
150.0016979916
 20
132.568456936
 10
150.0342307559
 20
132.5450185974
 10
150.0630156032
 20
132.5206698333
  0
LINE
  5
518
100
AcDbEntity
  8
RACCORDO
100
AcDbLine
 62
7
  6
CONTINUOUS
 10
174.1560576148
 20
122.0730754532
 11
174.1560576148
 21
122.3589507071
  0
LINE
  5
519
100
AcDbEntity
  8
RACCORDO
100
AcDbLine
 62
250
  6
CONTINUOUS
 10
174.4042019385
 20
122.9950181678
 11
174.4042019385
 21
122.4901305217
  0
LINE
  5
51A
100
AcDbEntity
  8
RACCORDO
100
AcDbLine
 62
250
  6
CONTINUOUS
 10
174.4042019385
 20
86.06068487
 11
174.4042019385
 21
85.6416530026
  0
LINE
  5
51B
100
AcDbEntity
  8
RACCORDO
100
AcDbLine
 62
7
  6
CONTINUOUS
 10
174.5445320384
 20
123.1686827604
 11
174.5445320384
 21
122.666401211
  0
LINE
  5
51C
100
AcDbEntity
  8
RACCORDO
100
AcDbLine
 62
7
  6
CONTINUOUS
 10
174.5445320384
 20
86.1659199548
 11
174.5445320384
 21
85.6885570611
  0
LWPOLYLINE
  5
51D
100
AcDbEntity
  8
0
100
AcDbPolyline
 62
7
  6
CONTINUOUS
 90
39
 70
0
 10
176.1969461367
 20
131.2325272666
 10
176.1967480025
 20
131.2271404949
 10
176.1905052809
 20
131.1781780571
 10
176.1762675945
 20
131.1288383035
 10
176.1538729517
 20
131.0785488096
 10
176.1225476404
 20
131.0264446205
 10
176.0816391499
 20
130.972624442
 10
176.0315617892
 20
130.9184130889
 10
175.9731675884
 20
130.8650140241
 10
175.9075073594
 20
130.8133142619
 10
175.8349507458
 20
130.7634701
 10
175.7551344934
 20
130.7152651572
 10
175.6684342214
 20
130.6690320468
 10
175.5753827764
 20
130.6251180576
 10
175.4751602767
 20
130.5832885025
 10
175.3674662827
 20
130.5436921655
 10
175.2531782546
 20
130.5068870909
 10
175.1329856752
 20
130.4732633408
 10
175.0073358204
 20
130.4430914342
 10
174.8767401892
 20
130.4166142346
 10
174.7420294403
 20
130.3940958035
 10
174.6037873448
 20
130.3757152074
 10
174.4626176148
 20
130.3616173928
 10
174.3194120187
 20
130.3519364484
 10
174.1748109841
 20
130.346751206
 10
174.0294865672
 20
130.3461071451
 10
173.8843893406
 20
130.3500130333
 10
173.7401920288
 20
130.3584402257
 10
173.5975458986
 20
130.3713281805
 10
173.4573599727
 20
130.3885604437
 10
173.3202546609
 20
130.4100029237
 10
173.186834902
 20
130.4354997268
 10
173.0579395194
 20
130.464804677
 10
172.9340870709
 20
130.497693289
 10
172.8157826495
 20
130.5339124297
 10
172.7037853247
 20
130.5730793932
 10
172.5985860562
 20
130.6148276608
 10
172.5004017656
 20
130.6588580463
 10
172.4628623993
 20
130.6771778386
  0
LWPOLYLINE
  5
51E
100
AcDbEntity
  8
RACCORDO
100
AcDbPolyline
 62
250
  6
CONTINUOUS
 90
7
 70
0
 10
169.3882938916
 20
79.0533598531
 10
169.3863616847
 20
79.0379828512
 10
169.3801756697
 20
79.0218982911
 10
169.3698406373
 20
79.0063612293
 10
169.3555396295
 20
78.9916390953
 10
169.3375207358
 20
78.9779816915
 10
169.3160961796
 20
78.9656218435
  0
LWPOLYLINE
  5
51F
100
AcDbEntity
  8
RACCORDO
100
AcDbPolyline
 62
250
  6
CONTINUOUS
 90
7
 70
0
 10
169.3882940366
 20
79.4010259925
 10
169.3862645659
 20
79.3851308944
 10
169.3800246343
 20
79.369142148
 10
169.3696791626
 20
79.3536949153
 10
169.3554038578
 20
79.3390515511
 10
169.337441171
 20
79.3254607577
 10
169.3160961796
 20
79.3131533603
  0
LWPOLYLINE
  5
520
100
AcDbEntity
  8
0
100
AcDbPolyline
 62
7
  6
CONTINUOUS
 90
4
 70
0
 10
156.3529579872
 20
88.4090029306
 10
156.3055847932
 20
88.3655260793
 10
156.2626302939
 20
88.3149698357
 10
156.2356590684
 20
88.2743588183
  0
LWPOLYLINE
  5
521
100
AcDbEntity
  8
RACCORDO
100
AcDbPolyline
 62
250
  6
CONTINUOUS
 90
3
 70
0
 10
152.6056269392
 20
88.6548857026
 10
152.674385989
 20
88.6961199803
 10
152.7486479062
 20
88.7626884807
  0
LWPOLYLINE
  5
522
100
AcDbEntity
  8
0
100
AcDbPolyline
 62
7
  6
CONTINUOUS
 90
13
 70
0
 10
152.6924740662
 20
88.6620459206
 10
152.7346128531
 20
88.6860238406
 10
152.7792405515
 20
88.7186456272
 10
152.8206101348
 20
88.7571850419
 10
152.8586447779
 20
88.8018532603
 10
152.8927654416
 20
88.8522816528
 10
152.9225880816
 20
88.9080516142
 10
152.9479324348
 20
88.9689644372
 10
152.9685686185
 20
89.0346342601
 10
152.9842450818
 20
89.1041336883
 10
152.9949313642
 20
89.1767921515
 10
153.0006861173
 20
89.2523206976
 10
153.0015534455
 20
89.3302446197
  0
LWPOLYLINE
  5
523
100
AcDbEntity
  8
0
100
AcDbPolyline
 62
7
  6
CONTINUOUS
 90
3
 70
0
 10
151.542168915
 20
90.8819783169
 10
151.5225535025
 20
90.8715574833
 10
151.4900114231
 20
90.8513580391
  0
LINE
  5
524
100
AcDbEntity
  8
DRAFT
100
AcDbLine
 62
7
  6
CONTINUOUS
 10
151.7013015932
 20
90.9278440481
 11
151.5166036269
 21
90.8329323273
  0
LWPOLYLINE
  5
525
100
AcDbEntity
  8
ASSI
100
AcDbPolyline
 62
7
  6
CONTINUOUS
 90
3
 70
0
 10
169.0862492914
 20
125.4698467102
 10
169.1125409926
 20
125.4762671322
 10
169.1407767154
 20
125.4792569225
  0
LWPOLYLINE
  5
526
100
AcDbEntity
  8
ASSI
100
AcDbPolyline
 62
7
  6
CONTINUOUS
 90
4
 70
0
 10
169.7579449808
 20
125.1857561037
 10
169.7386957926
 20
125.1811464512
 10
169.7170756117
 20
125.1751270432
 10
169.6932456956
 20
125.1677896258
  0
LINE
  5
527
100
AcDbEntity
  8
RACCORDO
100
AcDbLine
 62
7
  6
CONTINUOUS
 10
153.5953865591
 20
126.0804921802
 11
154.2195821561
 21
125.9501595604
  0
LINE
  5
528
100
AcDbEntity
  8
RACCORDO
100
AcDbLine
 62
250
  6
CONTINUOUS
 10
153.8222300526
 20
126.236313341
 11
154.5334506607
 21
126.0878098181
  0
LINE
  5
529
100
AcDbEntity
  8
RACCORDO
100
AcDbLine
 62
7
  6
CONTINUOUS
 10
151.0498021468
 20
127.3532843863
 11
151.6739977438
 21
127.2229517665
  0
LWPOLYLINE
  5
52A
100
AcDbEntity
  8
0
100
AcDbPolyline
 62
7
  6
CONTINUOUS
 90
4
 70
0
 10
164.9453861238
 20
124.5806503742
 10
164.9567615197
 20
124.5769874684
 10
164.9686131338
 20
124.5715271891
 10
164.9807933058
 20
124.5643304844
  0
LWPOLYLINE
  5
52B
100
AcDbEntity
  8
RACCORDO
100
AcDbPolyline
 62
250
  6
CONTINUOUS
 90
7
 70
0
 10
149.7748872568
 20
128.81646136
 10
149.7515956534
 20
128.8261132093
 10
149.728716114
 20
128.8318745119
 10
149.7066441244
 20
128.8336419583
 10
149.6857597475
 20
128.8313806358
 10
149.6664276973
 20
128.825125298
 10
149.6618015907
 20
128.8229093351
  0
LWPOLYLINE
  5
52C
100
AcDbEntity
  8
RACCORDO
100
AcDbPolyline
 62
250
  6
CONTINUOUS
 90
7
 70
0
 10
152.3204716691
 20
127.5436691538
 10
152.2972731322
 20
127.5532899022
 10
152.2744891077
 20
127.5590505806
 10
152.2525094199
 20
127.5608526262
 10
152.2317101311
 20
127.558665207
 10
152.2124471076
 20
127.5525257486
 10
152.2073860029
 20
127.550117129
  0
LWPOLYLINE
  5
52D
100
AcDbEntity
  8
RACCORDO
100
AcDbPolyline
 62
7
  6
CONTINUOUS
 90
7
 70
0
 10
167.2675464367
 20
121.6734941689
 10
167.2443479136
 20
121.6831149244
 10
167.2215639012
 20
121.6888756089
 10
167.1995842238
 20
121.6906776599
 10
167.1787849447
 20
121.6884902457
 10
167.1595219292
 20
121.6823507914
 10
167.1561985769
 20
121.6808110929
  0
LWPOLYLINE
  5
52E
100
AcDbEntity
  8
RACCORDO
100
AcDbPolyline
 62
250
  6
CONTINUOUS
 90
7
 70
0
 10
136.4105690924
 20
135.4986204422
 10
136.3873705555
 20
135.5082411906
 10
136.364586531
 20
135.5140018689
 10
136.3426068432
 20
135.5158039145
 10
136.3218075544
 20
135.5136164953
 10
136.3025445309
 20
135.507477037
 10
136.2974834262
 20
135.5050684173
  0
LWPOLYLINE
  5
52F
100
AcDbEntity
  8
RACCORDO
100
AcDbPolyline
 62
7
  6
CONTINUOUS
 90
7
 70
0
 10
153.9032282722
 20
128.3556532512
 10
153.8800297492
 20
128.3652740066
 10
153.8572457368
 20
128.3710346911
 10
153.8352660594
 20
128.3728367421
 10
153.8144667803
 20
128.3706493279
 10
153.7952037648
 20
128.3645098737
 10
153.7918804125
 20
128.3629701751
  0
LWPOLYLINE
  5
530
100
AcDbEntity
  8
RACCORDO
100
AcDbPolyline
 62
7
  6
CONTINUOUS
 90
7
 70
0
 10
151.35764386
 20
129.6284454573
 10
151.3344453369
 20
129.6380662127
 10
151.3116613245
 20
129.6438268973
 10
151.2896816471
 20
129.6456289482
 10
151.268882368
 20
129.643441534
 10
151.2496193525
 20
129.6373020798
 10
151.2462960002
 20
129.6357623812
  0
LWPOLYLINE
  5
531
100
AcDbEntity
  8
RACCORDO
100
AcDbPolyline
 62
250
  6
CONTINUOUS
 90
5
 70
0
 10
167.8019963153
 20
121.9338416355
 10
167.779048644
 20
121.9435878167
 10
167.7564760007
 20
121.9494541856
 10
167.7346645929
 20
121.9513403712
 10
167.7139876039
 20
121.9492141019
  0
LWPOLYLINE
  5
532
100
AcDbEntity
  8
RACCORDO
100
AcDbPolyline
 62
250
  6
CONTINUOUS
 90
5
 70
0
 10
151.8920937386
 20
129.8887929239
 10
151.8691460673
 20
129.8985391051
 10
151.846573424
 20
129.9044054739
 10
151.8247620162
 20
129.9062916596
 10
151.8040850272
 20
129.9041653903
  0
LWPOLYLINE
  5
533
100
AcDbEntity
  8
RACCORDO
100
AcDbPolyline
 62
250
  6
CONTINUOUS
 90
7
 70
0
 10
154.4376781509
 20
128.6160007177
 10
154.4152317228
 20
128.6255740772
 10
154.392983462
 20
128.6314664081
 10
154.3713138642
 20
128.6335007807
 10
154.3505607174
 20
128.6315529015
 10
154.3311571323
 20
128.6255651272
 10
154.3271660398
 20
128.6237355088
  0
LWPOLYLINE
  5
534
100
AcDbEntity
  8
RACCORDO
100
AcDbPolyline
 62
250
  6
CONTINUOUS
 90
13
 70
0
 10
150.9241236807
 20
127.8495922051
 10
150.9487167404
 20
127.8388088064
 10
150.9759250323
 20
127.8297202605
 10
151.0052849459
 20
127.8224841355
 10
151.0362987203
 20
127.8172260227
 10
151.0684324297
 20
127.8140392032
 10
151.1011240833
 20
127.8129806028
 10
151.133882718
 20
127.8140731628
 10
151.1660729409
 20
127.8173027412
 10
151.1969326355
 20
127.8225706256
 10
151.2259001692
 20
127.8297273176
 10
151.2526019735
 20
127.8386243434
 10
151.2766456403
 20
127.8490794812
  0
LWPOLYLINE
  5
535
100
AcDbEntity
  8
RACCORDO
100
AcDbPolyline
 62
250
  6
CONTINUOUS
 90
13
 70
0
 10
137.5598055162
 20
134.1917773532
 10
137.5843349068
 20
134.1810183884
 10
137.6114589571
 20
134.1719481292
 10
137.6407158299
 20
134.164721302
 10
137.6716076196
 20
134.1594612038
 10
137.7036077737
 20
134.156257785
 10
137.7361699579
 20
134.1551658708
 10
137.768762571
 20
134.1562056019
 10
137.800806117
 20
134.1593608065
 10
137.8316875545
 20
134.1645640424
 10
137.8608703366
 20
134.1717078035
 10
137.8878967336
 20
134.1806620383
 10
137.9123274759
 20
134.1912646293
  0
LWPOLYLINE
  5
536
100
AcDbEntity
  8
RACCORDO
100
AcDbPolyline
 62
250
  6
CONTINUOUS
 90
13
 70
0
 10
153.4697080929
 20
126.5767999989
 10
153.4936306911
 20
126.5662747164
 10
153.5202292112
 20
126.5573000603
 10
153.5491132237
 20
126.550059312
 10
153.5799106112
 20
126.5447019584
 10
153.6120616052
 20
126.5413789725
 10
153.6448058199
 20
126.5401911656
 10
153.6775080372
 20
126.5411545226
 10
153.7096771575
 20
126.54424753
 10
153.7407512811
 20
126.5494150462
 10
153.7701955491
 20
126.5565655501
 10
153.7975103567
 20
126.565574997
 10
153.8222300526
 20
126.5762872751
  0
LWPOLYLINE
  5
537
100
AcDbEntity
  8
RACCORDO
100
AcDbPolyline
 62
250
  6
CONTINUOUS
 90
13
 70
0
 10
137.5598055162
 20
134.5317512873
 10
137.5837281144
 20
134.5212260047
 10
137.6103266345
 20
134.5122513487
 10
137.639210647
 20
134.5050106003
 10
137.6700080345
 20
134.4996532468
 10
137.7021590285
 20
134.4963302608
 10
137.7349032432
 20
134.4951424539
 10
137.7676054605
 20
134.4961058109
 10
137.7997745808
 20
134.4991988184
 10
137.8308487044
 20
134.5043663346
 10
137.8602929724
 20
134.5115168385
 10
137.88760778
 20
134.5205262853
 10
137.9123274759
 20
134.5312385634
  0
LWPOLYLINE
  5
538
100
AcDbEntity
  8
RACCORDO
100
AcDbPolyline
 62
250
  6
CONTINUOUS
 90
7
 70
0
 10
169.2499129382
 20
121.2718604415
 10
169.2457102555
 20
121.2738221755
 10
169.2263855656
 20
121.2799168262
 10
169.2056878339
 20
121.2820137723
 10
169.1840473751
 20
121.2801673403
 10
169.1617994471
 20
121.2744982384
 10
169.1393224759
 20
121.2651785552
  0
LWPOLYLINE
  5
539
100
AcDbEntity
  8
RACCORDO
100
AcDbPolyline
 62
250
  6
CONTINUOUS
 90
7
 70
0
 10
153.3400103616
 20
129.2268117299
 10
153.3358076788
 20
129.2287734639
 10
153.3164829889
 20
129.2348681146
 10
153.2957852572
 20
129.2369650607
 10
153.2741447984
 20
129.2351186286
 10
153.2518968704
 20
129.2294495268
 10
153.2294198992
 20
129.2201298436
  0
LWPOLYLINE
  5
53A
100
AcDbEntity
  8
RACCORDO
100
AcDbPolyline
 62
250
  6
CONTINUOUS
 90
7
 70
0
 10
167.9127712749
 20
121.9404315266
 10
167.9083840949
 20
121.9424852558
 10
167.8890594051
 20
121.9485799065
 10
167.8683616733
 20
121.9506768526
 10
167.8467212145
 20
121.9488304206
 10
167.8244732866
 20
121.9431613187
 10
167.8019963153
 20
121.9338416355
  0
LWPOLYLINE
  5
53B
100
AcDbEntity
  8
RACCORDO
100
AcDbPolyline
 62
250
  6
CONTINUOUS
 90
7
 70
0
 10
152.0028686982
 20
129.895382815
 10
151.9984815182
 20
129.8974365441
 10
151.9791568284
 20
129.9035311948
 10
151.9584590967
 20
129.905628141
 10
151.9368186378
 20
129.9037817089
 10
151.9145707099
 20
129.898112607
 10
151.8920937386
 20
129.8887929239
  0
LWPOLYLINE
  5
53C
100
AcDbEntity
  8
RACCORDO
100
AcDbPolyline
 62
250
  6
CONTINUOUS
 90
7
 70
0
 10
155.885779271
 20
127.9539275286
 10
155.8820660387
 20
127.955683571
 10
155.8629573266
 20
127.9618901878
 10
155.842337358
 20
127.9641638409
 10
155.8205563414
 20
127.9624659147
 10
155.7979842046
 20
127.9568252466
 10
155.7750043115
 20
127.9473376374
  0
LINE
  5
53D
100
AcDbEntity
  8
RACCORDO
100
AcDbLine
 62
250
  6
CONTINUOUS
 10
154.5484531105
 20
128.6225906088
 11
154.5447398782
 21
128.6243466513
  0
LWPOLYLINE
  5
53E
100
AcDbEntity
  8
RACCORDO
100
AcDbPolyline
 62
250
  6
CONTINUOUS
 90
7
 70
0
 10
139.9758766943
 20
135.9088788169
 10
139.972163462
 20
135.9106348594
 10
139.9530547499
 20
135.9168414762
 10
139.9324347813
 20
135.9191151293
 10
139.9106537647
 20
135.917417203
 10
139.8880816279
 20
135.9117765349
 10
139.8651017348
 20
135.9022889258
  0
LINE
  5
53F
100
AcDbEntity
  8
RACCORDO
100
AcDbLine
 62
250
  6
CONTINUOUS
 10
138.6385505338
 20
136.5775418972
 11
138.6348373015
 21
136.5792979396
  0
LWPOLYLINE
  5
540
100
AcDbEntity
  8
0
100
AcDbPolyline
 62
7
  6
CONTINUOUS
 90
7
 70
0
 10
149.9615714056
 20
132.0735405629
 10
149.9626424562
 20
132.0730164363
 10
149.9637302833
 20
132.0725060846
 10
149.9648348869
 20
132.0720095077
 10
149.9659562671
 20
132.0715267057
 10
149.9670944238
 20
132.0710576785
 10
149.9682493571
 20
132.0706024261
  0
LINE
  5
541
100
AcDbEntity
  8
RACCORDO
100
AcDbLine
 62
250
  6
CONTINUOUS
 10
169.2500974354
 20
121.2717684463
 11
169.2499129382
 21
121.2718604415
  0
LINE
  5
542
100
AcDbEntity
  8
RACCORDO
100
AcDbLine
 62
250
  6
CONTINUOUS
 10
153.3401948587
 20
129.2267197347
 11
153.3400103616
 21
129.2268117299
  0
LINE
  5
543
100
AcDbEntity
  8
RACCORDO
100
AcDbLine
 62
250
  6
CONTINUOUS
 10
163.7285109367
 20
122.2662493868
 11
157.6527562869
 21
125.3041267116
  0
LINE
  5
544
100
AcDbEntity
  8
RACCORDO
100
AcDbLine
 62
250
  6
CONTINUOUS
 10
147.81860836
 20
130.2212006751
 11
141.7428537102
 21
133.259078
  0
LINE
  5
545
100
AcDbEntity
  8
RACCORDO
100
AcDbLine
 62
7
  6
CONTINUOUS
 10
139.5136082667
 20
134.4389166872
 11
140.9278218291
 21
133.731809906
  0
LINE
  5
546
100
AcDbEntity
  8
DRAFT
100
AcDbLine
 62
7
  6
CONTINUOUS
 10
155.4235108434
 20
126.4839653988
 11
156.8377244058
 21
125.7768586176
  0
LINE
  5
547
100
AcDbEntity
  8
0
100
AcDbLine
 62
7
  6
CONTINUOUS
 10
155.4235108434
 20
126.4839653988
 11
155.6823170801
 21
126.3545622805
  0
LINE
  5
548
100
AcDbEntity
  8
RACCORDO
100
AcDbLine
 62
7
  6
CONTINUOUS
 10
168.7878290078
 20
119.8018063166
 11
169.4948280789
 21
119.4483067811
  0
LINE
  5
549
100
AcDbEntity
  8
DRAFT
100
AcDbLine
 62
7
  6
CONTINUOUS
 10
142.2359693743
 20
133.5830649175
 11
148.4585090487
 21
130.4717950803
  0
LINE
  5
54A
100
AcDbEntity
  8
DRAFT
100
AcDbLine
 62
7
  6
CONTINUOUS
 10
158.145871951
 20
125.6281136291
 11
164.3684116254
 21
122.5168437919
  0
LINE
  5
54B
100
AcDbEntity
  8
0
100
AcDbLine
 62
7
  6
CONTINUOUS
 10
156.1659729636
 20
127.0310749649
 11
155.9126342197
 21
127.1577443369
  0
LINE
  5
54C
100
AcDbEntity
  8
RACCORDO
100
AcDbLine
 62
7
  6
CONTINUOUS
 10
137.9933256955
 20
136.3106045395
 11
139.336834563
 21
135.6388501058
  0
LINE
  5
54D
100
AcDbEntity
  8
RACCORDO
100
AcDbLine
 62
7
  6
CONTINUOUS
 10
151.35764386
 20
129.6284454573
 11
152.7011527275
 21
128.9566910235
  0
LINE
  5
54E
100
AcDbEntity
  8
RACCORDO
100
AcDbLine
 62
7
  6
CONTINUOUS
 10
153.9032282722
 20
128.3556532512
 11
155.2467371397
 21
127.6838988174
  0
LINE
  5
54F
100
AcDbEntity
  8
RACCORDO
100
AcDbLine
 62
7
  6
CONTINUOUS
 10
167.2675464367
 20
121.6734941689
 11
168.6110553041
 21
121.0017397352
  0
LINE
  5
550
100
AcDbEntity
  8
DRAFT
100
AcDbLine
 62
7
  6
CONTINUOUS
 10
164.4391223035
 20
123.1835568456
 11
159.4893748352
 21
125.6584305798
  0
LINE
  5
551
100
AcDbEntity
  8
DRAFT
100
AcDbLine
 62
7
  6
CONTINUOUS
 10
148.5292197268
 20
131.138508134
 11
143.5794722585
 21
133.6133818681
  0
LINE
  5
552
100
AcDbEntity
  8
RACCORDO
100
AcDbLine
 62
250
  6
CONTINUOUS
 10
138.5277755742
 20
136.5709520061
 11
139.8651017348
 21
135.9022889258
  0
LINE
  5
553
100
AcDbEntity
  8
RACCORDO
100
AcDbLine
 62
250
  6
CONTINUOUS
 10
151.8920937386
 20
129.8887929239
 11
153.2294198992
 21
129.2201298436
  0
LINE
  5
554
100
AcDbEntity
  8
RACCORDO
100
AcDbLine
 62
250
  6
CONTINUOUS
 10
154.4376781509
 20
128.6160007177
 11
155.7750043115
 21
127.9473376374
  0
LINE
  5
555
100
AcDbEntity
  8
RACCORDO
100
AcDbLine
 62
250
  6
CONTINUOUS
 10
167.8019963153
 20
121.9338416355
 11
169.1393224759
 21
121.2651785552
  0
LINE
  5
556
100
AcDbEntity
  8
RACCORDO
100
AcDbLine
 62
7
  6
CONTINUOUS
 10
138.6385505338
 20
136.5775418972
 11
139.9758766943
 21
135.9088788169
  0
LINE
  5
557
100
AcDbEntity
  8
RACCORDO
100
AcDbLine
 62
7
  6
CONTINUOUS
 10
152.0028686982
 20
129.895382815
 11
153.3401948587
 21
129.2267197347
  0
LINE
  5
558
100
AcDbEntity
  8
RACCORDO
100
AcDbLine
 62
7
  6
CONTINUOUS
 10
154.5484531105
 20
128.6225906088
 11
155.885779271
 21
127.9539275286
  0
LINE
  5
559
100
AcDbEntity
  8
RACCORDO
100
AcDbLine
 62
7
  6
CONTINUOUS
 10
167.9127712749
 20
121.9404315266
 11
169.2500974354
 21
121.2717684463
  0
LINE
  5
55A
100
AcDbEntity
  8
0
100
AcDbLine
 62
7
  6
CONTINUOUS
 10
149.9615716219
 20
132.0735404547
 11
147.3090000524
 21
133.3998262395
  0
LINE
  5
55B
100
AcDbEntity
  8
0
100
AcDbLine
 62
7
  6
CONTINUOUS
 10
164.986669582
 20
124.5609914747
 11
166.1021804552
 21
124.0032360381
  0
LINE
  5
55C
100
AcDbEntity
  8
ASSI
100
AcDbLine
 62
7
  6
CONTINUOUS
 10
164.5513322845
 20
124.8477653975
 11
165.0150352499
 21
124.6159139147
  0
LWPOLYLINE
  5
55D
100
AcDbEntity
  8
0
100
AcDbPolyline
 62
250
  6
CONTINUOUS
 90
3
 70
0
 10
149.925422396
 20
132.6127674068
 10
149.9654285383
 20
132.5910398725
 10
150.0016979916
 20
132.568456936
  0
LINE
  5
55E
100
AcDbEntity
  8
RACCORDO
100
AcDbLine
 62
250
  6
CONTINUOUS
 10
155.7976965065
 20
127.9343416853
 11
155.7750043115
 21
127.9473376374
  0
LINE
  5
55F
100
AcDbEntity
  8
RACCORDO
100
AcDbLine
 62
250
  6
CONTINUOUS
 10
153.2526184361
 20
129.2068029207
 11
153.2294198992
 21
129.2201298436
  0
LINE
  5
560
100
AcDbEntity
  8
RACCORDO
100
AcDbLine
 62
250
  6
CONTINUOUS
 10
169.1625210128
 20
121.2518516323
 11
169.1393224759
 21
121.2651785552
  0
LINE
  5
561
100
AcDbEntity
  8
ASSI
100
AcDbLine
 62
7
  6
CONTINUOUS
 10
164.940079695
 20
124.5898548076
 11
164.8775675764
 21
124.6287914291
  0
LWPOLYLINE
  5
562
100
AcDbEntity
  8
0
100
AcDbPolyline
 62
7
  6
CONTINUOUS
 90
7
 70
0
 10
147.3031247039
 20
133.4031646479
 10
147.3040566184
 20
133.4025750493
 10
147.3050074591
 20
133.4019987286
 10
147.3059772258
 20
133.4014356858
 10
147.3069659186
 20
133.4008859208
 10
147.3079735375
 20
133.4003494337
 10
147.3090000824
 20
133.3998262245
  0
LWPOLYLINE
  5
563
100
AcDbEntity
  8
0
100
AcDbPolyline
 62
7
  6
CONTINUOUS
 90
7
 70
0
 10
164.9807933058
 20
124.5643304844
 10
164.9817037305
 20
124.5637530569
 10
164.982641739
 20
124.5631839987
 10
164.9836073315
 20
124.5626233099
 10
164.9846005078
 20
124.5620709905
 10
164.985621268
 20
124.5615270404
 10
164.9866696121
 20
124.5609914596
  0
LINE
  5
564
100
AcDbEntity
  8
ASSI
100
AcDbLine
 62
7
  6
CONTINUOUS
 10
164.8775675764
 20
124.6287914291
 11
164.5513322845
 21
124.8477653975
  0
LWPOLYLINE
  5
565
100
AcDbEntity
  8
RACCORDO
100
AcDbPolyline
 62
250
  6
CONTINUOUS
 90
6
 70
0
 10
169.2647442141
 20
121.1394788955
 10
169.2473470374
 20
121.1668376421
 10
169.2280840139
 20
121.1921658969
 10
169.2072847251
 20
121.2150303052
 10
169.1853050373
 20
121.2350396673
 10
169.1625210128
 20
121.2518516323
  0
LWPOLYLINE
  5
566
100
AcDbEntity
  8
RACCORDO
100
AcDbPolyline
 62
250
  6
CONTINUOUS
 90
7
 70
0
 10
169.3160961796
 20
120.6127574997
 10
169.3259700507
 20
120.5949892329
 10
169.3327007252
 20
120.5789635566
 10
169.3361534221
 20
120.5649635965
 10
169.3362466675
 20
120.5532333597
 10
169.3329531058
 20
120.5439996663
 10
169.331456752
 20
120.5419223331
  0
LWPOLYLINE
  5
567
100
AcDbEntity
  8
0
100
AcDbPolyline
 62
250
  6
CONTINUOUS
 90
23
 70
0
 10
176.196950612
 20
131.2325302365
 10
176.1960328909
 20
131.2851937094
 10
176.1896850519
 20
131.3385445974
 10
176.1784473154
 20
131.3896823037
 10
176.1628937878
 20
131.4386435333
 10
176.1436063709
 20
131.4853299559
 10
176.1211233903
 20
131.5297306698
 10
176.0958253537
 20
131.5720382773
 10
176.0681602817
 20
131.6122370222
 10
176.0385547498
 20
131.6503291439
 10
176.0072164507
 20
131.6865386444
 10
175.9744864359
 20
131.7208757199
 10
175.9406842904
 20
131.7533657636
 10
175.9058629749
 20
131.7842470634
 10
175.870254376
 20
131.8135547472
 10
175.8341058313
 20
131.8413064603
 10
175.7973964165
 20
131.867699766
 10
175.7603600823
 20
131.8927254313
 10
175.7231175296
 20
131.9164509397
 10
175.6853859935
 20
131.9391652047
 10
175.6471238742
 20
131.9609683949
 10
175.608581498
 20
131.981791621
 10
175.5698613517
 20
132.0016550953
  0
LWPOLYLINE
  5
568
100
AcDbEntity
  8
RACCORDO
100
AcDbPolyline
 62
250
  6
CONTINUOUS
 90
5
 70
0
 10
169.3160961796
 20
79.3131533603
 10
169.3259700507
 20
79.3438997018
 10
169.3327007252
 20
79.3756765503
 10
169.3361534221
 20
79.407952027
 10
169.3362466675
 20
79.4402032169
  0
LWPOLYLINE
  5
569
100
AcDbEntity
  8
0
100
AcDbPolyline
 62
7
  6
CONTINUOUS
 90
3
 70
0
 10
156.43995188
 20
88.4649748802
 10
156.4051625969
 20
88.4457296911
 10
156.3529579872
 20
88.4090029306
  0
LINE
  5
56A
100
AcDbEntity
  8
0
100
AcDbLine
 62
7
  6
CONTINUOUS
 10
156.2787074114
 20
88.3005000968
 11
156.7088081449
 21
88.5155504635
  0
LINE
  5
56B
100
AcDbEntity
  8
0
100
AcDbLine
 62
7
  6
CONTINUOUS
 10
152.6862748342
 20
88.659005296
 11
152.6924740662
 21
88.6620459206
  0
LINE
  5
56C
100
AcDbEntity
  8
DRAFT
100
AcDbLine
 62
7
  6
CONTINUOUS
 10
152.8238683082
 20
88.7610114693
 11
152.6056269392
 21
88.6548857026
  0
LWPOLYLINE
  5
56D
100
AcDbEntity
  8
0
100
AcDbPolyline
 62
7
  6
CONTINUOUS
 90
19
 70
0
 10
156.2787074114
 20
88.3005000968
 10
156.2996502376
 20
88.3103333757
 10
156.3957826675
 20
88.3409369771
 10
156.4994768432
 20
88.3517188208
 10
156.6089585284
 20
88.3424944264
 10
156.7223544612
 20
88.3134216258
 10
156.8377244058
 20
88.2649978627
 10
156.9530943503
 20
88.1980516812
 10
157.0664902831
 20
88.113728549
 10
157.1759719684
 20
88.0134712582
 10
157.279666144
 20
87.8989952389
 10
157.375798574
 20
87.7722592075
 10
157.4627244058
 20
87.6354316526
 10
157.5389563143
 20
87.4908537317
 10
157.6031899504
 20
87.3409992131
 10
157.6543262588
 20
87.188432149
 10
157.6914902831
 20
87.0357630044
 10
157.7140461366
 20
86.8856039905
 10
157.7216078823
 20
86.7405243698
  0
LWPOLYLINE
  5
56E
100
AcDbEntity
  8
RACCORDO
100
AcDbPolyline
 62
250
  6
CONTINUOUS
 90
3
 70
0
 10
151.6351713465
 20
90.8746064348
 10
151.5415343814
 20
90.8448050962
 10
151.5166036269
 20
90.8329323273
  0
LWPOLYLINE
  5
56F
100
AcDbEntity
  8
0
100
AcDbPolyline
 62
7
  6
CONTINUOUS
 90
4
 70
0
 10
151.6351918608
 20
90.9164061107
 10
151.5951306127
 20
90.9043722169
 10
151.5573992716
 20
90.8892402336
 10
151.542168915
 20
90.8819783169
  0
LWPOLYLINE
  5
570
100
AcDbEntity
  8
ASSI
100
AcDbPolyline
 62
7
  6
CONTINUOUS
 90
4
 70
0
 10
164.2019466722
 20
127.963032958
 10
164.1824688871
 20
127.9583148913
 10
164.1605999437
 20
127.9521795166
 10
164.1365018231
 20
127.9447204444
  0
LWPOLYLINE
  5
571
100
AcDbEntity
  8
ASSI
100
AcDbPolyline
 62
7
  6
CONTINUOUS
 90
3
 70
0
 10
163.5330265482
 20
128.2478991995
 10
163.5593285275
 20
128.2540625017
 10
163.5875516154
 20
128.2568204645
  0
LWPOLYLINE
  5
572
100
AcDbEntity
  8
RACCORDO
100
AcDbPolyline
 62
250
  6
CONTINUOUS
 90
4
 70
0
 10
153.6577491431
 20
126.0804095065
 10
153.6320352367
 20
126.0773885766
 10
153.6065676526
 20
126.0785923473
 10
153.5953865591
 20
126.0804921802
  0
LWPOLYLINE
  5
573
100
AcDbEntity
  8
0
100
AcDbPolyline
 62
250
  6
CONTINUOUS
 90
6
 70
0
 10
167.5989716726
 20
126.2548672308
 10
167.6090114992
 20
126.255969125
 10
167.6294160843
 20
126.2551658512
 10
167.6504742892
 20
126.2514234624
 10
167.6719655271
 20
126.2447811607
 10
167.6936646747
 20
126.235308525
  0
LINE
  5
574
100
AcDbEntity
  8
0
100
AcDbLine
 62
7
  6
CONTINUOUS
 10
166.9139960377
 20
126.5973550482
 11
165.5540640976
 21
126.5236068608
  0
LWPOLYLINE
  5
575
100
AcDbEntity
  8
ASSI
100
AcDbPolyline
 62
7
  6
CONTINUOUS
 90
7
 70
0
 10
169.1407767154
 20
125.4792569225
 10
169.170763022
 20
125.4787373449
 10
169.202273199
 20
125.4745955191
 10
169.235108344
 20
125.4668137706
 10
169.2691063903
 20
125.4554614038
 10
169.3040073961
 20
125.4404645464
 10
169.3130220865
 20
125.4360481336
  0
LINE
  5
576
100
AcDbEntity
  8
RACCORDO
100
AcDbLine
 62
250
  6
CONTINUOUS
 10
151.2766456403
 20
127.5091055471
 11
151.9878662484
 21
127.3606020242
  0
LWPOLYLINE
  5
577
100
AcDbEntity
  8
RACCORDO
100
AcDbPolyline
 62
250
  6
CONTINUOUS
 90
6
 70
0
 10
154.5447398782
 20
128.6243466513
 10
154.525631166
 20
128.6305532681
 10
154.5050111974
 20
128.6328269212
 10
154.4832301809
 20
128.631128995
 10
154.460658044
 20
128.6254883269
 10
154.4376781509
 20
128.6160007177
  0
LWPOLYLINE
  5
578
100
AcDbEntity
  8
0
100
AcDbPolyline
 62
7
  6
CONTINUOUS
 90
3
 70
0
 10
147.2733450781
 20
133.4179077366
 10
147.2879513341
 20
133.4119151801
 10
147.3031172723
 20
133.4031624731
  0
LWPOLYLINE
  5
579
100
AcDbEntity
  8
RACCORDO
100
AcDbPolyline
 62
7
  6
CONTINUOUS
 90
7
 70
0
 10
137.9933256955
 20
136.3106045395
 10
137.9701271725
 20
136.320225295
 10
137.9473431601
 20
136.3259859795
 10
137.9253634827
 20
136.3277880304
 10
137.9045642036
 20
136.3256006162
 10
137.8853011881
 20
136.319461162
 10
137.8819778358
 20
136.3179214634
  0
LWPOLYLINE
  5
57A
100
AcDbEntity
  8
0
100
AcDbPolyline
 62
250
  6
CONTINUOUS
 90
7
 70
0
 10
173.4147249474
 20
124.1380798732
 10
173.3876246499
 20
124.1494816594
 10
173.3609374109
 20
124.1564316625
 10
173.3350998157
 20
124.1588161851
 10
173.31053455
 20
124.1565962181
 10
173.2876434849
 20
124.1498080787
 10
173.281023666
 20
124.1468292634
  0
LWPOLYLINE
  5
57B
100
AcDbEntity
  8
0
100
AcDbPolyline
 62
250
  6
CONTINUOUS
 90
8
 70
0
 10
160.848143763
 20
128.8790284429
 10
160.8354965888
 20
128.8843987491
 10
160.8170298319
 20
128.8892813447
 10
160.7975389161
 20
128.8912283862
 10
160.7772747443
 20
128.8902502395
 10
160.7564714976
 20
128.8864025517
 10
160.7353381667
 20
128.8797667187
 10
160.7140940898
 20
128.8704507853
  0
LWPOLYLINE
  5
57C
100
AcDbEntity
  8
RACCORDO
100
AcDbPolyline
 62
250
  6
CONTINUOUS
 90
7
 70
0
 10
138.5277755742
 20
136.5709520061
 10
138.5053291461
 20
136.5805253655
 10
138.4830808853
 20
136.5864176965
 10
138.4614112875
 20
136.588452069
 10
138.4406581408
 20
136.5865041899
 10
138.4212545556
 20
136.5805164156
 10
138.4172634631
 20
136.5786867971
  0
LWPOLYLINE
  5
57D
100
AcDbEntity
  8
0
100
AcDbPolyline
 62
250
  6
CONTINUOUS
 90
8
 70
0
 10
157.5022185703
 20
130.5519911205
 10
157.4899430387
 20
130.5572448937
 10
157.4715004112
 20
130.5622083482
 10
157.4519671525
 20
130.5642361372
 10
157.4316257389
 20
130.563315577
 10
157.4107237414
 20
130.5594951376
 10
157.3894592106
 20
130.5528469604
 10
157.3680544917
 20
130.5434705844
  0
LWPOLYLINE
  5
57E
100
AcDbEntity
  8
0
100
AcDbPolyline
 62
250
  6
CONTINUOUS
 90
8
 70
0
 10
167.8259775756
 20
126.2429133649
 10
167.8146170255
 20
126.2478334731
 10
167.7963442601
 20
126.2529257522
 10
167.7769819969
 20
126.2551179603
 10
167.7568069688
 20
126.2543950506
 10
167.7360620265
 20
126.2508021749
 10
167.7149417446
 20
126.2444081672
 10
167.6936646747
 20
126.235308525
  0
LWPOLYLINE
  5
57F
100
AcDbEntity
  8
ASSI
100
AcDbPolyline
 62
7
  6
CONTINUOUS
 90
6
 70
0
 10
164.2550761433
 20
127.9650163634
 10
164.2532885334
 20
127.9658125386
 10
164.2446534555
 20
127.9676480315
 10
164.2331465324
 20
127.9677223954
 10
164.2188788449
 20
127.9661902336
 10
164.2019466722
 20
127.963032958
  0
LWPOLYLINE
  5
580
100
AcDbEntity
  8
0
100
AcDbPolyline
 62
250
  6
CONTINUOUS
 90
7
 70
0
 10
150.0146911247
 20
132.6185344777
 10
150.0098717078
 20
132.6207203128
 10
149.9947015535
 20
132.6252005699
 10
149.978398192
 20
132.6266439555
 10
149.9612283607
 20
132.6250269339
 10
149.9434729425
 20
132.620376033
 10
149.925422396
 20
132.6127674068
  0
LWPOLYLINE
  5
581
100
AcDbEntity
  8
ASSI
100
AcDbPolyline
 62
7
  6
CONTINUOUS
 90
6
 70
0
 10
169.8100648103
 20
125.1875245374
 10
169.8085667812
 20
125.1882056113
 10
169.8000865252
 20
125.1901089499
 10
169.7887510588
 20
125.1902607851
 10
169.7746704953
 20
125.1888153909
 10
169.7579449808
 20
125.1857561037
  0
LWPOLYLINE
  5
582
100
AcDbEntity
  8
0
100
AcDbPolyline
 62
250
  6
CONTINUOUS
 90
7
 70
0
 10
166.1545660191
 20
124.5485973123
 10
166.1495742779
 20
124.5508691754
 10
166.1344041683
 20
124.555349798
 10
166.1181006725
 20
124.5567935147
 10
166.1009305041
 20
124.5551767073
 10
166.0831745549
 20
124.5505258256
 10
166.0651233
 20
124.5429169548
  0
LWPOLYLINE
  5
583
100
AcDbEntity
  8
0
100
AcDbPolyline
 62
250
  6
CONTINUOUS
 90
7
 70
0
 10
148.4768964894
 20
133.3874320771
 10
148.4719047482
 20
133.3897039402
 10
148.4567346387
 20
133.3941845628
 10
148.4404311428
 20
133.3956282795
 10
148.4232609744
 20
133.3940114721
 10
148.4055050253
 20
133.3893605904
 10
148.3874537703
 20
133.3817517196
  0
LWPOLYLINE
  5
584
100
AcDbEntity
  8
0
100
AcDbPolyline
 62
7
  6
CONTINUOUS
 90
19
 70
0
 10
164.5098329817
 20
125.6479379123
 10
164.4445834072
 20
125.6777031383
 10
164.3755478135
 20
125.7041895754
 10
164.3027262005
 20
125.7273972236
 10
164.2255098243
 20
125.7474521579
 10
164.1445074288
 20
125.7642283033
 10
164.0615452456
 20
125.7773474348
 10
163.9765787557
 20
125.7867264794
 10
163.8896524781
 20
125.7924485102
 10
163.8027262005
 20
125.7943845217
 10
163.7157999228
 20
125.7924485102
 10
163.6288736452
 20
125.7867264794
 10
163.5439071554
 20
125.7773474348
 10
163.4609449721
 20
125.7642283033
 10
163.3799425766
 20
125.7474521579
 10
163.3027262005
 20
125.7273972236
 10
163.2299045874
 20
125.7041895754
 10
163.1608689937
 20
125.6777031383
 10
163.0956194193
 20
125.6479379123
  0
LWPOLYLINE
  5
585
100
AcDbEntity
  8
0
100
AcDbPolyline
 62
7
  6
CONTINUOUS
 90
19
 70
0
 10
148.599930405
 20
133.6028892006
 10
148.5346808305
 20
133.6326544266
 10
148.4656452368
 20
133.6591408637
 10
148.3928236238
 20
133.6823485119
 10
148.3156072476
 20
133.7024034462
 10
148.2346048521
 20
133.7191795916
 10
148.1516426689
 20
133.7322987232
 10
148.066676179
 20
133.7416777678
 10
147.9797499014
 20
133.7473997986
 10
147.8928236238
 20
133.74933581
 10
147.8058973461
 20
133.7473997986
 10
147.7189710685
 20
133.7416777678
 10
147.6340045787
 20
133.7322987232
 10
147.5510423954
 20
133.7191795916
 10
147.4700399999
 20
133.7024034462
 10
147.3928236238
 20
133.6823485119
 10
147.3200020107
 20
133.6591408637
 10
147.250966417
 20
133.6326544266
 10
147.1857168426
 20
133.6028892006
  0
LWPOLYLINE
  5
586
100
AcDbEntity
  8
0
100
AcDbPolyline
 62
7
  6
CONTINUOUS
 90
18
 70
0
 10
166.154809854
 20
124.5484748398
 10
166.1458548557
 20
124.552898501
 10
166.0787165296
 20
124.5827868584
 10
166.0080527421
 20
124.6088838924
 10
165.9344889236
 20
124.6311652398
 10
165.8584160494
 20
124.6496771538
 10
165.7800866156
 20
124.6644842135
 10
165.6999359707
 20
124.6755660147
 10
165.6184833043
 20
124.6829037699
 10
165.5361764566
 20
124.6864697438
 10
165.4535471095
 20
124.6862405838
 10
165.3711179993
 20
124.6822140321
 10
165.2893365764
 20
124.674363238
 10
165.208710342
 20
124.6626858174
 10
165.1297852834
 20
124.6471797553
 10
165.0529765953
 20
124.6278064591
 10
164.9787157049
 20
124.6045297163
 10
164.9127152652
 20
124.5794611227
  0
LWPOLYLINE
  5
587
100
AcDbEntity
  8
0
100
AcDbPolyline
 62
7
  6
CONTINUOUS
 90
18
 70
0
 10
148.4771403269
 20
133.3873096034
 10
148.4681849279
 20
133.39173346
 10
148.4010461503
 20
133.4216219679
 10
148.3303818683
 20
133.4477191076
 10
148.256817521
 20
133.4700005145
 10
148.1807440909
 20
133.4885124423
 10
148.1024140822
 20
133.5033194687
 10
148.0222628532
 20
133.5144011881
 10
147.9408096047
 20
133.5217388125
 10
147.8585021882
 20
133.5253046044
 10
147.7758722967
 20
133.5250752127
 10
147.6934426775
 20
133.5210483788
 10
147.6116607923
 20
133.5131972515
 10
147.5310341509
 20
133.5015194488
 10
147.4521087525
 20
133.4860129538
 10
147.3752997978
 20
133.466639175
 10
147.3010387214
 20
133.4433618969
 10
147.2350457283
 20
133.4182958845
  0
LINE
  5
588
100
AcDbEntity
  8
0
100
AcDbLine
 62
250
  6
CONTINUOUS
 10
160.8482581684
 20
128.8789713215
 11
160.848143763
 21
128.8790284429
  0
LINE
  5
589
100
AcDbEntity
  8
DRAFT
100
AcDbLine
 62
7
  6
CONTINUOUS
 10
173.9063361613
 20
120.6024839559
 11
173.5254444418
 21
120.7929298156
  0
LINE
  5
58A
100
AcDbEntity
  8
0
100
AcDbLine
 62
250
  6
CONTINUOUS
 10
148.3874537703
 20
133.3817517196
 11
149.925422396
 21
132.6127674068
  0
LINE
  5
58B
100
AcDbEntity
  8
0
100
AcDbLine
 62
250
  6
CONTINUOUS
 10
166.0651233
 20
124.5429169548
 11
166.6270728401
 21
124.2619421848
  0
LINE
  5
58C
100
AcDbEntity
  8
0
100
AcDbLine
 62
7
  6
CONTINUOUS
 10
148.4768964894
 20
133.3874320771
 11
150.0148651227
 21
132.6184477604
  0
LINE
  5
58D
100
AcDbEntity
  8
0
100
AcDbLine
 62
7
  6
CONTINUOUS
 10
166.1545660191
 20
124.5485973123
 11
166.6778362646
 21
124.2869621895
  0
LINE
  5
58E
100
AcDbEntity
  8
0
100
AcDbLine
 62
7
  6
CONTINUOUS
 10
164.1562795911
 20
125.8247146076
 11
163.8027262005
 21
126.0014913029
  0
LINE
  5
58F
100
AcDbEntity
  8
0
100
AcDbLine
 62
7
  6
CONTINUOUS
 10
148.2463770144
 20
133.7796658959
 11
147.8928236238
 21
133.9564425912
  0
LINE
  5
590
100
AcDbEntity
  8
ASSI
100
AcDbLine
 62
7
  6
CONTINUOUS
 10
148.599930405
 20
133.6028892006
 11
151.0468954716
 21
132.3794066673
  0
LINE
  5
591
100
AcDbEntity
  8
ASSI
100
AcDbLine
 62
7
  6
CONTINUOUS
 10
164.5098329817
 20
125.6479379123
 11
166.9567980483
 21
124.424455379
  0
LINE
  5
592
100
AcDbEntity
  8
DRAFT
100
AcDbLine
 62
7
  6
CONTINUOUS
 10
147.8928236238
 20
134.5165584697
 11
148.2463770144
 21
134.3397817744
  0
LINE
  5
593
100
AcDbEntity
  8
DRAFT
100
AcDbLine
 62
7
  6
CONTINUOUS
 10
163.8027262005
 20
126.5616071814
 11
164.1562795911
 21
126.3848304861
  0
LINE
  5
594
100
AcDbEntity
  8
0
100
AcDbLine
 62
7
  6
CONTINUOUS
 10
157.1205671183
 20
129.985042155
 11
159.5972372311
 21
128.7467070986
  0
LINE
  5
595
100
AcDbEntity
  8
0
100
AcDbLine
 62
250
  6
CONTINUOUS
 10
157.3680544917
 20
130.5434705844
 11
160.7140940898
 21
128.8704507853
  0
LINE
  5
596
100
AcDbEntity
  8
0
100
AcDbLine
 62
7
  6
CONTINUOUS
 10
168.3646137445
 20
125.1183320373
 11
165.5540640976
 21
126.5236068608
  0
LINE
  5
597
100
AcDbEntity
  8
0
100
AcDbLine
 62
7
  6
CONTINUOUS
 10
152.4547111678
 20
133.0732833257
 11
149.6441615209
 21
134.4785581492
  0
LINE
  5
598
100
AcDbEntity
  8
0
100
AcDbLine
 62
7
  6
CONTINUOUS
 10
157.5022185703
 20
130.5519911205
 11
160.8482581684
 21
128.8789713215
  0
LINE
  5
599
100
AcDbEntity
  8
ASSI
100
AcDbLine
 62
250
  6
CONTINUOUS
 10
169.6429036946
 20
125.1471529258
 11
169.0373732599
 21
125.4499181431
  0
LINE
  5
59A
100
AcDbEntity
  8
ASSI
100
AcDbLine
 62
250
  6
CONTINUOUS
 10
164.0876257916
 20
127.9247918773
 11
163.4820953569
 21
128.2275570946
  0
LINE
  5
59B
100
AcDbEntity
  8
ASSI
100
AcDbLine
 62
250
  6
CONTINUOUS
 10
153.7330011179
 20
133.1021042142
 11
153.1274706832
 21
133.4048694315
  0
LINE
  5
59C
100
AcDbEntity
  8
ASSI
100
AcDbLine
 62
250
  6
CONTINUOUS
 10
148.1777232149
 20
135.8797431656
 11
147.5721927802
 21
136.182508383
  0
LINE
  5
59D
100
AcDbEntity
  8
0
100
AcDbLine
 62
7
  6
CONTINUOUS
 10
170.0074958191
 20
125.0506051575
 11
169.8168397595
 21
125.1459331873
  0
LINE
  5
59E
100
AcDbEntity
  8
0
100
AcDbLine
 62
7
  6
CONTINUOUS
 10
169.1505302928
 20
125.4790879207
 11
166.9139960377
 21
126.5973550482
  0
LINE
  5
59F
100
AcDbEntity
  8
0
100
AcDbLine
 62
7
  6
CONTINUOUS
 10
154.0975932424
 20
133.0055564459
 11
153.9069371828
 21
133.1008844757
  0
LINE
  5
5A0
100
AcDbEntity
  8
0
100
AcDbLine
 62
7
  6
CONTINUOUS
 10
153.2406277161
 20
133.434039209
 11
151.004093461
 21
134.5523063366
  0
LINE
  5
5A1
100
AcDbEntity
  8
0
100
AcDbLine
 62
250
  6
CONTINUOUS
 10
153.1979756604
 20
133.4831530321
 11
153.3007840451
 21
133.4317488397
  0
LINE
  5
5A2
100
AcDbEntity
  8
0
100
AcDbLine
 62
250
  6
CONTINUOUS
 10
153.9056948689
 20
133.1292934278
 11
154.1256812475
 21
133.0193002386
  0
LINE
  5
5A3
100
AcDbEntity
  8
0
100
AcDbLine
 62
250
  6
CONTINUOUS
 10
167.6936646747
 20
126.235308525
 11
169.2266405353
 21
125.4688205946
  0
LINE
  5
5A4
100
AcDbEntity
  8
0
100
AcDbLine
 62
250
  6
CONTINUOUS
 10
169.8155974456
 20
125.1743421395
 11
170.0355838242
 21
125.0643489502
  0
LINE
  5
5A5
100
AcDbEntity
  8
ASSI
100
AcDbLine
 62
7
  6
CONTINUOUS
 10
169.8100650543
 20
125.1875269877
 11
169.3130222645
 21
125.4360483826
  0
LINE
  5
5A6
100
AcDbEntity
  8
ASSI
100
AcDbLine
 62
7
  6
CONTINUOUS
 10
164.2550766252
 20
127.9650212023
 11
163.7580338354
 21
128.2135425972
  0
LINE
  5
5A7
100
AcDbEntity
  8
ASSI
100
AcDbLine
 62
7
  6
CONTINUOUS
 10
153.9001624776
 20
133.1424782761
 11
153.4031196878
 21
133.3909996709
  0
LINE
  5
5A8
100
AcDbEntity
  8
ASSI
100
AcDbLine
 62
7
  6
CONTINUOUS
 10
148.3451740485
 20
135.9199724906
 11
147.8481312587
 21
136.1684938855
  0
LINE
  5
5A9
100
AcDbEntity
  8
0
100
AcDbLine
 62
7
  6
CONTINUOUS
 10
153.3302885613
 20
133.4907578721
 11
154.2002394297
 21
133.0557824379
  0
LINE
  5
5AA
100
AcDbEntity
  8
0
100
AcDbLine
 62
7
  6
CONTINUOUS
 10
167.8259775756
 20
126.2429133649
 11
170.1101420064
 21
125.1008311495
  0
LINE
  5
5AB
100
AcDbEntity
  8
RACCORDO
100
AcDbLine
 62
250
  6
CONTINUOUS
 10
147.2423621557
 20
136.8765862105
 11
150.3031572722
 21
135.3461886522
  0
LINE
  5
5AC
100
AcDbEntity
  8
RACCORDO
100
AcDbLine
 62
250
  6
CONTINUOUS
 10
154.5457979593
 20
133.2248683087
 11
157.6065930759
 21
131.6944707504
  0
LINE
  5
5AD
100
AcDbEntity
  8
RACCORDO
100
AcDbLine
 62
250
  6
CONTINUOUS
 10
163.1522647324
 20
128.9216349222
 11
166.2130598489
 21
127.3912373639
  0
LINE
  5
5AE
100
AcDbEntity
  8
RACCORDO
100
AcDbLine
 62
250
  6
CONTINUOUS
 10
170.455700536
 20
125.2699170203
 11
173.5164956526
 21
123.7395194621
  0
LWPOLYLINE
  5
5AF
100
AcDbEntity
  8
0
100
AcDbPolyline
 62
250
  6
CONTINUOUS
 90
16
 70
0
 10
160.7140940898
 20
128.8704507853
 10
160.7357769164
 20
128.8582486168
 10
160.7572326134
 20
128.8434527569
 10
160.7782364302
 20
128.8262181937
 10
160.7985683499
 20
128.8067254606
 10
160.8180153935
 20
128.7851787462
 10
160.836373851
 20
128.7618037546
 10
160.8534514155
 20
128.7368453417
 10
160.8690691984
 20
128.7105649489
 10
160.883063602
 20
128.6832378653
 10
160.8952880338
 20
128.6551503444
 10
160.9056144414
 20
128.626596606
 10
160.9139346543
 20
128.5978757542
 10
160.9201615175
 20
128.569288643
 10
160.9242298043
 20
128.5411347248
 10
160.926096899
 20
128.5137089148
  0
LWPOLYLINE
  5
5B0
100
AcDbEntity
  8
0
100
AcDbPolyline
 62
250
  6
CONTINUOUS
 90
13
 70
0
 10
152.774056192
 20
134.4584142509
 10
152.8011099345
 20
134.4427389803
 10
152.8276907578
 20
134.4230548581
 10
152.8533638152
 20
134.3996839281
 10
152.8777091122
 20
134.373008548
 10
152.9003283841
 20
134.3434651258
 10
152.92085161
 20
134.3115369771
 10
152.9389430525
 20
134.2777464365
 10
152.9543067612
 20
134.2426462975
 10
152.9666914159
 20
134.2068107569
 10
152.9758944234
 20
134.1708260505
 10
152.9817652367
 20
134.1352808641
 10
152.9842078239
 20
134.1007566844
  0
LWPOLYLINE
  5
5B1
100
AcDbEntity
  8
0
100
AcDbPolyline
 62
250
  6
CONTINUOUS
 90
13
 70
0
 10
167.2697452063
 20
127.2105697437
 10
167.2967989488
 20
127.1948944731
 10
167.3233797721
 20
127.175210351
 10
167.3490528296
 20
127.1518394209
 10
167.3733981265
 20
127.1251640408
 10
167.3960173984
 20
127.0956206186
 10
167.4165406244
 20
127.0636924699
 10
167.4346320668
 20
127.0299019293
 10
167.4499957756
 20
126.9948017903
 10
167.4623804302
 20
126.9589662497
 10
167.4715834376
 20
126.9229815433
 10
167.4774542508
 20
126.8874363568
 10
167.4798968378
 20
126.852912177
  0
LWPOLYLINE
  5
5B2
100
AcDbEntity
  8
0
100
AcDbPolyline
 62
250
  6
CONTINUOUS
 90
4
 70
0
 10
173.3280488668
 20
124.2354967048
 10
173.336747904
 20
124.2183200491
 10
173.3428476748
 20
124.2008806054
 10
173.3455518838
 20
124.1872609857
  0
LWPOLYLINE
  5
5B3
100
AcDbEntity
  8
0
100
AcDbPolyline
 62
7
  6
CONTINUOUS
 90
32
 70
0
 10
157.6595104136
 20
86.1119640768
 10
157.6954926481
 20
86.1319354613
 10
157.7476483136
 20
86.1688385648
 10
157.7949405858
 20
86.2124504889
 10
157.8378234507
 20
86.2631377075
 10
157.8761649966
 20
86.3211076044
 10
157.9093064591
 20
86.3857782145
 10
157.9368231167
 20
86.456474759
 10
157.9585151622
 20
86.5327941116
 10
157.9741913391
 20
86.6141980108
 10
157.9837049053
 20
86.6995567871
 10
157.9870893061
 20
86.7878503354
 10
157.98447275
 20
86.8787900414
 10
157.9759381542
 20
86.9722860981
 10
157.9615271304
 20
87.0677936094
 10
157.9413321165
 20
87.1646443666
 10
157.9154022782
 20
87.2626081745
 10
157.8837309514
 20
87.3613629555
 10
157.8465280972
 20
87.4599611724
 10
157.8042476485
 20
87.5572402377
 10
157.7573387373
 20
87.6522854331
 10
157.7060013563
 20
87.7447970705
 10
157.6503943355
 20
87.8345471091
 10
157.5907029099
 20
87.921146498
 10
157.5274096464
 20
88.0037918033
 10
157.4611467836
 20
88.0816740356
 10
157.3924249125
 20
88.1542372414
 10
157.3216260795
 20
88.2211306833
 10
157.2492453488
 20
88.2819583377
 10
157.1757616651
 20
88.3363689488
 10
157.1016336144
 20
88.3840545166
 10
157.0273320409
 20
88.4247535856
  0
LINE
  5
5B4
100
AcDbEntity
  8
0
100
AcDbLine
 62
7
  6
CONTINUOUS
 10
157.3967414002
 20
86.0644321193
 11
157.8594013712
 21
86.2957621048
  0
LWPOLYLINE
  5
5B5
100
AcDbEntity
  8
0
100
AcDbPolyline
 62
7
  6
CONTINUOUS
 90
19
 70
0
 10
157.3967414002
 20
86.0644321193
 10
157.375798574
 20
86.0545988403
 10
157.279666144
 20
86.0239952389
 10
157.1759719684
 20
86.0132133952
 10
157.0664902831
 20
86.0224377897
 10
156.9530943503
 20
86.0515105902
 10
156.8377244058
 20
86.0999343533
 10
156.7223544612
 20
86.1668805348
 10
156.6089585284
 20
86.251203667
 10
156.4994768432
 20
86.3514609578
 10
156.3957826675
 20
86.4659369771
 10
156.2996502376
 20
86.5926730085
 10
156.2127244058
 20
86.7295005634
 10
156.1364924973
 20
86.8740784843
 10
156.0722588612
 20
87.0239330029
 10
156.0211225527
 20
87.176500067
 10
155.9839585284
 20
87.3291692116
 10
155.961402675
 20
87.4793282255
 10
155.9538409293
 20
87.6244078462
  0
LWPOLYLINE
  5
5B6
100
AcDbEntity
  8
RACCORDO
100
AcDbPolyline
 62
250
  6
CONTINUOUS
 90
4
 70
0
 10
151.1121647308
 20
127.3532017127
 10
151.0864508244
 20
127.3501807827
 10
151.0609832403
 20
127.3513845534
 10
151.0498021468
 20
127.3532843863
  0
LWPOLYLINE
  5
5B7
100
AcDbEntity
  8
ASSI
100
AcDbPolyline
 62
7
  6
CONTINUOUS
 90
7
 70
0
 10
163.5875516154
 20
128.2568204645
 10
163.6175055684
 20
128.2560949827
 10
163.6489689013
 20
128.2517738859
 10
163.6817439593
 20
128.24383921
 10
163.7156650298
 20
128.2323598843
 10
163.7504731112
 20
128.2172629333
 10
163.758034953
 20
128.2135441602
  0
LINE
  5
5B8
100
AcDbEntity
  8
RACCORDO
100
AcDbLine
 62
7
  6
CONTINUOUS
 10
137.6854839824
 20
134.0354434685
 11
138.3096795794
 21
133.9051108487
  0
LINE
  5
5B9
100
AcDbEntity
  8
RACCORDO
100
AcDbLine
 62
250
  6
CONTINUOUS
 10
137.9123274759
 20
134.1912646293
 11
138.623548084
 21
134.0427611065
  0
LWPOLYLINE
  5
5BA
100
AcDbEntity
  8
RACCORDO
100
AcDbPolyline
 62
250
  6
CONTINUOUS
 90
6
 70
0
 10
138.6348373015
 20
136.5792979396
 10
138.6157285893
 20
136.5855045565
 10
138.5951086207
 20
136.5877782096
 10
138.5733276042
 20
136.5860802833
 10
138.5507554673
 20
136.5804396152
 10
138.5277755742
 20
136.5709520061
  0
LWPOLYLINE
  5
5BB
100
AcDbEntity
  8
0
100
AcDbPolyline
 62
250
  6
CONTINUOUS
 90
7
 70
0
 10
158.9190359331
 20
131.3859243803
 10
158.8919356356
 20
131.3973261665
 10
158.8652483966
 20
131.4042761696
 10
158.8394108015
 20
131.4066606922
 10
158.8148455357
 20
131.4044407253
 10
158.7919544705
 20
131.3976525859
 10
158.7853346517
 20
131.3946737706
  0
LWPOLYLINE
  5
5BC
100
AcDbEntity
  8
RACCORDO
100
AcDbPolyline
 62
7
  6
CONTINUOUS
 90
9
 70
0
 10
166.6540278207
 20
127.4166243356
 10
166.6153828409
 20
127.4332101329
 10
166.5639884361
 20
127.4481851579
 10
166.5098634852
 20
127.4560689668
 10
166.4530663443
 20
127.4570175689
 10
166.3948610104
 20
127.4510107329
 10
166.3356688161
 20
127.4380417148
 10
166.275068429
 20
127.4181172584
 10
166.2130598489
 20
127.3912373639
  0
LWPOLYLINE
  5
5BD
100
AcDbEntity
  8
RACCORDO
100
AcDbPolyline
 62
7
  6
CONTINUOUS
 90
9
 70
0
 10
150.744125244
 20
135.371575624
 10
150.7054802642
 20
135.3881614212
 10
150.6540858594
 20
135.4031364463
 10
150.5999609085
 20
135.4110202551
 10
150.5431637676
 20
135.4119688573
 10
150.4849584338
 20
135.4059620212
 10
150.4257662394
 20
135.3929930031
 10
150.3651658523
 20
135.3730685468
 10
150.3031572722
 20
135.3461886522
  0
LWPOLYLINE
  5
5BE
100
AcDbEntity
  8
0
100
AcDbPolyline
 62
250
  6
CONTINUOUS
 90
8
 70
0
 10
153.3302885613
 20
133.4907578721
 10
153.3189280112
 20
133.4956779803
 10
153.3006552457
 20
133.5007702594
 10
153.2812929825
 20
133.5029624674
 10
153.2611179544
 20
133.5022395578
 10
153.2403730122
 20
133.498646682
 10
153.2192527303
 20
133.4922526744
 10
153.1979756604
 20
133.4831530321
  0
LWPOLYLINE
  5
5BF
100
AcDbEntity
  8
ASSI
100
AcDbPolyline
 62
7
  6
CONTINUOUS
 90
6
 70
0
 10
148.3451735666
 20
135.9199676517
 10
148.3433859567
 20
135.920763827
 10
148.3347508788
 20
135.9225993198
 10
148.3232439557
 20
135.9226736837
 10
148.3089762682
 20
135.9211415219
 10
148.2920440955
 20
135.9179842463
  0
LWPOLYLINE
  5
5C0
100
AcDbEntity
  8
ASSI
100
AcDbPolyline
 62
7
  6
CONTINUOUS
 90
6
 70
0
 10
153.9001622336
 20
133.1424758257
 10
153.8986642045
 20
133.1431568997
 10
153.8901839485
 20
133.1450602382
 10
153.8788484821
 20
133.1452120734
 10
153.8647679186
 20
133.1437666792
 10
153.8480424041
 20
133.1407073921
  0
LINE
  5
5C1
100
AcDbEntity
  8
RACCORDO
100
AcDbLine
 62
7
  6
CONTINUOUS
 10
147.5240478596
 20
136.9816143267
 11
150.7442002753
 21
135.3715381188
  0
LINE
  5
5C2
100
AcDbEntity
  8
RACCORDO
100
AcDbLine
 62
7
  6
CONTINUOUS
 10
154.9868409624
 20
133.2502177753
 11
158.2069933782
 21
131.6401415674
  0
LINE
  5
5C3
100
AcDbEntity
  8
RACCORDO
100
AcDbLine
 62
7
  6
CONTINUOUS
 10
163.4339504362
 20
129.0266630384
 11
166.654102852
 21
127.4165868305
  0
LINE
  5
5C4
100
AcDbEntity
  8
RACCORDO
100
AcDbLine
 62
7
  6
CONTINUOUS
 10
170.8967435391
 20
125.2952664869
 11
174.1168959549
 21
123.6851902791
  0
LINE
  5
5C5
100
AcDbEntity
  8
0
100
AcDbLine
 62
250
  6
CONTINUOUS
 10
153.6908838543
 20
134.0945438223
 11
158.7048374771
 21
131.5875670109
  0
LINE
  5
5C6
100
AcDbEntity
  8
0
100
AcDbLine
 62
250
  6
CONTINUOUS
 10
168.1865728686
 20
126.8466993152
 11
173.2005264914
 21
124.3397225038
  0
LINE
  5
5C7
100
AcDbEntity
  8
0
100
AcDbLine
 62
250
  6
CONTINUOUS
 10
153.9047378413
 20
134.452201389
 11
158.9186914641
 21
131.9452245777
  0
LINE
  5
5C8
100
AcDbEntity
  8
0
100
AcDbLine
 62
250
  6
CONTINUOUS
 10
168.4004268556
 20
127.2043568819
 11
173.4143804784
 21
124.6973800705
  0
LWPOLYLINE
  5
5C9
100
AcDbEntity
  8
0
100
AcDbPolyline
 62
250
  6
CONTINUOUS
 90
8
 70
0
 10
158.704837457
 20
131.5875666593
 10
158.7296295609
 20
131.5749180021
 10
158.7523966378
 20
131.5613863708
 10
158.7730254624
 20
131.5470537304
 10
158.791404821
 20
131.5320206204
 10
158.8074580642
 20
131.5163600041
 10
158.8211296822
 20
131.5001139686
 10
158.8323598524
 20
131.4833412119
  0
LWPOLYLINE
  5
5CA
100
AcDbEntity
  8
0
100
AcDbPolyline
 62
250
  6
CONTINUOUS
 90
8
 70
0
 10
173.2005264714
 20
124.3397221522
 10
173.2253185752
 20
124.3270734949
 10
173.2480856521
 20
124.3135418636
 10
173.2687144767
 20
124.2992092233
 10
173.2870938354
 20
124.2841761132
 10
173.3031470786
 20
124.2685154969
 10
173.3168186965
 20
124.2522694615
 10
173.3280488668
 20
124.2354967048
  0
LWPOLYLINE
  5
5CB
100
AcDbEntity
  8
0
100
AcDbPolyline
 62
250
  6
CONTINUOUS
 90
22
 70
0
 10
158.9186914641
 20
131.9452245777
 10
158.9585700331
 20
131.9237286225
 10
158.9948823158
 20
131.9011632242
 10
159.0276283124
 20
131.8775283828
 10
159.0569258457
 20
131.8527036225
 10
159.0826570929
 20
131.8268094191
 10
159.1044685847
 20
131.8002072004
 10
159.1223185951
 20
131.7728402549
 10
159.1362488502
 20
131.7447652941
 10
159.1460310595
 20
131.7165138801
 10
159.1516353026
 20
131.6882288061
 10
159.1530914998
 20
131.6597672788
 10
159.1502611212
 20
131.631232481
 10
159.1432692862
 20
131.6025822737
 10
159.1319908754
 20
131.5738587958
 10
159.1159120006
 20
131.5452916466
 10
159.0948082285
 20
131.5166501916
 10
159.0689039924
 20
131.4881650653
 10
159.0383587037
 20
131.4607577707
 10
159.0032254995
 20
131.4347354755
 10
158.9634512426
 20
131.409791012
 10
158.9190359331
 20
131.3859243803
  0
LWPOLYLINE
  5
5CC
100
AcDbEntity
  8
0
100
AcDbPolyline
 62
250
  6
CONTINUOUS
 90
22
 70
0
 10
173.4143804784
 20
124.6973800705
 10
173.4542590474
 20
124.6758841153
 10
173.4905713302
 20
124.653318717
 10
173.5233173267
 20
124.6296838757
 10
173.5526148601
 20
124.6048591153
 10
173.5783461072
 20
124.5789649119
 10
173.600157599
 20
124.5523626932
 10
173.6180076094
 20
124.5249957477
 10
173.6319378646
 20
124.496920787
 10
173.6417200738
 20
124.468669373
 10
173.6473243169
 20
124.4403842989
 10
173.6487805141
 20
124.4119227716
 10
173.6459501355
 20
124.3833879738
 10
173.6389583006
 20
124.3547377665
 10
173.6276798898
 20
124.3260142886
 10
173.6116010149
 20
124.2974471395
 10
173.5904972429
 20
124.2688056844
 10
173.5645930068
 20
124.2403205581
 10
173.534047718
 20
124.2129132635
 10
173.4989145138
 20
124.1868909683
 10
173.4591402569
 20
124.1619465049
 10
173.4147249474
 20
124.1380798732
  0
LINE
  5
5CD
100
AcDbEntity
  8
IMPORT_IGES
100
AcDbLine
 62
7
  6
CONTINUOUS
 10
165.339865864
 20
134.5961159527
 11
164.6351177373
 21
135.3148697886
  0
LWPOLYLINE
  5
5CE
100
AcDbEntity
  8
IMPORT_IGES
100
AcDbPolyline
 62
7
  6
CONTINUOUS
 90
18
 70
0
 10
164.9088471842
 20
135.0357004194
 10
164.9828619385
 20
135.0491571304
 10
165.1137180066
 20
135.0680393864
 10
165.2468682957
 20
135.0823616195
 10
165.3822813138
 20
135.0921863998
 10
165.518081797
 20
135.097377633
 10
165.6542751424
 20
135.0978708537
 10
165.790855953
 20
135.0937305273
 10
165.9259327744
 20
135.0850139559
 10
166.0594846942
 20
135.0716574692
 10
166.1915326248
 20
135.0537247375
 10
166.3202478484
 20
135.0314640741
 10
166.4455840051
 20
135.0048152607
 10
166.5675874547
 20
134.9738385155
 10
166.6845685594
 20
134.9389628063
 10
166.7964574455
 20
134.9001338824
 10
166.9033239866
 20
134.8574059944
 10
166.9799264264
 20
134.8222699178
  0
LWPOLYLINE
  5
5CF
100
AcDbEntity
  8
RACCORDO
100
AcDbPolyline
 62
7
  6
CONTINUOUS
 90
8
 70
0
 10
147.81860836
 20
130.2212006751
 10
147.7756373543
 20
130.21705979
 10
147.7334977528
 20
130.2100840681
 10
147.6925826201
 20
130.2012632802
 10
147.6531277717
 20
130.1917853959
 10
147.6151801561
 20
130.1821872216
 10
147.5787804774
 20
130.1721825672
 10
147.5107165153
 20
130.152440401
  0
LWPOLYLINE
  5
5D0
100
AcDbEntity
  8
ASSI
100
AcDbPolyline
 62
7
  6
CONTINUOUS
 90
7
 70
0
 10
153.2308741387
 20
133.4342082108
 10
153.2608604453
 20
133.4336886332
 10
153.2923706223
 20
133.4295468075
 10
153.3252057673
 20
133.421765059
 10
153.3592038136
 20
133.4104126922
 10
153.3941048194
 20
133.3954158347
 10
153.4031195098
 20
133.390999422
  0
LWPOLYLINE
  5
5D1
100
AcDbEntity
  8
0
100
AcDbPolyline
 62
250
  6
CONTINUOUS
 90
66
 70
0
 10
172.5239721211
 20
130.5825547174
 10
172.5777834862
 20
130.5613379814
 10
172.6346373799
 20
130.5403211885
 10
172.6946050966
 20
130.5194265621
 10
172.7576153419
 20
130.4987318788
 10
172.8242422543
 20
130.478453693
 10
172.8944573188
 20
130.4585513269
 10
172.9682890505
 20
130.4390654583
 10
173.0463971336
 20
130.4203346751
 10
173.1288155153
 20
130.4022934324
 10
173.2155102484
 20
130.3850072751
 10
173.3070391756
 20
130.3690114266
 10
173.4034783708
 20
130.3542312062
 10
173.5047517601
 20
130.3407412945
 10
173.6111889651
 20
130.3293009566
 10
173.7229862214
 20
130.31983338
 10
173.8399472933
 20
130.3124153772
 10
173.9618130951
 20
130.3080366506
 10
174.0891113309
 20
130.3066878441
 10
174.2213142966
 20
130.3083783139
 10
174.3565797945
 20
130.3141258305
 10
174.4952795016
 20
130.3240588684
 10
174.6370417408
 20
130.3380489531
 10
174.7789092831
 20
130.3567284323
 10
174.9209568801
 20
130.3802856014
 10
175.0631097802
 20
130.408532165
 10
175.2021864997
 20
130.4415355833
 10
175.3381269325
 20
130.4795041209
 10
175.4709911847
 20
130.5222295134
 10
175.5977780916
 20
130.5691544275
 10
175.7182426381
 20
130.6204553824
 10
175.8326298392
 20
130.6759558589
 10
175.9386735757
 20
130.7345689667
 10
176.0360217928
 20
130.7964177108
 10
176.1250265453
 20
130.8613790863
 10
176.204477877
 20
130.927997188
 10
176.2739619497
 20
130.9963106291
 10
176.3338926018
 20
131.0662807965
 10
176.3843013921
 20
131.1363359456
 10
176.4248036745
 20
131.2064480435
 10
176.4557840952
 20
131.2766451231
 10
176.4784281523
 20
131.3454395386
 10
176.4924590699
 20
131.4126579285
 10
176.4981536238
 20
131.4784736543
 10
176.4975276398
 20
131.5419191547
 10
176.4905786017
 20
131.6027305808
 10
176.4773090257
 20
131.6611717815
 10
176.4597422864
 20
131.7170667424
 10
176.4380299365
 20
131.7703074961
 10
176.4120204235
 20
131.82100201
 10
176.3832824638
 20
131.8692981717
 10
176.3519676526
 20
131.915156175
 10
176.3179243948
 20
131.9586158262
 10
176.2822666224
 20
131.9999444318
 10
176.2451278876
 20
132.0391237369
 10
176.2063746383
 20
132.0761719965
 10
176.1667201498
 20
132.1114112809
 10
176.1262514724
 20
132.1448529181
 10
176.0848815559
 20
132.1764855802
 10
176.0430625254
 20
132.2065973542
 10
176.0009416025
 20
132.235158079
 10
175.9583715655
 20
132.2621979158
 10
175.9153628747
 20
132.2880954354
 10
175.8719190166
 20
132.3129768281
 10
175.8280365046
 20
132.3367159037
 10
175.7837153387
 20
132.359312662
  0
LWPOLYLINE
  5
5D2
100
AcDbEntity
  8
RACCORDO
100
AcDbPolyline
 62
250
  6
CONTINUOUS
 90
66
 70
0
 10
168.9884382152
 20
132.3503216704
 10
169.0422495803
 20
132.3291049344
 10
169.0991034739
 20
132.3080881415
 10
169.1590711906
 20
132.287193515
 10
169.2220814359
 20
132.2664988317
 10
169.2887083484
 20
132.246220646
 10
169.3589234129
 20
132.2263182798
 10
169.4327551445
 20
132.2068324112
 10
169.5108632276
 20
132.1881016281
 10
169.5932816093
 20
132.1700603853
 10
169.6799763424
 20
132.1527742281
 10
169.7715052697
 20
132.1367783795
 10
169.8679444649
 20
132.1219981591
 10
169.9692178542
 20
132.1085082475
 10
170.0756550592
 20
132.0970679096
 10
170.1874523154
 20
132.087600333
 10
170.3044133873
 20
132.0801823302
 10
170.4262791891
 20
132.0758036036
 10
170.5535774249
 20
132.0744547971
 10
170.6857803907
 20
132.0761452668
 10
170.8210458886
 20
132.0818927834
 10
170.9597455956
 20
132.0918258213
 10
171.1015078349
 20
132.1058159061
 10
171.2433753772
 20
132.1244953852
 10
171.3854229742
 20
132.1480525544
 10
171.5275758742
 20
132.1762991179
 10
171.6666525938
 20
132.2093025363
 10
171.8025930265
 20
132.2472710739
 10
171.9354572788
 20
132.2899964664
 10
172.0622441857
 20
132.3369213805
 10
172.1827087321
 20
132.3882223353
 10
172.2970959333
 20
132.4437228118
 10
172.4031396697
 20
132.5023359197
 10
172.5004878869
 20
132.5641846638
 10
172.5894926393
 20
132.6291460393
 10
172.6689439711
 20
132.695764141
 10
172.7384280438
 20
132.7640775821
 10
172.7983586958
 20
132.8340477495
 10
172.8487674862
 20
132.9041028986
 10
172.8892697686
 20
132.9742149965
 10
172.9202501893
 20
133.0444120761
 10
172.9428942464
 20
133.1132064916
 10
172.9569251639
 20
133.1804248815
 10
172.9626197179
 20
133.2462406073
 10
172.9619937339
 20
133.3096861077
 10
172.9550446958
 20
133.3704975338
 10
172.9417751197
 20
133.4289387345
 10
172.9242083805
 20
133.4848336954
 10
172.9024960306
 20
133.5380744491
 10
172.8764865175
 20
133.5887689629
 10
172.8477485579
 20
133.6370651247
 10
172.8164337466
 20
133.682923128
 10
172.7823904888
 20
133.7263827792
 10
172.7467327164
 20
133.7677113847
 10
172.7095939817
 20
133.8068906899
 10
172.6708407323
 20
133.8439389495
 10
172.6311862439
 20
133.8791782339
 10
172.5907175665
 20
133.9126198711
 10
172.54934765
 20
133.9442525331
 10
172.5075286195
 20
133.9743643072
 10
172.4654076965
 20
134.002925032
 10
172.4228376596
 20
134.0299648688
 10
172.3798289687
 20
134.0558623884
 10
172.3363851107
 20
134.0807437811
 10
172.2925025986
 20
134.1044828566
 10
172.2481814327
 20
134.127079615
  0
LWPOLYLINE
  5
5D3
100
AcDbEntity
  8
0
100
AcDbPolyline
 62
250
  6
CONTINUOUS
 90
4
 70
0
 10
172.3755397167
 20
130.647516424
 10
172.4228502364
 20
130.6256439388
 10
172.4724152625
 20
130.6039881726
 10
172.5239721211
 20
130.5825547174
  0
LWPOLYLINE
  5
5D4
100
AcDbEntity
  8
RACCORDO
100
AcDbPolyline
 62
250
  6
CONTINUOUS
 90
4
 70
0
 10
168.8400058107
 20
132.415283377
 10
168.8873163304
 20
132.3934108917
 10
168.9368813566
 20
132.3717551256
 10
168.9884382152
 20
132.3503216704
  0
LWPOLYLINE
  5
5D5
100
AcDbEntity
  8
RACCORDO
100
AcDbPolyline
 62
250
  6
CONTINUOUS
 90
4
 70
0
 10
163.8902583424
 20
134.8901571112
 10
163.9375688621
 20
134.8682846259
 10
163.9871338883
 20
134.8466288597
 10
164.0386907469
 20
134.8251954046
  0
LWPOLYLINE
  5
5D6
100
AcDbEntity
  8
RACCORDO
100
AcDbPolyline
 62
250
  6
CONTINUOUS
 90
4
 70
0
 10
160.3547244365
 20
136.6579240641
 10
160.4020349562
 20
136.6360515789
 10
160.4515999824
 20
136.6143958127
 10
160.503156841
 20
136.5929623575
  0
LINE
  5
5D7
100
AcDbEntity
  8
0
100
AcDbLine
 62
250
  6
CONTINUOUS
 10
172.3304837035
 20
130.6696056284
 11
172.3755397167
 21
130.647516424
  0
LINE
  5
5D8
100
AcDbEntity
  8
RACCORDO
100
AcDbLine
 62
250
  6
CONTINUOUS
 10
168.7949497975
 20
132.4373725814
 11
168.8400058107
 21
132.415283377
  0
LINE
  5
5D9
100
AcDbEntity
  8
RACCORDO
100
AcDbLine
 62
250
  6
CONTINUOUS
 10
163.8452023292
 20
134.9122463155
 11
163.8902583424
 21
134.8901571112
  0
LINE
  5
5DA
100
AcDbEntity
  8
RACCORDO
100
AcDbLine
 62
250
  6
CONTINUOUS
 10
160.3096684233
 20
136.6800132685
 11
160.3547244365
 21
136.6579240641
  0
LINE
  5
5DB
100
AcDbEntity
  8
RACCORDO
100
AcDbLine
 62
250
  6
CONTINUOUS
 10
156.7741345174
 20
138.4477802215
 11
156.8191905306
 21
138.4256910171
  0
LWPOLYLINE
  5
5DC
100
AcDbEntity
  8
RACCORDO
100
AcDbPolyline
 62
7
  6
CONTINUOUS
 90
14
 70
0
 10
156.9062879943
 20
138.4554649166
 10
156.8755683299
 20
138.4711431656
 10
156.7976915787
 20
138.5139689468
 10
156.7244861865
 20
138.5589551295
 10
156.6564508427
 20
138.6059232354
 10
156.5942046895
 20
138.6545614647
 10
156.5385434441
 20
138.7042933169
 10
156.4899289321
 20
138.7546579333
 10
156.4487296952
 20
138.805145112
 10
156.4154359626
 20
138.8548248851
 10
156.3902270722
 20
138.9026199247
 10
156.3724745288
 20
138.9485802542
 10
156.3614850642
 20
138.9937183685
 10
156.357236395
 20
139.0357385008
  0
LWPOLYLINE
  5
5DD
100
AcDbEntity
  8
RACCORDO
100
AcDbPolyline
 62
7
  6
CONTINUOUS
 90
14
 70
0
 10
160.4418219002
 20
136.6876979636
 10
160.4111022358
 20
136.7033762126
 10
160.3332254847
 20
136.7462019939
 10
160.2600200924
 20
136.7911881766
 10
160.1919847487
 20
136.8381562825
 10
160.1297385954
 20
136.8867945118
 10
160.07407735
 20
136.9365263639
 10
160.025462838
 20
136.9868909803
 10
159.9842636012
 20
137.037378159
 10
159.9509698685
 20
137.0870579321
 10
159.9257609781
 20
137.1348529717
 10
159.9080084348
 20
137.1808133012
 10
159.8970189701
 20
137.2259514156
 10
159.8927703009
 20
137.2679715478
  0
LWPOLYLINE
  5
5DE
100
AcDbEntity
  8
RACCORDO
100
AcDbPolyline
 62
7
  6
CONTINUOUS
 90
14
 70
0
 10
163.9773558061
 20
134.9199310106
 10
163.9466361418
 20
134.9356092596
 10
163.8687593906
 20
134.9784350409
 10
163.7955539983
 20
135.0234212236
 10
163.7275186546
 20
135.0703893295
 10
163.6652725014
 20
135.1190275588
 10
163.609611256
 20
135.1687594109
 10
163.5609967439
 20
135.2191240273
 10
163.5197975071
 20
135.269611206
 10
163.4865037744
 20
135.3192909792
 10
163.461294884
 20
135.3670860187
 10
163.4435423407
 20
135.4130463482
 10
163.4325528761
 20
135.4581844626
 10
163.4283042068
 20
135.5002045949
  0
LWPOLYLINE
  5
5DF
100
AcDbEntity
  8
RACCORDO
100
AcDbPolyline
 62
7
  6
CONTINUOUS
 90
14
 70
0
 10
168.9271032744
 20
132.4450572765
 10
168.8963836101
 20
132.4607355255
 10
168.8185068589
 20
132.5035613067
 10
168.7453014666
 20
132.5485474894
 10
168.6772661229
 20
132.5955155953
 10
168.6150199697
 20
132.6441538247
 10
168.5593587243
 20
132.6938856768
 10
168.5107442122
 20
132.7442502932
 10
168.4695449754
 20
132.7947374719
 10
168.4362512427
 20
132.844417245
 10
168.4110423523
 20
132.8922122846
 10
168.393289809
 20
132.9381726141
 10
168.3823003444
 20
132.9833107284
 10
168.3780516752
 20
133.0253308607
  0
LWPOLYLINE
  5
5E0
100
AcDbEntity
  8
0
100
AcDbPolyline
 62
7
  6
CONTINUOUS
 90
14
 70
0
 10
172.4626371804
 20
130.6772903235
 10
172.431917516
 20
130.6929685725
 10
172.3540407648
 20
130.7357943538
 10
172.2808353726
 20
130.7807805365
 10
172.2128000288
 20
130.8277486424
 10
172.1505538756
 20
130.8763868717
 10
172.0948926302
 20
130.9261187238
 10
172.0462781182
 20
130.9764833402
 10
172.0050788813
 20
131.0269705189
 10
171.9717851487
 20
131.076650292
 10
171.9465762583
 20
131.1244453316
 10
171.9288237149
 20
131.1704056611
 10
171.9178342503
 20
131.2155437755
 10
171.9135855811
 20
131.2575639078
  0
LINE
  5
5E1
100
AcDbEntity
  8
RACCORDO
100
AcDbLine
 62
250
  6
CONTINUOUS
 10
167.5447326371
 20
79.2318164345
 11
166.922414605
 21
78.486757017
  0
LINE
  5
5E2
100
AcDbEntity
  8
RACCORDO
100
AcDbLine
 62
250
  6
CONTINUOUS
 10
167.8977688251
 20
79.1060465965
 11
167.186548217
 21
78.2545501194
  0
LINE
  5
5E3
100
AcDbEntity
  8
RACCORDO
100
AcDbLine
 62
250
  6
CONTINUOUS
 10
169.8484891796
 20
84.2985684484
 11
190.7035400789
 21
95.26401826
  0
LWPOLYLINE
  5
5E4
100
AcDbEntity
  8
0
100
AcDbPolyline
 62
7
  6
CONTINUOUS
 90
4
 70
0
 10
147.2350549788
 20
133.4182997234
 10
147.2469763166
 20
133.4212730714
 10
147.2595824329
 20
133.4210398923
 10
147.2733450781
 20
133.4179077366
  0
LWPOLYLINE
  5
5E5
100
AcDbEntity
  8
ASSI
100
AcDbPolyline
 62
7
  6
CONTINUOUS
 90
3
 70
0
 10
153.1763467147
 20
133.4247979986
 10
153.2026384159
 20
133.4312184205
 10
153.2308741387
 20
133.4342082108
  0
LWPOLYLINE
  5
5E6
100
AcDbEntity
  8
ASSI
100
AcDbPolyline
 62
7
  6
CONTINUOUS
 90
4
 70
0
 10
153.8480424041
 20
133.1407073921
 10
153.8287932159
 20
133.1360977396
 10
153.807173035
 20
133.1300783315
 10
153.7833431189
 20
133.1227409141
  0
LWPOLYLINE
  5
5E7
100
AcDbEntity
  8
RACCORDO
100
AcDbPolyline
 62
250
  6
CONTINUOUS
 90
4
 70
0
 10
137.7478465664
 20
134.0353607949
 10
137.72213266
 20
134.0323398649
 10
137.6966650759
 20
134.0335436356
 10
137.6854839824
 20
134.0354434685
  0
LWPOLYLINE
  5
5E8
100
AcDbEntity
  8
0
100
AcDbPolyline
 62
250
  6
CONTINUOUS
 90
6
 70
0
 10
153.1032826583
 20
133.502711738
 10
153.1133224849
 20
133.5038136321
 10
153.1337270699
 20
133.5030103583
 10
153.1547852749
 20
133.4992679695
 10
153.1762765128
 20
133.4926256678
 10
153.1979756604
 20
133.4831530321
  0
LINE
  5
5E9
100
AcDbEntity
  8
0
100
AcDbLine
 62
7
  6
CONTINUOUS
 10
151.004093461
 20
134.5523063366
 11
149.6441615209
 21
134.4785581492
  0
LWPOLYLINE
  5
5EA
100
AcDbEntity
  8
ASSI
100
AcDbPolyline
 62
7
  6
CONTINUOUS
 90
7
 70
0
 10
147.6776490387
 20
136.2117717528
 10
147.7076029917
 20
136.211046271
 10
147.7390663246
 20
136.2067251743
 10
147.7718413826
 20
136.1987904984
 10
147.8057624531
 20
136.1873111727
 10
147.8405705345
 20
136.1722142217
 10
147.8481323763
 20
136.1684954485
  0
LWPOLYLINE
  5
5EB
100
AcDbEntity
  8
RACCORDO
100
AcDbPolyline
 62
250
  6
CONTINUOUS
 90
66
 70
0
 10
164.0386907469
 20
134.8251954046
 10
164.092502112
 20
134.8039786685
 10
164.1493560056
 20
134.7829618756
 10
164.2093237223
 20
134.7620672492
 10
164.2723339676
 20
134.7413725659
 10
164.3389608801
 20
134.7210943801
 10
164.4091759446
 20
134.701192014
 10
164.4830076762
 20
134.6817061454
 10
164.5611157593
 20
134.6629753622
 10
164.643534141
 20
134.6449341195
 10
164.7302288741
 20
134.6276479622
 10
164.8217578014
 20
134.6116521137
 10
164.9181969966
 20
134.5968718933
 10
165.0194703859
 20
134.5833819816
 10
165.1259075908
 20
134.5719416437
 10
165.2377048471
 20
134.5624740671
 10
165.354665919
 20
134.5550560643
 10
165.4765317208
 20
134.5506773377
 10
165.6038299566
 20
134.5493285313
 10
165.7360329224
 20
134.551019001
 10
165.8712984203
 20
134.5567665176
 10
166.0099981273
 20
134.5666995555
 10
166.1517603665
 20
134.5806896402
 10
166.2936279089
 20
134.5993691194
 10
166.4356755058
 20
134.6229262885
 10
166.5778284059
 20
134.6511728521
 10
166.7169051255
 20
134.6841762704
 10
166.8528455582
 20
134.7221448081
 10
166.9857098105
 20
134.7648702005
 10
167.1124967174
 20
134.8117951146
 10
167.2329612638
 20
134.8630960695
 10
167.347348465
 20
134.918596546
 10
167.4533922014
 20
134.9772096538
 10
167.5507404186
 20
135.0390583979
 10
167.639745171
 20
135.1040197734
 10
167.7191965028
 20
135.1706378751
 10
167.7886805755
 20
135.2389513163
 10
167.8486112275
 20
135.3089214836
 10
167.8990200179
 20
135.3789766327
 10
167.9395223003
 20
135.4490887306
 10
167.970502721
 20
135.5192858102
 10
167.9931467781
 20
135.5880802257
 10
168.0071776956
 20
135.6552986156
 10
168.0128722496
 20
135.7211143414
 10
168.0122462656
 20
135.7845598419
 10
168.0052972274
 20
135.8453712679
 10
167.9920276514
 20
135.9038124686
 10
167.9744609121
 20
135.9597074295
 10
167.9527485623
 20
136.0129481832
 10
167.9267390492
 20
136.0636426971
 10
167.8980010896
 20
136.1119388588
 10
167.8666862783
 20
136.1577968622
 10
167.8326430205
 20
136.2012565133
 10
167.7969852481
 20
136.2425851189
 10
167.7598465134
 20
136.2817644241
 10
167.721093264
 20
136.3188126836
 10
167.6814387756
 20
136.354051968
 10
167.6409700982
 20
136.3874936052
 10
167.5996001817
 20
136.4191262673
 10
167.5577811511
 20
136.4492380414
 10
167.5156602282
 20
136.4777987662
 10
167.4730901913
 20
136.5048386029
 10
167.4300815004
 20
136.5307361225
 10
167.3866376423
 20
136.5556175153
 10
167.3427551303
 20
136.5793565908
 10
167.2984339644
 20
136.6019533491
  0
LWPOLYLINE
  5
5EC
100
AcDbEntity
  8
RACCORDO
100
AcDbPolyline
 62
250
  6
CONTINUOUS
 90
66
 70
0
 10
160.503156841
 20
136.5929623575
 10
160.5569682061
 20
136.5717456215
 10
160.6138220997
 20
136.5507288286
 10
160.6737898164
 20
136.5298342021
 10
160.7368000617
 20
136.5091395189
 10
160.8034269742
 20
136.4888613331
 10
160.8736420386
 20
136.468958967
 10
160.9474737703
 20
136.4494730983
 10
161.0255818534
 20
136.4307423152
 10
161.1080002351
 20
136.4127010725
 10
161.1946949682
 20
136.3954149152
 10
161.2862238955
 20
136.3794190667
 10
161.3826630906
 20
136.3646388463
 10
161.48393648
 20
136.3511489346
 10
161.5903736849
 20
136.3397085967
 10
161.7021709412
 20
136.3302410201
 10
161.8191320131
 20
136.3228230173
 10
161.9409978149
 20
136.3184442907
 10
162.0682960507
 20
136.3170954842
 10
162.2004990165
 20
136.3187859539
 10
162.3357645143
 20
136.3245334706
 10
162.4744642214
 20
136.3344665084
 10
162.6162264606
 20
136.3484565932
 10
162.7580940029
 20
136.3671360723
 10
162.9001415999
 20
136.3906932415
 10
163.0422945
 20
136.418939805
 10
163.1813712196
 20
136.4519432234
 10
163.3173116523
 20
136.489911761
 10
163.4501759045
 20
136.5326371535
 10
163.5769628114
 20
136.5795620676
 10
163.6974273579
 20
136.6308630225
 10
163.8118145591
 20
136.686363499
 10
163.9178582955
 20
136.7449766068
 10
164.0152065127
 20
136.8068253509
 10
164.1042112651
 20
136.8717867264
 10
164.1836625968
 20
136.9384048281
 10
164.2531466695
 20
137.0067182692
 10
164.3130773216
 20
137.0766884366
 10
164.363486112
 20
137.1467435857
 10
164.4039883943
 20
137.2168556836
 10
164.4349688151
 20
137.2870527632
 10
164.4576128722
 20
137.3558471787
 10
164.4716437897
 20
137.4230655686
 10
164.4773383436
 20
137.4888812944
 10
164.4767123597
 20
137.5523267948
 10
164.4697633215
 20
137.6131382209
 10
164.4564937455
 20
137.6715794216
 10
164.4389270062
 20
137.7274743825
 10
164.4172146564
 20
137.7807151362
 10
164.3912051433
 20
137.8314096501
 10
164.3624671837
 20
137.8797058118
 10
164.3311523724
 20
137.9255638151
 10
164.2971091146
 20
137.9690234663
 10
164.2614513422
 20
138.0103520718
 10
164.2243126074
 20
138.049531377
 10
164.1855593581
 20
138.0865796366
 10
164.1459048697
 20
138.121818921
 10
164.1054361923
 20
138.1552605582
 10
164.0640662758
 20
138.1868932203
 10
164.0222472452
 20
138.2170049943
 10
163.9801263223
 20
138.2455657191
 10
163.9375562854
 20
138.2726055559
 10
163.8945475945
 20
138.2985030755
 10
163.8511037364
 20
138.3233844682
 10
163.8072212244
 20
138.3471235437
 10
163.7629000585
 20
138.3697203021
  0
LWPOLYLINE
  5
5ED
100
AcDbEntity
  8
RACCORDO
100
AcDbPolyline
 62
250
  6
CONTINUOUS
 90
66
 70
0
 10
156.967622935
 20
138.3607293105
 10
157.0214343001
 20
138.3395125744
 10
157.0782881938
 20
138.3184957816
 10
157.1382559105
 20
138.2976011551
 10
157.2012661558
 20
138.2769064718
 10
157.2678930682
 20
138.2566282861
 10
157.3381081327
 20
138.2367259199
 10
157.4119398644
 20
138.2172400513
 10
157.4900479475
 20
138.1985092682
 10
157.5724663292
 20
138.1804680254
 10
157.6591610623
 20
138.1631818682
 10
157.7506899895
 20
138.1471860196
 10
157.8471291847
 20
138.1324057992
 10
157.948402574
 20
138.1189158876
 10
158.054839779
 20
138.1074755497
 10
158.1666370353
 20
138.0980079731
 10
158.2835981071
 20
138.0905899703
 10
158.405463909
 20
138.0862112437
 10
158.5327621448
 20
138.0848624372
 10
158.6649651105
 20
138.0865529069
 10
158.8002306084
 20
138.0923004235
 10
158.9389303155
 20
138.1022334614
 10
159.0806925547
 20
138.1162235462
 10
159.222560097
 20
138.1349030253
 10
159.364607694
 20
138.1584601945
 10
159.5067605941
 20
138.186706758
 10
159.6458373136
 20
138.2197101763
 10
159.7817777464
 20
138.257678714
 10
159.9146419986
 20
138.3004041065
 10
160.0414289055
 20
138.3473290206
 10
160.161893452
 20
138.3986299754
 10
160.2762806531
 20
138.4541304519
 10
160.3823243896
 20
138.5127435598
 10
160.4796726067
 20
138.5745923039
 10
160.5686773592
 20
138.6395536793
 10
160.6481286909
 20
138.7061717811
 10
160.7176127636
 20
138.7744852222
 10
160.7775434157
 20
138.8444553896
 10
160.827952206
 20
138.9145105387
 10
160.8684544884
 20
138.9846226366
 10
160.8994349091
 20
139.0548197162
 10
160.9220789662
 20
139.1236141317
 10
160.9361098838
 20
139.1908325216
 10
160.9418044377
 20
139.2566482474
 10
160.9411784537
 20
139.3200937478
 10
160.9342294156
 20
139.3809051739
 10
160.9209598396
 20
139.4393463746
 10
160.9033931003
 20
139.4952413354
 10
160.8816807504
 20
139.5484820892
 10
160.8556712374
 20
139.599176603
 10
160.8269332777
 20
139.6474727648
 10
160.7956184665
 20
139.6933307681
 10
160.7615752087
 20
139.7367904193
 10
160.7259174363
 20
139.7781190248
 10
160.6887787015
 20
139.81729833
 10
160.6500254522
 20
139.8543465895
 10
160.6103709637
 20
139.889585874
 10
160.5699022863
 20
139.9230275112
 10
160.5285323698
 20
139.9546601732
 10
160.4867133393
 20
139.9847719473
 10
160.4445924164
 20
140.0133326721
 10
160.4020223794
 20
140.0403725089
 10
160.3590136886
 20
140.0662700285
 10
160.3155698305
 20
140.0911514212
 10
160.2716873185
 20
140.1148904967
 10
160.2273661526
 20
140.1374872551
  0
LWPOLYLINE
  5
5EE
100
AcDbEntity
  8
RACCORDO
100
AcDbPolyline
 62
250
  6
CONTINUOUS
 90
4
 70
0
 10
156.8191905306
 20
138.4256910171
 10
156.8665010503
 20
138.4038185318
 10
156.9160660764
 20
138.3821627656
 10
156.967622935
 20
138.3607293105
  0
LWPOLYLINE
  5
5EF
100
AcDbEntity
  8
IMPORT_IGES
100
AcDbPolyline
 62
7
  6
CONTINUOUS
 90
22
 70
0
 10
175.4648360371
 20
130.5794925427
 10
175.3945295712
 20
130.6122010594
 10
175.2775918151
 20
130.6590176747
 10
175.1547211993
 20
130.7011425257
 10
175.0258150906
 20
130.738506384
 10
174.8909761222
 20
130.771178478
 10
174.7524113262
 20
130.7986171395
 10
174.6099982384
 20
130.8207356532
 10
174.4638593229
 20
130.8376207344
 10
174.3165690045
 20
130.8489908607
 10
174.1683344919
 20
130.8547693929
 10
174.0189485764
 20
130.8550329703
 10
173.8703640556
 20
130.8497299886
 10
173.7223038257
 20
130.8387693584
 10
173.5750449905
 20
130.822242169
 10
173.4313716594
 20
130.8003700843
 10
173.2913793435
 20
130.7730278057
 10
173.1549725317
 20
130.7403406319
 10
173.0246488001
 20
130.7029061225
 10
172.9012406743
 20
130.6609234642
 10
172.7839156288
 20
130.6141934704
 10
172.6990927957
 20
130.5749416206
  0
LWPOLYLINE
  5
5F0
100
AcDbEntity
  8
IMPORT_IGES
100
AcDbPolyline
 62
7
  6
CONTINUOUS
 90
22
 70
0
 10
171.9293021312
 20
132.3472594957
 10
171.8589956653
 20
132.3799680124
 10
171.7420579092
 20
132.4267846276
 10
171.6191872934
 20
132.4689094787
 10
171.4902811847
 20
132.5062733369
 10
171.3554422163
 20
132.538945431
 10
171.2168774203
 20
132.5663840925
 10
171.0744643325
 20
132.5885026062
 10
170.928325417
 20
132.6053876873
 10
170.7810350985
 20
132.6167578137
 10
170.632800586
 20
132.6225363459
 10
170.4834146705
 20
132.6227999233
 10
170.3348301497
 20
132.6174969416
 10
170.1867699197
 20
132.6065363113
 10
170.0395110846
 20
132.590009122
 10
169.8958377535
 20
132.5681370373
 10
169.7558454376
 20
132.5407947587
 10
169.6194386257
 20
132.5081075848
 10
169.4891148942
 20
132.4706730754
 10
169.3657067684
 20
132.4286904172
 10
169.2483817229
 20
132.3819604234
 10
169.1635588897
 20
132.3427085735
  0
LWPOLYLINE
  5
5F1
100
AcDbEntity
  8
IMPORT_IGES
100
AcDbPolyline
 62
7
  6
CONTINUOUS
 90
22
 70
0
 10
163.4440207569
 20
136.5899001828
 10
163.373714291
 20
136.6226086995
 10
163.2567765349
 20
136.6694253148
 10
163.1339059191
 20
136.7115501658
 10
163.0049998105
 20
136.7489140241
 10
162.8701608421
 20
136.7815861181
 10
162.731596046
 20
136.8090247796
 10
162.5891829582
 20
136.8311432933
 10
162.4430440428
 20
136.8480283745
 10
162.2957537243
 20
136.8593985008
 10
162.1475192118
 20
136.865177033
 10
161.9981332962
 20
136.8654406104
 10
161.8495487754
 20
136.8601376287
 10
161.7014885455
 20
136.8491769984
 10
161.5542297103
 20
136.8326498091
 10
161.4105563792
 20
136.8107777244
 10
161.2705640633
 20
136.7834354458
 10
161.1341572515
 20
136.7507482719
 10
161.00383352
 20
136.7133137626
 10
160.8804253942
 20
136.6713311043
 10
160.7631003487
 20
136.6246011105
 10
160.6782775155
 20
136.5853492606
  0
LWPOLYLINE
  5
5F2
100
AcDbEntity
  8
IMPORT_IGES
100
AcDbPolyline
 62
7
  6
CONTINUOUS
 90
22
 70
0
 10
159.908486851
 20
138.3576671358
 10
159.8381803851
 20
138.3903756525
 10
159.721242629
 20
138.4371922677
 10
159.5983720132
 20
138.4793171188
 10
159.4694659045
 20
138.516680977
 10
159.3346269361
 20
138.5493530711
 10
159.1960621401
 20
138.5767917326
 10
159.0536490523
 20
138.5989102463
 10
158.9075101368
 20
138.6157953274
 10
158.7602198184
 20
138.6271654538
 10
158.6119853058
 20
138.632943986
 10
158.4625993903
 20
138.6332075634
 10
158.3140148695
 20
138.6279045817
 10
158.1659546396
 20
138.6169439514
 10
158.0186958044
 20
138.600416762
 10
157.8750224733
 20
138.5785446774
 10
157.7350301574
 20
138.5512023988
 10
157.5986233456
 20
138.5185152249
 10
157.468299614
 20
138.4810807155
 10
157.3448914882
 20
138.4390980572
 10
157.2275664427
 20
138.3923680635
 10
157.1427436096
 20
138.3531162136
  0
LWPOLYLINE
  5
5F3
100
AcDbEntity
  8
0
100
AcDbPolyline
 62
250
  6
CONTINUOUS
 90
49
 70
0
 10
175.5698613517
 20
132.0016550953
 10
175.5301691247
 20
132.0209989641
 10
175.4885621065
 20
132.0402553498
 10
175.4450021488
 20
132.0593744064
 10
175.3996407257
 20
132.0782275732
 10
175.3522685172
 20
132.0968424419
 10
175.3022742041
 20
132.1153762388
 10
175.249511503
 20
132.1337732198
 10
175.1940102144
 20
132.1519130885
 10
175.1353745841
 20
132.1698098346
 10
175.0735749193
 20
132.1873396616
 10
175.0085365457
 20
132.2043900036
 10
174.9397676119
 20
132.2209439093
 10
174.8672179563
 20
132.2368430368
 10
174.790866101
 20
132.2519192963
 10
174.710245737
 20
132.2660801999
 10
174.6253514136
 20
132.2791144897
 10
174.5362127461
 20
132.290800866
 10
174.4424240945
 20
132.300961988
 10
174.3440151088
 20
132.3093310931
 10
174.241168085
 20
132.3156210985
 10
174.1337540942
 20
132.319558114
 10
174.021716157
 20
132.3208234271
 10
173.9056433894
 20
132.3190756991
 10
173.7864641305
 20
132.3140224456
 10
173.6644574239
 20
132.305373237
 10
173.5402785531
 20
132.2928565625
 10
173.4154788413
 20
132.276353187
 10
173.2906479419
 20
132.2557086505
 10
173.1664070117
 20
132.230779439
 10
173.0443148463
 20
132.2016663842
 10
172.9249871833
 20
132.1683586508
 10
172.8090766414
 20
132.1308699302
 10
172.698039929
 20
132.0895431256
 10
172.5924166733
 20
132.0445223389
 10
172.492721686
 20
131.9959653994
 10
172.4001007959
 20
131.9444186485
 10
172.3148726109
 20
131.8901360331
 10
172.2373309621
 20
131.8333882111
 10
172.1682181003
 20
131.7748849201
 10
172.1075692885
 20
131.714952168
 10
172.055360029
 20
131.6538987345
 10
172.0118303133
 20
131.5924886569
 10
171.9767006883
 20
131.53103227
 10
171.9496579443
 20
131.4698264154
 10
171.9304844552
 20
131.4096352702
 10
171.9186463196
 20
131.350783539
 10
171.9135575039
 20
131.2934158525
 10
171.9135810218
 20
131.2575961654
  0
LWPOLYLINE
  5
5F4
100
AcDbEntity
  8
RACCORDO
100
AcDbPolyline
 62
250
  6
CONTINUOUS
 90
49
 70
0
 10
172.0343274457
 20
133.7694220482
 10
171.9946352188
 20
133.788765917
 10
171.9530282005
 20
133.8080223028
 10
171.9094682429
 20
133.8271413594
 10
171.8641068197
 20
133.8459945262
 10
171.8167346113
 20
133.8646093948
 10
171.7667402982
 20
133.8831431918
 10
171.7139775971
 20
133.9015401727
 10
171.6584763084
 20
133.9196800415
 10
171.5998406782
 20
133.9375767876
 10
171.5380410133
 20
133.9551066146
 10
171.4730026397
 20
133.9721569565
 10
171.404233706
 20
133.9887108623
 10
171.3316840504
 20
134.0046099898
 10
171.2553321951
 20
134.0196862493
 10
171.1747118311
 20
134.0338471529
 10
171.0898175077
 20
134.0468814426
 10
171.0006788402
 20
134.058567819
 10
170.9068901886
 20
134.068728941
 10
170.8084812029
 20
134.0770980461
 10
170.7056341791
 20
134.0833880514
 10
170.5982201883
 20
134.0873250669
 10
170.486182251
 20
134.08859038
 10
170.3701094835
 20
134.0868426521
 10
170.2509302245
 20
134.0817893985
 10
170.128923518
 20
134.07314019
 10
170.0047446472
 20
134.0606235154
 10
169.8799449354
 20
134.04412014
 10
169.755114036
 20
134.0234756035
 10
169.6308731058
 20
133.998546392
 10
169.5087809404
 20
133.9694333372
 10
169.3894532774
 20
133.9361256037
 10
169.2735427354
 20
133.8986368831
 10
169.1625060231
 20
133.8573100786
 10
169.0568827673
 20
133.8122892919
 10
168.9571877801
 20
133.7637323523
 10
168.86456689
 20
133.7121856014
 10
168.779338705
 20
133.6579029861
 10
168.7017970561
 20
133.6011551641
 10
168.6326841943
 20
133.5426518731
 10
168.5720353826
 20
133.4827191209
 10
168.5198261231
 20
133.4216656874
 10
168.4762964073
 20
133.3602556099
 10
168.4411667824
 20
133.2987992229
 10
168.4141240384
 20
133.2375933684
 10
168.3949505493
 20
133.1774022232
 10
168.3831124137
 20
133.1185504919
 10
168.378023598
 20
133.0611828055
 10
168.3780471159
 20
133.0253631184
  0
LWPOLYLINE
  5
5F5
100
AcDbEntity
  8
RACCORDO
100
AcDbPolyline
 62
250
  6
CONTINUOUS
 90
49
 70
0
 10
167.0845799774
 20
136.2442957824
 10
167.0448877505
 20
136.2636396512
 10
167.0032807322
 20
136.2828960369
 10
166.9597207746
 20
136.3020150935
 10
166.9143593514
 20
136.3208682604
 10
166.8669871429
 20
136.339483129
 10
166.8169928299
 20
136.358016926
 10
166.7642301288
 20
136.3764139069
 10
166.7087288401
 20
136.3945537757
 10
166.6500932099
 20
136.4124505217
 10
166.588293545
 20
136.4299803487
 10
166.5232551714
 20
136.4470306907
 10
166.4544862377
 20
136.4635845964
 10
166.3819365821
 20
136.4794837239
 10
166.3055847268
 20
136.4945599834
 10
166.2249643628
 20
136.5087208871
 10
166.1400700394
 20
136.5217551768
 10
166.0509313719
 20
136.5334415532
 10
165.9571427203
 20
136.5436026751
 10
165.8587337346
 20
136.5519717802
 10
165.7558867108
 20
136.5582617856
 10
165.64847272
 20
136.5621988011
 10
165.5364347827
 20
136.5634641142
 10
165.4203620152
 20
136.5617163862
 10
165.3011827562
 20
136.5566631327
 10
165.1791760497
 20
136.5480139241
 10
165.0549971789
 20
136.5354972496
 10
164.9301974671
 20
136.5189938741
 10
164.8053665677
 20
136.4983493376
 10
164.6811256375
 20
136.4734201262
 10
164.5590334721
 20
136.4443070714
 10
164.4397058091
 20
136.4109993379
 10
164.3237952671
 20
136.3735106173
 10
164.2127585548
 20
136.3321838127
 10
164.107135299
 20
136.287163026
 10
164.0074403118
 20
136.2386060865
 10
163.9148194217
 20
136.1870593356
 10
163.8295912367
 20
136.1327767202
 10
163.7520495878
 20
136.0760288982
 10
163.682936726
 20
136.0175256073
 10
163.6222879143
 20
135.9575928551
 10
163.5700786548
 20
135.8965394216
 10
163.526548939
 20
135.835129344
 10
163.4914193141
 20
135.7736729571
 10
163.46437657
 20
135.7124671026
 10
163.445203081
 20
135.6522759573
 10
163.4333649454
 20
135.5934242261
 10
163.4282761296
 20
135.5360565397
 10
163.4282996476
 20
135.5002368525
  0
LWPOLYLINE
  5
5F6
100
AcDbEntity
  8
RACCORDO
100
AcDbPolyline
 62
250
  6
CONTINUOUS
 90
49
 70
0
 10
163.5490460715
 20
138.0120627354
 10
163.5093538446
 20
138.0314066042
 10
163.4677468263
 20
138.0506629899
 10
163.4241868686
 20
138.0697820465
 10
163.3788254455
 20
138.0886352133
 10
163.331453237
 20
138.1072500819
 10
163.2814589239
 20
138.1257838789
 10
163.2286962228
 20
138.1441808599
 10
163.1731949342
 20
138.1623207286
 10
163.1145593039
 20
138.1802174747
 10
163.0527596391
 20
138.1977473017
 10
162.9877212655
 20
138.2147976437
 10
162.9189523318
 20
138.2313515494
 10
162.8464026762
 20
138.2472506769
 10
162.7700508208
 20
138.2623269364
 10
162.6894304568
 20
138.27648784
 10
162.6045361335
 20
138.2895221298
 10
162.515397466
 20
138.3012085061
 10
162.4216088143
 20
138.3113696281
 10
162.3231998287
 20
138.3197387332
 10
162.2203528048
 20
138.3260287386
 10
162.112938814
 20
138.3299657541
 10
162.0009008768
 20
138.3312310672
 10
161.8848281092
 20
138.3294833392
 10
161.7656488503
 20
138.3244300857
 10
161.6436421437
 20
138.3157808771
 10
161.5194632729
 20
138.3032642026
 10
161.3946635612
 20
138.2867608271
 10
161.2698326618
 20
138.2661162906
 10
161.1455917315
 20
138.2411870791
 10
161.0234995662
 20
138.2120740243
 10
160.9041719032
 20
138.1787662908
 10
160.7882613612
 20
138.1412775702
 10
160.6772246489
 20
138.0999507657
 10
160.5716013931
 20
138.054929979
 10
160.4719064058
 20
138.0063730394
 10
160.3792855158
 20
137.9548262885
 10
160.2940573308
 20
137.9005436732
 10
160.2165156819
 20
137.8437958512
 10
160.1474028201
 20
137.7852925602
 10
160.0867540083
 20
137.725359808
 10
160.0345447489
 20
137.6643063746
 10
159.9910150331
 20
137.602896297
 10
159.9558854081
 20
137.54143991
 10
159.9288426641
 20
137.4802340555
 10
159.909669175
 20
137.4200429103
 10
159.8978310394
 20
137.3611911791
 10
159.8927422237
 20
137.3038234926
 10
159.8927657416
 20
137.2680038055
  0
LWPOLYLINE
  5
5F7
100
AcDbEntity
  8
RACCORDO
100
AcDbPolyline
 62
250
  6
CONTINUOUS
 90
49
 70
0
 10
160.0135121656
 20
139.7798296883
 10
159.9738199386
 20
139.7991735571
 10
159.9322129204
 20
139.8184299429
 10
159.8886529627
 20
139.8375489994
 10
159.8432915396
 20
139.8564021663
 10
159.7959193311
 20
139.8750170349
 10
159.745925018
 20
139.8935508319
 10
159.6931623169
 20
139.9119478128
 10
159.6376610283
 20
139.9300876816
 10
159.579025398
 20
139.9479844277
 10
159.5172257332
 20
139.9655142547
 10
159.4521873596
 20
139.9825645966
 10
159.3834184258
 20
139.9991185024
 10
159.3108687702
 20
140.0150176299
 10
159.2345169149
 20
140.0300938894
 10
159.1538965509
 20
140.044254793
 10
159.0690022275
 20
140.0572890827
 10
158.97986356
 20
140.0689754591
 10
158.8860749084
 20
140.0791365811
 10
158.7876659227
 20
140.0875056862
 10
158.6848188989
 20
140.0937956915
 10
158.5774049081
 20
140.097732707
 10
158.4653669708
 20
140.0989980201
 10
158.3492942033
 20
140.0972502921
 10
158.2301149444
 20
140.0921970386
 10
158.1081082378
 20
140.0835478301
 10
157.983929367
 20
140.0710311555
 10
157.8591296552
 20
140.05452778
 10
157.7342987558
 20
140.0338832436
 10
157.6100578256
 20
140.0089540321
 10
157.4879656602
 20
139.9798409773
 10
157.3686379972
 20
139.9465332438
 10
157.2527274553
 20
139.9090445232
 10
157.1416907429
 20
139.8677177187
 10
157.0360674871
 20
139.822696932
 10
156.9363724999
 20
139.7741399924
 10
156.8437516098
 20
139.7225932415
 10
156.7585234248
 20
139.6683106261
 10
156.6809817759
 20
139.6115628041
 10
156.6118689142
 20
139.5530595132
 10
156.5512201024
 20
139.493126761
 10
156.4990108429
 20
139.4320733275
 10
156.4554811272
 20
139.3706632499
 10
156.4203515022
 20
139.309206863
 10
156.3933087582
 20
139.2480010085
 10
156.3741352691
 20
139.1878098632
 10
156.3622971335
 20
139.128958132
 10
156.3572083178
 20
139.0715904456
 10
156.3572318357
 20
139.0357707584
  0
LWPOLYLINE
  5
5F8
100
AcDbEntity
  8
0
100
AcDbPolyline
 62
250
  6
CONTINUOUS
 90
70
 70
0
 10
175.7837153387
 20
132.359312662
 10
175.7385606298
 20
132.3814502663
 10
175.691135467
 20
132.4033717289
 10
175.6414398504
 20
132.4250770497
 10
175.5897374209
 20
132.4465613077
 10
175.5357645376
 20
132.4678294239
 10
175.4787302773
 20
132.4888961621
 10
175.4185624932
 20
132.5098397945
 10
175.3553333322
 20
132.5305820489
 10
175.2884683122
 20
132.5509028726
 10
175.2179956913
 20
132.5708431651
 10
175.1438872113
 20
132.5903620269
 10
175.0654836158
 20
132.6091167067
 10
174.9827501884
 20
132.6271730522
 10
174.8957216454
 20
132.6444652156
 10
174.8038428793
 20
132.6604529027
 10
174.707036301
 20
132.6752110509
 10
174.6053794995
 20
132.6886647228
 10
174.4985501349
 20
132.7000488124
 10
174.3863473686
 20
132.7094398818
 10
174.2689720392
 20
132.7167613689
 10
174.1467043218
 20
132.7210184811
 10
174.0190088524
 20
132.7222177171
 10
173.8864209952
 20
132.7203525782
 10
173.7508270176
 20
132.7144087765
 10
173.6118632639
 20
132.7042545688
 10
173.4698933899
 20
132.6900216984
 10
173.3278946307
 20
132.6710911069
 10
173.1858001658
 20
132.6472739044
 10
173.0436768157
 20
132.6187589808
 10
172.9047022771
 20
132.5854939483
 10
172.7689433674
 20
132.5472726882
 10
172.6363332692
 20
132.5043013191
 10
172.5098492261
 20
132.4571458095
 10
172.3897339701
 20
132.4056297931
 10
172.2757447692
 20
132.349929636
 10
172.1701306716
 20
132.2911404052
 10
172.073243616
 20
132.2291378399
 10
171.9847316636
 20
132.1640462009
 10
171.9057880457
 20
132.0973333369
 10
171.8368310615
 20
132.0289638174
 10
171.7774424118
 20
131.9589730729
 10
171.7275604303
 20
131.8889352438
 10
171.6875688393
 20
131.8188822803
 10
171.6570839165
 20
131.7487822323
 10
171.6348928293
 20
131.6801133894
 10
171.6212659826
 20
131.6130531559
 10
171.6159329715
 20
131.5474241274
 10
171.616869748
 20
131.484172381
 10
171.6240728323
 20
131.4235582711
 10
171.6375457043
 20
131.3653214433
 10
171.6552747564
 20
131.3096269106
 10
171.6771077472
 20
131.2565802512
 10
171.7031969182
 20
131.206075887
 10
171.7319853867
 20
131.1579620972
 10
171.7633220746
 20
131.1122778801
 10
171.7973580599
 20
131.0689842372
 10
171.8329896938
 20
131.0278124527
 10
171.8700840283
 20
130.9887804003
 10
171.9087740115
 20
130.9518702061
 10
171.9483548378
 20
130.9167595322
 10
171.9887399104
 20
130.8834369155
 10
172.0300158262
 20
130.851913819
 10
172.0717375707
 20
130.8219022936
 10
172.1137589059
 20
130.7934320824
 10
172.1562260697
 20
130.7664734423
 10
172.1991327614
 20
130.7406491947
 10
172.2424768809
 20
130.7158336134
 10
172.2862605282
 20
130.6921524247
 10
172.3304837035
 20
130.6696056284
  0
LWPOLYLINE
  5
5F9
100
AcDbEntity
  8
RACCORDO
100
AcDbPolyline
 62
250
  6
CONTINUOUS
 90
70
 70
0
 10
172.2481814327
 20
134.127079615
 10
172.2030267238
 20
134.1492172193
 10
172.1556015611
 20
134.1711386818
 10
172.1059059445
 20
134.1928440027
 10
172.054203515
 20
134.2143282606
 10
172.0002306316
 20
134.2355963769
 10
171.9431963714
 20
134.2566631151
 10
171.8830285873
 20
134.2776067475
 10
171.8197994263
 20
134.2983490018
 10
171.7529344062
 20
134.3186698255
 10
171.6824617853
 20
134.3386101181
 10
171.6083533054
 20
134.3581289799
 10
171.5299497099
 20
134.3768836597
 10
171.4472162825
 20
134.3949400051
 10
171.3601877395
 20
134.4122321685
 10
171.2683089734
 20
134.4282198557
 10
171.1715023951
 20
134.4429780039
 10
171.0698455936
 20
134.4564316758
 10
170.963016229
 20
134.4678157654
 10
170.8508134627
 20
134.4772068348
 10
170.7334381332
 20
134.4845283218
 10
170.6111704159
 20
134.4887854341
 10
170.4834749465
 20
134.48998467
 10
170.3508870893
 20
134.4881195311
 10
170.2152931117
 20
134.4821757295
 10
170.076329358
 20
134.4720215218
 10
169.934359484
 20
134.4577886514
 10
169.7923607247
 20
134.4388580599
 10
169.6502662599
 20
134.4150408573
 10
169.5081429098
 20
134.3865259338
 10
169.3691683711
 20
134.3532609013
 10
169.2334094615
 20
134.3150396411
 10
169.1007993632
 20
134.2720682721
 10
168.9743153201
 20
134.2249127625
 10
168.8542000641
 20
134.173396746
 10
168.7402108633
 20
134.117696589
 10
168.6345967657
 20
134.0589073582
 10
168.5377097101
 20
133.9969047929
 10
168.4491977577
 20
133.9318131539
 10
168.3702541398
 20
133.8651002899
 10
168.3012971556
 20
133.7967307704
 10
168.2419085058
 20
133.7267400258
 10
168.1920265244
 20
133.6567021967
 10
168.1520349334
 20
133.5866492333
 10
168.1215500106
 20
133.5165491853
 10
168.0993589234
 20
133.4478803424
 10
168.0857320767
 20
133.3808201088
 10
168.0803990655
 20
133.3151910804
 10
168.0813358421
 20
133.251939334
 10
168.0885389263
 20
133.1913252241
 10
168.1020117983
 20
133.1330883962
 10
168.1197408505
 20
133.0773938636
 10
168.1415738413
 20
133.0243472042
 10
168.1676630123
 20
132.97384284
 10
168.1964514807
 20
132.9257290502
 10
168.2277881686
 20
132.880044833
 10
168.261824154
 20
132.8367511902
 10
168.2974557878
 20
132.7955794056
 10
168.3345501224
 20
132.7565473533
 10
168.3732401055
 20
132.7196371591
 10
168.4128209319
 20
132.6845264852
 10
168.4532060045
 20
132.6512038685
 10
168.4944819203
 20
132.619680772
 10
168.5362036648
 20
132.5896692465
 10
168.578225
 20
132.5611990354
 10
168.6206921638
 20
132.5342403953
 10
168.6635988555
 20
132.5084161477
 10
168.7069429749
 20
132.4836005664
 10
168.7507266223
 20
132.4599193776
 10
168.7949497975
 20
132.4373725814
  0
LWPOLYLINE
  5
5FA
100
AcDbEntity
  8
RACCORDO
100
AcDbPolyline
 62
250
  6
CONTINUOUS
 90
70
 70
0
 10
167.2984339644
 20
136.6019533491
 10
167.2532792555
 20
136.6240909534
 10
167.2058540928
 20
136.646012416
 10
167.1561584762
 20
136.6677177368
 10
167.1044560467
 20
136.6892019948
 10
167.0504831633
 20
136.710470111
 10
166.9934489031
 20
136.7315368492
 10
166.933281119
 20
136.7524804816
 10
166.870051958
 20
136.773222736
 10
166.8031869379
 20
136.7935435597
 10
166.732714317
 20
136.8134838522
 10
166.6586058371
 20
136.8330027141
 10
166.5802022416
 20
136.8517573939
 10
166.4974688142
 20
136.8698137393
 10
166.4104402712
 20
136.8871059027
 10
166.3185615051
 20
136.9030935898
 10
166.2217549267
 20
136.917851738
 10
166.1200981253
 20
136.9313054099
 10
166.0132687607
 20
136.9426894995
 10
165.9010659944
 20
136.9520805689
 10
165.7836906649
 20
136.959402056
 10
165.6614229476
 20
136.9636591682
 10
165.5337274782
 20
136.9648584042
 10
165.401139621
 20
136.9629932653
 10
165.2655456434
 20
136.9570494636
 10
165.1265818897
 20
136.946895256
 10
164.9846120157
 20
136.9326623855
 10
164.8426132564
 20
136.913731794
 10
164.7005187915
 20
136.8899145915
 10
164.5583954415
 20
136.8613996679
 10
164.4194209028
 20
136.8281346354
 10
164.2836619932
 20
136.7899133753
 10
164.1510518949
 20
136.7469420063
 10
164.0245678518
 20
136.6997864966
 10
163.9044525958
 20
136.6482704802
 10
163.790463395
 20
136.5925703231
 10
163.6848492974
 20
136.5337810923
 10
163.5879622418
 20
136.4717785271
 10
163.4994502894
 20
136.406686888
 10
163.4205066715
 20
136.339974024
 10
163.3515496873
 20
136.2716045045
 10
163.2921610375
 20
136.20161376
 10
163.2422790561
 20
136.1315759309
 10
163.2022874651
 20
136.0615229675
 10
163.1718025423
 20
135.9914229194
 10
163.1496114551
 20
135.9227540765
 10
163.1359846084
 20
135.855693843
 10
163.1306515972
 20
135.7900648146
 10
163.1315883738
 20
135.7268130681
 10
163.138791458
 20
135.6661989583
 10
163.15226433
 20
135.6079621304
 10
163.1699933822
 20
135.5522675977
 10
163.191826373
 20
135.4992209383
 10
163.217915544
 20
135.4487165742
 10
163.2467040124
 20
135.4006027843
 10
163.2780407003
 20
135.3549185672
 10
163.3120766857
 20
135.3116249244
 10
163.3477083195
 20
135.2704531398
 10
163.3848026541
 20
135.2314210874
 10
163.4234926372
 20
135.1945108933
 10
163.4630734636
 20
135.1594002193
 10
163.5034585362
 20
135.1260776026
 10
163.544734452
 20
135.0945545061
 10
163.5864561965
 20
135.0645429807
 10
163.6284775316
 20
135.0360727695
 10
163.6709446955
 20
135.0091141294
 10
163.7138513872
 20
134.9832898818
 10
163.7571955066
 20
134.9584743005
 10
163.800979154
 20
134.9347931118
 10
163.8452023292
 20
134.9122463155
  0
LWPOLYLINE
  5
5FB
100
AcDbEntity
  8
RACCORDO
100
AcDbPolyline
 62
250
  6
CONTINUOUS
 90
70
 70
0
 10
163.7629000585
 20
138.3697203021
 10
163.7177453496
 20
138.3918579064
 10
163.6703201868
 20
138.4137793689
 10
163.6206245702
 20
138.4354846898
 10
163.5689221407
 20
138.4569689477
 10
163.5149492574
 20
138.478237064
 10
163.4579149971
 20
138.4993038022
 10
163.397747213
 20
138.5202474346
 10
163.334518052
 20
138.540989689
 10
163.267653032
 20
138.5613105126
 10
163.1971804111
 20
138.5812508052
 10
163.1230719311
 20
138.600769667
 10
163.0446683356
 20
138.6195243468
 10
162.9619349082
 20
138.6375806923
 10
162.8749063652
 20
138.6548728557
 10
162.7830275992
 20
138.6708605428
 10
162.6862210208
 20
138.685618691
 10
162.5845642194
 20
138.6990723629
 10
162.4777348547
 20
138.7104564525
 10
162.3655320885
 20
138.7198475219
 10
162.248156759
 20
138.727169009
 10
162.1258890416
 20
138.7314261212
 10
161.9981935723
 20
138.7326253571
 10
161.865605715
 20
138.7307602183
 10
161.7300117375
 20
138.7248164166
 10
161.5910479838
 20
138.7146622089
 10
161.4490781097
 20
138.7004293385
 10
161.3070793505
 20
138.681498747
 10
161.1649848856
 20
138.6576815444
 10
161.0228615355
 20
138.6291666209
 10
160.8838869969
 20
138.5959015884
 10
160.7481280872
 20
138.5576803283
 10
160.615517989
 20
138.5147089592
 10
160.4890339459
 20
138.4675534496
 10
160.3689186899
 20
138.4160374331
 10
160.2549294891
 20
138.3603372761
 10
160.1493153914
 20
138.3015480453
 10
160.0524283358
 20
138.23954548
 10
159.9639163834
 20
138.174453841
 10
159.8849727655
 20
138.107740977
 10
159.8160157813
 20
138.0393714575
 10
159.7566271316
 20
137.969380713
 10
159.7067451502
 20
137.8993428839
 10
159.6667535591
 20
137.8292899204
 10
159.6362686364
 20
137.7591898724
 10
159.6140775491
 20
137.6905210295
 10
159.6004507024
 20
137.623460796
 10
159.5951176913
 20
137.5578317675
 10
159.5960544679
 20
137.4945800211
 10
159.6032575521
 20
137.4339659112
 10
159.6167304241
 20
137.3757290834
 10
159.6344594763
 20
137.3200345507
 10
159.6562924671
 20
137.2669878913
 10
159.6823816381
 20
137.2164835271
 10
159.7111701065
 20
137.1683697373
 10
159.7425067944
 20
137.1226855201
 10
159.7765427797
 20
137.0793918773
 10
159.8121744136
 20
137.0382200927
 10
159.8492687482
 20
136.9991880404
 10
159.8879587313
 20
136.9622778462
 10
159.9275395576
 20
136.9271671723
 10
159.9679246303
 20
136.8938445556
 10
160.0092005461
 20
136.8623214591
 10
160.0509222905
 20
136.8323099337
 10
160.0929436257
 20
136.8038397225
 10
160.1354107895
 20
136.7768810824
 10
160.1783174813
 20
136.7510568348
 10
160.2216616007
 20
136.7262412535
 10
160.265445248
 20
136.7025600647
 10
160.3096684233
 20
136.6800132685
  0
LWPOLYLINE
  5
5FC
100
AcDbEntity
  8
RACCORDO
100
AcDbPolyline
 62
250
  6
CONTINUOUS
 90
70
 70
0
 10
160.2273661526
 20
140.1374872551
 10
160.1822114437
 20
140.1596248593
 10
160.1347862809
 20
140.1815463219
 10
160.0850906643
 20
140.2032516428
 10
160.0333882348
 20
140.2247359007
 10
159.9794153514
 20
140.2460040169
 10
159.9223810912
 20
140.2670707552
 10
159.8622133071
 20
140.2880143876
 10
159.7989841461
 20
140.3087566419
 10
159.7321191261
 20
140.3290774656
 10
159.6616465051
 20
140.3490177581
 10
159.5875380252
 20
140.36853662
 10
159.5091344297
 20
140.3872912998
 10
159.4264010023
 20
140.4053476452
 10
159.3393724593
 20
140.4226398086
 10
159.2474936932
 20
140.4386274958
 10
159.1506871149
 20
140.4533856439
 10
159.0490303134
 20
140.4668393159
 10
158.9422009488
 20
140.4782234055
 10
158.8299981825
 20
140.4876144749
 10
158.7126228531
 20
140.4949359619
 10
158.5903551357
 20
140.4991930742
 10
158.4626596663
 20
140.5003923101
 10
158.3300718091
 20
140.4985271712
 10
158.1944778315
 20
140.4925833696
 10
158.0555140778
 20
140.4824291619
 10
157.9135442038
 20
140.4681962914
 10
157.7715454446
 20
140.4492657
 10
157.6294509797
 20
140.4254484974
 10
157.4873276296
 20
140.3969335738
 10
157.3483530909
 20
140.3636685414
 10
157.2125941813
 20
140.3254472812
 10
157.079984083
 20
140.2824759122
 10
156.95350004
 20
140.2353204025
 10
156.833384784
 20
140.1838043861
 10
156.7193955831
 20
140.1281042291
 10
156.6137814855
 20
140.0693149982
 10
156.5168944299
 20
140.007312433
 10
156.4283824775
 20
139.942220794
 10
156.3494388596
 20
139.87550793
 10
156.2804818754
 20
139.8071384104
 10
156.2210932257
 20
139.7371476659
 10
156.1712112442
 20
139.6671098368
 10
156.1312196532
 20
139.5970568734
 10
156.1007347304
 20
139.5269568254
 10
156.0785436432
 20
139.4582879825
 10
156.0649167965
 20
139.3912277489
 10
156.0595837853
 20
139.3255987205
 10
156.0605205619
 20
139.2623469741
 10
156.0677236462
 20
139.2017328642
 10
156.0811965182
 20
139.1434960363
 10
156.0989255703
 20
139.0878015037
 10
156.1207585611
 20
139.0347548443
 10
156.1468477321
 20
138.9842504801
 10
156.1756362006
 20
138.9361366902
 10
156.2069728885
 20
138.8904524731
 10
156.2410088738
 20
138.8471588303
 10
156.2766405077
 20
138.8059870457
 10
156.3137348422
 20
138.7669549933
 10
156.3524248254
 20
138.7300447992
 10
156.3920056517
 20
138.6949341253
 10
156.4323907243
 20
138.6616115085
 10
156.4736666401
 20
138.630088412
 10
156.5153883846
 20
138.6000768866
 10
156.5574097198
 20
138.5716066754
 10
156.5998768836
 20
138.5446480353
 10
156.6427835753
 20
138.5188237878
 10
156.6861276947
 20
138.4940082065
 10
156.7299113421
 20
138.4703270177
 10
156.7741345174
 20
138.4477802215
  0
LINE
  5
5FD
100
AcDbEntity
  8
RACCORDO
100
AcDbLine
 62
250
  6
CONTINUOUS
 10
190.7035400789
 20
126.0770335137
 11
190.7035400789
 21
95.26401826
  0
LWPOLYLINE
  5
5FE
100
AcDbEntity
  8
RACCORDO
100
AcDbPolyline
 62
250
  6
CONTINUOUS
 90
10
 70
0
 10
190.9842002785
 20
126.4243626988
 10
190.9811932197
 20
126.3856164884
 10
190.9708040946
 20
126.3427953799
 10
190.9530721478
 20
126.300581338
 10
190.9281293494
 20
126.2592885417
 10
190.8961613371
 20
126.2192243137
 10
190.8574060333
 20
126.180686833
 10
190.8121518754
 20
126.1439629156
 10
190.7607356685
 20
126.1093258802
 10
190.7035400789
 20
126.0770335137
  0
LWPOLYLINE
  5
5FF
100
AcDbEntity
  8
RACCORDO
100
AcDbPolyline
 62
7
  6
CONTINUOUS
 90
6
 70
0
 10
190.1207162148
 20
94.3702694398
 10
190.1697239916
 20
94.397733867
 10
190.2169864802
 20
94.4275608311
 10
190.2626385951
 20
94.4598032112
 10
190.3066062912
 20
94.4944075551
 10
190.3219529858
 20
94.507386704
  0
LINE
  5
600
100
AcDbEntity
  8
DRAFT
100
AcDbLine
 62
7
  6
CONTINUOUS
 10
173.9063361613
 20
85.6681049609
 11
169.8484891796
 21
83.5217768676
  0
LINE
  5
601
100
AcDbEntity
  8
RACCORDO
100
AcDbLine
 62
250
  6
CONTINUOUS
 10
190.2071664922
 20
94.4292110207
 11
174.546753265
 21
86.1811146125
  0
LINE
  5
602
100
AcDbEntity
  8
RACCORDO
100
AcDbLine
 62
7
  6
CONTINUOUS
 10
174.5035860322
 20
86.1443530321
 11
190.1208511125
 21
94.3703412696
  0
LINE
  5
603
100
AcDbEntity
  8
RACCORDO
100
AcDbLine
 62
250
  6
CONTINUOUS
 10
169.8484891796
 20
83.8330033646
 11
190.4982562798
 21
94.6889614859
  0
LINE
  5
604
100
AcDbEntity
  8
RACCORDO
100
AcDbLine
 62
7
  6
CONTINUOUS
 10
173.5164956526
 20
85.0777516831
 11
169.8484891796
 21
83.2366165557
  0
LINE
  5
605
100
AcDbEntity
  8
RACCORDO
100
AcDbLine
 62
7
  6
CONTINUOUS
 10
174.4042019385
 20
85.6416530026
 11
169.8484891796
 21
83.381985889
  0
LWPOLYLINE
  5
606
100
AcDbEntity
  8
RACCORDO
100
AcDbPolyline
 62
250
  6
CONTINUOUS
 90
16
 70
0
 10
162.9517358248
 20
78.7526362235
 10
162.9127267977
 20
78.7338226186
 10
162.8704144773
 20
78.7171374198
 10
162.8252522047
 20
78.7027593952
 10
162.7777238559
 20
78.6908425931
 10
162.7283386574
 20
78.6815146923
 10
162.6776257302
 20
78.6748756333
 10
162.6261284209
 20
78.6709965482
 10
162.5743984802
 20
78.669918998
 10
162.522990151
 20
78.6716545279
 10
162.4724542307
 20
78.6761845431
 10
162.4233321693
 20
78.6834605083
 10
162.3761502686
 20
78.6934044674
 10
162.3314140432
 20
78.7059098792
 10
162.2896028044
 20
78.7208427587
 10
162.2511645246
 20
78.7380431125
  0
LWPOLYLINE
  5
607
100
AcDbEntity
  8
ASSI
100
AcDbPolyline
 62
7
  6
CONTINUOUS
 90
4
 70
0
 10
148.2920440955
 20
135.9179842463
 10
148.2725663104
 20
135.9132661796
 10
148.250697367
 20
135.9071308049
 10
148.2265992464
 20
135.8996717327
  0
LWPOLYLINE
  5
608
100
AcDbEntity
  8
ASSI
100
AcDbPolyline
 62
7
  6
CONTINUOUS
 90
3
 70
0
 10
147.6231239715
 20
136.2028504879
 10
147.6494259508
 20
136.20901379
 10
147.6776490387
 20
136.2117717528
  0
LWPOLYLINE
  5
609
100
AcDbEntity
  8
RACCORDO
100
AcDbPolyline
 62
250
  6
CONTINUOUS
 90
9
 70
0
 10
190.011169899
 20
128.0903156484
 10
189.9726200336
 20
128.1069670477
 10
189.9210670442
 20
128.1219114719
 10
189.8668262946
 20
128.1298863289
 10
189.8103060176
 20
128.1308315892
 10
189.7519316062
 20
128.1247401313
 10
189.692142407
 20
128.1116577955
 10
189.631388413
 20
128.0916830379
 10
189.5701268806
 20
128.0649661895
  0
LWPOLYLINE
  5
60A
100
AcDbEntity
  8
RACCORDO
100
AcDbPolyline
 62
7
  6
CONTINUOUS
 90
14
 70
0
 10
161.3277064857
 20
142.4320420901
 10
161.2598624519
 20
142.4632228764
 10
161.1832859125
 20
142.4922726791
 10
161.1055473496
 20
142.5155155895
 10
161.026961357
 20
142.5329550921
 10
160.9476516549
 20
142.544620365
 10
160.8681484286
 20
142.550468587
 10
160.7889096738
 20
142.5505312299
 10
160.7100245228
 20
142.5448530637
 10
160.6320042662
 20
142.5334895049
 10
160.5553191806
 20
142.516544673
 10
160.4800312507
 20
142.4940456481
 10
160.4064830595
 20
142.4660717032
 10
160.3641814185
 20
142.4471005707
  0
LWPOLYLINE
  5
60B
100
AcDbEntity
  8
RACCORDO
100
AcDbPolyline
 62
250
  6
CONTINUOUS
 90
11
 70
0
 10
190.8372380052
 20
127.0157050402
 10
190.8365167102
 20
127.0160405635
 10
190.8300257885
 20
127.014642242
 10
190.816985144
 20
127.0098186977
 10
190.7974918179
 20
127.0016058224
 10
190.771690878
 20
126.9900647343
 10
190.7397743361
 20
126.9752813218
 10
190.7019797216
 20
126.957365605
 10
190.6585883167
 20
126.9364509192
 10
190.6099230581
 20
126.9126929195
 10
190.4982562794
 20
126.8573740877
  0
LINE
  5
60C
100
AcDbEntity
  8
RACCORDO
100
AcDbLine
 62
250
  6
CONTINUOUS
 10
160.887215737
 20
142.4064217613
 11
189.5701268811
 21
128.0649661892
  0
LINE
  5
60D
100
AcDbEntity
  8
RACCORDO
100
AcDbLine
 62
7
  6
CONTINUOUS
 10
161.3277083619
 20
142.432045853
 11
190.011169899
 21
128.0903156484
  0
LINE
  5
60E
100
AcDbEntity
  8
RACCORDO
100
AcDbLine
 62
7
  6
CONTINUOUS
 10
190.0114962658
 20
128.0901522665
 11
190.011169899
 21
128.0903156484
  0
LWPOLYLINE
  5
60F
100
AcDbEntity
  8
RACCORDO
100
AcDbPolyline
 62
250
  6
CONTINUOUS
 90
16
 70
0
 10
189.5701268401
 20
128.0649604769
 10
189.6181383156
 20
128.0399336065
 10
189.6659892436
 20
128.0117272988
 10
189.713512547
 20
127.9804316852
 10
189.7605577758
 20
127.9461498196
 10
189.8069846661
 20
127.9089921353
 10
189.8526509527
 20
127.8690668783
 10
189.8974186306
 20
127.8264905899
 10
189.9411500334
 20
127.7814047068
 10
189.9837034617
 20
127.7339547676
 10
190.0249415968
 20
127.6842879394
 10
190.0647381134
 20
127.6325563651
 10
190.1029741708
 20
127.578917402
 10
190.1395329663
 20
127.5235304721
 10
190.1742997122
 20
127.4665624139
 10
190.2071615666
 20
127.4082113888
  0
LWPOLYLINE
  5
610
100
AcDbEntity
  8
RACCORDO
100
AcDbPolyline
 62
7
  6
CONTINUOUS
 90
9
 70
0
 10
190.9841956109
 20
126.424508517
 10
190.9812020438
 20
126.5097576244
 10
190.9724852411
 20
126.5935225376
 10
190.9579814478
 20
126.677444272
 10
190.9377063588
 20
126.7610187219
 10
190.9120235371
 20
126.8428285384
 10
190.881088954
 20
126.922722666
 10
190.8444974087
 20
127.0015228602
 10
190.8372335255
 20
127.0157027112
  0
LINE
  5
611
100
AcDbEntity
  8
RACCORDO
100
AcDbLine
 62
7
  6
CONTINUOUS
 10
190.984200236
 20
126.4245085179
 11
190.9842002785
 21
95.6113474634
  0
LINE
  5
612
100
AcDbEntity
  8
RACCORDO
100
AcDbLine
 62
7
  6
CONTINUOUS
 10
190.9842002785
 20
95.6113474634
 11
190.984200229
 21
95.6111901547
  0
LWPOLYLINE
  5
613
100
AcDbEntity
  8
RACCORDO
100
AcDbPolyline
 62
250
  6
CONTINUOUS
 90
9
 70
0
 10
190.7035340147
 20
95.264021189
 10
190.7022904323
 20
95.2034104486
 10
190.6980405604
 20
95.1444501243
 10
190.6907908098
 20
95.0873800329
 10
190.6805656429
 20
95.0324135006
 10
190.6674106572
 20
94.9797312103
 10
190.6513722336
 20
94.929511583
 10
190.6324992216
 20
94.8819311977
 10
190.6108595182
 20
94.8371493492
  0
LWPOLYLINE
  5
614
100
AcDbEntity
  8
RACCORDO
100
AcDbPolyline
 62
250
  6
CONTINUOUS
 90
10
 70
0
 10
190.984200229
 20
95.6111901547
 10
190.9811933508
 20
95.5726020964
 10
190.9708043581
 20
95.5297809406
 10
190.9530725184
 20
95.4875668263
 10
190.9281297911
 20
95.4462739347
 10
190.8961618038
 20
95.4062095922
 10
190.8574064734
 20
95.3676719847
 10
190.8121522322
 20
95.3309479336
 10
190.7607358797
 20
95.2963107615
 10
190.7035400789
 20
95.2640182609
  0
LWPOLYLINE
  5
615
100
AcDbEntity
  8
RACCORDO
100
AcDbPolyline
 62
7
  6
CONTINUOUS
 90
12
 70
0
 10
190.6291207196
 20
94.781506542
 10
190.6540496748
 20
94.8053182933
 10
190.7143003375
 20
94.8697677276
 10
190.7690777799
 20
94.9388225925
 10
190.8181284487
 20
95.012112102
 10
190.8614794551
 20
95.089741165
 10
190.8987671963
 20
95.1712952937
 10
190.9295758241
 20
95.2560869757
 10
190.9537738713
 20
95.3440311082
 10
190.9711146777
 20
95.4348365406
 10
190.9812945017
 20
95.5278189519
 10
190.9841955991
 20
95.6111901556
  0
LWPOLYLINE
  5
616
100
AcDbEntity
  8
RACCORDO
100
AcDbPolyline
 62
250
  6
CONTINUOUS
 90
3
 70
0
 10
190.4982562798
 20
94.6889614859
 10
190.4502406723
 20
94.644872953
 10
190.4020244319
 20
94.601102413
  0
LINE
  5
617
100
AcDbEntity
  8
RACCORDO
100
AcDbLine
 62
7
  6
CONTINUOUS
 10
190.5609671367
 20
94.7190248093
 11
190.6284158404
 21
94.7808391644
  0
LINE
  5
618
100
AcDbEntity
  8
RACCORDO
100
AcDbLine
 62
7
  6
CONTINUOUS
 10
190.4931516672
 20
94.6578140058
 11
190.5609671367
 21
94.7190248093
  0
LWPOLYLINE
  5
619
100
AcDbEntity
  8
RACCORDO
100
AcDbPolyline
 62
250
  6
CONTINUOUS
 90
5
 70
0
 10
190.4020244319
 20
94.601102413
 10
190.3536082242
 20
94.5576504111
 10
190.3049927175
 20
94.5145174882
 10
190.2561785824
 20
94.4717041807
 10
190.2071664922
 20
94.4292110207
  0
LWPOLYLINE
  5
61A
100
AcDbEntity
  8
RACCORDO
100
AcDbPolyline
 62
250
  6
CONTINUOUS
 90
4
 70
0
 10
190.6284158404
 20
94.7808391644
 10
190.6099225395
 20
94.7644472799
 10
190.5563458322
 20
94.7237580867
 10
190.4982562798
 20
94.6889614859
  0
LINE
  5
61B
100
AcDbEntity
  8
RACCORDO
100
AcDbLine
 62
7
  6
CONTINUOUS
 10
190.4249714734
 20
94.5972077961
 11
190.4931516672
 21
94.6578140058
  0
LWPOLYLINE
  5
61C
100
AcDbEntity
  8
RACCORDO
100
AcDbPolyline
 62
7
  6
CONTINUOUS
 90
3
 70
0
 10
190.3220212983
 20
94.5074338992
 10
190.3564283006
 20
94.5372069442
 10
190.4249714734
 20
94.5972077961
  0
LWPOLYLINE
  5
61D
100
AcDbEntity
  8
RACCORDO
100
AcDbPolyline
 62
250
  6
CONTINUOUS
 90
3
 70
0
 10
190.2071615667
 20
94.4292186712
 10
190.1742997126
 20
94.4033755283
 10
190.140276302
 20
94.3812310999
  0
LWPOLYLINE
  5
61E
100
AcDbEntity
  8
RACCORDO
100
AcDbPolyline
 62
250
  6
CONTINUOUS
 90
3
 70
0
 10
190.3219587754
 20
94.5073800126
 10
190.2653096923
 20
94.4640554422
 10
190.2071664924
 20
94.4292110208
  0
LWPOLYLINE
  5
61F
100
AcDbEntity
  8
RACCORDO
100
AcDbPolyline
 62
7
  6
CONTINUOUS
 90
8
 70
0
 10
168.7233024549
 20
78.5596277219
 10
168.7356251626
 20
78.5671988685
 10
168.7508837157
 20
78.5808738953
 10
168.7637674612
 20
78.5980159627
 10
168.774055967
 20
78.6183317793
 10
168.7815732023
 20
78.6414737512
 10
168.7861905496
 20
78.6670459291
 10
168.7878290078
 20
78.6946107849
  0
LWPOLYLINE
  5
620
100
AcDbEntity
  8
RACCORDO
100
AcDbPolyline
 62
250
  6
CONTINUOUS
 90
8
 70
0
 10
169.252408142
 20
78.8310580333
 10
169.2642660606
 20
78.8382915623
 10
169.2796440524
 20
78.8519339038
 10
169.2925769418
 20
78.8690624155
 10
169.302838342
 20
78.8893738352
 10
169.3102529616
 20
78.9125115503
 10
169.314696822
 20
78.9380753468
 10
169.3160961796
 20
78.9656218435
  0
LWPOLYLINE
  5
621
100
AcDbEntity
  8
RACCORDO
100
AcDbPolyline
 62
250
  6
CONTINUOUS
 90
8
 70
0
 10
167.1202866244
 20
77.7787255591
 10
167.1348206453
 20
77.7875116884
 10
167.1501210239
 20
77.8014107924
 10
167.1630012525
 20
77.8188205466
 10
167.1731772222
 20
77.8392883859
 10
167.1805159725
 20
77.86234641
 10
167.1849778989
 20
77.8875968122
 10
167.186548217
 20
77.9145761852
  0
LINE
  5
622
100
AcDbEntity
  8
RACCORDO
100
AcDbLine
 62
250
  6
CONTINUOUS
 10
169.3160961796
 20
78.9656218435
 11
168.7878290078
 21
78.6946107849
  0
LINE
  5
623
100
AcDbEntity
  8
RACCORDO
100
AcDbLine
 62
7
  6
CONTINUOUS
 10
169.252408142
 20
78.8310580333
 11
168.723307481
 21
78.5596193789
  0
LINE
  5
624
100
AcDbEntity
  8
RACCORDO
100
AcDbLine
 62
7
  6
CONTINUOUS
 10
168.7215674709
 20
78.5587601858
 11
168.7233024549
 21
78.5596277219
  0
LINE
  5
625
100
AcDbEntity
  8
RACCORDO
100
AcDbLine
 62
250
  6
CONTINUOUS
 10
169.233312942
 20
80.6031365696
 11
169.8484891796
 21
80.9066332814
  0
LINE
  5
626
100
AcDbEntity
  8
RACCORDO
100
AcDbLine
 62
7
  6
CONTINUOUS
 10
169.0986683438
 20
80.3303615264
 11
169.7176169119
 21
80.6357193145
  0
LINE
  5
627
100
AcDbEntity
  8
RACCORDO
100
AcDbLine
 62
250
  6
CONTINUOUS
 10
168.7878290078
 20
78.6946107849
 11
167.186548217
 21
77.9145761852
  0
LINE
  5
628
100
AcDbEntity
  8
RACCORDO
100
AcDbLine
 62
7
  6
CONTINUOUS
 10
168.7215674709
 20
78.5587601858
 11
167.1202866244
 21
77.7787255591
  0
LINE
  5
629
100
AcDbEntity
  8
RACCORDO
100
AcDbLine
 62
7
  6
CONTINUOUS
 10
169.0986660721
 20
80.3303604057
 11
169.0882796551
 21
80.3256238477
  0
LINE
  5
62A
100
AcDbEntity
  8
RACCORDO
100
AcDbLine
 62
250
  6
CONTINUOUS
 10
163.6329234842
 20
78.2523205553
 11
169.233312942
 21
80.6031365696
  0
LINE
  5
62B
100
AcDbEntity
  8
RACCORDO
100
AcDbLine
 62
7
  6
CONTINUOUS
 10
163.4791162393
 20
77.9711248572
 11
169.0882793188
 21
80.3256236815
  0
LWPOLYLINE
  5
62C
100
AcDbEntity
  8
RACCORDO
100
AcDbPolyline
 62
250
  6
CONTINUOUS
 90
9
 70
0
 10
161.3277083619
 20
142.432045853
 10
161.2897081444
 20
142.4484228954
 10
161.2381551704
 20
142.4633672057
 10
161.1839144687
 20
142.4713419607
 10
161.1273942728
 20
142.4722871397
 10
161.0690199721
 20
142.4661956289
 10
161.009230911
 20
142.4531132751
 10
160.9484770815
 20
142.4331385405
 10
160.887215737
 20
142.4064217613
  0
LWPOLYLINE
  5
62D
100
AcDbEntity
  8
RACCORDO
100
AcDbPolyline
 62
250
  6
CONTINUOUS
 90
12
 70
0
 10
190.5500993986
 20
127.5590681078
 10
190.5491377763
 20
127.5598584667
 10
190.5419915919
 20
127.5596996764
 10
190.52834902
 20
127.5560147595
 10
190.508311596
 20
127.5488311409
 10
190.4820284488
 20
127.5382022851
 10
190.4496951913
 20
127.5242072975
 10
190.4115524647
 20
127.5069503362
 10
190.3678841469
 20
127.4865598364
 10
190.3190152405
 20
127.463187555
 10
190.2653094534
 20
127.4370074407
 10
190.2071664922
 20
127.4082143396
  0
LWPOLYLINE
  5
62E
100
AcDbEntity
  8
RACCORDO
100
AcDbPolyline
 62
250
  6
CONTINUOUS
 90
5
 70
0
 10
190.6108595182
 20
94.8371493492
 10
190.5865299783
 20
94.7953166775
 10
190.5595871311
 20
94.7565837067
 10
190.5301193201
 20
94.7210939502
 10
190.4982497964
 20
94.688971259
  0
LWPOLYLINE
  5
62F
100
AcDbEntity
  8
RACCORDO
100
AcDbPolyline
 62
7
  6
CONTINUOUS
 90
12
 70
0
 10
190.5500959751
 20
127.5590662688
 10
190.542501749
 20
127.5730054412
 10
190.5013404421
 20
127.6424141129
 10
190.4566589116
 20
127.7082664024
 10
190.4081274013
 20
127.77118091
 10
190.3558073455
 20
127.8309889163
 10
190.3005032516
 20
127.886801485
 10
190.2424792775
 20
127.9384607378
 10
190.1815118108
 20
127.9862020918
 10
190.1180481578
 20
128.0296610599
 10
190.0524259094
 20
128.0686386726
 10
190.0114943899
 20
128.090148514
  0
LINE
  5
630
100
AcDbEntity
  8
RACCORDO
100
AcDbLine
 62
250
  6
CONTINUOUS
 10
190.2071664922
 20
127.4082143396
 11
190.3049931643
 21
127.225080807
  0
LINE
  5
631
100
AcDbEntity
  8
RACCORDO
100
AcDbLine
 62
7
  6
CONTINUOUS
 10
190.6466098501
 20
127.3783985722
 11
190.5501030259
 21
127.5590613971
  0
LINE
  5
632
100
AcDbEntity
  8
RACCORDO
100
AcDbLine
 62
250
  6
CONTINUOUS
 10
190.3049931643
 20
127.225080807
 11
190.402024875
 21
127.0414641657
  0
LINE
  5
633
100
AcDbEntity
  8
RACCORDO
100
AcDbLine
 62
7
  6
CONTINUOUS
 10
190.7423238024
 20
127.1972754231
 11
190.6466098501
 21
127.3783985722
  0
LINE
  5
634
100
AcDbEntity
  8
RACCORDO
100
AcDbLine
 62
250
  6
CONTINUOUS
 10
190.402024875
 20
127.0414641657
 11
190.4982562798
 21
126.8573740869
  0
LINE
  5
635
100
AcDbEntity
  8
RACCORDO
100
AcDbLine
 62
7
  6
CONTINUOUS
 10
190.8372400742
 20
127.015701112
 11
190.7423238024
 21
127.1972754231
  0
LWPOLYLINE
  5
636
100
AcDbEntity
  8
RACCORDO
100
AcDbPolyline
 62
250
  6
CONTINUOUS
 90
13
 70
0
 10
190.4982497964
 20
126.8573705054
 10
190.53011932
 20
126.7938789505
 10
190.559587131
 20
126.7293313454
 10
190.5865299782
 20
126.6639747933
 10
190.610859518
 20
126.5980415678
 10
190.6324992215
 20
126.5317583073
 10
190.6513722335
 20
126.4653512615
 10
190.6674106571
 20
126.3990467734
 10
190.6805656429
 20
126.3330711199
 10
190.6907908098
 20
126.2676504034
 10
190.6980405604
 20
126.2030113366
 10
190.7022904323
 20
126.1393912736
 10
190.7035340147
 20
126.0770364408
  0
ARC
  5
637
100
AcDbEntity
  8
RACCORDO
100
AcDbCircle
 62
7
  6
CONTINUOUS
 10
152.3215001084
 20
127.3276806865
 40
0.25
100
AcDbArc
 50
117.1586821941
 51
179.9961222374
  0
ARC
  5
638
100
AcDbEntity
  8
RACCORDO
100
AcDbCircle
 62
7
  6
CONTINUOUS
 10
152.3215001084
 20
126.9877067524
 40
0.25
100
AcDbArc
 50
179.9936245374
 51
243.4636157581
  0
ARC
  5
639
100
AcDbEntity
  8
RACCORDO
100
AcDbCircle
 62
7
  6
CONTINUOUS
 10
151.1009003759
 20
127.5980066186
 40
0.25
100
AcDbArc
 50
243.4329362748
 51
258.2060367178
  0
ARC
  5
63A
100
AcDbEntity
  8
RACCORDO
100
AcDbCircle
 62
7
  6
CONTINUOUS
 10
151.8910652993
 20
129.6717760172
 40
0.25
100
AcDbArc
 50
63.3939681258
 51
115.9721801256
  0
ARC
  5
63B
100
AcDbEntity
  8
RACCORDO
100
AcDbCircle
 62
7
  6
CONTINUOUS
 10
149.7759156961
 20
128.6004728926
 40
0.25
100
AcDbArc
 50
117.1619273217
 51
180.0
  0
ARC
  5
63C
100
AcDbEntity
  8
RACCORDO
100
AcDbCircle
 62
7
  6
CONTINUOUS
 10
149.7759156961
 20
128.2604989585
 40
0.25
100
AcDbArc
 50
179.9936245374
 51
243.4636157581
  0
ARC
  5
63D
100
AcDbEntity
  8
RACCORDO
100
AcDbCircle
 62
7
  6
CONTINUOUS
 10
139.8640732954
 20
135.6852720192
 40
0.25
100
AcDbArc
 50
0.0057333847
 51
63.4349488229
  0
ARC
  5
63E
100
AcDbEntity
  8
RACCORDO
100
AcDbCircle
 62
7
  6
CONTINUOUS
 10
139.8640732954
 20
135.3377405024
 40
0.25
100
AcDbArc
 50
320.6056474131
 51
0.0269518152
  0
ARC
  5
63F
100
AcDbEntity
  8
RACCORDO
100
AcDbCircle
 62
7
  6
CONTINUOUS
 10
138.5267471349
 20
136.3539350994
 40
0.25
100
AcDbArc
 50
63.4349488229
 51
116.0140441013
  0
ARC
  5
640
100
AcDbEntity
  8
RACCORDO
100
AcDbCircle
 62
7
  6
CONTINUOUS
 10
136.4115975317
 20
135.2826319749
 40
0.25
100
AcDbArc
 50
117.1586821941
 51
179.9961222374
  0
ARC
  5
641
100
AcDbEntity
  8
RACCORDO
100
AcDbCircle
 62
7
  6
CONTINUOUS
 10
136.4115975317
 20
134.9426580407
 40
0.25
100
AcDbArc
 50
179.9936245374
 51
243.4636157581
  0
ARC
  5
642
100
AcDbEntity
  8
RACCORDO
100
AcDbCircle
 62
7
  6
CONTINUOUS
 10
137.7365822115
 20
134.2801657008
 40
0.25
100
AcDbArc
 50
243.4329362748
 51
258.2060367178
  0
ARC
  5
643
100
AcDbEntity
  8
RACCORDO
100
AcDbCircle
 62
7
  6
CONTINUOUS
 10
169.1382940366
 20
79.4010259925
 40
0.25
100
AcDbArc
 50
0.0
 51
63.4685586813
  0
ARC
  5
644
100
AcDbEntity
  8
RACCORDO
100
AcDbCircle
 62
7
  6
CONTINUOUS
 10
169.1382940366
 20
79.0534944757
 40
0.25
100
AcDbArc
 50
297.1142375395
 51
359.9691467506
  0
ARC
  5
645
100
AcDbEntity
  8
RACCORDO
100
AcDbCircle
 62
7
  6
CONTINUOUS
 10
167.0108029526
 20
78.0034772567
 40
0.25
100
AcDbArc
 50
243.4343157376
 51
295.9714310238
  0
ARC
  5
646
100
AcDbEntity
  8
RACCORDO
100
AcDbCircle
 62
7
  6
CONTINUOUS
 10
165.6858182728
 20
78.6659695967
 40
0.25
100
AcDbArc
 50
180.0
 51
243.4303575621
  0
ARC
  5
647
100
AcDbEntity
  8
0
100
AcDbCircle
 62
7
  6
CONTINUOUS
 10
160.7140940898
 20
128.6106431642
 40
0.3
100
AcDbArc
 50
3.2683143379
 51
63.4593707248
  0
ARC
  5
648
100
AcDbEntity
  8
0
100
AcDbCircle
 62
7
  6
CONTINUOUS
 10
157.3680544917
 20
130.2836629632
 40
0.3
100
AcDbArc
 50
63.4274812307
 51
116.5650511771
  0
ARC
  5
649
100
AcDbEntity
  8
0
100
AcDbCircle
 62
7
  6
CONTINUOUS
 10
153.1961244827
 20
133.2224297148
 40
0.3
100
AcDbArc
 50
63.4283986265
 51
109.185557128
  0
ARC
  5
64A
100
AcDbEntity
  8
0
100
AcDbCircle
 62
7
  6
CONTINUOUS
 10
167.691813497
 20
125.9745852076
 40
0.3
100
AcDbArc
 50
63.4283986265
 51
109.185557128
  0
ARC
  5
64B
100
AcDbEntity
  8
RACCORDO
100
AcDbCircle
 62
7
  6
CONTINUOUS
 10
165.6858182728
 20
120.3055476702
 40
0.25
100
AcDbArc
 50
179.9936245374
 51
243.4636157581
  0
ARC
  5
64C
100
AcDbEntity
  8
RACCORDO
100
AcDbCircle
 62
7
  6
CONTINUOUS
 10
167.0108029526
 20
119.6430553303
 40
0.25
100
AcDbArc
 50
243.4329362748
 51
258.2060367178
  0
ARC
  5
64D
100
AcDbEntity
  8
RACCORDO
100
AcDbCircle
 62
7
  6
CONTINUOUS
 10
165.6858182728
 20
120.6455216043
 40
0.25
100
AcDbArc
 50
117.1619273217
 51
180.0
  0
ARC
  5
64E
100
AcDbEntity
  8
RACCORDO
100
AcDbCircle
 62
7
  6
CONTINUOUS
 10
167.800967876
 20
121.7168247289
 40
0.25
100
AcDbArc
 50
63.3939681258
 51
115.9721801256
  0
ARC
  5
64F
100
AcDbEntity
  8
RACCORDO
100
AcDbCircle
 62
7
  6
CONTINUOUS
 10
169.1382940366
 20
121.0481616486
 40
0.25
100
AcDbArc
 50
0.0322430858
 51
63.4821974299
  0
ARC
  5
650
100
AcDbEntity
  8
RACCORDO
100
AcDbCircle
 62
7
  6
CONTINUOUS
 10
169.1382940366
 20
120.7006301319
 40
0.25
100
AcDbArc
 50
320.5877710598
 51
360.0
  0
ARC
  5
651
100
AcDbEntity
  8
RACCORDO
100
AcDbCircle
 62
7
  6
CONTINUOUS
 10
155.7739758721
 20
127.7303207308
 40
0.25
100
AcDbArc
 50
0.0057333847
 51
63.4349488229
  0
ARC
  5
652
100
AcDbEntity
  8
RACCORDO
100
AcDbCircle
 62
7
  6
CONTINUOUS
 10
155.7739758721
 20
127.3827892141
 40
0.25
100
AcDbArc
 50
320.6056474131
 51
0.0269518152
  0
ARC
  5
653
100
AcDbEntity
  8
RACCORDO
100
AcDbCircle
 62
7
  6
CONTINUOUS
 10
154.4366497116
 20
128.3989838111
 40
0.25
100
AcDbArc
 50
63.4349488229
 51
116.0140441013
  0
ARC
  5
654
100
AcDbEntity
  8
RACCORDO
100
AcDbCircle
 62
7
  6
CONTINUOUS
 10
153.6464847882
 20
126.3252144125
 40
0.25
100
AcDbArc
 50
243.4329362748
 51
258.2060367178
  0
ARC
  5
655
100
AcDbEntity
  8
RACCORDO
100
AcDbCircle
 62
7
  6
CONTINUOUS
 10
153.2283914599
 20
129.0031129369
 40
0.25
100
AcDbArc
 50
0.0322430858
 51
63.4821974299
  0
ARC
  5
656
100
AcDbEntity
  8
RACCORDO
100
AcDbCircle
 62
7
  6
CONTINUOUS
 10
153.2283914599
 20
128.6555814202
 40
0.25
100
AcDbArc
 50
320.5877710598
 51
360.0
  0
ELLIPSE
  5
657
100
AcDbEntity
  8
CURVE
100
AcDbEllipse
 62
250
  6
CONTINUOUS
 10
503.0522802342
 20
279.3993810494
 30
0.0
 11
499.3666179528
 21
308.6255427419
 31
0.0
 40
0.0815198604
 41
2.2998445662
 42
2.3043550094
  0
ELLIPSE
  5
658
100
AcDbEntity
  8
CURVE
100
AcDbEllipse
 62
250
  6
CONTINUOUS
 10
507.3022802342
 20
277.2743810494
 30
0.0
 11
-370.8956999625
 21
600.1218488205
 31
0.0
 40
0.5587454355
 41
1.512325029
 42
1.5144464028
  0
ELLIPSE
  5
659
100
AcDbEntity
  8
CURVE
100
AcDbEllipse
 62
250
  6
CONTINUOUS
 10
501.5522802342
 20
280.1493810494
 30
0.0
 11
499.3666179528
 21
308.6255427419
 31
0.0
 40
0.0815198604
 41
2.2977231924
 42
2.30585501
  0
ELLIPSE
  5
65A
100
AcDbEntity
  8
CURVE
100
AcDbEllipse
 62
250
  6
CONTINUOUS
 10
501.5522802342
 20
280.1493810494
 30
0.0
 11
-370.8956999625
 21
600.1218488205
 31
0.0
 40
0.5587454355
 41
1.5204568466
 42
1.5285886642
  0
ELLIPSE
  5
65B
100
AcDbEntity
  8
CURVE
100
AcDbEllipse
 62
250
  6
CONTINUOUS
 10
507.3022802342
 20
277.2743810494
 30
0.0
 11
499.3666179528
 21
308.6255427419
 31
0.0
 40
0.0815198604
 41
2.3118654538
 42
2.3139868276
  0
ELLIPSE
  5
65C
100
AcDbEntity
  8
CURVE
100
AcDbEllipse
 62
250
  6
CONTINUOUS
 10
503.0522802342
 20
279.3993810494
 30
0.0
 11
-370.8956999625
 21
600.1218488205
 31
0.0
 40
0.5587454355
 41
1.5219568472
 42
1.5264672904
  0
ELLIPSE
  5
65D
100
AcDbEntity
  8
RACCORDO
100
AcDbEllipse
 62
7
  6
CONTINUOUS
 10
174.0445320384
 20
122.6637291643
 30
0.0
 11
0.499996712
 21
0.0035883639
 31
0.0
 40
0.5053247124
 41
-0.7715714568
 42
-0.0036265857
  0
ELLIPSE
  5
65E
100
AcDbEntity
  8
RACCORDO
100
AcDbEllipse
 62
7
  6
CONTINUOUS
 10
158.1346294617
 20
130.6186804527
 30
0.0
 11
0.499996712
 21
0.0035883639
 31
0.0
 40
0.5053247124
 41
-0.7715714568
 42
-0.0036265857
  0
ELLIPSE
  5
65F
100
AcDbEntity
  8
DRAFT
100
AcDbEllipse
 62
7
  6
CONTINUOUS
 10
163.8027262005
 20
123.8606855502
 30
0.0
 11
0.9999934239
 21
0.0071767279
 31
0.0
 40
0.5053247124
 41
0.7817715775
 42
2.3525679043
  0
ELLIPSE
  5
660
100
AcDbEntity
  8
RACCORDO
100
AcDbEllipse
 62
7
  6
CONTINUOUS
 10
169.4948819329
 20
81.0833709548
 30
0.0
 11
-0.2236445579
 21
0.4471998343
 31
0.0
 40
0.6124778111
 41
-3.1449090158
 42
-2.255529033
  0
ELLIPSE
  5
661
100
AcDbEntity
  8
RACCORDO
100
AcDbEllipse
 62
7
  6
CONTINUOUS
 10
169.4948819329
 20
119.0152506637
 30
0.0
 11
-0.2237046003
 21
0.4472532382
 31
0.0
 40
0.6122950388
 41
-2.2557482655
 42
-0.6847996396
  0
ELLIPSE
  5
662
100
AcDbEntity
  8
RACCORDO
100
AcDbEllipse
 62
7
  6
CONTINUOUS
 10
158.1479348478
 20
125.2710095959
 30
0.0
 11
0.4999985559
 21
0.0023864752
 31
0.0
 40
0.5035541159
 41
2.3596088132
 42
3.0002042076
  0
ELLIPSE
  5
663
100
AcDbEntity
  8
RACCORDO
100
AcDbEllipse
 62
7
  6
CONTINUOUS
 10
142.2380322711
 20
133.2259608843
 30
0.0
 11
0.4999985559
 21
0.0023864752
 31
0.0
 40
0.5035541159
 41
2.3596088132
 42
3.0002042076
  0
ELLIPSE
  5
664
100
AcDbEntity
  8
RACCORDO
100
AcDbEllipse
 62
7
  6
CONTINUOUS
 10
146.5291117065
 20
136.3610484145
 30
0.0
 11
0.9987332359
 21
0.6172510855
 31
0.0
 40
0.0815198604
 41
0.0503394618
 42
0.7263320369
  0
ELLIPSE
  5
665
100
AcDbEntity
  8
RACCORDO
100
AcDbEllipse
 62
7
  6
CONTINUOUS
 10
174.0154590239
 20
122.0019533924
 30
0.0
 11
0.0886155504
 21
0.1792981373
 31
0.0
 40
0.6088015717
 41
-2.4538695918
 42
-0.8888910292
  0
ELLIPSE
  5
666
100
AcDbEntity
  8
RACCORDO
100
AcDbEllipse
 62
7
  6
CONTINUOUS
 10
162.4390142832
 20
128.4060971261
 30
0.0
 11
0.9987332359
 21
0.6172510855
 31
0.0
 40
0.0815198604
 41
0.0503394618
 42
0.7263320369
  0
ELLIPSE
  5
667
100
AcDbEntity
  8
RACCORDO
100
AcDbEllipse
 62
7
  6
CONTINUOUS
 10
174.2174049169
 20
85.5871188867
 30
0.0
 11
0.9987332359
 21
0.6172510855
 31
0.0
 40
0.0815198604
 41
-2.3978073241
 42
-1.2925747589
  0
ELLIPSE
  5
668
100
AcDbEntity
  8
DRAFT
100
AcDbEllipse
 62
7
  6
CONTINUOUS
 10
147.923978766
 20
134.8311890651
 30
0.0
 11
0.4279673669
 21
-0.0030279657
 31
0.0
 40
0.4946372042
 41
-0.7818985079
 42
0.0034996757
  0
ELLIPSE
  5
669
100
AcDbEntity
  8
RACCORDO
100
AcDbEllipse
 62
7
  6
CONTINUOUS
 10
174.2174049169
 20
122.5169018093
 30
0.0
 11
-0.7417913999
 21
1.2002436976
 31
0.0
 40
0.5587454355
 41
5.1188866155
 42
6.2241191807
  0
ELLIPSE
  5
66A
100
AcDbEntity
  8
DRAFT
100
AcDbEllipse
 62
7
  6
CONTINUOUS
 10
169.3888697718
 20
124.0987435622
 30
0.0
 11
0.4279673669
 21
-0.0030279657
 31
0.0
 40
0.4946372042
 41
-0.7760807437
 42
0.0034996735
  0
ELLIPSE
  5
66B
100
AcDbEntity
  8
DRAFT
100
AcDbEllipse
 62
7
  6
CONTINUOUS
 10
163.8338813427
 20
126.8762377768
 30
0.0
 11
0.4279673669
 21
-0.0030279657
 31
0.0
 40
0.4946372042
 41
-0.7818985079
 42
0.0034996757
  0
ELLIPSE
  5
66C
100
AcDbEntity
  8
DRAFT
100
AcDbEllipse
 62
7
  6
CONTINUOUS
 10
153.4789671951
 20
132.0536948506
 30
0.0
 11
0.4279673669
 21
-0.0030279657
 31
0.0
 40
0.4946372042
 41
-0.7760807437
 42
0.0034996735
  0
ELLIPSE
  5
66D
100
AcDbEntity
  8
RACCORDO
100
AcDbEllipse
 62
7
  6
CONTINUOUS
 10
158.3075023402
 20
130.4718530976
 30
0.0
 11
-0.7417913999
 21
1.2002436976
 31
0.0
 40
0.5587454355
 41
5.1188866155
 42
6.2241191807
  0
ELLIPSE
  5
66E
100
AcDbEntity
  8
RACCORDO
100
AcDbEllipse
 62
7
  6
CONTINUOUS
 10
174.0445320384
 20
85.3823708433
 30
0.0
 11
0.499366618
 21
0.3086255427
 31
0.0
 40
0.0815198604
 41
6.2328461996
 42
7.0007906979
  0
ELLIPSE
  5
66F
100
AcDbEntity
  8
RACCORDO
100
AcDbEllipse
 62
7
  6
CONTINUOUS
 10
169.8592666121
 20
119.258987684
 30
0.0
 11
30.5620697111
 21
17.056795564
 31
0.0
 40
0.0108183174
 41
7.8796907726
 42
7.9121677293
  0
ELLIPSE
  5
670
100
AcDbEntity
  8
RACCORDO
100
AcDbEllipse
 62
7
  6
CONTINUOUS
 10
163.6592419474
 20
121.2827464409
 30
0.0
 11
0.4998587701
 21
0.0223649649
 31
0.0
 40
0.5313301283
 41
-2.3799630874
 42
-0.8149845248
  0
ELLIPSE
  5
671
100
AcDbEntity
  8
RACCORDO
100
AcDbEllipse
 62
7
  6
CONTINUOUS
 10
163.6592419474
 20
122.5153560461
 30
0.0
 11
0.4999985559
 21
0.0023864752
 31
0.0
 40
0.5035541159
 41
-1.4342147631
 42
-0.7936193687
  0
ELLIPSE
  5
672
100
AcDbEntity
  8
RACCORDO
100
AcDbEllipse
 62
7
  6
CONTINUOUS
 10
158.1479348478
 20
124.0383999907
 30
0.0
 11
0.4998587701
 21
0.0223649649
 31
0.0
 40
0.5313301283
 41
3.1178240563
 42
3.9032222197
  0
ELLIPSE
  5
673
100
AcDbEntity
  8
RACCORDO
100
AcDbEllipse
 62
7
  6
CONTINUOUS
 10
147.7493393707
 20
129.2376977293
 30
0.0
 11
0.4998587701
 21
0.0223649649
 31
0.0
 40
0.5313301283
 41
-2.3799630874
 42
-0.8149845248
  0
ELLIPSE
  5
674
100
AcDbEntity
  8
RACCORDO
100
AcDbEllipse
 62
7
  6
CONTINUOUS
 10
158.1346294617
 20
131.5565808007
 30
0.0
 11
-0.3708957
 21
0.6001218488
 31
0.0
 40
0.5587454355
 41
-3.1744788413
 42
-2.2730822346
  0
ELLIPSE
  5
675
100
AcDbEntity
  8
RACCORDO
100
AcDbEllipse
 62
7
  6
CONTINUOUS
 10
147.7493393707
 20
130.4703073345
 30
0.0
 11
0.4999985559
 21
0.0023864752
 31
0.0
 40
0.5035541159
 41
-1.4342147631
 42
-0.7936193687
  0
ELLIPSE
  5
676
100
AcDbEntity
  8
RACCORDO
100
AcDbEllipse
 62
7
  6
CONTINUOUS
 10
142.2380322711
 20
131.9933512791
 30
0.0
 11
0.4998587701
 21
0.0223649649
 31
0.0
 40
0.5313301283
 41
3.1178240563
 42
3.9032222197
  0
ELLIPSE
  5
677
100
AcDbEntity
  8
RACCORDO
100
AcDbEllipse
 62
7
  6
CONTINUOUS
 10
174.0445320384
 20
123.6016295124
 30
0.0
 11
-0.3708957
 21
0.6001218488
 31
0.0
 40
0.5587454355
 41
-3.1744788413
 42
-2.2730822346
  0
ELLIPSE
  5
678
100
AcDbEntity
  8
RACCORDO
100
AcDbEllipse
 62
7
  6
CONTINUOUS
 10
137.114590486
 20
133.9907022346
 30
0.0
 11
0.249929385
 21
0.0111824824
 31
0.0
 40
0.5313301283
 41
3.117824352
 42
3.9032222197
  0
ELLIPSE
  5
679
100
AcDbEntity
  8
RACCORDO
100
AcDbEllipse
 62
7
  6
CONTINUOUS
 10
138.4478028196
 20
133.3240960678
 30
0.0
 11
0.249929385
 21
0.0111824824
 31
0.0
 40
0.5313301283
 41
-2.3799630874
 42
-0.8149845248
  0
ELLIPSE
  5
67A
100
AcDbEntity
  8
RACCORDO
100
AcDbEllipse
 62
7
  6
CONTINUOUS
 10
150.4789086504
 20
127.3085431524
 30
0.0
 11
0.249929385
 21
0.0111824824
 31
0.0
 40
0.5313301283
 41
3.1178240563
 42
3.9032222197
  0
ELLIPSE
  5
67B
100
AcDbEntity
  8
RACCORDO
100
AcDbEllipse
 62
7
  6
CONTINUOUS
 10
151.812120984
 20
126.6419369856
 30
0.0
 11
0.249929385
 21
0.0111824824
 31
0.0
 40
0.5313301283
 41
-2.3799630874
 42
-0.8149845248
  0
ELLIPSE
  5
67C
100
AcDbEntity
  8
RACCORDO
100
AcDbEllipse
 62
7
  6
CONTINUOUS
 10
167.7220235607
 20
118.6869856972
 30
0.0
 11
0.249929385
 21
0.0111824824
 31
0.0
 40
0.5313301283
 41
-2.3799630874
 42
-1.3352760237
  0
ELLIPSE
  5
67D
100
AcDbEntity
  8
RACCORDO
100
AcDbEllipse
 62
7
  6
CONTINUOUS
 10
166.3888112271
 20
119.353591864
 30
0.0
 11
0.249929385
 21
0.0111824824
 31
0.0
 40
0.5313301283
 41
3.1178240563
 42
3.9032222197
  0
ELLIPSE
  5
67E
100
AcDbEntity
  8
RACCORDO
100
AcDbEllipse
 62
7
  6
CONTINUOUS
 10
154.3577053963
 20
125.3691447794
 30
0.0
 11
0.249929385
 21
0.0111824824
 31
0.0
 40
0.5313301283
 41
-2.3799630874
 42
-0.8149845248
  0
ELLIPSE
  5
67F
100
AcDbEntity
  8
RACCORDO
100
AcDbEllipse
 62
7
  6
CONTINUOUS
 10
153.0244930627
 20
126.0357509462
 30
0.0
 11
0.249929385
 21
0.0111824824
 31
0.0
 40
0.5313301283
 41
3.1178240563
 42
3.9032222197
  0
ELLIPSE
  5
680
100
AcDbEntity
  8
RACCORDO
100
AcDbEllipse
 62
7
  6
CONTINUOUS
 10
159.798610249
 20
110.7019926705
 30
0.0
 11
-13.756538371
 21
25.3785826258
 31
0.0
 40
0.5944914128
 41
-1.5464608031
 42
-1.5021164647
  0
ELLIPSE
  5
681
100
AcDbEntity
  8
RACCORDO
100
AcDbEllipse
 62
7
  6
CONTINUOUS
 10
159.798610249
 20
110.671526568
 30
0.0
 11
-11.9878476683
 21
26.2611504424
 31
0.0
 40
0.6293559899
 41
3.2768971737
 42
3.321241512
  0
ELLIPSE
  5
682
100
AcDbEntity
  8
DRAFT
100
AcDbEllipse
 62
7
  6
CONTINUOUS
 10
174.0553235648
 20
130.0413469624
 30
0.0
 11
2.0927190682
 21
-0.014806396
 31
0.0
 40
0.4946372043
 41
6.9619673392
 42
8.7521619582
  0
ELLIPSE
  5
683
100
AcDbEntity
  8
DRAFT
100
AcDbEllipse
 62
7
  6
CONTINUOUS
 10
170.5197896588
 20
131.8091139153
 30
0.0
 11
2.0927190682
 21
-0.014806396
 31
0.0
 40
0.4946372043
 41
6.9619673392
 42
8.7521619582
  0
ELLIPSE
  5
684
100
AcDbEntity
  8
DRAFT
100
AcDbEllipse
 62
7
  6
CONTINUOUS
 10
165.5700421905
 20
134.2839876495
 30
0.0
 11
2.0927190682
 21
-0.014806396
 31
0.0
 40
0.4946372043
 41
6.9619673392
 42
8.2783547921
  0
ELLIPSE
  5
685
100
AcDbEntity
  8
DRAFT
100
AcDbEllipse
 62
7
  6
CONTINUOUS
 10
162.0345082846
 20
136.0517546025
 30
0.0
 11
2.0927190682
 21
-0.014806396
 31
0.0
 40
0.4946372043
 41
6.9619673392
 42
8.7521619582
  0
ELLIPSE
  5
686
100
AcDbEntity
  8
DRAFT
100
AcDbEllipse
 62
7
  6
CONTINUOUS
 10
158.4989743787
 20
137.8195215554
 30
0.0
 11
2.0927190682
 21
-0.014806396
 31
0.0
 40
0.4946372043
 41
6.9619673392
 42
8.7521619582
  0
ENDSEC
  0
SECTION
  2
OBJECTS
  0
DICTIONARY
  5
C
100
AcDbDictionary
280
0
281
1
  3
ACAD_GROUP
350
D
  3
ACAD_MLINESTYLE
350
17
  3
ACAD_LAYOUT
350
1A
  3
ACAD_PLOTSETTINGS
350
19
  3
ACAD_PLOTSTYLENAME
350
E
  0
DICTIONARY
  5
D
102
{ACAD_REACTORS
330
C
102
}
100
AcDbDictionary
280
0
281
1
  0
ACDBDICTIONARYWDFLT
  5
E
102
{ACAD_REACTORS
330
C
102
}
100
AcDbDictionary
281
1
  3
Normal
350
F
100
AcDbDictionaryWithDefault
340
F
  0
DICTIONARY
  5
17
102
{ACAD_REACTORS
330
C
102
}
100
AcDbDictionary
280
0
281
1
  3
Standard
350
18
  0
DICTIONARY
  5
19
102
{ACAD_REACTORS
330
C
102
}
100
AcDbDictionary
281
1
  0
DICTIONARY
  5
1A
102
{ACAD_REACTORS
330
C
102
}
100
AcDbDictionary
281
1
  3
Model
350
687
  3
Layout1
350
688
  0
ACDBPLACEHOLDER
  5
F
102
{ACAD_REACTORS
330
E
102
}
  0
MLINESTYLE
  5
18
102
{ACAD_REACTORS
330
17
102
}
100
AcDbMlineStyle
  2
STANDARD
 70
0
  3

 62
256
 51
90.0
 52
90.0
 71
2
 49
0.5
 62
256
  6
BYLAYER
 49
-0.5
 62
256
  6
BYLAYER
  0
LAYOUT
  5
687
102
{ACAD_REACTORS
330
1A
102
}
100
AcDbPlotSettings
  1

  2
none_device
  4
ISO_A4_(297.00_x_210.00_MM)
  6

 40
0.0
 41
0.0
 42
0.0
 43
0.0
 44
297.0
 45
210.0
 46
0.0
 47
0.0
 48
0.0
 49
0.0
140
0.0
141
0.0
142
1.0
143
1.0
 70
1024
 72
1
 73
0
 74
0
  7

 75
0
147
1.0
148
0.0
149
0.0
100
AcDbLayout
  1
Model
 70
0
 71
0
 10
0.0
 20
0.0
 11
297.0
 21
210.0
 12
0.0
 22
0.0
 32
0.0
 14
0.0
 24
0.0
 34
0.0
 15
0.0
 25
0.0
 35
0.0
146
0.0
 13
0.0
 23
0.0
 33
0.0
 16
1.0
 26
0.0
 36
0.0
 17
0.0
 27
1.0
 37
0.0
 76
0
330
32A
345
0
346
0
  0
LAYOUT
  5
688
102
{ACAD_REACTORS
330
1A
102
}
100
AcDbPlotSettings
  1

  2
none_device
  4
ISO_A4_(297.00_x_210.00_MM)
  6

 40
0.0
 41
0.0
 42
0.0
 43
0.0
 44
297.0
 45
210.0
 46
0.0
 47
0.0
 48
0.0
 49
0.0
140
0.0
141
0.0
142
1.0
143
1.0
 70
0
 72
1
 73
0
 74
0
  7

 75
0
147
1.0
148
0.0
149
0.0
100
AcDbLayout
  1
Layout1
 70
0
 71
1
 10
0.0
 20
0.0
 11
297.0
 21
210.0
 12
0.0
 22
0.0
 32
0.0
 14
0.0
 24
0.0
 34
0.0
 15
0.0
 25
0.0
 35
0.0
146
0.0
 13
0.0
 23
0.0
 33
0.0
 16
1.0
 26
0.0
 36
0.0
 17
0.0
 27
1.0
 37
0.0
 76
0
330
32B
345
0
346
0
  0
ENDSEC
  0
EOF
