  0
SECTION
  2
HEADER
  9
$ACADVER
  1
AC1021
  9
$DWGCODEPAGE
  3
ANSI_1252
  9
$EXTMAX
 10
297.0
 20
210.0
 30
0.0
  9
$EXTMIN
 10
0.0
 20
0.0
 30
0.0
  9
$LIMMIN
 10
0.0
 20
0.0
  9
$LIMMAX
 10
297.0
 20
210.0
  9
$VIEWCTR
 10
148.5
 20
105.0
  9
$VIEWSIZE
 40
210.0
  9
$CLAYER
  8
0
  9
$LTSCALE
 40
16.335
  9
$CELTYPE
  6
BYLAYER
  9
$DIMSCALE
 40
1.0
  9
$DIMASZ
 40
3.0
  9
$DIMEXO
 40
0.5
  9
$DIMDLI
 40
11.286
  9
$DIMEXE
 40
1.5
  9
$DIMCEN
 40
2.673
  9
$DIMLFAC
 40
1.0
  9
$DIMBLK
  1
_FILLED
  9
$DIMALT
 70
0
  9
$DIMALTF
 40
25.4
  9
$DIMTXT
 40
3.0
  9
$DIMTOL
 70
1
  9
$DIMLIM
 70
0
  9
$DIMTFAC
 40
1.0
  9
$DIMTP
 40
0.01
  9
$DIMTM
 40
0.01
  9
$DIMGAP
 40
0.625
  9
$DIMDSEP
 70
44
  9
$AUNITS
 70
0
  9
$PDMODE
 70
3
  9
$PDSIZE
 40
3.0
  9
$HANDSEED
  5
5C2
  9
$TILEMODE
 70
1
  9
$MEASUREMENT
 70
1
  9
$INSUNITS
 70
4
  0
ENDSEC
  0
SECTION
  2
CLASSES
  0
CLASS
  1
ACDBDICTIONARYWDFLT
  2
AcDbDictionaryWithDefault
  3
AutoCAD 2000
 90
0
 91
1
280
0
281
0
  0
CLASS
  1
ACDBPLACEHOLDER
  2
AcDbPlaceHolder
  3
AutoCAD 2000
 90
0
 91
1
280
0
281
0
  0
CLASS
  1
LAYOUT
  2
AcDbLayout
  3
AutoCAD 2000
 90
0
 91
0
280
0
281
0
  0
ENDSEC
  0
SECTION
  2
TABLES
  0
TABLE
  2
VPORT
  5
8
100
AcDbSymbolTable
 70
2
  0
VPORT
  5
1F4
100
AcDbSymbolTableRecord
100
AcDbViewportTableRecord
  2
*ACTIVE
 70
0
 10
0.0
 20
0.0
 11
1.0
 21
1.0
 12
148.5
 22
105.0
 13
0.0
 23
0.0
 14
1.0
 24
1.0
 15
0.0
 25
0.0
 16
0.0
 26
0.0
 36
1.0
 17
0.0
 27
0.0
 37
0.0
 40
210.0
 41
1.4142857143
 42
50.0
 43
0.0
 44
0.0
 50
0.0
 51
0.0
 71
0
 72
100
 73
1
 74
1
 75
0
 76
0
 77
0
 78
0
  0
ENDTAB
  0
TABLE
  2
LTYPE
  5
5
100
AcDbSymbolTable
 70
6
  0
LTYPE
  5
14
100
AcDbSymbolTableRecord
100
AcDbLinetypeTableRecord
  2
BYBLOCK
 70
0
  3

 72
65
 73
0
 40
0.0
  0
LTYPE
  5
15
100
AcDbSymbolTableRecord
100
AcDbLinetypeTableRecord
  2
BYLAYER
 70
0
  3

 72
65
 73
0
 40
0.0
  0
LTYPE
  5
16
100
AcDbSymbolTableRecord
100
AcDbLinetypeTableRecord
  2
CONTINUOUS
 70
64
  3
Solid line
 72
65
 73
0
 40
0.0
  0
LTYPE
  5
1F5
100
AcDbSymbolTableRecord
100
AcDbLinetypeTableRecord
  2
CENTER
 70
64
  3
____ _ ____ _ ____ _ ____ _ ____ _ ____ _ ____
 72
65
 73
4
 40
0.6
 49
0.375
 74
0
 49
-0.075
 74
0
 49
0.075
 74
0
 49
-0.075
 74
0
  0
LTYPE
  5
1F6
100
AcDbSymbolTableRecord
100
AcDbLinetypeTableRecord
  2
HIDDEN
 70
64
  3
- - - - - - - - - - - - - - - - - - - -
 72
65
 73
2
 40
0.2
 49
0.1
 74
0
 49
-0.1
 74
0
  0
LTYPE
  5
1F7
100
AcDbSymbolTableRecord
100
AcDbLinetypeTableRecord
  2
PHANTOM
 70
64
  3
_____ _ _ _____ _ _ _____ _ _ _____
 72
65
 73
6
 40
0.8
 49
0.45
 74
0
 49
-0.05
 74
0
 49
0.1
 74
0
 49
-0.05
 74
0
 49
0.1
 74
0
 49
-0.05
 74
0
  0
LTYPE
  5
1F8
100
AcDbSymbolTableRecord
100
AcDbLinetypeTableRecord
  2
DOT
 70
64
  3
. . . . . . . . . . . . . . . . . . . .
 72
65
 73
2
 40
0.2
 49
0.1
 74
0
 49
-0.1
 74
0
  0
LTYPE
  5
1F9
100
AcDbSymbolTableRecord
100
AcDbLinetypeTableRecord
  2
DASHED
 70
64
  3
- - - - - - - - - - - - - - - - - - - -
 72
65
 73
2
 40
0.2
 49
0.1
 74
0
 49
-0.1
 74
0
  0
ENDTAB
  0
TABLE
  2
LAYER
  5
2
100
AcDbSymbolTable
 70
36
  0
LAYER
  5
10
100
AcDbSymbolTableRecord
100
AcDbLayerTableRecord
  2
0
 70
0
 62
7
  6
CONTINUOUS
370
-3
390
F
  0
LAYER
  5
1FA
100
AcDbSymbolTableRecord
100
AcDbLayerTableRecord
  2
DEFAULT_1
 70
0
 62
7
  6
CENTER
370
-3
390
F
  0
LAYER
  5
1FB
100
AcDbSymbolTableRecord
100
AcDbLayerTableRecord
  2
DEFAULT_2
 70
0
 62
7
  6
HIDDEN
370
-3
390
F
  0
LAYER
  5
1FC
100
AcDbSymbolTableRecord
100
AcDbLayerTableRecord
  2
DEFAULT_3
 70
0
 62
7
  6
PHANTOM
370
-3
390
F
  0
LAYER
  5
1FD
100
AcDbSymbolTableRecord
100
AcDbLayerTableRecord
  2
06___PRT_ALL_SURFS
 70
0
 62
7
  6
CONTINUOUS
370
-3
390
F
  0
LAYER
  5
1FE
100
AcDbSymbolTableRecord
100
AcDbLayerTableRecord
  2
06___PRT_ALL_SURFS_1
 70
0
 62
7
  6
CONTINUOUS
370
-3
390
F
  0
LAYER
  5
1FF
100
AcDbSymbolTableRecord
100
AcDbLayerTableRecord
  2
06___PRT_ALL_SURFS_13
 70
0
 62
7
  6
CONTINUOUS
370
-3
390
F
  0
LAYER
  5
200
100
AcDbSymbolTableRecord
100
AcDbLayerTableRecord
  2
06___PRT_ALL_SURFS_18
 70
0
 62
7
  6
CONTINUOUS
370
-3
390
F
  0
LAYER
  5
201
100
AcDbSymbolTableRecord
100
AcDbLayerTableRecord
  2
06___PRT_ALL_SURFS_39
 70
0
 62
7
  6
CONTINUOUS
370
-3
390
F
  0
LAYER
  5
202
100
AcDbSymbolTableRecord
100
AcDbLayerTableRecord
  2
06___PRT_ALL_SURFS_6
 70
0
 62
7
  6
CONTINUOUS
370
-3
390
F
  0
LAYER
  5
203
100
AcDbSymbolTableRecord
100
AcDbLayerTableRecord
  2
1608-FL-RF-VIMAR_80000
 70
0
 62
7
  6
CONTINUOUS
370
-3
390
F
  0
LAYER
  5
204
100
AcDbSymbolTableRecord
100
AcDbLayerTableRecord
  2
1608-FL-RF-VIMAR_80000_1
 70
0
 62
7
  6
CONTINUOUS
370
-3
390
F
  0
LAYER
  5
205
100
AcDbSymbolTableRecord
100
AcDbLayerTableRecord
  2
2125-CC-RF-VIMAR_110000
 70
0
 62
7
  6
CONTINUOUS
370
-3
390
F
  0
LAYER
  5
206
100
AcDbSymbolTableRecord
100
AcDbLayerTableRecord
  2
2125-CC-RF-VIMAR_110000_1
 70
0
 62
7
  6
CONTINUOUS
370
-3
390
F
  0
LAYER
  5
207
100
AcDbSymbolTableRecord
100
AcDbLayerTableRecord
  2
2125-CC-RF-VIMAR_110000_2
 70
0
 62
7
  6
CONTINUOUS
370
-3
390
F
  0
LAYER
  5
208
100
AcDbSymbolTableRecord
100
AcDbLayerTableRecord
  2
2125-DL-RF-FINE_VIMAR_110000
 70
0
 62
7
  6
CONTINUOUS
370
-3
390
F
  0
LAYER
  5
209
100
AcDbSymbolTableRecord
100
AcDbLayerTableRecord
  2
2125-DL-RF-FINE_VIMAR_110000_1
 70
0
 62
7
  6
CONTINUOUS
370
-3
390
F
  0
LAYER
  5
20A
100
AcDbSymbolTableRecord
100
AcDbLayerTableRecord
  2
2125-R1-RF-VIMAR_60000
 70
0
 62
7
  6
CONTINUOUS
370
-3
390
F
  0
LAYER
  5
20B
100
AcDbSymbolTableRecord
100
AcDbLayerTableRecord
  2
2125-R1-RF-VIMAR_60000_1
 70
0
 62
7
  6
CONTINUOUS
370
-3
390
F
  0
LAYER
  5
20C
100
AcDbSymbolTableRecord
100
AcDbLayerTableRecord
  2
2125-R1-RF-VIMAR_60000_2
 70
0
 62
7
  6
CONTINUOUS
370
-3
390
F
  0
LAYER
  5
20D
100
AcDbSymbolTableRecord
100
AcDbLayerTableRecord
  2
2125-R1-RF-VIMAR_60000_3
 70
0
 62
7
  6
CONTINUOUS
370
-3
390
F
  0
LAYER
  5
20E
100
AcDbSymbolTableRecord
100
AcDbLayerTableRecord
  2
2125-R1-RF-VIMAR_60000_4
 70
0
 62
7
  6
CONTINUOUS
370
-3
390
F
  0
LAYER
  5
20F
100
AcDbSymbolTableRecord
100
AcDbLayerTableRecord
  2
3216-CF-RF-VIMAR_100000
 70
0
 62
7
  6
CONTINUOUS
370
-3
390
F
  0
LAYER
  5
210
100
AcDbSymbolTableRecord
100
AcDbLayerTableRecord
  2
3216-CF-RF-VIMAR_100000_1
 70
0
 62
7
  6
CONTINUOUS
370
-3
390
F
  0
LAYER
  5
211
100
AcDbSymbolTableRecord
100
AcDbLayerTableRecord
  2
3216-R1-RF-VIMAR_60000
 70
0
 62
7
  6
CONTINUOUS
370
-3
390
F
  0
LAYER
  5
212
100
AcDbSymbolTableRecord
100
AcDbLayerTableRecord
  2
43000771A0
 70
0
 62
7
  6
CONTINUOUS
370
-3
390
F
  0
LAYER
  5
213
100
AcDbSymbolTableRecord
100
AcDbLayerTableRecord
  2
43000772A0
 70
0
 62
7
  6
CONTINUOUS
370
-3
390
F
  0
LAYER
  5
214
100
AcDbSymbolTableRecord
100
AcDbLayerTableRecord
  2
43000773A0
 70
0
 62
7
  6
CONTINUOUS
370
-3
390
F
  0
LAYER
  5
215
100
AcDbSymbolTableRecord
100
AcDbLayerTableRecord
  2
43000773A1
 70
0
 62
7
  6
CONTINUOUS
370
-3
390
F
  0
LAYER
  5
216
100
AcDbSymbolTableRecord
100
AcDbLayerTableRecord
  2
43000773A1_1
 70
0
 62
7
  6
CONTINUOUS
370
-3
390
F
  0
LAYER
  5
217
100
AcDbSymbolTableRecord
100
AcDbLayerTableRecord
  2
43900771A0
 70
0
 62
7
  6
CONTINUOUS
370
-3
390
F
  0
LAYER
  5
218
100
AcDbSymbolTableRecord
100
AcDbLayerTableRecord
  2
43900772A0
 70
0
 62
7
  6
CONTINUOUS
370
-3
390
F
  0
LAYER
  5
219
100
AcDbSymbolTableRecord
100
AcDbLayerTableRecord
  2
ASSI
 70
0
 62
7
  6
CONTINUOUS
370
-3
390
F
  0
LAYER
  5
21A
100
AcDbSymbolTableRecord
100
AcDbLayerTableRecord
  2
BZ-BST-0841A_450000
 70
0
 62
7
  6
CONTINUOUS
370
-3
390
F
  0
LAYER
  5
21B
100
AcDbSymbolTableRecord
100
AcDbLayerTableRecord
  2
CAP-E-SMD-10_8-10_8-5_5_580000
 70
0
 62
7
  6
CONTINUOUS
370
-3
390
F
  0
LAYER
  5
21C
100
AcDbSymbolTableRecord
100
AcDbLayerTableRecord
  2
CAPC1608N_80000
 70
0
 62
7
  6
CONTINUOUS
370
-3
390
F
  0
LAYER
  5
21D
100
AcDbSymbolTableRecord
100
AcDbLayerTableRecord
  2
CAPC1608N_80000_1
 70
0
 62
7
  6
CONTINUOUS
370
-3
390
F
  0
LAYER
  5
21E
100
AcDbSymbolTableRecord
100
AcDbLayerTableRecord
  2
CAPC1608N_80000_10
 70
0
 62
7
  6
CONTINUOUS
370
-3
390
F
  0
LAYER
  5
21F
100
AcDbSymbolTableRecord
100
AcDbLayerTableRecord
  2
CAPC1608N_80000_11
 70
0
 62
7
  6
CONTINUOUS
370
-3
390
F
  0
LAYER
  5
220
100
AcDbSymbolTableRecord
100
AcDbLayerTableRecord
  2
CAPC1608N_80000_12
 70
0
 62
7
  6
CONTINUOUS
370
-3
390
F
  0
LAYER
  5
221
100
AcDbSymbolTableRecord
100
AcDbLayerTableRecord
  2
CAPC1608N_80000_13
 70
0
 62
7
  6
CONTINUOUS
370
-3
390
F
  0
LAYER
  5
222
100
AcDbSymbolTableRecord
100
AcDbLayerTableRecord
  2
CAPC1608N_80000_14
 70
0
 62
7
  6
CONTINUOUS
370
-3
390
F
  0
LAYER
  5
223
100
AcDbSymbolTableRecord
100
AcDbLayerTableRecord
  2
CAPC1608N_80000_15
 70
0
 62
7
  6
CONTINUOUS
370
-3
390
F
  0
LAYER
  5
224
100
AcDbSymbolTableRecord
100
AcDbLayerTableRecord
  2
CAPC1608N_80000_16
 70
0
 62
7
  6
CONTINUOUS
370
-3
390
F
  0
LAYER
  5
225
100
AcDbSymbolTableRecord
100
AcDbLayerTableRecord
  2
CAPC1608N_80000_17
 70
0
 62
7
  6
CONTINUOUS
370
-3
390
F
  0
LAYER
  5
226
100
AcDbSymbolTableRecord
100
AcDbLayerTableRecord
  2
CAPC1608N_80000_18
 70
0
 62
7
  6
CONTINUOUS
370
-3
390
F
  0
LAYER
  5
227
100
AcDbSymbolTableRecord
100
AcDbLayerTableRecord
  2
CAPC1608N_80000_19
 70
0
 62
7
  6
CONTINUOUS
370
-3
390
F
  0
LAYER
  5
228
100
AcDbSymbolTableRecord
100
AcDbLayerTableRecord
  2
CAPC1608N_80000_2
 70
0
 62
7
  6
CONTINUOUS
370
-3
390
F
  0
LAYER
  5
229
100
AcDbSymbolTableRecord
100
AcDbLayerTableRecord
  2
CAPC1608N_80000_20
 70
0
 62
7
  6
CONTINUOUS
370
-3
390
F
  0
LAYER
  5
22A
100
AcDbSymbolTableRecord
100
AcDbLayerTableRecord
  2
CAPC1608N_80000_21
 70
0
 62
7
  6
CONTINUOUS
370
-3
390
F
  0
LAYER
  5
22B
100
AcDbSymbolTableRecord
100
AcDbLayerTableRecord
  2
CAPC1608N_80000_22
 70
0
 62
7
  6
CONTINUOUS
370
-3
390
F
  0
LAYER
  5
22C
100
AcDbSymbolTableRecord
100
AcDbLayerTableRecord
  2
CAPC1608N_80000_23
 70
0
 62
7
  6
CONTINUOUS
370
-3
390
F
  0
LAYER
  5
22D
100
AcDbSymbolTableRecord
100
AcDbLayerTableRecord
  2
CAPC1608N_80000_24
 70
0
 62
7
  6
CONTINUOUS
370
-3
390
F
  0
LAYER
  5
22E
100
AcDbSymbolTableRecord
100
AcDbLayerTableRecord
  2
CAPC1608N_80000_25
 70
0
 62
7
  6
CONTINUOUS
370
-3
390
F
  0
LAYER
  5
22F
100
AcDbSymbolTableRecord
100
AcDbLayerTableRecord
  2
CAPC1608N_80000_26
 70
0
 62
7
  6
CONTINUOUS
370
-3
390
F
  0
LAYER
  5
230
100
AcDbSymbolTableRecord
100
AcDbLayerTableRecord
  2
CAPC1608N_80000_27
 70
0
 62
7
  6
CONTINUOUS
370
-3
390
F
  0
LAYER
  5
231
100
AcDbSymbolTableRecord
100
AcDbLayerTableRecord
  2
CAPC1608N_80000_28
 70
0
 62
7
  6
CONTINUOUS
370
-3
390
F
  0
LAYER
  5
232
100
AcDbSymbolTableRecord
100
AcDbLayerTableRecord
  2
CAPC1608N_80000_29
 70
0
 62
7
  6
CONTINUOUS
370
-3
390
F
  0
LAYER
  5
233
100
AcDbSymbolTableRecord
100
AcDbLayerTableRecord
  2
CAPC1608N_80000_3
 70
0
 62
7
  6
CONTINUOUS
370
-3
390
F
  0
LAYER
  5
234
100
AcDbSymbolTableRecord
100
AcDbLayerTableRecord
  2
CAPC1608N_80000_30
 70
0
 62
7
  6
CONTINUOUS
370
-3
390
F
  0
LAYER
  5
235
100
AcDbSymbolTableRecord
100
AcDbLayerTableRecord
  2
CAPC1608N_80000_31
 70
0
 62
7
  6
CONTINUOUS
370
-3
390
F
  0
LAYER
  5
236
100
AcDbSymbolTableRecord
100
AcDbLayerTableRecord
  2
CAPC1608N_80000_32
 70
0
 62
7
  6
CONTINUOUS
370
-3
390
F
  0
LAYER
  5
237
100
AcDbSymbolTableRecord
100
AcDbLayerTableRecord
  2
CAPC1608N_80000_33
 70
0
 62
7
  6
CONTINUOUS
370
-3
390
F
  0
LAYER
  5
238
100
AcDbSymbolTableRecord
100
AcDbLayerTableRecord
  2
CAPC1608N_80000_34
 70
0
 62
7
  6
CONTINUOUS
370
-3
390
F
  0
LAYER
  5
239
100
AcDbSymbolTableRecord
100
AcDbLayerTableRecord
  2
CAPC1608N_80000_35
 70
0
 62
7
  6
CONTINUOUS
370
-3
390
F
  0
LAYER
  5
23A
100
AcDbSymbolTableRecord
100
AcDbLayerTableRecord
  2
CAPC1608N_80000_36
 70
0
 62
7
  6
CONTINUOUS
370
-3
390
F
  0
LAYER
  5
23B
100
AcDbSymbolTableRecord
100
AcDbLayerTableRecord
  2
CAPC1608N_80000_37
 70
0
 62
7
  6
CONTINUOUS
370
-3
390
F
  0
LAYER
  5
23C
100
AcDbSymbolTableRecord
100
AcDbLayerTableRecord
  2
CAPC1608N_80000_38
 70
0
 62
7
  6
CONTINUOUS
370
-3
390
F
  0
LAYER
  5
23D
100
AcDbSymbolTableRecord
100
AcDbLayerTableRecord
  2
CAPC1608N_80000_39
 70
0
 62
7
  6
CONTINUOUS
370
-3
390
F
  0
LAYER
  5
23E
100
AcDbSymbolTableRecord
100
AcDbLayerTableRecord
  2
CAPC1608N_80000_4
 70
0
 62
7
  6
CONTINUOUS
370
-3
390
F
  0
LAYER
  5
23F
100
AcDbSymbolTableRecord
100
AcDbLayerTableRecord
  2
CAPC1608N_80000_40
 70
0
 62
7
  6
CONTINUOUS
370
-3
390
F
  0
LAYER
  5
240
100
AcDbSymbolTableRecord
100
AcDbLayerTableRecord
  2
CAPC1608N_80000_41
 70
0
 62
7
  6
CONTINUOUS
370
-3
390
F
  0
LAYER
  5
241
100
AcDbSymbolTableRecord
100
AcDbLayerTableRecord
  2
CAPC1608N_80000_42
 70
0
 62
7
  6
CONTINUOUS
370
-3
390
F
  0
LAYER
  5
242
100
AcDbSymbolTableRecord
100
AcDbLayerTableRecord
  2
CAPC1608N_80000_43
 70
0
 62
7
  6
CONTINUOUS
370
-3
390
F
  0
LAYER
  5
243
100
AcDbSymbolTableRecord
100
AcDbLayerTableRecord
  2
CAPC1608N_80000_44
 70
0
 62
7
  6
CONTINUOUS
370
-3
390
F
  0
LAYER
  5
244
100
AcDbSymbolTableRecord
100
AcDbLayerTableRecord
  2
CAPC1608N_80000_45
 70
0
 62
7
  6
CONTINUOUS
370
-3
390
F
  0
LAYER
  5
245
100
AcDbSymbolTableRecord
100
AcDbLayerTableRecord
  2
CAPC1608N_80000_46
 70
0
 62
7
  6
CONTINUOUS
370
-3
390
F
  0
LAYER
  5
246
100
AcDbSymbolTableRecord
100
AcDbLayerTableRecord
  2
CAPC1608N_80000_47
 70
0
 62
7
  6
CONTINUOUS
370
-3
390
F
  0
LAYER
  5
247
100
AcDbSymbolTableRecord
100
AcDbLayerTableRecord
  2
CAPC1608N_80000_48
 70
0
 62
7
  6
CONTINUOUS
370
-3
390
F
  0
LAYER
  5
248
100
AcDbSymbolTableRecord
100
AcDbLayerTableRecord
  2
CAPC1608N_80000_49
 70
0
 62
7
  6
CONTINUOUS
370
-3
390
F
  0
LAYER
  5
249
100
AcDbSymbolTableRecord
100
AcDbLayerTableRecord
  2
CAPC1608N_80000_5
 70
0
 62
7
  6
CONTINUOUS
370
-3
390
F
  0
LAYER
  5
24A
100
AcDbSymbolTableRecord
100
AcDbLayerTableRecord
  2
CAPC1608N_80000_50
 70
0
 62
7
  6
CONTINUOUS
370
-3
390
F
  0
LAYER
  5
24B
100
AcDbSymbolTableRecord
100
AcDbLayerTableRecord
  2
CAPC1608N_80000_51
 70
0
 62
7
  6
CONTINUOUS
370
-3
390
F
  0
LAYER
  5
24C
100
AcDbSymbolTableRecord
100
AcDbLayerTableRecord
  2
CAPC1608N_80000_6
 70
0
 62
7
  6
CONTINUOUS
370
-3
390
F
  0
LAYER
  5
24D
100
AcDbSymbolTableRecord
100
AcDbLayerTableRecord
  2
CAPC1608N_80000_7
 70
0
 62
7
  6
CONTINUOUS
370
-3
390
F
  0
LAYER
  5
24E
100
AcDbSymbolTableRecord
100
AcDbLayerTableRecord
  2
CAPC1608N_80000_8
 70
0
 62
7
  6
CONTINUOUS
370
-3
390
F
  0
LAYER
  5
24F
100
AcDbSymbolTableRecord
100
AcDbLayerTableRecord
  2
CAPC1608N_80000_9
 70
0
 62
7
  6
CONTINUOUS
370
-3
390
F
  0
LAYER
  5
250
100
AcDbSymbolTableRecord
100
AcDbLayerTableRecord
  2
CN-1S-HEADER-PIH-1_254000
 70
0
 62
7
  6
CONTINUOUS
370
-3
390
F
  0
LAYER
  5
251
100
AcDbSymbolTableRecord
100
AcDbLayerTableRecord
  2
CN-1S-HEADER-PIH-1_254000_1
 70
0
 62
7
  6
CONTINUOUS
370
-3
390
F
  0
LAYER
  5
252
100
AcDbSymbolTableRecord
100
AcDbLayerTableRecord
  2
CN-1S-HEADER-PIH-1_254000_2
 70
0
 62
7
  6
CONTINUOUS
370
-3
390
F
  0
LAYER
  5
253
100
AcDbSymbolTableRecord
100
AcDbLayerTableRecord
  2
CN-1S-HEADER-PIH-1_254000_3
 70
0
 62
7
  6
CONTINUOUS
370
-3
390
F
  0
LAYER
  5
254
100
AcDbSymbolTableRecord
100
AcDbLayerTableRecord
  2
CN-MRT4P5_2-VIMAR_1750000
 70
0
 62
7
  6
CONTINUOUS
370
-3
390
F
  0
LAYER
  5
255
100
AcDbSymbolTableRecord
100
AcDbLayerTableRecord
  2
CN-MRT4P5_3-VIMAR_1750000
 70
0
 62
7
  6
CONTINUOUS
370
-3
390
F
  0
LAYER
  5
256
100
AcDbSymbolTableRecord
100
AcDbLayerTableRecord
  2
CN-SOCKET-SMD2_0-2_430000
 70
0
 62
7
  6
CONTINUOUS
370
-3
390
F
  0
LAYER
  5
257
100
AcDbSymbolTableRecord
100
AcDbLayerTableRecord
  2
CN1-REF_SQUAREHOLE12_SPEA-VIMAR
 70
0
 62
7
  6
CONTINUOUS
370
-3
390
F
  0
LAYER
  5
258
100
AcDbSymbolTableRecord
100
AcDbLayerTableRecord
  2
CN1-REF_SQUAREHOLE12_SPEA-VIM_1
 70
0
 62
7
  6
CONTINUOUS
370
-3
390
F
  0
LAYER
  5
259
100
AcDbSymbolTableRecord
100
AcDbLayerTableRecord
  2
CN1-REF_SQUAREHOLE12_SPEA-VIM_2
 70
0
 62
7
  6
CONTINUOUS
370
-3
390
F
  0
LAYER
  5
25A
100
AcDbSymbolTableRecord
100
AcDbLayerTableRecord
  2
CN1-REF_SQUAREHOLE12_SPEA-VIM_3
 70
0
 62
7
  6
CONTINUOUS
370
-3
390
F
  0
LAYER
  5
25B
100
AcDbSymbolTableRecord
100
AcDbLayerTableRecord
  2
CN1-REF_SQUAREHOLE12_SPEA-VIM_4
 70
0
 62
7
  6
CONTINUOUS
370
-3
390
F
  0
LAYER
  5
25C
100
AcDbSymbolTableRecord
100
AcDbLayerTableRecord
  2
CN1-REF_SQUAREHOLE12_SPEA-VIM_5
 70
0
 62
7
  6
CONTINUOUS
370
-3
390
F
  0
LAYER
  5
25D
100
AcDbSymbolTableRecord
100
AcDbLayerTableRecord
  2
CN1-REF_SQUAREHOLE12_SPEA-VIM_6
 70
0
 62
7
  6
CONTINUOUS
370
-3
390
F
  0
LAYER
  5
25E
100
AcDbSymbolTableRecord
100
AcDbLayerTableRecord
  2
CN1-REF_SQUAREHOLE12_SPEA-VIM_7
 70
0
 62
7
  6
CONTINUOUS
370
-3
390
F
  0
LAYER
  5
25F
100
AcDbSymbolTableRecord
100
AcDbLayerTableRecord
  2
CN1-TP10_SMD-VIMAR_01_10000
 70
0
 62
7
  6
CONTINUOUS
370
-3
390
F
  0
LAYER
  5
260
100
AcDbSymbolTableRecord
100
AcDbLayerTableRecord
  2
CN1-TP10_SMD-VIMAR_01_10000_1
 70
0
 62
7
  6
CONTINUOUS
370
-3
390
F
  0
LAYER
  5
261
100
AcDbSymbolTableRecord
100
AcDbLayerTableRecord
  2
CN1-TP10_SMD-VIMAR_01_10000_2
 70
0
 62
7
  6
CONTINUOUS
370
-3
390
F
  0
LAYER
  5
262
100
AcDbSymbolTableRecord
100
AcDbLayerTableRecord
  2
CN1-TP10_SMD-VIMAR_01_10000_3
 70
0
 62
7
  6
CONTINUOUS
370
-3
390
F
  0
LAYER
  5
263
100
AcDbSymbolTableRecord
100
AcDbLayerTableRecord
  2
CN1-TP15_SMD-VIMAR_5000
 70
0
 62
7
  6
CONTINUOUS
370
-3
390
F
  0
LAYER
  5
264
100
AcDbSymbolTableRecord
100
AcDbLayerTableRecord
  2
CN10-HEADER-SMD2_0-2-VIMAR_6500
 70
0
 62
7
  6
CONTINUOUS
370
-3
390
F
  0
LAYER
  5
265
100
AcDbSymbolTableRecord
100
AcDbLayerTableRecord
  2
CN_MICROUSB_TYPEB_SMT_SET_30000
 70
0
 62
7
  6
CONTINUOUS
370
-3
390
F
  0
LAYER
  5
266
100
AcDbSymbolTableRecord
100
AcDbLayerTableRecord
  2
CN_STRIP_2_P2_54_1-VIMAR_254000
 70
0
 62
7
  6
CONTINUOUS
370
-3
390
F
  0
LAYER
  5
267
100
AcDbSymbolTableRecord
100
AcDbLayerTableRecord
  2
CN_STRIP_2_P2_54_1-VIMAR_2540_1
 70
0
 62
7
  6
CONTINUOUS
370
-3
390
F
  0
LAYER
  5
268
100
AcDbSymbolTableRecord
100
AcDbLayerTableRecord
  2
COLOR13
 70
0
 62
7
  6
CONTINUOUS
370
-3
390
F
  0
LAYER
  5
269
100
AcDbSymbolTableRecord
100
AcDbLayerTableRecord
  2
COLOR21
 70
0
 62
7
  6
CONTINUOUS
370
-3
390
F
  0
LAYER
  5
26A
100
AcDbSymbolTableRecord
100
AcDbLayerTableRecord
  2
COLOR23
 70
0
 62
7
  6
CONTINUOUS
370
-3
390
F
  0
LAYER
  5
26B
100
AcDbSymbolTableRecord
100
AcDbLayerTableRecord
  2
COLOR6
 70
0
 62
7
  6
CONTINUOUS
370
-3
390
F
  0
LAYER
  5
26C
100
AcDbSymbolTableRecord
100
AcDbLayerTableRecord
  2
COORDINATE
 70
0
 62
7
  6
CONTINUOUS
370
-3
390
F
  0
LAYER
  5
26D
100
AcDbSymbolTableRecord
100
AcDbLayerTableRecord
  2
COORD_ORIGINE
 70
0
 62
7
  6
CONTINUOUS
370
-3
390
F
  0
LAYER
  5
26E
100
AcDbSymbolTableRecord
100
AcDbLayerTableRecord
  2
COPY_PUBLISH
 70
0
 62
7
  6
CONTINUOUS
370
-3
390
F
  0
LAYER
  5
26F
100
AcDbSymbolTableRecord
100
AcDbLayerTableRecord
  2
COSMETIC
 70
0
 62
7
  6
CONTINUOUS
370
-3
390
F
  0
LAYER
  5
270
100
AcDbSymbolTableRecord
100
AcDbLayerTableRecord
  2
COSMETICI
 70
0
 62
7
  6
CONTINUOUS
370
-3
390
F
  0
LAYER
  5
271
100
AcDbSymbolTableRecord
100
AcDbLayerTableRecord
  2
CP-CE11-RF-VIMAR_630000
 70
0
 62
7
  6
CONTINUOUS
370
-3
390
F
  0
LAYER
  5
272
100
AcDbSymbolTableRecord
100
AcDbLayerTableRecord
  2
CP-CE4-RF_550000
 70
0
 62
7
  6
CONTINUOUS
370
-3
390
F
  0
LAYER
  5
273
100
AcDbSymbolTableRecord
100
AcDbLayerTableRecord
  2
CP-CE6-RF_820000
 70
0
 62
7
  6
CONTINUOUS
370
-3
390
F
  0
LAYER
  5
274
100
AcDbSymbolTableRecord
100
AcDbLayerTableRecord
  2
CP-CE9-RF-VIMAR_1080000
 70
0
 62
7
  6
CONTINUOUS
370
-3
390
F
  0
LAYER
  5
275
100
AcDbSymbolTableRecord
100
AcDbLayerTableRecord
  2
CP-CE9-RF-VIMAR_1080000_1
 70
0
 62
7
  6
CONTINUOUS
370
-3
390
F
  0
LAYER
  5
276
100
AcDbSymbolTableRecord
100
AcDbLayerTableRecord
  2
CP-DO-214AC-D-VIMAR_240000
 70
0
 62
7
  6
CONTINUOUS
370
-3
390
F
  0
LAYER
  5
277
100
AcDbSymbolTableRecord
100
AcDbLayerTableRecord
  2
CP-DO-214AC-D-VIMAR_240000_1
 70
0
 62
7
  6
CONTINUOUS
370
-3
390
F
  0
LAYER
  5
278
100
AcDbSymbolTableRecord
100
AcDbLayerTableRecord
  2
CP-L5-RF-VIMAR_280000
 70
0
 62
7
  6
CONTINUOUS
370
-3
390
F
  0
LAYER
  5
279
100
AcDbSymbolTableRecord
100
AcDbLayerTableRecord
  2
CP-SUPERCAP-SMD_190000
 70
0
 62
7
  6
CONTINUOUS
370
-3
390
F
  0
LAYER
  5
27A
100
AcDbSymbolTableRecord
100
AcDbLayerTableRecord
  2
CURVE
 70
0
 62
7
  6
CONTINUOUS
370
-3
390
F
  0
LAYER
  5
27B
100
AcDbSymbolTableRecord
100
AcDbLayerTableRecord
  2
DIOMELF3515N_160000
 70
0
 62
7
  6
CONTINUOUS
370
-3
390
F
  0
LAYER
  5
27C
100
AcDbSymbolTableRecord
100
AcDbLayerTableRecord
  2
DRAFT
 70
0
 62
7
  6
CONTINUOUS
370
-3
390
F
  0
LAYER
  5
27D
100
AcDbSymbolTableRecord
100
AcDbLayerTableRecord
  2
E4_MARK_10000
 70
0
 62
7
  6
CONTINUOUS
370
-3
390
F
  0
LAYER
  5
27E
100
AcDbSymbolTableRecord
100
AcDbLayerTableRecord
  2
E4_MARK_10000_1
 70
0
 62
7
  6
CONTINUOUS
370
-3
390
F
  0
LAYER
  5
27F
100
AcDbSymbolTableRecord
100
AcDbLayerTableRecord
  2
GEOMETRIA_SOLIDA
 70
0
 62
7
  6
CONTINUOUS
370
-3
390
F
  0
LAYER
  5
280
100
AcDbSymbolTableRecord
100
AcDbLayerTableRecord
  2
GEOMETRIA_SOLIDA_1
 70
0
 62
7
  6
CONTINUOUS
370
-3
390
F
  0
LAYER
  5
281
100
AcDbSymbolTableRecord
100
AcDbLayerTableRecord
  2
HVQFN64-9_0-9_0-9_0-9_0-1_0-0_5
 70
0
 62
7
  6
CONTINUOUS
370
-3
390
F
  0
LAYER
  5
282
100
AcDbSymbolTableRecord
100
AcDbLayerTableRecord
  2
IMPORT_IGES
 70
0
 62
7
  6
CONTINUOUS
370
-3
390
F
  0
LAYER
  5
283
100
AcDbSymbolTableRecord
100
AcDbLayerTableRecord
  2
IND-PS-10_0-6_0_600000
 70
0
 62
7
  6
CONTINUOUS
370
-3
390
F
  0
LAYER
  5
284
100
AcDbSymbolTableRecord
100
AcDbLayerTableRecord
  2
INDC2012X130N_130000
 70
0
 62
7
  6
CONTINUOUS
370
-3
390
F
  0
LAYER
  5
285
100
AcDbSymbolTableRecord
100
AcDbLayerTableRecord
  2
INDC2012X130N_130000_1
 70
0
 62
7
  6
CONTINUOUS
370
-3
390
F
  0
LAYER
  5
286
100
AcDbSymbolTableRecord
100
AcDbLayerTableRecord
  2
INTFCLR_1
 70
0
 62
7
  6
CONTINUOUS
370
-3
390
F
  0
LAYER
  5
287
100
AcDbSymbolTableRecord
100
AcDbLayerTableRecord
  2
INTF_11
 70
0
 62
7
  6
CONTINUOUS
370
-3
390
F
  0
LAYER
  5
288
100
AcDbSymbolTableRecord
100
AcDbLayerTableRecord
  2
INTF_2
 70
0
 62
7
  6
CONTINUOUS
370
-3
390
F
  0
LAYER
  5
289
100
AcDbSymbolTableRecord
100
AcDbLayerTableRecord
  2
INTF_5
 70
0
 62
7
  6
CONTINUOUS
370
-3
390
F
  0
LAYER
  5
28A
100
AcDbSymbolTableRecord
100
AcDbLayerTableRecord
  2
INTF_CYAN
 70
0
 62
7
  6
CONTINUOUS
370
-3
390
F
  0
LAYER
  5
28B
100
AcDbSymbolTableRecord
100
AcDbLayerTableRecord
  2
INTF_MAGENTA
 70
0
 62
7
  6
CONTINUOUS
370
-3
390
F
  0
LAYER
  5
28C
100
AcDbSymbolTableRecord
100
AcDbLayerTableRecord
  2
INTF_YELLOW
 70
0
 62
7
  6
CONTINUOUS
370
-3
390
F
  0
LAYER
  5
28D
100
AcDbSymbolTableRecord
100
AcDbLayerTableRecord
  2
K-THT-HONGFA-HF3F-L-H_1550000
 70
0
 62
7
  6
CONTINUOUS
370
-3
390
F
  0
LAYER
  5
28E
100
AcDbSymbolTableRecord
100
AcDbLayerTableRecord
  2
LEDC2812X90N_SIDE_90000
 70
0
 62
7
  6
CONTINUOUS
370
-3
390
F
  0
LAYER
  5
28F
100
AcDbSymbolTableRecord
100
AcDbLayerTableRecord
  2
LEDC2812X90N_SIDE_90000_1
 70
0
 62
7
  6
CONTINUOUS
370
-3
390
F
  0
LAYER
  5
290
100
AcDbSymbolTableRecord
100
AcDbLayerTableRecord
  2
LEDC2812X90N_SIDE_90000_2
 70
0
 62
7
  6
CONTINUOUS
370
-3
390
F
  0
LAYER
  5
291
100
AcDbSymbolTableRecord
100
AcDbLayerTableRecord
  2
LOGO_RESIST-RESTYLING_10000
 70
0
 62
7
  6
CONTINUOUS
370
-3
390
F
  0
LAYER
  5
292
100
AcDbSymbolTableRecord
100
AcDbLayerTableRecord
  2
LOGO_RESIST-RESTYLING_10000_1
 70
0
 62
7
  6
CONTINUOUS
370
-3
390
F
  0
LAYER
  5
293
100
AcDbSymbolTableRecord
100
AcDbLayerTableRecord
  2
MM2-SWITCH-1-VIMAR_150000
 70
0
 62
7
  6
CONTINUOUS
370
-3
390
F
  0
LAYER
  5
294
100
AcDbSymbolTableRecord
100
AcDbLayerTableRecord
  2
MM2-X-2-VIMAR_250000
 70
0
 62
7
  6
CONTINUOUS
370
-3
390
F
  0
LAYER
  5
295
100
AcDbSymbolTableRecord
100
AcDbLayerTableRecord
  2
MM3-MPAK-RF-VIMAR_120000
 70
0
 62
7
  6
CONTINUOUS
370
-3
390
F
  0
LAYER
  5
296
100
AcDbSymbolTableRecord
100
AcDbLayerTableRecord
  2
MM3-MPAK-RF-VIMAR_120000_1
 70
0
 62
7
  6
CONTINUOUS
370
-3
390
F
  0
LAYER
  5
297
100
AcDbSymbolTableRecord
100
AcDbLayerTableRecord
  2
MM3-MPAK-RF-VIMAR_120000_2
 70
0
 62
7
  6
CONTINUOUS
370
-3
390
F
  0
LAYER
  5
298
100
AcDbSymbolTableRecord
100
AcDbLayerTableRecord
  2
MM3-MPAK-RF-VIMAR_120000_3
 70
0
 62
7
  6
CONTINUOUS
370
-3
390
F
  0
LAYER
  5
299
100
AcDbSymbolTableRecord
100
AcDbLayerTableRecord
  2
MM3-MPAK-RF-VIMAR_120000_4
 70
0
 62
7
  6
CONTINUOUS
370
-3
390
F
  0
LAYER
  5
29A
100
AcDbSymbolTableRecord
100
AcDbLayerTableRecord
  2
MM3-SOT-89-RF-VIMAR_150000
 70
0
 62
7
  6
CONTINUOUS
370
-3
390
F
  0
LAYER
  5
29B
100
AcDbSymbolTableRecord
100
AcDbLayerTableRecord
  2
MM4-ABS-VIMAR_180000
 70
0
 62
7
  6
CONTINUOUS
370
-3
390
F
  0
LAYER
  5
29C
100
AcDbSymbolTableRecord
100
AcDbLayerTableRecord
  2
MM4-X-9-VIMAR_50000
 70
0
 62
7
  6
CONTINUOUS
370
-3
390
F
  0
LAYER
  5
29D
100
AcDbSymbolTableRecord
100
AcDbLayerTableRecord
  2
NO-PB_MARK_10000
 70
0
 62
7
  6
CONTINUOUS
370
-3
390
F
  0
LAYER
  5
29E
100
AcDbSymbolTableRecord
100
AcDbLayerTableRecord
  2
NO-PB_MARK_10000_1
 70
0
 62
7
  6
CONTINUOUS
370
-3
390
F
  0
LAYER
  5
29F
100
AcDbSymbolTableRecord
100
AcDbLayerTableRecord
  2
NOTE
 70
0
 62
7
  6
CONTINUOUS
370
-3
390
F
  0
LAYER
  5
2A0
100
AcDbSymbolTableRecord
100
AcDbLayerTableRecord
  2
PIANI
 70
0
 62
7
  6
CONTINUOUS
370
-3
390
F
  0
LAYER
  5
2A1
100
AcDbSymbolTableRecord
100
AcDbLayerTableRecord
  2
PIANI_DI_RIFERIMENTO
 70
0
 62
7
  6
CONTINUOUS
370
-3
390
F
  0
LAYER
  5
2A2
100
AcDbSymbolTableRecord
100
AcDbLayerTableRecord
  2
PIANI_ORIGINE
 70
0
 62
7
  6
CONTINUOUS
370
-3
390
F
  0
LAYER
  5
2A3
100
AcDbSymbolTableRecord
100
AcDbLayerTableRecord
  2
PIANI_RIFERIMENTO
 70
0
 62
7
  6
CONTINUOUS
370
-3
390
F
  0
LAYER
  5
2A4
100
AcDbSymbolTableRecord
100
AcDbLayerTableRecord
  2
PUNTI
 70
0
 62
7
  6
CONTINUOUS
370
-3
390
F
  0
LAYER
  5
2A5
100
AcDbSymbolTableRecord
100
AcDbLayerTableRecord
  2
RACCORDO
 70
0
 62
7
  6
CONTINUOUS
370
-3
390
F
  0
LAYER
  5
2A6
100
AcDbSymbolTableRecord
100
AcDbLayerTableRecord
  2
RD-R50-1W-1-VIMAR_1700000
 70
0
 62
7
  6
CONTINUOUS
370
-3
390
F
  0
LAYER
  5
2A7
100
AcDbSymbolTableRecord
100
AcDbLayerTableRecord
  2
RD-ZNR50-1-VIMAR_1150000
 70
0
 62
7
  6
CONTINUOUS
370
-3
390
F
  0
LAYER
  5
2A8
100
AcDbSymbolTableRecord
100
AcDbLayerTableRecord
  2
RD_D6H8_5_VIMAR_850000
 70
0
 62
7
  6
CONTINUOUS
370
-3
390
F
  0
LAYER
  5
2A9
100
AcDbSymbolTableRecord
100
AcDbLayerTableRecord
  2
RESC1608N_45000
 70
0
 62
7
  6
CONTINUOUS
370
-3
390
F
  0
LAYER
  5
2AA
100
AcDbSymbolTableRecord
100
AcDbLayerTableRecord
  2
RESC1608N_45000_1
 70
0
 62
7
  6
CONTINUOUS
370
-3
390
F
  0
LAYER
  5
2AB
100
AcDbSymbolTableRecord
100
AcDbLayerTableRecord
  2
RESC1608N_45000_10
 70
0
 62
7
  6
CONTINUOUS
370
-3
390
F
  0
LAYER
  5
2AC
100
AcDbSymbolTableRecord
100
AcDbLayerTableRecord
  2
RESC1608N_45000_11
 70
0
 62
7
  6
CONTINUOUS
370
-3
390
F
  0
LAYER
  5
2AD
100
AcDbSymbolTableRecord
100
AcDbLayerTableRecord
  2
RESC1608N_45000_12
 70
0
 62
7
  6
CONTINUOUS
370
-3
390
F
  0
LAYER
  5
2AE
100
AcDbSymbolTableRecord
100
AcDbLayerTableRecord
  2
RESC1608N_45000_13
 70
0
 62
7
  6
CONTINUOUS
370
-3
390
F
  0
LAYER
  5
2AF
100
AcDbSymbolTableRecord
100
AcDbLayerTableRecord
  2
RESC1608N_45000_14
 70
0
 62
7
  6
CONTINUOUS
370
-3
390
F
  0
LAYER
  5
2B0
100
AcDbSymbolTableRecord
100
AcDbLayerTableRecord
  2
RESC1608N_45000_15
 70
0
 62
7
  6
CONTINUOUS
370
-3
390
F
  0
LAYER
  5
2B1
100
AcDbSymbolTableRecord
100
AcDbLayerTableRecord
  2
RESC1608N_45000_16
 70
0
 62
7
  6
CONTINUOUS
370
-3
390
F
  0
LAYER
  5
2B2
100
AcDbSymbolTableRecord
100
AcDbLayerTableRecord
  2
RESC1608N_45000_17
 70
0
 62
7
  6
CONTINUOUS
370
-3
390
F
  0
LAYER
  5
2B3
100
AcDbSymbolTableRecord
100
AcDbLayerTableRecord
  2
RESC1608N_45000_18
 70
0
 62
7
  6
CONTINUOUS
370
-3
390
F
  0
LAYER
  5
2B4
100
AcDbSymbolTableRecord
100
AcDbLayerTableRecord
  2
RESC1608N_45000_19
 70
0
 62
7
  6
CONTINUOUS
370
-3
390
F
  0
LAYER
  5
2B5
100
AcDbSymbolTableRecord
100
AcDbLayerTableRecord
  2
RESC1608N_45000_2
 70
0
 62
7
  6
CONTINUOUS
370
-3
390
F
  0
LAYER
  5
2B6
100
AcDbSymbolTableRecord
100
AcDbLayerTableRecord
  2
RESC1608N_45000_20
 70
0
 62
7
  6
CONTINUOUS
370
-3
390
F
  0
LAYER
  5
2B7
100
AcDbSymbolTableRecord
100
AcDbLayerTableRecord
  2
RESC1608N_45000_21
 70
0
 62
7
  6
CONTINUOUS
370
-3
390
F
  0
LAYER
  5
2B8
100
AcDbSymbolTableRecord
100
AcDbLayerTableRecord
  2
RESC1608N_45000_22
 70
0
 62
7
  6
CONTINUOUS
370
-3
390
F
  0
LAYER
  5
2B9
100
AcDbSymbolTableRecord
100
AcDbLayerTableRecord
  2
RESC1608N_45000_23
 70
0
 62
7
  6
CONTINUOUS
370
-3
390
F
  0
LAYER
  5
2BA
100
AcDbSymbolTableRecord
100
AcDbLayerTableRecord
  2
RESC1608N_45000_24
 70
0
 62
7
  6
CONTINUOUS
370
-3
390
F
  0
LAYER
  5
2BB
100
AcDbSymbolTableRecord
100
AcDbLayerTableRecord
  2
RESC1608N_45000_25
 70
0
 62
7
  6
CONTINUOUS
370
-3
390
F
  0
LAYER
  5
2BC
100
AcDbSymbolTableRecord
100
AcDbLayerTableRecord
  2
RESC1608N_45000_26
 70
0
 62
7
  6
CONTINUOUS
370
-3
390
F
  0
LAYER
  5
2BD
100
AcDbSymbolTableRecord
100
AcDbLayerTableRecord
  2
RESC1608N_45000_27
 70
0
 62
7
  6
CONTINUOUS
370
-3
390
F
  0
LAYER
  5
2BE
100
AcDbSymbolTableRecord
100
AcDbLayerTableRecord
  2
RESC1608N_45000_28
 70
0
 62
7
  6
CONTINUOUS
370
-3
390
F
  0
LAYER
  5
2BF
100
AcDbSymbolTableRecord
100
AcDbLayerTableRecord
  2
RESC1608N_45000_29
 70
0
 62
7
  6
CONTINUOUS
370
-3
390
F
  0
LAYER
  5
2C0
100
AcDbSymbolTableRecord
100
AcDbLayerTableRecord
  2
RESC1608N_45000_3
 70
0
 62
7
  6
CONTINUOUS
370
-3
390
F
  0
LAYER
  5
2C1
100
AcDbSymbolTableRecord
100
AcDbLayerTableRecord
  2
RESC1608N_45000_30
 70
0
 62
7
  6
CONTINUOUS
370
-3
390
F
  0
LAYER
  5
2C2
100
AcDbSymbolTableRecord
100
AcDbLayerTableRecord
  2
RESC1608N_45000_31
 70
0
 62
7
  6
CONTINUOUS
370
-3
390
F
  0
LAYER
  5
2C3
100
AcDbSymbolTableRecord
100
AcDbLayerTableRecord
  2
RESC1608N_45000_32
 70
0
 62
7
  6
CONTINUOUS
370
-3
390
F
  0
LAYER
  5
2C4
100
AcDbSymbolTableRecord
100
AcDbLayerTableRecord
  2
RESC1608N_45000_33
 70
0
 62
7
  6
CONTINUOUS
370
-3
390
F
  0
LAYER
  5
2C5
100
AcDbSymbolTableRecord
100
AcDbLayerTableRecord
  2
RESC1608N_45000_34
 70
0
 62
7
  6
CONTINUOUS
370
-3
390
F
  0
LAYER
  5
2C6
100
AcDbSymbolTableRecord
100
AcDbLayerTableRecord
  2
RESC1608N_45000_35
 70
0
 62
7
  6
CONTINUOUS
370
-3
390
F
  0
LAYER
  5
2C7
100
AcDbSymbolTableRecord
100
AcDbLayerTableRecord
  2
RESC1608N_45000_36
 70
0
 62
7
  6
CONTINUOUS
370
-3
390
F
  0
LAYER
  5
2C8
100
AcDbSymbolTableRecord
100
AcDbLayerTableRecord
  2
RESC1608N_45000_37
 70
0
 62
7
  6
CONTINUOUS
370
-3
390
F
  0
LAYER
  5
2C9
100
AcDbSymbolTableRecord
100
AcDbLayerTableRecord
  2
RESC1608N_45000_38
 70
0
 62
7
  6
CONTINUOUS
370
-3
390
F
  0
LAYER
  5
2CA
100
AcDbSymbolTableRecord
100
AcDbLayerTableRecord
  2
RESC1608N_45000_39
 70
0
 62
7
  6
CONTINUOUS
370
-3
390
F
  0
LAYER
  5
2CB
100
AcDbSymbolTableRecord
100
AcDbLayerTableRecord
  2
RESC1608N_45000_4
 70
0
 62
7
  6
CONTINUOUS
370
-3
390
F
  0
LAYER
  5
2CC
100
AcDbSymbolTableRecord
100
AcDbLayerTableRecord
  2
RESC1608N_45000_40
 70
0
 62
7
  6
CONTINUOUS
370
-3
390
F
  0
LAYER
  5
2CD
100
AcDbSymbolTableRecord
100
AcDbLayerTableRecord
  2
RESC1608N_45000_41
 70
0
 62
7
  6
CONTINUOUS
370
-3
390
F
  0
LAYER
  5
2CE
100
AcDbSymbolTableRecord
100
AcDbLayerTableRecord
  2
RESC1608N_45000_42
 70
0
 62
7
  6
CONTINUOUS
370
-3
390
F
  0
LAYER
  5
2CF
100
AcDbSymbolTableRecord
100
AcDbLayerTableRecord
  2
RESC1608N_45000_43
 70
0
 62
7
  6
CONTINUOUS
370
-3
390
F
  0
LAYER
  5
2D0
100
AcDbSymbolTableRecord
100
AcDbLayerTableRecord
  2
RESC1608N_45000_44
 70
0
 62
7
  6
CONTINUOUS
370
-3
390
F
  0
LAYER
  5
2D1
100
AcDbSymbolTableRecord
100
AcDbLayerTableRecord
  2
RESC1608N_45000_45
 70
0
 62
7
  6
CONTINUOUS
370
-3
390
F
  0
LAYER
  5
2D2
100
AcDbSymbolTableRecord
100
AcDbLayerTableRecord
  2
RESC1608N_45000_46
 70
0
 62
7
  6
CONTINUOUS
370
-3
390
F
  0
LAYER
  5
2D3
100
AcDbSymbolTableRecord
100
AcDbLayerTableRecord
  2
RESC1608N_45000_47
 70
0
 62
7
  6
CONTINUOUS
370
-3
390
F
  0
LAYER
  5
2D4
100
AcDbSymbolTableRecord
100
AcDbLayerTableRecord
  2
RESC1608N_45000_48
 70
0
 62
7
  6
CONTINUOUS
370
-3
390
F
  0
LAYER
  5
2D5
100
AcDbSymbolTableRecord
100
AcDbLayerTableRecord
  2
RESC1608N_45000_49
 70
0
 62
7
  6
CONTINUOUS
370
-3
390
F
  0
LAYER
  5
2D6
100
AcDbSymbolTableRecord
100
AcDbLayerTableRecord
  2
RESC1608N_45000_5
 70
0
 62
7
  6
CONTINUOUS
370
-3
390
F
  0
LAYER
  5
2D7
100
AcDbSymbolTableRecord
100
AcDbLayerTableRecord
  2
RESC1608N_45000_50
 70
0
 62
7
  6
CONTINUOUS
370
-3
390
F
  0
LAYER
  5
2D8
100
AcDbSymbolTableRecord
100
AcDbLayerTableRecord
  2
RESC1608N_45000_51
 70
0
 62
7
  6
CONTINUOUS
370
-3
390
F
  0
LAYER
  5
2D9
100
AcDbSymbolTableRecord
100
AcDbLayerTableRecord
  2
RESC1608N_45000_52
 70
0
 62
7
  6
CONTINUOUS
370
-3
390
F
  0
LAYER
  5
2DA
100
AcDbSymbolTableRecord
100
AcDbLayerTableRecord
  2
RESC1608N_45000_53
 70
0
 62
7
  6
CONTINUOUS
370
-3
390
F
  0
LAYER
  5
2DB
100
AcDbSymbolTableRecord
100
AcDbLayerTableRecord
  2
RESC1608N_45000_6
 70
0
 62
7
  6
CONTINUOUS
370
-3
390
F
  0
LAYER
  5
2DC
100
AcDbSymbolTableRecord
100
AcDbLayerTableRecord
  2
RESC1608N_45000_7
 70
0
 62
7
  6
CONTINUOUS
370
-3
390
F
  0
LAYER
  5
2DD
100
AcDbSymbolTableRecord
100
AcDbLayerTableRecord
  2
RESC1608N_45000_8
 70
0
 62
7
  6
CONTINUOUS
370
-3
390
F
  0
LAYER
  5
2DE
100
AcDbSymbolTableRecord
100
AcDbLayerTableRecord
  2
RESC1608N_45000_9
 70
0
 62
7
  6
CONTINUOUS
370
-3
390
F
  0
LAYER
  5
2DF
100
AcDbSymbolTableRecord
100
AcDbLayerTableRecord
  2
RGB__255__255__255__
 70
0
 62
7
  6
CONTINUOUS
370
-3
390
F
  0
LAYER
  5
2E0
100
AcDbSymbolTableRecord
100
AcDbLayerTableRecord
  2
RY-S13-3_2-VIMAR_1500000
 70
0
 62
7
  6
CONTINUOUS
370
-3
390
F
  0
LAYER
  5
2E1
100
AcDbSymbolTableRecord
100
AcDbLayerTableRecord
  2
SC70-6_REF_H1_1_110000
 70
0
 62
7
  6
CONTINUOUS
370
-3
390
F
  0
LAYER
  5
2E2
100
AcDbSymbolTableRecord
100
AcDbLayerTableRecord
  2
SIMBOLI
 70
0
 62
7
  6
CONTINUOUS
370
-3
390
F
  0
LAYER
  5
2E3
100
AcDbSymbolTableRecord
100
AcDbLayerTableRecord
  2
SMUSSO
 70
0
 62
7
  6
CONTINUOUS
370
-3
390
F
  0
LAYER
  5
2E4
100
AcDbSymbolTableRecord
100
AcDbLayerTableRecord
  2
SNAPLINE
 70
0
 62
7
  6
CONTINUOUS
370
-3
390
F
  0
LAYER
  5
2E5
100
AcDbSymbolTableRecord
100
AcDbLayerTableRecord
  2
SOD123_135000
 70
0
 62
7
  6
CONTINUOUS
370
-3
390
F
  0
LAYER
  5
2E6
100
AcDbSymbolTableRecord
100
AcDbLayerTableRecord
  2
SOD123_135000_1
 70
0
 62
7
  6
CONTINUOUS
370
-3
390
F
  0
LAYER
  5
2E7
100
AcDbSymbolTableRecord
100
AcDbLayerTableRecord
  2
SOIC-8-7A-5_0-6_2-1_75-REF_1750
 70
0
 62
7
  6
CONTINUOUS
370
-3
390
F
  0
LAYER
  5
2E8
100
AcDbSymbolTableRecord
100
AcDbLayerTableRecord
  2
SOP8-T1-RF-FINE-VIMAR_150000
 70
0
 62
7
  6
CONTINUOUS
370
-3
390
F
  0
LAYER
  5
2E9
100
AcDbSymbolTableRecord
100
AcDbLayerTableRecord
  2
SOT95P280X110-6N_110000
 70
0
 62
7
  6
CONTINUOUS
370
-3
390
F
  0
LAYER
  5
2EA
100
AcDbSymbolTableRecord
100
AcDbLayerTableRecord
  2
SOT95P280X110-6N_110000_1
 70
0
 62
7
  6
CONTINUOUS
370
-3
390
F
  0
LAYER
  5
2EB
100
AcDbSymbolTableRecord
100
AcDbLayerTableRecord
  2
STANDARD
 70
0
 62
7
  6
CONTINUOUS
370
-3
390
F
  0
LAYER
  5
2EC
100
AcDbSymbolTableRecord
100
AcDbLayerTableRecord
  2
SUPERFICI
 70
0
 62
7
  6
CONTINUOUS
370
-3
390
F
  0
LAYER
  5
2ED
100
AcDbSymbolTableRecord
100
AcDbLayerTableRecord
  2
TP10_SMD_0
 70
0
 62
7
  6
CONTINUOUS
370
-3
390
F
  0
LAYER
  5
2EE
100
AcDbSymbolTableRecord
100
AcDbLayerTableRecord
  2
TP10_SMD_0_1
 70
0
 62
7
  6
CONTINUOUS
370
-3
390
F
  0
LAYER
  5
2EF
100
AcDbSymbolTableRecord
100
AcDbLayerTableRecord
  2
TRASH
 70
0
 62
7
  6
CONTINUOUS
370
-3
390
F
  0
LAYER
  5
2F0
100
AcDbSymbolTableRecord
100
AcDbLayerTableRecord
  2
TSSOP14-RF-3-VIMAR_110000
 70
0
 62
7
  6
CONTINUOUS
370
-3
390
F
  0
LAYER
  5
2F1
100
AcDbSymbolTableRecord
100
AcDbLayerTableRecord
  2
TSSOP8-RF-1-VIMAR_0
 70
0
 62
7
  6
CONTINUOUS
370
-3
390
F
  0
LAYER
  5
2F2
100
AcDbSymbolTableRecord
100
AcDbLayerTableRecord
  2
XSEC_DATUMS
 70
0
 62
7
  6
CONTINUOUS
370
-3
390
F
  0
LAYER
  5
2F3
100
AcDbSymbolTableRecord
100
AcDbLayerTableRecord
  2
___SHELL
 70
0
 62
7
  6
CONTINUOUS
370
-3
390
F
  0
ENDTAB
  0
TABLE
  2
STYLE
  5
3
100
AcDbSymbolTable
 70
1
  0
STYLE
  5
11
100
AcDbSymbolTableRecord
100
AcDbTextStyleTableRecord
  2
STANDARD
 70
0
 40
0.0
 41
0.8
 50
0.0
 71
0
 42
0.2
  3
txt
  4

  0
STYLE
  5
2F4
100
AcDbSymbolTableRecord
100
AcDbTextStyleTableRecord
  2
TEXTSTYLE_1
 70
0
 40
0.0
 41
0.8
 50
0.0
 71
0
 42
0.2
  3
gdt
  4

  0
ENDTAB
  0
TABLE
  2
VIEW
  5
6
100
AcDbSymbolTable
 70
0
  0
ENDTAB
  0
TABLE
  2
UCS
  5
7
100
AcDbSymbolTable
 70
0
  0
ENDTAB
  0
TABLE
  2
APPID
  5
9
100
AcDbSymbolTable
 70
1
  0
APPID
  5
2F5
100
AcDbSymbolTableRecord
100
AcDbRegAppTableRecord
  2
ACAD
 70
0
  0
ENDTAB
  0
TABLE
  2
BLOCK_RECORD
  5
1
100
AcDbSymbolTable
 70
0
  0
BLOCK_RECORD
  5
2F6
100
AcDbSymbolTableRecord
100
AcDbBlockTableRecord
  2
*Model_Space
  0
BLOCK_RECORD
  5
2F7
100
AcDbSymbolTableRecord
100
AcDbBlockTableRecord
  2
*Paper_Space
  0
ENDTAB
  0
TABLE
  2
DIMSTYLE
  5
A
100
AcDbSymbolTable
 70
1
100
AcDbDimStyleTable
 71
0
  0
DIMSTYLE
105
2F8
100
AcDbSymbolTableRecord
100
AcDbDimStyleTableRecord
  2
STANDARD
 70
0
  3

  4

 40
1.0
 41
3.0
 42
0.5
 43
0.38
 44
1.5
 45
0.0
 46
0.0
 47
0.01
 48
0.01
140
3.0
141
0.09
142
0.0
143
25.4
144
1.0
145
0.0
146
1.0
147
0.625
 71
1.0
 72
0.0
 73
0
 74
0
 75
0
 76
0
 77
1
 78
8
170
0
171
1
172
0
173
0
174
0
175
0
176
0
177
0
178
0
270
2
271
2
272
2
273
2
274
2
275
0
280
0
281
0
282
0
283
1
284
8
285
0
286
0
287
3
288
0
340
11
278
44
  0
ENDTAB
  0
ENDSEC
  0
SECTION
  2
BLOCKS
  0
BLOCK
  5
20
100
AcDbEntity
  8
0
100
AcDbBlockBegin
  2
*Model_Space
 70
0
 10
0.0
 20
0.0
 30
0.0
  3
*Model_Space
  1

  0
ENDBLK
  5
21
100
AcDbEntity
  8
0
100
AcDbBlockEnd
  0
BLOCK
  5
1C
100
AcDbEntity
  8
0
100
AcDbBlockBegin
  2
*Paper_Space
 70
0
 10
0.0
 20
0.0
 30
0.0
  3
*Paper_Space
  1

  0
ENDBLK
  5
1D
100
AcDbEntity
  8
0
100
AcDbBlockEnd
  0
ENDSEC
  0
SECTION
  2
ENTITIES
  0
LWPOLYLINE
  5
2F9
100
AcDbEntity
  8
RACCORDO
100
AcDbPolyline
 62
253
  6
CONTINUOUS
 90
4
 70
0
 10
-28.6679204434
 20
42.6918279976
 10
-28.6472158654
 20
42.7157558956
 10
-28.6253432275
 20
42.7371275663
 10
-28.6026763769
 20
42.7555819472
  0
LWPOLYLINE
  5
2FA
100
AcDbEntity
  8
RACCORDO
100
AcDbPolyline
 62
253
  6
CONTINUOUS
 90
20
 70
0
 10
-40.0825500863
 20
32.0419422313
 10
-40.1515831063
 20
31.9627840955
 10
-40.2180565148
 20
31.8793443417
 10
-40.2816086423
 20
31.7920701537
 10
-40.3418923823
 20
31.7014506788
 10
-40.3985793429
 20
31.6079741278
 10
-40.4513686628
 20
31.5121284662
 10
-40.4999858298
 20
31.4144281313
 10
-40.5441698645
 20
31.3153922502
 10
-40.583682311
 20
31.2155454554
 10
-40.6183181071
 20
31.1154213009
 10
-40.6478918169
 20
31.0155516134
 10
-40.6722431722
 20
30.9164665826
 10
-40.6912455642
 20
30.8186955306
 10
-40.7047987378
 20
30.7227503288
 10
-40.7128268345
 20
30.6291491951
 10
-40.7152882472
 20
30.538414608
 10
-40.7121753243
 20
30.451034574
 10
-40.7035093718
 20
30.3674623771
 10
-40.6893415252
 20
30.2881391219
  0
LINE
  5
2FB
100
AcDbEntity
  8
RACCORDO
100
AcDbLine
 62
253
  6
CONTINUOUS
 10
-40.0113291746
 20
32.1164128707
 11
-40.0825500863
 21
32.0419422313
  0
LWPOLYLINE
  5
2FC
100
AcDbEntity
  8
RACCORDO
100
AcDbPolyline
 62
7
  6
CONTINUOUS
 90
17
 70
0
 10
-40.1837321986
 20
32.213723253
 10
-40.2712184616
 20
32.1284793965
 10
-40.3539939376
 20
32.0370101439
 10
-40.4315459807
 20
31.9402420486
 10
-40.5037398087
 20
31.8387098419
 10
-40.5703960279
 20
31.7328357802
 10
-40.6312196664
 20
31.6231930772
 10
-40.6858397099
 20
31.5103763771
 10
-40.7339159196
 20
31.3948718566
 10
-40.7751596636
 20
31.2769305354
 10
-40.8089821411
 20
31.1573860945
 10
-40.834819652
 20
31.0374143522
 10
-40.8523688058
 20
30.9166403337
 10
-40.8609430851
 20
30.7964148354
 10
-40.8601467183
 20
30.6801180634
 10
-40.8501665518
 20
30.5689579057
 10
-40.8330243897
 20
30.4708814065
  0
LINE
  5
2FD
100
AcDbEntity
  8
RACCORDO
100
AcDbLine
 62
253
  6
CONTINUOUS
 10
-39.9383048101
 20
32.1858063557
 11
-40.0113291746
 21
32.1164128707
  0
LINE
  5
2FE
100
AcDbEntity
  8
RACCORDO
100
AcDbLine
 62
7
  6
CONTINUOUS
 10
-35.0613859525
 20
36.8893672579
 11
-40.1838820318
 21
32.2136055181
  0
LINE
  5
2FF
100
AcDbEntity
  8
RACCORDO
100
AcDbLine
 62
7
  6
CONTINUOUS
 10
-34.9695810139
 20
36.9723682077
 11
-35.0613891602
 21
36.8893642757
  0
LINE
  5
300
100
AcDbEntity
  8
RACCORDO
100
AcDbLine
 62
7
  6
CONTINUOUS
 10
-31.9954613181
 20
34.9189484009
 11
-35.5800334591
 21
31.7402266214
  0
LINE
  5
301
100
AcDbEntity
  8
RACCORDO
100
AcDbLine
 62
7
  6
CONTINUOUS
 10
-34.7950856999
 20
37.1257789169
 11
-34.9695810139
 21
36.9723682077
  0
LWPOLYLINE
  5
302
100
AcDbEntity
  8
RACCORDO
100
AcDbPolyline
 62
253
  6
CONTINUOUS
 90
19
 70
0
 10
-33.5878399378
 20
37.8450474539
 10
-33.6569546019
 20
37.7966924247
 10
-33.7259714883
 20
37.7475904252
 10
-33.7948982013
 20
37.6977372907
 10
-33.8637281426
 20
37.6471383392
 10
-33.9324541265
 20
37.5957993982
 10
-34.0010828128
 20
37.5437162611
 10
-34.069607193
 20
37.4908943255
 10
-34.1380204902
 20
37.4373388944
 10
-34.2063296168
 20
37.3830448571
 10
-34.274527729
 20
37.3280172382
 10
-34.3426078192
 20
37.2722612784
 10
-34.410576425
 20
37.2157714519
 10
-34.4784262924
 20
37.1585528922
 10
-34.5461507026
 20
37.1006103718
 10
-34.6137568302
 20
37.0419370934
 10
-34.6812423017
 20
36.982533778
 10
-34.7485952992
 20
36.9224091457
 10
-39.9383048101
 20
32.1858063557
  0
LWPOLYLINE
  5
303
100
AcDbEntity
  8
RACCORDO
100
AcDbPolyline
 62
253
  6
CONTINUOUS
 90
3
 70
0
 10
-33.4493352272
 20
37.939499333
 10
-33.5186295559
 20
37.8926527867
 10
-33.5878399378
 20
37.8450474539
  0
LWPOLYLINE
  5
304
100
AcDbEntity
  8
RACCORDO
100
AcDbPolyline
 62
7
  6
CONTINUOUS
 90
8
 70
0
 10
-33.6367268187
 20
38.005996056
 10
-33.7249911357
 20
37.9471240254
 10
-33.9055761678
 20
37.8225304511
 10
-34.0854053633
 20
37.692888744
 10
-34.2643740077
 20
37.5582947197
 10
-34.4423784032
 20
37.4188456523
 10
-34.6193171964
 20
37.2746393796
 10
-34.7950856999
 20
37.1257789169
  0
LINE
  5
305
100
AcDbEntity
  8
RACCORDO
100
AcDbLine
 62
253
  6
CONTINUOUS
 10
-28.6026763769
 20
42.7555819472
 11
-28.5796042508
 21
42.7708058921
  0
LINE
  5
306
100
AcDbEntity
  8
RACCORDO
100
AcDbLine
 62
7
  6
CONTINUOUS
 10
-28.1255828572
 20
41.6405437243
 11
-33.6367333325
 21
38.0059918163
  0
LINE
  5
307
100
AcDbEntity
  8
RACCORDO
100
AcDbLine
 62
253
  6
CONTINUOUS
 10
-28.1255828572
 20
41.4507962214
 11
-33.4493352272
 21
37.939499333
  0
LINE
  5
308
100
AcDbEntity
  8
RACCORDO
100
AcDbLine
 62
7
  6
CONTINUOUS
 10
-25.4765650765
 20
41.113680268
 11
-26.3666252592
 21
40.5521667862
  0
LINE
  5
309
100
AcDbEntity
  8
RACCORDO
100
AcDbLine
 62
7
  6
CONTINUOUS
 10
-27.1230003496
 20
43.7177719786
 11
-28.7057570101
 21
42.7825178847
  0
LINE
  5
30A
100
AcDbEntity
  8
RACCORDO
100
AcDbLine
 62
253
  6
CONTINUOUS
 10
-26.9968476477
 20
43.7060599522
 11
-28.5796042508
 21
42.7708058921
  0
LINE
  5
30B
100
AcDbEntity
  8
RACCORDO
100
AcDbLine
 62
253
  6
CONTINUOUS
 10
-28.7057146575
 20
42.7825428941
 11
-28.7057570101
 21
42.7825178847
  0
LINE
  5
30C
100
AcDbEntity
  8
RACCORDO
100
AcDbLine
 62
7
  6
CONTINUOUS
 10
-27.1215461284
 20
43.718611628
 11
-27.1230003496
 21
43.7177719786
  0
LINE
  5
30D
100
AcDbEntity
  8
RACCORDO
100
AcDbLine
 62
253
  6
CONTINUOUS
 10
-25.1250716084
 20
43.2353499594
 11
-27.254619571
 21
42.005776344
  0
LINE
  5
30E
100
AcDbEntity
  8
RACCORDO
100
AcDbLine
 62
253
  6
CONTINUOUS
 10
-24.9482979048
 20
42.9291689235
 11
-27.0778458673
 21
41.6995953081
  0
LINE
  5
30F
100
AcDbEntity
  8
RACCORDO
100
AcDbLine
 62
7
  6
CONTINUOUS
 10
-24.0685223415
 20
41.1101179982
 11
-17.4671970325
 21
44.9216698119
  0
LINE
  5
310
100
AcDbEntity
  8
RACCORDO
100
AcDbLine
 62
7
  6
CONTINUOUS
 10
-26.5862443966
 20
44.0205488479
 11
-27.1215510599
 21
43.7186202246
  0
LINE
  5
311
100
AcDbEntity
  8
RACCORDO
100
AcDbLine
 62
253
  6
CONTINUOUS
 10
-26.462397769
 20
44.0075053239
 11
-26.9968476477
 21
43.7060599522
  0
LINE
  5
312
100
AcDbEntity
  8
0
100
AcDbLine
 62
7
  6
CONTINUOUS
 10
-5.8665538386
 20
50.8299598052
 11
-5.8663348129
 21
50.8300776428
  0
LINE
  5
313
100
AcDbEntity
  8
RACCORDO
100
AcDbLine
 62
7
  6
CONTINUOUS
 10
-17.1711668795
 20
44.7507047961
 11
-5.86633527
 21
50.8300773971
  0
LINE
  5
314
100
AcDbEntity
  8
RACCORDO
100
AcDbLine
 62
7
  6
CONTINUOUS
 10
-26.558750437
 20
44.0339104502
 11
-26.5862871329
 21
44.0205247268
  0
LWPOLYLINE
  5
315
100
AcDbEntity
  8
0
100
AcDbPolyline
 62
253
  6
CONTINUOUS
 90
14
 70
0
 10
-5.8663348129
 20
50.8300776428
 10
-5.8159325422
 20
50.8545156233
 10
-5.7552784961
 20
50.8774725164
 10
-5.6920957132
 20
50.8948046225
 10
-5.6255122244
 20
50.9066354744
 10
-5.555399221
 20
50.9126919926
 10
-5.4821213007
 20
50.912653661
 10
-5.405429169
 20
50.9062182917
 10
-5.325181361
 20
50.8929859238
 10
-5.2418753063
 20
50.8726506263
 10
-5.1562656959
 20
50.8451079438
 10
-5.0688187823
 20
50.8102986329
 10
-4.9796840281
 20
50.7680719297
 10
-4.8892064521
 20
50.7183617637
  0
LINE
  5
316
100
AcDbEntity
  8
RACCORDO
100
AcDbLine
 62
7
  6
CONTINUOUS
 10
-26.5273326314
 20
44.0444913585
 11
-26.558750437
 21
44.0339104502
  0
LWPOLYLINE
  5
317
100
AcDbEntity
  8
RACCORDO
100
AcDbPolyline
 62
253
  6
CONTINUOUS
 90
4
 70
0
 10
-28.7195967771
 20
42.6089463986
 10
-28.7044124767
 20
42.6379894127
 10
-28.6870980111
 20
42.6657542408
 10
-28.6679204434
 20
42.6918279976
  0
LWPOLYLINE
  5
318
100
AcDbEntity
  8
RACCORDO
100
AcDbPolyline
 62
7
  6
CONTINUOUS
 90
5
 70
0
 10
-24.9305979042
 20
42.5471798183
 10
-24.9122089743
 20
42.5735726704
 10
-24.8973909557
 20
42.6020406101
 10
-24.8863546725
 20
42.6321295713
 10
-24.8792486857
 20
42.663444209
  0
LINE
  5
319
100
AcDbEntity
  8
RACCORDO
100
AcDbLine
 62
253
  6
CONTINUOUS
 10
-25.4765650765
 20
41.9387113566
 11
-24.9482979048
 21
42.601523623
  0
LINE
  5
31A
100
AcDbEntity
  8
RACCORDO
100
AcDbLine
 62
7
  6
CONTINUOUS
 10
-25.4765650765
 20
41.8621595138
 11
-24.9305979042
 21
42.5471798183
  0
LWPOLYLINE
  5
31B
100
AcDbEntity
  8
RACCORDO
100
AcDbPolyline
 62
7
  6
CONTINUOUS
 90
11
 70
0
 10
-26.3666252592
 20
41.3135851224
 10
-26.3893704604
 20
41.2881927369
 10
-26.414340588
 20
41.2642586442
 10
-26.4414252046
 20
41.2422408027
 10
-26.4706176614
 20
41.2226314378
 10
-26.5015418826
 20
41.2058332542
 10
-26.5334685282
 20
41.1921823916
 10
-26.5660733503
 20
41.1821086954
 10
-26.5989911145
 20
41.1759879575
 10
-26.6313665512
 20
41.1741000162
 10
-26.6486493855
 20
41.1749745049
  0
LINE
  5
31C
100
AcDbEntity
  8
RACCORDO
100
AcDbLine
 62
7
  6
CONTINUOUS
 10
-32.5216120067
 20
31.3119446124
 11
-33.0130700429
 21
30.8761301549
  0
LWPOLYLINE
  5
31D
100
AcDbEntity
  8
RACCORDO
100
AcDbPolyline
 62
7
  6
CONTINUOUS
 90
19
 70
0
 10
-31.7686328424
 20
35.1021669267
 10
-31.6631666547
 20
35.1743530795
 10
-31.5574654648
 20
35.2383695944
 10
-31.4515888494
 20
35.294391359
 10
-31.345091944
 20
35.3425191872
 10
-31.2385180302
 20
35.3829782655
 10
-31.1334025774
 20
35.4161346539
 10
-31.0299426089
 20
35.4420448845
 10
-30.9280123613
 20
35.4609617589
 10
-30.8286584965
 20
35.4735462225
 10
-30.7321478432
 20
35.4799660579
 10
-30.6382577122
 20
35.4802936965
 10
-30.5472944769
 20
35.4750266575
 10
-30.4588647799
 20
35.4642054512
 10
-30.3733860369
 20
35.4479468124
 10
-30.2923768455
 20
35.4268438474
 10
-30.2163473194
 20
35.4011239202
 10
-30.1447988282
 20
35.3706452302
 10
-30.077734103
 20
35.3354289258
  0
LINE
  5
31E
100
AcDbEntity
  8
RACCORDO
100
AcDbLine
 62
7
  6
CONTINUOUS
 10
-23.1077453582
 20
40.4759731532
 11
-22.7542039689
 21
40.6848814712
  0
LINE
  5
31F
100
AcDbEntity
  8
0
100
AcDbLine
 62
7
  6
CONTINUOUS
 10
-17.8044565006
 20
41.0933217752
 11
-17.0973497194
 21
41.5015963685
  0
LINE
  5
320
100
AcDbEntity
  8
0
100
AcDbLine
 62
7
  6
CONTINUOUS
 10
-16.7437963289
 20
41.2974590719
 11
-15.3460118223
 21
42.1045223276
  0
LINE
  5
321
100
AcDbEntity
  8
RACCORDO
100
AcDbLine
 62
7
  6
CONTINUOUS
 10
-16.7635740968
 20
43.372934024
 11
-21.4107010847
 21
40.7209588454
  0
LWPOLYLINE
  5
322
100
AcDbEntity
  8
RACCORDO
100
AcDbPolyline
 62
253
  6
CONTINUOUS
 90
28
 70
0
 10
-17.7337458225
 20
40.5625963678
 10
-17.7085574804
 20
40.5769452557
 10
-17.6803287665
 20
40.5911035455
 10
-17.6490596807
 20
40.6050712372
 10
-17.6146208912
 20
40.619108273
 10
-17.5771417299
 20
40.6329547107
 10
-17.5370101924
 20
40.6458307237
 10
-17.4940797029
 20
40.6576844036
 10
-17.4484968372
 20
40.6685676589
 10
-17.4010893183
 20
40.6778563886
 10
-17.3517447836
 20
40.6854591065
 10
-17.3005755956
 20
40.6914672989
 10
-17.2487465659
 20
40.6955313234
 10
-17.1962210061
 20
40.6975369557
 10
-17.1430356046
 20
40.6975984201
 10
-17.0904652371
 20
40.6957087479
 10
-17.0385442174
 20
40.6917534062
 10
-16.9872382318
 20
40.6858469278
 10
-16.9377192157
 20
40.6783259421
 10
-16.8900962441
 20
40.6690973421
 10
-16.844260242
 20
40.6582542348
 10
-16.8010559203
 20
40.6464125705
 10
-16.7606318764
 20
40.6335194593
 10
-16.7228395129
 20
40.619627791
 10
-16.6880777488
 20
40.6055121857
 10
-16.6564795573
 20
40.59143085
 10
-16.6279119652
 20
40.5771255774
 10
-16.6023749726
 20
40.5625963678
  0
LINE
  5
323
100
AcDbEntity
  8
DRAFT
100
AcDbLine
 62
7
  6
CONTINUOUS
 10
-17.0973497194
 20
42.0225364423
 11
-16.7635740968
 21
42.2118909821
  0
LINE
  5
324
100
AcDbEntity
  8
RACCORDO
100
AcDbLine
 62
7
  6
CONTINUOUS
 10
-14.687016071
 20
42.9852329488
 11
-16.7437963289
 21
41.8183991457
  0
LINE
  5
325
100
AcDbEntity
  8
RACCORDO
100
AcDbLine
 62
7
  6
CONTINUOUS
 10
-22.7542039689
 20
40.6848814712
 11
-17.3670493717
 21
43.7233943136
  0
LWPOLYLINE
  5
326
100
AcDbEntity
  8
RACCORDO
100
AcDbPolyline
 62
7
  6
CONTINUOUS
 90
9
 70
0
 10
-17.8276440497
 20
40.576000349
 10
-17.8269795369
 20
40.5763713034
 10
-17.8230391578
 20
40.5783140713
 10
-17.8187531224
 20
40.57997966
 10
-17.8141104749
 20
40.5813335907
 10
-17.8090900423
 20
40.5823428606
 10
-17.8036547129
 20
40.582962859
 10
-17.7977789307
 20
40.5831518453
 10
-17.7914553226
 20
40.582863341
  0
LINE
  5
327
100
AcDbEntity
  8
0
100
AcDbLine
 62
253
  6
CONTINUOUS
 10
-16.5997809914
 20
44.4207937455
 11
-4.8892064521
 21
50.7183617637
  0
LWPOLYLINE
  5
328
100
AcDbEntity
  8
RACCORDO
100
AcDbPolyline
 62
7
  6
CONTINUOUS
 90
3
 70
0
 10
-17.7024206502
 20
40.6362600943
 10
-17.7698392893
 20
40.6063463474
 10
-17.8276433087
 20
40.5760010399
  0
LWPOLYLINE
  5
329
100
AcDbEntity
  8
RACCORDO
100
AcDbPolyline
 62
253
  6
CONTINUOUS
 90
11
 70
0
 10
-27.0778458673
 20
41.3790751352
 10
-27.0908239422
 20
41.3505048169
 10
-27.1065751143
 20
41.3240850095
 10
-27.1248506308
 20
41.3002777182
 10
-27.1453715839
 20
41.2794915041
 10
-27.1677887087
 20
41.2621206426
 10
-27.1916754483
 20
41.2485115889
 10
-27.2166045386
 20
41.2389028076
 10
-27.2421661653
 20
41.2334475099
 10
-27.2679221579
 20
41.232238925
 10
-27.2765133785
 20
41.232788941
  0
LINE
  5
32A
100
AcDbEntity
  8
RACCORDO
100
AcDbLine
 62
253
  6
CONTINUOUS
 10
-30.077734103
 20
35.3354289258
 11
-32.036978878
 21
31.4517222072
  0
LINE
  5
32B
100
AcDbEntity
  8
RACCORDO
100
AcDbLine
 62
7
  6
CONTINUOUS
 10
-19.1235052738
 20
39.4003606495
 11
-17.8365105482
 21
40.5695720006
  0
LINE
  5
32C
100
AcDbEntity
  8
RACCORDO
100
AcDbLine
 62
253
  6
CONTINUOUS
 10
-19.0559787963
 20
39.3613717076
 11
-17.7337458225
 21
40.5625963678
  0
LWPOLYLINE
  5
32D
100
AcDbEntity
  8
RACCORDO
100
AcDbPolyline
 62
7
  6
CONTINUOUS
 90
4
 70
0
 10
-17.8365104702
 20
40.5695720715
 10
-17.8338883536
 20
40.571795412
 10
-17.8305910855
 20
40.5741876288
 10
-17.8276440497
 20
40.576000349
  0
LINE
  5
32E
100
AcDbEntity
  8
RACCORDO
100
AcDbLine
 62
7
  6
CONTINUOUS
 10
-16.5316642945
 20
35.9490066624
 11
-16.8893434438
 21
35.7233571295
  0
LINE
  5
32F
100
AcDbEntity
  8
RACCORDO
100
AcDbLine
 62
7
  6
CONTINUOUS
 10
-16.8893434438
 20
36.8855458227
 11
-11.2068302243
 21
40.1665609835
  0
LINE
  5
330
100
AcDbEntity
  8
DRAFT
100
AcDbLine
 62
7
  6
CONTINUOUS
 10
-16.5316642945
 20
35.9490066624
 11
-11.2068302243
 21
39.0055120279
  0
LINE
  5
331
100
AcDbEntity
  8
RACCORDO
100
AcDbLine
 62
7
  6
CONTINUOUS
 10
-11.8138266285
 20
40.5150118708
 11
-16.4609536164
 21
37.8630366921
  0
LINE
  5
332
100
AcDbEntity
  8
RACCORDO
100
AcDbLine
 62
7
  6
CONTINUOUS
 10
-10.4443753839
 20
40.5355853889
 11
-11.0832361604
 21
40.1731527242
  0
LWPOLYLINE
  5
333
100
AcDbEntity
  8
RACCORDO
100
AcDbPolyline
 62
7
  6
CONTINUOUS
 90
13
 70
0
 10
-10.4443753839
 20
40.5355853889
 10
-10.3980803035
 20
40.5600596213
 10
-10.3523900988
 20
40.5808083175
 10
-10.3073047696
 20
40.5978314775
 10
-10.2626390391
 20
40.611169522
 10
-10.2185781843
 20
40.6207820304
 10
-10.1756780352
 20
40.6265477401
 10
-10.1339532961
 20
40.6284179188
 10
-10.0933892628
 20
40.6264412988
 10
-10.0544976529
 20
40.6206428155
 10
-10.0172996532
 20
40.6109740522
 10
-9.9817740769
 20
40.5974834255
 10
-9.9505219441
 20
40.5815946108
  0
LINE
  5
334
100
AcDbEntity
  8
RACCORDO
100
AcDbLine
 62
253
  6
CONTINUOUS
 10
-31.9954613181
 20
34.9189484009
 11
-32.5216120067
 21
31.3119446124
  0
LWPOLYLINE
  5
335
100
AcDbEntity
  8
RACCORDO
100
AcDbPolyline
 62
253
  6
CONTINUOUS
 90
4
 70
0
 10
-28.7495918863
 20
42.5202263528
 10
-28.7423906284
 20
42.5494205506
 10
-28.7323492882
 20
42.5791845415
 10
-28.7195967771
 20
42.6089463986
  0
LWPOLYLINE
  5
336
100
AcDbEntity
  8
RACCORDO
100
AcDbPolyline
 62
253
  6
CONTINUOUS
 90
4
 70
0
 10
-15.3032391015
 20
34.9758928305
 10
-15.2826191329
 20
34.9996621268
 10
-15.2608381164
 20
35.0209047831
 10
-15.2382659795
 20
35.039260015
  0
LWPOLYLINE
  5
337
100
AcDbEntity
  8
RACCORDO
100
AcDbPolyline
 62
7
  6
CONTINUOUS
 90
5
 70
0
 10
-11.5146524742
 20
34.8954620935
 10
-11.5222538128
 20
34.8899644783
 10
-11.5330155501
 20
34.8863852561
 10
-11.5471344981
 20
34.8841346639
 10
-11.5642484101
 20
34.8836628305
  0
LINE
  5
338
100
AcDbEntity
  8
RACCORDO
100
AcDbLine
 62
253
  6
CONTINUOUS
 10
-15.2382659795
 20
35.039260015
 11
-15.2152860864
 21
35.0544160783
  0
LINE
  5
339
100
AcDbEntity
  8
RACCORDO
100
AcDbLine
 62
7
  6
CONTINUOUS
 10
-12.1122469121
 20
33.3972904541
 11
-13.0023070948
 21
32.8357769724
  0
LINE
  5
33A
100
AcDbEntity
  8
RACCORDO
100
AcDbLine
 62
7
  6
CONTINUOUS
 10
-6.4958739814
 20
38.0544026787
 11
-7.4104473457
 21
37.4888167913
  0
LINE
  5
33B
100
AcDbEntity
  8
RACCORDO
100
AcDbLine
 62
7
  6
CONTINUOUS
 10
-6.4958739814
 20
37.5855306043
 11
-7.0228694593
 21
37.2650341772
  0
LINE
  5
33C
100
AcDbEntity
  8
RACCORDO
100
AcDbLine
 62
7
  6
CONTINUOUS
 10
-13.7586821852
 20
36.0013821647
 11
-15.3414388457
 21
35.0661280708
  0
LINE
  5
33D
100
AcDbEntity
  8
RACCORDO
100
AcDbLine
 62
253
  6
CONTINUOUS
 10
-13.6325294832
 20
35.9896701383
 11
-15.2152860864
 21
35.0544160783
  0
LINE
  5
33E
100
AcDbEntity
  8
RACCORDO
100
AcDbLine
 62
7
  6
CONTINUOUS
 10
-13.757227964
 20
36.0022218141
 11
-13.7586821852
 21
36.0013821647
  0
LINE
  5
33F
100
AcDbEntity
  8
RACCORDO
100
AcDbLine
 62
253
  6
CONTINUOUS
 10
-11.760753444
 20
35.5189601455
 11
-13.8903014066
 21
34.2893865301
  0
LINE
  5
340
100
AcDbEntity
  8
RACCORDO
100
AcDbLine
 62
253
  6
CONTINUOUS
 10
-11.5839797403
 20
35.2127791096
 11
-13.7135277029
 21
33.9832054942
  0
LINE
  5
341
100
AcDbEntity
  8
0
100
AcDbLine
 62
7
  6
CONTINUOUS
 10
-6.6321424334
 20
37.0690135144
 11
-6.6579834991
 21
37.0543535969
  0
LINE
  5
342
100
AcDbEntity
  8
RACCORDO
100
AcDbLine
 62
7
  6
CONTINUOUS
 10
-13.2219262322
 20
36.304159034
 11
-13.7572328955
 21
36.0022304108
  0
LINE
  5
343
100
AcDbEntity
  8
RACCORDO
100
AcDbLine
 62
253
  6
CONTINUOUS
 10
-13.0980796046
 20
36.29111551
 11
-13.6325294832
 21
35.9896701383
  0
LINE
  5
344
100
AcDbEntity
  8
RACCORDO
100
AcDbLine
 62
7
  6
CONTINUOUS
 10
-7.3774094399
 20
38.764757691
 11
-12.3944448672
 21
35.9682236849
  0
LINE
  5
345
100
AcDbEntity
  8
0
100
AcDbLine
 62
7
  6
CONTINUOUS
 10
-11.5987719859
 20
35.5030811677
 11
-7.7178760851
 21
37.6663222925
  0
LWPOLYLINE
  5
346
100
AcDbEntity
  8
RACCORDO
100
AcDbPolyline
 62
7
  6
CONTINUOUS
 90
7
 70
0
 10
-13.2219262322
 20
36.304159034
 10
-13.1933829087
 20
36.3179499323
 10
-13.1628915785
 20
36.3281334756
 10
-13.1310074357
 20
36.334364093
 10
-13.0983163293
 20
36.3364062958
 10
-13.0655305176
 20
36.3341424016
 10
-13.0333591542
 20
36.3276068481
  0
LWPOLYLINE
  5
347
100
AcDbEntity
  8
RACCORDO
100
AcDbPolyline
 62
253
  6
CONTINUOUS
 90
3
 70
0
 10
-28.7553525068
 20
42.4652169369
 10
-28.7539164903
 20
42.4920105063
 10
-28.7495918863
 20
42.5202263528
  0
LWPOLYLINE
  5
348
100
AcDbEntity
  8
RACCORDO
100
AcDbPolyline
 62
7
  6
CONTINUOUS
 90
9
 70
0
 10
-28.8285758115
 20
42.5672855852
 10
-28.8265530726
 20
42.5990169446
 10
-28.8204060974
 20
42.6306721207
 10
-28.8101064524
 20
42.6615912708
 10
-28.7957390907
 20
42.6911407069
 10
-28.7775544978
 20
42.7186377261
 10
-28.7559329448
 20
42.7434799304
 10
-28.731060731
 20
42.7653974208
 10
-28.7057146575
 20
42.7825428941
  0
LINE
  5
349
100
AcDbEntity
  8
RACCORDO
100
AcDbLine
 62
253
  6
CONTINUOUS
 10
-12.1122469121
 20
34.2223215427
 11
-11.5839797403
 21
34.8851338091
  0
LINE
  5
34A
100
AcDbEntity
  8
RACCORDO
100
AcDbLine
 62
7
  6
CONTINUOUS
 10
-12.1122469121
 20
34.1457696999
 11
-11.5146450397
 21
34.8955756174
  0
LWPOLYLINE
  5
34B
100
AcDbEntity
  8
RACCORDO
100
AcDbPolyline
 62
7
  6
CONTINUOUS
 90
11
 70
0
 10
-13.0023070948
 20
33.5971953085
 10
-13.0248187892
 20
33.5713337368
 10
-13.0498864511
 20
33.5474504581
 10
-13.0772259501
 20
33.5257634626
 10
-13.1064541509
 20
33.5062529959
 10
-13.1372062872
 20
33.4893165494
 10
-13.1691507474
 20
33.4757924367
 10
-13.2017898784
 20
33.4658221782
 10
-13.2345517464
 20
33.4595274663
 10
-13.2669148457
 20
33.4577087829
 10
-13.2844745463
 20
33.4587832381
  0
LINE
  5
34C
100
AcDbEntity
  8
0
100
AcDbLine
 62
7
  6
CONTINUOUS
 10
-10.0647360051
 20
33.4363290734
 11
-5.2282645792
 21
36.2288518111
  0
LINE
  5
34D
100
AcDbEntity
  8
0
100
AcDbLine
 62
7
  6
CONTINUOUS
 10
-9.3254522016
 20
32.5976540734
 11
-5.2282645792
 21
34.9633228821
  0
LINE
  5
34E
100
AcDbEntity
  8
0
100
AcDbLine
 62
7
  6
CONTINUOUS
 10
-8.5476347423
 20
32.1485520208
 11
-3.3289229043
 21
35.1617759573
  0
LINE
  5
34F
100
AcDbEntity
  8
0
100
AcDbLine
 62
7
  6
CONTINUOUS
 10
-5.1826004565
 20
34.9369569899
 11
-4.0512026821
 21
35.5788112487
  0
LINE
  5
350
100
AcDbEntity
  8
DRAFT
100
AcDbLine
 62
7
  6
CONTINUOUS
 10
-2.62801364
 20
34.5562689171
 11
-7.7176395404
 21
31.6693231935
  0
LWPOLYLINE
  5
351
100
AcDbEntity
  8
RACCORDO
100
AcDbPolyline
 62
253
  6
CONTINUOUS
 90
7
 70
0
 10
-33.4267839168
 20
2.9540283659
 10
-33.4034044026
 20
2.8899072041
 10
-33.3755717092
 20
2.8304159615
 10
-33.3434110603
 20
2.7758292627
 10
-33.307068473
 20
2.7263993477
 10
-33.26670766
 20
2.682356723
 10
-33.2225107561
 20
2.6439070828
  0
LWPOLYLINE
  5
352
100
AcDbEntity
  8
RACCORDO
100
AcDbPolyline
 62
7
  6
CONTINUOUS
 90
6
 70
0
 10
-33.5659255659
 20
3.1195226781
 10
-33.5511432766
 20
3.0761921319
 10
-33.5197473178
 20
3.0000176228
 10
-33.4827929194
 20
2.9280000998
 10
-33.4404960413
 20
2.8605484533
 10
-33.393342618
 20
2.7982470043
  0
LINE
  5
353
100
AcDbEntity
  8
RACCORDO
100
AcDbLine
 62
7
  6
CONTINUOUS
 10
-33.5659255659
 20
3.1195226781
 11
-33.5660091327
 21
3.1197859211
  0
LINE
  5
354
100
AcDbEntity
  8
RACCORDO
100
AcDbLine
 62
253
  6
CONTINUOUS
 10
-34.3404362804
 20
5.8921692256
 11
-33.4267839168
 21
2.9540283659
  0
LWPOLYLINE
  5
355
100
AcDbEntity
  8
RACCORDO
100
AcDbPolyline
 62
7
  6
CONTINUOUS
 90
10
 70
0
 10
-40.8330555508
 20
30.4709447744
 10
-40.1496226629
 20
27.4080440724
 10
-39.4185537467
 20
24.275889784
 10
-38.6602064242
 20
21.1678581963
 10
-37.874647999
 20
18.0842346793
 10
-37.0619386692
 20
15.0252528015
 10
-36.2221347272
 20
11.99112669
 10
-35.3552983949
 20
8.9820880474
 10
-34.4615097251
 20
5.998410634
 10
-33.5660237898
 20
3.1197812584
  0
LWPOLYLINE
  5
356
100
AcDbEntity
  8
RACCORDO
100
AcDbPolyline
 62
253
  6
CONTINUOUS
 90
9
 70
0
 10
-40.6893415253
 20
30.2881391219
 10
-39.98969657
 20
27.1542968888
 10
-39.2630807971
 20
24.0440611924
 10
-38.5095531688
 20
20.9576807463
 10
-37.7291759812
 20
17.8954030698
 10
-36.9220114126
 20
14.857472409
 10
-36.088121516
 20
11.844129719
 10
-35.2275728109
 20
8.85561539
 10
-34.3404362804
 20
5.8921692256
  0
LINE
  5
357
100
AcDbEntity
  8
RACCORDO
100
AcDbLine
 62
7
  6
CONTINUOUS
 10
-40.8330409298
 20
30.4708777908
 11
-40.8330555508
 21
30.4709447744
  0
LWPOLYLINE
  5
358
100
AcDbEntity
  8
RACCORDO
100
AcDbPolyline
 62
7
  6
CONTINUOUS
 90
6
 70
0
 10
-28.8285758115
 20
42.2467654124
 10
-28.8262679755
 20
42.2128827669
 10
-28.8192782179
 20
42.1792229061
 10
-28.8076211406
 20
42.1465744086
 10
-28.7914640306
 20
42.1156983314
 10
-28.771157467
 20
42.0873530848
  0
LWPOLYLINE
  5
359
100
AcDbEntity
  8
RACCORDO
100
AcDbPolyline
 62
253
  6
CONTINUOUS
 90
8
 70
0
 10
-28.7553525068
 20
42.1446967641
 10
-28.7541931265
 20
42.1220271571
 10
-28.7507065519
 20
42.1008905177
 10
-28.7449037819
 20
42.0815943496
 10
-28.7368126163
 20
42.0644017324
 10
-28.7265174894
 20
42.0496159686
 10
-28.7141947001
 20
42.0375323445
 10
-28.7035818515
 20
42.0302625488
  0
LINE
  5
35A
100
AcDbEntity
  8
RACCORDO
100
AcDbLine
 62
7
  6
CONTINUOUS
 10
-28.8285758115
 20
42.5672855852
 11
-28.8285758115
 21
42.2467654124
  0
LINE
  5
35B
100
AcDbEntity
  8
RACCORDO
100
AcDbLine
 62
253
  6
CONTINUOUS
 10
-28.7553525068
 20
42.4652169369
 11
-28.7553525068
 21
42.1446967641
  0
LINE
  5
35C
100
AcDbEntity
  8
RACCORDO
100
AcDbLine
 62
7
  6
CONTINUOUS
 10
-28.1255828572
 20
41.4171056742
 11
-28.1255828572
 21
41.6965331735
  0
LINE
  5
35D
100
AcDbEntity
  8
RACCORDO
100
AcDbLine
 62
253
  6
CONTINUOUS
 10
-28.0523595525
 20
41.3119038451
 11
-28.0523595525
 21
41.6542549551
  0
LINE
  5
35E
100
AcDbEntity
  8
RACCORDO
100
AcDbLine
 62
253
  6
CONTINUOUS
 10
-27.430367827
 20
41.3796672159
 11
-27.430367827
 21
41.7001873887
  0
LINE
  5
35F
100
AcDbEntity
  8
RACCORDO
100
AcDbLine
 62
253
  6
CONTINUOUS
 10
-27.0778458673
 20
41.3790751352
 11
-27.0778458673
 21
41.6995953081
  0
LINE
  5
360
100
AcDbEntity
  8
RACCORDO
100
AcDbLine
 62
253
  6
CONTINUOUS
 10
-26.7191472189
 20
41.1749842715
 11
-26.7191472189
 21
40.5421237527
  0
LINE
  5
361
100
AcDbEntity
  8
RACCORDO
100
AcDbLine
 62
253
  6
CONTINUOUS
 10
-26.3666252592
 20
41.3135851224
 11
-26.3666252592
 21
40.5521667862
  0
LWPOLYLINE
  5
362
100
AcDbEntity
  8
RACCORDO
100
AcDbPolyline
 62
253
  6
CONTINUOUS
 90
13
 70
0
 10
-27.430367827
 20
41.7001873887
 10
-27.4289318105
 20
41.7269809581
 10
-27.4246072065
 20
41.7551968046
 10
-27.4174059485
 20
41.7843910025
 10
-27.4073646084
 20
41.8141549933
 10
-27.3946120973
 20
41.8439168505
 10
-27.3794277969
 20
41.8729598645
 10
-27.3621133312
 20
41.9007246926
 10
-27.3429357636
 20
41.9267984495
 10
-27.3222311856
 20
41.9507263474
 10
-27.3003585477
 20
41.9720980181
 10
-27.2776916971
 20
41.990552399
 10
-27.254619571
 20
42.005776344
  0
LWPOLYLINE
  5
363
100
AcDbEntity
  8
RACCORDO
100
AcDbPolyline
 62
7
  6
CONTINUOUS
 90
3
 70
0
 10
-24.8792486857
 20
42.663444209
 10
-24.8762141192
 20
42.6954454202
 10
-24.876100048
 20
42.703002479
  0
LWPOLYLINE
  5
364
100
AcDbEntity
  8
RACCORDO
100
AcDbPolyline
 62
253
  6
CONTINUOUS
 90
7
 70
0
 10
-24.8761000563
 20
43.0306043478
 10
-24.8780323997
 20
43.0127296014
 10
-24.8842184146
 20
42.9941555545
 10
-24.894553447
 20
42.976213745
 10
-24.9088544548
 20
42.9592129937
 10
-24.9268733486
 20
42.9434417661
 10
-24.9482979048
 20
42.9291689235
  0
LWPOLYLINE
  5
365
100
AcDbEntity
  8
RACCORDO
100
AcDbPolyline
 62
253
  6
CONTINUOUS
 90
7
 70
0
 10
-24.8761000478
 20
42.7029967361
 10
-24.87817985
 20
42.6844161998
 10
-24.8844902591
 20
42.665914658
 10
-24.8948967309
 20
42.648084103
 10
-24.9091842531
 20
42.6312343304
 10
-24.9270927228
 20
42.6156296274
 10
-24.9482979048
 20
42.601523623
  0
LWPOLYLINE
  5
366
100
AcDbEntity
  8
RACCORDO
100
AcDbPolyline
 62
7
  6
CONTINUOUS
 90
3
 70
0
 10
-23.247319633
 20
40.3116052383
 10
-23.2506035012
 20
40.2844382737
 10
-23.2513517176
 20
40.2657502299
  0
LWPOLYLINE
  5
367
100
AcDbEntity
  8
RACCORDO
100
AcDbPolyline
 62
253
  6
CONTINUOUS
 90
11
 70
0
 10
-13.7135277029
 20
33.6626853214
 10
-13.7265057777
 20
33.634115003
 10
-13.7422569498
 20
33.6076951956
 10
-13.7605324664
 20
33.5838879043
 10
-13.7810534195
 20
33.5631016902
 10
-13.8034705443
 20
33.5457308287
 10
-13.8273572839
 20
33.532121775
 10
-13.8522863742
 20
33.5225129937
 10
-13.8778480009
 20
33.517057696
 10
-13.9036039935
 20
33.5158491111
 10
-13.9121952141
 20
33.5163991271
  0
LWPOLYLINE
  5
368
100
AcDbEntity
  8
RACCORDO
100
AcDbPolyline
 62
253
  6
CONTINUOUS
 90
4
 70
0
 10
-15.3547644822
 20
34.8936348769
 10
-15.339620728
 20
34.9224251594
 10
-15.3223478137
 20
34.9500005905
 10
-15.3032391015
 20
34.9758928305
  0
LWPOLYLINE
  5
369
100
AcDbEntity
  8
RACCORDO
100
AcDbPolyline
 62
253
  6
CONTINUOUS
 90
28
 70
0
 10
-1.8238432458
 20
31.3764180179
 10
-1.7986549037
 20
31.3907669059
 10
-1.7704261898
 20
31.4049251957
 10
-1.739157104
 20
31.4188928874
 10
-1.7047183145
 20
31.4329299231
 10
-1.6672391532
 20
31.4467763608
 10
-1.6271076157
 20
31.4596523738
 10
-1.5841771262
 20
31.4715060537
 10
-1.5385942605
 20
31.482389309
 10
-1.4911867416
 20
31.4916780388
 10
-1.4418422069
 20
31.4992807567
 10
-1.3906730189
 20
31.505288949
 10
-1.3388439892
 20
31.5093529735
 10
-1.2863184294
 20
31.5113586058
 10
-1.2331330279
 20
31.5114200703
 10
-1.1805626604
 20
31.509530398
 10
-1.1286416407
 20
31.5055750563
 10
-1.0773356551
 20
31.4996685779
 10
-1.027816639
 20
31.4921475922
 10
-0.9801936674
 20
31.4829189923
 10
-0.9343576653
 20
31.472075885
 10
-0.8911533436
 20
31.4602342207
 10
-0.8507292997
 20
31.4473411094
 10
-0.8129369362
 20
31.4334494411
 10
-0.7781751721
 20
31.4193338358
 10
-0.7465769806
 20
31.4052525002
 10
-0.7180093885
 20
31.3909472276
 10
-0.6924723959
 20
31.3764180179
  0
LWPOLYLINE
  5
36A
100
AcDbEntity
  8
RACCORDO
100
AcDbPolyline
 62
7
  6
CONTINUOUS
 90
9
 70
0
 10
-1.917741473
 20
31.3898219991
 10
-1.9170769602
 20
31.3901929535
 10
-1.9131365811
 20
31.3921357214
 10
-1.9088505457
 20
31.3938013101
 10
-1.9042078982
 20
31.3951552408
 10
-1.8991874656
 20
31.3961645107
 10
-1.8937521362
 20
31.3967845091
 10
-1.887876354
 20
31.3969734955
 10
-1.8815527459
 20
31.3966849911
  0
LINE
  5
36B
100
AcDbEntity
  8
DRAFT
100
AcDbLine
 62
7
  6
CONTINUOUS
 10
-5.2677819945
 20
30.2548061505
 11
0.102704994
 21
33.1428802571
  0
LWPOLYLINE
  5
36C
100
AcDbEntity
  8
RACCORDO
100
AcDbPolyline
 62
7
  6
CONTINUOUS
 90
3
 70
0
 10
-1.7925180735
 20
31.4500817445
 10
-1.8599367126
 20
31.4201679975
 10
-1.917740732
 20
31.38982269
  0
LWPOLYLINE
  5
36D
100
AcDbEntity
  8
RACCORDO
100
AcDbPolyline
 62
253
  6
CONTINUOUS
 90
5
 70
0
 10
17.9635145282
 20
-24.0070017573
 10
17.9957047511
 20
-24.0032723211
 10
18.0265644457
 20
-23.9971891003
 10
18.0555319794
 20
-23.9889247317
 10
18.0822337837
 20
-23.9786506693
  0
LWPOLYLINE
  5
36E
100
AcDbEntity
  8
RACCORDO
100
AcDbPolyline
 62
7
  6
CONTINUOUS
 90
13
 70
0
 10
-25.4765650765
 20
42.6241537343
 10
-25.4782035348
 20
42.6515965964
 10
-25.482820882
 20
42.6803264008
 10
-25.4903381173
 20
42.7098515939
 10
-25.5006266231
 20
42.7396670139
 10
-25.5135103686
 20
42.7692625323
 10
-25.5287689218
 20
42.7981317814
 10
-25.5461412177
 20
42.8257808206
 10
-25.5653300224
 20
42.8517365887
 10
-25.5860070213
 20
42.875554996
 10
-25.6078184395
 20
42.896828521
 10
-25.630391095
 20
42.9151931827
 10
-25.6533387802
 20
42.9303347702
  0
LWPOLYLINE
  5
36F
100
AcDbEntity
  8
RACCORDO
100
AcDbPolyline
 62
253
  6
CONTINUOUS
 90
13
 70
0
 10
-27.0778458673
 20
41.6995953081
 10
-27.0794161854
 20
41.726420044
 10
-27.0838781118
 20
41.7546855438
 10
-27.0912168622
 20
41.783943927
 10
-27.1013928318
 20
41.8137822951
 10
-27.1142730604
 20
41.8436237818
 10
-27.1295734391
 20
41.872746212
 10
-27.1469882286
 20
41.9005850628
 10
-27.1662466768
 20
41.9267227724
 10
-27.1870088701
 20
41.950700153
 10
-27.208912273
 20
41.9721029629
 10
-27.2315797684
 20
41.9905669045
 10
-27.254619571
 20
42.005776344
  0
LWPOLYLINE
  5
370
100
AcDbEntity
  8
RACCORDO
100
AcDbPolyline
 62
253
  6
CONTINUOUS
 90
8
 70
0
 10
-27.430367827
 20
41.3796672159
 10
-27.4292084467
 20
41.3569976089
 10
-27.4257218721
 20
41.3358609696
 10
-27.419919102
 20
41.3165648015
 10
-27.4118279365
 20
41.2993721843
 10
-27.4015328096
 20
41.2845864204
 10
-27.3892100203
 20
41.2725027963
 10
-27.378600898
 20
41.2652351522
  0
LWPOLYLINE
  5
371
100
AcDbEntity
  8
RACCORDO
100
AcDbPolyline
 62
253
  6
CONTINUOUS
 90
3
 70
0
 10
-24.9482979048
 20
42.9291689235
 10
-24.9496972624
 20
42.9568708697
 10
-24.9541411227
 20
42.9858548762
  0
LINE
  5
372
100
AcDbEntity
  8
RACCORDO
100
AcDbLine
 62
7
  6
CONTINUOUS
 10
-23.2513517176
 20
40.2657502299
 11
-23.2512644003
 21
40.2538422909
  0
LINE
  5
373
100
AcDbEntity
  8
RACCORDO
100
AcDbLine
 62
7
  6
CONTINUOUS
 10
-25.4765650765
 20
41.113680268
 11
-25.4765650765
 21
42.6241537343
  0
LINE
  5
374
100
AcDbEntity
  8
RACCORDO
100
AcDbLine
 62
253
  6
CONTINUOUS
 10
-24.9482979048
 20
42.9291689235
 11
-24.9482979048
 21
42.601523623
  0
LINE
  5
375
100
AcDbEntity
  8
RACCORDO
100
AcDbLine
 62
7
  6
CONTINUOUS
 10
-24.8761000478
 20
43.0306420366
 11
-24.8761000478
 21
42.7029967361
  0
LINE
  5
376
100
AcDbEntity
  8
RACCORDO
100
AcDbLine
 62
7
  6
CONTINUOUS
 10
-23.2521410721
 20
40.2656500624
 11
-23.2521410721
 21
39.0958343672
  0
LINE
  5
377
100
AcDbEntity
  8
RACCORDO
100
AcDbLine
 62
253
  6
CONTINUOUS
 10
-23.1056944627
 20
39.9041816035
 11
-23.1056944627
 21
38.8854307088
  0
LINE
  5
378
100
AcDbEntity
  8
RACCORDO
100
AcDbLine
 62
253
  6
CONTINUOUS
 10
-24.8761000478
 20
43.0306420366
 11
-24.8761000563
 21
43.0306043478
  0
LWPOLYLINE
  5
379
100
AcDbEntity
  8
RACCORDO
100
AcDbPolyline
 62
253
  6
CONTINUOUS
 90
4
 70
0
 10
-15.3850551058
 20
34.8049177747
 10
-15.3776762371
 20
34.8343779765
 10
-15.3675218756
 20
34.8641187156
 10
-15.3547644822
 20
34.8936348769
  0
LINE
  5
37A
100
AcDbEntity
  8
0
100
AcDbLine
 62
7
  6
CONTINUOUS
 10
-10.0647360051
 20
33.4363290734
 11
-10.2422722669
 21
33.1270144887
  0
LINE
  5
37B
100
AcDbEntity
  8
RACCORDO
100
AcDbLine
 62
7
  6
CONTINUOUS
 10
-3.9844871324
 20
29.5138477805
 11
-1.9266079716
 21
31.3833936507
  0
LINE
  5
37C
100
AcDbEntity
  8
RACCORDO
100
AcDbLine
 62
253
  6
CONTINUOUS
 10
-3.9169606549
 20
29.4748588387
 11
-1.8238432458
 21
31.3764180179
  0
LWPOLYLINE
  5
37D
100
AcDbEntity
  8
RACCORDO
100
AcDbPolyline
 62
7
  6
CONTINUOUS
 90
4
 70
0
 10
-1.9266078935
 20
31.3833937217
 10
-1.9239857769
 20
31.3856170621
 10
-1.9206885088
 20
31.388009279
 10
-1.917741473
 20
31.3898219991
  0
LINE
  5
37E
100
AcDbEntity
  8
RACCORDO
100
AcDbLine
 62
7
  6
CONTINUOUS
 10
1.1709530998
 20
26.5371612033
 11
2.84306151
 21
27.4689147602
  0
LINE
  5
37F
100
AcDbEntity
  8
RACCORDO
100
AcDbLine
 62
7
  6
CONTINUOUS
 10
5.292472522
 20
25.6721346588
 11
5.2610547164
 21
25.6615537505
  0
LWPOLYLINE
  5
380
100
AcDbEntity
  8
RACCORDO
100
AcDbPolyline
 62
253
  6
CONTINUOUS
 90
3
 70
0
 10
17.8980642399
 20
-24.007040973
 10
17.9307558935
 20
-24.0082634182
 10
17.9635145282
 20
-24.0070017573
  0
LINE
  5
381
100
AcDbEntity
  8
RACCORDO
100
AcDbLine
 62
253
  6
CONTINUOUS
 10
17.8659305305
 20
-24.0033609137
 11
17.8980642399
 21
-24.007040973
  0
LWPOLYLINE
  5
382
100
AcDbEntity
  8
RACCORDO
100
AcDbPolyline
 62
7
  6
CONTINUOUS
 90
5
 70
0
 10
-33.393342618
 20
2.7982470043
 10
-33.3417309649
 20
2.7413652266
 10
-33.2860870769
 20
2.6901357349
 10
-33.2272109033
 20
2.6449886108
 10
-33.1670613156
 20
2.6067671078
  0
LINE
  5
383
100
AcDbEntity
  8
SUPERFICI
100
AcDbLine
 62
7
  6
CONTINUOUS
 10
-32.8523112839
 20
31.0186875783
 11
-32.6632889144
 21
30.3132797649
  0
LINE
  5
384
100
AcDbEntity
  8
SUPERFICI
100
AcDbLine
 62
7
  6
CONTINUOUS
 10
-31.1264105185
 20
30.9259714485
 11
-30.6508765062
 21
29.1513380619
  0
LWPOLYLINE
  5
385
100
AcDbEntity
  8
RACCORDO
100
AcDbPolyline
 62
7
  6
CONTINUOUS
 90
11
 70
0
 10
-23.2512644003
 20
40.2538422909
 10
-23.2489092641
 20
40.2207920992
 10
-23.2430077033
 20
40.1862938384
 10
-23.2338073474
 20
40.1509974373
 10
-23.2221512208
 20
40.1150539705
 10
-23.2080835979
 20
40.0787935802
 10
-23.1915114182
 20
40.0426989751
 10
-23.172929741
 20
40.0069364681
 10
-23.1524811372
 20
39.9717398397
 10
-23.1300478351
 20
39.9374157119
 10
-23.1056944627
 20
39.9041816035
  0
LINE
  5
386
100
AcDbEntity
  8
DRAFT
100
AcDbLine
 62
253
  6
CONTINUOUS
 10
-17.8044565006
 20
41.0933217752
 11
-17.8044565006
 21
40.588173391
  0
LINE
  5
387
100
AcDbEntity
  8
RACCORDO
100
AcDbLine
 62
253
  6
CONTINUOUS
 10
-17.5943873631
 20
35.7032710624
 11
-17.5943873631
 21
36.722021957
  0
LINE
  5
388
100
AcDbEntity
  8
DRAFT
100
AcDbLine
 62
7
  6
CONTINUOUS
 10
-17.0973497194
 20
41.5015963685
 11
-17.0973497194
 21
42.0225364423
  0
LINE
  5
389
100
AcDbEntity
  8
RACCORDO
100
AcDbLine
 62
253
  6
CONTINUOUS
 10
-16.8893434438
 20
35.7233571295
 11
-16.8893434438
 21
36.8855458227
  0
LWPOLYLINE
  5
38A
100
AcDbEntity
  8
RACCORDO
100
AcDbPolyline
 62
253
  6
CONTINUOUS
 90
3
 70
0
 10
-15.3910343424
 20
34.748827123
 10
-15.3895331592
 20
34.7762384609
 10
-15.3850551058
 20
34.8049177747
  0
LWPOLYLINE
  5
38B
100
AcDbEntity
  8
RACCORDO
100
AcDbPolyline
 62
7
  6
CONTINUOUS
 90
9
 70
0
 10
-15.464257647
 20
34.850891397
 10
-15.4623476432
 20
34.8817397958
 10
-15.4563254905
 20
34.9133710401
 10
-15.4462470444
 20
34.9440672237
 10
-15.4322131709
 20
34.9733514353
 10
-15.4143822048
 20
35.0007295506
 10
-15.3930176038
 20
35.025666701
 10
-15.3684762717
 20
35.0476611541
 10
-15.3414431233
 20
35.066125543
  0
LINE
  5
38C
100
AcDbEntity
  8
RACCORDO
100
AcDbLine
 62
253
  6
CONTINUOUS
 10
2.7016401538
 20
28.7634606206
 11
0.6085227447
 21
26.8619014414
  0
LINE
  5
38D
100
AcDbEntity
  8
RACCORDO
100
AcDbLine
 62
253
  6
CONTINUOUS
 10
2.84306151
 20
28.5119309883
 11
0.8642709207
 21
26.7142356499
  0
LINE
  5
38E
100
AcDbEntity
  8
RACCORDO
100
AcDbLine
 62
253
  6
CONTINUOUS
 10
3.2171287765
 20
24.3832252475
 11
3.2402009026
 21
24.3984491924
  0
LINE
  5
38F
100
AcDbEntity
  8
RACCORDO
100
AcDbLine
 62
7
  6
CONTINUOUS
 10
4.6968048038
 20
25.3454152788
 11
3.1140481433
 21
24.4101611849
  0
LINE
  5
390
100
AcDbEntity
  8
RACCORDO
100
AcDbLine
 62
253
  6
CONTINUOUS
 10
4.8229575057
 20
25.3337032525
 11
3.2402009026
 21
24.3984491924
  0
LINE
  5
391
100
AcDbEntity
  8
RACCORDO
100
AcDbLine
 62
253
  6
CONTINUOUS
 10
3.1140904959
 20
24.4101861943
 11
3.1140481433
 21
24.4101611849
  0
LINE
  5
392
100
AcDbEntity
  8
DRAFT
100
AcDbLine
 62
7
  6
CONTINUOUS
 10
2.801362082
 20
25.5957834908
 11
7.9875810821
 21
28.5902516245
  0
LINE
  5
393
100
AcDbEntity
  8
DRAFT
100
AcDbLine
 62
7
  6
CONTINUOUS
 10
7.9875810821
 20
28.4269575692
 11
2.9427695288
 21
25.5141366033
  0
LINE
  5
394
100
AcDbEntity
  8
RACCORDO
100
AcDbLine
 62
7
  6
CONTINUOUS
 10
4.698259025
 20
25.3462549282
 11
4.6968048038
 21
25.3454152788
  0
LINE
  5
395
100
AcDbEntity
  8
RACCORDO
100
AcDbLine
 62
253
  6
CONTINUOUS
 10
6.694733545
 20
24.8629932597
 11
4.5651855824
 21
23.6334196442
  0
LINE
  5
396
100
AcDbEntity
  8
RACCORDO
100
AcDbLine
 62
253
  6
CONTINUOUS
 10
6.8715072486
 20
24.5568122238
 11
4.7419592861
 21
23.3272386083
  0
LINE
  5
397
100
AcDbEntity
  8
0
100
AcDbLine
 62
7
  6
CONTINUOUS
 10
10.7273290447
 20
27.0458722482
 11
10.7014879791
 21
27.0312123307
  0
LINE
  5
398
100
AcDbEntity
  8
RACCORDO
100
AcDbLine
 62
7
  6
CONTINUOUS
 10
5.2335607568
 20
25.6481921482
 11
4.6982540935
 21
25.3462635249
  0
LINE
  5
399
100
AcDbEntity
  8
RACCORDO
100
AcDbLine
 62
253
  6
CONTINUOUS
 10
5.3574073844
 20
25.6351486242
 11
4.8229575057
 21
25.3337032525
  0
LINE
  5
39A
100
AcDbEntity
  8
0
100
AcDbLine
 62
7
  6
CONTINUOUS
 10
5.7657497145
 20
25.4827549341
 11
9.6415953931
 21
27.6431810263
  0
LINE
  5
39B
100
AcDbEntity
  8
0
100
AcDbLine
 62
7
  6
CONTINUOUS
 10
9.9789826897
 20
27.4483778296
 11
10.0050492669
 21
27.4629075396
  0
LINE
  5
39C
100
AcDbEntity
  8
RACCORDO
100
AcDbLine
 62
7
  6
CONTINUOUS
 10
5.2610547164
 20
25.6615537505
 11
5.2335180205
 21
25.6481680271
  0
LINE
  5
39D
100
AcDbEntity
  8
RACCORDO
100
AcDbLine
 62
253
  6
CONTINUOUS
 10
20.2358254131
 20
-22.4236086776
 11
19.7075582413
 21
-22.3779657347
  0
LINE
  5
39E
100
AcDbEntity
  8
RACCORDO
100
AcDbLine
 62
253
  6
CONTINUOUS
 10
20.1464116177
 20
-22.0943302402
 11
19.7075582413
 21
-22.0564127607
  0
LWPOLYLINE
  5
39F
100
AcDbEntity
  8
RACCORDO
100
AcDbPolyline
 62
7
  6
CONTINUOUS
 90
13
 70
0
 10
18.8174980586
 20
-22.7687685101
 10
18.7947528574
 20
-22.7664418855
 10
18.7697827298
 20
-22.7621899588
 10
18.7426981132
 20
-22.7562157974
 10
18.7135056564
 20
-22.7489990709
 10
18.6825814352
 20
-22.7405802954
 10
18.6506547896
 20
-22.7305549753
 10
18.6180499676
 20
-22.7192830443
 10
18.5851322033
 20
-22.7071277859
 10
18.5527567667
 20
-22.6937439327
 10
18.5215520561
 20
-22.6793279337
 10
18.4919219304
 20
-22.6645983826
 10
18.4644618706
 20
-22.6500321869
  0
LWPOLYLINE
  5
3A0
100
AcDbEntity
  8
RACCORDO
100
AcDbPolyline
 62
7
  6
CONTINUOUS
 90
6
 70
0
 10
-15.4642576471
 20
34.5303755985
 10
-15.4619498111
 20
34.496492953
 10
-15.4549600535
 20
34.4628330922
 10
-15.4433029761
 20
34.4301845947
 10
-15.4271458661
 20
34.3993085175
 10
-15.4068393026
 20
34.3709632709
  0
LWPOLYLINE
  5
3A1
100
AcDbEntity
  8
RACCORDO
100
AcDbPolyline
 62
253
  6
CONTINUOUS
 90
8
 70
0
 10
-15.3910343424
 20
34.4283069502
 10
-15.3898749621
 20
34.4056373432
 10
-15.3863883874
 20
34.3845007038
 10
-15.3805856174
 20
34.3652045357
 10
-15.3724944519
 20
34.3480119185
 10
-15.362199325
 20
34.3332261547
 10
-15.3498765357
 20
34.3211425306
 10
-15.3392636871
 20
34.3138727349
  0
LWPOLYLINE
  5
3A2
100
AcDbEntity
  8
RACCORDO
100
AcDbPolyline
 62
7
  6
CONTINUOUS
 90
13
 70
0
 10
-13.9860798822
 20
42.5735055313
 10
-13.9876295996
 20
42.6260836273
 10
-13.9921085301
 20
42.6763014946
 10
-13.9995166736
 20
42.7241591333
 10
-14.009910052
 20
42.769838702
 10
-14.0232326435
 20
42.813158042
 10
-14.0393163828
 20
42.8535706775
 10
-14.058196249
 20
42.8910397852
 10
-14.0798372631
 20
42.9256021882
 10
-14.1039664223
 20
42.9568218799
 10
-14.1306152473
 20
42.9846565138
 10
-14.1597522176
 20
43.0091484362
 10
-14.1931626313
 20
43.0312421708
  0
LINE
  5
3A3
100
AcDbEntity
  8
DRAFT
100
AcDbLine
 62
253
  6
CONTINUOUS
 10
-16.7635740968
 20
42.2118909821
 11
-16.7635740968
 21
43.372934024
  0
LINE
  5
3A4
100
AcDbEntity
  8
DRAFT
100
AcDbLine
 62
7
  6
CONTINUOUS
 10
-16.7437963289
 20
41.2974590719
 11
-16.7437963289
 21
41.8183991457
  0
LINE
  5
3A5
100
AcDbEntity
  8
RACCORDO
100
AcDbLine
 62
7
  6
CONTINUOUS
 10
-16.6382245896
 20
42.3844640148
 11
-16.6382245896
 21
43.5462258237
  0
LINE
  5
3A6
100
AcDbEntity
  8
DRAFT
100
AcDbLine
 62
7
  6
CONTINUOUS
 10
-16.5316642945
 20
37.0920650499
 11
-16.5316642945
 21
35.9490066624
  0
LINE
  5
3A7
100
AcDbEntity
  8
DRAFT
100
AcDbLine
 62
253
  6
CONTINUOUS
 10
-16.3902429383
 20
41.0933217752
 11
-16.3902429383
 21
40.507763762
  0
LINE
  5
3A8
100
AcDbEntity
  8
RACCORDO
100
AcDbLine
 62
7
  6
CONTINUOUS
 10
-15.4642576471
 20
34.8508957713
 11
-15.4642576471
 21
34.5303755985
  0
LINE
  5
3A9
100
AcDbEntity
  8
RACCORDO
100
AcDbLine
 62
253
  6
CONTINUOUS
 10
-15.3910343424
 20
34.748827123
 11
-15.3910343424
 21
34.4283069502
  0
LINE
  5
3AA
100
AcDbEntity
  8
RACCORDO
100
AcDbLine
 62
7
  6
CONTINUOUS
 10
-14.7612646928
 20
33.7007158603
 11
-14.7612646928
 21
33.9801433596
  0
LINE
  5
3AB
100
AcDbEntity
  8
RACCORDO
100
AcDbLine
 62
253
  6
CONTINUOUS
 10
-14.6880413881
 20
33.5955140312
 11
-14.6880413881
 21
33.9378651412
  0
LINE
  5
3AC
100
AcDbEntity
  8
RACCORDO
100
AcDbLine
 62
253
  6
CONTINUOUS
 10
-14.0660496626
 20
33.663277402
 11
-14.0660496626
 21
33.9837975748
  0
LINE
  5
3AD
100
AcDbEntity
  8
RACCORDO
100
AcDbLine
 62
7
  6
CONTINUOUS
 10
-13.9860798822
 20
42.5735055313
 11
-13.9860798822
 21
42.3182007921
  0
LINE
  5
3AE
100
AcDbEntity
  8
RACCORDO
100
AcDbLine
 62
253
  6
CONTINUOUS
 10
-13.7135277029
 20
33.6626853214
 11
-13.7135277029
 21
33.9832054942
  0
LINE
  5
3AF
100
AcDbEntity
  8
RACCORDO
100
AcDbLine
 62
253
  6
CONTINUOUS
 10
-13.3548290545
 20
33.4585944576
 11
-13.3548290545
 21
32.8257339388
  0
LINE
  5
3B0
100
AcDbEntity
  8
RACCORDO
100
AcDbLine
 62
253
  6
CONTINUOUS
 10
-13.0023070948
 20
33.5971953085
 11
-13.0023070948
 21
32.8357769724
  0
LWPOLYLINE
  5
3B1
100
AcDbEntity
  8
RACCORDO
100
AcDbPolyline
 62
253
  6
CONTINUOUS
 90
13
 70
0
 10
-14.0660496626
 20
33.9837975748
 10
-14.0645365314
 20
34.0113207852
 10
-14.0600209313
 20
34.0401304554
 10
-14.0525770995
 20
34.0697341267
 10
-14.0423283251
 20
34.0996282249
 10
-14.0294482899
 20
34.1292965075
 10
-14.0141610635
 20
34.1582194145
 10
-13.9966891862
 20
34.1859585157
 10
-13.9773644963
 20
34.2119717088
 10
-13.9566667646
 20
34.2356559658
 10
-13.9350263058
 20
34.2566112002
 10
-13.9127783778
 20
34.2745996026
 10
-13.8903014066
 20
34.2893865301
  0
LWPOLYLINE
  5
3B2
100
AcDbEntity
  8
RACCORDO
100
AcDbPolyline
 62
7
  6
CONTINUOUS
 90
3
 70
0
 10
-11.5117818855
 20
34.9038479864
 10
-11.511940411
 20
34.9016589771
 10
-11.5146524742
 20
34.8954620935
  0
LWPOLYLINE
  5
3B3
100
AcDbEntity
  8
RACCORDO
100
AcDbPolyline
 62
253
  6
CONTINUOUS
 90
7
 70
0
 10
-11.5117818833
 20
35.3142522227
 10
-11.513811354
 20
35.2958969618
 10
-11.5200512856
 20
35.2774335583
 10
-11.5303967573
 20
35.2595954812
 10
-11.5446720621
 20
35.2426856913
 10
-11.5626347489
 20
35.2269913837
 10
-11.5839797403
 20
35.2127791096
  0
LINE
  5
3B4
100
AcDbEntity
  8
RACCORDO
100
AcDbLine
 62
7
  6
CONTINUOUS
 10
2.8506000709
 20
28.5229112244
 11
2.84306151
 21
28.5119309883
  0
LWPOLYLINE
  5
3B5
100
AcDbEntity
  8
RACCORDO
100
AcDbPolyline
 62
253
  6
CONTINUOUS
 90
4
 70
0
 10
3.15188471
 20
24.3194712979
 10
3.172589288
 20
24.3433991959
 10
3.1944619259
 20
24.3647708665
 10
3.2171287765
 20
24.3832252475
  0
LINE
  5
3B6
100
AcDbEntity
  8
RACCORDO
100
AcDbLine
 62
7
  6
CONTINUOUS
 10
6.3432400769
 20
22.7413235682
 11
5.4531798942
 21
22.1798100865
  0
LINE
  5
3B7
100
AcDbEntity
  8
RACCORDO
100
AcDbLine
 62
7
  6
CONTINUOUS
 10
8.7120597952
 20
22.1036164535
 11
9.0656011845
 21
22.3125247714
  0
LINE
  5
3B8
100
AcDbEntity
  8
0
100
AcDbLine
 62
7
  6
CONTINUOUS
 10
7.294735473
 20
23.4131878072
 11
12.131206899
 21
26.2057105449
  0
LINE
  5
3B9
100
AcDbEntity
  8
RACCORDO
100
AcDbLine
 62
7
  6
CONTINUOUS
 10
7.7512828119
 20
22.7377612984
 11
14.3526081209
 21
26.5493131121
  0
LINE
  5
3BA
100
AcDbEntity
  8
0
100
AcDbLine
 62
7
  6
CONTINUOUS
 10
14.0153486528
 20
22.7209650754
 11
14.7224554339
 21
23.1292396688
  0
LINE
  5
3BB
100
AcDbEntity
  8
RACCORDO
100
AcDbLine
 62
7
  6
CONTINUOUS
 10
15.0562310566
 20
25.0005773243
 11
10.4091040687
 21
22.3486021456
  0
LINE
  5
3BC
100
AcDbEntity
  8
DRAFT
100
AcDbLine
 62
7
  6
CONTINUOUS
 10
14.7224554339
 20
23.6501797426
 11
15.0562310566
 21
23.8395342824
  0
LINE
  5
3BD
100
AcDbEntity
  8
RACCORDO
100
AcDbLine
 62
7
  6
CONTINUOUS
 10
17.1327890824
 20
24.6128762491
 11
15.0760088245
 21
23.4460424459
  0
LINE
  5
3BE
100
AcDbEntity
  8
RACCORDO
100
AcDbLine
 62
7
  6
CONTINUOUS
 10
9.0656011845
 20
22.3125247714
 11
14.4527557817
 21
25.3510376138
  0
LWPOLYLINE
  5
3BF
100
AcDbEntity
  8
RACCORDO
100
AcDbPolyline
 62
7
  6
CONTINUOUS
 90
9
 70
0
 10
13.9921611037
 20
22.2036436493
 10
13.9928256165
 20
22.2040146036
 10
13.9967659956
 20
22.2059573715
 10
14.001052031
 20
22.2076229602
 10
14.0056946785
 20
22.2089768909
 10
14.0107151111
 20
22.2099861608
 10
14.0161504405
 20
22.2106061592
 10
14.0220262227
 20
22.2107951456
 10
14.0283498308
 20
22.2105066412
  0
LWPOLYLINE
  5
3C0
100
AcDbEntity
  8
RACCORDO
100
AcDbPolyline
 62
7
  6
CONTINUOUS
 90
3
 70
0
 10
14.1173845032
 20
22.2639033946
 10
14.0499658641
 20
22.2339896476
 10
13.9921618447
 20
22.2036443401
  0
LWPOLYLINE
  5
3C1
100
AcDbEntity
  8
RACCORDO
100
AcDbPolyline
 62
253
  6
CONTINUOUS
 90
13
 70
0
 10
13.218973722
 20
-23.9786475056
 10
13.2673891293
 20
-24.0021372197
 10
13.3206451165
 20
-24.0199276009
 10
13.3778496544
 20
-24.0317206633
 10
13.4380445759
 20
-24.0373188749
 10
13.5002216255
 20
-24.0366284665
 10
13.5633393475
 20
-24.0296610022
 10
13.62634053
 20
-24.0165331859
 10
13.688169913
 20
-23.9974649066
 10
13.7477918642
 20
-23.9727755548
 10
13.8042077253
 20
-23.9428786733
 10
13.8564725396
 20
-23.9082750302
 10
13.9037108796
 20
-23.869544231
  0
LWPOLYLINE
  5
3C2
100
AcDbEntity
  8
RACCORDO
100
AcDbPolyline
 62
253
  6
CONTINUOUS
 90
5
 70
0
 10
17.7537554908
 20
-23.9659852576
 10
17.7783485506
 20
-23.9784376561
 10
17.8055568425
 20
-23.9889328811
 10
17.8349167561
 20
-23.9972889768
 10
17.8659305305
 20
-24.0033609137
  0
LWPOLYLINE
  5
3C3
100
AcDbEntity
  8
RACCORDO
100
AcDbPolyline
 62
253
  6
CONTINUOUS
 90
13
 70
0
 10
17.7537554908
 20
-23.6454650848
 10
17.7782848814
 20
-23.6578892676
 10
17.8054089317
 20
-23.6683633755
 10
17.8346658045
 20
-23.6767087345
 10
17.8655575942
 20
-23.682782964
 10
17.8975577483
 20
-23.6864821918
 10
17.9301199325
 20
-23.6877431069
 10
17.9627125456
 20
-23.6865424515
 10
17.9947560916
 20
-23.6828989003
 10
18.0256375291
 20
-23.676890334
 10
18.0548203112
 20
-23.6686408977
 10
18.0818467082
 20
-23.6583007717
 10
18.1062774505
 20
-23.6460571654
  0
LWPOLYLINE
  5
3C4
100
AcDbEntity
  8
RACCORDO
100
AcDbPolyline
 62
7
  6
CONTINUOUS
 90
13
 70
0
 10
13.4843929471
 20
-24.3291984263
 10
13.5169523818
 20
-24.3470464846
 10
13.591599355
 20
-24.3813806804
 10
13.6699449915
 20
-24.4085973849
 10
13.7514478283
 20
-24.4283748241
 10
13.8355003876
 20
-24.4404927038
 10
13.9222506193
 20
-24.4448158487
 10
14.0112608132
 20
-24.4410598897
 10
14.1020201343
 20
-24.4290085884
 10
14.1948141271
 20
-24.408316205
 10
14.2895600025
 20
-24.378522249
 10
14.3856194164
 20
-24.3393333834
 10
14.4280511677
 20
-24.3191139222
  0
LINE
  5
3C5
100
AcDbEntity
  8
RACCORDO
100
AcDbLine
 62
7
  6
CONTINUOUS
 10
13.4844025479
 20
-24.3292195174
 11
-33.1676472758
 21
2.6070893087
  0
LINE
  5
3C6
100
AcDbEntity
  8
RACCORDO
100
AcDbLine
 62
253
  6
CONTINUOUS
 10
13.2189737075
 20
-23.9786474777
 11
-33.4267839168
 21
2.9540283659
  0
LWPOLYLINE
  5
3C7
100
AcDbEntity
  8
RACCORDO
100
AcDbPolyline
 62
253
  6
CONTINUOUS
 90
9
 70
0
 10
13.4842119727
 20
-24.3291095363
 10
13.4770115702
 20
-24.3248733637
 10
13.428056756
 20
-24.2915459292
 10
13.3828213063
 20
-24.2524966451
 10
13.3415072798
 20
-24.2079036463
 10
13.3043096661
 20
-24.1579800494
 10
13.2713964629
 20
-24.1029588353
 10
13.2429094022
 20
-24.0430897698
 10
13.2189737075
 20
-23.9786474777
  0
LWPOLYLINE
  5
3C8
100
AcDbEntity
  8
RACCORDO
100
AcDbPolyline
 62
253
  6
CONTINUOUS
 90
6
 70
0
 10
-33.426770727
 20
2.9540407104
 10
-33.46967621
 20
2.983278278
 10
-33.5062117936
 20
3.0173317776
 10
-33.5357655349
 20
3.0556308391
 10
-33.5578424311
 20
3.0975339824
 10
-33.5659255659
 20
3.1195226781
  0
LWPOLYLINE
  5
3C9
100
AcDbEntity
  8
RACCORDO
100
AcDbPolyline
 62
253
  6
CONTINUOUS
 90
3
 70
0
 10
-33.2225107561
 20
2.6439070828
 10
-33.1746810448
 20
2.6112292691
 10
-33.1676467775
 20
2.6070890209
  0
LWPOLYLINE
  5
3CA
100
AcDbEntity
  8
RACCORDO
100
AcDbPolyline
 62
253
  6
CONTINUOUS
 90
4
 70
0
 10
-24.9541411227
 20
42.9858548762
 10
-24.9615557423
 20
43.0156217111
 10
-24.9718171425
 20
43.0456609462
 10
-24.984750032
 20
43.0754502483
  0
LWPOLYLINE
  5
3CB
100
AcDbEntity
  8
RACCORDO
100
AcDbPolyline
 62
7
  6
CONTINUOUS
 90
9
 70
0
 10
-11.5117818833
 20
35.3142522227
 10
-11.513811783
 20
35.346039459
 10
-11.5199810343
 20
35.3777509467
 10
-11.5303182856
 20
35.4087223392
 10
-11.5447350142
 20
35.4383112327
 10
-11.5629796488
 20
35.4658360574
 10
-11.5846775648
 20
35.4907006864
 10
-11.6096402762
 20
35.5126278289
 10
-11.6368084967
 20
35.5307739301
  0
LWPOLYLINE
  5
3CC
100
AcDbEntity
  8
RACCORDO
100
AcDbPolyline
 62
253
  6
CONTINUOUS
 90
13
 70
0
 10
-13.7135277029
 20
33.9832054942
 10
-13.7151661751
 20
34.0106483483
 10
-13.7197835346
 20
34.0393781457
 10
-13.7273007804
 20
34.0689033328
 10
-13.7375892961
 20
34.0987187471
 10
-13.7504730497
 20
34.1283142607
 10
-13.7657316062
 20
34.1571835078
 10
-13.7831038986
 20
34.1848325489
 10
-13.8022926951
 20
34.2107883216
 10
-13.8229696842
 20
34.2346067346
 10
-13.8447810919
 20
34.2558802656
 10
-13.8673537353
 20
34.2742449345
 10
-13.8903014066
 20
34.2893865301
  0
LWPOLYLINE
  5
3CD
100
AcDbEntity
  8
RACCORDO
100
AcDbPolyline
 62
7
  6
CONTINUOUS
 90
13
 70
0
 10
-12.1122469121
 20
34.9077639204
 10
-12.1138853703
 20
34.9352067825
 10
-12.1185027176
 20
34.9639365869
 10
-12.1260199529
 20
34.99346178
 10
-12.1363084587
 20
35.0232772
 10
-12.1491922042
 20
35.0528727184
 10
-12.1644507573
 20
35.0817419675
 10
-12.1818230532
 20
35.1093910067
 10
-12.2010118579
 20
35.1353467748
 10
-12.2216888568
 20
35.1591651821
 10
-12.2435002751
 20
35.1804387071
 10
-12.2660729306
 20
35.1988033688
 10
-12.2890206158
 20
35.2139449563
  0
LWPOLYLINE
  5
3CE
100
AcDbEntity
  8
RACCORDO
100
AcDbPolyline
 62
253
  6
CONTINUOUS
 90
8
 70
0
 10
-14.0660496626
 20
33.663277402
 10
-14.0648902823
 20
33.640607795
 10
-14.0614037076
 20
33.6194711557
 10
-14.0556009376
 20
33.6001749876
 10
-14.047509772
 20
33.5829823704
 10
-14.0372146452
 20
33.5681966065
 10
-14.0248918559
 20
33.5561129824
 10
-14.0142827335
 20
33.5488453383
  0
LWPOLYLINE
  5
3CF
100
AcDbEntity
  8
RACCORDO
100
AcDbPolyline
 62
253
  6
CONTINUOUS
 90
3
 70
0
 10
-11.5839797403
 20
35.2127791096
 10
-11.5853042914
 20
35.2397457483
 10
-11.5895568257
 20
35.2681321485
  0
LINE
  5
3D0
100
AcDbEntity
  8
RACCORDO
100
AcDbLine
 62
7
  6
CONTINUOUS
 10
-12.1122469121
 20
33.3972904541
 11
-12.1122469121
 21
34.9077639204
  0
LINE
  5
3D1
100
AcDbEntity
  8
SUPERFICI
100
AcDbLine
 62
7
  6
CONTINUOUS
 10
-11.7100162221
 20
18.9066521383
 11
-11.7100162221
 21
18.2151227186
  0
LINE
  5
3D2
100
AcDbEntity
  8
RACCORDO
100
AcDbLine
 62
253
  6
CONTINUOUS
 10
-11.5839797403
 20
35.2127791096
 11
-11.5839797403
 21
34.8851338091
  0
LINE
  5
3D3
100
AcDbEntity
  8
RACCORDO
100
AcDbLine
 62
7
  6
CONTINUOUS
 10
-11.5117818833
 20
35.3142522227
 11
-11.5117818833
 21
34.903761778
  0
LINE
  5
3D4
100
AcDbEntity
  8
DRAFT
100
AcDbLine
 62
253
  6
CONTINUOUS
 10
-11.2068302243
 20
39.0055120279
 11
-11.2068302243
 21
40.1665609835
  0
LINE
  5
3D5
100
AcDbEntity
  8
RACCORDO
100
AcDbLine
 62
7
  6
CONTINUOUS
 10
-11.0832361604
 20
39.1770833162
 11
-11.0832361604
 21
40.338845125
  0
LWPOLYLINE
  5
3D6
100
AcDbEntity
  8
RACCORDO
100
AcDbPolyline
 62
7
  6
CONTINUOUS
 90
43
 70
0
 10
2.8506000709
 20
28.5229112244
 10
2.8524044264
 20
28.5263656661
 10
2.8538403213
 20
28.5299195056
 10
2.8548956859
 20
28.5335790803
 10
2.8554900703
 20
28.5373794132
 10
2.8556710216
 20
28.5413017607
 10
2.8556270221
 20
28.5452669236
 10
2.8553956343
 20
28.5492253954
 10
2.8549279291
 20
28.5532299273
 10
2.8542941632
 20
28.5573485035
 10
2.8535037309
 20
28.5616016999
 10
2.8525328908
 20
28.5659718402
 10
2.8514030336
 20
28.5704686886
 10
2.8501154716
 20
28.5750873965
 10
2.848656503
 20
28.5798327788
 10
2.8470249894
 20
28.5847284459
 10
2.8452172418
 20
28.5897734915
 10
2.8432232282
 20
28.5949664395
 10
2.8410304094
 20
28.6003296937
 10
2.8386310053
 20
28.6058651935
 10
2.8360176969
 20
28.6115648853
 10
2.8331771497
 20
28.6174352317
 10
2.8301066442
 20
28.6234652191
 10
2.8267954521
 20
28.6296538291
 10
2.8232165477
 20
28.6360207375
 10
2.8193637896
 20
28.6425580551
 10
2.8152304447
 20
28.6492530121
 10
2.810786555
 20
28.6561148765
 10
2.8060255812
 20
28.6631327404
 10
2.8009453546
 20
28.6702838931
 10
2.7955223135
 20
28.6775553808
 10
2.7897668721
 20
28.6849130378
 10
2.7836705614
 20
28.6923409759
 10
2.7771818891
 20
28.6998457434
 10
2.7703012943
 20
28.7074001021
 10
2.7630436023
 20
28.7149532701
 10
2.7553816658
 20
28.7224650434
 10
2.7473444046
 20
28.7298772326
 10
2.7389451826
 20
28.7371390623
 10
2.7301409073
 20
28.744205323
 10
2.720944609
 20
28.7510059171
 10
2.7114262494
 20
28.7574532862
 10
2.7016401538
 20
28.7634606206
  0
LWPOLYLINE
  5
3D7
100
AcDbEntity
  8
RACCORDO
100
AcDbPolyline
 62
253
  6
CONTINUOUS
 90
4
 70
0
 10
3.1002083763
 20
24.2365896989
 10
3.1153926767
 20
24.2656327129
 10
3.1327071423
 20
24.2933975411
 10
3.15188471
 20
24.3194712979
  0
LWPOLYLINE
  5
3D8
100
AcDbEntity
  8
RACCORDO
100
AcDbPolyline
 62
7
  6
CONTINUOUS
 90
5
 70
0
 10
6.8892072492
 20
24.1748231185
 10
6.9075961791
 20
24.2012159707
 10
6.9224141977
 20
24.2296839103
 10
6.9334504809
 20
24.2597728715
 10
6.9405564677
 20
24.2910875093
  0
LINE
  5
3D9
100
AcDbEntity
  8
RACCORDO
100
AcDbLine
 62
253
  6
CONTINUOUS
 10
6.3432400769
 20
23.5663546569
 11
6.8715072486
 21
24.2291669233
  0
LINE
  5
3DA
100
AcDbEntity
  8
RACCORDO
100
AcDbLine
 62
7
  6
CONTINUOUS
 10
6.3432400769
 20
23.489802814
 11
6.8892072492
 21
24.1748231185
  0
LWPOLYLINE
  5
3DB
100
AcDbEntity
  8
RACCORDO
100
AcDbPolyline
 62
7
  6
CONTINUOUS
 90
11
 70
0
 10
5.4531798942
 20
22.9412284226
 10
5.430434693
 20
22.9158360371
 10
5.4054645654
 20
22.8919019444
 10
5.3783799488
 20
22.869884103
 10
5.349187492
 20
22.8502747381
 10
5.3182632708
 20
22.8334765545
 10
5.2863366252
 20
22.8198256918
 10
5.2537318031
 20
22.8097519956
 10
5.2208140389
 20
22.8036312577
 10
5.1884386022
 20
22.8017433164
 10
5.1711557679
 20
22.8026178051
  0
LINE
  5
3DC
100
AcDbEntity
  8
0
100
AcDbLine
 62
7
  6
CONTINUOUS
 10
16.4737933311
 20
23.7321656278
 11
15.0760088245
 21
22.9251023721
  0
LINE
  5
3DD
100
AcDbEntity
  8
RACCORDO
100
AcDbLine
 62
7
  6
CONTINUOUS
 10
14.9304617096
 20
18.513189123
 11
20.6129749291
 21
21.7942042838
  0
LINE
  5
3DE
100
AcDbEntity
  8
RACCORDO
100
AcDbLine
 62
7
  6
CONTINUOUS
 10
20.0059785249
 20
22.142655171
 11
15.358851537
 21
19.4906799923
  0
LWPOLYLINE
  5
3DF
100
AcDbEntity
  8
RACCORDO
100
AcDbPolyline
 62
253
  6
CONTINUOUS
 90
28
 70
0
 10
14.0860593309
 20
22.1902396681
 10
14.111247673
 20
22.204588556
 10
14.1394763869
 20
22.2187468458
 10
14.1707454727
 20
22.2327145375
 10
14.2051842621
 20
22.2467515733
 10
14.2426634235
 20
22.2605980109
 10
14.282794961
 20
22.2734740239
 10
14.3257254505
 20
22.2853277039
 10
14.3713083162
 20
22.2962109592
 10
14.4187158351
 20
22.3054996889
 10
14.4680603698
 20
22.3131024068
 10
14.5192295578
 20
22.3191105991
 10
14.5710585875
 20
22.3231746237
 10
14.6235841473
 20
22.3251802559
 10
14.6767695488
 20
22.3252417204
 10
14.7293399163
 20
22.3233520481
 10
14.781260936
 20
22.3193967065
 10
14.8325669216
 20
22.3134902281
 10
14.8820859377
 20
22.3059692424
 10
14.9297089093
 20
22.2967406424
 10
14.9755449114
 20
22.2858975351
 10
15.0187492331
 20
22.2740558708
 10
15.059173277
 20
22.2611627595
 10
15.0969656405
 20
22.2472710912
 10
15.1317274046
 20
22.2331554859
 10
15.1633255961
 20
22.2190741503
 10
15.1918931882
 20
22.2047688777
 10
15.2174301808
 20
22.1902396681
  0
LINE
  5
3E0
100
AcDbEntity
  8
RACCORDO
100
AcDbLine
 62
7
  6
CONTINUOUS
 10
21.3754297695
 20
22.1632286891
 11
20.736568993
 21
21.8007960244
  0
LWPOLYLINE
  5
3E1
100
AcDbEntity
  8
RACCORDO
100
AcDbPolyline
 62
7
  6
CONTINUOUS
 90
13
 70
0
 10
21.3754297695
 20
22.1632286891
 10
21.4217248498
 20
22.1877029216
 10
21.4674150546
 20
22.2084516178
 10
21.5125003838
 20
22.2254747777
 10
21.5571661143
 20
22.2388128223
 10
21.6012269691
 20
22.2484253306
 10
21.6441271182
 20
22.2541910403
 10
21.6858518573
 20
22.256061219
 10
21.7264158906
 20
22.2540845991
 10
21.7653075005
 20
22.2482861158
 10
21.8025055002
 20
22.2386173525
 10
21.8380310764
 20
22.2251267257
 10
21.8692832093
 20
22.2092379111
  0
LWPOLYLINE
  5
3E2
100
AcDbEntity
  8
RACCORDO
100
AcDbPolyline
 62
253
  6
CONTINUOUS
 90
4
 70
0
 10
20.1826091624
 20
-22.1053917384
 10
20.1794857925
 20
-22.1036995681
 10
20.1636702627
 20
-22.0974805031
 10
20.1464116177
 20
-22.0943302402
  0
LINE
  5
3E3
100
AcDbEntity
  8
RACCORDO
100
AcDbLine
 62
253
  6
CONTINUOUS
 10
20.1830293101
 20
-22.105632701
 11
20.1826091624
 21
-22.1053917384
  0
LINE
  5
3E4
100
AcDbEntity
  8
RACCORDO
100
AcDbLine
 62
7
  6
CONTINUOUS
 10
16.4805414663
 20
-23.3153899247
 11
17.8055261461
 21
-24.0804194729
  0
LINE
  5
3E5
100
AcDbEntity
  8
RACCORDO
100
AcDbLine
 62
253
  6
CONTINUOUS
 10
16.541847774
 20
-23.2662449307
 11
17.7537554908
 21
-23.9659852576
  0
LINE
  5
3E6
100
AcDbEntity
  8
RACCORDO
100
AcDbLine
 62
253
  6
CONTINUOUS
 10
17.7537554908
 20
-23.6454650848
 11
16.8398705461
 21
-23.1177993713
  0
LINE
  5
3E7
100
AcDbEntity
  8
RACCORDO
100
AcDbLine
 62
253
  6
CONTINUOUS
 10
17.8421438385
 20
-23.4176597603
 11
17.0991383616
 21
-22.98865771
  0
LINE
  5
3E8
100
AcDbEntity
  8
RACCORDO
100
AcDbLine
 62
7
  6
CONTINUOUS
 10
18.4649760989
 20
-22.6503290959
 11
18.1469838973
 21
-22.4667243841
  0
LINE
  5
3E9
100
AcDbEntity
  8
RACCORDO
100
AcDbLine
 62
253
  6
CONTINUOUS
 10
19.7075582413
 20
-21.8409418007
 11
20.1464116177
 21
-22.0943302402
  0
LINE
  5
3EA
100
AcDbEntity
  8
RACCORDO
100
AcDbLine
 62
7
  6
CONTINUOUS
 10
19.7075582413
 20
-21.8311016649
 11
20.1830293101
 21
-22.105632701
  0
LINE
  5
3EB
100
AcDbEntity
  8
RACCORDO
100
AcDbLine
 62
253
  6
CONTINUOUS
 10
17.805487285
 20
-24.080397021
 11
17.8055261461
 21
-24.0804194729
  0
LINE
  5
3EC
100
AcDbEntity
  8
RACCORDO
100
AcDbLine
 62
7
  6
CONTINUOUS
 10
16.4805414663
 20
-23.3153899247
 11
16.4645535758
 21
-23.3047452788
  0
LINE
  5
3ED
100
AcDbEntity
  8
RACCORDO
100
AcDbLine
 62
253
  6
CONTINUOUS
 10
16.4655426028
 20
-23.3042526431
 11
16.4805414663
 21
-23.3153899247
  0
LINE
  5
3EE
100
AcDbEntity
  8
RACCORDO
100
AcDbLine
 62
253
  6
CONTINUOUS
 10
-6.4958739814
 20
38.0544026787
 11
-6.4958739814
 21
37.5855306043
  0
LINE
  5
3EF
100
AcDbEntity
  8
RACCORDO
100
AcDbLine
 62
7
  6
CONTINUOUS
 10
-6.3555438815
 20
38.3744533247
 11
-6.3555438815
 21
37.7885310951
  0
LINE
  5
3F0
100
AcDbEntity
  8
0
100
AcDbLine
 62
7
  6
CONTINUOUS
 10
-5.9250625767
 20
36.631174242
 11
-5.9250625767
 21
36.6536773282
  0
LINE
  5
3F1
100
AcDbEntity
  8
DRAFT
100
AcDbLine
 62
7
  6
CONTINUOUS
 10
-5.2282645792
 20
34.9633228821
 11
-5.2282645792
 21
36.2288518111
  0
LWPOLYLINE
  5
3F2
100
AcDbEntity
  8
RACCORDO
100
AcDbPolyline
 62
253
  6
CONTINUOUS
 90
11
 70
0
 10
4.7419592861
 20
23.0067184355
 10
4.7289812112
 20
22.9781481172
 10
4.7132300391
 20
22.9517283097
 10
4.6949545226
 20
22.9279210185
 10
4.6744335695
 20
22.9071348043
 10
4.6520164447
 20
22.8897639429
 10
4.6281297051
 20
22.8761548891
 10
4.6032006148
 20
22.8665461079
 10
4.5776389881
 20
22.8610908102
 10
4.5518829955
 20
22.8598822253
 10
4.5432917749
 20
22.8604322412
  0
LINE
  5
3F3
100
AcDbEntity
  8
0
100
AcDbLine
 62
7
  6
CONTINUOUS
 10
7.294735473
 20
23.4131878072
 11
7.1171992112
 21
23.1038732225
  0
LINE
  5
3F4
100
AcDbEntity
  8
RACCORDO
100
AcDbLine
 62
7
  6
CONTINUOUS
 10
12.6962998796
 20
21.0280039497
 11
13.9832946051
 21
22.1972153009
  0
LINE
  5
3F5
100
AcDbEntity
  8
RACCORDO
100
AcDbLine
 62
253
  6
CONTINUOUS
 10
12.7638263571
 20
20.9890150079
 11
14.0860593309
 21
22.1902396681
  0
LWPOLYLINE
  5
3F6
100
AcDbEntity
  8
RACCORDO
100
AcDbPolyline
 62
7
  6
CONTINUOUS
 90
4
 70
0
 10
13.9832946832
 20
22.1972153718
 10
13.9859167997
 20
22.1994387123
 10
13.9892140679
 20
22.2018309291
 10
13.9921611037
 20
22.2036436493
  0
LINE
  5
3F7
100
AcDbEntity
  8
RACCORDO
100
AcDbLine
 62
253
  6
CONTINUOUS
 10
16.5815391739
 20
16.6669033152
 11
16.604519067
 21
16.6820593785
  0
LINE
  5
3F8
100
AcDbEntity
  8
RACCORDO
100
AcDbLine
 62
7
  6
CONTINUOUS
 10
15.2881408589
 20
17.5766499626
 11
14.9304617096
 21
17.3510004298
  0
LINE
  5
3F9
100
AcDbEntity
  8
RACCORDO
100
AcDbLine
 62
7
  6
CONTINUOUS
 10
18.0611229682
 20
17.6290254649
 11
16.4783663077
 21
16.693771371
  0
LINE
  5
3FA
100
AcDbEntity
  8
RACCORDO
100
AcDbLine
 62
253
  6
CONTINUOUS
 10
18.1872756701
 20
17.6173134386
 11
16.604519067
 21
16.6820593785
  0
LINE
  5
3FB
100
AcDbEntity
  8
RACCORDO
100
AcDbLine
 62
7
  6
CONTINUOUS
 10
18.0625771894
 20
17.6298651143
 11
18.0611229682
 21
17.6290254649
  0
LINE
  5
3FC
100
AcDbEntity
  8
RACCORDO
100
AcDbLine
 62
253
  6
CONTINUOUS
 10
20.0590517094
 20
17.1466034458
 11
17.9295037468
 21
15.9170298303
  0
LINE
  5
3FD
100
AcDbEntity
  8
RACCORDO
100
AcDbLine
 62
253
  6
CONTINUOUS
 10
20.2358254131
 20
16.8404224099
 11
18.1062774505
 21
15.6108487944
  0
LINE
  5
3FE
100
AcDbEntity
  8
DRAFT
100
AcDbLine
 62
7
  6
CONTINUOUS
 10
15.2881408589
 20
17.5766499626
 11
20.6129749291
 21
20.6331553282
  0
LINE
  5
3FF
100
AcDbEntity
  8
RACCORDO
100
AcDbLine
 62
7
  6
CONTINUOUS
 10
18.5978789212
 20
17.9318023343
 11
18.0625722579
 21
17.629873711
  0
LINE
  5
400
100
AcDbEntity
  8
RACCORDO
100
AcDbLine
 62
253
  6
CONTINUOUS
 10
18.7217255488
 20
17.9187588103
 11
18.1872756701
 21
17.6173134386
  0
LINE
  5
401
100
AcDbEntity
  8
RACCORDO
100
AcDbLine
 62
7
  6
CONTINUOUS
 10
24.4423957134
 20
20.3924009912
 11
19.4253602862
 21
17.5958669851
  0
LWPOLYLINE
  5
402
100
AcDbEntity
  8
RACCORDO
100
AcDbPolyline
 62
7
  6
CONTINUOUS
 90
7
 70
0
 10
18.5978789212
 20
17.9318023343
 10
18.6264222447
 20
17.9455932326
 10
18.6569135749
 20
17.9557767758
 10
18.6887977177
 20
17.9620073933
 10
18.721488824
 20
17.9640495961
 10
18.7542746358
 20
17.9617857019
 10
18.7864459992
 20
17.9552501484
  0
LINE
  5
403
100
AcDbEntity
  8
RACCORDO
100
AcDbLine
 62
253
  6
CONTINUOUS
 10
3.1169018074
 20
7.9535365844
 11
5.0690319562
 21
8.5271105912
  0
LINE
  5
404
100
AcDbEntity
  8
RACCORDO
100
AcDbLine
 62
253
  6
CONTINUOUS
 10
20.1688221525
 20
-22.109604491
 11
20.1464116177
 21
-22.0943302402
  0
LINE
  5
405
100
AcDbEntity
  8
0
100
AcDbLine
 62
7
  6
CONTINUOUS
 10
-2.62801364
 20
34.5562689171
 11
-2.62801364
 21
34.7500025939
  0
LWPOLYLINE
  5
406
100
AcDbEntity
  8
RACCORDO
100
AcDbPolyline
 62
253
  6
CONTINUOUS
 90
4
 70
0
 10
3.0702132671
 20
24.147869653
 10
3.077414525
 20
24.1770638509
 10
3.0874558652
 20
24.2068278417
 10
3.1002083763
 20
24.2365896989
  0
LINE
  5
407
100
AcDbEntity
  8
RACCORDO
100
AcDbLine
 62
253
  6
CONTINUOUS
 10
6.1042316864
 20
9.429465249
 11
8.7773221081
 21
12.9010064376
  0
LINE
  5
408
100
AcDbEntity
  8
RACCORDO
100
AcDbLine
 62
7
  6
CONTINUOUS
 10
8.5223442506
 20
11.5244752729
 11
4.9377721096
 21
8.3457534934
  0
LWPOLYLINE
  5
409
100
AcDbEntity
  8
RACCORDO
100
AcDbPolyline
 62
253
  6
CONTINUOUS
 90
22
 70
0
 10
6.4673594717
 20
5.391757399
 10
11.8413399695
 20
10.0219644311
 10
11.9109642895
 20
10.0807776307
 10
11.9807253119
 20
10.1388670718
 10
12.0506112965
 20
10.1962239894
 10
12.1206197922
 20
10.2528477074
 10
12.1907577411
 20
10.3087451575
 10
12.2610184297
 20
10.3639115641
 10
12.3313945986
 20
10.4183417968
 10
12.4018925367
 20
10.4720415251
 10
12.4725052309
 20
10.5250055114
 10
12.5432258428
 20
10.5772287279
 10
12.6140610516
 20
10.6287164199
 10
12.6850040833
 20
10.679463283
 10
12.7560479266
 20
10.729463921
 10
12.8271990009
 20
10.7787226795
 10
12.8984501101
 20
10.8272337367
 10
12.9697946663
 20
10.8749917689
 10
13.0412400644
 20
10.9220010614
 10
13.1127841746
 20
10.9682589285
 10
13.1844152958
 20
11.0137562397
 10
13.2561264692
 20
11.0584872347
  0
LWPOLYLINE
  5
40A
100
AcDbEntity
  8
RACCORDO
100
AcDbPolyline
 62
7
  6
CONTINUOUS
 90
5
 70
0
 10
20.3051526791
 20
16.5231053938
 10
20.2975513406
 20
16.5176077786
 10
20.2867896033
 20
16.5140285563
 10
20.2726706553
 20
16.5117779641
 10
20.2555567433
 20
16.5113061307
  0
LINE
  5
40B
100
AcDbEntity
  8
RACCORDO
100
AcDbLine
 62
7
  6
CONTINUOUS
 10
18.8174980586
 20
14.4626012787
 11
19.7075582413
 21
15.0246954052
  0
LINE
  5
40C
100
AcDbEntity
  8
RACCORDO
100
AcDbLine
 62
7
  6
CONTINUOUS
 10
25.323931172
 20
19.682045979
 11
20.3080232701
 21
16.5801332922
  0
LINE
  5
40D
100
AcDbEntity
  8
RACCORDO
100
AcDbLine
 62
253
  6
CONTINUOUS
 10
13.2561264692
 20
11.0584872347
 11
18.7058511161
 21
14.4212496027
  0
LINE
  5
40E
100
AcDbEntity
  8
RACCORDO
100
AcDbLine
 62
253
  6
CONTINUOUS
 10
13.5537657788
 20
10.4113575729
 11
20.0503419902
 21
14.4204715214
  0
LINE
  5
40F
100
AcDbEntity
  8
RACCORDO
100
AcDbLine
 62
7
  6
CONTINUOUS
 10
25.323931172
 20
19.2131739045
 11
19.7448644599
 21
15.820220791
  0
LINE
  5
410
100
AcDbEntity
  8
ASSI
100
AcDbLine
 62
7
  6
CONTINUOUS
 10
24.7273577176
 20
18.8120858247
 11
21.9690744328
 21
17.1728915049
  0
LINE
  5
411
100
AcDbEntity
  8
0
100
AcDbLine
 62
253
  6
CONTINUOUS
 10
20.7682184131
 20
14.6574537514
 11
39.1671248619
 21
25.2807882185
  0
LINE
  5
412
100
AcDbEntity
  8
0
100
AcDbLine
 62
253
  6
CONTINUOUS
 10
20.7682184131
 20
11.3919094548
 11
40.5811230327
 21
22.8316715474
  0
LINE
  5
413
100
AcDbEntity
  8
RACCORDO
100
AcDbLine
 62
253
  6
CONTINUOUS
 10
20.4145573124
 20
15.42614531
 11
19.7015502391
 21
15.0356506787
  0
LINE
  5
414
100
AcDbEntity
  8
RACCORDO
100
AcDbLine
 62
253
  6
CONTINUOUS
 10
20.7682184131
 20
14.8136329633
 11
20.0503419902
 21
14.4204715214
  0
LWPOLYLINE
  5
415
100
AcDbEntity
  8
RACCORDO
100
AcDbPolyline
 62
253
  6
CONTINUOUS
 90
13
 70
0
 10
18.1062774505
 20
-23.6460571654
 10
18.0931970757
 20
-23.6287614471
 10
18.0773437436
 20
-23.6100105068
 10
18.0589877068
 20
-23.5901239927
 10
18.0384418817
 20
-23.5694409114
 10
18.0160565141
 20
-23.5483138486
 10
17.9922132086
 20
-23.5271029583
 10
17.9673184233
 20
-23.5061698239
 10
17.941796541
 20
-23.4858712935
 10
17.9160826346
 20
-23.4665533974
 10
17.8906150505
 20
-23.4485454489
 10
17.865827936
 20
-23.4321544303
 10
17.8421438385
 20
-23.4176597603
  0
LWPOLYLINE
  5
416
100
AcDbEntity
  8
RACCORDO
100
AcDbPolyline
 62
253
  6
CONTINUOUS
 90
4
 70
0
 10
-24.984750032
 20
43.0754502483
 10
-25.0001280237
 20
43.1044648933
 10
-25.0177254003
 20
43.1322613219
 10
-25.0372057826
 20
43.1582926992
  0
LWPOLYLINE
  5
417
100
AcDbEntity
  8
RACCORDO
100
AcDbPolyline
 62
253
  6
CONTINUOUS
 90
4
 70
0
 10
-11.5895568257
 20
35.2681321485
 10
-11.5967268641
 20
35.2974879439
 10
-11.6067783124
 20
35.327398209
 10
-11.6195817439
 20
35.3572840375
  0
LWPOLYLINE
  5
418
100
AcDbEntity
  8
RACCORDO
100
AcDbPolyline
 62
7
  6
CONTINUOUS
 90
6
 70
0
 10
2.9912293419
 20
23.8744087127
 10
2.9935371779
 20
23.8405260671
 10
3.0005269355
 20
23.8068662063
 10
3.0121840128
 20
23.7742177089
 10
3.0283411228
 20
23.7433416316
 10
3.0486476864
 20
23.7149963851
  0
LWPOLYLINE
  5
419
100
AcDbEntity
  8
RACCORDO
100
AcDbPolyline
 62
253
  6
CONTINUOUS
 90
8
 70
0
 10
3.0644526466
 20
23.7723400643
 10
3.0656120269
 20
23.7496704573
 10
3.0690986015
 20
23.728533818
 10
3.0749013715
 20
23.7092376499
 10
3.0829925371
 20
23.6920450327
 10
3.093287664
 20
23.6772592688
 10
3.1056104533
 20
23.6651756447
 10
3.1162233018
 20
23.657905849
  0
LINE
  5
41A
100
AcDbEntity
  8
RACCORDO
100
AcDbLine
 62
253
  6
CONTINUOUS
 10
2.84306151
 20
28.5119309883
 11
2.84306151
 21
27.4689147602
  0
LINE
  5
41B
100
AcDbEntity
  8
RACCORDO
100
AcDbLine
 62
7
  6
CONTINUOUS
 10
2.9912293419
 20
24.1949288855
 11
2.9912293419
 21
23.8744087127
  0
LINE
  5
41C
100
AcDbEntity
  8
RACCORDO
100
AcDbLine
 62
253
  6
CONTINUOUS
 10
3.0644526466
 20
24.0928602372
 11
3.0644526466
 21
23.7723400643
  0
LINE
  5
41D
100
AcDbEntity
  8
RACCORDO
100
AcDbLine
 62
7
  6
CONTINUOUS
 10
3.1359547288
 20
28.9267862399
 11
3.1359547288
 21
27.8671119917
  0
LINE
  5
41E
100
AcDbEntity
  8
RACCORDO
100
AcDbLine
 62
7
  6
CONTINUOUS
 10
3.6942222962
 20
23.0447489745
 11
3.6942222962
 21
23.3241764737
  0
LINE
  5
41F
100
AcDbEntity
  8
RACCORDO
100
AcDbLine
 62
253
  6
CONTINUOUS
 10
3.7674456009
 20
22.9395471453
 11
3.7674456009
 21
23.2818982553
  0
LINE
  5
420
100
AcDbEntity
  8
RACCORDO
100
AcDbLine
 62
253
  6
CONTINUOUS
 10
4.3894373264
 20
23.0073105162
 11
4.3894373264
 21
23.327830689
  0
LINE
  5
421
100
AcDbEntity
  8
RACCORDO
100
AcDbLine
 62
253
  6
CONTINUOUS
 10
4.7419592861
 20
23.0067184355
 11
4.7419592861
 21
23.3272386083
  0
LWPOLYLINE
  5
422
100
AcDbEntity
  8
RACCORDO
100
AcDbPolyline
 62
253
  6
CONTINUOUS
 90
15
 70
0
 10
3.1359547288
 20
28.9267862399
 10
3.1356018978
 20
28.9114496991
 10
3.1317341538
 20
28.8737943467
 10
3.1236713539
 20
28.8365661112
 10
3.1115175309
 20
28.799922218
 10
3.0956095544
 20
28.7644359973
 10
3.0762189944
 20
28.7302172985
 10
3.0536233798
 20
28.6973633465
 10
3.0284544518
 20
28.6663568122
 10
3.0011043133
 20
28.6372183968
 10
2.971957179
 20
28.6099588929
 10
2.9418563884
 20
28.5849443253
 10
2.9114120369
 20
28.5622237917
 10
2.88087306
 20
28.541578921
 10
2.8506000709
 20
28.5229112244
  0
LWPOLYLINE
  5
423
100
AcDbEntity
  8
RACCORDO
100
AcDbPolyline
 62
253
  6
CONTINUOUS
 90
3
 70
0
 10
3.0644526466
 20
24.0928602372
 10
3.0658886631
 20
24.1196538065
 10
3.0702132671
 20
24.147869653
  0
LWPOLYLINE
  5
424
100
AcDbEntity
  8
RACCORDO
100
AcDbPolyline
 62
253
  6
CONTINUOUS
 90
13
 70
0
 10
4.3894373264
 20
23.327830689
 10
4.3908733429
 20
23.3546242584
 10
4.3951979469
 20
23.3828401048
 10
4.4023992049
 20
23.4120343027
 10
4.412440545
 20
23.4417982936
 10
4.4251930561
 20
23.4715601507
 10
4.4403773565
 20
23.5006031648
 10
4.4576918221
 20
23.5283679929
 10
4.4768693898
 20
23.5544417497
 10
4.4975739678
 20
23.5783696477
 10
4.5194466057
 20
23.5997413184
 10
4.5421134563
 20
23.6181956993
 10
4.5651855824
 20
23.6334196442
  0
LWPOLYLINE
  5
425
100
AcDbEntity
  8
RACCORDO
100
AcDbPolyline
 62
7
  6
CONTINUOUS
 90
9
 70
0
 10
2.9912293419
 20
24.1949288855
 10
2.9932520808
 20
24.2266602449
 10
2.999399056
 20
24.2583154209
 10
3.009698701
 20
24.2892345711
 10
3.0240660627
 20
24.3187840071
 10
3.0422506556
 20
24.3462810263
 10
3.0638722086
 20
24.3711232307
 10
3.0887444224
 20
24.393040721
 10
3.1140904959
 20
24.4101861943
  0
LWPOLYLINE
  5
426
100
AcDbEntity
  8
RACCORDO
100
AcDbPolyline
 62
7
  6
CONTINUOUS
 90
3
 70
0
 10
6.9405564677
 20
24.2910875093
 10
6.9435910342
 20
24.3230887205
 10
6.9437051054
 20
24.3306457792
  0
LWPOLYLINE
  5
427
100
AcDbEntity
  8
RACCORDO
100
AcDbPolyline
 62
253
  6
CONTINUOUS
 90
7
 70
0
 10
6.9437050971
 20
24.658247648
 10
6.9417727537
 20
24.6403729017
 10
6.9355867388
 20
24.6217988548
 10
6.9252517064
 20
24.6038570453
 10
6.9109506986
 20
24.586856294
 10
6.8929318048
 20
24.5710850664
 10
6.8715072486
 20
24.5568122238
  0
LWPOLYLINE
  5
428
100
AcDbEntity
  8
RACCORDO
100
AcDbPolyline
 62
253
  6
CONTINUOUS
 90
7
 70
0
 10
6.9437051056
 20
24.3306400363
 10
6.9416253034
 20
24.3120595001
 10
6.9353148943
 20
24.2935579582
 10
6.9249084225
 20
24.2757274033
 10
6.9106209003
 20
24.2588776306
 10
6.8927124306
 20
24.2432729277
 10
6.8715072486
 20
24.2291669233
  0
LWPOLYLINE
  5
429
100
AcDbEntity
  8
RACCORDO
100
AcDbPolyline
 62
253
  6
CONTINUOUS
 90
4
 70
0
 10
16.5165660519
 20
16.6035361308
 10
16.5371860205
 20
16.6273054271
 10
16.558967037
 20
16.6485480833
 10
16.5815391739
 20
16.6669033152
  0
LWPOLYLINE
  5
42A
100
AcDbEntity
  8
RACCORDO
100
AcDbPolyline
 62
7
  6
CONTINUOUS
 90
11
 70
0
 10
18.8174980586
 20
15.2248386087
 10
18.7949863642
 20
15.1989770371
 10
18.7699187023
 20
15.1750937584
 10
18.7425792033
 20
15.1534067628
 10
18.7133510025
 20
15.1338962961
 10
18.6825988662
 20
15.1169598497
 10
18.650654406
 20
15.1034357369
 10
18.618015275
 20
15.0934654785
 10
18.585253407
 20
15.0871707665
 10
18.5528903077
 20
15.0853520832
 10
18.5353306071
 20
15.0864265384
  0
LWPOLYLINE
  5
42B
100
AcDbEntity
  8
RACCORDO
100
AcDbPolyline
 62
253
  6
CONTINUOUS
 90
21
 70
0
 10
6.9061950078
 20
4.8425982632
 10
12.2767676003
 20
9.4698021074
 10
12.342963928
 20
9.5256392269
 10
12.4092839629
 20
9.5807845941
 10
12.4757300441
 20
9.6352391651
 10
12.5422998325
 20
9.6890019837
 10
12.60898631
 20
9.7420701813
 10
12.6757895757
 20
9.7944442237
 10
12.7427095305
 20
9.846123645
 10
12.809738859
 20
9.8971041786
 10
12.8768775208
 20
9.9473861583
 10
12.9441255564
 20
9.9969692502
 10
13.0114757721
 20
10.0458481869
 10
13.0789280964
 20
10.0940232796
 10
13.1464826008
 20
10.1414942171
 10
13.2141323067
 20
10.1882547974
 10
13.2818769842
 20
10.2343052491
 10
13.3497168631
 20
10.2796453437
 10
13.417645654
 20
10.3242681944
 10
13.4856612604
 20
10.3681715056
 10
13.5537657788
 20
10.4113575729
  0
LWPOLYLINE
  5
42C
100
AcDbEntity
  8
RACCORDO
100
AcDbPolyline
 62
253
  6
CONTINUOUS
 90
6
 70
0
 10
-40.6893415282
 20
30.2881391611
 10
-40.7321445768
 20
30.3170953199
 10
-40.7684583894
 20
30.350411218
 10
-40.7976750004
 20
30.3875290809
 10
-40.8193052658
 20
30.4278274819
 10
-40.8330409298
 20
30.4708777908
  0
LWPOLYLINE
  5
42D
100
AcDbEntity
  8
RACCORDO
100
AcDbPolyline
 62
253
  6
CONTINUOUS
 90
3
 70
0
 10
20.2076111645
 20
-22.1507342459
 10
20.1893390284
 20
-22.1285134631
 10
20.1688221525
 20
-22.109604491
  0
LWPOLYLINE
  5
42E
100
AcDbEntity
  8
RACCORDO
100
AcDbPolyline
 62
253
  6
CONTINUOUS
 90
6
 70
0
 10
-24.9482979048
 20
42.601523623
 10
-24.9383649904
 20
42.5860452089
 10
-24.9316324058
 20
42.5725604739
 10
-24.9282149218
 20
42.561299293
 10
-24.9281707965
 20
42.5524536362
 10
-24.9305979042
 20
42.5471798183
  0
LWPOLYLINE
  5
42F
100
AcDbEntity
  8
RACCORDO
100
AcDbPolyline
 62
7
  6
CONTINUOUS
 90
13
 70
0
 10
6.3432400769
 20
24.2517970346
 10
6.3416016186
 20
24.2792398966
 10
6.3369842714
 20
24.307969701
 10
6.3294670361
 20
24.3374948941
 10
6.3191785303
 20
24.3673103142
 10
6.3062947848
 20
24.3969058325
 10
6.2910362316
 20
24.4257750817
 10
6.2736639357
 20
24.4534241209
 10
6.254475131
 20
24.479379889
 10
6.2337981321
 20
24.5031982963
 10
6.2119867139
 20
24.5244718212
 10
6.1894140584
 20
24.542836483
 10
6.1664663732
 20
24.5579780705
  0
LWPOLYLINE
  5
430
100
AcDbEntity
  8
RACCORDO
100
AcDbPolyline
 62
253
  6
CONTINUOUS
 90
13
 70
0
 10
4.7419592861
 20
23.3272386083
 10
4.740388968
 20
23.3540633442
 10
4.7359270416
 20
23.382328844
 10
4.7285882912
 20
23.4115872273
 10
4.7184123216
 20
23.4414255953
 10
4.705532093
 20
23.4712670821
 10
4.6902317143
 20
23.5003895122
 10
4.6728169248
 20
23.528228363
 10
4.6535584766
 20
23.5543660726
 10
4.6327962833
 20
23.5783434532
 10
4.6108928804
 20
23.5997462631
 10
4.588225385
 20
23.6182102048
 10
4.5651855824
 20
23.6334196442
  0
LWPOLYLINE
  5
431
100
AcDbEntity
  8
RACCORDO
100
AcDbPolyline
 62
253
  6
CONTINUOUS
 90
8
 70
0
 10
4.3894373264
 20
23.0073105162
 10
4.3905967067
 20
22.9846409092
 10
4.3940832813
 20
22.9635042698
 10
4.3998860513
 20
22.9442081017
 10
4.4079772169
 20
22.9270154845
 10
4.4182723438
 20
22.9122297207
 10
4.4305951331
 20
22.9001460966
 10
4.4412042554
 20
22.8928784525
  0
LWPOLYLINE
  5
432
100
AcDbEntity
  8
RACCORDO
100
AcDbPolyline
 62
253
  6
CONTINUOUS
 90
3
 70
0
 10
6.8715072486
 20
24.5568122238
 10
6.870107891
 20
24.58451417
 10
6.8656640307
 20
24.6134981764
  0
LINE
  5
433
100
AcDbEntity
  8
RACCORDO
100
AcDbLine
 62
7
  6
CONTINUOUS
 10
8.5684534358
 20
21.8933935302
 11
8.5685407531
 21
21.8814855911
  0
LINE
  5
434
100
AcDbEntity
  8
RACCORDO
100
AcDbLine
 62
253
  6
CONTINUOUS
 10
5.1006579345
 20
22.8026275718
 11
5.1006579345
 21
22.1697670529
  0
LINE
  5
435
100
AcDbEntity
  8
RACCORDO
100
AcDbLine
 62
253
  6
CONTINUOUS
 10
5.4531798942
 20
22.9412284226
 11
5.4531798942
 21
22.1798100865
  0
LINE
  5
436
100
AcDbEntity
  8
RACCORDO
100
AcDbLine
 62
7
  6
CONTINUOUS
 10
6.3432400769
 20
22.7413235682
 11
6.3432400769
 21
24.2517970346
  0
LINE
  5
437
100
AcDbEntity
  8
RACCORDO
100
AcDbLine
 62
253
  6
CONTINUOUS
 10
6.8715072486
 20
24.5568122238
 11
6.8715072486
 21
24.2291669233
  0
LINE
  5
438
100
AcDbEntity
  8
RACCORDO
100
AcDbLine
 62
7
  6
CONTINUOUS
 10
6.9437051056
 20
24.6582853368
 11
6.9437051056
 21
24.3306400363
  0
LINE
  5
439
100
AcDbEntity
  8
DRAFT
100
AcDbLine
 62
7
  6
CONTINUOUS
 10
7.9875810821
 20
28.4269575692
 11
7.9875810821
 21
28.5902516245
  0
LINE
  5
43A
100
AcDbEntity
  8
RACCORDO
100
AcDbLine
 62
7
  6
CONTINUOUS
 10
8.5676640812
 20
21.8932933626
 11
8.5676640812
 21
20.7234776674
  0
LINE
  5
43B
100
AcDbEntity
  8
RACCORDO
100
AcDbLine
 62
253
  6
CONTINUOUS
 10
8.7141106907
 20
21.5318249037
 11
8.7141106907
 21
20.5130740091
  0
LINE
  5
43C
100
AcDbEntity
  8
RACCORDO
100
AcDbLine
 62
253
  6
CONTINUOUS
 10
6.9437051056
 20
24.6582853368
 11
6.9437050971
 21
24.658247648
  0
LWPOLYLINE
  5
43D
100
AcDbEntity
  8
RACCORDO
100
AcDbPolyline
 62
7
  6
CONTINUOUS
 90
3
 70
0
 10
8.5724855204
 20
21.9392485385
 10
8.5692016522
 20
21.912081574
 10
8.5684534358
 20
21.8933935302
  0
LWPOLYLINE
  5
43E
100
AcDbEntity
  8
RACCORDO
100
AcDbPolyline
 62
253
  6
CONTINUOUS
 90
4
 70
0
 10
16.4650406712
 20
16.5212781772
 10
16.4801844254
 20
16.5500684597
 10
16.4974573397
 20
16.5776438908
 10
16.5165660519
 20
16.6035361308
  0
LINE
  5
43F
100
AcDbEntity
  8
RACCORDO
100
AcDbLine
 62
253
  6
CONTINUOUS
 10
19.7075582413
 20
15.849964843
 11
20.2358254131
 21
16.5127771094
  0
LINE
  5
440
100
AcDbEntity
  8
RACCORDO
100
AcDbLine
 62
7
  6
CONTINUOUS
 10
19.7075582413
 20
15.7734130001
 11
20.3051601136
 21
16.5232189177
  0
LWPOLYLINE
  5
441
100
AcDbEntity
  8
RACCORDO
100
AcDbPolyline
 62
253
  6
CONTINUOUS
 90
13
 70
0
 10
5.6986534739
 20
3.5043144742
 10
5.7471500498
 20
3.4805550892
 10
5.8006070496
 20
3.462037725
 10
5.8581295346
 20
3.449072386
 10
5.9187545049
 20
3.4418761286
 10
5.9814670207
 20
3.4405694273
 10
6.0452171944
 20
3.4451741577
 10
6.1089377664
 20
3.4556132307
 10
6.1715619729
 20
3.4717118829
 10
6.2320414045
 20
3.4932006023
 10
6.2893635581
 20
3.5197196402
 10
6.3425687875
 20
3.550825034
 10
6.390766369
 20
3.5859960396
  0
LINE
  5
442
100
AcDbEntity
  8
RACCORDO
100
AcDbLine
 62
253
  6
CONTINUOUS
 10
-40.6893415253
 20
30.2881391219
 11
5.6986377687
 21
3.5043012555
  0
LINE
  5
443
100
AcDbEntity
  8
RACCORDO
100
AcDbLine
 62
253
  6
CONTINUOUS
 10
-39.9383048101
 20
32.1858063557
 11
6.4673594717
 21
5.391757399
  0
LINE
  5
444
100
AcDbEntity
  8
RACCORDO
100
AcDbLine
 62
7
  6
CONTINUOUS
 10
-35.7310223013
 20
30.383841086
 11
3.1169018074
 21
7.9535365844
  0
LWPOLYLINE
  5
445
100
AcDbEntity
  8
RACCORDO
100
AcDbPolyline
 62
253
  6
CONTINUOUS
 90
13
 70
0
 10
6.4673594717
 20
5.391757399
 10
6.5133980208
 20
5.3616228903
 10
6.560210075
 20
5.3261915503
 10
6.6069992603
 20
5.2860661422
 10
6.652969592
 20
5.2419292855
 10
6.6973390158
 20
5.1945318433
 10
6.7393527126
 20
5.1446801483
 10
6.7782959389
 20
5.0932222852
 10
6.8135061866
 20
5.0410336628
 10
6.8443844536
 20
4.9890021221
 10
6.8704054341
 20
4.9380128315
 10
6.8911264552
 20
4.8889332286
 10
6.9061950078
 20
4.8425982632
  0
LWPOLYLINE
  5
446
100
AcDbEntity
  8
RACCORDO
100
AcDbPolyline
 62
7
  6
CONTINUOUS
 90
3
 70
0
 10
-28.771157467
 20
42.0873530848
 10
-28.7471525878
 20
42.0621526542
 10
-28.7198838153
 20
42.040533125
  0
LWPOLYLINE
  5
447
100
AcDbEntity
  8
RACCORDO
100
AcDbPolyline
 62
253
  6
CONTINUOUS
 90
4
 70
0
 10
-11.6195817439
 20
35.3572840375
 10
-11.6348553954
 20
35.3864218995
 10
-11.6522938845
 20
35.4142470665
 10
-11.6716259347
 20
35.4403422792
  0
LWPOLYLINE
  5
448
100
AcDbEntity
  8
RACCORDO
100
AcDbPolyline
 62
253
  6
CONTINUOUS
 90
10
 70
0
 10
13.2189737075
 20
-23.9786474777
 10
12.272887896
 20
-21.0217799517
 10
11.3542640575
 20
-18.0401534103
 10
10.4631741844
 20
-15.0340049936
 10
9.5996869755
 20
-12.0035731865
 10
8.7638712345
 20
-8.9490996978
 10
7.9557958661
 20
-5.8708294389
 10
7.1755253325
 20
-2.7690079744
 10
6.423119646
 20
0.3561184949
 10
5.6986377687
 20
3.5043012555
  0
LWPOLYLINE
  5
449
100
AcDbEntity
  8
RACCORDO
100
AcDbPolyline
 62
253
  6
CONTINUOUS
 90
5
 70
0
 10
13.9037108796
 20
-23.869544231
 10
12.9584392546
 20
-20.9152281742
 10
12.0407425529
 20
-17.9366541216
 10
11.1506207744
 20
-14.9338220733
 10
10.2880071457
 20
-11.906487878
  0
LWPOLYLINE
  5
44A
100
AcDbEntity
  8
RACCORDO
100
AcDbPolyline
 62
253
  6
CONTINUOUS
 90
5
 70
0
 10
10.2880071457
 20
-11.906487878
 10
9.4529684403
 20
-8.854895687
 10
8.6457049779
 20
-5.7797779544
 10
7.8662835319
 20
-2.6813788314
 10
7.114637329
 20
0.4405458332
  0
LINE
  5
44B
100
AcDbEntity
  8
RACCORDO
100
AcDbLine
 62
253
  6
CONTINUOUS
 10
7.114637329
 20
0.4405458332
 11
6.3907663692
 21
3.5859960395
  0
LWPOLYLINE
  5
44C
100
AcDbEntity
  8
RACCORDO
100
AcDbPolyline
 62
253
  6
CONTINUOUS
 90
22
 70
0
 10
5.6986377686
 20
3.5043012556
 10
5.6841354466
 20
3.5838176328
 10
5.6752658232
 20
3.6675074269
 10
5.6720800342
 20
3.754929533
 10
5.6746003586
 20
3.8456301053
 10
5.6828181716
 20
3.9391216993
 10
5.6966889456
 20
4.0348835226
 10
5.7161388714
 20
4.1323961743
 10
5.7410656447
 20
4.231148966
 10
5.7713335887
 20
4.3306178115
 10
5.8067843252
 20
4.4302714297
 10
5.8472305284
 20
4.5295790852
 10
5.8924523982
 20
4.6280157334
 10
5.9422131992
 20
4.7250557484
 10
5.9962502316
 20
4.8201809965
 10
6.0542690844
 20
4.9128885297
 10
6.1159702825
 20
5.0026895822
 10
6.1810240477
 20
5.0890967434
 10
6.2490592165
 20
5.1716347562
 10
6.3197061003
 20
5.249861067
 10
6.3926009984
 20
5.3233651673
 10
6.4673594717
 20
5.391757399
  0
LWPOLYLINE
  5
44D
100
AcDbEntity
  8
RACCORDO
100
AcDbPolyline
 62
253
  6
CONTINUOUS
 90
22
 70
0
 10
6.3907663692
 20
3.5859960395
 10
6.3810218383
 20
3.6394670238
 10
6.375086112
 20
3.695119443
 10
6.3729591904
 20
3.7529532971
 10
6.3746668512
 20
3.8133064042
 10
6.3801833166
 20
3.8758409461
 10
6.3894312538
 20
3.9395434684
 10
6.4024719599
 20
4.0044256832
 10
6.4192441378
 20
4.0704758783
 10
6.439486564
 20
4.1366454623
 10
6.4632585697
 20
4.2029413564
 10
6.4905008238
 20
4.2693566394
 10
6.5207741094
 20
4.3348219563
 10
6.5541254349
 20
4.3993153163
 10
6.590507792
 20
4.46285871
 10
6.6293409389
 20
4.5244487551
 10
6.6706703842
 20
4.5840607561
 10
6.7144506193
 20
4.6417194083
 10
6.759964876
 20
4.6964954149
 10
6.8069742316
 20
4.74807901
 10
6.8557176089
 20
4.7967799595
 10
6.9061950078
 20
4.8425982632
  0
LWPOLYLINE
  5
44E
100
AcDbEntity
  8
RACCORDO
100
AcDbPolyline
 62
7
  6
CONTINUOUS
 90
11
 70
0
 10
8.5685407531
 20
21.8814855911
 10
8.5708958893
 20
21.8484353994
 10
8.5767974501
 20
21.8139371387
 10
8.585997806
 20
21.7786407375
 10
8.5976539326
 20
21.7426972708
 10
8.6117215555
 20
21.7064368805
 10
8.6282937352
 20
21.6703422753
 10
8.6468754124
 20
21.6345797684
 10
8.6673240162
 20
21.5993831399
 10
8.6897573183
 20
21.5650590121
 10
8.7141106907
 20
21.5318249037
  0
LINE
  5
44F
100
AcDbEntity
  8
0
100
AcDbLine
 62
7
  6
CONTINUOUS
 10
11.4344089014
 20
26.6080329758
 11
11.4344089014
 21
26.630536062
  0
LINE
  5
450
100
AcDbEntity
  8
DRAFT
100
AcDbLine
 62
7
  6
CONTINUOUS
 10
12.131206899
 20
25.2666788761
 11
12.131206899
 21
26.2057105449
  0
LWPOLYLINE
  5
451
100
AcDbEntity
  8
RACCORDO
100
AcDbPolyline
 62
253
  6
CONTINUOUS
 90
4
 70
0
 10
16.4347500476
 20
16.432561075
 10
16.4421289163
 20
16.4620212767
 10
16.4522832778
 20
16.4917620158
 10
16.4650406712
 20
16.5212781772
  0
LWPOLYLINE
  5
452
100
AcDbEntity
  8
RACCORDO
100
AcDbPolyline
 62
253
  6
CONTINUOUS
 90
11
 70
0
 10
18.1062774505
 20
15.2903286216
 10
18.0932993757
 20
15.2617583033
 10
18.0775482036
 20
15.2353384958
 10
18.059272687
 20
15.2115312046
 10
18.0387517339
 20
15.1907449904
 10
18.0163346091
 20
15.173374129
 10
17.9924478695
 20
15.1597650752
 10
17.9675187792
 20
15.150156294
 10
17.9419571525
 20
15.1447009963
 10
17.9162011599
 20
15.1434924114
 10
17.9076099393
 20
15.1440424273
  0
LWPOLYLINE
  5
453
100
AcDbEntity
  8
RACCORDO
100
AcDbPolyline
 62
7
  6
CONTINUOUS
 90
10
 70
0
 10
18.7058511161
 20
14.4212496027
 10
18.7196944089
 20
14.4240955253
 10
18.7332822883
 20
14.4273963445
 10
18.7465691115
 20
14.4311430831
 10
18.7595124486
 20
14.4353136739
 10
18.7720662338
 20
14.439907857
 10
18.7841816578
 20
14.4449464654
 10
18.7958164309
 20
14.450425378
 10
18.8069341728
 20
14.4563163235
 10
18.8174980586
 20
14.4626012787
  0
LWPOLYLINE
  5
454
100
AcDbEntity
  8
RACCORDO
100
AcDbPolyline
 62
253
  6
CONTINUOUS
 90
6
 70
0
 10
17.9623223823
 20
15.2498142747
 10
17.994299875
 20
15.2534171331
 10
18.0251943405
 20
15.2593904788
 10
18.0544810688
 20
15.2676328608
 10
18.0816626557
 20
15.278004291
 10
18.1062774505
 20
15.2903286216
  0
LWPOLYLINE
  5
455
100
AcDbEntity
  8
RACCORDO
100
AcDbPolyline
 62
253
  6
CONTINUOUS
 90
8
 70
0
 10
-39.9383048101
 20
32.1858063557
 10
-39.9842861491
 20
32.2088028564
 10
-40.0279283099
 20
32.2255983628
 10
-40.0684888431
 20
32.2359071923
 10
-40.1052777553
 20
32.2395540216
 10
-40.1376691858
 20
32.2364768599
 10
-40.165112077
 20
32.2267281366
 10
-40.1837415236
 20
32.2137334925
  0
LINE
  5
456
100
AcDbEntity
  8
RACCORDO
100
AcDbLine
 62
7
  6
CONTINUOUS
 10
-33.0508172535
 20
30.537033771
 11
5.0690319562
 21
8.5271105912
  0
LINE
  5
457
100
AcDbEntity
  8
RACCORDO
100
AcDbLine
 62
7
  6
CONTINUOUS
 10
-32.036978878
 20
31.4517222072
 11
6.1042316864
 21
9.429465249
  0
LWPOLYLINE
  5
458
100
AcDbEntity
  8
RACCORDO
100
AcDbPolyline
 62
7
  6
CONTINUOUS
 90
3
 70
0
 10
-15.4068393026
 20
34.3709632709
 10
-15.3828344233
 20
34.3457628403
 10
-15.3555656508
 20
34.3241433111
  0
LWPOLYLINE
  5
459
100
AcDbEntity
  8
RACCORDO
100
AcDbPolyline
 62
253
  6
CONTINUOUS
 90
4
 70
0
 10
-25.0372057826
 20
43.1582926992
 10
-25.0580834507
 20
43.181953235
 10
-25.0799217604
 20
43.2028413724
 10
-25.1023794134
 20
43.2207183735
  0
LWPOLYLINE
  5
45A
100
AcDbEntity
  8
RACCORDO
100
AcDbPolyline
 62
7
  6
CONTINUOUS
 90
7
 70
0
 10
20.2987256764
 20
-22.2545930583
 10
20.2870685991
 20
-22.2219445608
 10
20.2709114891
 20
-22.1910684836
 10
20.2506049256
 20
-22.162723237
 10
20.2266000463
 20
-22.1375228064
 10
20.1993312738
 20
-22.1159032772
 10
20.1826091624
 20
-22.1053917384
  0
LWPOLYLINE
  5
45B
100
AcDbEntity
  8
RACCORDO
100
AcDbPolyline
 62
253
  6
CONTINUOUS
 90
4
 70
0
 10
6.8656640307
 20
24.6134981764
 10
6.8582494111
 20
24.6432650114
 10
6.8479880109
 20
24.6733042465
 10
6.8350551214
 20
24.7030935485
  0
LWPOLYLINE
  5
45C
100
AcDbEntity
  8
RACCORDO
100
AcDbPolyline
 62
7
  6
CONTINUOUS
 90
6
 70
0
 10
16.3555475063
 20
16.1580188988
 10
16.3578553423
 20
16.1241362532
 10
16.3648450999
 20
16.0904763924
 10
16.3765021773
 20
16.057827895
 10
16.3926592873
 20
16.0269518177
 10
16.4129658508
 20
15.9986065712
  0
LWPOLYLINE
  5
45D
100
AcDbEntity
  8
RACCORDO
100
AcDbPolyline
 62
253
  6
CONTINUOUS
 90
7
 70
0
 10
17.7537554908
 20
-23.9659852576
 10
17.755268622
 20
-23.991761142
 10
17.7597842221
 20
-24.0153563104
 10
17.7672280539
 20
-24.0363640314
 10
17.7774768283
 20
-24.0544231018
 10
17.7903568635
 20
-24.0692178426
 10
17.805487285
 20
-24.080397021
  0
LWPOLYLINE
  5
45E
100
AcDbEntity
  8
RACCORDO
100
AcDbPolyline
 62
253
  6
CONTINUOUS
 90
8
 70
0
 10
16.428770811
 20
16.0559502504
 10
16.4299301913
 20
16.0332806434
 10
16.4334167659
 20
16.0121440041
 10
16.439219536
 20
15.992847836
 10
16.4473107015
 20
15.9756552188
 10
16.4576058284
 20
15.960869455
 10
16.4699286177
 20
15.9487858308
 10
16.4805414663
 20
15.9415160351
  0
LINE
  5
45F
100
AcDbEntity
  8
DRAFT
100
AcDbLine
 62
253
  6
CONTINUOUS
 10
14.0153486528
 20
22.7209650754
 11
14.0153486528
 21
22.2158166913
  0
LINE
  5
460
100
AcDbEntity
  8
RACCORDO
100
AcDbLine
 62
253
  6
CONTINUOUS
 10
14.2254177903
 20
17.3309143626
 11
14.2254177903
 21
18.3496652573
  0
LINE
  5
461
100
AcDbEntity
  8
DRAFT
100
AcDbLine
 62
7
  6
CONTINUOUS
 10
14.7224554339
 20
23.1292396688
 11
14.7224554339
 21
23.6501797426
  0
LINE
  5
462
100
AcDbEntity
  8
RACCORDO
100
AcDbLine
 62
253
  6
CONTINUOUS
 10
14.9304617096
 20
17.3510004298
 11
14.9304617096
 21
18.513189123
  0
LINE
  5
463
100
AcDbEntity
  8
DRAFT
100
AcDbLine
 62
253
  6
CONTINUOUS
 10
15.0562310566
 20
23.8395342824
 11
15.0562310566
 21
25.0005773243
  0
LINE
  5
464
100
AcDbEntity
  8
DRAFT
100
AcDbLine
 62
7
  6
CONTINUOUS
 10
15.0760088245
 20
22.9251023721
 11
15.0760088245
 21
23.4460424459
  0
LINE
  5
465
100
AcDbEntity
  8
RACCORDO
100
AcDbLine
 62
7
  6
CONTINUOUS
 10
15.1815805638
 20
24.0121073151
 11
15.1815805638
 21
25.1738691239
  0
LINE
  5
466
100
AcDbEntity
  8
DRAFT
100
AcDbLine
 62
7
  6
CONTINUOUS
 10
15.2881408589
 20
18.7197083501
 11
15.2881408589
 21
17.5766499626
  0
LINE
  5
467
100
AcDbEntity
  8
DRAFT
100
AcDbLine
 62
253
  6
CONTINUOUS
 10
15.4295622151
 20
22.7209650754
 11
15.4295622151
 21
22.1354070623
  0
LINE
  5
468
100
AcDbEntity
  8
RACCORDO
100
AcDbLine
 62
7
  6
CONTINUOUS
 10
16.3555475063
 20
16.4785390716
 11
16.3555475063
 21
16.1580188988
  0
LINE
  5
469
100
AcDbEntity
  8
RACCORDO
100
AcDbLine
 62
253
  6
CONTINUOUS
 10
16.428770811
 20
16.3764704233
 11
16.428770811
 21
16.0559502504
  0
LINE
  5
46A
100
AcDbEntity
  8
RACCORDO
100
AcDbLine
 62
7
  6
CONTINUOUS
 10
17.0585404606
 20
15.3283591606
 11
17.0585404606
 21
15.6077866599
  0
LINE
  5
46B
100
AcDbEntity
  8
RACCORDO
100
AcDbLine
 62
253
  6
CONTINUOUS
 10
17.1317637653
 20
15.2231573314
 11
17.1317637653
 21
15.5655084414
  0
LINE
  5
46C
100
AcDbEntity
  8
RACCORDO
100
AcDbLine
 62
253
  6
CONTINUOUS
 10
17.7537554908
 20
-23.9659852576
 11
17.7537554908
 21
-23.6454650848
  0
LINE
  5
46D
100
AcDbEntity
  8
RACCORDO
100
AcDbLine
 62
253
  6
CONTINUOUS
 10
17.7537554908
 20
15.2909207023
 11
17.7537554908
 21
15.6114408751
  0
LINE
  5
46E
100
AcDbEntity
  8
RACCORDO
100
AcDbLine
 62
7
  6
CONTINUOUS
 10
17.8337252712
 20
24.2011488316
 11
17.8337252712
 21
23.9458440923
  0
LWPOLYLINE
  5
46F
100
AcDbEntity
  8
RACCORDO
100
AcDbPolyline
 62
253
  6
CONTINUOUS
 90
3
 70
0
 10
16.428770811
 20
16.3764704233
 10
16.4302719942
 20
16.4038817612
 10
16.4347500476
 20
16.432561075
  0
LWPOLYLINE
  5
470
100
AcDbEntity
  8
RACCORDO
100
AcDbPolyline
 62
253
  6
CONTINUOUS
 90
13
 70
0
 10
17.7537554908
 20
15.6114408751
 10
17.755268622
 20
15.6389640855
 10
17.7597842221
 20
15.6677737556
 10
17.7672280539
 20
15.697377427
 10
17.7774768283
 20
15.7272715251
 10
17.7903568635
 20
15.7569398078
 10
17.8056440899
 20
15.7858627147
 10
17.8231159672
 20
15.813601816
 10
17.8424406571
 20
15.8396150091
 10
17.8631383888
 20
15.863299266
 10
17.8847788476
 20
15.8842545005
 10
17.9070267756
 20
15.9022429029
 10
17.9295037468
 20
15.9170298303
  0
LWPOLYLINE
  5
471
100
AcDbEntity
  8
RACCORDO
100
AcDbPolyline
 62
7
  6
CONTINUOUS
 90
9
 70
0
 10
16.3555475064
 20
16.4785346972
 10
16.3574575102
 20
16.5093830961
 10
16.3634796629
 20
16.5410143403
 10
16.373558109
 20
16.571710524
 10
16.3875919825
 20
16.6009947355
 10
16.4054229486
 20
16.6283728508
 10
16.4267875496
 20
16.6533100013
 10
16.4513288817
 20
16.6753044543
 10
16.4783620301
 20
16.6937688432
  0
LWPOLYLINE
  5
472
100
AcDbEntity
  8
RACCORDO
100
AcDbPolyline
 62
7
  6
CONTINUOUS
 90
3
 70
0
 10
14.4448115978
 20
18.3958350824
 10
14.4084119239
 20
18.3876384325
 10
14.3735816038
 20
18.3796111017
  0
LWPOLYLINE
  5
473
100
AcDbEntity
  8
RACCORDO
100
AcDbPolyline
 62
7
  6
CONTINUOUS
 90
5
 70
0
 10
14.3735816038
 20
18.3796111017
 10
14.3089028633
 20
18.3653960801
 10
14.2793324401
 20
18.3590798109
 10
14.2515256251
 20
18.3537636971
 10
14.2254177903
 20
18.3496652573
  0
LWPOLYLINE
  5
474
100
AcDbEntity
  8
RACCORDO
100
AcDbPolyline
 62
7
  6
CONTINUOUS
 90
5
 70
0
 10
14.6482401701
 20
18.4311839508
 10
14.6052690334
 20
18.4269319178
 10
14.5631293293
 20
18.4202852771
 10
14.522214124
 20
18.4122188383
 10
14.4448115978
 20
18.3958350824
  0
LINE
  5
475
100
AcDbEntity
  8
RACCORDO
100
AcDbLine
 62
7
  6
CONTINUOUS
 10
20.2555567433
 20
16.5113061307
 11
20.2358254131
 21
16.5127771094
  0
LINE
  5
476
100
AcDbEntity
  8
RACCORDO
100
AcDbLine
 62
7
  6
CONTINUOUS
 10
17.9076088757
 20
15.1440425253
 11
18.5353678271
 21
15.0862377579
  0
LINE
  5
477
100
AcDbEntity
  8
RACCORDO
100
AcDbLine
 62
253
  6
CONTINUOUS
 10
18.1062774505
 20
15.2903286216
 11
18.8174980586
 21
15.2248386087
  0
LWPOLYLINE
  5
478
100
AcDbEntity
  8
RACCORDO
100
AcDbPolyline
 62
253
  6
CONTINUOUS
 90
4
 70
0
 10
17.8653592528
 20
15.2536336962
 10
17.897299902
 20
15.2499234837
 10
17.9298049666
 20
15.2486430945
 10
17.9623223823
 20
15.2498142747
  0
LWPOLYLINE
  5
479
100
AcDbEntity
  8
RACCORDO
100
AcDbPolyline
 62
253
  6
CONTINUOUS
 90
8
 70
0
 10
-34.8158087314
 20
36.8615680949
 10
-34.8617891623
 20
36.8845641913
 10
-34.9054306472
 20
36.9013595905
 10
-34.9459907503
 20
36.9116685666
 10
-34.9827794571
 20
36.9153157416
 10
-35.0151709123
 20
36.9122390694
 10
-35.0426140678
 20
36.9024908906
 10
-35.0613859525
 20
36.8893672579
  0
LINE
  5
47A
100
AcDbEntity
  8
RACCORDO
100
AcDbLine
 62
253
  6
CONTINUOUS
 10
11.7718594434
 20
9.9624323714
 11
8.7246835544
 21
11.7218335396
  0
LINE
  5
47B
100
AcDbEntity
  8
RACCORDO
100
AcDbLine
 62
253
  6
CONTINUOUS
 10
-31.7686328424
 20
35.1021669267
 11
-34.8158087314
 21
36.8615680949
  0
LINE
  5
47C
100
AcDbEntity
  8
RACCORDO
100
AcDbLine
 62
7
  6
CONTINUOUS
 10
-30.077734103
 20
35.3354289258
 11
8.7773221081
 21
12.9010064376
  0
LINE
  5
47D
100
AcDbEntity
  8
RACCORDO
100
AcDbLine
 62
253
  6
CONTINUOUS
 10
-33.3799639105
 20
37.9855813324
 11
13.2561264692
 21
11.0584872347
  0
LWPOLYLINE
  5
47E
100
AcDbEntity
  8
RACCORDO
100
AcDbPolyline
 62
7
  6
CONTINUOUS
 90
19
 70
0
 10
8.7773221081
 20
12.9010064376
 10
8.8383699459
 20
12.8621131871
 10
8.8928107576
 20
12.820139466
 10
8.9406470438
 20
12.7750659077
 10
8.9820699773
 20
12.7268370702
 10
9.016898569
 20
12.6754323805
 10
9.0445801375
 20
12.6208639285
 10
9.0653356133
 20
12.5630362095
 10
9.0789677124
 20
12.501888569
 10
9.0843017658
 20
12.4374563522
 10
9.0813443241
 20
12.3693548962
 10
9.0701352816
 20
12.2977121723
 10
9.0495565496
 20
12.2233089023
 10
9.0194294901
 20
12.145923842
 10
8.9800069593
 20
12.0654535005
 10
8.9308217195
 20
11.9828625903
 10
8.8717500599
 20
11.8983682466
 10
8.8030168576
 20
11.811418584
 10
8.7246835544
 20
11.7218335396
  0
LWPOLYLINE
  5
47F
100
AcDbEntity
  8
RACCORDO
100
AcDbPolyline
 62
253
  6
CONTINUOUS
 90
13
 70
0
 10
11.7718594434
 20
9.9624323714
 10
11.8178979943
 20
9.9322978607
 10
11.8647100501
 20
9.8968665184
 10
11.9114992369
 20
9.8567411082
 10
11.95746957
 20
9.8126042496
 10
12.0018389948
 20
9.765206806
 10
12.0438526919
 20
9.71535511
 10
12.0827959177
 20
9.6638972467
 10
12.1180061645
 20
9.6117086249
 10
12.14888443
 20
9.5596770856
 10
12.1749054088
 20
9.5086877974
 10
12.1956264283
 20
9.4596081976
 10
12.2106949796
 20
9.4132732356
  0
LWPOLYLINE
  5
480
100
AcDbEntity
  8
RACCORDO
100
AcDbPolyline
 62
253
  6
CONTINUOUS
 90
13
 70
0
 10
13.2561264692
 20
11.0584872347
 10
13.3015961543
 20
11.0279569847
 10
13.3466049772
 20
10.9911637531
 10
13.3903837184
 20
10.9487363513
 10
13.4321841812
 20
10.9013998812
 10
13.4712919784
 20
10.8499633426
 10
13.5070387416
 20
10.7953058071
 10
13.5388135439
 20
10.7383613946
 10
13.5660733407
 20
10.6801033087
 10
13.588352251
 20
10.621527204
 10
13.6052695189
 20
10.5636341705
 10
13.6165360214
 20
10.5074136238
 10
13.6219592092
 20
10.4538263963
  0
LWPOLYLINE
  5
481
100
AcDbEntity
  8
RACCORDO
100
AcDbPolyline
 62
253
  6
CONTINUOUS
 90
4
 70
0
 10
-11.6716259347
 20
35.4403422792
 10
-11.6925103117
 20
35.4642491125
 10
-11.7145823012
 20
35.4855545827
 10
-11.7374618406
 20
35.5038960928
  0
LWPOLYLINE
  5
482
100
AcDbEntity
  8
RACCORDO
100
AcDbPolyline
 62
253
  6
CONTINUOUS
 90
4
 70
0
 10
6.8350551214
 20
24.7030935485
 10
6.8196771297
 20
24.7321081935
 10
6.8020797531
 20
24.7599046222
 10
6.7825993708
 20
24.7859359994
  0
LWPOLYLINE
  5
483
100
AcDbEntity
  8
RACCORDO
100
AcDbPolyline
 62
253
  6
CONTINUOUS
 90
5
 70
0
 10
20.2526823393
 20
-22.2644552936
 10
20.2460545114
 20
-22.233227511
 10
20.2362141268
 20
-22.2035432707
 10
20.2233259759
 20
-22.1758875533
 10
20.2076111645
 20
-22.1507342459
  0
LWPOLYLINE
  5
484
100
AcDbEntity
  8
RACCORDO
100
AcDbPolyline
 62
7
  6
CONTINUOUS
 90
3
 70
0
 10
20.3080232701
 20
-22.3221355646
 10
20.305715434
 20
-22.2882529191
 10
20.2987256764
 20
-22.2545930583
  0
LWPOLYLINE
  5
485
100
AcDbEntity
  8
RACCORDO
100
AcDbPolyline
 62
7
  6
CONTINUOUS
 90
9
 70
0
 10
20.3080232701
 20
16.9418955229
 10
20.3059933704
 20
16.9736827593
 10
20.2998241191
 20
17.005394247
 10
20.2894868678
 20
17.0363656394
 10
20.2750701392
 20
17.065954533
 10
20.2568255046
 20
17.0934793577
 10
20.2351275886
 20
17.1183439866
 10
20.2101648772
 20
17.1402711292
 10
20.1829966567
 20
17.1584172304
  0
LWPOLYLINE
  5
486
100
AcDbEntity
  8
RACCORDO
100
AcDbPolyline
 62
253
  6
CONTINUOUS
 90
13
 70
0
 10
18.1062774505
 20
15.6108487944
 10
18.1046389783
 20
15.6382916485
 10
18.1000216188
 20
15.6670214459
 10
18.092504373
 20
15.696546633
 10
18.0822158573
 20
15.7263620474
 10
18.0693321037
 20
15.7559575609
 10
18.0540735472
 20
15.784826808
 10
18.0367012548
 20
15.8124758491
 10
18.0175124583
 20
15.8384316219
 10
17.9968354692
 20
15.8622500348
 10
17.9750240615
 20
15.8835235659
 10
17.9524514181
 20
15.9018882348
 10
17.9295037468
 20
15.9170298303
  0
LWPOLYLINE
  5
487
100
AcDbEntity
  8
RACCORDO
100
AcDbPolyline
 62
7
  6
CONTINUOUS
 90
13
 70
0
 10
19.7075582413
 20
16.5354072207
 10
19.7059197831
 20
16.5628500827
 10
19.7013024358
 20
16.5915798871
 10
19.6937852005
 20
16.6211050802
 10
19.6834966947
 20
16.6509205003
 10
19.6706129492
 20
16.6805160186
 10
19.6553543961
 20
16.7093852678
 10
19.6379821001
 20
16.737034307
 10
19.6187932955
 20
16.7629900751
 10
19.5981162966
 20
16.7868084824
 10
19.5763048783
 20
16.8080820073
 10
19.5537322228
 20
16.8264466691
 10
19.5307845376
 20
16.8415882566
  0
LWPOLYLINE
  5
488
100
AcDbEntity
  8
RACCORDO
100
AcDbPolyline
 62
253
  6
CONTINUOUS
 90
8
 70
0
 10
17.7537554908
 20
15.2909207023
 10
17.7549148711
 20
15.2682510953
 10
17.7584014458
 20
15.2471144559
 10
17.7642042158
 20
15.2278182878
 10
17.7722953814
 20
15.2106256706
 10
17.7825905082
 20
15.1958399068
 10
17.7949132975
 20
15.1837562827
 10
17.8055224199
 20
15.1764886386
  0
LWPOLYLINE
  5
489
100
AcDbEntity
  8
RACCORDO
100
AcDbPolyline
 62
253
  6
CONTINUOUS
 90
3
 70
0
 10
20.2358254131
 20
16.8404224099
 10
20.2345008619
 20
16.8673890485
 10
20.2302483277
 20
16.8957754487
  0
LWPOLYLINE
  5
48A
100
AcDbEntity
  8
RACCORDO
100
AcDbPolyline
 62
7
  6
CONTINUOUS
 90
13
 70
0
 10
17.8337252712
 20
24.2011488316
 10
17.8321755538
 20
24.2537269275
 10
17.8276966233
 20
24.3039447949
 10
17.8202884798
 20
24.3518024336
 10
17.8098951014
 20
24.3974820022
 10
17.7965725099
 20
24.4408013423
 10
17.7804887706
 20
24.4812139777
 10
17.7616089044
 20
24.5186830854
 10
17.7399678903
 20
24.5532454885
 10
17.7158387311
 20
24.5844651802
 10
17.689189906
 20
24.612299814
 10
17.6600529358
 20
24.6367917365
 10
17.6266425221
 20
24.658885471
  0
LINE
  5
48B
100
AcDbEntity
  8
RACCORDO
100
AcDbLine
 62
253
  6
CONTINUOUS
 10
18.1062774505
 20
-23.9665773383
 11
18.1062774505
 21
-23.6460571654
  0
LINE
  5
48C
100
AcDbEntity
  8
RACCORDO
100
AcDbLine
 62
253
  6
CONTINUOUS
 10
18.1062774505
 20
15.2903286216
 11
18.1062774505
 21
15.6108487944
  0
LINE
  5
48D
100
AcDbEntity
  8
RACCORDO
100
AcDbLine
 62
253
  6
CONTINUOUS
 10
18.4649760989
 20
15.0862377579
 11
18.4649760989
 21
14.453377239
  0
LINE
  5
48E
100
AcDbEntity
  8
RACCORDO
100
AcDbLine
 62
253
  6
CONTINUOUS
 10
18.4649760989
 20
-22.308332024
 11
18.4649760989
 21
-22.6503290959
  0
LINE
  5
48F
100
AcDbEntity
  8
RACCORDO
100
AcDbLine
 62
253
  6
CONTINUOUS
 10
18.8174980586
 20
15.2248386087
 11
18.8174980586
 21
14.4626012787
  0
LINE
  5
490
100
AcDbEntity
  8
RACCORDO
100
AcDbLine
 62
253
  6
CONTINUOUS
 10
18.8174980586
 20
-22.1327403432
 11
18.8174980586
 21
-22.7687685101
  0
LINE
  5
491
100
AcDbEntity
  8
RACCORDO
100
AcDbLine
 62
7
  6
CONTINUOUS
 10
19.7075582413
 20
-21.6894001222
 11
19.7075582413
 21
-23.0634081124
  0
LINE
  5
492
100
AcDbEntity
  8
RACCORDO
100
AcDbLine
 62
7
  6
CONTINUOUS
 10
19.7075582413
 20
15.0246806224
 11
19.7075582413
 21
16.5354072207
  0
LINE
  5
493
100
AcDbEntity
  8
RACCORDO
100
AcDbLine
 62
253
  6
CONTINUOUS
 10
20.2358254131
 20
16.8404224099
 11
20.2358254131
 21
16.5127771094
  0
LINE
  5
494
100
AcDbEntity
  8
RACCORDO
100
AcDbLine
 62
253
  6
CONTINUOUS
 10
20.2358254131
 20
-22.4236086776
 11
20.2358254131
 21
-22.7512539781
  0
LINE
  5
495
100
AcDbEntity
  8
RACCORDO
100
AcDbLine
 62
7
  6
CONTINUOUS
 10
20.3080232701
 20
16.9418955229
 11
20.3080232701
 21
16.5314050783
  0
LINE
  5
496
100
AcDbEntity
  8
RACCORDO
100
AcDbLine
 62
7
  6
CONTINUOUS
 10
20.3080232701
 20
-22.3221355646
 11
20.3080232701
 21
-22.6497808651
  0
LINE
  5
497
100
AcDbEntity
  8
DRAFT
100
AcDbLine
 62
253
  6
CONTINUOUS
 10
20.6129749291
 20
20.6331553282
 11
20.6129749291
 21
21.7942042838
  0
LINE
  5
498
100
AcDbEntity
  8
RACCORDO
100
AcDbLine
 62
7
  6
CONTINUOUS
 10
20.736568993
 20
20.8047266164
 11
20.736568993
 21
21.9664884253
  0
LINE
  5
499
100
AcDbEntity
  8
RACCORDO
100
AcDbLine
 62
7
  6
CONTINUOUS
 10
20.7682184131
 20
-20.9333592617
 11
20.7682184131
 21
14.8136329633
  0
LWPOLYLINE
  5
49A
100
AcDbEntity
  8
RACCORDO
100
AcDbPolyline
 62
253
  6
CONTINUOUS
 90
10
 70
0
 10
17.7537554908
 20
-23.6454650848
 10
17.7549628798
 20
-23.6209522368
 10
17.7585685612
 20
-23.5953799325
 10
17.7645232922
 20
-23.5690974877
 10
17.7727613743
 20
-23.5424191711
 10
17.7831618763
 20
-23.5157542077
 10
17.7955151092
 20
-23.4895985285
 10
17.8095992259
 20
-23.4643406844
 10
17.8252187702
 20
-23.4402608754
 10
17.8421438385
 20
-23.4176597603
  0
LWPOLYLINE
  5
49B
100
AcDbEntity
  8
RACCORDO
100
AcDbPolyline
 62
7
  6
CONTINUOUS
 90
7
 70
0
 10
20.3080232699
 20
-22.6497764907
 10
20.3061132661
 20
-22.6806248896
 10
20.3000911134
 20
-22.7122561338
 10
20.2900126674
 20
-22.7429523175
 10
20.2759787939
 20
-22.7722365291
 10
20.2581478278
 20
-22.7996146444
 10
20.2367832268
 20
-22.8245517948
  0
LWPOLYLINE
  5
49C
100
AcDbEntity
  8
RACCORDO
100
AcDbPolyline
 62
7
  6
CONTINUOUS
 90
3
 70
0
 10
20.3080232679
 20
16.5314912867
 10
20.3078647424
 20
16.5293022774
 10
20.3051526791
 20
16.5231053938
  0
LWPOLYLINE
  5
49D
100
AcDbEntity
  8
RACCORDO
100
AcDbPolyline
 62
7
  6
CONTINUOUS
 90
8
 70
0
 10
20.0503419902
 20
-21.3407400037
 10
20.0464656644
 20
-21.3917207872
 10
20.0370175467
 20
-21.4384514038
 10
20.022128829
 20
-21.4801799259
 10
20.0020018481
 20
-21.5162461197
 10
19.9769633192
 20
-21.5460603319
 10
19.9474592544
 20
-21.5691128837
 10
19.9419882806
 20
-21.5723558996
  0
LWPOLYLINE
  5
49E
100
AcDbEntity
  8
RACCORDO
100
AcDbPolyline
 62
253
  6
CONTINUOUS
 90
7
 70
0
 10
20.3080232701
 20
16.9418955229
 10
20.3059937994
 20
16.9235402621
 10
20.2997538677
 20
16.9050768586
 10
20.2894083961
 20
16.8872387814
 10
20.2751330913
 20
16.8703289915
 10
20.2571704045
 20
16.8546346839
 10
20.2358254131
 20
16.8404224099
  0
LINE
  5
49F
100
AcDbEntity
  8
0
100
AcDbLine
 62
7
  6
CONTINUOUS
 10
16.4737933311
 20
23.7321656278
 11
17.8337252712
 21
23.9458440923
  0
LWPOLYLINE
  5
4A0
100
AcDbEntity
  8
RACCORDO
100
AcDbPolyline
 62
253
  6
CONTINUOUS
 90
6
 70
0
 10
4.5980042179
 20
22.9662040886
 10
4.6299817105
 20
22.969806947
 10
4.660876176
 20
22.9757802927
 10
4.6901629044
 20
22.9840226747
 10
4.7173444913
 20
22.9943941049
 10
4.7419592861
 20
23.0067184355
  0
LINE
  5
4A1
100
AcDbEntity
  8
RACCORDO
100
AcDbLine
 62
253
  6
CONTINUOUS
 10
-33.0130700429
 20
30.8761301549
 11
-35.5800334591
 21
31.7402266214
  0
LWPOLYLINE
  5
4A2
100
AcDbEntity
  8
RACCORDO
100
AcDbPolyline
 62
253
  6
CONTINUOUS
 90
8
 70
0
 10
-33.3799639105
 20
37.9855813324
 10
-33.4267228113
 20
38.0083027116
 10
-33.4723663494
 20
38.023851016
 10
-33.5161144577
 20
38.0319605187
 10
-33.5572194632
 20
38.0324926251
 10
-33.5949788642
 20
38.0254382414
 10
-33.6287473368
 20
38.0109179303
 10
-33.6367268444
 20
38.0059960949
  0
LWPOLYLINE
  5
4A3
100
AcDbEntity
  8
RACCORDO
100
AcDbPolyline
 62
253
  6
CONTINUOUS
 90
7
 70
0
 10
16.604519067
 20
16.6820593785
 10
16.5818268719
 20
16.6933483651
 10
16.559369219
 20
16.7011630979
 10
16.5375309092
 20
16.7052984689
 10
16.5166532411
 20
16.7056031468
 10
16.4971728588
 20
16.7019785433
 10
16.4783663077
 20
16.693771371
  0
LWPOLYLINE
  5
4A4
100
AcDbEntity
  8
RACCORDO
100
AcDbPolyline
 62
7
  6
CONTINUOUS
 90
5
 70
0
 10
17.8055224199
 20
15.1764886386
 10
17.8331988704
 20
15.1627151105
 10
17.8636034028
 20
15.1521148232
 10
17.8952262961
 20
15.1454949181
 10
17.9076099393
 20
15.1440424273
  0
LWPOLYLINE
  5
4A5
100
AcDbEntity
  8
RACCORDO
100
AcDbPolyline
 62
253
  6
CONTINUOUS
 90
13
 70
0
 10
17.7537554908
 20
15.6114408751
 10
17.7783485506
 20
15.5989884766
 10
17.8055568425
 20
15.5884932516
 10
17.8349167561
 20
15.5801371559
 10
17.8659305305
 20
15.574065219
 10
17.8980642399
 20
15.5703851597
 10
17.9307558935
 20
15.5691627144
 10
17.9635145282
 20
15.5704243754
 10
17.9957047511
 20
15.5741538116
 10
18.0265644457
 20
15.5802370324
 10
18.0555319794
 20
15.5885014009
 10
18.0822337837
 20
15.5987754634
 10
18.1062774505
 20
15.6108487944
  0
LWPOLYLINE
  5
4A6
100
AcDbEntity
  8
RACCORDO
100
AcDbPolyline
 62
253
  6
CONTINUOUS
 90
5
 70
0
 10
17.7537554908
 20
15.2909207023
 10
17.7782456896
 20
15.2785138971
 10
17.8053223144
 20
15.2680513371
 10
17.8345254973
 20
15.2597107179
 10
17.8653592528
 20
15.2536336962
  0
LINE
  5
4A7
100
AcDbEntity
  8
RACCORDO
100
AcDbLine
 62
7
  6
CONTINUOUS
 10
18.4649760989
 20
14.453377239
 11
17.1317637653
 21
15.2231573314
  0
LINE
  5
4A8
100
AcDbEntity
  8
RACCORDO
100
AcDbLine
 62
7
  6
CONTINUOUS
 10
5.1006579345
 20
22.1697670529
 11
3.7674456009
 21
22.9395471453
  0
LINE
  5
4A9
100
AcDbEntity
  8
RACCORDO
100
AcDbLine
 62
7
  6
CONTINUOUS
 10
-13.3548290545
 20
32.8257339388
 11
-14.6880413881
 21
33.5955140312
  0
LINE
  5
4AA
100
AcDbEntity
  8
RACCORDO
100
AcDbLine
 62
7
  6
CONTINUOUS
 10
-26.7191472189
 20
40.5421237527
 11
-28.0523595525
 21
41.3119038451
  0
LINE
  5
4AB
100
AcDbEntity
  8
RACCORDO
100
AcDbLine
 62
7
  6
CONTINUOUS
 10
-28.7035818515
 20
42.0302625488
 11
-27.3785971717
 21
41.2652330006
  0
LINE
  5
4AC
100
AcDbEntity
  8
RACCORDO
100
AcDbLine
 62
7
  6
CONTINUOUS
 10
-15.3392636871
 20
34.3138727349
 11
-14.0142790073
 21
33.5488431867
  0
LINE
  5
4AD
100
AcDbEntity
  8
RACCORDO
100
AcDbLine
 62
7
  6
CONTINUOUS
 10
3.1162233018
 20
23.657905849
 11
4.4412079817
 21
22.8928763009
  0
LINE
  5
4AE
100
AcDbEntity
  8
RACCORDO
100
AcDbLine
 62
7
  6
CONTINUOUS
 10
16.4805414663
 20
15.9415160351
 11
17.8055261461
 21
15.176486487
  0
LINE
  5
4AF
100
AcDbEntity
  8
RACCORDO
100
AcDbLine
 62
253
  6
CONTINUOUS
 10
-28.7553525068
 20
42.1446967641
 11
-27.430367827
 21
41.3796672159
  0
LINE
  5
4B0
100
AcDbEntity
  8
RACCORDO
100
AcDbLine
 62
253
  6
CONTINUOUS
 10
-15.3910343424
 20
34.4283069502
 11
-14.0660496626
 21
33.663277402
  0
LINE
  5
4B1
100
AcDbEntity
  8
RACCORDO
100
AcDbLine
 62
253
  6
CONTINUOUS
 10
3.0644526466
 20
23.7723400643
 11
4.3894373264
 21
23.0073105162
  0
LINE
  5
4B2
100
AcDbEntity
  8
RACCORDO
100
AcDbLine
 62
253
  6
CONTINUOUS
 10
16.428770811
 20
16.0559502504
 11
17.7537554908
 21
15.2909207023
  0
LINE
  5
4B3
100
AcDbEntity
  8
RACCORDO
100
AcDbLine
 62
7
  6
CONTINUOUS
 10
-23.1056944627
 20
38.8854307088
 11
-17.5943873631
 21
35.7032710624
  0
LINE
  5
4B4
100
AcDbEntity
  8
RACCORDO
100
AcDbLine
 62
7
  6
CONTINUOUS
 10
8.7141106907
 20
20.5130740091
 11
14.2254177903
 21
17.3309143626
  0
LINE
  5
4B5
100
AcDbEntity
  8
RACCORDO
100
AcDbLine
 62
7
  6
CONTINUOUS
 10
-28.7198838153
 20
42.040533125
 11
-28.7031617038
 21
42.0300215861
  0
LINE
  5
4B6
100
AcDbEntity
  8
RACCORDO
100
AcDbLine
 62
7
  6
CONTINUOUS
 10
-15.3555656508
 20
34.3241433111
 11
-15.3388435394
 21
34.3136317723
  0
LINE
  5
4B7
100
AcDbEntity
  8
RACCORDO
100
AcDbLine
 62
7
  6
CONTINUOUS
 10
3.0999213381
 20
23.6681764252
 11
3.1166434496
 21
23.6576648864
  0
LINE
  5
4B8
100
AcDbEntity
  8
RACCORDO
100
AcDbLine
 62
7
  6
CONTINUOUS
 10
16.4642395026
 20
15.9517866113
 11
16.480961614
 21
15.9412750725
  0
LWPOLYLINE
  5
4B9
100
AcDbEntity
  8
RACCORDO
100
AcDbPolyline
 62
253
  6
CONTINUOUS
 90
7
 70
0
 10
-15.3910343424
 20
34.748827123
 10
-15.4120849076
 20
34.7626397314
 10
-15.4300342196
 20
34.7779973835
 10
-15.4445157163
 20
34.7946746503
 10
-15.4552304234
 20
34.8124566759
 10
-15.4618763953
 20
34.8310202569
 10
-15.464257647
 20
34.850891397
  0
LWPOLYLINE
  5
4BA
100
AcDbEntity
  8
RACCORDO
100
AcDbPolyline
 62
253
  6
CONTINUOUS
 90
7
 70
0
 10
-28.7553525068
 20
42.1446967641
 10
-28.7768403393
 20
42.1588370979
 10
-28.7949608573
 20
42.1744708017
 10
-28.8094063028
 20
42.1913323535
 10
-28.8199313351
 20
42.2091353775
 10
-28.8263571976
 20
42.227577508
 10
-28.8285758115
 20
42.2467654124
  0
LWPOLYLINE
  5
4BB
100
AcDbEntity
  8
RACCORDO
100
AcDbPolyline
 62
253
  6
CONTINUOUS
 90
7
 70
0
 10
-28.7553525068
 20
42.4652169369
 10
-28.7768403393
 20
42.4793572708
 10
-28.7949608573
 20
42.4949909746
 10
-28.8094063028
 20
42.5118525263
 10
-28.8199313351
 20
42.5296555503
 10
-28.8263571976
 20
42.5480976809
 10
-28.8285758115
 20
42.5672855852
  0
LWPOLYLINE
  5
4BC
100
AcDbEntity
  8
RACCORDO
100
AcDbPolyline
 62
253
  6
CONTINUOUS
 90
7
 70
0
 10
-15.3910343424
 20
34.4283069502
 10
-15.4125221749
 20
34.442447284
 10
-15.4306426929
 20
34.4580809878
 10
-15.4450881383
 20
34.4749425396
 10
-15.4556131707
 20
34.4927455636
 10
-15.4620390332
 20
34.5111876941
 10
-15.4642576471
 20
34.5303755985
  0
LWPOLYLINE
  5
4BD
100
AcDbEntity
  8
RACCORDO
100
AcDbPolyline
 62
253
  6
CONTINUOUS
 90
7
 70
0
 10
3.0644526466
 20
23.7723400643
 10
3.0429648141
 20
23.7864803982
 10
3.0248442961
 20
23.802114102
 10
3.0103988506
 20
23.8189756538
 10
2.9998738183
 20
23.8367786777
 10
2.9934479558
 20
23.8552208083
 10
2.9912293419
 20
23.8744087127
  0
LWPOLYLINE
  5
4BE
100
AcDbEntity
  8
RACCORDO
100
AcDbPolyline
 62
253
  6
CONTINUOUS
 90
7
 70
0
 10
3.0644526466
 20
24.0928602372
 10
3.0429648141
 20
24.107000571
 10
3.0248442961
 20
24.1226342748
 10
3.0103988506
 20
24.1394958266
 10
2.9998738183
 20
24.1572988506
 10
2.9934479558
 20
24.1757409811
 10
2.9912293419
 20
24.1949288855
  0
LWPOLYLINE
  5
4BF
100
AcDbEntity
  8
RACCORDO
100
AcDbPolyline
 62
7
  6
CONTINUOUS
 90
9
 70
0
 10
-25.0010940077
 20
43.2471449002
 10
-24.974581147
 20
43.2294927893
 10
-24.9502036843
 20
43.2082939658
 10
-24.9285512173
 20
43.1838558075
 10
-24.910135731
 20
43.1565761275
 10
-24.8954216718
 20
43.1270135795
 10
-24.8847379834
 20
43.0957907427
 10
-24.8782305048
 20
43.0632094973
 10
-24.8761000563
 20
43.0306043478
  0
LWPOLYLINE
  5
4C0
100
AcDbEntity
  8
RACCORDO
100
AcDbPolyline
 62
7
  6
CONTINUOUS
 90
3
 70
0
 10
3.0486476864
 20
23.7149963851
 10
3.0726525656
 20
23.6897959544
 10
3.0999213381
 20
23.6681764252
  0
LWPOLYLINE
  5
4C1
100
AcDbEntity
  8
RACCORDO
100
AcDbPolyline
 62
253
  6
CONTINUOUS
 90
4
 70
0
 10
6.7825993708
 20
24.7859359994
 10
6.7617217027
 20
24.8095965352
 10
6.739883393
 20
24.8304846727
 10
6.71742574
 20
24.8483616738
  0
LWPOLYLINE
  5
4C2
100
AcDbEntity
  8
RACCORDO
100
AcDbPolyline
 62
253
  6
CONTINUOUS
 90
6
 70
0
 10
6.8715072486
 20
24.2291669233
 10
6.881440163
 20
24.2136885092
 10
6.8881727476
 20
24.2002037742
 10
6.8915902315
 20
24.1889425933
 10
6.8916343569
 20
24.1800969365
 10
6.8892072492
 20
24.1748231185
  0
LINE
  5
4C3
100
AcDbEntity
  8
RACCORDO
100
AcDbLine
 62
253
  6
CONTINUOUS
 10
25.323931172
 20
19.682045979
 11
25.323931172
 21
19.2131739045
  0
LINE
  5
4C4
100
AcDbEntity
  8
RACCORDO
100
AcDbLine
 62
253
  6
CONTINUOUS
 10
25.323931172
 20
-15.353981244
 11
25.323931172
 21
-15.5339098836
  0
LINE
  5
4C5
100
AcDbEntity
  8
RACCORDO
100
AcDbLine
 62
7
  6
CONTINUOUS
 10
25.4642612719
 20
20.002096625
 11
25.4642612719
 21
19.4161743954
  0
LINE
  5
4C6
100
AcDbEntity
  8
RACCORDO
100
AcDbLine
 62
7
  6
CONTINUOUS
 10
25.4642612719
 20
-15.2671990053
 11
25.4642612719
 21
-15.4528734927
  0
LWPOLYLINE
  5
4C7
100
AcDbEntity
  8
RACCORDO
100
AcDbPolyline
 62
253
  6
CONTINUOUS
 90
7
 70
0
 10
20.3080232701
 20
-22.6497808651
 10
20.3060909181
 20
-22.6676933003
 10
20.2999049032
 20
-22.6862673472
 10
20.2895698708
 20
-22.7042091567
 10
20.275268863
 20
-22.721209908
 10
20.2572499693
 20
-22.7369811355
 10
20.2358254131
 20
-22.7512539781
  0
LWPOLYLINE
  5
4C8
100
AcDbEntity
  8
RACCORDO
100
AcDbPolyline
 62
253
  6
CONTINUOUS
 90
7
 70
0
 10
20.3080232701
 20
-22.3221355646
 10
20.3059937994
 20
-22.3404908255
 10
20.2997538677
 20
-22.3589542289
 10
20.2894083961
 20
-22.3767923061
 10
20.2751330913
 20
-22.393702096
 10
20.2571704045
 20
-22.4093964036
 10
20.2358254131
 20
-22.4236086776
  0
LWPOLYLINE
  5
4C9
100
AcDbEntity
  8
RACCORDO
100
AcDbPolyline
 62
253
  6
CONTINUOUS
 90
6
 70
0
 10
20.2358254131
 20
-22.4236086776
 10
20.2456992842
 20
-22.393246031
 10
20.2524299587
 20
-22.3616179013
 10
20.2558826556
 20
-22.3292520998
 10
20.2559759009
 20
-22.2966711832
 10
20.2526823393
 20
-22.2644552936
  0
LINE
  5
4CA
100
AcDbEntity
  8
0
100
AcDbLine
 62
253
  6
CONTINUOUS
 10
20.7682184131
 20
-17.5116357532
 11
40.5811230327
 21
-5.2590383366
  0
LINE
  5
4CB
100
AcDbEntity
  8
RACCORDO
100
AcDbLine
 62
7
  6
CONTINUOUS
 10
20.7682184131
 20
-18.1713023513
 11
40.1893574875
 21
-6.1609786245
  0
LINE
  5
4CC
100
AcDbEntity
  8
0
100
AcDbLine
 62
7
  6
CONTINUOUS
 10
40.1893580124
 20
-6.1609782999
 11
40.1890643766
 21
-6.1611597836
  0
LINE
  5
4CD
100
AcDbEntity
  8
RACCORDO
100
AcDbLine
 62
7
  6
CONTINUOUS
 10
25.4641226572
 20
-15.4529535219
 11
20.9381609305
 21
-18.0662073493
  0
LINE
  5
4CE
100
AcDbEntity
  8
RACCORDO
100
AcDbLine
 62
7
  6
CONTINUOUS
 10
4.5432907113
 20
22.8604323392
 11
5.1710496626
 21
22.8026275718
  0
LINE
  5
4CF
100
AcDbEntity
  8
RACCORDO
100
AcDbLine
 62
253
  6
CONTINUOUS
 10
4.7419592861
 20
23.0067184355
 11
5.4531798942
 21
22.9412284226
  0
LWPOLYLINE
  5
4D0
100
AcDbEntity
  8
RACCORDO
100
AcDbPolyline
 62
253
  6
CONTINUOUS
 90
4
 70
0
 10
4.5010410883
 20
22.9700235101
 10
4.5329817376
 20
22.9663132976
 10
4.5654868022
 20
22.9650329084
 10
4.5980042179
 20
22.9662040886
  0
LWPOLYLINE
  5
4D1
100
AcDbEntity
  8
RACCORDO
100
AcDbPolyline
 62
7
  6
CONTINUOUS
 90
8
 70
0
 10
14.0283498308
 20
22.2105066412
 10
14.035135189
 20
22.2096767276
 10
14.0423872807
 20
22.2082610361
 10
14.0501177176
 20
22.2062098028
 10
14.0583512378
 20
22.203438654
 10
14.0670959979
 20
22.1998803059
 10
14.0763372677
 20
22.1954961
 10
14.0860593309
 20
22.1902396681
  0
LINE
  5
4D2
100
AcDbEntity
  8
RACCORDO
100
AcDbLine
 62
7
  6
CONTINUOUS
 10
18.7864459992
 20
17.9552501484
 11
18.8176801273
 21
17.944472773
  0
LWPOLYLINE
  5
4D3
100
AcDbEntity
  8
RACCORDO
100
AcDbPolyline
 62
7
  6
CONTINUOUS
 90
15
 70
0
 10
15.1851089341
 20
22.2643061355
 10
15.1141279574
 20
22.2903754882
 10
15.0405139164
 20
22.3124364007
 10
14.9647157205
 20
22.330476324
 10
14.887287373
 20
22.3444672789
 10
14.8087920557
 20
22.3544051322
 10
14.7295905244
 20
22.3603217409
 10
14.64999318
 20
22.3622349442
 10
14.5704493188
 20
22.3601480178
 10
14.4914141437
 20
22.3540719122
 10
14.4132053377
 20
22.3440048731
 10
14.336202601
 20
22.3299369278
 10
14.2609262061
 20
22.3118851251
 10
14.1878477538
 20
22.2898710095
 10
14.1173845032
 20
22.2639033946
  0
LWPOLYLINE
  5
4D4
100
AcDbEntity
  8
RACCORDO
100
AcDbPolyline
 62
253
  6
CONTINUOUS
 90
7
 70
0
 10
18.8457031495
 20
17.930553751
 10
18.8281133284
 20
17.9381847371
 10
18.8087886386
 20
17.9418822627
 10
18.7880909068
 20
17.9416652979
 10
18.766450448
 20
17.9376306729
 10
18.74420252
 20
17.9299277258
 10
18.7217255488
 20
17.9187588103
  0
LWPOLYLINE
  5
4D5
100
AcDbEntity
  8
RACCORDO
100
AcDbPolyline
 62
253
  6
CONTINUOUS
 90
7
 70
0
 10
15.3174350128
 20
22.2001479036
 10
15.3035220477
 20
22.2062038619
 10
15.2881408589
 20
22.2091898723
 10
15.2715497908
 20
22.2090576328
 10
15.2540327212
 20
22.2058094061
 10
15.2358893719
 20
22.1995007704
 10
15.2174301808
 20
22.1902396681
  0
LWPOLYLINE
  5
4D6
100
AcDbEntity
  8
RACCORDO
100
AcDbPolyline
 62
253
  6
CONTINUOUS
 90
7
 70
0
 10
6.8187111457
 20
24.8747882004
 10
6.8017952722
 20
24.882209971
 10
6.7826865601
 20
24.8860359492
 10
6.7620665915
 20
24.8859938226
 10
6.7402855749
 20
24.8820843069
 10
6.7177134381
 20
24.874373801
 10
6.694733545
 20
24.8629932597
  0
LWPOLYLINE
  5
4D7
100
AcDbEntity
  8
RACCORDO
100
AcDbPolyline
 62
253
  6
CONTINUOUS
 90
7
 70
0
 10
5.4813849851
 20
25.6469435649
 10
5.4644691117
 20
25.6543653355
 10
5.4453603995
 20
25.6581913136
 10
5.4247404309
 20
25.6581491871
 10
5.4029594144
 20
25.6542396714
 10
5.3803872775
 20
25.6465291654
 10
5.3574073844
 20
25.6351486242
  0
LWPOLYLINE
  5
4D8
100
AcDbEntity
  8
RACCORDO
100
AcDbPolyline
 62
253
  6
CONTINUOUS
 90
7
 70
0
 10
20.1829966567
 20
17.1584172304
 10
20.1665454696
 20
17.1656828943
 10
20.147367902
 20
17.1696108768
 10
20.126663324
 20
17.1696296471
 10
20.1047906861
 20
17.1657433437
 10
20.0821238354
 20
17.1580226137
 10
20.0590517094
 20
17.1466034458
  0
LINE
  5
4D9
100
AcDbEntity
  8
RACCORDO
100
AcDbLine
 62
7
  6
CONTINUOUS
 10
15.2530370403
 20
22.2342254607
 11
15.1851089341
 21
22.2643061355
  0
LWPOLYLINE
  5
4DA
100
AcDbEntity
  8
RACCORDO
100
AcDbPolyline
 62
253
  6
CONTINUOUS
 90
7
 70
0
 10
3.2402009026
 20
24.3984491924
 10
3.2169092991
 20
24.4099909261
 10
3.1940297597
 20
24.4178252715
 10
3.1719577702
 20
24.4218133021
 10
3.1510733932
 20
24.4218821292
 10
3.131741343
 20
24.4180260897
 10
3.1140904959
 20
24.4101861943
  0
LWPOLYLINE
  5
4DB
100
AcDbEntity
  8
RACCORDO
100
AcDbPolyline
 62
7
  6
CONTINUOUS
 90
7
 70
0
 10
5.4813849851
 20
25.6469435649
 10
5.4528932684
 20
25.6610585381
 10
5.422405308
 20
25.671563615
 10
5.3904783499
 20
25.6781042444
 10
5.3577037122
 20
25.6804371532
 10
5.3247978498
 20
25.6784379242
 10
5.292472522
 20
25.6721346588
  0
LWPOLYLINE
  5
4DC
100
AcDbEntity
  8
RACCORDO
100
AcDbPolyline
 62
253
  6
CONTINUOUS
 90
7
 70
0
 10
-28.5796042508
 20
42.7708058921
 10
-28.6028958543
 20
42.7823476259
 10
-28.6257753937
 20
42.7901819713
 10
-28.6478473832
 20
42.7941700019
 10
-28.6687317602
 20
42.7942388289
 10
-28.6880638104
 20
42.7903827895
 10
-28.7057146575
 20
42.7825428941
  0
LWPOLYLINE
  5
4DD
100
AcDbEntity
  8
RACCORDO
100
AcDbPolyline
 62
7
  6
CONTINUOUS
 90
7
 70
0
 10
18.1872756701
 20
17.6173134386
 10
18.1640771471
 20
17.6288160934
 10
18.1412931347
 20
17.6366398032
 10
18.1193134573
 20
17.640650708
 10
18.0985141782
 20
17.6407801838
 10
18.0792511627
 20
17.6370260148
 10
18.0625771894
 20
17.6298651143
  0
LWPOLYLINE
  5
4DE
100
AcDbEntity
  8
RACCORDO
100
AcDbPolyline
 62
7
  6
CONTINUOUS
 90
7
 70
0
 10
4.8229575057
 20
25.3337032525
 10
4.7997589826
 20
25.3452059072
 10
4.7769749703
 20
25.3530296171
 10
4.7549952929
 20
25.3570405219
 10
4.7341960138
 20
25.3571699977
 10
4.7149329982
 20
25.3534158287
 10
4.698259025
 20
25.3462549282
  0
LWPOLYLINE
  5
4DF
100
AcDbEntity
  8
RACCORDO
100
AcDbPolyline
 62
7
  6
CONTINUOUS
 90
7
 70
0
 10
-13.6325294832
 20
35.9896701383
 10
-13.6557280063
 20
36.0011727931
 10
-13.6785120187
 20
36.0089965029
 10
-13.7004916961
 20
36.0130074077
 10
-13.7212909752
 20
36.0131368836
 10
-13.7405539907
 20
36.0093827146
 10
-13.757227964
 20
36.0022218141
  0
LINE
  5
4E0
100
AcDbEntity
  8
RACCORDO
100
AcDbLine
 62
7
  6
CONTINUOUS
 10
18.8176801273
 20
17.944472773
 11
18.8457420106
 21
17.9305312992
  0
LWPOLYLINE
  5
4E1
100
AcDbEntity
  8
RACCORDO
100
AcDbPolyline
 62
253
  6
CONTINUOUS
 90
7
 70
0
 10
-15.2152860864
 20
35.0544160783
 10
-15.2379782815
 20
35.0657050649
 10
-15.2604359344
 20
35.0735197977
 10
-15.2822742442
 20
35.0776551686
 10
-15.3031519123
 20
35.0779598465
 10
-15.3226322946
 20
35.0743352431
 10
-15.3414388457
 20
35.0661280708
  0
LWPOLYLINE
  5
4E2
100
AcDbEntity
  8
RACCORDO
100
AcDbPolyline
 62
7
  6
CONTINUOUS
 90
5
 70
0
 10
4.4412042554
 20
22.8928784525
 10
4.468880706
 20
22.8791049244
 10
4.4992852384
 20
22.8685046371
 10
4.5309081317
 20
22.861884732
 10
4.5432917749
 20
22.8604322412
  0
LWPOLYLINE
  5
4E3
100
AcDbEntity
  8
RACCORDO
100
AcDbPolyline
 62
7
  6
CONTINUOUS
 90
5
 70
0
 10
-14.0142827335
 20
33.5488453383
 10
-13.9866062829
 20
33.5350718102
 10
-13.9562017506
 20
33.5244715229
 10
-13.9245788573
 20
33.5178516178
 10
-13.9121952141
 20
33.5163991271
  0
LWPOLYLINE
  5
4E4
100
AcDbEntity
  8
RACCORDO
100
AcDbPolyline
 62
7
  6
CONTINUOUS
 90
5
 70
0
 10
-27.378600898
 20
41.2652351522
 10
-27.3509244474
 20
41.2514616241
 10
-27.320519915
 20
41.2408613368
 10
-27.2888970217
 20
41.2342414317
 10
-27.2765133785
 20
41.232788941
  0
LWPOLYLINE
  5
4E5
100
AcDbEntity
  8
RACCORDO
100
AcDbPolyline
 62
253
  6
CONTINUOUS
 90
13
 70
0
 10
-14.0660496626
 20
33.9837975748
 10
-14.0414566028
 20
33.9713451763
 10
-14.0142483109
 20
33.9608499514
 10
-13.9848883973
 20
33.9524938556
 10
-13.9538746229
 20
33.9464219187
 10
-13.9217409135
 20
33.9427418595
 10
-13.8890492599
 20
33.9415194142
 10
-13.8562906252
 20
33.9427810751
 10
-13.8241004023
 20
33.9465105113
 10
-13.7932407077
 20
33.9525937322
 10
-13.764273174
 20
33.9608581007
 10
-13.7375713697
 20
33.9711321631
 10
-13.7135277029
 20
33.9832054942
  0
LWPOLYLINE
  5
4E6
100
AcDbEntity
  8
RACCORDO
100
AcDbPolyline
 62
253
  6
CONTINUOUS
 90
5
 70
0
 10
4.3894373264
 20
23.0073105162
 10
4.4139275252
 20
22.994903711
 10
4.44100415
 20
22.984441151
 10
4.4702073328
 20
22.9761005318
 10
4.5010410883
 20
22.9700235101
  0
LWPOLYLINE
  5
4E7
100
AcDbEntity
  8
RACCORDO
100
AcDbPolyline
 62
253
  6
CONTINUOUS
 90
13
 70
0
 10
4.3894373264
 20
23.327830689
 10
4.4139275252
 20
23.3154238838
 10
4.44100415
 20
23.3049613238
 10
4.4702073328
 20
23.2966207046
 10
4.5010410883
 20
23.2905436829
 10
4.5329817376
 20
23.2868334704
 10
4.5654868022
 20
23.2855530813
 10
4.5980042179
 20
23.2867242615
 10
4.6299817105
 20
23.2903271198
 10
4.660876176
 20
23.2963004655
 10
4.6901629044
 20
23.3045428476
 10
4.7173444913
 20
23.3149142778
 10
4.7419592861
 20
23.3272386083
  0
LWPOLYLINE
  5
4E8
100
AcDbEntity
  8
RACCORDO
100
AcDbPolyline
 62
253
  6
CONTINUOUS
 90
5
 70
0
 10
-14.0660496626
 20
33.663277402
 10
-14.0415594638
 20
33.6508705968
 10
-14.014482839
 20
33.6404080369
 10
-13.9852796561
 20
33.6320674177
 10
-13.9544459006
 20
33.6259903959
  0
LWPOLYLINE
  5
4E9
100
AcDbEntity
  8
RACCORDO
100
AcDbPolyline
 62
253
  6
CONTINUOUS
 90
5
 70
0
 10
-27.430367827
 20
41.3796672159
 10
-27.4058776282
 20
41.3672604107
 10
-27.3788010034
 20
41.3567978507
 10
-27.3495978206
 20
41.3484572316
 10
-27.3187640651
 20
41.3423802098
  0
LWPOLYLINE
  5
4EA
100
AcDbEntity
  8
RACCORDO
100
AcDbPolyline
 62
253
  6
CONTINUOUS
 90
13
 70
0
 10
-27.430367827
 20
41.7001873887
 10
-27.4058776282
 20
41.6877805836
 10
-27.3788010034
 20
41.6773180236
 10
-27.3495978206
 20
41.6689774044
 10
-27.3187640651
 20
41.6629003827
 10
-27.2868234158
 20
41.6591901702
 10
-27.2543183512
 20
41.657909781
 10
-27.2218009355
 20
41.6590809612
 10
-27.1898234428
 20
41.6626838196
 10
-27.1589289774
 20
41.6686571652
 10
-27.129642249
 20
41.6768995473
 10
-27.1024606621
 20
41.6872709775
 10
-27.0778458673
 20
41.6995953081
  0
LWPOLYLINE
  5
4EB
100
AcDbEntity
  8
RACCORDO
100
AcDbPolyline
 62
253
  6
CONTINUOUS
 90
7
 70
0
 10
18.7217255488
 20
17.9187588103
 10
18.6987778775
 20
17.9304063036
 10
18.6762052342
 20
17.9383520551
 10
18.6543938264
 20
17.9424601166
 10
18.6337168374
 20
17.942660201
 10
18.6145280409
 20
17.938948885
 10
18.5978789212
 20
17.9318023343
  0
LWPOLYLINE
  5
4EC
100
AcDbEntity
  8
RACCORDO
100
AcDbPolyline
 62
253
  6
CONTINUOUS
 90
7
 70
0
 10
-13.0980796046
 20
36.29111551
 10
-13.1210272759
 20
36.3027630034
 10
-13.1435999192
 20
36.3107087548
 10
-13.165411327
 20
36.3148168163
 10
-13.186088316
 20
36.3150169007
 10
-13.2052771125
 20
36.3113055847
 10
-13.2219262322
 20
36.304159034
  0
LWPOLYLINE
  5
4ED
100
AcDbEntity
  8
RACCORDO
100
AcDbPolyline
 62
253
  6
CONTINUOUS
 90
7
 70
0
 10
5.3574073844
 20
25.6351486242
 10
5.3349609563
 20
25.6465795135
 10
5.3127126955
 20
25.6545151468
 10
5.2910430977
 20
25.6587479299
 10
5.2702899509
 20
25.6591245048
 10
5.2508863657
 20
25.6555442431
 10
5.2335607568
 20
25.6481921482
  0
LINE
  5
4EE
100
AcDbEntity
  8
RACCORDO
100
AcDbLine
 62
253
  6
CONTINUOUS
 10
20.1830293101
 20
17.1583983865
 11
20.1829966567
 21
17.1584172304
  0
LINE
  5
4EF
100
AcDbEntity
  8
RACCORDO
100
AcDbLine
 62
253
  6
CONTINUOUS
 10
-11.6367758433
 20
35.5307550863
 11
-11.6368084967
 21
35.5307739301
  0
LINE
  5
4F0
100
AcDbEntity
  8
RACCORDO
100
AcDbLine
 62
253
  6
CONTINUOUS
 10
17.7537554908
 20
15.6114408751
 11
16.428770811
 21
16.3764704233
  0
LINE
  5
4F1
100
AcDbEntity
  8
RACCORDO
100
AcDbLine
 62
253
  6
CONTINUOUS
 10
4.3894373264
 20
23.327830689
 11
3.0644526466
 21
24.0928602372
  0
LINE
  5
4F2
100
AcDbEntity
  8
RACCORDO
100
AcDbLine
 62
253
  6
CONTINUOUS
 10
-14.0660496626
 20
33.9837975748
 11
-15.3910343424
 21
34.748827123
  0
LINE
  5
4F3
100
AcDbEntity
  8
RACCORDO
100
AcDbLine
 62
253
  6
CONTINUOUS
 10
-27.430367827
 20
41.7001873887
 11
-28.7553525068
 21
42.4652169369
  0
LINE
  5
4F4
100
AcDbEntity
  8
RACCORDO
100
AcDbLine
 62
253
  6
CONTINUOUS
 10
17.9295037468
 20
15.9170298303
 11
16.604519067
 21
16.6820593785
  0
LINE
  5
4F5
100
AcDbEntity
  8
RACCORDO
100
AcDbLine
 62
253
  6
CONTINUOUS
 10
4.5651855824
 20
23.6334196442
 11
3.2402009026
 21
24.3984491924
  0
LINE
  5
4F6
100
AcDbEntity
  8
RACCORDO
100
AcDbLine
 62
253
  6
CONTINUOUS
 10
-13.8903014066
 20
34.2893865301
 11
-15.2152860864
 21
35.0544160783
  0
LINE
  5
4F7
100
AcDbEntity
  8
RACCORDO
100
AcDbLine
 62
253
  6
CONTINUOUS
 10
-27.254619571
 20
42.005776344
 11
-28.5796042508
 21
42.7708058921
  0
LINE
  5
4F8
100
AcDbEntity
  8
DRAFT
100
AcDbLine
 62
7
  6
CONTINUOUS
 10
-25.4765650765
 20
41.113680268
 11
-23.2521410721
 21
39.8293257264
  0
LINE
  5
4F9
100
AcDbEntity
  8
DRAFT
100
AcDbLine
 62
7
  6
CONTINUOUS
 10
-16.5316642945
 20
35.9490066624
 11
-15.1739655113
 21
35.1650884009
  0
LINE
  5
4FA
100
AcDbEntity
  8
DRAFT
100
AcDbLine
 62
7
  6
CONTINUOUS
 10
-12.1122469121
 20
33.3972904541
 11
3.2815214777
 21
24.509121515
  0
LINE
  5
4FB
100
AcDbEntity
  8
DRAFT
100
AcDbLine
 62
7
  6
CONTINUOUS
 10
6.3432400769
 20
22.7413235682
 11
8.5676640812
 21
21.4569690267
  0
LINE
  5
4FC
100
AcDbEntity
  8
DRAFT
100
AcDbLine
 62
7
  6
CONTINUOUS
 10
15.2881408589
 20
17.5766499626
 11
16.6458396421
 21
16.7927317011
  0
LINE
  5
4FD
100
AcDbEntity
  8
RACCORDO
100
AcDbLine
 62
253
  6
CONTINUOUS
 10
14.2254177903
 20
18.3496652573
 11
8.7141106907
 21
21.5318249037
  0
LINE
  5
4FE
100
AcDbEntity
  8
RACCORDO
100
AcDbLine
 62
253
  6
CONTINUOUS
 10
-17.5943873631
 20
36.722021957
 11
-23.1056944627
 21
39.9041816035
  0
LINE
  5
4FF
100
AcDbEntity
  8
RACCORDO
100
AcDbLine
 62
253
  6
CONTINUOUS
 10
14.6482401701
 20
18.4311839508
 11
8.5724855204
 21
21.9392485385
  0
LINE
  5
500
100
AcDbEntity
  8
RACCORDO
100
AcDbLine
 62
253
  6
CONTINUOUS
 10
-17.1715649832
 20
36.8035406506
 11
-23.247319633
 21
40.3116052383
  0
LINE
  5
501
100
AcDbEntity
  8
RACCORDO
100
AcDbLine
 62
7
  6
CONTINUOUS
 10
-25.4432997436
 20
41.9038972402
 11
-24.0685223415
 21
41.1101179982
  0
LINE
  5
502
100
AcDbEntity
  8
DRAFT
100
AcDbLine
 62
7
  6
CONTINUOUS
 10
-12.0789815792
 20
34.1875074263
 11
3.9743497309
 21
24.9185151233
  0
LINE
  5
503
100
AcDbEntity
  8
DRAFT
100
AcDbLine
 62
7
  6
CONTINUOUS
 10
6.3765054098
 20
23.5315405404
 11
7.7512828119
 21
22.7377612984
  0
LINE
  5
504
100
AcDbEntity
  8
RACCORDO
100
AcDbLine
 62
7
  6
CONTINUOUS
 10
19.7408235742
 20
15.8151507265
 11
20.4145573124
 21
15.42614531
  0
LINE
  5
505
100
AcDbEntity
  8
DRAFT
100
AcDbLine
 62
7
  6
CONTINUOUS
 10
-22.7542039689
 20
40.6848814712
 11
-16.5316642945
 21
37.0920650499
  0
LINE
  5
506
100
AcDbEntity
  8
DRAFT
100
AcDbLine
 62
7
  6
CONTINUOUS
 10
9.0656011845
 20
22.3125247714
 11
15.2881408589
 21
18.7197083501
  0
LINE
  5
507
100
AcDbEntity
  8
0
100
AcDbLine
 62
7
  6
CONTINUOUS
 10
7.294735473
 20
23.4131878072
 11
6.6012892928
 21
23.8135749407
  0
LINE
  5
508
100
AcDbEntity
  8
0
100
AcDbLine
 62
7
  6
CONTINUOUS
 10
-10.0647360051
 20
33.4363290734
 11
-11.8541976961
 21
34.4695418266
  0
LINE
  5
509
100
AcDbEntity
  8
RACCORDO
100
AcDbLine
 62
7
  6
CONTINUOUS
 10
-26.9968476477
 20
43.7060599522
 11
-25.6533387802
 21
42.9303347702
  0
LINE
  5
50A
100
AcDbEntity
  8
RACCORDO
100
AcDbLine
 62
7
  6
CONTINUOUS
 10
-13.6325294832
 20
35.9896701383
 11
-12.2890206158
 21
35.2139449563
  0
LINE
  5
50B
100
AcDbEntity
  8
RACCORDO
100
AcDbLine
 62
7
  6
CONTINUOUS
 10
4.8229575057
 20
25.3337032525
 11
6.1664663732
 21
24.5579780705
  0
LINE
  5
50C
100
AcDbEntity
  8
RACCORDO
100
AcDbLine
 62
7
  6
CONTINUOUS
 10
18.1872756701
 20
17.6173134386
 11
19.5307845376
 21
16.8415882566
  0
LINE
  5
50D
100
AcDbEntity
  8
DRAFT
100
AcDbLine
 62
7
  6
CONTINUOUS
 10
-21.4107010847
 20
40.7209588454
 11
-16.4609536164
 21
37.8630366921
  0
LINE
  5
50E
100
AcDbEntity
  8
DRAFT
100
AcDbLine
 62
7
  6
CONTINUOUS
 10
10.4091040687
 20
22.3486021456
 11
15.358851537
 21
19.4906799923
  0
LINE
  5
50F
100
AcDbEntity
  8
RACCORDO
100
AcDbLine
 62
253
  6
CONTINUOUS
 10
-26.462397769
 20
44.0075053239
 11
-25.1250716084
 21
43.2353499594
  0
LINE
  5
510
100
AcDbEntity
  8
RACCORDO
100
AcDbLine
 62
253
  6
CONTINUOUS
 10
-13.0980796046
 20
36.29111551
 11
-11.760753444
 21
35.5189601455
  0
LINE
  5
511
100
AcDbEntity
  8
RACCORDO
100
AcDbLine
 62
253
  6
CONTINUOUS
 10
5.3574073844
 20
25.6351486242
 11
6.694733545
 21
24.8629932597
  0
LINE
  5
512
100
AcDbEntity
  8
RACCORDO
100
AcDbLine
 62
253
  6
CONTINUOUS
 10
18.7217255488
 20
17.9187588103
 11
20.0590517094
 21
17.1466034458
  0
LINE
  5
513
100
AcDbEntity
  8
RACCORDO
100
AcDbLine
 62
7
  6
CONTINUOUS
 10
-26.3384201683
 20
44.0193002647
 11
-25.0010940077
 21
43.2471449002
  0
LINE
  5
514
100
AcDbEntity
  8
RACCORDO
100
AcDbLine
 62
7
  6
CONTINUOUS
 10
-12.9741020039
 20
36.3029104508
 11
-11.6367758433
 21
35.5307550863
  0
LINE
  5
515
100
AcDbEntity
  8
RACCORDO
100
AcDbLine
 62
7
  6
CONTINUOUS
 10
5.4813849851
 20
25.6469435649
 11
6.8187111457
 21
24.8747882004
  0
LINE
  5
516
100
AcDbEntity
  8
RACCORDO
100
AcDbLine
 62
7
  6
CONTINUOUS
 10
18.8457031495
 20
17.930553751
 11
20.1830293101
 21
17.1583983865
  0
LINE
  5
517
100
AcDbEntity
  8
RACCORDO
100
AcDbLine
 62
7
  6
CONTINUOUS
 10
17.0701471395
 20
20.4672647668
 11
14.0860593309
 21
22.1902396681
  0
LINE
  5
518
100
AcDbEntity
  8
RACCORDO
100
AcDbLine
 62
7
  6
CONTINUOUS
 10
2.7016401538
 20
28.7634606206
 11
-1.8238432458
 21
31.3764180179
  0
LINE
  5
519
100
AcDbEntity
  8
RACCORDO
100
AcDbLine
 62
7
  6
CONTINUOUS
 10
-14.7496580139
 20
38.8396214665
 11
-17.7337458225
 21
40.5625963678
  0
LWPOLYLINE
  5
51A
100
AcDbEntity
  8
RACCORDO
100
AcDbPolyline
 62
7
  6
CONTINUOUS
 90
13
 70
0
 10
2.8016449855
 20
29.4266082057
 10
2.8554018241
 20
29.3930638307
 10
2.9045970154
 20
29.3572429906
 10
2.949181927
 20
29.3193218036
 10
2.9892289911
 20
29.2793442749
 10
3.0245544473
 20
29.2375903777
 10
3.0548290011
 20
29.1946800219
 10
3.0799919573
 20
29.1511441913
 10
3.100326148
 20
29.1070090878
 10
3.1160369628
 20
29.0622392438
 10
3.1271794508
 20
29.0170257512
 10
3.1337830226
 20
28.9717737227
 10
3.1359547288
 20
28.9267862399
  0
LINE
  5
51B
100
AcDbEntity
  8
RACCORDO
100
AcDbLine
 62
253
  6
CONTINUOUS
 10
-25.1023794134
 20
43.2207183735
 11
-25.1250716084
 21
43.2353499594
  0
LINE
  5
51C
100
AcDbEntity
  8
RACCORDO
100
AcDbLine
 62
253
  6
CONTINUOUS
 10
6.71742574
 20
24.8483616738
 11
6.694733545
 21
24.8629932597
  0
LINE
  5
51D
100
AcDbEntity
  8
RACCORDO
100
AcDbLine
 62
253
  6
CONTINUOUS
 10
-11.7374618406
 20
35.5038960928
 11
-11.760753444
 21
35.5189601455
  0
LINE
  5
51E
100
AcDbEntity
  8
RACCORDO
100
AcDbLine
 62
253
  6
CONTINUOUS
 10
20.0823433128
 20
17.131539393
 11
20.0590517094
 21
17.1466034458
  0
LWPOLYLINE
  5
51F
100
AcDbEntity
  8
RACCORDO
100
AcDbPolyline
 62
253
  6
CONTINUOUS
 90
7
 70
0
 10
16.428770811
 20
16.3764704233
 10
16.4077202458
 20
16.3902830316
 10
16.3897709338
 20
16.4056406838
 10
16.3752894371
 20
16.4223179506
 10
16.3645747299
 20
16.4400999761
 10
16.3579287581
 20
16.4586635571
 10
16.3555475064
 20
16.4785346972
  0
LWPOLYLINE
  5
520
100
AcDbEntity
  8
RACCORDO
100
AcDbPolyline
 62
253
  6
CONTINUOUS
 90
7
 70
0
 10
16.428770811
 20
16.0559502504
 10
16.4072829785
 20
16.0700905843
 10
16.3891624605
 20
16.0857242881
 10
16.3747170151
 20
16.1025858399
 10
16.3641919827
 20
16.1203888638
 10
16.3577661202
 20
16.1388309944
 10
16.3555475063
 20
16.1580188988
  0
LWPOLYLINE
  5
521
100
AcDbEntity
  8
RACCORDO
100
AcDbPolyline
 62
7
  6
CONTINUOUS
 90
9
 70
0
 10
6.8187111457
 20
24.8747882004
 10
6.8452240064
 20
24.8571360896
 10
6.8696014691
 20
24.835937266
 10
6.8912539361
 20
24.8114991077
 10
6.9096694224
 20
24.7842194278
 10
6.9243834816
 20
24.7546568798
 10
6.93506717
 20
24.7234340429
 10
6.9415746486
 20
24.6908527975
 10
6.9437050971
 20
24.658247648
  0
LWPOLYLINE
  5
522
100
AcDbEntity
  8
RACCORDO
100
AcDbPolyline
 62
7
  6
CONTINUOUS
 90
13
 70
0
 10
19.7073477586
 20
15.0245625078
 10
19.7516487433
 20
14.9930064733
 10
19.7951663003
 20
14.9554905128
 10
19.8371833356
 20
14.9126262256
 10
19.8769918991
 20
14.8651028555
 10
19.9139433616
 20
14.8137000248
 10
19.9474592544
 20
14.7592751203
 10
19.9769705991
 20
14.7027057858
 10
20.0019840568
 20
14.644910249
 10
20.022128829
 20
14.5868565359
 10
20.0370747116
 20
14.5294927896
 10
20.0465378519
 20
14.4737319689
 10
20.0503419902
 20
14.4204715214
  0
LWPOLYLINE
  5
523
100
AcDbEntity
  8
RACCORDO
100
AcDbPolyline
 62
253
  6
CONTINUOUS
 90
24
 70
0
 10
2.8004151124
 20
29.3471452542
 10
2.8244746375
 20
29.3253244172
 10
2.8468047226
 20
29.3019840808
 10
2.8673137655
 20
29.277038447
 10
2.8860933683
 20
29.2505733138
 10
2.9020767426
 20
29.2230764068
 10
2.9151026327
 20
29.1944847476
 10
2.9253322943
 20
29.1648613145
 10
2.9321827057
 20
29.1348827684
 10
2.9354555031
 20
29.1045292972
 10
2.9353490504
 20
29.0738207129
 10
2.9318754172
 20
29.043493113
 10
2.9248367738
 20
29.0135676808
 10
2.9144309498
 20
28.9840232329
 10
2.9012635045
 20
28.955532317
 10
2.8851759891
 20
28.9281598098
 10
2.8663268524
 20
28.9018408344
 10
2.8457969993
 20
28.8770533078
 10
2.8234965273
 20
28.853881861
 10
2.7995153388
 20
28.832241863
 10
2.7752040461
 20
28.8123573375
 10
2.751012853
 20
28.7943029593
 10
2.7264915555
 20
28.7780040537
 10
2.7016401538
 20
28.7634606206
  0
LWPOLYLINE
  5
524
100
AcDbEntity
  8
RACCORDO
100
AcDbPolyline
 62
7
  6
CONTINUOUS
 90
3
 70
0
 10
16.4129658508
 20
15.9986065712
 10
16.4369707301
 20
15.9734061405
 10
16.4642395026
 20
15.9517866113
  0
LWPOLYLINE
  5
525
100
AcDbEntity
  8
RACCORDO
100
AcDbPolyline
 62
253
  6
CONTINUOUS
 90
4
 70
0
 10
20.1481792187
 20
17.0679855795
 10
20.1272948417
 20
17.0918924128
 10
20.1052228522
 20
17.1131978829
 10
20.0823433128
 20
17.131539393
  0
LWPOLYLINE
  5
526
100
AcDbEntity
  8
RACCORDO
100
AcDbPolyline
 62
253
  6
CONTINUOUS
 90
4
 70
0
 10
20.2002234095
 20
16.9849273377
 10
20.1849497579
 20
17.0140651998
 10
20.1675112689
 20
17.0418903668
 10
20.1481792187
 20
17.0679855795
  0
LWPOLYLINE
  5
527
100
AcDbEntity
  8
RACCORDO
100
AcDbPolyline
 62
253
  6
CONTINUOUS
 90
4
 70
0
 10
20.2302483277
 20
16.8957754487
 10
20.2230782893
 20
16.9251312441
 10
20.213026841
 20
16.9550415093
 10
20.2002234095
 20
16.9849273377
  0
LINE
  5
528
100
AcDbEntity
  8
RACCORDO
100
AcDbLine
 62
253
  6
CONTINUOUS
 10
18.4644618706
 20
-22.6500321869
 11
17.8421438385
 21
-23.4176597603
  0
LINE
  5
529
100
AcDbEntity
  8
RACCORDO
100
AcDbLine
 62
253
  6
CONTINUOUS
 10
18.8174980586
 20
-22.7687685101
 11
18.1062774505
 21
-23.6460571654
  0
LINE
  5
52A
100
AcDbEntity
  8
RACCORDO
100
AcDbLine
 62
7
  6
CONTINUOUS
 10
20.2367832268
 20
-22.8245517948
 11
20.2122418946
 21
-22.8465462478
  0
LWPOLYLINE
  5
52B
100
AcDbEntity
  8
RACCORDO
100
AcDbPolyline
 62
7
  6
CONTINUOUS
 90
7
 70
0
 10
19.656085446
 20
-23.1776591479
 10
19.6706129492
 20
-23.1668083483
 10
19.6834966947
 20
-23.1520049596
 10
19.6937852005
 20
-23.133929242
 10
19.7013024358
 20
-23.1128904623
 10
19.7059197831
 20
-23.0892485852
 10
19.7075582413
 20
-23.0634081124
  0
LWPOLYLINE
  5
52C
100
AcDbEntity
  8
RACCORDO
100
AcDbPolyline
 62
253
  6
CONTINUOUS
 90
7
 70
0
 10
20.1852087463
 20
-22.8650106367
 10
20.1993732859
 20
-22.8544848957
 10
20.2123061753
 20
-22.8397151641
 10
20.2225675755
 20
-22.8216666313
 10
20.2299821951
 20
-22.8006566928
 10
20.2344260555
 20
-22.7770492079
 10
20.2358254131
 20
-22.7512539781
  0
LWPOLYLINE
  5
52D
100
AcDbEntity
  8
RACCORDO
100
AcDbPolyline
 62
253
  6
CONTINUOUS
 90
7
 70
0
 10
18.0533503744
 20
-24.0816680562
 10
18.0693321037
 20
-24.0699776051
 10
18.0822158573
 20
-24.0551742117
 10
18.092504373
 20
-24.0370984886
 10
18.1000216188
 20
-24.0160597031
 10
18.1046389783
 20
-23.992417819
 10
18.1062774505
 20
-23.9665773383
  0
LINE
  5
52E
100
AcDbEntity
  8
RACCORDO
100
AcDbLine
 62
7
  6
CONTINUOUS
 10
20.2122418946
 20
-22.8465462478
 11
20.1852087463
 21
-22.8650106367
  0
LWPOLYLINE
  5
52F
100
AcDbEntity
  8
0
100
AcDbPolyline
 62
7
  6
CONTINUOUS
 90
16
 70
0
 10
40.1890599193
 20
-6.1611566002
 10
40.2474850245
 20
-6.1228986837
 10
40.325173706
 20
-6.0647918974
 10
40.3989273321
 20
-6.0007816627
 10
40.4681867862
 20
-5.9312619674
 10
40.5326900934
 20
-5.8564291122
 10
40.5923967651
 20
-5.7761540565
 10
40.6469245882
 20
-5.6906702018
 10
40.695883789
 20
-5.6003342149
 10
40.739147861
 20
-5.5050267016
 10
40.7763798329
 20
-5.4049489308
 10
40.8072345242
 20
-5.300436024
 10
40.8315129771
 20
-5.1913472769
 10
40.8489056198
 20
-5.0776861397
 10
40.8590652399
 20
-4.9598236051
 10
40.8617832218
 20
-4.8580353674
  0
LINE
  5
530
100
AcDbEntity
  8
RACCORDO
100
AcDbLine
 62
253
  6
CONTINUOUS
 10
20.2358254131
 20
-22.7512539781
 11
19.7075582413
 21
-23.0634081124
  0
LINE
  5
531
100
AcDbEntity
  8
RACCORDO
100
AcDbLine
 62
7
  6
CONTINUOUS
 10
20.1852044687
 20
-22.8650131645
 11
19.6560904257
 21
-23.1776677167
  0
LINE
  5
532
100
AcDbEntity
  8
RACCORDO
100
AcDbLine
 62
7
  6
CONTINUOUS
 10
19.6546312233
 20
-23.1784987976
 11
19.656085446
 21
-23.1776591479
  0
LINE
  5
533
100
AcDbEntity
  8
RACCORDO
100
AcDbLine
 62
253
  6
CONTINUOUS
 10
20.0503419902
 20
-21.3407400037
 11
20.7682184131
 21
-20.9333592617
  0
LINE
  5
534
100
AcDbEntity
  8
RACCORDO
100
AcDbLine
 62
7
  6
CONTINUOUS
 10
19.9419848383
 20
-21.5723578531
 11
20.6635769365
 21
-21.1628685384
  0
LINE
  5
535
100
AcDbEntity
  8
RACCORDO
100
AcDbLine
 62
253
  6
CONTINUOUS
 10
19.7075582413
 20
-23.0634081124
 11
18.1062774505
 21
-23.9665773383
  0
LINE
  5
536
100
AcDbEntity
  8
RACCORDO
100
AcDbLine
 62
7
  6
CONTINUOUS
 10
19.6546312233
 20
-23.1784987976
 11
18.0533503744
 21
-24.0816680562
  0
LWPOLYLINE
  5
537
100
AcDbEntity
  8
RACCORDO
100
AcDbPolyline
 62
253
  6
CONTINUOUS
 90
8
 70
0
 10
14.4282502982
 20
-24.3190307875
 10
14.4377353419
 20
-24.3139428574
 10
14.4695097214
 20
-24.2907177262
 10
14.4967689217
 20
-24.2603278173
 10
14.5190471565
 20
-24.2232926166
 10
14.5359637775
 20
-24.1802451628
 10
14.5472297762
 20
-24.1319212224
 10
14.5526527177
 20
-24.0791467144
  0
LINE
  5
538
100
AcDbEntity
  8
RACCORDO
100
AcDbLine
 62
7
  6
CONTINUOUS
 10
19.9419882806
 20
-21.5723558996
 11
19.9339754073
 21
-21.5766209879
  0
LINE
  5
539
100
AcDbEntity
  8
RACCORDO
100
AcDbLine
 62
253
  6
CONTINUOUS
 10
18.0822337837
 20
-23.9786506693
 11
18.1062774505
 21
-23.9665773383
  0
LINE
  5
53A
100
AcDbEntity
  8
RACCORDO
100
AcDbLine
 62
253
  6
CONTINUOUS
 10
20.0503419902
 20
-21.3407400037
 11
14.5526527177
 21
-24.0791467144
  0
LINE
  5
53B
100
AcDbEntity
  8
RACCORDO
100
AcDbLine
 62
7
  6
CONTINUOUS
 10
19.9339693382
 20
-21.5766244383
 11
14.4282502982
 21
-24.3190307875
  0
LWPOLYLINE
  5
53C
100
AcDbEntity
  8
RACCORDO
100
AcDbPolyline
 62
7
  6
CONTINUOUS
 90
9
 70
0
 10
18.0533503744
 20
-24.0816680562
 10
18.0248070509
 20
-24.0954589545
 10
17.9943157207
 20
-24.1056424977
 10
17.9624315779
 20
-24.1118731151
 10
17.9297404716
 20
-24.1139153179
 10
17.8969546598
 20
-24.1116514237
 10
17.8647832964
 20
-24.1051158703
 10
17.8335491683
 20
-24.0943384949
 10
17.805487285
 20
-24.080397021
  0
LWPOLYLINE
  5
53D
100
AcDbEntity
  8
RACCORDO
100
AcDbPolyline
 62
253
  6
CONTINUOUS
 90
19
 70
0
 10
14.5526527177
 20
-24.0791467144
 10
14.5040051046
 20
-24.1014627522
 10
14.4561562182
 20
-24.1197420861
 10
14.4091060585
 20
-24.1339847163
 10
14.3626440653
 20
-24.1442236882
 10
14.3169807987
 20
-24.1504259563
 10
14.2727479391
 20
-24.1524923839
 10
14.2299642563
 20
-24.1503636462
 10
14.1886109805
 20
-24.144099068
 10
14.1492634825
 20
-24.1337774862
 10
14.1119502502
 20
-24.1193370945
 10
14.0766427958
 20
-24.1008396992
 10
14.0438310265
 20
-24.0785495567
 10
14.0135537532
 20
-24.0524119854
 10
13.9857721651
 20
-24.0224816669
 10
13.9608597362
 20
-23.9891869021
 10
13.9389409581
 20
-23.952670458
 10
13.9198913392
 20
-23.9127895677
 10
13.9037108796
 20
-23.869544231
  0
LWPOLYLINE
  5
53E
100
AcDbEntity
  8
RACCORDO
100
AcDbPolyline
 62
7
  6
CONTINUOUS
 90
8
 70
0
 10
-1.8815527459
 20
31.3966849911
 10
-1.8747673877
 20
31.3958550775
 10
-1.867515296
 20
31.394439386
 10
-1.859784859
 20
31.3923881527
 10
-1.8515513388
 20
31.3896170038
 10
-1.8428065788
 20
31.3860586557
 10
-1.833565309
 20
31.3816744499
 10
-1.8238432458
 20
31.3764180179
  0
LINE
  5
53F
100
AcDbEntity
  8
RACCORDO
100
AcDbLine
 62
7
  6
CONTINUOUS
 10
-13.0333591542
 20
36.3276068481
 11
-13.0021250261
 21
36.3168294728
  0
LWPOLYLINE
  5
540
100
AcDbEntity
  8
RACCORDO
100
AcDbPolyline
 62
7
  6
CONTINUOUS
 90
15
 70
0
 10
-0.7247936426
 20
31.4504844853
 10
-0.7957746193
 20
31.476553838
 10
-0.8693886603
 20
31.4986147506
 10
-0.9451868562
 20
31.5166546739
 10
-1.0226152037
 20
31.5306456288
 10
-1.101110521
 20
31.540583482
 10
-1.1803120523
 20
31.5465000908
 10
-1.2599093967
 20
31.5484132941
 10
-1.3394532579
 20
31.5463263676
 10
-1.418488433
 20
31.5402502621
 10
-1.496697239
 20
31.5301832229
 10
-1.5736999757
 20
31.5161152776
 10
-1.6489763706
 20
31.4980634749
 10
-1.7220548229
 20
31.4760493594
 10
-1.7925180735
 20
31.4500817445
  0
LWPOLYLINE
  5
541
100
AcDbEntity
  8
RACCORDO
100
AcDbPolyline
 62
253
  6
CONTINUOUS
 90
7
 70
0
 10
-12.9741020039
 20
36.3029104508
 10
-12.991691825
 20
36.3105414368
 10
-13.0110165148
 20
36.3142389625
 10
-13.0317142466
 20
36.3140219976
 10
-13.0533547054
 20
36.3099873726
 10
-13.0756026333
 20
36.3022844255
 10
-13.0980796046
 20
36.29111551
  0
LWPOLYLINE
  5
542
100
AcDbEntity
  8
RACCORDO
100
AcDbPolyline
 62
253
  6
CONTINUOUS
 90
7
 70
0
 10
2.8016400628
 20
29.4266110477
 10
2.7877319183
 20
29.4326641955
 10
2.7723507262
 20
29.4356501837
 10
2.755759666
 20
29.4355179251
 10
2.7382426171
 20
29.4322696875
 10
2.7200993008
 20
29.4259610536
 10
2.7016401538
 20
29.41669997
  0
LWPOLYLINE
  5
543
100
AcDbEntity
  8
RACCORDO
100
AcDbPolyline
 62
253
  6
CONTINUOUS
 90
7
 70
0
 10
-0.5924675639
 20
31.3863262535
 10
-0.606380529
 20
31.3923822118
 10
-0.6217617178
 20
31.3953682221
 10
-0.6383527859
 20
31.3952359827
 10
-0.6558698555
 20
31.391987756
 10
-0.6740132048
 20
31.3856791203
 10
-0.6924723959
 20
31.3764180179
  0
LWPOLYLINE
  5
544
100
AcDbEntity
  8
RACCORDO
100
AcDbPolyline
 62
253
  6
CONTINUOUS
 90
7
 70
0
 10
-16.5023701406
 20
40.5725046033
 10
-16.5162831057
 20
40.5785605617
 10
-16.5316642945
 20
40.581546572
 10
-16.5482553626
 20
40.5814143325
 10
-16.5657724322
 20
40.5781661059
 10
-16.5839157815
 20
40.5718574701
 10
-16.6023749726
 20
40.5625963678
  0
LWPOLYLINE
  5
545
100
AcDbEntity
  8
RACCORDO
100
AcDbPolyline
 62
253
  6
CONTINUOUS
 90
7
 70
0
 10
-25.0010940077
 20
43.2471449002
 10
-25.0180098812
 20
43.2545666708
 10
-25.0371185933
 20
43.2583926489
 10
-25.0577385619
 20
43.2583505224
 10
-25.0795195785
 20
43.2544410066
 10
-25.1020917153
 20
43.2467305007
 10
-25.1250716084
 20
43.2353499594
  0
LWPOLYLINE
  5
546
100
AcDbEntity
  8
RACCORDO
100
AcDbPolyline
 62
253
  6
CONTINUOUS
 90
7
 70
0
 10
-26.3384201683
 20
44.0193002647
 10
-26.3553360417
 20
44.0267220352
 10
-26.3744447539
 20
44.0305480134
 10
-26.3950647225
 20
44.0305058868
 10
-26.416845739
 20
44.0265963711
 10
-26.4394178759
 20
44.0188858652
 10
-26.462397769
 20
44.0075053239
  0
LWPOLYLINE
  5
547
100
AcDbEntity
  8
RACCORDO
100
AcDbPolyline
 62
253
  6
CONTINUOUS
 90
7
 70
0
 10
-11.6368084967
 20
35.5307739301
 10
-11.6532596838
 20
35.5380395941
 10
-11.6724372514
 20
35.5419675765
 10
-11.6931418294
 20
35.5419863468
 10
-11.7150144673
 20
35.5381000435
 10
-11.737681318
 20
35.5303793135
 10
-11.760753444
 20
35.5189601455
  0
LINE
  5
548
100
AcDbEntity
  8
RACCORDO
100
AcDbLine
 62
7
  6
CONTINUOUS
 10
-0.6568655364
 20
31.4204038106
 11
-0.7247936426
 21
31.4504844853
  0
LINE
  5
549
100
AcDbEntity
  8
RACCORDO
100
AcDbLine
 62
7
  6
CONTINUOUS
 10
-16.5667681131
 20
40.6065821604
 11
-16.6346962193
 21
40.6366628352
  0
LWPOLYLINE
  5
54A
100
AcDbEntity
  8
RACCORDO
100
AcDbPolyline
 62
7
  6
CONTINUOUS
 90
7
 70
0
 10
-26.3384201683
 20
44.0193002647
 10
-26.366911885
 20
44.0334152378
 10
-26.3973998454
 20
44.0439203147
 10
-26.4293268035
 20
44.0504609442
 10
-26.4621014412
 20
44.052793853
 10
-26.4950073036
 20
44.0507946239
 10
-26.5273326314
 20
44.0444913585
  0
LWPOLYLINE
  5
54B
100
AcDbEntity
  8
RACCORDO
100
AcDbPolyline
 62
7
  6
CONTINUOUS
 90
7
 70
0
 10
-26.9968476477
 20
43.7060599522
 10
-27.0200461707
 20
43.717562607
 10
-27.0428301831
 20
43.7253863168
 10
-27.0648098605
 20
43.7293972216
 10
-27.0856091396
 20
43.7295266975
 10
-27.1048721551
 20
43.7257725285
 10
-27.1215461284
 20
43.718611628
  0
LINE
  5
54C
100
AcDbEntity
  8
RACCORDO
100
AcDbLine
 62
7
  6
CONTINUOUS
 10
-13.0021250261
 20
36.3168294728
 11
-12.9740631428
 21
36.3028879989
  0
LWPOLYLINE
  5
54D
100
AcDbEntity
  8
RACCORDO
100
AcDbPolyline
 62
7
  6
CONTINUOUS
 90
13
 70
0
 10
17.6266425221
 20
24.658885471
 10
17.5953903893
 20
24.6747742857
 10
17.5598648131
 20
24.6882649124
 10
17.5226668134
 20
24.6979336758
 10
17.4837752035
 20
24.7037321591
 10
17.4432111702
 20
24.705708779
 10
17.4014864311
 20
24.7038386003
 10
17.358586282
 20
24.6980728906
 10
17.3145254271
 20
24.6884603823
 10
17.2698596967
 20
24.6751223377
 10
17.2247743675
 20
24.6580991777
 10
17.1790841627
 20
24.6373504815
 10
17.1327890824
 20
24.6128762491
  0
LWPOLYLINE
  5
54E
100
AcDbEntity
  8
RACCORDO
100
AcDbPolyline
 62
253
  6
CONTINUOUS
 90
7
 70
0
 10
-26.462397769
 20
44.0075053239
 10
-26.4848441971
 20
44.0189362133
 10
-26.5070924579
 20
44.0268718465
 10
-26.5287620557
 20
44.0311046296
 10
-26.5495152025
 20
44.0314812045
 10
-26.5689187877
 20
44.0279009428
 10
-26.5862443966
 20
44.0205488479
  0
LWPOLYLINE
  5
54F
100
AcDbEntity
  8
0
100
AcDbPolyline
 62
7
  6
CONTINUOUS
 90
19
 70
0
 10
15.4295622151
 20
22.7209650754
 10
15.3643126407
 20
22.7553372123
 10
15.295277047
 20
22.785923086
 10
15.2224554339
 20
22.8127226964
 10
15.1452390578
 20
22.8358816318
 10
15.0642366623
 20
22.855254304
 10
14.9812744791
 20
22.8704039483
 10
14.8963079892
 20
22.8812346339
 10
14.8093817116
 20
22.8878422916
 10
14.7224554339
 20
22.8900779492
 10
14.6355291563
 20
22.8878422916
 10
14.5486028787
 20
22.8812346339
 10
14.4636363888
 20
22.8704039483
 10
14.3806742056
 20
22.855254304
 10
14.2996718101
 20
22.8358816318
 10
14.2224554339
 20
22.8127226964
 10
14.1496338209
 20
22.785923086
 10
14.0805982272
 20
22.7553372123
 10
14.0153486528
 20
22.7209650754
  0
LWPOLYLINE
  5
550
100
AcDbEntity
  8
0
100
AcDbPolyline
 62
7
  6
CONTINUOUS
 90
19
 70
0
 10
-16.3902429383
 20
41.0933217752
 10
-16.4554925127
 20
41.1276939121
 10
-16.5245281064
 20
41.1582797857
 10
-16.5973497194
 20
41.1850793962
 10
-16.6745660956
 20
41.2082383316
 10
-16.7555684911
 20
41.2276110038
 10
-16.8385306743
 20
41.2427606481
 10
-16.9234971642
 20
41.2535913337
 10
-17.0104234418
 20
41.2601989914
 10
-17.0973497194
 20
41.2624346489
 10
-17.1842759971
 20
41.2601989914
 10
-17.2712022747
 20
41.2535913337
 10
-17.3561687645
 20
41.2427606481
 10
-17.4391309478
 20
41.2276110038
 10
-17.5201333433
 20
41.2082383316
 10
-17.5973497194
 20
41.1850793962
 10
-17.6701713325
 20
41.1582797857
 10
-17.7392069262
 20
41.1276939121
 10
-17.8044565006
 20
41.0933217752
  0
LINE
  5
551
100
AcDbEntity
  8
RACCORDO
100
AcDbLine
 62
7
  6
CONTINUOUS
 10
15.3174350128
 20
22.2001479036
 11
15.2530370403
 21
22.2342254607
  0
LINE
  5
552
100
AcDbEntity
  8
RACCORDO
100
AcDbLine
 62
7
  6
CONTINUOUS
 10
-0.5924675639
 20
31.3863262535
 11
-0.6568655364
 21
31.4204038106
  0
LINE
  5
553
100
AcDbEntity
  8
RACCORDO
100
AcDbLine
 62
7
  6
CONTINUOUS
 10
-16.5023701406
 20
40.5725046033
 11
-16.5667681131
 21
40.6065821604
  0
LINE
  5
554
100
AcDbEntity
  8
RACCORDO
100
AcDbLine
 62
253
  6
CONTINUOUS
 10
-16.6023749726
 20
40.5625963678
 11
-14.1806625903
 21
39.1643299894
  0
LINE
  5
555
100
AcDbEntity
  8
RACCORDO
100
AcDbLine
 62
253
  6
CONTINUOUS
 10
-0.6924723959
 20
31.3764180179
 11
2.7016401538
 21
29.41669997
  0
LINE
  5
556
100
AcDbEntity
  8
RACCORDO
100
AcDbLine
 62
253
  6
CONTINUOUS
 10
15.2174301808
 20
22.1902396681
 11
17.6391425631
 21
20.7919732897
  0
LINE
  5
557
100
AcDbEntity
  8
RACCORDO
100
AcDbLine
 62
7
  6
CONTINUOUS
 10
-16.5023701406
 20
40.5725046033
 11
-14.1217371584
 21
39.1979569558
  0
LINE
  5
558
100
AcDbEntity
  8
RACCORDO
100
AcDbLine
 62
7
  6
CONTINUOUS
 10
-0.5924675639
 20
31.3863262535
 11
2.8016449855
 21
29.4266082057
  0
LINE
  5
559
100
AcDbEntity
  8
RACCORDO
100
AcDbLine
 62
7
  6
CONTINUOUS
 10
15.3174350128
 20
22.2001479036
 11
17.698067995
 21
20.825600256
  0
LINE
  5
55A
100
AcDbEntity
  8
ASSI
100
AcDbLine
 62
7
  6
CONTINUOUS
 10
18.2081104933
 20
21.116666123
 11
15.4295622151
 21
22.7209650754
  0
LINE
  5
55B
100
AcDbEntity
  8
0
100
AcDbLine
 62
7
  6
CONTINUOUS
 10
15.0760088245
 20
22.9251023721
 11
14.7224554339
 21
23.1292396688
  0
LINE
  5
55C
100
AcDbEntity
  8
ASSI
100
AcDbLine
 62
7
  6
CONTINUOUS
 10
-13.6116946601
 20
39.4890228228
 11
-16.3902429383
 21
41.0933217752
  0
LINE
  5
55D
100
AcDbEntity
  8
0
100
AcDbLine
 62
7
  6
CONTINUOUS
 10
-16.7437963289
 20
41.2974590719
 11
-17.0973497194
 21
41.5015963685
  0
LINE
  5
55E
100
AcDbEntity
  8
0
100
AcDbLine
 62
7
  6
CONTINUOUS
 10
-5.2282645792
 20
34.9633228821
 11
-5.1826004565
 21
34.9369569899
  0
LINE
  5
55F
100
AcDbEntity
  8
DRAFT
100
AcDbLine
 62
7
  6
CONTINUOUS
 10
15.0760088245
 20
23.4460424459
 11
14.7224554339
 21
23.6501797426
  0
LINE
  5
560
100
AcDbEntity
  8
DRAFT
100
AcDbLine
 62
7
  6
CONTINUOUS
 10
-16.7437963289
 20
41.8183991457
 11
-17.0973497194
 21
42.0225364423
  0
LINE
  5
561
100
AcDbEntity
  8
DRAFT
100
AcDbLine
 62
7
  6
CONTINUOUS
 10
7.9875810821
 20
28.5902516245
 11
0.102704994
 21
33.1428802571
  0
LINE
  5
562
100
AcDbEntity
  8
DRAFT
100
AcDbLine
 62
7
  6
CONTINUOUS
 10
12.131206899
 20
26.2057105449
 11
9.6415953931
 21
27.6431810263
  0
LINE
  5
563
100
AcDbEntity
  8
DRAFT
100
AcDbLine
 62
7
  6
CONTINUOUS
 10
-5.2282645792
 20
36.2288518111
 11
-7.7178760851
 21
37.6663222925
  0
LINE
  5
564
100
AcDbEntity
  8
0
100
AcDbLine
 62
7
  6
CONTINUOUS
 10
-6.9979187256
 20
37.2802081613
 11
-6.6321424334
 21
37.0690135144
  0
LINE
  5
565
100
AcDbEntity
  8
0
100
AcDbLine
 62
7
  6
CONTINUOUS
 10
-4.0512026821
 20
35.5788112487
 11
-3.3289229043
 21
35.1617759573
  0
LINE
  5
566
100
AcDbEntity
  8
0
100
AcDbLine
 62
7
  6
CONTINUOUS
 10
10.0050492669
 20
27.4629075396
 11
10.7273290447
 21
27.0458722482
  0
LINE
  5
567
100
AcDbEntity
  8
0
100
AcDbLine
 62
7
  6
CONTINUOUS
 10
19.614073865
 20
21.9190070045
 11
16.4737933311
 21
23.7321656278
  0
LINE
  5
568
100
AcDbEntity
  8
0
100
AcDbLine
 62
7
  6
CONTINUOUS
 10
-12.2057312884
 20
40.2913637042
 11
-15.3460118223
 21
42.1045223276
  0
LINE
  5
569
100
AcDbEntity
  8
0
100
AcDbLine
 62
7
  6
CONTINUOUS
 10
-13.9860798822
 20
42.3182007921
 11
-10.6735365323
 21
40.4055797777
  0
LINE
  5
56A
100
AcDbEntity
  8
0
100
AcDbLine
 62
7
  6
CONTINUOUS
 10
17.8337252712
 20
23.9458440923
 11
21.1462686211
 21
22.033223078
  0
LINE
  5
56B
100
AcDbEntity
  8
RACCORDO
100
AcDbLine
 62
253
  6
CONTINUOUS
 10
-17.7539820149
 20
44.7560606467
 11
-14.687016071
 21
42.9852329488
  0
LINE
  5
56C
100
AcDbEntity
  8
RACCORDO
100
AcDbLine
 62
253
  6
CONTINUOUS
 10
-10.4443753839
 20
40.5355853889
 11
-7.3774094399
 21
38.764757691
  0
LINE
  5
56D
100
AcDbEntity
  8
RACCORDO
100
AcDbLine
 62
253
  6
CONTINUOUS
 10
14.0658231385
 20
26.383703947
 11
17.1327890824
 21
24.6128762491
  0
LINE
  5
56E
100
AcDbEntity
  8
RACCORDO
100
AcDbLine
 62
253
  6
CONTINUOUS
 10
21.3754297695
 20
22.1632286891
 11
24.4423957134
 21
20.3924009912
  0
LINE
  5
56F
100
AcDbEntity
  8
RACCORDO
100
AcDbLine
 62
7
  6
CONTINUOUS
 10
-17.4672324652
 20
44.9216493548
 11
-14.1931625033
 21
43.0312423925
  0
LINE
  5
570
100
AcDbEntity
  8
RACCORDO
100
AcDbLine
 62
7
  6
CONTINUOUS
 10
-9.9505218162
 20
40.5815948325
 11
-6.6764518542
 21
38.6911878702
  0
LINE
  5
571
100
AcDbEntity
  8
RACCORDO
100
AcDbLine
 62
7
  6
CONTINUOUS
 10
14.3525726882
 20
26.549292655
 11
17.6266426501
 21
24.6588856927
  0
LINE
  5
572
100
AcDbEntity
  8
RACCORDO
100
AcDbLine
 62
7
  6
CONTINUOUS
 10
21.8692833372
 20
22.2092381328
 11
25.1433532992
 21
20.3188311705
  0
LWPOLYLINE
  5
573
100
AcDbEntity
  8
RACCORDO
100
AcDbPolyline
 62
253
  6
CONTINUOUS
 90
5
 70
0
 10
2.7016401538
 20
29.41669997
 10
2.7268038618
 20
29.4019552305
 10
2.7515797245
 20
29.3854606609
 10
2.7759677419
 20
29.3672162611
 10
2.8004151124
 20
29.3471452542
  0
LINE
  5
574
100
AcDbEntity
  8
0
100
AcDbLine
 62
7
  6
CONTINUOUS
 10
-5.9250625767
 20
36.6536773282
 11
-6.6321424334
 21
37.0690135144
  0
LINE
  5
575
100
AcDbEntity
  8
0
100
AcDbLine
 62
7
  6
CONTINUOUS
 10
11.4344089014
 20
26.630536062
 11
10.7273290447
 21
27.0458722482
  0
LINE
  5
576
100
AcDbEntity
  8
0
100
AcDbLine
 62
7
  6
CONTINUOUS
 10
-2.62801364
 20
34.7500025939
 11
-3.3289229043
 21
35.1617759573
  0
LWPOLYLINE
  5
577
100
AcDbEntity
  8
RACCORDO
100
AcDbPolyline
 62
253
  6
CONTINUOUS
 90
6
 70
0
 10
-13.8574827711
 20
33.6221709745
 10
-13.8255052784
 20
33.6257738328
 10
-13.7946108129
 20
33.6317471785
 10
-13.7653240846
 20
33.6399895606
 10
-13.7381424977
 20
33.6503609908
 10
-13.7135277029
 20
33.6626853214
  0
LINE
  5
578
100
AcDbEntity
  8
RACCORDO
100
AcDbLine
 62
253
  6
CONTINUOUS
 10
-33.0508172535
 20
30.537033771
 11
-35.7310223013
 21
30.383841086
  0
LINE
  5
579
100
AcDbEntity
  8
RACCORDO
100
AcDbLine
 62
7
  6
CONTINUOUS
 10
-11.5642484101
 20
34.8836628305
 11
-11.5839797403
 21
34.8851338091
  0
LINE
  5
57A
100
AcDbEntity
  8
RACCORDO
100
AcDbLine
 62
7
  6
CONTINUOUS
 10
-13.9121962777
 20
33.516399225
 11
-13.2844373263
 21
33.4585944576
  0
LINE
  5
57B
100
AcDbEntity
  8
RACCORDO
100
AcDbLine
 62
253
  6
CONTINUOUS
 10
-13.7135277029
 20
33.6626853214
 11
-13.0023070948
 21
33.5971953085
  0
LWPOLYLINE
  5
57C
100
AcDbEntity
  8
RACCORDO
100
AcDbPolyline
 62
253
  6
CONTINUOUS
 90
4
 70
0
 10
-13.9544459006
 20
33.6259903959
 10
-13.9225052514
 20
33.6222801834
 10
-13.8900001868
 20
33.6209997943
 10
-13.8574827711
 20
33.6221709745
  0
LWPOLYLINE
  5
57D
100
AcDbEntity
  8
RACCORDO
100
AcDbPolyline
 62
7
  6
CONTINUOUS
 90
15
 70
0
 10
-16.6346962193
 20
40.6366628352
 10
-16.705677196
 20
40.6627321879
 10
-16.779291237
 20
40.6847931005
 10
-16.8550894329
 20
40.7028330237
 10
-16.9325177804
 20
40.7168239787
 10
-17.0110130977
 20
40.7267618319
 10
-17.090214629
 20
40.7326784407
 10
-17.1698119734
 20
40.7345916439
 10
-17.2493558346
 20
40.7325047175
 10
-17.3283910097
 20
40.7264286119
 10
-17.4065998157
 20
40.7163615728
 10
-17.4836025524
 20
40.7022936275
 10
-17.5588789473
 20
40.6842418248
 10
-17.6319573996
 20
40.6622277092
 10
-17.7024206502
 20
40.6362600943
  0
LWPOLYLINE
  5
57E
100
AcDbEntity
  8
RACCORDO
100
AcDbPolyline
 62
7
  6
CONTINUOUS
 90
13
 70
0
 10
-14.1931626313
 20
43.0312421708
 10
-14.2244147641
 20
43.0471309854
 10
-14.2599403403
 20
43.0606216122
 10
-14.29713834
 20
43.0702903755
 10
-14.3360299499
 20
43.0760888588
 10
-14.3765939832
 20
43.0780654787
 10
-14.4183187223
 20
43.0761953001
 10
-14.4612188714
 20
43.0704295903
 10
-14.5052797263
 20
43.060817082
 10
-14.5499454567
 20
43.0474790375
 10
-14.5950307859
 20
43.0304558775
 10
-14.6407209907
 20
43.0097071813
 10
-14.687016071
 20
42.9852329488
  0
LWPOLYLINE
  5
57F
100
AcDbEntity
  8
0
100
AcDbPolyline
 62
253
  6
CONTINUOUS
 90
10
 70
0
 10
40.8617831254
 20
23.2324914894
 10
40.8587761736
 20
23.1880154319
 10
40.8483870485
 20
23.1385666892
 10
40.8306551016
 20
23.0898189718
 10
40.8057123033
 20
23.0421350858
 10
40.7737442909
 20
22.9958699196
 10
40.7349889872
 20
22.9513678028
 10
40.6897348293
 20
22.9089599435
 10
40.6383186223
 20
22.8689619631
 10
40.5811230327
 20
22.8316715474
  0
LWPOLYLINE
  5
580
100
AcDbEntity
  8
RACCORDO
100
AcDbPolyline
 62
7
  6
CONTINUOUS
 90
3
 70
0
 10
-17.3749935556
 20
36.7681917821
 10
-17.4113932295
 20
36.7599951323
 10
-17.4462235496
 20
36.7519678014
  0
LWPOLYLINE
  5
581
100
AcDbEntity
  8
RACCORDO
100
AcDbPolyline
 62
7
  6
CONTINUOUS
 90
5
 70
0
 10
-17.4462235496
 20
36.7519678014
 10
-17.5109022901
 20
36.7377527799
 10
-17.5404727133
 20
36.7314365107
 10
-17.5682795283
 20
36.7261203969
 10
-17.5943873631
 20
36.722021957
  0
LWPOLYLINE
  5
582
100
AcDbEntity
  8
RACCORDO
100
AcDbPolyline
 62
7
  6
CONTINUOUS
 90
5
 70
0
 10
-17.1715649832
 20
36.8035406506
 10
-17.21453612
 20
36.7992886175
 10
-17.2566758241
 20
36.7926419768
 10
-17.2975910294
 20
36.784575538
 10
-17.3749935556
 20
36.7681917821
  0
LINE
  5
583
100
AcDbEntity
  8
RACCORDO
100
AcDbLine
 62
7
  6
CONTINUOUS
 10
-27.2765144421
 20
41.2327890389
 11
-26.6487554908
 21
41.1749842715
  0
LINE
  5
584
100
AcDbEntity
  8
RACCORDO
100
AcDbLine
 62
253
  6
CONTINUOUS
 10
-27.0778458673
 20
41.3790751352
 11
-26.3666252592
 21
41.3135851224
  0
LWPOLYLINE
  5
585
100
AcDbEntity
  8
RACCORDO
100
AcDbPolyline
 62
253
  6
CONTINUOUS
 90
4
 70
0
 10
-27.3187640651
 20
41.3423802098
 10
-27.2868234158
 20
41.3386699973
 10
-27.2543183512
 20
41.3373896082
 10
-27.2218009355
 20
41.3385607884
  0
LWPOLYLINE
  5
586
100
AcDbEntity
  8
RACCORDO
100
AcDbPolyline
 62
7
  6
CONTINUOUS
 90
8
 70
0
 10
-17.7914553226
 20
40.582863341
 10
-17.7846699644
 20
40.5820334274
 10
-17.7774178727
 20
40.5806177358
 10
-17.7696874357
 20
40.5785665026
 10
-17.7614539155
 20
40.5757953537
 10
-17.7527091555
 20
40.5722370056
 10
-17.7434678857
 20
40.5678527997
 10
-17.7337458225
 20
40.5625963678
  0
LWPOLYLINE
  5
587
100
AcDbEntity
  8
0
100
AcDbPolyline
 62
7
  6
CONTINUOUS
 90
22
 70
0
 10
40.8617831254
 20
23.2324914894
 10
40.861137523
 20
23.2829186652
 10
40.8541449824
 20
23.4069356627
 10
40.8397320956
 20
23.5309386279
 10
40.8181142174
 20
23.6549076482
 10
40.7895136132
 20
23.7785661974
 10
40.7542506314
 20
23.90121878
 10
40.7124953412
 20
24.0227625604
 10
40.6643844566
 20
24.1430013863
 10
40.6103641173
 20
24.2609819617
 10
40.5505906219
 20
24.3765228108
 10
40.4851671988
 20
24.4894187963
 10
40.4146644121
 20
24.5986958713
 10
40.3392088575
 20
24.7041533806
 10
40.2588886261
 20
24.8055738694
 10
40.174298822
 20
24.9020983303
 10
40.0855472532
 20
24.9935226242
 10
39.9926457415
 20
25.0796391314
 10
39.8960356769
 20
25.1598362755
 10
39.7958362982
 20
25.2337974433
 10
39.6919532553
 20
25.3013288716
 10
39.6545709991
 20
25.3234652631
  0
LINE
  5
588
100
AcDbEntity
  8
0
100
AcDbLine
 62
253
  6
CONTINUOUS
 10
40.5811230327
 20
22.8316715474
 11
40.5811230327
 21
-5.2590383366
  0
LINE
  5
589
100
AcDbEntity
  8
0
100
AcDbLine
 62
7
  6
CONTINUOUS
 10
40.8617832324
 20
23.2327585844
 11
40.8617832324
 21
-4.8579513108
  0
LWPOLYLINE
  5
58A
100
AcDbEntity
  8
0
100
AcDbPolyline
 62
253
  6
CONTINUOUS
 90
14
 70
0
 10
40.5811230327
 20
-5.2590383366
 10
40.5793026367
 20
-5.3546425517
 10
40.5725437892
 20
-5.4456325874
 10
40.5610984325
 20
-5.5318466618
 10
40.5453313734
 20
-5.6127082242
 10
40.5254608154
 20
-5.6886231142
 10
40.5013027989
 20
-5.7607611787
 10
40.4727265717
 20
-5.829296682
 10
40.4399452364
 20
-5.8935385489
 10
40.4030990527
 20
-5.953197505
 10
40.3623307507
 20
-6.0080566544
 10
40.3177496095
 20
-6.0579810738
 10
40.2694740216
 20
-6.1028357712
 10
40.2179813489
 20
-6.142218275
  0
LWPOLYLINE
  5
58B
100
AcDbEntity
  8
0
100
AcDbPolyline
 62
253
  6
CONTINUOUS
 90
10
 70
0
 10
40.8617832218
 20
-4.8580353674
 10
40.8587762566
 20
-4.9026938464
 10
40.8483872132
 20
-4.9521426304
 10
40.8306553304
 20
-5.000890405
 10
40.8057125725
 20
-5.0485743626
 10
40.7737445713
 20
-5.0948396119
 10
40.734989248
 20
-5.1393418172
 10
40.6897350385
 20
-5.1817497663
 10
40.638318745
 20
-5.2217478359
 10
40.5811230327
 20
-5.2590383366
  0
LINE
  5
58C
100
AcDbEntity
  8
0
100
AcDbLine
 62
7
  6
CONTINUOUS
 10
-15.3460118223
 20
42.1045223276
 11
-13.9860798822
 21
42.3182007921
  0
LWPOLYLINE
  5
58D
100
AcDbEntity
  8
RACCORDO
100
AcDbPolyline
 62
253
  6
CONTINUOUS
 90
6
 70
0
 10
-27.2218009355
 20
41.3385607884
 10
-27.1898234428
 20
41.3421636467
 10
-27.1589289774
 20
41.3481369924
 10
-27.129642249
 20
41.3563793745
 10
-27.1024606621
 20
41.3667508047
 10
-27.0778458673
 20
41.3790751352
  0
LWPOLYLINE
  5
58E
100
AcDbEntity
  8
0
100
AcDbPolyline
 62
253
  6
CONTINUOUS
 90
10
 70
0
 10
39.6545709991
 20
25.3234652631
 10
39.6145349922
 20
25.343105144
 10
39.5665193255
 20
25.3588275823
 10
39.5154392914
 20
25.3678404986
 10
39.4616750525
 20
25.3700768084
 10
39.4056267496
 20
25.3655198623
 10
39.3477115279
 20
25.3542035714
 10
39.288360425
 20
25.3362121544
 10
39.2280151622
 20
25.3116795095
 10
39.1671248619
 20
25.2807882185
  0
LWPOLYLINE
  5
58F
100
AcDbEntity
  8
0
100
AcDbPolyline
 62
253
  6
CONTINUOUS
 90
10
 70
0
 10
-4.4015898612
 20
50.7609405102
 10
-4.4417969068
 20
50.7806789311
 10
-4.4898125778
 20
50.7964012776
 10
-4.5408925931
 20
50.805414109
 10
-4.5946567885
 20
50.8076503469
 10
-4.6507050226
 20
50.8030933482
 10
-4.7086201552
 20
50.7917770285
 10
-4.7679711516
 20
50.7737856096
 10
-4.8283162906
 20
50.7492529932
 10
-4.8892064521
 20
50.7183617637
  0
LWPOLYLINE
  5
590
100
AcDbEntity
  8
0
100
AcDbPolyline
 62
7
  6
CONTINUOUS
 90
16
 70
0
 10
-4.4015898612
 20
50.7609405102
 10
-4.4924297312
 20
50.8101576572
 10
-4.5995023147
 20
50.8601539856
 10
-4.7065677022
 20
50.9018110587
 10
-4.8131248096
 20
50.9352315995
 10
-4.9190085075
 20
50.9606781641
 10
-5.0242350183
 20
50.9783967717
 10
-5.1283445473
 20
50.9885119263
 10
-5.230995581
 20
50.9912141353
 10
-5.3322193989
 20
50.9866810494
 10
-5.4315141885
 20
50.9750741133
 10
-5.5284830825
 20
50.9565992216
 10
-5.6232069787
 20
50.9313658252
 10
-5.715385682
 20
50.899514317
 10
-5.8044057421
 20
50.8613318769
 10
-5.8665136568
 20
50.8299773994
  0
LINE
  5
591
100
AcDbEntity
  8
0
100
AcDbLine
 62
253
  6
CONTINUOUS
 10
-4.8892064521
 20
50.7183617637
 11
39.1671248619
 21
25.2807882185
  0
LINE
  5
592
100
AcDbEntity
  8
0
100
AcDbLine
 62
7
  6
CONTINUOUS
 10
-4.4015230069
 20
50.7609019197
 11
39.6548083168
 21
25.3233283689
  0
LWPOLYLINE
  5
593
100
AcDbEntity
  8
0
100
AcDbPolyline
 62
253
  6
CONTINUOUS
 90
28
 70
0
 10
39.1671248619
 20
25.2807882185
 10
39.2522627905
 20
25.2295287808
 10
39.335760832
 20
25.1735139382
 10
39.4173523971
 20
25.1131885243
 10
39.4963493614
 20
25.0493710825
 10
39.5730054856
 20
24.9821670465
 10
39.6484440128
 20
24.9107154597
 10
39.722876922
 20
24.8347429528
 10
39.7955892806
 20
24.7549083803
 10
39.8662620087
 20
24.6715579277
 10
39.9346333394
 20
24.5850075411
 10
40.0005280898
 20
24.495484549
 10
40.0637714694
 20
24.4032265771
 10
40.1242162956
 20
24.3084322011
 10
40.1816054899
 20
24.2114850514
 10
40.2356312147
 20
24.1129224606
 10
40.2858430708
 20
24.0136820534
 10
40.3324480572
 20
23.9134832183
 10
40.3759891868
 20
23.8110013418
 10
40.4162943694
 20
23.7061729295
 10
40.4529037044
 20
23.5996826647
 10
40.4856801404
 20
23.4913212501
 10
40.5143480297
 20
23.3810735532
 10
40.5383936811
 20
23.2698040103
 10
40.5573492485
 20
23.15866311
 10
40.5709302746
 20
23.0483599147
 10
40.5789314517
 20
22.9391841672
 10
40.5811230327
 20
22.8316715474
  0
ELLIPSE
  5
594
100
AcDbEntity
  8
SUPERFICI
100
AcDbEllipse
 62
7
  6
CONTINUOUS
 10
-11.2100162221
 20
17.8293365768
 30
0.0
 11
-0.4214576756
 21
1.3324008006
 31
0.0
 40
0.2019085389
 41
-1.7880770106
 42
0.5681174795
  0
ELLIPSE
  5
595
100
AcDbEntity
  8
RACCORDO
100
AcDbEllipse
 62
7
  6
CONTINUOUS
 10
2.1359547288
 20
27.8771893535
 30
0.0
 11
0.9999644838
 21
-0.0148582918
 31
0.0
 40
0.5672251703
 41
-0.7769700665
 42
0.0084280965
  0
ELLIPSE
  5
596
100
AcDbEntity
  8
RACCORDO
100
AcDbEllipse
 62
7
  6
CONTINUOUS
 10
20.4146111664
 20
-20.7292530453
 30
0.0
 11
-0.250059698
 21
0.4329892314
 31
0.0
 40
0.5774195892
 41
-3.1459585943
 42
-2.3562809449
  0
ELLIPSE
  5
597
100
AcDbEntity
  8
RACCORDO
100
AcDbEllipse
 62
7
  6
CONTINUOUS
 10
20.4146111664
 20
15.017863532
 30
0.0
 11
-0.2500977477
 21
0.4330552017
 31
0.0
 40
0.5772437351
 41
-2.3564331449
 42
-0.7854845191
  0
ELLIPSE
  5
598
100
AcDbEntity
  8
RACCORDO
100
AcDbEllipse
 62
7
  6
CONTINUOUS
 10
5.7446556704
 20
9.1542796013
 30
0.0
 11
0.4094380711
 21
0.2259020232
 31
0.0
 40
0.4988162908
 41
0.1408808682
 42
0.2924097518
  0
ELLIPSE
  5
599
100
AcDbEntity
  8
ASSI
100
AcDbEllipse
 62
7
  6
CONTINUOUS
 10
24.7242903711
 20
19.2185136434
 30
0.0
 11
0.247841934
 21
0.4342563559
 31
0.0
 40
0.5739631936
 41
-2.3502947559
 42
-1.9045032386
  0
ELLIPSE
  5
59A
100
AcDbEntity
  8
ASSI
100
AcDbEllipse
 62
7
  6
CONTINUOUS
 10
-7.0955147823
 20
37.5908703432
 30
0.0
 11
0.247841934
 21
0.4342563559
 31
0.0
 40
0.5739631936
 41
-2.0299895499
 42
-1.9045032386
  0
ELLIPSE
  5
59B
100
AcDbEntity
  8
RACCORDO
100
AcDbEllipse
 62
7
  6
CONTINUOUS
 10
-6.8555438815
 20
37.7860119466
 30
0.0
 11
0.4999950703
 21
0.0038122721
 31
0.0
 40
0.5824033911
 41
-0.7723854459
 42
-0.0044405748
  0
ELLIPSE
  5
59C
100
AcDbEntity
  8
RACCORDO
100
AcDbEllipse
 62
7
  6
CONTINUOUS
 10
24.9642612719
 20
19.4136552468
 30
0.0
 11
0.4999950703
 21
0.0038122721
 31
0.0
 40
0.5824033911
 41
-0.7723854459
 42
-0.0044405748
  0
ELLIPSE
  5
59D
100
AcDbEntity
  8
RACCORDO
100
AcDbEllipse
 62
7
  6
CONTINUOUS
 10
5.320047647
 20
8.7864100949
 30
0.0
 11
0.3141917993
 21
0.1996574608
 31
0.0
 40
0.6780668331
 41
-2.8014109076
 42
-2.6071979316
  0
ELLIPSE
  5
59E
100
AcDbEntity
  8
RACCORDO
100
AcDbEllipse
 62
7
  6
CONTINUOUS
 10
-32.7496649447
 20
30.7673850198
 30
0.0
 11
0.3692465577
 21
0.1568403855
 31
0.0
 40
0.583851731
 41
2.0924936703
 42
3.5558639272
  0
ELLIPSE
  5
59F
100
AcDbEntity
  8
RACCORDO
100
AcDbEllipse
 62
7
  6
CONTINUOUS
 10
-32.3368913606
 20
31.1420875831
 30
0.0
 11
0.341604993
 21
0.2741829396
 31
0.0
 40
0.5684924196
 41
0.2175399517
 42
1.6570531074
  0
ELLIPSE
  5
5A0
100
AcDbEntity
  8
RACCORDO
100
AcDbEllipse
 62
7
  6
CONTINUOUS
 10
-22.7521410721
 20
40.2730407445
 30
0.0
 11
0.4999978344
 21
0.0025340295
 31
0.0
 40
0.5807363987
 41
2.3590690438
 42
2.9996644382
  0
ELLIPSE
  5
5A1
100
AcDbEntity
  8
RACCORDO
100
AcDbEllipse
 62
7
  6
CONTINUOUS
 10
9.0676640812
 20
21.9006840448
 30
0.0
 11
0.4999978344
 21
0.0025340295
 31
0.0
 40
0.5807363987
 41
2.3590690438
 42
2.9996644382
  0
ELLIPSE
  5
5A2
100
AcDbEntity
  8
RACCORDO
100
AcDbEllipse
 62
7
  6
CONTINUOUS
 10
4.1209645707
 20
8.9907345992
 30
0.0
 11
1.2567671971
 21
0.7986298431
 31
0.0
 40
0.6780668331
 41
-2.8014109076
 42
-1.3380406507
  0
ELLIPSE
  5
5A3
100
AcDbEntity
  8
RACCORDO
100
AcDbEllipse
 62
7
  6
CONTINUOUS
 10
20.3085990053
 20
21.9679258983
 30
0.0
 11
0.4279682183
 21
-0.0021438841
 31
0.0
 40
0.5740189913
 41
-0.7767048895
 42
2.3590699999
  0
ELLIPSE
  5
5A4
100
AcDbEntity
  8
RACCORDO
100
AcDbEllipse
 62
7
  6
CONTINUOUS
 10
14.7536105762
 20
25.175306597
 30
0.0
 11
0.4279682183
 21
-0.0021438841
 31
0.0
 40
0.5740189913
 41
-0.7825226537
 42
2.3532522358
  0
ELLIPSE
  5
5A5
100
AcDbEntity
  8
RACCORDO
100
AcDbEllipse
 62
7
  6
CONTINUOUS
 10
-11.5112061481
 20
40.3402825981
 30
0.0
 11
0.4279682183
 21
-0.0021438841
 31
0.0
 40
0.5740189913
 41
-0.7767048895
 42
2.3590699999
  0
ELLIPSE
  5
5A6
100
AcDbEntity
  8
RACCORDO
100
AcDbEllipse
 62
7
  6
CONTINUOUS
 10
-17.0661945772
 20
43.5476632967
 30
0.0
 11
0.4279682183
 21
-0.0021438841
 31
0.0
 40
0.5740189913
 41
-0.7825226537
 42
2.3532522358
  0
ELLIPSE
  5
5A7
100
AcDbEntity
  8
RACCORDO
100
AcDbEllipse
 62
7
  6
CONTINUOUS
 10
24.9642612719
 20
20.2907624597
 30
0.0
 11
-0.3535448484
 21
0.612377367
 31
0.0
 40
0.5773595689
 41
-3.1241152003
 42
-2.2313402172
  0
ELLIPSE
  5
5A8
100
AcDbEntity
  8
RACCORDO
100
AcDbEllipse
 62
7
  6
CONTINUOUS
 10
-6.6765001756
 20
37.5364966326
 30
0.0
 11
-0.7070896968
 21
1.224754734
 31
0.0
 40
0.5773595689
 41
5.1751773485
 42
6.2744828216
  0
ELLIPSE
  5
5A9
100
AcDbEntity
  8
RACCORDO
100
AcDbEllipse
 62
7
  6
CONTINUOUS
 10
25.1433049777
 20
19.1641399329
 30
0.0
 11
-0.7070896968
 21
1.224754734
 31
0.0
 40
0.5773595689
 41
5.1751773485
 42
6.2744828216
  0
ELLIPSE
  5
5AA
100
AcDbEntity
  8
RACCORDO
100
AcDbEllipse
 62
7
  6
CONTINUOUS
 10
-6.8555438815
 20
38.6631191594
 30
0.0
 11
-0.3535448484
 21
0.612377367
 31
0.0
 40
0.5773595689
 41
-3.1241152003
 42
-2.2313402172
  0
ELLIPSE
  5
5AB
100
AcDbEntity
  8
DRAFT
100
AcDbEllipse
 62
7
  6
CONTINUOUS
 10
-17.0661945772
 20
42.3866202548
 30
0.0
 11
0.4279660527
 21
-0.0032066148
 31
0.0
 40
0.5723275643
 41
-0.7811099195
 42
0.0042882641
  0
ELLIPSE
  5
5AC
100
AcDbEntity
  8
DRAFT
100
AcDbEllipse
 62
7
  6
CONTINUOUS
 10
-11.5112061481
 20
39.1792395562
 30
0.0
 11
0.4279660527
 21
-0.0032066148
 31
0.0
 40
0.5723275643
 41
-0.7752921553
 42
0.0042882619
  0
ELLIPSE
  5
5AD
100
AcDbEntity
  8
DRAFT
100
AcDbEllipse
 62
7
  6
CONTINUOUS
 10
14.7536105762
 20
24.014263555
 30
0.0
 11
0.4279660527
 21
-0.0032066148
 31
0.0
 40
0.5723275643
 41
-0.7811099195
 42
0.0042882641
  0
ELLIPSE
  5
5AE
100
AcDbEntity
  8
DRAFT
100
AcDbEllipse
 62
7
  6
CONTINUOUS
 10
20.3085990053
 20
20.8068828564
 30
0.0
 11
0.4279660527
 21
-0.0032066148
 31
0.0
 40
0.5723275643
 41
-0.7752921553
 42
0.0042882619
  0
ELLIPSE
  5
5AF
100
AcDbEntity
  8
RACCORDO
100
AcDbEllipse
 62
7
  6
CONTINUOUS
 10
18.6417527942
 20
14.5661432359
 30
0.0
 11
0.249894357
 21
0.0119767658
 31
0.0
 40
0.6067642562
 41
-2.385266879
 42
-1.3405798153
  0
ELLIPSE
  5
5B0
100
AcDbEntity
  8
RACCORDO
100
AcDbEllipse
 62
7
  6
CONTINUOUS
 10
17.3085404606
 20
15.3359233283
 30
0.0
 11
0.249894357
 21
0.0119767658
 31
0.0
 40
0.6067642562
 41
3.1125202648
 42
3.8979184282
  0
ELLIPSE
  5
5B1
100
AcDbEntity
  8
RACCORDO
100
AcDbEllipse
 62
7
  6
CONTINUOUS
 10
5.2774346298
 20
22.2825330498
 30
0.0
 11
0.249894357
 21
0.0119767658
 31
0.0
 40
0.6067642562
 41
-2.385266879
 42
-0.8202883164
  0
ELLIPSE
  5
5B2
100
AcDbEntity
  8
RACCORDO
100
AcDbEllipse
 62
7
  6
CONTINUOUS
 10
3.9442222962
 20
23.0523131422
 30
0.0
 11
0.249894357
 21
0.0119767658
 31
0.0
 40
0.6067642562
 41
3.1125202648
 42
3.8979184282
  0
ELLIPSE
  5
5B3
100
AcDbEntity
  8
RACCORDO
100
AcDbEllipse
 62
7
  6
CONTINUOUS
 10
7.40465867
 20
11.9092002245
 30
0.0
 11
1.6883225404
 21
0.9315095605
 31
0.0
 40
0.4988162908
 41
5.1360819032
 42
5.2976914778
  0
ELLIPSE
  5
5B4
100
AcDbEntity
  8
RACCORDO
100
AcDbEllipse
 62
7
  6
CONTINUOUS
 10
-34.5264130661
 20
31.3052460813
 30
0.0
 11
1.476986231
 21
0.6273615419
 31
0.0
 40
0.583851731
 41
2.0924936703
 42
3.5558639272
  0
ELLIPSE
  5
5B5
100
AcDbEntity
  8
RACCORDO
100
AcDbEllipse
 62
7
  6
CONTINUOUS
 10
-31.2337636338
 20
34.2185410095
 30
0.0
 11
1.4086120719
 21
1.1305964684
 31
0.0
 40
0.5684924196
 41
1.4954435328
 42
1.6570531074
  0
ELLIPSE
  5
5B6
100
AcDbEntity
  8
RACCORDO
100
AcDbEllipse
 62
7
  6
CONTINUOUS
 10
-22.7521410721
 20
39.1109627025
 30
0.0
 11
0.4997887139
 21
0.0239535316
 31
0.0
 40
0.6067642562
 41
3.1125202648
 42
3.8979184282
  0
ELLIPSE
  5
5B7
100
AcDbEntity
  8
RACCORDO
100
AcDbEllipse
 62
7
  6
CONTINUOUS
 10
-17.2408339725
 20
35.9288030561
 30
0.0
 11
0.4997887139
 21
0.0239535316
 31
0.0
 40
0.6067642562
 41
-2.385266879
 42
-0.8202883164
  0
ELLIPSE
  5
5B8
100
AcDbEntity
  8
RACCORDO
100
AcDbEllipse
 62
7
  6
CONTINUOUS
 10
-17.2408339725
 20
37.0908810981
 30
0.0
 11
0.4999978344
 21
0.0025340295
 31
0.0
 40
0.5807363987
 41
-1.4347545326
 42
-0.7941591381
  0
ELLIPSE
  5
5B9
100
AcDbEntity
  8
RACCORDO
100
AcDbEllipse
 62
7
  6
CONTINUOUS
 10
-13.1780523592
 20
32.9384999356
 30
0.0
 11
0.249894357
 21
0.0119767658
 31
0.0
 40
0.6067642562
 41
-2.385266879
 42
-0.8202883164
  0
ELLIPSE
  5
5BA
100
AcDbEntity
  8
RACCORDO
100
AcDbEllipse
 62
7
  6
CONTINUOUS
 10
9.0676640812
 20
20.7386060028
 30
0.0
 11
0.4997887139
 21
0.0239535316
 31
0.0
 40
0.6067642562
 41
3.1125202648
 42
3.8979184282
  0
ELLIPSE
  5
5BB
100
AcDbEntity
  8
RACCORDO
100
AcDbEllipse
 62
7
  6
CONTINUOUS
 10
-14.5112646928
 20
33.708280028
 30
0.0
 11
0.249894357
 21
0.0119767658
 31
0.0
 40
0.6067642562
 41
3.1125202648
 42
3.8979184282
  0
ELLIPSE
  5
5BC
100
AcDbEntity
  8
RACCORDO
100
AcDbEllipse
 62
7
  6
CONTINUOUS
 10
14.5789711809
 20
17.5564463563
 30
0.0
 11
0.4997887139
 21
0.0239535316
 31
0.0
 40
0.6067642562
 41
-2.385266879
 42
-0.8202883164
  0
ELLIPSE
  5
5BD
100
AcDbEntity
  8
RACCORDO
100
AcDbEllipse
 62
7
  6
CONTINUOUS
 10
14.5789711809
 20
18.7185243983
 30
0.0
 11
0.4999978344
 21
0.0025340295
 31
0.0
 40
0.5807363987
 41
-1.4347545326
 42
-0.7941591381
  0
ELLIPSE
  5
5BE
100
AcDbEntity
  8
RACCORDO
100
AcDbEllipse
 62
7
  6
CONTINUOUS
 10
-27.8755828572
 20
41.4246698419
 30
0.0
 11
0.249894357
 21
0.0119767658
 31
0.0
 40
0.6067642562
 41
3.1125202647
 42
3.8979184282
  0
ELLIPSE
  5
5BF
100
AcDbEntity
  8
RACCORDO
100
AcDbEllipse
 62
7
  6
CONTINUOUS
 10
-26.5423705236
 20
40.6548897495
 30
0.0
 11
0.249894357
 21
0.0119767658
 31
0.0
 40
0.6067642562
 41
-2.385266879
 42
-0.8202883164
  0
ENDSEC
  0
SECTION
  2
OBJECTS
  0
DICTIONARY
  5
C
100
AcDbDictionary
280
0
281
1
  3
ACAD_GROUP
350
D
  3
ACAD_MLINESTYLE
350
17
  3
ACAD_LAYOUT
350
1A
  3
ACAD_PLOTSETTINGS
350
19
  3
ACAD_PLOTSTYLENAME
350
E
  0
DICTIONARY
  5
D
102
{ACAD_REACTORS
330
C
102
}
100
AcDbDictionary
280
0
281
1
  0
ACDBDICTIONARYWDFLT
  5
E
102
{ACAD_REACTORS
330
C
102
}
100
AcDbDictionary
281
1
  3
Normal
350
F
100
AcDbDictionaryWithDefault
340
F
  0
DICTIONARY
  5
17
102
{ACAD_REACTORS
330
C
102
}
100
AcDbDictionary
280
0
281
1
  3
Standard
350
18
  0
DICTIONARY
  5
19
102
{ACAD_REACTORS
330
C
102
}
100
AcDbDictionary
281
1
  0
DICTIONARY
  5
1A
102
{ACAD_REACTORS
330
C
102
}
100
AcDbDictionary
281
1
  3
Model
350
5C0
  3
Layout1
350
5C1
  0
ACDBPLACEHOLDER
  5
F
102
{ACAD_REACTORS
330
E
102
}
  0
MLINESTYLE
  5
18
102
{ACAD_REACTORS
330
17
102
}
100
AcDbMlineStyle
  2
STANDARD
 70
0
  3

 62
256
 51
90.0
 52
90.0
 71
2
 49
0.5
 62
256
  6
BYLAYER
 49
-0.5
 62
256
  6
BYLAYER
  0
LAYOUT
  5
5C0
102
{ACAD_REACTORS
330
1A
102
}
100
AcDbPlotSettings
  1

  2
none_device
  4
ISO_A4_(297.00_x_210.00_MM)
  6

 40
0.0
 41
0.0
 42
0.0
 43
0.0
 44
297.0
 45
210.0
 46
0.0
 47
0.0
 48
0.0
 49
0.0
140
0.0
141
0.0
142
1.0
143
1.0
 70
1024
 72
1
 73
0
 74
0
  7

 75
0
147
1.0
148
0.0
149
0.0
100
AcDbLayout
  1
Model
 70
0
 71
0
 10
0.0
 20
0.0
 11
297.0
 21
210.0
 12
0.0
 22
0.0
 32
0.0
 14
0.0
 24
0.0
 34
0.0
 15
0.0
 25
0.0
 35
0.0
146
0.0
 13
0.0
 23
0.0
 33
0.0
 16
1.0
 26
0.0
 36
0.0
 17
0.0
 27
1.0
 37
0.0
 76
0
330
2F6
345
0
346
0
  0
LAYOUT
  5
5C1
102
{ACAD_REACTORS
330
1A
102
}
100
AcDbPlotSettings
  1

  2
none_device
  4
ISO_A4_(297.00_x_210.00_MM)
  6

 40
0.0
 41
0.0
 42
0.0
 43
0.0
 44
297.0
 45
210.0
 46
0.0
 47
0.0
 48
0.0
 49
0.0
140
0.0
141
0.0
142
1.0
143
1.0
 70
0
 72
1
 73
0
 74
0
  7

 75
0
147
1.0
148
0.0
149
0.0
100
AcDbLayout
  1
Layout1
 70
0
 71
1
 10
0.0
 20
0.0
 11
297.0
 21
210.0
 12
0.0
 22
0.0
 32
0.0
 14
0.0
 24
0.0
 34
0.0
 15
0.0
 25
0.0
 35
0.0
146
0.0
 13
0.0
 23
0.0
 33
0.0
 16
1.0
 26
0.0
 36
0.0
 17
0.0
 27
1.0
 37
0.0
 76
0
330
2F7
345
0
346
0
  0
ENDSEC
  0
EOF
