  0
SECTION
  2
HEADER
  9
$ACADVER
  1
AC1021
  9
$DWGCODEPAGE
  3
ANSI_1252
  9
$EXTMAX
 10
297.0
 20
210.0
 30
0.0
  9
$EXTMIN
 10
0.0
 20
0.0
 30
0.0
  9
$LIMMIN
 10
0.0
 20
0.0
  9
$LIMMAX
 10
297.0
 20
210.0
  9
$VIEWCTR
 10
148.5
 20
105.0
  9
$VIEWSIZE
 40
210.0
  9
$CLAYER
  8
0
  9
$LTSCALE
 40
16.335
  9
$CELTYPE
  6
BYLAYER
  9
$DIMSCALE
 40
1.0
  9
$DIMASZ
 40
3.0
  9
$DIMEXO
 40
0.5
  9
$DIMDLI
 40
11.286
  9
$DIMEXE
 40
1.5
  9
$DIMCEN
 40
2.673
  9
$DIMLFAC
 40
1.0
  9
$DIMBLK
  1
_FILLED
  9
$DIMALT
 70
0
  9
$DIMALTF
 40
0.0393700787
  9
$DIMTXT
 40
3.0
  9
$DIMTOL
 70
1
  9
$DIMLIM
 70
0
  9
$DIMTFAC
 40
1.0
  9
$DIMTP
 40
0.01
  9
$DIMTM
 40
0.01
  9
$DIMGAP
 40
0.625
  9
$DIMDSEP
 70
44
  9
$AUNITS
 70
0
  9
$PDMODE
 70
3
  9
$PDSIZE
 40
3.0
  9
$HANDSEED
  5
6CD
  9
$TILEMODE
 70
1
  9
$MEASUREMENT
 70
1
  9
$INSUNITS
 70
4
  0
ENDSEC
  0
SECTION
  2
CLASSES
  0
CLASS
  1
ACDBDICTIONARYWDFLT
  2
AcDbDictionaryWithDefault
  3
AutoCAD 2000
 90
0
 91
1
280
0
281
0
  0
CLASS
  1
ACDBPLACEHOLDER
  2
AcDbPlaceHolder
  3
AutoCAD 2000
 90
0
 91
1
280
0
281
0
  0
CLASS
  1
LAYOUT
  2
AcDbLayout
  3
AutoCAD 2000
 90
0
 91
0
280
0
281
0
  0
ENDSEC
  0
SECTION
  2
TABLES
  0
TABLE
  2
VPORT
  5
8
100
AcDbSymbolTable
 70
2
  0
VPORT
  5
1F4
100
AcDbSymbolTableRecord
100
AcDbViewportTableRecord
  2
*ACTIVE
 70
0
 10
0.0
 20
0.0
 11
1.0
 21
1.0
 12
148.5
 22
105.0
 13
0.0
 23
0.0
 14
1.0
 24
1.0
 15
0.0
 25
0.0
 16
0.0
 26
0.0
 36
1.0
 17
0.0
 27
0.0
 37
0.0
 40
210.0
 41
1.4142857143
 42
50.0
 43
0.0
 44
0.0
 50
0.0
 51
0.0
 71
0
 72
100
 73
1
 74
1
 75
0
 76
0
 77
0
 78
0
  0
ENDTAB
  0
TABLE
  2
LTYPE
  5
5
100
AcDbSymbolTable
 70
6
  0
LTYPE
  5
14
100
AcDbSymbolTableRecord
100
AcDbLinetypeTableRecord
  2
BYBLOCK
 70
0
  3

 72
65
 73
0
 40
0.0
  0
LTYPE
  5
15
100
AcDbSymbolTableRecord
100
AcDbLinetypeTableRecord
  2
BYLAYER
 70
0
  3

 72
65
 73
0
 40
0.0
  0
LTYPE
  5
16
100
AcDbSymbolTableRecord
100
AcDbLinetypeTableRecord
  2
CONTINUOUS
 70
64
  3
Solid line
 72
65
 73
0
 40
0.0
  0
LTYPE
  5
1F5
100
AcDbSymbolTableRecord
100
AcDbLinetypeTableRecord
  2
CENTER
 70
64
  3
____ _ ____ _ ____ _ ____ _ ____ _ ____ _ ____
 72
65
 73
4
 40
0.6
 49
0.375
 74
0
 49
-0.075
 74
0
 49
0.075
 74
0
 49
-0.075
 74
0
  0
LTYPE
  5
1F6
100
AcDbSymbolTableRecord
100
AcDbLinetypeTableRecord
  2
HIDDEN
 70
64
  3
- - - - - - - - - - - - - - - - - - - -
 72
65
 73
2
 40
0.2
 49
0.1
 74
0
 49
-0.1
 74
0
  0
LTYPE
  5
1F7
100
AcDbSymbolTableRecord
100
AcDbLinetypeTableRecord
  2
PHANTOM
 70
64
  3
_____ _ _ _____ _ _ _____ _ _ _____
 72
65
 73
6
 40
0.8
 49
0.45
 74
0
 49
-0.05
 74
0
 49
0.1
 74
0
 49
-0.05
 74
0
 49
0.1
 74
0
 49
-0.05
 74
0
  0
LTYPE
  5
1F8
100
AcDbSymbolTableRecord
100
AcDbLinetypeTableRecord
  2
DOT
 70
64
  3
. . . . . . . . . . . . . . . . . . . .
 72
65
 73
2
 40
0.2
 49
0.1
 74
0
 49
-0.1
 74
0
  0
LTYPE
  5
1F9
100
AcDbSymbolTableRecord
100
AcDbLinetypeTableRecord
  2
DASHED
 70
64
  3
- - - - - - - - - - - - - - - - - - - -
 72
65
 73
2
 40
0.2
 49
0.1
 74
0
 49
-0.1
 74
0
  0
ENDTAB
  0
TABLE
  2
LAYER
  5
2
100
AcDbSymbolTable
 70
36
  0
LAYER
  5
10
100
AcDbSymbolTableRecord
100
AcDbLayerTableRecord
  2
0
 70
0
 62
7
  6
CONTINUOUS
370
-3
390
F
  0
LAYER
  5
1FA
100
AcDbSymbolTableRecord
100
AcDbLayerTableRecord
  2
DEFAULT_1
 70
0
 62
7
  6
CENTER
370
-3
390
F
  0
LAYER
  5
1FB
100
AcDbSymbolTableRecord
100
AcDbLayerTableRecord
  2
DEFAULT_2
 70
0
 62
7
  6
HIDDEN
370
-3
390
F
  0
LAYER
  5
1FC
100
AcDbSymbolTableRecord
100
AcDbLayerTableRecord
  2
DEFAULT_3
 70
0
 62
7
  6
PHANTOM
370
-3
390
F
  0
LAYER
  5
1FD
100
AcDbSymbolTableRecord
100
AcDbLayerTableRecord
  2
02___PRT_ALL_AXES_10
 70
0
 62
7
  6
CONTINUOUS
370
-3
390
F
  0
LAYER
  5
1FE
100
AcDbSymbolTableRecord
100
AcDbLayerTableRecord
  2
02___PRT_ALL_AXES_11
 70
0
 62
7
  6
CONTINUOUS
370
-3
390
F
  0
LAYER
  5
1FF
100
AcDbSymbolTableRecord
100
AcDbLayerTableRecord
  2
02___PRT_ALL_AXES_12
 70
0
 62
7
  6
CONTINUOUS
370
-3
390
F
  0
LAYER
  5
200
100
AcDbSymbolTableRecord
100
AcDbLayerTableRecord
  2
02___PRT_ALL_AXES_16
 70
0
 62
7
  6
CONTINUOUS
370
-3
390
F
  0
LAYER
  5
201
100
AcDbSymbolTableRecord
100
AcDbLayerTableRecord
  2
02___PRT_ALL_AXES_19
 70
0
 62
7
  6
CONTINUOUS
370
-3
390
F
  0
LAYER
  5
202
100
AcDbSymbolTableRecord
100
AcDbLayerTableRecord
  2
02___PRT_ALL_AXES_20
 70
0
 62
7
  6
CONTINUOUS
370
-3
390
F
  0
LAYER
  5
203
100
AcDbSymbolTableRecord
100
AcDbLayerTableRecord
  2
02___PRT_ALL_AXES_6
 70
0
 62
7
  6
CONTINUOUS
370
-3
390
F
  0
LAYER
  5
204
100
AcDbSymbolTableRecord
100
AcDbLayerTableRecord
  2
02___PRT_ALL_AXES_7
 70
0
 62
7
  6
CONTINUOUS
370
-3
390
F
  0
LAYER
  5
205
100
AcDbSymbolTableRecord
100
AcDbLayerTableRecord
  2
02___PRT_ALL_AXES_8
 70
0
 62
7
  6
CONTINUOUS
370
-3
390
F
  0
LAYER
  5
206
100
AcDbSymbolTableRecord
100
AcDbLayerTableRecord
  2
201A_260000
 70
0
 62
7
  6
CONTINUOUS
370
-3
390
F
  0
LAYER
  5
207
100
AcDbSymbolTableRecord
100
AcDbLayerTableRecord
  2
2125-CC-H1_5-RF-VIMAR_150000
 70
0
 62
7
  6
CONTINUOUS
370
-3
390
F
  0
LAYER
  5
208
100
AcDbSymbolTableRecord
100
AcDbLayerTableRecord
  2
2125-CC-H1_5-RF-VIMAR_150000_1
 70
0
 62
7
  6
CONTINUOUS
370
-3
390
F
  0
LAYER
  5
209
100
AcDbSymbolTableRecord
100
AcDbLayerTableRecord
  2
2125-CC-H1_5-RF-VIMAR_150000_2
 70
0
 62
7
  6
CONTINUOUS
370
-3
390
F
  0
LAYER
  5
20A
100
AcDbSymbolTableRecord
100
AcDbLayerTableRecord
  2
2125-CC-H1_5-RF-VIMAR_150000_3
 70
0
 62
7
  6
CONTINUOUS
370
-3
390
F
  0
LAYER
  5
20B
100
AcDbSymbolTableRecord
100
AcDbLayerTableRecord
  2
2125-CC-H1_5-RF-VIMAR_150000_4
 70
0
 62
7
  6
CONTINUOUS
370
-3
390
F
  0
LAYER
  5
20C
100
AcDbSymbolTableRecord
100
AcDbLayerTableRecord
  2
2125-CC-H1_5-RF-VIMAR_150000_5
 70
0
 62
7
  6
CONTINUOUS
370
-3
390
F
  0
LAYER
  5
20D
100
AcDbSymbolTableRecord
100
AcDbLayerTableRecord
  2
2125-CC-RF-VIMAR_110000
 70
0
 62
7
  6
CONTINUOUS
370
-3
390
F
  0
LAYER
  5
20E
100
AcDbSymbolTableRecord
100
AcDbLayerTableRecord
  2
2125-CC-RF-VIMAR_110000_1
 70
0
 62
7
  6
CONTINUOUS
370
-3
390
F
  0
LAYER
  5
20F
100
AcDbSymbolTableRecord
100
AcDbLayerTableRecord
  2
2125-DL-RF-FINE_VIMAR_110000
 70
0
 62
7
  6
CONTINUOUS
370
-3
390
F
  0
LAYER
  5
210
100
AcDbSymbolTableRecord
100
AcDbLayerTableRecord
  2
2125-R1-RF-VIMAR_60000
 70
0
 62
7
  6
CONTINUOUS
370
-3
390
F
  0
LAYER
  5
211
100
AcDbSymbolTableRecord
100
AcDbLayerTableRecord
  2
2125-R1-RF-VIMAR_60000_1
 70
0
 62
7
  6
CONTINUOUS
370
-3
390
F
  0
LAYER
  5
212
100
AcDbSymbolTableRecord
100
AcDbLayerTableRecord
  2
3216-CF-RF-VIMAR_100000
 70
0
 62
7
  6
CONTINUOUS
370
-3
390
F
  0
LAYER
  5
213
100
AcDbSymbolTableRecord
100
AcDbLayerTableRecord
  2
3216-CF-RF-VIMAR_100000_1
 70
0
 62
7
  6
CONTINUOUS
370
-3
390
F
  0
LAYER
  5
214
100
AcDbSymbolTableRecord
100
AcDbLayerTableRecord
  2
3528-CS-RF-FINE_190000
 70
0
 62
7
  6
CONTINUOUS
370
-3
390
F
  0
LAYER
  5
215
100
AcDbSymbolTableRecord
100
AcDbLayerTableRecord
  2
3528-CS-RF-FINE_190000_1
 70
0
 62
7
  6
CONTINUOUS
370
-3
390
F
  0
LAYER
  5
216
100
AcDbSymbolTableRecord
100
AcDbLayerTableRecord
  2
3528-CS-RF-FINE_190000_2
 70
0
 62
7
  6
CONTINUOUS
370
-3
390
F
  0
LAYER
  5
217
100
AcDbSymbolTableRecord
100
AcDbLayerTableRecord
  2
3528-CS-RF-FINE_190000_3
 70
0
 62
7
  6
CONTINUOUS
370
-3
390
F
  0
LAYER
  5
218
100
AcDbSymbolTableRecord
100
AcDbLayerTableRecord
  2
3528-CS-RF-FINE_190000_4
 70
0
 62
7
  6
CONTINUOUS
370
-3
390
F
  0
LAYER
  5
219
100
AcDbSymbolTableRecord
100
AcDbLayerTableRecord
  2
3528-CS-RF-FINE_190000_5
 70
0
 62
7
  6
CONTINUOUS
370
-3
390
F
  0
LAYER
  5
21A
100
AcDbSymbolTableRecord
100
AcDbLayerTableRecord
  2
43000717A0
 70
0
 62
7
  6
CONTINUOUS
370
-3
390
F
  0
LAYER
  5
21B
100
AcDbSymbolTableRecord
100
AcDbLayerTableRecord
  2
43000718A0
 70
0
 62
7
  6
CONTINUOUS
370
-3
390
F
  0
LAYER
  5
21C
100
AcDbSymbolTableRecord
100
AcDbLayerTableRecord
  2
ASSI
 70
0
 62
7
  6
CONTINUOUS
370
-3
390
F
  0
LAYER
  5
21D
100
AcDbSymbolTableRecord
100
AcDbLayerTableRecord
  2
ASSI_1
 70
0
 62
7
  6
CONTINUOUS
370
-3
390
F
  0
LAYER
  5
21E
100
AcDbSymbolTableRecord
100
AcDbLayerTableRecord
  2
ASSI_2
 70
0
 62
7
  6
CONTINUOUS
370
-3
390
F
  0
LAYER
  5
21F
100
AcDbSymbolTableRecord
100
AcDbLayerTableRecord
  2
ASSI_3
 70
0
 62
7
  6
CONTINUOUS
370
-3
390
F
  0
LAYER
  5
220
100
AcDbSymbolTableRecord
100
AcDbLayerTableRecord
  2
BIDONE
 70
0
 62
7
  6
CONTINUOUS
370
-3
390
F
  0
LAYER
  5
221
100
AcDbSymbolTableRecord
100
AcDbLayerTableRecord
  2
CAPC1005X60N_60000
 70
0
 62
7
  6
CONTINUOUS
370
-3
390
F
  0
LAYER
  5
222
100
AcDbSymbolTableRecord
100
AcDbLayerTableRecord
  2
CAPC1005X60N_60000_1
 70
0
 62
7
  6
CONTINUOUS
370
-3
390
F
  0
LAYER
  5
223
100
AcDbSymbolTableRecord
100
AcDbLayerTableRecord
  2
CAPC1005X60N_60000_10
 70
0
 62
7
  6
CONTINUOUS
370
-3
390
F
  0
LAYER
  5
224
100
AcDbSymbolTableRecord
100
AcDbLayerTableRecord
  2
CAPC1005X60N_60000_11
 70
0
 62
7
  6
CONTINUOUS
370
-3
390
F
  0
LAYER
  5
225
100
AcDbSymbolTableRecord
100
AcDbLayerTableRecord
  2
CAPC1005X60N_60000_12
 70
0
 62
7
  6
CONTINUOUS
370
-3
390
F
  0
LAYER
  5
226
100
AcDbSymbolTableRecord
100
AcDbLayerTableRecord
  2
CAPC1005X60N_60000_13
 70
0
 62
7
  6
CONTINUOUS
370
-3
390
F
  0
LAYER
  5
227
100
AcDbSymbolTableRecord
100
AcDbLayerTableRecord
  2
CAPC1005X60N_60000_14
 70
0
 62
7
  6
CONTINUOUS
370
-3
390
F
  0
LAYER
  5
228
100
AcDbSymbolTableRecord
100
AcDbLayerTableRecord
  2
CAPC1005X60N_60000_15
 70
0
 62
7
  6
CONTINUOUS
370
-3
390
F
  0
LAYER
  5
229
100
AcDbSymbolTableRecord
100
AcDbLayerTableRecord
  2
CAPC1005X60N_60000_16
 70
0
 62
7
  6
CONTINUOUS
370
-3
390
F
  0
LAYER
  5
22A
100
AcDbSymbolTableRecord
100
AcDbLayerTableRecord
  2
CAPC1005X60N_60000_17
 70
0
 62
7
  6
CONTINUOUS
370
-3
390
F
  0
LAYER
  5
22B
100
AcDbSymbolTableRecord
100
AcDbLayerTableRecord
  2
CAPC1005X60N_60000_18
 70
0
 62
7
  6
CONTINUOUS
370
-3
390
F
  0
LAYER
  5
22C
100
AcDbSymbolTableRecord
100
AcDbLayerTableRecord
  2
CAPC1005X60N_60000_19
 70
0
 62
7
  6
CONTINUOUS
370
-3
390
F
  0
LAYER
  5
22D
100
AcDbSymbolTableRecord
100
AcDbLayerTableRecord
  2
CAPC1005X60N_60000_2
 70
0
 62
7
  6
CONTINUOUS
370
-3
390
F
  0
LAYER
  5
22E
100
AcDbSymbolTableRecord
100
AcDbLayerTableRecord
  2
CAPC1005X60N_60000_20
 70
0
 62
7
  6
CONTINUOUS
370
-3
390
F
  0
LAYER
  5
22F
100
AcDbSymbolTableRecord
100
AcDbLayerTableRecord
  2
CAPC1005X60N_60000_21
 70
0
 62
7
  6
CONTINUOUS
370
-3
390
F
  0
LAYER
  5
230
100
AcDbSymbolTableRecord
100
AcDbLayerTableRecord
  2
CAPC1005X60N_60000_22
 70
0
 62
7
  6
CONTINUOUS
370
-3
390
F
  0
LAYER
  5
231
100
AcDbSymbolTableRecord
100
AcDbLayerTableRecord
  2
CAPC1005X60N_60000_23
 70
0
 62
7
  6
CONTINUOUS
370
-3
390
F
  0
LAYER
  5
232
100
AcDbSymbolTableRecord
100
AcDbLayerTableRecord
  2
CAPC1005X60N_60000_24
 70
0
 62
7
  6
CONTINUOUS
370
-3
390
F
  0
LAYER
  5
233
100
AcDbSymbolTableRecord
100
AcDbLayerTableRecord
  2
CAPC1005X60N_60000_25
 70
0
 62
7
  6
CONTINUOUS
370
-3
390
F
  0
LAYER
  5
234
100
AcDbSymbolTableRecord
100
AcDbLayerTableRecord
  2
CAPC1005X60N_60000_26
 70
0
 62
7
  6
CONTINUOUS
370
-3
390
F
  0
LAYER
  5
235
100
AcDbSymbolTableRecord
100
AcDbLayerTableRecord
  2
CAPC1005X60N_60000_27
 70
0
 62
7
  6
CONTINUOUS
370
-3
390
F
  0
LAYER
  5
236
100
AcDbSymbolTableRecord
100
AcDbLayerTableRecord
  2
CAPC1005X60N_60000_28
 70
0
 62
7
  6
CONTINUOUS
370
-3
390
F
  0
LAYER
  5
237
100
AcDbSymbolTableRecord
100
AcDbLayerTableRecord
  2
CAPC1005X60N_60000_29
 70
0
 62
7
  6
CONTINUOUS
370
-3
390
F
  0
LAYER
  5
238
100
AcDbSymbolTableRecord
100
AcDbLayerTableRecord
  2
CAPC1005X60N_60000_3
 70
0
 62
7
  6
CONTINUOUS
370
-3
390
F
  0
LAYER
  5
239
100
AcDbSymbolTableRecord
100
AcDbLayerTableRecord
  2
CAPC1005X60N_60000_4
 70
0
 62
7
  6
CONTINUOUS
370
-3
390
F
  0
LAYER
  5
23A
100
AcDbSymbolTableRecord
100
AcDbLayerTableRecord
  2
CAPC1005X60N_60000_5
 70
0
 62
7
  6
CONTINUOUS
370
-3
390
F
  0
LAYER
  5
23B
100
AcDbSymbolTableRecord
100
AcDbLayerTableRecord
  2
CAPC1005X60N_60000_6
 70
0
 62
7
  6
CONTINUOUS
370
-3
390
F
  0
LAYER
  5
23C
100
AcDbSymbolTableRecord
100
AcDbLayerTableRecord
  2
CAPC1005X60N_60000_7
 70
0
 62
7
  6
CONTINUOUS
370
-3
390
F
  0
LAYER
  5
23D
100
AcDbSymbolTableRecord
100
AcDbLayerTableRecord
  2
CAPC1005X60N_60000_8
 70
0
 62
7
  6
CONTINUOUS
370
-3
390
F
  0
LAYER
  5
23E
100
AcDbSymbolTableRecord
100
AcDbLayerTableRecord
  2
CAPC1005X60N_60000_9
 70
0
 62
7
  6
CONTINUOUS
370
-3
390
F
  0
LAYER
  5
23F
100
AcDbSymbolTableRecord
100
AcDbLayerTableRecord
  2
CAPC1608N_80000
 70
0
 62
7
  6
CONTINUOUS
370
-3
390
F
  0
LAYER
  5
240
100
AcDbSymbolTableRecord
100
AcDbLayerTableRecord
  2
CAPC1608N_80000_1
 70
0
 62
7
  6
CONTINUOUS
370
-3
390
F
  0
LAYER
  5
241
100
AcDbSymbolTableRecord
100
AcDbLayerTableRecord
  2
CAPC1608N_80000_2
 70
0
 62
7
  6
CONTINUOUS
370
-3
390
F
  0
LAYER
  5
242
100
AcDbSymbolTableRecord
100
AcDbLayerTableRecord
  2
CAPC1608N_80000_3
 70
0
 62
7
  6
CONTINUOUS
370
-3
390
F
  0
LAYER
  5
243
100
AcDbSymbolTableRecord
100
AcDbLayerTableRecord
  2
CAPC1608N_80000_4
 70
0
 62
7
  6
CONTINUOUS
370
-3
390
F
  0
LAYER
  5
244
100
AcDbSymbolTableRecord
100
AcDbLayerTableRecord
  2
CAPC1608N_80000_5
 70
0
 62
7
  6
CONTINUOUS
370
-3
390
F
  0
LAYER
  5
245
100
AcDbSymbolTableRecord
100
AcDbLayerTableRecord
  2
CAPC1608N_80000_6
 70
0
 62
7
  6
CONTINUOUS
370
-3
390
F
  0
LAYER
  5
246
100
AcDbSymbolTableRecord
100
AcDbLayerTableRecord
  2
CAPC1608N_80000_7
 70
0
 62
7
  6
CONTINUOUS
370
-3
390
F
  0
LAYER
  5
247
100
AcDbSymbolTableRecord
100
AcDbLayerTableRecord
  2
CAPC1608N_80000_8
 70
0
 62
7
  6
CONTINUOUS
370
-3
390
F
  0
LAYER
  5
248
100
AcDbSymbolTableRecord
100
AcDbLayerTableRecord
  2
CN1-REF_SQUAREHOLE12_SPEA-VIMAR
 70
0
 62
7
  6
CONTINUOUS
370
-3
390
F
  0
LAYER
  5
249
100
AcDbSymbolTableRecord
100
AcDbLayerTableRecord
  2
CN1-REF_SQUAREHOLE12_SPEA-VIM_1
 70
0
 62
7
  6
CONTINUOUS
370
-3
390
F
  0
LAYER
  5
24A
100
AcDbSymbolTableRecord
100
AcDbLayerTableRecord
  2
CN1-REF_SQUAREHOLE12_SPEA-VIM_2
 70
0
 62
7
  6
CONTINUOUS
370
-3
390
F
  0
LAYER
  5
24B
100
AcDbSymbolTableRecord
100
AcDbLayerTableRecord
  2
CN1-REF_SQUAREHOLE12_SPEA-VIM_3
 70
0
 62
7
  6
CONTINUOUS
370
-3
390
F
  0
LAYER
  5
24C
100
AcDbSymbolTableRecord
100
AcDbLayerTableRecord
  2
CN1-TP15_SMD-VIMAR_5000
 70
0
 62
7
  6
CONTINUOUS
370
-3
390
F
  0
LAYER
  5
24D
100
AcDbSymbolTableRecord
100
AcDbLayerTableRecord
  2
CN1-TP15_SMD-VIMAR_5000_1
 70
0
 62
7
  6
CONTINUOUS
370
-3
390
F
  0
LAYER
  5
24E
100
AcDbSymbolTableRecord
100
AcDbLayerTableRecord
  2
CN1-TP15_SMD-VIMAR_5000_2
 70
0
 62
7
  6
CONTINUOUS
370
-3
390
F
  0
LAYER
  5
24F
100
AcDbSymbolTableRecord
100
AcDbLayerTableRecord
  2
CN1-TP15_SMD-VIMAR_5000_3
 70
0
 62
7
  6
CONTINUOUS
370
-3
390
F
  0
LAYER
  5
250
100
AcDbSymbolTableRecord
100
AcDbLayerTableRecord
  2
CN1-TP15_SMD-VIMAR_5000_4
 70
0
 62
7
  6
CONTINUOUS
370
-3
390
F
  0
LAYER
  5
251
100
AcDbSymbolTableRecord
100
AcDbLayerTableRecord
  2
CN1-TP15_SMD-VIMAR_5000_5
 70
0
 62
7
  6
CONTINUOUS
370
-3
390
F
  0
LAYER
  5
252
100
AcDbSymbolTableRecord
100
AcDbLayerTableRecord
  2
CN_CSFC201_R2_P16_H_4_5MM_45000
 70
0
 62
7
  6
CONTINUOUS
370
-3
390
F
  0
LAYER
  5
253
100
AcDbSymbolTableRecord
100
AcDbLayerTableRecord
  2
CN_GPFC206_R2_P16_H_6_5MM_65000
 70
0
 62
7
  6
CONTINUOUS
370
-3
390
F
  0
LAYER
  5
254
100
AcDbSymbolTableRecord
100
AcDbLayerTableRecord
  2
COLOR19
 70
0
 62
7
  6
CONTINUOUS
370
-3
390
F
  0
LAYER
  5
255
100
AcDbSymbolTableRecord
100
AcDbLayerTableRecord
  2
COLOR20
 70
0
 62
7
  6
CONTINUOUS
370
-3
390
F
  0
LAYER
  5
256
100
AcDbSymbolTableRecord
100
AcDbLayerTableRecord
  2
COLOR22
 70
0
 62
7
  6
CONTINUOUS
370
-3
390
F
  0
LAYER
  5
257
100
AcDbSymbolTableRecord
100
AcDbLayerTableRecord
  2
COLOR23
 70
0
 62
7
  6
CONTINUOUS
370
-3
390
F
  0
LAYER
  5
258
100
AcDbSymbolTableRecord
100
AcDbLayerTableRecord
  2
COLOR25
 70
0
 62
7
  6
CONTINUOUS
370
-3
390
F
  0
LAYER
  5
259
100
AcDbSymbolTableRecord
100
AcDbLayerTableRecord
  2
COLOR26
 70
0
 62
7
  6
CONTINUOUS
370
-3
390
F
  0
LAYER
  5
25A
100
AcDbSymbolTableRecord
100
AcDbLayerTableRecord
  2
COLOR28
 70
0
 62
7
  6
CONTINUOUS
370
-3
390
F
  0
LAYER
  5
25B
100
AcDbSymbolTableRecord
100
AcDbLayerTableRecord
  2
COLOR29
 70
0
 62
7
  6
CONTINUOUS
370
-3
390
F
  0
LAYER
  5
25C
100
AcDbSymbolTableRecord
100
AcDbLayerTableRecord
  2
COLOR6
 70
0
 62
7
  6
CONTINUOUS
370
-3
390
F
  0
LAYER
  5
25D
100
AcDbSymbolTableRecord
100
AcDbLayerTableRecord
  2
COORDINATE
 70
0
 62
7
  6
CONTINUOUS
370
-3
390
F
  0
LAYER
  5
25E
100
AcDbSymbolTableRecord
100
AcDbLayerTableRecord
  2
COORD_ORIGINE
 70
0
 62
7
  6
CONTINUOUS
370
-3
390
F
  0
LAYER
  5
25F
100
AcDbSymbolTableRecord
100
AcDbLayerTableRecord
  2
COPY-PUBBLISH
 70
0
 62
7
  6
CONTINUOUS
370
-3
390
F
  0
LAYER
  5
260
100
AcDbSymbolTableRecord
100
AcDbLayerTableRecord
  2
COPY_PUBLISH
 70
0
 62
7
  6
CONTINUOUS
370
-3
390
F
  0
LAYER
  5
261
100
AcDbSymbolTableRecord
100
AcDbLayerTableRecord
  2
COSMETIC
 70
0
 62
7
  6
CONTINUOUS
370
-3
390
F
  0
LAYER
  5
262
100
AcDbSymbolTableRecord
100
AcDbLayerTableRecord
  2
COSMETICI
 70
0
 62
7
  6
CONTINUOUS
370
-3
390
F
  0
LAYER
  5
263
100
AcDbSymbolTableRecord
100
AcDbLayerTableRecord
  2
CP-DO-214AC-VIMAR_240000
 70
0
 62
7
  6
CONTINUOUS
370
-3
390
F
  0
LAYER
  5
264
100
AcDbSymbolTableRecord
100
AcDbLayerTableRecord
  2
CP-DO-214AC-VIMAR_240000_1
 70
0
 62
7
  6
CONTINUOUS
370
-3
390
F
  0
LAYER
  5
265
100
AcDbSymbolTableRecord
100
AcDbLayerTableRecord
  2
CP-DO-214AC-VIMAR_240000_2
 70
0
 62
7
  6
CONTINUOUS
370
-3
390
F
  0
LAYER
  5
266
100
AcDbSymbolTableRecord
100
AcDbLayerTableRecord
  2
CP-DO-214AC-VIMAR_240000_3
 70
0
 62
7
  6
CONTINUOUS
370
-3
390
F
  0
LAYER
  5
267
100
AcDbSymbolTableRecord
100
AcDbLayerTableRecord
  2
CR_CN3MP2_54_H6_STRIP_TET_TYPE_
 70
0
 62
7
  6
CONTINUOUS
370
-3
390
F
  0
LAYER
  5
268
100
AcDbSymbolTableRecord
100
AcDbLayerTableRecord
  2
CR_CN3MP2_54_H6_STRIP_TET_TYP_1
 70
0
 62
7
  6
CONTINUOUS
370
-3
390
F
  0
LAYER
  5
269
100
AcDbSymbolTableRecord
100
AcDbLayerTableRecord
  2
CR_CN3MP2_54_H6_STRIP_TET_TYP_2
 70
0
 62
7
  6
CONTINUOUS
370
-3
390
F
  0
LAYER
  5
26A
100
AcDbSymbolTableRecord
100
AcDbLayerTableRecord
  2
CURVE
 70
0
 62
7
  6
CONTINUOUS
370
-3
390
F
  0
LAYER
  5
26B
100
AcDbSymbolTableRecord
100
AcDbLayerTableRecord
  2
CURVE_LED_TASTO
 70
0
 62
7
  6
CONTINUOUS
370
-3
390
F
  0
LAYER
  5
26C
100
AcDbSymbolTableRecord
100
AcDbLayerTableRecord
  2
DRAFT
 70
0
 62
7
  6
CONTINUOUS
370
-3
390
F
  0
LAYER
  5
26D
100
AcDbSymbolTableRecord
100
AcDbLayerTableRecord
  2
E4_MARK_10000
 70
0
 62
7
  6
CONTINUOUS
370
-3
390
F
  0
LAYER
  5
26E
100
AcDbSymbolTableRecord
100
AcDbLayerTableRecord
  2
GEOMETRIA_SOLIDA
 70
0
 62
7
  6
CONTINUOUS
370
-3
390
F
  0
LAYER
  5
26F
100
AcDbSymbolTableRecord
100
AcDbLayerTableRecord
  2
I3-TO5-H1-VIMAR_980000
 70
0
 62
7
  6
CONTINUOUS
370
-3
390
F
  0
LAYER
  5
270
100
AcDbSymbolTableRecord
100
AcDbLayerTableRecord
  2
IGES_SCRITTE
 70
0
 62
7
  6
CONTINUOUS
370
-3
390
F
  0
LAYER
  5
271
100
AcDbSymbolTableRecord
100
AcDbLayerTableRecord
  2
IMPORT_IGES
 70
0
 62
7
  6
CONTINUOUS
370
-3
390
F
  0
LAYER
  5
272
100
AcDbSymbolTableRecord
100
AcDbLayerTableRecord
  2
INTF_1
 70
0
 62
7
  6
CONTINUOUS
370
-3
390
F
  0
LAYER
  5
273
100
AcDbSymbolTableRecord
100
AcDbLayerTableRecord
  2
INTF_11
 70
0
 62
7
  6
CONTINUOUS
370
-3
390
F
  0
LAYER
  5
274
100
AcDbSymbolTableRecord
100
AcDbLayerTableRecord
  2
INTF_2
 70
0
 62
7
  6
CONTINUOUS
370
-3
390
F
  0
LAYER
  5
275
100
AcDbSymbolTableRecord
100
AcDbLayerTableRecord
  2
INTF_5
 70
0
 62
7
  6
CONTINUOUS
370
-3
390
F
  0
LAYER
  5
276
100
AcDbSymbolTableRecord
100
AcDbLayerTableRecord
  2
INTF_BLANK
 70
0
 62
7
  6
CONTINUOUS
370
-3
390
F
  0
LAYER
  5
277
100
AcDbSymbolTableRecord
100
AcDbLayerTableRecord
  2
INTF_CYAN
 70
0
 62
7
  6
CONTINUOUS
370
-3
390
F
  0
LAYER
  5
278
100
AcDbSymbolTableRecord
100
AcDbLayerTableRecord
  2
INTF_YELLOW
 70
0
 62
7
  6
CONTINUOUS
370
-3
390
F
  0
LAYER
  5
279
100
AcDbSymbolTableRecord
100
AcDbLayerTableRecord
  2
LAYER_44
 70
0
 62
7
  6
CONTINUOUS
370
-3
390
F
  0
LAYER
  5
27A
100
AcDbSymbolTableRecord
100
AcDbLayerTableRecord
  2
LDR_VIMAR_700000
 70
0
 62
7
  6
CONTINUOUS
370
-3
390
F
  0
LAYER
  5
27B
100
AcDbSymbolTableRecord
100
AcDbLayerTableRecord
  2
LED-SMD-2_5X2_0-D1_9-H2_8_28000
 70
0
 62
7
  6
CONTINUOUS
370
-3
390
F
  0
LAYER
  5
27C
100
AcDbSymbolTableRecord
100
AcDbLayerTableRecord
  2
LED-SMD-2_5X2_0-D1_9-H2_8_280_1
 70
0
 62
7
  6
CONTINUOUS
370
-3
390
F
  0
LAYER
  5
27D
100
AcDbSymbolTableRecord
100
AcDbLayerTableRecord
  2
LGA12S50P4X4_200X200X100_100000
 70
0
 62
7
  6
CONTINUOUS
370
-3
390
F
  0
LAYER
  5
27E
100
AcDbSymbolTableRecord
100
AcDbLayerTableRecord
  2
LOGO_RESIST-RESTYLING_10000
 70
0
 62
7
  6
CONTINUOUS
370
-3
390
F
  0
LAYER
  5
27F
100
AcDbSymbolTableRecord
100
AcDbLayerTableRecord
  2
MCM-IPM165-2_1000000
 70
0
 62
7
  6
CONTINUOUS
370
-3
390
F
  0
LAYER
  5
280
100
AcDbSymbolTableRecord
100
AcDbLayerTableRecord
  2
MCM-IPM165_1160000
 70
0
 62
7
  6
CONTINUOUS
370
-3
390
F
  0
LAYER
  5
281
100
AcDbSymbolTableRecord
100
AcDbLayerTableRecord
  2
MM3-MPAK-RF-VIMAR_120000
 70
0
 62
7
  6
CONTINUOUS
370
-3
390
F
  0
LAYER
  5
282
100
AcDbSymbolTableRecord
100
AcDbLayerTableRecord
  2
MM3-MPAK-RF-VIMAR_120000_1
 70
0
 62
7
  6
CONTINUOUS
370
-3
390
F
  0
LAYER
  5
283
100
AcDbSymbolTableRecord
100
AcDbLayerTableRecord
  2
MM3-MPAK-RF-VIMAR_120000_2
 70
0
 62
7
  6
CONTINUOUS
370
-3
390
F
  0
LAYER
  5
284
100
AcDbSymbolTableRecord
100
AcDbLayerTableRecord
  2
MM3-MPAK-RF-VIMAR_120000_3
 70
0
 62
7
  6
CONTINUOUS
370
-3
390
F
  0
LAYER
  5
285
100
AcDbSymbolTableRecord
100
AcDbLayerTableRecord
  2
MM3-MPAK-RF-VIMAR_120000_4
 70
0
 62
7
  6
CONTINUOUS
370
-3
390
F
  0
LAYER
  5
286
100
AcDbSymbolTableRecord
100
AcDbLayerTableRecord
  2
MM4-MB-OPTO-VIMAR_290000
 70
0
 62
7
  6
CONTINUOUS
370
-3
390
F
  0
LAYER
  5
287
100
AcDbSymbolTableRecord
100
AcDbLayerTableRecord
  2
MM4-MB-OPTO-VIMAR_290000_1
 70
0
 62
7
  6
CONTINUOUS
370
-3
390
F
  0
LAYER
  5
288
100
AcDbSymbolTableRecord
100
AcDbLayerTableRecord
  2
MM4-MB-OPTO-VIMAR_290000_2
 70
0
 62
7
  6
CONTINUOUS
370
-3
390
F
  0
LAYER
  5
289
100
AcDbSymbolTableRecord
100
AcDbLayerTableRecord
  2
MM4-X-3-VIMAR_130000
 70
0
 62
7
  6
CONTINUOUS
370
-3
390
F
  0
LAYER
  5
28A
100
AcDbSymbolTableRecord
100
AcDbLayerTableRecord
  2
MM5-FMT-RF_120000
 70
0
 62
7
  6
CONTINUOUS
370
-3
390
F
  0
LAYER
  5
28B
100
AcDbSymbolTableRecord
100
AcDbLayerTableRecord
  2
MR7P5_SAURO_CSMD_KCSMD070A1TN_9
 70
0
 62
7
  6
CONTINUOUS
370
-3
390
F
  0
LAYER
  5
28C
100
AcDbSymbolTableRecord
100
AcDbLayerTableRecord
  2
NO-PB_MARK_10000
 70
0
 62
7
  6
CONTINUOUS
370
-3
390
F
  0
LAYER
  5
28D
100
AcDbSymbolTableRecord
100
AcDbLayerTableRecord
  2
NONE
 70
0
 62
7
  6
CONTINUOUS
370
-3
390
F
  0
LAYER
  5
28E
100
AcDbSymbolTableRecord
100
AcDbLayerTableRecord
  2
NOTE
 70
0
 62
7
  6
CONTINUOUS
370
-3
390
F
  0
LAYER
  5
28F
100
AcDbSymbolTableRecord
100
AcDbLayerTableRecord
  2
PIANI
 70
0
 62
7
  6
CONTINUOUS
370
-3
390
F
  0
LAYER
  5
290
100
AcDbSymbolTableRecord
100
AcDbLayerTableRecord
  2
PIANI_DI_RIFERIMENTO
 70
0
 62
7
  6
CONTINUOUS
370
-3
390
F
  0
LAYER
  5
291
100
AcDbSymbolTableRecord
100
AcDbLayerTableRecord
  2
PIANI_ORIGINE
 70
0
 62
7
  6
CONTINUOUS
370
-3
390
F
  0
LAYER
  5
292
100
AcDbSymbolTableRecord
100
AcDbLayerTableRecord
  2
PIANI_RIFERIMENTO
 70
0
 62
7
  6
CONTINUOUS
370
-3
390
F
  0
LAYER
  5
293
100
AcDbSymbolTableRecord
100
AcDbLayerTableRecord
  2
PUNTI
 70
0
 62
7
  6
CONTINUOUS
370
-3
390
F
  0
LAYER
  5
294
100
AcDbSymbolTableRecord
100
AcDbLayerTableRecord
  2
QFN50P300X300X90-17N_90000
 70
0
 62
7
  6
CONTINUOUS
370
-3
390
F
  0
LAYER
  5
295
100
AcDbSymbolTableRecord
100
AcDbLayerTableRecord
  2
RACCORDO
 70
0
 62
7
  6
CONTINUOUS
370
-3
390
F
  0
LAYER
  5
296
100
AcDbSymbolTableRecord
100
AcDbLayerTableRecord
  2
RESC1005X40N_50000
 70
0
 62
7
  6
CONTINUOUS
370
-3
390
F
  0
LAYER
  5
297
100
AcDbSymbolTableRecord
100
AcDbLayerTableRecord
  2
RESC1005X40N_50000_1
 70
0
 62
7
  6
CONTINUOUS
370
-3
390
F
  0
LAYER
  5
298
100
AcDbSymbolTableRecord
100
AcDbLayerTableRecord
  2
RESC1005X40N_50000_10
 70
0
 62
7
  6
CONTINUOUS
370
-3
390
F
  0
LAYER
  5
299
100
AcDbSymbolTableRecord
100
AcDbLayerTableRecord
  2
RESC1005X40N_50000_11
 70
0
 62
7
  6
CONTINUOUS
370
-3
390
F
  0
LAYER
  5
29A
100
AcDbSymbolTableRecord
100
AcDbLayerTableRecord
  2
RESC1005X40N_50000_12
 70
0
 62
7
  6
CONTINUOUS
370
-3
390
F
  0
LAYER
  5
29B
100
AcDbSymbolTableRecord
100
AcDbLayerTableRecord
  2
RESC1005X40N_50000_13
 70
0
 62
7
  6
CONTINUOUS
370
-3
390
F
  0
LAYER
  5
29C
100
AcDbSymbolTableRecord
100
AcDbLayerTableRecord
  2
RESC1005X40N_50000_14
 70
0
 62
7
  6
CONTINUOUS
370
-3
390
F
  0
LAYER
  5
29D
100
AcDbSymbolTableRecord
100
AcDbLayerTableRecord
  2
RESC1005X40N_50000_15
 70
0
 62
7
  6
CONTINUOUS
370
-3
390
F
  0
LAYER
  5
29E
100
AcDbSymbolTableRecord
100
AcDbLayerTableRecord
  2
RESC1005X40N_50000_16
 70
0
 62
7
  6
CONTINUOUS
370
-3
390
F
  0
LAYER
  5
29F
100
AcDbSymbolTableRecord
100
AcDbLayerTableRecord
  2
RESC1005X40N_50000_17
 70
0
 62
7
  6
CONTINUOUS
370
-3
390
F
  0
LAYER
  5
2A0
100
AcDbSymbolTableRecord
100
AcDbLayerTableRecord
  2
RESC1005X40N_50000_18
 70
0
 62
7
  6
CONTINUOUS
370
-3
390
F
  0
LAYER
  5
2A1
100
AcDbSymbolTableRecord
100
AcDbLayerTableRecord
  2
RESC1005X40N_50000_19
 70
0
 62
7
  6
CONTINUOUS
370
-3
390
F
  0
LAYER
  5
2A2
100
AcDbSymbolTableRecord
100
AcDbLayerTableRecord
  2
RESC1005X40N_50000_2
 70
0
 62
7
  6
CONTINUOUS
370
-3
390
F
  0
LAYER
  5
2A3
100
AcDbSymbolTableRecord
100
AcDbLayerTableRecord
  2
RESC1005X40N_50000_20
 70
0
 62
7
  6
CONTINUOUS
370
-3
390
F
  0
LAYER
  5
2A4
100
AcDbSymbolTableRecord
100
AcDbLayerTableRecord
  2
RESC1005X40N_50000_21
 70
0
 62
7
  6
CONTINUOUS
370
-3
390
F
  0
LAYER
  5
2A5
100
AcDbSymbolTableRecord
100
AcDbLayerTableRecord
  2
RESC1005X40N_50000_22
 70
0
 62
7
  6
CONTINUOUS
370
-3
390
F
  0
LAYER
  5
2A6
100
AcDbSymbolTableRecord
100
AcDbLayerTableRecord
  2
RESC1005X40N_50000_23
 70
0
 62
7
  6
CONTINUOUS
370
-3
390
F
  0
LAYER
  5
2A7
100
AcDbSymbolTableRecord
100
AcDbLayerTableRecord
  2
RESC1005X40N_50000_24
 70
0
 62
7
  6
CONTINUOUS
370
-3
390
F
  0
LAYER
  5
2A8
100
AcDbSymbolTableRecord
100
AcDbLayerTableRecord
  2
RESC1005X40N_50000_25
 70
0
 62
7
  6
CONTINUOUS
370
-3
390
F
  0
LAYER
  5
2A9
100
AcDbSymbolTableRecord
100
AcDbLayerTableRecord
  2
RESC1005X40N_50000_26
 70
0
 62
7
  6
CONTINUOUS
370
-3
390
F
  0
LAYER
  5
2AA
100
AcDbSymbolTableRecord
100
AcDbLayerTableRecord
  2
RESC1005X40N_50000_27
 70
0
 62
7
  6
CONTINUOUS
370
-3
390
F
  0
LAYER
  5
2AB
100
AcDbSymbolTableRecord
100
AcDbLayerTableRecord
  2
RESC1005X40N_50000_28
 70
0
 62
7
  6
CONTINUOUS
370
-3
390
F
  0
LAYER
  5
2AC
100
AcDbSymbolTableRecord
100
AcDbLayerTableRecord
  2
RESC1005X40N_50000_29
 70
0
 62
7
  6
CONTINUOUS
370
-3
390
F
  0
LAYER
  5
2AD
100
AcDbSymbolTableRecord
100
AcDbLayerTableRecord
  2
RESC1005X40N_50000_3
 70
0
 62
7
  6
CONTINUOUS
370
-3
390
F
  0
LAYER
  5
2AE
100
AcDbSymbolTableRecord
100
AcDbLayerTableRecord
  2
RESC1005X40N_50000_30
 70
0
 62
7
  6
CONTINUOUS
370
-3
390
F
  0
LAYER
  5
2AF
100
AcDbSymbolTableRecord
100
AcDbLayerTableRecord
  2
RESC1005X40N_50000_4
 70
0
 62
7
  6
CONTINUOUS
370
-3
390
F
  0
LAYER
  5
2B0
100
AcDbSymbolTableRecord
100
AcDbLayerTableRecord
  2
RESC1005X40N_50000_5
 70
0
 62
7
  6
CONTINUOUS
370
-3
390
F
  0
LAYER
  5
2B1
100
AcDbSymbolTableRecord
100
AcDbLayerTableRecord
  2
RESC1005X40N_50000_6
 70
0
 62
7
  6
CONTINUOUS
370
-3
390
F
  0
LAYER
  5
2B2
100
AcDbSymbolTableRecord
100
AcDbLayerTableRecord
  2
RESC1005X40N_50000_7
 70
0
 62
7
  6
CONTINUOUS
370
-3
390
F
  0
LAYER
  5
2B3
100
AcDbSymbolTableRecord
100
AcDbLayerTableRecord
  2
RESC1005X40N_50000_8
 70
0
 62
7
  6
CONTINUOUS
370
-3
390
F
  0
LAYER
  5
2B4
100
AcDbSymbolTableRecord
100
AcDbLayerTableRecord
  2
RESC1005X40N_50000_9
 70
0
 62
7
  6
CONTINUOUS
370
-3
390
F
  0
LAYER
  5
2B5
100
AcDbSymbolTableRecord
100
AcDbLayerTableRecord
  2
RESC1608N_45000
 70
0
 62
7
  6
CONTINUOUS
370
-3
390
F
  0
LAYER
  5
2B6
100
AcDbSymbolTableRecord
100
AcDbLayerTableRecord
  2
RESC1608N_45000_1
 70
0
 62
7
  6
CONTINUOUS
370
-3
390
F
  0
LAYER
  5
2B7
100
AcDbSymbolTableRecord
100
AcDbLayerTableRecord
  2
RESC1608N_45000_10
 70
0
 62
7
  6
CONTINUOUS
370
-3
390
F
  0
LAYER
  5
2B8
100
AcDbSymbolTableRecord
100
AcDbLayerTableRecord
  2
RESC1608N_45000_11
 70
0
 62
7
  6
CONTINUOUS
370
-3
390
F
  0
LAYER
  5
2B9
100
AcDbSymbolTableRecord
100
AcDbLayerTableRecord
  2
RESC1608N_45000_12
 70
0
 62
7
  6
CONTINUOUS
370
-3
390
F
  0
LAYER
  5
2BA
100
AcDbSymbolTableRecord
100
AcDbLayerTableRecord
  2
RESC1608N_45000_13
 70
0
 62
7
  6
CONTINUOUS
370
-3
390
F
  0
LAYER
  5
2BB
100
AcDbSymbolTableRecord
100
AcDbLayerTableRecord
  2
RESC1608N_45000_14
 70
0
 62
7
  6
CONTINUOUS
370
-3
390
F
  0
LAYER
  5
2BC
100
AcDbSymbolTableRecord
100
AcDbLayerTableRecord
  2
RESC1608N_45000_15
 70
0
 62
7
  6
CONTINUOUS
370
-3
390
F
  0
LAYER
  5
2BD
100
AcDbSymbolTableRecord
100
AcDbLayerTableRecord
  2
RESC1608N_45000_16
 70
0
 62
7
  6
CONTINUOUS
370
-3
390
F
  0
LAYER
  5
2BE
100
AcDbSymbolTableRecord
100
AcDbLayerTableRecord
  2
RESC1608N_45000_17
 70
0
 62
7
  6
CONTINUOUS
370
-3
390
F
  0
LAYER
  5
2BF
100
AcDbSymbolTableRecord
100
AcDbLayerTableRecord
  2
RESC1608N_45000_18
 70
0
 62
7
  6
CONTINUOUS
370
-3
390
F
  0
LAYER
  5
2C0
100
AcDbSymbolTableRecord
100
AcDbLayerTableRecord
  2
RESC1608N_45000_19
 70
0
 62
7
  6
CONTINUOUS
370
-3
390
F
  0
LAYER
  5
2C1
100
AcDbSymbolTableRecord
100
AcDbLayerTableRecord
  2
RESC1608N_45000_2
 70
0
 62
7
  6
CONTINUOUS
370
-3
390
F
  0
LAYER
  5
2C2
100
AcDbSymbolTableRecord
100
AcDbLayerTableRecord
  2
RESC1608N_45000_20
 70
0
 62
7
  6
CONTINUOUS
370
-3
390
F
  0
LAYER
  5
2C3
100
AcDbSymbolTableRecord
100
AcDbLayerTableRecord
  2
RESC1608N_45000_3
 70
0
 62
7
  6
CONTINUOUS
370
-3
390
F
  0
LAYER
  5
2C4
100
AcDbSymbolTableRecord
100
AcDbLayerTableRecord
  2
RESC1608N_45000_4
 70
0
 62
7
  6
CONTINUOUS
370
-3
390
F
  0
LAYER
  5
2C5
100
AcDbSymbolTableRecord
100
AcDbLayerTableRecord
  2
RESC1608N_45000_5
 70
0
 62
7
  6
CONTINUOUS
370
-3
390
F
  0
LAYER
  5
2C6
100
AcDbSymbolTableRecord
100
AcDbLayerTableRecord
  2
RESC1608N_45000_6
 70
0
 62
7
  6
CONTINUOUS
370
-3
390
F
  0
LAYER
  5
2C7
100
AcDbSymbolTableRecord
100
AcDbLayerTableRecord
  2
RESC1608N_45000_7
 70
0
 62
7
  6
CONTINUOUS
370
-3
390
F
  0
LAYER
  5
2C8
100
AcDbSymbolTableRecord
100
AcDbLayerTableRecord
  2
RESC1608N_45000_8
 70
0
 62
7
  6
CONTINUOUS
370
-3
390
F
  0
LAYER
  5
2C9
100
AcDbSymbolTableRecord
100
AcDbLayerTableRecord
  2
RESC1608N_45000_9
 70
0
 62
7
  6
CONTINUOUS
370
-3
390
F
  0
LAYER
  5
2CA
100
AcDbSymbolTableRecord
100
AcDbLayerTableRecord
  2
RGB__255__255__255__
 70
0
 62
7
  6
CONTINUOUS
370
-3
390
F
  0
LAYER
  5
2CB
100
AcDbSymbolTableRecord
100
AcDbLayerTableRecord
  2
S-PVSON-N8_100000
 70
0
 62
7
  6
CONTINUOUS
370
-3
390
F
  0
LAYER
  5
2CC
100
AcDbSymbolTableRecord
100
AcDbLayerTableRecord
  2
SDA02H1SBD_450000
 70
0
 62
7
  6
CONTINUOUS
370
-3
390
F
  0
LAYER
  5
2CD
100
AcDbSymbolTableRecord
100
AcDbLayerTableRecord
  2
SDA02H1SBD_450000_1
 70
0
 62
7
  6
CONTINUOUS
370
-3
390
F
  0
LAYER
  5
2CE
100
AcDbSymbolTableRecord
100
AcDbLayerTableRecord
  2
SIMBOLI
 70
0
 62
7
  6
CONTINUOUS
370
-3
390
F
  0
LAYER
  5
2CF
100
AcDbSymbolTableRecord
100
AcDbLayerTableRecord
  2
SMUSSO
 70
0
 62
7
  6
CONTINUOUS
370
-3
390
F
  0
LAYER
  5
2D0
100
AcDbSymbolTableRecord
100
AcDbLayerTableRecord
  2
SNAPLINE
 70
0
 62
7
  6
CONTINUOUS
370
-3
390
F
  0
LAYER
  5
2D1
100
AcDbSymbolTableRecord
100
AcDbLayerTableRecord
  2
SODFL1608X70N_70000
 70
0
 62
7
  6
CONTINUOUS
370
-3
390
F
  0
LAYER
  5
2D2
100
AcDbSymbolTableRecord
100
AcDbLayerTableRecord
  2
SOP8-T1-RF-FINE-VIMAR_150000
 70
0
 62
7
  6
CONTINUOUS
370
-3
390
F
  0
LAYER
  5
2D3
100
AcDbSymbolTableRecord
100
AcDbLayerTableRecord
  2
SUPERFICI
 70
0
 62
7
  6
CONTINUOUS
370
-3
390
F
  0
LAYER
  5
2D4
100
AcDbSymbolTableRecord
100
AcDbLayerTableRecord
  2
TQFP48-F1-RF-VIMAR_160000
 70
0
 62
7
  6
CONTINUOUS
370
-3
390
F
  0
LAYER
  5
2D5
100
AcDbSymbolTableRecord
100
AcDbLayerTableRecord
  2
TRASH
 70
0
 62
7
  6
CONTINUOUS
370
-3
390
F
  0
LAYER
  5
2D6
100
AcDbSymbolTableRecord
100
AcDbLayerTableRecord
  2
TR_N6L50T1S_620000
 70
0
 62
7
  6
CONTINUOUS
370
-3
390
F
  0
LAYER
  5
2D7
100
AcDbSymbolTableRecord
100
AcDbLayerTableRecord
  2
TR_N6L50T1S_620000_1
 70
0
 62
7
  6
CONTINUOUS
370
-3
390
F
  0
LAYER
  5
2D8
100
AcDbSymbolTableRecord
100
AcDbLayerTableRecord
  2
TSSOP14-RF-VIMAR_110000
 70
0
 62
7
  6
CONTINUOUS
370
-3
390
F
  0
LAYER
  5
2D9
100
AcDbSymbolTableRecord
100
AcDbLayerTableRecord
  2
WUERTH_TYPE_S_292000
 70
0
 62
7
  6
CONTINUOUS
370
-3
390
F
  0
LAYER
  5
2DA
100
AcDbSymbolTableRecord
100
AcDbLayerTableRecord
  2
XSEC_DATUMS
 70
0
 62
7
  6
CONTINUOUS
370
-3
390
F
  0
LAYER
  5
2DB
100
AcDbSymbolTableRecord
100
AcDbLayerTableRecord
  2
_101
 70
0
 62
7
  6
CONTINUOUS
370
-3
390
F
  0
LAYER
  5
2DC
100
AcDbSymbolTableRecord
100
AcDbLayerTableRecord
  2
_1038
 70
0
 62
7
  6
CONTINUOUS
370
-3
390
F
  0
LAYER
  5
2DD
100
AcDbSymbolTableRecord
100
AcDbLayerTableRecord
  2
_1156
 70
0
 62
7
  6
CONTINUOUS
370
-3
390
F
  0
LAYER
  5
2DE
100
AcDbSymbolTableRecord
100
AcDbLayerTableRecord
  2
_1248
 70
0
 62
7
  6
CONTINUOUS
370
-3
390
F
  0
LAYER
  5
2DF
100
AcDbSymbolTableRecord
100
AcDbLayerTableRecord
  2
_1408
 70
0
 62
7
  6
CONTINUOUS
370
-3
390
F
  0
LAYER
  5
2E0
100
AcDbSymbolTableRecord
100
AcDbLayerTableRecord
  2
_1426
 70
0
 62
7
  6
CONTINUOUS
370
-3
390
F
  0
LAYER
  5
2E1
100
AcDbSymbolTableRecord
100
AcDbLayerTableRecord
  2
_1444
 70
0
 62
7
  6
CONTINUOUS
370
-3
390
F
  0
LAYER
  5
2E2
100
AcDbSymbolTableRecord
100
AcDbLayerTableRecord
  2
_1469
 70
0
 62
7
  6
CONTINUOUS
370
-3
390
F
  0
LAYER
  5
2E3
100
AcDbSymbolTableRecord
100
AcDbLayerTableRecord
  2
_1498
 70
0
 62
7
  6
CONTINUOUS
370
-3
390
F
  0
LAYER
  5
2E4
100
AcDbSymbolTableRecord
100
AcDbLayerTableRecord
  2
_1504
 70
0
 62
7
  6
CONTINUOUS
370
-3
390
F
  0
LAYER
  5
2E5
100
AcDbSymbolTableRecord
100
AcDbLayerTableRecord
  2
_1567
 70
0
 62
7
  6
CONTINUOUS
370
-3
390
F
  0
LAYER
  5
2E6
100
AcDbSymbolTableRecord
100
AcDbLayerTableRecord
  2
_1576
 70
0
 62
7
  6
CONTINUOUS
370
-3
390
F
  0
LAYER
  5
2E7
100
AcDbSymbolTableRecord
100
AcDbLayerTableRecord
  2
_1779
 70
0
 62
7
  6
CONTINUOUS
370
-3
390
F
  0
LAYER
  5
2E8
100
AcDbSymbolTableRecord
100
AcDbLayerTableRecord
  2
_182
 70
0
 62
7
  6
CONTINUOUS
370
-3
390
F
  0
LAYER
  5
2E9
100
AcDbSymbolTableRecord
100
AcDbLayerTableRecord
  2
_1869
 70
0
 62
7
  6
CONTINUOUS
370
-3
390
F
  0
LAYER
  5
2EA
100
AcDbSymbolTableRecord
100
AcDbLayerTableRecord
  2
_1968
 70
0
 62
7
  6
CONTINUOUS
370
-3
390
F
  0
LAYER
  5
2EB
100
AcDbSymbolTableRecord
100
AcDbLayerTableRecord
  2
_198
 70
0
 62
7
  6
CONTINUOUS
370
-3
390
F
  0
LAYER
  5
2EC
100
AcDbSymbolTableRecord
100
AcDbLayerTableRecord
  2
_2019
 70
0
 62
7
  6
CONTINUOUS
370
-3
390
F
  0
LAYER
  5
2ED
100
AcDbSymbolTableRecord
100
AcDbLayerTableRecord
  2
_2038
 70
0
 62
7
  6
CONTINUOUS
370
-3
390
F
  0
LAYER
  5
2EE
100
AcDbSymbolTableRecord
100
AcDbLayerTableRecord
  2
_2041
 70
0
 62
7
  6
CONTINUOUS
370
-3
390
F
  0
LAYER
  5
2EF
100
AcDbSymbolTableRecord
100
AcDbLayerTableRecord
  2
_2059
 70
0
 62
7
  6
CONTINUOUS
370
-3
390
F
  0
LAYER
  5
2F0
100
AcDbSymbolTableRecord
100
AcDbLayerTableRecord
  2
_2061
 70
0
 62
7
  6
CONTINUOUS
370
-3
390
F
  0
LAYER
  5
2F1
100
AcDbSymbolTableRecord
100
AcDbLayerTableRecord
  2
_2079
 70
0
 62
7
  6
CONTINUOUS
370
-3
390
F
  0
LAYER
  5
2F2
100
AcDbSymbolTableRecord
100
AcDbLayerTableRecord
  2
_2110
 70
0
 62
7
  6
CONTINUOUS
370
-3
390
F
  0
LAYER
  5
2F3
100
AcDbSymbolTableRecord
100
AcDbLayerTableRecord
  2
_2129
 70
0
 62
7
  6
CONTINUOUS
370
-3
390
F
  0
LAYER
  5
2F4
100
AcDbSymbolTableRecord
100
AcDbLayerTableRecord
  2
_2161
 70
0
 62
7
  6
CONTINUOUS
370
-3
390
F
  0
LAYER
  5
2F5
100
AcDbSymbolTableRecord
100
AcDbLayerTableRecord
  2
_243
 70
0
 62
7
  6
CONTINUOUS
370
-3
390
F
  0
LAYER
  5
2F6
100
AcDbSymbolTableRecord
100
AcDbLayerTableRecord
  2
_2499
 70
0
 62
7
  6
CONTINUOUS
370
-3
390
F
  0
LAYER
  5
2F7
100
AcDbSymbolTableRecord
100
AcDbLayerTableRecord
  2
_2519
 70
0
 62
7
  6
CONTINUOUS
370
-3
390
F
  0
LAYER
  5
2F8
100
AcDbSymbolTableRecord
100
AcDbLayerTableRecord
  2
_2547
 70
0
 62
7
  6
CONTINUOUS
370
-3
390
F
  0
LAYER
  5
2F9
100
AcDbSymbolTableRecord
100
AcDbLayerTableRecord
  2
_2599
 70
0
 62
7
  6
CONTINUOUS
370
-3
390
F
  0
LAYER
  5
2FA
100
AcDbSymbolTableRecord
100
AcDbLayerTableRecord
  2
_2628
 70
0
 62
7
  6
CONTINUOUS
370
-3
390
F
  0
LAYER
  5
2FB
100
AcDbSymbolTableRecord
100
AcDbLayerTableRecord
  2
_263
 70
0
 62
7
  6
CONTINUOUS
370
-3
390
F
  0
LAYER
  5
2FC
100
AcDbSymbolTableRecord
100
AcDbLayerTableRecord
  2
_2641
 70
0
 62
7
  6
CONTINUOUS
370
-3
390
F
  0
LAYER
  5
2FD
100
AcDbSymbolTableRecord
100
AcDbLayerTableRecord
  2
_2713
 70
0
 62
7
  6
CONTINUOUS
370
-3
390
F
  0
LAYER
  5
2FE
100
AcDbSymbolTableRecord
100
AcDbLayerTableRecord
  2
_2762
 70
0
 62
7
  6
CONTINUOUS
370
-3
390
F
  0
LAYER
  5
2FF
100
AcDbSymbolTableRecord
100
AcDbLayerTableRecord
  2
_2942
 70
0
 62
7
  6
CONTINUOUS
370
-3
390
F
  0
LAYER
  5
300
100
AcDbSymbolTableRecord
100
AcDbLayerTableRecord
  2
_3074
 70
0
 62
7
  6
CONTINUOUS
370
-3
390
F
  0
LAYER
  5
301
100
AcDbSymbolTableRecord
100
AcDbLayerTableRecord
  2
_3099
 70
0
 62
7
  6
CONTINUOUS
370
-3
390
F
  0
LAYER
  5
302
100
AcDbSymbolTableRecord
100
AcDbLayerTableRecord
  2
_311
 70
0
 62
7
  6
CONTINUOUS
370
-3
390
F
  0
LAYER
  5
303
100
AcDbSymbolTableRecord
100
AcDbLayerTableRecord
  2
_3119
 70
0
 62
7
  6
CONTINUOUS
370
-3
390
F
  0
LAYER
  5
304
100
AcDbSymbolTableRecord
100
AcDbLayerTableRecord
  2
_3167
 70
0
 62
7
  6
CONTINUOUS
370
-3
390
F
  0
LAYER
  5
305
100
AcDbSymbolTableRecord
100
AcDbLayerTableRecord
  2
_3198
 70
0
 62
7
  6
CONTINUOUS
370
-3
390
F
  0
LAYER
  5
306
100
AcDbSymbolTableRecord
100
AcDbLayerTableRecord
  2
_3228
 70
0
 62
7
  6
CONTINUOUS
370
-3
390
F
  0
LAYER
  5
307
100
AcDbSymbolTableRecord
100
AcDbLayerTableRecord
  2
_3313
 70
0
 62
7
  6
CONTINUOUS
370
-3
390
F
  0
LAYER
  5
308
100
AcDbSymbolTableRecord
100
AcDbLayerTableRecord
  2
_3318
 70
0
 62
7
  6
CONTINUOUS
370
-3
390
F
  0
LAYER
  5
309
100
AcDbSymbolTableRecord
100
AcDbLayerTableRecord
  2
_3342
 70
0
 62
7
  6
CONTINUOUS
370
-3
390
F
  0
LAYER
  5
30A
100
AcDbSymbolTableRecord
100
AcDbLayerTableRecord
  2
_3351
 70
0
 62
7
  6
CONTINUOUS
370
-3
390
F
  0
LAYER
  5
30B
100
AcDbSymbolTableRecord
100
AcDbLayerTableRecord
  2
_3355
 70
0
 62
7
  6
CONTINUOUS
370
-3
390
F
  0
LAYER
  5
30C
100
AcDbSymbolTableRecord
100
AcDbLayerTableRecord
  2
_3373
 70
0
 62
7
  6
CONTINUOUS
370
-3
390
F
  0
LAYER
  5
30D
100
AcDbSymbolTableRecord
100
AcDbLayerTableRecord
  2
_3385
 70
0
 62
7
  6
CONTINUOUS
370
-3
390
F
  0
LAYER
  5
30E
100
AcDbSymbolTableRecord
100
AcDbLayerTableRecord
  2
_3400
 70
0
 62
7
  6
CONTINUOUS
370
-3
390
F
  0
LAYER
  5
30F
100
AcDbSymbolTableRecord
100
AcDbLayerTableRecord
  2
_352
 70
0
 62
7
  6
CONTINUOUS
370
-3
390
F
  0
LAYER
  5
310
100
AcDbSymbolTableRecord
100
AcDbLayerTableRecord
  2
_3585
 70
0
 62
7
  6
CONTINUOUS
370
-3
390
F
  0
LAYER
  5
311
100
AcDbSymbolTableRecord
100
AcDbLayerTableRecord
  2
_3587
 70
0
 62
7
  6
CONTINUOUS
370
-3
390
F
  0
LAYER
  5
312
100
AcDbSymbolTableRecord
100
AcDbLayerTableRecord
  2
_3625
 70
0
 62
7
  6
CONTINUOUS
370
-3
390
F
  0
LAYER
  5
313
100
AcDbSymbolTableRecord
100
AcDbLayerTableRecord
  2
_3640
 70
0
 62
7
  6
CONTINUOUS
370
-3
390
F
  0
LAYER
  5
314
100
AcDbSymbolTableRecord
100
AcDbLayerTableRecord
  2
_3978
 70
0
 62
7
  6
CONTINUOUS
370
-3
390
F
  0
LAYER
  5
315
100
AcDbSymbolTableRecord
100
AcDbLayerTableRecord
  2
_3997
 70
0
 62
7
  6
CONTINUOUS
370
-3
390
F
  0
LAYER
  5
316
100
AcDbSymbolTableRecord
100
AcDbLayerTableRecord
  2
_4061
 70
0
 62
7
  6
CONTINUOUS
370
-3
390
F
  0
LAYER
  5
317
100
AcDbSymbolTableRecord
100
AcDbLayerTableRecord
  2
_4106
 70
0
 62
7
  6
CONTINUOUS
370
-3
390
F
  0
LAYER
  5
318
100
AcDbSymbolTableRecord
100
AcDbLayerTableRecord
  2
_4123
 70
0
 62
7
  6
CONTINUOUS
370
-3
390
F
  0
LAYER
  5
319
100
AcDbSymbolTableRecord
100
AcDbLayerTableRecord
  2
_4168
 70
0
 62
7
  6
CONTINUOUS
370
-3
390
F
  0
LAYER
  5
31A
100
AcDbSymbolTableRecord
100
AcDbLayerTableRecord
  2
_422
 70
0
 62
7
  6
CONTINUOUS
370
-3
390
F
  0
LAYER
  5
31B
100
AcDbSymbolTableRecord
100
AcDbLayerTableRecord
  2
_4225
 70
0
 62
7
  6
CONTINUOUS
370
-3
390
F
  0
LAYER
  5
31C
100
AcDbSymbolTableRecord
100
AcDbLayerTableRecord
  2
_4445
 70
0
 62
7
  6
CONTINUOUS
370
-3
390
F
  0
LAYER
  5
31D
100
AcDbSymbolTableRecord
100
AcDbLayerTableRecord
  2
_4498
 70
0
 62
7
  6
CONTINUOUS
370
-3
390
F
  0
LAYER
  5
31E
100
AcDbSymbolTableRecord
100
AcDbLayerTableRecord
  2
_4558
 70
0
 62
7
  6
CONTINUOUS
370
-3
390
F
  0
LAYER
  5
31F
100
AcDbSymbolTableRecord
100
AcDbLayerTableRecord
  2
_464
 70
0
 62
7
  6
CONTINUOUS
370
-3
390
F
  0
LAYER
  5
320
100
AcDbSymbolTableRecord
100
AcDbLayerTableRecord
  2
_4814
 70
0
 62
7
  6
CONTINUOUS
370
-3
390
F
  0
LAYER
  5
321
100
AcDbSymbolTableRecord
100
AcDbLayerTableRecord
  2
_4839
 70
0
 62
7
  6
CONTINUOUS
370
-3
390
F
  0
LAYER
  5
322
100
AcDbSymbolTableRecord
100
AcDbLayerTableRecord
  2
_4842
 70
0
 62
7
  6
CONTINUOUS
370
-3
390
F
  0
LAYER
  5
323
100
AcDbSymbolTableRecord
100
AcDbLayerTableRecord
  2
_4908
 70
0
 62
7
  6
CONTINUOUS
370
-3
390
F
  0
LAYER
  5
324
100
AcDbSymbolTableRecord
100
AcDbLayerTableRecord
  2
_4922
 70
0
 62
7
  6
CONTINUOUS
370
-3
390
F
  0
LAYER
  5
325
100
AcDbSymbolTableRecord
100
AcDbLayerTableRecord
  2
_5021
 70
0
 62
7
  6
CONTINUOUS
370
-3
390
F
  0
LAYER
  5
326
100
AcDbSymbolTableRecord
100
AcDbLayerTableRecord
  2
_504
 70
0
 62
7
  6
CONTINUOUS
370
-3
390
F
  0
LAYER
  5
327
100
AcDbSymbolTableRecord
100
AcDbLayerTableRecord
  2
_5123
 70
0
 62
7
  6
CONTINUOUS
370
-3
390
F
  0
LAYER
  5
328
100
AcDbSymbolTableRecord
100
AcDbLayerTableRecord
  2
_5156
 70
0
 62
7
  6
CONTINUOUS
370
-3
390
F
  0
LAYER
  5
329
100
AcDbSymbolTableRecord
100
AcDbLayerTableRecord
  2
_5169
 70
0
 62
7
  6
CONTINUOUS
370
-3
390
F
  0
LAYER
  5
32A
100
AcDbSymbolTableRecord
100
AcDbLayerTableRecord
  2
_5182
 70
0
 62
7
  6
CONTINUOUS
370
-3
390
F
  0
LAYER
  5
32B
100
AcDbSymbolTableRecord
100
AcDbLayerTableRecord
  2
_5275
 70
0
 62
7
  6
CONTINUOUS
370
-3
390
F
  0
LAYER
  5
32C
100
AcDbSymbolTableRecord
100
AcDbLayerTableRecord
  2
_5306
 70
0
 62
7
  6
CONTINUOUS
370
-3
390
F
  0
LAYER
  5
32D
100
AcDbSymbolTableRecord
100
AcDbLayerTableRecord
  2
_5453
 70
0
 62
7
  6
CONTINUOUS
370
-3
390
F
  0
LAYER
  5
32E
100
AcDbSymbolTableRecord
100
AcDbLayerTableRecord
  2
_5468
 70
0
 62
7
  6
CONTINUOUS
370
-3
390
F
  0
LAYER
  5
32F
100
AcDbSymbolTableRecord
100
AcDbLayerTableRecord
  2
_55
 70
0
 62
7
  6
CONTINUOUS
370
-3
390
F
  0
LAYER
  5
330
100
AcDbSymbolTableRecord
100
AcDbLayerTableRecord
  2
_5533
 70
0
 62
7
  6
CONTINUOUS
370
-3
390
F
  0
LAYER
  5
331
100
AcDbSymbolTableRecord
100
AcDbLayerTableRecord
  2
_5598
 70
0
 62
7
  6
CONTINUOUS
370
-3
390
F
  0
LAYER
  5
332
100
AcDbSymbolTableRecord
100
AcDbLayerTableRecord
  2
_5626
 70
0
 62
7
  6
CONTINUOUS
370
-3
390
F
  0
LAYER
  5
333
100
AcDbSymbolTableRecord
100
AcDbLayerTableRecord
  2
_5658
 70
0
 62
7
  6
CONTINUOUS
370
-3
390
F
  0
LAYER
  5
334
100
AcDbSymbolTableRecord
100
AcDbLayerTableRecord
  2
_5688
 70
0
 62
7
  6
CONTINUOUS
370
-3
390
F
  0
LAYER
  5
335
100
AcDbSymbolTableRecord
100
AcDbLayerTableRecord
  2
_5742
 70
0
 62
7
  6
CONTINUOUS
370
-3
390
F
  0
LAYER
  5
336
100
AcDbSymbolTableRecord
100
AcDbLayerTableRecord
  2
_5758
 70
0
 62
7
  6
CONTINUOUS
370
-3
390
F
  0
LAYER
  5
337
100
AcDbSymbolTableRecord
100
AcDbLayerTableRecord
  2
_5783
 70
0
 62
7
  6
CONTINUOUS
370
-3
390
F
  0
LAYER
  5
338
100
AcDbSymbolTableRecord
100
AcDbLayerTableRecord
  2
_5836
 70
0
 62
7
  6
CONTINUOUS
370
-3
390
F
  0
LAYER
  5
339
100
AcDbSymbolTableRecord
100
AcDbLayerTableRecord
  2
_5874
 70
0
 62
7
  6
CONTINUOUS
370
-3
390
F
  0
LAYER
  5
33A
100
AcDbSymbolTableRecord
100
AcDbLayerTableRecord
  2
_5903
 70
0
 62
7
  6
CONTINUOUS
370
-3
390
F
  0
LAYER
  5
33B
100
AcDbSymbolTableRecord
100
AcDbLayerTableRecord
  2
_5960
 70
0
 62
7
  6
CONTINUOUS
370
-3
390
F
  0
LAYER
  5
33C
100
AcDbSymbolTableRecord
100
AcDbLayerTableRecord
  2
_5977
 70
0
 62
7
  6
CONTINUOUS
370
-3
390
F
  0
LAYER
  5
33D
100
AcDbSymbolTableRecord
100
AcDbLayerTableRecord
  2
_6011
 70
0
 62
7
  6
CONTINUOUS
370
-3
390
F
  0
LAYER
  5
33E
100
AcDbSymbolTableRecord
100
AcDbLayerTableRecord
  2
_6033
 70
0
 62
7
  6
CONTINUOUS
370
-3
390
F
  0
LAYER
  5
33F
100
AcDbSymbolTableRecord
100
AcDbLayerTableRecord
  2
_610
 70
0
 62
7
  6
CONTINUOUS
370
-3
390
F
  0
LAYER
  5
340
100
AcDbSymbolTableRecord
100
AcDbLayerTableRecord
  2
_6219
 70
0
 62
7
  6
CONTINUOUS
370
-3
390
F
  0
LAYER
  5
341
100
AcDbSymbolTableRecord
100
AcDbLayerTableRecord
  2
_6305
 70
0
 62
7
  6
CONTINUOUS
370
-3
390
F
  0
LAYER
  5
342
100
AcDbSymbolTableRecord
100
AcDbLayerTableRecord
  2
_6332
 70
0
 62
7
  6
CONTINUOUS
370
-3
390
F
  0
LAYER
  5
343
100
AcDbSymbolTableRecord
100
AcDbLayerTableRecord
  2
_6380
 70
0
 62
7
  6
CONTINUOUS
370
-3
390
F
  0
LAYER
  5
344
100
AcDbSymbolTableRecord
100
AcDbLayerTableRecord
  2
_6452
 70
0
 62
7
  6
CONTINUOUS
370
-3
390
F
  0
LAYER
  5
345
100
AcDbSymbolTableRecord
100
AcDbLayerTableRecord
  2
_646
 70
0
 62
7
  6
CONTINUOUS
370
-3
390
F
  0
LAYER
  5
346
100
AcDbSymbolTableRecord
100
AcDbLayerTableRecord
  2
_6481
 70
0
 62
7
  6
CONTINUOUS
370
-3
390
F
  0
LAYER
  5
347
100
AcDbSymbolTableRecord
100
AcDbLayerTableRecord
  2
_6571
 70
0
 62
7
  6
CONTINUOUS
370
-3
390
F
  0
LAYER
  5
348
100
AcDbSymbolTableRecord
100
AcDbLayerTableRecord
  2
_660
 70
0
 62
7
  6
CONTINUOUS
370
-3
390
F
  0
LAYER
  5
349
100
AcDbSymbolTableRecord
100
AcDbLayerTableRecord
  2
_6664
 70
0
 62
7
  6
CONTINUOUS
370
-3
390
F
  0
LAYER
  5
34A
100
AcDbSymbolTableRecord
100
AcDbLayerTableRecord
  2
_6753
 70
0
 62
7
  6
CONTINUOUS
370
-3
390
F
  0
LAYER
  5
34B
100
AcDbSymbolTableRecord
100
AcDbLayerTableRecord
  2
_6926
 70
0
 62
7
  6
CONTINUOUS
370
-3
390
F
  0
LAYER
  5
34C
100
AcDbSymbolTableRecord
100
AcDbLayerTableRecord
  2
_7024
 70
0
 62
7
  6
CONTINUOUS
370
-3
390
F
  0
LAYER
  5
34D
100
AcDbSymbolTableRecord
100
AcDbLayerTableRecord
  2
_7059
 70
0
 62
7
  6
CONTINUOUS
370
-3
390
F
  0
LAYER
  5
34E
100
AcDbSymbolTableRecord
100
AcDbLayerTableRecord
  2
_72
 70
0
 62
7
  6
CONTINUOUS
370
-3
390
F
  0
LAYER
  5
34F
100
AcDbSymbolTableRecord
100
AcDbLayerTableRecord
  2
_7282
 70
0
 62
7
  6
CONTINUOUS
370
-3
390
F
  0
LAYER
  5
350
100
AcDbSymbolTableRecord
100
AcDbLayerTableRecord
  2
_7328
 70
0
 62
7
  6
CONTINUOUS
370
-3
390
F
  0
LAYER
  5
351
100
AcDbSymbolTableRecord
100
AcDbLayerTableRecord
  2
_7378
 70
0
 62
7
  6
CONTINUOUS
370
-3
390
F
  0
LAYER
  5
352
100
AcDbSymbolTableRecord
100
AcDbLayerTableRecord
  2
_7441
 70
0
 62
7
  6
CONTINUOUS
370
-3
390
F
  0
LAYER
  5
353
100
AcDbSymbolTableRecord
100
AcDbLayerTableRecord
  2
_7501
 70
0
 62
7
  6
CONTINUOUS
370
-3
390
F
  0
LAYER
  5
354
100
AcDbSymbolTableRecord
100
AcDbLayerTableRecord
  2
_7506
 70
0
 62
7
  6
CONTINUOUS
370
-3
390
F
  0
LAYER
  5
355
100
AcDbSymbolTableRecord
100
AcDbLayerTableRecord
  2
_7520
 70
0
 62
7
  6
CONTINUOUS
370
-3
390
F
  0
LAYER
  5
356
100
AcDbSymbolTableRecord
100
AcDbLayerTableRecord
  2
_7543
 70
0
 62
7
  6
CONTINUOUS
370
-3
390
F
  0
LAYER
  5
357
100
AcDbSymbolTableRecord
100
AcDbLayerTableRecord
  2
_7594
 70
0
 62
7
  6
CONTINUOUS
370
-3
390
F
  0
LAYER
  5
358
100
AcDbSymbolTableRecord
100
AcDbLayerTableRecord
  2
_7603
 70
0
 62
7
  6
CONTINUOUS
370
-3
390
F
  0
LAYER
  5
359
100
AcDbSymbolTableRecord
100
AcDbLayerTableRecord
  2
_7631
 70
0
 62
7
  6
CONTINUOUS
370
-3
390
F
  0
LAYER
  5
35A
100
AcDbSymbolTableRecord
100
AcDbLayerTableRecord
  2
_7679
 70
0
 62
7
  6
CONTINUOUS
370
-3
390
F
  0
LAYER
  5
35B
100
AcDbSymbolTableRecord
100
AcDbLayerTableRecord
  2
_7685
 70
0
 62
7
  6
CONTINUOUS
370
-3
390
F
  0
LAYER
  5
35C
100
AcDbSymbolTableRecord
100
AcDbLayerTableRecord
  2
_7711
 70
0
 62
7
  6
CONTINUOUS
370
-3
390
F
  0
LAYER
  5
35D
100
AcDbSymbolTableRecord
100
AcDbLayerTableRecord
  2
_7755
 70
0
 62
7
  6
CONTINUOUS
370
-3
390
F
  0
LAYER
  5
35E
100
AcDbSymbolTableRecord
100
AcDbLayerTableRecord
  2
_7764
 70
0
 62
7
  6
CONTINUOUS
370
-3
390
F
  0
LAYER
  5
35F
100
AcDbSymbolTableRecord
100
AcDbLayerTableRecord
  2
_7960
 70
0
 62
7
  6
CONTINUOUS
370
-3
390
F
  0
LAYER
  5
360
100
AcDbSymbolTableRecord
100
AcDbLayerTableRecord
  2
_7993
 70
0
 62
7
  6
CONTINUOUS
370
-3
390
F
  0
LAYER
  5
361
100
AcDbSymbolTableRecord
100
AcDbLayerTableRecord
  2
_805
 70
0
 62
7
  6
CONTINUOUS
370
-3
390
F
  0
LAYER
  5
362
100
AcDbSymbolTableRecord
100
AcDbLayerTableRecord
  2
_827
 70
0
 62
7
  6
CONTINUOUS
370
-3
390
F
  0
LAYER
  5
363
100
AcDbSymbolTableRecord
100
AcDbLayerTableRecord
  2
_8299
 70
0
 62
7
  6
CONTINUOUS
370
-3
390
F
  0
LAYER
  5
364
100
AcDbSymbolTableRecord
100
AcDbLayerTableRecord
  2
_8325
 70
0
 62
7
  6
CONTINUOUS
370
-3
390
F
  0
LAYER
  5
365
100
AcDbSymbolTableRecord
100
AcDbLayerTableRecord
  2
_834
 70
0
 62
7
  6
CONTINUOUS
370
-3
390
F
  0
LAYER
  5
366
100
AcDbSymbolTableRecord
100
AcDbLayerTableRecord
  2
_8436
 70
0
 62
7
  6
CONTINUOUS
370
-3
390
F
  0
LAYER
  5
367
100
AcDbSymbolTableRecord
100
AcDbLayerTableRecord
  2
_8442
 70
0
 62
7
  6
CONTINUOUS
370
-3
390
F
  0
LAYER
  5
368
100
AcDbSymbolTableRecord
100
AcDbLayerTableRecord
  2
_8451
 70
0
 62
7
  6
CONTINUOUS
370
-3
390
F
  0
LAYER
  5
369
100
AcDbSymbolTableRecord
100
AcDbLayerTableRecord
  2
_8528
 70
0
 62
7
  6
CONTINUOUS
370
-3
390
F
  0
LAYER
  5
36A
100
AcDbSymbolTableRecord
100
AcDbLayerTableRecord
  2
_973
 70
0
 62
7
  6
CONTINUOUS
370
-3
390
F
  0
LAYER
  5
36B
100
AcDbSymbolTableRecord
100
AcDbLayerTableRecord
  2
___SHELL
 70
0
 62
7
  6
CONTINUOUS
370
-3
390
F
  0
ENDTAB
  0
TABLE
  2
STYLE
  5
3
100
AcDbSymbolTable
 70
1
  0
STYLE
  5
11
100
AcDbSymbolTableRecord
100
AcDbTextStyleTableRecord
  2
STANDARD
 70
0
 40
0.0
 41
0.8
 50
0.0
 71
0
 42
0.2
  3
txt
  4

  0
STYLE
  5
36C
100
AcDbSymbolTableRecord
100
AcDbTextStyleTableRecord
  2
TEXTSTYLE_1
 70
0
 40
0.0
 41
0.8
 50
0.0
 71
0
 42
0.2
  3
gdt
  4

  0
ENDTAB
  0
TABLE
  2
VIEW
  5
6
100
AcDbSymbolTable
 70
0
  0
ENDTAB
  0
TABLE
  2
UCS
  5
7
100
AcDbSymbolTable
 70
0
  0
ENDTAB
  0
TABLE
  2
APPID
  5
9
100
AcDbSymbolTable
 70
1
  0
APPID
  5
36D
100
AcDbSymbolTableRecord
100
AcDbRegAppTableRecord
  2
ACAD
 70
0
  0
ENDTAB
  0
TABLE
  2
BLOCK_RECORD
  5
1
100
AcDbSymbolTable
 70
0
  0
BLOCK_RECORD
  5
36E
100
AcDbSymbolTableRecord
100
AcDbBlockTableRecord
  2
*Model_Space
  0
BLOCK_RECORD
  5
36F
100
AcDbSymbolTableRecord
100
AcDbBlockTableRecord
  2
*Paper_Space
  0
ENDTAB
  0
TABLE
  2
DIMSTYLE
  5
A
100
AcDbSymbolTable
 70
1
100
AcDbDimStyleTable
 71
0
  0
DIMSTYLE
105
370
100
AcDbSymbolTableRecord
100
AcDbDimStyleTableRecord
  2
STANDARD
 70
0
  3

  4

 40
1.0
 41
3.0
 42
0.5
 43
0.38
 44
1.5
 45
0.0
 46
0.0
 47
0.01
 48
0.01
140
3.0
141
0.09
142
0.0
143
25.4
144
1.0
145
0.0
146
1.0
147
0.625
 71
1.0
 72
0.0
 73
0
 74
0
 75
0
 76
0
 77
1
 78
8
170
0
171
2
172
0
173
0
174
0
175
0
176
0
177
0
178
0
270
2
271
2
272
2
273
2
274
2
275
0
280
0
281
0
282
0
283
1
284
8
285
0
286
0
287
3
288
0
340
11
278
44
  0
ENDTAB
  0
ENDSEC
  0
SECTION
  2
BLOCKS
  0
BLOCK
  5
20
100
AcDbEntity
  8
0
100
AcDbBlockBegin
  2
*Model_Space
 70
0
 10
0.0
 20
0.0
 30
0.0
  3
*Model_Space
  1

  0
ENDBLK
  5
21
100
AcDbEntity
  8
0
100
AcDbBlockEnd
  0
BLOCK
  5
1C
100
AcDbEntity
  8
0
100
AcDbBlockBegin
  2
*Paper_Space
 70
0
 10
0.0
 20
0.0
 30
0.0
  3
*Paper_Space
  1

  0
ENDBLK
  5
1D
100
AcDbEntity
  8
0
100
AcDbBlockEnd
  0
ENDSEC
  0
SECTION
  2
ENTITIES
  0
LWPOLYLINE
  5
371
100
AcDbEntity
  8
RACCORDO
100
AcDbPolyline
 62
7
  6
CONTINUOUS
 90
8
 70
0
 10
-24.4084831943
 20
23.6556820899
 10
-24.429817955
 20
23.6342950016
 10
-24.44869788
 20
23.6100855771
 10
-24.4646419941
 20
23.5834091227
 10
-24.4772459951
 20
23.5547045661
 10
-24.4861736068
 20
23.5245820196
 10
-24.4912427318
 20
23.4936787523
 10
-24.4924883061
 20
23.4683774062
  0
LINE
  5
372
100
AcDbEntity
  8
RACCORDO
100
AcDbLine
 62
7
  6
CONTINUOUS
 10
-23.2940996426
 20
24.6452088368
 11
-24.4084831943
 21
23.6556820899
  0
LINE
  5
373
100
AcDbEntity
  8
RACCORDO
100
AcDbLine
 62
253
  6
CONTINUOUS
 10
-23.12883308
 20
24.6741430686
 11
-24.2432165945
 21
23.6846163548
  0
LINE
  5
374
100
AcDbEntity
  8
RACCORDO
100
AcDbLine
 62
7
  6
CONTINUOUS
 10
-23.2914631102
 20
24.6474920674
 11
-23.2940996404
 21
24.6452088387
  0
LINE
  5
375
100
AcDbEntity
  8
RACCORDO
100
AcDbLine
 62
7
  6
CONTINUOUS
 10
-22.9113516566
 20
24.9685202937
 11
-23.291448322
 21
24.6475174181
  0
LINE
  5
376
100
AcDbEntity
  8
RACCORDO
100
AcDbLine
 62
253
  6
CONTINUOUS
 10
-22.7493197443
 20
24.9946533051
 11
-23.12883308
 21
24.6741430686
  0
LINE
  5
377
100
AcDbEntity
  8
RACCORDO
100
AcDbLine
 62
253
  6
CONTINUOUS
 10
-22.9015208706
 20
24.9761063913
 11
-22.9113524381
 21
24.9685196338
  0
LINE
  5
378
100
AcDbEntity
  8
RACCORDO
100
AcDbLine
 62
7
  6
CONTINUOUS
 10
-22.8886646025
 20
24.9855716398
 11
-22.9114228875
 21
24.9684600968
  0
LWPOLYLINE
  5
379
100
AcDbEntity
  8
RACCORDO
100
AcDbPolyline
 62
7
  6
CONTINUOUS
 90
19
 70
0
 10
-27.3822407587
 20
19.1511807552
 10
-27.39964126
 20
19.1335365268
 10
-27.4661043185
 20
19.0596273869
 10
-27.5279770767
 20
18.9807461643
 10
-27.5854692376
 20
18.8976469107
 10
-27.6390292831
 20
18.8106011463
 10
-27.6890031943
 20
18.7196868404
 10
-27.7353946607
 20
18.6254237072
 10
-27.7782107499
 20
18.5282279245
 10
-27.8174646506
 20
18.4283514732
 10
-27.8530574028
 20
18.3262919017
 10
-27.8848682566
 20
18.222508484
 10
-27.9127995641
 20
18.1173553818
 10
-27.9367014831
 20
18.0113234594
 10
-27.9563926549
 20
17.9049046941
 10
-27.9717296106
 20
17.7983745001
 10
-27.9825012924
 20
17.6920527945
 10
-27.9884506715
 20
17.586470962
 10
-27.9890748873
 20
17.5639768439
  0
LINE
  5
37A
100
AcDbEntity
  8
RACCORDO
100
AcDbLine
 62
7
  6
CONTINUOUS
 10
-27.3828881307
 20
19.1505501104
 11
-23.9975277665
 21
22.5211053262
  0
LINE
  5
37B
100
AcDbEntity
  8
RACCORDO
100
AcDbLine
 62
253
  6
CONTINUOUS
 10
-23.9975269787
 20
22.2496588004
 11
-27.0431943657
 21
19.2173109873
  0
LINE
  5
37C
100
AcDbEntity
  8
RACCORDO
100
AcDbLine
 62
7
  6
CONTINUOUS
 10
-21.1947814195
 20
22.3860717165
 11
-21.8989073278
 21
21.7211140881
  0
LWPOLYLINE
  5
37D
100
AcDbEntity
  8
RACCORDO
100
AcDbPolyline
 62
253
  6
CONTINUOUS
 90
10
 70
0
 10
-27.3822466156
 20
19.1511866587
 10
-27.3637032382
 20
19.1678839543
 10
-27.332308392
 20
19.1900770108
 10
-27.297606447
 20
19.2079599304
 10
-27.2599771633
 20
19.2213370115
 10
-27.2198323364
 20
19.2300618622
 10
-27.1776112904
 20
19.2340390023
 10
-27.1337760709
 20
19.233224908
 10
-27.0888063876
 20
19.2276284882
 10
-27.0431943657
 20
19.2173109873
  0
LINE
  5
37E
100
AcDbEntity
  8
RACCORDO
100
AcDbLine
 62
253
  6
CONTINUOUS
 10
-21.1114363877
 20
24.5218371067
 11
-22.6204484032
 21
23.2161635288
  0
LINE
  5
37F
100
AcDbEntity
  8
RACCORDO
100
AcDbLine
 62
253
  6
CONTINUOUS
 10
-20.8949337008
 20
24.2428354774
 11
-22.4039457162
 21
22.9371618995
  0
LINE
  5
380
100
AcDbEntity
  8
DRAFT
100
AcDbLine
 62
7
  6
CONTINUOUS
 10
-21.2668747979
 20
22.3255463521
 11
-21.1947814195
 21
22.3860717165
  0
LWPOLYLINE
  5
381
100
AcDbEntity
  8
RACCORDO
100
AcDbPolyline
 62
7
  6
CONTINUOUS
 90
14
 70
0
 10
-10.403976047
 20
30.9249413775
 10
-10.3438433618
 20
30.9700377473
 10
-10.2801576282
 20
31.0106872692
 10
-10.2133315939
 20
31.0465362928
 10
-10.1440197151
 20
31.0772026733
 10
-10.0725175123
 20
31.1025522551
 10
-9.9987004547
 20
31.1225465256
 10
-9.9229436739
 20
31.1369356355
 10
-9.8459359724
 20
31.1454710312
 10
-9.7680114268
 20
31.1480158548
 10
-9.6897128204
 20
31.1444470908
 10
-9.6117456194
 20
31.1347258864
 10
-9.5346506885
 20
31.1188810329
 10
-9.4968111111
 20
31.1087478003
  0
LWPOLYLINE
  5
382
100
AcDbEntity
  8
RACCORDO
100
AcDbPolyline
 62
253
  6
CONTINUOUS
 90
3
 70
0
 10
-10.3183071959
 20
30.9823354607
 10
-10.3740209279
 20
30.9476152989
 10
-10.4039747178
 20
30.9249424548
  0
LWPOLYLINE
  5
383
100
AcDbEntity
  8
RACCORDO
100
AcDbPolyline
 62
7
  6
CONTINUOUS
 90
17
 70
0
 10
-27.9890652863
 20
-18.0383589718
 10
-27.9881435839
 20
-18.0678856026
 10
-27.9816020719
 20
-18.1667457938
 10
-27.9700174457
 20
-18.2601347849
 10
-27.9535480818
 20
-18.3481356582
 10
-27.9322968979
 20
-18.4310163002
 10
-27.9062388232
 20
-18.5091147561
 10
-27.8752841284
 20
-18.5826445178
 10
-27.8393980319
 20
-18.65156147
 10
-27.798627948
 20
-18.7156228095
 10
-27.7529236133
 20
-18.7747195357
 10
-27.7024495104
 20
-18.828472922
 10
-27.6479515192
 20
-18.8761112354
 10
-27.5898794683
 20
-18.917393897
 10
-27.5287662672
 20
-18.9520971397
 10
-27.4659567883
 20
-18.9797645044
 10
-27.4119677645
 20
-18.997797575
  0
LWPOLYLINE
  5
384
100
AcDbEntity
  8
RACCORDO
100
AcDbPolyline
 62
253
  6
CONTINUOUS
 90
10
 70
0
 10
-27.7389953042
 20
-18.260871899
 10
-27.8200190153
 20
-14.378248886
 10
-27.8807929068
 20
-10.4762030479
 10
-27.921311743
 20
-6.5550605078
 10
-27.9415720332
 20
-2.6151490089
 10
-27.9415720332
 20
1.3432022307
 10
-27.9213117429
 20
5.3196625478
 10
-27.8807929067
 20
9.313899703
 10
-27.8200190152
 20
13.3255799073
 10
-27.7389953042
 20
17.3543679686
  0
LWPOLYLINE
  5
385
100
AcDbEntity
  8
RACCORDO
100
AcDbPolyline
 62
253
  6
CONTINUOUS
 90
12
 70
0
 10
-27.9890748873
 20
17.5639768439
 10
-27.9890623564
 20
17.558882885
 10
-27.9857631841
 20
17.5346265238
 10
-27.9771437806
 20
17.5105658369
 10
-27.963296495
 20
17.4869586127
 10
-27.9443696883
 20
17.4640577812
 10
-27.9205661441
 20
17.4421087039
 10
-27.8921408958
 20
17.4213465452
 10
-27.8593984939
 20
17.401993753
 10
-27.8226897436
 20
17.3842576749
 10
-27.7824079458
 20
17.3683283368
 10
-27.7389846834
 20
17.3543764071
  0
LWPOLYLINE
  5
386
100
AcDbEntity
  8
RACCORDO
100
AcDbPolyline
 62
7
  6
CONTINUOUS
 90
10
 70
0
 10
-27.9890794288
 20
17.5641686051
 10
-28.0690079338
 20
13.5969688711
 10
-28.1302885253
 20
9.5685078031
 10
-28.1711406999
 20
5.5575858265
 10
-28.1915588716
 20
1.5645864685
 10
-28.1915416758
 20
-2.4101734962
 10
-28.1710885449
 20
-6.3664021932
 10
-28.1301997392
 20
-10.3037839753
 10
-28.0688797375
 20
-14.2219440031
 10
-27.9890683895
 20
-18.038505029
  0
LWPOLYLINE
  5
387
100
AcDbEntity
  8
RACCORDO
100
AcDbPolyline
 62
253
  6
CONTINUOUS
 90
22
 70
0
 10
-27.7389953042
 20
17.3543679686
 10
-27.7350561473
 20
17.4489848521
 10
-27.7275018161
 20
17.5460959101
 10
-27.7163710458
 20
17.645220562
 10
-27.7017232171
 20
17.7458642324
 10
-27.683630573
 20
17.8475335101
 10
-27.6621761969
 20
17.9497389714
 10
-27.6374646806
 20
18.051990809
 10
-27.6096218135
 20
18.1537686812
 10
-27.5787883645
 20
18.2545379244
 10
-27.5451310951
 20
18.3537782599
 10
-27.5088136104
 20
18.4510253337
 10
-27.4699923933
 20
18.5458381397
 10
-27.4288515643
 20
18.6377705383
 10
-27.3856061853
 20
18.7263419585
 10
-27.3404755609
 20
18.8110812921
 10
-27.2936971049
 20
18.8915580349
 10
-27.2454991651
 20
18.9673921664
 10
-27.196101015
 20
19.0382208887
 10
-27.1457435091
 20
19.1036966342
 10
-27.0946887331
 20
19.1634919956
 10
-27.0431943657
 20
19.2173109873
  0
LWPOLYLINE
  5
388
100
AcDbEntity
  8
RACCORDO
100
AcDbPolyline
 62
253
  6
CONTINUOUS
 90
12
 70
0
 10
-22.4039457162
 20
22.5971879654
 10
-22.4140095607
 20
22.5662693096
 10
-22.4275801825
 20
22.5369538848
 10
-22.4444262425
 20
22.5097414327
 10
-22.4642605651
 20
22.4850958452
 10
-22.4867450335
 20
22.4634372573
 10
-22.5114963536
 20
22.4451348839
 10
-22.5380925884
 20
22.4305007267
 10
-22.5660803504
 20
22.4197842549
 10
-22.5949825307
 20
22.4131681529
 10
-22.6243064322
 20
22.4107652056
 10
-22.6532937889
 20
22.4125811907
  0
LINE
  5
389
100
AcDbEntity
  8
RACCORDO
100
AcDbLine
 62
7
  6
CONTINUOUS
 10
-20.8844447113
 20
23.8540028392
 11
-20.8912317378
 21
23.8401726509
  0
LINE
  5
38A
100
AcDbEntity
  8
RACCORDO
100
AcDbLine
 62
253
  6
CONTINUOUS
 10
-21.2668747979
 20
23.1930944714
 11
-20.8949337008
 21
23.8953039607
  0
LINE
  5
38B
100
AcDbEntity
  8
RACCORDO
100
AcDbLine
 62
7
  6
CONTINUOUS
 10
-21.2631815516
 20
23.1379466958
 11
-20.8912404545
 21
23.840156185
  0
LWPOLYLINE
  5
38C
100
AcDbEntity
  8
RACCORDO
100
AcDbPolyline
 62
7
  6
CONTINUOUS
 90
15
 70
0
 10
-21.8989073278
 20
22.5287462098
 10
-21.9120394042
 20
22.506830604
 10
-21.9270801682
 20
22.4854353602
 10
-21.9440105377
 20
22.4647987614
 10
-21.9628423847
 20
22.4451841694
 10
-21.983451945
 20
22.4268143957
 10
-22.0055888512
 20
22.4098780824
 10
-22.0291420508
 20
22.3946278027
 10
-22.0539706673
 20
22.3813038962
 10
-22.0797543204
 20
22.3700905207
 10
-22.1062895605
 20
22.3612269713
 10
-22.1333643677
 20
22.3549267406
 10
-22.1606133097
 20
22.3513522302
 10
-22.1877173164
 20
22.3506945323
 10
-22.210246094
 20
22.3525407846
  0
LINE
  5
38D
100
AcDbEntity
  8
RACCORDO
100
AcDbLine
 62
7
  6
CONTINUOUS
 10
-18.181597576
 20
22.3468929918
 11
-17.9326769933
 21
22.5679242282
  0
LINE
  5
38E
100
AcDbEntity
  8
RACCORDO
100
AcDbLine
 62
7
  6
CONTINUOUS
 10
-15.4645712816
 20
26.3534637187
 11
-19.9008493941
 21
22.5010013648
  0
LINE
  5
38F
100
AcDbEntity
  8
RACCORDO
100
AcDbLine
 62
7
  6
CONTINUOUS
 10
-15.8687727547
 20
26.1046202692
 11
-20.0139144608
 21
22.5336404382
  0
LINE
  5
390
100
AcDbEntity
  8
ASSI
100
AcDbLine
 62
7
  6
CONTINUOUS
 10
-13.4017996971
 20
25.5539764991
 11
-16.6532541299
 21
22.7708985417
  0
LINE
  5
391
100
AcDbEntity
  8
RACCORDO
100
AcDbLine
 62
7
  6
CONTINUOUS
 10
-9.4147395355
 20
30.9201925502
 11
-11.6393242375
 21
29.0225106788
  0
LINE
  5
392
100
AcDbEntity
  8
DRAFT
100
AcDbLine
 62
7
  6
CONTINUOUS
 10
-11.333862096
 20
27.8098638749
 11
-10.3489774744
 21
28.6500196533
  0
LINE
  5
393
100
AcDbEntity
  8
ASSI
100
AcDbLine
 62
7
  6
CONTINUOUS
 10
-17.9326769933
 20
22.5679242282
 11
-14.1434199914
 21
25.7680638374
  0
LWPOLYLINE
  5
394
100
AcDbEntity
  8
ASSI
100
AcDbPolyline
 62
7
  6
CONTINUOUS
 90
7
 70
0
 10
-13.4017996971
 20
25.5539764991
 10
-13.3960334507
 20
25.5587958225
 10
-13.3902696647
 20
25.5633835111
 10
-13.3845083389
 20
25.5677395651
 10
-13.3787494736
 20
25.5718639843
 10
-13.3729930685
 20
25.5757567688
 10
-13.3672391237
 20
25.5794179186
  0
LWPOLYLINE
  5
395
100
AcDbEntity
  8
ASSI
100
AcDbPolyline
 62
7
  6
CONTINUOUS
 90
7
 70
0
 10
-14.1434199914
 20
25.7680638374
 10
-14.1373888424
 20
25.7730328261
 10
-14.1313590674
 20
25.7777541552
 10
-14.1253306663
 20
25.7822278248
 10
-14.1193036393
 20
25.7864538348
 10
-14.1132779862
 20
25.7904321853
 10
-14.107253707
 20
25.7941628763
  0
LINE
  5
396
100
AcDbEntity
  8
DRAFT
100
AcDbLine
 62
7
  6
CONTINUOUS
 10
-17.0465994578
 20
25.4807344277
 11
-20.4716139098
 21
22.6657668882
  0
LINE
  5
397
100
AcDbEntity
  8
DRAFT
100
AcDbLine
 62
7
  6
CONTINUOUS
 10
-17.7206171165
 20
24.9982808015
 11
-20.5385891438
 21
22.6851009729
  0
LINE
  5
398
100
AcDbEntity
  8
RACCORDO
100
AcDbLine
 62
253
  6
CONTINUOUS
 10
-20.5355717246
 20
22.684229919
 11
-17.6641525264
 21
25.0414535743
  0
LINE
  5
399
100
AcDbEntity
  8
RACCORDO
100
AcDbLine
 62
7
  6
CONTINUOUS
 10
-14.2680385272
 20
27.7859892366
 11
-17.4368902564
 21
25.2031108779
  0
LINE
  5
39A
100
AcDbEntity
  8
RACCORDO
100
AcDbLine
 62
253
  6
CONTINUOUS
 10
-12.0603288347
 20
29.1590355191
 11
-15.339675774
 21
26.4895789905
  0
LWPOLYLINE
  5
39B
100
AcDbEntity
  8
RACCORDO
100
AcDbPolyline
 62
7
  6
CONTINUOUS
 90
3
 70
0
 10
-10.4039758314
 20
30.9249438294
 10
-11.0929480052
 20
30.3663249826
 10
-14.2680385272
 20
27.7859892366
  0
LINE
  5
39C
100
AcDbEntity
  8
RACCORDO
100
AcDbLine
 62
253
  6
CONTINUOUS
 10
-9.7656329514
 20
31.0214867543
 11
-12.0603288347
 21
29.1590355191
  0
LWPOLYLINE
  5
39D
100
AcDbEntity
  8
RACCORDO
100
AcDbPolyline
 62
253
  6
CONTINUOUS
 90
8
 70
0
 10
-9.7656324738
 20
31.0214866164
 10
-9.7227814477
 20
31.0541086507
 10
-9.680254444
 20
31.0800814075
 10
-9.6383679416
 20
31.0991858316
 10
-9.5974179053
 20
31.1112563192
 10
-9.5577322633
 20
31.1161647937
 10
-9.5196620498
 20
31.1138539258
 10
-9.4970090878
 20
31.1088050686
  0
LWPOLYLINE
  5
39E
100
AcDbEntity
  8
RACCORDO
100
AcDbPolyline
 62
7
  6
CONTINUOUS
 90
3
 70
0
 10
-17.6641525264
 20
25.0414535743
 10
-17.7141052712
 20
25.0035117331
 10
-17.7208460204
 20
24.9980219748
  0
LINE
  5
39F
100
AcDbEntity
  8
RACCORDO
100
AcDbLine
 62
7
  6
CONTINUOUS
 10
-17.0465994578
 20
25.4807344277
 11
-17.6641525264
 21
25.0414535743
  0
LINE
  5
3A0
100
AcDbEntity
  8
ASSI
100
AcDbLine
 62
7
  6
CONTINUOUS
 10
-14.107253707
 20
25.7941392424
 11
-14.0881126337
 21
25.8032833595
  0
LWPOLYLINE
  5
3A1
100
AcDbEntity
  8
ASSI
100
AcDbPolyline
 62
7
  6
CONTINUOUS
 90
6
 70
0
 10
-13.3100175296
 20
25.6132120395
 10
-13.3123217141
 20
25.6123785221
 10
-13.317608275
 20
25.6095608908
 10
-13.3258206269
 20
25.6047490069
 10
-13.3368945467
 20
25.5980193257
 10
-13.3672391237
 20
25.5793973849
  0
LWPOLYLINE
  5
3A2
100
AcDbEntity
  8
RACCORDO
100
AcDbPolyline
 62
253
  6
CONTINUOUS
 90
14
 70
0
 10
-27.4288460771
 20
-18.992361036
 10
-27.4699853973
 20
-18.9736406796
 10
-27.5088064736
 20
-18.9479103288
 10
-27.5451244643
 20
-18.9152992737
 10
-27.5787827605
 20
-18.8759524986
 10
-27.6096180354
 20
-18.8300483852
 10
-27.6374628577
 20
-18.7778202003
 10
-27.6621753065
 20
-18.7195413022
 10
-27.6836292072
 20
-18.6555145216
 10
-27.7017211466
 20
-18.5860495242
 10
-27.7163690711
 20
-18.5114751442
 10
-27.7275005929
 20
-18.4321534135
 10
-27.7350556941
 20
-18.3484812709
 10
-27.7389953042
 20
-18.260871899
  0
LWPOLYLINE
  5
3A3
100
AcDbEntity
  8
RACCORDO
100
AcDbPolyline
 62
253
  6
CONTINUOUS
 90
11
 70
0
 10
-27.9890683895
 20
-18.038505029
 10
-27.9857734278
 20
-18.0657370153
 10
-27.9771549956
 20
-18.0926813017
 10
-27.9633084375
 20
-18.1189190709
 10
-27.9443821123
 20
-18.1441691981
 10
-27.9205788066
 20
-18.1681611406
 10
-27.892153561
 20
-18.1906378364
 10
-27.8594109381
 20
-18.211358459
 10
-27.8227017592
 20
-18.2301009971
 10
-27.782419345
 20
-18.2466646334
 10
-27.7389953019
 20
-18.2608718968
  0
LWPOLYLINE
  5
3A4
100
AcDbEntity
  8
RACCORDO
100
AcDbPolyline
 62
253
  6
CONTINUOUS
 90
13
 70
0
 10
-24.3674893781
 20
23.3604902803
 10
-24.3664194327
 20
23.3896839043
 10
-24.3632264213
 20
23.4202418912
 10
-24.3579628374
 20
23.4516418974
 10
-24.3507158595
 20
23.4833497916
 10
-24.3416082992
 20
23.5148180088
 10
-24.3307985978
 20
23.5454954679
 10
-24.3184441149
 20
23.5749171416
 10
-24.3047794956
 20
23.6025080446
 10
-24.2901439892
 20
23.627628577
 10
-24.274841874
 20
23.6498543949
 10
-24.2591102133
 20
23.6689332748
 10
-24.2432165945
 20
23.6846163548
  0
LINE
  5
3A5
100
AcDbEntity
  8
DRAFT
100
AcDbLine
 62
7
  6
CONTINUOUS
 10
-9.4147799254
 20
25.873830495
 11
-10.0972940888
 21
25.2601858548
  0
LINE
  5
3A6
100
AcDbEntity
  8
0
100
AcDbLine
 62
7
  6
CONTINUOUS
 10
-14.1032541299
 20
23.1656483618
 11
-13.6032541299
 21
23.5986610637
  0
LINE
  5
3A7
100
AcDbEntity
  8
0
100
AcDbLine
 62
7
  6
CONTINUOUS
 10
-12.1818585248
 20
24.3296257666
 11
-13.170241428
 21
23.4736610637
  0
LINE
  5
3A8
100
AcDbEntity
  8
RACCORDO
100
AcDbLine
 62
7
  6
CONTINUOUS
 10
-7.4181910506
 20
30.339598722
 11
-10.5784161431
 21
27.6437688612
  0
LINE
  5
3A9
100
AcDbEntity
  8
DRAFT
100
AcDbLine
 62
7
  6
CONTINUOUS
 10
-11.3353049375
 20
25.6175688032
 11
-9.4147799254
 21
27.255872571
  0
LINE
  5
3AA
100
AcDbEntity
  8
DRAFT
100
AcDbLine
 62
7
  6
CONTINUOUS
 10
-13.6032541299
 20
24.1587769422
 11
-13.3672391237
 21
24.3596044771
  0
LINE
  5
3AB
100
AcDbEntity
  8
RACCORDO
100
AcDbLine
 62
7
  6
CONTINUOUS
 10
-11.7158781603
 20
25.2713092273
 11
-13.170241428
 21
24.0337769422
  0
LINE
  5
3AC
100
AcDbEntity
  8
RACCORDO
100
AcDbLine
 62
7
  6
CONTINUOUS
 10
-10.075391604
 20
25.2798782555
 11
-9.1194146321
 21
26.0771068902
  0
LINE
  5
3AD
100
AcDbEntity
  8
0
100
AcDbLine
 62
7
  6
CONTINUOUS
 10
-14.0335905712
 20
22.8651350552
 11
-14.2743830326
 21
22.6647620787
  0
LWPOLYLINE
  5
3AE
100
AcDbEntity
  8
0
100
AcDbPolyline
 62
253
  6
CONTINUOUS
 90
25
 70
0
 10
-10.3291768257
 20
24.2989646245
 10
-10.3290108307
 20
24.2990576941
 10
-10.2971920485
 20
24.3151644077
 10
-10.2626565236
 20
24.3305719962
 10
-10.2252576021
 20
24.3452523184
 10
-10.1851419378
 20
24.3592335157
 10
-10.1429028872
 20
24.3720250248
 10
-10.098431011
 20
24.3835671075
 10
-10.0518357485
 20
24.3939195021
 10
-10.0040387736
 20
24.4027708607
 10
-9.9549919175
 20
24.4100460693
 10
-9.9047433491
 20
24.4158202419
 10
-9.8543592487
 20
24.4200073731
 10
-9.8038231608
 20
24.4225302799
 10
-9.753151541
 20
24.4234661453
 10
-9.7034599366
 20
24.4229605129
 10
-9.6548024797
 20
24.4209405275
 10
-9.6071250382
 20
24.4174790444
 10
-9.5613807634
 20
24.4129401731
 10
-9.5176950409
 20
24.4072796771
 10
-9.4759424851
 20
24.4005417929
 10
-9.4367000902
 20
24.3932233396
 10
-9.4001601876
 20
24.3854899237
 10
-9.3661304459
 20
24.3771759387
 10
-9.3346108652
 20
24.3682813847
  0
LINE
  5
3AF
100
AcDbEntity
  8
RACCORDO
100
AcDbLine
 62
253
  6
CONTINUOUS
 10
14.9585180159
 20
-27.7543001787
 11
14.5865769188
 21
-27.7050552351
  0
LINE
  5
3B0
100
AcDbEntity
  8
RACCORDO
100
AcDbLine
 62
253
  6
CONTINUOUS
 10
14.8037881125
 20
-27.4508044366
 11
14.5865769188
 21
-27.4220457082
  0
LWPOLYLINE
  5
3B1
100
AcDbEntity
  8
RACCORDO
100
AcDbPolyline
 62
7
  6
CONTINUOUS
 90
4
 70
0
 10
13.9545443889
 20
-28.1208579296
 10
13.9263824555
 20
-28.116249968
 10
13.9093446612
 20
-28.1133120719
 10
13.8904884427
 20
-28.109677495
  0
LWPOLYLINE
  5
3B2
100
AcDbEntity
  8
RACCORDO
100
AcDbPolyline
 62
7
  6
CONTINUOUS
 90
3
 70
0
 10
13.8904884427
 20
-28.109677495
 10
13.8477993194
 20
-28.1006595312
 10
13.8242617443
 20
-28.0954395833
  0
LWPOLYLINE
  5
3B3
100
AcDbEntity
  8
RACCORDO
100
AcDbPolyline
 62
7
  6
CONTINUOUS
 90
11
 70
0
 10
10.2423504255
 20
-29.8676622976
 10
10.3125636426
 20
-29.8841630076
 10
10.3872213528
 20
-29.8936193612
 10
10.463984504
 20
-29.8950892064
 10
10.541840757
 20
-29.8882546366
 10
10.6202068457
 20
-29.8729457661
 10
10.6984149277
 20
-29.8490967498
 10
10.7756614005
 20
-29.8168230567
 10
10.8516333932
 20
-29.776171043
 10
10.9262220412
 20
-29.7271251356
 10
10.9387218375
 20
-29.7179753605
  0
LWPOLYLINE
  5
3B4
100
AcDbEntity
  8
RACCORDO
100
AcDbPolyline
 62
253
  6
CONTINUOUS
 90
13
 70
0
 10
13.1087305299
 20
-29.4375145534
 10
13.1379477057
 20
-29.4447231146
 10
13.168791652
 20
-29.4499706797
 10
13.200738517
 20
-29.4531681242
 10
13.2332457165
 20
-29.4542611429
 10
13.2657611501
 20
-29.453231172
 10
13.2977325773
 20
-29.4500957045
 10
13.328616997
 20
-29.444907993
 10
13.3578898699
 20
-29.4377561454
 10
13.3850540269
 20
-29.4287616282
 10
13.4096481134
 20
-29.4180772039
 10
13.4312544248
 20
-29.4058843362
 10
13.4495060004
 20
-29.3923901081
  0
LWPOLYLINE
  5
3B5
100
AcDbEntity
  8
RACCORDO
100
AcDbPolyline
 62
253
  6
CONTINUOUS
 90
13
 70
0
 10
13.1087305299
 20
-29.0975406193
 10
13.1379477057
 20
-29.1047491805
 10
13.168791652
 20
-29.1099967456
 10
13.200738517
 20
-29.1131941901
 10
13.2332457165
 20
-29.1142872087
 10
13.2657611501
 20
-29.1132572379
 10
13.2977325773
 20
-29.1101217704
 10
13.328616997
 20
-29.1049340589
 10
13.3578898699
 20
-29.0977822113
 10
13.3850540269
 20
-29.0887876941
 10
13.4096481134
 20
-29.0781032698
 10
13.4312544248
 20
-29.0659104021
 10
13.4495060004
 20
-29.052416174
  0
LINE
  5
3B6
100
AcDbEntity
  8
RACCORDO
100
AcDbLine
 62
7
  6
CONTINUOUS
 10
-27.4123775683
 20
-18.997692201
 11
10.2433356912
 21
-29.8679602945
  0
LINE
  5
3B7
100
AcDbEntity
  8
RACCORDO
100
AcDbLine
 62
253
  6
CONTINUOUS
 10
-27.7389953042
 20
-18.260871899
 11
9.9032304836
 21
-29.1272464947
  0
LINE
  5
3B8
100
AcDbEntity
  8
RACCORDO
100
AcDbLine
 62
7
  6
CONTINUOUS
 10
11.7047051444
 20
-29.1480780189
 11
13.1643930054
 21
-29.5694536086
  0
LINE
  5
3B9
100
AcDbEntity
  8
RACCORDO
100
AcDbLine
 62
253
  6
CONTINUOUS
 10
11.8169062073
 20
-29.0645969932
 11
13.1087305299
 21
-29.4375145534
  0
LINE
  5
3BA
100
AcDbEntity
  8
RACCORDO
100
AcDbLine
 62
253
  6
CONTINUOUS
 10
13.1643202424
 20
-29.5694325401
 11
13.164395718
 21
-29.5694543916
  0
LINE
  5
3BB
100
AcDbEntity
  8
RACCORDO
100
AcDbLine
 62
7
  6
CONTINUOUS
 10
10.2424184932
 20
-29.867694059
 11
10.2432858417
 21
-29.8679459041
  0
LINE
  5
3BC
100
AcDbEntity
  8
RACCORDO
100
AcDbLine
 62
253
  6
CONTINUOUS
 10
-27.4123775683
 20
-18.997692201
 11
-27.4288460771
 21
-18.992361036
  0
LINE
  5
3BD
100
AcDbEntity
  8
RACCORDO
100
AcDbLine
 62
7
  6
CONTINUOUS
 10
-24.4912229629
 20
23.103638628
 11
-24.4924893713
 21
23.128798664
  0
LWPOLYLINE
  5
3BE
100
AcDbEntity
  8
RACCORDO
100
AcDbPolyline
 62
253
  6
CONTINUOUS
 90
10
 70
0
 10
-24.3674893781
 20
23.0205163461
 10
-24.3666356251
 20
22.9959945219
 10
-24.3640860233
 20
22.9732863766
 10
-24.3598753927
 20
22.9527021148
 10
-24.354050189
 20
22.9344946116
 10
-24.3466959235
 20
22.9189498129
 10
-24.3379608687
 20
22.9063369216
 10
-24.3280018943
 20
22.8967963525
 10
-24.3169572086
 20
22.8903859165
 10
-24.311816257
 20
22.8885742192
  0
LINE
  5
3BF
100
AcDbEntity
  8
RACCORDO
100
AcDbLine
 62
7
  6
CONTINUOUS
 10
-24.4924893781
 20
23.4687434557
 11
-24.4924893781
 21
23.1287695216
  0
LINE
  5
3C0
100
AcDbEntity
  8
RACCORDO
100
AcDbLine
 62
253
  6
CONTINUOUS
 10
-24.3674893781
 20
23.3604902803
 11
-24.3674893781
 21
23.0205163461
  0
LINE
  5
3C1
100
AcDbEntity
  8
RACCORDO
100
AcDbLine
 62
7
  6
CONTINUOUS
 10
-23.9975269787
 20
22.2496588004
 11
-23.9975277665
 21
22.7978469455
  0
LINE
  5
3C2
100
AcDbEntity
  8
RACCORDO
100
AcDbLine
 62
253
  6
CONTINUOUS
 10
-23.8725277665
 20
22.1360707783
 11
-23.8725277665
 21
22.7617625537
  0
LINE
  5
3C3
100
AcDbEntity
  8
RACCORDO
100
AcDbLine
 62
253
  6
CONTINUOUS
 10
-22.7447211868
 20
22.5520635201
 11
-22.7447211868
 21
22.8920374542
  0
LINE
  5
3C4
100
AcDbEntity
  8
RACCORDO
100
AcDbLine
 62
253
  6
CONTINUOUS
 10
-22.4039457162
 20
22.5971879654
 11
-22.4039457162
 21
22.9371618995
  0
LWPOLYLINE
  5
3C5
100
AcDbEntity
  8
RACCORDO
100
AcDbPolyline
 62
253
  6
CONTINUOUS
 90
13
 70
0
 10
-22.7447211868
 20
22.8920374542
 10
-22.74365969
 20
22.9211124164
 10
-22.7404932281
 20
22.9515321373
 10
-22.73527558
 20
22.9827799699
 10
-22.728095362
 20
23.0143252027
 10
-22.7190745227
 20
23.045632073
 10
-22.7083662714
 20
23.0761688666
 10
-22.6961524765
 20
23.1054169481
 10
-22.6826405766
 20
23.1328795696
 10
-22.668060057
 20
23.1580903073
 10
-22.6526585525
 20
23.1806209835
 10
-22.6366976415
 20
23.2000889383
 10
-22.6204484032
 20
23.2161635288
  0
LWPOLYLINE
  5
3C6
100
AcDbEntity
  8
RACCORDO
100
AcDbPolyline
 62
253
  6
CONTINUOUS
 90
5
 70
0
 10
-20.8621636043
 20
24.3047009762
 10
-20.8641087988
 20
24.2891417469
 10
-20.8703017743
 20
24.2730705708
 10
-20.8806370967
 20
24.2575467154
 10
-20.8949337008
 20
24.2428354774
  0
LWPOLYLINE
  5
3C7
100
AcDbEntity
  8
RACCORDO
100
AcDbPolyline
 62
253
  6
CONTINUOUS
 90
5
 70
0
 10
-20.8621636042
 20
23.9571744881
 10
-20.8641386141
 20
23.941491882
 10
-20.8703379014
 20
23.925470081
 10
-20.8806609004
 20
23.9099859925
 10
-20.8949337008
 20
23.8953039607
  0
LINE
  5
3C8
100
AcDbEntity
  8
DRAFT
100
AcDbLine
 62
7
  6
CONTINUOUS
 10
-14.2743830326
 20
22.6647620787
 11
-14.5969169195
 21
22.1772851207
  0
LWPOLYLINE
  5
3C9
100
AcDbEntity
  8
0
100
AcDbPolyline
 62
253
  6
CONTINUOUS
 90
11
 70
0
 10
-9.3346108652
 20
24.3682813847
 10
-9.3544259539
 20
24.3494474538
 10
-9.3739402277
 20
24.3263594321
 10
-9.3928123417
 20
24.2994211766
 10
-9.4107121839
 20
24.2691038929
 10
-9.4273266489
 20
24.2359378926
 10
-9.4423651158
 20
24.2005033176
 10
-9.4555645306
 20
24.1634199913
 10
-9.4666940085
 20
24.1253365777
 10
-9.4755588719
 20
24.0869192341
 10
-9.4811057042
 20
24.0541475793
  0
LINE
  5
3CA
100
AcDbEntity
  8
DRAFT
100
AcDbLine
 62
7
  6
CONTINUOUS
 10
-9.9819298782
 20
22.2627954769
 11
-10.6850109102
 21
21.6285995982
  0
LINE
  5
3CB
100
AcDbEntity
  8
ASSI
100
AcDbLine
 62
7
  6
CONTINUOUS
 10
-7.3396218706
 20
23.8039764991
 11
-10.5910763034
 21
21.0208985417
  0
LWPOLYLINE
  5
3CC
100
AcDbEntity
  8
ASSI
100
AcDbPolyline
 62
7
  6
CONTINUOUS
 90
7
 70
0
 10
-7.3396218706
 20
23.8039764991
 10
-7.3338556242
 20
23.8087958225
 10
-7.3280918382
 20
23.8133835111
 10
-7.3223305125
 20
23.8177395651
 10
-7.3165716471
 20
23.8218639843
 10
-7.310815242
 20
23.8257567688
 10
-7.3050612973
 20
23.8294179186
  0
LWPOLYLINE
  5
3CD
100
AcDbEntity
  8
RACCORDO
100
AcDbPolyline
 62
7
  6
CONTINUOUS
 90
8
 70
0
 10
-6.5197257376
 20
23.7713092273
 10
-6.4758790501
 20
23.805157177
 10
-6.4330281054
 20
23.8318914465
 10
-6.3911729034
 20
23.8515120356
 10
-6.3500155172
 20
23.8640595468
 10
-6.3098538737
 20
23.8694933777
 10
-6.2715817538
 20
23.8676917214
 10
-6.2468721563
 20
23.8622905943
  0
LINE
  5
3CE
100
AcDbEntity
  8
ASSI
100
AcDbLine
 62
7
  6
CONTINUOUS
 10
-7.3050612973
 20
23.8293973849
 11
-7.2859980018
 21
23.8387920067
  0
LWPOLYLINE
  5
3CF
100
AcDbEntity
  8
RACCORDO
100
AcDbPolyline
 62
7
  6
CONTINUOUS
 90
4
 70
0
 10
-11.0775767858
 20
19.9475956788
 10
-11.1830056359
 20
19.9064226634
 10
-11.2156712128
 20
19.8942809785
 10
-11.2471926642
 20
19.8834021478
  0
LWPOLYLINE
  5
3D0
100
AcDbEntity
  8
ASSI
100
AcDbPolyline
 62
7
  6
CONTINUOUS
 90
6
 70
0
 10
-6.506574392
 20
23.6492228437
 10
-6.50869955
 20
23.6484782905
 10
-6.5138202239
 20
23.6457706152
 10
-6.5218448951
 20
23.6410826369
 10
-6.5327072385
 20
23.6344903544
 10
-6.5625568996
 20
23.616172876
  0
LWPOLYLINE
  5
3D1
100
AcDbEntity
  8
ASSI
100
AcDbPolyline
 62
7
  6
CONTINUOUS
 90
4
 70
0
 10
-7.2859980018
 20
23.8387920067
 10
-7.264464511
 20
23.8450595417
 10
-7.2405982963
 20
23.8480968372
 10
-7.2145642305
 20
23.8477650191
  0
LINE
  5
3D2
100
AcDbEntity
  8
RACCORDO
100
AcDbLine
 62
253
  6
CONTINUOUS
 10
14.8105135696
 20
-27.4522065934
 11
14.8037881125
 21
-27.4508044366
  0
LWPOLYLINE
  5
3D3
100
AcDbEntity
  8
RACCORDO
100
AcDbPolyline
 62
7
  6
CONTINUOUS
 90
3
 70
0
 10
13.8242617443
 20
-28.0954395833
 10
13.7737657155
 20
-28.0835093493
 10
13.7472190244
 20
-28.0770174539
  0
LWPOLYLINE
  5
3D4
100
AcDbEntity
  8
RACCORDO
100
AcDbPolyline
 62
7
  6
CONTINUOUS
 90
5
 70
0
 10
13.7472190244
 20
-28.0770174539
 10
13.6929826311
 20
-28.0629893093
 10
13.6659212059
 20
-28.0558584887
 10
13.6393875585
 20
-28.0485237476
 10
13.6137689183
 20
-28.0409823748
  0
LINE
  5
3D5
100
AcDbEntity
  8
RACCORDO
100
AcDbLine
 62
253
  6
CONTINUOUS
 10
13.1087305299
 20
-29.0975406193
 11
12.1461131812
 21
-28.8196569266
  0
LINE
  5
3D6
100
AcDbEntity
  8
RACCORDO
100
AcDbLine
 62
253
  6
CONTINUOUS
 10
13.1712305299
 20
-28.8559140315
 11
12.3975582653
 21
-28.6325740864
  0
LINE
  5
3D7
100
AcDbEntity
  8
RACCORDO
100
AcDbLine
 62
7
  6
CONTINUOUS
 10
13.3103850677
 20
-27.9534030009
 11
13.6131391198
 21
-28.0408005676
  0
LINE
  5
3D8
100
AcDbEntity
  8
RACCORDO
100
AcDbLine
 62
7
  6
CONTINUOUS
 10
14.5865769188
 20
-27.3875614997
 11
14.810625637
 21
-27.4522387936
  0
LWPOLYLINE
  5
3D9
100
AcDbEntity
  8
0
100
AcDbPolyline
 62
7
  6
CONTINUOUS
 90
49
 70
0
 10
-2.9310394201
 20
-21.9911004303
 10
-3.0729857175
 20
-21.9455580845
 10
-3.2135530904
 20
-21.8915129947
 10
-3.3527410372
 20
-21.8289646977
 10
-3.4912373836
 20
-21.7575283453
 10
-3.6283522855
 20
-21.6775869231
 10
-3.762018333
 20
-21.5902913468
 10
-3.8920602778
 20
-21.4956012525
 10
-4.0186496597
 20
-21.3935535848
 10
-4.1402391314
 20
-21.285415114
 10
-4.2567908737
 20
-21.1710858854
 10
-4.3683378468
 20
-21.0506613803
 10
-4.4734391635
 20
-20.9257017941
 10
-4.5719982849
 20
-20.7961598721
 10
-4.664106514
 20
-20.6620780592
 10
-4.7486055043
 20
-20.5251518187
 10
-4.8254000648
 20
-20.3853400218
 10
-4.8945805436
 20
-20.2426793624
 10
-4.9552681534
 20
-20.0989831904
 10
-5.0073534158
 20
-19.9542409401
 10
-5.0509421038
 20
-19.8084598001
 10
-5.0854799609
 20
-19.6634812722
 10
-5.1108539209
 20
-19.5193116421
 10
-5.127175026
 20
-19.3759427982
 10
-5.1342271071
 20
-19.2351964116
 10
-5.1318917826
 20
-19.0971005747
 10
-5.1202874068
 20
-18.9616272004
 10
-5.0995549501
 20
-18.8305155526
 10
-5.0695754295
 20
-18.7038217396
 10
-5.0304698237
 20
-18.5814915034
 10
-4.9827410003
 20
-18.465100342
 10
-4.9262825037
 20
-18.3547329015
 10
-4.861204511
 20
-18.2503079508
 10
-4.7883365109
 20
-18.1531536922
 10
-4.7075854953
 20
-18.0633648711
 10
-4.6190493247
 20
-17.9808511741
 10
-4.5238450413
 20
-17.9066643499
 10
-4.4218860403
 20
-17.8409087343
 10
-4.313264174
 20
-17.7834847693
 10
-4.1993649453
 20
-17.735139063
 10
-4.0801324672
 20
-17.6959898076
 10
-3.9556274877
 20
-17.6659232269
 10
-3.8274107555
 20
-17.645338241
 10
-3.6953485118
 20
-17.6343764552
 10
-3.5595782378
 20
-17.6328996407
 10
-3.4220674261
 20
-17.6408868591
 10
-3.2834726152
 20
-17.6583317724
 10
-3.1431392881
 20
-17.6852425505
 10
-3.001067948
 20
-17.7216196493
  0
LWPOLYLINE
  5
3DA
100
AcDbEntity
  8
RACCORDO
100
AcDbPolyline
 62
253
  6
CONTINUOUS
 90
13
 70
0
 10
-22.4039457162
 20
22.9371618995
 10
-22.4059027932
 20
22.9659961377
 10
-22.4115502072
 20
22.9954315877
 10
-22.4207940666
 20
23.0249605531
 10
-22.4334796842
 20
23.0540759059
 10
-22.4493902684
 20
23.0822706054
 10
-22.4682472768
 20
23.1090476667
 10
-22.4897737571
 20
23.133995431
 10
-22.5135580752
 20
23.1566206899
 10
-22.5390076137
 20
23.1764048877
 10
-22.5655910083
 20
23.1930325114
 10
-22.5928936463
 20
23.2063360836
 10
-22.6204484032
 20
23.2161635288
  0
LWPOLYLINE
  5
3DB
100
AcDbEntity
  8
RACCORDO
100
AcDbPolyline
 62
7
  6
CONTINUOUS
 90
13
 70
0
 10
-21.2668747979
 20
23.9201393239
 10
-21.2688165696
 20
23.9488561269
 10
-21.2744169388
 20
23.9781617013
 10
-21.2835800855
 20
24.0075546424
 10
-21.2961492318
 20
24.036532051
 10
-21.3119093258
 20
24.0645981367
 10
-21.3305907218
 20
24.0912726996
 10
-21.3518737908
 20
24.116099349
 10
-21.3753943882
 20
24.1386533136
 10
-21.400750085
 20
24.1585487072
 10
-21.4275070563
 20
24.1754451291
 10
-21.4552075035
 20
24.1890534888
 10
-21.4833774849
 20
24.1991409532
  0
LWPOLYLINE
  5
3DC
100
AcDbEntity
  8
RACCORDO
100
AcDbPolyline
 62
253
  6
CONTINUOUS
 90
10
 70
0
 10
-22.7447211868
 20
22.5520635201
 10
-22.7438674338
 20
22.5275416959
 10
-22.7413178321
 20
22.5048335506
 10
-22.7371072014
 20
22.4842492887
 10
-22.7312819977
 20
22.4660417856
 10
-22.7239277322
 20
22.4504969868
 10
-22.7151926774
 20
22.4378840956
 10
-22.705233703
 20
22.4283435265
 10
-22.6941890174
 20
22.4219330905
 10
-22.6890592986
 20
22.4201246344
  0
LINE
  5
3DD
100
AcDbEntity
  8
RACCORDO
100
AcDbLine
 62
253
  6
CONTINUOUS
 10
-22.2396827984
 20
22.3586217646
 11
-22.2396827984
 21
21.6647090373
  0
LINE
  5
3DE
100
AcDbEntity
  8
RACCORDO
100
AcDbLine
 62
253
  6
CONTINUOUS
 10
-21.8989073278
 20
22.5287462098
 11
-21.8989073278
 21
21.7211140881
  0
LINE
  5
3DF
100
AcDbEntity
  8
RACCORDO
100
AcDbLine
 62
7
  6
CONTINUOUS
 10
-21.2668747979
 20
22.3255463521
 11
-21.2668747979
 21
23.9201393239
  0
LINE
  5
3E0
100
AcDbEntity
  8
RACCORDO
100
AcDbLine
 62
253
  6
CONTINUOUS
 10
-20.8949337008
 20
24.2428354774
 11
-20.8949337008
 21
23.8953039607
  0
LINE
  5
3E1
100
AcDbEntity
  8
RACCORDO
100
AcDbLine
 62
7
  6
CONTINUOUS
 10
-20.8621636042
 20
24.3047046318
 11
-20.8621636042
 21
23.9571731151
  0
LWPOLYLINE
  5
3E2
100
AcDbEntity
  8
RACCORDO
100
AcDbPolyline
 62
7
  6
CONTINUOUS
 90
5
 70
0
 10
-20.8621636108
 20
23.9572018328
 10
-20.8628798093
 20
23.9382630748
 10
-20.8667571148
 20
23.9094692924
 10
-20.8739695617
 20
23.8812547527
 10
-20.8844447113
 20
23.8540028392
  0
LINE
  5
3E3
100
AcDbEntity
  8
DRAFT
100
AcDbLine
 62
7
  6
CONTINUOUS
 10
-10.6850109102
 20
21.6285995982
 11
-10.9886147385
 21
21.135658003
  0
LINE
  5
3E4
100
AcDbEntity
  8
DRAFT
100
AcDbLine
 62
7
  6
CONTINUOUS
 10
-10.2409985045
 20
19.2239869592
 11
-10.31165344
 21
19.1554886629
  0
LINE
  5
3E5
100
AcDbEntity
  8
RACCORDO
100
AcDbLine
 62
7
  6
CONTINUOUS
 10
-10.31165344
 20
19.1554886629
 11
-10.5656417231
 21
18.9156289385
  0
LINE
  5
3E6
100
AcDbEntity
  8
ASSI
100
AcDbLine
 62
7
  6
CONTINUOUS
 10
-10.31165344
 20
20.3679242282
 11
-6.5980015763
 21
23.5898891609
  0
LINE
  5
3E7
100
AcDbEntity
  8
RACCORDO
100
AcDbLine
 62
7
  6
CONTINUOUS
 10
-10.5656417231
 20
20.1483559109
 11
-10.31165344
 21
20.3679242282
  0
LINE
  5
3E8
100
AcDbEntity
  8
DRAFT
100
AcDbLine
 62
7
  6
CONTINUOUS
 10
-10.2409985045
 20
19.2239869592
 11
-6.5625568996
 21
22.396680598
  0
LINE
  5
3E9
100
AcDbEntity
  8
RACCORDO
100
AcDbLine
 62
7
  6
CONTINUOUS
 10
-6.5197257376
 20
23.7713092273
 11
-6.623521985
 21
23.6829879598
  0
LWPOLYLINE
  5
3EA
100
AcDbEntity
  8
ASSI
100
AcDbPolyline
 62
7
  6
CONTINUOUS
 90
7
 70
0
 10
-6.5980015763
 20
23.5898891609
 10
-6.5920907637
 20
23.5948928877
 10
-6.5861812978
 20
23.599648947
 10
-6.5802731784
 20
23.6041573389
 10
-6.5743664055
 20
23.6084180634
 10
-6.5684609793
 20
23.6124311204
 10
-6.5625568996
 20
23.6161965099
  0
LINE
  5
3EB
100
AcDbEntity
  8
RACCORDO
100
AcDbLine
 62
7
  6
CONTINUOUS
 10
-6.5434715251
 20
20.2435202937
 11
-6.9235681905
 21
19.9225174181
  0
LWPOLYLINE
  5
3EC
100
AcDbEntity
  8
RACCORDO
100
AcDbPolyline
 62
7
  6
CONTINUOUS
 90
9
 70
0
 10
-6.5434715251
 20
20.2435202937
 10
-6.5225452902
 20
20.2593871755
 10
-6.4997198854
 20
20.2731588678
 10
-6.4752589202
 20
20.2845420848
 10
-6.4495236704
 20
20.2932760036
 10
-6.4228477978
 20
20.2991886836
 10
-6.3954930849
 20
20.3021653994
 10
-6.3678061788
 20
20.3021080094
 10
-6.3403093586
 20
20.2989917831
  0
LWPOLYLINE
  5
3ED
100
AcDbEntity
  8
RACCORDO
100
AcDbPolyline
 62
253
  6
CONTINUOUS
 90
3
 70
0
 10
-1.8763448346
 20
-20.5238605963
 10
-1.8555342537
 20
-20.5188997281
 10
-1.7844806906
 20
-20.4949075284
  0
LINE
  5
3EE
100
AcDbEntity
  8
RACCORDO
100
AcDbLine
 62
7
  6
CONTINUOUS
 10
-1.8392606297
 20
-20.5011809073
 11
-1.8523403177
 21
-20.5036200832
  0
LWPOLYLINE
  5
3EF
100
AcDbEntity
  8
0
100
AcDbPolyline
 62
7
  6
CONTINUOUS
 90
3
 70
0
 10
3.2687403132
 20
-20.3715070133
 10
3.3335100326
 20
-20.3787741351
 10
3.3978822317
 20
-20.3910701604
  0
LWPOLYLINE
  5
3F0
100
AcDbEntity
  8
0
100
AcDbPolyline
 62
253
  6
CONTINUOUS
 90
5
 70
0
 10
3.316055563
 20
-20.3240888853
 10
3.3408894663
 20
-20.3292565612
 10
3.3647253869
 20
-20.3348101127
 10
3.3878282203
 20
-20.3407183483
 10
3.4102227634
 20
-20.3469090768
  0
LWPOLYLINE
  5
3F1
100
AcDbEntity
  8
0
100
AcDbPolyline
 62
7
  6
CONTINUOUS
 90
10
 70
0
 10
-2.5785752678
 20
-20.724065131
 10
-2.5652687932
 20
-20.7274261763
 10
-2.4825830484
 20
-20.7422602863
 10
-2.4002154113
 20
-20.750845245
 10
-2.3183682675
 20
-20.7529706863
 10
-2.2378448978
 20
-20.7484232628
 10
-2.1599718572
 20
-20.7372255782
 10
-2.0853138171
 20
-20.7195370488
 10
-2.0141360305
 20
-20.6954894206
 10
-1.9471592632
 20
-20.6654350584
  0
LINE
  5
3F2
100
AcDbEntity
  8
0
100
AcDbLine
 62
7
  6
CONTINUOUS
 10
3.3978822317
 20
-20.3910701604
 11
3.4501636387
 21
-20.4046228415
  0
LWPOLYLINE
  5
3F3
100
AcDbEntity
  8
0
100
AcDbPolyline
 62
253
  6
CONTINUOUS
 90
43
 70
0
 10
3.5324231692
 20
-22.0945394031
 10
3.5107295554
 20
-22.0879973793
 10
3.4893702496
 20
-22.0810355558
 10
3.4683573478
 20
-22.0736823573
 10
3.4478217703
 20
-22.0660115313
 10
3.4276526612
 20
-22.0580101675
 10
3.4075005126
 20
-22.0495515527
 10
3.3873803793
 20
-22.0406431188
 10
3.367299846
 20
-22.031283334
 10
3.3469058486
 20
-22.0212831263
 10
3.3261977797
 20
-22.0106074392
 10
3.3052131946
 20
-21.9992483173
 10
3.2836691397
 20
-21.9870120498
 10
3.2615527632
 20
-21.9738304194
 10
3.2389400813
 20
-21.9596879257
 10
3.2156969612
 20
-21.9444371486
 10
3.1918281408
 20
-21.9279972933
 10
3.1674267448
 20
-21.9103447348
 10
3.1425051695
 20
-21.8914038325
 10
3.1171401632
 20
-21.8711359314
 10
3.0913885837
 20
-21.8494824069
 10
3.0652484196
 20
-21.8263317007
 10
3.0388282591
 20
-21.8016568752
 10
3.0122036051
 20
-21.7753958308
 10
2.9853498105
 20
-21.7473727279
 10
2.9584046882
 20
-21.7175546759
 10
2.9314910625
 20
-21.6858978551
 10
2.9046053972
 20
-21.6521962487
 10
2.8779277031
 20
-21.6164273751
 10
2.8516461058
 20
-21.5785712538
 10
2.8258304169
 20
-21.5384189465
 10
2.8006117651
 20
-21.4957781228
 10
2.7763852072
 20
-21.450870115
 10
2.753613089
 20
-21.4041431286
 10
2.7323417867
 20
-21.3552245641
 10
2.7130561151
 20
-21.3046882119
 10
2.6965583628
 20
-21.2544854438
 10
2.682794718
 20
-21.20471791
 10
2.671746843
 20
-21.1556066788
 10
2.6636640582
 20
-21.1092788926
 10
2.6582518277
 20
-21.0664713824
 10
2.6550252542
 20
-21.0265601795
 10
2.6536486352
 20
-20.9895550699
  0
LWPOLYLINE
  5
3F4
100
AcDbEntity
  8
0
100
AcDbPolyline
 62
253
  6
CONTINUOUS
 90
43
 70
0
 10
3.435737486
 20
-22.3072541683
 10
3.4106666459
 20
-22.2996599878
 10
3.3862125405
 20
-22.2916922053
 10
3.3622852868
 20
-22.2833334002
 10
3.338863065
 20
-22.2745886145
 10
3.3157992409
 20
-22.2654239202
 10
3.2928252846
 20
-22.2557524263
 10
3.269901724
 20
-22.2455821015
 10
3.2469182482
 20
-22.2348527404
 10
3.2235106369
 20
-22.2233435773
 10
3.1997758862
 20
-22.211067636
 10
3.1757453971
 20
-22.1980278961
 10
3.1510309092
 20
-22.1839606943
 10
3.1256822734
 20
-22.1688123372
 10
3.0998422812
 20
-22.1525997449
 10
3.0732872547
 20
-22.1351170432
 10
3.0459919547
 20
-22.1162533184
 10
3.0180974488
 20
-22.0960020413
 10
2.9896381483
 20
-22.0742888414
 10
2.9606728778
 20
-22.0510540321
 10
2.9312567467
 20
-22.0262189439
 10
2.9014246511
 20
-21.9996740009
 10
2.8712833681
 20
-21.971388528
 10
2.8408740164
 20
-21.9412569515
 10
2.8101877318
 20
-21.9090745051
 10
2.7794243395
 20
-21.8748452449
 10
2.7487233282
 20
-21.8385366963
 10
2.718056229
 20
-21.7998813482
 10
2.6876394601
 20
-21.7588562943
 10
2.6577036846
 20
-21.7154590159
 10
2.6283223843
 20
-21.6694408679
 10
2.5996321309
 20
-21.6205685898
 10
2.5720684545
 20
-21.5690784997
 10
2.5461614626
 20
-21.5154900159
 10
2.5219889872
 20
-21.4593991198
 10
2.5001111119
 20
-21.4014829303
 10
2.4814212746
 20
-21.3439671013
 10
2.4658480089
 20
-21.2869361056
 10
2.4533808829
 20
-21.2306533671
 10
2.4442934423
 20
-21.1775743262
 10
2.4382412668
 20
-21.1285366424
 10
2.4346779622
 20
-21.0828043907
 10
2.4332262111
 20
-21.040380303
  0
LWPOLYLINE
  5
3F5
100
AcDbEntity
  8
0
100
AcDbPolyline
 62
7
  6
CONTINUOUS
 90
46
 70
0
 10
3.1311382989
 20
-23.7411003879
 10
2.9768022109
 20
-23.6908006171
 10
2.8251163648
 20
-23.6313016101
 10
2.6760814157
 20
-23.5626027621
 10
2.5292199252
 20
-23.4843478976
 10
2.3850119157
 20
-23.3968908075
 10
2.2448947324
 20
-23.3012953777
 10
2.1087342638
 20
-23.1973916918
 10
1.9766693079
 20
-23.0853453459
 10
1.8505466739
 20
-22.9667234044
 10
1.7304155034
 20
-22.8413977804
 10
1.6162326708
 20
-22.7094910244
 10
1.5097060959
 20
-22.5729466105
 10
1.4109843895
 20
-22.431740511
 10
1.3199251916
 20
-22.2858910156
 10
1.2377988399
 20
-22.137406115
 10
1.1647061181
 20
-21.9862060988
 10
1.1005517961
 20
-21.8323655977
 10
1.046310436
 20
-21.6781257304
 10
1.0021340149
 20
-21.5234834201
 10
0.9678743465
 20
-21.3684382979
 10
0.9440534449
 20
-21.2152376596
 10
0.9308253485
 20
-21.0639018447
 10
0.9280374142
 20
-20.9144092722
 10
0.9357490397
 20
-20.768946733
 10
0.9541157346
 20
-20.6275756937
 10
0.9829807173
 20
-20.4902358858
 10
1.0219323372
 20
-20.3589338815
 10
1.0711216718
 20
-20.233759848
 10
1.1303939313
 20
-20.1146270348
 10
1.1988763228
 20
-20.0032787685
 10
1.2766894937
 20
-19.8998403978
 10
1.3637072778
 20
-19.8041916213
 10
1.4586848411
 20
-19.717708944
 10
1.5617777965
 20
-19.6405194332
 10
1.6728242114
 20
-19.5725017799
 10
1.7901017466
 20
-19.5146609991
 10
1.9135946684
 20
-19.4671658732
 10
2.0433126049
 20
-19.4298531687
 10
2.1775707726
 20
-19.4032303158
 10
2.3163196624
 20
-19.3873745795
 10
2.4596040669
 20
-19.3822129739
 10
2.6058807569
 20
-19.3880274587
 10
2.7546343951
 20
-19.4049128613
 10
2.9063776901
 20
-19.4327767368
 10
3.0611099762
 20
-19.4716196881
  0
LINE
  5
3F6
100
AcDbEntity
  8
RACCORDO
100
AcDbLine
 62
253
  6
CONTINUOUS
 10
14.8315743497
 20
-27.4610345462
 11
14.8037881125
 21
-27.4508044366
  0
LWPOLYLINE
  5
3F7
100
AcDbEntity
  8
RACCORDO
100
AcDbPolyline
 62
253
  6
CONTINUOUS
 90
4
 70
0
 10
-20.8949337008
 20
24.2428354774
 10
-20.8967127277
 20
24.2718239115
 10
-20.9022102039
 20
24.3013892114
 10
-20.9113348546
 20
24.3310214146
  0
LINE
  5
3F8
100
AcDbEntity
  8
RACCORDO
100
AcDbLine
 62
7
  6
CONTINUOUS
 10
-18.2471377692
 20
22.1910254917
 11
-18.2471377692
 21
20.9792608634
  0
LINE
  5
3F9
100
AcDbEntity
  8
RACCORDO
100
AcDbLine
 62
253
  6
CONTINUOUS
 10
-17.9971377692
 20
21.8319434595
 11
-17.9971377692
 21
20.7513601487
  0
LINE
  5
3FA
100
AcDbEntity
  8
RACCORDO
100
AcDbLine
 62
7
  6
CONTINUOUS
 10
-6.926219511
 20
19.9202088368
 11
-8.0406030628
 21
18.9306820899
  0
LINE
  5
3FB
100
AcDbEntity
  8
RACCORDO
100
AcDbLine
 62
253
  6
CONTINUOUS
 10
-6.7609529485
 20
19.9491430686
 11
-7.875336463
 21
18.9596163548
  0
LINE
  5
3FC
100
AcDbEntity
  8
RACCORDO
100
AcDbLine
 62
253
  6
CONTINUOUS
 10
-8.0404979773
 20
18.9307753076
 11
-8.0406202642
 21
18.9306668133
  0
LINE
  5
3FD
100
AcDbEntity
  8
RACCORDO
100
AcDbLine
 62
7
  6
CONTINUOUS
 10
-6.9235829787
 20
19.9224920674
 11
-6.9262195089
 21
19.9202088387
  0
LINE
  5
3FE
100
AcDbEntity
  8
RACCORDO
100
AcDbLine
 62
253
  6
CONTINUOUS
 10
-4.7435562562
 20
19.7968371067
 11
-6.2525682717
 21
18.4911635288
  0
LINE
  5
3FF
100
AcDbEntity
  8
RACCORDO
100
AcDbLine
 62
253
  6
CONTINUOUS
 10
-4.5270535692
 20
19.5178354774
 11
-6.0360655847
 21
18.2121618995
  0
LINE
  5
400
100
AcDbEntity
  8
RACCORDO
100
AcDbLine
 62
253
  6
CONTINUOUS
 10
-6.3814396127
 20
20.2696533051
 11
-6.7609529485
 21
19.9491430686
  0
LINE
  5
401
100
AcDbEntity
  8
RACCORDO
100
AcDbLine
 62
7
  6
CONTINUOUS
 10
-3.4257800715
 20
19.3435202937
 11
-3.8058767369
 21
19.0225174181
  0
LINE
  5
402
100
AcDbEntity
  8
RACCORDO
100
AcDbLine
 62
253
  6
CONTINUOUS
 10
-3.2637481591
 20
19.3696533051
 11
-3.6432614948
 21
19.0491430686
  0
LINE
  5
403
100
AcDbEntity
  8
DRAFT
100
AcDbLine
 62
7
  6
CONTINUOUS
 10
-3.3083213403
 20
19.9600860538
 11
-1.0583213403
 21
21.8406188289
  0
LINE
  5
404
100
AcDbEntity
  8
RACCORDO
100
AcDbLine
 62
7
  6
CONTINUOUS
 10
-2.7710326162
 20
22.689154736
 11
-5.81648104
 21
20.1494296588
  0
LINE
  5
405
100
AcDbEntity
  8
DRAFT
100
AcDbLine
 62
7
  6
CONTINUOUS
 10
-4.683165994
 20
19.8301361605
 11
-1.109783988
 21
22.6988254249
  0
LINE
  5
406
100
AcDbEntity
  8
RACCORDO
100
AcDbLine
 62
253
  6
CONTINUOUS
 10
-3.4159492855
 20
19.3511063913
 11
-3.4257808529
 21
19.3435196338
  0
LINE
  5
407
100
AcDbEntity
  8
RACCORDO
100
AcDbLine
 62
7
  6
CONTINUOUS
 10
-3.4030930174
 20
19.3605716398
 11
-3.4258513023
 21
19.3434600968
  0
LINE
  5
408
100
AcDbEntity
  8
RACCORDO
100
AcDbLine
 62
7
  6
CONTINUOUS
 10
7.1716312434
 20
-16.1929565506
 11
7.1435124949
 21
-16.2002244169
  0
LWPOLYLINE
  5
409
100
AcDbEntity
  8
RACCORDO
100
AcDbPolyline
 62
7
  6
CONTINUOUS
 90
3
 70
0
 10
6.5396412164
 20
-16.2360370982
 10
6.5707604416
 20
-16.2284100425
 10
6.6176298607
 20
-16.2127830012
  0
LWPOLYLINE
  5
40A
100
AcDbEntity
  8
RACCORDO
100
AcDbPolyline
 62
7
  6
CONTINUOUS
 90
3
 70
0
 10
6.4918860685
 20
-16.3530651297
 10
6.4484033354
 20
-16.3637031323
 10
6.4033915351
 20
-16.3737868518
  0
LWPOLYLINE
  5
40B
100
AcDbEntity
  8
RACCORDO
100
AcDbPolyline
 62
253
  6
CONTINUOUS
 90
7
 70
0
 10
6.5396045944
 20
-16.2360448286
 10
6.5422208254
 20
-16.2354323428
 10
6.5563944319
 20
-16.2300761743
 10
6.569460114
 20
-16.2215396458
 10
6.5813360264
 20
-16.2099443375
 10
6.5924812713
 20
-16.1952690824
 10
6.6030990166
 20
-16.1775907625
  0
LINE
  5
40C
100
AcDbEntity
  8
RACCORDO
100
AcDbLine
 62
253
  6
CONTINUOUS
 10
6.5394906934
 20
-16.2360689812
 11
6.5396045944
 21
-16.2360448286
  0
LINE
  5
40D
100
AcDbEntity
  8
RACCORDO
100
AcDbLine
 62
253
  6
CONTINUOUS
 10
6.2635664906
 20
-16.244828946
 11
6.602937986
 21
-16.1774229828
  0
LWPOLYLINE
  5
40E
100
AcDbEntity
  8
RACCORDO
100
AcDbPolyline
 62
7
  6
CONTINUOUS
 90
32
 70
0
 10
6.5395281954
 20
-16.236061065
 10
6.0436958038
 20
-16.3337531019
 10
5.5390453311
 20
-16.419364128
 10
5.0267267121
 20
-16.4927422979
 10
4.507930398
 20
-16.5537570488
 10
3.9837973592
 20
-16.6023097933
 10
3.4554227412
 20
-16.6383263581
 10
2.9240118306
 20
-16.6617457034
 10
2.3907441612
 20
-16.6725336716
 10
1.8566888198
 20
-16.6706781694
 10
1.3230443525
 20
-16.6561852735
 10
0.7910084349
 20
-16.6290864024
 10
0.2616472284
 20
-16.5894271019
 10
-0.2638501049
 20
-16.5372798704
 10
-0.7843001597
 20
-16.4727421858
 10
-1.2986599838
 20
-16.3959149439
 10
-1.8057622812
 20
-16.3069352288
 10
-2.3044603713
 20
-16.2059625471
 10
-2.7937696777
 20
-16.09314321
 10
-3.2725625127
 20
-15.9686722741
 10
-3.7397418989
 20
-15.8327633344
 10
-4.1944082935
 20
-15.6855897413
 10
-4.6355558538
 20
-15.5273669828
 10
-5.0620715102
 20
-15.3583730881
 10
-5.4729646443
 20
-15.1788685008
 10
-5.8673442048
 20
-14.9890868599
 10
-6.2441450469
 20
-14.7893665845
 10
-6.6022582443
 20
-14.5801218656
 10
-6.9410787419
 20
-14.3614994819
 10
-7.2594886344
 20
-14.1339830069
 10
-7.5559382088
 20
-13.898525021
 10
-7.8296227648
 20
-13.6557049579
  0
LWPOLYLINE
  5
40F
100
AcDbEntity
  8
RACCORDO
100
AcDbPolyline
 62
7
  6
CONTINUOUS
 90
7
 70
0
 10
3.4989749882
 20
-16.7670727475
 10
3.9714498117
 20
-16.7308475679
 10
4.4579658287
 20
-16.6837452686
 10
4.9457002849
 20
-16.6246042111
 10
5.430378929
 20
-16.5530371828
 10
5.9162760124
 20
-16.4694313963
 10
6.4033915351
 20
-16.3737868518
  0
LWPOLYLINE
  5
410
100
AcDbEntity
  8
ASSI
100
AcDbPolyline
 62
7
  6
CONTINUOUS
 90
18
 70
0
 10
1.9968439777
 20
-18.0471087776
 10
1.3800693929
 20
-18.0283904562
 10
0.7403313619
 20
-17.9790579445
 10
0.0982509575
 20
-17.8985749293
 10
-0.5434710634
 20
-17.7865712924
 10
-1.1840153133
 20
-17.6424965064
 10
-1.8246324619
 20
-17.4650731129
 10
-2.4683797825
 20
-17.2517944536
 10
-3.1083477591
 20
-17.0032235909
 10
-3.7322912612
 20
-16.7236648679
 10
-4.3394301957
 20
-16.41387917
 10
-4.9298321778
 20
-16.0740436916
 10
-5.4951391864
 20
-15.7097595444
 10
-6.0345527876
 20
-15.32309953
 10
-6.5507201191
 20
-14.9133937761
 10
-7.0418780309
 20
-14.4830367316
 10
-7.5096090223
 20
-14.0314997138
 10
-7.9586701954
 20
-13.5539378563
  0
LWPOLYLINE
  5
411
100
AcDbEntity
  8
RACCORDO
100
AcDbPolyline
 62
253
  6
CONTINUOUS
 90
7
 70
0
 10
-2.6915572334
 20
-18.5642066331
 10
-2.8291907063
 20
-18.5334922515
 10
-2.9644697706
 20
-18.5213448574
 10
-3.095078583
 20
-18.5279721134
 10
-3.2187805327
 20
-18.5532594378
 10
-3.3334619254
 20
-18.5967735925
 10
-3.4371654063
 20
-18.6577726582
  0
LWPOLYLINE
  5
412
100
AcDbEntity
  8
0
100
AcDbPolyline
 62
7
  6
CONTINUOUS
 90
17
 70
0
 10
-2.6786494059
 20
-18.4816276092
 10
-2.737867048
 20
-18.4660547758
 10
-2.7978477215
 20
-18.4534305376
 10
-2.8584069506
 20
-18.4439505434
 10
-2.9196088352
 20
-18.4377914172
 10
-2.9809645368
 20
-18.4351851943
 10
-3.0414687903
 20
-18.4362612835
 10
-3.1008965734
 20
-18.4410359154
 10
-3.1590685166
 20
-18.4495324152
 10
-3.2151335325
 20
-18.461598414
 10
-3.2689298334
 20
-18.4770861393
 10
-3.3203683273
 20
-18.4958495654
 10
-3.3688397864
 20
-18.517486748
 10
-3.4136277474
 20
-18.5413356274
 10
-3.4554848653
 20
-18.5674516152
 10
-3.4958729081
 20
-18.5967124429
 10
-3.5235434269
 20
-18.6194226385
  0
LINE
  5
413
100
AcDbEntity
  8
0
100
AcDbLine
 62
7
  6
CONTINUOUS
 10
3.4501322617
 20
-20.404613757
 11
3.4501636386
 21
-20.4046228415
  0
LWPOLYLINE
  5
414
100
AcDbEntity
  8
0
100
AcDbPolyline
 62
253
  6
CONTINUOUS
 90
5
 70
0
 10
3.4102227644
 20
-20.3469090816
 10
3.434195626
 20
-20.3541329742
 10
3.4575479889
 20
-20.3616800862
 10
3.4803707927
 20
-20.3695696402
 10
3.5026917894
 20
-20.3777990602
  0
LINE
  5
415
100
AcDbEntity
  8
0
100
AcDbLine
 62
7
  6
CONTINUOUS
 10
-3.001067948
 20
-17.7216196493
 11
-2.8591491045
 21
-17.7671841092
  0
LINE
  5
416
100
AcDbEntity
  8
0
100
AcDbLine
 62
7
  6
CONTINUOUS
 10
3.4501322617
 20
-20.404613757
 11
3.5130584972
 21
-20.4249877077
  0
LWPOLYLINE
  5
417
100
AcDbEntity
  8
0
100
AcDbPolyline
 62
7
  6
CONTINUOUS
 90
46
 70
0
 10
3.0611099762
 20
-19.4716196881
 10
3.2155029668
 20
-19.521984927
 10
3.3671754402
 20
-19.5816033146
 10
3.5161280522
 20
-19.6504742566
 10
3.6628413308
 20
-19.7289570644
 10
3.8068373359
 20
-19.8166900814
 10
3.9466795185
 20
-19.9125908104
 10
4.0824985789
 20
-20.0168199026
 10
4.2141685019
 20
-20.1292124565
 10
4.3398677632
 20
-20.2481975553
 10
4.4595565068
 20
-20.373900565
 10
4.5732806029
 20
-20.506190654
 10
4.6793466265
 20
-20.6431130514
 10
4.7776115065
 20
-20.7846857761
 10
4.8682245606
 20
-20.9308851175
 10
4.9499298223
 20
-21.0796947293
 10
5.0226317637
 20
-21.2311888125
 10
5.086431462
 20
-21.3852880916
 10
5.1403661068
 20
-21.5397475945
 10
5.1842883478
 20
-21.694567144
 10
5.218349326
 20
-21.8497434296
 10
5.2420316706
 20
-22.0030288717
 10
5.2551832333
 20
-22.1544036178
 10
5.2579575642
 20
-22.3038862038
 10
5.2502932496
 20
-22.4492889982
 10
5.232033246
 20
-22.5905524152
 10
5.2033333308
 20
-22.7277371636
 10
5.1645987085
 20
-22.8588384464
 10
5.11567382
 20
-22.9837696033
 10
5.0567105148
 20
-23.1026206654
 10
4.9885727657
 20
-23.2136540259
 10
4.9111332893
 20
-23.316749522
 10
4.8245138496
 20
-23.4120323642
 10
4.7299501664
 20
-23.4981346863
 10
4.6272801385
 20
-23.574934629
 10
4.5166595442
 20
-23.6425598553
 10
4.3997997347
 20
-23.70001788
 10
4.2767095825
 20
-23.7471462539
 10
4.1473741083
 20
-23.7841130462
 10
4.0134683997
 20
-23.8104219998
 10
3.8750364618
 20
-23.826000829
 10
3.7320295735
 20
-23.8309261672
 10
3.5859838359
 20
-23.8249250437
 10
3.4374103556
 20
-23.8079073239
 10
3.2857953983
 20
-23.7799655673
 10
3.1311382989
 20
-23.7411003879
  0
LINE
  5
418
100
AcDbEntity
  8
0
100
AcDbLine
 62
7
  6
CONTINUOUS
 10
-2.8591491045
 20
-17.7671841092
 11
-2.7186587436
 21
-17.8212988203
  0
LWPOLYLINE
  5
419
100
AcDbEntity
  8
0
100
AcDbPolyline
 62
253
  6
CONTINUOUS
 90
5
 70
0
 10
3.5026917894
 20
-20.3777990602
 10
3.5246540152
 20
-20.3864024889
 10
3.5465130309
 20
-20.3954638451
 10
3.568311291
 20
-20.4049833095
 10
3.5901589138
 20
-20.4150119903
  0
LWPOLYLINE
  5
41A
100
AcDbEntity
  8
0
100
AcDbPolyline
 62
7
  6
CONTINUOUS
 90
19
 70
0
 10
3.5130584972
 20
-20.4249877077
 10
3.585424644
 20
-20.4539999377
 10
3.6578834953
 20
-20.4891148994
 10
3.7297497358
 20
-20.5300703392
 10
3.8002099073
 20
-20.5765552796
 10
3.8686530807
 20
-20.6282752123
 10
3.9344941863
 20
-20.6848636389
 10
3.99713833
 20
-20.7458428836
 10
4.0560465185
 20
-20.8106828894
 10
4.1107186351
 20
-20.8788526916
 10
4.1607029737
 20
-20.9497684911
 10
4.2056099734
 20
-21.022816561
 10
4.2451355224
 20
-21.0973910801
 10
4.2790314294
 20
-21.1728918178
 10
4.307060026
 20
-21.2486056193
 10
4.3291008235
 20
-21.323949089
 10
4.3451170398
 20
-21.398487354
 10
4.355053903
 20
-21.4716176048
 10
4.3589202111
 20
-21.5420581223
  0
LWPOLYLINE
  5
41B
100
AcDbEntity
  8
0
100
AcDbPolyline
 62
7
  6
CONTINUOUS
 90
47
 70
0
 10
-2.7186587436
 20
-17.8212988203
 10
-2.5795963637
 20
-17.8839633283
 10
-2.4412727979
 20
-17.9555617491
 10
-2.3043751948
 20
-18.0357081378
 10
-2.1709671229
 20
-18.1232465827
 10
-2.0412207623
 20
-18.2182153733
 10
-1.9149602237
 20
-18.3205728556
 10
-1.7937268518
 20
-18.4290430943
 10
-1.6775550209
 20
-18.5437222802
 10
-1.5664054972
 20
-18.6645098079
 10
-1.4617095062
 20
-18.7898348106
 10
-1.36355945
 20
-18.9197396434
 10
-1.2718576913
 20
-19.0541771848
 10
-1.1877511749
 20
-19.191443057
 10
-1.1113307163
 20
-19.3315736776
 10
-1.0425006587
 20
-19.4745282073
 10
-0.9821294879
 20
-19.6184875169
 10
-0.9303227859
 20
-19.7634588028
 10
-0.8869712657
 20
-19.9094314687
 10
-0.8526227609
 20
-20.0545611989
 10
-0.8273878897
 20
-20.1988401106
 10
-0.8111540079
 20
-20.3422742087
 10
-0.8041359773
 20
-20.4830417612
 10
-0.8064520955
 20
-20.6211159649
 10
-0.8179840328
 20
-20.7565235634
 10
-0.8385937462
 20
-20.8875250068
 10
-0.8684026833
 20
-21.0140660889
 10
-0.90729139
 20
-21.1362028139
 10
-0.9547624286
 20
-21.2523627419
 10
-1.0109266187
 20
-21.3624646132
 10
-1.0756768625
 20
-21.4665930798
 10
-1.148190521
 20
-21.563426109
 10
-1.2285657442
 20
-21.6528730665
 10
-1.316709237
 20
-21.7350290326
 10
-1.4115124436
 20
-21.8088517004
 10
-1.5130673073
 20
-21.874241691
 10
-1.6212871341
 20
-21.9313032054
 10
-1.7347961871
 20
-21.979300022
 10
-1.853655223
 20
-22.0181191332
 10
-1.9778083462
 20
-22.047878022
 10
-2.1057051342
 20
-22.0681864755
 10
-2.2374838606
 20
-22.0789074647
 10
-2.3730099736
 20
-22.0801814502
 10
-2.5103236949
 20
-22.0720343461
 10
-2.6487724728
 20
-22.0544754436
 10
-2.7890108802
 20
-22.0274973169
 10
-2.9310394201
 20
-21.9911004303
  0
LWPOLYLINE
  5
41C
100
AcDbEntity
  8
0
100
AcDbPolyline
 62
253
  6
CONTINUOUS
 90
32
 70
0
 10
3.5901589138
 20
-20.4150119903
 10
3.6124057008
 20
-20.4257393054
 10
3.6349712321
 20
-20.4371507592
 10
3.6578262555
 20
-20.449245647
 10
3.6813378671
 20
-20.4622633031
 10
3.7054472745
 20
-20.4762458452
 10
3.7300229649
 20
-20.4911791375
 10
3.7553108781
 20
-20.5072697676
 10
3.7813473002
 20
-20.5246283324
 10
3.8079994569
 20
-20.5432594
 10
3.8352522535
 20
-20.563239562
 10
3.8630702143
 20
-20.5846458929
 10
3.8913931376
 20
-20.6075459813
 10
3.920167562
 20
-20.6320101036
 10
3.9493056701
 20
-20.6580787019
 10
3.9787828513
 20
-20.6858589427
 10
4.008595589
 20
-20.7155001572
 10
4.0385630222
 20
-20.7469901898
 10
4.0685830656
 20
-20.7803848843
 10
4.0987070762
 20
-20.8159388582
 10
4.1287505164
 20
-20.8536944284
 10
4.1585043454
 20
-20.89365756
 10
4.1879220148
 20
-20.9360486855
 10
4.2167648511
 20
-20.9808628687
 10
4.2448196834
 20
-21.0281558236
 10
4.2719876605
 20
-21.078228818
 10
4.298055135
 20
-21.1313052088
 10
4.322504853
 20
-21.1870373077
 10
4.3447694187
 20
-21.2448078315
 10
4.3646103558
 20
-21.3047018817
 10
4.3816057498
 20
-21.3663092902
 10
4.395184757
 20
-21.4282159425
  0
LINE
  5
41D
100
AcDbEntity
  8
DRAFT
100
AcDbLine
 62
253
  6
CONTINUOUS
 10
-14.1032541299
 20
22.8071652395
 11
-14.1032541299
 21
23.1656483618
  0
LWPOLYLINE
  5
41E
100
AcDbEntity
  8
RACCORDO
100
AcDbPolyline
 62
7
  6
CONTINUOUS
 90
8
 70
0
 10
-4.9229116092
 20
18.0306820899
 10
-4.9442463699
 20
18.0092950016
 10
-4.9631262948
 20
17.9850855771
 10
-4.979070409
 20
17.9584091227
 10
-4.99167441
 20
17.9297045661
 10
-5.0006020216
 20
17.8995820196
 10
-5.0056711466
 20
17.8686787523
 10
-5.006916721
 20
17.8433774062
  0
LINE
  5
41F
100
AcDbEntity
  8
RACCORDO
100
AcDbLine
 62
7
  6
CONTINUOUS
 10
-5.0063061227
 20
17.4916466009
 11
-5.5310271963
 21
16.9961140881
  0
LINE
  5
420
100
AcDbEntity
  8
RACCORDO
100
AcDbLine
 62
7
  6
CONTINUOUS
 10
-3.8085280574
 20
19.0202088368
 11
-4.9229116092
 21
18.0306820899
  0
LINE
  5
421
100
AcDbEntity
  8
RACCORDO
100
AcDbLine
 62
253
  6
CONTINUOUS
 10
-3.6432614948
 20
19.0491430686
 11
-4.7576450093
 21
18.0596163548
  0
LINE
  5
422
100
AcDbEntity
  8
RACCORDO
100
AcDbLine
 62
7
  6
CONTINUOUS
 10
-3.805891525
 20
19.0224920674
 11
-3.8085280553
 21
19.0202088387
  0
LINE
  5
423
100
AcDbEntity
  8
RACCORDO
100
AcDbLine
 62
253
  6
CONTINUOUS
 10
-1.6258648026
 20
18.8968371067
 11
-3.1348768181
 21
17.5911635288
  0
LINE
  5
424
100
AcDbEntity
  8
RACCORDO
100
AcDbLine
 62
253
  6
CONTINUOUS
 10
-1.4093621156
 20
18.6178354774
 11
-2.9183741311
 21
17.3121618995
  0
LINE
  5
425
100
AcDbEntity
  8
DRAFT
100
AcDbLine
 62
7
  6
CONTINUOUS
 10
1.7995624922
 20
21.0156188289
 11
-0.4504375078
 21
19.1350860538
  0
LINE
  5
426
100
AcDbEntity
  8
ASSI
100
AcDbLine
 62
7
  6
CONTINUOUS
 10
5.3783178781
 20
20.1691392424
 11
5.3974589515
 21
20.1782833595
  0
LWPOLYLINE
  5
427
100
AcDbEntity
  8
ASSI
100
AcDbPolyline
 62
7
  6
CONTINUOUS
 90
6
 70
0
 10
6.1755540556
 20
19.9882120395
 10
6.173249871
 20
19.9873785221
 10
6.1679633101
 20
19.9845608908
 10
6.1597509583
 20
19.9797490069
 10
6.1486770385
 20
19.9730193257
 10
6.1183324614
 20
19.9543973849
  0
LWPOLYLINE
  5
428
100
AcDbEntity
  8
ASSI
100
AcDbPolyline
 62
7
  6
CONTINUOUS
 90
4
 70
0
 10
12.1995735833
 20
18.2137920067
 10
12.2211070742
 20
18.2200595417
 10
12.2449732888
 20
18.2230968372
 10
12.2710073546
 20
18.2227650191
  0
LINE
  5
429
100
AcDbEntity
  8
RACCORDO
100
AcDbLine
 62
7
  6
CONTINUOUS
 10
7.1717439548
 20
-16.2083741373
 11
7.1435124949
 21
-16.2002244169
  0
LWPOLYLINE
  5
42A
100
AcDbEntity
  8
RACCORDO
100
AcDbPolyline
 62
253
  6
CONTINUOUS
 90
56
 70
0
 10
-7.9225767024
 20
-13.5639145756
 10
-7.7561137964
 20
-13.7193661206
 10
-7.5875713893
 20
-13.8653795945
 10
-7.4182069254
 20
-14.0023890844
 10
-7.247643432
 20
-14.1321722282
 10
-7.0755676484
 20
-14.2554358999
 10
-6.902477478
 20
-14.3725118413
 10
-6.7281914532
 20
-14.4844401161
 10
-6.5513527868
 20
-14.5922593433
 10
-6.3718075986
 20
-14.6962565531
 10
-6.1897647798
 20
-14.7967271395
 10
-6.0044307474
 20
-14.8942139975
 10
-5.8154114457
 20
-14.9889656005
 10
-5.6229288204
 20
-15.080984096
 10
-5.427069219
 20
-15.1703210675
 10
-5.2275270169
 20
-15.2571407157
 10
-5.0241449421
 20
-15.3415175914
 10
-4.8171287712
 20
-15.4234517406
 10
-4.6057979323
 20
-15.5031842748
 10
-4.3900718359
 20
-15.5806374499
 10
-4.1709246152
 20
-15.6555399494
 10
-3.9474565546
 20
-15.72822241
 10
-3.7195056803
 20
-15.79855643
 10
-3.4890402895
 20
-15.8659668585
 10
-3.2554020859
 20
-15.9307887307
 10
-3.018014948
 20
-15.9930502303
 10
-2.7789630998
 20
-16.052159904
 10
-2.5380460944
 20
-16.1083524608
 10
-2.2942931296
 20
-16.1618476605
 10
-2.048727619
 20
-16.2123289691
 10
-1.8011424142
 20
-16.2599288874
 10
-1.5507638261
 20
-16.3048232085
 10
-1.2978781265
 20
-16.3468697701
 10
-1.0422538574
 20
-16.3860957677
 10
-0.7833462674
 20
-16.4225731503
 10
-0.5210532172
 20
-16.4562403384
 10
-0.2557396843
 20
-16.4869100755
 10
0.0135286803
 20
-16.514702531
 10
0.2888246185
 20
-16.5398334404
 10
0.5698965296
 20
-16.5617715703
 10
0.8575004243
 20
-16.5804665138
 10
1.1554022633
 20
-16.5963494094
 10
1.4638582444
 20
-16.6084377446
 10
1.7831426504
 20
-16.616259237
 10
2.1173157644
 20
-16.6202980996
 10
2.4697255648
 20
-16.619339634
 10
2.8374978872
 20
-16.6118837014
 10
3.2153127029
 20
-16.5981578412
 10
3.6054480992
 20
-16.5779496958
 10
4.0052377547
 20
-16.5497481284
 10
4.401496691
 20
-16.5138729283
 10
4.7910067532
 20
-16.4719524754
 10
5.175805812
 20
-16.423873377
 10
5.5503834836
 20
-16.3693128924
 10
5.9125756963
 20
-16.3091409137
 10
6.2635664906
 20
-16.244828946
  0
LWPOLYLINE
  5
42B
100
AcDbEntity
  8
RACCORDO
100
AcDbPolyline
 62
7
  6
CONTINUOUS
 90
3
 70
0
 10
-7.8296227648
 20
-13.6557049579
 10
-8.0802291721
 20
-13.4057079375
 10
-8.3071864416
 20
-13.1489382825
  0
LINE
  5
42C
100
AcDbEntity
  8
RACCORDO
100
AcDbLine
 62
253
  6
CONTINUOUS
 10
-8.0846407449
 20
-13.4000170672
 11
-7.9225767024
 21
-13.5639145756
  0
LWPOLYLINE
  5
42D
100
AcDbEntity
  8
RACCORDO
100
AcDbPolyline
 62
7
  6
CONTINUOUS
 90
40
 70
0
 10
-7.9595329677
 20
-13.5541307717
 10
-7.8828506764
 20
-13.6376635838
 10
-7.6865129848
 20
-13.8354202551
 10
-7.4847817679
 20
-14.0219949533
 10
-7.2794938073
 20
-14.1963924668
 10
-7.0688123213
 20
-14.3596080072
 10
-6.8536035889
 20
-14.5150098
 10
-6.6343974076
 20
-14.6629706349
 10
-6.41066398
 20
-14.8031177222
 10
-6.1816801928
 20
-14.9377009191
 10
-5.9475528755
 20
-15.0670735549
 10
-5.7081751987
 20
-15.1908823003
 10
-5.4625035613
 20
-15.3103170243
 10
-5.2103236752
 20
-15.425680394
 10
-4.9518498286
 20
-15.5366697424
 10
-4.6866812842
 20
-15.643566937
 10
-4.4144554113
 20
-15.7465631185
 10
-4.1355348408
 20
-15.8454671463
 10
-3.8506067271
 20
-15.9399874659
 10
-3.5594275372
 20
-16.0301633358
 10
-3.2622408042
 20
-16.1159554975
 10
-2.9604642822
 20
-16.1969546216
 10
-2.6542836542
 20
-16.273075494
 10
-2.3435132371
 20
-16.3444033288
 10
-2.0290137359
 20
-16.4107844376
 10
-1.71130635
 20
-16.4721556705
 10
-1.38986988
 20
-16.5285801775
 10
-1.0640014329
 20
-16.5800937203
 10
-0.7343241556
 20
-16.6267562016
 10
-0.4002149012
 20
-16.6685077187
 10
-0.0591013353
 20
-16.705204326
 10
0.2884367588
 20
-16.7370682552
 10
0.6429791643
 20
-16.7638772745
 10
1.008837566
 20
-16.7848207434
 10
1.3856444614
 20
-16.8003177433
 10
1.7737673529
 20
-16.8099491929
 10
2.1786204321
 20
-16.8116472066
 10
2.6029047612
 20
-16.8057037173
 10
3.043919278
 20
-16.7918267923
 10
3.4989749882
 20
-16.7670727475
  0
LINE
  5
42E
100
AcDbEntity
  8
RACCORDO
100
AcDbLine
 62
253
  6
CONTINUOUS
 10
-8.2424566369
 20
-13.2256070112
 11
-8.0846407449
 21
-13.4000170672
  0
LINE
  5
42F
100
AcDbEntity
  8
RACCORDO
100
AcDbLine
 62
253
  6
CONTINUOUS
 10
-8.3064415228
 20
-13.149839294
 11
-8.2424566369
 21
-13.2256070112
  0
LWPOLYLINE
  5
430
100
AcDbEntity
  8
RACCORDO
100
AcDbPolyline
 62
7
  6
CONTINUOUS
 90
3
 70
0
 10
-8.1209285525
 20
-13.3596624158
 10
-8.0674182187
 20
-13.4283423486
 10
-7.9595329677
 20
-13.5541307717
  0
LINE
  5
431
100
AcDbEntity
  8
DRAFT
100
AcDbLine
 62
7
  6
CONTINUOUS
 10
-13.6032541299
 20
23.5986610637
 11
-13.6032541299
 21
24.1587769422
  0
LINE
  5
432
100
AcDbEntity
  8
ASSI
100
AcDbLine
 62
253
  6
CONTINUOUS
 10
-13.3672391237
 20
24.3596044771
 11
-13.3672391237
 21
25.5794179186
  0
LINE
  5
433
100
AcDbEntity
  8
ASSI
100
AcDbLine
 62
7
  6
CONTINUOUS
 10
-13.3099020175
 20
24.4650044991
 11
-13.3099020175
 21
25.6123135774
  0
LINE
  5
434
100
AcDbEntity
  8
DRAFT
100
AcDbLine
 62
7
  6
CONTINUOUS
 10
-13.170241428
 20
23.4736610637
 11
-13.170241428
 21
24.0337769422
  0
LINE
  5
435
100
AcDbEntity
  8
DRAFT
100
AcDbLine
 62
253
  6
CONTINUOUS
 10
-12.7372287261
 20
23.0563929437
 11
-12.7372287261
 21
23.3486610637
  0
LINE
  5
436
100
AcDbEntity
  8
RACCORDO
100
AcDbLine
 62
253
  6
CONTINUOUS
 10
-11.2471926642
 20
18.802818837
 11
-11.2471926642
 21
19.8834021478
  0
LINE
  5
437
100
AcDbEntity
  8
RACCORDO
100
AcDbLine
 62
7
  6
CONTINUOUS
 10
-4.5110860952
 20
19.1420677149
 11
-4.5233944674
 21
19.1150918621
  0
LINE
  5
438
100
AcDbEntity
  8
RACCORDO
100
AcDbLine
 62
253
  6
CONTINUOUS
 10
-4.8989946664
 20
18.4680944714
 11
-4.5270535692
 21
19.1703039607
  0
LINE
  5
439
100
AcDbEntity
  8
RACCORDO
100
AcDbLine
 62
7
  6
CONTINUOUS
 10
-4.89530142
 20
18.4129466958
 11
-4.5233603229
 21
19.115156185
  0
LWPOLYLINE
  5
43A
100
AcDbEntity
  8
RACCORDO
100
AcDbPolyline
 62
7
  6
CONTINUOUS
 90
15
 70
0
 10
-5.5310271963
 20
17.8037462098
 10
-5.5441592727
 20
17.781830604
 10
-5.5592000367
 20
17.7604353602
 10
-5.5761304061
 20
17.7397987614
 10
-5.5949622531
 20
17.7201841694
 10
-5.6155718135
 20
17.7018143957
 10
-5.6377087197
 20
17.6848780824
 10
-5.6612619193
 20
17.6696278027
 10
-5.6860905358
 20
17.6563038962
 10
-5.7118741888
 20
17.6450905207
 10
-5.738409429
 20
17.6362269713
 10
-5.7654842362
 20
17.6299267406
 10
-5.7927331782
 20
17.6263522302
 10
-5.8198371849
 20
17.6256945323
 10
-5.8423659624
 20
17.6275407846
  0
LINE
  5
43B
100
AcDbEntity
  8
RACCORDO
100
AcDbLine
 62
7
  6
CONTINUOUS
 10
-1.7092098343
 20
16.7610717165
 11
-2.4133357427
 21
16.0961140881
  0
LINE
  5
43C
100
AcDbEntity
  8
RACCORDO
100
AcDbLine
 62
7
  6
CONTINUOUS
 10
1.3039740092
 20
16.7218929918
 11
1.5528945918
 21
16.9429242282
  0
LINE
  5
43D
100
AcDbEntity
  8
DRAFT
100
AcDbLine
 62
7
  6
CONTINUOUS
 10
-1.4978095637
 20
17.1885013648
 11
3.3510251398
 21
21.4111007496
  0
LINE
  5
43E
100
AcDbEntity
  8
RACCORDO
100
AcDbLine
 62
7
  6
CONTINUOUS
 10
4.0210003035
 20
20.7284637187
 11
-0.4152778089
 21
16.8760013648
  0
LINE
  5
43F
100
AcDbEntity
  8
RACCORDO
100
AcDbLine
 62
7
  6
CONTINUOUS
 10
3.6167988305
 20
20.4796202692
 11
-0.5283428756
 21
16.9086404382
  0
LINE
  5
440
100
AcDbEntity
  8
ASSI
100
AcDbLine
 62
7
  6
CONTINUOUS
 10
1.5528945918
 20
16.9429242282
 11
5.3421515938
 21
20.1430638374
  0
LINE
  5
441
100
AcDbEntity
  8
DRAFT
100
AcDbLine
 62
7
  6
CONTINUOUS
 10
-1.7813032127
 20
16.7005463521
 11
-1.7092098343
 21
16.7610717165
  0
LWPOLYLINE
  5
442
100
AcDbEntity
  8
ASSI
100
AcDbPolyline
 62
7
  6
CONTINUOUS
 90
7
 70
0
 10
6.0837718881
 20
19.9289764991
 10
6.0895381344
 20
19.9337958225
 10
6.0953019205
 20
19.9383835111
 10
6.1010632462
 20
19.9427395651
 10
6.1068221116
 20
19.9468639843
 10
6.1125785167
 20
19.9507567688
 10
6.1183324614
 20
19.9544179186
  0
LWPOLYLINE
  5
443
100
AcDbEntity
  8
ASSI
100
AcDbPolyline
 62
7
  6
CONTINUOUS
 90
7
 70
0
 10
5.3421515938
 20
20.1430638374
 10
5.3481827427
 20
20.1480328261
 10
5.3542125178
 20
20.1527541552
 10
5.3602409188
 20
20.1572278248
 10
5.3662679459
 20
20.1614538348
 10
5.372293599
 20
20.1654321853
 10
5.3783178781
 20
20.1691628763
  0
LWPOLYLINE
  5
444
100
AcDbEntity
  8
ASSI
100
AcDbPolyline
 62
7
  6
CONTINUOUS
 90
6
 70
0
 10
12.9789971931
 20
18.0242228437
 10
12.9768720352
 20
18.0234782905
 10
12.9717513612
 20
18.0207706152
 10
12.96372669
 20
18.0160826369
 10
12.9528643466
 20
18.0094903544
 10
12.9230146856
 20
17.991172876
  0
LWPOLYLINE
  5
445
100
AcDbEntity
  8
COPY-PUBBLISH
100
AcDbPolyline
 62
7
  6
CONTINUOUS
 90
7
 70
0
 10
-10.0235763151
 20
-10.4906117617
 10
-9.7718282117
 20
-10.9786962831
 10
-9.4691291004
 20
-11.5084291203
 10
-9.1444318799
 20
-12.0214970505
 10
-8.7977938398
 20
-12.5183515275
 10
-8.4329031321
 20
-12.9945564963
 10
-8.3071317559
 20
-13.1490044337
  0
LWPOLYLINE
  5
446
100
AcDbEntity
  8
RACCORDO
100
AcDbPolyline
 62
7
  6
CONTINUOUS
 90
3
 70
0
 10
-10.1279569709
 20
-10.2608130577
 10
-10.1853363022
 20
-10.1483539358
 10
-10.2296938739
 20
-10.0514511618
  0
LINE
  5
447
100
AcDbEntity
  8
RACCORDO
100
AcDbLine
 62
7
  6
CONTINUOUS
 10
-10.0237137434
 20
-10.4903314753
 11
-10.1443973539
 21
-10.2246153036
  0
LWPOLYLINE
  5
448
100
AcDbEntity
  8
ASSI
100
AcDbPolyline
 62
7
  6
CONTINUOUS
 90
14
 70
0
 10
-10.2294200899
 20
-10.0509509476
 10
-10.3165942409
 20
-9.8513794948
 10
-10.5445718353
 20
-9.2823435239
 10
-10.7461824053
 20
-8.7044718829
 10
-10.9214483019
 20
-8.1178594806
 10
-11.07095901
 20
-7.5193809779
 10
-11.1932825112
 20
-6.9129631064
 10
-11.2865255187
 20
-6.3104878982
 10
-11.3508103999
 20
-5.7235865107
 10
-11.3889677264
 20
-5.1436625001
 10
-11.4021371718
 20
-4.552460772
 10
-11.3886532555
 20
-3.9442383717
 10
-11.3468012157
 20
-3.3264079964
 10
-11.3025214606
 20
-2.9105000373
  0
LWPOLYLINE
  5
449
100
AcDbEntity
  8
RACCORDO
100
AcDbPolyline
 62
7
  6
CONTINUOUS
 90
36
 70
0
 10
-10.2296938739
 20
-10.0514511618
 10
-10.2797556994
 20
-9.9343958599
 10
-10.3660371436
 20
-9.7129606846
 10
-10.4445937035
 20
-9.4844111165
 10
-10.5150123104
 20
-9.2483844491
 10
-10.5784858253
 20
-9.004502275
 10
-10.6353064862
 20
-8.7526384927
 10
-10.685182055
 20
-8.4929192038
 10
-10.7284286785
 20
-8.2253443056
 10
-10.7651630946
 20
-7.9497144059
 10
-10.7952685654
 20
-7.6662288969
 10
-10.8187110244
 20
-7.3754858525
 10
-10.8355014597
 20
-7.0772099663
 10
-10.8456288833
 20
-6.7716765448
 10
-10.8490262643
 20
-6.460309581
 10
-10.8456495625
 20
-6.1430711346
 10
-10.8355428181
 20
-5.819999146
 10
-10.8187711207
 20
-5.4926314293
 10
-10.7953443157
 20
-5.1612551674
 10
-10.7652525576
 20
-4.8255831774
 10
-10.7285314003
 20
-4.4862917243
 10
-10.6852993146
 20
-4.1437962854
 10
-10.6354378297
 20
-3.7976813834
 10
-10.5786270872
 20
-3.4473768513
 10
-10.5151535252
 20
-3.0934882797
 10
-10.4447307057
 20
-2.735410078
 10
-10.3661794567
 20
-2.3707553067
 10
-10.279906339
 20
-1.9998711115
 10
-10.1855047918
 20
-1.6224103468
 10
-10.0805759613
 20
-1.2349446366
 10
-9.9647093932
 20
-0.8352492456
 10
-9.8383155418
 20
-0.4255489092
 10
-9.7002269155
 20
-0.0090894575
 10
-9.5500543504
 20
0.4130471663
 10
-9.3881870103
 20
0.8419429054
 10
-9.2146248954
 20
1.2775977598
  0
LWPOLYLINE
  5
44A
100
AcDbEntity
  8
RACCORDO
100
AcDbPolyline
 62
253
  6
CONTINUOUS
 90
3
 70
0
 10
-10.188811513
 20
-10.1126605731
 10
-10.1128754129
 20
-10.2972304346
 10
-10.0240035706
 20
-10.4897402627
  0
LINE
  5
44B
100
AcDbEntity
  8
RACCORDO
100
AcDbLine
 62
7
  6
CONTINUOUS
 10
-10.1443973539
 20
-10.2246153036
 11
-10.2539507639
 21
-9.9429762969
  0
LINE
  5
44C
100
AcDbEntity
  8
RACCORDO
100
AcDbLine
 62
253
  6
CONTINUOUS
 10
-10.2579862729
 20
-9.9253365093
 11
-10.188811513
 21
-10.1126605731
  0
LWPOLYLINE
  5
44D
100
AcDbEntity
  8
RACCORDO
100
AcDbPolyline
 62
253
  6
CONTINUOUS
 90
5
 70
0
 10
-20.8949337008
 20
23.8953039607
 10
-20.8887154963
 20
23.8784434658
 10
-20.8863227441
 20
23.8629334091
 10
-20.8877943591
 20
23.8490384417
 10
-20.8912317378
 20
23.8401726509
  0
LWPOLYLINE
  5
44E
100
AcDbEntity
  8
RACCORDO
100
AcDbPolyline
 62
7
  6
CONTINUOUS
 90
10
 70
0
 10
-10.2539507639
 20
-9.9429762969
 10
-10.3524105346
 20
-9.6460830466
 10
-10.4398577589
 20
-9.3344425354
 10
-10.5162941173
 20
-9.0088095919
 10
-10.5816651452
 20
-8.6703639858
 10
-10.636008307
 20
-8.3201645624
 10
-10.6794595482
 20
-7.9587482276
 10
-10.7121228117
 20
-7.5867039488
 10
-10.7340734667
 20
-7.2048994323
 10
-10.7454055275
 20
-6.8141235162
  0
LWPOLYLINE
  5
44F
100
AcDbEntity
  8
RACCORDO
100
AcDbPolyline
 62
7
  6
CONTINUOUS
 90
13
 70
0
 10
-11.220241428
 20
24.8345508003
 10
-11.2222399285
 20
24.9087978384
 10
-11.2278561948
 20
24.9782417407
 10
-11.237090227
 20
25.0428825071
 10
-11.250064942
 20
25.1031315906
 10
-11.2666574229
 20
25.1585775381
 10
-11.2864989182
 20
25.207985991
 10
-11.3096630116
 20
25.2512228623
 10
-11.3360761196
 20
25.2884222388
 10
-11.3651487402
 20
25.3187520228
 10
-11.3969410359
 20
25.3420568131
 10
-11.4313928444
 20
25.3584920108
 10
-11.443024579
 20
25.3622905943
  0
LWPOLYLINE
  5
450
100
AcDbEntity
  8
RACCORDO
100
AcDbPolyline
 62
253
  6
CONTINUOUS
 90
17
 70
0
 10
-10.7219606588
 20
-6.6630333086
 10
-10.7202945321
 20
-6.9090126492
 10
-10.7143546347
 20
-7.1467664746
 10
-10.704598869
 20
-7.3765412701
 10
-10.6915803641
 20
-7.5980803172
 10
-10.6754885105
 20
-7.8121403831
 10
-10.656076395
 20
-8.0204446294
 10
-10.6334236803
 20
-8.2230496091
 10
-10.6077643571
 20
-8.420234787
 10
-10.5787841776
 20
-8.614065524
 10
-10.5462348951
 20
-8.8047988796
 10
-10.5101241334
 20
-8.992533996
 10
-10.4700188825
 20
-9.1792904052
 10
-10.4251323565
 20
-9.3660182351
 10
-10.3751805149
 20
-9.5522804939
 10
-10.3198977147
 20
-9.7382706505
 10
-10.2579862729
 20
-9.9253365093
  0
LWPOLYLINE
  5
451
100
AcDbEntity
  8
RACCORDO
100
AcDbPolyline
 62
7
  6
CONTINUOUS
 90
20
 70
0
 10
-10.7454055275
 20
-6.8141235162
 10
-10.746217694
 20
-6.4149066495
 10
-10.7366012914
 20
-6.0080877237
 10
-10.7166629404
 20
-5.5945302064
 10
-10.6865024395
 20
-5.1748321618
 10
-10.6462366156
 20
-4.749840347
 10
-10.5960022656
 20
-4.3204513331
 10
-10.5359234313
 20
-3.8873599972
 10
-10.4661547641
 20
-3.4514418045
 10
-10.3868705436
 20
-3.0135957148
 10
-10.298229208
 20
-2.5745667445
 10
-10.2004264198
 20
-2.1352425662
 10
-10.0936764274
 20
-1.6965216109
 10
-9.9781743877
 20
-1.2591713357
 10
-9.8541576439
 20
-0.8240811537
 10
-9.7218792025
 20
-0.3921373583
 10
-9.5815663777
 20
0.0358995622
 10
-9.4334799758
 20
0.4591942038
 10
-9.2779219883
 20
0.8768390813
 10
-9.1151956039
 20
1.2879754661
  0
LINE
  5
452
100
AcDbEntity
  8
RACCORDO
100
AcDbLine
 62
7
  6
CONTINUOUS
 10
-11.220241428
 20
24.8345508003
 11
-11.220241428
 21
24.5561928185
  0
LINE
  5
453
100
AcDbEntity
  8
DRAFT
100
AcDbLine
 62
7
  6
CONTINUOUS
 10
-10.5784161431
 20
27.6437688612
 11
-10.5784161431
 21
27.5917854128
  0
LINE
  5
454
100
AcDbEntity
  8
RACCORDO
100
AcDbLine
 62
253
  6
CONTINUOUS
 10
-10.5656417231
 20
18.9156289385
 11
-10.5656417231
 21
20.1483559109
  0
LINE
  5
455
100
AcDbEntity
  8
RACCORDO
100
AcDbLine
 62
7
  6
CONTINUOUS
 10
-10.3489774744
 20
28.6500196533
 11
-10.3489774744
 21
27.8394915063
  0
LINE
  5
456
100
AcDbEntity
  8
DRAFT
100
AcDbLine
 62
7
  6
CONTINUOUS
 10
-10.31165344
 20
20.3679242282
 11
-10.31165344
 21
19.1554886629
  0
LINE
  5
457
100
AcDbEntity
  8
DRAFT
100
AcDbLine
 62
7
  6
CONTINUOUS
 10
-9.9819298782
 20
21.542296588
 11
-9.9819298782
 21
22.2627954769
  0
LINE
  5
458
100
AcDbEntity
  8
DRAFT
100
AcDbLine
 62
7
  6
CONTINUOUS
 10
-9.4147799254
 20
27.255872571
 11
-9.4147799254
 21
25.873830495
  0
LINE
  5
459
100
AcDbEntity
  8
RACCORDO
100
AcDbLine
 62
7
  6
CONTINUOUS
 10
-8.9308915281
 20
30.4818982753
 11
-8.9308915281
 21
29.0491896535
  0
LINE
  5
45A
100
AcDbEntity
  8
DRAFT
100
AcDbLine
 62
7
  6
CONTINUOUS
 10
-8.8400798786
 20
24.8972593735
 11
-8.8400798786
 21
25.9964698926
  0
LWPOLYLINE
  5
45B
100
AcDbEntity
  8
RACCORDO
100
AcDbPolyline
 62
253
  6
CONTINUOUS
 90
13
 70
0
 10
-7.9996092465
 20
18.6354902803
 10
-7.9985938295
 20
18.6639099828
 10
-7.9955358727
 20
18.6938381155
 10
-7.9904438144
 20
18.7248038099
 10
-7.9833435147
 20
18.7563737123
 10
-7.9743261276
 20
18.7879411911
 10
-7.9635892058
 20
18.8187460531
 10
-7.9513460298
 20
18.8481950245
 10
-7.9377854416
 20
18.8758501758
 10
-7.9231450941
 20
18.9012291365
 10
-7.9076788036
 20
18.9238966521
 10
-7.8916509198
 20
18.9434697681
 10
-7.875336463
 20
18.9596163548
  0
LWPOLYLINE
  5
45C
100
AcDbEntity
  8
RACCORDO
100
AcDbPolyline
 62
7
  6
CONTINUOUS
 90
8
 70
0
 10
-8.1246092465
 20
18.7437434557
 10
-8.1228243429
 20
18.773560772
 10
-8.1174768428
 20
18.8030326563
 10
-8.1086114639
 20
18.8317375594
 10
-8.0961974641
 20
18.8594959128
 10
-8.080427438
 20
18.8856549381
 10
-8.0618883862
 20
18.9093530082
 10
-8.0404979773
 20
18.9307753076
  0
LWPOLYLINE
  5
45D
100
AcDbEntity
  8
RACCORDO
100
AcDbPolyline
 62
253
  6
CONTINUOUS
 90
12
 70
0
 10
-6.0360655847
 20
17.8721879654
 10
-6.0461294291
 20
17.8412693096
 10
-6.0597000509
 20
17.8119538848
 10
-6.076546111
 20
17.7847414327
 10
-6.0963804336
 20
17.7600958452
 10
-6.118864902
 20
17.7384372573
 10
-6.1436162221
 20
17.7201348839
 10
-6.1702124569
 20
17.7055007267
 10
-6.1982002189
 20
17.6947842549
 10
-6.2271023992
 20
17.6881681529
 10
-6.2564263007
 20
17.6857652056
 10
-6.2854136574
 20
17.6875811907
  0
LWPOLYLINE
  5
45E
100
AcDbEntity
  8
RACCORDO
100
AcDbPolyline
 62
253
  6
CONTINUOUS
 90
28
 70
0
 10
-9.0659076126
 20
1.3158518341
 10
-9.2165634184
 20
0.9368175226
 10
-9.3576362314
 20
0.5612694406
 10
-9.4896013885
 20
0.1898296759
 10
-9.6131308808
 20
-0.1770753281
 10
-9.728503706
 20
-0.5389448715
 10
-9.8356496268
 20
-0.8951762123
 10
-9.9357017357
 20
-1.2471000316
 10
-10.0284323223
 20
-1.5930044315
 10
-10.1123237953
 20
-1.9277539191
 10
-10.1882737585
 20
-2.2497599926
 10
-10.2574682376
 20
-2.5606477084
 10
-10.3194156352
 20
-2.8600499398
 10
-10.3747478722
 20
-3.14682314
 10
-10.4247531249
 20
-3.4224227584
 10
-10.4696960054
 20
-3.6902598913
 10
-10.509861158
 20
-3.9503541195
 10
-10.5460286817
 20
-4.2031099106
 10
-10.5786254947
 20
-4.4524257674
 10
-10.6076446206
 20
-4.6991018223
 10
-10.6333369372
 20
-4.9428758548
 10
-10.656016937
 20
-5.1860752326
 10
-10.6754524462
 20
-5.429646509
 10
-10.6915622675
 20
-5.6733817369
 10
-10.7045905705
 20
-5.9180224379
 10
-10.7143500818
 20
-6.1642049071
 10
-10.7202918053
 20
-6.4123595185
 10
-10.7219606588
 20
-6.6630333086
  0
LINE
  5
45F
100
AcDbEntity
  8
RACCORDO
100
AcDbLine
 62
7
  6
CONTINUOUS
 10
-9.2146248954
 20
1.2775977598
 11
-9.1943833753
 21
1.3244367887
  0
LINE
  5
460
100
AcDbEntity
  8
RACCORDO
100
AcDbLine
 62
7
  6
CONTINUOUS
 10
-9.1001981176
 20
1.3212302552
 11
-9.1151954351
 21
1.28797588
  0
LINE
  5
461
100
AcDbEntity
  8
RACCORDO
100
AcDbLine
 62
7
  6
CONTINUOUS
 10
-9.1943833753
 20
1.3244367887
 11
-9.1745818572
 21
1.3674423074
  0
LINE
  5
462
100
AcDbEntity
  8
RACCORDO
100
AcDbLine
 62
7
  6
CONTINUOUS
 10
-1.3988731261
 20
18.2290028392
 11
-1.4056601527
 21
18.2151726509
  0
LWPOLYLINE
  5
463
100
AcDbEntity
  8
RACCORDO
100
AcDbPolyline
 62
7
  6
CONTINUOUS
 90
4
 70
0
 10
-9.1745818572
 20
1.3674423074
 10
-9.1541890107
 20
1.4087413849
 10
-9.1335760723
 20
1.4472903031
 10
-9.1128067056
 20
1.4831263129
  0
LINE
  5
464
100
AcDbEntity
  8
RACCORDO
100
AcDbLine
 62
253
  6
CONTINUOUS
 10
-1.7813032127
 20
17.5680944714
 11
-1.4093621156
 21
18.2703039607
  0
LINE
  5
465
100
AcDbEntity
  8
RACCORDO
100
AcDbLine
 62
7
  6
CONTINUOUS
 10
-1.7776099664
 20
17.5129466958
 11
-1.4056688693
 21
18.215156185
  0
LWPOLYLINE
  5
466
100
AcDbEntity
  8
RACCORDO
100
AcDbPolyline
 62
7
  6
CONTINUOUS
 90
15
 70
0
 10
-2.4133357427
 20
16.9037462098
 10
-2.426467819
 20
16.881830604
 10
-2.4415085831
 20
16.8604353602
 10
-2.4584389525
 20
16.8397987614
 10
-2.4772707995
 20
16.8201841694
 10
-2.4978803599
 20
16.8018143957
 10
-2.5200172661
 20
16.7848780824
 10
-2.5435704657
 20
16.7696278027
 10
-2.5683990822
 20
16.7563038962
 10
-2.5941827352
 20
16.7450905207
 10
-2.6207179754
 20
16.7362269713
 10
-2.6477927825
 20
16.7299267406
 10
-2.6750417246
 20
16.7263522302
 10
-2.7021457313
 20
16.7256945323
 10
-2.7246745088
 20
16.7275407846
  0
LINE
  5
467
100
AcDbEntity
  8
0
100
AcDbLine
 62
7
  6
CONTINUOUS
 10
5.3823174552
 20
17.5406483618
 11
5.8823174552
 21
17.9736610637
  0
LINE
  5
468
100
AcDbEntity
  8
0
100
AcDbLine
 62
7
  6
CONTINUOUS
 10
6.3153301571
 20
17.8486610637
 11
7.3037130603
 21
18.7046257666
  0
LINE
  5
469
100
AcDbEntity
  8
ASSI
100
AcDbLine
 62
7
  6
CONTINUOUS
 10
6.0837718881
 20
19.9289764991
 11
2.8323174552
 21
17.1458985417
  0
LINE
  5
46A
100
AcDbEntity
  8
DRAFT
100
AcDbLine
 62
7
  6
CONTINUOUS
 10
5.8823174552
 20
18.5337769422
 11
6.1183324614
 21
18.7346044771
  0
LINE
  5
46B
100
AcDbEntity
  8
RACCORDO
100
AcDbLine
 62
7
  6
CONTINUOUS
 10
7.7696934249
 20
19.6463092273
 11
6.3153301571
 21
18.4087769422
  0
LINE
  5
46C
100
AcDbEntity
  8
DRAFT
100
AcDbLine
 62
7
  6
CONTINUOUS
 10
6.1386601553
 20
16.1914396178
 11
6.349807217
 21
16.3609471901
  0
LINE
  5
46D
100
AcDbEntity
  8
ASSI
100
AcDbLine
 62
7
  6
CONTINUOUS
 10
12.1805102879
 20
18.2043973849
 11
12.1995735833
 21
18.2137920067
  0
LWPOLYLINE
  5
46E
100
AcDbEntity
  8
RACCORDO
100
AcDbPolyline
 62
7
  6
CONTINUOUS
 90
4
 70
0
 10
8.4079947993
 20
14.3225956788
 10
8.3025659493
 20
14.2814226634
 10
8.2699003724
 20
14.2692809785
 10
8.238378921
 20
14.2584021478
  0
LWPOLYLINE
  5
46F
100
AcDbEntity
  8
RACCORDO
100
AcDbPolyline
 62
253
  6
CONTINUOUS
 90
28
 70
0
 10
6.602937986
 20
-16.1774229828
 10
6.4436772325
 20
-16.0667842851
 10
6.2936088984
 20
-15.9433718328
 10
6.1527373742
 20
-15.8082155655
 10
6.021379064
 20
-15.6620498736
 10
5.8991649946
 20
-15.5059366165
 10
5.7851126179
 20
-15.3412686205
 10
5.6791934367
 20
-15.1677211709
 10
5.581368924
 20
-14.9868423278
 10
5.4911874869
 20
-14.8028444024
 10
5.410042193
 20
-14.6168868124
 10
5.3375431374
 20
-14.4287092973
 10
5.2711832253
 20
-14.2404244555
 10
5.2115691559
 20
-14.0531976768
 10
5.1592381955
 20
-13.8662238186
 10
5.1115326958
 20
-13.6786225365
 10
5.0682081908
 20
-13.4908324729
 10
5.0301158822
 20
-13.3023875829
 10
4.9958113237
 20
-13.1110100134
 10
4.9646747352
 20
-12.9164303354
 10
4.9372920405
 20
-12.718620611
 10
4.9135944332
 20
-12.5155854192
 10
4.8928976967
 20
-12.306769687
 10
4.8753815825
 20
-12.0921553735
 10
4.861992176
 20
-11.87039308
 10
4.8527326258
 20
-11.6406816012
 10
4.8467437199
 20
-11.4028592179
 10
4.8435390422
 20
-11.1564060298
  0
LWPOLYLINE
  5
470
100
AcDbEntity
  8
RACCORDO
100
AcDbPolyline
 62
7
  6
CONTINUOUS
 90
11
 70
0
 10
6.893447615
 20
-16.0163731354
 10
6.9112515686
 20
-16.0298092649
 10
6.9251400113
 20
-16.0440929745
 10
6.9351259184
 20
-16.0590832796
 10
6.9413602759
 20
-16.0743817575
 10
6.943778896
 20
-16.0901363817
 10
6.9419483078
 20
-16.1069479881
 10
6.935539286
 20
-16.1250299635
 10
6.9246472628
 20
-16.1436395345
 10
6.9096074697
 20
-16.1620549286
 10
6.8897873767
 20
-16.1809799038
  0
LWPOLYLINE
  5
471
100
AcDbEntity
  8
RACCORDO
100
AcDbPolyline
 62
253
  6
CONTINUOUS
 90
4
 70
0
 10
-20.9113348546
 20
24.3310214146
 10
-20.9239340753
 20
24.3602115892
 10
-20.939792615
 20
24.3884513607
 10
-20.9586328654
 20
24.4152429349
  0
LWPOLYLINE
  5
472
100
AcDbEntity
  8
RACCORDO
100
AcDbPolyline
 62
7
  6
CONTINUOUS
 90
4
 70
0
 10
-18.2354219251
 20
22.1673481761
 10
-18.225153784
 20
22.1402655166
 10
-18.2122893012
 20
22.1108114534
 10
-18.1963771949
 20
22.0800912899
  0
LINE
  5
473
100
AcDbEntity
  8
RACCORDO
100
AcDbLine
 62
7
  6
CONTINUOUS
 10
-18.2433716634
 20
22.1910254917
 11
-18.2354219251
 21
22.1673481761
  0
LINE
  5
474
100
AcDbEntity
  8
RACCORDO
100
AcDbLine
 62
7
  6
CONTINUOUS
 10
-8.1233428314
 20
18.378638628
 11
-8.1246092397
 21
18.403798664
  0
LWPOLYLINE
  5
475
100
AcDbEntity
  8
RACCORDO
100
AcDbPolyline
 62
253
  6
CONTINUOUS
 90
10
 70
0
 10
-7.9996092465
 20
18.2955163461
 10
-7.9987554936
 20
18.2709945219
 10
-7.9962058918
 20
18.2482863766
 10
-7.9919952611
 20
18.2277021148
 10
-7.9861700575
 20
18.2094946116
 10
-7.978815792
 20
18.1939498129
 10
-7.9700807372
 20
18.1813369216
 10
-7.9601217628
 20
18.1717963525
 10
-7.9490770771
 20
18.1653859165
 10
-7.9439361255
 20
18.1635742192
  0
LWPOLYLINE
  5
476
100
AcDbEntity
  8
RACCORDO
100
AcDbPolyline
 62
253
  6
CONTINUOUS
 90
10
 70
0
 10
-6.3768410553
 20
17.8270635201
 10
-6.3759873023
 20
17.8025416959
 10
-6.3734377005
 20
17.7798335506
 10
-6.3692270699
 20
17.7592492887
 10
-6.3634018662
 20
17.7410417856
 10
-6.3560476007
 20
17.7254969868
 10
-6.3473125459
 20
17.7128840956
 10
-6.3373535715
 20
17.7033435265
 10
-6.3263088858
 20
17.6969330905
 10
-6.321179167
 20
17.6951246344
  0
LINE
  5
477
100
AcDbEntity
  8
RACCORDO
100
AcDbLine
 62
7
  6
CONTINUOUS
 10
-8.1246092465
 20
18.7437434557
 11
-8.1246092465
 21
18.4037695216
  0
LINE
  5
478
100
AcDbEntity
  8
RACCORDO
100
AcDbLine
 62
253
  6
CONTINUOUS
 10
-7.9996092465
 20
18.6354902803
 11
-7.9996092465
 21
18.2955163461
  0
LINE
  5
479
100
AcDbEntity
  8
RACCORDO
100
AcDbLine
 62
7
  6
CONTINUOUS
 10
-7.629647635
 20
17.5250211365
 11
-7.629647635
 21
18.0728469455
  0
LINE
  5
47A
100
AcDbEntity
  8
RACCORDO
100
AcDbLine
 62
253
  6
CONTINUOUS
 10
-7.504647635
 20
17.4110707783
 11
-7.504647635
 21
18.0367625537
  0
LINE
  5
47B
100
AcDbEntity
  8
ASSI
100
AcDbLine
 62
253
  6
CONTINUOUS
 10
-6.5625568996
 20
22.396680598
 11
-6.5625568996
 21
23.6161965099
  0
LINE
  5
47C
100
AcDbEntity
  8
ASSI
100
AcDbLine
 62
7
  6
CONTINUOUS
 10
-6.5064584282
 20
22.5010196644
 11
-6.5064584282
 21
23.6484457367
  0
LINE
  5
47D
100
AcDbEntity
  8
RACCORDO
100
AcDbLine
 62
253
  6
CONTINUOUS
 10
-6.3768410553
 20
17.8270635201
 11
-6.3768410553
 21
18.1670374542
  0
LINE
  5
47E
100
AcDbEntity
  8
RACCORDO
100
AcDbLine
 62
253
  6
CONTINUOUS
 10
-6.0360655847
 20
17.8721879654
 11
-6.0360655847
 21
18.2121618995
  0
LINE
  5
47F
100
AcDbEntity
  8
RACCORDO
100
AcDbLine
 62
253
  6
CONTINUOUS
 10
-5.8718026668
 20
17.6336217646
 11
-5.8718026668
 21
16.9397090373
  0
LWPOLYLINE
  5
480
100
AcDbEntity
  8
RACCORDO
100
AcDbPolyline
 62
253
  6
CONTINUOUS
 90
13
 70
0
 10
-6.3768410553
 20
18.1670374542
 10
-6.3757711099
 20
18.1962310782
 10
-6.3725780985
 20
18.2267890651
 10
-6.3673145145
 20
18.2581890713
 10
-6.3600675367
 20
18.2898969656
 10
-6.3509599764
 20
18.3213651828
 10
-6.340150275
 20
18.3520426419
 10
-6.3277957921
 20
18.3814643156
 10
-6.3141311728
 20
18.4090552186
 10
-6.2994956664
 20
18.434175751
 10
-6.2841935512
 20
18.4564015688
 10
-6.2684618904
 20
18.4754804488
 10
-6.2525682717
 20
18.4911635288
  0
LWPOLYLINE
  5
481
100
AcDbEntity
  8
RACCORDO
100
AcDbPolyline
 62
253
  6
CONTINUOUS
 90
5
 70
0
 10
-4.4942834726
 20
19.2321731151
 10
-4.4962822352
 20
19.2163982439
 10
-4.5024911577
 20
19.2004064799
 10
-4.5128066684
 20
19.1849542388
 10
-4.5270535692
 20
19.1703039607
  0
LWPOLYLINE
  5
482
100
AcDbEntity
  8
RACCORDO
100
AcDbPolyline
 62
253
  6
CONTINUOUS
 90
5
 70
0
 10
-4.4942835429
 20
19.5796109247
 10
-4.4964736365
 20
19.5631948991
 10
-4.5028019543
 20
19.5473523665
 10
-4.5130787529
 20
19.5321536656
 10
-4.5270535692
 20
19.5178354774
  0
LWPOLYLINE
  5
483
100
AcDbEntity
  8
RACCORDO
100
AcDbPolyline
 62
253
  6
CONTINUOUS
 90
12
 70
0
 10
-2.9183741311
 20
16.9721879654
 10
-2.9284379755
 20
16.9412693096
 10
-2.9420085973
 20
16.9119538848
 10
-2.9588546574
 20
16.8847414327
 10
-2.97868898
 20
16.8600958452
 10
-3.0011734483
 20
16.8384372573
 10
-3.0259247685
 20
16.8201348839
 10
-3.0525210033
 20
16.8055007267
 10
-3.0805087653
 20
16.7947842549
 10
-3.1094109456
 20
16.7881681529
 10
-3.1387348471
 20
16.7857652056
 10
-3.1677222038
 20
16.7875811907
  0
LWPOLYLINE
  5
484
100
AcDbEntity
  8
RACCORDO
100
AcDbPolyline
 62
7
  6
CONTINUOUS
 90
4
 70
0
 10
-9.1128067056
 20
1.4831263129
 10
-9.0918309939
 20
1.5165180827
 10
-9.0701961412
 20
1.5477860143
 10
-9.0481211506
 20
1.5760803193
  0
LWPOLYLINE
  5
485
100
AcDbEntity
  8
RACCORDO
100
AcDbPolyline
 62
7
  6
CONTINUOUS
 90
3
 70
0
 10
-9.0481211506
 20
1.5760803193
 10
-9.0266955183
 20
1.6000260123
 10
-9.0059675173
 20
1.6197372589
  0
LWPOLYLINE
  5
486
100
AcDbEntity
  8
RACCORDO
100
AcDbPolyline
 62
7
  6
CONTINUOUS
 90
6
 70
0
 10
-8.9933409762
 20
1.4647353407
 10
-9.0185182118
 20
1.4395018984
 10
-9.0419693745
 20
1.4123701764
 10
-9.063511773
 20
1.3834880819
 10
-9.0829655139
 20
1.3530493382
 10
-9.1001981176
 20
1.3212302552
  0
LWPOLYLINE
  5
487
100
AcDbEntity
  8
RACCORDO
100
AcDbPolyline
 62
7
  6
CONTINUOUS
 90
15
 70
0
 10
-8.9110943001
 20
1.9707096767
 10
-9.1890078843
 20
1.7005786714
 10
-9.4515284777
 20
1.4157425608
 10
-9.6986413539
 20
1.1162138969
 10
-9.9308259356
 20
0.8012696188
 10
-10.1475711675
 20
0.4716598511
 10
-10.3473800164
 20
0.1296041255
 10
-10.5299588077
 20
-0.2245758495
 10
-10.6955769525
 20
-0.5911806521
 10
-10.8435881099
 20
-0.9689292289
 10
-10.9740293295
 20
-1.3580044802
 10
-11.086842219
 20
-1.7582046195
 10
-11.1812429449
 20
-2.1676763195
 10
-11.2571361139
 20
-2.5868717756
 10
-11.3023639915
 20
-2.9105637234
  0
LWPOLYLINE
  5
488
100
AcDbEntity
  8
0
100
AcDbPolyline
 62
253
  6
CONTINUOUS
 90
6
 70
0
 10
8.4189099124
 20
19.2432813847
 10
8.3990948237
 20
19.2244474538
 10
8.3795805499
 20
19.2013594321
 10
8.3607084358
 20
19.1744211766
 10
8.3428085937
 20
19.1441038929
 10
8.3261941286
 20
19.1109378926
  0
LINE
  5
489
100
AcDbEntity
  8
RACCORDO
100
AcDbLine
 62
7
  6
CONTINUOUS
 10
-8.8572501397
 20
1.5917352372
 11
-8.9933409762
 21
1.4647353407
  0
LWPOLYLINE
  5
48A
100
AcDbEntity
  8
RACCORDO
100
AcDbPolyline
 62
253
  6
CONTINUOUS
 90
3
 70
0
 10
-8.9933409762
 20
1.4647353407
 10
-8.9800640592
 20
1.4763653191
 10
-8.9480211711
 20
1.4991582222
  0
LINE
  5
48B
100
AcDbEntity
  8
RACCORDO
100
AcDbLine
 62
253
  6
CONTINUOUS
 10
-8.9260769663
 20
1.5274875966
 11
-9.2146248954
 21
1.2775977598
  0
LWPOLYLINE
  5
48C
100
AcDbEntity
  8
RACCORDO
100
AcDbPolyline
 62
7
  6
CONTINUOUS
 90
34
 70
0
 10
-8.9110943001
 20
1.9707096767
 10
-8.5954969345
 20
2.2438811055
 10
-8.2657612404
 20
2.4969995138
 10
-7.9219091562
 20
2.7300464382
 10
-7.5632197645
 20
2.943348695
 10
-7.1904543701
 20
3.1365456062
 10
-6.8058586748
 20
3.308587193
 10
-6.4093675856
 20
3.4593514545
 10
-6.0010842831
 20
3.588928713
 10
-5.5835083519
 20
3.6965863192
 10
-5.1566079814
 20
3.7821802111
 10
-4.7204477552
 20
3.8458273626
 10
-4.2776718514
 20
3.8871867187
 10
-3.8282613332
 20
3.9061175138
 10
-3.3722602912
 20
3.9027398196
 10
-2.9124061811
 20
3.8771048981
 10
-2.4486926849
 20
3.8290792647
 10
-1.9811419242
 20
3.7587834427
 10
-1.5125318697
 20
3.666651474
 10
-1.0428637286
 20
3.5525589638
 10
-0.5721416761
 20
3.4166258993
 10
-0.1031455391
 20
3.2596550218
 10
0.3641203644
 20
3.0815287952
 10
0.8296657503
 20
2.8823691759
 10
1.2907344374
 20
2.6633402695
 10
1.7473145987
 20
2.4243313662
 10
2.1994338792
 20
2.165466149
 10
2.6443974498
 20
1.8882620801
 10
3.0821811987
 20
1.5926187827
 10
3.5128344038
 20
1.2786573378
 10
3.9337735819
 20
0.9482284539
 10
4.3449622175
 20
0.6012443326
 10
4.7464696083
 20
0.2378198684
 10
5.135870986
 20
-0.1398901523
  0
LINE
  5
48D
100
AcDbEntity
  8
ASSI
100
AcDbLine
 62
7
  6
CONTINUOUS
 10
12.1459497146
 20
18.1789764991
 11
8.8944952817
 21
15.3958985417
  0
LWPOLYLINE
  5
48E
100
AcDbEntity
  8
ASSI
100
AcDbPolyline
 62
7
  6
CONTINUOUS
 90
7
 70
0
 10
12.1459497146
 20
18.1789764991
 10
12.1517159609
 20
18.1837958225
 10
12.157479747
 20
18.1883835111
 10
12.1632410727
 20
18.1927395651
 10
12.1689999381
 20
18.1968639843
 10
12.1747563432
 20
18.2007567688
 10
12.1805102879
 20
18.2044179186
  0
LINE
  5
48F
100
AcDbEntity
  8
DRAFT
100
AcDbLine
 62
7
  6
CONTINUOUS
 10
8.12317103
 20
17.0363030354
 11
7.376252062
 21
16.4147620787
  0
LWPOLYLINE
  5
490
100
AcDbEntity
  8
RACCORDO
100
AcDbPolyline
 62
7
  6
CONTINUOUS
 90
12
 70
0
 10
-9.0059675173
 20
1.6197372589
 10
-8.9876014262
 20
1.6340087751
 10
-8.969647469
 20
1.6448117076
 10
-8.9531988624
 20
1.6516321665
 10
-8.9382961807
 20
1.6547333273
 10
-8.9242913767
 20
1.6547773709
 10
-8.9111984396
 20
1.6518955571
 10
-8.899275138
 20
1.646101449
 10
-8.8881630619
 20
1.6377764977
 10
-8.8779622869
 20
1.6271165905
 10
-8.8687851655
 20
1.6140736751
 10
-8.8602417936
 20
1.5985266451
  0
LWPOLYLINE
  5
491
100
AcDbEntity
  8
RACCORDO
100
AcDbPolyline
 62
7
  6
CONTINUOUS
 90
8
 70
0
 10
12.9658458476
 20
18.1463092273
 10
13.009692535
 20
18.180157177
 10
13.0525434797
 20
18.2068914465
 10
13.0943986817
 20
18.2265120356
 10
13.135556068
 20
18.2390595468
 10
13.1757177115
 20
18.2444933777
 10
13.2139898313
 20
18.2426917214
 10
13.2386994289
 20
18.2372905943
  0
LWPOLYLINE
  5
492
100
AcDbEntity
  8
RACCORDO
100
AcDbPolyline
 62
7
  6
CONTINUOUS
 90
8
 70
0
 10
12.963026295
 20
14.6343871755
 10
12.9858516998
 20
14.6481588678
 10
13.0103126649
 20
14.6595420848
 10
13.0360479148
 20
14.6682760036
 10
13.0627237873
 20
14.6741886836
 10
13.0900785002
 20
14.6771653994
 10
13.1177654063
 20
14.6771080094
 10
13.1452622265
 20
14.6739917831
  0
LWPOLYLINE
  5
493
100
AcDbEntity
  8
RACCORDO
100
AcDbPolyline
 62
7
  6
CONTINUOUS
 90
7
 70
0
 10
14.9382330937
 20
-27.5384418221
 10
14.9197207529
 20
-27.5173259454
 10
14.8988937331
 20
-27.4983679897
 10
14.8759636889
 20
-27.4818069774
 10
14.8512075112
 20
-27.4678923103
 10
14.8250079766
 20
-27.4568660781
 10
14.8105135696
 20
-27.4522065934
  0
LWPOLYLINE
  5
494
100
AcDbEntity
  8
RACCORDO
100
AcDbPolyline
 62
7
  6
CONTINUOUS
 90
4
 70
0
 10
-8.8602417936
 20
1.5985266451
 10
-8.8522400481
 20
1.5803617373
 10
-8.8450167093
 20
1.5595981832
 10
-8.8386555715
 20
1.5362094473
  0
LWPOLYLINE
  5
495
100
AcDbEntity
  8
0
100
AcDbPolyline
 62
253
  6
CONTINUOUS
 90
10
 70
0
 10
-2.6786494059
 20
-18.4816276092
 10
-2.7052714526
 20
-18.3814414155
 10
-2.7342804665
 20
-18.2849493454
 10
-2.7656433757
 20
-18.1922614056
 10
-2.7993244243
 20
-18.1034832661
 10
-2.8352852141
 20
-18.0187161395
 10
-2.8734847475
 20
-17.9380566655
 10
-2.9138794747
 20
-17.8615968008
 10
-2.9564233431
 20
-17.7894237144
 10
-3.0010678503
 20
-17.7216196881
  0
LWPOLYLINE
  5
496
100
AcDbEntity
  8
RACCORDO
100
AcDbPolyline
 62
7
  6
CONTINUOUS
 90
18
 70
0
 10
-3.7621111514
 20
-19.5116139966
 10
-3.7328834037
 20
-19.6609672322
 10
-3.6850247655
 20
-19.8091903246
 10
-3.6192683725
 20
-19.9542919223
 10
-3.5367623869
 20
-20.0936574527
 10
-3.4394641918
 20
-20.2241398802
 10
-3.3291744699
 20
-20.343598384
 10
-3.2076174846
 20
-20.4502426645
 10
-3.0772617737
 20
-20.5419408108
 10
-2.9399405263
 20
-20.617374877
 10
-2.7979844874
 20
-20.6751061226
 10
-2.654847388
 20
-20.7137652564
 10
-2.5129368646
 20
-20.7329290163
 10
-2.3742076888
 20
-20.7324689962
 10
-2.2415202559
 20
-20.7125716309
 10
-2.1172596144
 20
-20.6739647142
 10
-2.0032435145
 20
-20.6176333256
 10
-1.9013547879
 20
-20.5449488893
  0
LINE
  5
497
100
AcDbEntity
  8
0
100
AcDbLine
 62
7
  6
CONTINUOUS
 10
-3.7741469049
 20
-19.4368803358
 11
-3.7633747398
 21
-19.4926543509
  0
LINE
  5
498
100
AcDbEntity
  8
0
100
AcDbLine
 62
7
  6
CONTINUOUS
 10
-3.7845631411
 20
-19.3519611935
 11
-3.7741469049
 21
-19.4368803358
  0
LWPOLYLINE
  5
499
100
AcDbEntity
  8
RACCORDO
100
AcDbPolyline
 62
253
  6
CONTINUOUS
 90
13
 70
0
 10
-6.0360655847
 20
18.2121618995
 10
-6.0380073663
 20
18.2408786941
 10
-6.0436077442
 20
18.2701842611
 10
-6.0527708984
 20
18.2995771957
 10
-6.0653400517
 20
18.3285545983
 10
-6.0811001515
 20
18.3566206788
 10
-6.0997815498
 20
18.3832952396
 10
-6.1210646164
 20
18.408121891
 10
-6.1445852078
 20
18.4306758606
 10
-6.1699408976
 20
18.4505712602
 10
-6.1966978615
 20
18.4674676886
 10
-6.2243983001
 20
18.4810760558
 10
-6.2525682717
 20
18.4911635288
  0
LWPOLYLINE
  5
49A
100
AcDbEntity
  8
RACCORDO
100
AcDbPolyline
 62
7
  6
CONTINUOUS
 90
13
 70
0
 10
-4.8989946664
 20
19.1951393239
 10
-4.9009364381
 20
19.2238561269
 10
-4.9065368073
 20
19.2531617013
 10
-4.915699954
 20
19.2825546424
 10
-4.9282691003
 20
19.311532051
 10
-4.9440291943
 20
19.3395981367
 10
-4.9627105902
 20
19.3662726996
 10
-4.9839936593
 20
19.391099349
 10
-5.0075142566
 20
19.4136533136
 10
-5.0328699534
 20
19.4335487072
 10
-5.0596269248
 20
19.4504451291
 10
-5.087327372
 20
19.4640534888
 10
-5.1154973533
 20
19.4741409532
  0
LINE
  5
49B
100
AcDbEntity
  8
RACCORDO
100
AcDbLine
 62
7
  6
CONTINUOUS
 10
-3.7719818087
 20
-19.3635086765
 11
-3.7621111514
 21
-19.5116139966
  0
LWPOLYLINE
  5
49C
100
AcDbEntity
  8
RACCORDO
100
AcDbPolyline
 62
7
  6
CONTINUOUS
 90
11
 70
0
 10
-4.4942835429
 20
19.5796109247
 10
-4.4964067229
 20
19.6122177179
 10
-4.5026606228
 20
19.643879381
 10
-4.5129750663
 20
19.6745540853
 10
-4.5272191829
 20
19.7037332338
 10
-4.5452270754
 20
19.7309545929
 10
-4.5667704049
 20
19.7557418744
 10
-4.5915085161
 20
19.7775930084
 10
-4.6190149867
 20
19.7960557502
 10
-4.6488185753
 20
19.8107596759
 10
-4.6748593162
 20
19.8198717637
  0
LWPOLYLINE
  5
49D
100
AcDbEntity
  8
RACCORDO
100
AcDbPolyline
 62
253
  6
CONTINUOUS
 90
25
 70
0
 10
-3.6894263028
 20
-19.4444512346
 10
-3.6817331328
 20
-19.564047642
 10
-3.6587851164
 20
-19.686039945
 10
-3.6209746977
 20
-19.8083408383
 10
-3.5689485493
 20
-19.9288578593
 10
-3.5035967301
 20
-20.0455286707
 10
-3.426037647
 20
-20.1563564155
 10
-3.3375984569
 20
-20.2594446676
 10
-3.2397923674
 20
-20.35302958
 10
-3.1342931504
 20
-20.4355096664
 10
-3.0229061389
 20
-20.5054736326
 10
-2.9075371523
 20
-20.5617245244
 10
-2.790160108
 20
-20.603299978
 10
-2.6727827622
 20
-20.6294887534
 10
-2.5574141491
 20
-20.6398425187
 10
-2.4460299365
 20
-20.6341843621
 10
-2.3405395158
 20
-20.6126129644
 10
-2.2427430489
 20
-20.5754982156
 10
-2.1543050766
 20
-20.5234700118
 10
-2.0767337623
 20
-20.4574074095
 10
-2.0113695204
 20
-20.3784426055
 10
-1.9593442862
 20
-20.287945305
 10
-1.9215450829
 20
-20.1874763614
 10
-1.8986083958
 20
-20.078752141
 10
-1.8909203955
 20
-19.9636351695
  0
LWPOLYLINE
  5
49E
100
AcDbEntity
  8
RACCORDO
100
AcDbPolyline
 62
253
  6
CONTINUOUS
 90
19
 70
0
 10
-1.8909203955
 20
-19.9636351695
 10
-1.8986135655
 20
-19.8440387621
 10
-1.9215615819
 20
-19.7220464591
 10
-1.9593720006
 20
-19.5997455659
 10
-2.011398149
 20
-19.4792285448
 10
-2.0767499682
 20
-19.3625577335
 10
-2.1543090513
 20
-19.2517299887
 10
-2.2427482414
 20
-19.1486417366
 10
-2.3405543309
 20
-19.0550568242
 10
-2.4460535479
 20
-18.9725767377
 10
-2.5574405594
 20
-18.9026127715
 10
-2.672809546
 20
-18.8463618797
 10
-2.7901865903
 20
-18.8047864261
 10
-2.9075639361
 20
-18.7785976507
 10
-3.0229325492
 20
-18.7682438854
 10
-3.1343167618
 20
-18.773902042
 10
-3.2398071825
 20
-18.7954734397
 10
-3.3376036494
 20
-18.8325881886
 10
-3.4260416217
 20
-18.8846163924
  0
LWPOLYLINE
  5
49F
100
AcDbEntity
  8
RACCORDO
100
AcDbPolyline
 62
253
  6
CONTINUOUS
 90
13
 70
0
 10
-1.6371201874
 20
-19.9230627691
 10
-1.6461409879
 20
-19.7828255284
 10
-1.673049046
 20
-19.639779543
 10
-1.717383973
 20
-19.4963722863
 10
-1.7783872177
 20
-19.3550574013
 10
-1.8550150298
 20
-19.2182527555
 10
-1.9459563055
 20
-19.0882990674
 10
-2.0496550567
 20
-18.9674197993
 10
-2.1643370222
 20
-18.8576831486
 10
-2.2880399934
 20
-18.7609666854
 10
-2.4186474251
 20
-18.6789251852
 10
-2.5539246794
 20
-18.6129623117
 10
-2.6915572334
 20
-18.5642066331
  0
LWPOLYLINE
  5
4A0
100
AcDbEntity
  8
RACCORDO
100
AcDbPolyline
 62
253
  6
CONTINUOUS
 90
4
 70
0
 10
-4.5270535692
 20
19.5178354774
 10
-4.5288179621
 20
19.5467058951
 10
-4.534268871
 20
19.5761409061
 10
-4.5433130332
 20
19.6056368908
  0
LINE
  5
4A1
100
AcDbEntity
  8
0
100
AcDbLine
 62
7
  6
CONTINUOUS
 10
-3.7887846629
 20
-19.2688659683
 11
-3.7845631411
 21
-19.3519611935
  0
LINE
  5
4A2
100
AcDbEntity
  8
RACCORDO
100
AcDbLine
 62
7
  6
CONTINUOUS
 10
-5.0056513778
 20
17.478638628
 11
-5.0069177861
 21
17.503798664
  0
LWPOLYLINE
  5
4A3
100
AcDbEntity
  8
RACCORDO
100
AcDbPolyline
 62
253
  6
CONTINUOUS
 90
10
 70
0
 10
-4.8819177929
 20
17.3955163461
 10
-4.88106404
 20
17.3709945219
 10
-4.8785144382
 20
17.3482863766
 10
-4.8743038075
 20
17.3277021148
 10
-4.8684786038
 20
17.3094946116
 10
-4.8611243383
 20
17.2939498129
 10
-4.8523892836
 20
17.2813369216
 10
-4.8424303091
 20
17.2717963525
 10
-4.8313856235
 20
17.2653859165
 10
-4.8262446718
 20
17.2635742192
  0
LINE
  5
4A4
100
AcDbEntity
  8
RACCORDO
100
AcDbLine
 62
253
  6
CONTINUOUS
 10
-5.5310271963
 20
17.8037462098
 11
-5.5310271963
 21
16.9961140881
  0
LINE
  5
4A5
100
AcDbEntity
  8
RACCORDO
100
AcDbLine
 62
7
  6
CONTINUOUS
 10
-5.0069177929
 20
17.8437434557
 11
-5.0069177929
 21
17.5037695216
  0
LINE
  5
4A6
100
AcDbEntity
  8
RACCORDO
100
AcDbLine
 62
7
  6
CONTINUOUS
 10
-4.8989946664
 20
18.0519193512
 11
-4.8989946664
 21
19.1951393239
  0
LINE
  5
4A7
100
AcDbEntity
  8
RACCORDO
100
AcDbLine
 62
253
  6
CONTINUOUS
 10
-4.8819177929
 20
17.7354902803
 11
-4.8819177929
 21
17.3955163461
  0
LINE
  5
4A8
100
AcDbEntity
  8
RACCORDO
100
AcDbLine
 62
253
  6
CONTINUOUS
 10
-4.5270535692
 20
19.5178354774
 11
-4.5270535692
 21
19.1703039607
  0
LINE
  5
4A9
100
AcDbEntity
  8
RACCORDO
100
AcDbLine
 62
7
  6
CONTINUOUS
 10
-4.5119561813
 20
16.6250211365
 11
-4.5119561813
 21
17.1728469455
  0
LINE
  5
4AA
100
AcDbEntity
  8
RACCORDO
100
AcDbLine
 62
7
  6
CONTINUOUS
 10
-4.4942834726
 20
19.5797046318
 11
-4.4942834726
 21
19.2321731151
  0
LINE
  5
4AB
100
AcDbEntity
  8
RACCORDO
100
AcDbLine
 62
253
  6
CONTINUOUS
 10
-4.3869561813
 20
16.5110707783
 11
-4.3869561813
 21
17.1367625537
  0
LINE
  5
4AC
100
AcDbEntity
  8
RACCORDO
100
AcDbLine
 62
253
  6
CONTINUOUS
 10
-3.2591496016
 20
16.9270635201
 11
-3.2591496016
 21
17.2670374542
  0
LINE
  5
4AD
100
AcDbEntity
  8
RACCORDO
100
AcDbLine
 62
253
  6
CONTINUOUS
 10
-2.9183741311
 20
16.9721879654
 11
-2.9183741311
 21
17.3121618995
  0
LWPOLYLINE
  5
4AE
100
AcDbEntity
  8
RACCORDO
100
AcDbPolyline
 62
253
  6
CONTINUOUS
 90
13
 70
0
 10
-3.2591496016
 20
17.2670374542
 10
-3.2580881049
 20
17.2961124164
 10
-3.2549216429
 20
17.3265321373
 10
-3.2497039948
 20
17.3577799699
 10
-3.2425237769
 20
17.3893252027
 10
-3.2335029375
 20
17.420632073
 10
-3.2227946862
 20
17.4511688666
 10
-3.2105808914
 20
17.4804169481
 10
-3.1970689915
 20
17.5078795696
 10
-3.1824884718
 20
17.5330903073
 10
-3.1670869673
 20
17.5556209835
 10
-3.1511260563
 20
17.5750889383
 10
-3.1348768181
 20
17.5911635288
  0
LWPOLYLINE
  5
4AF
100
AcDbEntity
  8
RACCORDO
100
AcDbPolyline
 62
253
  6
CONTINUOUS
 90
13
 70
0
 10
-4.8819177929
 20
17.7354902803
 10
-4.8808478476
 20
17.7646839043
 10
-4.8776548362
 20
17.7952418912
 10
-4.8723912522
 20
17.8266418974
 10
-4.8651442743
 20
17.8583497916
 10
-4.8560367141
 20
17.8898180088
 10
-4.8452270127
 20
17.9204954679
 10
-4.8328725297
 20
17.9499171416
 10
-4.8192079105
 20
17.9775080446
 10
-4.804572404
 20
18.002628577
 10
-4.7892702888
 20
18.0248543949
 10
-4.7735386281
 20
18.0439332748
 10
-4.7576450093
 20
18.0596163548
  0
LWPOLYLINE
  5
4B0
100
AcDbEntity
  8
RACCORDO
100
AcDbPolyline
 62
7
  6
CONTINUOUS
 90
4
 70
0
 10
-4.4942834726
 20
19.2321731151
 10
-4.4961720673
 20
19.2015049421
 10
-4.5018023597
 20
19.1713225644
 10
-4.5110860952
 20
19.1420677149
  0
LWPOLYLINE
  5
4B1
100
AcDbEntity
  8
RACCORDO
100
AcDbPolyline
 62
253
  6
CONTINUOUS
 90
5
 70
0
 10
-1.3765920191
 20
18.6797009762
 10
-1.3785372137
 20
18.6641417469
 10
-1.3847301892
 20
18.6480705708
 10
-1.3950655116
 20
18.6325467154
 10
-1.4093621156
 20
18.6178354774
  0
LWPOLYLINE
  5
4B2
100
AcDbEntity
  8
RACCORDO
100
AcDbPolyline
 62
253
  6
CONTINUOUS
 90
5
 70
0
 10
-1.376592019
 20
18.3321744881
 10
-1.3785670289
 20
18.316491882
 10
-1.3847663163
 20
18.300470081
 10
-1.3950893153
 20
18.2849859925
 10
-1.4093621156
 20
18.2703039607
  0
LINE
  5
4B3
100
AcDbEntity
  8
DRAFT
100
AcDbLine
 62
7
  6
CONTINUOUS
 10
9.2445730806
 20
13.5989869592
 11
9.1739181451
 21
13.5304886629
  0
LINE
  5
4B4
100
AcDbEntity
  8
RACCORDO
100
AcDbLine
 62
7
  6
CONTINUOUS
 10
9.1739181451
 20
13.5304886629
 11
8.9199298621
 21
13.2906289385
  0
LINE
  5
4B5
100
AcDbEntity
  8
ASSI
100
AcDbLine
 62
7
  6
CONTINUOUS
 10
9.1739181451
 20
14.7429242282
 11
12.8875700089
 21
17.9648891609
  0
LINE
  5
4B6
100
AcDbEntity
  8
RACCORDO
100
AcDbLine
 62
7
  6
CONTINUOUS
 10
8.9199298621
 20
14.5233559109
 11
9.1739181451
 21
14.7429242282
  0
LINE
  5
4B7
100
AcDbEntity
  8
DRAFT
100
AcDbLine
 62
7
  6
CONTINUOUS
 10
9.2445730806
 20
13.5989869592
 11
12.9230146856
 21
16.771680598
  0
LINE
  5
4B8
100
AcDbEntity
  8
RACCORDO
100
AcDbLine
 62
7
  6
CONTINUOUS
 10
12.9658458476
 20
18.1463092273
 11
12.8620496002
 21
18.0579879598
  0
LWPOLYLINE
  5
4B9
100
AcDbEntity
  8
ASSI
100
AcDbPolyline
 62
7
  6
CONTINUOUS
 90
7
 70
0
 10
12.8875700089
 20
17.9648891609
 10
12.8934808214
 20
17.9698928877
 10
12.8993902874
 20
17.974648947
 10
12.9052984068
 20
17.9791573389
 10
12.9112051796
 20
17.9834180634
 10
12.9171106059
 20
17.9874311204
 10
12.9230146856
 20
17.9911965099
  0
LINE
  5
4BA
100
AcDbEntity
  8
RACCORDO
100
AcDbLine
 62
253
  6
CONTINUOUS
 10
12.9513452505
 20
14.6256920752
 11
12.94210006
 21
14.6185202937
  0
LINE
  5
4BB
100
AcDbEntity
  8
RACCORDO
100
AcDbLine
 62
7
  6
CONTINUOUS
 10
12.94210006
 20
14.6185202937
 11
12.963026295
 21
14.6343871755
  0
LWPOLYLINE
  5
4BC
100
AcDbEntity
  8
RACCORDO
100
AcDbPolyline
 62
253
  6
CONTINUOUS
 90
4
 70
0
 10
-8.9480211711
 20
1.4991582222
 10
-8.9127385475
 20
1.5175706141
 10
-8.8746026027
 20
1.5314008429
 10
-8.8394889708
 20
1.5392737037
  0
LWPOLYLINE
  5
4BD
100
AcDbEntity
  8
RACCORDO
100
AcDbPolyline
 62
253
  6
CONTINUOUS
 90
8
 70
0
 10
-8.8516816663
 20
1.4821635639
 10
-8.888087488
 20
1.464945456
 10
-8.9229364166
 20
1.4452361863
 10
-8.9559858924
 20
1.4233976222
 10
-8.9869834893
 20
1.3993328932
 10
-9.0157090021
 20
1.3732002848
 10
-9.0419899654
 20
1.3454381236
 10
-9.0656722317
 20
1.3163629153
  0
LINE
  5
4BE
100
AcDbEntity
  8
RACCORDO
100
AcDbLine
 62
253
  6
CONTINUOUS
 10
-8.8252485518
 20
1.492354815
 11
-8.8516816663
 21
1.4821635639
  0
LWPOLYLINE
  5
4BF
100
AcDbEntity
  8
RACCORDO
100
AcDbPolyline
 62
253
  6
CONTINUOUS
 90
67
 70
0
 10
6.6033301705
 20
-3.2063840029
 10
6.2190976926
 20
-3.2954465907
 10
5.8285808218
 20
-3.3749505414
 10
5.4324369089
 20
-3.4458220062
 10
5.0295350687
 20
-3.5100677849
 10
4.6223237567
 20
-3.5677150039
 10
4.2168076598
 20
-3.616510829
 10
3.8117306655
 20
-3.6560654572
 10
3.4094799963
 20
-3.6884212489
 10
3.0212339441
 20
-3.7137941474
 10
2.650599427
 20
-3.7306060507
 10
2.294060489
 20
-3.7397895348
 10
1.9517927254
 20
-3.7442305032
 10
1.6248974562
 20
-3.7436379498
 10
1.3118137204
 20
-3.7372558427
 10
1.008824232
 20
-3.7273365368
 10
0.7157268463
 20
-3.7141540994
 10
0.4321907931
 20
-3.696799348
 10
0.1545573181
 20
-3.6762382564
 10
-0.1180456943
 20
-3.6528068536
 10
-0.3852451173
 20
-3.6260646468
 10
-0.6486747443
 20
-3.5962000559
 10
-0.909184667
 20
-3.5633639874
 10
-1.166522367
 20
-3.5275210407
 10
-1.4206704312
 20
-3.4886675552
 10
-1.6721696135
 20
-3.4468386609
 10
-1.9212880587
 20
-3.4020616737
 10
-2.1676889936
 20
-3.3542274695
 10
-2.4122230678
 20
-3.3032426641
 10
-2.6550517347
 20
-3.2492543267
 10
-2.8949196589
 20
-3.1922921334
 10
-3.1327369424
 20
-3.1320348823
 10
-3.3687886637
 20
-3.0687166288
 10
-3.6009661406
 20
-3.0027907063
 10
-3.8298000241
 20
-2.9338122138
 10
-4.0559818178
 20
-2.8618519525
 10
-4.2776162816
 20
-2.7876627069
 10
-4.4947934897
 20
-2.710913788
 10
-4.7084401602
 20
-2.6313478785
 10
-4.917795147
 20
-2.5495080415
 10
-5.122982036
 20
-2.4651881046
 10
-5.3245904966
 20
-2.378054426
 10
-5.522430363
 20
-2.2883358089
 10
-5.716620412
 20
-2.1959071083
 10
-5.907457546
 20
-2.1004817818
 10
-6.0949224678
 20
-2.0020199259
 10
-6.2787297021
 20
-1.9007819262
 10
-6.4592945163
 20
-1.7961929611
 10
-6.6376180563
 20
-1.6870993436
 10
-6.8135830121
 20
-1.574145737
 10
-6.9872199781
 20
-1.4567579814
 10
-7.1597737672
 20
-1.3323219755
 10
-7.3313595751
 20
-1.2017192755
 10
-7.5014791409
 20
-1.0647315263
 10
-7.6704131633
 20
-0.917541581
 10
-7.8391611154
 20
-0.759269267
 10
-8.0056852061
 20
-0.592215959
 10
-8.1655452908
 20
-0.4170544545
 10
-8.3180330355
 20
-0.2314613357
 10
-8.462027241
 20
-0.0382133601
 10
-8.5926746794
 20
0.1558480252
 10
-8.7078144772
 20
0.3514314202
 10
-8.8082898249
 20
0.5494669408
 10
-8.8944449569
 20
0.7446193267
 10
-8.9663796146
 20
0.9358095624
 10
-9.0235901807
 20
1.1259455031
 10
-9.0659076126
 20
1.3158518341
  0
LWPOLYLINE
  5
4C0
100
AcDbEntity
  8
RACCORDO
100
AcDbPolyline
 62
7
  6
CONTINUOUS
 90
49
 70
0
 10
6.4033915351
 20
-2.8637905527
 10
5.8843303734
 20
-2.9650109957
 10
5.3676973271
 20
-3.0526572802
 10
4.8534923963
 20
-3.1267294063
 10
4.3368173408
 20
-3.1866641136
 10
3.8225704008
 20
-3.2330246625
 10
3.3254462963
 20
-3.2675008339
 10
2.8501920476
 20
-3.2894938222
 10
2.3920606343
 20
-3.2996024331
 10
1.9515057161
 20
-3.3013128649
 10
1.5307454911
 20
-3.2950918059
 10
1.1275617611
 20
-3.2804725679
 10
0.7357535909
 20
-3.2595412838
 10
0.3547766518
 20
-3.2327615402
 10
-0.0148247274
 20
-3.1996697506
 10
-0.3776184962
 20
-3.1609612885
 10
-0.7343671091
 20
-3.1168495598
 10
-1.0843081116
 20
-3.0671211586
 10
-1.4297220888
 20
-3.0118312411
 10
-1.771377343
 20
-2.9509881283
 10
-2.1085055719
 20
-2.8845834991
 10
-2.4410824535
 20
-2.8126475461
 10
-2.7695818864
 20
-2.7350780965
 10
-3.0935299719
 20
-2.6519773232
 10
-3.4114806925
 20
-2.5636819368
 10
-3.7233897776
 20
-2.4701506529
 10
-4.0293014977
 20
-2.371424756
 10
-4.3279026473
 20
-2.2679648102
 10
-4.6187757351
 20
-2.1599259877
 10
-4.9023382523
 20
-2.0471531163
 10
-5.1785294667
 20
-1.9296412426
 10
-5.4469798867
 20
-1.8077273677
 10
-5.7080590038
 20
-1.6810744905
 10
-5.9628145606
 20
-1.5486666543
 10
-6.2112307958
 20
-1.4109445489
 10
-6.4533234705
 20
-1.2674674844
 10
-6.6901876108
 20
-1.1158974351
 10
-6.9223572989
 20
-0.9567039749
 10
-7.1492984526
 20
-0.7894175299
 10
-7.3705038505
 20
-0.6102913527
 10
-7.5879139159
 20
-0.4185711094
 10
-7.7995882257
 20
-0.2150111339
 10
-7.9991982888
 20
0.0018723198
 10
-8.1880493099
 20
0.2344154683
 10
-8.3648360844
 20
0.480282095
 10
-8.5193145082
 20
0.7339472966
 10
-8.64806988
 20
0.9935694386
 10
-8.7545169011
 20
1.2609901555
 10
-8.8386555715
 20
1.5362094473
  0
LWPOLYLINE
  5
4C1
100
AcDbEntity
  8
RACCORDO
100
AcDbPolyline
 62
7
  6
CONTINUOUS
 90
25
 70
0
 10
6.4033915351
 20
-2.8637905527
 10
6.4484033354
 20
-2.8552319066
 10
6.4918860685
 20
-2.8491059347
 10
6.5337559404
 20
-2.8453377227
 10
6.5736814918
 20
-2.8437824657
 10
6.6118495248
 20
-2.8444069191
 10
6.6489339802
 20
-2.8473970821
 10
6.6851341027
 20
-2.8527299862
 10
6.7200382197
 20
-2.8604537894
 10
6.7533539867
 20
-2.8709690145
 10
6.7849129557
 20
-2.8841661863
 10
6.814611817
 20
-2.9001427037
 10
6.8421799027
 20
-2.9196696871
 10
6.8676438756
 20
-2.9430062965
 10
6.8904850886
 20
-2.969913672
 10
6.9096074697
 20
-3.0003883977
 10
6.9246472628
 20
-3.0348607523
 10
6.935539286
 20
-3.0726718145
 10
6.9419483078
 20
-3.1120353153
 10
6.943778896
 20
-3.1520106968
 10
6.9413602759
 20
-3.1931441108
 10
6.9351259184
 20
-3.2358437678
 10
6.9251400113
 20
-3.2801470699
 10
6.9112515686
 20
-3.3257160527
 10
6.893447615
 20
-3.3724022402
  0
LWPOLYLINE
  5
4C2
100
AcDbEntity
  8
RACCORDO
100
AcDbPolyline
 62
253
  6
CONTINUOUS
 90
49
 70
0
 10
5.0461143755
 20
-3.0989818709
 10
4.9168466943
 20
-3.1197509732
 10
4.5243531407
 20
-3.1747116391
 10
4.134004475
 20
-3.2218188904
 10
3.7443276691
 20
-3.2606652509
 10
3.356795751
 20
-3.2916581969
 10
2.9827512926
 20
-3.315499231
 10
2.6259609194
 20
-3.3317264178
 10
2.2826580058
 20
-3.3408016928
 10
1.9528852473
 20
-3.3448123642
 10
1.6380028164
 20
-3.3439860214
 10
1.3366505406
 20
-3.3380950752
 10
1.0447905978
 20
-3.3285440657
 10
0.7624203671
 20
-3.3156133347
 10
0.4895424695
 20
-3.2990225404
 10
0.2221269449
 20
-3.2793351984
 10
-0.0404631712
 20
-3.2566875547
 10
-0.2975909141
 20
-3.2309433633
 10
-0.5513753505
 20
-3.2022574007
 10
-0.8022993734
 20
-3.1706603361
 10
-1.0498800897
 20
-3.1361215003
 10
-1.2947878859
 20
-3.0987036624
 10
-1.537061143
 20
-3.0584486904
 10
-1.77666148
 20
-3.0153147162
 10
-2.0141441404
 20
-2.9692389048
 10
-2.2497440709
 20
-2.920202801
 10
-2.4832263249
 20
-2.8682248601
 10
-2.714441306
 20
-2.8132976121
 10
-2.9436318655
 20
-2.7553494216
 10
-3.1705551522
 20
-2.6944519241
 10
-3.3943330157
 20
-2.6308125566
 10
-3.6149248643
 20
-2.5644078124
 10
-3.8323712897
 20
-2.4952611983
 10
-4.0459159175
 20
-2.4236506711
 10
-4.2552735573
 20
-2.3496685807
 10
-4.4607293994
 20
-2.2732225772
 10
-4.6623826403
 20
-2.1943135682
 10
-4.8601451278
 20
-2.1130176857
 10
-5.0541050141
 20
-2.0292587976
 10
-5.2446259523
 20
-1.942809415
 10
-5.4317452327
 20
-1.8537173299
 10
-5.615425565
 20
-1.7619347504
 10
-5.7959187313
 20
-1.6670908121
 10
-5.9729784116
 20
-1.5694634222
 10
-6.1468509259
 20
-1.4687746737
 10
-6.3185270156
 20
-1.3638199812
 10
-6.4880156067
 20
-1.254916201
 10
-6.6553077732
 20
-1.141746477
 10
-6.7113445763
 20
-1.1013905864
  0
LWPOLYLINE
  5
4C3
100
AcDbEntity
  8
RACCORDO
100
AcDbPolyline
 62
7
  6
CONTINUOUS
 90
9
 70
0
 10
-18.1963771949
 20
22.0800912899
 10
-18.1776688026
 20
22.0487562736
 10
-18.1569889479
 20
22.016852286
 10
-18.1343859301
 20
21.9847210084
 10
-18.1097769489
 20
21.9528829418
 10
-18.0836897964
 20
21.9214256154
 10
-18.0562845283
 20
21.8905673728
 10
-18.0274186203
 20
21.8606630782
 10
-17.9971377692
 20
21.8319434595
  0
LWPOLYLINE
  5
4C4
100
AcDbEntity
  8
RACCORDO
100
AcDbPolyline
 62
253
  6
CONTINUOUS
 90
13
 70
0
 10
-2.9183741311
 20
17.3121618995
 10
-2.9203312081
 20
17.3409961377
 10
-2.925978622
 20
17.3704315877
 10
-2.9352224815
 20
17.3999605531
 10
-2.9479080991
 20
17.4290759059
 10
-2.9638186832
 20
17.4572706054
 10
-2.9826756917
 20
17.4840476667
 10
-3.004202172
 20
17.508995431
 10
-3.02798649
 20
17.5316206899
 10
-3.0534360285
 20
17.5514048877
 10
-3.0800194232
 20
17.5680325114
 10
-3.1073220612
 20
17.5813360836
 10
-3.1348768181
 20
17.5911635288
  0
LWPOLYLINE
  5
4C5
100
AcDbEntity
  8
RACCORDO
100
AcDbPolyline
 62
7
  6
CONTINUOUS
 90
13
 70
0
 10
-1.7813032127
 20
18.2951393239
 10
-1.7832449845
 20
18.3238561269
 10
-1.7888453536
 20
18.3531617013
 10
-1.7980085004
 20
18.3825546424
 10
-1.8105776466
 20
18.411532051
 10
-1.8263377407
 20
18.4395981367
 10
-1.8450191366
 20
18.4662726996
 10
-1.8663022057
 20
18.491099349
 10
-1.889822803
 20
18.5136533136
 10
-1.9151784998
 20
18.5335487072
 10
-1.9419354711
 20
18.5504451291
 10
-1.9696359184
 20
18.5640534888
 10
-1.9978058997
 20
18.5741409532
  0
LWPOLYLINE
  5
4C6
100
AcDbEntity
  8
RACCORDO
100
AcDbPolyline
 62
253
  6
CONTINUOUS
 90
4
 70
0
 10
-1.4093621156
 20
18.6178354774
 10
-1.4111411425
 20
18.6468239115
 10
-1.4166386187
 20
18.6763892114
 10
-1.4257632695
 20
18.7060214146
  0
LWPOLYLINE
  5
4C7
100
AcDbEntity
  8
0
100
AcDbPolyline
 62
7
  6
CONTINUOUS
 90
22
 70
0
 10
-1.5371186309
 20
-19.9188659837
 10
-1.5413335496
 20
-19.8358798907
 10
-1.5517364481
 20
-19.7510611976
 10
-1.568385512
 20
-19.6648641389
 10
-1.591381994
 20
-19.5775274994
 10
-1.6206648169
 20
-19.4897857287
 10
-1.6558404717
 20
-19.4028561921
 10
-1.6966068154
 20
-19.3173492129
 10
-1.7427427273
 20
-19.2336275286
 10
-1.7937123296
 20
-19.1524840507
 10
-1.8487618891
 20
-19.074831379
 10
-1.9078117634
 20
-19.0005056932
 10
-1.9714453945
 20
-18.928755787
 10
-2.0399028932
 20
-18.8595966925
 10
-2.1124705869
 20
-18.7940381185
 10
-2.1883837042
 20
-18.7328866223
 10
-2.2674334425
 20
-18.6764022996
 10
-2.3489998097
 20
-18.6251127726
 10
-2.4315264113
 20
-18.5799015964
 10
-2.5141211751
 20
-18.5410041539
 10
-2.5966515804
 20
-18.5082492117
 10
-2.6786494059
 20
-18.4816276092
  0
LWPOLYLINE
  5
4C8
100
AcDbEntity
  8
RACCORDO
100
AcDbPolyline
 62
253
  6
CONTINUOUS
 90
10
 70
0
 10
-3.2591496016
 20
16.9270635201
 10
-3.2582958487
 20
16.9025416959
 10
-3.2557462469
 20
16.8798335506
 10
-3.2515356162
 20
16.8592492887
 10
-3.2457104126
 20
16.8410417856
 10
-3.2383561471
 20
16.8254969868
 10
-3.2296210923
 20
16.8128840956
 10
-3.2196621179
 20
16.8033435265
 10
-3.2086174322
 20
16.7969330905
 10
-3.2034877134
 20
16.7951246344
  0
LINE
  5
4C9
100
AcDbEntity
  8
RACCORDO
100
AcDbLine
 62
253
  6
CONTINUOUS
 10
-2.7541112132
 20
16.7336217646
 11
-2.7541112132
 21
16.0397090373
  0
LINE
  5
4CA
100
AcDbEntity
  8
RACCORDO
100
AcDbLine
 62
253
  6
CONTINUOUS
 10
-2.4133357427
 20
16.9037462098
 11
-2.4133357427
 21
16.0961140881
  0
LINE
  5
4CB
100
AcDbEntity
  8
RACCORDO
100
AcDbLine
 62
7
  6
CONTINUOUS
 10
-1.804141329
 20
22.2437330391
 11
-1.804141329
 21
22.1413995895
  0
LINE
  5
4CC
100
AcDbEntity
  8
RACCORDO
100
AcDbLine
 62
7
  6
CONTINUOUS
 10
-1.7813032127
 20
16.7005463521
 11
-1.7813032127
 21
18.2951393239
  0
LINE
  5
4CD
100
AcDbEntity
  8
RACCORDO
100
AcDbLine
 62
253
  6
CONTINUOUS
 10
-1.4093621156
 20
18.6178354774
 11
-1.4093621156
 21
18.2703039607
  0
LINE
  5
4CE
100
AcDbEntity
  8
RACCORDO
100
AcDbLine
 62
7
  6
CONTINUOUS
 10
-1.376592019
 20
18.6797046318
 11
-1.376592019
 21
18.3321731151
  0
LINE
  5
4CF
100
AcDbEntity
  8
DRAFT
100
AcDbLine
 62
7
  6
CONTINUOUS
 10
-1.0583213403
 20
21.8406188289
 11
-1.0583213403
 21
19.310567001
  0
LWPOLYLINE
  5
4D0
100
AcDbEntity
  8
RACCORDO
100
AcDbPolyline
 62
7
  6
CONTINUOUS
 90
5
 70
0
 10
-1.3765920256
 20
18.3322018328
 10
-1.3773082242
 20
18.3132630748
 10
-1.3811855297
 20
18.2844692924
 10
-1.3883979765
 20
18.2562547527
 10
-1.3988731261
 20
18.2290028392
  0
LINE
  5
4D1
100
AcDbEntity
  8
DRAFT
100
AcDbLine
 62
7
  6
CONTINUOUS
 10
7.376252062
 20
16.4147620787
 11
7.0537181751
 21
15.9272851207
  0
LINE
  5
4D2
100
AcDbEntity
  8
RACCORDO
100
AcDbLine
 62
7
  6
CONTINUOUS
 10
12.5593520741
 20
14.2952088368
 11
11.4449685223
 21
13.3056820899
  0
LINE
  5
4D3
100
AcDbEntity
  8
RACCORDO
100
AcDbLine
 62
253
  6
CONTINUOUS
 10
12.7246186367
 20
14.3241430686
 11
11.6102351222
 21
13.3346163548
  0
LINE
  5
4D4
100
AcDbEntity
  8
RACCORDO
100
AcDbLine
 62
253
  6
CONTINUOUS
 10
11.4450736078
 20
13.3057753076
 11
11.444951321
 21
13.3056668133
  0
LINE
  5
4D5
100
AcDbEntity
  8
RACCORDO
100
AcDbLine
 62
7
  6
CONTINUOUS
 10
12.5619886065
 20
14.2974920674
 11
12.5593520762
 21
14.2952088387
  0
LINE
  5
4D6
100
AcDbEntity
  8
RACCORDO
100
AcDbLine
 62
253
  6
CONTINUOUS
 10
14.7420153289
 20
14.1718371067
 11
13.2330033135
 21
12.8661635288
  0
LINE
  5
4D7
100
AcDbEntity
  8
RACCORDO
100
AcDbLine
 62
253
  6
CONTINUOUS
 10
14.9585180159
 20
13.8928354774
 11
13.4495060004
 21
12.5871618995
  0
LINE
  5
4D8
100
AcDbEntity
  8
RACCORDO
100
AcDbLine
 62
7
  6
CONTINUOUS
 10
12.94210006
 20
14.6185202937
 11
12.5620033946
 21
14.2975174181
  0
LINE
  5
4D9
100
AcDbEntity
  8
RACCORDO
100
AcDbLine
 62
253
  6
CONTINUOUS
 10
13.1041319724
 20
14.6446533051
 11
12.7246186367
 21
14.3241430686
  0
LINE
  5
4DA
100
AcDbEntity
  8
RACCORDO
100
AcDbLine
 62
7
  6
CONTINUOUS
 10
16.7145389689
 20
17.064154736
 11
13.6690905451
 21
14.5244296588
  0
LINE
  5
4DB
100
AcDbEntity
  8
DRAFT
100
AcDbLine
 62
7
  6
CONTINUOUS
 10
19.6560210772
 20
18.8638551788
 11
17.6765460893
 21
17.2425688032
  0
LINE
  5
4DC
100
AcDbEntity
  8
RACCORDO
100
AcDbLine
 62
7
  6
CONTINUOUS
 10
24.1768846089
 20
21.2188860035
 11
20.9196572949
 21
18.551058272
  0
LINE
  5
4DD
100
AcDbEntity
  8
DRAFT
100
AcDbLine
 62
7
  6
CONTINUOUS
 10
21.5751032478
 20
18.3098638749
 11
22.5902186262
 21
19.1412927855
  0
LWPOLYLINE
  5
4DE
100
AcDbEntity
  8
RACCORDO
100
AcDbPolyline
 62
253
  6
CONTINUOUS
 90
8
 70
0
 10
26.5243260321
 20
20.5454779603
 10
26.5673818782
 20
20.5782405088
 10
26.6100523352
 20
20.6042585448
 10
26.6520198272
 20
20.6233384284
 10
26.6929720102
 20
20.6353381571
 10
26.7326040966
 20
20.6401684226
 10
26.7706211238
 20
20.6377932757
 10
26.792949927
 20
20.6327962655
  0
LINE
  5
4DF
100
AcDbEntity
  8
RACCORDO
100
AcDbLine
 62
253
  6
CONTINUOUS
 10
6.4902338806
 20
-2.8493386996
 11
6.5211566972
 21
-2.8635240442
  0
LINE
  5
4E0
100
AcDbEntity
  8
RACCORDO
100
AcDbLine
 62
253
  6
CONTINUOUS
 10
-20.9586328654
 20
24.4152429349
 11
-20.9801782446
 21
24.4401743322
  0
LWPOLYLINE
  5
4E1
100
AcDbEntity
  8
RACCORDO
100
AcDbPolyline
 62
253
  6
CONTINUOUS
 90
6
 70
0
 10
14.9389373027
 20
-27.5657775781
 10
14.9229800978
 20
-27.538792649
 10
14.9039152641
 20
-27.5144356662
 10
14.8820697805
 20
-27.4931239366
 10
14.8578178948
 20
-27.475221755
 10
14.8315743497
 20
-27.4610345462
  0
LWPOLYLINE
  5
4E2
100
AcDbEntity
  8
RACCORDO
100
AcDbPolyline
 62
253
  6
CONTINUOUS
 90
13
 70
0
 10
13.4495060004
 20
-29.052416174
 10
13.4395256887
 20
-29.0346070699
 10
13.4260532515
 20
-29.0159948253
 10
13.4092940818
 20
-28.9968896573
 10
13.3894964969
 20
-28.9775995848
 10
13.3669907806
 20
-28.9584676503
 10
13.3422025538
 20
-28.939863689
 10
13.3155760228
 20
-28.9221186674
 10
13.2875496885
 20
-28.9055225718
 10
13.2586040175
 20
-28.8903597848
 10
13.2292345068
 20
-28.8768895965
 10
13.1999430678
 20
-28.8653419412
 10
13.1712305299
 20
-28.8559140315
  0
LWPOLYLINE
  5
4E3
100
AcDbEntity
  8
0
100
AcDbPolyline
 62
253
  6
CONTINUOUS
 90
6
 70
0
 10
3.4102227644
 20
-20.3469090816
 10
3.4153632131
 20
-20.3651373296
 10
3.4222902863
 20
-20.3803445352
 10
3.4308669012
 20
-20.3922297662
 10
3.440923332
 20
-20.4005578282
 10
3.4501322617
 20
-20.404613757
  0
LWPOLYLINE
  5
4E4
100
AcDbEntity
  8
0
100
AcDbPolyline
 62
253
  6
CONTINUOUS
 90
7
 70
0
 10
3.4102227644
 20
-20.3469090816
 10
3.3684905144
 20
-20.1734873214
 10
3.3199462517
 20
-20.010413929
 10
3.2647470486
 20
-19.8582165523
 10
3.2030715099
 20
-19.7173876481
 10
3.1351191959
 20
-19.5883828887
 10
3.0611099762
 20
-19.4716196881
  0
LWPOLYLINE
  5
4E5
100
AcDbEntity
  8
0
100
AcDbPolyline
 62
7
  6
CONTINUOUS
 90
26
 70
0
 10
2.6789508251
 20
-20.9676427307
 10
2.6831643913
 20
-21.0523845352
 10
2.6948577626
 20
-21.1370893045
 10
2.714030939
 20
-21.2217570386
 10
2.7409911688
 20
-21.3071492126
 10
2.7754312036
 20
-21.3925043513
 10
2.8164292984
 20
-21.4755380297
 10
2.8641625515
 20
-21.5561875575
 10
2.9184538645
 20
-21.6345156248
 10
2.9778501974
 20
-21.7084258775
 10
3.0424894094
 20
-21.7777990139
 10
3.1122336413
 20
-21.8427543356
 10
3.1852162745
 20
-21.9015533935
 10
3.2615247611
 20
-21.9540299396
 10
3.3410716489
 20
-22.0003502219
 10
3.4217279636
 20
-22.039274535
 10
3.5035236649
 20
-22.0706031532
 10
3.5864287929
 20
-22.0945358022
 10
3.6682244942
 20
-22.1104319542
 10
3.7488808089
 20
-22.118074586
 10
3.8284276967
 20
-22.1176807209
 10
3.9047361833
 20
-22.1092609
 10
3.9777188165
 20
-22.0925983851
 10
4.0474630484
 20
-22.0679099144
 10
4.1121022604
 20
-22.0358562445
 10
4.1714985933
 20
-21.9962384805
  0
LINE
  5
4E6
100
AcDbEntity
  8
RACCORDO
100
AcDbLine
 62
7
  6
CONTINUOUS
 10
1.238433816
 20
16.5660254917
 11
1.238433816
 21
15.3542608634
  0
LINE
  5
4E7
100
AcDbEntity
  8
RACCORDO
100
AcDbLine
 62
253
  6
CONTINUOUS
 10
1.488433816
 20
16.2069434595
 11
1.488433816
 21
15.1263601487
  0
LWPOLYLINE
  5
4E8
100
AcDbEntity
  8
0
100
AcDbPolyline
 62
253
  6
CONTINUOUS
 90
10
 70
0
 10
-2.6490703129
 20
-20.7145453993
 10
-2.6703383035
 20
-20.8481575407
 10
-2.6951791963
 20
-20.9903825125
 10
-2.7222981052
 20
-21.1331003951
 10
-2.7516657058
 20
-21.2761568641
 10
-2.7832502422
 20
-21.4193972288
 10
-2.8170175612
 20
-21.5626665999
 10
-2.8529311494
 20
-21.7058100566
 10
-2.8909521725
 20
-21.8486728143
 10
-2.9310395174
 20
-21.9911003917
  0
LWPOLYLINE
  5
4E9
100
AcDbEntity
  8
0
100
AcDbPolyline
 62
253
  6
CONTINUOUS
 90
3
 70
0
 10
8.3261941286
 20
19.1109378926
 10
8.3111556618
 20
19.0755033176
 10
8.297956247
 20
19.0384199913
  0
LWPOLYLINE
  5
4EA
100
AcDbEntity
  8
RACCORDO
100
AcDbPolyline
 62
253
  6
CONTINUOUS
 90
22
 70
0
 10
10.6276566286
 20
8.3426730063
 10
10.5740264005
 20
8.2894705845
 10
10.5208748037
 20
8.230280523
 10
10.4684595171
 20
8.1653988076
 10
10.4170330447
 20
8.0951556116
 10
10.3668458224
 20
8.0198957364
 10
10.3181458696
 20
7.939973682
 10
10.2711621117
 20
7.855769302
 10
10.2261313846
 20
7.7677132674
 10
10.1833000047
 20
7.6762688888
 10
10.1428849184
 20
7.5819161931
 10
10.1050683617
 20
7.4851018642
 10
10.0700281765
 20
7.3862607421
 10
10.0379293306
 20
7.2858567875
 10
10.008937223
 20
7.1844106725
 10
9.9832098932
 20
7.082452075
 10
9.9608752554
 20
6.9805007233
 10
9.9420357766
 20
6.8790470382
 10
9.926785437
 20
6.7785772977
 10
9.9152001114
 20
6.6795838647
 10
9.9073355485
 20
6.5825623629
 10
9.9032304836
 20
6.4879933729
  0
LWPOLYLINE
  5
4EB
100
AcDbEntity
  8
RACCORDO
100
AcDbPolyline
 62
253
  6
CONTINUOUS
 90
22
 70
0
 10
11.069324268
 20
7.7928252814
 10
11.0330997738
 20
7.7573072382
 10
10.9974853969
 20
7.7181585631
 10
10.9624811371
 20
7.675379256
 10
10.9279052384
 20
7.6287110148
 10
10.8939394569
 20
7.5784121415
 10
10.861129061
 20
7.5252575431
 10
10.8295009282
 20
7.4692062393
 10
10.7990281809
 20
7.4102992102
 10
10.7701754553
 20
7.3494343035
 10
10.7429749428
 20
7.2865984903
 10
10.7173944519
 20
7.2218047994
 10
10.6938020443
 20
7.1559901644
 10
10.6722230128
 20
7.0891272214
 10
10.6526320645
 20
7.0212433343
 10
10.6353213824
 20
6.9533575277
 10
10.6203263093
 20
6.885449884
 10
10.6076115024
 20
6.8175403208
 10
10.5973631162
 20
6.7507076155
 10
10.5896432024
 20
6.6853113603
 10
10.5843897093
 20
6.6209919629
 10
10.581602637
 20
6.5577494234
  0
LINE
  5
4EC
100
AcDbEntity
  8
RACCORDO
100
AcDbLine
 62
7
  6
CONTINUOUS
 10
17.6187401097
 20
16.4376079858
 11
14.9893814248
 21
13.9838918533
  0
LINE
  5
4ED
100
AcDbEntity
  8
RACCORDO
100
AcDbLine
 62
253
  6
CONTINUOUS
 10
10.6276566286
 20
8.3426730063
 11
13.8632249885
 21
11.3202011304
  0
LINE
  5
4EE
100
AcDbEntity
  8
RACCORDO
100
AcDbLine
 62
253
  6
CONTINUOUS
 10
15.0791313213
 20
11.4828456876
 11
11.069324268
 21
7.7928252814
  0
LINE
  5
4EF
100
AcDbEntity
  8
RACCORDO
100
AcDbLine
 62
7
  6
CONTINUOUS
 10
17.6187401097
 20
15.9327203396
 11
14.9660532543
 21
13.4985870626
  0
LINE
  5
4F0
100
AcDbEntity
  8
RACCORDO
100
AcDbLine
 62
7
  6
CONTINUOUS
 10
17.0365915204
 20
15.2078985277
 11
14.8379892782
 21
13.2556301898
  0
LWPOLYLINE
  5
4F1
100
AcDbEntity
  8
RACCORDO
100
AcDbPolyline
 62
7
  6
CONTINUOUS
 90
10
 70
0
 10
13.9545443889
 20
11.3702453859
 10
13.9468910576
 20
11.3634877847
 10
13.9385410068
 20
11.3569955283
 10
13.9295217275
 20
11.350788458
 10
13.9198611906
 20
11.3448976823
 10
13.9095928942
 20
11.3393293683
 10
13.898756815
 20
11.3340641482
 10
13.8873918295
 20
11.3291054484
 10
13.8755345328
 20
11.3244799705
 10
13.8632249885
 20
11.3202011304
  0
LINE
  5
4F2
100
AcDbEntity
  8
RACCORDO
100
AcDbLine
 62
253
  6
CONTINUOUS
 10
19.9053936783
 20
14.196059767
 11
15.5195896207
 21
10.3830205024
  0
LINE
  5
4F3
100
AcDbEntity
  8
RACCORDO
100
AcDbLine
 62
253
  6
CONTINUOUS
 10
23.949040236
 20
18.3285914818
 11
26.5241808398
 21
20.5455198737
  0
LINE
  5
4F4
100
AcDbEntity
  8
RACCORDO
100
AcDbLine
 62
253
  6
CONTINUOUS
 10
19.5958797444
 20
14.5949226774
 11
23.949040236
 21
18.3285914818
  0
LINE
  5
4F5
100
AcDbEntity
  8
DRAFT
100
AcDbLine
 62
7
  6
CONTINUOUS
 10
19.2878406096
 20
14.9918850508
 11
15.5195896207
 21
11.7886736254
  0
LINE
  5
4F6
100
AcDbEntity
  8
RACCORDO
100
AcDbLine
 62
7
  6
CONTINUOUS
 10
14.5865769188
 20
11.9752778565
 11
14.658534864
 21
12.0357377184
  0
LINE
  5
4F7
100
AcDbEntity
  8
RACCORDO
100
AcDbLine
 62
253
  6
CONTINUOUS
 10
20.166187412
 20
13.7765655288
 11
21.6105315162
 21
14.9675707721
  0
LWPOLYLINE
  5
4F8
100
AcDbEntity
  8
RACCORDO
100
AcDbPolyline
 62
253
  6
CONTINUOUS
 90
3
 70
0
 10
21.6105315162
 20
14.9675707721
 10
23.9353713659
 20
16.8761819803
 10
24.7553392759
 20
17.5464008303
  0
LINE
  5
4F9
100
AcDbEntity
  8
RACCORDO
100
AcDbLine
 62
7
  6
CONTINUOUS
 10
22.9219330564
 20
19.0455350777
 11
23.766409406
 21
19.737202317
  0
LINE
  5
4FA
100
AcDbEntity
  8
RACCORDO
100
AcDbLine
 62
7
  6
CONTINUOUS
 10
26.1734330938
 20
20.6467720265
 11
23.8805653893
 21
18.76880176
  0
LINE
  5
4FB
100
AcDbEntity
  8
RACCORDO
100
AcDbLine
 62
253
  6
CONTINUOUS
 10
15.0864450013
 20
12.4010394461
 11
14.5865769188
 21
11.9924133162
  0
LINE
  5
4FC
100
AcDbEntity
  8
RACCORDO
100
AcDbLine
 62
253
  6
CONTINUOUS
 10
15.5195896207
 20
11.8429062246
 11
15.0791313213
 21
11.4828456876
  0
LINE
  5
4FD
100
AcDbEntity
  8
RACCORDO
100
AcDbLine
 62
253
  6
CONTINUOUS
 10
24.7553392759
 20
17.5464008303
 11
27.359679737
 21
19.6663766483
  0
LINE
  5
4FE
100
AcDbEntity
  8
DRAFT
100
AcDbLine
 62
7
  6
CONTINUOUS
 10
15.1836346183
 20
12.3616971808
 11
18.6788964885
 21
15.167672077
  0
LWPOLYLINE
  5
4FF
100
AcDbEntity
  8
RACCORDO
100
AcDbPolyline
 62
253
  6
CONTINUOUS
 90
16
 70
0
 10
10.581602637
 20
6.5577494234
 10
10.5527088243
 20
6.5381472439
 10
10.5195325307
 20
6.5201346875
 10
10.4824292241
 20
6.5039047497
 10
10.4417964481
 20
6.4896313264
 10
10.3980695631
 20
6.4774673504
 10
10.3517170811
 20
6.4675431526
 10
10.3032356465
 20
6.4599650661
 10
10.2531447139
 20
6.4548142863
 10
10.2019809832
 20
6.4521460013
 10
10.1502926487
 20
6.4519888004
 10
10.0986335256
 20
6.454344368
 10
10.0475571162
 20
6.4591874656
 10
9.997610679
 20
6.4664662016
 10
9.9493293659
 20
6.4761025881
 10
9.9032304873
 20
6.4879933758
  0
LWPOLYLINE
  5
500
100
AcDbEntity
  8
RACCORDO
100
AcDbPolyline
 62
253
  6
CONTINUOUS
 90
6
 70
0
 10
-9.0656722317
 20
1.3163629153
 10
-9.0836063237
 20
1.3116507376
 10
-9.0977526787
 20
1.3058072833
 10
-9.1080493155
 20
1.298555258
 10
-9.1146800377
 20
1.2891672542
 10
-9.1152032784
 20
1.2879566442
  0
LWPOLYLINE
  5
501
100
AcDbEntity
  8
RACCORDO
100
AcDbPolyline
 62
253
  6
CONTINUOUS
 90
12
 70
0
 10
6.5211566972
 20
-2.8635240442
 10
6.5646514654
 20
-2.8882185805
 10
6.6067431376
 20
-2.9169616807
 10
6.6469671336
 20
-2.9494383216
 10
6.6848766739
 20
-2.9852889472
 10
6.7200558893
 20
-3.0241207914
 10
6.752117154
 20
-3.0655065389
 10
6.7807031537
 20
-3.1089835605
 10
6.8055155075
 20
-3.1541012033
 10
6.8262648275
 20
-3.2003369002
 10
6.8426964808
 20
-3.2470878463
 10
6.8546524624
 20
-3.293808789
  0
LWPOLYLINE
  5
502
100
AcDbEntity
  8
RACCORDO
100
AcDbPolyline
 62
253
  6
CONTINUOUS
 90
6
 70
0
 10
6.7765759022
 20
-3.3102848201
 10
6.7465707599
 20
-3.2895481623
 10
6.7137362323
 20
-3.268945139
 10
6.6786346565
 20
-3.2486458184
 10
6.6416007058
 20
-3.2280162375
 10
6.6030990166
 20
-3.2068217337
  0
LINE
  5
503
100
AcDbEntity
  8
RACCORDO
100
AcDbLine
 62
253
  6
CONTINUOUS
 10
6.8033817379
 20
-3.3301208682
 11
6.7765759022
 21
-3.3102848201
  0
LWPOLYLINE
  5
504
100
AcDbEntity
  8
RACCORDO
100
AcDbPolyline
 62
253
  6
CONTINUOUS
 90
4
 70
0
 10
6.8648220334
 20
-3.3852355117
 10
6.8475875122
 20
-3.3671039566
 10
6.827051239
 20
-3.3488379892
 10
6.8033817379
 20
-3.3301208682
  0
LWPOLYLINE
  5
505
100
AcDbEntity
  8
RACCORDO
100
AcDbPolyline
 62
253
  6
CONTINUOUS
 90
5
 70
0
 10
-4.5270535692
 20
19.1703039607
 10
-4.5208751151
 20
19.1535923583
 10
-4.5184504861
 20
19.1381693412
 10
-4.5198454887
 20
19.1243048314
 10
-4.523351883
 20
19.1151721279
  0
LWPOLYLINE
  5
506
100
AcDbEntity
  8
0
100
AcDbPolyline
 62
253
  6
CONTINUOUS
 90
3
 70
0
 10
4.395184757
 20
-21.4282159425
 10
4.4051718912
 20
-21.4897978648
 10
4.4115612245
 20
-21.5512239409
  0
LINE
  5
507
100
AcDbEntity
  8
0
100
AcDbLine
 62
253
  6
CONTINUOUS
 10
4.4115612245
 20
-21.5512239409
 11
4.414244395
 21
-21.6122513559
  0
LINE
  5
508
100
AcDbEntity
  8
DRAFT
100
AcDbLine
 62
7
  6
CONTINUOUS
 10
3.3510251398
 20
21.4111007496
 11
3.3510251398
 21
20.2506600655
  0
LINE
  5
509
100
AcDbEntity
  8
DRAFT
100
AcDbLine
 62
253
  6
CONTINUOUS
 10
5.3823174552
 20
16.4097769485
 11
5.3823174552
 21
17.5406483618
  0
LWPOLYLINE
  5
50A
100
AcDbEntity
  8
RACCORDO
100
AcDbPolyline
 62
253
  6
CONTINUOUS
 90
28
 70
0
 10
4.8435390422
 20
-11.1564060298
 10
4.8467503842
 20
-10.9062026772
 10
4.8527354307
 20
-10.6581215476
 10
4.8619833601
 20
-10.4118890693
 10
4.8753576054
 20
-10.1674932301
 10
4.8928567813
 20
-9.9243424793
 10
4.9135312679
 20
-9.6813222171
 10
4.9372002563
 20
-9.4386014658
 10
4.9645487762
 20
-9.1955101492
 10
4.9956427467
 20
-8.9496536722
 10
5.0298918468
 20
-8.7010712204
 10
5.0679224994
 20
-8.4491277557
 10
5.111189687
 20
-8.1901686968
 10
5.1588349217
 20
-7.9233060115
 10
5.2111035597
 20
-7.6485182206
 10
5.2706710876
 20
-7.3630647622
 10
5.3369997994
 20
-7.0649396725
 10
5.4094726485
 20
-6.754945181
 10
5.4906014753
 20
-6.4343531028
 10
5.5807702264
 20
-6.1013272092
 10
5.678588683
 20
-5.7567729593
 10
5.784528503
 20
-5.4063728138
 10
5.8986123764
 20
-5.0519276624
 10
6.0208783073
 20
-4.6917715306
 10
6.1523607128
 20
-4.3267425504
 10
6.2934378365
 20
-3.9573408798
 10
6.44376542
 20
-3.5837271307
 10
6.6033301705
 20
-3.2063840029
  0
LWPOLYLINE
  5
50B
100
AcDbEntity
  8
0
100
AcDbPolyline
 62
253
  6
CONTINUOUS
 90
14
 70
0
 10
2.6536486352
 20
-20.9895550699
 10
2.654841665
 20
-20.9302367244
 10
2.6600367619
 20
-20.874409069
 10
2.6687819913
 20
-20.8221659248
 10
2.6806003563
 20
-20.7736511046
 10
2.6950740044
 20
-20.7287453559
 10
2.7119157986
 20
-20.6871126405
 10
2.7307975924
 20
-20.6486738368
 10
2.7513722527
 20
-20.6133937069
 10
2.7734372285
 20
-20.5810217587
 10
2.7967258619
 20
-20.551462885
 10
2.8209756684
 20
-20.524618034
 10
2.8460676079
 20
-20.5002563824
 10
2.856467847
 20
-20.4910332443
  0
LWPOLYLINE
  5
50C
100
AcDbEntity
  8
0
100
AcDbPolyline
 62
253
  6
CONTINUOUS
 90
20
 70
0
 10
2.4332262111
 20
-21.040380303
 10
2.4347846523
 20
-20.9723805097
 10
2.4408936116
 20
-20.9084057067
 10
2.4510344312
 20
-20.8485456223
 10
2.4646809571
 20
-20.7929415959
 10
2.4813577545
 20
-20.7414512163
 10
2.5007285685
 20
-20.6937106069
 10
2.5224216155
 20
-20.6496283374
 10
2.5460459175
 20
-20.6091484296
 10
2.5713665705
 20
-20.5719931115
 10
2.5980861073
 20
-20.5380536682
 10
2.6258963318
 20
-20.5072289205
 10
2.6546471751
 20
-20.4792658505
 10
2.684116492
 20
-20.4540188405
 10
2.7141058934
 20
-20.4313534591
 10
2.7445610563
 20
-20.4110634465
 10
2.7752635678
 20
-20.3930378225
 10
2.8060232347
 20
-20.3771407936
 10
2.83685719
 20
-20.3631775272
 10
2.8676850954
 20
-20.3510341801
  0
LWPOLYLINE
  5
50D
100
AcDbEntity
  8
0
100
AcDbPolyline
 62
253
  6
CONTINUOUS
 90
8
 70
0
 10
4.414244395
 20
-21.6122513559
 10
4.4124357222
 20
-21.6846643822
 10
4.4054473115
 20
-21.7526087511
 10
4.3938874866
 20
-21.815941965
 10
4.3784134449
 20
-21.8744739692
 10
4.3595907088
 20
-21.9283778636
 10
4.3377724306
 20
-21.9781016436
 10
4.3134098779
 20
-22.0237384955
  0
LINE
  5
50E
100
AcDbEntity
  8
0
100
AcDbLine
 62
7
  6
CONTINUOUS
 10
4.3589225985
 20
-21.5422401149
 11
4.3569178457
 21
-21.6095162272
  0
LWPOLYLINE
  5
50F
100
AcDbEntity
  8
0
100
AcDbPolyline
 62
253
  6
CONTINUOUS
 90
4
 70
0
 10
8.297956247
 20
19.0384199913
 10
8.2868267691
 20
19.0003365777
 10
8.2779619057
 20
18.9619192341
 10
8.2724150734
 20
18.9291475793
  0
LINE
  5
510
100
AcDbEntity
  8
RACCORDO
100
AcDbLine
 62
7
  6
CONTINUOUS
 10
-3.4471920423
 20
-18.6612650703
 11
-3.4321389102
 21
-18.6225526995
  0
LWPOLYLINE
  5
511
100
AcDbEntity
  8
RACCORDO
100
AcDbPolyline
 62
253
  6
CONTINUOUS
 90
3
 70
0
 10
-3.4301045846
 20
-18.5971857707
 10
-3.4640661479
 20
-18.664620765
 10
-3.4711029854
 20
-18.6825310458
  0
LINE
  5
512
100
AcDbEntity
  8
RACCORDO
100
AcDbLine
 62
253
  6
CONTINUOUS
 10
27.4076970276
 20
19.2941315275
 11
15.5195896207
 21
8.5707747866
  0
LWPOLYLINE
  5
513
100
AcDbEntity
  8
RACCORDO
100
AcDbPolyline
 62
253
  6
CONTINUOUS
 90
5
 70
0
 10
-20.9801782446
 20
24.4401743322
 10
-21.0040168664
 20
24.4627525627
 10
-21.0295544548
 20
24.482460507
 10
-21.0562571468
 20
24.4989848162
 10
-21.0837078474
 20
24.5121601624
  0
LWPOLYLINE
  5
514
100
AcDbEntity
  8
RACCORDO
100
AcDbPolyline
 62
7
  6
CONTINUOUS
 90
7
 70
0
 10
5.135870986
 20
-0.1398901523
 10
5.5131038989
 20
-0.5319346774
 10
5.8782688966
 20
-0.9382330715
 10
6.2291842153
 20
-1.3564373488
 10
6.5651353102
 20
-1.7857541853
 10
6.8868770565
 20
-2.2269430901
 10
7.1944313626
 20
-2.6799856248
  0
LWPOLYLINE
  5
515
100
AcDbEntity
  8
RACCORDO
100
AcDbPolyline
 62
253
  6
CONTINUOUS
 90
5
 70
0
 10
6.5130069116
 20
-2.9536943279
 10
6.4973707985
 20
-2.9236989154
 10
6.481333407
 20
-2.8958878802
 10
6.4650000079
 20
-2.8704437761
 10
6.4535107003
 20
-2.8545123664
  0
LWPOLYLINE
  5
516
100
AcDbEntity
  8
RACCORDO
100
AcDbPolyline
 62
253
  6
CONTINUOUS
 90
4
 70
0
 10
-4.5433130332
 20
19.6056368908
 10
-4.5557957075
 20
19.6346891864
 10
-4.5715033208
 20
19.6628007215
 10
-4.5901671233
 20
19.6894905207
  0
LWPOLYLINE
  5
517
100
AcDbEntity
  8
RACCORDO
100
AcDbPolyline
 62
253
  6
CONTINUOUS
 90
5
 70
0
 10
-1.4093621156
 20
18.2703039607
 10
-1.4031439111
 20
18.2534434658
 10
-1.400751159
 20
18.2379334091
 10
-1.4022227739
 20
18.2240384417
 10
-1.4056601527
 20
18.2151726509
  0
LINE
  5
518
100
AcDbEntity
  8
RACCORDO
100
AcDbLine
 62
253
  6
CONTINUOUS
 10
6.8620443833
 20
-3.3400234855
 11
6.8648220334
 21
-3.3852355117
  0
LINE
  5
519
100
AcDbEntity
  8
RACCORDO
100
AcDbLine
 62
7
  6
CONTINUOUS
 10
7.1717439548
 20
-16.2083741373
 11
7.1714972698
 21
-16.1745740359
  0
LINE
  5
51A
100
AcDbEntity
  8
DRAFT
100
AcDbLine
 62
7
  6
CONTINUOUS
 10
5.8823174552
 20
17.9736610637
 11
5.8823174552
 21
18.5337769422
  0
LINE
  5
51B
100
AcDbEntity
  8
ASSI
100
AcDbLine
 62
253
  6
CONTINUOUS
 10
6.1183324614
 20
18.7346044771
 11
6.1183324614
 21
19.9544179186
  0
LINE
  5
51C
100
AcDbEntity
  8
ASSI
100
AcDbLine
 62
7
  6
CONTINUOUS
 10
6.1756695677
 20
18.8400044991
 11
6.1756695677
 21
19.9873135774
  0
LINE
  5
51D
100
AcDbEntity
  8
DRAFT
100
AcDbLine
 62
7
  6
CONTINUOUS
 10
6.3153301571
 20
17.8486610637
 11
6.3153301571
 21
18.4087769422
  0
LINE
  5
51E
100
AcDbEntity
  8
DRAFT
100
AcDbLine
 62
253
  6
CONTINUOUS
 10
6.748342859
 20
16.2975197814
 11
6.748342859
 21
17.7236610637
  0
LINE
  5
51F
100
AcDbEntity
  8
DRAFT
100
AcDbLine
 62
7
  6
CONTINUOUS
 10
6.7991689173
 20
16.9295659811
 11
6.7991689173
 21
16.2828475622
  0
LWPOLYLINE
  5
520
100
AcDbEntity
  8
0
100
AcDbPolyline
 62
7
  6
CONTINUOUS
 90
3
 70
0
 10
4.3569178457
 20
-21.6095162272
 10
4.3482792237
 20
-21.6796400237
 10
4.3328266492
 20
-21.7466012313
  0
LWPOLYLINE
  5
521
100
AcDbEntity
  8
0
100
AcDbPolyline
 62
253
  6
CONTINUOUS
 90
7
 70
0
 10
3.435737485
 20
-22.307254176
 10
3.4007695705
 20
-22.543692774
 10
3.3592948895
 20
-22.7821149913
 10
3.3114395207
 20
-23.0217960501
 10
3.2573489389
 20
-23.262007346
 10
3.1971875738
 20
-23.5020186627
 10
3.1311383091
 20
-23.7411003917
  0
LWPOLYLINE
  5
522
100
AcDbEntity
  8
0
100
AcDbPolyline
 62
253
  6
CONTINUOUS
 90
10
 70
0
 10
3.435737486
 20
-22.3072541683
 10
3.4404746563
 20
-22.2792836747
 10
3.4471641857
 20
-22.2510681585
 10
3.4556640353
 20
-22.2232067362
 10
3.4657937271
 20
-22.1962910069
 10
3.4773381729
 20
-22.1708924843
 10
3.4900522423
 20
-22.1475504625
 10
3.5036659711
 20
-22.1267605731
 10
3.5178902916
 20
-22.1089642607
 10
3.5324231692
 20
-22.0945394031
  0
LWPOLYLINE
  5
523
100
AcDbEntity
  8
RACCORDO
100
AcDbPolyline
 62
7
  6
CONTINUOUS
 90
43
 70
0
 10
6.893447615
 20
-3.3724022402
 10
6.7198855001
 20
-3.8080570946
 10
6.55801816
 20
-4.2369528337
 10
6.4078455949
 20
-4.6590894575
 10
6.2697569686
 20
-5.0755489092
 10
6.1433631171
 20
-5.4852492456
 10
6.0274965491
 20
-5.8849446366
 10
5.9225677186
 20
-6.2724103468
 10
5.8281661714
 20
-6.6498711115
 10
5.7418930537
 20
-7.0207553067
 10
5.6633418047
 20
-7.385410078
 10
5.5929189852
 20
-7.7434882797
 10
5.5294454232
 20
-8.0973768513
 10
5.4726346807
 20
-8.4476813834
 10
5.4227731958
 20
-8.7937962854
 10
5.3795411101
 20
-9.1362917243
 10
5.3428199528
 20
-9.4755831774
 10
5.3127281947
 20
-9.8112551674
 10
5.2893013896
 20
-10.1426314293
 10
5.2725296923
 20
-10.469999146
 10
5.2624229479
 20
-10.7930711346
 10
5.2590462461
 20
-11.110309581
 10
5.2624436271
 20
-11.4216765448
 10
5.2725710507
 20
-11.7272099663
 10
5.289361486
 20
-12.0254858525
 10
5.312803945
 20
-12.3162288969
 10
5.3429094158
 20
-12.5997144059
 10
5.3796438318
 20
-12.8753443056
 10
5.4228904554
 20
-13.1429192038
 10
5.4727660242
 20
-13.4026384927
 10
5.5295866851
 20
-13.654502275
 10
5.5930602
 20
-13.8983844491
 10
5.6634788069
 20
-14.1344111165
 10
5.7420353667
 20
-14.3629606846
 10
5.828316811
 20
-14.5843958599
 10
5.9227362082
 20
-14.7983539358
 10
6.0277256244
 20
-15.0041252001
 10
6.1437642315
 20
-15.203289274
 10
6.2703728576
 20
-15.3942665363
 10
6.4085460539
 20
-15.5716084112
 10
6.5586153374
 20
-15.7334987067
 10
6.7202491911
 20
-15.8817536148
 10
6.893447615
 20
-16.0163731354
  0
LWPOLYLINE
  5
524
100
AcDbEntity
  8
RACCORDO
100
AcDbPolyline
 62
253
  6
CONTINUOUS
 90
32
 70
0
 10
6.8645790523
 20
-3.3854448363
 10
6.6913829154
 20
-3.7950212903
 10
6.5265025571
 20
-4.2099667932
 10
6.3699379774
 20
-4.6302813449
 10
6.221349772
 20
-5.0569743809
 10
6.0810773452
 20
-5.4890364658
 10
5.9501389097
 20
-5.9234392936
 10
5.8286199209
 20
-6.3601581647
 10
5.7164349233
 20
-6.7992177788
 10
5.614345763
 20
-7.2376639284
 10
5.5224182871
 20
-7.6755073435
 10
5.4405866484
 20
-8.1127372942
 10
5.3694151516
 20
-8.5463673833
 10
5.3089788174
 20
-8.9763695521
 10
5.259202625
 20
-9.4027718593
 10
5.2204258175
 20
-9.8226720838
 10
5.1927241935
 20
-10.2360175568
 10
5.1760219544
 20
-10.6428609471
 10
5.1704309471
 20
-11.0404580394
 10
5.1760257512
 20
-11.4287467607
 10
5.192731787
 20
-11.807789184
 10
5.2204371626
 20
-12.175027314
 10
5.2592176609
 20
-12.5303876344
 10
5.3089974989
 20
-12.8739436615
 10
5.3694374361
 20
-13.2033579492
 10
5.4406124559
 20
-13.5185336948
 10
5.5224475748
 20
-13.8195677011
 10
5.6143786016
 20
-14.1044129298
 10
5.7164710394
 20
-14.3729487829
 10
5.828659385
 20
-14.6252958583
 10
5.9501829381
 20
-14.8597689124
 10
5.9750329441
 20
-14.9008515575
  0
LINE
  5
525
100
AcDbEntity
  8
RACCORDO
100
AcDbLine
 62
7
  6
CONTINUOUS
 10
14.97448549
 20
13.5170677149
 11
14.9621771178
 21
13.4900918621
  0
LINE
  5
526
100
AcDbEntity
  8
RACCORDO
100
AcDbLine
 62
7
  6
CONTINUOUS
 10
-3.4321389102
 20
-18.6225526995
 11
-3.4005678896
 21
-18.5601906144
  0
LINE
  5
527
100
AcDbEntity
  8
RACCORDO
100
AcDbLine
 62
253
  6
CONTINUOUS
 10
14.5865769188
 20
12.8430944714
 11
14.9585180159
 21
13.5453039607
  0
LINE
  5
528
100
AcDbEntity
  8
RACCORDO
100
AcDbLine
 62
7
  6
CONTINUOUS
 10
14.5902701651
 20
12.7879466958
 11
14.9622112622
 21
13.490156185
  0
LWPOLYLINE
  5
529
100
AcDbEntity
  8
RACCORDO
100
AcDbPolyline
 62
7
  6
CONTINUOUS
 90
15
 70
0
 10
13.9545443889
 20
12.1787462098
 10
13.9414123125
 20
12.156830604
 10
13.9263715485
 20
12.1354353602
 10
13.909441179
 20
12.1147987614
 10
13.890609332
 20
12.0951841694
 10
13.8699997716
 20
12.0768143957
 10
13.8478628654
 20
12.0598780824
 10
13.8243096659
 20
12.0446278027
 10
13.7994810493
 20
12.0313038962
 10
13.7736973963
 20
12.0200905207
 10
13.7471621562
 20
12.0112269713
 10
13.720087349
 20
12.0049267406
 10
13.692838407
 20
12.0013522302
 10
13.6657344003
 20
12.0006945323
 10
13.6432056227
 20
12.0025407846
  0
LINE
  5
52A
100
AcDbEntity
  8
RACCORDO
100
AcDbLine
 62
253
  6
CONTINUOUS
 10
-3.3905248403
 20
-18.5342551689
 11
-3.4301045846
 21
-18.5971857707
  0
LINE
  5
52B
100
AcDbEntity
  8
RACCORDO
100
AcDbLine
 62
7
  6
CONTINUOUS
 10
-3.4005678896
 20
-18.5601906144
 11
-3.3751990657
 21
-18.5208729635
  0
LINE
  5
52C
100
AcDbEntity
  8
RACCORDO
100
AcDbLine
 62
253
  6
CONTINUOUS
 10
6.8645790523
 20
-3.3854448363
 11
6.8875991141
 21
-3.3656133849
  0
LINE
  5
52D
100
AcDbEntity
  8
ASSI
100
AcDbLine
 62
7
  6
CONTINUOUS
 10
-13.3099020196
 20
25.613085407
 11
-13.3100175296
 21
25.6132120395
  0
LWPOLYLINE
  5
52E
100
AcDbEntity
  8
RACCORDO
100
AcDbPolyline
 62
253
  6
CONTINUOUS
 90
4
 70
0
 10
-1.4257632695
 20
18.7060214146
 10
-1.4383624902
 20
18.7352115892
 10
-1.4542210298
 20
18.7634513607
 10
-1.4730612802
 20
18.7902429349
  0
LWPOLYLINE
  5
52F
100
AcDbEntity
  8
RACCORDO
100
AcDbPolyline
 62
7
  6
CONTINUOUS
 90
4
 70
0
 10
1.25014966
 20
16.5423481761
 10
1.2604178011
 20
16.5152655166
 10
1.2732822839
 20
16.4858114534
 10
1.2891943902
 20
16.4550912899
  0
LINE
  5
530
100
AcDbEntity
  8
RACCORDO
100
AcDbLine
 62
7
  6
CONTINUOUS
 10
1.2421999218
 20
16.5660254917
 11
1.25014966
 21
16.5423481761
  0
LWPOLYLINE
  5
531
100
AcDbEntity
  8
RACCORDO
100
AcDbPolyline
 62
7
  6
CONTINUOUS
 90
10
 70
0
 10
9.0678093842
 20
-6.7181517532
 10
8.9252063169
 20
-6.2565383898
 10
8.7653668246
 20
-5.7959810159
 10
8.5888944976
 20
-5.3381407451
 10
8.3954931146
 20
-4.8825468706
 10
8.1854346713
 20
-4.4296911976
 10
7.9601689249
 20
-3.9826837347
 10
7.720167028
 20
-3.542571479
 10
7.4649260957
 20
-3.1083345808
 10
7.1944313626
 20
-2.6799856248
  0
LWPOLYLINE
  5
532
100
AcDbEntity
  8
RACCORDO
100
AcDbPolyline
 62
253
  6
CONTINUOUS
 90
8
 70
0
 10
6.6030990166
 20
-3.2068217337
 10
6.5929163774
 20
-3.1676787645
 10
6.5817052905
 20
-3.1291186679
 10
6.5695393464
 20
-3.0913945557
 10
6.5564984033
 20
-3.0547540522
 10
6.5426680632
 20
-3.0194376688
 10
6.5281391095
 20
-2.9856772252
 10
6.5130069116
 20
-2.9536943279
  0
LINE
  5
533
100
AcDbEntity
  8
RACCORDO
100
AcDbLine
 62
253
  6
CONTINUOUS
 10
6.8546524624
 20
-3.293808789
 11
6.8620443833
 21
-3.3400234855
  0
LWPOLYLINE
  5
534
100
AcDbEntity
  8
RACCORDO
100
AcDbPolyline
 62
253
  6
CONTINUOUS
 90
22
 70
0
 10
10.581602637
 20
-29.0218752044
 10
10.5843920603
 20
-29.0805068371
 10
10.5896494195
 20
-29.1361061498
 10
10.5973747145
 20
-29.1886731426
 10
10.6076294935
 20
-29.2384632827
 10
10.6203522082
 20
-29.2852211029
 10
10.6353582148
 20
-29.3281802011
 10
10.6526855054
 20
-29.3672646175
 10
10.6722960878
 20
-29.402550312
 10
10.693891341
 20
-29.4334987622
 10
10.7174953274
 20
-29.46003631
 10
10.7430839846
 20
-29.4822366136
 10
10.770286504
 20
-29.499782125
 10
10.7991319818
 20
-29.5126066785
 10
10.8295913218
 20
-29.5207764398
 10
10.8612064274
 20
-29.5241723583
 10
10.8940071061
 20
-29.5227107917
 10
10.9279635503
 20
-29.5164753823
 10
10.9625282405
 20
-29.5055980066
 10
10.9975186703
 20
-29.4901226236
 10
11.0331173462
 20
-29.4700052743
 10
11.069324268
 20
-29.4452459587
  0
LWPOLYLINE
  5
535
100
AcDbEntity
  8
RACCORDO
100
AcDbPolyline
 62
253
  6
CONTINUOUS
 90
15
 70
0
 10
9.9032304836
 20
-29.1272464947
 10
9.9073360385
 20
-29.2149037708
 10
9.9152013866
 20
-29.298665474
 10
9.9267874576
 20
-29.3781184217
 10
9.9420378304
 20
-29.4528667135
 10
9.9608765203
 20
-29.5225472793
 10
9.9832106828
 20
-29.5868281695
 10
10.0089391096
 20
-29.6454003552
 10
10.0379334211
 20
-29.697960369
 10
10.070034291
 20
-29.7442298282
 10
10.1050756101
 20
-29.7839758477
 10
10.1428927293
 20
-29.8170196639
 10
10.1833076678
 20
-29.8432101231
 10
10.2261374194
 20
-29.862418465
 10
10.2424184932
 20
-29.867694059
  0
LWPOLYLINE
  5
536
100
AcDbEntity
  8
RACCORDO
100
AcDbPolyline
 62
7
  6
CONTINUOUS
 90
13
 70
0
 10
8.2653301571
 20
19.2095508003
 10
8.2633316566
 20
19.2837978384
 10
8.2577153903
 20
19.3532417407
 10
8.2484813582
 20
19.4178825071
 10
8.2355066432
 20
19.4781315906
 10
8.2189141623
 20
19.5335775381
 10
8.1990726669
 20
19.582985991
 10
8.1759085735
 20
19.6262228623
 10
8.1494954656
 20
19.6634222388
 10
8.1204228449
 20
19.6937520228
 10
8.0886305492
 20
19.7170568131
 10
8.0541787408
 20
19.7334920108
 10
8.0425470062
 20
19.7372905943
  0
LINE
  5
537
100
AcDbEntity
  8
RACCORDO
100
AcDbLine
 62
253
  6
CONTINUOUS
 10
8.238378921
 20
13.177818837
 11
8.238378921
 21
14.2584021478
  0
LINE
  5
538
100
AcDbEntity
  8
RACCORDO
100
AcDbLine
 62
7
  6
CONTINUOUS
 10
8.2653301571
 20
19.2095508003
 11
8.2653301571
 21
18.9311928185
  0
LINE
  5
539
100
AcDbEntity
  8
RACCORDO
100
AcDbLine
 62
253
  6
CONTINUOUS
 10
8.9199298621
 20
13.2906289385
 11
8.9199298621
 21
14.5233559109
  0
LINE
  5
53A
100
AcDbEntity
  8
DRAFT
100
AcDbLine
 62
7
  6
CONTINUOUS
 10
9.1739181451
 20
14.7429242282
 11
9.1739181451
 21
13.5304886629
  0
LWPOLYLINE
  5
53B
100
AcDbEntity
  8
RACCORDO
100
AcDbPolyline
 62
253
  6
CONTINUOUS
 90
10
 70
0
 10
9.9032304836
 20
6.4879933729
 10
9.8171596949
 20
2.4606622774
 10
9.7526004951
 20
-1.5499252025
 10
9.7095581201
 20
-5.5434338748
 10
9.6880360604
 20
-9.5195299504
 10
9.6880360605
 20
-13.4778811901
 10
9.7095581202
 20
-17.4181569305
 10
9.7526004953
 20
-21.3400279535
 10
9.817159695
 20
-25.243166516
 10
9.9032304836
 20
-29.1272464947
  0
LWPOLYLINE
  5
53C
100
AcDbEntity
  8
RACCORDO
100
AcDbPolyline
 62
253
  6
CONTINUOUS
 90
10
 70
0
 10
10.581602637
 20
6.5577494234
 10
10.4956096577
 20
2.5339016163
 10
10.4311149152
 20
-1.4725569568
 10
10.3881184095
 20
-5.4616262958
 10
10.3666201299
 20
-9.4336394826
 10
10.3666200871
 20
-13.3882634354
 10
10.3881183132
 20
-17.3244989085
 10
10.4311148189
 20
-21.2420128201
 10
10.4956095935
 20
-25.141138252
 10
10.581602637
 20
-29.0218752044
  0
LWPOLYLINE
  5
53D
100
AcDbEntity
  8
RACCORDO
100
AcDbPolyline
 62
7
  6
CONTINUOUS
 90
8
 70
0
 10
11.3609623386
 20
13.1187434557
 10
11.3627472422
 20
13.148560772
 10
11.3680947424
 20
13.1780326563
 10
11.3769601213
 20
13.2067375594
 10
11.389374121
 20
13.2344959128
 10
11.4051441471
 20
13.2606549381
 10
11.423683199
 20
13.2843530082
 10
11.4450736078
 20
13.3057753076
  0
LWPOLYLINE
  5
53E
100
AcDbEntity
  8
RACCORDO
100
AcDbPolyline
 62
253
  6
CONTINUOUS
 90
12
 70
0
 10
13.4495060004
 20
12.2471879654
 10
13.439442156
 20
12.2162693096
 10
13.4258715342
 20
12.1869538848
 10
13.4090254741
 20
12.1597414327
 10
13.3891911515
 20
12.1350958452
 10
13.3667066832
 20
12.1134372573
 10
13.3419553631
 20
12.0951348839
 10
13.3153591283
 20
12.0805007267
 10
13.2873713663
 20
12.0697842549
 10
13.258469186
 20
12.0631681529
 10
13.2291452845
 20
12.0607652056
 10
13.2001579278
 20
12.0625811907
  0
LWPOLYLINE
  5
53F
100
AcDbEntity
  8
0
100
AcDbPolyline
 62
7
  6
CONTINUOUS
 90
10
 70
0
 10
-3.6072873808
 20
-18.705160943
 10
-3.6414044495
 20
-18.7500069414
 10
-3.6732314715
 20
-18.7994723792
 10
-3.702182491
 20
-18.8534836949
 10
-3.7278017366
 20
-18.9121266337
 10
-3.7495926891
 20
-18.9753827667
 10
-3.7669996113
 20
-19.0428788267
 10
-3.7795910141
 20
-19.1143684242
 10
-3.7869858367
 20
-19.1897764136
 10
-3.7887846629
 20
-19.2688659683
  0
LINE
  5
540
100
AcDbEntity
  8
RACCORDO
100
AcDbLine
 62
7
  6
CONTINUOUS
 10
27.4076970276
 20
7.6229442824
 11
22.1140048174
 21
3.6750945477
  0
LINE
  5
541
100
AcDbEntity
  8
DRAFT
100
AcDbLine
 62
7
  6
CONTINUOUS
 10
26.6721326799
 20
8.3281124555
 11
22.1140048174
 21
5.1394597557
  0
LINE
  5
542
100
AcDbEntity
  8
RACCORDO
100
AcDbLine
 62
253
  6
CONTINUOUS
 10
-27.7389953042
 20
17.3543679686
 11
9.9032304836
 21
6.4879933729
  0
LINE
  5
543
100
AcDbEntity
  8
RACCORDO
100
AcDbLine
 62
253
  6
CONTINUOUS
 10
-27.0431943657
 20
19.2173109873
 11
10.6276566286
 21
8.3426730063
  0
LWPOLYLINE
  5
544
100
AcDbEntity
  8
RACCORDO
100
AcDbPolyline
 62
253
  6
CONTINUOUS
 90
5
 70
0
 10
-4.6114677858
 20
19.7143019337
 10
-4.6350408636
 20
19.7368104487
 10
-4.6604830324
 20
19.7566309553
 10
-4.6873589883
 20
19.7734243336
 10
-4.7152088959
 20
19.7869032569
  0
LINE
  5
545
100
AcDbEntity
  8
ASSI
100
AcDbLine
 62
7
  6
CONTINUOUS
 10
-6.5064584298
 20
23.649097992
 11
-6.506574392
 21
23.6492228437
  0
LINE
  5
546
100
AcDbEntity
  8
RACCORDO
100
AcDbLine
 62
253
  6
CONTINUOUS
 10
-1.4730612802
 20
18.7902429349
 11
-1.4946066594
 21
18.8151743322
  0
LINE
  5
547
100
AcDbEntity
  8
RACCORDO
100
AcDbLine
 62
253
  6
CONTINUOUS
 10
-4.5901671233
 20
19.6894905207
 11
-4.6114677858
 21
19.7143019337
  0
LWPOLYLINE
  5
548
100
AcDbEntity
  8
RACCORDO
100
AcDbPolyline
 62
7
  6
CONTINUOUS
 90
9
 70
0
 10
1.2891943902
 20
16.4550912899
 10
1.3079027826
 20
16.4237562736
 10
1.3285826372
 20
16.391852286
 10
1.351185655
 20
16.3597210084
 10
1.3757946363
 20
16.3278829418
 10
1.4018817887
 20
16.2964256154
 10
1.4292870568
 20
16.2655673728
 10
1.4581529649
 20
16.2356630782
 10
1.488433816
 20
16.2069434595
  0
LWPOLYLINE
  5
549
100
AcDbEntity
  8
RACCORDO
100
AcDbPolyline
 62
253
  6
CONTINUOUS
 90
4
 70
0
 10
14.9657260965
 20
-27.6577067381
 10
14.9605049511
 20
-27.6257930986
 10
14.951521636
 20
-27.5949504212
 10
14.9389373027
 20
-27.5657775781
  0
LWPOLYLINE
  5
54A
100
AcDbEntity
  8
RACCORDO
100
AcDbPolyline
 62
253
  6
CONTINUOUS
 90
16
 70
0
 10
11.069324268
 20
7.7928252814
 10
11.0655715153
 20
7.8375315779
 10
11.0571697578
 20
7.8831578031
 10
11.0442109002
 20
7.9292046664
 10
11.0268367164
 20
7.9751682714
 10
11.0052373034
 20
8.0205456177
 10
10.9796490059
 20
8.0648401058
 10
10.9503518168
 20
8.1075669966
 10
10.9176663251
 20
8.148258693
 10
10.8819502211
 20
8.1864698494
 10
10.8435943475
 20
8.2217822865
 10
10.8030184441
 20
8.2538095388
 10
10.7606665779
 20
8.2822010731
 10
10.7170022387
 20
8.3066461627
 10
10.672503262
 20
8.3268772806
 10
10.6276566301
 20
8.3426730076
  0
LWPOLYLINE
  5
54B
100
AcDbEntity
  8
RACCORDO
100
AcDbPolyline
 62
7
  6
CONTINUOUS
 90
7
 70
0
 10
14.9912881125
 20
-27.6924310243
 10
14.9897855544
 20
-27.66506478
 10
14.9852567854
 20
-27.6378488395
 10
14.9777199489
 20
-27.6111907218
 10
14.9673057118
 20
-27.5855851498
 10
14.9541391434
 20
-27.561303481
 10
14.9382330937
 20
-27.5384418221
  0
LINE
  5
54C
100
AcDbEntity
  8
RACCORDO
100
AcDbLine
 62
7
  6
CONTINUOUS
 10
11.3622287538
 20
12.753638628
 11
11.3609623454
 21
12.778798664
  0
LWPOLYLINE
  5
54D
100
AcDbEntity
  8
RACCORDO
100
AcDbPolyline
 62
253
  6
CONTINUOUS
 90
9
 70
0
 10
13.1087305299
 20
-29.4375145534
 10
13.1097459469
 20
-29.4641755021
 10
13.1128039037
 20
-29.4888070983
 10
13.117895962
 20
-29.5109530889
 10
13.1249962617
 20
-29.5302249114
 10
13.1340136488
 20
-29.5461738177
 10
13.1447505706
 20
-29.5583817856
 10
13.1569937467
 20
-29.566624954
 10
13.1643202424
 20
-29.5694325401
  0
LWPOLYLINE
  5
54E
100
AcDbEntity
  8
RACCORDO
100
AcDbPolyline
 62
253
  6
CONTINUOUS
 90
10
 70
0
 10
11.4859623386
 20
12.6705163461
 10
11.4868160916
 20
12.6459945219
 10
11.4893656933
 20
12.6232863766
 10
11.493576324
 20
12.6027021148
 10
11.4994015277
 20
12.5844946116
 10
11.5067557932
 20
12.5689498129
 10
11.515490848
 20
12.5563369216
 10
11.5254498224
 20
12.5467963525
 10
11.536494508
 20
12.5403859165
 10
11.5416354597
 20
12.5385742192
  0
LWPOLYLINE
  5
54F
100
AcDbEntity
  8
RACCORDO
100
AcDbPolyline
 62
253
  6
CONTINUOUS
 90
10
 70
0
 10
13.1087305299
 20
12.2020635201
 10
13.1095842828
 20
12.1775416959
 10
13.1121338846
 20
12.1548335506
 10
13.1163445153
 20
12.1342492887
 10
13.122169719
 20
12.1160417856
 10
13.1295239845
 20
12.1004969868
 10
13.1382590392
 20
12.0878840956
 10
13.1482180137
 20
12.0783435265
 10
13.1592626993
 20
12.0719330905
 10
13.1643924181
 20
12.0701246344
  0
LINE
  5
550
100
AcDbEntity
  8
RACCORDO
100
AcDbLine
 62
7
  6
CONTINUOUS
 10
11.3609623386
 20
13.1187434557
 11
11.3609623386
 21
12.7787695216
  0
LINE
  5
551
100
AcDbEntity
  8
RACCORDO
100
AcDbLine
 62
253
  6
CONTINUOUS
 10
11.4859623386
 20
13.0104902803
 11
11.4859623386
 21
12.6705163461
  0
LINE
  5
552
100
AcDbEntity
  8
RACCORDO
100
AcDbLine
 62
7
  6
CONTINUOUS
 10
11.8559239502
 20
11.9000211365
 11
11.8559239502
 21
12.4478469455
  0
LINE
  5
553
100
AcDbEntity
  8
RACCORDO
100
AcDbLine
 62
253
  6
CONTINUOUS
 10
11.9809239502
 20
11.7860707783
 11
11.9809239502
 21
12.4117625537
  0
LINE
  5
554
100
AcDbEntity
  8
ASSI
100
AcDbLine
 62
253
  6
CONTINUOUS
 10
12.9230146856
 20
16.771680598
 11
12.9230146856
 21
17.9911965099
  0
LINE
  5
555
100
AcDbEntity
  8
ASSI
100
AcDbLine
 62
7
  6
CONTINUOUS
 10
12.979113157
 20
16.8760196644
 11
12.979113157
 21
18.0234457367
  0
LINE
  5
556
100
AcDbEntity
  8
RACCORDO
100
AcDbLine
 62
253
  6
CONTINUOUS
 10
13.1087305299
 20
-29.4375145534
 11
13.1087305299
 21
-29.0975406193
  0
LINE
  5
557
100
AcDbEntity
  8
RACCORDO
100
AcDbLine
 62
253
  6
CONTINUOUS
 10
13.1087305299
 20
12.2020635201
 11
13.1087305299
 21
12.5420374542
  0
LINE
  5
558
100
AcDbEntity
  8
RACCORDO
100
AcDbLine
 62
253
  6
CONTINUOUS
 10
13.4495060004
 20
-29.3923901081
 11
13.4495060004
 21
-29.052416174
  0
LINE
  5
559
100
AcDbEntity
  8
RACCORDO
100
AcDbLine
 62
253
  6
CONTINUOUS
 10
13.4495060004
 20
12.2471879654
 11
13.4495060004
 21
12.5871618995
  0
LINE
  5
55A
100
AcDbEntity
  8
RACCORDO
100
AcDbLine
 62
253
  6
CONTINUOUS
 10
13.6137689183
 20
12.0086217646
 11
13.6137689183
 21
11.3147090373
  0
LINE
  5
55B
100
AcDbEntity
  8
RACCORDO
100
AcDbLine
 62
253
  6
CONTINUOUS
 10
13.6137689183
 20
-27.7276761285
 11
13.6137689183
 21
-28.0409823748
  0
LWPOLYLINE
  5
55C
100
AcDbEntity
  8
RACCORDO
100
AcDbPolyline
 62
253
  6
CONTINUOUS
 90
13
 70
0
 10
11.4859623386
 20
13.0104902803
 10
11.4869777556
 20
13.0389099828
 10
11.4900357124
 20
13.0688381155
 10
11.4951277708
 20
13.0998038099
 10
11.5022280705
 20
13.1313737123
 10
11.5112454575
 20
13.1629411911
 10
11.5219823793
 20
13.1937460531
 10
11.5342255554
 20
13.2231950245
 10
11.5477861435
 20
13.2508501758
 10
11.562426491
 20
13.2762291365
 10
11.5778927816
 20
13.2988966521
 10
11.5939206654
 20
13.3184697681
 10
11.6102351222
 20
13.3346163548
  0
LWPOLYLINE
  5
55D
100
AcDbEntity
  8
RACCORDO
100
AcDbPolyline
 62
253
  6
CONTINUOUS
 90
13
 70
0
 10
13.1087305299
 20
12.5420374542
 10
13.1098004752
 20
12.5712310782
 10
13.1129934866
 20
12.6017890651
 10
13.1182570706
 20
12.6331890713
 10
13.1255040485
 20
12.6648969656
 10
13.1346116087
 20
12.6963651828
 10
13.1454213101
 20
12.7270426419
 10
13.1577757931
 20
12.7564643156
 10
13.1714404123
 20
12.7840552186
 10
13.1860759188
 20
12.809175751
 10
13.201378034
 20
12.8314015688
 10
13.2171096947
 20
12.8504804488
 10
13.2330033135
 20
12.8661635288
  0
LWPOLYLINE
  5
55E
100
AcDbEntity
  8
RACCORDO
100
AcDbPolyline
 62
253
  6
CONTINUOUS
 90
9
 70
0
 10
11.069324268
 20
-29.4452459587
 10
11.0655714163
 20
-29.490886821
 10
11.0571694359
 20
-29.5346191356
 10
11.0442102739
 20
-29.5759643188
 10
11.0268357486
 20
-29.6144699103
 10
11.0052359979
 20
-29.6497145247
 10
10.9796473982
 20
-29.6813124633
 10
10.9503499779
 20
-29.7089179345
 10
10.9392058731
 20
-29.7176329111
  0
LWPOLYLINE
  5
55F
100
AcDbEntity
  8
RACCORDO
100
AcDbPolyline
 62
253
  6
CONTINUOUS
 90
5
 70
0
 10
14.9912881125
 20
13.6071731151
 10
14.9892893499
 20
13.5913982439
 10
14.9830804274
 20
13.5754064799
 10
14.9727649167
 20
13.5599542388
 10
14.9585180159
 20
13.5453039607
  0
LWPOLYLINE
  5
560
100
AcDbEntity
  8
RACCORDO
100
AcDbPolyline
 62
253
  6
CONTINUOUS
 90
5
 70
0
 10
14.9912880423
 20
13.9546109247
 10
14.9890979487
 20
13.9381948991
 10
14.9827696309
 20
13.9223523665
 10
14.9724928323
 20
13.9071536656
 10
14.9585180159
 20
13.8928354774
  0
LINE
  5
561
100
AcDbEntity
  8
RACCORDO
100
AcDbLine
 62
253
  6
CONTINUOUS
 10
6.849088769
 20
-15.9818949545
 11
6.8424320536
 21
-16.0043157998
  0
LWPOLYLINE
  5
562
100
AcDbEntity
  8
0
100
AcDbPolyline
 62
7
  6
CONTINUOUS
 90
5
 70
0
 10
4.3328266492
 20
-21.7466012313
 10
4.3105430337
 20
-21.8096566945
 10
4.281385427
 20
-21.8683199747
 10
4.2453343324
 20
-21.9220177198
 10
4.2024377167
 20
-21.9701062554
  0
LWPOLYLINE
  5
563
100
AcDbEntity
  8
RACCORDO
100
AcDbPolyline
 62
253
  6
CONTINUOUS
 90
5
 70
0
 10
6.8424320536
 20
-16.0043157998
 10
6.8258971199
 20
-16.0421758668
 10
6.805087436
 20
-16.0767966505
 10
6.7802320895
 20
-16.1077971878
 10
6.749249195
 20
-16.1367490177
  0
LWPOLYLINE
  5
564
100
AcDbEntity
  8
RACCORDO
100
AcDbPolyline
 62
253
  6
CONTINUOUS
 90
6
 70
0
 10
-1.8550558268
 20
-20.5021125251
 10
-1.7784155439
 20
-20.4095484621
 10
-1.7174009961
 20
-20.3034491151
 10
-1.6730571885
 20
-20.1856304955
 10
-1.6461431589
 20
-20.058107711
 10
-1.6371201874
 20
-19.9230627691
  0
LINE
  5
565
100
AcDbEntity
  8
RACCORDO
100
AcDbLine
 62
7
  6
CONTINUOUS
 10
27.4076970276
 20
12.7414199771
 11
22.1140048174
 21
7.1391961629
  0
LWPOLYLINE
  5
566
100
AcDbEntity
  8
RACCORDO
100
AcDbPolyline
 62
7
  6
CONTINUOUS
 90
10
 70
0
 10
-3.4954800545
 20
-18.7042115858
 10
-3.5502684298
 20
-18.758043939
 10
-3.5999399601
 20
-18.817627957
 10
-3.6440364624
 20
-18.8826304423
 10
-3.6821377855
 20
-18.9526549432
 10
-3.7138897918
 20
-19.0272891299
 10
-3.7390008837
 20
-19.1061457139
 10
-3.7572041505
 20
-19.1888004473
 10
-3.768260926
 20
-19.2747552756
 10
-3.7719818087
 20
-19.3635086748
  0
LWPOLYLINE
  5
567
100
AcDbEntity
  8
0
100
AcDbPolyline
 62
7
  6
CONTINUOUS
 90
3
 70
0
 10
-3.5347311928
 20
-18.6292959899
 10
-3.571679382
 20
-18.6651212
 10
-3.6072873808
 20
-18.705160943
  0
LINE
  5
568
100
AcDbEntity
  8
DRAFT
100
AcDbLine
 62
7
  6
CONTINUOUS
 10
-3.2263093939
 20
-18.4648158968
 11
-3.4954800545
 21
-18.7042115858
  0
LINE
  5
569
100
AcDbEntity
  8
0
100
AcDbLine
 62
7
  6
CONTINUOUS
 10
-3.5235434269
 20
-18.6194226385
 11
-3.5347311928
 21
-18.6292959899
  0
LWPOLYLINE
  5
56A
100
AcDbEntity
  8
RACCORDO
100
AcDbPolyline
 62
253
  6
CONTINUOUS
 90
7
 70
0
 10
-3.4260416217
 20
-18.8846163924
 10
-3.503612936
 20
-18.9506789947
 10
-3.5689771779
 20
-19.0296437986
 10
-3.6210024121
 20
-19.1201410992
 10
-3.6588016155
 20
-19.2206100427
 10
-3.6817383025
 20
-19.3293342632
 10
-3.6894263028
 20
-19.4444512346
  0
LINE
  5
56B
100
AcDbEntity
  8
RACCORDO
100
AcDbLine
 62
253
  6
CONTINUOUS
 10
-3.4371654063
 20
-18.6577726582
 11
-3.4954780928
 21
-18.704209841
  0
LWPOLYLINE
  5
56C
100
AcDbEntity
  8
RACCORDO
100
AcDbPolyline
 62
7
  6
CONTINUOUS
 90
8
 70
0
 10
8.6834492689
 20
14.4179218349
 10
8.6427923933
 20
14.40827604
 10
8.60225972
 20
14.3958583124
 10
8.5621291879
 20
14.3817025924
 10
8.5224913025
 20
14.3670183302
 10
8.4834555025
 20
14.3523526263
 10
8.445279293
 20
14.337438921
 10
8.4079947993
 20
14.3225956788
  0
LINE
  5
56D
100
AcDbEntity
  8
RACCORDO
100
AcDbLine
 62
7
  6
CONTINUOUS
 10
13.2001579278
 20
12.0625811907
 11
13.6434985869
 21
12.0025005835
  0
LINE
  5
56E
100
AcDbEntity
  8
RACCORDO
100
AcDbLine
 62
253
  6
CONTINUOUS
 10
13.4495060004
 20
12.2471879654
 11
13.9545443889
 21
12.1787462098
  0
LWPOLYLINE
  5
56F
100
AcDbEntity
  8
RACCORDO
100
AcDbPolyline
 62
7
  6
CONTINUOUS
 90
10
 70
0
 10
13.2001579278
 20
12.0625811907
 10
13.1960708509
 20
12.0631694752
 10
13.1919892533
 20
12.0638259943
 10
13.1879147727
 20
12.0645507167
 10
13.1838482834
 20
12.0653437145
 10
13.1797922956
 20
12.066204699
 10
13.1757508675
 20
12.0671328994
 10
13.171726441
 20
12.0681277343
 10
13.1677199311
 20
12.0691889269
 10
13.1643924181
 20
12.0701246344
  0
LWPOLYLINE
  5
570
100
AcDbEntity
  8
RACCORDO
100
AcDbPolyline
 62
253
  6
CONTINUOUS
 90
9
 70
0
 10
-24.3674893781
 20
23.0205163461
 10
-24.3946227753
 20
23.0295785071
 10
-24.4191653913
 20
23.0403308616
 10
-24.4406987854
 20
23.0525904056
 10
-24.4588558983
 20
23.0661485808
 10
-24.4733266776
 20
23.0807743626
 10
-24.4838638072
 20
23.0962180817
 10
-24.4902907899
 20
23.1122282073
 10
-24.4924893735
 20
23.1287933162
  0
LWPOLYLINE
  5
571
100
AcDbEntity
  8
RACCORDO
100
AcDbPolyline
 62
7
  6
CONTINUOUS
 90
12
 70
0
 10
-24.311816257
 20
22.8885742192
 10
-24.3361719348
 20
22.8969866616
 10
-24.360271562
 20
22.9082538057
 10
-24.3831464835
 20
22.9220920466
 10
-24.4044330338
 20
22.9383115903
 10
-24.4238952453
 20
22.9567465252
 10
-24.4413813915
 20
22.9773034627
 10
-24.4566461834
 20
22.9997855699
 10
-24.4694376101
 20
23.0239148828
 10
-24.4795810287
 20
23.0494754538
 10
-24.4868921855
 20
23.0761646985
 10
-24.4912229629
 20
23.103638628
  0
LWPOLYLINE
  5
572
100
AcDbEntity
  8
RACCORDO
100
AcDbPolyline
 62
253
  6
CONTINUOUS
 90
5
 70
0
 10
-1.4946066594
 20
18.8151743322
 10
-1.5184452812
 20
18.8377525627
 10
-1.5439828696
 20
18.857460507
 10
-1.5706855616
 20
18.8739848162
 10
-1.5981362622
 20
18.8871601624
  0
LWPOLYLINE
  5
573
100
AcDbEntity
  8
RACCORDO
100
AcDbPolyline
 62
253
  6
CONTINUOUS
 90
13
 70
0
 10
13.4495060004
 20
12.5871618995
 10
13.4475642188
 20
12.6158786941
 10
13.441963841
 20
12.6451842611
 10
13.4328006867
 20
12.6745771957
 10
13.4202315335
 20
12.7035545983
 10
13.4044714337
 20
12.7316206788
 10
13.3857900354
 20
12.7582952396
 10
13.3645069688
 20
12.783121891
 10
13.3409863773
 20
12.8056758606
 10
13.3156306875
 20
12.8255712602
 10
13.2888737236
 20
12.8424676886
 10
13.261173285
 20
12.8560760558
 10
13.2330033135
 20
12.8661635288
  0
LWPOLYLINE
  5
574
100
AcDbEntity
  8
RACCORDO
100
AcDbPolyline
 62
7
  6
CONTINUOUS
 90
13
 70
0
 10
14.5865769188
 20
13.5701393239
 10
14.5846351471
 20
13.5988561269
 10
14.5790347779
 20
13.6281617013
 10
14.5698716312
 20
13.6575546424
 10
14.5573024849
 20
13.686532051
 10
14.5415423908
 20
13.7145981367
 10
14.5228609949
 20
13.7412726996
 10
14.5015779258
 20
13.766099349
 10
14.4780573285
 20
13.7886533136
 10
14.4527016317
 20
13.8085487072
 10
14.4259446604
 20
13.8254451291
 10
14.3982442132
 20
13.8390534888
 10
14.3700742318
 20
13.8491409532
  0
LWPOLYLINE
  5
575
100
AcDbEntity
  8
RACCORDO
100
AcDbPolyline
 62
7
  6
CONTINUOUS
 90
11
 70
0
 10
14.9912880423
 20
13.9546109247
 10
14.9891648623
 20
13.9872177179
 10
14.9829109624
 20
14.018879381
 10
14.9725965188
 20
14.0495540853
 10
14.9583524023
 20
14.0787332338
 10
14.9403445098
 20
14.1059545929
 10
14.9188011803
 20
14.1307418744
 10
14.8940630691
 20
14.1525930084
 10
14.8665565984
 20
14.1710557502
 10
14.8367530099
 20
14.1857596759
 10
14.8107122689
 20
14.1948717637
  0
LWPOLYLINE
  5
576
100
AcDbEntity
  8
RACCORDO
100
AcDbPolyline
 62
7
  6
CONTINUOUS
 90
16
 70
0
 10
15.0791313213
 20
11.4828456876
 10
15.0762896422
 20
11.5273804213
 10
15.0689884194
 20
11.5728156086
 10
15.0572955428
 20
11.6186668415
 10
15.0413178692
 20
11.6644392181
 10
15.021222498
 20
11.7096512002
 10
14.9972350236
 20
11.7538397265
 10
14.9696014556
 20
11.796535386
 10
14.9386038808
 20
11.8372821632
 10
14.9045799098
 20
11.875660941
 10
14.8678836401
 20
11.9112649036
 10
14.8288940126
 20
11.9437135236
 10
14.7880289774
 20
11.9726713646
 10
14.7457190861
 20
11.9978338725
 10
14.702402991
 20
12.018930596
 10
14.658534864
 20
12.0357377184
  0
LWPOLYLINE
  5
577
100
AcDbEntity
  8
RACCORDO
100
AcDbPolyline
 62
253
  6
CONTINUOUS
 90
4
 70
0
 10
14.9585180159
 20
13.8928354774
 10
14.956753623
 20
13.9217058951
 10
14.9513027142
 20
13.9511409061
 10
14.9422585519
 20
13.9806368908
  0
LINE
  5
578
100
AcDbEntity
  8
RACCORDO
100
AcDbLine
 62
253
  6
CONTINUOUS
 10
13.9545443889
 20
12.1787462098
 11
13.9545443889
 21
11.3702453859
  0
LINE
  5
579
100
AcDbEntity
  8
RACCORDO
100
AcDbLine
 62
253
  6
CONTINUOUS
 10
13.9545443889
 20
-27.4741287461
 11
13.9545443889
 21
-28.1208579296
  0
LINE
  5
57A
100
AcDbEntity
  8
RACCORDO
100
AcDbLine
 62
7
  6
CONTINUOUS
 10
14.5865769188
 20
-27.0038771953
 11
14.5865769188
 21
-28.4321000876
  0
LINE
  5
57B
100
AcDbEntity
  8
RACCORDO
100
AcDbLine
 62
7
  6
CONTINUOUS
 10
14.5865769188
 20
11.9752778565
 11
14.5865769188
 21
13.5701393239
  0
LINE
  5
57C
100
AcDbEntity
  8
RACCORDO
100
AcDbLine
 62
253
  6
CONTINUOUS
 10
14.9585180159
 20
13.8928354774
 11
14.9585180159
 21
13.5453039607
  0
LINE
  5
57D
100
AcDbEntity
  8
RACCORDO
100
AcDbLine
 62
253
  6
CONTINUOUS
 10
14.9585180159
 20
-27.7543001787
 11
14.9585180159
 21
-28.1018316955
  0
LINE
  5
57E
100
AcDbEntity
  8
RACCORDO
100
AcDbLine
 62
7
  6
CONTINUOUS
 10
14.9912881125
 20
13.9547046318
 11
14.9912881125
 21
13.6071731151
  0
LINE
  5
57F
100
AcDbEntity
  8
RACCORDO
100
AcDbLine
 62
7
  6
CONTINUOUS
 10
14.9912881125
 20
-27.6924310243
 11
14.9912881125
 21
-28.039962541
  0
LINE
  5
580
100
AcDbEntity
  8
RACCORDO
100
AcDbLine
 62
7
  6
CONTINUOUS
 10
15.5195896207
 20
11.8429062246
 11
15.5195896207
 21
-26.0888415845
  0
LINE
  5
581
100
AcDbEntity
  8
DRAFT
100
AcDbLine
 62
7
  6
CONTINUOUS
 10
15.5195896207
 20
8.5707747866
 11
15.5195896207
 21
-22.8167101464
  0
LWPOLYLINE
  5
582
100
AcDbEntity
  8
RACCORDO
100
AcDbPolyline
 62
253
  6
CONTINUOUS
 90
10
 70
0
 10
13.1087305299
 20
-29.0975406193
 10
13.1095503355
 20
-29.0720750817
 10
13.1120157161
 20
-29.0453851971
 10
13.1161188942
 20
-29.0178106046
 10
13.1218402122
 20
-28.9896644003
 10
13.1291199662
 20
-28.9613717112
 10
13.1378334941
 20
-28.9334616771
 10
13.1478435566
 20
-28.9063614081
 10
13.159026825
 20
-28.880393956
 10
13.1712305299
 20
-28.8559140315
  0
LINE
  5
583
100
AcDbEntity
  8
RACCORDO
100
AcDbLine
 62
7
  6
CONTINUOUS
 10
14.9898034502
 20
-28.0671678125
 11
14.9912880685
 21
-28.0398883892
  0
LWPOLYLINE
  5
584
100
AcDbEntity
  8
RACCORDO
100
AcDbPolyline
 62
7
  6
CONTINUOUS
 90
4
 70
0
 10
14.9912881125
 20
13.6071731151
 10
14.9893995179
 20
13.5765049421
 10
14.9837692255
 20
13.5463225644
 10
14.97448549
 20
13.5170677149
  0
LWPOLYLINE
  5
585
100
AcDbEntity
  8
0
100
AcDbPolyline
 62
253
  6
CONTINUOUS
 90
30
 70
0
 10
4.3134098779
 20
-22.0237384955
 10
4.286995967
 20
-22.065343003
 10
4.2587798065
 20
-22.1032585221
 10
4.2290939345
 20
-22.137614104
 10
4.1982770188
 20
-22.1685472396
 10
4.1664687764
 20
-22.1963657059
 10
4.1339311038
 20
-22.221219706
 10
4.1009126967
 20
-22.2432568512
 10
4.0674791841
 20
-22.2627236734
 10
4.0338244322
 20
-22.2797463334
 10
4.0002061167
 20
-22.2944463519
 10
3.9667127668
 20
-22.3070221352
 10
3.9334463619
 20
-22.3176221272
 10
3.9005108988
 20
-22.3263796988
 10
3.8679306202
 20
-22.3334610355
 10
3.8358848493
 20
-22.3389880951
 10
3.8043497969
 20
-22.3431016209
 10
3.7730167757
 20
-22.3459372833
 10
3.7419191913
 20
-22.3475742268
 10
3.711137439
 20
-22.3480779653
 10
3.680511373
 20
-22.3475054795
 10
3.6500531663
 20
-22.3458874588
 10
3.6201778318
 20
-22.3433278785
 10
3.591223334
 20
-22.3399733049
 10
3.5629578615
 20
-22.3358684245
 10
3.5353310041
 20
-22.3310402177
 10
3.5087905316
 20
-22.325653894
 10
3.4834578377
 20
-22.3198493804
 10
3.4591107745
 20
-22.3136848221
 10
3.435737485
 20
-22.307254176
  0
LWPOLYLINE
  5
586
100
AcDbEntity
  8
0
100
AcDbPolyline
 62
7
  6
CONTINUOUS
 90
7
 70
0
 10
2.8164292984
 20
-20.5391206653
 10
2.7754312036
 20
-20.5984840826
 10
2.7409911688
 20
-20.663955258
 10
2.714030939
 20
-20.733781936
 10
2.6948577626
 20
-20.8073800316
 10
2.6831643913
 20
-20.8853336298
 10
2.6789508251
 20
-20.9676427307
  0
LWPOLYLINE
  5
587
100
AcDbEntity
  8
RACCORDO
100
AcDbPolyline
 62
253
  6
CONTINUOUS
 90
3
 70
0
 10
6.7758289507
 20
-16.0346304561
 10
6.8028890058
 20
-15.9977019085
 10
6.8243931661
 20
-15.962700148
  0
LINE
  5
588
100
AcDbEntity
  8
RACCORDO
100
AcDbLine
 62
253
  6
CONTINUOUS
 10
-1.9013547879
 20
-20.5449488893
 11
-1.8550558268
 21
-20.5021125251
  0
LWPOLYLINE
  5
589
100
AcDbEntity
  8
0
100
AcDbPolyline
 62
7
  6
CONTINUOUS
 90
11
 70
0
 10
-1.8021027761
 20
-20.5680872996
 10
-1.7743941557
 20
-20.5427913574
 10
-1.7253003608
 20
-20.490507063
 10
-1.6811479409
 20
-20.4328226084
 10
-1.6424420227
 20
-20.370234712
 10
-1.609410888
 20
-20.302977782
 10
-1.5823481539
 20
-20.2314886467
 10
-1.5615917858
 20
-20.1567744615
 10
-1.5471852807
 20
-20.0795393356
 10
-1.5390466876
 20
-20.0000740733
 10
-1.5371186309
 20
-19.9188659837
  0
LINE
  5
58A
100
AcDbEntity
  8
DRAFT
100
AcDbLine
 62
7
  6
CONTINUOUS
 10
-1.6161433195
 20
-20.3044597153
 11
-1.901354788
 21
-20.5449488893
  0
LINE
  5
58B
100
AcDbEntity
  8
0
100
AcDbLine
 62
7
  6
CONTINUOUS
 10
-1.8276858023
 20
-20.5892044057
 11
-1.8021027761
 21
-20.5680872996
  0
LINE
  5
58C
100
AcDbEntity
  8
0
100
AcDbLine
 62
7
  6
CONTINUOUS
 10
8.2653301571
 20
18.9311928185
 11
7.3037130603
 21
18.7046257666
  0
LINE
  5
58D
100
AcDbEntity
  8
RACCORDO
100
AcDbLine
 62
7
  6
CONTINUOUS
 10
-3.1677222038
 20
16.7875811907
 11
-2.7243815446
 21
16.7275005835
  0
LINE
  5
58E
100
AcDbEntity
  8
RACCORDO
100
AcDbLine
 62
253
  6
CONTINUOUS
 10
-2.9183741311
 20
16.9721879654
 11
-2.4133357427
 21
16.9037462098
  0
LINE
  5
58F
100
AcDbEntity
  8
RACCORDO
100
AcDbLine
 62
7
  6
CONTINUOUS
 10
-6.2854136574
 20
17.6875811907
 11
-5.8420729982
 21
17.6275005835
  0
LINE
  5
590
100
AcDbEntity
  8
RACCORDO
100
AcDbLine
 62
253
  6
CONTINUOUS
 10
-6.0360655847
 20
17.8721879654
 11
-5.5310271963
 21
17.8037462098
  0
LWPOLYLINE
  5
591
100
AcDbEntity
  8
RACCORDO
100
AcDbPolyline
 62
7
  6
CONTINUOUS
 90
10
 70
0
 10
-3.1677222038
 20
16.7875811907
 10
-3.1718092806
 20
16.7881694752
 10
-3.1758908782
 20
16.7888259943
 10
-3.1799653588
 20
16.7895507167
 10
-3.1840318481
 20
16.7903437145
 10
-3.1880878359
 20
16.791204699
 10
-3.1921292641
 20
16.7921328994
 10
-3.1961536905
 20
16.7931277343
 10
-3.2001602004
 20
16.7941889269
 10
-3.2034877134
 20
16.7951246344
  0
LWPOLYLINE
  5
592
100
AcDbEntity
  8
RACCORDO
100
AcDbPolyline
 62
7
  6
CONTINUOUS
 90
10
 70
0
 10
-6.2854136574
 20
17.6875811907
 10
-6.2895007343
 20
17.6881694752
 10
-6.2935823318
 20
17.6888259943
 10
-6.2976568125
 20
17.6895507167
 10
-6.3017233017
 20
17.6903437145
 10
-6.3057792895
 20
17.691204699
 10
-6.3098207177
 20
17.6921328994
 10
-6.3138451441
 20
17.6931277343
 10
-6.317851654
 20
17.6941889269
 10
-6.321179167
 20
17.6951246344
  0
LWPOLYLINE
  5
593
100
AcDbEntity
  8
RACCORDO
100
AcDbPolyline
 62
253
  6
CONTINUOUS
 90
6
 70
0
 10
14.8105734283
 20
14.1949119011
 10
14.8035782301
 20
14.1963588691
 10
14.7889427236
 20
14.1961299607
 10
14.7736406084
 20
14.1918517376
 10
14.7579089477
 20
14.1836825819
 10
14.7420153289
 20
14.1718371067
  0
LWPOLYLINE
  5
594
100
AcDbEntity
  8
RACCORDO
100
AcDbPolyline
 62
253
  6
CONTINUOUS
 90
6
 70
0
 10
13.1726900717
 20
14.6677280995
 10
13.1656948736
 20
14.6691750675
 10
13.1510593671
 20
14.6689461591
 10
13.1357572519
 20
14.664667936
 10
13.1200255912
 20
14.6564987803
 10
13.1041319724
 20
14.6446533051
  0
LWPOLYLINE
  5
595
100
AcDbEntity
  8
RACCORDO
100
AcDbPolyline
 62
253
  6
CONTINUOUS
 90
8
 70
0
 10
11.6102351222
 20
13.3346163548
 10
11.5817740212
 20
13.3408615178
 10
11.5538073037
 20
13.3432758021
 10
11.5268183811
 20
13.3418137526
 10
11.501271971
 20
13.3364960656
 10
11.4776141913
 20
13.3274108685
 10
11.4562626251
 20
13.31471623
 10
11.4450736078
 20
13.3057753076
  0
LWPOLYLINE
  5
596
100
AcDbEntity
  8
RACCORDO
100
AcDbPolyline
 62
253
  6
CONTINUOUS
 90
8
 70
0
 10
-7.875336463
 20
18.9596163548
 10
-7.903797564
 20
18.9658615178
 10
-7.9317642815
 20
18.9682758021
 10
-7.958753204
 20
18.9668137526
 10
-7.9842996141
 20
18.9614960656
 10
-8.0079573939
 20
18.9524108685
 10
-8.02930896
 20
18.93971623
 10
-8.0404979773
 20
18.9307753076
  0
LWPOLYLINE
  5
597
100
AcDbEntity
  8
RACCORDO
100
AcDbPolyline
 62
253
  6
CONTINUOUS
 90
8
 70
0
 10
-4.7576450093
 20
18.0596163548
 10
-4.7859923696
 20
18.0658440302
 10
-4.8138422773
 20
18.0682716667
 10
-4.8407182331
 20
18.0668577286
 10
-4.8661604019
 20
18.0616264077
 10
-4.8897334798
 20
18.0526672094
 10
-4.9110341423
 20
18.0401334217
 10
-4.9229116092
 20
18.0306820899
  0
LWPOLYLINE
  5
598
100
AcDbEntity
  8
RACCORDO
100
AcDbPolyline
 62
7
  6
CONTINUOUS
 90
8
 70
0
 10
12.7246186367
 20
14.3241430686
 10
12.6962712862
 20
14.3303707525
 10
12.6684213871
 20
14.3327983966
 10
12.6415454385
 20
14.331384465
 10
12.6161032766
 20
14.3261531502
 10
12.5925302043
 20
14.317193957
 10
12.5712295441
 20
14.3046601713
 10
12.5619886065
 20
14.2974920674
  0
LWPOLYLINE
  5
599
100
AcDbEntity
  8
RACCORDO
100
AcDbPolyline
 62
253
  6
CONTINUOUS
 90
7
 70
0
 10
13.1041319724
 20
14.6446533051
 10
13.0759620009
 20
14.6510346036
 10
13.0482615622
 20
14.6535916841
 10
13.0215045984
 20
14.652280796
 10
12.9961489086
 20
14.6471243681
 10
12.9726283171
 20
14.6382106245
 10
12.9522968615
 20
14.6262518061
  0
LINE
  5
59A
100
AcDbEntity
  8
RACCORDO
100
AcDbLine
 62
7
  6
CONTINUOUS
 10
13.1452622265
 20
14.6739917831
 11
13.1727485026
 21
14.6677112643
  0
LWPOLYLINE
  5
59B
100
AcDbEntity
  8
RACCORDO
100
AcDbPolyline
 62
253
  6
CONTINUOUS
 90
13
 70
0
 10
13.1087305299
 20
12.5420374542
 10
13.1380674994
 20
12.5348040671
 10
13.1690532687
 20
12.529546218
 10
13.2011584614
 20
12.5263561104
 10
13.2338372666
 20
12.5252906411
 10
13.2665256655
 20
12.5263708179
 10
13.29865135
 20
12.5295788996
 10
13.3297282105
 20
12.5348735108
 10
13.3591498254
 20
12.5421587654
 10
13.3862311439
 20
12.5512406894
 10
13.4105070564
 20
12.5619021977
 10
13.4316935793
 20
12.5739515325
 10
13.4495060004
 20
12.5871618995
  0
LWPOLYLINE
  5
59C
100
AcDbEntity
  8
RACCORDO
100
AcDbPolyline
 62
253
  6
CONTINUOUS
 90
13
 70
0
 10
-6.3768410553
 20
18.1670374542
 10
-6.3475040858
 20
18.1598040671
 10
-6.3165183164
 20
18.154546218
 10
-6.2844131237
 20
18.1513561104
 10
-6.2517343186
 20
18.1502906411
 10
-6.2190459196
 20
18.1513708179
 10
-6.1869202352
 20
18.1545788996
 10
-6.1558433746
 20
18.1598735108
 10
-6.1264217597
 20
18.1671587654
 10
-6.0993404413
 20
18.1762406894
 10
-6.0750645287
 20
18.1869021977
 10
-6.0538780059
 20
18.1989515325
 10
-6.0360655847
 20
18.2121618995
  0
LWPOLYLINE
  5
59D
100
AcDbEntity
  8
RACCORDO
100
AcDbPolyline
 62
253
  6
CONTINUOUS
 90
13
 70
0
 10
13.1087305299
 20
12.2020635201
 10
13.1379933517
 20
12.1948454949
 10
13.168888284
 20
12.1895944077
 10
13.2008891341
 20
12.1863999466
 10
13.2334511388
 20
12.1853167736
 10
13.2660191257
 20
12.1863636333
 10
13.2980369967
 20
12.1895227819
 10
13.328980839
 20
12.1947448796
 10
13.3582992736
 20
12.2019393132
 10
13.3854350586
 20
12.2109616052
 10
13.4099255786
 20
12.2216384784
 10
13.4313960205
 20
12.2337850782
 10
13.4495060004
 20
12.2471879654
  0
LWPOLYLINE
  5
59E
100
AcDbEntity
  8
RACCORDO
100
AcDbPolyline
 62
253
  6
CONTINUOUS
 90
13
 70
0
 10
-3.2591496016
 20
16.9270635201
 10
-3.2298867798
 20
16.9198454949
 10
-3.1989918475
 20
16.9145944077
 10
-3.1669909974
 20
16.9113999466
 10
-3.1344289927
 20
16.9103167736
 10
-3.1018610058
 20
16.9113636333
 10
-3.0698431348
 20
16.9145227819
 10
-3.0388992925
 20
16.9197448796
 10
-3.0095808579
 20
16.9269393132
 10
-2.982445073
 20
16.9359616052
 10
-2.9579545529
 20
16.9466384784
 10
-2.936484111
 20
16.9587850782
 10
-2.9183741311
 20
16.9721879654
  0
LWPOLYLINE
  5
59F
100
AcDbEntity
  8
RACCORDO
100
AcDbPolyline
 62
253
  6
CONTINUOUS
 90
13
 70
0
 10
-6.3768410553
 20
17.8270635201
 10
-6.3475782334
 20
17.8198454949
 10
-6.3166833011
 20
17.8145944077
 10
-6.284682451
 20
17.8113999466
 10
-6.2521204463
 20
17.8103167736
 10
-6.2195524594
 20
17.8113636333
 10
-6.1875345884
 20
17.8145227819
 10
-6.1565907461
 20
17.8197448796
 10
-6.1272723115
 20
17.8269393132
 10
-6.1001365266
 20
17.8359616052
 10
-6.0756460065
 20
17.8466384784
 10
-6.0541755646
 20
17.8587850782
 10
-6.0360655847
 20
17.8721879654
  0
LWPOLYLINE
  5
5A0
100
AcDbEntity
  8
RACCORDO
100
AcDbPolyline
 62
253
  6
CONTINUOUS
 90
13
 70
0
 10
-22.7447211868
 20
22.5520635201
 10
-22.715458365
 20
22.5448454949
 10
-22.6845634327
 20
22.5395944077
 10
-22.6525625825
 20
22.5363999466
 10
-22.6200005779
 20
22.5353167736
 10
-22.5874325909
 20
22.5363636333
 10
-22.5554147199
 20
22.5395227819
 10
-22.5244708777
 20
22.5447448796
 10
-22.495152443
 20
22.5519393132
 10
-22.4680166581
 20
22.5609616052
 10
-22.4435261381
 20
22.5716384784
 10
-22.4220556962
 20
22.5837850782
 10
-22.4039457162
 20
22.5971879654
  0
LWPOLYLINE
  5
5A1
100
AcDbEntity
  8
RACCORDO
100
AcDbPolyline
 62
253
  6
CONTINUOUS
 90
13
 70
0
 10
-3.2591496016
 20
17.2670374542
 10
-3.2305938591
 20
17.259966624
 10
-3.2002560378
 20
17.2547398737
 10
-3.168608137
 20
17.2514837142
 10
-3.1360869748
 20
17.2502943832
 10
-3.1033113952
 20
17.25124527
 10
-3.0710680584
 20
17.2543353499
 10
-3.0399788124
 20
17.2594978596
 10
-3.0105068868
 20
17.2666484659
 10
-2.9831664915
 20
17.2756611907
 10
-2.9584268858
 20
17.2863784158
 10
-2.9367064406
 20
17.2986156694
 10
-2.9183741311
 20
17.3121618995
  0
LWPOLYLINE
  5
5A2
100
AcDbEntity
  8
RACCORDO
100
AcDbPolyline
 62
253
  6
CONTINUOUS
 90
13
 70
0
 10
-22.7447211868
 20
22.8920374542
 10
-22.7161654442
 20
22.884966624
 10
-22.6858276229
 20
22.8797398737
 10
-22.6541797221
 20
22.8764837142
 10
-22.6216585599
 20
22.8752943832
 10
-22.5888829804
 20
22.87624527
 10
-22.5566396436
 20
22.8793353499
 10
-22.5255503976
 20
22.8844978596
 10
-22.4960784719
 20
22.8916484659
 10
-22.4687380766
 20
22.9006611907
 10
-22.443998471
 20
22.9113784158
 10
-22.4222780258
 20
22.9236156694
 10
-22.4039457162
 20
22.9371618995
  0
LINE
  5
5A3
100
AcDbEntity
  8
RACCORDO
100
AcDbLine
 62
7
  6
CONTINUOUS
 10
-23.8725277665
 20
22.1360707783
 11
-22.2396827984
 21
21.6647090373
  0
LINE
  5
5A4
100
AcDbEntity
  8
RACCORDO
100
AcDbLine
 62
7
  6
CONTINUOUS
 10
-7.504647635
 20
17.4110707783
 11
-5.8718026668
 21
16.9397090373
  0
LINE
  5
5A5
100
AcDbEntity
  8
RACCORDO
100
AcDbLine
 62
7
  6
CONTINUOUS
 10
-4.3869561813
 20
16.5110707783
 11
-2.7541112132
 21
16.0397090373
  0
LINE
  5
5A6
100
AcDbEntity
  8
RACCORDO
100
AcDbLine
 62
7
  6
CONTINUOUS
 10
11.9809239502
 20
11.7860707783
 11
13.6137689183
 21
11.3147090373
  0
LINE
  5
5A7
100
AcDbEntity
  8
RACCORDO
100
AcDbLine
 62
7
  6
CONTINUOUS
 10
8.238378921
 20
13.177818837
 11
1.488433816
 21
15.1263601487
  0
LINE
  5
5A8
100
AcDbEntity
  8
RACCORDO
100
AcDbLine
 62
7
  6
CONTINUOUS
 10
-11.2471926642
 20
18.802818837
 11
-17.9971377692
 21
20.7513601487
  0
LINE
  5
5A9
100
AcDbEntity
  8
RACCORDO
100
AcDbLine
 62
7
  6
CONTINUOUS
 10
-24.3118269026
 20
22.8885772909
 11
-22.6890587113
 21
22.4201244649
  0
LINE
  5
5AA
100
AcDbEntity
  8
RACCORDO
100
AcDbLine
 62
7
  6
CONTINUOUS
 10
-7.9439467711
 20
18.1635772909
 11
-6.3211785798
 21
17.6951244649
  0
LINE
  5
5AB
100
AcDbEntity
  8
RACCORDO
100
AcDbLine
 62
7
  6
CONTINUOUS
 10
-4.8262553174
 20
17.2635772909
 11
-3.2034871262
 21
16.7951244649
  0
LINE
  5
5AC
100
AcDbEntity
  8
RACCORDO
100
AcDbLine
 62
7
  6
CONTINUOUS
 10
11.5416248141
 20
12.5385772909
 11
13.1643930054
 21
12.0701244649
  0
LINE
  5
5AD
100
AcDbEntity
  8
RACCORDO
100
AcDbLine
 62
253
  6
CONTINUOUS
 10
-24.3674893781
 20
23.0205163461
 11
-22.7447211868
 21
22.5520635201
  0
LINE
  5
5AE
100
AcDbEntity
  8
RACCORDO
100
AcDbLine
 62
253
  6
CONTINUOUS
 10
-7.9996092465
 20
18.2955163461
 11
-6.3768410553
 21
17.8270635201
  0
LINE
  5
5AF
100
AcDbEntity
  8
RACCORDO
100
AcDbLine
 62
253
  6
CONTINUOUS
 10
-4.8819177929
 20
17.3955163461
 11
-3.2591496016
 21
16.9270635201
  0
LINE
  5
5B0
100
AcDbEntity
  8
RACCORDO
100
AcDbLine
 62
253
  6
CONTINUOUS
 10
11.4859623386
 20
12.6705163461
 11
13.1087305299
 21
12.2020635201
  0
LINE
  5
5B1
100
AcDbEntity
  8
RACCORDO
100
AcDbLine
 62
7
  6
CONTINUOUS
 10
26.6721326799
 20
8.3281124555
 11
27.0330773205
 21
8.2239167128
  0
LINE
  5
5B2
100
AcDbEntity
  8
DRAFT
100
AcDbLine
 62
7
  6
CONTINUOUS
 10
11.3609623386
 20
12.9880380053
 11
9.2445730806
 21
13.5989869592
  0
LINE
  5
5B3
100
AcDbEntity
  8
DRAFT
100
AcDbLine
 62
7
  6
CONTINUOUS
 10
1.238433816
 20
15.910160289
 11
-1.7092098343
 21
16.7610717165
  0
LINE
  5
5B4
100
AcDbEntity
  8
DRAFT
100
AcDbLine
 62
7
  6
CONTINUOUS
 10
-8.1246092465
 20
18.6130380053
 11
-10.2409985045
 21
19.2239869592
  0
LINE
  5
5B5
100
AcDbEntity
  8
DRAFT
100
AcDbLine
 62
7
  6
CONTINUOUS
 10
-18.2471377692
 20
21.535160289
 11
-21.1947814195
 21
22.3860717165
  0
LINE
  5
5B6
100
AcDbEntity
  8
RACCORDO
100
AcDbLine
 62
253
  6
CONTINUOUS
 10
13.1087305299
 20
12.5420374542
 11
11.4859623386
 21
13.0104902803
  0
LINE
  5
5B7
100
AcDbEntity
  8
RACCORDO
100
AcDbLine
 62
253
  6
CONTINUOUS
 10
-3.2591496016
 20
17.2670374542
 11
-4.8819177929
 21
17.7354902803
  0
LINE
  5
5B8
100
AcDbEntity
  8
RACCORDO
100
AcDbLine
 62
253
  6
CONTINUOUS
 10
-6.3768410553
 20
18.1670374542
 11
-7.9996092465
 21
18.6354902803
  0
LINE
  5
5B9
100
AcDbEntity
  8
RACCORDO
100
AcDbLine
 62
253
  6
CONTINUOUS
 10
-22.7447211868
 20
22.8920374542
 11
-24.3674893781
 21
23.3604902803
  0
LINE
  5
5BA
100
AcDbEntity
  8
RACCORDO
100
AcDbLine
 62
253
  6
CONTINUOUS
 10
8.238378921
 20
14.2584021478
 11
1.488433816
 21
16.2069434595
  0
LINE
  5
5BB
100
AcDbEntity
  8
RACCORDO
100
AcDbLine
 62
253
  6
CONTINUOUS
 10
-11.2471926642
 20
19.8834021478
 11
-17.9971377692
 21
21.8319434595
  0
LINE
  5
5BC
100
AcDbEntity
  8
RACCORDO
100
AcDbLine
 62
253
  6
CONTINUOUS
 10
13.2330033135
 20
12.8661635288
 11
11.6102351222
 21
13.3346163548
  0
LINE
  5
5BD
100
AcDbEntity
  8
RACCORDO
100
AcDbLine
 62
253
  6
CONTINUOUS
 10
-3.1348768181
 20
17.5911635288
 11
-4.7576450093
 21
18.0596163548
  0
LINE
  5
5BE
100
AcDbEntity
  8
RACCORDO
100
AcDbLine
 62
253
  6
CONTINUOUS
 10
-6.2525682717
 20
18.4911635288
 11
-7.875336463
 21
18.9596163548
  0
LINE
  5
5BF
100
AcDbEntity
  8
RACCORDO
100
AcDbLine
 62
253
  6
CONTINUOUS
 10
-22.6204484032
 20
23.2161635288
 11
-24.2432165945
 21
23.6846163548
  0
LINE
  5
5C0
100
AcDbEntity
  8
RACCORDO
100
AcDbLine
 62
7
  6
CONTINUOUS
 10
-21.2668747979
 20
22.8953389321
 11
-19.9008493941
 21
22.5010013648
  0
LINE
  5
5C1
100
AcDbEntity
  8
DRAFT
100
AcDbLine
 62
7
  6
CONTINUOUS
 10
-4.8989946664
 20
18.1703389321
 11
-4.7983520013
 21
18.1412858972
  0
LINE
  5
5C2
100
AcDbEntity
  8
DRAFT
100
AcDbLine
 62
7
  6
CONTINUOUS
 10
-1.7813032127
 20
17.2703389321
 11
-0.4152778089
 21
16.8760013648
  0
LINE
  5
5C3
100
AcDbEntity
  8
RACCORDO
100
AcDbLine
 62
7
  6
CONTINUOUS
 10
14.5865769188
 20
12.5453389321
 11
15.0864450013
 21
12.4010394461
  0
LINE
  5
5C4
100
AcDbEntity
  8
RACCORDO
100
AcDbLine
 62
253
  6
CONTINUOUS
 10
8.6834492689
 20
14.4179218349
 11
1.2421999218
 21
16.5660254917
  0
LINE
  5
5C5
100
AcDbEntity
  8
RACCORDO
100
AcDbLine
 62
253
  6
CONTINUOUS
 10
-10.8021223162
 20
20.0429218349
 11
-18.2433716634
 21
22.1910254917
  0
LINE
  5
5C6
100
AcDbEntity
  8
DRAFT
100
AcDbLine
 62
7
  6
CONTINUOUS
 10
-17.9326769933
 20
22.5679242282
 11
-10.31165344
 21
20.3679242282
  0
LINE
  5
5C7
100
AcDbEntity
  8
DRAFT
100
AcDbLine
 62
7
  6
CONTINUOUS
 10
1.5528945918
 20
16.9429242282
 11
9.1739181451
 21
14.7429242282
  0
LWPOLYLINE
  5
5C8
100
AcDbEntity
  8
RACCORDO
100
AcDbPolyline
 62
253
  6
CONTINUOUS
 90
9
 70
0
 10
-7.9996092465
 20
18.2955163461
 10
-8.0267426438
 20
18.3045785071
 10
-8.0512852598
 20
18.3153308616
 10
-8.0728186538
 20
18.3275904056
 10
-8.0909757667
 20
18.3411485808
 10
-8.1054465461
 20
18.3557743626
 10
-8.1159836757
 20
18.3712180817
 10
-8.1224106583
 20
18.3872282073
 10
-8.124609242
 20
18.4037933162
  0
LWPOLYLINE
  5
5C9
100
AcDbEntity
  8
RACCORDO
100
AcDbPolyline
 62
253
  6
CONTINUOUS
 90
9
 70
0
 10
-4.8819177929
 20
17.3955163461
 10
-4.9090511901
 20
17.4045785071
 10
-4.9335938062
 20
17.4153308616
 10
-4.9551272002
 20
17.4275904056
 10
-4.9732843131
 20
17.4411485808
 10
-4.9877550924
 20
17.4557743626
 10
-4.9982922221
 20
17.4712180817
 10
-5.0047192047
 20
17.4872282073
 10
-5.0069177884
 20
17.5037933162
  0
LWPOLYLINE
  5
5CA
100
AcDbEntity
  8
RACCORDO
100
AcDbPolyline
 62
253
  6
CONTINUOUS
 90
9
 70
0
 10
-7.9996092465
 20
18.6354902803
 10
-8.0267034288
 20
18.6445374079
 10
-8.0512144512
 20
18.6552694459
 10
-8.07272602
 20
18.667504122
 10
-8.0908727837
 20
18.6810336429
 10
-8.1053465386
 20
18.6956282241
 10
-8.1159014632
 20
18.7110399919
 10
-8.1223582932
 20
18.7270071937
 10
-8.1246092465
 20
18.7437434557
  0
LWPOLYLINE
  5
5CB
100
AcDbEntity
  8
RACCORDO
100
AcDbPolyline
 62
253
  6
CONTINUOUS
 90
9
 70
0
 10
11.4859623386
 20
12.6705163461
 10
11.4588289414
 20
12.6795785071
 10
11.4342863254
 20
12.6903308616
 10
11.4127529313
 20
12.7025904056
 10
11.3945958184
 20
12.7161485808
 10
11.3801250391
 20
12.7307743626
 10
11.3695879095
 20
12.7462180817
 10
11.3631609268
 20
12.7622282073
 10
11.3609623431
 20
12.7787933162
  0
LWPOLYLINE
  5
5CC
100
AcDbEntity
  8
RACCORDO
100
AcDbPolyline
 62
253
  6
CONTINUOUS
 90
9
 70
0
 10
11.4859623386
 20
13.0104902803
 10
11.4588681564
 20
13.0195374079
 10
11.4343571339
 20
13.0302694459
 10
11.4128455651
 20
13.042504122
 10
11.3946988015
 20
13.0560336429
 10
11.3802250466
 20
13.0706282241
 10
11.369670122
 20
13.0860399919
 10
11.3632132919
 20
13.1020071937
 10
11.3609623386
 20
13.1187434557
  0
LWPOLYLINE
  5
5CD
100
AcDbEntity
  8
RACCORDO
100
AcDbPolyline
 62
253
  6
CONTINUOUS
 90
9
 70
0
 10
-24.3674893781
 20
23.3604902803
 10
-24.3946864569
 20
23.3695768671
 10
-24.4192862034
 20
23.3803651743
 10
-24.4408642282
 20
23.3926720767
 10
-24.4590490776
 20
23.4062896798
 10
-24.4735223561
 20
23.4209842601
 10
-24.4840286377
 20
23.4364991304
 10
-24.4903965323
 20
23.4526031114
 10
-24.4924883061
 20
23.4683774062
  0
LWPOLYLINE
  5
5CE
100
AcDbEntity
  8
RACCORDO
100
AcDbPolyline
 62
253
  6
CONTINUOUS
 90
9
 70
0
 10
-4.8819177929
 20
17.7354902803
 10
-4.9091148717
 20
17.7445768671
 10
-4.9337146182
 20
17.7553651743
 10
-4.955292643
 20
17.7676720767
 10
-4.9734774925
 20
17.7812896798
 10
-4.9879507709
 20
17.7959842601
 10
-4.9984570525
 20
17.8114991304
 10
-5.0048249472
 20
17.8276031114
 10
-5.006916721
 20
17.8433774062
  0
LWPOLYLINE
  5
5CF
100
AcDbEntity
  8
RACCORDO
100
AcDbPolyline
 62
7
  6
CONTINUOUS
 90
12
 70
0
 10
-7.9439361255
 20
18.1635742192
 10
-7.9682918033
 20
18.1719866616
 10
-7.9923914305
 20
18.1832538057
 10
-8.015266352
 20
18.1970920466
 10
-8.0365529023
 20
18.2133115903
 10
-8.0560151138
 20
18.2317465252
 10
-8.07350126
 20
18.2523034627
 10
-8.0887660519
 20
18.2747855699
 10
-8.1015574785
 20
18.2989148828
 10
-8.1117008972
 20
18.3244754538
 10
-8.119012054
 20
18.3511646985
 10
-8.1233428314
 20
18.378638628
  0
LWPOLYLINE
  5
5D0
100
AcDbEntity
  8
RACCORDO
100
AcDbPolyline
 62
7
  6
CONTINUOUS
 90
12
 70
0
 10
-4.8262446718
 20
17.2635742192
 10
-4.8506003496
 20
17.2719866616
 10
-4.8746999769
 20
17.2832538057
 10
-4.8975748984
 20
17.2970920466
 10
-4.9188614487
 20
17.3133115903
 10
-4.9383236601
 20
17.3317465252
 10
-4.9558098064
 20
17.3523034627
 10
-4.9710745983
 20
17.3747855699
 10
-4.9838660249
 20
17.3989148828
 10
-4.9940094436
 20
17.4244754538
 10
-5.0013206003
 20
17.4511646985
 10
-5.0056513778
 20
17.478638628
  0
LWPOLYLINE
  5
5D1
100
AcDbEntity
  8
RACCORDO
100
AcDbPolyline
 62
7
  6
CONTINUOUS
 90
12
 70
0
 10
11.5416354597
 20
12.5385742192
 10
11.5172797819
 20
12.5469866616
 10
11.4931801546
 20
12.5582538057
 10
11.4703052331
 20
12.5720920466
 10
11.4490186829
 20
12.5883115903
 10
11.4295564714
 20
12.6067465252
 10
11.4120703252
 20
12.6273034627
 10
11.3968055332
 20
12.6497855699
 10
11.3840141066
 20
12.6739148828
 10
11.3738706879
 20
12.6994754538
 10
11.3665595312
 20
12.7261646985
 10
11.3622287538
 20
12.753638628
  0
LWPOLYLINE
  5
5D2
100
AcDbEntity
  8
RACCORDO
100
AcDbPolyline
 62
7
  6
CONTINUOUS
 90
13
 70
0
 10
-21.0428260796
 20
24.5448968625
 10
-21.0172618493
 20
24.5359914348
 10
-20.9926964238
 20
24.5243123417
 10
-20.9694831324
 20
24.5099904886
 10
-20.9480253097
 20
24.49327456
 10
-20.9285307867
 20
24.4743483303
 10
-20.9110791738
 20
24.4532477295
 10
-20.8959102804
 20
24.430141853
 10
-20.8833437252
 20
24.4054094478
 10
-20.8735760544
 20
24.3793771241
 10
-20.8667462286
 20
24.3523523678
 10
-20.8629668588
 20
24.3247291471
 10
-20.8621636084
 20
24.304727614
  0
LINE
  5
5D3
100
AcDbEntity
  8
RACCORDO
100
AcDbLine
 62
253
  6
CONTINUOUS
 10
-21.0837078474
 20
24.5121601624
 11
-21.1114363877
 21
24.5218371067
  0
LINE
  5
5D4
100
AcDbEntity
  8
RACCORDO
100
AcDbLine
 62
253
  6
CONTINUOUS
 10
-4.7152088959
 20
19.7869032569
 11
-4.7435562562
 21
19.7968371067
  0
LINE
  5
5D5
100
AcDbEntity
  8
RACCORDO
100
AcDbLine
 62
7
  6
CONTINUOUS
 10
17.135007932
 20
15.4674885865
 11
17.135007932
 21
15.4888426205
  0
LINE
  5
5D6
100
AcDbEntity
  8
RACCORDO
100
AcDbLine
 62
253
  6
CONTINUOUS
 10
17.6187401097
 20
16.4376079858
 11
17.6187401097
 21
15.9327203396
  0
LINE
  5
5D7
100
AcDbEntity
  8
RACCORDO
100
AcDbLine
 62
7
  6
CONTINUOUS
 10
17.6814302561
 20
16.6187330391
 11
17.6814302561
 21
16.0557379301
  0
LWPOLYLINE
  5
5D8
100
AcDbEntity
  8
RACCORDO
100
AcDbPolyline
 62
7
  6
CONTINUOUS
 90
8
 70
0
 10
15.0791313213
 20
-26.4618267579
 10
15.0762896422
 20
-26.505988255
 10
15.0689884194
 20
-26.5483198144
 10
15.0572955428
 20
-26.5883832427
 10
15.0413178692
 20
-26.6257701834
 10
15.021222498
 20
-26.660087611
 10
14.9972350236
 20
-26.6909618403
 10
14.9684701618
 20
-26.719035668
  0
LWPOLYLINE
  5
5D9
100
AcDbEntity
  8
RACCORDO
100
AcDbPolyline
 62
253
  6
CONTINUOUS
 90
5
 70
0
 10
14.9912881124
 20
-28.0399661967
 10
14.9893429178
 20
-28.055525426
 10
14.9831499424
 20
-28.071596602
 10
14.97281462
 20
-28.0871204575
 10
14.9585180159
 20
-28.1018316955
  0
LWPOLYLINE
  5
5DA
100
AcDbEntity
  8
RACCORDO
100
AcDbPolyline
 62
253
  6
CONTINUOUS
 90
5
 70
0
 10
14.9912881125
 20
-27.6924310243
 10
14.9892893499
 20
-27.7082058954
 10
14.9830804274
 20
-27.7241976594
 10
14.9727649167
 20
-27.7396499006
 10
14.9585180159
 20
-27.7543001787
  0
LWPOLYLINE
  5
5DB
100
AcDbEntity
  8
RACCORDO
100
AcDbPolyline
 62
7
  6
CONTINUOUS
 90
25
 70
0
 10
7.1714972698
 20
-16.1745740359
 10
7.442961894
 20
-15.9098658716
 10
7.6992627831
 20
-15.6302665672
 10
7.9404147634
 20
-15.3357632339
 10
8.1669372795
 20
-15.0256047545
 10
8.3783427578
 20
-14.7005146424
 10
8.5731320087
 20
-14.3626950963
 10
8.7510628265
 20
-14.0122478916
 10
8.9124019691
 20
-13.6490503598
 10
9.056406448
 20
-13.2749744589
 10
9.1830015383
 20
-12.8900513137
 10
9.2922808002
 20
-12.4942341301
 10
9.3837471165
 20
-12.0892837649
 10
9.4573735985
 20
-11.6752386465
 10
9.5131999538
 20
-11.2520500813
 10
9.5508226735
 20
-10.8213537376
 10
9.5701779059
 20
-10.3827736526
 10
9.5713368348
 20
-9.9366803819
 10
9.5540904246
 20
-9.4858363609
 10
9.5182054502
 20
-9.0300016521
 10
9.4639122702
 20
-8.5694195884
 10
9.3916862999
 20
-8.1075868751
 10
9.3014310485
 20
-7.6449206378
 10
9.1932278145
 20
-7.1810175954
 10
9.0678093842
 20
-6.7181517532
  0
LWPOLYLINE
  5
5DC
100
AcDbEntity
  8
0
100
AcDbPolyline
 62
7
  6
CONTINUOUS
 90
3
 70
0
 10
2.8904228842
 20
-20.4618317817
 10
2.8641625515
 20
-20.4860299441
 10
2.8164292984
 20
-20.5391206653
  0
LINE
  5
5DD
100
AcDbEntity
  8
0
100
AcDbLine
 62
7
  6
CONTINUOUS
 10
4.2024377167
 20
-21.9701062554
 11
4.1815128602
 21
-21.989257731
  0
LINE
  5
5DE
100
AcDbEntity
  8
RACCORDO
100
AcDbLine
 62
253
  6
CONTINUOUS
 10
6.5715698246
 20
-16.2281401808
 11
6.4033915351
 21
-16.3737868518
  0
LINE
  5
5DF
100
AcDbEntity
  8
0
100
AcDbLine
 62
7
  6
CONTINUOUS
 10
2.856467847
 20
-20.4910332443
 11
2.8565904449
 21
-20.4909273355
  0
LWPOLYLINE
  5
5E0
100
AcDbEntity
  8
RACCORDO
100
AcDbPolyline
 62
7
  6
CONTINUOUS
 90
14
 70
0
 10
7.1435124949
 20
-16.2002244169
 10
6.8083532903
 20
-16.4858632534
 10
6.4569595665
 20
-16.7481054193
 10
6.0893039263
 20
-16.9869750366
 10
5.7044050471
 20
-17.2029237212
 10
5.3031942272
 20
-17.3955440699
 10
4.8885124284
 20
-17.5635722952
 10
4.4602494606
 20
-17.706856764
 10
4.01846873
 20
-17.8255907868
 10
3.5662698466
 20
-17.9190296337
 10
3.1035690757
 20
-17.9870179128
 10
2.6304113073
 20
-18.0297458253
 10
2.1500895607
 20
-18.0469866557
 10
1.9968411689
 20
-18.0470986017
  0
LWPOLYLINE
  5
5E1
100
AcDbEntity
  8
0
100
AcDbPolyline
 62
7
  6
CONTINUOUS
 90
3
 70
0
 10
2.8565733253
 20
-20.4909427479
 10
2.8775248774
 20
-20.4739174908
 10
2.9227371859
 20
-20.4434143841
  0
LINE
  5
5E2
100
AcDbEntity
  8
RACCORDO
100
AcDbLine
 62
7
  6
CONTINUOUS
 10
6.7492496908
 20
-16.1367486196
 11
6.895700189
 21
-16.0191790536
  0
LWPOLYLINE
  5
5E3
100
AcDbEntity
  8
RACCORDO
100
AcDbPolyline
 62
7
  6
CONTINUOUS
 90
5
 70
0
 10
6.8897873767
 20
-16.1809799038
 10
6.8676438756
 20
-16.1985227529
 10
6.8421799027
 20
-16.21582955
 10
6.814611817
 20
-16.2322797601
 10
6.7849129557
 20
-16.2481947884
  0
LWPOLYLINE
  5
5E4
100
AcDbEntity
  8
RACCORDO
100
AcDbPolyline
 62
253
  6
CONTINUOUS
 90
6
 70
0
 10
6.6030990166
 20
-16.1775907625
 10
6.6416964075
 20
-16.1554020201
 10
6.6785688737
 20
-16.1297832432
 10
6.713406852
 20
-16.1009495145
 10
6.7459178598
 20
-16.069142908
 10
6.7758289507
 20
-16.0346304561
  0
LWPOLYLINE
  5
5E5
100
AcDbEntity
  8
0
100
AcDbPolyline
 62
7
  6
CONTINUOUS
 90
3
 70
0
 10
-1.9471592632
 20
-20.6654350584
 10
-1.885082501
 20
-20.6299542164
 10
-1.8276858023
 20
-20.5892044057
  0
LWPOLYLINE
  5
5E6
100
AcDbEntity
  8
RACCORDO
100
AcDbPolyline
 62
7
  6
CONTINUOUS
 90
9
 70
0
 10
6.7849129557
 20
-16.2481947884
 10
6.7533539867
 20
-16.2634411848
 10
6.7200382197
 20
-16.2780728554
 10
6.6851341027
 20
-16.2921807172
 10
6.6489339802
 20
-16.3055826515
 10
6.6118495248
 20
-16.3182046945
 10
6.5736814918
 20
-16.3302686449
 10
6.5337559404
 20
-16.3418993796
 10
6.4918860685
 20
-16.3530651297
  0
LWPOLYLINE
  5
5E7
100
AcDbEntity
  8
RACCORDO
100
AcDbPolyline
 62
7
  6
CONTINUOUS
 90
4
 70
0
 10
6.6176298607
 20
-16.2127830012
 10
6.662770818
 20
-16.1925849347
 10
6.7057514319
 20
-16.1679907004
 10
6.7492410547
 20
-16.1367555524
  0
LINE
  5
5E8
100
AcDbEntity
  8
RACCORDO
100
AcDbLine
 62
253
  6
CONTINUOUS
 10
-1.7844806906
 20
-20.4949075284
 11
-1.7169301183
 21
-20.4647351716
  0
LWPOLYLINE
  5
5E9
100
AcDbEntity
  8
RACCORDO
100
AcDbPolyline
 62
7
  6
CONTINUOUS
 90
3
 70
0
 10
-1.6939571628
 20
-20.4487330609
 10
-1.7648442491
 20
-20.4789781049
 10
-1.8392606297
 20
-20.5011809073
  0
LWPOLYLINE
  5
5EA
100
AcDbEntity
  8
ASSI
100
AcDbPolyline
 62
7
  6
CONTINUOUS
 90
4
 70
0
 10
5.3974589515
 20
20.1782833595
 10
5.4190440909
 20
20.1843221234
 10
5.4429384465
 20
20.1871534057
 10
5.4689815073
 20
20.1866396238
  0
LWPOLYLINE
  5
5EB
100
AcDbEntity
  8
ASSI
100
AcDbPolyline
 62
7
  6
CONTINUOUS
 90
3
 70
0
 10
12.2710073546
 20
18.2227650191
 10
12.2990461419
 20
18.2190150959
 10
12.3286047258
 20
18.2119791171
  0
LINE
  5
5EC
100
AcDbEntity
  8
RACCORDO
100
AcDbLine
 62
7
  6
CONTINUOUS
 10
-22.6532937889
 20
22.4125811907
 11
-22.2099531298
 21
22.3525005835
  0
LINE
  5
5ED
100
AcDbEntity
  8
RACCORDO
100
AcDbLine
 62
253
  6
CONTINUOUS
 10
-22.4039457162
 20
22.5971879654
 11
-21.8989073278
 21
22.5287462098
  0
LWPOLYLINE
  5
5EE
100
AcDbEntity
  8
RACCORDO
100
AcDbPolyline
 62
7
  6
CONTINUOUS
 90
10
 70
0
 10
-22.6532937889
 20
22.4125811907
 10
-22.6573808658
 20
22.4131694752
 10
-22.6614624633
 20
22.4138259943
 10
-22.665536944
 20
22.4145507167
 10
-22.6696034332
 20
22.4153437145
 10
-22.6736594211
 20
22.416204699
 10
-22.6777008492
 20
22.4171328994
 10
-22.6817252756
 20
22.4181277343
 10
-22.6857317856
 20
22.4191889269
 10
-22.6890592986
 20
22.4201246344
  0
LWPOLYLINE
  5
5EF
100
AcDbEntity
  8
RACCORDO
100
AcDbPolyline
 62
253
  6
CONTINUOUS
 90
6
 70
0
 10
-4.6749981569
 20
19.8199119011
 10
-4.6819933551
 20
19.8213588691
 10
-4.6966288615
 20
19.8211299607
 10
-4.7119309767
 20
19.8168517376
 10
-4.7276626375
 20
19.8086825819
 10
-4.7435562562
 20
19.7968371067
  0
LWPOLYLINE
  5
5F0
100
AcDbEntity
  8
RACCORDO
100
AcDbPolyline
 62
253
  6
CONTINUOUS
 90
6
 70
0
 10
-6.3128815134
 20
20.2927280995
 10
-6.3198767116
 20
20.2941750675
 10
-6.3345122181
 20
20.2939461591
 10
-6.3498143332
 20
20.289667936
 10
-6.365545994
 20
20.2814987803
 10
-6.3814396127
 20
20.2696533051
  0
LWPOLYLINE
  5
5F1
100
AcDbEntity
  8
RACCORDO
100
AcDbPolyline
 62
253
  6
CONTINUOUS
 90
6
 70
0
 10
-1.5572544945
 20
18.9198968625
 10
-1.5636726292
 20
18.9212731516
 10
-1.5782531488
 20
18.9212296886
 10
-1.5936546533
 20
18.9170841765
 10
-1.6096155643
 20
18.9089070224
 10
-1.6258648026
 20
18.8968371067
  0
LWPOLYLINE
  5
5F2
100
AcDbEntity
  8
RACCORDO
100
AcDbPolyline
 62
253
  6
CONTINUOUS
 90
6
 70
0
 10
-3.195137851
 20
19.3927130609
 10
-3.2015559857
 20
19.39408935
 10
-3.2161365053
 20
19.394045887
 10
-3.2315380098
 20
19.3899003749
 10
-3.2474989209
 20
19.3817232208
 10
-3.2637481591
 20
19.3696533051
  0
LWPOLYLINE
  5
5F3
100
AcDbEntity
  8
RACCORDO
100
AcDbPolyline
 62
253
  6
CONTINUOUS
 90
6
 70
0
 10
-21.0428260796
 20
24.5448968625
 10
-21.0492442143
 20
24.5462731516
 10
-21.063824734
 20
24.5462296886
 10
-21.0792262385
 20
24.5420841765
 10
-21.0951871495
 20
24.5339070224
 10
-21.1114363877
 20
24.5218371067
  0
LWPOLYLINE
  5
5F4
100
AcDbEntity
  8
RACCORDO
100
AcDbPolyline
 62
253
  6
CONTINUOUS
 90
6
 70
0
 10
-22.6807094362
 20
25.0177130609
 10
-22.6871275709
 20
25.01908935
 10
-22.7017080905
 20
25.019045887
 10
-22.717109595
 20
25.0149003749
 10
-22.733070506
 20
25.0067232208
 10
-22.7493197443
 20
24.9946533051
  0
LWPOLYLINE
  5
5F5
100
AcDbEntity
  8
RACCORDO
100
AcDbPolyline
 62
7
  6
CONTINUOUS
 90
8
 70
0
 10
-3.6432614948
 20
19.0491430686
 10
-3.6716088454
 20
19.0553707525
 10
-3.6994587445
 20
19.0577983966
 10
-3.726334693
 20
19.056384465
 10
-3.751776855
 20
19.0511531502
 10
-3.7753499272
 20
19.042193957
 10
-3.7966505874
 20
19.0296601713
 10
-3.805891525
 20
19.0224920674
  0
LWPOLYLINE
  5
5F6
100
AcDbEntity
  8
RACCORDO
100
AcDbPolyline
 62
253
  6
CONTINUOUS
 90
8
 70
0
 10
-24.2432165945
 20
23.6846163548
 10
-24.2715639548
 20
23.6908440302
 10
-24.2994138624
 20
23.6932716667
 10
-24.3262898183
 20
23.6918577286
 10
-24.3517319871
 20
23.6866264077
 10
-24.375305065
 20
23.6776672094
 10
-24.3966057274
 20
23.6651334217
 10
-24.4084831943
 20
23.6556820899
  0
LWPOLYLINE
  5
5F7
100
AcDbEntity
  8
RACCORDO
100
AcDbPolyline
 62
7
  6
CONTINUOUS
 90
8
 70
0
 10
-6.7609529485
 20
19.9491430686
 10
-6.789300299
 20
19.9553707525
 10
-6.8171501981
 20
19.9577983966
 10
-6.8440261466
 20
19.956384465
 10
-6.8694683086
 20
19.9511531502
 10
-6.8930413809
 20
19.942193957
 10
-6.914342041
 20
19.9296601713
 10
-6.9235829787
 20
19.9224920674
  0
LWPOLYLINE
  5
5F8
100
AcDbEntity
  8
RACCORDO
100
AcDbPolyline
 62
7
  6
CONTINUOUS
 90
8
 70
0
 10
-23.12883308
 20
24.6741430686
 10
-23.1571804305
 20
24.6803707525
 10
-23.1850303296
 20
24.6827983966
 10
-23.2119062781
 20
24.681384465
 10
-23.2373484401
 20
24.6761531502
 10
-23.2609215124
 20
24.667193957
 10
-23.2822221725
 20
24.6546601713
 10
-23.2914631102
 20
24.6474920674
  0
LWPOLYLINE
  5
5F9
100
AcDbEntity
  8
RACCORDO
100
AcDbPolyline
 62
7
  6
CONTINUOUS
 90
8
 70
0
 10
-3.195137851
 20
19.3927130609
 10
-3.2252016025
 20
19.3994164281
 10
-3.2559286622
 20
19.4023745272
 10
-3.2868555229
 20
19.4015170732
 10
-3.3177014719
 20
19.3967890542
 10
-3.3478198747
 20
19.3882191408
 10
-3.3763470802
 20
19.376093462
 10
-3.4030930174
 20
19.3605716398
  0
LWPOLYLINE
  5
5FA
100
AcDbEntity
  8
RACCORDO
100
AcDbPolyline
 62
7
  6
CONTINUOUS
 90
8
 70
0
 10
-22.6807094362
 20
25.0177130609
 10
-22.7107731877
 20
25.0244164281
 10
-22.7415002474
 20
25.0273745272
 10
-22.772427108
 20
25.0265170732
 10
-22.8032730571
 20
25.0217890542
 10
-22.8333914599
 20
25.0132191408
 10
-22.8619186653
 20
25.001093462
 10
-22.8886646025
 20
24.9855716398
  0
LWPOLYLINE
  5
5FB
100
AcDbEntity
  8
RACCORDO
100
AcDbPolyline
 62
253
  6
CONTINUOUS
 90
8
 70
0
 10
-6.3814396127
 20
20.2696533051
 10
-6.4096095843
 20
20.2760346036
 10
-6.4373100229
 20
20.2785916841
 10
-6.4640669868
 20
20.277280796
 10
-6.4894226766
 20
20.2721243681
 10
-6.512943268
 20
20.2632106245
 10
-6.5342263347
 20
20.2506920752
 10
-6.5434715251
 20
20.2435202937
  0
LWPOLYLINE
  5
5FC
100
AcDbEntity
  8
RACCORDO
100
AcDbPolyline
 62
253
  6
CONTINUOUS
 90
7
 70
0
 10
-3.2637481591
 20
19.3696533051
 10
-3.291302916
 20
19.3759352741
 10
-3.318605554
 20
19.3785658553
 10
-3.3451889486
 20
19.3774239143
 10
-3.3706384872
 20
19.3724346857
 10
-3.3944228052
 20
19.3636040138
 10
-3.4147751305
 20
19.3517880701
  0
LWPOLYLINE
  5
5FD
100
AcDbEntity
  8
RACCORDO
100
AcDbPolyline
 62
253
  6
CONTINUOUS
 90
7
 70
0
 10
-22.7493197443
 20
24.9946533051
 10
-22.7768745011
 20
25.0009352741
 10
-22.8041771391
 20
25.0035658553
 10
-22.8307605338
 20
25.0024239143
 10
-22.8562100723
 20
24.9974346857
 10
-22.8799943903
 20
24.9886040138
 10
-22.9003467157
 20
24.9767880701
  0
LINE
  5
5FE
100
AcDbEntity
  8
RACCORDO
100
AcDbLine
 62
7
  6
CONTINUOUS
 10
-6.3403093586
 20
20.2989917831
 11
-6.3128230825
 21
20.2927112643
  0
LWPOLYLINE
  5
5FF
100
AcDbEntity
  8
ASSI
100
AcDbPolyline
 62
7
  6
CONTINUOUS
 90
3
 70
0
 10
-9.8657089651
 20
21.641775719
 10
-9.953487565
 20
21.6630267293
 10
-9.9819298782
 20
21.6705634848
  0
LWPOLYLINE
  5
600
100
AcDbEntity
  8
0
100
AcDbPolyline
 62
7
  6
CONTINUOUS
 90
19
 70
0
 10
6.748342859
 20
17.7236610637
 10
6.6699089952
 20
17.743968148
 10
6.5895153436
 20
17.7606182184
 10
6.5071619041
 20
17.773611275
 10
6.4221954143
 20
17.7829903196
 10
6.3352691367
 20
17.7887123504
 10
6.248342859
 20
17.7906483618
 10
6.1614165814
 20
17.7887123504
 10
6.0744903038
 20
17.7829903196
 10
5.9895238139
 20
17.773611275
 10
5.9065616307
 20
17.7604921434
 10
5.8255592352
 20
17.743715998
 10
5.748342859
 20
17.7236610637
 10
5.6749985058
 20
17.7002528592
 10
5.6054401719
 20
17.6735658658
 10
5.5412360778
 20
17.6442017524
 10
5.4829089638
 20
17.6123610755
 10
5.4299360896
 20
17.5778432786
 10
5.3823174552
 20
17.5406483618
  0
LWPOLYLINE
  5
601
100
AcDbEntity
  8
0
100
AcDbPolyline
 62
7
  6
CONTINUOUS
 90
19
 70
0
 10
-12.7372287261
 20
23.3486610637
 10
-12.81566259
 20
23.368968148
 10
-12.8960562416
 20
23.3856182184
 10
-12.978409681
 20
23.398611275
 10
-13.0633761709
 20
23.4079903196
 10
-13.1503024485
 20
23.4137123504
 10
-13.2372287261
 20
23.4156483618
 10
-13.3241550038
 20
23.4137123504
 10
-13.4110812814
 20
23.4079903196
 10
-13.4960477712
 20
23.398611275
 10
-13.5790099545
 20
23.3854921434
 10
-13.66001235
 20
23.368715998
 10
-13.7372287261
 20
23.3486610637
 10
-13.8105730793
 20
23.3252528592
 10
-13.8801314132
 20
23.2985658658
 10
-13.9443355073
 20
23.2692017524
 10
-14.0026626214
 20
23.2373610755
 10
-14.0556354956
 20
23.2028432786
 10
-14.1032541299
 20
23.1656483618
  0
LWPOLYLINE
  5
602
100
AcDbEntity
  8
0
100
AcDbPolyline
 62
7
  6
CONTINUOUS
 90
19
 70
0
 10
-12.6764232705
 20
23.0406287196
 10
-12.7539427537
 20
23.060726168
 10
-12.8333987889
 20
23.0772498894
 10
-12.914791376
 20
23.090199884
 10
-12.9987505601
 20
23.0996191794
 10
-13.084646296
 20
23.1054647479
 10
-13.170588449
 20
23.1076075064
 10
-13.2565806022
 20
23.1059652729
 10
-13.3426191724
 20
23.1006202294
 10
-13.4268032745
 20
23.0916898379
 10
-13.5090914287
 20
23.079093903
 10
-13.5895251148
 20
23.0629126201
 10
-13.6663278879
 20
23.0435040383
 10
-13.7394169287
 20
23.0207971483
 10
-13.8088750564
 20
22.9948629593
 10
-13.8731742833
 20
22.9662725478
 10
-13.9318052801
 20
22.9352162727
 10
-13.985277376
 20
22.9015037752
 10
-14.0335905712
 20
22.8651350552
  0
LINE
  5
603
100
AcDbEntity
  8
RACCORDO
100
AcDbLine
 62
253
  6
CONTINUOUS
 10
13.1727485026
 20
14.6677112643
 11
13.1726900717
 21
14.6677280995
  0
LINE
  5
604
100
AcDbEntity
  8
RACCORDO
100
AcDbLine
 62
253
  6
CONTINUOUS
 10
-6.3128230825
 20
20.2927112643
 11
-6.3128815134
 21
20.2927280995
  0
LINE
  5
605
100
AcDbEntity
  8
DRAFT
100
AcDbLine
 62
7
  6
CONTINUOUS
 10
8.8944952817
 20
15.3958985417
 11
2.8323174552
 21
17.1458985417
  0
LINE
  5
606
100
AcDbEntity
  8
DRAFT
100
AcDbLine
 62
7
  6
CONTINUOUS
 10
-10.5910763034
 20
21.0208985417
 11
-16.6532541299
 21
22.7708985417
  0
LINE
  5
607
100
AcDbEntity
  8
RACCORDO
100
AcDbLine
 62
7
  6
CONTINUOUS
 10
-23.12883308
 20
24.6741430686
 11
-21.4833774849
 21
24.1991409532
  0
LINE
  5
608
100
AcDbEntity
  8
RACCORDO
100
AcDbLine
 62
7
  6
CONTINUOUS
 10
-6.7609529485
 20
19.9491430686
 11
-5.1154973533
 21
19.4741409532
  0
LINE
  5
609
100
AcDbEntity
  8
RACCORDO
100
AcDbLine
 62
7
  6
CONTINUOUS
 10
-3.6432614948
 20
19.0491430686
 11
-1.9978058997
 21
18.5741409532
  0
LINE
  5
60A
100
AcDbEntity
  8
RACCORDO
100
AcDbLine
 62
7
  6
CONTINUOUS
 10
12.7246186367
 20
14.3241430686
 11
14.3700742318
 21
13.8491409532
  0
LINE
  5
60B
100
AcDbEntity
  8
DRAFT
100
AcDbLine
 62
7
  6
CONTINUOUS
 10
6.748342859
 20
16.2975197814
 11
6.7991689173
 21
16.2828475622
  0
LINE
  5
60C
100
AcDbEntity
  8
RACCORDO
100
AcDbLine
 62
253
  6
CONTINUOUS
 10
-22.7493197443
 20
24.9946533051
 11
-21.1114363877
 21
24.5218371067
  0
LINE
  5
60D
100
AcDbEntity
  8
RACCORDO
100
AcDbLine
 62
253
  6
CONTINUOUS
 10
-6.3814396127
 20
20.2696533051
 11
-4.7435562562
 21
19.7968371067
  0
LINE
  5
60E
100
AcDbEntity
  8
RACCORDO
100
AcDbLine
 62
253
  6
CONTINUOUS
 10
-3.2637481591
 20
19.3696533051
 11
-1.6258648026
 21
18.8968371067
  0
LINE
  5
60F
100
AcDbEntity
  8
RACCORDO
100
AcDbLine
 62
253
  6
CONTINUOUS
 10
13.1041319724
 20
14.6446533051
 11
14.7420153289
 21
14.1718371067
  0
LINE
  5
610
100
AcDbEntity
  8
RACCORDO
100
AcDbLine
 62
7
  6
CONTINUOUS
 10
-22.6807094362
 20
25.0177130609
 11
-21.0428260796
 21
24.5448968625
  0
LINE
  5
611
100
AcDbEntity
  8
RACCORDO
100
AcDbLine
 62
7
  6
CONTINUOUS
 10
-6.3128293046
 20
20.2927130609
 11
-4.6749459481
 21
19.8198968625
  0
LINE
  5
612
100
AcDbEntity
  8
RACCORDO
100
AcDbLine
 62
7
  6
CONTINUOUS
 10
-3.195137851
 20
19.3927130609
 11
-1.5572544945
 21
18.9198968625
  0
LINE
  5
613
100
AcDbEntity
  8
RACCORDO
100
AcDbLine
 62
7
  6
CONTINUOUS
 10
13.1727422805
 20
14.6677130609
 11
14.810625637
 21
14.1948968625
  0
LINE
  5
614
100
AcDbEntity
  8
DRAFT
100
AcDbLine
 62
7
  6
CONTINUOUS
 10
7.376252062
 20
16.4147620787
 11
9.4017226264
 21
15.8300590909
  0
LINE
  5
615
100
AcDbEntity
  8
DRAFT
100
AcDbLine
 62
7
  6
CONTINUOUS
 10
-10.6850109102
 20
21.6285995982
 11
-14.2743830326
 21
22.6647620787
  0
LINE
  5
616
100
AcDbEntity
  8
ASSI
100
AcDbLine
 62
7
  6
CONTINUOUS
 10
-9.9819298782
 20
21.7738519346
 11
-9.7796316608
 21
21.7154534694
  0
LINE
  5
617
100
AcDbEntity
  8
ASSI
100
AcDbLine
 62
7
  6
CONTINUOUS
 10
6.7991689173
 20
16.9295659811
 11
7.6869316894
 21
16.6732909434
  0
LINE
  5
618
100
AcDbEntity
  8
DRAFT
100
AcDbLine
 62
7
  6
CONTINUOUS
 10
-0.4504375078
 20
19.1350860538
 11
-3.3083213403
 21
19.9600860538
  0
LINE
  5
619
100
AcDbEntity
  8
0
100
AcDbLine
 62
7
  6
CONTINUOUS
 10
8.12317103
 20
17.0363030354
 11
10.1331052155
 21
16.4560850139
  0
LINE
  5
61A
100
AcDbEntity
  8
0
100
AcDbLine
 62
7
  6
CONTINUOUS
 10
-9.9819298782
 20
22.2627954769
 11
-12.6764232705
 21
23.0406287196
  0
LINE
  5
61B
100
AcDbEntity
  8
ASSI
100
AcDbLine
 62
7
  6
CONTINUOUS
 10
-12.7372287261
 20
23.3486610637
 11
-9.0986892502
 21
22.2983051908
  0
LINE
  5
61C
100
AcDbEntity
  8
ASSI
100
AcDbLine
 62
7
  6
CONTINUOUS
 10
6.748342859
 20
17.7236610637
 11
10.3868823349
 21
16.6733051908
  0
LINE
  5
61D
100
AcDbEntity
  8
0
100
AcDbLine
 62
7
  6
CONTINUOUS
 10
6.3153301571
 20
17.8486610637
 11
5.8823174552
 21
17.9736610637
  0
LINE
  5
61E
100
AcDbEntity
  8
0
100
AcDbLine
 62
7
  6
CONTINUOUS
 10
-13.170241428
 20
23.4736610637
 11
-13.6032541299
 21
23.5986610637
  0
LINE
  5
61F
100
AcDbEntity
  8
DRAFT
100
AcDbLine
 62
7
  6
CONTINUOUS
 10
-13.6032541299
 20
24.1587769422
 11
-13.170241428
 21
24.0337769422
  0
LINE
  5
620
100
AcDbEntity
  8
DRAFT
100
AcDbLine
 62
7
  6
CONTINUOUS
 10
5.8823174552
 20
18.5337769422
 11
6.3153301571
 21
18.4087769422
  0
LINE
  5
621
100
AcDbEntity
  8
DRAFT
100
AcDbLine
 62
7
  6
CONTINUOUS
 10
-17.0465994578
 20
25.4807344277
 11
-16.7068253036
 21
25.382650078
  0
LINE
  5
622
100
AcDbEntity
  8
DRAFT
100
AcDbLine
 62
7
  6
CONTINUOUS
 10
19.2878406096
 20
14.9918850508
 11
18.6788964885
 21
15.167672077
  0
LINE
  5
623
100
AcDbEntity
  8
0
100
AcDbLine
 62
7
  6
CONTINUOUS
 10
11.3839665374
 20
17.5267580449
 11
7.3037130603
 21
18.7046257666
  0
LINE
  5
624
100
AcDbEntity
  8
0
100
AcDbLine
 62
7
  6
CONTINUOUS
 10
-8.1016050477
 20
23.1517580449
 11
-12.1818585248
 21
24.3296257666
  0
LWPOLYLINE
  5
625
100
AcDbEntity
  8
RACCORDO
100
AcDbPolyline
 62
7
  6
CONTINUOUS
 90
13
 70
0
 10
-1.5572544945
 20
18.9198968625
 10
-1.5316902642
 20
18.9109914348
 10
-1.5071248386
 20
18.8993123417
 10
-1.4839115473
 20
18.8849904886
 10
-1.4624537246
 20
18.86827456
 10
-1.4429592016
 20
18.8493483303
 10
-1.4255075886
 20
18.8282477295
 10
-1.4103386952
 20
18.805141853
 10
-1.39777214
 20
18.7804094478
 10
-1.3880044692
 20
18.7543771241
 10
-1.3811746435
 20
18.7273523678
 10
-1.3773952737
 20
18.6997291471
 10
-1.3765920232
 20
18.679727614
  0
LINE
  5
626
100
AcDbEntity
  8
RACCORDO
100
AcDbLine
 62
253
  6
CONTINUOUS
 10
-1.5981362622
 20
18.8871601624
 11
-1.6258648026
 21
18.8968371067
  0
LINE
  5
627
100
AcDbEntity
  8
RACCORDO
100
AcDbLine
 62
253
  6
CONTINUOUS
 10
14.7703626892
 20
14.1619032569
 11
14.7420153289
 21
14.1718371067
  0
LWPOLYLINE
  5
628
100
AcDbEntity
  8
ASSI
100
AcDbPolyline
 62
7
  6
CONTINUOUS
 90
3
 70
0
 10
7.6190486141
 20
16.6168027386
 10
7.227637278
 20
16.7602713231
 10
6.7991689173
 20
16.9295659811
  0
LINE
  5
629
100
AcDbEntity
  8
ASSI
100
AcDbLine
 62
7
  6
CONTINUOUS
 10
6.1756695656
 20
19.988085407
 11
6.1755540556
 21
19.9882120395
  0
LWPOLYLINE
  5
62A
100
AcDbEntity
  8
RACCORDO
100
AcDbPolyline
 62
253
  6
CONTINUOUS
 90
4
 70
0
 10
14.9422585519
 20
13.9806368908
 10
14.9297758777
 20
14.0096891864
 10
14.9140682643
 20
14.0378007215
 10
14.8954044618
 20
14.0644905207
  0
LWPOLYLINE
  5
62B
100
AcDbEntity
  8
RACCORDO
100
AcDbPolyline
 62
253
  6
CONTINUOUS
 90
5
 70
0
 10
14.9585180159
 20
13.5453039607
 10
14.9646964701
 20
13.5285923583
 10
14.9671210991
 20
13.5131693412
 10
14.9657260965
 20
13.4993048314
 10
14.9622197021
 20
13.4901721279
  0
LINE
  5
62C
100
AcDbEntity
  8
DRAFT
100
AcDbLine
 62
7
  6
CONTINUOUS
 10
20.9196572949
 20
18.551058272
 11
20.9196572949
 21
18.4990748236
  0
LWPOLYLINE
  5
62D
100
AcDbEntity
  8
RACCORDO
100
AcDbPolyline
 62
253
  6
CONTINUOUS
 90
4
 70
0
 10
14.9585180159
 20
-27.7543001787
 10
14.9646964701
 20
-27.7224971728
 10
14.9671210991
 20
-27.690117665
 10
14.9657260965
 20
-27.6577067381
  0
LINE
  5
62E
100
AcDbEntity
  8
0
100
AcDbLine
 62
7
  6
CONTINUOUS
 10
4.1822601625
 20
-21.9886137385
 11
4.1815264432
 21
-21.9892464004
  0
LWPOLYLINE
  5
62F
100
AcDbEntity
  8
0
100
AcDbPolyline
 62
253
  6
CONTINUOUS
 90
26
 70
0
 10
4.1815264432
 20
-21.9892464004
 10
4.1702261064
 20
-21.9987093535
 10
4.1418309787
 20
-22.0203361288
 10
4.1130186664
 20
-22.0394994059
 10
4.0838730439
 20
-22.0564013356
 10
4.0545517981
 20
-22.0711735762
 10
4.0252285332
 20
-22.08393827
 10
3.9959685041
 20
-22.0948562965
 10
3.9669122484
 20
-22.1040474897
 10
3.9381666625
 20
-22.1116394709
 10
3.9097149842
 20
-22.1177774552
 10
3.881720182
 20
-22.1225580684
 10
3.8541951304
 20
-22.126103774
 10
3.8268621027
 20
-22.1285397739
 10
3.7996794144
 20
-22.1299336196
 10
3.7727922042
 20
-22.1303389662
 10
3.7461789941
 20
-22.1298110361
 10
3.7197881939
 20
-22.1283949082
 10
3.6937495479
 20
-22.1261506703
 10
3.6683105502
 20
-22.1231689899
 10
3.6435016913
 20
-22.1195279712
 10
3.6193579577
 20
-22.1152972752
 10
3.5961335859
 20
-22.1105926584
 10
3.573928547
 20
-22.1055173343
 10
3.5526865822
 20
-22.1001403
 10
3.5324231692
 20
-22.0945394031
  0
LINE
  5
630
100
AcDbEntity
  8
0
100
AcDbLine
 62
7
  6
CONTINUOUS
 10
4.1714985933
 20
-21.9962384805
 11
4.1928332586
 21
-21.978896736
  0
LWPOLYLINE
  5
631
100
AcDbEntity
  8
0
100
AcDbPolyline
 62
7
  6
CONTINUOUS
 90
7
 70
0
 10
2.9227371859
 20
-20.4434143841
 10
2.9720578564
 20
-20.4179278125
 10
3.0254015939
 20
-20.3975864135
 10
3.0823737216
 20
-20.382642959
 10
3.1422161244
 20
-20.3733126959
 10
3.2045370741
 20
-20.3696118962
 10
3.2687403132
 20
-20.3715070133
  0
LWPOLYLINE
  5
632
100
AcDbEntity
  8
0
100
AcDbPolyline
 62
253
  6
CONTINUOUS
 90
17
 70
0
 10
2.8676850954
 20
-20.3510341801
 10
2.8983089161
 20
-20.3406316524
 10
2.9286414234
 20
-20.3318409456
 10
2.9585901797
 20
-20.3245418764
 10
2.9881254304
 20
-20.3186178488
 10
3.0172776298
 20
-20.3139540293
 10
3.0459270563
 20
-20.3104560339
 10
3.0740918049
 20
-20.3080197011
 10
3.102027219
 20
-20.3065620031
 10
3.1296532269
 20
-20.3060253326
 10
3.1569366888
 20
-20.3063434728
 10
3.1841539525
 20
-20.3074759694
 10
3.2113468605
 20
-20.3094143098
 10
3.2381507856
 20
-20.3120904805
 10
3.2643971022
 20
-20.3154273446
 10
3.2903751846
 20
-20.3194295585
 10
3.316055563
 20
-20.3240888853
  0
LWPOLYLINE
  5
633
100
AcDbEntity
  8
RACCORDO
100
AcDbPolyline
 62
7
  6
CONTINUOUS
 90
8
 70
0
 10
-10.8021223162
 20
20.0429218349
 10
-10.8427791918
 20
20.03327604
 10
-10.8833118651
 20
20.0208583124
 10
-10.9234423973
 20
20.0067025924
 10
-10.9630802827
 20
19.9920183302
 10
-11.0021160826
 20
19.9773526263
 10
-11.0402922922
 20
19.962438921
 10
-11.0775767858
 20
19.9475956788
  0
LWPOLYLINE
  5
634
100
AcDbEntity
  8
ASSI
100
AcDbPolyline
 62
7
  6
CONTINUOUS
 90
3
 70
0
 10
-7.2145642305
 20
23.8477650191
 10
-7.1865254432
 20
23.8440150959
 10
-7.1569668593
 20
23.8369791171
  0
LWPOLYLINE
  5
635
100
AcDbEntity
  8
ASSI
100
AcDbPolyline
 62
7
  6
CONTINUOUS
 90
3
 70
0
 10
5.4689815073
 20
20.1866396238
 10
5.4970115606
 20
20.1827317848
 10
5.5251447408
 20
20.1759643537
  0
LWPOLYLINE
  5
636
100
AcDbEntity
  8
0
100
AcDbPolyline
 62
253
  6
CONTINUOUS
 90
3
 70
0
 10
8.2634926994
 20
19.2778148776
 10
8.2775782925
 20
19.2755417929
 10
8.3168206874
 20
19.2682233396
  0
LWPOLYLINE
  5
637
100
AcDbEntity
  8
0
100
AcDbPolyline
 62
253
  6
CONTINUOUS
 90
4
 70
0
 10
8.3168206874
 20
19.2682233396
 10
8.35336059
 20
19.2604899237
 10
8.3873903317
 20
19.2521759387
 10
8.4189099124
 20
19.2432813847
  0
LWPOLYLINE
  5
638
100
AcDbEntity
  8
RACCORDO
100
AcDbPolyline
 62
7
  6
CONTINUOUS
 90
8
 70
0
 10
8.0425470062
 20
19.7372905943
 10
8.0178374086
 20
19.7426917214
 10
7.9795652888
 20
19.7444933777
 10
7.9394036453
 20
19.7390595468
 10
7.898246259
 20
19.7265120356
 10
7.856391057
 20
19.7068914465
 10
7.8135401123
 20
19.680157177
 10
7.7696934249
 20
19.6463092273
  0
LWPOLYLINE
  5
639
100
AcDbEntity
  8
RACCORDO
100
AcDbPolyline
 62
7
  6
CONTINUOUS
 90
8
 70
0
 10
-11.443024579
 20
25.3622905943
 10
-11.4677341765
 20
25.3676917214
 10
-11.5060062964
 20
25.3694933777
 10
-11.5461679399
 20
25.3640595468
 10
-11.5873253261
 20
25.3515120356
 10
-11.6291805281
 20
25.3318914465
 10
-11.6720314728
 20
25.305157177
 10
-11.7158781603
 20
25.2713092273
  0
LINE
  5
63A
100
AcDbEntity
  8
0
100
AcDbLine
 62
7
  6
CONTINUOUS
 10
11.8244274239
 20
17.9037699359
 11
8.2653301571
 21
18.9311928185
  0
LINE
  5
63B
100
AcDbEntity
  8
0
100
AcDbLine
 62
7
  6
CONTINUOUS
 10
-7.6611441612
 20
23.5287699359
 11
-11.220241428
 21
24.5561928185
  0
LINE
  5
63C
100
AcDbEntity
  8
DRAFT
100
AcDbLine
 62
7
  6
CONTINUOUS
 10
-1.0583213403
 20
21.8406188289
 11
1.7995624922
 21
21.0156188289
  0
LINE
  5
63D
100
AcDbEntity
  8
0
100
AcDbLine
 62
253
  6
CONTINUOUS
 10
-9.3346108652
 20
24.3682813847
 11
-7.3497551837
 21
23.7953029037
  0
LINE
  5
63E
100
AcDbEntity
  8
0
100
AcDbLine
 62
253
  6
CONTINUOUS
 10
8.4189099124
 20
19.2432813847
 11
12.1358164014
 21
18.1703029037
  0
LINE
  5
63F
100
AcDbEntity
  8
ASSI
100
AcDbLine
 62
253
  6
CONTINUOUS
 10
12.8875700089
 20
17.9648891609
 11
12.1459497146
 21
18.1789764991
  0
LINE
  5
640
100
AcDbEntity
  8
ASSI
100
AcDbLine
 62
253
  6
CONTINUOUS
 10
6.0837718881
 20
19.9289764991
 11
5.3421515938
 21
20.1430638374
  0
LINE
  5
641
100
AcDbEntity
  8
ASSI
100
AcDbLine
 62
253
  6
CONTINUOUS
 10
-6.5980015763
 20
23.5898891609
 11
-7.3396218706
 21
23.8039764991
  0
LINE
  5
642
100
AcDbEntity
  8
ASSI
100
AcDbLine
 62
253
  6
CONTINUOUS
 10
-13.4017996971
 20
25.5539764991
 11
-14.1434199914
 21
25.7680638374
  0
LINE
  5
643
100
AcDbEntity
  8
ASSI
100
AcDbLine
 62
7
  6
CONTINUOUS
 10
12.9788172498
 20
18.0242800428
 11
12.3286456373
 21
18.2119684206
  0
LINE
  5
644
100
AcDbEntity
  8
ASSI
100
AcDbLine
 62
7
  6
CONTINUOUS
 10
6.1755230085
 20
19.9882219236
 11
5.5253536725
 21
20.1759096442
  0
LINE
  5
645
100
AcDbEntity
  8
ASSI
100
AcDbLine
 62
7
  6
CONTINUOUS
 10
-6.5067543353
 20
23.6492800428
 11
-7.1569259478
 21
23.8369684206
  0
LINE
  5
646
100
AcDbEntity
  8
ASSI
100
AcDbLine
 62
7
  6
CONTINUOUS
 10
-13.3100485767
 20
25.6132219236
 11
-13.9602179126
 21
25.8009096442
  0
LINE
  5
647
100
AcDbEntity
  8
RACCORDO
100
AcDbLine
 62
253
  6
CONTINUOUS
 10
-15.4645712816
 20
26.3534637187
 11
-11.7158781603
 21
25.2713092273
  0
LINE
  5
648
100
AcDbEntity
  8
RACCORDO
100
AcDbLine
 62
253
  6
CONTINUOUS
 10
-6.5197257376
 20
23.7713092273
 11
-2.7710326162
 21
22.689154736
  0
LINE
  5
649
100
AcDbEntity
  8
RACCORDO
100
AcDbLine
 62
253
  6
CONTINUOUS
 10
4.0210003035
 20
20.7284637187
 11
7.7696934249
 21
19.6463092273
  0
LINE
  5
64A
100
AcDbEntity
  8
RACCORDO
100
AcDbLine
 62
253
  6
CONTINUOUS
 10
12.9658458476
 20
18.1463092273
 11
16.7145389689
 21
17.064154736
  0
LINE
  5
64B
100
AcDbEntity
  8
RACCORDO
100
AcDbLine
 62
7
  6
CONTINUOUS
 10
-15.3380301922
 20
26.4867367566
 11
-11.4428913299
 21
25.3623070212
  0
LINE
  5
64C
100
AcDbEntity
  8
RACCORDO
100
AcDbLine
 62
7
  6
CONTINUOUS
 10
-6.2467389072
 20
23.8623070212
 11
-2.3516412572
 21
22.7378891829
  0
LINE
  5
64D
100
AcDbEntity
  8
RACCORDO
100
AcDbLine
 62
7
  6
CONTINUOUS
 10
4.1475413929
 20
20.8617367566
 11
8.0426802552
 21
19.7373070212
  0
LINE
  5
64E
100
AcDbEntity
  8
RACCORDO
100
AcDbLine
 62
7
  6
CONTINUOUS
 10
13.238832678
 20
18.2373070212
 11
17.133930328
 21
17.1128891829
  0
LINE
  5
64F
100
AcDbEntity
  8
DRAFT
100
AcDbLine
 62
7
  6
CONTINUOUS
 10
-11.3353049375
 20
25.6175688032
 11
-1.1401194873
 21
22.6744722712
  0
LINE
  5
650
100
AcDbEntity
  8
DRAFT
100
AcDbLine
 62
7
  6
CONTINUOUS
 10
3.3510251398
 20
21.3779904914
 11
17.6765460893
 21
17.2425688032
  0
LINE
  5
651
100
AcDbEntity
  8
DRAFT
100
AcDbLine
 62
7
  6
CONTINUOUS
 10
-1.109783988
 20
22.6988254249
 11
3.3510251398
 21
21.4111007496
  0
LINE
  5
652
100
AcDbEntity
  8
DRAFT
100
AcDbLine
 62
7
  6
CONTINUOUS
 10
-9.4147799254
 20
26.1623715059
 11
18.6688606941
 21
18.0553227702
  0
LWPOLYLINE
  5
653
100
AcDbEntity
  8
RACCORDO
100
AcDbPolyline
 62
253
  6
CONTINUOUS
 90
5
 70
0
 10
14.8741037994
 20
14.0893019337
 10
14.8505307215
 20
14.1118104487
 10
14.8250885527
 20
14.1316309553
 10
14.7982125969
 20
14.1484243336
 10
14.7703626892
 20
14.1619032569
  0
LINE
  5
654
100
AcDbEntity
  8
ASSI
100
AcDbLine
 62
7
  6
CONTINUOUS
 10
12.9791131554
 20
18.024097992
 11
12.9789971931
 21
18.0242228437
  0
LINE
  5
655
100
AcDbEntity
  8
RACCORDO
100
AcDbLine
 62
253
  6
CONTINUOUS
 10
14.8954044618
 20
14.0644905207
 11
14.8741037994
 21
14.0893019337
  0
LINE
  5
656
100
AcDbEntity
  8
0
100
AcDbLine
 62
7
  6
CONTINUOUS
 10
22.1140048174
 20
7.1391961629
 11
22.1140048174
 21
3.6750945477
  0
LINE
  5
657
100
AcDbEntity
  8
RACCORDO
100
AcDbLine
 62
7
  6
CONTINUOUS
 10
24.015759199
 20
19.5159115388
 11
24.015759199
 21
18.8795320714
  0
LINE
  5
658
100
AcDbEntity
  8
RACCORDO
100
AcDbLine
 62
7
  6
CONTINUOUS
 10
24.675584195
 20
20.7763044471
 11
24.675584195
 21
19.4199608632
  0
LWPOLYLINE
  5
659
100
AcDbEntity
  8
ASSI
100
AcDbPolyline
 62
7
  6
CONTINUOUS
 90
3
 70
0
 10
-14.0165900779
 20
25.8116396238
 10
-13.9885600246
 20
25.8077317848
 10
-13.9604268443
 20
25.8009643537
  0
LINE
  5
65A
100
AcDbEntity
  8
DRAFT
100
AcDbLine
 62
7
  6
CONTINUOUS
 10
21.5751032478
 20
18.3098638749
 11
19.6560210772
 21
18.8638551788
  0
LINE
  5
65B
100
AcDbEntity
  8
DRAFT
100
AcDbLine
 62
7
  6
CONTINUOUS
 10
-9.4147799254
 20
27.255872571
 11
-11.333862096
 21
27.8098638749
  0
LINE
  5
65C
100
AcDbEntity
  8
DRAFT
100
AcDbLine
 62
7
  6
CONTINUOUS
 10
-10.5784161431
 20
27.6437688612
 11
20.9196572949
 21
18.551058272
  0
LINE
  5
65D
100
AcDbEntity
  8
DRAFT
100
AcDbLine
 62
7
  6
CONTINUOUS
 10
23.8805653893
 20
18.76880176
 11
22.5902186262
 21
19.1412927855
  0
LINE
  5
65E
100
AcDbEntity
  8
DRAFT
100
AcDbLine
 62
7
  6
CONTINUOUS
 10
-10.3489774744
 20
28.6500196533
 11
-11.6393242375
 21
29.0225106788
  0
LINE
  5
65F
100
AcDbEntity
  8
RACCORDO
100
AcDbLine
 62
253
  6
CONTINUOUS
 10
24.015759199
 20
19.5159115388
 11
23.6316197669
 21
19.626803041
  0
LINE
  5
660
100
AcDbEntity
  8
RACCORDO
100
AcDbLine
 62
7
  6
CONTINUOUS
 10
19.9053936783
 20
14.196059767
 11
19.2878406096
 21
14.9918850508
  0
LWPOLYLINE
  5
661
100
AcDbEntity
  8
RACCORDO
100
AcDbPolyline
 62
7
  6
CONTINUOUS
 90
7
 70
0
 10
20.1655437134
 20
13.7778973137
 10
20.1289055902
 20
13.8503284323
 10
20.0895793806
 20
13.9216646004
 10
20.0475650846
 20
13.9919058179
 10
20.0028627022
 20
14.0610520848
 10
19.9554722334
 20
14.1291034012
 10
19.9053936783
 20
14.196059767
  0
LINE
  5
662
100
AcDbEntity
  8
RACCORDO
100
AcDbLine
 62
7
  6
CONTINUOUS
 10
26.5375388131
 20
8.2339568922
 11
26.5375388131
 21
11.8205464397
  0
LINE
  5
663
100
AcDbEntity
  8
RACCORDO
100
AcDbLine
 62
253
  6
CONTINUOUS
 10
27.4076970276
 20
19.2941315275
 11
27.4076970276
 21
12.7414199771
  0
LINE
  5
664
100
AcDbEntity
  8
RACCORDO
100
AcDbLine
 62
253
  6
CONTINUOUS
 10
27.4076970276
 20
7.6229442824
 11
27.4076970276
 21
-12.0933534055
  0
LINE
  5
665
100
AcDbEntity
  8
RACCORDO
100
AcDbLine
 62
7
  6
CONTINUOUS
 10
27.5330773205
 20
19.5365363376
 11
27.5330773205
 21
13.0203363376
  0
LINE
  5
666
100
AcDbEntity
  8
RACCORDO
100
AcDbLine
 62
7
  6
CONTINUOUS
 10
27.5330773205
 20
7.8288375422
 11
27.5330773205
 21
-11.8509485803
  0
LWPOLYLINE
  5
667
100
AcDbEntity
  8
RACCORDO
100
AcDbPolyline
 62
253
  6
CONTINUOUS
 90
7
 70
0
 10
27.5330773205
 20
19.5365363376
 10
27.5302914595
 20
19.4992403566
 10
27.5201515012
 20
19.4564043189
 10
27.5026652203
 20
19.4141646656
 10
27.477962759
 20
19.3728357664
 10
27.4462279657
 20
19.3327252124
 10
27.4076970276
 20
19.2941315275
  0
LINE
  5
668
100
AcDbEntity
  8
RACCORDO
100
AcDbLine
 62
253
  6
CONTINUOUS
 10
13.6131391198
 20
-28.0408005676
 11
13.1712305299
 21
-28.8559140315
  0
LINE
  5
669
100
AcDbEntity
  8
RACCORDO
100
AcDbLine
 62
253
  6
CONTINUOUS
 10
13.9545443889
 20
-28.1208579296
 11
13.4495060004
 21
-29.052416174
  0
LINE
  5
66A
100
AcDbEntity
  8
RACCORDO
100
AcDbLine
 62
253
  6
CONTINUOUS
 10
27.4076970276
 20
-12.0933534055
 11
15.5195896207
 21
-22.8167101464
  0
LINE
  5
66B
100
AcDbEntity
  8
0
100
AcDbLine
 62
7
  6
CONTINUOUS
 10
-11.220241428
 20
24.5561928185
 11
-12.1818585248
 21
24.3296257666
  0
LWPOLYLINE
  5
66C
100
AcDbEntity
  8
RACCORDO
100
AcDbPolyline
 62
253
  6
CONTINUOUS
 90
9
 70
0
 10
-9.7656324738
 20
31.0214866164
 10
-9.8402826558
 20
31.0403778618
 10
-9.9144347763
 20
31.0525276461
 10
-9.9875286289
 20
31.0578441864
 10
-10.0590120014
 20
31.0562873245
 10
-10.1283448529
 20
31.0478688266
 10
-10.195003394
 20
31.0326522944
 10
-10.2584840356
 20
31.0107526885
 10
-10.3183071959
 20
30.9823354607
  0
LINE
  5
66D
100
AcDbEntity
  8
RACCORDO
100
AcDbLine
 62
253
  6
CONTINUOUS
 10
-7.4181910506
 20
30.339598722
 11
24.1768846089
 21
21.2188860035
  0
LINE
  5
66E
100
AcDbEntity
  8
RACCORDO
100
AcDbLine
 62
253
  6
CONTINUOUS
 10
26.5241808398
 20
20.5455198737
 11
26.1734330938
 21
20.6467720265
  0
LINE
  5
66F
100
AcDbEntity
  8
RACCORDO
100
AcDbLine
 62
253
  6
CONTINUOUS
 10
-9.4147395355
 20
30.9201925502
 11
-9.7656329514
 21
31.0214867543
  0
LINE
  5
670
100
AcDbEntity
  8
RACCORDO
100
AcDbLine
 62
7
  6
CONTINUOUS
 10
-7.1535664225
 20
30.4280715162
 11
24.4495077705
 21
21.3050498199
  0
LINE
  5
671
100
AcDbEntity
  8
RACCORDO
100
AcDbLine
 62
7
  6
CONTINUOUS
 10
26.792949927
 20
20.6327962655
 11
26.4460928572
 21
20.7329252768
  0
LINE
  5
672
100
AcDbEntity
  8
RACCORDO
100
AcDbLine
 62
7
  6
CONTINUOUS
 10
-9.1501515092
 20
31.0086759103
 11
-9.4970085789
 21
31.1088049216
  0
LWPOLYLINE
  5
673
100
AcDbEntity
  8
RACCORDO
100
AcDbPolyline
 62
253
  6
CONTINUOUS
 90
16
 70
0
 10
26.5243260321
 20
20.5454779603
 10
26.6008928009
 20
20.5209787152
 10
26.6751660075
 20
20.4902766592
 10
26.7476522885
 20
20.453675927
 10
26.8193843426
 20
20.4111274656
 10
26.8898422541
 20
20.3624877324
 10
26.9570066799
 20
20.3083662971
 10
27.02054098
 20
20.249846428
 10
27.0807439916
 20
20.1870154205
 10
27.1364264577
 20
20.1198860814
 10
27.1872817694
 20
20.0494851787
 10
27.2333587159
 20
19.9765482124
 10
27.273795805
 20
19.9009026066
 10
27.3081944778
 20
19.82315009
 10
27.3367975518
 20
19.7446454143
 10
27.359679737
 20
19.6663766483
  0
LWPOLYLINE
  5
674
100
AcDbEntity
  8
RACCORDO
100
AcDbPolyline
 62
7
  6
CONTINUOUS
 90
14
 70
0
 10
26.792949927
 20
20.6327962655
 10
26.8697149782
 20
20.607229065
 10
26.9442429901
 20
20.5755011451
 10
27.0159619979
 20
20.5378435471
 10
27.0841591692
 20
20.4946695908
 10
27.1485251165
 20
20.4462402152
 10
27.2090548604
 20
20.392527252
 10
27.2653229401
 20
20.3337789949
 10
27.3167438577
 20
20.270498925
 10
27.3630053643
 20
20.2029735345
 10
27.4036994754
 20
20.1316783076
 10
27.4384634865
 20
20.0571541521
 10
27.4670692731
 20
19.9797705744
 10
27.4850811654
 20
19.9171924288
  0
LWPOLYLINE
  5
675
100
AcDbEntity
  8
RACCORDO
100
AcDbPolyline
 62
253
  6
CONTINUOUS
 90
8
 70
0
 10
27.485942241
 20
19.9135589565
 10
27.4892593533
 20
19.8815198472
 10
27.4853366324
 20
19.8478558952
 10
27.4740919146
 20
19.8134378636
 10
27.4558021517
 20
19.777461895
 10
27.430569195
 20
19.7401683197
 10
27.398446268
 20
19.7028769183
 10
27.359679737
 20
19.6663766483
  0
LWPOLYLINE
  5
676
100
AcDbEntity
  8
RACCORDO
100
AcDbPolyline
 62
7
  6
CONTINUOUS
 90
10
 70
0
 10
27.5330773205
 20
19.5365363376
 10
27.5324906823
 20
19.5784775362
 10
27.5307265986
 20
19.6205828619
 10
27.5277790264
 20
19.6628271307
 10
27.5236397329
 20
19.7052070149
 10
27.5183044293
 20
19.747674885
 10
27.5117784852
 20
19.7901414091
 10
27.5040656874
 20
19.8325628081
 10
27.4951624417
 20
19.8749381111
 10
27.4850679236
 20
19.9172448244
  0
LWPOLYLINE
  5
677
100
AcDbEntity
  8
RACCORDO
100
AcDbPolyline
 62
253
  6
CONTINUOUS
 90
7
 70
0
 10
27.4076970276
 20
-12.0933534055
 10
27.4063553344
 20
-12.1533933043
 10
27.402333047
 20
-12.212538621
 10
27.3956383141
 20
-12.2706728649
 10
27.38628455
 20
-12.3276815542
 10
27.3742904067
 20
-12.3834524407
 10
27.359679737
 20
-12.4378757306
  0
LWPOLYLINE
  5
678
100
AcDbEntity
  8
RACCORDO
100
AcDbPolyline
 62
253
  6
CONTINUOUS
 90
7
 70
0
 10
27.5330773205
 20
-11.8509485771
 10
27.5302916031
 20
-11.8882436026
 10
27.5201517613
 20
-11.9310798009
 10
27.5026655331
 20
-11.9733196376
 10
27.4779630519
 20
-12.0146487362
 10
27.4462281568
 20
-12.0547595017
 10
27.4076970276
 20
-12.0933534038
  0
LWPOLYLINE
  5
679
100
AcDbEntity
  8
RACCORDO
100
AcDbPolyline
 62
7
  6
CONTINUOUS
 90
10
 70
0
 10
27.4744243628
 20
-12.2603481088
 10
27.4865361881
 20
-12.2168931261
 10
27.4972999587
 20
-12.1728311859
 10
27.5066915725
 20
-12.1282018143
 10
27.5146894431
 20
-12.0830395835
 10
27.5212712499
 20
-12.037392174
 10
27.5264162122
 20
-11.9913176585
 10
27.5301080968
 20
-11.9448612129
 10
27.5323329363
 20
-11.8980578419
 10
27.5330773205
 20
-11.8509485771
  0
LINE
  5
67A
100
AcDbEntity
  8
RACCORDO
100
AcDbLine
 62
7
  6
CONTINUOUS
 10
27.4743926175
 20
-12.2604552516
 11
27.4744044789
 21
-12.2604151971
  0
LWPOLYLINE
  5
67B
100
AcDbEntity
  8
RACCORDO
100
AcDbPolyline
 62
253
  6
CONTINUOUS
 90
6
 70
0
 10
27.359679737
 20
-12.4378757306
 10
27.3367976229
 20
-12.5028320795
 10
27.3081946092
 20
-12.563492796
 10
27.2737959859
 20
-12.6195266657
 10
27.2333589378
 20
-12.6708885676
 10
27.1942278716
 20
-12.7108310692
  0
LWPOLYLINE
  5
67C
100
AcDbEntity
  8
RACCORDO
100
AcDbPolyline
 62
7
  6
CONTINUOUS
 90
3
 70
0
 10
27.4322704661
 20
-12.3759924829
 10
27.4597393229
 20
-12.305895037
 10
27.4744361717
 20
-12.2603082316
  0
LWPOLYLINE
  5
67D
100
AcDbEntity
  8
RACCORDO
100
AcDbPolyline
 62
7
  6
CONTINUOUS
 90
3
 70
0
 10
27.3622593143
 20
-12.5084840195
 10
27.3996982811
 20
-12.4436496473
 10
27.4322704661
 20
-12.3759924829
  0
LINE
  5
67E
100
AcDbEntity
  8
RACCORDO
100
AcDbLine
 62
7
  6
CONTINUOUS
 10
20.1292566843
 20
-19.2099860014
 11
20.1659358138
 21
-19.1585855419
  0
LINE
  5
67F
100
AcDbEntity
  8
RACCORDO
100
AcDbLine
 62
7
  6
CONTINUOUS
 10
20.089879731
 20
-19.2587295675
 11
20.1292566843
 21
-19.2099860014
  0
LWPOLYLINE
  5
680
100
AcDbEntity
  8
RACCORDO
100
AcDbPolyline
 62
253
  6
CONTINUOUS
 90
5
 70
0
 10
27.359679737
 20
-12.4378757306
 10
27.398446268
 20
-12.3976343844
 10
27.430569195
 20
-12.3548623375
 10
27.4558021517
 20
-12.3095610915
 10
27.4743926175
 20
-12.2604552516
  0
LWPOLYLINE
  5
681
100
AcDbEntity
  8
RACCORDO
100
AcDbPolyline
 62
7
  6
CONTINUOUS
 90
3
 70
0
 10
20.0030139565
 20
-19.348262811
 10
20.0478049537
 20
-19.30481624
 10
20.089879731
 20
-19.2587295675
  0
LWPOLYLINE
  5
682
100
AcDbEntity
  8
RACCORDO
100
AcDbPolyline
 62
7
  6
CONTINUOUS
 90
5
 70
0
 10
27.194213686
 20
-12.7108441789
 10
27.223276966
 20
-12.6828849308
 10
27.2737729866
 20
-12.6284022329
 10
27.3202069395
 20
-12.5701565016
 10
27.3622593143
 20
-12.5084840195
  0
LINE
  5
683
100
AcDbEntity
  8
RACCORDO
100
AcDbLine
 62
253
  6
CONTINUOUS
 10
26.6816016123
 20
-13.080516868
 11
27.359679737
 21
-12.4378757306
  0
LWPOLYLINE
  5
684
100
AcDbEntity
  8
RACCORDO
100
AcDbPolyline
 62
253
  6
CONTINUOUS
 90
3
 70
0
 10
25.3690747969
 20
-14.3180043215
 10
26.0179817374
 20
-13.7072450127
 10
26.6816016123
 20
-13.080516868
  0
LINE
  5
685
100
AcDbEntity
  8
RACCORDO
100
AcDbLine
 62
253
  6
CONTINUOUS
 10
24.1174391515
 20
-15.4901898236
 11
25.3690747969
 21
-14.3180043215
  0
LINE
  5
686
100
AcDbEntity
  8
RACCORDO
100
AcDbLine
 62
253
  6
CONTINUOUS
 10
22.9226149846
 20
-16.6038787386
 11
24.1174391515
 21
-15.4901898236
  0
LINE
  5
687
100
AcDbEntity
  8
RACCORDO
100
AcDbLine
 62
253
  6
CONTINUOUS
 10
21.230959177
 20
-18.1736206977
 11
22.9226149846
 21
-16.6038787386
  0
LINE
  5
688
100
AcDbEntity
  8
RACCORDO
100
AcDbLine
 62
253
  6
CONTINUOUS
 10
20.1661871736
 20
-19.1582103466
 11
21.230959177
 21
-18.1736206977
  0
LINE
  5
689
100
AcDbEntity
  8
RACCORDO
100
AcDbLine
 62
7
  6
CONTINUOUS
 10
25.0611813206
 20
-14.679412661
 11
27.1943532463
 21
-12.7107174354
  0
LINE
  5
68A
100
AcDbEntity
  8
RACCORDO
100
AcDbLine
 62
7
  6
CONTINUOUS
 10
21.8135857006
 20
-17.6676558633
 11
25.0611813206
 21
-14.679412661
  0
LINE
  5
68B
100
AcDbEntity
  8
RACCORDO
100
AcDbLine
 62
7
  6
CONTINUOUS
 10
20.1160879529
 20
-19.2262871847
 11
21.8135857006
 21
-17.6676558633
  0
LINE
  5
68C
100
AcDbEntity
  8
DRAFT
100
AcDbLine
 62
7
  6
CONTINUOUS
 10
20.0028254158
 20
-19.3484835331
 11
15.5195896207
 21
-23.4430082871
  0
LINE
  5
68D
100
AcDbEntity
  8
RACCORDO
100
AcDbLine
 62
253
  6
CONTINUOUS
 10
15.0791313213
 20
-26.4618267579
 11
15.5195896207
 21
-26.0888415845
  0
LINE
  5
68E
100
AcDbEntity
  8
RACCORDO
100
AcDbLine
 62
7
  6
CONTINUOUS
 10
14.9685235161
 20
-26.718990487
 11
15.4115081633
 21
-26.343865973
  0
LWPOLYLINE
  5
68F
100
AcDbEntity
  8
RACCORDO
100
AcDbPolyline
 62
253
  6
CONTINUOUS
 90
16
 70
0
 10
10.5816026369
 20
-29.0218752043
 10
10.5527084938
 20
-29.0451587498
 10
10.5195320565
 20
-29.0668132181
 10
10.4824287841
 20
-29.0866065989
 10
10.4417962087
 20
-29.1043268217
 10
10.3980696763
 20
-29.1197840283
 10
10.351717682
 20
-29.132812607
 10
10.3032368506
 20
-29.143272967
 10
10.2531466159
 20
-29.1510530337
 10
10.2019836549
 20
-29.15606945
 10
10.1502961384
 20
-29.1582684687
 10
10.0986378571
 20
-29.1576265293
 10
10.0475622884
 20
-29.1541505097
 10
9.9976166668
 20
-29.1478776528
 10
9.9493361199
 20
-29.1388751672
 10
9.9032379355
 20
-29.1272395075
  0
LINE
  5
690
100
AcDbEntity
  8
RACCORDO
100
AcDbLine
 62
7
  6
CONTINUOUS
 10
14.9684701618
 20
-26.719035668
 11
14.9544814585
 21
-26.7301448382
  0
LINE
  5
691
100
AcDbEntity
  8
RACCORDO
100
AcDbLine
 62
253
  6
CONTINUOUS
 10
11.069324268
 20
-29.4452459587
 11
15.0791313213
 21
-26.4618267579
  0
LWPOLYLINE
  5
692
100
AcDbEntity
  8
ASSI
100
AcDbPolyline
 62
7
  6
CONTINUOUS
 90
4
 70
0
 10
-14.0881126337
 20
25.8032833595
 10
-14.0665274942
 20
25.8093221234
 10
-14.0426331387
 20
25.8121534057
 10
-14.0165900779
 20
25.8116396238
  0
LWPOLYLINE
  5
693
100
AcDbEntity
  8
RACCORDO
100
AcDbPolyline
 62
7
  6
CONTINUOUS
 90
8
 70
0
 10
14.9072967551
 20
-28.2268880082
 10
14.9248977108
 20
-28.2096313435
 10
14.9416748383
 20
-28.1894455169
 10
14.9563004478
 20
-28.1675152583
 10
14.9685857922
 20
-28.1440575146
 10
14.9783505909
 20
-28.1193437702
 10
14.9854621295
 20
-28.0936193152
 10
14.9898034502
 20
-28.0671678125
  0
LWPOLYLINE
  5
694
100
AcDbEntity
  8
RACCORDO
100
AcDbPolyline
 62
7
  6
CONTINUOUS
 90
7
 70
0
 10
14.5347448748
 20
-28.5576856891
 10
14.5415423908
 20
-28.5512334012
 10
14.5573024849
 20
-28.5322058173
 10
14.5698716312
 20
-28.5103853672
 10
14.5790347779
 20
-28.4861453883
 10
14.5846351471
 20
-28.4599006164
 10
14.5865769188
 20
-28.4321000876
  0
LWPOLYLINE
  5
695
100
AcDbEntity
  8
RACCORDO
100
AcDbPolyline
 62
253
  6
CONTINUOUS
 90
7
 70
0
 10
14.9072967551
 20
-28.2268880082
 10
14.9136591017
 20
-28.2208720361
 10
14.9295176413
 20
-28.2018482926
 10
14.9421168621
 20
-28.1800320439
 10
14.9512415128
 20
-28.1558056107
 10
14.956738989
 20
-28.1295874133
 10
14.9585180159
 20
-28.1018316955
  0
LWPOLYLINE
  5
696
100
AcDbEntity
  8
RACCORDO
100
AcDbPolyline
 62
253
  6
CONTINUOUS
 90
7
 70
0
 10
13.3952739672
 20
-29.5200587625
 10
13.4051055573
 20
-29.510876081
 10
13.4208606747
 20
-29.4915813695
 10
13.4332914128
 20
-29.4696254154
 10
13.4422358438
 20
-29.4454955305
 10
13.4476463706
 20
-29.4195952618
 10
13.4495060004
 20
-29.3923901081
  0
LINE
  5
697
100
AcDbEntity
  8
RACCORDO
100
AcDbLine
 62
253
  6
CONTINUOUS
 10
14.9585180159
 20
-28.1018316955
 11
14.5865769188
 21
-28.4321000876
  0
LINE
  5
698
100
AcDbEntity
  8
RACCORDO
100
AcDbLine
 62
7
  6
CONTINUOUS
 10
14.9072819288
 20
-28.2269011752
 11
14.5347764848
 21
-28.5576706842
  0
LINE
  5
699
100
AcDbEntity
  8
RACCORDO
100
AcDbLine
 62
7
  6
CONTINUOUS
 10
14.5321061848
 20
-28.5599707866
 11
14.5347448748
 21
-28.5576856891
  0
LINE
  5
69A
100
AcDbEntity
  8
RACCORDO
100
AcDbLine
 62
253
  6
CONTINUOUS
 10
13.3950459151
 20
-29.5202518131
 11
13.3952739672
 21
-29.5200587625
  0
LINE
  5
69B
100
AcDbEntity
  8
RACCORDO
100
AcDbLine
 62
253
  6
CONTINUOUS
 10
14.5865769188
 20
-28.4321000876
 11
13.4495060004
 21
-29.3923901081
  0
LINE
  5
69C
100
AcDbEntity
  8
RACCORDO
100
AcDbLine
 62
7
  6
CONTINUOUS
 10
14.532106183
 20
-28.5599707881
 11
13.3950352258
 21
-29.5202608414
  0
LWPOLYLINE
  5
69D
100
AcDbEntity
  8
RACCORDO
100
AcDbPolyline
 62
7
  6
CONTINUOUS
 90
11
 70
0
 10
13.3952739672
 20
-29.5200587625
 10
13.3798351411
 20
-29.5321244908
 10
13.357598815
 20
-29.5464171456
 10
13.3339420596
 20
-29.5582977272
 10
13.3090184911
 20
-29.5676554275
 10
13.2830855891
 20
-29.5743411121
 10
13.2564684231
 20
-29.5782252008
 10
13.2294288551
 20
-29.5792243664
 10
13.2022838995
 20
-29.5772757107
 10
13.1753898341
 20
-29.5723587566
 10
13.1643202424
 20
-29.5694325401
  0
LINE
  5
69E
100
AcDbEntity
  8
RACCORDO
100
AcDbLine
 62
7
  6
CONTINUOUS
 10
10.9392058731
 20
-29.7176329111
 11
14.9544141685
 21
-26.7301950209
  0
LINE
  5
69F
100
AcDbEntity
  8
RACCORDO
100
AcDbLine
 62
253
  6
CONTINUOUS
 10
27.4850491393
 20
19.9173190742
 11
27.4850622303
 21
19.917267275
  0
LWPOLYLINE
  5
6A0
100
AcDbEntity
  8
RACCORDO
100
AcDbPolyline
 62
253
  6
CONTINUOUS
 90
7
 70
0
 10
27.359679737
 20
19.6663766483
 10
27.3742903524
 20
19.6035181405
 10
27.3862844802
 20
19.5408225845
 10
27.3956382552
 20
19.4784135454
 10
27.402333012
 20
19.4164140417
 10
27.4063553235
 20
19.3549463027
 10
27.4076970276
 20
19.2941315275
  0
ELLIPSE
  5
6A1
100
AcDbEntity
  8
RACCORDO
100
AcDbEllipse
 62
7
  6
CONTINUOUS
 10
-7.426785354
 20
29.4661100282
 30
0.0
 11
0.2722252041
 21
0.96224566
 31
0.0
 40
0.4264576265
 41
-0.0005870111
 42
0.5682748348
  0
ELLIPSE
  5
6A2
100
AcDbEntity
  8
RACCORDO
100
AcDbEllipse
 62
7
  6
CONTINUOUS
 10
23.7619803544
 20
19.3004960463
 30
0.0
 11
0.1412727446
 21
0.4796331008
 31
0.0
 40
0.4395474798
 41
-0.9804164943
 42
0.57292654
  0
ELLIPSE
  5
6A3
100
AcDbEntity
  8
RACCORDO
100
AcDbEllipse
 62
7
  6
CONTINUOUS
 10
24.1680265058
 20
20.3454734621
 30
0.0
 11
0.2825454893
 21
0.9592662016
 31
0.0
 40
0.4395474798
 41
5.3027688129
 42
6.8561118472
  0
ELLIPSE
  5
6A4
100
AcDbEntity
  8
RACCORDO
100
AcDbEllipse
 62
7
  6
CONTINUOUS
 10
26.5330773205
 20
12.9825024637
 30
0.0
 11
0.9995070624
 21
0.055622433
 31
0.0
 40
0.5644265606
 41
-0.5375454212
 42
-0.0312786945
  0
ELLIPSE
  5
6A5
100
AcDbEntity
  8
RACCORDO
100
AcDbEllipse
 62
7
  6
CONTINUOUS
 10
26.1645749907
 20
19.7733594851
 30
0.0
 11
0.2825454893
 21
0.9592662016
 31
0.0
 40
0.4395474798
 41
0.0026579063
 42
0.57292654
  0
ELLIPSE
  5
6A6
100
AcDbEntity
  8
RACCORDO
100
AcDbEllipse
 62
7
  6
CONTINUOUS
 10
-9.4233338389
 20
30.0467038564
 30
0.0
 11
0.2722252041
 21
0.96224566
 31
0.0
 40
0.4264576265
 41
5.2981171077
 42
6.851460142
  0
ELLIPSE
  5
6A7
100
AcDbEntity
  8
RACCORDO
100
AcDbEllipse
 62
7
  6
CONTINUOUS
 10
26.5330773205
 20
7.8666714161
 30
0.0
 11
0.9997952507
 21
-0.0466657112
 31
0.0
 40
0.4336167673
 41
-0.4859090671
 42
1.0674339672
  0
ELLIPSE
  5
6A8
100
AcDbEntity
  8
DRAFT
100
AcDbEllipse
 62
7
  6
CONTINUOUS
 10
16.3134063685
 20
22.1929615696
 30
0.0
 11
14.9999502799
 21
0.0762458833
 31
0.0
 40
0.5065354212
 41
-2.260451161
 42
-2.2274796029
  0
ELLIPSE
  5
6A9
100
AcDbEntity
  8
DRAFT
100
AcDbEllipse
 62
7
  6
CONTINUOUS
 10
6.248342859
 20
15.8569493903
 30
0.0
 11
0.9999966853
 21
0.0050830589
 31
0.0
 40
0.5065354212
 41
1.044622799
 42
2.0707842364
  0
ELLIPSE
  5
6AA
100
AcDbEntity
  8
RACCORDO
100
AcDbEllipse
 62
7
  6
CONTINUOUS
 10
17.1814302561
 20
16.0538567948
 30
0.0
 11
0.4999983427
 21
0.0025415294
 31
0.0
 40
0.5065354212
 41
-0.5087202353
 42
-0.0025125068
  0
ELLIPSE
  5
6AB
100
AcDbEntity
  8
RACCORDO
100
AcDbEllipse
 62
7
  6
CONTINUOUS
 10
15.0865109588
 20
-25.9638884934
 30
0.0
 11
0.3274233937
 21
-0.3778993531
 31
0.0
 40
0.7501007953
 41
-0.0085864932
 42
0.7135596558
  0
ELLIPSE
  5
6AC
100
AcDbEntity
  8
RACCORDO
100
AcDbEllipse
 62
7
  6
CONTINUOUS
 10
15.0865109588
 20
11.9679912155
 30
0.0
 11
0.3274444774
 21
-0.3779808113
 31
0.0
 40
0.7498747067
 41
0.7134852735
 42
2.2844338993
  0
ELLIPSE
  5
6AD
100
AcDbEntity
  8
RACCORDO
100
AcDbEllipse
 62
7
  6
CONTINUOUS
 10
-15.4401891043
 20
26.4088075024
 30
0.0
 11
0.4997407816
 21
0.3758839594
 31
0.0
 40
0.0428275111
 41
1.6669420649
 42
2.5683386715
  0
ELLIPSE
  5
6AE
100
AcDbEntity
  8
RACCORDO
100
AcDbEllipse
 62
7
  6
CONTINUOUS
 10
4.0453824808
 20
20.7838075024
 30
0.0
 11
0.4997407816
 21
0.3758839594
 31
0.0
 40
0.0428275111
 41
1.6669420649
 42
2.5683386715
  0
ELLIPSE
  5
6AF
100
AcDbEntity
  8
RACCORDO
100
AcDbEllipse
 62
7
  6
CONTINUOUS
 10
17.0360156097
 20
15.3805951546
 30
0.0
 11
0.0547851765
 21
0.1923512389
 31
0.0
 40
0.428644886
 41
-2.5492998482
 42
-0.9843212855
  0
ELLIPSE
  5
6B0
100
AcDbEntity
  8
DRAFT
100
AcDbEllipse
 62
7
  6
CONTINUOUS
 10
-13.7378720051
 20
24.466596974
 30
0.0
 11
0.4279686876
 21
-0.002137756
 31
0.0
 40
0.493445535
 41
-0.5211339597
 42
0.0026080087
  0
ELLIPSE
  5
6B1
100
AcDbEntity
  8
DRAFT
100
AcDbEllipse
 62
7
  6
CONTINUOUS
 10
12.5511431693
 20
16.8776119802
 30
0.0
 11
0.4279686876
 21
-0.002137756
 31
0.0
 40
0.493445535
 41
-0.5153161956
 42
0.0025338864
  0
ELLIPSE
  5
6B2
100
AcDbEntity
  8
DRAFT
100
AcDbEllipse
 62
7
  6
CONTINUOUS
 10
5.74769958
 20
18.841596974
 30
0.0
 11
0.4279686876
 21
-0.002137756
 31
0.0
 40
0.493445535
 41
-0.5211339597
 42
0.0026080087
  0
ELLIPSE
  5
6B3
100
AcDbEntity
  8
DRAFT
100
AcDbEllipse
 62
7
  6
CONTINUOUS
 10
-6.9344284159
 20
22.5026119802
 30
0.0
 11
0.4279686876
 21
-0.002137756
 31
0.0
 40
0.493445535
 41
-0.5153161956
 42
0.0025338864
  0
ELLIPSE
  5
6B4
100
AcDbEntity
  8
RACCORDO
100
AcDbEllipse
 62
7
  6
CONTINUOUS
 10
17.5761681294
 20
15.9443931263
 30
0.0
 11
-0.8494782499
 21
1.1293882431
 31
0.0
 40
0.4671764921
 41
5.2014280097
 42
6.3066605749
  0
ELLIPSE
  5
6B5
100
AcDbEntity
  8
RACCORDO
100
AcDbEllipse
 62
7
  6
CONTINUOUS
 10
-1.9094034558
 20
21.5693931263
 30
0.0
 11
-0.8494782499
 21
1.1293882431
 31
0.0
 40
0.4671764921
 41
5.2014280097
 42
6.3066605749
  0
ELLIPSE
  5
6B6
100
AcDbEntity
  8
RACCORDO
100
AcDbEllipse
 62
7
  6
CONTINUOUS
 10
15.3474057176
 20
12.2528880357
 30
0.0
 11
21.7014690105
 21
20.4982142378
 31
0.0
 40
0.0105600374
 41
1.5925689349
 42
1.6250458916
  0
ELLIPSE
  5
6B7
100
AcDbEntity
  8
RACCORDO
100
AcDbEllipse
 62
7
  6
CONTINUOUS
 10
-2.304141329
 20
22.6167571428
 30
0.0
 11
-0.4247391249
 21
0.5646941216
 31
0.0
 40
0.4671764921
 41
-2.8739050939
 42
-2.1905408405
  0
ELLIPSE
  5
6B8
100
AcDbEntity
  8
RACCORDO
100
AcDbEllipse
 62
7
  6
CONTINUOUS
 10
17.1814302561
 20
16.9917571428
 30
0.0
 11
-0.4247391249
 21
0.5646941216
 31
0.0
 40
0.4671764921
 41
-3.0919374471
 42
-2.1905408405
  0
ELLIPSE
  5
6B9
100
AcDbEntity
  8
RACCORDO
100
AcDbEllipse
 62
7
  6
CONTINUOUS
 10
-16.3349269776
 20
25.7336830705
 30
0.0
 11
0.9994815632
 21
0.7517679188
 31
0.0
 40
0.0428275111
 41
-0.5470740433
 42
0.5581585219
  0
ELLIPSE
  5
6BA
100
AcDbEntity
  8
RACCORDO
100
AcDbEllipse
 62
7
  6
CONTINUOUS
 10
3.1506446076
 20
20.1086830705
 30
0.0
 11
0.9994815632
 21
0.7517679188
 31
0.0
 40
0.0428275111
 41
-0.5470740433
 42
0.5581585219
  0
ELLIPSE
  5
6BB
100
AcDbEntity
  8
RACCORDO
100
AcDbEllipse
 62
7
  6
CONTINUOUS
 10
8.488378921
 20
13.417018422
 30
0.0
 11
0.499925708
 21
0.0159931878
 31
0.0
 40
0.5389145921
 41
-2.1116338807
 42
-0.5466553181
  0
ELLIPSE
  5
6BC
100
AcDbEntity
  8
RACCORDO
100
AcDbEllipse
 62
7
  6
CONTINUOUS
 10
8.488378921
 20
14.6496280272
 30
0.0
 11
0.499999274
 21
0.0016893266
 31
0.0
 40
0.5043590795
 41
-1.1717159894
 42
-0.531120595
  0
ELLIPSE
  5
6BD
100
AcDbEntity
  8
RACCORDO
100
AcDbEllipse
 62
7
  6
CONTINUOUS
 10
1.738433816
 20
16.5981693389
 30
0.0
 11
0.499999274
 21
0.0016893266
 31
0.0
 40
0.5043590795
 41
8.9052928941
 42
9.5458882885
  0
ELLIPSE
  5
6BE
100
AcDbEntity
  8
RACCORDO
100
AcDbEllipse
 62
7
  6
CONTINUOUS
 10
1.738433816
 20
15.3655597337
 30
0.0
 11
0.499925708
 21
0.0159931878
 31
0.0
 40
0.5389145921
 41
3.1244335019
 42
4.1715514265
  0
ELLIPSE
  5
6BF
100
AcDbEntity
  8
RACCORDO
100
AcDbEllipse
 62
7
  6
CONTINUOUS
 10
-10.9971926642
 20
19.042018422
 30
0.0
 11
0.499925708
 21
0.0159931878
 31
0.0
 40
0.5389145921
 41
-2.1116338807
 42
-0.5466553181
  0
ELLIPSE
  5
6C0
100
AcDbEntity
  8
RACCORDO
100
AcDbEllipse
 62
7
  6
CONTINUOUS
 10
-10.9971926642
 20
20.2746280272
 30
0.0
 11
0.499999274
 21
0.0016893266
 31
0.0
 40
0.5043590795
 41
-1.1717159894
 42
-0.531120595
  0
ELLIPSE
  5
6C1
100
AcDbEntity
  8
RACCORDO
100
AcDbEllipse
 62
7
  6
CONTINUOUS
 10
-17.7471377692
 20
22.2231693389
 30
0.0
 11
0.499999274
 21
0.0016893266
 31
0.0
 40
0.5043590795
 41
8.9052928941
 42
9.5458882885
  0
ELLIPSE
  5
6C2
100
AcDbEntity
  8
RACCORDO
100
AcDbEllipse
 62
7
  6
CONTINUOUS
 10
-17.7471377692
 20
20.9905597337
 30
0.0
 11
0.499925708
 21
0.0159931878
 31
0.0
 40
0.5389145921
 41
3.1244335019
 42
4.1715514265
  0
ELLIPSE
  5
6C3
100
AcDbEntity
  8
RACCORDO
100
AcDbEllipse
 62
7
  6
CONTINUOUS
 10
-23.7475277665
 20
22.2556705708
 30
0.0
 11
0.249962854
 21
0.0079965939
 31
0.0
 40
0.5389145921
 41
3.1268643627
 42
4.1715514265
  0
ELLIPSE
  5
6C4
100
AcDbEntity
  8
RACCORDO
100
AcDbEllipse
 62
7
  6
CONTINUOUS
 10
-22.1146827984
 20
21.7843088298
 30
0.0
 11
0.249962854
 21
0.0079965939
 31
0.0
 40
0.5389145921
 41
-2.1116338807
 42
-0.5466553181
  0
ELLIPSE
  5
6C5
100
AcDbEntity
  8
RACCORDO
100
AcDbEllipse
 62
7
  6
CONTINUOUS
 10
-7.379647635
 20
17.5306705708
 30
0.0
 11
0.249962854
 21
0.0079965939
 31
0.0
 40
0.5389145921
 41
3.1244335499
 42
4.1715514265
  0
ELLIPSE
  5
6C6
100
AcDbEntity
  8
RACCORDO
100
AcDbEllipse
 62
7
  6
CONTINUOUS
 10
-5.7468026668
 20
17.0593088298
 30
0.0
 11
0.249962854
 21
0.0079965939
 31
0.0
 40
0.5389145921
 41
-2.1116338807
 42
-0.5466553181
  0
ELLIPSE
  5
6C7
100
AcDbEntity
  8
RACCORDO
100
AcDbEllipse
 62
7
  6
CONTINUOUS
 10
13.7387689183
 20
11.4343088298
 30
0.0
 11
0.249962854
 21
0.0079965939
 31
0.0
 40
0.5389145921
 41
-2.1116338807
 42
-1.066946817
  0
ELLIPSE
  5
6C8
100
AcDbEntity
  8
RACCORDO
100
AcDbEllipse
 62
7
  6
CONTINUOUS
 10
12.1059239502
 20
11.9056705708
 30
0.0
 11
0.249962854
 21
0.0079965939
 31
0.0
 40
0.5389145921
 41
3.1244335499
 42
4.1715514265
  0
ELLIPSE
  5
6C9
100
AcDbEntity
  8
RACCORDO
100
AcDbEllipse
 62
7
  6
CONTINUOUS
 10
-2.6291112132
 20
16.1593088298
 30
0.0
 11
0.249962854
 21
0.0079965939
 31
0.0
 40
0.5389145921
 41
-2.1116338807
 42
-0.5466553181
  0
ELLIPSE
  5
6CA
100
AcDbEntity
  8
RACCORDO
100
AcDbEllipse
 62
7
  6
CONTINUOUS
 10
-4.2619561813
 20
16.6306705708
 30
0.0
 11
0.249962854
 21
0.0079965939
 31
0.0
 40
0.5389145921
 41
3.1244335499
 42
4.1715514265
  0
ENDSEC
  0
SECTION
  2
OBJECTS
  0
DICTIONARY
  5
C
100
AcDbDictionary
280
0
281
1
  3
ACAD_GROUP
350
D
  3
ACAD_MLINESTYLE
350
17
  3
ACAD_LAYOUT
350
1A
  3
ACAD_PLOTSETTINGS
350
19
  3
ACAD_PLOTSTYLENAME
350
E
  0
DICTIONARY
  5
D
102
{ACAD_REACTORS
330
C
102
}
100
AcDbDictionary
280
0
281
1
  0
ACDBDICTIONARYWDFLT
  5
E
102
{ACAD_REACTORS
330
C
102
}
100
AcDbDictionary
281
1
  3
Normal
350
F
100
AcDbDictionaryWithDefault
340
F
  0
DICTIONARY
  5
17
102
{ACAD_REACTORS
330
C
102
}
100
AcDbDictionary
280
0
281
1
  3
Standard
350
18
  0
DICTIONARY
  5
19
102
{ACAD_REACTORS
330
C
102
}
100
AcDbDictionary
281
1
  0
DICTIONARY
  5
1A
102
{ACAD_REACTORS
330
C
102
}
100
AcDbDictionary
281
1
  3
Model
350
6CB
  3
Layout1
350
6CC
  0
ACDBPLACEHOLDER
  5
F
102
{ACAD_REACTORS
330
E
102
}
  0
MLINESTYLE
  5
18
102
{ACAD_REACTORS
330
17
102
}
100
AcDbMlineStyle
  2
STANDARD
 70
0
  3

 62
256
 51
90.0
 52
90.0
 71
2
 49
0.5
 62
256
  6
BYLAYER
 49
-0.5
 62
256
  6
BYLAYER
  0
LAYOUT
  5
6CB
102
{ACAD_REACTORS
330
1A
102
}
100
AcDbPlotSettings
  1

  2
none_device
  4
ISO_A4_(297.00_x_210.00_MM)
  6

 40
0.0
 41
0.0
 42
0.0
 43
0.0
 44
297.0
 45
210.0
 46
0.0
 47
0.0
 48
0.0
 49
0.0
140
0.0
141
0.0
142
1.0
143
1.0
 70
1024
 72
1
 73
0
 74
0
  7

 75
0
147
1.0
148
0.0
149
0.0
100
AcDbLayout
  1
Model
 70
0
 71
0
 10
0.0
 20
0.0
 11
297.0
 21
210.0
 12
0.0
 22
0.0
 32
0.0
 14
0.0
 24
0.0
 34
0.0
 15
0.0
 25
0.0
 35
0.0
146
0.0
 13
0.0
 23
0.0
 33
0.0
 16
1.0
 26
0.0
 36
0.0
 17
0.0
 27
1.0
 37
0.0
 76
0
330
36E
345
0
346
0
  0
LAYOUT
  5
6CC
102
{ACAD_REACTORS
330
1A
102
}
100
AcDbPlotSettings
  1

  2
none_device
  4
ISO_A4_(297.00_x_210.00_MM)
  6

 40
0.0
 41
0.0
 42
0.0
 43
0.0
 44
297.0
 45
210.0
 46
0.0
 47
0.0
 48
0.0
 49
0.0
140
0.0
141
0.0
142
1.0
143
1.0
 70
0
 72
1
 73
0
 74
0
  7

 75
0
147
1.0
148
0.0
149
0.0
100
AcDbLayout
  1
Layout1
 70
0
 71
1
 10
0.0
 20
0.0
 11
297.0
 21
210.0
 12
0.0
 22
0.0
 32
0.0
 14
0.0
 24
0.0
 34
0.0
 15
0.0
 25
0.0
 35
0.0
146
0.0
 13
0.0
 23
0.0
 33
0.0
 16
1.0
 26
0.0
 36
0.0
 17
0.0
 27
1.0
 37
0.0
 76
0
330
36F
345
0
346
0
  0
ENDSEC
  0
EOF
