  0
SECTION
  2
HEADER
  9
$ACADVER
  1
AC1015
  9
$DWGCODEPAGE
  3
ANSI_1252
  9
$EXTMAX
 10
297.0
 20
210.0
 30
0.0
  9
$EXTMIN
 10
0.0
 20
0.0
 30
0.0
  9
$LIMMIN
 10
0.0
 20
0.0
  9
$LIMMAX
 10
297.0
 20
210.0
  9
$VIEWCTR
 10
148.5
 20
105.0
  9
$VIEWSIZE
 40
210.0
  9
$CLAYER
  8
0
  9
$LTSCALE
 40
16.335
  9
$CELTYPE
  6
BYLAYER
  9
$DIMSCALE
 40
1.0
  9
$DIMASZ
 40
3.0
  9
$DIMEXO
 40
0.5
  9
$DIMDLI
 40
11.286
  9
$DIMEXE
 40
1.5
  9
$DIMCEN
 40
2.673
  9
$DIMLFAC
 40
1.0
  9
$DIMBLK
  1
_FILLED
  9
$DIMTXT
 40
3.0
  9
$DIMTOL
 70
1
  9
$DIMLIM
 70
0
  9
$DIMTFAC
 40
1.0
  9
$DIMTP
 40
0.01
  9
$DIMTM
 40
0.01
  9
$DIMGAP
 40
0.625
  9
$DIMDSEP
 70
44
  9
$PDMODE
 70
3
  9
$PDSIZE
 40
3.0
  9
$HANDSEED
  5
589
  9
$TILEMODE
 70
1
  9
$MEASUREMENT
 70
1
  9
$INSUNITS
 70
4
  0
ENDSEC
  0
SECTION
  2
CLASSES
  0
CLASS
  1
ACDBDICTIONARYWDFLT
  2
AcDbDictionaryWithDefault
  3
AutoCAD 2000
 90
0
280
0
281
0
  0
CLASS
  1
ACDBPLACEHOLDER
  2
AcDbPlaceHolder
  3
AutoCAD 2000
 90
0
280
0
281
0
  0
CLASS
  1
LAYOUT
  2
AcDbLayout
  3
AutoCAD 2000
 90
0
280
0
281
0
  0
ENDSEC
  0
SECTION
  2
TABLES
  0
TABLE
  2
VPORT
  5
8
100
AcDbSymbolTable
 70
2
  0
VPORT
  5
1F4
100
AcDbSymbolTableRecord
100
AcDbViewportTableRecord
  2
*ACTIVE
 70
0
 10
0.0
 20
0.0
 11
1.0
 21
1.0
 12
148.5
 22
105.0
 13
0.0
 23
0.0
 14
1.0
 24
1.0
 15
0.0
 25
0.0
 16
0.0
 26
0.0
 36
1.0
 17
0.0
 27
0.0
 37
0.0
 40
210.0
 41
1.4142857143
 42
50.0
 43
0.0
 44
0.0
 50
0.0
 51
0.0
 71
0
 72
100
 73
1
 74
1
 75
0
 76
0
 77
0
 78
0
  0
ENDTAB
  0
TABLE
  2
LTYPE
  5
5
100
AcDbSymbolTable
 70
6
  0
LTYPE
  5
14
100
AcDbSymbolTableRecord
100
AcDbLinetypeTableRecord
  2
BYBLOCK
 70
0
  3

 72
65
 73
0
 40
0.0
  0
LTYPE
  5
15
100
AcDbSymbolTableRecord
100
AcDbLinetypeTableRecord
  2
BYLAYER
 70
0
  3

 72
65
 73
0
 40
0.0
  0
LTYPE
  5
16
100
AcDbSymbolTableRecord
100
AcDbLinetypeTableRecord
  2
CONTINUOUS
 70
64
  3
Solid line
 72
65
 73
0
 40
0.0
  0
LTYPE
  5
1F5
100
AcDbSymbolTableRecord
100
AcDbLinetypeTableRecord
  2
CENTER
 70
64
  3
____ _ ____ _ ____ _ ____ _ ____ _ ____ _ ____
 72
65
 73
4
 40
0.6
 49
0.375
 74
0
 49
-0.075
 74
0
 49
0.075
 74
0
 49
-0.075
 74
0
  0
LTYPE
  5
1F6
100
AcDbSymbolTableRecord
100
AcDbLinetypeTableRecord
  2
HIDDEN
 70
64
  3
- - - - - - - - - - - - - - - - - - - -
 72
65
 73
2
 40
0.2
 49
0.1
 74
0
 49
-0.1
 74
0
  0
LTYPE
  5
1F7
100
AcDbSymbolTableRecord
100
AcDbLinetypeTableRecord
  2
PHANTOM
 70
64
  3
_____ _ _ _____ _ _ _____ _ _ _____
 72
65
 73
6
 40
0.8
 49
0.45
 74
0
 49
-0.05
 74
0
 49
0.1
 74
0
 49
-0.05
 74
0
 49
0.1
 74
0
 49
-0.05
 74
0
  0
LTYPE
  5
1F8
100
AcDbSymbolTableRecord
100
AcDbLinetypeTableRecord
  2
DOT
 70
64
  3
. . . . . . . . . . . . . . . . . . . .
 72
65
 73
2
 40
0.2
 49
0.1
 74
0
 49
-0.1
 74
0
  0
LTYPE
  5
1F9
100
AcDbSymbolTableRecord
100
AcDbLinetypeTableRecord
  2
DASHED
 70
64
  3
- - - - - - - - - - - - - - - - - - - -
 72
65
 73
2
 40
0.2
 49
0.1
 74
0
 49
-0.1
 74
0
  0
ENDTAB
  0
TABLE
  2
LAYER
  5
2
100
AcDbSymbolTable
 70
36
  0
LAYER
  5
10
100
AcDbSymbolTableRecord
100
AcDbLayerTableRecord
  2
0
 70
0
 62
7
  6
CONTINUOUS
370
-3
390
F
  0
LAYER
  5
1FA
100
AcDbSymbolTableRecord
100
AcDbLayerTableRecord
  2
DEFAULT_1
 70
0
 62
7
  6
CENTER
370
-3
390
F
  0
LAYER
  5
1FB
100
AcDbSymbolTableRecord
100
AcDbLayerTableRecord
  2
DEFAULT_2
 70
0
 62
7
  6
HIDDEN
370
-3
390
F
  0
LAYER
  5
1FC
100
AcDbSymbolTableRecord
100
AcDbLayerTableRecord
  2
DEFAULT_3
 70
0
 62
7
  6
PHANTOM
370
-3
390
F
  0
LAYER
  5
1FD
100
AcDbSymbolTableRecord
100
AcDbLayerTableRecord
  2
ASSI
 70
0
 62
7
  6
CONTINUOUS
370
-3
390
F
  0
LAYER
  5
1FE
100
AcDbSymbolTableRecord
100
AcDbLayerTableRecord
  2
COLOR15
 70
0
 62
7
  6
CONTINUOUS
370
-3
390
F
  0
LAYER
  5
1FF
100
AcDbSymbolTableRecord
100
AcDbLayerTableRecord
  2
COLORE_MATERIALE
 70
0
 62
7
  6
CONTINUOUS
370
-3
390
F
  0
LAYER
  5
200
100
AcDbSymbolTableRecord
100
AcDbLayerTableRecord
  2
COORDINATE
 70
0
 62
7
  6
CONTINUOUS
370
-3
390
F
  0
LAYER
  5
201
100
AcDbSymbolTableRecord
100
AcDbLayerTableRecord
  2
COORD_ORIGINE
 70
0
 62
7
  6
CONTINUOUS
370
-3
390
F
  0
LAYER
  5
202
100
AcDbSymbolTableRecord
100
AcDbLayerTableRecord
  2
CURVE
 70
0
 62
7
  6
CONTINUOUS
370
-3
390
F
  0
LAYER
  5
203
100
AcDbSymbolTableRecord
100
AcDbLayerTableRecord
  2
DRAFT
 70
0
 62
7
  6
CONTINUOUS
370
-3
390
F
  0
LAYER
  5
204
100
AcDbSymbolTableRecord
100
AcDbLayerTableRecord
  2
IMPORT
 70
0
 62
7
  6
CONTINUOUS
370
-3
390
F
  0
LAYER
  5
205
100
AcDbSymbolTableRecord
100
AcDbLayerTableRecord
  2
INTF_1
 70
0
 62
7
  6
CONTINUOUS
370
-3
390
F
  0
LAYER
  5
206
100
AcDbSymbolTableRecord
100
AcDbLayerTableRecord
  2
INTF_CYAN
 70
0
 62
7
  6
CONTINUOUS
370
-3
390
F
  0
LAYER
  5
207
100
AcDbSymbolTableRecord
100
AcDbLayerTableRecord
  2
INTF_GREEN
 70
0
 62
7
  6
CONTINUOUS
370
-3
390
F
  0
LAYER
  5
208
100
AcDbSymbolTableRecord
100
AcDbLayerTableRecord
  2
INTF_YELLOW
 70
0
 62
7
  6
CONTINUOUS
370
-3
390
F
  0
LAYER
  5
209
100
AcDbSymbolTableRecord
100
AcDbLayerTableRecord
  2
NOTE
 70
0
 62
7
  6
CONTINUOUS
370
-3
390
F
  0
LAYER
  5
20A
100
AcDbSymbolTableRecord
100
AcDbLayerTableRecord
  2
PIANI
 70
0
 62
7
  6
CONTINUOUS
370
-3
390
F
  0
LAYER
  5
20B
100
AcDbSymbolTableRecord
100
AcDbLayerTableRecord
  2
PIANI_ORIGINE
 70
0
 62
7
  6
CONTINUOUS
370
-3
390
F
  0
LAYER
  5
20C
100
AcDbSymbolTableRecord
100
AcDbLayerTableRecord
  2
PIANI_RIFERIMENTO
 70
0
 62
7
  6
CONTINUOUS
370
-3
390
F
  0
LAYER
  5
20D
100
AcDbSymbolTableRecord
100
AcDbLayerTableRecord
  2
PUNTI
 70
0
 62
7
  6
CONTINUOUS
370
-3
390
F
  0
LAYER
  5
20E
100
AcDbSymbolTableRecord
100
AcDbLayerTableRecord
  2
RACCORDO
 70
0
 62
7
  6
CONTINUOUS
370
-3
390
F
  0
LAYER
  5
20F
100
AcDbSymbolTableRecord
100
AcDbLayerTableRecord
  2
RGB____0____0____0__
 70
0
 62
7
  6
CONTINUOUS
370
-3
390
F
  0
LAYER
  5
210
100
AcDbSymbolTableRecord
100
AcDbLayerTableRecord
  2
SMUSSO
 70
0
 62
7
  6
CONTINUOUS
370
-3
390
F
  0
LAYER
  5
211
100
AcDbSymbolTableRecord
100
AcDbLayerTableRecord
  2
SNAPLINE
 70
0
 62
7
  6
CONTINUOUS
370
-3
390
F
  0
LAYER
  5
212
100
AcDbSymbolTableRecord
100
AcDbLayerTableRecord
  2
SUPERFICI
 70
0
 62
7
  6
CONTINUOUS
370
-3
390
F
  0
LAYER
  5
213
100
AcDbSymbolTableRecord
100
AcDbLayerTableRecord
  2
TRASH
 70
0
 62
7
  6
CONTINUOUS
370
-3
390
F
  0
LAYER
  5
214
100
AcDbSymbolTableRecord
100
AcDbLayerTableRecord
  2
XSEC_DATUMS
 70
0
 62
7
  6
CONTINUOUS
370
-3
390
F
  0
ENDTAB
  0
TABLE
  2
STYLE
  5
3
100
AcDbSymbolTable
 70
1
  0
STYLE
  5
11
100
AcDbSymbolTableRecord
100
AcDbTextStyleTableRecord
  2
STANDARD
 70
0
 40
0.0
 41
0.8
 50
0.0
 71
0
 42
0.2
  3
txt
  4

  0
STYLE
  5
215
100
AcDbSymbolTableRecord
100
AcDbTextStyleTableRecord
  2
TEXTSTYLE_1
 70
0
 40
0.0
 41
0.8
 50
0.0
 71
0
 42
0.2
  3
gdt
  4

  0
ENDTAB
  0
TABLE
  2
VIEW
  5
6
100
AcDbSymbolTable
 70
0
  0
ENDTAB
  0
TABLE
  2
UCS
  5
7
100
AcDbSymbolTable
 70
0
  0
ENDTAB
  0
TABLE
  2
APPID
  5
9
100
AcDbSymbolTable
 70
1
  0
APPID
  5
216
100
AcDbSymbolTableRecord
100
AcDbRegAppTableRecord
  2
ACAD
 70
0
  0
ENDTAB
  0
TABLE
  2
BLOCK_RECORD
  5
1
100
AcDbSymbolTable
 70
0
  0
BLOCK_RECORD
  5
217
100
AcDbSymbolTableRecord
100
AcDbBlockTableRecord
  2
*Model_Space
  0
BLOCK_RECORD
  5
218
100
AcDbSymbolTableRecord
100
AcDbBlockTableRecord
  2
*Paper_Space
  0
ENDTAB
  0
TABLE
  2
DIMSTYLE
  5
A
100
AcDbSymbolTable
 70
1
100
AcDbDimStyleTable
 71
0
  0
DIMSTYLE
105
219
100
AcDbSymbolTableRecord
100
AcDbDimStyleTableRecord
  2
STANDARD
 70
0
  3

  4

 40
1.0
 41
3.0
 42
0.5
 43
0.38
 44
1.5
 45
0.0
 46
0.0
 47
0.01
 48
0.01
140
3.0
141
0.09
142
0.0
143
25.4
144
1.0
145
0.0
146
1.0
147
0.625
 71
1.0
 72
0.0
 73
0
 74
0
 75
0
 76
0
 77
1
 78
8
170
0
171
2
172
0
173
0
174
0
175
0
176
0
177
0
178
0
270
2
271
2
272
2
273
2
274
2
275
0
280
0
281
0
282
0
283
1
284
8
285
0
286
0
287
3
288
0
340
11
278
44
  0
ENDTAB
  0
ENDSEC
  0
SECTION
  2
BLOCKS
  0
BLOCK
  5
20
100
AcDbEntity
  8
0
100
AcDbBlockBegin
  2
*Model_Space
 70
0
 10
0.0
 20
0.0
 30
0.0
  3
*Model_Space
  1

  0
ENDBLK
  5
21
100
AcDbEntity
  8
0
100
AcDbBlockEnd
  0
BLOCK
  5
1C
100
AcDbEntity
  8
0
100
AcDbBlockBegin
  2
*Paper_Space
 70
0
 10
0.0
 20
0.0
 30
0.0
  3
*Paper_Space
  1

  0
ENDBLK
  5
1D
100
AcDbEntity
  8
0
100
AcDbBlockEnd
  0
ENDSEC
  0
SECTION
  2
ENTITIES
  0
LWPOLYLINE
  5
21A
100
AcDbEntity
  8
RACCORDO
100
AcDbPolyline
 62
253
  6
CONTINUOUS
 90
22
 70
0
 10
-30.4858100049
 20
20.5289695031
 10
-30.5592782606
 20
20.4833719763
 10
-30.6321135153
 20
20.431726148
 10
-30.7039512454
 20
20.3742870109
 10
-30.7744242581
 20
20.3113398183
 10
-30.843188187
 20
20.2431942382
 10
-30.9099221799
 20
20.170179995
 10
-30.9743010755
 20
20.0926439604
 10
-31.0359917463
 20
20.0109768953
 10
-31.0946802185
 20
19.9256086527
 10
-31.1500639769
 20
19.8369806734
 10
-31.2018795937
 20
19.745513829
 10
-31.2498950954
 20
19.6516312456
 10
-31.2938774671
 20
19.5557751972
 10
-31.333593462
 20
19.4584364599
 10
-31.3688402521
 20
19.3601243188
 10
-31.3994394122
 20
19.261339012
 10
-31.4252436238
 20
19.1625540395
 10
-31.4461326047
 20
19.0642431435
 10
-31.4620028967
 20
18.9668875676
 10
-31.4727711216
 20
18.8709735356
 10
-31.4783821966
 20
18.7769757503
  0
LWPOLYLINE
  5
21B
100
AcDbEntity
  8
RACCORDO
100
AcDbPolyline
 62
7
  6
CONTINUOUS
 90
19
 70
0
 10
-30.7190299622
 20
20.5378105618
 10
-30.7663964054
 20
20.5088984046
 10
-30.8532269149
 20
20.4489787583
 10
-30.9366341781
 20
20.3824291179
 10
-31.0164713423
 20
20.3096687455
 10
-31.0925966084
 20
20.2311141595
 10
-31.1647250371
 20
20.1472660539
 10
-31.232682433
 20
20.0585196678
 10
-31.2962444109
 20
19.9652826193
 10
-31.3549905394
 20
19.868237053
 10
-31.4087158684
 20
19.7678242924
 10
-31.4571774042
 20
19.6644635484
 10
-31.5000011342
 20
19.5589328196
 10
-31.5369805185
 20
19.4516925909
 10
-31.567882621
 20
19.3431646406
 10
-31.59243245
 20
19.2340237931
 10
-31.6104001602
 20
19.1247153817
 10
-31.6215735068
 20
19.0155927983
 10
-31.6248631842
 20
18.9519408159
  0
LWPOLYLINE
  5
21C
100
AcDbEntity
  8
RACCORDO
100
AcDbPolyline
 62
7
  6
CONTINUOUS
 90
10
 70
0
 10
-26.6679719784
 20
24.5837025141
 10
-26.6749800409
 20
24.5797811722
 10
-26.7015598555
 20
24.5619754402
 10
-26.7257068595
 20
24.5408624948
 10
-26.7470138855
 20
24.5167516502
 10
-26.7651311515
 20
24.489961416
 10
-26.7797147037
 20
24.4608759896
 10
-26.7904396903
 20
24.4299894562
 10
-26.7970588688
 20
24.3978471822
 10
-26.7994153414
 20
24.3637247588
  0
LINE
  5
21D
100
AcDbEntity
  8
RACCORDO
100
AcDbLine
 62
7
  6
CONTINUOUS
 10
-26.6681214173
 20
24.5836220619
 11
-25.1009803886
 21
25.4291305998
  0
LINE
  5
21E
100
AcDbEntity
  8
RACCORDO
100
AcDbLine
 62
253
  6
CONTINUOUS
 10
-26.552500641
 20
24.5785326308
 11
-24.9862498948
 21
25.4235608408
  0
LINE
  5
21F
100
AcDbEntity
  8
RACCORDO
100
AcDbLine
 62
253
  6
CONTINUOUS
 10
-26.6681051859
 20
24.5836308171
 11
-26.6679719784
 21
24.5837025141
  0
LINE
  5
220
100
AcDbEntity
  8
RACCORDO
100
AcDbLine
 62
7
  6
CONTINUOUS
 10
-25.1009398132
 20
25.4291524607
 11
-25.0970389444
 21
25.4311410764
  0
LWPOLYLINE
  5
221
100
AcDbEntity
  8
RACCORDO
100
AcDbPolyline
 62
253
  6
CONTINUOUS
 90
7
 70
0
 10
-26.6679719784
 20
24.5837025141
 10
-26.6606641933
 20
24.5872323149
 10
-26.6411206893
 20
24.5933019359
 10
-26.6201278939
 20
24.5953844404
 10
-26.5981225192
 20
24.5935302354
 10
-26.5754504395
 20
24.5878564593
 10
-26.552500641
 20
24.5785326308
  0
LINE
  5
222
100
AcDbEntity
  8
RACCORDO
100
AcDbLine
 62
7
  6
CONTINUOUS
 10
-25.0969891704
 20
25.4311650053
 11
-24.5595786553
 21
25.6895266756
  0
LINE
  5
223
100
AcDbEntity
  8
RACCORDO
100
AcDbLine
 62
253
  6
CONTINUOUS
 10
-24.986229702
 20
25.4235507444
 11
-24.4497153849
 21
25.6814815648
  0
LWPOLYLINE
  5
224
100
AcDbEntity
  8
RACCORDO
100
AcDbPolyline
 62
7
  6
CONTINUOUS
 90
7
 70
0
 10
-25.0970389444
 20
25.4311410764
 10
-25.0941541687
 20
25.4324684379
 10
-25.0749007448
 20
25.4386026616
 10
-25.0541191689
 20
25.4407804417
 10
-25.0321636841
 20
25.4389645457
 10
-25.0094054399
 20
25.4331878367
 10
-24.986229702
 20
25.4235507444
  0
LWPOLYLINE
  5
225
100
AcDbEntity
  8
RACCORDO
100
AcDbPolyline
 62
253
  6
CONTINUOUS
 90
7
 70
0
 10
-24.5595786553
 20
25.6895266756
 10
-24.5567014303
 20
25.6908503636
 10
-24.5375319059
 20
25.6969436589
 10
-24.5168863546
 20
25.6990552388
 10
-24.4951179933
 20
25.6971489771
 10
-24.4725992485
 20
25.6912574874
 10
-24.4497153849
 20
25.6814815648
  0
LWPOLYLINE
  5
226
100
AcDbEntity
  8
RACCORDO
100
AcDbPolyline
 62
7
  6
CONTINUOUS
 90
10
 70
0
 10
-31.9651757673
 20
0.9502404799
 10
-31.9617829724
 20
0.9163735996
 10
-31.9552278893
 20
0.8797987896
 10
-31.945248581
 20
0.8414710631
 10
-31.9314700754
 20
0.8023960102
 10
-31.9142076138
 20
0.7631580247
 10
-31.8942346634
 20
0.723845045
 10
-31.8717399501
 20
0.6847647737
 10
-31.8465276791
 20
0.6465062055
 10
-31.8186916251
 20
0.6094345866
  0
LWPOLYLINE
  5
227
100
AcDbEntity
  8
RACCORDO
100
AcDbPolyline
 62
253
  6
CONTINUOUS
 90
9
 70
0
 10
-31.6724896875
 20
-16.5739956349
 10
-31.6716407781
 20
-16.5853110711
 10
-31.6658219993
 20
-16.6121878025
 10
-31.654720428
 20
-16.6384754255
 10
-31.6384550122
 20
-16.6638922813
 10
-31.6172000278
 20
-16.6881660406
 10
-31.5911832116
 20
-16.7110366223
 10
-31.5606833209
 20
-16.7322589791
 10
-31.5260271472
 20
-16.7516057239
  0
LWPOLYLINE
  5
228
100
AcDbEntity
  8
RACCORDO
100
AcDbPolyline
 62
7
  6
CONTINUOUS
 90
15
 70
0
 10
-31.6724836093
 20
-16.5739954278
 10
-31.6694476389
 20
-16.6314573052
 10
-31.659031751
 20
-16.7290209416
 10
-31.6423059486
 20
-16.822472037
 10
-31.6194935122
 20
-16.9115371603
 10
-31.5908084707
 20
-16.9961313839
 10
-31.5564067143
 20
-17.0761868966
 10
-31.5165011714
 20
-17.1514476879
 10
-31.4713482401
 20
-17.2216763652
 10
-31.4211933186
 20
-17.286660917
 10
-31.3663729968
 20
-17.3460849129
 10
-31.3072863174
 20
-17.3996659314
 10
-31.2443835939
 20
-17.4471718691
 10
-31.1781754068
 20
-17.4883867563
 10
-31.1406734867
 20
-17.5082483386
  0
LWPOLYLINE
  5
229
100
AcDbEntity
  8
RACCORDO
100
AcDbPolyline
 62
7
  6
CONTINUOUS
 90
9
 70
0
 10
-31.9164679727
 20
1.4615436122
 10
-31.914942769
 20
1.4260993356
 10
-31.9107931204
 20
1.3944351884
 10
-31.9041968653
 20
1.363869364
 10
-31.895444431
 20
1.3347578974
 10
-31.8848819621
 20
1.3074759074
 10
-31.8725357586
 20
1.2816529534
 10
-31.8587546095
 20
1.2577506151
 10
-31.8438774756
 20
1.235981831
  0
LWPOLYLINE
  5
22A
100
AcDbEntity
  8
RACCORDO
100
AcDbPolyline
 62
253
  6
CONTINUOUS
 90
10
 70
0
 10
-31.5260271475
 20
-16.7516057241
 10
-31.5866077848
 20
-14.8381440458
 10
-31.6401749547
 20
-12.9207283333
 10
-31.6867275223
 20
-10.9993973155
 10
-31.7262639248
 20
-9.0742192586
 10
-31.7587841065
 20
-7.1452037031
 10
-31.7842884273
 20
-5.2123008901
 10
-31.8027755922
 20
-3.2755197204
 10
-31.8142437421
 20
-1.3349283274
 10
-31.8186916251
 20
0.6094345866
  0
LWPOLYLINE
  5
22B
100
AcDbEntity
  8
RACCORDO
100
AcDbPolyline
 62
253
  6
CONTINUOUS
 90
12
 70
0
 10
-31.7700723366
 20
1.2853383103
 10
-31.7698789215
 20
1.2669520174
 10
-31.7693928055
 20
1.2491727162
 10
-31.7685283758
 20
1.2321631041
 10
-31.7671821745
 20
1.2160528711
 10
-31.7653016968
 20
1.2010838017
 10
-31.7629176858
 20
1.1875802588
 10
-31.7600403506
 20
1.1757556432
 10
-31.7566356456
 20
1.1657544951
 10
-31.7527197842
 20
1.1577698494
 10
-31.7483750739
 20
1.1520064773
 10
-31.7442593906
 20
1.148911113
  0
LWPOLYLINE
  5
22C
100
AcDbEntity
  8
RACCORDO
100
AcDbPolyline
 62
7
  6
CONTINUOUS
 90
10
 70
0
 10
-31.9651925406
 20
0.9515902178
 10
-31.9613935955
 20
-0.9791365442
 10
-31.9503678737
 20
-2.9475627742
 10
-31.9321212372
 20
-4.9121782499
 10
-31.9066539427
 20
-6.8729363998
 10
-31.8739664803
 20
-8.8297985526
 10
-31.83405937
 20
-10.7827294214
 10
-31.7869332411
 20
-12.7316908619
 10
-31.732589217
 20
-14.6766372014
 10
-31.6724909006
 20
-16.5739595927
  0
LWPOLYLINE
  5
22D
100
AcDbEntity
  8
RACCORDO
100
AcDbPolyline
 62
7
  6
CONTINUOUS
 90
10
 70
0
 10
-31.6248643399
 20
18.9520267826
 10
-31.6837420753
 20
17.0313729657
 10
-31.7371636749
 20
15.0679943685
 10
-31.7836380711
 20
13.1079250385
 10
-31.8231640583
 20
11.1512094017
 10
-31.855740894
 20
9.1978843609
 10
-31.8813679491
 20
7.2479839379
 10
-31.9000446133
 20
5.3015449718
 10
-31.9117704937
 20
3.3586114933
 10
-31.9165153262
 20
1.4614239152
  0
LWPOLYLINE
  5
22E
100
AcDbEntity
  8
RACCORDO
100
AcDbPolyline
 62
253
  6
CONTINUOUS
 90
10
 70
0
 10
-31.4783821966
 20
18.7769757503
 10
-31.5383112498
 20
16.8200237266
 10
-31.5913613252
 20
14.8663629298
 10
-31.6375318223
 20
12.9160318399
 10
-31.676821731
 20
10.9690979735
 10
-31.709231487
 20
9.0255704667
 10
-31.7347619243
 20
7.0854005718
 10
-31.7534122891
 20
5.1485979891
 10
-31.7651812878
 20
3.2152303699
 10
-31.7700682093
 20
1.2853362466
  0
LINE
  5
22F
100
AcDbEntity
  8
RACCORDO
100
AcDbLine
 62
7
  6
CONTINUOUS
 10
-31.9650650068
 20
0.9516157255
 11
-31.9651757858
 21
0.9502412893
  0
LWPOLYLINE
  5
230
100
AcDbEntity
  8
RACCORDO
100
AcDbPolyline
 62
7
  6
CONTINUOUS
 90
8
 70
0
 10
-28.444035519
 20
11.1710922708
 10
-28.44172915
 20
11.1786783574
 10
-28.4330151012
 20
11.2013919489
 10
-28.4229038266
 20
11.2226771065
 10
-28.4114130814
 20
11.2425516234
 10
-28.3986889279
 20
11.2607615794
 10
-28.3847157173
 20
11.2772856578
 10
-28.3695093726
 20
11.2921450473
  0
LWPOLYLINE
  5
231
100
AcDbEntity
  8
RACCORDO
100
AcDbPolyline
 62
253
  6
CONTINUOUS
 90
12
 70
0
 10
-24.5482564859
 20
23.1979984628
 10
-24.5613961405
 20
23.1687849147
 10
-24.5772520304
 20
23.1415871366
 10
-24.5955558679
 20
23.1168653459
 10
-24.615997949
 20
23.0950378604
 10
-24.6382323752
 20
23.0764740392
 10
-24.6618829013
 20
23.0614880232
 10
-24.6865493314
 20
23.0503333947
 10
-24.7118142908
 20
23.0431988989
 10
-24.7372502672
 20
23.0402052608
 10
-24.762426857
 20
23.0414031355
 10
-24.773687707
 20
23.0433342393
  0
LWPOLYLINE
  5
232
100
AcDbEntity
  8
RACCORDO
100
AcDbPolyline
 62
253
  6
CONTINUOUS
 90
12
 70
0
 10
-25.087843518
 20
23.3124618929
 10
-25.1010141819
 20
23.2831880322
 10
-25.1169090611
 20
23.255944227
 10
-25.1352567708
 20
23.2311920656
 10
-25.1557426631
 20
23.2093521865
 10
-25.1780194955
 20
23.1907913448
 10
-25.2017147923
 20
23.1758192027
 10
-25.2264482719
 20
23.1646829067
 10
-25.2517798918
 20
23.1575871687
 10
-25.2772203073
 20
23.1546555786
 10
-25.3023199982
 20
23.1559073613
 10
-25.3133733586
 20
23.1578185454
  0
LWPOLYLINE
  5
233
100
AcDbEntity
  8
RACCORDO
100
AcDbPolyline
 62
7
  6
CONTINUOUS
 90
3
 70
0
 10
-22.8680847541
 20
24.3608063097
 10
-22.867166688
 20
24.3626852958
 10
-22.8670249252
 20
24.3638936043
  0
LINE
  5
234
100
AcDbEntity
  8
RACCORDO
100
AcDbLine
 62
253
  6
CONTINUOUS
 10
-23.4659433913
 20
23.7194964491
 11
-22.9387122403
 21
24.3638444245
  0
LINE
  5
235
100
AcDbEntity
  8
RACCORDO
100
AcDbLine
 62
7
  6
CONTINUOUS
 10
-23.4659433913
 20
23.6302526582
 11
-22.8685095066
 21
24.360397896
  0
LINE
  5
236
100
AcDbEntity
  8
RACCORDO
100
AcDbLine
 62
7
  6
CONTINUOUS
 10
-26.4402282454
 20
23.0327483922
 11
-30.7191640618
 21
20.5377368908
  0
LINE
  5
237
100
AcDbEntity
  8
RACCORDO
100
AcDbLine
 62
253
  6
CONTINUOUS
 10
-26.2062512931
 20
23.0243442096
 11
-30.4858100049
 21
20.5289695031
  0
LWPOLYLINE
  5
238
100
AcDbEntity
  8
RACCORDO
100
AcDbPolyline
 62
253
  6
CONTINUOUS
 90
7
 70
0
 10
-22.9387122403
 20
24.7094818855
 10
-22.9179043597
 20
24.7215127589
 10
-22.9002100792
 20
24.7348634095
 10
-22.8859904814
 20
24.7493380328
 10
-22.8755396196
 20
24.7647502107
 10
-22.869152945
 20
24.780820429
 10
-22.8670248526
 20
24.7970955438
  0
LINE
  5
239
100
AcDbEntity
  8
RACCORDO
100
AcDbLine
 62
7
  6
CONTINUOUS
 10
-26.4173016801
 20
23.1725473169
 11
-26.1046512758
 21
23.3310257715
  0
LINE
  5
23A
100
AcDbEntity
  8
RACCORDO
100
AcDbLine
 62
253
  6
CONTINUOUS
 10
-23.6426931627
 20
24.7517824747
 11
-25.2645932893
 21
23.9345789549
  0
LINE
  5
23B
100
AcDbEntity
  8
RACCORDO
100
AcDbLine
 62
253
  6
CONTINUOUS
 10
-23.4659433913
 20
24.446934213
 11
-25.087843518
 21
23.6297306933
  0
LINE
  5
23C
100
AcDbEntity
  8
RACCORDO
100
AcDbLine
 62
7
  6
CONTINUOUS
 10
-24.368394142
 20
22.3900493442
 11
-23.4659433913
 21
22.8447542411
  0
LINE
  5
23D
100
AcDbEntity
  8
RACCORDO
100
AcDbLine
 62
253
  6
CONTINUOUS
 10
-23.1154822045
 20
25.0143649746
 11
-23.6427133555
 21
24.7517925711
  0
LINE
  5
23E
100
AcDbEntity
  8
RACCORDO
100
AcDbLine
 62
253
  6
CONTINUOUS
 10
-22.9387122403
 20
24.7094818855
 11
-23.4659433913
 21
24.446909482
  0
LWPOLYLINE
  5
23F
100
AcDbEntity
  8
RACCORDO
100
AcDbPolyline
 62
253
  6
CONTINUOUS
 90
13
 70
0
 10
-25.087843518
 20
23.6297306933
 10
-25.1119571135
 20
23.6194801853
 10
-25.1386548163
 20
23.6107823472
 10
-25.1675474749
 20
23.6038127258
 10
-25.1982644915
 20
23.5987140492
 10
-25.2302546609
 20
23.5956287929
 10
-25.262775208
 20
23.5946497739
 10
-25.2952061772
 20
23.5957889334
 10
-25.3270668773
 20
23.5990226651
 10
-25.3578089312
 20
23.6042942001
 10
-25.3869111651
 20
23.6115115951
 10
-25.4138874074
 20
23.6205515615
 10
-25.4382848059
 20
23.6312598207
  0
LWPOLYLINE
  5
240
100
AcDbEntity
  8
RACCORDO
100
AcDbPolyline
 62
253
  6
CONTINUOUS
 90
13
 70
0
 10
-24.368394142
 20
22.9098439862
 10
-24.3930608966
 20
22.8993876051
 10
-24.4202207868
 20
22.8906107468
 10
-24.4494193557
 20
22.8836602719
 10
-24.4801680341
 20
22.8786524812
 10
-24.5119523135
 20
22.8756711692
 10
-24.5442403544
 20
22.8747662219
 10
-24.5764918899
 20
22.8759527814
 10
-24.6081672661
 20
22.8792109934
 10
-24.6387364685
 20
22.8844863391
 10
-24.6676879923
 20
22.891690548
 10
-24.6945374003
 20
22.9007030741
 10
-24.7188354299
 20
22.9113731136
  0
LWPOLYLINE
  5
241
100
AcDbEntity
  8
RACCORDO
100
AcDbPolyline
 62
253
  6
CONTINUOUS
 90
13
 70
0
 10
-25.087843518
 20
23.3124618929
 10
-25.1125634438
 20
23.3019857847
 10
-25.1397810639
 20
23.2931977233
 10
-25.1690381056
 20
23.2862444269
 10
-25.1998396181
 20
23.2812420522
 10
-25.2316706135
 20
23.2782728373
 10
-25.264005473
 20
23.2773856049
 10
-25.2963292641
 20
23.2785978192
 10
-25.3280708682
 20
23.2818914025
 10
-25.3586274709
 20
23.2871970887
 10
-25.3874750539
 20
23.2944067682
 10
-25.4141698259
 20
23.303391489
 10
-25.4382848059
 20
23.3139910203
  0
LWPOLYLINE
  5
242
100
AcDbEntity
  8
RACCORDO
100
AcDbPolyline
 62
253
  6
CONTINUOUS
 90
7
 70
0
 10
-24.4497153849
 20
25.6814815648
 10
-24.4272805711
 20
25.6907063937
 10
-24.4050827803
 20
25.696289638
 10
-24.3834983582
 20
25.6980618181
 10
-24.3628607494
 20
25.6959044564
 10
-24.3435971937
 20
25.6897653402
 10
-24.3394814412
 20
25.6878323296
  0
LWPOLYLINE
  5
243
100
AcDbEntity
  8
RACCORDO
100
AcDbPolyline
 62
253
  6
CONTINUOUS
 90
7
 70
0
 10
-23.1154822045
 20
25.0143649746
 10
-23.0930473907
 20
25.0235898035
 10
-23.0708495999
 20
25.0291730477
 10
-23.0492651778
 20
25.0309452279
 10
-23.0286275689
 20
25.0287878662
 10
-23.0093640133
 20
25.02264875
 10
-23.0054059317
 20
25.0207943268
  0
LWPOLYLINE
  5
244
100
AcDbEntity
  8
RACCORDO
100
AcDbPolyline
 62
7
  6
CONTINUOUS
 90
8
 70
0
 10
-24.5595786553
 20
25.6895266756
 10
-24.5313910609
 20
25.7010206484
 10
-24.5015897078
 20
25.7090926075
 10
-24.4706756443
 20
25.7134569057
 10
-24.4390863895
 20
25.7139156015
 10
-24.4075559097
 20
25.7103627387
 10
-24.376931645
 20
25.7029077308
 10
-24.3473746824
 20
25.6916064879
  0
LWPOLYLINE
  5
245
100
AcDbEntity
  8
RACCORDO
100
AcDbPolyline
 62
253
  6
CONTINUOUS
 90
13
 70
0
 10
-31.1416072761
 20
-17.5077828032
 10
-31.1976910697
 20
-17.4754925919
 10
-31.2495053163
 20
-17.4370702653
 10
-31.2975201223
 20
-17.3923376722
 10
-31.3415026272
 20
-17.3415026251
 10
-31.3812193737
 20
-17.2848238457
 10
-31.4164674631
 20
-17.2225936397
 10
-31.4470684983
 20
-17.1551318493
 10
-31.4728750716
 20
-17.0827664408
 10
-31.4937667561
 20
-17.005842469
 10
-31.509640133
 20
-16.9247349533
 10
-31.5204119374
 20
-16.8398495081
 10
-31.5260271475
 20
-16.7516057241
  0
LWPOLYLINE
  5
246
100
AcDbEntity
  8
RACCORDO
100
AcDbPolyline
 62
253
  6
CONTINUOUS
 90
9
 70
0
 10
-28.2389141643
 20
7.4719013081
 10
-28.2381394433
 20
7.4541838076
 10
-28.2358237684
 20
7.4374351448
 10
-28.2319925105
 20
7.4218388215
 10
-28.2266876457
 20
7.4075657143
 10
-28.2199672952
 20
7.3947722022
 10
-28.2119050886
 20
7.3835984538
 10
-28.2025893572
 20
7.3741668909
 10
-28.1921221659
 20
7.3665808477
  0
LWPOLYLINE
  5
247
100
AcDbEntity
  8
RACCORDO
100
AcDbPolyline
 62
7
  6
CONTINUOUS
 90
19
 70
0
 10
-28.5096248424
 20
7.9084856166
 10
-28.5083436982
 20
7.8716787012
 10
-28.5045854564
 20
7.8348632074
 10
-28.4984669582
 20
7.7981716993
 10
-28.4900696941
 20
7.7616476306
 10
-28.4794833044
 20
7.7254599267
 10
-28.4668585141
 20
7.6899362668
 10
-28.4523253287
 20
7.6552676029
 10
-28.4359407067
 20
7.6214876333
 10
-28.4177756107
 20
7.588709832
 10
-28.3978690032
 20
7.557018747
 10
-28.3762945869
 20
7.5265778575
 10
-28.353167957
 20
7.4976020072
 10
-28.3284580118
 20
7.4701319919
 10
-28.3022691992
 20
7.4443901694
 10
-28.2749373252
 20
7.420770116
 10
-28.2466163842
 20
7.3994261891
 10
-28.2172625253
 20
7.3803714357
 10
-28.1869355272
 20
7.363726548
  0
LWPOLYLINE
  5
248
100
AcDbEntity
  8
RACCORDO
100
AcDbPolyline
 62
253
  6
CONTINUOUS
 90
22
 70
0
 10
-28.4510461987
 20
7.8377749464
 10
-28.4504385214
 20
7.8179565739
 10
-28.4486756158
 20
7.7978570013
 10
-28.4457574818
 20
7.7774762283
 10
-28.441655571
 20
7.7566902274
 10
-28.4363984318
 20
7.7356230263
 10
-28.4300717093
 20
7.7146467081
 10
-28.4226554392
 20
7.6937665508
 10
-28.4141695858
 20
7.6729772764
 10
-28.4047596869
 20
7.652635134
 10
-28.3944130134
 20
7.6327536045
 10
-28.3831422944
 20
7.613319207
 10
-28.3711312561
 20
7.5946477478
 10
-28.35836462
 20
7.5767476439
 10
-28.3448576645
 20
7.5596104785
 10
-28.3308399509
 20
7.5435268072
 10
-28.3162973592
 20
7.5285130363
 10
-28.3012440094
 20
7.5145527597
 10
-28.2859518228
 20
7.5018873148
 10
-28.27051144
 20
7.4905971475
 10
-28.2548322205
 20
7.4806018119
 10
-28.2389141643
 20
7.4719013081
  0
LINE
  5
249
100
AcDbEntity
  8
RACCORDO
100
AcDbLine
 62
7
  6
CONTINUOUS
 10
-28.5214381244
 20
7.9579850875
 11
-28.5217571138
 21
7.9871275175
  0
LINE
  5
24A
100
AcDbEntity
  8
RACCORDO
100
AcDbLine
 62
7
  6
CONTINUOUS
 10
-28.5096248424
 20
10.9395745377
 11
-28.5096248424
 21
7.9084856176
  0
LINE
  5
24B
100
AcDbEntity
  8
RACCORDO
100
AcDbLine
 62
253
  6
CONTINUOUS
 10
-28.4510461987
 20
10.8688638596
 11
-28.4510461987
 21
7.8377749464
  0
LINE
  5
24C
100
AcDbEntity
  8
RACCORDO
100
AcDbLine
 62
7
  6
CONTINUOUS
 10
-28.5096248424
 20
8.7059744781
 11
-28.5217571138
 21
7.9871275175
  0
LWPOLYLINE
  5
24D
100
AcDbEntity
  8
RACCORDO
100
AcDbPolyline
 62
253
  6
CONTINUOUS
 90
16
 70
0
 10
-28.2389141643
 20
11.0226054636
 10
-28.2381394626
 20
11.041097469
 10
-28.2358238363
 20
11.0601616159
 10
-28.2319926467
 20
11.0795890402
 10
-28.22668786
 20
11.0991668967
 10
-28.2199675878
 20
11.118680688
 10
-28.2119054521
 20
11.1379166143
 10
-28.2025897759
 20
11.1566639228
 10
-28.1921226178
 20
11.1747172102
 10
-28.1806186572
 20
11.1918786707
 10
-28.1682039299
 20
11.2079602756
 10
-28.1550144524
 20
11.2227858246
 10
-28.1411947369
 20
11.2361928728
 10
-28.1268961976
 20
11.2480345224
 10
-28.1122754914
 20
11.25818103
 10
-28.0974928074
 20
11.2665212221
  0
LWPOLYLINE
  5
24E
100
AcDbEntity
  8
RACCORDO
100
AcDbPolyline
 62
253
  6
CONTINUOUS
 90
13
 70
0
 10
-26.7261921575
 20
24.2752134965
 10
-26.7247131828
 20
24.3039005019
 10
-26.7203010057
 20
24.3335864714
 10
-26.7130294539
 20
24.3637746788
 10
-26.7030202
 20
24.3939599941
 10
-26.6904407257
 20
24.423637336
 10
-26.6755015196
 20
24.4523101227
 10
-26.6584525545
 20
24.4794985812
 10
-26.6395791057
 20
24.5047477757
 10
-26.6191969767
 20
24.5276352191
 10
-26.5976472152
 20
24.5477779431
 10
-26.5752904068
 20
24.5648389055
 10
-26.552500641
 20
24.5785326308
  0
LINE
  5
24F
100
AcDbEntity
  8
RACCORDO
100
AcDbLine
 62
7
  6
CONTINUOUS
 10
-20.7435822837
 20
22.6960092526
 11
-21.0970270304
 21
22.5053177031
  0
LINE
  5
250
100
AcDbEntity
  8
0
100
AcDbLine
 62
7
  6
CONTINUOUS
 10
-15.7938348154
 20
22.7158335357
 11
-15.0867280342
 21
23.0693869263
  0
LINE
  5
251
100
AcDbEntity
  8
RACCORDO
100
AcDbLine
 62
7
  6
CONTINUOUS
 10
-14.8008000256
 20
24.9742886334
 11
-19.4000793995
 21
22.7238069024
  0
LINE
  5
252
100
AcDbEntity
  8
RACCORDO
100
AcDbLine
 62
7
  6
CONTINUOUS
 10
-15.0867280342
 20
23.6219451156
 11
-14.7451273809
 21
23.7890943508
  0
LINE
  5
253
100
AcDbEntity
  8
RACCORDO
100
AcDbLine
 62
7
  6
CONTINUOUS
 10
-12.6763943858
 20
24.4515752981
 11
-14.7331746437
 21
23.4451684203
  0
LINE
  5
254
100
AcDbEntity
  8
RACCORDO
100
AcDbLine
 62
7
  6
CONTINUOUS
 10
-15.3908879982
 20
25.2693326197
 11
-20.7435822837
 21
22.6960092526
  0
LINE
  5
255
100
AcDbEntity
  8
RACCORDO
100
AcDbLine
 62
7
  6
CONTINUOUS
 10
-22.0516221249
 20
22.8371426999
 11
-15.5702994408
 21
25.8985278256
  0
LINE
  5
256
100
AcDbEntity
  8
RACCORDO
100
AcDbLine
 62
253
  6
CONTINUOUS
 10
-0.432034612
 20
32.2725631958
 11
-14.5298916233
 21
25.624194885
  0
LINE
  5
257
100
AcDbEntity
  8
RACCORDO
100
AcDbLine
 62
7
  6
CONTINUOUS
 10
0.298468519
 20
32.8558077822
 11
-14.7762691964
 21
25.7473836716
  0
LINE
  5
258
100
AcDbEntity
  8
RACCORDO
100
AcDbLine
 62
7
  6
CONTINUOUS
 10
0.8351265884
 20
33.1084355697
 11
0.298468519
 21
32.8558077822
  0
LINE
  5
259
100
AcDbEntity
  8
RACCORDO
100
AcDbLine
 62
253
  6
CONTINUOUS
 10
1.273309196
 20
33.0757018372
 11
-0.432034612
 21
32.2725631958
  0
LWPOLYLINE
  5
25A
100
AcDbEntity
  8
RACCORDO
100
AcDbPolyline
 62
7
  6
CONTINUOUS
 90
7
 70
0
 10
-15.3908879982
 20
25.2693326197
 10
-15.380940005
 20
25.273940218
 10
-15.37105431
 20
25.2781924515
 10
-15.3612309132
 20
25.2820893201
 10
-15.3514698148
 20
25.2856308239
 10
-15.3417710145
 20
25.2888169629
 10
-15.3321345126
 20
25.291647737
  0
LINE
  5
25B
100
AcDbEntity
  8
RACCORDO
100
AcDbLine
 62
253
  6
CONTINUOUS
 10
0.8346586776
 20
33.1082148273
 11
0.8343121534
 21
33.108051397
  0
LWPOLYLINE
  5
25C
100
AcDbEntity
  8
RACCORDO
100
AcDbPolyline
 62
7
  6
CONTINUOUS
 90
7
 70
0
 10
-14.7451273809
 20
24.9961130699
 10
-14.7542594864
 20
24.9932904689
 10
-14.7634502594
 20
24.9901419459
 10
-14.7726996998
 20
24.9866675008
 10
-14.7820078076
 20
24.9828671337
 10
-14.7913745829
 20
24.9787408446
 10
-14.8008000256
 20
24.9742886334
  0
LINE
  5
25D
100
AcDbEntity
  8
RACCORDO
100
AcDbLine
 62
253
  6
CONTINUOUS
 10
6.3365445216
 20
-31.5739023046
 11
5.8082773498
 21
-31.4654000275
  0
LINE
  5
25E
100
AcDbEntity
  8
RACCORDO
100
AcDbLine
 62
253
  6
CONTINUOUS
 10
6.2471307262
 20
-31.2543354986
 11
5.8082773498
 21
-31.1641981719
  0
LWPOLYLINE
  5
25F
100
AcDbEntity
  8
RACCORDO
100
AcDbPolyline
 62
7
  6
CONTINUOUS
 90
10
 70
0
 10
-16.2561458864
 20
-24.9505120264
 10
-16.2190802101
 20
-24.968047664
 10
-16.1445805291
 20
-24.9972763445
 10
-16.0671368245
 20
-25.019909313
 10
-15.98713702
 20
-25.0357272626
 10
-15.9047031119
 20
-25.0445442899
 10
-15.820281882
 20
-25.0461357308
 10
-15.7343557666
 20
-25.0403386471
 10
-15.6469630908
 20
-25.0269465298
 10
-15.6036193304
 20
-25.0165643995
  0
LWPOLYLINE
  5
260
100
AcDbEntity
  8
RACCORDO
100
AcDbPolyline
 62
253
  6
CONTINUOUS
 90
31
 70
0
 10
3.8544745993
 20
-32.9719667558
 10
3.8639326175
 20
-32.9764552894
 10
3.8738458545
 20
-32.9806911357
 10
3.8841873397
 20
-32.9846627704
 10
3.8949289373
 20
-32.9883593879
 10
3.9060414229
 20
-32.991770931
 10
3.9174945633
 20
-32.9948881181
 10
3.9292571981
 20
-32.9977024681
 10
3.9412973252
 20
-33.0002063244
 10
3.9535821872
 20
-33.0023928746
 10
3.9660783613
 20
-33.0042561699
 10
3.9787518493
 20
-33.005791141
 10
3.991568171
 20
-33.0069936115
 10
4.0044924574
 20
-33.0078603101
 10
4.0174895457
 20
-33.0083888787
 10
4.0305240751
 20
-33.0085778793
 10
4.0435605831
 20
-33.0084267976
 10
4.0565636016
 20
-33.0079360447
 10
4.0694977537
 20
-33.0071069558
 10
4.0823278498
 20
-33.0059417866
 10
4.0950189835
 20
-33.004443707
 10
4.1075366263
 20
-33.0026167929
 10
4.119846722
 20
-33.0004660147
 10
4.1319157788
 20
-32.9979972239
 10
4.1437109609
 20
-32.9952171374
 10
4.1552001773
 20
-32.9921333188
 10
4.1663521698
 20
-32.9887541581
 10
4.1771365975
 20
-32.985088849
 10
4.1875241194
 20
-32.9811473635
 10
4.1974864747
 20
-32.9769404252
 10
4.206996559
 20
-32.9724794797
  0
LWPOLYLINE
  5
261
100
AcDbEntity
  8
RACCORDO
100
AcDbPolyline
 62
253
  6
CONTINUOUS
 90
31
 70
0
 10
3.8544745993
 20
-32.6319928217
 10
3.8639326175
 20
-32.6364813553
 10
3.8738458545
 20
-32.6407172016
 10
3.8841873397
 20
-32.6446888363
 10
3.8949289373
 20
-32.6483854538
 10
3.9060414229
 20
-32.6517969969
 10
3.9174945633
 20
-32.6549141839
 10
3.9292571981
 20
-32.657728534
 10
3.9412973252
 20
-32.6602323903
 10
3.9535821872
 20
-32.6624189405
 10
3.9660783613
 20
-32.6642822358
 10
3.9787518493
 20
-32.6658172068
 10
3.991568171
 20
-32.6670196774
 10
4.0044924574
 20
-32.667886376
 10
4.0174895457
 20
-32.6684149446
 10
4.0305240751
 20
-32.6686039452
 10
4.0435605831
 20
-32.6684528635
 10
4.0565636016
 20
-32.6679621106
 10
4.0694977537
 20
-32.6671330217
 10
4.0823278498
 20
-32.6659678524
 10
4.0950189835
 20
-32.6644697729
 10
4.1075366263
 20
-32.6626428588
 10
4.119846722
 20
-32.6604920806
 10
4.1319157788
 20
-32.6580232898
 10
4.1437109609
 20
-32.6552432033
 10
4.1552001773
 20
-32.6521593847
 10
4.1663521698
 20
-32.648780224
 10
4.1771365975
 20
-32.6451149149
 10
4.1875241194
 20
-32.6411734294
 10
4.1974864747
 20
-32.6369664911
 10
4.206996559
 20
-32.6325055455
  0
LWPOLYLINE
  5
262
100
AcDbEntity
  8
RACCORDO
100
AcDbPolyline
 62
7
  6
CONTINUOUS
 90
19
 70
0
 10
3.9194479683
 20
-33.1071852422
 10
3.928098554
 20
-33.1113052448
 10
3.939934857
 20
-33.1163042301
 10
3.9520333531
 20
-33.1206955053
 10
3.9643648861
 20
-33.1244647057
 10
3.9768959619
 20
-33.1275978701
 10
3.9895976022
 20
-33.1300839252
 10
4.0024375238
 20
-33.1319123901
 10
4.0153807628
 20
-33.133074152
 10
4.0283934091
 20
-33.1335620726
 10
4.0414402722
 20
-33.1333706913
 10
4.0544857905
 20
-33.132496383
 10
4.0674948207
 20
-33.1309372706
 10
4.0804331244
 20
-33.1286929683
 10
4.093262233
 20
-33.1257656158
 10
4.1059405785
 20
-33.1221607019
 10
4.1184315852
 20
-33.1178850383
 10
4.1306996789
 20
-33.1129471481
 10
4.1407350238
 20
-33.1083300779
  0
LWPOLYLINE
  5
263
100
AcDbEntity
  8
RACCORDO
100
AcDbPolyline
 62
7
  6
CONTINUOUS
 90
24
 70
0
 10
-0.3350153036
 20
-32.9095764972
 10
-0.312163791
 20
-32.9206000819
 10
-0.2797793014
 20
-32.934879369
 10
-0.2467157983
 20
-32.9479120542
 10
-0.2130027084
 20
-32.9596715357
 10
-0.1786476141
 20
-32.9701377983
 10
-0.1436903702
 20
-32.9792805422
 10
-0.1081741223
 20
-32.9870723812
 10
-0.0721084474
 20
-32.9934936573
 10
-0.0355316552
 20
-32.9985180172
 10
0.0015100399
 20
-33.0021205243
 10
0.0389991529
 20
-33.0042815735
 10
0.0768927544
 20
-33.0049796536
 10
0.1151506964
 20
-33.0041948487
 10
0.1537651233
 20
-33.0019069293
 10
0.1926955252
 20
-32.9980976829
 10
0.2319033807
 20
-32.9927499224
 10
0.271389747
 20
-32.9858395368
 10
0.3111218697
 20
-32.977346533
 10
0.351060758
 20
-32.9672538562
 10
0.3912046037
 20
-32.955533516
 10
0.4315307412
 20
-32.9421605225
 10
0.4719890164
 20
-32.9271212204
 10
0.4995535161
 20
-32.9159352226
  0
LINE
  5
264
100
AcDbEntity
  8
RACCORDO
100
AcDbLine
 62
7
  6
CONTINUOUS
 10
-16.2550345308
 20
-24.9510691759
 11
-31.1416077865
 21
-17.507782548
  0
LINE
  5
265
100
AcDbEntity
  8
RACCORDO
100
AcDbLine
 62
7
  6
CONTINUOUS
 10
-15.1688289196
 20
-25.4926697067
 11
-0.3349305101
 21
-32.9096189115
  0
LINE
  5
266
100
AcDbEntity
  8
RACCORDO
100
AcDbLine
 62
7
  6
CONTINUOUS
 10
-0.3350177268
 20
-32.909575294
 11
-0.3349308367
 21
-32.9096187482
  0
LINE
  5
267
100
AcDbEntity
  8
RACCORDO
100
AcDbLine
 62
253
  6
CONTINUOUS
 10
-16.6485071942
 20
-24.1903657008
 11
-31.5260271475
 21
-16.7516057241
  0
LINE
  5
268
100
AcDbEntity
  8
RACCORDO
100
AcDbLine
 62
253
  6
CONTINUOUS
 10
-15.5532453846
 20
-24.7365962168
 11
-0.728399307
 21
-32.1490192556
  0
LINE
  5
269
100
AcDbEntity
  8
RACCORDO
100
AcDbLine
 62
7
  6
CONTINUOUS
 10
2.5944632159
 20
-32.444692866
 11
3.9194478958
 21
-33.1071852059
  0
LINE
  5
26A
100
AcDbEntity
  8
RACCORDO
100
AcDbLine
 62
253
  6
CONTINUOUS
 10
2.5294899195
 20
-32.3094744159
 11
3.8544745993
 21
-32.9719667558
  0
LINE
  5
26B
100
AcDbEntity
  8
RACCORDO
100
AcDbLine
 62
253
  6
CONTINUOUS
 10
3.8544745993
 20
-32.6319928217
 11
2.632071229
 21
-32.0207911365
  0
LINE
  5
26C
100
AcDbEntity
  8
RACCORDO
100
AcDbLine
 62
253
  6
CONTINUOUS
 10
3.942862947
 20
-32.4002986479
 11
2.9320283191
 21
-31.8948813339
  0
LWPOLYLINE
  5
26D
100
AcDbEntity
  8
RACCORDO
100
AcDbPolyline
 62
253
  6
CONTINUOUS
 90
16
 70
0
 10
2.5294899195
 20
-32.3094744159
 10
2.5205128523
 20
-32.3047454068
 10
2.5120411597
 20
-32.2997887883
 10
2.5040978903
 20
-32.2946180457
 10
2.4967046553
 20
-32.2892472469
 10
2.489881569
 20
-32.2836910041
 10
2.483647195
 20
-32.2779644339
 10
2.4780184948
 20
-32.2720831165
 10
2.4730107824
 20
-32.266063053
 10
2.4686376819
 20
-32.2599206219
 10
2.4649110912
 20
-32.2536725349
 10
2.4618411492
 20
-32.2473357909
 10
2.4594362081
 20
-32.2409276301
 10
2.4577028109
 20
-32.2344654869
 10
2.4566456737
 20
-32.2279669427
 10
2.4562666148
 20
-32.2210860682
  0
LWPOLYLINE
  5
26E
100
AcDbEntity
  8
RACCORDO
100
AcDbPolyline
 62
253
  6
CONTINUOUS
 90
25
 70
0
 10
-15.1688289196
 20
-25.4926697067
 10
-15.1975955291
 20
-25.4772021256
 10
-15.2248668085
 20
-25.4604094232
 10
-15.2512488637
 20
-25.4419919501
 10
-15.2767087221
 20
-25.4219726757
 10
-15.3012144854
 20
-25.4003765842
 10
-15.3247366146
 20
-25.3772299906
 10
-15.3472457833
 20
-25.3525616004
 10
-15.3687137005
 20
-25.3264021876
 10
-15.3891142966
 20
-25.298783999
 10
-15.4084220417
 20
-25.2697414639
 10
-15.4266128238
 20
-25.239310606
 10
-15.4436647597
 20
-25.2075287049
 10
-15.4595565466
 20
-25.17443524
 10
-15.4742682841
 20
-25.1400712521
 10
-15.4877823252
 20
-25.1044787334
 10
-15.5000819191
 20
-25.0677013507
 10
-15.5111514428
 20
-25.0297850835
 10
-15.5209772798
 20
-24.9907776257
 10
-15.5295470822
 20
-24.950728245
 10
-15.536850379
 20
-24.909685762
 10
-15.5428786528
 20
-24.8676990695
 10
-15.5476244315
 20
-24.8248194084
 10
-15.551081482
 20
-24.7811004406
 10
-15.5532453846
 20
-24.7365962168
  0
LWPOLYLINE
  5
26F
100
AcDbEntity
  8
RACCORDO
100
AcDbPolyline
 62
7
  6
CONTINUOUS
 90
5
 70
0
 10
-26.7994154622
 20
24.0463330438
 10
-26.7971460114
 20
24.012729052
 10
-26.7903000364
 20
23.9794420889
 10
-26.7789231066
 20
23.947205645
 10
-26.76319426
 20
23.9167236015
  0
LINE
  5
270
100
AcDbEntity
  8
RACCORDO
100
AcDbLine
 62
7
  6
CONTINUOUS
 10
-26.7994154622
 20
24.0463330438
 11
-26.7994154622
 21
24.3636018442
  0
LINE
  5
271
100
AcDbEntity
  8
RACCORDO
100
AcDbLine
 62
253
  6
CONTINUOUS
 10
-26.7261921575
 20
23.9579446961
 11
-26.7261921575
 21
24.2752134965
  0
LINE
  5
272
100
AcDbEntity
  8
RACCORDO
100
AcDbLine
 62
7
  6
CONTINUOUS
 10
-26.1046512758
 20
23.1336588148
 11
-26.1046512758
 21
23.5444424534
  0
LINE
  5
273
100
AcDbEntity
  8
RACCORDO
100
AcDbLine
 62
253
  6
CONTINUOUS
 10
-26.0314279711
 20
23.0441615647
 11
-26.0314279711
 21
23.507830801
  0
LINE
  5
274
100
AcDbEntity
  8
RACCORDO
100
AcDbLine
 62
253
  6
CONTINUOUS
 10
-25.4382848059
 20
23.6312598207
 11
-25.4382848059
 21
23.3139910203
  0
LINE
  5
275
100
AcDbEntity
  8
RACCORDO
100
AcDbLine
 62
253
  6
CONTINUOUS
 10
-25.087843518
 20
23.6297306933
 11
-25.087843518
 21
23.3124618929
  0
LINE
  5
276
100
AcDbEntity
  8
RACCORDO
100
AcDbLine
 62
253
  6
CONTINUOUS
 10
-24.7188354299
 20
22.9113731135
 11
-24.7188354299
 21
22.3878652941
  0
LINE
  5
277
100
AcDbEntity
  8
RACCORDO
100
AcDbLine
 62
253
  6
CONTINUOUS
 10
-24.368394142
 20
22.9098439861
 11
-24.368394142
 21
22.3900493442
  0
LWPOLYLINE
  5
278
100
AcDbEntity
  8
RACCORDO
100
AcDbPolyline
 62
253
  6
CONTINUOUS
 90
13
 70
0
 10
-25.4382848059
 20
23.6312598207
 10
-25.4367943658
 20
23.6600602205
 10
-25.4323462111
 20
23.6898754577
 10
-25.4250124891
 20
23.7202031919
 10
-25.4149129971
 20
23.7505348098
 10
-25.4022163788
 20
23.7803542298
 10
-25.3871400538
 20
23.8091474037
 10
-25.3699007611
 20
23.8364826881
 10
-25.3508204202
 20
23.8618341047
 10
-25.3303632353
 20
23.8846283734
 10
-25.3089472846
 20
23.9044934085
 10
-25.2869005951
 20
23.9212130579
 10
-25.2645932893
 20
23.9345789549
  0
LINE
  5
279
100
AcDbEntity
  8
RACCORDO
100
AcDbLine
 62
253
  6
CONTINUOUS
 10
-15.7231241373
 20
22.1926466789
 11
-16.622385725
 21
21.3349600652
  0
LINE
  5
27A
100
AcDbEntity
  8
RACCORDO
100
AcDbLine
 62
7
  6
CONTINUOUS
 10
-15.8204546261
 20
22.1920272011
 11
-16.7151299676
 21
21.3813321865
  0
LWPOLYLINE
  5
27B
100
AcDbEntity
  8
RACCORDO
100
AcDbPolyline
 62
7
  6
CONTINUOUS
 90
5
 70
0
 10
-15.8205051758
 20
22.1919811936
 10
-15.8197322101
 20
22.1926720984
 10
-15.8158366058
 20
22.195797032
 10
-15.8115448183
 20
22.1986411064
 10
-15.8075379384
 20
22.2008229929
  0
LWPOLYLINE
  5
27C
100
AcDbEntity
  8
RACCORDO
100
AcDbPolyline
 62
7
  6
CONTINUOUS
 90
3
 70
0
 10
-28.3695093726
 20
11.2921450473
 10
-28.3532633849
 20
11.305149553
 10
-28.335964424
 20
11.3162754148
  0
LWPOLYLINE
  5
27D
100
AcDbEntity
  8
RACCORDO
100
AcDbPolyline
 62
253
  6
CONTINUOUS
 90
13
 70
0
 10
-5.5370842737
 20
25.1238046203
 10
-5.565107041
 20
25.1081196761
 10
-5.5927043917
 20
25.0881328359
 10
-5.6193935913
 20
25.0641937108
 10
-5.6447077908
 20
25.0367210453
 10
-5.6682041926
 20
25.006195393
 10
-5.6894717964
 20
24.9731507103
 10
-5.7081385878
 20
24.9381650169
 10
-5.7238780464
 20
24.9018502846
 10
-5.7364148564
 20
24.8648417328
 10
-5.7455297234
 20
24.8277867174
 10
-5.7510632095
 20
24.7913334069
 10
-5.7529185226
 20
24.7561194447
  0
LINE
  5
27E
100
AcDbEntity
  8
0
100
AcDbLine
 62
7
  6
CONTINUOUS
 10
-14.7331746437
 20
22.892610231
 11
-13.3353901371
 21
23.5915024843
  0
LINE
  5
27F
100
AcDbEntity
  8
RACCORDO
100
AcDbLine
 62
7
  6
CONTINUOUS
 10
-9.8510525573
 20
22.4994148992
 11
-14.4503319312
 21
20.2489331683
  0
LWPOLYLINE
  5
280
100
AcDbEntity
  8
RACCORDO
100
AcDbPolyline
 62
7
  6
CONTINUOUS
 90
10
 70
0
 10
-15.8075379384
 20
22.2008229929
 10
-15.8068216818
 20
22.2011705934
 10
-15.8016546312
 20
22.203336277
 10
-15.7960363435
 20
22.2050783953
 10
-15.7899505682
 20
22.2063527721
 10
-15.7833783082
 20
22.2071127916
 10
-15.7763065358
 20
22.2072865556
 10
-15.768716823
 20
22.2068244872
 10
-15.7606064639
 20
22.2056710072
 10
-15.7519856321
 20
22.2037347854
  0
LINE
  5
281
100
AcDbEntity
  8
RACCORDO
100
AcDbLine
 62
253
  6
CONTINUOUS
 10
-10.8826958768
 20
23.1188695116
 11
-6.6684551236
 21
25.1358978441
  0
LINE
  5
282
100
AcDbEntity
  8
RACCORDO
100
AcDbLine
 62
253
  6
CONTINUOUS
 10
-10.4050402823
 20
22.8800417143
 11
-6.4600253038
 21
24.7682126685
  0
LINE
  5
283
100
AcDbEntity
  8
RACCORDO
100
AcDbLine
 62
7
  6
CONTINUOUS
 10
-6.2452536201
 20
24.3040113026
 11
-9.8256584381
 21
22.5903507922
  0
LINE
  5
284
100
AcDbEntity
  8
RACCORDO
100
AcDbLine
 62
253
  6
CONTINUOUS
 10
-6.2441910549
 20
24.2317755582
 11
-9.7513250269
 21
22.5531840866
  0
LWPOLYLINE
  5
285
100
AcDbEntity
  8
RACCORDO
100
AcDbPolyline
 62
7
  6
CONTINUOUS
 90
7
 70
0
 10
-9.8510525573
 20
22.4994148992
 10
-9.8416271146
 20
22.5038671104
 10
-9.8322603393
 20
22.5079933996
 10
-9.8229522315
 20
22.5117937667
 10
-9.8137027911
 20
22.5152682117
 10
-9.8045120181
 20
22.5184167347
 10
-9.7953799126
 20
22.5212393357
  0
LWPOLYLINE
  5
286
100
AcDbEntity
  8
RACCORDO
100
AcDbPolyline
 62
253
  6
CONTINUOUS
 90
34
 70
0
 10
-6.6684551236
 20
25.1358978441
 10
-6.6449309738
 20
25.1468401513
 10
-6.6196486101
 20
25.1574677949
 10
-6.5926080325
 20
25.1677807748
 10
-6.563748695
 20
25.1778712521
 10
-6.5331311436
 20
25.1876470657
 10
-6.5009370169
 20
25.196831733
 10
-6.4671088038
 20
25.2054117179
 10
-6.4317040154
 20
25.2134005565
 10
-6.3950768236
 20
25.2205623744
 10
-6.3571829539
 20
25.2268726763
 10
-6.3180666809
 20
25.2323559575
 10
-6.2782150002
 20
25.2368498298
 10
-6.237612957
 20
25.2403238596
 10
-6.1962755061
 20
25.2428084807
 10
-6.154734508
 20
25.2442326057
 10
-6.1129782894
 20
25.2445653041
 10
-6.0710185236
 20
25.2438375065
 10
-6.0294220904
 20
25.2420709177
 10
-5.9881900396
 20
25.2392319427
 10
-5.9473213215
 20
25.2353541766
 10
-5.9073796657
 20
25.2305601096
 10
-5.8683974876
 20
25.2248190399
 10
-5.8303423718
 20
25.2181616694
 10
-5.7936808024
 20
25.2108025942
 10
-5.7584676414
 20
25.2027212824
 10
-5.7246480267
 20
25.193938266
 10
-5.6925238558
 20
25.1847297363
 10
-5.6621551194
 20
25.1750874068
 10
-5.6334818269
 20
25.1650195642
 10
-5.6066259035
 20
25.1548272591
 10
-5.5816279911
 20
25.1446108419
 10
-5.5584474478
 20
25.1342699623
 10
-5.5370842737
 20
25.1238046203
  0
LWPOLYLINE
  5
287
100
AcDbEntity
  8
RACCORDO
100
AcDbPolyline
 62
7
  6
CONTINUOUS
 90
3
 70
0
 10
-15.8075361893
 20
22.2008246189
 10
-15.7347457999
 20
22.2333261985
 10
-15.6524657174
 20
22.2630831747
  0
LWPOLYLINE
  5
288
100
AcDbEntity
  8
RACCORDO
100
AcDbPolyline
 62
253
  6
CONTINUOUS
 90
34
 70
0
 10
-6.4600253038
 20
24.7682126685
 10
-6.4452858162
 20
24.7747911934
 10
-6.4294904513
 20
24.7812580839
 10
-6.4126135638
 20
24.7875705063
 10
-6.394593712
 20
24.7936947044
 10
-6.3754538105
 20
24.7995691825
 10
-6.355314617
 20
24.8051143131
 10
-6.3341815973
 20
24.8102872773
 10
-6.3120727449
 20
24.8150429507
 10
-6.2891587811
 20
24.8193156569
 10
-6.2654778711
 20
24.8230705003
 10
-6.2410722329
 20
24.8262729884
 10
-6.2161442261
 20
24.8288805269
 10
-6.1907606672
 20
24.8308715355
 10
-6.1649768949
 20
24.8322264585
 10
-6.1389932966
 20
24.8329296396
 10
-6.1128766426
 20
24.8329752032
 10
-6.0867014244
 20
24.8323578047
 10
-6.0606836663
 20
24.8310870664
 10
-6.0348843432
 20
24.8291735126
 10
-6.0093800094
 20
24.8266287117
 10
-5.9844022893
 20
24.8234908521
 10
-5.9600048715
 20
24.819788509
 10
-5.936241779
 20
24.8155497529
 10
-5.91332491
 20
24.8108391881
 10
-5.8912878333
 20
24.8057004674
 10
-5.87015259
 20
24.8001735874
 10
-5.8500844842
 20
24.7943405131
 10
-5.8310871775
 20
24.788252979
 10
-5.8131504832
 20
24.7819567867
 10
-5.7963863725
 20
24.7755412912
 10
-5.7808049922
 20
24.7690725917
 10
-5.7663286717
 20
24.7625840492
 10
-5.7529185226
 20
24.7561194447
  0
LWPOLYLINE
  5
289
100
AcDbEntity
  8
RACCORDO
100
AcDbPolyline
 62
253
  6
CONTINUOUS
 90
43
 70
0
 10
0.8975874351
 20
28.9993688442
 10
1.0314534736
 20
29.0584959715
 10
1.1724196938
 20
29.1119212911
 10
1.3204860958
 20
29.159644803
 10
1.4766370379
 20
29.2018640186
 10
1.6398881617
 20
29.2383814265
 10
1.8072863917
 20
29.2686044925
 10
1.9787984068
 20
29.292406064
 10
2.1544575282
 20
29.3099132936
 10
2.3314106435
 20
29.3209151046
 10
2.5096465507
 20
29.3253197977
 10
2.6891764519
 20
29.3232190723
 10
2.8671808404
 20
29.3146769502
 10
3.0436548809
 20
29.2996031894
 10
3.2186034088
 20
29.2780880318
 10
3.3892214237
 20
29.2504662247
 10
3.5554698533
 20
29.2166390137
 10
3.71738777
 20
29.1767051533
 10
3.8722873909
 20
29.1312956542
 10
4.0200835719
 20
29.0803024877
 10
4.1608614571
 20
29.0238336826
 10
4.2921886954
 20
28.9628443353
 10
4.4138870516
 20
28.8972489345
 10
4.5261347609
 20
28.8271329914
 10
4.6270341774
 20
28.7537081368
 10
4.7163623337
 20
28.6769348753
 10
4.7943421973
 20
28.5968527022
 10
4.859745025
 20
28.5147917338
 10
4.9123670559
 20
28.4307346395
 10
4.9524120509
 20
28.3446987499
 10
4.9792625499
 20
28.2580661726
 10
4.9927328365
 20
28.1708373638
 10
4.9930086271
 20
28.0830118673
 10
4.9800296107
 20
27.9959704216
 10
4.9536087765
 20
27.9097116984
 10
4.9139331352
 20
27.824237026
 10
4.8615034084
 20
27.740931128
 10
4.7960565295
 20
27.6597776857
 10
4.7178555649
 20
27.5807930178
 10
4.6281904361
 20
27.5054108042
 10
4.5274911166
 20
27.4341089383
 10
4.4153276328
 20
27.3664095266
 10
4.2916999847
 20
27.3023125693
  0
LWPOLYLINE
  5
28A
100
AcDbEntity
  8
RACCORDO
100
AcDbPolyline
 62
253
  6
CONTINUOUS
 90
33
 70
0
 10
1.1060172549
 20
28.6316836686
 10
1.222466839
 20
28.6828967913
 10
1.3465123553
 20
28.7295225182
 10
1.4774070993
 20
28.7713048455
 10
1.6143611173
 20
28.8080012366
 10
1.7565778494
 20
28.8394345002
 10
1.9032630484
 20
28.8654893617
 10
2.0535544583
 20
28.8860309067
 10
2.2066116019
 20
28.9009589812
 10
2.3616604076
 20
28.9102451793
 10
2.5178178707
 20
28.9138446221
 10
2.6742275807
 20
28.9117423173
 10
2.8301568416
 20
28.903978096
 10
2.984758263
 20
28.8905877342
 10
3.1371576573
 20
28.8716370087
 10
3.286589794
 20
28.8472344271
 10
3.4322392752
 20
28.8175001104
 10
3.5732725357
 20
28.7825865073
 10
3.7089195916
 20
28.7426852767
 10
3.8384447346
 20
28.6979984344
 10
3.9610823858
 20
28.6487693605
 10
4.0760753916
 20
28.5952991644
 10
4.182782133
 20
28.5378886981
 10
4.2806052745
 20
28.4768553432
 10
4.3689505726
 20
28.4125733033
 10
4.4473247915
 20
28.3454279068
 10
4.515328723
 20
28.2757843439
 10
4.5726063766
 20
28.2040162146
 10
4.6188485069
 20
28.130543837
 10
4.6538216376
 20
28.0557721439
 10
4.6773558225
 20
27.9800633535
 10
4.6893179554
 20
27.9038572299
 10
4.6908981128
 20
27.870153659
  0
LWPOLYLINE
  5
28B
100
AcDbEntity
  8
RACCORDO
100
AcDbPolyline
 62
253
  6
CONTINUOUS
 90
41
 70
0
 10
4.0168677288
 20
27.1897601195
 10
3.8688013259
 20
27.142036609
 10
3.7126503801
 20
27.0998173984
 10
3.549399251
 20
27.0632999973
 10
3.382001018
 20
27.0330769353
 10
3.2104890046
 20
27.009275362
 10
3.0348298873
 20
26.9917681277
 10
2.8578767754
 20
26.9807663131
 10
2.6796408695
 20
26.9763616195
 10
2.5001109688
 20
26.9784623456
 10
2.3221065805
 20
26.987004468
 10
2.14563254
 20
27.0020782277
 10
1.9706840119
 20
27.0235933837
 10
1.8000659967
 20
27.0512151895
 10
1.6338175667
 20
27.0850423999
 10
1.4718996497
 20
27.1249762602
 10
1.317000029
 20
27.1703857594
 10
1.1692038486
 20
27.2213789262
 10
1.0284259646
 20
27.2778477319
 10
0.8970987281
 20
27.3388370799
 10
0.7754003746
 20
27.4044324816
 10
0.6631526688
 20
27.4745484255
 10
0.5622532558
 20
27.5479732807
 10
0.4729251032
 20
27.6247465425
 10
0.3949452434
 20
27.7048287156
 10
0.3295424199
 20
27.7868896838
 10
0.2769203948
 20
27.8709467775
 10
0.2368754058
 20
27.9569826664
 10
0.2100249103
 20
28.0436152428
 10
0.1965546216
 20
28.1308440505
 10
0.1962788263
 20
28.2186695458
 10
0.2092578412
 20
28.3057109898
 10
0.2356786831
 20
28.3919697101
 10
0.2753543353
 20
28.4774443792
 10
0.3277840649
 20
28.5607502758
 10
0.39323093
 20
28.6419037202
 10
0.4714318725
 20
28.7208883921
 10
0.5610969849
 20
28.7962706087
 10
0.6617962983
 20
28.8675724758
 10
0.7739597817
 20
28.9352718876
 10
0.8975874351
 20
28.9993688442
  0
LINE
  5
28C
100
AcDbEntity
  8
RACCORDO
100
AcDbLine
 62
7
  6
CONTINUOUS
 10
-15.6524657174
 20
22.2630831747
 11
-15.5666138022
 21
22.2876708237
  0
LWPOLYLINE
  5
28D
100
AcDbEntity
  8
RACCORDO
100
AcDbPolyline
 62
253
  6
CONTINUOUS
 90
5
 70
0
 10
6.2705394515
 20
-31.262419712
 10
6.2689657521
 20
-31.261651297
 10
6.2619380522
 20
-31.2586450915
 10
6.2546536706
 20
-31.2562044685
 10
6.2471307262
 20
-31.2543354986
  0
LWPOLYLINE
  5
28E
100
AcDbEntity
  8
RACCORDO
100
AcDbPolyline
 62
7
  6
CONTINUOUS
 90
34
 70
0
 10
4.5656952074
 20
-31.6554963445
 10
4.575144968
 20
-31.6602007634
 10
4.5850027031
 20
-31.6649560953
 10
4.5952358358
 20
-31.6697545369
 10
4.6058211576
 20
-31.6746033744
 10
4.6167163919
 20
-31.6794821496
 10
4.6278571844
 20
-31.684345178
 10
4.6391953836
 20
-31.6891890086
 10
4.6507077574
 20
-31.6940155999
 10
4.6623657563
 20
-31.6987907538
 10
4.6741359045
 20
-31.7035157848
 10
4.6859858824
 20
-31.7081921153
 10
4.6978906436
 20
-31.7127861212
 10
4.7098195204
 20
-31.7173007732
 10
4.7217429612
 20
-31.7217397236
 10
4.7336392955
 20
-31.7260705029
 10
4.7454809067
 20
-31.7302974709
 10
4.7572410486
 20
-31.7344259624
 10
4.7689008792
 20
-31.7384249143
 10
4.780435825
 20
-31.7422998297
 10
4.7918219553
 20
-31.7460573276
 10
4.8030427035
 20
-31.7496678732
 10
4.814076441
 20
-31.7531379004
 10
4.8249020329
 20
-31.7564750323
 10
4.8355047817
 20
-31.7596513579
 10
4.8458658876
 20
-31.7626740555
 10
4.8559669928
 20
-31.7655515587
 10
4.8657950739
 20
-31.7682577077
 10
4.8753340538
 20
-31.7708002545
 10
4.8845683542
 20
-31.7731883017
 10
4.8934866574
 20
-31.7753976218
 10
4.9020763244
 20
-31.7774259965
 10
4.9103237047
 20
-31.7792934202
 10
4.9182171671
 20
-31.7810090684
  0
LINE
  5
28F
100
AcDbEntity
  8
RACCORDO
100
AcDbLine
 62
7
  6
CONTINUOUS
 10
4.0803921792
 20
-31.4128448304
 11
4.5651809791
 21
-31.6552392304
  0
LINE
  5
290
100
AcDbEntity
  8
RACCORDO
100
AcDbLine
 62
253
  6
CONTINUOUS
 10
5.8082773498
 20
-31.0349088104
 11
6.2471307262
 21
-31.2543354986
  0
LINE
  5
291
100
AcDbEntity
  8
RACCORDO
100
AcDbLine
 62
7
  6
CONTINUOUS
 10
5.8082773498
 20
-31.0312886609
 11
6.2705457774
 21
-31.2624228747
  0
LWPOLYLINE
  5
292
100
AcDbEntity
  8
RACCORDO
100
AcDbPolyline
 62
7
  6
CONTINUOUS
 90
3
 70
0
 10
-28.5045701572
 20
7.8347714607
 10
-28.505226805
 20
7.8373927125
 10
-28.5115251912
 20
7.8681704268
  0
LWPOLYLINE
  5
293
100
AcDbEntity
  8
RACCORDO
100
AcDbPolyline
 62
7
  6
CONTINUOUS
 90
4
 70
0
 10
-28.5115251912
 20
7.8681704268
 10
-28.516335502
 20
7.8985719991
 10
-28.5196309013
 20
7.9284665904
 10
-28.5214381244
 20
7.9579850875
  0
LWPOLYLINE
  5
294
100
AcDbEntity
  8
RACCORDO
100
AcDbPolyline
 62
253
  6
CONTINUOUS
 90
13
 70
0
 10
-25.087843518
 20
23.6297306933
 10
-25.0897381893
 20
23.6585519157
 10
-25.0945707536
 20
23.6884181072
 10
-25.1022585563
 20
23.7188184467
 10
-25.1126701079
 20
23.7492329775
 10
-25.1256273329
 20
23.7791415001
 10
-25.1409086154
 20
23.8080324694
 10
-25.1582525896
 20
23.8354117444
 10
-25.1773626104
 20
23.8608110395
 10
-25.1979118265
 20
23.883795934
 10
-25.2195487713
 20
23.9039733023
 10
-25.241903374
 20
23.9209980376
 10
-25.2645932893
 20
23.9345789549
  0
LWPOLYLINE
  5
295
100
AcDbEntity
  8
RACCORDO
100
AcDbPolyline
 62
7
  6
CONTINUOUS
 90
13
 70
0
 10
-23.4659433913
 20
24.446934213
 10
-23.4675451175
 20
24.4758979575
 10
-23.4721361857
 20
24.5058821912
 10
-23.4796345416
 20
24.5363764001
 10
-23.4899080852
 20
24.566862115
 10
-23.5027805384
 20
24.5968176212
 10
-23.5180339305
 20
24.6257270258
 10
-23.5354096775
 20
24.6530945615
 10
-23.5546081526
 20
24.6784532244
 10
-23.575296692
 20
24.7013692033
 10
-23.5971216027
 20
24.7214501483
 10
-23.6197145389
 20
24.7383513866
 10
-23.6426931627
 20
24.7517824747
  0
LWPOLYLINE
  5
296
100
AcDbEntity
  8
RACCORDO
100
AcDbPolyline
 62
253
  6
CONTINUOUS
 90
8
 70
0
 10
-24.7188354299
 20
22.9113731135
 10
-24.7200818153
 20
22.935977469
 10
-24.7237860293
 20
22.9590736499
 10
-24.7298951929
 20
22.9803525158
 10
-24.7383279735
 20
22.9995296386
 10
-24.7489663588
 20
23.0163541341
 10
-24.7616616854
 20
23.0306066936
 10
-24.7762467054
 20
23.042097306
  0
LWPOLYLINE
  5
297
100
AcDbEntity
  8
RACCORDO
100
AcDbPolyline
 62
253
  6
CONTINUOUS
 90
13
 70
0
 10
-22.9387122403
 20
24.7094818855
 10
-22.9400380078
 20
24.7385902153
 10
-22.9443917761
 20
24.7686994906
 10
-22.9516990581
 20
24.7992945833
 10
-22.9618348365
 20
24.8298520533
 10
-22.974625702
 20
24.8598491047
 10
-22.9898528205
 20
24.8887725292
 10
-23.0072556771
 20
24.916127487
 10
-23.0265365329
 20
24.9414459723
 10
-23.047365519
 20
24.964294821
 10
-23.0693862802
 20
24.9842831206
 10
-23.0922220717
 20
25.001068899
 10
-23.1154822045
 20
25.0143649746
  0
LWPOLYLINE
  5
298
100
AcDbEntity
  8
RACCORDO
100
AcDbPolyline
 62
253
  6
CONTINUOUS
 90
13
 70
0
 10
-24.368394142
 20
22.9098439861
 10
-24.3698829637
 20
22.947457517
 10
-24.3739847014
 20
22.9829008032
 10
-24.3806993552
 20
23.0161738448
 10
-24.390113939
 20
23.0474714066
 10
-24.4021414388
 20
23.0765987239
 10
-24.4165208127
 20
23.102971502
 10
-24.433291263
 20
23.1265503763
 10
-24.4524135873
 20
23.1473747114
 10
-24.4735091367
 20
23.1649783076
 10
-24.4964516948
 20
23.1792057649
 10
-24.5213674779
 20
23.1902124833
 10
-24.548256486
 20
23.1979984628
  0
LINE
  5
299
100
AcDbEntity
  8
RACCORDO
100
AcDbLine
 62
7
  6
CONTINUOUS
 10
-23.4659433913
 20
22.8447542411
 11
-23.4659433913
 21
24.446909482
  0
LINE
  5
29A
100
AcDbEntity
  8
RACCORDO
100
AcDbLine
 62
253
  6
CONTINUOUS
 10
-22.9387122403
 20
24.3638444245
 11
-22.9387122403
 21
24.7094818855
  0
LINE
  5
29B
100
AcDbEntity
  8
RACCORDO
100
AcDbLine
 62
7
  6
CONTINUOUS
 10
-22.8670248526
 20
24.3644353586
 11
-22.8670248526
 21
24.7970955435
  0
LWPOLYLINE
  5
29C
100
AcDbEntity
  8
RACCORDO
100
AcDbPolyline
 62
7
  6
CONTINUOUS
 90
13
 70
0
 10
-28.3210996058
 20
11.2807221161
 10
-28.347218184
 20
11.2660583811
 10
-28.3722188997
 20
11.2486627859
 10
-28.3958245814
 20
11.228578752
 10
-28.4177154298
 20
11.2059460282
 10
-28.4377042533
 20
11.1808313229
 10
-28.4557052338
 20
11.1531413641
 10
-28.4715413362
 20
11.1228238335
 10
-28.4848923081
 20
11.0901243573
 10
-28.4955136349
 20
11.0553250627
 10
-28.5032598377
 20
11.0185799879
 10
-28.5080100091
 20
10.9799542632
 10
-28.5096248424
 20
10.9395745377
  0
LINE
  5
29D
100
AcDbEntity
  8
RACCORDO
100
AcDbLine
 62
7
  6
CONTINUOUS
 10
-28.335964424
 20
11.3162754148
 11
-28.3288526444
 21
11.3201549377
  0
LINE
  5
29E
100
AcDbEntity
  8
RACCORDO
100
AcDbLine
 62
7
  6
CONTINUOUS
 10
-13.3038032529
 20
17.9014629797
 11
-11.7366622242
 21
18.7469715176
  0
LINE
  5
29F
100
AcDbEntity
  8
RACCORDO
100
AcDbLine
 62
253
  6
CONTINUOUS
 10
-13.1881824765
 20
17.8963735486
 11
-11.6219317304
 21
18.7414017586
  0
LINE
  5
2A0
100
AcDbEntity
  8
RACCORDO
100
AcDbLine
 62
7
  6
CONTINUOUS
 10
-11.7366224138
 20
18.7469929962
 11
-11.7327220097
 21
18.7489813541
  0
LINE
  5
2A1
100
AcDbEntity
  8
RACCORDO
100
AcDbLine
 62
7
  6
CONTINUOUS
 10
-14.5210426093
 20
19.5847394154
 11
-14.8870453587
 21
19.4003268673
  0
LINE
  5
2A2
100
AcDbEntity
  8
RACCORDO
100
AcDbLine
 62
7
  6
CONTINUOUS
 10
-14.5210426093
 20
18.3723038501
 11
-14.8870453587
 21
18.187891302
  0
LINE
  5
2A3
100
AcDbEntity
  8
RACCORDO
100
AcDbLine
 62
7
  6
CONTINUOUS
 10
-28.2016664177
 20
11.3404387101
 11
-28.3210996058
 21
11.2807221161
  0
LINE
  5
2A4
100
AcDbEntity
  8
RACCORDO
100
AcDbLine
 62
253
  6
CONTINUOUS
 10
-28.0569998612
 20
11.2867676959
 11
-28.0974928081
 21
11.2665212224
  0
LINE
  5
2A5
100
AcDbEntity
  8
RACCORDO
100
AcDbLine
 62
7
  6
CONTINUOUS
 10
-9.2609645846
 20
22.2043709129
 11
-14.5210426093
 21
19.5847394154
  0
LINE
  5
2A6
100
AcDbEntity
  8
RACCORDO
100
AcDbLine
 62
7
  6
CONTINUOUS
 10
-9.2032276951
 20
21.020689555
 11
-14.5210426093
 21
18.3723038501
  0
LWPOLYLINE
  5
2A7
100
AcDbEntity
  8
RACCORDO
100
AcDbPolyline
 62
253
  6
CONTINUOUS
 90
7
 70
0
 10
-13.303802335
 20
17.9014634749
 10
-13.2974272292
 20
17.9045990608
 10
-13.2780303939
 20
17.9108889192
 10
-13.2570333268
 20
17.9132134739
 10
-13.2348017754
 20
17.9115360795
 10
-13.2117185796
 20
17.9058892517
 10
-13.1881824765
 20
17.8963735486
  0
LINE
  5
2A8
100
AcDbEntity
  8
RACCORDO
100
AcDbLine
 62
7
  6
CONTINUOUS
 10
4.1932517098
 20
27.3283664879
 11
4.1589731725
 21
27.3115466902
  0
LINE
  5
2A9
100
AcDbEntity
  8
RACCORDO
100
AcDbLine
 62
7
  6
CONTINUOUS
 10
-8.4337536987
 20
22.3302549546
 11
-9.0836807397
 21
22.0122379755
  0
LINE
  5
2AA
100
AcDbEntity
  8
RACCORDO
100
AcDbLine
 62
7
  6
CONTINUOUS
 10
-11.732671006
 20
18.7490059231
 11
-11.1952604909
 21
19.0073675934
  0
LINE
  5
2AB
100
AcDbEntity
  8
RACCORDO
100
AcDbLine
 62
253
  6
CONTINUOUS
 10
-11.6219115375
 20
18.7413916621
 11
-11.0853972205
 21
18.9993224826
  0
LWPOLYLINE
  5
2AC
100
AcDbEntity
  8
RACCORDO
100
AcDbPolyline
 62
7
  6
CONTINUOUS
 90
3
 70
0
 10
-28.3288526444
 20
11.3201549377
 10
-28.3176261171
 20
11.3255462544
 10
-28.2984824353
 20
11.3328429292
  0
LINE
  5
2AD
100
AcDbEntity
  8
RACCORDO
100
AcDbLine
 62
253
  6
CONTINUOUS
 10
-5.2363285685
 20
20.9774133576
 11
-2.4258144365
 21
22.322587249
  0
LWPOLYLINE
  5
2AE
100
AcDbEntity
  8
RACCORDO
100
AcDbPolyline
 62
7
  6
CONTINUOUS
 90
32
 70
0
 10
4.1583295918
 20
27.3112348625
 10
4.1282340585
 20
27.2971304163
 10
4.0105938339
 20
27.2470781641
 10
3.882776092
 20
27.2005249053
 10
3.7452781661
 20
27.1580420166
 10
3.5990364205
 20
27.1202269041
 10
3.4454085099
 20
27.0876537245
 10
3.285327958
 20
27.0607034711
 10
3.1197952463
 20
27.0396915864
 10
2.9503434514
 20
27.0249202081
 10
2.7780760873
 20
27.0165736988
 10
2.6041889262
 20
27.0147659277
 10
2.4303822568
 20
27.0195251173
 10
2.257857612
 20
27.0308066809
 10
2.0877678273
 20
27.0484953245
 10
1.9217201912
 20
27.0723427483
 10
1.7608051239
 20
27.1020899218
 10
1.6060577848
 20
27.1374096589
 10
1.4589287745
 20
27.1777774054
 10
1.3205821049
 20
27.2226220276
 10
1.1914326983
 20
27.2715116083
 10
1.071854451
 20
27.3240135799
 10
0.963374516
 20
27.3790873971
 10
0.8655473303
 20
27.436519013
 10
0.7768165249
 20
27.4970919712
 10
0.6977100988
 20
27.5607422912
 10
0.6303479826
 20
27.6259726561
 10
0.5763067143
 20
27.6908516859
 10
0.5364561853
 20
27.7530428955
 10
0.5096892742
 20
27.812138745
 10
0.494657965
 20
27.8695266436
 10
0.4909914453
 20
27.9209700459
  0
LINE
  5
2AF
100
AcDbEntity
  8
RACCORDO
100
AcDbLine
 62
7
  6
CONTINUOUS
 10
-11.1883331639
 20
19.0105685652
 11
-11.1954255693
 21
19.0072880321
  0
LWPOLYLINE
  5
2B0
100
AcDbEntity
  8
RACCORDO
100
AcDbPolyline
 62
7
  6
CONTINUOUS
 90
7
 70
0
 10
-11.7327220097
 20
18.7489813541
 10
-11.729837578
 20
18.7503085118
 10
-11.7105853025
 20
18.7564417994
 10
-11.6898010045
 20
18.7586213595
 10
-11.6678418668
 20
18.7568102803
 10
-11.6450877088
 20
18.7510379716
 10
-11.6219317304
 20
18.7414017586
  0
LWPOLYLINE
  5
2B1
100
AcDbEntity
  8
RACCORDO
100
AcDbPolyline
 62
253
  6
CONTINUOUS
 90
7
 70
0
 10
-11.1952314958
 20
19.0073815267
 10
-11.1917129788
 20
19.0089828796
 10
-11.1723315209
 20
19.014962203
 10
-11.1516112619
 20
19.0168967201
 10
-11.129983613
 20
19.0148435784
 10
-11.1077857896
 20
19.0089265999
 10
-11.0853972205
 20
18.9993224826
  0
LWPOLYLINE
  5
2B2
100
AcDbEntity
  8
RACCORDO
100
AcDbPolyline
 62
7
  6
CONTINUOUS
 90
12
 70
0
 10
-8.4337536987
 20
22.3302549546
 10
-8.3874586183
 20
22.3510096036
 10
-8.3417684136
 20
22.3678806045
 10
-8.2966830844
 20
22.3808679574
 10
-8.2520173539
 20
22.3899937054
 10
-8.2079564991
 20
22.3952358053
 10
-8.16505635
 20
22.3965281278
 10
-8.1233316109
 20
22.3938206357
 10
-8.0827675776
 20
22.3871633661
 10
-8.0438759677
 20
22.376640301
 10
-8.006677968
 20
22.3622024671
 10
-7.9927385823
 20
22.3555808325
  0
LINE
  5
2B3
100
AcDbEntity
  8
RACCORDO
100
AcDbLine
 62
253
  6
CONTINUOUS
 10
4.2916999847
 20
27.3023125693
 11
4.1578339484
 21
27.2431854396
  0
LWPOLYLINE
  5
2B4
100
AcDbEntity
  8
RACCORDO
100
AcDbPolyline
 62
253
  6
CONTINUOUS
 90
43
 70
0
 10
4.433121341
 20
27.2316018912
 10
4.5669873795
 20
27.2907290185
 10
4.7079535998
 20
27.3441543381
 10
4.8560200017
 20
27.39187785
 10
5.0121709438
 20
27.4340970656
 10
5.1754220676
 20
27.4706144736
 10
5.3428202976
 20
27.5008375395
 10
5.5143323128
 20
27.524639111
 10
5.6899914341
 20
27.5421463406
 10
5.8669445494
 20
27.5531481517
 10
6.0451804567
 20
27.5575528448
 10
6.2247103578
 20
27.5554521194
 10
6.4027147464
 20
27.5469099972
 10
6.5791887869
 20
27.5318362364
 10
6.7541373147
 20
27.5103210788
 10
6.9247553297
 20
27.4826992717
 10
7.0910037593
 20
27.4488720608
 10
7.252921676
 20
27.4089382003
 10
7.4078212968
 20
27.3635287012
 10
7.5556174779
 20
27.3125355348
 10
7.6963953631
 20
27.2560667297
 10
7.8277226013
 20
27.1950773823
 10
7.9494209575
 20
27.1294819815
 10
8.0616686668
 20
27.0593660385
 10
8.1625680834
 20
26.9859411838
 10
8.2518962396
 20
26.9091679223
 10
8.3298761032
 20
26.8290857492
 10
8.3952789309
 20
26.7470247808
 10
8.4479009618
 20
26.6629676866
 10
8.4879459568
 20
26.576931797
 10
8.5147964558
 20
26.4902992196
 10
8.5282667424
 20
26.4030704108
 10
8.528542533
 20
26.3152449143
 10
8.5155635166
 20
26.2282034686
 10
8.4891426824
 20
26.1419447454
 10
8.4494670412
 20
26.056470073
 10
8.3970373144
 20
25.9731641751
 10
8.3315904354
 20
25.8920107327
 10
8.2533894709
 20
25.8130260648
 10
8.163724342
 20
25.7376438512
 10
8.0630250226
 20
25.6663419853
 10
7.9508615388
 20
25.5986425737
 10
7.8272338907
 20
25.5345456163
  0
LWPOLYLINE
  5
2B5
100
AcDbEntity
  8
RACCORDO
100
AcDbPolyline
 62
253
  6
CONTINUOUS
 90
33
 70
0
 10
4.6415511609
 20
26.8639167156
 10
4.758000745
 20
26.9151298383
 10
4.8820462612
 20
26.9617555652
 10
5.0129410052
 20
27.0035378926
 10
5.1498950232
 20
27.0402342837
 10
5.2921117554
 20
27.0716675472
 10
5.4387969543
 20
27.0977224088
 10
5.5890883642
 20
27.1182639538
 10
5.7421455079
 20
27.1331920282
 10
5.8971943135
 20
27.1424782263
 10
6.0533517767
 20
27.1460776691
 10
6.2097614866
 20
27.1439753643
 10
6.3656907475
 20
27.1362111431
 10
6.520292169
 20
27.1228207812
 10
6.6726915632
 20
27.1038700558
 10
6.8221236999
 20
27.0794674741
 10
6.9677731811
 20
27.0497331574
 10
7.1088064416
 20
27.0148195544
 10
7.2444534976
 20
26.9749183237
 10
7.3739786405
 20
26.9302314814
 10
7.4966162918
 20
26.8810024076
 10
7.6116092975
 20
26.8275322114
 10
7.7183160389
 20
26.7701217451
 10
7.8161391804
 20
26.7090883903
 10
7.9044844785
 20
26.6448063503
 10
7.9828586975
 20
26.5776609538
 10
8.050862629
 20
26.508017391
 10
8.1081402825
 20
26.4362492616
 10
8.1543824128
 20
26.362776884
 10
8.1893555435
 20
26.2880051909
 10
8.2128897284
 20
26.2122964005
 10
8.2248518613
 20
26.1360902769
 10
8.2264320187
 20
26.1023867061
  0
LWPOLYLINE
  5
2B6
100
AcDbEntity
  8
RACCORDO
100
AcDbPolyline
 62
253
  6
CONTINUOUS
 90
7
 70
0
 10
-11.0853972205
 20
18.9993224826
 10
-11.0624646188
 20
19.0087118583
 10
-11.0399461618
 20
19.0142659495
 10
-11.0182228834
 20
19.0158907759
 10
-10.9976623622
 20
19.0135588437
 10
-10.9786125021
 20
19.0073096116
 10
-10.9751364698
 20
19.0056598493
  0
LINE
  5
2B7
100
AcDbEntity
  8
RACCORDO
100
AcDbLine
 62
253
  6
CONTINUOUS
 10
4.1578339484
 20
27.2431854396
 11
4.0168677288
 21
27.1897601195
  0
LWPOLYLINE
  5
2B8
100
AcDbEntity
  8
RACCORDO
100
AcDbPolyline
 62
253
  6
CONTINUOUS
 90
41
 70
0
 10
7.5524016347
 20
25.4219931665
 10
7.4043352319
 20
25.3742696561
 10
7.248184286
 20
25.3320504454
 10
7.0849331569
 20
25.2955330443
 10
6.9175349239
 20
25.2653099823
 10
6.7460229105
 20
25.241508409
 10
6.5703637933
 20
25.2240011747
 10
6.3934106813
 20
25.2129993602
 10
6.2151747754
 20
25.2085946666
 10
6.0356448748
 20
25.2106953927
 10
5.8576404865
 20
25.2192375151
 10
5.681166446
 20
25.2343112748
 10
5.5062179178
 20
25.2558264308
 10
5.3355999026
 20
25.2834482366
 10
5.1693514727
 20
25.317275447
 10
5.0074335556
 20
25.3572093072
 10
4.8525339349
 20
25.4026188064
 10
4.7047377546
 20
25.4536119732
 10
4.5639598705
 20
25.5100807789
 10
4.432632634
 20
25.571070127
 10
4.3109342806
 20
25.6366655286
 10
4.1986865747
 20
25.7067814725
 10
4.0977871618
 20
25.7802063278
 10
4.0084590091
 20
25.8569795895
 10
3.9304791494
 20
25.9370617626
 10
3.8650763259
 20
26.0191227309
 10
3.8124543007
 20
26.1031798246
 10
3.7724093118
 20
26.1892157134
 10
3.7455588162
 20
26.2758482898
 10
3.7320885275
 20
26.3630770975
 10
3.7318127322
 20
26.4509025928
 10
3.7447917472
 20
26.5379440368
 10
3.7712125891
 20
26.6242027572
 10
3.8108882412
 20
26.7096774263
 10
3.8633179708
 20
26.7929833228
 10
3.9287648359
 20
26.8741367672
 10
4.0069657784
 20
26.9531214391
 10
4.0966308909
 20
27.0285036558
 10
4.1973302042
 20
27.0998055229
 10
4.3094936876
 20
27.1675049347
 10
4.433121341
 20
27.2316018912
  0
LWPOLYLINE
  5
2B9
100
AcDbEntity
  8
RACCORDO
100
AcDbPolyline
 62
7
  6
CONTINUOUS
 90
7
 70
0
 10
-9.2032276951
 20
22.2271943278
 10
-9.2126974581
 20
22.2242801854
 10
-9.2222284419
 20
22.2210101389
 10
-9.2318206464
 20
22.2173841884
 10
-9.2414740717
 20
22.2134023339
 10
-9.2511887178
 20
22.2090645754
 10
-9.2609645846
 20
22.2043709129
  0
LWPOLYLINE
  5
2BA
100
AcDbEntity
  8
RACCORDO
100
AcDbPolyline
 62
7
  6
CONTINUOUS
 90
7
 70
0
 10
-31.8438774756
 20
1.235981831
 10
-31.8278852081
 20
1.2160151119
 10
-31.8118365873
 20
1.1987738247
 10
-31.7956479743
 20
1.183729622
 10
-31.778076089
 20
1.1697290886
 10
-31.7597333248
 20
1.1574709319
 10
-31.7445656666
 20
1.1490641687
  0
LWPOLYLINE
  5
2BB
100
AcDbEntity
  8
RACCORDO
100
AcDbPolyline
 62
253
  6
CONTINUOUS
 90
7
 70
0
 10
-26.7994154622
 20
24.36360189
 10
-26.7968709665
 20
24.3458129893
 10
-26.7901439485
 20
24.3298757568
 10
-26.7794131444
 20
24.3146093289
 10
-26.7649722557
 20
24.3002866233
 10
-26.7471127896
 20
24.2870907882
 10
-26.7261921575
 20
24.2752134965
  0
LWPOLYLINE
  5
2BC
100
AcDbEntity
  8
RACCORDO
100
AcDbPolyline
 62
253
  6
CONTINUOUS
 90
7
 70
0
 10
-26.7994154622
 20
24.0463330438
 10
-26.7970328223
 20
24.0291164603
 10
-26.7905163973
 20
24.0132787735
 10
-26.7799657051
 20
23.9979941736
 10
-26.7655572874
 20
23.9835184129
 10
-26.7475322357
 20
23.97009371
 10
-26.7261921575
 20
23.9579446961
  0
LWPOLYLINE
  5
2BD
100
AcDbEntity
  8
RACCORDO
100
AcDbPolyline
 62
253
  6
CONTINUOUS
 90
17
 70
0
 10
-15.6995198908
 20
-24.5628973078
 10
-15.6981978713
 20
-24.5752104891
 10
-15.6957721682
 20
-24.5874504564
 10
-15.6922481552
 20
-24.5995900945
 10
-15.6876336392
 20
-24.6116025102
 10
-15.6819388428
 20
-24.6234610923
 10
-15.6751763816
 20
-24.6351395702
 10
-15.6673612367
 20
-24.6466120727
 10
-15.658510721
 20
-24.6578531844
 10
-15.6486444412
 20
-24.6688380028
 10
-15.6377842542
 20
-24.6795421931
 10
-15.6259542187
 20
-24.6899420421
 10
-15.6131805419
 20
-24.700014511
 10
-15.5994915215
 20
-24.7097372862
 10
-15.5849174829
 20
-24.7190888285
 10
-15.5694907122
 20
-24.7280484215
 10
-15.5532453845
 20
-24.7365962168
  0
LWPOLYLINE
  5
2BE
100
AcDbEntity
  8
RACCORDO
100
AcDbPolyline
 62
253
  6
CONTINUOUS
 90
10
 70
0
 10
-20.4607395713
 20
3.5828140115
 10
-20.4599648666
 20
3.5650967092
 10
-20.4576492378
 20
3.5483481899
 10
-20.4538180462
 20
3.5327519563
 10
-20.4485132577
 20
3.5184788874
 10
-20.4417929842
 20
3.5056853689
 10
-20.4337308477
 20
3.4945115787
 10
-20.4244151711
 20
3.4850799466
 10
-20.4139480132
 20
3.4774938172
 10
-20.4087609391
 20
3.4746392539
  0
LWPOLYLINE
  5
2BF
100
AcDbEntity
  8
RACCORDO
100
AcDbPolyline
 62
253
  6
CONTINUOUS
 90
22
 70
0
 10
-20.2486075369
 20
6.7676445287
 10
-20.2492152141
 20
6.7874629012
 10
-20.2509781198
 20
6.8075624738
 10
-20.2538962538
 20
6.8279432468
 10
-20.2579981646
 20
6.8487292477
 10
-20.2632553037
 20
6.8697964488
 10
-20.2695820262
 20
6.890772767
 10
-20.2769982964
 20
6.9116529243
 10
-20.2854841498
 20
6.9324421987
 10
-20.2948940486
 20
6.9527843411
 10
-20.3052407222
 20
6.9726658706
 10
-20.3165114412
 20
6.9921002681
 10
-20.3285224795
 20
7.0107717273
 10
-20.3412891156
 20
7.0286718312
 10
-20.3547960711
 20
7.0458089966
 10
-20.3688137847
 20
7.0618926679
 10
-20.3833563764
 20
7.0769064388
 10
-20.3984097262
 20
7.0908667154
 10
-20.4137019127
 20
7.1035321603
 10
-20.4291422955
 20
7.1148223276
 10
-20.444821515
 20
7.1248176632
 10
-20.4607395713
 20
7.133518167
  0
LINE
  5
2C0
100
AcDbEntity
  8
RACCORDO
100
AcDbLine
 62
7
  6
CONTINUOUS
 10
-21.2373571303
 20
22.3264445609
 11
-21.2373571303
 21
21.1140089949
  0
LINE
  5
2C1
100
AcDbEntity
  8
RACCORDO
100
AcDbLine
 62
253
  6
CONTINUOUS
 10
-21.0909105208
 20
22.1474500603
 11
-21.0909105208
 21
20.935014495
  0
LINE
  5
2C2
100
AcDbEntity
  8
RACCORDO
100
AcDbLine
 62
253
  6
CONTINUOUS
 10
-20.2486075369
 20
3.7365556155
 11
-20.2486075369
 21
6.7676445287
  0
LINE
  5
2C3
100
AcDbEntity
  8
RACCORDO
100
AcDbLine
 62
7
  6
CONTINUOUS
 10
-20.0250452402
 20
4.4238258076
 11
-20.0364757396
 21
3.7444868304
  0
LINE
  5
2C4
100
AcDbEntity
  8
RACCORDO
100
AcDbLine
 62
7
  6
CONTINUOUS
 10
-20.0127589352
 20
5.103570089
 11
-20.0250452402
 21
4.4238258076
  0
LINE
  5
2C5
100
AcDbEntity
  8
RACCORDO
100
AcDbLine
 62
7
  6
CONTINUOUS
 10
-19.9996168545
 20
5.7837180287
 11
-20.0127589352
 21
5.103570089
  0
LWPOLYLINE
  5
2C6
100
AcDbEntity
  8
RACCORDO
100
AcDbPolyline
 62
7
  6
CONTINUOUS
 90
3
 70
0
 10
-19.9782992238
 20
6.8046931951
 10
-19.9856190297
 20
6.46426798
 10
-19.9996168545
 20
5.7837180287
  0
LWPOLYLINE
  5
2C7
100
AcDbEntity
  8
RACCORDO
100
AcDbPolyline
 62
253
  6
CONTINUOUS
 90
16
 70
0
 10
-20.4607395713
 20
7.133518167
 10
-20.4599648503
 20
7.1520103885
 10
-20.4576491753
 20
7.1710747262
 10
-20.4538179174
 20
7.1905023074
 10
-20.4485130526
 20
7.2100802795
 10
-20.4417927022
 20
7.229594142
 10
-20.4337304956
 20
7.248830097
 10
-20.4244147641
 20
7.2675773913
 10
-20.4139475729
 20
7.2856306257
 10
-20.4024436026
 20
7.3027920052
 10
-20.3900288931
 20
7.3188735061
 10
-20.3768394627
 20
7.3336989361
 10
-20.3630198175
 20
7.3471058646
 10
-20.3487213683
 20
7.3589474027
 10
-20.3341007721
 20
7.3690938118
 10
-20.319318215
 20
7.3774339259
  0
LWPOLYLINE
  5
2C8
100
AcDbEntity
  8
RACCORDO
100
AcDbPolyline
 62
7
  6
CONTINUOUS
 90
15
 70
0
 10
-20.0364757396
 20
3.7444868304
 10
-20.0377247703
 20
3.7161284091
 10
-20.0404472623
 20
3.6888747675
 10
-20.0446432728
 20
3.6627258784
 10
-20.050343378
 20
3.6375795104
 10
-20.0575171027
 20
3.6135378472
 10
-20.0660729798
 20
3.590907459
 10
-20.0760288246
 20
3.5697063653
 10
-20.0873670319
 20
3.5499164467
 10
-20.0999430979
 20
3.5317900207
 10
-20.1137730241
 20
3.5153483083
 10
-20.1288410835
 20
3.5005699579
 10
-20.144955251
 20
3.487643394
 10
-20.1621290911
 20
3.4765922421
 10
-20.1744944467
 20
3.4700917304
  0
LINE
  5
2C9
100
AcDbEntity
  8
RACCORDO
100
AcDbLine
 62
253
  6
CONTINUOUS
 10
-10.1016252269
 20
17.0373373668
 11
-9.5743940759
 21
17.6816853423
  0
LINE
  5
2CA
100
AcDbEntity
  8
RACCORDO
100
AcDbLine
 62
7
  6
CONTINUOUS
 10
-10.018468505
 20
17.0497223688
 11
-9.5041913421
 21
17.6782388138
  0
LWPOLYLINE
  5
2CB
100
AcDbEntity
  8
RACCORDO
100
AcDbPolyline
 62
7
  6
CONTINUOUS
 90
4
 70
0
 10
-31.9521197918
 20
0.9753232184
 10
-31.9568250483
 20
0.972135063
 10
-31.9625959326
 20
0.9634102302
 10
-31.9650650068
 20
0.9516157255
  0
LWPOLYLINE
  5
2CC
100
AcDbEntity
  8
RACCORDO
100
AcDbPolyline
 62
7
  6
CONTINUOUS
 90
3
 70
0
 10
4.3892835632
 20
27.443451534
 10
4.2958643146
 20
27.3840468098
 10
4.1932517098
 20
27.3283664879
  0
LWPOLYLINE
  5
2CD
100
AcDbEntity
  8
RACCORDO
100
AcDbPolyline
 62
7
  6
CONTINUOUS
 90
37
 70
0
 10
-14.7940229527
 20
12.6392211664
 10
-14.8256991334
 20
12.6201750593
 10
-14.8685870139
 20
12.5925216552
 10
-14.9106580209
 20
12.5632460817
 10
-14.9518945422
 20
12.5324088107
 10
-14.9922876362
 20
12.500063581
 10
-15.031823686
 20
12.466262486
 10
-15.0704885532
 20
12.4310567481
 10
-15.1082671605
 20
12.3944950468
 10
-15.1451344464
 20
12.3566321104
 10
-15.1810735376
 20
12.3175157113
 10
-15.2160653759
 20
12.2771913389
 10
-15.2500764338
 20
12.2357210321
 10
-15.2830860028
 20
12.1931522758
 10
-15.3150720514
 20
12.1495297449
 10
-15.345996927
 20
12.1049221314
 10
-15.3758371134
 20
12.0593770533
 10
-15.4045689818
 20
12.0129405241
 10
-15.4321536906
 20
11.9656853664
 10
-15.458566406
 20
11.9176591052
 10
-15.4837826153
 20
11.8689101205
 10
-15.507762912
 20
11.819514779
 10
-15.5304823567
 20
11.7695214679
 10
-15.5519162913
 20
11.7189791462
 10
-15.5720266973
 20
11.6679649552
 10
-15.5907896295
 20
11.6165271258
 10
-15.6081795381
 20
11.5647144168
 10
-15.6241613169
 20
11.5126024437
 10
-15.6387111441
 20
11.4602382015
 10
-15.6518022702
 20
11.4076687895
 10
-15.6634032756
 20
11.3549644746
 10
-15.6734884184
 20
11.3021715213
 10
-15.682029347
 20
11.2493353888
 10
-15.6889962655
 20
11.1965139883
 10
-15.6943591123
 20
11.1437513593
 10
-15.6980872699
 20
11.0910915191
 10
-15.6997279068
 20
11.0536786809
  0
LWPOLYLINE
  5
2CE
100
AcDbEntity
  8
RACCORDO
100
AcDbPolyline
 62
253
  6
CONTINUOUS
 90
22
 70
0
 10
-15.6113067192
 20
13.0917178603
 10
-15.6865174614
 20
13.0469934258
 10
-15.7610638753
 20
12.9962046238
 10
-15.8345814358
 20
12.939606309
 10
-15.906711022
 20
12.8774873041
 10
-15.9771001328
 20
12.8101534298
 10
-16.0454036396
 20
12.7379233234
 10
-16.1112956238
 20
12.6611439341
 10
-16.1744437736
 20
12.5802060742
 10
-16.2345122613
 20
12.4955286079
 10
-16.2911969356
 20
12.4075525942
 10
-16.3442360961
 20
12.3166993376
 10
-16.3933808292
 20
12.2233820868
 10
-16.4383972831
 20
12.1280415754
 10
-16.4790527399
 20
12.0311699838
 10
-16.5151295487
 20
11.9332711425
 10
-16.546447326
 20
11.8348454185
 10
-16.5728610024
 20
11.7363662331
 10
-16.5942418178
 20
11.6383016015
 10
-16.6104833405
 20
11.5411308763
 10
-16.6215049401
 20
11.4453422166
 10
-16.6272514397
 20
11.3514103719
  0
LWPOLYLINE
  5
2CF
100
AcDbEntity
  8
RACCORDO
100
AcDbPolyline
 62
253
  6
CONTINUOUS
 90
22
 70
0
 10
-15.2454739792
 20
12.4887154146
 10
-15.2961130528
 20
12.4588764622
 10
-15.3458834512
 20
12.4253231943
 10
-15.3947851744
 20
12.3880556109
 10
-15.4430677922
 20
12.3468449796
 10
-15.4904817348
 20
12.3019200328
 10
-15.5362782932
 20
12.2539669675
 10
-15.5804204771
 20
12.2029443837
 10
-15.6229452768
 20
12.1488936815
 10
-15.6632149548
 20
12.0926252576
 10
-15.7011888515
 20
12.0341172958
 10
-15.7369076266
 20
11.9733916124
 10
-15.7698555203
 20
11.9113240528
 10
-15.7999982016
 20
11.8478813147
 10
-15.8273700017
 20
11.7830967004
 10
-15.8515581549
 20
11.717945963
 10
-15.8725117052
 20
11.6524153285
 10
-15.8902816088
 20
11.5865185709
 10
-15.9046079679
 20
11.521272765
 10
-15.91540415
 20
11.4570169359
 10
-15.9227567877
 20
11.3934120586
 10
-15.926665881
 20
11.330458133
  0
LINE
  5
2D0
100
AcDbEntity
  8
RACCORDO
100
AcDbLine
 62
7
  6
CONTINUOUS
 10
-14.7940334222
 20
12.6392151998
 11
-10.2050585953
 21
15.3150078417
  0
LINE
  5
2D1
100
AcDbEntity
  8
RACCORDO
100
AcDbLine
 62
253
  6
CONTINUOUS
 10
-10.2050585953
 20
15.1701736652
 11
-14.5606793746
 21
12.6304478067
  0
LWPOLYLINE
  5
2D2
100
AcDbEntity
  8
RACCORDO
100
AcDbPolyline
 62
253
  6
CONTINUOUS
 90
7
 70
0
 10
-9.5743940759
 20
18.0273228033
 10
-9.5531572765
 20
18.0396370053
 10
-9.5352970446
 20
18.0532253463
 10
-9.5211155922
 20
18.0678578986
 10
-9.5108528833
 20
18.0832870653
 10
-9.5046825727
 20
18.0992517701
 10
-9.5027066882
 20
18.1149364613
  0
LWPOLYLINE
  5
2D3
100
AcDbEntity
  8
RACCORDO
100
AcDbPolyline
 62
253
  6
CONTINUOUS
 90
17
 70
0
 10
-14.7940230125
 20
12.6392212691
 10
-14.7915747598
 20
12.6406226666
 10
-14.7789382887
 20
12.6470744264
 10
-14.7657660978
 20
12.6525310691
 10
-14.7520879919
 20
12.6569802481
 10
-14.73793492
 20
12.6604118963
 10
-14.7233389064
 20
12.6628182489
 10
-14.7083329771
 20
12.6641938611
 10
-14.6929510859
 20
12.6645356203
 10
-14.6772280373
 20
12.6638427532
 10
-14.6611994076
 20
12.6621168275
 10
-14.6449014646
 20
12.6593617486
 10
-14.6283710855
 20
12.6555837502
 10
-14.6116456733
 20
12.6507913808
 10
-14.5947630726
 20
12.644995484
 10
-14.5777614832
 20
12.6382091742
 10
-14.5606793746
 20
12.6304478067
  0
LWPOLYLINE
  5
2D4
100
AcDbEntity
  8
RACCORDO
100
AcDbPolyline
 62
253
  6
CONTINUOUS
 90
13
 70
0
 10
-0.5873368054
 20
22.6489308862
 10
-0.6153596032
 20
22.6332459224
 10
-0.6429569768
 20
22.6132590586
 10
-0.669646191
 20
22.5893199094
 10
-0.6949603964
 20
22.5618472234
 10
-0.7184567963
 20
22.5313215566
 10
-0.7397243923
 20
22.4982768667
 10
-0.7583911715
 20
22.463291175
 10
-0.7741306154
 20
22.4269764535
 10
-0.7866674114
 20
22.3899679192
 10
-0.7957822664
 20
22.3529129263
 10
-0.8013157443
 20
22.3164596428
 10
-0.8031710543
 20
22.2812457106
  0
LWPOLYLINE
  5
2D5
100
AcDbEntity
  8
RACCORDO
100
AcDbPolyline
 62
7
  6
CONTINUOUS
 90
22
 70
0
 10
-10.7721656551
 20
16.6630614641
 10
-10.7836926593
 20
16.656759956
 10
-10.7949178459
 20
16.6498321339
 10
-10.805798517
 20
16.6422951325
 10
-10.8162977687
 20
16.6341660613
 10
-10.8263710891
 20
16.6254723439
 10
-10.8359688757
 20
16.6162536784
 10
-10.8450188193
 20
16.6065865836
 10
-10.853534628
 20
16.5964658566
 10
-10.8615821471
 20
16.5857983521
 10
-10.8691595325
 20
16.5745407392
 10
-10.8761708994
 20
16.562788638
 10
-10.8825375039
 20
16.550652547
 10
-10.8882234432
 20
16.5382001174
 10
-10.8932205528
 20
16.5254515494
 10
-10.8975115403
 20
16.512450594
 10
-10.9010815687
 20
16.49924592
 10
-10.9039217831
 20
16.485877957
 10
-10.9060276415
 20
16.4723717984
 10
-10.9073932258
 20
16.4587558897
 10
-10.9080117996
 20
16.4450829775
 10
-10.9080515493
 20
16.4406314183
  0
LINE
  5
2D6
100
AcDbEntity
  8
RACCORDO
100
AcDbLine
 62
253
  6
CONTINUOUS
 10
-11.1796939435
 20
15.5110655348
 11
-15.6113067192
 21
13.0917178603
  0
LINE
  5
2D7
100
AcDbEntity
  8
RACCORDO
100
AcDbLine
 62
253
  6
CONTINUOUS
 10
-12.211977316
 20
14.1447904079
 11
-15.2454739792
 21
12.4887154146
  0
LINE
  5
2D8
100
AcDbEntity
  8
RACCORDO
100
AcDbLine
 62
7
  6
CONTINUOUS
 10
-0.6976916093
 20
22.1160725564
 11
-0.7203995817
 21
22.1043960919
  0
LINE
  5
2D9
100
AcDbEntity
  8
RACCORDO
100
AcDbLine
 62
7
  6
CONTINUOUS
 10
-9.1889939601
 20
17.4752585113
 11
-10.7721656551
 21
16.6630614641
  0
LINE
  5
2DA
100
AcDbEntity
  8
RACCORDO
100
AcDbLine
 62
253
  6
CONTINUOUS
 10
-9.0763233858
 20
17.4685975863
 11
-10.6590799889
 21
16.6566134889
  0
LINE
  5
2DB
100
AcDbEntity
  8
RACCORDO
100
AcDbLine
 62
7
  6
CONTINUOUS
 10
-10.1037034421
 20
18.5699433354
 11
-5.5398486437
 21
20.8833024271
  0
LINE
  5
2DC
100
AcDbEntity
  8
RACCORDO
100
AcDbLine
 62
253
  6
CONTINUOUS
 10
-10.2783749982
 20
18.0696233925
 11
-11.9002751249
 21
17.2524198727
  0
LINE
  5
2DD
100
AcDbEntity
  8
RACCORDO
100
AcDbLine
 62
253
  6
CONTINUOUS
 10
-10.1016252269
 20
17.7647751308
 11
-11.7235253535
 21
16.9475716111
  0
LINE
  5
2DE
100
AcDbEntity
  8
RACCORDO
100
AcDbLine
 62
7
  6
CONTINUOUS
 10
-11.0040759776
 20
15.707890262
 11
-10.7189109279
 21
15.8515722794
  0
LINE
  5
2DF
100
AcDbEntity
  8
RACCORDO
100
AcDbLine
 62
253
  6
CONTINUOUS
 10
-7.7328145183
 20
16.7968431525
 11
-9.3340953091
 21
15.994121149
  0
LINE
  5
2E0
100
AcDbEntity
  8
RACCORDO
100
AcDbLine
 62
253
  6
CONTINUOUS
 10
-7.5560408146
 20
16.4919536137
 11
-9.1573216054
 21
15.6892316102
  0
LINE
  5
2E1
100
AcDbEntity
  8
RACCORDO
100
AcDbLine
 62
7
  6
CONTINUOUS
 10
-9.1872555746
 20
17.4761277441
 11
-9.1889919864
 21
17.4752595239
  0
LINE
  5
2E2
100
AcDbEntity
  8
RACCORDO
100
AcDbLine
 62
253
  6
CONTINUOUS
 10
-7.2045473465
 20
17.0602819725
 11
-7.7328145183
 21
16.7968431525
  0
LINE
  5
2E3
100
AcDbEntity
  8
RACCORDO
100
AcDbLine
 62
253
  6
CONTINUOUS
 10
-7.0277736429
 20
16.7553924337
 11
-7.5560408146
 21
16.4919536137
  0
LINE
  5
2E4
100
AcDbEntity
  8
RACCORDO
100
AcDbLine
 62
253
  6
CONTINUOUS
 10
-9.7511640401
 20
18.3322058924
 11
-10.2783951911
 21
18.0696334889
  0
LINE
  5
2E5
100
AcDbEntity
  8
RACCORDO
100
AcDbLine
 62
253
  6
CONTINUOUS
 10
-9.5743940759
 20
18.0273228033
 11
-10.1016252269
 21
17.7647503998
  0
LINE
  5
2E6
100
AcDbEntity
  8
RACCORDO
100
AcDbLine
 62
253
  6
CONTINUOUS
 10
-28.5096248424
 20
7.9931696659
 11
-28.5217571138
 21
7.9871275175
  0
LINE
  5
2E7
100
AcDbEntity
  8
RACCORDO
100
AcDbLine
 62
7
  6
CONTINUOUS
 10
7.7287856157
 20
25.5605995349
 11
7.6945070784
 21
25.5437797373
  0
LINE
  5
2E8
100
AcDbEntity
  8
RACCORDO
100
AcDbLine
 62
7
  6
CONTINUOUS
 10
-8.6523856182
 20
17.7366798439
 11
-9.187252809
 21
17.4761290913
  0
LINE
  5
2E9
100
AcDbEntity
  8
RACCORDO
100
AcDbLine
 62
253
  6
CONTINUOUS
 10
-8.5418735071
 20
17.7289450528
 11
-9.0763233858
 21
17.4685975863
  0
LINE
  5
2EA
100
AcDbEntity
  8
DRAFT
100
AcDbLine
 62
7
  6
CONTINUOUS
 10
-9.5027066882
 20
17.9581087158
 11
-3.7203042656
 21
20.7501092713
  0
LINE
  5
2EB
100
AcDbEntity
  8
RACCORDO
100
AcDbLine
 62
253
  6
CONTINUOUS
 10
-4.7773635827
 20
20.7296398239
 11
-2.0052525823
 21
22.0564331316
  0
LINE
  5
2EC
100
AcDbEntity
  8
RACCORDO
100
AcDbLine
 62
7
  6
CONTINUOUS
 10
-0.7205551945
 20
22.1043217448
 11
-3.636989745
 21
20.708452011
  0
LINE
  5
2ED
100
AcDbEntity
  8
RACCORDO
100
AcDbLine
 62
253
  6
CONTINUOUS
 10
-0.5873368054
 20
22.0953386849
 11
-3.5626563338
 21
20.6712853054
  0
LINE
  5
2EE
100
AcDbEntity
  8
RACCORDO
100
AcDbLine
 62
253
  6
CONTINUOUS
 10
-10.839588495
 20
15.0491580147
 11
-10.2050585953
 21
15.3488715904
  0
LWPOLYLINE
  5
2EF
100
AcDbEntity
  8
RACCORDO
100
AcDbPolyline
 62
7
  6
CONTINUOUS
 90
32
 70
0
 10
7.6938634978
 20
25.5434679095
 10
7.6637679644
 20
25.5293634633
 10
7.5461277399
 20
25.4793112111
 10
7.4183099979
 20
25.4327579523
 10
7.280812072
 20
25.3902750636
 10
7.1345703264
 20
25.3524599511
 10
6.9809424159
 20
25.3198867716
 10
6.820861864
 20
25.2929365182
 10
6.6553291522
 20
25.2719246334
 10
6.4858773573
 20
25.2571532552
 10
6.3136099933
 20
25.2488067458
 10
6.1397228321
 20
25.2469989748
 10
5.9659161627
 20
25.2517581644
 10
5.7933915179
 20
25.2630397279
 10
5.6233017332
 20
25.2807283716
 10
5.4572540972
 20
25.3045757953
 10
5.2963390298
 20
25.3343229688
 10
5.1415916907
 20
25.369642706
 10
4.9944626805
 20
25.4100104524
 10
4.8561160108
 20
25.4548550746
 10
4.7269666043
 20
25.5037446553
 10
4.607388357
 20
25.5562466269
 10
4.4989084219
 20
25.6113204441
 10
4.4010812362
 20
25.66875206
 10
4.3123504309
 20
25.7293250182
 10
4.2332440048
 20
25.7929753382
 10
4.1658818885
 20
25.8582057031
 10
4.1118406203
 20
25.9230847329
 10
4.0719900912
 20
25.9852759426
 10
4.0452231801
 20
26.0443717921
 10
4.0301918709
 20
26.1017596907
 10
4.0265253512
 20
26.1532030929
  0
LINE
  5
2F0
100
AcDbEntity
  8
RACCORDO
100
AcDbLine
 62
253
  6
CONTINUOUS
 10
7.8272338907
 20
25.5345456163
 11
7.6933678543
 21
25.4754184866
  0
LWPOLYLINE
  5
2F1
100
AcDbEntity
  8
RACCORDO
100
AcDbPolyline
 62
253
  6
CONTINUOUS
 90
43
 70
0
 10
7.9686552469
 20
25.4638349382
 10
8.1025212855
 20
25.5229620655
 10
8.2434875057
 20
25.5763873851
 10
8.3915539076
 20
25.6241108971
 10
8.5477048498
 20
25.6663301127
 10
8.7109559736
 20
25.7028475206
 10
8.8783542036
 20
25.7330705866
 10
9.0498662187
 20
25.7568721581
 10
9.2255253401
 20
25.7743793876
 10
9.4024784553
 20
25.7853811987
 10
9.5807143626
 20
25.7897858918
 10
9.7602442638
 20
25.7876851664
 10
9.9382486523
 20
25.7791430442
 10
10.1147226928
 20
25.7640692834
 10
10.2896712207
 20
25.7425541258
 10
10.4602892356
 20
25.7149323188
 10
10.6265376652
 20
25.6811051078
 10
10.7884555819
 20
25.6411712474
 10
10.9433552027
 20
25.5957617482
 10
11.0911513838
 20
25.5447685818
 10
11.231929269
 20
25.4882997767
 10
11.3632565073
 20
25.4273104294
 10
11.4849548635
 20
25.3617150285
 10
11.5972025727
 20
25.2915990855
 10
11.6981019893
 20
25.2181742308
 10
11.7874301456
 20
25.1414009694
 10
11.8654100091
 20
25.0613187963
 10
11.9308128369
 20
24.9792578278
 10
11.9834348677
 20
24.8952007336
 10
12.0234798627
 20
24.809164844
 10
12.0503303617
 20
24.7225322666
 10
12.0638006484
 20
24.6353034579
 10
12.064076439
 20
24.5474779614
 10
12.0510974226
 20
24.4604365157
 10
12.0246765883
 20
24.3741777925
 10
11.9850009471
 20
24.2887031201
 10
11.9325712203
 20
24.2053972221
 10
11.8671243413
 20
24.1242437798
 10
11.7889233768
 20
24.0452591119
 10
11.6992582479
 20
23.9698768983
 10
11.5985589285
 20
23.8985750323
 10
11.4863954447
 20
23.8308756207
 10
11.3627677966
 20
23.7667786634
  0
LWPOLYLINE
  5
2F2
100
AcDbEntity
  8
RACCORDO
100
AcDbPolyline
 62
253
  6
CONTINUOUS
 90
33
 70
0
 10
8.1770850668
 20
25.0961497626
 10
8.2935346509
 20
25.1473628854
 10
8.4175801672
 20
25.1939886123
 10
8.5484749111
 20
25.2357709396
 10
8.6854289292
 20
25.2724673307
 10
8.8276456613
 20
25.3039005942
 10
8.9743308603
 20
25.3299554558
 10
9.1246222702
 20
25.3504970008
 10
9.2776794138
 20
25.3654250752
 10
9.4327282194
 20
25.3747112734
 10
9.5888856826
 20
25.3783107162
 10
9.7452953926
 20
25.3762084114
 10
9.9012246535
 20
25.3684441901
 10
10.0558260749
 20
25.3550538283
 10
10.2082254692
 20
25.3361031028
 10
10.3576576059
 20
25.3117005212
 10
10.5033070871
 20
25.2819662044
 10
10.6443403476
 20
25.2470526014
 10
10.7799874035
 20
25.2071513708
 10
10.9095125464
 20
25.1624645284
 10
11.0321501977
 20
25.1132354546
 10
11.1471432034
 20
25.0597652584
 10
11.2538499448
 20
25.0023547921
 10
11.3516730864
 20
24.9413214373
 10
11.4400183844
 20
24.8770393974
 10
11.5183926034
 20
24.8098940009
 10
11.5863965349
 20
24.740250438
 10
11.6436741885
 20
24.6684823086
 10
11.6899163187
 20
24.595009931
 10
11.7248894494
 20
24.520238238
 10
11.7484236344
 20
24.4445294475
 10
11.7603857673
 20
24.3683233239
 10
11.7619659246
 20
24.3346197531
  0
LWPOLYLINE
  5
2F3
100
AcDbEntity
  8
RACCORDO
100
AcDbPolyline
 62
253
  6
CONTINUOUS
 90
13
 70
0
 10
-11.0040759776
 20
16.227684904
 10
-11.0287427321
 20
16.2172285229
 10
-11.0559026224
 20
16.2084516645
 10
-11.0851011913
 20
16.2015011897
 10
-11.1158498697
 20
16.196493399
 10
-11.1476341491
 20
16.193512087
 10
-11.17992219
 20
16.1926071397
 10
-11.2121737255
 20
16.1937936992
 10
-11.2438491017
 20
16.1970519112
 10
-11.2744183041
 20
16.2023272569
 10
-11.3033698278
 20
16.2095314658
 10
-11.3302192359
 20
16.2185439918
 10
-11.3545172655
 20
16.2292140314
  0
LWPOLYLINE
  5
2F4
100
AcDbEntity
  8
RACCORDO
100
AcDbPolyline
 62
253
  6
CONTINUOUS
 90
13
 70
0
 10
-11.7235253535
 20
16.9475716111
 10
-11.7482977237
 20
16.9370760564
 10
-11.7755892347
 20
16.9282722525
 10
-11.8049410762
 20
16.9213101874
 10
-11.8358616739
 20
16.9163085978
 10
-11.8678271597
 20
16.9133542534
 10
-11.9002894927
 20
16.9124986937
 10
-11.9327676559
 20
16.913761334
 10
-11.964642121
 20
16.917124843
 10
-11.9951749766
 20
16.922490245
 10
-12.0238203879
 20
16.9297106894
 10
-12.0502120581
 20
16.9386404224
 10
-12.0739666414
 20
16.9491007385
  0
LWPOLYLINE
  5
2F5
100
AcDbEntity
  8
RACCORDO
100
AcDbPolyline
 62
253
  6
CONTINUOUS
 90
13
 70
0
 10
-11.7235253535
 20
16.6303028107
 10
-11.7482452794
 20
16.6198267025
 10
-11.7754628995
 20
16.6110386411
 10
-11.8047199411
 20
16.6040853446
 10
-11.8355214537
 20
16.59908297
 10
-11.8673524491
 20
16.5961137551
 10
-11.8996873086
 20
16.5952265227
 10
-11.9320110996
 20
16.596438737
 10
-11.9637527038
 20
16.5997323203
 10
-11.9943093065
 20
16.6050380065
 10
-12.0231568895
 20
16.612247686
 10
-12.0498516614
 20
16.6212324068
 10
-12.0739666414
 20
16.6318319381
  0
LWPOLYLINE
  5
2F6
100
AcDbEntity
  8
RACCORDO
100
AcDbPolyline
 62
253
  6
CONTINUOUS
 90
7
 70
0
 10
-9.7511640401
 20
18.3322058924
 10
-9.7281392806
 20
18.3416255375
 10
-9.7055266131
 20
18.3471794662
 10
-9.6837125773
 20
18.348769211
 10
-9.663068676
 20
18.3463634526
 10
-9.6439512814
 20
18.3399992321
 10
-9.6409048417
 20
18.3385440352
  0
LINE
  5
2F7
100
AcDbEntity
  8
RACCORDO
100
AcDbLine
 62
253
  6
CONTINUOUS
 10
7.6933678543
 20
25.4754184866
 11
7.5524016347
 21
25.4219931665
  0
LINE
  5
2F8
100
AcDbEntity
  8
RACCORDO
100
AcDbLine
 62
253
  6
CONTINUOUS
 10
11.2289017602
 20
23.7076515337
 11
11.0879355406
 21
23.6542262136
  0
LWPOLYLINE
  5
2F9
100
AcDbEntity
  8
RACCORDO
100
AcDbPolyline
 62
253
  6
CONTINUOUS
 90
41
 70
0
 10
11.0879355406
 20
23.6542262136
 10
10.9398691378
 20
23.6065027031
 10
10.7837181919
 20
23.5642834924
 10
10.6204670628
 20
23.5277660914
 10
10.4530688299
 20
23.4975430294
 10
10.2815568165
 20
23.473741456
 10
10.1058976992
 20
23.4562342218
 10
9.9289445873
 20
23.4452324072
 10
9.7507086813
 20
23.4408277136
 10
9.5711787807
 20
23.4429284397
 10
9.3931743924
 20
23.4514705621
 10
9.2167003519
 20
23.4665443218
 10
9.0417518238
 20
23.4880594778
 10
8.8711338085
 20
23.5156812836
 10
8.7048853786
 20
23.549508494
 10
8.5429674616
 20
23.5894423542
 10
8.3880678409
 20
23.6348518534
 10
8.2402716605
 20
23.6858450202
 10
8.0994937764
 20
23.742313826
 10
7.96816654
 20
23.803303174
 10
7.8464681865
 20
23.8688985756
 10
7.7342204806
 20
23.9390145195
 10
7.6333210677
 20
24.0124393748
 10
7.543992915
 20
24.0892126366
 10
7.4660130553
 20
24.1692948097
 10
7.4006102318
 20
24.2513557779
 10
7.3479882066
 20
24.3354128716
 10
7.3079432177
 20
24.4214487604
 10
7.2810927222
 20
24.5080813368
 10
7.2676224334
 20
24.5953101445
 10
7.2673466381
 20
24.6831356398
 10
7.2803256531
 20
24.7701770839
 10
7.306746495
 20
24.8564358042
 10
7.3464221472
 20
24.9419104733
 10
7.3988518767
 20
25.0252163698
 10
7.4642987418
 20
25.1063698143
 10
7.5424996843
 20
25.1853544862
 10
7.6321647968
 20
25.2607367028
 10
7.7328641102
 20
25.3320385699
 10
7.8450275935
 20
25.3997379817
 10
7.9686552469
 20
25.4638349382
  0
LWPOLYLINE
  5
2FA
100
AcDbEntity
  8
RACCORDO
100
AcDbPolyline
 62
253
  6
CONTINUOUS
 90
13
 70
0
 10
-15.9479225405
 20
-24.1758004385
 10
-15.9440193743
 20
-24.2349240039
 10
-15.936673248
 20
-24.291386112
 10
-15.9258841616
 20
-24.345186763
 10
-15.9115651628
 20
-24.3965852104
 10
-15.8938032038
 20
-24.4453222006
 10
-15.8728591417
 20
-24.4906199727
 10
-15.8486833168
 20
-24.5324110723
 10
-15.8213253888
 20
-24.5707629538
 10
-15.791195194
 20
-24.6051002196
 10
-15.7582578255
 20
-24.635357604
 10
-15.7225481902
 20
-24.6616003727
 10
-15.6904451035
 20
-24.6800743002
  0
LWPOLYLINE
  5
2FB
100
AcDbEntity
  8
RACCORDO
100
AcDbPolyline
 62
253
  6
CONTINUOUS
 90
13
 70
0
 10
-16.6485071942
 20
-24.1903657008
 10
-16.6427566313
 20
-24.2786771611
 10
-16.6317316326
 20
-24.3636892034
 10
-16.6154872202
 20
-24.444982237
 10
-16.5941037045
 20
-24.5221521243
 10
-16.5676874587
 20
-24.5948223691
 10
-16.5363677723
 20
-24.6626434851
 10
-16.500290304
 20
-24.7252883805
 10
-16.4596352
 20
-24.7824363387
 10
-16.4146194683
 20
-24.8337879992
 10
-16.365475429
 20
-24.8790852089
 10
-16.31243708
 20
-24.9181195868
 10
-16.2561223374
 20
-24.9505238363
  0
LWPOLYLINE
  5
2FC
100
AcDbEntity
  8
RACCORDO
100
AcDbPolyline
 62
253
  6
CONTINUOUS
 90
12
 70
0
 10
-16.9292864731
 20
-6.1350546215
 10
-16.9281376747
 20
-6.1551006889
 10
-16.9248298652
 20
-6.1750006903
 10
-16.9193395207
 20
-6.1946149026
 10
-16.9116563134
 20
-6.2137462981
 10
-16.9017790547
 20
-6.2323193848
 10
-16.8896690474
 20
-6.2503364729
 10
-16.8753140323
 20
-6.2676581291
 10
-16.8586715628
 20
-6.2840327209
 10
-16.8396604741
 20
-6.2992818089
 10
-16.8182498411
 20
-6.3132809859
 10
-16.8008304536
 20
-6.3228008164
  0
LWPOLYLINE
  5
2FD
100
AcDbEntity
  8
RACCORDO
100
AcDbPolyline
 62
7
  6
CONTINUOUS
 90
27
 70
0
 10
-15.6997091143
 20
-24.5589480693
 10
-15.6979478699
 20
-24.5970320062
 10
-15.694041372
 20
-24.6480722839
 10
-15.6884076738
 20
-24.6982047194
 10
-15.6810566943
 20
-24.7474226763
 10
-15.672005958
 20
-24.7956697381
 10
-15.6612883835
 20
-24.8428335502
 10
-15.6489249318
 20
-24.8888909309
 10
-15.6349390031
 20
-24.9338086102
 10
-15.6193875904
 20
-24.9774613945
 10
-15.6023056965
 20
-25.0198220215
 10
-15.5837297299
 20
-25.0608630771
 10
-15.5637456356
 20
-25.1004629307
 10
-15.5424230553
 20
-25.1385679431
 10
-15.5198018406
 20
-25.1751864899
 10
-15.4959428465
 20
-25.210288897
 10
-15.4709295609
 20
-25.2438232264
 10
-15.4448066442
 20
-25.2758000048
 10
-15.4175763551
 20
-25.3062692536
 10
-15.3893023854
 20
-25.3352010553
 10
-15.3600466562
 20
-25.3625748425
 10
-15.3297987384
 20
-25.3884337775
 10
-15.2986223904
 20
-25.4127472388
 10
-15.2665797051
 20
-25.4354909481
 10
-15.2336483339
 20
-25.4566985207
 10
-15.1998601484
 20
-25.4763569271
 10
-15.1686995503
 20
-25.4927343636
  0
LWPOLYLINE
  5
2FE
100
AcDbEntity
  8
RACCORDO
100
AcDbPolyline
 62
253
  6
CONTINUOUS
 90
22
 70
0
 10
-15.5532453846
 20
-24.7365962168
 10
-15.6065519251
 20
-23.0690560721
 10
-15.6545301645
 20
-21.3985099059
 10
-15.6971793535
 20
-19.7249833661
 10
-15.7344988175
 20
-18.0485021534
 10
-15.7664879823
 20
-16.369091997
 10
-15.793146375
 20
-14.6867786541
 10
-15.8144735834
 20
-13.0015879457
 10
-15.8304692702
 20
-11.3135457448
 10
-15.8411331986
 20
-9.6226779518
 10
-15.8464652067
 20
-7.9290105219
 10
-15.8464652067
 20
-6.2325694508
 10
-15.8411331986
 20
-4.5333807626
 10
-15.8304692702
 20
-2.831470532
 10
-15.8144735834
 20
-1.1268648851
 10
-15.793146375
 20
0.580410015
 10
-15.7664879823
 20
2.2903279667
 10
-15.7344988175
 20
4.0028627281
 10
-15.6971793535
 20
5.7179880167
 10
-15.6545301645
 20
7.4356775119
 10
-15.6065519251
 20
9.1559048556
 10
-15.5532453846
 20
10.8786436508
  0
LWPOLYLINE
  5
2FF
100
AcDbEntity
  8
RACCORDO
100
AcDbPolyline
 62
253
  6
CONTINUOUS
 90
18
 70
0
 10
-15.6997279068
 20
11.0536786809
 10
-15.6995197062
 20
11.0422853721
 10
-15.6981976808
 20
11.0311113748
 10
-15.6957719726
 20
11.0199514488
 10
-15.6922479553
 20
11.008830317
 10
-15.6876334356
 20
10.997772616
 10
-15.6819386362
 20
10.986802842
 10
-15.6751761727
 20
10.9759452966
 10
-15.6673610263
 20
10.9652240327
 10
-15.6585105097
 20
10.954662801
 10
-15.6486442298
 20
10.944284998
 10
-15.6377840433
 20
10.9341136139
 10
-15.625954009
 20
10.9241711813
 10
-15.613180334
 20
10.9144797259
 10
-15.5994913161
 20
10.9050607172
 10
-15.5849172806
 20
10.8959350213
 10
-15.5694905136
 20
10.8871228544
 10
-15.5532451902
 20
10.8786437382
  0
LWPOLYLINE
  5
300
100
AcDbEntity
  8
RACCORDO
100
AcDbPolyline
 62
253
  6
CONTINUOUS
 90
10
 70
0
 10
-16.9515595496
 20
-6.8241314512
 10
-16.9469537101
 20
-8.7685733428
 10
-16.9350785228
 20
-10.7093682542
 10
-16.9159352394
 20
-12.6464774828
 10
-16.8895256951
 20
-14.5798329075
 10
-16.8558512089
 20
-16.5094256153
 10
-16.8149114928
 20
-18.4353053291
 10
-16.7667066263
 20
-20.3574624965
 10
-16.7112381486
 20
-22.2758288634
 10
-16.6485071942
 20
-24.1903657008
  0
LWPOLYLINE
  5
301
100
AcDbEntity
  8
RACCORDO
100
AcDbPolyline
 62
253
  6
CONTINUOUS
 90
10
 70
0
 10
-16.2506769595
 20
-6.8270857355
 10
-16.2460728241
 20
-8.7696293147
 10
-16.2342093484
 20
-10.7084529095
 10
-16.2150865324
 20
-12.6435565199
 10
-16.1887036705
 20
-14.5749497042
 10
-16.1550614682
 20
-16.5026229042
 10
-16.1141620424
 20
-18.4265474451
 10
-16.0660060986
 20
-20.3467137686
 10
-16.0105929313
 20
-22.2631314331
 10
-15.9479225405
 20
-24.1758004385
  0
LINE
  5
302
100
AcDbEntity
  8
DRAFT
100
AcDbLine
 62
253
  6
CONTINUOUS
 10
-15.7938348154
 20
22.7158335357
 11
-15.7938348154
 21
22.2069424086
  0
LINE
  5
303
100
AcDbEntity
  8
RACCORDO
100
AcDbLine
 62
253
  6
CONTINUOUS
 10
-15.5879279346
 20
18.1835232019
 11
-15.5879279346
 21
19.3959587672
  0
LINE
  5
304
100
AcDbEntity
  8
RACCORDO
100
AcDbLine
 62
7
  6
CONTINUOUS
 10
-16.6016766486
 20
-6.6843425255
 11
-16.6017138146
 21
-6.691087106
  0
LWPOLYLINE
  5
305
100
AcDbEntity
  8
RACCORDO
100
AcDbPolyline
 62
7
  6
CONTINUOUS
 90
3
 70
0
 10
-16.6017138146
 20
-6.691087106
 10
-16.6019316672
 20
-6.7058378671
 10
-16.6023707544
 20
-6.7311620224
  0
LWPOLYLINE
  5
306
100
AcDbEntity
  8
RACCORDO
100
AcDbPolyline
 62
7
  6
CONTINUOUS
 90
22
 70
0
 10
-15.6997278075
 20
11.0536871999
 10
-15.7526830287
 20
9.3428433107
 10
-15.8007255597
 20
7.6214897515
 10
-15.8434318453
 20
5.9026711186
 10
-15.8808010601
 20
4.1864170145
 10
-15.9128326645
 20
2.472753153
 10
-15.9395261907
 20
0.7617036896
 10
-15.9608811786
 20
-0.9467059513
 10
-15.9768973012
 20
-2.652449375
 10
-15.9875742712
 20
-4.3555009619
 10
-15.9929118325
 20
-6.055834911
 10
-15.9929098929
 20
-7.7534246221
 10
-15.9875684106
 20
-9.4482432782
 10
-15.9768873946
 20
-11.140264329
 10
-15.9608670179
 20
-12.8294621967
 10
-15.9395074839
 20
-14.5158115244
 10
-15.9128090361
 20
-16.1992862152
 10
-15.8807720513
 20
-17.8798612814
 10
-15.8433969132
 20
-19.5575130212
 10
-15.8006840781
 20
-21.2322162332
 10
-15.7526342882
 20
-22.9039421141
 10
-15.6997091861
 20
-24.5589492553
  0
LWPOLYLINE
  5
307
100
AcDbEntity
  8
RACCORDO
100
AcDbPolyline
 62
253
  6
CONTINUOUS
 90
10
 70
0
 10
-16.6272514397
 20
11.3514103719
 10
-16.6893076652
 20
9.3955214608
 10
-16.7442407075
 20
7.4428018287
 10
-16.7920499681
 20
5.493289955
 10
-16.8327344431
 20
3.5470534022
 10
-16.8662945653
 20
1.6041012589
 10
-16.8927311552
 20
-0.3356153637
 10
-16.9120434537
 20
-2.2720868116
 10
-16.9242301724
 20
-4.2052453871
 10
-16.9292906004
 20
-6.1350525578
  0
LWPOLYLINE
  5
308
100
AcDbEntity
  8
RACCORDO
100
AcDbPolyline
 62
253
  6
CONTINUOUS
 90
10
 70
0
 10
-15.926665881
 20
11.330458133
 10
-15.9886663285
 20
9.3763133027
 10
-16.0435485492
 20
7.425411354
 10
-16.091312543
 20
5.4777522869
 10
-16.131958478
 20
3.5333263919
 10
-16.165486186
 20
1.5921433785
 10
-16.1918951632
 20
-0.3457676248
 10
-16.2111852414
 20
-2.2803969084
 10
-16.2233565887
 20
-4.2117541818
 10
-16.2284092052
 20
-6.1398394451
  0
LWPOLYLINE
  5
309
100
AcDbEntity
  8
RACCORDO
100
AcDbPolyline
 62
253
  6
CONTINUOUS
 90
43
 70
0
 10
-15.5532453846
 20
10.8786436508
 10
-15.5510814956
 20
10.9253627297
 10
-15.5476244663
 20
10.972619941
 10
-15.542878711
 20
11.020356817
 10
-15.5368504538
 20
11.0685136997
 10
-15.5295471633
 20
11.1170316437
 10
-15.5209773653
 20
11.1658525343
 10
-15.5111515365
 20
11.2149171688
 10
-15.5000820216
 20
11.2641638422
 10
-15.487782438
 20
11.3135302719
 10
-15.474268411
 20
11.3629549522
 10
-15.4595566904
 20
11.4123773688
 10
-15.4436649174
 20
11.4617366207
 10
-15.4266129873
 20
11.5109718797
 10
-15.408422206
 20
11.5600222505
 10
-15.3891144623
 20
11.6088269683
 10
-15.3687138714
 20
11.6573259884
 10
-15.3472459612
 20
11.7054592609
 10
-15.3247368008
 20
11.7531665946
 10
-15.3012146826
 20
11.8003890099
 10
-15.2767089324
 20
11.8470683898
 10
-15.2512490848
 20
11.893146751
 10
-15.2248670349
 20
11.9385672963
 10
-15.1975957578
 20
11.9832739979
 10
-15.1694681251
 20
12.0272112464
 10
-15.140519271
 20
12.0703250347
 10
-15.1107854706
 20
12.1125620629
 10
-15.0803028594
 20
12.1538693319
 10
-15.04910974
 20
12.1941958426
 10
-15.0172450221
 20
12.2334920723
 10
-14.9847470956
 20
12.2717090738
 10
-14.9516567122
 20
12.3087997557
 10
-14.9180152126
 20
12.3447185192
 10
-14.8838629618
 20
12.3794207115
 10
-14.8492423318
 20
12.4128639913
 10
-14.8141969982
 20
12.4450067966
 10
-14.7787701802
 20
12.4758080521
 10
-14.7430070522
 20
12.5052293378
 10
-14.7069515946
 20
12.533235284
 10
-14.6706458588
 20
12.5597918764
 10
-14.6341342369
 20
12.584866491
 10
-14.597463444
 20
12.6084281355
 10
-14.5606793746
 20
12.6304478067
  0
LWPOLYLINE
  5
30A
100
AcDbEntity
  8
RACCORDO
100
AcDbPolyline
 62
253
  6
CONTINUOUS
 90
12
 70
0
 10
-16.2284134055
 20
-6.1398414291
 10
-16.229609089
 20
-6.1600127347
 10
-16.2329829434
 20
-6.1799914607
 10
-16.2385549083
 20
-6.199636207
 10
-16.2463049946
 20
-6.2187414542
 10
-16.2562584303
 20
-6.2372377604
 10
-16.2685269345
 20
-6.2551517428
 10
-16.2831880046
 20
-6.2723700884
 10
-16.3001980539
 20
-6.2886308796
 10
-16.3194941665
 20
-6.3037123698
 10
-16.3410437142
 20
-6.3174465483
 10
-16.3617762956
 20
-6.3282804445
  0
LWPOLYLINE
  5
30B
100
AcDbEntity
  8
RACCORDO
100
AcDbPolyline
 62
253
  6
CONTINUOUS
 90
12
 70
0
 10
-11.1839383215
 20
16.5158393806
 10
-11.1970779761
 20
16.4866258324
 10
-11.2129338659
 20
16.4594280544
 10
-11.2312377035
 20
16.4347062637
 10
-11.2516797846
 20
16.4128787781
 10
-11.2739142108
 20
16.394314957
 10
-11.2975647369
 20
16.379328941
 10
-11.322231167
 20
16.3681743125
 10
-11.3474961264
 20
16.3610398167
 10
-11.3729321028
 20
16.3580461786
 10
-11.3981086926
 20
16.3592440533
 10
-11.4093695426
 20
16.3611751571
  0
LWPOLYLINE
  5
30C
100
AcDbEntity
  8
RACCORDO
100
AcDbPolyline
 62
253
  6
CONTINUOUS
 90
12
 70
0
 10
-11.7235253535
 20
16.6303028107
 10
-11.7366960175
 20
16.60102895
 10
-11.7525908967
 20
16.5737851448
 10
-11.7709386064
 20
16.5490329834
 10
-11.7914244987
 20
16.5271931043
 10
-11.8137013311
 20
16.5086322626
 10
-11.8373966279
 20
16.4936601205
 10
-11.8621301075
 20
16.4825238245
 10
-11.8874617274
 20
16.4754280865
 10
-11.9129021428
 20
16.4724964964
 10
-11.9380018338
 20
16.4737482791
 10
-11.9490551942
 20
16.4756594632
  0
LWPOLYLINE
  5
30D
100
AcDbEntity
  8
RACCORDO
100
AcDbPolyline
 62
7
  6
CONTINUOUS
 90
3
 70
0
 10
-9.5037665897
 20
17.6786472275
 10
-9.5028485236
 20
17.6805262135
 10
-9.5027067608
 20
17.6817345221
  0
LINE
  5
30E
100
AcDbEntity
  8
RACCORDO
100
AcDbLine
 62
253
  6
CONTINUOUS
 10
-7.5560408146
 20
15.7649087612
 11
-7.0277736429
 21
16.407860917
  0
LINE
  5
30F
100
AcDbEntity
  8
RACCORDO
100
AcDbLine
 62
7
  6
CONTINUOUS
 10
-7.5560408146
 20
15.6753782949
 11
-7.0124130705
 21
16.3370257504
  0
LWPOLYLINE
  5
310
100
AcDbEntity
  8
RACCORDO
100
AcDbPolyline
 62
7
  6
CONTINUOUS
 90
30
 70
0
 10
-8.4461009973
 20
15.2007541532
 10
-8.4539801203
 20
15.19161975
 10
-8.4622003694
 20
15.182622309
 10
-8.4707582306
 20
15.1737833224
 10
-8.4796566611
 20
15.1651267926
 10
-8.4888830962
 20
15.1566721133
 10
-8.4984096705
 20
15.1484342206
 10
-8.5082298587
 20
15.140435467
 10
-8.518335757
 20
15.1326975902
 10
-8.52869654
 20
15.1252350504
 10
-8.5393030612
 20
15.1180702725
 10
-8.5501449726
 20
15.1112249673
 10
-8.5611887497
 20
15.1047129956
 10
-8.5724225981
 20
15.0985564765
 10
-8.583833549
 20
15.0927768126
 10
-8.5953853694
 20
15.0873872891
 10
-8.6070635013
 20
15.0824093314
 10
-8.6188522328
 20
15.0778636342
 10
-8.6307125468
 20
15.073762849
 10
-8.6426269945
 20
15.0701272235
 10
-8.6545770078
 20
15.0669762385
 10
-8.6665206854
 20
15.0643217022
 10
-8.678437535
 20
15.0621820698
 10
-8.6903061022
 20
15.0605749323
 10
-8.7020816808
 20
15.0595107716
 10
-8.7137405013
 20
15.0590054662
 10
-8.7252584385
 20
15.0590738323
 10
-8.7365887912
 20
15.0597242307
 10
-8.7476940535
 20
15.0609676235
 10
-8.7585584053
 20
15.0628151189
  0
LWPOLYLINE
  5
311
100
AcDbEntity
  8
RACCORDO
100
AcDbPolyline
 62
7
  6
CONTINUOUS
 90
4
 70
0
 10
-0.6511046756
 20
22.1482012485
 10
-0.6610756882
 20
22.1397594684
 10
-0.6765640686
 20
22.1287518961
 10
-0.6976916093
 20
22.1160725564
  0
LWPOLYLINE
  5
312
100
AcDbEntity
  8
RACCORDO
100
AcDbPolyline
 62
7
  6
CONTINUOUS
 90
3
 70
0
 10
7.9248174692
 20
25.675684581
 10
7.8313982206
 20
25.6162798569
 10
7.7287856157
 20
25.5605995349
  0
LINE
  5
313
100
AcDbEntity
  8
RACCORDO
100
AcDbLine
 62
7
  6
CONTINUOUS
 10
-7.5560408146
 20
14.8898029527
 11
-8.4461009973
 21
14.3931220314
  0
LINE
  5
314
100
AcDbEntity
  8
DRAFT
100
AcDbLine
 62
7
  6
CONTINUOUS
 10
-7.0257107287
 20
15.331744691
 11
-0.0780688646
 21
18.9289915708
  0
LINE
  5
315
100
AcDbEntity
  8
RACCORDO
100
AcDbLine
 62
7
  6
CONTINUOUS
 10
-31.9513137884
 20
0.9757421505
 11
-31.6794478127
 21
1.11650488
  0
LINE
  5
316
100
AcDbEntity
  8
RACCORDO
100
AcDbLine
 62
253
  6
CONTINUOUS
 10
-31.8857318646
 20
0.9576850825
 11
-31.6283426018
 21
1.0909522746
  0
LINE
  5
317
100
AcDbEntity
  8
RACCORDO
100
AcDbLine
 62
7
  6
CONTINUOUS
 10
-5.1872210963
 20
14.5596845394
 11
-4.833679707
 21
14.7410579642
  0
LINE
  5
318
100
AcDbEntity
  8
RACCORDO
100
AcDbLine
 62
253
  6
CONTINUOUS
 10
-20.2818951155
 20
7.3961454757
 11
-20.319318215
 21
7.3774339259
  0
LINE
  5
319
100
AcDbEntity
  8
RACCORDO
100
AcDbLine
 62
7
  6
CONTINUOUS
 10
0.166542247
 20
18.0301069818
 11
-6.1479980796
 21
14.8853306772
  0
LINE
  5
31A
100
AcDbEntity
  8
RACCORDO
100
AcDbLine
 62
7
  6
CONTINUOUS
 10
11.2643195217
 20
23.792832582
 11
11.2300409844
 21
23.7760127843
  0
LINE
  5
31B
100
AcDbEntity
  8
ASSI
100
AcDbLine
 62
7
  6
CONTINUOUS
 10
-4.833679707
 20
14.7410579642
 11
0.5025436989
 21
17.3405014297
  0
LWPOLYLINE
  5
31C
100
AcDbEntity
  8
RACCORDO
100
AcDbPolyline
 62
7
  6
CONTINUOUS
 90
32
 70
0
 10
11.2293974037
 20
23.7757009565
 10
11.1993018703
 20
23.7615965104
 10
11.0816616458
 20
23.7115442582
 10
10.9538439038
 20
23.6649909994
 10
10.8163459779
 20
23.6225081107
 10
10.6701042323
 20
23.5846929981
 10
10.5164763218
 20
23.5521198186
 10
10.3563957699
 20
23.5251695652
 10
10.1908630582
 20
23.5041576805
 10
10.0214112632
 20
23.4893863022
 10
9.8491438992
 20
23.4810397928
 10
9.675256738
 20
23.4792320218
 10
9.5014500687
 20
23.4839912114
 10
9.3289254239
 20
23.495272775
 10
9.1588356392
 20
23.5129614186
 10
8.9927880031
 20
23.5368088424
 10
8.8318729358
 20
23.5665560158
 10
8.6771255966
 20
23.601875753
 10
8.5299965864
 20
23.6422434994
 10
8.3916499168
 20
23.6870881216
 10
8.2625005102
 20
23.7359777023
 10
8.1429222629
 20
23.7884796739
 10
8.0344423279
 20
23.8435534912
 10
7.9366151422
 20
23.900985107
 10
7.8478843368
 20
23.9615580653
 10
7.7687779107
 20
24.0252083853
 10
7.7014157945
 20
24.0904387502
 10
7.6473745262
 20
24.15531778
 10
7.6075239971
 20
24.2175089896
 10
7.5807570861
 20
24.2766048391
 10
7.5657257768
 20
24.3339927377
 10
7.5620592572
 20
24.3854361399
  0
LINE
  5
31D
100
AcDbEntity
  8
RACCORDO
100
AcDbLine
 62
253
  6
CONTINUOUS
 10
11.3627677966
 20
23.7667786634
 11
11.2289017602
 21
23.7076515337
  0
LWPOLYLINE
  5
31E
100
AcDbEntity
  8
RACCORDO
100
AcDbPolyline
 62
253
  6
CONTINUOUS
 90
43
 70
0
 10
11.5041891529
 20
23.6960679853
 10
11.6380551914
 20
23.7551951126
 10
11.7790214116
 20
23.8086204322
 10
11.9270878136
 20
23.8563439441
 10
12.0832387557
 20
23.8985631597
 10
12.2464898795
 20
23.9350805676
 10
12.4138881095
 20
23.9653036336
 10
12.5854001246
 20
23.9891052051
 10
12.761059246
 20
24.0066124347
 10
12.9380123613
 20
24.0176142457
 10
13.1162482685
 20
24.0220189388
 10
13.2957781697
 20
24.0199182134
 10
13.4737825582
 20
24.0113760913
 10
13.6502565987
 20
23.9963023305
 10
13.8252051266
 20
23.9747871729
 10
13.9958231415
 20
23.9471653658
 10
14.1620715711
 20
23.9133381548
 10
14.3239894878
 20
23.8734042944
 10
14.4788891087
 20
23.8279947953
 10
14.6266852897
 20
23.7770016288
 10
14.7674631749
 20
23.7205328237
 10
14.8987904132
 20
23.6595434764
 10
15.0204887694
 20
23.5939480756
 10
15.1327364787
 20
23.5238321325
 10
15.2336358952
 20
23.4504072779
 10
15.3229640515
 20
23.3736340164
 10
15.4009439151
 20
23.2935518433
 10
15.4663467428
 20
23.2114908749
 10
15.5189687737
 20
23.1274337806
 10
15.5590137687
 20
23.041397891
 10
15.5858642677
 20
22.9547653137
 10
15.5993345543
 20
22.8675365049
 10
15.5996103449
 20
22.7797110084
 10
15.5866313285
 20
22.6926695627
 10
15.5602104943
 20
22.6064108395
 10
15.520534853
 20
22.5209361671
 10
15.4681051262
 20
22.4376302691
 10
15.4026582473
 20
22.3564768268
 10
15.3244572827
 20
22.2774921589
 10
15.2347921539
 20
22.2021099453
 10
15.1340928344
 20
22.1308080794
 10
15.0219293506
 20
22.0631086677
 10
14.8983017025
 20
21.9990117104
  0
LWPOLYLINE
  5
31F
100
AcDbEntity
  8
RACCORDO
100
AcDbPolyline
 62
253
  6
CONTINUOUS
 90
33
 70
0
 10
11.7126189727
 20
23.3283828097
 10
11.8290685568
 20
23.3795959324
 10
11.9531140731
 20
23.4262216593
 10
12.0840088171
 20
23.4680039866
 10
12.2209628351
 20
23.5047003777
 10
12.3631795672
 20
23.5361336413
 10
12.5098647662
 20
23.5621885028
 10
12.6601561761
 20
23.5827300478
 10
12.8132133197
 20
23.5976581223
 10
12.9682621254
 20
23.6069443204
 10
13.1244195885
 20
23.6105437632
 10
13.2808292985
 20
23.6084414584
 10
13.4367585594
 20
23.6006772371
 10
13.5913599808
 20
23.5872868753
 10
13.7437593751
 20
23.5683361498
 10
13.8931915118
 20
23.5439335682
 10
14.038840993
 20
23.5141992515
 10
14.1798742535
 20
23.4792856485
 10
14.3155213094
 20
23.4393844178
 10
14.4450464524
 20
23.3946975755
 10
14.5676841036
 20
23.3454685016
 10
14.6826771094
 20
23.2919983055
 10
14.7893838508
 20
23.2345878392
 10
14.8872069923
 20
23.1735544843
 10
14.9755522904
 20
23.1092724444
 10
15.0539265093
 20
23.0421270479
 10
15.1219304408
 20
22.972483485
 10
15.1792080944
 20
22.9007153557
 10
15.2254502247
 20
22.8272429781
 10
15.2604233554
 20
22.752471285
 10
15.2839575403
 20
22.6767624946
 10
15.2959196732
 20
22.600556371
 10
15.2974998306
 20
22.5668528001
  0
LWPOLYLINE
  5
320
100
AcDbEntity
  8
RACCORDO
100
AcDbPolyline
 62
253
  6
CONTINUOUS
 90
16
 70
0
 10
-15.926665881
 20
11.330458133
 10
-15.9656752318
 20
11.3153192196
 10
-16.0079880783
 20
11.3022693553
 10
-16.0531510591
 20
11.2914483632
 10
-16.100680275
 20
11.2829721848
 10
-16.1500664737
 20
11.2769316382
 10
-16.2007805066
 20
11.273391445
 10
-16.2522789974
 20
11.2723895364
 10
-16.3040101653
 20
11.2739366476
 10
-16.3554197362
 20
11.278016202
 10
-16.4059568816
 20
11.2845844891
 10
-16.455080121
 20
11.293571133
 10
-16.502263123
 20
11.3048798462
 10
-16.5470003447
 20
11.3183894615
 10
-16.588812449
 20
11.33395523
 10
-16.6272514395
 20
11.351410372
  0
LINE
  5
321
100
AcDbEntity
  8
RACCORDO
100
AcDbLine
 62
253
  6
CONTINUOUS
 10
14.7644356662
 20
21.9398845807
 11
14.6234694466
 21
21.8864592606
  0
LWPOLYLINE
  5
322
100
AcDbEntity
  8
RACCORDO
100
AcDbPolyline
 62
253
  6
CONTINUOUS
 90
41
 70
0
 10
14.6234694466
 20
21.8864592606
 10
14.4754030437
 20
21.8387357501
 10
14.3192520979
 20
21.7965165395
 10
14.1560009688
 20
21.7599991384
 10
13.9886027358
 20
21.7297760764
 10
13.8170907224
 20
21.7059745031
 10
13.6414316051
 20
21.6884672688
 10
13.4644784932
 20
21.6774654542
 10
13.2862425873
 20
21.6730607606
 10
13.1067126866
 20
21.6751614867
 10
12.9287082983
 20
21.6837036091
 10
12.7522342578
 20
21.6987773688
 10
12.5772857297
 20
21.7202925248
 10
12.4066677145
 20
21.7479143306
 10
12.2404192845
 20
21.781741541
 10
12.0785013675
 20
21.8216754013
 10
11.9236017468
 20
21.8670849005
 10
11.7758055664
 20
21.9180780673
 10
11.6350276824
 20
21.974546873
 10
11.5037004459
 20
22.035536221
 10
11.3820020924
 20
22.1011316227
 10
11.2697543866
 20
22.1712475666
 10
11.1688549736
 20
22.2446724218
 10
11.079526821
 20
22.3214456836
 10
11.0015469612
 20
22.4015278567
 10
10.9361441377
 20
22.4835888249
 10
10.8835221126
 20
22.5676459186
 10
10.8434771236
 20
22.6536818075
 10
10.8166266281
 20
22.7403143839
 10
10.8031563394
 20
22.8275431916
 10
10.8028805441
 20
22.9153686869
 10
10.815859559
 20
23.0024101309
 10
10.8422804009
 20
23.0886688512
 10
10.8819560531
 20
23.1741435203
 10
10.9343857827
 20
23.2574494169
 10
10.9998326478
 20
23.3386028613
 10
11.0780335902
 20
23.4175875332
 10
11.1676987027
 20
23.4929697498
 10
11.2683980161
 20
23.5642716169
 10
11.3805614995
 20
23.6319710287
 10
11.5041891529
 20
23.6960679853
  0
LWPOLYLINE
  5
323
100
AcDbEntity
  8
RACCORDO
100
AcDbPolyline
 62
253
  6
CONTINUOUS
 90
17
 70
0
 10
-19.9915103384
 20
6.9423803978
 10
-20.0007790602
 20
6.9730324871
 10
-20.0131368107
 20
7.0078470834
 10
-20.0272095689
 20
7.042311174
 10
-20.0429129876
 20
7.0762190277
 10
-20.0601528423
 20
7.1093720068
 10
-20.0788359805
 20
7.141595359
 10
-20.0988671045
 20
7.1727247839
 10
-20.1201412714
 20
7.2025935908
 10
-20.1425349462
 20
7.2310249414
 10
-20.1659153615
 20
7.2578497074
 10
-20.1901470179
 20
7.2829140332
 10
-20.2150982608
 20
7.3060832877
 10
-20.240634332
 20
7.327232418
 10
-20.2666142502
 20
7.3462437833
 10
-20.2928911899
 20
7.3630090761
 10
-20.319318215
 20
7.3774339259
  0
LWPOLYLINE
  5
324
100
AcDbEntity
  8
RACCORDO
100
AcDbPolyline
 62
253
  6
CONTINUOUS
 90
16
 70
0
 10
-15.2454739792
 20
12.4887154146
 10
-15.2493405869
 20
12.533923538
 10
-15.2569658083
 20
12.5806049985
 10
-15.2682662177
 20
12.6282489536
 10
-15.2831181706
 20
12.6763340264
 10
-15.3013591541
 20
12.7243340024
 10
-15.3227895625
 20
12.7717235879
 10
-15.3471748888
 20
12.8179841761
 10
-15.3742482849
 20
12.8626095069
 10
-15.4037134744
 20
12.9051112001
 10
-15.4352480135
 20
12.94502413
 10
-15.4685068075
 20
12.9819114951
 10
-15.5031258759
 20
13.0153695894
 10
-15.5387263584
 20
13.0450322484
 10
-15.574918664
 20
13.0705748517
 10
-15.611306718
 20
13.091717861
  0
LWPOLYLINE
  5
325
100
AcDbEntity
  8
RACCORDO
100
AcDbPolyline
 62
7
  6
CONTINUOUS
 90
4
 70
0
 10
-14.6230191186
 20
25.0001303772
 10
-14.6231908278
 20
25.0024475171
 10
-14.625722892
 20
25.0082725497
 10
-14.6307357914
 20
25.0121939538
  0
LINE
  5
326
100
AcDbEntity
  8
RACCORDO
100
AcDbLine
 62
7
  6
CONTINUOUS
 10
-13.4344272696
 20
17.3458828395
 11
-13.435097016
 21
17.3643616477
  0
LINE
  5
327
100
AcDbEntity
  8
DRAFT
100
AcDbLine
 62
7
  6
CONTINUOUS
 10
-15.0867280342
 20
23.0693869263
 11
-15.0867280342
 21
23.6219451156
  0
LINE
  5
328
100
AcDbEntity
  8
RACCORDO
100
AcDbLine
 62
253
  6
CONTINUOUS
 10
-14.8870453587
 20
18.187891302
 11
-14.8870453587
 21
19.4003268673
  0
LINE
  5
329
100
AcDbEntity
  8
RACCORDO
100
AcDbLine
 62
253
  6
CONTINUOUS
 10
-14.7451273809
 20
23.7890943508
 11
-14.7451273809
 21
24.9961130699
  0
LINE
  5
32A
100
AcDbEntity
  8
DRAFT
100
AcDbLine
 62
7
  6
CONTINUOUS
 10
-14.7331746437
 20
23.4451684203
 11
-14.7331746437
 21
22.892610231
  0
LINE
  5
32B
100
AcDbEntity
  8
RACCORDO
100
AcDbLine
 62
7
  6
CONTINUOUS
 10
-14.6230191075
 20
23.9342907137
 11
-14.6230191075
 21
24.9993307149
  0
LINE
  5
32C
100
AcDbEntity
  8
DRAFT
100
AcDbLine
 62
7
  6
CONTINUOUS
 10
-14.5210426093
 20
18.3723038501
 11
-14.5210426093
 21
19.5847394154
  0
LINE
  5
32D
100
AcDbEntity
  8
ASSI
100
AcDbLine
 62
253
  6
CONTINUOUS
 10
-14.3796212531
 20
22.7158335357
 11
-14.3796212531
 21
22.1369823787
  0
LINE
  5
32E
100
AcDbEntity
  8
RACCORDO
100
AcDbLine
 62
7
  6
CONTINUOUS
 10
-13.4350972978
 20
17.3641739616
 11
-13.4350972978
 21
17.6814427619
  0
LINE
  5
32F
100
AcDbEntity
  8
RACCORDO
100
AcDbLine
 62
253
  6
CONTINUOUS
 10
-13.3618739931
 20
17.2757856139
 11
-13.3618739931
 21
17.5930544143
  0
LINE
  5
330
100
AcDbEntity
  8
RACCORDO
100
AcDbLine
 62
7
  6
CONTINUOUS
 10
-12.7403331114
 20
16.4514997326
 11
-12.7403331114
 21
16.8622833712
  0
LINE
  5
331
100
AcDbEntity
  8
RACCORDO
100
AcDbLine
 62
253
  6
CONTINUOUS
 10
-12.6671098067
 20
16.3620024825
 11
-12.6671098067
 21
16.8256717188
  0
LWPOLYLINE
  5
332
100
AcDbEntity
  8
RACCORDO
100
AcDbPolyline
 62
253
  6
CONTINUOUS
 90
13
 70
0
 10
-13.3618739931
 20
17.5930544143
 10
-13.3604570175
 20
17.6211207725
 10
-13.3561909154
 20
17.6503519998
 10
-13.3490886541
 20
17.6802879928
 10
-13.3391876284
 20
17.7105072336
 10
-13.3266139048
 20
17.7404325796
 10
-13.3116374635
 20
17.7693559443
 10
-13.2945507373
 20
17.796730503
 10
-13.2756136501
 20
17.8221555109
 10
-13.2551517615
 20
17.8451957056
 10
-13.2335137757
 20
17.8654622037
 10
-13.2110642163
 20
17.8826171387
 10
-13.1881824765
 20
17.8963735486
  0
LWPOLYLINE
  5
333
100
AcDbEntity
  8
RACCORDO
100
AcDbPolyline
 62
253
  6
CONTINUOUS
 90
13
 70
0
 10
-12.0739666414
 20
16.9491007385
 10
-12.0724876667
 20
16.9777877439
 10
-12.0680754896
 20
17.0074737134
 10
-12.0608039378
 20
17.0376619207
 10
-12.0507946839
 20
17.0678472361
 10
-12.0382152097
 20
17.097524578
 10
-12.0232760035
 20
17.1261973646
 10
-12.0062270384
 20
17.1533858232
 10
-11.9873535896
 20
17.1786350177
 10
-11.9669714606
 20
17.2015224611
 10
-11.9454216991
 20
17.221665185
 10
-11.9230648907
 20
17.2387261475
 10
-11.9002751249
 20
17.2524198727
  0
LWPOLYLINE
  5
334
100
AcDbEntity
  8
RACCORDO
100
AcDbPolyline
 62
7
  6
CONTINUOUS
 90
10
 70
0
 10
-13.4350972978
 20
17.6814427619
 10
-13.4330736651
 20
17.7131832903
 10
-13.4269528475
 20
17.7447335646
 10
-13.4167416861
 20
17.7754687018
 10
-13.4025409141
 20
17.8048050704
 10
-13.3845967868
 20
17.8321077852
 10
-13.3632834524
 20
17.8567986695
 10
-13.3388280391
 20
17.8785894939
 10
-13.311733445
 20
17.8969962012
 10
-13.303807656
 20
17.901460604
  0
LWPOLYLINE
  5
335
100
AcDbEntity
  8
RACCORDO
100
AcDbPolyline
 62
253
  6
CONTINUOUS
 90
27
 70
0
 10
-9.1573216054
 20
15.3492576761
 10
-9.1622056226
 20
15.3372890179
 10
-9.167556226
 20
15.3255958138
 10
-9.1733588044
 20
15.3142099955
 10
-9.179597512
 20
15.3031626553
 10
-9.1862553124
 20
15.2924839612
 10
-9.1933140243
 20
15.2822030744
 10
-9.200754372
 20
15.2723480699
 10
-9.2085560375
 20
15.2629458597
 10
-9.216697716
 20
15.2540221191
 10
-9.2251571742
 20
15.2456012172
 10
-9.2339113113
 20
15.2377061496
 10
-9.2429362214
 20
15.230358476
 10
-9.2522072595
 20
15.2235782615
 10
-9.2616991082
 20
15.2173840213
 10
-9.2713858474
 20
15.2117926708
 10
-9.2812410245
 20
15.2068194785
 10
-9.2912377271
 20
15.2024780254
 10
-9.3013486564
 20
15.1987801671
 10
-9.3115462014
 20
15.1957360015
 10
-9.321802515
 20
15.1933538416
 10
-9.3320895891
 20
15.1916401927
 10
-9.3423793319
 20
15.1905997344
 10
-9.3526436444
 20
15.1902353079
 10
-9.3628544968
 20
15.1905479085
 10
-9.3729840054
 20
15.1915366824
 10
-9.3830045087
 20
15.1931989295
  0
LWPOLYLINE
  5
336
100
AcDbEntity
  8
RACCORDO
100
AcDbPolyline
 62
7
  6
CONTINUOUS
 90
3
 70
0
 10
11.4603513751
 20
23.9079176281
 10
11.3669321265
 20
23.8485129039
 10
11.2643195217
 20
23.792832582
  0
LINE
  5
337
100
AcDbEntity
  8
0
100
AcDbLine
 62
7
  6
CONTINUOUS
 10
0.1160677613
 20
14.7608822474
 11
0.8231745425
 21
15.114435638
  0
LINE
  5
338
100
AcDbEntity
  8
0
100
AcDbLine
 62
7
  6
CONTINUOUS
 10
2.5745124396
 20
15.6365511959
 11
1.176727933
 21
14.9376589427
  0
LINE
  5
339
100
AcDbEntity
  8
ASSI
100
AcDbLine
 62
7
  6
CONTINUOUS
 10
1.1080741336
 20
17.0377362124
 11
-3.4901768228
 21
14.7713749149
  0
LINE
  5
33A
100
AcDbEntity
  8
RACCORDO
100
AcDbLine
 62
7
  6
CONTINUOUS
 10
14.7998534276
 20
22.025065629
 11
14.7655748903
 21
22.0082458313
  0
LINE
  5
33B
100
AcDbEntity
  8
DRAFT
100
AcDbLine
 62
7
  6
CONTINUOUS
 10
0.8231745425
 20
15.6669938273
 11
1.1569501651
 21
15.8303141825
  0
LINE
  5
33C
100
AcDbEntity
  8
RACCORDO
100
AcDbLine
 62
7
  6
CONTINUOUS
 10
3.2335081909
 20
16.4966240098
 11
1.176727933
 21
15.490217132
  0
LWPOLYLINE
  5
33D
100
AcDbEntity
  8
RACCORDO
100
AcDbPolyline
 62
7
  6
CONTINUOUS
 90
10
 70
0
 10
0.1023646383
 20
14.2458717046
 10
0.1030808949
 20
14.246219305
 10
0.1082479455
 20
14.2483849887
 10
0.1138662332
 20
14.2501271069
 10
0.1199520085
 20
14.2514014837
 10
0.1265242685
 20
14.2521615033
 10
0.1335960409
 20
14.2523352673
 10
0.1411857537
 20
14.2518731988
 10
0.1492961128
 20
14.2507197189
 10
0.1579169446
 20
14.248783497
  0
LWPOLYLINE
  5
33E
100
AcDbEntity
  8
ASSI
100
AcDbPolyline
 62
7
  6
CONTINUOUS
 90
7
 70
0
 10
1.1080741336
 20
17.0377362124
 10
1.1162833929
 20
17.0416636975
 10
1.1244673507
 20
17.0453487597
 10
1.1326260068
 20
17.048791399
 10
1.1407593612
 20
17.0519916154
 10
1.148867414
 20
17.0549494089
 10
1.1569501651
 20
17.0576647795
  0
LINE
  5
33F
100
AcDbEntity
  8
RACCORDO
100
AcDbLine
 62
253
  6
CONTINUOUS
 10
3.9334271744
 20
16.0243917836
 11
7.8272338907
 21
17.8880533369
  0
LINE
  5
340
100
AcDbEntity
  8
RACCORDO
100
AcDbLine
 62
253
  6
CONTINUOUS
 10
4.090648732
 20
15.6321972072
 11
8.0356637106
 21
17.5203681613
  0
LWPOLYLINE
  5
341
100
AcDbEntity
  8
RACCORDO
100
AcDbPolyline
 62
7
  6
CONTINUOUS
 90
32
 70
0
 10
14.7649313096
 20
22.0079340036
 10
14.7348357763
 20
21.9938295574
 10
14.6171955517
 20
21.9437773052
 10
14.4893778097
 20
21.8972240464
 10
14.3518798839
 20
21.8547411577
 10
14.2056381383
 20
21.8169260452
 10
14.0520102277
 20
21.7843528656
 10
13.8919296758
 20
21.7574026122
 10
13.7263969641
 20
21.7363907275
 10
13.5569451691
 20
21.7216193492
 10
13.3846778051
 20
21.7132728399
 10
13.210790644
 20
21.7114650688
 10
13.0369839746
 20
21.7162242584
 10
12.8644593298
 20
21.727505822
 10
12.6943695451
 20
21.7451944656
 10
12.528321909
 20
21.7690418894
 10
12.3674068417
 20
21.7987890629
 10
12.2126595026
 20
21.8341088
 10
12.0655304923
 20
21.8744765465
 10
11.9271838227
 20
21.9193211687
 10
11.7980344161
 20
21.9682107494
 10
11.6784561688
 20
22.020712721
 10
11.5699762338
 20
22.0757865382
 10
11.4721490481
 20
22.1332181541
 10
11.3834182427
 20
22.1937911123
 10
11.3043118166
 20
22.2574414323
 10
11.2369497004
 20
22.3226717972
 10
11.1829084321
 20
22.387550827
 10
11.1430579031
 20
22.4497420366
 10
11.116290992
 20
22.5088378861
 10
11.1012596828
 20
22.5662257847
 10
11.0975931631
 20
22.617669187
  0
LWPOLYLINE
  5
342
100
AcDbEntity
  8
RACCORDO
100
AcDbPolyline
 62
253
  6
CONTINUOUS
 90
34
 70
0
 10
7.8272338907
 20
17.8880533369
 10
7.8507580406
 20
17.8989956441
 10
7.8760404043
 20
17.9096232877
 10
7.9030809818
 20
17.9199362677
 10
7.9319403194
 20
17.9300267449
 10
7.9625578708
 20
17.9398025585
 10
7.9947519974
 20
17.9489872258
 10
8.0285802106
 20
17.9575672107
 10
8.063984999
 20
17.9655560493
 10
8.1006121907
 20
17.9727178673
 10
8.1385060604
 20
17.9790281691
 10
8.1776223334
 20
17.9845114503
 10
8.2174740141
 20
17.9890053226
 10
8.2580760574
 20
17.9924793525
 10
8.2994135082
 20
17.9949639735
 10
8.3409545064
 20
17.9963880985
 10
8.3827107249
 20
17.9967207969
 10
8.4246704907
 20
17.9959929993
 10
8.466266924
 20
17.9942264106
 10
8.5074989747
 20
17.9913874355
 10
8.5483676928
 20
17.9875096694
 10
8.5883093486
 20
17.9827156024
 10
8.6272915268
 20
17.9769745327
 10
8.6653466425
 20
17.9703171622
 10
8.702008212
 20
17.962958087
 10
8.737221373
 20
17.9548767753
 10
8.7710409877
 20
17.9460937588
 10
8.8031651585
 20
17.9368852291
 10
8.8335338949
 20
17.9272428997
 10
8.8622071875
 20
17.917175057
 10
8.8890631109
 20
17.9069827519
 10
8.9140610233
 20
17.8967663347
 10
8.9372415665
 20
17.8864254551
 10
8.9586047406
 20
17.8759601132
  0
LWPOLYLINE
  5
343
100
AcDbEntity
  8
RACCORDO
100
AcDbPolyline
 62
7
  6
CONTINUOUS
 90
3
 70
0
 10
0.1023663874
 20
14.2458733305
 10
0.1751567768
 20
14.2783749102
 10
0.2574368593
 20
14.3081318863
  0
LWPOLYLINE
  5
344
100
AcDbEntity
  8
RACCORDO
100
AcDbPolyline
 62
253
  6
CONTINUOUS
 90
34
 70
0
 10
8.0356637106
 20
17.5203681613
 10
8.0504031981
 20
17.5269466862
 10
8.066198563
 20
17.5334135768
 10
8.0830754506
 20
17.5397259991
 10
8.1010953023
 20
17.5458501973
 10
8.1202352038
 20
17.5517246753
 10
8.1403743973
 20
17.557269806
 10
8.161507417
 20
17.5624427701
 10
8.1836162694
 20
17.5671984436
 10
8.2065302332
 20
17.5714711497
 10
8.2302111432
 20
17.5752259931
 10
8.2546167815
 20
17.5784284812
 10
8.2795447883
 20
17.5810360197
 10
8.3049283471
 20
17.5830270283
 10
8.3307121194
 20
17.5843819514
 10
8.3566957178
 20
17.5850851325
 10
8.3828123718
 20
17.585130696
 10
8.40898759
 20
17.5845132975
 10
8.435005348
 20
17.5832425593
 10
8.4608046711
 20
17.5813290054
 10
8.486309005
 20
17.5787842045
 10
8.5112867251
 20
17.5756463449
 10
8.5356841428
 20
17.5719440019
 10
8.5594472354
 20
17.5677052457
 10
8.5823641044
 20
17.5629946809
 10
8.604401181
 20
17.5578559603
 10
8.6255364244
 20
17.5523290802
 10
8.6456045301
 20
17.546496006
 10
8.6646018368
 20
17.5404084718
 10
8.6825385311
 20
17.5341122796
 10
8.6993026418
 20
17.5276967841
 10
8.7148840222
 20
17.5212280846
 10
8.7293603426
 20
17.514739542
 10
8.7427704917
 20
17.5082749376
  0
LINE
  5
345
100
AcDbEntity
  8
RACCORDO
100
AcDbLine
 62
253
  6
CONTINUOUS
 10
14.8983017025
 20
21.9990117104
 11
14.7644356662
 21
21.9398845807
  0
LWPOLYLINE
  5
346
100
AcDbEntity
  8
RACCORDO
100
AcDbPolyline
 62
253
  6
CONTINUOUS
 90
43
 70
0
 10
15.0397230588
 20
21.9283010323
 10
15.1735890973
 20
21.9874281596
 10
15.3145553176
 20
22.0408534792
 10
15.4626217195
 20
22.0885769911
 10
15.6187726616
 20
22.1307962067
 10
15.7820237854
 20
22.1673136147
 10
15.9494220154
 20
22.1975366806
 10
16.1209340306
 20
22.2213382521
 10
16.2965931519
 20
22.2388454817
 10
16.4735462672
 20
22.2498472928
 10
16.6517821745
 20
22.2542519859
 10
16.8313120756
 20
22.2521512605
 10
17.0093164642
 20
22.2436091383
 10
17.1857905047
 20
22.2285353775
 10
17.3607390325
 20
22.2070202199
 10
17.5313570475
 20
22.1793984128
 10
17.6976054771
 20
22.1455712019
 10
17.8595233938
 20
22.1056373414
 10
18.0144230146
 20
22.0602278423
 10
18.1622191956
 20
22.0092346759
 10
18.3029970809
 20
21.9527658708
 10
18.4343243191
 20
21.8917765234
 10
18.5560226753
 20
21.8261811226
 10
18.6682703846
 20
21.7560651796
 10
18.7691698012
 20
21.6826403249
 10
18.8584979574
 20
21.6058670634
 10
18.936477821
 20
21.5257848903
 10
19.0018806487
 20
21.4437239219
 10
19.0545026796
 20
21.3596668277
 10
19.0945476746
 20
21.2736309381
 10
19.1213981736
 20
21.1869983607
 10
19.1348684602
 20
21.0997695519
 10
19.1351442508
 20
21.0119440554
 10
19.1221652344
 20
20.9249026097
 10
19.0957444002
 20
20.8386438865
 10
19.056068759
 20
20.7531692141
 10
19.0036390322
 20
20.6698633162
 10
18.9381921532
 20
20.5887098738
 10
18.8599911887
 20
20.5097252059
 10
18.7703260598
 20
20.4343429923
 10
18.6696267404
 20
20.3630411264
 10
18.5574632566
 20
20.2953417148
 10
18.4338356085
 20
20.2312447574
  0
LWPOLYLINE
  5
347
100
AcDbEntity
  8
RACCORDO
100
AcDbPolyline
 62
253
  6
CONTINUOUS
 90
33
 70
0
 10
15.2481528787
 20
21.5606158567
 10
15.3646024628
 20
21.6118289794
 10
15.488647979
 20
21.6584547063
 10
15.619542723
 20
21.7002370337
 10
15.756496741
 20
21.7369334248
 10
15.8987134732
 20
21.7683666883
 10
16.0453986721
 20
21.7944215499
 10
16.195690082
 20
21.8149630949
 10
16.3487472257
 20
21.8298911693
 10
16.5037960313
 20
21.8391773674
 10
16.6599534945
 20
21.8427768102
 10
16.8163632044
 20
21.8406745054
 10
16.9722924653
 20
21.8329102842
 10
17.1268938868
 20
21.8195199223
 10
17.279293281
 20
21.8005691969
 10
17.4287254177
 20
21.7761666152
 10
17.5743748989
 20
21.7464322985
 10
17.7154081594
 20
21.7115186955
 10
17.8510552154
 20
21.6716174648
 10
17.9805803583
 20
21.6269306225
 10
18.1032180096
 20
21.5777015487
 10
18.2182110153
 20
21.5242313525
 10
18.3249177567
 20
21.4668208862
 10
18.4227408982
 20
21.4057875314
 10
18.5110861963
 20
21.3415054914
 10
18.5894604153
 20
21.2743600949
 10
18.6574643468
 20
21.2047165321
 10
18.7147420003
 20
21.1329484027
 10
18.7609841306
 20
21.0594760251
 10
18.7959572613
 20
20.984704332
 10
18.8194914462
 20
20.9089955416
 10
18.8314535791
 20
20.832789418
 10
18.8330337365
 20
20.7990858472
  0
LINE
  5
348
100
AcDbEntity
  8
RACCORDO
100
AcDbLine
 62
253
  6
CONTINUOUS
 10
18.2999695721
 20
20.1721176277
 11
18.1590033525
 21
20.1186923076
  0
LWPOLYLINE
  5
349
100
AcDbEntity
  8
RACCORDO
100
AcDbPolyline
 62
253
  6
CONTINUOUS
 90
41
 70
0
 10
18.1590033525
 20
20.1186923076
 10
18.0109369497
 20
20.0709687972
 10
17.8547860038
 20
20.0287495865
 10
17.6915348747
 20
19.9922321854
 10
17.5241366417
 20
19.9620091234
 10
17.3526246283
 20
19.9382075501
 10
17.1769655111
 20
19.9207003158
 10
17.0000123991
 20
19.9096985013
 10
16.8217764932
 20
19.9052938077
 10
16.6422465926
 20
19.9073945338
 10
16.4642422043
 20
19.9159366562
 10
16.2877681638
 20
19.9310104159
 10
16.1128196356
 20
19.9525255719
 10
15.9422016204
 20
19.9801473777
 10
15.7759531905
 20
20.0139745881
 10
15.6140352734
 20
20.0539084483
 10
15.4591356527
 20
20.0993179475
 10
15.3113394724
 20
20.1503111143
 10
15.1705615883
 20
20.20677992
 10
15.0392343518
 20
20.2677692681
 10
14.9175359984
 20
20.3333646697
 10
14.8052882925
 20
20.4034806136
 10
14.7043888796
 20
20.4769054689
 10
14.6150607269
 20
20.5536787306
 10
14.5370808672
 20
20.6337609037
 10
14.4716780437
 20
20.715821872
 10
14.4190560185
 20
20.7998789657
 10
14.3790110296
 20
20.8859148545
 10
14.352160534
 20
20.9725474309
 10
14.3386902453
 20
21.0597762386
 10
14.33841445
 20
21.1476017339
 10
14.351393465
 20
21.2346431779
 10
14.3778143068
 20
21.3209018983
 10
14.417489959
 20
21.4063765674
 10
14.4699196886
 20
21.4896824639
 10
14.5353665537
 20
21.5708359084
 10
14.6135674962
 20
21.6498205802
 10
14.7032326087
 20
21.7252027969
 10
14.803931922
 20
21.796504664
 10
14.9160954054
 20
21.8642040758
 10
15.0397230588
 20
21.9283010323
  0
LWPOLYLINE
  5
34A
100
AcDbEntity
  8
ASSI
100
AcDbPolyline
 62
7
  6
CONTINUOUS
 90
16
 70
0
 10
6.1066976334
 20
14.5827910453
 10
6.1188415715
 20
14.5862801658
 10
6.1315702898
 20
14.5890031669
 10
6.1448776719
 20
14.5909432085
 10
6.1587644041
 20
14.5920976987
 10
6.1732124157
 20
14.5924345785
 10
6.1881823165
 20
14.591894173
 10
6.2036559507
 20
14.5904533776
 10
6.2196174692
 20
14.5881040647
 10
6.2360244627
 20
14.5848121747
 10
6.2528160285
 20
14.5805730537
 10
6.2700042899
 20
14.5753657206
 10
6.2876567102
 20
14.569127612
 10
6.3057545149
 20
14.5618427857
 10
6.3242648961
 20
14.5534895983
 10
6.3332637001
 20
14.5491003639
  0
LINE
  5
34B
100
AcDbEntity
  8
RACCORDO
100
AcDbLine
 62
7
  6
CONTINUOUS
 10
0.2574368593
 20
14.3081318863
 11
0.3432887745
 21
14.3327195354
  0
LWPOLYLINE
  5
34C
100
AcDbEntity
  8
RACCORDO
100
AcDbPolyline
 62
7
  6
CONTINUOUS
 90
11
 70
0
 10
-16.8006753013
 20
-6.3228988375
 10
-16.772214091
 20
-6.3361329176
 10
-16.729114255
 20
-6.3522490867
 10
-16.6841540087
 20
-6.3644601384
 10
-16.6376142116
 20
-6.3725137702
 10
-16.5902222074
 20
-6.3761492169
 10
-16.5423853744
 20
-6.3752476187
 10
-16.4945576171
 20
-6.3697296099
 10
-16.4475657177
 20
-6.3596596992
 10
-16.4019593458
 20
-6.3451999607
 10
-16.3620495884
 20
-6.3284112192
  0
LINE
  5
34D
100
AcDbEntity
  8
RACCORDO
100
AcDbLine
 62
253
  6
CONTINUOUS
 10
-16.9515595496
 20
-6.8241314512
 11
-31.8186916251
 21
0.6094345866
  0
LINE
  5
34E
100
AcDbEntity
  8
RACCORDO
100
AcDbLine
 62
253
  6
CONTINUOUS
 10
-16.6016766486
 20
-6.6843425255
 11
-31.8857318646
 21
0.9576850825
  0
LINE
  5
34F
100
AcDbEntity
  8
RACCORDO
100
AcDbLine
 62
7
  6
CONTINUOUS
 10
-16.7989006246
 20
-6.3237687141
 11
-31.7448877207
 21
1.149224834
  0
LINE
  5
350
100
AcDbEntity
  8
RACCORDO
100
AcDbLine
 62
253
  6
CONTINUOUS
 10
-16.9292864731
 20
-6.1350546215
 11
-31.7700723366
 21
1.2853383103
  0
LWPOLYLINE
  5
351
100
AcDbEntity
  8
RACCORDO
100
AcDbPolyline
 62
253
  6
CONTINUOUS
 90
9
 70
0
 10
-31.7700664605
 20
1.2853412389
 10
-31.8047124309
 20
1.3043654036
 10
-31.8351994649
 20
1.325115061
 10
-31.8612008234
 20
1.3473614569
 10
-31.8824378352
 20
1.370859422
 10
-31.898682884
 20
1.3953500595
 10
-31.9097618497
 20
1.4205635851
 10
-31.915555975
 20
1.4462222884
 10
-31.9164681636
 20
1.4614233014
  0
LWPOLYLINE
  5
352
100
AcDbEntity
  8
RACCORDO
100
AcDbPolyline
 62
253
  6
CONTINUOUS
 90
31
 70
0
 10
4.206996559
 20
-32.6325055455
 10
4.2021180592
 20
-32.6248927852
 10
4.1967724176
 20
-32.6170563201
 10
4.1909738275
 20
-32.6090173404
 10
4.1847371423
 20
-32.6007968512
 10
4.1780795481
 20
-32.5924178893
 10
4.1710208991
 20
-32.5839055964
 10
4.1635812433
 20
-32.5752840964
 10
4.1557802072
 20
-32.5665760831
 10
4.1476388878
 20
-32.5578051182
 10
4.1391793524
 20
-32.5489950057
 10
4.1304248156
 20
-32.5401699513
 10
4.1213993954
 20
-32.5313542778
 10
4.112127829
 20
-32.5225721438
 10
4.1026353597
 20
-32.5138474565
 10
4.0929478914
 20
-32.5052040254
 10
4.0830918668
 20
-32.4966654461
 10
4.073094221
 20
-32.4882550554
 10
4.062982285
 20
-32.4799958465
 10
4.052783687
 20
-32.4719103848
 10
4.0425262753
 20
-32.4640207484
 10
4.0322380672
 20
-32.4563484873
 10
4.0219471487
 20
-32.4489145465
 10
4.0116816437
 20
-32.4417392427
 10
4.0014696378
 20
-32.4348422053
 10
3.9913390527
 20
-32.4282422879
 10
3.9813175269
 20
-32.421957492
 10
3.9714323885
 20
-32.4160049543
 10
3.9617106229
 20
-32.4104009247
 10
3.9521787976
 20
-32.4051607185
 10
3.942862947
 20
-32.4002986479
  0
LWPOLYLINE
  5
353
100
AcDbEntity
  8
RACCORDO
100
AcDbPolyline
 62
253
  6
CONTINUOUS
 90
13
 70
0
 10
-11.7235253535
 20
16.9475716111
 10
-11.7254336635
 20
16.9765116141
 10
-11.7303050567
 20
17.0065111161
 10
-11.7380578392
 20
17.037053231
 10
-11.7485614581
 20
17.0676135979
 10
-11.7616360813
 20
17.0976615732
 10
-11.7770535113
 20
17.1266700217
 10
-11.794586079
 20
17.1541932578
 10
-11.8138995959
 20
17.1796913892
 10
-11.8345192743
 20
17.2025801306
 10
-11.856018827
 20
17.2224783893
 10
-11.8780628304
 20
17.2391626547
 10
-11.9002751249
 20
17.2524198727
  0
LWPOLYLINE
  5
354
100
AcDbEntity
  8
RACCORDO
100
AcDbPolyline
 62
7
  6
CONTINUOUS
 90
13
 70
0
 10
-10.1016252269
 20
17.7647751308
 10
-10.1032269531
 20
17.7937388753
 10
-10.1078180212
 20
17.823723109
 10
-10.1153163772
 20
17.8542173179
 10
-10.1255899208
 20
17.8847030328
 10
-10.138462374
 20
17.914658539
 10
-10.1537157661
 20
17.9435679436
 10
-10.171091513
 20
17.9709354793
 10
-10.1902899882
 20
17.9962941422
 10
-10.2109785276
 20
18.0192101211
 10
-10.2328034383
 20
18.039291066
 10
-10.2553963745
 20
18.0561923044
 10
-10.2783749982
 20
18.0696233925
  0
LWPOLYLINE
  5
355
100
AcDbEntity
  8
RACCORDO
100
AcDbPolyline
 62
253
  6
CONTINUOUS
 90
8
 70
0
 10
-11.3545172655
 20
16.2292140313
 10
-11.3557636509
 20
16.2538183867
 10
-11.3594678649
 20
16.2769145677
 10
-11.3655770285
 20
16.2981934336
 10
-11.3740098091
 20
16.3173705564
 10
-11.3846481944
 20
16.3341950519
 10
-11.3973435209
 20
16.3484476114
 10
-11.4119285409
 20
16.3599382238
  0
LWPOLYLINE
  5
356
100
AcDbEntity
  8
RACCORDO
100
AcDbPolyline
 62
253
  6
CONTINUOUS
 90
13
 70
0
 10
-11.0040759776
 20
16.2276849039
 10
-11.0055647992
 20
16.2652984347
 10
-11.009666537
 20
16.300741721
 10
-11.0163811907
 20
16.3340147626
 10
-11.0257957745
 20
16.3653123244
 10
-11.0378232744
 20
16.3944396417
 10
-11.0522026483
 20
16.4208124198
 10
-11.0689730985
 20
16.444391294
 10
-11.0880954229
 20
16.4652156292
 10
-11.1091909723
 20
16.4828192254
 10
-11.1321335303
 20
16.4970466827
 10
-11.1570493134
 20
16.5080534011
 10
-11.1839383216
 20
16.5158393806
  0
LWPOLYLINE
  5
357
100
AcDbEntity
  8
RACCORDO
100
AcDbPolyline
 62
7
  6
CONTINUOUS
 90
15
 70
0
 10
-11.975458197
 20
23.9360509643
 10
-11.9770079144
 20
23.9919944905
 10
-11.9814868449
 20
24.0457638717
 10
-11.9888949884
 20
24.0973591079
 10
-11.9992883668
 20
24.1469797124
 10
-12.0126109583
 20
24.1944261719
 10
-12.0286946976
 20
24.2390999465
 10
-12.0475745638
 20
24.280965911
 10
-12.0692155779
 20
24.3200591907
 10
-12.0933447371
 20
24.3558866216
 10
-12.1199935621
 20
24.3884068308
 10
-12.1491305324
 20
24.4176611911
 10
-12.1803880832
 20
24.4432806573
 10
-12.2137930789
 20
24.4652191811
 10
-12.2353792694
 20
24.4769011761
  0
LWPOLYLINE
  5
358
100
AcDbEntity
  8
RACCORDO
100
AcDbPolyline
 62
253
  6
CONTINUOUS
 90
19
 70
0
 10
-10.8348282449
 20
16.0122627398
 10
-10.8346083902
 20
16.0015780833
 10
-10.833949373
 20
15.9911398568
 10
-10.8328528322
 20
15.9809740244
 10
-10.8313215013
 20
15.9711059058
 10
-10.829359186
 20
15.9615600112
 10
-10.8269707402
 20
15.9523599908
 10
-10.8241620701
 20
15.9435286788
 10
-10.8209401646
 20
15.9350881218
 10
-10.817313067
 20
15.9270594134
 10
-10.8132897874
 20
15.9194625026
 10
-10.8088803448
 20
15.9123163118
 10
-10.8040958083
 20
15.9056387464
 10
-10.7989481749
 20
15.8994464691
 10
-10.7934502069
 20
15.8937547567
 10
-10.7876154732
 20
15.8885776305
 10
-10.7814572567
 20
15.8839271154
 10
-10.7749919825
 20
15.8798158418
 10
-10.7698537978
 20
15.8770437144
  0
LWPOLYLINE
  5
359
100
AcDbEntity
  8
RACCORDO
100
AcDbPolyline
 62
253
  6
CONTINUOUS
 90
19
 70
0
 10
-9.5098435651
 20
15.3497703999
 10
-9.5096237104
 20
15.3390857434
 10
-9.5089646932
 20
15.3286475169
 10
-9.5078681524
 20
15.3184816845
 10
-9.5063368215
 20
15.3086135659
 10
-9.5043745062
 20
15.2990676713
 10
-9.5019860604
 20
15.2898676508
 10
-9.4991773903
 20
15.2810363389
 10
-9.4959554848
 20
15.2725957819
 10
-9.4923283872
 20
15.2645670735
 10
-9.4883051076
 20
15.2569701627
 10
-9.483895665
 20
15.2498239718
 10
-9.4791111285
 20
15.2431464065
 10
-9.473963495
 20
15.2369541292
 10
-9.4684655271
 20
15.2312624168
 10
-9.4626307934
 20
15.2260852906
 10
-9.4564725769
 20
15.2214347755
 10
-9.4500073027
 20
15.2173235019
 10
-9.4448809018
 20
15.2145572672
  0
LINE
  5
35A
100
AcDbEntity
  8
RACCORDO
100
AcDbLine
 62
253
  6
CONTINUOUS
 10
-12.0739666414
 20
16.9491007385
 11
-12.0739666414
 21
16.6318319381
  0
LINE
  5
35B
100
AcDbEntity
  8
RACCORDO
100
AcDbLine
 62
7
  6
CONTINUOUS
 10
-11.975458197
 20
23.6652506717
 11
-11.975458197
 21
23.9360509643
  0
LINE
  5
35C
100
AcDbEntity
  8
RACCORDO
100
AcDbLine
 62
253
  6
CONTINUOUS
 10
-11.7235253535
 20
16.9475716111
 11
-11.7235253535
 21
16.6303028107
  0
LINE
  5
35D
100
AcDbEntity
  8
RACCORDO
100
AcDbLine
 62
253
  6
CONTINUOUS
 10
-11.3545172655
 20
16.2292140313
 11
-11.3545172655
 21
15.7057062119
  0
LINE
  5
35E
100
AcDbEntity
  8
RACCORDO
100
AcDbLine
 62
253
  6
CONTINUOUS
 10
-11.0040759776
 20
16.2276849039
 11
-11.0040759776
 21
15.707890262
  0
LINE
  5
35F
100
AcDbEntity
  8
RACCORDO
100
AcDbLine
 62
7
  6
CONTINUOUS
 10
-10.9080515496
 20
16.4406250216
 11
-10.9080515496
 21
16.1006510875
  0
LINE
  5
360
100
AcDbEntity
  8
RACCORDO
100
AcDbLine
 62
7
  6
CONTINUOUS
 10
-10.839588495
 20
14.9450187917
 11
-10.839588495
 21
15.0491580147
  0
LINE
  5
361
100
AcDbEntity
  8
RACCORDO
100
AcDbLine
 62
253
  6
CONTINUOUS
 10
-10.8348282449
 20
16.352236674
 11
-10.8348282449
 21
16.0122627398
  0
LINE
  5
362
100
AcDbEntity
  8
RACCORDO
100
AcDbLine
 62
7
  6
CONTINUOUS
 10
-10.2050585953
 20
15.5946461132
 11
-10.2050585953
 21
15.1406890186
  0
LINE
  5
363
100
AcDbEntity
  8
RACCORDO
100
AcDbLine
 62
253
  6
CONTINUOUS
 10
-10.1318352906
 20
15.5580344608
 11
-10.1318352906
 21
15.0489603166
  0
LINE
  5
364
100
AcDbEntity
  8
RACCORDO
100
AcDbLine
 62
7
  6
CONTINUOUS
 10
-10.1016252269
 20
17.0070613964
 11
-10.1016252269
 21
17.7647503998
  0
LINE
  5
365
100
AcDbEntity
  8
RACCORDO
100
AcDbLine
 62
253
  6
CONTINUOUS
 10
-9.5743940759
 20
17.6816853423
 11
-9.5743940759
 21
18.0273228033
  0
LINE
  5
366
100
AcDbEntity
  8
RACCORDO
100
AcDbLine
 62
253
  6
CONTINUOUS
 10
-9.5098435651
 20
15.3497703999
 11
-9.5098435651
 21
15.689744334
  0
LINE
  5
367
100
AcDbEntity
  8
RACCORDO
100
AcDbLine
 62
7
  6
CONTINUOUS
 10
-9.5027066882
 20
17.6822762764
 11
-9.5027066882
 21
18.1149364613
  0
LINE
  5
368
100
AcDbEntity
  8
RACCORDO
100
AcDbLine
 62
253
  6
CONTINUOUS
 10
-9.2032276951
 20
22.2271943278
 11
-9.2032276951
 21
21.020689555
  0
LINE
  5
369
100
AcDbEntity
  8
RACCORDO
100
AcDbLine
 62
253
  6
CONTINUOUS
 10
-9.1573216054
 20
15.3492576761
 11
-9.1573216054
 21
15.6892316102
  0
LINE
  5
36A
100
AcDbEntity
  8
RACCORDO
100
AcDbLine
 62
7
  6
CONTINUOUS
 10
-9.0836807397
 20
22.2297693341
 11
-9.0836807397
 21
21.1646198451
  0
LWPOLYLINE
  5
36B
100
AcDbEntity
  8
RACCORDO
100
AcDbPolyline
 62
253
  6
CONTINUOUS
 90
31
 70
0
 10
-10.8348282449
 20
16.352236674
 10
-10.8345876637
 20
16.3636485834
 10
-10.8338665725
 20
16.37527004
 10
-10.8326669307
 20
16.3870694131
 10
-10.8309919982
 20
16.3990145997
 10
-10.8288463317
 20
16.4110730748
 10
-10.826235777
 20
16.4232119786
 10
-10.8231674436
 20
16.4353982607
 10
-10.8196496823
 20
16.4475987602
 10
-10.8156920731
 20
16.4597802571
 10
-10.8113053912
 20
16.4719095927
 10
-10.8065015781
 20
16.4839537548
 10
-10.8012937135
 20
16.4958799568
 10
-10.7956959681
 20
16.5076557515
 10
-10.7897235865
 20
16.5192490739
 10
-10.7833928522
 20
16.5306283261
 10
-10.7767210313
 20
16.5417624939
 10
-10.769726263
 20
16.5526213254
 10
-10.7624275261
 20
16.5631753614
 10
-10.7548445835
 20
16.5733960042
 10
-10.7469981652
 20
16.5832552931
 10
-10.7389098739
 20
16.5927261093
 10
-10.7306019061
 20
16.6017825373
 10
-10.7220967337
 20
16.610400154
 10
-10.713417271
 20
16.6185557678
 10
-10.7045851805
 20
16.6262288163
 10
-10.6956263975
 20
16.6333965639
 10
-10.6865710606
 20
16.6400354705
 10
-10.6774458918
 20
16.6461272679
 10
-10.6682738873
 20
16.6516579152
 10
-10.6590799889
 20
16.6566134889
  0
LWPOLYLINE
  5
36C
100
AcDbEntity
  8
RACCORDO
100
AcDbPolyline
 62
253
  6
CONTINUOUS
 90
31
 70
0
 10
-9.5098435651
 20
15.689744334
 10
-9.5096030896
 20
15.7011537099
 10
-9.5088823174
 20
15.7127725201
 10
-9.5076832095
 20
15.7245691538
 10
-9.5060090282
 20
15.736511516
 10
-9.5038643285
 20
15.7485671158
 10
-9.5012549454
 20
15.7607031536
 10
-9.498187978
 20
15.7728866114
 10
-9.4946717708
 20
15.7850843421
 10
-9.49071589
 20
15.7972631596
 10
-9.4863310983
 20
15.8093899293
 10
-9.4815293253
 20
15.8214316585
 10
-9.476323635
 20
15.8333555854
 10
-9.4707281904
 20
15.8451292691
 10
-9.4647582149
 20
15.8567206772
 10
-9.4584299507
 20
15.8680982733
 10
-9.451760615
 20
15.8792311028
 10
-9.4447683529
 20
15.8900888769
 10
-9.4374721879
 20
15.9006420552
 10
-9.4298919706
 20
15.9108619259
 10
-9.4220483242
 20
15.9207206843
 10
-9.4139625887
 20
15.9301915078
 10
-9.4056567626
 20
15.9392486296
 10
-9.3971534435
 20
15.9478674081
 10
-9.3884757659
 20
15.9560243945
 10
-9.3796473391
 20
15.9636973963
 10
-9.3706921822
 20
15.9708655379
 10
-9.3616346592
 20
15.977509317
 10
-9.3524994128
 20
15.9836106583
 10
-9.3433112968
 20
15.9891529619
 10
-9.3340953091
 20
15.994121149
  0
LWPOLYLINE
  5
36D
100
AcDbEntity
  8
RACCORDO
100
AcDbPolyline
 62
7
  6
CONTINUOUS
 90
5
 70
0
 10
-0.650808889
 20
22.142709295
 10
-0.6471458387
 20
22.151010464
 10
-0.6452670195
 20
22.1542225844
 10
-0.6461871738
 20
22.1531843141
 10
-0.6511046756
 20
22.1482012485
  0
LINE
  5
36E
100
AcDbEntity
  8
RACCORDO
100
AcDbLine
 62
253
  6
CONTINUOUS
 10
0.1867784394
 20
14.2376953906
 11
-0.7107502024
 21
13.3816616047
  0
LINE
  5
36F
100
AcDbEntity
  8
RACCORDO
100
AcDbLine
 62
7
  6
CONTINUOUS
 10
0.0894479506
 20
14.2370759128
 11
-0.8034357393
 21
13.4280043732
  0
LWPOLYLINE
  5
370
100
AcDbEntity
  8
RACCORDO
100
AcDbPolyline
 62
7
  6
CONTINUOUS
 90
5
 70
0
 10
0.0893974009
 20
14.2370299053
 10
0.0901703666
 20
14.2377208101
 10
0.0940659709
 20
14.2408457437
 10
0.0983577584
 20
14.2436898181
 10
0.1023646383
 20
14.2458717046
  0
LWPOLYLINE
  5
371
100
AcDbEntity
  8
RACCORDO
100
AcDbPolyline
 62
7
  6
CONTINUOUS
 90
3
 70
0
 10
14.995885281
 20
22.1401506751
 10
14.9024660324
 20
22.0807459509
 10
14.7998534276
 20
22.025065629
  0
LWPOLYLINE
  5
372
100
AcDbEntity
  8
RACCORDO
100
AcDbPolyline
 62
253
  6
CONTINUOUS
 90
13
 70
0
 10
8.9586047406
 20
17.8759601132
 10
8.9305819733
 20
17.860275169
 10
8.9029846226
 20
17.8402883288
 10
8.876295423
 20
17.8163492036
 10
8.8509812236
 20
17.7888765381
 10
8.8274848217
 20
17.7583508858
 10
8.806217218
 20
17.7253062032
 10
8.7875504265
 20
17.6903205097
 10
8.771810968
 20
17.6540057774
 10
8.7592741579
 20
17.6169972257
 10
8.7501592909
 20
17.5799422102
 10
8.7446258048
 20
17.5434888997
 10
8.7427704917
 20
17.5082749376
  0
LINE
  5
373
100
AcDbEntity
  8
RACCORDO
100
AcDbLine
 62
7
  6
CONTINUOUS
 10
1.0311808181
 20
11.4504835822
 11
1.3888599674
 21
11.629788127
  0
LINE
  5
374
100
AcDbEntity
  8
ASSI
100
AcDbLine
 62
7
  6
CONTINUOUS
 10
1.3888599674
 20
11.629788127
 11
6.6633520365
 21
14.2600972609
  0
LINE
  5
375
100
AcDbEntity
  8
ASSI
100
AcDbLine
 62
7
  6
CONTINUOUS
 10
6.0578216019
 20
14.5628624782
 11
1.4595706455
 21
12.2965011807
  0
LINE
  5
376
100
AcDbEntity
  8
RACCORDO
100
AcDbLine
 62
7
  6
CONTINUOUS
 10
18.3353873335
 20
20.257298676
 11
18.3011087962
 21
20.2404788784
  0
LINE
  5
377
100
AcDbEntity
  8
RACCORDO
100
AcDbLine
 62
7
  6
CONTINUOUS
 10
7.476148878
 20
14.3753036662
 11
6.8372881015
 21
14.0627015411
  0
LINE
  5
378
100
AcDbEntity
  8
RACCORDO
100
AcDbLine
 62
7
  6
CONTINUOUS
 10
8.2504353942
 20
17.0561667954
 11
4.6700305762
 21
15.3425062851
  0
LINE
  5
379
100
AcDbEntity
  8
RACCORDO
100
AcDbLine
 62
253
  6
CONTINUOUS
 10
8.2514979594
 20
16.983931051
 11
4.7443639874
 21
15.3053395795
  0
LWPOLYLINE
  5
37A
100
AcDbEntity
  8
ASSI
100
AcDbPolyline
 62
7
  6
CONTINUOUS
 90
7
 70
0
 10
6.0578216019
 20
14.5628624782
 10
6.0660308613
 20
14.5667899633
 10
6.074214819
 20
14.5704750255
 10
6.0823734751
 20
14.5739176648
 10
6.0905068295
 20
14.5771178812
 10
6.0986148823
 20
14.5800756747
 10
6.1066976334
 20
14.5827910453
  0
LWPOLYLINE
  5
37B
100
AcDbEntity
  8
RACCORDO
100
AcDbPolyline
 62
7
  6
CONTINUOUS
 90
32
 70
0
 10
18.3004652156
 20
20.2401670506
 10
18.2703696822
 20
20.2260626044
 10
18.1527294577
 20
20.1760103522
 10
18.0249117157
 20
20.1294570934
 10
17.8874137898
 20
20.0869742047
 10
17.7411720442
 20
20.0491590922
 10
17.5875441337
 20
20.0165859127
 10
17.4274635818
 20
19.9896356593
 10
17.26193087
 20
19.9686237745
 10
17.0924790751
 20
19.9538523963
 10
16.920211711
 20
19.9455058869
 10
16.7463245499
 20
19.9436981159
 10
16.5725178805
 20
19.9484573055
 10
16.3999932357
 20
19.959738869
 10
16.229903451
 20
19.9774275127
 10
16.063855815
 20
20.0012749364
 10
15.9029407476
 20
20.0310221099
 10
15.7481934085
 20
20.0663418471
 10
15.6010643983
 20
20.1067095935
 10
15.4627177286
 20
20.1515542157
 10
15.3335683221
 20
20.2004437964
 10
15.2139900748
 20
20.252945768
 10
15.1055101397
 20
20.3080195852
 10
15.007682954
 20
20.3654512011
 10
14.9189521487
 20
20.4260241593
 10
14.8398457226
 20
20.4896744793
 10
14.7724836063
 20
20.5549048442
 10
14.7184423381
 20
20.619783874
 10
14.678591809
 20
20.6819750837
 10
14.6518248979
 20
20.7410709332
 10
14.6367935887
 20
20.7984588318
 10
14.633127069
 20
20.849902234
  0
LWPOLYLINE
  5
37C
100
AcDbEntity
  8
RACCORDO
100
AcDbPolyline
 62
7
  6
CONTINUOUS
 90
18
 70
0
 10
7.476148878
 20
14.3753036662
 10
7.5045233988
 20
14.388485623
 10
7.5327578508
 20
14.4002200148
 10
7.560852234
 20
14.4105068415
 10
7.5888565471
 20
14.4193589761
 10
7.6167207914
 20
14.4267635456
 10
7.644294971
 20
14.4326819312
 10
7.6715640996
 20
14.4371053525
 10
7.6985431637
 20
14.4400425899
 10
7.7251271263
 20
14.4414813658
 10
7.7513320851
 20
14.4414142292
 10
7.7771419426
 20
14.4398486313
 10
7.8024033689
 20
14.4367946478
 10
7.8270931222
 20
14.4322488635
 10
7.8512344443
 20
14.4262146936
 10
7.8747437306
 20
14.4187124608
 10
7.8976395108
 20
14.4097270462
 10
7.9172015951
 20
14.4006373131
  0
LINE
  5
37D
100
AcDbEntity
  8
RACCORDO
100
AcDbLine
 62
253
  6
CONTINUOUS
 10
18.4338356085
 20
20.2312447574
 11
18.2999695721
 21
20.1721176277
  0
LWPOLYLINE
  5
37E
100
AcDbEntity
  8
RACCORDO
100
AcDbPolyline
 62
253
  6
CONTINUOUS
 90
43
 70
0
 10
18.5752569647
 20
20.1605340793
 10
18.7091230033
 20
20.2196612066
 10
18.8500892235
 20
20.2730865263
 10
18.9981556254
 20
20.3208100382
 10
19.1543065676
 20
20.3630292538
 10
19.3175576914
 20
20.3995466617
 10
19.4849559214
 20
20.4297697277
 10
19.6564679365
 20
20.4535712992
 10
19.8321270579
 20
20.4710785287
 10
20.0090801731
 20
20.4820803398
 10
20.1873160804
 20
20.4864850329
 10
20.3668459816
 20
20.4843843075
 10
20.5448503701
 20
20.4758421853
 10
20.7213244106
 20
20.4607684245
 10
20.8962729385
 20
20.4392532669
 10
21.0668909534
 20
20.4116314599
 10
21.233139383
 20
20.3778042489
 10
21.3950572997
 20
20.3378703885
 10
21.5499569205
 20
20.2924608893
 10
21.6977531016
 20
20.2414677229
 10
21.8385309868
 20
20.1849989178
 10
21.9698582251
 20
20.1240095705
 10
22.0915565813
 20
20.0584141696
 10
22.2038042905
 20
19.9882982266
 10
22.3047037071
 20
19.9148733719
 10
22.3940318634
 20
19.8381001105
 10
22.4720117269
 20
19.7580179374
 10
22.5374145547
 20
19.6759569689
 10
22.5900365855
 20
19.5918998747
 10
22.6300815805
 20
19.5058639851
 10
22.6569320795
 20
19.4192314077
 10
22.6704023662
 20
19.332002599
 10
22.6706781568
 20
19.2441771025
 10
22.6576991404
 20
19.1571356568
 10
22.6312783061
 20
19.0708769336
 10
22.5916026649
 20
18.9854022612
 10
22.5391729381
 20
18.9020963632
 10
22.4737260591
 20
18.8209429209
 10
22.3955250946
 20
18.741958253
 10
22.3058599657
 20
18.6665760394
 10
22.2051606463
 20
18.5952741734
 10
22.0929971625
 20
18.5275747618
 10
21.9693695144
 20
18.4634778045
  0
LWPOLYLINE
  5
37F
100
AcDbEntity
  8
RACCORDO
100
AcDbPolyline
 62
253
  6
CONTINUOUS
 90
33
 70
0
 10
18.7836867846
 20
19.7928489037
 10
18.9001363687
 20
19.8440620265
 10
19.024181885
 20
19.8906877534
 10
19.1550766289
 20
19.9324700807
 10
19.292030647
 20
19.9691664718
 10
19.4342473791
 20
20.0005997353
 10
19.5809325781
 20
20.0266545969
 10
19.731223988
 20
20.0471961419
 10
19.8842811316
 20
20.0621242163
 10
20.0393299372
 20
20.0714104145
 10
20.1954874004
 20
20.0750098573
 10
20.3518971104
 20
20.0729075525
 10
20.5078263713
 20
20.0651433312
 10
20.6624277927
 20
20.0517529694
 10
20.814827187
 20
20.0328022439
 10
20.9642593237
 20
20.0083996623
 10
21.1099088049
 20
19.9786653455
 10
21.2509420654
 20
19.9437517425
 10
21.3865891213
 20
19.9038505119
 10
21.5161142642
 20
19.8591636695
 10
21.6387519155
 20
19.8099345957
 10
21.7537449212
 20
19.7564643995
 10
21.8604516626
 20
19.6990539332
 10
21.9582748042
 20
19.6380205784
 10
22.0466201022
 20
19.5737385385
 10
22.1249943212
 20
19.506593142
 10
22.1929982527
 20
19.4369495791
 10
22.2502759063
 20
19.3651814497
 10
22.2965180365
 20
19.2917090721
 10
22.3314911672
 20
19.2169373791
 10
22.3550253522
 20
19.1412285886
 10
22.3669874851
 20
19.065022465
 10
22.3685676424
 20
19.0313188942
  0
LINE
  5
380
100
AcDbEntity
  8
RACCORDO
100
AcDbLine
 62
253
  6
CONTINUOUS
 10
21.835503478
 20
18.4043506748
 11
21.6945372584
 21
18.3509253547
  0
LWPOLYLINE
  5
381
100
AcDbEntity
  8
RACCORDO
100
AcDbPolyline
 62
253
  6
CONTINUOUS
 90
41
 70
0
 10
21.6945372584
 20
18.3509253547
 10
21.5464708556
 20
18.3032018442
 10
21.3903199097
 20
18.2609826335
 10
21.2270687806
 20
18.2244652325
 10
21.0596705477
 20
18.1942421705
 10
20.8881585343
 20
18.1704405971
 10
20.712499417
 20
18.1529333629
 10
20.5355463051
 20
18.1419315483
 10
20.3573103991
 20
18.1375268547
 10
20.1777804985
 20
18.1396275808
 10
19.9997761102
 20
18.1481697032
 10
19.8233020697
 20
18.1632434629
 10
19.6483535416
 20
18.1847586189
 10
19.4777355263
 20
18.2123804247
 10
19.3114870964
 20
18.2462076351
 10
19.1495691794
 20
18.2861414953
 10
18.9946695587
 20
18.3315509945
 10
18.8468733783
 20
18.3825441613
 10
18.7060954942
 20
18.4390129671
 10
18.5747682578
 20
18.5000023151
 10
18.4530699043
 20
18.5655977167
 10
18.3408221984
 20
18.6357136606
 10
18.2399227855
 20
18.7091385159
 10
18.1505946328
 20
18.7859117777
 10
18.0726147731
 20
18.8659939508
 10
18.0072119496
 20
18.948054919
 10
17.9545899244
 20
19.0321120127
 10
17.9145449355
 20
19.1181479015
 10
17.88769444
 20
19.2047804779
 10
17.8742241512
 20
19.2920092856
 10
17.8739483559
 20
19.3798347809
 10
17.8869273709
 20
19.466876225
 10
17.9133482128
 20
19.5531349453
 10
17.953023865
 20
19.6386096144
 10
18.0054535945
 20
19.7219155109
 10
18.0709004596
 20
19.8030689554
 10
18.1491014021
 20
19.8820536273
 10
18.2387665146
 20
19.9574358439
 10
18.339465828
 20
20.028737711
 10
18.4516293113
 20
20.0964371228
 10
18.5752569647
 20
20.1605340793
  0
LINE
  5
382
100
AcDbEntity
  8
RACCORDO
100
AcDbLine
 62
7
  6
CONTINUOUS
 10
0.4675135154
 20
11.3182059179
 11
0.3685551519
 21
11.2888942599
  0
LWPOLYLINE
  5
383
100
AcDbEntity
  8
RACCORDO
100
AcDbPolyline
 62
7
  6
CONTINUOUS
 90
4
 70
0
 10
0.3685551519
 20
11.2888942599
 10
0.3467355952
 20
11.2825669086
 10
0.3362861627
 20
11.2796067733
 10
0.3261368988
 20
11.2768041574
  0
LWPOLYLINE
  5
384
100
AcDbEntity
  8
RACCORDO
100
AcDbPolyline
 62
7
  6
CONTINUOUS
 90
4
 70
0
 10
-16.6023691394
 20
-6.7311620318
 10
-16.5553203196
 20
-6.7402275735
 10
-16.5099811012
 20
-6.7512869083
 10
-16.4666085721
 20
-6.7633842038
  0
LWPOLYLINE
  5
385
100
AcDbEntity
  8
RACCORDO
100
AcDbPolyline
 62
7
  6
CONTINUOUS
 90
6
 70
0
 10
-16.4666085721
 20
-6.7633842038
 10
-16.3859569064
 20
-6.7867950274
 10
-16.3488139686
 20
-6.7980348992
 10
-16.3139563232
 20
-6.8089258086
 10
-16.2812747669
 20
-6.8187306952
 10
-16.2506769595
 20
-6.8270857355
  0
LWPOLYLINE
  5
386
100
AcDbEntity
  8
RACCORDO
100
AcDbPolyline
 62
253
  6
CONTINUOUS
 90
7
 70
0
 10
-13.4350972978
 20
17.364174136
 10
-13.4326603954
 20
17.3467633848
 10
-13.4260732287
 20
17.3308925827
 10
-13.4154618564
 20
17.3156142814
 10
-13.4010424973
 20
17.3011904899
 10
-13.3830730556
 20
17.2878431039
 10
-13.3618739931
 20
17.2757856139
  0
LWPOLYLINE
  5
387
100
AcDbEntity
  8
RACCORDO
100
AcDbPolyline
 62
253
  6
CONTINUOUS
 90
7
 70
0
 10
-13.4350972978
 20
17.6814427619
 10
-13.4327146579
 20
17.6642261785
 10
-13.4261982328
 20
17.6483884917
 10
-13.4156475407
 20
17.6331038917
 10
-13.401239123
 20
17.6186281311
 10
-13.3832140713
 20
17.6052034281
 10
-13.3618739931
 20
17.5930544143
  0
LWPOLYLINE
  5
388
100
AcDbEntity
  8
RACCORDO
100
AcDbPolyline
 62
7
  6
CONTINUOUS
 90
10
 70
0
 10
-9.5027066882
 20
18.1149364613
 10
-9.5047582028
 20
18.1468939076
 10
-9.5109650861
 20
18.1786610534
 10
-9.5213208813
 20
18.2095969512
 10
-9.5357163558
 20
18.2390943492
 10
-9.5538988345
 20
18.2665129494
 10
-9.575498641
 20
18.2912807496
 10
-9.600281806
 20
18.3130945519
 10
-9.6277241932
 20
18.3314529159
 10
-9.6408844665
 20
18.338533845
  0
LWPOLYLINE
  5
389
100
AcDbEntity
  8
RACCORDO
100
AcDbPolyline
 62
7
  6
CONTINUOUS
 90
4
 70
0
 10
-9.0836807476
 20
22.2304541448
 10
-9.0838035041
 20
22.232424445
 10
-9.0861591253
 20
22.2383157294
 10
-9.0913961083
 20
22.2425269134
  0
LWPOLYLINE
  5
38A
100
AcDbEntity
  8
RACCORDO
100
AcDbPolyline
 62
253
  6
CONTINUOUS
 90
13
 70
0
 10
-9.5743940759
 20
18.0273228033
 10
-9.5756586138
 20
18.0557854816
 10
-9.5798608262
 20
18.0854226439
 10
-9.5869906768
 20
18.1157573969
 10
-9.5970120804
 20
18.1463528484
 10
-9.6097960594
 20
18.1766102695
 10
-9.6250620558
 20
18.2057961006
 10
-9.6425051658
 20
18.2333462937
 10
-9.6618538256
 20
18.2588484028
 10
-9.6827669031
 20
18.2818550238
 10
-9.7048794112
 20
18.3019691991
 10
-9.7278105652
 20
18.3188488717
 10
-9.7511640401
 20
18.3322058924
  0
LWPOLYLINE
  5
38B
100
AcDbEntity
  8
RACCORDO
100
AcDbPolyline
 62
253
  6
CONTINUOUS
 90
31
 70
0
 10
-9.1573216054
 20
15.6892316102
 10
-9.1576166999
 20
15.7006598493
 10
-9.1583928834
 20
15.7123005447
 10
-9.1596480308
 20
15.7241217784
 10
-9.1613787052
 20
15.7360911486
 10
-9.1635801631
 20
15.7481758244
 10
-9.1662463624
 20
15.7603426344
 10
-9.1693699891
 20
15.7725582084
 10
-9.1729424786
 20
15.7847890585
 10
-9.1769540299
 20
15.7970016356
 10
-9.1813936401
 20
15.8091624503
 10
-9.1862491342
 20
15.8212381599
 10
-9.1915071942
 20
15.8331956487
 10
-9.1971534069
 20
15.8450021437
 10
-9.203172282
 20
15.8566252584
 10
-9.2095472882
 20
15.8680330799
 10
-9.2162609107
 20
15.8791942865
 10
-9.2232947611
 20
15.8900783279
 10
-9.2306296129
 20
15.9006554567
 10
-9.2382454568
 20
15.9108967988
 10
-9.24612132
 20
15.9207741315
 10
-9.254235362
 20
15.9302600895
 10
-9.2625651539
 20
15.9393285259
 10
-9.2710879966
 20
15.9479548013
 10
-9.2797807551
 20
15.9561155253
 10
-9.2886215431
 20
15.9637899455
 10
-9.2975842333
 20
15.9709551795
 10
-9.3066385385
 20
15.9775875831
 10
-9.3157575831
 20
15.9836687841
 10
-9.3249182016
 20
15.9891846373
 10
-9.3340953091
 20
15.994121149
  0
LWPOLYLINE
  5
38C
100
AcDbEntity
  8
RACCORDO
100
AcDbPolyline
 62
7
  6
CONTINUOUS
 90
34
 70
0
 10
-7.5560408146
 20
16.4919536137
 10
-7.5562408706
 20
16.5023554223
 10
-7.5568411081
 20
16.5129337904
 10
-7.5578400661
 20
16.5236648085
 10
-7.5592353016
 20
16.5345242616
 10
-7.5610236499
 20
16.5454875541
 10
-7.5632012312
 20
16.556529765
 10
-7.5657630557
 20
16.5676259119
 10
-7.56870323
 20
16.5787509053
 10
-7.572015225
 20
16.5898794758
 10
-7.5756915021
 20
16.6009864336
 10
-7.5797236623
 20
16.6120466548
 10
-7.5841026597
 20
16.623035036
 10
-7.5888185602
 20
16.6339266936
 10
-7.5938606302
 20
16.6446969807
 10
-7.5992174909
 20
16.655321472
 10
-7.6048770151
 20
16.6657760965
 10
-7.6108263531
 20
16.6760371866
 10
-7.6170520248
 20
16.686081493
 10
-7.6235399573
 20
16.6958862479
 10
-7.6302754462
 20
16.705429245
 10
-7.6372431854
 20
16.7146888853
 10
-7.6444274425
 20
16.7236441677
 10
-7.6518119581
 20
16.7322747996
 10
-7.6593799125
 20
16.7405612724
 10
-7.667114234
 20
16.7484847797
 10
-7.6749974399
 20
16.7560273558
 10
-7.6830115394
 20
16.7631719795
 10
-7.6911384697
 20
16.7699024223
 10
-7.6993598808
 20
16.7762034108
 10
-7.7076569775
 20
16.7820607581
 10
-7.7160109709
 20
16.7874611949
 10
-7.72440312
 20
16.7923923995
 10
-7.7328145183
 20
16.7968431525
  0
LWPOLYLINE
  5
38D
100
AcDbEntity
  8
RACCORDO
100
AcDbPolyline
 62
253
  6
CONTINUOUS
 90
31
 70
0
 10
-7.0277736429
 20
16.7553924337
 10
-7.027963891
 20
16.7668730961
 10
-7.0286411555
 20
16.7785632509
 10
-7.0298035823
 20
16.7904308449
 10
-7.031447989
 20
16.802443349
 10
-7.0335698685
 20
16.8145678139
 10
-7.0361633974
 20
16.8267709591
 10
-7.0392214609
 20
16.8390193148
 10
-7.0427356741
 20
16.851279303
 10
-7.0466963958
 20
16.8635172949
 10
-7.0510927624
 20
16.8756997314
 10
-7.0559127176
 20
16.8877932104
 10
-7.0611430407
 20
16.8997645677
 10
-7.0667693945
 20
16.9115809922
 10
-7.0727763431
 20
16.9232100701
 10
-7.0791473879
 20
16.9346198723
 10
-7.0858650247
 20
16.9457790717
 10
-7.0929108541
 20
16.9566571236
 10
-7.1002656167
 20
16.9672242971
 10
-7.1079092491
 20
16.9774517449
 10
-7.1158207021
 20
16.9873112827
 10
-7.1239780364
 20
16.9967755945
 10
-7.1323587026
 20
17.0058185939
 10
-7.1409398623
 20
17.0144157107
 10
-7.1496982219
 20
17.0225436341
 10
-7.158611732
 20
17.0301816933
 10
-7.1676540525
 20
17.0373071122
 10
-7.1767946212
 20
17.043896384
 10
-7.1860062941
 20
17.0499312708
 10
-7.1952656579
 20
17.0553977515
 10
-7.2045473465
 20
17.0602819725
  0
LINE
  5
38E
100
AcDbEntity
  8
RACCORDO
100
AcDbLine
 62
253
  6
CONTINUOUS
 10
-8.798622957
 20
15.0711747728
 11
-8.798622957
 21
14.3823541498
  0
LINE
  5
38F
100
AcDbEntity
  8
RACCORDO
100
AcDbLine
 62
253
  6
CONTINUOUS
 10
-8.4461009973
 20
15.2007541532
 11
-8.4461009973
 21
14.3931220314
  0
LINE
  5
390
100
AcDbEntity
  8
RACCORDO
100
AcDbLine
 62
7
  6
CONTINUOUS
 10
-7.5560408146
 20
14.8898029527
 11
-7.5560408146
 21
16.4919536137
  0
LINE
  5
391
100
AcDbEntity
  8
RACCORDO
100
AcDbLine
 62
253
  6
CONTINUOUS
 10
-7.0277736429
 20
16.7553924337
 11
-7.0277736429
 21
16.407860917
  0
LINE
  5
392
100
AcDbEntity
  8
RACCORDO
100
AcDbLine
 62
7
  6
CONTINUOUS
 10
-6.9555757859
 20
16.8432650659
 11
-6.9555757859
 21
16.4957335492
  0
LINE
  5
393
100
AcDbEntity
  8
RACCORDO
100
AcDbLine
 62
253
  6
CONTINUOUS
 10
-6.4600253038
 20
24.2012168501
 11
-6.4600253038
 21
24.7682126685
  0
LWPOLYLINE
  5
394
100
AcDbEntity
  8
RACCORDO
100
AcDbPolyline
 62
7
  6
CONTINUOUS
 90
10
 70
0
 10
-6.2441910549
 20
24.2317755582
 10
-6.2440422572
 20
24.2459087493
 10
-6.2441023099
 20
24.2588096234
 10
-6.2442850089
 20
24.2703629921
 10
-6.2443813202
 20
24.2805102137
 10
-6.2444004093
 20
24.2890902966
 10
-6.2445696445
 20
24.2958402841
 10
-6.2447351142
 20
24.300673561
 10
-6.2448019212
 20
24.3035048696
 10
-6.2449488825
 20
24.3041476124
  0
LWPOLYLINE
  5
395
100
AcDbEntity
  8
RACCORDO
100
AcDbPolyline
 62
7
  6
CONTINUOUS
 90
15
 70
0
 10
-6.9555757859
 20
16.495731237
 10
-6.955735547
 20
16.4867973854
 10
-6.9564937054
 20
16.4743298765
 10
-6.957875501
 20
16.4619020716
 10
-6.9598797558
 20
16.449544148
 10
-6.9625031157
 20
16.4372897554
 10
-6.9657414722
 20
16.4251679626
 10
-6.9695888126
 20
16.4132099257
 10
-6.9740371788
 20
16.4014474238
 10
-6.9790776227
 20
16.3899101959
 10
-6.9846991664
 20
16.3786288141
 10
-6.9908891517
 20
16.3676333966
 10
-6.9976339891
 20
16.3569523935
 10
-7.004918342
 20
16.3466141667
 10
-7.0124141435
 20
16.3370244446
  0
LWPOLYLINE
  5
396
100
AcDbEntity
  8
RACCORDO
100
AcDbPolyline
 62
253
  6
CONTINUOUS
 90
16
 70
0
 10
-6.9555757859
 20
16.8432650692
 10
-6.9558770564
 20
16.837130237
 10
-6.956856775
 20
16.8306272889
 10
-6.958513464
 20
16.8241587246
 10
-6.9608426155
 20
16.8177421579
 10
-6.9638378957
 20
16.8113950468
 10
-6.9674911546
 20
16.80513467
 10
-6.9717924527
 20
16.7989780668
 10
-6.9767300853
 20
16.7929419964
 10
-6.9822906106
 20
16.7870428939
 10
-6.9884588997
 20
16.7812968125
 10
-6.995218161
 20
16.7757193968
 10
-7.0025499748
 20
16.7703258446
 10
-7.010434373
 20
16.7651308401
 10
-7.0188498987
 20
16.7601485166
 10
-7.0277736429
 20
16.7553924337
  0
LWPOLYLINE
  5
397
100
AcDbEntity
  8
RACCORDO
100
AcDbPolyline
 62
253
  6
CONTINUOUS
 90
16
 70
0
 10
-6.9555757859
 20
16.495731237
 10
-6.9558787091
 20
16.4895819262
 10
-6.9568599462
 20
16.4830801793
 10
-6.9585179039
 20
16.4766128603
 10
-6.9608480703
 20
16.4701975685
 10
-6.9638441059
 20
16.4638517562
 10
-6.9674978624
 20
16.4575926841
 10
-6.971799407
 20
16.4514373736
 10
-6.9767370327
 20
16.4454025819
 10
-6.9822972857
 20
16.4395047501
 10
-6.9884650192
 20
16.4337599358
 10
-6.9952234579
 20
16.4281837562
 10
-7.0025542285
 20
16.4227913679
 10
-7.0104373926
 20
16.417597438
 10
-7.0188514952
 20
16.4126161033
 10
-7.0277736429
 20
16.407860917
  0
LWPOLYLINE
  5
398
100
AcDbEntity
  8
RACCORDO
100
AcDbPolyline
 62
7
  6
CONTINUOUS
 90
5
 70
0
 10
-5.3267953711
 20
14.4170710467
 10
-5.3288319144
 20
14.4079496488
 10
-5.3303462733
 20
14.3981160512
 10
-5.331302657
 20
14.3876578913
 10
-5.3316344038
 20
14.375984135
  0
LWPOLYLINE
  5
399
100
AcDbEntity
  8
RACCORDO
100
AcDbPolyline
 62
7
  6
CONTINUOUS
 90
3
 70
0
 10
18.531419187
 20
20.3723837221
 10
18.4379999384
 20
20.312978998
 10
18.3353873335
 20
20.257298676
  0
LWPOLYLINE
  5
39A
100
AcDbEntity
  8
RACCORDO
100
AcDbPolyline
 62
253
  6
CONTINUOUS
 90
13
 70
0
 10
13.9083522089
 20
15.401086379
 10
13.8803294112
 20
15.3854014153
 10
13.8527320375
 20
15.3654145514
 10
13.8260428233
 20
15.3414754022
 10
13.800728618
 20
15.3140027162
 10
13.777232218
 20
15.2834770495
 10
13.755964622
 20
15.2504323596
 10
13.7372978428
 20
15.2154466678
 10
13.7215583989
 20
15.1791319463
 10
13.709021603
 20
15.1421234121
 10
13.6999067479
 20
15.1050684192
 10
13.6943732701
 20
15.0686151357
 10
13.69251796
 20
15.0334012034
  0
LINE
  5
39B
100
AcDbEntity
  8
RACCORDO
100
AcDbLine
 62
7
  6
CONTINUOUS
 10
1.3888599674
 20
10.4173525617
 11
1.0311808181
 21
10.2177566099
  0
LINE
  5
39C
100
AcDbEntity
  8
RACCORDO
100
AcDbLine
 62
7
  6
CONTINUOUS
 10
13.797997405
 20
14.8682280492
 11
13.7752894326
 21
14.8565515847
  0
LINE
  5
39D
100
AcDbEntity
  8
RACCORDO
100
AcDbLine
 62
7
  6
CONTINUOUS
 10
4.1753242043
 20
10.7930994291
 11
2.5921525093
 21
9.9809023818
  0
LINE
  5
39E
100
AcDbEntity
  8
RACCORDO
100
AcDbLine
 62
253
  6
CONTINUOUS
 10
4.2879947786
 20
10.786438504
 11
2.7052381755
 21
9.9744544067
  0
LINE
  5
39F
100
AcDbEntity
  8
RACCORDO
100
AcDbLine
 62
253
  6
CONTINUOUS
 10
5.6315036461
 20
10.1146840703
 11
4.0302228553
 21
9.3119620668
  0
LINE
  5
3A0
100
AcDbEntity
  8
RACCORDO
100
AcDbLine
 62
253
  6
CONTINUOUS
 10
5.8082773498
 20
9.8097945315
 11
4.206996559
 21
9.007072528
  0
LINE
  5
3A1
100
AcDbEntity
  8
RACCORDO
100
AcDbLine
 62
7
  6
CONTINUOUS
 10
4.1770625898
 20
10.7939686619
 11
4.175326178
 21
10.7931004417
  0
LINE
  5
3A2
100
AcDbEntity
  8
RACCORDO
100
AcDbLine
 62
253
  6
CONTINUOUS
 10
6.1597708179
 20
10.3781228903
 11
5.6315036461
 21
10.1146840703
  0
LINE
  5
3A3
100
AcDbEntity
  8
RACCORDO
100
AcDbLine
 62
253
  6
CONTINUOUS
 10
6.3365445216
 20
10.0732333515
 11
5.8082773498
 21
9.8097945315
  0
LINE
  5
3A4
100
AcDbEntity
  8
DRAFT
100
AcDbLine
 62
7
  6
CONTINUOUS
 10
1.3888599674
 20
10.4173525617
 11
6.7136940376
 21
13.0536839936
  0
LINE
  5
3A5
100
AcDbEntity
  8
RACCORDO
100
AcDbLine
 62
7
  6
CONTINUOUS
 10
21.8709212395
 20
18.4895317231
 11
21.8366427022
 21
18.4727119254
  0
LINE
  5
3A6
100
AcDbEntity
  8
RACCORDO
100
AcDbLine
 62
7
  6
CONTINUOUS
 10
4.7119325462
 20
11.0545207617
 11
4.1770653554
 21
10.7939700091
  0
LINE
  5
3A7
100
AcDbEntity
  8
RACCORDO
100
AcDbLine
 62
253
  6
CONTINUOUS
 10
4.8224446573
 20
11.0467859706
 11
4.2879947786
 21
10.786438504
  0
LINE
  5
3A8
100
AcDbEntity
  8
RACCORDO
100
AcDbLine
 62
7
  6
CONTINUOUS
 10
10.543114822
 20
12.8418206943
 11
5.8595779424
 21
10.590196699
  0
LINE
  5
3A9
100
AcDbEntity
  8
RACCORDO
100
AcDbLine
 62
253
  6
CONTINUOUS
 10
9.2593604459
 20
13.7295688505
 11
12.0698745778
 21
15.0747427418
  0
LINE
  5
3AA
100
AcDbEntity
  8
RACCORDO
100
AcDbLine
 62
253
  6
CONTINUOUS
 10
9.7370160403
 20
13.4907410532
 11
12.490436432
 21
14.8085886245
  0
LINE
  5
3AB
100
AcDbEntity
  8
RACCORDO
100
AcDbLine
 62
7
  6
CONTINUOUS
 10
13.7751338198
 20
14.8564772376
 11
10.3163978845
 21
13.2010501311
  0
LINE
  5
3AC
100
AcDbEntity
  8
RACCORDO
100
AcDbLine
 62
253
  6
CONTINUOUS
 10
13.9083522089
 20
14.8474941778
 11
10.3907312958
 21
13.1638834255
  0
LWPOLYLINE
  5
3AD
100
AcDbEntity
  8
RACCORDO
100
AcDbPolyline
 62
7
  6
CONTINUOUS
 90
32
 70
0
 10
21.8359991215
 20
18.4724000976
 10
21.8059035881
 20
18.4582956515
 10
21.6882633636
 20
18.4082433993
 10
21.5604456216
 20
18.3616901405
 10
21.4229476957
 20
18.3192072518
 10
21.2767059501
 20
18.2813921392
 10
21.1230780396
 20
18.2488189597
 10
20.9629974877
 20
18.2218687063
 10
20.797464776
 20
18.2008568216
 10
20.628012981
 20
18.1860854433
 10
20.455745617
 20
18.1777389339
 10
20.2818584558
 20
18.1759311629
 10
20.1080517865
 20
18.1806903525
 10
19.9355271417
 20
18.1919719161
 10
19.765437357
 20
18.2096605597
 10
19.5993897209
 20
18.2335079835
 10
19.4384746536
 20
18.2632551569
 10
19.2837273144
 20
18.2985748941
 10
19.1365983042
 20
18.3389426405
 10
18.9982516346
 20
18.3837872627
 10
18.869102228
 20
18.4326768434
 10
18.7495239807
 20
18.485178815
 10
18.6410440457
 20
18.5402526323
 10
18.54321686
 20
18.5976842481
 10
18.4544860546
 20
18.6582572064
 10
18.3753796285
 20
18.7219075264
 10
18.3080175123
 20
18.7871378913
 10
18.253976244
 20
18.8520169211
 10
18.2141257149
 20
18.9142081307
 10
18.1873588038
 20
18.9733039802
 10
18.1723274946
 20
19.0306918788
 10
18.168660975
 20
19.082135281
  0
LWPOLYLINE
  5
3AE
100
AcDbEntity
  8
RACCORDO
100
AcDbPolyline
 62
7
  6
CONTINUOUS
 90
18
 70
0
 10
4.7119325462
 20
11.0545207617
 10
4.724153506
 20
11.0600731278
 10
4.7367826296
 20
11.0650075679
 10
4.7497814288
 20
11.0692861969
 10
4.7631266793
 20
11.0728787708
 10
4.7767524086
 20
11.075746998
 10
4.7905513674
 20
11.0778564699
 10
4.8044503495
 20
11.079192718
 10
4.8184197708
 20
11.0797511056
 10
4.8324206224
 20
11.0795267527
 10
4.8463940866
 20
11.0785181464
 10
4.8602998419
 20
11.0767266789
 10
4.8741332818
 20
11.0741476866
 10
4.8879013432
 20
11.0707664244
 10
4.9015023922
 20
11.0665943259
 10
4.9147882227
 20
11.0616778148
 10
4.9277223781
 20
11.0560410246
 10
4.9332256218
 20
11.053372859
  0
LINE
  5
3AF
100
AcDbEntity
  8
RACCORDO
100
AcDbLine
 62
253
  6
CONTINUOUS
 10
21.9693695144
 20
18.4634778045
 11
21.835503478
 21
18.4043506748
  0
LWPOLYLINE
  5
3B0
100
AcDbEntity
  8
RACCORDO
100
AcDbPolyline
 62
253
  6
CONTINUOUS
 90
43
 70
0
 10
22.1107908706
 20
18.3927671264
 10
22.2446569092
 20
18.4518942537
 10
22.3856231294
 20
18.5053195733
 10
22.5336895314
 20
18.5530430852
 10
22.6898404735
 20
18.5952623008
 10
22.8530915973
 20
18.6317797087
 10
23.0204898273
 20
18.6620027747
 10
23.1920018424
 20
18.6858043462
 10
23.3676609638
 20
18.7033115758
 10
23.5446140791
 20
18.7143133868
 10
23.7228499863
 20
18.7187180799
 10
23.9023798875
 20
18.7166173545
 10
24.080384276
 20
18.7080752324
 10
24.2568583165
 20
18.6930014716
 10
24.4318068444
 20
18.671486314
 10
24.6024248593
 20
18.6438645069
 10
24.7686732889
 20
18.6100372959
 10
24.9305912056
 20
18.5701034355
 10
25.0854908265
 20
18.5246939364
 10
25.2332870075
 20
18.4737007699
 10
25.3740648927
 20
18.4172319648
 10
25.505392131
 20
18.3562426175
 10
25.6270904872
 20
18.2906472167
 10
25.7393381965
 20
18.2205312736
 10
25.840237613
 20
18.147106419
 10
25.9295657693
 20
18.0703331575
 10
26.0075456329
 20
17.9902509844
 10
26.0729484606
 20
17.908190016
 10
26.1255704915
 20
17.8241329217
 10
26.1656154865
 20
17.7380970321
 10
26.1924659855
 20
17.6514644548
 10
26.2059362721
 20
17.564235646
 10
26.2062120627
 20
17.4764101495
 10
26.1932330463
 20
17.3893687038
 10
26.1668122121
 20
17.3031099806
 10
26.1271365708
 20
17.2176353082
 10
26.074706844
 20
17.1343294102
 10
26.0092599651
 20
17.0531759679
 10
25.9310590005
 20
16.9741913
 10
25.8413938717
 20
16.8988090864
 10
25.7406945522
 20
16.8275072205
 10
25.6285310684
 20
16.7598078088
 10
25.5049034203
 20
16.6957108515
  0
LWPOLYLINE
  5
3B1
100
AcDbEntity
  8
RACCORDO
100
AcDbPolyline
 62
253
  6
CONTINUOUS
 90
33
 70
0
 10
22.3192206905
 20
18.0250819508
 10
22.4356702746
 20
18.0762950735
 10
22.5597157909
 20
18.1229208004
 10
22.6906105349
 20
18.1647031277
 10
22.8275645529
 20
18.2013995188
 10
22.969781285
 20
18.2328327824
 10
23.116466484
 20
18.2588876439
 10
23.2667578939
 20
18.2794291889
 10
23.4198150375
 20
18.2943572634
 10
23.5748638432
 20
18.3036434615
 10
23.7310213063
 20
18.3072429043
 10
23.8874310163
 20
18.3051405995
 10
24.0433602772
 20
18.2973763782
 10
24.1979616986
 20
18.2839860164
 10
24.3503610929
 20
18.2650352909
 10
24.4997932296
 20
18.2406327093
 10
24.6454427108
 20
18.2108983926
 10
24.7864759713
 20
18.1759847896
 10
24.9221230272
 20
18.1360835589
 10
25.0516481702
 20
18.0913967166
 10
25.1742858214
 20
18.0421676427
 10
25.2892788272
 20
17.9886974466
 10
25.3959855686
 20
17.9312869803
 10
25.4938087101
 20
17.8702536254
 10
25.5821540082
 20
17.8059715855
 10
25.6605282271
 20
17.738826189
 10
25.7285321586
 20
17.6691826261
 10
25.7858098122
 20
17.5974144968
 10
25.8320519425
 20
17.5239421192
 10
25.8670250732
 20
17.4491704261
 10
25.8905592581
 20
17.3734616357
 10
25.902521391
 20
17.2972555121
 10
25.9041015484
 20
17.2635519412
  0
LINE
  5
3B2
100
AcDbEntity
  8
RACCORDO
100
AcDbLine
 62
253
  6
CONTINUOUS
 10
25.371037384
 20
16.6365837218
 11
25.2300711644
 21
16.5831584017
  0
LWPOLYLINE
  5
3B3
100
AcDbEntity
  8
RACCORDO
100
AcDbPolyline
 62
253
  6
CONTINUOUS
 90
41
 70
0
 10
25.2300711644
 20
16.5831584017
 10
25.0820047615
 20
16.5354348912
 10
24.9258538157
 20
16.4932156806
 10
24.7626026866
 20
16.4566982795
 10
24.5952044536
 20
16.4264752175
 10
24.4236924402
 20
16.4026736442
 10
24.2480333229
 20
16.3851664099
 10
24.071080211
 20
16.3741645953
 10
23.8928443051
 20
16.3697599017
 10
23.7133144044
 20
16.3718606278
 10
23.5353100161
 20
16.3804027502
 10
23.3588359756
 20
16.3954765099
 10
23.1838874475
 20
16.4169916659
 10
23.0132694322
 20
16.4446134717
 10
22.8470210023
 20
16.4784406821
 10
22.6851030853
 20
16.5183745424
 10
22.5302034646
 20
16.5637840416
 10
22.3824072842
 20
16.6147772084
 10
22.2416294002
 20
16.6712460141
 10
22.1103021637
 20
16.7322353621
 10
21.9886038102
 20
16.7978307638
 10
21.8763561044
 20
16.8679467077
 10
21.7754566914
 20
16.9413715629
 10
21.6861285388
 20
17.0181448247
 10
21.608148679
 20
17.0982269978
 10
21.5427458555
 20
17.180287966
 10
21.4901238304
 20
17.2643450598
 10
21.4500788414
 20
17.3503809486
 10
21.4232283459
 20
17.437013525
 10
21.4097580572
 20
17.5242423327
 10
21.4094822619
 20
17.612067828
 10
21.4224612768
 20
17.699109272
 10
21.4488821187
 20
17.7853679923
 10
21.4885577709
 20
17.8708426614
 10
21.5409875005
 20
17.954148558
 10
21.6064343656
 20
18.0353020024
 10
21.684635308
 20
18.1142866743
 10
21.7743004205
 20
18.1896688909
 10
21.8749997339
 20
18.260970758
 10
21.9871632173
 20
18.3286701698
 10
22.1107908706
 20
18.3927671264
  0
LINE
  5
3B4
100
AcDbEntity
  8
RACCORDO
100
AcDbLine
 62
7
  6
CONTINUOUS
 10
-28.1869355272
 20
7.363726548
 11
-20.4087609286
 21
3.4746392487
  0
LINE
  5
3B5
100
AcDbEntity
  8
RACCORDO
100
AcDbLine
 62
253
  6
CONTINUOUS
 10
-28.2389141643
 20
7.4719013081
 11
-20.4607395713
 21
3.5828140115
  0
LWPOLYLINE
  5
3B6
100
AcDbEntity
  8
RACCORDO
100
AcDbPolyline
 62
253
  6
CONTINUOUS
 90
9
 70
0
 10
-28.4510461987
 20
7.8377749464
 10
-28.4650538829
 20
7.8455534899
 10
-28.4773587146
 20
7.8540215317
 10
-28.487825872
 20
7.8630862998
 10
-28.4963406665
 20
7.8726484836
 10
-28.5028097974
 20
7.8826033211
 10
-28.5071623759
 20
7.8928417459
 10
-28.5093507037
 20
7.903251586
 10
-28.5096248424
 20
7.9084855995
  0
LWPOLYLINE
  5
3B7
100
AcDbEntity
  8
RACCORDO
100
AcDbPolyline
 62
7
  6
CONTINUOUS
 90
6
 70
0
 10
-26.76319426
 20
23.9167236015
 10
-26.7434380518
 20
23.8886776363
 10
-26.7200592871
 20
23.863629226
 10
-26.6934670058
 20
23.8420073402
 10
-26.6641166396
 20
23.8241992993
 10
-26.6608931835
 20
23.8225641963
  0
LWPOLYLINE
  5
3B8
100
AcDbEntity
  8
RACCORDO
100
AcDbPolyline
 62
7
  6
CONTINUOUS
 90
27
 70
0
 10
-5.3316344038
 20
14.375984135
 10
-5.3313584069
 20
14.3652202519
 10
-5.3305672228
 20
14.3533604019
 10
-5.3292554524
 20
14.3411475853
 10
-5.3274026946
 20
14.3286417803
 10
-5.3250798649
 20
14.3158648325
 10
-5.3222853286
 20
14.3028598762
 10
-5.3190076305
 20
14.2896728976
 10
-5.3152998808
 20
14.276315385
 10
-5.3111618657
 20
14.2628198214
 10
-5.3065876619
 20
14.2492223705
 10
-5.3016181697
 20
14.2355311826
 10
-5.2962537018
 20
14.2217720115
 10
-5.2904916571
 20
14.2079740072
 10
-5.284365103
 20
14.1941452271
 10
-5.2778745579
 20
14.1803069072
 10
-5.2710195122
 20
14.1664833731
 10
-5.2638285006
 20
14.1526844131
 10
-5.2563022024
 20
14.1389281268
 10
-5.248441563
 20
14.1252354995
 10
-5.2402731235
 20
14.1116191348
 10
-5.2317975953
 20
14.0980944773
 10
-5.2230173241
 20
14.0846804979
 10
-5.2139596392
 20
14.0713943469
 10
-5.2046347975
 20
14.058252105
 10
-5.1950372002
 20
14.0452684548
 10
-5.1851702008
 20
14.0324577072
  0
LINE
  5
3B9
100
AcDbEntity
  8
RACCORDO
100
AcDbLine
 62
253
  6
CONTINUOUS
 10
-5.7529185226
 20
24.058079223
 11
-5.7529185226
 21
24.7561194447
  0
LINE
  5
3BA
100
AcDbEntity
  8
RACCORDO
100
AcDbLine
 62
7
  6
CONTINUOUS
 10
-5.3316168102
 20
14.3755275382
 11
-5.3316168102
 21
13.1353385056
  0
LINE
  5
3BB
100
AcDbEntity
  8
RACCORDO
100
AcDbLine
 62
253
  6
CONTINUOUS
 10
-5.1851702008
 20
14.0324577072
 11
-5.1851702008
 21
12.9518743964
  0
LWPOLYLINE
  5
3BC
100
AcDbEntity
  8
RACCORDO
100
AcDbPolyline
 62
7
  6
CONTINUOUS
 90
3
 70
0
 10
22.0669530929
 20
18.6046167692
 10
21.9735338443
 20
18.545212045
 10
21.8709212395
 20
18.4895317231
  0
LWPOLYLINE
  5
3BD
100
AcDbEntity
  8
RACCORDO
100
AcDbPolyline
 62
253
  6
CONTINUOUS
 90
43
 70
0
 10
0.2875390862
 20
5.2063385763
 10
0.2498870418
 20
5.1847528926
 10
0.2123531014
 20
5.1616228219
 10
0.1749831595
 20
5.1369773673
 10
0.1378228996
 20
5.1108480369
 10
0.1009177454
 20
5.083266939
 10
0.0643128427
 20
5.0542665407
 10
0.0280521722
 20
5.0238822114
 10
-0.007819092
 20
4.9921523713
 10
-0.0432546369
 20
4.959116549
 10
-0.0782107306
 20
4.9248162782
 10
-0.1126450575
 20
4.8892939283
 10
-0.1465143287
 20
4.8525926904
 10
-0.1797771559
 20
4.8147581392
 10
-0.2123928349
 20
4.77583739
 10
-0.244320195
 20
4.7358779997
 10
-0.2755202658
 20
4.6949294605
 10
-0.3059548054
 20
4.6530428019
 10
-0.3355850785
 20
4.6102697232
 10
-0.3643747363
 20
4.5666634871
 10
-0.3922887184
 20
4.522278138
 10
-0.4192917747
 20
4.477168096
 10
-0.4453508499
 20
4.4313893485
 10
-0.4704341293
 20
4.3849987333
 10
-0.494509941
 20
4.3380531647
 10
-0.5175488721
 20
4.2906107163
 10
-0.5395227175
 20
4.2427304115
 10
-0.560403532
 20
4.1944715031
 10
-0.5801656906
 20
4.1458939928
 10
-0.5987851752
 20
4.0970579737
 10
-0.6162385115
 20
4.0480234177
 10
-0.6325042917
 20
3.9988511695
 10
-0.6475627225
 20
3.949602108
 10
-0.6613948825
 20
3.9003364941
 10
-0.6739839192
 20
3.851114791
 10
-0.6853143101
 20
3.8019985556
 10
-0.695371466
 20
3.7530495847
 10
-0.7041429282
 20
3.7043295261
 10
-0.711618334
 20
3.6558976398
 10
-0.7177885276
 20
3.6078117253
 10
-0.7226458305
 20
3.560130623
 10
-0.7261842283
 20
3.5129140961
 10
-0.728399307
 20
3.466220612
  0
LWPOLYLINE
  5
3BE
100
AcDbEntity
  8
RACCORDO
100
AcDbPolyline
 62
253
  6
CONTINUOUS
 90
43
 70
0
 10
0.6533718262
 20
4.6033361305
 10
0.6280885577
 20
4.5889925156
 10
0.6029418964
 20
4.5736573508
 10
0.5779318424
 20
4.5573306362
 10
0.553026883
 20
4.5399892701
 10
0.5282585308
 20
4.5216563541
 10
0.5037213238
 20
4.5024011938
 10
0.4794168445
 20
4.4822206765
 10
0.4553435104
 20
4.4611179148
 10
0.4315911128
 20
4.4391715519
 10
0.4081611145
 20
4.4163786675
 10
0.3850520528
 20
4.392742182
 10
0.3623493309
 20
4.3683494993
 10
0.3400544107
 20
4.3431977956
 10
0.3181658303
 20
4.3172898948
 10
0.2967646077
 20
4.2907216732
 10
0.2758524721
 20
4.2634905673
 10
0.2554276941
 20
4.2355991405
 10
0.2355661044
 20
4.2071509599
 10
0.2162698679
 20
4.1781440531
 10
0.1975368197
 20
4.1485803923
 10
0.1794362946
 20
4.1185694612
 10
0.1619706402
 20
4.0881096163
 10
0.1451375091
 20
4.0572025009
 10
0.1289991939
 20
4.0259625287
 10
0.1135582288
 20
3.9943883661
 10
0.0988120798
 20
3.9624813467
 10
0.0848154375
 20
3.9303598843
 10
0.0715711363
 20
3.8980232978
 10
0.0590763419
 20
3.8654722683
 10
0.0473772421
 20
3.8328272534
 10
0.036476784
 20
3.8000879668
 10
0.0263720205
 20
3.7672546948
 10
0.0171002975
 20
3.7344487531
 10
0.0086646449
 20
3.7016698849
 10
0.0010620327
 20
3.668918347
 10
-0.0056792827
 20
3.6363162266
 10
-0.0115560899
 20
3.6038627471
 10
-0.0165716004
 20
3.5715586851
 10
-0.0207071922
 20
3.5395284564
 10
-0.0239566579
 20
3.507813533
 10
-0.0263262049
 20
3.476372443
 10
-0.0278158331
 20
3.4452051863
  0
LINE
  5
3BF
100
AcDbEntity
  8
RACCORDO
100
AcDbLine
 62
7
  6
CONTINUOUS
 10
4.9182171671
 20
7.710094247
 11
5.8082773498
 21
8.2073910579
  0
LINE
  5
3C0
100
AcDbEntity
  8
RACCORDO
100
AcDbLine
 62
253
  6
CONTINUOUS
 10
0.2875390862
 20
5.2063385763
 11
4.8065702246
 21
7.6734105045
  0
LINE
  5
3C1
100
AcDbEntity
  8
RACCORDO
100
AcDbLine
 62
253
  6
CONTINUOUS
 10
6.1510610987
 20
7.6046863003
 11
0.6533718262
 21
4.6033361305
  0
LINE
  5
3C2
100
AcDbEntity
  8
RACCORDO
100
AcDbLine
 62
7
  6
CONTINUOUS
 10
11.4246502805
 20
12.1079625029
 11
5.9331069523
 21
9.145148892
  0
LWPOLYLINE
  5
3C3
100
AcDbEntity
  8
RACCORDO
100
AcDbPolyline
 62
7
  6
CONTINUOUS
 90
13
 70
0
 10
4.9182171671
 20
7.710094247
 10
4.9103468755
 20
7.7058869388
 10
4.9021600064
 20
7.7018765295
 10
4.8936718175
 20
7.698069767
 10
4.8848975943
 20
7.6944768424
 10
4.8758542374
 20
7.6911000688
 10
4.8665603918
 20
7.6879337489
 10
4.857033487
 20
7.6849861298
 10
4.8472915544
 20
7.6822590326
 10
4.8373550677
 20
7.6797363
 10
4.8272435696
 20
7.6774149527
 10
4.8169754904
 20
7.6753053314
 10
4.8065702246
 20
7.6734105045
  0
LINE
  5
3C4
100
AcDbEntity
  8
RACCORDO
100
AcDbLine
 62
7
  6
CONTINUOUS
 10
11.4246502805
 20
11.5312108594
 11
6.0872653981
 21
8.7676989384
  0
LINE
  5
3C5
100
AcDbEntity
  8
RACCORDO
100
AcDbLine
 62
7
  6
CONTINUOUS
 10
25.4064551454
 20
16.7217647701
 11
25.3721766081
 21
16.7049449724
  0
LINE
  5
3C6
100
AcDbEntity
  8
DRAFT
100
AcDbLine
 62
7
  6
CONTINUOUS
 10
12.2271796962
 20
11.282862618
 11
6.5579764629
 21
8.5290523206
  0
LINE
  5
3C7
100
AcDbEntity
  8
RACCORDO
100
AcDbLine
 62
253
  6
CONTINUOUS
 10
12.9097593985
 20
10.1055867771
 11
27.7970293899
 21
17.3370645908
  0
LINE
  5
3C8
100
AcDbEntity
  8
RACCORDO
100
AcDbLine
 62
253
  6
CONTINUOUS
 10
27.7970293899
 20
17.3370645908
 11
30.308338163
 21
18.5581873537
  0
LINE
  5
3C9
100
AcDbEntity
  8
RACCORDO
100
AcDbLine
 62
253
  6
CONTINUOUS
 10
6.5152764209
 20
8.553693427
 11
5.8082773498
 21
8.2197497946
  0
LINE
  5
3CA
100
AcDbEntity
  8
RACCORDO
100
AcDbLine
 62
253
  6
CONTINUOUS
 10
6.8689375216
 20
7.9437677364
 11
6.1510610987
 21
7.6046863003
  0
LWPOLYLINE
  5
3CB
100
AcDbEntity
  8
RACCORDO
100
AcDbPolyline
 62
7
  6
CONTINUOUS
 90
32
 70
0
 10
25.3715330274
 20
16.7046331447
 10
25.3414374941
 20
16.6905286985
 10
25.2237972695
 20
16.6404764463
 10
25.0959795275
 20
16.5939231875
 10
24.9584816017
 20
16.5514402988
 10
24.8122398561
 20
16.5136251863
 10
24.6586119455
 20
16.4810520067
 10
24.4985313936
 20
16.4541017533
 10
24.3329986819
 20
16.4330898686
 10
24.1635468869
 20
16.4183184903
 10
23.9912795229
 20
16.409971981
 10
23.8173923618
 20
16.40816421
 10
23.6435856924
 20
16.4129233995
 10
23.4710610476
 20
16.4242049631
 10
23.3009712629
 20
16.4418936067
 10
23.1349236268
 20
16.4657410305
 10
22.9740085595
 20
16.495488204
 10
22.8192612204
 20
16.5308079411
 10
22.6721322101
 20
16.5711756876
 10
22.5337855405
 20
16.6160203098
 10
22.4046361339
 20
16.6649098905
 10
22.2850578866
 20
16.7174118621
 10
22.1765779516
 20
16.7724856793
 10
22.0787507659
 20
16.8299172952
 10
21.9900199605
 20
16.8904902534
 10
21.9109135344
 20
16.9541405734
 10
21.8435514182
 20
17.0193709383
 10
21.7895101499
 20
17.0842499681
 10
21.7496596209
 20
17.1464411777
 10
21.7228927098
 20
17.2055370272
 10
21.7078614006
 20
17.2629249258
 10
21.7041948809
 20
17.3143683281
  0
LINE
  5
3CC
100
AcDbEntity
  8
RACCORDO
100
AcDbLine
 62
253
  6
CONTINUOUS
 10
29.5603225126
 20
17.4193285769
 11
30.8331034571
 21
18.0107366366
  0
LINE
  5
3CD
100
AcDbEntity
  8
RACCORDO
100
AcDbLine
 62
253
  6
CONTINUOUS
 10
28.2969532375
 20
16.8334883315
 11
29.5603225126
 21
17.4193285769
  0
LINE
  5
3CE
100
AcDbEntity
  8
RACCORDO
100
AcDbLine
 62
253
  6
CONTINUOUS
 10
25.5049034203
 20
16.6957108515
 11
25.371037384
 21
16.6365837218
  0
LWPOLYLINE
  5
3CF
100
AcDbEntity
  8
RACCORDO
100
AcDbPolyline
 62
253
  6
CONTINUOUS
 90
34
 70
0
 10
-0.0278158331
 20
3.4452051863
 10
-0.0451101644
 20
3.4380777197
 10
-0.0631356259
 20
3.4313644332
 10
-0.0818522856
 20
3.4250801988
 10
-0.1012186803
 20
3.4192389381
 10
-0.1211919073
 20
3.4138535914
 10
-0.1417277198
 20
3.4089360887
 10
-0.1627806244
 20
3.404497324
 10
-0.1843039824
 20
3.4005471305
 10
-0.206250113
 20
3.397094259
 10
-0.2285703984
 20
3.3941463588
 10
-0.2512153924
 20
3.3917099605
 10
-0.2741349292
 20
3.3897904613
 10
-0.2972782349
 20
3.3883921135
 10
-0.3205940399
 20
3.3875180151
 10
-0.3440306922
 20
3.3871701022
 10
-0.3675362725
 20
3.3873491458
 10
-0.3910587086
 20
3.3880547491
 10
-0.4145458909
 20
3.389285349
 10
-0.4379457879
 20
3.3910382194
 10
-0.4612065616
 20
3.393309477
 10
-0.4842766822
 20
3.3960940904
 10
-0.507105042
 20
3.3993858908
 10
-0.5296410692
 20
3.4031775858
 10
-0.5518348394
 20
3.4074607755
 10
-0.5736371865
 20
3.4122259715
 10
-0.5949998115
 20
3.4174626173
 10
-0.6158753895
 20
3.4231591121
 10
-0.6362176745
 20
3.4293028364
 10
-0.6559816022
 20
3.43588018
 10
-0.6751233891
 20
3.4428765718
 10
-0.6936006303
 20
3.4502765129
 10
-0.7113723928
 20
3.4580636099
 10
-0.7283993068
 20
3.466220612
  0
LWPOLYLINE
  5
3D0
100
AcDbEntity
  8
RACCORDO
100
AcDbPolyline
 62
253
  6
CONTINUOUS
 90
10
 70
0
 10
-20.2486075369
 20
3.7365556155
 10
-20.2330502589
 20
3.7295516975
 10
-20.2161139877
 20
3.7233992368
 10
-20.1979842806
 20
3.7181656412
 10
-20.1788597706
 20
3.713908251
 10
-20.1589499897
 20
3.710673711
 10
-20.1384730737
 20
3.7084974595
 10
-20.1176533719
 20
3.7074033401
 10
-20.0967189894
 20
3.7074033401
 10
-20.0758992877
 20
3.7084974595
  0
LWPOLYLINE
  5
3D1
100
AcDbEntity
  8
RACCORDO
100
AcDbPolyline
 62
253
  6
CONTINUOUS
 90
22
 70
0
 10
-20.4607395713
 20
3.5828140115
 10
-20.4448060211
 20
3.575591486
 10
-20.429114492
 20
3.5699048311
 10
-20.4136649838
 20
3.5657540467
 10
-20.3983678832
 20
3.5631292905
 10
-20.3833128036
 20
3.562040405
 10
-20.3687685851
 20
3.5625169167
 10
-20.3547476877
 20
3.5645895068
 10
-20.3412376514
 20
3.5682274941
 10
-20.3284699368
 20
3.5733683621
 10
-20.3164607477
 20
3.580035803
 10
-20.3051938803
 20
3.5882061245
 10
-20.2948521836
 20
3.5977457338
 10
-20.2854487674
 20
3.6086798978
 10
-20.2769705218
 20
3.6209833494
 10
-20.2695609669
 20
3.6344466948
 10
-20.2632392625
 20
3.6490968072
 10
-20.2579862487
 20
3.6649068133
 10
-20.2538879652
 20
3.6815866986
 10
-20.2509730921
 20
3.6990397917
 10
-20.2492129493
 20
3.717362764
 10
-20.2486075369
 20
3.7365556155
  0
LINE
  5
3D2
100
AcDbEntity
  8
RACCORDO
100
AcDbLine
 62
253
  6
CONTINUOUS
 10
-20.4607395713
 20
7.133518167
 11
-28.2389141643
 21
11.0226054636
  0
LWPOLYLINE
  5
3D3
100
AcDbEntity
  8
RACCORDO
100
AcDbPolyline
 62
7
  6
CONTINUOUS
 90
25
 70
0
 10
-20.3220282081
 20
7.4192818693
 10
-20.29876251
 20
7.4066667882
 10
-20.2758331588
 20
7.3923642313
 10
-20.253240126
 20
7.3763742119
 10
-20.230889592
 20
7.3586138863
 10
-20.2088752626
 20
7.3391661512
 10
-20.1874783743
 20
7.3182796413
 10
-20.1667068481
 20
7.2959359037
 10
-20.1465525528
 20
7.2721534891
 10
-20.1272726406
 20
7.2472365405
 10
-20.1088782948
 20
7.221170568
 10
-20.0913580575
 20
7.1939701895
 10
-20.0749351362
 20
7.1659832011
 10
-20.0596236362
 20
7.1371998673
 10
-20.0454091551
 20
7.107630062
 10
-20.0324721825
 20
7.0776509759
 10
-20.0208289594
 20
7.0472575255
 10
-20.0104629706
 20
7.0164549223
 10
-20.0015056426
 20
6.9856357653
 10
-19.993974903
 20
6.9548001056
 10
-19.9878526147
 20
6.9239479902
 10
-19.9832162004
 20
6.8934719678
 10
-19.980091454
 20
6.8635028944
 10
-19.9784524809
 20
6.8339099612
 10
-19.9782992238
 20
6.8046931951
  0
LWPOLYLINE
  5
3D4
100
AcDbEntity
  8
RACCORDO
100
AcDbPolyline
 62
253
  6
CONTINUOUS
 90
9
 70
0
 10
-28.4510461987
 20
10.8688638596
 10
-28.4650540347
 20
10.8766424986
 10
-28.477358956
 20
10.8851106342
 10
-28.4878261473
 20
10.8941754878
 10
-28.4963409277
 20
10.9037377428
 10
-28.5028100077
 20
10.9136926332
 10
-28.5071625106
 20
10.9239310912
 10
-28.5093507494
 20
10.9343409421
 10
-28.5096248424
 20
10.9395745377
  0
LWPOLYLINE
  5
3D5
100
AcDbEntity
  8
RACCORDO
100
AcDbPolyline
 62
253
  6
CONTINUOUS
 90
43
 70
0
 10
-0.0278158331
 20
-32.1344194415
 10
-0.0263256195
 20
-32.1641537099
 10
-0.0239555328
 20
-32.1933106734
 10
-0.0207055729
 20
-32.2218903319
 10
-0.0165695531
 20
-32.2499277003
 10
-0.0115536601
 20
-32.2773877638
 10
-0.0056764549
 20
-32.3041654776
 10
0.0010652978
 20
-32.3302574252
 10
0.0086683627
 20
-32.3556670233
 10
0.0171044733
 20
-32.380299477
 10
0.0263766563
 20
-32.4041516092
 10
0.036481885
 20
-32.4272265971
 10
0.0473828118
 20
-32.4494391768
 10
0.0590823837
 20
-32.4707862095
 10
0.0715776536
 20
-32.491270834
 10
0.0848224336
 20
-32.5108172031
 10
0.0988195667
 20
-32.5294219077
 10
0.1135662098
 20
-32.547088357
 10
0.1290076452
 20
-32.5637509311
 10
0.1451464065
 20
-32.5794058409
 10
0.1619799602
 20
-32.5940568755
 10
0.1794459876
 20
-32.6076497827
 10
0.1975468258
 20
-32.6201806447
 10
0.2162801377
 20
-32.6316533793
 10
0.2355765935
 20
-32.6420254876
 10
0.2554383509
 20
-32.6512929096
 10
0.2758632523
 20
-32.6594597054
 10
0.2967754943
 20
-32.6664955562
 10
0.3181768173
 20
-32.6723962343
 10
0.3400654809
 20
-32.6771659675
 10
0.3623604614
 20
-32.6807871209
 10
0.385063215
 20
-32.6832554608
 10
0.4081722854
 20
-32.6845752209
 10
0.43160228
 20
-32.6847414668
 10
0.4553546653
 20
-32.6837498602
 10
0.4794279748
 20
-32.6816047394
 10
0.5037324167
 20
-32.6783141844
 10
0.5282699658
 20
-32.6738733992
 10
0.5530386473
 20
-32.6682871799
 10
0.5779427457
 20
-32.6615779944
 10
0.6029503557
 20
-32.6537533322
 10
0.6280933825
 20
-32.644805704
 10
0.6533718262
 20
-32.6347351096
  0
LWPOLYLINE
  5
3D6
100
AcDbEntity
  8
RACCORDO
100
AcDbPolyline
 62
253
  6
CONTINUOUS
 90
25
 70
0
 10
-0.728399307
 20
-32.1490192556
 10
-0.726184213
 20
-32.1935490751
 10
-0.7226457928
 20
-32.2373087278
 10
-0.717788466
 20
-32.2802441629
 10
-0.7116182563
 20
-32.3223018233
 10
-0.7041428453
 20
-32.3634303635
 10
-0.695371379
 20
-32.4035805761
 10
-0.6853142138
 20
-32.442703698
 10
-0.6739838123
 20
-32.4807504042
 10
-0.6613947637
 20
-32.5176725141
 10
-0.6475625887
 20
-32.5534240998
 10
-0.6325041405
 20
-32.587961443
 10
-0.6162383457
 20
-32.621241912
 10
-0.5987850027
 20
-32.6532245165
 10
-0.5801655163
 20
-32.6838697266
 10
-0.5604033553
 20
-32.7131394697
 10
-0.5395225347
 20
-32.7409977705
 10
-0.5175486814
 20
-32.7674101514
 10
-0.4945097409
 20
-32.7923434274
 10
-0.4704339172
 20
-32.8157668683
 10
-0.4453506238
 20
-32.8376517248
 10
-0.419291537
 20
-32.8579706134
 10
-0.3922884748
 20
-32.87669859
 10
-0.3643744901
 20
-32.8938126451
 10
-0.3350177268
 20
-32.909575294
  0
LINE
  5
3D7
100
AcDbEntity
  8
RACCORDO
100
AcDbLine
 62
7
  6
CONTINUOUS
 10
-2.0052525823
 20
21.4894373132
 11
-2.0052525823
 21
22.0609680905
  0
LINE
  5
3D8
100
AcDbEntity
  8
RACCORDO
100
AcDbLine
 62
253
  6
CONTINUOUS
 10
-0.8031710543
 20
22.0647799768
 11
-0.8031710543
 21
22.2812457106
  0
LINE
  5
3D9
100
AcDbEntity
  8
DRAFT
100
AcDbLine
 62
7
  6
CONTINUOUS
 10
-0.0780688646
 20
18.9289915708
 11
-0.0780688646
 21
17.90828541
  0
LINE
  5
3DA
100
AcDbEntity
  8
DRAFT
100
AcDbLine
 62
253
  6
CONTINUOUS
 10
0.1160677613
 20
14.2519911202
 11
0.1160677613
 21
14.7608822474
  0
LWPOLYLINE
  5
3DB
100
AcDbEntity
  8
RACCORDO
100
AcDbPolyline
 62
253
  6
CONTINUOUS
 90
22
 70
0
 10
-0.728399307
 20
3.466220612
 10
-0.7835979574
 20
1.7444278717
 10
-0.8332791349
 20
0.0250519971
 10
-0.8774420902
 20
-1.6918806149
 10
-0.9160861661
 20
-3.4063435976
 10
-0.9492107711
 20
-5.118310639
 10
-0.9768153798
 20
-6.8277554825
 10
-0.9988995715
 20
-8.534651891
 10
-1.0154630176
 20
-10.2389736583
 10
-1.0265054551
 20
-11.9406946344
 10
-1.0320267133
 20
-13.6397886974
 10
-1.0320267133
 20
-15.3362297685
 10
-1.0265054551
 20
-17.0299918236
 10
-1.0154630176
 20
-18.7210488711
 10
-0.9988995715
 20
-20.4093749516
 10
-0.9768153798
 20
-22.0949441517
 10
-0.9492107711
 20
-23.7777306026
 10
-0.9160861661
 20
-25.4577084791
 10
-0.8774420902
 20
-27.1348519978
 10
-0.8332791348
 20
-28.8091354207
 10
-0.7835979574
 20
-30.4805330559
 10
-0.728399307
 20
-32.1490192556
  0
LWPOLYLINE
  5
3DC
100
AcDbEntity
  8
RACCORDO
100
AcDbPolyline
 62
253
  6
CONTINUOUS
 90
22
 70
0
 10
-0.0278158331
 20
3.4452051863
 10
-0.0829613277
 20
1.7250913023
 10
-0.132593418
 20
0.0074443508
 10
-0.1767121042
 20
-1.7077356684
 10
-0.2153178954
 20
-3.4204750503
 10
-0.2484102825
 20
-5.1307474997
 10
-0.2759877375
 20
-6.8384741318
 10
-0.2980500051
 20
-8.5436547827
 10
-0.3145973407
 20
-10.2462896161
 10
-0.3256289826
 20
-11.9463002388
 10
-0.3311446769
 20
-13.6436865268
 10
-0.3311446775
 20
-15.338448604
 10
-0.3256289844
 20
-17.0305084486
 10
-0.3145973438
 20
-18.7198659394
 10
-0.2980500095
 20
-20.4065211975
 10
-0.2759877432
 20
-22.0903965651
 10
-0.2484102899
 20
-23.7714919453
 10
-0.2153179045
 20
-25.449807435
 10
-0.1767121134
 20
-27.1252656662
 10
-0.1325934256
 20
-28.7978408497
 10
-0.0829613322
 20
-30.4675587748
 10
-0.0278158331
 20
-32.1344194415
  0
LWPOLYLINE
  5
3DD
100
AcDbEntity
  8
RACCORDO
100
AcDbPolyline
 62
253
  6
CONTINUOUS
 90
12
 70
0
 10
0.4909795477
 20
27.921039018
 10
0.4922397461
 20
27.950868052
 10
0.5035695394
 20
28.0268881082
 10
0.5265250387
 20
28.1022147352
 10
0.5610092933
 20
28.1764105401
 10
0.6068931149
 20
28.2491276348
 10
0.6639786954
 20
28.3199447129
 10
0.7319909724
 20
28.3884334408
 10
0.8106180022
 20
28.4542413991
 10
0.8994789065
 20
28.5169856006
 10
0.9981158299
 20
28.5762572262
 10
1.1060172549
 20
28.6316836686
  0
LINE
  5
3DE
100
AcDbEntity
  8
RACCORDO
100
AcDbLine
 62
253
  6
CONTINUOUS
 10
5.8082773498
 20
9.082749679
 11
6.3365445216
 21
9.7257018348
  0
LINE
  5
3DF
100
AcDbEntity
  8
RACCORDO
100
AcDbLine
 62
7
  6
CONTINUOUS
 10
5.8082773498
 20
8.9932192127
 11
6.3519050939
 21
9.6548666682
  0
LWPOLYLINE
  5
3E0
100
AcDbEntity
  8
RACCORDO
100
AcDbPolyline
 62
7
  6
CONTINUOUS
 90
30
 70
0
 10
4.9182171671
 20
8.518595071
 10
4.9103380441
 20
8.5094606678
 10
4.902117795
 20
8.5004632268
 10
4.8935599338
 20
8.4916242402
 10
4.8846615033
 20
8.4829677104
 10
4.8754350683
 20
8.4745130311
 10
4.865908494
 20
8.4662751384
 10
4.8560883057
 20
8.4582763848
 10
4.8459824074
 20
8.450538508
 10
4.8356216245
 20
8.4430759682
 10
4.8250151032
 20
8.4359111903
 10
4.8141731918
 20
8.429065885
 10
4.8031294147
 20
8.4225539134
 10
4.7918955663
 20
8.4163973943
 10
4.7804846155
 20
8.4106177304
 10
4.768932795
 20
8.4052282069
 10
4.7572546631
 20
8.4002502492
 10
4.7454659316
 20
8.3957045519
 10
4.7336056176
 20
8.3916037668
 10
4.72169117
 20
8.3879681413
 10
4.7097411566
 20
8.3848171562
 10
4.6977974791
 20
8.38216262
 10
4.6858806294
 20
8.3800229876
 10
4.6740120622
 20
8.3784158501
 10
4.6622364836
 20
8.3773516893
 10
4.6505776631
 20
8.376846384
 10
4.639059726
 20
8.3769147501
 10
4.6277293733
 20
8.3775651485
 10
4.6166241109
 20
8.3788085413
 10
4.6057597591
 20
8.3806560367
  0
LWPOLYLINE
  5
3E1
100
AcDbEntity
  8
RACCORDO
100
AcDbPolyline
 62
7
  6
CONTINUOUS
 90
4
 70
0
 10
13.8445843387
 20
14.9003567414
 10
13.8346133262
 20
14.8919149612
 10
13.8191249457
 20
14.8809073889
 10
13.797997405
 20
14.8682280492
  0
LWPOLYLINE
  5
3E2
100
AcDbEntity
  8
RACCORDO
100
AcDbPolyline
 62
7
  6
CONTINUOUS
 90
3
 70
0
 10
25.6024869988
 20
16.8368498162
 10
25.5090677502
 20
16.777445092
 10
25.4064551454
 20
16.7217647701
  0
LINE
  5
3E3
100
AcDbEntity
  8
RACCORDO
100
AcDbLine
 62
253
  6
CONTINUOUS
 10
28.2969532375
 20
16.8334883315
 11
6.8689375216
 21
5.9319256088
  0
LINE
  5
3E4
100
AcDbEntity
  8
RACCORDO
100
AcDbLine
 62
253
  6
CONTINUOUS
 10
31.1978093529
 20
16.6669731824
 11
6.8689375216
 21
4.2895918253
  0
LWPOLYLINE
  5
3E5
100
AcDbEntity
  8
RACCORDO
100
AcDbPolyline
 62
253
  6
CONTINUOUS
 90
3
 70
0
 10
30.9938873841
 20
18.0889661081
 10
30.8915674649
 20
18.038493167
 10
30.8331029085
 20
18.0107366627
  0
LINE
  5
3E6
100
AcDbEntity
  8
RACCORDO
100
AcDbLine
 62
253
  6
CONTINUOUS
 10
13.2474277323
 20
9.52319505
 11
28.2969532375
 21
16.8334883315
  0
LINE
  5
3E7
100
AcDbEntity
  8
RACCORDO
100
AcDbLine
 62
253
  6
CONTINUOUS
 10
-15.9929114502
 20
-6.3904036663
 11
-16.6016766486
 21
-6.6843425255
  0
LINE
  5
3E8
100
AcDbEntity
  8
RACCORDO
100
AcDbLine
 62
253
  6
CONTINUOUS
 10
-15.9929110935
 20
-6.7026249339
 11
-16.2506769595
 21
-6.8270857355
  0
LINE
  5
3E9
100
AcDbEntity
  8
RACCORDO
100
AcDbLine
 62
253
  6
CONTINUOUS
 10
-16.2284092052
 20
-6.1398394451
 11
-15.9928262266
 21
-6.0285642839
  0
LINE
  5
3EA
100
AcDbEntity
  8
RACCORDO
100
AcDbLine
 62
7
  6
CONTINUOUS
 10
-16.3629138807
 20
-6.3288181525
 11
-15.9929117203
 21
-6.1540514936
  0
LWPOLYLINE
  5
3EB
100
AcDbEntity
  8
RACCORDO
100
AcDbPolyline
 62
253
  6
CONTINUOUS
 90
16
 70
0
 10
-16.2284267078
 20
-6.13983455
 10
-16.2674503693
 20
-6.1565873423
 10
-16.3097776555
 20
-6.1712720378
 10
-16.3549550365
 20
-6.1837250812
 10
-16.4024984355
 20
-6.1938064699
 10
-16.4518984168
 20
-6.2014013171
 10
-16.5026256435
 20
-6.2064211469
 10
-16.5541365486
 20
-6.2088049043
 10
-16.6058791604
 20
-6.2085196837
 10
-16.6572990176
 20
-6.2055611531
 10
-16.7078451087
 20
-6.1999536778
 10
-16.756975777
 20
-6.1917500742
 10
-16.8041645261
 20
-6.1810311264
 10
-16.8489056611
 20
-6.1679048576
 10
-16.8907197086
 20
-6.1525054267
 10
-16.929158555
 20
-6.1349917028
  0
LWPOLYLINE
  5
3EC
100
AcDbEntity
  8
RACCORDO
100
AcDbPolyline
 62
7
  6
CONTINUOUS
 90
5
 70
0
 10
-16.8179496561
 20
-6.7849709385
 10
-16.7378318843
 20
-6.7622372622
 10
-16.6946218999
 20
-6.7505041853
 10
-16.6493808775
 20
-6.7398274346
 10
-16.6023707544
 20
-6.7311620224
  0
LWPOLYLINE
  5
3ED
100
AcDbEntity
  8
RACCORDO
100
AcDbPolyline
 62
7
  6
CONTINUOUS
 90
5
 70
0
 10
-16.9515595496
 20
-6.8241314512
 10
-16.9214507684
 20
-6.8160322471
 10
-16.889210497
 20
-6.8064999467
 10
-16.8547449605
 20
-6.7958997964
 10
-16.8179496561
 20
-6.7849709385
  0
LWPOLYLINE
  5
3EE
100
AcDbEntity
  8
RACCORDO
100
AcDbPolyline
 62
253
  6
CONTINUOUS
 90
16
 70
0
 10
-20.2486075369
 20
6.7676445287
 10
-20.2330504464
 20
6.7606406884
 10
-20.2161143595
 20
6.7544882741
 10
-20.1979848209
 20
6.7492546967
 10
-20.1788604512
 20
6.7449973005
 10
-20.1589507746
 20
6.7417627358
 10
-20.1384739239
 20
6.7395864471
 10
-20.1176542433
 20
6.7384922834
 10
-20.0967198372
 20
6.7384922383
 10
-20.075900075
 20
6.7395863172
 10
-20.0554230636
 20
6.7417625377
 10
-20.0355131578
 20
6.7449970606
 10
-20.0163885087
 20
6.7492544495
 10
-19.9982586574
 20
6.7544880606
 10
-19.981322241
 20
6.7606405557
 10
-19.9792261509
 20
6.7615842186
  0
LWPOLYLINE
  5
3EF
100
AcDbEntity
  8
RACCORDO
100
AcDbPolyline
 62
253
  6
CONTINUOUS
 90
22
 70
0
 10
-28.2389141643
 20
11.0226054636
 10
-28.2548477145
 20
11.0298279891
 10
-28.2705392436
 20
11.035514644
 10
-28.2859887518
 20
11.0396654284
 10
-28.3012858524
 20
11.0422901846
 10
-28.316340932
 20
11.0433790701
 10
-28.3308851505
 20
11.0429025584
 10
-28.3449060479
 20
11.0408299683
 10
-28.3584160842
 20
11.037191981
 10
-28.3711837988
 20
11.032051113
 10
-28.3831929879
 20
11.0253836721
 10
-28.3944598553
 20
11.0172133506
 10
-28.404801552
 20
11.0076737413
 10
-28.4142049682
 20
10.9967395773
 10
-28.4226832138
 20
10.9844361257
 10
-28.4300927687
 20
10.9709727803
 10
-28.4364144731
 20
10.9563226679
 10
-28.4416674869
 20
10.9405126618
 10
-28.4457657703
 20
10.9238327765
 10
-28.4486806435
 20
10.9063796834
 10
-28.4504407863
 20
10.8880567111
 10
-28.4510461987
 20
10.8688638596
  0
LINE
  5
3F0
100
AcDbEntity
  8
RACCORDO
100
AcDbLine
 62
253
  6
CONTINUOUS
 10
-28.0974928081
 20
11.2665212224
 11
-28.1239216437
 21
11.2785241368
  0
LINE
  5
3F1
100
AcDbEntity
  8
RACCORDO
100
AcDbLine
 62
253
  6
CONTINUOUS
 10
-20.319318215
 20
7.3774339259
 11
-28.0974928081
 21
11.2665212224
  0
LINE
  5
3F2
100
AcDbEntity
  8
RACCORDO
100
AcDbLine
 62
7
  6
CONTINUOUS
 10
-28.1003994616
 20
11.3084674961
 11
-20.3220282081
 21
7.4192818693
  0
LWPOLYLINE
  5
3F3
100
AcDbEntity
  8
RACCORDO
100
AcDbPolyline
 62
253
  6
CONTINUOUS
 90
34
 70
0
 10
0.6533718262
 20
4.6033361305
 10
0.6520838679
 20
4.6236708217
 10
0.6500129264
 20
4.6443664123
 10
0.6471636876
 20
4.6653760748
 10
0.6435425984
 20
4.686652271
 10
0.6391578521
 20
4.7081468593
 10
0.6340193701
 20
4.7298112044
 10
0.6281387791
 20
4.7515962866
 10
0.621529385
 20
4.7734528129
 10
0.6142061427
 20
4.7953313291
 10
0.6061856224
 20
4.8171823307
 10
0.5974859721
 20
4.8389563758
 10
0.5881268763
 20
4.8606041966
 10
0.5781295116
 20
4.8820768106
 10
0.567516499
 20
4.9033256322
 10
0.5563118524
 20
4.9243025817
 10
0.5445409244
 20
4.944960195
 10
0.5322303489
 20
4.9652517302
 10
0.519407981
 20
4.9851312739
 10
0.5061028335
 20
5.0045538448
 10
0.4923450119
 20
5.0234754956
 10
0.4781656459
 20
5.0418534127
 10
0.4635968189
 20
5.0596460123
 10
0.4486714957
 20
5.0768130354
 10
0.4334234476
 20
5.0933156382
 10
0.4178871763
 20
5.1091164806
 10
0.4020978354
 20
5.12417981
 10
0.3860911514
 20
5.1384715428
 10
0.3699033425
 20
5.1519593413
 10
0.3535710365
 20
5.1646126867
 10
0.3371311884
 20
5.1764029484
 10
0.3206209967
 20
5.1873034487
 10
0.3040778186
 20
5.1972895231
 10
0.2875390862
 20
5.2063385763
  0
LWPOLYLINE
  5
3F4
100
AcDbEntity
  8
ASSI
100
AcDbPolyline
 62
7
  6
CONTINUOUS
 90
6
 70
0
 10
1.2822996434
 20
17.0672609285
 10
1.2822466491
 20
17.0685014409
 10
1.2814492941
 20
17.0719418645
 10
1.2797362065
 20
17.0747684983
 10
1.2771513512
 20
17.0770315067
 10
1.2754879012
 20
17.0779881911
  0
LWPOLYLINE
  5
3F5
100
AcDbEntity
  8
RACCORDO
100
AcDbPolyline
 62
7
  6
CONTINUOUS
 90
20
 70
0
 10
2.4562666148
 20
-32.2210860682
 10
2.4566720822
 20
-32.235318684
 10
2.4578952662
 20
-32.2495759247
 10
2.4599428534
 20
-32.2638014587
 10
2.4628168512
 20
-32.2779386188
 10
2.4665141565
 20
-32.2919292658
 10
2.4710265968
 20
-32.3057154599
 10
2.4763405998
 20
-32.3192391505
 10
2.4824397746
 20
-32.3324482949
 10
2.4893071531
 20
-32.3452979515
 10
2.4969202349
 20
-32.3577392539
 10
2.5052512879
 20
-32.3697226662
 10
2.5142747028
 20
-32.381208227
 10
2.523964866
 20
-32.3921593633
 10
2.5342846556
 20
-32.4025308413
 10
2.5451917243
 20
-32.4122793726
 10
2.5566604348
 20
-32.421380828
 10
2.5686484642
 20
-32.4297993755
 10
2.5810892835
 20
-32.43748994
 10
2.594470318
 20
-32.4446964167
  0
LWPOLYLINE
  5
3F6
100
AcDbEntity
  8
RACCORDO
100
AcDbPolyline
 62
253
  6
CONTINUOUS
 90
18
 70
0
 10
2.5294899195
 20
-32.3094744159
 10
2.5297292744
 20
-32.3206175611
 10
2.5304472796
 20
-32.3314977816
 10
2.5316428697
 20
-32.3420850524
 10
2.5333140672
 20
-32.3523521224
 10
2.5354570021
 20
-32.3622682384
 10
2.5380649576
 20
-32.3717999869
 10
2.5411301296
 20
-32.3809195157
 10
2.5446446839
 20
-32.3896040868
 10
2.5485991651
 20
-32.3978302775
 10
2.5529829289
 20
-32.4055758016
 10
2.5577840086
 20
-32.4128193858
 10
2.562989214
 20
-32.4195410911
 10
2.568584303
 20
-32.4257225537
 10
2.5745541059
 20
-32.4313470404
 10
2.5808824279
 20
-32.436399289
 10
2.5875520789
 20
-32.4408655555
 10
2.5944631917
 20
-32.4446928539
  0
LWPOLYLINE
  5
3F7
100
AcDbEntity
  8
RACCORDO
100
AcDbPolyline
 62
253
  6
CONTINUOUS
 90
18
 70
0
 10
3.8544745993
 20
-32.9719667558
 10
3.8547139542
 20
-32.983109901
 10
3.8554319595
 20
-32.9939901215
 10
3.8566275496
 20
-33.0045773923
 10
3.858298747
 20
-33.0148444623
 10
3.8604416819
 20
-33.0247605783
 10
3.8630496374
 20
-33.0342923268
 10
3.8661148094
 20
-33.0434118556
 10
3.8696293637
 20
-33.0520964267
 10
3.873583845
 20
-33.0603226175
 10
3.8779676088
 20
-33.0680681415
 10
3.8827686884
 20
-33.0753117257
 10
3.8879738939
 20
-33.082033431
 10
3.8935689828
 20
-33.0882148936
 10
3.8995387858
 20
-33.0938393803
 10
3.9058671077
 20
-33.0988916289
 10
3.9125367588
 20
-33.1033578954
 10
3.9194478715
 20
-33.1071851938
  0
LWPOLYLINE
  5
3F8
100
AcDbEntity
  8
RACCORDO
100
AcDbPolyline
 62
253
  6
CONTINUOUS
 90
19
 70
0
 10
2.5294899195
 20
9.3301036576
 10
2.5297097742
 20
9.3194190011
 10
2.5303687914
 20
9.3089807746
 10
2.5314653322
 20
9.2988149422
 10
2.5329966631
 20
9.2889468236
 10
2.5349589784
 20
9.279400929
 10
2.5373474242
 20
9.2702009085
 10
2.5401560943
 20
9.2613695966
 10
2.5433779998
 20
9.2529290396
 10
2.5470050974
 20
9.2449003312
 10
2.551028377
 20
9.2373034204
 10
2.5554378196
 20
9.2301572295
 10
2.5602223561
 20
9.2234796642
 10
2.5653699896
 20
9.2172873869
 10
2.5708679575
 20
9.2115956745
 10
2.5767026912
 20
9.2064185483
 10
2.5828609077
 20
9.2017680332
 10
2.5893261819
 20
9.1976567596
 10
2.5944643666
 20
9.1948846322
  0
LINE
  5
3F9
100
AcDbEntity
  8
RACCORDO
100
AcDbLine
 62
253
  6
CONTINUOUS
 10
0.3261368988
 20
10.1962208466
 11
0.3261368988
 21
11.2768041574
  0
LINE
  5
3FA
100
AcDbEntity
  8
DRAFT
100
AcDbLine
 62
7
  6
CONTINUOUS
 10
0.8231745425
 20
15.114435638
 11
0.8231745425
 21
15.6669938273
  0
LINE
  5
3FB
100
AcDbEntity
  8
RACCORDO
100
AcDbLine
 62
253
  6
CONTINUOUS
 10
1.0311808181
 20
10.2177566099
 11
1.0311808181
 21
11.4504835822
  0
LINE
  5
3FC
100
AcDbEntity
  8
ASSI
100
AcDbLine
 62
253
  6
CONTINUOUS
 10
1.1569501651
 20
17.0576647795
 11
1.1569501651
 21
15.8303141825
  0
LINE
  5
3FD
100
AcDbEntity
  8
RACCORDO
100
AcDbLine
 62
253
  6
CONTINUOUS
 10
1.1756462732
 20
27.278442789
 11
1.1756462732
 21
27.6686765087
  0
LINE
  5
3FE
100
AcDbEntity
  8
DRAFT
100
AcDbLine
 62
7
  6
CONTINUOUS
 10
1.176727933
 20
14.9376589427
 11
1.176727933
 21
15.490217132
  0
LINE
  5
3FF
100
AcDbEntity
  8
ASSI
100
AcDbLine
 62
7
  6
CONTINUOUS
 10
1.2822996723
 20
17.066984602
 11
1.2822996723
 21
15.9793423409
  0
LINE
  5
400
100
AcDbEntity
  8
DRAFT
100
AcDbLine
 62
7
  6
CONTINUOUS
 10
1.3888599674
 20
11.629788127
 11
1.3888599674
 21
10.4173525617
  0
LINE
  5
401
100
AcDbEntity
  8
DRAFT
100
AcDbLine
 62
253
  6
CONTINUOUS
 10
1.5302813236
 20
14.1820310904
 11
1.5302813236
 21
14.7608822474
  0
LINE
  5
402
100
AcDbEntity
  8
RACCORDO
100
AcDbLine
 62
7
  6
CONTINUOUS
 10
2.4562666148
 20
9.7584659394
 11
2.4562666148
 21
9.4184920053
  0
LINE
  5
403
100
AcDbEntity
  8
RACCORDO
100
AcDbLine
 62
7
  6
CONTINUOUS
 10
2.4562666148
 20
-32.0945867726
 11
2.4562666148
 21
-32.2210860682
  0
LINE
  5
404
100
AcDbEntity
  8
RACCORDO
100
AcDbLine
 62
253
  6
CONTINUOUS
 10
2.5294899195
 20
9.6700775917
 11
2.5294899195
 21
9.3301036576
  0
LINE
  5
405
100
AcDbEntity
  8
RACCORDO
100
AcDbLine
 62
253
  6
CONTINUOUS
 10
2.5294899195
 20
-32.0638506035
 11
2.5294899195
 21
-32.3094744159
  0
LINE
  5
406
100
AcDbEntity
  8
RACCORDO
100
AcDbLine
 62
7
  6
CONTINUOUS
 10
3.1592595691
 20
8.458514838
 11
3.1592595691
 21
8.9124870309
  0
LINE
  5
407
100
AcDbEntity
  8
RACCORDO
100
AcDbLine
 62
253
  6
CONTINUOUS
 10
0.4909414972
 20
27.9148318177
 11
0.4909795477
 21
27.921039018
  0
LWPOLYLINE
  5
408
100
AcDbEntity
  8
RACCORDO
100
AcDbPolyline
 62
253
  6
CONTINUOUS
 90
31
 70
0
 10
2.5294899195
 20
9.6700775917
 10
2.5297292744
 20
9.6814600919
 10
2.5304472796
 20
9.6930583176
 10
2.5316428697
 20
9.7048411785
 10
2.5333140672
 20
9.7167794459
 10
2.5354570021
 20
9.7288384969
 10
2.5380649576
 20
9.7409782008
 10
2.5411301296
 20
9.7531629016
 10
2.5446446839
 20
9.765362027
 10
2.5485991651
 20
9.777542699
 10
2.5529829289
 20
9.7896719869
 10
2.5577840086
 20
9.8017166507
 10
2.562989214
 20
9.8136435615
 10
2.568584303
 20
9.825420113
 10
2.5745541059
 20
9.8370144027
 10
2.5808824279
 20
9.8483949732
 10
2.5875520789
 20
9.8595308908
 10
2.5945448864
 20
9.8703917943
 10
2.6018417952
 20
9.8809480789
 10
2.6094229376
 20
9.8911709991
 10
2.6172676889
 20
9.9010327395
 10
2.6253546951
 20
9.9105064519
 10
2.6336619473
 20
9.9195663498
 10
2.6421668341
 20
9.9281877694
 10
2.6508461991
 20
9.936347235
 10
2.6596764251
 20
9.9440225415
 10
2.6686334714
 20
9.9511927906
 10
2.6776929306
 20
9.957838445
 10
2.6868301342
 20
9.9639414137
 10
2.6960202205
 20
9.969485096
 10
2.7052381755
 20
9.9744544067
  0
LWPOLYLINE
  5
409
100
AcDbEntity
  8
RACCORDO
100
AcDbPolyline
 62
7
  6
CONTINUOUS
 90
20
 70
0
 10
2.4562666148
 20
9.7584659394
 10
2.4566704869
 20
9.7726705513
 10
2.4578890985
 20
9.7869019753
 10
2.459929486
 20
9.801104173
 10
2.4627942374
 20
9.815221568
 10
2.4664805597
 20
9.8291953372
 10
2.4709798521
 20
9.8429652844
 10
2.4762784455
 20
9.8564732958
 10
2.4823601871
 20
9.8696680596
 10
2.4892076685
 20
9.8825038925
 10
2.496798339
 20
9.8949322038
 10
2.5051047255
 20
9.9069041226
 10
2.5141011334
 20
9.918379753
 10
2.5237624417
 20
9.9293232679
 10
2.5340517142
 20
9.9396896353
 10
2.5449259851
 20
9.94943505
 10
2.5563601487
 20
9.9585360554
 10
2.5683123048
 20
9.9669572062
 10
2.5807149363
 20
9.9746528401
 10
2.5921596673
 20
9.9809060536
  0
LWPOLYLINE
  5
40A
100
AcDbEntity
  8
RACCORDO
100
AcDbPolyline
 62
253
  6
CONTINUOUS
 90
12
 70
0
 10
4.0265134536
 20
26.1532720651
 10
4.027773652
 20
26.183101099
 10
4.0391034454
 20
26.2591211553
 10
4.0620589447
 20
26.3344477823
 10
4.0965431992
 20
26.4086435871
 10
4.1424270208
 20
26.4813606819
 10
4.1995126013
 20
26.55217776
 10
4.2675248783
 20
26.6206664878
 10
4.3461519081
 20
26.6864744461
 10
4.4350128124
 20
26.7492186476
 10
4.5336497358
 20
26.8084902732
 10
4.6415511609
 20
26.8639167156
  0
LWPOLYLINE
  5
40B
100
AcDbEntity
  8
RACCORDO
100
AcDbPolyline
 62
253
  6
CONTINUOUS
 90
21
 70
0
 10
0.6533718262
 20
-32.6347351096
 10
0.6520838675
 20
-32.6555271957
 10
0.6500129254
 20
-32.6758653254
 10
0.6471636857
 20
-32.6957034797
 10
0.6435425953
 20
-32.7149967711
 10
0.6391578477
 20
-32.733701545
 10
0.6340193642
 20
-32.7517754782
 10
0.6281387715
 20
-32.769177675
 10
0.6215293757
 20
-32.7858687598
 10
0.6142061317
 20
-32.8018109657
 10
0.6061856097
 20
-32.8169682206
 10
0.5974859578
 20
-32.8313062283
 10
0.5881268604
 20
-32.8447925463
 10
0.5781294943
 20
-32.8573966594
 10
0.5675164804
 20
-32.8690900482
 10
0.5563118327
 20
-32.8798462544
 10
0.5445409038
 20
-32.88964094
 10
0.5322303277
 20
-32.8984519427
 10
0.5194079593
 20
-32.9062593259
 10
0.5061028116
 20
-32.913045424
 10
0.4995645808
 20
-32.915930808
  0
LWPOLYLINE
  5
40C
100
AcDbEntity
  8
RACCORDO
100
AcDbPolyline
 62
7
  6
CONTINUOUS
 90
8
 70
0
 10
4.6908881254
 20
27.8702426829
 10
4.6866772762
 20
27.8152151814
 10
4.6705507581
 20
27.7571422203
 10
4.6422301016
 20
27.6978776302
 10
4.6002708437
 20
27.6356895447
 10
4.5432965089
 20
27.5708989172
 10
4.4722949357
 20
27.5060937073
 10
4.3892835632
 20
27.443451534
  0
LWPOLYLINE
  5
40D
100
AcDbEntity
  8
RACCORDO
100
AcDbPolyline
 62
253
  6
CONTINUOUS
 90
27
 70
0
 10
4.206996559
 20
8.6670985939
 10
4.2021125418
 20
8.6551299356
 10
4.1967619384
 20
8.6434367316
 10
4.1909593601
 20
8.6320509133
 10
4.1847206524
 20
8.6210035731
 10
4.1780628521
 20
8.610324879
 10
4.1710041401
 20
8.6000439922
 10
4.1635637924
 20
8.5901889877
 10
4.1557621269
 20
8.5807867774
 10
4.1476204485
 20
8.5718630369
 10
4.1391609902
 20
8.563442135
 10
4.1304068531
 20
8.5555470673
 10
4.121381943
 20
8.5481993938
 10
4.1121109049
 20
8.5414191793
 10
4.1026190562
 20
8.5352249391
 10
4.0929323171
 20
8.5296335885
 10
4.08307714
 20
8.5246603963
 10
4.0730804373
 20
8.5203189432
 10
4.0629695081
 20
8.5166210848
 10
4.052771963
 20
8.5135769192
 10
4.0425156495
 20
8.5111947594
 10
4.0322285754
 20
8.5094811105
 10
4.0219388325
 20
8.5084406522
 10
4.01167452
 20
8.5080762257
 10
4.0014636676
 20
8.5083888263
 10
3.991334159
 20
8.5093776001
 10
3.9813136557
 20
8.5110398473
  0
LWPOLYLINE
  5
40E
100
AcDbEntity
  8
RACCORDO
100
AcDbPolyline
 62
7
  6
CONTINUOUS
 90
4
 70
0
 10
-31.9252787471
 20
0.9558340813
 10
-31.9120353217
 20
0.9568635329
 10
-31.8988478733
 20
0.9574791205
 10
-31.8857318646
 20
0.9576850825
  0
LINE
  5
40F
100
AcDbEntity
  8
RACCORDO
100
AcDbLine
 62
253
  6
CONTINUOUS
 10
-28.1239216437
 20
11.2785241368
 11
-28.1501997339
 21
11.2880359784
  0
LINE
  5
410
100
AcDbEntity
  8
RACCORDO
100
AcDbLine
 62
253
  6
CONTINUOUS
 10
-16.6272514397
 20
11.3514103719
 11
-31.4783821966
 21
18.7769757503
  0
LINE
  5
411
100
AcDbEntity
  8
RACCORDO
100
AcDbLine
 62
253
  6
CONTINUOUS
 10
-15.5532453846
 20
10.8786436508
 11
-0.728399307
 21
3.466220612
  0
LWPOLYLINE
  5
412
100
AcDbEntity
  8
RACCORDO
100
AcDbPolyline
 62
253
  6
CONTINUOUS
 90
9
 70
0
 10
-31.4783821963
 20
18.7769757504
 10
-31.5130383611
 20
18.796068186
 10
-31.5435382334
 20
18.8166584058
 10
-31.5695550221
 20
18.8385257958
 10
-31.5908099701
 20
18.8614360575
 10
-31.6070753411
 20
18.8851437188
 10
-31.6181768597
 20
18.9093947637
 10
-31.6239955784
 20
18.9339293542
 10
-31.6248670843
 20
18.9519409406
  0
LWPOLYLINE
  5
413
100
AcDbEntity
  8
RACCORDO
100
AcDbPolyline
 62
253
  6
CONTINUOUS
 90
8
 70
0
 10
-26.6708745383
 20
23.8282931779
 10
-26.6850297849
 20
23.8396441586
 10
-26.6973515084
 20
23.8538433376
 10
-26.7076462656
 20
23.8706799847
 10
-26.7157386036
 20
23.8898235422
 10
-26.7215434963
 20
23.910944491
 10
-26.725031962
 20
23.9337605551
 10
-26.7261921575
 20
23.9579446961
  0
LWPOLYLINE
  5
414
100
AcDbEntity
  8
RACCORDO
100
AcDbPolyline
 62
253
  6
CONTINUOUS
 90
14
 70
0
 10
-7.0277736429
 20
16.407860917
 10
-7.0234259522
 20
16.4005078195
 10
-7.019575706
 20
16.3934147799
 10
-7.0162334191
 20
16.3866011691
 10
-7.0134082214
 20
16.3800856001
 10
-7.0111078255
 20
16.3738858608
 10
-7.0093385098
 20
16.3680188687
 10
-7.0081051085
 20
16.3625006385
 10
-7.0074109978
 20
16.3573462549
 10
-7.0072580768
 20
16.3525698124
 10
-7.0076467608
 20
16.3481843603
 10
-7.0085759861
 20
16.3442018672
 10
-7.0100432153
 20
16.3406332052
 10
-7.0120126131
 20
16.3375381408
  0
LWPOLYLINE
  5
415
100
AcDbEntity
  8
RACCORDO
100
AcDbPolyline
 62
253
  6
CONTINUOUS
 90
31
 70
0
 10
4.206996559
 20
9.007072528
 10
4.2067015821
 20
9.0184982357
 10
4.2059257289
 20
9.0301362888
 10
4.2046711258
 20
9.0419547896
 10
4.2029412115
 20
9.0539213459
 10
4.2007407273
 20
9.0660031595
 10
4.1980757044
 20
9.0781671165
 10
4.1949534471
 20
9.0903798777
 10
4.1913825129
 20
9.1026079702
 10
4.1873726891
 20
9.1148178792
 10
4.1829349658
 20
9.1269761395
 10
4.1780815061
 20
9.1390494277
 10
4.1728256122
 20
9.1510046531
 10
4.1671816898
 20
9.1628090487
 10
4.1611652076
 20
9.1744302609
 10
4.1547926557
 20
9.1858364381
 10
4.1480815002
 20
9.1969963182
 10
4.141050135
 20
9.2078793139
 10
4.1337178317
 20
9.218455597
 10
4.1261046869
 20
9.22869618
 10
4.1182315668
 20
9.2385729952
 10
4.11012005
 20
9.2480589723
 10
4.1017923688
 20
9.2571281119
 10
4.0932713477
 20
9.2657555572
 10
4.0845803413
 20
9.273917662
 10
4.07574317
 20
9.2815920555
 10
4.0667840548
 20
9.2887577037
 10
4.0577275509
 20
9.2953949668
 10
4.0485984806
 20
9.3014856533
 10
4.039421865
 20
9.3070130698
 10
4.0302228553
 20
9.3119620668
  0
LWPOLYLINE
  5
416
100
AcDbEntity
  8
RACCORDO
100
AcDbPolyline
 62
7
  6
CONTINUOUS
 90
23
 70
0
 10
6.4087423786
 20
-31.4860296724
 10
6.4084239706
 20
-31.4734161201
 10
6.4074653539
 20
-31.460793172
 10
6.4058635796
 20
-31.4481996318
 10
6.4036194197
 20
-31.4356785584
 10
6.4007353797
 20
-31.4232651333
 10
6.3972135555
 20
-31.4109863664
 10
6.3930601903
 20
-31.3988794396
 10
6.3882853354
 20
-31.3869840723
 10
6.3828975406
 20
-31.3753297928
 10
6.37690918
 20
-31.363950818
 10
6.3703371388
 20
-31.3528844232
 10
6.363197705
 20
-31.3421616097
 10
6.355507912
 20
-31.3318112403
 10
6.3472905922
 20
-31.3218664271
 10
6.3385715585
 20
-31.3123591048
 10
6.3293703424
 20
-31.303311042
 10
6.3197138929
 20
-31.2947493244
 10
6.3096394911
 20
-31.2867056613
 10
6.2991669413
 20
-31.2791941287
 10
6.2883242513
 20
-31.27223412
 10
6.2771605015
 20
-31.2658544055
 10
6.2705394515
 20
-31.262419712
  0
LWPOLYLINE
  5
417
100
AcDbEntity
  8
RACCORDO
100
AcDbPolyline
 62
253
  6
CONTINUOUS
 90
19
 70
0
 10
3.8544745993
 20
8.6676113177
 10
3.854694454
 20
8.6569266612
 10
3.8553534713
 20
8.6464884347
 10
3.856450012
 20
8.6363226023
 10
3.8579813429
 20
8.6264544837
 10
3.8599436582
 20
8.616908589
 10
3.862332104
 20
8.6077085686
 10
3.8651407741
 20
8.5988772567
 10
3.8683626796
 20
8.5904366996
 10
3.8719897772
 20
8.5824079913
 10
3.8760130568
 20
8.5748110804
 10
3.8804224994
 20
8.5676648896
 10
3.8852070359
 20
8.5609873243
 10
3.8903546694
 20
8.554795047
 10
3.8958526373
 20
8.5491033346
 10
3.9016873711
 20
8.5439262084
 10
3.9078455875
 20
8.5392756933
 10
3.9143108617
 20
8.5351644196
 10
3.9194372627
 20
8.532398185
  0
LWPOLYLINE
  5
418
100
AcDbEntity
  8
RACCORDO
100
AcDbPolyline
 62
7
  6
CONTINUOUS
 90
34
 70
0
 10
5.8082773498
 20
9.8097945315
 10
5.8080772938
 20
9.8201963401
 10
5.8074770563
 20
9.8307747082
 10
5.8064780983
 20
9.8415057263
 10
5.8050828628
 20
9.8523651794
 10
5.8032945145
 20
9.8633284718
 10
5.8011169332
 20
9.8743706828
 10
5.7985551087
 20
9.8854668297
 10
5.7956149344
 20
9.8965918231
 10
5.7923029394
 20
9.9077203935
 10
5.7886266623
 20
9.9188273514
 10
5.7845945021
 20
9.9298875726
 10
5.7802155048
 20
9.9408759538
 10
5.7754996042
 20
9.9517676114
 10
5.7704575342
 20
9.9625378985
 10
5.7651006736
 20
9.9731623898
 10
5.7594411493
 20
9.9836170143
 10
5.7534918114
 20
9.9938781044
 10
5.7472661396
 20
10.0039224108
 10
5.7407782071
 20
10.0137271657
 10
5.7340427182
 20
10.0232701628
 10
5.727074979
 20
10.032529803
 10
5.719890722
 20
10.0414850855
 10
5.7125062063
 20
10.0501157174
 10
5.704938252
 20
10.0584021902
 10
5.6972039305
 20
10.0663256975
 10
5.6893207245
 20
10.0738682736
 10
5.681306625
 20
10.0810128973
 10
5.6731796947
 20
10.0877433401
 10
5.6649582836
 20
10.0940443286
 10
5.6566611869
 20
10.0999016759
 10
5.6483071936
 20
10.1053021127
 10
5.6399150444
 20
10.1102333173
 10
5.6315036461
 20
10.1146840703
  0
LWPOLYLINE
  5
419
100
AcDbEntity
  8
RACCORDO
100
AcDbPolyline
 62
7
  6
CONTINUOUS
 90
24
 70
0
 10
3.9344443797
 20
15.981099676
 10
3.9338711952
 20
16.0155720821
 10
3.9321720823
 20
16.0493220031
 10
3.9293470407
 20
16.0823494389
 10
3.9253866061
 20
16.1147109963
 10
3.920300243
 20
16.1463500685
 10
3.9141163447
 20
16.177096835
 10
3.9068337292
 20
16.2069323625
 10
3.8984535785
 20
16.2358755842
 10
3.8890078313
 20
16.2638134801
 10
3.8784839728
 20
16.2907596429
 10
3.8668945177
 20
16.3167004799
 10
3.854308949
 20
16.3414821928
 10
3.8407337631
 20
16.3650794942
 10
3.8261624636
 20
16.3875176715
 10
3.8106450436
 20
16.4087187887
 10
3.7941617562
 20
16.4286958787
 10
3.7767323483
 20
16.4474359085
 10
3.7584660537
 20
16.4648218441
 10
3.7393773978
 20
16.4808307704
 10
3.7194518551
 20
16.4954856025
 10
3.6987550826
 20
16.5087380509
 10
3.677262568
 20
16.5205939121
 10
0.4473725037
 20
18.1355628215
  0
LINE
  5
41A
100
AcDbEntity
  8
RACCORDO
100
AcDbLine
 62
253
  6
CONTINUOUS
 10
4.6908981128
 20
27.870153659
 11
4.6909414937
 21
27.8636112789
  0
LINE
  5
41B
100
AcDbEntity
  8
RACCORDO
100
AcDbLine
 62
253
  6
CONTINUOUS
 10
3.2324828738
 20
8.3668012344
 11
3.2324828738
 21
8.8758753786
  0
LINE
  5
41C
100
AcDbEntity
  8
RACCORDO
100
AcDbLine
 62
253
  6
CONTINUOUS
 10
3.8544745993
 20
-32.9719667558
 11
3.8544745993
 21
-32.6319928217
  0
LINE
  5
41D
100
AcDbEntity
  8
RACCORDO
100
AcDbLine
 62
253
  6
CONTINUOUS
 10
3.8544745993
 20
8.6676113177
 11
3.8544745993
 21
9.0075852518
  0
LINE
  5
41E
100
AcDbEntity
  8
RACCORDO
100
AcDbLine
 62
7
  6
CONTINUOUS
 10
3.9344443797
 20
15.981099676
 11
3.9344443797
 21
15.7102993833
  0
LINE
  5
41F
100
AcDbEntity
  8
RACCORDO
100
AcDbLine
 62
253
  6
CONTINUOUS
 10
4.206996559
 20
-32.9724794797
 11
4.206996559
 21
-32.6325055455
  0
LINE
  5
420
100
AcDbEntity
  8
RACCORDO
100
AcDbLine
 62
253
  6
CONTINUOUS
 10
4.206996559
 20
8.6670985939
 11
4.206996559
 21
9.007072528
  0
LINE
  5
421
100
AcDbEntity
  8
RACCORDO
100
AcDbLine
 62
253
  6
CONTINUOUS
 10
4.5656952074
 20
-31.6554963445
 11
4.5656952074
 21
-31.2091343315
  0
LINE
  5
422
100
AcDbEntity
  8
RACCORDO
100
AcDbLine
 62
253
  6
CONTINUOUS
 10
4.5656952074
 20
7.7001950676
 11
4.5656952074
 21
8.3890156905
  0
LINE
  5
423
100
AcDbEntity
  8
RACCORDO
100
AcDbLine
 62
253
  6
CONTINUOUS
 10
4.9182171671
 20
-31.7810090684
 11
4.9182171671
 21
-31.0611599318
  0
LINE
  5
424
100
AcDbEntity
  8
RACCORDO
100
AcDbLine
 62
253
  6
CONTINUOUS
 10
4.9182171671
 20
7.710094247
 11
4.9182171671
 21
8.518595071
  0
LINE
  5
425
100
AcDbEntity
  8
RACCORDO
100
AcDbLine
 62
7
  6
CONTINUOUS
 10
5.8082773498
 20
-30.6875488201
 11
5.8082773498
 21
-32.19244488
  0
LINE
  5
426
100
AcDbEntity
  8
RACCORDO
100
AcDbLine
 62
7
  6
CONTINUOUS
 10
5.8082773498
 20
8.2073753749
 11
5.8082773498
 21
9.8097945315
  0
LINE
  5
427
100
AcDbEntity
  8
RACCORDO
100
AcDbLine
 62
253
  6
CONTINUOUS
 10
4.0264754031
 20
26.1470648648
 11
4.0265134536
 21
26.1532720651
  0
LWPOLYLINE
  5
428
100
AcDbEntity
  8
RACCORDO
100
AcDbPolyline
 62
253
  6
CONTINUOUS
 90
22
 70
0
 10
3.8544745993
 20
-32.6319928217
 10
3.8546934705
 20
-32.6211129583
 10
3.8553500262
 20
-32.610034986
 10
3.8564433639
 20
-32.598786071
 10
3.8579718137
 20
-32.5873917671
 10
3.8599321323
 20
-32.5758822518
 10
3.8623187154
 20
-32.5642924326
 10
3.8651250482
 20
-32.5526533733
 10
3.8683445652
 20
-32.5409918154
 10
3.8719693344
 20
-32.5293365317
 10
3.8759904175
 20
-32.5177163633
 10
3.8803977907
 20
-32.5061603683
 10
3.8851804185
 20
-32.4946975129
 10
3.8903263914
 20
-32.4833563389
 10
3.8958229203
 20
-32.4721650298
 10
3.9016562636
 20
-32.4611515502
 10
3.9078118524
 20
-32.45034337
 10
3.9142744077
 20
-32.4397672822
 10
3.9210279211
 20
-32.4294494721
 10
3.928055621
 20
-32.4194155667
 10
3.9353400026
 20
-32.4096905622
 10
3.942862947
 20
-32.4002986479
  0
LWPOLYLINE
  5
429
100
AcDbEntity
  8
RACCORDO
100
AcDbPolyline
 62
253
  6
CONTINUOUS
 90
31
 70
0
 10
3.8544745993
 20
9.0075852518
 10
3.8547151806
 20
9.0189971612
 10
3.8554362718
 20
9.0306186179
 10
3.8566359136
 20
9.042417991
 10
3.8583108461
 20
9.0543631776
 10
3.8604565126
 20
9.0664216527
 10
3.8630670672
 20
9.0785605565
 10
3.8661354007
 20
9.0907468386
 10
3.869653162
 20
9.102947338
 10
3.8736107712
 20
9.1151288349
 10
3.8779974531
 20
9.1272581705
 10
3.8828012661
 20
9.1393023327
 10
3.8880091307
 20
9.1512285347
 10
3.8936068761
 20
9.1630043294
 10
3.8995792577
 20
9.1745976518
 10
3.905909992
 20
9.185976904
 10
3.9125818129
 20
9.1971110717
 10
3.9195765813
 20
9.2079699033
 10
3.9268753181
 20
9.2185239393
 10
3.9344582607
 20
9.2287445821
 10
3.9423046791
 20
9.238603871
 10
3.9503929704
 20
9.2480746872
 10
3.9587009381
 20
9.2571311152
 10
3.9672061105
 20
9.2657487318
 10
3.9758855732
 20
9.2739043457
 10
3.9847176637
 20
9.2815773942
 10
3.9936764467
 20
9.2887451418
 10
4.0027317836
 20
9.2953840483
 10
4.0118569524
 20
9.3014758457
 10
4.021028957
 20
9.3070064931
 10
4.0302228553
 20
9.3119620668
  0
LWPOLYLINE
  5
42A
100
AcDbEntity
  8
RACCORDO
100
AcDbPolyline
 62
7
  6
CONTINUOUS
 90
15
 70
0
 10
6.4087423786
 20
9.8135744669
 10
6.4084254497
 20
9.8009902266
 10
6.4074711031
 20
9.7883946931
 10
6.4058761184
 20
9.7758264257
 10
6.4036408133
 20
9.7633275104
 10
6.4007674574
 20
9.750933736
 10
6.39725851
 20
9.7386741663
 10
6.3931203775
 20
9.7265862287
 10
6.3883629128
 20
9.7147088501
 10
6.3829948603
 20
9.7030718677
 10
6.3770285769
 20
9.6917092317
 10
6.3704808119
 20
9.6806578171
 10
6.3633679261
 20
9.6699486152
 10
6.3557067345
 20
9.6596100476
 10
6.351904839
 20
9.6548663579
  0
LWPOLYLINE
  5
42B
100
AcDbEntity
  8
RACCORDO
100
AcDbPolyline
 62
253
  6
CONTINUOUS
 90
16
 70
0
 10
6.4087423786
 20
9.8135744669
 10
6.4084391575
 20
9.8074198227
 10
6.4074576517
 20
9.8009183135
 10
6.4057994739
 20
9.7944512374
 10
6.4034691354
 20
9.7880361894
 10
6.4004729762
 20
9.7816906225
 10
6.396819148
 20
9.7754318011
 10
6.3925175916
 20
9.7692767532
 10
6.3875800101
 20
9.7632422248
 10
6.382019837
 20
9.7573446338
 10
6.3758521998
 20
9.7516000256
 10
6.3690938785
 20
9.7460240294
 10
6.3617632603
 20
9.7406318155
 10
6.3538802893
 20
9.7354380545
 10
6.3454664126
 20
9.7304568769
 10
6.3365445216
 20
9.7257018348
  0
LWPOLYLINE
  5
42C
100
AcDbEntity
  8
RACCORDO
100
AcDbPolyline
 62
253
  6
CONTINUOUS
 90
16
 70
0
 10
6.4087423786
 20
10.1611056343
 10
6.4084368736
 20
10.1549282179
 10
6.4074527019
 20
10.1484255354
 10
6.4057916025
 20
10.1419573482
 10
6.4034580564
 20
10.1355411787
 10
6.4004584269
 20
10.1291945751
 10
6.3968009935
 20
10.1229350005
 10
6.3924958547
 20
10.1167796021
 10
6.3875547147
 20
10.1107449997
 10
6.381990907
 20
10.1048474409
 10
6.3758181485
 20
10.0991017296
 10
6.3690543991
 20
10.0935248213
 10
6.3617228809
 20
10.0881352435
 10
6.3538463093
 20
10.0829483606
 10
6.3454456042
 20
10.0779767086
 10
6.3365445216
 20
10.0732333515
  0
LWPOLYLINE
  5
42D
100
AcDbEntity
  8
RACCORDO
100
AcDbPolyline
 62
7
  6
CONTINUOUS
 90
8
 70
0
 10
8.2264220313
 20
26.10247573
 10
8.2222111821
 20
26.0474482285
 10
8.2060846641
 20
25.9893752674
 10
8.1777640076
 20
25.9301106772
 10
8.1358047496
 20
25.8679225917
 10
8.0788304149
 20
25.8031319642
 10
8.0078288416
 20
25.7383267543
 10
7.9248174692
 20
25.675684581
  0
LWPOLYLINE
  5
42E
100
AcDbEntity
  8
RACCORDO
100
AcDbPolyline
 62
7
  6
CONTINUOUS
 90
4
 70
0
 10
-31.9651757673
 20
0.9502404799
 10
-31.951866831
 20
0.9525233138
 10
-31.9385617144
 20
0.954387845
 10
-31.9252787471
 20
0.9558340813
  0
LWPOLYLINE
  5
42F
100
AcDbEntity
  8
RACCORDO
100
AcDbPolyline
 62
253
  6
CONTINUOUS
 90
3
 70
0
 10
-20.0758992877
 20
3.7084974595
 10
-20.0554223716
 20
3.710673711
 10
-20.0379867042
 20
3.7135063069
  0
LWPOLYLINE
  5
430
100
AcDbEntity
  8
RACCORDO
100
AcDbPolyline
 62
253
  6
CONTINUOUS
 90
9
 70
0
 10
-28.1501997339
 20
11.2880359784
 10
-28.1761801391
 20
11.2950043576
 10
-28.2017156691
 20
11.2993908936
 10
-28.2266657836
 20
11.3011725611
 10
-28.250896872
 20
11.3003397488
 10
-28.2742778403
 20
11.2968951414
 10
-28.2966724729
 20
11.2908569191
 10
-28.3179472257
 20
11.2822616141
 10
-28.3210996058
 20
11.2807221161
  0
LINE
  5
431
100
AcDbEntity
  8
RACCORDO
100
AcDbLine
 62
253
  6
CONTINUOUS
 10
-15.6113067192
 20
13.0917178603
 11
-30.4858100049
 21
20.5289695031
  0
LINE
  5
432
100
AcDbEntity
  8
RACCORDO
100
AcDbLine
 62
253
  6
CONTINUOUS
 10
-14.5606793746
 20
12.6304478067
 11
0.2875390862
 21
5.2063385763
  0
LWPOLYLINE
  5
433
100
AcDbEntity
  8
RACCORDO
100
AcDbPolyline
 62
253
  6
CONTINUOUS
 90
8
 70
0
 10
-13.3064088267
 20
17.1460371842
 10
-13.3205161029
 20
17.1572969592
 10
-13.3327920721
 20
17.1713543908
 10
-13.3430707228
 20
17.1880193763
 10
-13.3512130539
 20
17.2070665503
 10
-13.3571089544
 20
17.2282383326
 10
-13.3606786923
 20
17.2512484111
 10
-13.3618739931
 20
17.2757856139
  0
LWPOLYLINE
  5
434
100
AcDbEntity
  8
ASSI
100
AcDbPolyline
 62
7
  6
CONTINUOUS
 90
6
 70
0
 10
6.8372880815
 20
14.2897620645
 10
6.8372526183
 20
14.2907810205
 10
6.8365166406
 20
14.2942462082
 10
6.8348687387
 20
14.2971007705
 10
6.832352738
 20
14.2993940425
 10
6.8304724506
 20
14.3004959124
  0
LWPOLYLINE
  5
435
100
AcDbEntity
  8
RACCORDO
100
AcDbPolyline
 62
253
  6
CONTINUOUS
 90
31
 70
0
 10
6.3365445216
 20
10.0732333515
 10
6.3363543687
 20
10.0847114712
 10
6.3356774146
 20
10.0963989739
 10
6.3345155148
 20
10.1082638264
 10
6.3328718538
 20
10.1202735093
 10
6.3307509366
 20
10.1323951064
 10
6.3281585762
 20
10.1445953946
 10
6.3251018778
 20
10.1568409352
 10
6.3215892192
 20
10.1690981656
 10
6.317630228
 20
10.1813334908
 10
6.3132357549
 20
10.1935133763
 10
6.3084178446
 20
10.2056044392
 10
6.3031897018
 20
10.2175735401
 10
6.297565656
 20
10.2293878741
 10
6.2915611217
 20
10.2410150602
 10
6.2851925561
 20
10.2524232306
 10
6.2784774143
 20
10.2635811175
 10
6.2714341012
 20
10.2744581392
 10
6.2640819213
 20
10.285024484
 10
6.2564410254
 20
10.2952511914
 10
6.2485323559
 20
10.305110232
 10
6.2403775888
 20
10.314574584
 10
6.231999075
 20
10.3236183073
 10
6.2234197784
 20
10.3322166148
 10
6.2146632131
 20
10.3403459401
 10
6.2057533792
 20
10.3479840024
 10
6.1967146971
 20
10.3551098671
 10
6.1875719399
 20
10.3617040035
 10
6.1783501664
 20
10.3677483384
 10
6.1690746515
 20
10.3732263054
 10
6.1597708179
 20
10.3781228903
  0
LINE
  5
436
100
AcDbEntity
  8
RACCORDO
100
AcDbLine
 62
253
  6
CONTINUOUS
 10
8.2264320187
 20
26.1023867061
 11
8.2264753996
 21
26.0958443259
  0
LINE
  5
437
100
AcDbEntity
  8
RACCORDO
100
AcDbLine
 62
253
  6
CONTINUOUS
 10
6.3365445216
 20
10.0732333515
 11
6.3365445216
 21
9.7257018348
  0
LINE
  5
438
100
AcDbEntity
  8
RACCORDO
100
AcDbLine
 62
253
  6
CONTINUOUS
 10
6.3365445216
 20
-31.5739023046
 11
6.3365445216
 21
-31.9214338214
  0
LINE
  5
439
100
AcDbEntity
  8
RACCORDO
100
AcDbLine
 62
7
  6
CONTINUOUS
 10
6.4087423786
 20
10.1611059837
 11
6.4087423786
 21
9.8135744669
  0
LINE
  5
43A
100
AcDbEntity
  8
RACCORDO
100
AcDbLine
 62
7
  6
CONTINUOUS
 10
6.4087423786
 20
-31.4860296724
 11
6.4087423786
 21
-31.8335611892
  0
LINE
  5
43B
100
AcDbEntity
  8
ASSI
100
AcDbLine
 62
253
  6
CONTINUOUS
 10
6.7136940376
 20
14.2807339609
 11
6.7136940376
 21
13.0536839936
  0
LINE
  5
43C
100
AcDbEntity
  8
ASSI
100
AcDbLine
 62
7
  6
CONTINUOUS
 10
6.8372881015
 20
14.2895322075
 11
6.8372881015
 21
13.2018476144
  0
LINE
  5
43D
100
AcDbEntity
  8
RACCORDO
100
AcDbLine
 62
7
  6
CONTINUOUS
 10
6.8689375216
 20
7.9437677364
 11
6.8689375216
 21
-29.9728646943
  0
LINE
  5
43E
100
AcDbEntity
  8
RACCORDO
100
AcDbLine
 62
253
  6
CONTINUOUS
 10
8.0356637106
 20
16.9533723429
 11
8.0356637106
 21
17.5203681613
  0
LINE
  5
43F
100
AcDbEntity
  8
RACCORDO
100
AcDbLine
 62
253
  6
CONTINUOUS
 10
8.7427704917
 20
16.8102347158
 11
8.7427704917
 21
17.5082749376
  0
LINE
  5
440
100
AcDbEntity
  8
RACCORDO
100
AcDbLine
 62
253
  6
CONTINUOUS
 10
7.562009309
 20
24.3792979118
 11
7.5620473595
 21
24.3855051121
  0
LWPOLYLINE
  5
441
100
AcDbEntity
  8
RACCORDO
100
AcDbPolyline
 62
7
  6
CONTINUOUS
 90
10
 70
0
 10
8.2514979594
 20
16.983931051
 10
8.2516467571
 20
16.9980642421
 10
8.2515867044
 20
17.0109651163
 10
8.2514040054
 20
17.0225184849
 10
8.2513076941
 20
17.0326657065
 10
8.251288605
 20
17.0412457894
 10
8.2511193699
 20
17.047995777
 10
8.2509539001
 20
17.0528290538
 10
8.2508870931
 20
17.0556603624
 10
8.2507401318
 20
17.0563031052
  0
LWPOLYLINE
  5
442
100
AcDbEntity
  8
RACCORDO
100
AcDbPolyline
 62
7
  6
CONTINUOUS
 90
22
 70
0
 10
6.1510610987
 20
-30.3270284616
 10
6.1504416448
 20
-30.3448743328
 10
6.149232418
 20
-30.3624153079
 10
6.1474314954
 20
-30.3796199701
 10
6.1450375995
 20
-30.3964550255
 10
6.1420514272
 20
-30.4128920432
 10
6.1384747527
 20
-30.4289068333
 10
6.1343105428
 20
-30.444463546
 10
6.1295601995
 20
-30.459537832
 10
6.1242213458
 20
-30.4741204527
 10
6.1182952693
 20
-30.4881817599
 10
6.1117860663
 20
-30.5016886206
 10
6.104692907
 20
-30.5146228158
 10
6.0970131158
 20
-30.526962287
 10
6.0887578609
 20
-30.5386640373
 10
6.0799495892
 20
-30.5496802556
 10
6.0705948836
 20
-30.5599877417
 10
6.0607087849
 20
-30.5695556577
 10
6.0503347138
 20
-30.5783354449
 10
6.0394886717
 20
-30.5863109095
 10
6.0281913822
 20
-30.5934642056
 10
6.0164161579
 20
-30.5998036737
  0
LWPOLYLINE
  5
443
100
AcDbEntity
  8
RACCORDO
100
AcDbPolyline
 62
253
  6
CONTINUOUS
 90
12
 70
0
 10
7.5620473595
 20
24.3855051121
 10
7.5633075579
 20
24.4153341461
 10
7.5746373513
 20
24.4913542023
 10
7.5975928506
 20
24.5666808293
 10
7.6320771051
 20
24.6408766342
 10
7.6779609267
 20
24.7135937289
 10
7.7350465073
 20
24.784410807
 10
7.8030587842
 20
24.8528995348
 10
7.8816858141
 20
24.9187074932
 10
7.9705467184
 20
24.9814516946
 10
8.0691836417
 20
25.0407233203
 10
8.1770850668
 20
25.0961497626
  0
LWPOLYLINE
  5
444
100
AcDbEntity
  8
RACCORDO
100
AcDbPolyline
 62
253
  6
CONTINUOUS
 90
16
 70
0
 10
6.4087423786
 20
-31.8335611859
 10
6.408441108
 20
-31.839696018
 10
6.4074613894
 20
-31.8461989662
 10
6.4058047004
 20
-31.8526675305
 10
6.4034755489
 20
-31.8590840972
 10
6.4004802687
 20
-31.8654312083
 10
6.3968270098
 20
-31.8716915851
 10
6.3925257117
 20
-31.8778481882
 10
6.3875880792
 20
-31.8838842587
 10
6.3820275539
 20
-31.8897833611
 10
6.3758592648
 20
-31.8955294426
 10
6.3691000035
 20
-31.9011068582
 10
6.3617681896
 20
-31.9065004105
 10
6.3538837915
 20
-31.911695415
 10
6.3454682657
 20
-31.9166777385
 10
6.3365445216
 20
-31.9214338214
  0
LWPOLYLINE
  5
445
100
AcDbEntity
  8
RACCORDO
100
AcDbPolyline
 62
253
  6
CONTINUOUS
 90
16
 70
0
 10
6.4087423786
 20
-31.4860296724
 10
6.4084391575
 20
-31.4921843167
 10
6.4074576517
 20
-31.4986858259
 10
6.4057994739
 20
-31.505152902
 10
6.4034691354
 20
-31.51156795
 10
6.4004729762
 20
-31.5179135169
 10
6.396819148
 20
-31.5241723383
 10
6.3925175916
 20
-31.5303273861
 10
6.3875800101
 20
-31.5363619145
 10
6.382019837
 20
-31.5422595056
 10
6.3758521998
 20
-31.5480041138
 10
6.3690938785
 20
-31.55358011
 10
6.3617632603
 20
-31.5589723239
 10
6.3538802893
 20
-31.5641660848
 10
6.3454664126
 20
-31.5691472625
 10
6.3365445216
 20
-31.5739023046
  0
LWPOLYLINE
  5
446
100
AcDbEntity
  8
RACCORDO
100
AcDbPolyline
 62
7
  6
CONTINUOUS
 90
5
 70
0
 10
13.8448801253
 20
14.8948647878
 10
13.8485431756
 20
14.9031659569
 10
13.8504219948
 20
14.9063780773
 10
13.8495018405
 20
14.905339807
 10
13.8445843387
 20
14.9003567414
  0
LINE
  5
447
100
AcDbEntity
  8
RACCORDO
100
AcDbLine
 62
7
  6
CONTINUOUS
 10
3.9801530655
 20
8.5112774331
 11
4.6057597591
 21
8.3806560367
  0
LINE
  5
448
100
AcDbEntity
  8
RACCORDO
100
AcDbLine
 62
253
  6
CONTINUOUS
 10
4.206996559
 20
8.6670985939
 11
4.9182171671
 21
8.518595071
  0
LWPOLYLINE
  5
449
100
AcDbEntity
  8
RACCORDO
100
AcDbPolyline
 62
7
  6
CONTINUOUS
 90
10
 70
0
 10
3.9801530655
 20
8.5112774331
 10
3.9726114934
 20
8.5129742077
 10
3.9651083183
 20
8.5149081759
 10
3.9576542239
 20
8.5170781904
 10
3.9502437725
 20
8.5194879715
 10
3.9429051407
 20
8.5221301353
 10
3.9356959092
 20
8.5249819857
 10
3.9286381672
 20
8.528029172
 10
3.9217227085
 20
8.5312698532
 10
3.9194372627
 20
8.532398185
  0
LWPOLYLINE
  5
44A
100
AcDbEntity
  8
RACCORDO
100
AcDbPolyline
 62
253
  6
CONTINUOUS
 90
8
 70
0
 10
-30.4858100049
 20
20.5289695031
 10
-30.5232811309
 20
20.5447561013
 10
-30.5601396783
 20
20.5557389682
 10
-30.5959822842
 20
20.5617979182
 10
-30.6304167075
 20
20.5628666507
 10
-30.6630661119
 20
20.5589334755
 10
-30.6935731919
 20
20.5500414448
 10
-30.7190318939
 20
20.5378138805
  0
LWPOLYLINE
  5
44B
100
AcDbEntity
  8
RACCORDO
100
AcDbPolyline
 62
253
  6
CONTINUOUS
 90
31
 70
0
 10
3.8544745993
 20
8.6676113177
 10
3.8639335697
 20
8.6631223553
 10
3.873847846
 20
8.6588861308
 10
3.8841904498
 20
8.6549141719
 10
3.8949332203
 20
8.6512172926
 10
3.9060469394
 20
8.6478055465
 10
3.9175014168
 20
8.6446882045
 10
3.9292655222
 20
8.6418737456
 10
3.9413072126
 20
8.6393698427
 10
3.9535936668
 20
8.637183323
 10
3.9660914312
 20
8.6353201391
 10
3.978766514
 20
8.6337853579
 10
3.9915844224
 20
8.6325831559
 10
4.0045102858
 20
8.6317168041
 10
4.0175089189
 20
8.6311886611
 10
4.0305449173
 20
8.6310001643
 10
4.0435827851
 20
8.6311518236
 10
4.0565870644
 20
8.6316432232
 10
4.0695223988
 20
8.6324730259
 10
4.0823537044
 20
8.6336389857
 10
4.0950459457
 20
8.6351379236
 10
4.1075642747
 20
8.6369657111
 10
4.1198744391
 20
8.6391173118
 10
4.1319431699
 20
8.6415868751
 10
4.1437379407
 20
8.6443677317
 10
4.1552278032
 20
8.6474526418
 10
4.166380285
 20
8.6508329454
 10
4.1771620949
 20
8.6544983866
 10
4.187543284
 20
8.6584383845
 10
4.1974969961
 20
8.662642332
 10
4.206996559
 20
8.6670985939
  0
LINE
  5
44C
100
AcDbEntity
  8
RACCORDO
100
AcDbLine
 62
7
  6
CONTINUOUS
 10
-26.2062512931
 20
23.0243442096
 11
-11.1796939435
 21
15.5110655348
  0
LINE
  5
44D
100
AcDbEntity
  8
RACCORDO
100
AcDbLine
 62
7
  6
CONTINUOUS
 10
-10.1318352906
 20
15.0489603166
 11
-8.798622957
 21
14.3823541498
  0
LINE
  5
44E
100
AcDbEntity
  8
RACCORDO
100
AcDbLine
 62
7
  6
CONTINUOUS
 10
3.2324828738
 20
8.3668012344
 11
4.5656952074
 21
7.7001950676
  0
LINE
  5
44F
100
AcDbEntity
  8
RACCORDO
100
AcDbLine
 62
7
  6
CONTINUOUS
 10
-11.0558760554
 20
15.5563856068
 11
-11.3545172655
 21
15.7057062119
  0
LINE
  5
450
100
AcDbEntity
  8
RACCORDO
100
AcDbLine
 62
7
  6
CONTINUOUS
 10
-12.6671098067
 20
16.3620024825
 11
-24.7188354299
 21
22.3878652941
  0
LINE
  5
451
100
AcDbEntity
  8
RACCORDO
100
AcDbLine
 62
7
  6
CONTINUOUS
 10
-26.0314279711
 20
23.0441615647
 11
-26.3300691812
 21
23.1934821698
  0
LINE
  5
452
100
AcDbEntity
  8
RACCORDO
100
AcDbLine
 62
7
  6
CONTINUOUS
 10
0.3261368988
 20
10.1962208466
 11
-5.1851702008
 21
12.9518743964
  0
LINE
  5
453
100
AcDbEntity
  8
RACCORDO
100
AcDbLine
 62
7
  6
CONTINUOUS
 10
-15.5879279346
 20
18.1835232019
 11
-21.0909105208
 21
20.935014495
  0
LINE
  5
454
100
AcDbEntity
  8
RACCORDO
100
AcDbLine
 62
7
  6
CONTINUOUS
 10
-10.7698549485
 20
15.8770442897
 11
-9.4448702687
 21
15.2145519498
  0
LINE
  5
455
100
AcDbEntity
  8
RACCORDO
100
AcDbLine
 62
7
  6
CONTINUOUS
 10
2.5944632159
 20
9.1948852075
 11
3.9194478958
 21
8.5323928676
  0
LINE
  5
456
100
AcDbEntity
  8
RACCORDO
100
AcDbLine
 62
7
  6
CONTINUOUS
 10
-12.008993345
 20
16.496613488
 11
-13.2969006967
 21
17.1405671638
  0
LINE
  5
457
100
AcDbEntity
  8
RACCORDO
100
AcDbLine
 62
7
  6
CONTINUOUS
 10
-25.3733115094
 20
23.1787725702
 11
-26.6612188611
 21
23.822726246
  0
LINE
  5
458
100
AcDbEntity
  8
RACCORDO
100
AcDbLine
 62
253
  6
CONTINUOUS
 10
-25.136822118
 20
23.1203664576
 11
-24.7188354299
 21
22.9113731135
  0
LINE
  5
459
100
AcDbEntity
  8
RACCORDO
100
AcDbLine
 62
253
  6
CONTINUOUS
 10
-11.7725039536
 20
16.4382073753
 11
-11.3545172655
 21
16.2292140313
  0
LINE
  5
45A
100
AcDbEntity
  8
RACCORDO
100
AcDbLine
 62
253
  6
CONTINUOUS
 10
-10.8348282449
 20
16.0122627398
 11
-9.5098435651
 21
15.3497703999
  0
LINE
  5
45B
100
AcDbEntity
  8
RACCORDO
100
AcDbLine
 62
253
  6
CONTINUOUS
 10
2.5294899195
 20
9.3301036576
 11
3.8544745993
 21
8.6676113177
  0
LINE
  5
45C
100
AcDbEntity
  8
RACCORDO
100
AcDbLine
 62
253
  6
CONTINUOUS
 10
-12.0739666414
 20
16.6318319381
 11
-13.3618739931
 21
17.2757856139
  0
LINE
  5
45D
100
AcDbEntity
  8
RACCORDO
100
AcDbLine
 62
253
  6
CONTINUOUS
 10
-25.4382848059
 20
23.3139910203
 11
-26.7261921575
 21
23.9579446961
  0
LWPOLYLINE
  5
45E
100
AcDbEntity
  8
RACCORDO
100
AcDbPolyline
 62
7
  6
CONTINUOUS
 90
22
 70
0
 10
-10.7698156392
 20
15.8770246466
 10
-10.7785347325
 20
15.8815990711
 10
-10.7903425182
 20
15.8885212002
 10
-10.8017407416
 20
15.8960700128
 10
-10.8126547071
 20
15.9041877016
 10
-10.82307635
 20
15.9128564782
 10
-10.8330510363
 20
15.9221148736
 10
-10.8425566803
 20
15.9319565224
 10
-10.8515328413
 20
15.9423318223
 10
-10.8599578904
 20
15.9532271087
 10
-10.8677949296
 20
15.9646080269
 10
-10.8750117525
 20
15.976440499
 10
-10.8815907696
 20
15.988712635
 10
-10.8875021843
 20
16.0013918
 10
-10.8927141289
 20
16.0144334918
 10
-10.8972038889
 20
16.0278077033
 10
-10.9009455663
 20
16.0414691932
 10
-10.9039172652
 20
16.0553736124
 10
-10.906101974
 20
16.069490424
 10
-10.9074806969
 20
16.0837661698
 10
-10.9080390697
 20
16.0981532021
 10
-10.9080515485
 20
16.1006630901
  0
LWPOLYLINE
  5
45F
100
AcDbEntity
  8
RACCORDO
100
AcDbPolyline
 62
7
  6
CONTINUOUS
 90
22
 70
0
 10
2.5945025253
 20
9.1948655644
 10
2.5857834319
 20
9.1994399889
 10
2.5739756462
 20
9.206362118
 10
2.5625774228
 20
9.2139109306
 10
2.5516634573
 20
9.2220286193
 10
2.5412418144
 20
9.230697396
 10
2.5312671282
 20
9.2399557914
 10
2.5217614841
 20
9.2497974402
 10
2.5127853231
 20
9.2601727401
 10
2.504360274
 20
9.2710680264
 10
2.4965232348
 20
9.2824489447
 10
2.4893064119
 20
9.2942814167
 10
2.4827273948
 20
9.3065535528
 10
2.4768159801
 20
9.3192327178
 10
2.4716040355
 20
9.3322744096
 10
2.4671142755
 20
9.3456486211
 10
2.4633725981
 20
9.359310111
 10
2.4604008992
 20
9.3732145302
 10
2.4582161904
 20
9.3873313418
 10
2.4568374675
 20
9.4016070876
 10
2.4562790947
 20
9.4159941199
 10
2.456266616
 20
9.4185040079
  0
LWPOLYLINE
  5
460
100
AcDbEntity
  8
RACCORDO
100
AcDbPolyline
 62
253
  6
CONTINUOUS
 90
16
 70
0
 10
-10.8348282449
 20
16.0122627398
 10
-10.8438061698
 20
16.016992225
 10
-10.8522786187
 20
16.0219493632
 10
-10.8602225364
 20
16.0271206651
 10
-10.8676162952
 20
16.0324920503
 10
-10.8744397874
 20
16.0380489099
 10
-10.8806744714
 20
16.0437761486
 10
-10.8863033891
 20
16.0496582012
 10
-10.8913111949
 20
16.0556790464
 10
-10.8956842343
 20
16.0618222736
 10
-10.8994106021
 20
16.0680711558
 10
-10.9024801646
 20
16.0744086972
 10
-10.9048845686
 20
16.0808176514
 10
-10.9066172722
 20
16.0872805831
 10
-10.9076735581
 20
16.0937798996
 10
-10.9080515496
 20
16.1006510887
  0
LWPOLYLINE
  5
461
100
AcDbEntity
  8
RACCORDO
100
AcDbPolyline
 62
253
  6
CONTINUOUS
 90
16
 70
0
 10
-10.8348282449
 20
16.352236674
 10
-10.8438072318
 20
16.3569667486
 10
-10.852280636
 20
16.3619245419
 10
-10.8602253903
 20
16.3670965609
 10
-10.8676198735
 20
16.372468735
 10
-10.8744439459
 20
16.3780264377
 10
-10.8806790103
 20
16.3837545245
 10
-10.8863080926
 20
16.3896373991
 10
-10.8913158774
 20
16.3956590528
 10
-10.8956887315
 20
16.4018030891
 10
-10.8994147553
 20
16.4080527829
 10
-10.902483811
 20
16.4143911238
 10
-10.9048875477
 20
16.4208008567
 10
-10.9066194285
 20
16.4272645425
 10
-10.9076747404
 20
16.4337645801
 10
-10.9080515496
 20
16.4406250245
  0
LWPOLYLINE
  5
462
100
AcDbEntity
  8
RACCORDO
100
AcDbPolyline
 62
253
  6
CONTINUOUS
 90
16
 70
0
 10
2.5294899195
 20
9.3301036576
 10
2.5205119947
 20
9.3348331428
 10
2.5120395457
 20
9.339790281
 10
2.504095628
 20
9.3449615828
 10
2.4967018692
 20
9.3503329681
 10
2.4898783771
 20
9.3558898277
 10
2.4836436931
 20
9.3616170663
 10
2.4780147754
 20
9.367499119
 10
2.4730069696
 20
9.3735199642
 10
2.4686339301
 20
9.3796631914
 10
2.4649075624
 20
9.3859120736
 10
2.4618379999
 20
9.3922496149
 10
2.4594335959
 20
9.3986585692
 10
2.4577008922
 20
9.4051215008
 10
2.4566446063
 20
9.4116208174
 10
2.4562666148
 20
9.4184920065
  0
LWPOLYLINE
  5
463
100
AcDbEntity
  8
RACCORDO
100
AcDbPolyline
 62
7
  6
CONTINUOUS
 90
10
 70
0
 10
-13.2969006967
 20
17.1405671638
 10
-13.3212243134
 20
17.1544855391
 10
-13.3440447171
 20
17.1712087136
 10
-13.3649480863
 20
17.1905257716
 10
-13.3834734308
 20
17.2120328993
 10
-13.3994389095
 20
17.2354973833
 10
-13.4127986003
 20
17.2609648687
 10
-13.4232645593
 20
17.2881716526
 10
-13.4305261694
 20
17.3165856704
 10
-13.4344272696
 20
17.3458828395
  0
LWPOLYLINE
  5
464
100
AcDbEntity
  8
RACCORDO
100
AcDbPolyline
 62
253
  6
CONTINUOUS
 90
9
 70
0
 10
-25.3733115094
 20
23.1787725702
 10
-25.3828196395
 20
23.1842425906
 10
-25.3969269157
 20
23.1955023656
 10
-25.4092028848
 20
23.2095597972
 10
-25.4194815355
 20
23.2262247827
 10
-25.4276238667
 20
23.2452719567
 10
-25.4335197672
 20
23.266443739
 10
-25.4370895051
 20
23.2894538175
 10
-25.4382848059
 20
23.3139910203
  0
LWPOLYLINE
  5
465
100
AcDbEntity
  8
RACCORDO
100
AcDbPolyline
 62
253
  6
CONTINUOUS
 90
9
 70
0
 10
-12.008993345
 20
16.496613488
 10
-12.0185014751
 20
16.5020835084
 10
-12.0326087512
 20
16.5133432834
 10
-12.0448847204
 20
16.527400715
 10
-12.0551633711
 20
16.5440657004
 10
-12.0633057022
 20
16.5631128745
 10
-12.0692016027
 20
16.5842846568
 10
-12.0727713407
 20
16.6072947353
 10
-12.0739666414
 20
16.6318319381
  0
LINE
  5
466
100
AcDbEntity
  8
RACCORDO
100
AcDbLine
 62
253
  6
CONTINUOUS
 10
-26.661218835
 20
23.822726233
 11
-26.6706622936
 21
23.8281708093
  0
LINE
  5
467
100
AcDbEntity
  8
RACCORDO
100
AcDbLine
 62
253
  6
CONTINUOUS
 10
11.7619659246
 20
24.3346197531
 11
11.7620093055
 21
24.328077373
  0
LINE
  5
468
100
AcDbEntity
  8
RACCORDO
100
AcDbLine
 62
253
  6
CONTINUOUS
 10
11.4246502805
 20
12.1079625029
 11
11.4246502805
 21
11.5312108594
  0
LINE
  5
469
100
AcDbEntity
  8
RACCORDO
100
AcDbLine
 62
253
  6
CONTINUOUS
 10
11.4246502805
 20
-24.9524569015
 11
11.4246502805
 21
-25.2454026623
  0
LINE
  5
46A
100
AcDbEntity
  8
RACCORDO
100
AcDbLine
 62
7
  6
CONTINUOUS
 10
11.5649803804
 20
12.4084670116
 11
11.5649803804
 21
11.704875452
  0
LINE
  5
46B
100
AcDbEntity
  8
RACCORDO
100
AcDbLine
 62
7
  6
CONTINUOUS
 10
11.5649803804
 20
-24.8782480331
 11
11.5649803804
 21
-25.1985779857
  0
LINE
  5
46C
100
AcDbEntity
  8
RACCORDO
100
AcDbLine
 62
253
  6
CONTINUOUS
 10
11.097543215
 20
22.6115309588
 11
11.0975812655
 21
22.6177381591
  0
LWPOLYLINE
  5
46D
100
AcDbEntity
  8
RACCORDO
100
AcDbPolyline
 62
7
  6
CONTINUOUS
 90
18
 70
0
 10
11.5649698817
 20
11.7048701202
 10
11.5649159797
 20
11.7011508095
 10
11.5640198282
 20
11.6893865084
 10
11.5620159315
 20
11.677686017
 10
11.5589097328
 20
11.6660324818
 10
11.5547157544
 20
11.6544788664
 10
11.5494211132
 20
11.6430107713
 10
11.5430386924
 20
11.631642596
 10
11.5356216641
 20
11.6204705025
 10
11.527171193
 20
11.60950816
 10
11.5176861144
 20
11.5987418993
 10
11.5072161064
 20
11.5882268745
 10
11.4957466774
 20
11.5779559936
 10
11.483292319
 20
11.5679363486
 10
11.4699461848
 20
11.5582443697
 10
11.4557393259
 20
11.5489055335
 10
11.4406406911
 20
11.5398943634
 10
11.4246502805
 20
11.5312108594
  0
LWPOLYLINE
  5
46E
100
AcDbEntity
  8
RACCORDO
100
AcDbPolyline
 62
253
  6
CONTINUOUS
 90
12
 70
0
 10
11.0975812655
 20
22.6177381591
 10
11.0988414639
 20
22.6475671931
 10
11.1101712572
 20
22.7235872493
 10
11.1331267565
 20
22.7989138763
 10
11.1676110111
 20
22.8731096812
 10
11.2134948327
 20
22.9458267759
 10
11.2705804132
 20
23.016643854
 10
11.3385926902
 20
23.0851325819
 10
11.41721972
 20
23.1509405402
 10
11.5060806243
 20
23.2136847417
 10
11.6047175477
 20
23.2729563673
 10
11.7126189727
 20
23.3283828097
  0
LWPOLYLINE
  5
46F
100
AcDbEntity
  8
RACCORDO
100
AcDbPolyline
 62
7
  6
CONTINUOUS
 90
8
 70
0
 10
11.7619559373
 20
24.334708777
 10
11.7577450881
 20
24.2796812755
 10
11.74161857
 20
24.2216083144
 10
11.7132979135
 20
24.1623437243
 10
11.6713386556
 20
24.1001556388
 10
11.6143643208
 20
24.0353650112
 10
11.5433627476
 20
23.9705598013
 10
11.4603513751
 20
23.9079176281
  0
LWPOLYLINE
  5
470
100
AcDbEntity
  8
RACCORDO
100
AcDbPolyline
 62
7
  6
CONTINUOUS
 90
18
 70
0
 10
0.7489592787
 20
11.3791937219
 10
0.7316646107
 20
11.3777013862
 10
0.7144702125
 20
11.3757078084
 10
0.6974118747
 20
11.3733006254
 10
0.6805210413
 20
11.3705896718
 10
0.6638167785
 20
11.3676326593
 10
0.6473099586
 20
11.3644218112
 10
0.6310165517
 20
11.3610115833
 10
0.6149467587
 20
11.3574670536
 10
0.5991036049
 20
11.3537730976
 10
0.5834947932
 20
11.3499698153
 10
0.5681257105
 20
11.3461062271
 10
0.5529989825
 20
11.3421659534
 10
0.5381179649
 20
11.3381799061
 10
0.5234854389
 20
11.3341858201
 10
0.509106814
 20
11.3301686907
 10
0.4949832611
 20
11.3261535301
 10
0.4675135154
 20
11.3182059179
  0
LWPOLYLINE
  5
471
100
AcDbEntity
  8
RACCORDO
100
AcDbPolyline
 62
253
  6
CONTINUOUS
 90
14
 70
0
 10
6.2705457757
 20
10.3847127823
 10
6.2631183551
 20
10.3880323
 10
6.2555354124
 20
10.3906700002
 10
6.2476889941
 20
10.3926828707
 10
6.2396007028
 20
10.3940653956
 10
6.2312927351
 20
10.3948138559
 10
6.2227875627
 20
10.3949263002
 10
6.2141081
 20
10.3944024513
 10
6.2052760095
 20
10.3932434093
 10
6.1963172265
 20
10.3914523739
 10
6.1872618896
 20
10.3890359436
 10
6.1781367208
 20
10.3860025722
 10
6.1689647162
 20
10.382361215
 10
6.1597708179
 20
10.3781228903
  0
LWPOLYLINE
  5
472
100
AcDbEntity
  8
RACCORDO
100
AcDbPolyline
 62
253
  6
CONTINUOUS
 90
14
 70
0
 10
4.9332196151
 20
11.0533758626
 10
4.9257921945
 20
11.0566953803
 10
4.9182092519
 20
11.0593330804
 10
4.9103628336
 20
11.061345951
 10
4.9022745423
 20
11.0627284759
 10
4.8939665745
 20
11.0634769362
 10
4.8854614021
 20
11.0635893805
 10
4.8767819394
 20
11.0630655316
 10
4.8679498489
 20
11.0619064896
 10
4.8589910659
 20
11.0601154542
 10
4.849935729
 20
11.0576990239
 10
4.8408105602
 20
11.0546656524
 10
4.8316385557
 20
11.0510242952
 10
4.8224446573
 20
11.0467859706
  0
LWPOLYLINE
  5
473
100
AcDbEntity
  8
RACCORDO
100
AcDbPolyline
 62
253
  6
CONTINUOUS
 90
15
 70
0
 10
2.7052381755
 20
9.9744544067
 10
2.6959323026
 20
9.9787577096
 10
2.6866547472
 20
9.9824569762
 10
2.6774309488
 20
9.9855420593
 10
2.6682861913
 20
9.9880044976
 10
2.6592455593
 20
9.9898375318
 10
2.6503338691
 20
9.9910361291
 10
2.6415755623
 20
9.9915970042
 10
2.6329946484
 20
9.9915186217
 10
2.624614664
 20
9.9908011988
 10
2.6164585878
 20
9.9894467065
 10
2.6085487811
 20
9.9874588619
 10
2.6009069344
 20
9.9848431201
 10
2.5935539915
 20
9.9816066531
 10
2.5921596673
 20
9.9809060536
  0
LWPOLYLINE
  5
474
100
AcDbEntity
  8
RACCORDO
100
AcDbPolyline
 62
253
  6
CONTINUOUS
 90
15
 70
0
 10
-10.6590799889
 20
16.6566134889
 10
-10.6683838226
 20
16.6609159136
 10
-10.6776593374
 20
16.6646145623
 10
-10.686881111
 20
16.6676992977
 10
-10.6960238681
 20
16.6701616651
 10
-10.7050625503
 20
16.6719949157
 10
-10.7139723841
 20
16.6731940247
 10
-10.7227289494
 20
16.6737557057
 10
-10.7313082461
 20
16.6736784193
 10
-10.7396867599
 20
16.6729623772
 10
-10.7478415269
 20
16.6716095421
 10
-10.7557501965
 20
16.6696236216
 10
-10.7633910923
 20
16.667010059
 10
-10.7707432723
 20
16.6637760175
 10
-10.7721656551
 20
16.6630614641
  0
LWPOLYLINE
  5
475
100
AcDbEntity
  8
RACCORDO
100
AcDbPolyline
 62
7
  6
CONTINUOUS
 90
18
 70
0
 10
-8.4310985475
 20
17.7355349439
 10
-8.4433043598
 20
17.7412321315
 10
-8.4559266385
 20
17.7463109395
 10
-8.4689268283
 20
17.7507328402
 10
-8.4822814096
 20
17.7544671129
 10
-8.4959243974
 20
17.7574746993
 10
-8.5097486869
 20
17.7597201182
 10
-8.5236798209
 20
17.7611880703
 10
-8.5376885096
 20
17.7618737801
 10
-8.5517380061
 20
17.7617719455
 10
-8.5657703184
 20
17.760880024
 10
-8.5797428645
 20
17.75919874
 10
-8.5936487237
 20
17.7567234987
 10
-8.6074936297
 20
17.7534398727
 10
-8.6211758884
 20
17.749358536
 10
-8.6345468181
 20
17.7445248304
 10
-8.6475695392
 20
17.7389627137
 10
-8.6523922576
 20
17.7366766093
  0
LWPOLYLINE
  5
476
100
AcDbEntity
  8
RACCORDO
100
AcDbPolyline
 62
7
  6
CONTINUOUS
 90
16
 70
0
 10
4.2879947786
 20
10.786438504
 10
4.2795837032
 20
10.7903989879
 10
4.2711914856
 20
10.7938599666
 10
4.2628372379
 20
10.7968136504
 10
4.2545400639
 20
10.7992534385
 10
4.2463187655
 20
10.8011738047
 10
4.2381917997
 20
10.80257031
 10
4.2301776344
 20
10.8034398186
 10
4.222294515
 20
10.8037804052
 10
4.2145601728
 20
10.8035912298
 10
4.2069921653
 20
10.802872738
 10
4.1996077083
 20
10.8016265923
 10
4.1924234458
 20
10.7998555697
 10
4.1854556671
 20
10.7975636884
 10
4.1787202079
 20
10.7947561653
 10
4.1770625898
 20
10.7939686619
  0
LWPOLYLINE
  5
477
100
AcDbEntity
  8
RACCORDO
100
AcDbPolyline
 62
7
  6
CONTINUOUS
 90
16
 70
0
 10
-9.0763233858
 20
17.4685975863
 10
-9.0847344612
 20
17.4725580701
 10
-9.0931266788
 20
17.4760190489
 10
-9.1014809265
 20
17.4789727326
 10
-9.1097781005
 20
17.4814125207
 10
-9.1179993989
 20
17.4833328869
 10
-9.1261263647
 20
17.4847293922
 10
-9.1341405301
 20
17.4855989009
 10
-9.1420236494
 20
17.4859394874
 10
-9.1497579916
 20
17.485750312
 10
-9.1573259992
 20
17.4850318202
 10
-9.1647104561
 20
17.4837856745
 10
-9.1718947186
 20
17.4820146519
 10
-9.1788624973
 20
17.4797227706
 10
-9.1855979565
 20
17.4769152475
 10
-9.1872555746
 20
17.4761277441
  0
LWPOLYLINE
  5
478
100
AcDbEntity
  8
RACCORDO
100
AcDbPolyline
 62
253
  6
CONTINUOUS
 90
14
 70
0
 10
4.8224446573
 20
11.0467859706
 10
4.8132456477
 20
11.0511408073
 10
4.804069032
 20
11.0548889056
 10
4.7949399617
 20
11.0580199926
 10
4.7858834579
 20
11.0605254867
 10
4.7769243427
 20
11.0623985207
 10
4.7680871714
 20
11.063633961
 10
4.7593961649
 20
11.0642284215
 10
4.7508751439
 20
11.0641802728
 10
4.7425474626
 20
11.0634896471
 10
4.7344359459
 20
11.062158437
 10
4.7265628257
 20
11.0601902913
 10
4.7189496809
 20
11.0575906042
 10
4.7119325462
 20
11.0545207617
  0
LWPOLYLINE
  5
479
100
AcDbEntity
  8
RACCORDO
100
AcDbPolyline
 62
253
  6
CONTINUOUS
 90
14
 70
0
 10
-8.5418735071
 20
17.7289450528
 10
-8.5510506146
 20
17.7332902298
 10
-8.5602112331
 20
17.7370337403
 10
-8.5693302777
 20
17.7401642122
 10
-8.5783845829
 20
17.7426723774
 10
-8.5873472732
 20
17.7445494638
 10
-8.5961880611
 20
17.7457885537
 10
-8.6048808196
 20
17.7463861893
 10
-8.6134036623
 20
17.7463410737
 10
-8.6217334542
 20
17.7456533035
 10
-8.6298474962
 20
17.7443246797
 10
-8.6377233594
 20
17.7423588001
 10
-8.6453392033
 20
17.7397610904
 10
-8.6523856177
 20
17.7366798441
  0
LWPOLYLINE
  5
47A
100
AcDbEntity
  8
RACCORDO
100
AcDbPolyline
 62
253
  6
CONTINUOUS
 90
31
 70
0
 10
-9.5098435651
 20
15.3497703999
 10
-9.5003845948
 20
15.3452814375
 10
-9.4904703184
 20
15.341045213
 10
-9.4801277146
 20
15.3370732542
 10
-9.4693849442
 20
15.3333763748
 10
-9.458271225
 20
15.3299646287
 10
-9.4468167476
 20
15.3268472867
 10
-9.4350526422
 20
15.3240328278
 10
-9.4230109519
 20
15.3215289249
 10
-9.4107244976
 20
15.3193424052
 10
-9.3982267332
 20
15.3174792213
 10
-9.3855516504
 20
15.3159444401
 10
-9.372733742
 20
15.3147422381
 10
-9.3598078786
 20
15.3138758863
 10
-9.3468092455
 20
15.3133477433
 10
-9.3337732472
 20
15.3131592465
 10
-9.3207353793
 20
15.3133109058
 10
-9.3077311001
 20
15.3138023055
 10
-9.2947957656
 20
15.3146321081
 10
-9.28196446
 20
15.3157980679
 10
-9.2692722188
 20
15.3172970058
 10
-9.2567538897
 20
15.3191247933
 10
-9.2444437254
 20
15.321276394
 10
-9.2323749946
 20
15.3237459573
 10
-9.2205802237
 20
15.3265268139
 10
-9.2090903612
 20
15.329611724
 10
-9.1979378794
 20
15.3329920276
 10
-9.1871560695
 20
15.3366574688
 10
-9.1767748804
 20
15.3405974667
 10
-9.1668211683
 20
15.3448014143
 10
-9.1573216054
 20
15.3492576761
  0
LWPOLYLINE
  5
47B
100
AcDbEntity
  8
RACCORDO
100
AcDbPolyline
 62
253
  6
CONTINUOUS
 90
31
 70
0
 10
3.8544745993
 20
9.0075852518
 10
3.8639347487
 20
9.0030957584
 10
3.8738503353
 20
8.9988590563
 10
3.8841943731
 20
8.9948866792
 10
3.8949387214
 20
8.9911894375
 10
3.9060541269
 20
8.9877774013
 10
3.9175103004
 20
8.9846598691
 10
3.9292760497
 20
8.981845328
 10
3.9413193571
 20
8.9793414356
 10
3.9536074296
 20
8.9771550085
 10
3.9661068172
 20
8.9752919966
 10
3.978783499
 20
8.9737574688
 10
3.9916029649
 20
8.9725556004
 10
4.0045303364
 20
8.9716896601
 10
4.0175304116
 20
8.9711620041
 10
4.0305677549
 20
8.9709740667
 10
4.0436068263
 20
8.971126352
 10
4.0566121912
 20
8.9716184378
 10
4.0695485656
 20
8.9724489875
 10
4.0823809047
 20
8.9736157606
 10
4.0950741118
 20
8.9751155753
 10
4.1075932611
 20
8.976944292
 10
4.1199040577
 20
8.9790968614
 10
4.1319732625
 20
8.9815674314
 10
4.1437683803
 20
8.9843493353
 10
4.1552598028
 20
8.9874357145
 10
4.1664136193
 20
8.9908175892
 10
4.1771927749
 20
8.9944833483
 10
4.1875665409
 20
8.9984216341
 10
4.1975098449
 20
9.0026219867
 10
4.206996559
 20
9.007072528
  0
LWPOLYLINE
  5
47C
100
AcDbEntity
  8
RACCORDO
100
AcDbPolyline
 62
253
  6
CONTINUOUS
 90
31
 70
0
 10
-9.5098435651
 20
15.689744334
 10
-9.500408154
 20
15.6852659834
 10
-9.4905133615
 20
15.6810365924
 10
-9.4801852034
 20
15.6770681034
 10
-9.4694487149
 20
15.6733710567
 10
-9.4583344556
 20
15.6699568619
 10
-9.4468791668
 20
15.666837173
 10
-9.4351165794
 20
15.6640210513
 10
-9.4230762918
 20
15.6615154617
 10
-9.4107907437
 20
15.659327169
 10
-9.3982931219
 20
15.6574621219
 10
-9.385617648
 20
15.6559254645
 10
-9.3727991769
 20
15.6547214345
 10
-9.3598727594
 20
15.6538533147
 10
-9.3468734204
 20
15.6533234481
 10
-9.3338364282
 20
15.6531332739
 10
-9.3207972121
 20
15.653283317
 10
-9.3077913157
 20
15.6537731763
 10
-9.2948541872
 20
15.6546015208
 10
-9.2820210538
 20
15.6557660965
 10
-9.2693268315
 20
15.6572637366
 10
-9.256806078
 20
15.6590903661
 10
-9.2444928717
 20
15.6612410151
 10
-9.2324207307
 20
15.6637098314
 10
-9.2206225259
 20
15.666490094
 10
-9.209130363
 20
15.6695742386
 10
-9.1979755316
 20
15.6729538692
 10
-9.1871884271
 20
15.6766197762
 10
-9.1767984182
 20
15.6805619752
 10
-9.1668337712
 20
15.6847697381
 10
-9.1573216054
 20
15.6892316102
  0
LWPOLYLINE
  5
47D
100
AcDbEntity
  8
RACCORDO
100
AcDbPolyline
 62
7
  6
CONTINUOUS
 90
10
 70
0
 10
-12.008993345
 20
16.496613488
 10
-12.0019645737
 20
16.493235094
 10
-11.9948196509
 20
16.4900715498
 10
-11.9875664551
 20
16.4871278435
 10
-11.9802105402
 20
16.4844076886
 10
-11.9727630192
 20
16.4819164658
 10
-11.9652401102
 20
16.4796601578
 10
-11.95765266
 20
16.477641927
 10
-11.9500065836
 20
16.4758631646
 10
-11.4094813841
 20
16.3611988373
  0
LWPOLYLINE
  5
47E
100
AcDbEntity
  8
RACCORDO
100
AcDbPolyline
 62
7
  6
CONTINUOUS
 90
10
 70
0
 10
-25.3733115094
 20
23.1787725702
 10
-25.3662827382
 20
23.1753941762
 10
-25.3591378153
 20
23.172230632
 10
-25.3518846196
 20
23.1692869257
 10
-25.3445287046
 20
23.1665667708
 10
-25.3370811837
 20
23.164075548
 10
-25.3295582746
 20
23.16181924
 10
-25.3219708244
 20
23.1598010092
 10
-25.314324748
 20
23.1580222468
 10
-24.7737995486
 20
23.0433579195
  0
LINE
  5
47F
100
AcDbEntity
  8
RACCORDO
100
AcDbLine
 62
253
  6
CONTINUOUS
 10
-23.0054059317
 20
25.0207943268
 11
-23.0052482608
 21
25.0207157394
  0
LINE
  5
480
100
AcDbEntity
  8
RACCORDO
100
AcDbLine
 62
253
  6
CONTINUOUS
 10
-12.0739666414
 20
16.9491007385
 11
-13.3618739931
 21
17.5930544143
  0
LINE
  5
481
100
AcDbEntity
  8
RACCORDO
100
AcDbLine
 62
253
  6
CONTINUOUS
 10
-25.4382848059
 20
23.6312598207
 11
-26.7261921575
 21
24.2752134965
  0
LINE
  5
482
100
AcDbEntity
  8
RACCORDO
100
AcDbLine
 62
253
  6
CONTINUOUS
 10
3.8544745993
 20
9.0075852518
 11
2.5294899195
 21
9.6700775917
  0
LINE
  5
483
100
AcDbEntity
  8
RACCORDO
100
AcDbLine
 62
253
  6
CONTINUOUS
 10
-9.5098435651
 20
15.689744334
 11
-10.8348282449
 21
16.352236674
  0
LINE
  5
484
100
AcDbEntity
  8
DRAFT
100
AcDbLine
 62
7
  6
CONTINUOUS
 10
2.4827536927
 20
9.8704056991
 11
1.3888599674
 21
10.4173525617
  0
LINE
  5
485
100
AcDbEntity
  8
DRAFT
100
AcDbLine
 62
7
  6
CONTINUOUS
 10
-5.3316168102
 20
13.7775909505
 11
-7.5560408146
 21
14.8898029527
  0
LINE
  5
486
100
AcDbEntity
  8
DRAFT
100
AcDbLine
 62
7
  6
CONTINUOUS
 10
-13.3984608907
 20
17.8110129908
 11
-14.5210426093
 21
18.3723038501
  0
LINE
  5
487
100
AcDbEntity
  8
DRAFT
100
AcDbLine
 62
7
  6
CONTINUOUS
 10
-21.2373571303
 20
21.7304611105
 11
-23.4659433913
 21
22.8447542411
  0
LINE
  5
488
100
AcDbEntity
  8
RACCORDO
100
AcDbLine
 62
253
  6
CONTINUOUS
 10
-11.9002751249
 20
17.2524198727
 11
-13.1881824765
 21
17.8963735486
  0
LINE
  5
489
100
AcDbEntity
  8
RACCORDO
100
AcDbLine
 62
253
  6
CONTINUOUS
 10
-25.2645932893
 20
23.9345789549
 11
-26.552500641
 21
24.5785326308
  0
LINE
  5
48A
100
AcDbEntity
  8
RACCORDO
100
AcDbLine
 62
253
  6
CONTINUOUS
 10
4.0302228553
 20
9.3119620668
 11
2.7052381755
 21
9.9744544067
  0
LINE
  5
48B
100
AcDbEntity
  8
RACCORDO
100
AcDbLine
 62
253
  6
CONTINUOUS
 10
-9.3340953091
 20
15.994121149
 11
-10.6590799889
 21
16.6566134889
  0
LINE
  5
48C
100
AcDbEntity
  8
RACCORDO
100
AcDbLine
 62
253
  6
CONTINUOUS
 10
0.3261368988
 20
11.2768041574
 11
-5.1851702008
 21
14.0324577072
  0
LINE
  5
48D
100
AcDbEntity
  8
RACCORDO
100
AcDbLine
 62
7
  6
CONTINUOUS
 10
-15.5879279346
 20
19.3959587672
 11
-21.0909105208
 21
22.1474500603
  0
LINE
  5
48E
100
AcDbEntity
  8
RACCORDO
100
AcDbLine
 62
253
  6
CONTINUOUS
 10
0.7489592787
 20
11.3791937219
 11
-5.3267953711
 21
14.4170710467
  0
LINE
  5
48F
100
AcDbEntity
  8
RACCORDO
100
AcDbLine
 62
7
  6
CONTINUOUS
 10
-7.5560408146
 20
15.5893520447
 11
-6.1479980796
 21
14.8853306772
  0
LINE
  5
490
100
AcDbEntity
  8
RACCORDO
100
AcDbLine
 62
7
  6
CONTINUOUS
 10
5.8082773498
 20
8.9071929625
 11
6.5152764209
 21
8.553693427
  0
LINE
  5
491
100
AcDbEntity
  8
RACCORDO
100
AcDbLine
 62
7
  6
CONTINUOUS
 10
-22.0516221249
 20
22.8371426999
 11
-23.4659433913
 21
23.5443033331
  0
LINE
  5
492
100
AcDbEntity
  8
DRAFT
100
AcDbLine
 62
7
  6
CONTINUOUS
 10
-7.5560408146
 20
15.5969097339
 11
-7.0257107287
 21
15.331744691
  0
LINE
  5
493
100
AcDbEntity
  8
DRAFT
100
AcDbLine
 62
7
  6
CONTINUOUS
 10
-4.833679707
 20
14.7410579642
 11
1.3888599674
 21
11.629788127
  0
LINE
  5
494
100
AcDbEntity
  8
DRAFT
100
AcDbLine
 62
7
  6
CONTINUOUS
 10
-14.5210426093
 20
19.5847394154
 11
-20.7435822837
 21
22.6960092526
  0
LINE
  5
495
100
AcDbEntity
  8
RACCORDO
100
AcDbLine
 62
7
  6
CONTINUOUS
 10
-11.6219115375
 20
18.7413916621
 11
-10.2783951911
 21
18.0696334889
  0
LINE
  5
496
100
AcDbEntity
  8
RACCORDO
100
AcDbLine
 62
7
  6
CONTINUOUS
 10
-9.0763233858
 20
17.4685975863
 11
-7.7328145183
 21
16.7968431525
  0
LINE
  5
497
100
AcDbEntity
  8
RACCORDO
100
AcDbLine
 62
7
  6
CONTINUOUS
 10
4.2879947786
 20
10.786438504
 11
5.6315036461
 21
10.1146840703
  0
LINE
  5
498
100
AcDbEntity
  8
RACCORDO
100
AcDbLine
 62
7
  6
CONTINUOUS
 10
-23.6427133555
 20
24.7517925711
 11
-24.986229702
 21
25.4235507444
  0
LINE
  5
499
100
AcDbEntity
  8
DRAFT
100
AcDbLine
 62
7
  6
CONTINUOUS
 10
-19.4000793995
 20
22.7238069024
 11
-14.4503319312
 21
20.2489331683
  0
LINE
  5
49A
100
AcDbEntity
  8
DRAFT
100
AcDbLine
 62
7
  6
CONTINUOUS
 10
1.4595706455
 20
12.2965011807
 11
-3.4901768228
 21
14.7713749149
  0
LINE
  5
49B
100
AcDbEntity
  8
RACCORDO
100
AcDbLine
 62
253
  6
CONTINUOUS
 10
-9.7511640401
 20
18.3322058924
 11
-11.0853972205
 21
18.9993224826
  0
LINE
  5
49C
100
AcDbEntity
  8
RACCORDO
100
AcDbLine
 62
253
  6
CONTINUOUS
 10
-23.1154822045
 20
25.0143649746
 11
-24.4497153849
 21
25.6814815648
  0
LINE
  5
49D
100
AcDbEntity
  8
RACCORDO
100
AcDbLine
 62
253
  6
CONTINUOUS
 10
-8.5418735071
 20
17.7289450528
 11
-7.2045473465
 21
17.0602819725
  0
LINE
  5
49E
100
AcDbEntity
  8
RACCORDO
100
AcDbLine
 62
253
  6
CONTINUOUS
 10
4.8224446573
 20
11.0467859706
 11
6.1597708179
 21
10.3781228903
  0
LINE
  5
49F
100
AcDbEntity
  8
RACCORDO
100
AcDbLine
 62
7
  6
CONTINUOUS
 10
-9.6409032893
 20
18.338543259
 11
-10.9751364698
 21
19.0056598493
  0
LINE
  5
4A0
100
AcDbEntity
  8
RACCORDO
100
AcDbLine
 62
7
  6
CONTINUOUS
 10
-23.0052214538
 20
25.0207023413
 11
-24.3394546342
 21
25.6878189315
  0
LINE
  5
4A1
100
AcDbEntity
  8
RACCORDO
100
AcDbLine
 62
7
  6
CONTINUOUS
 10
-8.4310985475
 20
17.7355349439
 11
-7.093772387
 21
17.0668718637
  0
LINE
  5
4A2
100
AcDbEntity
  8
RACCORDO
100
AcDbLine
 62
7
  6
CONTINUOUS
 10
4.9332196169
 20
11.0533758617
 11
6.2705457774
 21
10.3847127814
  0
LWPOLYLINE
  5
4A3
100
AcDbEntity
  8
RACCORDO
100
AcDbPolyline
 62
253
  6
CONTINUOUS
 90
16
 70
0
 10
2.5294899195
 20
9.6700775917
 10
2.5205128523
 20
9.6748066008
 10
2.5120411597
 20
9.6797632193
 10
2.5040978903
 20
9.6849339619
 10
2.4967046553
 20
9.6903047607
 10
2.489881569
 20
9.6958610035
 10
2.483647195
 20
9.7015875737
 10
2.4780184948
 20
9.7074688911
 10
2.4730107824
 20
9.7134889547
 10
2.4686376819
 20
9.7196313857
 10
2.4649110912
 20
9.7258794727
 10
2.4618411492
 20
9.7322162167
 10
2.4594362081
 20
9.7386243776
 10
2.4577028109
 20
9.7450865208
 10
2.4566456737
 20
9.7515850649
 10
2.4562666148
 20
9.7584659394
  0
LWPOLYLINE
  5
4A4
100
AcDbEntity
  8
RACCORDO
100
AcDbPolyline
 62
7
  6
CONTINUOUS
 90
10
 70
0
 10
-23.0054059317
 20
25.0207943268
 10
-22.9940075316
 20
25.0147344487
 10
-22.9669235831
 20
24.9970195513
 10
-22.9422941728
 20
24.9758948245
 10
-22.920543964
 20
24.9516764621
 10
-22.9020370973
 20
24.9246896854
 10
-22.887133591
 20
24.8953299968
 10
-22.8761735954
 20
24.864107955
 10
-22.8694155191
 20
24.8315863825
 10
-22.867025011
 20
24.797236226
  0
LWPOLYLINE
  5
4A5
100
AcDbEntity
  8
RACCORDO
100
AcDbPolyline
 62
7
  6
CONTINUOUS
 90
22
 70
0
 10
6.2705521195
 20
10.3847096101
 10
6.2818209181
 20
10.3787103796
 10
6.2928998968
 20
10.3720603871
 10
6.3036297432
 20
10.3648402507
 10
6.3139813964
 20
10.3570673251
 10
6.3239341472
 20
10.3487537377
 10
6.3334603331
 20
10.3399177181
 10
6.3425297896
 20
10.3305821989
 10
6.3511180099
 20
10.3207669259
 10
6.3591989296
 20
10.3104953111
 10
6.366746444
 20
10.2997937941
 10
6.3737371171
 20
10.2886883587
 10
6.3801479315
 20
10.2772075819
 10
6.3859573795
 20
10.2653813085
 10
6.391146041
 20
10.2532392442
 10
6.3956958873
 20
10.24081191
 10
6.3995891356
 20
10.2281346312
 10
6.4028096623
 20
10.2152461815
 10
6.4053447347
 20
10.2021824729
 10
6.4071835852
 20
10.1889801082
 10
6.4083171855
 20
10.1756804737
 10
6.4087423786
 20
10.1611056343
  0
LWPOLYLINE
  5
4A6
100
AcDbEntity
  8
RACCORDO
100
AcDbPolyline
 62
7
  6
CONTINUOUS
 90
22
 70
0
 10
-7.093772387
 20
17.0668718637
 10
-7.0821158211
 20
17.0606532793
 10
-7.0707604384
 20
17.0537996734
 10
-7.0597495929
 20
17.0463284093
 10
-7.0491210308
 20
17.0382571415
 10
-7.0389195422
 20
17.0296133859
 10
-7.0291946184
 20
17.0204364061
 10
-7.0200200999
 20
17.010803382
 10
-7.0113818308
 20
17.000709366
 10
-7.0032113362
 20
16.9900595804
 10
-6.9955105402
 20
16.9788106023
 10
-6.9883770163
 20
16.9670580156
 10
-6.9818900122
 20
16.9549103733
 10
-6.9760863803
 20
16.9424346813
 10
-6.9709757367
 20
16.9296526624
 10
-6.9665766985
 20
16.9166097059
 10
-6.9629051071
 20
16.9033561766
 10
-6.9599701217
 20
16.8899325879
 10
-6.9577764717
 20
16.876363403
 10
-6.9563306998
 20
16.8626786421
 10
-6.9556400153
 20
16.8489316801
 10
-6.9555757862
 20
16.8432718519
  0
LWPOLYLINE
  5
4A7
100
AcDbEntity
  8
RACCORDO
100
AcDbPolyline
 62
7
  6
CONTINUOUS
 90
37
 70
0
 10
5.8081721085
 20
8.2073244288
 10
5.8230743927
 20
8.1985260204
 10
5.8379788414
 20
8.1889483663
 10
5.8528573816
 20
8.178605246
 10
5.8677017961
 20
8.1675017338
 10
5.8824634756
 20
8.1556635966
 10
5.8970551254
 20
8.143144973
 10
5.9114353983
 20
8.1299815214
 10
5.9255938911
 20
8.1161930472
 10
5.9394926985
 20
8.101820033
 10
5.9530886918
 20
8.0869155804
 10
5.9663794191
 20
8.0714910754
 10
5.9793866452
 20
8.0555213361
 10
5.9920939425
 20
8.0390230071
 10
6.0044684758
 20
8.0220354248
 10
6.0165031849
 20
8.0045612791
 10
6.0281913822
 20
7.9866010782
 10
6.0394886717
 20
7.9682129613
 10
6.0503347138
 20
7.9494895233
 10
6.0607087849
 20
7.9304708344
 10
6.0705948836
 20
7.9111896691
 10
6.0799495892
 20
7.8917340762
 10
6.0887578609
 20
7.8721509739
 10
6.0970131158
 20
7.8524708268
 10
6.104692907
 20
7.832759224
 10
6.1117860663
 20
7.8130707511
 10
6.1182952693
 20
7.7934256869
 10
6.1242213458
 20
7.7738373828
 10
6.1295601995
 20
7.7543435131
 10
6.1343105428
 20
7.7349757179
 10
6.1384747527
 20
7.7157372676
 10
6.1420514272
 20
7.6966545814
 10
6.1450375995
 20
7.6777668759
 10
6.1474314954
 20
7.6590961676
 10
6.149232418
 20
7.6406705704
 10
6.1504416448
 20
7.6225239913
 10
6.1510610987
 20
7.6046863003
  0
LWPOLYLINE
  5
4A8
100
AcDbEntity
  8
RACCORDO
100
AcDbPolyline
 62
253
  6
CONTINUOUS
 90
14
 70
0
 10
6.3365445216
 20
9.7257018348
 10
6.3408876629
 20
9.7183567537
 10
6.3447354719
 20
9.7112692049
 10
6.3480770406
 20
9.7044587359
 10
6.3509030649
 20
9.6979435772
 10
6.3532050648
 20
9.6917424124
 10
6.3549758972
 20
9.6858740278
 10
6.3562106282
 20
9.6803549902
 10
6.3569060911
 20
9.6751997635
 10
6.3570603839
 20
9.6704223119
 10
6.3566730341
 20
9.666035642
 10
6.3557450523
 20
9.6620518469
 10
6.354278976
 20
9.6584819216
 10
6.3522788303
 20
9.6553356437
  0
LINE
  5
4A9
100
AcDbEntity
  8
RACCORDO
100
AcDbLine
 62
253
  6
CONTINUOUS
 10
15.2974998306
 20
22.5668528001
 11
15.2975432115
 21
22.56031042
  0
LINE
  5
4AA
100
AcDbEntity
  8
RACCORDO
100
AcDbLine
 62
7
  6
CONTINUOUS
 10
12.490436432
 20
14.2415928061
 11
12.490436432
 21
14.8131235834
  0
LINE
  5
4AB
100
AcDbEntity
  8
RACCORDO
100
AcDbLine
 62
253
  6
CONTINUOUS
 10
13.69251796
 20
14.8169354697
 11
13.69251796
 21
15.0334012034
  0
LINE
  5
4AC
100
AcDbEntity
  8
RACCORDO
100
AcDbLine
 62
253
  6
CONTINUOUS
 10
14.6330771209
 20
20.8437640059
 11
14.6331151714
 21
20.8499712062
  0
LWPOLYLINE
  5
4AD
100
AcDbEntity
  8
RACCORDO
100
AcDbPolyline
 62
253
  6
CONTINUOUS
 90
12
 70
0
 10
14.6331151714
 20
20.8499712062
 10
14.6343753698
 20
20.8798002401
 10
14.6457051632
 20
20.9558202964
 10
14.6686606625
 20
21.0311469234
 10
14.703144917
 20
21.1053427282
 10
14.7490287386
 20
21.178059823
 10
14.8061143191
 20
21.2488769011
 10
14.8741265961
 20
21.3173656289
 10
14.9527536259
 20
21.3831735872
 10
15.0416145302
 20
21.4459177887
 10
15.1402514536
 20
21.5051894143
 10
15.2481528787
 20
21.5606158567
  0
LWPOLYLINE
  5
4AE
100
AcDbEntity
  8
RACCORDO
100
AcDbPolyline
 62
7
  6
CONTINUOUS
 90
8
 70
0
 10
15.2974898432
 20
22.566941824
 10
15.293278994
 20
22.5119143225
 10
15.2771524759
 20
22.4538413614
 10
15.2488318194
 20
22.3945767713
 10
15.2068725615
 20
22.3323886858
 10
15.1498982267
 20
22.2675980583
 10
15.0788966535
 20
22.2027928484
 10
14.995885281
 20
22.1401506751
  0
LWPOLYLINE
  5
4AF
100
AcDbEntity
  8
RACCORDO
100
AcDbPolyline
 62
253
  6
CONTINUOUS
 90
16
 70
0
 10
-15.9479225405
 20
-24.1758004385
 10
-15.9869317602
 20
-24.1946109143
 10
-16.0292443632
 20
-24.2112930104
 10
-16.0744069988
 20
-24.2256679895
 10
-16.1219357802
 20
-24.2375818335
 10
-16.1713214689
 20
-24.2469068938
 10
-16.2220349309
 20
-24.2535432586
 10
-16.2735328061
 20
-24.2574198237
 10
-16.3252633299
 20
-24.2584950545
 10
-16.376672245
 20
-24.2567574306
 10
-16.4272087399
 20
-24.2522255694
 10
-16.4763313507
 20
-24.2449480267
 10
-16.523513762
 20
-24.2350027764
 10
-16.5682504464
 20
-24.2224963753
 10
-16.6100620809
 20
-24.2075628209
 10
-16.6485006825
 20
-24.1903621159
  0
LWPOLYLINE
  5
4B0
100
AcDbEntity
  8
RACCORDO
100
AcDbPolyline
 62
7
  6
CONTINUOUS
 90
10
 70
0
 10
0.3432887745
 20
14.3327195354
 10
0.4317788898
 20
14.3522016985
 10
0.5222938867
 20
14.3667044528
 10
0.6144317665
 20
14.3763263166
 10
0.7073789212
 20
14.3810826337
 10
0.8004200619
 20
14.381008336
 10
0.8932385359
 20
14.3761115419
 10
0.9851199308
 20
14.3663747183
 10
1.0752666987
 20
14.3517989711
 10
1.1633018343
 20
14.3322991302
  0
LINE
  5
4B1
100
AcDbEntity
  8
0
100
AcDbLine
 62
7
  6
CONTINUOUS
 10
3.9344443797
 20
15.7102993833
 11
2.5745124396
 21
15.6365511959
  0
LWPOLYLINE
  5
4B2
100
AcDbEntity
  8
RACCORDO
100
AcDbPolyline
 62
7
  6
CONTINUOUS
 90
10
 70
0
 10
12.0698745778
 20
15.0747427418
 10
12.100097562
 20
15.0738388397
 10
12.1305725623
 20
15.0714721873
 10
12.1612113486
 20
15.0676148133
 10
12.1920277221
 20
15.0623056925
 10
12.2228046493
 20
15.0554877673
 10
12.2530942763
 20
15.0470083237
 10
12.2827494085
 20
15.0369312996
 10
12.3116670978
 20
15.0252703601
 10
12.3314152893
 20
15.0159655265
  0
LWPOLYLINE
  5
4B3
100
AcDbEntity
  8
RACCORDO
100
AcDbPolyline
 62
7
  6
CONTINUOUS
 90
7
 70
0
 10
-9.5743940759
 20
17.6816853423
 10
-9.554739325
 20
17.677626533
 10
-9.5377104611
 20
17.6753336835
 10
-9.5236807105
 20
17.6746637343
 10
-9.5130080937
 20
17.6751831267
 10
-9.5059782821
 20
17.6769508622
 10
-9.5037665897
 20
17.6786472275
  0
LINE
  5
4B4
100
AcDbEntity
  8
RACCORDO
100
AcDbLine
 62
7
  6
CONTINUOUS
 10
-9.384165099
 20
15.1934365153
 11
-8.7585584053
 21
15.0628151189
  0
LINE
  5
4B5
100
AcDbEntity
  8
RACCORDO
100
AcDbLine
 62
253
  6
CONTINUOUS
 10
-9.1573216054
 20
15.3492576761
 11
-8.4461009973
 21
15.2007541532
  0
LINE
  5
4B6
100
AcDbEntity
  8
RACCORDO
100
AcDbLine
 62
253
  6
CONTINUOUS
 10
-11.7235253535
 20
16.6303028107
 11
-11.1839383216
 21
16.5158393806
  0
LWPOLYLINE
  5
4B7
100
AcDbEntity
  8
RACCORDO
100
AcDbPolyline
 62
7
  6
CONTINUOUS
 90
10
 70
0
 10
-9.384165099
 20
15.1934365153
 10
-9.3917066711
 20
15.1951332899
 10
-9.3992098461
 20
15.1970672581
 10
-9.4066639405
 20
15.1992372726
 10
-9.4140743919
 20
15.2016470538
 10
-9.4214130238
 20
15.2042892175
 10
-9.4286222552
 20
15.2071410679
 10
-9.4356799972
 20
15.2101882542
 10
-9.4425954559
 20
15.2134289354
 10
-9.4448809018
 20
15.2145572672
  0
LWPOLYLINE
  5
4B8
100
AcDbEntity
  8
RACCORDO
100
AcDbPolyline
 62
7
  6
CONTINUOUS
 90
3
 70
0
 10
1.1633018343
 20
14.3322991302
 10
1.2486327657
 20
14.3077630435
 10
1.3303480106
 20
14.2781418766
  0
LWPOLYLINE
  5
4B9
100
AcDbEntity
  8
RACCORDO
100
AcDbPolyline
 62
7
  6
CONTINUOUS
 90
4
 70
0
 10
0.1579169446
 20
14.248783497
 10
0.1670431196
 20
14.2459955548
 10
0.1766697021
 20
14.2423159375
 10
0.1867784394
 20
14.2376953906
  0
LWPOLYLINE
  5
4BA
100
AcDbEntity
  8
RACCORDO
100
AcDbPolyline
 62
7
  6
CONTINUOUS
 90
8
 70
0
 10
-10.9751364698
 20
19.0056598493
 10
-11.003283584
 20
19.0176399535
 10
-11.0331154471
 20
19.0261895856
 10
-11.0641270021
 20
19.0310100219
 10
-11.0958716208
 20
19.031893389
 10
-11.127608203
 20
19.0287230375
 10
-11.1584840827
 20
19.021597255
 10
-11.1883331639
 20
19.0105685652
  0
LWPOLYLINE
  5
4BB
100
AcDbEntity
  8
RACCORDO
100
AcDbPolyline
 62
253
  6
CONTINUOUS
 90
14
 70
0
 10
-7.093772387
 20
17.0668718637
 10
-7.1011704677
 20
17.0701797575
 10
-7.108750685
 20
17.072819411
 10
-7.1165943314
 20
17.0748345229
 10
-7.124680067
 20
17.0762196109
 10
-7.132985893
 20
17.0769709066
 10
-7.1414892122
 20
17.0770863659
 10
-7.1501668897
 20
17.0765656748
 10
-7.1589953166
 20
17.0754102498
 10
-7.1679504735
 20
17.0736232345
 10
-7.1770079964
 20
17.0712094907
 10
-7.1861432429
 20
17.0681755855
 10
-7.1953313589
 20
17.0645297731
 10
-7.2045473465
 20
17.0602819725
  0
LWPOLYLINE
  5
4BC
100
AcDbEntity
  8
RACCORDO
100
AcDbPolyline
 62
253
  6
CONTINUOUS
 90
14
 70
0
 10
-8.4310985475
 20
17.7355349439
 10
-8.4384966283
 20
17.7388428378
 10
-8.4460768456
 20
17.7414824913
 10
-8.453920492
 20
17.7434976032
 10
-8.4620062275
 20
17.7448826912
 10
-8.4703120536
 20
17.7456339869
 10
-8.4788153727
 20
17.7457494462
 10
-8.4874930503
 20
17.7452287551
 10
-8.4963214771
 20
17.7440733301
 10
-8.505276634
 20
17.7422863147
 10
-8.514334157
 20
17.739872571
 10
-8.5234694034
 20
17.7368386658
 10
-8.5326575194
 20
17.7331928534
 10
-8.5418735071
 20
17.7289450528
  0
LINE
  5
4BD
100
AcDbEntity
  8
RACCORDO
100
AcDbLine
 62
7
  6
CONTINUOUS
 10
1.3303480106
 20
14.2781418766
 11
1.4075917908
 21
14.2433758568
  0
LINE
  5
4BE
100
AcDbEntity
  8
RACCORDO
100
AcDbLine
 62
7
  6
CONTINUOUS
 10
-14.5795545661
 20
22.233093165
 11
-14.5023107859
 21
22.1983271451
  0
LWPOLYLINE
  5
4BF
100
AcDbEntity
  8
0
100
AcDbPolyline
 62
7
  6
CONTINUOUS
 90
19
 70
0
 10
-14.3796212531
 20
22.7158335357
 10
-14.4448708275
 20
22.7455987617
 10
-14.5139064212
 20
22.7720851988
 10
-14.5867280342
 20
22.795292847
 10
-14.6639444104
 20
22.8153477813
 10
-14.7449468059
 20
22.8321239267
 10
-14.8279089891
 20
22.8452430583
 10
-14.912875479
 20
22.8546221029
 10
-14.9998017566
 20
22.8603441337
 10
-15.0867280342
 20
22.8622801451
 10
-15.1736543119
 20
22.8603441337
 10
-15.2605805895
 20
22.8546221029
 10
-15.3455470793
 20
22.8452430583
 10
-15.4285092626
 20
22.8321239267
 10
-15.5095116581
 20
22.8153477813
 10
-15.5867280342
 20
22.795292847
 10
-15.6595496473
 20
22.7720851988
 10
-15.728585241
 20
22.7455987617
 10
-15.7938348154
 20
22.7158335357
  0
LWPOLYLINE
  5
4C0
100
AcDbEntity
  8
RACCORDO
100
AcDbPolyline
 62
253
  6
CONTINUOUS
 90
7
 70
0
 10
1.4075917907
 20
14.2433758569
 10
1.4042409565
 20
14.2449491725
 10
1.3888597869
 20
14.2498457391
 10
1.3722687485
 20
14.2515708193
 10
1.3547517186
 20
14.2500948963
 10
1.3366084197
 20
14.245443223
 10
1.3181492893
 20
14.2376953906
  0
LWPOLYLINE
  5
4C1
100
AcDbEntity
  8
RACCORDO
100
AcDbPolyline
 62
253
  6
CONTINUOUS
 90
7
 70
0
 10
-14.502310786
 20
22.1983271452
 10
-14.5056616202
 20
22.1999004609
 10
-14.5210427898
 20
22.2047970275
 10
-14.5376338282
 20
22.2065221076
 10
-14.5551508581
 20
22.2050461846
 10
-14.573294157
 20
22.2003945114
 10
-14.5917532874
 20
22.1926466789
  0
LINE
  5
4C2
100
AcDbEntity
  8
RACCORDO
100
AcDbLine
 62
7
  6
CONTINUOUS
 10
-24.3473746824
 20
25.6916064879
 11
-24.3392957665
 21
25.6877393094
  0
LWPOLYLINE
  5
4C3
100
AcDbEntity
  8
0
100
AcDbPolyline
 62
7
  6
CONTINUOUS
 90
40
 70
0
 10
1.5302813236
 20
14.7608822474
 10
1.5011549033
 20
14.7748644735
 10
1.4710289954
 20
14.7882092602
 10
1.4399036
 20
14.8009166074
 10
1.4077250201
 20
14.8130050776
 10
1.3745469527
 20
14.8244561083
 10
1.3405304885
 20
14.8352140122
 10
1.305671527
 20
14.8452754068
 10
1.2699741687
 20
14.8546436746
 10
1.2336118056
 20
14.8632732758
 10
1.1965815328
 20
14.8711605722
 10
1.1588862552
 20
14.878309202
 10
1.1207080798
 20
14.8846845403
 10
1.0820441944
 20
14.8902829082
 10
1.0428974112
 20
14.8951079847
 10
1.0034582726
 20
14.899136181
 10
0.9637254565
 20
14.9023635779
 10
0.9237002852
 20
14.9047940947
 10
0.8835772682
 20
14.906415901
 10
0.8433560142
 20
14.9072250522
 10
0.8030369146
 20
14.9072254929
 10
0.7628156532
 20
14.9064172268
 10
0.7226927065
 20
14.9047963224
 10
0.6826675981
 20
14.9023667113
 10
0.6429345823
 20
14.8991401917
 10
0.6034950801
 20
14.8951128897
 10
0.5643476706
 20
14.8902886794
 10
0.5256823451
 20
14.8846909815
 10
0.4875014483
 20
14.878316036
 10
0.4498026357
 20
14.8711676029
 10
0.4127688644
 20
14.8632803836
 10
0.3764033686
 20
14.8546507869
 10
0.3407029142
 20
14.8452824039
 10
0.305840756
 20
14.8352207104
 10
0.2718209708
 20
14.824462336
 10
0.2386394818
 20
14.813010651
 10
0.2064573139
 20
14.8009212411
 10
0.175328142
 20
14.7882126348
 10
0.1451982911
 20
14.7748663036
 10
0.1160677613
 20
14.7608822474
  0
LWPOLYLINE
  5
4C4
100
AcDbEntity
  8
RACCORDO
100
AcDbPolyline
 62
253
  6
CONTINUOUS
 90
55
 70
0
 10
1.3181492893
 20
14.2376953906
 10
1.3014320137
 20
14.2458130163
 10
1.2842799104
 20
14.2536715072
 10
1.2666929793
 20
14.2612708635
 10
1.2486556193
 20
14.2686170693
 10
1.2301834315
 20
14.2757041403
 10
1.2113232192
 20
14.282514124
 10
1.1920739882
 20
14.2890463214
 10
1.1724367328
 20
14.2953014314
 10
1.1524612385
 20
14.3012635976
 10
1.13214665
 20
14.3069320759
 10
1.1114938226
 20
14.3123076104
 10
1.0905551082
 20
14.3173765776
 10
1.0693297816
 20
14.3221381997
 10
1.0478185679
 20
14.3265932545
 10
1.0260759939
 20
14.3307304516
 10
1.004101473
 20
14.3345489847
 10
0.9818955918
 20
14.3380496601
 10
0.9595146373
 20
14.3412236065
 10
0.9369581656
 20
14.3440699952
 10
0.9142266206
 20
14.346589655
 10
0.8913776212
 20
14.3487762012
 10
0.8684108694
 20
14.3506287887
 10
0.8453266632
 20
14.3521482627
 10
0.8221835145
 20
14.3533307736
 10
0.7989812741
 20
14.3541754666
 10
0.7757200913
 20
14.3546831964
 10
0.7524589261
 20
14.3548526781
 10
0.7291977788
 20
14.3546830535
 10
0.7059366492
 20
14.3541751806
 10
0.6827344967
 20
14.3533303485
 10
0.6595914711
 20
14.3521477025
 10
0.6365074226
 20
14.3506280972
 10
0.6135408614
 20
14.348775386
 10
0.5906920857
 20
14.346588724
 10
0.5679607972
 20
14.344068956
 10
0.5454046116
 20
14.3412224705
 10
0.5230239731
 20
14.3380484385
 10
0.5008184375
 20
14.3345476889
 10
0.4788442874
 20
14.3307290963
 10
0.4571021098
 20
14.3265918544
 10
0.4355913177
 20
14.3221367695
 10
0.4143664324
 20
14.3173751348
 10
0.3934281793
 20
14.3123061729
 10
0.372775833
 20
14.3069306612
 10
0.3524617388
 20
14.301262226
 10
0.3324867548
 20
14.2953001242
 10
0.3128500228
 20
14.2890450988
 10
0.2936013137
 20
14.2825130051
 10
0.2747416118
 20
14.2757031402
 10
0.2562699327
 20
14.268616207
 10
0.2382330942
 20
14.2612701691
 10
0.2206467021
 20
14.2536710143
 10
0.2034951505
 20
14.2458127548
 10
0.1867784394
 20
14.2376953906
  0
LWPOLYLINE
  5
4C5
100
AcDbEntity
  8
RACCORDO
100
AcDbPolyline
 62
253
  6
CONTINUOUS
 90
55
 70
0
 10
-14.5917532874
 20
22.1926466789
 10
-14.608470563
 20
22.2007643046
 10
-14.6256226663
 20
22.2086227956
 10
-14.6432095974
 20
22.2162221518
 10
-14.6612469574
 20
22.2235683576
 10
-14.6797191452
 20
22.2306554287
 10
-14.6985793575
 20
22.2374654123
 10
-14.7178285884
 20
22.2439976097
 10
-14.7374658439
 20
22.2502527197
 10
-14.7574413382
 20
22.256214886
 10
-14.7777559267
 20
22.2618833642
 10
-14.7984087541
 20
22.2672588988
 10
-14.8193474685
 20
22.2723278659
 10
-14.8405727951
 20
22.2770894881
 10
-14.8620840088
 20
22.2815445429
 10
-14.8838265828
 20
22.28568174
 10
-14.9058011037
 20
22.289500273
 10
-14.9280069849
 20
22.2930009484
 10
-14.9503879394
 20
22.2961748949
 10
-14.9729444111
 20
22.2990212836
 10
-14.9956759561
 20
22.3015409433
 10
-15.0185249555
 20
22.3037274895
 10
-15.0414917073
 20
22.3055800771
 10
-15.0645759135
 20
22.3070995511
 10
-15.0877190622
 20
22.3082820619
 10
-15.1109213026
 20
22.3091267549
 10
-15.1341824854
 20
22.3096344848
 10
-15.1574436506
 20
22.3098039664
 10
-15.1807047979
 20
22.3096343418
 10
-15.2039659275
 20
22.3091264689
 10
-15.22716808
 20
22.3082816369
 10
-15.2503111056
 20
22.3070989908
 10
-15.2733951541
 20
22.3055793855
 10
-15.2963617153
 20
22.3037266744
 10
-15.319210491
 20
22.3015400123
 10
-15.3419417795
 20
22.2990202444
 10
-15.3644979651
 20
22.2961737588
 10
-15.3868786036
 20
22.2929997269
 10
-15.4090841391
 20
22.2894989773
 10
-15.4310582893
 20
22.2856803847
 10
-15.4528004669
 20
22.2815431428
 10
-15.474311259
 20
22.2770880578
 10
-15.4955361443
 20
22.2723264232
 10
-15.5164743974
 20
22.2672574612
 10
-15.5371267437
 20
22.2618819496
 10
-15.5574408379
 20
22.2562135144
 10
-15.5774158219
 20
22.2502514126
 10
-15.5970525539
 20
22.2439963872
 10
-15.616301263
 20
22.2374642935
 10
-15.6351609649
 20
22.2306544286
 10
-15.653632644
 20
22.2235674953
 10
-15.6716694825
 20
22.2162214574
 10
-15.6892558746
 20
22.2086223026
 10
-15.7064074262
 20
22.2007640431
 10
-15.7231241373
 20
22.1926466789
  0
LINE
  5
4C6
100
AcDbEntity
  8
RACCORDO
100
AcDbLine
 62
7
  6
CONTINUOUS
 10
0.1867784394
 20
14.2376953906
 11
2.7737326258
 21
12.9442182973
  0
LINE
  5
4C7
100
AcDbEntity
  8
RACCORDO
100
AcDbLine
 62
7
  6
CONTINUOUS
 10
-13.1288907133
 20
20.8955299669
 11
-15.7231241373
 21
22.1926466789
  0
LINE
  5
4C8
100
AcDbEntity
  8
RACCORDO
100
AcDbLine
 62
253
  6
CONTINUOUS
 10
3.3434776879
 20
13.2250311913
 11
1.3181492893
 21
14.2376953906
  0
LINE
  5
4C9
100
AcDbEntity
  8
RACCORDO
100
AcDbLine
 62
253
  6
CONTINUOUS
 10
-12.5570938165
 20
21.1753169434
 11
-14.5917532874
 21
22.1926466789
  0
LINE
  5
4CA
100
AcDbEntity
  8
RACCORDO
100
AcDbLine
 62
7
  6
CONTINUOUS
 10
3.3942411124
 20
13.250051196
 11
1.4075918156
 21
14.2433758444
  0
LINE
  5
4CB
100
AcDbEntity
  8
RACCORDO
100
AcDbLine
 62
7
  6
CONTINUOUS
 10
-12.5061475766
 20
21.2002455405
 11
-14.5023107611
 21
22.1983271327
  0
LINE
  5
4CC
100
AcDbEntity
  8
ASSI
100
AcDbLine
 62
7
  6
CONTINUOUS
 10
1.5302813236
 20
14.7608822474
 11
3.9772463903
 21
13.5373997141
  0
LINE
  5
4CD
100
AcDbEntity
  8
0
100
AcDbLine
 62
7
  6
CONTINUOUS
 10
1.176727933
 20
14.9376589427
 11
0.8231745425
 21
15.114435638
  0
LINE
  5
4CE
100
AcDbEntity
  8
0
100
AcDbLine
 62
7
  6
CONTINUOUS
 10
-11.9210427096
 20
21.486544264
 11
-14.3796212531
 21
22.7158335357
  0
LINE
  5
4CF
100
AcDbEntity
  8
0
100
AcDbLine
 62
7
  6
CONTINUOUS
 10
-14.7331746437
 20
22.892610231
 11
-15.0867280342
 21
23.0693869263
  0
LINE
  5
4D0
100
AcDbEntity
  8
DRAFT
100
AcDbLine
 62
7
  6
CONTINUOUS
 10
-15.0867280342
 20
23.6219451156
 11
-14.7331746437
 21
23.4451684203
  0
LINE
  5
4D1
100
AcDbEntity
  8
DRAFT
100
AcDbLine
 62
7
  6
CONTINUOUS
 10
0.8231745425
 20
15.6669938273
 11
1.176727933
 21
15.490217132
  0
LINE
  5
4D2
100
AcDbEntity
  8
0
100
AcDbLine
 62
7
  6
CONTINUOUS
 10
5.3850620865
 20
14.2312763724
 11
2.5745124396
 21
15.6365511959
  0
LINE
  5
4D3
100
AcDbEntity
  8
0
100
AcDbLine
 62
7
  6
CONTINUOUS
 10
-10.5081570172
 20
22.1778859243
 11
-13.3353901371
 21
23.5915024843
  0
LINE
  5
4D4
100
AcDbEntity
  8
DRAFT
100
AcDbLine
 62
7
  6
CONTINUOUS
 10
12.2271796962
 20
11.282862618
 11
11.539694449
 21
11.6266052416
  0
LINE
  5
4D5
100
AcDbEntity
  8
RACCORDO
100
AcDbLine
 62
253
  6
CONTINUOUS
 10
18.1686110268
 20
19.0759970529
 11
18.1686490773
 21
19.0822042532
  0
LWPOLYLINE
  5
4D6
100
AcDbEntity
  8
RACCORDO
100
AcDbPolyline
 62
253
  6
CONTINUOUS
 90
12
 70
0
 10
18.1686490773
 20
19.0822042532
 10
18.1699092757
 20
19.1120332872
 10
18.1812390691
 20
19.1880533434
 10
18.2041945684
 20
19.2633799704
 10
18.2386788229
 20
19.3375757753
 10
18.2845626445
 20
19.41029287
 10
18.3416482251
 20
19.4811099481
 10
18.409660502
 20
19.5495986759
 10
18.4882875319
 20
19.6154066343
 10
18.5771484362
 20
19.6781508357
 10
18.6757853595
 20
19.7374224614
 10
18.7836867846
 20
19.7928489037
  0
LWPOLYLINE
  5
4D7
100
AcDbEntity
  8
RACCORDO
100
AcDbPolyline
 62
7
  6
CONTINUOUS
 90
8
 70
0
 10
18.8330237491
 20
20.7991748711
 10
18.8288128999
 20
20.7441473696
 10
18.8126863819
 20
20.6860744085
 10
18.7843657254
 20
20.6268098183
 10
18.7424064674
 20
20.5646217328
 10
18.6854321327
 20
20.4998311053
 10
18.6144305594
 20
20.4350258954
 10
18.531419187
 20
20.3723837221
  0
LWPOLYLINE
  5
4D8
100
AcDbEntity
  8
RACCORDO
100
AcDbPolyline
 62
253
  6
CONTINUOUS
 90
31
 70
0
 10
6.3365445216
 20
-31.5739023046
 10
6.3408876629
 20
-31.5616787237
 10
6.3447354719
 20
-31.5492455333
 10
6.3480770406
 20
-31.5366364742
 10
6.3509030649
 20
-31.5238846303
 10
6.3532050648
 20
-31.5110258714
 10
6.3549758972
 20
-31.4980988377
 10
6.3562106282
 20
-31.4851401443
 10
6.3569060911
 20
-31.4721838815
 10
6.3570603839
 20
-31.4592651106
 10
6.3566730341
 20
-31.4464189053
 10
6.3557450523
 20
-31.4336805733
 10
6.354278976
 20
-31.4210852279
 10
6.3522788303
 20
-31.4086673835
 10
6.3497500674
 20
-31.396460843
 10
6.3466995862
 20
-31.3844989184
 10
6.3431357089
 20
-31.3728142654
 10
6.3390681705
 20
-31.361438821
 10
6.3345080893
 20
-31.3504036847
 10
6.3294679247
 20
-31.3397390063
 10
6.3239614401
 20
-31.3294739064
 10
6.3180036759
 20
-31.3196364233
 10
6.3116108955
 20
-31.3102534134
 10
6.3048005687
 20
-31.3013505206
 10
6.2975913308
 20
-31.2929520992
 10
6.2900029014
 20
-31.2850811039
 10
6.2820559913
 20
-31.2777590002
 10
6.2737722744
 20
-31.2710057517
 10
6.2651743638
 20
-31.2648397946
 10
6.2562857551
 20
-31.25927798
 10
6.2471307262
 20
-31.2543354986
  0
LWPOLYLINE
  5
4D9
100
AcDbEntity
  8
ASSI
100
AcDbPolyline
 62
7
  6
CONTINUOUS
 90
16
 70
0
 10
0.5534748902
 20
17.3608435346
 10
0.5656304805
 20
17.3642078078
 10
0.5783632243
 20
17.3668105611
 10
0.5916668801
 20
17.3686352156
 10
0.605541475
 20
17.3696790833
 10
0.6199694097
 20
17.3699107783
 10
0.6349130976
 20
17.3692719397
 10
0.6503540278
 20
17.3677401756
 10
0.6662770821
 20
17.3653070134
 10
0.6826437485
 20
17.3619377735
 10
0.6993944014
 20
17.3576280742
 10
0.7165408605
 20
17.3523564453
 10
0.7341523348
 20
17.3460582446
 10
0.7522128908
 20
17.3387160095
 10
0.7706876839
 20
17.330309094
 10
0.778254062
 20
17.3266051808
  0
LWPOLYLINE
  5
4DA
100
AcDbEntity
  8
RACCORDO
100
AcDbPolyline
 62
7
  6
CONTINUOUS
 90
10
 70
0
 10
-28.2984824353
 20
11.3328429292
 10
-28.2785231263
 20
11.3381399683
 10
-28.257758717
 20
11.3414627146
 10
-28.2364543646
 20
11.3427682394
 10
-28.2146031708
 20
11.3420304962
 10
-28.192212244
 20
11.3392754335
 10
-28.1695677448
 20
11.3345381183
 10
-28.1467650995
 20
11.3278302209
 10
-28.1237089956
 20
11.3191400179
 10
-28.1003994616
 20
11.3084674961
  0
LINE
  5
4DB
100
AcDbEntity
  8
RACCORDO
100
AcDbLine
 62
253
  6
CONTINUOUS
 10
-25.087843518
 20
23.3124618929
 11
-24.548256486
 21
23.1979984628
  0
LWPOLYLINE
  5
4DC
100
AcDbEntity
  8
RACCORDO
100
AcDbPolyline
 62
7
  6
CONTINUOUS
 90
3
 70
0
 10
-14.7466007424
 20
22.2872504186
 10
-14.661269811
 20
22.2627143318
 10
-14.5795545661
 20
22.233093165
  0
LWPOLYLINE
  5
4DD
100
AcDbEntity
  8
RACCORDO
100
AcDbPolyline
 62
7
  6
CONTINUOUS
 90
5
 70
0
 10
-9.0913961083
 20
22.2425269134
 10
-9.0996392283
 20
22.2450213777
 10
-9.1106234444
 20
22.2457707453
 10
-9.124302281
 20
22.2449702083
 10
-9.1405495869
 20
22.2426270222
  0
LWPOLYLINE
  5
4DE
100
AcDbEntity
  8
RACCORDO
100
AcDbPolyline
 62
7
  6
CONTINUOUS
 90
4
 70
0
 10
-15.7519856321
 20
22.2037347854
 10
-15.7428594571
 20
22.2009468432
 10
-15.7332328746
 20
22.1972672258
 10
-15.7231241373
 20
22.1926466789
  0
LWPOLYLINE
  5
4DF
100
AcDbEntity
  8
ASSI
100
AcDbPolyline
 62
7
  6
CONTINUOUS
 90
16
 70
0
 10
1.2754879012
 20
17.0779881911
 10
1.273741321
 20
17.0787486677
 10
1.2695522672
 20
17.0799355173
 10
1.2646091134
 20
17.080637526
 10
1.258951705
 20
17.0808730377
 10
1.2526161875
 20
17.0806493782
 10
1.2456006611
 20
17.079996757
 10
1.2379137185
 20
17.0789256635
 10
1.2295983026
 20
17.0774499045
 10
1.2206959368
 20
17.0756048284
 10
1.2112372436
 20
17.0733916463
 10
1.2012545482
 20
17.0708259335
 10
1.1907980841
 20
17.0679613817
 10
1.179908814
 20
17.0648183684
 10
1.1686149607
 20
17.0613851584
 10
1.1569501651
 20
17.0576647795
  0
LWPOLYLINE
  5
4E0
100
AcDbEntity
  8
ASSI
100
AcDbPolyline
 62
7
  6
CONTINUOUS
 90
16
 70
0
 10
6.8304724506
 20
14.3004959124
 10
6.8290145772
 20
14.3011434056
 10
6.8249002187
 20
14.3023646608
 10
6.8200362446
 20
14.3031033302
 10
6.8144637124
 20
14.3033771698
 10
6.8082185836
 20
14.3031936953
 10
6.8012991608
 20
14.3025841979
 10
6.7937147883
 20
14.301559434
 10
6.7855080732
 20
14.3001324625
 10
6.7767184743
 20
14.2983383029
 10
6.7673759226
 20
14.2961784756
 10
6.7575126832
 20
14.2936680684
 10
6.7471771846
 20
14.2908594789
 10
6.736409321
 20
14.2877727182
 10
6.7252372321
 20
14.2843965148
 10
6.7136940376
 20
14.2807339609
  0
LWPOLYLINE
  5
4E1
100
AcDbEntity
  8
RACCORDO
100
AcDbPolyline
 62
7
  6
CONTINUOUS
 90
18
 70
0
 10
3.674560908
 20
16.5219576567
 10
3.6549988237
 20
16.5310473897
 10
3.6321030435
 20
16.5400328044
 10
3.6085937572
 20
16.5475350372
 10
3.5844524351
 20
16.553569207
 10
3.5597626818
 20
16.5581149914
 10
3.5345012555
 20
16.5611689748
 10
3.508691398
 20
16.5627345728
 10
3.4824864391
 20
16.5628017094
 10
3.4559024765
 20
16.5613629334
 10
3.4289234125
 20
16.5584256961
 10
3.4016542839
 20
16.5540022748
 10
3.3740801042
 20
16.5480838892
 10
3.34621586
 20
16.5406793196
 10
3.3182115469
 20
16.531827185
 10
3.2901171637
 20
16.5215403583
 10
3.2618827117
 20
16.5098059666
 10
3.2335081909
 20
16.4966240098
  0
LWPOLYLINE
  5
4E2
100
AcDbEntity
  8
RACCORDO
100
AcDbPolyline
 62
7
  6
CONTINUOUS
 90
12
 70
0
 10
-12.2353792694
 20
24.4769011761
 10
-12.2493186551
 20
24.4835228106
 10
-12.2865166548
 20
24.4979606445
 10
-12.3254082647
 20
24.5084837097
 10
-12.365972298
 20
24.5151409792
 10
-12.4076970371
 20
24.5178484713
 10
-12.4505971862
 20
24.5165561489
 10
-12.4946580411
 20
24.511314049
 10
-12.5393237715
 20
24.502188301
 10
-12.5844091007
 20
24.4892009481
 10
-12.6300993055
 20
24.4723299472
 10
-12.6763943858
 20
24.4515752981
  0
LINE
  5
4E3
100
AcDbEntity
  8
RACCORDO
100
AcDbLine
 62
253
  6
CONTINUOUS
 10
-15.3908879982
 20
25.2693326197
 11
-14.8008000256
 21
24.9742886334
  0
LINE
  5
4E4
100
AcDbEntity
  8
RACCORDO
100
AcDbLine
 62
253
  6
CONTINUOUS
 10
-9.8510525573
 20
22.4994148992
 11
-9.2609645846
 21
22.2043709129
  0
LINE
  5
4E5
100
AcDbEntity
  8
ASSI
100
AcDbLine
 62
253
  6
CONTINUOUS
 10
6.6633520365
 20
14.2600972609
 11
6.0578216019
 21
14.5628624782
  0
LINE
  5
4E6
100
AcDbEntity
  8
ASSI
100
AcDbLine
 62
253
  6
CONTINUOUS
 10
1.1080741336
 20
17.0377362124
 11
0.5025436989
 21
17.3405014297
  0
LINE
  5
4E7
100
AcDbEntity
  8
0
100
AcDbLine
 62
7
  6
CONTINUOUS
 10
-11.975458197
 20
23.6652506717
 11
-9.6956310765
 21
22.5253371114
  0
LINE
  5
4E8
100
AcDbEntity
  8
0
100
AcDbLine
 62
7
  6
CONTINUOUS
 10
-9.0881176268
 20
22.2215803866
 11
-8.8743190757
 21
22.114681111
  0
LINE
  5
4E9
100
AcDbEntity
  8
0
100
AcDbLine
 62
7
  6
CONTINUOUS
 10
7.035583501
 20
14.1597298227
 11
6.8372881015
 21
14.2588775224
  0
LINE
  5
4EA
100
AcDbEntity
  8
0
100
AcDbLine
 62
7
  6
CONTINUOUS
 10
6.1703093683
 20
14.592366889
 11
3.9344443797
 21
15.7102993833
  0
LINE
  5
4EB
100
AcDbEntity
  8
RACCORDO
100
AcDbLine
 62
7
  6
CONTINUOUS
 10
-15.1178311505
 20
25.2557396799
 11
-14.6324007274
 21
25.0130244684
  0
LINE
  5
4EC
100
AcDbEntity
  8
RACCORDO
100
AcDbLine
 62
7
  6
CONTINUOUS
 10
-9.5784265952
 20
22.4860374023
 11
-9.092993966
 21
22.2433210876
  0
LINE
  5
4ED
100
AcDbEntity
  8
ASSI
100
AcDbLine
 62
7
  6
CONTINUOUS
 10
6.8301712847
 20
14.3006423786
 11
6.3337832772
 21
14.5488363823
  0
LINE
  5
4EE
100
AcDbEntity
  8
ASSI
100
AcDbLine
 62
7
  6
CONTINUOUS
 10
1.2752147242
 20
17.0781206589
 11
0.7788264092
 21
17.3263148164
  0
LINE
  5
4EF
100
AcDbEntity
  8
RACCORDO
100
AcDbLine
 62
253
  6
CONTINUOUS
 10
-15.5702994408
 20
25.8985278256
 11
-12.6763943858
 21
24.4515752981
  0
LINE
  5
4F0
100
AcDbEntity
  8
RACCORDO
100
AcDbLine
 62
253
  6
CONTINUOUS
 10
-8.4337536987
 20
22.3302549546
 11
-5.5398486437
 21
20.8833024271
  0
LINE
  5
4F1
100
AcDbEntity
  8
RACCORDO
100
AcDbLine
 62
253
  6
CONTINUOUS
 10
0.166542247
 20
18.0301069818
 11
3.2335081909
 21
16.4966240098
  0
LINE
  5
4F2
100
AcDbEntity
  8
RACCORDO
100
AcDbLine
 62
253
  6
CONTINUOUS
 10
7.476148878
 20
14.3753036662
 11
10.543114822
 21
12.8418206943
  0
LINE
  5
4F3
100
AcDbEntity
  8
RACCORDO
100
AcDbLine
 62
7
  6
CONTINUOUS
 10
-15.2803592092
 20
25.999428678
 11
-12.2353513827
 21
24.4769247647
  0
LINE
  5
4F4
100
AcDbEntity
  8
RACCORDO
100
AcDbLine
 62
7
  6
CONTINUOUS
 10
-7.9927106956
 20
22.3556044212
 11
-4.9477028691
 21
20.8331005079
  0
LINE
  5
4F5
100
AcDbEntity
  8
RACCORDO
100
AcDbLine
 62
7
  6
CONTINUOUS
 10
7.9171918811
 20
14.4006531328
 11
11.1443705714
 21
12.7870637877
  0
LINE
  5
4F6
100
AcDbEntity
  8
DRAFT
100
AcDbLine
 62
7
  6
CONTINUOUS
 10
-3.7203042656
 20
20.7501092713
 11
-0.0780688646
 21
18.9289915708
  0
LINE
  5
4F7
100
AcDbEntity
  8
RACCORDO
100
AcDbLine
 62
7
  6
CONTINUOUS
 10
-2.0052525823
 20
21.8127522244
 11
-1.6748748557
 21
21.6475633611
  0
LINE
  5
4F8
100
AcDbEntity
  8
RACCORDO
100
AcDbLine
 62
7
  6
CONTINUOUS
 10
12.490436432
 20
14.5649077173
 11
12.8208141586
 21
14.3997188539
  0
LWPOLYLINE
  5
4F9
100
AcDbEntity
  8
RACCORDO
100
AcDbPolyline
 62
253
  6
CONTINUOUS
 90
13
 70
0
 10
-6.6684551236
 20
25.1358978441
 10
-6.6407979808
 20
25.1198152432
 10
-6.6136774122
 20
25.0995314397
 10
-6.5875574585
 20
25.0753934983
 10
-6.5628850394
 20
25.047814429
 10
-6.5400823059
 20
25.0172661195
 10
-6.5195394171
 20
24.9842712607
 10
-6.5016078664
 20
24.9493944051
 10
-6.4865944657
 20
24.9132323057
 10
-6.4747560961
 20
24.876403704
 10
-6.4662953139
 20
24.839538746
 10
-6.4613568842
 20
24.8032682016
 10
-6.4600253038
 20
24.7682126685
  0
LINE
  5
4FA
100
AcDbEntity
  8
RACCORDO
100
AcDbLine
 62
7
  6
CONTINUOUS
 10
13.2474277323
 20
9.52319505
 11
12.2271796962
 21
11.282862618
  0
LINE
  5
4FB
100
AcDbEntity
  8
RACCORDO
100
AcDbLine
 62
253
  6
CONTINUOUS
 10
18.8330337365
 20
20.7990858472
 11
18.8330771174
 21
20.792543467
  0
LWPOLYLINE
  5
4FC
100
AcDbEntity
  8
RACCORDO
100
AcDbPolyline
 62
253
  6
CONTINUOUS
 90
12
 70
0
 10
21.7041829833
 20
17.3144373002
 10
21.7054431817
 20
17.3442663342
 10
21.716772975
 20
17.4202863904
 10
21.7397284743
 20
17.4956130174
 10
21.7742127289
 20
17.5698088223
 10
21.8200965505
 20
17.642525917
 10
21.877182131
 20
17.7133429951
 10
21.945194408
 20
17.781831723
 10
22.0238214378
 20
17.8476396813
 10
22.1126823421
 20
17.9103838828
 10
22.2113192655
 20
17.9696555084
 10
22.3192206905
 20
18.0250819508
  0
LWPOLYLINE
  5
4FD
100
AcDbEntity
  8
RACCORDO
100
AcDbPolyline
 62
7
  6
CONTINUOUS
 90
8
 70
0
 10
22.3685576551
 20
19.0314079181
 10
22.3643468059
 20
18.9763804166
 10
22.3482202878
 20
18.9183074555
 10
22.3198996313
 20
18.8590428654
 10
22.2779403734
 20
18.7968547799
 10
22.2209660386
 20
18.7320641523
 10
22.1499644654
 20
18.6672589424
 10
22.0669530929
 20
18.6046167692
  0
LWPOLYLINE
  5
4FE
100
AcDbEntity
  8
RACCORDO
100
AcDbPolyline
 62
7
  6
CONTINUOUS
 90
5
 70
0
 10
-9.7128414608
 20
22.5279505932
 10
-9.6820044765
 20
22.5232678449
 10
-9.6498427687
 20
22.5150335779
 10
-9.6165435684
 20
22.5033077638
 10
-9.580418749
 20
22.4870414828
  0
LWPOLYLINE
  5
4FF
100
AcDbEntity
  8
RACCORDO
100
AcDbPolyline
 62
7
  6
CONTINUOUS
 90
7
 70
0
 10
-22.9387122403
 20
24.3638444245
 10
-22.9190574894
 20
24.3597856153
 10
-22.9020286255
 20
24.3574927657
 10
-22.8879988749
 20
24.3568228165
 10
-22.8773262581
 20
24.3573422089
 10
-22.8702964465
 20
24.3591099444
 10
-22.8680847541
 20
24.3608063097
  0
LWPOLYLINE
  5
500
100
AcDbEntity
  8
RACCORDO
100
AcDbPolyline
 62
7
  6
CONTINUOUS
 90
5
 70
0
 10
-14.6307357914
 20
25.0121939538
 10
-14.6396384041
 20
25.0147973845
 10
-14.6508835742
 20
25.0154321247
 10
-14.6648507694
 20
25.0145040343
 10
-14.6814097288
 20
25.0120215906
  0
LWPOLYLINE
  5
501
100
AcDbEntity
  8
RACCORDO
100
AcDbPolyline
 62
253
  6
CONTINUOUS
 90
7
 70
0
 10
13.9083522089
 20
14.8474941778
 10
13.8806317492
 20
14.859100383
 10
13.8533222484
 20
14.8660316264
 10
13.8268909796
 20
14.8681693127
 10
13.801790189
 20
14.8654768653
 10
13.7784493583
 20
14.8580003528
 10
13.7752894368
 20
14.8565515768
  0
LWPOLYLINE
  5
502
100
AcDbEntity
  8
RACCORDO
100
AcDbPolyline
 62
253
  6
CONTINUOUS
 90
7
 70
0
 10
-0.5873368054
 20
22.0953386849
 10
-0.6150572651
 20
22.1069448901
 10
-0.6423667659
 20
22.1138761336
 10
-0.6687980348
 20
22.1160138198
 10
-0.6938988253
 20
22.1133213724
 10
-0.7172396561
 20
22.1058448599
 10
-0.7203995775
 20
22.104396084
  0
LINE
  5
503
100
AcDbEntity
  8
RACCORDO
100
AcDbLine
 62
253
  6
CONTINUOUS
 10
12.0698745778
 20
15.0747427418
 11
8.2514979594
 21
16.983931051
  0
LINE
  5
504
100
AcDbEntity
  8
RACCORDO
100
AcDbLine
 62
253
  6
CONTINUOUS
 10
-2.4258144365
 20
22.322587249
 11
-6.2441910549
 21
24.2317755582
  0
LINE
  5
505
100
AcDbEntity
  8
RACCORDO
100
AcDbLine
 62
7
  6
CONTINUOUS
 10
12.33129759
 20
15.0159711667
 11
8.2509986755
 21
17.0561206239
  0
LINE
  5
506
100
AcDbEntity
  8
RACCORDO
100
AcDbLine
 62
7
  6
CONTINUOUS
 10
-2.1643914243
 20
22.2638156738
 11
-6.2446903388
 21
24.3039651311
  0
LINE
  5
507
100
AcDbEntity
  8
RACCORDO
100
AcDbLine
 62
253
  6
CONTINUOUS
 10
-5.7529185226
 20
24.7561194447
 11
-0.8031710543
 21
22.2812457106
  0
LINE
  5
508
100
AcDbEntity
  8
RACCORDO
100
AcDbLine
 62
253
  6
CONTINUOUS
 10
8.7427704917
 20
17.5082749376
 11
13.69251796
 21
15.0334012034
  0
LINE
  5
509
100
AcDbEntity
  8
RACCORDO
100
AcDbLine
 62
253
  6
CONTINUOUS
 10
-5.5370842737
 20
25.1238046203
 11
-0.5873368054
 21
22.6489308862
  0
LINE
  5
50A
100
AcDbEntity
  8
RACCORDO
100
AcDbLine
 62
253
  6
CONTINUOUS
 10
8.9586047406
 20
17.8759601132
 11
13.9083522089
 21
15.401086379
  0
LWPOLYLINE
  5
50B
100
AcDbEntity
  8
RACCORDO
100
AcDbPolyline
 62
253
  6
CONTINUOUS
 90
34
 70
0
 10
-0.5873368054
 20
22.6489308862
 10
-0.5646042405
 20
22.637252156
 10
-0.5424624746
 20
22.6247266925
 10
-0.5209115077
 20
22.6113544956
 10
-0.4997647488
 20
22.5971057642
 10
-0.479208789
 20
22.5820102995
 10
-0.4598034007
 20
22.5661575049
 10
-0.4415728506
 20
22.5495201984
 10
-0.4244928721
 20
22.5321255619
 10
-0.4090504379
 20
22.5141445445
 10
-0.3952918478
 20
22.4955562581
 10
-0.3831708019
 20
22.4763815908
 10
-0.3730353736
 20
22.4568541557
 10
-0.3649446752
 20
22.436966014
 10
-0.3588395943
 20
22.4167251046
 10
-0.354890868
 20
22.3963888573
 10
-0.3531607467
 20
22.375950139
 10
-0.3535869798
 20
22.3554160828
 10
-0.3561535531
 20
22.3350655183
 10
-0.3609307146
 20
22.3148982688
 10
-0.3678482163
 20
22.2949145109
 10
-0.3766792999
 20
22.2753936036
 10
-0.3874899042
 20
22.256351732
 10
-0.4002140905
 20
22.2377727109
 10
-0.4144272843
 20
22.2198873434
 10
-0.4301750185
 20
22.2027232231
 10
-0.4474117602
 20
22.1862527564
 10
-0.4655763362
 20
22.1706239659
 10
-0.4846886949
 20
22.1558670734
 10
-0.504728888
 20
22.1419518572
 10
-0.5250758974
 20
22.1289356746
 10
-0.5455227171
 20
22.1168376445
 10
-0.5662763531
 20
22.105638648
 10
-0.5873368054
 20
22.0953386849
  0
LWPOLYLINE
  5
50C
100
AcDbEntity
  8
RACCORDO
100
AcDbPolyline
 62
253
  6
CONTINUOUS
 90
34
 70
0
 10
13.9083522089
 20
15.401086379
 10
13.9310847738
 20
15.3894076488
 10
13.9532265397
 20
15.3768821853
 10
13.9747775067
 20
15.3635099884
 10
13.9959242655
 20
15.3492612571
 10
14.0164802254
 20
15.3341657924
 10
14.0358856136
 20
15.3183129977
 10
14.0541161637
 20
15.3016756912
 10
14.0711961422
 20
15.2842810548
 10
14.0866385764
 20
15.2663000374
 10
14.1003971665
 20
15.247711751
 10
14.1125182124
 20
15.2285370836
 10
14.1226536407
 20
15.2090096485
 10
14.1307443391
 20
15.1891215068
 10
14.13684942
 20
15.1688805974
 10
14.1407981463
 20
15.1485443502
 10
14.1425282677
 20
15.1281056319
 10
14.1421020345
 20
15.1075715757
 10
14.1395354612
 20
15.0872210111
 10
14.1347582997
 20
15.0670537616
 10
14.127840798
 20
15.0470700038
 10
14.1190097144
 20
15.0275490964
 10
14.1081991101
 20
15.0085072248
 10
14.0954749238
 20
14.9899282037
 10
14.08126173
 20
14.9720428363
 10
14.0655139958
 20
14.9548787159
 10
14.0482772542
 20
14.9384082492
 10
14.0301126781
 20
14.9227794587
 10
14.0110003194
 20
14.9080225663
 10
13.9909601263
 20
14.8941073501
 10
13.970613117
 20
14.8810911674
 10
13.9501662973
 20
14.8689931373
 10
13.9294126612
 20
14.8577941408
 10
13.9083522089
 20
14.8474941778
  0
LWPOLYLINE
  5
50D
100
AcDbEntity
  8
RACCORDO
100
AcDbPolyline
 62
7
  6
CONTINUOUS
 90
11
 70
0
 10
-2.164273725
 20
22.2638100336
 10
-2.1562480164
 20
22.259648291
 10
-2.1297603375
 20
22.2444963362
 10
-2.104739022
 20
22.2277041937
 10
-2.081708283
 20
22.208933836
 10
-2.0608547792
 20
22.1884798147
 10
-2.0424263715
 20
22.1663645076
 10
-2.0272052748
 20
22.141864395
 10
-2.0157614318
 20
22.1149509146
 10
-2.0083138587
 20
22.0863163046
 10
-2.0052525823
 20
22.0564331316
  0
LWPOLYLINE
  5
50E
100
AcDbEntity
  8
RACCORDO
100
AcDbPolyline
 62
7
  6
CONTINUOUS
 90
11
 70
0
 10
12.3314152893
 20
15.0159655265
 10
12.3394409979
 20
15.0118037838
 10
12.3659286768
 20
14.9966518291
 10
12.3909499923
 20
14.9798596866
 10
12.4139807314
 20
14.9610893288
 10
12.4348342351
 20
14.9406353075
 10
12.4532626428
 20
14.9185200004
 10
12.4684837395
 20
14.8940198879
 10
12.4799275825
 20
14.8671064074
 10
12.4873751556
 20
14.8384717975
 10
12.490436432
 20
14.8085886245
  0
LWPOLYLINE
  5
50F
100
AcDbEntity
  8
RACCORDO
100
AcDbPolyline
 62
253
  6
CONTINUOUS
 90
15
 70
0
 10
-0.8031710543
 20
22.2812457106
 10
-0.7891099728
 20
22.2739305575
 10
-0.7752411134
 20
22.2661170842
 10
-0.7616490266
 20
22.2577924714
 10
-0.7483958417
 20
22.2489254294
 10
-0.7356073467
 20
22.2395278846
 10
-0.7234547018
 20
22.229661424
 10
-0.7120225092
 20
22.219329186
 10
-0.7014013109
 20
22.2085387699
 10
-0.6917382594
 20
22.1973735168
 10
-0.6831041081
 20
22.1858526877
 10
-0.6755687392
 20
22.1739957712
 10
-0.66923523
 20
22.1618989443
 10
-0.664149918
 20
22.1495953617
 10
-0.6611439951
 20
22.1397109227
  0
LWPOLYLINE
  5
510
100
AcDbEntity
  8
RACCORDO
100
AcDbPolyline
 62
253
  6
CONTINUOUS
 90
15
 70
0
 10
13.69251796
 20
15.0334012034
 10
13.7065790415
 20
15.0260860503
 10
13.7204479009
 20
15.0182725771
 10
13.7340399877
 20
15.0099479643
 10
13.7472931726
 20
15.0010809222
 10
13.7600816676
 20
14.9916833774
 10
13.7722343125
 20
14.9818169169
 10
13.7836665051
 20
14.9714846788
 10
13.7942877034
 20
14.9606942627
 10
13.8039507549
 20
14.9495290097
 10
13.8125849062
 20
14.9380081805
 10
13.8201202751
 20
14.9261512641
 10
13.8264537843
 20
14.9140544372
 10
13.8315390963
 20
14.9017508546
 10
13.8345450192
 20
14.8918664156
  0
LWPOLYLINE
  5
511
100
AcDbEntity
  8
RACCORDO
100
AcDbPolyline
 62
253
  6
CONTINUOUS
 90
13
 70
0
 10
7.8272338907
 20
17.8880533369
 10
7.8548910335
 20
17.8719707361
 10
7.8820116021
 20
17.8516869326
 10
7.9081315558
 20
17.8275489911
 10
7.9328039749
 20
17.7999699218
 10
7.9556067084
 20
17.7694216124
 10
7.9761495972
 20
17.7364267535
 10
7.994081148
 20
17.7015498979
 10
8.0090945486
 20
17.6653877986
 10
8.0209329182
 20
17.6285591968
 10
8.0293937005
 20
17.5916942389
 10
8.0343321301
 20
17.5554236944
 10
8.0356637106
 20
17.5203681613
  0
LINE
  5
512
100
AcDbEntity
  8
RACCORDO
100
AcDbLine
 62
253
  6
CONTINUOUS
 10
22.3685676424
 20
19.0313188942
 11
22.3686110233
 21
19.0247765141
  0
LINE
  5
513
100
AcDbEntity
  8
RACCORDO
100
AcDbLine
 62
253
  6
CONTINUOUS
 10
21.7041449328
 20
17.3082300999
 11
21.7041829833
 21
17.3144373002
  0
LWPOLYLINE
  5
514
100
AcDbEntity
  8
RACCORDO
100
AcDbPolyline
 62
7
  6
CONTINUOUS
 90
8
 70
0
 10
25.904091561
 20
17.2636409651
 10
25.8998807118
 20
17.2086134636
 10
25.8837541937
 20
17.1505405025
 10
25.8554335372
 20
17.0912759124
 10
25.8134742793
 20
17.0290878269
 10
25.7564999445
 20
16.9642971994
 10
25.6854983713
 20
16.8994919895
 10
25.6024869988
 20
16.8368498162
  0
LINE
  5
515
100
AcDbEntity
  8
RACCORDO
100
AcDbLine
 62
253
  6
CONTINUOUS
 10
4.5651809791
 20
-31.6552392304
 11
3.942862947
 21
-32.4002986479
  0
LINE
  5
516
100
AcDbEntity
  8
RACCORDO
100
AcDbLine
 62
253
  6
CONTINUOUS
 10
4.9182171671
 20
-31.7810090684
 11
4.206996559
 21
-32.6325055455
  0
LWPOLYLINE
  5
517
100
AcDbEntity
  8
RACCORDO
100
AcDbPolyline
 62
7
  6
CONTINUOUS
 90
4
 70
0
 10
-9.7953799126
 20
22.5212459401
 10
-9.7697270121
 20
22.5268439525
 10
-9.7421523389
 20
22.5291054839
 10
-9.7128414608
 20
22.5279505932
  0
LWPOLYLINE
  5
518
100
AcDbEntity
  8
RACCORDO
100
AcDbPolyline
 62
7
  6
CONTINUOUS
 90
4
 70
0
 10
-9.1405495869
 20
22.2426270222
 10
-9.1592239744
 20
22.23880746
 10
-9.180172467
 20
22.2336367399
 10
-9.2032276951
 20
22.2271993958
  0
LINE
  5
519
100
AcDbEntity
  8
0
100
AcDbLine
 62
7
  6
CONTINUOUS
 10
-13.3353901371
 20
23.5915024843
 11
-11.975458197
 21
23.6652506717
  0
LWPOLYLINE
  5
51A
100
AcDbEntity
  8
RACCORDO
100
AcDbPolyline
 62
7
  6
CONTINUOUS
 90
10
 70
0
 10
-2.4258144365
 20
22.322587249
 10
-2.3955914524
 20
22.3216833468
 10
-2.3651164521
 20
22.3193166945
 10
-2.3344776657
 20
22.3154593204
 10
-2.3036612922
 20
22.3101501996
 10
-2.2728843651
 20
22.3033322744
 10
-2.2425947381
 20
22.2948528309
 10
-2.2129396059
 20
22.2847758068
 10
-2.1840219166
 20
22.2731148673
 10
-2.164273725
 20
22.2638100336
  0
LINE
  5
51B
100
AcDbEntity
  8
RACCORDO
100
AcDbLine
 62
253
  6
CONTINUOUS
 10
25.9041015484
 20
17.2635519412
 11
25.9041449293
 21
17.2570095611
  0
LINE
  5
51C
100
AcDbEntity
  8
RACCORDO
100
AcDbLine
 62
7
  6
CONTINUOUS
 10
12.2271796962
 20
-24.5280661268
 11
13.2474277323
 21
-23.788646595
  0
LWPOLYLINE
  5
51D
100
AcDbEntity
  8
RACCORDO
100
AcDbPolyline
 62
7
  6
CONTINUOUS
 90
3
 70
0
 10
30.7640798053
 20
-14.5284903909
 10
30.7984412243
 20
-14.5094154344
 10
30.8701980385
 20
-14.4635201781
  0
LINE
  5
51E
100
AcDbEntity
  8
RACCORDO
100
AcDbLine
 62
253
  6
CONTINUOUS
 10
30.8331034587
 20
-14.4813580449
 11
29.9835366531
 21
-14.9337672985
  0
LINE
  5
51F
100
AcDbEntity
  8
RACCORDO
100
AcDbLine
 62
253
  6
CONTINUOUS
 10
29.9835366531
 20
-14.9337672985
 11
29.1381547736
 21
-15.3833907007
  0
LINE
  5
520
100
AcDbEntity
  8
RACCORDO
100
AcDbLine
 62
7
  6
CONTINUOUS
 10
30.7631782945
 20
-14.5289671136
 11
30.7632769181
 21
-14.5289148783
  0
LINE
  5
521
100
AcDbEntity
  8
RACCORDO
100
AcDbLine
 62
7
  6
CONTINUOUS
 10
28.7518180341
 20
-15.5938658649
 11
30.7641789166
 21
-14.5284380358
  0
LINE
  5
522
100
AcDbEntity
  8
RACCORDO
100
AcDbLine
 62
253
  6
CONTINUOUS
 10
29.1381547736
 20
-15.3833907007
 11
28.2504091049
 21
-15.8548229076
  0
LINE
  5
523
100
AcDbEntity
  8
RACCORDO
100
AcDbLine
 62
253
  6
CONTINUOUS
 10
28.2504091049
 20
-15.8548229076
 11
13.2474277323
 21
-23.788646595
  0
LINE
  5
524
100
AcDbEntity
  8
RACCORDO
100
AcDbLine
 62
7
  6
CONTINUOUS
 10
13.2257356301
 20
-23.8043678348
 11
28.7518180341
 21
-15.5938658649
  0
LINE
  5
525
100
AcDbEntity
  8
DRAFT
100
AcDbLine
 62
7
  6
CONTINUOUS
 10
12.2271796962
 20
-24.5280661268
 11
6.8689375216
 21
-27.3615928527
  0
LINE
  5
526
100
AcDbEntity
  8
RACCORDO
100
AcDbLine
 62
253
  6
CONTINUOUS
 10
6.8689375216
 20
-26.3186887832
 11
31.1978093529
 21
-13.5027858587
  0
LINE
  5
527
100
AcDbEntity
  8
RACCORDO
100
AcDbLine
 62
253
  6
CONTINUOUS
 10
6.8689375216
 20
-27.118006719
 11
28.2503752735
 21
-15.8547458283
  0
LINE
  5
528
100
AcDbEntity
  8
RACCORDO
100
AcDbLine
 62
7
  6
CONTINUOUS
 10
10.543114822
 20
-25.8048317063
 11
6.8689375216
 21
-27.6490642457
  0
LINE
  5
529
100
AcDbEntity
  8
RACCORDO
100
AcDbLine
 62
7
  6
CONTINUOUS
 10
11.4246502805
 20
-25.2454026623
 11
6.8689375216
 21
-27.5050697759
  0
LWPOLYLINE
  5
52A
100
AcDbEntity
  8
RACCORDO
100
AcDbPolyline
 62
7
  6
CONTINUOUS
 90
10
 70
0
 10
-15.5666138022
 20
22.2876708237
 10
-15.4781236869
 20
22.3071529868
 10
-15.38760869
 20
22.3216557412
 10
-15.2954708102
 20
22.331277605
 10
-15.2025236555
 20
22.3360339221
 10
-15.1094825148
 20
22.3359596244
 10
-15.0166640408
 20
22.3310628303
 10
-14.9247826459
 20
22.3213260067
 10
-14.834635878
 20
22.3067502595
 10
-14.7466007424
 20
22.2872504186
  0
LWPOLYLINE
  5
52B
100
AcDbEntity
  8
RACCORDO
100
AcDbPolyline
 62
7
  6
CONTINUOUS
 90
4
 70
0
 10
-14.6814097288
 20
25.0120215906
 10
-14.7004150585
 20
25.0080523404
 10
-14.7217112696
 20
25.0027231138
 10
-14.7451273809
 20
24.9961196743
  0
LWPOLYLINE
  5
52C
100
AcDbEntity
  8
RACCORDO
100
AcDbPolyline
 62
7
  6
CONTINUOUS
 90
8
 70
0
 10
-15.3321345126
 20
25.2916528046
 10
-15.3064962451
 20
25.2968825475
 10
-15.2789647214
 20
25.2988151905
 10
-15.2497188529
 20
25.2973708404
 10
-15.2189576549
 20
25.2924388571
 10
-15.1868810179
 20
25.2839930879
 10
-15.1536861956
 20
25.2720898179
 10
-15.1197487232
 20
25.2567085655
  0
LWPOLYLINE
  5
52D
100
AcDbEntity
  8
RACCORDO
100
AcDbPolyline
 62
253
  6
CONTINUOUS
 90
9
 70
0
 10
31.4784693613
 20
17.0139931191
 10
31.4775429818
 20
16.992783289
 10
31.4677418855
 20
16.9412608534
 10
31.4473414218
 20
16.890521007
 10
31.4165601674
 20
16.8411073921
 10
31.3757279222
 20
16.7935494414
 10
31.3252821754
 20
16.7483567052
 10
31.2657634182
 20
16.7060133924
 10
31.1978093529
 20
16.6669731824
  0
LINE
  5
52E
100
AcDbEntity
  8
RACCORDO
100
AcDbLine
 62
7
  6
CONTINUOUS
 10
30.8701980385
 20
-14.4635201781
 11
30.9378798468
 21
-14.4116086111
  0
LWPOLYLINE
  5
52F
100
AcDbEntity
  8
RACCORDO
100
AcDbPolyline
 62
253
  6
CONTINUOUS
 90
3
 70
0
 10
30.9469477736
 20
-14.4039258424
 10
30.8915674649
 20
-14.4461695196
 10
30.8331029085
 20
-14.4813583777
  0
LINE
  5
530
100
AcDbEntity
  8
RACCORDO
100
AcDbLine
 62
253
  6
CONTINUOUS
 10
28.2521654663
 20
-15.8581442136
 11
28.2969532375
 21
-15.8302096036
  0
LWPOLYLINE
  5
531
100
AcDbEntity
  8
RACCORDO
100
AcDbPolyline
 62
7
  6
CONTINUOUS
 90
19
 70
0
 10
5.7472661396
 20
-32.3255615491
 10
5.7534918114
 20
-32.3217429393
 10
5.7594411493
 20
-32.3174311871
 10
5.7651006736
 20
-32.312636062
 10
5.7704575342
 20
-32.3073684412
 10
5.7754996042
 20
-32.3016402537
 10
5.7802155048
 20
-32.2954644573
 10
5.7845945021
 20
-32.2888550678
 10
5.7886266623
 20
-32.2818270656
 10
5.7923029394
 20
-32.2743963317
 10
5.7956149344
 20
-32.2665797356
 10
5.7985551087
 20
-32.258395003
 10
5.8011169332
 20
-32.2498606147
 10
5.8032945145
 20
-32.2409959497
 10
5.8050828628
 20
-32.2318211181
 10
5.8064780983
 20
-32.2223568233
 10
5.8074770563
 20
-32.2126245088
 10
5.8080772938
 20
-32.2026463098
 10
5.8082773498
 20
-32.19244488
  0
LWPOLYLINE
  5
532
100
AcDbEntity
  8
RACCORDO
100
AcDbPolyline
 62
253
  6
CONTINUOUS
 90
3
 70
0
 10
30.7632769181
 20
-14.5289148783
 10
30.7862707903
 20
-14.5156576679
 10
30.8331029085
 20
-14.4813583777
  0
LWPOLYLINE
  5
533
100
AcDbEntity
  8
RACCORDO
100
AcDbPolyline
 62
253
  6
CONTINUOUS
 90
34
 70
0
 10
-0.0278158331
 20
-32.1344194415
 10
-0.0451101649
 20
-32.1432230005
 10
-0.0631356265
 20
-32.1516086663
 10
-0.0818522858
 20
-32.1595578621
 10
-0.1012186796
 20
-32.167052978
 10
-0.1211919053
 20
-32.1740774099
 10
-0.1417277161
 20
-32.1806155964
 10
-0.1627806186
 20
-32.1866530536
 10
-0.1843039741
 20
-32.1921764066
 10
-0.2062501018
 20
-32.1971734193
 10
-0.228570384
 20
-32.2016330219
 10
-0.2512153746
 20
-32.205545335
 10
-0.2741349076
 20
-32.2089016915
 10
-0.2972782092
 20
-32.2116946561
 10
-0.3205940099
 20
-32.2139180416
 10
-0.3440306578
 20
-32.2155669223
 10
-0.3675362335
 20
-32.2166376456
 10
-0.3910586648
 20
-32.2171278394
 10
-0.4145458422
 20
-32.2170364178
 10
-0.4379457342
 20
-32.2163635833
 10
-0.4612065029
 20
-32.2151108265
 10
-0.4842766184
 20
-32.2132809227
 10
-0.5071049732
 20
-32.2108779256
 10
-0.5296409953
 20
-32.2079071585
 10
-0.5518347606
 20
-32.2043752028
 10
-0.5736371028
 20
-32.2002898828
 10
-0.594999723
 20
-32.1956602486
 10
-0.6158752964
 20
-32.1904965565
 10
-0.636217577
 20
-32.1848102456
 10
-0.6559815004
 20
-32.1786139128
 10
-0.6751232833
 20
-32.171921285
 10
-0.6936005207
 20
-32.1647471883
 10
-0.7113722798
 20
-32.1571075158
 10
-0.7283991905
 20
-32.1490191915
  0
LINE
  5
534
100
AcDbEntity
  8
RACCORDO
100
AcDbLine
 62
253
  6
CONTINUOUS
 10
6.1510610987
 20
-30.3270284616
 11
6.8689375216
 21
-29.9728646943
  0
LINE
  5
535
100
AcDbEntity
  8
RACCORDO
100
AcDbLine
 62
7
  6
CONTINUOUS
 10
6.0164166796
 20
-30.5998034164
 11
6.7380628644
 21
-30.24377984
  0
LINE
  5
536
100
AcDbEntity
  8
RACCORDO
100
AcDbLine
 62
7
  6
CONTINUOUS
 10
6.0164161579
 20
-30.5998036737
 11
6.006002361
 21
-30.6045518772
  0
LINE
  5
537
100
AcDbEntity
  8
RACCORDO
100
AcDbLine
 62
253
  6
CONTINUOUS
 10
0.6533718262
 20
-32.6347351096
 11
6.1510610987
 21
-30.3270284616
  0
LINE
  5
538
100
AcDbEntity
  8
RACCORDO
100
AcDbLine
 62
7
  6
CONTINUOUS
 10
0.4995645808
 20
-32.915930808
 11
6.0060121931
 21
-30.6045477646
  0
LWPOLYLINE
  5
539
100
AcDbEntity
  8
RACCORDO
100
AcDbPolyline
 62
7
  6
CONTINUOUS
 90
5
 70
0
 10
1.7081822091
 20
33.0980651005
 10
1.6305300304
 20
33.1328438428
 10
1.5494922086
 20
33.1611104607
 10
1.465736065
 20
33.1824485607
 10
1.3799576925
 20
33.1965334587
  0
LWPOLYLINE
  5
53A
100
AcDbEntity
  8
RACCORDO
100
AcDbPolyline
 62
253
  6
CONTINUOUS
 90
9
 70
0
 10
-1.2771467421
 20
31.8741526568
 10
-1.3383652563
 20
31.901856882
 10
-1.3992119002
 20
31.9227155272
 10
-1.4592237431
 20
31.9365698967
 10
-1.517944205
 20
31.9433145842
 10
-1.5749265314
 20
31.942898275
 10
-1.6297371916
 20
31.9353241364
 10
-1.6819591772
 20
31.9206497937
 10
-1.7160314926
 20
31.9065555918
  0
LWPOLYLINE
  5
53B
100
AcDbEntity
  8
RACCORDO
100
AcDbPolyline
 62
253
  6
CONTINUOUS
 90
8
 70
0
 10
30.743210911
 20
18.5805507496
 10
30.7175919677
 20
18.5921812128
 10
30.6566518894
 20
18.6113618587
 10
30.5918476473
 20
18.6206292174
 10
30.5238735739
 20
18.6198839956
 10
30.4534579643
 20
18.6091341778
 10
30.381355273
 20
18.5884949409
 10
30.3083380304
 20
18.55818742
  0
LINE
  5
53C
100
AcDbEntity
  8
RACCORDO
100
AcDbLine
 62
253
  6
CONTINUOUS
 10
1.7081822091
 20
33.0980651005
 11
1.6825632658
 21
33.1096955637
  0
LWPOLYLINE
  5
53D
100
AcDbEntity
  8
RACCORDO
100
AcDbPolyline
 62
253
  6
CONTINUOUS
 90
8
 70
0
 10
1.2733093286
 20
33.0757017709
 10
1.2076399914
 20
33.1057116988
 10
1.1431324944
 20
33.1269482367
 10
1.0799825842
 20
33.1400667777
 10
1.0184060282
 20
33.145567444
 10
0.9584601367
 20
33.1431074424
 10
0.9006119575
 20
33.1322224323
 10
0.8458825748
 20
33.1132592597
  0
LINE
  5
53E
100
AcDbEntity
  8
RACCORDO
100
AcDbLine
 62
253
  6
CONTINUOUS
 10
1.273309196
 20
33.0757018372
 11
30.308338163
 21
18.5581873537
  0
LINE
  5
53F
100
AcDbEntity
  8
RACCORDO
100
AcDbLine
 62
7
  6
CONTINUOUS
 10
1.7081822091
 20
33.0980651005
 11
30.743210911
 21
18.5805507496
  0
LWPOLYLINE
  5
540
100
AcDbEntity
  8
RACCORDO
100
AcDbPolyline
 62
253
  6
CONTINUOUS
 90
10
 70
0
 10
27.7970293899
 20
17.3370645908
 10
27.8590447454
 20
17.3031518808
 10
27.9204943861
 20
17.2628623822
 10
27.9809107934
 20
17.2165026246
 10
28.0398343096
 20
17.164425321
 10
28.0968166353
 20
17.1070266843
 10
28.1514242401
 20
17.0447434128
 10
28.2032416608
 20
16.9780493677
 10
28.2518746624
 20
16.9074519685
 10
28.2969532375
 20
16.8334883315
  0
LWPOLYLINE
  5
541
100
AcDbEntity
  8
RACCORDO
100
AcDbPolyline
 62
7
  6
CONTINUOUS
 90
10
 70
0
 10
31.4784673982
 20
17.0139931213
 10
31.4779165993
 20
17.062167989
 10
31.4686840928
 20
17.2172792364
 10
31.4485380225
 20
17.371844657
 10
31.4178141206
 20
17.5259468648
 10
31.376846091
 20
17.6789013811
 10
31.326345216
 20
17.8290512631
 10
31.2668308258
 20
17.9755731929
 10
31.1984141266
 20
18.118591035
 10
31.1762826317
 20
18.1605603756
  0
LINE
  5
542
100
AcDbEntity
  8
RACCORDO
100
AcDbLine
 62
253
  6
CONTINUOUS
 10
31.1978093529
 20
16.6669731824
 11
31.1978093529
 21
-13.5027858587
  0
LINE
  5
543
100
AcDbEntity
  8
RACCORDO
100
AcDbLine
 62
7
  6
CONTINUOUS
 10
31.4784695526
 20
17.0143023677
 11
31.4784695526
 21
-13.1554566664
  0
LWPOLYLINE
  5
544
100
AcDbEntity
  8
RACCORDO
100
AcDbPolyline
 62
253
  6
CONTINUOUS
 90
7
 70
0
 10
31.1978093529
 20
-13.5027858587
 10
31.1934748613
 20
-13.6413396115
 10
31.1796808042
 20
-13.7743766144
 10
31.1565026852
 20
-13.9010036328
 10
31.124067897
 20
-14.0204029313
 10
31.0825838925
 20
-14.1317270087
 10
31.0323644752
 20
-14.2341299866
  0
LWPOLYLINE
  5
545
100
AcDbEntity
  8
RACCORDO
100
AcDbPolyline
 62
253
  6
CONTINUOUS
 90
9
 70
0
 10
31.478469541
 20
-13.1555325886
 10
31.4775431266
 20
-13.1769740644
 10
31.4677423491
 20
-13.2284966107
 10
31.4473421313
 20
-13.2792366388
 10
31.4165610142
 20
-13.3286504959
 10
31.3757287805
 20
-13.3762087219
 10
31.3252829069
 20
-13.4214017488
 10
31.2657638667
 20
-13.4637453585
 10
31.1978093529
 20
-13.502785856
  0
LINE
  5
546
100
AcDbEntity
  8
RACCORDO
100
AcDbLine
 62
253
  6
CONTINUOUS
 10
30.9072033548
 20
-14.4095013752
 11
30.8331034587
 21
-14.4813580449
  0
LWPOLYLINE
  5
547
100
AcDbEntity
  8
RACCORDO
100
AcDbPolyline
 62
7
  6
CONTINUOUS
 90
12
 70
0
 10
30.9468321591
 20
-14.404014759
 10
31.0174885974
 20
-14.3391507291
 10
31.1004663507
 20
-14.2502965029
 10
31.1766800231
 20
-14.1532989087
 10
31.2454714963
 20
-14.0485606499
 10
31.3063881389
 20
-13.9362491803
 10
31.3589083705
 20
-13.8167234081
 10
31.4024445323
 20
-13.6905986232
 10
31.4365601865
 20
-13.5581667887
 10
31.4608526052
 20
-13.419696094
 10
31.4749033688
 20
-13.2756423547
 10
31.4784675798
 20
-13.155532587
  0
LINE
  5
548
100
AcDbEntity
  8
RACCORDO
100
AcDbLine
 62
7
  6
CONTINUOUS
 10
30.9470901649
 20
-14.4038037009
 11
30.9469477736
 21
-14.4039258424
  0
LINE
  5
549
100
AcDbEntity
  8
RACCORDO
100
AcDbLine
 62
7
  6
CONTINUOUS
 10
30.9378798468
 20
-14.4116086111
 11
30.9469477736
 21
-14.4039258424
  0
LWPOLYLINE
  5
54A
100
AcDbEntity
  8
RACCORDO
100
AcDbPolyline
 62
253
  6
CONTINUOUS
 90
18
 70
0
 10
6.2728620321
 20
-32.0559947851
 10
6.2784531397
 20
-32.0528811541
 10
6.2851707765
 20
-32.0484355771
 10
6.2915418213
 20
-32.0434007812
 10
6.2975487699
 20
-32.0377905783
 10
6.3031751237
 20
-32.0316203666
 10
6.3084054468
 20
-32.0249070693
 10
6.313225402
 20
-32.0176690844
 10
6.3176217687
 20
-32.0099262581
 10
6.3215824904
 20
-32.0016998175
 10
6.3250967035
 20
-31.9930123187
 10
6.328154767
 20
-31.9838875898
 10
6.3307482959
 20
-31.9743506439
 10
6.3328701754
 20
-31.9644276368
 10
6.3345145821
 20
-31.9541458071
 10
6.335677009
 20
-31.9435333606
 10
6.3363542735
 20
-31.9326193892
 10
6.3365445216
 20
-31.9214338214
  0
LWPOLYLINE
  5
54B
100
AcDbEntity
  8
RACCORDO
100
AcDbPolyline
 62
253
  6
CONTINUOUS
 90
18
 70
0
 10
4.1407350238
 20
-33.1083300779
 10
4.1481029331
 20
-33.1043232382
 10
4.1548144315
 20
-33.0998756378
 10
4.161187062
 20
-33.0948350129
 10
4.1672033862
 20
-33.0892151777
 10
4.1728469619
 20
-33.0830314953
 10
4.1781023771
 20
-33.0763008259
 10
4.1829551432
 20
-33.0690416967
 10
4.1873918238
 20
-33.0612742487
 10
4.1914002157
 20
-33.0530199835
 10
4.1949694548
 20
-33.0443014249
 10
4.1980898732
 20
-33.0351422499
 10
4.2007534469
 20
-33.0255654329
 10
4.2029521392
 20
-33.0155991917
 10
4.2046789842
 20
-33.0052774431
 10
4.2059299285
 20
-32.994631375
 10
4.2067028571
 20
-32.9836885773
 10
4.206996559
 20
-32.9724794797
  0
LWPOLYLINE
  5
54C
100
AcDbEntity
  8
RACCORDO
100
AcDbPolyline
 62
7
  6
CONTINUOUS
 90
22
 70
0
 10
6.2728620321
 20
-32.0559947851
 10
6.282668893
 20
-32.050683779
 10
6.2936805039
 20
-32.0440171283
 10
6.3043441586
 20
-32.0367855027
 10
6.3146308478
 20
-32.0290062842
 10
6.3245195256
 20
-32.0206919924
 10
6.3339827098
 20
-32.0118610106
 10
6.3429909632
 20
-32.0025359182
 10
6.351520313
 20
-31.9927361495
 10
6.3595451304
 20
-31.9824848436
 10
6.3670396365
 20
-31.971808259
 10
6.3739807262
 20
-31.9607321516
 10
6.3803457365
 20
-31.9492847898
 10
6.3861134703
 20
-31.9374957197
 10
6.3912647642
 20
-31.9253944086
 10
6.3957818999
 20
-31.9130109553
 10
6.3996473355
 20
-31.9003803609
 10
6.4028451207
 20
-31.8875412901
 10
6.4053627048
 20
-31.874529649
 10
6.4071896526
 20
-31.8613811817
 10
6.4083171761
 20
-31.84813584
 10
6.4087423786
 20
-31.833560853
  0
LINE
  5
54D
100
AcDbEntity
  8
RACCORDO
100
AcDbLine
 62
7
  6
CONTINUOUS
 10
5.7441722508
 20
-32.3272226508
 11
5.7472661396
 21
-32.3255615491
  0
LINE
  5
54E
100
AcDbEntity
  8
RACCORDO
100
AcDbLine
 62
253
  6
CONTINUOUS
 10
6.3365445216
 20
-31.9214338214
 11
5.8082773498
 21
-32.19244488
  0
LINE
  5
54F
100
AcDbEntity
  8
RACCORDO
100
AcDbLine
 62
7
  6
CONTINUOUS
 10
6.272856484
 20
-32.0559976316
 11
5.7441742205
 21
-32.3272216402
  0
LINE
  5
550
100
AcDbEntity
  8
RACCORDO
100
AcDbLine
 62
7
  6
CONTINUOUS
 10
5.7424358333
 20
-32.3280908738
 11
5.7441722508
 21
-32.3272226508
  0
LINE
  5
551
100
AcDbEntity
  8
RACCORDO
100
AcDbLine
 62
253
  6
CONTINUOUS
 10
5.8082773498
 20
-32.19244488
 11
4.206996559
 21
-32.9724794797
  0
LINE
  5
552
100
AcDbEntity
  8
RACCORDO
100
AcDbLine
 62
7
  6
CONTINUOUS
 10
5.7424330694
 20
-32.3280922202
 11
4.1407349664
 21
-33.1083301058
  0
LWPOLYLINE
  5
553
100
AcDbEntity
  8
RACCORDO
100
AcDbPolyline
 62
7
  6
CONTINUOUS
 90
5
 70
0
 10
1.1185677913
 20
33.1934469624
 10
1.032610756
 20
33.177215169
 10
0.9487465379
 20
33.1536470544
 10
0.8675408111
 20
33.1229932682
 10
0.8346586776
 20
33.1082148273
  0
LWPOLYLINE
  5
554
100
AcDbEntity
  8
RACCORDO
100
AcDbPolyline
 62
7
  6
CONTINUOUS
 90
4
 70
0
 10
1.3799576925
 20
33.1965334587
 10
1.2929781244
 20
33.2031254593
 10
1.2056444578
 20
33.2021063556
 10
1.1185677913
 20
33.1934469624
  0
LWPOLYLINE
  5
555
100
AcDbEntity
  8
RACCORDO
100
AcDbPolyline
 62
253
  6
CONTINUOUS
 90
7
 70
0
 10
1.6825632658
 20
33.1096955637
 10
1.6216231876
 20
33.1288762096
 10
1.5568189455
 20
33.1381435683
 10
1.4888448721
 20
33.1373983465
 10
1.4184292625
 20
33.1266485287
 10
1.3463265712
 20
33.1060092918
 10
1.2733093286
 20
33.0757017709
  0
LWPOLYLINE
  5
556
100
AcDbEntity
  8
RACCORDO
100
AcDbPolyline
 62
7
  6
CONTINUOUS
 90
8
 70
0
 10
30.743210911
 20
18.5805507496
 10
30.8247390248
 20
18.5349057926
 10
30.902272899
 20
18.481377804
 10
30.9748533859
 20
18.4203949224
 10
31.041460474
 20
18.3526703717
 10
31.1014458891
 20
18.2787891712
 10
31.1544262581
 20
18.1990560595
 10
31.1763053037
 20
18.1605261053
  0
LWPOLYLINE
  5
557
100
AcDbEntity
  8
RACCORDO
100
AcDbPolyline
 62
253
  6
CONTINUOUS
 90
3
 70
0
 10
31.0323644752
 20
-14.2341299866
 10
30.9737751738
 20
-14.3269127417
 10
30.9072033548
 20
-14.4095013752
  0
LWPOLYLINE
  5
558
100
AcDbEntity
  8
RACCORDO
100
AcDbPolyline
 62
253
  6
CONTINUOUS
 90
9
 70
0
 10
31.1763053037
 20
18.1605261053
 10
31.1752815917
 20
18.1614981361
 10
31.1681458889
 20
18.1614780188
 10
31.1545658134
 20
18.1577868665
 10
31.1343597245
 20
18.1510657053
 10
31.1081151322
 20
18.1404148995
 10
31.075798876
 20
18.1263940588
 10
31.0374932905
 20
18.1095474345
 10
30.9938873841
 20
18.0889661081
  0
LWPOLYLINE
  5
559
100
AcDbEntity
  8
RACCORDO
100
AcDbPolyline
 62
253
  6
CONTINUOUS
 90
10
 70
0
 10
30.8331029085
 20
18.0107366627
 10
30.7862707903
 20
18.090947577
 10
30.7364340142
 20
18.1679086598
 10
30.6834429871
 20
18.2408069175
 10
30.6263971842
 20
18.3091389187
 10
30.565842446
 20
18.3718492351
 10
30.5039065939
 20
18.4281047729
 10
30.4410936116
 20
18.4779676782
 10
30.3761377251
 20
18.521462832
 10
30.3083380304
 20
18.55818742
  0
LWPOLYLINE
  5
55A
100
AcDbEntity
  8
RACCORDO
100
AcDbPolyline
 62
253
  6
CONTINUOUS
 90
10
 70
0
 10
30.8331034571
 20
18.0107366366
 10
30.9072033534
 20
17.8654229104
 10
30.9737751727
 20
17.7167385645
 10
31.0323644744
 20
17.5656691276
 10
31.082583892
 20
17.4131718394
 10
31.1240678967
 20
17.2603086466
 10
31.156502685
 20
17.1082389555
 10
31.1796808041
 20
16.9580212798
 10
31.1934748613
 20
16.8106070224
 10
31.1978093529
 20
16.6669731824
  0
ELLIPSE
  5
55B
100
AcDbEntity
  8
RACCORDO
100
AcDbEllipse
 62
7
  6
CONTINUOUS
 10
-26.2059283123
 20
22.5905757741
 30
0.0
 11
-0.2234618187
 21
0.4480306886
 31
0.0
 40
0.6116748051
 41
-0.6831523243
 42
0.0400435903
  0
ELLIPSE
  5
55C
100
AcDbEntity
  8
RACCORDO
100
AcDbEllipse
 62
7
  6
CONTINUOUS
 10
-11.1800169243
 20
15.0776200801
 30
0.0
 11
-0.2230998035
 21
0.4477110033
 31
0.0
 40
0.6127700112
 41
-2.1405255729
 42
-0.6836588249
  0
ELLIPSE
  5
55D
100
AcDbEntity
  8
RACCORDO
100
AcDbEllipse
 62
7
  6
CONTINUOUS
 10
-16.2837922347
 20
25.383111202
 30
0.0
 11
1.0116774437
 21
0.6103065281
 31
0.0
 40
0.0919428418
 41
0.0586069399
 42
0.7341271448
  0
ELLIPSE
  5
55E
100
AcDbEntity
  8
RACCORDO
100
AcDbEllipse
 62
7
  6
CONTINUOUS
 10
-9.5005844629
 20
21.1668228917
 30
0.0
 11
0.4169011701
 21
-0.0029496698
 31
0.0
 40
0.4946372042
 41
-0.7731718616
 42
0.0029969018
  0
ELLIPSE
  5
55F
100
AcDbEntity
  8
RACCORDO
100
AcDbEllipse
 62
7
  6
CONTINUOUS
 10
-4.8386970347
 20
19.660563602
 30
0.0
 11
-0.7289505922
 21
1.2073301804
 31
0.0
 40
0.551225497
 41
5.0208023979
 42
6.2423176192
  0
ELLIPSE
  5
560
100
AcDbEntity
  8
RACCORDO
100
AcDbEllipse
 62
7
  6
CONTINUOUS
 10
-15.234374544
 20
18.367858162
 30
0.0
 11
0.4999863728
 21
0.0072295547
 31
0.0
 40
0.5106100819
 41
-2.3635775243
 42
-0.81023449
  0
ELLIPSE
  5
561
100
AcDbEntity
  8
RACCORDO
100
AcDbEllipse
 62
7
  6
CONTINUOUS
 10
-15.234374544
 20
19.5802937273
 30
0.0
 11
0.4999863728
 21
0.0072295547
 31
0.0
 40
0.5106100819
 41
-2.3635775243
 42
-0.81023449
  0
ELLIPSE
  5
562
100
AcDbEntity
  8
RACCORDO
100
AcDbEllipse
 62
7
  6
CONTINUOUS
 10
-20.7373571303
 20
21.1193494551
 30
0.0
 11
0.4999863728
 21
0.0072295547
 31
0.0
 40
0.5106100819
 41
3.1342568986
 42
3.9196077829
  0
ELLIPSE
  5
563
100
AcDbEntity
  8
RACCORDO
100
AcDbEllipse
 62
7
  6
CONTINUOUS
 10
-15.0399228307
 20
23.9364920756
 30
0.0
 11
0.4169011701
 21
-0.0029496698
 31
0.0
 40
0.4946372042
 41
-0.7818985079
 42
0.0030014309
  0
ELLIPSE
  5
564
100
AcDbEntity
  8
RACCORDO
100
AcDbEllipse
 62
7
  6
CONTINUOUS
 10
-20.7373571303
 20
22.3317850204
 30
0.0
 11
0.4999863728
 21
0.0072295547
 31
0.0
 40
0.5106100819
 41
8.6494500558
 42
10.2027930901
  0
ELLIPSE
  5
565
100
AcDbEntity
  8
RACCORDO
100
AcDbEllipse
 62
7
  6
CONTINUOUS
 10
-11.1931957417
 20
15.226027588
 30
0.0
 11
-0.2237046003
 21
0.4472532382
 31
0.0
 40
0.6122950388
 41
-2.2557482655
 42
-1.0837810011
  0
ELLIPSE
  5
566
100
AcDbEntity
  8
RACCORDO
100
AcDbEllipse
 62
7
  6
CONTINUOUS
 10
-23.8539693576
 20
9.2458433082
 30
0.0
 11
13.7437041523
 21
6.9194449042
 31
0.0
 40
0.0205993854
 41
-0.3836218891
 42
-0.2855285856
  0
ELLIPSE
  5
567
100
AcDbEntity
  8
RACCORDO
100
AcDbEllipse
 62
7
  6
CONTINUOUS
 10
-24.5420587346
 20
22.4800327742
 30
0.0
 11
0.2499931864
 21
0.0036147773
 31
0.0
 40
0.5106100819
 41
-2.3635775243
 42
-0.81023449
  0
ELLIPSE
  5
568
100
AcDbEntity
  8
RACCORDO
100
AcDbEllipse
 62
7
  6
CONTINUOUS
 10
-25.8546512758
 20
23.1363290448
 30
0.0
 11
0.2499931864
 21
0.0036147773
 31
0.0
 40
0.5106100819
 41
3.1342569029
 42
3.9196077829
  0
ELLIPSE
  5
569
100
AcDbEntity
  8
RACCORDO
100
AcDbEllipse
 62
7
  6
CONTINUOUS
 10
-38.4191164562
 20
16.5284168574
 30
0.0
 11
13.2723905096
 21
7.1551605682
 31
0.0
 40
0.0214524762
 41
0.3708579951
 42
0.4140605113
  0
ELLIPSE
  5
56A
100
AcDbEntity
  8
RACCORDO
100
AcDbEllipse
 62
7
  6
CONTINUOUS
 10
-26.1927494949
 20
22.7258044646
 30
0.0
 11
-0.2236445579
 21
0.4471998343
 31
0.0
 40
0.6124778111
 41
-0.2859036439
 42
0.7131749537
  0
ELLIPSE
  5
56B
100
AcDbEntity
  8
RACCORDO
100
AcDbEllipse
 62
7
  6
CONTINUOUS
 10
-12.4903331114
 20
16.4541699626
 30
0.0
 11
0.2499931864
 21
0.0036147773
 31
0.0
 40
0.5106100819
 41
3.1342569029
 42
3.9196077829
  0
ELLIPSE
  5
56C
100
AcDbEntity
  8
RACCORDO
100
AcDbEllipse
 62
7
  6
CONTINUOUS
 10
-11.1777405702
 20
15.797873692
 30
0.0
 11
0.2499931864
 21
0.0036147773
 31
0.0
 40
0.5106100819
 41
-2.3635775243
 42
-0.81023449
  0
ELLIPSE
  5
56D
100
AcDbEntity
  8
ASSI
100
AcDbEllipse
 62
7
  6
CONTINUOUS
 10
0.5004748537
 20
16.9064735997
 30
0.0
 11
0.2257019663
 21
0.4461636818
 31
0.0
 40
0.6159267166
 41
0.5380090616
 42
0.6817883054
  0
ELLIPSE
  5
56E
100
AcDbEntity
  8
RACCORDO
100
AcDbEllipse
 62
7
  6
CONTINUOUS
 10
6.5153302749
 20
8.1206373096
 30
0.0
 11
-0.2237046003
 21
0.4472532382
 31
0.0
 40
0.6122950388
 41
-2.2557482655
 42
-0.6847996396
  0
ELLIPSE
  5
56F
100
AcDbEntity
  8
RACCORDO
100
AcDbEllipse
 62
7
  6
CONTINUOUS
 10
6.5153302749
 20
-29.7961270209
 30
0.0
 11
-0.2236445579
 21
0.4471998343
 31
0.0
 40
0.6124778111
 41
-3.1448859382
 42
-2.255529033
  0
ELLIPSE
  5
570
100
AcDbEntity
  8
RACCORDO
100
AcDbEllipse
 62
7
  6
CONTINUOUS
 10
-0.5467082022
 20
17.5145691857
 30
0.0
 11
0.9987332359
 21
0.6172510855
 31
0.0
 40
0.0815198604
 41
0.0509898783
 42
0.7263320369
  0
ELLIPSE
  5
571
100
AcDbEntity
  8
RACCORDO
100
AcDbEllipse
 62
7
  6
CONTINUOUS
 10
11.2440240863
 20
-25.2954645027
 30
0.0
 11
0.9987332359
 21
0.6172510855
 31
0.0
 40
0.0815198604
 41
-2.3978073241
 42
-1.2985018509
  0
ELLIPSE
  5
572
100
AcDbEntity
  8
RACCORDO
100
AcDbEllipse
 62
7
  6
CONTINUOUS
 10
-4.8316168102
 20
14.383953931
 30
0.0
 11
0.4999985559
 21
0.0023864752
 31
0.0
 40
0.5035541159
 41
2.3596088132
 42
3.0002042076
  0
ELLIPSE
  5
573
100
AcDbEntity
  8
DRAFT
100
AcDbEllipse
 62
7
  6
CONTINUOUS
 10
6.4093181138
 20
13.2041302081
 30
0.0
 11
0.4279673669
 21
-0.0030279657
 31
0.0
 40
0.4946372042
 41
-0.7760807437
 42
0.0034304302
  0
ELLIPSE
  5
574
100
AcDbEntity
  8
RACCORDO
100
AcDbEllipse
 62
7
  6
CONTINUOUS
 10
11.2440240863
 20
11.6192030415
 30
0.0
 11
-0.7417913999
 21
1.2002436976
 31
0.0
 40
0.5587454355
 41
5.1248137075
 42
6.2241191807
  0
ELLIPSE
  5
575
100
AcDbEntity
  8
RACCORDO
100
AcDbEllipse
 62
7
  6
CONTINUOUS
 10
11.0649803804
 20
-25.5046848216
 30
0.0
 11
0.499366618
 21
0.3086255427
 31
0.0
 40
0.0815198604
 41
6.1080157147
 42
7.0007906979
  0
ELLIPSE
  5
576
100
AcDbEntity
  8
DRAFT
100
AcDbEllipse
 62
7
  6
CONTINUOUS
 10
0.8543296847
 20
15.9816244227
 30
0.0
 11
0.4279673669
 21
-0.0030279657
 31
0.0
 40
0.4946372042
 41
-0.7818985079
 42
0.0034334386
  0
ELLIPSE
  5
577
100
AcDbEntity
  8
RACCORDO
100
AcDbEllipse
 62
7
  6
CONTINUOUS
 10
11.0649803804
 20
12.7145738475
 30
0.0
 11
-0.3708957
 21
0.6001218488
 31
0.0
 40
0.5587454355
 41
-3.1744788413
 42
-2.2817038581
  0
ELLIPSE
  5
578
100
AcDbEntity
  8
ASSI
100
AcDbEllipse
 62
7
  6
CONTINUOUS
 10
6.6613071245
 20
13.8260574643
 30
0.0
 11
0.221538876
 21
0.4482453432
 31
0.0
 40
0.6088015717
 41
0.5323082896
 42
0.6760875334
  0
ELLIPSE
  5
579
100
AcDbEntity
  8
RACCORDO
100
AcDbEllipse
 62
7
  6
CONTINUOUS
 10
0.6796902894
 20
10.395690776
 30
0.0
 11
0.4998587701
 21
0.0223649649
 31
0.0
 40
0.5313301283
 41
-2.3799630874
 42
-0.8149845248
  0
ELLIPSE
  5
57A
100
AcDbEntity
  8
RACCORDO
100
AcDbEllipse
 62
7
  6
CONTINUOUS
 10
0.6796902894
 20
11.6283003812
 30
0.0
 11
0.4999985559
 21
0.0023864752
 31
0.0
 40
0.5035541159
 41
-1.4342147631
 42
-0.7936193687
  0
ELLIPSE
  5
57B
100
AcDbEntity
  8
RACCORDO
100
AcDbEllipse
 62
7
  6
CONTINUOUS
 10
-4.8316168102
 20
13.1513443258
 30
0.0
 11
0.4998587701
 21
0.0223649649
 31
0.0
 40
0.5313301283
 41
3.1178197826
 42
3.9032222197
  0
ELLIPSE
  5
57C
100
AcDbEntity
  8
RACCORDO
100
AcDbEllipse
 62
7
  6
CONTINUOUS
 10
-9.9550585953
 20
15.1486952813
 30
0.0
 11
0.249929385
 21
0.0111824824
 31
0.0
 40
0.5313301283
 41
3.1179086008
 42
3.9032222197
  0
ELLIPSE
  5
57D
100
AcDbEntity
  8
RACCORDO
100
AcDbEllipse
 62
7
  6
CONTINUOUS
 10
-8.6218462617
 20
14.4820891145
 30
0.0
 11
0.249929385
 21
0.0111824824
 31
0.0
 40
0.5313301283
 41
-2.3799630874
 42
-0.8149845248
  0
ELLIPSE
  5
57E
100
AcDbEntity
  8
RACCORDO
100
AcDbEllipse
 62
7
  6
CONTINUOUS
 10
3.4092595691
 20
8.4665361991
 30
0.0
 11
0.249929385
 21
0.0111824824
 31
0.0
 40
0.5313301283
 41
3.1178369227
 42
3.9032222197
  0
ELLIPSE
  5
57F
100
AcDbEntity
  8
RACCORDO
100
AcDbEllipse
 62
7
  6
CONTINUOUS
 10
4.7424719027
 20
7.7999300323
 30
0.0
 11
0.249929385
 21
0.0111824824
 31
0.0
 40
0.5313301283
 41
-2.3799630874
 42
-1.3352760237
  0
ELLIPSE
  5
580
100
AcDbEntity
  8
DRAFT
100
AcDbEllipse
 62
7
  6
CONTINUOUS
 10
2.5909414954
 20
26.894898106
 30
0.0
 11
2.09998714
 21
-0.0148578829
 31
0.0
 40
0.4946372042
 41
6.8426648362
 42
8.858130285
  0
ELLIPSE
  5
581
100
AcDbEntity
  8
DRAFT
100
AcDbEllipse
 62
7
  6
CONTINUOUS
 10
6.1264754014
 20
25.127131153
 30
0.0
 11
2.09998714
 21
-0.0148578829
 31
0.0
 40
0.4946372042
 41
6.8426648362
 42
8.858130285
  0
ELLIPSE
  5
582
100
AcDbEntity
  8
DRAFT
100
AcDbEllipse
 62
7
  6
CONTINUOUS
 10
9.6620093073
 20
23.3593642001
 30
0.0
 11
2.09998714
 21
-0.0148578829
 31
0.0
 40
0.4946372042
 41
6.8426648362
 42
8.858130285
  0
ELLIPSE
  5
583
100
AcDbEntity
  8
DRAFT
100
AcDbEllipse
 62
7
  6
CONTINUOUS
 10
13.1975432132
 20
21.5915972471
 30
0.0
 11
2.09998714
 21
-0.0148578829
 31
0.0
 40
0.4946372042
 41
6.8426648362
 42
8.858130285
  0
ELLIPSE
  5
584
100
AcDbEntity
  8
DRAFT
100
AcDbEllipse
 62
7
  6
CONTINUOUS
 10
16.7330771191
 20
19.8238302941
 30
0.0
 11
2.09998714
 21
-0.0148578829
 31
0.0
 40
0.4946372042
 41
6.8426648362
 42
8.858130285
  0
ELLIPSE
  5
585
100
AcDbEntity
  8
DRAFT
100
AcDbEllipse
 62
7
  6
CONTINUOUS
 10
20.2686110251
 20
18.0560633412
 30
0.0
 11
2.09998714
 21
-0.0148578829
 31
0.0
 40
0.4946372042
 41
6.8426648362
 42
8.858130285
  0
ELLIPSE
  5
586
100
AcDbEntity
  8
DRAFT
100
AcDbEllipse
 62
7
  6
CONTINUOUS
 10
23.804144931
 20
16.2882963882
 30
0.0
 11
2.09998714
 21
-0.0148578829
 31
0.0
 40
0.4946372042
 41
6.8426648362
 42
8.858130285
  0
ENDSEC
  0
SECTION
  2
OBJECTS
  0
DICTIONARY
  5
C
100
AcDbDictionary
280
0
281
1
  3
ACAD_GROUP
350
D
  3
ACAD_MLINESTYLE
350
17
  3
ACAD_LAYOUT
350
1A
  3
ACAD_PLOTSETTINGS
350
19
  3
ACAD_PLOTSTYLENAME
350
E
  0
DICTIONARY
  5
D
102
{ACAD_REACTORS
330
C
102
}
100
AcDbDictionary
280
0
281
1
  0
ACDBDICTIONARYWDFLT
  5
E
102
{ACAD_REACTORS
330
C
102
}
100
AcDbDictionary
281
1
  3
Normal
350
F
100
AcDbDictionaryWithDefault
340
F
  0
DICTIONARY
  5
17
102
{ACAD_REACTORS
330
C
102
}
100
AcDbDictionary
280
0
281
1
  3
Standard
350
18
  0
DICTIONARY
  5
19
102
{ACAD_REACTORS
330
C
102
}
100
AcDbDictionary
281
1
  0
DICTIONARY
  5
1A
102
{ACAD_REACTORS
330
C
102
}
100
AcDbDictionary
281
1
  3
Model
350
587
  3
Layout1
350
588
  0
ACDBPLACEHOLDER
  5
F
102
{ACAD_REACTORS
330
E
102
}
  0
MLINESTYLE
  5
18
102
{ACAD_REACTORS
330
17
102
}
100
AcDbMlineStyle
  2
STANDARD
 70
0
  3

 62
256
 51
90.0
 52
90.0
 71
2
 49
0.5
 62
256
  6
BYLAYER
 49
-0.5
 62
256
  6
BYLAYER
  0
LAYOUT
  5
587
102
{ACAD_REACTORS
330
1A
102
}
100
AcDbPlotSettings
  1

  2
none_device
  4
ISO_A4_(297.00_x_210.00_MM)
  6

 40
0.0
 41
0.0
 42
0.0
 43
0.0
 44
297.0
 45
210.0
 46
0.0
 47
0.0
 48
0.0
 49
0.0
140
0.0
141
0.0
142
1.0
143
1.0
 70
1024
 72
1
 73
0
 74
0
  7

 75
0
147
1.0
148
0.0
149
0.0
100
AcDbLayout
  1
Model
 70
0
 71
0
 10
0.0
 20
0.0
 11
297.0
 21
210.0
 12
0.0
 22
0.0
 32
0.0
 14
0.0
 24
0.0
 34
0.0
 15
0.0
 25
0.0
 35
0.0
146
0.0
 13
0.0
 23
0.0
 33
0.0
 16
1.0
 26
0.0
 36
0.0
 17
0.0
 27
1.0
 37
0.0
 76
0
330
217
345
0
346
0
  0
LAYOUT
  5
588
102
{ACAD_REACTORS
330
1A
102
}
100
AcDbPlotSettings
  1

  2
none_device
  4
ISO_A4_(297.00_x_210.00_MM)
  6

 40
0.0
 41
0.0
 42
0.0
 43
0.0
 44
297.0
 45
210.0
 46
0.0
 47
0.0
 48
0.0
 49
0.0
140
0.0
141
0.0
142
1.0
143
1.0
 70
0
 72
1
 73
0
 74
0
  7

 75
0
147
1.0
148
0.0
149
0.0
100
AcDbLayout
  1
Layout1
 70
0
 71
1
 10
0.0
 20
0.0
 11
297.0
 21
210.0
 12
0.0
 22
0.0
 32
0.0
 14
0.0
 24
0.0
 34
0.0
 15
0.0
 25
0.0
 35
0.0
146
0.0
 13
0.0
 23
0.0
 33
0.0
 16
1.0
 26
0.0
 36
0.0
 17
0.0
 27
1.0
 37
0.0
 76
0
330
218
345
0
346
0
  0
ENDSEC
  0
EOF
