  0
SECTION
  2
HEADER
  9
$ACADVER
  1
AC1024
  9
$DWGCODEPAGE
  3
ANSI_1252
  9
$EXTMAX
 10
210.0
 20
297.0
 30
0.0
  9
$EXTMIN
 10
0.0
 20
0.0
 30
0.0
  9
$LIMMIN
 10
0.0
 20
0.0
  9
$LIMMAX
 10
210.0
 20
297.0
  9
$VIEWCTR
 10
105.0
 20
148.5
  9
$VIEWSIZE
 40
297.0
  9
$CLAYER
  8
0
  9
$LTSCALE
 40
19.36
  9
$CELTYPE
  6
BYLAYER
  9
$DIMSCALE
 40
1.0
  9
$DIMASZ
 40
3.0
  9
$DIMEXO
 40
0.5
  9
$DIMDLI
 40
13.376
  9
$DIMEXE
 40
1.5
  9
$DIMCEN
 40
3.168
  9
$DIMLFAC
 40
1.0
  9
$DIMBLK
  1
_FILLED
  9
$DIMALT
 70
0
  9
$DIMALTF
 40
0.0393700787
  9
$DIMTXT
 40
3.0
  9
$DIMTOL
 70
1
  9
$DIMLIM
 70
0
  9
$DIMTFAC
 40
1.0
  9
$DIMTP
 40
0.01
  9
$DIMTM
 40
0.01
  9
$DIMGAP
 40
0.625
  9
$DIMDSEP
 70
44
  9
$AUNITS
 70
0
  9
$PDMODE
 70
3
  9
$PDSIZE
 40
3.0
  9
$HANDSEED
  5
24C
  9
$TILEMODE
 70
1
  9
$MEASUREMENT
 70
1
  9
$INSUNITS
 70
4
  0
ENDSEC
  0
SECTION
  2
CLASSES
  0
CLASS
  1
ACDBDICTIONARYWDFLT
  2
AcDbDictionaryWithDefault
  3
AutoCAD 2000
 90
0
 91
1
280
0
281
0
  0
CLASS
  1
ACDBPLACEHOLDER
  2
AcDbPlaceHolder
  3
AutoCAD 2000
 90
0
 91
1
280
0
281
0
  0
CLASS
  1
LAYOUT
  2
AcDbLayout
  3
AutoCAD 2000
 90
0
 91
0
280
0
281
0
  0
ENDSEC
  0
SECTION
  2
TABLES
  0
TABLE
  2
VPORT
  5
8
100
AcDbSymbolTable
 70
2
  0
VPORT
  5
1F4
100
AcDbSymbolTableRecord
100
AcDbViewportTableRecord
  2
*ACTIVE
 70
0
 10
0.0
 20
0.0
 11
1.0
 21
1.0
 12
105.0
 22
148.5
 13
0.0
 23
0.0
 14
1.0
 24
1.0
 15
0.0
 25
0.0
 16
0.0
 26
0.0
 36
1.0
 17
0.0
 27
0.0
 37
0.0
 40
297.0
 41
0.7070707071
 42
50.0
 43
0.0
 44
0.0
 50
0.0
 51
0.0
 71
0
 72
100
 73
1
 74
1
 75
0
 76
0
 77
0
 78
0
  0
ENDTAB
  0
TABLE
  2
LTYPE
  5
5
100
AcDbSymbolTable
 70
6
  0
LTYPE
  5
14
100
AcDbSymbolTableRecord
100
AcDbLinetypeTableRecord
  2
BYBLOCK
 70
0
  3

 72
65
 73
0
 40
0.0
  0
LTYPE
  5
15
100
AcDbSymbolTableRecord
100
AcDbLinetypeTableRecord
  2
BYLAYER
 70
0
  3

 72
65
 73
0
 40
0.0
  0
LTYPE
  5
16
100
AcDbSymbolTableRecord
100
AcDbLinetypeTableRecord
  2
CONTINUOUS
 70
64
  3
Solid line
 72
65
 73
0
 40
0.0
  0
LTYPE
  5
1F5
100
AcDbSymbolTableRecord
100
AcDbLinetypeTableRecord
  2
CENTER
 70
64
  3
____ _ ____ _ ____ _ ____ _ ____ _ ____ _ ____
 72
65
 73
4
 40
0.6
 49
0.375
 74
0
 49
-0.075
 74
0
 49
0.075
 74
0
 49
-0.075
 74
0
  0
LTYPE
  5
1F6
100
AcDbSymbolTableRecord
100
AcDbLinetypeTableRecord
  2
HIDDEN
 70
64
  3
- - - - - - - - - - - - - - - - - - - -
 72
65
 73
2
 40
0.2
 49
0.1
 74
0
 49
-0.1
 74
0
  0
LTYPE
  5
1F7
100
AcDbSymbolTableRecord
100
AcDbLinetypeTableRecord
  2
PHANTOM
 70
64
  3
_____ _ _ _____ _ _ _____ _ _ _____
 72
65
 73
6
 40
0.8
 49
0.45
 74
0
 49
-0.05
 74
0
 49
0.1
 74
0
 49
-0.05
 74
0
 49
0.1
 74
0
 49
-0.05
 74
0
  0
LTYPE
  5
1F8
100
AcDbSymbolTableRecord
100
AcDbLinetypeTableRecord
  2
DOT
 70
64
  3
. . . . . . . . . . . . . . . . . . . .
 72
65
 73
2
 40
0.2
 49
0.1
 74
0
 49
-0.1
 74
0
  0
LTYPE
  5
1F9
100
AcDbSymbolTableRecord
100
AcDbLinetypeTableRecord
  2
DASHED
 70
64
  3
- - - - - - - - - - - - - - - - - - - -
 72
65
 73
2
 40
0.2
 49
0.1
 74
0
 49
-0.1
 74
0
  0
ENDTAB
  0
TABLE
  2
LAYER
  5
2
100
AcDbSymbolTable
 70
36
  0
LAYER
  5
10
100
AcDbSymbolTableRecord
100
AcDbLayerTableRecord
  2
0
 70
0
 62
7
  6
CONTINUOUS
370
-3
390
F
  0
LAYER
  5
1FA
100
AcDbSymbolTableRecord
100
AcDbLayerTableRecord
  2
DEFAULT_1
 70
0
 62
7
  6
CENTER
370
-3
390
F
  0
LAYER
  5
1FB
100
AcDbSymbolTableRecord
100
AcDbLayerTableRecord
  2
DEFAULT_2
 70
0
 62
7
  6
HIDDEN
370
-3
390
F
  0
LAYER
  5
1FC
100
AcDbSymbolTableRecord
100
AcDbLayerTableRecord
  2
DEFAULT_3
 70
0
 62
7
  6
PHANTOM
370
-3
390
F
  0
LAYER
  5
1FD
100
AcDbSymbolTableRecord
100
AcDbLayerTableRecord
  2
ASSI
 70
0
 62
7
  6
CONTINUOUS
370
-3
390
F
  0
LAYER
  5
1FE
100
AcDbSymbolTableRecord
100
AcDbLayerTableRecord
  2
COORDINATE
 70
0
 62
7
  6
CONTINUOUS
370
-3
390
F
  0
LAYER
  5
1FF
100
AcDbSymbolTableRecord
100
AcDbLayerTableRecord
  2
COORD_ORIGINE
 70
0
 62
7
  6
CONTINUOUS
370
-3
390
F
  0
LAYER
  5
200
100
AcDbSymbolTableRecord
100
AcDbLayerTableRecord
  2
COSMETICI
 70
0
 62
7
  6
CONTINUOUS
370
-3
390
F
  0
LAYER
  5
201
100
AcDbSymbolTableRecord
100
AcDbLayerTableRecord
  2
CURVE
 70
0
 62
7
  6
CONTINUOUS
370
-3
390
F
  0
LAYER
  5
202
100
AcDbSymbolTableRecord
100
AcDbLayerTableRecord
  2
CURVE_LED_TASTO
 70
0
 62
7
  6
CONTINUOUS
370
-3
390
F
  0
LAYER
  5
203
100
AcDbSymbolTableRecord
100
AcDbLayerTableRecord
  2
DRAFT
 70
0
 62
7
  6
CONTINUOUS
370
-3
390
F
  0
LAYER
  5
204
100
AcDbSymbolTableRecord
100
AcDbLayerTableRecord
  2
IGES_SCRITTE
 70
0
 62
7
  6
CONTINUOUS
370
-3
390
F
  0
LAYER
  5
205
100
AcDbSymbolTableRecord
100
AcDbLayerTableRecord
  2
INTF_1
 70
0
 62
7
  6
CONTINUOUS
370
-3
390
F
  0
LAYER
  5
206
100
AcDbSymbolTableRecord
100
AcDbLayerTableRecord
  2
INTF_11
 70
0
 62
7
  6
CONTINUOUS
370
-3
390
F
  0
LAYER
  5
207
100
AcDbSymbolTableRecord
100
AcDbLayerTableRecord
  2
NOTE
 70
0
 62
7
  6
CONTINUOUS
370
-3
390
F
  0
LAYER
  5
208
100
AcDbSymbolTableRecord
100
AcDbLayerTableRecord
  2
PIANI
 70
0
 62
7
  6
CONTINUOUS
370
-3
390
F
  0
LAYER
  5
209
100
AcDbSymbolTableRecord
100
AcDbLayerTableRecord
  2
PIANI_ORIGINE
 70
0
 62
7
  6
CONTINUOUS
370
-3
390
F
  0
LAYER
  5
20A
100
AcDbSymbolTableRecord
100
AcDbLayerTableRecord
  2
PIANI_RIFERIMENTO
 70
0
 62
7
  6
CONTINUOUS
370
-3
390
F
  0
LAYER
  5
20B
100
AcDbSymbolTableRecord
100
AcDbLayerTableRecord
  2
PUNTI
 70
0
 62
7
  6
CONTINUOUS
370
-3
390
F
  0
LAYER
  5
20C
100
AcDbSymbolTableRecord
100
AcDbLayerTableRecord
  2
RACCORDO
 70
0
 62
7
  6
CONTINUOUS
370
-3
390
F
  0
LAYER
  5
20D
100
AcDbSymbolTableRecord
100
AcDbLayerTableRecord
  2
RGB____0____0____0__
 70
0
 62
7
  6
CONTINUOUS
370
-3
390
F
  0
LAYER
  5
20E
100
AcDbSymbolTableRecord
100
AcDbLayerTableRecord
  2
SIMBOLI
 70
0
 62
7
  6
CONTINUOUS
370
-3
390
F
  0
LAYER
  5
20F
100
AcDbSymbolTableRecord
100
AcDbLayerTableRecord
  2
SMUSSO
 70
0
 62
7
  6
CONTINUOUS
370
-3
390
F
  0
LAYER
  5
210
100
AcDbSymbolTableRecord
100
AcDbLayerTableRecord
  2
SUPERFICI
 70
0
 62
7
  6
CONTINUOUS
370
-3
390
F
  0
LAYER
  5
211
100
AcDbSymbolTableRecord
100
AcDbLayerTableRecord
  2
TRASH
 70
0
 62
7
  6
CONTINUOUS
370
-3
390
F
  0
ENDTAB
  0
TABLE
  2
STYLE
  5
3
100
AcDbSymbolTable
 70
1
  0
STYLE
  5
11
100
AcDbSymbolTableRecord
100
AcDbTextStyleTableRecord
  2
STANDARD
 70
0
 40
0.0
 41
0.8
 50
0.0
 71
0
 42
0.2
  3
txt
  4

  0
STYLE
  5
212
100
AcDbSymbolTableRecord
100
AcDbTextStyleTableRecord
  2
TEXTSTYLE_1
 70
0
 40
0.0
 41
0.8
 50
0.0
 71
0
 42
0.2
  3
gdt
  4

  0
ENDTAB
  0
TABLE
  2
VIEW
  5
6
100
AcDbSymbolTable
 70
0
  0
ENDTAB
  0
TABLE
  2
UCS
  5
7
100
AcDbSymbolTable
 70
0
  0
ENDTAB
  0
TABLE
  2
APPID
  5
9
100
AcDbSymbolTable
 70
1
  0
APPID
  5
213
100
AcDbSymbolTableRecord
100
AcDbRegAppTableRecord
  2
ACAD
 70
0
  0
ENDTAB
  0
TABLE
  2
BLOCK_RECORD
  5
1
100
AcDbSymbolTable
 70
0
  0
BLOCK_RECORD
  5
214
100
AcDbSymbolTableRecord
100
AcDbBlockTableRecord
  2
*Model_Space
  0
BLOCK_RECORD
  5
215
100
AcDbSymbolTableRecord
100
AcDbBlockTableRecord
  2
*Paper_Space
  0
BLOCK_RECORD
  5
216
100
AcDbSymbolTableRecord
100
AcDbBlockTableRecord
  2
_FILLED
  0
ENDTAB
  0
TABLE
  2
DIMSTYLE
  5
A
100
AcDbSymbolTable
 70
1
100
AcDbDimStyleTable
 71
0
  0
DIMSTYLE
105
217
100
AcDbSymbolTableRecord
100
AcDbDimStyleTableRecord
  2
STANDARD
 70
0
  3

  4

 40
1.0
 41
3.0
 42
0.5
 43
0.38
 44
1.5
 45
0.0
 46
0.0
 47
0.01
 48
0.01
140
3.0
141
0.09
142
0.0
143
25.4
144
1.0
145
0.0
146
1.0
147
0.625
 71
1
 72
0
 73
0
 74
0
 75
0
 76
0
 77
1
 78
8
 79
2
170
0
171
1
172
0
173
0
174
0
175
0
176
0
177
0
178
0
270
2
179
2
271
2
272
2
273
2
274
2
275
0
280
0
281
0
282
0
283
1
284
8
285
0
286
0
287
3
288
0
340
11
278
44
341
216
342
216
343
216
344
216
  0
ENDTAB
  0
ENDSEC
  0
SECTION
  2
BLOCKS
  0
BLOCK
  5
20
100
AcDbEntity
  8
0
100
AcDbBlockBegin
  2
*Model_Space
 70
0
 10
0.0
 20
0.0
 30
0.0
  3
*Model_Space
  1

  0
ENDBLK
  5
21
100
AcDbEntity
  8
0
100
AcDbBlockEnd
  0
BLOCK
  5
1C
100
AcDbEntity
  8
0
100
AcDbBlockBegin
  2
*Paper_Space
 70
0
 10
0.0
 20
0.0
 30
0.0
  3
*Paper_Space
  1

  0
ENDBLK
  5
1D
100
AcDbEntity
  8
0
100
AcDbBlockEnd
  0
BLOCK
  5
218
100
AcDbEntity
  8
0
100
AcDbBlockBegin
  2
_FILLED
 70
64
 10
0.0
 20
0.0
  3
_FILLED
  1

  0
SOLID
  5
219
100
AcDbEntity
  8
0
  6
BYBLOCK
 62
0
100
AcDbTrace
 10
0.0
 20
0.0
 11
-1.0
 21
0.3166666667
 12
-1.0
 22
-0.3166666667
 13
-1.0
 23
-0.3166666667
  0
ENDBLK
  5
21A
100
AcDbEntity
  8
0
  6
BYBLOCK
 62
0
100
AcDbBlockEnd
  0
ENDSEC
  0
SECTION
  2
ENTITIES
  0
LWPOLYLINE
  5
21B
100
AcDbEntity
  8
RACCORDO
100
AcDbPolyline
 62
7
  6
CONTINUOUS
 90
19
 70
0
 10
-16.9969909716
 20
25.9459422364
 10
-17.0225719632
 20
25.9286983043
 10
-17.1058964437
 20
25.8671457681
 10
-17.1852806121
 20
25.8002634547
 10
-17.2609320168
 20
25.7282079729
 10
-17.3327832737
 20
25.6513017149
 10
-17.4003957992
 20
25.5702335913
 10
-17.4637928647
 20
25.485209458
 10
-17.5229039441
 20
25.3964028109
 10
-17.5771778833
 20
25.3047184668
 10
-17.6265653218
 20
25.2103455447
 10
-17.6709368594
 20
25.1134246481
 10
-17.709830074
 20
25.0149082334
 10
-17.7431285674
 20
24.914953365
 10
-17.7706687139
 20
24.8136347468
 10
-17.792103822
 20
24.7116729978
 10
-17.8071995853
 20
24.6093004981
 10
-17.815735913
 20
24.5064468901
 10
-17.8167413219
 20
24.4825663711
  0
LINE
  5
21C
100
AcDbEntity
  8
RACCORDO
100
AcDbLine
 62
7
  6
CONTINUOUS
 10
-16.9971739542
 20
25.9458328925
 11
-14.3689820957
 21
27.6791007059
  0
LINE
  5
21D
100
AcDbEntity
  8
RACCORDO
100
AcDbLine
 62
250
  6
CONTINUOUS
 10
-16.5863428793
 20
25.913176118
 11
-13.9559995895
 21
27.6478627802
  0
LWPOLYLINE
  5
21E
100
AcDbEntity
  8
RACCORDO
100
AcDbPolyline
 62
250
  6
CONTINUOUS
 90
11
 70
0
 10
-16.9969961262
 20
25.9459500587
 10
-16.9843963496
 20
25.9537146815
 10
-16.9491341481
 20
25.9705148301
 10
-16.9108890387
 20
25.9820505628
 10
-16.8699517515
 20
25.9882341877
 10
-16.826633482
 20
25.9890186983
 10
-16.7812635253
 20
25.9843981311
 10
-16.7341867732
 20
25.9744076103
 10
-16.6857610919
 20
25.9591230816
 10
-16.6363546018
 20
25.9386607342
 10
-16.5863428793
 20
25.913176118
  0
LWPOLYLINE
  5
21F
100
AcDbEntity
  8
RACCORDO
100
AcDbPolyline
 62
250
  6
CONTINUOUS
 90
10
 70
0
 10
-17.8166955527
 20
-9.0656990939
 10
-17.8132423107
 20
-9.1010616634
 10
-17.8037108903
 20
-9.1419445336
 10
-17.7883257976
 20
-9.1820467208
 10
-17.7672015388
 20
-9.2210697578
 10
-17.7404953346
 20
-9.2587232094
 10
-17.7084059503
 20
-9.2947268337
 10
-17.6711722164
 20
-9.3288126677
 10
-17.6290712511
 20
-9.3607270221
 10
-17.5824163979
 20
-9.390232369
  0
LWPOLYLINE
  5
220
100
AcDbEntity
  8
RACCORDO
100
AcDbPolyline
 62
7
  6
CONTINUOUS
 90
15
 70
0
 10
-17.8166856676
 20
-9.0656987395
 10
-17.8101621877
 20
-9.159649974
 10
-17.7968669014
 20
-9.2545882381
 10
-17.7772732275
 20
-9.3455207389
 10
-17.7517995109
 20
-9.4320567467
 10
-17.7207782805
 20
-9.5142270519
 10
-17.6843673156
 20
-9.5922762049
 10
-17.6429575509
 20
-9.665834683
 10
-17.5969106094
 20
-9.7347329081
 10
-17.5462117767
 20
-9.7992658231
 10
-17.4912416535
 20
-9.8590886111
 10
-17.4323690401
 20
-9.913947104
 10
-17.3694167534
 20
-9.9640549024
 10
-17.3025453957
 20
-10.0092150526
 10
-17.274626134
 20
-10.0259069113
  0
LWPOLYLINE
  5
221
100
AcDbEntity
  8
RACCORDO
100
AcDbPolyline
 62
250
  6
CONTINUOUS
 90
28
 70
0
 10
-17.5824163983
 20
-9.3902323693
 10
-17.6242732002
 20
-8.1730295471
 10
-17.6629082456
 20
-6.9538371412
 10
-17.6983218078
 20
-5.7326668558
 10
-17.7305140045
 20
-4.5095380333
 10
-17.7594853966
 20
-3.2844548071
 10
-17.7852367842
 20
-2.0574059767
 10
-17.8077683772
 20
-0.828403116
 10
-17.8270804182
 20
0.4025420342
 10
-17.8431734364
 20
1.6354406222
 10
-17.8560475496
 20
2.8702810534
 10
-17.8657029115
 20
4.1070517313
 10
-17.8721397867
 20
5.3457639936
 10
-17.875358202
 20
6.586406307
 10
-17.8753582203
 20
7.8289671283
 10
-17.8721398409
 20
9.0734579666
 10
-17.8657029999
 20
10.3198673453
 10
-17.8560476688
 20
11.5681837696
 10
-17.8431735822
 20
12.8184189019
 10
-17.8270805848
 20
14.0705613183
 10
-17.8077685576
 20
15.3245995667
 10
-17.7852369703
 20
16.5805454436
 10
-17.7594855783
 20
17.8383875084
 10
-17.7305141709
 20
19.098114411
 10
-17.6983219488
 20
20.3597382548
 10
-17.6629083512
 20
21.6232555474
 10
-17.624273259
 20
22.8886470896
 10
-17.5824163983
 20
24.1559014932
  0
LWPOLYLINE
  5
222
100
AcDbEntity
  8
RACCORDO
100
AcDbPolyline
 62
250
  6
CONTINUOUS
 90
11
 70
0
 10
-17.8167413219
 20
24.4825663711
 10
-17.8168427801
 20
24.4703858855
 10
-17.8132355578
 20
24.4321869683
 10
-17.8037037992
 20
24.3941608963
 10
-17.7883184455
 20
24.3565906818
 10
-17.7671940035
 20
24.3197559448
 10
-17.7404876939
 20
24.2839308313
 10
-17.7083982809
 20
24.2493819732
 10
-17.6711645929
 20
24.2163665035
 10
-17.6290637451
 20
24.185130143
 10
-17.582409077
 20
24.1559053713
  0
LWPOLYLINE
  5
223
100
AcDbEntity
  8
RACCORDO
100
AcDbPolyline
 62
7
  6
CONTINUOUS
 90
10
 70
0
 10
-17.8167391583
 20
24.4828121665
 10
-17.9313504325
 20
20.7347691027
 10
-18.0188997853
 20
16.9414002851
 10
-18.0772638323
 20
13.1646222571
 10
-18.106436607
 20
9.4047526249
 10
-18.1064145915
 20
5.6621056541
 10
-18.0771966405
 20
1.9369922032
 10
-18.0187839798
 20
-1.7702763802
 10
-17.9311802843
 20
-5.4593882189
 10
-17.8166982109
 20
-9.0656249844
  0
LWPOLYLINE
  5
224
100
AcDbEntity
  8
RACCORDO
100
AcDbPolyline
 62
250
  6
CONTINUOUS
 90
22
 70
0
 10
-17.5824163983
 20
24.1559014932
 10
-17.5767785102
 20
24.2451079347
 10
-17.5659669378
 20
24.3366720548
 10
-17.5500361939
 20
24.4301408574
 10
-17.5290680188
 20
24.5250499279
 10
-17.5031661352
 20
24.6209322775
 10
-17.472454285
 20
24.7173208749
 10
-17.4370826345
 20
24.8137474356
 10
-17.3972284997
 20
24.9097278986
 10
-17.3530917431
 20
25.0047718238
 10
-17.3048996048
 20
25.0984004771
 10
-17.2528884536
 20
25.1901625981
 10
-17.1973017923
 20
25.2796189507
 10
-17.1384099798
 20
25.3663368909
 10
-17.0765110377
 20
25.4498782221
 10
-17.0119138002
 20
25.5298156657
 10
-16.9449454388
 20
25.6057509266
 10
-16.8759358592
 20
25.6773156158
 10
-16.8052163446
 20
25.7441574504
 10
-16.7331350639
 20
25.8059467191
 10
-16.6600557558
 20
25.8623789454
 10
-16.5863428793
 20
25.913176118
  0
LWPOLYLINE
  5
225
100
AcDbEntity
  8
RACCORDO
100
AcDbPolyline
 62
7
  6
CONTINUOUS
 90
15
 70
0
 10
13.1334632677
 20
-27.5831564922
 10
13.1638496961
 20
-27.6000583564
 10
13.2396483381
 20
-27.6367264983
 10
13.318074532
 20
-27.6671448666
 10
13.3988102683
 20
-27.6912274351
 10
13.4820039516
 20
-27.7089791067
 10
13.5672135979
 20
-27.7201936246
 10
13.6538921544
 20
-27.7247007609
 10
13.7421562202
 20
-27.7223586246
 10
13.8316230796
 20
-27.7129862035
 10
13.921765221
 20
-27.6964624506
 10
14.012647807
 20
-27.6725461055
 10
14.1040873252
 20
-27.6409758705
 10
14.1954931247
 20
-27.6016723771
 10
14.2201654623
 20
-27.5896934537
  0
LWPOLYLINE
  5
226
100
AcDbEntity
  8
RACCORDO
100
AcDbPolyline
 62
250
  6
CONTINUOUS
 90
12
 70
0
 10
-17.2752112789
 20
-10.0255787445
 10
-17.3049027815
 20
-10.0069967131
 10
-17.3530944415
 20
-9.9699319527
 10
-17.3972303695
 20
-9.926691764
 10
-17.4370836256
 20
-9.8774933178
 10
-17.4724548502
 20
-9.8225840632
 10
-17.5031668934
 20
-9.7622409822
 10
-17.5290690619
 20
-9.6967608502
 10
-17.5500371551
 20
-9.6264619946
 10
-17.5659675253
 20
-9.5516899049
 10
-17.5767787248
 20
-9.4728166494
 10
-17.5824163983
 20
-9.3902323693
  0
LINE
  5
227
100
AcDbEntity
  8
RACCORDO
100
AcDbLine
 62
7
  6
CONTINUOUS
 10
13.1340332385
 20
-27.5834954115
 11
-17.2752113848
 21
-10.0255786833
  0
LINE
  5
228
100
AcDbEntity
  8
RACCORDO
100
AcDbLine
 62
250
  6
CONTINUOUS
 10
12.8217816705
 20
-26.9452352802
 11
-17.5824163983
 21
-9.3902323693
  0
LINE
  5
229
100
AcDbEntity
  8
RACCORDO
100
AcDbLine
 62
250
  6
CONTINUOUS
 10
16.5580160971
 20
10.0294525531
 11
13.8342158848
 21
8.3487267467
  0
LWPOLYLINE
  5
22A
100
AcDbEntity
  8
RACCORDO
100
AcDbPolyline
 62
250
  6
CONTINUOUS
 90
19
 70
0
 10
13.9427161167
 20
6.5681353181
 10
13.8910897174
 20
6.5440526672
 10
13.8357114688
 20
6.5226222311
 10
13.7769935325
 20
6.5040035095
 10
13.7153729266
 20
6.4883350751
 10
13.6513082724
 20
6.475733543
 10
13.5852763817
 20
6.4662927021
 10
13.5177687077
 20
6.4600828174
 10
13.4492876873
 20
6.457150107
 10
13.3803430018
 20
6.457516398
 10
13.3114477834
 20
6.4611789644
 10
13.2431147961
 20
6.4681105468
 10
13.1758526193
 20
6.4782595558
 10
13.1101618629
 20
6.4915504557
 10
13.0465314411
 20
6.5078843269
 10
12.9854349337
 20
6.5271396018
 10
12.9273270617
 20
6.5491729701
 10
12.8726403023
 20
6.5738204446
 10
12.8217816708
 20
6.6008985826
  0
LINE
  5
22B
100
AcDbEntity
  8
0
100
AcDbLine
 62
250
  6
CONTINUOUS
 10
17.6800692994
 20
-11.4301506754
 11
18.0067780656
 21
-11.6187882224
  0
LINE
  5
22C
100
AcDbEntity
  8
0
100
AcDbLine
 62
7
  6
CONTINUOUS
 10
17.67840545
 20
-11.3222076347
 11
18.1100750756
 21
-11.5714482665
  0
LWPOLYLINE
  5
22D
100
AcDbEntity
  8
RACCORDO
100
AcDbPolyline
 62
250
  6
CONTINUOUS
 90
22
 70
0
 10
13.8342158848
 20
8.3487267467
 10
13.7592825477
 20
8.2986342528
 10
13.6850050435
 20
8.2428938499
 10
13.611747831
 20
8.1817835495
 10
13.5398691725
 20
8.11561099
 10
13.4697227133
 20
8.0447027209
 10
13.4016561667
 20
7.9694015383
 10
13.3359997777
 20
7.8900756355
 10
13.2730803784
 20
7.8071235036
 10
13.213222215
 20
7.7209635223
 10
13.1567243412
 20
7.6320332924
 10
13.1038560838
 20
7.5407660537
 10
13.0548732616
 20
7.4475939314
 10
13.0100130367
 20
7.3529677277
 10
12.9695018559
 20
7.2573666348
 10
12.9335495172
 20
7.1612753563
 10
12.9023346108
 20
7.0651772172
 10
12.8760060288
 20
6.9695412379
 10
12.8546936256
 20
6.8748309204
 10
12.8385031612
 20
6.7815120771
 10
12.8275143386
 20
6.6900502991
 10
12.8217816705
 20
6.6008985824
  0
LWPOLYLINE
  5
22E
100
AcDbEntity
  8
RACCORDO
100
AcDbPolyline
 62
250
  6
CONTINUOUS
 90
22
 70
0
 10
14.4195482688
 20
7.3812694054
 10
14.3841429915
 20
7.3579829627
 10
14.3493338278
 20
7.3322993707
 10
14.3151207777
 20
7.3042186295
 10
14.2813251888
 20
7.2735693813
 10
14.2481257135
 20
7.2405229839
 10
14.2160583092
 20
7.2055935106
 10
14.185153823
 20
7.1687609624
 10
14.1553814076
 20
7.1300453382
 10
14.127184479
 20
7.0900207079
 10
14.1005883881
 20
7.048670259
 10
14.0755677838
 20
7.006010804
 10
14.0524900289
 20
6.9626668506
 10
14.0313818782
 20
6.9186227866
 10
14.0122165768
 20
6.8738942242
 10
13.9952812226
 20
6.829152508
 10
13.9806106285
 20
6.7843856176
 10
13.9681699816
 20
6.7396055733
 10
13.9581419411
 20
6.6955197807
 10
13.9505873933
 20
6.6523640415
 10
13.9454454518
 20
6.609902554
 10
13.9427161167
 20
6.5681353181
  0
LINE
  5
22F
100
AcDbEntity
  8
RACCORDO
100
AcDbLine
 62
250
  6
CONTINUOUS
 10
17.1232709226
 20
9.0496063183
 11
14.4195482688
 21
7.3812694054
  0
LWPOLYLINE
  5
230
100
AcDbEntity
  8
RACCORDO
100
AcDbPolyline
 62
250
  6
CONTINUOUS
 90
12
 70
0
 10
12.8217816705
 20
-26.9452352802
 10
12.8275140956
 20
-27.0278742686
 10
12.8385025282
 20
-27.1068498563
 10
12.8546926132
 20
-27.1817719021
 10
12.8760049666
 20
-27.2522695291
 10
12.9023338768
 20
-27.3179960565
 10
12.9335489526
 20
-27.3786295822
 10
12.9695007113
 20
-27.4338740299
 10
13.0100107922
 20
-27.4834517186
 10
13.0548700122
 20
-27.5271095269
 10
13.1038522574
 20
-27.5646307614
 10
13.1334366691
 20
-27.5831504204
  0
LWPOLYLINE
  5
231
100
AcDbEntity
  8
RACCORDO
100
AcDbPolyline
 62
250
  6
CONTINUOUS
 90
22
 70
0
 10
13.9427161167
 20
-26.9243247302
 10
13.945441007
 20
-26.9630209892
 10
13.9505775218
 20
-26.9997270588
 10
13.9581256611
 20
-27.034442939
 10
13.9681465916
 20
-27.067338051
 10
13.9805791465
 20
-27.0982429736
 10
13.9952398259
 20
-27.1266494431
 10
14.0121617598
 20
-27.1525044315
 10
14.0313118182
 20
-27.1758609668
 10
14.0524071109
 20
-27.1963698696
 10
14.075475198
 20
-27.2139873626
 10
14.1004885193
 20
-27.2287572232
 10
14.1270815049
 20
-27.2404616045
 10
14.1552813648
 20
-27.2490553269
 10
14.185060889
 20
-27.25458357
 10
14.2159728769
 20
-27.2569640256
 10
14.2480454424
 20
-27.2561418754
 10
14.2812504717
 20
-27.2521719378
 10
14.3150564231
 20
-27.2451363589
 10
14.3492861162
 20
-27.2350625209
 10
14.3841167314
 20
-27.2219230417
 10
14.4195482688
 20
-27.2057179213
  0
LWPOLYLINE
  5
232
100
AcDbEntity
  8
RACCORDO
100
AcDbPolyline
 62
250
  6
CONTINUOUS
 90
28
 70
0
 10
12.8217816705
 20
6.6008985824
 10
12.7784400621
 20
5.3345014535
 10
12.7384344851
 20
4.069901212
 10
12.7017646654
 20
2.8071092463
 10
12.6684305
 20
1.5461447463
 10
12.638431412
 20
0.2870112136
 10
12.6117665545
 20
-0.9703034277
 10
12.5884357114
 20
-2.2257878243
 10
12.5684386435
 20
-3.4794305388
 10
12.5517747887
 20
-4.7312433492
 10
12.5384440225
 20
-5.9812148006
 10
12.5284461954
 20
-7.2293334719
 10
12.5217810255
 20
-8.4756110165
 10
12.5184484794
 20
-9.7200359363
 10
12.5184484984
 20
-10.9625967579
 10
12.5217810817
 20
-12.2033049905
 10
12.5284462868
 20
-13.4421490877
 10
12.5384441461
 20
-14.6791175193
 10
12.5517749396
 20
-15.9142216319
 10
12.568438816
 20
-17.1474498263
 10
12.5884358983
 20
-18.3787905108
 10
12.6117667472
 20
-19.6082548518
 10
12.6384316001
 20
-20.8358311056
 10
12.6684306722
 20
-22.0615077014
 10
12.7017648113
 20
-23.2852958671
 10
12.7384345943
 20
-24.5071914787
 10
12.778440123
 20
-25.7271751844
 10
12.8217816705
 20
-26.9452352802
  0
LINE
  5
233
100
AcDbEntity
  8
0
100
AcDbLine
 62
7
  6
CONTINUOUS
 10
18.1100750756
 20
-4.1374975033
 11
18.0067780656
 21
-4.2053495377
  0
LINE
  5
234
100
AcDbEntity
  8
RACCORDO
100
AcDbLine
 62
250
  6
CONTINUOUS
 10
12.8217816705
 20
6.6008985824
 11
-17.5824163983
 21
24.1559014932
  0
LWPOLYLINE
  5
235
100
AcDbEntity
  8
RACCORDO
100
AcDbPolyline
 62
250
  6
CONTINUOUS
 90
19
 70
0
 10
14.4195482688
 20
7.3812694054
 10
14.414813066
 20
7.4378862535
 10
14.4058894328
 20
7.4965985911
 10
14.3928451859
 20
7.5569601172
 10
14.3757794654
 20
7.6185119921
 10
14.3548219829
 20
7.6807863225
 10
14.3301320355
 20
7.7433097181
 10
14.3018972932
 20
7.8056068966
 10
14.2703323753
 20
7.8672042882
 10
14.2356772223
 20
7.9276336336
 10
14.1981952623
 20
7.9864355595
 10
14.1581714161
 20
8.0431630581
 10
14.1159099378
 20
8.0973848784
 10
14.071732084
 20
8.148688829
 10
14.0259736831
 20
8.1966848953
 10
13.9789825925
 20
8.2410081958
 10
13.9311160342
 20
8.2813217791
 10
13.8827378775
 20
8.3173191823
 10
13.8342158866
 20
8.3487267478
  0
LWPOLYLINE
  5
236
100
AcDbEntity
  8
RACCORDO
100
AcDbPolyline
 62
250
  6
CONTINUOUS
 90
28
 70
0
 10
13.9427161167
 20
6.5681353181
 10
13.8994432001
 20
5.3037471185
 10
13.859500462
 20
4.041175295
 10
13.8228879022
 20
2.7804198475
 10
13.7896059815
 20
1.5214771268
 10
13.7596542393
 20
0.2643507821
 10
13.7330312934
 20
-0.9909482381
 10
13.7097369918
 20
-2.2444199636
 10
13.6897714865
 20
-3.4960643646
 10
13.6731338523
 20
-4.7458704029
 10
13.6598239353
 20
-5.9938381504
 10
13.6498418893
 20
-7.2399675351
 10
13.6431872503
 20
-8.4842473032
 10
13.6398598641
 20
-9.7266775359
 10
13.6398598849
 20
-10.9672581518
 10
13.6431873107
 20
-12.2059776537
 10
13.6498419873
 20
-13.4428361319
 10
13.6598240689
 20
-14.6778334961
 10
13.6731340156
 20
-15.9109579774
 10
13.6897716738
 20
-17.1422096755
 10
13.709737197
 20
-18.3715884906
 10
13.7330315068
 20
-19.5990823553
 10
13.7596544513
 20
-20.8246914219
 10
13.7896061824
 20
-22.0484155381
 10
13.8228880768
 20
-23.2702421794
 10
13.8595005934
 20
-24.4901671711
 10
13.8994432734
 20
-25.7081946881
 10
13.9427161167
 20
-26.9243247302
  0
LINE
  5
237
100
AcDbEntity
  8
RACCORDO
100
AcDbLine
 62
250
  6
CONTINUOUS
 10
13.8342158848
 20
8.3487267467
 11
-16.5863428793
 21
25.913176118
  0
LINE
  5
238
100
AcDbEntity
  8
DRAFT
100
AcDbLine
 62
7
  6
CONTINUOUS
 10
17.1232709226
 20
8.373772403
 11
18.1100750756
 21
-1.7309458089
  0
LINE
  5
239
100
AcDbEntity
  8
RACCORDO
100
AcDbLine
 62
7
  6
CONTINUOUS
 10
17.1232709226
 20
9.0496063183
 11
17.1232709226
 21
8.373772403
  0
LINE
  5
23A
100
AcDbEntity
  8
RACCORDO
100
AcDbLine
 62
7
  6
CONTINUOUS
 10
17.1232709226
 20
-25.1831559732
 11
17.1232709226
 21
-25.8589898885
  0
LINE
  5
23B
100
AcDbEntity
  8
0
100
AcDbLine
 62
7
  6
CONTINUOUS
 10
17.67840545
 20
-11.3951994271
 11
17.67840545
 21
-4.7951241032
  0
LWPOLYLINE
  5
23C
100
AcDbEntity
  8
RACCORDO
100
AcDbPolyline
 62
250
  6
CONTINUOUS
 90
11
 70
0
 10
14.4195482688
 20
-27.2057179213
 10
14.4148129937
 20
-27.26273463
 10
14.4058892135
 20
-27.3167920723
 10
14.3928447645
 20
-27.3674793165
 10
14.3757788075
 20
-27.4144110504
 10
14.354821074
 20
-27.45723051
 10
14.3301308795
 20
-27.4956121921
 10
14.301895913
 20
-27.5292643282
 10
14.2703308101
 20
-27.5579311029
 10
14.235675521
 20
-27.5813945982
 10
14.2205043878
 20
-27.5895324432
  0
LINE
  5
23D
100
AcDbEntity
  8
RACCORDO
100
AcDbLine
 62
7
  6
CONTINUOUS
 10
-13.9559995895
 20
27.6478627802
 11
16.5580160971
 21
10.0294525531
  0
LINE
  5
23E
100
AcDbEntity
  8
0
100
AcDbLine
 62
7
  6
CONTINUOUS
 10
18.1100750756
 20
-13.9779999608
 11
18.1100750756
 21
-11.5714482665
  0
LINE
  5
23F
100
AcDbEntity
  8
0
100
AcDbLine
 62
7
  6
CONTINUOUS
 10
18.1100750756
 20
-4.1374975033
 11
18.1100750756
 21
-1.7309458089
  0
LINE
  5
240
100
AcDbEntity
  8
DRAFT
100
AcDbLine
 62
7
  6
CONTINUOUS
 10
18.1100750756
 20
-13.9779999608
 11
17.1232709226
 21
-25.1831559732
  0
LINE
  5
241
100
AcDbEntity
  8
0
100
AcDbLine
 62
7
  6
CONTINUOUS
 10
18.1100750756
 20
-11.5714482665
 11
18.0067780656
 21
-11.6187882224
  0
LWPOLYLINE
  5
242
100
AcDbEntity
  8
RACCORDO
100
AcDbPolyline
 62
250
  6
CONTINUOUS
 90
19
 70
0
 10
13.9427161167
 20
-26.9243247302
 10
13.8910900179
 20
-26.9530334747
 10
13.8357121674
 20
-26.9790555821
 10
13.7769947182
 20
-27.0021973814
 10
13.7153746784
 20
-27.0222866383
 10
13.6513106591
 20
-27.0391738373
 10
13.5852794605
 20
-27.0527332943
 10
13.5177725238
 20
-27.0628640923
 10
13.4492922737
 20
-27.0694908322
 10
13.3803483784
 20
-27.072564194
 10
13.3114539572
 20
-27.0720613042
 10
13.243121761
 20
-27.0679859054
 10
13.1758603563
 20
-27.0603683292
 10
13.1101703402
 20
-27.0492652697
 10
13.0465406147
 20
-27.0347593622
 10
12.9854447479
 20
-27.016958568
 10
12.9273374495
 20
-26.9959953705
 10
12.8726511867
 20
-26.9720257896
 10
12.8217929652
 20
-26.9452282204
  0
LINE
  5
243
100
AcDbEntity
  8
RACCORDO
100
AcDbLine
 62
250
  6
CONTINUOUS
 10
14.4195482688
 20
-27.2057179213
 11
17.1232709226
 21
-25.8589898885
  0
LINE
  5
244
100
AcDbEntity
  8
RACCORDO
100
AcDbLine
 62
7
  6
CONTINUOUS
 10
14.2205043878
 20
-27.5895324432
 11
16.9430654259
 21
-26.2334209848
  0
ELLIPSE
  5
245
100
AcDbEntity
  8
RACCORDO
100
AcDbEllipse
 62
7
  6
CONTINUOUS
 10
-13.9554828203
 20
26.9934917989
 30
0.0
 11
-0.3997760356
 21
0.69407592
 31
0.0
 40
0.5768037941
 41
-0.7837728977
 42
0.0348935127
  0
ELLIPSE
  5
246
100
AcDbEntity
  8
0
100
AcDbEllipse
 62
7
  6
CONTINUOUS
 10
18.038130138
 20
-4.5945500363
 30
0.0
 11
0.2566641185
 21
0.42914135
 31
0.0
 40
0.5873179545
 41
0.881749572
 42
2.3652794362
  0
ELLIPSE
  5
247
100
AcDbEntity
  8
RACCORDO
100
AcDbEllipse
 62
7
  6
CONTINUOUS
 10
16.5574993279
 20
9.375678324
 30
0.0
 11
-0.399408484
 21
0.6934437295
 31
0.0
 40
0.5778584463
 41
-2.3545649475
 42
-0.7846820092
  0
ELLIPSE
  5
248
100
AcDbEntity
  8
RACCORDO
100
AcDbEllipse
 62
7
  6
CONTINUOUS
 10
16.5574993279
 20
-25.5317230382
 30
0.0
 11
-0.3997760356
 21
0.69407592
 31
0.0
 40
0.5768037941
 41
-3.1764861678
 42
-2.355482613
  0
ELLIPSE
  5
249
100
AcDbEntity
  8
0
100
AcDbEllipse
 62
7
  6
CONTINUOUS
 10
18.038130138
 20
-11.1946253602
 30
0.0
 11
0.2566641185
 21
0.42914135
 31
0.0
 40
0.5873179545
 41
2.3652794362
 42
3.8488093004
  0
ENDSEC
  0
SECTION
  2
OBJECTS
  0
DICTIONARY
  5
C
100
AcDbDictionary
280
0
281
1
  3
ACAD_GROUP
350
D
  3
ACAD_MLINESTYLE
350
17
  3
ACAD_LAYOUT
350
1A
  3
ACAD_PLOTSETTINGS
350
19
  3
ACAD_PLOTSTYLENAME
350
E
  0
DICTIONARY
  5
D
102
{ACAD_REACTORS
330
C
102
}
100
AcDbDictionary
280
0
281
1
  0
ACDBDICTIONARYWDFLT
  5
E
102
{ACAD_REACTORS
330
C
102
}
100
AcDbDictionary
281
1
  3
Normal
350
F
100
AcDbDictionaryWithDefault
340
F
  0
DICTIONARY
  5
17
102
{ACAD_REACTORS
330
C
102
}
100
AcDbDictionary
280
0
281
1
  3
Standard
350
18
  0
DICTIONARY
  5
19
102
{ACAD_REACTORS
330
C
102
}
100
AcDbDictionary
281
1
  0
DICTIONARY
  5
1A
102
{ACAD_REACTORS
330
C
102
}
100
AcDbDictionary
281
1
  3
Model
350
24A
  3
Layout1
350
24B
  0
ACDBPLACEHOLDER
  5
F
102
{ACAD_REACTORS
330
E
102
}
  0
MLINESTYLE
  5
18
102
{ACAD_REACTORS
330
17
102
}
100
AcDbMlineStyle
  2
STANDARD
 70
0
  3

 62
256
 51
90.0
 52
90.0
 71
2
 49
0.5
 62
256
  6
BYLAYER
 49
-0.5
 62
256
  6
BYLAYER
  0
LAYOUT
  5
24A
102
{ACAD_REACTORS
330
1A
102
}
100
AcDbPlotSettings
  1

  2
none_device
  4

  6

 40
0.0
 41
0.0
 42
0.0
 43
0.0
 44
210.0
 45
297.0
 46
0.0
 47
0.0
 48
0.0
 49
0.0
140
0.0
141
0.0
142
1.0
143
1.0
 70
1024
 72
1
 73
0
 74
0
  7

 75
0
147
1.0
148
0.0
149
0.0
100
AcDbLayout
  1
Model
 70
0
 71
0
 10
0.0
 20
0.0
 11
210.0
 21
297.0
 12
0.0
 22
0.0
 32
0.0
 14
0.0
 24
0.0
 34
0.0
 15
0.0
 25
0.0
 35
0.0
146
0.0
 13
0.0
 23
0.0
 33
0.0
 16
1.0
 26
0.0
 36
0.0
 17
0.0
 27
1.0
 37
0.0
 76
0
330
214
345
0
346
0
  0
LAYOUT
  5
24B
102
{ACAD_REACTORS
330
1A
102
}
100
AcDbPlotSettings
  1

  2
none_device
  4

  6

 40
0.0
 41
0.0
 42
0.0
 43
0.0
 44
210.0
 45
297.0
 46
0.0
 47
0.0
 48
0.0
 49
0.0
140
0.0
141
0.0
142
1.0
143
1.0
 70
0
 72
1
 73
0
 74
0
  7

 75
0
147
1.0
148
0.0
149
0.0
100
AcDbLayout
  1
Layout1
 70
0
 71
1
 10
0.0
 20
0.0
 11
210.0
 21
297.0
 12
0.0
 22
0.0
 32
0.0
 14
0.0
 24
0.0
 34
0.0
 15
0.0
 25
0.0
 35
0.0
146
0.0
 13
0.0
 23
0.0
 33
0.0
 16
1.0
 26
0.0
 36
0.0
 17
0.0
 27
1.0
 37
0.0
 76
0
330
215
345
0
346
0
  0
ENDSEC
  0
EOF
