  0
SECTION
  2
HEADER
  9
$ACADVER
  1
AC1015
  9
$DWGCODEPAGE
  3
ANSI_1252
  9
$EXTMAX
 10
297.0
 20
210.0
 30
0.0
  9
$EXTMIN
 10
0.0
 20
0.0
 30
0.0
  9
$LIMMIN
 10
0.0
 20
0.0
  9
$LIMMAX
 10
297.0
 20
210.0
  9
$VIEWCTR
 10
148.5
 20
105.0
  9
$VIEWSIZE
 40
210.0
  9
$CLAYER
  8
0
  9
$LTSCALE
 40
16.335
  9
$CELTYPE
  6
BYLAYER
  9
$DIMSCALE
 40
1.0
  9
$DIMASZ
 40
3.0
  9
$DIMEXO
 40
0.5
  9
$DIMDLI
 40
11.286
  9
$DIMEXE
 40
1.5
  9
$DIMCEN
 40
2.673
  9
$DIMLFAC
 40
1.0
  9
$DIMBLK
  1
_FILLED
  9
$DIMTXT
 40
3.0
  9
$DIMTOL
 70
1
  9
$DIMLIM
 70
0
  9
$DIMTFAC
 40
1.0
  9
$DIMTP
 40
0.01
  9
$DIMTM
 40
0.01
  9
$DIMGAP
 40
0.625
  9
$DIMDSEP
 70
44
  9
$PDMODE
 70
3
  9
$PDSIZE
 40
3.0
  9
$HANDSEED
  5
454
  9
$TILEMODE
 70
1
  9
$MEASUREMENT
 70
1
  9
$INSUNITS
 70
4
  0
ENDSEC
  0
SECTION
  2
CLASSES
  0
CLASS
  1
ACDBDICTIONARYWDFLT
  2
AcDbDictionaryWithDefault
  3
AutoCAD 2000
 90
0
280
0
281
0
  0
CLASS
  1
ACDBPLACEHOLDER
  2
AcDbPlaceHolder
  3
AutoCAD 2000
 90
0
280
0
281
0
  0
CLASS
  1
LAYOUT
  2
AcDbLayout
  3
AutoCAD 2000
 90
0
280
0
281
0
  0
ENDSEC
  0
SECTION
  2
TABLES
  0
TABLE
  2
VPORT
  5
8
100
AcDbSymbolTable
 70
2
  0
VPORT
  5
1F4
100
AcDbSymbolTableRecord
100
AcDbViewportTableRecord
  2
*ACTIVE
 70
0
 10
0.0
 20
0.0
 11
1.0
 21
1.0
 12
148.5
 22
105.0
 13
0.0
 23
0.0
 14
1.0
 24
1.0
 15
0.0
 25
0.0
 16
0.0
 26
0.0
 36
1.0
 17
0.0
 27
0.0
 37
0.0
 40
210.0
 41
1.4142857143
 42
50.0
 43
0.0
 44
0.0
 50
0.0
 51
0.0
 71
0
 72
100
 73
1
 74
1
 75
0
 76
0
 77
0
 78
0
  0
ENDTAB
  0
TABLE
  2
LTYPE
  5
5
100
AcDbSymbolTable
 70
6
  0
LTYPE
  5
14
100
AcDbSymbolTableRecord
100
AcDbLinetypeTableRecord
  2
BYBLOCK
 70
0
  3

 72
65
 73
0
 40
0.0
  0
LTYPE
  5
15
100
AcDbSymbolTableRecord
100
AcDbLinetypeTableRecord
  2
BYLAYER
 70
0
  3

 72
65
 73
0
 40
0.0
  0
LTYPE
  5
16
100
AcDbSymbolTableRecord
100
AcDbLinetypeTableRecord
  2
CONTINUOUS
 70
64
  3
Solid line
 72
65
 73
0
 40
0.0
  0
LTYPE
  5
1F5
100
AcDbSymbolTableRecord
100
AcDbLinetypeTableRecord
  2
CENTER
 70
64
  3
____ _ ____ _ ____ _ ____ _ ____ _ ____ _ ____
 72
65
 73
4
 40
0.6
 49
0.375
 74
0
 49
-0.075
 74
0
 49
0.075
 74
0
 49
-0.075
 74
0
  0
LTYPE
  5
1F6
100
AcDbSymbolTableRecord
100
AcDbLinetypeTableRecord
  2
HIDDEN
 70
64
  3
- - - - - - - - - - - - - - - - - - - -
 72
65
 73
2
 40
0.2
 49
0.1
 74
0
 49
-0.1
 74
0
  0
LTYPE
  5
1F7
100
AcDbSymbolTableRecord
100
AcDbLinetypeTableRecord
  2
PHANTOM
 70
64
  3
_____ _ _ _____ _ _ _____ _ _ _____
 72
65
 73
6
 40
0.8
 49
0.45
 74
0
 49
-0.05
 74
0
 49
0.1
 74
0
 49
-0.05
 74
0
 49
0.1
 74
0
 49
-0.05
 74
0
  0
LTYPE
  5
1F8
100
AcDbSymbolTableRecord
100
AcDbLinetypeTableRecord
  2
DOT
 70
64
  3
. . . . . . . . . . . . . . . . . . . .
 72
65
 73
2
 40
0.2
 49
0.1
 74
0
 49
-0.1
 74
0
  0
LTYPE
  5
1F9
100
AcDbSymbolTableRecord
100
AcDbLinetypeTableRecord
  2
DASHED
 70
64
  3
- - - - - - - - - - - - - - - - - - - -
 72
65
 73
2
 40
0.2
 49
0.1
 74
0
 49
-0.1
 74
0
  0
ENDTAB
  0
TABLE
  2
LAYER
  5
2
100
AcDbSymbolTable
 70
36
  0
LAYER
  5
10
100
AcDbSymbolTableRecord
100
AcDbLayerTableRecord
  2
0
 70
0
 62
7
  6
CONTINUOUS
370
-3
390
F
  0
LAYER
  5
1FA
100
AcDbSymbolTableRecord
100
AcDbLayerTableRecord
  2
DEFAULT_1
 70
0
 62
7
  6
CENTER
370
-3
390
F
  0
LAYER
  5
1FB
100
AcDbSymbolTableRecord
100
AcDbLayerTableRecord
  2
DEFAULT_2
 70
0
 62
7
  6
HIDDEN
370
-3
390
F
  0
LAYER
  5
1FC
100
AcDbSymbolTableRecord
100
AcDbLayerTableRecord
  2
DEFAULT_3
 70
0
 62
7
  6
PHANTOM
370
-3
390
F
  0
LAYER
  5
1FD
100
AcDbSymbolTableRecord
100
AcDbLayerTableRecord
  2
ASSI
 70
0
 62
7
  6
CONTINUOUS
370
-3
390
F
  0
LAYER
  5
1FE
100
AcDbSymbolTableRecord
100
AcDbLayerTableRecord
  2
COLOR1
 70
0
 62
7
  6
CONTINUOUS
370
-3
390
F
  0
LAYER
  5
1FF
100
AcDbSymbolTableRecord
100
AcDbLayerTableRecord
  2
COLOR6
 70
0
 62
7
  6
CONTINUOUS
370
-3
390
F
  0
LAYER
  5
200
100
AcDbSymbolTableRecord
100
AcDbLayerTableRecord
  2
COLOR7
 70
0
 62
7
  6
CONTINUOUS
370
-3
390
F
  0
LAYER
  5
201
100
AcDbSymbolTableRecord
100
AcDbLayerTableRecord
  2
COORDINATE
 70
0
 62
7
  6
CONTINUOUS
370
-3
390
F
  0
LAYER
  5
202
100
AcDbSymbolTableRecord
100
AcDbLayerTableRecord
  2
COORD_ORIGINE
 70
0
 62
7
  6
CONTINUOUS
370
-3
390
F
  0
LAYER
  5
203
100
AcDbSymbolTableRecord
100
AcDbLayerTableRecord
  2
COPY_PUBLISH
 70
0
 62
7
  6
CONTINUOUS
370
-3
390
F
  0
LAYER
  5
204
100
AcDbSymbolTableRecord
100
AcDbLayerTableRecord
  2
COSMETICI
 70
0
 62
7
  6
CONTINUOUS
370
-3
390
F
  0
LAYER
  5
205
100
AcDbSymbolTableRecord
100
AcDbLayerTableRecord
  2
CURVE
 70
0
 62
7
  6
CONTINUOUS
370
-3
390
F
  0
LAYER
  5
206
100
AcDbSymbolTableRecord
100
AcDbLayerTableRecord
  2
CURVE_LED_TASTO
 70
0
 62
7
  6
CONTINUOUS
370
-3
390
F
  0
LAYER
  5
207
100
AcDbSymbolTableRecord
100
AcDbLayerTableRecord
  2
DRAFT
 70
0
 62
7
  6
CONTINUOUS
370
-3
390
F
  0
LAYER
  5
208
100
AcDbSymbolTableRecord
100
AcDbLayerTableRecord
  2
IGES_SCRITTE
 70
0
 62
7
  6
CONTINUOUS
370
-3
390
F
  0
LAYER
  5
209
100
AcDbSymbolTableRecord
100
AcDbLayerTableRecord
  2
IMPORT_IGES
 70
0
 62
7
  6
CONTINUOUS
370
-3
390
F
  0
LAYER
  5
20A
100
AcDbSymbolTableRecord
100
AcDbLayerTableRecord
  2
INTF_YELLOW
 70
0
 62
7
  6
CONTINUOUS
370
-3
390
F
  0
LAYER
  5
20B
100
AcDbSymbolTableRecord
100
AcDbLayerTableRecord
  2
NOTE
 70
0
 62
7
  6
CONTINUOUS
370
-3
390
F
  0
LAYER
  5
20C
100
AcDbSymbolTableRecord
100
AcDbLayerTableRecord
  2
PIANI
 70
0
 62
7
  6
CONTINUOUS
370
-3
390
F
  0
LAYER
  5
20D
100
AcDbSymbolTableRecord
100
AcDbLayerTableRecord
  2
PIANI_ORIGINE
 70
0
 62
7
  6
CONTINUOUS
370
-3
390
F
  0
LAYER
  5
20E
100
AcDbSymbolTableRecord
100
AcDbLayerTableRecord
  2
PIANI_RIFERIMENTO
 70
0
 62
7
  6
CONTINUOUS
370
-3
390
F
  0
LAYER
  5
20F
100
AcDbSymbolTableRecord
100
AcDbLayerTableRecord
  2
PUNTI
 70
0
 62
7
  6
CONTINUOUS
370
-3
390
F
  0
LAYER
  5
210
100
AcDbSymbolTableRecord
100
AcDbLayerTableRecord
  2
RACCORDO
 70
0
 62
7
  6
CONTINUOUS
370
-3
390
F
  0
LAYER
  5
211
100
AcDbSymbolTableRecord
100
AcDbLayerTableRecord
  2
SIMBOLI
 70
0
 62
7
  6
CONTINUOUS
370
-3
390
F
  0
LAYER
  5
212
100
AcDbSymbolTableRecord
100
AcDbLayerTableRecord
  2
SMUSSO
 70
0
 62
7
  6
CONTINUOUS
370
-3
390
F
  0
LAYER
  5
213
100
AcDbSymbolTableRecord
100
AcDbLayerTableRecord
  2
SNAPLINE
 70
0
 62
7
  6
CONTINUOUS
370
-3
390
F
  0
LAYER
  5
214
100
AcDbSymbolTableRecord
100
AcDbLayerTableRecord
  2
SUPERFICI
 70
0
 62
7
  6
CONTINUOUS
370
-3
390
F
  0
LAYER
  5
215
100
AcDbSymbolTableRecord
100
AcDbLayerTableRecord
  2
TRASH
 70
0
 62
7
  6
CONTINUOUS
370
-3
390
F
  0
LAYER
  5
216
100
AcDbSymbolTableRecord
100
AcDbLayerTableRecord
  2
___SHELL
 70
0
 62
7
  6
CONTINUOUS
370
-3
390
F
  0
ENDTAB
  0
TABLE
  2
STYLE
  5
3
100
AcDbSymbolTable
 70
1
  0
STYLE
  5
11
100
AcDbSymbolTableRecord
100
AcDbTextStyleTableRecord
  2
STANDARD
 70
0
 40
0.0
 41
0.8
 50
0.0
 71
0
 42
0.2
  3
txt
  4

  0
STYLE
  5
217
100
AcDbSymbolTableRecord
100
AcDbTextStyleTableRecord
  2
TEXTSTYLE_1
 70
0
 40
0.0
 41
0.8
 50
0.0
 71
0
 42
0.2
  3
gdt
  4

  0
ENDTAB
  0
TABLE
  2
VIEW
  5
6
100
AcDbSymbolTable
 70
0
  0
ENDTAB
  0
TABLE
  2
UCS
  5
7
100
AcDbSymbolTable
 70
0
  0
ENDTAB
  0
TABLE
  2
APPID
  5
9
100
AcDbSymbolTable
 70
1
  0
APPID
  5
218
100
AcDbSymbolTableRecord
100
AcDbRegAppTableRecord
  2
ACAD
 70
0
  0
ENDTAB
  0
TABLE
  2
BLOCK_RECORD
  5
1
100
AcDbSymbolTable
 70
0
  0
BLOCK_RECORD
  5
219
100
AcDbSymbolTableRecord
100
AcDbBlockTableRecord
  2
*Model_Space
  0
BLOCK_RECORD
  5
21A
100
AcDbSymbolTableRecord
100
AcDbBlockTableRecord
  2
*Paper_Space
  0
ENDTAB
  0
TABLE
  2
DIMSTYLE
  5
A
100
AcDbSymbolTable
 70
1
100
AcDbDimStyleTable
 71
0
  0
DIMSTYLE
105
21B
100
AcDbSymbolTableRecord
100
AcDbDimStyleTableRecord
  2
STANDARD
 70
0
  3

  4

 40
1.0
 41
3.0
 42
0.5
 43
0.38
 44
1.5
 45
0.0
 46
0.0
 47
0.01
 48
0.01
140
3.0
141
0.09
142
0.0
143
25.4
144
1.0
145
0.0
146
1.0
147
0.625
 71
1.0
 72
0.0
 73
0
 74
0
 75
0
 76
0
 77
1
 78
8
170
0
171
2
172
0
173
0
174
0
175
0
176
0
177
0
178
0
270
2
271
2
272
2
273
2
274
2
275
0
280
0
281
0
282
0
283
1
284
8
285
0
286
0
287
3
288
0
340
11
278
44
  0
ENDTAB
  0
ENDSEC
  0
SECTION
  2
BLOCKS
  0
BLOCK
  5
20
100
AcDbEntity
  8
0
100
AcDbBlockBegin
  2
*Model_Space
 70
0
 10
0.0
 20
0.0
 30
0.0
  3
*Model_Space
  1

  0
ENDBLK
  5
21
100
AcDbEntity
  8
0
100
AcDbBlockEnd
  0
BLOCK
  5
1C
100
AcDbEntity
  8
0
100
AcDbBlockBegin
  2
*Paper_Space
 70
0
 10
0.0
 20
0.0
 30
0.0
  3
*Paper_Space
  1

  0
ENDBLK
  5
1D
100
AcDbEntity
  8
0
100
AcDbBlockEnd
  0
ENDSEC
  0
SECTION
  2
ENTITIES
  0
LWPOLYLINE
  5
21C
100
AcDbEntity
  8
ASSI
100
AcDbPolyline
 62
253
  6
CONTINUOUS
 90
4
 70
0
 10
-21.3904159345
 20
42.5221570835
 10
-21.3678628531
 20
42.5349062135
 10
-21.3451704947
 20
42.546877778
 10
-21.3223516037
 20
42.558065123
  0
LWPOLYLINE
  5
21D
100
AcDbEntity
  8
RACCORDO
100
AcDbPolyline
 62
253
  6
CONTINUOUS
 90
3
 70
0
 10
-21.3223516037
 20
42.558065123
 10
-21.2994186832
 20
42.5684619729
 10
-21.2763846526
 20
42.5780625435
  0
LWPOLYLINE
  5
21E
100
AcDbEntity
  8
ASSI
100
AcDbPolyline
 62
253
  6
CONTINUOUS
 90
8
 70
0
 10
-21.3223516037
 20
42.558065123
 10
-21.2994186832
 20
42.5684619729
 10
-21.2763846526
 20
42.5780625435
 10
-21.2532623816
 20
42.5868615432
 10
-21.2300643832
 20
42.5948540931
 10
-21.2068035174
 20
42.6020357535
 10
-21.183492986
 20
42.60840254
 10
-21.1601458658
 20
42.61395092
  0
LWPOLYLINE
  5
21F
100
AcDbEntity
  8
RACCORDO
100
AcDbPolyline
 62
253
  6
CONTINUOUS
 90
6
 70
0
 10
-21.2763846526
 20
42.5780625435
 10
-21.2532623816
 20
42.5868615432
 10
-21.2300643832
 20
42.5948540931
 10
-21.2068035174
 20
42.6020357535
 10
-21.183492986
 20
42.60840254
 10
-21.1601458658
 20
42.61395092
  0
LWPOLYLINE
  5
220
100
AcDbEntity
  8
RACCORDO
100
AcDbPolyline
 62
7
  6
CONTINUOUS
 90
56
 70
0
 10
-21.3624441203
 20
42.5939071808
 10
-21.3914826631
 20
42.5855736257
 10
-21.4204055587
 20
42.5764354424
 10
-21.4491989348
 20
42.5664911869
 10
-21.4778655305
 20
42.5557332798
 10
-21.5063858759
 20
42.5441613808
 10
-21.5347381059
 20
42.531776714
 10
-21.5629216988
 20
42.518571303
 10
-21.5909166433
 20
42.5045455964
 10
-21.618701774
 20
42.4897011555
 10
-21.6462752554
 20
42.4740290385
 10
-21.673619552
 20
42.457528649
 10
-21.7007121215
 20
42.4402028995
 10
-21.7275446266
 20
42.4220457
 10
-21.7541045211
 20
42.4030533748
 10
-21.7803656471
 20
42.3832323323
 10
-21.8063015155
 20
42.362590661
 10
-21.8318957024
 20
42.3411300534
 10
-21.8571298213
 20
42.3188543471
 10
-21.8819778438
 20
42.2957749024
 10
-21.9064291668
 20
42.2718901861
 10
-21.9304631215
 20
42.2472085194
 10
-21.9540428827
 20
42.2217569215
 10
-21.9771636679
 20
42.1955306779
 10
-21.9998039021
 20
42.1685433782
 10
-22.0219085261
 20
42.1408532057
 10
-22.0434696302
 20
42.1124661546
 10
-22.0644773142
 20
42.0833897245
 10
-22.0848823082
 20
42.0536901178
 10
-22.1046793696
 20
42.0233764496
 10
-22.1238633826
 20
41.9924561234
 10
-22.1423934993
 20
41.9609984295
 10
-22.1602669905
 20
41.9290141852
 10
-22.1774822603
 20
41.8965110694
 10
-22.1940069052
 20
41.8635582293
 10
-22.2098410217
 20
41.830165981
 10
-22.2249846889
 20
41.7963437047
 10
-22.2394111534
 20
41.7621630813
 10
-22.2531204506
 20
41.7276406646
 10
-22.2661166321
 20
41.6927806093
 10
-22.2783842531
 20
41.6576401044
 10
-22.2899238972
 20
41.6222372238
 10
-22.3007400986
 20
41.5865743664
 10
-22.3108268804
 20
41.5506884178
 10
-22.3201859737
 20
41.5145897375
 10
-22.3288187595
 20
41.4782873758
 10
-22.3367199801
 20
41.4418178891
 10
-22.3438906288
 20
41.4051908281
 10
-22.3503311638
 20
41.3684153521
 10
-22.3560367845
 20
41.3315285152
 10
-22.3610078591
 20
41.2945404273
 10
-22.3652437586
 20
41.2574599096
 10
-22.3687408868
 20
41.2203221919
 10
-22.3714980459
 20
41.1831440774
 10
-22.3735145501
 20
41.145926421
 10
-22.3746216877
 20
41.1151050218
  0
LINE
  5
221
100
AcDbEntity
  8
RACCORDO
100
AcDbLine
 62
7
  6
CONTINUOUS
 10
-5.0687118918
 20
-2.2633653745
 11
-2.0825238763
 21
-1.7871940364
  0
LINE
  5
222
100
AcDbEntity
  8
ASSI
100
AcDbLine
 62
7
  6
CONTINUOUS
 10
-2.0825238763
 20
-1.7871940364
 11
-5.0688590403
 21
-2.2633888118
  0
LINE
  5
223
100
AcDbEntity
  8
ASSI
100
AcDbLine
 62
7
  6
CONTINUOUS
 10
-5.0985869841
 20
-2.2677235371
 11
-5.0688590436
 21
-2.263388791
  0
LWPOLYLINE
  5
224
100
AcDbEntity
  8
RACCORDO
100
AcDbPolyline
 62
7
  6
CONTINUOUS
 90
3
 70
0
 10
-5.1174282584
 20
-2.270056938
 10
-5.0891839213
 20
-2.2664391129
 10
-5.0687197197
 20
-2.2633666013
  0
LINE
  5
225
100
AcDbEntity
  8
ASSI
100
AcDbLine
 62
7
  6
CONTINUOUS
 10
-5.1600929835
 20
-2.2741616847
 11
-5.0985869841
 21
-2.2677235371
  0
LWPOLYLINE
  5
226
100
AcDbEntity
  8
RACCORDO
100
AcDbPolyline
 62
7
  6
CONTINUOUS
 90
3
 70
0
 10
-5.1740402839
 20
-2.2751501842
 10
-5.145720037
 20
-2.2729610774
 10
-5.1174282584
 20
-2.270056938
  0
LWPOLYLINE
  5
227
100
AcDbEntity
  8
RACCORDO
100
AcDbPolyline
 62
253
  6
CONTINUOUS
 90
55
 70
0
 10
-5.0858817253
 20
-0.9902867729
 10
-5.1017062362
 20
-0.9946851319
 10
-5.1180029363
 20
-0.9990178265
 10
-5.134758341
 20
-1.0032812718
 10
-5.151958586
 20
-1.0074719399
 10
-5.1695894391
 20
-1.0115863633
 10
-5.1876363118
 20
-1.0156211375
 10
-5.2060842711
 20
-1.0195729239
 10
-5.2249180525
 20
-1.0234384528
 10
-5.2441220719
 20
-1.0272145255
 10
-5.263680439
 20
-1.0308980176
 10
-5.2835769704
 20
-1.0344858811
 10
-5.3037952028
 20
-1.0379751473
 10
-5.3243184066
 20
-1.0413629291
 10
-5.3451296
 20
-1.0446464232
 10
-5.3662115629
 20
-1.0478229126
 10
-5.3875468511
 20
-1.0508897691
 10
-5.4091178107
 20
-1.053844455
 10
-5.4309065929
 20
-1.0566845254
 10
-5.4528951688
 20
-1.0594076303
 10
-5.4750653439
 20
-1.0620115165
 10
-5.4973987736
 20
-1.0644940294
 10
-5.5198769782
 20
-1.0668531149
 10
-5.5424813582
 20
-1.069086821
 10
-5.5651932096
 20
-1.0711932993
 10
-5.5879937397
 20
-1.0731708069
 10
-5.6108640822
 20
-1.0750177076
 10
-5.6337853132
 20
-1.076732473
 10
-5.6567384666
 20
-1.0783136843
 10
-5.6797045497
 20
-1.0797600332
 10
-5.7026645596
 20
-1.0810703229
 10
-5.7255994979
 20
-1.0822434691
 10
-5.7484903873
 20
-1.0832785012
 10
-5.7713182868
 20
-1.0841745627
 10
-5.7940643074
 20
-1.0849309123
 10
-5.8167096282
 20
-1.0855469239
 10
-5.8392355113
 20
-1.0860220881
 10
-5.8616233177
 20
-1.0863560114
 10
-5.8838545228
 20
-1.0865484177
 10
-5.9059107314
 20
-1.0865991478
 10
-5.9277736932
 20
-1.0865081597
 10
-5.9494253178
 20
-1.0862755286
 10
-5.9708476896
 20
-1.085901447
 10
-5.9920230827
 20
-1.0853862246
 10
-6.0129339756
 20
-1.0847302875
 10
-6.0335630658
 20
-1.0839341786
 10
-6.0538932837
 20
-1.0829985566
 10
-6.0739078072
 20
-1.0819241957
 10
-6.0935900754
 20
-1.0807119848
 10
-6.1129238021
 20
-1.079362927
 10
-6.1318929899
 20
-1.0778781386
 10
-6.1504819426
 20
-1.0762588481
 10
-6.168675279
 20
-1.0745063954
 10
-6.1864579451
 20
-1.0726222306
 10
-6.2038152266
 20
-1.0706079127
  0
LWPOLYLINE
  5
228
100
AcDbEntity
  8
ASSI
100
AcDbPolyline
 62
253
  6
CONTINUOUS
 90
55
 70
0
 10
-5.0858817253
 20
-0.9902867729
 10
-5.1017062362
 20
-0.9946851319
 10
-5.1180029363
 20
-0.9990178265
 10
-5.134758341
 20
-1.0032812718
 10
-5.151958586
 20
-1.0074719399
 10
-5.1695894391
 20
-1.0115863633
 10
-5.1876363118
 20
-1.0156211375
 10
-5.2060842711
 20
-1.0195729239
 10
-5.2249180525
 20
-1.0234384528
 10
-5.2441220719
 20
-1.0272145255
 10
-5.263680439
 20
-1.0308980176
 10
-5.2835769704
 20
-1.0344858811
 10
-5.3037952028
 20
-1.0379751473
 10
-5.3243184066
 20
-1.0413629291
 10
-5.3451296
 20
-1.0446464232
 10
-5.3662115629
 20
-1.0478229126
 10
-5.3875468511
 20
-1.0508897691
 10
-5.4091178107
 20
-1.053844455
 10
-5.4309065929
 20
-1.0566845254
 10
-5.4528951688
 20
-1.0594076303
 10
-5.4750653439
 20
-1.0620115165
 10
-5.4973987736
 20
-1.0644940294
 10
-5.5198769782
 20
-1.0668531149
 10
-5.5424813582
 20
-1.069086821
 10
-5.5651932096
 20
-1.0711932993
 10
-5.5879937397
 20
-1.0731708069
 10
-5.6108640822
 20
-1.0750177076
 10
-5.6337853132
 20
-1.076732473
 10
-5.6567384666
 20
-1.0783136843
 10
-5.6797045497
 20
-1.0797600332
 10
-5.7026645596
 20
-1.0810703229
 10
-5.7255994979
 20
-1.0822434691
 10
-5.7484903873
 20
-1.0832785012
 10
-5.7713182868
 20
-1.0841745627
 10
-5.7940643074
 20
-1.0849309123
 10
-5.8167096282
 20
-1.0855469239
 10
-5.8392355113
 20
-1.0860220881
 10
-5.8616233177
 20
-1.0863560114
 10
-5.8838545228
 20
-1.0865484177
 10
-5.9059107314
 20
-1.0865991478
 10
-5.9277736932
 20
-1.0865081597
 10
-5.9494253178
 20
-1.0862755286
 10
-5.9708476896
 20
-1.085901447
 10
-5.9920230827
 20
-1.0853862246
 10
-6.0129339756
 20
-1.0847302875
 10
-6.0335630658
 20
-1.0839341786
 10
-6.0538932837
 20
-1.0829985566
 10
-6.0739078072
 20
-1.0819241957
 10
-6.0935900754
 20
-1.0807119848
 10
-6.1129238021
 20
-1.079362927
 10
-6.1318929899
 20
-1.0778781386
 10
-6.1504819426
 20
-1.0762588481
 10
-6.168675279
 20
-1.0745063954
 10
-6.1864579451
 20
-1.0726222306
 10
-6.2038152266
 20
-1.0706079127
  0
LINE
  5
229
100
AcDbEntity
  8
RACCORDO
100
AcDbLine
 62
253
  6
CONTINUOUS
 10
-4.6082037451
 20
-1.5483056056
 11
-1.6237710095
 21
-1.0724141608
  0
LINE
  5
22A
100
AcDbEntity
  8
ASSI
100
AcDbLine
 62
253
  6
CONTINUOUS
 10
-4.6082037451
 20
-1.5483056056
 11
-1.6237710095
 21
-1.0724141608
  0
LINE
  5
22B
100
AcDbEntity
  8
ASSI
100
AcDbLine
 62
7
  6
CONTINUOUS
 10
-5.2217300658
 20
-2.2772190953
 11
-5.1600929835
 21
-2.2741616847
  0
LWPOLYLINE
  5
22C
100
AcDbEntity
  8
RACCORDO
100
AcDbPolyline
 62
7
  6
CONTINUOUS
 90
3
 70
0
 10
-5.230693767
 20
-2.2773817493
 10
-5.2023706726
 20
-2.2766236229
 10
-5.1740402839
 20
-2.2751501842
  0
LINE
  5
22D
100
AcDbEntity
  8
ASSI
100
AcDbLine
 62
7
  6
CONTINUOUS
 10
-5.2833151704
 20
-2.2768923036
 11
-5.2217300658
 21
-2.2772190953
  0
LWPOLYLINE
  5
22E
100
AcDbEntity
  8
RACCORDO
100
AcDbPolyline
 62
7
  6
CONTINUOUS
 90
3
 70
0
 10
-5.2872460592
 20
-2.276756505
 10
-5.2589916571
 20
-2.2774255322
 10
-5.230693767
 20
-2.2773817493
  0
LINE
  5
22F
100
AcDbEntity
  8
ASSI
100
AcDbLine
 62
7
  6
CONTINUOUS
 10
-5.3446706376
 20
-2.2731917437
 11
-5.2833151704
 21
-2.2768923036
  0
LWPOLYLINE
  5
230
100
AcDbEntity
  8
RACCORDO
100
AcDbPolyline
 62
7
  6
CONTINUOUS
 90
4
 70
0
 10
-5.3715668462
 20
-2.2704984631
 10
-5.3435517917
 20
-2.2732895706
 10
-5.3154388399
 20
-2.2753768326
 10
-5.2872460592
 20
-2.276756505
  0
LINE
  5
231
100
AcDbEntity
  8
ASSI
100
AcDbLine
 62
7
  6
CONTINUOUS
 10
-5.3831876115
 20
-2.2691311051
 11
-5.3446706376
 21
-2.2731917437
  0
LINE
  5
232
100
AcDbEntity
  8
RACCORDO
100
AcDbLine
 62
7
  6
CONTINUOUS
 10
-5.3830576295
 20
-2.2691470885
 11
-5.3715668462
 21
-2.2704984631
  0
LINE
  5
233
100
AcDbEntity
  8
RACCORDO
100
AcDbLine
 62
7
  6
CONTINUOUS
 10
-20.6097490288
 20
-0.398845614
 11
-5.3830259569
 21
-2.2691510459
  0
LINE
  5
234
100
AcDbEntity
  8
ASSI
100
AcDbLine
 62
7
  6
CONTINUOUS
 10
-20.609748062
 20
-0.3988457327
 11
-5.3830259569
 21
-2.2691510459
  0
LINE
  5
235
100
AcDbEntity
  8
ASSI
100
AcDbLine
 62
7
  6
CONTINUOUS
 10
-5.3831840019
 20
-2.2691316142
 11
-5.383026932
 21
-2.2691509261
  0
LINE
  5
236
100
AcDbEntity
  8
RACCORDO
100
AcDbLine
 62
253
  6
CONTINUOUS
 10
-20.609748062
 20
-0.3988457327
 11
-20.6296459314
 21
-0.3960857778
  0
LINE
  5
237
100
AcDbEntity
  8
ASSI
100
AcDbLine
 62
253
  6
CONTINUOUS
 10
-20.609748062
 20
-0.3988457327
 11
-20.6296459314
 21
-0.3960857778
  0
LINE
  5
238
100
AcDbEntity
  8
ASSI
100
AcDbLine
 62
7
  6
CONTINUOUS
 10
-20.6768204653
 20
-0.3884862474
 11
-20.6083104591
 21
-0.3990205894
  0
LINE
  5
239
100
AcDbEntity
  8
RACCORDO
100
AcDbLine
 62
253
  6
CONTINUOUS
 10
-20.6296459314
 20
-0.3960857778
 11
-20.6524862277
 21
-0.3921318945
  0
LWPOLYLINE
  5
23A
100
AcDbEntity
  8
ASSI
100
AcDbPolyline
 62
253
  6
CONTINUOUS
 90
55
 70
0
 10
-20.6296459314
 20
-0.3960857778
 10
-20.6524862277
 20
-0.3921318945
 10
-20.6752020263
 20
-0.3873540265
 10
-20.6977809284
 20
-0.381754804
 10
-20.7202102618
 20
-0.3753373581
 10
-20.7424774526
 20
-0.3681052707
 10
-20.7645703747
 20
-0.3600625264
 10
-20.7864766561
 20
-0.3512136015
 10
-20.8081839877
 20
-0.3415634344
 10
-20.8296804951
 20
-0.3311173752
 10
-20.8509541149
 20
-0.3198812512
 10
-20.8719929214
 20
-0.3078613196
 10
-20.8927854343
 20
-0.2950642368
 10
-20.9133199994
 20
-0.2814971284
 10
-20.9335850915
 20
-0.2671675532
 10
-20.9535696425
 20
-0.2520834596
 10
-20.9732624409
 20
-0.2362532535
 10
-20.9926524459
 20
-0.2196857441
 10
-21.0117290896
 20
-0.2023901053
 10
-21.0304816879
 20
-0.1843759537
 10
-21.048899708
 20
-0.1656533248
 10
-21.066973082
 20
-0.14623262
 10
-21.0846916725
 20
-0.1261246565
 10
-21.1020455459
 20
-0.1053406174
 10
-21.1190252388
 20
-0.083892025
 10
-21.1356212424
 20
-0.0617908033
 10
-21.1518242365
 20
-0.0390492587
 10
-21.1676253642
 20
-0.0156800315
 10
-21.183015764
 20
0.0083038633
 10
-21.1979868087
 20
0.0328890941
 10
-21.2125303391
 20
0.058062033
 10
-21.2266382121
 20
0.0838086888
 10
-21.2403025045
 20
0.11011473
 10
-21.2535157519
 20
0.1369655418
 10
-21.2662705507
 20
0.1643461855
 10
-21.2785597453
 20
0.1922414364
 10
-21.2903766289
 20
0.2206358098
 10
-21.3017145883
 20
0.2495135278
 10
-21.3125672545
 20
0.2788585183
 10
-21.3229286905
 20
0.3086544513
 10
-21.3327930891
 20
0.3388847329
 10
-21.342154923
 20
0.3695325746
 10
-21.3510090929
 20
0.4005809938
 10
-21.359350647
 20
0.4320127411
 10
-21.3671748971
 20
0.4638103263
 10
-21.374477569
 20
0.495956089
 10
-21.3812545823
 20
0.5284321848
 10
-21.3875021246
 20
0.5612205306
 10
-21.3932167693
 20
0.5943028308
 10
-21.3983953145
 20
0.6276606106
 10
-21.403034868
 20
0.6612754033
 10
-21.407132914
 20
0.6951286984
 10
-21.4106871783
 20
0.7292017382
 10
-21.4136956382
 20
0.7634755243
 10
-21.4161566047
 20
0.7979310057
  0
LINE
  5
23B
100
AcDbEntity
  8
RACCORDO
100
AcDbLine
 62
7
  6
CONTINUOUS
 10
-20.6800423563
 20
-0.3878812494
 11
-20.6515007234
 21
-0.3928982912
  0
LWPOLYLINE
  5
23C
100
AcDbEntity
  8
RACCORDO
100
AcDbPolyline
 62
253
  6
CONTINUOUS
 90
54
 70
0
 10
-20.6524862277
 20
-0.3921318945
 10
-20.6752020263
 20
-0.3873540265
 10
-20.6977809284
 20
-0.381754804
 10
-20.7202102618
 20
-0.3753373581
 10
-20.7424774526
 20
-0.3681052707
 10
-20.7645703747
 20
-0.3600625264
 10
-20.7864766561
 20
-0.3512136015
 10
-20.8081839877
 20
-0.3415634344
 10
-20.8296804951
 20
-0.3311173752
 10
-20.8509541149
 20
-0.3198812512
 10
-20.8719929214
 20
-0.3078613196
 10
-20.8927854343
 20
-0.2950642368
 10
-20.9133199994
 20
-0.2814971284
 10
-20.9335850915
 20
-0.2671675532
 10
-20.9535696425
 20
-0.2520834596
 10
-20.9732624409
 20
-0.2362532535
 10
-20.9926524459
 20
-0.2196857441
 10
-21.0117290896
 20
-0.2023901053
 10
-21.0304816879
 20
-0.1843759537
 10
-21.048899708
 20
-0.1656533248
 10
-21.066973082
 20
-0.14623262
 10
-21.0846916725
 20
-0.1261246565
 10
-21.1020455459
 20
-0.1053406174
 10
-21.1190252388
 20
-0.083892025
 10
-21.1356212424
 20
-0.0617908033
 10
-21.1518242365
 20
-0.0390492587
 10
-21.1676253642
 20
-0.0156800315
 10
-21.183015764
 20
0.0083038633
 10
-21.1979868087
 20
0.0328890941
 10
-21.2125303391
 20
0.058062033
 10
-21.2266382121
 20
0.0838086888
 10
-21.2403025045
 20
0.11011473
 10
-21.2535157519
 20
0.1369655418
 10
-21.2662705507
 20
0.1643461855
 10
-21.2785597453
 20
0.1922414364
 10
-21.2903766289
 20
0.2206358098
 10
-21.3017145883
 20
0.2495135278
 10
-21.3125672545
 20
0.2788585183
 10
-21.3229286905
 20
0.3086544513
 10
-21.3327930891
 20
0.3388847329
 10
-21.342154923
 20
0.3695325746
 10
-21.3510090929
 20
0.4005809938
 10
-21.359350647
 20
0.4320127411
 10
-21.3671748971
 20
0.4638103263
 10
-21.374477569
 20
0.495956089
 10
-21.3812545823
 20
0.5284321848
 10
-21.3875021246
 20
0.5612205306
 10
-21.3932167693
 20
0.5943028308
 10
-21.3983953145
 20
0.6276606106
 10
-21.403034868
 20
0.6612754033
 10
-21.407132914
 20
0.6951286984
 10
-21.4106871783
 20
0.7292017382
 10
-21.4136956382
 20
0.7634755243
 10
-21.4161566047
 20
0.7979310057
  0
LINE
  5
23D
100
AcDbEntity
  8
RACCORDO
100
AcDbLine
 62
253
  6
CONTINUOUS
 10
-21.4161566047
 20
0.7979310057
 11
-6.2038152348
 21
-1.0706079151
  0
LINE
  5
23E
100
AcDbEntity
  8
ASSI
100
AcDbLine
 62
253
  6
CONTINUOUS
 10
-21.4161566047
 20
0.7979310057
 11
-6.2038152348
 21
-1.0706079151
  0
LWPOLYLINE
  5
23F
100
AcDbEntity
  8
CURVE
100
AcDbPolyline
 62
252
  6
CONTINUOUS
 90
4
 70
0
 10
-14.0979793942
 20
6.5036102813
 10
-14.0794437631
 20
6.5057884953
 10
-14.0611052979
 20
6.5089533355
 10
-14.0429898538
 20
6.5131016232
  0
LINE
  5
240
100
AcDbEntity
  8
CURVE
100
AcDbLine
 62
252
  6
CONTINUOUS
 10
-14.0979626948
 20
6.5036111633
 11
-14.1166694774
 21
6.5024219748
  0
LWPOLYLINE
  5
241
100
AcDbEntity
  8
CURVE
100
AcDbPolyline
 62
252
  6
CONTINUOUS
 90
3
 70
0
 10
-14.1545107311
 20
6.5030271824
 10
-14.1355387333
 20
6.5022264463
 10
-14.116686336
 20
6.5024218721
  0
LINE
  5
242
100
AcDbEntity
  8
CURVE
100
AcDbLine
 62
252
  6
CONTINUOUS
 10
-14.1544938533
 20
6.5030258583
 11
-14.1735597541
 21
6.5048252534
  0
LINE
  5
243
100
AcDbEntity
  8
CURVE
100
AcDbLine
 62
252
  6
CONTINUOUS
 10
-14.1927089078
 20
6.5076277965
 11
-14.1735764741
 21
6.504827259
  0
LWPOLYLINE
  5
244
100
AcDbEntity
  8
CURVE
100
AcDbPolyline
 62
252
  6
CONTINUOUS
 90
14
 70
0
 10
-14.192692467
 20
6.5076251134
 10
-14.2118601387
 20
6.5114183363
 10
-14.2310297146
 20
6.5161957674
 10
-14.2501681401
 20
6.5219482518
 10
-14.2692423605
 20
6.5286666349
 10
-14.2882193214
 20
6.536341762
 10
-14.307065968
 20
6.5449644783
 10
-14.3257492458
 20
6.554525629
 10
-14.3442373477
 20
6.5650143918
 10
-14.3625034574
 20
6.5764132731
 10
-14.3805220061
 20
6.5887031119
 10
-14.3982674249
 20
6.601864747
 10
-14.4157141451
 20
6.6158790173
 10
-14.4328365979
 20
6.6307267617
  0
LINE
  5
245
100
AcDbEntity
  8
CURVE
100
AcDbLine
 62
252
  6
CONTINUOUS
 10
-14.3665554727
 20
7.7745249411
 11
-14.3493270501
 21
7.7785106932
  0
LINE
  5
246
100
AcDbEntity
  8
CURVE
100
AcDbLine
 62
252
  6
CONTINUOUS
 10
-14.3499464187
 20
7.7783838144
 11
-14.3325044856
 21
7.7815132479
  0
LINE
  5
247
100
AcDbEntity
  8
CURVE
100
AcDbLine
 62
252
  6
CONTINUOUS
 10
-14.3331574611
 20
7.7814134277
 11
-14.3155492695
 21
7.7836879791
  0
LINE
  5
248
100
AcDbEntity
  8
CURVE
100
AcDbLine
 62
252
  6
CONTINUOUS
 10
-14.3162261358
 20
7.7836181022
 11
-14.2985035097
 21
7.7850406126
  0
LINE
  5
249
100
AcDbEntity
  8
CURVE
100
AcDbLine
 62
252
  6
CONTINUOUS
 10
-14.2991899788
 20
7.785002159
 11
-14.281403333
 21
7.7855766516
  0
LINE
  5
24A
100
AcDbEntity
  8
CURVE
100
AcDbLine
 62
252
  6
CONTINUOUS
 10
-14.2820819615
 20
7.7855697389
 11
-14.2642609417
 21
7.7853007064
  0
LINE
  5
24B
100
AcDbEntity
  8
CURVE
100
AcDbLine
 62
252
  6
CONTINUOUS
 10
-14.2649167959
 20
7.7853242614
 11
-14.2470825572
 21
7.7842171641
  0
LINE
  5
24C
100
AcDbEntity
  8
CURVE
100
AcDbLine
 62
252
  6
CONTINUOUS
 10
-14.2477046294
 20
7.7842689656
 11
-14.2298744011
 21
7.7823304118
  0
LINE
  5
24D
100
AcDbEntity
  8
CURVE
100
AcDbLine
 62
252
  6
CONTINUOUS
 10
-14.2304556092
 20
7.7824070905
 11
-14.2126428757
 21
7.7796436782
  0
LINE
  5
24E
100
AcDbEntity
  8
CURVE
100
AcDbLine
 62
252
  6
CONTINUOUS
 10
-14.2131788637
 20
7.7797405828
 11
-14.1953951068
 21
7.7761555571
  0
LINE
  5
24F
100
AcDbEntity
  8
CURVE
100
AcDbLine
 62
252
  6
CONTINUOUS
 10
-14.1958794442
 20
7.776266219
 11
-14.1781384015
 21
7.7718634836
  0
LINE
  5
250
100
AcDbEntity
  8
CURVE
100
AcDbLine
 62
252
  6
CONTINUOUS
 10
-14.1785613831
 20
7.7719794832
 11
-14.1608800665
 21
7.7667648932
  0
LINE
  5
251
100
AcDbEntity
  8
CURVE
100
AcDbLine
 62
252
  6
CONTINUOUS
 10
-14.1612287128
 20
7.7668758593
 11
-14.1436317683
 21
7.7608587091
  0
LINE
  5
252
100
AcDbEntity
  8
CURVE
100
AcDbLine
 62
252
  6
CONTINUOUS
 10
-14.1438911573
 20
7.7609526609
 11
-14.1264226117
 21
7.7541498084
  0
LWPOLYLINE
  5
253
100
AcDbEntity
  8
CURVE
100
AcDbPolyline
 62
252
  6
CONTINUOUS
 90
4
 70
0
 10
-14.0751981081
 20
7.7291787401
 10
-14.0921968486
 20
7.7383192471
 10
-14.1093370433
 20
7.7466678942
 10
-14.1265812068
 20
7.754214519
  0
LINE
  5
254
100
AcDbEntity
  8
CURVE
100
AcDbLine
 62
252
  6
CONTINUOUS
 10
-14.0583755204
 20
7.7192713442
 11
-14.0753637698
 21
7.729273155
  0
LINE
  5
255
100
AcDbEntity
  8
CURVE
100
AcDbLine
 62
252
  6
CONTINUOUS
 10
-14.0417630873
 20
7.7086257321
 11
-14.0586397641
 21
7.7194359208
  0
LINE
  5
256
100
AcDbEntity
  8
CURVE
100
AcDbLine
 62
252
  6
CONTINUOUS
 10
-14.0253948107
 20
7.6972705769
 11
-14.0421118345
 21
7.7088601645
  0
LWPOLYLINE
  5
257
100
AcDbEntity
  8
ASSI
100
AcDbPolyline
 62
253
  6
CONTINUOUS
 90
30
 70
0
 10
-21.6831315269
 20
0.9030440743
 10
-21.6826494942
 20
0.89908712
 10
-21.6814678591
 20
0.8944117884
 10
-21.6796269464
 20
0.8897851104
 10
-21.6771282794
 20
0.8852109144
 10
-21.6739739256
 20
0.8806929853
 10
-21.6701664949
 20
0.8762350614
 10
-21.665709138
 20
0.8718408315
 10
-21.6606055429
 20
0.8675139315
 10
-21.6548599327
 20
0.8632579417
 10
-21.6484770615
 20
0.8590763838
 10
-21.6414622109
 20
0.8549727176
 10
-21.6338211851
 20
0.8509503389
 10
-21.6255603069
 20
0.8470125758
 10
-21.6166864115
 20
0.8431626867
 10
-21.6072068417
 20
0.8394038572
 10
-21.5971294413
 20
0.8357391974
 10
-21.5864625488
 20
0.8321717397
 10
-21.5752149905
 20
0.828704436
 10
-21.5633960732
 20
0.8253401553
 10
-21.5510155763
 20
0.8220816813
 10
-21.538083744
 20
0.8189317103
 10
-21.5246112769
 20
0.8158928487
 10
-21.5106093225
 20
0.8129676109
 10
-21.4960894668
 20
0.8101584175
 10
-21.4810637241
 20
0.8074675929
 10
-21.4655445276
 20
0.8048973637
 10
-21.4495447183
 20
0.8024498565
 10
-21.4330775355
 20
0.8001270965
 10
-21.4161566046
 20
0.7979310057
  0
LWPOLYLINE
  5
258
100
AcDbEntity
  8
RACCORDO
100
AcDbPolyline
 62
253
  6
CONTINUOUS
 90
30
 70
0
 10
-21.6831315272
 20
0.9030440796
 10
-21.6826494942
 20
0.89908712
 10
-21.6814678591
 20
0.8944117884
 10
-21.6796269464
 20
0.8897851104
 10
-21.6771282794
 20
0.8852109144
 10
-21.6739739256
 20
0.8806929853
 10
-21.6701664949
 20
0.8762350614
 10
-21.665709138
 20
0.8718408315
 10
-21.6606055429
 20
0.8675139315
 10
-21.6548599327
 20
0.8632579417
 10
-21.6484770615
 20
0.8590763838
 10
-21.6414622109
 20
0.8549727176
 10
-21.6338211851
 20
0.8509503389
 10
-21.6255603069
 20
0.8470125758
 10
-21.6166864115
 20
0.8431626867
 10
-21.6072068417
 20
0.8394038572
 10
-21.5971294413
 20
0.8357391974
 10
-21.5864625488
 20
0.8321717397
 10
-21.5752149905
 20
0.828704436
 10
-21.5633960732
 20
0.8253401553
 10
-21.5510155763
 20
0.8220816813
 10
-21.538083744
 20
0.8189317103
 10
-21.5246112769
 20
0.8158928487
 10
-21.5106093225
 20
0.8129676109
 10
-21.4960894668
 20
0.8101584175
 10
-21.4810637241
 20
0.8074675929
 10
-21.4655445276
 20
0.8048973637
 10
-21.4495447183
 20
0.8024498565
 10
-21.4330775355
 20
0.8001270965
 10
-21.4161566046
 20
0.7979310057
  0
LINE
  5
259
100
AcDbEntity
  8
RACCORDO
100
AcDbLine
 62
253
  6
CONTINUOUS
 10
-22.4873568455
 20
21.2661526602
 11
-22.4871102937
 21
21.2634540101
  0
LWPOLYLINE
  5
25A
100
AcDbEntity
  8
ASSI
100
AcDbPolyline
 62
7
  6
CONTINUOUS
 90
17
 70
0
 10
-22.4873568915
 20
21.2661554867
 10
-22.4844472013
 20
21.2342798667
 10
-22.476830463
 20
21.2031587906
 10
-22.4648332437
 20
21.1737502757
 10
-22.448699728
 20
21.1463461544
 10
-22.4289094517
 20
21.1215367872
 10
-22.4071275566
 20
21.1006239761
 10
-22.3843464881
 20
21.0834176304
 10
-22.3606182572
 20
21.0690775436
 10
-22.3364519633
 20
21.0572398735
 10
-22.3123352433
 20
21.0475164541
 10
-22.2877298007
 20
21.0392247318
 10
-22.2616393973
 20
21.0318035699
 10
-22.2338431846
 20
21.0250903913
 10
-22.2042353047
 20
21.0189912587
 10
-22.1722163932
 20
21.0133581986
 10
-22.1375755094
 20
21.0081670949
  0
LWPOLYLINE
  5
25B
100
AcDbEntity
  8
RACCORDO
100
AcDbPolyline
 62
7
  6
CONTINUOUS
 90
54
 70
0
 10
-21.680948609
 20
0.8724525409
 10
-21.6776624107
 20
0.8360092168
 10
-21.6736287388
 20
0.7996369474
 10
-21.6688368471
 20
0.7633176038
 10
-21.6632820191
 20
0.7270888147
 10
-21.656971249
 20
0.6910441695
 10
-21.6499007221
 20
0.6551928448
 10
-21.6420655485
 20
0.6195450136
 10
-21.633481114
 20
0.5841924052
 10
-21.6241468826
 20
0.5491452882
 10
-21.6140609027
 20
0.5144116615
 10
-21.6032457067
 20
0.480076185
 10
-21.5917037278
 20
0.446148232
 10
-21.5794367532
 20
0.4126359125
 10
-21.5664749098
 20
0.3796192427
 10
-21.552826236
 20
0.3471108897
 10
-21.538494872
 20
0.3151140757
 10
-21.5235132751
 20
0.2836923804
 10
-21.5078968917
 20
0.2528642109
 10
-21.4916499215
 20
0.2226253399
 10
-21.4747938194
 20
0.1930043165
 10
-21.4573407812
 20
0.1640096954
 10
-21.4393014301
 20
0.1356475551
 10
-21.4206989388
 20
0.1079426801
 10
-21.4015467592
 20
0.0809021524
 10
-21.3818585082
 20
0.0545332525
 10
-21.3616620297
 20
0.0288607231
 10
-21.3409766281
 20
0.0038947704
 10
-21.3198155058
 20
-0.0203623133
 10
-21.2982012597
 20
-0.0438978612
 10
-21.2761587088
 20
-0.0666993563
 10
-21.253699622
 20
-0.0887687928
 10
-21.2308285944
 20
-0.1101137719
 10
-21.2075647373
 20
-0.1307278194
 10
-21.18392615
 20
-0.1506063625
 10
-21.1599158298
 20
-0.1697569572
 10
-21.1355528727
 20
-0.1881734512
 10
-21.1108562697
 20
-0.2058510078
 10
-21.0858286189
 20
-0.2227962313
 10
-21.0604906237
 20
-0.2390026023
 10
-21.0348605692
 20
-0.2544662422
 10
-21.0089370634
 20
-0.269194952
 10
-20.9827401025
 20
-0.283183254
 10
-20.9562891631
 20
-0.2964266948
 10
-20.9295815684
 20
-0.3089318598
 10
-20.9026373333
 20
-0.3206938541
 10
-20.8754763885
 20
-0.3317085393
 10
-20.8480954138
 20
-0.3419808668
 10
-20.8205150104
 20
-0.3515061436
 10
-20.7927549025
 20
-0.3602809307
 10
-20.76480993
 20
-0.368309226
 10
-20.7367001935
 20
-0.3755866811
 10
-20.7084460813
 20
-0.382109893
 10
-20.6800423563
 20
-0.3878812494
  0
LWPOLYLINE
  5
25C
100
AcDbEntity
  8
ASSI
100
AcDbPolyline
 62
7
  6
CONTINUOUS
 90
17
 70
0
 10
-21.683133463
 20
0.9030752388
 10
-21.6786099645
 20
0.8457046005
 10
-21.6620743849
 20
0.719829012
 10
-21.6367303238
 20
0.597179389
 10
-21.6023865783
 20
0.4774607839
 10
-21.5590808809
 20
0.3617432092
 10
-21.5076020617
 20
0.2522995
 10
-21.4483701391
 20
0.1497120744
 10
-21.3815615126
 20
0.054146078
 10
-21.3084048866
 20
-0.0329376711
 10
-21.2301285917
 20
-0.1107498164
 10
-21.1470423481
 20
-0.1796123125
 10
-21.0594092821
 20
-0.239673627
 10
-20.9683119804
 20
-0.2905147515
 10
-20.8743659699
 20
-0.3321411999
 10
-20.7770801197
 20
-0.3648824856
 10
-20.6768204653
 20
-0.3884862474
  0
LINE
  5
25D
100
AcDbEntity
  8
RACCORDO
100
AcDbLine
 62
7
  6
CONTINUOUS
 10
-21.6831315569
 20
0.9030446752
 11
-21.680948609
 21
0.8724525409
  0
LWPOLYLINE
  5
25E
100
AcDbEntity
  8
RACCORDO
100
AcDbPolyline
 62
253
  6
CONTINUOUS
 90
22
 70
0
 10
-21.4161566047
 20
0.7979310057
 10
-21.4737303681
 20
1.7302261782
 10
-21.5293260901
 20
2.6631059779
 10
-21.5829432001
 20
3.5965609634
 10
-21.6345811415
 20
4.5305816855
 10
-21.6842393916
 20
5.4651586936
 10
-21.7319174616
 20
6.4002825365
 10
-21.7776148642
 20
7.3359437516
 10
-21.8213311299
 20
8.2721328686
 10
-21.8630658274
 20
9.2088404156
 10
-21.9028185305
 20
10.1460569125
 10
-21.9405888313
 20
11.0837728752
 10
-21.9763763563
 20
12.021978819
 10
-22.0101807409
 20
12.9606652488
 10
-22.0420016382
 20
13.8998226655
 10
-22.0718387329
 20
14.8394415712
 10
-22.0996945548
 20
15.7795128052
 10
-22.1255659853
 20
16.7200265062
 10
-22.1494442663
 20
17.6609721179
 10
-22.1713263232
 20
18.6023397722
 10
-22.1912147646
 20
19.5441202889
 10
-22.2091093883
 20
20.4863041375
  0
LWPOLYLINE
  5
25F
100
AcDbEntity
  8
ASSI
100
AcDbPolyline
 62
253
  6
CONTINUOUS
 90
22
 70
0
 10
-21.4161566047
 20
0.7979310057
 10
-21.4737303681
 20
1.7302261782
 10
-21.5293260901
 20
2.6631059779
 10
-21.5829432001
 20
3.5965609634
 10
-21.6345811415
 20
4.5305816855
 10
-21.6842393916
 20
5.4651586936
 10
-21.7319174616
 20
6.4002825365
 10
-21.7776148642
 20
7.3359437516
 10
-21.8213311299
 20
8.2721328686
 10
-21.8630658274
 20
9.2088404156
 10
-21.9028185305
 20
10.1460569125
 10
-21.9405888313
 20
11.0837728752
 10
-21.9763763563
 20
12.021978819
 10
-22.0101807409
 20
12.9606652488
 10
-22.0420016382
 20
13.8998226655
 10
-22.0718387329
 20
14.8394415712
 10
-22.0996945548
 20
15.7795128052
 10
-22.1255659853
 20
16.7200265062
 10
-22.1494442663
 20
17.6609721179
 10
-22.1713263232
 20
18.6023397722
 10
-22.1912147646
 20
19.5441202889
 10
-22.2091093883
 20
20.4863041375
  0
LINE
  5
260
100
AcDbEntity
  8
ASSI
100
AcDbLine
 62
7
  6
CONTINUOUS
 10
-21.8753098655
 20
4.1567260609
 11
-21.6831315269
 21
0.9030440743
  0
LWPOLYLINE
  5
261
100
AcDbEntity
  8
RACCORDO
100
AcDbPolyline
 62
7
  6
CONTINUOUS
 90
5
 70
0
 10
-21.9203218144
 20
4.9849081824
 10
-21.8644853187
 20
3.9617933565
 10
-21.8062727503
 20
2.9393506107
 10
-21.7456849088
 20
1.9175938232
 10
-21.6831315272
 20
0.9030440796
  0
LINE
  5
262
100
AcDbEntity
  8
ASSI
100
AcDbLine
 62
7
  6
CONTINUOUS
 10
-22.0471677367
 20
7.4962418555
 11
-21.8753098655
 21
4.1567260609
  0
LWPOLYLINE
  5
263
100
AcDbEntity
  8
RACCORDO
100
AcDbPolyline
 62
7
  6
CONTINUOUS
 90
4
 70
0
 10
-22.073568735
 20
8.0581659764
 10
-22.0248641112
 20
7.0331062067
 10
-21.9737816053
 20
6.0086829472
 10
-21.9203218144
 20
4.9849081824
  0
LWPOLYLINE
  5
264
100
AcDbEntity
  8
0
100
AcDbPolyline
 62
7
  6
CONTINUOUS
 90
26
 70
0
 10
-22.0790554078
 20
20.7790195001
 10
-22.0790280175
 20
20.778437549
 10
-22.0786230986
 20
20.776293918
 10
-22.0777420915
 20
20.7741591678
 10
-22.0763881388
 20
20.7720409135
 10
-22.0745595515
 20
20.769939214
 10
-22.0722580186
 20
20.7678540104
 10
-22.0694917502
 20
20.765792741
 10
-22.0662590864
 20
20.7637554912
 10
-22.0625616871
 20
20.7617421757
 10
-22.0584127416
 20
20.7597599762
 10
-22.0538106372
 20
20.757809004
 10
-22.0487569865
 20
20.7558891478
 10
-22.0432698169
 20
20.7540072562
 10
-22.0373475801
 20
20.7521634648
 10
-22.0309918245
 20
20.7503576379
 10
-22.0242252221
 20
20.7485962173
 10
-22.0170463057
 20
20.7468793616
 10
-22.0094565425
 20
20.7452069122
 10
-22.0014830068
 20
20.7435848351
 10
-21.9931243326
 20
20.7420133107
 10
-21.9843818858
 20
20.7404921586
 10
-21.9752868381
 20
20.739026803
 10
-21.9658495799
 20
20.7376190519
 10
-21.9560597207
 20
20.7362670974
 10
-21.9459172605
 20
20.7349709393
  0
LWPOLYLINE
  5
265
100
AcDbEntity
  8
ASSI
100
AcDbPolyline
 62
7
  6
CONTINUOUS
 90
26
 70
0
 10
-22.0790554078
 20
20.7790195001
 10
-22.0790280175
 20
20.778437549
 10
-22.0786230986
 20
20.776293918
 10
-22.0777420915
 20
20.7741591678
 10
-22.0763881388
 20
20.7720409135
 10
-22.0745595515
 20
20.769939214
 10
-22.0722580186
 20
20.7678540104
 10
-22.0694917502
 20
20.765792741
 10
-22.0662590864
 20
20.7637554912
 10
-22.0625616871
 20
20.7617421757
 10
-22.0584127416
 20
20.7597599762
 10
-22.0538106372
 20
20.757809004
 10
-22.0487569865
 20
20.7558891478
 10
-22.0432698169
 20
20.7540072562
 10
-22.0373475801
 20
20.7521634648
 10
-22.0309918245
 20
20.7503576379
 10
-22.0242252221
 20
20.7485962173
 10
-22.0170463057
 20
20.7468793616
 10
-22.0094565425
 20
20.7452069122
 10
-22.0014830068
 20
20.7435848351
 10
-21.9931243326
 20
20.7420133107
 10
-21.9843818858
 20
20.7404921586
 10
-21.9752868381
 20
20.739026803
 10
-21.9658495799
 20
20.7376190519
 10
-21.9560597207
 20
20.7362670974
 10
-21.9459172605
 20
20.7349709393
  0
LINE
  5
266
100
AcDbEntity
  8
ASSI
100
AcDbLine
 62
7
  6
CONTINUOUS
 10
-22.1937312485
 20
10.8424597528
 11
-22.0471677367
 21
7.4962418555
  0
LWPOLYLINE
  5
267
100
AcDbEntity
  8
RACCORDO
100
AcDbPolyline
 62
7
  6
CONTINUOUS
 90
4
 70
0
 10
-22.2054097034
 20
11.1370400147
 10
-22.1638420733
 20
10.1101451683
 10
-22.1198949049
 20
9.0838497202
 10
-22.073568735
 20
8.0581659764
  0
LINE
  5
268
100
AcDbEntity
  8
ASSI
100
AcDbLine
 62
7
  6
CONTINUOUS
 10
-22.3149819251
 20
14.1949474432
 11
-22.1937312485
 21
10.8424597528
  0
LWPOLYLINE
  5
269
100
AcDbEntity
  8
RACCORDO
100
AcDbPolyline
 62
7
  6
CONTINUOUS
 90
4
 70
0
 10
-22.315830525
 20
14.2211939331
 10
-22.2814043948
 20
13.1925770657
 10
-22.2445973037
 20
12.164521587
 10
-22.2054097034
 20
11.1370400147
  0
LWPOLYLINE
  5
26A
100
AcDbEntity
  8
RACCORDO
100
AcDbPolyline
 62
253
  6
CONTINUOUS
 90
35
 70
0
 10
-22.2210817705
 20
21.1781181901
 10
-22.2208428263
 20
21.1701779853
 10
-22.2203875648
 20
21.162291667
 10
-22.2197167254
 20
21.1544720457
 10
-22.2188313979
 20
21.1467318239
 10
-22.2177330205
 20
21.1390835748
 10
-22.2164233773
 20
21.1315397223
 10
-22.2149045957
 20
21.1241125209
 10
-22.213179143
 20
21.1168140354
 10
-22.2112498218
 20
21.1096561216
 10
-22.2091197664
 20
21.1026504068
 10
-22.2067924367
 20
21.0958082713
 10
-22.2042716133
 20
21.0891408295
 10
-22.2015613911
 20
21.0826589121
 10
-22.1986661725
 20
21.0763730486
 10
-22.1955906607
 20
21.0702934496
 10
-22.1923398516
 20
21.064429991
 10
-22.1889190257
 20
21.0587921976
 10
-22.18533374
 20
21.0533892273
 10
-22.1815898185
 20
21.0482298569
 10
-22.1776933427
 20
21.0433224674
 10
-22.1736506423
 20
21.0386750304
 10
-22.1694682842
 20
21.0342950952
 10
-22.1651530623
 20
21.0301897767
 10
-22.1607119864
 20
21.0263657436
 10
-22.1561522706
 20
21.0228292077
 10
-22.1514813217
 20
21.0195859139
 10
-22.1467067274
 20
21.0166411306
 10
-22.1418362435
 20
21.0139996414
 10
-22.1368777818
 20
21.0116657371
 10
-22.1318393968
 20
21.0096432089
 10
-22.1267292729
 20
21.0079353423
 10
-22.1215557112
 20
21.0065449116
 10
-22.1163271156
 20
21.0054741754
 10
-22.1120593768
 20
21.0048426803
  0
LWPOLYLINE
  5
26B
100
AcDbEntity
  8
ASSI
100
AcDbPolyline
 62
253
  6
CONTINUOUS
 90
35
 70
0
 10
-22.2210817705
 20
21.1781181901
 10
-22.2208428263
 20
21.1701779853
 10
-22.2203875648
 20
21.162291667
 10
-22.2197167254
 20
21.1544720457
 10
-22.2188313979
 20
21.1467318239
 10
-22.2177330205
 20
21.1390835748
 10
-22.2164233773
 20
21.1315397223
 10
-22.2149045957
 20
21.1241125209
 10
-22.213179143
 20
21.1168140354
 10
-22.2112498218
 20
21.1096561216
 10
-22.2091197664
 20
21.1026504068
 10
-22.2067924367
 20
21.0958082713
 10
-22.2042716133
 20
21.0891408295
 10
-22.2015613911
 20
21.0826589121
 10
-22.1986661725
 20
21.0763730486
 10
-22.1955906607
 20
21.0702934496
 10
-22.1923398516
 20
21.064429991
 10
-22.1889190257
 20
21.0587921976
 10
-22.18533374
 20
21.0533892273
 10
-22.1815898185
 20
21.0482298569
 10
-22.1776933427
 20
21.0433224674
 10
-22.1736506423
 20
21.0386750304
 10
-22.1694682842
 20
21.0342950952
 10
-22.1651530623
 20
21.0301897767
 10
-22.1607119864
 20
21.0263657436
 10
-22.1561522706
 20
21.0228292077
 10
-22.1514813217
 20
21.0195859139
 10
-22.1467067274
 20
21.0166411306
 10
-22.1418362435
 20
21.0139996414
 10
-22.1368777818
 20
21.0116657371
 10
-22.1318393968
 20
21.0096432089
 10
-22.1267292729
 20
21.0079353423
 10
-22.1215557112
 20
21.0065449116
 10
-22.1163271156
 20
21.0054741754
 10
-22.1120593768
 20
21.0048426803
  0
LINE
  5
26C
100
AcDbEntity
  8
ASSI
100
AcDbLine
 62
7
  6
CONTINUOUS
 10
-22.4109046042
 20
17.5532730951
 11
-22.3149819251
 21
14.1949474432
  0
LWPOLYLINE
  5
26D
100
AcDbEntity
  8
RACCORDO
100
AcDbPolyline
 62
7
  6
CONTINUOUS
 90
5
 70
0
 10
-22.4297178335
 20
18.3410255712
 10
-22.4048192932
 20
17.3102881049
 10
-22.3775383481
 20
16.2800620177
 10
-22.3478753039
 20
15.2503597954
 10
-22.315830525
 20
14.2211939331
  0
LINE
  5
26E
100
AcDbEntity
  8
ASSI
100
AcDbLine
 62
7
  6
CONTINUOUS
 10
-22.475463172
 20
20.5744762278
 11
-22.4109046042
 21
17.5532730951
  0
LWPOLYLINE
  5
26F
100
AcDbEntity
  8
RACCORDO
100
AcDbPolyline
 62
7
  6
CONTINUOUS
 90
5
 70
0
 10
-22.4873568969
 20
21.2661558204
 10
-22.4873192465
 20
21.2643327716
 10
-22.4869012559
 20
21.2552632673
 10
-22.4861070512
 20
21.2462830802
 10
-22.4849470207
 20
21.2374122898
  0
LWPOLYLINE
  5
270
100
AcDbEntity
  8
RACCORDO
100
AcDbPolyline
 62
7
  6
CONTINUOUS
 90
3
 70
0
 10
-22.4723665407
 20
20.4039842723
 10
-22.4522336749
 20
19.3722617937
 10
-22.4297178335
 20
18.3410255712
  0
LWPOLYLINE
  5
271
100
AcDbEntity
  8
ASSI
100
AcDbPolyline
 62
253
  6
CONTINUOUS
 90
31
 70
0
 10
-22.3746216862
 20
41.1151050765
 10
-22.3746077901
 20
41.1143102615
 10
-22.3741258493
 20
41.1118837337
 10
-22.3729826144
 20
41.1094415831
 10
-22.3711790315
 20
41.1069858304
 10
-22.3687165928
 20
41.1045185075
 10
-22.3655973359
 20
41.102041656
 10
-22.3618238418
 20
41.0995573255
 10
-22.357399233
 20
41.0970675715
 10
-22.3523271704
 20
41.0945744543
 10
-22.346611851
 20
41.0920800366
 10
-22.3402580039
 20
41.0895863825
 10
-22.3332708866
 20
41.0870955555
 10
-22.3256562805
 20
41.0846096164
 10
-22.3174204863
 20
41.0821306223
 10
-22.3085703187
 20
41.0796606245
 10
-22.2991131007
 20
41.0772016666
 10
-22.2890566577
 20
41.0747557834
 10
-22.2784093108
 20
41.0723249987
 10
-22.2671798701
 20
41.0699113239
 10
-22.2553776274
 20
41.067516756
 10
-22.2430123484
 20
41.0651432766
 10
-22.2300942648
 20
41.0627928496
 10
-22.2166340655
 20
41.0604674197
 10
-22.2026428881
 20
41.0581689112
 10
-22.1881323096
 20
41.0558992259
 10
-22.1731143367
 20
41.0536602419
 10
-22.1576013959
 20
41.0514538118
 10
-22.1416063235
 20
41.0492817614
 10
-22.1251423544
 20
41.0471458878
 10
-6.8785227866
 20
39.1743965571
  0
LWPOLYLINE
  5
272
100
AcDbEntity
  8
RACCORDO
100
AcDbPolyline
 62
253
  6
CONTINUOUS
 90
31
 70
0
 10
-22.3746216877
 20
41.1151050218
 10
-22.3746077901
 20
41.1143102615
 10
-22.3741258493
 20
41.1118837337
 10
-22.3729826144
 20
41.1094415831
 10
-22.3711790315
 20
41.1069858304
 10
-22.3687165928
 20
41.1045185075
 10
-22.3655973359
 20
41.102041656
 10
-22.3618238418
 20
41.0995573255
 10
-22.357399233
 20
41.0970675715
 10
-22.3523271704
 20
41.0945744543
 10
-22.346611851
 20
41.0920800366
 10
-22.3402580039
 20
41.0895863825
 10
-22.3332708866
 20
41.0870955555
 10
-22.3256562805
 20
41.0846096164
 10
-22.3174204863
 20
41.0821306223
 10
-22.3085703187
 20
41.0796606245
 10
-22.2991131007
 20
41.0772016666
 10
-22.2890566577
 20
41.0747557834
 10
-22.2784093108
 20
41.0723249987
 10
-22.2671798701
 20
41.0699113239
 10
-22.2553776274
 20
41.067516756
 10
-22.2430123484
 20
41.0651432766
 10
-22.2300942648
 20
41.0627928496
 10
-22.2166340655
 20
41.0604674197
 10
-22.2026428881
 20
41.0581689112
 10
-22.1881323096
 20
41.0558992259
 10
-22.1731143367
 20
41.0536602419
 10
-22.1576013959
 20
41.0514538118
 10
-22.1416063235
 20
41.0492817614
 10
-22.1251423544
 20
41.0471458878
 10
-6.8785227866
 20
39.1743965571
  0
LINE
  5
273
100
AcDbEntity
  8
0
100
AcDbLine
 62
7
  6
CONTINUOUS
 10
-22.0790555375
 20
20.7790202748
 11
-22.0828770143
 21
21.0012581972
  0
LINE
  5
274
100
AcDbEntity
  8
ASSI
100
AcDbLine
 62
7
  6
CONTINUOUS
 10
-22.0790555375
 20
20.7790202748
 11
-22.082947259
 21
21.0053432757
  0
LINE
  5
275
100
AcDbEntity
  8
0
100
AcDbLine
 62
253
  6
CONTINUOUS
 10
-21.945917396
 20
20.734970956
 11
-21.9502161238
 21
20.9849633987
  0
LINE
  5
276
100
AcDbEntity
  8
ASSI
100
AcDbLine
 62
253
  6
CONTINUOUS
 10
-21.945917396
 20
20.734970956
 11
-21.9502161238
 21
20.9849633987
  0
LWPOLYLINE
  5
277
100
AcDbEntity
  8
RACCORDO
100
AcDbPolyline
 62
253
  6
CONTINUOUS
 90
22
 70
0
 10
-22.2210057905
 20
21.1781088575
 10
-22.2355252612
 20
22.1209796193
 10
-22.2480505242
 20
23.0642276529
 10
-22.2585814536
 20
24.0078434131
 10
-22.267115132
 20
24.9518170041
 10
-22.2736542867
 20
25.8961392208
 10
-22.27820729
 20
26.8408015486
 10
-22.2807769131
 20
27.7857947742
 10
-22.2813603176
 20
28.7311089892
 10
-22.2799574913
 20
29.6767346319
 10
-22.2765684528
 20
30.6226621343
 10
-22.2711932393
 20
31.5688819238
 10
-22.2638318962
 20
32.5153844277
 10
-22.2544845038
 20
33.4621600693
 10
-22.2431511607
 20
34.4091992676
 10
-22.2298319702
 20
35.3564924384
 10
-22.2145270744
 20
36.3040299953
 10
-22.1972366328
 20
37.2518023516
 10
-22.177960807
 20
38.1997999191
 10
-22.1566997922
 20
39.1480131062
 10
-22.1334538175
 20
40.0964323177
 10
-22.1082231261
 20
41.0450479572
  0
LWPOLYLINE
  5
278
100
AcDbEntity
  8
ASSI
100
AcDbPolyline
 62
253
  6
CONTINUOUS
 90
22
 70
0
 10
-22.2210057905
 20
21.1781088575
 10
-22.2355252612
 20
22.1209796193
 10
-22.2480505242
 20
23.0642276529
 10
-22.2585814536
 20
24.0078434131
 10
-22.267115132
 20
24.9518170041
 10
-22.2736542867
 20
25.8961392208
 10
-22.27820729
 20
26.8408015486
 10
-22.2807769131
 20
27.7857947742
 10
-22.2813603176
 20
28.7311089892
 10
-22.2799574913
 20
29.6767346319
 10
-22.2765684528
 20
30.6226621343
 10
-22.2711932393
 20
31.5688819238
 10
-22.2638318962
 20
32.5153844277
 10
-22.2544845038
 20
33.4621600693
 10
-22.2431511607
 20
34.4091992676
 10
-22.2298319702
 20
35.3564924384
 10
-22.2145270744
 20
36.3040299953
 10
-22.1972366328
 20
37.2518023516
 10
-22.177960807
 20
38.1997999191
 10
-22.1566997922
 20
39.1480131062
 10
-22.1334538175
 20
40.0964323177
 10
-22.1082231261
 20
41.0450479572
  0
LINE
  5
279
100
AcDbEntity
  8
ASSI
100
AcDbLine
 62
7
  6
CONTINUOUS
 10
-22.5267214652
 20
24.2857076765
 11
-22.4873568966
 21
21.2661526639
  0
LWPOLYLINE
  5
27A
100
AcDbEntity
  8
RACCORDO
100
AcDbPolyline
 62
7
  6
CONTINUOUS
 90
5
 70
0
 10
-22.5290641215
 20
24.5354857368
 10
-22.5184651633
 20
23.5019437512
 10
-22.5054824829
 20
22.4688378279
 10
-22.4901162121
 20
21.4361804964
 10
-22.4873568965
 20
21.266152657
  0
LINE
  5
27B
100
AcDbEntity
  8
ASSI
100
AcDbLine
 62
7
  6
CONTINUOUS
 10
-22.5465736476
 20
27.6542269175
 11
-22.5267214652
 21
24.2857076765
  0
LWPOLYLINE
  5
27C
100
AcDbEntity
  8
RACCORDO
100
AcDbPolyline
 62
7
  6
CONTINUOUS
 90
3
 70
0
 10
-22.5431104133
 20
26.6038273895
 10
-22.537279239
 20
25.5694511249
 10
-22.5290641215
 20
24.5354857368
  0
LWPOLYLINE
  5
27D
100
AcDbEntity
  8
RACCORDO
100
AcDbPolyline
 62
253
  6
CONTINUOUS
 90
40
 70
0
 10
-22.2091858913
 20
20.4863135344
 10
-22.2092206877
 20
20.4942927071
 10
-22.2090387348
 20
20.5023006556
 10
-22.2086403284
 20
20.5103243718
 10
-22.2080261155
 20
20.5183508219
 10
-22.2071970939
 20
20.5263669674
 10
-22.2061546103
 20
20.5343597869
 10
-22.2049003581
 20
20.5423162968
 10
-22.2034363748
 20
20.5502235724
 10
-22.2017650384
 20
20.558068769
 10
-22.1998890639
 20
20.5658391426
 10
-22.1978114986
 20
20.573522071
 10
-22.1955357175
 20
20.581105074
 10
-22.1930654173
 20
20.5885758335
 10
-22.1904046108
 20
20.5959222139
 10
-22.1875576203
 20
20.6031322818
 10
-22.1845290704
 20
20.6101943249
 10
-22.1813238808
 20
20.6170968715
 10
-22.1779472581
 20
20.623828709
 10
-22.1744046873
 20
20.6303789022
 10
-22.170701923
 20
20.6367368109
 10
-22.1668449801
 20
20.642892107
 10
-22.1628401237
 20
20.6488347919
 10
-22.1586938596
 20
20.6545552122
 10
-22.1544129228
 20
20.6600440755
 10
-22.1500042676
 20
20.6652924658
 10
-22.1454750552
 20
20.6702918573
 10
-22.1408326432
 20
20.675034129
 10
-22.1360845726
 20
20.6795115775
 10
-22.1312385563
 20
20.6837169296
 10
-22.1263024663
 20
20.6876433541
 10
-22.1212843208
 20
20.6912844727
 10
-22.1161922714
 20
20.6946343709
 10
-22.1110345897
 20
20.697687607
 10
-22.1058196539
 20
20.7004392213
 10
-22.1005559351
 20
20.702884744
 10
-22.095251984
 20
20.7050202026
 10
-22.0899164163
 20
20.7068421282
 10
-22.0845578991
 20
20.7083475613
 10
-22.079185137
 20
20.7095340565
  0
LWPOLYLINE
  5
27E
100
AcDbEntity
  8
ASSI
100
AcDbPolyline
 62
253
  6
CONTINUOUS
 90
40
 70
0
 10
-22.2091858913
 20
20.4863135344
 10
-22.2092206877
 20
20.4942927071
 10
-22.2090387348
 20
20.5023006556
 10
-22.2086403284
 20
20.5103243718
 10
-22.2080261155
 20
20.5183508219
 10
-22.2071970939
 20
20.5263669674
 10
-22.2061546103
 20
20.5343597869
 10
-22.2049003581
 20
20.5423162968
 10
-22.2034363748
 20
20.5502235724
 10
-22.2017650384
 20
20.558068769
 10
-22.1998890639
 20
20.5658391426
 10
-22.1978114986
 20
20.573522071
 10
-22.1955357175
 20
20.581105074
 10
-22.1930654173
 20
20.5885758335
 10
-22.1904046108
 20
20.5959222139
 10
-22.1875576203
 20
20.6031322818
 10
-22.1845290704
 20
20.6101943249
 10
-22.1813238808
 20
20.6170968715
 10
-22.1779472581
 20
20.623828709
 10
-22.1744046873
 20
20.6303789022
 10
-22.170701923
 20
20.6367368109
 10
-22.1668449801
 20
20.642892107
 10
-22.1628401237
 20
20.6488347919
 10
-22.1586938596
 20
20.6545552122
 10
-22.1544129228
 20
20.6600440755
 10
-22.1500042676
 20
20.6652924658
 10
-22.1454750552
 20
20.6702918573
 10
-22.1408326432
 20
20.675034129
 10
-22.1360845726
 20
20.6795115775
 10
-22.1312385563
 20
20.6837169296
 10
-22.1263024663
 20
20.6876433541
 10
-22.1212843208
 20
20.6912844727
 10
-22.1161922714
 20
20.6946343709
 10
-22.1110345897
 20
20.697687607
 10
-22.1058196539
 20
20.7004392213
 10
-22.1005559351
 20
20.702884744
 10
-22.095251984
 20
20.7050202026
 10
-22.0899164163
 20
20.7068421282
 10
-22.0845578991
 20
20.7083475613
 10
-22.079185137
 20
20.7095340565
  0
LINE
  5
27F
100
AcDbEntity
  8
RACCORDO
100
AcDbLine
 62
7
  6
CONTINUOUS
 10
-22.5476207686
 20
28.6737621663
 11
-22.5465736476
 21
27.6542269175
  0
LINE
  5
280
100
AcDbEntity
  8
RACCORDO
100
AcDbLine
 62
7
  6
CONTINUOUS
 10
-22.5465736476
 20
27.6542269175
 11
-22.5431104133
 21
26.6038273895
  0
LINE
  5
281
100
AcDbEntity
  8
ASSI
100
AcDbLine
 62
7
  6
CONTINUOUS
 10
-22.5411251674
 20
31.0362924802
 11
-22.5465736476
 21
27.6542269175
  0
LWPOLYLINE
  5
282
100
AcDbEntity
  8
RACCORDO
100
AcDbPolyline
 62
7
  6
CONTINUOUS
 90
4
 70
0
 10
-22.5365062591
 20
31.7814308294
 10
-22.5425950479
 20
30.7451893666
 10
-22.546299904
 20
29.7092955026
 10
-22.5476207686
 20
28.6737621663
  0
LINE
  5
283
100
AcDbEntity
  8
ASSI
100
AcDbLine
 62
7
  6
CONTINUOUS
 10
-22.5102935609
 20
34.4173046948
 11
-22.5411251674
 21
31.0362924802
  0
LWPOLYLINE
  5
284
100
AcDbEntity
  8
RACCORDO
100
AcDbPolyline
 62
7
  6
CONTINUOUS
 90
4
 70
0
 10
-22.5039372957
 20
34.8921143831
 10
-22.5171772436
 20
33.8549057631
 10
-22.5280336132
 20
32.8180071077
 10
-22.5365062591
 20
31.7814308294
  0
LINE
  5
285
100
AcDbEntity
  8
ASSI
100
AcDbLine
 62
7
  6
CONTINUOUS
 10
-22.4541109444
 20
37.801548326
 11
-22.5102935609
 21
34.4173046948
  0
LWPOLYLINE
  5
286
100
AcDbEntity
  8
RACCORDO
100
AcDbPolyline
 62
7
  6
CONTINUOUS
 90
4
 70
0
 10
-22.449917764
 20
38.0054759096
 10
-22.4703073506
 20
36.9674113314
 10
-22.4883139299
 20
35.9296202871
 10
-22.5039372957
 20
34.8921143831
  0
LINE
  5
287
100
AcDbEntity
  8
ASSI
100
AcDbLine
 62
7
  6
CONTINUOUS
 10
-22.4750594341
 20
20.592029362
 11
-22.475457637
 21
20.5742443297
  0
LINE
  5
288
100
AcDbEntity
  8
ASSI
100
AcDbLine
 62
7
  6
CONTINUOUS
 10
-22.374621699
 20
41.1151050768
 11
-22.4541109444
 21
37.801548326
  0
LWPOLYLINE
  5
289
100
AcDbEntity
  8
RACCORDO
100
AcDbPolyline
 62
7
  6
CONTINUOUS
 90
4
 70
0
 10
-22.3746216991
 20
41.1151050752
 10
-22.4019906108
 20
40.0823746376
 10
-22.4271454039
 20
39.0438017107
 10
-22.449917764
 20
38.0054759096
  0
LWPOLYLINE
  5
28A
100
AcDbEntity
  8
RACCORDO
100
AcDbPolyline
 62
253
  6
CONTINUOUS
 90
57
 70
0
 10
-22.1082231261
 20
41.0450479572
 10
-22.1069595231
 20
41.0802251036
 10
-22.1051458349
 20
41.115433202
 10
-22.1027830861
 20
41.1506526836
 10
-22.0998726351
 20
41.1858639182
 10
-22.0964160979
 20
41.2210473918
 10
-22.0924153385
 20
41.2561837172
 10
-22.0878725975
 20
41.291253453
 10
-22.0827904224
 20
41.326237022
 10
-22.0771715895
 20
41.3611148883
 10
-22.0710192668
 20
41.3958676404
 10
-22.0643368961
 20
41.4304759942
 10
-22.0571281169
 20
41.464920711
 10
-22.0493969866
 20
41.4991826372
 10
-22.0411478338
 20
41.5332427459
 10
-22.0323851408
 20
41.5670821404
 10
-22.0231138235
 20
41.6006820434
 10
-22.0133390822
 20
41.6340237552
 10
-22.0030662536
 20
41.667088695
 10
-21.9923011142
 20
41.6998584767
 10
-21.9810496931
 20
41.732314905
 10
-21.9693181202
 20
41.764439932
 10
-21.9571129828
 20
41.7962157142
 10
-21.9444411238
 20
41.8276245892
 10
-21.9313094554
 20
41.8586490721
 10
-21.9177253577
 20
41.8892719145
 10
-21.9036964409
 20
41.919476114
 10
-21.8892303415
 20
41.9492448884
 10
-21.8743351733
 20
41.9785617144
 10
-21.8590192936
 20
42.0074102865
 10
-21.8432910654
 20
42.0357745262
 10
-21.8271593263
 20
42.0636386647
 10
-21.8106331141
 20
42.0909872344
 10
-21.7937214324
 20
42.1178050253
 10
-21.7764337666
 20
42.1440771515
 10
-21.7587798169
 20
42.1697890054
 10
-21.7407692259
 20
42.1949262504
 10
-21.7224121134
 20
42.2194749118
 10
-21.7037187639
 20
42.2434213678
 10
-21.6846993584
 20
42.2667523012
 10
-21.6653645635
 20
42.2894547624
 10
-21.6457252291
 20
42.3115161316
 10
-21.6257920756
 20
42.3329241095
 10
-21.6055762935
 20
42.3536668042
 10
-21.5850892167
 20
42.3737326994
 10
-21.5643420186
 20
42.3931106154
 10
-21.5433463328
 20
42.4117898002
 10
-21.5221139437
 20
42.4297598723
 10
-21.5006564611
 20
42.4470107931
 10
-21.4789859445
 20
42.4635329747
 10
-21.4571145312
 20
42.4793172607
 10
-21.4350541272
 20
42.4943548673
 10
-21.4128171008
 20
42.5086374528
 10
-21.3904159345
 20
42.5221570835
 10
-21.3678628531
 20
42.5349062135
 10
-21.3451704947
 20
42.546877778
 10
-21.3223516037
 20
42.558065123
  0
LWPOLYLINE
  5
28B
100
AcDbEntity
  8
ASSI
100
AcDbPolyline
 62
253
  6
CONTINUOUS
 90
54
 70
0
 10
-22.1082231261
 20
41.0450479572
 10
-22.1069595231
 20
41.0802251036
 10
-22.1051458349
 20
41.115433202
 10
-22.1027830861
 20
41.1506526836
 10
-22.0998726351
 20
41.1858639182
 10
-22.0964160979
 20
41.2210473918
 10
-22.0924153385
 20
41.2561837172
 10
-22.0878725975
 20
41.291253453
 10
-22.0827904224
 20
41.326237022
 10
-22.0771715895
 20
41.3611148883
 10
-22.0710192668
 20
41.3958676404
 10
-22.0643368961
 20
41.4304759942
 10
-22.0571281169
 20
41.464920711
 10
-22.0493969866
 20
41.4991826372
 10
-22.0411478338
 20
41.5332427459
 10
-22.0323851408
 20
41.5670821404
 10
-22.0231138235
 20
41.6006820434
 10
-22.0133390822
 20
41.6340237552
 10
-22.0030662536
 20
41.667088695
 10
-21.9923011142
 20
41.6998584767
 10
-21.9810496931
 20
41.732314905
 10
-21.9693181202
 20
41.764439932
 10
-21.9571129828
 20
41.7962157142
 10
-21.9444411238
 20
41.8276245892
 10
-21.9313094554
 20
41.8586490721
 10
-21.9177253577
 20
41.8892719145
 10
-21.9036964409
 20
41.919476114
 10
-21.8892303415
 20
41.9492448884
 10
-21.8743351733
 20
41.9785617144
 10
-21.8590192936
 20
42.0074102865
 10
-21.8432910654
 20
42.0357745262
 10
-21.8271593263
 20
42.0636386647
 10
-21.8106331141
 20
42.0909872344
 10
-21.7937214324
 20
42.1178050253
 10
-21.7764337666
 20
42.1440771515
 10
-21.7587798169
 20
42.1697890054
 10
-21.7407692259
 20
42.1949262504
 10
-21.7224121134
 20
42.2194749118
 10
-21.7037187639
 20
42.2434213678
 10
-21.6846993584
 20
42.2667523012
 10
-21.6653645635
 20
42.2894547624
 10
-21.6457252291
 20
42.3115161316
 10
-21.6257920756
 20
42.3329241095
 10
-21.6055762935
 20
42.3536668042
 10
-21.5850892167
 20
42.3737326994
 10
-21.5643420186
 20
42.3931106154
 10
-21.5433463328
 20
42.4117898002
 10
-21.5221139437
 20
42.4297598723
 10
-21.5006564611
 20
42.4470107931
 10
-21.4789859445
 20
42.4635329747
 10
-21.4571145312
 20
42.4793172607
 10
-21.4350541272
 20
42.4943548673
 10
-21.4128171008
 20
42.5086374528
 10
-21.3904159345
 20
42.5221570835
  0
LWPOLYLINE
  5
28C
100
AcDbEntity
  8
RACCORDO
100
AcDbPolyline
 62
7
  6
CONTINUOUS
 90
4
 70
0
 10
-22.474951032
 20
20.5936414928
 10
-22.4753985358
 20
20.5848579606
 10
-22.475485407
 20
20.5760246922
 10
-22.4723665407
 20
20.4039842723
  0
LINE
  5
28D
100
AcDbEntity
  8
CURVE
100
AcDbLine
 62
252
  6
CONTINUOUS
 10
-14.0093003398
 20
7.6852319238
 11
-14.0258082516
 21
7.6975684357
  0
LINE
  5
28E
100
AcDbEntity
  8
CURVE
100
AcDbLine
 62
252
  6
CONTINUOUS
 10
-13.9934919123
 20
7.6725253083
 11
-14.009754846
 21
7.6855821085
  0
LINE
  5
28F
100
AcDbEntity
  8
CURVE
100
AcDbLine
 62
252
  6
CONTINUOUS
 10
-13.9779774131
 20
7.6591636385
 11
-13.993967688
 21
7.6729178552
  0
LINE
  5
290
100
AcDbEntity
  8
CURVE
100
AcDbLine
 62
252
  6
CONTINUOUS
 10
-13.9627647272
 20
7.6451598223
 11
-13.9784604076
 21
7.6595911726
  0
LINE
  5
291
100
AcDbEntity
  8
CURVE
100
AcDbLine
 62
252
  6
CONTINUOUS
 10
-13.9478628747
 20
7.6305254666
 11
-13.963246635
 21
7.6456175576
  0
LINE
  5
292
100
AcDbEntity
  8
CURVE
100
AcDbLine
 62
252
  6
CONTINUOUS
 10
-13.9332854177
 20
7.615266974
 11
-13.9483401724
 21
7.6310106682
  0
LINE
  5
293
100
AcDbEntity
  8
CURVE
100
AcDbLine
 62
252
  6
CONTINUOUS
 10
-13.9190470533
 20
7.5993894463
 11
-13.9337555095
 21
7.6157768062
  0
LINE
  5
294
100
AcDbEntity
  8
CURVE
100
AcDbLine
 62
252
  6
CONTINUOUS
 10
-14.5273448909
 20
6.7361094451
 11
-14.5414960909
 21
6.7561263867
  0
LWPOLYLINE
  5
295
100
AcDbEntity
  8
RACCORDO
100
AcDbPolyline
 62
253
  6
CONTINUOUS
 90
31
 70
0
 10
-22.4871102937
 20
21.2634540101
 10
-22.4863524921
 20
21.2602410313
 10
-22.4849625809
 20
21.2568774557
 10
-22.4829805249
 20
21.2535308586
 10
-22.4804075785
 20
21.2502037407
 10
-22.4772458746
 20
21.2468985614
 10
-22.4734977623
 20
21.2436177613
 10
-22.4691657883
 20
21.2403637853
 10
-22.4642533835
 20
21.2371390461
 10
-22.4587642226
 20
21.2339459364
 10
-22.4527021559
 20
21.2307868445
 10
-22.4460718804
 20
21.2276641043
 10
-22.4388783503
 20
21.2245800262
 10
-22.4311266662
 20
21.221536914
 10
-22.4228227751
 20
21.2185370201
 10
-22.4139729215
 20
21.2155825759
 10
-22.4045834838
 20
21.2126758032
 10
-22.3946615884
 20
21.2098188392
 10
-22.3842146284
 20
21.207013786
 10
-22.373250133
 20
21.2042627467
 10
-22.3617763832
 20
21.2015677509
 10
-22.3498019313
 20
21.1989307867
 10
-22.3373354103
 20
21.1963538291
 10
-22.3243863121
 20
21.1938387924
 10
-22.3109645488
 20
21.1913875662
 10
-22.2970800873
 20
21.1890020241
 10
-22.2827429793
 20
21.1866838686
 10
-22.267963285
 20
21.184434721
 10
-22.2527514133
 20
21.1822562365
 10
-22.2371197941
 20
21.180150146
 10
-15.7868002946
 20
20.387792423
  0
LWPOLYLINE
  5
296
100
AcDbEntity
  8
ASSI
100
AcDbPolyline
 62
253
  6
CONTINUOUS
 90
31
 70
0
 10
-22.4871102937
 20
21.2634540101
 10
-22.4863524921
 20
21.2602410313
 10
-22.4849625809
 20
21.2568774557
 10
-22.4829805249
 20
21.2535308586
 10
-22.4804075785
 20
21.2502037407
 10
-22.4772458746
 20
21.2468985614
 10
-22.4734977623
 20
21.2436177613
 10
-22.4691657883
 20
21.2403637853
 10
-22.4642533835
 20
21.2371390461
 10
-22.4587642226
 20
21.2339459364
 10
-22.4527021559
 20
21.2307868445
 10
-22.4460718804
 20
21.2276641043
 10
-22.4388783503
 20
21.2245800262
 10
-22.4311266662
 20
21.221536914
 10
-22.4228227751
 20
21.2185370201
 10
-22.4139729215
 20
21.2155825759
 10
-22.4045834838
 20
21.2126758032
 10
-22.3946615884
 20
21.2098188392
 10
-22.3842146284
 20
21.207013786
 10
-22.373250133
 20
21.2042627467
 10
-22.3617763832
 20
21.2015677509
 10
-22.3498019313
 20
21.1989307867
 10
-22.3373354103
 20
21.1963538291
 10
-22.3243863121
 20
21.1938387924
 10
-22.3109645488
 20
21.1913875662
 10
-22.2970800873
 20
21.1890020241
 10
-22.2827429793
 20
21.1866838686
 10
-22.267963285
 20
21.184434721
 10
-22.2527514133
 20
21.1822562365
 10
-22.2371197941
 20
21.180150146
 10
-15.7868002946
 20
20.387792423
  0
LWPOLYLINE
  5
297
100
AcDbEntity
  8
RACCORDO
100
AcDbPolyline
 62
7
  6
CONTINUOUS
 90
51
 70
0
 10
-22.4849470207
 20
21.2374122898
 10
-22.4834308273
 20
21.2286587861
 10
-22.4815649929
 20
21.2200185263
 10
-22.4793583026
 20
21.2115036732
 10
-22.4768200904
 20
21.2031262751
 10
-22.4739541917
 20
21.194881701
 10
-22.4707676395
 20
21.1867784594
 10
-22.4672695592
 20
21.1788292367
 10
-22.4634642117
 20
21.1710351716
 10
-22.459356255
 20
21.1634000827
 10
-22.4549561103
 20
21.1559380631
 10
-22.4502762633
 20
21.148663734
 10
-22.4453231925
 20
21.1415805676
 10
-22.4401070253
 20
21.1346968873
 10
-22.4346470159
 20
21.1280303984
 10
-22.4289479525
 20
21.1215787672
 10
-22.4230215714
 20
21.115347687
 10
-22.4168994517
 20
21.1093602025
 10
-22.4105826328
 20
21.1036061162
 10
-22.4040848452
 20
21.0980875528
 10
-22.397460146
 20
21.0928360924
 10
-22.3907202009
 20
21.0878434749
 10
-22.3838666321
 20
21.0830946949
 10
-22.3769416025
 20
21.0786017796
 10
-22.3699568322
 20
21.0743536525
 10
-22.3629070367
 20
21.070329955
 10
-22.3558100821
 20
21.0665246902
 10
-22.3486741982
 20
21.0629261392
 10
-22.3414896172
 20
21.0595146358
 10
-22.3342480148
 20
21.0562734092
 10
-22.3269539903
 20
21.0531927918
 10
-22.3195951234
 20
21.0502569008
 10
-22.312138038
 20
21.0474439241
 10
-22.3045773371
 20
21.0447449976
 10
-22.2969052596
 20
21.0421512419
 10
-22.2890850101
 20
21.0396455908
 10
-22.2811063822
 20
21.0372214504
 10
-22.2729634027
 20
21.0348740579
 10
-22.2646265819
 20
21.0325928061
 10
-22.2560860097
 20
21.0303737219
 10
-22.2473347985
 20
21.0282140044
 10
-22.2383498551
 20
21.0261073856
 10
-22.2291254628
 20
21.0240524211
 10
-22.2196517242
 20
21.0220470084
 10
-22.2099007741
 20
21.020085834
 10
-22.1998637169
 20
21.0181681075
 10
-22.1895344655
 20
21.0162938005
 10
-22.1788903427
 20
21.0144602527
 10
-22.1679229767
 20
21.0126677279
 10
-22.1566267093
 20
21.0109170682
 10
-22.1449838812
 20
21.0092075252
  0
LINE
  5
298
100
AcDbEntity
  8
CURVE
100
AcDbLine
 62
252
  6
CONTINUOUS
 10
-13.905162479
 20
7.582897985
 11
-13.9195073083
 21
7.5999204346
  0
LINE
  5
299
100
AcDbEntity
  8
CURVE
100
AcDbLine
 62
252
  6
CONTINUOUS
 10
-13.8897483181
 20
7.5633132762
 11
-13.9056102306
 21
7.5834460164
  0
LINE
  5
29A
100
AcDbEntity
  8
CURVE
100
AcDbLine
 62
252
  6
CONTINUOUS
 10
-13.8748485342
 20
7.5429882935
 11
-13.8901786844
 21
7.5638754992
  0
LINE
  5
29B
100
AcDbEntity
  8
CURVE
100
AcDbLine
 62
252
  6
CONTINUOUS
 10
-13.8604962146
 20
7.5219779721
 11
-13.8752592223
 21
7.5435609642
  0
LINE
  5
29C
100
AcDbEntity
  8
CURVE
100
AcDbLine
 62
252
  6
CONTINUOUS
 10
-13.8467244469
 20
7.5003372474
 11
-13.8608861677
 21
7.5225598091
  0
LWPOLYLINE
  5
29D
100
AcDbEntity
  8
CURVE
100
AcDbPolyline
 62
252
  6
CONTINUOUS
 90
3
 70
0
 10
-14.555126765
 20
6.7767538552
 10
-14.5682139947
 20
6.7979531737
 10
-14.5807348618
 20
6.8196856657
  0
LINE
  5
29E
100
AcDbEntity
  8
CURVE
100
AcDbLine
 62
252
  6
CONTINUOUS
 10
-13.8335663185
 20
7.4781210545
 11
-13.8470938444
 21
7.5009294317
  0
LINE
  5
29F
100
AcDbEntity
  8
CURVE
100
AcDbLine
 62
252
  6
CONTINUOUS
 10
-14.5926669931
 20
6.8419146453
 11
-14.6039901962
 21
6.8646113899
  0
LINE
  5
2A0
100
AcDbEntity
  8
CURVE
100
AcDbLine
 62
252
  6
CONTINUOUS
 10
-13.8210549167
 20
7.4553843288
 11
-13.8339165758
 21
7.4787272295
  0
LINE
  5
2A1
100
AcDbEntity
  8
CURVE
100
AcDbLine
 62
252
  6
CONTINUOUS
 10
-13.8092233291
 20
7.4321820055
 11
-13.8213886856
 21
7.4560106003
  0
LINE
  5
2A2
100
AcDbEntity
  8
CURVE
100
AcDbLine
 62
252
  6
CONTINUOUS
 10
-13.7994507645
 20
7.4115387706
 11
-13.8095444975
 21
7.4328369417
  0
LINE
  5
2A3
100
AcDbEntity
  8
CURVE
100
AcDbLine
 62
252
  6
CONTINUOUS
 10
-13.7902246018
 20
7.3906032067
 11
-13.799764686
 21
7.4122272266
  0
LINE
  5
2A4
100
AcDbEntity
  8
CURVE
100
AcDbLine
 62
252
  6
CONTINUOUS
 10
-14.614684824
 20
6.8877491677
 11
-14.6247312292
 21
6.9113012469
  0
LINE
  5
2A5
100
AcDbEntity
  8
CURVE
100
AcDbLine
 62
252
  6
CONTINUOUS
 10
-13.7815454279
 20
7.3693973982
 11
-13.7905337331
 21
7.3913321203
  0
LWPOLYLINE
  5
2A6
100
AcDbEntity
  8
ASSI
100
AcDbPolyline
 62
253
  6
CONTINUOUS
 90
10
 70
0
 10
-22.2675131544
 20
20.794180909
 10
-22.2641269528
 20
20.7967305997
 10
-22.2603054287
 20
20.7992722562
 10
-22.2560495574
 20
20.8018058925
 10
-22.2513688295
 20
20.8043258615
 10
-22.246262312
 20
20.806832126
 10
-22.2407309379
 20
20.8093247232
 10
-22.2347869964
 20
20.8117981175
 10
-22.2284295651
 20
20.8142522695
 10
-22.2216595663
 20
20.8166872185
  0
LWPOLYLINE
  5
2A7
100
AcDbEntity
  8
ASSI
100
AcDbPolyline
 62
253
  6
CONTINUOUS
 90
16
 70
0
 10
-22.2652486341
 20
20.7562531147
 10
-22.2684973993
 20
20.7586959279
 10
-22.2713075969
 20
20.761158992
 10
-22.2736802038
 20
20.7636422649
 10
-22.2756099445
 20
20.7661402266
 10
-22.2770958354
 20
20.7686529146
 10
-22.2781388602
 20
20.7711802915
 10
-22.2787366949
 20
20.7737167253
 10
-22.2788883469
 20
20.7762622312
 10
-22.2785948088
 20
20.778816794
 10
-22.2778567347
 20
20.7813747357
 10
-22.2766731349
 20
20.7839360669
 10
-22.2750449991
 20
20.786500777
 10
-22.2729759506
 20
20.7890631564
 10
-22.2704650089
 20
20.7916231981
 10
-22.2675131544
 20
20.794180909
  0
LINE
  5
2A8
100
AcDbEntity
  8
CURVE
100
AcDbLine
 62
252
  6
CONTINUOUS
 10
-13.7734138293
 20
7.3479434296
 11
-13.7818507591
 21
7.3701721996
  0
LINE
  5
2A9
100
AcDbEntity
  8
CURVE
100
AcDbLine
 62
252
  6
CONTINUOUS
 10
-13.7658319528
 20
7.3262689955
 11
-13.7737148843
 21
7.3487680414
  0
LINE
  5
2AA
100
AcDbEntity
  8
CURVE
100
AcDbLine
 62
252
  6
CONTINUOUS
 10
-13.758808185
 20
7.304424232
 11
-13.7661270044
 21
7.3271459105
  0
LINE
  5
2AB
100
AcDbEntity
  8
CURVE
100
AcDbLine
 62
252
  6
CONTINUOUS
 10
-13.7523524725
 20
7.2824648852
 11
-13.7590951174
 21
7.3053548231
  0
LINE
  5
2AC
100
AcDbEntity
  8
CURVE
100
AcDbLine
 62
252
  6
CONTINUOUS
 10
-13.7464747616
 20
7.2604467014
 11
-13.7526289967
 21
7.2834494837
  0
LWPOLYLINE
  5
2AD
100
AcDbEntity
  8
CURVE
100
AcDbPolyline
 62
252
  6
CONTINUOUS
 90
28
 70
0
 10
-14.6895777011
 20
7.2117985347
 10
-14.6885998524
 20
7.1909351063
 10
-14.6871285113
 20
7.170278242
 10
-14.6851683204
 20
7.149788728
 10
-14.6827239219
 20
7.1294273505
 10
-14.6797999585
 20
7.1091548958
 10
-14.6754764117
 20
7.08389556
 10
-14.6704122056
 20
7.0587328541
 10
-14.6646087474
 20
7.0336857376
 10
-14.6580674441
 20
7.0087731703
 10
-14.650792309
 20
6.9840207222
 10
-14.6427977787
 20
6.959480405
 10
-14.634100896
 20
6.935210841
 10
-14.6247187034
 20
6.9112706521
 10
-14.6146687617
 20
6.8877132479
 10
-14.6039707035
 20
6.864571186
 10
-14.5926446792
 20
6.8418718114
 10
-14.5807108395
 20
6.8196424693
 10
-14.5681897477
 20
6.7979122594
 10
-14.5551036177
 20
6.7767173019
 10
-14.5414750764
 20
6.7560954718
 10
-14.5273267503
 20
6.7360846442
 10
-14.5126814851
 20
6.7167216426
 10
-14.4975630025
 20
6.6980390857
 10
-14.4819952432
 20
6.6800685405
 10
-14.4660021476
 20
6.6628415742
 10
-14.4496079345
 20
6.646387701
 10
-14.4328379347
 20
6.6307282242
  0
LWPOLYLINE
  5
2AE
100
AcDbEntity
  8
RACCORDO
100
AcDbPolyline
 62
253
  6
CONTINUOUS
 90
35
 70
0
 10
-15.7868002946
 20
20.387792423
 10
-15.786561774
 20
20.3798618774
 10
-15.7861072888
 20
20.3719826421
 10
-15.785437376
 20
20.3641675488
 10
-15.7845528208
 20
20.3564285515
 10
-15.7834549196
 20
20.3487791059
 10
-15.7821456966
 20
20.3412340478
 10
-15.7806274581
 20
20.3338064489
 10
-15.7789025376
 20
20.3265075368
 10
-15.7769736932
 20
20.3193490144
 10
-15.7748440124
 20
20.3123424185
 10
-15.7725169693
 20
20.305499249
 10
-15.7699963905
 20
20.2988307825
 10
-15.7672863959
 20
20.2923479079
 10
-15.7643913679
 20
20.2860610991
 10
-15.7613159999
 20
20.2799805494
 10
-15.758065281
 20
20.2741161289
 10
-15.7546444965
 20
20.2684773783
 10
-15.7510592106
 20
20.2630734716
 10
-15.7473152508
 20
20.2579131926
 10
-15.7434186973
 20
20.2530049212
 10
-15.7393758796
 20
20.2483566317
 10
-15.7351933654
 20
20.2439758759
 10
-15.7308779502
 20
20.2398697726
 10
-15.7264366466
 20
20.2360449945
 10
-15.7218766705
 20
20.2325077565
 10
-15.7172054303
 20
20.2292638055
 10
-15.7124305158
 20
20.2263184126
 10
-15.7075596848
 20
20.2236763634
 10
-15.7026008511
 20
20.2213419507
 10
-15.6975620719
 20
20.2193189676
 10
-15.6924515336
 20
20.2176107009
 10
-15.6872775395
 20
20.2162199262
 10
-15.6820484975
 20
20.2151489034
 10
-15.6777781087
 20
20.2145169386
  0
LWPOLYLINE
  5
2AF
100
AcDbEntity
  8
ASSI
100
AcDbPolyline
 62
253
  6
CONTINUOUS
 90
35
 70
0
 10
-15.7868002946
 20
20.387792423
 10
-15.786561774
 20
20.3798618774
 10
-15.7861072888
 20
20.3719826421
 10
-15.785437376
 20
20.3641675488
 10
-15.7845528208
 20
20.3564285515
 10
-15.7834549196
 20
20.3487791059
 10
-15.7821456966
 20
20.3412340478
 10
-15.7806274581
 20
20.3338064489
 10
-15.7789025376
 20
20.3265075368
 10
-15.7769736932
 20
20.3193490144
 10
-15.7748440124
 20
20.3123424185
 10
-15.7725169693
 20
20.305499249
 10
-15.7699963905
 20
20.2988307825
 10
-15.7672863959
 20
20.2923479079
 10
-15.7643913679
 20
20.2860610991
 10
-15.7613159999
 20
20.2799805494
 10
-15.758065281
 20
20.2741161289
 10
-15.7546444965
 20
20.2684773783
 10
-15.7510592106
 20
20.2630734716
 10
-15.7473152508
 20
20.2579131926
 10
-15.7434186973
 20
20.2530049212
 10
-15.7393758796
 20
20.2483566317
 10
-15.7351933654
 20
20.2439758759
 10
-15.7308779502
 20
20.2398697726
 10
-15.7264366466
 20
20.2360449945
 10
-15.7218766705
 20
20.2325077565
 10
-15.7172054303
 20
20.2292638055
 10
-15.7124305158
 20
20.2263184126
 10
-15.7075596848
 20
20.2236763634
 10
-15.7026008511
 20
20.2213419507
 10
-15.6975620719
 20
20.2193189676
 10
-15.6924515336
 20
20.2176107009
 10
-15.6872775395
 20
20.2162199262
 10
-15.6820484975
 20
20.2151489034
 10
-15.6777779002
 20
20.2145169129
  0
LWPOLYLINE
  5
2B0
100
AcDbEntity
  8
RACCORDO
100
AcDbPolyline
 62
253
  6
CONTINUOUS
 90
40
 70
0
 10
-15.7749044154
 20
19.695987767
 10
-15.7749392118
 20
19.7039669387
 10
-15.774757259
 20
19.7119748864
 10
-15.7743588526
 20
19.7199986018
 10
-15.7737446399
 20
19.7280250511
 10
-15.7729156185
 20
19.736041196
 10
-15.7718731351
 20
19.744034015
 10
-15.7706188831
 20
19.7519905243
 10
-15.7691549
 20
19.7598977993
 10
-15.7674835639
 20
19.7677429953
 10
-15.7656075897
 20
19.7755133685
 10
-15.7635300248
 20
19.7831962965
 10
-15.761254244
 20
19.7907792991
 10
-15.7587839441
 20
19.7982500583
 10
-15.756123138
 20
19.8055964385
 10
-15.7532761478
 20
19.8128065061
 10
-15.7502475983
 20
19.8198685491
 10
-15.7470424091
 20
19.8267710956
 10
-15.7436657867
 20
19.8335029331
 10
-15.7401232162
 20
19.8400531264
 10
-15.7364204522
 20
19.8464110351
 10
-15.7325635095
 20
19.8525663314
 10
-15.7285586535
 20
19.8585090165
 10
-15.7244123895
 20
19.8642294371
 10
-15.720131453
 20
19.8697183008
 10
-15.7157227978
 20
19.8749666914
 10
-15.7111935856
 20
19.8799660833
 10
-15.7065511736
 20
19.8847083555
 10
-15.701803103
 20
19.8891858045
 10
-15.6969570867
 20
19.8933911571
 10
-15.6920209966
 20
19.8973175821
 10
-15.687002851
 20
19.9009587013
 10
-15.6819108014
 20
19.9043086
 10
-15.6767531194
 20
19.9073618366
 10
-15.6715381833
 20
19.9101134514
 10
-15.6662744643
 20
19.9125589745
 10
-15.6609705126
 20
19.9146944337
 10
-15.655634944
 20
19.9165163598
 10
-15.6502764258
 20
19.9180217934
 10
-15.6449036623
 20
19.919208289
  0
LWPOLYLINE
  5
2B1
100
AcDbEntity
  8
ASSI
100
AcDbPolyline
 62
253
  6
CONTINUOUS
 90
40
 70
0
 10
-15.7749044154
 20
19.695987767
 10
-15.7749392118
 20
19.7039669387
 10
-15.774757259
 20
19.7119748864
 10
-15.7743588526
 20
19.7199986018
 10
-15.7737446399
 20
19.7280250511
 10
-15.7729156185
 20
19.736041196
 10
-15.7718731351
 20
19.744034015
 10
-15.7706188831
 20
19.7519905243
 10
-15.7691549
 20
19.7598977993
 10
-15.7674835639
 20
19.7677429953
 10
-15.7656075897
 20
19.7755133685
 10
-15.7635300248
 20
19.7831962965
 10
-15.761254244
 20
19.7907792991
 10
-15.7587839441
 20
19.7982500583
 10
-15.756123138
 20
19.8055964385
 10
-15.7532761478
 20
19.8128065061
 10
-15.7502475983
 20
19.8198685491
 10
-15.7470424091
 20
19.8267710956
 10
-15.7436657867
 20
19.8335029331
 10
-15.7401232162
 20
19.8400531264
 10
-15.7364204522
 20
19.8464110351
 10
-15.7325635095
 20
19.8525663314
 10
-15.7285586535
 20
19.8585090165
 10
-15.7244123895
 20
19.8642294371
 10
-15.720131453
 20
19.8697183008
 10
-15.7157227978
 20
19.8749666914
 10
-15.7111935856
 20
19.8799660833
 10
-15.7065511736
 20
19.8847083555
 10
-15.701803103
 20
19.8891858045
 10
-15.6969570867
 20
19.8933911571
 10
-15.6920209966
 20
19.8973175821
 10
-15.687002851
 20
19.9009587013
 10
-15.6819108014
 20
19.9043086
 10
-15.6767531194
 20
19.9073618366
 10
-15.6715381833
 20
19.9101134514
 10
-15.6662744643
 20
19.9125589745
 10
-15.6609705126
 20
19.9146944337
 10
-15.655634944
 20
19.9165163598
 10
-15.6502764258
 20
19.9180217934
 10
-15.6449036623
 20
19.919208289
  0
LWPOLYLINE
  5
2B2
100
AcDbEntity
  8
CURVE
100
AcDbPolyline
 62
252
  6
CONTINUOUS
 90
89
 70
0
 10
-15.4032004227
 20
32.8665426933
 10
-15.4023925106
 20
32.8996279385
 10
-15.4007807038
 20
32.9322287129
 10
-15.3983776664
 20
32.9644289667
 10
-15.3951960626
 20
32.9963126503
 10
-15.3912451819
 20
33.0279450902
 10
-15.3865208148
 20
33.0593171173
 10
-15.3810153774
 20
33.0904009386
 10
-15.3747212856
 20
33.1211687611
 10
-15.3676347583
 20
33.1515903336
 10
-15.359767227
 20
33.1816255726
 10
-15.3511339259
 20
33.2112319367
 10
-15.3417500894
 20
33.2403668841
 10
-15.3316305394
 20
33.2689905597
 10
-15.3207884472
 20
33.2970738542
 10
-15.3092365714
 20
33.3245903446
 10
-15.2969876709
 20
33.3515136078
 10
-15.2821526799
 20
33.3815229527
 10
-15.266448311
 20
33.410684699
 10
-15.2498989217
 20
33.438960587
 10
-15.2325288694
 20
33.466312357
 10
-15.2143625114
 20
33.4927017493
 10
-15.1954242052
 20
33.518090504
 10
-15.1757383082
 20
33.5424403616
 10
-15.1553304837
 20
33.5657149337
 10
-15.1342316184
 20
33.5878853187
 10
-15.1124739048
 20
33.608924486
 10
-15.0900895358
 20
33.6288054054
 10
-15.0671107037
 20
33.6475010465
 10
-15.0435696013
 20
33.664984379
 10
-15.0194984211
 20
33.6812283726
 10
-14.9949290654
 20
33.6962073696
 10
-14.9698922741
 20
33.7099012028
 10
-14.944418497
 20
33.7222910777
 10
-14.9185381838
 20
33.7333581998
 10
-14.8922817841
 20
33.7430837746
 10
-14.8656797476
 20
33.7514490075
 10
-14.8387625239
 20
33.7584351041
 10
-14.8115628368
 20
33.7640266643
 10
-14.7841225071
 20
33.7682218656
 10
-14.7564856294
 20
33.77102228
 10
-14.7286962985
 20
33.7724294796
 10
-14.7007986091
 20
33.7724450363
 10
-14.6728366561
 20
33.7710705222
 10
-14.6448545341
 20
33.7683075092
 10
-14.6168959248
 20
33.7641587257
 10
-14.5890028562
 20
33.7586315257
 10
-14.5612169434
 20
33.7517344193
 10
-14.5335798014
 20
33.7434759169
 10
-14.5061330451
 20
33.7338645288
 10
-14.4789182894
 20
33.7229087652
 10
-14.4519771494
 20
33.7106171365
 10
-14.4253496083
 20
33.6970012962
 10
-14.3990691232
 20
33.6820854719
 10
-14.3731675196
 20
33.6658970345
 10
-14.3476766228
 20
33.6484633547
 10
-14.3226282582
 20
33.6298118035
 10
-14.2980542514
 20
33.6099697519
 10
-14.2739864277
 20
33.5889645705
 10
-14.2504563099
 20
33.5668248934
 10
-14.2274942109
 20
33.5435844064
 10
-14.2051301409
 20
33.5192780587
 10
-14.1833941101
 20
33.4939407991
 10
-14.1623161288
 20
33.4676075766
 10
-14.141926207
 20
33.4403133403
 10
-14.1222543552
 20
33.412093039
 10
-14.10332934
 20
33.3829830169
 10
-14.0851749541
 20
33.3530251978
 10
-14.067813747
 20
33.3222629009
 10
-14.0512682679
 20
33.2907394451
 10
-14.0355610661
 20
33.2584981494
 10
-14.020714691
 20
33.2255823329
 10
-14.0067516918
 20
33.1920353146
 10
-13.9952759464
 20
33.1621981397
 10
-13.9845059532
 20
33.1319410534
 10
-13.9744538654
 20
33.101294242
 10
-13.9651318363
 20
33.0702878919
 10
-13.9565523166
 20
33.0389550072
 10
-13.948728947
 20
33.0073398629
 10
-13.9416756657
 20
32.975489552
 10
-13.9354064109
 20
32.9434511674
 10
-13.9299313266
 20
32.9112682132
 10
-13.92524538
 20
32.8789698394
 10
-13.9213397443
 20
32.8465816069
 10
-13.9182055925
 20
32.8141290771
 10
-13.915837924
 20
32.7816200312
 10
-13.9142470445
 20
32.7489911308
 10
-13.9134470859
 20
32.7161612578
 10
-13.9134521801
 20
32.6830492939
  0
LWPOLYLINE
  5
2B3
100
AcDbEntity
  8
RACCORDO
100
AcDbPolyline
 62
253
  6
CONTINUOUS
 90
115
 70
0
 10
-15.7867999625
 20
20.3877923822
 10
-15.7808857151
 20
20.4234987399
 10
-15.7743235401
 20
20.4588713041
 10
-15.7671135009
 20
20.4939100624
 10
-15.7592508501
 20
20.5286342949
 10
-15.7507404573
 20
20.5630246974
 10
-15.7415968246
 20
20.5970233782
 10
-15.7318189694
 20
20.6306296734
 10
-15.7214080256
 20
20.6638442176
 10
-15.7103816977
 20
20.6966110618
 10
-15.6987390407
 20
20.7289294178
 10
-15.6864811735
 20
20.7608000403
 10
-15.6736289213
 20
20.7921692899
 10
-15.6601813871
 20
20.8230362874
 10
-15.6461396608
 20
20.8534018752
 10
-15.6315275707
 20
20.8832149909
 10
-15.6163442583
 20
20.9124746883
 10
-15.60059079
 20
20.9411818742
 10
-15.5842939022
 20
20.9692882629
 10
-15.5674528093
 20
20.9967927913
 10
-15.5500685159
 20
21.0236964811
 10
-15.5321704603
 20
21.0499541703
 10
-15.5137578833
 20
21.0755647633
 10
-15.4948317696
 20
21.1005293133
 10
-15.475424189
 20
21.1248058788
 10
-15.4555344722
 20
21.148393251
 10
-15.4351635159
 20
21.1712925962
 10
-15.4143457512
 20
21.1934655329
 10
-15.3930805327
 20
21.2149108291
 10
-15.3713687306
 20
21.2356296749
 10
-15.3492470578
 20
21.2555873207
 10
-15.3267149588
 20
21.2747824485
 10
-15.3037732069
 20
21.2932163358
 10
-15.2804605149
 20
21.3108581256
 10
-15.2567763652
 20
21.3277064712
 10
-15.2327214816
 20
21.3437626811
 10
-15.2083364434
 20
21.3589998801
 10
-15.1836208053
 20
21.3734166705
 10
-15.1585752032
 20
21.3870144149
 10
-15.1332418393
 20
21.3997703785
 10
-15.10762033
 20
21.4116831309
 10
-15.08171123
 20
21.422754071
 10
-15.0555581479
 20
21.4329647073
 10
-15.0291607493
 20
21.4423135865
 10
-15.0025195166
 20
21.4508021347
 10
-14.9756792798
 20
21.45841618
 10
-14.9486397874
 20
21.4651542439
 10
-14.9214014132
 20
21.4710177824
 10
-14.8940099196
 20
21.4759970263
 10
-14.8664650906
 20
21.4800904903
 10
-14.8387672361
 20
21.4832996425
 10
-14.8109629022
 20
21.4856191451
 10
-14.7830519618
 20
21.4870475045
 10
-14.7550346056
 20
21.4875862026
 10
-14.7269578496
 20
21.4872343669
 10
-14.6988216039
 20
21.4859905067
 10
-14.6706259906
 20
21.4838561069
 10
-14.6424183354
 20
21.4808347593
 10
-14.6141986277
 20
21.4769249828
 10
-14.5859668781
 20
21.4721282585
 10
-14.5577704362
 20
21.4664526235
 10
-14.5296093443
 20
21.4598966122
 10
-14.501483528
 20
21.4524616961
 10
-14.4734401544
 20
21.4441603197
 10
-14.445479327
 20
21.4349910387
 10
-14.4176008786
 20
21.4249553089
 10
-14.3898515635
 20
21.4140699262
 10
-14.3622315558
 20
21.4023334798
 10
-14.3347405875
 20
21.3897473975
 10
-14.3074247436
 20
21.3763327337
 10
-14.2802842451
 20
21.3620881065
 10
-14.2533187487
 20
21.3470149202
 10
-14.2265734878
 20
21.3311384092
 10
-14.200048763
 20
21.3144572442
 10
-14.1737441255
 20
21.2969727817
 10
-14.1477036815
 20
21.2787142856
 10
-14.1219277773
 20
21.2596804652
 10
-14.0964158956
 20
21.2398726428
 10
-14.0712108458
 20
21.219324002
 10
-14.0463130476
 20
21.1980333155
 10
-14.0217218908
 20
21.1760018457
 10
-13.9974786404
 20
21.1532665112
 10
-13.9735837734
 20
21.1298261429
 10
-13.9500366065
 20
21.1056819479
 10
-13.9268766687
 20
21.0808744083
 10
-13.9041044947
 20
21.0554024176
 10
-13.881719332
 20
21.0292671228
 10
-13.8597587851
 20
21.0025123857
 10
-13.8382234599
 20
20.9751371862
 10
-13.8171125256
 20
20.9471425864
 10
-13.7964614409
 20
20.91857557
 10
-13.7762708549
 20
20.889435172
 10
-13.756539891
 20
20.8597224001
 10
-13.7373017316
 20
20.8294871945
 10
-13.718557103
 20
20.7987287023
 10
-13.7003050533
 20
20.7674478188
 10
-13.6825762631
 20
20.7356971035
 10
-13.6653714961
 20
20.703475759
 10
-13.6486897696
 20
20.6707846241
 10
-13.632559162
 20
20.6376787095
 10
-13.6169805067
 20
20.6041573388
 10
-13.6019527623
 20
20.5702212279
 10
-13.5875012147
 20
20.5359274728
 10
-13.5736267388
 20
20.5012754711
 10
-13.5603282667
 20
20.466265862
 10
-13.547628193
 20
20.4309575992
 10
-13.5355274451
 20
20.3953501859
 10
-13.5240249217
 20
20.3594441524
 10
-13.5131399986
 20
20.3232999889
 10
-13.5028736461
 20
20.2869173087
 10
-13.4932247427
 20
20.2502965278
 10
-13.484209554
 20
20.2134993358
 10
-13.4758334664
 20
20.1765463027
 10
-13.4680909713
 20
20.1394168825
 10
-13.4609820054
 20
20.1021110877
  0
LWPOLYLINE
  5
2B4
100
AcDbEntity
  8
ASSI
100
AcDbPolyline
 62
253
  6
CONTINUOUS
 90
113
 70
0
 10
-15.7867999625
 20
20.3877923822
 10
-15.7808857151
 20
20.4234987399
 10
-15.7743235401
 20
20.4588713041
 10
-15.7671135009
 20
20.4939100624
 10
-15.7592508501
 20
20.5286342949
 10
-15.7507404573
 20
20.5630246974
 10
-15.7415968246
 20
20.5970233782
 10
-15.7318189694
 20
20.6306296734
 10
-15.7214080256
 20
20.6638442176
 10
-15.7103816977
 20
20.6966110618
 10
-15.6987390407
 20
20.7289294178
 10
-15.6864811735
 20
20.7608000403
 10
-15.6736289213
 20
20.7921692899
 10
-15.6601813871
 20
20.8230362874
 10
-15.6461396608
 20
20.8534018752
 10
-15.6315275707
 20
20.8832149909
 10
-15.6163442583
 20
20.9124746883
 10
-15.60059079
 20
20.9411818742
 10
-15.5842939022
 20
20.9692882629
 10
-15.5674528093
 20
20.9967927913
 10
-15.5500685159
 20
21.0236964811
 10
-15.5321704603
 20
21.0499541703
 10
-15.5137578833
 20
21.0755647633
 10
-15.4948317696
 20
21.1005293133
 10
-15.475424189
 20
21.1248058788
 10
-15.4555344722
 20
21.148393251
 10
-15.4351635159
 20
21.1712925962
 10
-15.4143457512
 20
21.1934655329
 10
-15.3930805327
 20
21.2149108291
 10
-15.3713687306
 20
21.2356296749
 10
-15.3492470578
 20
21.2555873207
 10
-15.3267149588
 20
21.2747824485
 10
-15.3037732069
 20
21.2932163358
 10
-15.2804605149
 20
21.3108581256
 10
-15.2567763652
 20
21.3277064712
 10
-15.2327214816
 20
21.3437626811
 10
-15.2083364434
 20
21.3589998801
 10
-15.1836208053
 20
21.3734166705
 10
-15.1585752032
 20
21.3870144149
 10
-15.1332418393
 20
21.3997703785
 10
-15.10762033
 20
21.4116831309
 10
-15.08171123
 20
21.422754071
 10
-15.0555581479
 20
21.4329647073
 10
-15.0291607493
 20
21.4423135865
 10
-15.0025195166
 20
21.4508021347
 10
-14.9756792798
 20
21.45841618
 10
-14.9486397874
 20
21.4651542439
 10
-14.9214014132
 20
21.4710177824
 10
-14.8940099196
 20
21.4759970263
 10
-14.8664650906
 20
21.4800904903
 10
-14.8387672361
 20
21.4832996425
 10
-14.8109629022
 20
21.4856191451
 10
-14.7830519618
 20
21.4870475045
 10
-14.7550346056
 20
21.4875862026
 10
-14.7269578496
 20
21.4872343669
 10
-14.6988216039
 20
21.4859905067
 10
-14.6706259906
 20
21.4838561069
 10
-14.6424183354
 20
21.4808347593
 10
-14.6141986277
 20
21.4769249828
 10
-14.5859668781
 20
21.4721282585
 10
-14.5577704362
 20
21.4664526235
 10
-14.5296093443
 20
21.4598966122
 10
-14.501483528
 20
21.4524616961
 10
-14.4734401544
 20
21.4441603197
 10
-14.445479327
 20
21.4349910387
 10
-14.4176008786
 20
21.4249553089
 10
-14.3898515635
 20
21.4140699262
 10
-14.3622315558
 20
21.4023334798
 10
-14.3347405875
 20
21.3897473975
 10
-14.3074247436
 20
21.3763327337
 10
-14.2802842451
 20
21.3620881065
 10
-14.2533187487
 20
21.3470149202
 10
-14.2265734878
 20
21.3311384092
 10
-14.200048763
 20
21.3144572442
 10
-14.1737441255
 20
21.2969727817
 10
-14.1477036815
 20
21.2787142856
 10
-14.1219277773
 20
21.2596804652
 10
-14.0964158956
 20
21.2398726428
 10
-14.0712108458
 20
21.219324002
 10
-14.0463130476
 20
21.1980333155
 10
-14.0217218908
 20
21.1760018457
 10
-13.9974786404
 20
21.1532665112
 10
-13.9735837734
 20
21.1298261429
 10
-13.9500366065
 20
21.1056819479
 10
-13.9268766687
 20
21.0808744083
 10
-13.9041044947
 20
21.0554024176
 10
-13.881719332
 20
21.0292671228
 10
-13.8597587851
 20
21.0025123857
 10
-13.8382234599
 20
20.9751371862
 10
-13.8171125256
 20
20.9471425864
 10
-13.7964614409
 20
20.91857557
 10
-13.7762708549
 20
20.889435172
 10
-13.756539891
 20
20.8597224001
 10
-13.7373017316
 20
20.8294871945
 10
-13.718557103
 20
20.7987287023
 10
-13.7003050533
 20
20.7674478188
 10
-13.6825762631
 20
20.7356971035
 10
-13.6653714961
 20
20.703475759
 10
-13.6486897696
 20
20.6707846241
 10
-13.632559162
 20
20.6376787095
 10
-13.6169805067
 20
20.6041573388
 10
-13.6019527623
 20
20.5702212279
 10
-13.5875012147
 20
20.5359274728
 10
-13.5736267388
 20
20.5012754711
 10
-13.5603282667
 20
20.466265862
 10
-13.547628193
 20
20.4309575992
 10
-13.5355274451
 20
20.3953501859
 10
-13.5240249217
 20
20.3594441524
 10
-13.5131399986
 20
20.3232999889
 10
-13.5028736461
 20
20.2869173087
 10
-13.4932247427
 20
20.2502965278
 10
-13.484209554
 20
20.2134993358
 10
-13.4758334664
 20
20.1765463027
  0
LWPOLYLINE
  5
2B5
100
AcDbEntity
  8
RACCORDO
100
AcDbPolyline
 62
253
  6
CONTINUOUS
 90
49
 70
0
 10
-15.507288371
 20
20.3519609971
 10
-15.5021150054
 20
20.3831546684
 10
-15.4963675271
 20
20.4140909312
 10
-15.4900491643
 20
20.4447524235
 10
-15.4831633678
 20
20.4751219677
 10
-15.4757140972
 20
20.5051824939
 10
-15.4677058199
 20
20.5349170506
 10
-15.4591430096
 20
20.564308974
 10
-15.4500304873
 20
20.5933417591
 10
-15.4403737121
 20
20.6219989879
 10
-15.4301780906
 20
20.6502645858
 10
-15.419449353
 20
20.6781227099
 10
-15.4081939016
 20
20.705557626
 10
-15.3964180417
 20
20.7325539518
 10
-15.3841283857
 20
20.759096564
 10
-15.3713322365
 20
20.785170491
 10
-15.3580367553
 20
20.8107611374
 10
-15.3442494103
 20
20.8358541564
 10
-15.3299783869
 20
20.8604353626
 10
-15.3152316949
 20
20.8844909747
 10
-15.3000175961
 20
20.9080075474
 10
-15.284345055
 20
20.9309718469
 10
-15.2682228413
 20
20.9533710389
 10
-15.2516600056
 20
20.9751925728
 10
-15.234666312
 20
20.9964241191
 10
-15.2172513042
 20
21.0170537847
 10
-15.1994247257
 20
21.0370700588
 10
-15.1811969939
 20
21.0564616934
 10
-15.1625783133
 20
21.0752178616
 10
-15.1435791248
 20
21.0933280697
 10
-15.124210528
 20
21.1107821047
 10
-15.1044833967
 20
21.1275702056
 10
-15.0844087632
 20
21.1436830141
 10
-15.0639982647
 20
21.1591114807
 10
-15.0432633389
 20
21.1738469954
 10
-15.0222155977
 20
21.1878813332
 10
-15.0008672094
 20
21.2012066011
 10
-14.9792301498
 20
21.2138153615
 10
-14.9573165226
 20
21.22570059
 10
-14.9351389282
 20
21.2368556116
 10
-14.9127098088
 20
21.2472742037
 10
-14.890041709
 20
21.2569505677
 10
-14.8671475918
 20
21.2658792752
 10
-14.844040292
 20
21.2740553514
 10
-14.8207327425
 20
21.281474246
 10
-14.7972382306
 20
21.2881317916
 10
-14.7735699488
 20
21.2940242781
 10
-14.7497411259
 20
21.2991484385
 10
-14.7445361105
 20
21.3001613663
  0
LWPOLYLINE
  5
2B6
100
AcDbEntity
  8
ASSI
100
AcDbPolyline
 62
253
  6
CONTINUOUS
 90
49
 70
0
 10
-15.507288371
 20
20.3519609971
 10
-15.5021150054
 20
20.3831546684
 10
-15.4963675271
 20
20.4140909312
 10
-15.4900491643
 20
20.4447524235
 10
-15.4831633678
 20
20.4751219677
 10
-15.4757140972
 20
20.5051824939
 10
-15.4677058199
 20
20.5349170506
 10
-15.4591430096
 20
20.564308974
 10
-15.4500304873
 20
20.5933417591
 10
-15.4403737121
 20
20.6219989879
 10
-15.4301780906
 20
20.6502645858
 10
-15.419449353
 20
20.6781227099
 10
-15.4081939016
 20
20.705557626
 10
-15.3964180417
 20
20.7325539518
 10
-15.3841283857
 20
20.759096564
 10
-15.3713322365
 20
20.785170491
 10
-15.3580367553
 20
20.8107611374
 10
-15.3442494103
 20
20.8358541564
 10
-15.3299783869
 20
20.8604353626
 10
-15.3152316949
 20
20.8844909747
 10
-15.3000175961
 20
20.9080075474
 10
-15.284345055
 20
20.9309718469
 10
-15.2682228413
 20
20.9533710389
 10
-15.2516600056
 20
20.9751925728
 10
-15.234666312
 20
20.9964241191
 10
-15.2172513042
 20
21.0170537847
 10
-15.1994247257
 20
21.0370700588
 10
-15.1811969939
 20
21.0564616934
 10
-15.1625783133
 20
21.0752178616
 10
-15.1435791248
 20
21.0933280697
 10
-15.124210528
 20
21.1107821047
 10
-15.1044833967
 20
21.1275702056
 10
-15.0844087632
 20
21.1436830141
 10
-15.0639982647
 20
21.1591114807
 10
-15.0432633389
 20
21.1738469954
 10
-15.0222155977
 20
21.1878813332
 10
-15.0008672094
 20
21.2012066011
 10
-14.9792301498
 20
21.2138153615
 10
-14.9573165226
 20
21.22570059
 10
-14.9351389282
 20
21.2368556116
 10
-14.9127098088
 20
21.2472742037
 10
-14.890041709
 20
21.2569505677
 10
-14.8671475918
 20
21.2658792752
 10
-14.844040292
 20
21.2740553514
 10
-14.8207327425
 20
21.281474246
 10
-14.7972382306
 20
21.2881317916
 10
-14.7735699488
 20
21.2940242781
 10
-14.7497411259
 20
21.2991484385
 10
-14.7448872228
 20
21.3000942282
  0
LWPOLYLINE
  5
2B7
100
AcDbEntity
  8
RACCORDO
100
AcDbPolyline
 62
253
  6
CONTINUOUS
 90
29
 70
0
 10
-15.5072884058
 20
20.3519609904
 10
-15.508608136
 20
20.3442915666
 10
-15.5101702355
 20
20.3367372007
 10
-15.5119720894
 20
20.3293105386
 10
-15.5140106815
 20
20.3220240122
 10
-15.5162825991
 20
20.314889819
 10
-15.5187840393
 20
20.3079199015
 10
-15.5215108145
 20
20.3011259271
 10
-15.5244583604
 20
20.2945192688
 10
-15.5276217427
 20
20.2881109858
 10
-15.5309956661
 20
20.2819118055
 10
-15.5345744827
 20
20.2759321052
 10
-15.5383522017
 20
20.2701818947
 10
-15.5423224992
 20
20.2646707996
 10
-15.5464787291
 20
20.2594080455
 10
-15.5508139341
 20
20.2544024419
 10
-15.5553208569
 20
20.2496623683
 10
-15.5599919533
 20
20.2451957592
 10
-15.5648194039
 20
20.2410100918
 10
-15.5697951278
 20
20.2371123726
 10
-15.5749107956
 20
20.2335091264
 10
-15.5801578438
 20
20.2302063849
 10
-15.5855274892
 20
20.2272096768
 10
-15.591010743
 20
20.2245240184
 10
-15.5965984264
 20
20.2221539056
 10
-15.6022811858
 20
20.2201033059
 10
-15.6080495084
 20
20.2183756517
 10
-15.6138937382
 20
20.2169738353
 10
-15.6158962263
 20
20.216571897
  0
LWPOLYLINE
  5
2B8
100
AcDbEntity
  8
ASSI
100
AcDbPolyline
 62
253
  6
CONTINUOUS
 90
29
 70
0
 10
-15.5072884058
 20
20.3519609904
 10
-15.508608136
 20
20.3442915666
 10
-15.5101702355
 20
20.3367372007
 10
-15.5119720894
 20
20.3293105386
 10
-15.5140106815
 20
20.3220240122
 10
-15.5162825991
 20
20.314889819
 10
-15.5187840393
 20
20.3079199015
 10
-15.5215108145
 20
20.3011259271
 10
-15.5244583604
 20
20.2945192688
 10
-15.5276217427
 20
20.2881109858
 10
-15.5309956661
 20
20.2819118055
 10
-15.5345744827
 20
20.2759321052
 10
-15.5383522017
 20
20.2701818947
 10
-15.5423224992
 20
20.2646707996
 10
-15.5464787291
 20
20.2594080455
 10
-15.5508139341
 20
20.2544024419
 10
-15.5553208569
 20
20.2496623683
 10
-15.5599919533
 20
20.2451957592
 10
-15.5648194039
 20
20.2410100918
 10
-15.5697951278
 20
20.2371123726
 10
-15.5749107956
 20
20.2335091264
 10
-15.5801578438
 20
20.2302063849
 10
-15.5855274892
 20
20.2272096768
 10
-15.591010743
 20
20.2245240184
 10
-15.5965984264
 20
20.2221539056
 10
-15.6022811858
 20
20.2201033059
 10
-15.6080495084
 20
20.2183756517
 10
-15.6138937382
 20
20.2169738353
 10
-15.6158966756
 20
20.2165718112
  0
LWPOLYLINE
  5
2B9
100
AcDbEntity
  8
RACCORDO
100
AcDbPolyline
 62
253
  6
CONTINUOUS
 90
7
 70
0
 10
-22.2216595663
 20
20.8166872185
 10
-22.2144920568
 20
20.8190975464
 10
-22.2069261231
 20
20.821483204
 10
-22.1989626785
 20
20.8238442404
 10
-22.1906195193
 20
20.8261753849
 10
-22.1818955442
 20
20.8284766193
 10
-22.1727918545
 20
20.8307479617
  0
LWPOLYLINE
  5
2BA
100
AcDbEntity
  8
ASSI
100
AcDbPolyline
 62
253
  6
CONTINUOUS
 90
10
 70
0
 10
-22.2216595663
 20
20.8166872185
 10
-22.2144920568
 20
20.8190975464
 10
-22.2069261231
 20
20.821483204
 10
-22.1989626785
 20
20.8238442404
 10
-22.1906195193
 20
20.8261753849
 10
-22.1818955442
 20
20.8284766193
 10
-22.1727918545
 20
20.8307479617
 10
-22.1633295505
 20
20.8329841956
 10
-22.1535156657
 20
20.835183582
 10
-22.1433431667
 20
20.8373478599
  0
LWPOLYLINE
  5
2BB
100
AcDbEntity
  8
RACCORDO
100
AcDbPolyline
 62
7
  6
CONTINUOUS
 90
35
 70
0
 10
-14.9763927392
 20
18.9414623836
 10
-14.9635534214
 20
18.9268611753
 10
-14.9422396124
 20
18.9036970814
 10
-14.9205700107
 20
18.8812008905
 10
-14.8985439492
 20
18.8593738546
 10
-14.8761620951
 20
18.8382147216
 10
-14.8534663825
 20
18.8177631401
 10
-14.8304562227
 20
18.7980204363
 10
-14.8071322042
 20
18.7789852839
 10
-14.7835380268
 20
18.7606933523
 10
-14.7596731837
 20
18.7431460347
 10
-14.7355381815
 20
18.7263419379
 10
-14.7111782398
 20
18.7103125515
 10
-14.6865929366
 20
18.695059328
 10
-14.6617826939
 20
18.6805808149
 10
-14.6367939965
 20
18.6669041451
 10
-14.6116265099
 20
18.6540308218
 10
-14.5862805686
 20
18.6419593419
 10
-14.560803662
 20
18.6307123287
 10
-14.5351955443
 20
18.6202913277
 10
-14.5094564612
 20
18.6106947935
 10
-14.4836346386
 20
18.6019407125
 10
-14.4577299208
 20
18.5940306639
 10
-14.4317424635
 20
18.5869630685
 10
-14.4057209599
 20
18.5807511751
 10
-14.3796653394
 20
18.5753965879
 10
-14.3535756726
 20
18.5708977027
 10
-14.3275008651
 20
18.5672629558
 10
-14.3014409447
 20
18.56449397
 10
-14.2753958835
 20
18.5625891225
 10
-14.2494145033
 20
18.5615519808
 10
-14.2234969305
 20
18.5613841734
 10
-14.1976430386
 20
18.5620840719
 10
-14.1719012704
 20
18.5636503588
 10
-14.1612088858
 20
18.5646659281
  0
LWPOLYLINE
  5
2BC
100
AcDbEntity
  8
ASSI
100
AcDbPolyline
 62
7
  6
CONTINUOUS
 90
34
 70
0
 10
-14.9763927392
 20
18.9414623836
 10
-14.9635534214
 20
18.9268611753
 10
-14.9422396124
 20
18.9036970814
 10
-14.9205700107
 20
18.8812008905
 10
-14.8985439492
 20
18.8593738546
 10
-14.8761620951
 20
18.8382147216
 10
-14.8534663825
 20
18.8177631401
 10
-14.8304562227
 20
18.7980204363
 10
-14.8071322042
 20
18.7789852839
 10
-14.7835380268
 20
18.7606933523
 10
-14.7596731837
 20
18.7431460347
 10
-14.7355381815
 20
18.7263419379
 10
-14.7111782398
 20
18.7103125515
 10
-14.6865929366
 20
18.695059328
 10
-14.6617826939
 20
18.6805808149
 10
-14.6367939965
 20
18.6669041451
 10
-14.6116265099
 20
18.6540308218
 10
-14.5862805686
 20
18.6419593419
 10
-14.560803662
 20
18.6307123287
 10
-14.5351955443
 20
18.6202913277
 10
-14.5094564612
 20
18.6106947935
 10
-14.4836346386
 20
18.6019407125
 10
-14.4577299208
 20
18.5940306639
 10
-14.4317424635
 20
18.5869630685
 10
-14.4057209599
 20
18.5807511751
 10
-14.3796653394
 20
18.5753965879
 10
-14.3535756726
 20
18.5708977027
 10
-14.3275008651
 20
18.5672629558
 10
-14.3014409447
 20
18.56449397
 10
-14.2753958835
 20
18.5625891225
 10
-14.2494145033
 20
18.5615519808
 10
-14.2234969305
 20
18.5613841734
 10
-14.1976430386
 20
18.5620840719
 10
-14.1719012704
 20
18.5636503588
  0
LINE
  5
2BD
100
AcDbEntity
  8
CURVE
100
AcDbLine
 62
252
  6
CONTINUOUS
 10
-13.7411819117
 20
7.2384176273
 11
-13.7467384155
 21
7.2614845966
  0
LINE
  5
2BE
100
AcDbEntity
  8
CURVE
100
AcDbLine
 62
252
  6
CONTINUOUS
 10
-13.7364684319
 20
7.2163944116
 11
-13.7414301043
 21
7.2395073206
  0
LINE
  5
2BF
100
AcDbEntity
  8
CURVE
100
AcDbLine
 62
252
  6
CONTINUOUS
 10
-13.7323257441
 20
7.194386003
 11
-13.7366986208
 21
7.2175346325
  0
LINE
  5
2C0
100
AcDbEntity
  8
CURVE
100
AcDbLine
 62
252
  6
CONTINUOUS
 10
-13.7287452703
 20
7.1724013506
 11
-13.7325354797
 21
7.1955759638
  0
LINE
  5
2C1
100
AcDbEntity
  8
CURVE
100
AcDbLine
 62
252
  6
CONTINUOUS
 10
-13.7258824256
 20
7.1517267057
 11
-13.7233883951
 21
7.1297847512
  0
LINE
  5
2C2
100
AcDbEntity
  8
CURVE
100
AcDbLine
 62
252
  6
CONTINUOUS
 10
-13.7213513139
 20
7.1063650433
 11
-13.7233883951
 21
7.1297847512
  0
LINE
  5
2C3
100
AcDbEntity
  8
CURVE
100
AcDbLine
 62
252
  6
CONTINUOUS
 10
-13.7200160857
 20
7.0841340927
 11
-13.721454472
 21
7.1077540857
  0
LINE
  5
2C4
100
AcDbEntity
  8
CURVE
100
AcDbLine
 62
252
  6
CONTINUOUS
 10
-14.0668122646
 20
4.249333064
 11
-14.128065693
 21
5.4266912909
  0
LINE
  5
2C5
100
AcDbEntity
  8
CURVE
100
AcDbLine
 62
252
  6
CONTINUOUS
 10
-14.2883747961
 20
8.8641549883
 11
-14.3331189466
 21
9.9455770007
  0
LINE
  5
2C6
100
AcDbEntity
  8
CURVE
100
AcDbLine
 62
252
  6
CONTINUOUS
 10
-14.6900660943
 20
7.2342945083
 11
-14.6895777011
 21
7.2117985347
  0
LINE
  5
2C7
100
AcDbEntity
  8
CURVE
100
AcDbLine
 62
252
  6
CONTINUOUS
 10
-14.6895777011
 20
7.2117985347
 11
-14.6900669226
 21
7.2343968442
  0
LWPOLYLINE
  5
2C8
100
AcDbEntity
  8
CURVE
100
AcDbPolyline
 62
252
  6
CONTINUOUS
 90
3
 70
0
 10
-14.6806403497
 20
28.8743193553
 10
-14.6760794671
 20
29.9123007286
 10
-14.6709239463
 20
30.709293001
  0
LINE
  5
2C9
100
AcDbEntity
  8
CURVE
100
AcDbLine
 62
252
  6
CONTINUOUS
 10
-14.6900660943
 20
7.2342945083
 11
-14.6899559296
 21
7.2566505779
  0
LWPOLYLINE
  5
2CA
100
AcDbEntity
  8
CURVE
100
AcDbPolyline
 62
252
  6
CONTINUOUS
 90
3
 70
0
 10
-14.6203850933
 20
34.8905239512
 10
-14.6017006487
 20
35.9303184718
 10
-14.5867093185
 20
36.6805271144
  0
LWPOLYLINE
  5
2CB
100
AcDbEntity
  8
CURVE
100
AcDbPolyline
 62
252
  6
CONTINUOUS
 90
89
 70
0
 10
-13.9134521801
 20
32.6830492939
 10
-13.9142685339
 20
32.6499790264
 10
-13.9158831597
 20
32.6173933509
 10
-13.9182836418
 20
32.5852086628
 10
-13.921457565
 20
32.5533413575
 10
-13.9253958636
 20
32.5217263572
 10
-13.9301028726
 20
32.490372693
 10
-13.9355862769
 20
32.4593079229
 10
-13.9418537612
 20
32.428559605
 10
-13.9489092167
 20
32.3981577943
 10
-13.9567413595
 20
32.3681425338
 10
-13.9653351118
 20
32.3385563637
 10
-13.974675396
 20
32.309441824
 10
-13.9847475629
 20
32.28083877
 10
-13.9955386785
 20
32.2527763184
 10
-14.0070362375
 20
32.2252809009
 10
-14.0192277344
 20
32.1983789496
 10
-14.0339936904
 20
32.1683942432
 10
-14.0496258461
 20
32.13925734
 10
-14.0661003666
 20
32.1110063805
 10
-14.0833934173
 20
32.0836795053
 10
-14.1014811634
 20
32.0573148549
 10
-14.1203397703
 20
32.0319505697
 10
-14.1399454031
 20
32.0076247904
 10
-14.1602729046
 20
31.9843737985
 10
-14.1812918266
 20
31.9622264397
 10
-14.2029703982
 20
31.9412097008
 10
-14.2252768486
 20
31.9213505686
 10
-14.2481794071
 20
31.9026760299
 10
-14.2716463028
 20
31.8852130714
 10
-14.2956457649
 20
31.8689886799
 10
-14.3201462957
 20
31.8540284637
 10
-14.3451174895
 20
31.8403525173
 10
-14.3705292139
 20
31.827979557
 10
-14.3963513363
 20
31.8169282987
 10
-14.4225537242
 20
31.8072174585
 10
-14.4491062451
 20
31.7988657525
 10
-14.4759787664
 20
31.7918918969
 10
-14.5031388439
 20
31.7863112192
 10
-14.5305447862
 20
31.7821254935
 10
-14.5581525902
 20
31.7793331054
 10
-14.585918253
 20
31.7779324403
 10
-14.6137977713
 20
31.777921884
 10
-14.6417471422
 20
31.7792998219
 10
-14.6697223625
 20
31.7820646397
 10
-14.6976798098
 20
31.786213572
 10
-14.7255773837
 20
31.7917392502
 10
-14.7533733645
 20
31.7986331547
 10
-14.7810260325
 20
31.806886766
 10
-14.8084936679
 20
31.8164915645
 10
-14.8357345511
 20
31.8274390308
 10
-14.8627069624
 20
31.8397206453
 10
-14.8893707849
 20
31.8533247587
 10
-14.9156923143
 20
31.8682272026
 10
-14.9416394492
 20
31.8844006789
 10
-14.967180088
 20
31.9018178895
 10
-14.9922821293
 20
31.9204515362
 10
-15.0169134716
 20
31.940274321
 10
-15.0410420136
 20
31.9612589456
 10
-15.0646359382
 20
31.9833768506
 10
-15.0876645659
 20
32.0065944304
 10
-15.1100975017
 20
32.0308768179
 10
-15.1319043505
 20
32.0561891462
 10
-15.1530547174
 20
32.0824965484
 10
-15.1735182073
 20
32.1097641573
 10
-15.1932644252
 20
32.137957106
 10
-15.2122642188
 20
32.1670391448
 10
-15.2304934074
 20
32.196968493
 10
-15.2479290529
 20
32.227701987
 10
-15.2645482174
 20
32.2591964633
 10
-15.2803279629
 20
32.2914087585
 10
-15.2952453513
 20
32.3242957091
 10
-15.3092774448
 20
32.3578141515
 10
-15.3208117763
 20
32.3876266856
 10
-15.331638379
 20
32.4178595933
 10
-15.34174489
 20
32.4484828092
 10
-15.3511189464
 20
32.4794662679
 10
-15.359747924
 20
32.5107770998
 10
-15.3676181543
 20
32.5423712183
 10
-15.3747157077
 20
32.5742017325
 10
-15.3810266544
 20
32.6062217513
 10
-15.3865408172
 20
32.6383879655
 10
-15.3912630279
 20
32.6706713909
 10
-15.3952018705
 20
32.7030466253
 10
-15.3983659293
 20
32.7354882661
 10
-15.4007599511
 20
32.767988596
 10
-15.4023733337
 20
32.8006106383
 10
-15.4031916374
 20
32.8334351012
 10
-15.4032004227
 20
32.8665426933
  0
LINE
  5
2CC
100
AcDbEntity
  8
CURVE
100
AcDbLine
 62
252
  6
CONTINUOUS
 10
-14.6899596407
 20
7.2564507885
 11
-14.6892543913
 21
7.2786220837
  0
LINE
  5
2CD
100
AcDbEntity
  8
CURVE
100
AcDbLine
 62
252
  6
CONTINUOUS
 10
-14.6892676177
 20
7.2783297974
 11
-14.6879719773
 21
7.30037371
  0
LINE
  5
2CE
100
AcDbEntity
  8
CURVE
100
AcDbLine
 62
252
  6
CONTINUOUS
 10
-14.6879993031
 20
7.2999939567
 11
-14.6861155242
 21
7.3219550743
  0
LWPOLYLINE
  5
2CF
100
AcDbEntity
  8
RACCORDO
100
AcDbPolyline
 62
7
  6
CONTINUOUS
 90
13
 70
0
 10
-15.4284451234
 20
20.2691085196
 10
-15.4287449629
 20
20.2688345019
 10
-15.4332523682
 20
20.2650743694
 10
-15.4378648581
 20
20.2615712572
 10
-15.4425761798
 20
20.2583313403
 10
-15.4473925862
 20
20.2553484436
 10
-15.4523020008
 20
20.2526261761
 10
-15.4573035015
 20
20.2501637
 10
-15.4623980104
 20
20.2479618529
 10
-15.4675762174
 20
20.2460267569
 10
-15.4728455008
 20
20.2443568257
 10
-15.4781984824
 20
20.2429536454
 10
-15.4826329904
 20
20.2420088282
  0
LWPOLYLINE
  5
2D0
100
AcDbEntity
  8
ASSI
100
AcDbPolyline
 62
7
  6
CONTINUOUS
 90
13
 70
0
 10
-15.4284451234
 20
20.2691085196
 10
-15.4287449629
 20
20.2688345019
 10
-15.4332523682
 20
20.2650743694
 10
-15.4378648581
 20
20.2615712572
 10
-15.4425761798
 20
20.2583313403
 10
-15.4473925862
 20
20.2553484436
 10
-15.4523020008
 20
20.2526261761
 10
-15.4573035015
 20
20.2501637
 10
-15.4623980104
 20
20.2479618529
 10
-15.4675762174
 20
20.2460267569
 10
-15.4728455008
 20
20.2443568257
 10
-15.4781984824
 20
20.2429536454
 10
-15.4826329904
 20
20.2420088282
  0
LWPOLYLINE
  5
2D1
100
AcDbEntity
  8
ASSI
100
AcDbPolyline
 62
253
  6
CONTINUOUS
 90
3
 70
0
 10
-14.5039469594
 20
21.1743543323
 10
-14.5240119362
 20
21.1649510623
 10
-14.5267158353
 20
21.1635787715
  0
LWPOLYLINE
  5
2D2
100
AcDbEntity
  8
RACCORDO
100
AcDbPolyline
 62
7
  6
CONTINUOUS
 90
31
 70
0
 10
-14.7793348312
 20
21.2733353649
 10
-14.8029928707
 20
21.2624017094
 10
-14.8263539935
 20
21.2506551791
 10
-14.8494176427
 20
21.2380942499
 10
-14.8721843752
 20
21.2247204457
 10
-14.8946115356
 20
21.210558829
 10
-14.9166984872
 20
21.1956079228
 10
-14.9384458668
 20
21.179869204
 10
-14.9598129293
 20
21.1633721655
 10
-14.9807989615
 20
21.1461153858
 10
-15.0014046766
 20
21.1281002864
 10
-15.0215914688
 20
21.1093606249
 10
-15.0413585526
 20
21.089895043
 10
-15.0607067134
 20
21.069704899
 10
-15.0795997019
 20
21.0488280251
 10
-15.0980366646
 20
21.027263134
 10
-15.116018455
 20
21.0050115131
 10
-15.1335113838
 20
20.9821148565
 10
-15.1505145345
 20
20.9585719552
 10
-15.1670288236
 20
20.9343840182
 10
-15.1830233115
 20
20.9095963673
 10
-15.1984970237
 20
20.8842078782
 10
-15.2134509348
 20
20.8582196752
 10
-15.2278570286
 20
20.8316804524
 10
-15.2417142782
 20
20.804589177
 10
-15.2550237106
 20
20.7769468818
 10
-15.267760391
 20
20.7488053596
 10
-15.2799232455
 20
20.7201636749
 10
-15.2915133479
 20
20.6910227632
 10
-15.3025089846
 20
20.6614372248
 10
-15.3036456295
 20
20.6581550715
  0
LWPOLYLINE
  5
2D3
100
AcDbEntity
  8
ASSI
100
AcDbPolyline
 62
7
  6
CONTINUOUS
 90
31
 70
0
 10
-14.7793348312
 20
21.2733353649
 10
-14.8029928707
 20
21.2624017094
 10
-14.8263539935
 20
21.2506551791
 10
-14.8494176427
 20
21.2380942499
 10
-14.8721843752
 20
21.2247204457
 10
-14.8946115356
 20
21.210558829
 10
-14.9166984872
 20
21.1956079228
 10
-14.9384458668
 20
21.179869204
 10
-14.9598129293
 20
21.1633721655
 10
-14.9807989615
 20
21.1461153858
 10
-15.0014046766
 20
21.1281002864
 10
-15.0215914688
 20
21.1093606249
 10
-15.0413585526
 20
21.089895043
 10
-15.0607067134
 20
21.069704899
 10
-15.0795997019
 20
21.0488280251
 10
-15.0980366646
 20
21.027263134
 10
-15.116018455
 20
21.0050115131
 10
-15.1335113838
 20
20.9821148565
 10
-15.1505145345
 20
20.9585719552
 10
-15.1670288236
 20
20.9343840182
 10
-15.1830233115
 20
20.9095963673
 10
-15.1984970237
 20
20.8842078782
 10
-15.2134509348
 20
20.8582196752
 10
-15.2278570286
 20
20.8316804524
 10
-15.2417142782
 20
20.804589177
 10
-15.2550237106
 20
20.7769468818
 10
-15.267760391
 20
20.7488053596
 10
-15.2799232455
 20
20.7201636749
 10
-15.2915133479
 20
20.6910227632
 10
-15.3025089846
 20
20.6614372248
 10
-15.3036456295
 20
20.6581550715
  0
LWPOLYLINE
  5
2D4
100
AcDbEntity
  8
0
100
AcDbPolyline
 62
7
  6
CONTINUOUS
 90
3
 70
0
 10
-14.7299183198
 20
21.1331032149
 10
-14.7515204007
 20
21.1232565475
 10
-14.7671653233
 20
21.1154759357
  0
LWPOLYLINE
  5
2D5
100
AcDbEntity
  8
RACCORDO
100
AcDbPolyline
 62
7
  6
CONTINUOUS
 90
4
 70
0
 10
-14.460025041
 20
21.1897126316
 10
-14.475460443
 20
21.1830582704
 10
-14.4948181051
 20
21.1738318799
 10
-14.5073624906
 20
21.1672728777
  0
LINE
  5
2D6
100
AcDbEntity
  8
0
100
AcDbLine
 62
7
  6
CONTINUOUS
 10
-14.7080552622
 20
21.1421848346
 11
-14.7299183198
 21
21.1331032149
  0
LWPOLYLINE
  5
2D7
100
AcDbEntity
  8
RACCORDO
100
AcDbPolyline
 62
253
  6
CONTINUOUS
 90
5
 70
0
 10
-14.4670600643
 20
21.1896204116
 10
-14.4836630907
 20
21.183088964
 10
-14.5039469594
 20
21.1743543323
 10
-14.5240119362
 20
21.1649510623
 10
-14.5267158353
 20
21.1635787715
  0
LWPOLYLINE
  5
2D8
100
AcDbEntity
  8
ASSI
100
AcDbPolyline
 62
253
  6
CONTINUOUS
 90
3
 70
0
 10
-14.4670600643
 20
21.1896204116
 10
-14.4836630907
 20
21.183088964
 10
-14.5039469594
 20
21.1743543323
  0
LWPOLYLINE
  5
2D9
100
AcDbEntity
  8
ASSI
100
AcDbPolyline
 62
7
  6
CONTINUOUS
 90
3
 70
0
 10
-14.4581623003
 20
21.1897370497
 10
-14.4753653371
 20
21.1831015694
 10
-14.504683097
 20
21.1677843119
  0
LWPOLYLINE
  5
2DA
100
AcDbEntity
  8
RACCORDO
100
AcDbPolyline
 62
7
  6
CONTINUOUS
 90
3
 70
0
 10
-14.731260505
 20
21.292701016
 10
-14.7554242005
 20
21.2834356545
 10
-14.7793348312
 20
21.2733353649
  0
LINE
  5
2DB
100
AcDbEntity
  8
RACCORDO
100
AcDbLine
 62
7
  6
CONTINUOUS
 10
-14.7068442183
 20
21.3011330117
 11
-14.731260505
 21
21.292701016
  0
LWPOLYLINE
  5
2DC
100
AcDbEntity
  8
ASSI
100
AcDbPolyline
 62
7
  6
CONTINUOUS
 90
4
 70
0
 10
-14.7068442183
 20
21.3011330117
 10
-14.731260505
 20
21.292701016
 10
-14.7554242005
 20
21.2834356545
 10
-14.7793348312
 20
21.2733353649
  0
LWPOLYLINE
  5
2DD
100
AcDbEntity
  8
ASSI
100
AcDbPolyline
 62
7
  6
CONTINUOUS
 90
6
 70
0
 10
-14.6636740082
 20
21.1579981394
 10
-14.6859739673
 20
21.1504836532
 10
-14.7080552622
 20
21.1421848346
 10
-14.7299183198
 20
21.1331032149
 10
-14.7515204007
 20
21.1232565475
 10
-14.7671653233
 20
21.1154759357
  0
LINE
  5
2DE
100
AcDbEntity
  8
RACCORDO
100
AcDbLine
 62
7
  6
CONTINUOUS
 10
-14.6865480233
 20
21.3073833344
 11
-14.7068442183
 21
21.3011330117
  0
LINE
  5
2DF
100
AcDbEntity
  8
ASSI
100
AcDbLine
 62
7
  6
CONTINUOUS
 10
-14.6822210871
 20
21.3087158377
 11
-14.7068442183
 21
21.3011330117
  0
LINE
  5
2E0
100
AcDbEntity
  8
RACCORDO
100
AcDbLine
 62
7
  6
CONTINUOUS
 10
-14.2194918442
 20
18.5498289308
 11
-14.2196005486
 21
18.54980819
  0
LINE
  5
2E1
100
AcDbEntity
  8
ASSI
100
AcDbLine
 62
7
  6
CONTINUOUS
 10
-14.2194918442
 20
18.5498289308
 11
-14.220433666
 21
18.5496497807
  0
LINE
  5
2E2
100
AcDbEntity
  8
RACCORDO
100
AcDbLine
 62
253
  6
CONTINUOUS
 10
-2.1277075578
 20
19.5875474618
 11
-6.0447371267
 21
18.8633713509
  0
LINE
  5
2E3
100
AcDbEntity
  8
ASSI
100
AcDbLine
 62
253
  6
CONTINUOUS
 10
-2.1277075578
 20
19.5875474618
 11
-6.0447371267
 21
18.8633713509
  0
LINE
  5
2E4
100
AcDbEntity
  8
0
100
AcDbLine
 62
7
  6
CONTINUOUS
 10
-6.1914970744
 20
18.8820854738
 11
-2.2767018563
 21
19.6058485003
  0
LINE
  5
2E5
100
AcDbEntity
  8
ASSI
100
AcDbLine
 62
7
  6
CONTINUOUS
 10
-6.1914970744
 20
18.8820854738
 11
-2.2767018563
 21
19.6058485003
  0
LINE
  5
2E6
100
AcDbEntity
  8
ASSI
100
AcDbLine
 62
7
  6
CONTINUOUS
 10
-6.0168689075
 20
19.1605209258
 11
-2.0993044075
 21
19.8847959341
  0
LINE
  5
2E7
100
AcDbEntity
  8
RACCORDO
100
AcDbLine
 62
253
  6
CONTINUOUS
 10
-5.9066077766
 20
19.3384482442
 11
-1.9872046512
 21
20.0630631756
  0
LINE
  5
2E8
100
AcDbEntity
  8
ASSI
100
AcDbLine
 62
253
  6
CONTINUOUS
 10
-5.9066077766
 20
19.3384482442
 11
-1.9872046512
 21
20.0630631756
  0
LWPOLYLINE
  5
2E9
100
AcDbEntity
  8
RACCORDO
100
AcDbPolyline
 62
253
  6
CONTINUOUS
 90
25
 70
0
 10
-1.9753167025
 20
19.3717197223
 10
-5.9097581214
 20
18.6443863374
 10
-5.9252220942
 20
18.6417252899
 10
-5.9410989245
 20
18.6391239095
 10
-5.9573759838
 20
18.6365843008
 10
-5.9740413641
 20
18.6341082569
 10
-5.9910834014
 20
18.6316975256
 10
-6.0084899069
 20
18.6293538458
 10
-6.0262476143
 20
18.6270789586
 10
-6.0443431503
 20
18.6248746127
 10
-6.0627630502
 20
18.6227424756
 10
-6.081493567
 20
18.6206840865
 10
-6.1005208603
 20
18.6187009882
 10
-6.1198308759
 20
18.6167946682
 10
-6.1394091809
 20
18.6149665033
 10
-6.15924134
 20
18.6132178638
 10
-6.1793127551
 20
18.6115500647
 10
-6.1996083766
 20
18.6099643119
 10
-6.220113076
 20
18.6084618057
 10
-6.2408116642
 20
18.607043686
 10
-6.2616887256
 20
18.6057109641
 10
-6.2827287802
 20
18.6044646437
 10
-6.3039162731
 20
18.603305675
 10
-6.3252354023
 20
18.6022348796
 10
-6.3466703142
 20
18.6012530664
  0
LWPOLYLINE
  5
2EA
100
AcDbEntity
  8
ASSI
100
AcDbPolyline
 62
253
  6
CONTINUOUS
 90
25
 70
0
 10
-1.9753167025
 20
19.3717197223
 10
-5.9097581214
 20
18.6443863374
 10
-5.9252220942
 20
18.6417252899
 10
-5.9410989245
 20
18.6391239095
 10
-5.9573759838
 20
18.6365843008
 10
-5.9740413641
 20
18.6341082569
 10
-5.9910834014
 20
18.6316975256
 10
-6.0084899069
 20
18.6293538458
 10
-6.0262476143
 20
18.6270789586
 10
-6.0443431503
 20
18.6248746127
 10
-6.0627630502
 20
18.6227424756
 10
-6.081493567
 20
18.6206840865
 10
-6.1005208603
 20
18.6187009882
 10
-6.1198308759
 20
18.6167946682
 10
-6.1394091809
 20
18.6149665033
 10
-6.15924134
 20
18.6132178638
 10
-6.1793127551
 20
18.6115500647
 10
-6.1996083766
 20
18.6099643119
 10
-6.220113076
 20
18.6084618057
 10
-6.2408116642
 20
18.607043686
 10
-6.2616887256
 20
18.6057109641
 10
-6.2827287802
 20
18.6044646437
 10
-6.3039162731
 20
18.603305675
 10
-6.3252354023
 20
18.6022348796
 10
-6.3466703142
 20
18.6012530664
  0
LWPOLYLINE
  5
2EB
100
AcDbEntity
  8
RACCORDO
100
AcDbPolyline
 62
253
  6
CONTINUOUS
 90
25
 70
0
 10
-6.0447371267
 20
18.8633713509
 10
-6.056027057
 20
18.8613353874
 10
-6.0676186045
 20
18.8593454119
 10
-6.0795117692
 20
18.8574014244
 10
-6.0917161115
 20
18.8555019964
 10
-6.1042220709
 20
18.8536485563
 10
-6.1170009668
 20
18.8518453897
 10
-6.1300531534
 20
18.8500926572
 10
-6.1433782765
 20
18.8483901982
 10
-6.1569465929
 20
18.8467418161
 10
-6.1707586135
 20
18.8451476366
 10
-6.1848138274
 20
18.8436075339
 10
-6.1990809578
 20
18.8421249339
 10
-6.2135604545
 20
18.8406999659
 10
-6.2282518677
 20
18.8393325005
 10
-6.2431225708
 20
18.8380255754
 10
-6.2581730031
 20
18.836779322
 10
-6.2734027255
 20
18.8355936089
 10
-6.2887777939
 20
18.8344710796
 10
-6.3042985097
 20
18.8334118768
 10
-6.3199645717
 20
18.8324158579
 10
-6.335741132
 20
18.8314852382
 10
-6.3516284465
 20
18.8306201629
 10
-6.3676262594
 20
18.8298204869
 10
-6.3836989551
 20
18.8290879902
  0
LWPOLYLINE
  5
2EC
100
AcDbEntity
  8
ASSI
100
AcDbPolyline
 62
253
  6
CONTINUOUS
 90
25
 70
0
 10
-6.0447371267
 20
18.8633713509
 10
-6.056027057
 20
18.8613353874
 10
-6.0676186045
 20
18.8593454119
 10
-6.0795117692
 20
18.8574014244
 10
-6.0917161115
 20
18.8555019964
 10
-6.1042220709
 20
18.8536485563
 10
-6.1170009668
 20
18.8518453897
 10
-6.1300531534
 20
18.8500926572
 10
-6.1433782765
 20
18.8483901982
 10
-6.1569465929
 20
18.8467418161
 10
-6.1707586135
 20
18.8451476366
 10
-6.1848138274
 20
18.8436075339
 10
-6.1990809578
 20
18.8421249339
 10
-6.2135604545
 20
18.8406999659
 10
-6.2282518677
 20
18.8393325005
 10
-6.2431225708
 20
18.8380255754
 10
-6.2581730031
 20
18.836779322
 10
-6.2734027255
 20
18.8355936089
 10
-6.2887777939
 20
18.8344710796
 10
-6.3042985097
 20
18.8334118768
 10
-6.3199645717
 20
18.8324158579
 10
-6.335741132
 20
18.8314852382
 10
-6.3516284465
 20
18.8306201629
 10
-6.3676262594
 20
18.8298204869
 10
-6.3836989551
 20
18.8290879902
  0
LWPOLYLINE
  5
2ED
100
AcDbEntity
  8
RACCORDO
100
AcDbPolyline
 62
253
  6
CONTINUOUS
 90
3
 70
0
 10
-14.2196005486
 20
18.54980819
 10
-14.2381501984
 20
18.5465103745
 10
-14.2622069075
 20
18.5429411061
  0
LWPOLYLINE
  5
2EE
100
AcDbEntity
  8
ASSI
100
AcDbPolyline
 62
253
  6
CONTINUOUS
 90
68
 70
0
 10
-14.220433666
 20
18.5496497807
 10
-14.2381501984
 20
18.5465103745
 10
-14.2622069075
 20
18.5429411061
 10
-14.286389538
 20
18.5401463323
 10
-14.3106847181
 20
18.5381275705
 10
-14.3350788184
 20
18.5368859371
 10
-14.3595581408
 20
18.5364221183
 10
-14.3841091321
 20
18.5367363455
 10
-14.4087180491
 20
18.5378284341
 10
-14.4333710576
 20
18.5396977703
 10
-14.4580544238
 20
18.5423433017
 10
-14.4827543213
 20
18.5457635395
 10
-14.5074568856
 20
18.54995657
 10
-14.5321483144
 20
18.5549200642
 10
-14.55681479
 20
18.5606512415
 10
-14.5814424633
 20
18.5671468976
 10
-14.6060175076
 20
18.5744034357
 10
-14.6305261749
 20
18.5824167955
 10
-14.654954708
 20
18.5911824978
 10
-14.6792893228
 20
18.6006956923
 10
-14.7035164007
 20
18.6109510547
 10
-14.7276223538
 20
18.6219428546
 10
-14.7515935335
 20
18.6336650202
 10
-14.7754165392
 20
18.6461110002
 10
-14.7990779983
 20
18.6592738343
 10
-14.8225644289
 20
18.6731462368
 10
-14.8458626863
 20
18.6877204442
 10
-14.8689597103
 20
18.7029883112
 10
-14.8918423023
 20
18.7189413976
 10
-14.9144976681
 20
18.735570786
 10
-14.9369130948
 20
18.7528671712
 10
-14.9590756947
 20
18.7708209687
 10
-14.9809730646
 20
18.7894221313
 10
-15.0025929283
 20
18.8086602538
 10
-15.0239228097
 20
18.8285246735
 10
-15.0449507723
 20
18.8490042751
 10
-15.0656650244
 20
18.8700875947
 10
-15.0860535588
 20
18.8917629321
 10
-15.1061049653
 20
18.9140181587
 10
-15.1258079971
 20
18.9368408081
 10
-15.1451511749
 20
18.9602181858
 10
-15.1641236599
 20
18.9841371933
 10
-15.1827148221
 20
19.0085844374
 10
-15.200913804
 20
19.0335463249
 10
-15.2187104171
 20
19.0590088858
 10
-15.2360946757
 20
19.0849578376
 10
-15.253056365
 20
19.1113786952
 10
-15.269585969
 20
19.1382566383
 10
-15.2856742321
 20
19.165576609
 10
-15.3013116932
 20
19.1933233767
 10
-15.3164895886
 20
19.2214814023
 10
-15.3311994039
 20
19.2500348769
 10
-15.3454324387
 20
19.2789678155
 10
-15.3591807001
 20
19.3082639808
 10
-15.3724364918
 20
19.3379069443
 10
-15.3851919677
 20
19.3678801237
 10
-15.397439967
 20
19.3981667122
 10
-15.4091736265
 20
19.4287497019
 10
-15.4203859767
 20
19.4596119406
 10
-15.4310707157
 20
19.4907361108
 10
-15.4412218621
 20
19.5221047356
 10
-15.4508333751
 20
19.5537001992
 10
-15.4598998448
 20
19.5855047591
 10
-15.4684162028
 20
19.6175005608
 10
-15.4763773832
 20
19.6496696397
 10
-15.4837788237
 20
19.6819939316
 10
-15.4906164656
 20
19.7144552835
 10
-15.4968864694
 20
19.7470354653
  0
LINE
  5
2EF
100
AcDbEntity
  8
ASSI
100
AcDbLine
 62
7
  6
CONTINUOUS
 10
-6.0692203195
 20
19.1517319901
 11
-6.0164658316
 21
19.1605962727
  0
LWPOLYLINE
  5
2F0
100
AcDbEntity
  8
RACCORDO
100
AcDbPolyline
 62
7
  6
CONTINUOUS
 90
5
 70
0
 10
-6.0773643487
 20
19.1505082162
 10
-6.0609850072
 20
19.153005265
 10
-6.0447724957
 20
19.1556258489
 10
-6.0287652975
 20
19.1583709529
 10
-2.0993044075
 20
19.8847959341
  0
LWPOLYLINE
  5
2F1
100
AcDbEntity
  8
RACCORDO
100
AcDbPolyline
 62
253
  6
CONTINUOUS
 90
66
 70
0
 10
-14.2622069075
 20
18.5429411061
 10
-14.286389538
 20
18.5401463323
 10
-14.3106847181
 20
18.5381275705
 10
-14.3350788184
 20
18.5368859371
 10
-14.3595581408
 20
18.5364221183
 10
-14.3841091321
 20
18.5367363455
 10
-14.4087180491
 20
18.5378284341
 10
-14.4333710576
 20
18.5396977703
 10
-14.4580544238
 20
18.5423433017
 10
-14.4827543213
 20
18.5457635395
 10
-14.5074568856
 20
18.54995657
 10
-14.5321483144
 20
18.5549200642
 10
-14.55681479
 20
18.5606512415
 10
-14.5814424633
 20
18.5671468976
 10
-14.6060175076
 20
18.5744034357
 10
-14.6305261749
 20
18.5824167955
 10
-14.654954708
 20
18.5911824978
 10
-14.6792893228
 20
18.6006956923
 10
-14.7035164007
 20
18.6109510547
 10
-14.7276223538
 20
18.6219428546
 10
-14.7515935335
 20
18.6336650202
 10
-14.7754165392
 20
18.6461110002
 10
-14.7990779983
 20
18.6592738343
 10
-14.8225644289
 20
18.6731462368
 10
-14.8458626863
 20
18.6877204442
 10
-14.8689597103
 20
18.7029883112
 10
-14.8918423023
 20
18.7189413976
 10
-14.9144976681
 20
18.735570786
 10
-14.9369130948
 20
18.7528671712
 10
-14.9590756947
 20
18.7708209687
 10
-14.9809730646
 20
18.7894221313
 10
-15.0025929283
 20
18.8086602538
 10
-15.0239228097
 20
18.8285246735
 10
-15.0449507723
 20
18.8490042751
 10
-15.0656650244
 20
18.8700875947
 10
-15.0860535588
 20
18.8917629321
 10
-15.1061049653
 20
18.9140181587
 10
-15.1258079971
 20
18.9368408081
 10
-15.1451511749
 20
18.9602181858
 10
-15.1641236599
 20
18.9841371933
 10
-15.1827148221
 20
19.0085844374
 10
-15.200913804
 20
19.0335463249
 10
-15.2187104171
 20
19.0590088858
 10
-15.2360946757
 20
19.0849578376
 10
-15.253056365
 20
19.1113786952
 10
-15.269585969
 20
19.1382566383
 10
-15.2856742321
 20
19.165576609
 10
-15.3013116932
 20
19.1933233767
 10
-15.3164895886
 20
19.2214814023
 10
-15.3311994039
 20
19.2500348769
 10
-15.3454324387
 20
19.2789678155
 10
-15.3591807001
 20
19.3082639808
 10
-15.3724364918
 20
19.3379069443
 10
-15.3851919677
 20
19.3678801237
 10
-15.397439967
 20
19.3981667122
 10
-15.4091736265
 20
19.4287497019
 10
-15.4203859767
 20
19.4596119406
 10
-15.4310707157
 20
19.4907361108
 10
-15.4412218621
 20
19.5221047356
 10
-15.4508333751
 20
19.5537001992
 10
-15.4598998448
 20
19.5855047591
 10
-15.4684162028
 20
19.6175005608
 10
-15.4763773832
 20
19.6496696397
 10
-15.4837788237
 20
19.6819939316
 10
-15.4906164656
 20
19.7144552835
 10
-15.4968864694
 20
19.7470354653
  0
LINE
  5
2F2
100
AcDbEntity
  8
ASSI
100
AcDbLine
 62
7
  6
CONTINUOUS
 10
-14.1719012704
 20
18.5636503588
 11
-14.1612088858
 21
18.5646659281
  0
LWPOLYLINE
  5
2F3
100
AcDbEntity
  8
ASSI
100
AcDbPolyline
 62
7
  6
CONTINUOUS
 90
5
 70
0
 10
-14.1998974153
 20
18.7115568238
 10
-14.1764684471
 20
18.7134841496
 10
-14.1531686541
 20
18.7162159244
 10
-14.1299982891
 20
18.7197537218
 10
-14.1169113187
 20
18.7221183081
  0
LWPOLYLINE
  5
2F4
100
AcDbEntity
  8
RACCORDO
100
AcDbPolyline
 62
253
  6
CONTINUOUS
 90
25
 70
0
 10
-6.3585630923
 20
19.2928773761
 10
-6.3371280071
 20
19.2938491163
 10
-6.3158087011
 20
19.2949096296
 10
-6.2946210283
 20
19.2960581299
 10
-6.2735807904
 20
19.2972937951
 10
-6.2527035427
 20
19.2986156754
 10
-6.2320047652
 20
19.3000227913
 10
-6.2114998738
 20
19.3015141307
 10
-6.1912040575
 20
19.3030885545
 10
-6.1711324452
 20
19.3047448872
 10
-6.1513000865
 20
19.3064819229
 10
-6.1317215796
 20
19.3082983466
 10
-6.1124113603
 20
19.3101928141
 10
-6.0933838613
 20
19.3121639484
 10
-6.0746531368
 20
19.3142102621
 10
-6.0562330278
 20
19.3163302394
 10
-6.0381372812
 20
19.3185223408
 10
-6.0203793619
 20
19.3207848989
 10
-6.0029726433
 20
19.3231161926
 10
-5.9859303921
 20
19.3255144805
 10
-5.9692647968
 20
19.3279780238
 10
-5.9529875221
 20
19.3305051024
 10
-5.9371104759
 20
19.3330939324
 10
-5.9216462868
 20
19.3357424
 10
-5.9066078027
 20
19.3384482475
  0
LWPOLYLINE
  5
2F5
100
AcDbEntity
  8
ASSI
100
AcDbPolyline
 62
253
  6
CONTINUOUS
 90
25
 70
0
 10
-6.3585630923
 20
19.2928773761
 10
-6.3371280071
 20
19.2938491163
 10
-6.3158087011
 20
19.2949096296
 10
-6.2946210283
 20
19.2960581299
 10
-6.2735807904
 20
19.2972937951
 10
-6.2527035427
 20
19.2986156754
 10
-6.2320047652
 20
19.3000227913
 10
-6.2114998738
 20
19.3015141307
 10
-6.1912040575
 20
19.3030885545
 10
-6.1711324452
 20
19.3047448872
 10
-6.1513000865
 20
19.3064819229
 10
-6.1317215796
 20
19.3082983466
 10
-6.1124113603
 20
19.3101928141
 10
-6.0933838613
 20
19.3121639484
 10
-6.0746531368
 20
19.3142102621
 10
-6.0562330278
 20
19.3163302394
 10
-6.0381372812
 20
19.3185223408
 10
-6.0203793619
 20
19.3207848989
 10
-6.0029726433
 20
19.3231161926
 10
-5.9859303921
 20
19.3255144805
 10
-5.9692647968
 20
19.3279780238
 10
-5.9529875221
 20
19.3305051024
 10
-5.9371104759
 20
19.3330939324
 10
-5.9216462868
 20
19.3357424
 10
-5.9066078027
 20
19.3384482475
  0
LINE
  5
2F6
100
AcDbEntity
  8
RACCORDO
100
AcDbLine
 62
253
  6
CONTINUOUS
 10
-6.3466703142
 20
18.6012530664
 11
-6.3898237796
 21
18.5995592809
  0
LINE
  5
2F7
100
AcDbEntity
  8
ASSI
100
AcDbLine
 62
253
  6
CONTINUOUS
 10
-6.3466703142
 20
18.6012530664
 11
-6.3898237796
 21
18.5995592809
  0
LINE
  5
2F8
100
AcDbEntity
  8
RACCORDO
100
AcDbLine
 62
253
  6
CONTINUOUS
 10
-6.3836989551
 20
18.8290879902
 11
-6.4160692889
 21
18.8278248354
  0
LINE
  5
2F9
100
AcDbEntity
  8
ASSI
100
AcDbLine
 62
253
  6
CONTINUOUS
 10
-6.3836989551
 20
18.8290879902
 11
-6.4160692889
 21
18.8278248354
  0
LINE
  5
2FA
100
AcDbEntity
  8
RACCORDO
100
AcDbLine
 62
253
  6
CONTINUOUS
 10
-6.3898237796
 20
18.5995592809
 11
-6.4332487188
 21
18.5982293074
  0
LINE
  5
2FB
100
AcDbEntity
  8
ASSI
100
AcDbLine
 62
253
  6
CONTINUOUS
 10
-6.3898237796
 20
18.5995592809
 11
-6.4332487188
 21
18.5982293074
  0
LINE
  5
2FC
100
AcDbEntity
  8
RACCORDO
100
AcDbLine
 62
253
  6
CONTINUOUS
 10
-6.4160692889
 20
18.8278248354
 11
-6.4486310999
 21
18.8268345377
  0
LINE
  5
2FD
100
AcDbEntity
  8
ASSI
100
AcDbLine
 62
253
  6
CONTINUOUS
 10
-6.4160692889
 20
18.8278248354
 11
-6.4486310999
 21
18.8268345377
  0
LINE
  5
2FE
100
AcDbEntity
  8
RACCORDO
100
AcDbLine
 62
253
  6
CONTINUOUS
 10
-6.4332487188
 20
18.5982293074
 11
-6.476816183
 21
18.5972670888
  0
LINE
  5
2FF
100
AcDbEntity
  8
ASSI
100
AcDbLine
 62
253
  6
CONTINUOUS
 10
-6.4332487188
 20
18.5982293074
 11
-6.476816183
 21
18.5972670888
  0
LINE
  5
300
100
AcDbEntity
  8
RACCORDO
100
AcDbLine
 62
253
  6
CONTINUOUS
 10
-6.4486310999
 20
18.8268345377
 11
-6.4813119204
 21
18.826119301
  0
LINE
  5
301
100
AcDbEntity
  8
ASSI
100
AcDbLine
 62
253
  6
CONTINUOUS
 10
-6.4486310999
 20
18.8268345377
 11
-6.4813119204
 21
18.826119301
  0
LWPOLYLINE
  5
302
100
AcDbEntity
  8
0
100
AcDbPolyline
 62
7
  6
CONTINUOUS
 90
7
 70
0
 10
-14.2470056395
 20
18.7101284033
 10
-14.2234097584
 20
18.7104377147
 10
-14.1998974153
 20
18.7115568238
 10
-14.1764684471
 20
18.7134841496
 10
-14.1531686541
 20
18.7162159244
 10
-14.1299982891
 20
18.7197537218
 10
-14.1169113187
 20
18.7221183081
  0
LINE
  5
303
100
AcDbEntity
  8
RACCORDO
100
AcDbLine
 62
253
  6
CONTINUOUS
 10
-6.476816183
 20
18.5972670888
 11
-6.520396467
 21
18.5966755295
  0
LINE
  5
304
100
AcDbEntity
  8
ASSI
100
AcDbLine
 62
253
  6
CONTINUOUS
 10
-6.476816183
 20
18.5972670888
 11
-6.520396467
 21
18.5966755295
  0
LINE
  5
305
100
AcDbEntity
  8
RACCORDO
100
AcDbLine
 62
253
  6
CONTINUOUS
 10
-6.4813119204
 20
18.826119301
 11
-6.5140023519
 21
18.8256819066
  0
LINE
  5
306
100
AcDbEntity
  8
ASSI
100
AcDbLine
 62
253
  6
CONTINUOUS
 10
-6.4813119204
 20
18.826119301
 11
-6.5140023519
 21
18.8256819066
  0
LINE
  5
307
100
AcDbEntity
  8
RACCORDO
100
AcDbLine
 62
253
  6
CONTINUOUS
 10
-6.520396467
 20
18.5966755295
 11
-6.5638604094
 21
18.5964563454
  0
LINE
  5
308
100
AcDbEntity
  8
ASSI
100
AcDbLine
 62
253
  6
CONTINUOUS
 10
-6.520396467
 20
18.5966755295
 11
-6.5638604094
 21
18.5964563454
  0
LINE
  5
309
100
AcDbEntity
  8
RACCORDO
100
AcDbLine
 62
253
  6
CONTINUOUS
 10
-6.5140023519
 20
18.8256819066
 11
-6.5465933813
 21
18.8255234257
  0
LINE
  5
30A
100
AcDbEntity
  8
ASSI
100
AcDbLine
 62
253
  6
CONTINUOUS
 10
-6.5140023519
 20
18.8256819066
 11
-6.5465933813
 21
18.8255234257
  0
LWPOLYLINE
  5
30B
100
AcDbEntity
  8
RACCORDO
100
AcDbPolyline
 62
253
  6
CONTINUOUS
 90
22
 70
0
 10
-6.5638604094
 20
18.5964563454
 10
-6.6070789842
 20
18.5966101858
 10
-6.6285560326
 20
18.5968269141
 10
-6.6499236705
 20
18.5971366325
 10
-6.6711660479
 20
18.5975391104
 10
-6.6922673687
 20
18.5980340855
 10
-6.7132119858
 20
18.5986211571
 10
-6.7339842782
 20
18.5992998833
 10
-6.7545686951
 20
18.6000697932
 10
-6.7749500685
 20
18.6009302847
 10
-6.7951133597
 20
18.6018807148
 10
-6.8150435253
 20
18.6029204149
 10
-6.8347258321
 20
18.604048587
 10
-6.8541457234
 20
18.6052643889
 10
-6.8732887328
 20
18.6065669592
 10
-6.8921406002
 20
18.6079552938
 10
-6.9106871083
 20
18.6094283246
 10
-6.9289141486
 20
18.6109849688
 10
-6.946808689
 20
18.6126240928
 10
-6.9643581984
 20
18.6143445466
 10
-6.9815498634
 20
18.6161451344
 10
-6.9983699554
 20
18.6180243728
  0
LWPOLYLINE
  5
30C
100
AcDbEntity
  8
ASSI
100
AcDbPolyline
 62
253
  6
CONTINUOUS
 90
22
 70
0
 10
-6.5638604094
 20
18.5964563454
 10
-6.6070789842
 20
18.5966101858
 10
-6.6285560326
 20
18.5968269141
 10
-6.6499236705
 20
18.5971366325
 10
-6.6711660479
 20
18.5975391104
 10
-6.6922673687
 20
18.5980340855
 10
-6.7132119858
 20
18.5986211571
 10
-6.7339842782
 20
18.5992998833
 10
-6.7545686951
 20
18.6000697932
 10
-6.7749500685
 20
18.6009302847
 10
-6.7951133597
 20
18.6018807148
 10
-6.8150435253
 20
18.6029204149
 10
-6.8347258321
 20
18.604048587
 10
-6.8541457234
 20
18.6052643889
 10
-6.8732887328
 20
18.6065669592
 10
-6.8921406002
 20
18.6079552938
 10
-6.9106871083
 20
18.6094283246
 10
-6.9289141486
 20
18.6109849688
 10
-6.946808689
 20
18.6126240928
 10
-6.9643581984
 20
18.6143445466
 10
-6.9815498634
 20
18.6161451344
 10
-6.9983699554
 20
18.6180243728
  0
LWPOLYLINE
  5
30D
100
AcDbEntity
  8
RACCORDO
100
AcDbPolyline
 62
253
  6
CONTINUOUS
 90
22
 70
0
 10
-6.5465933813
 20
18.8255234257
 10
-6.5790125082
 20
18.8256442105
 10
-6.5951167777
 20
18.8258093609
 10
-6.6111509619
 20
18.8260442465
 10
-6.6270793943
 20
18.8263483448
 10
-6.6429018625
 20
18.826721811
 10
-6.6586185789
 20
18.8271644899
 10
-6.6741945138
 20
18.8276753942
 10
-6.6896293123
 20
18.8282546742
 10
-6.7049233292
 20
18.8289021795
 10
-6.7200425999
 20
18.8296164714
 10
-6.734986758
 20
18.8303976989
 10
-6.7497561699
 20
18.8312457129
 10
-6.7643179698
 20
18.8321586277
 10
-6.7786717283
 20
18.8331365915
 10
-6.7928178749
 20
18.8341794562
 10
-6.8067248317
 20
18.8352848906
 10
-6.8203923211
 20
18.8364530673
 10
-6.8338206208
 20
18.8376838139
 10
-6.8469789863
 20
18.8389742819
 10
-6.8598571694
 20
18.8403235219
 10
-6.8724654182
 20
18.8417324835
  0
LWPOLYLINE
  5
30E
100
AcDbEntity
  8
ASSI
100
AcDbPolyline
 62
253
  6
CONTINUOUS
 90
22
 70
0
 10
-6.5465933813
 20
18.8255234257
 10
-6.5790125082
 20
18.8256442105
 10
-6.5951167777
 20
18.8258093609
 10
-6.6111509619
 20
18.8260442465
 10
-6.6270793943
 20
18.8263483448
 10
-6.6429018625
 20
18.826721811
 10
-6.6586185789
 20
18.8271644899
 10
-6.6741945138
 20
18.8276753942
 10
-6.6896293123
 20
18.8282546742
 10
-6.7049233292
 20
18.8289021795
 10
-6.7200425999
 20
18.8296164714
 10
-6.734986758
 20
18.8303976989
 10
-6.7497561699
 20
18.8312457129
 10
-6.7643179698
 20
18.8321586277
 10
-6.7786717283
 20
18.8331365915
 10
-6.7928178749
 20
18.8341794562
 10
-6.8067248317
 20
18.8352848906
 10
-6.8203923211
 20
18.8364530673
 10
-6.8338206208
 20
18.8376838139
 10
-6.8469789863
 20
18.8389742819
 10
-6.8598571694
 20
18.8403235219
 10
-6.8724654182
 20
18.8417324835
  0
LINE
  5
30F
100
AcDbEntity
  8
ASSI
100
AcDbLine
 62
7
  6
CONTINUOUS
 10
-14.0335954442
 20
18.759214537
 11
-13.9927777092
 21
18.7584295847
  0
LINE
  5
310
100
AcDbEntity
  8
0
100
AcDbLine
 62
7
  6
CONTINUOUS
 10
-14.2706848956
 20
18.7106273086
 11
-14.2470056395
 21
18.7101284033
  0
LWPOLYLINE
  5
311
100
AcDbEntity
  8
ASSI
100
AcDbPolyline
 62
7
  6
CONTINUOUS
 90
5
 70
0
 10
-14.2944012371
 20
18.7119334552
 10
-14.2706848956
 20
18.7106273086
 10
-14.2470056395
 20
18.7101284033
 10
-14.2234097584
 20
18.7104377147
 10
-14.1998974153
 20
18.7115568238
  0
LWPOLYLINE
  5
312
100
AcDbEntity
  8
RACCORDO
100
AcDbPolyline
 62
253
  6
CONTINUOUS
 90
5
 70
0
 10
-14.0672295806
 20
18.7570517304
 10
-14.0523137204
 20
18.7559250622
 10
-14.0302176585
 20
18.7549551869
 10
-14.0081712332
 20
18.7546878145
 10
-14.0022401671
 20
18.7548052481
  0
LWPOLYLINE
  5
313
100
AcDbEntity
  8
ASSI
100
AcDbPolyline
 62
253
  6
CONTINUOUS
 90
3
 70
0
 10
-14.0672295806
 20
18.7570517304
 10
-14.0523137204
 20
18.7559250622
 10
-14.0302176585
 20
18.7549551869
  0
LWPOLYLINE
  5
314
100
AcDbEntity
  8
0
100
AcDbPolyline
 62
7
  6
CONTINUOUS
 90
3
 70
0
 10
-14.3087236969
 20
18.7132087002
 10
-14.2944012371
 20
18.7119334552
 10
-14.2706848956
 20
18.7106273086
  0
LINE
  5
315
100
AcDbEntity
  8
ASSI
100
AcDbLine
 62
7
  6
CONTINUOUS
 10
-14.3087236969
 20
18.7132087002
 11
-14.2944012371
 21
18.7119334552
  0
LWPOLYLINE
  5
316
100
AcDbEntity
  8
RACCORDO
100
AcDbPolyline
 62
7
  6
CONTINUOUS
 90
4
 70
0
 10
-14.04796086
 20
18.7607296838
 10
-14.0371857896
 20
18.7595340948
 10
-14.0153573393
 20
18.7579408011
 10
-13.995699714
 20
18.7572633482
  0
LWPOLYLINE
  5
317
100
AcDbEntity
  8
RACCORDO
100
AcDbPolyline
 62
253
  6
CONTINUOUS
 90
82
 70
0
 10
-14.5970834534
 20
18.8666565537
 10
-14.5848410194
 20
18.8652801408
 10
-14.5717815362
 20
18.8640929019
 10
-14.5579106501
 20
18.863150365
 10
-14.5431952827
 20
18.8625103232
 10
-14.5276850739
 20
18.8622386804
 10
-14.5115117973
 20
18.8623986089
 10
-14.4946962354
 20
18.8630483893
 10
-14.4772446678
 20
18.8642489624
 10
-14.4592684925
 20
18.8660524682
 10
-14.4407917851
 20
18.8685138418
 10
-14.4218286432
 20
18.8716907371
 10
-14.4024764356
 20
18.8756249019
 10
-14.3827880368
 20
18.8803599346
 10
-14.3627592324
 20
18.8859530238
 10
-14.3424041604
 20
18.8924608889
 10
-14.3218055085
 20
18.8999174473
 10
-14.3009438427
 20
18.9083922066
 10
-14.2796906597
 20
18.9180172012
 10
-14.2581093699
 20
18.928857618
 10
-14.2362330463
 20
18.9409950587
 10
-14.2139110803
 20
18.9546348142
 10
-14.1911996717
 20
18.9698905744
 10
-14.1681953206
 20
18.9868542701
 10
-14.1448400167
 20
19.0057490395
 10
-14.1212179654
 20
19.0267182818
 10
-14.0974709476
 20
19.0498625218
 10
-14.0736602416
 20
19.0753715937
 10
-14.0499320065
 20
19.1033681582
 10
-14.0264453421
 20
19.1339665501
 10
-14.0033150021
 20
19.1673574428
 10
-13.9807174661
 20
19.2036752852
 10
-13.9588783416
 20
19.2429860254
 10
-13.9380154007
 20
19.2853687236
 10
-13.9183049268
 20
19.3310190395
 10
-13.9000606018
 20
19.3798386117
 10
-13.8836679594
 20
19.4313880333
 10
-13.8693139033
 20
19.485675148
 10
-13.8572269388
 20
19.5425471386
 10
-13.8477088682
 20
19.6011951603
 10
-13.840872082
 20
19.6613771368
 10
-13.8368035913
 20
19.7229645598
 10
-13.8355917007
 20
19.78523008
 10
-13.8372391572
 20
19.8478284656
 10
-13.8417390325
 20
19.9106463515
 10
-13.8490548383
 20
19.9732812777
 10
-13.8591380663
 20
20.0354915546
 10
-13.8719344665
 20
20.0970679245
 10
-13.8873441014
 20
20.1576658145
 10
-13.9053870847
 20
20.2174161728
 10
-13.9258842522
 20
20.2757698594
 10
-13.9482648561
 20
20.331450413
 10
-13.9722335304
 20
20.384260328
 10
-13.9975984593
 20
20.4342534292
 10
-14.0237291769
 20
20.4807110943
 10
-14.0501070275
 20
20.5233403447
 10
-14.0766767034
 20
20.562617738
 10
-14.1034926985
 20
20.5990393576
 10
-14.1304532452
 20
20.6327874622
 10
-14.1573130296
 20
20.6638519583
 10
-14.1839791995
 20
20.6924050188
 10
-14.210275054
 20
20.7185153486
 10
-14.2361159977
 20
20.7423400841
 10
-14.2615847213
 20
20.7641584879
 10
-14.2865749742
 20
20.784054411
 10
-14.3110224483
 20
20.8021420948
 10
-14.3351097346
 20
20.8186919905
 10
-14.3588294242
 20
20.8338051203
 10
-14.3820838636
 20
20.8475210128
 10
-14.4049429974
 20
20.8599741687
 10
-14.4274207315
 20
20.8712509675
 10
-14.4494308652
 20
20.8813842353
 10
-14.47090145
 20
20.8904198858
 10
-14.4918189666
 20
20.8984299296
 10
-14.5121433223
 20
20.9054738991
 10
-14.5317659474
 20
20.9115916208
 10
-14.5506781364
 20
20.9168586154
 10
-14.5688523132
 20
20.9213421666
 10
-14.5861546301
 20
20.9250869451
 10
-14.6025336022
 20
20.928162747
 10
-14.6180204342
 20
20.9306520563
 10
-14.6326086643
 20
20.9326245991
  0
LINE
  5
318
100
AcDbEntity
  8
ASSI
100
AcDbLine
 62
7
  6
CONTINUOUS
 10
-14.0460685597
 20
18.7610908801
 11
-14.0335954442
 21
18.759214537
  0
LWPOLYLINE
  5
319
100
AcDbEntity
  8
RACCORDO
100
AcDbPolyline
 62
7
  6
CONTINUOUS
 90
49
 70
0
 10
-14.4891518617
 20
18.7141316829
 10
-14.5463492148
 20
18.723279256
 10
-14.6035514989
 20
18.7367064318
 10
-14.6605445839
 20
18.7544270545
 10
-14.7170887853
 20
18.7764274293
 10
-14.7729988355
 20
18.802696518
 10
-14.8281463134
 20
18.8332495147
 10
-14.8825084558
 20
18.8681878442
 10
-14.9356802202
 20
18.9073712607
 10
-14.9870089971
 20
18.9503520363
 10
-15.0361807458
 20
18.9968102728
 10
-15.0832214102
 20
19.0467181573
 10
-15.1280369683
 20
19.0999665274
 10
-15.1705699967
 20
19.1565144253
 10
-15.2105764841
 20
19.2160748177
 10
-15.2477192107
 20
19.2781176509
 10
-15.2818358014
 20
19.3422694622
 10
-15.3129263454
 20
19.4084317448
 10
-15.3409386218
 20
19.476438085
 10
-15.3658121274
 20
19.5461196175
 10
-15.3874453444
 20
19.6171820267
 10
-15.4057396497
 20
19.6892593125
 10
-15.4206434962
 20
19.7620712104
 10
-15.4321282021
 20
19.8354072986
 10
-15.4401601817
 20
19.9089976613
 10
-15.4447180489
 20
19.9825881941
 10
-15.4457889593
 20
20.0559468346
 10
-15.4433649017
 20
20.1288408741
 10
-15.4374357791
 20
20.2011051802
 10
-15.4280064478
 20
20.2724265656
 10
-15.415129693
 20
20.3423680752
 10
-15.3988637014
 20
20.4106648371
 10
-15.3792531246
 20
20.4771480196
 10
-15.3563762191
 20
20.5415538697
 10
-15.3302661914
 20
20.6037665096
 10
-15.3010292766
 20
20.6635005511
 10
-15.2689154227
 20
20.7202897247
 10
-15.2341596327
 20
20.7738427798
 10
-15.196816133
 20
20.8241838098
 10
-15.1568914114
 20
20.8713375024
 10
-15.1144006539
 20
20.9152581807
 10
-15.0695831684
 20
20.9556699711
 10
-15.0228089374
 20
20.9922707514
 10
-14.9743936826
 20
21.0248994338
 10
-14.9244297708
 20
21.0535778569
 10
-14.8729934996
 20
21.0783093343
 10
-14.8202505994
 20
21.0990392914
 10
-14.7664627975
 20
21.1156934568
 10
-14.7118539491
 20
21.1282401853
  0
LWPOLYLINE
  5
31A
100
AcDbEntity
  8
ASSI
100
AcDbPolyline
 62
253
  6
CONTINUOUS
 90
9
 70
0
 10
-22.2238510145
 20
20.7376468884
 10
-22.2304868015
 20
20.7398642602
 10
-22.2367181639
 20
20.7421174739
 10
-22.242531208
 20
20.7444015078
 10
-22.2479249915
 20
20.746716427
 10
-22.2529004568
 20
20.7490621664
 10
-22.2574465369
 20
20.751433508
 10
-22.2615622781
 20
20.7538305103
 10
-22.2652486341
 20
20.7562531147
  0
LWPOLYLINE
  5
31B
100
AcDbEntity
  8
RACCORDO
100
AcDbPolyline
 62
253
  6
CONTINUOUS
 90
40
 70
0
 10
-15.7868002946
 20
20.3877924232
 10
-15.7808093352
 20
20.385353598
 10
-15.7746116425
 20
20.3829596678
 10
-15.7682172729
 20
20.3806145145
 10
-15.761636602
 20
20.3783219397
 10
-15.7548803071
 20
20.3760856628
 10
-15.7479593502
 20
20.3739093155
 10
-15.7408849607
 20
20.3717964283
 10
-15.7336686175
 20
20.3697504275
 10
-15.7263220289
 20
20.3677746351
 10
-15.7188571152
 20
20.3658722562
 10
-15.7112859884
 20
20.3640463765
 10
-15.703620933
 20
20.3622999597
 10
-15.6958743856
 20
20.3606358393
 10
-15.6880589154
 20
20.3590567146
 10
-15.6801872032
 20
20.3575651485
 10
-15.672272021
 20
20.3561635611
 10
-15.6643262116
 20
20.354854226
 10
-15.6563626672
 20
20.353639268
 10
-15.6483943088
 20
20.3525206584
 10
-15.6404340656
 20
20.3515002121
 10
-15.6324948531
 20
20.3505795847
 10
-15.624589553
 20
20.3497602703
 10
-15.6167309919
 20
20.349043598
 10
-15.6089319205
 20
20.3484307303
 10
-15.6012049931
 20
20.3479226622
 10
-15.5935627467
 20
20.347520218
 10
-15.5860175814
 20
20.34722405
 10
-15.5785817391
 20
20.3470346394
 10
-15.5712672849
 20
20.3469522937
 10
-15.5640860867
 20
20.3469771454
 10
-15.5570497962
 20
20.3471091552
 10
-15.5501698298
 20
20.3473481094
 10
-15.5434573508
 20
20.3476936181
 10
-15.5369232501
 20
20.3481451228
 10
-15.5305781294
 20
20.3487018912
 10
-15.5244322844
 20
20.349363017
 10
-15.5184956868
 20
20.3501274278
 10
-15.5127779683
 20
20.3509938869
 10
-15.5072884058
 20
20.3519609905
  0
LWPOLYLINE
  5
31C
100
AcDbEntity
  8
ASSI
100
AcDbPolyline
 62
253
  6
CONTINUOUS
 90
40
 70
0
 10
-15.7868002946
 20
20.3877924232
 10
-15.7808093352
 20
20.385353598
 10
-15.7746116425
 20
20.3829596678
 10
-15.7682172729
 20
20.3806145145
 10
-15.761636602
 20
20.3783219397
 10
-15.7548803071
 20
20.3760856628
 10
-15.7479593502
 20
20.3739093155
 10
-15.7408849607
 20
20.3717964283
 10
-15.7336686175
 20
20.3697504275
 10
-15.7263220289
 20
20.3677746351
 10
-15.7188571152
 20
20.3658722562
 10
-15.7112859884
 20
20.3640463765
 10
-15.703620933
 20
20.3622999597
 10
-15.6958743856
 20
20.3606358393
 10
-15.6880589154
 20
20.3590567146
 10
-15.6801872032
 20
20.3575651485
 10
-15.672272021
 20
20.3561635611
 10
-15.6643262116
 20
20.354854226
 10
-15.6563626672
 20
20.353639268
 10
-15.6483943088
 20
20.3525206584
 10
-15.6404340656
 20
20.3515002121
 10
-15.6324948531
 20
20.3505795847
 10
-15.624589553
 20
20.3497602703
 10
-15.6167309919
 20
20.349043598
 10
-15.6089319205
 20
20.3484307303
 10
-15.6012049931
 20
20.3479226622
 10
-15.5935627467
 20
20.347520218
 10
-15.5860175814
 20
20.34722405
 10
-15.5785817391
 20
20.3470346394
 10
-15.5712672849
 20
20.3469522937
 10
-15.5640860867
 20
20.3469771454
 10
-15.5570497962
 20
20.3471091552
 10
-15.5501698298
 20
20.3473481094
 10
-15.5434573508
 20
20.3476936181
 10
-15.5369232501
 20
20.3481451228
 10
-15.5305781294
 20
20.3487018912
 10
-15.5244322844
 20
20.349363017
 10
-15.5184956868
 20
20.3501274278
 10
-15.5127779683
 20
20.3509938869
 10
-15.5072884058
 20
20.3519609905
  0
LWPOLYLINE
  5
31D
100
AcDbEntity
  8
RACCORDO
100
AcDbPolyline
 62
253
  6
CONTINUOUS
 90
23
 70
0
 10
-13.4490859629
 20
19.4103064114
 10
-13.4548632183
 20
19.4127860278
 10
-13.4604146581
 20
19.4153033128
 10
-13.4657312747
 20
19.4178541842
 10
-13.4708044411
 20
19.4204345067
 10
-13.4756259258
 20
19.4230400941
 10
-13.4801879063
 20
19.4256667155
 10
-13.4844829807
 20
19.4283101098
 10
-13.4885041796
 20
19.4309659897
 10
-13.4922449789
 20
19.433630044
 10
-13.495699309
 20
19.4362979506
 10
-13.4988615649
 20
19.4389653818
 10
-13.501726616
 20
19.4416280084
 10
-13.5042898136
 20
19.4442815105
 10
-13.5065469988
 20
19.4469215833
 10
-13.5084945093
 20
19.4495439426
 10
-13.5101291852
 20
19.4521443335
 10
-13.5114483742
 20
19.4547185372
 10
-13.5124499359
 20
19.4572623768
 10
-13.5131322453
 20
19.4597717247
 10
-13.5134941952
 20
19.4622425095
 10
-13.5135351983
 20
19.4646707225
 10
-13.5133492889
 20
19.466500621
  0
LWPOLYLINE
  5
31E
100
AcDbEntity
  8
ASSI
100
AcDbPolyline
 62
253
  6
CONTINUOUS
 90
23
 70
0
 10
-13.4490859629
 20
19.4103064114
 10
-13.4548632183
 20
19.4127860278
 10
-13.4604146581
 20
19.4153033128
 10
-13.4657312747
 20
19.4178541842
 10
-13.4708044411
 20
19.4204345067
 10
-13.4756259258
 20
19.4230400941
 10
-13.4801879063
 20
19.4256667155
 10
-13.4844829807
 20
19.4283101098
 10
-13.4885041796
 20
19.4309659897
 10
-13.4922449789
 20
19.433630044
 10
-13.495699309
 20
19.4362979506
 10
-13.4988615649
 20
19.4389653818
 10
-13.501726616
 20
19.4416280084
 10
-13.5042898136
 20
19.4442815105
 10
-13.5065469988
 20
19.4469215833
 10
-13.5084945093
 20
19.4495439426
 10
-13.5101291852
 20
19.4521443335
 10
-13.5114483742
 20
19.4547185372
 10
-13.5124499359
 20
19.4572623768
 10
-13.5131322453
 20
19.4597717247
 10
-13.5134941952
 20
19.4622425095
 10
-13.5135351983
 20
19.4646707225
 10
-13.5133526112
 20
19.4664790019
  0
LWPOLYLINE
  5
31F
100
AcDbEntity
  8
RACCORDO
100
AcDbPolyline
 62
7
  6
CONTINUOUS
 90
3
 70
0
 10
-13.5216156934
 20
20.0788789412
 10
-13.5233818601
 20
20.0865968891
 10
-13.5243548283
 20
20.0915899426
  0
LINE
  5
320
100
AcDbEntity
  8
ASSI
100
AcDbLine
 62
7
  6
CONTINUOUS
 10
-13.5215711117
 20
20.0787008203
 11
-13.5243546069
 21
20.0915889805
  0
LINE
  5
321
100
AcDbEntity
  8
ASSI
100
AcDbLine
 62
7
  6
CONTINUOUS
 10
-13.5326655041
 20
20.1346316399
 11
-13.5243557119
 21
20.0915946658
  0
LWPOLYLINE
  5
322
100
AcDbEntity
  8
CURVE
100
AcDbPolyline
 62
252
  6
CONTINUOUS
 90
3
 70
0
 10
-13.7232544187
 20
7.1284459615
 10
-13.7257206531
 20
7.1504377597
 10
-13.7289321957
 20
7.173640746
  0
LWPOLYLINE
  5
323
100
AcDbEntity
  8
RACCORDO
100
AcDbPolyline
 62
253
  6
CONTINUOUS
 90
32
 70
0
 10
-13.4609818421
 20
20.1021110676
 10
-13.460742898
 20
20.094170863
 10
-13.4602876364
 20
20.0862845448
 10
-13.4596167971
 20
20.0784649237
 10
-13.4587314696
 20
20.0707247019
 10
-13.4576330922
 20
20.0630764529
 10
-13.456323449
 20
20.0555326006
 10
-13.4548046675
 20
20.0481053992
 10
-13.4530792148
 20
20.0408069138
 10
-13.4511498938
 20
20.033649
 10
-13.4490198384
 20
20.0266432853
 10
-13.4466925087
 20
20.0198011498
 10
-13.4441716854
 20
20.0131337081
 10
-13.4414614633
 20
20.0066517908
 10
-13.4385662448
 20
20.0003659272
 10
-13.4354907331
 20
19.9942863283
 10
-13.432239924
 20
19.9884228698
 10
-13.4288190982
 20
19.9827850763
 10
-13.4252338126
 20
19.9773821061
 10
-13.4214898911
 20
19.9722227357
 10
-13.4175934155
 20
19.9673153462
 10
-13.4135507151
 20
19.9626679091
 10
-13.4093683572
 20
19.9582879739
 10
-13.4050531354
 20
19.9541826553
 10
-13.4006120596
 20
19.9503586222
 10
-13.3960523439
 20
19.9468220863
 10
-13.3913813951
 20
19.9435787924
 10
-13.3866068008
 20
19.940634009
 10
-13.3817363171
 20
19.9379925197
 10
-13.3767778554
 20
19.9356586153
 10
-13.3717394705
 20
19.933636087
 10
-13.3666293467
 20
19.9319282203
  0
LWPOLYLINE
  5
324
100
AcDbEntity
  8
ASSI
100
AcDbPolyline
 62
253
  6
CONTINUOUS
 90
35
 70
0
 10
-13.4609818421
 20
20.1021110676
 10
-13.460742898
 20
20.094170863
 10
-13.4602876364
 20
20.0862845448
 10
-13.4596167971
 20
20.0784649237
 10
-13.4587314696
 20
20.0707247019
 10
-13.4576330922
 20
20.0630764529
 10
-13.456323449
 20
20.0555326006
 10
-13.4548046675
 20
20.0481053992
 10
-13.4530792148
 20
20.0408069138
 10
-13.4511498938
 20
20.033649
 10
-13.4490198384
 20
20.0266432853
 10
-13.4466925087
 20
20.0198011498
 10
-13.4441716854
 20
20.0131337081
 10
-13.4414614633
 20
20.0066517908
 10
-13.4385662448
 20
20.0003659272
 10
-13.4354907331
 20
19.9942863283
 10
-13.432239924
 20
19.9884228698
 10
-13.4288190982
 20
19.9827850763
 10
-13.4252338126
 20
19.9773821061
 10
-13.4214898911
 20
19.9722227357
 10
-13.4175934155
 20
19.9673153462
 10
-13.4135507151
 20
19.9626679091
 10
-13.4093683572
 20
19.9582879739
 10
-13.4050531354
 20
19.9541826553
 10
-13.4006120596
 20
19.9503586222
 10
-13.3960523439
 20
19.9468220863
 10
-13.3913813951
 20
19.9435787924
 10
-13.3866068008
 20
19.940634009
 10
-13.3817363171
 20
19.9379925197
 10
-13.3767778554
 20
19.9356586153
 10
-13.3717394705
 20
19.933636087
 10
-13.3666293467
 20
19.9319282203
 10
-13.3614557851
 20
19.9305377895
 10
-13.3562271896
 20
19.9294670532
 10
-13.3519594485
 20
19.9288355576
  0
LWPOLYLINE
  5
325
100
AcDbEntity
  8
0
100
AcDbPolyline
 62
7
  6
CONTINUOUS
 90
5
 70
0
 10
-13.4202042251
 20
19.8355857923
 10
-13.421052291
 20
19.8671860028
 10
-13.4225046164
 20
19.8987989446
 10
-13.4245612013
 20
19.9304246178
 10
-13.4265375796
 20
19.9539210007
  0
LWPOLYLINE
  5
326
100
AcDbEntity
  8
ASSI
100
AcDbPolyline
 62
7
  6
CONTINUOUS
 90
5
 70
0
 10
-13.4202042251
 20
19.8355857923
 10
-13.421052291
 20
19.8671860028
 10
-13.4225046164
 20
19.8987989446
 10
-13.4245612013
 20
19.9304246178
 10
-13.4265375796
 20
19.9539210007
  0
LWPOLYLINE
  5
327
100
AcDbEntity
  8
RACCORDO
100
AcDbPolyline
 62
253
  6
CONTINUOUS
 90
24
 70
0
 10
-13.4490859629
 20
19.4103064116
 10
-13.4491208489
 20
19.4182758264
 10
-13.4489394246
 20
19.4262764422
 10
-13.4485417835
 20
19.4342953068
 10
-13.4479282961
 20
19.4423202458
 10
-13.4470997887
 20
19.4503373982
 10
-13.4460577641
 20
19.4583312552
 10
-13.4448040652
 20
19.4662879528
 10
-13.4433406254
 20
19.4741954492
 10
-13.4416697837
 20
19.4820410685
 10
-13.4397942119
 20
19.4898121744
 10
-13.437716967
 20
19.4974960208
 10
-13.4354414643
 20
19.5050799483
 10
-13.4329714233
 20
19.512551572
 10
-13.4303108389
 20
19.5198988188
 10
-13.4274640241
 20
19.5271097763
 10
-13.424435597
 20
19.5341727406
 10
-13.4212304817
 20
19.5410762223
 10
-13.4178538911
 20
19.5478089903
 10
-13.4143113137
 20
19.5543601009
 10
-13.4106085026
 20
19.5607189152
 10
-13.4067514726
 20
19.566875103
 10
-13.4027464894
 20
19.5728186628
 10
-13.3986000602
 20
19.5785399367
  0
LWPOLYLINE
  5
328
100
AcDbEntity
  8
ASSI
100
AcDbPolyline
 62
253
  6
CONTINUOUS
 90
17
 70
0
 10
-13.4490859629
 20
19.4103064116
 10
-13.4491208489
 20
19.4182758264
 10
-13.4489394246
 20
19.4262764422
 10
-13.4485417835
 20
19.4342953068
 10
-13.4479282961
 20
19.4423202458
 10
-13.4470997887
 20
19.4503373982
 10
-13.4460577641
 20
19.4583312552
 10
-13.4448040652
 20
19.4662879528
 10
-13.4433406254
 20
19.4741954492
 10
-13.4416697837
 20
19.4820410685
 10
-13.4397942119
 20
19.4898121744
 10
-13.437716967
 20
19.4974960208
 10
-13.4354414643
 20
19.5050799483
 10
-13.4329714233
 20
19.512551572
 10
-13.4303108389
 20
19.5198988188
 10
-13.4274640241
 20
19.5271097763
 10
-13.424435597
 20
19.5341727406
  0
LINE
  5
329
100
AcDbEntity
  8
CURVE
100
AcDbLine
 62
252
  6
CONTINUOUS
 10
-14.6861612754
 20
7.3214926334
 11
-14.6836805391
 21
7.3433648731
  0
LWPOLYLINE
  5
32A
100
AcDbEntity
  8
0
100
AcDbPolyline
 62
7
  6
CONTINUOUS
 90
9
 70
0
 10
-13.4340250612
 20
19.596907252
 10
-13.4312704017
 20
19.6178661758
 10
-13.4278754885
 20
19.6484741563
 10
-13.4250838514
 20
19.6792790967
 10
-13.4228943128
 20
19.7102806127
 10
-13.4213111528
 20
19.7414181006
 10
-13.4203357983
 20
19.7726713592
 10
-13.4199668224
 20
19.8040605898
 10
-13.4202042251
 20
19.8355857923
  0
LWPOLYLINE
  5
32B
100
AcDbEntity
  8
ASSI
100
AcDbPolyline
 62
7
  6
CONTINUOUS
 90
9
 70
0
 10
-13.4340250612
 20
19.596907252
 10
-13.4312704017
 20
19.6178661758
 10
-13.4278754885
 20
19.6484741563
 10
-13.4250838514
 20
19.6792790967
 10
-13.4228943128
 20
19.7102806127
 10
-13.4213111528
 20
19.7414181006
 10
-13.4203357983
 20
19.7726713592
 10
-13.4199668224
 20
19.8040605898
 10
-13.4202042251
 20
19.8355857923
  0
LINE
  5
32C
100
AcDbEntity
  8
CURVE
100
AcDbLine
 62
252
  6
CONTINUOUS
 10
-14.683749317
 20
7.3428229744
 11
-14.6806596962
 21
7.3645890723
  0
LWPOLYLINE
  5
32D
100
AcDbEntity
  8
RACCORDO
100
AcDbPolyline
 62
7
  6
CONTINUOUS
 90
46
 70
0
 10
-13.5133493153
 20
19.466500628
 10
-13.5173322108
 20
19.4418906564
 10
-13.5227895964
 20
19.4113933982
 10
-13.5287740318
 20
19.3812068971
 10
-13.5352791079
 20
19.3513524896
 10
-13.5422997446
 20
19.3218435289
 10
-13.5498324564
 20
19.2926857198
 10
-13.557871073
 20
19.2638960735
 10
-13.5664091693
 20
19.2354914739
 10
-13.5754431628
 20
19.207477895
 10
-13.5849662434
 20
19.1798717666
 10
-13.5949713028
 20
19.1526896247
 10
-13.6054544494
 20
19.1259380654
 10
-13.6164081444
 20
19.0996330164
 10
-13.6278245769
 20
19.0737904516
 10
-13.6396994451
 20
19.048417455
 10
-13.6520243391
 20
19.0235295866
 10
-13.6647908269
 20
18.9991419141
 10
-13.6779945048
 20
18.9752611668
 10
-13.6916246795
 20
18.9519048159
 10
-13.7056737191
 20
18.9290844549
 10
-13.7201421683
 20
18.9067989331
 10
-13.7350187994
 20
18.8850655483
 10
-13.7502960754
 20
18.8638956024
 10
-13.7659812618
 20
18.8432811634
 10
-13.7820650862
 20
18.8232374894
 10
-13.7985385889
 20
18.8037790078
 10
-13.815411078
 20
18.7848995978
 10
-13.832676114
 20
18.766612422
 10
-13.8503225039
 20
18.7489354446
 10
-13.8683535755
 20
18.7318721356
 10
-13.8867650541
 20
18.7154339314
 10
-13.9055435447
 20
18.699640381
 10
-13.9246788731
 20
18.6845070748
 10
-13.9441614061
 20
18.6700478814
 10
-13.9639821813
 20
18.6562760331
 10
-13.9841319221
 20
18.6432044624
 10
-14.0046004636
 20
18.6308456764
 10
-14.0253796624
 20
18.619210976
 10
-14.0464636831
 20
18.6083101042
 10
-14.0678430443
 20
18.5981543058
 10
-14.0895101143
 20
18.5887541326
 10
-14.1114625993
 20
18.5801176561
 10
-14.133691559
 20
18.5722557889
 10
-14.1561901906
 20
18.5651789507
 10
-14.1789601851
 20
18.5588948732
  0
LINE
  5
32E
100
AcDbEntity
  8
ASSI
100
AcDbLine
 62
7
  6
CONTINUOUS
 10
-13.513352638
 20
19.4664790061
 11
-13.5171016916
 21
19.4433150149
  0
LWPOLYLINE
  5
32F
100
AcDbEntity
  8
RACCORDO
100
AcDbPolyline
 62
253
  6
CONTINUOUS
 90
115
 70
0
 10
-13.4490862951
 20
19.4103064524
 10
-13.4549399486
 20
19.3746116608
 10
-13.4614359442
 20
19.3392517286
 10
-13.4685743451
 20
19.3042266444
 10
-13.4763599801
 20
19.2695171125
 10
-13.4847881426
 20
19.2351424059
 10
-13.4938446073
 20
19.2011603634
 10
-13.5035305101
 20
19.1675716197
 10
-13.5138448662
 20
19.1343755119
 10
-13.5247702965
 20
19.1016279268
 10
-13.5363079226
 20
19.0693296187
 10
-13.5484567965
 20
19.0374798005
 10
-13.56119646
 20
19.0061320415
 10
-13.5745280067
 20
18.9752871833
 10
-13.5884505357
 20
18.9449443476
 10
-13.60294062
 20
18.9151545199
 10
-13.6179993306
 20
18.8859186061
 10
-13.6336258045
 20
18.8572356605
 10
-13.6497937326
 20
18.8291538873
 10
-13.6665041255
 20
18.8016743065
 10
-13.6837561917
 20
18.7747958558
 10
-13.7015209371
 20
18.7485636124
 10
-13.7197993536
 20
18.7229786275
 10
-13.7385906749
 20
18.6980398063
 10
-13.7578632845
 20
18.6737890037
 10
-13.7776180876
 20
18.6502273833
 10
-13.7978544065
 20
18.6273537373
 10
-13.8185382625
 20
18.6052063607
 10
-13.8396705349
 20
18.5837864408
 10
-13.8612505692
 20
18.5630927465
 10
-13.8832420951
 20
18.5431599427
 10
-13.9056458965
 20
18.523989304
 10
-13.9284614073
 20
18.5055795131
 10
-13.9516503382
 20
18.4879613464
 10
-13.9752134246
 20
18.471136109
 10
-13.9991501374
 20
18.4551024553
 10
-14.0234202938
 20
18.4398871846
 10
-14.0480245422
 20
18.4254916558
 10
-14.0729624249
 20
18.4119144726
 10
-14.0981921006
 20
18.3991783007
 10
-14.1237141376
 20
18.3872845352
 10
-14.1495281388
 20
18.3762317473
 10
-14.1755908145
 20
18.3660383675
 10
-14.2019026611
 20
18.3567058182
 10
-14.2284633303
 20
18.3482326476
 10
-14.2552282623
 20
18.3406329763
 10
-14.2821978454
 20
18.3339082565
 10
-14.3093718135
 20
18.3280570117
 10
-14.3367046196
 20
18.3230889698
 10
-14.3641965893
 20
18.3190055955
 10
-14.3918474908
 20
18.3158054055
 10
-14.4196109355
 20
18.3134937076
 10
-14.44748713
 20
18.3120719805
 10
-14.4754759314
 20
18.3115387328
 10
-14.5035304193
 20
18.311894819
 10
-14.5316507317
 20
18.3131417204
 10
-14.5598367628
 20
18.3152779493
 10
-14.5880412189
 20
18.3182999075
 10
-14.6162641267
 20
18.3222090732
 10
-14.6445054594
 20
18.3270039683
 10
-14.6727178354
 20
18.3326765618
 10
-14.7009011963
 20
18.3392283225
 10
-14.7290555683
 20
18.346657788
 10
-14.7571336886
 20
18.3549525321
 10
-14.7851354061
 20
18.3641140081
 10
-14.8130608082
 20
18.3741407755
 10
-14.8408629835
 20
18.3850160685
 10
-14.8685416794
 20
18.3967413126
 10
-14.8960970546
 20
18.4093151011
 10
-14.9234828084
 20
18.4227164207
 10
-14.9506986124
 20
18.4369466738
 10
-14.9777446728
 20
18.4520044824
 10
-15.0045754862
 20
18.4678646634
 10
-15.0311906181
 20
18.4845285718
 10
-15.0575903548
 20
18.501994882
 10
-15.0837302715
 20
18.520234391
 10
-15.1096098641
 20
18.5392484197
 10
-15.1352294657
 20
18.5590356809
 10
-15.1605459055
 20
18.5795630599
 10
-15.1855585856
 20
18.6008318182
 10
-15.2102679133
 20
18.6228407318
 10
-15.234632227
 20
18.6455529581
 10
-15.2586508553
 20
18.6689697033
 10
-15.2823242634
 20
18.6930898018
 10
-15.3056124987
 20
18.7178728523
 10
-15.3285148194
 20
18.743320001
 10
-15.3510317496
 20
18.7694301445
 10
-15.3731252423
 20
18.7961595053
 10
-15.3947944761
 20
18.8235091447
 10
-15.4160400475
 20
18.8514780454
 10
-15.4368260456
 20
18.88001931
 10
-15.4571516022
 20
18.9091339452
 10
-15.4770173579
 20
18.9388209884
 10
-15.4963896773
 20
18.969030586
 10
-15.5152676156
 20
18.9997636325
 10
-15.5336518921
 20
19.0310192769
 10
-15.5515113817
 20
19.0627450447
 10
-15.5688451078
 20
19.0949417739
 10
-15.585653828
 20
19.1276086687
 10
-15.6019090368
 20
19.1606907998
 10
-15.6176096973
 20
19.1941888825
 10
-15.6327566383
 20
19.2281022415
 10
-15.6473241728
 20
19.2623738574
 10
-15.6613112369
 20
19.2970043687
 10
-15.6747187016
 20
19.3319931736
 10
-15.6875238056
 20
19.3672813885
 10
-15.6997254505
 20
19.4028695429
 10
-15.7113245609
 20
19.4387571402
 10
-15.7223014359
 20
19.4748837522
 10
-15.7326549558
 20
19.5112497942
 10
-15.7423860891
 20
19.5478548792
 10
-15.7514782933
 20
19.5846373708
 10
-15.7599260187
 20
19.6215767299
 10
-15.7677346928
 20
19.658693518
 10
-15.7749042521
 20
19.695987747
  0
LWPOLYLINE
  5
330
100
AcDbEntity
  8
ASSI
100
AcDbPolyline
 62
253
  6
CONTINUOUS
 90
21
 70
0
 10
-13.4490862951
 20
19.4103064524
 10
-13.4549399486
 20
19.3746116608
 10
-13.4614359442
 20
19.3392517286
 10
-13.4685743451
 20
19.3042266444
 10
-13.4763599801
 20
19.2695171125
 10
-13.4847881426
 20
19.2351424059
 10
-13.4938446073
 20
19.2011603634
 10
-13.5035305101
 20
19.1675716197
 10
-13.5138448662
 20
19.1343755119
 10
-13.5247702965
 20
19.1016279268
 10
-13.5363079226
 20
19.0693296187
 10
-13.5484567965
 20
19.0374798005
 10
-13.56119646
 20
19.0061320415
 10
-13.5745280067
 20
18.9752871833
 10
-13.5884505357
 20
18.9449443476
 10
-13.60294062
 20
18.9151545199
 10
-13.6179993306
 20
18.8859186061
 10
-13.6336258045
 20
18.8572356605
 10
-13.6497937326
 20
18.8291538873
 10
-13.6665041255
 20
18.8016743065
 10
-13.6837561917
 20
18.7747958558
  0
LINE
  5
331
100
AcDbEntity
  8
CURVE
100
AcDbLine
 62
252
  6
CONTINUOUS
 10
-14.6807565112
 20
7.3639690713
 11
-14.67704567
 21
7.3856136377
  0
LWPOLYLINE
  5
332
100
AcDbEntity
  8
RACCORDO
100
AcDbPolyline
 62
7
  6
CONTINUOUS
 90
31
 70
0
 10
-13.5133492889
 20
19.466500621
 10
-13.512028859
 20
19.4740859797
 10
-13.5104148104
 20
19.4816261492
 10
-13.5085084209
 20
19.4891089676
 10
-13.5063110882
 20
19.4965236811
 10
-13.5038255036
 20
19.5038568907
 10
-13.5010560928
 20
19.5110929278
 10
-13.4980081876
 20
19.5182169456
 10
-13.4946847537
 20
19.5252212868
 10
-13.4910869377
 20
19.5321014411
 10
-13.487214323
 20
19.5388542313
 10
-13.483075802
 20
19.5454604669
 10
-13.4786881296
 20
19.5518931622
 10
-13.4740639657
 20
19.5581364714
 10
-13.4692059754
 20
19.5641892813
 10
-13.464117407
 20
19.5700483785
 10
-13.4588043894
 20
19.575706662
 10
-13.4532753899
 20
19.581154944
 10
-13.4475364659
 20
19.5863869162
 10
-13.4415898124
 20
19.591399391
 10
-13.4354480886
 20
19.5961803747
 10
-13.4291340814
 20
19.6007125123
 10
-13.4226619633
 20
19.6049875433
 10
-13.4160356424
 20
19.6090045157
 10
-13.4092634328
 20
19.61275928
 10
-13.4023526888
 20
19.6162482426
 10
-13.3953134382
 20
19.6194665613
 10
-13.3881579135
 20
19.6224089407
 10
-13.3808916197
 20
19.6250731637
 10
-13.3735264905
 20
19.6274546258
 10
-13.3661444963
 20
19.6295299024
  0
LWPOLYLINE
  5
333
100
AcDbEntity
  8
ASSI
100
AcDbPolyline
 62
7
  6
CONTINUOUS
 90
15
 70
0
 10
-13.5171016916
 20
19.4433150149
 10
-13.5361264227
 20
19.3476541142
 10
-13.5606027932
 20
19.2545834757
 10
-13.5903448338
 20
19.1650442038
 10
-13.6251825491
 20
19.0796383114
 10
-13.6648815202
 20
18.9989733849
 10
-13.7091657573
 20
18.9235967832
 10
-13.7577303192
 20
18.8539886856
 10
-13.8102179522
 20
18.7906013167
 10
-13.8662362171
 20
18.7338253525
 10
-13.9254155427
 20
18.6839431843
 10
-13.9874316145
 20
18.6411504366
 10
-14.0518642764
 20
18.605660542
 10
-14.1184445084
 20
18.5775537091
 10
-14.1871793388
 20
18.5568392852
  0
LINE
  5
334
100
AcDbEntity
  8
CURVE
100
AcDbLine
 62
252
  6
CONTINUOUS
 10
-14.6771759413
 20
7.3849150159
 11
-14.6728334716
 21
7.4064190905
  0
LINE
  5
335
100
AcDbEntity
  8
ASSI
100
AcDbLine
 62
7
  6
CONTINUOUS
 10
-13.5133492889
 20
19.4665006211
 11
-13.5085008901
 21
19.4891343797
  0
LWPOLYLINE
  5
336
100
AcDbEntity
  8
ASSI
100
AcDbPolyline
 62
7
  6
CONTINUOUS
 90
8
 70
0
 10
-13.5084992428
 20
19.4891420697
 10
-13.5010486066
 20
19.5111113127
 10
-13.4910869377
 20
19.5321014411
 10
-13.4787192573
 20
19.5518493623
 10
-13.464117882
 20
19.5700478525
 10
-13.4475364659
 20
19.5863869162
 10
-13.4291673995
 20
19.6006895554
 10
-13.4092504993
 20
19.6127661259
  0
LWPOLYLINE
  5
337
100
AcDbEntity
  8
ASSI
100
AcDbPolyline
 62
253
  6
CONTINUOUS
 90
8
 70
0
 10
-13.424435597
 20
19.5341727406
 10
-13.4212304817
 20
19.5410762223
 10
-13.4178538911
 20
19.5478089903
 10
-13.4143113137
 20
19.5543601009
 10
-13.4106085026
 20
19.5607189152
 10
-13.4067514726
 20
19.566875103
 10
-13.4027464894
 20
19.5728186628
 10
-13.3986000602
 20
19.5785399367
  0
LWPOLYLINE
  5
338
100
AcDbEntity
  8
ASSI
100
AcDbPolyline
 62
253
  6
CONTINUOUS
 90
95
 70
0
 10
-13.6837561917
 20
18.7747958558
 10
-13.7015209371
 20
18.7485636124
 10
-13.7197993536
 20
18.7229786275
 10
-13.7385906749
 20
18.6980398063
 10
-13.7578632845
 20
18.6737890037
 10
-13.7776180876
 20
18.6502273833
 10
-13.7978544065
 20
18.6273537373
 10
-13.8185382625
 20
18.6052063607
 10
-13.8396705349
 20
18.5837864408
 10
-13.8612505692
 20
18.5630927465
 10
-13.8832420951
 20
18.5431599427
 10
-13.9056458965
 20
18.523989304
 10
-13.9284614073
 20
18.5055795131
 10
-13.9516503382
 20
18.4879613464
 10
-13.9752134246
 20
18.471136109
 10
-13.9991501374
 20
18.4551024553
 10
-14.0234202938
 20
18.4398871846
 10
-14.0480245422
 20
18.4254916558
 10
-14.0729624249
 20
18.4119144726
 10
-14.0981921006
 20
18.3991783007
 10
-14.1237141376
 20
18.3872845352
 10
-14.1495281388
 20
18.3762317473
 10
-14.1755908145
 20
18.3660383675
 10
-14.2019026611
 20
18.3567058182
 10
-14.2284633303
 20
18.3482326476
 10
-14.2552282623
 20
18.3406329763
 10
-14.2821978454
 20
18.3339082565
 10
-14.3093718135
 20
18.3280570117
 10
-14.3367046196
 20
18.3230889698
 10
-14.3641965893
 20
18.3190055955
 10
-14.3918474908
 20
18.3158054055
 10
-14.4196109355
 20
18.3134937076
 10
-14.44748713
 20
18.3120719805
 10
-14.4754759314
 20
18.3115387328
 10
-14.5035304193
 20
18.311894819
 10
-14.5316507317
 20
18.3131417204
 10
-14.5598367628
 20
18.3152779493
 10
-14.5880412189
 20
18.3182999075
 10
-14.6162641267
 20
18.3222090732
 10
-14.6445054594
 20
18.3270039683
 10
-14.6727178354
 20
18.3326765618
 10
-14.7009011963
 20
18.3392283225
 10
-14.7290555683
 20
18.346657788
 10
-14.7571336886
 20
18.3549525321
 10
-14.7851354061
 20
18.3641140081
 10
-14.8130608082
 20
18.3741407755
 10
-14.8408629835
 20
18.3850160685
 10
-14.8685416794
 20
18.3967413126
 10
-14.8960970546
 20
18.4093151011
 10
-14.9234828084
 20
18.4227164207
 10
-14.9506986124
 20
18.4369466738
 10
-14.9777446728
 20
18.4520044824
 10
-15.0045754862
 20
18.4678646634
 10
-15.0311906181
 20
18.4845285718
 10
-15.0575903548
 20
18.501994882
 10
-15.0837302715
 20
18.520234391
 10
-15.1096098641
 20
18.5392484197
 10
-15.1352294657
 20
18.5590356809
 10
-15.1605459055
 20
18.5795630599
 10
-15.1855585856
 20
18.6008318182
 10
-15.2102679133
 20
18.6228407318
 10
-15.234632227
 20
18.6455529581
 10
-15.2586508553
 20
18.6689697033
 10
-15.2823242634
 20
18.6930898018
 10
-15.3056124987
 20
18.7178728523
 10
-15.3285148194
 20
18.743320001
 10
-15.3510317496
 20
18.7694301445
 10
-15.3731252423
 20
18.7961595053
 10
-15.3947944761
 20
18.8235091447
 10
-15.4160400475
 20
18.8514780454
 10
-15.4368260456
 20
18.88001931
 10
-15.4571516022
 20
18.9091339452
 10
-15.4770173579
 20
18.9388209884
 10
-15.4963896773
 20
18.969030586
 10
-15.5152676156
 20
18.9997636325
 10
-15.5336518921
 20
19.0310192769
 10
-15.5515113817
 20
19.0627450447
 10
-15.5688451078
 20
19.0949417739
 10
-15.585653828
 20
19.1276086687
 10
-15.6019090368
 20
19.1606907998
 10
-15.6176096973
 20
19.1941888825
 10
-15.6327566383
 20
19.2281022415
 10
-15.6473241728
 20
19.2623738574
 10
-15.6613112369
 20
19.2970043687
 10
-15.6747187016
 20
19.3319931736
 10
-15.6875238056
 20
19.3672813885
 10
-15.6997254505
 20
19.4028695429
 10
-15.7113245609
 20
19.4387571402
 10
-15.7223014359
 20
19.4748837522
 10
-15.7326549558
 20
19.5112497942
 10
-15.7423860891
 20
19.5478548792
 10
-15.7514782933
 20
19.5846373708
 10
-15.7599260187
 20
19.6215767299
 10
-15.7677346928
 20
19.658693518
 10
-15.7749042521
 20
19.695987747
  0
LWPOLYLINE
  5
339
100
AcDbEntity
  8
RACCORDO
100
AcDbPolyline
 62
253
  6
CONTINUOUS
 90
16
 70
0
 10
-13.3986000602
 20
19.5785399367
 10
-13.3943189229
 20
19.584029627
 10
-13.3899100332
 20
19.5892788142
 10
-13.3853805539
 20
19.59427897
 10
-13.3807378446
 20
19.5990219695
 10
-13.3759894483
 20
19.6035001068
 10
-13.3711430798
 20
19.607706106
 10
-13.3662066136
 20
19.6116331328
 10
-13.3611880699
 20
19.6152748071
 10
-13.3560956024
 20
19.618625212
 10
-13.3509374866
 20
19.6216789032
 10
-13.3457221037
 20
19.624430919
 10
-13.3404579265
 20
19.6268767891
 10
-13.3351535062
 20
19.6290125404
 10
-13.3298174605
 20
19.6308347029
 10
-13.3244584595
 20
19.6323403161
  0
LWPOLYLINE
  5
33A
100
AcDbEntity
  8
ASSI
100
AcDbPolyline
 62
253
  6
CONTINUOUS
 90
16
 70
0
 10
-13.3986000602
 20
19.5785399367
 10
-13.3943189229
 20
19.584029627
 10
-13.3899100332
 20
19.5892788142
 10
-13.3853805539
 20
19.59427897
 10
-13.3807378446
 20
19.5990219695
 10
-13.3759894483
 20
19.6035001068
 10
-13.3711430798
 20
19.607706106
 10
-13.3662066136
 20
19.6116331328
 10
-13.3611880699
 20
19.6152748071
 10
-13.3560956024
 20
19.618625212
 10
-13.3509374866
 20
19.6216789032
 10
-13.3457221037
 20
19.624430919
 10
-13.3404579265
 20
19.6268767891
 10
-13.3351535062
 20
19.6290125404
 10
-13.3298174605
 20
19.6308347029
 10
-13.3244584595
 20
19.6323403161
  0
LWPOLYLINE
  5
33B
100
AcDbEntity
  8
RACCORDO
100
AcDbPolyline
 62
7
  6
CONTINUOUS
 90
3
 70
0
 10
-13.3660848802
 20
19.6295466621
 10
-13.3585798979
 20
19.631346953
 10
-13.3531868446
 20
19.6324534984
  0
LWPOLYLINE
  5
33C
100
AcDbEntity
  8
RACCORDO
100
AcDbPolyline
 62
7
  6
CONTINUOUS
 90
3
 70
0
 10
-14.1789601851
 20
18.5588948732
 10
-14.2019972579
 20
18.5534140808
 10
-14.2195979048
 20
18.5498087653
  0
LINE
  5
33D
100
AcDbEntity
  8
ASSI
100
AcDbLine
 62
7
  6
CONTINUOUS
 10
-13.3661792344
 20
19.6295220676
 11
-13.3531539601
 21
19.63245977
  0
LINE
  5
33E
100
AcDbEntity
  8
RACCORDO
100
AcDbLine
 62
253
  6
CONTINUOUS
 10
-13.3244584595
 20
19.6323403161
 11
-13.3190852098
 21
19.6335269336
  0
LINE
  5
33F
100
AcDbEntity
  8
ASSI
100
AcDbLine
 62
253
  6
CONTINUOUS
 10
-13.3244584595
 20
19.6323403161
 11
-13.3190852098
 21
19.6335269336
  0
LINE
  5
340
100
AcDbEntity
  8
ASSI
100
AcDbLine
 62
7
  6
CONTINUOUS
 10
-14.1871793388
 20
18.5568392852
 11
-14.2204310605
 21
18.5496503518
  0
LWPOLYLINE
  5
341
100
AcDbEntity
  8
RACCORDO
100
AcDbPolyline
 62
253
  6
CONTINUOUS
 90
5
 70
0
 10
-14.2524987936
 20
18.7216881204
 10
-14.2334448904
 20
18.7256168863
 10
-14.2103854486
 20
18.7311626412
 10
-14.1869273174
 20
18.7377133705
 10
-14.1630870542
 20
18.7453355009
  0
LWPOLYLINE
  5
342
100
AcDbEntity
  8
0
100
AcDbPolyline
 62
7
  6
CONTINUOUS
 90
26
 70
0
 10
-14.1169113187
 20
18.7221183081
 10
-14.1069570993
 20
18.7240959683
 10
-14.084090127
 20
18.7292341754
 10
-14.061397713
 20
18.7351699
 10
-14.0388795165
 20
18.7419015852
 10
-14.0165795573
 20
18.7494160714
 10
-13.9944982625
 20
18.75771489
 10
-13.9726352049
 20
18.7667965097
 10
-13.9510331239
 20
18.7766431771
 10
-13.92969253
 20
18.7872563889
 10
-13.9086129126
 20
18.7986346485
 10
-13.8878354794
 20
18.810755713
 10
-13.8673608215
 20
18.8236210354
 10
-13.8471883477
 20
18.8372291628
 10
-13.8273574925
 20
18.8515534931
 10
-13.8078689241
 20
18.8665954274
 10
-13.7887219741
 20
18.8823535646
 10
-13.7699540723
 20
18.8987970999
 10
-13.75156596
 20
18.9159273739
 10
-13.7335568957
 20
18.933743046
 10
-13.7159620847
 20
18.952209289
 10
-13.6987823373
 20
18.9713273756
 10
-13.6820168431
 20
18.9910960331
 10
-13.6656983763
 20
19.0114766166
 10
-13.6498278114
 20
19.0324703231
 10
-13.6452182116
 20
19.0389275525
  0
LWPOLYLINE
  5
343
100
AcDbEntity
  8
ASSI
100
AcDbPolyline
 62
7
  6
CONTINUOUS
 90
26
 70
0
 10
-14.1169113187
 20
18.7221183081
 10
-14.1069570993
 20
18.7240959683
 10
-14.084090127
 20
18.7292341754
 10
-14.061397713
 20
18.7351699
 10
-14.0388795165
 20
18.7419015852
 10
-14.0165795573
 20
18.7494160714
 10
-13.9944982625
 20
18.75771489
 10
-13.9726352049
 20
18.7667965097
 10
-13.9510331239
 20
18.7766431771
 10
-13.92969253
 20
18.7872563889
 10
-13.9086129126
 20
18.7986346485
 10
-13.8878354794
 20
18.810755713
 10
-13.8673608215
 20
18.8236210354
 10
-13.8471883477
 20
18.8372291628
 10
-13.8273574925
 20
18.8515534931
 10
-13.8078689241
 20
18.8665954274
 10
-13.7887219741
 20
18.8823535646
 10
-13.7699540723
 20
18.8987970999
 10
-13.75156596
 20
18.9159273739
 10
-13.7335568957
 20
18.933743046
 10
-13.7159620847
 20
18.952209289
 10
-13.6987823373
 20
18.9713273756
 10
-13.6820168431
 20
18.9910960331
 10
-13.6656983763
 20
19.0114766166
 10
-13.6498278114
 20
19.0324703231
 10
-13.6452182116
 20
19.0389275525
  0
LINE
  5
344
100
AcDbEntity
  8
0
100
AcDbLine
 62
7
  6
CONTINUOUS
 10
-14.2524987936
 20
18.7216881204
 11
-13.9425887239
 21
18.7808427887
  0
LINE
  5
345
100
AcDbEntity
  8
RACCORDO
100
AcDbLine
 62
253
  6
CONTINUOUS
 10
-13.1858201185
 20
19.6589641589
 11
-13.3190852098
 21
19.6335269336
  0
LINE
  5
346
100
AcDbEntity
  8
ASSI
100
AcDbLine
 62
253
  6
CONTINUOUS
 10
-13.1858201185
 20
19.6589641589
 11
-13.3190852098
 21
19.6335269336
  0
LINE
  5
347
100
AcDbEntity
  8
ASSI
100
AcDbLine
 62
253
  6
CONTINUOUS
 10
-13.353187035
 20
19.6324534621
 11
-13.3531539601
 21
19.63245977
  0
LINE
  5
348
100
AcDbEntity
  8
RACCORDO
100
AcDbLine
 62
7
  6
CONTINUOUS
 10
-13.2199219421
 20
19.6578906877
 11
-13.353187035
 21
19.6324534621
  0
LINE
  5
349
100
AcDbEntity
  8
ASSI
100
AcDbLine
 62
7
  6
CONTINUOUS
 10
-13.2199219421
 20
19.6578906877
 11
-13.353187035
 21
19.6324534621
  0
LINE
  5
34A
100
AcDbEntity
  8
RACCORDO
100
AcDbLine
 62
253
  6
CONTINUOUS
 10
-15.5080837554
 20
19.7448727631
 11
-15.4205484029
 21
19.7616066375
  0
LINE
  5
34B
100
AcDbEntity
  8
ASSI
100
AcDbLine
 62
253
  6
CONTINUOUS
 10
-15.5080837554
 20
19.7448727631
 11
-15.4205484029
 21
19.7616066375
  0
LINE
  5
34C
100
AcDbEntity
  8
RACCORDO
100
AcDbLine
 62
253
  6
CONTINUOUS
 10
-15.6449036623
 20
19.919208289
 11
-15.511638571
 21
19.9446455143
  0
LINE
  5
34D
100
AcDbEntity
  8
ASSI
100
AcDbLine
 62
253
  6
CONTINUOUS
 10
-15.6449036623
 20
19.919208289
 11
-15.511638571
 21
19.9446455143
  0
LINE
  5
34E
100
AcDbEntity
  8
RACCORDO
100
AcDbLine
 62
253
  6
CONTINUOUS
 10
-15.5680386122
 20
19.7335666743
 11
-15.5080837554
 21
19.7448727631
  0
LINE
  5
34F
100
AcDbEntity
  8
ASSI
100
AcDbLine
 62
253
  6
CONTINUOUS
 10
-15.5680386122
 20
19.7335666743
 11
-15.5080837554
 21
19.7448727631
  0
LWPOLYLINE
  5
350
100
AcDbEntity
  8
RACCORDO
100
AcDbPolyline
 62
7
  6
CONTINUOUS
 90
8
 70
0
 10
-13.2199205343
 20
19.6578908964
 10
-13.2189498075
 20
19.6580716278
 10
-13.2134903511
 20
19.6589162413
 10
-13.2079786414
 20
19.6594832232
 10
-13.2024520283
 20
19.6597716029
 10
-13.1969229618
 20
19.659781057
 10
-13.1913789919
 20
19.659511909
 10
-13.1858201185
 20
19.6589641589
  0
LWPOLYLINE
  5
351
100
AcDbEntity
  8
ASSI
100
AcDbPolyline
 62
7
  6
CONTINUOUS
 90
8
 70
0
 10
-13.2199205343
 20
19.6578908964
 10
-13.2189498075
 20
19.6580716278
 10
-13.2134903511
 20
19.6589162413
 10
-13.2079786414
 20
19.6594832232
 10
-13.2024520283
 20
19.6597716029
 10
-13.1969229618
 20
19.659781057
 10
-13.1913789919
 20
19.659511909
 10
-13.1858201185
 20
19.6589641589
  0
LINE
  5
352
100
AcDbEntity
  8
RACCORDO
100
AcDbLine
 62
253
  6
CONTINUOUS
 10
-15.6847401561
 20
19.7120965533
 11
-15.5680386122
 21
19.7335666743
  0
LINE
  5
353
100
AcDbEntity
  8
ASSI
100
AcDbLine
 62
253
  6
CONTINUOUS
 10
-15.6847401561
 20
19.7120965533
 11
-15.5680386122
 21
19.7335666743
  0
LWPOLYLINE
  5
354
100
AcDbEntity
  8
RACCORDO
100
AcDbPolyline
 62
253
  6
CONTINUOUS
 90
3
 70
0
 10
-15.7749044154
 20
19.6959877668
 10
-15.7565182078
 20
19.6992273134
 10
-15.6847401561
 20
19.7120965533
  0
LWPOLYLINE
  5
355
100
AcDbEntity
  8
ASSI
100
AcDbPolyline
 62
253
  6
CONTINUOUS
 90
3
 70
0
 10
-15.7749044154
 20
19.6959877668
 10
-15.7565182078
 20
19.6992273134
 10
-15.6847401561
 20
19.7120965533
  0
LINE
  5
356
100
AcDbEntity
  8
RACCORDO
100
AcDbLine
 62
253
  6
CONTINUOUS
 10
-13.4609818421
 20
20.1021110678
 11
-13.4721897293
 21
20.100139479
  0
LINE
  5
357
100
AcDbEntity
  8
ASSI
100
AcDbLine
 62
253
  6
CONTINUOUS
 10
-13.4609818421
 20
20.1021110678
 11
-13.4721897293
 21
20.100139479
  0
LWPOLYLINE
  5
358
100
AcDbEntity
  8
RACCORDO
100
AcDbPolyline
 62
7
  6
CONTINUOUS
 90
10
 70
0
 10
-14.2524987908
 20
18.7216881209
 10
-14.2782729828
 20
18.7172312668
 10
-14.3042238854
 20
18.7136679085
 10
-14.3303291338
 20
18.7110038533
 10
-14.3565581679
 20
18.709244313
 10
-14.3828962077
 20
18.7083921532
 10
-14.4093447315
 20
18.7084506581
 10
-14.4358893314
 20
18.7094246011
 10
-14.4624992886
 20
18.7113174755
 10
-14.4891518617
 20
18.7141316829
  0
LWPOLYLINE
  5
359
100
AcDbEntity
  8
RACCORDO
100
AcDbPolyline
 62
253
  6
CONTINUOUS
 90
7
 70
0
 10
-13.3531868446
 20
19.6324534984
 10
-13.3492796184
 20
19.6331250701
 10
-13.3433130342
 20
19.6338687206
 10
-13.3373002074
 20
19.6342811448
 10
-13.3312512036
 20
19.6343616521
 10
-13.3251761484
 20
19.6341101079
 10
-13.3190852115
 20
19.6335269333
  0
LWPOLYLINE
  5
35A
100
AcDbEntity
  8
ASSI
100
AcDbPolyline
 62
253
  6
CONTINUOUS
 90
7
 70
0
 10
-13.3531539601
 20
19.63245977
 10
-13.3492796184
 20
19.6331250701
 10
-13.3433130342
 20
19.6338687206
 10
-13.3373002074
 20
19.6342811448
 10
-13.3312512036
 20
19.6343616521
 10
-13.3251761484
 20
19.6341101079
 10
-13.3190852115
 20
19.6335269333
  0
LINE
  5
35B
100
AcDbEntity
  8
RACCORDO
100
AcDbLine
 62
253
  6
CONTINUOUS
 10
-13.4721897293
 20
20.100139479
 11
-13.4999169839
 21
20.095375545
  0
LINE
  5
35C
100
AcDbEntity
  8
ASSI
100
AcDbLine
 62
253
  6
CONTINUOUS
 10
-13.4721897293
 20
20.100139479
 11
-13.4999169839
 21
20.095375545
  0
LINE
  5
35D
100
AcDbEntity
  8
RACCORDO
100
AcDbLine
 62
253
  6
CONTINUOUS
 10
-13.4999169839
 20
20.095375545
 11
-13.5101106258
 21
20.0936724148
  0
LINE
  5
35E
100
AcDbEntity
  8
ASSI
100
AcDbLine
 62
253
  6
CONTINUOUS
 10
-13.4999169839
 20
20.095375545
 11
-13.5101106258
 21
20.0936724148
  0
LINE
  5
35F
100
AcDbEntity
  8
RACCORDO
100
AcDbLine
 62
253
  6
CONTINUOUS
 10
-13.5101106258
 20
20.0936724148
 11
-13.5176415271
 21
20.0924604259
  0
LINE
  5
360
100
AcDbEntity
  8
ASSI
100
AcDbLine
 62
253
  6
CONTINUOUS
 10
-13.5101106258
 20
20.0936724148
 11
-13.5176415271
 21
20.0924604259
  0
LWPOLYLINE
  5
361
100
AcDbEntity
  8
RACCORDO
100
AcDbPolyline
 62
253
  6
CONTINUOUS
 90
3
 70
0
 10
-13.5176415271
 20
20.0924604259
 10
-13.5195410157
 20
20.0921730105
 10
-13.5223994459
 20
20.0917571589
  0
LWPOLYLINE
  5
362
100
AcDbEntity
  8
ASSI
100
AcDbPolyline
 62
253
  6
CONTINUOUS
 90
3
 70
0
 10
-13.5176415271
 20
20.0924604259
 10
-13.5195410157
 20
20.0921730105
 10
-13.5223994459
 20
20.0917571589
  0
LWPOLYLINE
  5
363
100
AcDbEntity
  8
RACCORDO
100
AcDbPolyline
 62
7
  6
CONTINUOUS
 90
4
 70
0
 10
-15.62464108
 20
20.215102847
 10
-15.6325954284
 20
20.2141095426
 10
-15.6405965666
 20
20.2134349644
 10
-15.6486294939
 20
20.2130818255
  0
LWPOLYLINE
  5
364
100
AcDbEntity
  8
RACCORDO
100
AcDbPolyline
 62
253
  6
CONTINUOUS
 90
5
 70
0
 10
-13.5223994459
 20
20.0917571589
 10
-13.523356839
 20
20.0916415346
 10
-13.5239965607
 20
20.091584993
 10
-13.5243149185
 20
20.0915728578
 10
-13.5243548165
 20
20.0915898772
  0
LWPOLYLINE
  5
365
100
AcDbEntity
  8
ASSI
100
AcDbPolyline
 62
253
  6
CONTINUOUS
 90
5
 70
0
 10
-13.5223994459
 20
20.0917571589
 10
-13.523356839
 20
20.0916415346
 10
-13.5239965607
 20
20.091584993
 10
-13.5243149185
 20
20.0915728578
 10
-13.5243546069
 20
20.0915889805
  0
LINE
  5
366
100
AcDbEntity
  8
ASSI
100
AcDbLine
 62
7
  6
CONTINUOUS
 10
-15.62464108
 20
20.215102847
 11
-15.6506284711
 21
20.2130441769
  0
LINE
  5
367
100
AcDbEntity
  8
RACCORDO
100
AcDbLine
 62
253
  6
CONTINUOUS
 10
-6.4017168933
 20
19.2912031083
 11
-6.3585630923
 21
19.2928773761
  0
LINE
  5
368
100
AcDbEntity
  8
ASSI
100
AcDbLine
 62
253
  6
CONTINUOUS
 10
-6.4017168933
 20
19.2912031083
 11
-6.3585630923
 21
19.2928773761
  0
LINE
  5
369
100
AcDbEntity
  8
RACCORDO
100
AcDbLine
 62
253
  6
CONTINUOUS
 10
-6.4451421526
 20
19.2898917519
 11
-6.4017168933
 21
19.2912031083
  0
LINE
  5
36A
100
AcDbEntity
  8
ASSI
100
AcDbLine
 62
253
  6
CONTINUOUS
 10
-6.4451421526
 20
19.2898917519
 11
-6.4017168933
 21
19.2912031083
  0
LINE
  5
36B
100
AcDbEntity
  8
RACCORDO
100
AcDbLine
 62
253
  6
CONTINUOUS
 10
-6.4887099208
 20
19.2889472086
 11
-6.4451421526
 21
19.2898917519
  0
LINE
  5
36C
100
AcDbEntity
  8
ASSI
100
AcDbLine
 62
253
  6
CONTINUOUS
 10
-6.4887099208
 20
19.2889472086
 11
-6.4451421526
 21
19.2898917519
  0
LINE
  5
36D
100
AcDbEntity
  8
RACCORDO
100
AcDbLine
 62
253
  6
CONTINUOUS
 10
-6.5322904914
 20
19.2883723227
 11
-6.4887099208
 21
19.2889472086
  0
LINE
  5
36E
100
AcDbEntity
  8
ASSI
100
AcDbLine
 62
253
  6
CONTINUOUS
 10
-6.5322904914
 20
19.2883723227
 11
-6.4887099208
 21
19.2889472086
  0
LWPOLYLINE
  5
36F
100
AcDbEntity
  8
RACCORDO
100
AcDbPolyline
 62
7
  6
CONTINUOUS
 90
5
 70
0
 10
-15.6486294939
 20
20.2130818255
 10
-15.6566815505
 20
20.2130520454
 10
-15.6647414374
 20
20.2133471513
 10
-15.6727963406
 20
20.2139682899
 10
-15.6777781087
 20
20.2145169386
  0
LINE
  5
370
100
AcDbEntity
  8
RACCORDO
100
AcDbLine
 62
253
  6
CONTINUOUS
 10
-6.5757547024
 20
19.2881687565
 11
-6.5322904914
 21
19.2883723227
  0
LINE
  5
371
100
AcDbEntity
  8
ASSI
100
AcDbLine
 62
253
  6
CONTINUOUS
 10
-6.5757547024
 20
19.2881687565
 11
-6.5322904914
 21
19.2883723227
  0
LINE
  5
372
100
AcDbEntity
  8
ASSI
100
AcDbLine
 62
7
  6
CONTINUOUS
 10
-15.6506284711
 20
20.2130441769
 11
-15.6777740002
 21
20.214516434
  0
LWPOLYLINE
  5
373
100
AcDbEntity
  8
RACCORDO
100
AcDbPolyline
 62
7
  6
CONTINUOUS
 90
45
 70
0
 10
-6.8728805792
 20
19.1335326629
 10
-6.8560553359
 20
19.1319122349
 10
-6.839059055
 20
19.1303998835
 10
-6.8218798221
 20
19.128991225
 10
-6.804534397
 20
19.127684745
 10
-6.7870408038
 20
19.126479092
 10
-6.7693895577
 20
19.1253713183
 10
-6.751597144
 20
19.1243604318
 10
-6.7336796514
 20
19.1234454745
 10
-6.7156268808
 20
19.1226243455
 10
-6.6974541934
 20
19.1218964111
 10
-6.6791770105
 20
19.1212610835
 10
-6.660784998
 20
19.1207169961
 10
-6.6422906631
 20
19.1202637727
 10
-6.6237109524
 20
19.1199011711
 10
-6.6050420228
 20
19.1196285461
 10
-6.5862949351
 20
19.119445721
 10
-6.5674876514
 20
19.1193525782
 10
-6.5486267318
 20
19.1193488583
 10
-6.5297264333
 20
19.1194344158
 10
-6.5108016345
 20
19.1196090395
 10
-6.4918599109
 20
19.1198725559
 10
-6.4729157758
 20
19.1202247941
 10
-6.45398392
 20
19.1206654841
 10
-6.4350721993
 20
19.1211945208
 10
-6.4161950593
 20
19.1218116977
 10
-6.3973672784
 20
19.1225166866
 10
-6.378597185
 20
19.1233094382
 10
-6.3598997363
 20
19.1241896692
 10
-6.3412891303
 20
19.1251570286
 10
-6.322772462
 20
19.1262116131
 10
-6.304369855
 20
19.127352767
 10
-6.2860901321
 20
19.1285804371
 10
-6.2679235913
 20
19.1298961061
 10
-6.2498898065
 20
19.1312993319
 10
-6.2319990107
 20
19.1327903557
 10
-6.2142283696
 20
19.1343725862
 10
-6.1965944271
 20
19.1360463793
 10
-6.1791131362
 20
19.1378121917
 10
-6.1617619817
 20
19.139674748
 10
-6.1445589085
 20
19.1416350211
 10
-6.1275220852
 20
19.143694072
 10
-6.1106301969
 20
19.1458581504
 10
-6.0939045284
 20
19.1481288514
 10
-6.0773643487
 20
19.1505082162
  0
LWPOLYLINE
  5
374
100
AcDbEntity
  8
ASSI
100
AcDbPolyline
 62
7
  6
CONTINUOUS
 90
16
 70
0
 10
-6.9179354772
 20
19.138541816
 10
-6.8694910778
 20
19.1331961641
 10
-6.8154140566
 20
19.1284909388
 10
-6.7598343023
 20
19.1248155464
 10
-6.7030564701
 20
19.1221104586
 10
-6.6450152323
 20
19.1203247111
 10
-6.5861965965
 20
19.1194450033
 10
-6.527064041
 20
19.1194536154
 10
-6.4675357346
 20
19.1203410047
 10
-6.40806683
 20
19.1221050449
 10
-6.3491164117
 20
19.1247389842
 10
-6.2906122906
 20
19.1282678548
 10
-6.2330389716
 20
19.1327009305
 10
-6.1769213048
 20
19.1380413893
 10
-6.1222099779
 20
19.1443611246
 10
-6.0692203195
 20
19.1517319901
  0
LWPOLYLINE
  5
375
100
AcDbEntity
  8
RACCORDO
100
AcDbPolyline
 62
253
  6
CONTINUOUS
 90
22
 70
0
 10
-7.0102658279
 20
19.3098286363
 10
-6.9934457233
 20
19.3079486665
 10
-6.9762540399
 20
19.3061470074
 10
-6.9587045062
 20
19.3044251409
 10
-6.9408099356
 20
19.3027842645
 10
-6.9225828594
 20
19.3012255316
 10
-6.9040363096
 20
19.2997500751
 10
-6.8851843947
 20
19.2983589787
 10
-6.8660413321
 20
19.2970533165
 10
-6.846621382
 20
19.2958340918
 10
-6.8269390107
 20
19.2947021669
 10
-6.807008775
 20
19.2936583921
 10
-6.7868454082
 20
19.2927035647
 10
-6.7664639537
 20
19.2918383542
 10
-6.7458794502
 20
19.2910634138
 10
-6.725107066
 20
19.2903793449
 10
-6.7041623517
 20
19.2897866191
 10
-6.6830609285
 20
19.2892856908
 10
-6.6618184436
 20
19.28887696
 10
-6.640450693
 20
19.2885606897
 10
-6.6189735271
 20
19.288337125
 10
-6.5757547024
 20
19.2881687565
  0
LWPOLYLINE
  5
376
100
AcDbEntity
  8
ASSI
100
AcDbPolyline
 62
253
  6
CONTINUOUS
 90
22
 70
0
 10
-7.0102658279
 20
19.3098286363
 10
-6.9934457233
 20
19.3079486665
 10
-6.9762540399
 20
19.3061470074
 10
-6.9587045062
 20
19.3044251409
 10
-6.9408099356
 20
19.3027842645
 10
-6.9225828594
 20
19.3012255316
 10
-6.9040363096
 20
19.2997500751
 10
-6.8851843947
 20
19.2983589787
 10
-6.8660413321
 20
19.2970533165
 10
-6.846621382
 20
19.2958340918
 10
-6.8269390107
 20
19.2947021669
 10
-6.807008775
 20
19.2936583921
 10
-6.7868454082
 20
19.2927035647
 10
-6.7664639537
 20
19.2918383542
 10
-6.7458794502
 20
19.2910634138
 10
-6.725107066
 20
19.2903793449
 10
-6.7041623517
 20
19.2897866191
 10
-6.6830609285
 20
19.2892856908
 10
-6.6618184436
 20
19.28887696
 10
-6.640450693
 20
19.2885606897
 10
-6.6189735271
 20
19.288337125
 10
-6.5757547024
 20
19.2881687565
  0
LWPOLYLINE
  5
377
100
AcDbEntity
  8
RACCORDO
100
AcDbPolyline
 62
7
  6
CONTINUOUS
 90
3
 70
0
 10
-6.9059653105
 20
19.1371088506
 10
-6.8895269746
 20
19.1352644719
 10
-6.8728805792
 20
19.1335326629
  0
LWPOLYLINE
  5
378
100
AcDbEntity
  8
RACCORDO
100
AcDbPolyline
 62
253
  6
CONTINUOUS
 90
82
 70
0
 10
-14.6326086643
 20
20.9326245991
 10
-14.6448510992
 20
20.9340010118
 10
-14.6579105836
 20
20.9351882506
 10
-14.6717814713
 20
20.9361307873
 10
-14.6864968407
 20
20.9367708287
 10
-14.7020070518
 20
20.9370424711
 10
-14.7181803304
 20
20.9368825422
 10
-14.7349958937
 20
20.9362327616
 10
-14.7524474623
 20
20.9350321882
 10
-14.7704236389
 20
20.9332286822
 10
-14.7889003481
 20
20.9307673081
 10
-14.8078634921
 20
20.9275904123
 10
-14.8272157016
 20
20.923656247
 10
-14.8469041019
 20
20.9189212139
 10
-14.8669329073
 20
20.9133281243
 10
-14.8872879807
 20
20.9068202587
 10
-14.9078866346
 20
20.8993636996
 10
-14.9287483026
 20
20.8908889396
 10
-14.9500014883
 20
20.8812639442
 10
-14.9715827814
 20
20.8704235264
 10
-14.9934591086
 20
20.8582860846
 10
-15.015781079
 20
20.8446463277
 10
-15.038492493
 20
20.8293905659
 10
-15.0614968501
 20
20.8124268684
 10
-15.0848521605
 20
20.7935320971
 10
-15.1084742187
 20
20.7725628527
 10
-15.1322212437
 20
20.7494186104
 10
-15.156031957
 20
20.7239095362
 10
-15.1797601991
 20
20.6959129693
 10
-15.2032468705
 20
20.665314575
 10
-15.2263772185
 20
20.6319236795
 10
-15.2489747651
 20
20.5956058339
 10
-15.2708139013
 20
20.5562950901
 10
-15.2916768505
 20
20.5139123889
 10
-15.3113873286
 20
20.4682620708
 10
-15.3296316546
 20
20.4194424971
 10
-15.346024294
 20
20.3678930748
 10
-15.3603783418
 20
20.3136059607
 10
-15.372465294
 20
20.2567339717
 10
-15.3819833513
 20
20.198085952
 10
-15.3888201238
 20
20.1379039779
 10
-15.3928885998
 20
20.0763165578
 10
-15.3941004764
 20
20.0140510404
 10
-15.3924530066
 20
19.9514526576
 10
-15.3879531186
 20
19.8886347745
 10
-15.3806373025
 20
19.8259998508
 10
-15.3705540677
 20
19.7637895757
 10
-15.357757663
 20
19.7022132073
 10
-15.3423480237
 20
19.6416153188
 10
-15.3243050347
 20
19.5818649624
 10
-15.3038078615
 20
19.5235112777
 10
-15.2814272545
 20
19.4678307256
 10
-15.2574585818
 20
19.4150208116
 10
-15.232093657
 20
19.3650277111
 10
-15.2059629428
 20
19.3185700466
 10
-15.1795850929
 20
19.2759407973
 10
-15.1530154168
 20
19.236663405
 10
-15.1261994223
 20
19.2002417862
 10
-15.0992388781
 20
19.166493682
 10
-15.0723790969
 20
19.1354291862
 10
-15.0457129292
 20
19.106876126
 10
-15.0194170747
 20
19.0807657969
 10
-14.9935761299
 20
19.0569410622
 10
-14.9681074055
 20
19.0351226592
 10
-14.9431171524
 20
19.0152267366
 10
-14.9186696782
 20
18.9971390532
 10
-14.8945823919
 20
18.9805891579
 10
-14.8708627024
 20
18.9654760285
 10
-14.8476082632
 20
18.9517601363
 10
-14.8247491295
 20
18.9393069807
 10
-14.8022713951
 20
18.9280301822
 10
-14.7802612609
 20
18.9178969146
 10
-14.758790676
 20
18.9088612644
 10
-14.7378731596
 20
18.9008512208
 10
-14.7175488043
 20
18.8938072513
 10
-14.697926179
 20
18.8876895298
 10
-14.6790139884
 20
18.8824225357
 10
-14.6608398091
 20
18.877938985
 10
-14.6435374902
 20
18.8741942069
 10
-14.6271585169
 20
18.8711184054
 10
-14.611671684
 20
18.8686290963
 10
-14.5970834534
 20
18.8666565537
  0
LWPOLYLINE
  5
379
100
AcDbEntity
  8
0
100
AcDbPolyline
 62
7
  6
CONTINUOUS
 90
46
 70
0
 10
-6.7515414291
 20
18.8686387339
 10
-6.7410779373
 20
18.8674038534
 10
-6.7303352051
 20
18.8662337802
 10
-6.7193132326
 20
18.8651285145
 10
-6.7079982387
 20
18.8640868953
 10
-6.6964040044
 20
18.8631100835
 10
-6.6845718728
 20
18.8622015618
 10
-6.6725009891
 20
18.8613615737
 10
-6.6601922081
 20
18.8605898757
 10
-6.6476894376
 20
18.8598892207
 10
-6.6349919847
 20
18.8592598624
 10
-6.6221005423
 20
18.858701547
 10
-6.6090610966
 20
18.8582162662
 10
-6.595873119
 20
18.8578042809
 10
-6.5825371381
 20
18.8574653301
 10
-6.5691007258
 20
18.857200623
 10
-6.5555635235
 20
18.8570104247
 10
-6.5419258899
 20
18.8568944702
 10
-6.5282364729
 20
18.8568531729
 10
-6.5144950876
 20
18.8568867996
 10
-6.500701919
 20
18.8569950836
 10
-6.4869061699
 20
18.8571776386
 10
-6.4731078311
 20
18.85743473
 10
-6.4593069118
 20
18.8577660923
 10
-6.4455526425
 20
18.8581705437
 10
-6.4318451898
 20
18.8586483452
 10
-6.418184387
 20
18.8591992356
 10
-6.404618965
 20
18.85982125
 10
-6.3911492642
 20
18.8605146422
 10
-6.3777749441
 20
18.8612791583
 10
-6.3645437134
 20
18.8621120711
 10
-6.3514560831
 20
18.8630136249
 10
-6.3385115422
 20
18.8639835754
 10
-6.3257562663
 20
18.8650184626
 10
-6.3131909313
 20
18.8661185185
 10
-6.3008148614
 20
18.8672835111
 10
-6.2886722043
 20
18.8685092846
 10
-6.2767637935
 20
18.8697960561
 10
-6.2650887956
 20
18.8711436087
 10
-6.2536888574
 20
18.8725471352
 10
-6.2425649612
 20
18.8740068356
 10
-6.2317161247
 20
18.87552251
 10
-6.2211810479
 20
18.8770887517
 10
-6.2109726305
 20
18.8787037584
 10
-6.2010779727
 20
18.8803693324
 10
-6.1914970745
 20
18.8820854738
  0
LWPOLYLINE
  5
37A
100
AcDbEntity
  8
ASSI
100
AcDbPolyline
 62
7
  6
CONTINUOUS
 90
46
 70
0
 10
-6.7515414291
 20
18.8686387339
 10
-6.7410779373
 20
18.8674038534
 10
-6.7303352051
 20
18.8662337802
 10
-6.7193132326
 20
18.8651285145
 10
-6.7079982387
 20
18.8640868953
 10
-6.6964040044
 20
18.8631100835
 10
-6.6845718728
 20
18.8622015618
 10
-6.6725009891
 20
18.8613615737
 10
-6.6601922081
 20
18.8605898757
 10
-6.6476894376
 20
18.8598892207
 10
-6.6349919847
 20
18.8592598624
 10
-6.6221005423
 20
18.858701547
 10
-6.6090610966
 20
18.8582162662
 10
-6.595873119
 20
18.8578042809
 10
-6.5825371381
 20
18.8574653301
 10
-6.5691007258
 20
18.857200623
 10
-6.5555635235
 20
18.8570104247
 10
-6.5419258899
 20
18.8568944702
 10
-6.5282364729
 20
18.8568531729
 10
-6.5144950876
 20
18.8568867996
 10
-6.500701919
 20
18.8569950836
 10
-6.4869061699
 20
18.8571776386
 10
-6.4731078311
 20
18.85743473
 10
-6.4593069118
 20
18.8577660923
 10
-6.4455526425
 20
18.8581705437
 10
-6.4318451898
 20
18.8586483452
 10
-6.418184387
 20
18.8591992356
 10
-6.404618965
 20
18.85982125
 10
-6.3911492642
 20
18.8605146422
 10
-6.3777749441
 20
18.8612791583
 10
-6.3645437134
 20
18.8621120711
 10
-6.3514560831
 20
18.8630136249
 10
-6.3385115422
 20
18.8639835754
 10
-6.3257562663
 20
18.8650184626
 10
-6.3131909313
 20
18.8661185185
 10
-6.3008148614
 20
18.8672835111
 10
-6.2886722043
 20
18.8685092846
 10
-6.2767637935
 20
18.8697960561
 10
-6.2650887956
 20
18.8711436087
 10
-6.2536888574
 20
18.8725471352
 10
-6.2425649612
 20
18.8740068356
 10
-6.2317161247
 20
18.87552251
 10
-6.2211810479
 20
18.8770887517
 10
-6.2109726305
 20
18.8787037584
 10
-6.2010779727
 20
18.8803693324
 10
-6.1914970745
 20
18.8820854738
  0
LINE
  5
37B
100
AcDbEntity
  8
RACCORDO
100
AcDbLine
 62
253
  6
CONTINUOUS
 10
-6.9983699554
 20
18.6180243728
 11
-13.4490859629
 21
19.4103064116
  0
LINE
  5
37C
100
AcDbEntity
  8
ASSI
100
AcDbLine
 62
253
  6
CONTINUOUS
 10
-6.9983699554
 20
18.6180243728
 11
-13.4490859629
 21
19.4103064116
  0
LINE
  5
37D
100
AcDbEntity
  8
RACCORDO
100
AcDbLine
 62
253
  6
CONTINUOUS
 10
-6.8724654182
 20
18.8417324835
 11
-13.3190852098
 21
19.6335269336
  0
LINE
  5
37E
100
AcDbEntity
  8
ASSI
100
AcDbLine
 62
253
  6
CONTINUOUS
 10
-6.8724654182
 20
18.8417324835
 11
-13.3190852098
 21
19.6335269336
  0
LINE
  5
37F
100
AcDbEntity
  8
RACCORDO
100
AcDbLine
 62
7
  6
CONTINUOUS
 10
-21.945917396
 20
20.734970956
 11
-15.511638571
 21
19.9446455143
  0
LINE
  5
380
100
AcDbEntity
  8
ASSI
100
AcDbLine
 62
7
  6
CONTINUOUS
 10
-21.945917396
 20
20.734970956
 11
-15.511638571
 21
19.9446455143
  0
LINE
  5
381
100
AcDbEntity
  8
RACCORDO
100
AcDbLine
 62
7
  6
CONTINUOUS
 10
-13.1858201185
 20
19.6589641589
 11
-6.7515412936
 21
18.8686387173
  0
LINE
  5
382
100
AcDbEntity
  8
ASSI
100
AcDbLine
 62
7
  6
CONTINUOUS
 10
-13.1858201185
 20
19.6589641589
 11
-6.7515412936
 21
18.8686387173
  0
LINE
  5
383
100
AcDbEntity
  8
ASSI
100
AcDbLine
 62
7
  6
CONTINUOUS
 10
-22.1120593768
 20
21.0048426803
 11
-15.6777779009
 21
20.214516913
  0
LINE
  5
384
100
AcDbEntity
  8
RACCORDO
100
AcDbLine
 62
7
  6
CONTINUOUS
 10
-13.3519594485
 20
19.9288355576
 11
-6.9059653105
 21
19.1371088506
  0
LINE
  5
385
100
AcDbEntity
  8
ASSI
100
AcDbLine
 62
7
  6
CONTINUOUS
 10
-13.3519594485
 20
19.9288355576
 11
-6.9176779725
 21
19.1385097904
  0
LINE
  5
386
100
AcDbEntity
  8
RACCORDO
100
AcDbLine
 62
253
  6
CONTINUOUS
 10
-13.4609818421
 20
20.1021110676
 11
-7.0102658279
 21
19.3098286363
  0
LINE
  5
387
100
AcDbEntity
  8
ASSI
100
AcDbLine
 62
253
  6
CONTINUOUS
 10
-13.4609818421
 20
20.1021110676
 11
-7.0102658279
 21
19.3098286363
  0
LWPOLYLINE
  5
388
100
AcDbEntity
  8
RACCORDO
100
AcDbPolyline
 62
253
  6
CONTINUOUS
 90
32
 70
0
 10
-15.7749044154
 20
19.695987767
 10
-22.2252239216
 20
20.4883458825
 10
-22.2408555534
 20
20.4904527044
 10
-22.2560674435
 20
20.4926322602
 10
-22.2708471621
 20
20.4948828204
 10
-22.2851843002
 20
20.4972027284
 10
-22.2990687977
 20
20.4995903592
 10
-22.3124906027
 20
20.502044011
 10
-22.3254397484
 20
20.5045618096
 10
-22.3379063225
 20
20.5071418591
 10
-22.3498808333
 20
20.5097822461
 10
-22.3613546477
 20
20.5124809948
 10
-22.3723192131
 20
20.5152361088
 10
-22.3827662487
 20
20.5180455592
 10
-22.3926882253
 20
20.5209072422
 10
-22.4020777495
 20
20.5238190454
 10
-22.4109276949
 20
20.5267788323
 10
-22.4192316833
 20
20.5297843804
 10
-22.4269834698
 20
20.5328334458
 10
-22.4341771074
 20
20.5359237768
 10
-22.4408074955
 20
20.5390530689
 10
-22.4468696798
 20
20.5422189973
 10
-22.4523589631
 20
20.5454192287
 10
-22.4572714953
 20
20.5486513741
 10
-22.4616036012
 20
20.5519130247
 10
-22.4653518501
 20
20.5552017681
 10
-22.4685136953
 20
20.5585151591
 10
-22.4710867871
 20
20.5618507388
 10
-22.473068993
 20
20.5652060485
 10
-22.4744590583
 20
20.5685785868
 10
-22.4752559514
 20
20.5719658317
 10
-22.4754547951
 20
20.5743712615
  0
LWPOLYLINE
  5
389
100
AcDbEntity
  8
ASSI
100
AcDbPolyline
 62
253
  6
CONTINUOUS
 90
32
 70
0
 10
-15.7749044154
 20
19.695987767
 10
-22.2252239216
 20
20.4883458825
 10
-22.2408555534
 20
20.4904527044
 10
-22.2560674435
 20
20.4926322602
 10
-22.2708471621
 20
20.4948828204
 10
-22.2851843002
 20
20.4972027284
 10
-22.2990687977
 20
20.4995903592
 10
-22.3124906027
 20
20.502044011
 10
-22.3254397484
 20
20.5045618096
 10
-22.3379063225
 20
20.5071418591
 10
-22.3498808333
 20
20.5097822461
 10
-22.3613546477
 20
20.5124809948
 10
-22.3723192131
 20
20.5152361088
 10
-22.3827662487
 20
20.5180455592
 10
-22.3926882253
 20
20.5209072422
 10
-22.4020777495
 20
20.5238190454
 10
-22.4109276949
 20
20.5267788323
 10
-22.4192316833
 20
20.5297843804
 10
-22.4269834698
 20
20.5328334458
 10
-22.4341771074
 20
20.5359237768
 10
-22.4408074955
 20
20.5390530689
 10
-22.4468696798
 20
20.5422189973
 10
-22.4523589631
 20
20.5454192287
 10
-22.4572714953
 20
20.5486513741
 10
-22.4616036012
 20
20.5519130247
 10
-22.4653518501
 20
20.5552017681
 10
-22.4685136953
 20
20.5585151591
 10
-22.4710867871
 20
20.5618507388
 10
-22.473068993
 20
20.5652060485
 10
-22.4744590583
 20
20.5685785868
 10
-22.4752559514
 20
20.5719658317
 10
-22.4754576473
 20
20.5742448985
  0
LWPOLYLINE
  5
38A
100
AcDbEntity
  8
RACCORDO
100
AcDbPolyline
 62
253
  6
CONTINUOUS
 90
48
 70
0
 10
-15.6449036623
 20
19.919208289
 10
-22.0912248432
 20
20.711059737
 10
-22.1029423543
 20
20.7126387198
 10
-22.1143376706
 20
20.7142710048
 10
-22.1254190678
 20
20.7159579181
 10
-22.1361782701
 20
20.7176981336
 10
-22.1465904496
 20
20.7194876737
 10
-22.1566545669
 20
20.7213266174
 10
-22.1663716613
 20
20.7232148857
 10
-22.1757200228
 20
20.7251482642
 10
-22.1846987986
 20
20.7271268492
 10
-22.1933088414
 20
20.7291505444
 10
-22.2015309996
 20
20.7312148462
 10
-22.2093644025
 20
20.7333198419
 10
-22.2168099208
 20
20.7354654442
 10
-22.2238510145
 20
20.7376468884
 10
-22.2304868015
 20
20.7398642602
 10
-22.2367181639
 20
20.7421174739
 10
-22.242531208
 20
20.7444015078
 10
-22.2479249915
 20
20.746716427
 10
-22.2529004568
 20
20.7490621664
 10
-22.2574465369
 20
20.751433508
 10
-22.2615622781
 20
20.7538305103
 10
-22.2652486341
 20
20.7562531147
 10
-22.2684973993
 20
20.7586959279
 10
-22.2713075969
 20
20.761158992
 10
-22.2736802038
 20
20.7636422649
 10
-22.2756099445
 20
20.7661402266
 10
-22.2770958354
 20
20.7686529146
 10
-22.2781388602
 20
20.7711802915
 10
-22.2787366949
 20
20.7737167253
 10
-22.2788883469
 20
20.7762622312
 10
-22.2785948088
 20
20.778816794
 10
-22.2778567347
 20
20.7813747357
 10
-22.2766731349
 20
20.7839360669
 10
-22.2750449991
 20
20.786500777
 10
-22.2729759506
 20
20.7890631564
 10
-22.2704650089
 20
20.7916231981
 10
-22.2675131544
 20
20.794180909
 10
-22.2641269528
 20
20.7967305997
 10
-22.2603054287
 20
20.7992722562
 10
-22.2560495574
 20
20.8018058925
 10
-22.2513688295
 20
20.8043258615
 10
-22.246262312
 20
20.806832126
 10
-22.2407309379
 20
20.8093247232
 10
-22.2347869964
 20
20.8117981175
 10
-22.2284295651
 20
20.8142522695
 10
-22.2216595663
 20
20.8166872185
  0
LWPOLYLINE
  5
38B
100
AcDbEntity
  8
ASSI
100
AcDbPolyline
 62
253
  6
CONTINUOUS
 90
16
 70
0
 10
-15.6449036623
 20
19.919208289
 10
-22.0912248432
 20
20.711059737
 10
-22.1029423543
 20
20.7126387198
 10
-22.1143376706
 20
20.7142710048
 10
-22.1254190678
 20
20.7159579181
 10
-22.1361782701
 20
20.7176981336
 10
-22.1465904496
 20
20.7194876737
 10
-22.1566545669
 20
20.7213266174
 10
-22.1663716613
 20
20.7232148857
 10
-22.1757200228
 20
20.7251482642
 10
-22.1846987986
 20
20.7271268492
 10
-22.1933088414
 20
20.7291505444
 10
-22.2015309996
 20
20.7312148462
 10
-22.2093644025
 20
20.7333198419
 10
-22.2168099208
 20
20.7354654442
 10
-22.2238510145
 20
20.7376468884
  0
LINE
  5
38C
100
AcDbEntity
  8
ASSI
100
AcDbLine
 62
7
  6
CONTINUOUS
 10
-22.1375755094
 20
21.0081670949
 11
-22.1118920445
 21
21.0048222985
  0
LWPOLYLINE
  5
38D
100
AcDbEntity
  8
RACCORDO
100
AcDbPolyline
 62
7
  6
CONTINUOUS
 90
4
 70
0
 10
-22.1449838812
 20
21.0092075252
 10
-22.1329851758
 20
21.0075399109
 10
-22.1206296537
 20
21.0059162451
 10
-15.6777779009
 20
20.214516913
  0
LWPOLYLINE
  5
38E
100
AcDbEntity
  8
RACCORDO
100
AcDbPolyline
 62
7
  6
CONTINUOUS
 90
33
 70
0
 10
-13.3519594485
 20
19.9288355576
 10
-13.3595289787
 20
19.9299125716
 10
-13.3669834682
 20
19.931264369
 10
-13.3743079029
 20
19.9328798441
 10
-13.3814701523
 20
19.9347418027
 10
-13.3884770591
 20
19.9368413641
 10
-13.395372591
 20
19.9391849652
 10
-13.4021549241
 20
19.9417687033
 10
-13.4088035549
 20
19.9445810462
 10
-13.415332861
 20
19.9476249074
 10
-13.4217089662
 20
19.9508809467
 10
-13.4279461942
 20
19.9543525146
 10
-13.4341261895
 20
19.9580888904
 10
-13.440285983
 20
19.9621268713
 10
-13.4463573751
 20
19.9664364818
 10
-13.4522633551
 20
19.9709684512
 10
-13.4579598458
 20
19.9756854841
 10
-13.4634733105
 20
19.9806055345
 10
-13.4688339105
 20
19.9857584703
 10
-13.474038859
 20
19.9911496781
 10
-13.4790651942
 20
19.9967634159
 10
-13.4839081815
 20
20.0026022023
 10
-13.4885648386
 20
20.0086727621
 10
-13.4930114794
 20
20.0149546214
 10
-13.4972154135
 20
20.0214065623
 10
-13.5011446965
 20
20.0279750937
 10
-13.504819253
 20
20.0346881779
 10
-13.5082780212
 20
20.0416290569
 10
-13.5115341949
 20
20.0488605379
 10
-13.5145345893
 20
20.0563034753
 10
-13.5172226752
 20
20.0638270151
 10
-13.5195724894
 20
20.0713295825
 10
-13.5215854353
 20
20.0787671416
  0
LWPOLYLINE
  5
38F
100
AcDbEntity
  8
RACCORDO
100
AcDbPolyline
 62
7
  6
CONTINUOUS
 90
15
 70
0
 10
-15.511638571
 20
19.9446455143
 10
-15.5060750434
 20
19.9438270948
 10
-15.5005168807
 20
19.9427325627
 10
-15.4949640827
 20
19.941361918
 10
-15.4894041359
 20
19.939711771
 10
-15.4838495538
 20
19.9377855115
 10
-15.4783378781
 20
19.9355933087
 10
-15.4728709714
 20
19.9331323299
 10
-15.4674469709
 20
19.930405408
 10
-15.4620978297
 20
19.9274312107
 10
-15.4568310119
 20
19.9242131475
 10
-15.4516390533
 20
19.9207478089
 10
-15.4465315144
 20
19.9170436348
 10
-15.441507498
 20
19.9131012393
 10
-15.4403538574
 20
19.9121247146
  0
LWPOLYLINE
  5
390
100
AcDbEntity
  8
ASSI
100
AcDbPolyline
 62
7
  6
CONTINUOUS
 90
15
 70
0
 10
-15.511638571
 20
19.9446455143
 10
-15.5060750434
 20
19.9438270948
 10
-15.5005168807
 20
19.9427325627
 10
-15.4949640827
 20
19.941361918
 10
-15.4894041359
 20
19.939711771
 10
-15.4838495538
 20
19.9377855115
 10
-15.4783378781
 20
19.9355933087
 10
-15.4728709714
 20
19.9331323299
 10
-15.4674469709
 20
19.930405408
 10
-15.4620978297
 20
19.9274312107
 10
-15.4568310119
 20
19.9242131475
 10
-15.4516390533
 20
19.9207478089
 10
-15.4465315144
 20
19.9170436348
 10
-15.441507498
 20
19.9131012393
 10
-15.4403538574
 20
19.9121247146
  0
LWPOLYLINE
  5
391
100
AcDbEntity
  8
RACCORDO
100
AcDbPolyline
 62
253
  6
CONTINUOUS
 90
34
 70
0
 10
-15.644903664
 20
19.9192082887
 10
-15.6388070413
 20
19.9182944598
 10
-15.6327149384
 20
19.9170515063
 10
-15.6266375534
 20
19.915481509
 10
-15.6205850596
 20
19.913587096
 10
-15.6145675888
 20
19.9113714384
 10
-15.6085952139
 20
19.9088382452
 10
-15.6026779327
 20
19.905991757
 10
-15.5968256504
 20
19.9028367386
 10
-15.5910481637
 20
19.8993784715
 10
-15.5853551438
 20
19.8956227447
 10
-15.5797561208
 20
19.8915758452
 10
-15.5742604672
 20
19.8872445474
 10
-15.5688773827
 20
19.8826361017
 10
-15.5636158783
 20
19.8777582227
 10
-15.5584847617
 20
19.8726190756
 10
-15.5534926222
 20
19.8672272634
 10
-15.5486478165
 20
19.8615918117
 10
-15.5439584547
 20
19.8557221541
 10
-15.5394323867
 20
19.8496281163
 10
-15.5350771889
 20
19.8433198996
 10
-15.5309001519
 20
19.8368080637
 10
-15.5269082679
 20
19.8301035092
 10
-15.5231082192
 20
19.8232174595
 10
-15.5195063669
 20
19.8161614414
 10
-15.5161087406
 20
19.8089472667
 10
-15.5129210276
 20
19.8015870117
 10
-15.5099485642
 20
19.7940929972
 10
-15.5071963262
 20
19.786477768
 10
-15.5046689207
 20
19.7787540717
 10
-15.5023705786
 20
19.7709348377
 10
-15.5003051472
 20
19.7630331551
 10
-15.498476084
 20
19.7550622511
 10
-15.4968864507
 20
19.7470354689
  0
LWPOLYLINE
  5
392
100
AcDbEntity
  8
ASSI
100
AcDbPolyline
 62
253
  6
CONTINUOUS
 90
34
 70
0
 10
-15.644903664
 20
19.9192082887
 10
-15.6388070413
 20
19.9182944598
 10
-15.6327149384
 20
19.9170515063
 10
-15.6266375534
 20
19.915481509
 10
-15.6205850596
 20
19.913587096
 10
-15.6145675888
 20
19.9113714384
 10
-15.6085952139
 20
19.9088382452
 10
-15.6026779327
 20
19.905991757
 10
-15.5968256504
 20
19.9028367386
 10
-15.5910481637
 20
19.8993784715
 10
-15.5853551438
 20
19.8956227447
 10
-15.5797561208
 20
19.8915758452
 10
-15.5742604672
 20
19.8872445474
 10
-15.5688773827
 20
19.8826361017
 10
-15.5636158783
 20
19.8777582227
 10
-15.5584847617
 20
19.8726190756
 10
-15.5534926222
 20
19.8672272634
 10
-15.5486478165
 20
19.8615918117
 10
-15.5439584547
 20
19.8557221541
 10
-15.5394323867
 20
19.8496281163
 10
-15.5350771889
 20
19.8433198996
 10
-15.5309001519
 20
19.8368080637
 10
-15.5269082679
 20
19.8301035092
 10
-15.5231082192
 20
19.8232174595
 10
-15.5195063669
 20
19.8161614414
 10
-15.5161087406
 20
19.8089472667
 10
-15.5129210276
 20
19.8015870117
 10
-15.5099485642
 20
19.7940929972
 10
-15.5071963262
 20
19.786477768
 10
-15.5046689207
 20
19.7787540717
 10
-15.5023705786
 20
19.7709348377
 10
-15.5003051472
 20
19.7630331551
 10
-15.498476084
 20
19.7550622511
 10
-15.4968864507
 20
19.7470354689
  0
LINE
  5
393
100
AcDbEntity
  8
ASSI
100
AcDbLine
 62
7
  6
CONTINUOUS
 10
-13.3519594485
 20
19.9288355576
 11
-13.3745662542
 21
19.9329470073
  0
LWPOLYLINE
  5
394
100
AcDbEntity
  8
RACCORDO
100
AcDbPolyline
 62
253
  6
CONTINUOUS
 90
4
 70
0
 10
-13.3666293467
 20
19.9319282203
 10
-13.3614557851
 20
19.9305377895
 10
-13.3562271896
 20
19.9294670532
 10
-13.3519594485
 20
19.9288355576
  0
LWPOLYLINE
  5
395
100
AcDbEntity
  8
ASSI
100
AcDbPolyline
 62
7
  6
CONTINUOUS
 90
10
 70
0
 10
-13.3746363133
 20
19.9329597488
 10
-13.3969567291
 20
19.9397637717
 10
-13.4184869423
 20
19.9491996139
 10
-13.4386721582
 20
19.9610374607
 10
-13.4573376244
 20
19.9751527768
 10
-13.4745565622
 20
19.9917085438
 10
-13.4899828392
 20
20.0106208825
 10
-13.5031440028
 20
20.0315519642
 10
-13.5137851745
 20
20.0543617151
 10
-13.5215711117
 20
20.0787008203
  0
LWPOLYLINE
  5
396
100
AcDbEntity
  8
ASSI
100
AcDbPolyline
 62
7
  6
CONTINUOUS
 90
13
 70
0
 10
-14.2361594621
 20
21.2074317761
 10
-14.1547829862
 20
21.1574390348
 10
-14.0754246856
 20
21.0981394729
 10
-13.9988442322
 20
21.0299783641
 10
-13.9258141816
 20
20.9535718922
 10
-13.8569881442
 20
20.8695847344
 10
-13.7929284491
 20
20.7787160568
 10
-13.7341490859
 20
20.6817372734
 10
-13.6810987284
 20
20.5794683867
 10
-13.6341581517
 20
20.4727677804
 10
-13.5936224321
 20
20.3624748091
 10
-13.5597305497
 20
20.2494577164
 10
-13.5326655041
 20
20.1346316399
  0
LWPOLYLINE
  5
397
100
AcDbEntity
  8
0
100
AcDbPolyline
 62
7
  6
CONTINUOUS
 90
26
 70
0
 10
-14.0259631928
 20
21.0541158344
 10
-14.0340767254
 20
21.0593997394
 10
-14.0565375021
 20
21.0731696813
 10
-14.0791908378
 20
21.0862058015
 10
-14.1020363565
 20
21.0985095328
 10
-14.1250293985
 20
21.1100568231
 10
-14.1481702524
 20
21.1208461927
 10
-14.1714586295
 20
21.1308791213
 10
-14.1948490044
 20
21.1401359959
 10
-14.2183415767
 20
21.1486152986
 10
-14.2419361467
 20
21.1563185473
 10
-14.2655865906
 20
21.1632306833
 10
-14.2892930175
 20
21.1693501591
 10
-14.3130553182
 20
21.1746785222
 10
-14.3368270407
 20
21.1792053564
 10
-14.3606082036
 20
21.1829290938
 10
-14.3843987883
 20
21.1858513023
 10
-14.4081522876
 20
21.1879662694
 10
-14.4318686291
 20
21.189272416
 10
-14.4555478852
 20
21.1897713213
 10
-14.4791437663
 20
21.1894620099
 10
-14.5026561094
 20
21.1883429008
 10
-14.5260850776
 20
21.186415575
 10
-14.5493848706
 20
21.1836838002
 10
-14.5725552356
 20
21.1801460028
 10
-14.585642206
 20
21.1777814165
  0
LWPOLYLINE
  5
398
100
AcDbEntity
  8
ASSI
100
AcDbPolyline
 62
7
  6
CONTINUOUS
 90
26
 70
0
 10
-14.0259631928
 20
21.0541158344
 10
-14.0340767254
 20
21.0593997394
 10
-14.0565375021
 20
21.0731696813
 10
-14.0791908378
 20
21.0862058015
 10
-14.1020363565
 20
21.0985095328
 10
-14.1250293985
 20
21.1100568231
 10
-14.1481702524
 20
21.1208461927
 10
-14.1714586295
 20
21.1308791213
 10
-14.1948490044
 20
21.1401359959
 10
-14.2183415767
 20
21.1486152986
 10
-14.2419361467
 20
21.1563185473
 10
-14.2655865906
 20
21.1632306833
 10
-14.2892930175
 20
21.1693501591
 10
-14.3130553182
 20
21.1746785222
 10
-14.3368270407
 20
21.1792053564
 10
-14.3606082036
 20
21.1829290938
 10
-14.3843987883
 20
21.1858513023
 10
-14.4081522876
 20
21.1879662694
 10
-14.4318686291
 20
21.189272416
 10
-14.4555478852
 20
21.1897713213
 10
-14.4791437663
 20
21.1894620099
 10
-14.5026561094
 20
21.1883429008
 10
-14.5260850776
 20
21.186415575
 10
-14.5493848706
 20
21.1836838002
 10
-14.5725552356
 20
21.1801460028
 10
-14.585642206
 20
21.1777814165
  0
LWPOLYLINE
  5
399
100
AcDbEntity
  8
ASSI
100
AcDbPolyline
 62
253
  6
CONTINUOUS
 90
3
 70
0
 10
-13.4758334664
 20
20.1765463027
 10
-13.4680909713
 20
20.1394168825
 10
-13.4609820054
 20
20.1021110877
  0
LWPOLYLINE
  5
39A
100
AcDbEntity
  8
CURVE
100
AcDbPolyline
 62
252
  6
CONTINUOUS
 90
6
 70
0
 10
-13.7300313021
 20
6.9138021558
 10
-13.734362802
 20
6.8907448962
 10
-13.7394214002
 20
6.8679937745
 10
-13.7451971292
 20
6.8455976959
 10
-13.7516769732
 20
6.8236126232
 10
-13.7588479159
 20
6.8020945194
  0
LINE
  5
39B
100
AcDbEntity
  8
CURVE
100
AcDbLine
 62
252
  6
CONTINUOUS
 10
-14.6730028773
 20
7.4056403486
 11
-14.6680274602
 21
7.426964172
  0
LINE
  5
39C
100
AcDbEntity
  8
CURVE
100
AcDbLine
 62
252
  6
CONTINUOUS
 10
-14.6682413365
 20
7.4261064041
 11
-14.6626343319
 21
7.4472021786
  0
LINE
  5
39D
100
AcDbEntity
  8
CURVE
100
AcDbLine
 62
252
  6
CONTINUOUS
 10
-14.6628975229
 20
7.4462699654
 11
-14.6566607828
 21
7.4670864068
  0
LINE
  5
39E
100
AcDbEntity
  8
CURVE
100
AcDbLine
 62
252
  6
CONTINUOUS
 10
-14.6569776406
 20
7.4660878161
 11
-14.6501124642
 21
7.486574511
  0
LWPOLYLINE
  5
39F
100
AcDbEntity
  8
RACCORDO
100
AcDbPolyline
 62
253
  6
CONTINUOUS
 90
64
 70
0
 10
-14.0896357506
 20
18.7752675098
 10
-14.0643593093
 20
18.7879639977
 10
-14.038737316
 20
18.8021795825
 10
-14.0125933737
 20
18.8181547032
 10
-13.9859933034
 20
18.8360225144
 10
-13.9590501282
 20
18.8558906894
 10
-13.9316959062
 20
18.878020575
 10
-13.9040292603
 20
18.9025801239
 10
-13.8762162468
 20
18.9296870732
 10
-13.8483286372
 20
18.9595637629
 10
-13.8205376179
 20
18.9923538589
 10
-13.793029528
 20
19.0281912701
 10
-13.7659387642
 20
19.0672993122
 10
-13.7394720135
 20
19.1098354464
 10
-13.7138935199
 20
19.1558769245
 10
-13.6894583663
 20
19.2055163651
 10
-13.6663730273
 20
19.258982931
 10
-13.6450048891
 20
19.316161411
 10
-13.6258055036
 20
19.3765371623
 10
-13.6089937856
 20
19.4401193708
 10
-13.5948373586
 20
19.5067290431
 10
-13.5836896803
 20
19.5754188308
 10
-13.5756823811
 20
19.6459052066
 10
-13.5709173726
 20
19.7180376586
 10
-13.5694980679
 20
19.7909642976
 10
-13.5714276836
 20
19.8642807822
 10
-13.5766981042
 20
19.9378543375
 10
-13.5852665827
 20
20.0112135965
 10
-13.597076297
 20
20.0840754924
 10
-13.6120637168
 20
20.1561949416
 10
-13.6301118072
 20
20.2271683725
 10
-13.6512441347
 20
20.2971491501
 10
-13.6752508488
 20
20.3654941137
 10
-13.7014634647
 20
20.4307082558
 10
-13.7295360342
 20
20.4925602648
 10
-13.7592439121
 20
20.5511131786
 10
-13.789848703
 20
20.6055253194
 10
-13.8207429551
 20
20.6554535348
 10
-13.8518618815
 20
20.7014559851
 10
-13.8832692982
 20
20.7441137011
 10
-13.9148460088
 20
20.7836401555
 10
-13.9463047027
 20
20.8200235205
 10
-13.9775366368
 20
20.8534654373
 10
-14.008334859
 20
20.8840463666
 10
-14.0386002844
 20
20.9119503553
 10
-14.068429757
 20
20.9375044898
 10
-14.0976988328
 20
20.9608069816
 10
-14.1263321949
 20
20.9819916294
 10
-14.1545436976
 20
21.00137519
 10
-14.1823246635
 20
21.0190759827
 10
-14.209560719
 20
21.0351403043
 10
-14.2363337851
 20
21.0497256829
 10
-14.2626601488
 20
21.0629332867
 10
-14.28843885
 20
21.0748015636
 10
-14.3135856202
 20
21.0853842907
 10
-14.3380846254
 20
21.0947658115
 10
-14.3618889086
 20
21.1030158486
 10
-14.3848713121
 20
21.1101810402
 10
-14.40702164
 20
21.1163498321
 10
-14.4283075938
 20
21.1216010337
 10
-14.4485724071
 20
21.1259869736
 10
-14.4677557798
 20
21.1295894012
 10
-14.4858942601
 20
21.1325049207
 10
-14.5029802801
 20
21.1348151963
  0
LWPOLYLINE
  5
3A0
100
AcDbEntity
  8
ASSI
100
AcDbPolyline
 62
7
  6
CONTINUOUS
 90
3
 70
0
 10
-13.4092504993
 20
19.6127661259
 10
-13.3881579135
 20
19.6224089407
 10
-13.3661792344
 20
19.6295220676
  0
LWPOLYLINE
  5
3A1
100
AcDbEntity
  8
RACCORDO
100
AcDbPolyline
 62
253
  6
CONTINUOUS
 90
4
 70
0
 10
-14.1630870542
 20
18.7453355009
 10
-14.1389615036
 20
18.7540687559
 10
-14.1145279045
 20
18.7639945454
 10
-14.0896357506
 20
18.7752675098
  0
LINE
  5
3A2
100
AcDbEntity
  8
ASSI
100
AcDbLine
 62
7
  6
CONTINUOUS
 10
-14.6808168544
 20
21.3090965564
 11
-14.6822210871
 21
21.3087158377
  0
LWPOLYLINE
  5
3A3
100
AcDbEntity
  8
0
100
AcDbPolyline
 62
7
  6
CONTINUOUS
 90
7
 70
0
 10
-14.585642206
 20
21.1777814165
 10
-14.5955964254
 20
21.1758037563
 10
-14.6184633977
 20
21.1706655492
 10
-14.6411558117
 20
21.1647298246
 10
-14.6636740082
 20
21.1579981394
 10
-14.6859739673
 20
21.1504836532
 10
-14.7080552622
 20
21.1421848346
  0
LWPOLYLINE
  5
3A4
100
AcDbEntity
  8
ASSI
100
AcDbPolyline
 62
7
  6
CONTINUOUS
 90
5
 70
0
 10
-14.585642206
 20
21.1777814165
 10
-14.5955964254
 20
21.1758037563
 10
-14.6184633977
 20
21.1706655492
 10
-14.6411558117
 20
21.1647298246
 10
-14.6636740082
 20
21.1579981394
  0
LINE
  5
3A5
100
AcDbEntity
  8
ASSI
100
AcDbLine
 62
7
  6
CONTINUOUS
 10
-14.7448872228
 20
21.3000942282
 11
-14.7444687945
 21
21.3001742185
  0
LINE
  5
3A6
100
AcDbEntity
  8
RACCORDO
100
AcDbLine
 62
7
  6
CONTINUOUS
 10
-14.7445361105
 20
21.3001613663
 11
-14.7444687945
 21
21.3001742185
  0
LINE
  5
3A7
100
AcDbEntity
  8
RACCORDO
100
AcDbLine
 62
7
  6
CONTINUOUS
 10
-15.4826315826
 20
20.2420090369
 11
-15.6158966756
 21
20.2165718112
  0
LINE
  5
3A8
100
AcDbEntity
  8
ASSI
100
AcDbLine
 62
7
  6
CONTINUOUS
 10
-15.4826315826
 20
20.2420090369
 11
-15.6158966756
 21
20.2165718112
  0
LINE
  5
3A9
100
AcDbEntity
  8
RACCORDO
100
AcDbLine
 62
253
  6
CONTINUOUS
 10
-15.408347065
 20
20.3708466052
 11
-15.5072884058
 21
20.3519609904
  0
LINE
  5
3AA
100
AcDbEntity
  8
ASSI
100
AcDbLine
 62
253
  6
CONTINUOUS
 10
-15.408347065
 20
20.3708466052
 11
-15.5072884058
 21
20.3519609904
  0
LINE
  5
3AB
100
AcDbEntity
  8
0
100
AcDbLine
 62
7
  6
CONTINUOUS
 10
-14.7118539518
 20
21.1282401848
 11
-14.4018773209
 21
21.1874075581
  0
LWPOLYLINE
  5
3AC
100
AcDbEntity
  8
ASSI
100
AcDbPolyline
 62
7
  6
CONTINUOUS
 90
8
 70
0
 10
-14.7448899313
 20
21.3000936425
 10
-14.730226807
 20
21.3027321338
 10
-14.6497866469
 20
21.3112979245
 10
-14.5680158138
 20
21.3101354637
 10
-14.4854176474
 20
21.2992146055
 10
-14.402194961
 20
21.2784636588
 10
-14.3188608357
 20
21.2478357651
 10
-14.2361594621
 20
21.2074317761
  0
LWPOLYLINE
  5
3AD
100
AcDbEntity
  8
RACCORDO
100
AcDbPolyline
 62
7
  6
CONTINUOUS
 90
66
 70
0
 10
-14.7445388126
 20
21.3001607805
 10
-14.7253488351
 20
21.3035348267
 10
-14.7010554507
 20
21.3069812897
 10
-14.6767108875
 20
21.3095256976
 10
-14.6523239897
 20
21.3111771367
 10
-14.6278960683
 20
21.3119440566
 10
-14.6034385192
 20
21.3118335579
 10
-14.5789653009
 20
21.3108533844
 10
-14.5544820304
 20
21.309010385
 10
-14.530001028
 20
21.3063117301
 10
-14.5055369523
 20
21.3027653146
 10
-14.4810998906
 20
21.298378144
 10
-14.4567031492
 20
21.293158282
 10
-14.4323624118
 20
21.2871146104
 10
-14.4080922667
 20
21.2802559727
 10
-14.3839076364
 20
21.2725923175
 10
-14.3598241066
 20
21.2641340614
 10
-14.3358577882
 20
21.2548923031
 10
-14.3120301966
 20
21.2448816886
 10
-14.2883507866
 20
21.2341122673
 10
-14.2648177397
 20
21.2225881928
 10
-14.2414492897
 20
21.2103231489
 10
-14.2182580907
 20
21.1973282792
 10
-14.1952341471
 20
21.1836012252
 10
-14.1723924464
 20
21.1691532736
 10
-14.1497488214
 20
21.1539965503
 10
-14.1272948919
 20
21.1381265645
 10
-14.1050430429
 20
21.1215521537
 10
-14.0830116995
 20
21.1042868832
 10
-14.0612018014
 20
21.0863309787
 10
-14.0396266257
 20
21.0676943511
 10
-14.0183032492
 20
21.048390483
 10
-13.9972382681
 20
21.028423974
 10
-13.9764463496
 20
21.0078072825
 10
-13.9559422443
 20
20.9865533366
 10
-13.9357324945
 20
20.9646669616
 10
-13.9158306252
 20
20.9421607312
 10
-13.8962515466
 20
20.9190491631
 10
-13.8770036531
 20
20.8953396942
 10
-13.8580999532
 20
20.8710459187
 10
-13.8395546156
 20
20.8461833314
 10
-13.8213774028
 20
20.8207622435
 10
-13.80358119
 20
20.794798147
 10
-13.7861787156
 20
20.7683068179
 10
-13.769179106
 20
20.7412991348
 10
-13.7525940684
 20
20.7137909287
 10
-13.7364359225
 20
20.6857995569
 10
-13.7207142454
 20
20.6573383849
 10
-13.705439715
 20
20.6284238979
 10
-13.6906238528
 20
20.5990747458
 10
-13.6762768472
 20
20.5693079164
 10
-13.662408778
 20
20.5391418245
 10
-13.6490295373
 20
20.5085951883
 10
-13.6361482599
 20
20.477685881
 10
-13.6237739214
 20
20.4464332548
 10
-13.611915209
 20
20.4148567863
 10
-13.6005800776
 20
20.3829748879
 10
-13.5897763295
 20
20.3508076287
 10
-13.579511451
 20
20.3183751822
 10
-13.5697922178
 20
20.2856963969
 10
-13.5606252276
 20
20.2527919093
 10
-13.5520167424
 20
20.2196824735
 10
-13.5439723713
 20
20.1863873348
 10
-13.536497366
 20
20.1529270195
 10
-13.5295968717
 20
20.1193232817
 10
-13.5243557541
 20
20.0915948824
  0
LINE
  5
3AE
100
AcDbEntity
  8
RACCORDO
100
AcDbLine
 62
7
  6
CONTINUOUS
 10
-15.6158962263
 20
20.216571897
 11
-15.62464108
 21
20.215102847
  0
LINE
  5
3AF
100
AcDbEntity
  8
ASSI
100
AcDbLine
 62
7
  6
CONTINUOUS
 10
-15.6159747938
 20
20.2165569301
 11
-15.62464108
 21
20.215102847
  0
LWPOLYLINE
  5
3B0
100
AcDbEntity
  8
RACCORDO
100
AcDbPolyline
 62
253
  6
CONTINUOUS
 90
13
 70
0
 10
-14.5029802801
 20
21.1348151963
 10
-14.5173188586
 20
21.1364272825
 10
-14.5326143816
 20
21.1378178071
 10
-14.5488602361
 20
21.1389217345
 10
-14.5660951645
 20
21.1396713779
 10
-14.5842610275
 20
21.1399895477
 10
-14.6032034886
 20
21.1398022503
 10
-14.622898206
 20
21.139041223
 10
-14.6433378255
 20
21.1376350939
 10
-14.6643918765
 20
21.1355228003
 10
-14.686032162
 20
21.1326400038
 10
-14.7082421703
 20
21.1289191762
 10
-14.7118539518
 20
21.1282401848
  0
LINE
  5
3B1
100
AcDbEntity
  8
RACCORDO
100
AcDbLine
 62
7
  6
CONTINUOUS
 10
-2.2767018563
 20
19.6058485003
 11
-2.1277075578
 21
19.5875474618
  0
LINE
  5
3B2
100
AcDbEntity
  8
ASSI
100
AcDbLine
 62
7
  6
CONTINUOUS
 10
-2.2767018563
 20
19.6058485003
 11
-2.1277075578
 21
19.5875474618
  0
LINE
  5
3B3
100
AcDbEntity
  8
CURVE
100
AcDbLine
 62
252
  6
CONTINUOUS
 10
-14.6504863716
 20
7.4855209233
 11
-14.6429908486
 21
7.5056415772
  0
LINE
  5
3B4
100
AcDbEntity
  8
CURVE
100
AcDbLine
 62
252
  6
CONTINUOUS
 10
-14.64342231
 20
7.5045469912
 11
-14.6352963641
 21
7.5242670493
  0
LINE
  5
3B5
100
AcDbEntity
  8
CURVE
100
AcDbLine
 62
252
  6
CONTINUOUS
 10
-14.6357825282
 20
7.523147908
 11
-14.6270294383
 21
7.5424303713
  0
LINE
  5
3B6
100
AcDbEntity
  8
CURVE
100
AcDbLine
 62
252
  6
CONTINUOUS
 10
-14.6275640983
 20
7.5413055618
 11
-14.6168860625
 21
7.562594709
  0
LWPOLYLINE
  5
3B7
100
AcDbEntity
  8
ASSI
100
AcDbPolyline
 62
7
  6
CONTINUOUS
 90
14
 70
0
 10
-22.22150001
 20
20.8263674827
 10
-22.2498374304
 20
20.8188156307
 10
-22.2759366139
 20
20.8107849286
 10
-22.3006868359
 20
20.8019277466
 10
-22.3243630384
 20
20.7919679308
 10
-22.3470591534
 20
20.7806187543
 10
-22.3694304525
 20
20.7671410463
 10
-22.3918814308
 20
20.7505310926
 10
-22.4134518616
 20
20.730495755
 10
-22.4327160043
 20
20.7075398335
 10
-22.4491587833
 20
20.6816231664
 10
-22.4621951565
 20
20.6528098504
 10
-22.4708848282
 20
20.6226078001
 10
-22.4750594341
 20
20.592029362
  0
LWPOLYLINE
  5
3B8
100
AcDbEntity
  8
RACCORDO
100
AcDbPolyline
 62
253
  6
CONTINUOUS
 90
4
 70
0
 10
-22.1727918545
 20
20.8307479617
 10
-22.1633295505
 20
20.8329841956
 10
-22.1535156657
 20
20.835183582
 10
-22.1433431667
 20
20.8373478599
  0
LINE
  5
3B9
100
AcDbEntity
  8
ASSI
100
AcDbLine
 62
7
  6
CONTINUOUS
 10
-22.1898518965
 20
20.8336825357
 11
-22.22150001
 21
20.8263674827
  0
LWPOLYLINE
  5
3BA
100
AcDbEntity
  8
RACCORDO
100
AcDbPolyline
 62
7
  6
CONTINUOUS
 90
47
 70
0
 10
-22.1883707615
 20
20.8340077489
 10
-22.1997291961
 20
20.8315137746
 10
-22.210638571
 20
20.8289986104
 10
-22.2211266875
 20
20.8264601444
 10
-22.2312439997
 20
20.8238895686
 10
-22.2410047797
 20
20.8212858606
 10
-22.2504245491
 20
20.8186473567
 10
-22.2595536547
 20
20.8159615449
 10
-22.2684053059
 20
20.8132250925
 10
-22.2769927609
 20
20.8104341462
 10
-22.285365129
 20
20.8075718553
 10
-22.2935319789
 20
20.8046328072
 10
-22.3015067686
 20
20.8016095026
 10
-22.3093428144
 20
20.7984771557
 10
-22.3170587599
 20
20.7952214282
 10
-22.3246521316
 20
20.7918356527
 10
-22.3321442746
 20
20.7883014861
 10
-22.3395552209
 20
20.7845984534
 10
-22.3468761407
 20
20.7807187479
 10
-22.3540876015
 20
20.7766610307
 10
-22.3612026976
 20
20.7724058069
 10
-22.3682155774
 20
20.7679431421
 10
-22.3750818062
 20
20.7632898525
 10
-22.3817993938
 20
20.7584379361
 10
-22.388373153
 20
20.7533736445
 10
-22.3947705562
 20
20.7481128494
 10
-22.4009767288
 20
20.7426613722
 10
-22.4070029063
 20
20.7370022562
 10
-22.412852581
 20
20.7311223495
 10
-22.4185246975
 20
20.7250104384
 10
-22.4240034876
 20
20.718670335
 10
-22.4292672844
 20
20.7121153704
 10
-22.4343069319
 20
20.7053459922
 10
-22.4391123729
 20
20.6983639312
 10
-22.4436620576
 20
20.6911899394
 10
-22.4479458568
 20
20.6838311111
 10
-22.4519559687
 20
20.6762912566
 10
-22.455676914
 20
20.6685906104
 10
-22.4590990211
 20
20.6607422042
 10
-22.4622170098
 20
20.6527505127
 10
-22.4650234189
 20
20.6446254838
 10
-22.4675105284
 20
20.6363797518
 10
-22.4696723814
 20
20.6280221042
 10
-22.4715038031
 20
20.6195578754
 10
-22.4729979961
 20
20.6109995106
 10
-22.4741488155
 20
20.6023589492
 10
-22.474951032
 20
20.5936414928
  0
LINE
  5
3BB
100
AcDbEntity
  8
RACCORDO
100
AcDbLine
 62
7
  6
CONTINUOUS
 10
-22.1765600886
 20
20.8364769546
 11
-22.1883707615
 21
20.8340077489
  0
LINE
  5
3BC
100
AcDbEntity
  8
ASSI
100
AcDbLine
 62
7
  6
CONTINUOUS
 10
-22.1678134629
 20
20.8382295373
 11
-22.1898518965
 21
20.8336825357
  0
LINE
  5
3BD
100
AcDbEntity
  8
RACCORDO
100
AcDbLine
 62
253
  6
CONTINUOUS
 10
-22.1433431667
 20
20.8373478599
 11
-22.1328120534
 21
20.8394770292
  0
LINE
  5
3BE
100
AcDbEntity
  8
ASSI
100
AcDbLine
 62
253
  6
CONTINUOUS
 10
-22.1433431667
 20
20.8373478599
 11
-22.1328120534
 21
20.8394770292
  0
LINE
  5
3BF
100
AcDbEntity
  8
RACCORDO
100
AcDbLine
 62
253
  6
CONTINUOUS
 10
-22.1328120534
 20
20.8394770292
 11
-22.0802731952
 21
20.8498331394
  0
LINE
  5
3C0
100
AcDbEntity
  8
ASSI
100
AcDbLine
 62
253
  6
CONTINUOUS
 10
-22.1328120534
 20
20.8394770292
 11
-22.0802731952
 21
20.8498331394
  0
LINE
  5
3C1
100
AcDbEntity
  8
RACCORDO
100
AcDbLine
 62
7
  6
CONTINUOUS
 10
-22.1765600886
 20
20.8364769546
 11
-22.0803700578
 21
20.8554661817
  0
LINE
  5
3C2
100
AcDbEntity
  8
ASSI
100
AcDbLine
 62
7
  6
CONTINUOUS
 10
-22.1680939269
 20
20.8381746363
 11
-22.0803700578
 21
20.8554661817
  0
LWPOLYLINE
  5
3C3
100
AcDbEntity
  8
RACCORDO
100
AcDbPolyline
 62
253
  6
CONTINUOUS
 90
7
 70
0
 10
-22.1680911451
 20
20.8381751845
 10
-22.1630027165
 20
20.8390558159
 10
-22.157034621
 20
20.8397826232
 10
-22.1510217272
 20
20.8401885458
 10
-22.144973788
 20
20.8402729253
 10
-22.1389006131
 20
20.8400356248
 10
-22.1328120534
 20
20.8394770292
  0
LWPOLYLINE
  5
3C4
100
AcDbEntity
  8
ASSI
100
AcDbPolyline
 62
253
  6
CONTINUOUS
 90
7
 70
0
 10
-22.1678134643
 20
20.8382295447
 10
-22.1630027165
 20
20.8390558159
 10
-22.157034621
 20
20.8397826232
 10
-22.1510217272
 20
20.8401885458
 10
-22.144973788
 20
20.8402729253
 10
-22.1389006131
 20
20.8400356248
 10
-22.1328120534
 20
20.8394770292
  0
LWPOLYLINE
  5
3C5
100
AcDbEntity
  8
RACCORDO
100
AcDbPolyline
 62
253
  6
CONTINUOUS
 90
56
 70
0
 10
-6.2038152348
 20
-1.0706079151
 10
-6.2013200244
 20
-1.1050676027
 10
-6.1982673052
 20
-1.1393468252
 10
-6.1946587661
 20
-1.1734265316
 10
-6.1904963893
 20
-1.2072877284
 10
-6.1857824897
 20
-1.2409116531
 10
-6.1805197041
 20
-1.2742797802
 10
-6.1747109065
 20
-1.3073736452
 10
-6.1683593171
 20
-1.3401747712
 10
-6.1614685379
 20
-1.3726648409
 10
-6.1540423662
 20
-1.4048257731
 10
-6.1460848976
 20
-1.4366397217
 10
-6.1376006271
 20
-1.4680889989
 10
-6.1285942263
 20
-1.4991561167
 10
-6.1190706635
 20
-1.5298238236
 10
-6.1090353078
 20
-1.5600751039
 10
-6.098493671
 20
-1.5898931711
 10
-6.0874515756
 20
-1.6192614292
 10
-6.0759152742
 20
-1.6481635097
 10
-6.0638911209
 20
-1.6765833421
 10
-6.0513857436
 20
-1.7045051469
 10
-6.0384062094
 20
-1.7319133949
 10
-6.0249596597
 20
-1.7587928633
 10
-6.0110535122
 20
-1.7851286117
 10
-5.9966956343
 20
-1.8109059758
 10
-5.9818939358
 20
-1.8361106256
 10
-5.966656573
 20
-1.8607285683
 10
-5.9509921489
 20
-1.8847461217
 10
-5.9349092774
 20
-1.9081499555
 10
-5.9184168331
 20
-1.9309270535
 10
-5.9015241553
 20
-1.9530647159
 10
-5.8842405523
 20
-1.9745506376
 10
-5.8665755448
 20
-1.9953728935
 10
-5.8485391143
 20
-2.0155198974
 10
-5.8301411831
 20
-2.0349804678
 10
-5.8113918999
 20
-2.0537437858
 10
-5.7923018849
 20
-2.0717993825
 10
-5.7728816605
 20
-2.0891372234
 10
-5.7531419211
 20
-2.1057476909
 10
-5.7330938169
 20
-2.1216215394
 10
-5.7127483794
 20
-2.1367499608
 10
-5.6921168293
 20
-2.1511245482
 10
-5.6712108456
 20
-2.1647372781
 10
-5.6500419448
 20
-2.1775805928
 10
-5.6286217898
 20
-2.1896473656
 10
-5.606962496
 20
-2.2009308622
 10
-5.5850759823
 20
-2.211424826
 10
-5.5629743189
 20
-2.2211234291
 10
-5.5406700373
 20
-2.2300212406
 10
-5.5181754401
 20
-2.2381133227
 10
-5.4955029059
 20
-2.2453951987
 10
-5.4726652371
 20
-2.2518628006
 10
-5.4496750044
 20
-2.257512547
 10
-5.4265448833
 20
-2.2623413065
 10
-5.4032879584
 20
-2.2663463644
 10
-5.3830540491
 20
-2.2691475947
  0
LWPOLYLINE
  5
3C6
100
AcDbEntity
  8
ASSI
100
AcDbPolyline
 62
253
  6
CONTINUOUS
 90
56
 70
0
 10
-6.2038152348
 20
-1.0706079151
 10
-6.2013200244
 20
-1.1050676027
 10
-6.1982673052
 20
-1.1393468252
 10
-6.1946587661
 20
-1.1734265316
 10
-6.1904963893
 20
-1.2072877284
 10
-6.1857824897
 20
-1.2409116531
 10
-6.1805197041
 20
-1.2742797802
 10
-6.1747109065
 20
-1.3073736452
 10
-6.1683593171
 20
-1.3401747712
 10
-6.1614685379
 20
-1.3726648409
 10
-6.1540423662
 20
-1.4048257731
 10
-6.1460848976
 20
-1.4366397217
 10
-6.1376006271
 20
-1.4680889989
 10
-6.1285942263
 20
-1.4991561167
 10
-6.1190706635
 20
-1.5298238236
 10
-6.1090353078
 20
-1.5600751039
 10
-6.098493671
 20
-1.5898931711
 10
-6.0874515756
 20
-1.6192614292
 10
-6.0759152742
 20
-1.6481635097
 10
-6.0638911209
 20
-1.6765833421
 10
-6.0513857436
 20
-1.7045051469
 10
-6.0384062094
 20
-1.7319133949
 10
-6.0249596597
 20
-1.7587928633
 10
-6.0110535122
 20
-1.7851286117
 10
-5.9966956343
 20
-1.8109059758
 10
-5.9818939358
 20
-1.8361106256
 10
-5.966656573
 20
-1.8607285683
 10
-5.9509921489
 20
-1.8847461217
 10
-5.9349092774
 20
-1.9081499555
 10
-5.9184168331
 20
-1.9309270535
 10
-5.9015241553
 20
-1.9530647159
 10
-5.8842405523
 20
-1.9745506376
 10
-5.8665755448
 20
-1.9953728935
 10
-5.8485391143
 20
-2.0155198974
 10
-5.8301411831
 20
-2.0349804678
 10
-5.8113918999
 20
-2.0537437858
 10
-5.7923018849
 20
-2.0717993825
 10
-5.7728816605
 20
-2.0891372234
 10
-5.7531419211
 20
-2.1057476909
 10
-5.7330938169
 20
-2.1216215394
 10
-5.7127483794
 20
-2.1367499608
 10
-5.6921168293
 20
-2.1511245482
 10
-5.6712108456
 20
-2.1647372781
 10
-5.6500419448
 20
-2.1775805928
 10
-5.6286217898
 20
-2.1896473656
 10
-5.606962496
 20
-2.2009308622
 10
-5.5850759823
 20
-2.211424826
 10
-5.5629743189
 20
-2.2211234291
 10
-5.5406700373
 20
-2.2300212406
 10
-5.5181754401
 20
-2.2381133227
 10
-5.4955029059
 20
-2.2453951987
 10
-5.4726652371
 20
-2.2518628006
 10
-5.4496750044
 20
-2.257512547
 10
-5.4265448833
 20
-2.2623413065
 10
-5.4032879584
 20
-2.2663463644
 10
-5.3831840019
 20
-2.2691316142
  0
LWPOLYLINE
  5
3C7
100
AcDbEntity
  8
RACCORDO
100
AcDbPolyline
 62
253
  6
CONTINUOUS
 90
35
 70
0
 10
-7.0267003662
 20
19.3117853002
 10
-7.026461422
 20
19.3038450947
 10
-7.0260061604
 20
19.2959587756
 10
-7.0253353209
 20
19.2881391538
 10
-7.0244499933
 20
19.2803989314
 10
-7.0233516157
 20
19.2727506818
 10
-7.0220419723
 20
19.2652068289
 10
-7.0205231905
 20
19.2577796271
 10
-7.0187977376
 20
19.2504811412
 10
-7.0168684162
 20
19.243323227
 10
-7.0147383605
 20
19.2363175119
 10
-7.0124110305
 20
19.2294753761
 10
-7.0098902068
 20
19.2228079341
 10
-7.0071799843
 20
19.2163260167
 10
-7.0042847655
 20
19.210040153
 10
-7.0012092534
 20
19.203960554
 10
-6.997958444
 20
19.1980970955
 10
-6.9945376179
 20
19.1924593021
 10
-6.9909523319
 20
19.1870563319
 10
-6.9872084101
 20
19.1818969617
 10
-6.9833119342
 20
19.1769895724
 10
-6.9792692336
 20
19.1723421356
 10
-6.9750868753
 20
19.1679622007
 10
-6.9707716534
 20
19.1638568825
 10
-6.9663305774
 20
19.1600328498
 10
-6.9617708615
 20
19.1564963143
 10
-6.9570999127
 20
19.1532530209
 10
-6.9523253184
 20
19.150308238
 10
-6.9474548346
 20
19.1476667491
 10
-6.942496373
 20
19.1453328452
 10
-6.9374579882
 20
19.1433103174
 10
-6.9323478646
 20
19.1416024512
 10
-6.9271743032
 20
19.1402120208
 10
-6.921945708
 20
19.1391412849
 10
-6.9176824823
 20
19.1385103444
  0
LWPOLYLINE
  5
3C8
100
AcDbEntity
  8
ASSI
100
AcDbPolyline
 62
253
  6
CONTINUOUS
 90
35
 70
0
 10
-7.0267003662
 20
19.3117853002
 10
-7.026461422
 20
19.3038450947
 10
-7.0260061604
 20
19.2959587756
 10
-7.0253353209
 20
19.2881391538
 10
-7.0244499933
 20
19.2803989314
 10
-7.0233516157
 20
19.2727506818
 10
-7.0220419723
 20
19.2652068289
 10
-7.0205231905
 20
19.2577796271
 10
-7.0187977376
 20
19.2504811412
 10
-7.0168684162
 20
19.243323227
 10
-7.0147383605
 20
19.2363175119
 10
-7.0124110305
 20
19.2294753761
 10
-7.0098902068
 20
19.2228079341
 10
-7.0071799843
 20
19.2163260167
 10
-7.0042847655
 20
19.210040153
 10
-7.0012092534
 20
19.203960554
 10
-6.997958444
 20
19.1980970955
 10
-6.9945376179
 20
19.1924593021
 10
-6.9909523319
 20
19.1870563319
 10
-6.9872084101
 20
19.1818969617
 10
-6.9833119342
 20
19.1769895724
 10
-6.9792692336
 20
19.1723421356
 10
-6.9750868753
 20
19.1679622007
 10
-6.9707716534
 20
19.1638568825
 10
-6.9663305774
 20
19.1600328498
 10
-6.9617708615
 20
19.1564963143
 10
-6.9570999127
 20
19.1532530209
 10
-6.9523253184
 20
19.150308238
 10
-6.9474548346
 20
19.1476667491
 10
-6.942496373
 20
19.1453328452
 10
-6.9374579882
 20
19.1433103174
 10
-6.9323478646
 20
19.1416024512
 10
-6.9271743032
 20
19.1402120208
 10
-6.921945708
 20
19.1391412849
 10
-6.9179354781
 20
19.1385418082
  0
LWPOLYLINE
  5
3C9
100
AcDbEntity
  8
RACCORDO
100
AcDbPolyline
 62
253
  6
CONTINUOUS
 90
22
 70
0
 10
-7.0148809901
 20
18.6199900414
 10
-6.996850101
 20
17.6777894552
 10
-6.9767636694
 20
16.7359846193
 10
-6.9546218974
 20
15.7945850641
 10
-6.9304278394
 20
14.8536006653
 10
-6.904178907
 20
13.9130405957
 10
-6.8758668693
 20
12.9729133244
 10
-6.8454891756
 20
12.0332280167
 10
-6.8130489653
 20
11.0939945294
 10
-6.7785465726
 20
10.155222363
 10
-6.7419823419
 20
9.2169210161
 10
-6.7033566403
 20
8.2790999842
 10
-6.6626698671
 20
7.341768755
 10
-6.619922428
 20
6.4049368124
 10
-6.5751147516
 20
5.468613637
 10
-6.5282473022
 20
4.5328087045
 10
-6.4793205467
 20
3.597531485
 10
-6.4283349752
 20
2.6627914413
 10
-6.3752911165
 20
1.7285980298
 10
-6.3201895068
 20
0.7949607025
 10
-6.2630306895
 20
-0.1381110929
 10
-6.2038152348
 20
-1.0706079151
  0
LWPOLYLINE
  5
3CA
100
AcDbEntity
  8
ASSI
100
AcDbPolyline
 62
253
  6
CONTINUOUS
 90
22
 70
0
 10
-7.0148809901
 20
18.6199900414
 10
-6.996850101
 20
17.6777894552
 10
-6.9767636694
 20
16.7359846193
 10
-6.9546218974
 20
15.7945850641
 10
-6.9304278394
 20
14.8536006653
 10
-6.904178907
 20
13.9130405957
 10
-6.8758668693
 20
12.9729133244
 10
-6.8454891756
 20
12.0332280167
 10
-6.8130489653
 20
11.0939945294
 10
-6.7785465726
 20
10.155222363
 10
-6.7419823419
 20
9.2169210161
 10
-6.7033566403
 20
8.2790999842
 10
-6.6626698671
 20
7.341768755
 10
-6.619922428
 20
6.4049368124
 10
-6.5751147516
 20
5.468613637
 10
-6.5282473022
 20
4.5328087045
 10
-6.4793205467
 20
3.597531485
 10
-6.4283349752
 20
2.6627914413
 10
-6.3752911165
 20
1.7285980298
 10
-6.3201895068
 20
0.7949607025
 10
-6.2630306895
 20
-0.1381110929
 10
-6.2038152348
 20
-1.0706079151
  0
LWPOLYLINE
  5
3CB
100
AcDbEntity
  8
RACCORDO
100
AcDbPolyline
 62
253
  6
CONTINUOUS
 90
40
 70
0
 10
-7.014804487
 20
18.6199806445
 10
-7.0148392834
 20
18.6279598164
 10
-7.0146573306
 20
18.6359677642
 10
-7.0142589242
 20
18.6439914798
 10
-7.0136447114
 20
18.6520179292
 10
-7.01281569
 20
18.6600340742
 10
-7.0117732065
 20
18.6680268933
 10
-7.0105189545
 20
18.6759834027
 10
-7.0090549714
 20
18.6838906778
 10
-7.0073836352
 20
18.6917358739
 10
-7.005507661
 20
18.6995062471
 10
-7.003430096
 20
18.7071891752
 10
-7.0011543151
 20
18.7147721779
 10
-6.9986840152
 20
18.7222429371
 10
-6.996023209
 20
18.7295893174
 10
-6.9931762187
 20
18.7367993851
 10
-6.9901476691
 20
18.7438614281
 10
-6.9869424798
 20
18.7507639747
 10
-6.9835658574
 20
18.7574958123
 10
-6.9800232868
 20
18.7640460055
 10
-6.9763205227
 20
18.7704039143
 10
-6.97246358
 20
18.7765592106
 10
-6.9684587238
 20
18.7825018957
 10
-6.9643124597
 20
18.7882223163
 10
-6.9600315231
 20
18.79371118
 10
-6.9556228679
 20
18.7989595705
 10
-6.9510936555
 20
18.8039589624
 10
-6.9464512434
 20
18.8087012346
 10
-6.9417031728
 20
18.8131786835
 10
-6.9368571563
 20
18.8173840361
 10
-6.9319210661
 20
18.821310461
 10
-6.9269029204
 20
18.8249515801
 10
-6.9218108707
 20
18.8283014787
 10
-6.9166531886
 20
18.8313547153
 10
-6.9114382524
 20
18.83410633
 10
-6.9061745332
 20
18.836551853
 10
-6.9008705816
 20
18.838687312
 10
-6.8955350133
 20
18.8405092379
 10
-6.8901764955
 20
18.8420146712
 10
-6.8848037327
 20
18.8432011666
  0
LWPOLYLINE
  5
3CC
100
AcDbEntity
  8
ASSI
100
AcDbPolyline
 62
253
  6
CONTINUOUS
 90
40
 70
0
 10
-7.014804487
 20
18.6199806445
 10
-7.0148392834
 20
18.6279598164
 10
-7.0146573306
 20
18.6359677642
 10
-7.0142589242
 20
18.6439914798
 10
-7.0136447114
 20
18.6520179292
 10
-7.01281569
 20
18.6600340742
 10
-7.0117732065
 20
18.6680268933
 10
-7.0105189545
 20
18.6759834027
 10
-7.0090549714
 20
18.6838906778
 10
-7.0073836352
 20
18.6917358739
 10
-7.005507661
 20
18.6995062471
 10
-7.003430096
 20
18.7071891752
 10
-7.0011543151
 20
18.7147721779
 10
-6.9986840152
 20
18.7222429371
 10
-6.996023209
 20
18.7295893174
 10
-6.9931762187
 20
18.7367993851
 10
-6.9901476691
 20
18.7438614281
 10
-6.9869424798
 20
18.7507639747
 10
-6.9835658574
 20
18.7574958123
 10
-6.9800232868
 20
18.7640460055
 10
-6.9763205227
 20
18.7704039143
 10
-6.97246358
 20
18.7765592106
 10
-6.9684587238
 20
18.7825018957
 10
-6.9643124597
 20
18.7882223163
 10
-6.9600315231
 20
18.79371118
 10
-6.9556228679
 20
18.7989595705
 10
-6.9510936555
 20
18.8039589624
 10
-6.9464512434
 20
18.8087012346
 10
-6.9417031728
 20
18.8131786835
 10
-6.9368571563
 20
18.8173840361
 10
-6.9319210661
 20
18.821310461
 10
-6.9269029204
 20
18.8249515801
 10
-6.9218108707
 20
18.8283014787
 10
-6.9166531886
 20
18.8313547153
 10
-6.9114382524
 20
18.83410633
 10
-6.9061745332
 20
18.836551853
 10
-6.9008705816
 20
18.838687312
 10
-6.8955350133
 20
18.8405092379
 10
-6.8901764955
 20
18.8420146712
 10
-6.8848037327
 20
18.8432011666
  0
LWPOLYLINE
  5
3CD
100
AcDbEntity
  8
RACCORDO
100
AcDbPolyline
 62
253
  6
CONTINUOUS
 90
22
 70
0
 10
-6.8958817563
 20
39.1765090364
 10
-6.9227541389
 20
38.2280950466
 10
-6.9475632089
 20
37.2798678308
 10
-6.9703087234
 20
36.3318369855
 10
-6.9909904665
 20
35.3840121075
 10
-7.0096082295
 20
34.4364027867
 10
-7.0261618108
 20
33.4890186064
 10
-7.0406510481
 20
32.541869153
 10
-7.053075802
 20
31.5949640132
 10
-7.0634359359
 20
30.648312767
 10
-7.071731349
 20
29.7019249955
 10
-7.0779619634
 20
28.7558102752
 10
-7.0821277075
 20
27.809978176
 10
-7.084228542
 20
26.8644382699
 10
-7.0842644505
 20
25.9192001253
 10
-7.0822354263
 20
24.9742733018
 10
-7.0781386777
 20
24.029667016
 10
-7.0719770636
 20
23.0853911728
 10
-7.0637590847
 20
22.1414563593
 10
-7.053487638
 20
21.1978724714
 10
-7.0411600166
 20
20.2546487143
 10
-7.0267763463
 20
19.3117946329
  0
LWPOLYLINE
  5
3CE
100
AcDbEntity
  8
ASSI
100
AcDbPolyline
 62
253
  6
CONTINUOUS
 90
22
 70
0
 10
-6.8958817563
 20
39.1765090364
 10
-6.9227541389
 20
38.2280950466
 10
-6.9475632089
 20
37.2798678308
 10
-6.9703087234
 20
36.3318369855
 10
-6.9909904665
 20
35.3840121075
 10
-7.0096082295
 20
34.4364027867
 10
-7.0261618108
 20
33.4890186064
 10
-7.0406510481
 20
32.541869153
 10
-7.053075802
 20
31.5949640132
 10
-7.0634359359
 20
30.648312767
 10
-7.071731349
 20
29.7019249955
 10
-7.0779619634
 20
28.7558102752
 10
-7.0821277075
 20
27.809978176
 10
-7.084228542
 20
26.8644382699
 10
-7.0842644505
 20
25.9192001253
 10
-7.0822354263
 20
24.9742733018
 10
-7.0781386777
 20
24.029667016
 10
-7.0719770636
 20
23.0853911728
 10
-7.0637590847
 20
22.1414563593
 10
-7.053487638
 20
21.1978724714
 10
-7.0411600166
 20
20.2546487143
 10
-7.0267763463
 20
19.3117946329
  0
LINE
  5
3CF
100
AcDbEntity
  8
CURVE
100
AcDbLine
 62
252
  6
CONTINUOUS
 10
-13.7666975724
 20
6.7810952878
 11
-13.7752160806
 21
6.7606505952
  0
LWPOLYLINE
  5
3D0
100
AcDbEntity
  8
CURVE
100
AcDbPolyline
 62
252
  6
CONTINUOUS
 90
5
 70
0
 10
-13.7843942096
 20
6.7407920489
 10
-13.7942227284
 20
6.7215512561
 10
-13.8046907917
 20
6.7029587264
 10
-13.8157810974
 20
6.685040578
 10
-13.8274747288
 20
6.6678218312
  0
LINE
  5
3D1
100
AcDbEntity
  8
CURVE
100
AcDbLine
 62
252
  6
CONTINUOUS
 10
-14.6174652376
 20
7.5614882849
 11
-14.6060258383
 21
7.5820890257
  0
LINE
  5
3D2
100
AcDbEntity
  8
CURVE
100
AcDbLine
 62
252
  6
CONTINUOUS
 10
-14.6066380062
 20
7.5810241016
 11
-14.5944790371
 21
7.6008737742
  0
LINE
  5
3D3
100
AcDbEntity
  8
CURVE
100
AcDbLine
 62
252
  6
CONTINUOUS
 10
-14.5951136427
 20
7.5998687175
 11
-14.58227593
 21
7.6189094068
  0
LWPOLYLINE
  5
3D4
100
AcDbEntity
  8
RACCORDO
100
AcDbPolyline
 62
253
  6
CONTINUOUS
 90
64
 70
0
 10
-5.0858817253
 20
-0.9902867729
 10
-5.0847068873
 20
-1.0063811982
 10
-5.0832709655
 20
-1.0223747628
 10
-5.0815739597
 20
-1.0382674667
 10
-5.0796146243
 20
-1.0540682415
 10
-5.077394205
 20
-1.0697681556
 10
-5.0749164393
 20
-1.0853404143
 10
-5.0721809102
 20
-1.1007846046
 10
-5.0691880346
 20
-1.1161011395
 10
-5.0659428012
 20
-1.131264463
 10
-5.0624447901
 20
-1.1462743063
 10
-5.058694421
 20
-1.1611309382
 10
-5.0546979419
 20
-1.1758096095
 10
-5.0504549453
 20
-1.1903100182
 10
-5.0459658386
 20
-1.2046324662
 10
-5.0412380924
 20
-1.2187531098
 10
-5.0362713051
 20
-1.2326716241
 10
-5.0310658782
 20
-1.246388334
 10
-5.0256304872
 20
-1.2598803705
 10
-5.0199647508
 20
-1.2731473533
 10
-5.0140690503
 20
-1.2861896627
 10
-5.0079532053
 20
-1.298985571
 10
-5.0016168475
 20
-1.3115346699
 10
-4.9950603452
 20
-1.3238373678
 10
-4.9882946225
 20
-1.3358731618
 10
-4.9813193333
 20
-1.3476416033
 10
-4.9741348237
 20
-1.3591431409
 10
-4.9667530564
 20
-1.3703586185
 10
-4.9591736986
 20
-1.3812875651
 10
-4.9513970831
 20
-1.3919304518
 10
-4.9434361708
 20
-1.4022695355
 10
-4.9352906579
 20
-1.4123043053
 10
-4.9269608483
 20
-1.4220352721
 10
-4.9184606142
 20
-1.4314462261
 10
-4.9097896678
 20
-1.4405366377
 10
-4.9009482969
 20
-1.4493070365
 10
-4.8919512382
 20
-1.4577428007
 10
-4.8827982369
 20
-1.4658433684
 10
-4.8734895478
 20
-1.4736093015
 10
-4.8640406718
 20
-1.481027665
 10
-4.8544513715
 20
-1.4880978828
 10
-4.8447218843
 20
-1.494820531
 10
-4.8348684234
 20
-1.5011844031
 10
-4.8248907835
 20
-1.5071888998
 10
-4.8147891699
 20
-1.5128346205
 10
-4.8045804113
 20
-1.5181121565
 10
-4.794264324
 20
-1.5230208956
 10
-4.7838410916
 20
-1.52756145
 10
-4.7733280932
 20
-1.5317262478
 10
-4.7627251874
 20
-1.5355146594
 10
-4.7520325155
 20
-1.5389273143
 10
-4.7412678807
 20
-1.5419585303
 10
-4.730431159
 20
-1.544607674
 10
-4.7195224743
 20
-1.5468753788
 10
-4.7085600013
 20
-1.5487578619
 10
-4.6975436404
 20
-1.5502544788
 10
-4.6864734912
 20
-1.551365874
 10
-4.6753680269
 20
-1.5520901983
 10
-4.6642269913
 20
-1.5524267743
 10
-4.6530506406
 20
-1.5523762794
 10
-4.6418582165
 20
-1.5519388968
 10
-4.6306561328
 20
-1.5511146875
 10
-4.6194379757
 20
-1.5499035904
 10
-4.6082037451
 20
-1.5483056056
  0
LWPOLYLINE
  5
3D5
100
AcDbEntity
  8
ASSI
100
AcDbPolyline
 62
253
  6
CONTINUOUS
 90
64
 70
0
 10
-5.0858817253
 20
-0.9902867729
 10
-5.0847068873
 20
-1.0063811982
 10
-5.0832709655
 20
-1.0223747628
 10
-5.0815739597
 20
-1.0382674667
 10
-5.0796146243
 20
-1.0540682415
 10
-5.077394205
 20
-1.0697681556
 10
-5.0749164393
 20
-1.0853404143
 10
-5.0721809102
 20
-1.1007846046
 10
-5.0691880346
 20
-1.1161011395
 10
-5.0659428012
 20
-1.131264463
 10
-5.0624447901
 20
-1.1462743063
 10
-5.058694421
 20
-1.1611309382
 10
-5.0546979419
 20
-1.1758096095
 10
-5.0504549453
 20
-1.1903100182
 10
-5.0459658386
 20
-1.2046324662
 10
-5.0412380924
 20
-1.2187531098
 10
-5.0362713051
 20
-1.2326716241
 10
-5.0310658782
 20
-1.246388334
 10
-5.0256304872
 20
-1.2598803705
 10
-5.0199647508
 20
-1.2731473533
 10
-5.0140690503
 20
-1.2861896627
 10
-5.0079532053
 20
-1.298985571
 10
-5.0016168475
 20
-1.3115346699
 10
-4.9950603452
 20
-1.3238373678
 10
-4.9882946225
 20
-1.3358731618
 10
-4.9813193333
 20
-1.3476416033
 10
-4.9741348237
 20
-1.3591431409
 10
-4.9667530564
 20
-1.3703586185
 10
-4.9591736986
 20
-1.3812875651
 10
-4.9513970831
 20
-1.3919304518
 10
-4.9434361708
 20
-1.4022695355
 10
-4.9352906579
 20
-1.4123043053
 10
-4.9269608483
 20
-1.4220352721
 10
-4.9184606142
 20
-1.4314462261
 10
-4.9097896678
 20
-1.4405366377
 10
-4.9009482969
 20
-1.4493070365
 10
-4.8919512382
 20
-1.4577428007
 10
-4.8827982369
 20
-1.4658433684
 10
-4.8734895478
 20
-1.4736093015
 10
-4.8640406718
 20
-1.481027665
 10
-4.8544513715
 20
-1.4880978828
 10
-4.8447218843
 20
-1.494820531
 10
-4.8348684234
 20
-1.5011844031
 10
-4.8248907835
 20
-1.5071888998
 10
-4.8147891699
 20
-1.5128346205
 10
-4.8045804113
 20
-1.5181121565
 10
-4.794264324
 20
-1.5230208956
 10
-4.7838410916
 20
-1.52756145
 10
-4.7733280932
 20
-1.5317262478
 10
-4.7627251874
 20
-1.5355146594
 10
-4.7520325155
 20
-1.5389273143
 10
-4.7412678807
 20
-1.5419585303
 10
-4.730431159
 20
-1.544607674
 10
-4.7195224743
 20
-1.5468753788
 10
-4.7085600013
 20
-1.5487578619
 10
-4.6975436404
 20
-1.5502544788
 10
-4.6864734912
 20
-1.551365874
 10
-4.6753680269
 20
-1.5520901983
 10
-4.6642269913
 20
-1.5524267743
 10
-4.6530506406
 20
-1.5523762794
 10
-4.6418582165
 20
-1.5519388968
 10
-4.6306561328
 20
-1.5511146875
 10
-4.6194379757
 20
-1.5499035904
 10
-4.6082037451
 20
-1.5483056056
  0
LWPOLYLINE
  5
3D6
100
AcDbEntity
  8
RACCORDO
100
AcDbPolyline
 62
253
  6
CONTINUOUS
 90
40
 70
0
 10
-5.894719828
 20
18.6471047909
 10
-5.8949755032
 20
18.6550735878
 10
-5.8954685832
 20
18.6630598554
 10
-5.8961982681
 20
18.67105064
 10
-5.8971633744
 20
18.6790329804
 10
-5.8983623366
 20
18.6869939292
 10
-5.8997932101
 20
18.6949205739
 10
-5.9014536739
 20
18.7028000572
 10
-5.9033410349
 20
18.7106195988
 10
-5.9054522316
 20
18.7183665151
 10
-5.9077838397
 20
18.7260282408
 10
-5.9103320773
 20
18.7335923485
 10
-5.9130928111
 20
18.7410465691
 10
-5.9160615634
 20
18.7483788119
 10
-5.9192335186
 20
18.7555771839
 10
-5.9226035319
 20
18.7626300094
 10
-5.9261661371
 20
18.7695258486
 10
-5.9299155557
 20
18.7762535165
 10
-5.933845706
 20
18.7828021008
 10
-5.9379502134
 20
18.7891609797
 10
-5.9422224203
 20
18.7953198389
 10
-5.9466553972
 20
18.8012686889
 10
-5.9512419538
 20
18.8069978806
 10
-5.9559746506
 20
18.8124981212
 10
-5.9608458112
 20
18.8177604893
 10
-5.9658475346
 20
18.8227764494
 10
-5.970971708
 20
18.8275378654
 10
-5.9762100198
 20
18.8320370145
 10
-5.9815539736
 20
18.8362665989
 10
-5.9869949014
 20
18.8402197583
 10
-5.9925239781
 20
18.8438900807
 10
-5.9981322354
 20
18.8472716127
 10
-6.0038105768
 20
18.8503588695
 10
-6.0095497918
 20
18.8531468436
 10
-6.0153405716
 20
18.8556310129
 10
-6.0211735235
 20
18.857807348
 10
-6.0270391863
 20
18.859672319
 10
-6.032928046
 20
18.8612229008
 10
-6.0388305507
 20
18.8624565785
 10
-6.0447371267
 20
18.8633713509
  0
LWPOLYLINE
  5
3D7
100
AcDbEntity
  8
ASSI
100
AcDbPolyline
 62
253
  6
CONTINUOUS
 90
40
 70
0
 10
-5.894719828
 20
18.6471047909
 10
-5.8949755032
 20
18.6550735878
 10
-5.8954685832
 20
18.6630598554
 10
-5.8961982681
 20
18.67105064
 10
-5.8971633744
 20
18.6790329804
 10
-5.8983623366
 20
18.6869939292
 10
-5.8997932101
 20
18.6949205739
 10
-5.9014536739
 20
18.7028000572
 10
-5.9033410349
 20
18.7106195988
 10
-5.9054522316
 20
18.7183665151
 10
-5.9077838397
 20
18.7260282408
 10
-5.9103320773
 20
18.7335923485
 10
-5.9130928111
 20
18.7410465691
 10
-5.9160615634
 20
18.7483788119
 10
-5.9192335186
 20
18.7555771839
 10
-5.9226035319
 20
18.7626300094
 10
-5.9261661371
 20
18.7695258486
 10
-5.9299155557
 20
18.7762535165
 10
-5.933845706
 20
18.7828021008
 10
-5.9379502134
 20
18.7891609797
 10
-5.9422224203
 20
18.7953198389
 10
-5.9466553972
 20
18.8012686889
 10
-5.9512419538
 20
18.8069978806
 10
-5.9559746506
 20
18.8124981212
 10
-5.9608458112
 20
18.8177604893
 10
-5.9658475346
 20
18.8227764494
 10
-5.970971708
 20
18.8275378654
 10
-5.9762100198
 20
18.8320370145
 10
-5.9815539736
 20
18.8362665989
 10
-5.9869949014
 20
18.8402197583
 10
-5.9925239781
 20
18.8438900807
 10
-5.9981322354
 20
18.8472716127
 10
-6.0038105768
 20
18.8503588695
 10
-6.0095497918
 20
18.8531468436
 10
-6.0153405716
 20
18.8556310129
 10
-6.0211735235
 20
18.857807348
 10
-6.0270391863
 20
18.859672319
 10
-6.032928046
 20
18.8612229008
 10
-6.0388305507
 20
18.8624565785
 10
-6.0447371267
 20
18.8633713509
  0
LWPOLYLINE
  5
3D8
100
AcDbEntity
  8
RACCORDO
100
AcDbPolyline
 62
253
  6
CONTINUOUS
 90
22
 70
0
 10
-5.894719828
 20
18.6471047909
 10
-5.876769708
 20
17.7074421084
 10
-5.856761511
 20
16.7681911466
 10
-5.834695237
 20
15.8293519055
 10
-5.8105706163
 20
14.8909146131
 10
-5.7843879186
 20
13.9528890415
 10
-5.7561479528
 20
13.0153045069
 10
-5.7258506623
 20
12.0781613162
 10
-5.6934961037
 20
11.1414591624
 10
-5.6590852555
 20
10.2052264404
 10
-5.6226180553
 20
9.2694631635
 10
-5.5840945657
 20
8.3341693183
 10
-5.5435159529
 20
7.3993732594
 10
-5.5008821538
 20
6.4650749657
 10
-5.4561932317
 20
5.5312744583
 10
-5.4094505427
 20
4.5980001549
 10
-5.3606540314
 20
3.665252203
 10
-5.3098037534
 20
2.7330304551
 10
-5.2569012314
 20
1.8013628861
 10
-5.2019469733
 20
0.8702588209
 10
-5.1449404712
 20
-0.0602910655
 10
-5.0858817253
 20
-0.9902867729
  0
LWPOLYLINE
  5
3D9
100
AcDbEntity
  8
ASSI
100
AcDbPolyline
 62
253
  6
CONTINUOUS
 90
22
 70
0
 10
-5.894719828
 20
18.6471047909
 10
-5.876769708
 20
17.7074421084
 10
-5.856761511
 20
16.7681911466
 10
-5.834695237
 20
15.8293519055
 10
-5.8105706163
 20
14.8909146131
 10
-5.7843879186
 20
13.9528890415
 10
-5.7561479528
 20
13.0153045069
 10
-5.7258506623
 20
12.0781613162
 10
-5.6934961037
 20
11.1414591624
 10
-5.6590852555
 20
10.2052264404
 10
-5.6226180553
 20
9.2694631635
 10
-5.5840945657
 20
8.3341693183
 10
-5.5435159529
 20
7.3993732594
 10
-5.5008821538
 20
6.4650749657
 10
-5.4561932317
 20
5.5312744583
 10
-5.4094505427
 20
4.5980001549
 10
-5.3606540314
 20
3.665252203
 10
-5.3098037534
 20
2.7330304551
 10
-5.2569012314
 20
1.8013628861
 10
-5.2019469733
 20
0.8702588209
 10
-5.1449404712
 20
-0.0602910655
 10
-5.0858817253
 20
-0.9902867729
  0
LINE
  5
3DA
100
AcDbEntity
  8
0
100
AcDbLine
 62
253
  6
CONTINUOUS
 10
-6.7515412936
 20
18.8686387173
 11
-6.7559431768
 21
19.12463016
  0
LINE
  5
3DB
100
AcDbEntity
  8
ASSI
100
AcDbLine
 62
253
  6
CONTINUOUS
 10
-6.7515412936
 20
18.8686387173
 11
-6.7559431768
 21
19.12463016
  0
LINE
  5
3DC
100
AcDbEntity
  8
0
100
AcDbLine
 62
253
  6
CONTINUOUS
 10
-6.1914970744
 20
18.8820854738
 11
-6.1958673432
 21
19.1362383824
  0
LINE
  5
3DD
100
AcDbEntity
  8
ASSI
100
AcDbLine
 62
253
  6
CONTINUOUS
 10
-6.1914970744
 20
18.8820854738
 11
-6.1958673432
 21
19.1362383824
  0
LWPOLYLINE
  5
3DE
100
AcDbEntity
  8
RACCORDO
100
AcDbPolyline
 62
253
  6
CONTINUOUS
 90
35
 70
0
 10
-5.9066077766
 20
19.3384482442
 10
-5.9065899207
 20
19.3305098439
 10
-5.9068099132
 20
19.3226147159
 10
-5.9072673972
 20
19.3147756661
 10
-5.9079616307
 20
19.3070054093
 10
-5.9088914876
 20
19.2993165491
 10
-5.9100554596
 20
19.2917215568
 10
-5.9114516589
 20
19.2842327514
 10
-5.9130778208
 20
19.2768622799
 10
-5.9149313077
 20
19.2696220972
 10
-5.9170091131
 20
19.2625239468
 10
-5.9193078669
 20
19.2555793421
 10
-5.9218238405
 20
19.2487995471
 10
-5.9245529529
 20
19.2421955588
 10
-5.9274907776
 20
19.2357780888
 10
-5.9306325494
 20
19.2295575462
 10
-5.9339731722
 20
19.223544021
 10
-5.9375072277
 20
19.2177472669
 10
-5.9412289836
 20
19.2121766863
 10
-5.945132403
 20
19.2068413148
 10
-5.9492111548
 20
19.2017498064
 10
-5.9534586232
 20
19.1969104194
 10
-5.9578679186
 20
19.1923310034
 10
-5.9624318893
 20
19.1880189862
 10
-5.9671431325
 20
19.183981362
 10
-5.9719940065
 20
19.1802246797
 10
-5.9769766432
 20
19.1767550328
 10
-5.9820829606
 20
19.1735780489
 10
-5.9873046765
 20
19.1706988812
 10
-5.992633321
 20
19.1681221998
 10
-5.9980602512
 20
19.1658521839
 10
-6.0035766645
 20
19.1638925156
 10
-6.0091736133
 20
19.1622463734
 10
-6.0148420193
 20
19.1609164274
 10
-6.0168615492
 20
19.1605222865
  0
LWPOLYLINE
  5
3DF
100
AcDbEntity
  8
ASSI
100
AcDbPolyline
 62
253
  6
CONTINUOUS
 90
35
 70
0
 10
-5.9066077766
 20
19.3384482442
 10
-5.9065899207
 20
19.3305098439
 10
-5.9068099132
 20
19.3226147159
 10
-5.9072673972
 20
19.3147756661
 10
-5.9079616307
 20
19.3070054093
 10
-5.9088914876
 20
19.2993165491
 10
-5.9100554596
 20
19.2917215568
 10
-5.9114516589
 20
19.2842327514
 10
-5.9130778208
 20
19.2768622799
 10
-5.9149313077
 20
19.2696220972
 10
-5.9170091131
 20
19.2625239468
 10
-5.9193078669
 20
19.2555793421
 10
-5.9218238405
 20
19.2487995471
 10
-5.9245529529
 20
19.2421955588
 10
-5.9274907776
 20
19.2357780888
 10
-5.9306325494
 20
19.2295575462
 10
-5.9339731722
 20
19.223544021
 10
-5.9375072277
 20
19.2177472669
 10
-5.9412289836
 20
19.2121766863
 10
-5.945132403
 20
19.2068413148
 10
-5.9492111548
 20
19.2017498064
 10
-5.9534586232
 20
19.1969104194
 10
-5.9578679186
 20
19.1923310034
 10
-5.9624318893
 20
19.1880189862
 10
-5.9671431325
 20
19.183981362
 10
-5.9719940065
 20
19.1802246797
 10
-5.9769766432
 20
19.1767550328
 10
-5.9820829606
 20
19.1735780489
 10
-5.9873046765
 20
19.1706988812
 10
-5.992633321
 20
19.1681221998
 10
-5.9980602512
 20
19.1658521839
 10
-6.0035766645
 20
19.1638925156
 10
-6.0091736133
 20
19.1622463734
 10
-6.0148420193
 20
19.1609164274
 10
-6.0164658302
 20
19.1605962653
  0
LWPOLYLINE
  5
3E0
100
AcDbEntity
  8
RACCORDO
100
AcDbPolyline
 62
253
  6
CONTINUOUS
 90
22
 70
0
 10
-5.776102736
 20
39.1495045334
 10
-5.8029051678
 20
38.2036349586
 10
-5.8276493649
 20
37.2579711315
 10
-5.8503353273
 20
36.3125130521
 10
-5.87096324
 20
35.3672512631
 10
-5.889532918
 20
34.4221952218
 10
-5.9060438067
 20
33.4773733003
 10
-5.9204958458
 20
32.5327853764
 10
-5.9328890956
 20
31.5884315723
 10
-5.9432231826
 20
30.6443406267
 10
-5.9514980446
 20
29.7005125843
 10
-5.9577137439
 20
28.7569474004
 10
-5.9618700933
 20
27.8136736797
 10
-5.9639670304
 20
26.8706914318
 10
-5.9640046177
 20
25.928000647
 10
-5.9619828563
 20
24.9856299009
 10
-5.9579016793
 20
24.0435789091
 10
-5.9517611536
 20
23.1018479561
 10
-5.9435614803
 20
22.1604664702
 10
-5.9333027266
 20
21.219444261
 10
-5.9209848254
 20
20.278771519
 10
-5.9066077766
 20
19.3384482442
  0
LWPOLYLINE
  5
3E1
100
AcDbEntity
  8
ASSI
100
AcDbPolyline
 62
253
  6
CONTINUOUS
 90
22
 70
0
 10
-5.776102736
 20
39.1495045334
 10
-5.8029051678
 20
38.2036349586
 10
-5.8276493649
 20
37.2579711315
 10
-5.8503353273
 20
36.3125130521
 10
-5.87096324
 20
35.3672512631
 10
-5.889532918
 20
34.4221952218
 10
-5.9060438067
 20
33.4773733003
 10
-5.9204958458
 20
32.5327853764
 10
-5.9328890956
 20
31.5884315723
 10
-5.9432231826
 20
30.6443406267
 10
-5.9514980446
 20
29.7005125843
 10
-5.9577137439
 20
28.7569474004
 10
-5.9618700933
 20
27.8136736797
 10
-5.9639670304
 20
26.8706914318
 10
-5.9640046177
 20
25.928000647
 10
-5.9619828563
 20
24.9856299009
 10
-5.9579016793
 20
24.0435789091
 10
-5.9517611536
 20
23.1018479561
 10
-5.9435614803
 20
22.1604664702
 10
-5.9333027266
 20
21.219444261
 10
-5.9209848254
 20
20.278771519
 10
-5.9066077766
 20
19.3384482442
  0
LINE
  5
3E2
100
AcDbEntity
  8
CURVE
100
AcDbLine
 62
252
  6
CONTINUOUS
 10
-14.5829233856
 20
7.6179778381
 11
-14.5694467881
 21
7.6361563763
  0
LINE
  5
3E3
100
AcDbEntity
  8
CURVE
100
AcDbLine
 62
252
  6
CONTINUOUS
 10
-14.5700984735
 20
7.6353071688
 11
-14.5560218827
 21
7.6525751351
  0
LINE
  5
3E4
100
AcDbEntity
  8
CURVE
100
AcDbLine
 62
252
  6
CONTINUOUS
 10
-14.5566701448
 20
7.6518124152
 11
-14.5420314849
 21
7.6681261358
  0
LWPOLYLINE
  5
3E5
100
AcDbEntity
  8
RACCORDO
100
AcDbPolyline
 62
253
  6
CONTINUOUS
 90
55
 70
0
 10
-5.32058221
 20
39.8800520777
 10
-5.3215012395
 20
39.9030048316
 10
-5.3229155224
 20
39.9260015712
 10
-5.3248238626
 20
39.9490228467
 10
-5.327224646
 20
39.9720491872
 10
-5.3301158422
 20
39.9950611177
 10
-5.3334950059
 20
40.0180391754
 10
-5.337359279
 20
40.0409639261
 10
-5.3417053932
 20
40.0638159808
 10
-5.3465296728
 20
40.0865760116
 10
-5.3518280375
 20
40.109224769
 10
-5.3575960061
 20
40.1317430971
 10
-5.3638287002
 20
40.1541119507
 10
-5.3705208483
 20
40.1763124107
 10
-5.3776667905
 20
40.1983257007
 10
-5.3852604829
 20
40.2201332025
 10
-5.393295503
 20
40.2417164718
 10
-5.401765055
 20
40.2630572541
 10
-5.4106619755
 20
40.2841375001
 10
-5.4199787399
 20
40.3049393807
 10
-5.4297074682
 20
40.3254453021
 10
-5.4398399322
 20
40.3456379211
 10
-5.4503675621
 20
40.3655001593
 10
-5.461281454
 20
40.3850152179
 10
-5.4725723772
 20
40.4041665914
 10
-5.4842307821
 20
40.4229380823
 10
-5.4962468084
 20
40.4413138141
 10
-5.5086102933
 20
40.4592782451
 10
-5.52131078
 20
40.4768161816
 10
-5.534337527
 20
40.4939127905
 10
-5.5476795165
 20
40.5105536118
 10
-5.5613254642
 20
40.5267245714
 10
-5.5752638288
 20
40.5424119922
 10
-5.5894828217
 20
40.5576026062
 10
-5.6039704167
 20
40.5722835657
 10
-5.6187143608
 20
40.586442454
 10
-5.6337021838
 20
40.6000672958
 10
-5.6489212095
 20
40.6131465676
 10
-5.6643585661
 20
40.6256692074
 10
-5.6800011971
 20
40.6376246238
 10
-5.6958358725
 20
40.6490027054
 10
-5.7118491996
 20
40.6597938287
 10
-5.7280276349
 20
40.6699888671
 10
-5.744357495
 20
40.6795791979
 10
-5.7608249688
 20
40.6885567097
 10
-5.7774161284
 20
40.6969138098
 10
-5.7941169415
 20
40.7046434298
 10
-5.810913283
 20
40.7117390323
 10
-5.8277909471
 20
40.718194616
 10
-5.8447356591
 20
40.724004721
 10
-5.8617330877
 20
40.7291644333
 10
-5.8787688568
 20
40.7336693888
 10
-5.8958285582
 20
40.7375157775
 10
-5.9128977632
 20
40.7407003462
 10
-5.9299620352
 20
40.7432204015
  0
LWPOLYLINE
  5
3E6
100
AcDbEntity
  8
ASSI
100
AcDbPolyline
 62
253
  6
CONTINUOUS
 90
55
 70
0
 10
-5.32058221
 20
39.8800520777
 10
-5.3215012395
 20
39.9030048316
 10
-5.3229155224
 20
39.9260015712
 10
-5.3248238626
 20
39.9490228467
 10
-5.327224646
 20
39.9720491872
 10
-5.3301158422
 20
39.9950611177
 10
-5.3334950059
 20
40.0180391754
 10
-5.337359279
 20
40.0409639261
 10
-5.3417053932
 20
40.0638159808
 10
-5.3465296728
 20
40.0865760116
 10
-5.3518280375
 20
40.109224769
 10
-5.3575960061
 20
40.1317430971
 10
-5.3638287002
 20
40.1541119507
 10
-5.3705208483
 20
40.1763124107
 10
-5.3776667905
 20
40.1983257007
 10
-5.3852604829
 20
40.2201332025
 10
-5.393295503
 20
40.2417164718
 10
-5.401765055
 20
40.2630572541
 10
-5.4106619755
 20
40.2841375001
 10
-5.4199787399
 20
40.3049393807
 10
-5.4297074682
 20
40.3254453021
 10
-5.4398399322
 20
40.3456379211
 10
-5.4503675621
 20
40.3655001593
 10
-5.461281454
 20
40.3850152179
 10
-5.4725723772
 20
40.4041665914
 10
-5.4842307821
 20
40.4229380823
 10
-5.4962468084
 20
40.4413138141
 10
-5.5086102933
 20
40.4592782451
 10
-5.52131078
 20
40.4768161816
 10
-5.534337527
 20
40.4939127905
 10
-5.5476795165
 20
40.5105536118
 10
-5.5613254642
 20
40.5267245714
 10
-5.5752638288
 20
40.5424119922
 10
-5.5894828217
 20
40.5576026062
 10
-5.6039704167
 20
40.5722835657
 10
-5.6187143608
 20
40.586442454
 10
-5.6337021838
 20
40.6000672958
 10
-5.6489212095
 20
40.6131465676
 10
-5.6643585661
 20
40.6256692074
 10
-5.6800011971
 20
40.6376246238
 10
-5.6958358725
 20
40.6490027054
 10
-5.7118491996
 20
40.6597938287
 10
-5.7280276349
 20
40.6699888671
 10
-5.744357495
 20
40.6795791979
 10
-5.7608249688
 20
40.6885567097
 10
-5.7774161284
 20
40.6969138098
 10
-5.7941169415
 20
40.7046434298
 10
-5.810913283
 20
40.7117390323
 10
-5.8277909471
 20
40.718194616
 10
-5.8447356591
 20
40.724004721
 10
-5.8617330877
 20
40.7291644333
 10
-5.8787688568
 20
40.7336693888
 10
-5.8958285582
 20
40.7375157775
 10
-5.9128977632
 20
40.7407003462
 10
-5.9299620352
 20
40.7432204015
  0
LWPOLYLINE
  5
3E7
100
AcDbEntity
  8
RACCORDO
100
AcDbPolyline
 62
253
  6
CONTINUOUS
 90
48
 70
0
 10
-4.6082037451
 20
-1.5483056056
 10
-4.6083327449
 20
-1.571297014
 10
-4.6089576663
 20
-1.5942055783
 10
-4.6100779809
 20
-1.6170119232
 10
-4.611692741
 20
-1.6396967596
 10
-4.6138005809
 20
-1.6622409014
 10
-4.6163997179
 20
-1.6846252813
 10
-4.6194879537
 20
-1.7068309674
 10
-4.6230626764
 20
-1.7288391786
 10
-4.6271208626
 20
-1.750631301
 10
-4.6316590799
 20
-1.7721889035
 10
-4.6366734902
 20
-1.7934937532
 10
-4.6421598522
 20
-1.8145278312
 10
-4.6481135259
 20
-1.8352733473
 10
-4.6545294757
 20
-1.8557127557
 10
-4.6614022752
 20
-1.8758287692
 10
-4.6687261117
 20
-1.8956043743
 10
-4.6764947908
 20
-1.9150228453
 10
-4.684701742
 20
-1.9340677586
 10
-4.6933400241
 20
-1.9527230067
 10
-4.7024023311
 20
-1.9709728113
 10
-4.7118809983
 20
-1.9888017374
 10
-4.7217680089
 20
-2.0061947057
 10
-4.7320550009
 20
-2.0231370058
 10
-4.7427332736
 20
-2.0396143083
 10
-4.7537937958
 20
-2.0556126772
 10
-4.7652272128
 20
-2.0711185815
 10
-4.7770238546
 20
-2.0861189068
 10
-4.7891737437
 20
-2.1006009662
 10
-4.8016666043
 20
-2.1145525113
 10
-4.8144918702
 20
-2.1279617421
 10
-4.8276386942
 20
-2.1408173175
 10
-4.841095957
 20
-2.1531083647
 10
-4.8548522769
 20
-2.1648244882
 10
-4.8688960192
 20
-2.1759557789
 10
-4.883215306
 20
-2.1864928222
 10
-4.8977980265
 20
-2.1964267063
 10
-4.9126318472
 20
-2.2057490292
 10
-4.9277042218
 20
-2.2144519064
 10
-4.9430024027
 20
-2.2225279774
 10
-4.9585134511
 20
-2.2299704115
 10
-4.9742242482
 20
-2.2367729142
 10
-4.9901215062
 20
-2.2429297322
 10
-5.0061917797
 20
-2.2484356581
 10
-5.0224214769
 20
-2.2532860351
 10
-5.0387968711
 20
-2.2574767611
 10
-5.0553041126
 20
-2.2610042916
 10
-5.0687118918
 20
-2.2633653745
  0
LWPOLYLINE
  5
3E8
100
AcDbEntity
  8
ASSI
100
AcDbPolyline
 62
253
  6
CONTINUOUS
 90
48
 70
0
 10
-4.6082037451
 20
-1.5483056056
 10
-4.6083327449
 20
-1.571297014
 10
-4.6089576663
 20
-1.5942055783
 10
-4.6100779809
 20
-1.6170119232
 10
-4.611692741
 20
-1.6396967596
 10
-4.6138005809
 20
-1.6622409014
 10
-4.6163997179
 20
-1.6846252813
 10
-4.6194879537
 20
-1.7068309674
 10
-4.6230626764
 20
-1.7288391786
 10
-4.6271208626
 20
-1.750631301
 10
-4.6316590799
 20
-1.7721889035
 10
-4.6366734902
 20
-1.7934937532
 10
-4.6421598522
 20
-1.8145278312
 10
-4.6481135259
 20
-1.8352733473
 10
-4.6545294757
 20
-1.8557127557
 10
-4.6614022752
 20
-1.8758287692
 10
-4.6687261117
 20
-1.8956043743
 10
-4.6764947908
 20
-1.9150228453
 10
-4.684701742
 20
-1.9340677586
 10
-4.6933400241
 20
-1.9527230067
 10
-4.7024023311
 20
-1.9709728113
 10
-4.7118809983
 20
-1.9888017374
 10
-4.7217680089
 20
-2.0061947057
 10
-4.7320550009
 20
-2.0231370058
 10
-4.7427332736
 20
-2.0396143083
 10
-4.7537937958
 20
-2.0556126772
 10
-4.7652272128
 20
-2.0711185815
 10
-4.7770238546
 20
-2.0861189068
 10
-4.7891737437
 20
-2.1006009662
 10
-4.8016666043
 20
-2.1145525113
 10
-4.8144918702
 20
-2.1279617421
 10
-4.8276386942
 20
-2.1408173175
 10
-4.841095957
 20
-2.1531083647
 10
-4.8548522769
 20
-2.1648244882
 10
-4.8688960192
 20
-2.1759557789
 10
-4.883215306
 20
-2.1864928222
 10
-4.8977980265
 20
-2.1964267063
 10
-4.9126318472
 20
-2.2057490292
 10
-4.9277042218
 20
-2.2144519064
 10
-4.9430024027
 20
-2.2225279774
 10
-4.9585134511
 20
-2.2299704115
 10
-4.9742242482
 20
-2.2367729142
 10
-4.9901215062
 20
-2.2429297322
 10
-5.0061917797
 20
-2.2484356581
 10
-5.0224214769
 20
-2.2532860351
 10
-5.0387968711
 20
-2.2574767611
 10
-5.0553041126
 20
-2.2610042916
 10
-5.0687118918
 20
-2.2633653745
  0
LINE
  5
3E9
100
AcDbEntity
  8
CURVE
100
AcDbLine
 62
252
  6
CONTINUOUS
 10
-13.8525963035
 20
6.635582624
 11
-13.8659864138
 21
6.6206122044
  0
LINE
  5
3EA
100
AcDbEntity
  8
CURVE
100
AcDbLine
 62
252
  6
CONTINUOUS
 10
-14.5426696382
 20
7.6674492829
 11
-14.529348595
 21
7.6809939791
  0
LINE
  5
3EB
100
AcDbEntity
  8
CURVE
100
AcDbLine
 62
252
  6
CONTINUOUS
 10
-14.5299730729
 20
7.680388574
 11
-14.5162689555
 21
7.6931625128
  0
LINE
  5
3EC
100
AcDbEntity
  8
CURVE
100
AcDbLine
 62
252
  6
CONTINUOUS
 10
-14.5168753881
 20
7.6926245973
 11
-14.5028055953
 21
7.7046270831
  0
LINE
  5
3ED
100
AcDbEntity
  8
0
100
AcDbLine
 62
7
  6
CONTINUOUS
 10
-2.2767018563
 20
19.6058485003
 11
-2.280921105
 21
19.8512188392
  0
LINE
  5
3EE
100
AcDbEntity
  8
ASSI
100
AcDbLine
 62
7
  6
CONTINUOUS
 10
-2.2767018563
 20
19.6058485003
 11
-2.280921105
 21
19.8512188392
  0
LINE
  5
3EF
100
AcDbEntity
  8
RACCORDO
100
AcDbLine
 62
7
  6
CONTINUOUS
 10
-2.3387503442
 20
40.5071970587
 11
-1.9872046512
 21
20.0630631756
  0
LINE
  5
3F0
100
AcDbEntity
  8
ASSI
100
AcDbLine
 62
7
  6
CONTINUOUS
 10
-2.3387503442
 20
40.5071970587
 11
-1.9872046512
 21
20.0630631756
  0
LINE
  5
3F1
100
AcDbEntity
  8
RACCORDO
100
AcDbLine
 62
7
  6
CONTINUOUS
 10
-1.9753167025
 20
19.3717197223
 11
-1.6237710095
 21
-1.0724141608
  0
LINE
  5
3F2
100
AcDbEntity
  8
ASSI
100
AcDbLine
 62
7
  6
CONTINUOUS
 10
-1.9753167025
 20
19.3717197223
 11
-1.6237710095
 21
-1.0724141608
  0
LINE
  5
3F3
100
AcDbEntity
  8
CURVE
100
AcDbLine
 62
252
  6
CONTINUOUS
 10
-14.5033896214
 20
7.7041528502
 11
-14.4889715435
 21
7.7153830363
  0
LWPOLYLINE
  5
3F4
100
AcDbEntity
  8
CURVE
100
AcDbPolyline
 62
252
  6
CONTINUOUS
 90
27
 70
0
 10
-13.9246326113
 20
6.5689554626
 10
-13.9092523728
 20
6.5805901399
 10
-13.8943345492
 20
6.593091437
 10
-13.8799046778
 20
6.6064419718
 10
-13.8659831971
 20
6.6206179587
 10
-13.8525892712
 20
6.6355940118
 10
-13.8397420642
 20
6.6513447447
 10
-13.8274607399
 20
6.6678447714
 10
-13.8157644626
 20
6.6850687058
 10
-13.8046723961
 20
6.7029911617
 10
-13.7942037045
 20
6.7215867529
 10
-13.7843758282
 20
6.7408291004
 10
-13.7751993133
 20
6.760687853
 10
-13.7666829821
 20
6.781131667
 10
-13.7588356571
 20
6.8021291982
 10
-13.7516668593
 20
6.8236450527
 10
-13.7451889041
 20
6.8456276368
 10
-13.7394148053
 20
6.8680213068
 10
-13.7343575769
 20
6.8907704189
 10
-13.7300271948
 20
6.9138263035
 10
-13.7264214836
 20
6.9371681877
 10
-13.7235352297
 20
6.9607822725
 10
-13.7213632197
 20
6.9846547593
 10
-13.7199044183
 20
7.0087862619
 10
-13.7191745025
 20
7.0332350461
 10
-13.7191933277
 20
7.0580737906
 10
-13.7199807492
 20
7.0833751739
  0
LINE
  5
3F5
100
AcDbEntity
  8
CURVE
100
AcDbLine
 62
252
  6
CONTINUOUS
 10
-14.4895288102
 20
7.7149688303
 11
-14.4747781615
 21
7.7254245449
  0
LINE
  5
3F6
100
AcDbEntity
  8
CURVE
100
AcDbLine
 62
252
  6
CONTINUOUS
 10
-14.4753053222
 20
7.7250665398
 11
-14.4602301403
 21
7.7347410872
  0
LINE
  5
3F7
100
AcDbEntity
  8
CURVE
100
AcDbLine
 62
252
  6
CONTINUOUS
 10
-14.4607288471
 20
7.734434
 11
-14.4453305033
 21
7.7433209675
  0
LWPOLYLINE
  5
3F8
100
AcDbEntity
  8
CURVE
100
AcDbPolyline
 62
252
  6
CONTINUOUS
 90
8
 70
0
 10
-13.9246236723
 20
6.5689634835
 10
-13.9404376991
 20
6.5582120003
 10
-13.956660912
 20
6.5483579291
 10
-13.9732664305
 20
6.5394172324
 10
-13.9902273742
 20
6.531405873
 10
-14.0075168627
 20
6.5243398135
 10
-14.0251080158
 20
6.5182350166
 10
-14.0429741252
 20
6.5131053115
  0
LINE
  5
3F9
100
AcDbEntity
  8
CURVE
100
AcDbLine
 62
252
  6
CONTINUOUS
 10
-14.4458084048
 20
7.7430577368
 11
-14.4300822739
 21
7.7511524904
  0
LINE
  5
3FA
100
AcDbEntity
  8
CURVE
100
AcDbLine
 62
252
  6
CONTINUOUS
 10
-13.9902414749
 20
6.531398582
 11
-13.9732796964
 21
6.5394089648
  0
LINE
  5
3FB
100
AcDbEntity
  8
CURVE
100
AcDbLine
 62
252
  6
CONTINUOUS
 10
-14.4305530154
 20
7.750924276
 11
-14.414493334
 21
7.7582226087
  0
LINE
  5
3FC
100
AcDbEntity
  8
CURVE
100
AcDbLine
 62
252
  6
CONTINUOUS
 10
-14.4149747158
 20
7.7580197681
 11
-14.3985910007
 21
7.7645128683
  0
LWPOLYLINE
  5
3FD
100
AcDbEntity
  8
CURVE
100
AcDbPolyline
 62
252
  6
CONTINUOUS
 90
3
 70
0
 10
-14.3990976109
 20
7.7643288613
 10
-14.3824074493
 20
7.7700034635
 10
-14.3659748555
 20
7.7746745886
  0
LINE
  5
3FE
100
AcDbEntity
  8
CURVE
100
AcDbLine
 62
252
  6
CONTINUOUS
 10
-14.3665554727
 20
7.7745249411
 11
-14.3829488226
 21
7.7698358281
  0
LINE
  5
3FF
100
AcDbEntity
  8
CURVE
100
AcDbLine
 62
252
  6
CONTINUOUS
 10
-11.7236017557
 20
32.4145758885
 11
-13.1015891107
 21
32.5838347121
  0
LINE
  5
400
100
AcDbEntity
  8
CURVE
100
AcDbLine
 62
252
  6
CONTINUOUS
 10
-16.2374414161
 20
32.9690129
 11
-17.5781858697
 21
33.1336971609
  0
LWPOLYLINE
  5
401
100
AcDbEntity
  8
RACCORDO
100
AcDbPolyline
 62
253
  6
CONTINUOUS
 90
64
 70
0
 10
-5.9299620352
 20
40.7432204015
 10
-5.9537385409
 20
40.7377247631
 10
-5.9774775587
 20
40.7314106078
 10
-6.0011660118
 20
40.7242814681
 10
-6.0247909296
 20
40.716341357
 10
-6.0483392209
 20
40.7075946855
 10
-6.0717976795
 20
40.6980462476
 10
-6.0951534427
 20
40.6877013357
 10
-6.1183935841
 20
40.6765657331
 10
-6.1415048867
 20
40.6646456276
 10
-6.1644745966
 20
40.6519476723
 10
-6.1872900853
 20
40.6384789331
 10
-6.2099384421
 20
40.6242468714
 10
-6.2324071815
 20
40.6092594209
 10
-6.2546839384
 20
40.5935249234
 10
-6.2767561302
 20
40.5770520798
 10
-6.298611613
 20
40.5598500455
 10
-6.3202383338
 20
40.5419284093
 10
-6.341624026
 20
40.5232971293
 10
-6.362756898
 20
40.5039665857
 10
-6.3836253235
 20
40.4839475317
 10
-6.4042174934
 20
40.463251069
 10
-6.4245220656
 20
40.4418887125
 10
-6.4445278579
 20
40.4198723556
 10
-6.4642235393
 20
40.3972142222
 10
-6.4835982506
 20
40.3739269312
 10
-6.5026413345
 20
40.3500234333
 10
-6.5213420276
 20
40.325516974
 10
-6.5396900354
 20
40.3004211741
 10
-6.557675248
 20
40.2747500093
 10
-6.5752874709
 20
40.2485177486
 10
-6.5925169925
 20
40.2217389982
 10
-6.6093543386
 20
40.1944286452
 10
-6.6257899877
 20
40.1666018361
 10
-6.6418148899
 20
40.138274037
 10
-6.6574202195
 20
40.1094610181
 10
-6.6725971314
 20
40.0801787988
 10
-6.6873372549
 20
40.050443683
 10
-6.7016324895
 20
40.0202721955
 10
-6.7154747551
 20
39.9896810639
 10
-6.7288564283
 20
39.9586872892
 10
-6.7417701421
 20
39.9273081213
 10
-6.7542085817
 20
39.8955609957
 10
-6.7661648897
 20
39.8634635731
 10
-6.7776324933
 20
39.8310336986
 10
-6.7886049021
 20
39.7982893759
 10
-6.7990760726
 20
39.7652487986
 10
-6.8090402429
 20
39.7319303543
 10
-6.8184917608
 20
39.6983525855
 10
-6.8274254107
 20
39.6645341897
 10
-6.8358362922
 20
39.6304939462
 10
-6.8437196531
 20
39.5962507185
 10
-6.8510711488
 20
39.5618235317
 10
-6.8578867379
 20
39.5272315411
 10
-6.8641625601
 20
39.4924939586
 10
-6.8698951586
 20
39.4576300661
 10
-6.8750813804
 20
39.4226592773
 10
-6.879718274
 20
39.3876011062
 10
-6.8838032738
 20
39.3524751282
 10
-6.8873341575
 20
39.3173007866
 10
-6.8903089393
 20
39.2820974538
 10
-6.8927259627
 20
39.2468846387
 10
-6.8945839099
 20
39.2116819766
 10
-6.8958817563
 20
39.1765090364
  0
LWPOLYLINE
  5
402
100
AcDbEntity
  8
ASSI
100
AcDbPolyline
 62
253
  6
CONTINUOUS
 90
64
 70
0
 10
-5.9299620352
 20
40.7432204015
 10
-5.9537385409
 20
40.7377247631
 10
-5.9774775587
 20
40.7314106078
 10
-6.0011660118
 20
40.7242814681
 10
-6.0247909296
 20
40.716341357
 10
-6.0483392209
 20
40.7075946855
 10
-6.0717976795
 20
40.6980462476
 10
-6.0951534427
 20
40.6877013357
 10
-6.1183935841
 20
40.6765657331
 10
-6.1415048867
 20
40.6646456276
 10
-6.1644745966
 20
40.6519476723
 10
-6.1872900853
 20
40.6384789331
 10
-6.2099384421
 20
40.6242468714
 10
-6.2324071815
 20
40.6092594209
 10
-6.2546839384
 20
40.5935249234
 10
-6.2767561302
 20
40.5770520798
 10
-6.298611613
 20
40.5598500455
 10
-6.3202383338
 20
40.5419284093
 10
-6.341624026
 20
40.5232971293
 10
-6.362756898
 20
40.5039665857
 10
-6.3836253235
 20
40.4839475317
 10
-6.4042174934
 20
40.463251069
 10
-6.4245220656
 20
40.4418887125
 10
-6.4445278579
 20
40.4198723556
 10
-6.4642235393
 20
40.3972142222
 10
-6.4835982506
 20
40.3739269312
 10
-6.5026413345
 20
40.3500234333
 10
-6.5213420276
 20
40.325516974
 10
-6.5396900354
 20
40.3004211741
 10
-6.557675248
 20
40.2747500093
 10
-6.5752874709
 20
40.2485177486
 10
-6.5925169925
 20
40.2217389982
 10
-6.6093543386
 20
40.1944286452
 10
-6.6257899877
 20
40.1666018361
 10
-6.6418148899
 20
40.138274037
 10
-6.6574202195
 20
40.1094610181
 10
-6.6725971314
 20
40.0801787988
 10
-6.6873372549
 20
40.050443683
 10
-6.7016324895
 20
40.0202721955
 10
-6.7154747551
 20
39.9896810639
 10
-6.7288564283
 20
39.9586872892
 10
-6.7417701421
 20
39.9273081213
 10
-6.7542085817
 20
39.8955609957
 10
-6.7661648897
 20
39.8634635731
 10
-6.7776324933
 20
39.8310336986
 10
-6.7886049021
 20
39.7982893759
 10
-6.7990760726
 20
39.7652487986
 10
-6.8090402429
 20
39.7319303543
 10
-6.8184917608
 20
39.6983525855
 10
-6.8274254107
 20
39.6645341897
 10
-6.8358362922
 20
39.6304939462
 10
-6.8437196531
 20
39.5962507185
 10
-6.8510711488
 20
39.5618235317
 10
-6.8578867379
 20
39.5272315411
 10
-6.8641625601
 20
39.4924939586
 10
-6.8698951586
 20
39.4576300661
 10
-6.8750813804
 20
39.4226592773
 10
-6.879718274
 20
39.3876011062
 10
-6.8838032738
 20
39.3524751282
 10
-6.8873341575
 20
39.3173007866
 10
-6.8903089393
 20
39.2820974538
 10
-6.8927259627
 20
39.2468846387
 10
-6.8945839099
 20
39.2116819766
 10
-6.8958817563
 20
39.1765090364
  0
LWPOLYLINE
  5
403
100
AcDbEntity
  8
RACCORDO
100
AcDbPolyline
 62
253
  6
CONTINUOUS
 90
64
 70
0
 10
-5.32058221
 20
39.8800520777
 10
-5.331800723
 20
39.8774989504
 10
-5.3429898261
 20
39.8745673491
 10
-5.3541495194
 20
39.8712572737
 10
-5.3652861203
 20
39.8675664335
 10
-5.3763933114
 20
39.8634971193
 10
-5.3874521406
 20
39.8590562031
 10
-5.3984623879
 20
39.854243093
 10
-5.4094242733
 20
39.8490583809
 10
-5.4203195045
 20
39.8435107144
 10
-5.4311479609
 20
39.8375994902
 10
-5.4419097631
 20
39.8313253115
 10
-5.4525869808
 20
39.824698636
 10
-5.4631794688
 20
39.8177188799
 10
-5.4736873722
 20
39.8103866269
 10
-5.484093196
 20
39.8027140856
 10
-5.4943967781
 20
39.7947006823
 10
-5.5045982805
 20
39.7863469905
 10
-5.5146806939
 20
39.7776669399
 10
-5.524643815
 20
39.7686599897
 10
-5.5344878471
 20
39.7593266807
 10
-5.5441963907
 20
39.7496825648
 10
-5.5537692214
 20
39.739727122
 10
-5.5632065637
 20
39.7294608724
 10
-5.572492691
 20
39.7189009276
 10
-5.5816273479
 20
39.7080468022
 10
-5.59061079
 20
39.6968989816
 10
-5.599428057
 20
39.6854760339
 10
-5.6080788764
 20
39.6737774945
 10
-5.6165635207
 20
39.661803828
 10
-5.6248678481
 20
39.6495749958
 10
-5.6329915541
 20
39.637090578
 10
-5.6409349431
 20
39.6243509946
 10
-5.6486847867
 20
39.6113774662
 10
-5.6562407654
 20
39.5981695973
 10
-5.6636031986
 20
39.5847277834
 10
-5.6707598166
 20
39.5710744322
 10
-5.6777102722
 20
39.5572091987
 10
-5.6844549124
 20
39.5431324277
 10
-5.6909825081
 20
39.5288675621
 10
-5.6972927001
 20
39.5144142831
 10
-5.7033858475
 20
39.4997729093
 10
-5.7092517984
 20
39.4849678398
 10
-5.7148901731
 20
39.4699988045
 10
-5.7203013513
 20
39.4548660735
 10
-5.7254763208
 20
39.439594856
 10
-5.7304146895
 20
39.4241849145
 10
-5.7351168495
 20
39.4086364865
 10
-5.7395749643
 20
39.3929754938
 10
-5.7437886235
 20
39.3772017613
 10
-5.7477582374
 20
39.3613154641
 10
-5.7514772005
 20
39.3453430486
 10
-5.7549450975
 20
39.3292843654
 10
-5.7581623437
 20
39.313139564
 10
-5.7611235789
 20
39.2969355387
 10
-5.7638283767
 20
39.2806721768
 10
-5.7662771636
 20
39.2643495911
 10
-5.7684658597
 20
39.2479950148
 10
-5.7703940397
 20
39.2316081067
 10
-5.7720621288
 20
39.215189208
 10
-5.7734673234
 20
39.1987665757
 10
-5.7746086889
 20
39.1823496286
 10
-5.7754871597
 20
39.1659289478
 10
-5.776102736
 20
39.1495045334
  0
LWPOLYLINE
  5
404
100
AcDbEntity
  8
ASSI
100
AcDbPolyline
 62
253
  6
CONTINUOUS
 90
64
 70
0
 10
-5.32058221
 20
39.8800520777
 10
-5.331800723
 20
39.8774989504
 10
-5.3429898261
 20
39.8745673491
 10
-5.3541495194
 20
39.8712572737
 10
-5.3652861203
 20
39.8675664335
 10
-5.3763933114
 20
39.8634971193
 10
-5.3874521406
 20
39.8590562031
 10
-5.3984623879
 20
39.854243093
 10
-5.4094242733
 20
39.8490583809
 10
-5.4203195045
 20
39.8435107144
 10
-5.4311479609
 20
39.8375994902
 10
-5.4419097631
 20
39.8313253115
 10
-5.4525869808
 20
39.824698636
 10
-5.4631794688
 20
39.8177188799
 10
-5.4736873722
 20
39.8103866269
 10
-5.484093196
 20
39.8027140856
 10
-5.4943967781
 20
39.7947006823
 10
-5.5045982805
 20
39.7863469905
 10
-5.5146806939
 20
39.7776669399
 10
-5.524643815
 20
39.7686599897
 10
-5.5344878471
 20
39.7593266807
 10
-5.5441963907
 20
39.7496825648
 10
-5.5537692214
 20
39.739727122
 10
-5.5632065637
 20
39.7294608724
 10
-5.572492691
 20
39.7189009276
 10
-5.5816273479
 20
39.7080468022
 10
-5.59061079
 20
39.6968989816
 10
-5.599428057
 20
39.6854760339
 10
-5.6080788764
 20
39.6737774945
 10
-5.6165635207
 20
39.661803828
 10
-5.6248678481
 20
39.6495749958
 10
-5.6329915541
 20
39.637090578
 10
-5.6409349431
 20
39.6243509946
 10
-5.6486847867
 20
39.6113774662
 10
-5.6562407654
 20
39.5981695973
 10
-5.6636031986
 20
39.5847277834
 10
-5.6707598166
 20
39.5710744322
 10
-5.6777102722
 20
39.5572091987
 10
-5.6844549124
 20
39.5431324277
 10
-5.6909825081
 20
39.5288675621
 10
-5.6972927001
 20
39.5144142831
 10
-5.7033858475
 20
39.4997729093
 10
-5.7092517984
 20
39.4849678398
 10
-5.7148901731
 20
39.4699988045
 10
-5.7203013513
 20
39.4548660735
 10
-5.7254763208
 20
39.439594856
 10
-5.7304146895
 20
39.4241849145
 10
-5.7351168495
 20
39.4086364865
 10
-5.7395749643
 20
39.3929754938
 10
-5.7437886235
 20
39.3772017613
 10
-5.7477582374
 20
39.3613154641
 10
-5.7514772005
 20
39.3453430486
 10
-5.7549450975
 20
39.3292843654
 10
-5.7581623437
 20
39.313139564
 10
-5.7611235789
 20
39.2969355387
 10
-5.7638283767
 20
39.2806721768
 10
-5.7662771636
 20
39.2643495911
 10
-5.7684658597
 20
39.2479950148
 10
-5.7703940397
 20
39.2316081067
 10
-5.7720621288
 20
39.215189208
 10
-5.7734673234
 20
39.1987665757
 10
-5.7746086889
 20
39.1823496286
 10
-5.7754871597
 20
39.1659289478
 10
-5.776102736
 20
39.1495045334
  0
LINE
  5
405
100
AcDbEntity
  8
RACCORDO
100
AcDbLine
 62
253
  6
CONTINUOUS
 10
-2.3387503442
 20
40.5071970587
 11
-5.32058221
 21
39.8800520777
  0
LINE
  5
406
100
AcDbEntity
  8
ASSI
100
AcDbLine
 62
253
  6
CONTINUOUS
 10
-2.3387503442
 20
40.5071970587
 11
-5.32058221
 21
39.8800520777
  0
LINE
  5
407
100
AcDbEntity
  8
RACCORDO
100
AcDbLine
 62
253
  6
CONTINUOUS
 10
-2.9481301694
 20
41.3703653825
 11
-5.9299620352
 21
40.7432204015
  0
LINE
  5
408
100
AcDbEntity
  8
ASSI
100
AcDbLine
 62
253
  6
CONTINUOUS
 10
-2.9481301694
 20
41.3703653825
 11
-5.9299620352
 21
40.7432204015
  0
LWPOLYLINE
  5
409
100
AcDbEntity
  8
RACCORDO
100
AcDbPolyline
 62
253
  6
CONTINUOUS
 90
9
 70
0
 10
-5.776102736
 20
39.1495045334
 10
-5.7919803362
 20
39.1481935846
 10
-5.8083300817
 20
39.1469457454
 10
-5.825138444
 20
39.1457620484
 10
-5.842391515
 20
39.144643473
 10
-5.8600750187
 20
39.1435909448
 10
-5.8781743231
 20
39.1426053347
 10
-5.8966744518
 20
39.1416874582
 10
-5.9155600972
 20
39.1408380749
  0
LWPOLYLINE
  5
40A
100
AcDbEntity
  8
ASSI
100
AcDbPolyline
 62
253
  6
CONTINUOUS
 90
9
 70
0
 10
-5.776102736
 20
39.1495045334
 10
-5.7919803362
 20
39.1481935846
 10
-5.8083300817
 20
39.1469457454
 10
-5.825138444
 20
39.1457620484
 10
-5.842391515
 20
39.144643473
 10
-5.8600750187
 20
39.1435909448
 10
-5.8781743231
 20
39.1426053347
 10
-5.8966744518
 20
39.1416874582
 10
-5.9155600972
 20
39.1408380749
  0
LINE
  5
40B
100
AcDbEntity
  8
RACCORDO
100
AcDbLine
 62
253
  6
CONTINUOUS
 10
-5.9155600972
 20
39.1408380749
 11
-5.9544251239
 21
39.1393475415
  0
LINE
  5
40C
100
AcDbEntity
  8
ASSI
100
AcDbLine
 62
253
  6
CONTINUOUS
 10
-5.9155600972
 20
39.1408380749
 11
-5.9544251239
 21
39.1393475415
  0
LINE
  5
40D
100
AcDbEntity
  8
RACCORDO
100
AcDbLine
 62
253
  6
CONTINUOUS
 10
-5.9544251239
 20
39.1393475415
 11
-5.994640795
 21
39.1381386669
  0
LINE
  5
40E
100
AcDbEntity
  8
ASSI
100
AcDbLine
 62
253
  6
CONTINUOUS
 10
-5.9544251239
 20
39.1393475415
 11
-5.994640795
 21
39.1381386669
  0
LINE
  5
40F
100
AcDbEntity
  8
RACCORDO
100
AcDbLine
 62
253
  6
CONTINUOUS
 10
-5.994640795
 20
39.1381386669
 11
-6.0360740329
 21
39.1372154515
  0
LINE
  5
410
100
AcDbEntity
  8
ASSI
100
AcDbLine
 62
253
  6
CONTINUOUS
 10
-5.994640795
 20
39.1381386669
 11
-6.0360740329
 21
39.1372154515
  0
LWPOLYLINE
  5
411
100
AcDbEntity
  8
RACCORDO
100
AcDbPolyline
 62
253
  6
CONTINUOUS
 90
3
 70
0
 10
-6.0360740329
 20
39.1372154515
 10
-6.0785877307
 20
39.1365809501
 10
-6.1002059159
 20
39.1363726609
  0
LWPOLYLINE
  5
412
100
AcDbEntity
  8
ASSI
100
AcDbPolyline
 62
253
  6
CONTINUOUS
 90
3
 70
0
 10
-6.0360740329
 20
39.1372154515
 10
-6.0785877307
 20
39.1365809501
 10
-6.1002059159
 20
39.1363726609
  0
LINE
  5
413
100
AcDbEntity
  8
RACCORDO
100
AcDbLine
 62
253
  6
CONTINUOUS
 10
-6.1002059159
 20
39.1363726609
 11
-6.1440755343
 21
39.136174867
  0
LINE
  5
414
100
AcDbEntity
  8
ASSI
100
AcDbLine
 62
253
  6
CONTINUOUS
 10
-6.1002059159
 20
39.1363726609
 11
-6.1440755343
 21
39.136174867
  0
LINE
  5
415
100
AcDbEntity
  8
RACCORDO
100
AcDbLine
 62
253
  6
CONTINUOUS
 10
-6.1440755343
 20
39.136174867
 11
-6.1886682249
 21
39.1362692307
  0
LINE
  5
416
100
AcDbEntity
  8
ASSI
100
AcDbLine
 62
253
  6
CONTINUOUS
 10
-6.1440755343
 20
39.136174867
 11
-6.1886682249
 21
39.1362692307
  0
LINE
  5
417
100
AcDbEntity
  8
RACCORDO
100
AcDbLine
 62
253
  6
CONTINUOUS
 10
-6.1886682249
 20
39.1362692307
 11
-6.2338364259
 21
39.1366554395
  0
LINE
  5
418
100
AcDbEntity
  8
ASSI
100
AcDbLine
 62
253
  6
CONTINUOUS
 10
-6.1886682249
 20
39.1362692307
 11
-6.2338364259
 21
39.1366554395
  0
LINE
  5
419
100
AcDbEntity
  8
RACCORDO
100
AcDbLine
 62
253
  6
CONTINUOUS
 10
-6.2338364259
 20
39.1366554395
 11
-6.2794306712
 21
39.1373322157
  0
LINE
  5
41A
100
AcDbEntity
  8
ASSI
100
AcDbLine
 62
253
  6
CONTINUOUS
 10
-6.2338364259
 20
39.1366554395
 11
-6.2794306712
 21
39.1373322157
  0
LINE
  5
41B
100
AcDbEntity
  8
RACCORDO
100
AcDbLine
 62
253
  6
CONTINUOUS
 10
-6.2794306712
 20
39.1373322157
 11
-6.3253000849
 21
39.1382973195
  0
LINE
  5
41C
100
AcDbEntity
  8
ASSI
100
AcDbLine
 62
253
  6
CONTINUOUS
 10
-6.2794306712
 20
39.1373322157
 11
-6.3253000849
 21
39.1382973195
  0
LINE
  5
41D
100
AcDbEntity
  8
RACCORDO
100
AcDbLine
 62
253
  6
CONTINUOUS
 10
-6.3253000849
 20
39.1382973195
 11
-6.3712928804
 21
39.1395475575
  0
LINE
  5
41E
100
AcDbEntity
  8
ASSI
100
AcDbLine
 62
253
  6
CONTINUOUS
 10
-6.3253000849
 20
39.1382973195
 11
-6.3712928804
 21
39.1395475575
  0
LINE
  5
41F
100
AcDbEntity
  8
RACCORDO
100
AcDbLine
 62
253
  6
CONTINUOUS
 10
-6.3712928804
 20
39.1395475575
 11
-6.417256863
 21
39.1410787924
  0
LINE
  5
420
100
AcDbEntity
  8
ASSI
100
AcDbLine
 62
253
  6
CONTINUOUS
 10
-6.3712928804
 20
39.1395475575
 11
-6.417256863
 21
39.1410787924
  0
LINE
  5
421
100
AcDbEntity
  8
RACCORDO
100
AcDbLine
 62
253
  6
CONTINUOUS
 10
-6.417256863
 20
39.1410787924
 11
-6.4630399333
 21
39.1428859573
  0
LINE
  5
422
100
AcDbEntity
  8
ASSI
100
AcDbLine
 62
253
  6
CONTINUOUS
 10
-6.417256863
 20
39.1410787924
 11
-6.4630399333
 21
39.1428859573
  0
LINE
  5
423
100
AcDbEntity
  8
RACCORDO
100
AcDbLine
 62
253
  6
CONTINUOUS
 10
-6.4630399333
 20
39.1428859573
 11
-6.5084905904
 21
39.144963072
  0
LINE
  5
424
100
AcDbEntity
  8
ASSI
100
AcDbLine
 62
253
  6
CONTINUOUS
 10
-6.4630399333
 20
39.1428859573
 11
-6.5084905904
 21
39.144963072
  0
LINE
  5
425
100
AcDbEntity
  8
RACCORDO
100
AcDbLine
 62
253
  6
CONTINUOUS
 10
-6.5084905904
 20
39.144963072
 11
-6.5534584335
 21
39.1473032631
  0
LINE
  5
426
100
AcDbEntity
  8
ASSI
100
AcDbLine
 62
253
  6
CONTINUOUS
 10
-6.5084905904
 20
39.144963072
 11
-6.5534584335
 21
39.1473032631
  0
LINE
  5
427
100
AcDbEntity
  8
RACCORDO
100
AcDbLine
 62
253
  6
CONTINUOUS
 10
-6.5534584335
 20
39.1473032631
 11
-6.5977946597
 21
39.1498987868
  0
LINE
  5
428
100
AcDbEntity
  8
ASSI
100
AcDbLine
 62
253
  6
CONTINUOUS
 10
-6.5534584335
 20
39.1473032631
 11
-6.5977946597
 21
39.1498987868
  0
LINE
  5
429
100
AcDbEntity
  8
RACCORDO
100
AcDbLine
 62
253
  6
CONTINUOUS
 10
-6.5977946597
 20
39.1498987868
 11
-6.6413525557
 21
39.1527410542
  0
LINE
  5
42A
100
AcDbEntity
  8
ASSI
100
AcDbLine
 62
253
  6
CONTINUOUS
 10
-6.5977946597
 20
39.1498987868
 11
-6.6413525557
 21
39.1527410542
  0
LINE
  5
42B
100
AcDbEntity
  8
RACCORDO
100
AcDbLine
 62
253
  6
CONTINUOUS
 10
-6.6413525557
 20
39.1527410542
 11
-6.6839879842
 21
39.1558206599
  0
LINE
  5
42C
100
AcDbEntity
  8
ASSI
100
AcDbLine
 62
253
  6
CONTINUOUS
 10
-6.6413525557
 20
39.1527410542
 11
-6.6839879842
 21
39.1558206599
  0
LINE
  5
42D
100
AcDbEntity
  8
RACCORDO
100
AcDbLine
 62
253
  6
CONTINUOUS
 10
-6.6839879842
 20
39.1558206599
 11
-6.7255598603
 21
39.1591274132
  0
LINE
  5
42E
100
AcDbEntity
  8
ASSI
100
AcDbLine
 62
253
  6
CONTINUOUS
 10
-6.6839879842
 20
39.1558206599
 11
-6.7255598603
 21
39.1591274132
  0
LINE
  5
42F
100
AcDbEntity
  8
RACCORDO
100
AcDbLine
 62
253
  6
CONTINUOUS
 10
-6.7255598603
 20
39.1591274132
 11
-6.7659306183
 21
39.1626503718
  0
LINE
  5
430
100
AcDbEntity
  8
ASSI
100
AcDbLine
 62
253
  6
CONTINUOUS
 10
-6.7255598603
 20
39.1591274132
 11
-6.7659306183
 21
39.1626503718
  0
LWPOLYLINE
  5
431
100
AcDbEntity
  8
RACCORDO
100
AcDbPolyline
 62
253
  6
CONTINUOUS
 90
6
 70
0
 10
-6.7659306183
 20
39.1626503718
 10
-6.8049666675
 20
39.1663778777
 10
-6.8239436251
 20
39.1683145067
 10
-6.8425388337
 20
39.1702975964
 10
-6.8607369068
 20
39.1723255059
 10
-6.8785227866
 20
39.1743965571
  0
LWPOLYLINE
  5
432
100
AcDbEntity
  8
ASSI
100
AcDbPolyline
 62
253
  6
CONTINUOUS
 90
6
 70
0
 10
-6.7659306183
 20
39.1626503718
 10
-6.8049666675
 20
39.1663778777
 10
-6.8239436251
 20
39.1683145067
 10
-6.8425388337
 20
39.1702975964
 10
-6.8607369068
 20
39.1723255059
 10
-6.8785227866
 20
39.1743965571
  0
LINE
  5
433
100
AcDbEntity
  8
RACCORDO
100
AcDbLine
 62
253
  6
CONTINUOUS
 10
-21.1601458658
 20
42.61395092
 11
-5.9299620352
 21
40.7432204015
  0
LINE
  5
434
100
AcDbEntity
  8
ASSI
100
AcDbLine
 62
253
  6
CONTINUOUS
 10
-21.1601458658
 20
42.61395092
 11
-5.9299620352
 21
40.7432204015
  0
LINE
  5
435
100
AcDbEntity
  8
RACCORDO
100
AcDbLine
 62
7
  6
CONTINUOUS
 10
-2.9481301694
 20
41.3703653825
 11
-18.2923870954
 21
43.255107552
  0
LINE
  5
436
100
AcDbEntity
  8
ASSI
100
AcDbLine
 62
7
  6
CONTINUOUS
 10
-2.9481301694
 20
41.3703653825
 11
-18.2923870954
 21
43.255107552
  0
LWPOLYLINE
  5
437
100
AcDbEntity
  8
ASSI
100
AcDbPolyline
 62
7
  6
CONTINUOUS
 90
18
 70
0
 10
-21.3128167814
 20
42.6062387035
 10
-21.4176755909
 20
42.5773336038
 10
-21.5169011933
 20
42.5396718567
 10
-21.6145309792
 20
42.491989281
 10
-21.7094871391
 20
42.43437622
 10
-21.8005869003
 20
42.3672324261
 10
-21.8874089596
 20
42.2905725365
 10
-21.9691179115
 20
42.2048051744
 10
-22.0444621387
 20
42.1111248566
 10
-22.1133248907
 20
42.0096389058
 10
-22.1752494359
 20
41.9008273956
 10
-22.2291204727
 20
41.7867522505
 10
-22.2749608949
 20
41.6676863574
 10
-22.3126062542
 20
41.5440517544
 10
-22.3413641293
 20
41.4185453553
 10
-22.3612701416
 20
41.2924205043
 10
-22.3725609699
 20
41.1652385594
 10
-22.3746214986
 20
41.115111771
  0
LWPOLYLINE
  5
438
100
AcDbEntity
  8
RACCORDO
100
AcDbPolyline
 62
7
  6
CONTINUOUS
 90
3
 70
0
 10
-21.3118090187
 20
42.6064652765
 10
-21.3333198237
 20
42.6014335994
 10
-21.3624441203
 20
42.5939071808
  0
LINE
  5
439
100
AcDbEntity
  8
RACCORDO
100
AcDbLine
 62
253
  6
CONTINUOUS
 10
-21.1601458658
 20
42.61395092
 11
-18.2923870954
 21
43.255107552
  0
LINE
  5
43A
100
AcDbEntity
  8
ASSI
100
AcDbLine
 62
253
  6
CONTINUOUS
 10
-21.1601458658
 20
42.61395092
 11
-18.2923870954
 21
43.255107552
  0
LINE
  5
43B
100
AcDbEntity
  8
RACCORDO
100
AcDbLine
 62
7
  6
CONTINUOUS
 10
-21.3117990204
 20
42.6064675241
 11
-18.4420393403
 21
43.2480715078
  0
LINE
  5
43C
100
AcDbEntity
  8
ASSI
100
AcDbLine
 62
7
  6
CONTINUOUS
 10
-21.312816784
 20
42.6062387151
 11
-18.4420393403
 21
43.2480715078
  0
LWPOLYLINE
  5
43D
100
AcDbEntity
  8
RACCORDO
100
AcDbPolyline
 62
253
  6
CONTINUOUS
 90
4
 70
0
 10
-21.3117990204
 20
42.6064675241
 10
-21.2990483387
 20
42.6091213191
 10
-21.2820117561
 20
42.6120612078
 10
-21.2648527373
 20
42.61433605
  0
LWPOLYLINE
  5
43E
100
AcDbEntity
  8
ASSI
100
AcDbPolyline
 62
253
  6
CONTINUOUS
 90
10
 70
0
 10
-21.3117990204
 20
42.6064675241
 10
-21.2990483387
 20
42.6091213191
 10
-21.2820117561
 20
42.6120612078
 10
-21.2648527373
 20
42.61433605
 10
-21.2475857949
 20
42.6159439217
 10
-21.2302255328
 20
42.6168834629
 10
-21.2127866337
 20
42.617153879
 10
-21.195283847
 20
42.6167549413
 10
-21.1777319761
 20
42.6156869872
 10
-21.1601458658
 20
42.61395092
  0
LWPOLYLINE
  5
43F
100
AcDbEntity
  8
RACCORDO
100
AcDbPolyline
 62
253
  6
CONTINUOUS
 90
7
 70
0
 10
-21.2648527373
 20
42.61433605
 10
-21.2475857949
 20
42.6159439217
 10
-21.2302255328
 20
42.6168834629
 10
-21.2127866337
 20
42.617153879
 10
-21.195283847
 20
42.6167549413
 10
-21.1777319761
 20
42.6156869872
 10
-21.1601458658
 20
42.61395092
  0
ELLIPSE
  5
440
100
AcDbEntity
  8
RACCORDO
100
AcDbEllipse
 62
7
  6
CONTINUOUS
 10
-18.2786172722
 20
42.4648580959
 30
0.0
 11
-0.1503673884
 21
0.7859210017
 31
0.0
 40
0.7339929857
 41
-0.2318904185
 42
0.0226979163
  0
ELLIPSE
  5
441
100
AcDbEntity
  8
RACCORDO
100
AcDbEllipse
 62
7
  6
CONTINUOUS
 10
-2.1361989497
 20
20.0813642141
 30
0.0
 11
-0.0375199753
 21
0.1964507412
 31
0.0
 40
0.7341930047
 41
-3.1459289921
 42
-1.8024981365
  0
ELLIPSE
  5
442
100
AcDbEntity
  8
RACCORDO
100
AcDbEllipse
 62
7
  6
CONTINUOUS
 10
-2.124311001
 20
19.3900207609
 30
0.0
 11
-0.0375199753
 21
0.1964507412
 31
0.0
 40
0.7341930047
 41
-1.8024981365
 42
-0.2317018097
  0
ELLIPSE
  5
443
100
AcDbEntity
  8
RACCORDO
100
AcDbEllipse
 62
7
  6
CONTINUOUS
 10
-2.9347233994
 20
40.5801605204
 30
0.0
 11
-0.149665071
 21
0.7859442059
 31
0.0
 40
0.7341927864
 41
-1.8017773265
 42
-0.2312855862
  0
ELLIPSE
  5
444
100
AcDbEntity
  8
RACCORDO
100
AcDbEllipse
 62
7
  6
CONTINUOUS
 10
-2.2197523424
 20
-0.9989693141
 30
0.0
 11
-0.1503673884
 21
0.7859210017
 31
0.0
 40
0.7339929857
 41
-3.1642655462
 42
-1.8029913318
  0
ELLIPSE
  5
445
100
AcDbEntity
  8
ASSI
100
AcDbEllipse
 62
7
  6
CONTINUOUS
 10
-18.2786172722
 20
42.4648580959
 30
0.0
 11
-0.1503673884
 21
0.7859210017
 31
0.0
 40
0.7339929857
 41
-0.2318904185
 42
0.0226979163
  0
ELLIPSE
  5
446
100
AcDbEntity
  8
ASSI
100
AcDbEllipse
 62
7
  6
CONTINUOUS
 10
-2.1361989497
 20
20.0813642141
 30
0.0
 11
-0.0375199753
 21
0.1964507412
 31
0.0
 40
0.7341930047
 41
-3.1459289921
 42
-1.8024981365
  0
ELLIPSE
  5
447
100
AcDbEntity
  8
ASSI
100
AcDbEllipse
 62
7
  6
CONTINUOUS
 10
-2.124311001
 20
19.3900207609
 30
0.0
 11
-0.0375199753
 21
0.1964507412
 31
0.0
 40
0.7341930047
 41
-1.8024981365
 42
-0.2317018097
  0
ELLIPSE
  5
448
100
AcDbEntity
  8
ASSI
100
AcDbEllipse
 62
7
  6
CONTINUOUS
 10
-2.2197523424
 20
-0.9989693141
 30
0.0
 11
-0.1503673884
 21
0.7859210017
 31
0.0
 40
0.7339929857
 41
-3.1642655462
 42
-1.8029913318
  0
ELLIPSE
  5
449
100
AcDbEntity
  8
ASSI
100
AcDbEllipse
 62
7
  6
CONTINUOUS
 10
-2.9347233994
 20
40.5801605204
 30
0.0
 11
-0.149665071
 21
0.7859442059
 31
0.0
 40
0.7341927864
 41
-1.8017773265
 42
-0.2312855862
  0
ELLIPSE
  5
44A
100
AcDbEntity
  8
CURVE
100
AcDbEllipse
 62
252
  6
CONTINUOUS
 10
168.7033765637
 20
60.1550461326
 30
0.0
 11
430.3474469918
 21
-322.7429283094
 31
0.0
 40
0.2895628407
 41
-1.7824573567
 42
-1.7804551279
  0
ELLIPSE
  5
44B
100
AcDbEntity
  8
CURVE
100
AcDbEllipse
 62
252
  6
CONTINUOUS
 10
202.247596763
 20
56.0347940632
 30
0.0
 11
429.6115048591
 21
243.939971173
 31
0.0
 40
0.144206221
 41
2.0182006684
 42
2.020036052
  0
ELLIPSE
  5
44C
100
AcDbEntity
  8
CURVE
100
AcDbEllipse
 62
252
  6
CONTINUOUS
 10
202.260331638
 20
56.0332298326
 30
0.0
 11
429.8934104341
 21
243.9141154978
 31
0.0
 40
0.1439904731
 41
2.01020801
 42
2.0122095724
  0
ELLIPSE
  5
44D
100
AcDbEntity
  8
CURVE
100
AcDbEllipse
 62
252
  6
CONTINUOUS
 10
175.8008127106
 20
59.2832647706
 30
0.0
 11
285.3959137698
 21
256.8928957784
 31
0.0
 40
0.3082892472
 41
1.9892721088
 42
1.9936443392
  0
ELLIPSE
  5
44E
100
AcDbEntity
  8
CURVE
100
AcDbEllipse
 62
252
  6
CONTINUOUS
 10
168.7176821596
 20
60.1532889696
 30
0.0
 11
430.0506267188
 21
-322.6993814094
 31
0.0
 40
0.2897790542
 41
-1.7901830036
 42
-1.7883482441
  0
ELLIPSE
  5
44F
100
AcDbEntity
  8
CURVE
100
AcDbEllipse
 62
252
  6
CONTINUOUS
 10
175.8008127106
 20
59.2832647706
 30
0.0
 11
285.3959137698
 21
256.8928957784
 31
0.0
 40
0.3082892472
 41
2.0035536666
 42
2.0078231349
  0
ELLIPSE
  5
450
100
AcDbEntity
  8
CURVE
100
AcDbEllipse
 62
252
  6
CONTINUOUS
 10
195.1671214846
 20
56.9044921138
 30
0.0
 11
-272.5673203785
 21
302.8094616143
 31
0.0
 40
0.4428675555
 41
1.270460305
 42
1.2748298471
  0
ELLIPSE
  5
451
100
AcDbEntity
  8
CURVE
100
AcDbEllipse
 62
252
  6
CONTINUOUS
 10
195.1671214846
 20
56.9044921138
 30
0.0
 11
-272.5673203785
 21
302.8094616143
 31
0.0
 40
0.4428675555
 41
1.2562788209
 42
1.2605175623
  0
ENDSEC
  0
SECTION
  2
OBJECTS
  0
DICTIONARY
  5
C
100
AcDbDictionary
280
0
281
1
  3
ACAD_GROUP
350
D
  3
ACAD_MLINESTYLE
350
17
  3
ACAD_LAYOUT
350
1A
  3
ACAD_PLOTSETTINGS
350
19
  3
ACAD_PLOTSTYLENAME
350
E
  0
DICTIONARY
  5
D
102
{ACAD_REACTORS
330
C
102
}
100
AcDbDictionary
280
0
281
1
  0
ACDBDICTIONARYWDFLT
  5
E
102
{ACAD_REACTORS
330
C
102
}
100
AcDbDictionary
281
1
  3
Normal
350
F
100
AcDbDictionaryWithDefault
340
F
  0
DICTIONARY
  5
17
102
{ACAD_REACTORS
330
C
102
}
100
AcDbDictionary
280
0
281
1
  3
Standard
350
18
  0
DICTIONARY
  5
19
102
{ACAD_REACTORS
330
C
102
}
100
AcDbDictionary
281
1
  0
DICTIONARY
  5
1A
102
{ACAD_REACTORS
330
C
102
}
100
AcDbDictionary
281
1
  3
Model
350
452
  3
Layout1
350
453
  0
ACDBPLACEHOLDER
  5
F
102
{ACAD_REACTORS
330
E
102
}
  0
MLINESTYLE
  5
18
102
{ACAD_REACTORS
330
17
102
}
100
AcDbMlineStyle
  2
STANDARD
 70
0
  3

 62
256
 51
90.0
 52
90.0
 71
2
 49
0.5
 62
256
  6
BYLAYER
 49
-0.5
 62
256
  6
BYLAYER
  0
LAYOUT
  5
452
102
{ACAD_REACTORS
330
1A
102
}
100
AcDbPlotSettings
  1

  2
none_device
  4
ISO_A4_(297.00_x_210.00_MM)
  6

 40
0.0
 41
0.0
 42
0.0
 43
0.0
 44
297.0
 45
210.0
 46
0.0
 47
0.0
 48
0.0
 49
0.0
140
0.0
141
0.0
142
1.0
143
1.0
 70
1024
 72
1
 73
0
 74
0
  7

 75
0
147
1.0
148
0.0
149
0.0
100
AcDbLayout
  1
Model
 70
0
 71
0
 10
0.0
 20
0.0
 11
297.0
 21
210.0
 12
0.0
 22
0.0
 32
0.0
 14
0.0
 24
0.0
 34
0.0
 15
0.0
 25
0.0
 35
0.0
146
0.0
 13
0.0
 23
0.0
 33
0.0
 16
1.0
 26
0.0
 36
0.0
 17
0.0
 27
1.0
 37
0.0
 76
0
330
219
345
0
346
0
  0
LAYOUT
  5
453
102
{ACAD_REACTORS
330
1A
102
}
100
AcDbPlotSettings
  1

  2
none_device
  4
ISO_A4_(297.00_x_210.00_MM)
  6

 40
0.0
 41
0.0
 42
0.0
 43
0.0
 44
297.0
 45
210.0
 46
0.0
 47
0.0
 48
0.0
 49
0.0
140
0.0
141
0.0
142
1.0
143
1.0
 70
0
 72
1
 73
0
 74
0
  7

 75
0
147
1.0
148
0.0
149
0.0
100
AcDbLayout
  1
Layout1
 70
0
 71
1
 10
0.0
 20
0.0
 11
297.0
 21
210.0
 12
0.0
 22
0.0
 32
0.0
 14
0.0
 24
0.0
 34
0.0
 15
0.0
 25
0.0
 35
0.0
146
0.0
 13
0.0
 23
0.0
 33
0.0
 16
1.0
 26
0.0
 36
0.0
 17
0.0
 27
1.0
 37
0.0
 76
0
330
21A
345
0
346
0
  0
ENDSEC
  0
EOF
