999
DXF file: C:\Documenti\Lighting Idea, Plana\DXF_Sap\zdi_ea145311.dxf
999
Pro/ENGINEER 2004090 by Parametric Technology Corporation
0
SECTION
2
HEADER
9
$ACADVER
1
AC1014
9
$HANDSEED
5
       278
9
$EXTMAX
10
297.0000000000
20
210.0000000000
9
$EXTMIN
10
0.0000000000
20
0.0000000000
9
$LIMMIN
10
0.0000000000
20
0.0000000000
9
$LIMMAX
10
297.0000000000
20
210.0000000000
9
$VIEWCTR
10
148.5000000000
20
105.0000000000
9
$VIEWSIZE
40
210.0000000000
9
$CLAYER
8
0
9
$LTSCALE
40
16.3350000000
9
$CELTYPE
6
BYLAYER
9
$DIMSCALE
40
1
9
$DIMASZ
40
3.0000000000
9
$DIMEXO
40
1.8562500000
9
$DIMDLI
40
11.2860000000
9
$DIMEXE
40
5.3460000000
9
$DIMCEN
40
2.6730000000
9
$DIMLFAC
40
1.0000000000
9
$DIMTXT
40
3.0000000000
9
$DIMTOL
70
1
9
$DIMLIM
70
0
9
$DIMTFAC
40
1.0000000000
9
$DIMTP
40
0.0100000000
9
$DIMTM
40
0.0100000000
9
$MEASUREMENT
70
1
0
ENDSEC
0
SECTION
2
CLASSES
0
ENDSEC
0
SECTION
2
TABLES
0
TABLE
2
VPORT
5
8
100
AcDbSymbolTable
70
2
0
VPORT
5
1F4
100
AcDbSymbolTableRecord
100
AcDbViewportTableRecord
2
*ACTIVE
70
0
10
0.0
20
0.0
11
1.0
21
1.0
12
148.5000000000
22
105.0000000000
13
0.0
23
0.0
14
1.0
24
1.0
15
0.0
25
0.0
16
0.0
26
0.0
36
1.0
17
0.0
27
0.0
37
0.0
40
210.0000000000
41
1.4142857143
42
50.0
43
0.0
44
0.0
50
0.0
51
0.0
71
0
72
100
73
1
74
1
75
0
76
0
77
0
78
0
0
ENDTAB
0
TABLE
2
LTYPE
5
5
100
AcDbSymbolTable
70
6
0
LTYPE
5
14
100
AcDbSymbolTableRecord
100
AcDbLinetypeTableRecord
2
BYBLOCK
70
0
3

72
65
73
0
40
0.0
0
LTYPE
5
15
100
AcDbSymbolTableRecord
100
AcDbLinetypeTableRecord
2
BYLAYER
70
0
3

72
65
73
0
40
0.0
0
LTYPE
5
16
100
AcDbSymbolTableRecord
100
AcDbLinetypeTableRecord
2
CONTINUOUS
70
64
3
Solid line
72
65
73
0
40
0
0
LTYPE
5
1F5
100
AcDbSymbolTableRecord
100
AcDbLinetypeTableRecord
2
CENTER
70
64
3
____ _ ____ _ ____ _ ____ _ ____ _ ____ _ ____
72
65
73
4
40
0.6
49
0.375
74
0
49
-0.075
74
0
49
0.075
74
0
49
-0.075
74
0
0
LTYPE
5
1F6
100
AcDbSymbolTableRecord
100
AcDbLinetypeTableRecord
2
HIDDEN
70
64
3
- - - - - - - - - - - - - - - - - - - -
72
65
73
2
40
0.2
49
0.1
74
0
49
-0.1
74
0
0
LTYPE
5
1F7
100
AcDbSymbolTableRecord
100
AcDbLinetypeTableRecord
2
PHANTOM
70
64
3
_____ _ _ _____ _ _ _____ _ _ _____
72
65
73
6
40
0.8
49
0.45
74
0
49
-0.05
74
0
49
0.1
74
0
49
-0.05
74
0
49
0.1
74
0
49
-0.05
74
0
0
LTYPE
5
1F8
100
AcDbSymbolTableRecord
100
AcDbLinetypeTableRecord
2
DOT
70
64
3
. . . . . . . . . . . . . . . . . . . .
72
65
73
2
40
0.2
49
0.1
74
0
49
-0.1
74
0
0
LTYPE
5
1F9
100
AcDbSymbolTableRecord
100
AcDbLinetypeTableRecord
2
DASHED
70
64
3
- - - - - - - - - - - - - - - - - - - -
72
65
73
2
40
0.2
49
0.1
74
0
49
-0.1
74
0
0
ENDTAB
0
TABLE
2
LAYER
5
2
100
AcDbSymbolTable
70
36
0
LAYER
5
10
100
AcDbSymbolTableRecord
100
AcDbLayerTableRecord
2
0
70
0
62
7
6
CONTINUOUS
0
LAYER
5
1FA
100
AcDbSymbolTableRecord
100
AcDbLayerTableRecord
2
DEFAULT_1
70
0
62
7
6
CENTER
0
LAYER
5
1FB
100
AcDbSymbolTableRecord
100
AcDbLayerTableRecord
2
DEFAULT_2
70
0
62
8
6
HIDDEN
0
LAYER
5
1FC
100
AcDbSymbolTableRecord
100
AcDbLayerTableRecord
2
DEFAULT_3
70
0
62
7
6
PHANTOM
0
LAYER
5
1FD
100
AcDbSymbolTableRecord
100
AcDbLayerTableRecord
2
ASSI
70
0
62
7
6
CONTINUOUS
0
LAYER
5
1FE
100
AcDbSymbolTableRecord
100
AcDbLayerTableRecord
2
COORDINATE
70
0
62
7
6
CONTINUOUS
0
LAYER
5
1FF
100
AcDbSymbolTableRecord
100
AcDbLayerTableRecord
2
COORD_ORIGINE
70
0
62
7
6
CONTINUOUS
0
LAYER
5
200
100
AcDbSymbolTableRecord
100
AcDbLayerTableRecord
2
CURVE
70
0
62
7
6
CONTINUOUS
0
LAYER
5
201
100
AcDbSymbolTableRecord
100
AcDbLayerTableRecord
2
CURVE_LED_TASTO
70
0
62
7
6
CONTINUOUS
0
LAYER
5
202
100
AcDbSymbolTableRecord
100
AcDbLayerTableRecord
2
DRAFT
70
0
62
7
6
CONTINUOUS
0
LAYER
5
203
100
AcDbSymbolTableRecord
100
AcDbLayerTableRecord
2
IGES_SCRITTE
70
0
62
7
6
CONTINUOUS
0
LAYER
5
204
100
AcDbSymbolTableRecord
100
AcDbLayerTableRecord
2
PIANI
70
0
62
7
6
CONTINUOUS
0
LAYER
5
205
100
AcDbSymbolTableRecord
100
AcDbLayerTableRecord
2
PIANI_ORIGINE
70
0
62
7
6
CONTINUOUS
0
LAYER
5
206
100
AcDbSymbolTableRecord
100
AcDbLayerTableRecord
2
PIANI_RIFERIMENTO
70
0
62
7
6
CONTINUOUS
0
LAYER
5
207
100
AcDbSymbolTableRecord
100
AcDbLayerTableRecord
2
PUNTI
70
0
62
7
6
CONTINUOUS
0
LAYER
5
208
100
AcDbSymbolTableRecord
100
AcDbLayerTableRecord
2
RACCORDO
70
0
62
7
6
CONTINUOUS
0
LAYER
5
209
100
AcDbSymbolTableRecord
100
AcDbLayerTableRecord
2
SMUSSO
70
0
62
7
6
CONTINUOUS
0
LAYER
5
20A
100
AcDbSymbolTableRecord
100
AcDbLayerTableRecord
2
SUPERFICI
70
0
62
7
6
CONTINUOUS
0
LAYER
5
20B
100
AcDbSymbolTableRecord
100
AcDbLayerTableRecord
2
TRASH
70
0
62
7
6
CONTINUOUS
0
ENDTAB
0
TABLE
2
STYLE
5
3
100
AcDbSymbolTable
70
1
0
STYLE
5
11
100
AcDbSymbolTableRecord
100
AcDbTextStyleTableRecord
2
STANDARD
70
0
40
0.0
41
0.8000000000
50
0.0
71
0
42
0.2
3
txt
4

0
ENDTAB
0
TABLE
2
VIEW
5
6
100
AcDbSymbolTable
70
0
0
ENDTAB
0
TABLE
2
UCS
5
7
100
AcDbSymbolTable
70
0
0
ENDTAB
0
TABLE
2
APPID
5
9
100
AcDbSymbolTable
70
1
0
APPID
5
20C
100
AcDbSymbolTableRecord
100
AcDbRegAppTableRecord
2
ACAD
70
0
0
ENDTAB
0
TABLE
2
DIMSTYLE
5
A
100
AcDbSymbolTable
70
1
0
DIMSTYLE
105
20D
100
AcDbSymbolTableRecord
100
AcDbDimStyleTableRecord
2
STANDARD
70
0
3

4

5

6

7

40
1.0
41
3.0000000000
42
0.0625
43
0.38
44
0.18
45
0.0
46
0.0
47
0.0100000000
48
0.0100000000
140
3.0000000000
141
0.09
142
0.0
143
25.4
144
1.0000000000
145
0.0
146
1.0000000000
147
0.09
71
1
72
0
73
0
74
0
75
0
76
0
77
1
78
8
170
0
171
2
172
0
173
0
174
0
175
0
176
0
177
0
178
0
270
2
271
2
272
2
273
2
274
2
340
11
275
0
280
0
281
0
282
0
283
1
284
8
285
0
286
0
287
3
288
0
0
ENDTAB
0
TABLE
2
BLOCK_RECORD
5
1
100
AcDbSymbolTable
70
0
0
BLOCK_RECORD
5
1B
100
AcDbSymbolTableRecord
100
AcDbBlockTableRecord
2
*MODEL_SPACE
0
BLOCK_RECORD
5
1C
100
AcDbSymbolTableRecord
100
AcDbBlockTableRecord
2
*PAPER_SPACE
0
ENDTAB
0
ENDSEC
0
SECTION
2
BLOCKS
0
BLOCK
5
1E
100
AcDbEntity
8
0
100
AcDbBlockBegin
2
*MODEL_SPACE
70
0
10
0.0
20
0.0
30
0.0
3
*MODEL_SPACE
1

0
ENDBLK
5
1F
100
AcDbEntity
8
0
100
AcDbBlockEnd
0
BLOCK
5
20
100
AcDbEntity
8
0
100
AcDbBlockBegin
2
*PAPER_SPACE
70
0
10
0.0
20
0.0
30
0.0
3
*PAPER_SPACE
1

0
ENDBLK
5
21
100
AcDbEntity
8
0
100
AcDbBlockEnd
0
ENDSEC
0
SECTION
2
ENTITIES
0
LINE
5
20E
100
AcDbEntity
8
0
100
AcDbLine
62
7
6
CONTINUOUS
10
-8.5865759338
20
21.7099407483
11
-5.5347526721
21
23.3564694120
0
LINE
5
20F
100
AcDbEntity
8
0
100
AcDbLine
62
9
6
CONTINUOUS
10
-8.2165894494
20
21.6936545687
11
-5.1687247676
21
23.3380474877
0
LINE
5
210
100
AcDbEntity
8
0
100
AcDbLine
62
7
6
CONTINUOUS
10
5.5840715018
20
-23.2790561395
11
-8.8635852881
21
-16.0552277445
0
LINE
5
211
100
AcDbEntity
8
0
100
AcDbLine
62
9
6
CONTINUOUS
10
5.1935219832
20
-22.5531700170
11
-9.2478202732
21
-15.3324988888
0
LINE
5
212
100
AcDbEntity
8
0
100
AcDbLine
62
7
6
CONTINUOUS
10
-9.4821805778
20
-15.0481452610
11
-9.4821746312
21
-15.0482506442
0
LINE
5
213
100
AcDbEntity
8
0
100
AcDbLine
62
7
6
CONTINUOUS
10
-9.4823151256
20
20.2365222021
11
-9.4823235511
21
20.2363621120
0
LINE
5
214
100
AcDbEntity
8
0
100
AcDbLine
62
9
6
CONTINUOUS
10
9.3978472381
20
16.0547614848
11
6.2416909678
21
14.4645143601
0
LINE
5
215
100
AcDbEntity
8
0
100
AcDbLine
62
9
6
CONTINUOUS
10
9.9634465065
20
15.0792470475
11
6.8072902361
21
13.4889999228
0
LINE
5
216
100
AcDbEntity
8
0
100
AcDbLine
62
7
6
CONTINUOUS
10
9.9634465065
20
-21.3806334916
11
9.9634465065
21
15.0792470475
0
LINE
5
217
100
AcDbEntity
8
0
100
AcDbLine
62
9
6
CONTINUOUS
10
5.1935219832
20
12.7382873357
11
-9.2478202732
21
19.9589584639
0
LINE
5
218
100
AcDbEntity
8
0
100
AcDbLine
62
9
6
CONTINUOUS
10
6.2416909678
20
14.4645143601
11
-8.2165894494
21
21.6936545687
0
LINE
5
219
100
AcDbEntity
8
0
100
AcDbLine
62
7
6
CONTINUOUS
10
-5.1687247676
20
23.3380474877
11
9.3978472381
21
16.0547614848
0
LINE
5
21A
100
AcDbEntity
8
0
100
AcDbLine
62
9
6
CONTINUOUS
10
6.8072902361
20
-22.8382510487
11
9.9634465065
21
-21.3806334916
0
LINE
5
21B
100
AcDbEntity
8
0
100
AcDbLine
62
7
6
CONTINUOUS
10
9.7471973702
20
-21.8173110806
11
6.5865554669
21
-23.2769998352
0
SPLINE
5
21C
100
AcDbEntity
8
0
100
AcDbSpline
62
7
6
CONTINUOUS
70
0
71
3
72
8
73
4
74
2
42
0.0000001000
43
0.0000001000
44
0.0000000001
12
-0.0388700666
22
0.0194350333
32
0.0000000000
13
-0.0380638623
23
0.0210277800
33
0.0000000000
40
0.0000000000
40
0.0000000000
40
0.0000000000
40
0.0000000000
40
1.0000000000
40
1.0000000000
40
1.0000000000
40
1.0000000000
10
-2.4789640604
20
-2.5860244884
30
0.0000000000
10
-2.4919207493
20
-2.5795461439
30
0.0000000000
10
-2.5047445449
20
-2.5727931896
30
0.0000000000
10
-2.5174324990
20
-2.5657839296
30
0.0000000000
11
-2.4789640604
21
-2.5860244884
31
0.0000000000
11
-2.5174324990
21
-2.5657839296
31
0.0000000000
0
SPLINE
5
21D
100
AcDbEntity
8
0
100
AcDbSpline
62
7
6
CONTINUOUS
70
0
71
3
72
19
73
15
74
13
42
0.0000001000
43
0.0000001000
44
0.0000000001
12
-2.1423078945
22
1.1834841848
32
0.0000000000
13
1.8137437157
23
1.6542956012
33
0.0000000000
40
0.0000000000
40
0.0000000000
40
0.0000000000
40
0.0000000000
40
0.0639585086
40
0.1513733666
40
0.2430824201
40
0.3374115315
40
0.4327491145
40
0.5272621413
40
0.6192448557
40
0.7071823494
40
0.7898229018
40
0.8660930345
40
0.9356682238
40
1.0000000000
40
1.0000000000
40
1.0000000000
40
1.0000000000
10
-2.5174324990
20
-2.5657839296
30
0.0000000000
10
-2.5631054383
20
-2.5405526351
30
0.0000000000
10
-2.6670355655
20
-2.4729762523
30
0.0000000000
10
-2.8168610068
20
-2.3422645716
30
0.0000000000
10
-2.9637159683
20
-2.1736640588
30
0.0000000000
10
-3.0920806157
20
-1.9828701180
30
0.0000000000
10
-3.1981239342
20
-1.7762724712
30
0.0000000000
10
-3.2785635032
20
-1.5604519356
30
0.0000000000
10
-3.3306609918
20
-1.3422359637
30
0.0000000000
10
-3.3522756047
20
-1.1285445472
30
0.0000000000
10
-3.3419227803
20
-0.9266487931
30
0.0000000000
10
-3.2992094748
20
-0.7441215718
30
0.0000000000
10
-3.2252253931
20
-0.5878625918
30
0.0000000000
10
-3.1550029077
20
-0.5027006858
30
0.0000000000
10
-3.1161091227
20
-0.4672260943
30
0.0000000000
11
-2.5174324990
21
-2.5657839296
31
0.0000000000
11
-2.6490331302
21
-2.4809802975
31
0.0000000000
11
-2.8108305988
21
-2.3412105836
31
0.0000000000
11
-2.9586544275
21
-2.1724985088
31
0.0000000000
11
-3.0877244593
21
-1.9812588614
31
0.0000000000
11
-3.1942309765
21
-1.7738165305
31
0.0000000000
11
-3.2747076943
21
-1.5571071633
31
0.0000000000
11
-3.3263730185
21
-1.3381389561
31
0.0000000000
11
-3.3470783379
21
-1.1240512473
31
0.0000000000
11
-3.3354239521
21
-0.9222566891
31
0.0000000000
11
-3.2913740912
21
-0.7409826320
31
0.0000000000
11
-3.2171472949
21
-0.5878498735
31
0.0000000000
11
-3.1161091227
21
-0.4672260943
31
0.0000000000
0
SPLINE
5
21E
100
AcDbEntity
8
0
100
AcDbSpline
62
7
6
CONTINUOUS
70
0
71
3
72
8
73
4
74
2
42
0.0000001000
43
0.0000001000
44
0.0000000001
12
0.0373007829
22
0.0340216319
32
0.0000000000
13
0.0402712666
23
0.0305005041
33
0.0000000000
40
0.0000000000
40
0.0000000000
40
0.0000000000
40
0.0000000000
40
1.0000000000
40
1.0000000000
40
1.0000000000
40
1.0000000000
10
-3.1161091227
20
-0.4672260943
30
0.0000000000
10
-3.1036755284
20
-0.4558855503
30
0.0000000000
10
-3.0907148698
20
-0.4451008506
30
0.0000000000
10
-3.0772911143
20
-0.4349340159
30
0.0000000000
11
-3.1161091227
21
-0.4672260943
31
0.0000000000
11
-3.0772911143
21
-0.4349340159
31
0.0000000000
0
SPLINE
5
21F
100
AcDbEntity
8
0
100
AcDbSpline
62
7
6
CONTINUOUS
70
0
71
3
72
8
73
4
74
2
42
0.0000001000
43
0.0000001000
44
0.0000000001
12
0.0067626937
22
0.0051219041
32
0.0000000000
13
0.0068401409
23
0.0050164803
33
0.0000000000
40
0.0000000000
40
0.0000000000
40
0.0000000000
40
0.0000000000
40
1.0000000000
40
1.0000000000
40
1.0000000000
40
1.0000000000
10
-3.0772911143
20
-0.4349340159
30
0.0000000000
10
-3.0750368830
20
-0.4332267145
30
0.0000000000
10
-3.0727695925
20
-0.4315368369
30
0.0000000000
10
-3.0704895455
20
-0.4298646768
30
0.0000000000
11
-3.0772911143
21
-0.4349340159
31
0.0000000000
11
-3.0704895455
21
-0.4298646768
31
0.0000000000
0
SPLINE
5
220
100
AcDbEntity
8
0
100
AcDbSpline
62
7
6
CONTINUOUS
70
0
71
3
72
8
73
4
74
2
42
0.0000001000
43
0.0000001000
44
0.0000000001
12
0.0333430105
22
0.0244533787
32
0.0000000000
13
0.0350564396
23
0.0218253220
33
0.0000000000
40
0.0000000000
40
0.0000000000
40
0.0000000000
40
0.0000000000
40
1.0000000000
40
1.0000000000
40
1.0000000000
40
1.0000000000
10
-3.0704895455
20
-0.4298646768
30
0.0000000000
10
-3.0593752087
20
-0.4217135506
30
0.0000000000
10
-3.0479577567
20
-0.4139834240
30
0.0000000000
10
-3.0362722768
20
-0.4067083166
30
0.0000000000
11
-3.0704895455
21
-0.4298646768
31
0.0000000000
11
-3.0362722768
21
-0.4067083166
31
0.0000000000
0
SPLINE
5
221
100
AcDbEntity
8
0
100
AcDbSpline
62
7
6
CONTINUOUS
70
0
71
3
72
8
73
4
74
2
42
0.0000001000
43
0.0000001000
44
0.0000000001
12
-0.0409943969
22
-0.0161660043
32
0.0000000000
13
-0.0422217790
23
-0.0128051398
33
0.0000000000
40
0.0000000000
40
0.0000000000
40
0.0000000000
40
0.0000000000
40
1.0000000000
40
1.0000000000
40
1.0000000000
40
1.0000000000
10
-1.9177730208
20
-2.6376562000
30
0.0000000000
10
-1.9314378198
20
-2.6430448681
30
0.0000000000
10
-1.9453363985
20
-2.6478785851
30
0.0000000000
10
-1.9594103248
20
-2.6521469650
30
0.0000000000
11
-1.9177730208
21
-2.6376562000
31
0.0000000000
11
-1.9594103248
21
-2.6521469650
31
0.0000000000
0
SPLINE
5
222
100
AcDbEntity
8
0
100
AcDbSpline
62
7
6
CONTINUOUS
70
0
71
3
72
11
73
7
74
5
42
0.0000001000
43
0.0000001000
44
0.0000000001
12
-0.5143187205
22
-0.1559840270
32
0.0000000000
13
-0.4788835439
23
0.2394417717
33
0.0000000000
40
0.0000000000
40
0.0000000000
40
0.0000000000
40
0.0000000000
40
0.0943098663
40
0.3714632819
40
0.6722076892
40
1.0000000000
40
1.0000000000
40
1.0000000000
40
1.0000000000
10
-1.9594103248
20
-2.6521469650
30
0.0000000000
10
-1.9755787681
20
-2.6570505759
30
0.0000000000
10
-2.0401737912
20
-2.6734258749
30
0.0000000000
10
-2.1610760336
20
-2.6816700332
30
0.0000000000
10
-2.3216824572
20
-2.6539861453
30
0.0000000000
10
-2.4266392793
20
-2.6121868789
30
0.0000000000
10
-2.4789640604
20
-2.5860244884
30
0.0000000000
11
-1.9594103248
21
-2.6521469650
31
0.0000000000
11
-2.0085213272
21
-2.6646036666
31
0.0000000000
11
-2.1564969689
21
-2.6756876318
31
0.0000000000
11
-2.3153974619
21
-2.6496416910
31
0.0000000000
11
-2.4789640604
21
-2.5860244884
31
0.0000000000
0
SPLINE
5
223
100
AcDbEntity
8
0
100
AcDbSpline
62
9
6
CONTINUOUS
70
0
71
3
72
8
73
4
74
2
42
0.0000001000
43
0.0000001000
44
0.0000000001
12
0.0373328524
22
-0.0186664262
32
0.0000000000
13
0.0382012890
23
-0.0169515015
33
0.0000000000
40
0.0000000000
40
0.0000000000
40
0.0000000000
40
0.0000000000
40
1.0000000000
40
1.0000000000
40
1.0000000000
40
1.0000000000
10
-2.5044746911
20
-2.5417576550
30
0.0000000000
10
-2.4920304069
20
-2.5479797971
30
0.0000000000
10
-2.4794366976
20
-2.5539321336
30
0.0000000000
10
-2.4667029346
20
-2.5595826341
30
0.0000000000
11
-2.5044746911
21
-2.5417576550
31
0.0000000000
11
-2.4667029346
21
-2.5595826341
31
0.0000000000
0
SPLINE
5
224
100
AcDbEntity
8
0
100
AcDbSpline
62
9
6
CONTINUOUS
70
0
71
3
72
8
73
4
74
2
42
0.0000001000
43
0.0000001000
44
0.0000000001
12
0.0111089932
22
-0.0049295225
32
0.0000000000
13
0.0111793641
23
-0.0047740099
33
0.0000000000
40
0.0000000000
40
0.0000000000
40
0.0000000000
40
0.0000000000
40
1.0000000000
40
1.0000000000
40
1.0000000000
40
1.0000000000
10
-2.4667029346
20
-2.5595826341
30
0.0000000000
10
-2.4629999369
20
-2.5612258083
30
0.0000000000
10
-2.4592850954
20
-2.5628434575
30
0.0000000000
10
-2.4555586407
20
-2.5644347941
30
0.0000000000
11
-2.4667029346
21
-2.5595826341
31
0.0000000000
11
-2.4555586407
21
-2.5644347941
31
0.0000000000
0
SPLINE
5
225
100
AcDbEntity
8
0
100
AcDbSpline
62
9
6
CONTINUOUS
70
0
71
3
72
24
73
20
74
18
42
0.0000001000
43
0.0000001000
44
0.0000000001
12
2.6954700144
22
-1.1510673178
32
0.0000000000
13
-2.6176119329
23
1.3088059665
33
0.0000000000
40
0.0000000000
40
0.0000000000
40
0.0000000000
40
0.0000000000
40
0.0356085347
40
0.0861568326
40
0.1330877941
40
0.1781151453
40
0.2237399937
40
0.2723783054
40
0.3255317102
40
0.3838695417
40
0.4476257062
40
0.5155257560
40
0.5869338258
40
0.6599475440
40
0.7335025563
40
0.8055968773
40
0.8751308481
40
0.9404149441
40
1.0000000000
40
1.0000000000
40
1.0000000000
40
1.0000000000
10
-2.4555586407
20
-2.5644347941
30
0.0000000000
10
-2.4235647282
20
-2.5780974010
30
0.0000000000
10
-2.3440824260
20
-2.6064619259
30
0.0000000000
10
-2.2148825078
20
-2.6282291317
30
0.0000000000
10
-2.0746188676
20
-2.6149495899
30
0.0000000000
10
-1.9487526845
20
-2.5625205293
30
0.0000000000
10
-1.8435343129
20
-2.4734037318
30
0.0000000000
10
-1.7628868041
20
-2.3524092726
30
0.0000000000
10
-1.7085930395
20
-2.2046763323
30
0.0000000000
10
-1.6815269010
20
-2.0349782699
30
0.0000000000
10
-1.6823029622
20
-1.8489392309
30
0.0000000000
10
-1.7107639148
20
-1.6523285544
30
0.0000000000
10
-1.7658420665
20
-1.4521434975
30
0.0000000000
10
-1.8457868080
20
-1.2546083827
30
0.0000000000
10
-1.9477531592
20
-1.0667262013
30
0.0000000000
10
-2.0685061517
20
-0.8944417299
30
0.0000000000
10
-2.2037584582
20
-0.7438715148
30
0.0000000000
10
-2.3484519782
20
-0.6203877079
30
0.0000000000
10
-2.4524845066
20
-0.5557745364
30
0.0000000000
10
-2.5044746911
20
-0.5297794442
30
0.0000000000
11
-2.4555586407
21
-2.5644347941
31
0.0000000000
11
-2.3571546203
21
-2.5991053828
31
0.0000000000
11
-2.2110176775
21
-2.6220910685
31
0.0000000000
11
-2.0744079968
21
-2.6078769678
31
0.0000000000
11
-1.9528654237
21
-2.5569618923
31
0.0000000000
11
-1.8504109120
21
-2.4713352252
31
0.0000000000
11
-1.7701911492
21
-2.3537488055
31
0.0000000000
11
-1.7150292132
21
-2.2083000468
31
0.0000000000
11
-1.6867826722
21
-2.0399226101
31
0.0000000000
11
-1.6864872418
21
-1.8533353849
31
0.0000000000
11
-1.7142188789
21
-1.6565650753
31
0.0000000000
11
-1.7692157358
21
-1.4549502028
31
0.0000000000
11
-1.8492094553
21
-1.2568080119
31
0.0000000000
11
-1.9519574921
21
-1.0676475700
31
0.0000000000
11
-2.0733377896
21
-0.8950686281
31
0.0000000000
11
-2.2097866165
21
-0.7440964091
31
0.0000000000
11
-2.3557258903
21
-0.6207866481
31
0.0000000000
11
-2.5044746911
21
-0.5297794442
31
0.0000000000
0
SPLINE
5
226
100
AcDbEntity
8
0
100
AcDbSpline
62
9
6
CONTINUOUS
70
0
71
3
72
24
73
20
74
18
42
0.0000001000
43
0.0000001000
44
0.0000000001
12
-2.6658012393
22
1.3329006196
32
0.0000000000
13
2.6658012393
23
-1.3329006196
33
0.0000000000
40
0.0000000000
40
0.0000000000
40
0.0000000000
40
0.0000000000
40
0.0530416767
40
0.1026762980
40
0.1487588500
40
0.1929722555
40
0.2377723421
40
0.2855314230
40
0.3377239780
40
0.3950072443
40
0.4576108964
40
0.5242835267
40
0.5944007632
40
0.6660946229
40
0.7383199916
40
0.8091110750
40
0.8773880810
40
0.9414920735
40
1.0000000000
40
1.0000000000
40
1.0000000000
40
1.0000000000
10
-2.5044746911
20
-0.5297794442
30
0.0000000000
10
-2.5516075469
20
-0.5062130163
30
0.0000000000
10
-2.6469950938
20
-0.4680859887
30
0.0000000000
10
-2.7940669258
20
-0.4433081348
30
0.0000000000
10
-2.9343305981
20
-0.4565875072
30
0.0000000000
10
-3.0601967402
20
-0.5090165988
30
0.0000000000
10
-3.1654151040
20
-0.5981333855
30
0.0000000000
10
-3.2460626024
20
-0.7191278389
30
0.0000000000
10
-3.3003563517
20
-0.8668607759
30
0.0000000000
10
-3.3274224919
20
-1.0365588328
30
0.0000000000
10
-3.3266464175
20
-1.2225978701
30
0.0000000000
10
-3.2981854665
20
-1.4192085443
30
0.0000000000
10
-3.2431073221
20
-1.6193936053
30
0.0000000000
10
-3.1631625652
20
-1.8169287096
30
0.0000000000
10
-3.0611962669
20
-2.0048109293
30
0.0000000000
10
-2.9404431859
20
-2.1770953112
30
0.0000000000
10
-2.8051910752
20
-2.3276657519
30
0.0000000000
10
-2.6604972711
20
-2.4511492185
30
0.0000000000
10
-2.5564648587
20
-2.5157625712
30
0.0000000000
10
-2.5044746911
20
-2.5417576550
30
0.0000000000
11
-2.5044746911
21
-0.5297794442
31
0.0000000000
11
-2.6517946710
21
-0.4724316709
31
0.0000000000
11
-2.7979318686
21
-0.4494461126
31
0.0000000000
11
-2.9345414203
21
-0.4636601489
31
0.0000000000
11
-3.0560840128
21
-0.5145752342
31
0.0000000000
11
-3.1585385026
21
-0.6002018903
31
0.0000000000
11
-3.2387582563
21
-0.7177883054
31
0.0000000000
11
-3.2939201804
21
-0.8632370582
31
0.0000000000
11
-3.3221667184
21
-1.0316144934
31
0.0000000000
11
-3.3224621406
21
-1.2182017145
31
0.0000000000
11
-3.2947305034
21
-1.4149720240
31
0.0000000000
11
-3.2397336490
21
-1.6165868978
31
0.0000000000
11
-3.1597399293
21
-1.8147290886
31
0.0000000000
11
-3.0569919098
21
-2.0038895391
31
0.0000000000
11
-2.9356115936
21
-2.1764684717
31
0.0000000000
11
-2.7991628585
21
-2.3274407365
31
0.0000000000
11
-2.6532233965
21
-2.4507504034
31
0.0000000000
11
-2.5044746911
21
-2.5417576550
31
0.0000000000
0
SPLINE
5
227
100
AcDbEntity
8
0
100
AcDbSpline
62
7
6
CONTINUOUS
70
0
71
3
72
19
73
15
74
13
42
0.0000001000
43
0.0000001000
44
0.0000000001
12
0.0000000000
22
-0.7883225825
32
0.0000000000
13
-0.7055574864
23
-0.3527915729
33
0.0000000000
40
0.0000000000
40
0.0000000000
40
0.0000000000
40
0.0000000000
40
0.1034738261
40
0.2035432580
40
0.2999444594
40
0.3928064271
40
0.4820062912
40
0.5678679415
40
0.6504860031
40
0.7303353832
40
0.8078313016
40
0.8835279496
40
0.9581569514
40
1.0000000000
40
1.0000000000
40
1.0000000000
40
1.0000000000
10
-1.6331047050
20
-1.9839670331
30
0.0000000000
10
-1.6331047050
20
-2.0111572843
30
0.0000000000
10
-1.6347413673
20
-2.0646612834
30
0.0000000000
10
-1.6423786722
20
-2.1431679625
30
0.0000000000
10
-1.6551222587
20
-2.2181923206
30
0.0000000000
10
-1.6728980178
20
-2.2892534288
30
0.0000000000
10
-1.6956230863
20
-2.3559808524
30
0.0000000000
10
-1.7231645840
20
-2.4179463814
30
0.0000000000
10
-1.7553915494
20
-2.4748150952
30
0.0000000000
10
-1.7921184568
20
-2.5262233873
30
0.0000000000
10
-1.8331509755
20
-2.5718629500
30
0.0000000000
10
-1.8782561467
20
-2.6114466131
30
0.0000000000
10
-1.9201175267
20
-2.6399211003
30
0.0000000000
10
-1.9470263114
20
-2.6545856756
30
0.0000000000
10
-1.9568672035
20
-2.6595063005
30
0.0000000000
11
-1.6331047050
21
-1.9839670331
31
0.0000000000
11
-1.6356851537
21
-2.0654969611
31
0.0000000000
11
-1.6434191970
21
-2.1440039177
31
0.0000000000
11
-1.6562498952
21
-2.2189081919
31
0.0000000000
11
-1.6741256943
21
-2.2898973115
31
0.0000000000
11
-1.6969090253
21
-2.3564223334
31
0.0000000000
11
-1.7245129822
21
-2.4182245010
31
0.0000000000
11
-1.7567287886
21
-2.4748285425
31
0.0000000000
11
-1.7934115284
21
-2.5259823319
31
0.0000000000
11
-1.8343267619
21
-2.5713491652
31
0.0000000000
11
-1.8792242248
21
-2.6106573036
31
0.0000000000
11
-1.9278904935
21
-2.6437143218
31
0.0000000000
11
-1.9568672035
21
-2.6595063005
31
0.0000000000
0
SPLINE
5
228
100
AcDbEntity
8
0
100
AcDbSpline
62
7
6
CONTINUOUS
70
0
71
3
72
37
73
33
74
31
42
0.0000001000
43
0.0000001000
44
0.0000000001
12
2.1679297477
22
1.0840032063
32
0.0000000000
13
-0.0000000000
23
-2.4222545040
33
0.0000000000
40
0.0000000000
40
0.0000000000
40
0.0000000000
40
0.0000000000
40
0.0105699558
40
0.0349555816
40
0.0596442205
40
0.0848951133
40
0.1108581928
40
0.1377090292
40
0.1655701356
40
0.1945023694
40
0.2246047483
40
0.2558405696
40
0.2882696957
40
0.3217978644
40
0.3564247892
40
0.3920466904
40
0.4285755592
40
0.4659367537
40
0.5039601875
40
0.5425939720
40
0.5816249480
40
0.6209930310
40
0.6604908090
40
0.7000153015
40
0.7394107696
40
0.7785084111
40
0.8172212979
40
0.8553436165
40
0.8928249946
40
0.9294738724
40
0.9652474985
40
1.0000000000
40
1.0000000000
40
1.0000000000
40
1.0000000000
10
-3.0748994508
20
-0.4234394104
30
0.0000000000
10
-3.0672611436
20
-0.4196201218
30
0.0000000000
10
-3.0416580647
20
-0.4076749444
30
0.0000000000
10
-2.9962476615
20
-0.3912723799
30
0.0000000000
10
-2.9375901373
20
-0.3779224606
30
0.0000000000
10
-2.8765082745
20
-0.3714674376
30
0.0000000000
10
-2.8133538552
20
-0.3719279354
30
0.0000000000
10
-2.7485182625
20
-0.3792834671
30
0.0000000000
10
-2.6823869485
20
-0.3934750271
30
0.0000000000
10
-2.6153274845
20
-0.4144089335
30
0.0000000000
10
-2.5477565026
20
-0.4419444378
30
0.0000000000
10
-2.4800237718
20
-0.4759294053
30
0.0000000000
10
-2.4125595176
20
-0.5161415635
30
0.0000000000
10
-2.3457143832
20
-0.5623661764
30
0.0000000000
10
-2.2799017184
20
-0.6143131305
30
0.0000000000
10
-2.2154880539
20
-0.6716896682
30
0.0000000000
10
-2.1528466992
20
-0.7341586593
30
0.0000000000
10
-2.0923549287
20
-0.8013404505
30
0.0000000000
10
-2.0343375661
20
-0.8728692749
30
0.0000000000
10
-1.9791623248
20
-0.9482876374
30
0.0000000000
10
-1.9271149912
20
-1.0271998398
30
0.0000000000
10
-1.8785266289
20
-1.1090989337
30
0.0000000000
10
-1.8336561859
20
-1.1935434910
30
0.0000000000
10
-1.7927760299
20
-1.2800147248
30
0.0000000000
10
-1.7561212342
20
-1.3680104610
30
0.0000000000
10
-1.7238979212
20
-1.4570278908
30
0.0000000000
10
-1.6963040552
20
-1.5465134663
30
0.0000000000
10
-1.6734847342
20
-1.6359894421
30
0.0000000000
10
-1.6555846819
20
-1.7248804809
30
0.0000000000
10
-1.6426968668
20
-1.8127226828
30
0.0000000000
10
-1.6349029927
20
-1.8989503010
30
0.0000000000
10
-1.6331047050
20
-1.9559072319
30
0.0000000000
10
-1.6331047050
20
-1.9839670331
30
0.0000000000
11
-3.0748994508
21
-0.4234394104
31
0.0000000000
11
-3.0516849015
21
-0.4126093378
31
0.0000000000
11
-2.9961409270
21
-0.3925116220
31
0.0000000000
11
-2.9378442167
21
-0.3791777282
31
0.0000000000
11
-2.8770283641
21
-0.3726602261
31
0.0000000000
11
-2.8141401567
21
-0.3730111034
31
0.0000000000
11
-2.7495019769
21
-0.3802256724
31
0.0000000000
11
-2.6834921758
21
-0.3942670236
31
0.0000000000
11
-2.6165592475
21
-0.4150362899
31
0.0000000000
11
-2.5489918428
21
-0.4424467605
31
0.0000000000
11
-2.4813182785
21
-0.4762830142
31
0.0000000000
11
-2.4137936603
21
-0.5164175290
31
0.0000000000
11
-2.3469459099
21
-0.5625375106
31
0.0000000000
11
-2.2810605204
21
-0.6144428933
31
0.0000000000
11
-2.2165846991
21
-0.6717841812
31
0.0000000000
11
-2.1538913191
21
-0.7342232942
31
0.0000000000
11
-2.0932994961
21
-0.8014436571
31
0.0000000000
11
-2.0352499988
21
-0.8729497002
31
0.0000000000
11
-1.9799707043
21
-0.9484584856
31
0.0000000000
11
-1.9278983428
21
-1.0273688141
31
0.0000000000
11
-1.8792309797
21
-1.1093744550
31
0.0000000000
11
-1.8343332886
21
-1.1938590606
31
0.0000000000
11
-1.7934170198
21
-1.2804136466
31
0.0000000000
11
-1.7567337927
21
-1.3685069704
31
0.0000000000
11
-1.7245173135
21
-1.4575632958
31
0.0000000000
11
-1.6969125067
21
-1.5471805358
31
0.0000000000
11
-1.6741286412
21
-1.6366675889
31
0.0000000000
11
-1.6562516277
21
-1.7256795782
31
0.0000000000
11
-1.6434203285
21
-1.8135202703
31
0.0000000000
11
-1.6356856310
21
-1.8998272044
31
0.0000000000
11
-1.6331047050
21
-1.9839670331
31
0.0000000000
0
SPLINE
5
229
100
AcDbEntity
8
0
100
AcDbSpline
62
7
6
CONTINUOUS
70
0
71
3
72
8
73
4
74
2
42
0.0000001000
43
0.0000001000
44
0.0000000001
12
0.0050639425
22
-0.0025320731
32
0.0000000000
13
0.0050774193
23
-0.0025053857
33
0.0000000000
40
0.0000000000
40
0.0000000000
40
0.0000000000
40
0.0000000000
40
1.0000000000
40
1.0000000000
40
1.0000000000
40
1.0000000000
10
5.5840445757
20
-23.2790423533
30
0.0000000000
10
5.5857325566
20
-23.2798863777
30
0.0000000000
10
5.5874227976
20
-23.2807259608
30
0.0000000000
10
5.5891152707
20
-23.2815610894
30
0.0000000000
11
5.5840445757
21
-23.2790423533
31
0.0000000000
11
5.5891152707
21
-23.2815610894
31
0.0000000000
0
SPLINE
5
22A
100
AcDbEntity
8
0
100
AcDbSpline
62
7
6
CONTINUOUS
70
0
71
3
72
8
73
4
74
2
42
0.0000001000
43
0.0000001000
44
0.0000000001
12
0.0228798874
22
-0.0112897793
32
0.0000000000
13
0.0231441064
23
-0.0107433794
33
0.0000000000
40
0.0000000000
40
0.0000000000
40
0.0000000000
40
0.0000000000
40
1.0000000000
40
1.0000000000
40
1.0000000000
40
1.0000000000
10
5.5891152707
20
-23.2815610894
30
0.0000000000
10
5.5967418998
20
-23.2853243491
30
0.0000000000
10
5.6044138529
20
-23.2889971546
30
0.0000000000
10
5.6121285551
20
-23.2925782811
30
0.0000000000
11
5.5891152707
21
-23.2815610894
31
0.0000000000
11
5.6121285551
21
-23.2925782811
31
0.0000000000
0
SPLINE
5
22B
100
AcDbEntity
8
0
100
AcDbSpline
62
7
6
CONTINUOUS
70
0
71
3
72
8
73
4
74
2
42
0.0000001000
43
0.0000001000
44
0.0000000001
12
0.0255318869
22
-0.0118517753
32
0.0000000000
13
0.0258336664
23
-0.0111774108
33
0.0000000000
40
0.0000000000
40
0.0000000000
40
0.0000000000
40
0.0000000000
40
1.0000000000
40
1.0000000000
40
1.0000000000
40
1.0000000000
10
5.6121285551
20
-23.2925782811
30
0.0000000000
10
5.6206391840
20
-23.2965288729
30
0.0000000000
10
5.6292018380
20
-23.3003678927
30
0.0000000000
10
5.6378130601
20
-23.3040936963
30
0.0000000000
11
5.6121285551
21
-23.2925782811
31
0.0000000000
11
5.6378130601
21
-23.3040936963
31
0.0000000000
0
SPLINE
5
22C
100
AcDbEntity
8
0
100
AcDbSpline
62
7
6
CONTINUOUS
70
0
71
3
72
18
73
14
74
12
42
0.0000001000
43
0.0000001000
44
0.0000000001
12
0.8435263152
22
-0.3649671717
32
0.0000000000
13
0.8506477653
23
0.3479796944
33
0.0000000000
40
0.0000000000
40
0.0000000000
40
0.0000000000
40
0.0000000000
40
0.0918892882
40
0.1840564111
40
0.2767754089
40
0.3703210528
40
0.4649723408
40
0.5610239809
40
0.6587410814
40
0.7583804089
40
0.8602318961
40
0.9645920020
40
1.0000000000
40
1.0000000000
40
1.0000000000
40
1.0000000000
10
5.6378130601
20
-23.3040936963
30
0.0000000000
10
5.6636500710
20
-23.3152725542
30
0.0000000000
10
5.7162779886
20
-23.3356225687
30
0.0000000000
10
5.7975787352
20
-23.3599231625
30
0.0000000000
10
5.8810264905
20
-23.3778931603
30
0.0000000000
10
5.9663768910
20
-23.3893969904
30
0.0000000000
10
6.0533830596
20
-23.3942818706
30
0.0000000000
10
6.1417839231
20
-23.3923796856
30
0.0000000000
10
6.2312953783
20
-23.3835122345
30
0.0000000000
10
6.3216128198
20
-23.3674992803
30
0.0000000000
10
6.4124236719
20
-23.3441599277
30
0.0000000000
10
6.4825677490
20
-23.3203791055
30
0.0000000000
10
6.5223986107
20
-23.3046532846
30
0.0000000000
10
6.5324385222
20
-23.3005461965
30
0.0000000000
11
5.6378130601
21
-23.3040936963
31
0.0000000000
11
5.7165567882
21
-23.3345474972
31
0.0000000000
11
5.7976906313
21
-23.3588060540
31
0.0000000000
11
5.8809690164
21
-23.3767510925
31
0.0000000000
11
5.9661461828
21
-23.3882466450
31
0.0000000000
11
6.0529736181
21
-23.3931406451
31
0.0000000000
11
6.1412055878
21
-23.3912657138
31
0.0000000000
11
6.2305531705
21
-23.3824432266
31
0.0000000000
11
6.3207015141
21
-23.3664946590
31
0.0000000000
11
6.4113465983
21
-23.3432389377
31
0.0000000000
11
6.5021697884
21
-23.3124946538
31
0.0000000000
11
6.5324385222
21
-23.3005461965
31
0.0000000000
0
SPLINE
5
22D
100
AcDbEntity
8
0
100
AcDbSpline
62
7
6
CONTINUOUS
70
0
71
3
72
8
73
4
74
2
42
0.0000001000
43
0.0000001000
44
0.0000000001
12
0.0530989843
22
0.0217215269
32
0.0000000000
13
0.0521096683
23
0.0239665062
33
0.0000000000
40
0.0000000000
40
0.0000000000
40
0.0000000000
40
0.0000000000
40
1.0000000000
40
1.0000000000
40
1.0000000000
40
1.0000000000
10
6.5324385222
20
-23.3005461965
30
0.0000000000
10
6.5501381836
20
-23.2933056875
30
0.0000000000
10
6.5676805971
20
-23.2856822680
30
0.0000000000
10
6.5850504865
20
-23.2776934326
30
0.0000000000
11
6.5324385222
21
-23.3005461965
31
0.0000000000
11
6.5850504865
21
-23.2776934326
31
0.0000000000
0
SPLINE
5
22E
100
AcDbEntity
8
0
100
AcDbSpline
62
7
6
CONTINUOUS
70
0
71
3
72
8
73
4
74
2
42
0.0000001000
43
0.0000001000
44
0.0000000001
12
0.0019318813
22
0.0008885193
32
0.0000000000
13
0.0019304563
23
0.0008915301
33
0.0000000000
40
0.0000000000
40
0.0000000000
40
0.0000000000
40
0.0000000000
40
1.0000000000
40
1.0000000000
40
1.0000000000
40
1.0000000000
10
6.5850504865
20
-23.2776934326
30
0.0000000000
10
6.5856944470
20
-23.2773972595
30
0.0000000000
10
6.5863381703
20
-23.2771005842
30
0.0000000000
10
6.5869816557
20
-23.2768034075
30
0.0000000000
11
6.5850504865
21
-23.2776934326
31
0.0000000000
11
6.5869816557
21
-23.2768034075
31
0.0000000000
0
SPLINE
5
22F
100
AcDbEntity
8
0
100
AcDbSpline
62
7
6
CONTINUOUS
70
0
71
3
72
20
73
16
74
14
42
0.0000001000
43
0.0000001000
44
0.0000000001
12
0.0662023507
22
-1.1778203642
32
0.0000000000
13
1.0240302101
23
-0.5863492716
33
0.0000000000
40
0.0000000000
40
0.0000000000
40
0.0000000000
40
0.0000000000
40
0.0828840864
40
0.1685924660
40
0.2520726267
40
0.3334267261
40
0.4127459692
40
0.4900928448
40
0.5657506161
40
0.6401048752
40
0.7134189965
40
0.7858871224
40
0.8576861909
40
0.9289975880
40
1.0000000000
40
1.0000000000
40
1.0000000000
40
1.0000000000
10
-9.4821804060
20
-15.0481480571
30
0.0000000000
10
-9.4803513655
20
-15.0806889120
30
0.0000000000
10
-9.4744598026
20
-15.1467798114
30
0.0000000000
10
-9.4587660516
20
-15.2447316841
30
0.0000000000
10
-9.4360405776
20
-15.3406849095
30
0.0000000000
10
-9.4069412898
20
-15.4322679106
30
0.0000000000
10
-9.3718571884
20
-15.5191338892
30
0.0000000000
10
-9.3311927416
20
-15.6010373211
30
0.0000000000
10
-9.2853098591
20
-15.6778692298
30
0.0000000000
10
-9.2344984609
20
-15.7495992859
30
0.0000000000
10
-9.1790275463
20
-15.8161649558
30
0.0000000000
10
-9.1191929364
20
-15.8774404130
30
0.0000000000
10
-9.0553013409
20
-15.9332824693
30
0.0000000000
10
-8.9876535914
20
-15.9835514257
30
0.0000000000
10
-8.9401877087
20
-16.0132947523
30
0.0000000000
10
-8.9159515038
20
-16.0271721565
30
0.0000000000
11
-9.4821804060
21
-15.0481480571
31
0.0000000000
11
-9.4734455441
21
-15.1455328865
31
0.0000000000
11
-9.4573922330
21
-15.2453542079
31
0.0000000000
11
-9.4346436691
21
-15.3411661062
31
0.0000000000
11
-9.4055365173
21
-15.4326130070
31
0.0000000000
11
-9.3704567202
21
-15.5193552467
31
0.0000000000
11
-9.3298501898
21
-15.6010616350
31
0.0000000000
11
-9.2840656580
21
-15.6776708723
31
0.0000000000
11
-9.2333459327
21
-15.7492292866
31
0.0000000000
11
-9.1779658228
21
-15.8156552564
31
0.0000000000
11
-9.1182308953
21
-15.8768065993
31
0.0000000000
11
-9.0544517996
21
-15.9325350613
31
0.0000000000
11
-8.9869275891
21
-15.9827027814
31
0.0000000000
11
-8.9159515038
21
-16.0271721565
31
0.0000000000
0
SPLINE
5
230
100
AcDbEntity
8
0
100
AcDbSpline
62
7
6
CONTINUOUS
70
0
71
3
72
8
73
4
74
2
42
0.0000001000
43
0.0000001000
44
0.0000000001
12
0.0198280176
22
-0.0113533210
32
0.0000000000
13
0.0200699442
23
-0.0109211258
33
0.0000000000
40
0.0000000000
40
0.0000000000
40
0.0000000000
40
0.0000000000
40
1.0000000000
40
1.0000000000
40
1.0000000000
40
1.0000000000
10
-8.9159515038
20
-16.0271721565
30
0.0000000000
10
-8.9093421646
20
-16.0309565968
30
0.0000000000
10
-8.9026915666
20
-16.0346694972
30
0.0000000000
10
-8.8960015852
20
-16.0383098725
30
0.0000000000
11
-8.9159515038
21
-16.0271721565
31
0.0000000000
11
-8.8960015852
21
-16.0383098725
31
0.0000000000
0
SPLINE
5
231
100
AcDbEntity
8
0
100
AcDbSpline
62
7
6
CONTINUOUS
70
0
71
3
72
8
73
4
74
2
42
0.0000001000
43
0.0000001000
44
0.0000000001
12
0.0321474086
22
-0.0174931177
32
0.0000000000
13
0.0327305537
23
-0.0163645215
33
0.0000000000
40
0.0000000000
40
0.0000000000
40
0.0000000000
40
0.0000000000
40
1.0000000000
40
1.0000000000
40
1.0000000000
40
1.0000000000
10
-8.8960015852
20
-16.0383098725
30
0.0000000000
10
-8.8852857823
20
-16.0441409117
30
0.0000000000
10
-8.8744689349
20
-16.0497858759
30
0.0000000000
10
-8.8635587504
20
-16.0552407164
30
0.0000000000
11
-8.8960015852
21
-16.0383098725
31
0.0000000000
11
-8.8635587504
21
-16.0552407164
31
0.0000000000
0
SPLINE
5
232
100
AcDbEntity
8
0
100
AcDbSpline
62
7
6
CONTINUOUS
70
0
71
3
72
9
73
5
74
3
42
0.0000001000
43
0.0000001000
44
0.0000000001
12
-0.1550753448
22
-2.9198084659
32
0.0000000000
13
-0.1305965825
23
-2.9210152288
33
0.0000000000
40
0.0000000000
40
0.0000000000
40
0.0000000000
40
0.0000000000
40
0.9507871277
40
1.0000000000
40
1.0000000000
40
1.0000000000
40
1.0000000000
10
-9.4823151354
20
20.2365221668
30
0.0000000000
10
-9.5314630159
20
19.3111500652
30
0.0000000000
10
-9.5793010267
20
18.3376713516
30
0.0000000000
10
-9.6230353081
20
17.3640085906
30
0.0000000000
10
-9.6251776524
20
17.3160914075
30
0.0000000000
11
-9.4823151354
21
20.2365221668
31
0.0000000000
11
-9.6187207900
21
17.4598416272
31
0.0000000000
11
-9.6251776524
21
17.3160914075
31
0.0000000000
0
SPLINE
5
233
100
AcDbEntity
8
0
100
AcDbSpline
62
7
6
CONTINUOUS
70
0
71
3
72
18
73
14
74
12
42
0.0000001000
43
0.0000001000
44
0.0000000001
12
-1.3223271787
22
-29.5761018574
32
0.0000000000
13
1.3868401397
23
-29.5731675734
33
0.0000000000
40
0.0000000000
40
0.0000000000
40
0.0000000000
40
0.0000000000
40
0.0888504221
40
0.1821825415
40
0.2751319869
40
0.3676947178
40
0.4598668839
40
0.5516447660
40
0.6430247724
40
0.7340034379
40
0.8245774251
40
0.9147434678
40
1.0000000000
40
1.0000000000
40
1.0000000000
40
1.0000000000
10
-9.6251776524
20
17.3160914075
30
0.0000000000
10
-9.6643407617
20
16.4401416958
30
0.0000000000
10
-9.7378277990
20
14.6437556789
30
0.0000000000
10
-9.8274560097
20
11.9300606031
30
0.0000000000
10
-9.8958868315
20
9.1791013802
30
0.0000000000
10
-9.9415281415
20
6.4391177801
30
0.0000000000
10
-9.9643736151
20
3.7104109314
30
0.0000000000
10
-9.9644194632
20
0.9932797640
30
0.0000000000
10
-9.9416643995
20
-1.7119780318
30
0.0000000000
10
-9.8961096403
20
-4.4050660852
30
0.0000000000
10
-9.8277589413
20
-7.0856884002
30
0.0000000000
10
-9.7381342593
20
-9.7091830411
30
0.0000000000
10
-9.6642932171
20
-11.4387876785
30
0.0000000000
10
-9.6248808234
20
-12.2792229161
30
0.0000000000
11
-9.6251776524
21
17.3160914075
31
0.0000000000
11
-9.7326571673
21
14.6878218243
31
0.0000000000
11
-9.8238230843
21
11.9261774052
31
0.0000000000
11
-9.8922073522
21
9.1752077319
31
0.0000000000
11
-9.9378011117
21
6.4352164463
31
0.0000000000
11
-9.9605980900
21
3.7065039575
31
0.0000000000
11
-9.9605945253
21
0.9893692381
31
0.0000000000
11
-9.9377891611
21
-1.7158900306
31
0.0000000000
11
-9.8921832482
21
-4.4089773779
31
0.0000000000
11
-9.8237805493
21
-7.0895975366
31
0.0000000000
11
-9.7325874119
21
-9.7574547300
31
0.0000000000
11
-9.6248808234
21
-12.2792229161
31
0.0000000000
0
SPLINE
5
234
100
AcDbEntity
8
0
100
AcDbSpline
62
7
6
CONTINUOUS
70
0
71
3
72
9
73
5
74
3
42
0.0000001000
43
0.0000001000
44
0.0000000001
12
0.1298793566
22
-2.7695650478
32
0.0000000000
13
0.1555815035
23
-2.7682292221
33
0.0000000000
40
0.0000000000
40
0.0000000000
40
0.0000000000
40
0.0000000000
40
0.0480358323
40
1.0000000000
40
1.0000000000
40
1.0000000000
40
1.0000000000
10
-9.6248808234
20
-12.2792229161
30
0.0000000000
10
-9.6228012024
20
-12.3235690369
30
0.0000000000
10
-9.5793037611
20
-13.2467478769
30
0.0000000000
10
-9.5315499196
20
-14.1697268653
30
0.0000000000
10
-9.4821805808
20
-15.0481452077
30
0.0000000000
11
-9.6248808234
21
-12.2792229161
31
0.0000000000
11
-9.6186125094
21
-12.4122599037
31
0.0000000000
11
-9.4821805808
21
-15.0481452077
31
0.0000000000
0
SPLINE
5
235
100
AcDbEntity
8
0
100
AcDbSpline
62
7
6
CONTINUOUS
70
0
71
3
72
8
73
4
74
2
42
0.0000001000
43
0.0000001000
44
0.0000000001
12
-0.0019953400
22
-0.0010765473
32
0.0000000000
13
-0.0019935875
23
-0.0010798583
33
0.0000000000
40
0.0000000000
40
0.0000000000
40
0.0000000000
40
0.0000000000
40
1.0000000000
40
1.0000000000
40
1.0000000000
40
1.0000000000
10
-8.5865781973
20
21.7099395051
30
0.0000000000
10
-8.5872433106
20
21.7095806560
30
0.0000000000
10
-8.5879081322
20
21.7092212545
30
0.0000000000
10
-8.5885726614
20
21.7088613017
30
0.0000000000
11
-8.5865781973
21
21.7099395051
31
0.0000000000
11
-8.5885726614
21
21.7088613017
31
0.0000000000
0
SPLINE
5
236
100
AcDbEntity
8
0
100
AcDbSpline
62
7
6
CONTINUOUS
70
0
71
3
72
24
73
20
74
18
42
0.0000001000
43
0.0000001000
44
0.0000000001
12
-1.5511594906
22
-0.8402101616
32
0.0000000000
13
-0.1254616951
23
-1.7598105473
33
0.0000000000
40
0.0000000000
40
0.0000000000
40
0.0000000000
40
0.0000000000
40
0.0522639731
40
0.1105997145
40
0.1699173696
40
0.2300184157
40
0.2906572965
40
0.3515597436
40
0.4124844893
40
0.4733784317
40
0.5342139785
40
0.5949925604
40
0.6557745077
40
0.7166198709
40
0.7775114225
40
0.8383769741
40
0.8991594457
40
0.9598307839
40
1.0000000000
40
1.0000000000
40
1.0000000000
40
1.0000000000
10
-8.5885726614
20
21.7088613017
30
0.0000000000
10
-8.6155959140
20
21.6942237279
30
0.0000000000
10
-8.6717585198
20
21.6613189836
30
0.0000000000
10
-8.7544000376
20
21.6050335397
30
0.0000000000
10
-8.8366096735
20
21.5403591935
30
0.0000000000
10
-8.9153597734
20
21.4694830449
30
0.0000000000
10
-8.9900819464
20
21.3930699386
30
0.0000000000
10
-9.0602917449
20
21.3118563367
30
0.0000000000
10
-9.1256690201
20
21.2265207708
30
0.0000000000
10
-9.1860336798
20
21.1376204558
30
0.0000000000
10
-9.2412980825
20
21.0455659387
30
0.0000000000
10
-9.2913936214
20
20.9506754262
30
0.0000000000
10
-9.3362411293
20
20.8531885985
30
0.0000000000
10
-9.3757087639
20
20.7533299183
30
0.0000000000
10
-9.4095908269
20
20.6513864856
30
0.0000000000
10
-9.4376293343
20
20.5477192066
30
0.0000000000
10
-9.4595443013
20
20.4427139333
30
0.0000000000
10
-9.4733072009
20
20.3486239240
30
0.0000000000
10
-9.4788017317
20
20.2895544217
30
0.0000000000
10
-9.4804816310
20
20.2659910183
30
0.0000000000
11
-8.5885726614
21
21.7088613017
31
0.0000000000
11
-8.6681458179
21
21.6622921222
31
0.0000000000
11
-8.7532319560
21
21.6044161789
31
0.0000000000
11
-8.8355069477
21
21.5397664974
31
0.0000000000
11
-8.9143469840
21
21.4688855551
31
0.0000000000
11
-8.9891691693
21
21.3924423251
31
0.0000000000
11
-9.0594615995
21
21.3111983611
31
0.0000000000
11
-9.1248478384
21
21.2259065073
31
0.0000000000
11
-9.1852097809
21
21.1370537070
31
0.0000000000
11
-9.2404585867
21
21.0450546075
31
0.0000000000
11
-9.2905179367
21
20.9502454870
31
0.0000000000
11
-9.3353255865
21
20.8528378110
31
0.0000000000
11
-9.3747655282
21
20.7530156058
31
0.0000000000
11
-9.4086227432
21
20.6510785312
31
0.0000000000
11
-9.4366249052
21
20.5474276435
31
0.0000000000
11
-9.4584915737
21
20.4424608489
31
0.0000000000
11
-9.4739335987
21
20.3365565397
31
0.0000000000
11
-9.4804816310
21
20.2659910183
31
0.0000000000
0
SPLINE
5
237
100
AcDbEntity
8
0
100
AcDbSpline
62
7
6
CONTINUOUS
70
0
71
3
72
8
73
4
74
2
42
0.0000001000
43
0.0000001000
44
0.0000000001
12
-0.0020999633
22
-0.0294555054
32
0.0000000000
13
-0.0015659748
23
-0.0294850350
33
0.0000000000
40
0.0000000000
40
0.0000000000
40
0.0000000000
40
0.0000000000
40
1.0000000000
40
1.0000000000
40
1.0000000000
40
1.0000000000
10
-9.4804816310
20
20.2659910183
30
0.0000000000
10
-9.4811816188
20
20.2561725165
30
0.0000000000
10
-9.4817932634
20
20.2463482105
30
0.0000000000
10
-9.4823152550
20
20.2365198655
30
0.0000000000
11
-9.4804816310
21
20.2659910183
31
0.0000000000
11
-9.4823152550
21
20.2365198655
31
0.0000000000
0
SPLINE
5
238
100
AcDbEntity
8
0
100
AcDbSpline
62
7
6
CONTINUOUS
70
0
71
3
72
18
73
14
74
12
42
0.0000001000
43
0.0000001000
44
0.0000000001
12
0.0000000000
22
-0.5143914107
32
0.0000000000
13
-0.4673386996
23
-0.2158401372
33
0.0000000000
40
0.0000000000
40
0.0000000000
40
0.0000000000
40
0.0000000000
40
0.1092157106
40
0.2148240491
40
0.3162805506
40
0.4133006950
40
0.5064971599
40
0.5961172061
40
0.6822045127
40
0.7650984041
40
0.8459751006
40
0.9254956734
40
1.0000000000
40
1.0000000000
40
1.0000000000
40
1.0000000000
10
9.9634465065
20
-21.3806334916
30
0.0000000000
10
9.9634465065
20
-21.3993600327
30
0.0000000000
10
9.9622288554
20
-21.4362093251
30
0.0000000000
10
9.9565242301
20
-21.4901884158
30
0.0000000000
10
9.9470033036
20
-21.5415102941
30
0.0000000000
10
9.9337402139
20
-21.5897977488
30
0.0000000000
10
9.9168097857
20
-21.6347721774
30
0.0000000000
10
9.8962883535
20
-21.6761547963
30
0.0000000000
10
9.8723345106
20
-21.7135810431
30
0.0000000000
10
9.8451122509
20
-21.7467970923
30
0.0000000000
10
9.8147741050
20
-21.7755957959
30
0.0000000000
10
9.7820861299
20
-21.7993322564
30
0.0000000000
10
9.7588015220
20
-21.8119516671
30
0.0000000000
10
9.7471952703
20
-21.8173120084
30
0.0000000000
11
9.9634465065
21
-21.3806334916
31
0.0000000000
11
9.9615216512
21
-21.4367801301
31
0.0000000000
11
9.9557343961
21
-21.4907950083
31
0.0000000000
11
9.9461299106
21
-21.5420919677
31
0.0000000000
11
9.9328226453
21
-21.5901914309
31
0.0000000000
11
9.9158420866
21
-21.6350228100
31
0.0000000000
11
9.8952730529
21
-21.6762793823
31
0.0000000000
11
9.8713228529
21
-21.7135263153
31
0.0000000000
11
9.8442317315
21
-21.7464540042
31
0.0000000000
11
9.8140154332
21
-21.7750498931
31
0.0000000000
11
9.7808946765
21
-21.7990542661
31
0.0000000000
11
9.7471952703
21
-21.8173120084
31
0.0000000000
0
SPLINE
5
239
100
AcDbEntity
8
0
100
AcDbSpline
62
7
6
CONTINUOUS
70
0
71
3
72
26
73
22
74
20
42
0.0000001000
43
0.0000001000
44
0.0000000001
12
1.0535906951
22
-0.5267953475
32
0.0000000000
13
0.0000000000
23
-1.1779502073
33
0.0000000000
40
0.0000000000
40
0.0000000000
40
0.0000000000
40
0.0000000000
40
0.0451894906
40
0.0922922103
40
0.1410600078
40
0.1912300740
40
0.2429185168
40
0.2959920762
40
0.3500743934
40
0.4048270694
40
0.4603764891
40
0.5164334448
40
0.5725651297
40
0.6284670905
40
0.6842562277
40
0.7395704759
40
0.7939886599
40
0.8473288388
40
0.8996690249
40
0.9506741578
40
1.0000000000
40
1.0000000000
40
1.0000000000
40
1.0000000000
10
9.3978472381
20
16.0547614848
30
0.0000000000
10
9.4137176471
20
16.0468262804
30
0.0000000000
10
9.4454744113
20
16.0292793757
30
0.0000000000
10
9.4918565877
20
15.9989245620
30
0.0000000000
10
9.5375768589
20
15.9642418068
30
0.0000000000
10
9.5823100739
20
15.9254932550
30
0.0000000000
10
9.6258014100
20
15.8829061000
30
0.0000000000
10
9.6677784135
20
15.8367307083
30
0.0000000000
10
9.7078806978
20
15.7873607028
30
0.0000000000
10
9.7458537052
20
15.7351301466
30
0.0000000000
10
9.7814775602
20
15.6803436958
30
0.0000000000
10
9.8145198198
20
15.6233365086
30
0.0000000000
10
9.8446929752
20
15.5646049021
30
0.0000000000
10
9.8718195672
20
15.5045209764
30
0.0000000000
10
9.8957403355
20
15.4434341079
30
0.0000000000
10
9.9162857029
20
15.3817436370
30
0.0000000000
10
9.9332821289
20
15.3199781838
30
0.0000000000
10
9.9466371954
20
15.2585175850
30
0.0000000000
10
9.9562697370
20
15.1977178714
30
0.0000000000
10
9.9620995443
20
15.1380200275
30
0.0000000000
10
9.9634465065
20
15.0986148429
30
0.0000000000
10
9.9634465065
20
15.0792470475
30
0.0000000000
11
9.3978472381
21
16.0547614848
31
0.0000000000
11
9.4444780508
21
16.0290884745
31
0.0000000000
11
9.4909446883
21
15.9987668829
31
0.0000000000
11
9.5367512226
21
15.9640997716
31
0.0000000000
11
9.5814571162
21
15.9254482805
31
0.0000000000
11
9.6249931448
21
15.8828833964
31
0.0000000000
11
9.6670759888
21
15.8366499036
31
0.0000000000
11
9.7072662973
21
15.7872208756
31
0.0000000000
11
9.7452113465
21
15.7350682370
31
0.0000000000
11
9.7808946765
21
15.6802196520
31
0.0000000000
11
9.8140154332
21
15.6230945223
31
0.0000000000
11
9.8442317315
21
15.5642823352
31
0.0000000000
11
9.8713228529
21
15.5042635248
31
0.0000000000
11
9.8952730529
21
15.4430663918
31
0.0000000000
11
9.9158420866
21
15.3812407858
31
0.0000000000
11
9.9328226453
21
15.3194288481
31
0.0000000000
11
9.9461299106
21
15.2580221195
31
0.0000000000
11
9.9557343961
21
15.1971206747
31
0.0000000000
11
9.9615216512
21
15.1373185414
31
0.0000000000
11
9.9634465065
21
15.0792470475
31
0.0000000000
0
SPLINE
5
23A
100
AcDbEntity
8
0
100
AcDbSpline
62
9
6
CONTINUOUS
70
0
71
3
72
16
73
12
74
10
42
0.0000001000
43
0.0000001000
44
0.0000000001
12
0.3386256252
22
0.1827127957
32
0.0000000000
13
0.3462613127
23
-0.1670651555
33
0.0000000000
40
0.0000000000
40
0.0000000000
40
0.0000000000
40
0.0000000000
40
0.0072195102
40
0.1189077410
40
0.2320648540
40
0.3479735610
40
0.4677483726
40
0.5922890835
40
0.7222606666
40
0.8580940012
40
1.0000000000
40
1.0000000000
40
1.0000000000
40
1.0000000000
10
-8.5865759067
20
21.7099406980
30
0.0000000000
10
-8.5857610029
20
21.7103803969
30
0.0000000000
10
-8.5723058420
20
21.7175604005
30
0.0000000000
10
-8.5449882178
20
21.7295676572
30
0.0000000000
10
-8.5028069287
20
21.7413948659
30
0.0000000000
10
-8.4583987397
20
21.7475604436
30
0.0000000000
10
-8.4121207613
20
21.7480367448
30
0.0000000000
10
-8.3643331152
20
21.7428425717
30
0.0000000000
10
-8.3153967273
20
21.7320366677
30
0.0000000000
10
-8.2656809737
20
21.7157179024
30
0.0000000000
10
-8.2329683019
20
21.7015570846
30
0.0000000000
10
-8.2165894494
20
21.6936545687
30
0.0000000000
11
-8.5865759067
21
21.7099406980
31
0.0000000000
11
-8.5841251383
21
21.7112484799
31
0.0000000000
11
-8.5448242242
21
21.7285467313
31
0.0000000000
11
-8.5029511062
21
21.7403471538
31
0.0000000000
11
-8.4588243405
21
21.7465599739
31
0.0000000000
11
-8.4127796284
21
21.7471379267
31
0.0000000000
11
-8.3651672621
21
21.7420766152
31
0.0000000000
11
-8.3163494599
21
21.7314145443
31
0.0000000000
11
-8.2666976110
21
21.7152328271
31
0.0000000000
11
-8.2165894494
21
21.6936545687
31
0.0000000000
0
SPLINE
5
23B
100
AcDbEntity
8
0
100
AcDbSpline
62
9
6
CONTINUOUS
70
0
71
3
72
8
73
4
74
2
42
0.0000001000
43
0.0000001000
44
0.0000000001
12
-0.0162717018
22
0.0081361177
32
0.0000000000
13
-0.0159960122
23
0.0086655032
33
0.0000000000
40
0.0000000000
40
0.0000000000
40
0.0000000000
40
0.0000000000
40
1.0000000000
40
1.0000000000
40
1.0000000000
40
1.0000000000
10
-8.8635849401
20
-16.0552270487
30
0.0000000000
10
-8.8690088407
20
-16.0525150094
30
0.0000000000
10
-8.8743882414
20
-16.0497139511
30
0.0000000000
10
-8.8797202455
20
-16.0468254500
30
0.0000000000
11
-8.8635849401
21
-16.0552270487
31
0.0000000000
11
-8.8797202455
21
-16.0468254500
31
0.0000000000
0
SPLINE
5
23C
100
AcDbEntity
8
0
100
AcDbSpline
62
9
6
CONTINUOUS
70
0
71
3
72
8
73
4
74
2
42
0.0000001000
43
0.0000001000
44
0.0000000001
12
-0.0161170688
22
0.0087310831
32
0.0000000000
13
-0.0158194800
23
0.0092588728
33
0.0000000000
40
0.0000000000
40
0.0000000000
40
0.0000000000
40
0.0000000000
40
1.0000000000
40
1.0000000000
40
1.0000000000
40
1.0000000000
10
-8.8797202455
20
-16.0468254500
30
0.0000000000
10
-8.8850926018
20
-16.0439150890
30
0.0000000000
10
-8.8904168414
20
-16.0409159567
30
0.0000000000
10
-8.8956900014
20
-16.0378296658
30
0.0000000000
11
-8.8797202455
21
-16.0468254500
31
0.0000000000
11
-8.8956900014
21
-16.0378296658
31
0.0000000000
0
SPLINE
5
23D
100
AcDbEntity
8
0
100
AcDbSpline
62
9
6
CONTINUOUS
70
0
71
3
72
8
73
4
74
2
42
0.0000001000
43
0.0000001000
44
0.0000000001
12
-0.0185886722
22
0.0108796340
32
0.0000000000
13
-0.0181544616
23
0.0115896096
33
0.0000000000
40
0.0000000000
40
0.0000000000
40
0.0000000000
40
0.0000000000
40
1.0000000000
40
1.0000000000
40
1.0000000000
40
1.0000000000
10
-8.8956900014
20
-16.0378296658
30
0.0000000000
10
-8.9018862254
20
-16.0342031211
30
0.0000000000
10
-8.9080119217
20
-16.0304562328
30
0.0000000000
10
-8.9140634089
20
-16.0265930296
30
0.0000000000
11
-8.8956900014
21
-16.0378296658
31
0.0000000000
11
-8.9140634089
21
-16.0265930296
31
0.0000000000
0
SPLINE
5
23E
100
AcDbEntity
8
0
100
AcDbSpline
62
7
6
CONTINUOUS
70
0
71
3
72
19
73
15
74
13
42
0.0000001000
43
0.0000001000
44
0.0000000001
12
0.0000000000
22
0.7904210367
32
0.0000000000
13
0.7074307328
23
0.3537278749
33
0.0000000000
40
0.0000000000
40
0.0000000000
40
0.0000000000
40
0.0000000000
40
0.1032126169
40
0.2030648798
40
0.2992982145
40
0.3920464370
40
0.4811905188
40
0.5670548063
40
0.6497319342
40
0.7296915838
40
0.8073400577
40
0.8832190849
40
0.9580451869
40
1.0000000000
40
1.0000000000
40
1.0000000000
40
1.0000000000
10
-3.4008716580
20
-1.1000835566
30
0.0000000000
10
-3.4008716580
20
-1.0728897487
30
0.0000000000
10
-3.3992204752
20
-1.0193691339
30
0.0000000000
10
-3.3915182782
20
-0.9408281595
30
0.0000000000
10
-3.3786680551
20
-0.8657490379
30
0.0000000000
10
-3.3607464919
20
-0.7946144664
30
0.0000000000
10
-3.3378398403
20
-0.7277967139
30
0.0000000000
10
-3.3100855076
20
-0.6657263958
30
0.0000000000
10
-3.2776197500
20
-0.6087411108
30
0.0000000000
10
-3.2406342817
20
-0.5572072157
30
0.0000000000
10
-3.1993300087
20
-0.5114356444
30
0.0000000000
10
-3.1539465989
20
-0.4717159886
30
0.0000000000
10
-3.1118471129
20
-0.4431237359
30
0.0000000000
10
-3.0847928255
20
-0.4283862727
30
0.0000000000
10
-3.0748994508
20
-0.4234394104
30
0.0000000000
11
-3.4008716580
21
-1.1000835566
31
0.0000000000
11
-3.3982696986
21
-1.0185436369
31
0.0000000000
11
-3.3904714597
21
-0.9400045062
31
0.0000000000
11
-3.3775355237
21
-0.8650476967
31
0.0000000000
11
-3.3595157386
21
-0.7939867026
31
0.0000000000
11
-3.3365532100
21
-0.7273719506
31
0.0000000000
11
-3.3087387378
21
-0.6654643740
31
0.0000000000
11
-3.2762864133
21
-0.6087419332
31
0.0000000000
11
-3.2393463894
21
-0.5574593749
31
0.0000000000
11
-3.1981592920
21
-0.5119564951
31
0.0000000000
11
-3.1529818333
21
-0.4725082594
31
0.0000000000
11
-3.1040337135
21
-0.4393102307
31
0.0000000000
11
-3.0748994508
21
-0.4234394104
31
0.0000000000
0
SPLINE
5
23F
100
AcDbEntity
8
0
100
AcDbSpline
62
9
6
CONTINUOUS
70
0
71
3
72
28
73
24
74
22
42
0.0000001000
43
0.0000001000
44
0.0000000001
12
0.1122958666
22
2.0939203135
32
0.0000000000
13
1.8529688742
23
0.9816409691
33
0.0000000000
40
0.0000000000
40
0.0000000000
40
0.0000000000
40
0.0000000000
40
0.0455816266
40
0.0922564015
40
0.1399105477
40
0.1884171753
40
0.2376396844
40
0.2874335198
40
0.3376474572
40
0.3881259181
40
0.4387104215
40
0.4892415430
40
0.5395601747
40
0.5895096586
40
0.6389371048
40
0.6876955817
40
0.7356455101
40
0.7826568023
40
0.8286105910
40
0.8734018641
40
0.9169412235
40
0.9591571854
40
1.0000000000
40
1.0000000000
40
1.0000000000
40
1.0000000000
10
-9.2478202732
20
19.9589584639
30
0.0000000000
10
-9.2461140638
20
19.9907732285
30
0.0000000000
10
-9.2408913111
20
20.0550823492
30
0.0000000000
10
-9.2279578020
20
20.1520568307
30
0.0000000000
10
-9.2098907635
20
20.2502873737
30
0.0000000000
10
-9.1867806018
20
20.3492818120
30
0.0000000000
10
-9.1587425910
20
20.4485485172
30
0.0000000000
10
-9.1259164808
20
20.5475930038
30
0.0000000000
10
-9.0884658296
20
20.6459220919
30
0.0000000000
10
-9.0465772945
20
20.7430457632
30
0.0000000000
10
-9.0004595723
20
20.8384801323
30
0.0000000000
10
-8.9503424619
20
20.9317495817
30
0.0000000000
10
-8.8964756229
20
21.0223893572
30
0.0000000000
10
-8.8391274381
20
21.1099476860
30
0.0000000000
10
-8.7785834642
20
21.1939883479
30
0.0000000000
10
-8.7151450963
20
21.2740926442
30
0.0000000000
10
-8.6491278758
20
21.3498616523
30
0.0000000000
10
-8.5808600750
20
21.4209179491
30
0.0000000000
10
-8.5106805785
20
21.4869078429
30
0.0000000000
10
-8.4389377841
20
21.5475025483
30
0.0000000000
10
-8.3659856142
20
21.6024009511
30
0.0000000000
10
-8.2921893526
20
21.6513266548
30
0.0000000000
10
-8.2418162708
20
21.6802902420
30
0.0000000000
10
-8.2165894494
20
21.6936545687
30
0.0000000000
11
-9.2478202732
21
19.9589584639
31
0.0000000000
11
-9.2401462767
21
20.0542313527
31
0.0000000000
11
-9.2272620152
21
20.1512532983
31
0.0000000000
11
-9.2092317424
21
20.2495405810
31
0.0000000000
11
-9.1861456849
21
20.3486010129
31
0.0000000000
11
-9.1581192795
21
20.4479392669
31
0.0000000000
11
-9.1252925209
21
20.5470589900
31
0.0000000000
11
-9.0878296242
21
20.6454641978
31
0.0000000000
11
-9.0459178772
21
20.7426628517
31
0.0000000000
11
-8.9997668848
21
20.8381687807
31
0.0000000000
11
-8.9496072836
21
20.9315046073
31
0.0000000000
11
-8.8956899922
21
21.0222033374
31
0.0000000000
11
-8.8382845281
21
21.1098115162
31
0.0000000000
11
-8.7776780845
21
21.1938907867
31
0.0000000000
11
-8.7141735846
21
21.2740208435
31
0.0000000000
11
-8.6480886631
21
21.3498008233
31
0.0000000000
11
-8.5797537700
21
21.4208517357
31
0.0000000000
11
-8.5095108986
21
21.4868179750
31
0.0000000000
11
-8.4377110829
21
21.5473698495
31
0.0000000000
11
-8.3647134033
21
21.6022045000
31
0.0000000000
11
-8.2908834453
21
21.6510472701
31
0.0000000000
11
-8.2165894494
21
21.6936545687
31
0.0000000000
0
SPLINE
5
240
100
AcDbEntity
8
0
100
AcDbSpline
62
9
6
CONTINUOUS
70
0
71
3
72
20
73
16
74
14
42
0.0000001000
43
0.0000001000
44
0.0000000001
12
-1.9814121417
22
35.2532279113
32
0.0000000000
13
1.8727576442
23
35.2591669081
33
0.0000000000
40
0.0000000000
40
0.0000000000
40
0.0000000000
40
0.0000000000
40
0.0748888667
40
0.1501267287
40
0.2257111526
40
0.3016395867
40
0.3779093654
40
0.4545177109
40
0.5314617347
40
0.6087384398
40
0.6863447236
40
0.7642773797
40
0.8425330999
40
0.9211084751
40
1.0000000000
40
1.0000000000
40
1.0000000000
40
1.0000000000
10
-9.2478202732
20
-15.3324988888
30
0.0000000000
10
-9.2972821765
20
-14.4524741268
30
0.0000000000
10
-9.3885701983
20
-12.6878715989
30
0.0000000000
10
-9.5024278657
20
-10.0337452630
30
0.0000000000
10
-9.5935190751
20
-7.3664958698
30
0.0000000000
10
-9.6618337454
20
-4.6864177655
30
0.0000000000
10
-9.7073644841
20
-1.9938031752
30
0.0000000000
10
-9.7301063325
20
0.7110533681
30
0.0000000000
10
-9.7300568349
20
3.4278562499
30
0.0000000000
10
-9.7072160210
20
6.1563084644
30
0.0000000000
10
-9.6615864077
20
8.8961118070
30
0.0000000000
10
-9.5931730112
20
11.6469666244
30
0.0000000000
10
-9.5019832945
20
14.4085728147
30
0.0000000000
10
-9.3880273660
20
17.1806261944
30
0.0000000000
10
-9.2970685087
20
19.0317419827
30
0.0000000000
10
-9.2478202732
20
19.9589584639
30
0.0000000000
11
-9.2478202732
21
-15.3324988888
31
0.0000000000
11
-9.3844865116
21
-12.6917919960
31
0.0000000000
11
-9.4983978705
21
-10.0376716884
31
0.0000000000
11
-9.5895419004
21
-7.3704281521
31
0.0000000000
11
-9.6579086394
21
-4.6903530407
31
0.0000000000
11
-9.7034906164
21
-1.9977393756
31
0.0000000000
11
-9.7262828504
21
0.7071184618
31
0.0000000000
11
-9.7262828504
21
3.4239247470
31
0.0000000000
11
-9.7034906164
21
6.1523824357
31
0.0000000000
11
-9.6579086394
21
8.8921932246
31
0.0000000000
11
-9.5895419004
21
11.6430575743
31
0.0000000000
11
-9.4983978705
21
14.4046747279
31
0.0000000000
11
-9.3844865116
21
17.1767427165
31
0.0000000000
11
-9.2478202732
21
19.9589584639
31
0.0000000000
0
SPLINE
5
241
100
AcDbEntity
8
0
100
AcDbSpline
62
9
6
CONTINUOUS
70
0
71
3
72
18
73
14
74
12
42
0.0000001000
43
0.0000001000
44
0.0000000001
12
-0.0074438728
22
-0.5170938990
32
0.0000000000
13
-0.4699086950
23
-0.2169938004
33
0.0000000000
40
0.0000000000
40
0.0000000000
40
0.0000000000
40
0.0000000000
40
0.1155670209
40
0.2267521637
40
0.3333940459
40
0.4354570642
40
0.5330494158
40
0.6264401206
40
0.7160721575
40
0.8025672210
40
0.8867164150
40
0.9694517338
40
1.0000000000
40
1.0000000000
40
1.0000000000
40
1.0000000000
10
6.8072902361
20
-22.8382510487
30
0.0000000000
10
6.8070034807
20
-22.8581707158
30
0.0000000000
10
6.8050991345
20
-22.8972525164
30
0.0000000000
10
6.7979915453
20
-22.9543392761
30
0.0000000000
10
6.7867339303
20
-23.0083897225
30
0.0000000000
10
6.7714032367
20
-23.0589943948
30
0.0000000000
10
6.7521038999
20
-23.1057724673
30
0.0000000000
10
6.7289672473
20
-23.1483668226
30
0.0000000000
10
6.7021520296
20
-23.1864455310
30
0.0000000000
10
6.6718469003
20
-23.2197018997
30
0.0000000000
10
6.6382746726
20
-23.2478572313
30
0.0000000000
10
6.6092982690
20
-23.2659269739
30
0.0000000000
10
6.5917711046
20
-23.2745907899
30
0.0000000000
10
6.5869861393
20
-23.2768003846
30
0.0000000000
11
6.8072902361
21
-22.8382510487
31
0.0000000000
11
6.8043013131
21
-22.8979414553
31
0.0000000000
11
6.7971073520
21
-22.9549887625
31
0.0000000000
11
6.7857630821
21
-23.0089589741
31
0.0000000000
11
6.7703548067
21
-23.0594415033
31
0.0000000000
11
6.7509997466
21
-23.1060522964
31
0.0000000000
11
6.7278451483
21
-23.1484367548
31
0.0000000000
11
6.7010671642
21
-23.1862724319
31
0.0000000000
11
6.6708695117
21
-23.2192714872
31
0.0000000000
11
6.6374819243
21
-23.2471828751
31
0.0000000000
11
6.6011584032
21
-23.2697942556
31
0.0000000000
11
6.5869861393
21
-23.2768003846
31
0.0000000000
0
SPLINE
5
242
100
AcDbEntity
8
0
100
AcDbSpline
62
9
6
CONTINUOUS
70
0
71
3
72
28
73
24
74
22
42
0.0000001000
43
0.0000001000
44
0.0000000001
12
0.0420953463
22
-0.7239610291
32
0.0000000000
13
0.6583649754
23
0.3040512275
33
0.0000000000
40
0.0000000000
40
0.0000000000
40
0.0000000000
40
0.0000000000
40
0.0565717752
40
0.1113517991
40
0.1643133275
40
0.2154751408
40
0.2648964590
40
0.3126797408
40
0.3589723403
40
0.4039676242
40
0.4479029680
40
0.4910552403
40
0.5337323191
40
0.5762621684
40
0.6189789145
40
0.6622088700
40
0.7062568166
40
0.7513952496
40
0.7978564061
40
0.8458284177
40
0.8954533960
40
0.9468279846
40
1.0000000000
40
1.0000000000
40
1.0000000000
40
1.0000000000
10
6.3136278671
20
-22.5116610670
30
0.0000000000
10
6.3144216699
20
-22.5253129872
30
0.0000000000
10
6.3168060788
20
-22.5521456914
30
0.0000000000
10
6.3229328312
20
-22.5914194358
30
0.0000000000
10
6.3315255236
20
-22.6288927900
30
0.0000000000
10
6.3425440790
20
-22.6643752545
30
0.0000000000
10
6.3559374081
20
-22.6976903421
30
0.0000000000
10
6.3716432884
20
-22.7286706006
30
0.0000000000
10
6.3895882199
20
-22.7571587093
30
0.0000000000
10
6.4096870659
20
-22.7830076487
30
0.0000000000
10
6.4318425307
20
-22.8060815747
30
0.0000000000
10
6.4559444989
20
-22.8262569716
30
0.0000000000
10
6.4818698310
20
-22.8434245508
30
0.0000000000
10
6.5094828795
20
-22.8574914131
30
0.0000000000
10
6.5386371764
20
-22.8683830948
30
0.0000000000
10
6.5691777518
20
-22.8760446884
30
0.0000000000
10
6.6009437256
20
-22.8804408918
30
0.0000000000
10
6.6337702595
20
-22.8815551239
30
0.0000000000
10
6.6674900065
20
-22.8793882304
30
0.0000000000
10
6.7019334479
20
-22.8739573992
30
0.0000000000
10
6.7369299009
20
-22.8652948623
30
0.0000000000
10
6.7723029031
20
-22.8534496713
30
0.0000000000
10
6.7956213719
20
-22.8436400542
30
0.0000000000
10
6.8072902361
20
-22.8382510487
30
0.0000000000
11
6.3136278671
21
-22.5116610670
31
0.0000000000
11
6.3173006730
21
-22.5525212668
31
0.0000000000
11
6.3234682205
21
-22.5917651666
31
0.0000000000
11
6.3320992846
21
-22.6291896292
31
0.0000000000
11
6.3431506943
21
-22.6646071948
31
0.0000000000
11
6.3565671840
21
-22.6978407697
31
0.0000000000
11
6.3722817377
21
-22.7287242698
31
0.0000000000
11
6.3902157421
21
-22.7571031294
31
0.0000000000
11
6.4102795389
21
-22.7828354306
31
0.0000000000
11
6.4323727864
21
-22.8057924457
31
0.0000000000
11
6.4563850724
21
-22.8258593994
31
0.0000000000
11
6.4821962753
21
-22.8429358611
31
0.0000000000
11
6.5096773691
21
-22.8569364297
31
0.0000000000
11
6.5386908629
21
-22.8677910274
31
0.0000000000
11
6.5690917273
21
-22.8754453676
31
0.0000000000
11
6.6007278972
21
-22.8798611321
31
0.0000000000
11
6.6334411728
21
-22.8810162140
31
0.0000000000
11
6.6670678312
21
-22.8789048234
31
0.0000000000
11
6.7014398189
21
-22.8735375071
31
0.0000000000
11
6.7363852368
21
-22.8649410761
31
0.0000000000
11
6.7717290465
21
-22.8531586221
31
0.0000000000
11
6.8072902361
21
-22.8382510487
31
0.0000000000
0
SPLINE
5
243
100
AcDbEntity
8
0
100
AcDbSpline
62
9
6
CONTINUOUS
70
0
71
3
72
19
73
15
74
13
42
0.0000001000
43
0.0000001000
44
0.0000000001
12
0.0496109592
22
-0.8609072135
32
0.0000000000
13
0.7710477531
23
-0.3872043063
33
0.0000000000
40
0.0000000000
40
0.0000000000
40
0.0000000000
40
0.0000000000
40
0.1019123995
40
0.2005355165
40
0.2958330703
40
0.3878325555
40
0.4766348999
40
0.5624199393
40
0.6454498788
40
0.7260718522
40
0.8047148513
40
0.8818819973
40
0.9581354030
40
1.0000000000
40
1.0000000000
40
1.0000000000
40
1.0000000000
10
5.1935219832
20
-22.5531700170
30
0.0000000000
10
5.1952073072
20
-22.5824157237
30
0.0000000000
10
5.2002689119
20
-22.6398817106
30
0.0000000000
10
5.2132769709
20
-22.7239799353
30
0.0000000000
10
5.2315194513
20
-22.8041908999
30
0.0000000000
10
5.2549118484
20
-22.8801124694
30
0.0000000000
10
5.2833459178
20
-22.9513672747
30
0.0000000000
10
5.3166897693
20
-23.0175975068
30
0.0000000000
10
5.3547878073
20
-23.0784671219
30
0.0000000000
10
5.3974598785
20
-23.1336621264
30
0.0000000000
10
5.4445001044
20
-23.1828923102
30
0.0000000000
10
5.4956752904
20
-23.2258936382
30
0.0000000000
10
5.5425456351
20
-23.2570037864
30
0.0000000000
10
5.5724230242
20
-23.2732066481
30
0.0000000000
10
5.5831828920
20
-23.2786100322
30
0.0000000000
11
5.1935219832
21
-22.5531700170
31
0.0000000000
11
5.2013220252
21
-22.6407058635
31
0.0000000000
11
5.2144179051
21
-22.7247377397
31
0.0000000000
11
5.2327443316
21
-22.8048466759
31
0.0000000000
11
5.2562095772
21
-22.8806314532
31
0.0000000000
11
5.2846963221
21
-22.9517131345
31
0.0000000000
11
5.3180622657
21
-23.0177365083
31
0.0000000000
11
5.3561404969
21
-23.0783711518
31
0.0000000000
11
5.3987406511
21
-23.1333138541
31
0.0000000000
11
5.4456496827
21
-23.1822897720
31
0.0000000000
11
5.4966331654
21
-23.2250540578
31
0.0000000000
11
5.5514360591
21
-23.2613926960
31
0.0000000000
11
5.5831828920
21
-23.2786100322
31
0.0000000000
0
SPLINE
5
244
100
AcDbEntity
8
0
100
AcDbSpline
62
9
6
CONTINUOUS
70
0
71
3
72
8
73
4
74
2
42
0.0000001000
43
0.0000001000
44
0.0000000001
12
0.0005275668
22
-0.0002649332
32
0.0000000000
13
0.0005278396
23
-0.0002643891
33
0.0000000000
40
0.0000000000
40
0.0000000000
40
0.0000000000
40
0.0000000000
40
1.0000000000
40
1.0000000000
40
1.0000000000
40
1.0000000000
10
5.5831828920
20
-23.2786100322
30
0.0000000000
10
5.5833587476
20
-23.2786983433
30
0.0000000000
10
5.5835346487
20
-23.2787865637
30
0.0000000000
10
5.5837105953
20
-23.2788746934
30
0.0000000000
11
5.5831828920
21
-23.2786100322
31
0.0000000000
11
5.5837105953
21
-23.2788746934
31
0.0000000000
0
SPLINE
5
245
100
AcDbEntity
8
0
100
AcDbSpline
62
9
6
CONTINUOUS
70
0
71
3
72
8
73
4
74
2
42
0.0000001000
43
0.0000001000
44
0.0000000001
12
0.0003332710
22
-0.0001669318
32
0.0000000000
13
0.0003333796
23
-0.0001667148
33
0.0000000000
40
0.0000000000
40
0.0000000000
40
0.0000000000
40
0.0000000000
40
1.0000000000
40
1.0000000000
40
1.0000000000
40
1.0000000000
10
5.5837105953
20
-23.2788746934
30
0.0000000000
10
5.5838216856
20
-23.2789303373
30
0.0000000000
10
5.5839327941
20
-23.2789859451
30
0.0000000000
10
5.5840439206
20
-23.2790415167
30
0.0000000000
11
5.5837105953
21
-23.2788746934
31
0.0000000000
11
5.5840439206
21
-23.2790415167
31
0.0000000000
0
SPLINE
5
246
100
AcDbEntity
8
0
100
AcDbSpline
62
9
6
CONTINUOUS
70
0
71
3
72
25
73
21
74
19
42
0.0000001000
43
0.0000001000
44
0.0000000001
12
-1.0088569589
22
-0.5698168025
32
0.0000000000
13
-1.0369002167
23
0.5170314232
33
0.0000000000
40
0.0000000000
40
0.0000000000
40
0.0000000000
40
0.0000000000
40
0.0501799156
40
0.1024009495
40
0.1564665447
40
0.2121473726
40
0.2691874176
40
0.3273094626
40
0.3862201402
40
0.4456146813
40
0.5051814655
40
0.5646064589
40
0.6235776134
40
0.6817892977
40
0.7389468333
40
0.7947712196
40
0.8490041502
40
0.9014134501
40
0.9517990934
40
1.0000000000
40
1.0000000000
40
1.0000000000
40
1.0000000000
10
6.3136278671
20
-22.5116610670
30
0.0000000000
10
6.2967530814
20
-22.5211921866
30
0.0000000000
10
6.2616289812
20
-22.5394436476
30
0.0000000000
10
6.2063321735
20
-22.5639024647
30
0.0000000000
10
6.1477156556
20
-22.5858442188
30
0.0000000000
10
6.0862151681
20
-22.6051056117
30
0.0000000000
10
6.0222839731
20
-22.6215450367
30
0.0000000000
10
5.9563950760
20
-22.6350407581
30
0.0000000000
10
5.8890360292
20
-22.6454928606
30
0.0000000000
10
5.8207056525
20
-22.6528238580
30
0.0000000000
10
5.7519101058
20
-22.6569794025
30
0.0000000000
10
5.6831590639
20
-22.6579287043
30
0.0000000000
10
5.6149618256
20
-22.6556647739
30
0.0000000000
10
5.5478234207
20
-22.6502044470
30
0.0000000000
10
5.4822407922
20
-22.6415882282
30
0.0000000000
10
5.4186988456
20
-22.6298798257
30
0.0000000000
10
5.3576672642
20
-22.6151657869
30
0.0000000000
10
5.2995950233
20
-22.5975536967
30
0.0000000000
10
5.2449136919
20
-22.5771743090
30
0.0000000000
10
5.2101818420
20
-22.5614771359
30
0.0000000000
10
5.1935219985
20
-22.5531700081
30
0.0000000000
11
6.3136278671
21
-22.5116610670
31
0.0000000000
11
6.2620732592
21
-22.5385409499
31
0.0000000000
11
6.2067661444
21
-22.5630791759
31
0.0000000000
11
6.1481181684
21
-22.5850931093
31
0.0000000000
11
6.0865658429
21
-22.6044189024
31
0.0000000000
11
6.0225672963
21
-22.6209127150
31
0.0000000000
11
5.9565988638
21
-22.6344517851
31
0.0000000000
11
5.8891515426
21
-22.6449353428
31
0.0000000000
11
5.8207273368
21
-22.6522853598
31
0.0000000000
11
5.7518355217
21
-22.6564471307
31
0.0000000000
11
5.6829888528
21
-22.6573896797
31
0.0000000000
11
5.6146997495
21
-22.6551059915
31
0.0000000000
11
5.5474764814
21
-22.6496130635
31
0.0000000000
11
5.4818193853
21
-22.6409517790
31
0.0000000000
11
5.4182171409
21
-22.6291866031
31
0.0000000000
11
5.3571431339
21
-22.6144051030
31
0.0000000000
11
5.2990519326
21
-22.5967172961
31
0.0000000000
11
5.2443759046
21
-22.5762548310
31
0.0000000000
11
5.1935219985
21
-22.5531700081
31
0.0000000000
0
SPLINE
5
247
100
AcDbEntity
8
0
100
AcDbSpline
62
9
6
CONTINUOUS
70
0
71
3
72
20
73
16
74
14
42
0.0000001000
43
0.0000001000
44
0.0000000001
12
-1.9357249644
22
-35.1627215877
32
0.0000000000
13
2.0440526385
23
-35.1565906966
33
0.0000000000
40
0.0000000000
40
0.0000000000
40
0.0000000000
40
0.0000000000
40
0.0788269926
40
0.1573471771
40
0.2355574234
40
0.3134547081
40
0.3910361100
40
0.4682988114
40
0.5452400996
40
0.6218573686
40
0.6981481225
40
0.7741099770
40
0.8497406610
40
0.9250380183
40
1.0000000000
40
1.0000000000
40
1.0000000000
40
1.0000000000
10
6.3136278671
20
12.6856857328
30
0.0000000000
10
6.2627654080
20
11.7617618680
30
0.0000000000
10
6.1688257087
20
9.9170832255
30
0.0000000000
10
6.0511422032
20
7.1544309671
30
0.0000000000
10
5.9569699389
20
4.4017949205
30
0.0000000000
10
5.8863193755
20
1.6594785564
30
0.0000000000
10
5.8391982205
20
-1.0722190000
30
0.0000000000
10
5.8156116588
20
-3.7929989682
30
0.0000000000
10
5.8155622933
20
-6.5025639846
30
0.0000000000
10
5.8390501586
20
-9.2006178312
30
0.0000000000
10
5.8860727225
20
-11.8868656390
30
0.0000000000
10
5.9566248671
20
-14.5610135560
30
0.0000000000
10
6.0506989658
20
-17.2227700515
30
0.0000000000
10
6.1682845910
20
-19.8718410597
30
0.0000000000
10
6.2625524549
20
-21.6331918307
30
0.0000000000
10
6.3136278671
20
-22.5116610670
30
0.0000000000
11
6.3136278671
21
12.6856857328
31
0.0000000000
11
6.1724899242
21
9.9133075551
31
0.0000000000
11
6.0548513843
21
7.1506471607
31
0.0000000000
11
5.9607251206
21
4.3980069032
31
0.0000000000
11
5.8901214212
21
1.6556877698
31
0.0000000000
11
5.8430480016
21
-1.0760104166
31
0.0000000000
11
5.8195100059
21
-3.7967890037
31
0.0000000000
11
5.8195100064
21
-6.5063505274
31
0.0000000000
11
5.8430480032
21
-9.2043987356
31
0.0000000000
11
5.8901214239
21
-11.8906386485
31
0.0000000000
11
5.9607251244
21
-14.5647765813
31
0.0000000000
11
6.0548513892
21
-17.2265201619
31
0.0000000000
11
6.1724899302
21
-19.8755783381
31
0.0000000000
11
6.3136278671
21
-22.5116610670
31
0.0000000000
0
SPLINE
5
248
100
AcDbEntity
8
0
100
AcDbSpline
62
9
6
CONTINUOUS
70
0
71
3
72
20
73
16
74
14
42
0.0000001000
43
0.0000001000
44
0.0000000001
12
-1.9408097496
22
-35.2567428578
32
0.0000000000
13
2.0494273101
23
-35.2505958407
33
0.0000000000
40
0.0000000000
40
0.0000000000
40
0.0000000000
40
0.0000000000
40
0.0788270857
40
0.1573473422
40
0.2355576476
40
0.3134549779
40
0.3910364115
40
0.4682991301
40
0.5452404204
40
0.6218576760
40
0.6981484004
40
0.7741102088
40
0.8497408295
40
0.9250381058
40
1.0000000000
40
1.0000000000
40
1.0000000000
40
1.0000000000
10
5.1935219832
20
12.7382873357
30
0.0000000000
10
5.1425258577
20
11.8118919055
30
0.0000000000
10
5.0483392996
20
9.9622788936
30
0.0000000000
10
4.9303465274
20
7.1922371306
30
0.0000000000
10
4.8359267876
20
4.4322390020
30
0.0000000000
10
4.7650905602
20
1.6825886879
30
0.0000000000
10
4.7178455737
20
-1.0564138867
30
0.0000000000
10
4.6941970266
20
-3.7844691423
30
0.0000000000
10
4.6941475285
20
-6.5012789201
30
0.0000000000
10
4.7176971141
20
-9.2065462102
30
0.0000000000
10
4.7648432446
20
-11.8999753553
30
0.0000000000
10
4.8355807887
20
-14.5812717177
30
0.0000000000
10
4.9299020990
20
-17.2501429875
30
0.0000000000
10
5.0477967299
20
-19.9062944503
30
0.0000000000
10
5.1423123322
20
-21.6723528720
30
0.0000000000
10
5.1935219832
20
-22.5531700170
30
0.0000000000
11
5.1935219832
21
12.7382873357
31
0.0000000000
11
5.0520131287
21
9.9584928964
31
0.0000000000
11
4.9340654475
21
7.1884430689
31
0.0000000000
11
4.8396918303
21
4.4284407090
31
0.0000000000
11
4.7689025919
21
1.6787876089
31
0.0000000000
11
4.7217054683
21
-1.0602156066
31
0.0000000000
11
4.6981056169
21
-3.7882694866
31
0.0000000000
11
4.6981056169
21
-6.5050757718
31
0.0000000000
11
4.7217054683
21
-9.2103374179
31
0.0000000000
11
4.7689025919
21
-11.9037586564
31
0.0000000000
11
4.8396918303
21
-14.5850450175
31
0.0000000000
11
4.9340654475
21
-17.2539033475
31
0.0000000000
11
5.0520131287
21
-19.9100418161
31
0.0000000000
11
5.1935219832
21
-22.5531700170
31
0.0000000000
0
SPLINE
5
249
100
AcDbEntity
8
0
100
AcDbSpline
62
9
6
CONTINUOUS
70
0
71
3
72
25
73
21
74
19
42
0.0000001000
43
0.0000001000
44
0.0000000001
12
-1.0662724328
22
-0.4274414156
32
0.0000000000
13
-1.0268507676
23
0.5149956949
33
0.0000000000
40
0.0000000000
40
0.0000000000
40
0.0000000000
40
0.0000000000
40
0.0477596173
40
0.0979981361
40
0.1505025873
40
0.2050231222
40
0.2612797737
40
0.3189683223
40
0.3777655478
40
0.4373340658
40
0.4973268954
40
0.5573918595
40
0.6171759040
40
0.6763294013
40
0.7345105091
40
0.7913896587
40
0.8466542666
40
0.9000137964
40
0.9512053454
40
1.0000000000
40
1.0000000000
40
1.0000000000
40
1.0000000000
10
6.3136278671
20
12.6856857328
30
0.0000000000
10
6.2966529460
20
12.6788809200
30
0.0000000000
10
6.2613422738
20
12.6660939624
30
0.0000000000
10
6.2060643322
20
12.6496971986
30
0.0000000000
10
6.1474681196
20
12.6356930017
30
0.0000000000
10
6.0859884004
20
12.6241861193
30
0.0000000000
10
6.0220780081
20
12.6152616523
30
0.0000000000
10
5.9562097745
20
12.6089862074
30
0.0000000000
10
5.8888712618
20
12.6054066604
30
0.0000000000
10
5.8205614226
20
12.6045498813
30
0.0000000000
10
5.7517866373
20
12.6064224385
30
0.0000000000
10
5.6830568695
20
12.6110105394
30
0.0000000000
10
5.6148817645
20
12.6182801230
30
0.0000000000
10
5.5477667529
20
12.6281771279
30
0.0000000000
10
5.4822092170
20
12.6406279075
30
0.0000000000
10
5.4186945664
20
12.6555398796
30
0.0000000000
10
5.3576928845
20
12.6728021183
30
0.0000000000
10
5.2996538815
20
12.6922869785
30
0.0000000000
10
5.2450082936
20
12.7138489665
30
0.0000000000
10
5.2102235928
20
12.7299109900
30
0.0000000000
10
5.1935219833
20
12.7382873357
30
0.0000000000
11
6.3136278671
21
12.6856857328
31
0.0000000000
11
6.2620732591
21
12.6669186551
31
0.0000000000
11
6.2067661440
21
12.6504328514
31
0.0000000000
11
6.1481181676
21
12.6363510240
31
0.0000000000
11
6.0865658415
21
12.6247779828
31
0.0000000000
11
6.0225672941
21
12.6157998647
31
0.0000000000
11
5.9565988608
21
12.6094834932
31
0.0000000000
11
5.8891515386
21
12.6058758803
31
0.0000000000
11
5.8207273318
21
12.6050038773
31
0.0000000000
11
5.7518355156
21
12.6068739744
31
0.0000000000
11
5.6829888455
21
12.6114722525
31
0.0000000000
11
5.6146997411
21
12.6187644873
31
0.0000000000
11
5.5474764719
21
12.6286964031
31
0.0000000000
11
5.4818193746
21
12.6411940776
31
0.0000000000
11
5.4182171291
21
12.6561644919
31
0.0000000000
11
5.3571431211
21
12.6734962224
31
0.0000000000
11
5.2990519189
21
12.6930602707
31
0.0000000000
11
5.2443758901
21
12.7147110233
31
0.0000000000
11
5.1935219833
21
12.7382873357
31
0.0000000000
0
SPLINE
5
24A
100
AcDbEntity
8
0
100
AcDbSpline
62
9
6
CONTINUOUS
70
0
71
3
72
28
73
24
74
22
42
0.0000001000
43
0.0000001000
44
0.0000000001
12
-0.8764120070
22
-0.4415904959
32
0.0000000000
13
-0.0539470396
23
-0.9798927946
33
0.0000000000
40
0.0000000000
40
0.0000000000
40
0.0000000000
40
0.0000000000
40
0.0412918231
40
0.0839021145
40
0.1277737104
40
0.1728359244
40
0.2190009097
40
0.2661658446
40
0.3142145995
40
0.3630203072
40
0.4124470389
40
0.4623519039
40
0.5125864146
40
0.5629986530
40
0.6134345664
40
0.6637400802
40
0.7137623758
40
0.7633518265
40
0.8123634408
40
0.8606591704
40
0.9081091853
40
0.9545936345
40
1.0000000000
40
1.0000000000
40
1.0000000000
40
1.0000000000
10
6.8072902361
20
13.4889999228
30
0.0000000000
10
6.7952273529
20
13.4829218972
30
0.0000000000
10
6.7711356907
20
13.4697235071
30
0.0000000000
10
6.7358076906
20
13.4473384752
30
0.0000000000
10
6.7008814665
20
13.4221593232
30
0.0000000000
10
6.6665341187
20
13.3943140094
30
0.0000000000
10
6.6329351385
20
13.3639410711
30
0.0000000000
10
6.6002513933
20
13.3311918780
30
0.0000000000
10
6.5686451478
20
13.2962295108
30
0.0000000000
10
6.5382735806
20
13.2592281640
30
0.0000000000
10
6.5092877616
20
13.2203721372
30
0.0000000000
10
6.4818319836
20
13.1798550335
30
0.0000000000
10
6.4560429538
20
13.1378787212
30
0.0000000000
10
6.4320491579
20
13.0946524245
30
0.0000000000
10
6.4099701219
20
13.0503915381
30
0.0000000000
10
6.3899158649
20
13.0053166416
30
0.0000000000
10
6.3719863058
20
12.9596522943
30
0.0000000000
10
6.3562708147
20
12.9136260425
30
0.0000000000
10
6.3428477122
20
12.8674670404
30
0.0000000000
10
6.3317839209
20
12.8214052058
30
0.0000000000
10
6.3231346848
20
12.7756692316
30
0.0000000000
10
6.3169435371
20
12.7304902963
30
0.0000000000
10
6.3144443801
20
12.7005168563
30
0.0000000000
10
6.3136278671
20
12.6856857328
30
0.0000000000
11
6.8072902361
21
13.4889999228
31
0.0000000000
11
6.7717307261
21
13.4695674460
31
0.0000000000
11
6.7363869288
21
13.4472189285
31
0.0000000000
11
6.7014415128
21
13.4220691152
31
0.0000000000
11
6.6670695209
21
13.3942439396
31
0.0000000000
11
6.6334428467
21
13.3638825905
31
0.0000000000
11
6.6007295462
21
13.3311368085
31
0.0000000000
11
6.5690933428
21
13.2961704892
31
0.0000000000
11
6.5386924352
21
13.2591585095
31
0.0000000000
11
6.5096788871
21
13.2202860323
31
0.0000000000
11
6.4821977192
21
13.1797473828
31
0.0000000000
11
6.4563864222
21
13.1377454058
31
0.0000000000
11
6.4323740248
21
13.0944900991
31
0.0000000000
11
6.4102806539
21
13.0501978963
31
0.0000000000
11
6.3902167307
21
13.0050902102
31
0.0000000000
11
6.3722825990
21
12.9593926706
31
0.0000000000
11
6.3565679179
21
12.9133337785
31
0.0000000000
11
6.3431513008
21
12.8671440152
31
0.0000000000
11
6.3320997647
21
12.8210541787
31
0.0000000000
11
6.3234685739
21
12.7752947386
31
0.0000000000
11
6.3173009074
21
12.7300948425
31
0.0000000000
11
6.3136278671
21
12.6856857328
31
0.0000000000
0
SPLINE
5
24B
100
AcDbEntity
8
0
100
AcDbSpline
62
9
6
CONTINUOUS
70
0
71
3
72
28
73
24
74
22
42
0.0000001000
43
0.0000001000
44
0.0000000001
12
-1.8690126163
22
-0.9590457773
32
0.0000000000
13
-0.1143904729
23
-2.0975919008
33
0.0000000000
40
0.0000000000
40
0.0000000000
40
0.0000000000
40
0.0000000000
40
0.0411323096
40
0.0835981878
40
0.1273478955
40
0.1723104727
40
0.2183975536
40
0.2655055488
40
0.3135173613
40
0.3623049753
40
0.4117311529
40
0.4616515483
40
0.5119160832
40
0.5623711228
40
0.6128607824
40
0.6632290525
40
0.7133210524
40
0.7629849838
40
0.8120735784
40
0.8604464084
40
0.9079711669
40
0.9545254230
40
1.0000000000
40
1.0000000000
40
1.0000000000
40
1.0000000000
10
6.2416909678
20
14.4645143601
30
0.0000000000
10
6.2160653659
20
14.4513651041
30
0.0000000000
10
6.1648929811
20
14.4228336886
30
0.0000000000
10
6.0898813739
20
14.3745154714
30
0.0000000000
10
6.0157273661
20
14.3202171076
30
0.0000000000
10
5.9428025513
20
14.2602117953
30
0.0000000000
10
5.8714667247
20
14.1947979818
30
0.0000000000
10
5.8020741192
20
14.1243016175
30
0.0000000000
10
5.7349692176
20
14.0490737034
30
0.0000000000
10
5.6704857155
20
13.9694890124
30
0.0000000000
10
5.6089443463
20
13.8859439179
30
0.0000000000
10
5.5506514594
20
13.7988546681
30
0.0000000000
10
5.4958973008
20
13.7086551528
30
0.0000000000
10
5.4449546601
20
13.6157949448
30
0.0000000000
10
5.3980772976
20
13.5207367437
30
0.0000000000
10
5.3554987911
20
13.4239542675
30
0.0000000000
10
5.3174312732
20
13.3259296696
30
0.0000000000
10
5.2840644877
20
13.2271514120
30
0.0000000000
10
5.2555646970
20
13.1281113038
30
0.0000000000
10
5.2320740037
20
13.0293026619
30
0.0000000000
10
5.2137095910
20
12.9312161121
30
0.0000000000
10
5.2005634805
20
12.8343431851
30
0.0000000000
10
5.1952559360
20
12.7700830371
30
0.0000000000
10
5.1935219832
20
12.7382873357
30
0.0000000000
11
6.2416909678
21
14.4645143601
31
0.0000000000
11
6.1661766697
21
14.4225172126
31
0.0000000000
11
6.0911340818
21
14.3742807574
31
0.0000000000
11
6.0169373805
21
14.3200456178
31
0.0000000000
11
5.9439582450
21
14.2600834032
31
0.0000000000
11
5.8725616169
21
14.1946940423
31
0.0000000000
11
5.8031043093
21
14.1242043371
31
0.0000000000
11
5.7359339284
21
14.0489670870
31
0.0000000000
11
5.6713863533
21
13.9693585678
31
0.0000000000
11
5.6097844356
21
13.8857770344
31
0.0000000000
11
5.5514360742
21
13.7986403042
31
0.0000000000
11
5.4966331794
21
13.7083843758
31
0.0000000000
11
5.4456496958
21
13.6154604904
31
0.0000000000
11
5.3987406633
21
13.5203335815
31
0.0000000000
11
5.3561405070
21
13.4234791322
31
0.0000000000
11
5.3180622743
21
13.3253815924
31
0.0000000000
11
5.2846963299
21
13.2265314622
31
0.0000000000
11
5.2562095844
21
13.1274233782
31
0.0000000000
11
5.2327443366
21
13.0285525416
31
0.0000000000
11
5.2144179091
21
12.9304133361
31
0.0000000000
11
5.2013220283
21
12.8334972002
31
0.0000000000
11
5.1935219832
21
12.7382873357
31
0.0000000000
0
SPLINE
5
24C
100
AcDbEntity
8
0
100
AcDbSpline
62
9
6
CONTINUOUS
70
0
71
3
72
25
73
21
74
19
42
0.0000001000
43
0.0000001000
44
0.0000000001
12
-0.0171494571
22
1.1747381357
32
0.0000000000
13
-1.0431518260
23
0.5404979734
33
0.0000000000
40
0.0000000000
40
0.0000000000
40
0.0000000000
40
0.0000000000
40
0.0520124607
40
0.1057804409
40
0.1611092713
40
0.2177747410
40
0.2755288484
40
0.3341051291
40
0.3932236679
40
0.4525958961
40
0.5119292525
40
0.5709317854
40
0.6293167631
40
0.6868073643
40
0.7431415229
40
0.7980770143
40
0.8513968839
40
0.9029153315
40
0.9524841747
40
1.0000000000
40
1.0000000000
40
1.0000000000
40
1.0000000000
10
6.8072902361
20
13.4889999228
30
0.0000000000
10
6.8069929076
20
13.5093669298
30
0.0000000000
10
6.8049156678
20
13.5507781516
30
0.0000000000
10
6.7976645792
20
13.6134932081
30
0.0000000000
10
6.7862789977
20
13.6774425161
30
0.0000000000
10
6.7708455987
20
13.7421396398
30
0.0000000000
10
6.7514813011
20
13.8070972715
30
0.0000000000
10
6.7283326813
20
13.8718241435
30
0.0000000000
10
6.7015749177
20
13.9358308113
30
0.0000000000
10
6.6714105129
20
13.9986329550
30
0.0000000000
10
6.6380677568
20
14.0597553036
30
0.0000000000
10
6.6017989632
20
14.1187352915
30
0.0000000000
10
6.5628784971
20
14.1751266507
30
0.0000000000
10
6.5216005858
20
14.2285028564
30
0.0000000000
10
6.4782770069
20
14.2784603671
30
0.0000000000
10
6.4332343634
20
14.3246217724
30
0.0000000000
10
6.3868120521
20
14.3666382394
30
0.0000000000
10
6.3393570375
20
14.4041932095
30
0.0000000000
10
6.2912293545
20
14.4370001153
30
0.0000000000
10
6.2582130411
20
14.4559536243
30
0.0000000000
10
6.2416909678
20
14.4645143601
30
0.0000000000
11
6.8072902361
21
13.4889999228
31
0.0000000000
11
6.8043013131
21
13.5500343128
31
0.0000000000
11
6.7971073523
21
13.6127933698
31
0.0000000000
11
6.7857630826
21
13.6767996446
31
0.0000000000
11
6.7703548075
21
13.7415661996
31
0.0000000000
11
6.7509997477
21
13.8066003132
31
0.0000000000
11
6.7278451498
21
13.8714072284
31
0.0000000000
11
6.7010671659
21
13.9354939165
31
0.0000000000
11
6.6708695137
21
13.9983728282
31
0.0000000000
11
6.6374819265
21
14.0595656024
31
0.0000000000
11
6.6011584055
21
14.1186067055
31
0.0000000000
11
6.5621752874
21
14.1750469734
31
0.0000000000
11
6.5208291424
21
14.2284570278
31
0.0000000000
11
6.4774345177
21
14.2784305436
31
0.0000000000
11
6.4323215445
21
14.3245873394
31
0.0000000000
11
6.3858334268
21
14.3665762703
31
0.0000000000
11
6.3383238302
21
14.4040778989
31
0.0000000000
11
6.2901541912
21
14.4368069259
31
0.0000000000
11
6.2416909678
21
14.4645143601
31
0.0000000000
0
SPLINE
5
24D
100
AcDbEntity
8
0
100
AcDbSpline
62
7
6
CONTINUOUS
70
0
71
3
72
37
73
33
74
31
42
0.0000001000
43
0.0000001000
44
0.0000000001
12
-2.1668477894
22
-1.0834632964
32
0.0000000000
13
0.0000000000
23
2.4210288720
33
0.0000000000
40
0.0000000000
40
0.0000000000
40
0.0000000000
40
0.0000000000
40
0.0105202978
40
0.0347964857
40
0.0593865389
40
0.0845531614
40
0.1104488852
40
0.1372504526
40
0.1650804853
40
0.1939990120
40
0.2241034671
40
0.2553550695
40
0.2878113275
40
0.3213753877
40
0.3560444504
40
0.3917122157
40
0.4282883548
40
0.4656961782
40
0.5037637364
40
0.5424377610
40
0.5815039093
40
0.6209014520
40
0.6604226081
40
0.6999645012
40
0.7393718557
40
0.7784767050
40
0.8171933222
40
0.8553174111
40
0.8928004970
40
0.9294528176
40
0.9652337115
40
1.0000000000
40
1.0000000000
40
1.0000000000
40
1.0000000000
10
-1.9568672035
20
-2.6595063005
30
0.0000000000
10
-1.9644658315
20
-2.6633057527
30
0.0000000000
10
-1.9899414702
20
-2.6751870256
30
0.0000000000
10
-2.0351439927
20
-2.6914829743
30
0.0000000000
10
-2.0935574713
20
-2.7047070925
30
0.0000000000
10
-2.1544172341
20
-2.7110470958
30
0.0000000000
10
-2.2173764967
20
-2.7104857648
30
0.0000000000
10
-2.2820487719
20
-2.7030465511
30
0.0000000000
10
-2.3480528245
20
-2.6887907554
30
0.0000000000
10
-2.4150244823
20
-2.6678136210
30
0.0000000000
10
-2.4825495126
20
-2.6402568511
30
0.0000000000
10
-2.5502794234
20
-2.6062729061
30
0.0000000000
10
-2.6177841674
20
-2.5660838594
30
0.0000000000
10
-2.6847122158
20
-2.5199037618
30
0.0000000000
10
-2.7506482413
20
-2.4680215344
30
0.0000000000
10
-2.8152228156
20
-2.4107283399
30
0.0000000000
10
-2.8780588113
20
-2.3483592813
30
0.0000000000
10
-2.9387743044
20
-2.2812916026
30
0.0000000000
10
-2.9970392710
20
-2.2098884127
30
0.0000000000
10
-3.0524800274
20
-2.1346041777
30
0.0000000000
10
-3.1048046884
20
-2.0558315208
30
0.0000000000
10
-3.1536755093
20
-1.9740740390
30
0.0000000000
10
-3.1988270282
20
-1.8897698954
30
0.0000000000
10
-3.2399801870
20
-1.8034345495
30
0.0000000000
10
-3.2768935074
20
-1.7155669811
30
0.0000000000
10
-3.3093548194
20
-1.6266670146
30
0.0000000000
10
-3.3371604777
20
-1.5372853744
30
0.0000000000
10
-3.3601605200
20
-1.4478973040
30
0.0000000000
10
-3.3782058196
20
-1.3590760583
30
0.0000000000
10
-3.3912000059
20
-1.2712840208
30
0.0000000000
10
-3.3990587951
20
-1.1850856312
30
0.0000000000
10
-3.4008716580
20
-1.1281402860
30
0.0000000000
10
-3.4008716580
20
-1.1000835566
30
0.0000000000
11
-1.9568672035
21
-2.6595063005
31
0.0000000000
11
-1.9799626559
21
-2.6702768209
31
0.0000000000
11
-2.0352411256
21
-2.6902417313
31
0.0000000000
11
-2.0932902399
21
-2.7034517906
31
0.0000000000
11
-2.1538817384
21
-2.7098570951
31
0.0000000000
11
-2.2165744282
21
-2.7094084551
31
0.0000000000
11
-2.2810503422
21
-2.7021127646
31
0.0000000000
11
-2.3469349513
21
-2.6880088445
31
0.0000000000
11
-2.4137827827
21
-2.6671970713
31
0.0000000000
11
-2.4813070624
21
-2.6397650936
31
0.0000000000
11
-2.5489805574
21
-2.6059288734
31
0.0000000000
11
-2.6165481634
21
-2.5658159322
31
0.0000000000
11
-2.6834808770
21
-2.5197385220
31
0.0000000000
11
-2.7494913316
21
-2.4678957711
31
0.0000000000
11
-2.8141292997
21
-2.4106356619
31
0.0000000000
11
-2.8770180892
21
-2.3482943662
31
0.0000000000
11
-2.9378341714
21
-2.2811862480
31
0.0000000000
11
-2.9961311834
21
-2.2098040805
31
0.0000000000
11
-3.0516759208
21
-2.1344281346
31
0.0000000000
11
-3.1040248854
21
-2.0556562238
31
0.0000000000
11
-3.1529740767
21
-1.9737916110
31
0.0000000000
11
-3.1981517588
21
-1.8894471067
31
0.0000000000
11
-3.2393399108
21
-1.8030285649
31
0.0000000000
11
-3.2762804635
21
-1.7150639934
31
0.0000000000
11
-3.3087335244
21
-1.6261260416
31
0.0000000000
11
-3.3365489360
21
-1.5366141728
31
0.0000000000
11
-3.3595121316
21
-1.4472167846
31
0.0000000000
11
-3.3775334016
21
-1.3582765418
31
0.0000000000
11
-3.3904701144
21
-1.2704882906
31
0.0000000000
11
-3.3982691113
21
-1.1842134998
31
0.0000000000
11
-3.4008716580
21
-1.1000835566
31
0.0000000000
0
SPLINE
5
24E
100
AcDbEntity
8
0
100
AcDbSpline
62
9
6
CONTINUOUS
70
0
71
3
72
8
73
4
74
2
42
0.0000001000
43
0.0000001000
44
0.0000000001
12
0.0005746284
22
-0.0102023313
32
0.0000000000
13
0.0010175230
23
-0.0101679380
33
0.0000000000
40
0.0000000000
40
0.0000000000
40
0.0000000000
40
0.0000000000
40
1.0000000000
40
1.0000000000
40
1.0000000000
40
1.0000000000
10
-9.4821797093
20
-15.0481480178
30
0.0000000000
10
-9.4819881665
20
-15.0515487949
30
0.0000000000
10
-9.4817225019
20
-15.0549454525
30
0.0000000000
10
-9.4813833276
20
-15.0583347651
30
0.0000000000
11
-9.4821797093
21
-15.0481480178
31
0.0000000000
11
-9.4813833276
21
-15.0583347651
31
0.0000000000
0
SPLINE
5
24F
100
AcDbEntity
8
0
100
AcDbSpline
62
9
6
CONTINUOUS
70
0
71
3
72
16
73
12
74
10
42
0.0000001000
43
0.0000001000
44
0.0000000001
12
0.0374268194
22
-0.3739999929
32
0.0000000000
13
0.3356421197
23
-0.1682802112
33
0.0000000000
40
0.0000000000
40
0.0000000000
40
0.0000000000
40
0.0000000000
40
0.0487227847
40
0.1496089558
40
0.2535073559
40
0.3618587871
40
0.4758122791
40
0.5962031718
40
0.7235645072
40
0.8581561422
40
1.0000000000
40
1.0000000000
40
1.0000000000
40
1.0000000000
10
-9.4813833276
20
-15.0583347651
30
0.0000000000
10
-9.4807754813
20
-15.0644088722
30
0.0000000000
10
-9.4781840624
20
-15.0829876859
30
0.0000000000
10
-9.4700772854
20
-15.1137953728
30
0.0000000000
10
-9.4544279383
20
-15.1498791479
30
0.0000000000
10
-9.4330186932
20
-15.1847857863
30
0.0000000000
10
-9.4060426002
20
-15.2182654651
30
0.0000000000
10
-9.3737212679
20
-15.2500880354
30
0.0000000000
10
-9.3363033069
20
-15.2800371869
30
0.0000000000
10
-9.2940713724
20
-15.3079054602
30
0.0000000000
10
-9.2636898642
20
-15.3245423840
30
0.0000000000
10
-9.2478202732
20
-15.3324988888
30
0.0000000000
11
-9.4813833276
21
-15.0583347651
31
0.0000000000
11
-9.4788550272
21
-15.0764677515
31
0.0000000000
11
-9.4692791048
21
-15.1131165773
31
0.0000000000
11
-9.4538542613
21
-15.1489477059
31
0.0000000000
11
-9.4326953024
21
-15.1836944497
31
0.0000000000
11
-9.4059597124
21
-15.2170981917
31
0.0000000000
11
-9.3738464818
21
-15.2489103109
31
0.0000000000
11
-9.3365946265
21
-15.2788940327
31
0.0000000000
11
-9.2944814087
21
-15.3068261908
31
0.0000000000
11
-9.2478202732
21
-15.3324988888
31
0.0000000000
0
SPLINE
5
250
100
AcDbEntity
8
0
100
AcDbSpline
62
9
6
CONTINUOUS
70
0
71
3
72
17
73
13
74
11
42
0.0000001000
43
0.0000001000
44
0.0000000001
12
-0.0203888128
22
-0.3832083231
32
0.0000000000
13
0.3429269282
23
-0.1709391277
33
0.0000000000
40
0.0000000000
40
0.0000000000
40
0.0000000000
40
0.0000000000
40
0.0325152213
40
0.1156724347
40
0.2019464905
40
0.2932298556
40
0.3909898245
40
0.4962509553
40
0.6096356124
40
0.7314254096
40
0.8616221418
40
1.0000000000
40
1.0000000000
40
1.0000000000
40
1.0000000000
10
-9.4823132444
20
20.2365197585
30
0.0000000000
10
-9.4825342267
20
20.2323663907
30
0.0000000000
10
-9.4827701237
20
20.2175619771
30
0.0000000000
10
-9.4797329655
20
20.1917971431
30
0.0000000000
10
-9.4699042814
20
20.1598082278
30
0.0000000000
10
-9.4541787876
20
20.1282018721
30
0.0000000000
10
-9.4327319267
20
20.0971959830
30
0.0000000000
10
-9.4057540788
20
20.0669882396
30
0.0000000000
10
-9.3734555926
20
20.0377721739
30
0.0000000000
10
-9.3360741180
20
20.0097414541
30
0.0000000000
10
-9.2938832879
20
19.9830900860
30
0.0000000000
10
-9.2636380958
20
19.9668431976
30
0.0000000000
10
-9.2478202645
20
19.9589584675
30
0.0000000000
11
-9.4823132444
21
20.2365197585
31
0.0000000000
11
-9.4825107477
21
20.2240471113
31
0.0000000000
11
-9.4788550186
21
20.1923941904
31
0.0000000000
11
-9.4692790958
21
20.1607539119
31
0.0000000000
11
-9.4538542520
21
20.1293617717
31
0.0000000000
11
-9.4326952930
21
20.0984514185
31
0.0000000000
11
-9.4059597029
21
20.0682529153
31
0.0000000000
11
-9.3738464724
21
20.0389910268
31
0.0000000000
11
-9.3365946173
21
20.0108835466
31
0.0000000000
11
-9.2944813997
21
19.9841396761
31
0.0000000000
11
-9.2478202645
21
19.9589584675
31
0.0000000000
0
SPLINE
5
251
100
AcDbEntity
8
0
100
AcDbSpline
62
7
6
CONTINUOUS
70
0
71
3
72
19
73
15
74
13
42
0.0000001000
43
0.0000001000
44
0.0000000001
12
0.0000000000
22
-0.7883225825
32
0.0000000000
13
-0.7055574864
23
-0.3527915729
33
0.0000000000
40
0.0000000000
40
0.0000000000
40
0.0000000000
40
0.0000000000
40
0.1034738261
40
0.2035432580
40
0.2999444594
40
0.3928064271
40
0.4820062912
40
0.5678679415
40
0.6504860031
40
0.7303353832
40
0.8078313016
40
0.8835279496
40
0.9581569514
40
1.0000000000
40
1.0000000000
40
1.0000000000
40
1.0000000000
10
-1.6331047050
20
-1.9839670331
30
0.0000000000
10
-1.6331047050
20
-2.0111572843
30
0.0000000000
10
-1.6347413673
20
-2.0646612834
30
0.0000000000
10
-1.6423786722
20
-2.1431679625
30
0.0000000000
10
-1.6551222587
20
-2.2181923206
30
0.0000000000
10
-1.6728980178
20
-2.2892534288
30
0.0000000000
10
-1.6956230863
20
-2.3559808524
30
0.0000000000
10
-1.7231645840
20
-2.4179463814
30
0.0000000000
10
-1.7553915494
20
-2.4748150952
30
0.0000000000
10
-1.7921184568
20
-2.5262233873
30
0.0000000000
10
-1.8331509755
20
-2.5718629500
30
0.0000000000
10
-1.8782561467
20
-2.6114466131
30
0.0000000000
10
-1.9201175267
20
-2.6399211003
30
0.0000000000
10
-1.9470263114
20
-2.6545856756
30
0.0000000000
10
-1.9568672035
20
-2.6595063005
30
0.0000000000
11
-1.6331047050
21
-1.9839670331
31
0.0000000000
11
-1.6356851537
21
-2.0654969611
31
0.0000000000
11
-1.6434191970
21
-2.1440039177
31
0.0000000000
11
-1.6562498952
21
-2.2189081919
31
0.0000000000
11
-1.6741256943
21
-2.2898973115
31
0.0000000000
11
-1.6969090253
21
-2.3564223334
31
0.0000000000
11
-1.7245129822
21
-2.4182245010
31
0.0000000000
11
-1.7567287886
21
-2.4748285425
31
0.0000000000
11
-1.7934115284
21
-2.5259823319
31
0.0000000000
11
-1.8343267619
21
-2.5713491652
31
0.0000000000
11
-1.8792242248
21
-2.6106573036
31
0.0000000000
11
-1.9278904935
21
-2.6437143218
31
0.0000000000
11
-1.9568672035
21
-2.6595063005
31
0.0000000000
0
SPLINE
5
252
100
AcDbEntity
8
0
100
AcDbSpline
62
7
6
CONTINUOUS
70
0
71
3
72
37
73
33
74
31
42
0.0000001000
43
0.0000001000
44
0.0000000001
12
2.1679297477
22
1.0840032063
32
0.0000000000
13
-0.0000000000
23
-2.4222545040
33
0.0000000000
40
0.0000000000
40
0.0000000000
40
0.0000000000
40
0.0000000000
40
0.0105699558
40
0.0349555816
40
0.0596442205
40
0.0848951133
40
0.1108581928
40
0.1377090292
40
0.1655701356
40
0.1945023694
40
0.2246047483
40
0.2558405696
40
0.2882696957
40
0.3217978644
40
0.3564247892
40
0.3920466904
40
0.4285755592
40
0.4659367537
40
0.5039601875
40
0.5425939720
40
0.5816249480
40
0.6209930310
40
0.6604908090
40
0.7000153015
40
0.7394107696
40
0.7785084111
40
0.8172212979
40
0.8553436165
40
0.8928249946
40
0.9294738724
40
0.9652474985
40
1.0000000000
40
1.0000000000
40
1.0000000000
40
1.0000000000
10
-3.0748994508
20
-0.4234394104
30
0.0000000000
10
-3.0672611436
20
-0.4196201218
30
0.0000000000
10
-3.0416580647
20
-0.4076749444
30
0.0000000000
10
-2.9962476615
20
-0.3912723799
30
0.0000000000
10
-2.9375901373
20
-0.3779224606
30
0.0000000000
10
-2.8765082745
20
-0.3714674376
30
0.0000000000
10
-2.8133538552
20
-0.3719279354
30
0.0000000000
10
-2.7485182625
20
-0.3792834671
30
0.0000000000
10
-2.6823869485
20
-0.3934750271
30
0.0000000000
10
-2.6153274845
20
-0.4144089335
30
0.0000000000
10
-2.5477565026
20
-0.4419444378
30
0.0000000000
10
-2.4800237718
20
-0.4759294053
30
0.0000000000
10
-2.4125595176
20
-0.5161415635
30
0.0000000000
10
-2.3457143832
20
-0.5623661764
30
0.0000000000
10
-2.2799017184
20
-0.6143131305
30
0.0000000000
10
-2.2154880539
20
-0.6716896682
30
0.0000000000
10
-2.1528466992
20
-0.7341586593
30
0.0000000000
10
-2.0923549287
20
-0.8013404505
30
0.0000000000
10
-2.0343375661
20
-0.8728692749
30
0.0000000000
10
-1.9791623248
20
-0.9482876374
30
0.0000000000
10
-1.9271149912
20
-1.0271998398
30
0.0000000000
10
-1.8785266289
20
-1.1090989337
30
0.0000000000
10
-1.8336561859
20
-1.1935434910
30
0.0000000000
10
-1.7927760299
20
-1.2800147248
30
0.0000000000
10
-1.7561212342
20
-1.3680104610
30
0.0000000000
10
-1.7238979212
20
-1.4570278908
30
0.0000000000
10
-1.6963040552
20
-1.5465134663
30
0.0000000000
10
-1.6734847342
20
-1.6359894421
30
0.0000000000
10
-1.6555846819
20
-1.7248804809
30
0.0000000000
10
-1.6426968668
20
-1.8127226828
30
0.0000000000
10
-1.6349029927
20
-1.8989503010
30
0.0000000000
10
-1.6331047050
20
-1.9559072319
30
0.0000000000
10
-1.6331047050
20
-1.9839670331
30
0.0000000000
11
-3.0748994508
21
-0.4234394104
31
0.0000000000
11
-3.0516849015
21
-0.4126093378
31
0.0000000000
11
-2.9961409270
21
-0.3925116220
31
0.0000000000
11
-2.9378442167
21
-0.3791777282
31
0.0000000000
11
-2.8770283641
21
-0.3726602261
31
0.0000000000
11
-2.8141401567
21
-0.3730111034
31
0.0000000000
11
-2.7495019769
21
-0.3802256724
31
0.0000000000
11
-2.6834921758
21
-0.3942670236
31
0.0000000000
11
-2.6165592475
21
-0.4150362899
31
0.0000000000
11
-2.5489918428
21
-0.4424467605
31
0.0000000000
11
-2.4813182785
21
-0.4762830142
31
0.0000000000
11
-2.4137936603
21
-0.5164175290
31
0.0000000000
11
-2.3469459099
21
-0.5625375106
31
0.0000000000
11
-2.2810605204
21
-0.6144428933
31
0.0000000000
11
-2.2165846991
21
-0.6717841812
31
0.0000000000
11
-2.1538913191
21
-0.7342232942
31
0.0000000000
11
-2.0932994961
21
-0.8014436571
31
0.0000000000
11
-2.0352499988
21
-0.8729497002
31
0.0000000000
11
-1.9799707043
21
-0.9484584856
31
0.0000000000
11
-1.9278983428
21
-1.0273688141
31
0.0000000000
11
-1.8792309797
21
-1.1093744550
31
0.0000000000
11
-1.8343332886
21
-1.1938590606
31
0.0000000000
11
-1.7934170198
21
-1.2804136466
31
0.0000000000
11
-1.7567337927
21
-1.3685069704
31
0.0000000000
11
-1.7245173135
21
-1.4575632958
31
0.0000000000
11
-1.6969125067
21
-1.5471805358
31
0.0000000000
11
-1.6741286412
21
-1.6366675889
31
0.0000000000
11
-1.6562516277
21
-1.7256795782
31
0.0000000000
11
-1.6434203285
21
-1.8135202703
31
0.0000000000
11
-1.6356856310
21
-1.8998272044
31
0.0000000000
11
-1.6331047050
21
-1.9839670331
31
0.0000000000
0
SPLINE
5
253
100
AcDbEntity
8
0
100
AcDbSpline
62
7
6
CONTINUOUS
70
0
71
3
72
8
73
4
74
2
42
0.0000001000
43
0.0000001000
44
0.0000000001
12
0.0059235507
22
-0.0029659810
32
0.0000000000
13
0.0059426227
23
-0.0029298433
33
0.0000000000
40
0.0000000000
40
0.0000000000
40
0.0000000000
40
0.0000000000
40
1.0000000000
40
1.0000000000
40
1.0000000000
40
1.0000000000
10
5.5831922614
20
-23.2785927045
30
0.0000000000
10
5.5851667783
20
-23.2795813648
30
0.0000000000
10
5.5871444968
20
-23.2805640118
30
0.0000000000
10
5.5891253710
20
-23.2815406263
30
0.0000000000
11
5.5831922614
21
-23.2785927045
31
0.0000000000
11
5.5891253710
21
-23.2815406263
31
0.0000000000
0
SPLINE
5
254
100
AcDbEntity
8
0
100
AcDbSpline
62
7
6
CONTINUOUS
70
0
71
3
72
11
73
7
74
5
42
0.0000001000
43
0.0000001000
44
0.0000000001
12
0.9248078840
22
-0.4559505747
32
0.0000000000
13
0.9359354208
23
0.4316380890
33
0.0000000000
40
0.0000000000
40
0.0000000000
40
0.0000000000
40
0.0000000000
40
0.1919547612
40
0.4708108859
40
0.7625636815
40
1.0000000000
40
1.0000000000
40
1.0000000000
40
1.0000000000
10
5.5891253710
20
-23.2815406263
30
0.0000000000
10
5.6482991299
20
-23.3107145875
30
0.0000000000
10
5.8003426272
20
-23.3690663874
30
0.0000000000
10
6.0621132458
20
-23.4061167526
30
0.0000000000
10
6.3401533073
20
-23.3725928105
30
0.0000000000
10
6.5124764174
20
-23.3111532848
30
0.0000000000
10
6.5865514376
20
-23.2769910985
30
0.0000000000
11
5.5891253710
21
-23.2815406263
31
0.0000000000
11
5.7738703808
21
-23.3523986947
31
0.0000000000
11
6.0577968615
21
-23.3932151145
31
0.0000000000
11
6.3558748062
21
-23.3583378062
31
0.0000000000
11
6.5865514376
21
-23.2769910985
31
0.0000000000
0
SPLINE
5
255
100
AcDbEntity
8
0
100
AcDbSpline
62
7
6
CONTINUOUS
70
0
71
3
72
12
73
8
74
6
42
0.0000001000
43
0.0000001000
44
0.0000000001
12
0.0675243462
22
-1.1984500302
32
0.0000000000
13
1.0575283933
23
-0.5752029721
33
0.0000000000
40
0.0000000000
40
0.0000000000
40
0.0000000000
40
0.0000000000
40
0.2435020972
40
0.4815223116
40
0.7064265170
40
0.9248451986
40
1.0000000000
40
1.0000000000
40
1.0000000000
40
1.0000000000
10
-9.4821739953
20
-15.0482506083
30
0.0000000000
10
-9.4766932219
20
-15.1455256403
30
0.0000000000
10
-9.4468782682
20
-15.3375294519
30
0.0000000000
10
-9.3418031239
20
-15.6024655313
30
0.0000000000
10
-9.1825290547
20
-15.8268985794
30
0.0000000000
10
-9.0235887913
20
-15.9631594779
30
0.0000000000
10
-8.9224819522
20
-16.0238773192
30
0.0000000000
10
-8.8959891734
20
-16.0382870743
30
0.0000000000
11
-9.4821739953
21
-15.0482506083
31
0.0000000000
11
-9.4358476230
21
-15.3367961861
31
0.0000000000
11
-9.3294469317
21
-15.6017991264
31
0.0000000000
11
-9.1727081811
21
-15.8214373455
31
0.0000000000
11
-8.9735204527
21
-15.9917126341
31
0.0000000000
11
-8.8959891734
21
-16.0382870743
31
0.0000000000
0
SPLINE
5
256
100
AcDbEntity
8
0
100
AcDbSpline
62
7
6
CONTINUOUS
70
0
71
3
72
8
73
4
74
2
42
0.0000001000
43
0.0000001000
44
0.0000000001
12
0.0328885615
22
-0.0178885016
32
0.0000000000
13
0.0334894513
23
-0.0167113230
33
0.0000000000
40
0.0000000000
40
0.0000000000
40
0.0000000000
40
0.0000000000
40
1.0000000000
40
1.0000000000
40
1.0000000000
40
1.0000000000
10
-8.8959891734
20
-16.0382870743
30
0.0000000000
10
-8.8850263195
20
-16.0442499081
30
0.0000000000
10
-8.8739591098
20
-16.0500185599
30
0.0000000000
10
-8.8627959593
20
-16.0555890009
30
0.0000000000
11
-8.8959891734
21
-16.0382870743
31
0.0000000000
11
-8.8627959593
21
-16.0555890009
31
0.0000000000
0
SPLINE
5
257
100
AcDbEntity
8
0
100
AcDbSpline
62
7
6
CONTINUOUS
70
0
71
3
72
8
73
4
74
2
42
0.0000001000
43
0.0000001000
44
0.0000000001
12
-0.1550737230
22
-2.9197755520
32
0.0000000000
13
-0.1305991726
23
-2.9210468841
33
0.0000000000
40
0.0000000000
40
0.0000000000
40
0.0000000000
40
0.0000000000
40
1.0000000000
40
1.0000000000
40
1.0000000000
40
1.0000000000
10
-9.4823151349
20
20.2365222026
30
0.0000000000
10
-9.5340063759
20
19.2632636852
30
0.0000000000
10
-9.5816458549
20
18.2897737586
30
0.0000000000
10
-9.6251789124
20
17.3160914639
30
0.0000000000
11
-9.4823151349
21
20.2365222026
31
0.0000000000
11
-9.6251789124
21
17.3160914639
31
0.0000000000
0
SPLINE
5
258
100
AcDbEntity
8
0
100
AcDbSpline
62
7
6
CONTINUOUS
70
0
71
3
72
11
73
7
74
5
42
0.0000001000
43
0.0000001000
44
0.0000000001
12
-1.3223275745
22
-29.5758446595
32
0.0000000000
13
1.3868456388
23
-29.5730033537
33
0.0000000000
40
0.0000000000
40
0.0000000000
40
0.0000000000
40
0.0000000000
40
0.2045071762
40
0.5058947638
40
0.8030703249
40
1.0000000000
40
1.0000000000
40
1.0000000000
40
1.0000000000
10
-9.6251789124
20
17.3160914639
30
0.0000000000
10
-9.7153207385
20
15.2999339722
30
0.0000000000
10
-9.8947527895
20
10.3104720001
30
0.0000000000
10
-10.0038430037
20
2.3854270211
30
0.0000000000
10
-9.8971468048
20
-5.4648992981
30
0.0000000000
10
-9.7159192089
20
-10.3379556657
30
0.0000000000
10
-9.6248821885
20
-12.2792229802
30
0.0000000000
11
-9.6251789124
21
17.3160914639
31
0.0000000000
11
-9.8422990257
21
11.2654912106
31
0.0000000000
11
-9.9634464922
21
2.3438495927
31
0.0000000000
11
-9.8421181976
21
-6.4530824421
31
0.0000000000
11
-9.6248821885
21
-12.2792229802
31
0.0000000000
0
SPLINE
5
259
100
AcDbEntity
8
0
100
AcDbSpline
62
7
6
CONTINUOUS
70
0
71
3
72
8
73
4
74
2
42
0.0000001000
43
0.0000001000
44
0.0000000001
12
0.1298822743
22
-2.7696009034
32
0.0000000000
13
0.1555797542
23
-2.7681954047
33
0.0000000000
40
0.0000000000
40
0.0000000000
40
0.0000000000
40
0.0000000000
40
1.0000000000
40
1.0000000000
40
1.0000000000
40
1.0000000000
10
-9.6248821885
20
-12.2792229802
30
0.0000000000
10
-9.5815880971
20
-13.2024232814
30
0.0000000000
10
-9.5340404978
20
-14.1254134595
30
0.0000000000
10
-9.4821805797
20
-15.0481452611
30
0.0000000000
11
-9.6248821885
21
-12.2792229802
31
0.0000000000
11
-9.4821805797
21
-15.0481452611
31
0.0000000000
0
SPLINE
5
25A
100
AcDbEntity
8
0
100
AcDbSpline
62
7
6
CONTINUOUS
70
0
71
3
72
13
73
9
74
7
42
0.0000001000
43
0.0000001000
44
0.0000000001
12
-1.5543281531
22
-0.8387731745
32
0.0000000000
13
-0.1256583628
23
-1.7617669066
33
0.0000000000
40
0.0000000000
40
0.0000000000
40
0.0000000000
40
0.0000000000
40
0.1322940687
40
0.3135268795
40
0.4999861258
40
0.6890520403
40
0.8769297586
40
1.0000000000
40
1.0000000000
40
1.0000000000
40
1.0000000000
10
-8.5864711035
20
21.7099879257
30
0.0000000000
10
-8.6550139019
20
21.6729996870
30
0.0000000000
10
-8.8102912273
20
21.5713290316
30
0.0000000000
10
-9.0246450918
20
21.3676973554
30
0.0000000000
10
-9.2183027825
20
21.1016757582
30
0.0000000000
10
-9.3658258283
20
20.8033039533
30
0.0000000000
10
-9.4501831367
20
20.5202277673
30
0.0000000000
10
-9.4753271357
20
20.3382647426
30
0.0000000000
10
-9.4804820707
20
20.2659910498
30
0.0000000000
11
-8.5864711035
21
21.7099879257
31
0.0000000000
11
-8.7823394032
21
21.5825660063
31
0.0000000000
11
-9.0151787688
21
21.3635256126
31
0.0000000000
11
-9.2094351098
21
21.0981269480
31
0.0000000000
11
-9.3573050618
21
20.7992088213
31
0.0000000000
11
-9.4511445690
21
20.4813752146
31
0.0000000000
11
-9.4804820707
21
20.2659910498
31
0.0000000000
0
SPLINE
5
25B
100
AcDbEntity
8
0
100
AcDbSpline
62
7
6
CONTINUOUS
70
0
71
3
72
8
73
4
74
2
42
0.0000001000
43
0.0000001000
44
0.0000000001
12
-0.0021123921
22
-0.0296163531
32
0.0000000000
13
-0.0015714451
23
-0.0296396896
33
0.0000000000
40
0.0000000000
40
0.0000000000
40
0.0000000000
40
0.0000000000
40
1.0000000000
40
1.0000000000
40
1.0000000000
40
1.0000000000
10
-9.4804820707
20
20.2659910498
30
0.0000000000
10
-9.4811862014
20
20.2561189321
30
0.0000000000
10
-9.4818008340
20
20.2462420667
30
0.0000000000
10
-9.4823246491
20
20.2363621702
30
0.0000000000
11
-9.4804820707
21
20.2659910498
31
0.0000000000
11
-9.4823246491
21
20.2363621702
31
0.0000000000
0
SPLINE
5
25C
100
AcDbEntity
8
0
100
AcDbSpline
62
7
6
CONTINUOUS
70
0
71
3
72
16
73
12
74
10
42
0.0000001000
43
0.0000001000
44
0.0000000001
12
0.3355357903
22
0.1810115708
32
0.0000000000
13
0.3407364592
23
-0.1703682296
33
0.0000000000
40
0.0000000000
40
0.0000000000
40
0.0000000000
40
0.0000000000
40
0.0545832261
40
0.1609414197
40
0.2691917847
40
0.3801945148
40
0.4945042506
40
0.6129276961
40
0.7366734213
40
0.8658004336
40
1.0000000000
40
1.0000000000
40
1.0000000000
40
1.0000000000
10
-5.5347307552
20
23.3564803270
30
0.0000000000
10
-5.5286258799
20
23.3597737255
30
0.0000000000
10
-5.5102895723
20
23.3688619350
30
0.0000000000
10
-5.4781732538
20
23.3808651988
30
0.0000000000
10
-5.4377494080
20
23.3901032297
30
0.0000000000
10
-5.3954796827
20
23.3941964452
30
0.0000000000
10
-5.3517443159
20
23.3931311313
30
0.0000000000
10
-5.3068124862
20
23.3869486685
30
0.0000000000
10
-5.2609454523
20
23.3756927669
30
0.0000000000
10
-5.2144846740
20
23.3594486662
30
0.0000000000
10
-5.1839669959
20
23.3456686019
30
0.0000000000
10
-5.1687247676
20
23.3380474877
30
0.0000000000
11
-5.5347307552
21
23.3564803270
31
0.0000000000
11
-5.5160888759
21
23.3657183481
31
0.0000000000
11
-5.4781438267
21
23.3799259376
31
0.0000000000
11
-5.4379535182
21
23.3891646571
31
0.0000000000
11
-5.3958706743
21
23.3933153060
31
0.0000000000
11
-5.3523346456
21
23.3923441614
31
0.0000000000
11
-5.3076287520
21
23.3862897588
31
0.0000000000
11
-5.2618222177
21
23.3751503358
31
0.0000000000
11
-5.2153555802
21
23.3590052899
31
0.0000000000
11
-5.1687247676
21
23.3380474877
31
0.0000000000
0
SPLINE
5
25D
100
AcDbEntity
8
0
100
AcDbSpline
62
7
6
CONTINUOUS
70
0
71
3
72
26
73
22
74
20
42
0.0000001000
43
0.0000001000
44
0.0000000001
12
1.0535906951
22
-0.5267953475
32
0.0000000000
13
0.0000000000
23
-1.1779502073
33
0.0000000000
40
0.0000000000
40
0.0000000000
40
0.0000000000
40
0.0000000000
40
0.0451894906
40
0.0922922103
40
0.1410600078
40
0.1912300740
40
0.2429185168
40
0.2959920762
40
0.3500743934
40
0.4048270694
40
0.4603764891
40
0.5164334448
40
0.5725651297
40
0.6284670905
40
0.6842562277
40
0.7395704759
40
0.7939886599
40
0.8473288388
40
0.8996690249
40
0.9506741578
40
1.0000000000
40
1.0000000000
40
1.0000000000
40
1.0000000000
10
9.3978472381
20
16.0547614848
30
0.0000000000
10
9.4137176471
20
16.0468262804
30
0.0000000000
10
9.4454744113
20
16.0292793757
30
0.0000000000
10
9.4918565877
20
15.9989245620
30
0.0000000000
10
9.5375768589
20
15.9642418068
30
0.0000000000
10
9.5823100739
20
15.9254932550
30
0.0000000000
10
9.6258014100
20
15.8829061000
30
0.0000000000
10
9.6677784135
20
15.8367307083
30
0.0000000000
10
9.7078806978
20
15.7873607028
30
0.0000000000
10
9.7458537052
20
15.7351301466
30
0.0000000000
10
9.7814775602
20
15.6803436958
30
0.0000000000
10
9.8145198198
20
15.6233365086
30
0.0000000000
10
9.8446929752
20
15.5646049021
30
0.0000000000
10
9.8718195672
20
15.5045209764
30
0.0000000000
10
9.8957403355
20
15.4434341079
30
0.0000000000
10
9.9162857029
20
15.3817436370
30
0.0000000000
10
9.9332821289
20
15.3199781838
30
0.0000000000
10
9.9466371954
20
15.2585175850
30
0.0000000000
10
9.9562697370
20
15.1977178714
30
0.0000000000
10
9.9620995443
20
15.1380200275
30
0.0000000000
10
9.9634465065
20
15.0986148429
30
0.0000000000
10
9.9634465065
20
15.0792470475
30
0.0000000000
11
9.3978472381
21
16.0547614848
31
0.0000000000
11
9.4444780508
21
16.0290884745
31
0.0000000000
11
9.4909446883
21
15.9987668829
31
0.0000000000
11
9.5367512226
21
15.9640997716
31
0.0000000000
11
9.5814571162
21
15.9254482805
31
0.0000000000
11
9.6249931448
21
15.8828833964
31
0.0000000000
11
9.6670759888
21
15.8366499036
31
0.0000000000
11
9.7072662973
21
15.7872208756
31
0.0000000000
11
9.7452113465
21
15.7350682370
31
0.0000000000
11
9.7808946765
21
15.6802196520
31
0.0000000000
11
9.8140154332
21
15.6230945223
31
0.0000000000
11
9.8442317315
21
15.5642823352
31
0.0000000000
11
9.8713228529
21
15.5042635248
31
0.0000000000
11
9.8952730529
21
15.4430663918
31
0.0000000000
11
9.9158420866
21
15.3812407858
31
0.0000000000
11
9.9328226453
21
15.3194288481
31
0.0000000000
11
9.9461299106
21
15.2580221195
31
0.0000000000
11
9.9557343961
21
15.1971206747
31
0.0000000000
11
9.9615216512
21
15.1373185414
31
0.0000000000
11
9.9634465065
21
15.0792470475
31
0.0000000000
0
SPLINE
5
25E
100
AcDbEntity
8
0
100
AcDbSpline
62
7
6
CONTINUOUS
70
0
71
3
72
18
73
14
74
12
42
0.0000001000
43
0.0000001000
44
0.0000000001
12
0.0000000000
22
-0.5143914107
32
0.0000000000
13
-0.4673386996
23
-0.2158401372
33
0.0000000000
40
0.0000000000
40
0.0000000000
40
0.0000000000
40
0.0000000000
40
0.1092157106
40
0.2148240491
40
0.3162805506
40
0.4133006950
40
0.5064971599
40
0.5961172061
40
0.6822045127
40
0.7650984041
40
0.8459751006
40
0.9254956734
40
1.0000000000
40
1.0000000000
40
1.0000000000
40
1.0000000000
10
9.9634465065
20
-21.3806334916
30
0.0000000000
10
9.9634465065
20
-21.3993600327
30
0.0000000000
10
9.9622288554
20
-21.4362093251
30
0.0000000000
10
9.9565242301
20
-21.4901884158
30
0.0000000000
10
9.9470033036
20
-21.5415102941
30
0.0000000000
10
9.9337402139
20
-21.5897977488
30
0.0000000000
10
9.9168097857
20
-21.6347721774
30
0.0000000000
10
9.8962883535
20
-21.6761547963
30
0.0000000000
10
9.8723345106
20
-21.7135810431
30
0.0000000000
10
9.8451122509
20
-21.7467970923
30
0.0000000000
10
9.8147741050
20
-21.7755957959
30
0.0000000000
10
9.7820861299
20
-21.7993322564
30
0.0000000000
10
9.7588015220
20
-21.8119516671
30
0.0000000000
10
9.7471952703
20
-21.8173120084
30
0.0000000000
11
9.9634465065
21
-21.3806334916
31
0.0000000000
11
9.9615216512
21
-21.4367801301
31
0.0000000000
11
9.9557343961
21
-21.4907950083
31
0.0000000000
11
9.9461299106
21
-21.5420919677
31
0.0000000000
11
9.9328226453
21
-21.5901914309
31
0.0000000000
11
9.9158420866
21
-21.6350228100
31
0.0000000000
11
9.8952730529
21
-21.6762793823
31
0.0000000000
11
9.8713228529
21
-21.7135263153
31
0.0000000000
11
9.8442317315
21
-21.7464540042
31
0.0000000000
11
9.8140154332
21
-21.7750498931
31
0.0000000000
11
9.7808946765
21
-21.7990542661
31
0.0000000000
11
9.7471952703
21
-21.8173120084
31
0.0000000000
0
SPLINE
5
25F
100
AcDbEntity
8
0
100
AcDbSpline
62
9
6
CONTINUOUS
70
0
71
3
72
8
73
4
74
2
42
0.0000001000
43
0.0000001000
44
0.0000000001
12
0.0002099065
22
-0.0036979495
32
0.0000000000
13
0.0002682449
23
-0.0036942157
33
0.0000000000
40
0.0000000000
40
0.0000000000
40
0.0000000000
40
0.0000000000
40
1.0000000000
40
1.0000000000
40
1.0000000000
40
1.0000000000
10
-9.4821739088
20
-15.0482506032
30
0.0000000000
10
-9.4821039400
20
-15.0494832530
30
0.0000000000
10
-9.4820242335
20
-15.0507153573
30
0.0000000000
10
-9.4819348185
20
-15.0519467626
30
0.0000000000
11
-9.4821739088
21
-15.0482506032
31
0.0000000000
11
-9.4819348185
21
-15.0519467626
31
0.0000000000
0
SPLINE
5
260
100
AcDbEntity
8
0
100
AcDbSpline
62
9
6
CONTINUOUS
70
0
71
3
72
16
73
12
74
10
42
0.0000001000
43
0.0000001000
44
0.0000000001
12
0.0276849817
22
-0.3812720664
32
0.0000000000
13
0.3413678906
23
-0.1711509294
33
0.0000000000
40
0.0000000000
40
0.0000000000
40
0.0000000000
40
0.0000000000
40
0.0646785777
40
0.1638725828
40
0.2660282929
40
0.3725623433
40
0.4846044909
40
0.6029760646
40
0.7282011656
40
0.8605352923
40
1.0000000000
40
1.0000000000
40
1.0000000000
40
1.0000000000
10
-9.4819348185
20
-15.0519467626
30
0.0000000000
10
-9.4813379435
20
-15.0601668076
30
0.0000000000
10
-9.4787295880
20
-15.0809145583
30
0.0000000000
10
-9.4700772854
20
-15.1137953728
30
0.0000000000
10
-9.4544279383
20
-15.1498791479
30
0.0000000000
10
-9.4330186932
20
-15.1847857863
30
0.0000000000
10
-9.4060426002
20
-15.2182654651
30
0.0000000000
10
-9.3737212679
20
-15.2500880354
30
0.0000000000
10
-9.3363033069
20
-15.2800371869
30
0.0000000000
10
-9.2940713724
20
-15.3079054602
30
0.0000000000
10
-9.2636898642
20
-15.3245423840
30
0.0000000000
10
-9.2478202732
20
-15.3324988888
30
0.0000000000
11
-9.4819348185
21
-15.0519467626
31
0.0000000000
11
-9.4788550272
21
-15.0764677515
31
0.0000000000
11
-9.4692791048
21
-15.1131165773
31
0.0000000000
11
-9.4538542613
21
-15.1489477059
31
0.0000000000
11
-9.4326953024
21
-15.1836944497
31
0.0000000000
11
-9.4059597124
21
-15.2170981917
31
0.0000000000
11
-9.3738464818
21
-15.2489103109
31
0.0000000000
11
-9.3365946265
21
-15.2788940327
31
0.0000000000
11
-9.2944814087
21
-15.3068261908
31
0.0000000000
11
-9.2478202732
21
-15.3324988888
31
0.0000000000
0
SPLINE
5
261
100
AcDbEntity
8
0
100
AcDbSpline
62
9
6
CONTINUOUS
70
0
71
3
72
17
73
13
74
11
42
0.0000001000
43
0.0000001000
44
0.0000000001
12
-0.0200192084
22
-0.3830693511
32
0.0000000000
13
0.3427857634
23
-0.1708687611
33
0.0000000000
40
0.0000000000
40
0.0000000000
40
0.0000000000
40
0.0000000000
40
0.0321167951
40
0.1153082541
40
0.2016178389
40
0.2929387961
40
0.3907390242
40
0.4960435032
40
0.6094748539
40
0.7313148062
40
0.8615651555
40
1.0000000000
40
1.0000000000
40
1.0000000000
40
1.0000000000
10
-9.4823215630
20
20.2363620081
30
0.0000000000
10
-9.4825358806
20
20.2322610215
30
0.0000000000
10
-9.4827639328
20
20.2175094581
30
0.0000000000
10
-9.4797329655
20
20.1917971431
30
0.0000000000
10
-9.4699042814
20
20.1598082278
30
0.0000000000
10
-9.4541787876
20
20.1282018721
30
0.0000000000
10
-9.4327319267
20
20.0971959830
30
0.0000000000
10
-9.4057540788
20
20.0669882396
30
0.0000000000
10
-9.3734555926
20
20.0377721739
30
0.0000000000
10
-9.3360741180
20
20.0097414541
30
0.0000000000
10
-9.2938832879
20
19.9830900860
30
0.0000000000
10
-9.2636380958
20
19.9668431976
30
0.0000000000
10
-9.2478202645
20
19.9589584675
30
0.0000000000
11
-9.4823215630
21
20.2363620081
31
0.0000000000
11
-9.4825107477
21
20.2240471113
31
0.0000000000
11
-9.4788550186
21
20.1923941904
31
0.0000000000
11
-9.4692790958
21
20.1607539119
31
0.0000000000
11
-9.4538542520
21
20.1293617717
31
0.0000000000
11
-9.4326952930
21
20.0984514185
31
0.0000000000
11
-9.4059597029
21
20.0682529153
31
0.0000000000
11
-9.3738464724
21
20.0389910268
31
0.0000000000
11
-9.3365946173
21
20.0108835466
31
0.0000000000
11
-9.2944813997
21
19.9841396761
31
0.0000000000
11
-9.2478202645
21
19.9589584675
31
0.0000000000
0
SPLINE
5
262
100
AcDbEntity
8
0
100
AcDbSpline
62
9
6
CONTINUOUS
70
0
71
3
72
28
73
24
74
22
42
0.0000001000
43
0.0000001000
44
0.0000000001
12
0.1122958666
22
2.0939203135
32
0.0000000000
13
1.8529688742
23
0.9816409691
33
0.0000000000
40
0.0000000000
40
0.0000000000
40
0.0000000000
40
0.0000000000
40
0.0455816266
40
0.0922564015
40
0.1399105477
40
0.1884171753
40
0.2376396844
40
0.2874335198
40
0.3376474572
40
0.3881259181
40
0.4387104215
40
0.4892415430
40
0.5395601747
40
0.5895096586
40
0.6389371048
40
0.6876955817
40
0.7356455101
40
0.7826568023
40
0.8286105910
40
0.8734018641
40
0.9169412235
40
0.9591571854
40
1.0000000000
40
1.0000000000
40
1.0000000000
40
1.0000000000
10
-9.2478202732
20
19.9589584639
30
0.0000000000
10
-9.2461140638
20
19.9907732285
30
0.0000000000
10
-9.2408913111
20
20.0550823492
30
0.0000000000
10
-9.2279578020
20
20.1520568307
30
0.0000000000
10
-9.2098907635
20
20.2502873737
30
0.0000000000
10
-9.1867806018
20
20.3492818120
30
0.0000000000
10
-9.1587425910
20
20.4485485172
30
0.0000000000
10
-9.1259164808
20
20.5475930038
30
0.0000000000
10
-9.0884658296
20
20.6459220919
30
0.0000000000
10
-9.0465772945
20
20.7430457632
30
0.0000000000
10
-9.0004595723
20
20.8384801323
30
0.0000000000
10
-8.9503424619
20
20.9317495817
30
0.0000000000
10
-8.8964756229
20
21.0223893572
30
0.0000000000
10
-8.8391274381
20
21.1099476860
30
0.0000000000
10
-8.7785834642
20
21.1939883479
30
0.0000000000
10
-8.7151450963
20
21.2740926442
30
0.0000000000
10
-8.6491278758
20
21.3498616523
30
0.0000000000
10
-8.5808600750
20
21.4209179491
30
0.0000000000
10
-8.5106805785
20
21.4869078429
30
0.0000000000
10
-8.4389377841
20
21.5475025483
30
0.0000000000
10
-8.3659856142
20
21.6024009511
30
0.0000000000
10
-8.2921893526
20
21.6513266548
30
0.0000000000
10
-8.2418162708
20
21.6802902420
30
0.0000000000
10
-8.2165894494
20
21.6936545687
30
0.0000000000
11
-9.2478202732
21
19.9589584639
31
0.0000000000
11
-9.2401462767
21
20.0542313527
31
0.0000000000
11
-9.2272620152
21
20.1512532983
31
0.0000000000
11
-9.2092317424
21
20.2495405810
31
0.0000000000
11
-9.1861456849
21
20.3486010129
31
0.0000000000
11
-9.1581192795
21
20.4479392669
31
0.0000000000
11
-9.1252925209
21
20.5470589900
31
0.0000000000
11
-9.0878296242
21
20.6454641978
31
0.0000000000
11
-9.0459178772
21
20.7426628517
31
0.0000000000
11
-8.9997668848
21
20.8381687807
31
0.0000000000
11
-8.9496072836
21
20.9315046073
31
0.0000000000
11
-8.8956899922
21
21.0222033374
31
0.0000000000
11
-8.8382845281
21
21.1098115162
31
0.0000000000
11
-8.7776780845
21
21.1938907867
31
0.0000000000
11
-8.7141735846
21
21.2740208435
31
0.0000000000
11
-8.6480886631
21
21.3498008233
31
0.0000000000
11
-8.5797537700
21
21.4208517357
31
0.0000000000
11
-8.5095108986
21
21.4868179750
31
0.0000000000
11
-8.4377110829
21
21.5473698495
31
0.0000000000
11
-8.3647134033
21
21.6022045000
31
0.0000000000
11
-8.2908834453
21
21.6510472701
31
0.0000000000
11
-8.2165894494
21
21.6936545687
31
0.0000000000
0
SPLINE
5
263
100
AcDbEntity
8
0
100
AcDbSpline
62
7
6
CONTINUOUS
70
0
71
3
72
16
73
12
74
10
42
0.0000001000
43
0.0000001000
44
0.0000000001
12
-0.4418218223
22
-0.2209189452
32
0.0000000000
13
-0.4599510362
23
0.1796210809
33
0.0000000000
40
0.0000000000
40
0.0000000000
40
0.0000000000
40
0.0000000000
40
0.0515951973
40
0.1706540606
40
0.2912522290
40
0.4146780933
40
0.5416797240
40
0.6731239263
40
0.8096120803
40
0.9514385869
40
1.0000000000
40
1.0000000000
40
1.0000000000
40
1.0000000000
10
-1.9568672035
20
-2.6595063005
30
0.0000000000
10
-1.9644658315
20
-2.6633057527
30
0.0000000000
10
-1.9899414702
20
-2.6751870256
30
0.0000000000
10
-2.0351439927
20
-2.6914829743
30
0.0000000000
10
-2.0935574713
20
-2.7047070925
30
0.0000000000
10
-2.1544172341
20
-2.7110470958
30
0.0000000000
10
-2.2173764967
20
-2.7104857648
30
0.0000000000
10
-2.2820487719
20
-2.7030465511
30
0.0000000000
10
-2.3480528245
20
-2.6887907554
30
0.0000000000
10
-2.3994463065
20
-2.6726930804
30
0.0000000000
10
-2.4287905767
20
-2.6616898361
30
0.0000000000
10
-2.4362358675
20
-2.6587822849
30
0.0000000000
11
-1.9568672035
21
-2.6595063005
31
0.0000000000
11
-1.9799626559
21
-2.6702768209
31
0.0000000000
11
-2.0352411256
21
-2.6902417313
31
0.0000000000
11
-2.0932902399
21
-2.7034517906
31
0.0000000000
11
-2.1538817384
21
-2.7098570951
31
0.0000000000
11
-2.2165744282
21
-2.7094084551
31
0.0000000000
11
-2.2810503422
21
-2.7021127646
31
0.0000000000
11
-2.3469349513
21
-2.6880088445
31
0.0000000000
11
-2.4137827827
21
-2.6671970713
31
0.0000000000
11
-2.4362358675
21
-2.6587822849
31
0.0000000000
0
SPLINE
5
264
100
AcDbEntity
8
0
100
AcDbSpline
62
7
6
CONTINUOUS
70
0
71
3
72
9
73
5
74
3
42
0.0000001000
43
0.0000001000
44
0.0000000001
12
-0.1160686531
22
0.0453273833
32
0.0000000000
13
-0.1093262082
23
0.0597735310
33
0.0000000000
40
0.0000000000
40
0.0000000000
40
0.0000000000
40
0.0000000000
40
0.3926344004
40
1.0000000000
40
1.0000000000
40
1.0000000000
40
1.0000000000
10
-2.4362358675
20
-2.6587822849
30
0.0000000000
10
-2.4514267161
20
-2.6528499216
30
0.0000000000
10
-2.4896982727
20
-2.6366699119
30
0.0000000000
10
-2.5268468981
20
-2.6180303356
30
0.0000000000
10
-2.5489805574
20
-2.6059288734
30
0.0000000000
11
-2.4362358675
21
-2.6587822849
31
0.0000000000
11
-2.4813070624
21
-2.6397650936
31
0.0000000000
11
-2.5489805574
21
-2.6059288734
31
0.0000000000
0
SPLINE
5
265
100
AcDbEntity
8
0
100
AcDbSpline
62
7
6
CONTINUOUS
70
0
71
3
72
27
73
23
74
21
42
0.0000001000
43
0.0000001000
44
0.0000000001
12
-1.5821637220
22
0.8650397177
32
0.0000000000
13
0.0000000000
23
1.8028068760
33
0.0000000000
40
0.0000000000
40
0.0000000000
40
0.0000000000
40
0.0000000000
40
0.0435862203
40
0.0886601324
40
0.1352179767
40
0.1831170006
40
0.2322358995
40
0.2824716855
40
0.3335934439
40
0.3855296393
40
0.4379924262
40
0.4909002499
40
0.5439740768
40
0.5970757518
40
0.6499967519
40
0.7025115113
40
0.7545049052
40
0.8057025798
40
0.8560394376
40
0.9052606423
40
0.9533115890
40
1.0000000000
40
1.0000000000
40
1.0000000000
40
1.0000000000
10
-2.5489805574
20
-2.6059288734
30
0.0000000000
10
-2.5719674029
20
-2.5933609362
30
0.0000000000
10
-2.6177841674
20
-2.5660838594
30
0.0000000000
10
-2.6847122158
20
-2.5199037618
30
0.0000000000
10
-2.7506482413
20
-2.4680215344
30
0.0000000000
10
-2.8152228156
20
-2.4107283399
30
0.0000000000
10
-2.8780588113
20
-2.3483592813
30
0.0000000000
10
-2.9387743044
20
-2.2812916026
30
0.0000000000
10
-2.9970392710
20
-2.2098884127
30
0.0000000000
10
-3.0524800274
20
-2.1346041777
30
0.0000000000
10
-3.1048046884
20
-2.0558315208
30
0.0000000000
10
-3.1536755093
20
-1.9740740390
30
0.0000000000
10
-3.1988270282
20
-1.8897698954
30
0.0000000000
10
-3.2399801870
20
-1.8034345495
30
0.0000000000
10
-3.2768935074
20
-1.7155669811
30
0.0000000000
10
-3.3093548194
20
-1.6266670146
30
0.0000000000
10
-3.3371604777
20
-1.5372853744
30
0.0000000000
10
-3.3601605200
20
-1.4478973040
30
0.0000000000
10
-3.3782058196
20
-1.3590760583
30
0.0000000000
10
-3.3912000059
20
-1.2712840208
30
0.0000000000
10
-3.3990587951
20
-1.1850856312
30
0.0000000000
10
-3.4008716580
20
-1.1281402860
30
0.0000000000
10
-3.4008716580
20
-1.1000835566
30
0.0000000000
11
-2.5489805574
21
-2.6059288734
31
0.0000000000
11
-2.6165481634
21
-2.5658159322
31
0.0000000000
11
-2.6834808770
21
-2.5197385220
31
0.0000000000
11
-2.7494913316
21
-2.4678957711
31
0.0000000000
11
-2.8141292997
21
-2.4106356619
31
0.0000000000
11
-2.8770180892
21
-2.3482943662
31
0.0000000000
11
-2.9378341714
21
-2.2811862480
31
0.0000000000
11
-2.9961311834
21
-2.2098040805
31
0.0000000000
11
-3.0516759208
21
-2.1344281346
31
0.0000000000
11
-3.1040248854
21
-2.0556562238
31
0.0000000000
11
-3.1529740767
21
-1.9737916110
31
0.0000000000
11
-3.1981517588
21
-1.8894471067
31
0.0000000000
11
-3.2393399108
21
-1.8030285649
31
0.0000000000
11
-3.2762804635
21
-1.7150639934
31
0.0000000000
11
-3.3087335244
21
-1.6261260416
31
0.0000000000
11
-3.3365489360
21
-1.5366141728
31
0.0000000000
11
-3.3595121316
21
-1.4472167846
31
0.0000000000
11
-3.3775334016
21
-1.3582765418
31
0.0000000000
11
-3.3904701144
21
-1.2704882906
31
0.0000000000
11
-3.3982691113
21
-1.1842134998
31
0.0000000000
11
-3.4008716580
21
-1.1000835566
31
0.0000000000
0
SPLINE
5
266
100
AcDbEntity
8
0
100
AcDbSpline
62
9
6
CONTINUOUS
70
0
71
3
72
20
73
16
74
14
42
0.0000001000
43
0.0000001000
44
0.0000000001
12
-1.9814121417
22
35.2532279113
32
0.0000000000
13
1.8727576442
23
35.2591669081
33
0.0000000000
40
0.0000000000
40
0.0000000000
40
0.0000000000
40
0.0000000000
40
0.0748888667
40
0.1501267287
40
0.2257111526
40
0.3016395867
40
0.3779093654
40
0.4545177109
40
0.5314617347
40
0.6087384398
40
0.6863447236
40
0.7642773797
40
0.8425330999
40
0.9211084751
40
1.0000000000
40
1.0000000000
40
1.0000000000
40
1.0000000000
10
-9.2478202732
20
-15.3324988888
30
0.0000000000
10
-9.2972821765
20
-14.4524741268
30
0.0000000000
10
-9.3885701983
20
-12.6878715989
30
0.0000000000
10
-9.5024278657
20
-10.0337452630
30
0.0000000000
10
-9.5935190751
20
-7.3664958698
30
0.0000000000
10
-9.6618337454
20
-4.6864177655
30
0.0000000000
10
-9.7073644841
20
-1.9938031752
30
0.0000000000
10
-9.7301063325
20
0.7110533681
30
0.0000000000
10
-9.7300568349
20
3.4278562499
30
0.0000000000
10
-9.7072160210
20
6.1563084644
30
0.0000000000
10
-9.6615864077
20
8.8961118070
30
0.0000000000
10
-9.5931730112
20
11.6469666244
30
0.0000000000
10
-9.5019832945
20
14.4085728147
30
0.0000000000
10
-9.3880273660
20
17.1806261944
30
0.0000000000
10
-9.2970685087
20
19.0317419827
30
0.0000000000
10
-9.2478202732
20
19.9589584639
30
0.0000000000
11
-9.2478202732
21
-15.3324988888
31
0.0000000000
11
-9.3844865116
21
-12.6917919960
31
0.0000000000
11
-9.4983978705
21
-10.0376716884
31
0.0000000000
11
-9.5895419004
21
-7.3704281521
31
0.0000000000
11
-9.6579086394
21
-4.6903530407
31
0.0000000000
11
-9.7034906164
21
-1.9977393756
31
0.0000000000
11
-9.7262828504
21
0.7071184618
31
0.0000000000
11
-9.7262828504
21
3.4239247470
31
0.0000000000
11
-9.7034906164
21
6.1523824357
31
0.0000000000
11
-9.6579086394
21
8.8921932246
31
0.0000000000
11
-9.5895419004
21
11.6430575743
31
0.0000000000
11
-9.4983978705
21
14.4046747279
31
0.0000000000
11
-9.3844865116
21
17.1767427165
31
0.0000000000
11
-9.2478202732
21
19.9589584639
31
0.0000000000
0
SPLINE
5
267
100
AcDbEntity
8
0
100
AcDbSpline
62
9
6
CONTINUOUS
70
0
71
3
72
8
73
4
74
2
42
0.0000001000
43
0.0000001000
44
0.0000000001
12
-0.0162717018
22
0.0081361177
32
0.0000000000
13
-0.0159960122
23
0.0086655032
33
0.0000000000
40
0.0000000000
40
0.0000000000
40
0.0000000000
40
0.0000000000
40
1.0000000000
40
1.0000000000
40
1.0000000000
40
1.0000000000
10
-8.8635849401
20
-16.0552270487
30
0.0000000000
10
-8.8690088407
20
-16.0525150094
30
0.0000000000
10
-8.8743882414
20
-16.0497139511
30
0.0000000000
10
-8.8797202455
20
-16.0468254500
30
0.0000000000
11
-8.8635849401
21
-16.0552270487
31
0.0000000000
11
-8.8797202455
21
-16.0468254500
31
0.0000000000
0
SPLINE
5
268
100
AcDbEntity
8
0
100
AcDbSpline
62
9
6
CONTINUOUS
70
0
71
3
72
19
73
15
74
13
42
0.0000001000
43
0.0000001000
44
0.0000000001
12
-0.7381403065
22
0.3998719872
32
0.0000000000
13
-0.0475141065
23
0.8376711927
33
0.0000000000
40
0.0000000000
40
0.0000000000
40
0.0000000000
40
0.0000000000
40
0.0218346955
40
0.0990360967
40
0.1772804055
40
0.2571585768
40
0.3391951778
40
0.4238331630
40
0.5114267388
40
0.6022392278
40
0.6964467162
40
0.7941424775
40
0.8953433252
40
1.0000000000
40
1.0000000000
40
1.0000000000
40
1.0000000000
10
-8.8797202455
20
-16.0468254500
30
0.0000000000
10
-8.8850926018
20
-16.0439150890
30
0.0000000000
10
-8.9092418695
20
-16.0303118605
30
0.0000000000
10
-8.9505893902
20
-16.0027515397
30
0.0000000000
10
-9.0009397529
20
-15.9601538533
30
0.0000000000
10
-9.0472180590
20
-15.9112961061
30
0.0000000000
10
-9.0891960111
20
-15.8564412310
30
0.0000000000
10
-9.1266723278
20
-15.7958778802
30
0.0000000000
10
-9.1594708614
20
-15.7299182078
30
0.0000000000
10
-9.1874392984
20
-15.6588963739
30
0.0000000000
10
-9.2104483400
20
-15.5831684513
30
0.0000000000
10
-9.2283916606
20
-15.5031103757
30
0.0000000000
10
-9.2411861938
20
-15.4191230217
30
0.0000000000
10
-9.2461627171
20
-15.3617215160
30
0.0000000000
10
-9.2478202732
20
-15.3324988888
30
0.0000000000
11
-8.8797202455
21
-16.0468254500
31
0.0000000000
11
-8.8956900014
21
-16.0378296658
31
0.0000000000
11
-8.9496072921
21
-16.0019338290
31
0.0000000000
11
-8.9997668930
21
-15.9595814842
31
0.0000000000
11
-9.0459178850
21
-15.9109845860
31
0.0000000000
11
-9.0878296306
21
-15.8563860881
31
0.0000000000
11
-9.1252925263
21
-15.7960591122
31
0.0000000000
11
-9.1581192848
21
-15.7303053311
31
0.0000000000
11
-9.1861456902
21
-15.6594538195
31
0.0000000000
11
-9.2092317457
21
-15.5838586372
31
0.0000000000
11
-9.2272620186
21
-15.5038977779
31
0.0000000000
11
-9.2401462788
21
-15.4199717115
31
0.0000000000
11
-9.2478202732
21
-15.3324988888
31
0.0000000000
0
SPLINE
5
269
100
AcDbEntity
8
0
100
AcDbSpline
62
9
6
CONTINUOUS
70
0
71
3
72
28
73
24
74
22
42
0.0000001000
43
0.0000001000
44
0.0000000001
12
-0.8764120070
22
-0.4415904959
32
0.0000000000
13
-0.0539470396
23
-0.9798927946
33
0.0000000000
40
0.0000000000
40
0.0000000000
40
0.0000000000
40
0.0000000000
40
0.0412918231
40
0.0839021145
40
0.1277737104
40
0.1728359244
40
0.2190009097
40
0.2661658446
40
0.3142145995
40
0.3630203072
40
0.4124470389
40
0.4623519039
40
0.5125864146
40
0.5629986530
40
0.6134345664
40
0.6637400802
40
0.7137623758
40
0.7633518265
40
0.8123634408
40
0.8606591704
40
0.9081091853
40
0.9545936345
40
1.0000000000
40
1.0000000000
40
1.0000000000
40
1.0000000000
10
6.8072902361
20
13.4889999228
30
0.0000000000
10
6.7952273529
20
13.4829218972
30
0.0000000000
10
6.7711356907
20
13.4697235071
30
0.0000000000
10
6.7358076906
20
13.4473384752
30
0.0000000000
10
6.7008814665
20
13.4221593232
30
0.0000000000
10
6.6665341187
20
13.3943140094
30
0.0000000000
10
6.6329351385
20
13.3639410711
30
0.0000000000
10
6.6002513933
20
13.3311918780
30
0.0000000000
10
6.5686451478
20
13.2962295108
30
0.0000000000
10
6.5382735806
20
13.2592281640
30
0.0000000000
10
6.5092877616
20
13.2203721372
30
0.0000000000
10
6.4818319836
20
13.1798550335
30
0.0000000000
10
6.4560429538
20
13.1378787212
30
0.0000000000
10
6.4320491579
20
13.0946524245
30
0.0000000000
10
6.4099701219
20
13.0503915381
30
0.0000000000
10
6.3899158649
20
13.0053166416
30
0.0000000000
10
6.3719863058
20
12.9596522943
30
0.0000000000
10
6.3562708147
20
12.9136260425
30
0.0000000000
10
6.3428477122
20
12.8674670404
30
0.0000000000
10
6.3317839209
20
12.8214052058
30
0.0000000000
10
6.3231346848
20
12.7756692316
30
0.0000000000
10
6.3169435371
20
12.7304902963
30
0.0000000000
10
6.3144443801
20
12.7005168563
30
0.0000000000
10
6.3136278671
20
12.6856857328
30
0.0000000000
11
6.8072902361
21
13.4889999228
31
0.0000000000
11
6.7717307261
21
13.4695674460
31
0.0000000000
11
6.7363869288
21
13.4472189285
31
0.0000000000
11
6.7014415128
21
13.4220691152
31
0.0000000000
11
6.6670695209
21
13.3942439396
31
0.0000000000
11
6.6334428467
21
13.3638825905
31
0.0000000000
11
6.6007295462
21
13.3311368085
31
0.0000000000
11
6.5690933428
21
13.2961704892
31
0.0000000000
11
6.5386924352
21
13.2591585095
31
0.0000000000
11
6.5096788871
21
13.2202860323
31
0.0000000000
11
6.4821977192
21
13.1797473828
31
0.0000000000
11
6.4563864222
21
13.1377454058
31
0.0000000000
11
6.4323740248
21
13.0944900991
31
0.0000000000
11
6.4102806539
21
13.0501978963
31
0.0000000000
11
6.3902167307
21
13.0050902102
31
0.0000000000
11
6.3722825990
21
12.9593926706
31
0.0000000000
11
6.3565679179
21
12.9133337785
31
0.0000000000
11
6.3431513008
21
12.8671440152
31
0.0000000000
11
6.3320997647
21
12.8210541787
31
0.0000000000
11
6.3234685739
21
12.7752947386
31
0.0000000000
11
6.3173009074
21
12.7300948425
31
0.0000000000
11
6.3136278671
21
12.6856857328
31
0.0000000000
0
SPLINE
5
26A
100
AcDbEntity
8
0
100
AcDbSpline
62
9
6
CONTINUOUS
70
0
71
3
72
28
73
24
74
22
42
0.0000001000
43
0.0000001000
44
0.0000000001
12
-1.8690126163
22
-0.9590457773
32
0.0000000000
13
-0.1143904729
23
-2.0975919008
33
0.0000000000
40
0.0000000000
40
0.0000000000
40
0.0000000000
40
0.0000000000
40
0.0411323096
40
0.0835981878
40
0.1273478955
40
0.1723104727
40
0.2183975536
40
0.2655055488
40
0.3135173613
40
0.3623049753
40
0.4117311529
40
0.4616515483
40
0.5119160832
40
0.5623711228
40
0.6128607824
40
0.6632290525
40
0.7133210524
40
0.7629849838
40
0.8120735784
40
0.8604464084
40
0.9079711669
40
0.9545254230
40
1.0000000000
40
1.0000000000
40
1.0000000000
40
1.0000000000
10
6.2416909678
20
14.4645143601
30
0.0000000000
10
6.2160653659
20
14.4513651041
30
0.0000000000
10
6.1648929811
20
14.4228336886
30
0.0000000000
10
6.0898813739
20
14.3745154714
30
0.0000000000
10
6.0157273661
20
14.3202171076
30
0.0000000000
10
5.9428025513
20
14.2602117953
30
0.0000000000
10
5.8714667247
20
14.1947979818
30
0.0000000000
10
5.8020741192
20
14.1243016175
30
0.0000000000
10
5.7349692176
20
14.0490737034
30
0.0000000000
10
5.6704857155
20
13.9694890124
30
0.0000000000
10
5.6089443463
20
13.8859439179
30
0.0000000000
10
5.5506514594
20
13.7988546681
30
0.0000000000
10
5.4958973008
20
13.7086551528
30
0.0000000000
10
5.4449546601
20
13.6157949448
30
0.0000000000
10
5.3980772976
20
13.5207367437
30
0.0000000000
10
5.3554987911
20
13.4239542675
30
0.0000000000
10
5.3174312732
20
13.3259296696
30
0.0000000000
10
5.2840644877
20
13.2271514120
30
0.0000000000
10
5.2555646970
20
13.1281113038
30
0.0000000000
10
5.2320740037
20
13.0293026619
30
0.0000000000
10
5.2137095910
20
12.9312161121
30
0.0000000000
10
5.2005634805
20
12.8343431851
30
0.0000000000
10
5.1952559360
20
12.7700830371
30
0.0000000000
10
5.1935219832
20
12.7382873357
30
0.0000000000
11
6.2416909678
21
14.4645143601
31
0.0000000000
11
6.1661766697
21
14.4225172126
31
0.0000000000
11
6.0911340818
21
14.3742807574
31
0.0000000000
11
6.0169373805
21
14.3200456178
31
0.0000000000
11
5.9439582450
21
14.2600834032
31
0.0000000000
11
5.8725616169
21
14.1946940423
31
0.0000000000
11
5.8031043093
21
14.1242043371
31
0.0000000000
11
5.7359339284
21
14.0489670870
31
0.0000000000
11
5.6713863533
21
13.9693585678
31
0.0000000000
11
5.6097844356
21
13.8857770344
31
0.0000000000
11
5.5514360742
21
13.7986403042
31
0.0000000000
11
5.4966331794
21
13.7083843758
31
0.0000000000
11
5.4456496958
21
13.6154604904
31
0.0000000000
11
5.3987406633
21
13.5203335815
31
0.0000000000
11
5.3561405070
21
13.4234791322
31
0.0000000000
11
5.3180622743
21
13.3253815924
31
0.0000000000
11
5.2846963299
21
13.2265314622
31
0.0000000000
11
5.2562095844
21
13.1274233782
31
0.0000000000
11
5.2327443366
21
13.0285525416
31
0.0000000000
11
5.2144179091
21
12.9304133361
31
0.0000000000
11
5.2013220283
21
12.8334972002
31
0.0000000000
11
5.1935219832
21
12.7382873357
31
0.0000000000
0
SPLINE
5
26B
100
AcDbEntity
8
0
100
AcDbSpline
62
9
6
CONTINUOUS
70
0
71
3
72
25
73
21
74
19
42
0.0000001000
43
0.0000001000
44
0.0000000001
12
-0.0171494571
22
1.1747381357
32
0.0000000000
13
-1.0431518260
23
0.5404979734
33
0.0000000000
40
0.0000000000
40
0.0000000000
40
0.0000000000
40
0.0000000000
40
0.0520124607
40
0.1057804409
40
0.1611092713
40
0.2177747410
40
0.2755288484
40
0.3341051291
40
0.3932236679
40
0.4525958961
40
0.5119292525
40
0.5709317854
40
0.6293167631
40
0.6868073643
40
0.7431415229
40
0.7980770143
40
0.8513968839
40
0.9029153315
40
0.9524841747
40
1.0000000000
40
1.0000000000
40
1.0000000000
40
1.0000000000
10
6.8072902361
20
13.4889999228
30
0.0000000000
10
6.8069929076
20
13.5093669298
30
0.0000000000
10
6.8049156678
20
13.5507781516
30
0.0000000000
10
6.7976645792
20
13.6134932081
30
0.0000000000
10
6.7862789977
20
13.6774425161
30
0.0000000000
10
6.7708455987
20
13.7421396398
30
0.0000000000
10
6.7514813011
20
13.8070972715
30
0.0000000000
10
6.7283326813
20
13.8718241435
30
0.0000000000
10
6.7015749177
20
13.9358308113
30
0.0000000000
10
6.6714105129
20
13.9986329550
30
0.0000000000
10
6.6380677568
20
14.0597553036
30
0.0000000000
10
6.6017989632
20
14.1187352915
30
0.0000000000
10
6.5628784971
20
14.1751266507
30
0.0000000000
10
6.5216005858
20
14.2285028564
30
0.0000000000
10
6.4782770069
20
14.2784603671
30
0.0000000000
10
6.4332343634
20
14.3246217724
30
0.0000000000
10
6.3868120521
20
14.3666382394
30
0.0000000000
10
6.3393570375
20
14.4041932095
30
0.0000000000
10
6.2912293545
20
14.4370001153
30
0.0000000000
10
6.2582130411
20
14.4559536243
30
0.0000000000
10
6.2416909678
20
14.4645143601
30
0.0000000000
11
6.8072902361
21
13.4889999228
31
0.0000000000
11
6.8043013131
21
13.5500343128
31
0.0000000000
11
6.7971073523
21
13.6127933698
31
0.0000000000
11
6.7857630826
21
13.6767996446
31
0.0000000000
11
6.7703548075
21
13.7415661996
31
0.0000000000
11
6.7509997477
21
13.8066003132
31
0.0000000000
11
6.7278451498
21
13.8714072284
31
0.0000000000
11
6.7010671659
21
13.9354939165
31
0.0000000000
11
6.6708695137
21
13.9983728282
31
0.0000000000
11
6.6374819265
21
14.0595656024
31
0.0000000000
11
6.6011584055
21
14.1186067055
31
0.0000000000
11
6.5621752874
21
14.1750469734
31
0.0000000000
11
6.5208291424
21
14.2284570278
31
0.0000000000
11
6.4774345177
21
14.2784305436
31
0.0000000000
11
6.4323215445
21
14.3245873394
31
0.0000000000
11
6.3858334268
21
14.3665762703
31
0.0000000000
11
6.3383238302
21
14.4040778989
31
0.0000000000
11
6.2901541912
21
14.4368069259
31
0.0000000000
11
6.2416909678
21
14.4645143601
31
0.0000000000
0
SPLINE
5
26C
100
AcDbEntity
8
0
100
AcDbSpline
62
9
6
CONTINUOUS
70
0
71
3
72
20
73
16
74
14
42
0.0000001000
43
0.0000001000
44
0.0000000001
12
-1.9357249644
22
-35.1627215877
32
0.0000000000
13
2.0440526385
23
-35.1565906966
33
0.0000000000
40
0.0000000000
40
0.0000000000
40
0.0000000000
40
0.0000000000
40
0.0788269926
40
0.1573471771
40
0.2355574234
40
0.3134547081
40
0.3910361100
40
0.4682988114
40
0.5452400996
40
0.6218573686
40
0.6981481225
40
0.7741099770
40
0.8497406610
40
0.9250380183
40
1.0000000000
40
1.0000000000
40
1.0000000000
40
1.0000000000
10
6.3136278671
20
12.6856857328
30
0.0000000000
10
6.2627654080
20
11.7617618680
30
0.0000000000
10
6.1688257087
20
9.9170832255
30
0.0000000000
10
6.0511422032
20
7.1544309671
30
0.0000000000
10
5.9569699389
20
4.4017949205
30
0.0000000000
10
5.8863193755
20
1.6594785564
30
0.0000000000
10
5.8391982205
20
-1.0722190000
30
0.0000000000
10
5.8156116588
20
-3.7929989682
30
0.0000000000
10
5.8155622933
20
-6.5025639846
30
0.0000000000
10
5.8390501586
20
-9.2006178312
30
0.0000000000
10
5.8860727225
20
-11.8868656390
30
0.0000000000
10
5.9566248671
20
-14.5610135560
30
0.0000000000
10
6.0506989658
20
-17.2227700515
30
0.0000000000
10
6.1682845910
20
-19.8718410597
30
0.0000000000
10
6.2625524549
20
-21.6331918307
30
0.0000000000
10
6.3136278671
20
-22.5116610670
30
0.0000000000
11
6.3136278671
21
12.6856857328
31
0.0000000000
11
6.1724899242
21
9.9133075551
31
0.0000000000
11
6.0548513843
21
7.1506471607
31
0.0000000000
11
5.9607251206
21
4.3980069032
31
0.0000000000
11
5.8901214212
21
1.6556877698
31
0.0000000000
11
5.8430480016
21
-1.0760104166
31
0.0000000000
11
5.8195100059
21
-3.7967890037
31
0.0000000000
11
5.8195100064
21
-6.5063505274
31
0.0000000000
11
5.8430480032
21
-9.2043987356
31
0.0000000000
11
5.8901214239
21
-11.8906386485
31
0.0000000000
11
5.9607251244
21
-14.5647765813
31
0.0000000000
11
6.0548513892
21
-17.2265201619
31
0.0000000000
11
6.1724899302
21
-19.8755783381
31
0.0000000000
11
6.3136278671
21
-22.5116610670
31
0.0000000000
0
SPLINE
5
26D
100
AcDbEntity
8
0
100
AcDbSpline
62
9
6
CONTINUOUS
70
0
71
3
72
20
73
16
74
14
42
0.0000001000
43
0.0000001000
44
0.0000000001
12
-1.9408097496
22
-35.2567428578
32
0.0000000000
13
2.0494273101
23
-35.2505958407
33
0.0000000000
40
0.0000000000
40
0.0000000000
40
0.0000000000
40
0.0000000000
40
0.0788270857
40
0.1573473422
40
0.2355576476
40
0.3134549779
40
0.3910364115
40
0.4682991301
40
0.5452404204
40
0.6218576760
40
0.6981484004
40
0.7741102088
40
0.8497408295
40
0.9250381058
40
1.0000000000
40
1.0000000000
40
1.0000000000
40
1.0000000000
10
5.1935219832
20
12.7382873357
30
0.0000000000
10
5.1425258577
20
11.8118919055
30
0.0000000000
10
5.0483392996
20
9.9622788936
30
0.0000000000
10
4.9303465274
20
7.1922371306
30
0.0000000000
10
4.8359267876
20
4.4322390020
30
0.0000000000
10
4.7650905602
20
1.6825886879
30
0.0000000000
10
4.7178455737
20
-1.0564138867
30
0.0000000000
10
4.6941970266
20
-3.7844691423
30
0.0000000000
10
4.6941475285
20
-6.5012789201
30
0.0000000000
10
4.7176971141
20
-9.2065462102
30
0.0000000000
10
4.7648432446
20
-11.8999753553
30
0.0000000000
10
4.8355807887
20
-14.5812717177
30
0.0000000000
10
4.9299020990
20
-17.2501429875
30
0.0000000000
10
5.0477967299
20
-19.9062944503
30
0.0000000000
10
5.1423123322
20
-21.6723528720
30
0.0000000000
10
5.1935219832
20
-22.5531700170
30
0.0000000000
11
5.1935219832
21
12.7382873357
31
0.0000000000
11
5.0520131287
21
9.9584928964
31
0.0000000000
11
4.9340654475
21
7.1884430689
31
0.0000000000
11
4.8396918303
21
4.4284407090
31
0.0000000000
11
4.7689025919
21
1.6787876089
31
0.0000000000
11
4.7217054683
21
-1.0602156066
31
0.0000000000
11
4.6981056169
21
-3.7882694866
31
0.0000000000
11
4.6981056169
21
-6.5050757718
31
0.0000000000
11
4.7217054683
21
-9.2103374179
31
0.0000000000
11
4.7689025919
21
-11.9037586564
31
0.0000000000
11
4.8396918303
21
-14.5850450175
31
0.0000000000
11
4.9340654475
21
-17.2539033475
31
0.0000000000
11
5.0520131287
21
-19.9100418161
31
0.0000000000
11
5.1935219832
21
-22.5531700170
31
0.0000000000
0
SPLINE
5
26E
100
AcDbEntity
8
0
100
AcDbSpline
62
9
6
CONTINUOUS
70
0
71
3
72
25
73
21
74
19
42
0.0000001000
43
0.0000001000
44
0.0000000001
12
-1.0662724328
22
-0.4274414156
32
0.0000000000
13
-1.0268507676
23
0.5149956949
33
0.0000000000
40
0.0000000000
40
0.0000000000
40
0.0000000000
40
0.0000000000
40
0.0477596173
40
0.0979981361
40
0.1505025873
40
0.2050231222
40
0.2612797737
40
0.3189683223
40
0.3777655478
40
0.4373340658
40
0.4973268954
40
0.5573918595
40
0.6171759040
40
0.6763294013
40
0.7345105091
40
0.7913896587
40
0.8466542666
40
0.9000137964
40
0.9512053454
40
1.0000000000
40
1.0000000000
40
1.0000000000
40
1.0000000000
10
6.3136278671
20
12.6856857328
30
0.0000000000
10
6.2966529460
20
12.6788809200
30
0.0000000000
10
6.2613422738
20
12.6660939624
30
0.0000000000
10
6.2060643322
20
12.6496971986
30
0.0000000000
10
6.1474681196
20
12.6356930017
30
0.0000000000
10
6.0859884004
20
12.6241861193
30
0.0000000000
10
6.0220780081
20
12.6152616523
30
0.0000000000
10
5.9562097745
20
12.6089862074
30
0.0000000000
10
5.8888712618
20
12.6054066604
30
0.0000000000
10
5.8205614226
20
12.6045498813
30
0.0000000000
10
5.7517866373
20
12.6064224385
30
0.0000000000
10
5.6830568695
20
12.6110105394
30
0.0000000000
10
5.6148817645
20
12.6182801230
30
0.0000000000
10
5.5477667529
20
12.6281771279
30
0.0000000000
10
5.4822092170
20
12.6406279075
30
0.0000000000
10
5.4186945664
20
12.6555398796
30
0.0000000000
10
5.3576928845
20
12.6728021183
30
0.0000000000
10
5.2996538815
20
12.6922869785
30
0.0000000000
10
5.2450082936
20
12.7138489665
30
0.0000000000
10
5.2102235928
20
12.7299109900
30
0.0000000000
10
5.1935219833
20
12.7382873357
30
0.0000000000
11
6.3136278671
21
12.6856857328
31
0.0000000000
11
6.2620732591
21
12.6669186551
31
0.0000000000
11
6.2067661440
21
12.6504328514
31
0.0000000000
11
6.1481181676
21
12.6363510240
31
0.0000000000
11
6.0865658415
21
12.6247779828
31
0.0000000000
11
6.0225672941
21
12.6157998647
31
0.0000000000
11
5.9565988608
21
12.6094834932
31
0.0000000000
11
5.8891515386
21
12.6058758803
31
0.0000000000
11
5.8207273318
21
12.6050038773
31
0.0000000000
11
5.7518355156
21
12.6068739744
31
0.0000000000
11
5.6829888455
21
12.6114722525
31
0.0000000000
11
5.6146997411
21
12.6187644873
31
0.0000000000
11
5.5474764719
21
12.6286964031
31
0.0000000000
11
5.4818193746
21
12.6411940776
31
0.0000000000
11
5.4182171291
21
12.6561644919
31
0.0000000000
11
5.3571431211
21
12.6734962224
31
0.0000000000
11
5.2990519189
21
12.6930602707
31
0.0000000000
11
5.2443758901
21
12.7147110233
31
0.0000000000
11
5.1935219833
21
12.7382873357
31
0.0000000000
0
SPLINE
5
26F
100
AcDbEntity
8
0
100
AcDbSpline
62
9
6
CONTINUOUS
70
0
71
3
72
28
73
24
74
22
42
0.0000001000
43
0.0000001000
44
0.0000000001
12
0.0420953463
22
-0.7239610291
32
0.0000000000
13
0.6583649754
23
0.3040512275
33
0.0000000000
40
0.0000000000
40
0.0000000000
40
0.0000000000
40
0.0000000000
40
0.0565717752
40
0.1113517991
40
0.1643133275
40
0.2154751408
40
0.2648964590
40
0.3126797408
40
0.3589723403
40
0.4039676242
40
0.4479029680
40
0.4910552403
40
0.5337323191
40
0.5762621684
40
0.6189789145
40
0.6622088700
40
0.7062568166
40
0.7513952496
40
0.7978564061
40
0.8458284177
40
0.8954533960
40
0.9468279846
40
1.0000000000
40
1.0000000000
40
1.0000000000
40
1.0000000000
10
6.3136278671
20
-22.5116610670
30
0.0000000000
10
6.3144216699
20
-22.5253129872
30
0.0000000000
10
6.3168060788
20
-22.5521456914
30
0.0000000000
10
6.3229328312
20
-22.5914194358
30
0.0000000000
10
6.3315255236
20
-22.6288927900
30
0.0000000000
10
6.3425440790
20
-22.6643752545
30
0.0000000000
10
6.3559374081
20
-22.6976903421
30
0.0000000000
10
6.3716432884
20
-22.7286706006
30
0.0000000000
10
6.3895882199
20
-22.7571587093
30
0.0000000000
10
6.4096870659
20
-22.7830076487
30
0.0000000000
10
6.4318425307
20
-22.8060815747
30
0.0000000000
10
6.4559444989
20
-22.8262569716
30
0.0000000000
10
6.4818698310
20
-22.8434245508
30
0.0000000000
10
6.5094828795
20
-22.8574914131
30
0.0000000000
10
6.5386371764
20
-22.8683830948
30
0.0000000000
10
6.5691777518
20
-22.8760446884
30
0.0000000000
10
6.6009437256
20
-22.8804408918
30
0.0000000000
10
6.6337702595
20
-22.8815551239
30
0.0000000000
10
6.6674900065
20
-22.8793882304
30
0.0000000000
10
6.7019334479
20
-22.8739573992
30
0.0000000000
10
6.7369299009
20
-22.8652948623
30
0.0000000000
10
6.7723029031
20
-22.8534496713
30
0.0000000000
10
6.7956213719
20
-22.8436400542
30
0.0000000000
10
6.8072902361
20
-22.8382510487
30
0.0000000000
11
6.3136278671
21
-22.5116610670
31
0.0000000000
11
6.3173006730
21
-22.5525212668
31
0.0000000000
11
6.3234682205
21
-22.5917651666
31
0.0000000000
11
6.3320992846
21
-22.6291896292
31
0.0000000000
11
6.3431506943
21
-22.6646071948
31
0.0000000000
11
6.3565671840
21
-22.6978407697
31
0.0000000000
11
6.3722817377
21
-22.7287242698
31
0.0000000000
11
6.3902157421
21
-22.7571031294
31
0.0000000000
11
6.4102795389
21
-22.7828354306
31
0.0000000000
11
6.4323727864
21
-22.8057924457
31
0.0000000000
11
6.4563850724
21
-22.8258593994
31
0.0000000000
11
6.4821962753
21
-22.8429358611
31
0.0000000000
11
6.5096773691
21
-22.8569364297
31
0.0000000000
11
6.5386908629
21
-22.8677910274
31
0.0000000000
11
6.5690917273
21
-22.8754453676
31
0.0000000000
11
6.6007278972
21
-22.8798611321
31
0.0000000000
11
6.6334411728
21
-22.8810162140
31
0.0000000000
11
6.6670678312
21
-22.8789048234
31
0.0000000000
11
6.7014398189
21
-22.8735375071
31
0.0000000000
11
6.7363852368
21
-22.8649410761
31
0.0000000000
11
6.7717290465
21
-22.8531586221
31
0.0000000000
11
6.8072902361
21
-22.8382510487
31
0.0000000000
0
SPLINE
5
270
100
AcDbEntity
8
0
100
AcDbSpline
62
9
6
CONTINUOUS
70
0
71
3
72
19
73
15
74
13
42
0.0000001000
43
0.0000001000
44
0.0000000001
12
0.0496109511
22
-0.8609070739
32
0.0000000000
13
0.7710475335
23
-0.3872044320
33
0.0000000000
40
0.0000000000
40
0.0000000000
40
0.0000000000
40
0.0000000000
40
0.1019124161
40
0.2005355490
40
0.2958331182
40
0.3878326184
40
0.4766349772
40
0.5624200305
40
0.6454499834
40
0.7260719700
40
0.8047149818
40
0.8818821403
40
0.9581355584
40
1.0000000000
40
1.0000000000
40
1.0000000000
40
1.0000000000
10
5.1935219832
20
-22.5531700170
30
0.0000000000
10
5.1952073072
20
-22.5824157237
30
0.0000000000
10
5.2002689119
20
-22.6398817106
30
0.0000000000
10
5.2132769709
20
-22.7239799353
30
0.0000000000
10
5.2315194513
20
-22.8041908999
30
0.0000000000
10
5.2549118484
20
-22.8801124694
30
0.0000000000
10
5.2833459178
20
-22.9513672747
30
0.0000000000
10
5.3166897693
20
-23.0175975068
30
0.0000000000
10
5.3547878073
20
-23.0784671219
30
0.0000000000
10
5.3974598785
20
-23.1336621264
30
0.0000000000
10
5.4445001044
20
-23.1828923102
30
0.0000000000
10
5.4956752904
20
-23.2258936382
30
0.0000000000
10
5.5425455962
20
-23.2570037606
30
0.0000000000
10
5.5724229422
20
-23.2732066036
30
0.0000000000
10
5.5831827670
20
-23.2786099694
30
0.0000000000
11
5.1935219832
21
-22.5531700170
31
0.0000000000
11
5.2013220252
21
-22.6407058635
31
0.0000000000
11
5.2144179051
21
-22.7247377397
31
0.0000000000
11
5.2327443316
21
-22.8048466759
31
0.0000000000
11
5.2562095772
21
-22.8806314532
31
0.0000000000
11
5.2846963221
21
-22.9517131345
31
0.0000000000
11
5.3180622657
21
-23.0177365083
31
0.0000000000
11
5.3561404969
21
-23.0783711518
31
0.0000000000
11
5.3987406511
21
-23.1333138541
31
0.0000000000
11
5.4456496827
21
-23.1822897720
31
0.0000000000
11
5.4966331654
21
-23.2250540578
31
0.0000000000
11
5.5514360591
21
-23.2613926960
31
0.0000000000
11
5.5831827670
21
-23.2786099694
31
0.0000000000
0
SPLINE
5
271
100
AcDbEntity
8
0
100
AcDbSpline
62
9
6
CONTINUOUS
70
0
71
3
72
25
73
21
74
19
42
0.0000001000
43
0.0000001000
44
0.0000000001
12
-1.0088569589
22
-0.5698168025
32
0.0000000000
13
-1.0369002167
23
0.5170314232
33
0.0000000000
40
0.0000000000
40
0.0000000000
40
0.0000000000
40
0.0000000000
40
0.0501799156
40
0.1024009495
40
0.1564665447
40
0.2121473726
40
0.2691874176
40
0.3273094626
40
0.3862201402
40
0.4456146813
40
0.5051814655
40
0.5646064589
40
0.6235776134
40
0.6817892977
40
0.7389468333
40
0.7947712196
40
0.8490041502
40
0.9014134501
40
0.9517990934
40
1.0000000000
40
1.0000000000
40
1.0000000000
40
1.0000000000
10
6.3136278671
20
-22.5116610670
30
0.0000000000
10
6.2967530814
20
-22.5211921866
30
0.0000000000
10
6.2616289812
20
-22.5394436476
30
0.0000000000
10
6.2063321735
20
-22.5639024647
30
0.0000000000
10
6.1477156556
20
-22.5858442188
30
0.0000000000
10
6.0862151681
20
-22.6051056117
30
0.0000000000
10
6.0222839731
20
-22.6215450367
30
0.0000000000
10
5.9563950760
20
-22.6350407581
30
0.0000000000
10
5.8890360292
20
-22.6454928606
30
0.0000000000
10
5.8207056525
20
-22.6528238580
30
0.0000000000
10
5.7519101058
20
-22.6569794025
30
0.0000000000
10
5.6831590639
20
-22.6579287043
30
0.0000000000
10
5.6149618256
20
-22.6556647739
30
0.0000000000
10
5.5478234207
20
-22.6502044470
30
0.0000000000
10
5.4822407922
20
-22.6415882282
30
0.0000000000
10
5.4186988456
20
-22.6298798257
30
0.0000000000
10
5.3576672642
20
-22.6151657869
30
0.0000000000
10
5.2995950233
20
-22.5975536967
30
0.0000000000
10
5.2449136919
20
-22.5771743090
30
0.0000000000
10
5.2101818420
20
-22.5614771359
30
0.0000000000
10
5.1935219985
20
-22.5531700081
30
0.0000000000
11
6.3136278671
21
-22.5116610670
31
0.0000000000
11
6.2620732592
21
-22.5385409499
31
0.0000000000
11
6.2067661444
21
-22.5630791759
31
0.0000000000
11
6.1481181684
21
-22.5850931093
31
0.0000000000
11
6.0865658429
21
-22.6044189024
31
0.0000000000
11
6.0225672963
21
-22.6209127150
31
0.0000000000
11
5.9565988638
21
-22.6344517851
31
0.0000000000
11
5.8891515426
21
-22.6449353428
31
0.0000000000
11
5.8207273368
21
-22.6522853598
31
0.0000000000
11
5.7518355217
21
-22.6564471307
31
0.0000000000
11
5.6829888528
21
-22.6573896797
31
0.0000000000
11
5.6146997495
21
-22.6551059915
31
0.0000000000
11
5.5474764814
21
-22.6496130635
31
0.0000000000
11
5.4818193853
21
-22.6409517790
31
0.0000000000
11
5.4182171409
21
-22.6291866031
31
0.0000000000
11
5.3571431339
21
-22.6144051030
31
0.0000000000
11
5.2990519326
21
-22.5967172961
31
0.0000000000
11
5.2443759046
21
-22.5762548310
31
0.0000000000
11
5.1935219985
21
-22.5531700081
31
0.0000000000
0
SPLINE
5
272
100
AcDbEntity
8
0
100
AcDbSpline
62
9
6
CONTINUOUS
70
0
71
3
72
18
73
14
74
12
42
0.0000001000
43
0.0000001000
44
0.0000000001
12
-0.0074438728
22
-0.5170938990
32
0.0000000000
13
-0.4699086950
23
-0.2169938004
33
0.0000000000
40
0.0000000000
40
0.0000000000
40
0.0000000000
40
0.0000000000
40
0.1155670209
40
0.2267521637
40
0.3333940459
40
0.4354570642
40
0.5330494158
40
0.6264401206
40
0.7160721575
40
0.8025672210
40
0.8867164150
40
0.9694517338
40
1.0000000000
40
1.0000000000
40
1.0000000000
40
1.0000000000
10
6.8072902361
20
-22.8382510487
30
0.0000000000
10
6.8070034807
20
-22.8581707158
30
0.0000000000
10
6.8050991345
20
-22.8972525164
30
0.0000000000
10
6.7979915453
20
-22.9543392761
30
0.0000000000
10
6.7867339303
20
-23.0083897225
30
0.0000000000
10
6.7714032367
20
-23.0589943948
30
0.0000000000
10
6.7521038999
20
-23.1057724673
30
0.0000000000
10
6.7289672473
20
-23.1483668226
30
0.0000000000
10
6.7021520296
20
-23.1864455310
30
0.0000000000
10
6.6718469003
20
-23.2197018997
30
0.0000000000
10
6.6382746726
20
-23.2478572313
30
0.0000000000
10
6.6092982690
20
-23.2659269739
30
0.0000000000
10
6.5917711046
20
-23.2745907899
30
0.0000000000
10
6.5869861393
20
-23.2768003846
30
0.0000000000
11
6.8072902361
21
-22.8382510487
31
0.0000000000
11
6.8043013131
21
-22.8979414553
31
0.0000000000
11
6.7971073520
21
-22.9549887625
31
0.0000000000
11
6.7857630821
21
-23.0089589741
31
0.0000000000
11
6.7703548067
21
-23.0594415033
31
0.0000000000
11
6.7509997466
21
-23.1060522964
31
0.0000000000
11
6.7278451483
21
-23.1484367548
31
0.0000000000
11
6.7010671642
21
-23.1862724319
31
0.0000000000
11
6.6708695117
21
-23.2192714872
31
0.0000000000
11
6.6374819243
21
-23.2471828751
31
0.0000000000
11
6.6011584032
21
-23.2697942556
31
0.0000000000
11
6.5869861393
21
-23.2768003846
31
0.0000000000
0
SPLINE
5
273
100
AcDbEntity
8
0
100
AcDbSpline
62
7
6
CONTINUOUS
70
0
71
3
72
19
73
15
74
13
42
0.0000001000
43
0.0000001000
44
0.0000000001
12
0.0000000000
22
0.7904210367
32
0.0000000000
13
0.7074307328
23
0.3537278749
33
0.0000000000
40
0.0000000000
40
0.0000000000
40
0.0000000000
40
0.0000000000
40
0.1032126169
40
0.2030648798
40
0.2992982145
40
0.3920464370
40
0.4811905188
40
0.5670548063
40
0.6497319342
40
0.7296915838
40
0.8073400577
40
0.8832190849
40
0.9580451869
40
1.0000000000
40
1.0000000000
40
1.0000000000
40
1.0000000000
10
-3.4008716580
20
-1.1000835566
30
0.0000000000
10
-3.4008716580
20
-1.0728897487
30
0.0000000000
10
-3.3992204752
20
-1.0193691339
30
0.0000000000
10
-3.3915182782
20
-0.9408281595
30
0.0000000000
10
-3.3786680551
20
-0.8657490379
30
0.0000000000
10
-3.3607464919
20
-0.7946144664
30
0.0000000000
10
-3.3378398403
20
-0.7277967139
30
0.0000000000
10
-3.3100855076
20
-0.6657263958
30
0.0000000000
10
-3.2776197500
20
-0.6087411108
30
0.0000000000
10
-3.2406342817
20
-0.5572072157
30
0.0000000000
10
-3.1993300087
20
-0.5114356444
30
0.0000000000
10
-3.1539465989
20
-0.4717159886
30
0.0000000000
10
-3.1118471129
20
-0.4431237359
30
0.0000000000
10
-3.0847928255
20
-0.4283862727
30
0.0000000000
10
-3.0748994508
20
-0.4234394104
30
0.0000000000
11
-3.4008716580
21
-1.1000835566
31
0.0000000000
11
-3.3982696986
21
-1.0185436369
31
0.0000000000
11
-3.3904714597
21
-0.9400045062
31
0.0000000000
11
-3.3775355237
21
-0.8650476967
31
0.0000000000
11
-3.3595157386
21
-0.7939867026
31
0.0000000000
11
-3.3365532100
21
-0.7273719506
31
0.0000000000
11
-3.3087387378
21
-0.6654643740
31
0.0000000000
11
-3.2762864133
21
-0.6087419332
31
0.0000000000
11
-3.2393463894
21
-0.5574593749
31
0.0000000000
11
-3.1981592920
21
-0.5119564951
31
0.0000000000
11
-3.1529818333
21
-0.4725082594
31
0.0000000000
11
-3.1040337135
21
-0.4393102307
31
0.0000000000
11
-3.0748994508
21
-0.4234394104
31
0.0000000000
0
ENDSEC
0
SECTION
2
OBJECTS
0
DICTIONARY
5
274
100
AcDbDictionary
3
ACAD_GROUP
350
275
3
ACAD_MLINESTYLE
350
276
0
DICTIONARY
5
275
102
{ACAD_REACTORS
330
274
102
}
100
AcDbDictionary
0
DICTIONARY
5
276
102
{ACAD_REACTORS
330
274
102
}
100
AcDbDictionary
3
STANDARD
350
277
0
MLINESTYLE
5
277
102
{ACAD_REACTORS
330
276
102
}
100
AcDbMlineStyle
2
STANDARD
70
0
3

62
256
51
90.0
52
90.0
71
2
49
0.5
62
256
6
BYLAYER
49
-0.5
62
256
6
BYLAYER
0
ENDSEC
0
EOF
