  0
SECTION
  2
HEADER
  9
$ACADVER
  1
AC1015
  9
$DWGCODEPAGE
  3
ANSI_1252
  9
$EXTMAX
 10
297.0
 20
210.0
 30
0.0
  9
$EXTMIN
 10
0.0
 20
0.0
 30
0.0
  9
$LIMMIN
 10
0.0
 20
0.0
  9
$LIMMAX
 10
297.0
 20
210.0
  9
$VIEWCTR
 10
148.5
 20
105.0
  9
$VIEWSIZE
 40
210.0
  9
$CLAYER
  8
0
  9
$LTSCALE
 40
16.335
  9
$CELTYPE
  6
BYLAYER
  9
$DIMSCALE
 40
1.0
  9
$DIMASZ
 40
3.0
  9
$DIMEXO
 40
0.5
  9
$DIMDLI
 40
11.286
  9
$DIMEXE
 40
1.5
  9
$DIMCEN
 40
2.673
  9
$DIMLFAC
 40
1.0
  9
$DIMBLK
  1
_FILLED
  9
$DIMTXT
 40
3.0
  9
$DIMTOL
 70
1
  9
$DIMLIM
 70
0
  9
$DIMTFAC
 40
1.0
  9
$DIMTP
 40
0.01
  9
$DIMTM
 40
0.01
  9
$DIMGAP
 40
0.625
  9
$DIMDSEP
 70
44
  9
$PDMODE
 70
3
  9
$PDSIZE
 40
3.0
  9
$HANDSEED
  5
426
  9
$TILEMODE
 70
1
  9
$MEASUREMENT
 70
1
  9
$INSUNITS
 70
4
  0
ENDSEC
  0
SECTION
  2
CLASSES
  0
CLASS
  1
ACDBDICTIONARYWDFLT
  2
AcDbDictionaryWithDefault
  3
AutoCAD 2000
 90
0
280
0
281
0
  0
CLASS
  1
ACDBPLACEHOLDER
  2
AcDbPlaceHolder
  3
AutoCAD 2000
 90
0
280
0
281
0
  0
CLASS
  1
LAYOUT
  2
AcDbLayout
  3
AutoCAD 2000
 90
0
280
0
281
0
  0
ENDSEC
  0
SECTION
  2
TABLES
  0
TABLE
  2
VPORT
  5
8
100
AcDbSymbolTable
 70
2
  0
VPORT
  5
1F4
100
AcDbSymbolTableRecord
100
AcDbViewportTableRecord
  2
*ACTIVE
 70
0
 10
0.0
 20
0.0
 11
1.0
 21
1.0
 12
148.5
 22
105.0
 13
0.0
 23
0.0
 14
1.0
 24
1.0
 15
0.0
 25
0.0
 16
0.0
 26
0.0
 36
1.0
 17
0.0
 27
0.0
 37
0.0
 40
210.0
 41
1.4142857143
 42
50.0
 43
0.0
 44
0.0
 50
0.0
 51
0.0
 71
0
 72
100
 73
1
 74
1
 75
0
 76
0
 77
0
 78
0
  0
ENDTAB
  0
TABLE
  2
LTYPE
  5
5
100
AcDbSymbolTable
 70
6
  0
LTYPE
  5
14
100
AcDbSymbolTableRecord
100
AcDbLinetypeTableRecord
  2
BYBLOCK
 70
0
  3

 72
65
 73
0
 40
0.0
  0
LTYPE
  5
15
100
AcDbSymbolTableRecord
100
AcDbLinetypeTableRecord
  2
BYLAYER
 70
0
  3

 72
65
 73
0
 40
0.0
  0
LTYPE
  5
16
100
AcDbSymbolTableRecord
100
AcDbLinetypeTableRecord
  2
CONTINUOUS
 70
64
  3
Solid line
 72
65
 73
0
 40
0.0
  0
LTYPE
  5
1F5
100
AcDbSymbolTableRecord
100
AcDbLinetypeTableRecord
  2
CENTER
 70
64
  3
____ _ ____ _ ____ _ ____ _ ____ _ ____ _ ____
 72
65
 73
4
 40
0.6
 49
0.375
 74
0
 49
-0.075
 74
0
 49
0.075
 74
0
 49
-0.075
 74
0
  0
LTYPE
  5
1F6
100
AcDbSymbolTableRecord
100
AcDbLinetypeTableRecord
  2
HIDDEN
 70
64
  3
- - - - - - - - - - - - - - - - - - - -
 72
65
 73
2
 40
0.2
 49
0.1
 74
0
 49
-0.1
 74
0
  0
LTYPE
  5
1F7
100
AcDbSymbolTableRecord
100
AcDbLinetypeTableRecord
  2
PHANTOM
 70
64
  3
_____ _ _ _____ _ _ _____ _ _ _____
 72
65
 73
6
 40
0.8
 49
0.45
 74
0
 49
-0.05
 74
0
 49
0.1
 74
0
 49
-0.05
 74
0
 49
0.1
 74
0
 49
-0.05
 74
0
  0
LTYPE
  5
1F8
100
AcDbSymbolTableRecord
100
AcDbLinetypeTableRecord
  2
DOT
 70
64
  3
. . . . . . . . . . . . . . . . . . . .
 72
65
 73
2
 40
0.2
 49
0.1
 74
0
 49
-0.1
 74
0
  0
LTYPE
  5
1F9
100
AcDbSymbolTableRecord
100
AcDbLinetypeTableRecord
  2
DASHED
 70
64
  3
- - - - - - - - - - - - - - - - - - - -
 72
65
 73
2
 40
0.2
 49
0.1
 74
0
 49
-0.1
 74
0
  0
ENDTAB
  0
TABLE
  2
LAYER
  5
2
100
AcDbSymbolTable
 70
36
  0
LAYER
  5
10
100
AcDbSymbolTableRecord
100
AcDbLayerTableRecord
  2
0
 70
0
 62
7
  6
CONTINUOUS
370
-3
390
F
  0
LAYER
  5
1FA
100
AcDbSymbolTableRecord
100
AcDbLayerTableRecord
  2
DEFAULT_1
 70
0
 62
7
  6
CENTER
370
-3
390
F
  0
LAYER
  5
1FB
100
AcDbSymbolTableRecord
100
AcDbLayerTableRecord
  2
DEFAULT_2
 70
0
 62
7
  6
HIDDEN
370
-3
390
F
  0
LAYER
  5
1FC
100
AcDbSymbolTableRecord
100
AcDbLayerTableRecord
  2
DEFAULT_3
 70
0
 62
7
  6
PHANTOM
370
-3
390
F
  0
LAYER
  5
1FD
100
AcDbSymbolTableRecord
100
AcDbLayerTableRecord
  2
ASSI
 70
0
 62
7
  6
CONTINUOUS
370
-3
390
F
  0
LAYER
  5
1FE
100
AcDbSymbolTableRecord
100
AcDbLayerTableRecord
  2
COORDINATE
 70
0
 62
7
  6
CONTINUOUS
370
-3
390
F
  0
LAYER
  5
1FF
100
AcDbSymbolTableRecord
100
AcDbLayerTableRecord
  2
COORD_ORIGINE
 70
0
 62
7
  6
CONTINUOUS
370
-3
390
F
  0
LAYER
  5
200
100
AcDbSymbolTableRecord
100
AcDbLayerTableRecord
  2
COPY_PUBLISH
 70
0
 62
7
  6
CONTINUOUS
370
-3
390
F
  0
LAYER
  5
201
100
AcDbSymbolTableRecord
100
AcDbLayerTableRecord
  2
COSMETICI
 70
0
 62
7
  6
CONTINUOUS
370
-3
390
F
  0
LAYER
  5
202
100
AcDbSymbolTableRecord
100
AcDbLayerTableRecord
  2
CURVE
 70
0
 62
7
  6
CONTINUOUS
370
-3
390
F
  0
LAYER
  5
203
100
AcDbSymbolTableRecord
100
AcDbLayerTableRecord
  2
CURVE_LED_TASTO
 70
0
 62
7
  6
CONTINUOUS
370
-3
390
F
  0
LAYER
  5
204
100
AcDbSymbolTableRecord
100
AcDbLayerTableRecord
  2
DRAFT
 70
0
 62
7
  6
CONTINUOUS
370
-3
390
F
  0
LAYER
  5
205
100
AcDbSymbolTableRecord
100
AcDbLayerTableRecord
  2
IGES_SCRITTE
 70
0
 62
7
  6
CONTINUOUS
370
-3
390
F
  0
LAYER
  5
206
100
AcDbSymbolTableRecord
100
AcDbLayerTableRecord
  2
IMPORT_IGES
 70
0
 62
7
  6
CONTINUOUS
370
-3
390
F
  0
LAYER
  5
207
100
AcDbSymbolTableRecord
100
AcDbLayerTableRecord
  2
NOTE
 70
0
 62
7
  6
CONTINUOUS
370
-3
390
F
  0
LAYER
  5
208
100
AcDbSymbolTableRecord
100
AcDbLayerTableRecord
  2
PIANI
 70
0
 62
7
  6
CONTINUOUS
370
-3
390
F
  0
LAYER
  5
209
100
AcDbSymbolTableRecord
100
AcDbLayerTableRecord
  2
PIANI_ORIGINE
 70
0
 62
7
  6
CONTINUOUS
370
-3
390
F
  0
LAYER
  5
20A
100
AcDbSymbolTableRecord
100
AcDbLayerTableRecord
  2
PIANI_RIFERIMENTO
 70
0
 62
7
  6
CONTINUOUS
370
-3
390
F
  0
LAYER
  5
20B
100
AcDbSymbolTableRecord
100
AcDbLayerTableRecord
  2
PUNTI
 70
0
 62
7
  6
CONTINUOUS
370
-3
390
F
  0
LAYER
  5
20C
100
AcDbSymbolTableRecord
100
AcDbLayerTableRecord
  2
RACCORDO
 70
0
 62
7
  6
CONTINUOUS
370
-3
390
F
  0
LAYER
  5
20D
100
AcDbSymbolTableRecord
100
AcDbLayerTableRecord
  2
SIMBOLI
 70
0
 62
7
  6
CONTINUOUS
370
-3
390
F
  0
LAYER
  5
20E
100
AcDbSymbolTableRecord
100
AcDbLayerTableRecord
  2
SMUSSO
 70
0
 62
7
  6
CONTINUOUS
370
-3
390
F
  0
LAYER
  5
20F
100
AcDbSymbolTableRecord
100
AcDbLayerTableRecord
  2
SNAPLINE
 70
0
 62
7
  6
CONTINUOUS
370
-3
390
F
  0
LAYER
  5
210
100
AcDbSymbolTableRecord
100
AcDbLayerTableRecord
  2
SUPERFICI
 70
0
 62
7
  6
CONTINUOUS
370
-3
390
F
  0
LAYER
  5
211
100
AcDbSymbolTableRecord
100
AcDbLayerTableRecord
  2
TRASH
 70
0
 62
7
  6
CONTINUOUS
370
-3
390
F
  0
ENDTAB
  0
TABLE
  2
STYLE
  5
3
100
AcDbSymbolTable
 70
1
  0
STYLE
  5
11
100
AcDbSymbolTableRecord
100
AcDbTextStyleTableRecord
  2
STANDARD
 70
0
 40
0.0
 41
0.8
 50
0.0
 71
0
 42
0.2
  3
txt
  4

  0
STYLE
  5
212
100
AcDbSymbolTableRecord
100
AcDbTextStyleTableRecord
  2
TEXTSTYLE_1
 70
0
 40
0.0
 41
0.8
 50
0.0
 71
0
 42
0.2
  3
gdt
  4

  0
ENDTAB
  0
TABLE
  2
VIEW
  5
6
100
AcDbSymbolTable
 70
0
  0
ENDTAB
  0
TABLE
  2
UCS
  5
7
100
AcDbSymbolTable
 70
0
  0
ENDTAB
  0
TABLE
  2
APPID
  5
9
100
AcDbSymbolTable
 70
1
  0
APPID
  5
213
100
AcDbSymbolTableRecord
100
AcDbRegAppTableRecord
  2
ACAD
 70
0
  0
ENDTAB
  0
TABLE
  2
BLOCK_RECORD
  5
1
100
AcDbSymbolTable
 70
0
  0
BLOCK_RECORD
  5
214
100
AcDbSymbolTableRecord
100
AcDbBlockTableRecord
  2
*Model_Space
  0
BLOCK_RECORD
  5
215
100
AcDbSymbolTableRecord
100
AcDbBlockTableRecord
  2
*Paper_Space
  0
ENDTAB
  0
TABLE
  2
DIMSTYLE
  5
A
100
AcDbSymbolTable
 70
1
100
AcDbDimStyleTable
 71
0
  0
DIMSTYLE
105
216
100
AcDbSymbolTableRecord
100
AcDbDimStyleTableRecord
  2
STANDARD
 70
0
  3

  4

 40
1.0
 41
3.0
 42
0.5
 43
0.38
 44
1.5
 45
0.0
 46
0.0
 47
0.01
 48
0.01
140
3.0
141
0.09
142
0.0
143
25.4
144
1.0
145
0.0
146
1.0
147
0.625
 71
1.0
 72
0.0
 73
0
 74
0
 75
0
 76
0
 77
1
 78
8
170
0
171
2
172
0
173
0
174
0
175
0
176
0
177
0
178
0
270
2
271
2
272
2
273
2
274
2
275
0
280
0
281
0
282
0
283
1
284
8
285
0
286
0
287
3
288
0
340
11
278
44
  0
ENDTAB
  0
ENDSEC
  0
SECTION
  2
BLOCKS
  0
BLOCK
  5
20
100
AcDbEntity
  8
0
100
AcDbBlockBegin
  2
*Model_Space
 70
0
 10
0.0
 20
0.0
 30
0.0
  3
*Model_Space
  1

  0
ENDBLK
  5
21
100
AcDbEntity
  8
0
100
AcDbBlockEnd
  0
BLOCK
  5
1C
100
AcDbEntity
  8
0
100
AcDbBlockBegin
  2
*Paper_Space
 70
0
 10
0.0
 20
0.0
 30
0.0
  3
*Paper_Space
  1

  0
ENDBLK
  5
1D
100
AcDbEntity
  8
0
100
AcDbBlockEnd
  0
ENDSEC
  0
SECTION
  2
ENTITIES
  0
LWPOLYLINE
  5
217
100
AcDbEntity
  8
RACCORDO
100
AcDbPolyline
 62
7
  6
CONTINUOUS
 90
48
 70
0
 10
-35.9171303552
 20
51.1295433944
 10
-35.9466071329
 20
51.1153289575
 10
-35.9759569931
 20
51.1002002877
 10
-36.0051539072
 20
51.0841566492
 10
-36.0341656221
 20
51.0672026774
 10
-36.0629742622
 20
51.0493358684
 10
-36.0915613591
 20
51.0305546165
 10
-36.1198980165
 20
51.0108653946
 10
-36.1479789429
 20
50.9902584892
 10
-36.1757758696
 20
50.9687409731
 10
-36.2032312468
 20
50.9463467554
 10
-36.2303413086
 20
50.9230691485
 10
-36.2570836937
 20
50.8989171909
 10
-36.2833815082
 20
50.8739544012
 10
-36.3092269188
 20
50.8481853718
 10
-36.3346114673
 20
50.8216152511
 10
-36.3594664899
 20
50.7943157335
 10
-36.3837880325
 20
50.7662945031
 10
-36.4075720155
 20
50.7375586168
 10
-36.4307578032
 20
50.7081864551
 10
-36.453344481
 20
50.6781885024
 10
-36.4753315201
 20
50.6475726917
 10
-36.4966666744
 20
50.616422344
 10
-36.5173505973
 20
50.5847511383
 10
-36.5373862936
 20
50.5525664977
 10
-36.5567321782
 20
50.5199510406
 10
-36.5753847247
 20
50.4869300419
 10
-36.5933551639
 20
50.4535013503
 10
-36.6106276007
 20
50.4197118548
 10
-36.6272029543
 20
50.3855775824
 10
-36.643086457
 20
50.3511042416
 10
-36.6582690968
 20
50.316326068
 10
-36.6727523176
 20
50.2812551248
 10
-36.6865378467
 20
50.2458994414
 10
-36.6996181334
 20
50.2102898336
 10
-36.7119926581
 20
50.1744388946
 10
-36.723661855
 20
50.1383526808
 10
-36.7346204797
 20
50.1020537242
 10
-36.7448666401
 20
50.0655510276
 10
-36.7543980217
 20
50.028852791
 10
-36.7632080856
 20
49.991980264
 10
-36.7712931143
 20
49.9549414329
 10
-36.7786485328
 20
49.9177443288
 10
-36.7852663417
 20
49.880409437
 10
-36.7911408016
 20
49.8429450011
 10
-36.7962647894
 20
49.805358733
 10
-36.8006293313
 20
49.7676678654
 10
-36.8042257518
 20
49.729881456
  0
LWPOLYLINE
  5
218
100
AcDbEntity
  8
ASSI
100
AcDbPolyline
 62
7
  6
CONTINUOUS
 90
17
 70
0
 10
-35.8763194474
 20
51.1476505518
 10
-35.9674481014
 20
51.1046878718
 10
-36.0566027401
 20
51.0533777572
 10
-36.1437067786
 20
50.9934656089
 10
-36.2278599402
 20
50.9252493174
 10
-36.3076336946
 20
50.8498105947
 10
-36.3828929891
 20
50.7673495799
 10
-36.4534525942
 20
50.6780414391
 10
-36.5182778869
 20
50.5832953038
 10
-36.5773503579
 20
50.4833537365
 10
-36.6305739381
 20
50.3784127212
 10
-36.6771564869
 20
50.2701827118
 10
-36.717100135
 20
50.1589401609
 10
-36.7503144058
 20
50.0449386736
 10
-36.7762848359
 20
49.9301260287
 10
-36.7949774239
 20
49.8153535716
 10
-36.8064959665
 20
49.7002833533
  0
LINE
  5
219
100
AcDbEntity
  8
RACCORDO
100
AcDbLine
 62
7
  6
CONTINUOUS
 10
-35.887544057
 20
51.1428496618
 11
-35.9171303552
 21
51.1295433944
  0
LINE
  5
21A
100
AcDbEntity
  8
RACCORDO
100
AcDbLine
 62
7
  6
CONTINUOUS
 10
-35.8663007224
 20
51.1518230706
 11
-35.887544057
 21
51.1428496618
  0
LINE
  5
21B
100
AcDbEntity
  8
ASSI
100
AcDbLine
 62
7
  6
CONTINUOUS
 10
-35.8763194474
 20
51.1476505518
 11
-35.8662887722
 21
51.1518280024
  0
LINE
  5
21C
100
AcDbEntity
  8
RACCORDO
100
AcDbLine
 62
7
  6
CONTINUOUS
 10
-35.8662887722
 20
51.1518280024
 11
-33.0069726224
 21
52.327351405
  0
LINE
  5
21D
100
AcDbEntity
  8
ASSI
100
AcDbLine
 62
7
  6
CONTINUOUS
 10
-35.8662887722
 20
51.1518280024
 11
-33.0069726224
 21
52.327351405
  0
LINE
  5
21E
100
AcDbEntity
  8
RACCORDO
100
AcDbLine
 62
253
  6
CONTINUOUS
 10
-35.5703763131
 20
51.1630191526
 11
-32.7143369178
 21
52.3371954144
  0
LINE
  5
21F
100
AcDbEntity
  8
ASSI
100
AcDbLine
 62
253
  6
CONTINUOUS
 10
-35.5703763131
 20
51.1630191526
 11
-32.7143369178
 21
52.3371954144
  0
LWPOLYLINE
  5
220
100
AcDbEntity
  8
RACCORDO
100
AcDbPolyline
 62
253
  6
CONTINUOUS
 90
4
 70
0
 10
-35.8662887722
 20
51.1518280024
 10
-35.8566576985
 20
51.1556438859
 10
-35.8401639945
 20
51.1615294363
 10
-35.823406629
 20
51.1667042104
  0
LWPOLYLINE
  5
221
100
AcDbEntity
  8
ASSI
100
AcDbPolyline
 62
253
  6
CONTINUOUS
 90
18
 70
0
 10
-35.8662887722
 20
51.1518280024
 10
-35.8566576985
 20
51.1556438859
 10
-35.8401639945
 20
51.1615294363
 10
-35.823406629
 20
51.1667042104
 10
-35.8064014911
 20
51.1711633015
 10
-35.7891647051
 20
51.1749024815
 10
-35.7717126147
 20
51.177918205
 10
-35.7540617678
 20
51.1802076124
 10
-35.7362289009
 20
51.181768533
 10
-35.718230923
 20
51.1825994867
 10
-35.7000848995
 20
51.1826996856
 10
-35.6818080366
 20
51.1820690346
 10
-35.663417664
 20
51.1807081319
 10
-35.6449312195
 20
51.1786182677
 10
-35.6263662317
 20
51.1758014238
 10
-35.6077403039
 20
51.1722602708
 10
-35.5890710971
 20
51.1679981667
 10
-35.5703763131
 20
51.1630191526
  0
LWPOLYLINE
  5
222
100
AcDbEntity
  8
RACCORDO
100
AcDbPolyline
 62
7
  6
CONTINUOUS
 90
22
 70
0
 10
-4.162180168
 20
0.6386389288
 10
-4.1337334699
 20
0.6323917372
 10
-4.1050336847
 20
0.6268915253
 10
-4.0761016847
 20
0.6221490157
 10
-4.0469577337
 20
0.6181738976
 10
-4.017622414
 20
0.614975153
 10
-3.9881172909
 20
0.6125610678
 10
-3.9584634069
 20
0.6109387535
 10
-3.9286821513
 20
0.6101143673
 10
-3.8987953423
 20
0.6100933097
 10
-3.868823231
 20
0.6108802576
 10
-3.8387884129
 20
0.612478821
 10
-3.8087154406
 20
0.614891258
 10
-3.7786250566
 20
0.6181192273
 10
-3.7485386592
 20
0.6221636501
 10
-3.7184802967
 20
0.6270239727
 10
-3.688469833
 20
0.6326991262
 10
-3.6585268945
 20
0.6391874763
 10
-3.6286732036
 20
0.6464862215
 10
-3.5989284484
 20
0.6545918172
 10
-3.569311112
 20
0.663500182
 10
-3.5485320074
 20
0.670255773
  0
LWPOLYLINE
  5
223
100
AcDbEntity
  8
ASSI
100
AcDbPolyline
 62
7
  6
CONTINUOUS
 90
10
 70
0
 10
-4.2235965552
 20
0.6549003228
 10
-4.1454064961
 20
0.634858637
 10
-4.0719523263
 20
0.6215341737
 10
-3.9972528896
 20
0.6132229293
 10
-3.9216351366
 20
0.6100367725
 10
-3.8454494291
 20
0.6120543837
 10
-3.7690488375
 20
0.6193177441
 10
-3.692734671
 20
0.6318422772
 10
-3.6168069624
 20
0.6496195764
 10
-3.5488198476
 20
0.6701594049
  0
LWPOLYLINE
  5
224
100
AcDbEntity
  8
RACCORDO
100
AcDbPolyline
 62
7
  6
CONTINUOUS
 90
3
 70
0
 10
-4.2182368984
 20
0.6533269572
 10
-4.1903541063
 20
0.6456214076
 10
-4.162180168
 20
0.6386389288
  0
LINE
  5
225
100
AcDbEntity
  8
RACCORDO
100
AcDbLine
 62
7
  6
CONTINUOUS
 10
-36.0893190289
 20
10.0860254358
 11
-36.0615127233
 21
10.0763291572
  0
LINE
  5
226
100
AcDbEntity
  8
RACCORDO
100
AcDbLine
 62
253
  6
CONTINUOUS
 10
-36.0481618416
 20
10.0721892644
 11
-36.0695336286
 21
10.0798798108
  0
LWPOLYLINE
  5
227
100
AcDbEntity
  8
ASSI
100
AcDbPolyline
 62
253
  6
CONTINUOUS
 90
43
 70
0
 10
-36.0481618416
 20
10.0721892644
 10
-36.0695336286
 20
10.0798798108
 10
-36.0909511214
 20
10.0885625691
 10
-36.1120710713
 20
10.0981134058
 10
-36.1328804183
 20
10.1085264291
 10
-36.1533662902
 20
10.1197952195
 10
-36.173516372
 20
10.1319129402
 10
-36.1933182088
 20
10.1448721321
 10
-36.2127595459
 20
10.1586648148
 10
-36.2318286905
 20
10.1732825988
 10
-36.2505138564
 20
10.1887164945
 10
-36.2688034798
 20
10.2049570071
 10
-36.2866865581
 20
10.2219942404
 10
-36.3041520383
 20
10.2398177228
 10
-36.321189112
 20
10.2584164978
 10
-36.337787531
 20
10.2777792198
 10
-36.3539370369
 20
10.2978939929
 10
-36.369627636
 20
10.3187484596
 10
-36.3848498937
 20
10.3403298917
 10
-36.3995944028
 20
10.3626250354
 10
-36.4138520386
 20
10.3856202005
 10
-36.4276142325
 20
10.4093013501
 10
-36.4408724837
 20
10.4336539534
 10
-36.4536185822
 20
10.4586630569
 10
-36.4658448624
 20
10.4843133749
 10
-36.4775437747
 20
10.5105891748
 10
-36.4887080724
 20
10.5374743249
 10
-36.4993310346
 20
10.5649523664
 10
-36.509406098
 20
10.5930064302
 10
-36.5189270289
 20
10.6216193141
 10
-36.5278881092
 20
10.6507735322
 10
-36.5362838065
 20
10.6804512011
 10
-36.5441089204
 20
10.7106341193
 10
-36.5513587523
 20
10.7413038462
 10
-36.5580288346
 20
10.7724416158
 10
-36.5641150227
 20
10.8040282958
 10
-36.5696136435
 20
10.836044466
 10
-36.5745212997
 20
10.8684704179
 10
-36.5788349632
 20
10.9012863437
 10
-36.582552059
 20
10.9344723015
 10
-36.5856703123
 20
10.9680080108
 10
-36.5881877595
 20
11.0018728586
 10
-36.590102839
 20
11.0360460898
  0
LWPOLYLINE
  5
228
100
AcDbEntity
  8
RACCORDO
100
AcDbPolyline
 62
253
  6
CONTINUOUS
 90
42
 70
0
 10
-36.0695336286
 20
10.0798798108
 10
-36.0909511214
 20
10.0885625691
 10
-36.1120710713
 20
10.0981134058
 10
-36.1328804183
 20
10.1085264291
 10
-36.1533662902
 20
10.1197952195
 10
-36.173516372
 20
10.1319129402
 10
-36.1933182088
 20
10.1448721321
 10
-36.2127595459
 20
10.1586648148
 10
-36.2318286905
 20
10.1732825988
 10
-36.2505138564
 20
10.1887164945
 10
-36.2688034798
 20
10.2049570071
 10
-36.2866865581
 20
10.2219942404
 10
-36.3041520383
 20
10.2398177228
 10
-36.321189112
 20
10.2584164978
 10
-36.337787531
 20
10.2777792198
 10
-36.3539370369
 20
10.2978939929
 10
-36.369627636
 20
10.3187484596
 10
-36.3848498937
 20
10.3403298917
 10
-36.3995944028
 20
10.3626250354
 10
-36.4138520386
 20
10.3856202005
 10
-36.4276142325
 20
10.4093013501
 10
-36.4408724837
 20
10.4336539534
 10
-36.4536185822
 20
10.4586630569
 10
-36.4658448624
 20
10.4843133749
 10
-36.4775437747
 20
10.5105891748
 10
-36.4887080724
 20
10.5374743249
 10
-36.4993310346
 20
10.5649523664
 10
-36.509406098
 20
10.5930064302
 10
-36.5189270289
 20
10.6216193141
 10
-36.5278881092
 20
10.6507735322
 10
-36.5362838065
 20
10.6804512011
 10
-36.5441089204
 20
10.7106341193
 10
-36.5513587523
 20
10.7413038462
 10
-36.5580288346
 20
10.7724416158
 10
-36.5641150227
 20
10.8040282958
 10
-36.5696136435
 20
10.836044466
 10
-36.5745212997
 20
10.8684704179
 10
-36.5788349632
 20
10.9012863437
 10
-36.582552059
 20
10.9344723015
 10
-36.5856703123
 20
10.9680080108
 10
-36.5881877595
 20
11.0018728586
 10
-36.590102839
 20
11.0360460898
  0
LWPOLYLINE
  5
229
100
AcDbEntity
  8
RACCORDO
100
AcDbPolyline
 62
253
  6
CONTINUOUS
 90
28
 70
0
 10
-36.8590334837
 20
11.245639048
 10
-36.8581156045
 20
11.2366147426
 10
-36.8564377752
 20
11.2274424679
 10
-36.8540211401
 20
11.2183233144
 10
-36.8508679411
 20
11.2092657415
 10
-36.8469811031
 20
11.2002781515
 10
-36.8423642319
 20
11.1913688816
 10
-36.8370216101
 20
11.1825461966
 10
-36.830958194
 20
11.1738182807
 10
-36.8241796083
 20
11.1651932305
 10
-36.816692141
 20
11.1566790469
 10
-36.8085027379
 20
11.148283628
 10
-36.7996189959
 20
11.140014762
 10
-36.790049156
 20
11.1318801194
 10
-36.7798020956
 20
11.1238872462
 10
-36.7688873204
 20
11.1160435571
 10
-36.7573149555
 20
11.1083563282
 10
-36.745095736
 20
11.1008326907
 10
-36.7322409969
 20
11.0934796237
 10
-36.718762663
 20
11.0863039483
 10
-36.7046732375
 20
11.0793123211
 10
-36.6899857903
 20
11.0725112278
 10
-36.6747139462
 20
11.0659069774
 10
-36.6588718722
 20
11.0595056963
 10
-36.6424742641
 20
11.0533133228
 10
-36.6255363331
 20
11.0473356011
 10
-36.6080737917
 20
11.0415780765
 10
-36.5901028389
 20
11.0360460898
  0
LWPOLYLINE
  5
22A
100
AcDbEntity
  8
ASSI
100
AcDbPolyline
 62
7
  6
CONTINUOUS
 90
17
 70
0
 10
-36.8591447889
 20
11.2475309061
 10
-36.8567018607
 20
11.2060083752
 10
-36.8452198142
 20
11.0965457797
 10
-36.8266987068
 20
10.9904173401
 10
-36.8011885116
 20
10.8875830786
 10
-36.76879438
 20
10.7884854987
 10
-36.7298853563
 20
10.6940769856
 10
-36.6847713087
 20
10.6047733917
 10
-36.633645833
 20
10.5207083446
 10
-36.5770326142
 20
10.4424924201
 10
-36.5155688947
 20
10.3706380662
 10
-36.4495879446
 20
10.3051767006
 10
-36.3793368581
 20
10.2461129719
 10
-36.305424624
 20
10.1937547992
 10
-36.2283914001
 20
10.1482609774
 10
-36.1483868499
 20
10.1095620762
 10
-36.0658539629
 20
10.0777865448
  0
LWPOLYLINE
  5
22B
100
AcDbEntity
  8
RACCORDO
100
AcDbPolyline
 62
7
  6
CONTINUOUS
 90
46
 70
0
 10
-36.8591452444
 20
11.2475406932
 10
-36.8574537187
 20
11.2170795505
 10
-36.8545927804
 20
11.1794047282
 10
-36.8508927096
 20
11.141985988
 10
-36.846349088
 20
11.1048077754
 10
-36.8409620827
 20
11.0679021881
 10
-36.8347418708
 20
11.0313503316
 10
-36.8276902461
 20
10.9951605241
 10
-36.8198078551
 20
10.9593412041
 10
-36.8111132098
 20
10.9239719963
 10
-36.8016122723
 20
10.8890639051
 10
-36.7913088278
 20
10.854622949
 10
-36.7802282809
 20
10.8207194787
 10
-36.7683798931
 20
10.7873627272
 10
-36.7557723385
 20
10.7545612949
 10
-36.7424402896
 20
10.7223835962
 10
-36.7284007461
 20
10.6908444892
 10
-36.7136652801
 20
10.659945977
 10
-36.6982698231
 20
10.6297366662
 10
-36.6822430643
 20
10.6002424972
 10
-36.6655945274
 20
10.5714522889
 10
-36.6483357441
 20
10.5433606017
 10
-36.6304883598
 20
10.5159794224
 10
-36.6120696155
 20
10.4893130363
 10
-36.5930842152
 20
10.46334824
 10
-36.5735527141
 20
10.4380952853
 10
-36.5534939623
 20
10.4135613734
 10
-36.5329090707
 20
10.3897327529
 10
-36.5118178093
 20
10.3666187532
 10
-36.4902403609
 20
10.344228235
 10
-36.4681773787
 20
10.3225504947
 10
-36.4456491663
 20
10.3015952659
 10
-36.4226762236
 20
10.2813711364
 10
-36.3992584509
 20
10.2618691523
 10
-36.3754159377
 20
10.2430986386
 10
-36.3511700797
 20
10.2250684939
 10
-36.3265217214
 20
10.2077723742
 10
-36.3014916398
 20
10.1912191047
 10
-36.2761015066
 20
10.1754171301
 10
-36.2503527778
 20
10.16036211
 10
-36.2242672148
 20
10.146062223
 10
-36.1978665722
 20
10.1325246956
 10
-36.1711515783
 20
10.119746163
 10
-36.1441447428
 20
10.1077343143
 10
-36.1168677093
 20
10.0964951543
 10
-36.0893190289
 20
10.0860254358
  0
LWPOLYLINE
  5
22C
100
AcDbEntity
  8
ASSI
100
AcDbPolyline
 62
253
  6
CONTINUOUS
 90
29
 70
0
 10
-36.8591448014
 20
11.2475309055
 10
-36.8590530716
 20
11.2458316299
 10
-36.8581156045
 20
11.2366147426
 10
-36.8564377752
 20
11.2274424679
 10
-36.8540211401
 20
11.2183233144
 10
-36.8508679411
 20
11.2092657415
 10
-36.8469811031
 20
11.2002781515
 10
-36.8423642319
 20
11.1913688816
 10
-36.8370216101
 20
11.1825461966
 10
-36.830958194
 20
11.1738182807
 10
-36.8241796083
 20
11.1651932305
 10
-36.816692141
 20
11.1566790469
 10
-36.8085027379
 20
11.148283628
 10
-36.7996189959
 20
11.140014762
 10
-36.790049156
 20
11.1318801194
 10
-36.7798020956
 20
11.1238872462
 10
-36.7688873204
 20
11.1160435571
 10
-36.7573149555
 20
11.1083563282
 10
-36.745095736
 20
11.1008326907
 10
-36.7322409969
 20
11.0934796237
 10
-36.718762663
 20
11.0863039483
 10
-36.7046732375
 20
11.0793123211
 10
-36.6899857903
 20
11.0725112278
 10
-36.6747139462
 20
11.0659069774
 10
-36.6588718722
 20
11.0595056963
 10
-36.6424742641
 20
11.0533133228
 10
-36.6255363331
 20
11.0473356011
 10
-36.6080737917
 20
11.0415780765
 10
-36.5901028389
 20
11.0360460898
  0
LINE
  5
22D
100
AcDbEntity
  8
RACCORDO
100
AcDbLine
 62
7
  6
CONTINUOUS
 10
-37.0310675544
 20
44.254396462
 11
-37.066226576
 21
43.2050096317
  0
LINE
  5
22E
100
AcDbEntity
  8
RACCORDO
100
AcDbLine
 62
7
  6
CONTINUOUS
 10
-37.066226576
 20
43.2050096317
 11
-37.1006869057
 21
42.0943378428
  0
LWPOLYLINE
  5
22F
100
AcDbEntity
  8
ASSI
100
AcDbPolyline
 62
253
  6
CONTINUOUS
 90
30
 70
0
 10
-36.8087142275
 20
49.6620413529
 10
-36.8087643184
 20
49.6606446436
 10
-36.8085649851
 20
49.6537480463
 10
-36.8076245034
 20
49.6468240149
 10
-36.8059437459
 20
49.6398789723
 10
-36.8035242716
 20
49.6329193612
 10
-36.800368325
 20
49.6259516376
 10
-36.7964788336
 20
49.6189822651
 10
-36.7918594056
 20
49.6120177089
 10
-36.7865143262
 20
49.6050644296
 10
-36.7804485537
 20
49.5981288774
 10
-36.773667715
 20
49.591217486
 10
-36.7661781004
 20
49.5843366669
 10
-36.7579866576
 20
49.5774928029
 10
-36.7491009853
 20
49.5706922428
 10
-36.7395293264
 20
49.5639412951
 10
-36.72928056
 20
49.5572462223
 10
-36.7183641933
 20
49.5506132352
 10
-36.7067903528
 20
49.5440484866
 10
-36.6945697751
 20
49.5375580665
 10
-36.6817137965
 20
49.5311479957
 10
-36.6682343429
 20
49.5248242205
 10
-36.6541439184
 20
49.518592607
 10
-36.639455594
 20
49.5124589361
 10
-36.6241829953
 20
49.5064288976
 10
-36.6083402899
 20
49.5005080853
 10
-36.5919421743
 20
49.4947019916
 10
-36.5750038601
 20
49.4890160025
 10
-36.5575410601
 20
49.4834553927
 10
-36.5395699738
 20
49.4780253204
  0
LINE
  5
230
100
AcDbEntity
  8
RACCORDO
100
AcDbLine
 62
7
  6
CONTINUOUS
 10
-36.9920859725
 20
45.3357373598
 11
-37.0310675544
 21
44.254396462
  0
LINE
  5
231
100
AcDbEntity
  8
ASSI
100
AcDbLine
 62
7
  6
CONTINUOUS
 10
-36.9482377799
 20
46.4701889122
 11
-37.0659404578
 21
43.2150537473
  0
LWPOLYLINE
  5
232
100
AcDbEntity
  8
RACCORDO
100
AcDbPolyline
 62
253
  6
CONTINUOUS
 90
30
 70
0
 10
-36.8087124897
 20
49.6620782297
 10
-36.8087643184
 20
49.6606446436
 10
-36.8085649851
 20
49.6537480463
 10
-36.8076245034
 20
49.6468240149
 10
-36.8059437459
 20
49.6398789723
 10
-36.8035242716
 20
49.6329193612
 10
-36.800368325
 20
49.6259516376
 10
-36.7964788336
 20
49.6189822651
 10
-36.7918594056
 20
49.6120177089
 10
-36.7865143262
 20
49.6050644296
 10
-36.7804485537
 20
49.5981288774
 10
-36.773667715
 20
49.591217486
 10
-36.7661781004
 20
49.5843366669
 10
-36.7579866576
 20
49.5774928029
 10
-36.7491009853
 20
49.5706922428
 10
-36.7395293264
 20
49.5639412951
 10
-36.72928056
 20
49.5572462223
 10
-36.7183641933
 20
49.5506132352
 10
-36.7067903528
 20
49.5440484866
 10
-36.6945697751
 20
49.5375580665
 10
-36.6817137965
 20
49.5311479957
 10
-36.6682343429
 20
49.5248242205
 10
-36.6541439184
 20
49.518592607
 10
-36.639455594
 20
49.5124589361
 10
-36.6241829953
 20
49.5064288976
 10
-36.6083402899
 20
49.5005080853
 10
-36.5919421743
 20
49.4947019916
 10
-36.5750038601
 20
49.4890160025
 10
-36.5575410601
 20
49.4834553927
 10
-36.5395699738
 20
49.4780253204
  0
LINE
  5
233
100
AcDbEntity
  8
RACCORDO
100
AcDbLine
 62
7
  6
CONTINUOUS
 10
-36.9057816825
 20
47.5009707919
 11
-36.9486967395
 21
46.4574961199
  0
LINE
  5
234
100
AcDbEntity
  8
RACCORDO
100
AcDbLine
 62
7
  6
CONTINUOUS
 10
-36.9486967395
 20
46.4574961199
 11
-36.9920859725
 21
45.3357373598
  0
LINE
  5
235
100
AcDbEntity
  8
ASSI
100
AcDbLine
 62
7
  6
CONTINUOUS
 10
-36.8087124463
 20
49.6620795743
 11
-36.9482377799
 21
46.4701889122
  0
LWPOLYLINE
  5
236
100
AcDbEntity
  8
RACCORDO
100
AcDbPolyline
 62
7
  6
CONTINUOUS
 90
3
 70
0
 10
-36.8087124469
 20
49.6620795622
 10
-36.8584603219
 20
48.5848310115
 10
-36.9057816825
 20
47.5009707919
  0
LWPOLYLINE
  5
237
100
AcDbEntity
  8
RACCORDO
100
AcDbPolyline
 62
253
  6
CONTINUOUS
 90
61
 70
0
 10
-36.5395699974
 20
49.4780253139
 10
-36.5375631234
 20
49.513683541
 10
-36.5349540933
 20
49.5494894089
 10
-36.5317445246
 20
49.5854209786
 10
-36.5279364367
 20
49.6214561875
 10
-36.5235321599
 20
49.6575730059
 10
-36.5185343245
 20
49.6937494524
 10
-36.5129460138
 20
49.7299634565
 10
-36.50677068
 20
49.7661927451
 10
-36.5000120516
 20
49.8024150001
 10
-36.4926743277
 20
49.8386079937
 10
-36.4847620294
 20
49.8747496
 10
-36.4762799083
 20
49.9108176823
 10
-36.4672332176
 20
49.9467901594
 10
-36.4576275423
 20
49.9826449935
 10
-36.4474686526
 20
50.0183602013
 10
-36.4367628336
 20
50.0539139302
 10
-36.4255166996
 20
50.0892843911
 10
-36.4137370216
 20
50.1244498452
 10
-36.4014310959
 20
50.1593887567
 10
-36.3886065207
 20
50.1940797392
 10
-36.3752710098
 20
50.228501489
 10
-36.3614328204
 20
50.2626329309
 10
-36.3471004998
 20
50.2964531732
 10
-36.3322826624
 20
50.3299414545
 10
-36.3169884778
 20
50.3630772818
 10
-36.3012273972
 20
50.3958403668
 10
-36.2850088986
 20
50.4282105799
 10
-36.268343018
 20
50.4601681136
 10
-36.2512400552
 20
50.4916934053
 10
-36.2337102988
 20
50.5227670723
 10
-36.2157645966
 20
50.553370102
 10
-36.1974140399
 20
50.5834837658
 10
-36.1786696688
 20
50.6130895415
 10
-36.1595430832
 20
50.6421693157
 10
-36.1400461047
 20
50.6707052977
 10
-36.1201904599
 20
50.698679933
 10
-36.0999884365
 20
50.7260761085
 10
-36.0794525211
 20
50.7528770679
 10
-36.0585950596
 20
50.7790663236
 10
-36.0374289535
 20
50.8046278638
 10
-36.0159672912
 20
50.8295460507
 10
-35.9942229855
 20
50.8538055347
 10
-35.9722094838
 20
50.8773914895
 10
-35.949940402
 20
50.9002894882
 10
-35.9274291556
 20
50.9224854014
 10
-35.9046896824
 20
50.9439656559
 10
-35.8817360332
 20
50.9647171339
 10
-35.858582005
 20
50.9847270482
 10
-35.8352419239
 20
51.0039831715
 10
-35.8117302211
 20
51.0224737426
 10
-35.7880610231
 20
51.0401873641
 10
-35.764248946
 20
51.0571132383
 10
-35.7403087407
 20
51.0732410054
 10
-35.7162548696
 20
51.088560654
 10
-35.6921022668
 20
51.1030628043
 10
-35.6678658165
 20
51.1167386519
 10
-35.643559998
 20
51.1295797958
 10
-35.6191996737
 20
51.141578377
 10
-35.5948000815
 20
51.1527270957
 10
-35.5703763131
 20
51.1630191526
  0
LWPOLYLINE
  5
238
100
AcDbEntity
  8
ASSI
100
AcDbPolyline
 62
253
  6
CONTINUOUS
 90
61
 70
0
 10
-36.5395699974
 20
49.4780253139
 10
-36.5375631234
 20
49.513683541
 10
-36.5349540933
 20
49.5494894089
 10
-36.5317445246
 20
49.5854209786
 10
-36.5279364367
 20
49.6214561875
 10
-36.5235321599
 20
49.6575730059
 10
-36.5185343245
 20
49.6937494524
 10
-36.5129460138
 20
49.7299634565
 10
-36.50677068
 20
49.7661927451
 10
-36.5000120516
 20
49.8024150001
 10
-36.4926743277
 20
49.8386079937
 10
-36.4847620294
 20
49.8747496
 10
-36.4762799083
 20
49.9108176823
 10
-36.4672332176
 20
49.9467901594
 10
-36.4576275423
 20
49.9826449935
 10
-36.4474686526
 20
50.0183602013
 10
-36.4367628336
 20
50.0539139302
 10
-36.4255166996
 20
50.0892843911
 10
-36.4137370216
 20
50.1244498452
 10
-36.4014310959
 20
50.1593887567
 10
-36.3886065207
 20
50.1940797392
 10
-36.3752710098
 20
50.228501489
 10
-36.3614328204
 20
50.2626329309
 10
-36.3471004998
 20
50.2964531732
 10
-36.3322826624
 20
50.3299414545
 10
-36.3169884778
 20
50.3630772818
 10
-36.3012273972
 20
50.3958403668
 10
-36.2850088986
 20
50.4282105799
 10
-36.268343018
 20
50.4601681136
 10
-36.2512400552
 20
50.4916934053
 10
-36.2337102988
 20
50.5227670723
 10
-36.2157645966
 20
50.553370102
 10
-36.1974140399
 20
50.5834837658
 10
-36.1786696688
 20
50.6130895415
 10
-36.1595430832
 20
50.6421693157
 10
-36.1400461047
 20
50.6707052977
 10
-36.1201904599
 20
50.698679933
 10
-36.0999884365
 20
50.7260761085
 10
-36.0794525211
 20
50.7528770679
 10
-36.0585950596
 20
50.7790663236
 10
-36.0374289535
 20
50.8046278638
 10
-36.0159672912
 20
50.8295460507
 10
-35.9942229855
 20
50.8538055347
 10
-35.9722094838
 20
50.8773914895
 10
-35.949940402
 20
50.9002894882
 10
-35.9274291556
 20
50.9224854014
 10
-35.9046896824
 20
50.9439656559
 10
-35.8817360332
 20
50.9647171339
 10
-35.858582005
 20
50.9847270482
 10
-35.8352419239
 20
51.0039831715
 10
-35.8117302211
 20
51.0224737426
 10
-35.7880610231
 20
51.0401873641
 10
-35.764248946
 20
51.0571132383
 10
-35.7403087407
 20
51.0732410054
 10
-35.7162548696
 20
51.088560654
 10
-35.6921022668
 20
51.1030628043
 10
-35.6678658165
 20
51.1167386519
 10
-35.643559998
 20
51.1295797958
 10
-35.6191996737
 20
51.141578377
 10
-35.5948000815
 20
51.1527270957
 10
-35.5703763131
 20
51.1630191526
  0
LINE
  5
239
100
AcDbEntity
  8
ASSI
100
AcDbLine
 62
7
  6
CONTINUOUS
 10
-36.8064959665
 20
49.7002833533
 11
-36.8087142275
 21
49.6620413529
  0
LWPOLYLINE
  5
23A
100
AcDbEntity
  8
RACCORDO
100
AcDbPolyline
 62
7
  6
CONTINUOUS
 90
3
 70
0
 10
-36.8042257518
 20
49.729881456
 10
-36.8070446995
 20
49.6920049185
 10
-36.8087124897
 20
49.6620782297
  0
LWPOLYLINE
  5
23B
100
AcDbEntity
  8
RACCORDO
100
AcDbPolyline
 62
7
  6
CONTINUOUS
 90
5
 70
0
 10
-37.2812908483
 20
29.9951319186
 10
-37.2828796145
 20
29.9841450444
 10
-37.2840121869
 20
29.9730873436
 10
-37.2846841964
 20
29.9619589149
 10
-37.2848904574
 20
29.9515985237
  0
LINE
  5
23C
100
AcDbEntity
  8
RACCORDO
100
AcDbLine
 62
7
  6
CONTINUOUS
 10
-36.0270120582
 20
10.06547927
 11
-4.2182368984
 21
0.6533269572
  0
LINE
  5
23D
100
AcDbEntity
  8
ASSI
100
AcDbLine
 62
7
  6
CONTINUOUS
 10
-36.0270097584
 20
10.0654785895
 11
-4.2231683548
 21
0.6547733756
  0
LINE
  5
23E
100
AcDbEntity
  8
RACCORDO
100
AcDbLine
 62
7
  6
CONTINUOUS
 10
-4.2232013924
 20
0.6547831523
 11
-4.2231706854
 21
0.6547740652
  0
LINE
  5
23F
100
AcDbEntity
  8
RACCORDO
100
AcDbLine
 62
253
  6
CONTINUOUS
 10
-36.590102839
 20
11.0360460898
 11
-4.7967166448
 21
1.6284345554
  0
LINE
  5
240
100
AcDbEntity
  8
ASSI
100
AcDbLine
 62
253
  6
CONTINUOUS
 10
-36.590102839
 20
11.0360460898
 11
-4.7967166448
 21
1.6284345554
  0
LINE
  5
241
100
AcDbEntity
  8
ASSI
100
AcDbLine
 62
7
  6
CONTINUOUS
 10
-4.2235936574
 20
0.6548993914
 11
-4.2231706854
 21
0.6547740652
  0
LINE
  5
242
100
AcDbEntity
  8
ASSI
100
AcDbLine
 62
7
  6
CONTINUOUS
 10
-36.0658539629
 20
10.0777865448
 11
-36.0261342937
 21
10.0652203793
  0
LINE
  5
243
100
AcDbEntity
  8
RACCORDO
100
AcDbLine
 62
253
  6
CONTINUOUS
 10
-36.0270097584
 20
10.0654785895
 11
-36.0481618416
 21
10.0721892644
  0
LWPOLYLINE
  5
244
100
AcDbEntity
  8
ASSI
100
AcDbPolyline
 62
7
  6
CONTINUOUS
 90
8
 70
0
 10
-37.2838561715
 20
30.602413952
 10
-37.2809041702
 20
30.5711748888
 10
-37.2741997351
 20
30.540034636
 10
-37.2636206806
 20
30.5091609306
 10
-37.2492040166
 20
30.4791102283
 10
-37.2310692281
 20
30.4502997907
 10
-37.2092243751
 20
30.4228505756
 10
-37.1837020498
 20
30.396907423
  0
LWPOLYLINE
  5
245
100
AcDbEntity
  8
RACCORDO
100
AcDbPolyline
 62
253
  6
CONTINUOUS
 90
30
 70
0
 10
-37.2839731689
 20
30.6093692125
 10
-37.2834101297
 20
30.6018201095
 10
-37.282179754
 20
30.5941981058
 10
-37.2802887938
 20
30.5865901036
 10
-37.2777390974
 20
30.5790023931
 10
-37.2745327796
 20
30.571441251
 10
-37.270672211
 20
30.5639129518
 10
-37.2661608539
 20
30.5564237079
 10
-37.2610024606
 20
30.5489797019
 10
-37.2552010061
 20
30.5415871134
 10
-37.2487615415
 20
30.5342520426
 10
-37.2416894409
 20
30.5269805525
 10
-37.2339902605
 20
30.519778686
 10
-37.2256706005
 20
30.5126523818
 10
-37.2167374298
 20
30.5056075434
 10
-37.2071978735
 20
30.4986500488
 10
-37.1970600252
 20
30.4917856163
 10
-37.186332352
 20
30.4850199028
 10
-37.1750234702
 20
30.4783585597
 10
-37.163142883
 20
30.4718070547
 10
-37.1507004411
 20
30.4653707587
 10
-37.1377061017
 20
30.4590550223
 10
-37.1241708939
 20
30.4528650879
 10
-37.1101063856
 20
30.4468061446
 10
-37.0955241935
 20
30.4408833376
 10
-37.0804360976
 20
30.4351013962
 10
-37.0648539598
 20
30.4294648422
 10
-37.0487899831
 20
30.4239782769
 10
-37.0322586879
 20
30.4186465431
 10
-37.0152757928
 20
30.4134745654
  0
LWPOLYLINE
  5
246
100
AcDbEntity
  8
ASSI
100
AcDbPolyline
 62
253
  6
CONTINUOUS
 90
30
 70
0
 10
-37.2839543116
 20
30.6091163783
 10
-37.2834101297
 20
30.6018201095
 10
-37.282179754
 20
30.5941981058
 10
-37.2802887938
 20
30.5865901036
 10
-37.2777390974
 20
30.5790023931
 10
-37.2745327796
 20
30.571441251
 10
-37.270672211
 20
30.5639129518
 10
-37.2661608539
 20
30.5564237079
 10
-37.2610024606
 20
30.5489797019
 10
-37.2552010061
 20
30.5415871134
 10
-37.2487615415
 20
30.5342520426
 10
-37.2416894409
 20
30.5269805525
 10
-37.2339902605
 20
30.519778686
 10
-37.2256706005
 20
30.5126523818
 10
-37.2167374298
 20
30.5056075434
 10
-37.2071978735
 20
30.4986500488
 10
-37.1970600252
 20
30.4917856163
 10
-37.186332352
 20
30.4850199028
 10
-37.1750234702
 20
30.4783585597
 10
-37.163142883
 20
30.4718070547
 10
-37.1507004411
 20
30.4653707587
 10
-37.1377061017
 20
30.4590550223
 10
-37.1241708939
 20
30.4528650879
 10
-37.1101063856
 20
30.4468061446
 10
-37.0955241935
 20
30.4408833376
 10
-37.0804360976
 20
30.4351013962
 10
-37.0648539598
 20
30.4294648422
 10
-37.0487899831
 20
30.4239782769
 10
-37.0322586879
 20
30.4186465431
 10
-37.0152757928
 20
30.4134745654
  0
LWPOLYLINE
  5
247
100
AcDbEntity
  8
0
100
AcDbPolyline
 62
7
  6
CONTINUOUS
 90
24
 70
0
 10
-36.884774478
 20
30.1399237015
 10
-36.8845835717
 20
30.1357614954
 10
-36.8838546149
 20
30.1308600577
 10
-36.8825781057
 20
30.1259703319
 10
-36.8807562796
 20
30.1210922703
 10
-36.8783965947
 20
30.1162458424
 10
-36.8754968462
 20
30.1114311778
 10
-36.8720592388
 20
30.1066481467
 10
-36.8680978452
 20
30.1019163298
 10
-36.8636105183
 20
30.0972359368
 10
-36.8585994052
 20
30.0926067579
 10
-36.85308502
 20
30.0880477436
 10
-36.8470652997
 20
30.0835591816
 10
-36.8405423073
 20
30.0791407842
 10
-36.8335427461
 20
30.0748106392
 10
-36.8260646627
 20
30.0705691083
 10
-36.8181100105
 20
30.0664158297
 10
-36.8097113538
 20
30.0623678059
 10
-36.8008668724
 20
30.0584254683
 10
-36.7915783864
 20
30.0545883855
 10
-36.7818839205
 20
30.0508722653
 10
-36.7717961493
 20
30.0472823438
 10
-36.761302398
 20
30.043813385
 10
-36.7504026668
 20
30.040465389
  0
LWPOLYLINE
  5
248
100
AcDbEntity
  8
ASSI
100
AcDbPolyline
 62
7
  6
CONTINUOUS
 90
24
 70
0
 10
-36.884774478
 20
30.1399237015
 10
-36.8845835717
 20
30.1357614954
 10
-36.8838546149
 20
30.1308600577
 10
-36.8825781057
 20
30.1259703319
 10
-36.8807562796
 20
30.1210922703
 10
-36.8783965947
 20
30.1162458424
 10
-36.8754968462
 20
30.1114311778
 10
-36.8720592388
 20
30.1066481467
 10
-36.8680978452
 20
30.1019163298
 10
-36.8636105183
 20
30.0972359368
 10
-36.8585994052
 20
30.0926067579
 10
-36.85308502
 20
30.0880477436
 10
-36.8470652997
 20
30.0835591816
 10
-36.8405423073
 20
30.0791407842
 10
-36.8335427461
 20
30.0748106392
 10
-36.8260646627
 20
30.0705691083
 10
-36.8181100105
 20
30.0664158297
 10
-36.8097113538
 20
30.0623678059
 10
-36.8008668724
 20
30.0584254683
 10
-36.7915783864
 20
30.0545883855
 10
-36.7818839205
 20
30.0508722653
 10
-36.7717961493
 20
30.0472823438
 10
-36.761302398
 20
30.043813385
 10
-36.7504026668
 20
30.040465389
  0
LWPOLYLINE
  5
249
100
AcDbEntity
  8
RACCORDO
100
AcDbPolyline
 62
253
  6
CONTINUOUS
 90
19
 70
0
 10
-36.590102839
 20
11.0360460898
 10
-36.636615287
 20
12.0655752741
 10
-36.6804427674
 20
13.0963905008
 10
-36.7215846643
 20
14.128477568
 10
-36.7600403892
 20
15.1618222504
 10
-36.7958094121
 20
16.1964103176
 10
-36.8288912612
 20
17.2322275345
 10
-36.8592854739
 20
18.2692596347
 10
-36.8869916206
 20
19.3074923281
 10
-36.9120093358
 20
20.3469113194
 10
-36.9343382702
 20
21.3875022888
 10
-36.9539781074
 20
22.4292509024
 10
-36.9709285889
 20
23.4721428199
 10
-36.9851894785
 20
24.516163675
 10
-36.9967605734
 20
25.5612990865
 10
-37.0056417214
 20
26.6075346694
 10
-37.0118328011
 20
27.6548560161
 10
-37.0153337216
 20
28.7032486967
 10
-37.0161444333
 20
29.7526982705
  0
LWPOLYLINE
  5
24A
100
AcDbEntity
  8
ASSI
100
AcDbPolyline
 62
253
  6
CONTINUOUS
 90
19
 70
0
 10
-36.590102839
 20
11.0360460898
 10
-36.636615287
 20
12.0655752741
 10
-36.6804427674
 20
13.0963905008
 10
-36.7215846643
 20
14.128477568
 10
-36.7600403892
 20
15.1618222504
 10
-36.7958094121
 20
16.1964103176
 10
-36.8288912612
 20
17.2322275345
 10
-36.8592854739
 20
18.2692596347
 10
-36.8869916206
 20
19.3074923281
 10
-36.9120093358
 20
20.3469113194
 10
-36.9343382702
 20
21.3875022888
 10
-36.9539781074
 20
22.4292509024
 10
-36.9709285889
 20
23.4721428199
 10
-36.9851894785
 20
24.516163675
 10
-36.9967605734
 20
25.5612990865
 10
-37.0056417214
 20
26.6075346694
 10
-37.0118328011
 20
27.6548560161
 10
-37.0153337216
 20
28.7032486967
 10
-37.0161444333
 20
29.7526982705
  0
LINE
  5
24B
100
AcDbEntity
  8
ASSI
100
AcDbLine
 62
7
  6
CONTINUOUS
 10
-36.9902041302
 20
14.3293788695
 11
-36.8591452199
 21
11.2475398973
  0
LWPOLYLINE
  5
24C
100
AcDbEntity
  8
RACCORDO
100
AcDbPolyline
 62
7
  6
CONTINUOUS
 90
4
 70
0
 10
-36.9923687154
 20
14.3856221829
 10
-36.9506206564
 20
13.3356799328
 10
-36.9060916489
 20
12.2870469035
 10
-36.8591452209
 20
11.2475399195
  0
LINE
  5
24D
100
AcDbEntity
  8
ASSI
100
AcDbLine
 62
7
  6
CONTINUOUS
 10
-37.0995311425
 20
17.4974381823
 11
-36.9902041302
 21
14.3293788695
  0
LWPOLYLINE
  5
24E
100
AcDbEntity
  8
RACCORDO
100
AcDbPolyline
 62
7
  6
CONTINUOUS
 90
4
 70
0
 10
-37.1009214351
 20
17.5431461841
 10
-37.0675195496
 20
16.4893693709
 10
-37.0313351704
 20
15.4368568503
 10
-36.9923687154
 20
14.3856221829
  0
LINE
  5
24F
100
AcDbEntity
  8
ASSI
100
AcDbLine
 62
7
  6
CONTINUOUS
 10
-37.1836417604
 20
20.6768229304
 11
-37.0995311425
 21
17.4974381823
  0
LWPOLYLINE
  5
250
100
AcDbEntity
  8
RACCORDO
100
AcDbPolyline
 62
7
  6
CONTINUOUS
 90
4
 70
0
 10
-37.1844280182
 20
20.711915575
 10
-37.1593760425
 20
19.6544343405
 10
-37.131540395
 20
18.5981729212
 10
-37.1009214351
 20
17.5431461841
  0
LINE
  5
251
100
AcDbEntity
  8
ASSI
100
AcDbLine
 62
253
  6
CONTINUOUS
 10
-37.2840220256
 20
30.6122720485
 11
-37.2839543116
 21
30.6091163783
  0
LWPOLYLINE
  5
252
100
AcDbEntity
  8
RACCORDO
100
AcDbPolyline
 62
7
  6
CONTINUOUS
 90
32
 70
0
 10
-37.2838060307
 20
30.6018833456
 10
-37.283774065
 20
30.6003240829
 10
-37.2829904797
 20
30.5884017986
 10
-37.2816838656
 20
30.5766007518
 10
-37.2798645531
 20
30.5649212266
 10
-37.2775322423
 20
30.5533261103
 10
-37.2746922687
 20
30.5418322849
 10
-37.2713512595
 20
30.5304575645
 10
-37.2674975428
 20
30.519166418
 10
-37.2631299936
 20
30.5079708171
 10
-37.2582515109
 20
30.4968914799
 10
-37.2528445522
 20
30.4859060533
 10
-37.246903182
 20
30.4750247574
 10
-37.2404270059
 20
30.4642672181
 10
-37.2333970465
 20
30.4536234943
 10
-37.2258044248
 20
30.4431039959
 10
-37.2176430378
 20
30.4327228038
 10
-37.2088880813
 20
30.4224716207
 10
-37.1995279803
 20
30.4123614156
 10
-37.1895461758
 20
30.4023983131
 10
-37.1788958643
 20
30.392562505
 10
-37.1675208513
 20
30.3828345037
 10
-37.1554225652
 20
30.3732476989
 10
-37.1426344514
 20
30.3638523673
 10
-37.1291241211
 20
30.3546436035
 10
-37.114867441
 20
30.3456244713
 10
-37.0999198854
 20
30.3368442543
 10
-37.0842648503
 20
30.3283018306
 10
-37.0678682993
 20
30.3199886113
 10
-37.0507762737
 20
30.311935788
 10
-37.0329758414
 20
30.3041418566
 10
-37.0144412744
 20
30.2966017872
  0
LINE
  5
253
100
AcDbEntity
  8
ASSI
100
AcDbLine
 62
7
  6
CONTINUOUS
 10
-37.2425261901
 20
23.8671227609
 11
-37.1836417604
 21
20.6768229304
  0
LINE
  5
254
100
AcDbEntity
  8
ASSI
100
AcDbLine
 62
7
  6
CONTINUOUS
 10
-37.2840220226
 20
30.612273464
 11
-37.2838561715
 21
30.602413952
  0
LWPOLYLINE
  5
255
100
AcDbEntity
  8
RACCORDO
100
AcDbPolyline
 62
7
  6
CONTINUOUS
 90
4
 70
0
 10
-37.2428788001
 20
23.8915273509
 10
-37.2261796543
 20
22.8304773899
 10
-37.2066959782
 20
21.7706016805
 10
-37.1844280182
 20
20.711915575
  0
LINE
  5
256
100
AcDbEntity
  8
RACCORDO
100
AcDbLine
 62
253
  6
CONTINUOUS
 10
-37.2848475874
 20
29.9488236116
 11
-37.2848904581
 21
29.9515971075
  0
LINE
  5
257
100
AcDbEntity
  8
RACCORDO
100
AcDbLine
 62
253
  6
CONTINUOUS
 10
-37.2840218631
 20
30.6123818862
 11
-37.2839731689
 21
30.6093692125
  0
LWPOLYLINE
  5
258
100
AcDbEntity
  8
RACCORDO
100
AcDbPolyline
 62
253
  6
CONTINUOUS
 90
26
 70
0
 10
-37.0152758281
 20
30.4134745518
 10
-37.015166826
 20
30.4052833095
 10
-37.0148048389
 20
30.3972015632
 10
-37.0141905569
 20
30.3892447198
 10
-37.013325151
 20
30.381427948
 10
-37.0122102712
 20
30.3737661498
 10
-37.0108480426
 20
30.3662739315
 10
-37.0092410623
 20
30.3589655761
 10
-37.0073923939
 20
30.3518550161
 10
-37.0053055615
 20
30.3449558071
 10
-37.0029845435
 20
30.3382811017
 10
-37.0004337647
 20
30.3318436243
 10
-36.9976580878
 20
30.3256556473
 10
-36.9946628043
 20
30.3197289675
 10
-36.9914536244
 20
30.3140748832
 10
-36.9880366661
 20
30.3087041735
 10
-36.9844184434
 20
30.303627077
 10
-36.980605854
 20
30.2988532725
 10
-36.9766061662
 20
30.2943918608
 10
-36.9724270049
 20
30.2902513471
 10
-36.9680763373
 20
30.2864396247
 10
-36.9635624574
 20
30.2829639604
 10
-36.9588939704
 20
30.27983098
 10
-36.9540797763
 20
30.2770466563
 10
-36.9491290527
 20
30.2746162972
 10
-36.9440512377
 20
30.272544536
  0
LWPOLYLINE
  5
259
100
AcDbEntity
  8
ASSI
100
AcDbPolyline
 62
253
  6
CONTINUOUS
 90
26
 70
0
 10
-37.0152758281
 20
30.4134745518
 10
-37.015166826
 20
30.4052833095
 10
-37.0148048389
 20
30.3972015632
 10
-37.0141905569
 20
30.3892447198
 10
-37.013325151
 20
30.381427948
 10
-37.0122102712
 20
30.3737661498
 10
-37.0108480426
 20
30.3662739315
 10
-37.0092410623
 20
30.3589655761
 10
-37.0073923939
 20
30.3518550161
 10
-37.0053055615
 20
30.3449558071
 10
-37.0029845435
 20
30.3382811017
 10
-37.0004337647
 20
30.3318436243
 10
-36.9976580878
 20
30.3256556473
 10
-36.9946628043
 20
30.3197289675
 10
-36.9914536244
 20
30.3140748832
 10
-36.9880366661
 20
30.3087041735
 10
-36.9844184434
 20
30.303627077
 10
-36.980605854
 20
30.2988532725
 10
-36.9766061662
 20
30.2943918608
 10
-36.9724270049
 20
30.2902513471
 10
-36.9680763373
 20
30.2864396247
 10
-36.9635624574
 20
30.2829639604
 10
-36.9588939704
 20
30.27983098
 10
-36.9540797763
 20
30.2770466563
 10
-36.9491290527
 20
30.2746162972
 10
-36.9440512377
 20
30.272544536
  0
LWPOLYLINE
  5
25A
100
AcDbEntity
  8
RACCORDO
100
AcDbPolyline
 62
7
  6
CONTINUOUS
 90
4
 70
0
 10
-37.2762671751
 20
27.0815715742
 10
-37.2679226934
 20
26.017089549
 10
-37.2567931936
 20
24.9537364148
 10
-37.2428788001
 20
23.8915273509
  0
LINE
  5
25B
100
AcDbEntity
  8
ASSI
100
AcDbLine
 62
7
  6
CONTINUOUS
 10
-37.2761889619
 20
27.0715941387
 11
-37.2425261901
 21
23.8671227609
  0
LINE
  5
25C
100
AcDbEntity
  8
ASSI
100
AcDbLine
 62
7
  6
CONTINUOUS
 10
-37.2848905103
 20
29.9516172736
 11
-37.2761889619
 21
27.0715941387
  0
LWPOLYLINE
  5
25D
100
AcDbEntity
  8
RACCORDO
100
AcDbPolyline
 62
7
  6
CONTINUOUS
 90
4
 70
0
 10
-37.2848905103
 20
29.9516173047
 10
-37.2846007464
 20
29.2138616809
 10
-37.2818265343
 20
28.1471673395
 10
-37.2762671751
 20
27.0815715742
  0
LINE
  5
25E
100
AcDbEntity
  8
0
100
AcDbLine
 62
7
  6
CONTINUOUS
 10
-36.8847757515
 20
30.1399220467
 11
-36.8846247583
 21
30.2547874749
  0
LINE
  5
25F
100
AcDbEntity
  8
ASSI
100
AcDbLine
 62
7
  6
CONTINUOUS
 10
-36.8847757515
 20
30.1399220467
 11
-36.8846247583
 21
30.2547874749
  0
LINE
  5
260
100
AcDbEntity
  8
0
100
AcDbLine
 62
253
  6
CONTINUOUS
 10
-36.7504026668
 20
30.040465389
 11
-36.7501732326
 21
30.215003486
  0
LINE
  5
261
100
AcDbEntity
  8
ASSI
100
AcDbLine
 62
253
  6
CONTINUOUS
 10
-36.7504026668
 20
30.040465389
 11
-36.7501732326
 21
30.215003486
  0
LWPOLYLINE
  5
262
100
AcDbEntity
  8
RACCORDO
100
AcDbPolyline
 62
253
  6
CONTINUOUS
 90
19
 70
0
 10
-37.0152758281
 20
30.4134745518
 10
-37.0117038438
 20
31.4646149959
 10
-37.0054417008
 20
32.5167743137
 10
-36.9964894865
 20
33.5699380134
 10
-36.9848473299
 20
34.624091588
 10
-36.9705153906
 20
35.6792205204
 10
-36.9534938586
 20
36.7353102839
 10
-36.9337829748
 20
37.7923463351
 10
-36.9113830134
 20
38.8503141146
 10
-36.886294271
 20
39.909199052
 10
-36.8585171019
 20
40.9689865668
 10
-36.8280518934
 20
42.0296620618
 10
-36.7948990492
 20
43.091210923
 10
-36.7590590366
 20
44.1536185294
 10
-36.7205323564
 20
45.2168702528
 10
-36.6793195182
 20
46.2809514514
 10
-36.6354210901
 20
47.3458474723
 10
-36.5888376986
 20
48.4115436514
 10
-36.5395699974
 20
49.4780253139
  0
LWPOLYLINE
  5
263
100
AcDbEntity
  8
ASSI
100
AcDbPolyline
 62
253
  6
CONTINUOUS
 90
19
 70
0
 10
-37.0152758281
 20
30.4134745518
 10
-37.0117038438
 20
31.4646149959
 10
-37.0054417008
 20
32.5167743137
 10
-36.9964894865
 20
33.5699380134
 10
-36.9848473299
 20
34.624091588
 10
-36.9705153906
 20
35.6792205204
 10
-36.9534938586
 20
36.7353102839
 10
-36.9337829748
 20
37.7923463351
 10
-36.9113830134
 20
38.8503141146
 10
-36.886294271
 20
39.909199052
 10
-36.8585171019
 20
40.9689865668
 10
-36.8280518934
 20
42.0296620618
 10
-36.7948990492
 20
43.091210923
 10
-36.7590590366
 20
44.1536185294
 10
-36.7205323564
 20
45.2168702528
 10
-36.6793195182
 20
46.2809514514
 10
-36.6354210901
 20
47.3458474723
 10
-36.5888376986
 20
48.4115436514
 10
-36.5395699974
 20
49.4780253139
  0
LWPOLYLINE
  5
264
100
AcDbEntity
  8
RACCORDO
100
AcDbPolyline
 62
7
  6
CONTINUOUS
 90
3
 70
0
 10
-37.2762126059
 20
32.420384197
 10
-37.2817937284
 20
31.3504853075
 10
-37.2840219206
 20
30.6123818896
  0
LINE
  5
265
100
AcDbEntity
  8
ASSI
100
AcDbLine
 62
7
  6
CONTINUOUS
 10
-37.2677851202
 20
33.4972263731
 11
-37.2840219205
 21
30.6123819215
  0
LINE
  5
266
100
AcDbEntity
  8
RACCORDO
100
AcDbLine
 62
7
  6
CONTINUOUS
 10
-37.2566956982
 20
34.563279944
 11
-37.2677851202
 21
33.4972263731
  0
LINE
  5
267
100
AcDbEntity
  8
RACCORDO
100
AcDbLine
 62
7
  6
CONTINUOUS
 10
-37.2677851202
 20
33.4972263731
 11
-37.2762126059
 21
32.420384197
  0
LINE
  5
268
100
AcDbEntity
  8
RACCORDO
100
AcDbLine
 62
7
  6
CONTINUOUS
 10
-37.2427602573
 20
35.636246304
 11
-37.2566956982
 21
34.563279944
  0
LINE
  5
269
100
AcDbEntity
  8
ASSI
100
AcDbLine
 62
7
  6
CONTINUOUS
 10
-37.2257802919
 20
36.7245435279
 11
-37.2677851202
 21
33.4972263731
  0
LWPOLYLINE
  5
26A
100
AcDbEntity
  8
RACCORDO
100
AcDbPolyline
 62
253
  6
CONTINUOUS
 90
37
 70
0
 10
-37.0161444333
 20
29.7526982705
 10
-37.0160137787
 20
29.7609787719
 10
-37.0156301793
 20
29.7693382076
 10
-37.0149943662
 20
29.7777606413
 10
-37.0141075517
 20
29.7862300166
 10
-37.0129714264
 20
29.7947301875
 10
-37.011588156
 20
29.8032449493
 10
-37.0099603778
 20
29.8117580697
 10
-37.0080911948
 20
29.8202533192
 10
-37.0059841705
 20
29.8287145028
 10
-37.0036433217
 20
29.83712549
 10
-37.0010731109
 20
29.8454702463
 10
-36.998278438
 20
29.8537328633
 10
-36.9952646307
 20
29.8618975893
 10
-36.9920374344
 20
29.8699488591
 10
-36.9886030016
 20
29.877871324
 10
-36.9849678794
 20
29.8856498806
 10
-36.981138998
 20
29.8932696999
 10
-36.9771236566
 20
29.9007162558
 10
-36.97292951
 20
29.9079753521
 10
-36.968564554
 20
29.9150331502
 10
-36.9640371097
 20
29.9218761952
 10
-36.9593558083
 20
29.9284914416
 10
-36.9545295742
 20
29.9348662783
 10
-36.9495676079
 20
29.9409885523
 10
-36.9444793691
 20
29.9468465921
 10
-36.9392745577
 20
29.9524292302
 10
-36.9339630963
 20
29.9577258238
 10
-36.9285551104
 20
29.9627262757
 10
-36.9230609099
 20
29.9674210529
 10
-36.9174909687
 20
29.9718012055
 10
-36.9118559055
 20
29.9758583833
 10
-36.9061664626
 20
29.9795848516
 10
-36.9004334866
 20
29.9829735064
 10
-36.8946679065
 20
29.9860178876
 10
-36.8888807139
 20
29.9887121915
 10
-36.8830829414
 20
29.9910512817
  0
LWPOLYLINE
  5
26B
100
AcDbEntity
  8
ASSI
100
AcDbPolyline
 62
253
  6
CONTINUOUS
 90
37
 70
0
 10
-37.0161444333
 20
29.7526982705
 10
-37.0160137787
 20
29.7609787719
 10
-37.0156301793
 20
29.7693382076
 10
-37.0149943662
 20
29.7777606413
 10
-37.0141075517
 20
29.7862300166
 10
-37.0129714264
 20
29.7947301875
 10
-37.011588156
 20
29.8032449493
 10
-37.0099603778
 20
29.8117580697
 10
-37.0080911948
 20
29.8202533192
 10
-37.0059841705
 20
29.8287145028
 10
-37.0036433217
 20
29.83712549
 10
-37.0010731109
 20
29.8454702463
 10
-36.998278438
 20
29.8537328633
 10
-36.9952646307
 20
29.8618975893
 10
-36.9920374344
 20
29.8699488591
 10
-36.9886030016
 20
29.877871324
 10
-36.9849678794
 20
29.8856498806
 10
-36.981138998
 20
29.8932696999
 10
-36.9771236566
 20
29.9007162558
 10
-36.97292951
 20
29.9079753521
 10
-36.968564554
 20
29.9150331502
 10
-36.9640371097
 20
29.9218761952
 10
-36.9593558083
 20
29.9284914416
 10
-36.9545295742
 20
29.9348662783
 10
-36.9495676079
 20
29.9409885523
 10
-36.9444793691
 20
29.9468465921
 10
-36.9392745577
 20
29.9524292302
 10
-36.9339630963
 20
29.9577258238
 10
-36.9285551104
 20
29.9627262757
 10
-36.9230609099
 20
29.9674210529
 10
-36.9174909687
 20
29.9718012055
 10
-36.9118559055
 20
29.9758583833
 10
-36.9061664626
 20
29.9795848516
 10
-36.9004334866
 20
29.9829735064
 10
-36.8946679065
 20
29.9860178876
 10
-36.8888807139
 20
29.9887121915
 10
-36.8830829414
 20
29.9910512817
  0
LINE
  5
26C
100
AcDbEntity
  8
RACCORDO
100
AcDbLine
 62
7
  6
CONTINUOUS
 10
-37.20653656
 20
37.7851395698
 11
-37.2257802919
 21
36.7245435279
  0
LINE
  5
26D
100
AcDbEntity
  8
RACCORDO
100
AcDbLine
 62
7
  6
CONTINUOUS
 10
-37.2257802919
 20
36.7245435279
 11
-37.2427602573
 21
35.636246304
  0
LINE
  5
26E
100
AcDbEntity
  8
RACCORDO
100
AcDbLine
 62
7
  6
CONTINUOUS
 10
-37.1842488823
 20
38.8610359302
 11
-37.20653656
 21
37.7851395698
  0
LINE
  5
26F
100
AcDbEntity
  8
ASSI
100
AcDbLine
 62
7
  6
CONTINUOUS
 10
-37.1584384823
 20
39.967931686
 11
-37.2257802919
 21
36.7245435279
  0
LINE
  5
270
100
AcDbEntity
  8
RACCORDO
100
AcDbLine
 62
7
  6
CONTINUOUS
 10
-37.1313236411
 20
41.0156504502
 11
-37.158591762
 21
39.9605532607
  0
LINE
  5
271
100
AcDbEntity
  8
RACCORDO
100
AcDbLine
 62
7
  6
CONTINUOUS
 10
-37.158591762
 20
39.9605532607
 11
-37.1842488823
 21
38.8610359302
  0
LINE
  5
272
100
AcDbEntity
  8
RACCORDO
100
AcDbLine
 62
7
  6
CONTINUOUS
 10
-37.1006869057
 20
42.0943378428
 11
-37.1313236411
 21
41.0156504502
  0
LINE
  5
273
100
AcDbEntity
  8
ASSI
100
AcDbLine
 62
7
  6
CONTINUOUS
 10
-37.0659404578
 20
43.2150537473
 11
-37.1584384823
 21
39.967931686
  0
LINE
  5
274
100
AcDbEntity
  8
ASSI
100
AcDbLine
 62
7
  6
CONTINUOUS
 10
-37.2827166278
 20
29.9854340643
 11
-37.2848893886
 21
29.9511404048
  0
LWPOLYLINE
  5
275
100
AcDbEntity
  8
ASSI
100
AcDbPolyline
 62
253
  6
CONTINUOUS
 90
9
 70
0
 10
-37.076760331
 20
30.1723055372
 10
-37.0737288228
 20
30.1779386517
 10
-37.0702089155
 20
30.1835398606
 10
-37.066201823
 20
30.1891092384
 10
-37.061717493
 20
30.1946329646
 10
-37.0567547467
 20
30.2001109183
 10
-37.051314763
 20
30.2055432205
 10
-37.0454110269
 20
30.2109164136
 10
-37.0390423968
 20
30.2162303489
  0
LWPOLYLINE
  5
276
100
AcDbEntity
  8
RACCORDO
100
AcDbPolyline
 62
253
  6
CONTINUOUS
 90
7
 70
0
 10
-37.0390423968
 20
30.2162303489
 10
-37.0322100142
 20
30.2214851752
 10
-37.024930789
 20
30.2266678811
 10
-37.017203574
 20
30.2317783063
 10
-37.0090295164
 20
30.2368166112
 10
-37.0004289669
 20
30.2417702653
 10
-36.9914004972
 20
30.2466391968
  0
LWPOLYLINE
  5
277
100
AcDbEntity
  8
ASSI
100
AcDbPolyline
 62
253
  6
CONTINUOUS
 90
9
 70
0
 10
-37.0390423968
 20
30.2162303489
 10
-37.0322100142
 20
30.2214851752
 10
-37.024930789
 20
30.2266678811
 10
-37.017203574
 20
30.2317783063
 10
-37.0090295164
 20
30.2368166112
 10
-37.0004289669
 20
30.2417702653
 10
-36.9914004972
 20
30.2466391968
 10
-36.9819455356
 20
30.2514234776
 10
-36.9720887181
 20
30.2561107928
  0
LINE
  5
278
100
AcDbEntity
  8
CURVE
100
AcDbLine
 62
252
  6
CONTINUOUS
 10
-20.7241653845
 20
12.5767330038
 11
-20.7410806514
 21
12.5720793438
  0
LINE
  5
279
100
AcDbEntity
  8
CURVE
100
AcDbLine
 62
252
  6
CONTINUOUS
 10
-20.7405981376
 20
12.5722038367
 11
-20.7577697374
 21
12.568457198
  0
LINE
  5
27A
100
AcDbEntity
  8
CURVE
100
AcDbLine
 62
252
  6
CONTINUOUS
 10
-20.7573237086
 20
12.5685468407
 11
-20.7747251414
 21
12.5657084218
  0
LINE
  5
27B
100
AcDbEntity
  8
CURVE
100
AcDbLine
 62
252
  6
CONTINUOUS
 10
-20.7743179742
 20
12.5657669659
 11
-20.7919233018
 21
12.5638372697
  0
LINE
  5
27C
100
AcDbEntity
  8
CURVE
100
AcDbLine
 62
252
  6
CONTINUOUS
 10
-21.1102033609
 20
13.8084144407
 11
-21.0910630576
 21
13.8095809097
  0
LINE
  5
27D
100
AcDbEntity
  8
CURVE
100
AcDbLine
 62
252
  6
CONTINUOUS
 10
-20.7915568112
 20
12.5638691621
 11
-20.8093406567
 21
12.5628479962
  0
LINE
  5
27E
100
AcDbEntity
  8
CURVE
100
AcDbLine
 62
252
  6
CONTINUOUS
 10
-20.8090160965
 20
12.5628583791
 11
-20.8269537255
 21
12.5627436928
  0
LINE
  5
27F
100
AcDbEntity
  8
CURVE
100
AcDbLine
 62
252
  6
CONTINUOUS
 10
-20.8266717308
 20
12.562738167
 11
-20.8447393512
 21
12.5635227989
  0
LINE
  5
280
100
AcDbEntity
  8
CURVE
100
AcDbLine
 62
252
  6
CONTINUOUS
 10
-20.8444997103
 20
12.5635064753
 11
-20.8626744577
 21
12.5651825911
  0
LWPOLYLINE
  5
281
100
AcDbEntity
  8
CURVE
100
AcDbPolyline
 62
252
  6
CONTINUOUS
 90
8
 70
0
 10
-20.9538164483
 20
13.7886424465
 10
-20.9737293914
 20
13.7947081557
 10
-20.9936041734
 20
13.7997610843
 10
-21.0134076992
 20
13.8037925461
 10
-21.0331068741
 20
13.8067938553
 10
-21.0526686845
 20
13.8087577413
 10
-21.0720604411
 20
13.8096825959
 10
-21.0912495359
 20
13.8095682266
  0
LWPOLYLINE
  5
282
100
AcDbEntity
  8
CURVE
100
AcDbPolyline
 62
252
  6
CONTINUOUS
 90
4
 70
0
 10
-20.9538074801
 20
13.7886341956
 10
-20.9339307841
 20
13.7815807318
 10
-20.9140883637
 20
13.7735395455
 10
-20.8943141015
 20
13.7645202958
  0
LWPOLYLINE
  5
283
100
AcDbEntity
  8
RACCORDO
100
AcDbPolyline
 62
253
  6
CONTINUOUS
 90
5
 70
0
 10
-36.9914004972
 20
30.2466391968
 10
-36.9819455356
 20
30.2514234776
 10
-36.9720887181
 20
30.2561107928
 10
-36.9618382568
 20
30.2606970375
 10
-36.9511859395
 20
30.2651863166
  0
LWPOLYLINE
  5
284
100
AcDbEntity
  8
ASSI
100
AcDbPolyline
 62
253
  6
CONTINUOUS
 90
3
 70
0
 10
-36.9720887181
 20
30.2561107928
 10
-36.9618382568
 20
30.2606970375
 10
-36.9511859395
 20
30.2651863166
  0
LWPOLYLINE
  5
285
100
AcDbEntity
  8
RACCORDO
100
AcDbPolyline
 62
7
  6
CONTINUOUS
 90
30
 70
0
 10
-37.0363498995
 20
30.2577980202
 10
-37.0504875225
 20
30.2516153875
 10
-37.0642604392
 20
30.2452274081
 10
-37.0776659717
 20
30.2386309672
 10
-37.0906947628
 20
30.231826253
 10
-37.1033521283
 20
30.2248055571
 10
-37.1156414339
 20
30.2175612855
 10
-37.1275552276
 20
30.2100916933
 10
-37.1391000201
 20
30.2023856811
 10
-37.1502751035
 20
30.1944355874
 10
-37.1610654577
 20
30.1862443066
 10
-37.1714783386
 20
30.1777978671
 10
-37.1815068958
 20
30.1690918996
 10
-37.1911182837
 20
30.1601472862
 10
-37.2003159847
 20
30.1509546607
 10
-37.2090933758
 20
30.1415132617
 10
-37.2174079152
 20
30.1318656558
 10
-37.2252609811
 20
30.1220115648
 10
-37.232649397
 20
30.1119560154
 10
-37.2395328223
 20
30.1017617308
 10
-37.245904938
 20
30.0914555744
 10
-37.251780302
 20
30.0810326165
 10
-37.2571561481
 20
30.0705172636
 10
-37.2620305995
 20
30.059938201
 10
-37.2664158295
 20
30.0492962645
 10
-37.2703269825
 20
30.0385771126
 10
-37.2737646915
 20
30.027799153
 10
-37.276732561
 20
30.0169745205
 10
-37.2792418553
 20
30.0060794454
 10
-37.2812908483
 20
29.9951319186
  0
LWPOLYLINE
  5
286
100
AcDbEntity
  8
ASSI
100
AcDbPolyline
 62
7
  6
CONTINUOUS
 90
13
 70
0
 10
-37.0121883246
 20
30.2675753631
 10
-37.0414522365
 20
30.2556082239
 10
-37.077666183
 20
30.2386308601
 10
-37.1108610953
 20
30.2204320834
 10
-37.1412357555
 20
30.2009053343
 10
-37.1690540368
 20
30.1798154967
 10
-37.1944426871
 20
30.1569009085
 10
-37.2172067144
 20
30.1321079528
 10
-37.2370281215
 20
30.1055738092
 10
-37.2537698652
 20
30.0772628845
 10
-37.2671673435
 20
30.0473388198
 10
-37.2768390726
 20
30.0165506543
 10
-37.2827166278
 20
29.9854340643
  0
LINE
  5
287
100
AcDbEntity
  8
CURVE
100
AcDbLine
 62
252
  6
CONTINUOUS
 10
-21.1653271361
 20
13.7987146569
 11
-21.1470464129
 21
13.8030395734
  0
LINE
  5
288
100
AcDbEntity
  8
CURVE
100
AcDbLine
 62
252
  6
CONTINUOUS
 10
-21.1472747691
 20
13.8029878484
 11
-21.1286732387
 21
13.8062595697
  0
LINE
  5
289
100
AcDbEntity
  8
CURVE
100
AcDbLine
 62
252
  6
CONTINUOUS
 10
-21.128889308
 20
13.8062210455
 11
-21.1100012055
 21
13.8084397628
  0
LINE
  5
28A
100
AcDbEntity
  8
CURVE
100
AcDbLine
 62
252
  6
CONTINUOUS
 10
-20.8744445826
 20
13.7544274669
 11
-20.8941795991
 21
13.764455495
  0
LINE
  5
28B
100
AcDbEntity
  8
CURVE
100
AcDbLine
 62
252
  6
CONTINUOUS
 10
-20.8548346213
 20
13.743441751
 11
-20.8746409688
 21
13.7545342877
  0
LINE
  5
28C
100
AcDbEntity
  8
CURVE
100
AcDbLine
 62
252
  6
CONTINUOUS
 10
-20.8353805525
 20
13.7315186959
 11
-20.8550982915
 21
13.7435994096
  0
LINE
  5
28D
100
AcDbEntity
  8
CURVE
100
AcDbLine
 62
252
  6
CONTINUOUS
 10
-20.8161132134
 20
13.7186786503
 11
-20.8357144841
 21
13.7317351963
  0
LINE
  5
28E
100
AcDbEntity
  8
CURVE
100
AcDbLine
 62
252
  6
CONTINUOUS
 10
-20.7970634412
 20
13.7049419628
 11
-20.8165179612
 21
13.718961182
  0
LINE
  5
28F
100
AcDbEntity
  8
CURVE
100
AcDbLine
 62
252
  6
CONTINUOUS
 10
-20.7782620732
 20
13.6903289823
 11
-20.7975371375
 21
13.7052969014
  0
LWPOLYLINE
  5
290
100
AcDbEntity
  8
CURVE
100
AcDbPolyline
 62
252
  6
CONTINUOUS
 90
16
 70
0
 10
-21.132682162
 20
12.6915120856
 10
-21.115580064
 20
12.6775963914
 10
-21.098232139
 20
12.6643918736
 10
-21.080663669
 20
12.6519191924
 10
-21.0628999359
 20
12.6401990075
 10
-21.044966733
 20
12.6292507896
 10
-21.0268918987
 20
12.6190892511
 10
-21.0087037827
 20
12.6097279153
 10
-20.9904307345
 20
12.6011803052
 10
-20.9721011038
 20
12.5934599439
 10
-20.9537432403
 20
12.5865803546
 10
-20.9353854935
 20
12.5805550603
 10
-20.9170554848
 20
12.5753959054
 10
-20.8987779224
 20
12.5711080191
 10
-20.8805767859
 20
12.5676948517
 10
-20.8624760553
 20
12.5651598536
  0
LINE
  5
291
100
AcDbEntity
  8
CURVE
100
AcDbLine
 62
252
  6
CONTINUOUS
 10
-20.7597399466
 20
13.6748600574
 11
-20.7788004275
 21
13.690761889
  0
LINE
  5
292
100
AcDbEntity
  8
CURVE
100
AcDbLine
 62
252
  6
CONTINUOUS
 10
-21.132682162
 20
12.6915120856
 11
-21.149646201
 21
12.7062366318
  0
LINE
  5
293
100
AcDbEntity
  8
CURVE
100
AcDbLine
 62
252
  6
CONTINUOUS
 10
-20.7415281533
 20
13.6585577357
 11
-20.7603362458
 21
13.6753756792
  0
LINE
  5
294
100
AcDbEntity
  8
CURVE
100
AcDbLine
 62
252
  6
CONTINUOUS
 10
-21.1495131508
 20
12.7061182963
 11
-21.1662118413
 21
12.721550144
  0
LINE
  5
295
100
AcDbEntity
  8
CURVE
100
AcDbLine
 62
252
  6
CONTINUOUS
 10
-20.7236588033
 20
13.6414533602
 11
-20.742173465
 21
13.659159315
  0
LINE
  5
296
100
AcDbEntity
  8
CURVE
100
AcDbLine
 62
252
  6
CONTINUOUS
 10
-21.1660477487
 20
12.7213943637
 11
-21.182457246
 21
12.737518935
  0
LINE
  5
297
100
AcDbEntity
  8
CURVE
100
AcDbLine
 62
252
  6
CONTINUOUS
 10
-20.706164261
 20
13.6235804728
 11
-20.7243427894
 21
13.6421398735
  0
LINE
  5
298
100
AcDbEntity
  8
CURVE
100
AcDbLine
 62
252
  6
CONTINUOUS
 10
-21.1822606734
 20
12.7373196276
 11
-21.1983580027
 21
12.7541215326
  0
LINE
  5
299
100
AcDbEntity
  8
CURVE
100
AcDbLine
 62
252
  6
CONTINUOUS
 10
-21.1981280334
 20
12.7538724278
 11
-21.2138955944
 21
12.7713321524
  0
LINE
  5
29A
100
AcDbEntity
  8
CURVE
100
AcDbLine
 62
252
  6
CONTINUOUS
 10
-21.2136314984
 20
12.7710271022
 11
-21.2290529781
 21
12.7891239319
  0
LINE
  5
29B
100
AcDbEntity
  8
CURVE
100
AcDbLine
 62
252
  6
CONTINUOUS
 10
-21.2287541282
 20
12.7887569886
 11
-21.2438131104
 21
12.8074700087
  0
LWPOLYLINE
  5
29C
100
AcDbEntity
  8
RACCORDO
100
AcDbPolyline
 62
253
  6
CONTINUOUS
 90
61
 70
0
 10
-3.7590802385
 20
41.7501081136
 10
-3.7839565984
 20
41.7399499777
 10
-3.8088077481
 20
41.7289348742
 10
-3.8336185958
 20
41.7170696022
 10
-3.8583741724
 20
41.704361541
 10
-3.8830593466
 20
41.6908184701
 10
-3.9076588336
 20
41.6764485521
 10
-3.9321577562
 20
41.6612605935
 10
-3.956541173
 20
41.6452639719
 10
-3.9807937938
 20
41.6284684538
 10
-4.0049008562
 20
41.6108843957
 10
-4.0288477555
 20
41.5925225986
 10
-4.0526195716
 20
41.573394225
 10
-4.0762018694
 20
41.553511035
 10
-4.0995803267
 20
41.532885257
 10
-4.1227403644
 20
41.5115294469
 10
-4.1456679234
 20
41.4894567199
 10
-4.1683490742
 20
41.4666806517
 10
-4.1907696448
 20
41.4432151479
 10
-4.2129160105
 20
41.4190746329
 10
-4.2347747325
 20
41.3942739353
 10
-4.2563321689
 20
41.3688281891
 10
-4.2775752203
 20
41.3427530289
 10
-4.2984909961
 20
41.3160644695
 10
-4.3190664529
 20
41.2887787923
 10
-4.3392890923
 20
41.2609127501
 10
-4.3591466384
 20
41.2324834595
 10
-4.3786267023
 20
41.2035082789
 10
-4.3977174495
 20
41.1740049954
 10
-4.416407293
 20
41.143991726
 10
-4.4346845695
 20
41.1134868086
 10
-4.4525381738
 20
41.0825089676
 10
-4.469957272
 20
41.05107722
 10
-4.4869309951
 20
41.0192107763
 10
-4.5034490278
 20
40.9869291949
 10
-4.5195013497
 20
40.9542522877
 10
-4.5350779478
 20
40.9212000261
 10
-4.5501693546
 20
40.8877926935
 10
-4.5647664168
 20
40.8540507879
 10
-4.5788600341
 20
40.8199949266
 10
-4.592441642
 20
40.7856459966
 10
-4.6055030004
 20
40.7510250778
 10
-4.6180359606
 20
40.7161533455
 10
-4.6300329064
 20
40.6810521805
 10
-4.6414865595
 20
40.6457431243
 10
-4.6523897679
 20
40.6102478026
 10
-4.6627358989
 20
40.5745879992
 10
-4.6725186859
 20
40.5387855721
 10
-4.681732033
 20
40.5028624083
 10
-4.6903703354
 20
40.4668405399
 10
-4.6984283597
 20
40.4307420537
 10
-4.7059010881
 20
40.3945890077
 10
-4.7127839808
 20
40.3584035223
 10
-4.7190728573
 20
40.3222078308
 10
-4.7247637786
 20
40.286024189
 10
-4.7298532705
 20
40.2498748635
 10
-4.7343382715
 20
40.2137819312
 10
-4.7382160056
 20
40.1777673305
 10
-4.7414840939
 20
40.1418530767
 10
-4.7441405656
 20
40.1060612466
 10
-4.7461838032
 20
40.0704137795
  0
LWPOLYLINE
  5
29D
100
AcDbEntity
  8
ASSI
100
AcDbPolyline
 62
253
  6
CONTINUOUS
 90
61
 70
0
 10
-3.7590802385
 20
41.7501081136
 10
-3.7839565984
 20
41.7399499777
 10
-3.8088077481
 20
41.7289348742
 10
-3.8336185958
 20
41.7170696022
 10
-3.8583741724
 20
41.704361541
 10
-3.8830593466
 20
41.6908184701
 10
-3.9076588336
 20
41.6764485521
 10
-3.9321577562
 20
41.6612605935
 10
-3.956541173
 20
41.6452639719
 10
-3.9807937938
 20
41.6284684538
 10
-4.0049008562
 20
41.6108843957
 10
-4.0288477555
 20
41.5925225986
 10
-4.0526195716
 20
41.573394225
 10
-4.0762018694
 20
41.553511035
 10
-4.0995803267
 20
41.532885257
 10
-4.1227403644
 20
41.5115294469
 10
-4.1456679234
 20
41.4894567199
 10
-4.1683490742
 20
41.4666806517
 10
-4.1907696448
 20
41.4432151479
 10
-4.2129160105
 20
41.4190746329
 10
-4.2347747325
 20
41.3942739353
 10
-4.2563321689
 20
41.3688281891
 10
-4.2775752203
 20
41.3427530289
 10
-4.2984909961
 20
41.3160644695
 10
-4.3190664529
 20
41.2887787923
 10
-4.3392890923
 20
41.2609127501
 10
-4.3591466384
 20
41.2324834595
 10
-4.3786267023
 20
41.2035082789
 10
-4.3977174495
 20
41.1740049954
 10
-4.416407293
 20
41.143991726
 10
-4.4346845695
 20
41.1134868086
 10
-4.4525381738
 20
41.0825089676
 10
-4.469957272
 20
41.05107722
 10
-4.4869309951
 20
41.0192107763
 10
-4.5034490278
 20
40.9869291949
 10
-4.5195013497
 20
40.9542522877
 10
-4.5350779478
 20
40.9212000261
 10
-4.5501693546
 20
40.8877926935
 10
-4.5647664168
 20
40.8540507879
 10
-4.5788600341
 20
40.8199949266
 10
-4.592441642
 20
40.7856459966
 10
-4.6055030004
 20
40.7510250778
 10
-4.6180359606
 20
40.7161533455
 10
-4.6300329064
 20
40.6810521805
 10
-4.6414865595
 20
40.6457431243
 10
-4.6523897679
 20
40.6102478026
 10
-4.6627358989
 20
40.5745879992
 10
-4.6725186859
 20
40.5387855721
 10
-4.681732033
 20
40.5028624083
 10
-4.6903703354
 20
40.4668405399
 10
-4.6984283597
 20
40.4307420537
 10
-4.7059010881
 20
40.3945890077
 10
-4.7127839808
 20
40.3584035223
 10
-4.7190728573
 20
40.3222078308
 10
-4.7247637786
 20
40.286024189
 10
-4.7298532705
 20
40.2498748635
 10
-4.7343382715
 20
40.2137819312
 10
-4.7382160056
 20
40.1777673305
 10
-4.7414840939
 20
40.1418530767
 10
-4.7441405656
 20
40.1060612466
 10
-4.7461838032
 20
40.0704137795
  0
LINE
  5
29E
100
AcDbEntity
  8
RACCORDO
100
AcDbLine
 62
253
  6
CONTINUOUS
 10
-36.9511859395
 20
30.2651863166
 11
-36.9401317663
 21
30.2695786302
  0
LINE
  5
29F
100
AcDbEntity
  8
ASSI
100
AcDbLine
 62
253
  6
CONTINUOUS
 10
-36.9511859395
 20
30.2651863166
 11
-36.9401317663
 21
30.2695786302
  0
LWPOLYLINE
  5
2A0
100
AcDbEntity
  8
RACCORDO
100
AcDbPolyline
 62
7
  6
CONTINUOUS
 90
3
 70
0
 10
-37.0123674368
 20
30.2675064623
 10
-37.0218406034
 20
30.2637822854
 10
-37.0363498995
 20
30.2577980202
  0
LINE
  5
2A1
100
AcDbEntity
  8
RACCORDO
100
AcDbLine
 62
7
  6
CONTINUOUS
 10
-37.0123748256
 20
30.2675036393
 11
-36.9745329195
 21
30.2821046114
  0
LINE
  5
2A2
100
AcDbEntity
  8
ASSI
100
AcDbLine
 62
7
  6
CONTINUOUS
 10
-37.0123748256
 20
30.2675036393
 11
-36.973881841
 21
30.2823558244
  0
LINE
  5
2A3
100
AcDbEntity
  8
RACCORDO
100
AcDbLine
 62
253
  6
CONTINUOUS
 10
-0.7885367108
 20
42.8904027879
 11
-3.7590802385
 21
41.7501081136
  0
LINE
  5
2A4
100
AcDbEntity
  8
ASSI
100
AcDbLine
 62
253
  6
CONTINUOUS
 10
-0.7885367108
 20
42.8904027879
 11
-3.7590802385
 21
41.7501081136
  0
LWPOLYLINE
  5
2A5
100
AcDbEntity
  8
RACCORDO
100
AcDbPolyline
 62
253
  6
CONTINUOUS
 90
5
 70
0
 10
-37.0123674461
 20
30.2675064863
 10
-37.0102669175
 20
30.2682905272
 10
-37.0043209842
 20
30.2702338757
 10
-36.9982533353
 20
30.2718168379
 10
-36.9920755207
 20
30.2730364004
  0
LWPOLYLINE
  5
2A6
100
AcDbEntity
  8
ASSI
100
AcDbPolyline
 62
253
  6
CONTINUOUS
 90
13
 70
0
 10
-37.0121883338
 20
30.2675753871
 10
-37.0102669175
 20
30.2682905272
 10
-37.0043209842
 20
30.2702338757
 10
-36.9982533353
 20
30.2718168379
 10
-36.9920755207
 20
30.2730364004
 10
-36.9857993003
 20
30.2738902419
 10
-36.9794366213
 20
30.2743767369
 10
-36.9729995953
 20
30.2744949593
 10
-36.9665004756
 20
30.2742446843
 10
-36.9599516338
 20
30.2736263881
 10
-36.9533655357
 20
30.2726412477
 10
-36.9467547186
 20
30.2712911384
 10
-36.9401317663
 20
30.2695786302
  0
LINE
  5
2A7
100
AcDbEntity
  8
RACCORDO
100
AcDbLine
 62
7
  6
CONTINUOUS
 10
-4.2748877761
 20
20.8616742801
 11
-4.254361014
 21
20.8674702247
  0
LINE
  5
2A8
100
AcDbEntity
  8
ASSI
100
AcDbLine
 62
7
  6
CONTINUOUS
 10
-37.1837020498
 20
30.396907423
 11
-37.154592219
 21
30.3726157395
  0
LINE
  5
2A9
100
AcDbEntity
  8
CURVE
100
AcDbLine
 62
252
  6
CONTINUOUS
 10
-20.6890768909
 20
13.6049726154
 11
-20.7068753815
 21
13.6243459401
  0
LINE
  5
2AA
100
AcDbEntity
  8
CURVE
100
AcDbLine
 62
252
  6
CONTINUOUS
 10
-20.6724290577
 20
13.5856633299
 11
-20.6898024035
 21
13.6058061005
  0
LINE
  5
2AB
100
AcDbEntity
  8
CURVE
100
AcDbLine
 62
252
  6
CONTINUOUS
 10
-20.6562531258
 20
13.5656861582
 11
-20.6731550178
 21
13.58654894
  0
LINE
  5
2AC
100
AcDbEntity
  8
CURVE
100
AcDbLine
 62
252
  6
CONTINUOUS
 10
-21.243478983
 20
12.8070354245
 11
-21.2581589483
 21
12.8263435204
  0
LINE
  5
2AD
100
AcDbEntity
  8
CURVE
100
AcDbLine
 62
252
  6
CONTINUOUS
 10
-20.6405814597
 20
13.5450746421
 11
-20.6569643867
 21
13.5666030442
  0
LINE
  5
2AE
100
AcDbEntity
  8
CURVE
100
AcDbLine
 62
252
  6
CONTINUOUS
 10
-21.2577891227
 20
12.8258357476
 11
-21.2720734485
 21
12.8457176045
  0
LWPOLYLINE
  5
2AF
100
AcDbEntity
  8
CURVE
100
AcDbPolyline
 62
252
  6
CONTINUOUS
 90
7
 70
0
 10
-20.6412616727
 20
13.5459969986
 10
-20.6260774719
 20
13.5247631143
 10
-20.6114401159
 20
13.5029486038
 10
-20.5973773701
 20
13.4806044056
 10
-20.583917
 20
13.4577814579
 10
-20.571086771
 20
13.4345306988
 10
-20.5589144485
 20
13.4109030666
  0
LINE
  5
2B0
100
AcDbEntity
  8
CURVE
100
AcDbLine
 62
252
  6
CONTINUOUS
 10
-21.2716676073
 20
12.8451312955
 11
-21.2855395679
 21
12.8655653985
  0
LWPOLYLINE
  5
2B1
100
AcDbEntity
  8
CURVE
100
AcDbPolyline
 62
252
  6
CONTINUOUS
 90
6
 70
0
 10
-21.2850974968
 20
12.8648954058
 10
-21.2985400116
 20
12.885859399
 10
-21.3110564774
 20
12.9065695376
 10
-21.3230704115
 20
12.9276651053
 10
-21.3345632602
 20
12.9491153928
 10
-21.3455164695
 20
12.9708896907
  0
LWPOLYLINE
  5
2B2
100
AcDbEntity
  8
CURVE
100
AcDbPolyline
 62
252
  6
CONTINUOUS
 90
6
 70
0
 10
-21.3476134153
 20
12.9752577872
 10
-21.3381791462
 20
12.9561873739
 10
-21.3283369869
 20
12.9373647022
 10
-21.3180974904
 20
12.9188057073
 10
-21.307470936
 20
12.9005286217
 10
-21.2964675345
 20
12.8825522523
  0
LWPOLYLINE
  5
2B3
100
AcDbEntity
  8
RACCORDO
100
AcDbPolyline
 62
253
  6
CONTINUOUS
 90
61
 70
0
 10
-3.1620251743
 20
40.8185924876
 10
-3.1737640551
 20
40.8138832069
 10
-3.1854775183
 20
40.808780396
 10
-3.1971655639
 20
40.8032840549
 10
-3.2088355303
 20
40.7973902542
 10
-3.2204800791
 20
40.7911029232
 10
-3.2320771953
 20
40.7844338503
 10
-3.2436265935
 20
40.7773824084
 10
-3.2551285591
 20
40.7699492246
 10
-3.2665619326
 20
40.7621479686
 10
-3.2779265737
 20
40.7539779705
 10
-3.2892226227
 20
40.7454399002
 10
-3.3004293411
 20
40.736549437
 10
-3.3115465664
 20
40.7273059334
 10
-3.322574461
 20
40.717710037
 10
-3.3334927737
 20
40.7077793694
 10
-3.3443013078
 20
40.6975133106
 10
-3.3550002599
 20
40.6869124806
 10
-3.3655699697
 20
40.6759963614
 10
-3.3760101967
 20
40.6647643755
 10
-3.3863211813
 20
40.6532171004
 10
-3.3964839841
 20
40.6413757502
 10
-3.4064983313
 20
40.6292397862
 10
-3.4163644966
 20
40.616809747
 10
-3.426064362
 20
40.6041084632
 10
-3.4355976229
 20
40.5911354346
 10
-3.4449645838
 20
40.5778911613
 10
-3.4541480398
 20
40.5643999739
 10
-3.4631476534
 20
40.5506614188
 10
-3.4719637621
 20
40.5366759495
 10
-3.4805801736
 20
40.5224692581
 10
-3.4889965206
 20
40.5080409382
 10
-3.4972131703
 20
40.4933913961
 10
-3.5052150323
 20
40.478547543
 10
-3.5130017114
 20
40.4635090228
 10
-3.5205736027
 20
40.4482761915
 10
-3.5279168022
 20
40.432877028
 10
-3.5350308889
 20
40.4173112287
 10
-3.5419162836
 20
40.4015790972
 10
-3.5485603449
 20
40.3857095236
 10
-3.5549626302
 20
40.3697022534
 10
-3.5611235822
 20
40.3535575412
 10
-3.5670318866
 20
40.3373050407
 10
-3.5726870802
 20
40.3209445504
 10
-3.5780896264
 20
40.304476272
 10
-3.5832296012
 20
40.2879304644
 10
-3.5881065197
 20
40.2713069924
 10
-3.5927208668
 20
40.2546059914
 10
-3.5970641738
 20
40.2378581257
 10
-3.6011359433
 20
40.221063312
 10
-3.6049366727
 20
40.2042216338
 10
-3.6084593846
 20
40.1873640057
 10
-3.6117035699
 20
40.1704903782
 10
-3.6146697378
 20
40.1536008008
 10
-3.6173524395
 20
40.1367263376
 10
-3.6197511732
 20
40.1198666303
 10
-3.6218664408
 20
40.1030220372
 10
-3.6236942988
 20
40.086224697
 10
-3.6252334329
 20
40.0694853227
 10
-3.6264851575
 20
40.0527932013
 10
-3.6274494726
 20
40.0361483329
  0
LWPOLYLINE
  5
2B4
100
AcDbEntity
  8
ASSI
100
AcDbPolyline
 62
253
  6
CONTINUOUS
 90
61
 70
0
 10
-3.1620251743
 20
40.8185924876
 10
-3.1737640551
 20
40.8138832069
 10
-3.1854775183
 20
40.808780396
 10
-3.1971655639
 20
40.8032840549
 10
-3.2088355303
 20
40.7973902542
 10
-3.2204800791
 20
40.7911029232
 10
-3.2320771953
 20
40.7844338503
 10
-3.2436265935
 20
40.7773824084
 10
-3.2551285591
 20
40.7699492246
 10
-3.2665619326
 20
40.7621479686
 10
-3.2779265737
 20
40.7539779705
 10
-3.2892226227
 20
40.7454399002
 10
-3.3004293411
 20
40.736549437
 10
-3.3115465664
 20
40.7273059334
 10
-3.322574461
 20
40.717710037
 10
-3.3334927737
 20
40.7077793694
 10
-3.3443013078
 20
40.6975133106
 10
-3.3550002599
 20
40.6869124806
 10
-3.3655699697
 20
40.6759963614
 10
-3.3760101967
 20
40.6647643755
 10
-3.3863211813
 20
40.6532171004
 10
-3.3964839841
 20
40.6413757502
 10
-3.4064983313
 20
40.6292397862
 10
-3.4163644966
 20
40.616809747
 10
-3.426064362
 20
40.6041084632
 10
-3.4355976229
 20
40.5911354346
 10
-3.4449645838
 20
40.5778911613
 10
-3.4541480398
 20
40.5643999739
 10
-3.4631476534
 20
40.5506614188
 10
-3.4719637621
 20
40.5366759495
 10
-3.4805801736
 20
40.5224692581
 10
-3.4889965206
 20
40.5080409382
 10
-3.4972131703
 20
40.4933913961
 10
-3.5052150323
 20
40.478547543
 10
-3.5130017114
 20
40.4635090228
 10
-3.5205736027
 20
40.4482761915
 10
-3.5279168022
 20
40.432877028
 10
-3.5350308889
 20
40.4173112287
 10
-3.5419162836
 20
40.4015790972
 10
-3.5485603449
 20
40.3857095236
 10
-3.5549626302
 20
40.3697022534
 10
-3.5611235822
 20
40.3535575412
 10
-3.5670318866
 20
40.3373050407
 10
-3.5726870802
 20
40.3209445504
 10
-3.5780896264
 20
40.304476272
 10
-3.5832296012
 20
40.2879304644
 10
-3.5881065197
 20
40.2713069924
 10
-3.5927208668
 20
40.2546059914
 10
-3.5970641738
 20
40.2378581257
 10
-3.6011359433
 20
40.221063312
 10
-3.6049366727
 20
40.2042216338
 10
-3.6084593846
 20
40.1873640057
 10
-3.6117035699
 20
40.1704903782
 10
-3.6146697378
 20
40.1536008008
 10
-3.6173524395
 20
40.1367263376
 10
-3.6197511732
 20
40.1198666303
 10
-3.6218664408
 20
40.1030220372
 10
-3.6236942988
 20
40.086224697
 10
-3.6252334329
 20
40.0694853227
 10
-3.6264851575
 20
40.0527932013
 10
-3.6274494726
 20
40.0361483329
  0
LINE
  5
2B5
100
AcDbEntity
  8
RACCORDO
100
AcDbLine
 62
253
  6
CONTINUOUS
 10
-0.1914816466
 20
41.9588871619
 11
-3.1620251743
 21
40.8185924876
  0
LINE
  5
2B6
100
AcDbEntity
  8
ASSI
100
AcDbLine
 62
253
  6
CONTINUOUS
 10
-0.1914816466
 20
41.9588871619
 11
-3.1620251743
 21
40.8185924876
  0
LWPOLYLINE
  5
2B7
100
AcDbEntity
  8
ASSI
100
AcDbPolyline
 62
7
  6
CONTINUOUS
 90
3
 70
0
 10
-37.154592219
 20
30.3726157395
 10
-37.1219578767
 20
30.3500261765
 10
-37.0853463878
 20
30.3288721572
  0
LWPOLYLINE
  5
2B8
100
AcDbEntity
  8
CURVE
100
AcDbPolyline
 62
252
  6
CONTINUOUS
 90
7
 70
0
 10
-20.5571472411
 20
13.4073427392
 10
-20.5676354703
 20
13.4280235338
 10
-20.5786253534
 20
13.4484164986
 10
-20.5901023645
 20
13.4684937313
 10
-20.6020518258
 20
13.4882271322
 10
-20.6144584527
 20
13.5075878102
 10
-20.6273068094
 20
13.5265466764
  0
LINE
  5
2B9
100
AcDbEntity
  8
CURVE
100
AcDbLine
 62
252
  6
CONTINUOUS
 10
-20.5471751921
 20
13.3864020168
 11
-20.5589144485
 21
13.4109030666
  0
LINE
  5
2BA
100
AcDbEntity
  8
CURVE
100
AcDbLine
 62
252
  6
CONTINUOUS
 10
-21.356629173
 20
12.9945605812
 11
-21.3455164695
 21
12.9708896907
  0
LINE
  5
2BB
100
AcDbEntity
  8
CURVE
100
AcDbLine
 62
252
  6
CONTINUOUS
 10
-20.5377325962
 20
13.3652293795
 11
-20.547427798
 21
13.3869494996
  0
LINE
  5
2BC
100
AcDbEntity
  8
CURVE
100
AcDbLine
 62
252
  6
CONTINUOUS
 10
-21.3559114856
 20
12.9929572898
 11
-21.3657297546
 21
13.0152874808
  0
LINE
  5
2BD
100
AcDbEntity
  8
CURVE
100
AcDbLine
 62
252
  6
CONTINUOUS
 10
-20.5288277139
 20
13.3438532825
 11
-20.5379586351
 21
13.3657611388
  0
LWPOLYLINE
  5
2BE
100
AcDbEntity
  8
CURVE
100
AcDbPolyline
 62
252
  6
CONTINUOUS
 90
8
 70
0
 10
-21.3652157979
 20
13.014080395
 10
-21.3749542682
 20
13.0378484667
 10
-21.3835741995
 20
13.0606040989
 10
-21.3915802673
 20
13.0835171411
 10
-21.39896319
 20
13.1065503569
 10
-21.4057136864
 20
13.1296665099
 10
-21.411822475
 20
13.1528283638
 10
-21.4172802746
 20
13.1759986821
  0
LINE
  5
2BF
100
AcDbEntity
  8
CURVE
100
AcDbLine
 62
252
  6
CONTINUOUS
 10
-20.5204675523
 20
13.3223022917
 11
-20.5290384808
 21
13.3443863658
  0
LINE
  5
2C0
100
AcDbEntity
  8
CURVE
100
AcDbLine
 62
252
  6
CONTINUOUS
 10
-20.5126591186
 20
13.3006049731
 11
-20.520670118
 21
13.3228493126
  0
LWPOLYLINE
  5
2C1
100
AcDbEntity
  8
ASSI
100
AcDbPolyline
 62
7
  6
CONTINUOUS
 90
3
 70
0
 10
-37.0853463878
 20
30.3288721572
 10
-37.0437377655
 20
30.3087853893
 10
-36.9963491139
 20
30.2897515232
  0
LINE
  5
2C2
100
AcDbEntity
  8
CURVE
100
AcDbLine
 62
252
  6
CONTINUOUS
 10
-20.5054096678
 20
13.2787942657
 11
-20.5128563299
 21
13.3011741112
  0
LINE
  5
2C3
100
AcDbEntity
  8
CURVE
100
AcDbLine
 62
252
  6
CONTINUOUS
 10
-20.4987274448
 20
13.2569206012
 11
-20.5056008712
 21
13.2793899074
  0
LINE
  5
2C4
100
AcDbEntity
  8
CURVE
100
AcDbLine
 62
252
  6
CONTINUOUS
 10
-20.4926209425
 20
13.2350387845
 11
-20.4989113837
 21
13.257545902
  0
LWPOLYLINE
  5
2C5
100
AcDbEntity
  8
CURVE
100
AcDbPolyline
 62
252
  6
CONTINUOUS
 90
7
 70
0
 10
-21.4123936216
 20
13.1550626439
 10
-21.4071098477
 20
13.1346346439
 10
-21.4013266545
 20
13.1142524305
 10
-21.3950512678
 20
13.0939495076
 10
-21.3882915932
 20
13.0737574976
 10
-21.3810582545
 20
13.0537004981
 10
-21.3733625549
 20
13.0338007252
  0
LINE
  5
2C6
100
AcDbEntity
  8
CURVE
100
AcDbLine
 62
252
  6
CONTINUOUS
 10
-20.4870986536
 20
13.2132036203
 11
-20.4927964809
 21
13.2356963096
  0
LINE
  5
2C7
100
AcDbEntity
  8
CURVE
100
AcDbLine
 62
252
  6
CONTINUOUS
 10
-20.4821662445
 20
13.1914617924
 11
-20.4872647764
 21
13.2138953447
  0
LWPOLYLINE
  5
2C8
100
AcDbEntity
  8
CURVE
100
AcDbPolyline
 62
252
  6
CONTINUOUS
 90
8
 70
0
 10
-21.4171707501
 20
13.1755029266
 10
-21.4220785874
 20
13.1991481104
 10
-21.4262120509
 20
13.222278821
 10
-21.4296760863
 20
13.245400868
 10
-21.4324661148
 20
13.2685243055
 10
-21.4345775574
 20
13.2916591877
 10
-21.4360058353
 20
13.3148155687
 10
-21.4367463697
 20
13.3380035026
  0
LINE
  5
2C9
100
AcDbEntity
  8
CURVE
100
AcDbLine
 62
252
  6
CONTINUOUS
 10
-20.4778180759
 20
13.1698275002
 11
-20.4823219927
 21
13.192189295
  0
LINE
  5
2CA
100
AcDbEntity
  8
CURVE
100
AcDbLine
 62
252
  6
CONTINUOUS
 10
-20.4740456824
 20
13.1483068218
 11
-20.477962288
 21
13.1705927405
  0
LINE
  5
2CB
100
AcDbEntity
  8
CURVE
100
AcDbLine
 62
252
  6
CONTINUOUS
 10
-20.4661183371
 20
13.0844045292
 11
-20.4682967485
 21
13.1065160721
  0
LINE
  5
2CC
100
AcDbEntity
  8
CURVE
100
AcDbLine
 62
252
  6
CONTINUOUS
 10
-20.4646115085
 20
13.0632026196
 11
-20.4661990299
 21
13.085350487
  0
LWPOLYLINE
  5
2CD
100
AcDbEntity
  8
CURVE
100
AcDbPolyline
 62
252
  6
CONTINUOUS
 90
7
 70
0
 10
-21.4361336687
 20
13.3176920746
 10
-21.4349909627
 20
13.297443161
 10
-21.4333215492
 20
13.2772156121
 10
-21.4311287256
 20
13.2569682779
 10
-21.4284154999
 20
13.2366685216
 10
-21.4251837218
 20
13.2163177586
 10
-21.4214349518
 20
13.1959259174
  0
LINE
  5
2CE
100
AcDbEntity
  8
CURVE
100
AcDbLine
 62
252
  6
CONTINUOUS
 10
-20.463682767
 20
13.0419585862
 11
-20.4646698654
 21
13.0642015911
  0
LINE
  5
2CF
100
AcDbEntity
  8
CURVE
100
AcDbLine
 62
252
  6
CONTINUOUS
 10
-20.8678821461
 20
10.4871266718
 11
-20.9070880031
 21
11.603974606
  0
LINE
  5
2D0
100
AcDbEntity
  8
CURVE
100
AcDbLine
 62
252
  6
CONTINUOUS
 10
-21.0008045659
 20
14.7748454172
 11
-21.0277567156
 21
15.8962571882
  0
LINE
  5
2D1
100
AcDbEntity
  8
CURVE
100
AcDbLine
 62
252
  6
CONTINUOUS
 10
-20.4636899049
 20
13.0421956226
 11
-20.4633481951
 21
13.0216656938
  0
LWPOLYLINE
  5
2D2
100
AcDbEntity
  8
RACCORDO
100
AcDbPolyline
 62
253
  6
CONTINUOUS
 90
29
 70
0
 10
-22.2949000447
 20
26.0577391742
 10
-22.2948086621
 20
26.0501836704
 10
-22.2945020888
 20
26.0427178692
 10
-22.2939806188
 20
26.0353539684
 10
-22.2932448073
 20
26.028103265
 10
-22.2922956907
 20
26.0209784269
 10
-22.2911350095
 20
26.0139933334
 10
-22.2897648148
 20
26.0071600913
 10
-22.2881872144
 20
26.0004890095
 10
-22.2864047303
 20
25.9939907866
 10
-22.2844202149
 20
25.9876759
 10
-22.2822369039
 20
25.9815547172
 10
-22.2798583866
 20
25.9756373249
 10
-22.2772885507
 20
25.9699333843
 10
-22.2745315522
 20
25.9644521106
 10
-22.2715918606
 20
25.9592023915
 10
-22.2684742445
 20
25.9541927487
 10
-22.2651837732
 20
25.9494313334
 10
-22.261725799
 20
25.944925893
 10
-22.2581059431
 20
25.9406837513
 10
-22.2543300836
 20
25.9367117969
 10
-22.2504043539
 20
25.9330164825
 10
-22.2463351312
 20
25.9296038119
 10
-22.2421290272
 20
25.926479331
 10
-22.2377928768
 20
25.9236481177
 10
-22.2333337254
 20
25.9211147723
 10
-22.2287588173
 20
25.9188834109
 10
-22.2240755859
 20
25.9169576592
 10
-22.2188355224
 20
25.9152041687
  0
LWPOLYLINE
  5
2D3
100
AcDbEntity
  8
ASSI
100
AcDbPolyline
 62
253
  6
CONTINUOUS
 90
29
 70
0
 10
-22.2949000447
 20
26.0577391742
 10
-22.2948086621
 20
26.0501836704
 10
-22.2945020888
 20
26.0427178692
 10
-22.2939806188
 20
26.0353539684
 10
-22.2932448073
 20
26.028103265
 10
-22.2922956907
 20
26.0209784269
 10
-22.2911350095
 20
26.0139933334
 10
-22.2897648148
 20
26.0071600913
 10
-22.2881872144
 20
26.0004890095
 10
-22.2864047303
 20
25.9939907866
 10
-22.2844202149
 20
25.9876759
 10
-22.2822369039
 20
25.9815547172
 10
-22.2798583866
 20
25.9756373249
 10
-22.2772885507
 20
25.9699333843
 10
-22.2745315522
 20
25.9644521106
 10
-22.2715918606
 20
25.9592023915
 10
-22.2684742445
 20
25.9541927487
 10
-22.2651837732
 20
25.9494313334
 10
-22.261725799
 20
25.944925893
 10
-22.2581059431
 20
25.9406837513
 10
-22.2543300836
 20
25.9367117969
 10
-22.2504043539
 20
25.9330164825
 10
-22.2463351312
 20
25.9296038119
 10
-22.2421290272
 20
25.926479331
 10
-22.2377928768
 20
25.9236481177
 10
-22.2333337254
 20
25.9211147723
 10
-22.2287588173
 20
25.9188834109
 10
-22.2240755859
 20
25.9169576592
 10
-22.21886516
 20
25.9152129451
  0
LINE
  5
2D4
100
AcDbEntity
  8
CURVE
100
AcDbLine
 62
252
  6
CONTINUOUS
 10
-21.436813119
 20
13.3593062632
 11
-21.4367463697
 21
13.3380035026
  0
LWPOLYLINE
  5
2D5
100
AcDbEntity
  8
RACCORDO
100
AcDbPolyline
 62
253
  6
CONTINUOUS
 90
40
 70
0
 10
-22.29576865
 20
25.3969628934
 10
-22.2956570321
 20
25.4046034282
 10
-22.2953298514
 20
25.4123122616
 10
-22.2947876391
 20
25.4200768714
 10
-22.2940312762
 20
25.4278846445
 10
-22.2930619913
 20
25.435722898
 10
-22.2918813589
 20
25.4435788993
 10
-22.2904912968
 20
25.4514398869
 10
-22.2888940631
 20
25.4592930915
 10
-22.2870922523
 20
25.467125756
 10
-22.2850887913
 20
25.474925157
 10
-22.2828869346
 20
25.4826786251
 10
-22.2804902589
 20
25.4903735653
 10
-22.2779026574
 20
25.497997478
 10
-22.2751283335
 20
25.5055379787
 10
-22.2721717937
 20
25.5129828185
 10
-22.2690378408
 20
25.5203199038
 10
-22.2657315656
 20
25.5275373163
 10
-22.2622583389
 20
25.5346233318
 10
-22.2586238025
 20
25.5415664398
 10
-22.2548338606
 20
25.5483553617
 10
-22.2508946695
 20
25.5549790694
 10
-22.2468126282
 20
25.5614268034
 10
-22.2425943675
 20
25.5676880899
 10
-22.2382467396
 20
25.5737527579
 10
-22.233776807
 20
25.5796109558
 10
-22.2291918307
 20
25.5852531676
 10
-22.2244992585
 20
25.5906702279
 10
-22.2197067131
 20
25.5958533372
 10
-22.2148219797
 20
25.600794076
 10
-22.209852993
 20
25.6054844184
 10
-22.2048078248
 20
25.6099167454
 10
-22.1996946704
 20
25.614083857
 10
-22.1945218359
 20
25.6179789842
 10
-22.189297724
 20
25.6215957996
 10
-22.1840308208
 20
25.624928428
 10
-22.178729682
 20
25.6279714558
 10
-22.1734029188
 20
25.63071994
 10
-22.1680591841
 20
25.6331694158
 10
-22.1627071583
 20
25.6353159043
  0
LWPOLYLINE
  5
2D6
100
AcDbEntity
  8
ASSI
100
AcDbPolyline
 62
253
  6
CONTINUOUS
 90
40
 70
0
 10
-22.29576865
 20
25.3969628934
 10
-22.2956570321
 20
25.4046034282
 10
-22.2953298514
 20
25.4123122616
 10
-22.2947876391
 20
25.4200768714
 10
-22.2940312762
 20
25.4278846445
 10
-22.2930619913
 20
25.435722898
 10
-22.2918813589
 20
25.4435788993
 10
-22.2904912968
 20
25.4514398869
 10
-22.2888940631
 20
25.4592930915
 10
-22.2870922523
 20
25.467125756
 10
-22.2850887913
 20
25.474925157
 10
-22.2828869346
 20
25.4826786251
 10
-22.2804902589
 20
25.4903735653
 10
-22.2779026574
 20
25.497997478
 10
-22.2751283335
 20
25.5055379787
 10
-22.2721717937
 20
25.5129828185
 10
-22.2690378408
 20
25.5203199038
 10
-22.2657315656
 20
25.5275373163
 10
-22.2622583389
 20
25.5346233318
 10
-22.2586238025
 20
25.5415664398
 10
-22.2548338606
 20
25.5483553617
 10
-22.2508946695
 20
25.5549790694
 10
-22.2468126282
 20
25.5614268034
 10
-22.2425943675
 20
25.5676880899
 10
-22.2382467396
 20
25.5737527579
 10
-22.233776807
 20
25.5796109558
 10
-22.2291918307
 20
25.5852531676
 10
-22.2244992585
 20
25.5906702279
 10
-22.2197067131
 20
25.5958533372
 10
-22.2148219797
 20
25.600794076
 10
-22.209852993
 20
25.6054844184
 10
-22.2048078248
 20
25.6099167454
 10
-22.1996946704
 20
25.614083857
 10
-22.1945218359
 20
25.6179789842
 10
-22.189297724
 20
25.6215957996
 10
-22.1840308208
 20
25.624928428
 10
-22.178729682
 20
25.6279714558
 10
-22.1734029188
 20
25.63071994
 10
-22.1680591841
 20
25.6331694158
 10
-22.1627071583
 20
25.6353159043
  0
LWPOLYLINE
  5
2D7
100
AcDbEntity
  8
CURVE
100
AcDbPolyline
 62
252
  6
CONTINUOUS
 90
3
 70
0
 10
-21.0258498255
 20
33.9718804146
 10
-21.0023142837
 20
34.9675169537
 10
-20.982602538
 20
35.7323062809
  0
LINE
  5
2D8
100
AcDbEntity
  8
CURVE
100
AcDbLine
 62
252
  6
CONTINUOUS
 10
-21.436813119
 20
13.3593062632
 11
-21.4362756948
 21
13.3804247709
  0
LWPOLYLINE
  5
2D9
100
AcDbEntity
  8
CURVE
100
AcDbPolyline
 62
252
  6
CONTINUOUS
 90
3
 70
0
 10
-20.8558835874
 20
39.7490054678
 10
-20.8183029122
 20
40.7490330698
 10
-20.7896899478
 20
41.4708337868
  0
LWPOLYLINE
  5
2DA
100
AcDbEntity
  8
CURVE
100
AcDbPolyline
 62
252
  6
CONTINUOUS
 90
84
 70
0
 10
-21.672585511
 20
37.9362073715
 10
-21.6706647502
 20
37.9763695377
 10
-21.6674564956
 20
38.0157858719
 10
-21.6629597512
 20
38.0544857616
 10
-21.657173521
 20
38.0924985947
 10
-21.6500968087
 20
38.1298537589
 10
-21.6432146477
 20
38.1604908781
 10
-21.6354446662
 20
38.1906426972
 10
-21.6267959033
 20
38.2202602226
 10
-21.6172773982
 20
38.2492944606
 10
-21.6068981901
 20
38.2776964176
 10
-21.5956673183
 20
38.3054170998
 10
-21.5835965443
 20
38.3324102993
 10
-21.5707085198
 20
38.3586409499
 10
-21.5570286192
 20
38.3840767712
 10
-21.5425822165
 20
38.4086854828
 10
-21.5273946859
 20
38.4324348041
 10
-21.5114914017
 20
38.4552924548
 10
-21.4914944031
 20
38.4815036912
 10
-21.4705231673
 20
38.506355728
 10
-21.4485976037
 20
38.5298198549
 10
-21.4257376215
 20
38.5518673621
 10
-21.4019631301
 20
38.5724695393
 10
-21.3773028929
 20
38.5915958416
 10
-21.3518210897
 20
38.6092083837
 10
-21.3255907548
 20
38.6252674454
 10
-21.2986849221
 20
38.6397333062
 10
-21.2711766259
 20
38.6525662461
 10
-21.247840186
 20
38.6619868417
 10
-21.2241463425
 20
38.6702379268
 10
-21.200105351
 20
38.6773115477
 10
-21.1757274672
 20
38.6831997502
 10
-21.1510229469
 20
38.6878945806
 10
-21.1260020458
 20
38.6913880847
 10
-21.100681725
 20
38.6936746868
 10
-21.0751057667
 20
38.694758323
 10
-21.0493246588
 20
38.6946453076
 10
-21.023388889
 20
38.6933419547
 10
-20.997348945
 20
38.6908545785
 10
-20.9712553146
 20
38.6871894934
 10
-20.9399330929
 20
38.6812453967
 10
-20.9086329934
 20
38.6736235485
 10
-20.8773817445
 20
38.6643330058
 10
-20.8462060746
 20
38.6533828255
 10
-20.8151327121
 20
38.6407820646
 10
-20.7893410818
 20
38.6290299255
 10
-20.7636869507
 20
38.6161600072
 10
-20.7382182098
 20
38.6021944773
 10
-20.7129827501
 20
38.5871555036
 10
-20.6880284625
 20
38.5710652536
 10
-20.663403238
 20
38.5539458951
 10
-20.6391489966
 20
38.5358188253
 10
-20.6152837734
 20
38.5167023597
 10
-20.5918196326
 20
38.496614043
 10
-20.5687686381
 20
38.4755714203
 10
-20.5461428542
 20
38.4535920364
 10
-20.5239543447
 20
38.4306934363
 10
-20.497928854
 20
38.4020332755
 10
-20.4726104489
 20
38.3721459547
 10
-20.4480591675
 20
38.3411027205
 10
-20.4243350478
 20
38.3089748195
 10
-20.4014981277
 20
38.2758334983
 10
-20.3796023855
 20
38.2417459062
 10
-20.3586775599
 20
38.2067628026
 10
-20.3387473296
 20
38.1709308496
 10
-20.3198353735
 20
38.1342967092
 10
-20.3019653704
 20
38.0969070434
 10
-20.2851625867
 20
38.0588139316
 10
-20.2694586396
 20
38.0200911223
 10
-20.2548867334
 20
37.9808177815
 10
-20.2414800729
 20
37.941073075
 10
-20.2292718626
 20
37.9009361688
 10
-20.220036379
 20
37.8672432819
 10
-20.2116669479
 20
37.8333609304
 10
-20.2041743054
 20
37.7993170345
 10
-20.1975691103
 20
37.7651453916
 10
-20.1918617089
 20
37.7309033083
 10
-20.1870623697
 20
37.6966539686
 10
-20.1831774878
 20
37.6624583336
 10
-20.1801979642
 20
37.6283684717
 10
-20.1781108267
 20
37.5944342284
 10
-20.17690841
 20
37.5606749261
 10
-20.1766042777
 20
37.5269877955
 10
-20.1772173002
 20
37.4932395442
  0
LWPOLYLINE
  5
2DB
100
AcDbEntity
  8
CURVE
100
AcDbPolyline
 62
252
  6
CONTINUOUS
 90
84
 70
0
 10
-20.1772173002
 20
37.4932395442
 10
-20.179148294
 20
37.4530883071
 10
-20.1823585413
 20
37.413685946
 10
-20.1868493336
 20
37.3750030835
 10
-20.1926219626
 20
37.3370103426
 10
-20.1996777199
 20
37.2996783458
 10
-20.2065370037
 20
37.2690628691
 10
-20.214279315
 20
37.2389347198
 10
-20.222895723
 20
37.2093427759
 10
-20.232377297
 20
37.1803359154
 10
-20.2427151063
 20
37.1519630164
 10
-20.25390022
 20
37.1242729571
 10
-20.2659210265
 20
37.0973118317
 10
-20.2787551896
 20
37.0711145997
 10
-20.2923776922
 20
37.0457134366
 10
-20.3067635172
 20
37.0211405181
 10
-20.3218876474
 20
36.9974280198
 10
-20.3377250657
 20
36.9746081174
 10
-20.3576402562
 20
36.9484432366
 10
-20.3785271613
 20
36.9236384604
 10
-20.4003663855
 20
36.9002222224
 10
-20.4231385332
 20
36.878222956
 10
-20.4468242089
 20
36.857669095
 10
-20.471395187
 20
36.8385908842
 10
-20.4967879219
 20
36.8210258145
 10
-20.522930038
 20
36.805013188
 10
-20.5497491596
 20
36.7905923067
 10
-20.5771729111
 20
36.7778024728
 10
-20.600441008
 20
36.7684160764
 10
-20.6240687384
 20
36.7601974192
 10
-20.6480461146
 20
36.7531542751
 10
-20.6723631493
 20
36.7472944185
 10
-20.6970098548
 20
36.7426256233
 10
-20.7219762436
 20
36.7391556638
 10
-20.7472456266
 20
36.7368899547
 10
-20.7727745094
 20
36.7358244726
 10
-20.7985126959
 20
36.735952835
 10
-20.8244099901
 20
36.7372686591
 10
-20.850416196
 20
36.7397655622
 10
-20.8764811175
 20
36.7434371618
 10
-20.9077758663
 20
36.7493850438
 10
-20.9390562301
 20
36.7570063692
 10
-20.9702955557
 20
36.7662922094
 10
-21.00146719
 20
36.7772336362
 10
-21.0325444796
 20
36.7898217212
 10
-21.0583454908
 20
36.8015604048
 10
-21.0840144566
 20
36.8144143757
 10
-21.1095033581
 20
36.8283616091
 10
-21.134764176
 20
36.84338008
 10
-21.1597488915
 20
36.8594477634
 10
-21.1844094853
 20
36.8765426344
 10
-21.208703881
 20
36.8946434361
 10
-21.2326137722
 20
36.913731983
 10
-21.256126795
 20
36.9337908578
 10
-21.2792305857
 20
36.9548026431
 10
-21.3019127803
 20
36.9767499216
 10
-21.3241610151
 20
36.9996152758
 10
-21.3502621091
 20
37.0282342181
 10
-21.3756598172
 20
37.0580790963
 10
-21.4002934598
 20
37.0890788984
 10
-21.4241023571
 20
37.1211626123
 10
-21.4470258294
 20
37.1542592258
 10
-21.4690092654
 20
37.1883018208
 10
-21.4900223268
 20
37.2232398549
 10
-21.5100407438
 20
37.2590268797
 10
-21.5290402466
 20
37.2956164467
 10
-21.5469965653
 20
37.3329621075
 10
-21.5638838494
 20
37.3710120055
 10
-21.5796699251
 20
37.4096926519
 10
-21.594321038
 20
37.4489251499
 10
-21.6078034337
 20
37.4886306027
 10
-21.6200833577
 20
37.5287301133
 10
-21.6293751826
 20
37.5623934369
 10
-21.6377977541
 20
37.5962477759
 10
-21.645340309
 20
37.630265284
 10
-21.6519921638
 20
37.6644122688
 10
-21.6577429529
 20
37.6986316539
 10
-21.6625823902
 20
37.7328605172
 10
-21.6665040019
 20
37.767038146
 10
-21.6695165625
 20
37.8011126673
 10
-21.6716326586
 20
37.8350344179
 10
-21.6728595986
 20
37.8687841402
 10
-21.6731835773
 20
37.9024642006
 10
-21.672585511
 20
37.9362073715
  0
LINE
  5
2DC
100
AcDbEntity
  8
CURVE
100
AcDbLine
 62
252
  6
CONTINUOUS
 10
-21.4362854515
 20
13.3801802645
 11
-21.4351473777
 21
13.401037213
  0
LWPOLYLINE
  5
2DD
100
AcDbEntity
  8
RACCORDO
100
AcDbPolyline
 62
253
  6
CONTINUOUS
 90
63
 70
0
 10
-22.29489949
 20
26.0577390101
 10
-22.287901517
 20
26.0924942286
 10
-22.28018499
 20
26.1267644541
 10
-22.2717499837
 20
26.1605496582
 10
-22.2625904611
 20
26.193870282
 10
-22.2527126032
 20
26.2267058301
 10
-22.2421348289
 20
26.2589948624
 10
-22.230855717
 20
26.2907368025
 10
-22.218876868
 20
26.3219321595
 10
-22.2062212675
 20
26.3525211095
 10
-22.1928877998
 20
26.3825021377
 10
-22.1788777881
 20
26.4118766814
 10
-22.1642179073
 20
26.4405893337
 10
-22.1489071162
 20
26.4686386521
 10
-22.1329466864
 20
26.4960259934
 10
-22.1163667891
 20
26.5227001398
 10
-22.0991664146
 20
26.5486596832
 10
-22.0813468205
 20
26.5739059397
 10
-22.0629416028
 20
26.5983917692
 10
-22.0439497936
 20
26.6221157143
 10
-22.0243726204
 20
26.6450791362
 10
-22.0042469933
 20
26.6672391145
 10
-21.9835720301
 20
26.6885940889
 10
-21.9623488786
 20
26.7091455216
 10
-21.9406175109
 20
26.7288550192
 10
-21.9183770994
 20
26.7477209636
 10
-21.8956287374
 20
26.7657448751
 10
-21.8724152904
 20
26.7828930628
 10
-21.8487360226
 20
26.7991638291
 10
-21.8245919296
 20
26.814558776
 10
-21.8000284844
 20
26.8290491586
 10
-21.7750450651
 20
26.8426332165
 10
-21.7496425417
 20
26.855312619
 10
-21.7238686306
 20
26.8670637629
 10
-21.6977227526
 20
26.8778848737
 10
-21.6712057177
 20
26.8877776414
 10
-21.6443673291
 20
26.8967236585
 10
-21.6172071222
 20
26.9047211121
 10
-21.58972577
 20
26.9117717389
 10
-21.5619747817
 20
26.9178624564
 10
-21.5339537252
 20
26.9229914441
 10
-21.5056632139
 20
26.9271604562
 10
-21.4771563223
 20
26.9303617729
 10
-21.4484327598
 20
26.9325935578
 10
-21.419492967
 20
26.9338575926
 10
-21.3903911095
 20
26.9341515868
 10
-21.3611269319
 20
26.933473712
 10
-21.3317008052
 20
26.9318257545
 10
-21.3021678267
 20
26.9292108489
 10
-21.2725278606
 20
26.9256271816
 10
-21.2427811213
 20
26.9210765376
 10
-21.2129832237
 20
26.9155674527
 10
-21.1831340873
 20
26.9090981339
 10
-21.1532338323
 20
26.9016703597
 10
-21.1233383654
 20
26.8932980259
 10
-21.0934476994
 20
26.883979373
 10
-21.0635618215
 20
26.8737161607
 10
-21.0337365906
 20
26.8625275672
 10
-21.0039721105
 20
26.8504118805
 10
-20.9742682377
 20
26.8373708273
 10
-20.9446804499
 20
26.8234287475
 10
-20.9152089094
 20
26.8085839682
 10
-20.8858533755
 20
26.792838191
  0
LWPOLYLINE
  5
2DE
100
AcDbEntity
  8
ASSI
100
AcDbPolyline
 62
253
  6
CONTINUOUS
 90
64
 70
0
 10
-22.29489949
 20
26.0577390101
 10
-22.287901517
 20
26.0924942286
 10
-22.28018499
 20
26.1267644541
 10
-22.2717499837
 20
26.1605496582
 10
-22.2625904611
 20
26.193870282
 10
-22.2527126032
 20
26.2267058301
 10
-22.2421348289
 20
26.2589948624
 10
-22.230855717
 20
26.2907368025
 10
-22.218876868
 20
26.3219321595
 10
-22.2062212675
 20
26.3525211095
 10
-22.1928877998
 20
26.3825021377
 10
-22.1788777881
 20
26.4118766814
 10
-22.1642179073
 20
26.4405893337
 10
-22.1489071162
 20
26.4686386521
 10
-22.1329466864
 20
26.4960259934
 10
-22.1163667891
 20
26.5227001398
 10
-22.0991664146
 20
26.5486596832
 10
-22.0813468205
 20
26.5739059397
 10
-22.0629416028
 20
26.5983917692
 10
-22.0439497936
 20
26.6221157143
 10
-22.0243726204
 20
26.6450791362
 10
-22.0042469933
 20
26.6672391145
 10
-21.9835720301
 20
26.6885940889
 10
-21.9623488786
 20
26.7091455216
 10
-21.9406175109
 20
26.7288550192
 10
-21.9183770994
 20
26.7477209636
 10
-21.8956287374
 20
26.7657448751
 10
-21.8724152904
 20
26.7828930628
 10
-21.8487360226
 20
26.7991638291
 10
-21.8245919296
 20
26.814558776
 10
-21.8000284844
 20
26.8290491586
 10
-21.7750450651
 20
26.8426332165
 10
-21.7496425417
 20
26.855312619
 10
-21.7238686306
 20
26.8670637629
 10
-21.6977227526
 20
26.8778848737
 10
-21.6712057177
 20
26.8877776414
 10
-21.6443673291
 20
26.8967236585
 10
-21.6172071222
 20
26.9047211121
 10
-21.58972577
 20
26.9117717389
 10
-21.5619747817
 20
26.9178624564
 10
-21.5339537252
 20
26.9229914441
 10
-21.5056632139
 20
26.9271604562
 10
-21.4771563223
 20
26.9303617729
 10
-21.4484327598
 20
26.9325935578
 10
-21.419492967
 20
26.9338575926
 10
-21.3903911095
 20
26.9341515868
 10
-21.3611269319
 20
26.933473712
 10
-21.3317008052
 20
26.9318257545
 10
-21.3021678267
 20
26.9292108489
 10
-21.2725278606
 20
26.9256271816
 10
-21.2427811213
 20
26.9210765376
 10
-21.2129832237
 20
26.9155674527
 10
-21.1831340873
 20
26.9090981339
 10
-21.1532338323
 20
26.9016703597
 10
-21.1233383654
 20
26.8932980259
 10
-21.0934476994
 20
26.883979373
 10
-21.0635618215
 20
26.8737161607
 10
-21.0337365906
 20
26.8625275672
 10
-21.0039721105
 20
26.8504118805
 10
-20.9742682377
 20
26.8373708273
 10
-20.9446804499
 20
26.8234287475
 10
-20.9152089094
 20
26.8085839682
 10
-20.8858533755
 20
26.792838191
 10
-20.8566687132
 20
26.7762208215
  0
LWPOLYLINE
  5
2DF
100
AcDbEntity
  8
RACCORDO
100
AcDbPolyline
 62
253
  6
CONTINUOUS
 90
36
 70
0
 10
-22.0162284747
 20
26.0225379195
 10
-22.0101086837
 20
26.0528975098
 10
-22.0033509914
 20
26.0828701258
 10
-21.9959595615
 20
26.1124370017
 10
-21.987938864
 20
26.1415795959
 10
-21.9792939422
 20
26.1702796896
 10
-21.9700303941
 20
26.1985193882
 10
-21.9601537526
 20
26.2262814358
 10
-21.9496702752
 20
26.2535479752
 10
-21.9385872806
 20
26.2803007061
 10
-21.9269117791
 20
26.3065226955
 10
-21.9146509814
 20
26.3321978023
 10
-21.9018131557
 20
26.3573094977
 10
-21.8884063895
 20
26.3818420184
 10
-21.8744390272
 20
26.40578019
 10
-21.8599202748
 20
26.429108935
 10
-21.8448592161
 20
26.4518137053
 10
-21.8292652667
 20
26.4738803763
 10
-21.8131486306
 20
26.4952950867
 10
-21.7965193588
 20
26.5160445175
 10
-21.7793878576
 20
26.5361157317
 10
-21.7617653355
 20
26.5554960594
 10
-21.7436627976
 20
26.574173438
 10
-21.7250915486
 20
26.5921362478
 10
-21.7060636917
 20
26.6093731394
 10
-21.6865910927
 20
26.6258734038
 10
-21.6666859202
 20
26.6416267694
 10
-21.6463611461
 20
26.6566232344
 10
-21.6256294637
 20
26.6708534825
 10
-21.6045038105
 20
26.6843086803
 10
-21.5829979071
 20
26.6969802744
 10
-21.5611252162
 20
26.7088603908
 10
-21.538899357
 20
26.7199416878
 10
-21.5163346276
 20
26.7302171497
 10
-21.4934451159
 20
26.739680412
 10
-21.4819082513
 20
26.7440962169
  0
LWPOLYLINE
  5
2E0
100
AcDbEntity
  8
ASSI
100
AcDbPolyline
 62
253
  6
CONTINUOUS
 90
36
 70
0
 10
-22.0162284747
 20
26.0225379195
 10
-22.0101086837
 20
26.0528975098
 10
-22.0033509914
 20
26.0828701258
 10
-21.9959595615
 20
26.1124370017
 10
-21.987938864
 20
26.1415795959
 10
-21.9792939422
 20
26.1702796896
 10
-21.9700303941
 20
26.1985193882
 10
-21.9601537526
 20
26.2262814358
 10
-21.9496702752
 20
26.2535479752
 10
-21.9385872806
 20
26.2803007061
 10
-21.9269117791
 20
26.3065226955
 10
-21.9146509814
 20
26.3321978023
 10
-21.9018131557
 20
26.3573094977
 10
-21.8884063895
 20
26.3818420184
 10
-21.8744390272
 20
26.40578019
 10
-21.8599202748
 20
26.429108935
 10
-21.8448592161
 20
26.4518137053
 10
-21.8292652667
 20
26.4738803763
 10
-21.8131486306
 20
26.4952950867
 10
-21.7965193588
 20
26.5160445175
 10
-21.7793878576
 20
26.5361157317
 10
-21.7617653355
 20
26.5554960594
 10
-21.7436627976
 20
26.574173438
 10
-21.7250915486
 20
26.5921362478
 10
-21.7060636917
 20
26.6093731394
 10
-21.6865910927
 20
26.6258734038
 10
-21.6666859202
 20
26.6416267694
 10
-21.6463611461
 20
26.6566232344
 10
-21.6256294637
 20
26.6708534825
 10
-21.6045038105
 20
26.6843086803
 10
-21.5829979071
 20
26.6969802744
 10
-21.5611252162
 20
26.7088603908
 10
-21.538899357
 20
26.7199416878
 10
-21.5163346276
 20
26.7302171497
 10
-21.4934451159
 20
26.739680412
 10
-21.4822003621
 20
26.7439872784
  0
LWPOLYLINE
  5
2E1
100
AcDbEntity
  8
RACCORDO
100
AcDbPolyline
 62
253
  6
CONTINUOUS
 90
21
 70
0
 10
-22.0162284667
 20
26.0225379225
 10
-22.0178588398
 20
26.0147757101
 10
-22.0197813398
 20
26.0072002614
 10
-22.0219920727
 20
25.99982692
 10
-22.0244865607
 20
25.9926706202
 10
-22.0272597515
 20
25.9857458568
 10
-22.0303060281
 20
25.9790666555
 10
-22.0336192203
 20
25.9726465447
 10
-22.0371926176
 20
25.9664985279
 10
-22.0410189821
 20
25.9606350576
 10
-22.0450905638
 20
25.95506801
 10
-22.0493991159
 20
25.9498086609
 10
-22.0539359117
 20
25.9448676628
 10
-22.0586917621
 20
25.9402550234
 10
-22.0636570343
 20
25.9359800854
 10
-22.0688216716
 20
25.9320515074
 10
-22.0741752131
 20
25.9284772466
 10
-22.0797068156
 20
25.9252645424
 10
-22.0854052752
 20
25.922419902
 10
-22.0912590498
 20
25.9199490872
 10
-22.0922827269
 20
25.9195614047
  0
LWPOLYLINE
  5
2E2
100
AcDbEntity
  8
ASSI
100
AcDbPolyline
 62
253
  6
CONTINUOUS
 90
21
 70
0
 10
-22.0162284667
 20
26.0225379225
 10
-22.0178588398
 20
26.0147757101
 10
-22.0197813398
 20
26.0072002614
 10
-22.0219920727
 20
25.99982692
 10
-22.0244865607
 20
25.9926706202
 10
-22.0272597515
 20
25.9857458568
 10
-22.0303060281
 20
25.9790666555
 10
-22.0336192203
 20
25.9726465447
 10
-22.0371926176
 20
25.9664985279
 10
-22.0410189821
 20
25.9606350576
 10
-22.0450905638
 20
25.95506801
 10
-22.0493991159
 20
25.9498086609
 10
-22.0539359117
 20
25.9448676628
 10
-22.0586917621
 20
25.9402550234
 10
-22.0636570343
 20
25.9359800854
 10
-22.0688216716
 20
25.9320515074
 10
-22.0741752131
 20
25.9284772466
 10
-22.0797068156
 20
25.9252645424
 10
-22.0854052752
 20
25.922419902
 10
-22.0912590498
 20
25.9199490872
 10
-22.0921271187
 20
25.9196195078
  0
LWPOLYLINE
  5
2E3
100
AcDbEntity
  8
RACCORDO
100
AcDbPolyline
 62
7
  6
CONTINUOUS
 90
11
 70
0
 10
-21.9129936313
 20
26.0037689706
 10
-21.916266511
 20
25.9997513381
 10
-21.9203585828
 20
25.9952207126
 10
-21.9246477844
 20
25.990941289
 10
-21.9291123865
 20
25.9869419572
 10
-21.9337576739
 20
25.9832233889
 10
-21.9385783619
 20
25.9797849122
 10
-21.9435368664
 20
25.976653402
 10
-21.9486314553
 20
25.973834597
 10
-21.9538638609
 20
25.9713227584
 10
-21.9596053157
 20
25.9689759697
  0
LWPOLYLINE
  5
2E4
100
AcDbEntity
  8
ASSI
100
AcDbPolyline
 62
7
  6
CONTINUOUS
 90
11
 70
0
 10
-21.9129936313
 20
26.0037689706
 10
-21.916266511
 20
25.9997513381
 10
-21.9203585828
 20
25.9952207126
 10
-21.9246477844
 20
25.990941289
 10
-21.9291123865
 20
25.9869419572
 10
-21.9337576739
 20
25.9832233889
 10
-21.9385783619
 20
25.9797849122
 10
-21.9435368664
 20
25.976653402
 10
-21.9486314553
 20
25.973834597
 10
-21.9538638609
 20
25.9713227584
 10
-21.9596053157
 20
25.9689759697
  0
LWPOLYLINE
  5
2E5
100
AcDbEntity
  8
RACCORDO
100
AcDbPolyline
 62
7
  6
CONTINUOUS
 90
26
 70
0
 10
-21.5206494801
 20
26.7015759278
 10
-21.5413734365
 20
26.6859537914
 10
-21.5616351658
 20
26.6695457582
 10
-21.5814337513
 20
26.6523502698
 10
-21.6007701096
 20
26.6343688847
 10
-21.6196059204
 20
26.6156372502
 10
-21.6379401908
 20
26.5961538787
 10
-21.6557739136
 20
26.5759202577
 10
-21.6730717468
 20
26.5549764975
 10
-21.6898326275
 20
26.53332119
 10
-21.7060576185
 20
26.5109557433
 10
-21.7217145665
 20
26.4879244916
 10
-21.7368023448
 20
26.4642261148
 10
-21.75132208
 20
26.4398619331
 10
-21.7652449984
 20
26.4148802411
 10
-21.7785699165
 20
26.3892798144
 10
-21.7912980177
 20
26.3630618774
 10
-21.8034040795
 20
26.3362783978
 10
-21.814886868
 20
26.3089282544
 10
-21.8257476169
 20
26.2810125683
 10
-21.8359648043
 20
26.2525866712
 10
-21.8455371538
 20
26.2236495515
 10
-21.8544659418
 20
26.1942022208
 10
-21.862733475
 20
26.1643030454
 10
-21.8703338556
 20
26.1339714807
 10
-21.8746650661
 20
26.1147573278
  0
LWPOLYLINE
  5
2E6
100
AcDbEntity
  8
ASSI
100
AcDbPolyline
 62
7
  6
CONTINUOUS
 90
26
 70
0
 10
-21.5206494801
 20
26.7015759278
 10
-21.5413734365
 20
26.6859537914
 10
-21.5616351658
 20
26.6695457582
 10
-21.5814337513
 20
26.6523502698
 10
-21.6007701096
 20
26.6343688847
 10
-21.6196059204
 20
26.6156372502
 10
-21.6379401908
 20
26.5961538787
 10
-21.6557739136
 20
26.5759202577
 10
-21.6730717468
 20
26.5549764975
 10
-21.6898326275
 20
26.53332119
 10
-21.7060576185
 20
26.5109557433
 10
-21.7217145665
 20
26.4879244916
 10
-21.7368023448
 20
26.4642261148
 10
-21.75132208
 20
26.4398619331
 10
-21.7652449984
 20
26.4148802411
 10
-21.7785699165
 20
26.3892798144
 10
-21.7912980177
 20
26.3630618774
 10
-21.8034040795
 20
26.3362783978
 10
-21.814886868
 20
26.3089282544
 10
-21.8257476169
 20
26.2810125683
 10
-21.8359648043
 20
26.2525866712
 10
-21.8455371538
 20
26.2236495515
 10
-21.8544659418
 20
26.1942022208
 10
-21.862733475
 20
26.1643030454
 10
-21.8703338556
 20
26.1339714807
 10
-21.8746650661
 20
26.1147573278
  0
LINE
  5
2E7
100
AcDbEntity
  8
RACCORDO
100
AcDbLine
 62
7
  6
CONTINUOUS
 10
-20.4578078476
 20
24.1434911281
 11
-20.4458620447
 21
24.1465317655
  0
LINE
  5
2E8
100
AcDbEntity
  8
ASSI
100
AcDbLine
 62
7
  6
CONTINUOUS
 10
-20.4578078476
 20
24.1434911281
 11
-20.4458620447
 21
24.1465317655
  0
LWPOLYLINE
  5
2E9
100
AcDbEntity
  8
RACCORDO
100
AcDbPolyline
 62
7
  6
CONTINUOUS
 90
3
 70
0
 10
-20.5079824916
 20
24.1335749449
 10
-20.4827779375
 20
24.1380876558
 10
-20.4578078476
 20
24.1434911281
  0
LWPOLYLINE
  5
2EA
100
AcDbEntity
  8
0
100
AcDbPolyline
 62
7
  6
CONTINUOUS
 90
7
 70
0
 10
-20.5561685882
 20
24.2763707795
 10
-20.5325790321
 20
24.2802202812
 10
-20.5092277594
 20
24.284936809
 10
-20.4861142561
 20
24.2905184927
 10
-20.4632884529
 20
24.2969532744
 10
-20.4407509716
 20
24.3042429984
 10
-20.4262612014
 20
24.3094367945
  0
LWPOLYLINE
  5
2EB
100
AcDbEntity
  8
ASSI
100
AcDbPolyline
 62
253
  6
CONTINUOUS
 90
3
 70
0
 10
-20.3381658874
 20
24.3610210884
 10
-20.3155799405
 20
24.3641649612
 10
-20.3144455265
 20
24.3643641263
  0
LINE
  5
2EC
100
AcDbEntity
  8
0
100
AcDbLine
 62
7
  6
CONTINUOUS
 10
-20.5799959136
 20
24.2733864337
 11
-20.5561685882
 21
24.2763707795
  0
LWPOLYLINE
  5
2ED
100
AcDbEntity
  8
RACCORDO
100
AcDbPolyline
 62
253
  6
CONTINUOUS
 90
5
 70
0
 10
-20.3667815765
 20
24.358265932
 10
-20.3609424593
 20
24.3586646813
 10
-20.3381658874
 20
24.3610210884
 10
-20.3155799405
 20
24.3641649612
 10
-20.3144455265
 20
24.3643641263
  0
LWPOLYLINE
  5
2EE
100
AcDbEntity
  8
ASSI
100
AcDbPolyline
 62
253
  6
CONTINUOUS
 90
3
 70
0
 10
-20.3667815765
 20
24.358265932
 10
-20.3609424593
 20
24.3586646813
 10
-20.3381658874
 20
24.3610210884
  0
LWPOLYLINE
  5
2EF
100
AcDbEntity
  8
0
100
AcDbPolyline
 62
7
  6
CONTINUOUS
 90
3
 70
0
 10
-20.6048853671
 20
24.2712288409
 10
-20.6040095358
 20
24.2712736906
 10
-20.5799959136
 20
24.2733864337
  0
LWPOLYLINE
  5
2F0
100
AcDbEntity
  8
ASSI
100
AcDbPolyline
 62
7
  6
CONTINUOUS
 90
6
 70
0
 10
-20.6048853671
 20
24.2712288409
 10
-20.6040095358
 20
24.2712736906
 10
-20.5799959136
 20
24.2733864337
 10
-20.5561685882
 20
24.2763707795
 10
-20.5325790321
 20
24.2802202812
 10
-20.5092277594
 20
24.284936809
  0
LWPOLYLINE
  5
2F1
100
AcDbEntity
  8
ASSI
100
AcDbPolyline
 62
7
  6
CONTINUOUS
 90
3
 70
0
 10
-20.3433164584
 20
24.3670053591
 10
-20.3176472044
 20
24.3678624763
 10
-20.3060994085
 20
24.3696963065
  0
LWPOLYLINE
  5
2F2
100
AcDbEntity
  8
RACCORDO
100
AcDbPolyline
 62
7
  6
CONTINUOUS
 90
4
 70
0
 10
-20.3460452968
 20
24.3659890214
 10
-20.3449377914
 20
24.3660124872
 10
-20.3230984427
 20
24.367377575
 10
-20.3070707075
 20
24.369063608
  0
LWPOLYLINE
  5
2F3
100
AcDbEntity
  8
RACCORDO
100
AcDbPolyline
 62
7
  6
CONTINUOUS
 90
40
 70
0
 10
-5.1291864524
 20
20.8590210188
 10
-5.1083936981
 20
20.8537903773
 10
-5.0874416699
 20
20.8489032301
 10
-5.0663387879
 20
20.8443453314
 10
-5.0450625115
 20
20.8400985357
 10
-5.0236371104
 20
20.8361562625
 10
-5.0020865926
 20
20.8325125073
 10
-4.9803909106
 20
20.8291548739
 10
-4.9585724962
 20
20.8260792833
 10
-4.9366526328
 20
20.8232817738
 10
-4.9146103327
 20
20.8207537374
 10
-4.8924646731
 20
20.8184928308
 10
-4.8702372501
 20
20.816496895
 10
-4.8479107203
 20
20.8147609131
 10
-4.8254993831
 20
20.8132836807
 10
-4.8030278211
 20
20.8120644916
 10
-4.7804940776
 20
20.8111015633
 10
-4.7579161325
 20
20.8103944928
 10
-4.7353144732
 20
20.8099428408
 10
-4.7126911095
 20
20.8097461812
 10
-4.6900657703
 20
20.8098044531
 10
-4.6674570755
 20
20.8101176582
 10
-4.6448653861
 20
20.8106863383
 10
-4.6223103341
 20
20.8115108787
 10
-4.5998107907
 20
20.8125918375
 10
-4.5773656217
 20
20.8139308765
 10
-4.5549955659
 20
20.8155289498
 10
-4.5327189046
 20
20.8173872275
 10
-4.510530271
 20
20.8195091356
 10
-4.4884561619
 20
20.8218959121
 10
-4.4665100261
 20
20.8245500064
 10
-4.4446669271
 20
20.8274796611
 10
-4.4229506026
 20
20.8306882779
 10
-4.401380236
 20
20.8341798027
 10
-4.3799246581
 20
20.837967981
 10
-4.3586074699
 20
20.8420590125
 10
-4.3374528116
 20
20.8464593417
 10
-4.3164297741
 20
20.8511888427
 10
-4.2955657068
 20
20.8562569785
 10
-4.2748877761
 20
20.8616742801
  0
LWPOLYLINE
  5
2F4
100
AcDbEntity
  8
ASSI
100
AcDbPolyline
 62
7
  6
CONTINUOUS
 90
16
 70
0
 10
-5.1642079062
 20
20.8687683901
 10
-5.1114300931
 20
20.8545303694
 10
-5.0527122796
 20
20.8415864171
 10
-4.9927133054
 20
20.8310245454
 10
-4.9316729978
 20
20.8226860077
 10
-4.8695178263
 20
20.8164367882
 10
-4.8067145697
 20
20.8122467082
 10
-4.7436802983
 20
20.810080241
 10
-4.6803441455
 20
20.8099078388
 10
-4.6171288339
 20
20.8117368227
 10
-4.5544610819
 20
20.815570412
 10
-4.4922658771
 20
20.8214639825
 10
-4.4309621031
 20
20.8294694744
 10
-4.3710385319
 20
20.8396328464
 10
-4.3123973545
 20
20.8521385167
 10
-4.2552505188
 20
20.8672107998
  0
LWPOLYLINE
  5
2F5
100
AcDbEntity
  8
0
100
AcDbPolyline
 62
7
  6
CONTINUOUS
 90
43
 70
0
 10
-4.975049624
 20
20.6381898349
 10
-4.9637824662
 20
20.6349786844
 10
-4.9521998266
 20
20.6319152748
 10
-4.9403017052
 20
20.6289996063
 10
-4.9280709817
 20
20.6262280983
 10
-4.9155247764
 20
20.6236043314
 10
-4.9027144499
 20
20.6211390464
 10
-4.8896389197
 20
20.618832893
 10
-4.8762992683
 20
20.6166852216
 10
-4.8627501047
 20
20.6147048241
 10
-4.84899057
 20
20.6128923863
 10
-4.8350215231
 20
20.6112472224
 10
-4.8209001495
 20
20.6097760673
 10
-4.8066258246
 20
20.6084796343
 10
-4.7921991729
 20
20.60735721
 10
-4.7776792533
 20
20.6064133895
 10
-4.7630656833
 20
20.6056489048
 10
-4.7483588453
 20
20.6050630238
 10
-4.7336189451
 20
20.6046581449
 10
-4.7188458471
 20
20.6044350101
 10
-4.7040396869
 20
20.6043928774
 10
-4.6892610768
 20
20.6045319194
 10
-4.6745101297
 20
20.6048528786
 10
-4.6597867328
 20
20.6053550124
 10
-4.6451511596
 20
20.6060362652
 10
-4.6306037701
 20
20.6068973713
 10
-4.6161442043
 20
20.6079375964
 10
-4.6018316557
 20
20.6091526821
 10
-4.587666727
 20
20.6105433452
 10
-4.5736488155
 20
20.6121088689
 10
-4.5598353066
 20
20.6138428444
 10
-4.5462270384
 20
20.6157459623
 10
-4.5328231728
 20
20.6178175318
 10
-4.5196785817
 20
20.6200490728
 10
-4.5067943279
 20
20.6224412408
 10
-4.4941693485
 20
20.6249933802
 10
-4.4818553268
 20
20.6276950432
 10
-4.4698535375
 20
20.6305468427
 10
-4.4581627059
 20
20.6335481657
 10
-4.4468306909
 20
20.6366867258
 10
-4.4358734457
 20
20.6399584273
 10
-4.4252750172
 20
20.6433673658
 10
-4.4150354055
 20
20.6469135413
  0
LWPOLYLINE
  5
2F6
100
AcDbEntity
  8
ASSI
100
AcDbPolyline
 62
7
  6
CONTINUOUS
 90
43
 70
0
 10
-4.975049624
 20
20.6381898349
 10
-4.9637824662
 20
20.6349786844
 10
-4.9521998266
 20
20.6319152748
 10
-4.9403017052
 20
20.6289996063
 10
-4.9280709817
 20
20.6262280983
 10
-4.9155247764
 20
20.6236043314
 10
-4.9027144499
 20
20.6211390464
 10
-4.8896389197
 20
20.618832893
 10
-4.8762992683
 20
20.6166852216
 10
-4.8627501047
 20
20.6147048241
 10
-4.84899057
 20
20.6128923863
 10
-4.8350215231
 20
20.6112472224
 10
-4.8209001495
 20
20.6097760673
 10
-4.8066258246
 20
20.6084796343
 10
-4.7921991729
 20
20.60735721
 10
-4.7776792533
 20
20.6064133895
 10
-4.7630656833
 20
20.6056489048
 10
-4.7483588453
 20
20.6050630238
 10
-4.7336189451
 20
20.6046581449
 10
-4.7188458471
 20
20.6044350101
 10
-4.7040396869
 20
20.6043928774
 10
-4.6892610768
 20
20.6045319194
 10
-4.6745101297
 20
20.6048528786
 10
-4.6597867328
 20
20.6053550124
 10
-4.6451511596
 20
20.6060362652
 10
-4.6306037701
 20
20.6068973713
 10
-4.6161442043
 20
20.6079375964
 10
-4.6018316557
 20
20.6091526821
 10
-4.587666727
 20
20.6105433452
 10
-4.5736488155
 20
20.6121088689
 10
-4.5598353066
 20
20.6138428444
 10
-4.5462270384
 20
20.6157459623
 10
-4.5328231728
 20
20.6178175318
 10
-4.5196785817
 20
20.6200490728
 10
-4.5067943279
 20
20.6224412408
 10
-4.4941693485
 20
20.6249933802
 10
-4.4818553268
 20
20.6276950432
 10
-4.4698535375
 20
20.6305468427
 10
-4.4581627059
 20
20.6335481657
 10
-4.4468306909
 20
20.6366867258
 10
-4.4358734457
 20
20.6399584273
 10
-4.4252750172
 20
20.6433673658
 10
-4.4150354055
 20
20.6469135413
  0
LWPOLYLINE
  5
2F7
100
AcDbEntity
  8
RACCORDO
100
AcDbPolyline
 62
253
  6
CONTINUOUS
 90
82
 70
0
 10
-21.1262445092
 20
24.3964429552
 10
-21.1139534532
 20
24.3929279763
 10
-21.1008368884
 20
24.3894459704
 10
-21.086899465
 20
24.3860508197
 10
-21.0721068317
 20
24.3827915897
 10
-21.0565077064
 20
24.3797399633
 10
-21.0402334888
 20
24.3769798131
 10
-21.0233040058
 20
24.3745703677
 10
-21.0057244442
 20
24.3725707768
 10
-20.9876059095
 20
24.3710507403
 10
-20.9689716038
 20
24.3700668945
 10
-20.9498346403
 20
24.3696766679
 10
-20.930292203
 20
24.3699373401
 10
-20.9103966775
 20
24.3708999406
 10
-20.8901427631
 20
24.372618157
 10
-20.8695436309
 20
24.3751485351
 10
-20.84868184
 20
24.3785382558
 10
-20.8275365491
 20
24.3828499943
 10
-20.8059760265
 20
24.3881863142
 10
-20.784062857
 20
24.3946206954
 10
-20.7618288001
 20
24.4022367826
 10
-20.7391185255
 20
24.4112029025
 10
-20.7159864639
 20
24.4216374139
 10
-20.6925279943
 20
24.4336452171
 10
-20.6686806144
 20
24.4474283051
 10
-20.6445263791
 20
24.4631383648
 10
-20.6202060629
 20
24.4808966324
 10
-20.5957777928
 20
24.5008948746
 10
-20.5713863373
 20
24.5232761905
 10
-20.5471896386
 20
24.5481780828
 10
-20.5232996075
 20
24.5758027467
 10
-20.499891298
 20
24.6063099637
 10
-20.4771904605
 20
24.6398031467
 10
-20.4554147195
 20
24.6763967813
 10
-20.4347377956
 20
24.7163088902
 10
-20.4154770962
 20
24.7595023144
 10
-20.3980286436
 20
24.805628141
 10
-20.3825803282
 20
24.8547274945
 10
-20.3693648751
 20
24.906696033
 10
-20.3587009231
 20
24.9608180407
 10
-20.3507060353
 20
25.016883287
 10
-20.3454701343
 20
25.0747850938
 10
-20.3430955557
 20
25.1338468881
 10
-20.343591469
 20
25.1937404858
 10
-20.3469530076
 20
25.2543567096
 10
-20.3531509296
 20
25.3153058258
 10
-20.3621409175
 20
25.376348998
 10
-20.3738722756
 20
25.4372772328
 10
-20.3882508546
 20
25.4977444833
 10
-20.4052944601
 20
25.557879041
 10
-20.4248330322
 20
25.6171258326
 10
-20.4463160504
 20
25.6741668225
 10
-20.4694500243
 20
25.7287607864
 10
-20.4940409774
 20
25.7809244272
 10
-20.5194679586
 20
25.8298600484
 10
-20.5452146069
 20
25.8751953221
 10
-20.5712164367
 20
25.9173739963
 10
-20.5975190671
 20
25.9568781807
 10
-20.6240167324
 20
25.9938630693
 10
-20.6504628197
 20
26.0282748776
 10
-20.6767607197
 20
26.0602608031
 10
-20.7027313864
 20
26.0898544374
 10
-20.7282867962
 20
26.1171901485
 10
-20.7535049587
 20
26.1425486994
 10
-20.778277424
 20
26.1659907875
 10
-20.8025373748
 20
26.1876135963
 10
-20.8264634897
 20
26.2077074895
 10
-20.8500464406
 20
26.2263673114
 10
-20.8731872488
 20
26.2436131104
 10
-20.8959537869
 20
26.2595855335
 10
-20.9183584425
 20
26.2743693226
 10
-20.9403138836
 20
26.2879802073
 10
-20.9617468737
 20
26.3004489434
 10
-20.9826424756
 20
26.3118416542
 10
-21.002959249
 20
26.3222077983
 10
-21.0225872276
 20
26.3315657418
 10
-21.0415162518
 20
26.3399858168
 10
-21.0597173302
 20
26.3475271151
 10
-21.0770549751
 20
26.3542080627
 10
-21.0934760948
 20
26.3600858377
 10
-21.1090105525
 20
26.3652445886
 10
-21.1236505535
 20
26.3697495345
  0
LINE
  5
2F8
100
AcDbEntity
  8
RACCORDO
100
AcDbLine
 62
253
  6
CONTINUOUS
 10
-5.2407860685
 20
20.3504211416
 11
-19.9611618518
 21
24.7061565192
  0
LINE
  5
2F9
100
AcDbEntity
  8
ASSI
100
AcDbLine
 62
253
  6
CONTINUOUS
 10
-5.2407860685
 20
20.3504211416
 11
-19.9611618518
 21
24.7061565192
  0
LINE
  5
2FA
100
AcDbEntity
  8
RACCORDO
100
AcDbLine
 62
253
  6
CONTINUOUS
 10
-22.29576865
 20
25.3969628934
 11
-37.0161444333
 21
29.7526982705
  0
LINE
  5
2FB
100
AcDbEntity
  8
ASSI
100
AcDbLine
 62
253
  6
CONTINUOUS
 10
-22.29576865
 20
25.3969628934
 11
-37.0161444333
 21
29.7526982705
  0
LWPOLYLINE
  5
2FC
100
AcDbEntity
  8
RACCORDO
100
AcDbPolyline
 62
253
  6
CONTINUOUS
 90
30
 70
0
 10
-37.016144398
 20
29.7526982831
 10
-37.0331272925
 20
29.7578706644
 10
-37.0496585868
 20
29.7632031637
 10
-37.0657225619
 20
29.7686908563
 10
-37.0813046978
 20
29.7743289009
 10
-37.0963927912
 20
29.7801126948
 10
-37.1109749805
 20
29.7860377114
 10
-37.1250394854
 20
29.7920992222
 10
-37.1385746893
 20
29.7982920813
 10
-37.1515690244
 20
29.8046110924
 10
-37.1640114615
 20
29.811051014
 10
-37.1758920435
 20
29.8176064945
 10
-37.1872009196
 20
29.8242721533
 10
-37.1979285868
 20
29.8310425236
 10
-37.2080664284
 20
29.8379119532
 10
-37.2176059778
 20
29.8448747727
 10
-37.2265391411
 20
29.851925265
 10
-37.2348587932
 20
29.859057551
 10
-37.2425579653
 20
29.8662657127
 10
-37.2496300572
 20
29.873543812
 10
-37.2560695127
 20
29.8808858053
 10
-37.2618709578
 20
29.8882856127
 10
-37.2670293412
 20
29.8957371346
 10
-37.271540688
 20
29.9032341908
 10
-37.2754012459
 20
29.9107705793
 10
-37.2786075527
 20
29.9183400887
 10
-37.2811572377
 20
29.9259364435
 10
-37.2830481863
 20
29.933553346
 10
-37.28427855
 20
29.9411845066
 10
-37.2848475874
 20
29.9488236116
  0
LWPOLYLINE
  5
2FD
100
AcDbEntity
  8
ASSI
100
AcDbPolyline
 62
253
  6
CONTINUOUS
 90
31
 70
0
 10
-37.016144398
 20
29.7526982831
 10
-37.0331272925
 20
29.7578706644
 10
-37.0496585868
 20
29.7632031637
 10
-37.0657225619
 20
29.7686908563
 10
-37.0813046978
 20
29.7743289009
 10
-37.0963927912
 20
29.7801126948
 10
-37.1109749805
 20
29.7860377114
 10
-37.1250394854
 20
29.7920992222
 10
-37.1385746893
 20
29.7982920813
 10
-37.1515690244
 20
29.8046110924
 10
-37.1640114615
 20
29.811051014
 10
-37.1758920435
 20
29.8176064945
 10
-37.1872009196
 20
29.8242721533
 10
-37.1979285868
 20
29.8310425236
 10
-37.2080664284
 20
29.8379119532
 10
-37.2176059778
 20
29.8448747727
 10
-37.2265391411
 20
29.851925265
 10
-37.2348587932
 20
29.859057551
 10
-37.2425579653
 20
29.8662657127
 10
-37.2496300572
 20
29.873543812
 10
-37.2560695127
 20
29.8808858053
 10
-37.2618709578
 20
29.8882856127
 10
-37.2670293412
 20
29.8957371346
 10
-37.271540688
 20
29.9032341908
 10
-37.2754012459
 20
29.9107705793
 10
-37.2786075527
 20
29.9183400887
 10
-37.2811572377
 20
29.9259364435
 10
-37.2830481863
 20
29.933553346
 10
-37.28427855
 20
29.9411845066
 10
-37.2848475874
 20
29.9488236116
 10
-37.2848893893
 20
29.9511390403
  0
LWPOLYLINE
  5
2FE
100
AcDbEntity
  8
RACCORDO
100
AcDbPolyline
 62
253
  6
CONTINUOUS
 90
44
 70
0
 10
-36.8830829414
 20
29.9910512817
 10
-36.8958324745
 20
29.9949345639
 10
-36.9082231128
 20
29.9989310544
 10
-36.9202548563
 20
30.0030407531
 10
-36.9319374888
 20
30.0072673701
 10
-36.9432612266
 20
30.0116071953
 10
-36.9541967178
 20
30.0160490985
 10
-36.9647426065
 20
30.0205932211
 10
-36.9749002487
 20
30.0252394215
 10
-36.9846443611
 20
30.0299761455
 10
-36.9939738724
 20
30.0348036007
 10
-37.002889854
 20
30.0397215794
 10
-37.0113702361
 20
30.0447179039
 10
-37.0194139476
 20
30.0497927703
 10
-37.0270220597
 20
30.0549459825
 10
-37.0341757167
 20
30.060164775
 10
-37.0408737994
 20
30.0654493179
 10
-37.0471174269
 20
30.070799441
 10
-37.0528911013
 20
30.0762018683
 10
-37.0581936498
 20
30.0816567253
 10
-37.0630262451
 20
30.0871638865
 10
-37.0673769079
 20
30.0927096989
 10
-37.071244442
 20
30.0982942562
 10
-37.0746300436
 20
30.1039174647
 10
-37.0775253226
 20
30.1095653907
 10
-37.0799290645
 20
30.1152380994
 10
-37.0818424838
 20
30.1209355257
 10
-37.0832608341
 20
30.1266435399
 10
-37.0841828854
 20
30.1323621675
 10
-37.0846098676
 20
30.1380913829
 10
-37.0845407243
 20
30.1438169803
 10
-37.0839742254
 20
30.1495389475
 10
-37.0829116011
 20
30.1552572966
 10
-37.0813554853
 20
30.1609578585
 10
-37.0793046539
 20
30.1666405914
 10
-37.076760331
 20
30.1723055372
 10
-37.0737288228
 20
30.1779386517
 10
-37.0702089155
 20
30.1835398606
 10
-37.066201823
 20
30.1891092384
 10
-37.061717493
 20
30.1946329646
 10
-37.0567547467
 20
30.2001109183
 10
-37.051314763
 20
30.2055432205
 10
-37.0454110269
 20
30.2109164136
 10
-37.0390423968
 20
30.2162303489
  0
LWPOLYLINE
  5
2FF
100
AcDbEntity
  8
ASSI
100
AcDbPolyline
 62
253
  6
CONTINUOUS
 90
36
 70
0
 10
-36.8830829414
 20
29.9910512817
 10
-36.8958324745
 20
29.9949345639
 10
-36.9082231128
 20
29.9989310544
 10
-36.9202548563
 20
30.0030407531
 10
-36.9319374888
 20
30.0072673701
 10
-36.9432612266
 20
30.0116071953
 10
-36.9541967178
 20
30.0160490985
 10
-36.9647426065
 20
30.0205932211
 10
-36.9749002487
 20
30.0252394215
 10
-36.9846443611
 20
30.0299761455
 10
-36.9939738724
 20
30.0348036007
 10
-37.002889854
 20
30.0397215794
 10
-37.0113702361
 20
30.0447179039
 10
-37.0194139476
 20
30.0497927703
 10
-37.0270220597
 20
30.0549459825
 10
-37.0341757167
 20
30.060164775
 10
-37.0408737994
 20
30.0654493179
 10
-37.0471174269
 20
30.070799441
 10
-37.0528911013
 20
30.0762018683
 10
-37.0581936498
 20
30.0816567253
 10
-37.0630262451
 20
30.0871638865
 10
-37.0673769079
 20
30.0927096989
 10
-37.071244442
 20
30.0982942562
 10
-37.0746300436
 20
30.1039174647
 10
-37.0775253226
 20
30.1095653907
 10
-37.0799290645
 20
30.1152380994
 10
-37.0818424838
 20
30.1209355257
 10
-37.0832608341
 20
30.1266435399
 10
-37.0841828854
 20
30.1323621675
 10
-37.0846098676
 20
30.1380913829
 10
-37.0845407243
 20
30.1438169803
 10
-37.0839742254
 20
30.1495389475
 10
-37.0829116011
 20
30.1552572966
 10
-37.0813554853
 20
30.1609578585
 10
-37.0793046539
 20
30.1666405914
 10
-37.076760331
 20
30.1723055372
  0
LWPOLYLINE
  5
300
100
AcDbEntity
  8
RACCORDO
100
AcDbPolyline
 62
253
  6
CONTINUOUS
 90
31
 70
0
 10
-22.1627071586
 20
25.6353159041
 10
-22.1559793177
 20
25.6331340047
 10
-22.149265606
 20
25.6305743887
 10
-22.1425796218
 20
25.6276422407
 10
-22.1359349072
 20
25.6243434995
 10
-22.1293449206
 20
25.6206848465
 10
-22.1228230099
 20
25.6166736921
 10
-22.1163823848
 20
25.6123181607
 10
-22.1100360903
 20
25.6076270743
 10
-22.1037969807
 20
25.6026099343
 10
-22.0976776928
 20
25.5972769028
 10
-22.091690621
 20
25.5916387814
 10
-22.0858478918
 20
25.58570699
 10
-22.0801613394
 20
25.579493543
 10
-22.0746424814
 20
25.5730110254
 10
-22.0693024962
 20
25.5662725673
 10
-22.0641521995
 20
25.5592918171
 10
-22.059202023
 20
25.5520829138
 10
-22.054461993
 20
25.5446604588
 10
-22.0499417102
 20
25.5370394858
 10
-22.0456503303
 20
25.5292354307
 10
-22.0415965451
 20
25.5212641002
 10
-22.0377885654
 20
25.5131416398
 10
-22.034234104
 20
25.5048845012
 10
-22.0309403604
 20
25.4965094087
 10
-22.0279140058
 20
25.4880333257
 10
-22.0251611699
 20
25.4794734199
 10
-22.0226874286
 20
25.4708470291
 10
-22.0204977921
 20
25.4621716256
 10
-22.0185966956
 20
25.4534647808
 10
-22.0169879895
 20
25.4447441302
  0
LWPOLYLINE
  5
301
100
AcDbEntity
  8
ASSI
100
AcDbPolyline
 62
253
  6
CONTINUOUS
 90
31
 70
0
 10
-22.1627071586
 20
25.6353159041
 10
-22.1559793177
 20
25.6331340047
 10
-22.149265606
 20
25.6305743887
 10
-22.1425796218
 20
25.6276422407
 10
-22.1359349072
 20
25.6243434995
 10
-22.1293449206
 20
25.6206848465
 10
-22.1228230099
 20
25.6166736921
 10
-22.1163823848
 20
25.6123181607
 10
-22.1100360903
 20
25.6076270743
 10
-22.1037969807
 20
25.6026099343
 10
-22.0976776928
 20
25.5972769028
 10
-22.091690621
 20
25.5916387814
 10
-22.0858478918
 20
25.58570699
 10
-22.0801613394
 20
25.579493543
 10
-22.0746424814
 20
25.5730110254
 10
-22.0693024962
 20
25.5662725673
 10
-22.0641521995
 20
25.5592918171
 10
-22.059202023
 20
25.5520829138
 10
-22.054461993
 20
25.5446604588
 10
-22.0499417102
 20
25.5370394858
 10
-22.0456503303
 20
25.5292354307
 10
-22.0415965451
 20
25.5212641002
 10
-22.0377885654
 20
25.5131416398
 10
-22.034234104
 20
25.5048845012
 10
-22.0309403604
 20
25.4965094087
 10
-22.0279140058
 20
25.4880333257
 10
-22.0251611699
 20
25.4794734199
 10
-22.0226874286
 20
25.4708470291
 10
-22.0204977921
 20
25.4621716256
 10
-22.0185966956
 20
25.4534647808
 10
-22.0169879895
 20
25.4447441302
  0
LINE
  5
302
100
AcDbEntity
  8
ASSI
100
AcDbLine
 62
7
  6
CONTINUOUS
 10
-36.9963491139
 20
30.2897515232
 11
-36.9391075253
 21
30.2709089361
  0
LINE
  5
303
100
AcDbEntity
  8
RACCORDO
100
AcDbLine
 62
253
  6
CONTINUOUS
 10
-36.9440512377
 20
30.272544536
 11
-36.9392104321
 21
30.2709392875
  0
LWPOLYLINE
  5
304
100
AcDbEntity
  8
RACCORDO
100
AcDbPolyline
 62
7
  6
CONTINUOUS
 90
43
 70
0
 10
-21.0508812436
 20
24.2735897433
 10
-21.1111990413
 20
24.2937728075
 10
-21.1710739752
 20
24.3184976328
 10
-21.2303001435
 20
24.3476982685
 10
-21.2887004088
 20
24.3813144412
 10
-21.3460496309
 20
24.419249769
 10
-21.4020765039
 20
24.4613522924
 10
-21.4566795745
 20
24.507584723
 10
-21.5095660933
 20
24.557747701
 10
-21.5602160568
 20
24.6113387939
 10
-21.6083991962
 20
24.6680440437
 10
-21.6540544629
 20
24.7277288566
 10
-21.696967649
 20
24.7900578996
 10
-21.7369906501
 20
24.8547458214
 10
-21.774032958
 20
24.9215832853
 10
-21.8079830017
 20
24.9903206219
 10
-21.8387374999
 20
25.0607103044
 10
-21.8661948817
 20
25.1324918246
 10
-21.8902568333
 20
25.2053873154
 10
-21.9108451041
 20
25.2791527595
 10
-21.9278791194
 20
25.3535123749
 10
-21.9412806359
 20
25.4281394085
 10
-21.9509990942
 20
25.5027793493
 10
-21.9569891898
 20
25.5771674558
 10
-21.9592133576
 20
25.650972233
 10
-21.9576513047
 20
25.7239673818
 10
-21.9522888836
 20
25.7958777804
 10
-21.9431408073
 20
25.8663232613
 10
-21.9302054764
 20
25.9351750775
 10
-21.9135213739
 20
26.0020925453
 10
-21.8932654865
 20
26.0664373229
 10
-21.8696264886
 20
26.1278464992
 10
-21.8426652831
 20
26.1863485729
 10
-21.812421456
 20
26.2419242179
 10
-21.778917589
 20
26.2945160178
 10
-21.7423420607
 20
26.3438086183
 10
-21.7030246206
 20
26.389416526
 10
-21.6612740248
 20
26.4311118777
 10
-21.6171950432
 20
26.4689133628
 10
-21.5708638515
 20
26.5028247538
 10
-21.522447298
 20
26.5327610642
 10
-21.4722180372
 20
26.5585948234
 10
-21.4204147261
 20
26.5802556334
  0
LWPOLYLINE
  5
305
100
AcDbEntity
  8
CURVE
100
AcDbPolyline
 62
252
  6
CONTINUOUS
 90
7
 70
0
 10
-37.015843231
 20
30.0830350604
 10
-37.1335287065
 20
30.126408964
 10
-37.2199570957
 20
30.1772240003
 10
-37.2714738279
 20
30.2339443545
 10
-37.2839940162
 20
30.2920725321
 10
-37.2572911774
 20
30.3505570258
 10
-37.1925532183
 20
30.4053472551
  0
LWPOLYLINE
  5
306
100
AcDbEntity
  8
ASSI
100
AcDbPolyline
 62
252
  6
CONTINUOUS
 90
7
 70
0
 10
-37.015843231
 20
30.0830350604
 10
-37.1335287065
 20
30.126408964
 10
-37.2199570957
 20
30.1772240003
 10
-37.2714738279
 20
30.2339443545
 10
-37.2839940162
 20
30.2920725321
 10
-37.2572911774
 20
30.3505570258
 10
-37.1922497939
 20
30.4055380526
  0
LWPOLYLINE
  5
307
100
AcDbEntity
  8
RACCORDO
100
AcDbPolyline
 62
7
  6
CONTINUOUS
 90
5
 70
0
 10
-37.0144412744
 20
30.2966017872
 10
-36.9952203469
 20
30.2893396754
 10
-36.9753266525
 20
30.2823627762
 10
-36.9547290162
 20
30.2756633152
 10
-36.9392031371
 20
30.2709371513
  0
LWPOLYLINE
  5
308
100
AcDbEntity
  8
ASSI
100
AcDbPolyline
 62
7
  6
CONTINUOUS
 90
23
 70
0
 10
-21.0384388503
 20
24.2301133896
 10
-21.0118324776
 20
24.2170152772
 10
-20.9851449899
 20
24.2047608707
 10
-20.9583762214
 20
24.1933518423
 10
-20.9315263378
 20
24.1827865199
 10
-20.9046485732
 20
24.1730858639
 10
-20.8777428495
 20
24.1642515874
 10
-20.8508092449
 20
24.1562819774
 10
-20.8239012272
 20
24.1491928549
 10
-20.79701887
 20
24.1429859778
 10
-20.7701620997
 20
24.1376595882
 10
-20.7433841641
 20
24.1332242335
 10
-20.7166852244
 20
24.1296816825
 10
-20.6900651194
 20
24.1270301663
 10
-20.6635766131
 20
24.1252749263
 10
-20.637219967
 20
24.12441774
 10
-20.6109949195
 20
24.1244568297
 10
-20.5849534502
 20
24.1253921043
 10
-20.5590959238
 20
24.1272253408
 10
-20.5334219755
 20
24.1299547621
 10
-20.5079824916
 20
24.1335749449
 10
-20.4827779375
 20
24.1380876558
 10
-20.4578078476
 20
24.1434911281
  0
LWPOLYLINE
  5
309
100
AcDbEntity
  8
ASSI
100
AcDbPolyline
 62
7
  6
CONTINUOUS
 90
3
 70
0
 10
-21.0912497745
 20
24.2587644254
 10
-21.0649113712
 20
24.2440292319
 10
-21.0384388503
 20
24.2301133896
  0
LWPOLYLINE
  5
30A
100
AcDbEntity
  8
RACCORDO
100
AcDbPolyline
 62
253
  6
CONTINUOUS
 90
40
 70
0
 10
-22.2949000447
 20
26.0577391739
 10
-22.2889195439
 20
26.0543778928
 10
-22.2827332539
 20
26.0511019649
 10
-22.2763512124
 20
26.0479167035
 10
-22.2697837752
 20
26.044827274
 10
-22.2630415982
 20
26.0418386885
 10
-22.2561356204
 20
26.038955799
 10
-22.249077047
 20
26.0361832825
 10
-22.2418773311
 20
26.0335256359
 10
-22.2345481543
 20
26.0309871732
 10
-22.2271014085
 20
26.0285720126
 10
-22.2195491764
 20
26.026284072
 10
-22.2119037117
 20
26.0241270646
 10
-22.2041774193
 20
26.02210449
 10
-22.1963828356
 20
26.0202196292
 10
-22.1885326073
 20
26.0184755413
 10
-22.1806394718
 20
26.0168750558
 10
-22.172716236
 20
26.0154207693
 10
-22.1647757555
 20
26.0141150417
 10
-22.1568309139
 20
26.0129599915
 10
-22.1488946022
 20
26.0119574928
 10
-22.140979697
 20
26.011109172
 10
-22.1330990407
 20
26.0104164057
 10
-22.1252654198
 20
26.009880318
 10
-22.1174915446
 20
26.0095017783
 10
-22.1097900284
 20
26.0092814013
 10
-22.1021733671
 20
26.0092195444
 10
-22.0946539192
 20
26.0093163075
 10
-22.0872438849
 20
26.0095715341
 10
-22.0799552872
 20
26.0099848104
 10
-22.0727999524
 20
26.0105554646
 10
-22.0657894899
 20
26.0112825719
 10
-22.0589352743
 20
26.0121649528
 10
-22.0522484272
 20
26.0132011739
 10
-22.0457397978
 20
26.0143895555
 10
-22.0394199464
 20
26.0157281698
 10
-22.0332991278
 20
26.0172148422
 10
-22.0273872729
 20
26.018847161
 10
-22.0216939735
 20
26.0206224807
 10
-22.0162284667
 20
26.0225379225
  0
LWPOLYLINE
  5
30B
100
AcDbEntity
  8
ASSI
100
AcDbPolyline
 62
253
  6
CONTINUOUS
 90
40
 70
0
 10
-22.2949000447
 20
26.0577391739
 10
-22.2889195439
 20
26.0543778928
 10
-22.2827332539
 20
26.0511019649
 10
-22.2763512124
 20
26.0479167035
 10
-22.2697837752
 20
26.044827274
 10
-22.2630415982
 20
26.0418386885
 10
-22.2561356204
 20
26.038955799
 10
-22.249077047
 20
26.0361832825
 10
-22.2418773311
 20
26.0335256359
 10
-22.2345481543
 20
26.0309871732
 10
-22.2271014085
 20
26.0285720126
 10
-22.2195491764
 20
26.026284072
 10
-22.2119037117
 20
26.0241270646
 10
-22.2041774193
 20
26.02210449
 10
-22.1963828356
 20
26.0202196292
 10
-22.1885326073
 20
26.0184755413
 10
-22.1806394718
 20
26.0168750558
 10
-22.172716236
 20
26.0154207693
 10
-22.1647757555
 20
26.0141150417
 10
-22.1568309139
 20
26.0129599915
 10
-22.1488946022
 20
26.0119574928
 10
-22.140979697
 20
26.011109172
 10
-22.1330990407
 20
26.0104164057
 10
-22.1252654198
 20
26.009880318
 10
-22.1174915446
 20
26.0095017783
 10
-22.1097900284
 20
26.0092814013
 10
-22.1021733671
 20
26.0092195444
 10
-22.0946539192
 20
26.0093163075
 10
-22.0872438849
 20
26.0095715341
 10
-22.0799552872
 20
26.0099848104
 10
-22.0727999524
 20
26.0105554646
 10
-22.0657894899
 20
26.0112825719
 10
-22.0589352743
 20
26.0121649528
 10
-22.0522484272
 20
26.0132011739
 10
-22.0457397978
 20
26.0143895555
 10
-22.0394199464
 20
26.0157281698
 10
-22.0332991278
 20
26.0172148422
 10
-22.0273872729
 20
26.018847161
 10
-22.0216939735
 20
26.0206224807
 10
-22.0162284667
 20
26.0225379225
  0
LWPOLYLINE
  5
30C
100
AcDbEntity
  8
RACCORDO
100
AcDbPolyline
 62
253
  6
CONTINUOUS
 90
24
 70
0
 10
-19.9611618518
 20
24.7061565195
 10
-19.9669295906
 20
24.7095970424
 10
-19.9724724764
 20
24.7131126021
 10
-19.9777815154
 20
24.7166974961
 10
-19.982848093
 20
24.7203459109
 10
-19.9876639883
 20
24.7240519272
 10
-19.9922213878
 20
24.7278095291
 10
-19.9965128971
 20
24.7316126203
 10
-20.0005315525
 20
24.7354550317
 10
-20.0042708342
 20
24.7393305271
 10
-20.0077246748
 20
24.7432328186
 10
-20.0108874703
 20
24.7471555758
 10
-20.0137540892
 20
24.7510924326
 10
-20.0163198803
 20
24.7550370016
 10
-20.0185806803
 20
24.7589828832
 10
-20.0205328213
 20
24.7629236746
 10
-20.0221731359
 20
24.7668529816
 10
-20.0234989625
 20
24.7707644293
 10
-20.0245081501
 20
24.7746516709
 10
-20.0251990612
 20
24.7785083992
 10
-20.0255705748
 20
24.7823283568
 10
-20.0256220881
 20
24.7861053455
 10
-20.0253535177
 20
24.7898332371
 10
-20.0249009902
 20
24.7928160337
  0
LWPOLYLINE
  5
30D
100
AcDbEntity
  8
ASSI
100
AcDbPolyline
 62
253
  6
CONTINUOUS
 90
24
 70
0
 10
-19.9611618518
 20
24.7061565195
 10
-19.9669295906
 20
24.7095970424
 10
-19.9724724764
 20
24.7131126021
 10
-19.9777815154
 20
24.7166974961
 10
-19.982848093
 20
24.7203459109
 10
-19.9876639883
 20
24.7240519272
 10
-19.9922213878
 20
24.7278095291
 10
-19.9965128971
 20
24.7316126203
 10
-20.0005315525
 20
24.7354550317
 10
-20.0042708342
 20
24.7393305271
 10
-20.0077246748
 20
24.7432328186
 10
-20.0108874703
 20
24.7471555758
 10
-20.0137540892
 20
24.7510924326
 10
-20.0163198803
 20
24.7550370016
 10
-20.0185806803
 20
24.7589828832
 10
-20.0205328213
 20
24.7629236746
 10
-20.0221731359
 20
24.7668529816
 10
-20.0234989625
 20
24.7707644293
 10
-20.0245081501
 20
24.7746516709
 10
-20.0251990612
 20
24.7785083992
 10
-20.0255705748
 20
24.7823283568
 10
-20.0256220881
 20
24.7861053455
 10
-20.0253535177
 20
24.7898332371
 10
-20.0249077361
 20
24.7927800877
  0
LWPOLYLINE
  5
30E
100
AcDbEntity
  8
RACCORDO
100
AcDbPolyline
 62
7
  6
CONTINUOUS
 90
28
 70
0
 10
-21.213870416
 20
24.3395978207
 10
-21.1949524983
 20
24.3257005735
 10
-21.1693056878
 20
24.3077854227
 10
-21.1434730867
 20
24.290657161
 10
-21.1174543259
 20
24.2743173487
 10
-21.0912497745
 20
24.2587644254
 10
-21.0649113712
 20
24.2440292319
 10
-21.0384388503
 20
24.2301133896
 10
-21.0118324776
 20
24.2170152772
 10
-20.9851449899
 20
24.2047608707
 10
-20.9583762214
 20
24.1933518423
 10
-20.9315263378
 20
24.1827865199
 10
-20.9046485732
 20
24.1730858639
 10
-20.8777428495
 20
24.1642515874
 10
-20.8508092449
 20
24.1562819774
 10
-20.8239012272
 20
24.1491928549
 10
-20.79701887
 20
24.1429859778
 10
-20.7701620997
 20
24.1376595882
 10
-20.7433841641
 20
24.1332242335
 10
-20.7166852244
 20
24.1296816825
 10
-20.6900651194
 20
24.1270301663
 10
-20.6635766131
 20
24.1252749263
 10
-20.637219967
 20
24.12441774
 10
-20.6109949195
 20
24.1244568297
 10
-20.5849534502
 20
24.1253921043
 10
-20.5590959238
 20
24.1272253408
 10
-20.5334219755
 20
24.1299547621
 10
-20.5079824916
 20
24.1335749449
  0
LWPOLYLINE
  5
30F
100
AcDbEntity
  8
ASSI
100
AcDbPolyline
 62
7
  6
CONTINUOUS
 90
6
 70
0
 10
-21.213870416
 20
24.3395978207
 10
-21.1949524983
 20
24.3257005735
 10
-21.1693056878
 20
24.3077854227
 10
-21.1434730867
 20
24.290657161
 10
-21.1174543259
 20
24.2743173487
 10
-21.0912497745
 20
24.2587644254
  0
LINE
  5
310
100
AcDbEntity
  8
CURVE
100
AcDbLine
 62
252
  6
CONTINUOUS
 10
-20.4708405985
 20
13.1269058357
 11
-20.4741769295
 21
13.1491123341
  0
LINE
  5
311
100
AcDbEntity
  8
CURVE
100
AcDbLine
 62
252
  6
CONTINUOUS
 10
-20.4681968386
 20
13.1056202796
 11
-20.4709571845
 21
13.1277547289
  0
LWPOLYLINE
  5
312
100
AcDbEntity
  8
RACCORDO
100
AcDbPolyline
 62
253
  6
CONTINUOUS
 90
27
 70
0
 10
-19.9602932466
 20
25.3669328
 10
-19.9602016166
 20
25.3593679635
 10
-19.9598943921
 20
25.3518954101
 10
-19.9593720722
 20
25.3445272783
 10
-19.9586355054
 20
25.3372755368
 10
-19.9576858881
 20
25.3301519657
 10
-19.956524763
 20
25.3231681365
 10
-19.9551540161
 20
25.3163353938
 10
-19.9535758742
 20
25.3096648368
 10
-19.9517929008
 20
25.3031673013
 10
-19.9498079921
 20
25.296853342
 10
-19.9476243726
 20
25.2907332154
 10
-19.9452455892
 20
25.2848168631
 10
-19.9426755062
 20
25.2791138957
 10
-19.9399182984
 20
25.2736335772
 10
-19.9369784447
 20
25.26838481
 10
-19.9338607206
 20
25.2633761201
 10
-19.9305701906
 20
25.2586156439
 10
-19.9271121999
 20
25.2541111142
 10
-19.9234923657
 20
25.2498698483
 10
-19.9197165681
 20
25.2458987358
 10
-19.9157909405
 20
25.2422042274
 10
-19.9117218599
 20
25.2387923246
 10
-19.907515936
 20
25.2356685696
 10
-19.9031800011
 20
25.2328380368
 10
-19.8987210986
 20
25.2303053242
 10
-19.8941464714
 20
25.2280745458
  0
LWPOLYLINE
  5
313
100
AcDbEntity
  8
ASSI
100
AcDbPolyline
 62
253
  6
CONTINUOUS
 90
29
 70
0
 10
-19.9602932466
 20
25.3669328
 10
-19.9602016166
 20
25.3593679635
 10
-19.9598943921
 20
25.3518954101
 10
-19.9593720722
 20
25.3445272783
 10
-19.9586355054
 20
25.3372755368
 10
-19.9576858881
 20
25.3301519657
 10
-19.956524763
 20
25.3231681365
 10
-19.9551540161
 20
25.3163353938
 10
-19.9535758742
 20
25.3096648368
 10
-19.9517929008
 20
25.3031673013
 10
-19.9498079921
 20
25.296853342
 10
-19.9476243726
 20
25.2907332154
 10
-19.9452455892
 20
25.2848168631
 10
-19.9426755062
 20
25.2791138957
 10
-19.9399182984
 20
25.2736335772
 10
-19.9369784447
 20
25.26838481
 10
-19.9338607206
 20
25.2633761201
 10
-19.9305701906
 20
25.2586156439
 10
-19.9271121999
 20
25.2541111142
 10
-19.9234923657
 20
25.2498698483
 10
-19.9197165681
 20
25.2458987358
 10
-19.9157909405
 20
25.2422042274
 10
-19.9117218599
 20
25.2387923246
 10
-19.907515936
 20
25.2356685696
 10
-19.9031800011
 20
25.2328380368
 10
-19.8987210986
 20
25.2303053242
 10
-19.8941464714
 20
25.2280745458
 10
-19.8894635508
 20
25.2261493254
 10
-19.8842278506
 20
25.2243975359
  0
LWPOLYLINE
  5
314
100
AcDbEntity
  8
0
100
AcDbPolyline
 62
7
  6
CONTINUOUS
 90
3
 70
0
 10
-19.9279494487
 20
25.2042842591
 10
-19.9282466992
 20
25.2360808652
 10
-19.9284812642
 20
25.2438123994
  0
LWPOLYLINE
  5
315
100
AcDbEntity
  8
ASSI
100
AcDbPolyline
 62
7
  6
CONTINUOUS
 90
3
 70
0
 10
-19.9279494487
 20
25.2042842591
 10
-19.9282466992
 20
25.2360808652
 10
-19.9284812642
 20
25.2438123994
  0
LINE
  5
316
100
AcDbEntity
  8
CURVE
100
AcDbLine
 62
252
  6
CONTINUOUS
 10
-20.4633504985
 20
13.022426434
 11
-20.4635526118
 21
13.0022492251
  0
LWPOLYLINE
  5
317
100
AcDbEntity
  8
RACCORDO
100
AcDbPolyline
 62
253
  6
CONTINUOUS
 90
40
 70
0
 10
-19.9611618518
 20
24.7061565192
 10
-19.9610505062
 20
24.7137875278
 10
-19.960723995
 20
24.7214891171
 10
-19.9601826447
 20
24.7292488582
 10
-19.9594270405
 20
24.7370550296
 10
-19.9584582534
 20
24.7448941781
 10
-19.957278062
 20
24.752751114
 10
-19.9558885514
 20
24.76061219
 10
-19.9542918583
 20
24.7684655164
 10
-19.9524905355
 20
24.7762985042
 10
-19.9504874657
 20
24.7840985404
 10
-19.9482859151
 20
24.7918528358
 10
-19.945889503
 20
24.7995486188
 10
-19.9433021462
 20
24.8071733215
 10
-19.9405280293
 20
24.8147146223
 10
-19.9375716493
 20
24.8221602941
 10
-19.9344378021
 20
24.8294982528
 10
-19.9311315831
 20
24.8367165616
 10
-19.9276583705
 20
24.8438034764
 10
-19.9240238101
 20
24.8507474772
 10
-19.920233804
 20
24.8575372879
 10
-19.9162945087
 20
24.8641618785
 10
-19.9122123231
 20
24.8706104869
 10
-19.9079938801
 20
24.8768726343
 10
-19.9036460348
 20
24.8829381441
 10
-19.8991758514
 20
24.8887971608
 10
-19.8945905923
 20
24.8944401656
 10
-19.8898977076
 20
24.8998579893
 10
-19.8851048219
 20
24.9050418295
 10
-19.8802197221
 20
24.9099832636
 10
-19.875250346
 20
24.9146742625
 10
-19.870204767
 20
24.9191072047
 10
-19.865091183
 20
24.9232748878
 10
-19.8599179036
 20
24.9271705393
 10
-19.8546933348
 20
24.9307878296
 10
-19.8494259643
 20
24.9341208824
 10
-19.8441243486
 20
24.9371642834
 10
-19.8387971011
 20
24.9399130882
 10
-19.8334528773
 20
24.9423628304
 10
-19.8281003601
 20
24.94450953
  0
LWPOLYLINE
  5
318
100
AcDbEntity
  8
ASSI
100
AcDbPolyline
 62
253
  6
CONTINUOUS
 90
19
 70
0
 10
-19.9611618518
 20
24.7061565192
 10
-19.9610505062
 20
24.7137875278
 10
-19.960723995
 20
24.7214891171
 10
-19.9601826447
 20
24.7292488582
 10
-19.9594270405
 20
24.7370550296
 10
-19.9584582534
 20
24.7448941781
 10
-19.957278062
 20
24.752751114
 10
-19.9558885514
 20
24.76061219
 10
-19.9542918583
 20
24.7684655164
 10
-19.9524905355
 20
24.7762985042
 10
-19.9504874657
 20
24.7840985404
 10
-19.9482859151
 20
24.7918528358
 10
-19.945889503
 20
24.7995486188
 10
-19.9433021462
 20
24.8071733215
 10
-19.9405280293
 20
24.8147146223
 10
-19.9375716493
 20
24.8221602941
 10
-19.9344378021
 20
24.8294982528
 10
-19.9311315831
 20
24.8367165616
 10
-19.9276583705
 20
24.8438034764
  0
LWPOLYLINE
  5
319
100
AcDbEntity
  8
ASSI
100
AcDbPolyline
 62
7
  6
CONTINUOUS
 90
3
 70
0
 10
-19.9293818024
 20
25.1413591898
 10
-19.9283300302
 20
25.1726882225
 10
-19.9279494487
 20
25.2042842591
  0
LINE
  5
31A
100
AcDbEntity
  8
CURVE
100
AcDbLine
 62
252
  6
CONTINUOUS
 10
-20.4635346922
 20
13.0029978733
 11
-20.4642719361
 21
12.9831261525
  0
LINE
  5
31B
100
AcDbEntity
  8
CURVE
100
AcDbLine
 62
252
  6
CONTINUOUS
 10
-20.4642340936
 20
12.9838681804
 11
-20.4654981211
 21
12.9642552456
  0
LINE
  5
31C
100
AcDbEntity
  8
CURVE
100
AcDbLine
 62
252
  6
CONTINUOUS
 10
-21.4351716114
 20
13.4006859176
 11
-21.4334357101
 21
13.4213311312
  0
LINE
  5
31D
100
AcDbEntity
  8
CURVE
100
AcDbLine
 62
252
  6
CONTINUOUS
 10
-20.4654403104
 20
12.9649955952
 11
-20.4672254014
 21
12.9456029201
  0
LINE
  5
31E
100
AcDbEntity
  8
CURVE
100
AcDbLine
 62
252
  6
CONTINUOUS
 10
-21.4334798431
 20
13.420883634
 11
-21.4311470339
 21
13.4413544475
  0
LINE
  5
31F
100
AcDbEntity
  8
CURVE
100
AcDbLine
 62
252
  6
CONTINUOUS
 10
-20.4671470099
 20
12.946346643
 11
-20.4694571363
 21
12.9271661764
  0
LWPOLYLINE
  5
320
100
AcDbEntity
  8
ASSI
100
AcDbPolyline
 62
7
  6
CONTINUOUS
 90
5
 70
0
 10
-19.9403007976
 20
25.0187130985
 10
-19.9365686806
 20
25.0489301185
 10
-19.9335011276
 20
25.0794801378
 10
-19.9311047652
 20
25.110297161
 10
-19.9293818024
 20
25.1413591898
  0
LINE
  5
321
100
AcDbEntity
  8
CURVE
100
AcDbLine
 62
252
  6
CONTINUOUS
 10
-21.4312158479
 20
13.4408212427
 11
-21.4282771511
 21
13.4611059581
  0
LINE
  5
322
100
AcDbEntity
  8
CURVE
100
AcDbLine
 62
252
  6
CONTINUOUS
 10
-21.4283751562
 20
13.4604962447
 11
-21.4248192289
 21
13.4805721778
  0
LINE
  5
323
100
AcDbEntity
  8
ASSI
100
AcDbLine
 62
7
  6
CONTINUOUS
 10
-20.0249077361
 20
24.7927800877
 11
-20.0249009902
 21
24.7928160341
  0
LWPOLYLINE
  5
324
100
AcDbEntity
  8
ASSI
100
AcDbPolyline
 62
7
  6
CONTINUOUS
 90
4
 70
0
 10
-19.955477906
 20
24.9301260292
 10
-19.949761597
 20
24.9592794959
 10
-19.9446989153
 20
24.9888297975
 10
-19.9403007976
 20
25.0187130985
  0
LWPOLYLINE
  5
325
100
AcDbEntity
  8
RACCORDO
100
AcDbPolyline
 62
7
  6
CONTINUOUS
 90
33
 70
0
 10
-20.0249010477
 20
24.7928161457
 10
-20.0291443107
 20
24.7712098001
 10
-20.0352414593
 20
24.7429691109
 10
-20.0418735656
 20
24.7151813821
 10
-20.049028896
 20
24.6878749769
 10
-20.0567014205
 20
24.6610531015
 10
-20.0648933504
 20
24.6346963197
 10
-20.0735971008
 20
24.6088213124
 10
-20.0828044438
 20
24.5834442047
 10
-20.0925200577
 20
24.5585484145
 10
-20.1027370988
 20
24.5341510854
 10
-20.1134477477
 20
24.5102692066
 10
-20.1246584572
 20
24.4868901
 10
-20.1363626653
 20
24.4640319639
 10
-20.1485530151
 20
24.4417121791
 10
-20.1612377824
 20
24.4199212409
 10
-20.1744108605
 20
24.3986778559
 10
-20.1880650672
 20
24.3780003722
 10
-20.2022098833
 20
24.3578831826
 10
-20.2168432736
 20
24.3383407311
 10
-20.231954858
 20
24.3193971192
 10
-20.2475433806
 20
24.3010639207
 10
-20.2636040633
 20
24.2833577656
 10
-20.2801284556
 20
24.266297901
 10
-20.2971105946
 20
24.2499000432
 10
-20.3145425561
 20
24.234181729
 10
-20.3324188748
 20
24.2191568833
 10
-20.3507386384
 20
24.2048358322
 10
-20.3694948584
 20
24.1912344557
 10
-20.3886830731
 20
24.1783656383
 10
-20.4083085492
 20
24.1662366791
 10
-20.4283655375
 20
24.1548631747
 10
-20.4488513495
 20
24.144258035
  0
LINE
  5
326
100
AcDbEntity
  8
ASSI
100
AcDbLine
 62
7
  6
CONTINUOUS
 10
-20.0249078119
 20
24.7927801021
 11
-20.0285346506
 21
24.7743141388
  0
LWPOLYLINE
  5
327
100
AcDbEntity
  8
RACCORDO
100
AcDbPolyline
 62
253
  6
CONTINUOUS
 90
7
 70
0
 10
-19.9611623916
 20
24.7061566789
 10
-19.9680965079
 20
24.6714254039
 10
-19.97574296
 20
24.6371814882
 10
-19.984101823
 20
24.6034249045
 10
-19.9931792171
 20
24.5701352182
 10
-20.0029691659
 20
24.5373328111
 10
-20.0134536153
 20
24.5050788745
  0
LWPOLYLINE
  5
328
100
AcDbEntity
  8
ASSI
100
AcDbPolyline
 62
253
  6
CONTINUOUS
 90
9
 70
0
 10
-19.9611623916
 20
24.7061566789
 10
-19.9680965079
 20
24.6714254039
 10
-19.97574296
 20
24.6371814882
 10
-19.984101823
 20
24.6034249045
 10
-19.9931792171
 20
24.5701352182
 10
-20.0029691659
 20
24.5373328111
 10
-20.0134536153
 20
24.5050788745
 10
-20.0246341655
 20
24.4733738928
 10
-20.0365093954
 20
24.4422173154
  0
LWPOLYLINE
  5
329
100
AcDbEntity
  8
RACCORDO
100
AcDbPolyline
 62
7
  6
CONTINUOUS
 90
26
 70
0
 10
-20.0249009902
 20
24.7928160337
 10
-20.0232257409
 20
24.800817822
 10
-20.0212161497
 20
24.8087762664
 10
-20.0188723017
 20
24.8166749781
 10
-20.0161935542
 20
24.8245020992
 10
-20.0131832218
 20
24.8322363888
 10
-20.0098502071
 20
24.8398486116
 10
-20.0062060857
 20
24.8473114658
 10
-20.002251452
 20
24.8546233279
 10
-19.9979781467
 20
24.8617937532
 10
-19.9933756858
 20
24.8688288247
 10
-19.9884622758
 20
24.8756901416
 10
-19.9832751377
 20
24.8823241678
 10
-19.9778354731
 20
24.88870904
 10
-19.9721441154
 20
24.8948485826
 10
-19.9662118869
 20
24.9007340258
 10
-19.9600525677
 20
24.9063546396
 10
-19.9536729328
 20
24.9117067046
 10
-19.947071195
 20
24.9167921313
 10
-19.9402428125
 20
24.9216119892
 10
-19.9332082829
 20
24.9261489459
 10
-19.9260028695
 20
24.9303804123
 10
-19.9186361126
 20
24.9343025937
 10
-19.9111158166
 20
24.9379123463
 10
-19.9034760106
 20
24.9411954462
 10
-19.8981518451
 20
24.943265419
  0
LINE
  5
32A
100
AcDbEntity
  8
CURVE
100
AcDbLine
 62
252
  6
CONTINUOUS
 10
-21.4249507553
 20
13.4798935586
 11
-21.4207664343
 21
13.4997396215
  0
LWPOLYLINE
  5
32B
100
AcDbEntity
  8
0
100
AcDbPolyline
 62
7
  6
CONTINUOUS
 90
11
 70
0
 10
-19.9610031999
 20
24.905188753
 10
-19.955477906
 20
24.9301260292
 10
-19.949761597
 20
24.9592794959
 10
-19.9446989153
 20
24.9888297975
 10
-19.9403007976
 20
25.0187130985
 10
-19.9365686806
 20
25.0489301185
 10
-19.9335011276
 20
25.0794801378
 10
-19.9311047652
 20
25.110297161
 10
-19.9293818024
 20
25.1413591898
 10
-19.9283300302
 20
25.1726882225
 10
-19.9279494487
 20
25.2042842591
  0
LINE
  5
32C
100
AcDbEntity
  8
ASSI
100
AcDbLine
 62
7
  6
CONTINUOUS
 10
-19.9610031999
 20
24.905188753
 11
-19.955477906
 21
24.9301260292
  0
LWPOLYLINE
  5
32D
100
AcDbEntity
  8
ASSI
100
AcDbPolyline
 62
7
  6
CONTINUOUS
 90
12
 70
0
 10
-20.0285346506
 20
24.7743141388
 10
-20.0478975517
 20
24.6920323232
 10
-20.0721538429
 20
24.6129763516
 10
-20.1009682281
 20
24.5382555547
 10
-20.1341119001
 20
24.4683136738
 10
-20.1712925169
 20
24.4035867788
 10
-20.2121842343
 20
24.3444296806
 10
-20.2565034859
 20
24.2910438181
 10
-20.3040119786
 20
24.2435464573
 10
-20.35438005
 20
24.2021132508
 10
-20.4073946484
 20
24.1667790598
 10
-20.4631112925
 20
24.1374526328
  0
LWPOLYLINE
  5
32E
100
AcDbEntity
  8
ASSI
100
AcDbPolyline
 62
7
  6
CONTINUOUS
 90
10
 70
0
 10
-20.0249009902
 20
24.7928160341
 10
-20.0194658815
 20
24.8147830633
 10
-20.0115319713
 20
24.8361149857
 10
-20.0011727156
 20
24.8564987379
 10
-19.9884623656
 20
24.875689999
 10
-19.9735868597
 20
24.8933404613
 10
-19.9568627107
 20
24.909087279
 10
-19.9384368454
 20
24.9228167837
 10
-19.9185523456
 20
24.9343449472
 10
-19.8981537795
 20
24.9432646985
  0
LINE
  5
32F
100
AcDbEntity
  8
RACCORDO
100
AcDbLine
 62
253
  6
CONTINUOUS
 10
-20.0134536153
 20
24.5050788745
 11
-20.0246341655
 21
24.4733738928
  0
LWPOLYLINE
  5
330
100
AcDbEntity
  8
RACCORDO
100
AcDbPolyline
 62
253
  6
CONTINUOUS
 90
102
 70
0
 10
-20.0246341655
 20
24.4733738928
 10
-20.0365093954
 20
24.4422173154
 10
-20.0490567522
 20
24.4116687684
 10
-20.0622775775
 20
24.3817296523
 10
-20.0761707371
 20
24.3523984898
 10
-20.0907099953
 20
24.3237305788
 10
-20.1058966466
 20
24.295727259
 10
-20.1217296268
 20
24.2683871051
 10
-20.1381791904
 20
24.2417612562
 10
-20.1552465928
 20
24.2158510542
 10
-20.1729308264
 20
24.1906550647
 10
-20.1911987747
 20
24.1662202541
 10
-20.2100516532
 20
24.1425480028
 10
-20.229488506
 20
24.119636833
 10
-20.2494729809
 20
24.097529416
 10
-20.2700062361
 20
24.0762271993
 10
-20.291087379
 20
24.0557286356
 10
-20.3126769978
 20
24.0360718978
 10
-20.3347762096
 20
24.0172584877
 10
-20.3573841629
 20
23.9992868035
 10
-20.3804585061
 20
23.9821903582
 10
-20.4040002498
 20
23.9659707497
 10
-20.4280086431
 20
23.9506262822
 10
-20.4524387019
 20
23.9361855243
 10
-20.4772913033
 20
23.9226501439
 10
-20.5025658183
 20
23.9100183793
 10
-20.5282150091
 20
23.898313652
 10
-20.5542396977
 20
23.8875376453
 10
-20.5806392928
 20
23.8776885886
 10
-20.6073644397
 20
23.8687847212
 10
-20.6344158301
 20
23.8608277705
 10
-20.6617929806
 20
23.8538159302
 10
-20.6894447734
 20
23.8477621383
 10
-20.7173718413
 20
23.8426681411
 10
-20.7455737329
 20
23.8385321235
 10
-20.7739977008
 20
23.8353616832
 10
-20.8026442033
 20
23.8331585947
 10
-20.8315129322
 20
23.8319210264
 10
-20.8605499852
 20
23.83165117
 10
-20.889755751
 20
23.8323508038
 10
-20.9191299566
 20
23.8340181055
 10
-20.9486176993
 20
23.8366498679
 10
-20.9782192136
 20
23.840247868
 10
-21.0079343436
 20
23.8448102991
 10
-21.0377075935
 20
23.8503285815
 10
-21.0675391039
 20
23.8568044861
 10
-21.0974287739
 20
23.8642362269
 10
-21.1273207355
 20
23.8726098932
 10
-21.1572149958
 20
23.8819272371
 10
-21.1871115478
 20
23.8921865065
 10
-21.216954492
 20
23.9033685373
 10
-21.2467437038
 20
23.9154750487
 10
-21.2764792682
 20
23.9285043366
 10
-21.3061055899
 20
23.9424321052
 10
-21.3356224478
 20
23.9572600493
 10
-21.3650299845
 20
23.972986504
 10
-21.3942731421
 20
23.9895821368
 10
-21.4233515489
 20
24.0070485804
 10
-21.4522654609
 20
24.0253842461
 10
-21.4809607544
 20
24.0445549726
 10
-21.5094369798
 20
24.0645623649
 10
-21.5376944364
 20
24.0854048751
 10
-21.5656801177
 20
24.1070436146
 10
-21.5933934098
 20
24.1294800861
 10
-21.6208347453
 20
24.1527128558
 10
-21.6479526841
 20
24.1766986316
 10
-21.6747465415
 20
24.2014388718
 10
-21.7012167939
 20
24.2269321969
 10
-21.7273137417
 20
24.2531310591
 10
-21.7530365792
 20
24.2800368199
 10
-21.7783858813
 20
24.307648205
 10
-21.8033140226
 20
24.3359137118
 10
-21.8278201278
 20
24.3648346496
 10
-21.8519048241
 20
24.3944098029
 10
-21.8755227459
 20
24.4245838793
 10
-21.898672895
 20
24.455358059
 10
-21.9213560099
 20
24.4867312599
 10
-21.9435293402
 20
24.5186447929
 10
-21.9651917807
 20
24.5510996872
 10
-21.986344171
 20
24.5840950137
 10
-22.0069466908
 20
24.6175691413
 10
-22.0269981865
 20
24.6515230121
 10
-22.0464995461
 20
24.6859557838
 10
-22.0654140294
 20
24.7208031423
 10
-22.0837404219
 20
24.7560659178
 10
-22.1014796784
 20
24.7917433774
 10
-22.1185983329
 20
24.8277688541
 10
-22.1350951303
 20
24.8641431029
 10
-22.1509710778
 20
24.9008654615
 10
-22.1661961272
 20
24.9378671281
 10
-22.1807689962
 20
24.9751488544
 10
-22.1946907367
 20
25.0127099745
 10
-22.2079348295
 20
25.05047955
 10
-22.2204999175
 20
25.0884582615
 10
-22.2323871503
 20
25.1266455053
 10
-22.2435737996
 20
25.1649684042
 10
-22.2540582944
 20
25.2034266769
 10
-22.2638420264
 20
25.2420206709
 10
-22.2729067447
 20
25.2806784399
 10
-22.2812463242
 20
25.319376017
 10
-22.2888667461
 20
25.3581374219
 10
-22.2957679354
 20
25.396962682
  0
LWPOLYLINE
  5
331
100
AcDbEntity
  8
ASSI
100
AcDbPolyline
 62
253
  6
CONTINUOUS
 90
101
 70
0
 10
-20.0365093954
 20
24.4422173154
 10
-20.0490567522
 20
24.4116687684
 10
-20.0622775775
 20
24.3817296523
 10
-20.0761707371
 20
24.3523984898
 10
-20.0907099953
 20
24.3237305788
 10
-20.1058966466
 20
24.295727259
 10
-20.1217296268
 20
24.2683871051
 10
-20.1381791904
 20
24.2417612562
 10
-20.1552465928
 20
24.2158510542
 10
-20.1729308264
 20
24.1906550647
 10
-20.1911987747
 20
24.1662202541
 10
-20.2100516532
 20
24.1425480028
 10
-20.229488506
 20
24.119636833
 10
-20.2494729809
 20
24.097529416
 10
-20.2700062361
 20
24.0762271993
 10
-20.291087379
 20
24.0557286356
 10
-20.3126769978
 20
24.0360718978
 10
-20.3347762096
 20
24.0172584877
 10
-20.3573841629
 20
23.9992868035
 10
-20.3804585061
 20
23.9821903582
 10
-20.4040002498
 20
23.9659707497
 10
-20.4280086431
 20
23.9506262822
 10
-20.4524387019
 20
23.9361855243
 10
-20.4772913033
 20
23.9226501439
 10
-20.5025658183
 20
23.9100183793
 10
-20.5282150091
 20
23.898313652
 10
-20.5542396977
 20
23.8875376453
 10
-20.5806392928
 20
23.8776885886
 10
-20.6073644397
 20
23.8687847212
 10
-20.6344158301
 20
23.8608277705
 10
-20.6617929806
 20
23.8538159302
 10
-20.6894447734
 20
23.8477621383
 10
-20.7173718413
 20
23.8426681411
 10
-20.7455737329
 20
23.8385321235
 10
-20.7739977008
 20
23.8353616832
 10
-20.8026442033
 20
23.8331585947
 10
-20.8315129322
 20
23.8319210264
 10
-20.8605499852
 20
23.83165117
 10
-20.889755751
 20
23.8323508038
 10
-20.9191299566
 20
23.8340181055
 10
-20.9486176993
 20
23.8366498679
 10
-20.9782192136
 20
23.840247868
 10
-21.0079343436
 20
23.8448102991
 10
-21.0377075935
 20
23.8503285815
 10
-21.0675391039
 20
23.8568044861
 10
-21.0974287739
 20
23.8642362269
 10
-21.1273207355
 20
23.8726098932
 10
-21.1572149958
 20
23.8819272371
 10
-21.1871115478
 20
23.8921865065
 10
-21.216954492
 20
23.9033685373
 10
-21.2467437038
 20
23.9154750487
 10
-21.2764792682
 20
23.9285043366
 10
-21.3061055899
 20
23.9424321052
 10
-21.3356224478
 20
23.9572600493
 10
-21.3650299845
 20
23.972986504
 10
-21.3942731421
 20
23.9895821368
 10
-21.4233515489
 20
24.0070485804
 10
-21.4522654609
 20
24.0253842461
 10
-21.4809607544
 20
24.0445549726
 10
-21.5094369798
 20
24.0645623649
 10
-21.5376944364
 20
24.0854048751
 10
-21.5656801177
 20
24.1070436146
 10
-21.5933934098
 20
24.1294800861
 10
-21.6208347453
 20
24.1527128558
 10
-21.6479526841
 20
24.1766986316
 10
-21.6747465415
 20
24.2014388718
 10
-21.7012167939
 20
24.2269321969
 10
-21.7273137417
 20
24.2531310591
 10
-21.7530365792
 20
24.2800368199
 10
-21.7783858813
 20
24.307648205
 10
-21.8033140226
 20
24.3359137118
 10
-21.8278201278
 20
24.3648346496
 10
-21.8519048241
 20
24.3944098029
 10
-21.8755227459
 20
24.4245838793
 10
-21.898672895
 20
24.455358059
 10
-21.9213560099
 20
24.4867312599
 10
-21.9435293402
 20
24.5186447929
 10
-21.9651917807
 20
24.5510996872
 10
-21.986344171
 20
24.5840950137
 10
-22.0069466908
 20
24.6175691413
 10
-22.0269981865
 20
24.6515230121
 10
-22.0464995461
 20
24.6859557838
 10
-22.0654140294
 20
24.7208031423
 10
-22.0837404219
 20
24.7560659178
 10
-22.1014796784
 20
24.7917433774
 10
-22.1185983329
 20
24.8277688541
 10
-22.1350951303
 20
24.8641431029
 10
-22.1509710778
 20
24.9008654615
 10
-22.1661961272
 20
24.9378671281
 10
-22.1807689962
 20
24.9751488544
 10
-22.1946907367
 20
25.0127099745
 10
-22.2079348295
 20
25.05047955
 10
-22.2204999175
 20
25.0884582615
 10
-22.2323871503
 20
25.1266455053
 10
-22.2435737996
 20
25.1649684042
 10
-22.2540582944
 20
25.2034266769
 10
-22.2638420264
 20
25.2420206709
 10
-22.2729067447
 20
25.2806784399
 10
-22.2812463242
 20
25.319376017
 10
-22.2888667461
 20
25.3581374219
 10
-22.2957679354
 20
25.396962682
  0
LWPOLYLINE
  5
332
100
AcDbEntity
  8
ASSI
100
AcDbPolyline
 62
253
  6
CONTINUOUS
 90
21
 70
0
 10
-19.9276583705
 20
24.8438034764
 10
-19.9240238101
 20
24.8507474772
 10
-19.920233804
 20
24.8575372879
 10
-19.9162945087
 20
24.8641618785
 10
-19.9122123231
 20
24.8706104869
 10
-19.9079938801
 20
24.8768726343
 10
-19.9036460348
 20
24.8829381441
 10
-19.8991758514
 20
24.8887971608
 10
-19.8945905923
 20
24.8944401656
 10
-19.8898977076
 20
24.8998579893
 10
-19.8851048219
 20
24.9050418295
 10
-19.8802197221
 20
24.9099832636
 10
-19.875250346
 20
24.9146742625
 10
-19.870204767
 20
24.9191072047
 10
-19.865091183
 20
24.9232748878
 10
-19.8599179036
 20
24.9271705393
 10
-19.8546933348
 20
24.9307878296
 10
-19.8494259643
 20
24.9341208824
 10
-19.8441243486
 20
24.9371642834
 10
-19.8387971011
 20
24.9399130882
 10
-19.8334528773
 20
24.9423628304
  0
LINE
  5
333
100
AcDbEntity
  8
ASSI
100
AcDbLine
 62
7
  6
CONTINUOUS
 10
-21.1697238683
 20
26.685152949
 11
-21.198975117
 21
26.662729343
  0
LINE
  5
334
100
AcDbEntity
  8
ASSI
100
AcDbLine
 62
253
  6
CONTINUOUS
 10
-21.2144326121
 20
26.6597164981
 11
-21.2218171971
 21
26.6542219622
  0
LWPOLYLINE
  5
335
100
AcDbEntity
  8
0
100
AcDbPolyline
 62
7
  6
CONTINUOUS
 90
3
 70
0
 10
-21.4327461115
 20
26.5829933613
 10
-21.4524170266
 20
26.5691187375
 10
-21.4589480813
 20
26.5641434648
  0
LWPOLYLINE
  5
336
100
AcDbEntity
  8
RACCORDO
100
AcDbPolyline
 62
7
  6
CONTINUOUS
 90
4
 70
0
 10
-21.1694813132
 20
26.6851925308
 10
-21.1772358139
 20
26.6799372266
 10
-21.1939367214
 20
26.6676009361
 10
-21.2009152429
 20
26.662006756
  0
LINE
  5
337
100
AcDbEntity
  8
0
100
AcDbLine
 62
7
  6
CONTINUOUS
 10
-21.4126501321
 20
26.5960837649
 11
-21.4327461115
 21
26.5829933613
  0
LWPOLYLINE
  5
338
100
AcDbEntity
  8
RACCORDO
100
AcDbPolyline
 62
253
  6
CONTINUOUS
 90
4
 70
0
 10
-21.1784126806
 20
26.6837350505
 10
-21.1956073989
 20
26.6727266466
 10
-21.2144326121
 20
26.6597164981
 10
-21.2218171971
 20
26.6542219622
  0
LWPOLYLINE
  5
339
100
AcDbEntity
  8
ASSI
100
AcDbPolyline
 62
253
  6
CONTINUOUS
 90
3
 70
0
 10
-21.1784126806
 20
26.6837350505
 10
-21.1956073989
 20
26.6727266466
 10
-21.2144326121
 20
26.6597164981
  0
LWPOLYLINE
  5
33A
100
AcDbEntity
  8
RACCORDO
100
AcDbPolyline
 62
7
  6
CONTINUOUS
 90
4
 70
0
 10
-21.4559490044
 20
26.7435378822
 10
-21.4779372641
 20
26.7303679732
 10
-21.4995043678
 20
26.716381195
 10
-21.5206494801
 20
26.7015759278
  0
LINE
  5
33B
100
AcDbEntity
  8
RACCORDO
100
AcDbLine
 62
7
  6
CONTINUOUS
 10
-21.4335831663
 20
26.7558648088
 11
-21.4559490044
 21
26.7435378822
  0
LWPOLYLINE
  5
33C
100
AcDbEntity
  8
ASSI
100
AcDbPolyline
 62
7
  6
CONTINUOUS
 90
5
 70
0
 10
-21.4335831663
 20
26.7558648088
 10
-21.4559490044
 20
26.7435378822
 10
-21.4779372641
 20
26.7303679732
 10
-21.4995043678
 20
26.716381195
 10
-21.5206494801
 20
26.7015759278
  0
LWPOLYLINE
  5
33D
100
AcDbEntity
  8
ASSI
100
AcDbPolyline
 62
7
  6
CONTINUOUS
 90
6
 70
0
 10
-21.371312392
 20
26.6198253198
 10
-21.3921725006
 20
26.6083616699
 10
-21.4126501321
 20
26.5960837649
 10
-21.4327461115
 20
26.5829933613
 10
-21.4524170266
 20
26.5691187375
 10
-21.4589480813
 20
26.5641434648
  0
LINE
  5
33E
100
AcDbEntity
  8
RACCORDO
100
AcDbLine
 62
7
  6
CONTINUOUS
 10
-21.4188664638
 20
26.7632944588
 11
-21.4335831663
 21
26.7558648088
  0
LINE
  5
33F
100
AcDbEntity
  8
ASSI
100
AcDbLine
 62
7
  6
CONTINUOUS
 10
-21.4188664638
 20
26.7632944588
 11
-21.4335831663
 21
26.7558648088
  0
LWPOLYLINE
  5
340
100
AcDbEntity
  8
0
100
AcDbPolyline
 62
7
  6
CONTINUOUS
 90
7
 70
0
 10
-21.2988190781
 20
26.6522194705
 10
-21.3065790892
 20
26.6492704445
 10
-21.3284931055
 20
26.6402921147
 10
-21.3500706312
 20
26.6304764711
 10
-21.371312392
 20
26.6198253198
 10
-21.3921725006
 20
26.6083616699
 10
-21.4126501321
 20
26.5960837649
  0
LWPOLYLINE
  5
341
100
AcDbEntity
  8
ASSI
100
AcDbPolyline
 62
7
  6
CONTINUOUS
 90
5
 70
0
 10
-21.2988190781
 20
26.6522194705
 10
-21.3065790892
 20
26.6492704445
 10
-21.3284931055
 20
26.6402921147
 10
-21.3500706312
 20
26.6304764711
 10
-21.371312392
 20
26.6198253198
  0
LINE
  5
342
100
AcDbEntity
  8
ASSI
100
AcDbLine
 62
253
  6
CONTINUOUS
 10
-22.0921271187
 20
25.9196195078
 11
-22.0922827269
 21
25.9195614047
  0
LINE
  5
343
100
AcDbEntity
  8
ASSI
100
AcDbLine
 62
7
  6
CONTINUOUS
 10
-21.4822003621
 20
26.7439872784
 11
-21.481770325
 21
26.744147603
  0
LINE
  5
344
100
AcDbEntity
  8
RACCORDO
100
AcDbLine
 62
7
  6
CONTINUOUS
 10
-21.4819082513
 20
26.7440962169
 11
-21.481770325
 21
26.744147603
  0
LINE
  5
345
100
AcDbEntity
  8
0
100
AcDbLine
 62
7
  6
CONTINUOUS
 10
-21.4204147322
 20
26.5802556312
 11
-21.12585779
 21
26.6899614051
  0
LINE
  5
346
100
AcDbEntity
  8
RACCORDO
100
AcDbLine
 62
253
  6
CONTINUOUS
 10
-21.892412881
 20
26.0686522138
 11
-22.0162284667
 21
26.0225379225
  0
LINE
  5
347
100
AcDbEntity
  8
ASSI
100
AcDbLine
 62
253
  6
CONTINUOUS
 10
-21.892412881
 20
26.0686522138
 11
-22.0162284667
 21
26.0225379225
  0
LINE
  5
348
100
AcDbEntity
  8
RACCORDO
100
AcDbLine
 62
7
  6
CONTINUOUS
 10
-21.9596051128
 20
25.9689762997
 11
-22.0922827269
 21
25.9195614047
  0
LINE
  5
349
100
AcDbEntity
  8
ASSI
100
AcDbLine
 62
7
  6
CONTINUOUS
 10
-21.9596051128
 20
25.9689762997
 11
-22.0922827269
 21
25.9195614047
  0
LINE
  5
34A
100
AcDbEntity
  8
RACCORDO
100
AcDbLine
 62
253
  6
CONTINUOUS
 10
-22.1627071583
 20
25.6353159043
 11
-22.0300295444
 21
25.6847307991
  0
LINE
  5
34B
100
AcDbEntity
  8
ASSI
100
AcDbLine
 62
253
  6
CONTINUOUS
 10
-22.1627071583
 20
25.6353159043
 11
-22.0300295444
 21
25.6847307991
  0
LINE
  5
34C
100
AcDbEntity
  8
RACCORDO
100
AcDbLine
 62
253
  6
CONTINUOUS
 10
-21.4195132683
 20
26.5805905663
 11
-21.420414732
 21
26.5802556312
  0
LWPOLYLINE
  5
34D
100
AcDbEntity
  8
RACCORDO
100
AcDbPolyline
 62
7
  6
CONTINUOUS
 90
3
 70
0
 10
-22.0922828766
 20
25.919561349
 10
-22.0939296407
 20
25.9189562355
 10
-22.101506295
 20
25.9163801056
  0
LWPOLYLINE
  5
34E
100
AcDbEntity
  8
RACCORDO
100
AcDbPolyline
 62
7
  6
CONTINUOUS
 90
4
 70
0
 10
-21.4819059611
 20
26.7440969561
 10
-21.465000565
 20
26.7501117091
 10
-21.4410543428
 20
26.757676207
 10
-21.416910163
 20
26.7642131223
  0
LWPOLYLINE
  5
34F
100
AcDbEntity
  8
ASSI
100
AcDbPolyline
 62
7
  6
CONTINUOUS
 90
3
 70
0
 10
-22.0921271187
 20
25.9196195078
 10
-22.1072400194
 20
25.9146517987
 10
-22.1327475897
 20
25.9091481654
  0
LWPOLYLINE
  5
350
100
AcDbEntity
  8
ASSI
100
AcDbPolyline
 62
7
  6
CONTINUOUS
 90
26
 70
0
 10
-21.4821981449
 20
26.7439879894
 10
-21.411618236
 20
26.7655040589
 10
-21.343808181
 20
26.777753906
 10
-21.2738786587
 20
26.7825754557
 10
-21.2019365808
 20
26.7799042617
 10
-21.1282938183
 20
26.7696484141
 10
-21.0534473906
 20
26.7517768909
 10
-20.9779041724
 20
26.7263308685
 10
-20.9022235054
 20
26.6934395933
 10
-20.8269129109
 20
26.6532811909
 10
-20.752425984
 20
26.6060556891
 10
-20.6792884412
 20
26.5520597984
 10
-20.6080096319
 20
26.4916513137
 10
-20.5389696484
 20
26.4251352469
 10
-20.4726359927
 20
26.3529459031
 10
-20.4094294305
 20
26.2755424716
 10
-20.3496172826
 20
26.1932403083
 10
-20.2935872385
 20
26.1065474354
 10
-20.241685053
 20
26.0159894311
 10
-20.1941068067
 20
25.9218717339
 10
-20.1511686251
 20
25.8247509559
 10
-20.1131523793
 20
25.7252090338
 10
-20.0802226654
 20
25.6235755951
 10
-20.0526089067
 20
25.5203730486
 10
-20.0305563747
 20
25.4163289557
 10
-20.0239255683
 20
25.378637718
  0
LWPOLYLINE
  5
351
100
AcDbEntity
  8
RACCORDO
100
AcDbPolyline
 62
7
  6
CONTINUOUS
 90
5
 70
0
 10
-22.101506295
 20
25.9163801056
 10
-22.1091861937
 20
25.9141074285
 10
-22.1169579025
 20
25.9121424421
 10
-22.1248133773
 20
25.910488335
 10
-22.1327411491
 20
25.9091489886
  0
LWPOLYLINE
  5
352
100
AcDbEntity
  8
ASSI
100
AcDbPolyline
 62
7
  6
CONTINUOUS
 90
5
 70
0
 10
-20.5092277594
 20
24.284936809
 10
-20.4861142561
 20
24.2905184927
 10
-20.4632884529
 20
24.2969532744
 10
-20.4407509716
 20
24.3042429984
 10
-20.4262612014
 20
24.3094367945
  0
LWPOLYLINE
  5
353
100
AcDbEntity
  8
RACCORDO
100
AcDbPolyline
 62
7
  6
CONTINUOUS
 90
4
 70
0
 10
-22.1327475897
 20
25.9091481654
 10
-22.140727245
 20
25.90812819
 10
-22.1487597338
 20
25.9074288495
 10
-22.1568251145
 20
25.9070535403
  0
LINE
  5
354
100
AcDbEntity
  8
ASSI
100
AcDbLine
 62
7
  6
CONTINUOUS
 10
-22.1327475897
 20
25.9091481654
 11
-22.1588344151
 21
25.9070107584
  0
LWPOLYLINE
  5
355
100
AcDbEntity
  8
RACCORDO
100
AcDbPolyline
 62
7
  6
CONTINUOUS
 90
4
 70
0
 10
-22.1568251145
 20
25.9070535403
 10
-22.164910463
 20
25.9070042349
 10
-22.173004523
 20
25.9072825015
 10
-22.1810942413
 20
25.9078895294
  0
LWPOLYLINE
  5
356
100
AcDbEntity
  8
RACCORDO
100
AcDbPolyline
 62
253
  6
CONTINUOUS
 90
40
 70
0
 10
-22.29576865
 20
25.3969628937
 10
-22.2897775932
 20
25.3969413071
 10
-22.2835974823
 20
25.3969814523
 10
-22.2772294876
 20
25.3970928128
 10
-22.2706669638
 20
25.3972957737
 10
-22.2639163534
 20
25.3975877903
 10
-22.2570043231
 20
25.397946234
 10
-22.2499455171
 20
25.3983857408
 10
-22.2427402844
 20
25.398915824
 10
-22.2354042762
 20
25.3995092867
 10
-22.2279547134
 20
25.400180014
 10
-22.2203995549
 20
25.4009403008
 10
-22.2127471849
 20
25.4017606341
 10
-22.2050160975
 20
25.4026533502
 10
-22.1972196698
 20
25.4036319024
 10
-22.1893624888
 20
25.4046668454
 10
-22.1814637145
 20
25.4057689482
 10
-22.173539678
 20
25.4069513157
 10
-22.1655928151
 20
25.4081857254
 10
-22.1576420479
 20
25.409481374
 10
-22.1497052621
 20
25.4108502256
 10
-22.1417844091
 20
25.412265887
 10
-22.1338980032
 20
25.413736226
 10
-22.1260641929
 20
25.4152716987
 10
-22.1182849469
 20
25.4168477869
 10
-22.1105781107
 20
25.4184713165
 10
-22.1029614583
 20
25.4201512149
 10
-22.0954372086
 20
25.421864569
 10
-22.0880224451
 20
25.4236174852
 10
-22.0807341284
 20
25.4254175467
 10
-22.0735746048
 20
25.4272430097
 10
-22.0665600984
 20
25.429099611
 10
-22.0597065276
 20
25.4309938679
 10
-22.0530161305
 20
25.432904661
 10
-22.0465041886
 20
25.434837691
 10
-22.0401854389
 20
25.4367987598
 10
-22.0340617347
 20
25.4387668429
 10
-22.0281432669
 20
25.4407388341
 10
-22.0224477366
 20
25.44272937
 10
-21.9468441862
 20
25.4708687232
  0
LWPOLYLINE
  5
357
100
AcDbEntity
  8
ASSI
100
AcDbPolyline
 62
253
  6
CONTINUOUS
 90
40
 70
0
 10
-22.29576865
 20
25.3969628937
 10
-22.2897775932
 20
25.3969413071
 10
-22.2835974823
 20
25.3969814523
 10
-22.2772294876
 20
25.3970928128
 10
-22.2706669638
 20
25.3972957737
 10
-22.2639163534
 20
25.3975877903
 10
-22.2570043231
 20
25.397946234
 10
-22.2499455171
 20
25.3983857408
 10
-22.2427402844
 20
25.398915824
 10
-22.2354042762
 20
25.3995092867
 10
-22.2279547134
 20
25.400180014
 10
-22.2203995549
 20
25.4009403008
 10
-22.2127471849
 20
25.4017606341
 10
-22.2050160975
 20
25.4026533502
 10
-22.1972196698
 20
25.4036319024
 10
-22.1893624888
 20
25.4046668454
 10
-22.1814637145
 20
25.4057689482
 10
-22.173539678
 20
25.4069513157
 10
-22.1655928151
 20
25.4081857254
 10
-22.1576420479
 20
25.409481374
 10
-22.1497052621
 20
25.4108502256
 10
-22.1417844091
 20
25.412265887
 10
-22.1338980032
 20
25.413736226
 10
-22.1260641929
 20
25.4152716987
 10
-22.1182849469
 20
25.4168477869
 10
-22.1105781107
 20
25.4184713165
 10
-22.1029614583
 20
25.4201512149
 10
-22.0954372086
 20
25.421864569
 10
-22.0880224451
 20
25.4236174852
 10
-22.0807341284
 20
25.4254175467
 10
-22.0735746048
 20
25.4272430097
 10
-22.0665600984
 20
25.429099611
 10
-22.0597065276
 20
25.4309938679
 10
-22.0530161305
 20
25.432904661
 10
-22.0465041886
 20
25.434837691
 10
-22.0401854389
 20
25.4367987598
 10
-22.0340617347
 20
25.4387668429
 10
-22.0281432669
 20
25.4407388341
 10
-22.0224477366
 20
25.44272937
 10
-21.9468441862
 20
25.4708687232
  0
LWPOLYLINE
  5
358
100
AcDbEntity
  8
RACCORDO
100
AcDbPolyline
 62
253
  6
CONTINUOUS
 90
21
 70
0
 10
-19.9602932466
 20
25.3669327997
 10
-19.9660709462
 20
25.3670338498
 10
-19.9716085846
 20
25.3672329893
 10
-19.9769077673
 20
25.3675197009
 10
-19.9819731917
 20
25.3678743247
 10
-19.9867976466
 20
25.3682996919
 10
-19.9913622125
 20
25.3688155458
 10
-19.9956571682
 20
25.3694054167
 10
-19.9996815599
 20
25.3700600167
 10
-20.0034280684
 20
25.3708034393
 10
-20.0068870248
 20
25.3716189869
 10
-20.0100536907
 20
25.372493165
 10
-20.0129270002
 20
25.373452761
 10
-20.015498588
 20
25.3744816663
 10
-20.0177625372
 20
25.3755636489
 10
-20.0197207067
 20
25.3767257535
 10
-20.021366612
 20
25.3779524902
 10
-20.0226950949
 20
25.3792265928
 10
-20.0237094481
 20
25.3805741502
 10
-20.0244053668
 20
25.3819805217
 10
-20.0247566916
 20
25.3832835293
  0
LWPOLYLINE
  5
359
100
AcDbEntity
  8
ASSI
100
AcDbPolyline
 62
253
  6
CONTINUOUS
 90
21
 70
0
 10
-19.9602932466
 20
25.3669327997
 10
-19.9660709462
 20
25.3670338498
 10
-19.9716085846
 20
25.3672329893
 10
-19.9769077673
 20
25.3675197009
 10
-19.9819731917
 20
25.3678743247
 10
-19.9867976466
 20
25.3682996919
 10
-19.9913622125
 20
25.3688155458
 10
-19.9956571682
 20
25.3694054167
 10
-19.9996815599
 20
25.3700600167
 10
-20.0034280684
 20
25.3708034393
 10
-20.0068870248
 20
25.3716189869
 10
-20.0100536907
 20
25.372493165
 10
-20.0129270002
 20
25.373452761
 10
-20.015498588
 20
25.3744816663
 10
-20.0177625372
 20
25.3755636489
 10
-20.0197207067
 20
25.3767257535
 10
-20.021366612
 20
25.3779524902
 10
-20.0226950949
 20
25.3792265928
 10
-20.0237094481
 20
25.3805741502
 10
-20.0244053668
 20
25.3819805217
 10
-20.0247576746
 20
25.383289431
  0
LINE
  5
35A
100
AcDbEntity
  8
ASSI
100
AcDbLine
 62
7
  6
CONTINUOUS
 10
-22.1588344151
 20
25.9070107584
 11
-22.1851165004
 21
25.9083146089
  0
LWPOLYLINE
  5
35B
100
AcDbEntity
  8
RACCORDO
100
AcDbPolyline
 62
7
  6
CONTINUOUS
 90
4
 70
0
 10
-22.1810942413
 20
25.9078895294
 10
-22.1891655396
 20
25.9088258839
 10
-22.1972054718
 20
25.9100916887
 10
-22.2052008326
 20
25.9116865603
  0
LWPOLYLINE
  5
35C
100
AcDbEntity
  8
ASSI
100
AcDbPolyline
 62
7
  6
CONTINUOUS
 90
3
 70
0
 10
-22.1851165004
 20
25.9083146089
 10
-22.2111587824
 20
25.9130978086
 10
-22.21886516
 20
25.9152129451
  0
LWPOLYLINE
  5
35D
100
AcDbEntity
  8
RACCORDO
100
AcDbPolyline
 62
7
  6
CONTINUOUS
 90
3
 70
0
 10
-22.2052008326
 20
25.9116865603
 10
-22.2131372715
 20
25.913609323
 10
-22.2188355224
 20
25.9152041687
  0
LINE
  5
35E
100
AcDbEntity
  8
RACCORDO
100
AcDbLine
 62
253
  6
CONTINUOUS
 10
-36.9467547186
 20
30.2712911384
 11
-36.9401317663
 21
30.2695786302
  0
LWPOLYLINE
  5
35F
100
AcDbEntity
  8
RACCORDO
100
AcDbPolyline
 62
253
  6
CONTINUOUS
 90
82
 70
0
 10
-21.1236505535
 20
26.3697495345
 10
-21.1359416104
 20
26.3732645132
 10
-21.1490581764
 20
26.3767465189
 10
-21.1629956013
 20
26.3801416692
 10
-21.1777882366
 20
26.3834008986
 10
-21.1933873642
 20
26.3864525243
 10
-21.2096615839
 20
26.3892126739
 10
-21.2265910682
 20
26.3916221188
 10
-21.2441706308
 20
26.3936217094
 10
-21.2622891668
 20
26.3951417456
 10
-21.2809234743
 20
26.3961255907
 10
-21.30006044
 20
26.3965158165
 10
-21.3196028793
 20
26.3962551436
 10
-21.339498406
 20
26.3952925426
 10
-21.3597523215
 20
26.3935743256
 10
-21.3803514552
 20
26.3910439469
 10
-21.401213248
 20
26.3876542254
 10
-21.4223585412
 20
26.3833424858
 10
-21.4439190665
 20
26.3780061647
 10
-21.4658322391
 20
26.3715717821
 10
-21.4880662997
 20
26.3639556933
 10
-21.5107765787
 20
26.3549895714
 10
-21.5339086457
 20
26.3445550576
 10
-21.5573671214
 20
26.3325472516
 10
-21.5812145077
 20
26.3187641606
 10
-21.6053687499
 20
26.3030540977
 10
-21.6296890733
 20
26.2852958266
 10
-21.6541173508
 20
26.2652975809
 10
-21.6785088132
 20
26.2429162615
 10
-21.7027055188
 20
26.2180143655
 10
-21.7265955579
 20
26.1903896976
 10
-21.750003878
 20
26.1598824754
 10
-21.7727047271
 20
26.1263892867
 10
-21.7944804765
 20
26.0897956475
 10
-21.8151574046
 20
26.0498835357
 10
-21.834418105
 20
26.0066901096
 10
-21.8518665546
 20
25.9605642827
 10
-21.8673148617
 20
25.911464931
 10
-21.8805303025
 20
25.859496396
 10
-21.8911942413
 20
25.8053743924
 10
-21.8991891154
 20
25.7493091506
 10
-21.9044250018
 20
25.6914073488
 10
-21.9067995664
 20
25.6323455595
 10
-21.9063036398
 20
25.5724519667
 10
-21.9029420887
 20
25.5118357476
 10
-21.8967441564
 20
25.4508866354
 10
-21.8877541617
 20
25.389843466
 10
-21.876022799
 20
25.3289152332
 10
-21.8616442157
 20
25.2684479848
 10
-21.8446006044
 20
25.2083134297
 10
-21.8250620267
 20
25.1490666407
 10
-21.8035790054
 20
25.0920256528
 10
-21.780445033
 20
25.0374316895
 10
-21.7558540841
 20
24.9852680485
 10
-21.7304271061
 20
24.9363324274
 10
-21.7046804586
 20
24.8909971546
 10
-21.6786786285
 20
24.8488184815
 10
-21.6523759987
 20
24.8093142979
 10
-21.6258783359
 20
24.7723294093
 10
-21.5994322518
 20
24.7379176007
 10
-21.5731343539
 20
24.7059316751
 10
-21.5471636872
 20
24.6763380416
 10
-21.5216082764
 20
24.6490023316
 10
-21.496390113
 20
24.6236437817
 10
-21.4716176475
 20
24.6002016943
 10
-21.4473576966
 20
24.578578886
 10
-21.4234315817
 20
24.5584849933
 10
-21.399848631
 20
24.5398251717
 10
-21.3767078229
 20
24.5225793731
 10
-21.3539412848
 20
24.5066069503
 10
-21.3315366289
 20
24.4918231617
 10
-21.3095811875
 20
24.4782122774
 10
-21.2881481971
 20
24.4657435417
 10
-21.2672525955
 20
24.454350831
 10
-21.2469358225
 20
24.443984687
 10
-21.2273078437
 20
24.4346267438
 10
-21.2083788178
 20
24.4262066696
 10
-21.1901777371
 20
24.4186653724
 10
-21.1728400901
 20
24.4119844257
 10
-21.1564189692
 20
24.4061066513
 10
-21.1408845107
 20
24.4009479008
 10
-21.1262445092
 20
24.3964429552
  0
LWPOLYLINE
  5
360
100
AcDbEntity
  8
RACCORDO
100
AcDbPolyline
 62
253
  6
CONTINUOUS
 90
21
 70
0
 10
-20.9913436507
 20
26.5878779477
 10
-21.0057391762
 20
26.5919947639
 10
-21.0211015541
 20
26.596072964
 10
-21.0374253382
 20
26.6000494401
 10
-21.0547507616
 20
26.6038667272
 10
-21.0730207651
 20
26.6074408674
 10
-21.09208145
 20
26.6106736228
 10
-21.1119095939
 20
26.6134956202
 10
-21.1324991224
 20
26.6158375857
 10
-21.1537199074
 20
26.6176178898
 10
-21.1755447749
 20
26.6187702013
 10
-21.1979583662
 20
26.6192272565
 10
-21.2208468564
 20
26.6189219645
 10
-21.2441488895
 20
26.6177945558
 10
-21.2678706745
 20
26.6157821532
 10
-21.2919967866
 20
26.6128185334
 10
-21.3164305314
 20
26.6088484381
 10
-21.3411963187
 20
26.6037984597
 10
-21.3664484358
 20
26.597548475
 10
-21.3921135821
 20
26.5900124222
 10
-21.4195132683
 20
26.5805905663
  0
LWPOLYLINE
  5
361
100
AcDbEntity
  8
RACCORDO
100
AcDbPolyline
 62
253
  6
CONTINUOUS
 90
55
 70
0
 10
-5.239917428
 20
21.0111974366
 10
-5.2224947333
 20
21.0061888559
 10
-5.2046451519
 20
21.0013473439
 10
-5.1863852208
 20
20.9966775205
 10
-5.167731093
 20
20.9921836188
 10
-5.1486979372
 20
20.9878691372
 10
-5.129300651
 20
20.9837374715
 10
-5.1095547342
 20
20.9797919647
 10
-5.0894769154
 20
20.9760358589
 10
-5.0690840589
 20
20.972472378
 10
-5.0483931136
 20
20.9691045584
 10
-5.0274212334
 20
20.9659350715
 10
-5.0061856332
 20
20.962966555
 10
-4.9847037622
 20
20.9602015164
 10
-4.9629935199
 20
20.9576421505
 10
-4.941072823
 20
20.955290607
 10
-4.9189597086
 20
20.9531488999
 10
-4.896672584
 20
20.9512187061
 10
-4.8742299353
 20
20.9495016541
 10
-4.851650289
 20
20.9479992403
 10
-4.8289523659
 20
20.9467126052
 10
-4.8061549499
 20
20.9456428341
 10
-4.7832768732
 20
20.9447908941
 10
-4.7603370848
 20
20.9441573884
 10
-4.7373545444
 20
20.9437428551
 10
-4.7143482375
 20
20.943547724
 10
-4.6913372137
 20
20.9435720587
 10
-4.6683405294
 20
20.9438158472
 10
-4.6453772186
 20
20.9442789782
 10
-4.6224662587
 20
20.9449609736
 10
-4.5996266216
 20
20.94586127
 10
-4.5768772494
 20
20.9469792142
 10
-4.5542369078
 20
20.9483137914
 10
-4.5317243043
 20
20.9498638939
 10
-4.5093581166
 20
20.9516283336
 10
-4.4871567968
 20
20.9536055667
 10
-4.4651387088
 20
20.9557939458
 10
-4.4433221402
 20
20.9581917547
 10
-4.4217250798
 20
20.9607969326
 10
-4.4003654291
 20
20.9636073004
 10
-4.3792610005
 20
20.9666206177
 10
-4.3584291401
 20
20.9698343237
 10
-4.3378870237
 20
20.9732457378
 10
-4.3176518017
 20
20.9768521191
 10
-4.2977400873
 20
20.980650434
 10
-4.2781682073
 20
20.9846375376
 10
-4.258952422
 20
20.9888102384
 10
-4.2401086851
 20
20.9931649929
 10
-4.2216527954
 20
20.9976980834
 10
-4.2036004209
 20
21.0024057612
 10
-4.1859659971
 20
21.0072842171
 10
-4.1687633161
 20
21.0123296218
 10
-4.1520063973
 20
21.017538032
 10
-4.1357099995
 20
21.0229047477
 10
-4.1198891651
 20
21.0284246543
  0
LWPOLYLINE
  5
362
100
AcDbEntity
  8
ASSI
100
AcDbPolyline
 62
253
  6
CONTINUOUS
 90
55
 70
0
 10
-5.239917428
 20
21.0111974366
 10
-5.2224947333
 20
21.0061888559
 10
-5.2046451519
 20
21.0013473439
 10
-5.1863852208
 20
20.9966775205
 10
-5.167731093
 20
20.9921836188
 10
-5.1486979372
 20
20.9878691372
 10
-5.129300651
 20
20.9837374715
 10
-5.1095547342
 20
20.9797919647
 10
-5.0894769154
 20
20.9760358589
 10
-5.0690840589
 20
20.972472378
 10
-5.0483931136
 20
20.9691045584
 10
-5.0274212334
 20
20.9659350715
 10
-5.0061856332
 20
20.962966555
 10
-4.9847037622
 20
20.9602015164
 10
-4.9629935199
 20
20.9576421505
 10
-4.941072823
 20
20.955290607
 10
-4.9189597086
 20
20.9531488999
 10
-4.896672584
 20
20.9512187061
 10
-4.8742299353
 20
20.9495016541
 10
-4.851650289
 20
20.9479992403
 10
-4.8289523659
 20
20.9467126052
 10
-4.8061549499
 20
20.9456428341
 10
-4.7832768732
 20
20.9447908941
 10
-4.7603370848
 20
20.9441573884
 10
-4.7373545444
 20
20.9437428551
 10
-4.7143482375
 20
20.943547724
 10
-4.6913372137
 20
20.9435720587
 10
-4.6683405294
 20
20.9438158472
 10
-4.6453772186
 20
20.9442789782
 10
-4.6224662587
 20
20.9449609736
 10
-4.5996266216
 20
20.94586127
 10
-4.5768772494
 20
20.9469792142
 10
-4.5542369078
 20
20.9483137914
 10
-4.5317243043
 20
20.9498638939
 10
-4.5093581166
 20
20.9516283336
 10
-4.4871567968
 20
20.9536055667
 10
-4.4651387088
 20
20.9557939458
 10
-4.4433221402
 20
20.9581917547
 10
-4.4217250798
 20
20.9607969326
 10
-4.4003654291
 20
20.9636073004
 10
-4.3792610005
 20
20.9666206177
 10
-4.3584291401
 20
20.9698343237
 10
-4.3378870237
 20
20.9732457378
 10
-4.3176518017
 20
20.9768521191
 10
-4.2977400873
 20
20.980650434
 10
-4.2781682073
 20
20.9846375376
 10
-4.258952422
 20
20.9888102384
 10
-4.2401086851
 20
20.9931649929
 10
-4.2216527954
 20
20.9976980834
 10
-4.2036004209
 20
21.0024057612
 10
-4.1859659971
 20
21.0072842171
 10
-4.1687633161
 20
21.0123296218
 10
-4.1520063973
 20
21.017538032
 10
-4.1357099995
 20
21.0229047477
 10
-4.1198891651
 20
21.0284246543
  0
LWPOLYLINE
  5
363
100
AcDbEntity
  8
RACCORDO
100
AcDbPolyline
 62
7
  6
CONTINUOUS
 90
3
 70
0
 10
-5.1638619427
 20
20.8686651035
 10
-5.1497761322
 20
20.864601522
 10
-5.1291864524
 20
20.8590210188
  0
LINE
  5
364
100
AcDbEntity
  8
RACCORDO
100
AcDbLine
 62
253
  6
CONTINUOUS
 10
-5.1077245765
 20
20.5887741528
 11
-19.8281003601
 21
24.94450953
  0
LINE
  5
365
100
AcDbEntity
  8
ASSI
100
AcDbLine
 62
253
  6
CONTINUOUS
 10
-5.1077245765
 20
20.5887741528
 11
-19.8281003601
 21
24.94450953
  0
LINE
  5
366
100
AcDbEntity
  8
RACCORDO
100
AcDbLine
 62
253
  6
CONTINUOUS
 10
-22.1627071583
 20
25.6353159043
 11
-36.8830829414
 21
29.9910512817
  0
LINE
  5
367
100
AcDbEntity
  8
ASSI
100
AcDbLine
 62
253
  6
CONTINUOUS
 10
-22.1627071583
 20
25.6353159043
 11
-36.8830829414
 21
29.9910512817
  0
LINE
  5
368
100
AcDbEntity
  8
CURVE
100
AcDbLine
 62
252
  6
CONTINUOUS
 10
-5.2404901881
 20
20.6807595063
 11
-19.7692844838
 21
24.9798062314
  0
LINE
  5
369
100
AcDbEntity
  8
ASSI
100
AcDbLine
 62
252
  6
CONTINUOUS
 10
-5.2404901881
 20
20.6807595063
 11
-19.8778359908
 21
25.0119264466
  0
LINE
  5
36A
100
AcDbEntity
  8
CURVE
100
AcDbLine
 62
252
  6
CONTINUOUS
 10
-21.9585088406
 20
25.6275941764
 11
-37.015843231
 21
30.0830350604
  0
LINE
  5
36B
100
AcDbEntity
  8
ASSI
100
AcDbLine
 62
252
  6
CONTINUOUS
 10
-21.9585088406
 20
25.6275941764
 11
-37.015843231
 21
30.0830350604
  0
LINE
  5
36C
100
AcDbEntity
  8
RACCORDO
100
AcDbLine
 62
7
  6
CONTINUOUS
 10
-36.7504026668
 20
30.040465389
 11
-22.0300295444
 21
25.6847307991
  0
LINE
  5
36D
100
AcDbEntity
  8
ASSI
100
AcDbLine
 62
7
  6
CONTINUOUS
 10
-36.7504026668
 20
30.040465389
 11
-22.0300295444
 21
25.6847307991
  0
LINE
  5
36E
100
AcDbEntity
  8
RACCORDO
100
AcDbLine
 62
7
  6
CONTINUOUS
 10
-19.6954227463
 20
24.9939244248
 11
-4.9750496239
 21
20.6381898349
  0
LINE
  5
36F
100
AcDbEntity
  8
ASSI
100
AcDbLine
 62
7
  6
CONTINUOUS
 10
-19.6954227463
 20
24.9939244248
 11
-4.9750496239
 21
20.6381898349
  0
LINE
  5
370
100
AcDbEntity
  8
RACCORDO
100
AcDbLine
 62
7
  6
CONTINUOUS
 10
-36.9392104321
 20
30.2709392875
 11
-22.2188346488
 21
25.9152039102
  0
LINE
  5
371
100
AcDbEntity
  8
ASSI
100
AcDbLine
 62
7
  6
CONTINUOUS
 10
-36.9392104321
 20
30.2709392875
 11
-22.2188346488
 21
25.9152039102
  0
LINE
  5
372
100
AcDbEntity
  8
RACCORDO
100
AcDbLine
 62
7
  6
CONTINUOUS
 10
-19.8842278506
 20
25.2243975359
 11
-5.1638520672
 21
20.8686621586
  0
LINE
  5
373
100
AcDbEntity
  8
ASSI
100
AcDbLine
 62
7
  6
CONTINUOUS
 10
-19.8842278506
 20
25.2243975359
 11
-5.1638520672
 21
20.8686621586
  0
LINE
  5
374
100
AcDbEntity
  8
RACCORDO
100
AcDbLine
 62
253
  6
CONTINUOUS
 10
-37.0152758281
 20
30.4134745518
 11
-22.2949000447
 21
26.0577391742
  0
LINE
  5
375
100
AcDbEntity
  8
ASSI
100
AcDbLine
 62
253
  6
CONTINUOUS
 10
-37.0152758281
 20
30.4134745518
 11
-22.2949000447
 21
26.0577391742
  0
LINE
  5
376
100
AcDbEntity
  8
RACCORDO
100
AcDbLine
 62
253
  6
CONTINUOUS
 10
-19.9602932466
 20
25.3669328
 11
-5.2399174633
 21
21.0111974229
  0
LINE
  5
377
100
AcDbEntity
  8
ASSI
100
AcDbLine
 62
253
  6
CONTINUOUS
 10
-19.9602932466
 20
25.3669328
 11
-5.2399174633
 21
21.0111974229
  0
LINE
  5
378
100
AcDbEntity
  8
ASSI
100
AcDbLine
 62
253
  6
CONTINUOUS
 10
-22.21886516
 20
25.9152129451
 11
-22.2188346495
 21
25.9152039104
  0
LWPOLYLINE
  5
379
100
AcDbEntity
  8
RACCORDO
100
AcDbPolyline
 62
7
  6
CONTINUOUS
 90
28
 70
0
 10
-19.8842278506
 20
25.2243975359
 10
-19.8921682904
 20
25.226928179
 10
-19.9000031871
 20
25.2297900656
 10
-19.9077151416
 20
25.2329775581
 10
-19.9153077575
 20
25.2364939173
 10
-19.9227436455
 20
25.2403231538
 10
-19.9299476518
 20
25.2444209803
 10
-19.9368489308
 20
25.2487308903
 10
-19.9435001759
 20
25.2532687605
 10
-19.9500074862
 20
25.2581048509
 10
-19.9563939186
 20
25.2632685151
 10
-19.9625995845
 20
25.2687235651
 10
-19.9685981163
 20
25.2744536441
 10
-19.974364217
 20
25.2804387436
 10
-19.9798935534
 20
25.286678075
 10
-19.9851902294
 20
25.2931836582
 10
-19.9902454822
 20
25.2999561221
 10
-19.9950344293
 20
25.3069734093
 10
-19.9995363075
 20
25.3142135034
 10
-20.0037304725
 20
25.3216480878
 10
-20.0076130751
 20
25.3292745466
 10
-20.0111871128
 20
25.337109466
 10
-20.0144506505
 20
25.3451701601
 10
-20.0173745686
 20
25.3534070577
 10
-20.0199276886
 20
25.3617351297
 10
-20.0220909684
 20
25.3700617304
 10
-20.023887406
 20
25.3784384963
 10
-20.0247566916
 20
25.3832835293
  0
LWPOLYLINE
  5
37A
100
AcDbEntity
  8
RACCORDO
100
AcDbPolyline
 62
7
  6
CONTINUOUS
 90
14
 70
0
 10
-22.0300295444
 20
25.6847307991
 10
-22.0239372156
 20
25.6827738396
 10
-22.0178612311
 20
25.6805067005
 10
-22.011801591
 20
25.6779293819
 10
-22.0057422333
 20
25.6750342592
 10
-21.9996992199
 20
25.671828957
 10
-21.9937207363
 20
25.668336349
 10
-21.9878105909
 20
25.6645542884
 10
-21.9819649753
 20
25.660484922
 10
-21.9762206488
 20
25.656157564
 10
-21.9705882344
 20
25.6515806588
 10
-21.9650571091
 20
25.646745762
 10
-21.9596321633
 20
25.6416568555
 10
-21.958910797
 20
25.6409323376
  0
LWPOLYLINE
  5
37B
100
AcDbEntity
  8
ASSI
100
AcDbPolyline
 62
7
  6
CONTINUOUS
 90
14
 70
0
 10
-22.0300295444
 20
25.6847307991
 10
-22.0239372156
 20
25.6827738396
 10
-22.0178612311
 20
25.6805067005
 10
-22.011801591
 20
25.6779293819
 10
-22.0057422333
 20
25.6750342592
 10
-21.9996992199
 20
25.671828957
 10
-21.9937207363
 20
25.668336349
 10
-21.9878105909
 20
25.6645542884
 10
-21.9819649753
 20
25.660484922
 10
-21.9762206488
 20
25.656157564
 10
-21.9705882344
 20
25.6515806588
 10
-21.9650571091
 20
25.646745762
 10
-21.9596321633
 20
25.6416568555
 10
-21.958910797
 20
25.6409323376
  0
LWPOLYLINE
  5
37C
100
AcDbEntity
  8
ASSI
100
AcDbPolyline
 62
7
  6
CONTINUOUS
 90
11
 70
0
 10
-19.8842278506
 20
25.2243975359
 10
-19.9043840873
 20
25.2315547597
 10
-19.9237823925
 20
25.2408900212
 10
-19.9421222073
 20
25.2522961369
 10
-19.959019237
 20
25.265520985
 10
-19.9743666924
 20
25.2804414427
 10
-19.9882281648
 20
25.2971815562
 10
-20.0003837055
 20
25.3156571634
 10
-20.0105022432
 20
25.3355369292
 10
-20.018408028
 20
25.3566244377
 10
-20.0239255683
 20
25.378637718
  0
LWPOLYLINE
  5
37D
100
AcDbEntity
  8
0
100
AcDbPolyline
 62
7
  6
CONTINUOUS
 90
22
 70
0
 10
-20.8118112079
 20
26.643706551
 10
-20.8233591774
 20
26.6479075283
 10
-20.8484371373
 20
26.6561774057
 10
-20.873543331
 20
26.6636062878
 10
-20.898623523
 20
26.6701781264
 10
-20.9236776572
 20
26.6758910688
 10
-20.9487057898
 20
26.6807469678
 10
-20.973653854
 20
26.6847353334
 10
-20.9985216768
 20
26.6878542902
 10
-21.0233094313
 20
26.6901057137
 10
-21.0479635699
 20
26.6914847402
 10
-21.072483804
 20
26.6919894838
 10
-21.0968704222
 20
26.6916218305
 10
-21.1210707438
 20
26.6903825744
 10
-21.1450843659
 20
26.6882698313
 10
-21.1689116913
 20
26.6852854855
 10
-21.1925012474
 20
26.6814359838
 10
-21.2158525201
 20
26.676719456
 10
-21.2389660234
 20
26.6711377724
 10
-21.2617918267
 20
26.6647029906
 10
-21.284329308
 20
26.6574132666
 10
-21.2988190781
 20
26.6522194705
  0
LWPOLYLINE
  5
37E
100
AcDbEntity
  8
ASSI
100
AcDbPolyline
 62
7
  6
CONTINUOUS
 90
22
 70
0
 10
-20.8118112079
 20
26.643706551
 10
-20.8233591774
 20
26.6479075283
 10
-20.8484371373
 20
26.6561774057
 10
-20.873543331
 20
26.6636062878
 10
-20.898623523
 20
26.6701781264
 10
-20.9236776572
 20
26.6758910688
 10
-20.9487057898
 20
26.6807469678
 10
-20.973653854
 20
26.6847353334
 10
-20.9985216768
 20
26.6878542902
 10
-21.0233094313
 20
26.6901057137
 10
-21.0479635699
 20
26.6914847402
 10
-21.072483804
 20
26.6919894838
 10
-21.0968704222
 20
26.6916218305
 10
-21.1210707438
 20
26.6903825744
 10
-21.1450843659
 20
26.6882698313
 10
-21.1689116913
 20
26.6852854855
 10
-21.1925012474
 20
26.6814359838
 10
-21.2158525201
 20
26.676719456
 10
-21.2389660234
 20
26.6711377724
 10
-21.2617918267
 20
26.6647029906
 10
-21.284329308
 20
26.6574132666
 10
-21.2988190781
 20
26.6522194705
  0
LWPOLYLINE
  5
37F
100
AcDbEntity
  8
RACCORDO
100
AcDbPolyline
 62
253
  6
CONTINUOUS
 90
3
 70
0
 10
-19.8941464714
 20
25.2280745458
 10
-19.8894635508
 20
25.2261493254
 10
-19.8842278506
 20
25.2243975359
  0
LINE
  5
380
100
AcDbEntity
  8
RACCORDO
100
AcDbLine
 62
253
  6
CONTINUOUS
 10
-20.8858533755
 20
26.792838191
 11
-20.8566687132
 21
26.7762208215
  0
LWPOLYLINE
  5
381
100
AcDbEntity
  8
RACCORDO
100
AcDbPolyline
 62
253
  6
CONTINUOUS
 90
45
 70
0
 10
-20.8566687132
 20
26.7762208215
 10
-20.8276551984
 20
26.7587302638
 10
-20.7988124396
 20
26.7403681559
 10
-20.770194293
 20
26.7211687565
 10
-20.7418010765
 20
26.7011305108
 10
-20.713632322
 20
26.6802550286
 10
-20.685740701
 20
26.6585813179
 10
-20.6581266609
 20
26.6361079356
 10
-20.6307895729
 20
26.6128363912
 10
-20.6037804906
 20
26.5888101226
 10
-20.5770999041
 20
26.5640277405
 10
-20.5507471148
 20
26.5384907105
 10
-20.5247713925
 20
26.5122467543
 10
-20.4991733303
 20
26.4852945931
 10
-20.4739521043
 20
26.4576355902
 10
-20.4491548609
 20
26.4293214292
 10
-20.4247822474
 20
26.4003508972
 10
-20.4008333684
 20
26.3707252982
 10
-20.3773530623
 20
26.3405000895
 10
-20.3543420772
 20
26.3096741829
 10
-20.3317994052
 20
26.2782487622
 10
-20.3097672609
 20
26.2462826895
 10
-20.2882464815
 20
26.2137750103
 10
-20.2672359641
 20
26.1807267769
 10
-20.2467750259
 20
26.1471998577
 10
-20.2268645637
 20
26.1131933961
 10
-20.2075034151
 20
26.0787083466
 10
-20.1887278261
 20
26.0438092878
 10
-20.1705387777
 20
26.0084955158
 10
-20.1529350293
 20
25.9727678306
 10
-20.1359495142
 20
25.9366930586
 10
-20.1195832542
 20
25.9002705669
 10
-20.1038349798
 20
25.8635010804
 10
-20.0887342109
 20
25.8264534526
 10
-20.0742819888
 20
25.7891269933
 10
-20.0604770418
 20
25.7515224785
 10
-20.047345448
 20
25.7137109519
 10
-20.0348883471
 20
25.6756917637
 10
-20.0231043919
 20
25.6374656412
 10
-20.0120159601
 20
25.599105683
 10
-20.0016244457
 20
25.5606122103
 10
-19.9919282753
 20
25.5219849692
 10
-19.9829454098
 20
25.4832961828
 10
-19.9746817946
 20
25.4445699414
 10
-19.9671313403
 20
25.4057822092
  0
LWPOLYLINE
  5
382
100
AcDbEntity
  8
ASSI
100
AcDbPolyline
 62
253
  6
CONTINUOUS
 90
44
 70
0
 10
-20.8566687132
 20
26.7762208215
 10
-20.8276551984
 20
26.7587302638
 10
-20.7988124396
 20
26.7403681559
 10
-20.770194293
 20
26.7211687565
 10
-20.7418010765
 20
26.7011305108
 10
-20.713632322
 20
26.6802550286
 10
-20.685740701
 20
26.6585813179
 10
-20.6581266609
 20
26.6361079356
 10
-20.6307895729
 20
26.6128363912
 10
-20.6037804906
 20
26.5888101226
 10
-20.5770999041
 20
26.5640277405
 10
-20.5507471148
 20
26.5384907105
 10
-20.5247713925
 20
26.5122467543
 10
-20.4991733303
 20
26.4852945931
 10
-20.4739521043
 20
26.4576355902
 10
-20.4491548609
 20
26.4293214292
 10
-20.4247822474
 20
26.4003508972
 10
-20.4008333684
 20
26.3707252982
 10
-20.3773530623
 20
26.3405000895
 10
-20.3543420772
 20
26.3096741829
 10
-20.3317994052
 20
26.2782487622
 10
-20.3097672609
 20
26.2462826895
 10
-20.2882464815
 20
26.2137750103
 10
-20.2672359641
 20
26.1807267769
 10
-20.2467750259
 20
26.1471998577
 10
-20.2268645637
 20
26.1131933961
 10
-20.2075034151
 20
26.0787083466
 10
-20.1887278261
 20
26.0438092878
 10
-20.1705387777
 20
26.0084955158
 10
-20.1529350293
 20
25.9727678306
 10
-20.1359495142
 20
25.9366930586
 10
-20.1195832542
 20
25.9002705669
 10
-20.1038349798
 20
25.8635010804
 10
-20.0887342109
 20
25.8264534526
 10
-20.0742819888
 20
25.7891269933
 10
-20.0604770418
 20
25.7515224785
 10
-20.047345448
 20
25.7137109519
 10
-20.0348883471
 20
25.6756917637
 10
-20.0231043919
 20
25.6374656412
 10
-20.0120159601
 20
25.599105683
 10
-20.0016244457
 20
25.5606122103
 10
-19.9919282753
 20
25.5219849692
 10
-19.9829454098
 20
25.4832961828
 10
-19.9746817946
 20
25.4445699414
  0
LINE
  5
383
100
AcDbEntity
  8
ASSI
100
AcDbLine
 62
253
  6
CONTINUOUS
 10
-19.9746817946
 20
25.4445699414
 11
-19.9671313403
 21
25.4057822092
  0
LINE
  5
384
100
AcDbEntity
  8
RACCORDO
100
AcDbLine
 62
253
  6
CONTINUOUS
 10
-19.9671313403
 20
25.4057822092
 11
-19.9602939721
 21
25.3669330146
  0
LINE
  5
385
100
AcDbEntity
  8
ASSI
100
AcDbLine
 62
253
  6
CONTINUOUS
 10
-19.9671313403
 20
25.4057822092
 11
-19.9602939721
 21
25.3669330146
  0
LINE
  5
386
100
AcDbEntity
  8
CURVE
100
AcDbLine
 62
252
  6
CONTINUOUS
 10
-20.4693560973
 20
12.9279209908
 11
-20.4721989664
 21
12.908949661
  0
LINE
  5
387
100
AcDbEntity
  8
CURVE
100
AcDbLine
 62
252
  6
CONTINUOUS
 10
-20.4720715372
 20
12.9097265906
 11
-20.4754565321
 21
12.8909580204
  0
LINE
  5
388
100
AcDbEntity
  8
CURVE
100
AcDbLine
 62
252
  6
CONTINUOUS
 10
-20.4752972945
 20
12.8917713949
 11
-20.4792334987
 21
12.8732015422
  0
LINE
  5
389
100
AcDbEntity
  8
CURVE
100
AcDbLine
 62
252
  6
CONTINUOUS
 10
-20.4790356852
 20
12.8740673305
 11
-20.4835256302
 21
12.8557130772
  0
LINE
  5
38A
100
AcDbEntity
  8
CURVE
100
AcDbLine
 62
252
  6
CONTINUOUS
 10
-21.4209356326
 20
13.4989981031
 11
-21.4161142814
 21
13.5185897667
  0
LWPOLYLINE
  5
38B
100
AcDbEntity
  8
CURVE
100
AcDbPolyline
 62
252
  6
CONTINUOUS
 90
3
 70
0
 10
-20.4832824306
 20
12.856642223
 10
-20.4883267155
 20
12.8385311173
 10
-20.4936305433
 20
12.8216941544
  0
LINE
  5
38C
100
AcDbEntity
  8
CURVE
100
AcDbLine
 62
252
  6
CONTINUOUS
 10
-21.4163250863
 20
13.5177903638
 11
-21.4108676734
 21
13.5370839415
  0
LINE
  5
38D
100
AcDbEntity
  8
CURVE
100
AcDbLine
 62
252
  6
CONTINUOUS
 10
-20.4932772761
 20
12.8227560791
 11
-20.4880316033
 21
12.8395278724
  0
LINE
  5
38E
100
AcDbEntity
  8
CURVE
100
AcDbLine
 62
252
  6
CONTINUOUS
 10
-21.411123658
 20
13.5362330945
 11
-21.4050338605
 21
13.5551784367
  0
LINE
  5
38F
100
AcDbEntity
  8
CURVE
100
AcDbLine
 62
252
  6
CONTINUOUS
 10
-21.4053382001
 20
13.5542846157
 11
-21.3986200929
 21
13.5728295429
  0
LINE
  5
390
100
AcDbEntity
  8
CURVE
100
AcDbLine
 62
252
  6
CONTINUOUS
 10
-21.3989755648
 20
13.5719032482
 11
-21.3916335616
 21
13.589997011
  0
LWPOLYLINE
  5
391
100
AcDbEntity
  8
RACCORDO
100
AcDbPolyline
 62
253
  6
CONTINUOUS
 90
57
 70
0
 10
-20.4301838204
 20
24.3548173205
 10
-20.401699349
 20
24.3756161088
 10
-20.3730884366
 20
24.3990384015
 10
-20.3445206409
 20
24.4252518026
 10
-20.3161809452
 20
24.4544173554
 10
-20.2882004165
 20
24.4867718695
 10
-20.2607840722
 20
24.5225024754
 10
-20.2341963237
 20
24.5617303048
 10
-20.2086920803
 20
24.6045894699
 10
-20.1844748155
 20
24.6513353267
 10
-20.1619162788
 20
24.7019243452
 10
-20.1414803066
 20
24.7559478724
 10
-20.1233869695
 20
24.8134540747
 10
-20.1079088333
 20
24.8743207335
 10
-20.0954190752
 20
24.9377095725
 10
-20.0860553839
 20
25.0033743624
 10
-20.079923081
 20
25.0711901597
 10
-20.0771420131
 20
25.1403645436
 10
-20.0777229187
 20
25.2105131391
 10
-20.0816600971
 20
25.2815080764
 10
-20.0889192884
 20
25.3528928914
 10
-20.0994485787
 20
25.4243878577
 10
-20.1131886005
 20
25.4957482025
 10
-20.1300290982
 20
25.5665686298
 10
-20.1499909353
 20
25.6369993949
 10
-20.1728749242
 20
25.7063903861
 10
-20.1980362704
 20
25.7731979005
 10
-20.2251312224
 20
25.8371394207
 10
-20.2539326042
 20
25.8982345086
 10
-20.283713165
 20
25.9555488768
 10
-20.3138681404
 20
26.0086464392
 10
-20.3443219944
 20
26.0580469267
 10
-20.3751281484
 20
26.1043150027
 10
-20.4061627228
 20
26.1476324397
 10
-20.4371368862
 20
26.1879362398
 10
-20.4679374952
 20
26.2253987939
 10
-20.4983548511
 20
26.260059438
 10
-20.5282858536
 20
26.2920755514
 10
-20.5578218644
 20
26.3217759766
 10
-20.5868358633
 20
26.3492318067
 10
-20.6152495943
 20
26.3745568624
 10
-20.6432723299
 20
26.3980912226
 10
-20.6708931447
 20
26.4199459708
 10
-20.6979961132
 20
26.4401445881
 10
-20.7246607295
 20
26.4588518016
 10
-20.7509015024
 20
26.4761668615
 10
-20.7766161465
 20
26.4921081917
 10
-20.8017188852
 20
26.5067118162
 10
-20.8261922234
 20
26.5200551829
 10
-20.8499876261
 20
26.5321962158
 10
-20.8729762997
 20
26.5431564189
 10
-20.8951463458
 20
26.5530181612
 10
-20.9164638074
 20
26.561850657
 10
-20.9367699979
 20
26.5696754962
 10
-20.956002735
 20
26.57655965
 10
-20.9741969956
 20
26.5826016718
 10
-20.9913436507
 20
26.5878779477
  0
LWPOLYLINE
  5
392
100
AcDbEntity
  8
RACCORDO
100
AcDbPolyline
 62
7
  6
CONTINUOUS
 90
4
 70
0
 10
-20.4488513495
 20
24.144258035
 10
-20.4697786957
 20
24.1344279393
 10
-20.4911504954
 20
24.1253867308
 10
-20.50459102
 20
24.1201963855
  0
LINE
  5
393
100
AcDbEntity
  8
ASSI
100
AcDbLine
 62
7
  6
CONTINUOUS
 10
-20.4631112925
 20
24.1374526328
 11
-20.5049952855
 21
24.1200460174
  0
LINE
  5
394
100
AcDbEntity
  8
ASSI
100
AcDbLine
 62
253
  6
CONTINUOUS
 10
-19.8334528773
 20
24.9423628304
 11
-19.8281003601
 21
24.94450953
  0
LWPOLYLINE
  5
395
100
AcDbEntity
  8
RACCORDO
100
AcDbPolyline
 62
253
  6
CONTINUOUS
 90
6
 70
0
 10
-20.5653106728
 20
24.2843250905
 10
-20.5409721145
 20
24.2939896495
 10
-20.5138793677
 20
24.3062107178
 10
-20.4864043205
 20
24.3202744519
 10
-20.4584737701
 20
24.3364174331
 10
-20.4301838204
 20
24.3548173205
  0
LWPOLYLINE
  5
396
100
AcDbEntity
  8
0
100
AcDbPolyline
 62
7
  6
CONTINUOUS
 90
22
 70
0
 10
-20.4262612014
 20
24.3094367945
 10
-20.4185011904
 20
24.3123858206
 10
-20.396587174
 20
24.3213641503
 10
-20.3750096484
 20
24.3311797939
 10
-20.3537678876
 20
24.3418309452
 10
-20.3329077789
 20
24.3532945951
 10
-20.3124301474
 20
24.3655725001
 10
-20.2923341681
 20
24.3786629037
 10
-20.2726632529
 20
24.3925375275
 10
-20.2534183209
 20
24.407198067
 10
-20.2345984531
 20
24.4226428266
 10
-20.2162443049
 20
24.4388384422
 10
-20.1983568831
 20
24.4557865368
 10
-20.180935181
 20
24.4734854873
 10
-20.1640168334
 20
24.4918970598
 10
-20.1476029286
 20
24.5110227947
 10
-20.1316923785
 20
24.5308611516
 10
-20.1163195536
 20
24.5513692749
 10
-20.1014856163
 20
24.5725486124
 10
-20.0871894042
 20
24.5943977163
 10
-20.0734618006
 20
24.6168693873
 10
-20.0680386648
 20
24.6263885176
  0
LWPOLYLINE
  5
397
100
AcDbEntity
  8
ASSI
100
AcDbPolyline
 62
7
  6
CONTINUOUS
 90
22
 70
0
 10
-20.4262612014
 20
24.3094367945
 10
-20.4185011904
 20
24.3123858206
 10
-20.396587174
 20
24.3213641503
 10
-20.3750096484
 20
24.3311797939
 10
-20.3537678876
 20
24.3418309452
 10
-20.3329077789
 20
24.3532945951
 10
-20.3124301474
 20
24.3655725001
 10
-20.2923341681
 20
24.3786629037
 10
-20.2726632529
 20
24.3925375275
 10
-20.2534183209
 20
24.407198067
 10
-20.2345984531
 20
24.4226428266
 10
-20.2162443049
 20
24.4388384422
 10
-20.1983568831
 20
24.4557865368
 10
-20.180935181
 20
24.4734854873
 10
-20.1640168334
 20
24.4918970598
 10
-20.1476029286
 20
24.5110227947
 10
-20.1316923785
 20
24.5308611516
 10
-20.1163195536
 20
24.5513692749
 10
-20.1014856163
 20
24.5725486124
 10
-20.0871894042
 20
24.5943977163
 10
-20.0734618006
 20
24.6168693873
 10
-20.0680386648
 20
24.6263885176
  0
LINE
  5
398
100
AcDbEntity
  8
RACCORDO
100
AcDbLine
 62
7
  6
CONTINUOUS
 10
-19.7654751668
 20
24.9926799653
 11
-19.8981527809
 21
24.9432650704
  0
LINE
  5
399
100
AcDbEntity
  8
ASSI
100
AcDbLine
 62
7
  6
CONTINUOUS
 10
-19.7654751668
 20
24.9926799653
 11
-19.8981527809
 21
24.9432650704
  0
LINE
  5
39A
100
AcDbEntity
  8
RACCORDO
100
AcDbLine
 62
253
  6
CONTINUOUS
 10
-19.6954227463
 20
24.9939244248
 11
-19.8281003601
 21
24.94450953
  0
LINE
  5
39B
100
AcDbEntity
  8
ASSI
100
AcDbLine
 62
253
  6
CONTINUOUS
 10
-19.6954227463
 20
24.9939244248
 11
-19.8281003601
 21
24.94450953
  0
LINE
  5
39C
100
AcDbEntity
  8
0
100
AcDbLine
 62
7
  6
CONTINUOUS
 10
-20.5653106729
 20
24.2843250904
 11
-20.2706543645
 21
24.3940678727
  0
LINE
  5
39D
100
AcDbEntity
  8
RACCORDO
100
AcDbLine
 62
7
  6
CONTINUOUS
 10
-20.5045094797
 20
24.1202266361
 11
-20.5045887055
 21
24.1201971346
  0
LINE
  5
39E
100
AcDbEntity
  8
ASSI
100
AcDbLine
 62
7
  6
CONTINUOUS
 10
-20.5045094797
 20
24.1202266361
 11
-20.5049928993
 21
24.1200467948
  0
LWPOLYLINE
  5
39F
100
AcDbEntity
  8
RACCORDO
100
AcDbPolyline
 62
253
  6
CONTINUOUS
 90
75
 70
0
 10
-20.5045887055
 20
24.1201971346
 10
-20.5159763845
 20
24.1160703263
 10
-20.5393588984
 20
24.1082907736
 10
-20.5630267597
 20
24.1013379666
 10
-20.5869651284
 20
24.0952162209
 10
-20.6111594781
 20
24.089929168
 10
-20.6355946936
 20
24.0854800782
 10
-20.6602554208
 20
24.081871722
 10
-20.6851265571
 20
24.0791062059
 10
-20.710192521
 20
24.0771852285
 10
-20.7354376239
 20
24.0761099708
 10
-20.7608464262
 20
24.0758809819
 10
-20.7864030654
 20
24.076498381
 10
-20.8120915125
 20
24.0779617752
 10
-20.8378959469
 20
24.0802701669
 10
-20.8638002384
 20
24.0834220897
 10
-20.8897881787
 20
24.0874155717
 10
-20.9158437415
 20
24.092248081
 10
-20.9419506744
 20
24.097916586
 10
-20.9680926251
 20
24.104417548
 10
-20.994253374
 20
24.1117469072
 10
-21.0204166011
 20
24.1199000748
 10
-21.0465659351
 20
24.1288719664
 10
-21.0726850801
 20
24.1386570204
 10
-21.0987577404
 20
24.1492491153
 10
-21.1247676151
 20
24.1606416504
 10
-21.1506984458
 20
24.1728276043
 10
-21.1765340805
 20
24.1857993729
 10
-21.202258349
 20
24.1995488653
 10
-21.2278550557
 20
24.2140676063
 10
-21.2533082332
 20
24.229346522
 10
-21.2786019815
 20
24.2453760944
 10
-21.3037203398
 20
24.2621464812
 10
-21.3286476745
 20
24.2796472313
 10
-21.3533683813
 20
24.2978674196
 10
-21.3778667217
 20
24.3167958173
 10
-21.4021274048
 20
24.3364205896
 10
-21.4261352916
 20
24.3567295119
 10
-21.4498750914
 20
24.3777101256
 10
-21.4733320162
 20
24.3993493455
 10
-21.4964913964
 20
24.4216336626
 10
-21.5193383807
 20
24.4445493732
 10
-21.5418587194
 20
24.4680821687
 10
-21.5640383446
 20
24.4922173663
 10
-21.5858629788
 20
24.5169401283
 10
-21.6073190316
 20
24.5422350476
 10
-21.6283930722
 20
24.5680863064
 10
-21.6490714071
 20
24.5944779126
 10
-21.669341134
 20
24.6213933801
 10
-21.6891895924
 20
24.6488158962
 10
-21.708603837
 20
24.6767284808
 10
-21.7275717288
 20
24.7051136564
 10
-21.7460814482
 20
24.7339537158
 10
-21.7641209451
 20
24.763230889
 10
-21.7816789493
 20
24.7929268726
 10
-21.7987445005
 20
24.8230231084
 10
-21.8153064568
 20
24.8535010539
 10
-21.8313544641
 20
24.8843416614
 10
-21.8468784979
 20
24.915525645
 10
-21.8618683819
 20
24.9470337676
 10
-21.8763147512
 20
24.9788463767
 10
-21.8902085579
 20
25.0109435317
 10
-21.9035406067
 20
25.0433052757
 10
-21.9163026016
 20
25.0759115221
 10
-21.928486507
 20
25.10874172
 10
-21.9400840816
 20
25.1417749711
 10
-21.9510881408
 20
25.1749908105
 10
-21.961491764
 20
25.2083682372
 10
-21.9712877496
 20
25.2418853529
 10
-21.9804698959
 20
25.2755206656
 10
-21.9890327085
 20
25.3092536093
 10
-21.9969706624
 20
25.3430635566
 10
-22.0042787635
 20
25.3769295089
 10
-22.0109525742
 20
25.4108301071
 10
-22.0169879724
 20
25.4447441365
  0
LWPOLYLINE
  5
3A0
100
AcDbEntity
  8
ASSI
100
AcDbPolyline
 62
253
  6
CONTINUOUS
 90
75
 70
0
 10
-20.5049928993
 20
24.1200467948
 10
-20.5159763845
 20
24.1160703263
 10
-20.5393588984
 20
24.1082907736
 10
-20.5630267597
 20
24.1013379666
 10
-20.5869651284
 20
24.0952162209
 10
-20.6111594781
 20
24.089929168
 10
-20.6355946936
 20
24.0854800782
 10
-20.6602554208
 20
24.081871722
 10
-20.6851265571
 20
24.0791062059
 10
-20.710192521
 20
24.0771852285
 10
-20.7354376239
 20
24.0761099708
 10
-20.7608464262
 20
24.0758809819
 10
-20.7864030654
 20
24.076498381
 10
-20.8120915125
 20
24.0779617752
 10
-20.8378959469
 20
24.0802701669
 10
-20.8638002384
 20
24.0834220897
 10
-20.8897881787
 20
24.0874155717
 10
-20.9158437415
 20
24.092248081
 10
-20.9419506744
 20
24.097916586
 10
-20.9680926251
 20
24.104417548
 10
-20.994253374
 20
24.1117469072
 10
-21.0204166011
 20
24.1199000748
 10
-21.0465659351
 20
24.1288719664
 10
-21.0726850801
 20
24.1386570204
 10
-21.0987577404
 20
24.1492491153
 10
-21.1247676151
 20
24.1606416504
 10
-21.1506984458
 20
24.1728276043
 10
-21.1765340805
 20
24.1857993729
 10
-21.202258349
 20
24.1995488653
 10
-21.2278550557
 20
24.2140676063
 10
-21.2533082332
 20
24.229346522
 10
-21.2786019815
 20
24.2453760944
 10
-21.3037203398
 20
24.2621464812
 10
-21.3286476745
 20
24.2796472313
 10
-21.3533683813
 20
24.2978674196
 10
-21.3778667217
 20
24.3167958173
 10
-21.4021274048
 20
24.3364205896
 10
-21.4261352916
 20
24.3567295119
 10
-21.4498750914
 20
24.3777101256
 10
-21.4733320162
 20
24.3993493455
 10
-21.4964913964
 20
24.4216336626
 10
-21.5193383807
 20
24.4445493732
 10
-21.5418587194
 20
24.4680821687
 10
-21.5640383446
 20
24.4922173663
 10
-21.5858629788
 20
24.5169401283
 10
-21.6073190316
 20
24.5422350476
 10
-21.6283930722
 20
24.5680863064
 10
-21.6490714071
 20
24.5944779126
 10
-21.669341134
 20
24.6213933801
 10
-21.6891895924
 20
24.6488158962
 10
-21.708603837
 20
24.6767284808
 10
-21.7275717288
 20
24.7051136564
 10
-21.7460814482
 20
24.7339537158
 10
-21.7641209451
 20
24.763230889
 10
-21.7816789493
 20
24.7929268726
 10
-21.7987445005
 20
24.8230231084
 10
-21.8153064568
 20
24.8535010539
 10
-21.8313544641
 20
24.8843416614
 10
-21.8468784979
 20
24.915525645
 10
-21.8618683819
 20
24.9470337676
 10
-21.8763147512
 20
24.9788463767
 10
-21.8902085579
 20
25.0109435317
 10
-21.9035406067
 20
25.0433052757
 10
-21.9163026016
 20
25.0759115221
 10
-21.928486507
 20
25.10874172
 10
-21.9400840816
 20
25.1417749711
 10
-21.9510881408
 20
25.1749908105
 10
-21.961491764
 20
25.2083682372
 10
-21.9712877496
 20
25.2418853529
 10
-21.9804698959
 20
25.2755206656
 10
-21.9890327085
 20
25.3092536093
 10
-21.9969706624
 20
25.3430635566
 10
-22.0042787635
 20
25.3769295089
 10
-22.0109525742
 20
25.4108301071
 10
-22.0169879724
 20
25.4447441365
  0
LWPOLYLINE
  5
3A1
100
AcDbEntity
  8
RACCORDO
100
AcDbPolyline
 62
7
  6
CONTINUOUS
 90
13
 70
0
 10
-19.7654749638
 20
24.9926802954
 10
-19.7604444828
 20
24.9944044529
 10
-19.7549049525
 20
24.9959635605
 10
-19.7492648898
 20
24.9972049581
 10
-19.7435136578
 20
24.9981307988
 10
-19.7376618935
 20
24.9987389294
 10
-19.7317464047
 20
24.9990218041
 10
-19.7257633914
 20
24.9989750245
 10
-19.7197166537
 20
24.9986029889
 10
-19.7136543995
 20
24.9979113463
 10
-19.7075926982
 20
24.9969019796
 10
-19.7015154805
 20
24.9955730057
 10
-19.6954227463
 20
24.9939244248
  0
LWPOLYLINE
  5
3A2
100
AcDbEntity
  8
ASSI
100
AcDbPolyline
 62
7
  6
CONTINUOUS
 90
13
 70
0
 10
-19.7654749638
 20
24.9926802954
 10
-19.7604444828
 20
24.9944044529
 10
-19.7549049525
 20
24.9959635605
 10
-19.7492648898
 20
24.9972049581
 10
-19.7435136578
 20
24.9981307988
 10
-19.7376618935
 20
24.9987389294
 10
-19.7317464047
 20
24.9990218041
 10
-19.7257633914
 20
24.9989750245
 10
-19.7197166537
 20
24.9986029889
 10
-19.7136543995
 20
24.9979113463
 10
-19.7075926982
 20
24.9969019796
 10
-19.7015154805
 20
24.9955730057
 10
-19.6954227463
 20
24.9939244248
  0
LWPOLYLINE
  5
3A3
100
AcDbEntity
  8
ASSI
100
AcDbPolyline
 62
253
  6
CONTINUOUS
 90
12
 70
0
 10
-19.8981527809
 20
24.9432650704
 10
-19.8931792249
 20
24.9449693729
 10
-19.8870506802
 20
24.9466782906
 10
-19.8808032371
 20
24.9480006798
 10
-19.8744495495
 20
24.9489338621
 10
-19.8680024863
 20
24.9494759473
 10
-19.8614751058
 20
24.9496258376
 10
-19.8548806288
 20
24.9493832292
 10
-19.8482324121
 20
24.9487486135
 10
-19.8415439214
 20
24.9477232761
 10
-19.8348287037
 20
24.9463092935
 10
-19.8281003605
 20
24.9445095299
  0
LWPOLYLINE
  5
3A4
100
AcDbEntity
  8
RACCORDO
100
AcDbPolyline
 62
253
  6
CONTINUOUS
 90
12
 70
0
 10
-19.8981518451
 20
24.943265419
 10
-19.8931792249
 20
24.9449693729
 10
-19.8870506802
 20
24.9466782906
 10
-19.8808032371
 20
24.9480006798
 10
-19.8744495495
 20
24.9489338621
 10
-19.8680024863
 20
24.9494759473
 10
-19.8614751058
 20
24.9496258376
 10
-19.8548806288
 20
24.9493832292
 10
-19.8482324121
 20
24.9487486135
 10
-19.8415439214
 20
24.9477232761
 10
-19.8348287037
 20
24.9463092935
 10
-19.8281003605
 20
24.9445095299
  0
LWPOLYLINE
  5
3A5
100
AcDbEntity
  8
RACCORDO
100
AcDbPolyline
 62
7
  6
CONTINUOUS
 90
10
 70
0
 10
-20.5653106668
 20
24.2843250927
 10
-20.6151501728
 20
24.2678319615
 10
-20.6664195388
 20
24.2549775654
 10
-20.7189375057
 20
24.2458636188
 10
-20.7724710061
 20
24.2405770119
 10
-20.826870272
 20
24.2391744703
 10
-20.8820837122
 20
24.2417155121
 10
-20.9379739131
 20
24.248269745
 10
-20.9943038927
 20
24.2588838606
 10
-21.0508812436
 20
24.2735897433
  0
LWPOLYLINE
  5
3A6
100
AcDbEntity
  8
RACCORDO
100
AcDbPolyline
 62
7
  6
CONTINUOUS
 90
69
 70
0
 10
-21.416910163
 20
26.7642131223
 10
-21.3925759834
 20
26.7697382131
 10
-21.368041514
 20
26.7742684253
 10
-21.3433207019
 20
26.7778140847
 10
-21.3184323644
 20
26.7803842446
 10
-21.2933738682
 20
26.7819898049
 10
-21.2681608537
 20
26.7826390538
 10
-21.2428131855
 20
26.7823399386
 10
-21.217335908
 20
26.7811007841
 10
-21.1917463418
 20
26.7789295231
 10
-21.1660663327
 20
26.7758347391
 10
-21.1403089669
 20
26.7718251102
 10
-21.1144946581
 20
26.7669101027
 10
-21.088645114
 20
26.7611001999
 10
-21.0627759358
 20
26.7544056008
 10
-21.036916502
 20
26.7468403262
 10
-21.0110808204
 20
26.7384152347
 10
-20.9852610486
 20
26.7291331952
 10
-20.9594819357
 20
26.7190069307
 10
-20.9337615459
 20
26.7080478622
 10
-20.9080812163
 20
26.6962506748
 10
-20.882460659
 20
26.6836247585
 10
-20.8569222601
 20
26.6701820373
 10
-20.8314508986
 20
26.655914113
 10
-20.8060605582
 20
26.6408259668
 10
-20.7807790978
 20
26.6249318551
 10
-20.7556119859
 20
26.6082328664
 10
-20.7305775535
 20
26.5907376496
 10
-20.7056987866
 20
26.5724592943
 10
-20.6809878237
 20
26.5534038009
 10
-20.6564647847
 20
26.5335830541
 10
-20.6321499034
 20
26.5130102958
 10
-20.6080551622
 20
26.4916924927
 10
-20.5841992596
 20
26.4696422264
 10
-20.5606027356
 20
26.4468750037
 10
-20.5372800167
 20
26.4234014334
 10
-20.5142498243
 20
26.3992364345
 10
-20.4915311984
 20
26.3743965093
 10
-20.4691386833
 20
26.3488942746
 10
-20.4470903408
 20
26.3227464222
 10
-20.4254041852
 20
26.2959708465
 10
-20.4040943459
 20
26.268581751
 10
-20.3831772161
 20
26.2405962902
 10
-20.3626706626
 20
26.2120348194
 10
-20.3425905529
 20
26.1829164315
 10
-20.3229528342
 20
26.1532608063
 10
-20.3037734633
 20
26.1230889327
 10
-20.2850676506
 20
26.0924222371
 10
-20.2668502629
 20
26.0612822073
 10
-20.249135699
 20
26.0296908832
 10
-20.2319377318
 20
25.9976709228
 10
-20.215269711
 20
25.9652448598
 10
-20.1991447349
 20
25.9324361445
 10
-20.1835754008
 20
25.8992692173
 10
-20.1685736295
 20
25.8657679154
 10
-20.1541508609
 20
25.8319565074
 10
-20.1403180891
 20
25.7978604821
 10
-20.1270856308
 20
25.7635046362
 10
-20.1144632566
 20
25.7289139885
 10
-20.1024602078
 20
25.6941147226
 10
-20.0910850861
 20
25.6591323139
 10
-20.080345947
 20
25.6239923868
 10
-20.0702502252
 20
25.5887216562
 10
-20.0608047291
 20
25.5533460476
 10
-20.0520157306
 20
25.5178915906
 10
-20.04388881
 20
25.482385406
 10
-20.0364289894
 20
25.4468540395
 10
-20.0296405983
 20
25.4113233417
 10
-20.024757543
 20
25.38328825
  0
LINE
  5
3A7
100
AcDbEntity
  8
RACCORDO
100
AcDbLine
 62
7
  6
CONTINUOUS
 10
-0.5168851668
 20
22.0485395015
 11
-0.367327878
 21
22.0042857417
  0
LINE
  5
3A8
100
AcDbEntity
  8
ASSI
100
AcDbLine
 62
7
  6
CONTINUOUS
 10
-0.5168851668
 20
22.0485395015
 11
-0.367327878
 21
22.0042857417
  0
LINE
  5
3A9
100
AcDbEntity
  8
CURVE
100
AcDbLine
 62
252
  6
CONTINUOUS
 10
-20.4932772761
 20
12.8227560791
 11
-20.4994309036
 21
12.8052376553
  0
LINE
  5
3AA
100
AcDbEntity
  8
CURVE
100
AcDbLine
 62
252
  6
CONTINUOUS
 10
-20.4990142983
 20
12.8063560205
 11
-20.5057215907
 21
12.7891849865
  0
LINE
  5
3AB
100
AcDbEntity
  8
CURVE
100
AcDbLine
 62
252
  6
CONTINUOUS
 10
-20.5052406258
 20
12.7903463836
 11
-20.5124964003
 21
12.7735564892
  0
LINE
  5
3AC
100
AcDbEntity
  8
CURVE
100
AcDbLine
 62
252
  6
CONTINUOUS
 10
-21.3920417441
 20
13.5890508385
 11
-21.3840812209
 21
13.6066544319
  0
LINE
  5
3AD
100
AcDbEntity
  8
CURVE
100
AcDbLine
 62
252
  6
CONTINUOUS
 10
-20.5119549914
 20
12.7747432328
 11
-20.5197491281
 21
12.7583725048
  0
LINE
  5
3AE
100
AcDbEntity
  8
CURVE
100
AcDbLine
 62
252
  6
CONTINUOUS
 10
-21.3845392879
 20
13.6057033371
 11
-21.3759699659
 21
13.6227788564
  0
LINE
  5
3AF
100
AcDbEntity
  8
CURVE
100
AcDbLine
 62
252
  6
CONTINUOUS
 10
-21.3764698854
 20
13.6218402203
 11
-21.3673066915
 21
13.6383473354
  0
LINE
  5
3B0
100
AcDbEntity
  8
CURVE
100
AcDbLine
 62
252
  6
CONTINUOUS
 10
-20.5191561278
 20
12.7595626324
 11
-20.5286143069
 21
12.7415883655
  0
LINE
  5
3B1
100
AcDbEntity
  8
CURVE
100
AcDbLine
 62
252
  6
CONTINUOUS
 10
-20.5279778495
 20
12.7427521482
 11
-20.5380809414
 21
12.7254332885
  0
LINE
  5
3B2
100
AcDbEntity
  8
CURVE
100
AcDbLine
 62
252
  6
CONTINUOUS
 10
-20.5374163949
 20
12.7265430716
 11
-20.5481343712
 21
12.7099291797
  0
LWPOLYLINE
  5
3B3
100
AcDbEntity
  8
CURVE
100
AcDbPolyline
 62
252
  6
CONTINUOUS
 90
8
 70
0
 10
-21.3580996689
 20
13.6533383188
 10
-21.3483626726
 20
13.667735852
 10
-21.3381108533
 20
13.6815253796
 10
-21.3273593615
 20
13.6946923461
 10
-21.3161232987
 20
13.707221973
 10
-21.3044175689
 20
13.719098591
 10
-21.2922570274
 20
13.7303063078
 10
-21.2796565291
 20
13.7408292313
  0
LINE
  5
3B4
100
AcDbEntity
  8
CURVE
100
AcDbLine
 62
252
  6
CONTINUOUS
 10
-20.547454461
 20
12.7109639254
 11
-20.5587599362
 21
12.6950979446
  0
LWPOLYLINE
  5
3B5
100
AcDbEntity
  8
RACCORDO
100
AcDbPolyline
 62
253
  6
CONTINUOUS
 90
8
 70
0
 10
-36.9920755207
 20
30.2730364004
 10
-36.9857993003
 20
30.2738902419
 10
-36.9794366213
 20
30.2743767369
 10
-36.9729995953
 20
30.2744949593
 10
-36.9665004756
 20
30.2742446843
 10
-36.9599516338
 20
30.2736263881
 10
-36.9533655357
 20
30.2726412477
 10
-36.9467547186
 20
30.2712911384
  0
LINE
  5
3B6
100
AcDbEntity
  8
CURVE
100
AcDbLine
 62
252
  6
CONTINUOUS
 10
-20.5580747444
 20
12.6960432325
 11
-20.5699429761
 21
12.6809614891
  0
LINE
  5
3B7
100
AcDbEntity
  8
CURVE
100
AcDbLine
 62
252
  6
CONTINUOUS
 10
-20.5692599421
 20
12.6818095158
 11
-20.5816688306
 21
12.667541719
  0
LINE
  5
3B8
100
AcDbEntity
  8
CURVE
100
AcDbLine
 62
252
  6
CONTINUOUS
 10
-20.5809927507
 20
12.6682912981
 11
-20.5939228394
 21
12.6548605399
  0
LWPOLYLINE
  5
3B9
100
AcDbEntity
  8
CURVE
100
AcDbPolyline
 62
252
  6
CONTINUOUS
 90
8
 70
0
 10
-21.2800124907
 20
13.7405461448
 10
-21.294415469
 20
13.7283819664
 10
-21.3082445397
 20
13.7153135227
 10
-21.3214726727
 20
13.701370346
 10
-21.3340728379
 20
13.6865819693
 10
-21.3460180053
 20
13.670977925
 10
-21.3572811447
 20
13.6545877458
 10
-21.3678352261
 20
13.6374409645
  0
LINE
  5
3BA
100
AcDbEntity
  8
CURVE
100
AcDbLine
 62
252
  6
CONTINUOUS
 10
-21.2800124907
 20
13.7405461448
 11
-21.2647371422
 21
13.7519974712
  0
LINE
  5
3BB
100
AcDbEntity
  8
CURVE
100
AcDbLine
 62
252
  6
CONTINUOUS
 10
-20.5932558671
 20
12.6555171023
 11
-20.6066891446
 21
12.6429384888
  0
LINE
  5
3BC
100
AcDbEntity
  8
CURVE
100
AcDbLine
 62
252
  6
CONTINUOUS
 10
-20.6060313526
 20
12.643512716
 11
-20.619947097
 21
12.6317906282
  0
LINE
  5
3BD
100
AcDbEntity
  8
CURVE
100
AcDbLine
 62
252
  6
CONTINUOUS
 10
-20.6192987259
 20
12.6322929854
 11
-20.6336748493
 21
12.6214306514
  0
LINE
  5
3BE
100
AcDbEntity
  8
CURVE
100
AcDbLine
 62
252
  6
CONTINUOUS
 10
-20.6330368703
 20
12.6218700216
 11
-20.6478505548
 21
12.611872252
  0
LINE
  5
3BF
100
AcDbEntity
  8
CURVE
100
AcDbLine
 62
252
  6
CONTINUOUS
 10
-21.2650624436
 20
13.751778914
 11
-21.2492897899
 21
13.7622325104
  0
LINE
  5
3C0
100
AcDbEntity
  8
CURVE
100
AcDbLine
 62
252
  6
CONTINUOUS
 10
-21.2495914011
 20
13.7620626867
 11
-21.2333417419
 21
13.7715163296
  0
LINE
  5
3C1
100
AcDbEntity
  8
CURVE
100
AcDbLine
 62
252
  6
CONTINUOUS
 10
-21.2336252455
 20
13.7713822644
 11
-21.2169202676
 21
13.7798309093
  0
LINE
  5
3C2
100
AcDbEntity
  8
CURVE
100
AcDbLine
 62
252
  6
CONTINUOUS
 10
-21.217189859
 20
13.7797224487
 11
-21.2000526368
 21
13.7871582301
  0
LINE
  5
3C3
100
AcDbEntity
  8
RACCORDO
100
AcDbLine
 62
253
  6
CONTINUOUS
 10
-4.1937008155
 20
20.8875856997
 11
-4.1993967403
 21
20.8853299737
  0
LINE
  5
3C4
100
AcDbEntity
  8
RACCORDO
100
AcDbLine
 62
253
  6
CONTINUOUS
 10
-4.1198891226
 20
21.0284246412
 11
-0.2171505704
 21
22.4317003838
  0
LINE
  5
3C5
100
AcDbEntity
  8
ASSI
100
AcDbLine
 62
253
  6
CONTINUOUS
 10
-4.1198891226
 20
21.0284246412
 11
-0.2171505704
 21
22.4317003838
  0
LINE
  5
3C6
100
AcDbEntity
  8
RACCORDO
100
AcDbLine
 62
7
  6
CONTINUOUS
 10
-4.1994120654
 20
20.8853244619
 11
-0.2979470686
 21
22.2881422826
  0
LINE
  5
3C7
100
AcDbEntity
  8
ASSI
100
AcDbLine
 62
7
  6
CONTINUOUS
 10
-4.1994120654
 20
20.8853244619
 11
-0.2979470686
 21
22.2881422826
  0
LINE
  5
3C8
100
AcDbEntity
  8
0
100
AcDbLine
 62
7
  6
CONTINUOUS
 10
-4.4150354055
 20
20.6469135413
 11
-0.5168851668
 21
22.0485395015
  0
LINE
  5
3C9
100
AcDbEntity
  8
ASSI
100
AcDbLine
 62
7
  6
CONTINUOUS
 10
-4.4150354055
 20
20.6469135413
 11
-0.5168851668
 21
22.0485395015
  0
LINE
  5
3CA
100
AcDbEntity
  8
CURVE
100
AcDbLine
 62
252
  6
CONTINUOUS
 10
-0.2175845835
 20
22.1015325025
 11
-4.1204617513
 21
20.698206919
  0
LINE
  5
3CB
100
AcDbEntity
  8
ASSI
100
AcDbLine
 62
252
  6
CONTINUOUS
 10
-0.2175845835
 20
22.1015325025
 11
-4.1204617513
 21
20.698206919
  0
LINE
  5
3CC
100
AcDbEntity
  8
RACCORDO
100
AcDbLine
 62
253
  6
CONTINUOUS
 10
-0.367327878
 20
22.0042857417
 11
-4.2677029656
 21
20.6018598108
  0
LINE
  5
3CD
100
AcDbEntity
  8
ASSI
100
AcDbLine
 62
253
  6
CONTINUOUS
 10
-0.367327878
 20
22.0042857417
 11
-4.2677029656
 21
20.6018598108
  0
LINE
  5
3CE
100
AcDbEntity
  8
RACCORDO
100
AcDbLine
 62
253
  6
CONTINUOUS
 10
-0.2180185965
 20
21.7713646212
 11
-4.1207571487
 21
20.3680888786
  0
LINE
  5
3CF
100
AcDbEntity
  8
ASSI
100
AcDbLine
 62
253
  6
CONTINUOUS
 10
-0.2180185965
 20
21.7713646212
 11
-4.1207571487
 21
20.3680888786
  0
LWPOLYLINE
  5
3D0
100
AcDbEntity
  8
RACCORDO
100
AcDbPolyline
 62
253
  6
CONTINUOUS
 90
55
 70
0
 10
-4.1207571913
 20
20.3680888916
 10
-4.1365780423
 20
20.3625562703
 10
-4.1528744568
 20
20.357176873
 10
-4.1696313922
 20
20.3519558141
 10
-4.1868340898
 20
20.3468977835
 10
-4.2044685301
 20
20.3420067347
 10
-4.2225209212
 20
20.3372865282
 10
-4.2409768273
 20
20.3327409732
 10
-4.2598205804
 20
20.3283738182
 10
-4.2790363819
 20
20.3241888117
 10
-4.298608278
 20
20.3201894973
 10
-4.3185200083
 20
20.3163790664
 10
-4.3387552461
 20
20.3127606937
 10
-4.3592973781
 20
20.3093374132
 10
-4.3801292539
 20
20.3061119655
 10
-4.4012336977
 20
20.3030870601
 10
-4.4225933634
 20
20.3002652581
 10
-4.4441904386
 20
20.2976487996
 10
-4.4660070218
 20
20.2952398916
 10
-4.4880251242
 20
20.2930405954
 10
-4.5102264581
 20
20.2910526265
 10
-4.5325926596
 20
20.2892776589
 10
-4.5551052767
 20
20.287717237
 10
-4.5777456316
 20
20.2863725482
 10
-4.6004950168
 20
20.2852447252
 10
-4.6233346665
 20
20.2843347834
 10
-4.6462456388
 20
20.2836433752
 10
-4.6692089617
 20
20.2831710874
 10
-4.6922056577
 20
20.2829183987
 10
-4.7152166928
 20
20.2828854196
 10
-4.7382230108
 20
20.2830721834
 10
-4.7612055618
 20
20.2834786274
 10
-4.7841453605
 20
20.2841043208
 10
-4.807023447
 20
20.284948745
 10
-4.8298208725
 20
20.2860112971
 10
-4.8525188048
 20
20.2872910097
 10
-4.8750984597
 20
20.2887868143
 10
-4.8975411167
 20
20.2904975711
 10
-4.9198282491
 20
20.2924217831
 10
-4.9419413709
 20
20.2945578363
 10
-4.9638620748
 20
20.2969040548
 10
-4.9855723237
 20
20.2994584237
 10
-5.0070542009
 20
20.3022188055
 10
-5.0282898068
 20
20.3051830062
 10
-5.0492616922
 20
20.3083485177
 10
-5.0699526422
 20
20.3117127117
 10
-5.0903455031
 20
20.315272918
 10
-5.1104233257
 20
20.319026099
 10
-5.1301692459
 20
20.3229690382
 10
-5.149566535
 20
20.3270984943
 10
-5.1685996932
 20
20.3314111236
 10
-5.1872538229
 20
20.3359035346
 10
-5.2055137556
 20
20.3405722307
 10
-5.223363338
 20
20.3454129773
 10
-5.2407860331
 20
20.3504211543
  0
LWPOLYLINE
  5
3D1
100
AcDbEntity
  8
ASSI
100
AcDbPolyline
 62
253
  6
CONTINUOUS
 90
55
 70
0
 10
-4.1207571913
 20
20.3680888916
 10
-4.1365780423
 20
20.3625562703
 10
-4.1528744568
 20
20.357176873
 10
-4.1696313922
 20
20.3519558141
 10
-4.1868340898
 20
20.3468977835
 10
-4.2044685301
 20
20.3420067347
 10
-4.2225209212
 20
20.3372865282
 10
-4.2409768273
 20
20.3327409732
 10
-4.2598205804
 20
20.3283738182
 10
-4.2790363819
 20
20.3241888117
 10
-4.298608278
 20
20.3201894973
 10
-4.3185200083
 20
20.3163790664
 10
-4.3387552461
 20
20.3127606937
 10
-4.3592973781
 20
20.3093374132
 10
-4.3801292539
 20
20.3061119655
 10
-4.4012336977
 20
20.3030870601
 10
-4.4225933634
 20
20.3002652581
 10
-4.4441904386
 20
20.2976487996
 10
-4.4660070218
 20
20.2952398916
 10
-4.4880251242
 20
20.2930405954
 10
-4.5102264581
 20
20.2910526265
 10
-4.5325926596
 20
20.2892776589
 10
-4.5551052767
 20
20.287717237
 10
-4.5777456316
 20
20.2863725482
 10
-4.6004950168
 20
20.2852447252
 10
-4.6233346665
 20
20.2843347834
 10
-4.6462456388
 20
20.2836433752
 10
-4.6692089617
 20
20.2831710874
 10
-4.6922056577
 20
20.2829183987
 10
-4.7152166928
 20
20.2828854196
 10
-4.7382230108
 20
20.2830721834
 10
-4.7612055618
 20
20.2834786274
 10
-4.7841453605
 20
20.2841043208
 10
-4.807023447
 20
20.284948745
 10
-4.8298208725
 20
20.2860112971
 10
-4.8525188048
 20
20.2872910097
 10
-4.8750984597
 20
20.2887868143
 10
-4.8975411167
 20
20.2904975711
 10
-4.9198282491
 20
20.2924217831
 10
-4.9419413709
 20
20.2945578363
 10
-4.9638620748
 20
20.2969040548
 10
-4.9855723237
 20
20.2994584237
 10
-5.0070542009
 20
20.3022188055
 10
-5.0282898068
 20
20.3051830062
 10
-5.0492616922
 20
20.3083485177
 10
-5.0699526422
 20
20.3117127117
 10
-5.0903455031
 20
20.315272918
 10
-5.1104233257
 20
20.319026099
 10
-5.1301692459
 20
20.3229690382
 10
-5.149566535
 20
20.3270984943
 10
-5.1685996932
 20
20.3314111236
 10
-5.1872538229
 20
20.3359035346
 10
-5.2055137556
 20
20.3405722307
 10
-5.223363338
 20
20.3454129773
 10
-5.2407860331
 20
20.3504211543
  0
LWPOLYLINE
  5
3D2
100
AcDbEntity
  8
RACCORDO
100
AcDbPolyline
 62
253
  6
CONTINUOUS
 90
55
 70
0
 10
-4.2677029656
 20
20.6018598108
 10
-4.2795808499
 20
20.597711232
 10
-4.2917949262
 20
20.5936840749
 10
-4.3043451947
 20
20.5897783394
 10
-4.3172429987
 20
20.5859908472
 10
-4.3304769949
 20
20.5823247766
 10
-4.3440131527
 20
20.5787896627
 10
-4.3578518508
 20
20.5753859683
 10
-4.3719927107
 20
20.5721132305
 10
-4.3864005661
 20
20.568979596
 10
-4.4010760282
 20
20.5659854246
 10
-4.4160184859
 20
20.5631303565
 10
-4.4311909397
 20
20.5604214584
 10
-4.4465939655
 20
20.5578590897
 10
-4.4622269875
 20
20.5554428911
 10
-4.4780512787
 20
20.5531788509
 10
-4.4940673361
 20
20.5510673442
 10
-4.5102746628
 20
20.549107996
 10
-4.5266330407
 20
20.5473056698
 10
-4.543142832
 20
20.5456607573
 10
-4.5598036745
 20
20.5441728669
 10
-4.5765742643
 20
20.5428456867
 10
-4.5934548667
 20
20.5416796156
 10
-4.6104452163
 20
20.5406742546
 10
-4.6275032139
 20
20.5398320953
 10
-4.644629037
 20
20.5391535418
 10
-4.6618225081
 20
20.53863819
 10
-4.6790409952
 20
20.5382873184
 10
-4.696284563
 20
20.5381013356
 10
-4.7135531468
 20
20.538079833
 10
-4.7308039205
 20
20.5382228635
 10
-4.7480368277
 20
20.5385308353
 10
-4.7652519247
 20
20.5390033402
 10
-4.7824065542
 20
20.5396392071
 10
-4.7995005731
 20
20.5404388413
 10
-4.8165341245
 20
20.5414018376
 10
-4.8334649803
 20
20.5425258089
 10
-4.8502928989
 20
20.5438111564
 10
-4.867018122
 20
20.545257479
 10
-4.883599146
 20
20.5468611861
 10
-4.9000355899
 20
20.5486226663
 10
-4.9163278348
 20
20.5505415311
 10
-4.9324355202
 20
20.552613024
 10
-4.9483581825
 20
20.5548375208
 10
-4.9640962853
 20
20.5572146458
 10
-4.9796108597
 20
20.5597385154
 10
-4.9949014068
 20
20.5624095066
 10
-5.0099684255
 20
20.5652272425
 10
-5.0247744435
 20
20.5681847082
 10
-5.0393191933
 20
20.5712823671
 10
-5.0536029424
 20
20.5745197557
 10
-5.0675890222
 20
20.5778884692
 10
-5.0812652097
 20
20.5813857056
 10
-5.0946437278
 20
20.5850142669
 10
-5.1077245765
 20
20.5887741528
  0
LWPOLYLINE
  5
3D3
100
AcDbEntity
  8
ASSI
100
AcDbPolyline
 62
253
  6
CONTINUOUS
 90
55
 70
0
 10
-4.2677029656
 20
20.6018598108
 10
-4.2795808499
 20
20.597711232
 10
-4.2917949262
 20
20.5936840749
 10
-4.3043451947
 20
20.5897783394
 10
-4.3172429987
 20
20.5859908472
 10
-4.3304769949
 20
20.5823247766
 10
-4.3440131527
 20
20.5787896627
 10
-4.3578518508
 20
20.5753859683
 10
-4.3719927107
 20
20.5721132305
 10
-4.3864005661
 20
20.568979596
 10
-4.4010760282
 20
20.5659854246
 10
-4.4160184859
 20
20.5631303565
 10
-4.4311909397
 20
20.5604214584
 10
-4.4465939655
 20
20.5578590897
 10
-4.4622269875
 20
20.5554428911
 10
-4.4780512787
 20
20.5531788509
 10
-4.4940673361
 20
20.5510673442
 10
-4.5102746628
 20
20.549107996
 10
-4.5266330407
 20
20.5473056698
 10
-4.543142832
 20
20.5456607573
 10
-4.5598036745
 20
20.5441728669
 10
-4.5765742643
 20
20.5428456867
 10
-4.5934548667
 20
20.5416796156
 10
-4.6104452163
 20
20.5406742546
 10
-4.6275032139
 20
20.5398320953
 10
-4.644629037
 20
20.5391535418
 10
-4.6618225081
 20
20.53863819
 10
-4.6790409952
 20
20.5382873184
 10
-4.696284563
 20
20.5381013356
 10
-4.7135531468
 20
20.538079833
 10
-4.7308039205
 20
20.5382228635
 10
-4.7480368277
 20
20.5385308353
 10
-4.7652519247
 20
20.5390033402
 10
-4.7824065542
 20
20.5396392071
 10
-4.7995005731
 20
20.5404388413
 10
-4.8165341245
 20
20.5414018376
 10
-4.8334649803
 20
20.5425258089
 10
-4.8502928989
 20
20.5438111564
 10
-4.867018122
 20
20.545257479
 10
-4.883599146
 20
20.5468611861
 10
-4.9000355899
 20
20.5486226663
 10
-4.9163278348
 20
20.5505415311
 10
-4.9324355202
 20
20.552613024
 10
-4.9483581825
 20
20.5548375208
 10
-4.9640962853
 20
20.5572146458
 10
-4.9796108597
 20
20.5597385154
 10
-4.9949014068
 20
20.5624095066
 10
-5.0099684255
 20
20.5652272425
 10
-5.0247744435
 20
20.5681847082
 10
-5.0393191933
 20
20.5712823671
 10
-5.0536029424
 20
20.5745197557
 10
-5.0675890222
 20
20.5778884692
 10
-5.0812652097
 20
20.5813857056
 10
-5.0946437278
 20
20.5850142669
 10
-5.1077245765
 20
20.5887741528
  0
LINE
  5
3D4
100
AcDbEntity
  8
ASSI
100
AcDbLine
 62
7
  6
CONTINUOUS
 10
-4.2552505188
 20
20.8672107998
 11
-4.1988768087
 21
20.8855187322
  0
LWPOLYLINE
  5
3D5
100
AcDbEntity
  8
RACCORDO
100
AcDbPolyline
 62
7
  6
CONTINUOUS
 90
4
 70
0
 10
-4.254361014
 20
20.8674702247
 10
-4.2339919777
 20
20.8736679469
 10
-4.213834676
 20
20.8802782999
 10
-4.1993967487
 20
20.8853299971
  0
LWPOLYLINE
  5
3D6
100
AcDbEntity
  8
CURVE
100
AcDbPolyline
 62
252
  6
CONTINUOUS
 90
8
 70
0
 10
-4.1204617513
 20
20.698206919
 10
-4.2527901843
 20
20.6600700765
 10
-4.4096916047
 20
20.6321146292
 10
-4.5787249181
 20
20.6165572325
 10
-4.7568324033
 20
20.6136793112
 10
-4.9298914856
 20
20.6237090627
 10
-5.0947716199
 20
20.6464650543
 10
-5.240490202
 20
20.6807595104
  0
LWPOLYLINE
  5
3D7
100
AcDbEntity
  8
ASSI
100
AcDbPolyline
 62
252
  6
CONTINUOUS
 90
8
 70
0
 10
-4.1204617513
 20
20.698206919
 10
-4.2527901843
 20
20.6600700765
 10
-4.4096916047
 20
20.6321146292
 10
-4.5787249181
 20
20.6165572325
 10
-4.7568324033
 20
20.6136793112
 10
-4.9298914856
 20
20.6237090627
 10
-5.0947716199
 20
20.6464650543
 10
-5.240490202
 20
20.6807595104
  0
LWPOLYLINE
  5
3D8
100
AcDbEntity
  8
RACCORDO
100
AcDbPolyline
 62
253
  6
CONTINUOUS
 90
52
 70
0
 10
-3.6274494726
 20
40.0361483329
 10
-3.6441765218
 20
40.0318762347
 10
-3.6614342306
 20
40.0277754605
 10
-3.6792065898
 20
40.0238498143
 10
-3.6974771131
 20
40.0201029379
 10
-3.7162288518
 20
40.016538307
 10
-3.7354444109
 20
40.0131592283
 10
-3.755105965
 20
40.0099688363
 10
-3.7751952753
 20
40.0069700908
 10
-3.7956937057
 20
40.0041657734
 10
-3.8165822412
 20
40.0015584856
 10
-3.8378415043
 20
39.999150646
 10
-3.859451774
 20
39.9969444883
 10
-3.8813930036
 20
39.994942059
 10
-3.9036448394
 20
39.9931452156
 10
-3.9261866393
 20
39.9915556249
 10
-3.9489974927
 20
39.9901747617
 10
-3.972056239
 20
39.9890039067
 10
-3.9953414878
 20
39.9880441462
 10
-4.0188316386
 20
39.9872963705
 10
-4.0425049008
 20
39.9867612732
 10
-4.066339314
 20
39.9864393507
 10
-4.0903127681
 20
39.9863309017
 10
-4.1144030243
 20
39.9864360268
 10
-4.1385877353
 20
39.9867546284
 10
-4.1628444661
 20
39.987286411
 10
-4.1871507151
 20
39.9880308813
 10
-4.2114839346
 20
39.9889873487
 10
-4.2358215519
 20
39.9901549259
 10
-4.2601409903
 20
39.9915325298
 10
-4.2844196899
 20
39.9931188825
 10
-4.3086351286
 20
39.9949125124
 10
-4.332764843
 20
39.9969117556
 10
-4.3567864491
 20
39.9991147576
 10
-4.3806776635
 20
40.0015194747
 10
-4.4044163234
 20
40.0041236763
 10
-4.4279804077
 20
40.0069249464
 10
-4.4513480573
 20
40.0099206866
 10
-4.4744975952
 20
40.0131081179
 10
-4.4974075467
 20
40.0164842833
 10
-4.5200566595
 20
40.0200460511
 10
-4.5424239231
 20
40.0237901172
 10
-4.5644885886
 20
40.0277130083
 10
-4.5862301878
 20
40.0318110855
 10
-4.6076285521
 20
40.0360805471
 10
-4.6286638314
 20
40.0405174326
 10
-4.6493165122
 20
40.0451176261
 10
-4.6695674362
 20
40.0498768603
 10
-4.6893978177
 20
40.0547907202
 10
-4.708789261
 20
40.0598546476
 10
-4.7277237776
 20
40.0650639448
 10
-4.7461838031
 20
40.0704137795
  0
LWPOLYLINE
  5
3D9
100
AcDbEntity
  8
ASSI
100
AcDbPolyline
 62
253
  6
CONTINUOUS
 90
52
 70
0
 10
-3.6274494726
 20
40.0361483329
 10
-3.6441765218
 20
40.0318762347
 10
-3.6614342306
 20
40.0277754605
 10
-3.6792065898
 20
40.0238498143
 10
-3.6974771131
 20
40.0201029379
 10
-3.7162288518
 20
40.016538307
 10
-3.7354444109
 20
40.0131592283
 10
-3.755105965
 20
40.0099688363
 10
-3.7751952753
 20
40.0069700908
 10
-3.7956937057
 20
40.0041657734
 10
-3.8165822412
 20
40.0015584856
 10
-3.8378415043
 20
39.999150646
 10
-3.859451774
 20
39.9969444883
 10
-3.8813930036
 20
39.994942059
 10
-3.9036448394
 20
39.9931452156
 10
-3.9261866393
 20
39.9915556249
 10
-3.9489974927
 20
39.9901747617
 10
-3.972056239
 20
39.9890039067
 10
-3.9953414878
 20
39.9880441462
 10
-4.0188316386
 20
39.9872963705
 10
-4.0425049008
 20
39.9867612732
 10
-4.066339314
 20
39.9864393507
 10
-4.0903127681
 20
39.9863309017
 10
-4.1144030243
 20
39.9864360268
 10
-4.1385877353
 20
39.9867546284
 10
-4.1628444661
 20
39.987286411
 10
-4.1871507151
 20
39.9880308813
 10
-4.2114839346
 20
39.9889873487
 10
-4.2358215519
 20
39.9901549259
 10
-4.2601409903
 20
39.9915325298
 10
-4.2844196899
 20
39.9931188825
 10
-4.3086351286
 20
39.9949125124
 10
-4.332764843
 20
39.9969117556
 10
-4.3567864491
 20
39.9991147576
 10
-4.3806776635
 20
40.0015194747
 10
-4.4044163234
 20
40.0041236763
 10
-4.4279804077
 20
40.0069249464
 10
-4.4513480573
 20
40.0099206866
 10
-4.4744975952
 20
40.0131081179
 10
-4.4974075467
 20
40.0164842833
 10
-4.5200566595
 20
40.0200460511
 10
-4.5424239231
 20
40.0237901172
 10
-4.5644885886
 20
40.0277130083
 10
-4.5862301878
 20
40.0318110855
 10
-4.6076285521
 20
40.0360805471
 10
-4.6286638314
 20
40.0405174326
 10
-4.6493165122
 20
40.0451176261
 10
-4.6695674362
 20
40.0498768603
 10
-4.6893978177
 20
40.0547907202
 10
-4.708789261
 20
40.0598546476
 10
-4.7277237776
 20
40.0650639448
 10
-4.7461838031
 20
40.0704137795
  0
LINE
  5
3DA
100
AcDbEntity
  8
CURVE
100
AcDbLine
 62
252
  6
CONTINUOUS
 10
-17.9865598252
 20
36.8455183349
 11
-19.3697540481
 21
37.2548032675
  0
LINE
  5
3DB
100
AcDbEntity
  8
CURVE
100
AcDbLine
 62
252
  6
CONTINUOUS
 10
-22.5174554957
 20
38.186203033
 11
-23.8632660909
 21
38.5844262107
  0
LWPOLYLINE
  5
3DC
100
AcDbEntity
  8
RACCORDO
100
AcDbPolyline
 62
253
  6
CONTINUOUS
 90
44
 70
0
 10
-4.7967166448
 20
1.6284345554
 10
-4.7947652009
 20
1.594250564
 10
-4.7922003117
 20
1.5603716782
 10
-4.7890235385
 20
1.526818653
 10
-4.7852367967
 20
1.493612087
 10
-4.7808424093
 20
1.4607722752
 10
-4.7758430967
 20
1.4283192023
 10
-4.7702418651
 20
1.3962726697
 10
-4.7640421335
 20
1.3646523924
 10
-4.7572477864
 20
1.333477853
 10
-4.7498629499
 20
1.3027681785
 10
-4.7418921098
 20
1.2725421402
 10
-4.7333402311
 20
1.2428182574
 10
-4.7242124941
 20
1.2136147259
 10
-4.7145144512
 20
1.1849494349
 10
-4.7042521462
 20
1.1568399666
 10
-4.6934317942
 20
1.1293035177
 10
-4.6820599772
 20
1.102356963
 10
-4.6701437968
 20
1.0760168739
 10
-4.6576904818
 20
1.0502993766
 10
-4.6447075997
 20
1.0252202092
 10
-4.6312032511
 20
1.0007947861
 10
-4.6171856291
 20
0.9770380557
 10
-4.6026632513
 20
0.9539645539
 10
-4.5876451725
 20
0.9315884613
 10
-4.572140501
 20
0.9099234635
 10
-4.5561586603
 20
0.8889828189
 10
-4.5397096198
 20
0.8687794139
 10
-4.5228033581
 20
0.8493256018
 10
-4.5054501487
 20
0.8306332828
 10
-4.4876608205
 20
0.8127139743
 10
-4.4694461676
 20
0.7955786286
 10
-4.4508172572
 20
0.7792377216
 10
-4.4317857152
 20
0.7637013337
 10
-4.4123630922
 20
0.748978956
 10
-4.3925611875
 20
0.7350795819
 10
-4.3723923561
 20
0.7220117969
 10
-4.3518688409
 20
0.7097835778
 10
-4.3310031086
 20
0.6984023874
 10
-4.3098081717
 20
0.6878752686
 10
-4.2882968916
 20
0.6782086379
 10
-4.2664823391
 20
0.6694083904
 10
-4.2443781289
 20
0.6614799953
 10
-4.2232013924
 20
0.6547831523
  0
LWPOLYLINE
  5
3DD
100
AcDbEntity
  8
ASSI
100
AcDbPolyline
 62
253
  6
CONTINUOUS
 90
44
 70
0
 10
-4.7967166448
 20
1.6284345554
 10
-4.7947652009
 20
1.594250564
 10
-4.7922003117
 20
1.5603716782
 10
-4.7890235385
 20
1.526818653
 10
-4.7852367967
 20
1.493612087
 10
-4.7808424093
 20
1.4607722752
 10
-4.7758430967
 20
1.4283192023
 10
-4.7702418651
 20
1.3962726697
 10
-4.7640421335
 20
1.3646523924
 10
-4.7572477864
 20
1.333477853
 10
-4.7498629499
 20
1.3027681785
 10
-4.7418921098
 20
1.2725421402
 10
-4.7333402311
 20
1.2428182574
 10
-4.7242124941
 20
1.2136147259
 10
-4.7145144512
 20
1.1849494349
 10
-4.7042521462
 20
1.1568399666
 10
-4.6934317942
 20
1.1293035177
 10
-4.6820599772
 20
1.102356963
 10
-4.6701437968
 20
1.0760168739
 10
-4.6576904818
 20
1.0502993766
 10
-4.6447075997
 20
1.0252202092
 10
-4.6312032511
 20
1.0007947861
 10
-4.6171856291
 20
0.9770380557
 10
-4.6026632513
 20
0.9539645539
 10
-4.5876451725
 20
0.9315884613
 10
-4.572140501
 20
0.9099234635
 10
-4.5561586603
 20
0.8889828189
 10
-4.5397096198
 20
0.8687794139
 10
-4.5228033581
 20
0.8493256018
 10
-4.5054501487
 20
0.8306332828
 10
-4.4876608205
 20
0.8127139743
 10
-4.4694461676
 20
0.7955786286
 10
-4.4508172572
 20
0.7792377216
 10
-4.4317857152
 20
0.7637013337
 10
-4.4123630922
 20
0.748978956
 10
-4.3925611875
 20
0.7350795819
 10
-4.3723923561
 20
0.7220117969
 10
-4.3518688409
 20
0.7097835778
 10
-4.3310031086
 20
0.6984023874
 10
-4.3098081717
 20
0.6878752686
 10
-4.2882968916
 20
0.6782086379
 10
-4.2664823391
 20
0.6694083904
 10
-4.2443781289
 20
0.6614799953
 10
-4.2235936574
 20
0.6548993914
  0
LINE
  5
3DE
100
AcDbEntity
  8
CURVE
100
AcDbLine
 62
252
  6
CONTINUOUS
 10
-20.6472246692
 20
12.6122559353
 11
-20.6624523662
 21
12.6031291236
  0
LINE
  5
3DF
100
AcDbEntity
  8
CURVE
100
AcDbLine
 62
252
  6
CONTINUOUS
 10
-20.6618410056
 20
12.6034628377
 11
-20.6774584366
 21
12.5952149596
  0
LINE
  5
3E0
100
AcDbEntity
  8
CURVE
100
AcDbLine
 62
252
  6
CONTINUOUS
 10
-20.676864763
 20
12.5955028395
 11
-20.692846919
 21
12.5881434537
  0
LINE
  5
3E1
100
AcDbEntity
  8
CURVE
100
AcDbLine
 62
252
  6
CONTINUOUS
 10
-20.6922748245
 20
12.5883880519
 11
-20.7085956805
 21
12.5819267262
  0
LINE
  5
3E2
100
AcDbEntity
  8
CURVE
100
AcDbLine
 62
252
  6
CONTINUOUS
 10
-21.2003111238
 20
13.7870680412
 11
-21.1827661189
 21
13.7934802724
  0
LINE
  5
3E3
100
AcDbEntity
  8
CURVE
100
AcDbLine
 62
252
  6
CONTINUOUS
 10
-20.7080495724
 20
12.5821293922
 11
-20.7246814452
 21
12.5765706047
  0
LINE
  5
3E4
100
AcDbEntity
  8
CURVE
100
AcDbLine
 62
252
  6
CONTINUOUS
 10
-21.1830149221
 20
13.7934038434
 11
-21.1650879836
 21
13.7987790169
  0
LWPOLYLINE
  5
3E5
100
AcDbEntity
  8
RACCORDO
100
AcDbPolyline
 62
253
  6
CONTINUOUS
 90
61
 70
0
 10
-3.6778475599
 20
1.6966810534
 10
-3.6769260012
 20
1.680713005
 10
-3.6757169007
 20
1.6649047495
 10
-3.6742202582
 20
1.6492562869
 10
-3.6724347918
 20
1.6337579423
 10
-3.6703617836
 20
1.6184193905
 10
-3.6680050795
 20
1.6032696564
 10
-3.6653641704
 20
1.5883093574
 10
-3.6624395654
 20
1.5735378759
 10
-3.6592366382
 20
1.5589823843
 10
-3.6557548792
 20
1.5446432983
 10
-3.6519947979
 20
1.5305202021
 10
-3.6479632965
 20
1.516639021
 10
-3.6436598769
 20
1.5030001965
 10
-3.6390850372
 20
1.4896032871
 10
-3.6342471738
 20
1.4764728926
 10
-3.6291458009
 20
1.4636094972
 10
-3.6237814042
 20
1.4510126168
 10
-3.6181638376
 20
1.4387053992
 10
-3.6122926364
 20
1.4266883796
 10
-3.6061682652
 20
1.4149610228
 10
-3.5998019709
 20
1.403544871
 10
-3.5931933098
 20
1.392440497
 10
-3.5863427255
 20
1.381647328
 10
-3.5792627964
 20
1.3711851868
 10
-3.5719531
 20
1.3610546802
 10
-3.5644140586
 20
1.3512552015
 10
-3.5566595182
 20
1.3418047538
 10
-3.5486890822
 20
1.3327039784
 10
-3.5405031471
 20
1.323952234
 10
-3.5321167474
 20
1.3155655991
 10
-3.5235295143
 20
1.3075447448
 10
-3.5147418167
 20
1.2998890001
 10
-3.505769795
 20
1.2926124302
 10
-3.4966131108
 20
1.2857157324
 10
-3.4872721026
 20
1.2791982094
 10
-3.4777639259
 20
1.2730718347
 10
-3.4680882746
 20
1.2673373273
 10
-3.4582454549
 20
1.2619939681
 10
-3.4482535413
 20
1.257051573
 10
-3.4381122582
 20
1.2525108782
 10
-3.4278218813
 20
1.2483711474
 10
-3.4174013119
 20
1.2446399885
 10
-3.4068503077
 20
1.2413181522
 10
-3.3961691111
 20
1.2384048878
 10
-3.3853773498
 20
1.2359055505
 10
-3.374474825
 20
1.2338209028
 10
-3.3634617356
 20
1.2321501823
 10
-3.3523583058
 20
1.2308964569
 10
-3.3411643717
 20
1.2300604914
 10
-3.3298800973
 20
1.229641521
 10
-3.3185261989
 20
1.2296403199
 10
-3.3071025341
 20
1.2300576603
 10
-3.2956092455
 20
1.2308927699
 10
-3.2840674765
 20
1.2321441062
 10
-3.2724768651
 20
1.2338125258
 10
-3.2608377734
 20
1.2358971719
 10
-3.249172432
 20
1.2383939316
 10
-3.2374882509
 20
1.2413014339
 10
-3.2257778201
 20
1.2446210497
 10
-3.2140411395
 20
1.248352779
  0
LWPOLYLINE
  5
3E6
100
AcDbEntity
  8
ASSI
100
AcDbPolyline
 62
253
  6
CONTINUOUS
 90
61
 70
0
 10
-3.6778475599
 20
1.6966810534
 10
-3.6769260012
 20
1.680713005
 10
-3.6757169007
 20
1.6649047495
 10
-3.6742202582
 20
1.6492562869
 10
-3.6724347918
 20
1.6337579423
 10
-3.6703617836
 20
1.6184193905
 10
-3.6680050795
 20
1.6032696564
 10
-3.6653641704
 20
1.5883093574
 10
-3.6624395654
 20
1.5735378759
 10
-3.6592366382
 20
1.5589823843
 10
-3.6557548792
 20
1.5446432983
 10
-3.6519947979
 20
1.5305202021
 10
-3.6479632965
 20
1.516639021
 10
-3.6436598769
 20
1.5030001965
 10
-3.6390850372
 20
1.4896032871
 10
-3.6342471738
 20
1.4764728926
 10
-3.6291458009
 20
1.4636094972
 10
-3.6237814042
 20
1.4510126168
 10
-3.6181638376
 20
1.4387053992
 10
-3.6122926364
 20
1.4266883796
 10
-3.6061682652
 20
1.4149610228
 10
-3.5998019709
 20
1.403544871
 10
-3.5931933098
 20
1.392440497
 10
-3.5863427255
 20
1.381647328
 10
-3.5792627964
 20
1.3711851868
 10
-3.5719531
 20
1.3610546802
 10
-3.5644140586
 20
1.3512552015
 10
-3.5566595182
 20
1.3418047538
 10
-3.5486890822
 20
1.3327039784
 10
-3.5405031471
 20
1.323952234
 10
-3.5321167474
 20
1.3155655991
 10
-3.5235295143
 20
1.3075447448
 10
-3.5147418167
 20
1.2998890001
 10
-3.505769795
 20
1.2926124302
 10
-3.4966131108
 20
1.2857157324
 10
-3.4872721026
 20
1.2791982094
 10
-3.4777639259
 20
1.2730718347
 10
-3.4680882746
 20
1.2673373273
 10
-3.4582454549
 20
1.2619939681
 10
-3.4482535413
 20
1.257051573
 10
-3.4381122582
 20
1.2525108782
 10
-3.4278218813
 20
1.2483711474
 10
-3.4174013119
 20
1.2446399885
 10
-3.4068503077
 20
1.2413181522
 10
-3.3961691111
 20
1.2384048878
 10
-3.3853773498
 20
1.2359055505
 10
-3.374474825
 20
1.2338209028
 10
-3.3634617356
 20
1.2321501823
 10
-3.3523583058
 20
1.2308964569
 10
-3.3411643717
 20
1.2300604914
 10
-3.3298800973
 20
1.229641521
 10
-3.3185261989
 20
1.2296403199
 10
-3.3071025341
 20
1.2300576603
 10
-3.2956092455
 20
1.2308927699
 10
-3.2840674765
 20
1.2321441062
 10
-3.2724768651
 20
1.2338125258
 10
-3.2608377734
 20
1.2358971719
 10
-3.249172432
 20
1.2383939316
 10
-3.2374882509
 20
1.2413014339
 10
-3.2257778201
 20
1.2446210497
 10
-3.2140411395
 20
1.248352779
  0
LWPOLYLINE
  5
3E7
100
AcDbEntity
  8
RACCORDO
100
AcDbPolyline
 62
253
  6
CONTINUOUS
 90
37
 70
0
 10
-4.1207571487
 20
20.3680888786
 10
-4.1208864267
 20
20.3763613628
 10
-4.1212956505
 20
20.3847039571
 10
-4.1219840411
 20
20.3931007808
 10
-4.1229502881
 20
20.4015358502
 10
-4.1241925522
 20
20.4099931085
 10
-4.1257084687
 20
20.418456457
 10
-4.1274951519
 20
20.4269097851
 10
-4.1295492008
 20
20.4353370014
 10
-4.1318667053
 20
20.4437220642
 10
-4.134443254
 20
20.4520490121
 10
-4.1372739423
 20
20.4603019944
 10
-4.1403533818
 20
20.4684653008
 10
-4.1436757105
 20
20.4765233922
 10
-4.1472346043
 20
20.4844609294
 10
-4.1510232885
 20
20.492262803
 10
-4.1550345512
 20
20.4999141616
 10
-4.1592607567
 20
20.5074004404
 10
-4.1636938602
 20
20.5147073889
 10
-4.168325423
 20
20.5218210978
 10
-4.1731466287
 20
20.5287280259
 10
-4.1781482997
 20
20.5354150254
 10
-4.1833209152
 20
20.5418693672
 10
-4.1886546288
 20
20.5480787651
 10
-4.1941392874
 20
20.5540313992
 10
-4.1997644507
 20
20.5597159383
 10
-4.2055194108
 20
20.5651215616
 10
-4.2113932129
 20
20.5702379792
 10
-4.2173746758
 20
20.5750554517
 10
-4.2234524134
 20
20.5795648087
 10
-4.2296148565
 20
20.5837574665
 10
-4.2358502745
 20
20.5876254442
 10
-4.242146798
 20
20.5911613787
 10
-4.248492441
 20
20.5943585394
 10
-4.2548751244
 20
20.5972108401
 10
-4.2612826983
 20
20.5997128515
 10
-4.2677029656
 20
20.6018598108
  0
LWPOLYLINE
  5
3E8
100
AcDbEntity
  8
ASSI
100
AcDbPolyline
 62
253
  6
CONTINUOUS
 90
37
 70
0
 10
-4.1207571487
 20
20.3680888786
 10
-4.1208864267
 20
20.3763613628
 10
-4.1212956505
 20
20.3847039571
 10
-4.1219840411
 20
20.3931007808
 10
-4.1229502881
 20
20.4015358502
 10
-4.1241925522
 20
20.4099931085
 10
-4.1257084687
 20
20.418456457
 10
-4.1274951519
 20
20.4269097851
 10
-4.1295492008
 20
20.4353370014
 10
-4.1318667053
 20
20.4437220642
 10
-4.134443254
 20
20.4520490121
 10
-4.1372739423
 20
20.4603019944
 10
-4.1403533818
 20
20.4684653008
 10
-4.1436757105
 20
20.4765233922
 10
-4.1472346043
 20
20.4844609294
 10
-4.1510232885
 20
20.492262803
 10
-4.1550345512
 20
20.4999141616
 10
-4.1592607567
 20
20.5074004404
 10
-4.1636938602
 20
20.5147073889
 10
-4.168325423
 20
20.5218210978
 10
-4.1731466287
 20
20.5287280259
 10
-4.1781482997
 20
20.5354150254
 10
-4.1833209152
 20
20.5418693672
 10
-4.1886546288
 20
20.5480787651
 10
-4.1941392874
 20
20.5540313992
 10
-4.1997644507
 20
20.5597159383
 10
-4.2055194108
 20
20.5651215616
 10
-4.2113932129
 20
20.5702379792
 10
-4.2173746758
 20
20.5750554517
 10
-4.2234524134
 20
20.5795648087
 10
-4.2296148565
 20
20.5837574665
 10
-4.2358502745
 20
20.5876254442
 10
-4.242146798
 20
20.5911613787
 10
-4.248492441
 20
20.5943585394
 10
-4.2548751244
 20
20.5972108401
 10
-4.2612826983
 20
20.5997128515
 10
-4.2677029656
 20
20.6018598108
  0
LWPOLYLINE
  5
3E9
100
AcDbEntity
  8
RACCORDO
100
AcDbPolyline
 62
253
  6
CONTINUOUS
 90
27
 70
0
 10
-5.2399174633
 20
21.0111974229
 10
-5.2398084611
 20
21.0030061801
 10
-5.239446474
 20
20.9949244331
 10
-5.2388321918
 20
20.9869675891
 10
-5.2379667858
 20
20.9791508167
 10
-5.2368519057
 20
20.9714890178
 10
-5.2354896769
 20
20.9639967988
 10
-5.2338826964
 20
20.9566884428
 10
-5.2320340276
 20
20.9495778824
 10
-5.2299471949
 20
20.9426786731
 10
-5.2276261765
 20
20.9360039673
 10
-5.2250753973
 20
20.9295664897
 10
-5.22229972
 20
20.9233785125
 10
-5.2193044362
 20
20.9174518326
 10
-5.2160952559
 20
20.9117977484
 10
-5.2126782972
 20
20.9064270387
 10
-5.2090600741
 20
20.9013499423
 10
-5.2052474844
 20
20.8965761381
 10
-5.2012477963
 20
20.8921147266
 10
-5.1970686347
 20
20.8879742133
 10
-5.1927179669
 20
20.8841624913
 10
-5.1882040868
 20
20.8806868274
 10
-5.1835355997
 20
20.8775538475
 10
-5.1787214055
 20
20.8747695243
 10
-5.1737706819
 20
20.8723391657
 10
-5.1686928669
 20
20.870267405
 10
-5.1638619488
 20
20.8686650832
  0
LWPOLYLINE
  5
3EA
100
AcDbEntity
  8
ASSI
100
AcDbPolyline
 62
253
  6
CONTINUOUS
 90
27
 70
0
 10
-5.2399174633
 20
21.0111974229
 10
-5.2398084611
 20
21.0030061801
 10
-5.239446474
 20
20.9949244331
 10
-5.2388321918
 20
20.9869675891
 10
-5.2379667858
 20
20.9791508167
 10
-5.2368519057
 20
20.9714890178
 10
-5.2354896769
 20
20.9639967988
 10
-5.2338826964
 20
20.9566884428
 10
-5.2320340276
 20
20.9495778824
 10
-5.2299471949
 20
20.9426786731
 10
-5.2276261765
 20
20.9360039673
 10
-5.2250753973
 20
20.9295664897
 10
-5.22229972
 20
20.9233785125
 10
-5.2193044362
 20
20.9174518326
 10
-5.2160952559
 20
20.9117977484
 10
-5.2126782972
 20
20.9064270387
 10
-5.2090600741
 20
20.9013499423
 10
-5.2052474844
 20
20.8965761381
 10
-5.2012477963
 20
20.8921147266
 10
-5.1970686347
 20
20.8879742133
 10
-5.1927179669
 20
20.8841624913
 10
-5.1882040868
 20
20.8806868274
 10
-5.1835355997
 20
20.8775538475
 10
-5.1787214055
 20
20.8747695243
 10
-5.1737706819
 20
20.8723391657
 10
-5.1686928669
 20
20.870267405
 10
-5.1642079123
 20
20.8687683697
  0
LWPOLYLINE
  5
3EB
100
AcDbEntity
  8
RACCORDO
100
AcDbPolyline
 62
253
  6
CONTINUOUS
 90
19
 70
0
 10
-5.2407860685
 20
20.3504211416
 10
-5.2398877303
 20
19.3009456393
 10
-5.2361916266
 20
18.2524952043
 10
-5.2296978067
 20
17.2050842773
 10
-5.2204063545
 20
16.1587272861
 10
-5.2083173987
 20
15.1134386403
 10
-5.1934311126
 20
14.0692327315
 10
-5.1757476946
 20
13.0261239392
 10
-5.1552673853
 20
11.9841266313
 10
-5.1319904783
 20
10.9432551583
 10
-5.1059172851
 20
9.9035238528
 10
-5.0770481597
 20
8.8649470358
 10
-5.0453835156
 20
7.8275390171
 10
-5.0109237778
 20
6.7913140852
 10
-4.9736694135
 20
5.7562865078
 10
-4.9336209557
 20
4.7224705383
 10
-4.890778955
 20
3.6898804132
 10
-4.8451439794
 20
2.6585303516
 10
-4.7967166448
 20
1.6284345554
  0
LWPOLYLINE
  5
3EC
100
AcDbEntity
  8
ASSI
100
AcDbPolyline
 62
253
  6
CONTINUOUS
 90
19
 70
0
 10
-5.2407860685
 20
20.3504211416
 10
-5.2398877303
 20
19.3009456393
 10
-5.2361916266
 20
18.2524952043
 10
-5.2296978067
 20
17.2050842773
 10
-5.2204063545
 20
16.1587272861
 10
-5.2083173987
 20
15.1134386403
 10
-5.1934311126
 20
14.0692327315
 10
-5.1757476946
 20
13.0261239392
 10
-5.1552673853
 20
11.9841266313
 10
-5.1319904783
 20
10.9432551583
 10
-5.1059172851
 20
9.9035238528
 10
-5.0770481597
 20
8.8649470358
 10
-5.0453835156
 20
7.8275390171
 10
-5.0109237778
 20
6.7913140852
 10
-4.9736694135
 20
5.7562865078
 10
-4.9336209557
 20
4.7224705383
 10
-4.890778955
 20
3.6898804132
 10
-4.8451439794
 20
2.6585303516
 10
-4.7967166448
 20
1.6284345554
  0
LWPOLYLINE
  5
3ED
100
AcDbEntity
  8
RACCORDO
100
AcDbPolyline
 62
253
  6
CONTINUOUS
 90
19
 70
0
 10
-4.1207571487
 20
20.3680888786
 10
-4.1198592891
 20
19.321429389
 10
-4.1161713358
 20
18.2758197275
 10
-4.1096932889
 20
17.2312598942
 10
-4.1004249827
 20
16.1877351435
 10
-4.0883665828
 20
15.145260221
 10
-4.0735185863
 20
14.1038793627
 10
-4.0558808777
 20
13.0635930036
 10
-4.0354535725
 20
12.0244007088
 10
-4.0122375143
 20
10.9863454098
 10
-3.9862325879
 20
9.9494271508
 10
-3.9574389084
 20
8.9136458877
 10
-3.9258576647
 20
7.87904442
 10
-3.8914887408
 20
6.8456227871
 10
-3.8543322526
 20
5.8133809496
 10
-3.8143897368
 20
4.7823615893
 10
-3.7716617055
 20
3.7525789335
 10
-3.7261476465
 20
2.7240187549
 10
-3.6778475599
 20
1.6966810534
  0
LWPOLYLINE
  5
3EE
100
AcDbEntity
  8
ASSI
100
AcDbPolyline
 62
253
  6
CONTINUOUS
 90
19
 70
0
 10
-4.1207571487
 20
20.3680888786
 10
-4.1198592891
 20
19.321429389
 10
-4.1161713358
 20
18.2758197275
 10
-4.1096932889
 20
17.2312598942
 10
-4.1004249827
 20
16.1877351435
 10
-4.0883665828
 20
15.145260221
 10
-4.0735185863
 20
14.1038793627
 10
-4.0558808777
 20
13.0635930036
 10
-4.0354535725
 20
12.0244007088
 10
-4.0122375143
 20
10.9863454098
 10
-3.9862325879
 20
9.9494271508
 10
-3.9574389084
 20
8.9136458877
 10
-3.9258576647
 20
7.87904442
 10
-3.8914887408
 20
6.8456227871
 10
-3.8543322526
 20
5.8133809496
 10
-3.8143897368
 20
4.7823615893
 10
-3.7716617055
 20
3.7525789335
 10
-3.7261476465
 20
2.7240187549
 10
-3.6778475599
 20
1.6966810534
  0
LINE
  5
3EF
100
AcDbEntity
  8
0
100
AcDbLine
 62
253
  6
CONTINUOUS
 10
-4.9750496239
 20
20.6381898349
 11
-4.9747993552
 21
20.8285773731
  0
LINE
  5
3F0
100
AcDbEntity
  8
ASSI
100
AcDbLine
 62
253
  6
CONTINUOUS
 10
-4.9750496239
 20
20.6381898349
 11
-4.9747993552
 21
20.8285773731
  0
LINE
  5
3F1
100
AcDbEntity
  8
0
100
AcDbLine
 62
253
  6
CONTINUOUS
 10
-4.4150354055
 20
20.6469135413
 11
-4.4147918265
 21
20.8322120435
  0
LINE
  5
3F2
100
AcDbEntity
  8
ASSI
100
AcDbLine
 62
253
  6
CONTINUOUS
 10
-4.4150354055
 20
20.6469135413
 11
-4.4147918265
 21
20.8322120435
  0
LWPOLYLINE
  5
3F3
100
AcDbEntity
  8
RACCORDO
100
AcDbPolyline
 62
253
  6
CONTINUOUS
 90
37
 70
0
 10
-5.2407860685
 20
20.3504211416
 10
-5.2406554139
 20
20.3587016424
 10
-5.2402718145
 20
20.3670610775
 10
-5.2396360015
 20
20.3754835105
 10
-5.2387491872
 20
20.3839528849
 10
-5.237613062
 20
20.392453055
 10
-5.2362297919
 20
20.4009678161
 10
-5.234602014
 20
20.4094809357
 10
-5.2327328313
 20
20.4179761845
 10
-5.2306258074
 20
20.4264373674
 10
-5.2282849589
 20
20.434848354
 10
-5.2257147485
 20
20.4431931098
 10
-5.222920076
 20
20.4514557264
 10
-5.219906269
 20
20.459620452
 10
-5.2166790732
 20
20.4676717215
 10
-5.2132446407
 20
20.4755941862
 10
-5.2096095189
 20
20.4833727427
 10
-5.2057806378
 20
20.490992562
 10
-5.2017652967
 20
20.4984391179
 10
-5.1975711504
 20
20.5056982143
 10
-5.1932061946
 20
20.5127560126
 10
-5.1886787505
 20
20.519599058
 10
-5.1839974493
 20
20.5262143048
 10
-5.1791712152
 20
20.5325891419
 10
-5.174209249
 20
20.5387114163
 10
-5.16912101
 20
20.5445694567
 10
-5.1639161985
 20
20.5501520954
 10
-5.1586047369
 20
20.5554486897
 10
-5.1531967507
 20
20.5604491422
 10
-5.1477025498
 20
20.5651439201
 10
-5.1421326082
 20
20.5695240734
 10
-5.1364975444
 20
20.5735812518
 10
-5.130808101
 20
20.5773077207
 10
-5.1250751242
 20
20.5806963761
 10
-5.1193095434
 20
20.5837407579
 10
-5.11352235
 20
20.5864350622
 10
-5.1077245765
 20
20.5887741528
  0
LWPOLYLINE
  5
3F4
100
AcDbEntity
  8
ASSI
100
AcDbPolyline
 62
253
  6
CONTINUOUS
 90
37
 70
0
 10
-5.2407860685
 20
20.3504211416
 10
-5.2406554139
 20
20.3587016424
 10
-5.2402718145
 20
20.3670610775
 10
-5.2396360015
 20
20.3754835105
 10
-5.2387491872
 20
20.3839528849
 10
-5.237613062
 20
20.392453055
 10
-5.2362297919
 20
20.4009678161
 10
-5.234602014
 20
20.4094809357
 10
-5.2327328313
 20
20.4179761845
 10
-5.2306258074
 20
20.4264373674
 10
-5.2282849589
 20
20.434848354
 10
-5.2257147485
 20
20.4431931098
 10
-5.222920076
 20
20.4514557264
 10
-5.219906269
 20
20.459620452
 10
-5.2166790732
 20
20.4676717215
 10
-5.2132446407
 20
20.4755941862
 10
-5.2096095189
 20
20.4833727427
 10
-5.2057806378
 20
20.490992562
 10
-5.2017652967
 20
20.4984391179
 10
-5.1975711504
 20
20.5056982143
 10
-5.1932061946
 20
20.5127560126
 10
-5.1886787505
 20
20.519599058
 10
-5.1839974493
 20
20.5262143048
 10
-5.1791712152
 20
20.5325891419
 10
-5.174209249
 20
20.5387114163
 10
-5.16912101
 20
20.5445694567
 10
-5.1639161985
 20
20.5501520954
 10
-5.1586047369
 20
20.5554486897
 10
-5.1531967507
 20
20.5604491422
 10
-5.1477025498
 20
20.5651439201
 10
-5.1421326082
 20
20.5695240734
 10
-5.1364975444
 20
20.5735812518
 10
-5.130808101
 20
20.5773077207
 10
-5.1250751242
 20
20.5806963761
 10
-5.1193095434
 20
20.5837407579
 10
-5.11352235
 20
20.5864350622
 10
-5.1077245765
 20
20.5887741528
  0
LWPOLYLINE
  5
3F5
100
AcDbEntity
  8
RACCORDO
100
AcDbPolyline
 62
253
  6
CONTINUOUS
 90
25
 70
0
 10
-4.1198891226
 20
21.0284246412
 10
-4.1200400365
 20
21.0202380152
 10
-4.1204708548
 20
21.01215283
 10
-4.1211807577
 20
21.0041844764
 10
-4.1221683936
 20
20.9963481225
 10
-4.1234318826
 20
20.9886586853
 10
-4.1249688196
 20
20.981130802
 10
-4.1267762789
 20
20.9737788025
 10
-4.12885082
 20
20.9666166817
 10
-4.1311884937
 20
20.959658073
 10
-4.1337848502
 20
20.9529162226
 10
-4.1366349473
 20
20.946403964
 10
-4.1397333595
 20
20.9401336936
 10
-4.1430741889
 20
20.9341173473
 10
-4.1466510761
 20
20.9283663775
 10
-4.1504572121
 20
20.9228917315
 10
-4.1544853519
 20
20.9177038306
 10
-4.1587278276
 20
20.9128125502
 10
-4.1631765634
 20
20.9082272013
 10
-4.1678230909
 20
20.9039565122
 10
-4.1726585652
 20
20.9000086125
 10
-4.1776737817
 20
20.8963910172
 10
-4.1828591936
 20
20.8931106126
 10
-4.1882049302
 20
20.8901736432
 10
-4.1937008155
 20
20.8875856997
  0
LWPOLYLINE
  5
3F6
100
AcDbEntity
  8
ASSI
100
AcDbPolyline
 62
253
  6
CONTINUOUS
 90
26
 70
0
 10
-4.1198891226
 20
21.0284246412
 10
-4.1200400365
 20
21.0202380152
 10
-4.1204708548
 20
21.01215283
 10
-4.1211807577
 20
21.0041844764
 10
-4.1221683936
 20
20.9963481225
 10
-4.1234318826
 20
20.9886586853
 10
-4.1249688196
 20
20.981130802
 10
-4.1267762789
 20
20.9737788025
 10
-4.12885082
 20
20.9666166817
 10
-4.1311884937
 20
20.959658073
 10
-4.1337848502
 20
20.9529162226
 10
-4.1366349473
 20
20.946403964
 10
-4.1397333595
 20
20.9401336936
 10
-4.1430741889
 20
20.9341173473
 10
-4.1466510761
 20
20.9283663775
 10
-4.1504572121
 20
20.9228917315
 10
-4.1544853519
 20
20.9177038306
 10
-4.1587278276
 20
20.9128125502
 10
-4.1631765634
 20
20.9082272013
 10
-4.1678230909
 20
20.9039565122
 10
-4.1726585652
 20
20.9000086125
 10
-4.1776737817
 20
20.8963910172
 10
-4.1828591936
 20
20.8931106126
 10
-4.1882049302
 20
20.8901736432
 10
-4.1937008155
 20
20.8875856997
 10
-4.1988768001
 20
20.8855187086
  0
LWPOLYLINE
  5
3F7
100
AcDbEntity
  8
RACCORDO
100
AcDbPolyline
 62
253
  6
CONTINUOUS
 90
19
 70
0
 10
-4.7461838032
 20
40.0704137795
 10
-4.797366391
 20
39.0044987289
 10
-4.8457572777
 20
37.9393373847
 10
-4.8913558096
 20
36.8749444217
 10
-4.9341613806
 20
35.8113345102
 10
-4.9741734022
 20
34.7485222969
 10
-5.0113913035
 20
33.6865224055
 10
-5.0458145792
 20
32.6253494629
 10
-5.0774427664
 20
31.5650180915
 10
-5.1062754135
 20
30.5055428909
 10
-5.1323121286
 20
29.4469384571
 10
-5.155552562
 20
28.3892193719
 10
-5.1759963822
 20
27.3324001954
 10
-5.1936433107
 20
26.2764954857
 10
-5.2084931111
 20
25.2215197875
 10
-5.2205455718
 20
24.1674876213
 10
-5.2298005262
 20
23.1144135019
 10
-5.2362578525
 20
22.0623119386
 10
-5.2399174633
 20
21.0111974229
  0
LWPOLYLINE
  5
3F8
100
AcDbEntity
  8
ASSI
100
AcDbPolyline
 62
253
  6
CONTINUOUS
 90
19
 70
0
 10
-4.7461838032
 20
40.0704137795
 10
-4.797366391
 20
39.0044987289
 10
-4.8457572777
 20
37.9393373847
 10
-4.8913558096
 20
36.8749444217
 10
-4.9341613806
 20
35.8113345102
 10
-4.9741734022
 20
34.7485222969
 10
-5.0113913035
 20
33.6865224055
 10
-5.0458145792
 20
32.6253494629
 10
-5.0774427664
 20
31.5650180915
 10
-5.1062754135
 20
30.5055428909
 10
-5.1323121286
 20
29.4469384571
 10
-5.155552562
 20
28.3892193719
 10
-5.1759963822
 20
27.3324001954
 10
-5.1936433107
 20
26.2764954857
 10
-5.2084931111
 20
25.2215197875
 10
-5.2205455718
 20
24.1674876213
 10
-5.2298005262
 20
23.1144135019
 10
-5.2362578525
 20
22.0623119386
 10
-5.2399174633
 20
21.0111974229
  0
LWPOLYLINE
  5
3F9
100
AcDbEntity
  8
RACCORDO
100
AcDbPolyline
 62
253
  6
CONTINUOUS
 90
19
 70
0
 10
-3.6274494726
 20
40.0361483329
 10
-3.6784974297
 20
38.9730889461
 10
-3.7267599408
 20
37.9108103493
 10
-3.7722370058
 20
36.8493125426
 10
-3.8149291752
 20
35.7885809093
 10
-3.8548358986
 20
34.7286300662
 10
-3.8919555245
 20
33.6695038628
 10
-3.9262879367
 20
32.6112023506
 10
-3.9578332514
 20
31.5537254782
 10
-3.9865901662
 20
30.4971169411
 10
-4.0125585659
 20
29.4413767782
 10
-4.0357385657
 20
28.3865049507
 10
-4.0561292083
 20
27.3325450376
 10
-4.0737303791
 20
26.2794966868
 10
-4.0885421928
 20
25.2273602505
 10
-4.1005640353
 20
24.1761803642
 10
-4.1097957022
 20
23.1259719065
 10
-4.1162373979
 20
22.0767199988
 10
-4.1198891226
 20
21.0284246412
  0
LWPOLYLINE
  5
3FA
100
AcDbEntity
  8
ASSI
100
AcDbPolyline
 62
253
  6
CONTINUOUS
 90
19
 70
0
 10
-3.6274494726
 20
40.0361483329
 10
-3.6784974297
 20
38.9730889461
 10
-3.7267599408
 20
37.9108103493
 10
-3.7722370058
 20
36.8493125426
 10
-3.8149291752
 20
35.7885809093
 10
-3.8548358986
 20
34.7286300662
 10
-3.8919555245
 20
33.6695038628
 10
-3.9262879367
 20
32.6112023506
 10
-3.9578332514
 20
31.5537254782
 10
-3.9865901662
 20
30.4971169411
 10
-4.0125585659
 20
29.4413767782
 10
-4.0357385657
 20
28.3865049507
 10
-4.0561292083
 20
27.3325450376
 10
-4.0737303791
 20
26.2794966868
 10
-4.0885421928
 20
25.2273602505
 10
-4.1005640353
 20
24.1761803642
 10
-4.1097957022
 20
23.1259719065
 10
-4.1162373979
 20
22.0767199988
 10
-4.1198891226
 20
21.0284246412
  0
LWPOLYLINE
  5
3FB
100
AcDbEntity
  8
RACCORDO
100
AcDbPolyline
 62
253
  6
CONTINUOUS
 90
52
 70
0
 10
-3.1620251743
 20
40.8185924876
 10
-3.1625647585
 20
40.8418054401
 10
-3.1636621036
 20
40.8651674497
 10
-3.165316169
 20
40.8886563649
 10
-3.1675253864
 20
40.9122499136
 10
-3.170287661
 20
40.9359257244
 10
-3.1736003736
 20
40.9596613483
 10
-3.1774603832
 20
40.9834342793
 10
-3.1818640297
 20
41.007221976
 10
-3.1868071376
 20
41.0310018831
 10
-3.1922850199
 20
41.0547514527
 10
-3.1982924826
 20
41.0784481656
 10
-3.2048238293
 20
41.1020695528
 10
-3.2118728671
 20
41.1255932166
 10
-3.2194329122
 20
41.1489968521
 10
-3.2274967961
 20
41.1722582681
 10
-3.2360568728
 20
41.1953554083
 10
-3.2451050257
 20
41.2182663721
 10
-3.2546326754
 20
41.2409694356
 10
-3.2646307878
 20
41.2634430719
 10
-3.2750898827
 20
41.2856659716
 10
-3.286000043
 20
41.3076170631
 10
-3.2973509238
 20
41.3292755326
 10
-3.3091317621
 20
41.3506208437
 10
-3.3213313875
 20
41.3716327568
 10
-3.3339382324
 20
41.3922913487
 10
-3.346940343
 20
41.412577031
 10
-3.360325391
 20
41.432470569
 10
-3.3740806845
 20
41.4519530998
 10
-3.3881931811
 20
41.4710061501
 10
-3.4026494993
 20
41.489611654
 10
-3.4174359318
 20
41.50775197
 10
-3.4325384581
 20
41.5254098974
 10
-3.4479427581
 20
41.5425686932
 10
-3.4636342257
 20
41.5592120875
 10
-3.4795979822
 20
41.5753242992
 10
-3.495818891
 20
41.5908900507
 10
-3.5122815715
 20
41.6058945829
 10
-3.5289704138
 20
41.6203236683
 10
-3.5458695939
 20
41.6341636256
 10
-3.5629630879
 20
41.6474013317
 10
-3.580234688
 20
41.6600242348
 10
-3.5976680174
 20
41.6720203659
 10
-3.6152465458
 20
41.6833783504
 10
-3.6329536055
 20
41.6940874187
 10
-3.6507724068
 20
41.7041374165
 10
-3.6686860539
 20
41.7135188146
 10
-3.6866775614
 20
41.7222227174
 10
-3.7047298697
 20
41.7302408721
 10
-3.7228258619
 20
41.737565676
 10
-3.7409483794
 20
41.7441901836
 10
-3.7590802385
 20
41.7501081136
  0
LWPOLYLINE
  5
3FC
100
AcDbEntity
  8
ASSI
100
AcDbPolyline
 62
253
  6
CONTINUOUS
 90
52
 70
0
 10
-3.1620251743
 20
40.8185924876
 10
-3.1625647585
 20
40.8418054401
 10
-3.1636621036
 20
40.8651674497
 10
-3.165316169
 20
40.8886563649
 10
-3.1675253864
 20
40.9122499136
 10
-3.170287661
 20
40.9359257244
 10
-3.1736003736
 20
40.9596613483
 10
-3.1774603832
 20
40.9834342793
 10
-3.1818640297
 20
41.007221976
 10
-3.1868071376
 20
41.0310018831
 10
-3.1922850199
 20
41.0547514527
 10
-3.1982924826
 20
41.0784481656
 10
-3.2048238293
 20
41.1020695528
 10
-3.2118728671
 20
41.1255932166
 10
-3.2194329122
 20
41.1489968521
 10
-3.2274967961
 20
41.1722582681
 10
-3.2360568728
 20
41.1953554083
 10
-3.2451050257
 20
41.2182663721
 10
-3.2546326754
 20
41.2409694356
 10
-3.2646307878
 20
41.2634430719
 10
-3.2750898827
 20
41.2856659716
 10
-3.286000043
 20
41.3076170631
 10
-3.2973509238
 20
41.3292755326
 10
-3.3091317621
 20
41.3506208437
 10
-3.3213313875
 20
41.3716327568
 10
-3.3339382324
 20
41.3922913487
 10
-3.346940343
 20
41.412577031
 10
-3.360325391
 20
41.432470569
 10
-3.3740806845
 20
41.4519530998
 10
-3.3881931811
 20
41.4710061501
 10
-3.4026494993
 20
41.489611654
 10
-3.4174359318
 20
41.50775197
 10
-3.4325384581
 20
41.5254098974
 10
-3.4479427581
 20
41.5425686932
 10
-3.4636342257
 20
41.5592120875
 10
-3.4795979822
 20
41.5753242992
 10
-3.495818891
 20
41.5908900507
 10
-3.5122815715
 20
41.6058945829
 10
-3.5289704138
 20
41.6203236683
 10
-3.5458695939
 20
41.6341636256
 10
-3.5629630879
 20
41.6474013317
 10
-3.580234688
 20
41.6600242348
 10
-3.5976680174
 20
41.6720203659
 10
-3.6152465458
 20
41.6833783504
 10
-3.6329536055
 20
41.6940874187
 10
-3.6507724068
 20
41.7041374165
 10
-3.6686860539
 20
41.7135188146
 10
-3.6866775614
 20
41.7222227174
 10
-3.7047298697
 20
41.7302408721
 10
-3.7228258619
 20
41.737565676
 10
-3.7409483794
 20
41.7441901836
 10
-3.7590802385
 20
41.7501081136
  0
LWPOLYLINE
  5
3FD
100
AcDbEntity
  8
RACCORDO
100
AcDbPolyline
 62
253
  6
CONTINUOUS
 90
37
 70
0
 10
-3.2140411395
 20
1.248352779
 10
-3.2146418018
 20
1.225101638
 10
-3.2158001671
 20
1.2020436111
 10
-3.217515137
 20
1.1792005618
 10
-3.2197850853
 20
1.1565941496
 10
-3.2226078597
 20
1.1342458098
 10
-3.2259807837
 20
1.1121767329
 10
-3.2299006591
 20
1.0904078447
 10
-3.2343637691
 20
1.0689597862
 10
-3.2393658819
 20
1.0478528945
 10
-3.2449022543
 20
1.0271071827
 10
-3.250967637
 20
1.006742322
 10
-3.2575562787
 20
0.9867776221
 10
-3.2646619322
 20
0.9672320134
 10
-3.2722778598
 20
0.9481240289
 10
-3.2803968403
 20
0.9294717866
 10
-3.2890111753
 20
0.9112929725
 10
-3.2981126968
 20
0.8936048237
 10
-3.3076927747
 20
0.8764241117
 10
-3.3177423252
 20
0.8597671274
 10
-3.3282518195
 20
0.8436496647
 10
-3.3392112926
 20
0.8280870061
 10
-3.3506103527
 20
0.813093908
 10
-3.3624381914
 20
0.7986845868
 10
-3.3746835935
 20
0.7848727051
 10
-3.3873349481
 20
0.7716713595
 10
-3.4003802592
 20
0.7590930673
 10
-3.4138071574
 20
0.7471497551
 10
-3.4276029115
 20
0.7358527475
 10
-3.4417544402
 20
0.7252127563
 10
-3.4562483253
 20
0.7152398702
 10
-3.4710708239
 20
0.7059435454
 10
-3.4862078812
 20
0.6973325966
 10
-3.5016451444
 20
0.6894151887
 10
-3.5173679761
 20
0.682198829
 10
-3.533361468
 20
0.6756903598
 10
-3.5485229544
 20
0.6702587754
  0
LWPOLYLINE
  5
3FE
100
AcDbEntity
  8
ASSI
100
AcDbPolyline
 62
253
  6
CONTINUOUS
 90
37
 70
0
 10
-3.2140411395
 20
1.248352779
 10
-3.2146418018
 20
1.225101638
 10
-3.2158001671
 20
1.2020436111
 10
-3.217515137
 20
1.1792005618
 10
-3.2197850853
 20
1.1565941496
 10
-3.2226078597
 20
1.1342458098
 10
-3.2259807837
 20
1.1121767329
 10
-3.2299006591
 20
1.0904078447
 10
-3.2343637691
 20
1.0689597862
 10
-3.2393658819
 20
1.0478528945
 10
-3.2449022543
 20
1.0271071827
 10
-3.250967637
 20
1.006742322
 10
-3.2575562787
 20
0.9867776221
 10
-3.2646619322
 20
0.9672320134
 10
-3.2722778598
 20
0.9481240289
 10
-3.2803968403
 20
0.9294717866
 10
-3.2890111753
 20
0.9112929725
 10
-3.2981126968
 20
0.8936048237
 10
-3.3076927747
 20
0.8764241117
 10
-3.3177423252
 20
0.8597671274
 10
-3.3282518195
 20
0.8436496647
 10
-3.3392112926
 20
0.8280870061
 10
-3.3506103527
 20
0.813093908
 10
-3.3624381914
 20
0.7986845868
 10
-3.3746835935
 20
0.7848727051
 10
-3.3873349481
 20
0.7716713595
 10
-3.4003802592
 20
0.7590930673
 10
-3.4138071574
 20
0.7471497551
 10
-3.4276029115
 20
0.7358527475
 10
-3.4417544402
 20
0.7252127563
 10
-3.4562483253
 20
0.7152398702
 10
-3.4710708239
 20
0.7059435454
 10
-3.4862078812
 20
0.6973325966
 10
-3.5016451444
 20
0.6894151887
 10
-3.5173679761
 20
0.682198829
 10
-3.533361468
 20
0.6756903598
 10
-3.5485229544
 20
0.6702587754
  0
LINE
  5
3FF
100
AcDbEntity
  8
RACCORDO
100
AcDbLine
 62
253
  6
CONTINUOUS
 10
-36.5395699974
 20
49.4780253139
 11
-4.7461838032
 21
40.0704137795
  0
LINE
  5
400
100
AcDbEntity
  8
ASSI
100
AcDbLine
 62
253
  6
CONTINUOUS
 10
-36.5395699974
 20
49.4780253139
 11
-4.7461838032
 21
40.0704137795
  0
LINE
  5
401
100
AcDbEntity
  8
0
100
AcDbLine
 62
7
  6
CONTINUOUS
 10
-0.5168851668
 20
22.0485395015
 11
-0.5166735852
 21
22.2094965802
  0
LINE
  5
402
100
AcDbEntity
  8
ASSI
100
AcDbLine
 62
7
  6
CONTINUOUS
 10
-0.5168851668
 20
22.0485395015
 11
-0.5166735852
 21
22.2094965802
  0
LINE
  5
403
100
AcDbEntity
  8
RACCORDO
100
AcDbLine
 62
7
  6
CONTINUOUS
 10
-0.1914816466
 20
41.9588871619
 11
-0.2171505704
 21
22.4317003838
  0
LINE
  5
404
100
AcDbEntity
  8
ASSI
100
AcDbLine
 62
7
  6
CONTINUOUS
 10
-0.1914816466
 20
41.9588871619
 11
-0.2171505704
 21
22.4317003838
  0
LINE
  5
405
100
AcDbEntity
  8
RACCORDO
100
AcDbLine
 62
7
  6
CONTINUOUS
 10
-0.2180185965
 20
21.7713646212
 11
-0.2436875204
 21
2.2441778431
  0
LINE
  5
406
100
AcDbEntity
  8
ASSI
100
AcDbLine
 62
7
  6
CONTINUOUS
 10
-0.2180185965
 20
21.7713646212
 11
-0.2436875204
 21
2.2441778431
  0
LINE
  5
407
100
AcDbEntity
  8
RACCORDO
100
AcDbLine
 62
253
  6
CONTINUOUS
 10
-35.5703763131
 20
51.1630191526
 11
-3.7590802385
 21
41.7501081136
  0
LINE
  5
408
100
AcDbEntity
  8
ASSI
100
AcDbLine
 62
253
  6
CONTINUOUS
 10
-35.5703763131
 20
51.1630191526
 11
-3.7590802385
 21
41.7501081136
  0
LINE
  5
409
100
AcDbEntity
  8
RACCORDO
100
AcDbLine
 62
7
  6
CONTINUOUS
 10
-0.7885367108
 20
42.8904027879
 11
-32.7143369178
 21
52.3371954144
  0
LINE
  5
40A
100
AcDbEntity
  8
ASSI
100
AcDbLine
 62
7
  6
CONTINUOUS
 10
-0.7885367108
 20
42.8904027879
 11
-32.7143369178
 21
52.3371954144
  0
LWPOLYLINE
  5
40B
100
AcDbEntity
  8
RACCORDO
100
AcDbPolyline
 62
253
  6
CONTINUOUS
 90
52
 70
0
 10
-3.6778475599
 20
1.6966810534
 10
-3.6945787135
 20
1.6892866051
 10
-3.7118405229
 20
1.6820663772
 10
-3.7296169752
 20
1.6750270676
 10
-3.7478915801
 20
1.6681752063
 10
-3.7666473851
 20
1.6615171494
 10
-3.7858669915
 20
1.6550590733
 10
-3.8055325702
 20
1.6488069687
 10
-3.8256258786
 20
1.6427666354
 10
-3.846128277
 20
1.6369436768
 10
-3.8670207465
 20
1.6313434944
 10
-3.8882839063
 20
1.6259712833
 10
-3.9098980314
 20
1.6208320271
 10
-3.9318430718
 20
1.615930493
 10
-3.95409867
 20
1.6112712281
 10
-3.9766441807
 20
1.6068585545
 10
-3.9994586897
 20
1.6026965656
 10
-4.022521033
 20
1.5987891222
 10
-4.045809817
 20
1.5951398491
 10
-4.0693034378
 20
1.5917521316
 10
-4.0929801016
 20
1.5886291122
 10
-4.1168178448
 20
1.585773688
 10
-4.1407945543
 20
1.5831885078
 10
-4.1648879883
 20
1.5808759698
 10
-4.1890757964
 20
1.5788382192
 10
-4.2133355409
 20
1.5770771463
 10
-4.2376447173
 20
1.5755943848
 10
-4.2619807752
 20
1.5743913101
 10
-4.2863211393
 20
1.5734690383
 10
-4.3106432303
 20
1.572828425
 10
-4.3349244858
 20
1.5724700643
 10
-4.3591423815
 20
1.5723942887
 10
-4.3832744516
 20
1.5726011686
 10
-4.4072983101
 20
1.5730905119
 10
-4.4311916711
 20
1.5738618648
 10
-4.4549323702
 20
1.5749145118
 10
-4.4784983843
 20
1.5762474762
 10
-4.5018678524
 20
1.5778595217
 10
-4.5250190959
 20
1.5797491528
 10
-4.5479306385
 20
1.5819146165
 10
-4.5705812265
 20
1.5843539042
 10
-4.5929498479
 20
1.5870647529
 10
-4.6150157527
 20
1.5900446481
 10
-4.6367584714
 20
1.5932908253
 10
-4.6581578345
 20
1.5968002733
 10
-4.6791939907
 20
1.6005697365
 10
-4.6998474261
 20
1.6045957183
 10
-4.7200989814
 20
1.6088744838
 10
-4.7399298703
 20
1.613402064
 10
-4.7593216968
 20
1.6181742588
 10
-4.7782564721
 20
1.6231866413
 10
-4.7967166313
 20
1.6284345617
  0
LWPOLYLINE
  5
40C
100
AcDbEntity
  8
ASSI
100
AcDbPolyline
 62
253
  6
CONTINUOUS
 90
52
 70
0
 10
-3.6778475599
 20
1.6966810534
 10
-3.6945787135
 20
1.6892866051
 10
-3.7118405229
 20
1.6820663772
 10
-3.7296169752
 20
1.6750270676
 10
-3.7478915801
 20
1.6681752063
 10
-3.7666473851
 20
1.6615171494
 10
-3.7858669915
 20
1.6550590733
 10
-3.8055325702
 20
1.6488069687
 10
-3.8256258786
 20
1.6427666354
 10
-3.846128277
 20
1.6369436768
 10
-3.8670207465
 20
1.6313434944
 10
-3.8882839063
 20
1.6259712833
 10
-3.9098980314
 20
1.6208320271
 10
-3.9318430718
 20
1.615930493
 10
-3.95409867
 20
1.6112712281
 10
-3.9766441807
 20
1.6068585545
 10
-3.9994586897
 20
1.6026965656
 10
-4.022521033
 20
1.5987891222
 10
-4.045809817
 20
1.5951398491
 10
-4.0693034378
 20
1.5917521316
 10
-4.0929801016
 20
1.5886291122
 10
-4.1168178448
 20
1.585773688
 10
-4.1407945543
 20
1.5831885078
 10
-4.1648879883
 20
1.5808759698
 10
-4.1890757964
 20
1.5788382192
 10
-4.2133355409
 20
1.5770771463
 10
-4.2376447173
 20
1.5755943848
 10
-4.2619807752
 20
1.5743913101
 10
-4.2863211393
 20
1.5734690383
 10
-4.3106432303
 20
1.572828425
 10
-4.3349244858
 20
1.5724700643
 10
-4.3591423815
 20
1.5723942887
 10
-4.3832744516
 20
1.5726011686
 10
-4.4072983101
 20
1.5730905119
 10
-4.4311916711
 20
1.5738618648
 10
-4.4549323702
 20
1.5749145118
 10
-4.4784983843
 20
1.5762474762
 10
-4.5018678524
 20
1.5778595217
 10
-4.5250190959
 20
1.5797491528
 10
-4.5479306385
 20
1.5819146165
 10
-4.5705812265
 20
1.5843539042
 10
-4.5929498479
 20
1.5870647529
 10
-4.6150157527
 20
1.5900446481
 10
-4.6367584714
 20
1.5932908253
 10
-4.6581578345
 20
1.5968002733
 10
-4.6791939907
 20
1.6005697365
 10
-4.6998474261
 20
1.6045957183
 10
-4.7200989814
 20
1.6088744838
 10
-4.7399298703
 20
1.613402064
 10
-4.7593216968
 20
1.6181742588
 10
-4.7782564721
 20
1.6231866413
 10
-4.7967166313
 20
1.6284345617
  0
LINE
  5
40D
100
AcDbEntity
  8
RACCORDO
100
AcDbLine
 62
253
  6
CONTINUOUS
 10
-3.2140411395
 20
1.248352779
 11
-0.2436875204
 21
2.2441778431
  0
LINE
  5
40E
100
AcDbEntity
  8
ASSI
100
AcDbLine
 62
253
  6
CONTINUOUS
 10
-3.2140411395
 20
1.248352779
 11
-0.2436875204
 21
2.2441778431
  0
LINE
  5
40F
100
AcDbEntity
  8
RACCORDO
100
AcDbLine
 62
7
  6
CONTINUOUS
 10
-3.5485229544
 20
0.6702587754
 11
-0.5749501492
 21
1.6671630868
  0
LINE
  5
410
100
AcDbEntity
  8
ASSI
100
AcDbLine
 62
7
  6
CONTINUOUS
 10
-0.5749501492
 20
1.6671630868
 11
-3.5488198378
 21
0.6701593756
  0
LWPOLYLINE
  5
411
100
AcDbEntity
  8
RACCORDO
100
AcDbPolyline
 62
253
  6
CONTINUOUS
 90
15
 70
0
 10
-35.823406629
 20
51.1667042104
 10
-35.8064014911
 20
51.1711633015
 10
-35.7891647051
 20
51.1749024815
 10
-35.7717126147
 20
51.177918205
 10
-35.7540617678
 20
51.1802076124
 10
-35.7362289009
 20
51.181768533
 10
-35.718230923
 20
51.1825994867
 10
-35.7000848995
 20
51.1826996856
 10
-35.6818080366
 20
51.1820690346
 10
-35.663417664
 20
51.1807081319
 10
-35.6449312195
 20
51.1786182677
 10
-35.6263662317
 20
51.1758014238
 10
-35.6077403039
 20
51.1722602708
 10
-35.5890710971
 20
51.1679981667
 10
-35.5703763131
 20
51.1630191526
  0
ELLIPSE
  5
412
100
AcDbEntity
  8
RACCORDO
100
AcDbEllipse
 62
7
  6
CONTINUOUS
 10
-32.7151468862
 20
51.5823570977
 30
0.0
 11
-0.2794754235
 21
0.7498332237
 31
0.0
 40
0.7054035246
 41
-0.4874421337
 42
0.0235061428
  0
ELLIPSE
  5
413
100
AcDbEntity
  8
RACCORDO
100
AcDbEllipse
 62
7
  6
CONTINUOUS
 10
-0.8419163737
 20
2.4214227795
 30
0.0
 11
-0.2794754235
 21
0.7498332237
 31
0.0
 40
0.7054035246
 41
-3.1650896856
 42
-2.0585430469
  0
ELLIPSE
  5
414
100
AcDbEntity
  8
RACCORDO
100
AcDbEllipse
 62
7
  6
CONTINUOUS
 10
-0.7897111043
 20
42.135672304
 30
0.0
 11
-0.2790447079
 21
0.7497784352
 31
0.0
 40
0.7057592109
 41
-2.0577283803
 42
-0.48723664
  0
ELLIPSE
  5
415
100
AcDbEntity
  8
RACCORDO
100
AcDbEllipse
 62
7
  6
CONTINUOUS
 10
-0.3675758854
 20
21.815618381
 30
0.0
 11
-0.0698399477
 21
0.1874167943
 31
0.0
 40
0.7056417001
 41
-2.0583239258
 42
-0.487527599
  0
ELLIPSE
  5
416
100
AcDbEntity
  8
RACCORDO
100
AcDbEllipse
 62
7
  6
CONTINUOUS
 10
-0.3667078593
 20
22.4759541436
 30
0.0
 11
-0.0698399477
 21
0.1874167943
 31
0.0
 40
0.7056417001
 41
-3.149736158
 42
-2.0583239258
  0
ELLIPSE
  5
417
100
AcDbEntity
  8
ASSI
100
AcDbEllipse
 62
7
  6
CONTINUOUS
 10
-32.7151468862
 20
51.5823570977
 30
0.0
 11
-0.2794754235
 21
0.7498332237
 31
0.0
 40
0.7054035246
 41
-0.4874421337
 42
0.0235061428
  0
ELLIPSE
  5
418
100
AcDbEntity
  8
ASSI
100
AcDbEllipse
 62
7
  6
CONTINUOUS
 10
-0.8419163737
 20
2.4214227795
 30
0.0
 11
-0.2794754235
 21
0.7498332237
 31
0.0
 40
0.7054035246
 41
-3.1650896856
 42
-2.0585430469
  0
ELLIPSE
  5
419
100
AcDbEntity
  8
ASSI
100
AcDbEllipse
 62
7
  6
CONTINUOUS
 10
-0.7897111043
 20
42.135672304
 30
0.0
 11
-0.2790447079
 21
0.7497784352
 31
0.0
 40
0.7057592109
 41
-2.0577283803
 42
-0.48723664
  0
ELLIPSE
  5
41A
100
AcDbEntity
  8
ASSI
100
AcDbEllipse
 62
7
  6
CONTINUOUS
 10
-0.3675758854
 20
21.815618381
 30
0.0
 11
-0.0698399477
 21
0.1874167943
 31
0.0
 40
0.7056417001
 41
-2.0583239258
 42
-0.487527599
  0
ELLIPSE
  5
41B
100
AcDbEntity
  8
ASSI
100
AcDbEllipse
 62
7
  6
CONTINUOUS
 10
-0.3667078593
 20
22.4759541436
 30
0.0
 11
-0.0698399477
 21
0.1874167943
 31
0.0
 40
0.7056417001
 41
-3.149736158
 42
-2.0583239258
  0
ELLIPSE
  5
41C
100
AcDbEntity
  8
CURVE
100
AcDbEllipse
 62
252
  6
CONTINUOUS
 10
194.9315163685
 20
94.5971776789
 30
0.0
 11
437.057598399
 21
183.4348889339
 31
0.0
 40
0.0204885196
 41
2.0739821328
 42
2.0759836952
  0
ELLIPSE
  5
41D
100
AcDbEntity
  8
CURVE
100
AcDbEllipse
 62
252
  6
CONTINUOUS
 10
168.3720174117
 20
102.456090448
 30
0.0
 11
297.2252364363
 21
221.7114794866
 31
0.0
 40
0.1926324811
 41
2.1008795693
 42
2.1052517998
  0
ELLIPSE
  5
41E
100
AcDbEntity
  8
CURVE
100
AcDbEllipse
 62
252
  6
CONTINUOUS
 10
194.8540091218
 20
94.6201119478
 30
0.0
 11
436.7785119378
 21
183.5156480985
 31
0.0
 40
0.0206938585
 41
2.0818869609
 42
2.0838891896
  0
ELLIPSE
  5
41F
100
AcDbEntity
  8
CURVE
100
AcDbEllipse
 62
252
  6
CONTINUOUS
 10
168.3720174117
 20
102.456090448
 30
0.0
 11
297.2252364363
 21
221.7114794866
 31
0.0
 40
0.1926324811
 41
2.1151611272
 42
2.1194305954
  0
ELLIPSE
  5
420
100
AcDbEntity
  8
CURVE
100
AcDbEllipse
 62
252
  6
CONTINUOUS
 10
161.2477628682
 20
104.5641458406
 30
0.0
 11
416.8881908473
 21
-379.1768305821
 31
0.0
 40
0.3403983267
 41
-1.6984191872
 42
-1.6964169585
  0
ELLIPSE
  5
421
100
AcDbEntity
  8
CURVE
100
AcDbEllipse
 62
252
  6
CONTINUOUS
 10
161.1973982676
 20
104.5790486445
 30
0.0
 11
416.5805424932
 21
-379.0846576851
 31
0.0
 40
0.3406170053
 41
-1.706099083
 42
-1.7040975206
  0
ELLIPSE
  5
422
100
AcDbEntity
  8
CURVE
100
AcDbEllipse
 62
252
  6
CONTINUOUS
 10
187.8115037868
 20
96.7039778819
 30
0.0
 11
-250.0523025067
 21
335.2187938401
 31
0.0
 40
0.492956187
 41
1.3892520905
 42
1.3936216326
  0
ELLIPSE
  5
423
100
AcDbEntity
  8
CURVE
100
AcDbEllipse
 62
252
  6
CONTINUOUS
 10
187.8115037868
 20
96.7039778819
 30
0.0
 11
-250.0523025067
 21
335.2187938401
 31
0.0
 40
0.492956187
 41
1.3750706064
 42
1.3793093478
  0
ENDSEC
  0
SECTION
  2
OBJECTS
  0
DICTIONARY
  5
C
100
AcDbDictionary
280
0
281
1
  3
ACAD_GROUP
350
D
  3
ACAD_MLINESTYLE
350
17
  3
ACAD_LAYOUT
350
1A
  3
ACAD_PLOTSETTINGS
350
19
  3
ACAD_PLOTSTYLENAME
350
E
  0
DICTIONARY
  5
D
102
{ACAD_REACTORS
330
C
102
}
100
AcDbDictionary
280
0
281
1
  0
ACDBDICTIONARYWDFLT
  5
E
102
{ACAD_REACTORS
330
C
102
}
100
AcDbDictionary
281
1
  3
Normal
350
F
100
AcDbDictionaryWithDefault
340
F
  0
DICTIONARY
  5
17
102
{ACAD_REACTORS
330
C
102
}
100
AcDbDictionary
280
0
281
1
  3
Standard
350
18
  0
DICTIONARY
  5
19
102
{ACAD_REACTORS
330
C
102
}
100
AcDbDictionary
281
1
  0
DICTIONARY
  5
1A
102
{ACAD_REACTORS
330
C
102
}
100
AcDbDictionary
281
1
  3
Model
350
424
  3
Layout1
350
425
  0
ACDBPLACEHOLDER
  5
F
102
{ACAD_REACTORS
330
E
102
}
  0
MLINESTYLE
  5
18
102
{ACAD_REACTORS
330
17
102
}
100
AcDbMlineStyle
  2
STANDARD
 70
0
  3

 62
256
 51
90.0
 52
90.0
 71
2
 49
0.5
 62
256
  6
BYLAYER
 49
-0.5
 62
256
  6
BYLAYER
  0
LAYOUT
  5
424
102
{ACAD_REACTORS
330
1A
102
}
100
AcDbPlotSettings
  1

  2
none_device
  4
ISO_A4_(297.00_x_210.00_MM)
  6

 40
0.0
 41
0.0
 42
0.0
 43
0.0
 44
297.0
 45
210.0
 46
0.0
 47
0.0
 48
0.0
 49
0.0
140
0.0
141
0.0
142
1.0
143
1.0
 70
1024
 72
1
 73
0
 74
0
  7

 75
0
147
1.0
148
0.0
149
0.0
100
AcDbLayout
  1
Model
 70
0
 71
0
 10
0.0
 20
0.0
 11
297.0
 21
210.0
 12
0.0
 22
0.0
 32
0.0
 14
0.0
 24
0.0
 34
0.0
 15
0.0
 25
0.0
 35
0.0
146
0.0
 13
0.0
 23
0.0
 33
0.0
 16
1.0
 26
0.0
 36
0.0
 17
0.0
 27
1.0
 37
0.0
 76
0
330
214
345
0
346
0
  0
LAYOUT
  5
425
102
{ACAD_REACTORS
330
1A
102
}
100
AcDbPlotSettings
  1

  2
none_device
  4
ISO_A4_(297.00_x_210.00_MM)
  6

 40
0.0
 41
0.0
 42
0.0
 43
0.0
 44
297.0
 45
210.0
 46
0.0
 47
0.0
 48
0.0
 49
0.0
140
0.0
141
0.0
142
1.0
143
1.0
 70
0
 72
1
 73
0
 74
0
  7

 75
0
147
1.0
148
0.0
149
0.0
100
AcDbLayout
  1
Layout1
 70
0
 71
1
 10
0.0
 20
0.0
 11
297.0
 21
210.0
 12
0.0
 22
0.0
 32
0.0
 14
0.0
 24
0.0
 34
0.0
 15
0.0
 25
0.0
 35
0.0
146
0.0
 13
0.0
 23
0.0
 33
0.0
 16
1.0
 26
0.0
 36
0.0
 17
0.0
 27
1.0
 37
0.0
 76
0
330
215
345
0
346
0
  0
ENDSEC
  0
EOF
