0
SECTION
2
HEADER
9
$ACADVER
1
AC1015
9
$DWGCODEPAGE
3
ANSI_1252
9
$EXTMAX
10
431.8000000000
20
558.8000000000
30
0.0000000000
9
$EXTMIN
10
0.0000000000
20
0.0000000000
30
0.0000000000
9
$LIMMIN
10
0.0000000000
20
0.0000000000
9
$LIMMAX
10
431.8000000000
20
558.8000000000
9
$VIEWCTR
10
215.9000000000
20
279.4000000000
9
$VIEWSIZE
40
558.8000000000
9
$CLAYER
8
0
9
$LTSCALE
40
36.4254814815
9
$CELTYPE
6
BYLAYER
9
$DIMSCALE
40
1
9
$DIMASZ
40
3.0000000000
9
$DIMEXO
40
4.1392592593
9
$DIMDLI
40
25.1666962963
9
$DIMEXE
40
11.9210666667
9
$DIMCEN
40
5.9605333333
9
$DIMLFAC
40
1.0000000000
9
$DIMBLK
1
_FILLED
9
$DIMTXT
40
3.0000000000
9
$DIMTOL
70
1
9
$DIMLIM
70
0
9
$DIMTFAC
40
1.0000000000
9
$DIMTP
40
0.0100000000
9
$DIMTM
40
0.0100000000
9
$PDMODE
70
3
9
$PDSIZE
40
3.0000000000
9
$HANDSEED
5
997
9
$MEASUREMENT
70
1
9
$INSUNITS
70
4
0
ENDSEC
0
SECTION
2
CLASSES
0
CLASS
1
ACDBDICTIONARYWDFLT
2
AcDbDictionaryWithDefault
3
AutoCAD 2000
90
0
280
0
281
0
0
CLASS
1
ACDBPLACEHOLDER
2
AcDbPlaceHolder
3
AutoCAD 2000
90
0
280
0
281
0
0
CLASS
1
LAYOUT
2
AcDbLayout
3
AutoCAD 2000
90
0
280
0
281
0
0
ENDSEC
0
SECTION
2
TABLES
0
TABLE
2
VPORT
5
8
100
AcDbSymbolTable
70
2
0
VPORT
5
1F4
100
AcDbSymbolTableRecord
100
AcDbViewportTableRecord
2
*ACTIVE
70
0
10
0.0
20
0.0
11
1.0
21
1.0
12
215.9000000000
22
279.4000000000
13
0.0
23
0.0
14
1.0
24
1.0
15
0.0
25
0.0
16
0.0
26
0.0
36
1.0
17
0.0
27
0.0
37
0.0
40
558.8000000000
41
0.7727272727
42
50.0
43
0.0
44
0.0
50
0.0
51
0.0
71
0
72
100
73
1
74
1
75
0
76
0
77
0
78
0
0
ENDTAB
0
TABLE
2
LTYPE
5
5
100
AcDbSymbolTable
70
6
0
LTYPE
5
14
100
AcDbSymbolTableRecord
100
AcDbLinetypeTableRecord
2
BYBLOCK
70
0
3

72
65
73
0
40
0.0
0
LTYPE
5
15
100
AcDbSymbolTableRecord
100
AcDbLinetypeTableRecord
2
BYLAYER
70
0
3

72
65
73
0
40
0.0
0
LTYPE
5
16
100
AcDbSymbolTableRecord
100
AcDbLinetypeTableRecord
2
CONTINUOUS
70
64
3
Solid line
72
65
73
0
40
0
0
LTYPE
5
1F5
100
AcDbSymbolTableRecord
100
AcDbLinetypeTableRecord
2
CENTER
70
64
3
____ _ ____ _ ____ _ ____ _ ____ _ ____ _ ____
72
65
73
4
40
0.6
49
0.375
74
0
49
-0.075
74
0
49
0.075
74
0
49
-0.075
74
0
0
LTYPE
5
1F6
100
AcDbSymbolTableRecord
100
AcDbLinetypeTableRecord
2
HIDDEN
70
64
3
- - - - - - - - - - - - - - - - - - - -
72
65
73
2
40
0.2
49
0.1
74
0
49
-0.1
74
0
0
LTYPE
5
1F7
100
AcDbSymbolTableRecord
100
AcDbLinetypeTableRecord
2
PHANTOM
70
64
3
_____ _ _ _____ _ _ _____ _ _ _____
72
65
73
6
40
0.8
49
0.45
74
0
49
-0.05
74
0
49
0.1
74
0
49
-0.05
74
0
49
0.1
74
0
49
-0.05
74
0
0
LTYPE
5
1F8
100
AcDbSymbolTableRecord
100
AcDbLinetypeTableRecord
2
DOT
70
64
3
. . . . . . . . . . . . . . . . . . . .
72
65
73
2
40
0.2
49
0.1
74
0
49
-0.1
74
0
0
LTYPE
5
1F9
100
AcDbSymbolTableRecord
100
AcDbLinetypeTableRecord
2
DASHED
70
64
3
- - - - - - - - - - - - - - - - - - - -
72
65
73
2
40
0.2
49
0.1
74
0
49
-0.1
74
0
0
ENDTAB
0
TABLE
2
LAYER
5
2
100
AcDbSymbolTable
70
36
0
LAYER
5
10
100
AcDbSymbolTableRecord
100
AcDbLayerTableRecord
2
0
70
0
62
7
6
CONTINUOUS
370
-3
390
F
0
LAYER
5
1FA
100
AcDbSymbolTableRecord
100
AcDbLayerTableRecord
2
DEFAULT_1
70
0
62
7
6
CENTER
370
-3
390
F
0
LAYER
5
1FB
100
AcDbSymbolTableRecord
100
AcDbLayerTableRecord
2
DEFAULT_2
70
0
62
9
6
HIDDEN
370
-3
390
F
0
LAYER
5
1FC
100
AcDbSymbolTableRecord
100
AcDbLayerTableRecord
2
DEFAULT_3
70
0
62
7
6
PHANTOM
370
-3
390
F
0
LAYER
5
1FD
100
AcDbSymbolTableRecord
100
AcDbLayerTableRecord
2
_2D_DELETED_OBJS
70
0
62
7
6
CONTINUOUS
370
-3
390
F
0
LAYER
5
1FE
100
AcDbSymbolTableRecord
100
AcDbLayerTableRecord
2
0
70
0
62
7
6
CONTINUOUS
370
-3
390
F
0
LAYER
5
1FF
100
AcDbSymbolTableRecord
100
AcDbLayerTableRecord
2
ASSI
70
0
62
7
6
CONTINUOUS
370
-3
390
F
0
LAYER
5
200
100
AcDbSymbolTableRecord
100
AcDbLayerTableRecord
2
COORDINATE
70
0
62
7
6
CONTINUOUS
370
-3
390
F
0
LAYER
5
201
100
AcDbSymbolTableRecord
100
AcDbLayerTableRecord
2
COORD_ORIGINE
70
0
62
7
6
CONTINUOUS
370
-3
390
F
0
LAYER
5
202
100
AcDbSymbolTableRecord
100
AcDbLayerTableRecord
2
CURVE
70
0
62
7
6
CONTINUOUS
370
-3
390
F
0
LAYER
5
203
100
AcDbSymbolTableRecord
100
AcDbLayerTableRecord
2
CURVE_LED_TASTO
70
0
62
7
6
CONTINUOUS
370
-3
390
F
0
LAYER
5
204
100
AcDbSymbolTableRecord
100
AcDbLayerTableRecord
2
DEFAULT_1
70
0
62
7
6
CONTINUOUS
370
-3
390
F
0
LAYER
5
205
100
AcDbSymbolTableRecord
100
AcDbLayerTableRecord
2
DEFAULT_2
70
0
62
7
6
CONTINUOUS
370
-3
390
F
0
LAYER
5
206
100
AcDbSymbolTableRecord
100
AcDbLayerTableRecord
2
DEFAULT_3
70
0
62
7
6
CONTINUOUS
370
-3
390
F
0
LAYER
5
207
100
AcDbSymbolTableRecord
100
AcDbLayerTableRecord
2
DRAFT
70
0
62
7
6
CONTINUOUS
370
-3
390
F
0
LAYER
5
208
100
AcDbSymbolTableRecord
100
AcDbLayerTableRecord
2
IGES_SCRITTE
70
0
62
7
6
CONTINUOUS
370
-3
390
F
0
LAYER
5
209
100
AcDbSymbolTableRecord
100
AcDbLayerTableRecord
2
PIANI
70
0
62
7
6
CONTINUOUS
370
-3
390
F
0
LAYER
5
20A
100
AcDbSymbolTableRecord
100
AcDbLayerTableRecord
2
PIANI_ORIGINE
70
0
62
7
6
CONTINUOUS
370
-3
390
F
0
LAYER
5
20B
100
AcDbSymbolTableRecord
100
AcDbLayerTableRecord
2
PIANI_RIFERIMENTO
70
0
62
7
6
CONTINUOUS
370
-3
390
F
0
LAYER
5
20C
100
AcDbSymbolTableRecord
100
AcDbLayerTableRecord
2
PUNTI
70
0
62
7
6
CONTINUOUS
370
-3
390
F
0
LAYER
5
20D
100
AcDbSymbolTableRecord
100
AcDbLayerTableRecord
2
RACCORDO
70
0
62
7
6
CONTINUOUS
370
-3
390
F
0
LAYER
5
20E
100
AcDbSymbolTableRecord
100
AcDbLayerTableRecord
2
SMUSSO
70
0
62
7
6
CONTINUOUS
370
-3
390
F
0
LAYER
5
20F
100
AcDbSymbolTableRecord
100
AcDbLayerTableRecord
2
SNAPLINE
70
0
62
7
6
CONTINUOUS
370
-3
390
F
0
LAYER
5
210
100
AcDbSymbolTableRecord
100
AcDbLayerTableRecord
2
SUPERFICI
70
0
62
7
6
CONTINUOUS
370
-3
390
F
0
LAYER
5
211
100
AcDbSymbolTableRecord
100
AcDbLayerTableRecord
2
TRASH
70
0
62
7
6
CONTINUOUS
370
-3
390
F
0
LAYER
5
212
100
AcDbSymbolTableRecord
100
AcDbLayerTableRecord
2
_2D_DELETED_OBJS
70
0
62
7
6
CONTINUOUS
370
-3
390
F
0
ENDTAB
0
TABLE
2
STYLE
5
3
100
AcDbSymbolTable
70
1
0
STYLE
5
11
100
AcDbSymbolTableRecord
100
AcDbTextStyleTableRecord
2
STANDARD
70
0
40
0.0
41
0.8000000000
50
0.0
71
0
42
0.2
3
txt
4

0
ENDTAB
0
TABLE
2
VIEW
5
6
100
AcDbSymbolTable
70
0
0
ENDTAB
0
TABLE
2
UCS
5
7
100
AcDbSymbolTable
70
0
0
ENDTAB
0
TABLE
2
APPID
5
9
100
AcDbSymbolTable
70
1
0
APPID
5
213
100
AcDbSymbolTableRecord
100
AcDbRegAppTableRecord
2
ACAD
70
0
0
ENDTAB
0
TABLE
2
BLOCK_RECORD
5
1
100
AcDbSymbolTable
70
0
0
BLOCK_RECORD
5
1F
100
AcDbSymbolTableRecord
100
AcDbBlockTableRecord
2
*MODEL_SPACE
0
BLOCK_RECORD
5
1B
100
AcDbSymbolTableRecord
100
AcDbBlockTableRecord
2
*PAPER_SPACE
0
ENDTAB
0
TABLE
2
DIMSTYLE
5
A
100
AcDbSymbolTable
70
1
100
AcDbDimStyleTable
71
0
0
DIMSTYLE
105
214
100
AcDbSymbolTableRecord
100
AcDbDimStyleTableRecord
2
STANDARD
70
0
3

4

40
1.0
41
3.0000000000
42
0.0625
43
0.38
44
0.18
45
0.0
46
0.0
47
0.0100000000
48
0.0100000000
140
3.0000000000
141
0.09
142
0.0
143
25.4
144
1.0000000000
145
0.0
146
1.0000000000
147
0.09
71
1
72
0
73
0
74
0
75
0
76
0
77
1
78
8
170
0
171
2
172
0
173
0
174
0
175
0
176
0
177
0
178
0
270
2
271
2
272
2
273
2
274
2
275
0
280
0
281
0
282
0
283
1
284
8
285
0
286
0
287
3
288
0
340
11
0
ENDTAB
0
ENDSEC
0
SECTION
2
BLOCKS
0
BLOCK
5
20
100
AcDbEntity
8
0
100
AcDbBlockBegin
2
*MODEL_SPACE
70
0
10
0.0
20
0.0
30
0.0
3
*MODEL_SPACE
1

0
ENDBLK
5
21
100
AcDbEntity
8
0
100
AcDbBlockEnd
0
BLOCK
5
1C
100
AcDbEntity
8
0
100
AcDbBlockBegin
2
*PAPER_SPACE
70
0
10
0.0
20
0.0
30
0.0
3
*PAPER_SPACE
1

0
ENDBLK
5
1D
100
AcDbEntity
8
0
100
AcDbBlockEnd
0
ENDSEC
0
SECTION
2
ENTITIES
0
LINE
5
215
100
AcDbEntity
8
0
100
AcDbLine
62
9
6
CONTINUOUS
10
15.6664650659
20
-25.0702760165
11
15.6450486463
21
-25.0649040890
0
LINE
5
216
100
AcDbEntity
8
0
100
AcDbLine
62
7
6
CONTINUOUS
10
16.0658394884
20
-25.8040806553
11
16.0959313517
21
-25.8116314360
0
LINE
5
217
100
AcDbEntity
8
0
100
AcDbLine
62
9
6
CONTINUOUS
10
16.8250087052
20
-25.3181021698
11
16.8356372239
21
-25.3208095634
0
LINE
5
218
100
AcDbEntity
8
0
100
AcDbLine
62
9
6
CONTINUOUS
10
15.6450486463
20
-25.0649040890
11
15.6239941805
21
-25.0591673146
0
LINE
5
219
100
AcDbEntity
8
0
100
AcDbLine
62
7
6
CONTINUOUS
10
16.0360496288
20
-25.7956935457
11
16.0658394884
21
-25.8040806553
0
LINE
5
21A
100
AcDbEntity
8
0
100
AcDbLine
62
9
6
CONTINUOUS
10
15.6239941805
20
-25.0591673146
11
15.6033211998
21
-25.0530710151
0
LINE
5
21B
100
AcDbEntity
8
0
100
AcDbLine
62
9
6
CONTINUOUS
10
16.8145381161
20
-25.3149994819
11
16.8250087052
21
-25.3181021698
0
LINE
5
21C
100
AcDbEntity
8
0
100
AcDbLine
62
7
6
CONTINUOUS
10
6.4578013179
20
-17.7368809023
11
6.4500346364
21
-17.7345493384
0
LINE
5
21D
100
AcDbEntity
8
DEFAULT_3
100
AcDbLine
62
9
6
PHANTOM
10
6.4432520122
20
-17.5798528272
11
6.4684435237
21
-17.5874642886
0
LINE
5
21E
100
AcDbEntity
8
0
100
AcDbLine
62
7
6
CONTINUOUS
10
16.0065497055
20
-25.7864693925
11
16.0360496288
21
-25.7956935457
0
LINE
5
21F
100
AcDbEntity
8
0
100
AcDbLine
62
9
6
CONTINUOUS
10
15.6033211998
20
-25.0530710151
11
15.5830488812
21
-25.0466208455
0
LINE
5
220
100
AcDbEntity
8
0
100
AcDbLine
62
9
6
CONTINUOUS
10
16.8042446839
20
-25.3115072009
11
16.8145381161
21
-25.3149994819
0
LINE
5
221
100
AcDbEntity
8
0
100
AcDbLine
62
9
6
CONTINUOUS
10
15.5830488812
20
-25.0466208455
11
15.5631960304
21
-25.0398227894
0
LINE
5
222
100
AcDbEntity
8
0
100
AcDbLine
62
7
6
CONTINUOUS
10
15.9773637142
20
-25.7764169537
11
16.0065497055
21
-25.7864693925
0
LINE
5
223
100
AcDbEntity
8
0
100
AcDbLine
62
7
6
CONTINUOUS
10
6.4500346364
20
-17.7345493384
11
6.4422189359
21
-17.7318478006
0
LINE
5
224
100
AcDbEntity
8
DEFAULT_3
100
AcDbLine
62
9
6
PHANTOM
10
6.3517927398
20
-17.4450238202
11
6.3487812116
21
-17.4439819698
0
LINE
5
225
100
AcDbEntity
8
DEFAULT_3
100
AcDbLine
62
9
6
PHANTOM
10
6.4822769567
20
-16.4572736290
11
6.4439287918
21
-16.4438734885
0
LINE
5
226
100
AcDbEntity
8
DEFAULT_3
100
AcDbLine
62
9
6
PHANTOM
10
-4.9802499634
20
-9.7524045039
11
-4.9934694276
21
-9.7477617694
0
LINE
5
227
100
AcDbEntity
8
DEFAULT_3
100
AcDbLine
62
9
6
PHANTOM
10
6.4196907004
20
-17.4341718161
11
6.3985252192
21
-17.4266760523
0
LINE
5
228
100
AcDbEntity
8
DEFAULT_3
100
AcDbLine
62
9
6
PHANTOM
10
6.1765760094
20
-10.4547680479
11
6.1554068236
21
-10.4471769562
0
LINE
5
229
100
AcDbEntity
8
0
100
AcDbLine
62
9
6
CONTINUOUS
10
15.5631960304
20
-25.0398227894
11
15.5437810640
21
-25.0326831531
0
LINE
5
22A
100
AcDbEntity
8
0
100
AcDbLine
62
7
6
CONTINUOUS
10
15.9485155331
20
-25.7655461153
11
15.9773637142
21
-25.7764169537
0
LINE
5
22B
100
AcDbEntity
8
0
100
AcDbLine
62
9
6
CONTINUOUS
10
16.7941287332
20
-25.3076246104
11
16.8042446839
21
-25.3115072009
0
LINE
5
22C
100
AcDbEntity
8
0
100
AcDbLine
62
7
6
CONTINUOUS
10
-6.1330467106
20
-3.9209206491
11
-6.1251768638
21
-3.9239718414
0
LINE
5
22D
100
AcDbEntity
8
0
100
AcDbLine
62
7
6
CONTINUOUS
10
6.4422189359
20
-17.7318478006
11
6.4343709551
21
-17.7287841182
0
LINE
5
22E
100
AcDbEntity
8
0
100
AcDbLine
62
9
6
CONTINUOUS
10
15.5437810640
20
-25.0326831531
11
15.5248219921
21
-25.0252085595
0
LINE
5
22F
100
AcDbEntity
8
DEFAULT_3
100
AcDbLine
62
9
6
PHANTOM
10
-4.9676229118
20
-9.7575286900
11
-4.9802499634
21
-9.7524045039
0
LINE
5
230
100
AcDbEntity
8
DEFAULT_3
100
AcDbLine
62
9
6
PHANTOM
10
-5.1520695115
20
-4.8197769348
11
-5.1394424599
21
-4.8249011209
0
LINE
5
231
100
AcDbEntity
8
DEFAULT_3
100
AcDbLine
62
9
6
PHANTOM
10
6.4186451063
20
-17.5698475090
11
6.4432520122
21
-17.5798528272
0
LINE
5
232
100
AcDbEntity
8
0
100
AcDbLine
62
7
6
CONTINUOUS
10
15.9199948152
20
-25.7538536801
11
15.9485155331
21
-25.7655461153
0
LINE
5
233
100
AcDbEntity
8
0
100
AcDbLine
62
9
6
CONTINUOUS
10
15.5248219921
20
-25.0252085595
11
15.5063364020
21
-25.0174059425
0
LINE
5
234
100
AcDbEntity
8
0
100
AcDbLine
62
9
6
CONTINUOUS
10
16.7841899393
20
-25.3033524268
11
16.7941287332
21
-25.3076246104
0
LINE
5
235
100
AcDbEntity
8
0
100
AcDbLine
62
7
6
CONTINUOUS
10
-6.1251768638
20
-3.9239718414
11
-6.1172890256
21
-3.9273861796
0
LINE
5
236
100
AcDbEntity
8
0
100
AcDbLine
62
7
6
CONTINUOUS
10
6.4343709551
20
-17.7287841182
11
6.4264965697
21
-17.7253623641
0
LINE
5
237
100
AcDbEntity
8
0
100
AcDbLine
62
7
6
CONTINUOUS
10
15.8918147230
20
-25.7413438152
11
15.9199948152
21
-25.7538536801
0
LINE
5
238
100
AcDbEntity
8
DEFAULT_3
100
AcDbLine
62
9
6
PHANTOM
10
6.3985252192
20
-17.4266760523
11
6.3790805039
21
-17.4179864566
0
LINE
5
239
100
AcDbEntity
8
DEFAULT_3
100
AcDbLine
62
9
6
PHANTOM
10
-6.0657180759
20
-4.2954517233
11
-6.0626272363
21
-4.2968329667
0
LINE
5
23A
100
AcDbEntity
8
DEFAULT_3
100
AcDbLine
62
9
6
PHANTOM
10
6.3487812116
20
-17.4439819698
11
6.3456941689
21
-17.4425986330
0
LINE
5
23B
100
AcDbEntity
8
DEFAULT_3
100
AcDbLine
62
9
6
PHANTOM
10
6.4439287918
20
-16.4438734885
11
6.4065012171
21
-16.4270948495
0
LINE
5
23C
100
AcDbEntity
8
DEFAULT_3
100
AcDbLine
62
9
6
PHANTOM
10
6.1554068236
20
-10.4471769562
11
6.1359606119
21
-10.4384553416
0
LINE
5
23D
100
AcDbEntity
8
0
100
AcDbLine
62
9
6
CONTINUOUS
10
15.5063364020
20
-25.0174059425
11
15.4883414420
21
-25.0092825401
0
LINE
5
23E
100
AcDbEntity
8
0
100
AcDbLine
62
7
6
CONTINUOUS
10
0.0396129937
20
-1.1522875502
11
-0.0151621851
21
-1.1269354017
0
LINE
5
23F
100
AcDbEntity
8
0
100
AcDbLine
62
9
6
CONTINUOUS
10
-0.0406728158
20
-1.0826685683
11
0.0082447771
21
-1.1053420954
0
LINE
5
240
100
AcDbEntity
8
DEFAULT_3
100
AcDbLine
62
9
6
PHANTOM
10
-4.9555882728
20
-9.7631343277
11
-4.9676229118
21
-9.7575286900
0
LINE
5
241
100
AcDbEntity
8
DEFAULT_3
100
AcDbLine
62
9
6
PHANTOM
10
-5.1394424599
20
-4.8249011209
11
-5.1274078208
21
-4.8305067586
0
LINE
5
242
100
AcDbEntity
8
0
100
AcDbLine
62
7
6
CONTINUOUS
10
-0.0869228469
20
1.0174250910
11
-0.0632115421
21
1.0063520201
0
LINE
5
243
100
AcDbEntity
8
0
100
AcDbLine
62
7
6
CONTINUOUS
10
-0.0157728677
20
-1.1814590584
11
-0.0394788682
21
-1.1703833353
0
LINE
5
244
100
AcDbEntity
8
0
100
AcDbLine
62
9
6
CONTINUOUS
10
16.7744465560
20
-25.2986984993
11
16.7841899393
21
-25.3033524268
0
LINE
5
245
100
AcDbEntity
8
0
100
AcDbLine
62
7
6
CONTINUOUS
10
-6.1172890256
20
-3.9273861796
11
-6.1093941574
21
-3.9311571690
0
LINE
5
246
100
AcDbEntity
8
0
100
AcDbLine
62
7
6
CONTINUOUS
10
6.4264965697
20
-17.7253623641
11
6.4186069657
21
-17.7215889284
0
LINE
5
247
100
AcDbEntity
8
DEFAULT_3
100
AcDbLine
62
9
6
PHANTOM
10
6.4106819816
20
-17.5660281817
11
6.4186451063
21
-17.5698475090
0
LINE
5
248
100
AcDbEntity
8
0
100
AcDbLine
62
7
6
CONTINUOUS
10
15.8613708445
20
-25.7267157853
11
15.8918147230
21
-25.7413438152
0
LINE
5
249
100
AcDbEntity
8
0
100
AcDbLine
62
9
6
CONTINUOUS
10
15.4883414420
20
-25.0092825401
11
15.4708538050
21
-25.0008458881
0
LINE
5
24A
100
AcDbEntity
8
0
100
AcDbLine
62
7
6
CONTINUOUS
10
-14.2162049726
20
-10.6879223201
11
15.8614001684
21
-25.7267304484
0
LINE
5
24B
100
AcDbEntity
8
0
100
AcDbLine
62
9
6
CONTINUOUS
10
-14.5975483301
20
-9.9666448361
11
15.4708537906
21
-25.0008458964
0
LINE
5
24C
100
AcDbEntity
8
0
100
AcDbLine
62
7
6
CONTINUOUS
10
6.4186069657
20
-17.7215889284
11
-5.8411914655
21
-11.5916897128
0
LINE
5
24D
100
AcDbEntity
8
DEFAULT_3
100
AcDbLine
62
9
6
CONTINUOUS
10
6.4106796998
20
-17.5660327759
11
-5.7520128073
21
-11.4846869218
0
LINE
5
24E
100
AcDbEntity
8
DEFAULT_3
100
AcDbLine
62
9
6
CONTINUOUS
10
6.3456941689
20
-17.4425986330
11
-5.8165424675
21
-11.3614803148
0
LINE
5
24F
100
AcDbEntity
8
0
100
AcDbLine
62
7
6
CONTINUOUS
10
-4.3808220969
20
-11.3039789144
11
6.5834372799
21
-16.7861086028
0
LINE
5
250
100
AcDbEntity
8
DEFAULT_3
100
AcDbLine
62
9
6
CONTINUOUS
10
6.4065012171
20
-16.4270948495
11
-4.6243645799
21
-10.9116619511
0
LINE
5
251
100
AcDbEntity
8
DEFAULT_3
100
AcDbLine
62
9
6
CONTINUOUS
10
-4.3852979315
20
-10.9154501197
11
6.5667416221
21
-16.3914698965
0
LINE
5
252
100
AcDbEntity
8
DEFAULT_3
100
AcDbLine
62
9
6
PHANTOM
10
-4.9555882728
20
-9.7631343277
11
-5.1688716992
21
-9.6564926145
0
LINE
5
253
100
AcDbEntity
8
0
100
AcDbLine
62
7
6
CONTINUOUS
10
-5.1517387745
20
-9.1185591396
11
-5.1943981664
21
-9.0972294436
0
LINE
5
254
100
AcDbEntity
8
DEFAULT_3
100
AcDbLine
62
9
6
PHANTOM
10
-5.3406912473
20
-4.7238650454
11
-5.1274078208
21
-4.8305067586
0
LINE
5
255
100
AcDbEntity
8
DEFAULT_3
100
AcDbLine
62
9
6
CONTINUOUS
10
-6.0626272363
20
-4.2968329667
11
6.0996094001
21
-10.3779512849
0
LINE
5
256
100
AcDbEntity
8
0
100
AcDbLine
62
7
6
CONTINUOUS
10
6.1549488475
20
-10.0633286715
11
-6.1093941574
21
-3.9311571690
0
LINE
5
257
100
AcDbEntity
8
0
100
AcDbLine
62
7
6
CONTINUOUS
10
-0.0394788682
20
-1.1703833353
11
-0.0632050575
21
-1.1585203475
0
LINE
5
258
100
AcDbEntity
8
0
100
AcDbLine
62
7
6
CONTINUOUS
10
-0.0632115421
20
1.0063520201
11
-0.0394853520
21
0.9944890327
0
LINE
5
259
100
AcDbEntity
8
0
100
AcDbLine
62
9
6
CONTINUOUS
10
-14.6145151961
20
-9.9578542365
11
-14.5975483300
21
-9.9666448361
0
LINE
5
25A
100
AcDbEntity
8
DEFAULT_3
100
AcDbLine
62
9
6
PHANTOM
10
-5.7593395476
20
-11.4808806525
11
-5.7520105274
21
-11.4846823566
0
LINE
5
25B
100
AcDbEntity
8
0
100
AcDbLine
62
7
6
CONTINUOUS
10
-5.8411914655
20
-11.5916897128
11
-5.8490979968
21
-11.5875650842
0
LINE
5
25C
100
AcDbEntity
8
0
100
AcDbLine
62
7
6
CONTINUOUS
10
-14.2429043726
20
-10.6739878630
11
-14.2162049726
21
-10.6879223201
0
LINE
5
25D
100
AcDbEntity
8
0
100
AcDbLine
62
7
6
CONTINUOUS
10
6.1549488475
20
-10.0633286715
11
6.1628512203
21
-10.0674563025
0
LINE
5
25E
100
AcDbEntity
8
0
100
AcDbLine
62
9
6
CONTINUOUS
10
15.8401630607
20
-25.7155486961
11
15.8613705961
21
-25.7267156613
0
LINE
5
25F
100
AcDbEntity
8
0
100
AcDbLine
62
9
6
CONTINUOUS
10
16.7648989419
20
-25.2936621259
11
16.7744465560
21
-25.2986984993
0
LINE
5
260
100
AcDbEntity
8
0
100
AcDbLine
62
7
6
CONTINUOUS
10
-4.4146377461
20
-11.2861040523
11
-4.3808220969
21
-11.3039789144
0
LINE
5
261
100
AcDbEntity
8
0
100
AcDbLine
62
7
6
CONTINUOUS
10
-0.0632050575
20
-1.1585203475
11
-0.0869163844
21
-1.1458876177
0
LINE
5
262
100
AcDbEntity
8
0
100
AcDbLine
62
7
6
CONTINUOUS
10
-0.0394853520
20
0.9944890327
11
-0.0157793280
21
0.9818536514
0
LINE
5
263
100
AcDbEntity
8
0
100
AcDbLine
62
9
6
CONTINUOUS
10
-0.0902496241
20
-1.0560463700
11
-0.0406728158
21
-1.0826685683
0
LINE
5
264
100
AcDbEntity
8
0
100
AcDbLine
62
9
6
CONTINUOUS
10
0.0089040559
20
0.9026874757
11
-0.0406728158
21
0.9293096425
0
LINE
5
265
100
AcDbEntity
8
DEFAULT_3
100
AcDbLine
62
9
6
PHANTOM
10
-4.3852979315
20
-10.9154501197
11
-4.4059196569
21
-10.9043686805
0
LINE
5
266
100
AcDbEntity
8
0
100
AcDbLine
62
7
6
CONTINUOUS
10
-0.0151621851
20
-1.1269354017
11
-0.0724584901
21
-1.0960466562
0
LINE
5
267
100
AcDbEntity
8
DEFAULT_3
100
AcDbLine
62
9
6
PHANTOM
10
-4.6243645848
20
-10.9116619486
11
-4.6570141628
21
-10.8937680861
0
LINE
5
268
100
AcDbEntity
8
DEFAULT_3
100
AcDbLine
62
9
6
PHANTOM
10
-5.8165424675
20
-11.3614803148
11
-5.8196448060
21
-11.3597689610
0
LINE
5
269
100
AcDbEntity
8
DEFAULT_3
100
AcDbLine
62
9
6
PHANTOM
10
6.0996094001
20
-10.3779512849
11
6.1027079416
21
-10.3796647321
0
LINE
5
26A
100
AcDbEntity
8
0
100
AcDbLine
62
9
6
CONTINUOUS
10
-14.6309427775
20
-9.9487663681
11
-14.6145151961
21
-9.9578542365
0
LINE
5
26B
100
AcDbEntity
8
DEFAULT_3
100
AcDbLine
62
9
6
PHANTOM
10
-6.1144965705
20
-4.3122252999
11
-6.0969867027
21
-4.3219816844
0
LINE
5
26C
100
AcDbEntity
8
0
100
AcDbLine
62
7
6
CONTINUOUS
10
-14.2692136123
20
-10.6592853046
11
-14.2429043726
21
-10.6739878630
0
LINE
5
26D
100
AcDbEntity
8
DEFAULT_3
100
AcDbLine
62
9
6
PHANTOM
10
-5.8713781014
20
-11.2917243555
11
-5.8538668107
21
-11.3015127994
0
LINE
5
26E
100
AcDbEntity
8
0
100
AcDbLine
62
7
6
CONTINUOUS
10
-5.8490979968
20
-11.5875650842
11
-5.8570224190
21
-11.5830874448
0
LINE
5
26F
100
AcDbEntity
8
0
100
AcDbLine
62
7
6
CONTINUOUS
10
-0.0869163844
20
-1.1458876177
11
-0.1106234728
21
-1.1324776501
0
LINE
5
270
100
AcDbEntity
8
0
100
AcDbLine
62
7
6
CONTINUOUS
10
-0.0157793280
20
0.9818536514
11
0.0079171503
21
0.9684383788
0
LINE
5
271
100
AcDbEntity
8
0
100
AcDbLine
62
7
6
CONTINUOUS
10
6.1628512203
20
-10.0674563025
11
6.1707628123
21
-10.0719416794
0
LINE
5
272
100
AcDbEntity
8
0
100
AcDbLine
62
9
6
CONTINUOUS
10
16.7555467384
20
-25.2882440085
11
16.7648989419
21
-25.2936621259
0
LINE
5
273
100
AcDbEntity
8
0
100
AcDbLine
62
9
6
CONTINUOUS
10
15.8203145064
20
-25.7040349298
11
15.8401630607
21
-25.7155486961
0
LINE
5
274
100
AcDbEntity
8
0
100
AcDbLine
62
9
6
CONTINUOUS
10
-14.2342070871
20
-10.6783636222
11
-14.2537347628
21
-10.6670102951
0
LINE
5
275
100
AcDbEntity
8
0
100
AcDbLine
62
7
6
CONTINUOUS
10
-4.4482844937
20
-11.2664450818
11
-4.4146377461
21
-11.2861040523
0
LINE
5
276
100
AcDbEntity
8
0
100
AcDbLine
62
9
6
CONTINUOUS
10
-14.6468158352
20
-9.9393896612
11
-14.6309427775
21
-9.9487663681
0
LINE
5
277
100
AcDbEntity
8
DEFAULT_3
100
AcDbLine
62
9
6
PHANTOM
10
-5.7811959140
20
-11.4679224638
11
-5.7593395476
21
-11.4808806525
0
LINE
5
278
100
AcDbEntity
8
0
100
AcDbLine
62
7
6
CONTINUOUS
10
-14.2951016128
20
-10.6438312486
11
-14.2692136123
21
-10.6592853046
0
LINE
5
279
100
AcDbEntity
8
0
100
AcDbLine
62
7
6
CONTINUOUS
10
-0.1106234728
20
-1.1324776501
11
-0.1343156816
21
-1.1182979318
0
LINE
5
27A
100
AcDbEntity
8
0
100
AcDbLine
62
7
6
CONTINUOUS
10
0.0079171503
20
0.9684383788
11
0.0315934798
21
0.9542507209
0
LINE
5
27B
100
AcDbEntity
8
0
100
AcDbLine
62
7
6
CONTINUOUS
10
-5.8570224190
20
-11.5830874448
11
-5.8649537922
21
-11.5782614673
0
LINE
5
27C
100
AcDbEntity
8
DEFAULT_3
100
AcDbLine
62
9
6
PHANTOM
10
6.4103927966
20
-17.5658899368
11
6.3968131975
21
-17.5575972304
0
LINE
5
27D
100
AcDbEntity
8
DEFAULT_3
100
AcDbLine
62
9
6
PHANTOM
10
-4.4059196569
20
-10.9043686805
11
-4.4277024028
21
-10.8910493859
0
LINE
5
27E
100
AcDbEntity
8
0
100
AcDbLine
62
9
6
CONTINUOUS
10
-0.1398948685
20
-1.0256912129
11
-0.0902496241
21
-1.0560463700
0
LINE
5
27F
100
AcDbEntity
8
0
100
AcDbLine
62
9
6
CONTINUOUS
10
0.0585493321
20
0.8723323346
11
0.0089040559
21
0.9026874757
0
LINE
5
280
100
AcDbEntity
8
0
100
AcDbLine
62
7
6
CONTINUOUS
10
6.1707628123
20
-10.0719416794
11
6.1786724559
21
-10.0767802323
0
LINE
5
281
100
AcDbEntity
8
DEFAULT_3
100
AcDbLine
62
9
6
PHANTOM
10
-5.7520128073
20
-11.4846869218
11
-5.7654243229
21
-11.4764782639
0
LINE
5
282
100
AcDbEntity
8
0
100
AcDbLine
62
7
6
CONTINUOUS
10
-0.0724584901
20
-1.0960466562
11
-0.1292118545
21
-1.0609810332
0
LINE
5
283
100
AcDbEntity
8
0
100
AcDbLine
62
9
6
CONTINUOUS
10
-14.6621196446
20
-9.9297328141
11
-14.6468158352
21
-9.9393896612
0
LINE
5
284
100
AcDbEntity
8
0
100
AcDbLine
62
7
6
CONTINUOUS
10
-0.1343156816
20
-1.1182979318
11
-0.1579260540
21
-1.1033884555
0
LINE
5
285
100
AcDbEntity
8
0
100
AcDbLine
62
7
6
CONTINUOUS
10
0.0315934798
20
0.9542507209
11
0.0551827824
21
0.9393307096
0
LINE
5
286
100
AcDbEntity
8
0
100
AcDbLine
62
9
6
CONTINUOUS
10
16.7464071226
20
-25.2824541024
11
16.7555467384
21
-25.2882440085
0
LINE
5
287
100
AcDbEntity
8
0
100
AcDbLine
62
9
6
CONTINUOUS
10
15.8009056999
20
-25.6917145940
11
15.8203145064
21
-25.7040349298
0
LINE
5
288
100
AcDbEntity
8
0
100
AcDbLine
62
7
6
CONTINUOUS
10
-14.3205552804
20
-10.6276330119
11
-14.2951016128
21
-10.6438312486
0
LINE
5
289
100
AcDbEntity
8
0
100
AcDbLine
62
9
6
CONTINUOUS
10
-14.2537347628
20
-10.6670102951
11
-14.2728299847
21
-10.6548467517
0
LINE
5
28A
100
AcDbEntity
8
0
100
AcDbLine
62
7
6
CONTINUOUS
10
-4.4817623395
20
-11.2450020029
11
-4.4482844937
21
-11.2664450818
0
LINE
5
28B
100
AcDbEntity
8
DEFAULT_3
100
AcDbLine
62
9
6
PHANTOM
10
-4.6570141628
20
-10.8937680861
11
-4.6887052436
21
-10.8731823469
0
LINE
5
28C
100
AcDbEntity
8
DEFAULT_3
100
AcDbLine
62
9
6
PHANTOM
10
-5.8196448060
20
-11.3597689610
11
-5.8227006315
21
-11.3577771346
0
LINE
5
28D
100
AcDbEntity
8
0
100
AcDbLine
62
7
6
CONTINUOUS
10
-5.8649537922
20
-11.5782614673
11
-5.8728868222
21
-11.5730886638
0
LINE
5
28E
100
AcDbEntity
8
DEFAULT_3
100
AcDbLine
62
9
6
PHANTOM
10
6.1027079416
20
-10.3796647321
11
6.1057527718
21
-10.3816626209
0
LINE
5
28F
100
AcDbEntity
8
0
100
AcDbLine
62
7
6
CONTINUOUS
10
6.1786724559
20
-10.0767802323
11
6.1865744388
21
-10.0819706524
0
LINE
5
290
100
AcDbEntity
8
0
100
AcDbLine
62
7
6
CONTINUOUS
10
-0.1579260540
20
-1.1033884555
11
-0.1814442943
21
-1.0877541011
0
LINE
5
291
100
AcDbEntity
8
0
100
AcDbLine
62
7
6
CONTINUOUS
10
0.0551827824
20
0.9393307096
11
0.0786748061
21
0.9236832469
0
LINE
5
292
100
AcDbEntity
8
0
100
AcDbLine
62
9
6
CONTINUOUS
10
-14.6768400091
20
-9.9198047849
11
-14.6621196446
21
-9.9297328141
0
LINE
5
293
100
AcDbEntity
8
0
100
AcDbLine
62
7
6
CONTINUOUS
10
-14.3455781891
20
-10.6106860911
11
-14.3205552804
21
-10.6276330119
0
LINE
5
294
100
AcDbEntity
8
DEFAULT_3
100
AcDbLine
62
9
6
PHANTOM
10
-4.4277024028
20
-10.8910493859
11
-4.4504578966
21
-10.8754297729
0
LINE
5
295
100
AcDbEntity
8
0
100
AcDbLine
62
9
6
CONTINUOUS
10
-0.1894215212
20
-0.9916613168
11
-0.1398948685
21
-1.0256912129
0
LINE
5
296
100
AcDbEntity
8
0
100
AcDbLine
62
9
6
CONTINUOUS
10
0.1080759851
20
0.8383024386
11
0.0585493321
21
0.8723323346
0
LINE
5
297
100
AcDbEntity
8
0
100
AcDbLine
62
9
6
CONTINUOUS
10
16.7374804858
20
-25.2762917240
11
16.7464071226
21
-25.2824541024
0
LINE
5
298
100
AcDbEntity
8
0
100
AcDbLine
62
9
6
CONTINUOUS
10
15.7819484451
20
-25.6785951971
11
15.8009056999
21
-25.6917145940
0
LINE
5
299
100
AcDbEntity
8
DEFAULT_3
100
AcDbLine
62
9
6
PHANTOM
10
-6.1298786857
20
-4.3015408457
11
-6.1144965705
21
-4.3122252999
0
LINE
5
29A
100
AcDbEntity
8
0
100
AcDbLine
62
9
6
CONTINUOUS
10
-14.2728299847
20
-10.6548467517
11
-14.2914809622
21
-10.6418804935
0
LINE
5
29B
100
AcDbEntity
8
0
100
AcDbLine
62
7
6
CONTINUOUS
10
-5.8728868222
20
-11.5730886638
11
-5.8808046265
21
-11.5675780155
0
LINE
5
29C
100
AcDbEntity
8
0
100
AcDbLine
62
7
6
CONTINUOUS
10
-4.5151394374
20
-11.2217238477
11
-4.4817623395
21
-11.2450020029
0
LINE
5
29D
100
AcDbEntity
8
0
100
AcDbLine
62
7
6
CONTINUOUS
10
-0.1292118545
20
-1.0609810332
11
-0.1852312549
21
-1.0218912108
0
LINE
5
29E
100
AcDbEntity
8
0
100
AcDbLine
62
7
6
CONTINUOUS
10
-0.1814442943
20
-1.0877541011
11
-0.2048806472
21
-1.0713899629
0
LINE
5
29F
100
AcDbEntity
8
0
100
AcDbLine
62
7
6
CONTINUOUS
10
0.0786748061
20
0.9236832469
11
0.1020798541
21
0.9073034562
0
LINE
5
2A0
100
AcDbEntity
8
DEFAULT_3
100
AcDbLine
62
9
6
PHANTOM
10
-5.8867637237
20
-11.2809444644
11
-5.8713781014
21
-11.2917243555
0
LINE
5
2A1
100
AcDbEntity
8
0
100
AcDbLine
62
7
6
CONTINUOUS
10
6.1865744388
20
-10.0819706524
11
6.1944518756
21
-10.0875039456
0
LINE
5
2A2
100
AcDbEntity
8
DEFAULT_3
100
AcDbLine
62
9
6
PHANTOM
10
-5.8022274691
20
-11.4529022780
11
-5.7811959140
21
-11.4679224638
0
LINE
5
2A3
100
AcDbEntity
8
0
100
AcDbLine
62
7
6
CONTINUOUS
10
-14.3701482278
20
-10.5930023423
11
-14.3455781891
21
-10.6106860911
0
LINE
5
2A4
100
AcDbEntity
8
0
100
AcDbLine
62
9
6
CONTINUOUS
10
-14.6909632734
20
-9.9096147833
11
-14.6768400091
21
-9.9198047849
0
LINE
5
2A5
100
AcDbEntity
8
0
100
AcDbLine
62
7
6
CONTINUOUS
10
-0.2048806472
20
-1.0713899629
11
-0.2281989585
21
-1.0543213505
0
LINE
5
2A6
100
AcDbEntity
8
0
100
AcDbLine
62
7
6
CONTINUOUS
10
0.1020798541
20
0.9073034562
11
0.1253618885
21
0.8902167054
0
LINE
5
2A7
100
AcDbEntity
8
0
100
AcDbLine
62
7
6
CONTINUOUS
10
-5.8808046265
20
-11.5675780155
11
-5.8886790263
21
-11.5617482942
0
LINE
5
2A8
100
AcDbEntity
8
0
100
AcDbLine
62
7
6
CONTINUOUS
10
6.1944518756
20
-10.0875039456
11
6.2022770970
21
-10.0933610624
0
LINE
5
2A9
100
AcDbEntity
8
0
100
AcDbLine
62
9
6
CONTINUOUS
10
16.7287664367
20
-25.2697575568
11
16.7374804858
21
-25.2762917240
0
LINE
5
2AA
100
AcDbEntity
8
0
100
AcDbLine
62
9
6
CONTINUOUS
10
15.7634542576
20
-25.6646847312
11
15.7819484451
21
-25.6785951971
0
LINE
5
2AB
100
AcDbEntity
8
0
100
AcDbLine
62
7
6
CONTINUOUS
10
-4.5483476337
20
-11.1966615841
11
-4.5151394374
21
-11.2217238477
0
LINE
5
2AC
100
AcDbEntity
8
DEFAULT_3
100
AcDbLine
62
9
6
PHANTOM
10
-5.8227006315
20
-11.3577771346
11
-5.8257099428
21
-11.3555048346
0
LINE
5
2AD
100
AcDbEntity
8
0
100
AcDbLine
62
9
6
CONTINUOUS
10
-14.2914809622
20
-10.6418804935
11
-14.3096761663
21
-10.6281195192
0
LINE
5
2AE
100
AcDbEntity
8
DEFAULT_3
100
AcDbLine
62
9
6
PHANTOM
10
-4.6887052436
20
-10.8731823469
11
-4.7193565941
21
-10.8498748724
0
LINE
5
2AF
100
AcDbEntity
8
DEFAULT_3
100
AcDbLine
62
9
6
PHANTOM
10
-4.4504578966
20
-10.8754297729
11
-4.4739928885
21
-10.8574727701
0
LINE
5
2B0
100
AcDbEntity
8
DEFAULT_3
100
AcDbLine
62
9
6
PHANTOM
10
6.1057527718
20
-10.3816626209
11
6.1087438922
21
-10.3839449505
0
LINE
5
2B1
100
AcDbEntity
8
0
100
AcDbLine
62
7
6
CONTINUOUS
10
-14.3942438933
20
-10.5745945520
11
-14.3701482278
21
-10.5930023423
0
LINE
5
2B2
100
AcDbEntity
8
0
100
AcDbLine
62
9
6
CONTINUOUS
10
-0.2386963415
20
-0.9539845063
11
-0.1894215212
21
-0.9916613168
0
LINE
5
2B3
100
AcDbEntity
8
0
100
AcDbLine
62
9
6
CONTINUOUS
10
0.1573507533
20
0.8006256020
11
0.1080759851
21
0.8383024386
0
LINE
5
2B4
100
AcDbEntity
8
0
100
AcDbLine
62
7
6
CONTINUOUS
10
-0.2281989585
20
-1.0543213505
11
-0.2514078988
21
-1.0365401397
0
LINE
5
2B5
100
AcDbEntity
8
0
100
AcDbLine
62
7
6
CONTINUOUS
10
0.1253618885
20
0.8902167054
11
0.1485296336
21
0.8724148970
0
LINE
5
2B6
100
AcDbEntity
8
0
100
AcDbLine
62
9
6
CONTINUOUS
10
-14.7044763361
20
-9.8991722621
11
-14.6909632734
21
-9.9096147833
0
LINE
5
2B7
100
AcDbEntity
8
0
100
AcDbLine
62
7
6
CONTINUOUS
10
-0.1852312549
20
-1.0218912108
11
-0.2403595439
21
-0.9789131557
0
LINE
5
2B8
100
AcDbEntity
8
0
100
AcDbLine
62
7
6
CONTINUOUS
10
-5.8886790263
20
-11.5617482942
11
-5.8964958966
21
-11.5556110677
0
LINE
5
2B9
100
AcDbEntity
8
0
100
AcDbLine
62
7
6
CONTINUOUS
10
6.2022770970
20
-10.0933610624
11
6.2100359824
21
-10.0995304201
0
LINE
5
2BA
100
AcDbEntity
8
0
100
AcDbLine
62
7
6
CONTINUOUS
10
-0.2514078988
20
-1.0365401397
11
-0.2744987133
21
-1.0180544123
0
LINE
5
2BB
100
AcDbEntity
8
0
100
AcDbLine
62
7
6
CONTINUOUS
10
0.1485296336
20
0.8724148970
11
0.1715744493
21
0.8539061702
0
LINE
5
2BC
100
AcDbEntity
8
0
100
AcDbLine
62
7
6
CONTINUOUS
10
-14.4178679748
20
-10.5554564745
11
-14.3942438933
21
-10.5745945520
0
LINE
5
2BD
100
AcDbEntity
8
0
100
AcDbLine
62
9
6
CONTINUOUS
10
16.7202809801
20
-25.2628636061
11
16.7287664367
21
-25.2697575568
0
LINE
5
2BE
100
AcDbEntity
8
0
100
AcDbLine
62
7
6
CONTINUOUS
10
-4.5811824669
20
-11.1699681154
11
-4.5483476337
21
-11.1966615841
0
LINE
5
2BF
100
AcDbEntity
8
0
100
AcDbLine
62
9
6
CONTINUOUS
10
15.7454346550
20
-25.6499918167
11
15.7634542576
21
-25.6646847312
0
LINE
5
2C0
100
AcDbEntity
8
0
100
AcDbLine
62
9
6
CONTINUOUS
10
-14.3096761663
20
-10.6281195192
11
-14.3274046285
21
-10.6135721750
0
LINE
5
2C1
100
AcDbEntity
8
0
100
AcDbLine
62
9
6
CONTINUOUS
10
-14.7173666618
20
-9.8884869083
11
-14.7044763361
21
-9.8991722621
0
LINE
5
2C2
100
AcDbEntity
8
0
100
AcDbLine
62
7
6
CONTINUOUS
10
-5.8964958966
20
-11.5556110677
11
-5.9042478897
21
-11.5491730792
0
LINE
5
2C3
100
AcDbEntity
8
0
100
AcDbLine
62
7
6
CONTINUOUS
10
-0.2744987133
20
-1.0180544123
11
-0.2974091032
21
-0.9989137840
0
LINE
5
2C4
100
AcDbEntity
8
0
100
AcDbLine
62
7
6
CONTINUOUS
10
0.1715744493
20
0.8539061702
11
0.1944342587
21
0.8347402517
0
LINE
5
2C5
100
AcDbEntity
8
DEFAULT_3
100
AcDbLine
62
9
6
PHANTOM
10
-4.4739928885
20
-10.8574727701
11
-4.4980789626
21
-10.8371931683
0
LINE
5
2C6
100
AcDbEntity
8
0
100
AcDbLine
62
7
6
CONTINUOUS
10
6.2100359824
20
-10.0995304201
11
6.2177210798
21
-10.1060053206
0
LINE
5
2C7
100
AcDbEntity
8
0
100
AcDbLine
62
9
6
CONTINUOUS
10
-0.2874646252
20
-0.9127909387
11
-0.2386963415
21
-0.9539845063
0
LINE
5
2C8
100
AcDbEntity
8
0
100
AcDbLine
62
9
6
CONTINUOUS
10
0.2061189533
20
0.7594319927
11
0.1573507533
21
0.8006256020
0
LINE
5
2C9
100
AcDbEntity
8
DEFAULT_3
100
AcDbLine
62
9
6
PHANTOM
10
-5.8221442254
20
-11.4359727299
11
-5.8022274691
21
-11.4529022780
0
LINE
5
2CA
100
AcDbEntity
8
0
100
AcDbLine
62
7
6
CONTINUOUS
10
-14.4409993337
20
-10.5355995818
11
-14.4178679748
21
-10.5554564745
0
LINE
5
2CB
100
AcDbEntity
8
DEFAULT_3
100
AcDbLine
62
9
6
PHANTOM
10
-5.8257099428
20
-11.3555048346
11
-5.8286974344
21
-11.3529294778
0
LINE
5
2CC
100
AcDbEntity
8
0
100
AcDbLine
62
7
6
CONTINUOUS
10
-0.2403595439
20
-0.9789131557
11
-0.2943830798
21
-0.9322342930
0
LINE
5
2CD
100
AcDbEntity
8
DEFAULT_3
100
AcDbLine
62
9
6
PHANTOM
10
-5.7654243229
20
-11.4764782639
11
-5.7776608868
21
-11.4658644060
0
LINE
5
2CE
100
AcDbEntity
8
DEFAULT_3
100
AcDbLine
62
9
6
PHANTOM
10
6.3968131975
20
-17.5575972304
11
6.3845765124
21
-17.5469835035
0
LINE
5
2CF
100
AcDbEntity
8
0
100
AcDbLine
62
7
6
CONTINUOUS
10
-0.2974091032
20
-0.9989137840
11
-0.3201313229
21
-0.9791228556
0
LINE
5
2D0
100
AcDbEntity
8
0
100
AcDbLine
62
7
6
CONTINUOUS
10
-4.6136571795
20
-11.1416181959
11
-4.5811824669
21
-11.1699681154
0
LINE
5
2D1
100
AcDbEntity
8
DEFAULT_3
100
AcDbLine
62
9
6
PHANTOM
10
6.1087438922
20
-10.3839449505
11
6.1117057599
21
-10.3865344352
0
LINE
5
2D2
100
AcDbEntity
8
0
100
AcDbLine
62
7
6
CONTINUOUS
10
0.1944342587
20
0.8347402517
11
0.2171014299
21
0.8149217990
0
LINE
5
2D3
100
AcDbEntity
8
0
100
AcDbLine
62
7
6
CONTINUOUS
10
-5.9042478897
20
-11.5491730792
11
-5.9119175902
21
-11.5424493240
0
LINE
5
2D4
100
AcDbEntity
8
DEFAULT_3
100
AcDbLine
62
9
6
PHANTOM
10
-6.1429645060
20
-4.2900453719
11
-6.1298786857
21
-4.3015408457
0
LINE
5
2D5
100
AcDbEntity
8
0
100
AcDbLine
62
9
6
CONTINUOUS
10
16.7120245362
20
-25.2556092107
11
16.7202809801
21
-25.2628636061
0
LINE
5
2D6
100
AcDbEntity
8
0
100
AcDbLine
62
9
6
CONTINUOUS
10
15.7279005980
20
-25.6345254209
11
15.7454346550
21
-25.6499918167
0
LINE
5
2D7
100
AcDbEntity
8
DEFAULT_3
100
AcDbLine
62
9
6
PHANTOM
10
-4.7193565941
20
-10.8498748724
11
-4.7493393464
21
-10.8233488707
0
LINE
5
2D8
100
AcDbEntity
8
0
100
AcDbLine
62
9
6
CONTINUOUS
10
-14.3274046285
20
-10.6135721750
11
-14.3446554025
21
-10.5982474206
0
LINE
5
2D9
100
AcDbEntity
8
DEFAULT_3
100
AcDbLine
62
9
6
PHANTOM
10
-5.8998551093
20
-11.2692912329
11
-5.8867637237
21
-11.2809444644
0
LINE
5
2DA
100
AcDbEntity
8
0
100
AcDbLine
62
9
6
CONTINUOUS
10
-14.7296222928
20
-9.8775686341
11
-14.7173666618
21
-9.8884869083
0
LINE
5
2DB
100
AcDbEntity
8
0
100
AcDbLine
62
7
6
CONTINUOUS
10
6.2177210798
20
-10.1060053206
11
6.2253154718
21
-10.1127705049
0
LINE
5
2DC
100
AcDbEntity
8
0
100
AcDbLine
62
7
6
CONTINUOUS
10
-0.3201313229
20
-0.9791228556
11
-0.3426730039
21
-0.9586769687
0
LINE
5
2DD
100
AcDbEntity
8
0
100
AcDbLine
62
7
6
CONTINUOUS
10
-14.4636159835
20
-10.5150376671
11
-14.4409993337
21
-10.5355995818
0
LINE
5
2DE
100
AcDbEntity
8
0
100
AcDbLine
62
7
6
CONTINUOUS
10
0.2171014299
20
0.8149217990
11
0.2395837087
21
0.7944462111
0
LINE
5
2DF
100
AcDbEntity
8
0
100
AcDbLine
62
7
6
CONTINUOUS
10
-5.9119175902
20
-11.5424493240
11
-5.9194843464
21
-11.5354604250
0
LINE
5
2E0
100
AcDbEntity
8
DEFAULT_3
100
AcDbLine
62
9
6
PHANTOM
10
-4.4980789626
20
-10.8371931683
11
-4.5224783362
21
-10.8146458404
0
LINE
5
2E1
100
AcDbEntity
8
0
100
AcDbLine
62
9
6
CONTINUOUS
10
-0.3353609832
20
-0.8683516499
11
-0.2874646252
21
-0.9127909387
0
LINE
5
2E2
100
AcDbEntity
8
0
100
AcDbLine
62
9
6
CONTINUOUS
10
0.2540152588
20
0.7149926775
11
0.2061189533
21
0.7594319927
0
LINE
5
2E3
100
AcDbEntity
8
0
100
AcDbLine
62
7
6
CONTINUOUS
10
-4.6457585290
20
-11.1116370713
11
-4.6136571795
21
-11.1416181959
0
LINE
5
2E4
100
AcDbEntity
8
0
100
AcDbLine
62
7
6
CONTINUOUS
10
6.2253154718
20
-10.1127705049
11
6.2327986349
21
-10.1198052435
0
LINE
5
2E5
100
AcDbEntity
8
0
100
AcDbLine
62
7
6
CONTINUOUS
10
-0.3426730039
20
-0.9586769687
11
-0.3649949078
21
-0.9376118479
0
LINE
5
2E6
100
AcDbEntity
8
0
100
AcDbLine
62
7
6
CONTINUOUS
10
0.2395837087
20
0.7944462111
11
0.2618420893
21
0.7733493286
0
LINE
5
2E7
100
AcDbEntity
8
0
100
AcDbLine
62
9
6
CONTINUOUS
10
16.7039966848
20
-25.2479950317
11
16.7120245362
21
-25.2556092107
0
LINE
5
2E8
100
AcDbEntity
8
0
100
AcDbLine
62
7
6
CONTINUOUS
10
-0.2943830798
20
-0.9322342930
11
-0.3470287235
21
-0.8821214969
0
LINE
5
2E9
100
AcDbEntity
8
0
100
AcDbLine
62
9
6
CONTINUOUS
10
15.7108627352
20
-25.6182949765
11
15.7279005980
21
-25.6345254209
0
LINE
5
2EA
100
AcDbEntity
8
0
100
AcDbLine
62
9
6
CONTINUOUS
10
-14.7412318603
20
-9.8664275679
11
-14.7296222928
21
-9.8775686341
0
LINE
5
2EB
100
AcDbEntity
8
0
100
AcDbLine
62
9
6
CONTINUOUS
10
-14.3446554025
20
-10.5982474206
11
-14.3614178254
21
-10.5821546962
0
LINE
5
2EC
100
AcDbEntity
8
0
100
AcDbLine
62
7
6
CONTINUOUS
10
-14.4857177211
20
-10.4937648070
11
-14.4636159835
21
-10.5150376671
0
LINE
5
2ED
100
AcDbEntity
8
DEFAULT_3
100
AcDbLine
62
9
6
PHANTOM
10
-5.8286974344
20
-11.3529294778
11
-5.8316384058
21
-11.3500736442
0
LINE
5
2EE
100
AcDbEntity
8
0
100
AcDbLine
62
7
6
CONTINUOUS
10
-5.9194843464
20
-11.5354604250
11
-5.9269489160
21
-11.5282082422
0
LINE
5
2EF
100
AcDbEntity
8
0
100
AcDbLine
62
7
6
CONTINUOUS
10
-0.3649949078
20
-0.9376118479
11
-0.3871016694
21
-0.9159213869
0
LINE
5
2F0
100
AcDbEntity
8
0
100
AcDbLine
62
7
6
CONTINUOUS
10
0.2618420893
20
0.7733493286
11
0.2838813202
21
0.7516251022
0
LINE
5
2F1
100
AcDbEntity
8
DEFAULT_3
100
AcDbLine
62
9
6
PHANTOM
10
6.1117057599
20
-10.3865344352
11
6.1146139237
21
-10.3894083574
0
LINE
5
2F2
100
AcDbEntity
8
0
100
AcDbLine
62
7
6
CONTINUOUS
10
6.2327986349
20
-10.1198052435
11
6.2401713156
21
-10.1271077086
0
LINE
5
2F3
100
AcDbEntity
8
0
100
AcDbLine
62
7
6
CONTINUOUS
10
-4.6772423268
20
-11.0802533832
11
-4.6457585290
21
-11.1116370713
0
LINE
5
2F4
100
AcDbEntity
8
DEFAULT_3
100
AcDbLine
62
9
6
PHANTOM
10
-5.8404807784
20
-11.4175905795
11
-5.8221442254
21
-11.4359727299
0
LINE
5
2F5
100
AcDbEntity
8
DEFAULT_3
100
AcDbLine
62
9
6
PHANTOM
10
-4.5224783362
20
-10.8146458404
11
-4.5470083576
21
-10.7898619171
0
LINE
5
2F6
100
AcDbEntity
8
0
100
AcDbLine
62
9
6
CONTINUOUS
10
-0.3821773266
20
-0.8208454363
11
-0.3353609832
21
-0.8683516499
0
LINE
5
2F7
100
AcDbEntity
8
0
100
AcDbLine
62
9
6
CONTINUOUS
10
0.3008316161
20
0.6674864709
11
0.2540152588
21
0.7149926775
0
LINE
5
2F8
100
AcDbEntity
8
0
100
AcDbLine
62
7
6
CONTINUOUS
10
-14.5072836452
20
-10.4717934431
11
-14.4857177211
21
-10.4937648070
0
LINE
5
2F9
100
AcDbEntity
8
0
100
AcDbLine
62
7
6
CONTINUOUS
10
-0.3871016694
20
-0.9159213869
11
-0.4089885115
21
-0.8936116200
0
LINE
5
2FA
100
AcDbEntity
8
0
100
AcDbLine
62
7
6
CONTINUOUS
10
-5.9269489160
20
-11.5282082422
11
-5.9343254629
21
-11.5206781286
0
LINE
5
2FB
100
AcDbEntity
8
0
100
AcDbLine
62
9
6
CONTINUOUS
10
16.6962121691
20
-25.2400350584
11
16.7039966848
21
-25.2479950317
0
LINE
5
2FC
100
AcDbEntity
8
0
100
AcDbLine
62
7
6
CONTINUOUS
10
0.2838813202
20
0.7516251022
11
0.3056967953
21
0.7292796518
0
LINE
5
2FD
100
AcDbEntity
8
DEFAULT_3
100
AcDbLine
62
9
6
PHANTOM
10
-4.7493393464
20
-10.8233488707
11
-4.7780059194
21
-10.7939009328
0
LINE
5
2FE
100
AcDbEntity
8
0
100
AcDbLine
62
9
6
CONTINUOUS
10
15.6943316733
20
-25.6013105156
11
15.7108627352
21
-25.6182949765
0
LINE
5
2FF
100
AcDbEntity
8
0
100
AcDbLine
62
9
6
CONTINUOUS
10
-14.3614178254
20
-10.5821546962
11
-14.3776817962
21
-10.5653037809
0
LINE
5
300
100
AcDbEntity
8
0
100
AcDbLine
62
9
6
CONTINUOUS
10
-14.7521845946
20
-9.8550740445
11
-14.7412318603
21
-9.8664275679
0
LINE
5
301
100
AcDbEntity
8
0
100
AcDbLine
62
7
6
CONTINUOUS
10
6.2401713156
20
-10.1271077086
11
6.2474478884
21
-10.1346925406
0
LINE
5
302
100
AcDbEntity
8
0
100
AcDbLine
62
7
6
CONTINUOUS
10
-0.3470287235
20
-0.8821214969
11
-0.3980978763
21
-0.8288049588
0
LINE
5
303
100
AcDbEntity
8
0
100
AcDbLine
62
7
6
CONTINUOUS
10
-0.4089885115
20
-0.8936116200
11
-0.4306020740
21
-0.8707364809
0
LINE
5
304
100
AcDbEntity
8
0
100
AcDbLine
62
7
6
CONTINUOUS
10
-4.7080844364
20
-11.0474792354
11
-4.6772423268
21
-11.0802533832
0
LINE
5
305
100
AcDbEntity
8
0
100
AcDbLine
62
7
6
CONTINUOUS
10
0.3056967953
20
0.7292796518
11
0.3272354801
21
0.7063670738
0
LINE
5
306
100
AcDbEntity
8
0
100
AcDbLine
62
7
6
CONTINUOUS
10
-5.9343254629
20
-11.5206781286
11
-5.9416147881
21
-11.5128664845
0
LINE
5
307
100
AcDbEntity
8
0
100
AcDbLine
62
7
6
CONTINUOUS
10
-14.5282926241
20
-10.4491375106
11
-14.5072836452
21
-10.4717934431
0
LINE
5
308
100
AcDbEntity
8
DEFAULT_3
100
AcDbLine
62
9
6
PHANTOM
10
-5.8316384058
20
-11.3500736442
11
-5.8344587616
21
-11.3470050771
0
LINE
5
309
100
AcDbEntity
8
0
100
AcDbLine
62
7
6
CONTINUOUS
10
6.2474478884
20
-10.1346925406
11
6.2546289152
21
-10.1425634798
0
LINE
5
30A
100
AcDbEntity
8
0
100
AcDbLine
62
7
6
CONTINUOUS
10
-0.4306020740
20
-0.8707364809
11
-0.4519390194
21
-0.8472972721
0
LINE
5
30B
100
AcDbEntity
8
0
100
AcDbLine
62
9
6
CONTINUOUS
10
16.6886714375
20
-25.2317286566
11
16.6962121691
21
-25.2400350584
0
LINE
5
30C
100
AcDbEntity
8
DEFAULT_3
100
AcDbLine
62
9
6
PHANTOM
10
-4.5470083576
20
-10.7898619171
11
-4.5714323880
21
-10.7629497763
0
LINE
5
30D
100
AcDbEntity
8
0
100
AcDbLine
62
7
6
CONTINUOUS
10
0.3272354801
20
0.7063670738
11
0.3484941961
21
0.6828887504
0
LINE
5
30E
100
AcDbEntity
8
0
100
AcDbLine
62
9
6
CONTINUOUS
10
-0.4277516203
20
-0.7704217362
11
-0.3821773266
21
-0.8208454363
0
LINE
5
30F
100
AcDbEntity
8
0
100
AcDbLine
62
9
6
CONTINUOUS
10
0.3464059549
20
0.6170627934
11
0.3008316161
21
0.6674864709
0
LINE
5
310
100
AcDbEntity
8
0
100
AcDbLine
62
9
6
CONTINUOUS
10
15.6783174690
20
-25.5835824139
11
15.6943316733
21
-25.6013105156
0
LINE
5
311
100
AcDbEntity
8
DEFAULT_3
100
AcDbLine
62
9
6
PHANTOM
10
6.1146139237
20
-10.3894083574
11
6.1173950234
21
-10.3924985687
0
LINE
5
312
100
AcDbEntity
8
0
100
AcDbLine
62
9
6
CONTINUOUS
10
-14.3776817962
20
-10.5653037809
11
-14.3934372735
21
-10.5477050427
0
LINE
5
313
100
AcDbEntity
8
0
100
AcDbLine
62
9
6
CONTINUOUS
10
-14.7624703354
20
-9.8435185962
11
-14.7521845946
21
-9.8550740445
0
LINE
5
314
100
AcDbEntity
8
0
100
AcDbLine
62
7
6
CONTINUOUS
10
-5.9416147881
20
-11.5128664845
11
-5.9487942813
21
-11.5047947085
0
LINE
5
315
100
AcDbEntity
8
0
100
AcDbLine
62
7
6
CONTINUOUS
10
-4.7383089942
20
-11.0133025240
11
-4.7080844364
21
-11.0474792354
0
LINE
5
316
100
AcDbEntity
8
0
100
AcDbLine
62
7
6
CONTINUOUS
10
-0.4519390194
20
-0.8472972721
11
-0.4730025197
21
-0.8232926076
0
LINE
5
317
100
AcDbEntity
8
0
100
AcDbLine
62
7
6
CONTINUOUS
10
-0.3980978763
20
-0.8288049588
11
-0.4474386755
21
-0.7724804056
0
LINE
5
318
100
AcDbEntity
8
0
100
AcDbLine
62
7
6
CONTINUOUS
10
-14.5487426673
20
-10.4257903801
11
-14.5282926241
21
-10.4491375106
0
LINE
5
319
100
AcDbEntity
8
DEFAULT_3
100
AcDbLine
62
9
6
PHANTOM
10
-6.1536106442
20
-4.2778648161
11
-6.1429645060
21
-4.2900453719
0
LINE
5
31A
100
AcDbEntity
8
0
100
AcDbLine
62
7
6
CONTINUOUS
10
0.3484941961
20
0.6828887504
11
0.3694762872
21
0.6588433812
0
LINE
5
31B
100
AcDbEntity
8
0
100
AcDbLine
62
7
6
CONTINUOUS
10
6.2546289152
20
-10.1425634798
11
6.2616918917
21
-10.1506990583
0
LINE
5
31C
100
AcDbEntity
8
DEFAULT_3
100
AcDbLine
62
9
6
PHANTOM
10
-5.9105088264
20
-11.2568923361
11
-5.8998551093
21
-11.2692912329
0
LINE
5
31D
100
AcDbEntity
8
0
100
AcDbLine
62
7
6
CONTINUOUS
10
-5.9487942813
20
-11.5047947085
11
-5.9558426140
21
-11.4964846999
0
LINE
5
31E
100
AcDbEntity
8
DEFAULT_3
100
AcDbLine
62
9
6
PHANTOM
10
-5.8574932885
20
-11.3975321185
11
-5.8404807784
21
-11.4175905795
0
LINE
5
31F
100
AcDbEntity
8
0
100
AcDbLine
62
7
6
CONTINUOUS
10
-0.4730025197
20
-0.8232926076
11
-0.4937489789
21
-0.7987723874
0
LINE
5
320
100
AcDbEntity
8
0
100
AcDbLine
62
9
6
CONTINUOUS
10
16.6813740417
20
-25.2230764605
11
16.6886714375
21
-25.2317286566
0
LINE
5
321
100
AcDbEntity
8
0
100
AcDbLine
62
7
6
CONTINUOUS
10
0.3694762872
20
0.6588433812
11
0.3901385030
21
0.6342810394
0
LINE
5
322
100
AcDbEntity
8
DEFAULT_3
100
AcDbLine
62
9
6
PHANTOM
10
-4.7780059194
20
-10.7939009328
11
-4.8040809982
21
-10.7628695612
0
LINE
5
323
100
AcDbEntity
8
DEFAULT_3
100
AcDbLine
62
9
6
PHANTOM
10
-5.7776608868
20
-11.4658644060
11
-5.7884160709
21
-11.4530471891
0
LINE
5
324
100
AcDbEntity
8
DEFAULT_3
100
AcDbLine
62
9
6
PHANTOM
10
6.3845765124
20
-17.5469835035
11
6.3738211784
21
-17.5341663629
0
LINE
5
325
100
AcDbEntity
8
0
100
AcDbLine
62
9
6
CONTINUOUS
10
15.6628298460
20
-25.5651214930
11
15.6783174690
21
-25.5835824139
0
LINE
5
326
100
AcDbEntity
8
DEFAULT_3
100
AcDbLine
62
9
6
PHANTOM
10
-4.5714323880
20
-10.7629497763
11
-4.5954618311
21
-10.7341190175
0
LINE
5
327
100
AcDbEntity
8
0
100
AcDbLine
62
7
6
CONTINUOUS
10
-4.7677442210
20
-10.9779155788
11
-4.7383089942
21
-11.0133025240
0
LINE
5
328
100
AcDbEntity
8
0
100
AcDbLine
62
9
6
CONTINUOUS
10
-14.3934372735
20
-10.5477050427
11
-14.4086745184
21
-10.5293693108
0
LINE
5
329
100
AcDbEntity
8
0
100
AcDbLine
62
9
6
CONTINUOUS
10
-0.4718097183
20
-0.7173793850
11
-0.4277516203
21
-0.7704217362
0
LINE
5
32A
100
AcDbEntity
8
0
100
AcDbLine
62
9
6
CONTINUOUS
10
0.3904640857
20
0.5640204586
11
0.3464059549
21
0.6170627934
0
LINE
5
32B
100
AcDbEntity
8
0
100
AcDbLine
62
7
6
CONTINUOUS
10
-14.5686129254
20
-10.4017658748
11
-14.5487426673
21
-10.4257903801
0
LINE
5
32C
100
AcDbEntity
8
0
100
AcDbLine
62
7
6
CONTINUOUS
10
6.2616918917
20
-10.1506990583
11
6.2686161634
21
-10.1590770940
0
LINE
5
32D
100
AcDbEntity
8
DEFAULT_3
100
AcDbLine
62
9
6
PHANTOM
10
-5.8344587616
20
-11.3470050771
11
-5.8371536526
21
-11.3437195372
0
LINE
5
32E
100
AcDbEntity
8
0
100
AcDbLine
62
9
6
CONTINUOUS
10
-14.7720795411
20
-9.8317719423
11
-14.7624703354
21
-9.8435185962
0
LINE
5
32F
100
AcDbEntity
8
0
100
AcDbLine
62
7
6
CONTINUOUS
10
-0.4937489789
20
-0.7987723874
11
-0.5141777062
21
-0.7737356792
0
LINE
5
330
100
AcDbEntity
8
0
100
AcDbLine
62
7
6
CONTINUOUS
10
-5.9558426140
20
-11.4964846999
11
-5.9627516061
21
-11.4879458214
0
LINE
5
331
100
AcDbEntity
8
0
100
AcDbLine
62
7
6
CONTINUOUS
10
-0.4474386755
20
-0.7724804056
11
-0.4948525522
21
-0.7134094221
0
LINE
5
332
100
AcDbEntity
8
DEFAULT_3
100
AcDbLine
62
9
6
PHANTOM
10
6.1173950234
20
-10.3924985687
11
6.1200440617
21
-10.3958093896
0
LINE
5
333
100
AcDbEntity
8
0
100
AcDbLine
62
7
6
CONTINUOUS
10
6.2686161634
20
-10.1590770940
11
6.2753936516
21
-10.1676881917
0
LINE
5
334
100
AcDbEntity
8
0
100
AcDbLine
62
9
6
CONTINUOUS
10
16.6743333803
20
-25.2140943616
11
16.6813740417
21
-25.2230764605
0
LINE
5
335
100
AcDbEntity
8
0
100
AcDbLine
62
7
6
CONTINUOUS
10
-4.7964076105
20
-10.9412811498
11
-4.7677442210
21
-10.9779155788
0
LINE
5
336
100
AcDbEntity
8
0
100
AcDbLine
62
7
6
CONTINUOUS
10
-14.5878838003
20
-10.3770776837
11
-14.5686129254
21
-10.4017658748
0
LINE
5
337
100
AcDbEntity
8
0
100
AcDbLine
62
9
6
CONTINUOUS
10
15.6478784413
20
-25.5459391372
11
15.6628298460
21
-25.5651214930
0
LINE
5
338
100
AcDbEntity
8
0
100
AcDbLine
62
7
6
CONTINUOUS
10
-5.9627516061
20
-11.4879458214
11
-5.9695097211
21
-11.4791918868
0
LINE
5
339
100
AcDbEntity
8
0
100
AcDbLine
62
9
6
CONTINUOUS
10
-14.4086745184
20
-10.5293693108
11
-14.4233843534
21
-10.5103077398
0
LINE
5
33A
100
AcDbEntity
8
DEFAULT_3
100
AcDbLine
62
9
6
PHANTOM
10
-4.5954618311
20
-10.7341190175
11
-4.6189004189
21
-10.7035165323
0
LINE
5
33B
100
AcDbEntity
8
0
100
AcDbLine
62
9
6
CONTINUOUS
10
-14.7810032979
20
-9.8198449796
11
-14.7720795411
21
-9.8317719423
0
LINE
5
33C
100
AcDbEntity
8
0
100
AcDbLine
62
7
6
CONTINUOUS
10
-5.9695097211
20
-11.4791918868
11
-5.9760925125
21
-11.4702543994
0
LINE
5
33D
100
AcDbEntity
8
0
100
AcDbLine
62
7
6
CONTINUOUS
10
-4.8242816690
20
-10.9034364869
11
-4.7964076105
21
-10.9412811498
0
LINE
5
33E
100
AcDbEntity
8
0
100
AcDbLine
62
7
6
CONTINUOUS
10
-14.6065536402
20
-10.3517157461
11
-14.5878838003
21
-10.3770776837
0
LINE
5
33F
100
AcDbEntity
8
DEFAULT_3
100
AcDbLine
62
9
6
PHANTOM
10
-5.8371536526
20
-11.3437195372
11
-5.8397279177
21
-11.3402212580
0
LINE
5
340
100
AcDbEntity
8
DEFAULT_3
100
AcDbLine
62
9
6
PHANTOM
10
-4.8040809982
20
-10.7628695612
11
-4.8276356571
21
-10.7304327517
0
LINE
5
341
100
AcDbEntity
8
DEFAULT_3
100
AcDbLine
62
9
6
PHANTOM
10
-5.8731034414
20
-11.3758187780
11
-5.8574932885
21
-11.3975321185
0
LINE
5
342
100
AcDbEntity
8
0
100
AcDbLine
62
9
6
CONTINUOUS
10
-14.4233843534
20
-10.5103077398
11
-14.4375577013
21
-10.4905320427
0
LINE
5
343
100
AcDbEntity
8
DEFAULT_3
100
AcDbLine
62
9
6
PHANTOM
10
-4.6189004189
20
-10.7035165323
11
-4.6415601852
21
-10.6713069718
0
LINE
5
344
100
AcDbEntity
8
0
100
AcDbLine
62
7
6
CONTINUOUS
10
-5.9760925125
20
-11.4702543994
11
-5.9824836894
21
-11.4611589322
0
LINE
5
345
100
AcDbEntity
8
0
100
AcDbLine
62
7
6
CONTINUOUS
10
-14.6245998918
20
-10.3256970973
11
-14.6065536402
21
-10.3517157461
0
LINE
5
346
100
AcDbEntity
8
0
100
AcDbLine
62
7
6
CONTINUOUS
10
-4.8511421361
20
-10.8646856701
11
-4.8242816690
21
-10.9034364869
0
LINE
5
347
100
AcDbEntity
8
0
100
AcDbLine
62
9
6
CONTINUOUS
10
-14.7892333276
20
-9.8077487720
11
-14.7810032979
21
-9.8198449796
0
LINE
5
348
100
AcDbEntity
8
0
100
AcDbLine
62
7
6
CONTINUOUS
10
-5.9824836894
20
-11.4611589322
11
-5.9886840721
21
-11.4519078030
0
LINE
5
349
100
AcDbEntity
8
0
100
AcDbLine
62
9
6
CONTINUOUS
10
-14.4375577013
20
-10.4905320427
11
-14.4511857955
21
-10.4700543823
0
LINE
5
34A
100
AcDbEntity
8
DEFAULT_3
100
AcDbLine
62
9
6
PHANTOM
10
-5.8397279177
20
-11.3402212580
11
-5.8421219938
21
-11.3365906914
0
LINE
5
34B
100
AcDbEntity
8
0
100
AcDbLine
62
7
6
CONTINUOUS
10
-14.6420059461
20
-10.2990323846
11
-14.6245998918
21
-10.3256970973
0
LINE
5
34C
100
AcDbEntity
8
0
100
AcDbLine
62
7
6
CONTINUOUS
10
-5.9886840721
20
-11.4519078030
11
-5.9946954925
21
-11.4424983328
0
LINE
5
34D
100
AcDbEntity
8
0
100
AcDbLine
62
9
6
CONTINUOUS
10
-14.4511857955
20
-10.4700543823
11
-14.4642604221
21
-10.4488872417
0
LINE
5
34E
100
AcDbEntity
8
0
100
AcDbLine
62
9
6
CONTINUOUS
10
-14.7967619957
20
-9.7954945407
11
-14.7892333276
21
-9.8077487720
0
LINE
5
34F
100
AcDbEntity
8
0
100
AcDbLine
62
7
6
CONTINUOUS
10
-14.6587761947
20
-10.2716974641
11
-14.6420059461
21
-10.2990323846
0
LINE
5
350
100
AcDbEntity
8
0
100
AcDbLine
62
7
6
CONTINUOUS
10
-14.6748901659
20
-10.2437041448
11
-14.6587761947
21
-10.2716974641
0
LINE
5
351
100
AcDbEntity
8
0
100
AcDbLine
62
9
6
CONTINUOUS
10
-14.4642604221
20
-10.4488872417
11
-14.4767735151
21
-10.4270436178
0
LINE
5
352
100
AcDbEntity
8
0
100
AcDbLine
62
9
6
CONTINUOUS
10
15.8483808662
20
-25.0995920177
11
15.8248082881
21
-25.0972889434
0
LINE
5
353
100
AcDbEntity
8
0
100
AcDbLine
62
9
6
CONTINUOUS
10
16.8684511302
20
-25.3265542776
11
16.8796717093
21
-25.3276719888
0
LINE
5
354
100
AcDbEntity
8
0
100
AcDbLine
62
7
6
CONTINUOUS
10
16.2189532616
20
-25.8333037042
11
16.2503062015
21
-25.8365536588
0
LINE
5
355
100
AcDbEntity
8
0
100
AcDbLine
62
9
6
CONTINUOUS
10
15.8248082881
20
-25.0972889434
11
15.8014309101
21
-25.0945909804
0
LINE
5
356
100
AcDbEntity
8
DEFAULT_3
100
AcDbLine
62
9
6
PHANTOM
10
6.3576129801
20
-17.4460846851
11
6.3547287551
21
-17.4457241835
0
LINE
5
357
100
AcDbEntity
8
0
100
AcDbLine
62
7
6
CONTINUOUS
10
16.1878188118
20
-25.8291781010
11
16.2189532616
21
-25.8333037042
0
LINE
5
358
100
AcDbEntity
8
0
100
AcDbLine
62
9
6
CONTINUOUS
10
15.8014309101
20
-25.0945909804
11
15.7782704182
21
-25.0915006315
0
LINE
5
359
100
AcDbEntity
8
0
100
AcDbLine
62
9
6
CONTINUOUS
10
16.8573686340
20
-25.3250370158
11
16.8684511302
21
-25.3265542776
0
LINE
5
35A
100
AcDbEntity
8
DEFAULT_3
100
AcDbLine
62
9
6
PHANTOM
10
6.4911141527
20
-17.4487454272
11
6.4662401536
21
-17.4452672953
0
LINE
5
35B
100
AcDbEntity
8
0
100
AcDbLine
62
9
6
CONTINUOUS
10
15.7782704182
20
-25.0915006315
11
15.7553482972
21
-25.0880207635
0
LINE
5
35C
100
AcDbEntity
8
0
100
AcDbLine
62
7
6
CONTINUOUS
10
6.4805945925
20
-17.7415941040
11
6.4730920029
21
-17.7404048510
0
LINE
5
35D
100
AcDbEntity
8
0
100
AcDbLine
62
7
6
CONTINUOUS
10
16.1569275410
20
-25.8241857041
11
16.1878188118
21
-25.8291781010
0
LINE
5
35E
100
AcDbEntity
8
DEFAULT_3
100
AcDbLine
62
9
6
PHANTOM
10
6.5603493370
20
-16.4736714598
11
6.5212125330
21
-16.4672169291
0
LINE
5
35F
100
AcDbEntity
8
0
100
AcDbLine
62
9
6
CONTINUOUS
10
15.7553482972
20
-25.0880207635
11
15.7326858108
21
-25.0841546044
0
LINE
5
360
100
AcDbEntity
8
DEFAULT_3
100
AcDbLine
62
9
6
PHANTOM
10
-5.0366822957
20
-9.7367222758
11
-5.0519691083
21
-9.7340906822
0
LINE
5
361
100
AcDbEntity
8
0
100
AcDbLine
62
9
6
CONTINUOUS
10
16.8464239641
20
-25.3231209367
11
16.8573686340
21
-25.3250370158
0
LINE
5
362
100
AcDbEntity
8
0
100
AcDbLine
62
9
6
CONTINUOUS
10
15.7326858108
20
-25.0841546044
11
15.7103039817
21
-25.0799057407
0
LINE
5
363
100
AcDbEntity
8
0
100
AcDbLine
62
7
6
CONTINUOUS
10
16.1263022309
20
-25.8183360549
11
16.1569275410
21
-25.8241857041
0
LINE
5
364
100
AcDbEntity
8
0
100
AcDbLine
62
7
6
CONTINUOUS
10
-6.1640940431
20
-3.9124654074
11
-6.1564376708
21
-3.9140036784
0
LINE
5
365
100
AcDbEntity
8
DEFAULT_3
100
AcDbLine
62
9
6
PHANTOM
10
6.4684435237
20
-17.5874642886
11
6.4938865009
21
-17.5926173011
0
LINE
5
366
100
AcDbEntity
8
DEFAULT_3
100
AcDbLine
62
9
6
PHANTOM
10
6.4662401536
20
-17.4452672953
11
6.4423450748
21
-17.4403916153
0
LINE
5
367
100
AcDbEntity
8
0
100
AcDbLine
62
7
6
CONTINUOUS
10
6.4730920029
20
-17.7404048510
11
6.4654918218
21
-17.7388335955
0
LINE
5
368
100
AcDbEntity
8
0
100
AcDbLine
62
9
6
CONTINUOUS
10
15.7103039817
20
-25.0799057407
11
15.6882235725
21
-25.0752781137
0
LINE
5
369
100
AcDbEntity
8
DEFAULT_3
100
AcDbLine
62
9
6
PHANTOM
10
-5.0218086046
20
-9.7398892300
11
-5.0366822957
21
-9.7367222758
0
LINE
5
36A
100
AcDbEntity
8
DEFAULT_3
100
AcDbLine
62
9
6
PHANTOM
10
-5.2085018438
20
-4.8040947067
11
-5.1936281527
21
-4.8072616610
0
LINE
5
36B
100
AcDbEntity
8
DEFAULT_3
100
AcDbLine
62
9
6
PHANTOM
10
6.2231392310
20
-10.4662392817
11
6.1992362352
21
-10.4611454471
0
LINE
5
36C
100
AcDbEntity
8
0
100
AcDbLine
62
9
6
CONTINUOUS
10
16.8356372239
20
-25.3208095634
11
16.8464239641
21
-25.3231209367
0
LINE
5
36D
100
AcDbEntity
8
0
100
AcDbLine
62
7
6
CONTINUOUS
10
16.0959313517
20
-25.8116314360
11
16.1263022309
21
-25.8183360549
0
LINE
5
36E
100
AcDbEntity
8
0
100
AcDbLine
62
9
6
CONTINUOUS
10
15.6882235725
20
-25.0752781137
11
15.6664650659
21
-25.0702760165
0
LINE
5
36F
100
AcDbEntity
8
0
100
AcDbLine
62
7
6
CONTINUOUS
10
0.1485358504
20
-1.2365102617
11
0.1253682692
21
-1.2311033731
0
LINE
5
370
100
AcDbEntity
8
DEFAULT_3
100
AcDbLine
62
9
6
PHANTOM
10
-6.0716948057
20
-4.2937256016
11
-6.0687405995
21
-4.2944159352
0
LINE
5
371
100
AcDbEntity
8
0
100
AcDbLine
62
9
6
CONTINUOUS
10
0.1066472550
20
-1.1400162961
11
0.1558726643
21
-1.1517167926
0
LINE
5
372
100
AcDbEntity
8
0
100
AcDbLine
62
9
6
CONTINUOUS
10
-0.1879927956
20
0.9866574157
11
-0.2372182784
21
0.9983578755
0
LINE
5
373
100
AcDbEntity
8
DEFAULT_3
100
AcDbLine
62
9
6
PHANTOM
10
6.3547287551
20
-17.4457241835
11
6.3517927398
21
-17.4450238202
0
LINE
5
374
100
AcDbEntity
8
0
100
AcDbLine
62
7
6
CONTINUOUS
10
0.2021758934
20
-1.2034379942
11
0.1484044134
21
-1.1905526043
0
LINE
5
375
100
AcDbEntity
8
0
100
AcDbLine
62
7
6
CONTINUOUS
10
-6.1564376708
20
-3.9140036784
11
-6.1486993057
21
-3.9159283549
0
LINE
5
376
100
AcDbEntity
8
0
100
AcDbLine
62
7
6
CONTINUOUS
10
6.4654918218
20
-17.7388335955
11
6.4578013179
21
-17.7368809023
0
LINE
5
377
100
AcDbEntity
8
DEFAULT_3
100
AcDbLine
62
9
6
PHANTOM
10
6.5212125330
20
-16.4672169291
11
6.4822769567
21
-16.4572736290
0
LINE
5
378
100
AcDbEntity
8
DEFAULT_3
100
AcDbLine
62
9
6
PHANTOM
10
-5.0073428098
20
-9.7435847739
11
-5.0218086046
21
-9.7398892300
0
LINE
5
379
100
AcDbEntity
8
DEFAULT_3
100
AcDbLine
62
9
6
PHANTOM
10
-5.1936281527
20
-4.8072616610
11
-5.1791623579
21
-4.8109572048
0
LINE
5
37A
100
AcDbEntity
8
0
100
AcDbLine
62
7
6
CONTINUOUS
10
-0.2282053498
20
1.0669987227
11
-0.2048870332
21
1.0607855082
0
LINE
5
37B
100
AcDbEntity
8
0
100
AcDbLine
62
7
6
CONTINUOUS
10
0.1253682692
20
-1.2311033731
11
0.1020862308
21
-1.2248720195
0
LINE
5
37C
100
AcDbEntity
8
DEFAULT_3
100
AcDbLine
62
9
6
PHANTOM
10
6.4423450748
20
-17.4403916153
11
6.4196907004
21
-17.4341718161
0
LINE
5
37D
100
AcDbEntity
8
DEFAULT_3
100
AcDbLine
62
9
6
PHANTOM
10
6.1992362352
20
-10.4611454471
11
6.1765760094
21
-10.4547680479
0
LINE
5
37E
100
AcDbEntity
8
0
100
AcDbLine
62
7
6
CONTINUOUS
10
-6.1486993057
20
-3.9159283549
11
-6.1408931016
21
-3.9182368821
0
LINE
5
37F
100
AcDbEntity
8
0
100
AcDbLine
62
7
6
CONTINUOUS
10
-0.2048870332
20
1.0607855082
11
-0.1814505981
21
1.0537447895
0
LINE
5
380
100
AcDbEntity
8
DEFAULT_3
100
AcDbLine
62
9
6
PHANTOM
10
-4.9934694276
20
-9.7477617694
11
-5.0073428098
21
-9.7435847739
0
LINE
5
381
100
AcDbEntity
8
DEFAULT_3
100
AcDbLine
62
9
6
PHANTOM
10
-5.1791623579
20
-4.8109572048
11
-5.1652889757
21
-4.8151342003
0
LINE
5
382
100
AcDbEntity
8
0
100
AcDbLine
62
7
6
CONTINUOUS
10
0.1020862308
20
-1.2248720195
11
0.0786811022
21
-1.2178156475
0
LINE
5
383
100
AcDbEntity
8
0
100
AcDbLine
62
7
6
CONTINUOUS
10
0.1484044134
20
-1.1905526043
11
0.0941884168
21
-1.1735017191
0
LINE
5
384
100
AcDbEntity
8
0
100
AcDbLine
62
9
6
CONTINUOUS
10
0.0574129814
20
-1.1245135331
11
0.1066472550
21
-1.1400162961
0
LINE
5
385
100
AcDbEntity
8
0
100
AcDbLine
62
9
6
CONTINUOUS
10
-0.1387585138
20
0.9711546567
11
-0.1879927956
21
0.9866574157
0
LINE
5
386
100
AcDbEntity
8
0
100
AcDbLine
62
7
6
CONTINUOUS
10
-0.1814505981
20
1.0537447895
11
-0.1579323129
21
1.0458873237
0
LINE
5
387
100
AcDbEntity
8
0
100
AcDbLine
62
7
6
CONTINUOUS
10
0.0786811022
20
-1.2178156475
11
0.0551890350
21
-1.2099450727
0
LINE
5
388
100
AcDbEntity
8
0
100
AcDbLine
62
7
6
CONTINUOUS
10
-6.1408931016
20
-3.9182368821
11
-6.1330467106
21
-3.9209206491
0
LINE
5
389
100
AcDbEntity
8
DEFAULT_3
100
AcDbLine
62
9
6
PHANTOM
10
-6.0687405995
20
-4.2944159352
11
-6.0657180759
21
-4.2954517233
0
LINE
5
38A
100
AcDbEntity
8
DEFAULT_3
100
AcDbLine
62
9
6
PHANTOM
10
-5.1652889757
20
-4.8151342003
11
-5.1520695115
21
-4.8197769348
0
LINE
5
38B
100
AcDbEntity
8
0
100
AcDbLine
62
7
6
CONTINUOUS
10
-0.1579323129
20
1.0458873237
11
-0.1343219911
21
1.0372077304
0
LINE
5
38C
100
AcDbEntity
8
0
100
AcDbLine
62
7
6
CONTINUOUS
10
0.0551890350
20
-1.2099450727
11
0.0315997844
21
-1.2012549438
0
LINE
5
38D
100
AcDbEntity
8
0
100
AcDbLine
62
9
6
CONTINUOUS
10
15.5830488685
20
10.2429714708
11
15.5631960175
21
10.2502966790
0
LINE
5
38E
100
AcDbEntity
8
0
100
AcDbLine
62
7
6
CONTINUOUS
10
0.0941884168
20
-1.1735017191
11
0.0396129937
21
-1.1522875502
0
LINE
5
38F
100
AcDbEntity
8
0
100
AcDbLine
62
9
6
CONTINUOUS
10
0.0082447771
20
-1.1053420954
11
0.0574129814
21
-1.1245135331
0
LINE
5
390
100
AcDbEntity
8
0
100
AcDbLine
62
9
6
CONTINUOUS
10
-0.0895903399
20
0.9519832039
11
-0.1387585138
21
0.9711546567
0
LINE
5
391
100
AcDbEntity
8
0
100
AcDbLine
62
9
6
CONTINUOUS
10
15.5631960175
20
10.2502966790
11
15.5437810507
21
10.2578774071
0
LINE
5
392
100
AcDbEntity
8
0
100
AcDbLine
62
7
6
CONTINUOUS
10
-0.1343219911
20
1.0372077304
11
-0.1106298702
21
1.0277113647
0
LINE
5
393
100
AcDbEntity
8
0
100
AcDbLine
62
7
6
CONTINUOUS
10
0.0315997844
20
-1.2012549438
11
0.0079235441
21
-1.1917506378
0
LINE
5
394
100
AcDbEntity
8
0
100
AcDbLine
62
9
6
CONTINUOUS
10
15.5437810507
20
10.2578774071
11
15.5248219785
21
10.2657066228
0
LINE
5
395
100
AcDbEntity
8
0
100
AcDbLine
62
9
6
CONTINUOUS
10
-13.6017183122
20
27.0752939512
11
-13.5840309877
21
27.0677312579
0
LINE
5
396
100
AcDbEntity
8
0
100
AcDbLine
62
7
6
CONTINUOUS
10
-0.1106298702
20
1.0277113647
11
-0.0869228469
21
1.0174250910
0
LINE
5
397
100
AcDbEntity
8
0
100
AcDbLine
62
7
6
CONTINUOUS
10
0.0079235441
20
-1.1917506378
11
-0.0157728677
21
-1.1814590584
0
LINE
5
398
100
AcDbEntity
8
0
100
AcDbLine
62
9
6
CONTINUOUS
10
15.5248219785
20
10.2657066228
11
15.5063363882
21
10.2737770634
0
LINE
5
399
100
AcDbEntity
8
0
100
AcDbLine
62
7
6
CONTINUOUS
10
-10.5512863743
20
28.7191526224
11
-10.5348812622
21
28.7118256339
0
LINE
5
39A
100
AcDbEntity
8
0
100
AcDbLine
62
9
6
CONTINUOUS
10
15.5063363882
20
10.2737770634
11
15.4883414279
21
10.2820812424
0
LINE
5
39B
100
AcDbEntity
8
0
100
AcDbLine
62
9
6
CONTINUOUS
10
-0.0406728158
20
0.9293096425
11
-0.0895903399
21
0.9519832039
0
LINE
5
39C
100
AcDbEntity
8
0
100
AcDbLine
62
9
6
CONTINUOUS
10
-13.5840309877
20
27.0677312579
11
-13.5663175062
21
27.0595086214
0
LINE
5
39D
100
AcDbEntity
8
0
100
AcDbLine
62
7
6
CONTINUOUS
10
-10.5348812622
20
28.7118256339
11
-10.5184528244
21
28.7039015404
0
LINE
5
39E
100
AcDbEntity
8
0
100
AcDbLine
62
9
6
CONTINUOUS
10
15.4883414279
20
10.2820812424
11
15.4708537907
21
10.2906114563
0
LINE
5
39F
100
AcDbEntity
8
0
100
AcDbLine
62
9
6
CONTINUOUS
10
-14.5975483301
20
25.3248125166
11
15.4708537906
21
10.2906114563
0
LINE
5
3A0
100
AcDbEntity
8
0
100
AcDbLine
62
9
6
CONTINUOUS
10
-13.5663175062
20
27.0595086214
11
16.5190227752
21
12.0168384807
0
LINE
5
3A1
100
AcDbEntity
8
0
100
AcDbLine
62
7
6
CONTINUOUS
10
19.6751790455
20
13.6070856055
11
-10.5184528244
21
28.7039015404
0
LINE
5
3A2
100
AcDbEntity
8
0
100
AcDbLine
62
9
6
CONTINUOUS
10
-14.6145151707
20
25.3335095647
11
-14.5975483049
21
25.3248125271
0
LINE
5
3A3
100
AcDbEntity
8
0
100
AcDbLine
62
7
6
CONTINUOUS
10
19.6751790455
20
13.6070856055
11
19.6916074833
21
13.5985812611
0
LINE
5
3A4
100
AcDbEntity
8
0
100
AcDbLine
62
9
6
CONTINUOUS
10
16.5361378680
20
12.0076468300
11
16.5190227752
21
12.0168384807
0
LINE
5
3A5
100
AcDbEntity
8
0
100
AcDbLine
62
9
6
CONTINUOUS
10
-14.6309427518
20
25.3424166563
11
-14.6145151707
21
25.3335095647
0
LINE
5
3A6
100
AcDbEntity
8
0
100
AcDbLine
62
7
6
CONTINUOUS
10
19.6916074833
20
13.5985812611
11
19.7080125955
21
13.5895031375
0
LINE
5
3A7
100
AcDbEntity
8
0
100
AcDbLine
62
9
6
CONTINUOUS
10
-14.6468158092
20
25.3515255395
11
-14.6309427518
21
25.3424166563
0
LINE
5
3A8
100
AcDbEntity
8
0
100
AcDbLine
62
9
6
CONTINUOUS
10
16.5532460936
20
11.9978117482
11
16.5361378680
21
12.0076468300
0
LINE
5
3A9
100
AcDbEntity
8
0
100
AcDbLine
62
7
6
CONTINUOUS
10
19.7080125955
20
13.5895031375
11
19.7243943820
21
13.5798512346
0
LINE
5
3AA
100
AcDbEntity
8
0
100
AcDbLine
62
9
6
CONTINUOUS
10
-14.6621196184
20
25.3608277644
11
-14.6468158092
21
25.3515255395
0
LINE
5
3AB
100
AcDbEntity
8
0
100
AcDbLine
62
9
6
CONTINUOUS
10
16.5703312299
20
11.9873425608
11
16.5532460936
21
11.9978117482
0
LINE
5
3AC
100
AcDbEntity
8
0
100
AcDbLine
62
7
6
CONTINUOUS
10
19.7243943820
20
13.5798512346
11
19.7407744558
21
13.5696119988
0
LINE
5
3AD
100
AcDbEntity
8
0
100
AcDbLine
62
9
6
CONTINUOUS
10
-14.6768399827
20
25.3703147017
11
-14.6621196184
21
25.3608277644
0
LINE
5
3AE
100
AcDbEntity
8
0
100
AcDbLine
62
9
6
CONTINUOUS
10
16.5873770771
20
11.9762491945
11
16.5703312299
21
11.9873425608
0
LINE
5
3AF
100
AcDbEntity
8
0
100
AcDbLine
62
7
6
CONTINUOUS
10
19.7407744558
20
13.5696119988
11
19.7571312040
21
13.5587989837
0
LINE
5
3B0
100
AcDbEntity
8
0
100
AcDbLine
62
9
6
CONTINUOUS
10
-14.6909632468
20
25.3799775510
11
-14.6768399827
21
25.3703147017
0
LINE
5
3B1
100
AcDbEntity
8
0
100
AcDbLine
62
9
6
CONTINUOUS
10
16.6043674723
20
11.9645421681
11
16.5873770771
21
11.9762491945
0
LINE
5
3B2
100
AcDbEntity
8
0
100
AcDbLine
62
7
6
CONTINUOUS
10
19.7571312040
20
13.5587989837
11
19.7733997878
21
13.5474528501
0
LINE
5
3B3
100
AcDbEntity
8
0
100
AcDbLine
62
9
6
CONTINUOUS
10
-14.7044763094
20
25.3898073484
11
-14.6909632468
21
25.3799775510
0
LINE
5
3B4
100
AcDbEntity
8
0
100
AcDbLine
62
9
6
CONTINUOUS
10
16.6212863053
20
11.9522325820
11
16.6043674723
21
11.9645421681
0
LINE
5
3B5
100
AcDbEntity
8
0
100
AcDbLine
62
7
6
CONTINUOUS
10
19.7733997878
20
13.5474528501
11
19.7895761287
21
13.5355723895
0
LINE
5
3B6
100
AcDbEntity
8
0
100
AcDbLine
62
9
6
CONTINUOUS
10
16.6381175339
20
11.9393321082
11
16.6212863053
21
11.9522325820
0
LINE
5
3B7
100
AcDbEntity
8
0
100
AcDbLine
62
7
6
CONTINUOUS
10
19.7895761287
20
13.5355723895
11
19.8056643052
21
13.5231588105
0
LINE
5
3B8
100
AcDbEntity
8
0
100
AcDbLine
62
9
6
CONTINUOUS
10
-14.7173666350
20
25.3997949755
11
-14.7044763094
21
25.3898073484
0
LINE
5
3B9
100
AcDbEntity
8
0
100
AcDbLine
62
9
6
CONTINUOUS
10
16.6548451989
20
11.9258529787
11
16.6381175339
21
11.9393321082
0
LINE
5
3BA
100
AcDbEntity
8
0
100
AcDbLine
62
7
6
CONTINUOUS
10
19.8056643052
20
13.5231588105
11
19.8216117133
21
13.5102563992
0
LINE
5
3BB
100
AcDbEntity
8
0
100
AcDbLine
62
9
6
CONTINUOUS
10
-14.7296222660
20
25.4099311671
11
-14.7173666350
21
25.3997949755
0
LINE
5
3BC
100
AcDbEntity
8
0
100
AcDbLine
62
9
6
CONTINUOUS
10
16.6714534390
20
11.9118079744
11
16.6548451989
21
11.9258529787
0
LINE
5
3BD
100
AcDbEntity
8
0
100
AcDbLine
62
7
6
CONTINUOUS
10
19.8216117133
20
13.5102563992
11
19.8374030550
21
13.4968778903
0
LINE
5
3BE
100
AcDbEntity
8
0
100
AcDbLine
62
9
6
CONTINUOUS
10
-14.7412318334
20
25.4202065206
11
-14.7296222660
21
25.4099311671
0
LINE
5
3BF
100
AcDbEntity
8
0
100
AcDbLine
62
9
6
CONTINUOUS
10
16.6879265067
20
11.8972104126
11
16.6714534390
21
11.9118079744
0
LINE
5
3C0
100
AcDbEntity
8
0
100
AcDbLine
62
7
6
CONTINUOUS
10
19.8374030550
20
13.4968778903
11
19.8530536283
21
13.4830105491
0
LINE
5
3C1
100
AcDbEntity
8
0
100
AcDbLine
62
7
6
CONTINUOUS
10
19.8530536283
20
13.4830105491
11
19.8685567229
21
13.4686604578
0
LINE
5
3C2
100
AcDbEntity
8
0
100
AcDbLine
62
9
6
CONTINUOUS
10
16.7042487821
20
11.8820741346
11
16.6879265067
21
11.8972104126
0
LINE
5
3C3
100
AcDbEntity
8
0
100
AcDbLine
62
9
6
CONTINUOUS
10
-14.7521845677
20
25.4306115039
11
-14.7412318334
21
25.4202065206
0
LINE
5
3C4
100
AcDbEntity
8
0
100
AcDbLine
62
7
6
CONTINUOUS
10
19.8685567229
20
13.4686604578
11
19.8839261453
21
13.4538149157
0
LINE
5
3C5
100
AcDbEntity
8
0
100
AcDbLine
62
9
6
CONTINUOUS
10
16.7204047886
20
11.8664134927
11
16.7042487821
21
11.8820741346
0
LINE
5
3C6
100
AcDbEntity
8
0
100
AcDbLine
62
7
6
CONTINUOUS
10
19.8839261453
20
13.4538149157
11
19.8991480889
21
13.4384866234
0
LINE
5
3C7
100
AcDbEntity
8
0
100
AcDbLine
62
9
6
CONTINUOUS
10
16.7363792073
20
11.8502433359
11
16.7204047886
21
11.8664134927
0
LINE
5
3C8
100
AcDbEntity
8
0
100
AcDbLine
62
9
6
CONTINUOUS
10
-14.7624703086
20
25.4411364649
11
-14.7521845677
21
25.4306115039
0
LINE
5
3C9
100
AcDbEntity
8
0
100
AcDbLine
62
7
6
CONTINUOUS
10
19.8991480889
20
13.4384866234
11
19.9141744243
21
13.4227197650
0
LINE
5
3CA
100
AcDbEntity
8
0
100
AcDbLine
62
9
6
CONTINUOUS
10
16.7521568913
20
11.8335789969
11
16.7363792073
21
11.8502433359
0
LINE
5
3CB
100
AcDbEntity
8
0
100
AcDbLine
62
7
6
CONTINUOUS
10
19.9141744243
20
13.4227197650
11
19.9290076205
21
13.4065076819
0
LINE
5
3CC
100
AcDbEntity
8
0
100
AcDbLine
62
9
6
CONTINUOUS
10
16.7677228802
20
11.8164362766
11
16.7521568913
21
11.8335789969
0
LINE
5
3CD
100
AcDbEntity
8
0
100
AcDbLine
62
9
6
CONTINUOUS
10
-14.7720795144
20
25.4517716402
11
-14.7624703086
21
25.4411364649
0
LINE
5
3CE
100
AcDbEntity
8
0
100
AcDbLine
62
7
6
CONTINUOUS
10
19.9290076205
20
13.4065076819
11
19.9436452084
21
13.3898570326
0
LINE
5
3CF
100
AcDbEntity
8
0
100
AcDbLine
62
9
6
CONTINUOUS
10
16.7830624146
20
11.7988314295
11
16.7677228802
21
11.8164362766
0
LINE
5
3D0
100
AcDbEntity
8
0
100
AcDbLine
62
7
6
CONTINUOUS
10
19.9436452084
20
13.3898570326
11
19.9580316515
21
13.3728319767
0
LINE
5
3D1
100
AcDbEntity
8
0
100
AcDbLine
62
9
6
CONTINUOUS
10
16.7981609497
20
11.7807811486
11
16.7830624146
21
11.7988314295
0
LINE
5
3D2
100
AcDbEntity
8
0
100
AcDbLine
62
9
6
CONTINUOUS
10
-14.7810032713
20
25.4625071640
11
-14.7720795144
21
25.4517716402
0
LINE
5
3D3
100
AcDbEntity
8
0
100
AcDbLine
62
7
6
CONTINUOUS
10
0.3901385030
20
0.6342810394
11
0.4104803269
21
0.6092008795
0
LINE
5
3D4
100
AcDbEntity
8
0
100
AcDbLine
62
9
6
CONTINUOUS
10
16.8130041690
20
11.7623025489
11
16.7981609497
21
11.7807811486
0
LINE
5
3D5
100
AcDbEntity
8
0
100
AcDbLine
62
7
6
CONTINUOUS
10
-0.5141777062
20
-0.7737356792
11
-0.5342892072
21
-0.7481833221
0
LINE
5
3D6
100
AcDbEntity
8
0
100
AcDbLine
62
7
6
CONTINUOUS
10
0.4104803269
20
0.6092008795
11
0.4305024607
21
0.5836038388
0
LINE
5
3D7
100
AcDbEntity
8
0
100
AcDbLine
62
9
6
CONTINUOUS
10
16.8275779984
20
11.7434131517
11
16.8130041690
21
11.7623025489
0
LINE
5
3D8
100
AcDbEntity
8
0
100
AcDbLine
62
9
6
CONTINUOUS
10
-0.5141327144
20
-0.6620004016
11
-0.4718097183
21
-0.7173793850
0
LINE
5
3D9
100
AcDbEntity
8
0
100
AcDbLine
62
9
6
CONTINUOUS
10
0.4327870824
20
0.5086414755
11
0.3904640857
21
0.5640204586
0
LINE
5
3DA
100
AcDbEntity
8
0
100
AcDbLine
62
9
6
CONTINUOUS
10
-14.7892333012
20
25.4733330775
11
-14.7810032713
21
25.4625071640
0
LINE
5
3DB
100
AcDbEntity
8
0
100
AcDbLine
62
7
6
CONTINUOUS
10
-0.5342892072
20
-0.7481833221
11
-0.5540416812
21
-0.7221678745
0
LINE
5
3DC
100
AcDbEntity
8
0
100
AcDbLine
62
7
6
CONTINUOUS
10
0.4305024607
20
0.5836038388
11
0.4501634801
21
0.5575426639
0
LINE
5
3DD
100
AcDbEntity
8
0
100
AcDbLine
62
7
6
CONTINUOUS
10
6.2753936516
20
-10.1676881917
11
6.2820128543
21
-10.1765185079
0
LINE
5
3DE
100
AcDbEntity
8
0
100
AcDbLine
62
7
6
CONTINUOUS
10
-0.4948525522
20
-0.7134094221
11
-0.5401586850
21
-0.6518568147
0
LINE
5
3DF
100
AcDbEntity
8
0
100
AcDbLine
62
7
6
CONTINUOUS
10
-0.5540416812
20
-0.7221678745
11
-0.5734365226
21
-0.6956849059
0
LINE
5
3E0
100
AcDbEntity
8
0
100
AcDbLine
62
9
6
CONTINUOUS
10
16.6675499242
20
-25.2047817527
11
16.6743333803
21
-25.2140943616
0
LINE
5
3E1
100
AcDbEntity
8
0
100
AcDbLine
62
7
6
CONTINUOUS
10
0.4501634801
20
0.5575426639
11
0.4694649560
21
0.5310130125
0
LINE
5
3E2
100
AcDbEntity
8
0
100
AcDbLine
62
9
6
CONTINUOUS
10
15.6334723484
20
-25.5260470675
11
15.6478784413
21
-25.5459391372
0
LINE
5
3E3
100
AcDbEntity
8
DEFAULT_3
100
AcDbLine
62
9
6
PHANTOM
10
6.1200440617
20
-10.3958093896
11
6.1225660463
21
-10.3993364940
0
LINE
5
3E4
100
AcDbEntity
8
0
100
AcDbLine
62
7
6
CONTINUOUS
10
6.2820128543
20
-10.1765185079
11
6.2884500709
21
-10.1855361759
0
LINE
5
3E5
100
AcDbEntity
8
0
100
AcDbLine
62
7
6
CONTINUOUS
10
-0.5734365226
20
-0.6956849059
11
-0.5924721362
21
-0.6687387457
0
LINE
5
3E6
100
AcDbEntity
8
0
100
AcDbLine
62
9
6
CONTINUOUS
10
-0.5546211904
20
-0.6044342565
11
-0.5141327144
21
-0.6620004016
0
LINE
5
3E7
100
AcDbEntity
8
0
100
AcDbLine
62
9
6
CONTINUOUS
10
0.4732755467
20
0.4510753246
11
0.4327870824
21
0.5086414755
0
LINE
5
3E8
100
AcDbEntity
8
0
100
AcDbLine
62
7
6
CONTINUOUS
10
0.4694649560
20
0.5310130125
11
0.4884055181
21
0.5040193266
0
LINE
5
3E9
100
AcDbEntity
8
0
100
AcDbLine
62
9
6
CONTINUOUS
10
-14.7967619694
20
25.4842393381
11
-14.7892333012
21
25.4733330775
0
LINE
5
3EA
100
AcDbEntity
8
0
100
AcDbLine
62
7
6
CONTINUOUS
10
-0.5924721362
20
-0.6687387457
11
-0.6111022426
21
-0.6413950949
0
LINE
5
3EB
100
AcDbEntity
8
0
100
AcDbLine
62
7
6
CONTINUOUS
10
6.2884500709
20
-10.1855361759
11
6.2946894664
21
-10.1947154021
0
LINE
5
3EC
100
AcDbEntity
8
0
100
AcDbLine
62
9
6
CONTINUOUS
10
16.6610232026
20
-25.1951392410
11
16.6675499242
21
-25.2047817527
0
LINE
5
3ED
100
AcDbEntity
8
0
100
AcDbLine
62
7
6
CONTINUOUS
10
0.4884055181
20
0.5040193266
11
0.5069393247
21
0.4766275259
0
LINE
5
3EE
100
AcDbEntity
8
0
100
AcDbLine
62
7
6
CONTINUOUS
10
-0.5401586850
20
-0.6518568147
11
-0.5832235082
21
-0.5880405162
0
LINE
5
3EF
100
AcDbEntity
8
0
100
AcDbLine
62
9
6
CONTINUOUS
10
15.6196203175
20
-25.5054574388
11
15.6334723484
21
-25.5260470675
0
LINE
5
3F0
100
AcDbEntity
8
0
100
AcDbLine
62
7
6
CONTINUOUS
10
-0.6111022426
20
-0.6413950949
11
-0.6293217103
21
-0.6136595519
0
LINE
5
3F1
100
AcDbEntity
8
0
100
AcDbLine
62
7
6
CONTINUOUS
10
0.5069393247
20
0.4766275259
11
0.5250614652
21
0.4488433193
0
LINE
5
3F2
100
AcDbEntity
8
0
100
AcDbLine
62
7
6
CONTINUOUS
10
-4.8769600791
20
-10.8250551764
11
-4.8511421361
21
-10.8646856701
0
LINE
5
3F3
100
AcDbEntity
8
0
100
AcDbLine
62
7
6
CONTINUOUS
10
6.2946894664
20
-10.1947154021
11
6.3007318643
21
-10.2040538575
0
LINE
5
3F4
100
AcDbEntity
8
0
100
AcDbLine
62
9
6
CONTINUOUS
10
-0.5931900346
20
-0.5448004524
11
-0.5546211904
21
-0.6044342565
0
LINE
5
3F5
100
AcDbEntity
8
0
100
AcDbLine
62
9
6
CONTINUOUS
10
0.5118443832
20
0.3914415166
11
0.4732755467
21
0.4510753246
0
LINE
5
3F6
100
AcDbEntity
8
DEFAULT_3
100
AcDbLine
62
9
6
PHANTOM
10
-4.6415601852
20
-10.6713069718
11
-4.6632004520
21
-10.6377714591
0
LINE
5
3F7
100
AcDbEntity
8
DEFAULT_3
100
AcDbLine
62
9
6
PHANTOM
10
6.1225660463
20
-10.3993364940
11
6.1249026233
21
-10.4029987630
0
LINE
5
3F8
100
AcDbEntity
8
DEFAULT_3
100
AcDbLine
62
9
6
PHANTOM
10
-6.1617004416
20
-4.2651326228
11
-6.1536106442
21
-4.2778648161
0
LINE
5
3F9
100
AcDbEntity
8
0
100
AcDbLine
62
7
6
CONTINUOUS
10
-0.6293217103
20
-0.6136595519
11
-0.6471354629
21
-0.5855264138
0
LINE
5
3FA
100
AcDbEntity
8
0
100
AcDbLine
62
7
6
CONTINUOUS
10
0.5250614652
20
0.4488433193
11
0.5427770580
21
0.4206611012
0
LINE
5
3FB
100
AcDbEntity
8
0
100
AcDbLine
62
9
6
CONTINUOUS
10
16.6547652013
20
-25.1851845395
11
16.6610232026
21
-25.1951392410
0
LINE
5
3FC
100
AcDbEntity
8
DEFAULT_3
100
AcDbLine
62
9
6
PHANTOM
10
-4.8276356571
20
-10.7304327517
11
-4.8489751112
21
-10.6962857675
0
LINE
5
3FD
100
AcDbEntity
8
0
100
AcDbLine
62
9
6
CONTINUOUS
10
15.6063309741
20
-25.4841829398
11
15.6196203175
21
-25.5054574388
0
LINE
5
3FE
100
AcDbEntity
8
DEFAULT_3
100
AcDbLine
62
9
6
PHANTOM
10
-5.9186081507
20
-11.2438836191
11
-5.9105088264
21
-11.2568923361
0
LINE
5
3FF
100
AcDbEntity
8
0
100
AcDbLine
62
9
6
CONTINUOUS
10
-14.8035822920
20
25.4952158287
11
-14.7967619694
21
25.4842393381
0
LINE
5
400
100
AcDbEntity
8
0
100
AcDbLine
62
7
6
CONTINUOUS
10
-0.5832235082
20
-0.5880405162
11
-0.6239225840
21
-0.5221697747
0
LINE
5
401
100
AcDbEntity
8
0
100
AcDbLine
62
7
6
CONTINUOUS
10
6.3007318643
20
-10.2040538575
11
6.3065792095
21
-10.2135541488
0
LINE
5
402
100
AcDbEntity
8
DEFAULT_3
100
AcDbLine
62
9
6
PHANTOM
10
-5.7884160709
20
-11.4530471891
11
-5.7975741198
21
-11.4381645936
0
LINE
5
403
100
AcDbEntity
8
DEFAULT_3
100
AcDbLine
62
9
6
PHANTOM
10
6.3738211784
20
-17.5341663629
11
6.3646629668
21
-17.5192837735
0
LINE
5
404
100
AcDbEntity
8
0
100
AcDbLine
62
7
6
CONTINUOUS
10
-4.9017644306
20
-10.7845185287
11
-4.8769600791
21
-10.8250551764
0
LINE
5
405
100
AcDbEntity
8
0
100
AcDbLine
62
7
6
CONTINUOUS
10
-0.6471354629
20
-0.5855264138
11
-0.6645123125
21
-0.5570444337
0
LINE
5
406
100
AcDbEntity
8
0
100
AcDbLine
62
7
6
CONTINUOUS
10
-5.9946954925
20
-11.4424983328
11
-6.0005097547
21
-11.4329438530
0
LINE
5
407
100
AcDbEntity
8
0
100
AcDbLine
62
7
6
CONTINUOUS
10
0.5427770580
20
0.4206611012
11
0.5600552969
21
0.3921298158
0
LINE
5
408
100
AcDbEntity
8
DEFAULT_3
100
AcDbLine
62
9
6
PHANTOM
10
-5.8867061540
20
-11.3533240992
11
-5.8731034414
21
-11.3758187780
0
LINE
5
409
100
AcDbEntity
8
0
100
AcDbLine
62
9
6
CONTINUOUS
10
-0.6297301065
20
-0.4832436780
11
-0.5931900346
21
-0.5448004524
0
LINE
5
40A
100
AcDbEntity
8
0
100
AcDbLine
62
9
6
CONTINUOUS
10
0.5483844589
20
0.3298847441
11
0.5118443832
21
0.3914415166
0
LINE
5
40B
100
AcDbEntity
8
DEFAULT_3
100
AcDbLine
62
9
6
PHANTOM
10
-4.6632004520
20
-10.6377714591
11
-4.6836642032
21
-10.6031134231
0
LINE
5
40C
100
AcDbEntity
8
0
100
AcDbLine
62
7
6
CONTINUOUS
10
-0.6645123125
20
-0.5570444337
11
-0.6814565837
21
-0.5282035876
0
LINE
5
40D
100
AcDbEntity
8
DEFAULT_3
100
AcDbLine
62
9
6
PHANTOM
10
-5.8421219938
20
-11.3365906914
11
-5.8443313410
21
-11.3328248923
0
LINE
5
40E
100
AcDbEntity
8
0
100
AcDbLine
62
7
6
CONTINUOUS
10
6.3065792095
20
-10.2135541488
11
6.3122234519
21
-10.2232028103
0
LINE
5
40F
100
AcDbEntity
8
0
100
AcDbLine
62
9
6
CONTINUOUS
10
16.6487764131
20
-25.1749170718
11
16.6547652013
21
-25.1851845395
0
LINE
5
410
100
AcDbEntity
8
0
100
AcDbLine
62
7
6
CONTINUOUS
10
0.5600552969
20
0.3921298158
11
0.5769006822
21
0.3632395268
0
LINE
5
411
100
AcDbEntity
8
0
100
AcDbLine
62
9
6
CONTINUOUS
10
15.5936124012
20
-25.4622365759
11
15.6063309741
21
-25.4841829398
0
LINE
5
412
100
AcDbEntity
8
0
100
AcDbLine
62
7
6
CONTINUOUS
10
-6.0005097547
20
-11.4329438530
11
-6.0061190897
21
-11.4232576882
0
LINE
5
413
100
AcDbEntity
8
0
100
AcDbLine
62
7
6
CONTINUOUS
10
-4.9254177282
20
-10.7433003760
11
-4.9017644306
21
-10.7845185287
0
LINE
5
414
100
AcDbEntity
8
0
100
AcDbLine
62
7
6
CONTINUOUS
10
-0.6814565837
20
-0.5282035876
11
-0.6979637354
21
-0.4990137908
0
LINE
5
415
100
AcDbEntity
8
DEFAULT_3
100
AcDbLine
62
9
6
PHANTOM
10
6.1249026233
20
-10.4029987630
11
6.1270491413
21
-10.4067992033
0
LINE
5
416
100
AcDbEntity
8
0
100
AcDbLine
62
7
6
CONTINUOUS
10
-0.6239225840
20
-0.5221697747
11
-0.6621162320
21
-0.4544855499
0
LINE
5
417
100
AcDbEntity
8
0
100
AcDbLine
62
7
6
CONTINUOUS
10
0.5769006822
20
0.3632395268
11
0.5933089300
21
0.3340002781
0
LINE
5
418
100
AcDbEntity
8
0
100
AcDbLine
62
7
6
CONTINUOUS
10
6.3122234519
20
-10.2232028103
11
6.3176570711
21
-10.2329864457
0
LINE
5
419
100
AcDbEntity
8
0
100
AcDbLine
62
9
6
CONTINUOUS
10
-14.8096879422
20
25.5062523669
11
-14.8035822920
21
25.4952158287
0
LINE
5
41A
100
AcDbEntity
8
0
100
AcDbLine
62
7
6
CONTINUOUS
10
-6.0061190897
20
-11.4232576882
11
-6.0115243341
21
-11.4134359490
0
LINE
5
41B
100
AcDbEntity
8
0
100
AcDbLine
62
9
6
CONTINUOUS
10
-14.8035823181
20
-9.7830936532
11
-14.7967619957
21
-9.7954945407
0
LINE
5
41C
100
AcDbEntity
8
0
100
AcDbLine
62
7
6
CONTINUOUS
10
-0.6979637354
20
-0.4990137908
11
-0.7139892927
21
-0.4695537119
0
LINE
5
41D
100
AcDbEntity
8
0
100
AcDbLine
62
9
6
CONTINUOUS
10
-0.6640459699
20
-0.4200675932
11
-0.6297301065
21
-0.4832436780
0
LINE
5
41E
100
AcDbEntity
8
0
100
AcDbLine
62
9
6
CONTINUOUS
10
0.5827003300
20
0.2667086632
11
0.5483844589
21
0.3298847441
0
LINE
5
41F
100
AcDbEntity
8
0
100
AcDbLine
62
7
6
CONTINUOUS
10
0.5933089300
20
0.3340002781
11
0.6092360460
21
0.3044909785
0
LINE
5
420
100
AcDbEntity
8
0
100
AcDbLine
62
7
6
CONTINUOUS
10
-14.6903276096
20
-10.2150662412
11
-14.6748901659
21
-10.2437041448
0
LINE
5
421
100
AcDbEntity
8
DEFAULT_3
100
AcDbLine
62
9
6
PHANTOM
10
-4.6836642032
20
-10.6031134231
11
-4.7028006504
21
-10.5675592161
0
LINE
5
422
100
AcDbEntity
8
0
100
AcDbLine
62
9
6
CONTINUOUS
10
15.5814723231
20
-25.4396317667
11
15.5936124012
21
-25.4622365759
0
LINE
5
423
100
AcDbEntity
8
0
100
AcDbLine
62
7
6
CONTINUOUS
10
-4.9479313294
20
-10.7013613509
11
-4.9254177282
21
-10.7433003760
0
LINE
5
424
100
AcDbEntity
8
DEFAULT_3
100
AcDbLine
62
9
6
PHANTOM
10
-4.8489751112
20
-10.6962857675
11
-4.8676437236
21
-10.6612704551
0
LINE
5
425
100
AcDbEntity
8
0
100
AcDbLine
62
9
6
CONTINUOUS
10
-14.4767735151
20
-10.4270436178
11
-14.4887173330
21
-10.4045369386
0
LINE
5
426
100
AcDbEntity
8
0
100
AcDbLine
62
7
6
CONTINUOUS
10
-0.7139892927
20
-0.4695537119
11
-0.7295261375
21
-0.4398341143
0
LINE
5
427
100
AcDbEntity
8
0
100
AcDbLine
62
7
6
CONTINUOUS
10
-6.0115243341
20
-11.4134359490
11
-6.0167236211
21
-11.4034790017
0
LINE
5
428
100
AcDbEntity
8
DEFAULT_3
100
AcDbLine
62
9
6
PHANTOM
10
-5.8443313410
20
-11.3328248923
11
-5.8463604874
21
-11.3289267991
0
LINE
5
429
100
AcDbEntity
8
DEFAULT_3
100
AcDbLine
62
9
6
PHANTOM
10
-5.4784071767
20
-9.8655382431
11
-5.5232897148
21
-9.7787713889
0
LINE
5
42A
100
AcDbEntity
8
DEFAULT_3
100
AcDbLine
62
9
6
PHANTOM
10
-5.6502267247
20
-4.9329106740
11
-5.6869472113
21
-4.8619226854
0
LINE
5
42B
100
AcDbEntity
8
0
100
AcDbLine
62
7
6
CONTINUOUS
10
-0.6621162320
20
-0.4544855499
11
-0.6976604845
21
-0.3852538661
0
LINE
5
42C
100
AcDbEntity
8
0
100
AcDbLine
62
7
6
CONTINUOUS
10
-14.7050890625
20
-10.1857569912
11
-14.6903276096
21
-10.2150662412
0
LINE
5
42D
100
AcDbEntity
8
DEFAULT_3
100
AcDbLine
62
9
6
PHANTOM
10
-5.8984614264
20
-11.3299316080
11
-5.8867061540
21
-11.3533240992
0
LINE
5
42E
100
AcDbEntity
8
0
100
AcDbLine
62
7
6
CONTINUOUS
10
-4.9692938767
20
-10.6587408207
11
-4.9479313294
21
-10.7013613509
0
LINE
5
42F
100
AcDbEntity
8
0
100
AcDbLine
62
7
6
CONTINUOUS
10
-6.0167236211
20
-11.4034790017
11
-6.0217015818
21
-11.3934130770
0
LINE
5
430
100
AcDbEntity
8
0
100
AcDbLine
62
9
6
CONTINUOUS
10
-14.4887173330
20
-10.4045369386
11
-14.5000846697
21
-10.3813809543
0
LINE
5
431
100
AcDbEntity
8
DEFAULT_3
100
AcDbLine
62
9
6
PHANTOM
10
-4.7028006504
20
-10.5675592161
11
-4.7204221310
21
-10.5314576275
0
LINE
5
432
100
AcDbEntity
8
0
100
AcDbLine
62
9
6
CONTINUOUS
10
-14.8096879680
20
-9.7705576132
11
-14.8035823181
21
-9.7830936532
0
LINE
5
433
100
AcDbEntity
8
0
100
AcDbLine
62
7
6
CONTINUOUS
10
-14.7191595566
20
-10.1557732910
11
-14.7050890625
21
-10.1857569912
0
LINE
5
434
100
AcDbEntity
8
0
100
AcDbLine
62
7
6
CONTINUOUS
10
-6.0217015818
20
-11.3934130770
11
-6.0264395700
21
-11.3832734131
0
LINE
5
435
100
AcDbEntity
8
0
100
AcDbLine
62
7
6
CONTINUOUS
10
-4.9893338348
20
-10.6157815367
11
-4.9692938767
21
-10.6587408207
0
LINE
5
436
100
AcDbEntity
8
DEFAULT_3
100
AcDbLine
62
9
6
PHANTOM
10
-5.8463604874
20
-11.3289267991
11
-5.8481634736
21
-11.3249856900
0
LINE
5
437
100
AcDbEntity
8
0
100
AcDbLine
62
9
6
CONTINUOUS
10
-14.5000846697
20
-10.3813809543
11
-14.5108685085
21
-10.3575898931
0
LINE
5
438
100
AcDbEntity
8
DEFAULT_3
100
AcDbLine
62
9
6
PHANTOM
10
-5.7975741198
20
-11.4381645936
11
-5.8050364701
21
-11.4213768284
0
LINE
5
439
100
AcDbEntity
8
0
100
AcDbLine
62
7
6
CONTINUOUS
10
-14.7325108223
20
-10.1251414500
11
-14.7191595566
21
-10.1557732910
0
LINE
5
43A
100
AcDbEntity
8
0
100
AcDbLine
62
9
6
CONTINUOUS
10
-14.8150732816
20
-9.7578980497
11
-14.8096879680
21
-9.7705576132
0
LINE
5
43B
100
AcDbEntity
8
0
100
AcDbLine
62
9
6
CONTINUOUS
10
-14.5108685085
20
-10.3575898931
11
-14.5210621854
21
-10.3331783584
0
LINE
5
43C
100
AcDbEntity
8
0
100
AcDbLine
62
7
6
CONTINUOUS
10
-14.7451226616
20
-10.0938747024
11
-14.7325108223
21
-10.1251414500
0
LINE
5
43D
100
AcDbEntity
8
0
100
AcDbLine
62
7
6
CONTINUOUS
10
16.3778042639
20
-25.8406558317
11
16.4101338745
21
-25.8394138833
0
LINE
5
43E
100
AcDbEntity
8
0
100
AcDbLine
62
9
6
CONTINUOUS
10
16.0170000080
20
-25.1045237773
11
15.9926808741
21
-25.1050240238
0
LINE
5
43F
100
AcDbEntity
8
0
100
AcDbLine
62
7
6
CONTINUOUS
10
16.3456447650
20
-25.8409820860
11
16.3778042639
21
-25.8406558317
0
LINE
5
440
100
AcDbEntity
8
0
100
AcDbLine
62
9
6
CONTINUOUS
10
16.9025054745
20
-25.3287096365
11
16.9140979986
21
-25.3286275142
0
LINE
5
441
100
AcDbEntity
8
0
100
AcDbLine
62
9
6
CONTINUOUS
10
15.9926808741
20
-25.1050240238
11
15.9684012135
21
-25.1051222061
0
LINE
5
442
100
AcDbEntity
8
0
100
AcDbLine
62
7
6
CONTINUOUS
10
6.5023611046
20
-17.7428628497
11
6.4952388996
21
-17.7428217134
0
LINE
5
443
100
AcDbEntity
8
DEFAULT_3
100
AcDbLine
62
9
6
PHANTOM
10
6.3604216980
20
-17.4461036961
11
6.3576129801
21
-17.4460846851
0
LINE
5
444
100
AcDbEntity
8
0
100
AcDbLine
62
9
6
CONTINUOUS
10
15.9684012135
20
-25.1051222061
11
15.9441835493
21
-25.1048182333
0
LINE
5
445
100
AcDbEntity
8
DEFAULT_3
100
AcDbLine
62
9
6
PHANTOM
10
6.5194144893
20
-17.5953440680
11
6.5449745107
21
-17.5956725863
0
LINE
5
446
100
AcDbEntity
8
0
100
AcDbLine
62
7
6
CONTINUOUS
10
16.3136756781
20
-25.8404016435
11
16.3456447650
21
-25.8409820860
0
LINE
5
447
100
AcDbEntity
8
DEFAULT_3
100
AcDbLine
62
9
6
PHANTOM
10
6.5427011246
20
-17.4513723027
11
6.5166945611
21
-17.4507878929
0
LINE
5
448
100
AcDbEntity
8
0
100
AcDbLine
62
9
6
CONTINUOUS
10
16.8910301148
20
-25.3283908827
11
16.9025054745
21
-25.3287096365
0
LINE
5
449
100
AcDbEntity
8
0
100
AcDbLine
62
9
6
CONTINUOUS
10
15.9441835493
20
-25.1048182333
11
15.9200503470
21
-25.1041123873
0
LINE
5
44A
100
AcDbEntity
8
DEFAULT_3
100
AcDbLine
62
9
6
PHANTOM
10
6.2996352284
20
-10.4733351295
11
6.2736152404
21
-10.4723676950
0
LINE
5
44B
100
AcDbEntity
8
0
100
AcDbLine
62
9
6
CONTINUOUS
10
15.9200503470
20
-25.1041123873
11
15.8960239937
21
-25.1030053228
0
LINE
5
44C
100
AcDbEntity
8
0
100
AcDbLine
62
7
6
CONTINUOUS
10
16.2818879257
20
-25.8389226909
11
16.3136756781
21
-25.8404016435
0
LINE
5
44D
100
AcDbEntity
8
0
100
AcDbLine
62
7
6
CONTINUOUS
10
6.4952388996
20
-17.7428217134
11
6.4879835782
21
-17.7423996358
0
LINE
5
44E
100
AcDbEntity
8
DEFAULT_3
100
AcDbLine
62
9
6
PHANTOM
10
-5.0835662309
20
-9.7304400883
11
-5.0996790101
21
-9.7294550273
0
LINE
5
44F
100
AcDbEntity
8
0
100
AcDbLine
62
9
6
CONTINUOUS
10
15.8960239937
20
-25.1030053228
11
15.8721267773
21
-25.1014980669
0
LINE
5
450
100
AcDbEntity
8
0
100
AcDbLine
62
9
6
CONTINUOUS
10
16.8796717093
20
-25.3276719888
11
16.8910301148
21
-25.3283908827
0
LINE
5
451
100
AcDbEntity
8
0
100
AcDbLine
62
7
6
CONTINUOUS
10
16.2503062015
20
-25.8365536588
11
16.2818879257
21
-25.8389226909
0
LINE
5
452
100
AcDbEntity
8
DEFAULT_3
100
AcDbLine
62
9
6
PHANTOM
10
6.5166945611
20
-17.4507878929
11
6.4911141527
21
-17.4487454272
0
LINE
5
453
100
AcDbEntity
8
0
100
AcDbLine
62
9
6
CONTINUOUS
10
15.8721267773
20
-25.1014980669
11
15.8483808662
21
-25.0995920177
0
LINE
5
454
100
AcDbEntity
8
DEFAULT_3
100
AcDbLine
62
9
6
PHANTOM
10
-5.3018462205
20
-9.6419653519
11
-5.2785557984
21
-9.6438360065
0
LINE
5
455
100
AcDbEntity
8
0
100
AcDbLine
62
7
6
CONTINUOUS
10
0.3073049063
20
-1.2165985451
11
0.2552697875
21
-1.2121232149
0
LINE
5
456
100
AcDbEntity
8
0
100
AcDbLine
62
7
6
CONTINUOUS
10
0.2395896846
20
-1.2498057496
11
0.2171072857
21
-1.2477398623
0
LINE
5
457
100
AcDbEntity
8
DEFAULT_3
100
AcDbLine
62
9
6
PHANTOM
10
6.2736152404
20
-10.4723676950
11
6.2480231103
21
-10.4699937425
0
LINE
5
458
100
AcDbEntity
8
DEFAULT_3
100
AcDbLine
62
9
6
PHANTOM
10
-5.0676638171
20
-9.7319876782
11
-5.0835662309
21
-9.7304400883
0
LINE
5
459
100
AcDbEntity
8
DEFAULT_3
100
AcDbLine
62
9
6
PHANTOM
10
-5.2553857789
20
-4.7978125192
11
-5.2394833652
21
-4.7993601091
0
LINE
5
45A
100
AcDbEntity
8
0
100
AcDbLine
62
7
6
CONTINUOUS
10
-6.1791228804
20
-3.9105513288
11
-6.1716612693
21
-3.9113141460
0
LINE
5
45B
100
AcDbEntity
8
DEFAULT_3
100
AcDbLine
62
9
6
PHANTOM
10
6.4938865009
20
-17.5926173011
11
6.5194144893
21
-17.5953440680
0
LINE
5
45C
100
AcDbEntity
8
0
100
AcDbLine
62
7
6
CONTINUOUS
10
6.4879835782
20
-17.7423996358
11
6.4805945925
21
-17.7415941040
0
LINE
5
45D
100
AcDbEntity
8
DEFAULT_3
100
AcDbLine
62
9
6
PHANTOM
10
-5.2785557984
20
-9.6438360065
11
-5.1688716992
21
-9.6564926145
0
LINE
5
45E
100
AcDbEntity
8
DEFAULT_3
100
AcDbLine
62
9
6
PHANTOM
10
-5.4162678540
20
-4.7151441507
11
-5.3406912473
21
-4.7238650454
0
LINE
5
45F
100
AcDbEntity
8
DEFAULT_3
100
AcDbLine
62
9
6
PHANTOM
10
-6.0746046545
20
-4.2933792279
11
-6.0716948057
21
-4.2937256016
0
LINE
5
460
100
AcDbEntity
8
0
100
AcDbLine
62
7
6
CONTINUOUS
10
-0.3201371935
20
1.0835387983
11
-0.2974149344
21
1.0806627751
0
LINE
5
461
100
AcDbEntity
8
0
100
AcDbLine
62
7
6
CONTINUOUS
10
0.2171072857
20
-1.2477398623
11
0.1944400764
21
-1.2448363142
0
LINE
5
462
100
AcDbEntity
8
DEFAULT_3
100
AcDbLine
62
9
6
PHANTOM
10
-5.0519691083
20
-9.7340906822
11
-5.0676638171
21
-9.7319876782
0
LINE
5
463
100
AcDbEntity
8
DEFAULT_3
100
AcDbLine
62
9
6
PHANTOM
10
-5.2394833652
20
-4.7993601091
11
-5.2237886563
21
-4.8014631131
0
LINE
5
464
100
AcDbEntity
8
DEFAULT_3
100
AcDbLine
62
9
6
PHANTOM
10
6.2480231103
20
-10.4699937425
11
6.2231392310
21
-10.4662392817
0
LINE
5
465
100
AcDbEntity
8
0
100
AcDbLine
62
7
6
CONTINUOUS
10
-6.1716612693
20
-3.9113141460
11
-6.1640940431
21
-3.9124654074
0
LINE
5
466
100
AcDbEntity
8
0
100
AcDbLine
62
9
6
CONTINUOUS
10
0.1558726643
20
-1.1517167926
11
0.2047675050
21
-1.1594265572
0
LINE
5
467
100
AcDbEntity
8
0
100
AcDbLine
62
9
6
CONTINUOUS
10
-0.2372182784
20
0.9983578755
11
-0.2861132311
21
1.0060675841
0
LINE
5
468
100
AcDbEntity
8
0
100
AcDbLine
62
9
6
CONTINUOUS
10
15.8483808578
20
10.1772179480
11
15.8248082793
21
10.1810205237
0
LINE
5
469
100
AcDbEntity
8
0
100
AcDbLine
62
7
6
CONTINUOUS
10
-0.2974149344
20
1.0806627751
11
-0.2745047020
21
1.0769438413
0
LINE
5
46A
100
AcDbEntity
8
0
100
AcDbLine
62
7
6
CONTINUOUS
10
0.2552697875
20
-1.2121232149
11
0.2021758934
21
-1.2034379942
0
LINE
5
46B
100
AcDbEntity
8
0
100
AcDbLine
62
7
6
CONTINUOUS
10
0.1944400764
20
-1.2448363142
11
0.1715804255
21
-1.2410920896
0
LINE
5
46C
100
AcDbEntity
8
DEFAULT_3
100
AcDbLine
62
9
6
PHANTOM
10
-5.2237886563
20
-4.8014631131
11
-5.2085018438
21
-4.8040947067
0
LINE
5
46D
100
AcDbEntity
8
0
100
AcDbLine
62
9
6
CONTINUOUS
10
15.8248082793
20
10.1810205237
11
15.8014309009
21
10.1851428832
0
LINE
5
46E
100
AcDbEntity
8
0
100
AcDbLine
62
9
6
CONTINUOUS
10
15.8014309009
20
10.1851428832
11
15.7782704087
21
10.1895812025
0
LINE
5
46F
100
AcDbEntity
8
0
100
AcDbLine
62
7
6
CONTINUOUS
10
-0.2745047020
20
1.0769438413
11
-0.2514141272
21
1.0723850133
0
LINE
5
470
100
AcDbEntity
8
0
100
AcDbLine
62
7
6
CONTINUOUS
10
0.1715804255
20
-1.2410920896
11
0.1485358504
21
-1.2365102617
0
LINE
5
471
100
AcDbEntity
8
0
100
AcDbLine
62
9
6
CONTINUOUS
10
15.7782704087
20
10.1895812025
11
15.7553482873
21
10.1943313642
0
LINE
5
472
100
AcDbEntity
8
0
100
AcDbLine
62
9
6
CONTINUOUS
10
15.7553482873
20
10.1943313642
11
15.7326858005
21
10.1993889619
0
LINE
5
473
100
AcDbEntity
8
0
100
AcDbLine
62
7
6
CONTINUOUS
10
-0.2514141272
20
1.0723850133
11
-0.2282053498
21
1.0669987227
0
LINE
5
474
100
AcDbEntity
8
0
100
AcDbLine
62
9
6
CONTINUOUS
10
15.7326858005
20
10.1993889619
11
15.7103039710
21
10.2047493040
0
LINE
5
475
100
AcDbEntity
8
0
100
AcDbLine
62
9
6
CONTINUOUS
10
-13.6891773542
20
27.1029795526
11
-13.6718713273
21
27.0988113986
0
LINE
5
476
100
AcDbEntity
8
0
100
AcDbLine
62
9
6
CONTINUOUS
10
15.7103039710
20
10.2047493040
11
15.6882235615
21
10.2104074179
0
LINE
5
477
100
AcDbEntity
8
0
100
AcDbLine
62
7
6
CONTINUOUS
10
-10.6328499076
20
28.7467854077
11
-10.6166735666
21
28.7424895273
0
LINE
5
478
100
AcDbEntity
8
0
100
AcDbLine
62
9
6
CONTINUOUS
10
15.6882235615
20
10.2104074179
11
15.6664650546
21
10.2163580549
0
LINE
5
479
100
AcDbEntity
8
0
100
AcDbLine
62
9
6
CONTINUOUS
10
-13.6718713273
20
27.0988113986
11
-13.6544558540
21
27.0939538314
0
LINE
5
47A
100
AcDbEntity
8
0
100
AcDbLine
62
9
6
CONTINUOUS
10
15.6664650546
20
10.2163580549
11
15.6450486346
21
10.2225956949
0
LINE
5
47B
100
AcDbEntity
8
0
100
AcDbLine
62
7
6
CONTINUOUS
10
-10.6166735666
20
28.7424895273
11
-10.6004049829
21
28.7375670771
0
LINE
5
47C
100
AcDbEntity
8
0
100
AcDbLine
62
9
6
CONTINUOUS
10
15.6450486346
20
10.2225956949
11
15.6239941685
21
10.2291145516
0
LINE
5
47D
100
AcDbEntity
8
0
100
AcDbLine
62
9
6
CONTINUOUS
10
-13.6544558540
20
27.0939538314
11
-13.6369474474
21
27.0884114569
0
LINE
5
47E
100
AcDbEntity
8
0
100
AcDbLine
62
9
6
CONTINUOUS
10
15.6239941685
20
10.2291145516
11
15.6033211874
21
10.2359085777
0
LINE
5
47F
100
AcDbEntity
8
0
100
AcDbLine
62
7
6
CONTINUOUS
10
-10.6004049829
20
28.7375670771
11
-10.5840482347
21
28.7320233440
0
LINE
5
480
100
AcDbEntity
8
0
100
AcDbLine
62
9
6
CONTINUOUS
10
15.6033211874
20
10.2359085777
11
15.5830488685
21
10.2429714708
0
LINE
5
481
100
AcDbEntity
8
0
100
AcDbLine
62
9
6
CONTINUOUS
10
-13.6369474474
20
27.0884114569
11
-13.6193627089
21
27.0821895303
0
LINE
5
482
100
AcDbEntity
8
0
100
AcDbLine
62
7
6
CONTINUOUS
10
-10.5840482347
20
28.7320233440
11
-10.5676681608
21
28.7258825060
0
LINE
5
483
100
AcDbEntity
8
0
100
AcDbLine
62
9
6
CONTINUOUS
10
-13.6193627089
20
27.0821895303
11
-13.6017183122
21
27.0752939512
0
LINE
5
484
100
AcDbEntity
8
0
100
AcDbLine
62
7
6
CONTINUOUS
10
-10.5676681608
20
28.7258825060
11
-10.5512863743
21
28.7191526224
0
LINE
5
485
100
AcDbEntity
8
0
100
AcDbLine
62
7
6
CONTINUOUS
10
19.9580316515
20
13.3728319767
11
19.9721585109
21
13.3554395702
0
LINE
5
486
100
AcDbEntity
8
0
100
AcDbLine
62
7
6
CONTINUOUS
10
19.9721585109
20
13.3554395702
11
19.9860342255
21
13.3376727570
0
LINE
5
487
100
AcDbEntity
8
0
100
AcDbLine
62
7
6
CONTINUOUS
10
19.9860342255
20
13.3376727570
11
19.9996285757
21
13.3195745290
0
LINE
5
488
100
AcDbEntity
8
0
100
AcDbLine
62
9
6
CONTINUOUS
10
16.8418686190
20
11.7241308678
11
16.8275779984
21
11.7434131517
0
LINE
5
489
100
AcDbEntity
8
0
100
AcDbLine
62
7
6
CONTINUOUS
10
19.9996285757
20
13.3195745290
11
20.0129350201
21
13.3011548506
0
LINE
5
48A
100
AcDbEntity
8
0
100
AcDbLine
62
9
6
CONTINUOUS
10
16.8558624807
20
11.7044739806
11
16.8418686190
21
11.7241308678
0
LINE
5
48B
100
AcDbEntity
8
0
100
AcDbLine
62
7
6
CONTINUOUS
10
20.0129350201
20
13.3011548506
11
20.0259601001
21
13.2824037573
0
LINE
5
48C
100
AcDbEntity
8
0
100
AcDbLine
62
9
6
CONTINUOUS
10
16.8695463144
20
11.6844611285
11
16.8558624807
21
11.7044739806
0
LINE
5
48D
100
AcDbEntity
8
0
100
AcDbLine
62
7
6
CONTINUOUS
10
20.0259601001
20
13.2824037573
11
20.0386932204
21
13.2633343472
0
LINE
5
48E
100
AcDbEntity
8
0
100
AcDbLine
62
9
6
CONTINUOUS
10
16.8829071454
20
11.6641112876
11
16.8695463144
21
11.6844611285
0
LINE
5
48F
100
AcDbEntity
8
0
100
AcDbLine
62
7
6
CONTINUOUS
10
20.0386932204
20
13.2633343472
11
20.0511466067
21
13.2439268829
0
LINE
5
490
100
AcDbEntity
8
0
100
AcDbLine
62
9
6
CONTINUOUS
10
16.8959323049
20
11.6434437534
11
16.8829071454
21
11.6641112876
0
LINE
5
491
100
AcDbEntity
8
0
100
AcDbLine
62
7
6
CONTINUOUS
10
20.0511466067
20
13.2439268829
11
20.0633080334
21
13.2242011018
0
LINE
5
492
100
AcDbEntity
8
0
100
AcDbLine
62
9
6
CONTINUOUS
10
16.9086094427
20
11.6224781229
11
16.8959323049
21
11.6434437534
0
LINE
5
493
100
AcDbEntity
8
0
100
AcDbLine
62
7
6
CONTINUOUS
10
20.0633080334
20
13.2242011018
11
20.0751302287
21
13.2042293139
0
LINE
5
494
100
AcDbEntity
8
0
100
AcDbLine
62
9
6
CONTINUOUS
10
16.9209265382
20
11.6012342753
11
16.9086094427
21
11.6224781229
0
LINE
5
495
100
AcDbEntity
8
0
100
AcDbLine
62
7
6
CONTINUOUS
10
20.0751302287
20
13.2042293139
11
20.0866107345
21
13.1840096165
0
LINE
5
496
100
AcDbEntity
8
0
100
AcDbLine
62
9
6
CONTINUOUS
10
16.9328719126
20
11.5797323541
11
16.9209265382
21
11.6012342753
0
LINE
5
497
100
AcDbEntity
8
0
100
AcDbLine
62
7
6
CONTINUOUS
10
20.0866107345
20
13.1840096165
11
20.0977520089
21
13.1635439124
0
LINE
5
498
100
AcDbEntity
8
0
100
AcDbLine
62
9
6
CONTINUOUS
10
16.6430563453
20
-25.1643374143
11
16.6487764131
21
-25.1749170718
0
LINE
5
499
100
AcDbEntity
8
0
100
AcDbLine
62
9
6
CONTINUOUS
10
16.9444342394
20
11.5579927471
11
16.9328719126
21
11.5797323541
0
LINE
5
49A
100
AcDbEntity
8
0
100
AcDbLine
62
7
6
CONTINUOUS
10
6.3176570711
20
-10.2329864457
11
6.3228810566
21
-10.2429090243
0
LINE
5
49B
100
AcDbEntity
8
0
100
AcDbLine
62
7
6
CONTINUOUS
10
0.6092360460
20
0.3044909785
11
0.6246751509
21
0.2747225110
0
LINE
5
49C
100
AcDbEntity
8
0
100
AcDbLine
62
9
6
CONTINUOUS
10
16.9556025551
20
11.5360360677
11
16.9444342394
21
11.5579927471
0
LINE
5
49D
100
AcDbEntity
8
0
100
AcDbLine
62
7
6
CONTINUOUS
10
-0.7295261375
20
-0.4398341143
11
-0.7445811795
21
-0.4098441300
0
LINE
5
49E
100
AcDbEntity
8
0
100
AcDbLine
62
9
6
CONTINUOUS
10
16.6376155047
20
-25.1534650087
11
16.6430563453
21
-25.1643374143
0
LINE
5
49F
100
AcDbEntity
8
DEFAULT_3
100
AcDbLine
62
9
6
PHANTOM
10
6.1270491413
20
-10.4067992033
11
6.1290102637
21
-10.4107348020
0
LINE
5
4A0
100
AcDbEntity
8
0
100
AcDbLine
62
7
6
CONTINUOUS
10
6.3228810566
20
-10.2429090243
11
6.3278935104
21
-10.2529702533
0
LINE
5
4A1
100
AcDbEntity
8
0
100
AcDbLine
62
7
6
CONTINUOUS
10
0.6246751509
20
0.2747225110
11
0.6396333324
21
0.2446840964
0
LINE
5
4A2
100
AcDbEntity
8
0
100
AcDbLine
62
9
6
CONTINUOUS
10
15.5699183062
20
-25.4163824423
11
15.5814723231
21
-25.4396317667
0
LINE
5
4A3
100
AcDbEntity
8
0
100
AcDbLine
62
9
6
CONTINUOUS
10
-0.6959380540
20
-0.3556400019
11
-0.6640459699
21
-0.4200675932
0
LINE
5
4A4
100
AcDbEntity
8
0
100
AcDbLine
62
9
6
CONTINUOUS
10
0.6145924199
20
0.2022810747
11
0.5827003300
21
0.2667086632
0
LINE
5
4A5
100
AcDbEntity
8
0
100
AcDbLine
62
9
6
CONTINUOUS
10
-14.8150732561
20
25.5173387147
11
-14.8096879422
21
25.5062523669
0
LINE
5
4A6
100
AcDbEntity
8
0
100
AcDbLine
62
7
6
CONTINUOUS
10
-0.7445811795
20
-0.4098441300
11
-0.7591310008
21
-0.3796299881
0
LINE
5
4A7
100
AcDbEntity
8
0
100
AcDbLine
62
7
6
CONTINUOUS
10
0.6396333324
20
0.2446840964
11
0.6540875313
21
0.2144221433
0
LINE
5
4A8
100
AcDbEntity
8
0
100
AcDbLine
62
7
6
CONTINUOUS
10
6.3278935104
20
-10.2529702533
11
6.3326794135
21
-10.2631436520
0
LINE
5
4A9
100
AcDbEntity
8
0
100
AcDbLine
62
7
6
CONTINUOUS
10
-0.6976604845
20
-0.3852538661
11
-0.7304291012
21
-0.3147274439
0
LINE
5
4AA
100
AcDbEntity
8
0
100
AcDbLine
62
9
6
CONTINUOUS
10
16.6324544072
20
-25.1422993217
11
16.6376155047
21
-25.1534650087
0
LINE
5
4AB
100
AcDbEntity
8
0
100
AcDbLine
62
7
6
CONTINUOUS
10
-0.7591310008
20
-0.3796299881
11
-0.7731804527
21
-0.3491782151
0
LINE
5
4AC
100
AcDbEntity
8
0
100
AcDbLine
62
9
6
CONTINUOUS
10
15.5589573848
20
-25.3925028397
11
15.5699183062
21
-25.4163824423
0
LINE
5
4AD
100
AcDbEntity
8
0
100
AcDbLine
62
7
6
CONTINUOUS
10
0.6540875313
20
0.2144221433
11
0.6680427620
21
0.1839232597
0
LINE
5
4AE
100
AcDbEntity
8
DEFAULT_3
100
AcDbLine
62
9
6
PHANTOM
10
-4.8676437236
20
-10.6612704551
11
-4.8837878742
21
-10.6252823807
0
LINE
5
4AF
100
AcDbEntity
8
0
100
AcDbLine
62
9
6
CONTINUOUS
10
-0.7252524367
20
-0.2903034786
11
-0.6959380540
21
-0.3556400019
0
LINE
5
4B0
100
AcDbEntity
8
0
100
AcDbLine
62
9
6
CONTINUOUS
10
0.6439068038
20
0.1369445520
11
0.6145924199
21
0.2022810747
0
LINE
5
4B1
100
AcDbEntity
8
DEFAULT_3
100
AcDbLine
62
9
6
PHANTOM
10
6.3646629668
20
-17.5192837735
11
6.3572004575
21
-17.5024959328
0
LINE
5
4B2
100
AcDbEntity
8
0
100
AcDbLine
62
7
6
CONTINUOUS
10
6.3326794135
20
-10.2631436520
11
6.3372208717
21
-10.2733935590
0
LINE
5
4B3
100
AcDbEntity
8
0
100
AcDbLine
62
7
6
CONTINUOUS
10
-0.7731804527
20
-0.3491782151
11
-0.7867244737
21
-0.3185021792
0
LINE
5
4B4
100
AcDbEntity
8
0
100
AcDbLine
62
7
6
CONTINUOUS
10
-6.0264395700
20
-11.3832734131
11
-6.0309305423
21
-11.3730767374
0
LINE
5
4B5
100
AcDbEntity
8
DEFAULT_3
100
AcDbLine
62
9
6
PHANTOM
10
-4.7204221310
20
-10.5314576275
11
-4.7364253775
21
-10.4950533932
0
LINE
5
4B6
100
AcDbEntity
8
0
100
AcDbLine
62
7
6
CONTINUOUS
10
0.6680427620
20
0.1839232597
11
0.6814942203
21
0.1532009424
0
LINE
5
4B7
100
AcDbEntity
8
DEFAULT_3
100
AcDbLine
62
9
6
PHANTOM
10
6.1290102637
20
-10.4107348020
11
6.1307416066
21
-10.4147154120
0
LINE
5
4B8
100
AcDbEntity
8
0
100
AcDbLine
62
7
6
CONTINUOUS
10
-5.0080263942
20
-10.5725153831
11
-4.9893338348
21
-10.6157815367
0
LINE
5
4B9
100
AcDbEntity
8
0
100
AcDbLine
62
9
6
CONTINUOUS
10
16.6275725368
20
-25.1308408866
11
16.6324544072
21
-25.1422993217
0
LINE
5
4BA
100
AcDbEntity
8
0
100
AcDbLine
62
9
6
CONTINUOUS
10
15.5485962053
20
-25.3680075538
11
15.5589573848
21
-25.3925028397
0
LINE
5
4BB
100
AcDbEntity
8
0
100
AcDbLine
62
7
6
CONTINUOUS
10
-0.7867244737
20
-0.3185021792
11
-0.7997247960
21
-0.2876883817
0
LINE
5
4BC
100
AcDbEntity
8
0
100
AcDbLine
62
9
6
CONTINUOUS
10
-14.8197332379
20
25.5284645878
11
-14.8150732561
21
25.5173387147
0
LINE
5
4BD
100
AcDbEntity
8
0
100
AcDbLine
62
7
6
CONTINUOUS
10
0.6814942203
20
0.1532009424
11
0.6944040992
21
0.1223419232
0
LINE
5
4BE
100
AcDbEntity
8
0
100
AcDbLine
62
7
6
CONTINUOUS
10
-0.7304291012
20
-0.3147274439
11
-0.7602983325
21
-0.2431737446
0
LINE
5
4BF
100
AcDbEntity
8
0
100
AcDbLine
62
7
6
CONTINUOUS
10
6.3372208717
20
-10.2733935590
11
6.3415112728
21
-10.2837030334
0
LINE
5
4C0
100
AcDbEntity
8
DEFAULT_3
100
AcDbLine
62
9
6
PHANTOM
10
-6.1671452448
20
-4.2519882811
11
-6.1617004416
21
-4.2651326228
0
LINE
5
4C1
100
AcDbEntity
8
0
100
AcDbLine
62
7
6
CONTINUOUS
10
-6.0309305423
20
-11.3730767374
11
-6.0351697998
21
-11.3628354119
0
LINE
5
4C2
100
AcDbEntity
8
DEFAULT_3
100
AcDbLine
62
9
6
PHANTOM
10
-5.9084571144
20
-11.3053856550
11
-5.8984614264
21
-11.3299316080
0
LINE
5
4C3
100
AcDbEntity
8
DEFAULT_3
100
AcDbLine
62
9
6
PHANTOM
10
-5.9240643441
20
-11.2304076079
11
-5.9186081507
21
-11.2438836191
0
LINE
5
4C4
100
AcDbEntity
8
0
100
AcDbLine
62
9
6
CONTINUOUS
10
-0.7519314941
20
-0.2242207705
11
-0.7252524367
21
-0.2903034786
0
LINE
5
4C5
100
AcDbEntity
8
0
100
AcDbLine
62
9
6
CONTINUOUS
10
0.6705858604
20
0.0708618435
11
0.6439068038
21
0.1369445520
0
LINE
5
4C6
100
AcDbEntity
8
0
100
AcDbLine
62
7
6
CONTINUOUS
10
-0.7997247960
20
-0.2876883817
11
-0.8121744956
21
-0.2567502560
0
LINE
5
4C7
100
AcDbEntity
8
0
100
AcDbLine
62
7
6
CONTINUOUS
10
0.6944040992
20
0.1223419232
11
0.7067656973
21
0.0913597468
0
LINE
5
4C8
100
AcDbEntity
8
0
100
AcDbLine
62
7
6
CONTINUOUS
10
-5.0253963645
20
-10.5289104757
11
-5.0080263942
21
-10.5725153831
0
LINE
5
4C9
100
AcDbEntity
8
DEFAULT_3
100
AcDbLine
62
9
6
PHANTOM
10
-5.8481634736
20
-11.3249856900
11
-5.8497350914
21
-11.3209980391
0
LINE
5
4CA
100
AcDbEntity
8
DEFAULT_3
100
AcDbLine
62
9
6
PHANTOM
10
-4.7364253775
20
-10.4950533932
11
-4.7507240839
21
-10.4585964786
0
LINE
5
4CB
100
AcDbEntity
8
0
100
AcDbLine
62
7
6
CONTINUOUS
10
6.3415112728
20
-10.2837030334
11
6.3455460939
21
-10.2940595849
0
LINE
5
4CC
100
AcDbEntity
8
0
100
AcDbLine
62
7
6
CONTINUOUS
10
-6.0351697998
20
-11.3628354119
11
-6.0391453999
21
-11.3525789450
0
LINE
5
4CD
100
AcDbEntity
8
DEFAULT_3
100
AcDbLine
62
9
6
PHANTOM
10
-5.5232897148
20
-9.7787713889
11
-5.5279859378
21
-9.7666487210
0
LINE
5
4CE
100
AcDbEntity
8
0
100
AcDbLine
62
9
6
CONTINUOUS
10
-14.5210621854
20
-10.3331783584
11
-14.5306595646
21
-10.3081612453
0
LINE
5
4CF
100
AcDbEntity
8
0
100
AcDbLine
62
7
6
CONTINUOUS
10
-0.8121744956
20
-0.2567502560
11
-0.8240803089
21
-0.2256742749
0
LINE
5
4D0
100
AcDbEntity
8
0
100
AcDbLine
62
7
6
CONTINUOUS
10
0.7067656973
20
0.0913597468
11
0.7185859036
21
0.0602409622
0
LINE
5
4D1
100
AcDbEntity
8
0
100
AcDbLine
62
7
6
CONTINUOUS
10
-14.7569776044
20
-10.0619802424
11
-14.7451226616
21
-10.0938747024
0
LINE
5
4D2
100
AcDbEntity
8
0
100
AcDbLine
62
7
6
CONTINUOUS
10
-0.7602983325
20
-0.2431737446
11
-0.7871565269
21
-0.1708552170
0
LINE
5
4D3
100
AcDbEntity
8
DEFAULT_3
100
AcDbLine
62
9
6
PHANTOM
10
6.1307416066
20
-10.4147154120
11
6.1322378274
21
-10.4187446334
0
LINE
5
4D4
100
AcDbEntity
8
DEFAULT_3
100
AcDbLine
62
9
6
PHANTOM
10
-4.8837878742
20
-10.6252823807
11
-4.8974712195
21
-10.5881424219
0
LINE
5
4D5
100
AcDbEntity
8
0
100
AcDbLine
62
7
6
CONTINUOUS
10
-5.0413466391
20
-10.4852139129
11
-5.0253963645
21
-10.5289104757
0
LINE
5
4D6
100
AcDbEntity
8
0
100
AcDbLine
62
9
6
CONTINUOUS
10
-14.8197332631
20
-9.7451267064
11
-14.8150732816
21
-9.7578980497
0
LINE
5
4D7
100
AcDbEntity
8
0
100
AcDbLine
62
7
6
CONTINUOUS
10
-0.8240803089
20
-0.2256742749
11
-0.8354244811
21
-0.1945065103
0
LINE
5
4D8
100
AcDbEntity
8
0
100
AcDbLine
62
7
6
CONTINUOUS
10
-6.0391453999
20
-11.3525789450
11
-6.0428478312
21
-11.3423383103
0
LINE
5
4D9
100
AcDbEntity
8
0
100
AcDbLine
62
9
6
CONTINUOUS
10
-0.7759317737
20
-0.1574978111
11
-0.7519314941
21
-0.2242207705
0
LINE
5
4DA
100
AcDbEntity
8
0
100
AcDbLine
62
9
6
CONTINUOUS
10
-14.8236635649
20
25.5396196654
11
-14.8197332379
21
25.5284645878
0
LINE
5
4DB
100
AcDbEntity
8
0
100
AcDbLine
62
9
6
CONTINUOUS
10
-14.5306595646
20
-10.3081612453
11
-14.5396547260
21
-10.2825539086
0
LINE
5
4DC
100
AcDbEntity
8
DEFAULT_3
100
AcDbLine
62
9
6
PHANTOM
10
-4.7507240839
20
-10.4585964786
11
-4.7632100332
21
-10.4224644477
0
LINE
5
4DD
100
AcDbEntity
8
0
100
AcDbLine
62
7
6
CONTINUOUS
10
-14.7680551244
20
-10.0294746629
11
-14.7569776044
21
-10.0619802424
0
LINE
5
4DE
100
AcDbEntity
8
0
100
AcDbLine
62
7
6
CONTINUOUS
10
-6.0428478312
20
-11.3423383103
11
-6.0462802334
21
-11.3321117024
0
LINE
5
4DF
100
AcDbEntity
8
DEFAULT_3
100
AcDbLine
62
9
6
PHANTOM
10
-5.8497350914
20
-11.3209980391
11
-5.8510805388
21
-11.3169673666
0
LINE
5
4E0
100
AcDbEntity
8
0
100
AcDbLine
62
7
6
CONTINUOUS
10
-5.0558782593
20
-10.4413966517
11
-5.0413466391
21
-10.4852139129
0
LINE
5
4E1
100
AcDbEntity
8
0
100
AcDbLine
62
9
6
CONTINUOUS
10
-14.5396547260
20
-10.2825539086
11
-14.5480421053
21
-10.2563720665
0
LINE
5
4E2
100
AcDbEntity
8
DEFAULT_3
100
AcDbLine
62
9
6
PHANTOM
10
-5.9163212421
20
-11.2805547253
11
-5.9084571144
21
-11.3053856550
0
LINE
5
4E3
100
AcDbEntity
8
0
100
AcDbLine
62
7
6
CONTINUOUS
10
-14.7783339123
20
-9.9963824892
11
-14.7680551244
21
-10.0294746629
0
LINE
5
4E4
100
AcDbEntity
8
0
100
AcDbLine
62
7
6
CONTINUOUS
10
-6.0462802334
20
-11.3321117024
11
-6.0494487901
21
-11.3218794557
0
LINE
5
4E5
100
AcDbEntity
8
DEFAULT_3
100
AcDbLine
62
9
6
PHANTOM
10
-5.8050364701
20
-11.4213768284
11
-5.8107228111
21
-11.4028646079
0
LINE
5
4E6
100
AcDbEntity
8
0
100
AcDbLine
62
9
6
CONTINUOUS
10
-14.8236635897
20
-9.7322554305
11
-14.8197332631
21
-9.7451267064
0
LINE
5
4E7
100
AcDbEntity
8
0
100
AcDbLine
62
9
6
CONTINUOUS
10
-14.5480421053
20
-10.2563720665
11
-14.5558166550
21
-10.2296316959
0
LINE
5
4E8
100
AcDbEntity
8
0
100
AcDbLine
62
7
6
CONTINUOUS
10
-14.7877982972
20
-9.9627135085
11
-14.7783339123
21
-9.9963824892
0
LINE
5
4E9
100
AcDbEntity
8
0
100
AcDbLine
62
9
6
CONTINUOUS
10
16.1864448548
20
-25.0898500512
11
16.1624804895
21
-25.0931309641
0
LINE
5
4EA
100
AcDbEntity
8
0
100
AcDbLine
62
7
6
CONTINUOUS
10
16.4752237641
20
-25.8341492521
11
16.5079627401
21
-25.8301083634
0
LINE
5
4EB
100
AcDbEntity
8
0
100
AcDbLine
62
9
6
CONTINUOUS
10
16.1624804895
20
-25.0931309641
11
16.1383980832
21
-25.0960208455
0
LINE
5
4EC
100
AcDbEntity
8
0
100
AcDbLine
62
9
6
CONTINUOUS
10
16.9376124059
20
-25.3272637353
11
16.9495129593
21
-25.3259822325
0
LINE
5
4ED
100
AcDbEntity
8
0
100
AcDbLine
62
9
6
CONTINUOUS
10
16.1383980832
20
-25.0960208455
11
16.1142199760
21
-25.0985170145
0
LINE
5
4EE
100
AcDbEntity
8
0
100
AcDbLine
62
7
6
CONTINUOUS
10
16.4426067025
20
-25.8372483095
11
16.4752237641
21
-25.8341492521
0
LINE
5
4EF
100
AcDbEntity
8
DEFAULT_3
100
AcDbLine
62
9
6
PHANTOM
10
6.5948514347
20
-17.4481573378
11
6.5688489110
21
-17.4504922409
0
LINE
5
4F0
100
AcDbEntity
8
0
100
AcDbLine
62
9
6
CONTINUOUS
10
16.1142199760
20
-25.0985170145
11
16.0899685967
21
-25.1006171557
0
LINE
5
4F1
100
AcDbEntity
8
DEFAULT_3
100
AcDbLine
62
9
6
PHANTOM
10
6.5449745107
20
-17.5956725863
11
6.5702818296
21
-17.5936176221
0
LINE
5
4F2
100
AcDbEntity
8
0
100
AcDbLine
62
9
6
CONTINUOUS
10
16.9258074768
20
-25.3281452519
11
16.9376124059
21
-25.3272637353
0
LINE
5
4F3
100
AcDbEntity
8
0
100
AcDbLine
62
9
6
CONTINUOUS
10
16.0899685967
20
-25.1006171557
11
16.0656664420
21
-25.1023193208
0
LINE
5
4F4
100
AcDbEntity
8
0
100
AcDbLine
62
7
6
CONTINUOUS
10
16.4101338745
20
-25.8394138833
11
16.4426067025
21
-25.8372483095
0
LINE
5
4F5
100
AcDbEntity
8
0
100
AcDbLine
62
9
6
CONTINUOUS
10
16.0656664420
20
-25.1023193208
11
16.0413360558
21
-25.1036219308
0
LINE
5
4F6
100
AcDbEntity
8
0
100
AcDbLine
62
7
6
CONTINUOUS
10
6.5093644444
20
-17.7425226052
11
6.5023611046
21
-17.7428628497
0
LINE
5
4F7
100
AcDbEntity
8
DEFAULT_3
100
AcDbLine
62
9
6
PHANTOM
10
-5.1323195097
20
-9.7291566279
11
-5.1486390505
21
-9.7298559548
0
LINE
5
4F8
100
AcDbEntity
8
DEFAULT_3
100
AcDbLine
62
9
6
PHANTOM
10
-5.3204585986
20
-4.7972283857
11
-5.3041390577
21
-4.7965290588
0
LINE
5
4F9
100
AcDbEntity
8
0
100
AcDbLine
62
9
6
CONTINUOUS
10
16.9140979986
20
-25.3286275142
11
16.9258074768
21
-25.3281452519
0
LINE
5
4FA
100
AcDbEntity
8
DEFAULT_3
100
AcDbLine
62
9
6
PHANTOM
10
-5.3477230380
20
-9.6424151593
11
-5.3249019670
21
-9.6414917361
0
LINE
5
4FB
100
AcDbEntity
8
0
100
AcDbLine
62
9
6
CONTINUOUS
10
16.0413360558
20
-25.1036219308
11
16.0170000080
21
-25.1045237773
0
LINE
5
4FC
100
AcDbEntity
8
DEFAULT_3
100
AcDbLine
62
9
6
PHANTOM
10
6.5688489110
20
-17.4504922409
11
6.5427011246
21
-17.4513723027
0
LINE
5
4FD
100
AcDbEntity
8
0
100
AcDbLine
62
7
6
CONTINUOUS
10
0.3057022685
20
-1.2509540678
11
0.2838871049
21
-1.2514128882
0
LINE
5
4FE
100
AcDbEntity
8
DEFAULT_3
100
AcDbLine
62
9
6
PHANTOM
10
6.3257979938
20
-10.4728854468
11
6.2996352284
21
-10.4733351295
0
LINE
5
4FF
100
AcDbEntity
8
0
100
AcDbLine
62
9
6
CONTINUOUS
10
0.2527841978
20
-1.1630019818
11
0.2996567169
21
-1.1624185502
0
LINE
5
500
100
AcDbEntity
8
0
100
AcDbLine
62
9
6
CONTINUOUS
10
-0.3341299932
20
1.0096429740
11
-0.3810024923
21
1.0090595524
0
LINE
5
501
100
AcDbEntity
8
DEFAULT_3
100
AcDbLine
62
9
6
PHANTOM
10
-5.1159994942
20
-9.7290253804
11
-5.1323195097
21
-9.7291566279
0
LINE
5
502
100
AcDbEntity
8
DEFAULT_3
100
AcDbLine
62
9
6
PHANTOM
10
-5.3041390577
20
-4.7965290588
11
-5.2878190423
21
-4.7963978113
0
LINE
5
503
100
AcDbEntity
8
0
100
AcDbLine
62
7
6
CONTINUOUS
10
-6.1936692059
20
-3.9101874479
11
-6.1864586582
21
-3.9101765970
0
LINE
5
504
100
AcDbEntity
8
DEFAULT_3
100
AcDbLine
62
9
6
PHANTOM
10
-6.0774461801
20
-4.2933783055
11
-6.0746046545
21
-4.2933792279
0
LINE
5
505
100
AcDbEntity
8
0
100
AcDbLine
62
7
6
CONTINUOUS
10
0.3580308546
20
-1.2169311918
11
0.3073049063
21
-1.2165985451
0
LINE
5
506
100
AcDbEntity
8
0
100
AcDbLine
62
7
6
CONTINUOUS
10
-0.3871074723
20
1.0871165945
11
-0.3650009198
21
1.0867680360
0
LINE
5
507
100
AcDbEntity
8
0
100
AcDbLine
62
7
6
CONTINUOUS
10
0.2838871049
20
-1.2514128882
11
0.2618480836
21
-1.2510305642
0
LINE
5
508
100
AcDbEntity
8
DEFAULT_3
100
AcDbLine
62
9
6
PHANTOM
10
-5.3249019670
20
-9.6414917361
11
-5.3018462205
21
-9.6419653519
0
LINE
5
509
100
AcDbEntity
8
DEFAULT_3
100
AcDbLine
62
9
6
PHANTOM
10
-5.0996790101
20
-9.7294550273
11
-5.1159994942
21
-9.7290253804
0
LINE
5
50A
100
AcDbEntity
8
DEFAULT_3
100
AcDbLine
62
9
6
PHANTOM
10
-5.2878190423
20
-4.7963978113
11
-5.2714985582
21
-4.7968274582
0
LINE
5
50B
100
AcDbEntity
8
0
100
AcDbLine
62
9
6
CONTINUOUS
10
16.0656664371
20
10.1578668410
11
16.0413360505
21
10.1586691749
0
LINE
5
50C
100
AcDbEntity
8
0
100
AcDbLine
62
9
6
CONTINUOUS
10
16.0413360505
20
10.1586691749
11
16.0170000023
21
10.1598120268
0
LINE
5
50D
100
AcDbEntity
8
0
100
AcDbLine
62
7
6
CONTINUOUS
10
-6.1864586582
20
-3.9101765970
11
-6.1791228804
21
-3.9105513288
0
LINE
5
50E
100
AcDbEntity
8
0
100
AcDbLine
62
7
6
CONTINUOUS
10
-0.3650009198
20
1.0867680360
11
-0.3426789963
21
1.0855749836
0
LINE
5
50F
100
AcDbEntity
8
0
100
AcDbLine
62
7
6
CONTINUOUS
10
0.2618480836
20
-1.2510305642
11
0.2395896846
21
-1.2498057496
0
LINE
5
510
100
AcDbEntity
8
0
100
AcDbLine
62
9
6
CONTINUOUS
10
16.0170000023
20
10.1598120268
11
15.9926808680
21
10.1612943366
0
LINE
5
511
100
AcDbEntity
8
DEFAULT_3
100
AcDbLine
62
9
6
PHANTOM
10
-5.2714985582
20
-4.7968274582
11
-5.2553857789
21
-4.7978125192
0
LINE
5
512
100
AcDbEntity
8
0
100
AcDbLine
62
9
6
CONTINUOUS
10
0.2047675050
20
-1.1594265572
11
0.2527841978
21
-1.1630019818
0
LINE
5
513
100
AcDbEntity
8
0
100
AcDbLine
62
9
6
CONTINUOUS
10
-0.2861132311
20
1.0060675841
11
-0.3341299932
21
1.0096429740
0
LINE
5
514
100
AcDbEntity
8
0
100
AcDbLine
62
9
6
CONTINUOUS
10
15.9926808680
20
10.1612943366
11
15.9684012071
21
10.1631147291
0
LINE
5
515
100
AcDbEntity
8
0
100
AcDbLine
62
9
6
CONTINUOUS
10
15.9684012071
20
10.1631147291
11
15.9441835425
21
10.1652715156
0
LINE
5
516
100
AcDbEntity
8
0
100
AcDbLine
62
7
6
CONTINUOUS
10
-0.3426789963
20
1.0855749836
11
-0.3201371935
21
1.0835387983
0
LINE
5
517
100
AcDbEntity
8
0
100
AcDbLine
62
9
6
CONTINUOUS
10
15.9441835425
20
10.1652715156
11
15.9200503398
21
10.1677626955
0
LINE
5
518
100
AcDbEntity
8
0
100
AcDbLine
62
7
6
CONTINUOUS
10
-10.6963274071
20
28.7577010668
11
-10.6806768338
21
28.7559178347
0
LINE
5
519
100
AcDbEntity
8
0
100
AcDbLine
62
9
6
CONTINUOUS
10
15.9200503398
20
10.1677626955
11
15.8960239861
21
10.1705859578
0
LINE
5
51A
100
AcDbEntity
8
0
100
AcDbLine
62
9
6
CONTINUOUS
10
-13.7402752736
20
27.1113113034
11
-13.7233955500
21
27.1092324695
0
LINE
5
51B
100
AcDbEntity
8
0
100
AcDbLine
62
9
6
CONTINUOUS
10
15.8960239861
20
10.1705859578
11
15.8721267693
21
10.1737386835
0
LINE
5
51C
100
AcDbEntity
8
0
100
AcDbLine
62
9
6
CONTINUOUS
10
15.8721267693
20
10.1737386835
11
15.8483808578
21
10.1772179480
0
LINE
5
51D
100
AcDbEntity
8
0
100
AcDbLine
62
7
6
CONTINUOUS
10
-10.6806768338
20
28.7559178347
11
-10.6648854921
21
28.7535050019
0
LINE
5
51E
100
AcDbEntity
8
0
100
AcDbLine
62
9
6
CONTINUOUS
10
-13.7233955500
20
27.1092324695
11
-13.7063575251
21
27.1064543411
0
LINE
5
51F
100
AcDbEntity
8
0
100
AcDbLine
62
7
6
CONTINUOUS
10
-10.6648854921
20
28.7535050019
11
-10.6489380841
21
28.7504600051
0
LINE
5
520
100
AcDbEntity
8
0
100
AcDbLine
62
9
6
CONTINUOUS
10
-13.7063575251
20
27.1064543411
11
-13.6891773542
21
27.1029795526
0
LINE
5
521
100
AcDbEntity
8
0
100
AcDbLine
62
7
6
CONTINUOUS
10
-10.6489380841
20
28.7504600051
11
-10.6328499076
21
28.7467854077
0
LINE
5
522
100
AcDbEntity
8
0
100
AcDbLine
62
7
6
CONTINUOUS
10
20.0977520089
20
13.1635439124
11
20.1085141546
21
13.1429102191
0
LINE
5
523
100
AcDbEntity
8
0
100
AcDbLine
62
7
6
CONTINUOUS
10
20.1085141546
20
13.1429102191
11
20.1188860182
21
13.1221290899
0
LINE
5
524
100
AcDbEntity
8
0
100
AcDbLine
62
9
6
CONTINUOUS
10
16.9663662702
20
11.5138831351
11
16.9556025551
21
11.5360360677
0
LINE
5
525
100
AcDbEntity
8
0
100
AcDbLine
62
7
6
CONTINUOUS
10
20.1188860182
20
13.1221290899
11
20.1288787531
21
13.1011799714
0
LINE
5
526
100
AcDbEntity
8
0
100
AcDbLine
62
9
6
CONTINUOUS
10
16.9767151785
20
11.4915549545
11
16.9663662702
21
11.5138831351
0
LINE
5
527
100
AcDbEntity
8
0
100
AcDbLine
62
7
6
CONTINUOUS
10
20.1288787531
20
13.1011799714
11
20.1384859223
21
13.0800792220
0
LINE
5
528
100
AcDbEntity
8
0
100
AcDbLine
62
9
6
CONTINUOUS
10
16.9866394672
20
11.4690726973
11
16.9767151785
21
11.4915549545
0
LINE
5
529
100
AcDbEntity
8
0
100
AcDbLine
62
7
6
CONTINUOUS
10
20.1384859223
20
13.0800792220
11
20.1477129201
21
13.0588162698
0
LINE
5
52A
100
AcDbEntity
8
0
100
AcDbLine
62
9
6
CONTINUOUS
10
16.9961297263
20
11.4464576811
11
16.9866394672
21
11.4690726973
0
LINE
5
52B
100
AcDbEntity
8
0
100
AcDbLine
62
7
6
CONTINUOUS
10
20.1477129201
20
13.0588162698
11
20.1565543522
21
13.0374016867
0
LINE
5
52C
100
AcDbEntity
8
0
100
AcDbLine
62
9
6
CONTINUOUS
10
17.0051769571
20
11.4237313493
11
16.9961297263
21
11.4464576811
0
LINE
5
52D
100
AcDbEntity
8
0
100
AcDbLine
62
7
6
CONTINUOUS
10
20.1565543522
20
13.0374016867
11
20.1649875990
21
13.0158835456
0
LINE
5
52E
100
AcDbEntity
8
0
100
AcDbLine
62
9
6
CONTINUOUS
10
16.6229788537
20
-25.1191107445
11
16.6275725368
21
-25.1308408866
0
LINE
5
52F
100
AcDbEntity
8
0
100
AcDbLine
62
9
6
CONTINUOUS
10
15.5388412116
20
-25.3429116334
11
15.5485962053
21
-25.3680075538
0
LINE
5
530
100
AcDbEntity
8
0
100
AcDbLine
62
9
6
CONTINUOUS
10
17.0137725811
20
11.4009152507
11
17.0051769571
21
11.4237313493
0
LINE
5
531
100
AcDbEntity
8
0
100
AcDbLine
62
7
6
CONTINUOUS
10
20.1649875990
20
13.0158835456
11
20.1730150196
21
12.9942502883
0
LINE
5
532
100
AcDbEntity
8
0
100
AcDbLine
62
7
6
CONTINUOUS
10
6.3455460939
20
-10.2940595849
11
6.3493139102
21
-10.3044333292
0
LINE
5
533
100
AcDbEntity
8
0
100
AcDbLine
62
7
6
CONTINUOUS
10
0.7185859036
20
0.0602409622
11
0.7298472754
21
0.0290317973
0
LINE
5
534
100
AcDbEntity
8
0
100
AcDbLine
62
9
6
CONTINUOUS
10
0.6945861394
20
0.0041388839
11
0.6705858604
21
0.0708618435
0
LINE
5
535
100
AcDbEntity
8
0
100
AcDbLine
62
9
6
CONTINUOUS
10
16.6186738866
20
-25.1071083990
11
16.6229788537
21
-25.1191107445
0
LINE
5
536
100
AcDbEntity
8
0
100
AcDbLine
62
9
6
CONTINUOUS
10
15.5296983424
20
-25.3172304428
11
15.5388412116
21
-25.3429116334
0
LINE
5
537
100
AcDbEntity
8
0
100
AcDbLine
62
9
6
CONTINUOUS
10
17.0219084481
20
11.3780310195
11
17.0137725811
21
11.4009152507
0
LINE
5
538
100
AcDbEntity
8
0
100
AcDbLine
62
7
6
CONTINUOUS
10
-0.8354244811
20
-0.1945065103
11
-0.8462106476
21
-0.1632328657
0
LINE
5
539
100
AcDbEntity
8
0
100
AcDbLine
62
7
6
CONTINUOUS
10
0.7298472754
20
0.0290317973
11
0.7405535901
21
-0.0022817731
0
LINE
5
53A
100
AcDbEntity
8
0
100
AcDbLine
62
7
6
CONTINUOUS
10
6.3493139102
20
-10.3044333292
11
6.3528059534
21
-10.3147928723
0
LINE
5
53B
100
AcDbEntity
8
0
100
AcDbLine
62
9
6
CONTINUOUS
10
16.6146571067
20
-25.0948343466
11
16.6186738866
21
-25.1071083990
0
LINE
5
53C
100
AcDbEntity
8
0
100
AcDbLine
62
7
6
CONTINUOUS
10
-0.7871565269
20
-0.1708552170
11
-0.8109058190
21
-0.0980180766
0
LINE
5
53D
100
AcDbEntity
8
0
100
AcDbLine
62
7
6
CONTINUOUS
10
-0.8462106476
20
-0.1632328657
11
-0.8564349910
21
-0.1318673467
0
LINE
5
53E
100
AcDbEntity
8
0
100
AcDbLine
62
9
6
CONTINUOUS
10
15.5211731436
20
-25.2909796910
11
15.5296983424
21
-25.3172304428
0
LINE
5
53F
100
AcDbEntity
8
0
100
AcDbLine
62
7
6
CONTINUOUS
10
0.7405535901
20
-0.0022817731
11
0.7507012523
21
-0.0336856327
0
LINE
5
540
100
AcDbEntity
8
0
100
AcDbLine
62
9
6
CONTINUOUS
10
-0.7971821155
20
-0.0902852250
11
-0.7759317737
21
-0.1574978111
0
LINE
5
541
100
AcDbEntity
8
0
100
AcDbLine
62
9
6
CONTINUOUS
10
0.7158364820
20
-0.0630737018
11
0.6945861394
21
0.0041388839
0
LINE
5
542
100
AcDbEntity
8
0
100
AcDbLine
62
7
6
CONTINUOUS
10
6.3528059534
20
-10.3147928723
11
6.3560254323
21
-10.3251399815
0
LINE
5
543
100
AcDbEntity
8
DEFAULT_3
100
AcDbLine
62
9
6
PHANTOM
10
6.1322378274
20
-10.4187446334
11
6.1335042788
21
-10.4228188608
0
LINE
5
544
100
AcDbEntity
8
0
100
AcDbLine
62
7
6
CONTINUOUS
10
-0.8564349910
20
-0.1318673467
11
-0.8660686027
21
-0.1004981912
0
LINE
5
545
100
AcDbEntity
8
DEFAULT_3
100
AcDbLine
62
9
6
PHANTOM
10
6.3572004575
20
-17.5024959328
11
6.3515139776
21
-17.4839835468
0
LINE
5
546
100
AcDbEntity
8
0
100
AcDbLine
62
7
6
CONTINUOUS
10
0.7507012523
20
-0.0336856327
11
0.7602617346
21
-0.0650913529
0
LINE
5
547
100
AcDbEntity
8
DEFAULT_3
100
AcDbLine
62
9
6
PHANTOM
10
-4.7632100332
20
-10.4224644477
11
-4.7738519028
21
-10.3869110063
0
LINE
5
548
100
AcDbEntity
8
0
100
AcDbLine
62
7
6
CONTINUOUS
10
-5.0689901838
20
-10.3974877351
11
-5.0558782593
21
-10.4413966517
0
LINE
5
549
100
AcDbEntity
8
0
100
AcDbLine
62
9
6
CONTINUOUS
10
16.6109358874
20
-25.0823111182
11
16.6146571067
21
-25.0948343466
0
LINE
5
54A
100
AcDbEntity
8
0
100
AcDbLine
62
9
6
CONTINUOUS
10
15.5132709140
20
-25.2641754805
11
15.5211731436
21
-25.2909796910
0
LINE
5
54B
100
AcDbEntity
8
DEFAULT_3
100
AcDbLine
62
9
6
PHANTOM
10
-4.8974712195
20
-10.5881424219
11
-4.9083584935
21
-10.5507953188
0
LINE
5
54C
100
AcDbEntity
8
0
100
AcDbLine
62
7
6
CONTINUOUS
10
-0.8660686027
20
-0.1004981912
11
-0.8751061575
21
-0.0691385227
0
LINE
5
54D
100
AcDbEntity
8
0
100
AcDbLine
62
9
6
CONTINUOUS
10
-14.8268605911
20
25.5507935995
11
-14.8236635649
21
25.5396196654
0
LINE
5
54E
100
AcDbEntity
8
0
100
AcDbLine
62
7
6
CONTINUOUS
10
0.7602617346
20
-0.0650913529
11
0.7692298874
21
-0.0964857225
0
LINE
5
54F
100
AcDbEntity
8
0
100
AcDbLine
62
7
6
CONTINUOUS
10
6.3560254323
20
-10.3251399815
11
6.3589780115
21
-10.3354945326
0
LINE
5
550
100
AcDbEntity
8
0
100
AcDbLine
62
7
6
CONTINUOUS
10
-6.0494487901
20
-11.3218794557
11
-6.0523519533
21
-11.3116423324
0
LINE
5
551
100
AcDbEntity
8
0
100
AcDbLine
62
7
6
CONTINUOUS
10
-0.8109058190
20
-0.0980180766
11
-0.8314500186
21
-0.0249235738
0
LINE
5
552
100
AcDbEntity
8
DEFAULT_3
100
AcDbLine
62
9
6
PHANTOM
10
-5.8510805388
20
-11.3169673666
11
-5.8521694707
21
-11.3129935224
0
LINE
5
553
100
AcDbEntity
8
0
100
AcDbLine
62
9
6
CONTINUOUS
10
-0.8155522963
20
-0.0229413243
11
-0.7971821155
21
-0.0902852250
0
LINE
5
554
100
AcDbEntity
8
0
100
AcDbLine
62
9
6
CONTINUOUS
10
0.7342066638
20
-0.1304176020
11
0.7158364820
21
-0.0630737018
0
LINE
5
555
100
AcDbEntity
8
0
100
AcDbLine
62
7
6
CONTINUOUS
10
-0.8751061575
20
-0.0691385227
11
-0.8835528325
21
-0.0377751438
0
LINE
5
556
100
AcDbEntity
8
0
100
AcDbLine
62
7
6
CONTINUOUS
10
0.7692298874
20
-0.0964857225
11
0.7776110083
21
-0.1278818784
0
LINE
5
557
100
AcDbEntity
8
0
100
AcDbLine
62
7
6
CONTINUOUS
10
-5.0805821820
20
-10.3538213907
11
-5.0689901838
21
-10.3974877351
0
LINE
5
558
100
AcDbEntity
8
0
100
AcDbLine
62
9
6
CONTINUOUS
10
-14.5558166550
20
-10.2296316959
11
-14.5629735882
21
-10.2023491653
0
LINE
5
559
100
AcDbEntity
8
0
100
AcDbLine
62
7
6
CONTINUOUS
10
6.3589780115
20
-10.3354945326
11
6.3616621605
21
-10.3458557233
0
LINE
5
55A
100
AcDbEntity
8
0
100
AcDbLine
62
7
6
CONTINUOUS
10
-6.0523519533
20
-11.3116423324
11
-6.0549803952
21
-11.3014285875
0
LINE
5
55B
100
AcDbEntity
8
DEFAULT_3
100
AcDbLine
62
9
6
PHANTOM
10
-4.7738519028
20
-10.3869110063
11
-4.7826417563
21
-10.3521765126
0
LINE
5
55C
100
AcDbEntity
8
0
100
AcDbLine
62
7
6
CONTINUOUS
10
-14.7964318800
20
-9.9284808982
11
-14.7877982972
21
-9.9627135085
0
LINE
5
55D
100
AcDbEntity
8
0
100
AcDbLine
62
7
6
CONTINUOUS
10
-0.8835528325
20
-0.0377751438
11
-0.8913955001
21
-0.0064568252
0
LINE
5
55E
100
AcDbEntity
8
0
100
AcDbLine
62
7
6
CONTINUOUS
10
0.7776110083
20
-0.1278818784
11
0.7853922132
21
-0.1592309283
0
LINE
5
55F
100
AcDbEntity
8
0
100
AcDbLine
62
9
6
CONTINUOUS
10
-14.8268606155
20
-9.7192961622
11
-14.8236635897
21
-9.7322554305
0
LINE
5
560
100
AcDbEntity
8
0
100
AcDbLine
62
7
6
CONTINUOUS
10
-0.8314500186
20
-0.0249235738
11
-0.8486978854
21
0.0481527046
0
LINE
5
561
100
AcDbEntity
8
0
100
AcDbLine
62
9
6
CONTINUOUS
10
-14.5629735882
20
-10.2023491653
11
-14.5695084640
21
-10.1745412478
0
LINE
5
562
100
AcDbEntity
8
0
100
AcDbLine
62
7
6
CONTINUOUS
10
-5.0906379670
20
-10.3104206312
11
-5.0805821820
21
-10.3538213907
0
LINE
5
563
100
AcDbEntity
8
0
100
AcDbLine
62
7
6
CONTINUOUS
10
-0.8913955001
20
-0.0064568252
11
-0.8986357174
21
0.0248280806
0
LINE
5
564
100
AcDbEntity
8
0
100
AcDbLine
62
7
6
CONTINUOUS
10
-6.0549803952
20
-11.3014285875
11
-6.0573271526
21
-11.2912598356
0
LINE
5
565
100
AcDbEntity
8
DEFAULT_3
100
AcDbLine
62
9
6
PHANTOM
10
-5.9220542006
20
-11.2557095911
11
-5.9163212421
21
-11.2805547253
0
LINE
5
566
100
AcDbEntity
8
0
100
AcDbLine
62
7
6
CONTINUOUS
10
-14.8042164013
20
-9.8937113663
11
-14.7964318800
21
-9.9284808982
0
LINE
5
567
100
AcDbEntity
8
0
100
AcDbLine
62
9
6
CONTINUOUS
10
-14.8293213508
20
25.5619760246
11
-14.8268605911
21
25.5507935995
0
LINE
5
568
100
AcDbEntity
8
DEFAULT_3
100
AcDbLine
62
9
6
PHANTOM
10
-4.9083584935
20
-10.5507953188
11
-4.9164566591
21
-10.5135574688
0
LINE
5
569
100
AcDbEntity
8
DEFAULT_3
100
AcDbLine
62
9
6
PHANTOM
10
-5.8521694707
20
-11.3129935224
11
-5.8529917716
21
-11.3091097895
0
LINE
5
56A
100
AcDbEntity
8
0
100
AcDbLine
62
9
6
CONTINUOUS
10
-14.5695084640
20
-10.1745412478
11
-14.5754173292
21
-10.1462250258
0
LINE
5
56B
100
AcDbEntity
8
DEFAULT_3
100
AcDbLine
62
9
6
PHANTOM
10
-4.7826417563
20
-10.3521765126
11
-4.7895682395
21
-10.3186251576
0
LINE
5
56C
100
AcDbEntity
8
DEFAULT_3
100
AcDbLine
62
9
6
PHANTOM
10
-6.1698853775
20
-4.2385757976
11
-6.1671452448
21
-4.2519882811
0
LINE
5
56D
100
AcDbEntity
8
0
100
AcDbLine
62
7
6
CONTINUOUS
10
-6.0573271526
20
-11.2912598356
11
-6.0593895365
21
-11.2811459407
0
LINE
5
56E
100
AcDbEntity
8
DEFAULT_3
100
AcDbLine
62
9
6
PHANTOM
10
-5.9268176276
20
-11.2166119487
11
-5.9240643441
21
-11.2304076079
0
LINE
5
56F
100
AcDbEntity
8
0
100
AcDbLine
62
7
6
CONTINUOUS
10
-14.8111384779
20
-9.8584136942
11
-14.8042164013
21
-9.8937113663
0
LINE
5
570
100
AcDbEntity
8
0
100
AcDbLine
62
9
6
CONTINUOUS
10
-14.8293213747
20
-9.7062609230
11
-14.8268606155
21
-9.7192961622
0
LINE
5
571
100
AcDbEntity
8
0
100
AcDbLine
62
9
6
CONTINUOUS
10
-14.5754173292
20
-10.1462250258
11
-14.5806965357
21
-10.1174179359
0
LINE
5
572
100
AcDbEntity
8
0
100
AcDbLine
62
7
6
CONTINUOUS
10
-14.8171840177
20
-9.8226000507
11
-14.8111384779
21
-9.8584136942
0
LINE
5
573
100
AcDbEntity
8
0
100
AcDbLine
62
7
6
CONTINUOUS
10
-14.8299184566
20
-9.7122782061
11
-14.8265860096
21
-9.7495229440
0
LINE
5
574
100
AcDbEntity
8
0
100
AcDbLine
62
9
6
CONTINUOUS
10
-14.5927258951
20
-10.0282286193
11
-14.5954580906
21
-9.9976367290
0
LINE
5
575
100
AcDbEntity
8
0
100
AcDbLine
62
9
6
CONTINUOUS
10
-14.8320256248
20
25.5843248559
11
-14.8310435612
21
25.5731565672
0
LINE
5
576
100
AcDbEntity
8
0
100
AcDbLine
62
9
6
CONTINUOUS
10
-14.8319084207
20
-9.6822950150
11
-14.8310435847
21
-9.6931618050
0
LINE
5
577
100
AcDbEntity
8
0
100
AcDbLine
62
9
6
CONTINUOUS
10
16.9857214065
20
-25.3197507067
11
16.9979378449
21
-25.3168806952
0
LINE
5
578
100
AcDbEntity
8
0
100
AcDbLine
62
9
6
CONTINUOUS
10
16.3037229838
20
-25.0676990658
11
16.2806793715
21
-25.0728823343
0
LINE
5
579
100
AcDbEntity
8
0
100
AcDbLine
62
7
6
CONTINUOUS
10
16.5737353427
20
-25.8191689459
11
16.6067492538
21
-25.8122510071
0
LINE
5
57A
100
AcDbEntity
8
0
100
AcDbLine
62
9
6
CONTINUOUS
10
16.2806793715
20
-25.0728823343
11
16.2574080713
21
-25.0776933550
0
LINE
5
57B
100
AcDbEntity
8
0
100
AcDbLine
62
9
6
CONTINUOUS
10
16.9735783960
20
-25.3222245451
11
16.9857214065
21
-25.3197507067
0
LINE
5
57C
100
AcDbEntity
8
0
100
AcDbLine
62
9
6
CONTINUOUS
10
16.2574080713
20
-25.0776933550
11
16.2339306708
21
-25.0821276648
0
LINE
5
57D
100
AcDbEntity
8
0
100
AcDbLine
62
7
6
CONTINUOUS
10
16.5407996592
20
-25.8251186272
11
16.5737353427
21
-25.8191689459
0
LINE
5
57E
100
AcDbEntity
8
DEFAULT_3
100
AcDbLine
62
9
6
PHANTOM
10
6.5702818296
20
-17.5936176221
11
6.5950919582
21
-17.5892322072
0
LINE
5
57F
100
AcDbEntity
8
0
100
AcDbLine
62
9
6
CONTINUOUS
10
16.9615089637
20
-25.3243014754
11
16.9735783960
21
-25.3222245451
0
LINE
5
580
100
AcDbEntity
8
0
100
AcDbLine
62
9
6
CONTINUOUS
10
16.2339306708
20
-25.0821276648
11
16.2102689487
21
-25.0861811503
0
LINE
5
581
100
AcDbEntity
8
0
100
AcDbLine
62
7
6
CONTINUOUS
10
6.5229930521
20
-17.7406877310
11
6.5162490793
21
-17.7417978605
0
LINE
5
582
100
AcDbEntity
8
0
100
AcDbLine
62
9
6
CONTINUOUS
10
16.2102689487
20
-25.0861811503
11
16.1864448548
21
-25.0898500512
0
LINE
5
583
100
AcDbEntity
8
0
100
AcDbLine
62
7
6
CONTINUOUS
10
16.5079627401
20
-25.8301083634
11
16.5407996592
21
-25.8251186272
0
LINE
5
584
100
AcDbEntity
8
DEFAULT_3
100
AcDbLine
62
9
6
PHANTOM
10
-5.1810685710
20
-9.7329212173
11
-5.1969677227
21
-9.7352780574
0
LINE
5
585
100
AcDbEntity
8
DEFAULT_3
100
AcDbLine
62
9
6
PHANTOM
10
6.6130669634
20
-17.4454760679
11
6.5948514347
21
-17.4481573378
0
LINE
5
586
100
AcDbEntity
8
0
100
AcDbLine
62
9
6
CONTINUOUS
10
16.9495129593
20
-25.3259822325
11
16.9615089637
21
-25.3243014754
0
LINE
5
587
100
AcDbEntity
8
DEFAULT_3
100
AcDbLine
62
9
6
PHANTOM
10
-6.0801474906
20
-4.2937273117
11
-6.0774461801
21
-4.2933783055
0
LINE
5
588
100
AcDbEntity
8
DEFAULT_3
100
AcDbLine
62
9
6
PHANTOM
10
6.3738148543
20
-10.4682266177
11
6.3518168921
21
-10.4710235735
0
LINE
5
589
100
AcDbEntity
8
DEFAULT_3
100
AcDbLine
62
9
6
PHANTOM
10
6.3630837524
20
-17.4457763340
11
6.3604216980
21
-17.4461036961
0
LINE
5
58A
100
AcDbEntity
8
0
100
AcDbLine
62
7
6
CONTINUOUS
10
-6.2077575773
20
-3.9113702335
11
-6.2007687098
21
-3.9105842415
0
LINE
5
58B
100
AcDbEntity
8
DEFAULT_3
100
AcDbLine
62
9
6
PHANTOM
10
-5.1649581228
20
-9.7311161761
11
-5.1810685710
21
-9.7329212173
0
LINE
5
58C
100
AcDbEntity
8
DEFAULT_3
100
AcDbLine
62
9
6
PHANTOM
10
-5.3528881191
20
-4.8002936482
11
-5.3367776709
21
-4.7984886071
0
LINE
5
58D
100
AcDbEntity
8
0
100
AcDbLine
62
7
6
CONTINUOUS
10
6.5162490793
20
-17.7417978605
11
6.5093644444
21
-17.7425226052
0
LINE
5
58E
100
AcDbEntity
8
0
100
AcDbLine
62
9
6
CONTINUOUS
10
0.2996567169
20
-1.1624185502
11
0.3452832904
21
-1.1576721988
0
LINE
5
58F
100
AcDbEntity
8
0
100
AcDbLine
62
9
6
CONTINUOUS
10
-0.3810024923
20
1.0090595524
11
-0.4266290031
21
1.0043132323
0
LINE
5
590
100
AcDbEntity
8
DEFAULT_3
100
AcDbLine
62
9
6
PHANTOM
10
-5.3706089830
20
-9.6447854419
11
-5.3477230380
21
-9.6424151593
0
LINE
5
591
100
AcDbEntity
8
0
100
AcDbLine
62
7
6
CONTINUOUS
10
-0.4519442915
20
1.0831046955
11
-0.4306073479
21
1.0852854189
0
LINE
5
592
100
AcDbEntity
8
0
100
AcDbLine
62
7
6
CONTINUOUS
10
0.3484994483
20
-1.2475132272
11
0.3272407352
21
-1.2496548353
0
LINE
5
593
100
AcDbEntity
8
0
100
AcDbLine
62
9
6
CONTINUOUS
10
16.2574080690
20
10.1637296131
11
16.2339306682
21
10.1618076138
0
LINE
5
594
100
AcDbEntity
8
DEFAULT_3
100
AcDbLine
62
9
6
PHANTOM
10
-5.1486390505
20
-9.7298559548
11
-5.1649581228
21
-9.7311161761
0
LINE
5
595
100
AcDbEntity
8
DEFAULT_3
100
AcDbLine
62
9
6
PHANTOM
10
-5.3367776709
20
-4.7984886071
11
-5.3204585986
21
-4.7972283857
0
LINE
5
596
100
AcDbEntity
8
0
100
AcDbLine
62
7
6
CONTINUOUS
10
0.4073901864
20
-1.2132099065
11
0.3580308546
21
-1.2169311918
0
LINE
5
597
100
AcDbEntity
8
DEFAULT_3
100
AcDbLine
62
9
6
PHANTOM
10
6.3518168921
20
-10.4710235735
11
6.3257979938
21
-10.4728854468
0
LINE
5
598
100
AcDbEntity
8
0
100
AcDbLine
62
9
6
CONTINUOUS
10
16.2339306682
20
10.1618076138
11
16.2102689458
21
10.1602232212
0
LINE
5
599
100
AcDbEntity
8
0
100
AcDbLine
62
7
6
CONTINUOUS
10
-0.4306073479
20
1.0852854189
11
-0.4089940031
21
1.0866220905
0
LINE
5
59A
100
AcDbEntity
8
0
100
AcDbLine
62
7
6
CONTINUOUS
10
0.3272407352
20
-1.2496548353
11
0.3057022685
21
-1.2509540678
0
LINE
5
59B
100
AcDbEntity
8
0
100
AcDbLine
62
7
6
CONTINUOUS
10
-6.2007687098
20
-3.9105842415
11
-6.1936692059
21
-3.9101874479
0
LINE
5
59C
100
AcDbEntity
8
0
100
AcDbLine
62
9
6
CONTINUOUS
10
16.2102689458
20
10.1602232212
11
16.1864448516
21
10.1589779049
0
LINE
5
59D
100
AcDbEntity
8
0
100
AcDbLine
62
9
6
CONTINUOUS
10
16.1864448516
20
10.1589779049
11
16.1624804859
21
10.1580728203
0
LINE
5
59E
100
AcDbEntity
8
0
100
AcDbLine
62
9
6
CONTINUOUS
10
16.1624804859
20
10.1580728203
11
16.1383980794
21
10.1575088068
0
LINE
5
59F
100
AcDbEntity
8
0
100
AcDbLine
62
7
6
CONTINUOUS
10
-0.4089940031
20
1.0866220905
11
-0.3871074723
21
1.0871165945
0
LINE
5
5A0
100
AcDbEntity
8
0
100
AcDbLine
62
9
6
CONTINUOUS
10
16.1383980794
20
10.1575088068
11
16.1142199718
21
10.1572863877
0
LINE
5
5A1
100
AcDbEntity
8
0
100
AcDbLine
62
9
6
CONTINUOUS
10
-13.7898054251
20
27.1133356532
11
-13.7734959609
21
27.1133638683
0
LINE
5
5A2
100
AcDbEntity
8
0
100
AcDbLine
62
9
6
CONTINUOUS
10
16.1142199718
20
10.1572863877
11
16.0899685922
21
10.1574057694
0
LINE
5
5A3
100
AcDbEntity
8
0
100
AcDbLine
62
9
6
CONTINUOUS
10
16.0899685922
20
10.1574057694
11
16.0656664371
21
10.1578668410
0
LINE
5
5A4
100
AcDbEntity
8
0
100
AcDbLine
62
7
6
CONTINUOUS
10
-10.7271999241
20
28.7593779503
11
-10.7118305017
21
28.7588540701
0
LINE
5
5A5
100
AcDbEntity
8
0
100
AcDbLine
62
9
6
CONTINUOUS
10
-13.7734959609
20
27.1133638683
11
-13.7569806905
21
27.1126888717
0
LINE
5
5A6
100
AcDbEntity
8
0
100
AcDbLine
62
7
6
CONTINUOUS
10
-10.7118305017
20
28.7588540701
11
-10.6963274071
21
28.7577010668
0
LINE
5
5A7
100
AcDbEntity
8
0
100
AcDbLine
62
9
6
CONTINUOUS
10
-13.7569806905
20
27.1126888717
11
-13.7402752736
21
27.1113113034
0
LINE
5
5A8
100
AcDbEntity
8
0
100
AcDbLine
62
7
6
CONTINUOUS
10
20.1730150196
20
12.9942502883
11
20.1806342548
21
12.9725134731
0
LINE
5
5A9
100
AcDbEntity
8
0
100
AcDbLine
62
9
6
CONTINUOUS
10
17.0295768435
20
11.3551003543
11
17.0219084481
21
11.3780310195
0
LINE
5
5AA
100
AcDbEntity
8
0
100
AcDbLine
62
7
6
CONTINUOUS
10
20.1806342548
20
12.9725134731
11
20.1878156076
21
12.9507558483
0
LINE
5
5AB
100
AcDbEntity
8
0
100
AcDbLine
62
9
6
CONTINUOUS
10
17.0367704964
20
11.3321449978
11
17.0295768435
21
11.3551003543
0
LINE
5
5AC
100
AcDbEntity
8
0
100
AcDbLine
62
7
6
CONTINUOUS
10
20.1878156076
20
12.9507558483
11
20.1945546903
21
12.9289824953
0
LINE
5
5AD
100
AcDbEntity
8
0
100
AcDbLine
62
9
6
CONTINUOUS
10
17.0434825858
20
11.3091867161
11
17.0367704964
21
11.3321449978
0
LINE
5
5AE
100
AcDbEntity
8
0
100
AcDbLine
62
7
6
CONTINUOUS
10
20.1945546903
20
12.9289824953
11
20.2008558906
21
12.9071883328
0
LINE
5
5AF
100
AcDbEntity
8
0
100
AcDbLine
62
9
6
CONTINUOUS
10
17.0497067473
20
11.2862472781
11
17.0434825858
21
11.3091867161
0
LINE
5
5B0
100
AcDbEntity
8
0
100
AcDbLine
62
7
6
CONTINUOUS
10
20.2008558906
20
12.9071883328
11
20.2067026737
21
12.8854408644
0
LINE
5
5B1
100
AcDbEntity
8
0
100
AcDbLine
62
9
6
CONTINUOUS
10
16.6075107697
20
-25.0695382391
11
16.6109358874
21
-25.0823111182
0
LINE
5
5B2
100
AcDbEntity
8
0
100
AcDbLine
62
9
6
CONTINUOUS
10
15.5059964581
20
-25.2368341885
11
15.5132709140
21
-25.2641754805
0
LINE
5
5B3
100
AcDbEntity
8
DEFAULT_3
100
AcDbLine
62
9
6
PHANTOM
10
6.1335042788
20
-10.4228188608
11
6.1345126158
21
-10.4268371415
0
LINE
5
5B4
100
AcDbEntity
8
0
100
AcDbLine
62
9
6
CONTINUOUS
10
17.0554370791
20
11.2633484348
11
17.0497067473
21
11.2862472781
0
LINE
5
5B5
100
AcDbEntity
8
0
100
AcDbLine
62
7
6
CONTINUOUS
10
20.2067026737
20
12.8854408644
11
20.2120902736
21
12.8637593989
0
LINE
5
5B6
100
AcDbEntity
8
0
100
AcDbLine
62
9
6
CONTINUOUS
10
16.6043812125
20
-25.0565161840
11
16.6075107697
21
-25.0695382391
0
LINE
5
5B7
100
AcDbEntity
8
0
100
AcDbLine
62
9
6
CONTINUOUS
10
15.4993541994
20
-25.2089725795
11
15.5059964581
21
-25.2368341885
0
LINE
5
5B8
100
AcDbEntity
8
0
100
AcDbLine
62
7
6
CONTINUOUS
10
6.3616621605
20
-10.3458557233
11
6.3640691776
21
-10.3561949567
0
LINE
5
5B9
100
AcDbEntity
8
0
100
AcDbLine
62
7
6
CONTINUOUS
10
0.7853922132
20
-0.1592309283
11
0.7925751698
21
-0.1905444645
0
LINE
5
5BA
100
AcDbEntity
8
0
100
AcDbLine
62
9
6
CONTINUOUS
10
-0.8309286281
20
0.0441170627
11
-0.8155522963
21
-0.0229413243
0
LINE
5
5BB
100
AcDbEntity
8
0
100
AcDbLine
62
9
6
CONTINUOUS
10
0.7495829964
20
-0.1974759886
11
0.7342066638
21
-0.1304176020
0
LINE
5
5BC
100
AcDbEntity
8
0
100
AcDbLine
62
9
6
CONTINUOUS
10
17.0606681479
20
11.2405118987
11
17.0554370791
21
11.2633484348
0
LINE
5
5BD
100
AcDbEntity
8
0
100
AcDbLine
62
9
6
CONTINUOUS
10
16.6015529661
20
-25.0432689082
11
16.6043812125
21
-25.0565161840
0
LINE
5
5BE
100
AcDbEntity
8
0
100
AcDbLine
62
7
6
CONTINUOUS
10
-0.8986357174
20
0.0248280806
11
-0.9052717928
21
0.0560679929
0
LINE
5
5BF
100
AcDbEntity
8
0
100
AcDbLine
62
9
6
CONTINUOUS
10
15.4933482906
20
-25.1806078357
11
15.4993541994
21
-25.2089725795
0
LINE
5
5C0
100
AcDbEntity
8
0
100
AcDbLine
62
7
6
CONTINUOUS
10
0.7925751698
20
-0.1905444645
11
0.7991583447
21
-0.2218108271
0
LINE
5
5C1
100
AcDbEntity
8
0
100
AcDbLine
62
7
6
CONTINUOUS
10
6.3640691776
20
-10.3561949567
11
6.3661924404
21
-10.3664904001
0
LINE
5
5C2
100
AcDbEntity
8
0
100
AcDbLine
62
7
6
CONTINUOUS
10
-5.0991738257
20
-10.2672624440
11
-5.0906379670
21
-10.3104206312
0
LINE
5
5C3
100
AcDbEntity
8
0
100
AcDbLine
62
7
6
CONTINUOUS
10
-0.9052717928
20
0.0560679929
11
-0.9112857555
21
0.0871792836
0
LINE
5
5C4
100
AcDbEntity
8
DEFAULT_3
100
AcDbLine
62
9
6
PHANTOM
10
-5.8107228111
20
-11.4028646079
11
-5.8145719494
21
-11.3828272071
0
LINE
5
5C5
100
AcDbEntity
8
DEFAULT_3
100
AcDbLine
62
9
6
PHANTOM
10
6.3515139776
20
-17.4839835468
11
6.3476647368
21
-17.4639458844
0
LINE
5
5C6
100
AcDbEntity
8
0
100
AcDbLine
62
7
6
CONTINUOUS
10
0.7991583447
20
-0.2218108271
11
0.8051240230
21
-0.2529462599
0
LINE
5
5C7
100
AcDbEntity
8
0
100
AcDbLine
62
7
6
CONTINUOUS
10
-0.8486978854
20
0.0481527046
11
-0.8625711432
21
0.1209501306
0
LINE
5
5C8
100
AcDbEntity
8
DEFAULT_3
100
AcDbLine
62
9
6
PHANTOM
10
6.1345126158
20
-10.4268371415
11
6.1352533903
21
-10.4307658244
0
LINE
5
5C9
100
AcDbEntity
8
0
100
AcDbLine
62
9
6
CONTINUOUS
10
16.5990265708
20
-25.0297957519
11
16.6015529661
21
-25.0432689082
0
LINE
5
5CA
100
AcDbEntity
8
0
100
AcDbLine
62
9
6
CONTINUOUS
10
15.4879824005
20
-25.1517574040
11
15.4933482906
21
-25.1806078357
0
LINE
5
5CB
100
AcDbEntity
8
0
100
AcDbLine
62
9
6
CONTINUOUS
10
-0.8432454717
20
0.1105279511
11
-0.8309286281
21
0.0441170627
0
LINE
5
5CC
100
AcDbEntity
8
0
100
AcDbLine
62
9
6
CONTINUOUS
10
0.7618998405
20
-0.2638868768
11
0.7495829964
21
-0.1974759886
0
LINE
5
5CD
100
AcDbEntity
8
0
100
AcDbLine
62
7
6
CONTINUOUS
10
6.3661924404
20
-10.3664904001
11
6.3680296112
21
-10.3767319661
0
LINE
5
5CE
100
AcDbEntity
8
0
100
AcDbLine
62
7
6
CONTINUOUS
10
-6.0593895365
20
-11.2811459407
11
-6.0611632535
21
-11.2711060682
0
LINE
5
5CF
100
AcDbEntity
8
0
100
AcDbLine
62
7
6
CONTINUOUS
10
-0.9112857555
20
0.0871792836
11
-0.9166743283
21
0.1181521539
0
LINE
5
5D0
100
AcDbEntity
8
0
100
AcDbLine
62
7
6
CONTINUOUS
10
0.8051240230
20
-0.2529462599
11
0.8104690351
21
-0.2839409106
0
LINE
5
5D1
100
AcDbEntity
8
0
100
AcDbLine
62
7
6
CONTINUOUS
10
-5.1061383891
20
-10.2246120178
11
-5.0991738257
21
-10.2672624440
0
LINE
5
5D2
100
AcDbEntity
8
DEFAULT_3
100
AcDbLine
62
9
6
PHANTOM
10
-4.7895682395
20
-10.3186251576
11
-4.7946775983
21
-10.2865265723
0
LINE
5
5D3
100
AcDbEntity
8
0
100
AcDbLine
62
9
6
CONTINUOUS
10
-14.5806965357
20
-10.1174179359
11
-14.5853428314
21
-10.0881375848
0
LINE
5
5D4
100
AcDbEntity
8
DEFAULT_3
100
AcDbLine
62
9
6
PHANTOM
10
-5.5279859378
20
-9.7666487210
11
-5.5300675390
21
-9.7534185368
0
LINE
5
5D5
100
AcDbEntity
8
0
100
AcDbLine
62
7
6
CONTINUOUS
10
-0.9166743283
20
0.1181521539
11
-0.9214406939
21
0.1489964492
0
LINE
5
5D6
100
AcDbEntity
8
0
100
AcDbLine
62
9
6
CONTINUOUS
10
-14.8310435612
20
25.5731565672
11
-14.8293213508
21
25.5619760246
0
LINE
5
5D7
100
AcDbEntity
8
0
100
AcDbLine
62
7
6
CONTINUOUS
10
0.8104690351
20
-0.2839409106
11
0.8151966449
21
-0.3148045837
0
LINE
5
5D8
100
AcDbEntity
8
0
100
AcDbLine
62
7
6
CONTINUOUS
10
-6.0611632535
20
-11.2711060682
11
-6.0626419631
21
-11.2611750695
0
LINE
5
5D9
100
AcDbEntity
8
DEFAULT_3
100
AcDbLine
62
9
6
PHANTOM
10
-5.8529917716
20
-11.3091097895
11
-5.8535575524
21
-11.3052828823
0
LINE
5
5DA
100
AcDbEntity
8
DEFAULT_3
100
AcDbLine
62
9
6
PHANTOM
10
-5.9257599123
20
-11.2304065745
11
-5.9220542006
21
-11.2557095911
0
LINE
5
5DB
100
AcDbEntity
8
DEFAULT_3
100
AcDbLine
62
9
6
PHANTOM
10
-4.9164566591
20
-10.5135574688
11
-4.9218927117
21
-10.4760041218
0
LINE
5
5DC
100
AcDbEntity
8
0
100
AcDbLine
62
7
6
CONTINUOUS
10
-0.8625711432
20
0.1209501306
11
-0.8730012694
21
0.1932248911
0
LINE
5
5DD
100
AcDbEntity
8
0
100
AcDbLine
62
7
6
CONTINUOUS
10
-14.8223374246
20
-9.7862984701
11
-14.8171840177
21
-9.8226000507
0
LINE
5
5DE
100
AcDbEntity
8
0
100
AcDbLine
62
9
6
CONTINUOUS
10
-0.8524936679
20
0.1761478461
11
-0.8432454717
21
0.1105279511
0
LINE
5
5DF
100
AcDbEntity
8
0
100
AcDbLine
62
9
6
CONTINUOUS
10
0.7711480368
20
-0.3295067718
11
0.7618998405
21
-0.2638868768
0
LINE
5
5E0
100
AcDbEntity
8
0
100
AcDbLine
62
9
6
CONTINUOUS
10
-14.5853428314
20
-10.0881375848
11
-14.5893534361
21
-10.0584017558
0
LINE
5
5E1
100
AcDbEntity
8
0
100
AcDbLine
62
7
6
CONTINUOUS
10
-0.9214406939
20
0.1489964492
11
-0.9255766037
21
0.1796579916
0
LINE
5
5E2
100
AcDbEntity
8
0
100
AcDbLine
62
9
6
CONTINUOUS
10
-14.8310435847
20
-9.6931618050
11
-14.8293213747
21
-9.7062609230
0
LINE
5
5E3
100
AcDbEntity
8
0
100
AcDbLine
62
7
6
CONTINUOUS
10
-5.1115145341
20
-10.1825577490
11
-5.1061383891
21
-10.2246120178
0
LINE
5
5E4
100
AcDbEntity
8
0
100
AcDbLine
62
7
6
CONTINUOUS
10
-6.0626419631
20
-11.2611750695
11
-6.0638241639
21
-11.2513732717
0
LINE
5
5E5
100
AcDbEntity
8
0
100
AcDbLine
62
7
6
CONTINUOUS
10
-14.8265860096
20
-9.7495229440
11
-14.8223374246
21
-9.7862984701
0
LINE
5
5E6
100
AcDbEntity
8
0
100
AcDbLine
62
9
6
CONTINUOUS
10
-14.5893534361
20
-10.0584017558
11
-14.5927258951
21
-10.0282286193
0
LINE
5
5E7
100
AcDbEntity
8
DEFAULT_3
100
AcDbLine
62
9
6
PHANTOM
10
-4.7946775983
20
-10.2865265723
11
-4.7980558673
21
-10.2560410472
0
LINE
5
5E8
100
AcDbEntity
8
0
100
AcDbLine
62
7
6
CONTINUOUS
10
-0.8730012694
20
0.1932248911
11
-0.8799211788
21
0.2646899628
0
LINE
5
5E9
100
AcDbEntity
8
0
100
AcDbLine
62
7
6
CONTINUOUS
10
6.3708282979
20
-10.3969600952
11
6.3717830232
21
-10.4068908898
0
LINE
5
5EA
100
AcDbEntity
8
0
100
AcDbLine
62
9
6
CONTINUOUS
10
-0.8586602653
20
0.2408873722
11
-0.8524936679
21
0.1761478461
0
LINE
5
5EB
100
AcDbEntity
8
0
100
AcDbLine
62
9
6
CONTINUOUS
10
0.7773146334
20
-0.3942462983
11
0.7711480368
21
-0.3295067718
0
LINE
5
5EC
100
AcDbEntity
8
0
100
AcDbLine
62
7
6
CONTINUOUS
10
-0.9290816866
20
0.2101437784
11
-0.9319562421
21
0.2404468475
0
LINE
5
5ED
100
AcDbEntity
8
0
100
AcDbLine
62
7
6
CONTINUOUS
10
0.8227750589
20
-0.3759832023
11
0.8256259347
21
-0.4062981113
0
LINE
5
5EE
100
AcDbEntity
8
DEFAULT_3
100
AcDbLine
62
9
6
PHANTOM
10
-5.8145719494
20
-11.3828272071
11
-5.8165424675
21
-11.3614803148
0
LINE
5
5EF
100
AcDbEntity
8
DEFAULT_3
100
AcDbLine
62
9
6
PHANTOM
10
6.3476647368
20
-17.4639458844
11
6.3456941689
21
-17.4425986330
0
LINE
5
5F0
100
AcDbEntity
8
0
100
AcDbLine
62
7
6
CONTINUOUS
10
-6.0638241639
20
-11.2513732717
11
-6.0647111560
21
-11.2417070797
0
LINE
5
5F1
100
AcDbEntity
8
0
100
AcDbLine
62
7
6
CONTINUOUS
10
-5.1153193838
20
-10.1410112413
11
-5.1115145341
21
-10.1825577490
0
LINE
5
5F2
100
AcDbEntity
8
DEFAULT_3
100
AcDbLine
62
9
6
PHANTOM
10
-5.8535575524
20
-11.3052828823
11
-5.8538668107
21
-11.3015127994
0
LINE
5
5F3
100
AcDbEntity
8
DEFAULT_3
100
AcDbLine
62
9
6
PHANTOM
10
-5.9270864171
20
-11.2128861685
11
-5.9257599123
21
-11.2304065745
0
LINE
5
5F4
100
AcDbEntity
8
0
100
AcDbLine
62
7
6
CONTINUOUS
10
-0.9319562421
20
0.2404468475
11
-0.9341930609
21
0.2704920656
0
LINE
5
5F5
100
AcDbEntity
8
0
100
AcDbLine
62
7
6
CONTINUOUS
10
0.8256259347
20
-0.4062981113
11
0.8278442832
21
-0.4363525645
0
LINE
5
5F6
100
AcDbEntity
8
DEFAULT_3
100
AcDbLine
62
9
6
PHANTOM
10
-4.9218927117
20
-10.4760041218
11
-4.9246108612
21
-10.4380982520
0
LINE
5
5F7
100
AcDbEntity
8
0
100
AcDbLine
62
9
6
CONTINUOUS
10
-14.5954580906
20
-9.9976367290
11
-14.5975483301
21
-9.9666448361
0
LINE
5
5F8
100
AcDbEntity
8
0
100
AcDbLine
62
7
6
CONTINUOUS
10
6.3717830232
20
-10.4068908898
11
6.3724427348
21
-10.4166859572
0
LINE
5
5F9
100
AcDbEntity
8
0
100
AcDbLine
62
7
6
CONTINUOUS
10
-14.8319084071
20
-9.6822950143
11
-14.8299184566
21
-9.7122782061
0
LINE
5
5FA
100
AcDbEntity
8
DEFAULT_3
100
AcDbLine
62
9
6
PHANTOM
10
-6.1702124643
20
-4.2333470030
11
-6.1698853775
21
-4.2385757976
0
LINE
5
5FB
100
AcDbEntity
8
0
100
AcDbLine
62
7
6
CONTINUOUS
10
-6.0647111560
20
-11.2417070797
11
-6.0653032600
21
-11.2321894899
0
LINE
5
5FC
100
AcDbEntity
8
DEFAULT_3
100
AcDbLine
62
9
6
PHANTOM
10
-4.7980558673
20
-10.2560410472
11
-4.7998009930
21
-10.2273490634
0
LINE
5
5FD
100
AcDbEntity
8
0
100
AcDbLine
62
7
6
CONTINUOUS
10
-14.8835268344
20
-8.7369690087
11
-14.8319086377
21
-9.6822911548
0
LINE
5
5FE
100
AcDbEntity
8
0
100
AcDbLine
62
9
6
CONTINUOUS
10
-14.5975483301
20
-9.9666448361
11
-14.6495240073
21
-9.0146217820
0
LINE
5
5FF
100
AcDbEntity
8
0
100
AcDbLine
62
7
6
CONTINUOUS
10
-5.1175529381
20
-10.0999724946
11
-5.1153193838
21
-10.1410112413
0
LINE
5
600
100
AcDbEntity
8
0
100
AcDbLine
62
7
6
CONTINUOUS
10
-0.9341930609
20
0.2704920656
11
-0.9357897378
21
0.3002543891
0
LINE
5
601
100
AcDbEntity
8
0
100
AcDbLine
62
7
6
CONTINUOUS
10
0.8278442832
20
-0.4363525645
11
0.8294277399
21
-0.4661214981
0
LINE
5
602
100
AcDbEntity
8
0
100
AcDbLine
62
7
6
CONTINUOUS
10
-14.9325733774
20
-7.7828188777
11
-14.8835268344
21
-8.7369690087
0
LINE
5
603
100
AcDbEntity
8
0
100
AcDbLine
62
9
6
CONTINUOUS
10
-14.6495240073
20
-9.0146217820
11
-14.6985336274
21
-8.0608254967
0
LINE
5
604
100
AcDbEntity
8
0
100
AcDbLine
62
7
6
CONTINUOUS
10
-14.9786505186
20
-6.8269186758
11
-14.9325733774
21
-7.7828188777
0
LINE
5
605
100
AcDbEntity
8
0
100
AcDbLine
62
9
6
CONTINUOUS
10
-14.6985336274
20
-8.0608254967
11
-14.7445764793
21
-7.1052695873
0
LINE
5
606
100
AcDbEntity
8
0
100
AcDbLine
62
9
6
CONTINUOUS
10
-0.8617126687
20
0.3046104139
11
-0.8586602653
21
0.2408873722
0
LINE
5
607
100
AcDbEntity
8
0
100
AcDbLine
62
9
6
CONTINUOUS
10
0.7803670344
20
-0.4579693411
11
0.7773146334
21
-0.3942462983
0
LINE
5
608
100
AcDbEntity
8
0
100
AcDbLine
62
7
6
CONTINUOUS
10
-0.8799211788
20
0.2646899628
11
-0.8832764626
21
0.3350378394
0
LINE
5
609
100
AcDbEntity
8
0
100
AcDbLine
62
7
6
CONTINUOUS
10
-6.0653032600
20
-11.2321894899
11
-6.1014110072
21
-10.4422525590
0
LINE
5
60A
100
AcDbEntity
8
0
100
AcDbLine
62
7
6
CONTINUOUS
10
-15.0217575581
20
-5.8692836644
11
-14.9786505186
21
-6.8269186758
0
LINE
5
60B
100
AcDbEntity
8
DEFAULT_3
100
AcDbLine
62
9
6
PHANTOM
10
-5.9619387451
20
-10.4416863322
11
-5.9270934357
21
-11.2128420598
0
LINE
5
60C
100
AcDbEntity
8
DEFAULT_3
100
AcDbLine
62
9
6
PHANTOM
10
-5.8538668107
20
-11.3015127994
11
-5.8887126258
21
-10.5303453532
0
LINE
5
60D
100
AcDbEntity
8
0
100
AcDbLine
62
9
6
CONTINUOUS
10
-14.7445764793
20
-7.1052695873
11
-14.7876518849
21
-6.1479676930
0
LINE
5
60E
100
AcDbEntity
8
0
100
AcDbLine
62
7
6
CONTINUOUS
10
-5.3843832959
20
-4.6978544365
11
-5.1943981664
21
-9.0972294436
0
LINE
5
60F
100
AcDbEntity
8
0
100
AcDbLine
62
7
6
CONTINUOUS
10
-6.1014110072
20
-10.4422525590
11
-6.1354469984
21
-9.6511795108
0
LINE
5
610
100
AcDbEntity
8
DEFAULT_3
100
AcDbLine
62
9
6
PHANTOM
10
-5.9948266553
20
-9.6694280114
11
-5.9619387451
21
-10.4416863322
0
LINE
5
611
100
AcDbEntity
8
DEFAULT_3
100
AcDbLine
62
9
6
PHANTOM
10
-5.8887126258
20
-10.5303453532
11
-5.9216007237
21
-9.7580812413
0
LINE
5
612
100
AcDbEntity
8
0
100
AcDbLine
62
7
6
CONTINUOUS
10
-15.0618939925
20
-4.9099271305
11
-15.0217575581
21
-5.8692836644
0
LINE
5
613
100
AcDbEntity
8
0
100
AcDbLine
62
9
6
CONTINUOUS
10
-14.7876518849
20
-6.1479676930
11
-14.8277592296
21
-5.1889334620
0
LINE
5
614
100
AcDbEntity
8
0
100
AcDbLine
62
7
6
CONTINUOUS
10
-6.1354469984
20
-9.6511795108
11
-6.1674112335
21
-8.8589703452
0
LINE
5
615
100
AcDbEntity
8
DEFAULT_3
100
AcDbLine
62
9
6
PHANTOM
10
-6.0257568729
20
-8.8960742248
11
-5.9948266553
21
-9.6694280114
0
LINE
5
616
100
AcDbEntity
8
DEFAULT_3
100
AcDbLine
62
9
6
PHANTOM
10
-5.9216007237
20
-9.7580812413
11
-5.9525308622
21
-8.9847276340
0
LINE
5
617
100
AcDbEntity
8
0
100
AcDbLine
62
7
6
CONTINUOUS
10
-15.0990593766
20
-3.9488614969
11
-15.0618939925
21
-4.9099271305
0
LINE
5
618
100
AcDbEntity
8
0
100
AcDbLine
62
9
6
CONTINUOUS
10
-14.8277592296
20
-5.1889334620
11
-14.8648979623
21
-4.2281805513
0
LINE
5
619
100
AcDbEntity
8
0
100
AcDbLine
62
7
6
CONTINUOUS
10
-6.1674112335
20
-8.8589703452
11
-6.1973040110
21
-8.0656165378
0
LINE
5
61A
100
AcDbEntity
8
DEFAULT_3
100
AcDbLine
62
9
6
PHANTOM
10
-6.0547291222
20
-8.1216321127
11
-6.0257568729
21
-8.8960742248
0
LINE
5
61B
100
AcDbEntity
8
DEFAULT_3
100
AcDbLine
62
9
6
PHANTOM
10
-5.9525308622
20
-8.9847276340
11
-5.9815026208
21
-8.2102971420
0
LINE
5
61C
100
AcDbEntity
8
0
100
AcDbLine
62
7
6
CONTINUOUS
10
-15.1332532512
20
-2.9860998575
11
-15.0990593766
21
-3.9488614969
0
LINE
5
61D
100
AcDbEntity
8
0
100
AcDbLine
62
9
6
CONTINUOUS
10
-14.8648979623
20
-4.2281805513
11
-14.8990675466
21
-3.2657226614
0
LINE
5
61E
100
AcDbEntity
8
0
100
AcDbLine
62
7
6
CONTINUOUS
10
-5.5639420819
20
-9.9092618060
11
-5.7402493350
21
-4.8908262845
0
LINE
5
61F
100
AcDbEntity
8
0
100
AcDbLine
62
7
6
CONTINUOUS
10
-6.1973040110
20
-8.0656165378
11
-6.2251250324
21
-7.2711266131
0
LINE
5
620
100
AcDbEntity
8
DEFAULT_3
100
AcDbLine
62
9
6
PHANTOM
10
-6.0817431457
20
-7.3461088186
11
-6.0547291222
21
-8.1216321127
0
LINE
5
621
100
AcDbEntity
8
DEFAULT_3
100
AcDbLine
62
9
6
PHANTOM
10
-5.9815026208
20
-8.2102971420
11
-6.0085160173
21
-7.4347915391
0
LINE
5
622
100
AcDbEntity
8
DEFAULT_3
100
AcDbLine
62
9
6
PHANTOM
10
-5.7002337525
20
-4.8691274426
11
-5.5300908531
21
-9.7536214681
0
LINE
5
623
100
AcDbEntity
8
DEFAULT_3
100
AcDbLine
62
9
6
PHANTOM
10
-5.6502267247
20
-4.9329106740
11
-5.4784071767
21
-9.8655382431
0
LINE
5
624
100
AcDbEntity
8
DEFAULT_3
100
AcDbLine
62
9
6
PHANTOM
10
-5.3406912473
20
-4.7238650454
11
-5.1688716992
21
-9.6564926145
0
LINE
5
625
100
AcDbEntity
8
0
100
AcDbLine
62
7
6
CONTINUOUS
10
-5.3186610379
20
-4.3265237288
11
-5.1175529381
21
-10.0999724946
0
LINE
5
626
100
AcDbEntity
8
DEFAULT_3
100
AcDbLine
62
9
6
PHANTOM
10
-4.9246108612
20
-10.4380982521
11
-5.1201296577
21
-4.8251082471
0
LINE
5
627
100
AcDbEntity
8
DEFAULT_3
100
AcDbLine
62
9
6
PHANTOM
10
-4.9953197890
20
-4.6143590710
11
-4.7998009930
21
-10.2273490634
0
LINE
5
628
100
AcDbEntity
8
0
100
AcDbLine
62
7
6
CONTINUOUS
10
-15.1644752046
20
-2.0216561158
11
-15.1332532512
21
-2.9860998575
0
LINE
5
629
100
AcDbEntity
8
0
100
AcDbLine
62
9
6
CONTINUOUS
10
-14.8990675466
20
-3.2657226614
11
-14.9302674844
21
-2.3015735247
0
LINE
5
62A
100
AcDbEntity
8
0
100
AcDbLine
62
7
6
CONTINUOUS
10
-6.2251250324
20
-7.2711266131
11
-6.2508734022
21
-6.4755261446
0
LINE
5
62B
100
AcDbEntity
8
DEFAULT_3
100
AcDbLine
62
9
6
PHANTOM
10
-6.1067987043
20
-6.5695114887
11
-6.0817431457
21
-7.3461088186
0
LINE
5
62C
100
AcDbEntity
8
DEFAULT_3
100
AcDbLine
62
9
6
PHANTOM
10
-6.0085160173
20
-7.4347915391
11
-6.0335713697
21
-6.6582016860
0
LINE
5
62D
100
AcDbEntity
8
0
100
AcDbLine
62
7
6
CONTINUOUS
10
-6.2508734022
20
-6.4755261446
11
-6.2745488221
21
-5.6788236567
0
LINE
5
62E
100
AcDbEntity
8
DEFAULT_3
100
AcDbLine
62
9
6
PHANTOM
10
-6.1298955764
20
-5.7918472863
11
-6.1067987043
21
-6.5695114887
0
LINE
5
62F
100
AcDbEntity
8
DEFAULT_3
100
AcDbLine
62
9
6
PHANTOM
10
-6.0335713697
20
-6.6582016860
11
-6.0566685399
21
-5.8805292704
0
LINE
5
630
100
AcDbEntity
8
0
100
AcDbLine
62
7
6
CONTINUOUS
10
-15.1927248522
20
-1.0555439057
11
-15.1644752046
21
-2.0216561158
0
LINE
5
631
100
AcDbEntity
8
0
100
AcDbLine
62
9
6
CONTINUOUS
10
-14.9302674844
20
-2.3015735247
11
-14.9584973468
21
-1.3357468810
0
LINE
5
632
100
AcDbEntity
8
0
100
AcDbLine
62
7
6
CONTINUOUS
10
-6.2745488221
20
-5.6788236567
11
-6.2961515905
21
-4.8810106249
0
LINE
5
633
100
AcDbEntity
8
DEFAULT_3
100
AcDbLine
62
9
6
PHANTOM
10
-6.1510335584
20
-5.0131233916
11
-6.1298955764
21
-5.7918472863
0
LINE
5
634
100
AcDbEntity
8
DEFAULT_3
100
AcDbLine
62
9
6
PHANTOM
10
-6.0566685399
20
-5.8805292704
11
-6.0778070699
21
-5.1017868826
0
LINE
5
635
100
AcDbEntity
8
0
100
AcDbLine
62
7
6
CONTINUOUS
10
-15.2180018287
20
-0.0877768661
11
-15.1927248522
21
-1.0555439057
0
LINE
5
636
100
AcDbEntity
8
0
100
AcDbLine
62
9
6
CONTINUOUS
10
-14.9584973468
20
-1.3357468810
11
-14.9837567265
21
-0.3682565067
0
LINE
5
637
100
AcDbEntity
8
DEFAULT_3
100
AcDbLine
62
9
6
PHANTOM
10
-6.1702173975
20
-4.2331187714
11
-6.1510335584
21
-5.0131233916
0
LINE
5
638
100
AcDbEntity
8
DEFAULT_3
100
AcDbLine
62
9
6
PHANTOM
10
-6.0778070699
20
-5.1017868826
11
-6.0969867027
21
-4.3219816844
0
LINE
5
639
100
AcDbEntity
8
0
100
AcDbLine
62
7
6
CONTINUOUS
10
-6.2961515905
20
-4.8810106249
11
-6.3156817074
21
-4.0820870493
0
LINE
5
63A
100
AcDbEntity
8
0
100
AcDbLine
62
7
6
CONTINUOUS
10
-15.2403058486
20
0.8816310514
11
-15.2180018287
21
-0.0877768661
0
LINE
5
63B
100
AcDbEntity
8
0
100
AcDbLine
62
9
6
CONTINUOUS
10
-14.9837567265
20
-0.3682565067
11
-15.0060452550
21
0.6008837998
0
LINE
5
63C
100
AcDbEntity
8
0
100
AcDbLine
62
9
6
CONTINUOUS
10
-14.8322666306
20
25.5954705304
11
-14.8320256248
21
25.5843248559
0
LINE
5
63D
100
AcDbEntity
8
0
100
AcDbLine
62
7
6
CONTINUOUS
10
-15.2596366482
20
1.8526657418
11
-15.2403058486
21
0.8816310514
0
LINE
5
63E
100
AcDbEntity
8
0
100
AcDbLine
62
9
6
CONTINUOUS
10
-15.0060452550
20
0.6008837998
11
-15.0253626259
21
1.5716602297
0
LINE
5
63F
100
AcDbEntity
8
0
100
AcDbLine
62
7
6
CONTINUOUS
10
-15.2759939920
20
2.8253133530
11
-15.2596366482
21
1.8526657418
0
LINE
5
640
100
AcDbEntity
8
0
100
AcDbLine
62
9
6
CONTINUOUS
10
-15.0253626259
20
1.5716602297
11
-15.0417085613
21
2.5440589381
0
LINE
5
641
100
AcDbEntity
8
0
100
AcDbLine
62
7
6
CONTINUOUS
10
-15.2893777305
20
3.7995601244
11
-15.2759939920
21
2.8253133530
0
LINE
5
642
100
AcDbEntity
8
0
100
AcDbLine
62
9
6
CONTINUOUS
10
-15.0417085613
20
2.5440589381
11
-15.0550828218
21
3.5180660570
0
LINE
5
643
100
AcDbEntity
8
0
100
AcDbLine
62
7
6
CONTINUOUS
10
-15.2997877312
20
4.7753920836
11
-15.2893777305
21
3.7995601244
0
LINE
5
644
100
AcDbEntity
8
0
100
AcDbLine
62
9
6
CONTINUOUS
10
-15.0550828218
20
3.5180660570
11
-15.0654852237
21
4.4936677088
0
LINE
5
645
100
AcDbEntity
8
0
100
AcDbLine
62
7
6
CONTINUOUS
10
-15.3072238845
20
5.7527953522
11
-15.2997877312
21
4.7753920836
0
LINE
5
646
100
AcDbEntity
8
0
100
AcDbLine
62
9
6
CONTINUOUS
10
-15.0654852237
20
4.4936677088
11
-15.0729156184
21
5.4708499823
0
LINE
5
647
100
AcDbEntity
8
0
100
AcDbLine
62
7
6
CONTINUOUS
10
-15.3116861653
20
6.7317560264
11
-15.3072238845
21
5.7527953522
0
LINE
5
648
100
AcDbEntity
8
0
100
AcDbLine
62
9
6
CONTINUOUS
10
-15.0729156184
20
5.4708499823
11
-15.0773738959
21
6.4495989410
0
LINE
5
649
100
AcDbEntity
8
0
100
AcDbLine
62
7
6
CONTINUOUS
10
-15.3131745695
20
7.7122600920
11
-15.3116861653
21
6.7317560264
0
LINE
5
64A
100
AcDbEntity
8
0
100
AcDbLine
62
9
6
CONTINUOUS
10
-15.0773738959
20
6.4495989410
11
-15.0788599948
21
7.4299006361
0
LINE
5
64B
100
AcDbEntity
8
0
100
AcDbLine
62
7
6
CONTINUOUS
10
-15.3116891141
20
8.6942936146
11
-15.3131745695
21
7.7122600920
0
LINE
5
64C
100
AcDbEntity
8
0
100
AcDbLine
62
9
6
CONTINUOUS
10
-15.0788599948
20
7.4299006361
11
-15.0773738959
21
8.4117410902
0
LINE
5
64D
100
AcDbEntity
8
0
100
AcDbLine
62
7
6
CONTINUOUS
10
-15.3072299003
20
9.6778426247
11
-15.3116891141
21
8.6942936146
0
LINE
5
64E
100
AcDbEntity
8
0
100
AcDbLine
62
9
6
CONTINUOUS
10
-15.0773738959
20
8.4117410902
11
-15.0729156184
21
9.3951063020
0
LINE
5
64F
100
AcDbEntity
8
0
100
AcDbLine
62
7
6
CONTINUOUS
10
-15.2997970505
20
10.6628930534
11
-15.3072299003
21
9.6778426247
0
LINE
5
650
100
AcDbEntity
8
0
100
AcDbLine
62
9
6
CONTINUOUS
10
-15.0729156184
20
9.3951063020
11
-15.0654852237
21
10.3799822546
0
LINE
5
651
100
AcDbEntity
8
0
100
AcDbLine
62
7
6
CONTINUOUS
10
-15.2893907076
20
11.6494309074
11
-15.2997970505
21
10.6628930534
0
LINE
5
652
100
AcDbEntity
8
0
100
AcDbLine
62
9
6
CONTINUOUS
10
-15.0654852237
20
10.3799822546
11
-15.0550828218
21
11.3663549061
0
LINE
5
653
100
AcDbEntity
8
0
100
AcDbLine
62
9
6
CONTINUOUS
10
16.3712751043
20
-25.0499655545
11
16.3490418702
21
-25.0562353587
0
LINE
5
654
100
AcDbEntity
8
DEFAULT_3
100
AcDbLine
62
9
6
PHANTOM
10
6.5950919582
20
-17.5892322072
11
6.6193735724
21
-17.5825430986
0
LINE
5
655
100
AcDbEntity
8
DEFAULT_3
100
AcDbLine
62
9
6
PHANTOM
10
6.3655936681
20
-17.4450931976
11
6.3630837524
21
-17.4457763340
0
LINE
5
656
100
AcDbEntity
8
0
100
AcDbLine
62
7
6
CONTINUOUS
10
16.6398169679
20
-25.8043584816
11
16.6729361279
21
-25.7954796658
0
LINE
5
657
100
AcDbEntity
8
0
100
AcDbLine
62
9
6
CONTINUOUS
10
16.9979378449
20
-25.3168806952
11
17.0102052373
21
-25.3136197961
0
LINE
5
658
100
AcDbEntity
8
0
100
AcDbLine
62
9
6
CONTINUOUS
10
16.3490418702
20
-25.0562353587
11
16.3265175318
21
-25.0621483575
0
LINE
5
659
100
AcDbEntity
8
0
100
AcDbLine
62
9
6
CONTINUOUS
10
16.3265175318
20
-25.0621483575
11
16.3037229838
21
-25.0676990658
0
LINE
5
65A
100
AcDbEntity
8
0
100
AcDbLine
62
7
6
CONTINUOUS
10
16.6067492538
20
-25.8122510071
11
16.6398169679
21
-25.8043584816
0
LINE
5
65B
100
AcDbEntity
8
DEFAULT_3
100
AcDbLine
62
9
6
PHANTOM
10
-5.4147781973
20
-9.6535676621
11
-5.3932602525
21
-9.6485527635
0
LINE
5
65C
100
AcDbEntity
8
0
100
AcDbLine
62
7
6
CONTINUOUS
10
6.5295769898
20
-17.7391937664
11
6.5229930521
21
-17.7406877310
0
LINE
5
65D
100
AcDbEntity
8
DEFAULT_3
100
AcDbLine
62
9
6
PHANTOM
10
-5.2126582503
20
-9.7381797174
11
-5.2279400157
21
-9.7415891855
0
LINE
5
65E
100
AcDbEntity
8
DEFAULT_3
100
AcDbLine
62
9
6
PHANTOM
10
-5.3997595638
20
-4.8089616164
11
-5.3844777984
21
-4.8055521483
0
LINE
5
65F
100
AcDbEntity
8
0
100
AcDbLine
62
9
6
CONTINUOUS
10
0.3452832904
20
-1.1576721988
11
0.3893938785
21
-1.1487878811
0
LINE
5
660
100
AcDbEntity
8
0
100
AcDbLine
62
9
6
CONTINUOUS
10
-0.4266290031
20
1.0043132323
11
-0.4707395450
21
0.9954289378
0
LINE
5
661
100
AcDbEntity
8
0
100
AcDbLine
62
7
6
CONTINUOUS
10
-0.4937543568
20
1.0762236632
11
-0.4730078838
21
1.0800818865
0
LINE
5
662
100
AcDbEntity
8
DEFAULT_3
100
AcDbLine
62
9
6
PHANTOM
10
-5.1969677227
20
-9.7352780574
11
-5.2126582503
21
-9.7381797174
0
LINE
5
663
100
AcDbEntity
8
DEFAULT_3
100
AcDbLine
62
9
6
PHANTOM
10
-5.3844777984
20
-4.8055521483
11
-5.3687872708
21
-4.8026504883
0
LINE
5
664
100
AcDbEntity
8
0
100
AcDbLine
62
7
6
CONTINUOUS
10
0.3901438586
20
-1.2407150224
11
0.3694816298
21
-1.2445311235
0
LINE
5
665
100
AcDbEntity
8
0
100
AcDbLine
62
9
6
CONTINUOUS
10
16.3931966086
20
10.1822298130
11
16.3712751032
21
10.1783304451
0
LINE
5
666
100
AcDbEntity
8
0
100
AcDbLine
62
7
6
CONTINUOUS
10
-6.2146137410
20
-3.9125462419
11
-6.2077575773
21
-3.9113702335
0
LINE
5
667
100
AcDbEntity
8
DEFAULT_3
100
AcDbLine
62
9
6
PHANTOM
10
-5.3932602525
20
-9.6485527635
11
-5.3706089830
21
-9.6447854419
0
LINE
5
668
100
AcDbEntity
8
0
100
AcDbLine
62
9
6
CONTINUOUS
10
16.3712751032
20
10.1783304451
11
16.3490418689
21
10.1747533565
0
LINE
5
669
100
AcDbEntity
8
0
100
AcDbLine
62
7
6
CONTINUOUS
10
0.4552805481
20
-1.2055145800
11
0.4073901864
21
-1.2132099065
0
LINE
5
66A
100
AcDbEntity
8
DEFAULT_3
100
AcDbLine
62
9
6
PHANTOM
10
-5.3687872708
20
-4.8026504883
11
-5.3528881191
21
-4.8002936482
0
LINE
5
66B
100
AcDbEntity
8
0
100
AcDbLine
62
9
6
CONTINUOUS
10
16.3490418689
20
10.1747533565
11
16.3265175303
21
10.1715018655
0
LINE
5
66C
100
AcDbEntity
8
0
100
AcDbLine
62
7
6
CONTINUOUS
10
-0.4730078838
20
1.0800818865
11
-0.4519442915
21
1.0831046955
0
LINE
5
66D
100
AcDbEntity
8
0
100
AcDbLine
62
7
6
CONTINUOUS
10
0.3694816298
20
-1.2445311235
11
0.3484994483
21
-1.2475132272
0
LINE
5
66E
100
AcDbEntity
8
0
100
AcDbLine
62
9
6
CONTINUOUS
10
16.3265175303
20
10.1715018655
11
16.3037229820
21
10.1685789881
0
LINE
5
66F
100
AcDbEntity
8
0
100
AcDbLine
62
9
6
CONTINUOUS
10
16.3037229820
20
10.1685789881
11
16.2806793695
21
10.1659874360
0
LINE
5
670
100
AcDbEntity
8
0
100
AcDbLine
62
9
6
CONTINUOUS
10
16.2806793695
20
10.1659874360
11
16.2574080690
21
10.1637296131
0
LINE
5
671
100
AcDbEntity
8
0
100
AcDbLine
62
7
6
CONTINUOUS
10
-10.7722813993
20
28.7571521918
11
-10.7574482032
21
28.7585310787
0
LINE
5
672
100
AcDbEntity
8
0
100
AcDbLine
62
9
6
CONTINUOUS
10
-13.8217452865
20
27.1111703613
11
-13.8058936185
21
27.1126042530
0
LINE
5
673
100
AcDbEntity
8
0
100
AcDbLine
62
7
6
CONTINUOUS
10
-10.7574482032
20
28.7585310787
11
-10.7424218678
21
28.7592716017
0
LINE
5
674
100
AcDbEntity
8
0
100
AcDbLine
62
9
6
CONTINUOUS
10
-13.8058936185
20
27.1126042530
11
-13.7898054251
21
27.1133356532
0
LINE
5
675
100
AcDbEntity
8
0
100
AcDbLine
62
7
6
CONTINUOUS
10
-10.7424218678
20
28.7592716017
11
-10.7271999241
21
28.7593779503
0
LINE
5
676
100
AcDbEntity
8
0
100
AcDbLine
62
7
6
CONTINUOUS
10
20.2120902736
20
12.8637593989
11
20.2170234565
21
12.8421246276
0
LINE
5
677
100
AcDbEntity
8
0
100
AcDbLine
62
9
6
CONTINUOUS
10
17.0653949936
20
11.2177593232
11
17.0606681479
21
11.2405118987
0
LINE
5
678
100
AcDbEntity
8
0
100
AcDbLine
62
7
6
CONTINUOUS
10
20.2170234565
20
12.8421246276
11
20.2214999859
21
12.8205461283
0
LINE
5
679
100
AcDbEntity
8
0
100
AcDbLine
62
7
6
CONTINUOUS
10
20.2214999859
20
12.8205461283
11
20.2255239751
21
12.7990033385
0
LINE
5
67A
100
AcDbEntity
8
0
100
AcDbLine
62
9
6
CONTINUOUS
10
17.0696131341
20
11.1951122822
11
17.0653949936
21
11.2177593232
0
LINE
5
67B
100
AcDbEntity
8
0
100
AcDbLine
62
7
6
CONTINUOUS
10
20.2255239751
20
12.7990033385
11
20.2290913109
21
12.7775168207
0
LINE
5
67C
100
AcDbEntity
8
0
100
AcDbLine
62
9
6
CONTINUOUS
10
17.0733185700
20
11.1725922495
11
17.0696131341
21
11.1951122822
0
LINE
5
67D
100
AcDbEntity
8
0
100
AcDbLine
62
9
6
CONTINUOUS
10
16.5968014863
20
-25.0160973748
11
16.5990265708
21
-25.0297957519
0
LINE
5
67E
100
AcDbEntity
8
0
100
AcDbLine
62
9
6
CONTINUOUS
10
15.4832597608
20
-25.1224388809
11
15.4879824005
21
-25.1517574040
0
LINE
5
67F
100
AcDbEntity
8
0
100
AcDbLine
62
7
6
CONTINUOUS
10
6.3680296112
20
-10.3767319661
11
6.3695768297
21
-10.3869002465
0
LINE
5
680
100
AcDbEntity
8
0
100
AcDbLine
62
7
6
CONTINUOUS
10
20.2290913109
20
12.7775168207
11
20.2321874172
21
12.7561578397
0
LINE
5
681
100
AcDbEntity
8
0
100
AcDbLine
62
9
6
CONTINUOUS
10
17.0765077878
20
11.1502205783
11
17.0733185700
21
11.1725922495
0
LINE
5
682
100
AcDbEntity
8
0
100
AcDbLine
62
9
6
CONTINUOUS
10
16.5948818415
20
-25.0021997123
11
16.5968014863
21
-25.0160973748
0
LINE
5
683
100
AcDbEntity
8
0
100
AcDbLine
62
9
6
CONTINUOUS
10
15.4791832888
20
-25.0926701182
11
15.4832597608
21
-25.1224388809
0
LINE
5
684
100
AcDbEntity
8
0
100
AcDbLine
62
7
6
CONTINUOUS
10
0.8151966449
20
-0.3148045837
11
0.8192987554
21
-0.3454830259
0
LINE
5
685
100
AcDbEntity
8
DEFAULT_3
100
AcDbLine
62
9
6
PHANTOM
10
6.1352533903
20
-10.4307658244
11
6.1357360548
21
-10.4346385582
0
LINE
5
686
100
AcDbEntity
8
0
100
AcDbLine
62
7
6
CONTINUOUS
10
6.3695768297
20
-10.3869002465
11
6.3708282979
21
-10.3969600952
0
LINE
5
687
100
AcDbEntity
8
0
100
AcDbLine
62
9
6
CONTINUOUS
10
17.0791777634
20
11.1280184814
11
17.0765077878
21
11.1502205783
0
LINE
5
688
100
AcDbEntity
8
0
100
AcDbLine
62
7
6
CONTINUOUS
10
-0.9255766037
20
0.1796579916
11
-0.9290816866
21
0.2101437784
0
LINE
5
689
100
AcDbEntity
8
0
100
AcDbLine
62
9
6
CONTINUOUS
10
16.5932690128
20
-24.9881114092
11
16.5948818415
21
-25.0021997123
0
LINE
5
68A
100
AcDbEntity
8
0
100
AcDbLine
62
7
6
CONTINUOUS
10
0.8192987554
20
-0.3454830259
11
0.8227750589
21
-0.3759832023
0
LINE
5
68B
100
AcDbEntity
8
0
100
AcDbLine
62
9
6
CONTINUOUS
10
15.4757554850
20
-25.0624693093
11
15.4791832888
21
-25.0926701182
0
LINE
5
68C
100
AcDbEntity
8
0
100
AcDbLine
62
7
6
CONTINUOUS
10
20.2348096859
20
12.7349225056
11
20.2369607252
21
12.7138147083
0
LINE
5
68D
100
AcDbEntity
8
0
100
AcDbLine
62
9
6
CONTINUOUS
10
17.0813259652
20
11.1060070105
11
17.0791777634
21
11.1280184814
0
LINE
5
68E
100
AcDbEntity
8
0
100
AcDbLine
62
9
6
CONTINUOUS
10
16.5919616238
20
-24.9738238205
11
16.5932690128
21
-24.9881114092
0
LINE
5
68F
100
AcDbEntity
8
0
100
AcDbLine
62
9
6
CONTINUOUS
10
15.4729784214
20
-25.0318549850
11
15.4757554850
21
-25.0624693093
0
LINE
5
690
100
AcDbEntity
8
0
100
AcDbLine
62
7
6
CONTINUOUS
10
20.2369607252
20
12.7138147083
11
20.2386337828
21
12.6929173825
0
LINE
5
691
100
AcDbEntity
8
0
100
AcDbLine
62
9
6
CONTINUOUS
10
17.0829503562
20
11.0842070369
11
17.0813259652
21
11.1060070105
0
LINE
5
692
100
AcDbEntity
8
0
100
AcDbLine
62
9
6
CONTINUOUS
10
16.5909596745
20
-24.9593369463
11
16.5919616238
21
-24.9738238205
0
LINE
5
693
100
AcDbEntity
8
0
100
AcDbLine
62
9
6
CONTINUOUS
10
15.4708537906
20
-25.0008458964
11
15.4729784214
21
-25.0318549850
0
LINE
5
694
100
AcDbEntity
8
DEFAULT_3
100
AcDbLine
62
9
6
PHANTOM
10
6.1357360548
20
-10.4346385582
11
6.1359606119
21
-10.4384553416
0
LINE
5
695
100
AcDbEntity
8
0
100
AcDbLine
62
7
6
CONTINUOUS
10
20.2386337828
20
12.6929173825
11
20.2398266081
21
12.6722581729
0
LINE
5
696
100
AcDbEntity
8
0
100
AcDbLine
62
9
6
CONTINUOUS
10
15.4170363736
20
-24.0479019724
11
15.4708537906
21
-25.0008458964
0
LINE
5
697
100
AcDbEntity
8
0
100
AcDbLine
62
9
6
CONTINUOUS
10
16.5372822128
20
-24.0089104826
11
16.5909596745
21
-24.9593369463
0
LINE
5
698
100
AcDbEntity
8
0
100
AcDbLine
62
9
6
CONTINUOUS
10
15.3662901605
20
-23.0932373907
11
15.4170363736
21
-24.0479019724
0
LINE
5
699
100
AcDbEntity
8
0
100
AcDbLine
62
9
6
CONTINUOUS
10
16.4866692494
20
-23.0567951539
11
16.5372822128
21
-24.0089104826
0
LINE
5
69A
100
AcDbEntity
8
0
100
AcDbLine
62
9
6
CONTINUOUS
10
17.0840493964
20
11.0626392310
11
17.0829503562
21
11.0842070369
0
LINE
5
69B
100
AcDbEntity
8
0
100
AcDbLine
62
9
6
CONTINUOUS
10
15.3186158624
20
-22.1368657582
11
15.3662901605
21
-23.0932373907
0
LINE
5
69C
100
AcDbEntity
8
0
100
AcDbLine
62
9
6
CONTINUOUS
10
16.4391207843
20
-22.1029909603
11
16.4866692494
21
-23.0567951539
0
LINE
5
69D
100
AcDbEntity
8
0
100
AcDbLine
62
9
6
CONTINUOUS
10
15.2740141372
20
-21.1788007040
11
15.3186158624
21
-22.1368657582
0
LINE
5
69E
100
AcDbEntity
8
0
100
AcDbLine
62
9
6
CONTINUOUS
10
16.3946362263
20
-21.1474842397
11
16.4391207843
21
-22.1029909603
0
LINE
5
69F
100
AcDbEntity
8
DEFAULT_3
100
AcDbLine
62
9
6
PHANTOM
10
6.3442346887
20
-16.6468190104
11
6.3790805039
21
-17.4179864566
0
LINE
5
6A0
100
AcDbEntity
8
0
100
AcDbLine
62
7
6
CONTINUOUS
10
6.6188544408
20
-17.5742683403
11
6.5833714563
21
-16.7846437908
0
LINE
5
6A1
100
AcDbEntity
8
0
100
AcDbLine
62
9
6
CONTINUOUS
10
15.2324856196
20
-20.2190558866
11
15.2740141372
21
-21.1788007040
0
LINE
5
6A2
100
AcDbEntity
8
0
100
AcDbLine
62
9
6
CONTINUOUS
10
16.3532161666
20
-20.1902886542
11
16.3946362263
21
-21.1474842397
0
LINE
5
6A3
100
AcDbEntity
8
DEFAULT_3
100
AcDbLine
62
9
6
PHANTOM
10
6.3113465908
20
-15.8745548986
11
6.3442346887
21
-16.6468190104
0
LINE
5
6A4
100
AcDbEntity
8
0
100
AcDbLine
62
7
6
CONTINUOUS
10
6.5833714563
20
-16.7846437908
11
6.5499243810
21
-15.9938652005
0
LINE
5
6A5
100
AcDbEntity
8
DEFAULT_3
100
AcDbLine
62
9
6
PHANTOM
10
6.2804164524
20
-15.1012012913
11
6.3113465908
21
-15.8745548986
0
LINE
5
6A6
100
AcDbEntity
8
0
100
AcDbLine
62
9
6
CONTINUOUS
10
15.1940309216
20
-19.2576449932
11
15.2324856196
21
-20.2190558866
0
LINE
5
6A7
100
AcDbEntity
8
0
100
AcDbLine
62
9
6
CONTINUOUS
10
16.3148623788
20
-19.2314451893
11
16.3532161666
21
-20.1902886542
0
LINE
5
6A8
100
AcDbEntity
8
0
100
AcDbLine
62
7
6
CONTINUOUS
10
6.5499243810
20
-15.9938652005
11
6.5185132146
21
-15.2019325693
0
LINE
5
6A9
100
AcDbEntity
8
0
100
AcDbLine
62
7
6
CONTINUOUS
10
6.3724427348
20
-10.4166859572
11
6.3728082257
21
-10.4263320159
0
LINE
5
6AA
100
AcDbEntity
8
DEFAULT_3
100
AcDbLine
62
9
6
PHANTOM
10
6.2514446937
20
-14.3267707993
11
6.2804164524
21
-15.1012012913
0
LINE
5
6AB
100
AcDbEntity
8
0
100
AcDbLine
62
7
6
CONTINUOUS
10
6.5185132146
20
-15.2019325693
11
6.4891376640
21
-14.4088373753
0
LINE
5
6AC
100
AcDbEntity
8
0
100
AcDbLine
62
9
6
CONTINUOUS
10
15.1586505840
20
-18.2945817267
11
15.1940309216
21
-19.2576449932
0
LINE
5
6AD
100
AcDbEntity
8
0
100
AcDbLine
62
9
6
CONTINUOUS
10
16.2795749946
20
-18.2709537880
11
16.3148623788
21
-19.2314451893
0
LINE
5
6AE
100
AcDbEntity
8
DEFAULT_3
100
AcDbLine
62
9
6
PHANTOM
10
6.2244312973
20
-13.5512651964
11
6.2514446937
21
-14.3267707993
0
LINE
5
6AF
100
AcDbEntity
8
0
100
AcDbLine
62
7
6
CONTINUOUS
10
6.4891376640
20
-14.4088373753
11
6.4617980225
21
-13.6145881405
0
LINE
5
6B0
100
AcDbEntity
8
0
100
AcDbLine
62
9
6
CONTINUOUS
10
15.1263451004
20
-17.3298798170
11
15.1586505840
21
-18.2945817267
0
LINE
5
6B1
100
AcDbEntity
8
0
100
AcDbLine
62
9
6
CONTINUOUS
10
16.2473538823
20
-17.3088145075
11
16.2795749946
21
-18.2709537880
0
LINE
5
6B2
100
AcDbEntity
8
0
100
AcDbLine
62
7
6
CONTINUOUS
10
-0.9357897378
20
0.3002543891
11
-0.9367486504
21
0.3297588747
0
LINE
5
6B3
100
AcDbEntity
8
DEFAULT_3
100
AcDbLine
62
9
6
PHANTOM
10
6.1993759448
20
-12.7746753433
11
6.2244312973
21
-13.5512651964
0
LINE
5
6B4
100
AcDbEntity
8
0
100
AcDbLine
62
7
6
CONTINUOUS
10
0.8294277399
20
-0.4661214981
11
0.8303786970
21
-0.4956299615
0
LINE
5
6B5
100
AcDbEntity
8
0
100
AcDbLine
62
7
6
CONTINUOUS
10
6.4617980225
20
-13.6145881405
11
6.4364951698
21
-12.8192104306
0
LINE
5
6B6
100
AcDbEntity
8
0
100
AcDbLine
62
7
6
CONTINUOUS
10
6.6188544408
20
-17.5742683403
11
6.6191445113
21
-17.5836344227
0
LINE
5
6B7
100
AcDbEntity
8
0
100
AcDbLine
62
9
6
CONTINUOUS
10
15.0971149470
20
-16.3635530279
11
15.1263451004
21
-17.3298798170
0
LINE
5
6B8
100
AcDbEntity
8
0
100
AcDbLine
62
9
6
CONTINUOUS
10
16.2182004196
20
-16.3450685050
11
16.2473538823
21
-17.3088145075
0
LINE
5
6B9
100
AcDbEntity
8
DEFAULT_3
100
AcDbLine
62
9
6
PHANTOM
10
6.1762787747
20
-11.9970029277
11
6.1993759448
21
-12.7746753433
0
LINE
5
6BA
100
AcDbEntity
8
0
100
AcDbLine
62
7
6
CONTINUOUS
10
6.4364951698
20
-12.8192104306
11
6.4132293995
21
-12.0227127675
0
LINE
5
6BB
100
AcDbEntity
8
DEFAULT_3
100
AcDbLine
62
9
6
PHANTOM
10
6.1551402446
20
-11.2182605398
11
6.1762787747
21
-11.9970029277
0
LINE
5
6BC
100
AcDbEntity
8
0
100
AcDbLine
62
9
6
CONTINUOUS
10
15.0709605356
20
-15.3956151378
11
15.0971149470
21
-16.3635530279
0
LINE
5
6BD
100
AcDbEntity
8
0
100
AcDbLine
62
9
6
CONTINUOUS
10
16.1921147378
20
-15.3797157134
11
16.2182004196
21
-16.3450685050
0
LINE
5
6BE
100
AcDbEntity
8
0
100
AcDbLine
62
9
6
CONTINUOUS
10
17.0846220435
20
11.0413240434
11
17.0840493964
21
11.0626392310
0
LINE
5
6BF
100
AcDbEntity
8
0
100
AcDbLine
62
7
6
CONTINUOUS
10
6.4132293995
20
-12.0227127675
11
6.3920004181
21
-11.2250866293
0
LINE
5
6C0
100
AcDbEntity
8
DEFAULT_3
100
AcDbLine
62
9
6
PHANTOM
10
6.1359606119
20
-10.4384553416
11
6.1551402446
21
-11.2182605398
0
LINE
5
6C1
100
AcDbEntity
8
0
100
AcDbLine
62
7
6
CONTINUOUS
10
6.3920004181
20
-11.2250866293
11
6.3728082257
21
-10.4263320159
0
LINE
5
6C2
100
AcDbEntity
8
0
100
AcDbLine
62
9
6
CONTINUOUS
10
15.0478822303
20
-14.4260799429
11
15.0709605356
21
-15.3956151378
0
LINE
5
6C3
100
AcDbEntity
8
0
100
AcDbLine
62
9
6
CONTINUOUS
10
16.1690967055
20
-14.4127562000
11
16.1921147378
21
-15.3797157134
0
LINE
5
6C4
100
AcDbEntity
8
0
100
AcDbLine
62
9
6
CONTINUOUS
10
15.0278803711
20
-13.4549612688
11
15.0478822303
21
-14.4260799429
0
LINE
5
6C5
100
AcDbEntity
8
0
100
AcDbLine
62
9
6
CONTINUOUS
10
16.1491473069
20
-13.4442313234
11
16.1690967055
21
-14.4127562000
0
LINE
5
6C6
100
AcDbEntity
8
0
100
AcDbLine
62
9
6
CONTINUOUS
10
15.0109552405
20
-12.4822729628
11
15.0278803711
21
-13.4549612688
0
LINE
5
6C7
100
AcDbEntity
8
0
100
AcDbLine
62
9
6
CONTINUOUS
10
14.9971070734
20
-11.5080288905
11
15.0109552405
21
-12.4822729628
0
LINE
5
6C8
100
AcDbEntity
8
0
100
AcDbLine
62
7
6
CONTINUOUS
10
-0.9367486504
20
0.3297588747
11
-0.9370697827
21
0.3590055301
0
LINE
5
6C9
100
AcDbEntity
8
0
100
AcDbLine
62
7
6
CONTINUOUS
10
0.8303786970
20
-0.4956299615
11
0.8306971703
21
-0.5248779464
0
LINE
5
6CA
100
AcDbEntity
8
DEFAULT_3
100
AcDbLine
62
9
6
PHANTOM
10
-4.9953197890
20
-4.6143590710
11
-4.9955794608
21
-4.5893737855
0
LINE
5
6CB
100
AcDbEntity
8
DEFAULT_3
100
AcDbLine
62
9
6
PHANTOM
10
6.3790805039
20
-17.4179864566
11
6.3791154445
21
-17.4216193807
0
LINE
5
6CC
100
AcDbEntity
8
0
100
AcDbLine
62
7
6
CONTINUOUS
10
-6.3156817074
20
-4.0820870493
11
-6.3157564054
21
-4.0725863871
0
LINE
5
6CD
100
AcDbEntity
8
0
100
AcDbLine
62
7
6
CONTINUOUS
10
6.6191445113
20
-17.5836344227
11
6.6191394817
21
-17.5928541378
0
LINE
5
6CE
100
AcDbEntity
8
0
100
AcDbLine
62
9
6
CONTINUOUS
10
-0.8616131746
20
0.3669481653
11
-0.8617126687
21
0.3046104139
0
LINE
5
6CF
100
AcDbEntity
8
0
100
AcDbLine
62
9
6
CONTINUOUS
10
0.7802675372
20
-0.5203070941
11
0.7803670344
21
-0.4579693411
0
LINE
5
6D0
100
AcDbEntity
8
DEFAULT_3
100
AcDbLine
62
9
6
PHANTOM
10
-5.1201296578
20
-4.8251082427
11
-5.1200519052
21
-4.7876427745
0
LINE
5
6D1
100
AcDbEntity
8
0
100
AcDbLine
62
7
6
CONTINUOUS
10
-0.8832764626
20
0.3350378394
11
-0.8830275856
21
0.4040761735
0
LINE
5
6D2
100
AcDbEntity
8
DEFAULT_3
100
AcDbLine
62
9
6
PHANTOM
10
-6.1700160480
20
-4.2135526565
11
-6.1702123231
21
-4.2331186650
0
LINE
5
6D3
100
AcDbEntity
8
0
100
AcDbLine
62
7
6
CONTINUOUS
10
0.8306971703
20
-0.5248779464
11
0.8303788060
21
-0.5538024161
0
LINE
5
6D4
100
AcDbEntity
8
0
100
AcDbLine
62
7
6
CONTINUOUS
10
-0.9370697827
20
0.3590055301
11
-0.9367487599
21
0.3879313291
0
LINE
5
6D5
100
AcDbEntity
8
0
100
AcDbLine
62
7
6
CONTINUOUS
10
-15.2760110995
20
12.6374421352
11
-15.2893907076
21
11.6494309074
0
LINE
5
6D6
100
AcDbEntity
8
0
100
AcDbLine
62
9
6
CONTINUOUS
10
-15.0550828218
20
11.3663549061
11
-15.0417085613
21
12.3542101922
0
LINE
5
6D7
100
AcDbEntity
8
DEFAULT_3
100
AcDbLine
62
9
6
PHANTOM
10
-6.0969867027
20
-4.3219816844
11
-6.0969369421
21
-4.3183020598
0
LINE
5
6D8
100
AcDbEntity
8
0
100
AcDbLine
62
7
6
CONTINUOUS
10
-15.2596584765
20
13.6269125776
11
-15.2760110995
21
12.6374421352
0
LINE
5
6D9
100
AcDbEntity
8
0
100
AcDbLine
62
9
6
CONTINUOUS
10
-15.0417085613
20
12.3542101922
11
-15.0253626259
21
13.3435340312
0
LINE
5
6DA
100
AcDbEntity
8
DEFAULT_3
100
AcDbLine
62
9
6
PHANTOM
10
-6.0621900987
20
-4.2741582137
11
-6.0626272363
21
-4.2968329667
0
LINE
5
6DB
100
AcDbEntity
8
0
100
AcDbLine
62
7
6
CONTINUOUS
10
-15.2403331065
20
14.6178282569
11
-15.2596584765
21
13.6269125776
0
LINE
5
6DC
100
AcDbEntity
8
0
100
AcDbLine
62
9
6
CONTINUOUS
10
-15.0253626259
20
13.3435340312
11
-15.0060452550
21
14.3343123203
0
LINE
5
6DD
100
AcDbEntity
8
0
100
AcDbLine
62
7
6
CONTINUOUS
10
-15.2180353427
20
15.6101750151
11
-15.2403331065
21
14.6178282569
0
LINE
5
6DE
100
AcDbEntity
8
0
100
AcDbLine
62
9
6
CONTINUOUS
10
-15.0060452550
20
14.3343123203
11
-14.9837567265
21
15.3265309321
0
LINE
5
6DF
100
AcDbEntity
8
0
100
AcDbLine
62
7
6
CONTINUOUS
10
-6.3157564054
20
-4.0725863871
11
-6.3155347020
21
-4.0632320272
0
LINE
5
6E0
100
AcDbEntity
8
0
100
AcDbLine
62
7
6
CONTINUOUS
10
-15.1927655672
20
16.6039384191
11
-15.2180353427
21
15.6101750151
0
LINE
5
6E1
100
AcDbEntity
8
0
100
AcDbLine
62
9
6
CONTINUOUS
10
-14.9837567265
20
15.3265309321
11
-14.9584973468
21
16.3201757178
0
LINE
5
6E2
100
AcDbEntity
8
0
100
AcDbLine
62
7
6
CONTINUOUS
10
-15.1645241832
20
17.5991041611
11
-15.1927655672
21
16.6039384191
0
LINE
5
6E3
100
AcDbEntity
8
0
100
AcDbLine
62
9
6
CONTINUOUS
10
-14.9584973468
20
16.3201757178
11
-14.9302674844
21
17.3152325148
0
LINE
5
6E4
100
AcDbEntity
8
0
100
AcDbLine
62
7
6
CONTINUOUS
10
-15.1333116744
20
18.5956581601
11
-15.1645241832
21
17.5991041611
0
LINE
5
6E5
100
AcDbEntity
8
0
100
AcDbLine
62
9
6
CONTINUOUS
10
-14.9302674844
20
17.3152325148
11
-14.8990675466
21
18.3116871352
0
LINE
5
6E6
100
AcDbEntity
8
0
100
AcDbLine
62
9
6
CONTINUOUS
10
-14.8320433305
20
25.6023732034
11
-14.8322666306
21
25.5954705304
0
LINE
5
6E7
100
AcDbEntity
8
0
100
AcDbLine
62
7
6
CONTINUOUS
10
0.8303788060
20
-0.5538024161
11
0.8294279752
21
-0.5823501066
0
LINE
5
6E8
100
AcDbEntity
8
0
100
AcDbLine
62
7
6
CONTINUOUS
10
-0.9367487599
20
0.3879313291
11
-0.9357899746
21
0.4164829968
0
LINE
5
6E9
100
AcDbEntity
8
0
100
AcDbLine
62
7
6
CONTINUOUS
10
-15.0991285437
20
19.5935863214
11
-15.1333116744
21
18.5956581601
0
LINE
5
6EA
100
AcDbEntity
8
0
100
AcDbLine
62
9
6
CONTINUOUS
10
-14.8990675466
20
18.3116871352
11
-14.8648979623
21
19.3095253626
0
LINE
5
6EB
100
AcDbEntity
8
0
100
AcDbLine
62
7
6
CONTINUOUS
10
-15.0619753212
20
20.5928742515
11
-15.0991285437
21
19.5935863214
0
LINE
5
6EC
100
AcDbEntity
8
0
100
AcDbLine
62
9
6
CONTINUOUS
10
-14.8648979623
20
19.3095253626
11
-14.8277592296
21
20.3087329714
0
LINE
5
6ED
100
AcDbEntity
8
0
100
AcDbLine
62
7
6
CONTINUOUS
10
-15.0218525844
20
21.5935083160
11
-15.0619753212
21
20.5928742515
0
LINE
5
6EE
100
AcDbEntity
8
0
100
AcDbLine
62
9
6
CONTINUOUS
10
-14.8277592296
20
20.3087329714
11
-14.7876518849
21
21.3092957200
0
LINE
5
6EF
100
AcDbEntity
8
DEFAULT_3
100
AcDbLine
62
9
6
PHANTOM
10
-4.9955794608
20
-4.5893737855
11
-4.9946377180
21
-4.5662671670
0
LINE
5
6F0
100
AcDbEntity
8
0
100
AcDbLine
62
7
6
CONTINUOUS
10
-14.9787608976
20
22.5954755609
11
-15.0218525844
21
21.5935083160
0
LINE
5
6F1
100
AcDbEntity
8
0
100
AcDbLine
62
9
6
CONTINUOUS
10
-14.7876518849
20
21.3092957200
11
-14.7445764793
21
22.3111993396
0
LINE
5
6F2
100
AcDbEntity
8
0
100
AcDbLine
62
7
6
CONTINUOUS
10
-14.9327008826
20
23.5987621157
11
-14.9787608976
21
22.5954755609
0
LINE
5
6F3
100
AcDbEntity
8
0
100
AcDbLine
62
9
6
CONTINUOUS
10
-14.7445764793
20
22.3111993396
11
-14.6985336274
21
23.3144295472
0
LINE
5
6F4
100
AcDbEntity
8
0
100
AcDbLine
62
7
6
CONTINUOUS
10
-14.8836733576
20
24.6033519376
11
-14.9327008826
21
23.5987621157
0
LINE
5
6F5
100
AcDbEntity
8
0
100
AcDbLine
62
9
6
CONTINUOUS
10
-14.6985336274
20
23.3144295472
11
-14.6495240073
21
24.3189720454
0
LINE
5
6F6
100
AcDbEntity
8
0
100
AcDbLine
62
7
6
CONTINUOUS
10
-14.8320431921
20
25.6023762194
11
-14.8836733576
21
24.6033519376
0
LINE
5
6F7
100
AcDbEntity
8
0
100
AcDbLine
62
9
6
CONTINUOUS
10
-14.6495240073
20
24.3189720454
11
-14.5975483301
21
25.3248125166
0
LINE
5
6F8
100
AcDbEntity
8
0
100
AcDbLine
62
7
6
CONTINUOUS
10
-6.3155347020
20
-4.0632320272
11
-6.3150160096
21
-4.0540379415
0
LINE
5
6F9
100
AcDbEntity
8
0
100
AcDbLine
62
7
6
CONTINUOUS
10
-14.8301959012
20
25.6320370502
11
-14.8320433305
21
25.6023732034
0
LINE
5
6FA
100
AcDbEntity
8
0
100
AcDbLine
62
9
6
CONTINUOUS
10
-14.5975483301
20
25.3248125166
11
-14.5954580912
21
25.3579290275
0
LINE
5
6FB
100
AcDbEntity
8
0
100
AcDbLine
62
9
6
CONTINUOUS
10
-14.5954580912
20
25.3579290275
11
-14.5927258966
21
25.3912979719
0
LINE
5
6FC
100
AcDbEntity
8
0
100
AcDbLine
62
7
6
CONTINUOUS
10
-14.8270623670
20
25.6698115472
11
-14.8301959012
21
25.6320370502
0
LINE
5
6FD
100
AcDbEntity
8
DEFAULT_3
100
AcDbLine
62
9
6
PHANTOM
10
-6.0827032590
20
-4.2944357292
11
-6.0801474906
21
-4.2937273117
0
LINE
5
6FE
100
AcDbEntity
8
0
100
AcDbLine
62
7
6
CONTINUOUS
10
-0.5342941850
20
1.0659981997
11
-0.5141829231
21
1.0715285927
0
LINE
5
6FF
100
AcDbEntity
8
0
100
AcDbLine
62
7
6
CONTINUOUS
10
0.4305074160
20
-1.2305776943
11
0.4104855211
21
-1.2360634037
0
LINE
5
700
100
AcDbEntity
8
0
100
AcDbLine
62
9
6
CONTINUOUS
10
16.4974276308
20
10.2064239692
11
16.4773633640
21
10.2009733199
0
LINE
5
701
100
AcDbEntity
8
DEFAULT_3
100
AcDbLine
62
9
6
PHANTOM
10
-5.2279400157
20
-9.7415891855
11
-5.2428077828
21
-9.7455129667
0
LINE
5
702
100
AcDbEntity
8
DEFAULT_3
100
AcDbLine
62
9
6
PHANTOM
10
-5.4146273308
20
-4.8128853976
11
-5.3997595638
21
-4.8089616164
0
LINE
5
703
100
AcDbEntity
8
0
100
AcDbLine
62
9
6
CONTINUOUS
10
16.4773633640
20
10.2009733199
11
16.4568889558
21
10.1958239451
0
LINE
5
704
100
AcDbEntity
8
0
100
AcDbLine
62
7
6
CONTINUOUS
10
0.5015543579
20
-1.1939350158
11
0.4552805481
21
-1.2055145800
0
LINE
5
705
100
AcDbEntity
8
0
100
AcDbLine
62
7
6
CONTINUOUS
10
-6.2213172689
20
-3.9141103779
11
-6.2146137410
21
-3.9125462419
0
LINE
5
706
100
AcDbEntity
8
0
100
AcDbLine
62
9
6
CONTINUOUS
10
16.4568889558
20
10.1958239451
11
16.4360233990
21
10.1909806218
0
LINE
5
707
100
AcDbEntity
8
0
100
AcDbLine
62
7
6
CONTINUOUS
10
-0.5141829231
20
1.0715285927
11
-0.4937543568
21
1.0762236632
0
LINE
5
708
100
AcDbEntity
8
0
100
AcDbLine
62
7
6
CONTINUOUS
10
0.4104855211
20
-1.2360634037
11
0.3901438586
21
-1.2407150224
0
LINE
5
709
100
AcDbEntity
8
0
100
AcDbLine
62
9
6
CONTINUOUS
10
16.4360233990
20
10.1909806218
11
16.4147860497
21
10.1864478428
0
LINE
5
70A
100
AcDbEntity
8
0
100
AcDbLine
62
9
6
CONTINUOUS
10
16.4147860497
20
10.1864478428
11
16.3931966086
21
10.1822298130
0
LINE
5
70B
100
AcDbEntity
8
0
100
AcDbLine
62
9
6
CONTINUOUS
10
-13.8526791630
20
27.1062012065
11
-13.8373453987
21
27.1090353376
0
LINE
5
70C
100
AcDbEntity
8
0
100
AcDbLine
62
7
6
CONTINUOUS
10
-10.8013054304
20
28.7525005177
11
-10.7869189872
21
28.7551391304
0
LINE
5
70D
100
AcDbEntity
8
0
100
AcDbLine
62
7
6
CONTINUOUS
10
-10.7869189872
20
28.7551391304
11
-10.7722813993
21
28.7571521918
0
LINE
5
70E
100
AcDbEntity
8
0
100
AcDbLine
62
9
6
CONTINUOUS
10
-13.8373453987
20
27.1090353376
11
-13.8217452865
21
27.1111703613
0
LINE
5
70F
100
AcDbEntity
8
0
100
AcDbLine
62
7
6
CONTINUOUS
10
20.2321874172
20
12.7561578397
11
20.2348096859
21
12.7349225056
0
LINE
5
710
100
AcDbEntity
8
0
100
AcDbLine
62
7
6
CONTINUOUS
10
20.2398266081
20
12.6722581729
11
20.2405414518
21
12.6518094348
0
LINE
5
711
100
AcDbEntity
8
0
100
AcDbLine
62
9
6
CONTINUOUS
10
16.1322666731
20
-12.4741410176
11
16.1491473069
21
-13.4442313234
0
LINE
5
712
100
AcDbEntity
8
0
100
AcDbLine
62
9
6
CONTINUOUS
10
16.1184546730
20
-11.5024853487
11
16.1322666731
21
-12.4741410176
0
LINE
5
713
100
AcDbEntity
8
0
100
AcDbLine
62
7
6
CONTINUOUS
10
20.2405414518
20
12.6518094348
11
20.2407783139
21
12.6315711682
0
LINE
5
714
100
AcDbEntity
8
0
100
AcDbLine
62
9
6
CONTINUOUS
10
14.9863360736
20
-10.5322429399
11
14.9971070734
21
-11.5080288905
0
LINE
5
715
100
AcDbEntity
8
0
100
AcDbLine
62
9
6
CONTINUOUS
10
16.1077118970
20
-10.5293058736
11
16.1184546730
21
-11.5024853487
0
LINE
5
716
100
AcDbEntity
8
0
100
AcDbLine
62
9
6
CONTINUOUS
10
14.9786423945
20
-9.5549290241
11
14.9863360736
21
-10.5322429399
0
LINE
5
717
100
AcDbEntity
8
0
100
AcDbLine
62
9
6
CONTINUOUS
10
16.1000384762
20
-9.5546025265
11
16.1077118970
21
-10.5293058736
0
LINE
5
718
100
AcDbEntity
8
0
100
AcDbLine
62
9
6
CONTINUOUS
10
14.9740261414
20
-8.5761010777
11
14.9786423945
21
-9.5549290241
0
LINE
5
719
100
AcDbEntity
8
0
100
AcDbLine
62
9
6
CONTINUOUS
10
16.0954342795
20
-8.5783753732
11
16.1000384762
21
-9.5546025265
0
LINE
5
71A
100
AcDbEntity
8
0
100
AcDbLine
62
9
6
CONTINUOUS
10
14.9724873824
20
-7.5957730525
11
14.9740261414
21
-8.5761010777
0
LINE
5
71B
100
AcDbEntity
8
0
100
AcDbLine
62
9
6
CONTINUOUS
10
16.0938995037
20
-7.6006661672
11
16.0954342795
21
-8.5783753732
0
LINE
5
71C
100
AcDbEntity
8
0
100
AcDbLine
62
7
6
CONTINUOUS
10
20.2407783139
20
12.6315711682
11
20.2407783139
21
-23.8283093709
0
LINE
5
71D
100
AcDbEntity
8
0
100
AcDbLine
62
9
6
CONTINUOUS
10
14.9740261414
20
-6.6139589284
11
14.9724873824
21
-7.5957730525
0
LINE
5
71E
100
AcDbEntity
8
0
100
AcDbLine
62
9
6
CONTINUOUS
10
16.0954342801
20
-6.6214748452
11
16.0938995037
21
-7.6006661672
0
LINE
5
71F
100
AcDbEntity
8
0
100
AcDbLine
62
9
6
CONTINUOUS
10
14.9786423945
20
-5.6306727045
11
14.9740261414
21
-6.6139589284
0
LINE
5
720
100
AcDbEntity
8
0
100
AcDbLine
62
9
6
CONTINUOUS
10
16.1000384774
20
-5.6408014706
11
16.0954342801
21
-6.6214748452
0
LINE
5
721
100
AcDbEntity
8
0
100
AcDbLine
62
9
6
CONTINUOUS
10
14.9863360736
20
-4.6459283941
11
14.9786423945
21
-5.6306727045
0
LINE
5
722
100
AcDbEntity
8
0
100
AcDbLine
62
9
6
CONTINUOUS
10
16.1077118987
20
-4.6586879870
11
16.1000384774
21
-5.6408014706
0
LINE
5
723
100
AcDbEntity
8
0
100
AcDbLine
62
9
6
CONTINUOUS
10
14.9971070734
20
-3.6597400414
11
14.9863360736
21
-4.6459283941
0
LINE
5
724
100
AcDbEntity
8
0
100
AcDbLine
62
9
6
CONTINUOUS
10
16.1184546753
20
-3.6751343334
11
16.1077118987
21
-4.6586879870
0
LINE
5
725
100
AcDbEntity
8
0
100
AcDbLine
62
7
6
CONTINUOUS
10
20.2407783139
20
-23.8283093709
11
20.2405414518
21
-23.8483107756
0
LINE
5
726
100
AcDbEntity
8
0
100
AcDbLine
62
9
6
CONTINUOUS
10
15.0109552405
20
-2.6721217087
11
14.9971070734
21
-3.6597400414
0
LINE
5
727
100
AcDbEntity
8
0
100
AcDbLine
62
9
6
CONTINUOUS
10
16.1322666760
20
-2.6901405708
11
16.1184546753
21
-3.6751343334
0
LINE
5
728
100
AcDbEntity
8
0
100
AcDbLine
62
9
6
CONTINUOUS
10
15.0278803711
20
-1.6830874673
11
15.0109552405
21
-2.6721217087
0
LINE
5
729
100
AcDbEntity
8
0
100
AcDbLine
62
9
6
CONTINUOUS
10
16.1491473104
20
-1.7037488263
11
16.1322666760
21
-2.6901405708
0
LINE
5
72A
100
AcDbEntity
8
DEFAULT_3
100
AcDbLine
62
9
6
PHANTOM
10
6.1000465129
20
-10.3552769321
11
6.0996094001
21
-10.3779512849
0
LINE
5
72B
100
AcDbEntity
8
0
100
AcDbLine
62
9
6
CONTINUOUS
10
15.0478822303
20
-0.6926514223
11
15.0278803711
21
-1.6830874673
0
LINE
5
72C
100
AcDbEntity
8
0
100
AcDbLine
62
9
6
CONTINUOUS
10
16.1690967096
20
-0.7159590393
11
16.1491473104
21
-1.7037488263
0
LINE
5
72D
100
AcDbEntity
8
0
100
AcDbLine
62
9
6
CONTINUOUS
10
15.0709605356
20
0.2991723010
11
15.0478822303
21
-0.6926514223
0
LINE
5
72E
100
AcDbEntity
8
0
100
AcDbLine
62
9
6
CONTINUOUS
10
16.1921147424
20
0.2732287298
11
16.1690967096
21
-0.7159590393
0
LINE
5
72F
100
AcDbEntity
8
0
100
AcDbLine
62
9
6
CONTINUOUS
10
15.0971149470
20
1.2923695709
11
15.0709605356
21
0.2991723010
0
LINE
5
730
100
AcDbEntity
8
0
100
AcDbLine
62
9
6
CONTINUOUS
10
16.2182004248
20
1.2637721716
11
16.1921147424
21
0.2732287298
0
LINE
5
731
100
AcDbEntity
8
0
100
AcDbLine
62
9
6
CONTINUOUS
10
17.0846220435
20
-25.2859269280
11
17.0840493964
21
-25.3072678576
0
LINE
5
732
100
AcDbEntity
8
0
100
AcDbLine
62
9
6
CONTINUOUS
10
15.1263451004
20
2.2869262224
11
15.0971149470
21
1.2923695709
0
LINE
5
733
100
AcDbEntity
8
0
100
AcDbLine
62
9
6
CONTINUOUS
10
16.2473538881
20
2.2556713460
11
16.2182004248
21
1.2637721716
0
LINE
5
734
100
AcDbEntity
8
0
100
AcDbLine
62
9
6
CONTINUOUS
10
15.1586505840
20
3.2828280699
11
15.1263451004
21
2.2869262224
0
LINE
5
735
100
AcDbEntity
8
0
100
AcDbLine
62
9
6
CONTINUOUS
10
16.2795750010
20
3.2489261933
11
16.2473538881
21
2.2556713460
0
LINE
5
736
100
AcDbEntity
8
0
100
AcDbLine
62
7
6
CONTINUOUS
10
6.6191394817
20
-17.5928541378
11
6.6188382438
21
-17.6019137766
0
LINE
5
737
100
AcDbEntity
8
0
100
AcDbLine
62
9
6
CONTINUOUS
10
15.1940309216
20
4.2800609207
11
15.1586505840
21
3.2828280699
0
LINE
5
738
100
AcDbEntity
8
0
100
AcDbLine
62
9
6
CONTINUOUS
10
16.3148623857
20
4.2434942255
11
16.2795750010
21
3.2489261933
0
LINE
5
739
100
AcDbEntity
8
0
100
AcDbLine
62
7
6
CONTINUOUS
10
20.2405414518
20
-23.8483107756
11
20.2398266081
21
-23.8680446700
0
LINE
5
73A
100
AcDbEntity
8
0
100
AcDbLine
62
9
6
CONTINUOUS
10
15.2324856196
20
5.2786105468
11
15.1940309216
21
4.2800609207
0
LINE
5
73B
100
AcDbEntity
8
0
100
AcDbLine
62
9
6
CONTINUOUS
10
16.3532161746
20
5.2393755200
11
16.3148623857
21
4.2434942255
0
LINE
5
73C
100
AcDbEntity
8
0
100
AcDbLine
62
9
6
CONTINUOUS
10
15.2740141372
20
6.2784627089
11
15.2324856196
21
5.2786105468
0
LINE
5
73D
100
AcDbEntity
8
0
100
AcDbLine
62
9
6
CONTINUOUS
10
16.3946362352
20
6.2365699994
11
16.3532161746
21
5.2393755200
0
LINE
5
73E
100
AcDbEntity
8
0
100
AcDbLine
62
9
6
CONTINUOUS
10
15.3186158624
20
7.2796031687
11
15.2740141372
21
6.2784627089
0
LINE
5
73F
100
AcDbEntity
8
0
100
AcDbLine
62
9
6
CONTINUOUS
10
16.4391207930
20
7.2350349445
11
16.3946362352
21
6.2365699994
0
LINE
5
740
100
AcDbEntity
8
0
100
AcDbLine
62
9
6
CONTINUOUS
10
15.3662901605
20
8.2820176532
11
15.3186158624
21
7.2796031687
0
LINE
5
741
100
AcDbEntity
8
0
100
AcDbLine
62
9
6
CONTINUOUS
10
16.4866692564
20
8.2347561152
11
16.4391207930
21
7.2350349445
0
LINE
5
742
100
AcDbEntity
8
0
100
AcDbLine
62
9
6
CONTINUOUS
10
15.4170363736
20
9.2856918550
11
15.3662901605
21
8.2820176532
0
LINE
5
743
100
AcDbEntity
8
0
100
AcDbLine
62
9
6
CONTINUOUS
10
16.5372822169
20
9.2357477516
11
16.4866692564
21
8.2347561152
0
LINE
5
744
100
AcDbEntity
8
0
100
AcDbLine
62
9
6
CONTINUOUS
10
17.0840493964
20
-25.3072678576
11
17.0829503562
21
-25.3283157228
0
LINE
5
745
100
AcDbEntity
8
0
100
AcDbLine
62
9
6
CONTINUOUS
10
-0.8583648432
20
0.4274745933
11
-0.8616131746
21
0.3669481653
0
LINE
5
746
100
AcDbEntity
8
0
100
AcDbLine
62
9
6
CONTINUOUS
10
0.7770192031
20
-0.5808335234
11
0.7802675372
21
-0.5203070941
0
LINE
5
747
100
AcDbEntity
8
0
100
AcDbLine
62
9
6
CONTINUOUS
10
15.4708537906
20
10.2906114563
11
15.4170363736
21
9.2856918550
0
LINE
5
748
100
AcDbEntity
8
0
100
AcDbLine
62
9
6
CONTINUOUS
10
16.5909596745
20
10.2380098534
11
16.5372822169
21
9.2357477516
0
LINE
5
749
100
AcDbEntity
8
0
100
AcDbLine
62
7
6
CONTINUOUS
10
0.8294279752
20
-0.5823501066
11
0.8278446620
21
-0.6105210254
0
LINE
5
74A
100
AcDbEntity
8
0
100
AcDbLine
62
7
6
CONTINUOUS
10
-0.9357899746
20
0.4164829968
11
-0.9341934429
21
0.4446605249
0
LINE
5
74B
100
AcDbEntity
8
0
100
AcDbLine
62
7
6
CONTINUOUS
10
-0.8830275856
20
0.4040761735
11
-0.8791402758
21
0.4714903600
0
LINE
5
74C
100
AcDbEntity
8
DEFAULT_3
100
AcDbLine
62
9
6
PHANTOM
10
-5.5300675390
20
-9.7534185368
11
-5.5293712072
21
-9.7425678702
0
LINE
5
74D
100
AcDbEntity
8
0
100
AcDbLine
62
9
6
CONTINUOUS
10
15.4729784201
20
10.3237107718
11
15.4708537906
21
10.2906114563
0
LINE
5
74E
100
AcDbEntity
8
DEFAULT_3
100
AcDbLine
62
9
6
PHANTOM
10
6.3791154445
20
-17.4216193807
11
6.3788871536
21
-17.4250492520
0
LINE
5
74F
100
AcDbEntity
8
0
100
AcDbLine
62
7
6
CONTINUOUS
10
6.6188382438
20
-17.6019137766
11
6.6182398313
21
-17.6108057800
0
LINE
5
750
100
AcDbEntity
8
DEFAULT_3
100
AcDbLine
62
9
6
PHANTOM
10
-5.1200519052
20
-4.7876427745
11
-5.1172351638
21
-4.7508842817
0
LINE
5
751
100
AcDbEntity
8
0
100
AcDbLine
62
7
6
CONTINUOUS
10
0.8278446620
20
-0.6105210254
11
0.8256264921
21
-0.6383379349
0
LINE
5
752
100
AcDbEntity
8
0
100
AcDbLine
62
7
6
CONTINUOUS
10
-0.9341934429
20
0.4446605249
11
-0.9319568044
21
0.4724866687
0
LINE
5
753
100
AcDbEntity
8
DEFAULT_3
100
AcDbLine
62
9
6
PHANTOM
10
-6.1676902451
20
-4.1870695562
11
-6.1700160480
21
-4.2135526565
0
LINE
5
754
100
AcDbEntity
8
DEFAULT_3
100
AcDbLine
62
9
6
PHANTOM
10
-6.0969369421
20
-4.3183020598
11
-6.0966255349
21
-4.3148263618
0
LINE
5
755
100
AcDbEntity
8
0
100
AcDbLine
62
7
6
CONTINUOUS
10
-6.3150160096
20
-4.0540379415
11
-6.3141998619
21
-4.0450119006
0
LINE
5
756
100
AcDbEntity
8
DEFAULT_3
100
AcDbLine
62
9
6
PHANTOM
10
-4.9946377180
20
-4.5662671670
11
-4.9926346081
21
-4.5451729288
0
LINE
5
757
100
AcDbEntity
8
DEFAULT_3
100
AcDbLine
62
9
6
PHANTOM
10
-6.0598555749
20
-4.2507110989
11
-6.0621900987
21
-4.2741582137
0
LINE
5
758
100
AcDbEntity
8
0
100
AcDbLine
62
9
6
CONTINUOUS
10
-14.5927258966
20
25.3912979719
11
-14.5893534385
21
25.4248989062
0
LINE
5
759
100
AcDbEntity
8
0
100
AcDbLine
62
7
6
CONTINUOUS
10
0.8256264921
20
-0.6383379349
11
0.8227758126
21
-0.6657780856
0
LINE
5
75A
100
AcDbEntity
8
0
100
AcDbLine
62
7
6
CONTINUOUS
10
-0.9319568044
20
0.4724866687
11
-0.9290824466
21
0.4999386585
0
LINE
5
75B
100
AcDbEntity
8
0
100
AcDbLine
62
7
6
CONTINUOUS
10
-14.8230704776
20
25.7075204139
11
-14.8270623670
21
25.6698115472
0
LINE
5
75C
100
AcDbEntity
8
0
100
AcDbLine
62
9
6
CONTINUOUS
10
-0.8520094024
20
0.4858754296
11
-0.8583648432
21
0.4274745933
0
LINE
5
75D
100
AcDbEntity
8
0
100
AcDbLine
62
9
6
CONTINUOUS
10
0.7706637613
20
-0.6392343602
11
0.7770192031
21
-0.5808335234
0
LINE
5
75E
100
AcDbEntity
8
0
100
AcDbLine
62
7
6
CONTINUOUS
10
-0.8791402758
20
0.4714903600
11
-0.8716220768
21
0.5368323976
0
LINE
5
75F
100
AcDbEntity
8
0
100
AcDbLine
62
9
6
CONTINUOUS
10
-14.5893534385
20
25.4248989062
11
-14.5853428345
21
25.4587112060
0
LINE
5
760
100
AcDbEntity
8
0
100
AcDbLine
62
7
6
CONTINUOUS
10
-6.3141998619
20
-4.0450119006
11
-6.3130863893
21
-4.0361739659
0
LINE
5
761
100
AcDbEntity
8
0
100
AcDbLine
62
7
6
CONTINUOUS
10
-14.8182323414
20
25.7451663893
11
-14.8230704776
21
25.7075204139
0
LINE
5
762
100
AcDbEntity
8
0
100
AcDbLine
62
9
6
CONTINUOUS
10
-14.5853428345
20
25.4587112060
11
-14.5806965393
21
25.4927141992
0
LINE
5
763
100
AcDbEntity
8
0
100
AcDbLine
62
7
6
CONTINUOUS
10
-14.8125609109
20
25.7827350794
11
-14.8182323414
21
25.7451663893
0
LINE
5
764
100
AcDbEntity
8
0
100
AcDbLine
62
9
6
CONTINUOUS
10
-14.5806965393
20
25.4927141992
11
-14.5754173329
21
25.5268871812
0
LINE
5
765
100
AcDbEntity
8
0
100
AcDbLine
62
9
6
CONTINUOUS
10
-14.5754173329
20
25.5268871812
11
-14.5695084678
21
25.5612093127
0
LINE
5
766
100
AcDbEntity
8
0
100
AcDbLine
62
7
6
CONTINUOUS
10
-14.8060725665
20
25.8201898310
11
-14.8125609109
21
25.7827350794
0
LINE
5
767
100
AcDbEntity
8
0
100
AcDbLine
62
9
6
CONTINUOUS
10
-13.8677320402
20
27.1026706552
11
-13.8526791630
21
27.1062012065
0
LINE
5
768
100
AcDbEntity
8
0
100
AcDbLine
62
7
6
CONTINUOUS
10
-10.8154322897
20
28.7492349705
11
-10.8013054304
21
28.7525005177
0
LINE
5
769
100
AcDbEntity
8
0
100
AcDbLine
62
7
6
CONTINUOUS
10
20.2398266081
20
-23.8680446700
11
20.2386337828
21
-23.8875110542
0
LINE
5
76A
100
AcDbEntity
8
0
100
AcDbLine
62
9
6
CONTINUOUS
10
16.5919615026
20
10.2534630755
11
16.5909596745
21
10.2380098534
0
LINE
5
76B
100
AcDbEntity
8
0
100
AcDbLine
62
9
6
CONTINUOUS
10
17.0829503562
20
-25.3283157228
11
17.0813259651
21
-25.3490505661
0
LINE
5
76C
100
AcDbEntity
8
0
100
AcDbLine
62
9
6
CONTINUOUS
10
15.4757554824
20
10.3570572825
11
15.4729784201
21
10.3237107718
0
LINE
5
76D
100
AcDbEntity
8
0
100
AcDbLine
62
9
6
CONTINUOUS
10
16.5932687870
20
10.2690122693
11
16.5919615026
21
10.2534630755
0
LINE
5
76E
100
AcDbEntity
8
0
100
AcDbLine
62
7
6
CONTINUOUS
10
20.2386337828
20
-23.8875110542
11
20.2369607252
21
-23.9067353224
0
LINE
5
76F
100
AcDbEntity
8
DEFAULT_3
100
AcDbLine
62
9
6
PHANTOM
10
6.1023809546
20
-10.3318301807
11
6.1000465129
21
-10.3552769321
0
LINE
5
770
100
AcDbEntity
8
0
100
AcDbLine
62
9
6
CONTINUOUS
10
15.4791832850
20
10.3906305445
11
15.4757554824
21
10.3570572825
0
LINE
5
771
100
AcDbEntity
8
0
100
AcDbLine
62
7
6
CONTINUOUS
10
6.6182398313
20
-17.6108057800
11
6.6173438351
21
-17.6195103914
0
LINE
5
772
100
AcDbEntity
8
0
100
AcDbLine
62
9
6
CONTINUOUS
10
16.5948815276
20
10.2846574348
11
16.5932687870
21
10.2690122693
0
LINE
5
773
100
AcDbEntity
8
0
100
AcDbLine
62
9
6
CONTINUOUS
10
17.0813259651
20
-25.3490505661
11
17.0791777633
21
-25.3694527269
0
LINE
5
774
100
AcDbEntity
8
0
100
AcDbLine
62
7
6
CONTINUOUS
10
20.2369607252
20
-23.9067353224
11
20.2348096859
21
-23.9256920804
0
LINE
5
775
100
AcDbEntity
8
0
100
AcDbLine
62
9
6
CONTINUOUS
10
15.4832597565
20
10.4244099106
11
15.4791832850
21
10.3906305445
0
LINE
5
776
100
AcDbEntity
8
0
100
AcDbLine
62
9
6
CONTINUOUS
10
16.5968011067
20
10.3004086450
11
16.5948815276
21
10.2846574348
0
LINE
5
777
100
AcDbEntity
8
0
100
AcDbLine
62
7
6
CONTINUOUS
10
0.8227758126
20
-0.6657780856
11
0.8192996701
21
-0.6927732269
0
LINE
5
778
100
AcDbEntity
8
0
100
AcDbLine
62
7
6
CONTINUOUS
10
-0.9290824466
20
0.4999386585
11
-0.9255775260
21
0.5269481889
0
LINE
5
779
100
AcDbEntity
8
0
100
AcDbLine
62
9
6
CONTINUOUS
10
15.4879823961
20
10.4583747315
11
15.4832597565
21
10.4244099106
0
LINE
5
77A
100
AcDbEntity
8
0
100
AcDbLine
62
7
6
CONTINUOUS
10
6.6173438351
20
-17.6195103914
11
6.6161524958
21
-17.6279971188
0
LINE
5
77B
100
AcDbEntity
8
0
100
AcDbLine
62
9
6
CONTINUOUS
10
16.5990261422
20
10.3162558268
11
16.5968011067
21
10.3004086450
0
LINE
5
77C
100
AcDbEntity
8
DEFAULT_3
100
AcDbLine
62
9
6
PHANTOM
10
6.3788871536
20
-17.4250492520
11
6.3783956287
21
-17.4282760721
0
LINE
5
77D
100
AcDbEntity
8
DEFAULT_3
100
AcDbLine
62
9
6
PHANTOM
10
-5.1172351638
20
-4.7508842817
11
-5.1117644827
21
-4.7150296376
0
LINE
5
77E
100
AcDbEntity
8
DEFAULT_3
100
AcDbLine
62
9
6
PHANTOM
10
-4.9926346081
20
-4.5451729288
11
-4.9897418531
21
-4.5262514732
0
LINE
5
77F
100
AcDbEntity
8
0
100
AcDbLine
62
7
6
CONTINUOUS
10
0.8192996701
20
-0.6927732269
11
0.8151976365
21
-0.7193161344
0
LINE
5
780
100
AcDbEntity
8
0
100
AcDbLine
62
7
6
CONTINUOUS
10
-0.9255775260
20
0.5269481889
11
-0.9214416938
21
0.5535079957
0
LINE
5
781
100
AcDbEntity
8
0
100
AcDbLine
62
7
6
CONTINUOUS
10
-6.3130863893
20
-4.0361739659
11
-6.3116783605
21
-4.0275549996
0
LINE
5
782
100
AcDbEntity
8
0
100
AcDbLine
62
9
6
CONTINUOUS
10
-0.8425848149
20
0.5420371937
11
-0.8520094024
21
0.4858754296
0
LINE
5
783
100
AcDbEntity
8
0
100
AcDbLine
62
9
6
CONTINUOUS
10
0.7612391734
20
-0.6953961246
11
0.7706637613
21
-0.6392343602
0
LINE
5
784
100
AcDbEntity
8
DEFAULT_3
100
AcDbLine
62
9
6
PHANTOM
10
-6.0966255349
20
-4.3148263618
11
-6.0960524836
21
-4.3115545918
0
LINE
5
785
100
AcDbEntity
8
DEFAULT_3
100
AcDbLine
62
9
6
PHANTOM
10
-6.0556487940
20
-4.2267440095
11
-6.0598555749
21
-4.2507110989
0
LINE
5
786
100
AcDbEntity
8
0
100
AcDbLine
62
7
6
CONTINUOUS
10
-0.8716220768
20
0.5368323976
11
-0.8604848291
21
0.5999209950
0
LINE
5
787
100
AcDbEntity
8
DEFAULT_3
100
AcDbLine
62
9
6
PHANTOM
10
-6.1630063894
20
-4.1611535984
11
-6.1676902451
21
-4.1870695562
0
LINE
5
788
100
AcDbEntity
8
0
100
AcDbLine
62
7
6
CONTINUOUS
10
0.8151976365
20
-0.7193161344
11
0.8104700684
21
-0.7454140676
0
LINE
5
789
100
AcDbEntity
8
0
100
AcDbLine
62
7
6
CONTINUOUS
10
-0.9214416938
20
0.5535079957
11
-0.9166753703
21
0.5796253066
0
LINE
5
78A
100
AcDbEntity
8
0
100
AcDbLine
62
9
6
CONTINUOUS
10
-14.5695084678
20
25.5612093127
11
-14.5629735921
21
25.5956594892
0
LINE
5
78B
100
AcDbEntity
8
0
100
AcDbLine
62
7
6
CONTINUOUS
10
-14.7987790291
20
25.8575250556
11
-14.8060725665
21
25.8201898310
0
LINE
5
78C
100
AcDbEntity
8
0
100
AcDbLine
62
7
6
CONTINUOUS
10
-6.3116783605
20
-4.0275549996
11
-6.3099794656
21
-4.0191706351
0
LINE
5
78D
100
AcDbEntity
8
0
100
AcDbLine
62
9
6
CONTINUOUS
10
-14.5629735921
20
25.5956594892
11
-14.5558166591
21
25.6302164757
0
LINE
5
78E
100
AcDbEntity
8
0
100
AcDbLine
62
7
6
CONTINUOUS
10
-14.7906904235
20
25.8947344599
11
-14.7987790291
21
25.8575250556
0
LINE
5
78F
100
AcDbEntity
8
0
100
AcDbLine
62
9
6
CONTINUOUS
10
-14.5558166591
20
25.6302164757
11
-14.5480421099
21
25.6648590748
0
LINE
5
790
100
AcDbEntity
8
0
100
AcDbLine
62
7
6
CONTINUOUS
10
-14.7818249349
20
25.9317765730
11
-14.7906904235
21
25.8947344599
0
LINE
5
791
100
AcDbEntity
8
0
100
AcDbLine
62
9
6
CONTINUOUS
10
-14.5480421099
20
25.6648590748
11
-14.5396547314
21
25.6995661143
0
LINE
5
792
100
AcDbEntity
8
0
100
AcDbLine
62
9
6
CONTINUOUS
10
-14.5396547314
20
25.6995661143
11
-14.5306595705
21
25.7343163194
0
LINE
5
793
100
AcDbEntity
8
0
100
AcDbLine
62
7
6
CONTINUOUS
10
-14.7721926728
20
25.9686455727
11
-14.7818249349
21
25.9317765730
0
LINE
5
794
100
AcDbEntity
8
0
100
AcDbLine
62
7
6
CONTINUOUS
10
-10.8293080043
20
28.7453438719
11
-10.8154322897
21
28.7492349705
0
LINE
5
795
100
AcDbEntity
8
0
100
AcDbLine
62
9
6
CONTINUOUS
10
17.0791777633
20
-25.3694527269
11
17.0765077876
21
-25.3895028601
0
LINE
5
796
100
AcDbEntity
8
0
100
AcDbLine
62
7
6
CONTINUOUS
10
20.2348096859
20
-23.9256920804
11
20.2321874172
21
-23.9443051458
0
LINE
5
797
100
AcDbEntity
8
0
100
AcDbLine
62
9
6
CONTINUOUS
10
15.4933482861
20
10.4925043717
11
15.4879823961
21
10.4583747315
0
LINE
5
798
100
AcDbEntity
8
0
100
AcDbLine
62
9
6
CONTINUOUS
10
16.6015524869
20
10.3321687616
11
16.5990261422
21
10.3162558268
0
LINE
5
799
100
AcDbEntity
8
0
100
AcDbLine
62
9
6
CONTINUOUS
10
17.0765077876
20
-25.3895028601
11
17.0733185698
21
-25.4091819541
0
LINE
5
79A
100
AcDbEntity
8
0
100
AcDbLine
62
7
6
CONTINUOUS
10
20.2321874172
20
-23.9443051458
11
20.2290913109
21
-23.9625680205
0
LINE
5
79B
100
AcDbEntity
8
0
100
AcDbLine
62
9
6
CONTINUOUS
10
15.4993541944
20
10.5267779816
11
15.4933482861
21
10.4925043717
0
LINE
5
79C
100
AcDbEntity
8
DEFAULT_3
100
AcDbLine
62
9
6
PHANTOM
10
6.1065876119
20
-10.3078634014
11
6.1023809546
21
-10.3318301807
0
LINE
5
79D
100
AcDbEntity
8
0
100
AcDbLine
62
9
6
CONTINUOUS
10
16.6043806750
20
10.3481472122
11
16.6015524869
21
10.3321687616
0
LINE
5
79E
100
AcDbEntity
8
0
100
AcDbLine
62
7
6
CONTINUOUS
10
6.6161524958
20
-17.6279971188
11
6.6146690254
21
-17.6362505793
0
LINE
5
79F
100
AcDbEntity
8
0
100
AcDbLine
62
9
6
CONTINUOUS
10
17.0733185698
20
-25.4091819541
11
17.0696131338
21
-25.4284713495
0
LINE
5
7A0
100
AcDbEntity
8
0
100
AcDbLine
62
9
6
CONTINUOUS
10
15.5059964525
20
10.5611744669
11
15.4993541944
21
10.5267779816
0
LINE
5
7A1
100
AcDbEntity
8
0
100
AcDbLine
62
9
6
CONTINUOUS
10
16.6075101724
20
10.3641914158
11
16.6043806750
21
10.3481472122
0
LINE
5
7A2
100
AcDbEntity
8
0
100
AcDbLine
62
7
6
CONTINUOUS
10
0.8104700684
20
-0.7454140676
11
0.8051251570
21
-0.7710205189
0
LINE
5
7A3
100
AcDbEntity
8
0
100
AcDbLine
62
7
6
CONTINUOUS
10
-0.9166753703
20
0.5796253066
11
-0.9112868987
21
0.6052535379
0
LINE
5
7A4
100
AcDbEntity
8
0
100
AcDbLine
62
9
6
CONTINUOUS
10
15.5132709078
20
10.5956726923
11
15.5059964525
21
10.5611744669
0
LINE
5
7A5
100
AcDbEntity
8
0
100
AcDbLine
62
9
6
CONTINUOUS
10
16.6109352303
20
10.3802718643
11
16.6075101724
21
10.3641914158
0
LINE
5
7A6
100
AcDbEntity
8
DEFAULT_3
100
AcDbLine
62
9
6
PHANTOM
10
-4.9897418531
20
-4.5262514732
11
-4.9861294113
21
-4.5094896515
0
LINE
5
7A7
100
AcDbEntity
8
0
100
AcDbLine
62
7
6
CONTINUOUS
10
6.6146690254
20
-17.6362505793
11
6.6128957880
21
-17.6442634027
0
LINE
5
7A8
100
AcDbEntity
8
DEFAULT_3
100
AcDbLine
62
9
6
PHANTOM
10
-5.1117644827
20
-4.7150296376
11
-5.1037726619
21
-4.6803607266
0
LINE
5
7A9
100
AcDbEntity
8
0
100
AcDbLine
62
9
6
CONTINUOUS
10
-0.8301183051
20
0.5958520285
11
-0.8425848149
21
0.5420371937
0
LINE
5
7AA
100
AcDbEntity
8
0
100
AcDbLine
62
9
6
CONTINUOUS
10
0.7487726621
20
-0.7492109601
11
0.7612391734
21
-0.6953961246
0
LINE
5
7AB
100
AcDbEntity
8
0
100
AcDbLine
62
7
6
CONTINUOUS
10
0.8051251570
20
-0.7710205189
11
0.7991597151
21
-0.7961417735
0
LINE
5
7AC
100
AcDbEntity
8
0
100
AcDbLine
62
7
6
CONTINUOUS
10
-0.9112868987
20
0.6052535379
11
-0.9052731740
21
0.6303989340
0
LINE
5
7AD
100
AcDbEntity
8
0
100
AcDbLine
62
7
6
CONTINUOUS
10
-0.8604848291
20
0.5999209950
11
-0.8457584942
21
0.6605042766
0
LINE
5
7AE
100
AcDbEntity
8
0
100
AcDbLine
62
7
6
CONTINUOUS
10
-6.3099794656
20
-4.0191706351
11
-6.3079924762
21
-4.0110284050
0
LINE
5
7AF
100
AcDbEntity
8
DEFAULT_3
100
AcDbLine
62
9
6
PHANTOM
10
-6.0496150380
20
-4.2025149292
11
-6.0556487940
21
-4.2267440095
0
LINE
5
7B0
100
AcDbEntity
8
0
100
AcDbLine
62
7
6
CONTINUOUS
10
-0.9052731740
20
0.6303989340
11
-0.8986373959
21
0.6550552025
0
LINE
5
7B1
100
AcDbEntity
8
DEFAULT_3
100
AcDbLine
62
9
6
PHANTOM
10
-6.0960524836
20
-4.3115545918
11
-6.0952097033
21
-4.3084618697
0
LINE
5
7B2
100
AcDbEntity
8
0
100
AcDbLine
62
9
6
CONTINUOUS
10
-14.5306595705
20
25.7343163194
11
-14.5210621913
21
25.7690884271
0
LINE
5
7B3
100
AcDbEntity
8
DEFAULT_3
100
AcDbLine
62
9
6
PHANTOM
10
-6.1560132267
20
-4.1359642646
11
-6.1630063894
21
-4.1611535984
0
LINE
5
7B4
100
AcDbEntity
8
0
100
AcDbLine
62
7
6
CONTINUOUS
10
-14.7618025670
20
26.0053358433
11
-14.7721926728
21
25.9686455727
0
LINE
5
7B5
100
AcDbEntity
8
0
100
AcDbLine
62
9
6
CONTINUOUS
10
-14.5210621913
20
25.7690884271
11
-14.5108685143
21
25.8038611427
0
LINE
5
7B6
100
AcDbEntity
8
0
100
AcDbLine
62
7
6
CONTINUOUS
10
-14.7506743494
20
26.0418039541
11
-14.7618025670
21
26.0053358433
0
LINE
5
7B7
100
AcDbEntity
8
0
100
AcDbLine
62
9
6
CONTINUOUS
10
-14.5108685143
20
25.8038611427
11
-14.5000846754
21
25.8386131267
0
LINE
5
7B8
100
AcDbEntity
8
0
100
AcDbLine
62
7
6
CONTINUOUS
10
-14.7388173650
20
26.0780425868
11
-14.7506743494
21
26.0418039541
0
LINE
5
7B9
100
AcDbEntity
8
0
100
AcDbLine
62
9
6
CONTINUOUS
10
-14.5000846754
20
25.8386131267
11
-14.4887173386
21
25.8733231286
0
LINE
5
7BA
100
AcDbEntity
8
0
100
AcDbLine
62
7
6
CONTINUOUS
10
20.2290913109
20
-23.9625680205
11
20.2255239751
21
-23.9804872025
0
LINE
5
7BB
100
AcDbEntity
8
0
100
AcDbLine
62
9
6
CONTINUOUS
10
17.0696131338
20
-25.4284713495
11
17.0653949931
21
-25.4473527562
0
LINE
5
7BC
100
AcDbEntity
8
0
100
AcDbLine
62
9
6
CONTINUOUS
10
15.5211731366
20
10.6302514516
11
15.5132709078
21
10.5956726923
0
LINE
5
7BD
100
AcDbEntity
8
0
100
AcDbLine
62
7
6
CONTINUOUS
10
20.2255239751
20
-23.9804872025
11
20.2214999859
21
-23.9980060031
0
LINE
5
7BE
100
AcDbEntity
8
0
100
AcDbLine
62
9
6
CONTINUOUS
10
16.6146563903
20
10.3963886054
11
16.6109352303
21
10.3802718643
0
LINE
5
7BF
100
AcDbEntity
8
0
100
AcDbLine
62
9
6
CONTINUOUS
10
15.5296983346
20
10.6648895813
11
15.5211731366
21
10.6302514516
0
LINE
5
7C0
100
AcDbEntity
8
0
100
AcDbLine
62
9
6
CONTINUOUS
10
16.6186731108
20
10.4125415914
11
16.6146563903
21
10.3963886054
0
LINE
5
7C1
100
AcDbEntity
8
DEFAULT_3
100
AcDbLine
62
9
6
PHANTOM
10
6.1126212188
20
-10.2836345665
11
6.1065876119
21
-10.3078634014
0
LINE
5
7C2
100
AcDbEntity
8
DEFAULT_3
100
AcDbLine
62
9
6
PHANTOM
10
6.3783956287
20
-17.4282760721
11
6.3776334433
21
-17.4313243577
0
LINE
5
7C3
100
AcDbEntity
8
0
100
AcDbLine
62
9
6
CONTINUOUS
10
17.0653949931
20
-25.4473527562
11
17.0606681474
21
-25.4658082710
0
LINE
5
7C4
100
AcDbEntity
8
0
100
AcDbLine
62
7
6
CONTINUOUS
10
20.2214999859
20
-23.9980060031
11
20.2170234565
21
-24.0151079730
0
LINE
5
7C5
100
AcDbEntity
8
0
100
AcDbLine
62
9
6
CONTINUOUS
10
15.5388412031
20
10.6995659327
11
15.5296983346
21
10.6648895813
0
LINE
5
7C6
100
AcDbEntity
8
0
100
AcDbLine
62
7
6
CONTINUOUS
10
6.6128957880
20
-17.6442634027
11
6.6108368794
21
-17.6520194774
0
LINE
5
7C7
100
AcDbEntity
8
0
100
AcDbLine
62
9
6
CONTINUOUS
10
16.6229780182
20
10.4287011717
11
16.6186731108
21
10.4125415914
0
LINE
5
7C8
100
AcDbEntity
8
0
100
AcDbLine
62
7
6
CONTINUOUS
10
0.7991597151
20
-0.7961417735
11
0.7925768352
21
-0.8207715929
0
LINE
5
7C9
100
AcDbEntity
8
DEFAULT_3
100
AcDbLine
62
9
6
PHANTOM
10
-5.5293712072
20
-9.7425678702
11
-5.5259801115
21
-9.7304501628
0
LINE
5
7CA
100
AcDbEntity
8
0
100
AcDbLine
62
9
6
CONTINUOUS
10
15.5485961964
20
10.7342592332
11
15.5388412031
21
10.6995659327
0
LINE
5
7CB
100
AcDbEntity
8
0
100
AcDbLine
62
9
6
CONTINUOUS
10
16.6275716411
20
10.4448673608
11
16.6229780182
21
10.4287011717
0
LINE
5
7CC
100
AcDbEntity
8
DEFAULT_3
100
AcDbLine
62
9
6
PHANTOM
10
-4.9861294113
20
-4.5094896515
11
-4.9819683901
21
-4.4948700527
0
LINE
5
7CD
100
AcDbEntity
8
0
100
AcDbLine
62
7
6
CONTINUOUS
10
-6.3079924762
20
-4.0110284050
11
-6.3057218252
21
-4.0031446143
0
LINE
5
7CE
100
AcDbEntity
8
0
100
AcDbLine
62
7
6
CONTINUOUS
10
0.7925768352
20
-0.8207715929
11
0.7853940951
21
-0.8448446994
0
LINE
5
7CF
100
AcDbEntity
8
0
100
AcDbLine
62
9
6
CONTINUOUS
10
15.5589573758
20
10.7689481977
11
15.5485961964
21
10.7342592332
0
LINE
5
7D0
100
AcDbEntity
8
0
100
AcDbLine
62
7
6
CONTINUOUS
10
-0.8986373959
20
0.6550552025
11
-0.8913973969
21
0.6791569384
0
LINE
5
7D1
100
AcDbEntity
8
0
100
AcDbLine
62
9
6
CONTINUOUS
10
-0.8146475997
20
0.6471439237
11
-0.8301183051
21
0.5958520285
0
LINE
5
7D2
100
AcDbEntity
8
0
100
AcDbLine
62
9
6
CONTINUOUS
10
0.7333019534
20
-0.8005028569
11
0.7487726621
21
-0.7492109601
0
LINE
5
7D3
100
AcDbEntity
8
0
100
AcDbLine
62
9
6
CONTINUOUS
10
16.6324534510
20
10.4610401441
11
16.6275716411
21
10.4448673608
0
LINE
5
7D4
100
AcDbEntity
8
DEFAULT_3
100
AcDbLine
62
9
6
PHANTOM
10
-5.1037726619
20
-4.6803607266
11
-5.0933655278
21
-4.6469214494
0
LINE
5
7D5
100
AcDbEntity
8
0
100
AcDbLine
62
7
6
CONTINUOUS
10
-0.8457584942
20
0.6605042766
11
-0.8275722159
21
0.7181064547
0
LINE
5
7D6
100
AcDbEntity
8
DEFAULT_3
100
AcDbLine
62
9
6
PHANTOM
10
-6.0418192550
20
-4.1782846622
11
-6.0496150380
21
-4.2025149292
0
LINE
5
7D7
100
AcDbEntity
8
0
100
AcDbLine
62
7
6
CONTINUOUS
10
0.7853940951
20
-0.8448446994
11
0.7776129251
21
-0.8683514518
0
LINE
5
7D8
100
AcDbEntity
8
0
100
AcDbLine
62
7
6
CONTINUOUS
10
-0.8913973969
20
0.6791569384
11
-0.8835547646
21
0.7026944219
0
LINE
5
7D9
100
AcDbEntity
8
0
100
AcDbLine
62
7
6
CONTINUOUS
10
-6.3057218252
20
-4.0031446143
11
-6.3031757587
21
-3.9955393861
0
LINE
5
7DA
100
AcDbEntity
8
0
100
AcDbLine
62
9
6
CONTINUOUS
10
-14.4887173386
20
25.8733231286
11
-14.4767735207
21
25.9079698863
0
LINE
5
7DB
100
AcDbEntity
8
0
100
AcDbLine
62
7
6
CONTINUOUS
10
-14.7262393711
20
26.1140469896
11
-14.7388173650
21
26.0780425868
0
LINE
5
7DC
100
AcDbEntity
8
0
100
AcDbLine
62
9
6
CONTINUOUS
10
-14.4767735207
20
25.9079698863
11
-14.4642604279
21
25.9425320832
0
LINE
5
7DD
100
AcDbEntity
8
0
100
AcDbLine
62
7
6
CONTINUOUS
10
-14.7129603140
20
26.1497759964
11
-14.7262393711
21
26.1140469896
0
LINE
5
7DE
100
AcDbEntity
8
0
100
AcDbLine
62
9
6
CONTINUOUS
10
-14.4642604279
20
25.9425320832
11
-14.4511858018
21
25.9769885667
0
LINE
5
7DF
100
AcDbEntity
8
0
100
AcDbLine
62
7
6
CONTINUOUS
10
-14.6989914227
20
26.1852158036
11
-14.7129603140
21
26.1497759964
0
LINE
5
7E0
100
AcDbEntity
8
0
100
AcDbLine
62
9
6
CONTINUOUS
10
-14.4511858018
20
25.9769885667
11
-14.4375577081
21
26.0113182569
0
LINE
5
7E1
100
AcDbEntity
8
0
100
AcDbLine
62
9
6
CONTINUOUS
10
-14.4375577081
20
26.0113182569
11
-14.4233843608
21
26.0455000462
0
LINE
5
7E2
100
AcDbEntity
8
0
100
AcDbLine
62
7
6
CONTINUOUS
10
-14.6843367623
20
26.2203675581
11
-14.6989914227
21
26.1852158036
0
LINE
5
7E3
100
AcDbEntity
8
0
100
AcDbLine
62
9
6
CONTINUOUS
10
17.0606681474
20
-25.4658082710
11
17.0554370785
21
-25.4838203945
0
LINE
5
7E4
100
AcDbEntity
8
0
100
AcDbLine
62
7
6
CONTINUOUS
10
20.2170234565
20
-24.0151079730
11
20.2120902736
21
-24.0318095615
0
LINE
5
7E5
100
AcDbEntity
8
0
100
AcDbLine
62
7
6
CONTINUOUS
10
6.6108368794
20
-17.6520194774
11
6.6084998904
21
-17.6594990165
0
LINE
5
7E6
100
AcDbEntity
8
0
100
AcDbLine
62
9
6
CONTINUOUS
10
15.5699182971
20
10.8036116404
11
15.5589573758
21
10.7689481977
0
LINE
5
7E7
100
AcDbEntity
8
0
100
AcDbLine
62
9
6
CONTINUOUS
10
16.6376144879
20
10.4771898277
11
16.6324534510
21
10.4610401441
0
LINE
5
7E8
100
AcDbEntity
8
DEFAULT_3
100
AcDbLine
62
9
6
PHANTOM
10
6.1204168437
20
-10.2594044703
11
6.1126212188
21
-10.2836345665
0
LINE
5
7E9
100
AcDbEntity
8
0
100
AcDbLine
62
9
6
CONTINUOUS
10
17.0554370785
20
-25.4838203945
11
17.0497067465
21
-25.5013720477
0
LINE
5
7EA
100
AcDbEntity
8
0
100
AcDbLine
62
7
6
CONTINUOUS
10
20.2120902736
20
-24.0318095615
11
20.2067026737
21
-24.0481034270
0
LINE
5
7EB
100
AcDbEntity
8
0
100
AcDbLine
62
9
6
CONTINUOUS
10
15.5814723137
20
10.8382283024
11
15.5699182971
21
10.8036116404
0
LINE
5
7EC
100
AcDbEntity
8
0
100
AcDbLine
62
9
6
CONTINUOUS
10
16.6430552677
20
10.4933163761
11
16.6376144879
21
10.4771898277
0
LINE
5
7ED
100
AcDbEntity
8
0
100
AcDbLine
62
9
6
CONTINUOUS
10
15.5936123914
20
10.8727769302
11
15.5814723137
21
10.8382283024
0
LINE
5
7EE
100
AcDbEntity
8
0
100
AcDbLine
62
9
6
CONTINUOUS
10
16.6487752747
20
10.5094198248
11
16.6430552677
21
10.4933163761
0
LINE
5
7EF
100
AcDbEntity
8
DEFAULT_3
100
AcDbLine
62
9
6
PHANTOM
10
6.3776334433
20
-17.4313243577
11
6.3766080194
21
-17.4341695946
0
LINE
5
7F0
100
AcDbEntity
8
0
100
AcDbLine
62
7
6
CONTINUOUS
10
6.6084998904
20
-17.6594990165
11
6.6058868933
21
-17.6667030539
0
LINE
5
7F1
100
AcDbEntity
8
0
100
AcDbLine
62
7
6
CONTINUOUS
10
0.7776129251
20
-0.8683514518
11
0.7692317608
21
-0.8913015579
0
LINE
5
7F2
100
AcDbEntity
8
0
100
AcDbLine
62
7
6
CONTINUOUS
10
-0.8835547646
20
0.7026944219
11
-0.8751080457
21
0.7256773053
0
LINE
5
7F3
100
AcDbEntity
8
0
100
AcDbLine
62
9
6
CONTINUOUS
10
15.6063309639
20
10.9072363873
11
15.5936123914
21
10.8727769302
0
LINE
5
7F4
100
AcDbEntity
8
0
100
AcDbLine
62
9
6
CONTINUOUS
10
16.6547640018
20
10.5254705855
11
16.6487752747
21
10.5094198248
0
LINE
5
7F5
100
AcDbEntity
8
0
100
AcDbLine
62
9
6
CONTINUOUS
10
-0.7962376174
20
0.6956870706
11
-0.8146475997
21
0.6471439237
0
LINE
5
7F6
100
AcDbEntity
8
0
100
AcDbLine
62
9
6
CONTINUOUS
10
0.7148919666
20
-0.8490460061
11
0.7333019534
21
-0.8005028569
0
LINE
5
7F7
100
AcDbEntity
8
DEFAULT_3
100
AcDbLine
62
9
6
PHANTOM
10
-6.1468011715
20
-4.1117376006
11
-6.1560132267
21
-4.1359642646
0
LINE
5
7F8
100
AcDbEntity
8
DEFAULT_3
100
AcDbLine
62
9
6
PHANTOM
10
-6.0952097033
20
-4.3084618697
11
-6.0941052835
21
-4.3055730780
0
LINE
5
7F9
100
AcDbEntity
8
0
100
AcDbLine
62
7
6
CONTINUOUS
10
-6.3031757587
20
-3.9955393861
11
-6.3003564277
21
-3.9882116818
0
LINE
5
7FA
100
AcDbEntity
8
0
100
AcDbLine
62
9
6
CONTINUOUS
10
15.6196203066
20
10.9415855125
11
15.6063309639
21
10.9072363873
0
LINE
5
7FB
100
AcDbEntity
8
DEFAULT_3
100
AcDbLine
62
9
6
PHANTOM
10
-6.0323453594
20
-4.1543140252
11
-6.0418192550
21
-4.1782846622
0
LINE
5
7FC
100
AcDbEntity
8
0
100
AcDbLine
62
7
6
CONTINUOUS
10
-0.8275722159
20
0.7181064547
11
-0.8060457018
21
0.7725023370
0
LINE
5
7FD
100
AcDbEntity
8
DEFAULT_3
100
AcDbLine
62
9
6
PHANTOM
10
-5.0933655278
20
-4.6469214494
11
-5.0805597071
21
-4.6145938482
0
LINE
5
7FE
100
AcDbEntity
8
0
100
AcDbLine
62
7
6
CONTINUOUS
10
0.7692317608
20
-0.8913015579
11
0.7602636579
21
-0.9136587786
0
LINE
5
7FF
100
AcDbEntity
8
0
100
AcDbLine
62
7
6
CONTINUOUS
10
-0.8751080457
20
0.7256773053
11
-0.8660705408
21
0.7480692270
0
LINE
5
800
100
AcDbEntity
8
0
100
AcDbLine
62
9
6
CONTINUOUS
10
-14.4233843608
20
26.0455000462
11
-14.4086745262
21
26.0795130214
0
LINE
5
801
100
AcDbEntity
8
0
100
AcDbLine
62
7
6
CONTINUOUS
10
-6.3003564277
20
-3.9882116818
11
-6.2972576285
21
-3.9811475599
0
LINE
5
802
100
AcDbEntity
8
0
100
AcDbLine
62
7
6
CONTINUOUS
10
-14.6690080296
20
26.2552116556
11
-14.6843367623
21
26.2203675581
0
LINE
5
803
100
AcDbEntity
8
0
100
AcDbLine
62
9
6
CONTINUOUS
10
-14.4086745262
20
26.0795130214
11
-14.3934372817
21
26.1133363761
0
LINE
5
804
100
AcDbEntity
8
0
100
AcDbLine
62
7
6
CONTINUOUS
10
-14.6530128591
20
26.2897373108
11
-14.6690080296
21
26.2552116556
0
LINE
5
805
100
AcDbEntity
8
0
100
AcDbLine
62
9
6
CONTINUOUS
10
-14.3934372817
20
26.1133363761
11
-14.3776818046
21
26.1469493184
0
LINE
5
806
100
AcDbEntity
8
0
100
AcDbLine
62
7
6
CONTINUOUS
10
-14.6363542479
20
26.3239409251
11
-14.6530128591
21
26.2897373108
0
LINE
5
807
100
AcDbEntity
8
0
100
AcDbLine
62
9
6
CONTINUOUS
10
-14.3776818046
20
26.1469493184
11
-14.3614178340
21
26.1803312959
0
LINE
5
808
100
AcDbEntity
8
0
100
AcDbLine
62
9
6
CONTINUOUS
10
-14.3614178340
20
26.1803312959
11
-14.3446554112
21
26.2134618836
0
LINE
5
809
100
AcDbEntity
8
0
100
AcDbLine
62
7
6
CONTINUOUS
10
-14.6190371148
20
26.3578131083
11
-14.6363542479
21
26.3239409251
0
LINE
5
80A
100
AcDbEntity
8
0
100
AcDbLine
62
9
6
CONTINUOUS
10
17.0497067465
20
-25.5013720477
11
17.0434825850
21
-25.5184465882
0
LINE
5
80B
100
AcDbEntity
8
0
100
AcDbLine
62
7
6
CONTINUOUS
10
20.2067026737
20
-24.0481034270
11
20.2008558906
21
-24.0640041123
0
LINE
5
80C
100
AcDbEntity
8
0
100
AcDbLine
62
9
6
CONTINUOUS
10
16.6610219419
20
10.5414685579
11
16.6547640018
21
10.5254705855
0
LINE
5
80D
100
AcDbEntity
8
DEFAULT_3
100
AcDbLine
62
9
6
PHANTOM
10
6.1298905890
20
-10.2354339226
11
6.1204168437
21
-10.2594044703
0
LINE
5
80E
100
AcDbEntity
8
0
100
AcDbLine
62
9
6
CONTINUOUS
10
15.6334723365
20
10.9758032346
11
15.6196203066
21
10.9415855125
0
LINE
5
80F
100
AcDbEntity
8
0
100
AcDbLine
62
9
6
CONTINUOUS
10
17.0434825850
20
-25.5184465882
11
17.0367704955
21
-25.5350278262
0
LINE
5
810
100
AcDbEntity
8
0
100
AcDbLine
62
7
6
CONTINUOUS
10
20.2008558906
20
-24.0640041123
11
20.1945546903
21
-24.0794970746
0
LINE
5
811
100
AcDbEntity
8
0
100
AcDbLine
62
9
6
CONTINUOUS
10
16.6675486021
20
10.5574138424
11
16.6610219419
21
10.5414685579
0
LINE
5
812
100
AcDbEntity
8
0
100
AcDbLine
62
7
6
CONTINUOUS
10
6.6058868933
20
-17.6667030539
11
6.6029921681
21
-17.6736452448
0
LINE
5
813
100
AcDbEntity
8
0
100
AcDbLine
62
9
6
CONTINUOUS
10
15.6478784286
20
11.0098686515
11
15.6334723365
21
10.9758032346
0
LINE
5
814
100
AcDbEntity
8
0
100
AcDbLine
62
9
6
CONTINUOUS
10
16.6743319969
20
10.5732771518
11
16.6675486021
21
10.5574138424
0
LINE
5
815
100
AcDbEntity
8
0
100
AcDbLine
62
7
6
CONTINUOUS
10
0.7602636579
20
-0.9136587786
11
0.7507034408
21
-0.9354307780
0
LINE
5
816
100
AcDbEntity
8
0
100
AcDbLine
62
9
6
CONTINUOUS
10
15.6628298326
20
11.0437608421
11
15.6478784286
21
11.0098686515
0
LINE
5
817
100
AcDbEntity
8
0
100
AcDbLine
62
7
6
CONTINUOUS
10
-0.8660705408
20
0.7480692270
11
-0.8564371959
21
0.7698777904
0
LINE
5
818
100
AcDbEntity
8
0
100
AcDbLine
62
9
6
CONTINUOUS
10
16.6813725969
20
10.5890583333
11
16.6743319969
21
10.5732771518
0
LINE
5
819
100
AcDbEntity
8
0
100
AcDbLine
62
9
6
CONTINUOUS
10
15.6783174548
20
11.0774590078
11
15.6628298326
21
11.0437608421
0
LINE
5
81A
100
AcDbEntity
8
0
100
AcDbLine
62
9
6
CONTINUOUS
10
16.6886699315
20
10.6047575396
11
16.6813725969
21
10.5890583333
0
LINE
5
81B
100
AcDbEntity
8
0
100
AcDbLine
62
9
6
CONTINUOUS
10
-0.7749563810
20
0.7413007813
11
-0.7962376174
21
0.6956870706
0
LINE
5
81C
100
AcDbEntity
8
0
100
AcDbLine
62
9
6
CONTINUOUS
10
0.6936107261
20
-0.8946597188
11
0.7148919666
21
-0.8490460061
0
LINE
5
81D
100
AcDbEntity
8
DEFAULT_3
100
AcDbLine
62
9
6
PHANTOM
10
-6.0212953292
20
-4.1308610406
11
-6.0323453594
21
-4.1543140252
0
LINE
5
81E
100
AcDbEntity
8
DEFAULT_3
100
AcDbLine
62
9
6
PHANTOM
10
6.1409404929
20
-10.2119809434
11
6.1298905890
21
-10.2354339226
0
LINE
5
81F
100
AcDbEntity
8
0
100
AcDbLine
62
7
6
CONTINUOUS
10
0.7507034408
20
-0.9354307780
11
0.7405561369
21
-0.9566099659
0
LINE
5
820
100
AcDbEntity
8
0
100
AcDbLine
62
7
6
CONTINUOUS
10
-0.8564371959
20
0.7698777904
11
-0.8462132133
21
0.7910953177
0
LINE
5
821
100
AcDbEntity
8
0
100
AcDbLine
62
7
6
CONTINUOUS
10
-0.8060457018
20
0.7725023370
11
-0.7812567147
21
0.8236126911
0
LINE
5
822
100
AcDbEntity
8
DEFAULT_3
100
AcDbLine
62
9
6
PHANTOM
10
-5.0805597071
20
-4.6145938482
11
-5.0654601721
21
-4.5835735995
0
LINE
5
823
100
AcDbEntity
8
DEFAULT_3
100
AcDbLine
62
9
6
PHANTOM
10
-6.1355474888
20
-4.0888037714
11
-6.1468011715
21
-4.1117376006
0
LINE
5
824
100
AcDbEntity
8
0
100
AcDbLine
62
7
6
CONTINUOUS
10
-6.2972576285
20
-3.9811475599
11
-6.2938769069
21
-3.9743480845
0
LINE
5
825
100
AcDbEntity
8
DEFAULT_3
100
AcDbLine
62
9
6
PHANTOM
10
-5.5259801115
20
-9.7304501628
11
-5.5199199569
21
-9.7183872838
0
LINE
5
826
100
AcDbEntity
8
DEFAULT_3
100
AcDbLine
62
9
6
PHANTOM
10
-6.0941052835
20
-4.3055730780
11
-6.0927634909
21
-4.3029628632
0
LINE
5
827
100
AcDbEntity
8
0
100
AcDbLine
62
9
6
CONTINUOUS
10
-14.3446554112
20
26.2134618836
11
-14.3274046372
21
26.2463206954
0
LINE
5
828
100
AcDbEntity
8
0
100
AcDbLine
62
7
6
CONTINUOUS
10
-14.6010632869
20
26.3913474170
11
-14.6190371148
21
26.3578131083
0
LINE
5
829
100
AcDbEntity
8
0
100
AcDbLine
62
9
6
CONTINUOUS
10
-14.3274046372
20
26.2463206954
11
-14.3096761751
21
26.2788876426
0
LINE
5
82A
100
AcDbEntity
8
0
100
AcDbLine
62
7
6
CONTINUOUS
10
-14.5824360208
20
26.4245333039
11
-14.6010632869
21
26.3913474170
0
LINE
5
82B
100
AcDbEntity
8
0
100
AcDbLine
62
9
6
CONTINUOUS
10
-14.3096761751
20
26.2788876426
11
-14.2914809711
21
26.3111428046
0
LINE
5
82C
100
AcDbEntity
8
0
100
AcDbLine
62
9
6
CONTINUOUS
10
-14.2914809711
20
26.3111428046
11
-14.2728299938
21
26.3430663179
0
LINE
5
82D
100
AcDbEntity
8
0
100
AcDbLine
62
7
6
CONTINUOUS
10
-14.5631604693
20
26.4573548136
11
-14.5824360208
21
26.4245333039
0
LINE
5
82E
100
AcDbEntity
8
0
100
AcDbLine
62
9
6
CONTINUOUS
10
17.0367704955
20
-25.5350278262
11
17.0295768425
21
-25.5511000394
0
LINE
5
82F
100
AcDbEntity
8
0
100
AcDbLine
62
7
6
CONTINUOUS
10
20.1945546903
20
-24.0794970746
11
20.1878156076
21
-24.0945313448
0
LINE
5
830
100
AcDbEntity
8
0
100
AcDbLine
62
7
6
CONTINUOUS
10
6.6029921681
20
-17.6736452448
11
6.5998131489
21
-17.6803245241
0
LINE
5
831
100
AcDbEntity
8
0
100
AcDbLine
62
9
6
CONTINUOUS
10
15.6943316585
20
11.1109425869
11
15.6783174548
21
11.0774590078
0
LINE
5
832
100
AcDbEntity
8
0
100
AcDbLine
62
9
6
CONTINUOUS
10
16.6962106028
20
10.6203459417
11
16.6886699315
21
10.6047575396
0
LINE
5
833
100
AcDbEntity
8
DEFAULT_3
100
AcDbLine
62
9
6
PHANTOM
10
6.3766080194
20
-17.4341695946
11
6.3753416239
21
-17.4367382388
0
LINE
5
834
100
AcDbEntity
8
0
100
AcDbLine
62
9
6
CONTINUOUS
10
17.0295768425
20
-25.5511000394
11
17.0219084469
21
-25.5666479882
0
LINE
5
835
100
AcDbEntity
8
0
100
AcDbLine
62
9
6
CONTINUOUS
10
15.7108627200
20
11.1441910189
11
15.6943316585
21
11.1109425869
0
LINE
5
836
100
AcDbEntity
8
0
100
AcDbLine
62
9
6
CONTINUOUS
10
16.7039950586
20
10.6358233377
11
16.6962106028
21
10.6203459417
0
LINE
5
837
100
AcDbEntity
8
0
100
AcDbLine
62
9
6
CONTINUOUS
10
15.7279005825
20
11.1771838868
11
15.7108627200
21
11.1441910189
0
LINE
5
838
100
AcDbEntity
8
0
100
AcDbLine
62
7
6
CONTINUOUS
10
0.7405561369
20
-0.9566099659
11
0.7298500785
21
-0.9771372352
0
LINE
5
839
100
AcDbEntity
8
0
100
AcDbLine
62
9
6
CONTINUOUS
10
16.7120228511
20
10.6511899294
11
16.7039950586
21
10.6358233377
0
LINE
5
83A
100
AcDbEntity
8
0
100
AcDbLine
62
7
6
CONTINUOUS
10
-0.8462132133
20
0.7910953177
11
-0.8354273050
21
0.8116625119
0
LINE
5
83B
100
AcDbEntity
8
0
100
AcDbLine
62
9
6
CONTINUOUS
10
15.7454346391
20
11.2099010572
11
15.7279005825
21
11.1771838868
0
LINE
5
83C
100
AcDbEntity
8
0
100
AcDbLine
62
9
6
CONTINUOUS
10
16.7202792389
20
10.6664174929
11
16.7120228511
21
10.6511899294
0
LINE
5
83D
100
AcDbEntity
8
DEFAULT_3
100
AcDbLine
62
9
6
PHANTOM
10
-6.0087881078
20
-4.1081781583
11
-6.0212953292
21
-4.1308610406
0
LINE
5
83E
100
AcDbEntity
8
DEFAULT_3
100
AcDbLine
62
9
6
PHANTOM
10
6.1534476248
20
-10.1892979886
11
6.1409404929
21
-10.2119809434
0
LINE
5
83F
100
AcDbEntity
8
0
100
AcDbLine
62
9
6
CONTINUOUS
10
15.7634542414
20
11.2423224343
11
15.7454346391
21
11.2099010572
0
LINE
5
840
100
AcDbEntity
8
0
100
AcDbLine
62
7
6
CONTINUOUS
10
-6.2938769069
20
-3.9743480845
11
-6.2902225578
21
-3.9678361182
0
LINE
5
841
100
AcDbEntity
8
0
100
AcDbLine
62
9
6
CONTINUOUS
10
-0.7508806794
20
0.7838164015
11
-0.7749563810
21
0.7413007813
0
LINE
5
842
100
AcDbEntity
8
0
100
AcDbLine
62
9
6
CONTINUOUS
10
0.6695350217
20
-0.9371753404
11
0.6936107261
21
-0.8946597188
0
LINE
5
843
100
AcDbEntity
8
0
100
AcDbLine
62
7
6
CONTINUOUS
10
0.7298500785
20
-0.9771372352
11
0.7185887297
21
-0.9970025356
0
LINE
5
844
100
AcDbEntity
8
0
100
AcDbLine
62
7
6
CONTINUOUS
10
-0.8354273050
20
0.8116625119
11
-0.8240831557
21
0.8315692125
0
LINE
5
845
100
AcDbEntity
8
DEFAULT_3
100
AcDbLine
62
9
6
PHANTOM
10
-5.0654601721
20
-4.5835735995
11
-5.0481973145
21
-4.5540447723
0
LINE
5
846
100
AcDbEntity
8
0
100
AcDbLine
62
7
6
CONTINUOUS
10
-0.7812567147
20
0.8236126911
11
-0.7533454196
21
0.8712392132
0
LINE
5
847
100
AcDbEntity
8
0
100
AcDbLine
62
9
6
CONTINUOUS
10
-14.2728299938
20
26.3430663179
11
-14.2537347722
21
26.3746386679
0
LINE
5
848
100
AcDbEntity
8
0
100
AcDbLine
62
7
6
CONTINUOUS
10
-14.5432344420
20
26.4898070966
11
-14.5631604693
21
26.4573548136
0
LINE
5
849
100
AcDbEntity
8
0
100
AcDbLine
62
9
6
CONTINUOUS
10
-14.2537347722
20
26.3746386679
11
-14.2342070969
21
26.4058405491
0
LINE
5
84A
100
AcDbEntity
8
0
100
AcDbLine
62
7
6
CONTINUOUS
10
-14.5226605906
20
26.5218752556
11
-14.5432344420
21
26.4898070966
0
LINE
5
84B
100
AcDbEntity
8
0
100
AcDbLine
62
9
6
CONTINUOUS
10
-14.2342070969
20
26.4058405491
11
-14.2142587407
21
26.4366527360
0
LINE
5
84C
100
AcDbEntity
8
0
100
AcDbLine
62
9
6
CONTINUOUS
10
-14.2142587407
20
26.4366527360
11
-14.1939020355
21
26.4670563959
0
LINE
5
84D
100
AcDbEntity
8
0
100
AcDbLine
62
7
6
CONTINUOUS
10
-14.5014505092
20
26.5535297567
11
-14.5226605906
21
26.5218752556
0
LINE
5
84E
100
AcDbEntity
8
0
100
AcDbLine
62
9
6
CONTINUOUS
10
-14.1939020355
20
26.4670563959
11
-14.1731495507
21
26.4970329450
0
LINE
5
84F
100
AcDbEntity
8
0
100
AcDbLine
62
7
6
CONTINUOUS
10
-14.4796021045
20
26.5847620314
11
-14.5014505092
21
26.5535297567
0
LINE
5
850
100
AcDbEntity
8
0
100
AcDbLine
62
7
6
CONTINUOUS
10
20.1878156076
20
-24.0945313448
11
20.1806342548
21
-24.1091076169
0
LINE
5
851
100
AcDbEntity
8
0
100
AcDbLine
62
7
6
CONTINUOUS
10
20.1806342548
20
-24.1091076169
11
20.1730150196
21
-24.1232251968
0
LINE
5
852
100
AcDbEntity
8
0
100
AcDbLine
62
7
6
CONTINUOUS
10
6.5998131489
20
-17.6803245241
11
6.5963573502
21
-17.6867184481
0
LINE
5
853
100
AcDbEntity
8
0
100
AcDbLine
62
9
6
CONTINUOUS
10
17.0219084469
20
-25.5666479882
11
17.0137725799
21
-25.5816569303
0
LINE
5
854
100
AcDbEntity
8
0
100
AcDbLine
62
9
6
CONTINUOUS
10
16.7287646428
20
10.6815057737
11
16.7202792389
21
10.6664174929
0
LINE
5
855
100
AcDbEntity
8
0
100
AcDbLine
62
9
6
CONTINUOUS
10
15.7819484285
20
11.2744281048
11
15.7634542414
21
11.2423224343
0
LINE
5
856
100
AcDbEntity
8
0
100
AcDbLine
62
9
6
CONTINUOUS
10
16.7374786419
20
10.6964550262
11
16.7287646428
21
10.6815057737
0
LINE
5
857
100
AcDbEntity
8
0
100
AcDbLine
62
9
6
CONTINUOUS
10
15.8009056830
20
11.3061984795
11
15.7819484285
21
11.2744281048
0
LINE
5
858
100
AcDbEntity
8
0
100
AcDbLine
62
9
6
CONTINUOUS
10
16.7464052325
20
10.7112377894
11
16.7374786419
21
10.6964550262
0
LINE
5
859
100
AcDbEntity
8
DEFAULT_3
100
AcDbLine
62
9
6
PHANTOM
10
-6.1223754124
20
-4.0672634222
11
-6.1355474888
21
-4.0888037714
0
LINE
5
85A
100
AcDbEntity
8
0
100
AcDbLine
62
7
6
CONTINUOUS
10
6.5963573502
20
-17.6867184481
11
6.5926332877
21
-17.6928077341
0
LINE
5
85B
100
AcDbEntity
8
0
100
AcDbLine
62
7
6
CONTINUOUS
10
0.7185887297
20
-0.9970025356
11
0.7067684445
21
-1.0162160083
0
LINE
5
85C
100
AcDbEntity
8
0
100
AcDbLine
62
9
6
CONTINUOUS
10
15.8203144890
20
11.3376140373
11
15.8009056830
21
11.3061984795
0
LINE
5
85D
100
AcDbEntity
8
0
100
AcDbLine
62
7
6
CONTINUOUS
10
-0.8240831557
20
0.8315692125
11
-0.8121772627
21
0.8508254891
0
LINE
5
85E
100
AcDbEntity
8
0
100
AcDbLine
62
9
6
CONTINUOUS
10
16.7555448055
20
10.7258537576
11
16.7464052325
21
10.7112377894
0
LINE
5
85F
100
AcDbEntity
8
0
100
AcDbLine
62
7
6
CONTINUOUS
10
-6.2902225578
20
-3.9678361182
11
-6.2863036457
21
-3.9616313003
0
LINE
5
860
100
AcDbEntity
8
DEFAULT_3
100
AcDbLine
62
9
6
PHANTOM
10
-5.9949583243
20
-4.0865095390
11
-6.0087881078
21
-4.1081781583
0
LINE
5
861
100
AcDbEntity
8
DEFAULT_3
100
AcDbLine
62
9
6
PHANTOM
10
6.1672773654
20
-10.1676292299
11
6.1534476248
21
-10.1892979886
0
LINE
5
862
100
AcDbEntity
8
0
100
AcDbLine
62
9
6
CONTINUOUS
10
15.8401630427
20
11.3686554793
11
15.8203144890
21
11.3376140373
0
LINE
5
863
100
AcDbEntity
8
0
100
AcDbLine
62
9
6
CONTINUOUS
10
16.7648969700
20
10.7403032365
11
16.7555448055
21
10.7258537576
0
LINE
5
864
100
AcDbEntity
8
0
100
AcDbLine
62
7
6
CONTINUOUS
10
0.7067684445
20
-1.0162160083
11
0.6944068654
21
-1.0347488453
0
LINE
5
865
100
AcDbEntity
8
0
100
AcDbLine
62
7
6
CONTINUOUS
10
-0.8121772627
20
0.8508254891
11
-0.7997275818
21
0.8694023771
0
LINE
5
866
100
AcDbEntity
8
DEFAULT_3
100
AcDbLine
62
9
6
PHANTOM
10
-6.0927634909
20
-4.3029628632
11
-6.0911786880
21
-4.3006403261
0
LINE
5
867
100
AcDbEntity
8
0
100
AcDbLine
62
9
6
CONTINUOUS
10
-0.7241039017
20
0.8230653973
11
-0.7508806794
21
0.7838164015
0
LINE
5
868
100
AcDbEntity
8
DEFAULT_3
100
AcDbLine
62
9
6
PHANTOM
10
-5.0481973145
20
-4.5540447723
11
-5.0287617885
21
-4.5259587583
0
LINE
5
869
100
AcDbEntity
8
0
100
AcDbLine
62
9
6
CONTINUOUS
10
-14.1731495507
20
26.4970329450
11
-14.1520137944
21
26.5265639075
0
LINE
5
86A
100
AcDbEntity
8
0
100
AcDbLine
62
7
6
CONTINUOUS
10
-14.4571147553
20
26.6155585835
11
-14.4796021045
21
26.5847620314
0
LINE
5
86B
100
AcDbEntity
8
0
100
AcDbLine
62
9
6
CONTINUOUS
10
-14.1520137944
20
26.5265639075
11
-14.1305078326
21
26.5556312375
0
LINE
5
86C
100
AcDbEntity
8
0
100
AcDbLine
62
7
6
CONTINUOUS
10
-14.4340024816
20
26.6458861667
11
-14.4571147553
21
26.6155585835
0
LINE
5
86D
100
AcDbEntity
8
0
100
AcDbLine
62
9
6
CONTINUOUS
10
-14.1305078326
20
26.5556312375
11
-14.1086449448
21
26.5842171740
0
LINE
5
86E
100
AcDbEntity
8
0
100
AcDbLine
62
9
6
CONTINUOUS
10
-14.1086449448
20
26.5842171740
11
-14.0864383023
21
26.6123040954
0
LINE
5
86F
100
AcDbEntity
8
0
100
AcDbLine
62
7
6
CONTINUOUS
10
-14.4102532094
20
26.6757447874
11
-14.4340024816
21
26.6458861667
0
LINE
5
870
100
AcDbEntity
8
0
100
AcDbLine
62
7
6
CONTINUOUS
10
20.1730150196
20
-24.1232251968
11
20.1649875990
21
-24.1368310335
0
LINE
5
871
100
AcDbEntity
8
0
100
AcDbLine
62
9
6
CONTINUOUS
10
17.0137725799
20
-25.5816569303
11
17.0051769557
21
-25.5961126341
0
LINE
5
872
100
AcDbEntity
8
0
100
AcDbLine
62
7
6
CONTINUOUS
10
20.1649875990
20
-24.1368310335
11
20.1565543522
21
-24.1499159278
0
LINE
5
873
100
AcDbEntity
8
0
100
AcDbLine
62
9
6
CONTINUOUS
10
17.0051769557
20
-25.5961126341
11
16.9961297248
21
-25.6100013930
0
LINE
5
874
100
AcDbEntity
8
0
100
AcDbLine
62
9
6
CONTINUOUS
10
15.8604389819
20
11.3993038746
11
15.8401630427
21
11.3686554793
0
LINE
5
875
100
AcDbEntity
8
DEFAULT_3
100
AcDbLine
62
9
6
PHANTOM
10
6.3753416239
20
-17.4367382388
11
6.3738284643
21
-17.4390212749
0
LINE
5
876
100
AcDbEntity
8
0
100
AcDbLine
62
9
6
CONTINUOUS
10
16.7744445491
20
10.7545596825
11
16.7648969700
21
10.7403032365
0
LINE
5
877
100
AcDbEntity
8
0
100
AcDbLine
62
9
6
CONTINUOUS
10
0.6427582416
20
-0.9764243375
11
0.6695350217
21
-0.9371753404
0
LINE
5
878
100
AcDbEntity
8
0
100
AcDbLine
62
9
6
CONTINUOUS
10
15.8811299872
20
11.4295403846
11
15.8604389819
21
11.3993038746
0
LINE
5
879
100
AcDbEntity
8
0
100
AcDbLine
62
7
6
CONTINUOUS
10
6.5926332877
20
-17.6928077341
11
6.5886452166
21
-17.6985844958
0
LINE
5
87A
100
AcDbEntity
8
0
100
AcDbLine
62
9
6
CONTINUOUS
10
16.7841879021
20
10.7686227407
11
16.7744445491
21
10.7545596825
0
LINE
5
87B
100
AcDbEntity
8
0
100
AcDbLine
62
7
6
CONTINUOUS
10
-0.7533454196
20
0.8712392132
11
-0.7224416007
21
0.9152495475
0
LINE
5
87C
100
AcDbEntity
8
0
100
AcDbLine
62
9
6
CONTINUOUS
10
15.9022234765
20
11.4593464314
11
15.8811299872
21
11.4295403846
0
LINE
5
87D
100
AcDbEntity
8
0
100
AcDbLine
62
7
6
CONTINUOUS
10
-6.2863036457
20
-3.9616313003
11
-6.2821246624
21
-3.9557416141
0
LINE
5
87E
100
AcDbEntity
8
0
100
AcDbLine
62
9
6
CONTINUOUS
10
16.7941266697
20
10.7824927659
11
16.7841879021
21
10.7686227407
0
LINE
5
87F
100
AcDbEntity
8
0
100
AcDbLine
62
7
6
CONTINUOUS
10
0.6944068654
20
-1.0347488453
11
0.6814972321
21
-1.0526075669
0
LINE
5
880
100
AcDbEntity
8
0
100
AcDbLine
62
7
6
CONTINUOUS
10
-0.7997275818
20
0.8694023771
11
-0.7867275062
21
0.8873063198
0
LINE
5
881
100
AcDbEntity
8
0
100
AcDbLine
62
9
6
CONTINUOUS
10
15.9237063157
20
11.4887038524
11
15.9022234765
21
11.4593464314
0
LINE
5
882
100
AcDbEntity
8
DEFAULT_3
100
AcDbLine
62
9
6
PHANTOM
10
-5.9799548435
20
-4.0660884258
11
-5.9949583243
21
-4.0865095390
0
LINE
5
883
100
AcDbEntity
8
DEFAULT_3
100
AcDbLine
62
9
6
PHANTOM
10
6.1822808593
20
-10.1472079200
11
6.1672773654
21
-10.1676292299
0
LINE
5
884
100
AcDbEntity
8
DEFAULT_3
100
AcDbLine
62
9
6
PHANTOM
10
-5.5199199569
20
-9.7183872838
11
-5.5114311694
21
-9.7068578065
0
LINE
5
885
100
AcDbEntity
8
0
100
AcDbLine
62
9
6
CONTINUOUS
10
16.8042425966
20
10.7961442784
11
16.7941266697
21
10.7824927659
0
LINE
5
886
100
AcDbEntity
8
DEFAULT_3
100
AcDbLine
62
9
6
PHANTOM
10
-6.1073208802
20
-4.0470993422
11
-6.1223754124
21
-4.0672634222
0
LINE
5
887
100
AcDbEntity
8
0
100
AcDbLine
62
9
6
CONTINUOUS
10
15.9455654499
20
11.5175945962
11
15.9237063157
21
11.4887038524
0
LINE
5
888
100
AcDbEntity
8
0
100
AcDbLine
62
7
6
CONTINUOUS
10
-0.7867275062
20
0.8873063198
11
-0.7731838304
21
0.9045307801
0
LINE
5
889
100
AcDbEntity
8
0
100
AcDbLine
62
7
6
CONTINUOUS
10
-6.2821246624
20
-3.9557416141
11
-6.2776923948
21
-3.9501773008
0
LINE
5
88A
100
AcDbEntity
8
0
100
AcDbLine
62
9
6
CONTINUOUS
10
-14.0864383023
20
26.6123040954
11
-14.0639016263
21
26.6398748496
0
LINE
5
88B
100
AcDbEntity
8
0
100
AcDbLine
62
7
6
CONTINUOUS
10
-14.3858729470
20
26.7051094265
11
-14.4102532094
21
26.6757447874
0
LINE
5
88C
100
AcDbEntity
8
0
100
AcDbLine
62
9
6
CONTINUOUS
10
-14.0639016263
20
26.6398748496
11
-14.0410488394
21
26.6669125876
0
LINE
5
88D
100
AcDbEntity
8
0
100
AcDbLine
62
7
6
CONTINUOUS
10
-14.3609039136
20
26.7339142953
11
-14.3858729470
21
26.7051094265
0
LINE
5
88E
100
AcDbEntity
8
0
100
AcDbLine
62
9
6
CONTINUOUS
10
-14.0410488394
20
26.6669125876
11
-14.0178937200
21
26.6934006178
0
LINE
5
88F
100
AcDbEntity
8
0
100
AcDbLine
62
9
6
CONTINUOUS
10
-14.0178937200
20
26.6934006178
11
-13.9944505730
21
26.7193227718
0
LINE
5
890
100
AcDbEntity
8
0
100
AcDbLine
62
7
6
CONTINUOUS
10
-14.3353361538
20
26.7621565696
11
-14.3609039136
21
26.7339142953
0
LINE
5
891
100
AcDbEntity
8
0
100
AcDbLine
62
7
6
CONTINUOUS
10
20.1565543522
20
-24.1499159278
11
20.1477129201
21
-24.1624890789
0
LINE
5
892
100
AcDbEntity
8
0
100
AcDbLine
62
9
6
CONTINUOUS
10
16.9961297248
20
-25.6100013930
11
16.9866394656
21
-25.6233100377
0
LINE
5
893
100
AcDbEntity
8
0
100
AcDbLine
62
9
6
CONTINUOUS
10
16.8145360073
20
10.8095768751
11
16.8042425966
21
10.7961442784
0
LINE
5
894
100
AcDbEntity
8
0
100
AcDbLine
62
7
6
CONTINUOUS
10
6.5886452166
20
-17.6985844958
11
6.5843994615
21
-17.7040386900
0
LINE
5
895
100
AcDbEntity
8
0
100
AcDbLine
62
9
6
CONTINUOUS
10
15.9677875884
20
11.5460009075
11
15.9455654499
21
11.5175945962
0
LINE
5
896
100
AcDbEntity
8
0
100
AcDbLine
62
7
6
CONTINUOUS
10
0.6814972321
20
-1.0526075669
11
0.6680461171
21
-1.0697857468
0
LINE
5
897
100
AcDbEntity
8
0
100
AcDbLine
62
9
6
CONTINUOUS
10
16.8250065774
20
10.8227909591
11
16.8145360073
21
10.8095768751
0
LINE
5
898
100
AcDbEntity
8
0
100
AcDbLine
62
9
6
CONTINUOUS
10
15.9903589003
20
11.5739054942
11
15.9677875884
21
11.5460009075
0
LINE
5
899
100
AcDbEntity
8
DEFAULT_3
100
AcDbLine
62
9
6
PHANTOM
10
-5.0287617885
20
-4.5259587583
11
-5.0072250378
21
-4.4994426793
0
LINE
5
89A
100
AcDbEntity
8
0
100
AcDbLine
62
9
6
CONTINUOUS
10
16.8356350788
20
10.8357622605
11
16.8250065774
21
10.8227909591
0
LINE
5
89B
100
AcDbEntity
8
0
100
AcDbLine
62
9
6
CONTINUOUS
10
-0.6947366273
20
0.8588871965
11
-0.7241039017
21
0.8230653973
0
LINE
5
89C
100
AcDbEntity
8
0
100
AcDbLine
62
9
6
CONTINUOUS
10
0.6133909633
20
-1.0122461385
11
0.6427582416
21
-0.9764243375
0
LINE
5
89D
100
AcDbEntity
8
0
100
AcDbLine
62
9
6
CONTINUOUS
10
16.0132656744
20
11.6012911992
11
15.9903589003
21
11.5739054942
0
LINE
5
89E
100
AcDbEntity
8
0
100
AcDbLine
62
7
6
CONTINUOUS
10
-0.7224416007
20
0.9152495475
11
-0.6886902846
21
0.9555146879
0
LINE
5
89F
100
AcDbEntity
8
DEFAULT_3
100
AcDbLine
62
9
6
PHANTOM
10
-5.9639391645
20
-4.0471346333
11
-5.9799548435
21
-4.0660884258
0
LINE
5
8A0
100
AcDbEntity
8
0
100
AcDbLine
62
9
6
CONTINUOUS
10
16.8464218033
20
10.8484903350
11
16.8356350788
21
10.8357622605
0
LINE
5
8A1
100
AcDbEntity
8
0
100
AcDbLine
62
7
6
CONTINUOUS
10
0.6680461171
20
-1.0697857468
11
0.6540911406
21
-1.0862351688
0
LINE
5
8A2
100
AcDbEntity
8
0
100
AcDbLine
62
7
6
CONTINUOUS
10
-0.7731838304
20
0.9045307801
11
-0.7591346342
21
0.9210273119
0
LINE
5
8A3
100
AcDbEntity
8
0
100
AcDbLine
62
9
6
CONTINUOUS
10
16.0364939783
20
11.6281411788
11
16.0132656744
21
11.6012911992
0
LINE
5
8A4
100
AcDbEntity
8
DEFAULT_3
100
AcDbLine
62
9
6
PHANTOM
10
-6.0911786880
20
-4.3006403261
11
-6.0893565226
21
-4.2985963714
0
LINE
5
8A5
100
AcDbEntity
8
0
100
AcDbLine
62
7
6
CONTINUOUS
10
-6.2776923948
20
-3.9501773008
11
-6.2730225931
21
-3.9449571995
0
LINE
5
8A6
100
AcDbEntity
8
DEFAULT_3
100
AcDbLine
62
9
6
PHANTOM
10
-6.0905500621
20
-4.0285058007
11
-6.1073208802
21
-4.0470993422
0
LINE
5
8A7
100
AcDbEntity
8
0
100
AcDbLine
62
9
6
CONTINUOUS
10
-13.9944505730
20
26.7193227718
11
-13.9707338842
21
26.7446632119
0
LINE
5
8A8
100
AcDbEntity
8
0
100
AcDbLine
62
7
6
CONTINUOUS
10
-14.3091750044
20
26.7898148535
11
-14.3353361538
21
26.7621565696
0
LINE
5
8A9
100
AcDbEntity
8
0
100
AcDbLine
62
9
6
CONTINUOUS
10
-13.9707338842
20
26.7446632119
11
-13.9467579711
21
26.7694062652
0
LINE
5
8AA
100
AcDbEntity
8
0
100
AcDbLine
62
7
6
CONTINUOUS
10
-14.2824897206
20
26.8168035493
11
-14.3091750044
21
26.7898148535
0
LINE
5
8AB
100
AcDbEntity
8
0
100
AcDbLine
62
9
6
CONTINUOUS
10
-13.9467579711
20
26.7694062652
11
-13.9225376627
21
26.7935368199
0
LINE
5
8AC
100
AcDbEntity
8
0
100
AcDbLine
62
7
6
CONTINUOUS
10
-14.2552806575
20
26.8431136428
11
-14.2824897206
21
26.8168035493
0
LINE
5
8AD
100
AcDbEntity
8
0
100
AcDbLine
62
9
6
CONTINUOUS
10
-13.9225376627
20
26.7935368199
11
-13.8980879100
21
26.8170401568
0
LINE
5
8AE
100
AcDbEntity
8
0
100
AcDbLine
62
7
6
CONTINUOUS
10
20.1477129201
20
-24.1624890789
11
20.1384859223
21
-24.1745250332
0
LINE
5
8AF
100
AcDbEntity
8
0
100
AcDbLine
62
9
6
CONTINUOUS
10
16.9866394656
20
-25.6233100377
11
16.9767151768
21
-25.6360259491
0
LINE
5
8B0
100
AcDbEntity
8
0
100
AcDbLine
62
7
6
CONTINUOUS
10
20.1384859223
20
-24.1745250332
11
20.1288787531
21
-24.1860186135
0
LINE
5
8B1
100
AcDbEntity
8
DEFAULT_3
100
AcDbLine
62
9
6
PHANTOM
10
6.1982966130
20
-10.1282538900
11
6.1822808593
21
-10.1472079200
0
LINE
5
8B2
100
AcDbEntity
8
0
100
AcDbLine
62
9
6
CONTINUOUS
10
16.9767151768
20
-25.6360259491
11
16.9663662684
21
-25.6481370700
0
LINE
5
8B3
100
AcDbEntity
8
DEFAULT_3
100
AcDbLine
62
9
6
PHANTOM
10
6.3738284643
20
-17.4390212749
11
6.3720743229
21
-17.4410277243
0
LINE
5
8B4
100
AcDbEntity
8
0
100
AcDbLine
62
9
6
CONTINUOUS
10
16.8573664591
20
10.8609756269
11
16.8464218033
21
10.8484903350
0
LINE
5
8B5
100
AcDbEntity
8
0
100
AcDbLine
62
7
6
CONTINUOUS
10
6.5843994615
20
-17.7040386900
11
6.5799110306
21
-17.7091519052
0
LINE
5
8B6
100
AcDbEntity
8
0
100
AcDbLine
62
9
6
CONTINUOUS
10
16.0600293433
20
11.6544390862
11
16.0364939783
21
11.6281411788
0
LINE
5
8B7
100
AcDbEntity
8
0
100
AcDbLine
62
9
6
CONTINUOUS
10
16.8684489428
20
10.8731951994
11
16.8573664591
21
10.8609756269
0
LINE
5
8B8
100
AcDbEntity
8
0
100
AcDbLine
62
7
6
CONTINUOUS
10
0.6540911406
20
-1.0862351688
11
0.6396369940
21
-1.1019475347
0
LINE
5
8B9
100
AcDbEntity
8
0
100
AcDbLine
62
7
6
CONTINUOUS
10
-0.7591346342
20
0.9210273119
11
-0.7445848652
21
0.9367874891
0
LINE
5
8BA
100
AcDbEntity
8
0
100
AcDbLine
62
9
6
CONTINUOUS
10
16.0838574733
20
11.6801687487
11
16.0600293433
21
11.6544390862
0
LINE
5
8BB
100
AcDbEntity
8
0
100
AcDbLine
62
9
6
CONTINUOUS
10
16.8796695107
20
10.8851485667
11
16.8684489428
21
10.8731951994
0
LINE
5
8BC
100
AcDbEntity
8
0
100
AcDbLine
62
9
6
CONTINUOUS
10
16.1079638739
20
11.7053143328
11
16.0838574733
21
11.6801687487
0
LINE
5
8BD
100
AcDbEntity
8
0
100
AcDbLine
62
9
6
CONTINUOUS
10
16.8910279066
20
10.8968362146
11
16.8796695107
21
10.8851485667
0
LINE
5
8BE
100
AcDbEntity
8
DEFAULT_3
100
AcDbLine
62
9
6
PHANTOM
10
-5.9470836815
20
-4.0298521820
11
-5.9639391645
21
-4.0471346333
0
LINE
5
8BF
100
AcDbEntity
8
0
100
AcDbLine
62
9
6
CONTINUOUS
10
-0.6629064707
20
0.8911348479
11
-0.6947366273
21
0.8588871965
0
LINE
5
8C0
100
AcDbEntity
8
0
100
AcDbLine
62
9
6
CONTINUOUS
10
0.5815607988
20
-1.0444937939
11
0.6133909633
21
-1.0122461385
0
LINE
5
8C1
100
AcDbEntity
8
0
100
AcDbLine
62
9
6
CONTINUOUS
10
16.1323335120
20
11.7298605237
11
16.1079638739
21
11.7053143328
0
LINE
5
8C2
100
AcDbEntity
8
0
100
AcDbLine
62
7
6
CONTINUOUS
10
0.6396369940
20
-1.1019475347
11
0.6246787759
21
-1.1169312481
0
LINE
5
8C3
100
AcDbEntity
8
0
100
AcDbLine
62
7
6
CONTINUOUS
10
-0.6886902846
20
0.9555146879
11
-0.6523072474
21
0.9918629924
0
LINE
5
8C4
100
AcDbEntity
8
0
100
AcDbLine
62
7
6
CONTINUOUS
10
-0.7445848652
20
0.9367874891
11
-0.7295297859
21
0.9518196330
0
LINE
5
8C5
100
AcDbEntity
8
DEFAULT_3
100
AcDbLine
62
9
6
PHANTOM
10
-5.5114311694
20
-9.7068578065
11
-5.5004161058
21
-9.6958831764
0
LINE
5
8C6
100
AcDbEntity
8
0
100
AcDbLine
62
7
6
CONTINUOUS
10
-6.2730225931
20
-3.9449571995
11
-6.2681297342
21
-3.9400930430
0
LINE
5
8C7
100
AcDbEntity
8
0
100
AcDbLine
62
9
6
CONTINUOUS
10
-13.8980879100
20
26.8170401568
11
-13.8734234403
21
26.8399017573
0
LINE
5
8C8
100
AcDbEntity
8
0
100
AcDbLine
62
7
6
CONTINUOUS
10
-14.2275479686
20
26.8687343536
11
-14.2552806575
21
26.8431136428
0
LINE
5
8C9
100
AcDbEntity
8
0
100
AcDbLine
62
9
6
CONTINUOUS
10
-13.8734234403
20
26.8399017573
11
-13.8485594985
21
26.8621076698
0
LINE
5
8CA
100
AcDbEntity
8
0
100
AcDbLine
62
7
6
CONTINUOUS
10
-14.1993669984
20
26.8935885967
11
-14.2275479686
21
26.8687343536
0
LINE
5
8CB
100
AcDbEntity
8
0
100
AcDbLine
62
9
6
CONTINUOUS
10
-13.8485594985
20
26.8621076698
11
-13.8235114422
21
26.8836443490
0
LINE
5
8CC
100
AcDbEntity
8
0
100
AcDbLine
62
7
6
CONTINUOUS
10
-14.1707426220
20
26.9176681653
11
-14.1993669984
21
26.8935885967
0
LINE
5
8CD
100
AcDbEntity
8
0
100
AcDbLine
62
9
6
CONTINUOUS
10
-13.8235114422
20
26.8836443490
11
-13.7982943527
21
26.9044984865
0
LINE
5
8CE
100
AcDbEntity
8
0
100
AcDbLine
62
7
6
CONTINUOUS
10
20.1288787531
20
-24.1860186135
11
20.1188860182
21
-24.1969749970
0
LINE
5
8CF
100
AcDbEntity
8
0
100
AcDbLine
62
9
6
CONTINUOUS
10
16.9663662684
20
-25.6481370700
11
16.9556025533
21
-25.6596319167
0
LINE
5
8D0
100
AcDbEntity
8
DEFAULT_3
100
AcDbLine
62
9
6
PHANTOM
10
6.2151522291
20
-10.1109711838
11
6.1982966130
21
-10.1282538900
0
LINE
5
8D1
100
AcDbEntity
8
0
100
AcDbLine
62
7
6
CONTINUOUS
10
6.5799110306
20
-17.7091519052
11
6.5751939764
21
-17.7139126220
0
LINE
5
8D2
100
AcDbEntity
8
0
100
AcDbLine
62
9
6
CONTINUOUS
10
16.9025032581
20
10.9082366643
11
16.8910279066
21
10.8968362146
0
LINE
5
8D3
100
AcDbEntity
8
0
100
AcDbLine
62
9
6
CONTINUOUS
10
16.1569515668
20
11.7537922051
11
16.1323335120
21
11.7298605237
0
LINE
5
8D4
100
AcDbEntity
8
0
100
AcDbLine
62
9
6
CONTINUOUS
10
16.9140957754
20
10.9193493826
11
16.9025032581
21
10.9082366643
0
LINE
5
8D5
100
AcDbEntity
8
0
100
AcDbLine
62
9
6
CONTINUOUS
10
16.1818030792
20
11.7770946622
11
16.1569515668
21
11.7537922051
0
LINE
5
8D6
100
AcDbEntity
8
0
100
AcDbLine
62
9
6
CONTINUOUS
10
16.9258052482
20
10.9301749026
11
16.9140957754
21
10.9193493826
0
LINE
5
8D7
100
AcDbEntity
8
0
100
AcDbLine
62
7
6
CONTINUOUS
10
0.6246787759
20
-1.1169312481
11
0.6092396977
21
-1.1311631541
0
LINE
5
8D8
100
AcDbEntity
8
DEFAULT_3
100
AcDbLine
62
9
6
PHANTOM
10
-6.0722562644
20
-4.0116553250
11
-6.0905500621
21
-4.0285058007
0
LINE
5
8D9
100
AcDbEntity
8
0
100
AcDbLine
62
7
6
CONTINUOUS
10
-0.7295297859
20
0.9518196330
11
-0.7139929673
21
0.9661004093
0
LINE
5
8DA
100
AcDbEntity
8
0
100
AcDbLine
62
9
6
CONTINUOUS
10
16.2068725822
20
11.7997537461
11
16.1818030792
21
11.7770946622
0
LINE
5
8DB
100
AcDbEntity
8
0
100
AcDbLine
62
9
6
CONTINUOUS
10
16.9376101738
20
10.9406933445
11
16.9258052482
21
10.9301749026
0
LINE
5
8DC
100
AcDbEntity
8
0
100
AcDbLine
62
7
6
CONTINUOUS
10
-6.2681297342
20
-3.9400930430
11
-6.2630162245
21
-3.9355829721
0
LINE
5
8DD
100
AcDbEntity
8
DEFAULT_3
100
AcDbLine
62
9
6
PHANTOM
10
-5.9343804745
20
-4.0186640105
11
-5.9470836815
21
-4.0298521820
0
LINE
5
8DE
100
AcDbEntity
8
0
100
AcDbLine
62
9
6
CONTINUOUS
10
16.2321448349
20
11.8217555032
11
16.2068725822
21
11.7997537461
0
LINE
5
8DF
100
AcDbEntity
8
DEFAULT_3
100
AcDbLine
62
9
6
PHANTOM
10
-6.0893565226
20
-4.2985963714
11
-6.0873381946
21
-4.2968783541
0
LINE
5
8E0
100
AcDbEntity
8
0
100
AcDbLine
62
7
6
CONTINUOUS
10
-14.1416759670
20
26.9409662426
11
-14.1707426220
21
26.9176681653
0
LINE
5
8E1
100
AcDbEntity
8
0
100
AcDbLine
62
9
6
CONTINUOUS
10
-13.7982943527
20
26.9044984865
11
-13.7729237851
21
26.9246573890
0
LINE
5
8E2
100
AcDbEntity
8
0
100
AcDbLine
62
7
6
CONTINUOUS
10
-14.1122437621
20
26.9634189199
11
-14.1416759670
21
26.9409662426
0
LINE
5
8E3
100
AcDbEntity
8
0
100
AcDbLine
62
9
6
CONTINUOUS
10
-13.7729237851
20
26.9246573890
11
-13.7474154404
21
26.9441087348
0
LINE
5
8E4
100
AcDbEntity
8
0
100
AcDbLine
62
9
6
CONTINUOUS
10
-13.7474154404
20
26.9441087348
11
-13.7217847614
21
26.9628404172
0
LINE
5
8E5
100
AcDbEntity
8
0
100
AcDbLine
62
7
6
CONTINUOUS
10
-14.0824537495
20
26.9850205241
11
-14.1122437621
21
26.9634189199
0
LINE
5
8E6
100
AcDbEntity
8
0
100
AcDbLine
62
7
6
CONTINUOUS
10
20.1188860182
20
-24.1969749970
11
20.1085141546
21
-24.2073842627
0
LINE
5
8E7
100
AcDbEntity
8
0
100
AcDbLine
62
9
6
CONTINUOUS
10
16.9556025533
20
-25.6596319167
11
16.9444342375
21
-25.6704995899
0
LINE
5
8E8
100
AcDbEntity
8
0
100
AcDbLine
62
7
6
CONTINUOUS
10
20.1085141546
20
-24.2073842627
11
20.0977520089
21
-24.2172558102
0
LINE
5
8E9
100
AcDbEntity
8
0
100
AcDbLine
62
7
6
CONTINUOUS
10
6.5751939764
20
-17.7139126220
11
6.5702507296
21
-17.7183226212
0
LINE
5
8EA
100
AcDbEntity
8
DEFAULT_3
100
AcDbLine
62
9
6
PHANTOM
10
6.2192470684
20
-10.1073646913
11
6.2151522291
21
-10.1109711838
0
LINE
5
8EB
100
AcDbEntity
8
DEFAULT_3
100
AcDbLine
62
9
6
PHANTOM
10
6.3720743229
20
-17.4410277243
11
6.3701188241
21
-17.4427111003
0
LINE
5
8EC
100
AcDbEntity
8
0
100
AcDbLine
62
9
6
CONTINUOUS
10
16.9495107258
20
10.9509041439
11
16.9376101738
21
10.9406933445
0
LINE
5
8ED
100
AcDbEntity
8
0
100
AcDbLine
62
7
6
CONTINUOUS
10
0.6092396977
20
-1.1311631541
11
0.5933127558
21
-1.1446470383
0
LINE
5
8EE
100
AcDbEntity
8
0
100
AcDbLine
62
7
6
CONTINUOUS
10
-0.7139929673
20
0.9661004093
11
-0.6979675844
21
0.9796335139
0
LINE
5
8EF
100
AcDbEntity
8
0
100
AcDbLine
62
9
6
CONTINUOUS
10
16.2576044756
20
11.8430863901
11
16.2321448349
21
11.8217555032
0
LINE
5
8F0
100
AcDbEntity
8
0
100
AcDbLine
62
9
6
CONTINUOUS
10
-0.6287236485
20
0.9197047602
11
-0.6629064707
21
0.8911348479
0
LINE
5
8F1
100
AcDbEntity
8
0
100
AcDbLine
62
9
6
CONTINUOUS
10
0.5473779673
20
-1.0730637109
11
0.5815607988
21
-1.0444937939
0
LINE
5
8F2
100
AcDbEntity
8
0
100
AcDbLine
62
7
6
CONTINUOUS
10
-0.6523072474
20
0.9918629924
11
-0.6135078492
21
1.0241796428
0
LINE
5
8F3
100
AcDbEntity
8
0
100
AcDbLine
62
9
6
CONTINUOUS
10
16.9615067305
20
10.9608078653
11
16.9495107258
21
10.9509041439
0
LINE
5
8F4
100
AcDbEntity
8
0
100
AcDbLine
62
9
6
CONTINUOUS
10
16.2832356728
20
11.8637334737
11
16.2576044756
21
11.8430863901
0
LINE
5
8F5
100
AcDbEntity
8
0
100
AcDbLine
62
9
6
CONTINUOUS
10
16.9735761644
20
10.9703863225
11
16.9615067305
21
10.9608078653
0
LINE
5
8F6
100
AcDbEntity
8
0
100
AcDbLine
62
7
6
CONTINUOUS
10
-6.2630162245
20
-3.9355829721
11
-6.2576804821
21
-3.9314243030
0
LINE
5
8F7
100
AcDbEntity
8
DEFAULT_3
100
AcDbLine
62
9
6
PHANTOM
10
-5.5004161058
20
-9.6958831764
11
-5.4869724093
21
-9.6854419480
0
LINE
5
8F8
100
AcDbEntity
8
0
100
AcDbLine
62
7
6
CONTINUOUS
10
0.5933127558
20
-1.1446470383
11
0.5769047452
21
-1.1573792199
0
LINE
5
8F9
100
AcDbEntity
8
0
100
AcDbLine
62
7
6
CONTINUOUS
10
-0.6979675844
20
0.9796335139
11
-0.6814606708
21
0.9924151470
0
LINE
5
8FA
100
AcDbEntity
8
0
100
AcDbLine
62
9
6
CONTINUOUS
10
16.3090228819
20
11.8836840555
11
16.2832356728
21
11.8637334737
0
LINE
5
8FB
100
AcDbEntity
8
DEFAULT_3
100
AcDbLine
62
9
6
PHANTOM
10
-6.0524687263
20
-3.9965627915
11
-6.0722562644
21
-4.0116553250
0
LINE
5
8FC
100
AcDbEntity
8
0
100
AcDbLine
62
9
6
CONTINUOUS
10
16.9857191775
20
10.9796389263
11
16.9735761644
21
10.9703863225
0
LINE
5
8FD
100
AcDbEntity
8
0
100
AcDbLine
62
9
6
CONTINUOUS
10
-13.7217847614
20
26.9628404172
11
-13.6960476453
21
26.9808409797
0
LINE
5
8FE
100
AcDbEntity
8
0
100
AcDbLine
62
7
6
CONTINUOUS
10
-14.0523106216
20
27.0057666976
11
-14.0824537495
21
26.9850205241
0
LINE
5
8FF
100
AcDbEntity
8
0
100
AcDbLine
62
9
6
CONTINUOUS
10
-13.6960476453
20
26.9808409797
11
-13.6702199360
21
26.9980995065
0
LINE
5
900
100
AcDbEntity
8
0
100
AcDbLine
62
7
6
CONTINUOUS
10
-14.0218935489
20
27.0256050700
11
-14.0523106216
21
27.0057666976
0
LINE
5
901
100
AcDbEntity
8
0
100
AcDbLine
62
9
6
CONTINUOUS
10
-13.6702199360
20
26.9980995065
11
-13.6443170954
21
27.0146053699
0
LINE
5
902
100
AcDbEntity
8
0
100
AcDbLine
62
7
6
CONTINUOUS
10
-13.9912371268
20
27.0445190374
11
-14.0218935489
21
27.0256050700
0
LINE
5
903
100
AcDbEntity
8
0
100
AcDbLine
62
9
6
CONTINUOUS
10
16.9444342375
20
-25.6704995899
11
16.9328719107
21
-25.6807297850
0
LINE
5
904
100
AcDbEntity
8
0
100
AcDbLine
62
7
6
CONTINUOUS
10
20.0977520089
20
-24.2172558102
11
20.0866107345
21
-24.2265802399
0
LINE
5
905
100
AcDbEntity
8
0
100
AcDbLine
62
9
6
CONTINUOUS
10
16.9328719107
20
-25.6807297850
11
16.9209265362
21
-25.6903128018
0
LINE
5
906
100
AcDbEntity
8
0
100
AcDbLine
62
7
6
CONTINUOUS
10
6.5702507296
20
-17.7183226212
11
6.5650796913
21
-17.7223845704
0
LINE
5
907
100
AcDbEntity
8
0
100
AcDbLine
62
9
6
CONTINUOUS
10
16.3349503911
20
11.9029258190
11
16.3090228819
21
11.8836840555
0
LINE
5
908
100
AcDbEntity
8
0
100
AcDbLine
62
9
6
CONTINUOUS
10
16.9979356198
20
10.9885662659
11
16.9857191775
21
10.9796389263
0
LINE
5
909
100
AcDbEntity
8
0
100
AcDbLine
62
9
6
CONTINUOUS
10
16.3610019749
20
11.9214470490
11
16.3349503911
21
11.9029258190
0
LINE
5
90A
100
AcDbEntity
8
0
100
AcDbLine
62
7
6
CONTINUOUS
10
0.5769047452
20
-1.1573792199
11
0.5600595599
21
-1.1693253528
0
LINE
5
90B
100
AcDbEntity
8
0
100
AcDbLine
62
7
6
CONTINUOUS
10
-0.6814606708
20
0.9924151470
11
-0.6645166001
21
1.0044107226
0
LINE
5
90C
100
AcDbEntity
8
0
100
AcDbLine
62
9
6
CONTINUOUS
10
17.0102030173
20
10.9971519225
11
16.9979356198
21
10.9885662659
0
LINE
5
90D
100
AcDbEntity
8
0
100
AcDbLine
62
7
6
CONTINUOUS
10
-0.6135078492
20
1.0241796428
11
-0.5724839733
21
1.0524025694
0
LINE
5
90E
100
AcDbEntity
8
0
100
AcDbLine
62
7
6
CONTINUOUS
10
-6.2576804821
20
-3.9314243030
11
-6.2521300876
21
-3.9276228816
0
LINE
5
90F
100
AcDbEntity
8
0
100
AcDbLine
62
9
6
CONTINUOUS
10
-0.5922821375
20
0.9445138525
11
-0.6287236485
21
0.9197047602
0
LINE
5
910
100
AcDbEntity
8
0
100
AcDbLine
62
9
6
CONTINUOUS
10
0.5109364516
20
-1.0978728056
11
0.5473779673
21
-1.0730637109
0
LINE
5
911
100
AcDbEntity
8
0
100
AcDbLine
62
9
6
CONTINUOUS
10
16.3871617289
20
11.9392362925
11
16.3610019749
21
11.9214470490
0
LINE
5
912
100
AcDbEntity
8
0
100
AcDbLine
62
9
6
CONTINUOUS
10
17.0225216744
20
11.0053953727
11
17.0102030173
21
10.9971519225
0
LINE
5
913
100
AcDbEntity
8
0
100
AcDbLine
62
9
6
CONTINUOUS
10
16.4134138162
20
11.9562826304
11
16.3871617289
21
11.9392362925
0
LINE
5
914
100
AcDbEntity
8
0
100
AcDbLine
62
7
6
CONTINUOUS
10
-0.6645166001
20
1.0044107226
11
-0.6471398695
21
1.0156146484
0
LINE
5
915
100
AcDbEntity
8
0
100
AcDbLine
62
9
6
CONTINUOUS
10
-13.6443170954
20
27.0146053699
11
-13.6183549619
21
27.0303484719
0
LINE
5
916
100
AcDbEntity
8
0
100
AcDbLine
62
7
6
CONTINUOUS
10
-13.9603290115
20
27.0625220172
11
-13.9912371268
21
27.0445190374
0
LINE
5
917
100
AcDbEntity
8
0
100
AcDbLine
62
9
6
CONTINUOUS
10
-13.6183549619
20
27.0303484719
11
-13.5923497428
21
27.0453192612
0
LINE
5
918
100
AcDbEntity
8
0
100
AcDbLine
62
7
6
CONTINUOUS
10
-13.9363067820
20
27.0757932784
11
-13.9603290115
21
27.0625220172
0
LINE
5
919
100
AcDbEntity
8
0
100
AcDbLine
62
7
6
CONTINUOUS
10
-13.9363039906
20
27.0757948010
11
-10.8844722918
21
28.7223280168
0
LINE
5
91A
100
AcDbEntity
8
0
100
AcDbLine
62
9
6
CONTINUOUS
10
-13.5923497428
20
27.0453192612
11
-10.5184528244
21
28.7039015404
0
LINE
5
91B
100
AcDbEntity
8
0
100
AcDbLine
62
7
6
CONTINUOUS
10
-10.8844621842
20
28.7223326166
11
-10.8819669993
21
28.7236644571
0
LINE
5
91C
100
AcDbEntity
8
0
100
AcDbLine
62
7
6
CONTINUOUS
10
20.0866107345
20
-24.2265802399
11
20.0751302287
21
-24.2353194315
0
LINE
5
91D
100
AcDbEntity
8
0
100
AcDbLine
62
9
6
CONTINUOUS
10
16.9209265362
20
-25.6903128018
11
16.9086094406
21
-25.6992395536
0
LINE
5
91E
100
AcDbEntity
8
0
100
AcDbLine
62
7
6
CONTINUOUS
10
20.0751302287
20
-24.2353194315
11
20.0633080334
21
-24.2434690241
0
LINE
5
91F
100
AcDbEntity
8
0
100
AcDbLine
62
7
6
CONTINUOUS
10
6.5650796913
20
-17.7223845704
11
6.5596882326
21
-17.7260927125
0
LINE
5
920
100
AcDbEntity
8
0
100
AcDbLine
62
7
6
CONTINUOUS
10
0.5600595599
20
-1.1693253528
11
0.5427814398
21
-1.1804799733
0
LINE
5
921
100
AcDbEntity
8
0
100
AcDbLine
62
9
6
CONTINUOUS
10
17.0348912867
20
11.0132971398
11
17.0225216744
21
11.0053953727
0
LINE
5
922
100
AcDbEntity
8
DEFAULT_3
100
AcDbLine
62
9
6
PHANTOM
10
6.3701188241
20
-17.4427111003
11
6.3679569307
21
-17.4440636822
0
LINE
5
923
100
AcDbEntity
8
DEFAULT_3
100
AcDbLine
62
9
6
PHANTOM
10
-6.0873381946
20
-4.2968783541
11
-6.0851188021
21
-4.2954940698
0
LINE
5
924
100
AcDbEntity
8
0
100
AcDbLine
62
9
6
CONTINUOUS
10
16.4397420129
20
11.9725758158
11
16.4134138162
21
11.9562826304
0
LINE
5
925
100
AcDbEntity
8
DEFAULT_3
100
AcDbLine
62
9
6
PHANTOM
10
-6.0293007751
20
-3.9822254621
11
-6.0524687263
21
-3.9965627915
0
LINE
5
926
100
AcDbEntity
8
DEFAULT_3
100
AcDbLine
62
9
6
PHANTOM
10
-5.4869724093
20
-9.6854419480
11
-5.4716334347
21
-9.6759483587
0
LINE
5
927
100
AcDbEntity
8
0
100
AcDbLine
62
9
6
CONTINUOUS
10
17.0472884684
20
11.0208423754
11
17.0348912867
21
11.0132971398
0
LINE
5
928
100
AcDbEntity
8
0
100
AcDbLine
62
7
6
CONTINUOUS
10
-6.2521300876
20
-3.9276228816
11
-6.2463730311
21
-3.9241841534
0
LINE
5
929
100
AcDbEntity
8
0
100
AcDbLine
62
9
6
CONTINUOUS
10
16.4661302261
20
11.9881058778
11
16.4397420129
21
11.9725758158
0
LINE
5
92A
100
AcDbEntity
8
0
100
AcDbLine
62
7
6
CONTINUOUS
10
0.5427814398
20
-1.1804799733
11
0.5250659287
21
-1.1908486538
0
LINE
5
92B
100
AcDbEntity
8
0
100
AcDbLine
62
7
6
CONTINUOUS
10
-0.6471398695
20
1.0156146484
11
-0.6293261981
21
1.0260324089
0
LINE
5
92C
100
AcDbEntity
8
0
100
AcDbLine
62
9
6
CONTINUOUS
10
17.0597054241
20
11.0280261297
11
17.0472884684
21
11.0208423754
0
LINE
5
92D
100
AcDbEntity
8
0
100
AcDbLine
62
7
6
CONTINUOUS
10
-0.5724839733
20
1.0524025694
11
-0.5702956867
21
1.0536266523
0
LINE
5
92E
100
AcDbEntity
8
0
100
AcDbLine
62
9
6
CONTINUOUS
10
16.4925625030
20
12.0028631383
11
16.4661302261
21
11.9881058778
0
LINE
5
92F
100
AcDbEntity
8
DEFAULT_3
100
AcDbLine
62
9
6
PHANTOM
10
-6.0294082156
20
-3.9822794165
11
-6.0188225698
21
-3.9764429628
0
LINE
5
930
100
AcDbEntity
8
0
100
AcDbLine
62
9
6
CONTINUOUS
10
17.0721499491
20
11.0348533524
11
17.0597054241
21
11.0280261297
0
LINE
5
931
100
AcDbEntity
8
0
100
AcDbLine
62
9
6
CONTINUOUS
10
-0.5537030192
20
0.9654650783
11
-0.5922821375
21
0.9445138525
0
LINE
5
932
100
AcDbEntity
8
0
100
AcDbLine
62
9
6
CONTINUOUS
10
-13.9363039906
20
27.0757948010
11
-13.9248534941
21
27.0816610350
0
LINE
5
933
100
AcDbEntity
8
0
100
AcDbLine
62
7
6
CONTINUOUS
10
-10.8819669993
20
28.7236644571
11
-10.8692338789
21
28.7300007468
0
LINE
5
934
100
AcDbEntity
8
0
100
AcDbLine
62
9
6
CONTINUOUS
10
-13.9248534941
20
27.0816610350
11
-13.9110640311
21
27.0879372386
0
LINE
5
935
100
AcDbEntity
8
0
100
AcDbLine
62
7
6
CONTINUOUS
10
-10.8692338789
20
28.7300007468
11
-10.8562087989
21
28.7357267601
0
LINE
5
936
100
AcDbEntity
8
0
100
AcDbLine
62
9
6
CONTINUOUS
10
16.9086094406
20
-25.6992395536
11
16.8959323028
21
-25.7075015763
0
LINE
5
937
100
AcDbEntity
8
0
100
AcDbLine
62
7
6
CONTINUOUS
10
20.0633080334
20
-24.2434690241
11
20.0511466067
21
-24.2510333786
0
LINE
5
938
100
AcDbEntity
8
0
100
AcDbLine
62
7
6
CONTINUOUS
10
6.5596882326
20
-17.7260927125
11
6.5538825448
21
-17.7295532878
0
LINE
5
939
100
AcDbEntity
8
0
100
AcDbLine
62
9
6
CONTINUOUS
10
16.8959323028
20
-25.7075015763
11
16.8829071433
21
-25.7150910359
0
LINE
5
93A
100
AcDbEntity
8
0
100
AcDbLine
62
9
6
CONTINUOUS
10
6.4186069657
20
-17.7215889284
11
6.6181747944
21
-17.6114376140
0
LINE
5
93B
100
AcDbEntity
8
DEFAULT_3
100
AcDbLine
62
9
6
PHANTOM
10
-5.4808060067
20
-4.8394996352
11
-5.6502267247
21
-4.9329106740
0
LINE
5
93C
100
AcDbEntity
8
DEFAULT_3
100
AcDbLine
62
9
6
PHANTOM
10
-5.3089864587
20
-9.7721272042
11
-5.4784071767
21
-9.8655382431
0
LINE
5
93D
100
AcDbEntity
8
0
100
AcDbLine
62
9
6
CONTINUOUS
10
0.4723573422
20
-1.1188240269
11
0.5109364516
21
-1.0978728056
0
LINE
5
93E
100
AcDbEntity
8
0
100
AcDbLine
62
7
6
CONTINUOUS
10
-5.7402493350
20
-4.8908262845
11
-5.3071845575
21
-4.6559926639
0
LINE
5
93F
100
AcDbEntity
8
DEFAULT_3
100
AcDbLine
62
9
6
PHANTOM
10
-6.0292656395
20
-3.9822009450
11
-6.0277189220
21
-3.9813679547
0
LINE
5
940
100
AcDbEntity
8
0
100
AcDbLine
62
9
6
CONTINUOUS
10
-4.9736053890
20
-10.6494983122
11
-6.0653032600
21
-11.2321894899
0
LINE
5
941
100
AcDbEntity
8
0
100
AcDbLine
62
9
6
CONTINUOUS
10
-4.7442272373
20
-11.0061876292
11
-5.8411914655
21
-11.5916897128
0
LINE
5
942
100
AcDbEntity
8
0
100
AcDbLine
62
9
6
CONTINUOUS
10
16.5190227752
20
12.0168384807
11
16.4925625030
21
12.0028631383
0
LINE
5
943
100
AcDbEntity
8
0
100
AcDbLine
62
7
6
CONTINUOUS
10
-0.6293261981
20
1.0260324089
11
-0.6110984545
21
1.0356502033
0
LINE
5
944
100
AcDbEntity
8
0
100
AcDbLine
62
7
6
CONTINUOUS
10
0.5250659287
20
-1.1908486538
11
0.5069355565
21
-1.2004177624
0
LINE
5
945
100
AcDbEntity
8
0
100
AcDbLine
62
9
6
CONTINUOUS
10
17.0846220435
20
11.0413240434
11
17.0721499491
21
11.0348533524
0
LINE
5
946
100
AcDbEntity
8
0
100
AcDbLine
62
7
6
CONTINUOUS
10
-6.2463730311
20
-3.9241841534
11
-6.2407259354
21
-3.9212606662
0
LINE
5
947
100
AcDbEntity
8
DEFAULT_3
100
AcDbLine
62
9
6
PHANTOM
10
-5.4808060067
20
-4.8394996352
11
-5.4687812459
21
-4.8332817611
0
LINE
5
948
100
AcDbEntity
8
DEFAULT_3
100
AcDbLine
62
9
6
PHANTOM
10
-5.2969616978
20
-9.7659093302
11
-5.3089864587
21
-9.7721272042
0
LINE
5
949
100
AcDbEntity
8
0
100
AcDbLine
62
9
6
CONTINUOUS
10
19.6751790455
20
13.6070856055
11
16.5190227752
21
12.0168384807
0
LINE
5
94A
100
AcDbEntity
8
0
100
AcDbLine
62
9
6
CONTINUOUS
10
20.2407783139
20
12.6315711682
11
17.0846220435
21
11.0413240434
0
LINE
5
94B
100
AcDbEntity
8
0
100
AcDbLine
62
7
6
CONTINUOUS
10
-5.1943981664
20
-9.0972294436
11
-5.5855985253
21
-9.2928296231
0
LINE
5
94C
100
AcDbEntity
8
DEFAULT_3
100
AcDbLine
62
9
6
PHANTOM
10
-5.4716334347
20
-9.6759483587
11
-5.4543229825
21
-9.6674405081
0
LINE
5
94D
100
AcDbEntity
8
0
100
AcDbLine
62
7
6
CONTINUOUS
10
-5.5639420819
20
-9.9092618060
11
-5.1315957434
21
-9.6968290242
0
LINE
5
94E
100
AcDbEntity
8
0
100
AcDbLine
62
9
6
CONTINUOUS
10
-6.3156817074
20
-4.0820870493
11
-6.0566219054
21
-3.9575432950
0
LINE
5
94F
100
AcDbEntity
8
0
100
AcDbLine
62
7
6
CONTINUOUS
10
-0.6110984545
20
1.0356502033
11
-0.5924767619
21
1.0444560842
0
LINE
5
950
100
AcDbEntity
8
0
100
AcDbLine
62
7
6
CONTINUOUS
10
0.5069355565
20
-1.2004177624
11
0.4884101203
21
-1.2091755151
0
LINE
5
951
100
AcDbEntity
8
0
100
AcDbLine
62
9
6
CONTINUOUS
10
-13.9110640311
20
27.0879372386
11
-13.8969383208
21
27.0935343398
0
LINE
5
952
100
AcDbEntity
8
0
100
AcDbLine
62
7
6
CONTINUOUS
10
-10.8562087989
20
28.7357267601
11
-10.8429023545
21
28.7408399941
0
LINE
5
953
100
AcDbEntity
8
0
100
AcDbLine
62
7
6
CONTINUOUS
10
20.0511466067
20
-24.2510333786
11
20.0386932204
21
-24.2579874566
0
LINE
5
954
100
AcDbEntity
8
0
100
AcDbLine
62
9
6
CONTINUOUS
10
16.5909596745
20
-24.9593369463
11
16.5732170982
21
-24.9690791615
0
LINE
5
955
100
AcDbEntity
8
0
100
AcDbLine
62
9
6
CONTINUOUS
10
16.5732170982
20
-24.9690791615
11
16.5549754619
21
-24.9785454215
0
LINE
5
956
100
AcDbEntity
8
0
100
AcDbLine
62
9
6
CONTINUOUS
10
16.8829071433
20
-25.7150910359
11
16.8695463123
21
-25.7220007360
0
LINE
5
957
100
AcDbEntity
8
0
100
AcDbLine
62
7
6
CONTINUOUS
10
6.5538825448
20
-17.7295532878
11
6.5482646153
21
-17.7324319303
0
LINE
5
958
100
AcDbEntity
8
0
100
AcDbLine
62
7
6
CONTINUOUS
10
20.0386932204
20
-24.2579874566
11
20.0259601001
21
-24.2643237463
0
LINE
5
959
100
AcDbEntity
8
0
100
AcDbLine
62
9
6
CONTINUOUS
10
16.5549754619
20
-24.9785454215
11
16.5362516873
21
-24.9877269451
0
LINE
5
95A
100
AcDbEntity
8
DEFAULT_3
100
AcDbLine
62
9
6
PHANTOM
10
-5.4687812459
20
-4.8332817611
11
-5.4561632932
21
-4.8275151687
0
LINE
5
95B
100
AcDbEntity
8
DEFAULT_3
100
AcDbLine
62
9
6
PHANTOM
10
-5.2843437451
20
-9.7601427378
11
-5.2969616978
21
-9.7659093302
0
LINE
5
95C
100
AcDbEntity
8
0
100
AcDbLine
62
7
6
CONTINUOUS
10
-6.2407259354
20
-3.9212606662
11
-6.2342304003
21
-3.9183968806
0
LINE
5
95D
100
AcDbEntity
8
DEFAULT_3
100
AcDbLine
62
9
6
PHANTOM
10
-6.0851188021
20
-4.2954940698
11
-6.0827032590
21
-4.2944357292
0
LINE
5
95E
100
AcDbEntity
8
DEFAULT_3
100
AcDbLine
62
9
6
PHANTOM
10
-6.0277189220
20
-3.9813679547
11
-6.0177173541
21
-3.9769955707
0
LINE
5
95F
100
AcDbEntity
8
0
100
AcDbLine
62
7
6
CONTINUOUS
10
-0.5924767619
20
1.0444560842
11
-0.5734412048
21
1.0524618957
0
LINE
5
960
100
AcDbEntity
8
0
100
AcDbLine
62
7
6
CONTINUOUS
10
0.4884101203
20
-1.2091755151
11
0.4694696152
21
-1.2171338006
0
LINE
5
961
100
AcDbEntity
8
0
100
AcDbLine
62
9
6
CONTINUOUS
10
-0.5131395058
20
0.9824612768
11
-0.5537030192
21
0.9654650783
0
LINE
5
962
100
AcDbEntity
8
0
100
AcDbLine
62
9
6
CONTINUOUS
10
0.4317938423
20
-1.1358202186
11
0.4723573422
21
-1.1188240269
0
LINE
5
963
100
AcDbEntity
8
DEFAULT_3
100
AcDbLine
62
9
6
PHANTOM
10
-5.4561632932
20
-4.8275151687
11
-5.4429521486
21
-4.8221998581
0
LINE
5
964
100
AcDbEntity
8
DEFAULT_3
100
AcDbLine
62
9
6
PHANTOM
10
-5.2711326006
20
-9.7548274272
11
-5.2843437451
21
-9.7601427378
0
LINE
5
965
100
AcDbEntity
8
DEFAULT_3
100
AcDbLine
62
9
6
PHANTOM
10
-5.4543229825
20
-9.6674405081
11
-5.4351172523
21
-9.6598802966
0
LINE
5
966
100
AcDbEntity
8
0
100
AcDbLine
62
9
6
CONTINUOUS
10
16.5909596745
20
10.2380098534
11
16.5732170982
21
10.2311340953
0
LINE
5
967
100
AcDbEntity
8
0
100
AcDbLine
62
7
6
CONTINUOUS
10
-0.5734412048
20
1.0524618957
11
-0.5540464621
21
1.0596435915
0
LINE
5
968
100
AcDbEntity
8
0
100
AcDbLine
62
9
6
CONTINUOUS
10
16.5732170982
20
10.2311340953
11
16.5549754619
21
10.2245316332
0
LINE
5
969
100
AcDbEntity
8
0
100
AcDbLine
62
9
6
CONTINUOUS
10
-13.8969383208
20
27.0935343398
11
-13.8824897572
21
27.0984470314
0
LINE
5
96A
100
AcDbEntity
8
0
100
AcDbLine
62
7
6
CONTINUOUS
10
-10.8429023545
20
28.7408399941
11
-10.8293080043
21
28.7453438719
0
LINE
5
96B
100
AcDbEntity
8
0
100
AcDbLine
62
9
6
CONTINUOUS
10
-13.8824897572
20
27.0984470314
11
-13.8677320402
21
27.1026706552
0
LINE
5
96C
100
AcDbEntity
8
0
100
AcDbLine
62
9
6
CONTINUOUS
10
16.8695463123
20
-25.7220007360
11
16.8643183152
21
-25.7244770621
0
LINE
5
96D
100
AcDbEntity
8
0
100
AcDbLine
62
9
6
CONTINUOUS
10
16.5362516873
20
-24.9877269451
11
16.5170631436
21
-24.9966152150
0
LINE
5
96E
100
AcDbEntity
8
0
100
AcDbLine
62
9
6
CONTINUOUS
10
17.0846220435
20
-25.2859269280
11
20.2407783139
21
-23.8283093709
0
LINE
5
96F
100
AcDbEntity
8
0
100
AcDbLine
62
7
6
CONTINUOUS
10
16.8643183152
20
-25.7244770621
11
20.0259601001
21
-24.2643237463
0
LINE
5
970
100
AcDbEntity
8
0
100
AcDbLine
62
7
6
CONTINUOUS
10
16.8386915704
20
-25.7359909671
11
16.8643106688
21
-25.7244805643
0
LINE
5
971
100
AcDbEntity
8
0
100
AcDbLine
62
9
6
CONTINUOUS
10
17.0721509220
20
-25.2915000157
11
17.0846220435
21
-25.2859269280
0
LINE
5
972
100
AcDbEntity
8
0
100
AcDbLine
62
9
6
CONTINUOUS
10
16.5170631436
20
-24.9966152150
11
16.4974276310
21
-25.0052019861
0
LINE
5
973
100
AcDbEntity
8
DEFAULT_3
100
AcDbLine
62
9
6
PHANTOM
10
6.3679569307
20
-17.4440636822
11
6.3655936681
21
-17.4450931976
0
LINE
5
974
100
AcDbEntity
8
0
100
AcDbLine
62
7
6
CONTINUOUS
10
6.5482646153
20
-17.7324319303
11
6.5422290859
21
-17.7350603598
0
LINE
5
975
100
AcDbEntity
8
0
100
AcDbLine
62
7
6
CONTINUOUS
10
16.8055686356
20
-25.7499325434
11
16.8386915704
21
-25.7359909671
0
LINE
5
976
100
AcDbEntity
8
0
100
AcDbLine
62
9
6
CONTINUOUS
10
17.0597071287
20
-25.2966900595
11
17.0721509220
21
-25.2915000157
0
LINE
5
977
100
AcDbEntity
8
0
100
AcDbLine
62
9
6
CONTINUOUS
10
16.4974276310
20
-25.0052019861
11
16.4773633643
21
-25.0134792927
0
LINE
5
978
100
AcDbEntity
8
0
100
AcDbLine
62
7
6
CONTINUOUS
10
0.4694696152
20
-1.2171338006
11
0.4501682385
21
-1.2242688134
0
LINE
5
979
100
AcDbEntity
8
0
100
AcDbLine
62
7
6
CONTINUOUS
10
-6.2342304003
20
-3.9183968806
11
-6.2278598690
21
-3.9160614315
0
LINE
5
97A
100
AcDbEntity
8
0
100
AcDbLine
62
7
6
CONTINUOUS
10
6.5422290859
20
-17.7350603598
11
6.5359926982
21
-17.7373171426
0
LINE
5
97B
100
AcDbEntity
8
DEFAULT_3
100
AcDbLine
62
9
6
PHANTOM
10
-5.4429521486
20
-4.8221998581
11
-5.4290863357
21
-4.8173169870
0
LINE
5
97C
100
AcDbEntity
8
DEFAULT_3
100
AcDbLine
62
9
6
PHANTOM
10
-5.2572667876
20
-9.7499445561
11
-5.2711326006
21
-9.7548274272
0
LINE
5
97D
100
AcDbEntity
8
0
100
AcDbLine
62
7
6
CONTINUOUS
10
0.5453467138
20
-1.1788238522
11
0.5015543579
21
-1.1939350158
0
LINE
5
97E
100
AcDbEntity
8
0
100
AcDbLine
62
9
6
CONTINUOUS
10
16.5549754619
20
10.2245316332
11
16.5362516873
21
10.2182085919
0
LINE
5
97F
100
AcDbEntity
8
0
100
AcDbLine
62
7
6
CONTINUOUS
10
-0.5540464621
20
1.0596435915
11
-0.5342941850
21
1.0659981997
0
LINE
5
980
100
AcDbEntity
8
0
100
AcDbLine
62
7
6
CONTINUOUS
10
0.4501682385
20
-1.2242688134
11
0.4305074160
21
-1.2305776943
0
LINE
5
981
100
AcDbEntity
8
0
100
AcDbLine
62
9
6
CONTINUOUS
10
16.5362516873
20
10.2182085919
11
16.5170631435
21
10.2121708369
0
LINE
5
982
100
AcDbEntity
8
DEFAULT_3
100
AcDbLine
62
9
6
PHANTOM
10
-5.4351172523
20
-9.6598802966
11
-5.4147781973
21
-9.6535676621
0
LINE
5
983
100
AcDbEntity
8
DEFAULT_3
100
AcDbLine
62
9
6
PHANTOM
10
-5.4290863357
20
-4.8173169870
11
-5.4146273308
21
-4.8128853976
0
LINE
5
984
100
AcDbEntity
8
0
100
AcDbLine
62
9
6
CONTINUOUS
10
-0.4707395450
20
0.9954289378
11
-0.5131395058
21
0.9824612768
0
LINE
5
985
100
AcDbEntity
8
0
100
AcDbLine
62
9
6
CONTINUOUS
10
0.3893938785
20
-1.1487878811
11
0.4317938423
21
-1.1358202186
0
LINE
5
986
100
AcDbEntity
8
0
100
AcDbLine
62
7
6
CONTINUOUS
10
-6.2278598690
20
-3.9160614315
11
-6.2213172689
21
-3.9141103779
0
LINE
5
987
100
AcDbEntity
8
0
100
AcDbLine
62
9
6
CONTINUOUS
10
16.5170631435
20
10.2121708369
11
16.4974276308
21
10.2064239692
0
LINE
5
988
100
AcDbEntity
8
0
100
AcDbLine
62
7
6
CONTINUOUS
10
16.7724104337
20
-25.7628450706
11
16.8055686356
21
-25.7499325434
0
LINE
5
989
100
AcDbEntity
8
0
100
AcDbLine
62
9
6
CONTINUOUS
10
16.4773633643
20
-25.0134792927
11
16.4568889561
21
-25.0214394566
0
LINE
5
98A
100
AcDbEntity
8
0
100
AcDbLine
62
9
6
CONTINUOUS
10
17.0472906636
20
-25.3014970594
11
17.0597071287
21
-25.2966900595
0
LINE
5
98B
100
AcDbEntity
8
0
100
AcDbLine
62
9
6
CONTINUOUS
10
16.4568889561
20
-25.0214394566
11
16.4360233995
21
-25.0290750935
0
LINE
5
98C
100
AcDbEntity
8
0
100
AcDbLine
62
7
6
CONTINUOUS
10
16.7392451751
20
-25.7747328256
11
16.7724104337
21
-25.7628450706
0
LINE
5
98D
100
AcDbEntity
8
0
100
AcDbLine
62
9
6
CONTINUOUS
10
17.0348936514
20
-25.3059236300
11
17.0472906636
21
-25.3014970594
0
LINE
5
98E
100
AcDbEntity
8
0
100
AcDbLine
62
9
6
CONTINUOUS
10
16.4360233995
20
-25.0290750935
11
16.4147860504
21
-25.0363791202
0
LINE
5
98F
100
AcDbEntity
8
0
100
AcDbLine
62
7
6
CONTINUOUS
10
16.7060863171
20
-25.7856065999
11
16.7392451751
21
-25.7747328256
0
LINE
5
990
100
AcDbEntity
8
0
100
AcDbLine
62
9
6
CONTINUOUS
10
17.0225239674
20
-25.3099671568
11
17.0348936514
21
-25.3059236300
0
LINE
5
991
100
AcDbEntity
8
0
100
AcDbLine
62
9
6
CONTINUOUS
10
16.4147860504
20
-25.0363791202
11
16.3931966095
21
-25.0433447610
0
LINE
5
992
100
AcDbEntity
8
DEFAULT_3
100
AcDbLine
62
9
6
PHANTOM
10
-5.2428077828
20
-9.7455129667
11
-5.2572667876
21
-9.7499445561
0
LINE
5
993
100
AcDbEntity
8
0
100
AcDbLine
62
9
6
CONTINUOUS
10
16.3931966095
20
-25.0433447610
11
16.3712751043
21
-25.0499655545
0
LINE
5
994
100
AcDbEntity
8
0
100
AcDbLine
62
7
6
CONTINUOUS
10
6.5359926982
20
-17.7373171426
11
6.5295769898
21
-17.7391937664
0
LINE
5
995
100
AcDbEntity
8
0
100
AcDbLine
62
7
6
CONTINUOUS
10
16.6729361279
20
-25.7954796658
11
16.7060863171
21
-25.7856065999
0
LINE
5
996
100
AcDbEntity
8
0
100
AcDbLine
62
9
6
CONTINUOUS
10
17.0102052373
20
-25.3136197961
11
17.0225239674
21
-25.3099671568
0
ENDSEC
0
SECTION
2
OBJECTS
0
DICTIONARY
5
C
100
AcDbDictionary
280
0
281
1
3
ACAD_GROUP
350
D
3
ACAD_MLINESTYLE
350
17
3
ACAD_LAYOUT
350
1A
3
ACAD_PLOTSETTINGS
350
19
3
ACAD_PLOTSTYLENAME
350
E
0
DICTIONARY
5
D
102
{ACAD_REACTORS
330
C
102
}
100
AcDbDictionary
280
0
281
1
0
ACDBDICTIONARYWDFLT
5
E
102
{ACAD_REACTORS
330
C
102
}
100
AcDbDictionary
281
1
3
Normal
350
F
100
AcDbDictionaryWithDefault
340
F
0
DICTIONARY
5
17
102
{ACAD_REACTORS
330
C
102
}
100
AcDbDictionary
280
0
281
1
3
Standard
350
18
0
DICTIONARY
5
19
102
{ACAD_REACTORS
330
C
102
}
100
AcDbDictionary
281
1
0
DICTIONARY
5
1A
102
{ACAD_REACTORS
330
C
102
}
100
AcDbDictionary
281
1
3
Layout1
350
1E
3
Model
350
22
0
ACDBPLACEHOLDER
5
F
102
{ACAD_REACTORS
330
E
102
}
0
MLINESTYLE
5
18
102
{ACAD_REACTORS
330
17
102
}
100
AcDbMlineStyle
2
STANDARD
70
0
3

62
256
51
90.0
52
90.0
71
2
49
0.5
62
256
6
BYLAYER
49
-0.5
62
256
6
BYLAYER
0
LAYOUT
5
1E
102
{ACAD_REACTORS
330
1A
102
}
100
AcDbPlotSettings
1

2

4

6

40
0.0
41
0.0
42
0.0
43
0.0
44
0.0
45
0.0
46
0.0
47
0.0
48
0.0
49
0.0
140
0.0
141
0.0
142
1.0
143
1.0
70
0
72
0
73
0
74
0
7

75
0
147
1.0
148
0.0
149
0.0
100
AcDbLayout
1
Layout1
70
0
71
0
10
0.0
20
0.0
11
0.0
21
0.0
12
0.0
22
0.0
32
0.0
14
0.0
24
0.0
34
0.0
15
0.0
25
0.0
35
0.0
146
0.0
13
0.0
23
0.0
33
0.0
16
0.0
26
0.0
36
0.0
17
0.0
27
0.0
37
0.0
76
0
330
1B
331
0
345
0
346
0
0
LAYOUT
5
22
102
{ACAD_REACTORS
330
1A
102
}
100
AcDbPlotSettings
1

2

4

6

40
0.0
41
0.0
42
0.0
43
0.0
44
0.0
45
0.0
46
0.0
47
0.0
48
0.0
49
0.0
140
0.0
141
0.0
142
1.0
143
1.0
70
0
72
0
73
0
74
0
7

75
0
147
1.0
148
0.0
149
0.0
100
AcDbLayout
1
Model
70
0
71
0
10
0.0
20
0.0
11
0.0
21
0.0
12
0.0
22
0.0
32
0.0
14
0.0
24
0.0
34
0.0
15
0.0
25
0.0
35
0.0
146
0.0
13
0.0
23
0.0
33
0.0
16
0.0
26
0.0
36
0.0
17
0.0
27
0.0
37
0.0
76
0
330
1F
331
0
345
0
346
0
0
ENDSEC
0
EOF
