0
SECTION
2
HEADER
9
$ACADVER
1
AC1015
9
$DWGCODEPAGE
3
ANSI_1252
9
$EXTMAX
10
431.8000000000
20
558.8000000000
30
0.0000000000
9
$EXTMIN
10
0.0000000000
20
0.0000000000
30
0.0000000000
9
$LIMMIN
10
0.0000000000
20
0.0000000000
9
$LIMMAX
10
431.8000000000
20
558.8000000000
9
$VIEWCTR
10
215.9000000000
20
279.4000000000
9
$VIEWSIZE
40
558.8000000000
9
$CLAYER
8
0
9
$LTSCALE
40
36.4254814815
9
$CELTYPE
6
BYLAYER
9
$DIMSCALE
40
1
9
$DIMASZ
40
3.0000000000
9
$DIMEXO
40
4.1392592593
9
$DIMDLI
40
25.1666962963
9
$DIMEXE
40
11.9210666667
9
$DIMCEN
40
5.9605333333
9
$DIMLFAC
40
1.0000000000
9
$DIMBLK
1
_FILLED
9
$DIMTXT
40
3.0000000000
9
$DIMTOL
70
1
9
$DIMLIM
70
0
9
$DIMTFAC
40
1.0000000000
9
$DIMTP
40
0.0100000000
9
$DIMTM
40
0.0100000000
9
$PDMODE
70
3
9
$PDSIZE
40
3.0000000000
9
$HANDSEED
5
363
9
$MEASUREMENT
70
1
9
$INSUNITS
70
4
0
ENDSEC
0
SECTION
2
CLASSES
0
CLASS
1
ACDBDICTIONARYWDFLT
2
AcDbDictionaryWithDefault
3
AutoCAD 2000
90
0
280
0
281
0
0
CLASS
1
ACDBPLACEHOLDER
2
AcDbPlaceHolder
3
AutoCAD 2000
90
0
280
0
281
0
0
CLASS
1
LAYOUT
2
AcDbLayout
3
AutoCAD 2000
90
0
280
0
281
0
0
ENDSEC
0
SECTION
2
TABLES
0
TABLE
2
VPORT
5
8
100
AcDbSymbolTable
70
2
0
VPORT
5
1F4
100
AcDbSymbolTableRecord
100
AcDbViewportTableRecord
2
*ACTIVE
70
0
10
0.0
20
0.0
11
1.0
21
1.0
12
215.9000000000
22
279.4000000000
13
0.0
23
0.0
14
1.0
24
1.0
15
0.0
25
0.0
16
0.0
26
0.0
36
1.0
17
0.0
27
0.0
37
0.0
40
558.8000000000
41
0.7727272727
42
50.0
43
0.0
44
0.0
50
0.0
51
0.0
71
0
72
100
73
1
74
1
75
0
76
0
77
0
78
0
0
ENDTAB
0
TABLE
2
LTYPE
5
5
100
AcDbSymbolTable
70
6
0
LTYPE
5
14
100
AcDbSymbolTableRecord
100
AcDbLinetypeTableRecord
2
BYBLOCK
70
0
3

72
65
73
0
40
0.0
0
LTYPE
5
15
100
AcDbSymbolTableRecord
100
AcDbLinetypeTableRecord
2
BYLAYER
70
0
3

72
65
73
0
40
0.0
0
LTYPE
5
16
100
AcDbSymbolTableRecord
100
AcDbLinetypeTableRecord
2
CONTINUOUS
70
64
3
Solid line
72
65
73
0
40
0
0
LTYPE
5
1F5
100
AcDbSymbolTableRecord
100
AcDbLinetypeTableRecord
2
CENTER
70
64
3
____ _ ____ _ ____ _ ____ _ ____ _ ____ _ ____
72
65
73
4
40
0.6
49
0.375
74
0
49
-0.075
74
0
49
0.075
74
0
49
-0.075
74
0
0
LTYPE
5
1F6
100
AcDbSymbolTableRecord
100
AcDbLinetypeTableRecord
2
HIDDEN
70
64
3
- - - - - - - - - - - - - - - - - - - -
72
65
73
2
40
0.2
49
0.1
74
0
49
-0.1
74
0
0
LTYPE
5
1F7
100
AcDbSymbolTableRecord
100
AcDbLinetypeTableRecord
2
PHANTOM
70
64
3
_____ _ _ _____ _ _ _____ _ _ _____
72
65
73
6
40
0.8
49
0.45
74
0
49
-0.05
74
0
49
0.1
74
0
49
-0.05
74
0
49
0.1
74
0
49
-0.05
74
0
0
LTYPE
5
1F8
100
AcDbSymbolTableRecord
100
AcDbLinetypeTableRecord
2
DOT
70
64
3
. . . . . . . . . . . . . . . . . . . .
72
65
73
2
40
0.2
49
0.1
74
0
49
-0.1
74
0
0
LTYPE
5
1F9
100
AcDbSymbolTableRecord
100
AcDbLinetypeTableRecord
2
DASHED
70
64
3
- - - - - - - - - - - - - - - - - - - -
72
65
73
2
40
0.2
49
0.1
74
0
49
-0.1
74
0
0
ENDTAB
0
TABLE
2
LAYER
5
2
100
AcDbSymbolTable
70
36
0
LAYER
5
10
100
AcDbSymbolTableRecord
100
AcDbLayerTableRecord
2
0
70
0
62
7
6
CONTINUOUS
370
-3
390
F
0
LAYER
5
1FA
100
AcDbSymbolTableRecord
100
AcDbLayerTableRecord
2
DEFAULT_1
70
0
62
7
6
CENTER
370
-3
390
F
0
LAYER
5
1FB
100
AcDbSymbolTableRecord
100
AcDbLayerTableRecord
2
DEFAULT_2
70
0
62
9
6
HIDDEN
370
-3
390
F
0
LAYER
5
1FC
100
AcDbSymbolTableRecord
100
AcDbLayerTableRecord
2
DEFAULT_3
70
0
62
7
6
PHANTOM
370
-3
390
F
0
LAYER
5
1FD
100
AcDbSymbolTableRecord
100
AcDbLayerTableRecord
2
ASSI
70
0
62
7
6
CONTINUOUS
370
-3
390
F
0
LAYER
5
1FE
100
AcDbSymbolTableRecord
100
AcDbLayerTableRecord
2
COORDINATE
70
0
62
7
6
CONTINUOUS
370
-3
390
F
0
LAYER
5
1FF
100
AcDbSymbolTableRecord
100
AcDbLayerTableRecord
2
COORD_ORIGINE
70
0
62
7
6
CONTINUOUS
370
-3
390
F
0
LAYER
5
200
100
AcDbSymbolTableRecord
100
AcDbLayerTableRecord
2
CURVE
70
0
62
7
6
CONTINUOUS
370
-3
390
F
0
LAYER
5
201
100
AcDbSymbolTableRecord
100
AcDbLayerTableRecord
2
CURVE_LED_TASTO
70
0
62
7
6
CONTINUOUS
370
-3
390
F
0
LAYER
5
202
100
AcDbSymbolTableRecord
100
AcDbLayerTableRecord
2
DRAFT
70
0
62
7
6
CONTINUOUS
370
-3
390
F
0
LAYER
5
203
100
AcDbSymbolTableRecord
100
AcDbLayerTableRecord
2
IGES_SCRITTE
70
0
62
7
6
CONTINUOUS
370
-3
390
F
0
LAYER
5
204
100
AcDbSymbolTableRecord
100
AcDbLayerTableRecord
2
PIANI
70
0
62
7
6
CONTINUOUS
370
-3
390
F
0
LAYER
5
205
100
AcDbSymbolTableRecord
100
AcDbLayerTableRecord
2
PIANI_ORIGINE
70
0
62
7
6
CONTINUOUS
370
-3
390
F
0
LAYER
5
206
100
AcDbSymbolTableRecord
100
AcDbLayerTableRecord
2
PIANI_RIFERIMENTO
70
0
62
7
6
CONTINUOUS
370
-3
390
F
0
LAYER
5
207
100
AcDbSymbolTableRecord
100
AcDbLayerTableRecord
2
PUNTI
70
0
62
7
6
CONTINUOUS
370
-3
390
F
0
LAYER
5
208
100
AcDbSymbolTableRecord
100
AcDbLayerTableRecord
2
RACCORDO
70
0
62
7
6
CONTINUOUS
370
-3
390
F
0
LAYER
5
209
100
AcDbSymbolTableRecord
100
AcDbLayerTableRecord
2
SMUSSO
70
0
62
7
6
CONTINUOUS
370
-3
390
F
0
LAYER
5
20A
100
AcDbSymbolTableRecord
100
AcDbLayerTableRecord
2
SUPERFICI
70
0
62
7
6
CONTINUOUS
370
-3
390
F
0
LAYER
5
20B
100
AcDbSymbolTableRecord
100
AcDbLayerTableRecord
2
TRASH
70
0
62
7
6
CONTINUOUS
370
-3
390
F
0
ENDTAB
0
TABLE
2
STYLE
5
3
100
AcDbSymbolTable
70
1
0
STYLE
5
11
100
AcDbSymbolTableRecord
100
AcDbTextStyleTableRecord
2
STANDARD
70
0
40
0.0
41
0.8000000000
50
0.0
71
0
42
0.2
3
txt
4

0
ENDTAB
0
TABLE
2
VIEW
5
6
100
AcDbSymbolTable
70
0
0
ENDTAB
0
TABLE
2
UCS
5
7
100
AcDbSymbolTable
70
0
0
ENDTAB
0
TABLE
2
APPID
5
9
100
AcDbSymbolTable
70
1
0
APPID
5
20C
100
AcDbSymbolTableRecord
100
AcDbRegAppTableRecord
2
ACAD
70
0
0
ENDTAB
0
TABLE
2
BLOCK_RECORD
5
1
100
AcDbSymbolTable
70
0
0
BLOCK_RECORD
5
1F
100
AcDbSymbolTableRecord
100
AcDbBlockTableRecord
2
*MODEL_SPACE
0
BLOCK_RECORD
5
1B
100
AcDbSymbolTableRecord
100
AcDbBlockTableRecord
2
*PAPER_SPACE
0
ENDTAB
0
TABLE
2
DIMSTYLE
5
A
100
AcDbSymbolTable
70
1
100
AcDbDimStyleTable
71
0
0
DIMSTYLE
105
20D
100
AcDbSymbolTableRecord
100
AcDbDimStyleTableRecord
2
STANDARD
70
0
3

4

40
1.0
41
3.0000000000
42
0.0625
43
0.38
44
0.18
45
0.0
46
0.0
47
0.0100000000
48
0.0100000000
140
3.0000000000
141
0.09
142
0.0
143
25.4
144
1.0000000000
145
0.0
146
1.0000000000
147
0.09
71
1
72
0
73
0
74
0
75
0
76
0
77
1
78
8
170
0
171
2
172
0
173
0
174
0
175
0
176
0
177
0
178
0
270
2
271
2
272
2
273
2
274
2
275
0
280
0
281
0
282
0
283
1
284
8
285
0
286
0
287
3
288
0
340
11
0
ENDTAB
0
ENDSEC
0
SECTION
2
BLOCKS
0
BLOCK
5
20
100
AcDbEntity
8
0
100
AcDbBlockBegin
2
*MODEL_SPACE
70
0
10
0.0
20
0.0
30
0.0
3
*MODEL_SPACE
1

0
ENDBLK
5
21
100
AcDbEntity
8
0
100
AcDbBlockEnd
0
BLOCK
5
1C
100
AcDbEntity
8
0
100
AcDbBlockBegin
2
*PAPER_SPACE
70
0
10
0.0
20
0.0
30
0.0
3
*PAPER_SPACE
1

0
ENDBLK
5
1D
100
AcDbEntity
8
0
100
AcDbBlockEnd
0
ENDSEC
0
SECTION
2
ENTITIES
0
LWPOLYLINE
5
20E
100
AcDbEntity
8
0
100
AcDbPolyline
62
0
6
CONTINUOUS
90
14
70
0
10
-13.9216979005
20
27.2147993712
10
-14.0292288211
20
27.1474717264
10
-14.1314611360
20
27.0704634631
10
-14.2286872385
20
26.9838727220
10
-14.3203738963
20
26.8882968472
10
-14.4052565740
20
26.7853041618
10
-14.4833276185
20
26.6751622864
10
-14.5542945699
20
26.5582328524
10
-14.6168104729
20
26.4367862009
10
-14.6707431165
20
26.3112219940
10
-14.7158099177
20
26.1818610459
10
-14.7510644433
20
26.0511077038
10
-14.7762513267
20
25.9199224694
10
-14.7912451434
20
25.7878905875
0
LWPOLYLINE
5
20F
100
AcDbEntity
8
0
100
AcDbPolyline
62
0
6
CONTINUOUS
90
47
70
0
10
-13.9216498413
20
27.2148259183
10
-13.9525169449
20
27.1968477475
10
-13.9831746704
20
27.1779338723
10
-14.0135930705
20
27.1580955036
10
-14.0437375426
20
27.1373492458
10
-14.0735289038
20
27.1157474735
10
-14.1029624606
20
27.0932945424
10
-14.1320304687
20
27.0699961256
10
-14.1606561867
20
27.0459161382
10
-14.1888384866
20
27.0210613965
10
-14.2165724912
20
26.9954401080
10
-14.2437828439
20
26.9691293667
10
-14.2704693909
20
26.9421399539
10
-14.2966317761
20
26.9144808844
10
-14.3222007333
20
26.8862377669
10
-14.3471709252
20
26.8574319998
10
-14.3715523077
20
26.8280664073
10
-14.3953026540
20
26.7982067884
10
-14.4184159547
20
26.7678781656
10
-14.4409042856
20
26.7370805319
10
-14.4627536244
20
26.7058471388
10
-14.4839645921
20
26.6741914838
10
-14.5045392825
20
26.6421221366
10
-14.5244660996
20
26.6096686351
10
-14.5437423911
20
26.5768458788
10
-14.5623703480
20
26.5436587172
10
-14.5803448168
20
26.5101231079
10
-14.5976625404
20
26.4762495994
10
-14.6143216914
20
26.4420446354
10
-14.6303173507
20
26.4075176069
10
-14.6456465209
20
26.3726721122
10
-14.6603015659
20
26.3375189380
10
-14.6742707873
20
26.3020776921
10
-14.6875501193
20
26.2663472261
10
-14.7001283313
20
26.2303413462
10
-14.7119854731
20
26.1941012278
10
-14.7231137863
20
26.1576316228
10
-14.7335039252
20
26.1209398507
10
-14.7431361542
20
26.0840693521
10
-14.7520015431
20
26.0470257433
10
-14.7600899811
20
26.0098148473
10
-14.7673832810
20
25.9724781441
10
-14.7738713172
20
25.9350219286
10
-14.7795423678
20
25.8974517892
10
-14.7843800515
20
25.8598043852
10
-14.7883714146
20
25.8220941136
10
-14.7913645077
20
25.7860043889
0
LINE
5
210
100
AcDbEntity
8
0
100
AcDbLine
62
0
6
CONTINUOUS
10
-13.8974128007
20
27.2282140785
11
-13.9216498413
21
27.2148259183
0
LINE
5
211
100
AcDbEntity
8
0
100
AcDbLine
62
0
6
CONTINUOUS
10
-13.8976101732
20
27.2281077028
11
-10.8457784744
21
28.8746409186
0
LINE
5
212
100
AcDbEntity
8
0
100
AcDbLine
62
9
6
CONTINUOUS
10
-13.5276236888
20
27.2118215232
11
-10.4797590070
21
28.8562144422
0
LWPOLYLINE
5
213
100
AcDbEntity
8
0
100
AcDbPolyline
62
0
6
CONTINUOUS
90
28
70
0
10
15.9892118677
20
-25.6139872478
10
16.0160191599
20
-25.6240902163
10
16.0452071061
20
-25.6341445278
10
16.0747090445
20
-25.6433704245
10
16.1045009733
20
-25.6517591467
10
16.1345949639
20
-25.6593114115
10
16.1649680225
20
-25.6660173840
10
16.1955955585
20
-25.6718682540
10
16.2264891066
20
-25.6768617403
10
16.2576258799
20
-25.6809882994
10
16.2889811833
20
-25.6842390744
10
16.3205653153
20
-25.6866087908
10
16.3523555144
20
-25.6880882894
10
16.3843270809
20
-25.6886691380
10
16.4164890952
20
-25.6883431480
10
16.4488212531
20
-25.6871013197
10
16.4812966529
20
-25.6849357203
10
16.5139163098
20
-25.6818364892
10
16.5466579000
20
-25.6777952768
10
16.5794974456
20
-25.6728050655
10
16.6124357654
20
-25.6668547557
10
16.6454523182
20
-25.6599360333
10
16.6785226732
20
-25.6520425682
10
16.7116444697
20
-25.6431626550
10
16.7447972858
20
-25.6332883328
10
16.7779587569
20
-25.6224131423
10
16.8111266135
20
-25.6105238084
10
16.8442873942
20
-25.5976095381
0
LINE
5
214
100
AcDbEntity
8
0
100
AcDbLine
62
0
6
CONTINUOUS
10
15.9586465461
20
-25.6015228133
11
15.9892118677
21
-25.6139872478
0
LWPOLYLINE
5
215
100
AcDbEntity
8
0
100
AcDbPolyline
62
0
6
CONTINUOUS
90
10
70
0
10
15.8990571654
20
-25.5738978188
10
15.9897829024
20
-25.6142411720
10
16.0819500367
20
-25.6454941032
10
16.1770531667
20
-25.6684342452
10
16.2745502209
20
-25.6828548112
10
16.3743993890
20
-25.6885856740
10
16.4759467406
20
-25.6853556403
10
16.5783777828
20
-25.6729906544
10
16.6815905283
20
-25.6512611833
10
16.7851759294
20
-25.6199123783
0
LWPOLYLINE
5
216
100
AcDbEntity
8
0
100
AcDbPolyline
62
0
6
CONTINUOUS
90
15
70
0
10
-14.7932070317
20
-9.5301158686
10
-14.7858027594
20
-9.6163358625
10
-14.7695306362
20
-9.7215687761
10
-14.7459152161
20
-9.8221426205
10
-14.7154313891
20
-9.9175910496
10
-14.6784510200
20
-10.0078891187
10
-14.6351666982
20
-10.0932351716
10
-14.5860510963
20
-10.1731686035
10
-14.5315226735
20
-10.2474526488
10
-14.4715879617
20
-10.3163254268
10
-14.4067361834
20
-10.3793504102
10
-14.3374532961
20
-10.4362077755
10
-14.2636101968
20
-10.4870380699
10
-14.1854759589
20
-10.5315536532
10
-14.1738860652
20
-10.5374268422
0
LWPOLYLINE
5
217
100
AcDbEntity
8
0
100
AcDbPolyline
62
0
6
CONTINUOUS
90
37
70
0
10
-14.7932145891
20
-9.5299821224
10
-14.7912268247
20
-9.5599367665
10
-14.7878948475
20
-9.5971841267
10
-14.7836466084
20
-9.6339622490
10
-14.7784934236
20
-9.6702663981
10
-14.7724479829
20
-9.7060825777
10
-14.7655258845
20
-9.7413827428
10
-14.7577412214
20
-9.7761547231
10
-14.7491073780
20
-9.8103897350
10
-14.7396426176
20
-9.8440610586
10
-14.7293633414
20
-9.8771555134
10
-14.7182852223
20
-9.9096633105
10
-14.7064295750
20
-9.9415599142
10
-14.6938169291
20
-9.9728287287
10
-14.6804647579
20
-10.0034625578
10
-14.6663932669
20
-10.0334481569
10
-14.6516307333
20
-10.0627592079
10
-14.6361921269
20
-10.0913988194
10
-14.6200769086
20
-10.1193937623
10
-14.6033053322
20
-10.1467302200
10
-14.5858978738
20
-10.1733963807
10
-14.5678501389
20
-10.1994163947
10
-14.5491787385
20
-10.2247796135
10
-14.5299062313
20
-10.2494689972
10
-14.5100342698
20
-10.2734946066
10
-14.4895824562
20
-10.2968427497
10
-14.4685716436
20
-10.3194996005
10
-14.4470038235
20
-10.3414717890
10
-14.4249001315
20
-10.3627453772
10
-14.4022814732
20
-10.3833079209
10
-14.3791480517
20
-10.4031653437
10
-14.3555218583
20
-10.4223038499
10
-14.3314240357
20
-10.4407119657
10
-14.3068517944
20
-10.4583959364
10
-14.2818266420
20
-10.4753429733
10
-14.2563706942
20
-10.4915412186
10
-14.2304803765
20
-10.5069951753
0
LWPOLYLINE
5
218
100
AcDbEntity
8
0
100
AcDbPolyline
62
0
6
CONTINUOUS
90
3
70
0
10
-14.8938782841
20
-7.6305315957
10
-14.8448315806
20
-8.5846832036
10
-14.7932148203
20
-9.5299782530
0
LINE
5
219
100
AcDbEntity
8
0
100
AcDbLine
62
0
6
CONTINUOUS
10
-14.9399555762
20
-6.6746299108
11
-14.7932148165
21
-9.5299783207
0
LWPOLYLINE
5
21A
100
AcDbEntity
8
0
100
AcDbPolyline
62
0
6
CONTINUOUS
90
3
70
0
10
-15.0231993236
20
-4.7576353817
10
-14.9830627572
20
-5.7169934104
10
-14.9399555762
20
-6.6746299108
0
LINE
5
21B
100
AcDbEntity
8
0
100
AcDbLine
62
0
6
CONTINUOUS
10
-15.0603648302
20
-3.7965682475
11
-14.9368773987
21
-6.7405199182
0
LWPOLYLINE
5
21C
100
AcDbEntity
8
0
100
AcDbPolyline
62
0
6
CONTINUOUS
90
7
70
0
10
-15.2743385278
20
8.1685908909
10
-15.2733524433
20
8.1419787447
10
-15.2660769266
20
8.0924946788
10
-15.2518150086
20
8.0440345280
10
-15.2307755417
20
7.9972451645
10
-15.2032863407
20
7.9527160994
10
-15.1696207318
20
7.9107489408
0
LWPOLYLINE
5
21D
100
AcDbEntity
8
0
100
AcDbPolyline
62
0
6
CONTINUOUS
90
3
70
0
10
-15.1257808747
20
-1.8693598481
10
-15.0945588179
20
-2.8338051018
10
-15.0603648302
20
-3.7965682475
0
LINE
5
21E
100
AcDbEntity
8
0
100
AcDbLine
62
0
6
CONTINUOUS
10
-15.1540306164
20
-0.9032461204
11
-15.0583705648
21
-3.8502058570
0
LWPOLYLINE
5
21F
100
AcDbEntity
8
0
100
AcDbPolyline
62
0
6
CONTINUOUS
90
3
70
0
10
-15.2016117723
20
1.0339318885
10
-15.1793076774
20
0.0645224423
10
-15.1540306164
20
-0.9032461204
0
LINE
5
220
100
AcDbEntity
8
0
100
AcDbLine
62
0
6
CONTINUOUS
10
-15.2209426374
20
2.0049681128
11
-15.1531191727
21
-0.9344166101
0
LWPOLYLINE
5
221
100
AcDbEntity
8
0
100
AcDbPolyline
62
0
6
CONTINUOUS
90
3
70
0
10
-15.2506838222
20
3.9518655794
10
-15.2373000373
20
2.9776172634
10
-15.2209426374
20
2.0049681128
0
LWPOLYLINE
5
222
100
AcDbEntity
8
0
100
AcDbPolyline
62
0
6
CONTINUOUS
90
30
70
0
10
-15.2743385178
20
8.1686000576
10
-15.2741998609
20
8.1583803847
10
-15.2735439850
20
8.1446625362
10
-15.2723494364
20
8.1309594537
10
-15.2706151861
20
8.1172774363
10
-15.2683355553
20
8.1036023113
10
-15.2655075688
20
8.0899498621
10
-15.2621296296
20
8.0763372649
10
-15.2581920551
20
8.0627523556
10
-15.2536907725
20
8.0492103809
10
-15.2486229757
20
8.0357284578
10
-15.2429751895
20
8.0222968319
10
-15.2367406159
20
8.0089270590
10
-15.2299165469
20
7.9956387352
10
-15.2224908132
20
7.9824330260
10
-15.2144521565
20
7.9693154112
10
-15.2058003398
20
7.9563090796
10
-15.1965384394
20
7.9434386712
10
-15.1866619418
20
7.9307157293
10
-15.1761667219
20
7.9181514045
10
-15.1650568501
20
7.9057655101
10
-15.1533295165
20
7.8935686518
10
-15.1409787736
20
7.8815678048
10
-15.1280031932
20
7.8697742816
10
-15.1143981662
20
7.8581965905
10
-15.1001570296
20
7.8468415993
10
-15.0852738725
20
7.8357170163
10
-15.0697420695
20
7.8248309212
10
-15.0535546074
20
7.8141915187
10
-15.0367038300
20
7.8038070086
0
LINE
5
223
100
AcDbEntity
8
0
100
AcDbLine
62
0
6
CONTINUOUS
10
-15.2610938599
20
4.9276990883
11
-15.2205113291
21
1.9833024496
0
LINE
5
224
100
AcDbEntity
8
0
100
AcDbLine
62
0
6
CONTINUOUS
10
-15.2743385682
20
7.5616925415
11
-15.2609682125
21
4.9159209353
0
LWPOLYLINE
5
225
100
AcDbEntity
8
0
100
AcDbPolyline
62
0
6
CONTINUOUS
90
4
70
0
10
-15.2743385683
20
7.5616926246
10
-15.2729923394
20
6.8840661458
10
-15.2685300407
20
5.9051039118
10
-15.2610938599
20
4.9276990883
0
LINE
5
226
100
AcDbEntity
8
0
100
AcDbLine
62
9
6
CONTINUOUS
10
-14.7573234649
20
7.5937310836
11
-14.7573234649
21
7.6618600955
0
LWPOLYLINE
5
227
100
AcDbEntity
8
0
100
AcDbPolyline
62
0
6
CONTINUOUS
90
3
70
0
10
-15.2685360713
20
9.8301574532
10
-15.2729952957
20
8.8466068686
10
-15.2743385686
20
8.1685664291
0
LINE
5
228
100
AcDbEntity
8
0
100
AcDbLine
62
0
6
CONTINUOUS
10
-15.2610294561
20
10.8222006241
11
-15.2743385685
21
8.1685665145
0
LINE
5
229
100
AcDbEntity
8
0
100
AcDbLine
62
0
6
CONTINUOUS
10
-15.2506968289
20
11.8017488992
11
-15.2610294561
21
10.8222006241
0
LINE
5
22A
100
AcDbEntity
8
0
100
AcDbLine
62
0
6
CONTINUOUS
10
-15.2610294561
20
10.8222006241
11
-15.2685360713
21
9.8301574532
0
LINE
5
22B
100
AcDbEntity
8
0
100
AcDbLine
62
0
6
CONTINUOUS
10
-15.2373171816
20
12.7897617155
11
-15.2506968289
21
11.8017488992
0
LINE
5
22C
100
AcDbEntity
8
0
100
AcDbLine
62
0
6
CONTINUOUS
10
-15.2206326447
20
13.7962502517
11
-15.2609531522
21
10.8294343377
0
LINE
5
22D
100
AcDbEntity
8
0
100
AcDbLine
62
0
6
CONTINUOUS
10
-15.2016390820
20
14.7701510279
11
-15.2206326447
21
13.7962502517
0
LINE
5
22E
100
AcDbEntity
8
0
100
AcDbLine
62
0
6
CONTINUOUS
10
-15.2206326447
20
13.7962502517
11
-15.2373171816
21
12.7897617155
0
LINE
5
22F
100
AcDbEntity
8
0
100
AcDbLine
62
0
6
CONTINUOUS
10
-15.1793412506
20
15.7624993881
11
-15.2016390820
21
14.7701510279
0
LINE
5
230
100
AcDbEntity
8
0
100
AcDbLine
62
0
6
CONTINUOUS
10
-15.1533060086
20
16.7832350361
11
-15.2203151833
21
13.8125281829
0
LINE
5
231
100
AcDbEntity
8
0
100
AcDbLine
62
0
6
CONTINUOUS
10
-15.1258299273
20
17.7514317510
11
-15.1533060086
21
16.7832350361
0
LINE
5
232
100
AcDbEntity
8
0
100
AcDbLine
62
0
6
CONTINUOUS
10
-15.1533060086
20
16.7832350361
11
-15.1793412506
21
15.7624993881
0
LINE
5
233
100
AcDbEntity
8
0
100
AcDbLine
62
0
6
CONTINUOUS
10
-15.0946173224
20
18.7479873649
11
-15.1258299273
21
17.7514317510
0
LINE
5
234
100
AcDbEntity
8
0
100
AcDbLine
62
0
6
CONTINUOUS
10
-15.0586834974
20
19.7948304812
11
-15.1525895883
21
16.8084801136
0
LINE
5
235
100
AcDbEntity
8
0
100
AcDbLine
62
0
6
CONTINUOUS
10
-15.0232807486
20
20.7452066982
11
-15.0590563483
21
19.7829732794
0
LINE
5
236
100
AcDbEntity
8
0
100
AcDbLine
62
0
6
CONTINUOUS
10
-15.0590563483
20
19.7829732794
11
-15.0946173224
21
18.7479873649
0
LINE
5
237
100
AcDbEntity
8
0
100
AcDbLine
62
0
6
CONTINUOUS
10
-14.9831578872
20
21.7458423897
11
-15.0232807486
21
20.7452066982
0
LINE
5
238
100
AcDbEntity
8
0
100
AcDbLine
62
0
6
CONTINUOUS
10
-14.9372927330
20
22.8100645024
11
-15.0577945263
21
19.8169116992
0
LINE
5
239
100
AcDbEntity
8
0
100
AcDbLine
62
0
6
CONTINUOUS
10
-14.8940059079
20
23.7510994552
11
-14.9378959949
21
22.7950800361
0
LINE
5
23A
100
AcDbEntity
8
0
100
AcDbLine
62
0
6
CONTINUOUS
10
-14.9378959949
20
22.7950800361
11
-14.9831578872
21
21.7458423897
0
LINE
5
23B
100
AcDbEntity
8
0
100
AcDbLine
62
0
6
CONTINUOUS
10
-14.7933493723
20
25.7546891666
11
-14.9359012424
21
22.8385299883
0
LWPOLYLINE
5
23C
100
AcDbEntity
8
0
100
AcDbPolyline
62
0
6
CONTINUOUS
90
3
70
0
10
-14.7933493747
20
25.7546891212
10
-14.8449782299
20
24.7556909158
10
-14.8940059079
20
23.7510994552
0
LINE
5
23D
100
AcDbEntity
8
0
100
AcDbLine
62
0
6
CONTINUOUS
10
-15.2722353237
20
7.6003422323
11
-15.2743383765
21
7.5615523461
0
LINE
5
23E
100
AcDbEntity
8
0
100
AcDbLine
62
0
6
CONTINUOUS
10
-14.7912451434
20
25.7878905875
11
-14.7933641507
21
25.7544059572
0
LWPOLYLINE
5
23F
100
AcDbEntity
8
0
100
AcDbPolyline
62
0
6
CONTINUOUS
90
4
70
0
10
-15.2722200322
20
7.6004913941
10
-15.2735106699
20
7.5860849951
10
-15.2742054416
20
7.5716765955
10
-15.2743385331
20
7.5616700186
0
LWPOLYLINE
5
240
100
AcDbEntity
8
0
100
AcDbPolyline
62
0
6
CONTINUOUS
90
3
70
0
10
15.9000646273
20
-25.5744028662
10
15.9304646942
20
-25.5890106884
10
15.9586465461
20
-25.6015228133
0
LINE
5
241
100
AcDbEntity
8
0
100
AcDbLine
62
0
6
CONTINUOUS
10
-14.1746194932
20
-10.5370608072
11
15.9000939858
21
-25.5744175466
0
LINE
5
242
100
AcDbEntity
8
0
100
AcDbLine
62
9
6
CONTINUOUS
10
-14.5588545127
20
-9.8143319343
11
15.5095476080
21
-24.8485329946
0
LINE
5
243
100
AcDbEntity
8
0
100
AcDbLine
62
0
6
CONTINUOUS
10
15.8990565014
20
-25.5738974881
11
15.9000937528
21
-25.5744174302
0
LWPOLYLINE
5
244
100
AcDbEntity
8
0
100
AcDbPolyline
62
0
6
CONTINUOUS
90
3
70
0
10
-14.2304803765
20
-10.5069951753
10
-14.2041687853
20
-10.5216975250
10
-14.1787566995
20
-10.5349586439
0
LWPOLYLINE
5
245
100
AcDbEntity
8
0
100
AcDbPolyline
62
0
6
CONTINUOUS
90
8
70
0
10
-15.1220575686
20
7.8651877135
10
-15.1521373439
20
7.8378849336
10
-15.1844142705
20
7.8023119583
10
-15.2121020368
20
7.7645817565
10
-15.2349601560
20
7.7249211779
10
-15.2526316685
20
7.6840010897
10
-15.2650296592
20
7.6423780004
10
-15.2722353237
20
7.6003422323
0
LWPOLYLINE
5
246
100
AcDbEntity
8
0
100
AcDbPolyline
62
0
6
CONTINUOUS
90
21
70
0
10
-15.1222707760
20
7.8653582567
10
-15.1272024299
20
7.8611879784
10
-15.1411118229
20
7.8485665802
10
-15.1542651311
20
7.8357477773
10
-15.1666872715
20
7.8227298158
10
-15.1783562210
20
7.8095606359
10
-15.1892685442
20
7.7962765657
10
-15.1994551988
20
7.7828734592
10
-15.2089447548
20
7.7693430522
10
-15.2177453379
20
7.7557023054
10
-15.2258667426
20
7.7419665017
10
-15.2333315922
20
7.7281258037
10
-15.2401443666
20
7.7141990701
10
-15.2463124568
20
7.7002016190
10
-15.2518544439
20
7.6861190621
10
-15.2567730682
20
7.6719694619
10
-15.2610721710
20
7.6577705455
10
-15.2647643045
20
7.6435079266
10
-15.2678507934
20
7.6292001052
10
-15.2703337838
20
7.6148658227
10
-15.2722200322
20
7.6004913941
0
LINE
5
247
100
AcDbEntity
8
0
100
AcDbLine
62
9
6
CONTINUOUS
10
-1.3489277199
20
-11.7807253911
11
-1.8792578111
21
-11.5155603455
0
LINE
5
248
100
AcDbEntity
8
0
100
AcDbLine
62
9
6
CONTINUOUS
10
-0.3531542866
20
-10.6114478980
11
0.7075059694
21
-11.1417780261
0
LINE
5
249
100
AcDbEntity
8
0
100
AcDbLine
62
9
6
CONTINUOUS
10
1.4146127085
20
-11.4953313956
11
2.4752729645
21
-12.0256615236
0
LINE
5
24A
100
AcDbEntity
8
0
100
AcDbLine
62
9
6
CONTINUOUS
10
-1.9866050056
20
-8.5381450295
11
-1.4562749144
21
-8.8033100751
0
LINE
5
24B
100
AcDbEntity
8
0
100
AcDbLine
62
9
6
CONTINUOUS
10
-0.3956148058
20
-9.3336401294
11
0.6650454502
21
-9.8639702574
0
LINE
5
24C
100
AcDbEntity
8
0
100
AcDbLine
62
9
6
CONTINUOUS
10
1.3721521893
20
-10.2175236270
11
2.4328124453
21
-10.7478537550
0
LWPOLYLINE
5
24D
100
AcDbEntity
8
0
100
AcDbPolyline
62
0
6
CONTINUOUS
90
3
70
0
10
-15.1696207318
20
7.9107489408
10
-15.1300186942
20
7.8715557634
10
-15.0846548896
20
7.8352695663
0
LINE
5
24E
100
AcDbEntity
8
0
100
AcDbLine
62
0
6
CONTINUOUS
10
-15.0846548896
20
7.8352695663
11
-15.0336095877
21
7.8019714850
0
LINE
5
24F
100
AcDbEntity
8
0
100
AcDbLine
62
9
6
CONTINUOUS
10
19.7138728629
20
13.7593985073
11
16.5577165926
21
12.1691513825
0
LINE
5
250
100
AcDbEntity
8
0
100
AcDbLine
62
9
6
CONTINUOUS
10
20.2794721313
20
12.7838840700
11
17.1233158609
21
11.1936369452
0
LWPOLYLINE
5
251
100
AcDbEntity
8
0
100
AcDbPolyline
62
0
6
CONTINUOUS
90
44
70
0
10
15.0949994399
20
-7.2634553274
10
15.1145497850
20
-7.2719220173
10
15.1343933637
20
-7.2799550590
10
15.1545163809
20
-7.2875631702
10
15.1749110896
20
-7.2947557165
10
15.1955601998
20
-7.3015377844
10
15.2164459913
20
-7.3079137878
10
15.2375569553
20
-7.3138892299
10
15.2588754233
20
-7.3194676514
10
15.2803848560
20
-7.3246523576
10
15.3020726284
20
-7.3294472438
10
15.3239213373
20
-7.3338549505
10
15.3459145090
20
-7.3378778344
10
15.3680385198
20
-7.3415188030
10
15.3902738210
20
-7.3447795644
10
15.4126063969
20
-7.3476624092
10
15.4350294898
20
-7.3501704472
10
15.4575250462
20
-7.3523048532
10
15.4800781378
20
-7.3540671206
10
15.5026861144
20
-7.3554594770
10
15.5253326398
20
-7.3564824418
10
15.5480015221
20
-7.3571367638
10
15.5706901527
20
-7.3574232511
10
15.5933824571
20
-7.3573417805
10
15.6160621318
20
-7.3568925505
10
15.6387262133
20
-7.3560749934
10
15.6613585773
20
-7.3548884488
10
15.6839428595
20
-7.3533325131
10
15.7064758803
20
-7.3514052617
10
15.7289424618
20
-7.3491053794
10
15.7513249117
20
-7.3464318226
10
15.7736167811
20
-7.3433817032
10
15.7958036355
20
-7.3399529899
10
15.8178665119
20
-7.3361440752
10
15.8397934264
20
-7.3319519427
10
15.8615679084
20
-7.3273743764
10
15.8831726490
20
-7.3224088760
10
15.9045965587
20
-7.3170513448
10
15.9258231012
20
-7.3112986038
10
15.9468345981
20
-7.3051472312
10
15.9676208470
20
-7.2985915056
10
15.9881641019
20
-7.2916271366
10
16.0084469303
20
-7.2842491946
10
16.0284626309
20
-7.2764482095
0
LWPOLYLINE
5
252
100
AcDbEntity
8
0
100
AcDbPolyline
62
0
6
CONTINUOUS
90
16
70
0
10
15.0629992608
20
-7.2483003477
10
15.0989640056
20
-7.2652181210
10
15.1592149670
20
-7.2892652969
10
15.2222601267
20
-7.3096054813
10
15.2877623082
20
-7.3263313133
10
15.3553458826
20
-7.3394790255
10
15.4245393825
20
-7.3490448080
10
15.4948753348
20
-7.3550205234
10
15.5658150212
20
-7.3573927358
10
15.6368584925
20
-7.3561563511
10
15.7075043618
20
-7.3513082594
10
15.7772030816
20
-7.3428543042
10
15.8454789716
20
-7.3307971319
10
15.9118473433
20
-7.3151369934
10
15.9759001576
20
-7.2958443425
10
16.0372786529
20
-7.2728388124
0
LWPOLYLINE
5
253
100
AcDbEntity
8
0
100
AcDbPolyline
62
0
6
CONTINUOUS
90
3
70
0
10
15.0633006560
20
-7.2484519285
10
15.0757656606
20
-7.2545500108
10
15.0949994399
20
-7.2634553274
0
LINE
5
254
100
AcDbEntity
8
0
100
AcDbLine
62
9
6
CONTINUOUS
10
15.0113282768
20
-7.7467002280
11
1.0896221799
21
-0.7858471793
0
LINE
5
255
100
AcDbEntity
8
0
100
AcDbLine
62
9
6
CONTINUOUS
10
-1.1183180367
20
0.3181229290
11
-15.0400241336
21
7.2789759772
0
LINE
5
256
100
AcDbEntity
8
0
100
AcDbLine
62
9
6
CONTINUOUS
10
15.1527495373
20
-7.5025823091
11
1.2310434401
21
-0.5417292608
0
LINE
5
257
100
AcDbEntity
8
0
100
AcDbLine
62
9
6
CONTINUOUS
10
-0.9768967765
20
0.5622408475
11
-14.8986028732
21
7.5230938961
0
LINE
5
258
100
AcDbEntity
8
0
100
AcDbLine
62
0
6
CONTINUOUS
10
-14.7573234649
20
7.5937310836
11
-0.8356198846
21
0.6328792935
0
LINE
5
259
100
AcDbEntity
8
0
100
AcDbLine
62
0
6
CONTINUOUS
10
1.3723203320
20
-0.4710908148
11
15.2940239123
21
-7.4319426050
0
LINE
5
25A
100
AcDbEntity
8
0
100
AcDbLine
62
0
6
CONTINUOUS
10
-14.9880455929
20
7.7772211595
11
-1.0663394960
21
0.8163681110
0
LINE
5
25B
100
AcDbEntity
8
0
100
AcDbLine
62
0
6
CONTINUOUS
10
1.1416007206
20
-0.2876019972
11
15.0633068176
21
-7.2484550457
0
LINE
5
25C
100
AcDbEntity
8
0
100
AcDbLine
62
9
6
CONTINUOUS
10
-15.0400241336
20
7.8855981757
11
-1.1183180367
21
0.9247451270
0
LINE
5
25D
100
AcDbEntity
8
0
100
AcDbLine
62
9
6
CONTINUOUS
10
1.0896221799
20
-0.1792249813
11
15.0113282768
21
-7.1400780295
0
LINE
5
25E
100
AcDbEntity
8
0
100
AcDbLine
62
0
6
CONTINUOUS
10
-15.0336095877
20
7.8019714850
11
-14.9879204880
21
7.7771587887
0
LWPOLYLINE
5
25F
100
AcDbEntity
8
0
100
AcDbPolyline
62
0
6
CONTINUOUS
90
4
70
0
10
-15.0367038300
20
7.8038070086
10
-15.0191820966
20
7.7936866325
10
-15.0009843617
20
7.7838411726
10
-14.9880449657
20
7.7772208820
0
LINE
5
260
100
AcDbEntity
8
0
100
AcDbLine
62
0
6
CONTINUOUS
10
1.0349195047
20
-0.6757505373
11
1.0349471688
21
-0.6756119241
0
LINE
5
261
100
AcDbEntity
8
0
100
AcDbLine
62
0
6
CONTINUOUS
10
1.0349469967
20
-0.6756123999
11
1.0304456638
21
-0.6969070811
0
LWPOLYLINE
5
262
100
AcDbEntity
8
0
100
AcDbPolyline
62
0
6
CONTINUOUS
90
21
70
0
10
1.0311517033
20
-0.6937078434
10
1.0256908201
20
-0.7172826957
10
1.0197564247
20
-0.7403257243
10
1.0133621927
20
-0.7628044533
10
1.0065130707
20
-0.7847215961
10
0.9992018255
20
-0.8061098460
10
0.9914356877
20
-0.8269520501
10
0.9832230471
20
-0.8472309441
10
0.9745538089
20
-0.8669711941
10
0.9654346356
20
-0.8861533302
10
0.9558729824
20
-0.9047592251
10
0.9458557561
20
-0.9228076247
10
0.9353894193
20
-0.9402768994
10
0.9244799765
20
-0.9571490263
10
0.9131091600
20
-0.9734402598
10
0.9012825059
20
-0.9891276002
10
0.8890033536
20
-1.0041934059
10
0.8762441926
20
-1.0186538254
10
0.8630093842
20
-1.0324832214
10
0.8492956631
20
-1.0456657976
10
0.8350549898
20
-1.0582223079
0
LWPOLYLINE
5
263
100
AcDbEntity
8
0
100
AcDbPolyline
62
0
6
CONTINUOUS
90
3
70
0
10
1.0304456638
20
-0.6969070811
10
1.0066030856
20
-0.7844464177
10
0.9762291561
20
-0.8632776936
0
LINE
5
264
100
AcDbEntity
8
0
100
AcDbLine
62
0
6
CONTINUOUS
10
0.9762291561
20
-0.8632776936
11
0.9400620178
21
-0.9326427825
0
LINE
5
265
100
AcDbEntity
8
0
100
AcDbLine
62
0
6
CONTINUOUS
10
0.9400620178
20
-0.9326427825
11
0.8988053910
21
-0.9922642134
0
LINE
5
266
100
AcDbEntity
8
0
100
AcDbLine
62
0
6
CONTINUOUS
10
-0.4907640072
20
1.2287834204
11
-0.2906667610
21
1.3288320435
0
LINE
5
267
100
AcDbEntity
8
0
100
AcDbLine
62
9
6
CONTINUOUS
10
-0.7652659346
20
0.9251840954
11
-0.8389005133
21
0.8883668061
0
LINE
5
268
100
AcDbEntity
8
0
100
AcDbLine
62
0
6
CONTINUOUS
10
-0.7906642267
20
0.8647630266
11
-0.8874540578
21
0.8163681110
0
LINE
5
269
100
AcDbEntity
8
0
100
AcDbLine
62
9
6
CONTINUOUS
10
-0.9768967765
20
0.5622408475
11
-0.8356198846
21
0.6328792935
0
LINE
5
26A
100
AcDbEntity
8
0
100
AcDbLine
62
9
6
CONTINUOUS
10
-0.8389005133
20
0.3579262462
11
-0.8356637246
21
0.3595446406
0
LINE
5
26B
100
AcDbEntity
8
0
100
AcDbLine
62
0
6
CONTINUOUS
10
-0.4974941322
20
1.3931234320
11
-0.4970013401
21
1.3933696836
0
LWPOLYLINE
5
26C
100
AcDbEntity
8
0
100
AcDbPolyline
62
0
6
CONTINUOUS
90
4
70
0
10
-0.4974956664
20
1.3931226572
10
-0.4773017689
20
1.4025423803
10
-0.4581977268
20
1.4102532845
10
-0.4389258544
20
1.4169332064
0
LWPOLYLINE
5
26D
100
AcDbEntity
8
0
100
AcDbPolyline
62
0
6
CONTINUOUS
90
4
70
0
10
-0.4970029962
20
1.3933688459
10
-0.4618012813
20
1.4088841745
10
-0.4028972509
20
1.4267088207
10
-0.3392775549
20
1.4363514128
0
LINE
5
26E
100
AcDbEntity
8
0
100
AcDbLine
62
0
6
CONTINUOUS
10
-0.4389258544
20
1.4169332064
11
-0.4194780317
21
1.4226300698
0
LWPOLYLINE
5
26F
100
AcDbEntity
8
0
100
AcDbPolyline
62
0
6
CONTINUOUS
90
3
70
0
10
-0.3392775549
20
1.4363514128
10
-0.2714393709
20
1.4374284666
10
-0.1998725230
20
1.4297134761
0
LWPOLYLINE
5
270
100
AcDbEntity
8
0
100
AcDbPolyline
62
0
6
CONTINUOUS
90
21
70
0
10
-0.1998725230
20
1.4297134761
10
-0.1251038105
20
1.4130620550
10
-0.0480845081
20
1.3875407776
10
0.0297819914
20
1.3536395577
10
0.1070466812
20
1.3122433494
10
0.1835668265
20
1.2637233388
10
0.2600773649
20
1.2076464393
10
0.3362995888
20
1.1440150218
10
0.4112371106
20
1.0734803903
10
0.4846523662
20
0.9961007633
10
0.5561252437
20
0.9120697448
10
0.6248445698
20
0.8221022716
10
0.6900517234
20
0.7270423512
10
0.7512265341
20
0.6275559517
10
0.8078896147
20
0.5243467568
10
0.8594766424
20
0.4184291372
10
0.9056328659
20
0.3105918192
10
0.9460552936
20
0.2016380273
10
0.9804143747
20
0.0926593829
10
1.0085417802
20
-0.0154362409
10
1.0303858427
20
-0.1219513181
0
LINE
5
271
100
AcDbEntity
8
0
100
AcDbLine
62
0
6
CONTINUOUS
10
1.0292575510
20
-0.1156438041
11
1.0337668794
21
-0.1416100291
0
LWPOLYLINE
5
272
100
AcDbEntity
8
0
100
AcDbPolyline
62
0
6
CONTINUOUS
90
4
70
0
10
0.8988053910
20
-0.9922642134
10
0.8528754774
20
-1.0423316236
10
0.8030972243
20
-1.0826577766
10
0.7558458905
20
-1.1107003390
0
LWPOLYLINE
5
273
100
AcDbEntity
8
0
100
AcDbPolyline
62
0
6
CONTINUOUS
90
5
70
0
10
0.8350549898
20
-1.0582223079
10
0.8202869601
20
-1.0701236078
10
0.8049782267
20
-1.0813517435
10
0.7890479663
20
-1.0919286152
10
0.7724546199
20
-1.1018355073
0
LINE
5
274
100
AcDbEntity
8
0
100
AcDbLine
62
0
6
CONTINUOUS
10
0.7724546199
20
-1.1018355073
11
0.7547060730
21
-1.1112715766
0
LINE
5
275
100
AcDbEntity
8
0
100
AcDbLine
62
0
6
CONTINUOUS
10
0.7558448094
20
-1.1107008841
11
0.7548391925
21
-1.1112050499
0
LINE
5
276
100
AcDbEntity
8
0
100
AcDbLine
62
0
6
CONTINUOUS
10
1.2828776129
20
-0.4654104574
11
1.1416007206
21
-0.5360489035
0
LINE
5
277
100
AcDbEntity
8
0
100
AcDbLine
62
9
6
CONTINUOUS
10
1.3723203320
20
-0.4710908148
11
1.2310434401
21
-0.5417292608
0
LINE
5
278
100
AcDbEntity
8
0
100
AcDbLine
62
0
6
CONTINUOUS
10
0.6272699816
20
-1.0072845571
11
0.8273672084
21
-0.9072359437
0
LWPOLYLINE
5
279
100
AcDbEntity
8
0
100
AcDbPolyline
62
0
6
CONTINUOUS
90
76
70
0
10
-0.4194780317
20
1.4226300698
10
-0.3997869672
20
1.4273974040
10
-0.3798608848
20
1.4312583046
10
-0.3597273755
20
1.4342322339
10
-0.3393436466
20
1.4363453310
10
-0.3187238721
20
1.4376114730
10
-0.2978953376
20
1.4380442933
10
-0.2768327288
20
1.4376565640
10
-0.2555595978
20
1.4364589240
10
-0.2340985112
20
1.4344628619
10
-0.2124196367
20
1.4316728134
10
-0.1905465245
20
1.4280970975
10
-0.1685020699
20
1.4237448240
10
-0.1462510620
20
1.4186116274
10
-0.1238108716
20
1.4127018880
10
-0.1012085912
20
1.4060232408
10
-0.0784193958
20
1.3985670754
10
-0.0554604367
20
1.3903361918
10
-0.0323573908
20
1.3813371263
10
-0.0090950764
20
1.3715599919
10
0.0143094013
20
1.3610069835
10
0.0378314756
20
1.3496843345
10
0.0614773496
20
1.3375832548
10
0.0852328797
20
1.3247044159
10
0.1090712059
20
1.3110559823
10
0.1329809206
20
1.2966379707
10
0.1569422547
20
1.2814560162
10
0.1809343124
20
1.2655172861
10
0.2049450696
20
1.2488232798
10
0.2289559267
20
1.2313805599
10
0.2529453389
20
1.2131986758
10
0.2768977570
20
1.1942830517
10
0.3007952592
20
1.1746416425
10
0.3246162635
20
1.1542863181
10
0.3483405453
20
1.1332284562
10
0.3719487761
20
1.1114796970
10
0.3954217589
20
1.0890526081
10
0.4187402413
20
1.0659603022
10
0.4418856865
20
1.0422161037
10
0.4648392817
20
1.0178347423
10
0.4875820475
20
0.9928316740
10
0.5100964119
20
0.9672216646
10
0.5323639895
20
0.9410215954
10
0.5543652454
20
0.9142503971
10
0.5760828848
20
0.8869252341
10
0.5974999757
20
0.8590641030
10
0.6185981787
20
0.8306875230
10
0.6393611807
20
0.8018141804
10
0.6597730077
20
0.7724636479
10
0.6798164373
20
0.7426580746
10
0.6994763527
20
0.7124173344
10
0.7187377467
20
0.6817625495
10
0.7375841825
20
0.6507180694
10
0.7560015617
20
0.6193053225
10
0.7739763261
20
0.5875463076
10
0.7914935075
20
0.5554665847
10
0.8085403118
20
0.5230886841
10
0.8251045654
20
0.4904355147
10
0.8411729170
20
0.4575335545
10
0.8567339978
20
0.4244062121
10
0.8717771072
20
0.3910771063
10
0.8862906222
20
0.3575733703
10
0.9002647329
20
0.3239190088
10
0.9136902691
20
0.2901382030
10
0.9265573602
20
0.2562586785
10
0.9388578530
20
0.2223048246
10
0.9505842061
20
0.1883011680
10
0.9617283591
20
0.1542759434
10
0.9722839014
20
0.1202537584
10
0.9822450372
20
0.0862592139
10
0.9916056440
20
0.0523207977
10
1.0003611772
20
0.0184630188
10
1.0085076497
20
-0.0152895836
10
1.0160409400
20
-0.0489082814
10
1.0229581379
20
-0.0823672297
10
1.0292575510
20
-0.1156438041
0
LINE
5
27A
100
AcDbEntity
8
0
100
AcDbLine
62
0
6
CONTINUOUS
10
19.9965863339
20
-5.4345171115
11
20.1380292326
21
-5.5052385608
0
LINE
5
27B
100
AcDbEntity
8
0
100
AcDbLine
62
9
6
CONTINUOUS
10
-0.5370360989
20
10.2226421023
11
-1.0673661900
21
10.4878071478
0
LINE
5
27C
100
AcDbEntity
8
0
100
AcDbLine
62
9
6
CONTINUOUS
10
-0.9600189955
20
13.5725696583
11
-0.4296889044
21
13.3074046127
0
LINE
5
27D
100
AcDbEntity
8
0
100
AcDbLine
62
9
6
CONTINUOUS
10
15.2940239123
20
-7.4319426050
11
15.2940239123
21
-7.3275494461
0
LINE
5
27E
100
AcDbEntity
8
0
100
AcDbLine
62
9
6
CONTINUOUS
10
15.8547299729
20
-7.4343892088
11
15.8547299729
21
-7.3286142855
0
LINE
5
27F
100
AcDbEntity
8
0
100
AcDbLine
62
9
6
CONTINUOUS
10
16.1327406028
20
-7.1451733529
11
20.2794721313
21
-5.1429473083
0
LINE
5
280
100
AcDbEntity
8
0
100
AcDbLine
62
0
6
CONTINUOUS
10
16.0807712690
20
-7.2533436520
11
20.2265606901
21
-5.2515724986
0
LINE
5
281
100
AcDbEntity
8
0
100
AcDbLine
62
0
6
CONTINUOUS
10
15.8547299729
20
-7.4343892088
11
19.9965863339
21
-5.4345171115
0
LINE
5
282
100
AcDbEntity
8
0
100
AcDbLine
62
9
6
CONTINUOUS
10
20.1380292326
20
-5.5052385608
11
15.9938089287
21
-7.5062520747
0
LINE
5
283
100
AcDbEntity
8
0
100
AcDbLine
62
9
6
CONTINUOUS
10
20.2794721313
20
-5.7491650909
11
16.1327406028
21
-7.7513911355
0
LINE
5
284
100
AcDbEntity
8
0
100
AcDbLine
62
0
6
CONTINUOUS
10
16.0372786529
20
-7.2728388124
11
16.0810613877
21
-7.2532027334
0
LWPOLYLINE
5
285
100
AcDbEntity
8
0
100
AcDbPolyline
62
0
6
CONTINUOUS
90
4
70
0
10
16.0284626309
20
-7.2764482095
10
16.0481977199
20
-7.2682155335
10
16.0676285303
20
-7.2595463600
10
16.0807766880
20
-7.2533409968
0
LINE
5
286
100
AcDbEntity
8
0
100
AcDbLine
62
9
6
CONTINUOUS
10
-14.5588545127
20
25.4771254184
11
15.5095476080
21
10.4429243581
0
LINE
5
287
100
AcDbEntity
8
0
100
AcDbLine
62
0
6
CONTINUOUS
10
19.9965863339
20
-5.4345171115
11
19.9965863339
21
-5.3626143258
0
LINE
5
288
100
AcDbEntity
8
0
100
AcDbLine
62
9
6
CONTINUOUS
10
-13.5276236888
20
27.2118215232
11
16.5577165926
21
12.1691513825
0
LINE
5
289
100
AcDbEntity
8
0
100
AcDbLine
62
0
6
CONTINUOUS
10
20.2794721313
20
12.7838840700
11
20.2794721313
21
-5.1429473083
0
LINE
5
28A
100
AcDbEntity
8
0
100
AcDbLine
62
0
6
CONTINUOUS
10
20.2794721313
20
-5.7491650909
11
20.2794721313
21
-23.6759964691
0
LINE
5
28B
100
AcDbEntity
8
0
100
AcDbLine
62
0
6
CONTINUOUS
10
19.7138728629
20
13.7593985073
11
-10.4797590070
21
28.8562144422
0
LINE
5
28C
100
AcDbEntity
8
0
100
AcDbLine
62
9
6
CONTINUOUS
10
17.1233158609
20
-25.1336140262
11
20.2794721313
21
-23.6759964691
0
LINE
5
28D
100
AcDbEntity
8
0
100
AcDbLine
62
0
6
CONTINUOUS
10
20.0632130110
20
-24.1126786692
11
16.9025038444
21
-25.5723983256
0
LINE
5
28E
100
AcDbEntity
8
0
100
AcDbLine
62
0
6
CONTINUOUS
10
16.8774128816
20
-25.5836660549
11
16.9030044642
21
-25.5721676727
0
LINE
5
28F
100
AcDbEntity
8
0
100
AcDbLine
62
0
6
CONTINUOUS
10
16.8442873942
20
-25.5976095381
11
16.8774128816
21
-25.5836660549
0
LINE
5
290
100
AcDbEntity
8
0
100
AcDbLine
62
0
6
CONTINUOUS
10
16.7851759294
20
-25.6199123783
11
16.8882854158
21
-25.5788585032
0
SPLINE
5
291
100
AcDbEntity
8
0
100
AcDbSpline
62
0
6
CONTINUOUS
70
0
71
3
72
11
73
7
74
5
42
0.0000001000
43
0.0000001000
44
0.0000000001
12
-0.5598188096
22
-0.2799094055
32
0.0000000000
13
-0.5598188080
23
0.2799094037
33
0.0000000000
40
0.0000000000
40
0.0000000000
40
0.0000000000
40
0.0000000000
40
0.2252491437
40
0.4623333716
40
0.7195979463
40
1.0000000000
40
1.0000000000
40
1.0000000000
40
1.0000000000
10
0.6272699873
20
-1.0072845542
30
0.0000000000
10
0.5852370848
20
-1.0283010055
30
0.0000000000
10
0.4927194637
20
-1.0599511183
30
0.0000000000
10
0.3414196590
20
-1.0702680447
30
0.0000000000
10
0.1808132355
20
-1.0425841568
30
0.0000000000
10
0.0758564134
20
-1.0007848904
30
0.0000000000
10
0.0235316323
20
-0.9746224999
30
0.0000000000
11
0.6272699873
21
-1.0072845542
31
0.0000000000
11
0.4939743655
21
-1.0532016782
31
0.0000000000
11
0.3459987237
21
-1.0642856433
31
0.0000000000
11
0.1870982308
21
-1.0382397025
31
0.0000000000
11
0.0235316323
21
-0.9746224999
31
0.0000000000
0
SPLINE
5
292
100
AcDbEntity
8
0
100
AcDbSpline
62
0
6
CONTINUOUS
70
0
71
3
72
8
73
4
74
2
42
0.0000001000
43
0.0000001000
44
0.0000000001
12
-0.0388700666
22
0.0194350333
32
0.0000000000
13
-0.0380638623
23
0.0210277800
33
0.0000000000
40
0.0000000000
40
0.0000000000
40
0.0000000000
40
0.0000000000
40
1.0000000000
40
1.0000000000
40
1.0000000000
40
1.0000000000
10
0.0235316323
20
-0.9746224999
30
0.0000000000
10
0.0105749434
20
-0.9681441555
30
0.0000000000
10
-0.0022488522
20
-0.9613912011
30
0.0000000000
10
-0.0149368063
20
-0.9543819411
30
0.0000000000
11
0.0235316323
21
-0.9746224999
31
0.0000000000
11
-0.0149368063
21
-0.9543819411
31
0.0000000000
0
SPLINE
5
293
100
AcDbEntity
8
0
100
AcDbSpline
62
0
6
CONTINUOUS
70
0
71
3
72
17
73
13
74
11
42
0.0000001000
43
0.0000001000
44
0.0000000001
12
-1.8026070835
22
0.9958218331
32
0.0000000000
13
0.5533008150
23
1.9854791291
33
0.0000000000
40
0.0000000000
40
0.0000000000
40
0.0000000000
40
0.0000000000
40
0.0760114720
40
0.1798996360
40
0.2888912355
40
0.4009966421
40
0.5143005666
40
0.6266245474
40
0.7359413791
40
0.8404506694
40
0.9386648113
40
1.0000000000
40
1.0000000000
40
1.0000000000
40
1.0000000000
10
-0.0149368063
20
-0.9543819411
30
0.0000000000
10
-0.0606097456
20
-0.9291506466
30
0.0000000000
10
-0.1645398728
20
-0.8615742638
30
0.0000000000
10
-0.3143653141
20
-0.7308625831
30
0.0000000000
10
-0.4612202756
20
-0.5622620703
30
0.0000000000
10
-0.5895849230
20
-0.3714681295
30
0.0000000000
10
-0.6956282415
20
-0.1648704827
30
0.0000000000
10
-0.7760678106
20
0.0509500529
30
0.0000000000
10
-0.8281652991
20
0.2691660248
30
0.0000000000
10
-0.8497799120
20
0.4828574413
30
0.0000000000
10
-0.8404613595
20
0.6645833270
30
0.0000000000
10
-0.8183854829
20
0.7722263115
30
0.0000000000
10
-0.8070732129
20
0.8128195572
30
0.0000000000
11
-0.0149368063
21
-0.9543819411
31
0.0000000000
11
-0.1465374375
21
-0.8695783090
31
0.0000000000
11
-0.3083349061
21
-0.7298085951
31
0.0000000000
11
-0.4561587348
21
-0.5610965203
31
0.0000000000
11
-0.5852287666
21
-0.3698568729
31
0.0000000000
11
-0.6917352838
21
-0.1624145420
31
0.0000000000
11
-0.7722120016
21
0.0542948252
31
0.0000000000
11
-0.8238773258
21
0.2732630324
31
0.0000000000
11
-0.8445826452
21
0.4873507412
31
0.0000000000
11
-0.8329282594
21
0.6891452994
31
0.0000000000
11
-0.8070732129
21
0.8128195572
31
0.0000000000
0
SPLINE
5
294
100
AcDbEntity
8
0
100
AcDbSpline
62
0
6
CONTINUOUS
70
0
71
3
72
11
73
7
74
5
42
0.0000001000
43
0.0000001000
44
0.0000000001
12
0.1443719256
22
0.5180679973
32
0.0000000000
13
0.4803136686
23
0.2401568337
33
0.0000000000
40
0.0000000000
40
0.0000000000
40
0.0000000000
40
0.0000000000
40
0.1123220914
40
0.4292159132
40
0.7222275837
40
1.0000000000
40
1.0000000000
40
1.0000000000
40
1.0000000000
10
-0.8070732129
20
0.8128195572
30
0.0000000000
10
-0.8016678274
20
0.8322163842
30
0.0000000000
10
-0.7785468419
20
0.9056501238
30
0.0000000000
10
-0.7227297004
20
1.0235393967
30
0.0000000000
10
-0.6205254249
20
1.1474870305
30
0.0000000000
10
-0.5352366308
20
1.2065471087
30
0.0000000000
10
-0.4907640014
20
1.2287834233
30
0.0000000000
11
-0.8070732129
21
0.8128195572
31
0.0000000000
11
-0.7888783985
21
0.8704193565
31
0.0000000000
11
-0.7146516022
21
1.0235521150
31
0.0000000000
11
-0.6136134300
21
1.1441758942
31
0.0000000000
11
-0.4907640014
21
1.2287834233
31
0.0000000000
0
SPLINE
5
295
100
AcDbEntity
8
0
100
AcDbSpline
62
9
6
CONTINUOUS
70
0
71
3
72
14
73
10
74
8
42
0.0000001000
43
0.0000001000
44
0.0000000001
12
-0.7702519457
22
0.3851259728
32
0.0000000000
13
-0.3827594650
23
-0.7735064389
33
0.0000000000
40
0.0000000000
40
0.0000000000
40
0.0000000000
40
0.0000000000
40
0.1835744370
40
0.3553572359
40
0.5148465106
40
0.6678667683
40
0.8229174982
40
0.9882091509
40
1.0000000000
40
1.0000000000
40
1.0000000000
40
1.0000000000
10
-0.0019789984
20
1.0816225443
30
0.0000000000
10
-0.0491118542
20
1.1051889721
30
0.0000000000
10
-0.1444994011
20
1.1433159997
30
0.0000000000
10
-0.2915712331
20
1.1680938537
30
0.0000000000
10
-0.4318349053
20
1.1548144813
30
0.0000000000
10
-0.5577010474
20
1.1023853897
30
0.0000000000
10
-0.6629194113
20
1.0132686030
30
0.0000000000
10
-0.7163862528
20
0.9330529559
30
0.0000000000
10
-0.7393444577
20
0.8875686802
30
0.0000000000
10
-0.7408488108
20
0.8845285810
30
0.0000000000
11
-0.0019789984
21
1.0816225443
31
0.0000000000
11
-0.1492989782
21
1.1389703175
31
0.0000000000
11
-0.2954361758
21
1.1619558758
31
0.0000000000
11
-0.4320457276
21
1.1477418396
31
0.0000000000
11
-0.5535883201
21
1.0968267543
31
0.0000000000
11
-0.6560428099
21
1.0112000983
31
0.0000000000
11
-0.7362625636
21
0.8936136831
31
0.0000000000
11
-0.7408488108
21
0.8845285810
31
0.0000000000
0
SPLINE
5
296
100
AcDbEntity
8
0
100
AcDbSpline
62
9
6
CONTINUOUS
70
0
71
3
72
8
73
4
74
2
42
0.0000001000
43
0.0000001000
44
0.0000000001
12
-0.0408573893
22
-0.0825673995
32
0.0000000000
13
-0.0295883657
23
-0.0872288479
33
0.0000000000
40
0.0000000000
40
0.0000000000
40
0.0000000000
40
0.0000000000
40
1.0000000000
40
1.0000000000
40
1.0000000000
40
1.0000000000
10
-0.7408488108
20
0.8845285810
30
0.0000000000
10
-0.7544679405
20
0.8570061145
30
0.0000000000
10
-0.7660959056
20
0.8285347742
30
0.0000000000
10
-0.7759586942
20
0.7994584916
30
0.0000000000
11
-0.7408488108
21
0.8845285810
31
0.0000000000
11
-0.7759586942
21
0.7994584916
31
0.0000000000
0
SPLINE
5
297
100
AcDbEntity
8
0
100
AcDbSpline
62
9
6
CONTINUOUS
70
0
71
3
72
18
73
14
74
12
42
0.0000001000
43
0.0000001000
44
0.0000000001
12
-0.6525595910
22
-1.9237974123
32
0.0000000000
13
1.8133292926
23
-0.9066646463
33
0.0000000000
40
0.0000000000
40
0.0000000000
40
0.0000000000
40
0.0000000000
40
0.0263785803
40
0.1105915266
40
0.2026260478
40
0.3006424319
40
0.4037227808
40
0.5091209458
40
0.6153004898
40
0.7193714705
40
0.8197464702
40
0.9139866634
40
1.0000000000
40
1.0000000000
40
1.0000000000
40
1.0000000000
10
-0.7759586942
20
0.7994584916
30
0.0000000000
10
-0.7816965594
20
0.7825428101
30
0.0000000000
10
-0.8032476895
20
0.7107658538
30
0.0000000000
10
-0.8249267992
20
0.5748431557
30
0.0000000000
10
-0.8241507248
20
0.3888041185
30
0.0000000000
10
-0.7956897738
20
0.1921934442
30
0.0000000000
10
-0.7406116295
20
-0.0079916168
30
0.0000000000
10
-0.6606668725
20
-0.2055267211
30
0.0000000000
10
-0.5587005742
20
-0.3934089409
30
0.0000000000
10
-0.4379474932
20
-0.5656933227
30
0.0000000000
10
-0.3026953825
20
-0.7162637634
30
0.0000000000
10
-0.1580015784
20
-0.8397472301
30
0.0000000000
10
-0.0539691660
20
-0.9043605827
30
0.0000000000
10
-0.0019789984
20
-0.9303556665
30
0.0000000000
11
-0.7759586942
21
0.7994584916
31
0.0000000000
11
-0.7914244877
21
0.7481649303
31
0.0000000000
11
-0.8196710258
21
0.5797874951
31
0.0000000000
11
-0.8199664479
21
0.3932002740
31
0.0000000000
11
-0.7922348107
21
0.1964299645
31
0.0000000000
11
-0.7372379563
21
-0.0051849093
31
0.0000000000
11
-0.6572442366
21
-0.2033271001
31
0.0000000000
11
-0.5544962172
21
-0.3924875506
31
0.0000000000
11
-0.4331159009
21
-0.5650664832
31
0.0000000000
11
-0.2966671658
21
-0.7160387481
31
0.0000000000
11
-0.1507277038
21
-0.8393484150
31
0.0000000000
11
-0.0019789984
21
-0.9303556665
31
0.0000000000
0
SPLINE
5
298
100
AcDbEntity
8
0
100
AcDbSpline
62
9
6
CONTINUOUS
70
0
71
3
72
11
73
7
74
5
42
0.0000001000
43
0.0000001000
44
0.0000000001
12
-0.5183438672
22
0.2591719336
32
0.0000000000
13
-0.5204848390
23
-0.2597485117
33
0.0000000000
40
0.0000000000
40
0.0000000000
40
0.0000000000
40
0.0000000000
40
0.2935444120
40
0.5682346110
40
0.8232659613
40
1.0000000000
40
1.0000000000
40
1.0000000000
40
1.0000000000
10
0.0682529914
20
1.1932811885
30
0.0000000000
10
0.0175340095
20
1.2186406795
30
0.0000000000
10
-0.0851117201
20
1.2596672440
30
0.0000000000
10
-0.2433733996
20
1.2863337887
30
0.0000000000
10
-0.3810650065
20
1.2732959105
30
0.0000000000
10
-0.4600897773
20
1.2440619797
30
0.0000000000
10
-0.4907522399
20
1.2287598452
30
0.0000000000
11
0.0682529914
21
1.1932811885
31
0.0000000000
11
-0.0902760871
21
1.2549918148
31
0.0000000000
11
-0.2475326439
21
1.2797278732
31
0.0000000000
11
-0.3945362748
21
1.2644315173
31
0.0000000000
11
-0.4907522399
21
1.2287598452
31
0.0000000000
0
SPLINE
5
299
100
AcDbEntity
8
0
100
AcDbSpline
62
9
6
CONTINUOUS
70
0
71
3
72
8
73
4
74
2
42
0.0000001000
43
0.0000001000
44
0.0000000001
12
0.0373328524
22
-0.0186664262
32
0.0000000000
13
0.0382012890
23
-0.0169515015
33
0.0000000000
40
0.0000000000
40
0.0000000000
40
0.0000000000
40
0.0000000000
40
1.0000000000
40
1.0000000000
40
1.0000000000
40
1.0000000000
10
-0.0019789984
20
-0.9303556665
30
0.0000000000
10
0.0104652857
20
-0.9365778086
30
0.0000000000
10
0.0230589951
20
-0.9425301451
30
0.0000000000
10
0.0357927581
20
-0.9481806456
30
0.0000000000
11
-0.0019789984
21
-0.9303556665
31
0.0000000000
11
0.0357927581
21
-0.9481806456
31
0.0000000000
0
SPLINE
5
29A
100
AcDbEntity
8
0
100
AcDbSpline
62
9
6
CONTINUOUS
70
0
71
3
72
8
73
4
74
2
42
0.0000001000
43
0.0000001000
44
0.0000000001
12
0.0111089932
22
-0.0049295225
32
0.0000000000
13
0.0111793641
23
-0.0047740099
33
0.0000000000
40
0.0000000000
40
0.0000000000
40
0.0000000000
40
0.0000000000
40
1.0000000000
40
1.0000000000
40
1.0000000000
40
1.0000000000
10
0.0357927581
20
-0.9481806456
30
0.0000000000
10
0.0394957558
20
-0.9498238198
30
0.0000000000
10
0.0432105973
20
-0.9514414690
30
0.0000000000
10
0.0469370520
20
-0.9530328057
30
0.0000000000
11
0.0357927581
21
-0.9481806456
31
0.0000000000
11
0.0469370520
21
-0.9530328057
31
0.0000000000
0
SPLINE
5
29B
100
AcDbEntity
8
0
100
AcDbSpline
62
9
6
CONTINUOUS
70
0
71
3
72
24
73
20
74
18
42
0.0000001000
43
0.0000001000
44
0.0000000001
12
2.6954700144
22
-1.1510673177
32
0.0000000000
13
-2.6176119329
23
1.3088059664
33
0.0000000000
40
0.0000000000
40
0.0000000000
40
0.0000000000
40
0.0000000000
40
0.0356085347
40
0.0861568326
40
0.1330877941
40
0.1781151453
40
0.2237399937
40
0.2723783054
40
0.3255317102
40
0.3838695417
40
0.4476257062
40
0.5155257560
40
0.5869338258
40
0.6599475440
40
0.7335025563
40
0.8055968773
40
0.8751308481
40
0.9404149441
40
1.0000000000
40
1.0000000000
40
1.0000000000
40
1.0000000000
10
0.0469370520
20
-0.9530328057
30
0.0000000000
10
0.0789309645
20
-0.9666954125
30
0.0000000000
10
0.1584132667
20
-0.9950599374
30
0.0000000000
10
0.2876131849
20
-1.0168271432
30
0.0000000000
10
0.4278768251
20
-1.0035476014
30
0.0000000000
10
0.5537430083
20
-0.9511185408
30
0.0000000000
10
0.6589613798
20
-0.8620017433
30
0.0000000000
10
0.7396088886
20
-0.7410072841
30
0.0000000000
10
0.7939026532
20
-0.5932743438
30
0.0000000000
10
0.8209687917
20
-0.4235762814
30
0.0000000000
10
0.8201927305
20
-0.2375372424
30
0.0000000000
10
0.7917317779
20
-0.0409265659
30
0.0000000000
10
0.7366536262
20
0.1592584909
30
0.0000000000
10
0.6567088846
20
0.3567936058
30
0.0000000000
10
0.5547425334
20
0.5446757872
30
0.0000000000
10
0.4339895410
20
0.7169602585
30
0.0000000000
10
0.2987372346
20
0.8675304736
30
0.0000000000
10
0.1540437145
20
0.9910142805
30
0.0000000000
10
0.0500111861
20
1.0556274520
30
0.0000000000
10
-0.0019789984
20
1.0816225443
30
0.0000000000
11
0.0469370520
21
-0.9530328057
31
0.0000000000
11
0.1453410724
21
-0.9877033943
31
0.0000000000
11
0.2914780152
21
-1.0106890800
31
0.0000000000
11
0.4280876959
21
-0.9964749793
31
0.0000000000
11
0.5496302690
21
-0.9455599038
31
0.0000000000
11
0.6520847807
21
-0.8599332367
31
0.0000000000
11
0.7323045435
21
-0.7423468170
31
0.0000000000
11
0.7874664795
21
-0.5968980583
31
0.0000000000
11
0.8157130205
21
-0.4285206216
31
0.0000000000
11
0.8160084508
21
-0.2419333964
31
0.0000000000
11
0.7882768138
21
-0.0451630868
31
0.0000000000
11
0.7332799568
21
0.1564517857
31
0.0000000000
11
0.6532862373
21
0.3545939765
31
0.0000000000
11
0.5505382006
21
0.5437544184
31
0.0000000000
11
0.4291579031
21
0.7163333604
31
0.0000000000
11
0.2927090762
21
0.8673055793
31
0.0000000000
11
0.1467698025
21
0.9906153404
31
0.0000000000
11
-0.0019789984
21
1.0816225443
31
0.0000000000
0
SPLINE
5
29C
100
AcDbEntity
8
0
100
AcDbSpline
62
9
6
CONTINUOUS
70
0
71
3
72
10
73
6
74
4
42
0.0000001000
43
0.0000001000
44
0.0000000001
12
0.2090410747
22
0.1043406356
32
0.0000000000
13
0.1397292834
23
0.1868977890
33
0.0000000000
40
0.0000000000
40
0.0000000000
40
0.0000000000
40
0.0000000000
40
0.1690456548
40
0.7863469676
40
1.0000000000
40
1.0000000000
40
1.0000000000
40
1.0000000000
10
0.6272880496
20
-1.0072460901
30
0.0000000000
10
0.6390672114
20
-1.0013666464
30
0.0000000000
10
0.6927034078
20
-0.9717272462
30
0.0000000000
10
0.7527821897
20
-0.9208420534
30
0.0000000000
10
0.7937350069
20
-0.8707662307
30
0.0000000000
10
0.8036862019
20
-0.8574558043
30
0.0000000000
11
0.6272880496
21
-1.0072460901
31
0.0000000000
11
0.6618327216
21
-0.9881437009
31
0.0000000000
11
0.7720826263
21
-0.8960018254
31
0.0000000000
11
0.8036862019
21
-0.8574558043
31
0.0000000000
0
SPLINE
5
29D
100
AcDbEntity
8
0
100
AcDbSpline
62
9
6
CONTINUOUS
70
0
71
3
72
19
73
15
74
13
42
0.0000001000
43
0.0000001000
44
0.0000000001
12
1.4376876139
22
1.9230087632
32
0.0000000000
13
-2.1420721227
23
1.0710360616
33
0.0000000000
40
0.0000000000
40
0.0000000000
40
0.0000000000
40
0.0000000000
40
0.0431933310
40
0.1130889138
40
0.1898018948
40
0.2736398676
40
0.3629269504
40
0.4568270020
40
0.5528384482
40
0.6495616900
40
0.7443641459
40
0.8357998777
40
0.9216468859
40
1.0000000000
40
1.0000000000
40
1.0000000000
40
1.0000000000
10
0.8036862019
20
-0.8574558043
30
0.0000000000
10
0.8243857076
20
-0.8297687529
30
0.0000000000
10
0.8720277056
20
-0.7523499789
30
0.0000000000
10
0.9246908874
20
-0.6090535412
30
0.0000000000
10
0.9538164321
20
-0.4264436585
30
0.0000000000
10
0.9529812525
20
-0.2262494571
30
0.0000000000
10
0.9223548028
20
-0.0146792714
30
0.0000000000
10
0.8630859517
20
0.2007372752
30
0.0000000000
10
0.7770583908
20
0.4133021959
30
0.0000000000
10
0.6673339527
20
0.6154799288
30
0.0000000000
10
0.5373927789
20
0.8008726811
30
0.0000000000
10
0.3918505336
20
0.9629002632
30
0.0000000000
10
0.2361463556
20
1.0957779131
30
0.0000000000
10
0.1241989985
20
1.1653081849
30
0.0000000000
10
0.0682529914
20
1.1932811885
30
0.0000000000
11
0.8036862019
21
-0.8574558043
31
0.0000000000
11
0.8584060397
21
-0.7694685519
31
0.0000000000
11
0.9177650285
21
-0.6129529784
31
0.0000000000
11
0.9481607501
21
-0.4317641968
31
0.0000000000
11
0.9484786176
21
-0.2309800960
31
0.0000000000
11
0.9186369636
21
-0.0192381319
31
0.0000000000
11
0.8594555750
21
0.1977170044
31
0.0000000000
11
0.7733753749
21
0.4109352342
31
0.0000000000
11
0.6628096127
21
0.6144883704
31
0.0000000000
11
0.5321937906
21
0.8001982665
31
0.0000000000
11
0.3853631805
21
0.9626579309
31
0.0000000000
11
0.2283195104
21
1.0953490116
31
0.0000000000
11
0.0682529914
21
1.1932811885
31
0.0000000000
0
SPLINE
5
29E
100
AcDbEntity
8
0
100
AcDbSpline
62
0
6
CONTINUOUS
70
0
71
3
72
15
73
11
74
9
42
0.0000001000
43
0.0000001000
44
0.0000000001
12
-0.1261252298
22
0.0834801005
32
0.0000000000
13
-0.0344691506
23
0.1472495189
33
0.0000000000
40
0.0000000000
40
0.0000000000
40
0.0000000000
40
0.0000000000
40
0.0021270658
40
0.1650066989
40
0.3285635023
40
0.4932236136
40
0.6591546073
40
0.8276835960
40
0.9942256800
40
1.0000000000
40
1.0000000000
40
1.0000000000
40
1.0000000000
10
1.1206526188
20
-0.2754914489
30
0.0000000000
10
1.1205631933
20
-0.2754322597
30
0.0000000000
10
1.1136297463
20
-0.2708350968
30
0.0000000000
10
1.1004004637
20
-0.2608215979
30
0.0000000000
10
1.0826161665
20
-0.2435319892
30
0.0000000000
10
1.0670124773
20
-0.2240537153
30
0.0000000000
10
1.0538266144
20
-0.2025673784
30
0.0000000000
10
1.0434157107
20
-0.1795006295
30
0.0000000000
10
1.0383727893
20
-0.1630401406
30
0.0000000000
10
1.0363744401
20
-0.1545866394
30
0.0000000000
10
1.0363080948
20
-0.1543032175
30
0.0000000000
11
1.1206526188
21
-0.2754914489
31
0.0000000000
11
1.1203844863
21
-0.2753136659
31
0.0000000000
11
1.1007569219
21
-0.2604578629
31
0.0000000000
11
1.0830340106
21
-0.2432275582
31
0.0000000000
11
1.0674756948
21
-0.2238060583
31
0.0000000000
11
1.0543593794
21
-0.2024328481
31
0.0000000000
11
1.0438817214
21
-0.1792182696
31
0.0000000000
11
1.0365089883
21
-0.1551530448
31
0.0000000000
11
1.0363080948
21
-0.1543032175
31
0.0000000000
0
SPLINE
5
29F
100
AcDbEntity
8
0
100
AcDbSpline
62
0
6
CONTINUOUS
70
0
71
3
72
9
73
5
74
3
42
0.0000001000
43
0.0000001000
44
0.0000000001
12
-0.0098992840
22
-0.0049496722
32
0.0000000000
13
-0.0101582354
23
-0.0043944633
33
0.0000000000
40
0.0000000000
40
0.0000000000
40
0.0000000000
40
0.0000000000
40
0.7592138260
40
1.0000000000
40
1.0000000000
40
1.0000000000
40
1.0000000000
10
-0.8874539299
20
0.8163681730
30
0.0000000000
10
-0.8899591544
20
0.8151155531
30
0.0000000000
10
-0.8932935127
20
0.8135349965
30
0.0000000000
10
-0.8966698042
20
0.8120476201
30
0.0000000000
10
-0.8974851251
20
0.8116949114
30
0.0000000000
11
-0.8874539299
21
0.8163681730
31
0.0000000000
11
-0.8950463068
21
0.8127693018
31
0.0000000000
11
-0.8974851251
21
0.8116949114
31
0.0000000000
0
SPLINE
5
2A0
100
AcDbEntity
8
0
100
AcDbSpline
62
0
6
CONTINUOUS
70
0
71
3
72
14
73
10
74
8
42
0.0000001000
43
0.0000001000
44
0.0000000001
12
-0.1454104330
22
-0.0629047061
32
0.0000000000
13
-0.1469113676
23
0.0593404319
33
0.0000000000
40
0.0000000000
40
0.0000000000
40
0.0000000000
40
0.0000000000
40
0.1339674065
40
0.2851805070
40
0.4370279461
40
0.5895302704
40
0.7427746849
40
0.8967717345
40
1.0000000000
40
1.0000000000
40
1.0000000000
40
1.0000000000
10
-0.8974851251
20
0.8116949114
30
0.0000000000
10
-0.9039785446
20
0.8088858513
30
0.0000000000
10
-0.9181194778
20
0.8036394334
30
0.0000000000
10
-0.9405661019
20
0.7980920181
30
0.0000000000
10
-0.9644895414
20
0.7951528083
30
0.0000000000
10
-0.9887007372
20
0.7951118416
30
0.0000000000
10
-1.0128530698
20
0.7980097645
30
0.0000000000
10
-1.0339437347
20
0.8031959063
30
0.0000000000
10
-1.0467481414
20
0.8077690284
30
0.0000000000
10
-1.0518032766
20
0.8098108983
30
0.0000000000
11
-0.8974851251
21
0.8116949114
31
0.0000000000
11
-0.9173761088
21
0.8043156272
31
0.0000000000
11
-0.9406204403
21
0.7985709943
31
0.0000000000
11
-0.9644851314
21
0.7956390431
31
0.0000000000
11
-0.9886329164
21
0.7955981886
31
0.0000000000
11
-1.0127254358
21
0.7984889508
31
0.0000000000
11
-1.0364045513
21
0.8043116084
31
0.0000000000
11
-1.0518032766
21
0.8098108983
31
0.0000000000
0
SPLINE
5
2A1
100
AcDbEntity
8
0
100
AcDbSpline
62
0
6
CONTINUOUS
70
0
71
3
72
9
73
5
74
3
42
0.0000001000
43
0.0000001000
44
0.0000000001
12
-0.0147895048
22
0.0059737760
32
0.0000000000
13
-0.0142664370
23
0.0071333588
33
0.0000000000
40
0.0000000000
40
0.0000000000
40
0.0000000000
40
0.0000000000
40
0.5109225969
40
1.0000000000
40
1.0000000000
40
1.0000000000
40
1.0000000000
10
-1.0518032766
20
0.8098108983
30
0.0000000000
10
-1.0543220407
20
0.8108282774
30
0.0000000000
10
-1.0592113219
20
0.8129199293
30
0.0000000000
10
-1.0640131456
20
0.8152049992
30
0.0000000000
10
-1.0663389429
20
0.8163679207
30
0.0000000000
11
-1.0518032766
21
0.8098108983
31
0.0000000000
11
-1.0592952991
21
0.8130161120
31
0.0000000000
11
-1.0663389429
21
0.8163679207
31
0.0000000000
0
SPLINE
5
2A2
100
AcDbEntity
8
0
100
AcDbSpline
62
0
6
CONTINUOUS
70
0
71
3
72
9
73
5
74
3
42
0.0000001000
43
0.0000001000
44
0.0000000001
12
0.0058033345
22
0.0289405360
32
0.0000000000
13
0.0100054979
23
0.0277907530
33
0.0000000000
40
0.0000000000
40
0.0000000000
40
0.0000000000
40
0.0000000000
40
0.8280387784
40
1.0000000000
40
1.0000000000
40
1.0000000000
40
1.0000000000
10
1.0349471716
20
-0.6756119101
30
0.0000000000
10
1.0365489669
20
-0.6676239481
30
0.0000000000
10
1.0390764059
20
-0.6580852280
30
0.0000000000
10
1.0422940336
20
-0.6487788910
30
0.0000000000
10
1.0428675528
20
-0.6471859137
30
0.0000000000
11
1.0349471716
21
-0.6756119101
31
0.0000000000
11
1.0412078286
21
-0.6519864209
31
0.0000000000
11
1.0428675528
21
-0.6471859137
31
0.0000000000
0
SPLINE
5
2A3
100
AcDbEntity
8
0
100
AcDbSpline
62
0
6
CONTINUOUS
70
0
71
3
72
8
73
4
74
2
42
0.0000001000
43
0.0000001000
44
0.0000000001
12
0.0003069942
22
0.0008526911
32
0.0000000000
13
0.0003108516
23
0.0008512786
33
0.0000000000
40
0.0000000000
40
0.0000000000
40
0.0000000000
40
0.0000000000
40
1.0000000000
40
1.0000000000
40
1.0000000000
40
1.0000000000
10
1.0428675528
20
-0.6471859137
30
0.0000000000
10
1.0429698842
20
-0.6469016833
30
0.0000000000
10
1.0430728591
20
-0.6466176870
30
0.0000000000
10
1.0431764763
20
-0.6463339275
30
0.0000000000
11
1.0428675528
21
-0.6471859137
31
0.0000000000
11
1.0431764763
21
-0.6463339275
31
0.0000000000
0
SPLINE
5
2A4
100
AcDbEntity
8
0
100
AcDbSpline
62
0
6
CONTINUOUS
70
0
71
3
72
9
73
5
74
3
42
0.0000001000
43
0.0000001000
44
0.0000000001
12
0.0101476533
22
0.0277897188
32
0.0000000000
13
0.0141323588
23
0.0259906456
33
0.0000000000
40
0.0000000000
40
0.0000000000
40
0.0000000000
40
0.0000000000
40
0.6320268243
40
1.0000000000
40
1.0000000000
40
1.0000000000
40
1.0000000000
10
1.0431764763
20
-0.6463339275
30
0.0000000000
10
1.0453143393
20
-0.6404793116
30
0.0000000000
10
1.0491295384
20
-0.6313755527
30
0.0000000000
10
1.0536046333
20
-0.6225840894
30
0.0000000000
10
1.0553380763
20
-0.6193961359
30
0.0000000000
11
1.0431764763
21
-0.6463339275
31
0.0000000000
11
1.0504005563
21
-0.6290964209
31
0.0000000000
11
1.0553380763
21
-0.6193961359
31
0.0000000000
0
SPLINE
5
2A5
100
AcDbEntity
8
0
100
AcDbSpline
62
0
6
CONTINUOUS
70
0
71
3
72
8
73
4
74
2
42
0.0000001000
43
0.0000001000
44
0.0000000001
12
0.0004909539
22
0.0009029071
32
0.0000000000
13
0.0004955852
23
0.0009003779
33
0.0000000000
40
0.0000000000
40
0.0000000000
40
0.0000000000
40
0.0000000000
40
1.0000000000
40
1.0000000000
40
1.0000000000
40
1.0000000000
10
1.0553380763
20
-0.6193961359
30
0.0000000000
10
1.0555017276
20
-0.6190951669
30
0.0000000000
10
1.0556661519
20
-0.6187946174
30
0.0000000000
10
1.0558313469
20
-0.6184944914
30
0.0000000000
11
1.0553380763
21
-0.6193961359
31
0.0000000000
11
1.0558313469
21
-0.6184944914
31
0.0000000000
0
SPLINE
5
2A6
100
AcDbEntity
8
0
100
AcDbSpline
62
0
6
CONTINUOUS
70
0
71
3
72
9
73
5
74
3
42
0.0000001000
43
0.0000001000
44
0.0000000001
12
0.0145401931
22
0.0264165841
32
0.0000000000
13
0.0183426198
23
0.0239330575
33
0.0000000000
40
0.0000000000
40
0.0000000000
40
0.0000000000
40
0.0000000000
40
0.4447567036
40
1.0000000000
40
1.0000000000
40
1.0000000000
40
1.0000000000
10
1.0558313469
20
-0.6184944914
30
0.0000000000
10
1.0579869631
20
-0.6145781738
30
0.0000000000
10
1.0631287900
20
-0.6059348003
30
0.0000000000
10
1.0689093098
20
-0.5977012258
30
0.0000000000
10
1.0723041820
20
-0.5932716692
30
0.0000000000
11
1.0558313469
21
-0.6184944914
31
0.0000000000
11
1.0626870259
21
-0.6069708389
31
0.0000000000
11
1.0723041820
21
-0.5932716692
31
0.0000000000
0
SPLINE
5
2A7
100
AcDbEntity
8
0
100
AcDbSpline
62
0
6
CONTINUOUS
70
0
71
3
72
9
73
5
74
3
42
0.0000001000
43
0.0000001000
44
0.0000000001
12
0.0187368676
22
0.0244474636
32
0.0000000000
13
0.0222651555
23
0.0212837720
33
0.0000000000
40
0.0000000000
40
0.0000000000
40
0.0000000000
40
0.0000000000
40
0.2826062249
40
1.0000000000
40
1.0000000000
40
1.0000000000
40
1.0000000000
10
1.0723041820
20
-0.5932716692
30
0.0000000000
10
1.0740692338
20
-0.5909686674
30
0.0000000000
10
1.0804920747
20
-0.5829554132
30
0.0000000000
10
1.0875215387
20
-0.5754507417
30
0.0000000000
10
1.0928458333
20
-0.5703611266
30
0.0000000000
11
1.0723041820
21
-0.5932716692
31
0.0000000000
11
1.0777479522
21
-0.5864800950
31
0.0000000000
11
1.0928458333
21
-0.5703611266
31
0.0000000000
0
SPLINE
5
2A8
100
AcDbEntity
8
0
100
AcDbSpline
62
0
6
CONTINUOUS
70
0
71
3
72
8
73
4
74
2
42
0.0000001000
43
0.0000001000
44
0.0000000001
12
0.0006838099
22
0.0006536696
32
0.0000000000
13
0.0006868971
23
0.0006504269
33
0.0000000000
40
0.0000000000
40
0.0000000000
40
0.0000000000
40
0.0000000000
40
1.0000000000
40
1.0000000000
40
1.0000000000
40
1.0000000000
10
1.0928458333
20
-0.5703611266
30
0.0000000000
10
1.0930737700
20
-0.5701432367
30
0.0000000000
10
1.0933022223
20
-0.5699258860
30
0.0000000000
10
1.0935311880
20
-0.5697090771
30
0.0000000000
11
1.0928458333
21
-0.5703611266
31
0.0000000000
11
1.0935311880
21
-0.5697090771
31
0.0000000000
0
SPLINE
5
2A9
100
AcDbEntity
8
0
100
AcDbSpline
62
0
6
CONTINUOUS
70
0
71
3
72
10
73
6
74
4
42
0.0000001000
43
0.0000001000
44
0.0000000001
12
0.0220638046
22
0.0208923450
32
0.0000000000
13
0.0249724935
23
0.0173121440
33
0.0000000000
40
0.0000000000
40
0.0000000000
40
0.0000000000
40
0.0000000000
40
0.0684500017
40
0.9127122744
40
1.0000000000
40
1.0000000000
40
1.0000000000
40
1.0000000000
10
1.0935311880
20
-0.5697090771
30
0.0000000000
10
1.0940346105
20
-0.5692323834
30
0.0000000000
10
1.1007803339
20
-0.5629110691
30
0.0000000000
10
1.1086495787
20
-0.5565006221
30
0.0000000000
10
1.1163682926
20
-0.5510734566
30
0.0000000000
10
1.1170948900
20
-0.5505697440
30
0.0000000000
11
1.0935311880
21
-0.5697090771
31
0.0000000000
11
1.0950488743
21
-0.5682868795
31
0.0000000000
11
1.1149251886
21
-0.5520953054
31
0.0000000000
11
1.1170948900
21
-0.5505697440
31
0.0000000000
0
SPLINE
5
2AA
100
AcDbEntity
8
0
100
AcDbSpline
62
0
6
CONTINUOUS
70
0
71
3
72
8
73
4
74
2
42
0.0000001000
43
0.0000001000
44
0.0000000001
12
0.0009525062
22
0.0006603235
32
0.0000000000
13
0.0009563179
23
0.0006547894
33
0.0000000000
40
0.0000000000
40
0.0000000000
40
0.0000000000
40
0.0000000000
40
1.0000000000
40
1.0000000000
40
1.0000000000
40
1.0000000000
10
1.1170948900
20
-0.5505697440
30
0.0000000000
10
1.1174123920
20
-0.5503496362
30
0.0000000000
10
1.1177305321
20
-0.5501304490
30
0.0000000000
10
1.1180493048
20
-0.5499121859
30
0.0000000000
11
1.1170948900
21
-0.5505697440
31
0.0000000000
11
1.1180493048
21
-0.5499121859
31
0.0000000000
0
SPLINE
5
2AB
100
AcDbEntity
8
0
100
AcDbSpline
62
0
6
CONTINUOUS
70
0
71
3
72
9
73
5
74
3
42
0.0000001000
43
0.0000001000
44
0.0000000001
12
0.0225433883
22
0.0154354233
32
0.0000000000
13
0.0244348363
23
0.0122214079
33
0.0000000000
40
0.0000000000
40
0.0000000000
40
0.0000000000
40
0.0000000000
40
0.7929486455
40
1.0000000000
40
1.0000000000
40
1.0000000000
40
1.0000000000
10
1.1180493048
20
-0.5499121859
30
0.0000000000
10
1.1240078878
20
-0.5458323532
30
0.0000000000
10
1.1318010640
20
-0.5410943848
30
0.0000000000
10
1.1398884050
20
-0.5369053993
30
0.0000000000
10
1.1415748270
20
-0.5360619130
30
0.0000000000
11
1.1180493048
21
-0.5499121859
31
0.0000000000
11
1.1365520261
21
-0.5386636046
31
0.0000000000
11
1.1415748270
21
-0.5360619130
31
0.0000000000
0
SPLINE
5
2AC
100
AcDbEntity
8
0
100
AcDbSpline
62
0
6
CONTINUOUS
70
0
71
3
72
11
73
7
74
5
42
0.0000001000
43
0.0000001000
44
0.0000000001
12
0.2266915364
22
0.1133457876
32
0.0000000000
13
0.1447611219
23
0.2079848092
33
0.0000000000
40
0.0000000000
40
0.0000000000
40
0.0000000000
40
0.0000000000
40
0.2436830470
40
0.4900058896
40
0.7413833321
40
1.0000000000
40
1.0000000000
40
1.0000000000
40
1.0000000000
10
0.8273672084
20
-0.9072359437
30
0.0000000000
10
0.8457808365
20
-0.8980291281
30
0.0000000000
10
0.8815827884
20
-0.8770662021
30
0.0000000000
10
0.9311504086
20
-0.8385655384
30
0.0000000000
10
0.9763441616
20
-0.7932306520
30
0.0000000000
10
1.0029205618
20
-0.7592324004
30
0.0000000000
10
1.0153997748
20
-0.7413029542
30
0.0000000000
11
0.8273672084
21
-0.9072359437
31
0.0000000000
11
0.8806378335
21
-0.8760703058
31
0.0000000000
11
0.9299465060
21
-0.8378514261
31
0.0000000000
11
0.9749644726
21
-0.7928316520
31
0.0000000000
11
1.0153997748
21
-0.7413029542
31
0.0000000000
0
SPLINE
5
2AD
100
AcDbEntity
8
0
100
AcDbSpline
62
0
6
CONTINUOUS
70
0
71
3
72
9
73
5
74
3
42
0.0000001000
43
0.0000001000
44
0.0000000001
12
0.0271085867
22
0.0823597773
32
0.0000000000
13
0.0189322623
23
0.0846077052
33
0.0000000000
40
0.0000000000
40
0.0000000000
40
0.0000000000
40
0.0000000000
40
0.1180368486
40
1.0000000000
40
1.0000000000
40
1.0000000000
40
1.0000000000
10
1.1036060260
20
-0.5609437656
30
0.0000000000
10
1.1046726300
20
-0.5577032694
30
0.0000000000
10
1.1135388612
20
-0.5301943152
30
0.0000000000
10
1.1209838002
20
-0.5022420967
30
0.0000000000
10
1.1265496527
20
-0.4773684706
30
0.0000000000
11
1.1036060260
21
-0.5609437656
31
0.0000000000
11
1.1067459116
21
-0.5512029530
31
0.0000000000
11
1.1265496527
21
-0.4773684706
31
0.0000000000
0
SPLINE
5
2AE
100
AcDbEntity
8
0
100
AcDbSpline
62
0
6
CONTINUOUS
70
0
71
3
72
9
73
5
74
3
42
0.0000001000
43
0.0000001000
44
0.0000000001
12
0.0293524032
22
0.1311749985
32
0.0000000000
13
0.0123233918
23
0.1338451319
33
0.0000000000
40
0.0000000000
40
0.0000000000
40
0.0000000000
40
0.0000000000
40
0.5922115987
40
1.0000000000
40
1.0000000000
40
1.0000000000
40
1.0000000000
10
1.1265496527
20
-0.4773684706
30
0.0000000000
10
1.1323439306
20
-0.4514740188
30
0.0000000000
10
1.1402974686
20
-0.4073449497
30
0.0000000000
10
1.1454662800
20
-0.3628293514
30
0.0000000000
10
1.1471413921
20
-0.3446358540
30
0.0000000000
11
1.1265496527
21
-0.4773684706
31
0.0000000000
11
1.1407876413
21
-0.3990709642
31
0.0000000000
11
1.1471413921
21
-0.3446358540
31
0.0000000000
0
SPLINE
5
2AF
100
AcDbEntity
8
0
100
AcDbSpline
62
0
6
CONTINUOUS
70
0
71
3
72
16
73
12
74
10
42
0.0000001000
43
0.0000001000
44
0.0000000001
12
0.3355287362
22
0.1810309535
32
0.0000000000
13
0.3407193273
23
-0.1703596636
33
0.0000000000
40
0.0000000000
40
0.0000000000
40
0.0000000000
40
0.0000000000
40
0.0074187391
40
0.1194421075
40
0.2328480164
40
0.3490615655
40
0.4688162493
40
0.5928496782
40
0.7226729406
40
0.8585038488
40
1.0000000000
40
1.0000000000
40
1.0000000000
40
1.0000000000
10
-10.8457686969
20
28.8746461302
30
0.0000000000
10
-10.8449389635
20
28.8750938040
30
0.0000000000
10
-10.8315461516
20
28.8822382405
30
0.0000000000
10
-10.8043842937
20
28.8941701825
30
0.0000000000
10
-10.7624630558
20
28.9058687205
30
0.0000000000
10
-10.7183708359
20
28.9118489816
30
0.0000000000
10
-10.6725388985
20
28.9120710430
30
0.0000000000
10
-10.6253112748
20
28.9065764335
30
0.0000000000
10
-10.5770064768
20
28.8954203270
30
0.0000000000
10
-10.5280039411
20
28.8786951873
30
0.0000000000
10
-10.4958291648
20
28.8642495211
30
0.0000000000
10
-10.4797590070
20
28.8562144422
30
0.0000000000
11
-10.8457686969
21
28.8746461302
31
0.0000000000
11
-10.8432731819
21
28.8759773589
31
0.0000000000
11
-10.8042085371
21
28.8931528959
31
0.0000000000
11
-10.7626116130
21
28.9048134195
31
0.0000000000
11
-10.7187543858
21
28.9108439805
31
0.0000000000
11
-10.6731366843
21
28.9111669719
31
0.0000000000
11
-10.6261916747
21
28.9058179037
31
0.0000000000
11
-10.5779797492
21
28.8948024291
31
0.0000000000
11
-10.5289743434
21
28.8781954078
31
0.0000000000
11
-10.4797590070
21
28.8562144422
31
0.0000000000
0
SPLINE
5
2B0
100
AcDbEntity
8
0
100
AcDbSpline
62
0
6
CONTINUOUS
70
0
71
3
72
18
73
14
74
12
42
0.0000001000
43
0.0000001000
44
0.0000000001
12
0.0000000000
22
-0.5143651174
32
0.0000000000
13
-0.4673778439
23
-0.2158158687
33
0.0000000000
40
0.0000000000
40
0.0000000000
40
0.0000000000
40
0.0000000000
40
0.1151721033
40
0.2262969901
40
0.3327467147
40
0.4343031313
40
0.5317486543
40
0.6251967282
40
0.7147788900
40
0.8012449296
40
0.8858735136
40
0.9693018831
40
1.0000000000
40
1.0000000000
40
1.0000000000
40
1.0000000000
10
20.2794721313
20
-23.6759964691
30
0.0000000000
10
20.2794721313
20
-23.6957433066
30
0.0000000000
10
20.2781198327
20
-23.7345605500
30
0.0000000000
10
20.2717714214
20
-23.7913159094
30
0.0000000000
10
20.2611789527
20
-23.8450680223
30
0.0000000000
10
20.2464274719
20
-23.8953996512
30
0.0000000000
10
20.2276065523
20
-23.9419721828
30
0.0000000000
10
20.2048206632
20
-23.9844369377
30
0.0000000000
10
20.1782657029
20
-24.0223918649
30
0.0000000000
10
20.1481254642
20
-24.0555671650
30
0.0000000000
10
20.1145901115
20
-24.0837093182
30
0.0000000000
10
20.0855673510
20
-24.1017887285
30
0.0000000000
10
20.0680031303
20
-24.1104658651
30
0.0000000000
10
20.0632205904
20
-24.1126742453
30
0.0000000000
11
20.2794721313
21
-23.6759964691
31
0.0000000000
11
20.2773276002
21
-23.7351981524
31
0.0000000000
11
20.2708812346
21
-23.7919922440
31
0.0000000000
11
20.2601938033
21
-23.8456931013
31
0.0000000000
11
20.2453964911
21
-23.8957905252
31
0.0000000000
11
20.2265094250
21
-23.9422184430
31
0.0000000000
11
20.2036814164
21
-23.9845181317
31
0.0000000000
11
20.1771797397
21
-24.0222121314
31
0.0000000000
11
20.1472079720
21
-24.0550713609
31
0.0000000000
11
20.1138240461
21
-24.0830065297
31
0.0000000000
11
20.0773870378
21
-24.1056745548
31
0.0000000000
11
20.0632205904
21
-24.1126742453
31
0.0000000000
0
SPLINE
5
2B1
100
AcDbEntity
8
0
100
AcDbSpline
62
0
6
CONTINUOUS
70
0
71
3
72
12
73
8
74
6
42
0.0000001000
43
0.0000001000
44
0.0000000001
12
-0.2700288541
22
0.0173528897
32
0.0000000000
13
-0.2420745448
23
-0.1210372931
33
0.0000000000
40
0.0000000000
40
0.0000000000
40
0.0000000000
40
0.0000000000
40
0.0634665141
40
0.3056514838
40
0.5410566410
40
0.7717276883
40
1.0000000000
40
1.0000000000
40
1.0000000000
40
1.0000000000
10
-0.0279277098
20
1.3788409714
30
0.0000000000
10
-0.0336403065
20
1.3792080806
30
0.0000000000
10
-0.0611769761
20
1.3805869860
30
0.0000000000
10
-0.1100553256
20
1.3796120931
30
0.0000000000
10
-0.1734403405
20
1.3706605062
30
0.0000000000
10
-0.2339888984
20
1.3541075034
30
0.0000000000
10
-0.2722471223
20
1.3380418644
30
0.0000000000
10
-0.2906667610
20
1.3288320435
30
0.0000000000
11
-0.0279277098
21
1.3788409714
31
0.0000000000
11
-0.0450791767
21
1.3796975240
31
0.0000000000
11
-0.1105640478
21
1.3782689700
31
0.0000000000
11
-0.1735915146
21
1.3692689190
31
0.0000000000
11
-0.2337528195
21
1.3527557400
31
0.0000000000
11
-0.2906667610
21
1.3288320435
31
0.0000000000
0
SPLINE
5
2B2
100
AcDbEntity
8
0
100
AcDbSpline
62
0
6
CONTINUOUS
70
0
71
3
72
20
73
16
74
14
42
0.0000001000
43
0.0000001000
44
0.0000000001
12
0.2634128888
22
-0.1317064444
32
0.0000000000
13
0.0000000000
23
-0.2945045628
33
0.0000000000
40
0.0000000000
40
0.0000000000
40
0.0000000000
40
0.0000000000
40
0.0665268483
40
0.1371045217
40
0.2108816689
40
0.2874173283
40
0.3667910037
40
0.4477624537
40
0.5292385156
40
0.6114316645
40
0.6932408064
40
0.7733157653
40
0.8516052640
40
0.9275323444
40
1.0000000000
40
1.0000000000
40
1.0000000000
40
1.0000000000
10
20.1380292326
20
-5.5052385608
30
0.0000000000
10
20.1438705757
20
-5.5081592324
30
0.0000000000
10
20.1555522473
20
-5.5149111200
30
0.0000000000
10
20.1723149538
20
-5.5271139430
30
0.0000000000
10
20.1885777798
20
-5.5415034326
30
0.0000000000
10
20.2041176924
20
-5.5578773395
30
0.0000000000
10
20.2187136322
20
-5.5760118619
30
0.0000000000
10
20.2321312534
20
-5.5956232362
30
0.0000000000
10
20.2441825857
20
-5.6164218176
30
0.0000000000
10
20.2547045558
20
-5.6381259421
30
0.0000000000
10
20.2635372483
20
-5.6604233370
30
0.0000000000
10
20.2705456046
20
-5.6829591357
30
0.0000000000
10
20.2756378116
20
-5.7054144060
30
0.0000000000
10
20.2787410869
20
-5.7274762781
30
0.0000000000
10
20.2794721313
20
-5.7420510725
30
0.0000000000
10
20.2794721313
20
-5.7491650909
30
0.0000000000
11
20.1380292326
21
-5.5052385608
31
0.0000000000
11
20.1550226550
21
-5.5149898735
31
0.0000000000
11
20.1718582586
21
-5.5271799207
31
0.0000000000
11
20.1881586173
21
-5.5415462541
31
0.0000000000
11
20.2036987569
21
-5.5578729258
31
0.0000000000
11
20.2183742657
21
-5.5760680513
31
0.0000000000
11
20.2318520401
21
-5.5957404513
31
0.0000000000
11
20.2438877516
21
-5.6164987058
31
0.0000000000
11
20.2544460525
21
-5.6382809274
31
0.0000000000
11
20.2633102864
21
-5.6606841857
31
0.0000000000
11
20.2702962294
21
-5.6832081311
31
0.0000000000
11
20.2753694285
21
-5.7056996878
31
0.0000000000
11
20.2784479962
21
-5.7278476223
31
0.0000000000
11
20.2794721313
21
-5.7491650909
31
0.0000000000
0
SPLINE
5
2B3
100
AcDbEntity
8
0
100
AcDbSpline
62
0
6
CONTINUOUS
70
0
71
3
72
15
73
11
74
9
42
0.0000001000
43
0.0000001000
44
0.0000000001
12
0.0000000000
22
-0.1272464449
32
0.0000000000
13
-0.1147765697
23
-0.0554219235
33
0.0000000000
40
0.0000000000
40
0.0000000000
40
0.0000000000
40
0.0000000000
40
0.1596835140
40
0.3114855630
40
0.4540602367
40
0.5879439272
40
0.7151199870
40
0.8362200002
40
0.9530333842
40
1.0000000000
40
1.0000000000
40
1.0000000000
40
1.0000000000
10
20.2794721313
20
-5.1429473083
30
0.0000000000
10
20.2794721313
20
-5.1497203614
30
0.0000000000
10
20.2788410163
20
-5.1629443991
30
0.0000000000
10
20.2758296518
20
-5.1820086221
30
0.0000000000
10
20.2708063726
20
-5.1995189247
30
0.0000000000
10
20.2638311148
20
-5.2152213859
30
0.0000000000
10
20.2549732884
20
-5.2288864177
30
0.0000000000
10
20.2443455933
20
-5.2402693563
30
0.0000000000
10
20.2345135178
20
-5.2474244241
30
0.0000000000
10
20.2283678476
20
-5.2506988501
30
0.0000000000
10
20.2265709586
20
-5.2515665102
30
0.0000000000
11
20.2794721313
21
-5.1429473083
31
0.0000000000
11
20.2784479962
21
-5.1632406419
31
0.0000000000
11
20.2753694285
21
-5.1823100086
31
0.0000000000
11
20.2702962294
21
-5.1997283662
31
0.0000000000
11
20.2633102864
21
-5.2152663686
31
0.0000000000
11
20.2544460525
21
-5.2288053931
31
0.0000000000
11
20.2438877516
21
-5.2400293137
31
0.0000000000
11
20.2318520401
21
-5.2487518567
31
0.0000000000
11
20.2265709586
21
-5.2515665102
31
0.0000000000
0
SPLINE
5
2B4
100
AcDbEntity
8
0
100
AcDbSpline
62
9
6
CONTINUOUS
70
0
71
3
72
17
73
13
74
11
42
0.0000001000
43
0.0000001000
44
0.0000000001
12
-0.0074434282
22
-0.5170630141
32
0.0000000000
13
-0.4698937844
23
-0.2170610814
33
0.0000000000
40
0.0000000000
40
0.0000000000
40
0.0000000000
40
0.0000000000
40
0.1222347831
40
0.2395433338
40
0.3517466121
40
0.4588263348
40
0.5609488842
40
0.6584871938
40
0.7520358142
40
0.8424118869
40
0.9306335130
40
1.0000000000
40
1.0000000000
40
1.0000000000
40
1.0000000000
10
17.1233158609
20
-25.1336140262
30
0.0000000000
10
17.1230125789
20
-25.1546817213
30
0.0000000000
10
17.1209194910
20
-25.1959669176
30
0.0000000000
10
17.1130150144
20
-25.2561488178
30
0.0000000000
10
17.1004666960
20
-25.3128774755
30
0.0000000000
10
17.0833693340
20
-25.3656716633
30
0.0000000000
10
17.0618515585
20
-25.4140856152
30
0.0000000000
10
17.0360753541
20
-25.4577027192
30
0.0000000000
10
17.0062377372
20
-25.4961368014
30
0.0000000000
10
16.9725756631
20
-25.5290327069
30
0.0000000000
10
16.9378737368
20
-25.5542545995
30
0.0000000000
10
16.9138768666
20
-25.5671447486
30
0.0000000000
10
16.9030119062
20
-25.5721636702
30
0.0000000000
11
17.1233158609
21
-25.1336140262
31
0.0000000000
11
17.1200197825
21
-25.1967376643
31
0.0000000000
11
17.1120123872
21
-25.2568690523
31
0.0000000000
11
17.0993619648
21
-25.3134953692
31
0.0000000000
11
17.0821764024
21
-25.3661336864
31
0.0000000000
11
17.0606022643
21
-25.4143350864
31
0.0000000000
11
17.0348235422
21
-25.4576884912
31
0.0000000000
11
17.0050600858
21
-25.4958241682
31
0.0000000000
11
16.9715657281
21
-25.5284168832
31
0.0000000000
11
16.9346261202
21
-25.5551886745
31
0.0000000000
11
16.9030119062
21
-25.5721636702
31
0.0000000000
0
SPLINE
5
2B5
100
AcDbEntity
8
0
100
AcDbSpline
62
9
6
CONTINUOUS
70
0
71
3
72
27
73
23
74
21
42
0.0000001000
43
0.0000001000
44
0.0000000001
12
0.0420941086
22
-0.7239344791
32
0.0000000000
13
0.6583414078
23
0.3040388704
33
0.0000000000
40
0.0000000000
40
0.0000000000
40
0.0000000000
40
0.0000000000
40
0.0593551826
40
0.1167323710
40
0.1721050104
40
0.2255004525
40
0.2769958971
40
0.3267214575
40
0.3748624107
40
0.4216595008
40
0.4674054888
40
0.5124373929
40
0.5571243845
40
0.6018518067
40
0.6470031178
40
0.6929420822
40
0.7399973714
40
0.7884512671
40
0.8385332241
40
0.8904171764
40
0.9442214091
40
1.0000000000
40
1.0000000000
40
1.0000000000
40
1.0000000000
10
16.6296534919
20
-24.8070240445
30
0.0000000000
10
16.6304863264
20
-24.8213471323
30
0.0000000000
10
16.6330281814
20
-24.8494739755
30
0.0000000000
10
16.6396521724
20
-24.8905793149
30
0.0000000000
10
16.6489912195
20
-24.9296804283
30
0.0000000000
10
16.6609977244
20
-24.9665585700
30
0.0000000000
10
16.6756107954
20
-25.0010113483
30
0.0000000000
10
16.6927560756
20
-25.0328473210
30
0.0000000000
10
16.7123454202
20
-25.0618871888
30
0.0000000000
10
16.7342762779
20
-25.0879641700
30
0.0000000000
10
16.7584307728
20
-25.1109252223
30
0.0000000000
10
16.7846748896
20
-25.1306330090
30
0.0000000000
10
16.8128584761
20
-25.1469687145
30
0.0000000000
10
16.8428166804
20
-25.1598350637
30
0.0000000000
10
16.8743727855
20
-25.1691585407
30
0.0000000000
10
16.9073416954
20
-25.1748900556
30
0.0000000000
10
16.9415330062
20
-25.1770041057
30
0.0000000000
10
16.9767531649
20
-25.1754970287
30
0.0000000000
10
17.0128062389
20
-25.1703853959
30
0.0000000000
10
17.0494950342
20
-25.1617041175
30
0.0000000000
10
17.0866146510
20
-25.1495087938
30
0.0000000000
10
17.1110754089
20
-25.1392669795
30
0.0000000000
10
17.1233158609
20
-25.1336140262
30
0.0000000000
11
16.6296534919
21
-24.8070240445
31
0.0000000000
11
16.6335756589
21
-24.8498868105
31
0.0000000000
11
16.6402467835
21
-24.8909560064
31
0.0000000000
11
16.6496297048
21
-24.9299982164
31
0.0000000000
11
16.6616726711
21
-24.9667978427
31
0.0000000000
11
16.6763093221
21
-25.0011521069
31
0.0000000000
11
16.6934590187
21
-25.0328716377
31
0.0000000000
11
16.7130271977
21
-25.0617814598
31
0.0000000000
11
16.7349059865
21
-25.0877221566
31
0.0000000000
11
16.7589747975
21
-25.1105507043
31
0.0000000000
11
16.7851009400
21
-25.1301412006
31
0.0000000000
11
16.8131403734
21
-25.1463855975
31
0.0000000000
11
16.8429385013
21
-25.1591942991
31
0.0000000000
11
16.8743310413
21
-25.1684966616
31
0.0000000000
11
16.9071449476
21
-25.1742413758
31
0.0000000000
11
16.9411992919
21
-25.1763967347
31
0.0000000000
11
16.9763062233
21
-25.1749508335
31
0.0000000000
11
17.0122722134
21
-25.1699116433
31
0.0000000000
11
17.0488990547
21
-25.1613068943
31
0.0000000000
11
17.0859844810
21
-25.1491841576
31
0.0000000000
11
17.1233158609
21
-25.1336140262
31
0.0000000000
0
SPLINE
5
2B6
100
AcDbEntity
8
0
100
AcDbSpline
62
9
6
CONTINUOUS
70
0
71
3
72
18
73
14
74
12
42
0.0000001000
43
0.0000001000
44
0.0000000001
12
0.0495995364
22
-0.8607080487
32
0.0000000000
13
0.7707910526
23
-0.3873529129
33
0.0000000000
40
0.0000000000
40
0.0000000000
40
0.0000000000
40
0.0000000000
40
0.1069451215
40
0.2102597514
40
0.3099071594
40
0.4059293530
40
0.4984589415
40
0.5877252115
40
0.6740588194
40
0.7578930406
40
0.8397582223
40
0.9202682221
40
1.0000000000
40
1.0000000000
40
1.0000000000
40
1.0000000000
10
15.5095476080
20
-24.8485329946
30
0.0000000000
10
15.5113157508
20
-24.8792158369
30
0.0000000000
10
15.5167113828
20
-24.9394515532
30
0.0000000000
10
15.5307747832
20
-25.0274687363
30
0.0000000000
10
15.5506013016
20
-25.1111594753
30
0.0000000000
10
15.5760905068
20
-25.1900613584
30
0.0000000000
10
15.6071134049
20
-25.2637417166
30
0.0000000000
10
15.6435124652
20
-25.3317915687
30
0.0000000000
10
15.6851011862
20
-25.3938279883
30
0.0000000000
10
15.7316626680
20
-25.4494947752
30
0.0000000000
10
15.7829475332
20
-25.4984648981
30
0.0000000000
10
15.8386492309
20
-25.5404275523
30
0.0000000000
10
15.8785713698
20
-25.5636029012
30
0.0000000000
10
15.8990568835
20
-25.5738976800
30
0.0000000000
11
15.5095476080
21
-24.8485329946
31
0.0000000000
11
15.5178771062
21
-24.9403572164
31
0.0000000000
11
15.5320421080
21
-25.0282949339
31
0.0000000000
11
15.5519647314
21
-25.1118625787
31
0.0000000000
11
15.5775350290
21
-25.1905987316
31
0.0000000000
11
15.6086121236
21
-25.2640695405
31
0.0000000000
11
15.6450247915
21
-25.3318700380
31
0.0000000000
11
15.6865722587
21
-25.3936262353
31
0.0000000000
11
15.7330254907
21
-25.4489976138
31
0.0000000000
11
15.7841284724
21
-25.4976789149
31
0.0000000000
11
15.8395995173
21
-25.5394016922
31
0.0000000000
11
15.8990568835
21
-25.5738976800
31
0.0000000000
0
SPLINE
5
2B7
100
AcDbEntity
8
0
100
AcDbSpline
62
9
6
CONTINUOUS
70
0
71
3
72
8
73
4
74
2
42
0.0000001000
43
0.0000001000
44
0.0000000001
12
0.0010069969
22
-0.0005060557
32
0.0000000000
13
0.0010079959
23
-0.0005040629
33
0.0000000000
40
0.0000000000
40
0.0000000000
40
0.0000000000
40
0.0000000000
40
1.0000000000
40
1.0000000000
40
1.0000000000
40
1.0000000000
10
15.8990568835
20
-25.5738976800
30
0.0000000000
10
15.8993925491
20
-25.5740663653
30
0.0000000000
10
15.8997283816
20
-25.5742347185
30
0.0000000000
10
15.9000643802
20
-25.5744027394
30
0.0000000000
11
15.8990568835
21
-25.5738976800
31
0.0000000000
11
15.9000643802
21
-25.5744027394
31
0.0000000000
0
SPLINE
5
2B8
100
AcDbEntity
8
0
100
AcDbSpline
62
9
6
CONTINUOUS
70
0
71
3
72
24
73
20
74
18
42
0.0000001000
43
0.0000001000
44
0.0000000001
12
-1.0088419886
22
-0.5698083474
32
0.0000000000
13
-1.0368848304
23
0.5170237511
33
0.0000000000
40
0.0000000000
40
0.0000000000
40
0.0000000000
40
0.0000000000
40
0.0531966254
40
0.1086694782
40
0.1661815756
40
0.2254556774
40
0.2861822564
40
0.3480266664
40
0.4106357462
40
0.4736440422
40
0.5366797964
40
0.5993708200
40
0.6613503592
40
0.7222630592
40
0.7817711440
40
0.8395609534
40
0.8953500152
40
0.9488948797
40
1.0000000000
40
1.0000000000
40
1.0000000000
40
1.0000000000
10
16.6296534919
20
-24.8070240445
30
0.0000000000
10
16.6117644954
20
-24.8171280049
30
0.0000000000
10
16.5744467856
20
-24.8364205810
30
0.0000000000
10
16.5155734536
20
-24.8620791398
30
0.0000000000
10
16.4530372259
20
-24.8848945884
30
0.0000000000
10
16.3873588031
20
-24.9046766805
30
0.0000000000
10
16.3190804726
20
-24.9212624781
30
0.0000000000
10
16.2487682525
20
-24.9345143265
30
0.0000000000
10
16.1770051313
20
-24.9443222736
30
0.0000000000
10
16.1043865953
20
-24.9506048350
30
0.0000000000
10
16.0315153755
20
-24.9533098324
30
0.0000000000
10
15.9589963277
20
-24.9524148405
30
0.0000000000
10
15.8874312231
20
-24.9479273641
30
0.0000000000
10
15.8174136362
20
-24.9398847425
30
0.0000000000
10
15.7495236610
20
-24.9283536404
30
0.0000000000
10
15.6843235491
20
-24.9134296102
30
0.0000000000
10
15.6223505974
20
-24.8952348774
30
0.0000000000
10
15.5641205885
20
-24.8739207612
30
0.0000000000
10
15.5272109970
20
-24.8573405066
30
0.0000000000
10
15.5095476224
20
-24.8485329863
30
0.0000000000
11
16.6296534919
21
-24.8070240445
31
0.0000000000
11
16.5749455047
21
-24.8354140433
31
0.0000000000
11
16.5160571817
21
-24.8611663909
31
0.0000000000
11
16.4534798678
21
-24.8840662184
31
0.0000000000
11
16.3877356876
21
-24.9039224569
31
0.0000000000
11
16.3193731889
21
-24.9205694325
31
0.0000000000
11
16.2489627661
21
-24.9338682485
31
0.0000000000
11
16.1770919006
21
-24.9437079437
31
0.0000000000
11
16.1043602594
21
-24.9500064190
31
0.0000000000
11
16.0313746915
21
-24.9527111219
31
0.0000000000
11
15.9587441644
21
-24.9517994855
31
0.0000000000
11
15.8870746836
21
-24.9472791159
31
0.0000000000
11
15.8169642356
21
-24.9391877297
31
0.0000000000
11
15.7489977991
21
-24.9275928388
31
0.0000000000
11
15.6837424637
21
-24.9125911872
31
0.0000000000
11
15.6217426986
21
-24.8943079437
31
0.0000000000
11
15.5635158095
21
-24.8728956577
31
0.0000000000
11
15.5095476224
21
-24.8485329863
31
0.0000000000
0
SPLINE
5
2B9
100
AcDbEntity
8
0
100
AcDbSpline
62
9
6
CONTINUOUS
70
0
71
3
72
15
73
11
74
9
42
0.0000001000
43
0.0000001000
44
0.0000000001
12
0.3386606999
22
0.1826942035
32
0.0000000000
13
0.3462371981
23
-0.1670535206
33
0.0000000000
40
0.0000000000
40
0.0000000000
40
0.0000000000
40
0.0000000000
40
0.0728151259
40
0.1918697633
40
0.3135188340
40
0.4391569319
40
0.5699228815
40
0.7066640438
40
0.8499321713
40
1.0000000000
40
1.0000000000
40
1.0000000000
40
1.0000000000
10
-13.8976096404
20
27.2281067151
30
0.0000000000
10
-13.8893897665
20
27.2325410155
30
0.0000000000
10
-13.8671886496
20
27.2432224475
30
0.0000000000
10
-13.8289967221
20
27.2561589406
30
0.0000000000
10
-13.7826620462
20
27.2646286875
30
0.0000000000
10
-13.7341189589
20
27.2667157426
30
0.0000000000
10
-13.6837960858
20
27.2624319212
30
0.0000000000
10
-13.6321214548
20
27.2518405125
30
0.0000000000
10
-13.5795320616
20
27.2350547746
30
0.0000000000
10
-13.5449433770
20
27.2201779762
30
0.0000000000
10
-13.5276236888
20
27.2118215232
30
0.0000000000
11
-13.8976096404
21
27.2281067151
31
0.0000000000
11
-13.8723702137
21
27.2402501404
31
0.0000000000
11
-13.8290382228
21
27.2549835570
31
0.0000000000
11
-13.7830514691
21
27.2634832631
31
0.0000000000
11
-13.7348021435
21
27.2656767701
31
0.0000000000
11
-13.6847017326
21
27.2615453713
31
0.0000000000
11
-13.6331775099
21
27.2511243004
31
0.0000000000
11
-13.5806688915
21
27.2345024321
31
0.0000000000
11
-13.5276236888
21
27.2118215232
31
0.0000000000
0
SPLINE
5
2BA
100
AcDbEntity
8
0
100
AcDbSpline
62
0
6
CONTINUOUS
70
0
71
3
72
8
73
4
74
2
42
0.0000001000
43
0.0000001000
44
0.0000000001
12
-0.0008735467
22
-0.0006310393
32
0.0000000000
13
-0.0008722829
23
-0.0006327847
33
0.0000000000
40
0.0000000000
40
0.0000000000
40
0.0000000000
40
0.0000000000
40
1.0000000000
40
1.0000000000
40
1.0000000000
40
1.0000000000
10
-0.4309884260
20
1.4185970257
30
0.0000000000
10
-0.4312796082
20
1.4183866793
30
0.0000000000
10
-0.4315705801
20
1.4181760417
30
0.0000000000
10
-0.4318613410
20
1.4179651135
30
0.0000000000
11
-0.4309884260
21
1.4185970257
31
0.0000000000
11
-0.4318613410
21
1.4179651135
31
0.0000000000
0
SPLINE
5
2BB
100
AcDbEntity
8
0
100
AcDbSpline
62
0
6
CONTINUOUS
70
0
71
3
72
8
73
4
74
2
42
0.0000001000
43
0.0000001000
44
0.0000000001
12
-0.0156413974
22
-0.0169777502
32
0.0000000000
13
-0.0149795818
23
-0.0175651016
33
0.0000000000
40
0.0000000000
40
0.0000000000
40
0.0000000000
40
0.0000000000
40
1.0000000000
40
1.0000000000
40
1.0000000000
40
1.0000000000
10
-0.5150607702
20
1.3437188244
30
0.0000000000
10
-0.5202745693
20
1.3380595743
30
0.0000000000
10
-0.5253784270
20
1.3322989596
30
0.0000000000
10
-0.5303716209
20
1.3264439258
30
0.0000000000
11
-0.5150607702
21
1.3437188244
31
0.0000000000
11
-0.5303716209
21
1.3264439258
31
0.0000000000
0
SPLINE
5
2BC
100
AcDbEntity
8
0
100
AcDbSpline
62
0
6
CONTINUOUS
70
0
71
3
72
12
73
8
74
6
42
0.0000001000
43
0.0000001000
44
0.0000000001
12
-0.1725412653
22
-0.2023223944
32
0.0000000000
13
-0.0891997860
23
-0.2504159935
33
0.0000000000
40
0.0000000000
40
0.0000000000
40
0.0000000000
40
0.0000000000
40
0.0875811335
40
0.3559733241
40
0.6338987686
40
0.9225387073
40
1.0000000000
40
1.0000000000
40
1.0000000000
40
1.0000000000
10
-0.5303716209
20
1.3264439258
30
0.0000000000
10
-0.5354087408
20
1.3205373842
30
0.0000000000
10
-0.5554243623
20
1.2961397107
30
0.0000000000
10
-0.5877322685
20
1.2500766354
30
0.0000000000
10
-0.6237008991
20
1.1853033978
30
0.0000000000
10
-0.6464557300
20
1.1328953529
30
0.0000000000
10
-0.6576924382
20
1.1024612374
30
0.0000000000
10
-0.6599956151
20
1.0959953885
30
0.0000000000
11
-0.5303716209
21
1.3264439258
31
0.0000000000
11
-0.5451443811
21
1.3084431682
31
0.0000000000
11
-0.5862062426
21
1.2501219259
31
0.0000000000
11
-0.6221832503
21
1.1856166707
31
0.0000000000
11
-0.6528613799
21
1.1153112432
31
0.0000000000
11
-0.6599956151
21
1.0959953885
31
0.0000000000
0
SPLINE
5
2BD
100
AcDbEntity
8
0
100
AcDbSpline
62
9
6
CONTINUOUS
70
0
71
3
72
8
73
4
74
2
42
0.0000001000
43
0.0000001000
44
0.0000000001
12
-0.0203941073
22
0.0123565610
32
0.0000000000
13
-0.0198485054
23
0.0132141404
33
0.0000000000
40
0.0000000000
40
0.0000000000
40
0.0000000000
40
0.0000000000
40
1.0000000000
40
1.0000000000
40
1.0000000000
40
1.0000000000
10
-14.2140119234
20
-10.5153214721
30
0.0000000000
10
-14.2208099592
20
-10.5112026184
30
0.0000000000
10
-14.2275199988
20
-10.5069385634
30
0.0000000000
10
-14.2341361673
20
-10.5025338499
30
0.0000000000
11
-14.2140119234
21
-10.5153214721
31
0.0000000000
11
-14.2341361673
21
-10.5025338499
31
0.0000000000
0
SPLINE
5
2BE
100
AcDbEntity
8
0
100
AcDbSpline
62
9
6
CONTINUOUS
70
0
71
3
72
8
73
4
74
2
42
0.0000001000
43
0.0000001000
44
0.0000000001
12
-0.0189096778
22
0.0125891160
32
0.0000000000
13
-0.0183880659
23
0.0133390776
33
0.0000000000
40
0.0000000000
40
0.0000000000
40
0.0000000000
40
0.0000000000
40
1.0000000000
40
1.0000000000
40
1.0000000000
40
1.0000000000
10
-14.2341361673
20
-10.5025338499
30
0.0000000000
10
-14.2404393932
20
-10.4983374779
30
0.0000000000
10
-14.2466574182
20
-10.4940134390
30
0.0000000000
10
-14.2527867735
20
-10.4895670798
30
0.0000000000
11
-14.2341361673
21
-10.5025338499
31
0.0000000000
11
-14.2527867735
21
-10.4895670798
31
0.0000000000
0
SPLINE
5
2BF
100
AcDbEntity
8
0
100
AcDbSpline
62
9
6
CONTINUOUS
70
0
71
3
72
17
73
13
74
11
42
0.0000001000
43
0.0000001000
44
0.0000000001
12
-0.6201275621
22
0.4498531675
32
0.0000000000
13
-0.0433598068
23
0.7644296283
33
0.0000000000
40
0.0000000000
40
0.0000000000
40
0.0000000000
40
0.0000000000
40
0.0597154814
40
0.1507439529
40
0.2441371211
40
0.3404972394
40
0.4403106911
40
0.5439431025
40
0.6516421988
40
0.7635443440
40
0.8796824485
40
1.0000000000
40
1.0000000000
40
1.0000000000
40
1.0000000000
10
-14.2527867735
20
-10.4895670798
30
0.0000000000
10
-14.2651305121
20
-10.4806126803
30
0.0000000000
10
-14.2953828687
20
-10.4567561451
30
0.0000000000
10
-14.3403742286
20
-10.4134501045
30
0.0000000000
10
-14.3861790481
20
-10.3581527868
30
0.0000000000
10
-14.4270890914
20
-10.2964494548
30
0.0000000000
10
-14.4628924643
20
-10.2286942360
30
0.0000000000
10
-14.4934067766
20
-10.1552678059
30
0.0000000000
10
-14.5184777176
20
-10.0765770126
30
0.0000000000
10
-14.5379786428
20
-9.9930527413
30
0.0000000000
10
-14.5518108588
20
-9.9051558495
30
0.0000000000
10
-14.5571155307
20
-9.8449900347
30
0.0000000000
10
-14.5588545127
20
-9.8143319343
30
0.0000000000
11
-14.2527867735
21
-10.4895670798
31
0.0000000000
11
-14.2887108111
21
-10.4612592732
31
0.0000000000
11
-14.3389879788
21
-10.4129908791
31
0.0000000000
11
-14.3846905360
21
-10.3579948380
31
0.0000000000
11
-14.4255666047
21
-10.2965743399
31
0.0000000000
11
-14.4613908523
21
-10.2290680525
31
0.0000000000
11
-14.4919657472
21
-10.1558483435
31
0.0000000000
11
-14.5171228376
21
-10.0773187941
31
0.0000000000
11
-14.5367235118
21
-9.9939121240
31
0.0000000000
11
-14.5506596187
21
-9.9060888540
31
0.0000000000
11
-14.5588545127
21
-9.8143319343
31
0.0000000000
0
SPLINE
5
2C0
100
AcDbEntity
8
0
100
AcDbSpline
62
0
6
CONTINUOUS
70
0
71
3
72
14
73
10
74
8
42
0.0000001000
43
0.0000001000
44
0.0000000001
12
0.3831121692
22
-0.1190715221
32
0.0000000000
13
0.3832970580
23
0.1189036138
33
0.0000000000
40
0.0000000000
40
0.0000000000
40
0.0000000000
40
0.0000000000
40
0.1001876270
40
0.2896104843
40
0.4721055441
40
0.6485175761
40
0.8199327239
40
0.9876574076
40
1.0000000000
40
1.0000000000
40
1.0000000000
40
1.0000000000
10
0.4194874947
20
-1.0629929298
30
0.0000000000
10
0.4322818610
20
-1.0669694276
30
0.0000000000
10
0.4695236431
20
-1.0776340465
30
0.0000000000
10
0.5313435455
20
-1.0908167184
30
0.0000000000
10
0.6043256912
20
-1.0989465792
30
0.0000000000
10
0.6753654402
20
-1.0992535903
30
0.0000000000
10
0.7440319899
20
-1.0917144011
30
0.0000000000
10
0.7899066152
20
-1.0810169236
30
0.0000000000
10
0.8129458180
20
-1.0739861492
30
0.0000000000
10
0.8145227778
20
-1.0734969563
30
0.0000000000
11
0.4194874947
21
-1.0629929298
31
0.0000000000
11
0.4581301801
21
-1.0740395541
31
0.0000000000
11
0.5324585026
21
-1.0897466653
31
0.0000000000
11
0.6052148472
21
-1.0977146705
31
0.0000000000
11
0.6759663160
21
-1.0978962718
31
0.0000000000
11
0.7442919496
21
-1.0902904972
31
0.0000000000
11
0.8097852301
21
-1.0749427046
31
0.0000000000
11
0.8145227778
21
-1.0734969563
31
0.0000000000
0
SPLINE
5
2C1
100
AcDbEntity
8
0
100
AcDbSpline
62
9
6
CONTINUOUS
70
0
71
3
72
8
73
4
74
2
42
0.0000001000
43
0.0000001000
44
0.0000000001
12
0.0000349520
22
-0.0006230719
32
0.0000000000
13
0.0000366091
23
-0.0006229753
33
0.0000000000
40
0.0000000000
40
0.0000000000
40
0.0000000000
40
0.0000000000
40
1.0000000000
40
1.0000000000
40
1.0000000000
40
1.0000000000
10
-14.7932135013
20
-9.5299820614
30
0.0000000000
10
-14.7932018506
20
-9.5301897521
30
0.0000000000
10
-14.7931899238
20
-9.5303974270
30
0.0000000000
10
-14.7931777208
20
-9.5306050854
30
0.0000000000
11
-14.7932135013
21
-9.5299820614
31
0.0000000000
11
-14.7931777208
21
-9.5306050854
31
0.0000000000
0
SPLINE
5
2C2
100
AcDbEntity
8
0
100
AcDbSpline
62
9
6
CONTINUOUS
70
0
71
3
72
9
73
5
74
3
42
0.0000001000
43
0.0000001000
44
0.0000000001
12
0.0006865768
22
-0.0116834402
32
0.0000000000
13
0.0012702922
23
-0.0116339123
33
0.0000000000
40
0.0000000000
40
0.0000000000
40
0.0000000000
40
0.0000000000
40
0.8782140681
40
1.0000000000
40
1.0000000000
40
1.0000000000
40
1.0000000000
10
-14.7931777208
20
-9.5306050854
30
0.0000000000
10
-14.7929767336
20
-9.5340252726
30
0.0000000000
10
-14.7926625570
20
-9.5379146649
30
0.0000000000
10
-14.7922509584
20
-9.5417939342
30
0.0000000000
10
-14.7921993905
20
-9.5422662165
30
0.0000000000
11
-14.7931777208
21
-9.5306050854
31
0.0000000000
11
-14.7923497673
21
-9.5408489032
31
0.0000000000
11
-14.7921993905
21
-9.5422662165
31
0.0000000000
0
SPLINE
5
2C3
100
AcDbEntity
8
0
100
AcDbSpline
62
9
6
CONTINUOUS
70
0
71
3
72
15
73
11
74
9
42
0.0000001000
43
0.0000001000
44
0.0000000001
12
0.0405687757
22
-0.3715472645
32
0.0000000000
13
0.3337346444
23
-0.1673238642
33
0.0000000000
40
0.0000000000
40
0.0000000000
40
0.0000000000
40
0.0000000000
40
0.1027518731
40
0.2119638804
40
0.3256564259
40
0.4453188058
40
0.5720473989
40
0.7065507910
40
0.8491850095
40
1.0000000000
40
1.0000000000
40
1.0000000000
40
1.0000000000
10
-14.7921993905
20
-9.5422662165
30
0.0000000000
10
-14.7908098846
20
-9.5549919423
30
0.0000000000
10
-14.7857853091
20
-9.5810066268
30
0.0000000000
10
-14.7717325227
20
-9.6192016673
30
0.0000000000
10
-14.7509850493
20
-9.6566178845
30
0.0000000000
10
-14.7239300177
20
-9.6925021685
30
0.0000000000
10
-14.6908255688
20
-9.7265784466
30
0.0000000000
10
-14.6519615947
20
-9.7585899744
30
0.0000000000
10
-14.6076686339
20
-9.7882912106
30
0.0000000000
10
-14.5756319084
20
-9.8059202853
30
0.0000000000
10
-14.5588545126
20
-9.8143319343
30
0.0000000000
11
-14.7921993905
21
-9.5422662165
31
0.0000000000
11
-14.7849697723
21
-9.5799425287
31
0.0000000000
11
-14.7709941506
21
-9.6182447114
31
0.0000000000
11
-14.7505395102
21
-9.6554358702
31
0.0000000000
11
-14.7237765180
21
-9.6912056944
31
0.0000000000
11
-14.6909284754
21
-9.7252557323
31
0.0000000000
11
-14.6522694560
21
-9.7573018815
31
0.0000000000
11
-14.6081220178
21
-9.7870767594
31
0.0000000000
11
-14.5588545126
21
-9.8143319343
31
0.0000000000
0
SPLINE
5
2C4
100
AcDbEntity
8
0
100
AcDbSpline
62
9
6
CONTINUOUS
70
0
71
3
72
17
73
13
74
11
42
0.0000001000
43
0.0000001000
44
0.0000000001
12
-0.3451328203
22
0.1725701786
32
0.0000000000
13
-0.0003625652
23
0.3863341980
33
0.0000000000
40
0.0000000000
40
0.0000000000
40
0.0000000000
40
0.0000000000
40
0.1377006194
40
0.2677878637
40
0.3901738105
40
0.5049861617
40
0.6126349985
40
0.7138505053
40
0.8097175823
40
0.9016823389
40
0.9915014572
40
1.0000000000
40
1.0000000000
40
1.0000000000
40
1.0000000000
10
-15.0400240960
20
7.2789759956
30
0.0000000000
10
-15.0558657637
20
7.2868970024
30
0.0000000000
10
-15.0861715679
20
7.3033400889
30
0.0000000000
10
-15.1283649160
20
7.3306101018
30
0.0000000000
10
-15.1657377978
20
7.3596159917
30
0.0000000000
10
-15.1980130358
20
7.3901584457
30
0.0000000000
10
-15.2249471189
20
7.4220328165
30
0.0000000000
10
-15.2463230759
20
7.4550277984
30
0.0000000000
10
-15.2619474379
20
7.4889185755
30
0.0000000000
10
-15.2716529980
20
7.5234539574
30
0.0000000000
10
-15.2742211658
20
7.5479160879
30
0.0000000000
10
-15.2743373226
20
7.5605770718
30
0.0000000000
10
-15.2743383497
20
7.5616714977
30
0.0000000000
11
-15.0400240960
21
7.2789759956
31
0.0000000000
11
-15.0866769424
21
7.3044086318
31
0.0000000000
11
-15.1287697227
21
7.3317570869
31
0.0000000000
11
-15.1659930764
21
7.3608199635
31
0.0000000000
11
-15.1980684279
21
7.3913799918
31
0.0000000000
11
-15.2247575210
21
7.4232100525
31
0.0000000000
11
-15.2458617608
21
7.4560733976
31
0.0000000000
11
-15.2612238886
21
7.4897251966
31
0.0000000000
11
-15.2707296013
21
7.5239149809
31
0.0000000000
11
-15.2743081946
21
7.5583884113
31
0.0000000000
11
-15.2743383497
21
7.5616714977
31
0.0000000000
0
SPLINE
5
2C5
100
AcDbEntity
8
0
100
AcDbSpline
62
9
6
CONTINUOUS
70
0
71
3
72
15
73
11
74
9
42
0.0000001000
43
0.0000001000
44
0.0000000001
12
-0.2255271778
22
0.1127659234
32
0.0000000000
13
-0.0609756050
23
0.2449469890
33
0.0000000000
40
0.0000000000
40
0.0000000000
40
0.0000000000
40
0.0000000000
40
0.1579944229
40
0.3073077853
40
0.4477770010
40
0.5795493771
40
0.7030946386
40
0.8192504541
40
0.9292618459
40
1.0000000000
40
1.0000000000
40
1.0000000000
40
1.0000000000
10
-14.8986028732
20
7.5230938961
30
0.0000000000
10
-14.9104802186
20
7.5290326918
30
0.0000000000
10
-14.9332064442
20
7.5413624331
30
0.0000000000
10
-14.9648495272
20
7.5618106881
30
0.0000000000
10
-14.9928812783
20
7.5835625839
30
0.0000000000
10
-15.0170895270
20
7.6064659056
30
0.0000000000
10
-15.0372916969
20
7.6303672495
30
0.0000000000
10
-15.0533250240
20
7.6551081688
30
0.0000000000
10
-15.0638152215
20
7.6778548567
30
0.0000000000
10
-15.0683094573
20
7.6924095404
30
0.0000000000
10
-15.0697472245
20
7.6981852397
30
0.0000000000
11
-14.8986028732
21
7.5230938961
31
0.0000000000
11
-14.9335815468
21
7.5421610943
31
0.0000000000
11
-14.9651536219
21
7.5626710256
31
0.0000000000
11
-14.9930731868
21
7.5844656729
31
0.0000000000
11
-15.0171315682
21
7.6073822948
31
0.0000000000
11
-15.0371499717
21
7.6312505178
31
0.0000000000
11
-15.0529794255
21
7.6558928132
31
0.0000000000
11
-15.0645019494
21
7.6811255815
31
0.0000000000
11
-15.0697472245
21
7.6981852397
31
0.0000000000
0
SPLINE
5
2C6
100
AcDbEntity
8
0
100
AcDbSpline
62
9
6
CONTINUOUS
70
0
71
3
72
11
73
7
74
5
42
0.0000001000
43
0.0000001000
44
0.0000000001
12
-0.0189167179
22
0.0759909327
32
0.0000000000
13
0.0205428435
23
0.0755747663
33
0.0000000000
40
0.0000000000
40
0.0000000000
40
0.0000000000
40
0.0000000000
40
0.1121375447
40
0.4443376508
40
0.7757932428
40
1.0000000000
40
1.0000000000
40
1.0000000000
40
1.0000000000
10
-15.0697472245
20
7.6981852397
30
0.0000000000
10
-15.0704543159
20
7.7010257186
30
0.0000000000
10
-15.0729483874
20
7.7123571944
30
0.0000000000
10
-15.0750718420
20
7.7325754438
30
0.0000000000
10
-15.0734548327
20
7.7557864863
30
0.0000000000
10
-15.0704045441
20
7.7699895230
30
0.0000000000
10
-15.0688692626
20
7.7756376475
30
0.0000000000
11
-15.0697472245
21
7.6981852397
31
0.0000000000
11
-15.0716317866
21
7.7067610026
31
0.0000000000
11
-15.0743158836
21
7.7326083530
31
0.0000000000
11
-15.0725342435
21
7.7584751692
31
0.0000000000
11
-15.0688692626
21
7.7756376475
31
0.0000000000
0
SPLINE
5
2C7
100
AcDbEntity
8
0
100
AcDbSpline
62
9
6
CONTINUOUS
70
0
71
3
72
10
73
6
74
4
42
0.0000001000
43
0.0000001000
44
0.0000000001
12
0.0108927532
22
0.0400731902
32
0.0000000000
13
0.0198469421
23
0.0364583886
33
0.0000000000
40
0.0000000000
40
0.0000000000
40
0.0000000000
40
0.0000000000
40
0.2145842542
40
0.8769406236
40
1.0000000000
40
1.0000000000
40
1.0000000000
40
1.0000000000
10
-15.0688692626
20
7.7756376475
30
0.0000000000
10
-15.0680901249
20
7.7785040060
30
0.0000000000
10
-15.0645855305
20
7.7901308744
30
0.0000000000
10
-15.0591636440
20
7.8029087244
30
0.0000000000
10
-15.0540901748
20
7.8125207739
30
0.0000000000
10
-15.0532760573
20
7.8140162894
30
0.0000000000
11
-15.0688692626
21
7.7756376475
31
0.0000000000
11
-15.0663001512
21
7.7841688777
31
0.0000000000
11
-15.0556599946
21
7.8094983257
31
0.0000000000
11
-15.0532760573
21
7.8140162894
31
0.0000000000
0
SPLINE
5
2C8
100
AcDbEntity
8
0
100
AcDbSpline
62
9
6
CONTINUOUS
70
0
71
3
72
19
73
15
74
13
42
0.0000001000
43
0.0000001000
44
0.0000000001
12
-0.0002810185
22
0.2946697021
32
0.0000000000
13
0.2635607144
23
0.1317803556
33
0.0000000000
40
0.0000000000
40
0.0000000000
40
0.0000000000
40
0.0000000000
40
0.0789078273
40
0.1613918527
40
0.2467548026
40
0.3341797562
40
0.4227696308
40
0.5115838713
40
0.5996736909
40
0.6861170433
40
0.7700544737
40
0.8507271033
40
0.9275182119
40
1.0000000000
40
1.0000000000
40
1.0000000000
40
1.0000000000
10
-15.0400241336
20
7.2789759772
30
0.0000000000
10
-15.0400315252
20
7.2867265592
30
0.0000000000
10
-15.0391792496
20
7.3025887590
30
0.0000000000
10
-15.0355473496
20
7.3265847842
30
0.0000000000
10
-15.0295936961
20
7.3509741883
30
0.0000000000
10
-15.0214195929
20
7.3753420753
30
0.0000000000
10
-15.0111635667
20
7.3992777839
30
0.0000000000
10
-14.9989992991
20
7.4223759775
30
0.0000000000
10
-14.9851326988
20
7.4442456977
30
0.0000000000
10
-14.9697980056
20
7.4645169209
30
0.0000000000
10
-14.9532540052
20
7.4828468459
30
0.0000000000
10
-14.9357767143
20
7.4989267289
30
0.0000000000
10
-14.9176616540
20
7.5124827623
30
0.0000000000
10
-14.9049706571
20
7.5199100042
30
0.0000000000
10
-14.8986028732
20
7.5230938961
30
0.0000000000
11
-15.0400241336
21
7.2789759772
31
0.0000000000
11
-15.0388340245
21
7.3021972567
31
0.0000000000
11
-15.0352409583
21
7.3262357642
31
0.0000000000
11
-15.0293065047
21
7.3506795828
31
0.0000000000
11
-15.0211323548
21
7.3751098506
31
0.0000000000
11
-15.0108585783
21
7.3991079383
31
0.0000000000
11
-14.9986612236
21
7.4222626220
31
0.0000000000
11
-14.9847493009
21
7.4441771305
31
0.0000000000
11
-14.9693612008
21
7.4644759436
31
0.0000000000
11
-14.9527606088
21
7.4828112276
31
0.0000000000
11
-14.9352319877
21
7.4988687949
31
0.0000000000
11
-14.9170757024
21
7.5123734883
31
0.0000000000
11
-14.8986028732
21
7.5230938961
31
0.0000000000
0
SPLINE
5
2C9
100
AcDbEntity
8
0
100
AcDbSpline
62
9
6
CONTINUOUS
70
0
71
3
72
13
73
9
74
7
42
0.0000001000
43
0.0000001000
44
0.0000000001
12
0.0831887545
22
0.0416073951
32
0.0000000000
13
0.0830346843
23
-0.0415173421
33
0.0000000000
40
0.0000000000
40
0.0000000000
40
0.0000000000
40
0.0000000000
40
0.0125953116
40
0.1914729679
40
0.3759307778
40
0.5703436209
40
0.7778016441
40
1.0000000000
40
1.0000000000
40
1.0000000000
40
1.0000000000
10
1.1416032246
20
-0.5360477708
30
0.0000000000
10
1.1419524874
20
-0.5358730848
30
0.0000000000
10
1.1472828061
20
-0.5332593243
30
0.0000000000
10
1.1583542027
20
-0.5293901068
30
0.0000000000
10
1.1756099307
20
-0.5272936776
30
0.0000000000
10
1.1938058656
20
-0.5286739409
30
0.0000000000
10
1.2126005332
20
-0.5334553174
30
0.0000000000
10
1.2248933830
20
-0.5386542325
30
0.0000000000
10
1.2310434397
20
-0.5417292609
30
0.0000000000
11
1.1416032246
21
-0.5360477708
31
0.0000000000
11
1.1426550921
21
-0.5355319950
31
0.0000000000
11
1.1583208671
21
-0.5300229253
31
0.0000000000
11
1.1753105144
21
-0.5278800605
31
0.0000000000
11
1.1933147472
21
-0.5291424104
31
0.0000000000
11
1.2120058090
21
-0.5337869945
31
0.0000000000
11
1.2310434397
21
-0.5417292609
31
0.0000000000
0
SPLINE
5
2CA
100
AcDbEntity
8
0
100
AcDbSpline
62
9
6
CONTINUOUS
70
0
71
3
72
15
73
11
74
9
42
0.0000001000
43
0.0000001000
44
0.0000000001
12
-0.1023677899
22
0.0792534270
32
0.0000000000
13
0.0255024042
23
0.1271357721
33
0.0000000000
40
0.0000000000
40
0.0000000000
40
0.0000000000
40
0.0000000000
40
0.1589075001
40
0.3095117006
40
0.4516284998
40
0.5855788825
40
0.7122645288
40
0.8332062680
40
0.9505022479
40
1.0000000000
40
1.0000000000
40
1.0000000000
40
1.0000000000
10
1.0896221799
20
-0.7858471790
30
0.0000000000
10
1.0841998433
20
-0.7816491910
30
0.0000000000
10
1.0740214120
20
-0.7729577121
30
0.0000000000
10
1.0606338381
20
-0.7587371405
30
0.0000000000
10
1.0497040041
20
-0.7438556791
30
0.0000000000
10
1.0413998095
20
-0.7285177811
30
0.0000000000
10
1.0358579249
20
-0.7129340862
30
0.0000000000
10
1.0331854787
20
-0.6973283948
30
0.0000000000
10
1.0334006456
20
-0.6848370208
30
0.0000000000
10
1.0345271781
20
-0.6777102359
30
0.0000000000
10
1.0349479487
20
-0.6756125909
30
0.0000000000
11
1.0896221799
21
-0.7858471790
31
0.0000000000
11
1.0740128994
21
-0.7724466607
31
0.0000000000
11
1.0606942326
21
-0.7582071635
31
0.0000000000
11
1.0498604593
21
-0.7433363994
31
0.0000000000
11
1.0416696118
21
-0.7280512890
31
0.0000000000
11
1.0362411691
21
-0.7125747964
31
0.0000000000
11
1.0336543151
21
-0.6971326769
31
0.0000000000
11
1.0339467836
21
-0.6819501846
31
0.0000000000
11
1.0349479487
21
-0.6756125909
31
0.0000000000
0
SPLINE
5
2CB
100
AcDbEntity
8
0
100
AcDbSpline
62
9
6
CONTINUOUS
70
0
71
3
72
8
73
4
74
2
42
0.0000001000
43
0.0000001000
44
0.0000000001
12
-0.0121639654
22
-0.0607009809
32
0.0000000000
13
-0.0152487944
23
-0.0600209048
33
0.0000000000
40
0.0000000000
40
0.0000000000
40
0.0000000000
40
0.0000000000
40
1.0000000000
40
1.0000000000
40
1.0000000000
40
1.0000000000
10
1.0896216694
20
-0.7858469240
30
0.0000000000
10
1.0855670142
20
-0.8060805843
30
0.0000000000
10
1.0810146845
20
-0.8262215992
30
0.0000000000
10
1.0759317531
20
-0.8462285675
30
0.0000000000
11
1.0896216694
21
-0.7858469240
31
0.0000000000
11
1.0759317531
21
-0.8462285675
31
0.0000000000
0
SPLINE
5
2CC
100
AcDbEntity
8
0
100
AcDbSpline
62
9
6
CONTINUOUS
70
0
71
3
72
43
73
39
74
37
42
0.0000001000
43
0.0000001000
44
0.0000000001
12
-0.8466520956
22
-3.3325142707
32
0.0000000000
13
-0.5712643001
23
3.3894739338
33
0.0000000000
40
0.0000000000
40
0.0000000000
40
0.0000000000
40
0.0000000000
40
0.0088233693
40
0.0346461978
40
0.0594947141
40
0.0834300828
40
0.1065449117
40
0.1289624508
40
0.1508344180
40
0.1723366930
40
0.1936626215
40
0.2150139187
40
0.2365908288
40
0.2585825517
40
0.2811585950
40
0.3044631015
40
0.3286112263
40
0.3536886281
40
0.3797518453
40
0.4068303697
40
0.4349288009
40
0.4640295130
40
0.4940953194
40
0.5250717093
40
0.5568894262
40
0.5894661967
40
0.6227092122
40
0.6565165616
40
0.6907791287
40
0.7253818297
40
0.7602055220
40
0.7951289010
40
0.8300296729
40
0.8647859356
40
0.8992772317
40
0.9333850702
40
0.9669940985
40
1.0000000000
40
1.0000000000
40
1.0000000000
40
1.0000000000
10
1.0759317531
20
-0.8462285675
30
0.0000000000
10
1.0734416450
20
-0.8560299022
30
0.0000000000
10
1.0631638545
20
-0.8943898947
30
0.0000000000
10
1.0420406094
20
-0.9592813008
30
0.0000000000
10
1.0085805239
20
-1.0380691934
30
0.0000000000
10
0.9693496497
20
-1.1106545079
30
0.0000000000
10
0.9245515751
20
-1.1766193130
30
0.0000000000
10
0.8744221985
20
-1.2355773160
30
0.0000000000
10
0.8192325050
20
-1.2871763876
30
0.0000000000
10
0.7592917406
20
-1.3311017431
30
0.0000000000
10
0.6949484177
20
-1.3670830500
30
0.0000000000
10
0.6265869578
20
-1.3949026688
30
0.0000000000
10
0.5546197520
20
-1.4144018179
30
0.0000000000
10
0.4794774108
20
-1.4254818231
30
0.0000000000
10
0.4016004908
20
-1.4281008529
30
0.0000000000
10
0.3214353232
20
-1.4222684938
30
0.0000000000
10
0.2394320722
20
-1.4080408198
30
0.0000000000
10
0.1560451127
20
-1.3855170514
30
0.0000000000
10
0.0717329715
20
-1.3548377607
30
0.0000000000
10
-0.0130415548
20
-1.3161843100
30
0.0000000000
10
-0.0978125773
20
-1.2697785878
30
0.0000000000
10
-0.1821128141
20
-1.2158827544
30
0.0000000000
10
-0.2654757815
20
-1.1547986879
30
0.0000000000
10
-0.3474384762
20
-1.0868669252
30
0.0000000000
10
-0.4275437667
20
-1.0124655419
30
0.0000000000
10
-0.5053434972
20
-0.9320081582
30
0.0000000000
10
-0.5804009696
20
-0.8459421117
30
0.0000000000
10
-0.6522938266
20
-0.7547458993
30
0.0000000000
10
-0.7206161977
20
-0.6589271859
30
0.0000000000
10
-0.7849813498
20
-0.5590199974
30
0.0000000000
10
-0.8450243134
20
-0.4555815004
30
0.0000000000
10
-0.9004042926
20
-0.3491884511
30
0.0000000000
10
-0.9508066099
20
-0.2404339703
30
0.0000000000
10
-0.9959441726
20
-0.1299249018
30
0.0000000000
10
-1.0355587193
20
-0.0182805512
30
0.0000000000
10
-1.0694223785
20
0.0938706800
30
0.0000000000
10
-1.0973412067
20
0.2058931019
30
0.0000000000
10
-1.1120323299
20
0.2808317102
30
0.0000000000
10
-1.1183173609
20
0.3181225911
30
0.0000000000
11
1.0759317531
21
-0.8462285675
31
0.0000000000
11
1.0680755273
21
-0.8755311911
31
0.0000000000
11
1.0404650167
21
-0.9598878005
31
0.0000000000
11
1.0069413219
21
-1.0384450582
31
0.0000000000
11
0.9676936032
21
-1.1107526058
31
0.0000000000
11
0.9229421339
21
-1.1764027326
31
0.0000000000
11
0.8729368840
21
-1.2350286190
31
0.0000000000
11
0.8179563939
21
-1.2863041604
31
0.0000000000
11
0.7583066900
21
-1.3299446843
31
0.0000000000
11
0.6943198481
21
-1.3657082619
31
0.0000000000
11
0.6263530400
21
-1.3933967783
31
0.0000000000
11
0.5547859851
21
-1.4128576765
31
0.0000000000
11
0.4800177893
21
-1.4239848980
31
0.0000000000
11
0.4024658406
21
-1.4267188816
31
0.0000000000
11
0.3225628501
21
-1.4210468639
31
0.0000000000
11
0.2407557629
21
-1.4070029267
31
0.0000000000
11
0.1575017622
21
-1.3846676497
31
0.0000000000
11
0.0732669815
21
-1.3541677417
31
0.0000000000
11
-0.0114769318
21
-1.3156750703
31
0.0000000000
11
-0.0962546872
21
-1.2694059103
31
0.0000000000
11
-0.1805902452
21
-1.2156196776
31
0.0000000000
11
-0.2640096801
21
-1.1546173212
31
0.0000000000
11
-0.3460431758
21
-1.0867401265
31
0.0000000000
11
-0.4262284287
21
-1.0123672987
31
0.0000000000
11
-0.5041122392
21
-0.9319148150
31
0.0000000000
11
-0.5792543768
21
-0.8458319686
31
0.0000000000
11
-0.6512291099
21
-0.7545998704
31
0.0000000000
11
-0.7196280972
21
-0.6587283956
31
0.0000000000
11
-0.7840620293
21
-0.5587545275
31
0.0000000000
11
-0.8441637151
21
-0.4552385168
31
0.0000000000
11
-0.8995908319
21
-0.3487596034
31
0.0000000000
11
-0.9500272633
21
-0.2399136540
31
0.0000000000
11
-0.9951848205
21
-0.1293101292
31
0.0000000000
11
-1.0348045263
21
-0.0175700697
31
0.0000000000
11
-1.0686576195
21
0.0946740453
31
0.0000000000
11
-1.0965478424
21
0.2067803674
31
0.0000000000
11
-1.1183173609
21
0.3181225911
31
0.0000000000
0
SPLINE
5
2CD
100
AcDbEntity
8
0
100
AcDbSpline
62
9
6
CONTINUOUS
70
0
71
3
72
19
73
15
74
13
42
0.0000001000
43
0.0000001000
44
0.0000000001
12
-0.0000000001
22
0.2938974480
32
0.0000000000
13
-0.2609890933
23
0.1351310590
33
0.0000000000
40
0.0000000000
40
0.0000000000
40
0.0000000000
40
0.0000000000
40
0.0791214889
40
0.1618595825
40
0.2474876376
40
0.3351618415
40
0.4239606769
40
0.5129215675
40
0.6010761111
40
0.6874851176
40
0.7712746391
40
0.8516743210
40
0.9280596655
40
1.0000000000
40
1.0000000000
40
1.0000000000
40
1.0000000000
10
16.1327406028
20
-7.7513911355
30
0.0000000000
10
16.1327406028
20
-7.7436399343
30
0.0000000000
10
16.1318896023
20
-7.7277746721
30
0.0000000000
10
16.1283066005
20
-7.7037642890
30
0.0000000000
10
16.1224472441
20
-7.6793435683
30
0.0000000000
10
16.1144109604
20
-7.6549273518
30
0.0000000000
10
16.1043336825
20
-7.6309266980
30
0.0000000000
10
16.0923858159
20
-7.6077475437
30
0.0000000000
10
16.0787693439
20
-7.5857817053
30
0.0000000000
10
16.0637139888
20
-7.5654002834
30
0.0000000000
10
16.0474734875
20
-7.5469473647
30
0.0000000000
10
16.0303183369
20
-7.5307331059
30
0.0000000000
10
16.0125380578
20
-7.5170329479
30
0.0000000000
10
16.0000674762
20
-7.5094925326
30
0.0000000000
10
15.9938089287
20
-7.5062520747
30
0.0000000000
11
16.1327406028
21
-7.7513911355
31
0.0000000000
11
16.1315520228
21
-7.7281679281
31
0.0000000000
11
16.1280066198
21
-7.7041112659
31
0.0000000000
11
16.1221650567
21
-7.6796327652
31
0.0000000000
11
16.1141272844
21
-7.6551512602
31
0.0000000000
11
16.1040308317
21
-7.6310856362
31
0.0000000000
11
16.0920484517
21
-7.6078476631
31
0.0000000000
11
16.0783851665
21
-7.5858349488
31
0.0000000000
11
16.0632747588
21
-7.5654241370
31
0.0000000000
11
16.0469757722
21
-7.5469644623
31
0.0000000000
11
16.0297670869
21
-7.5307717745
31
0.0000000000
11
16.0119431482
21
-7.5171231347
31
0.0000000000
11
15.9938089287
21
-7.5062520747
31
0.0000000000
0
SPLINE
5
2CE
100
AcDbEntity
8
0
100
AcDbSpline
62
9
6
CONTINUOUS
70
0
71
3
72
19
73
15
74
13
42
0.0000001000
43
0.0000001000
44
0.0000000001
12
-0.0002810184
22
0.2946697021
32
0.0000000000
13
0.2635607143
23
0.1317803557
33
0.0000000000
40
0.0000000000
40
0.0000000000
40
0.0000000000
40
0.0000000000
40
0.0789078210
40
0.1613918382
40
0.2467547804
40
0.3341797274
40
0.4227695971
40
0.5115838351
40
0.5996736546
40
0.6861170098
40
0.7700544455
40
0.8507270827
40
0.9275182010
40
1.0000000000
40
1.0000000000
40
1.0000000000
40
1.0000000000
10
15.0113282768
20
-7.7467002280
30
0.0000000000
10
15.0113208853
20
-7.7389496466
30
0.0000000000
10
15.0121731607
20
-7.7230874483
30
0.0000000000
10
15.0158050601
20
-7.6990914252
30
0.0000000000
10
15.0217587126
20
-7.6747020232
30
0.0000000000
10
15.0299328146
20
-7.6503341378
30
0.0000000000
10
15.0401888396
20
-7.6263984301
30
0.0000000000
10
15.0523531061
20
-7.6033002368
30
0.0000000000
10
15.0662197057
20
-7.5814305161
30
0.0000000000
10
15.0815543987
20
-7.5611592917
30
0.0000000000
10
15.0980983996
20
-7.5428293651
30
0.0000000000
10
15.1155756915
20
-7.5267494801
30
0.0000000000
10
15.1336907538
20
-7.5131934446
30
0.0000000000
10
15.1463817524
20
-7.5057662015
30
0.0000000000
10
15.1527495373
20
-7.5025823091
30
0.0000000000
11
15.0113282768
21
-7.7467002280
31
0.0000000000
11
15.0125183857
21
-7.7234789503
31
0.0000000000
11
15.0161114513
21
-7.6994404452
31
0.0000000000
11
15.0220459039
21
-7.6749966288
31
0.0000000000
11
15.0302200527
21
-7.6505663626
31
0.0000000000
11
15.0404938279
21
-7.6265682759
31
0.0000000000
11
15.0526911815
21
-7.6034135925
31
0.0000000000
11
15.0666031034
21
-7.5814990835
31
0.0000000000
11
15.0819912034
21
-7.5612002692
31
0.0000000000
11
15.0985917958
21
-7.5428649836
31
0.0000000000
11
15.1161204181
21
-7.5268074142
31
0.0000000000
11
15.1342767054
21
-7.5133027187
31
0.0000000000
11
15.1527495373
21
-7.5025823091
31
0.0000000000
0
SPLINE
5
2CF
100
AcDbEntity
8
0
100
AcDbSpline
62
9
6
CONTINUOUS
70
0
71
3
72
20
73
16
74
14
42
0.0000001000
43
0.0000001000
44
0.0000000001
12
-0.0002810326
22
0.2946851610
32
0.0000000000
13
0.2635745408
23
0.1317872700
33
0.0000000000
40
0.0000000000
40
0.0000000000
40
0.0000000000
40
0.0000000000
40
0.0726351665
40
0.1484265436
40
0.2267712851
40
0.3070473060
40
0.3885574289
40
0.4705708278
40
0.5523395394
40
0.6331238445
40
0.7122151463
40
0.7889606910
40
0.8627896696
40
0.9332418845
40
1.0000000000
40
1.0000000000
40
1.0000000000
40
1.0000000000
10
1.0896221799
20
-0.7858471793
30
0.0000000000
10
1.0896153756
20
-0.7787123441
30
0.0000000000
10
1.0903361782
20
-0.7641247202
30
0.0000000000
10
1.0934290477
20
-0.7420390158
30
0.0000000000
10
1.0985146277
20
-0.7195554891
30
0.0000000000
10
1.1055182097
20
-0.6970072519
30
0.0000000000
10
1.1143385708
20
-0.6747186820
30
0.0000000000
10
1.1248480148
20
-0.6530124659
30
0.0000000000
10
1.1368946411
20
-0.6322022893
30
0.0000000000
10
1.1503043795
20
-0.6125890371
30
0.0000000000
10
1.1648839072
20
-0.5944559929
30
0.0000000000
10
1.1804232388
20
-0.5780649930
30
0.0000000000
10
1.1967009521
20
-0.5636518563
30
0.0000000000
10
1.2134818540
20
-0.5514263585
30
0.0000000000
10
1.2251781935
20
-0.5446618840
30
0.0000000000
10
1.2310434401
20
-0.5417292608
30
0.0000000000
11
1.0896221799
21
-0.7858471793
31
0.0000000000
11
1.0906330248
21
-0.7644665461
31
0.0000000000
11
1.0936944653
21
-0.7423427550
31
0.0000000000
11
1.0987618085
21
-0.7198186879
31
0.0000000000
11
1.1057615592
21
-0.6972218401
31
0.0000000000
11
1.1145911935
21
-0.6748837557
31
0.0000000000
11
1.1251218462
21
-0.6531304922
31
0.0000000000
11
1.1371996548
21
-0.6322799399
31
0.0000000000
11
1.1506482211
21
-0.6126366415
31
0.0000000000
11
1.1652710992
21
-0.5944875447
31
0.0000000000
11
1.1808546960
21
-0.5780977560
31
0.0000000000
11
1.1971713822
21
-0.5637066836
31
0.0000000000
11
1.2139828122
21
-0.5515245424
31
0.0000000000
11
1.2310434401
21
-0.5417292608
31
0.0000000000
0
SPLINE
5
2D0
100
AcDbEntity
8
0
100
AcDbSpline
62
9
6
CONTINUOUS
70
0
71
3
72
17
73
13
74
11
42
0.0000001000
43
0.0000001000
44
0.0000000001
12
0.2277961320
22
-0.1138980660
32
0.0000000000
13
0.0421208596
23
-0.2511765921
33
0.0000000000
40
0.0000000000
40
0.0000000000
40
0.0000000000
40
0.0000000000
40
0.0865187990
40
0.1783218317
40
0.2748549510
40
0.3753212012
40
0.4787431795
40
0.5840184122
40
0.6899700003
40
0.7953945855
40
0.8991093946
40
1.0000000000
40
1.0000000000
40
1.0000000000
40
1.0000000000
10
-0.9768967769
20
0.5622408474
30
0.0000000000
10
-0.9703272276
20
0.5589560727
30
0.0000000000
10
-0.9572374424
20
0.5512591064
30
0.0000000000
10
-0.9385925325
20
0.5371580512
30
0.0000000000
10
-0.9206451907
20
0.5203942014
30
0.0000000000
10
-0.9037175041
20
0.5012704739
30
0.0000000000
10
-0.8881092812
20
0.4801288104
30
0.0000000000
10
-0.8741002045
20
0.4573487208
30
0.0000000000
10
-0.8619415879
20
0.4333396123
30
0.0000000000
10
-0.8518517954
20
0.4085320981
30
0.0000000000
10
-0.8440128030
20
0.3833748555
30
0.0000000000
10
-0.8403170463
20
0.3663733657
30
0.0000000000
10
-0.8389005133
20
0.3579262462
30
0.0000000000
11
-0.9768967769
21
0.5622408474
31
0.0000000000
11
-0.9578591461
21
0.5511454830
31
0.0000000000
11
-0.9391680843
21
0.5370990053
31
0.0000000000
11
-0.9211638515
21
0.5203571224
31
0.0000000000
11
-0.9041742042
21
0.5012246104
31
0.0000000000
11
-0.8885084292
21
0.4800497656
31
0.0000000000
11
-0.8744517127
21
0.4572180638
31
0.0000000000
11
-0.8622599492
21
0.4331451429
31
0.0000000000
11
-0.8521550825
21
0.4082692363
31
0.0000000000
11
-0.8443210660
21
0.3830431957
31
0.0000000000
11
-0.8389005133
21
0.3579262462
31
0.0000000000
0
SPLINE
5
2D1
100
AcDbEntity
8
0
100
AcDbSpline
62
9
6
CONTINUOUS
70
0
71
3
72
14
73
10
74
8
42
0.0000001000
43
0.0000001000
44
0.0000000001
12
0.0000000000
22
-0.1263298793
32
0.0000000000
13
-0.1139608549
23
-0.0550738791
33
0.0000000000
40
0.0000000000
40
0.0000000000
40
0.0000000000
40
0.0000000000
40
0.1743410950
40
0.3381289420
40
0.4911650238
40
0.6340205790
40
0.7681650765
40
0.8960149555
40
1.0000000000
40
1.0000000000
40
1.0000000000
40
1.0000000000
10
16.1327406028
20
-7.1451733529
30
0.0000000000
10
16.1327406028
20
-7.1525148494
30
0.0000000000
10
16.1320170568
20
-7.1667689509
30
0.0000000000
10
16.1285484845
20
-7.1872116810
30
0.0000000000
10
16.1227727556
20
-7.2057568569
30
0.0000000000
10
16.1147627708
20
-7.2220892589
30
0.0000000000
10
16.1046214518
20
-7.2359180605
30
0.0000000000
10
16.0931469240
20
-7.2463726621
30
0.0000000000
10
16.0847265833
20
-7.2514316721
30
0.0000000000
10
16.0807765084
20
-7.2533406253
30
0.0000000000
11
16.1327406028
21
-7.1451733529
31
0.0000000000
11
16.1315520230
21
-7.1671657474
31
0.0000000000
11
16.1280066208
21
-7.1875510355
31
0.0000000000
11
16.1221650588
21
-7.2059804195
31
0.0000000000
11
16.1141272878
21
-7.2221385673
31
0.0000000000
11
16.1040308364
21
-7.2357490086
31
0.0000000000
11
16.0920484575
21
-7.2465788651
31
0.0000000000
11
16.0807765084
21
-7.2533406253
31
0.0000000000
0
SPLINE
5
2D2
100
AcDbEntity
8
0
100
AcDbSpline
62
9
6
CONTINUOUS
70
0
71
3
72
10
73
6
74
4
42
0.0000001000
43
0.0000001000
44
0.0000000001
12
0.1204304767
22
-0.0602154216
32
0.0000000000
13
0.1278575667
23
-0.0422640259
33
0.0000000000
40
0.0000000000
40
0.0000000000
40
0.0000000000
40
0.0000000000
40
0.4155908668
40
0.8508264715
40
1.0000000000
40
1.0000000000
40
1.0000000000
40
1.0000000000
10
15.0113283144
20
-7.1400780103
30
0.0000000000
10
15.0280115831
20
-7.1484196700
30
0.0000000000
10
15.0627769696
20
-7.1642970163
30
0.0000000000
10
15.1047076941
20
-7.1803721780
30
0.0000000000
10
15.1295383798
20
-7.1888358811
30
0.0000000000
10
15.1358960345
20
-7.1909374390
30
0.0000000000
11
15.0113283144
21
-7.1400780103
31
0.0000000000
11
15.0621914788
21
-7.1634054876
31
0.0000000000
11
15.1168832913
21
-7.1844544265
31
0.0000000000
11
15.1358960345
21
-7.1909374390
31
0.0000000000
0
SPLINE
5
2D3
100
AcDbEntity
8
0
100
AcDbSpline
62
9
6
CONTINUOUS
70
0
71
3
72
21
73
17
74
15
42
0.0000001000
43
0.0000001000
44
0.0000000001
12
0.8388872329
22
-0.2772988148
32
0.0000000000
13
0.8420295829
23
0.2675953883
33
0.0000000000
40
0.0000000000
40
0.0000000000
40
0.0000000000
40
0.0000000000
40
0.0463433408
40
0.1178605375
40
0.1914738270
40
0.2668096308
40
0.3434689634
40
0.4210352349
40
0.4990800495
40
0.5771683682
40
0.6548645819
40
0.7317385802
40
0.8073708879
40
0.8813584021
40
0.9533221127
40
1.0000000000
40
1.0000000000
40
1.0000000000
40
1.0000000000
10
15.1358960345
20
-7.1909374390
30
0.0000000000
10
15.1488549802
20
-7.1952210902
30
0.0000000000
10
15.1820181597
20
-7.2054934846
30
0.0000000000
10
15.2365896345
20
-7.2197726875
30
0.0000000000
10
15.3001616079
20
-7.2330667537
30
0.0000000000
10
15.3657841531
20
-7.2435814722
30
0.0000000000
10
15.4329716787
20
-7.2512388090
30
0.0000000000
10
15.5012265078
20
-7.2559818278
30
0.0000000000
10
15.5700429768
20
-7.2577752602
30
0.0000000000
10
15.6389111112
20
-7.2566057600
30
0.0000000000
10
15.7073205424
20
-7.2524820328
30
0.0000000000
10
15.7747644268
20
-7.2454347457
30
0.0000000000
10
15.8407431298
20
-7.2355163104
30
0.0000000000
10
15.9047683287
20
-7.2228003576
30
0.0000000000
10
15.9598183127
20
-7.2090204470
30
0.0000000000
10
15.9933151947
20
-7.1990563688
30
0.0000000000
10
16.0064165820
20
-7.1948927730
30
0.0000000000
11
15.1358960345
21
-7.1909374390
31
0.0000000000
11
15.1750009960
21
-7.2030701276
31
0.0000000000
11
15.2361101125
21
-7.2191132734
31
0.0000000000
11
15.2997564827
21
-7.2324646956
31
0.0000000000
11
15.3654667114
21
-7.2430250461
31
0.0000000000
11
15.4327512594
21
-7.2507156350
31
0.0000000000
11
15.5011093298
21
-7.2554792406
31
0.0000000000
11
15.5700324022
21
-7.2572804313
31
0.0000000000
11
15.6390074375
21
-7.2561057950
31
0.0000000000
11
15.7075210081
21
-7.2519640810
31
0.0000000000
11
15.7750634360
21
-7.2448860952
31
0.0000000000
11
15.8411320080
21
-7.2349245005
31
0.0000000000
11
15.9052345136
21
-7.2221535262
31
0.0000000000
11
15.9668941533
21
-7.2066682070
31
0.0000000000
11
16.0064165820
21
-7.1948927730
31
0.0000000000
0
SPLINE
5
2D4
100
AcDbEntity
8
0
100
AcDbSpline
62
9
6
CONTINUOUS
70
0
71
3
72
10
73
6
74
4
42
0.0000001000
43
0.0000001000
44
0.0000000001
12
0.1294835330
22
0.0411496187
32
0.0000000000
13
0.1223519015
23
0.0590332667
33
0.0000000000
40
0.0000000000
40
0.0000000000
40
0.0000000000
40
0.0000000000
40
0.1490059516
40
0.5840858509
40
1.0000000000
40
1.0000000000
40
1.0000000000
40
1.0000000000
10
16.0064165820
20
-7.1948927730
30
0.0000000000
10
16.0128478544
20
-7.1928489270
30
0.0000000000
10
16.0379844882
20
-7.1846074134
30
0.0000000000
10
16.0804848454
20
-7.1689086722
30
0.0000000000
10
16.1157779336
20
-7.1533575891
30
0.0000000000
10
16.1327405626
20
-7.1451733321
30
0.0000000000
11
16.0064165820
21
-7.1948927730
31
0.0000000000
11
16.0256526956
21
-7.1885835587
31
0.0000000000
11
16.0810708229
21
-7.1680349506
31
0.0000000000
11
16.1327405626
21
-7.1451733321
31
0.0000000000
0
SPLINE
5
2D5
100
AcDbEntity
8
0
100
AcDbSpline
62
9
6
CONTINUOUS
70
0
71
3
72
14
73
10
74
8
42
0.0000001000
43
0.0000001000
44
0.0000000001
12
-0.0001204308
22
-0.1264016053
32
0.0000000000
13
0.1132496087
23
-0.0566738679
33
0.0000000000
40
0.0000000000
40
0.0000000000
40
0.0000000000
40
0.0000000000
40
0.1745490602
40
0.3387776108
40
0.4925528552
40
0.6365031099
40
0.7721320370
40
0.9018478621
40
1.0000000000
40
1.0000000000
40
1.0000000000
40
1.0000000000
10
15.0113282768
20
-7.1400780295
30
0.0000000000
10
15.0113212698
20
-7.1474324567
30
0.0000000000
10
15.0120464802
20
-7.1617231913
30
0.0000000000
10
15.0155644397
20
-7.1822304130
30
0.0000000000
10
15.0214366137
20
-7.2008591338
30
0.0000000000
10
15.0295882046
20
-7.2172906264
30
0.0000000000
10
15.0399120830
20
-7.2312303718
30
0.0000000000
10
15.0513490297
20
-7.2415794592
30
0.0000000000
10
15.0595957158
20
-7.2465971283
30
0.0000000000
10
15.0633009462
20
-7.2484513487
30
0.0000000000
11
15.0113282768
21
-7.1400780295
31
0.0000000000
11
15.0125183859
21
-7.1621091999
31
0.0000000000
11
15.0161114522
21
-7.1825546412
31
0.0000000000
11
15.0220459058
21
-7.2010640061
31
0.0000000000
11
15.0302200557
21
-7.2173201240
31
0.0000000000
11
15.0404938322
21
-7.2310444351
31
0.0000000000
11
15.0526911869
21
-7.2420017642
31
0.0000000000
11
15.0633009462
21
-7.2484513487
31
0.0000000000
0
SPLINE
5
2D6
100
AcDbEntity
8
0
100
AcDbSpline
62
9
6
CONTINUOUS
70
0
71
3
72
14
73
10
74
8
42
0.0000001000
43
0.0000001000
44
0.0000000001
12
-0.0001123099
22
-0.1178782288
32
0.0000000000
13
0.0989099946
23
-0.0644584428
33
0.0000000000
40
0.0000000000
40
0.0000000000
40
0.0000000000
40
0.0000000000
40
0.1731721717
40
0.3369447921
40
0.4911377178
40
0.6361475339
40
0.7730363719
40
0.9035768723
40
1.0000000000
40
1.0000000000
40
1.0000000000
40
1.0000000000
10
1.0896221799
20
-0.1792249813
30
0.0000000000
10
1.0896156969
20
-0.1860293909
30
0.0000000000
10
1.0902374159
20
-0.1992818723
30
0.0000000000
10
1.0932414656
20
-0.2183865818
30
0.0000000000
10
1.0982582700
20
-0.2359266314
30
0.0000000000
10
1.1052306291
20
-0.2516472101
30
0.0000000000
10
1.1140779564
20
-0.2653140268
30
0.0000000000
10
1.1238776995
20
-0.2758339306
30
0.0000000000
10
1.1309957188
20
-0.2812717220
30
0.0000000000
10
1.1341747892
20
-0.2833434835
30
0.0000000000
11
1.0896221799
21
-0.1792249813
31
0.0000000000
11
1.0906349159
21
-0.1996130822
31
0.0000000000
11
1.0936981653
21
-0.2186737382
31
0.0000000000
11
1.0987671926
21
-0.2361285896
31
0.0000000000
11
1.1057679702
21
-0.2517227273
31
0.0000000000
11
1.1145982593
21
-0.2652284159
31
0.0000000000
11
1.1251291033
21
-0.2764484196
31
0.0000000000
11
1.1341747892
21
-0.2833434835
31
0.0000000000
0
SPLINE
5
2D7
100
AcDbEntity
8
0
100
AcDbSpline
62
9
6
CONTINUOUS
70
0
71
3
72
9
73
5
74
3
42
0.0000001000
43
0.0000001000
44
0.0000000001
12
0.0071754835
22
-0.0046761755
32
0.0000000000
13
0.0076618378
23
-0.0038294788
33
0.0000000000
40
0.0000000000
40
0.0000000000
40
0.0000000000
40
0.0000000000
40
0.4162925364
40
1.0000000000
40
1.0000000000
40
1.0000000000
40
1.0000000000
10
1.1341747892
20
-0.2833434835
30
0.0000000000
10
1.1351704892
20
-0.2839923692
30
0.0000000000
10
1.1375988548
20
-0.2854949101
30
0.0000000000
10
1.1401103158
20
-0.2868561935
30
0.0000000000
10
1.1416010731
20
-0.2876012919
30
0.0000000000
11
1.1341747892
21
-0.2833434835
31
0.0000000000
11
1.1372067106
21
-0.2852188825
31
0.0000000000
11
1.1416010731
21
-0.2876012919
31
0.0000000000
0
SPLINE
5
2D8
100
AcDbEntity
8
0
100
AcDbSpline
62
9
6
CONTINUOUS
70
0
71
3
72
16
73
12
74
10
42
0.0000001000
43
0.0000001000
44
0.0000000001
12
0.1252427287
22
0.6182983342
32
0.0000000000
13
0.5645089882
23
0.2824829838
33
0.0000000000
40
0.0000000000
40
0.0000000000
40
0.0000000000
40
0.0000000000
40
0.1280801559
40
0.2514326187
40
0.3702357752
40
0.4847802980
40
0.5955025872
40
0.7029798186
40
0.8079179329
40
0.9111317311
40
1.0000000000
40
1.0000000000
40
1.0000000000
40
1.0000000000
10
-0.8389005219
20
0.8883668018
30
0.0000000000
10
-0.8335534858
20
0.9147640508
30
0.0000000000
10
-0.8211400721
20
0.9662232865
30
0.0000000000
10
-0.7967965355
20
1.0402673050
30
0.0000000000
10
-0.7672058920
20
1.1093053193
30
0.0000000000
10
-0.7325263305
20
1.1729357271
30
0.0000000000
10
-0.6929445309
20
1.2307894560
30
0.0000000000
10
-0.6486761397
20
1.2825252567
30
0.0000000000
10
-0.5999678446
20
1.3278317072
30
0.0000000000
10
-0.5494008833
20
1.3647500662
30
0.0000000000
10
-0.5142163588
20
1.3847553364
30
0.0000000000
10
-0.4974940466
20
1.3931232610
30
0.0000000000
11
-0.8389005219
21
0.8883668018
31
0.0000000000
11
-0.8198379159
21
0.9668860160
31
0.0000000000
11
-0.7954163251
21
1.0407721461
31
0.0000000000
11
-0.7657738154
21
1.1096086682
31
0.0000000000
11
-0.7310831627
21
1.1729980652
31
0.0000000000
11
-0.6915449578
21
1.2305803448
31
0.0000000000
11
-0.6473860972
21
1.2820311649
31
0.0000000000
11
-0.5988591869
21
1.3270609565
31
0.0000000000
11
-0.5462416528
21
1.3654158245
31
0.0000000000
11
-0.4974940466
21
1.3931232610
31
0.0000000000
0
SPLINE
5
2D9
100
AcDbEntity
8
0
100
AcDbSpline
62
9
6
CONTINUOUS
70
0
71
3
72
20
73
16
74
14
42
0.0000001000
43
0.0000001000
44
0.0000000001
12
0.2329451090
22
-0.1805021384
32
0.0000000000
13
0.2637014835
23
0.1315521699
33
0.0000000000
40
0.0000000000
40
0.0000000000
40
0.0000000000
40
0.0000000000
40
0.0731816512
40
0.1493377912
40
0.2279344270
40
0.3083497133
40
0.3899003569
40
0.4718662551
40
0.5535141201
40
0.6341207498
40
0.7129965690
40
0.7895100934
40
0.8631140504
40
0.9333739681
40
1.0000000000
40
1.0000000000
40
1.0000000000
40
1.0000000000
10
-1.1183180367
20
0.9247451267
30
0.0000000000
10
-1.1126356008
20
0.9203419785
30
0.0000000000
10
-1.1005822256
20
0.9119351699
30
0.0000000000
10
-1.0811189399
20
0.9008141847
30
0.0000000000
10
-1.0601500017
20
0.8910595177
30
0.0000000000
10
-1.0379797411
20
0.8828126465
30
0.0000000000
10
-1.0149271475
20
0.8761915895
30
0.0000000000
10
-0.9913250851
20
0.8712918910
30
0.0000000000
10
-0.9675142023
20
0.8681842363
30
0.0000000000
10
-0.9438381328
20
0.8669135885
30
0.0000000000
10
-0.9206380800
20
0.8674986204
30
0.0000000000
10
-0.8982481815
20
0.8699314316
30
0.0000000000
10
-0.8769887416
20
0.8741789851
30
0.0000000000
10
-0.8571678418
20
0.8801811164
30
0.0000000000
10
-0.8447569745
20
0.8854452064
30
0.0000000000
10
-0.8389005133
20
0.8883668061
30
0.0000000000
11
-1.1183180367
21
0.9247451267
31
0.0000000000
11
-1.1006545517
21
0.9123717108
31
0.0000000000
11
-1.0811858216
21
0.9012072454
31
0.0000000000
11
-1.0601958378
21
0.8914145867
31
0.0000000000
11
-1.0379907822
21
0.8831365804
31
0.0000000000
11
-1.0148945604
21
0.8764939773
31
0.0000000000
11
-0.9912440770
21
0.8715836726
31
0.0000000000
11
-0.9673843212
21
0.8684772924
31
0.0000000000
11
-0.9436633349
21
0.8672201489
31
0.0000000000
11
-0.9204271356
21
0.8678305796
31
0.0000000000
11
-0.8980146687
21
0.8702996798
31
0.0000000000
11
-0.8767528641
21
0.8745914325
31
0.0000000000
11
-0.8569518669
21
0.8806432337
31
0.0000000000
11
-0.8389005133
21
0.8883668061
31
0.0000000000
0
SPLINE
5
2DA
100
AcDbEntity
8
0
100
AcDbSpline
62
9
6
CONTINUOUS
70
0
71
3
72
24
73
20
74
18
42
0.0000001000
43
0.0000001000
44
0.0000000001
12
0.2661985713
22
1.3159959117
32
0.0000000000
13
1.2568624078
23
-0.4733408042
33
0.0000000000
40
0.0000000000
40
0.0000000000
40
0.0000000000
40
0.0000000000
40
0.0688175513
40
0.1350908163
40
0.1989150652
40
0.2604458009
40
0.3199170330
40
0.3776386443
40
0.4339899929
40
0.4894092494
40
0.5443777343
40
0.5993980351
40
0.6549699232
40
0.7115669345
40
0.7696151451
40
0.8294790700
40
0.8914522392
40
0.9557554128
40
1.0000000000
40
1.0000000000
40
1.0000000000
40
1.0000000000
10
-1.1183175120
20
0.9247448647
30
0.0000000000
10
-1.1122111341
20
0.9549327367
30
0.0000000000
10
-1.0980358643
20
1.0137809976
30
0.0000000000
10
-1.0702343094
20
1.0984586719
30
0.0000000000
10
-1.0364400376
20
1.1774115105
30
0.0000000000
10
-0.9968328166
20
1.2501804839
30
0.0000000000
10
-0.9516254666
20
1.3163438178
30
0.0000000000
10
-0.9010636758
20
1.3755115333
30
0.0000000000
10
-0.8454285890
20
1.4273277301
30
0.0000000000
10
-0.7850396554
20
1.4714737620
30
0.0000000000
10
-0.7202550208
20
1.5076754008
30
0.0000000000
10
-0.6514678221
20
1.5357107681
30
0.0000000000
10
-0.5790985499
20
1.5554161603
30
0.0000000000
10
-0.5035857927
20
1.5666874523
30
0.0000000000
10
-0.4253780686
20
1.5694773981
30
0.0000000000
10
-0.3449293559
20
1.5637907618
30
0.0000000000
10
-0.2626967173
20
1.5496797130
30
0.0000000000
10
-0.1888944041
20
1.5298600661
30
0.0000000000
10
-0.1429583332
20
1.5139548814
30
0.0000000000
10
-0.1244218804
20
1.5069739585
30
0.0000000000
11
-1.1183175120
21
0.9247448647
31
0.0000000000
11
-1.0965477000
21
1.0145414933
31
0.0000000000
11
-1.0686568171
21
1.0990391265
31
0.0000000000
11
-1.0348026352
21
1.1777619545
31
0.0000000000
11
-0.9951821172
21
1.2502555378
31
0.0000000000
11
-0.9500239351
21
1.3161084185
31
0.0000000000
11
-0.8995867702
21
1.3749499278
31
0.0000000000
11
-0.8441586452
21
1.4264491781
31
0.0000000000
11
-0.7840559210
21
1.4703160845
31
0.0000000000
11
-0.7196210938
21
1.5063034972
31
0.0000000000
11
-0.6512213023
21
1.5342083950
31
0.0000000000
11
-0.5792458299
21
1.5538734273
31
0.0000000000
11
-0.5041029521
21
1.5651879236
31
0.0000000000
11
-0.4262185456
21
1.5680880977
31
0.0000000000
11
-0.3460327990
21
1.5625574655
31
0.0000000000
11
-0.2639989675
21
1.5486269402
31
0.0000000000
11
-0.1805793009
21
1.5263745537
31
0.0000000000
11
-0.1244218804
21
1.5069739585
31
0.0000000000
0
SPLINE
5
2DB
100
AcDbEntity
8
0
100
AcDbSpline
62
9
6
CONTINUOUS
70
0
71
3
72
24
73
20
74
18
42
0.0000001000
43
0.0000001000
44
0.0000000001
12
1.6724360275
22
-0.8876780865
32
0.0000000000
13
0.4063252858
23
-1.8491671912
33
0.0000000000
40
0.0000000000
40
0.0000000000
40
0.0000000000
40
0.0000000000
40
0.0342113682
40
0.0870205894
40
0.1415680175
40
0.1977596062
40
0.2554743040
40
0.3145670452
40
0.3748730855
40
0.4362104990
40
0.4983836643
40
0.5611855610
40
0.6244010094
40
0.6878097831
40
0.7511889721
40
0.8143161716
40
0.8769713441
40
0.9389369718
40
1.0000000000
40
1.0000000000
40
1.0000000000
40
1.0000000000
10
0.0168037796
20
1.4428798463
30
0.0000000000
10
0.0358758879
20
1.4327569523
30
0.0000000000
10
0.0837617551
20
1.4058279498
30
0.0000000000
10
0.1590334068
20
1.3576011625
30
0.0000000000
10
0.2422334013
20
1.2964311961
30
0.0000000000
10
0.3239713895
20
1.2283828222
30
0.0000000000
10
0.4037953472
20
1.1538368456
30
0.0000000000
10
0.4812635008
20
1.0732102050
30
0.0000000000
10
0.5559466286
20
0.9869541189
30
0.0000000000
10
0.6274307996
20
0.8955514348
30
0.0000000000
10
0.6953194045
20
0.7995144488
30
0.0000000000
10
0.7592355841
20
0.6993819714
30
0.0000000000
10
0.8188244823
20
0.5957162126
30
0.0000000000
10
0.8737553847
20
0.4890993003
30
0.0000000000
10
0.9237236583
20
0.3801296450
30
0.0000000000
10
0.9684521664
20
0.2694187017
30
0.0000000000
10
1.0076921146
20
0.1575896987
30
0.0000000000
10
1.0412241078
20
0.0452749149
30
0.0000000000
10
1.0598048567
20
-0.0301313572
30
0.0000000000
10
1.0680753408
20
-0.0677699400
30
0.0000000000
11
0.0168037796
21
1.4428798463
31
0.0000000000
11
0.0732777583
21
1.4111634399
31
0.0000000000
11
0.1575122188
21
1.3573268034
31
0.0000000000
11
0.2407657537
21
1.2962416638
31
0.0000000000
11
0.3225722548
21
1.2282511734
31
0.0000000000
11
0.4024745246
21
1.1537370658
31
0.0000000000
11
0.4800257425
21
1.0731184527
31
0.0000000000
11
0.5547931140
21
0.9868483706
31
0.0000000000
11
0.6263592377
21
0.8954122338
31
0.0000000000
11
0.6943249445
21
0.7993245238
31
0.0000000000
11
0.7583108152
21
0.6991268542
31
0.0000000000
11
0.8179598121
21
0.5953843031
31
0.0000000000
11
0.8729395448
21
0.4886815727
31
0.0000000000
11
0.9229436933
21
0.3796201821
31
0.0000000000
11
0.9676940015
21
0.2688141595
31
0.0000000000
11
1.0069410768
21
0.1568879902
31
0.0000000000
11
1.0404645749
21
0.0444778664
31
0.0000000000
11
1.0680753408
21
-0.0677699400
31
0.0000000000
0
SPLINE
5
2DC
100
AcDbEntity
8
0
100
AcDbSpline
62
9
6
CONTINUOUS
70
0
71
3
72
8
73
4
74
2
42
0.0000001000
43
0.0000001000
44
0.0000000001
12
0.0162891230
22
-0.0741310299
32
0.0000000000
13
0.0137685209
23
-0.0746372126
33
0.0000000000
40
0.0000000000
40
0.0000000000
40
0.0000000000
40
0.0000000000
40
1.0000000000
40
1.0000000000
40
1.0000000000
40
1.0000000000
10
1.0680753408
20
-0.0677699400
30
0.0000000000
10
1.0735050485
20
-0.0924802832
30
0.0000000000
10
1.0785245469
20
-0.1172820255
30
0.0000000000
10
1.0831140539
20
-0.1421610963
30
0.0000000000
11
1.0680753408
21
-0.0677699400
31
0.0000000000
11
1.0831140539
21
-0.1421610963
31
0.0000000000
0
SPLINE
5
2DD
100
AcDbEntity
8
0
100
AcDbSpline
62
9
6
CONTINUOUS
70
0
71
3
72
13
73
9
74
7
42
0.0000001000
43
0.0000001000
44
0.0000000001
12
-0.0691986488
22
0.0152646012
32
0.0000000000
13
-0.0117864269
23
0.0701476716
33
0.0000000000
40
0.0000000000
40
0.0000000000
40
0.0000000000
40
0.0000000000
40
0.2280928431
40
0.4300259673
40
0.6056590812
40
0.7570117326
40
0.8890715720
40
1.0000000000
40
1.0000000000
40
1.0000000000
40
1.0000000000
10
1.0896221799
20
-0.1792249816
30
0.0000000000
10
1.0843609410
20
-0.1780643995
30
0.0000000000
10
1.0745390482
20
-0.1754032244
30
0.0000000000
10
1.0611477229
20
-0.1702833146
30
0.0000000000
10
1.0501539430
20
-0.1642408362
30
0.0000000000
10
1.0416946163
20
-0.1573310677
30
0.0000000000
10
1.0360768660
20
-0.1497413861
30
0.0000000000
10
1.0342039267
20
-0.1442077400
30
0.0000000000
10
1.0337681101
20
-0.1416139497
30
0.0000000000
11
1.0896221799
21
-0.1792249816
31
0.0000000000
11
1.0740298601
21
-0.1749673026
31
0.0000000000
11
1.0607093155
21
-0.1697401485
31
0.0000000000
11
1.0498716464
21
-0.1636211705
31
0.0000000000
11
1.0416771213
21
-0.1567016687
31
0.0000000000
11
1.0362450748
21
-0.1490815537
31
0.0000000000
11
1.0337681101
21
-0.1416139497
31
0.0000000000
0
SPLINE
5
2DE
100
AcDbEntity
8
0
100
AcDbSpline
62
9
6
CONTINUOUS
70
0
71
3
72
16
73
12
74
10
42
0.0000001000
43
0.0000001000
44
0.0000000001
12
0.0278666529
22
-0.3703819364
32
0.0000000000
13
0.3318110825
23
-0.1659050364
33
0.0000000000
40
0.0000000000
40
0.0000000000
40
0.0000000000
40
0.0000000000
40
0.0623239206
40
0.1579255743
40
0.2575953612
40
0.3628377145
40
0.4747806530
40
0.5941828088
40
0.7214696584
40
0.8567729059
40
1.0000000000
40
1.0000000000
40
1.0000000000
40
1.0000000000
10
-15.2737740579
20
8.1533756891
30
0.0000000000
10
-15.2731951382
20
8.1456811376
30
0.0000000000
10
-15.2706089541
20
8.1262666854
30
0.0000000000
10
-15.2619467041
20
8.0954641690
30
0.0000000000
10
-15.2463220118
20
8.0615926039
30
0.0000000000
10
-15.2249458897
20
8.0286143599
30
0.0000000000
10
-15.1980117971
20
7.9967540285
30
0.0000000000
10
-15.1657366567
20
7.9662227581
30
0.0000000000
10
-15.1283639320
20
7.9372250988
30
0.0000000000
10
-15.0861707603
20
7.9099603074
30
0.0000000000
10
-15.0558655418
20
7.8935188937
30
0.0000000000
10
-15.0400240961
20
7.8855981949
30
0.0000000000
11
-15.2737740579
21
8.1533756891
31
0.0000000000
11
-15.2707296014
21
8.1304402250
31
0.0000000000
11
-15.2612238886
21
8.0962719390
31
0.0000000000
11
-15.2458617608
21
8.0626391900
31
0.0000000000
11
-15.2247575210
21
8.0297923063
31
0.0000000000
11
-15.1980684279
21
7.9979759968
31
0.0000000000
11
-15.1659930765
21
7.9674269086
31
0.0000000000
11
-15.1287697227
21
7.9383720805
31
0.0000000000
11
-15.0866769425
21
7.9110287231
31
0.0000000000
11
-15.0400240961
21
7.8855981949
31
0.0000000000
0
SPLINE
5
2DF
100
AcDbEntity
8
0
100
AcDbSpline
62
9
6
CONTINUOUS
70
0
71
3
72
14
73
10
74
8
42
0.0000001000
43
0.0000001000
44
0.0000000001
12
-0.0001171350
22
-0.1229423609
32
0.0000000000
13
0.1075050037
23
-0.0601344590
33
0.0000000000
40
0.0000000000
40
0.0000000000
40
0.0000000000
40
0.0000000000
40
0.1794603551
40
0.3483098102
40
0.5064118366
40
0.6544124300
40
0.7938575604
40
0.9272232135
40
1.0000000000
40
1.0000000000
40
1.0000000000
40
1.0000000000
10
-15.0400241336
20
7.8855981757
30
0.0000000000
10
-15.0400311407
20
7.8782437491
30
0.0000000000
10
-15.0393059303
20
7.8639530157
30
0.0000000000
10
-15.0357879714
20
7.8434457955
30
0.0000000000
10
-15.0299157984
20
7.8248170759
30
0.0000000000
10
-15.0217642088
20
7.8083855837
30
0.0000000000
10
-15.0114403317
20
7.7944458381
30
0.0000000000
10
-15.0008644535
20
7.7848759146
30
0.0000000000
10
-14.9937220249
20
7.7803055314
30
0.0000000000
10
-14.9911140687
20
7.7788467338
30
0.0000000000
11
-15.0400241336
21
7.8855981757
31
0.0000000000
11
-15.0388340247
21
7.8635670070
31
0.0000000000
11
-15.0352409591
21
7.8431215674
31
0.0000000000
11
-15.0293065065
21
7.8246122036
31
0.0000000000
11
-15.0211323578
21
7.8083560862
31
0.0000000000
11
-15.0108585825
21
7.7946317748
31
0.0000000000
11
-14.9986612289
21
7.7836744449
31
0.0000000000
11
-14.9911140687
21
7.7788467338
31
0.0000000000
0
SPLINE
5
2E0
100
AcDbEntity
8
0
100
AcDbSpline
62
9
6
CONTINUOUS
70
0
71
3
72
8
73
4
74
2
42
0.0000001000
43
0.0000001000
44
0.0000000001
12
0.0030309084
22
-0.0016953819
32
0.0000000000
13
0.0031056301
23
-0.0015538032
33
0.0000000000
40
0.0000000000
40
0.0000000000
40
0.0000000000
40
0.0000000000
40
1.0000000000
40
1.0000000000
40
1.0000000000
40
1.0000000000
10
-14.9911140687
20
7.7788467338
30
0.0000000000
10
-14.9901037659
20
7.7782816066
30
0.0000000000
10
-14.9890804992
20
7.7777397010
30
0.0000000000
10
-14.9880452891
20
7.7772217666
30
0.0000000000
11
-14.9911140687
21
7.7788467338
31
0.0000000000
11
-14.9880452891
21
7.7772217666
31
0.0000000000
0
SPLINE
5
2E1
100
AcDbEntity
8
0
100
AcDbSpline
62
9
6
CONTINUOUS
70
0
71
3
72
15
73
11
74
9
42
0.0000001000
43
0.0000001000
44
0.0000000001
12
-0.0001204575
22
-0.1264297721
32
0.0000000000
13
0.1132759795
23
-0.0566167492
33
0.0000000000
40
0.0000000000
40
0.0000000000
40
0.0000000000
40
0.0000000000
40
0.1613136264
40
0.3140198458
40
0.4577938748
40
0.5930134468
40
0.7206587515
40
0.8423836660
40
0.9604542351
40
1.0000000000
40
1.0000000000
40
1.0000000000
40
1.0000000000
10
-1.1183180367
20
0.9247451270
30
0.0000000000
10
-1.1183245139
20
0.9179468453
30
0.0000000000
10
-1.1177036285
20
0.9047000710
30
0.0000000000
10
-1.1147024148
20
0.8856002140
30
0.0000000000
10
-1.1096872126
20
0.8680579829
30
0.0000000000
10
-1.1027160840
20
0.8523348256
30
0.0000000000
10
-1.0938694227
20
0.8386651849
30
0.0000000000
10
-1.0832565336
20
0.8272694875
30
0.0000000000
10
-1.0736845601
20
0.8202876170
30
0.0000000000
10
-1.0678323403
20
0.8171151365
30
0.0000000000
10
-1.0663391452
20
0.8163688189
30
0.0000000000
11
-1.1183180367
21
0.9247451270
31
0.0000000000
11
-1.1173071918
21
0.9043753387
31
0.0000000000
11
-1.1142457512
21
0.8853129882
31
0.0000000000
11
-1.1091784081
21
0.8678562642
31
0.0000000000
11
-1.1021786574
21
0.8522591671
31
0.0000000000
11
-1.0933490230
21
0.8387507171
31
0.0000000000
11
-1.0828183704
21
0.8275281062
31
0.0000000000
11
-1.0707405618
21
0.8187553625
31
0.0000000000
11
-1.0663391452
21
0.8163688189
31
0.0000000000
0
SPLINE
5
2E2
100
AcDbEntity
8
0
100
AcDbSpline
62
9
6
CONTINUOUS
70
0
71
3
72
12
73
8
74
6
42
0.0000001000
43
0.0000001000
44
0.0000000001
12
-0.0177410574
22
-0.0880530404
32
0.0000000000
13
-0.0804872050
23
-0.0402601018
33
0.0000000000
40
0.0000000000
40
0.0000000000
40
0.0000000000
40
0.0000000000
40
0.2274337173
40
0.4397965881
40
0.6390417715
40
0.8285660097
40
1.0000000000
40
1.0000000000
40
1.0000000000
40
1.0000000000
10
-0.8389005133
20
0.8883668061
30
0.0000000000
10
-0.8402454849
20
0.8816913960
30
0.0000000000
10
-0.8436896831
20
0.8689272930
30
0.0000000000
10
-0.8514835161
20
0.8513613505
30
0.0000000000
10
-0.8616218010
20
0.8363605894
30
0.0000000000
10
-0.8736713145
20
0.8245170930
30
0.0000000000
10
-0.8828545644
20
0.8186689204
30
0.0000000000
10
-0.8874539787
20
0.8163682704
30
0.0000000000
11
-0.8389005133
21
0.8883668061
31
0.0000000000
11
-0.8443210660
21
0.8686704093
31
0.0000000000
11
-0.8521550825
21
0.8512783852
31
0.0000000000
11
-0.8622599492
21
0.8365073453
31
0.0000000000
11
-0.8744517127
21
0.8246261879
31
0.0000000000
11
-0.8874539787
21
0.8163682704
31
0.0000000000
0
SPLINE
5
2E3
100
AcDbEntity
8
0
100
AcDbSpline
62
0
6
CONTINUOUS
70
0
71
3
72
13
73
9
74
7
42
0.0000001000
43
0.0000001000
44
0.0000000001
12
0.0832049363
22
0.0415974478
32
0.0000000000
13
0.0830594282
23
-0.0415297141
33
0.0000000000
40
0.0000000000
40
0.0000000000
40
0.0000000000
40
0.0000000000
40
0.0941086148
40
0.2585439442
40
0.4279246332
40
0.6073595882
40
0.7982665521
40
1.0000000000
40
1.0000000000
40
1.0000000000
40
1.0000000000
10
1.2828756115
20
-0.4654126204
30
0.0000000000
10
1.2854857119
20
-0.4641077276
30
0.0000000000
10
1.2928648443
20
-0.4609391038
30
0.0000000000
10
1.3057946929
20
-0.4576903263
30
0.0000000000
10
1.3217432456
20
-0.4567892405
30
0.0000000000
10
1.3384116711
20
-0.4587372410
30
0.0000000000
10
1.3555337368
20
-0.4634845064
30
0.0000000000
10
1.3667350437
20
-0.4682981707
30
0.0000000000
10
1.3723203320
20
-0.4710908148
30
0.0000000000
11
1.2828756115
21
-0.4654126204
31
0.0000000000
11
1.2909149889
21
-0.4619607589
31
0.0000000000
11
1.3057147935
21
-0.4582006090
31
0.0000000000
11
1.3214151734
21
-0.4572481516
31
0.0000000000
11
1.3379744746
21
-0.4591034944
31
0.0000000000
11
1.3550796061
21
-0.4637623683
31
0.0000000000
11
1.3723203320
21
-0.4710908148
31
0.0000000000
0
SPLINE
5
2E4
100
AcDbEntity
8
0
100
AcDbSpline
62
9
6
CONTINUOUS
70
0
71
3
72
16
73
12
74
10
42
0.0000001000
43
0.0000001000
44
0.0000000001
12
-0.0202660946
22
-0.3832150565
32
0.0000000000
13
0.3428993485
23
-0.1709253798
33
0.0000000000
40
0.0000000000
40
0.0000000000
40
0.0000000000
40
0.0000000000
40
0.0762696805
40
0.1658959363
40
0.2603156907
40
0.3614710912
40
0.4707458238
40
0.5889991240
40
0.7166431774
40
0.8537254318
40
1.0000000000
40
1.0000000000
40
1.0000000000
40
1.0000000000
10
-14.7933489810
20
25.7546860631
30
0.0000000000
10
-14.7938642105
20
25.7449434998
30
0.0000000000
10
-14.7931174876
20
25.7236507876
30
0.0000000000
10
-14.7857997875
20
25.6910141317
30
0.0000000000
10
-14.7714781817
20
25.6573318783
30
0.0000000000
10
-14.7506707028
20
25.6242577433
30
0.0000000000
10
-14.7236035639
20
25.5920271662
30
0.0000000000
10
-14.6905215132
20
25.5608655698
30
0.0000000000
10
-14.6516992921
20
25.5309990764
30
0.0000000000
10
-14.6074548989
20
25.5026558682
30
0.0000000000
10
-14.5755736389
20
25.4854594410
30
0.0000000000
10
-14.5588544875
20
25.4771254289
30
0.0000000000
11
-14.7933489810
21
25.7546860631
31
0.0000000000
11
-14.7923497438
21
25.7254694690
31
0.0000000000
11
-14.7849697475
21
25.6919325672
31
0.0000000000
11
-14.7709941248
21
25.6585652687
31
0.0000000000
11
-14.7505394838
21
25.6256459793
31
0.0000000000
11
-14.7237764912
21
25.5934493667
31
0.0000000000
11
-14.6909284486
21
25.5622440689
31
0.0000000000
11
-14.6522694294
21
25.5322904528
31
0.0000000000
11
-14.6081219918
21
25.5038384413
31
0.0000000000
11
-14.5588544875
21
25.4771254289
31
0.0000000000
0
SPLINE
5
2E5
100
AcDbEntity
8
0
100
AcDbSpline
62
9
6
CONTINUOUS
70
0
71
3
72
9
73
5
74
3
42
0.0000001000
43
0.0000001000
44
0.0000000001
12
-0.0455553773
22
-0.0227634317
32
0.0000000000
13
-0.0475544304
23
-0.0182231859
33
0.0000000000
40
0.0000000000
40
0.0000000000
40
0.0000000000
40
0.0000000000
40
0.1603216883
40
1.0000000000
40
1.0000000000
40
1.0000000000
40
1.0000000000
10
0.7547045116
20
-1.1112721565
30
0.0000000000
10
0.7522700066
20
-1.1124886471
30
0.0000000000
10
0.7370253802
20
-1.1199573010
30
0.0000000000
10
0.7214204773
20
-1.1266754013
30
0.0000000000
10
0.7081103361
20
-1.1317759392
30
0.0000000000
11
0.7547045116
21
-1.1112721565
31
0.0000000000
11
0.7473726579
21
-1.1148641300
31
0.0000000000
11
0.7081103361
21
-1.1317759392
31
0.0000000000
0
SPLINE
5
2E6
100
AcDbEntity
8
0
100
AcDbSpline
62
9
6
CONTINUOUS
70
0
71
3
72
22
73
18
74
16
42
0.0000001000
43
0.0000001000
44
0.0000000001
12
-1.0551940879
22
-0.4043576566
32
0.0000000000
13
-0.7724134144
23
0.8240170470
33
0.0000000000
40
0.0000000000
40
0.0000000000
40
0.0000000000
40
0.0000000000
40
0.0189831480
40
0.0764154160
40
0.1349589745
40
0.1950649741
40
0.2571167105
40
0.3214200518
40
0.3882021659
40
0.4576125904
40
0.5297288143
40
0.6045620559
40
0.6820643936
40
0.7621358845
40
0.8446305348
40
0.9293631759
40
1.0000000000
40
1.0000000000
40
1.0000000000
40
1.0000000000
10
0.7081103361
20
-1.1317759392
30
0.0000000000
10
0.7014333675
20
-1.1343345997
30
0.0000000000
10
0.6743459365
20
-1.1440867918
30
0.0000000000
10
0.6251848471
20
-1.1573768638
30
0.0000000000
10
0.5594591342
20
-1.1670317180
30
0.0000000000
10
0.4913382105
20
-1.1692887946
30
0.0000000000
10
0.4212120594
20
-1.1641568895
30
0.0000000000
10
0.3494740883
20
-1.1516853694
30
0.0000000000
10
0.2765214871
20
-1.1319612578
30
0.0000000000
10
0.2027551904
20
-1.1051076789
30
0.0000000000
10
0.1285799824
20
-1.0712833767
30
0.0000000000
10
0.0544034644
20
-1.0306824898
30
0.0000000000
10
-0.0193654377
20
-0.9835343312
30
0.0000000000
10
-0.0923183965
20
-0.9301029041
30
0.0000000000
10
-0.1640500366
20
-0.8706859767
30
0.0000000000
10
-0.2297117863
20
-0.8097426989
30
0.0000000000
10
-0.2706098630
20
-0.7679055509
30
0.0000000000
10
-0.2887968065
20
-0.7485035685
30
0.0000000000
11
0.7081103361
21
-1.1317759392
31
0.0000000000
11
0.6879290548
21
-1.1390424406
31
0.0000000000
11
0.6253336536
21
-1.1560261725
31
0.0000000000
11
0.5599350938
21
-1.1657229719
31
0.0000000000
11
0.4920980609
21
-1.1680811248
31
0.0000000000
11
0.4222007090
21
-1.1630898134
31
0.0000000000
11
0.3506337182
21
-1.1507791521
31
0.0000000000
11
0.2777968071
21
-1.1312198787
31
0.0000000000
11
0.2040976123
21
-1.1045230281
31
0.0000000000
11
0.1299486874
21
-1.0708390804
31
0.0000000000
11
0.0557658681
21
-1.0303573016
31
0.0000000000
11
-0.0180342581
21
-0.9833046355
31
0.0000000000
11
-0.0910368592
21
-0.9299442969
31
0.0000000000
11
-0.1628306073
21
-0.8705747268
31
0.0000000000
11
-0.2330106622
21
-0.8055274809
31
0.0000000000
11
-0.2887968065
21
-0.7485035685
31
0.0000000000
0
SPLINE
5
2E7
100
AcDbEntity
8
0
100
AcDbSpline
62
0
6
CONTINUOUS
70
0
71
3
72
8
73
4
74
2
42
0.0000001000
43
0.0000001000
44
0.0000000001
12
-0.0215949236
22
0.0107974618
32
0.0000000000
13
-0.0202269920
23
0.0134086888
33
0.0000000000
40
0.0000000000
40
0.0000000000
40
0.0000000000
40
0.0000000000
40
1.0000000000
40
1.0000000000
40
1.0000000000
40
1.0000000000
10
1.1416007206
20
-0.2876019972
30
0.0000000000
10
1.1344024128
20
-0.2840028433
30
0.0000000000
10
1.1274034182
20
-0.2799482287
30
0.0000000000
10
1.1206610875
20
-0.2754786658
30
0.0000000000
11
1.1416007206
21
-0.2876019972
31
0.0000000000
11
1.1206610875
21
-0.2754786658
31
0.0000000000
0
SPLINE
5
2E8
100
AcDbEntity
8
0
100
AcDbSpline
62
0
6
CONTINUOUS
70
0
71
3
72
8
73
4
74
2
42
0.0000001000
43
0.0000001000
44
0.0000000001
12
-0.0205337278
22
0.0136120273
32
0.0000000000
13
-0.0187666849
23
0.0160506502
33
0.0000000000
40
0.0000000000
40
0.0000000000
40
0.0000000000
40
0.0000000000
40
1.0000000000
40
1.0000000000
40
1.0000000000
40
1.0000000000
10
1.1206610875
20
-0.2754786658
30
0.0000000000
10
1.1138165116
20
-0.2709413233
30
0.0000000000
10
1.1072364430
20
-0.2659763520
30
0.0000000000
10
1.1009808814
20
-0.2606261353
30
0.0000000000
11
1.1206610875
21
-0.2754786658
31
0.0000000000
11
1.1009808814
21
-0.2606261353
31
0.0000000000
0
SPLINE
5
2E9
100
AcDbEntity
8
0
100
AcDbSpline
62
0
6
CONTINUOUS
70
0
71
3
72
9
73
5
74
3
42
0.0000001000
43
0.0000001000
44
0.0000000001
12
-0.0380367056
22
0.0325317902
32
0.0000000000
13
-0.0287262946
23
0.0409024225
33
0.0000000000
40
0.0000000000
40
0.0000000000
40
0.0000000000
40
0.0000000000
40
0.4997258265
40
1.0000000000
40
1.0000000000
40
1.0000000000
40
1.0000000000
10
1.1009808814
20
-0.2606261353
30
0.0000000000
10
1.0946449067
20
-0.2552071434
30
0.0000000000
10
1.0826321769
20
-0.2435723527
30
0.0000000000
10
1.0722021688
20
-0.2305313227
30
0.0000000000
10
1.0674118277
20
-0.2237105141
30
0.0000000000
11
1.1009808814
21
-0.2606261353
31
0.0000000000
11
1.0830340106
21
-0.2432275582
31
0.0000000000
11
1.0674118277
21
-0.2237105141
31
0.0000000000
0
SPLINE
5
2EA
100
AcDbEntity
8
0
100
AcDbSpline
62
0
6
CONTINUOUS
70
0
71
3
72
8
73
4
74
2
42
0.0000001000
43
0.0000001000
44
0.0000000001
12
-0.0144427178
22
0.0205645091
32
0.0000000000
13
-0.0117562827
23
0.0221944503
33
0.0000000000
40
0.0000000000
40
0.0000000000
40
0.0000000000
40
0.0000000000
40
1.0000000000
40
1.0000000000
40
1.0000000000
40
1.0000000000
10
1.0674118277
20
-0.2237105141
30
0.0000000000
10
1.0625975884
20
-0.2168556778
30
0.0000000000
10
1.0582151480
20
-0.2097011555
30
0.0000000000
10
1.0542963871
20
-0.2023030054
30
0.0000000000
11
1.0674118277
21
-0.2237105141
31
0.0000000000
11
1.0542963871
21
-0.2023030054
31
0.0000000000
0
SPLINE
5
2EB
100
AcDbEntity
8
0
100
AcDbSpline
62
0
6
CONTINUOUS
70
0
71
3
72
9
73
5
74
3
42
0.0000001000
43
0.0000001000
44
0.0000000001
12
-0.0238225525
22
0.0449741188
32
0.0000000000
13
-0.0117209273
23
0.0495316632
33
0.0000000000
40
0.0000000000
40
0.0000000000
40
0.0000000000
40
0.0000000000
40
0.4980197533
40
1.0000000000
40
1.0000000000
40
1.0000000000
40
1.0000000000
10
1.0542963871
20
-0.2023030054
30
0.0000000000
10
1.0503416866
20
-0.1948370055
30
0.0000000000
10
1.0433490379
20
-0.1793474255
30
0.0000000000
10
1.0383924415
20
-0.1630897646
30
0.0000000000
10
1.0364312169
20
-0.1548017924
30
0.0000000000
11
1.0542963871
21
-0.2023030054
31
0.0000000000
11
1.0438817214
21
-0.1792182696
31
0.0000000000
11
1.0364312169
21
-0.1548017924
31
0.0000000000
0
SPLINE
5
2EC
100
AcDbEntity
8
0
100
AcDbSpline
62
0
6
CONTINUOUS
70
0
71
3
72
8
73
4
74
2
42
0.0000001000
43
0.0000001000
44
0.0000000001
12
-0.0031026078
22
0.0131113623
32
0.0000000000
13
-0.0022174447
23
0.0132938693
33
0.0000000000
40
0.0000000000
40
0.0000000000
40
0.0000000000
40
0.0000000000
40
1.0000000000
40
1.0000000000
40
1.0000000000
40
1.0000000000
10
1.0364312169
20
-0.1548017924
30
0.0000000000
10
1.0353970143
20
-0.1504313383
30
0.0000000000
10
1.0345093245
20
-0.1460255837
30
0.0000000000
10
1.0337701762
20
-0.1415942940
30
0.0000000000
11
1.0364312169
21
-0.1548017924
31
0.0000000000
11
1.0337701762
21
-0.1415942940
31
0.0000000000
0
SPLINE
5
2ED
100
AcDbEntity
8
0
100
AcDbSpline
62
0
6
CONTINUOUS
70
0
71
3
72
8
73
4
74
2
42
0.0000001000
43
0.0000001000
44
0.0000000001
12
-0.0100575829
22
-0.0050393664
32
0.0000000000
13
-0.0103300539
23
-0.0044759306
33
0.0000000000
40
0.0000000000
40
0.0000000000
40
0.0000000000
40
0.0000000000
40
1.0000000000
40
1.0000000000
40
1.0000000000
40
1.0000000000
10
-0.8872972467
20
0.8164750545
30
0.0000000000
10
-0.8906497743
20
0.8147952657
30
0.0000000000
10
-0.8940507740
20
0.8132077116
30
0.0000000000
10
-0.8974941253
20
0.8117157347
30
0.0000000000
11
-0.8872972467
21
0.8164750545
31
0.0000000000
11
-0.8974941253
21
0.8117157347
31
0.0000000000
0
SPLINE
5
2EE
100
AcDbEntity
8
0
100
AcDbSpline
62
0
6
CONTINUOUS
70
0
71
3
72
10
73
6
74
4
42
0.0000001000
43
0.0000001000
44
0.0000000001
12
-0.1456066423
22
-0.0630902061
32
0.0000000000
13
-0.1469583905
23
0.0593016396
33
0.0000000000
40
0.0000000000
40
0.0000000000
40
0.0000000000
40
0.0000000000
40
0.1713254004
40
0.6657888975
40
1.0000000000
40
1.0000000000
40
1.0000000000
40
1.0000000000
10
-0.8974941253
20
0.8117157347
30
0.0000000000
10
-0.9058094974
20
0.8081127497
30
0.0000000000
10
-0.9390837363
20
0.7962772217
30
0.0000000000
10
-0.9927080190
20
0.7922112527
30
0.0000000000
10
-1.0354308095
20
0.8032063554
30
0.0000000000
10
-1.0518025181
20
0.8098127775
30
0.0000000000
11
-0.8974941253
21
0.8117157347
31
0.0000000000
11
-0.9230950010
21
0.8026260099
31
0.0000000000
11
-1.0006910804
21
0.7966740158
31
0.0000000000
11
-1.0518025181
21
0.8098127775
31
0.0000000000
0
SPLINE
5
2EF
100
AcDbEntity
8
0
100
AcDbSpline
62
0
6
CONTINUOUS
70
0
71
3
72
8
73
4
74
2
42
0.0000001000
43
0.0000001000
44
0.0000000001
12
-0.0148343524
22
0.0059860578
32
0.0000000000
13
-0.0143163992
23
0.0071612920
33
0.0000000000
40
0.0000000000
40
0.0000000000
40
0.0000000000
40
0.0000000000
40
1.0000000000
40
1.0000000000
40
1.0000000000
40
1.0000000000
10
-1.0518025181
20
0.8098127775
30
0.0000000000
10
-1.0567473023
20
0.8118081301
30
0.0000000000
10
-1.0616137496
20
0.8140016210
30
0.0000000000
10
-1.0663858827
20
0.8163887183
30
0.0000000000
11
-1.0518025181
21
0.8098127775
31
0.0000000000
11
-1.0663858827
21
0.8163887183
31
0.0000000000
0
SPLINE
5
2F0
100
AcDbEntity
8
0
100
AcDbSpline
62
0
6
CONTINUOUS
70
0
71
3
72
8
73
4
74
2
42
0.0000001000
43
0.0000001000
44
0.0000000001
12
0.0057820619
22
0.0288344792
32
0.0000000000
13
0.0100827919
23
0.0278722925
33
0.0000000000
40
0.0000000000
40
0.0000000000
40
0.0000000000
40
0.0000000000
40
1.0000000000
40
1.0000000000
40
1.0000000000
40
1.0000000000
10
1.0349471644
20
-0.6756119460
30
0.0000000000
10
1.0368745184
20
-0.6660004530
30
0.0000000000
10
1.0395437540
20
-0.6564900463
30
0.0000000000
10
1.0429046846
20
-0.6471992821
30
0.0000000000
11
1.0349471644
21
-0.6756119460
31
0.0000000000
11
1.0429046846
21
-0.6471992821
31
0.0000000000
0
SPLINE
5
2F1
100
AcDbEntity
8
0
100
AcDbSpline
62
0
6
CONTINUOUS
70
0
71
3
72
8
73
4
74
2
42
0.0000001000
43
0.0000001000
44
0.0000000001
12
0.0103464856
22
0.0286012323
32
0.0000000000
13
0.0145538880
23
0.0268292352
33
0.0000000000
40
0.0000000000
40
0.0000000000
40
0.0000000000
40
0.0000000000
40
1.0000000000
40
1.0000000000
40
1.0000000000
40
1.0000000000
10
1.0429046846
20
-0.6471992821
30
0.0000000000
10
1.0463535131
20
-0.6376655381
30
0.0000000000
10
1.0505306894
20
-0.6283630752
30
0.0000000000
10
1.0553819855
20
-0.6194199968
30
0.0000000000
11
1.0429046846
21
-0.6471992821
31
0.0000000000
11
1.0553819855
21
-0.6194199968
31
0.0000000000
0
SPLINE
5
2F2
100
AcDbEntity
8
0
100
AcDbSpline
62
0
6
CONTINUOUS
70
0
71
3
72
8
73
4
74
2
42
0.0000001000
43
0.0000001000
44
0.0000000001
12
0.0148690965
22
0.0274103034
32
0.0000000000
13
0.0189174284
23
0.0247497583
33
0.0000000000
40
0.0000000000
40
0.0000000000
40
0.0000000000
40
0.0000000000
40
1.0000000000
40
1.0000000000
40
1.0000000000
40
1.0000000000
10
1.0553819855
20
-0.6194199968
30
0.0000000000
10
1.0603383509
20
-0.6102832290
30
0.0000000000
10
1.0659983526
20
-0.6015215814
30
0.0000000000
10
1.0723041620
20
-0.5932716619
30
0.0000000000
11
1.0553819855
21
-0.6194199968
31
0.0000000000
11
1.0723041620
21
-0.5932716619
31
0.0000000000
0
SPLINE
5
2F3
100
AcDbEntity
8
0
100
AcDbSpline
62
0
6
CONTINUOUS
70
0
71
3
72
8
73
4
74
2
42
0.0000001000
43
0.0000001000
44
0.0000000001
12
0.0187237764
22
0.0244964024
32
0.0000000000
13
0.0222532148
23
0.0212703856
33
0.0000000000
40
0.0000000000
40
0.0000000000
40
0.0000000000
40
0.0000000000
40
1.0000000000
40
1.0000000000
40
1.0000000000
40
1.0000000000
10
1.0723041620
20
-0.5932716619
30
0.0000000000
10
1.0785454208
20
-0.5851061945
30
0.0000000000
10
1.0854194023
20
-0.5774421580
30
0.0000000000
10
1.0928371406
20
-0.5703520295
30
0.0000000000
11
1.0723041620
21
-0.5932716619
31
0.0000000000
11
1.0928371406
21
-0.5703520295
31
0.0000000000
0
SPLINE
5
2F4
100
AcDbEntity
8
0
100
AcDbSpline
62
0
6
CONTINUOUS
70
0
71
3
72
8
73
4
74
2
42
0.0000001000
43
0.0000001000
44
0.0000000001
12
0.0226538949
22
0.0216533693
32
0.0000000000
13
0.0257534024
23
0.0178554191
33
0.0000000000
40
0.0000000000
40
0.0000000000
40
0.0000000000
40
0.0000000000
40
1.0000000000
40
1.0000000000
40
1.0000000000
40
1.0000000000
10
1.0928371406
20
-0.5703520295
30
0.0000000000
10
1.1003884389
20
-0.5631342397
30
0.0000000000
10
1.1085032513
20
-0.5565112106
30
0.0000000000
10
1.1170877188
20
-0.5505594043
30
0.0000000000
11
1.0928371406
21
-0.5703520295
31
0.0000000000
11
1.1170877188
21
-0.5505594043
31
0.0000000000
0
SPLINE
5
2F5
100
AcDbEntity
8
0
100
AcDbSpline
62
0
6
CONTINUOUS
70
0
71
3
72
8
73
4
74
2
42
0.0000001000
43
0.0000001000
44
0.0000000001
12
0.0233934450
22
0.0162192070
32
0.0000000000
13
0.0255075409
23
0.0127242283
33
0.0000000000
40
0.0000000000
40
0.0000000000
40
0.0000000000
40
0.0000000000
40
1.0000000000
40
1.0000000000
40
1.0000000000
40
1.0000000000
10
1.1170877188
20
-0.5505594043
30
0.0000000000
10
1.1248855338
20
-0.5451530020
30
0.0000000000
10
1.1330708724
20
-0.5403004415
30
0.0000000000
10
1.1415733861
20
-0.5360590320
30
0.0000000000
11
1.1170877188
21
-0.5505594043
31
0.0000000000
11
1.1415733861
21
-0.5360590320
31
0.0000000000
0
SPLINE
5
2F6
100
AcDbEntity
8
0
100
AcDbSpline
62
0
6
CONTINUOUS
70
0
71
3
72
8
73
4
74
2
42
0.0000001000
43
0.0000001000
44
0.0000000001
12
0.0051236797
22
0.0073614208
32
0.0000000000
13
0.0050118879
23
0.0074375682
33
0.0000000000
40
0.0000000000
40
0.0000000000
40
0.0000000000
40
0.0000000000
40
1.0000000000
40
1.0000000000
40
1.0000000000
40
1.0000000000
10
1.0153997748
20
-0.7413029542
30
0.0000000000
10
1.0171076680
20
-0.7388491473
30
0.0000000000
10
1.0187968756
20
-0.7363824347
30
0.0000000000
10
1.0204675049
20
-0.7339032453
30
0.0000000000
11
1.0153997748
21
-0.7413029542
31
0.0000000000
11
1.0204675049
21
-0.7339032453
31
0.0000000000
0
SPLINE
5
2F7
100
AcDbEntity
8
0
100
AcDbSpline
62
0
6
CONTINUOUS
70
0
71
3
72
9
73
5
74
3
42
0.0000001000
43
0.0000001000
44
0.0000000001
12
0.0114307854
22
0.0345806577
32
0.0000000000
13
0.0099390285
23
0.0350359367
33
0.0000000000
40
0.0000000000
40
0.0000000000
40
0.0000000000
40
0.0000000000
40
0.3097709420
40
1.0000000000
40
1.0000000000
40
1.0000000000
40
1.0000000000
10
1.1032778731
20
-0.5619386174
30
0.0000000000
10
1.1044581815
20
-0.5583679231
30
0.0000000000
10
1.1081896383
20
-0.5468150880
30
0.0000000000
10
1.1116703216
20
-0.5351840433
30
0.0000000000
10
1.1139570571
20
-0.5271231028
30
0.0000000000
11
1.1032778731
21
-0.5619386174
31
0.0000000000
11
1.1067459116
21
-0.5512029530
31
0.0000000000
11
1.1139570571
21
-0.5271231028
31
0.0000000000
0
SPLINE
5
2F8
100
AcDbEntity
8
0
100
AcDbSpline
62
0
6
CONTINUOUS
70
0
71
3
72
9
73
5
74
3
42
0.0000001000
43
0.0000001000
44
0.0000000001
12
0.0283985731
22
0.1001074308
32
0.0000000000
13
0.0172753791
23
0.1026103635
33
0.0000000000
40
0.0000000000
40
0.0000000000
40
0.0000000000
40
0.0000000000
40
0.4932814916
40
1.0000000000
40
1.0000000000
40
1.0000000000
40
1.0000000000
10
1.1139570571
20
-0.5271231028
30
0.0000000000
10
1.1186265539
20
-0.5106627218
30
0.0000000000
10
1.1271144449
20
-0.4770158494
30
0.0000000000
10
1.1337499278
20
-0.4429600929
30
0.0000000000
10
1.1366678459
20
-0.4256285695
30
0.0000000000
11
1.1139570571
21
-0.5271231028
31
0.0000000000
11
1.1265496527
21
-0.4773684706
31
0.0000000000
11
1.1366678459
21
-0.4256285695
31
0.0000000000
0
SPLINE
5
2F9
100
AcDbEntity
8
0
100
AcDbSpline
62
0
6
CONTINUOUS
70
0
71
3
72
9
73
5
74
3
42
0.0000001000
43
0.0000001000
44
0.0000000001
12
0.0135622845
22
0.0805557395
32
0.0000000000
13
0.0074893822
23
0.0813426509
33
0.0000000000
40
0.0000000000
40
0.0000000000
40
0.0000000000
40
0.0000000000
40
0.3290052420
40
1.0000000000
40
1.0000000000
40
1.0000000000
40
1.0000000000
10
1.1366678459
20
-0.4256285695
30
0.0000000000
10
1.1381552001
20
-0.4167941493
30
0.0000000000
10
1.1423250016
20
-0.3898831315
30
0.0000000000
10
1.1454662800
20
-0.3628293514
30
0.0000000000
10
1.1471413921
20
-0.3446358540
30
0.0000000000
11
1.1366678459
21
-0.4256285695
31
0.0000000000
11
1.1407876413
21
-0.3990709642
31
0.0000000000
11
1.1471413921
21
-0.3446358540
31
0.0000000000
0
SPLINE
5
2FA
100
AcDbEntity
8
0
100
AcDbSpline
62
0
6
CONTINUOUS
70
0
71
3
72
9
73
5
74
3
42
0.0000001000
43
0.0000001000
44
0.0000000001
12
0.0048210959
22
0.0523622252
32
0.0000000000
13
0.0025095872
23
0.0525248888
33
0.0000000000
40
0.0000000000
40
0.0000000000
40
0.0000000000
40
0.0000000000
40
0.5307113034
40
1.0000000000
40
1.0000000000
40
1.0000000000
40
1.0000000000
10
1.1471413921
20
-0.3446358540
30
0.0000000000
10
1.1479942621
20
-0.3353727791
30
0.0000000000
10
1.1493899570
20
-0.3178988960
30
0.0000000000
10
1.1504016857
20
-0.3003988062
30
0.0000000000
10
1.1507942593
20
-0.2921823607
30
0.0000000000
11
1.1471413921
21
-0.3446358540
31
0.0000000000
11
1.1493675384
21
-0.3168182233
31
0.0000000000
11
1.1507942593
21
-0.2921823607
31
0.0000000000
0
SPLINE
5
2FB
100
AcDbEntity
8
0
100
AcDbSpline
62
0
6
CONTINUOUS
70
0
71
3
72
16
73
12
74
10
42
0.0000001000
43
0.0000001000
44
0.0000000001
12
0.3355287362
22
0.1810309535
32
0.0000000000
13
0.3407193273
23
-0.1703596636
33
0.0000000000
40
0.0000000000
40
0.0000000000
40
0.0000000000
40
0.0000000000
40
0.0074187391
40
0.1194421075
40
0.2328480164
40
0.3490615655
40
0.4688162493
40
0.5928496782
40
0.7226729406
40
0.8585038488
40
1.0000000000
40
1.0000000000
40
1.0000000000
40
1.0000000000
10
-10.8457686969
20
28.8746461302
30
0.0000000000
10
-10.8449389635
20
28.8750938040
30
0.0000000000
10
-10.8315461516
20
28.8822382405
30
0.0000000000
10
-10.8043842937
20
28.8941701825
30
0.0000000000
10
-10.7624630558
20
28.9058687205
30
0.0000000000
10
-10.7183708359
20
28.9118489816
30
0.0000000000
10
-10.6725388985
20
28.9120710430
30
0.0000000000
10
-10.6253112748
20
28.9065764335
30
0.0000000000
10
-10.5770064768
20
28.8954203270
30
0.0000000000
10
-10.5280039411
20
28.8786951873
30
0.0000000000
10
-10.4958291648
20
28.8642495211
30
0.0000000000
10
-10.4797590070
20
28.8562144422
30
0.0000000000
11
-10.8457686969
21
28.8746461302
31
0.0000000000
11
-10.8432731819
21
28.8759773589
31
0.0000000000
11
-10.8042085371
21
28.8931528959
31
0.0000000000
11
-10.7626116130
21
28.9048134195
31
0.0000000000
11
-10.7187543858
21
28.9108439805
31
0.0000000000
11
-10.6731366843
21
28.9111669719
31
0.0000000000
11
-10.6261916747
21
28.9058179037
31
0.0000000000
11
-10.5779797492
21
28.8948024291
31
0.0000000000
11
-10.5289743434
21
28.8781954078
31
0.0000000000
11
-10.4797590070
21
28.8562144422
31
0.0000000000
0
SPLINE
5
2FC
100
AcDbEntity
8
0
100
AcDbSpline
62
0
6
CONTINUOUS
70
0
71
3
72
18
73
14
74
12
42
0.0000001000
43
0.0000001000
44
0.0000000001
12
0.0000000000
22
-0.5143651174
32
0.0000000000
13
-0.4673778439
23
-0.2158158687
33
0.0000000000
40
0.0000000000
40
0.0000000000
40
0.0000000000
40
0.0000000000
40
0.1151721033
40
0.2262969901
40
0.3327467147
40
0.4343031313
40
0.5317486543
40
0.6251967282
40
0.7147788900
40
0.8012449296
40
0.8858735136
40
0.9693018831
40
1.0000000000
40
1.0000000000
40
1.0000000000
40
1.0000000000
10
20.2794721313
20
-23.6759964691
30
0.0000000000
10
20.2794721313
20
-23.6957433066
30
0.0000000000
10
20.2781198327
20
-23.7345605500
30
0.0000000000
10
20.2717714214
20
-23.7913159094
30
0.0000000000
10
20.2611789527
20
-23.8450680223
30
0.0000000000
10
20.2464274719
20
-23.8953996512
30
0.0000000000
10
20.2276065523
20
-23.9419721828
30
0.0000000000
10
20.2048206632
20
-23.9844369377
30
0.0000000000
10
20.1782657029
20
-24.0223918649
30
0.0000000000
10
20.1481254642
20
-24.0555671650
30
0.0000000000
10
20.1145901115
20
-24.0837093182
30
0.0000000000
10
20.0855673510
20
-24.1017887285
30
0.0000000000
10
20.0680031303
20
-24.1104658651
30
0.0000000000
10
20.0632205904
20
-24.1126742453
30
0.0000000000
11
20.2794721313
21
-23.6759964691
31
0.0000000000
11
20.2773276002
21
-23.7351981524
31
0.0000000000
11
20.2708812346
21
-23.7919922440
31
0.0000000000
11
20.2601938033
21
-23.8456931013
31
0.0000000000
11
20.2453964911
21
-23.8957905252
31
0.0000000000
11
20.2265094250
21
-23.9422184430
31
0.0000000000
11
20.2036814164
21
-23.9845181317
31
0.0000000000
11
20.1771797397
21
-24.0222121314
31
0.0000000000
11
20.1472079720
21
-24.0550713609
31
0.0000000000
11
20.1138240461
21
-24.0830065297
31
0.0000000000
11
20.0773870378
21
-24.1056745548
31
0.0000000000
11
20.0632205904
21
-24.1126742453
31
0.0000000000
0
SPLINE
5
2FD
100
AcDbEntity
8
0
100
AcDbSpline
62
0
6
CONTINUOUS
70
0
71
3
72
25
73
21
74
19
42
0.0000001000
43
0.0000001000
44
0.0000000001
12
1.0535736874
22
-0.5267868437
32
0.0000000000
13
0.0000000000
23
-1.1779311921
33
0.0000000000
40
0.0000000000
40
0.0000000000
40
0.0000000000
40
0.0000000000
40
0.0477516879
40
0.0976245400
40
0.1493194677
40
0.2025671074
40
0.2575295405
40
0.3139205702
40
0.3712898515
40
0.4294225393
40
0.4883681363
40
0.5476396354
40
0.6067377496
40
0.6656977917
40
0.7242857393
40
0.7820063802
40
0.8385125694
40
0.8939226259
40
0.9478885631
40
1.0000000000
40
1.0000000000
40
1.0000000000
40
1.0000000000
10
19.7138728629
20
13.7593985073
30
0.0000000000
10
19.7306428369
20
13.7510135203
30
0.0000000000
10
19.7641950770
20
13.7323727040
30
0.0000000000
10
19.8130985334
20
13.6999384263
30
0.0000000000
10
19.8612215107
20
13.6627166852
30
0.0000000000
10
19.9082054654
20
13.6210016084
30
0.0000000000
10
19.9537355687
20
13.5750737461
30
0.0000000000
10
19.9974691937
20
13.5252612287
30
0.0000000000
10
20.0390104107
20
13.4720212643
30
0.0000000000
10
20.0780863866
20
13.4157232065
30
0.0000000000
10
20.1144282312
20
13.3567443878
30
0.0000000000
10
20.1477292375
20
13.2955654578
30
0.0000000000
10
20.1777238944
20
13.2326935545
30
0.0000000000
10
20.2042142897
20
13.1685564400
30
0.0000000000
10
20.2270092949
20
13.1035866256
30
0.0000000000
10
20.2458975707
20
13.0383765101
30
0.0000000000
10
20.2607522185
20
12.9734089160
30
0.0000000000
10
20.2714731656
20
12.9091229195
30
0.0000000000
10
20.2779678530
20
12.8460077892
30
0.0000000000
10
20.2794721313
20
12.8043452989
30
0.0000000000
10
20.2794721313
20
12.7838840700
30
0.0000000000
11
19.7138728629
21
13.7593985073
31
0.0000000000
11
19.7630881994
21
13.7321641364
31
0.0000000000
11
19.8120936052
21
13.6997657519
31
0.0000000000
11
19.8603055307
21
13.6625693010
31
0.0000000000
11
19.9072505403
21
13.6209733596
31
0.0000000000
11
19.9528682417
21
13.5750326668
31
0.0000000000
11
19.9967254689
21
13.5251448785
31
0.0000000000
11
20.0383223931
21
13.4718874308
31
0.0000000000
11
20.0773870378
21
13.4156472490
31
0.0000000000
11
20.1138240461
21
13.3565422157
31
0.0000000000
11
20.1472079720
21
13.2952231209
31
0.0000000000
11
20.1771797397
21
13.2323921238
31
0.0000000000
11
20.2036814164
21
13.1681964474
31
0.0000000000
11
20.2265094250
21
13.1030687501
31
0.0000000000
11
20.2453964911
21
13.0377537662
31
0.0000000000
11
20.2601938033
21
12.9728590301
31
0.0000000000
11
20.2708812346
21
12.9084707415
31
0.0000000000
11
20.2773276002
21
12.8452302843
31
0.0000000000
11
20.2794721313
21
12.7838840700
31
0.0000000000
0
SPLINE
5
2FE
100
AcDbEntity
8
0
100
AcDbSpline
62
0
6
CONTINUOUS
70
0
71
3
72
12
73
8
74
6
42
0.0000001000
43
0.0000001000
44
0.0000000001
12
-0.2700288541
22
0.0173528897
32
0.0000000000
13
-0.2420745448
23
-0.1210372931
33
0.0000000000
40
0.0000000000
40
0.0000000000
40
0.0000000000
40
0.0000000000
40
0.0634665141
40
0.3056514838
40
0.5410566410
40
0.7717276883
40
1.0000000000
40
1.0000000000
40
1.0000000000
40
1.0000000000
10
-0.0279277098
20
1.3788409714
30
0.0000000000
10
-0.0336403065
20
1.3792080806
30
0.0000000000
10
-0.0611769761
20
1.3805869860
30
0.0000000000
10
-0.1100553256
20
1.3796120931
30
0.0000000000
10
-0.1734403405
20
1.3706605062
30
0.0000000000
10
-0.2339888984
20
1.3541075034
30
0.0000000000
10
-0.2722471223
20
1.3380418644
30
0.0000000000
10
-0.2906667610
20
1.3288320435
30
0.0000000000
11
-0.0279277098
21
1.3788409714
31
0.0000000000
11
-0.0450791767
21
1.3796975240
31
0.0000000000
11
-0.1105640478
21
1.3782689700
31
0.0000000000
11
-0.1735915146
21
1.3692689190
31
0.0000000000
11
-0.2337528195
21
1.3527557400
31
0.0000000000
11
-0.2906667610
21
1.3288320435
31
0.0000000000
0
SPLINE
5
2FF
100
AcDbEntity
8
0
100
AcDbSpline
62
0
6
CONTINUOUS
70
0
71
3
72
8
73
4
74
2
42
0.0000001000
43
0.0000001000
44
0.0000000001
12
0.0004518449
22
-0.0071005157
32
0.0000000000
13
0.0002294912
23
-0.0071097568
33
0.0000000000
40
0.0000000000
40
0.0000000000
40
0.0000000000
40
0.0000000000
40
1.0000000000
40
1.0000000000
40
1.0000000000
40
1.0000000000
10
20.2790165941
20
-5.7350457860
30
0.0000000000
10
20.2791672090
20
-5.7374126246
30
0.0000000000
10
20.2792816320
20
-5.7397816519
30
0.0000000000
10
20.2793581290
20
-5.7421515709
30
0.0000000000
11
20.2790165941
21
-5.7350457860
31
0.0000000000
11
20.2793581290
21
-5.7421515709
31
0.0000000000
0
SPLINE
5
300
100
AcDbEntity
8
0
100
AcDbSpline
62
0
6
CONTINUOUS
70
0
71
3
72
8
73
4
74
2
42
0.0000001000
43
0.0000001000
44
0.0000000001
12
0.0002263410
22
-0.0070121627
32
0.0000000000
13
0.0000000000
23
-0.0070136329
33
0.0000000000
40
0.0000000000
40
0.0000000000
40
0.0000000000
40
0.0000000000
40
1.0000000000
40
1.0000000000
40
1.0000000000
40
1.0000000000
10
20.2793581290
20
-5.7421515709
30
0.0000000000
10
20.2794335761
20
-5.7444889584
30
0.0000000000
10
20.2794721313
20
-5.7468272133
30
0.0000000000
10
20.2794721313
20
-5.7491650909
30
0.0000000000
11
20.2793581290
21
-5.7421515709
31
0.0000000000
11
20.2794721313
21
-5.7491650909
31
0.0000000000
0
SPLINE
5
301
100
AcDbEntity
8
0
100
AcDbSpline
62
0
6
CONTINUOUS
70
0
71
3
72
15
73
11
74
9
42
0.0000001000
43
0.0000001000
44
0.0000000001
12
0.0000000000
22
-0.1272464449
32
0.0000000000
13
-0.1147765697
23
-0.0554219235
33
0.0000000000
40
0.0000000000
40
0.0000000000
40
0.0000000000
40
0.0000000000
40
0.1596835140
40
0.3114855630
40
0.4540602367
40
0.5879439272
40
0.7151199870
40
0.8362200002
40
0.9530333842
40
1.0000000000
40
1.0000000000
40
1.0000000000
40
1.0000000000
10
20.2794721313
20
-5.1429473083
30
0.0000000000
10
20.2794721313
20
-5.1497203614
30
0.0000000000
10
20.2788410163
20
-5.1629443991
30
0.0000000000
10
20.2758296518
20
-5.1820086221
30
0.0000000000
10
20.2708063726
20
-5.1995189247
30
0.0000000000
10
20.2638311148
20
-5.2152213859
30
0.0000000000
10
20.2549732884
20
-5.2288864177
30
0.0000000000
10
20.2443455933
20
-5.2402693563
30
0.0000000000
10
20.2345135178
20
-5.2474244241
30
0.0000000000
10
20.2283678476
20
-5.2506988501
30
0.0000000000
10
20.2265709586
20
-5.2515665102
30
0.0000000000
11
20.2794721313
21
-5.1429473083
31
0.0000000000
11
20.2784479962
21
-5.1632406419
31
0.0000000000
11
20.2753694285
21
-5.1823100086
31
0.0000000000
11
20.2702962294
21
-5.1997283662
31
0.0000000000
11
20.2633102864
21
-5.2152663686
31
0.0000000000
11
20.2544460525
21
-5.2288053931
31
0.0000000000
11
20.2438877516
21
-5.2400293137
31
0.0000000000
11
20.2318520401
21
-5.2487518567
31
0.0000000000
11
20.2265709586
21
-5.2515665102
31
0.0000000000
0
SPLINE
5
302
100
AcDbEntity
8
0
100
AcDbSpline
62
9
6
CONTINUOUS
70
0
71
3
72
27
73
23
74
21
42
0.0000001000
43
0.0000001000
44
0.0000000001
12
0.1122961137
22
2.0938987283
32
0.0000000000
13
1.8529501036
23
0.9816303861
33
0.0000000000
40
0.0000000000
40
0.0000000000
40
0.0000000000
40
0.0000000000
40
0.0478901938
40
0.0969796271
40
0.1471353396
40
0.1982088693
40
0.2500404318
40
0.3024607363
40
0.3552931596
40
0.4083562927
40
0.4614660914
40
0.5144379163
40
0.5670887037
40
0.6192391645
40
0.6707160250
40
0.7213543172
40
0.7709996324
40
0.8195105854
40
0.8667617649
40
0.9126464219
40
0.9570790276
40
1.0000000000
40
1.0000000000
40
1.0000000000
40
1.0000000000
10
-14.5588545127
20
25.4771254184
30
0.0000000000
10
-14.5570618851
20
25.5105511570
30
0.0000000000
10
-14.5514777905
20
25.5781480726
30
0.0000000000
10
-14.5374857590
20
25.6800801584
30
0.0000000000
10
-14.5178443717
20
25.7833423288
30
0.0000000000
10
-14.4926619266
20
25.8873644465
30
0.0000000000
10
-14.4620768480
20
25.9915772020
30
0.0000000000
10
-14.4262571186
20
26.0954085174
30
0.0000000000
10
-14.3853994562
20
26.1982885068
30
0.0000000000
10
-14.3397282501
20
26.2996522077
30
0.0000000000
10
-14.2894942840
20
26.3989429989
30
0.0000000000
10
-14.2349733764
20
26.4956155849
30
0.0000000000
10
-14.1764648686
20
26.5891390132
30
0.0000000000
10
-14.1142899126
20
26.6789996829
30
0.0000000000
10
-14.0487896155
20
26.7647042367
30
0.0000000000
10
-13.9803230915
20
26.8457822532
30
0.0000000000
10
-13.9092654978
20
26.9217887213
30
0.0000000000
10
-13.8360056039
20
26.9923066710
30
0.0000000000
10
-13.7609441358
20
27.0569489798
30
0.0000000000
10
-13.6844890376
20
27.1153616939
30
0.0000000000
10
-13.6070619792
20
27.1672207760
30
0.0000000000
10
-13.5541338289
20
27.1977773463
30
0.0000000000
10
-13.5276236888
20
27.2118215232
30
0.0000000000
11
-14.5588545127
21
25.4771254184
31
0.0000000000
11
-14.5506596211
21
25.5772118080
31
0.0000000000
11
-14.5367235155
21
25.6792000830
31
0.0000000000
11
-14.5171228417
21
25.7825293775
31
0.0000000000
11
-14.4919657531
21
25.8866292212
31
0.0000000000
11
-14.4613908580
21
25.9909260285
31
0.0000000000
11
-14.4255666105
21
26.0948449850
31
0.0000000000
11
-14.3846905434
21
26.1978129480
31
0.0000000000
11
-14.3389879872
21
26.2992622203
31
0.0000000000
11
-14.2887108198
21
26.3986335972
31
0.0000000000
11
-14.2341361764
21
26.4953792197
31
0.0000000000
11
-14.1755649233
21
26.5889656378
31
0.0000000000
11
-14.1133199770
21
26.6788768093
31
0.0000000000
11
-14.0477444849
21
26.7646169972
31
0.0000000000
11
-13.9791999026
21
26.8457135196
31
0.0000000000
11
-13.9080641537
21
26.9217191670
31
0.0000000000
11
-13.8347296229
21
26.9922146591
31
0.0000000000
11
-13.7596005353
21
27.0568113883
31
0.0000000000
11
-13.6830909440
21
27.1151533190
31
0.0000000000
11
-13.6056232780
21
27.1669182717
31
0.0000000000
11
-13.5276236888
21
27.2118215232
31
0.0000000000
0
SPLINE
5
303
100
AcDbEntity
8
0
100
AcDbSpline
62
9
6
CONTINUOUS
70
0
71
3
72
13
73
9
74
7
42
0.0000001000
43
0.0000001000
44
0.0000000001
12
-0.9597160341
22
17.0752403696
32
0.0000000000
13
-0.0160261008
23
17.1021820745
33
0.0000000000
40
0.0000000000
40
0.0000000000
40
0.0000000000
40
0.0000000000
40
0.1646465960
40
0.3301096518
40
0.4963830760
40
0.6634604629
40
0.8313351052
40
1.0000000000
40
1.0000000000
40
1.0000000000
40
1.0000000000
10
-14.5588545127
20
-9.8143319343
30
0.0000000000
10
-14.6115258387
20
-8.8772052000
30
0.0000000000
10
-14.7082081775
20
-6.9977914045
30
0.0000000000
10
-14.8270748010
20
-4.1705041699
30
0.0000000000
10
-14.9201309483
20
-1.3283831537
30
0.0000000000
10
-14.9873649423
20
1.5282168943
30
0.0000000000
10
-15.0287685466
20
4.3989398779
30
0.0000000000
10
-15.0391231201
20
6.3174633970
30
0.0000000000
10
-15.0400241336
20
7.2789759772
30
0.0000000000
11
-14.5588545127
21
-9.8143319343
31
0.0000000000
11
-14.7035827152
21
-7.0022364860
31
0.0000000000
11
-14.8225140598
21
-4.1749562922
31
0.0000000000
11
-14.9156338119
21
-1.3328417591
31
0.0000000000
11
-14.9829304330
21
1.5237547981
31
0.0000000000
11
-15.0243955858
21
4.3944793086
31
0.0000000000
11
-15.0400241336
21
7.2789759772
31
0.0000000000
0
SPLINE
5
304
100
AcDbEntity
8
0
100
AcDbSpline
62
9
6
CONTINUOUS
70
0
71
3
72
16
73
12
74
10
42
0.0000001000
43
0.0000001000
44
0.0000000001
12
0.0218373235
22
-0.3853488497
32
0.0000000000
13
0.3446221590
23
-0.1727825153
33
0.0000000000
40
0.0000000000
40
0.0000000000
40
0.0000000000
40
0.0000000000
40
0.0278997185
40
0.1310982862
40
0.2368600007
40
0.3469607017
40
0.4628426343
40
0.5855675399
40
0.7158216184
40
0.8539496491
40
1.0000000000
40
1.0000000000
40
1.0000000000
40
1.0000000000
10
-14.7932059603
20
-9.5301158078
30
0.0000000000
10
-14.7930028753
20
-9.5336995160
30
0.0000000000
10
-14.7916621963
20
-9.5505168164
30
0.0000000000
10
-14.7859498643
20
-9.5805593708
30
0.0000000000
10
-14.7717325227
20
-9.6192016673
30
0.0000000000
10
-14.7509850493
20
-9.6566178845
30
0.0000000000
10
-14.7239300177
20
-9.6925021685
30
0.0000000000
10
-14.6908255688
20
-9.7265784466
30
0.0000000000
10
-14.6519615947
20
-9.7585899744
30
0.0000000000
10
-14.6076686339
20
-9.7882912106
30
0.0000000000
10
-14.5756319084
20
-9.8059202853
30
0.0000000000
10
-14.5588545126
20
-9.8143319343
30
0.0000000000
11
-14.7932059603
21
-9.5301158078
31
0.0000000000
11
-14.7923497673
21
-9.5408489032
31
0.0000000000
11
-14.7849697723
21
-9.5799425287
31
0.0000000000
11
-14.7709941506
21
-9.6182447114
31
0.0000000000
11
-14.7505395102
21
-9.6554358702
31
0.0000000000
11
-14.7237765180
21
-9.6912056944
31
0.0000000000
11
-14.6909284754
21
-9.7252557323
31
0.0000000000
11
-14.6522694560
21
-9.7573018815
31
0.0000000000
11
-14.6081220178
21
-9.7870767594
31
0.0000000000
11
-14.5588545126
21
-9.8143319343
31
0.0000000000
0
SPLINE
5
305
100
AcDbEntity
8
0
100
AcDbSpline
62
9
6
CONTINUOUS
70
0
71
3
72
13
73
9
74
7
42
0.0000001000
43
0.0000001000
44
0.0000000001
12
0.0164766414
22
17.6000353235
32
0.0000000000
13
0.9334939809
23
17.5752696667
33
0.0000000000
40
0.0000000000
40
0.0000000000
40
0.0000000000
40
0.0000000000
40
0.1648132958
40
0.3303784575
40
0.4966877939
40
0.6637333488
40
0.8315069056
40
1.0000000000
40
1.0000000000
40
1.0000000000
40
1.0000000000
10
-15.0400241336
20
7.8855981757
30
0.0000000000
10
-15.0391189438
20
8.8525047849
30
0.0000000000
10
-15.0286365431
20
10.7907316477
30
0.0000000000
10
-14.9871135566
20
13.7043803955
30
0.0000000000
10
-14.9197603510
20
16.6306476861
30
0.0000000000
10
-14.8265852577
20
19.5691685583
30
0.0000000000
10
-14.7075999965
20
22.5195769235
30
0.0000000000
10
-14.6112836091
20
24.4900215615
30
0.0000000000
10
-14.5588545127
20
25.4771254184
30
0.0000000000
11
-15.0400241336
21
7.8855981757
31
0.0000000000
11
-15.0243955858
21
10.7862771724
31
0.0000000000
11
-14.9829304330
21
13.6999361072
31
0.0000000000
11
-14.9156338119
21
16.6262138663
31
0.0000000000
11
-14.8225140598
21
19.5647477464
31
0.0000000000
11
-14.7035827153
21
22.5151734847
31
0.0000000000
11
-14.5588545127
21
25.4771254184
31
0.0000000000
0
SPLINE
5
306
100
AcDbEntity
8
0
100
AcDbSpline
62
9
6
CONTINUOUS
70
0
71
3
72
9
73
5
74
3
42
0.0000001000
43
0.0000001000
44
0.0000000001
12
-0.0000045039
22
-0.0042896936
32
0.0000000000
13
0.0000881180
23
-0.0042887396
33
0.0000000000
40
0.0000000000
40
0.0000000000
40
0.0000000000
40
0.0000000000
40
0.8571348739
40
1.0000000000
40
1.0000000000
40
1.0000000000
40
1.0000000000
10
-15.2743383270
20
8.1685665167
30
0.0000000000
10
-15.2743396138
20
8.1673409014
30
0.0000000000
10
-15.2743279138
20
8.1659109999
30
0.0000000000
10
-15.2743007483
20
8.1644813742
30
0.0000000000
10
-15.2742965520
20
8.1642771371
30
0.0000000000
11
-15.2743383270
21
8.1685665167
31
0.0000000000
11
-15.2743081946
21
8.1648898671
31
0.0000000000
11
-15.2742965520
21
8.1642771371
31
0.0000000000
0
SPLINE
5
307
100
AcDbEntity
8
0
100
AcDbSpline
62
9
6
CONTINUOUS
70
0
71
3
72
8
73
4
74
2
42
0.0000001000
43
0.0000001000
44
0.0000000001
12
0.0002242205
22
-0.0109129006
32
0.0000000000
13
0.0008189448
23
-0.0108847786
33
0.0000000000
40
0.0000000000
40
0.0000000000
40
0.0000000000
40
0.0000000000
40
1.0000000000
40
1.0000000000
40
1.0000000000
40
1.0000000000
10
-15.2742965520
20
8.1642771371
30
0.0000000000
10
-15.2742218118
20
8.1606395036
30
0.0000000000
10
-15.2740470395
20
8.1570039486
30
0.0000000000
10
-15.2737740579
20
8.1533756891
30
0.0000000000
11
-15.2742965520
21
8.1642771371
31
0.0000000000
11
-15.2737740579
21
8.1533756891
31
0.0000000000
0
SPLINE
5
308
100
AcDbEntity
8
0
100
AcDbSpline
62
9
6
CONTINUOUS
70
0
71
3
72
16
73
12
74
10
42
0.0000001000
43
0.0000001000
44
0.0000000001
12
0.0278666529
22
-0.3703819364
32
0.0000000000
13
0.3318110825
23
-0.1659050364
33
0.0000000000
40
0.0000000000
40
0.0000000000
40
0.0000000000
40
0.0000000000
40
0.0623239206
40
0.1579255743
40
0.2575953612
40
0.3628377145
40
0.4747806530
40
0.5941828088
40
0.7214696584
40
0.8567729059
40
1.0000000000
40
1.0000000000
40
1.0000000000
40
1.0000000000
10
-15.2737740579
20
8.1533756891
30
0.0000000000
10
-15.2731951382
20
8.1456811376
30
0.0000000000
10
-15.2706089541
20
8.1262666854
30
0.0000000000
10
-15.2619467041
20
8.0954641690
30
0.0000000000
10
-15.2463220118
20
8.0615926039
30
0.0000000000
10
-15.2249458897
20
8.0286143599
30
0.0000000000
10
-15.1980117971
20
7.9967540285
30
0.0000000000
10
-15.1657366567
20
7.9662227581
30
0.0000000000
10
-15.1283639320
20
7.9372250988
30
0.0000000000
10
-15.0861707603
20
7.9099603074
30
0.0000000000
10
-15.0558655418
20
7.8935188937
30
0.0000000000
10
-15.0400240961
20
7.8855981949
30
0.0000000000
11
-15.2737740579
21
8.1533756891
31
0.0000000000
11
-15.2707296014
21
8.1304402250
31
0.0000000000
11
-15.2612238886
21
8.0962719390
31
0.0000000000
11
-15.2458617608
21
8.0626391900
31
0.0000000000
11
-15.2247575210
21
8.0297923063
31
0.0000000000
11
-15.1980684279
21
7.9979759968
31
0.0000000000
11
-15.1659930765
21
7.9674269086
31
0.0000000000
11
-15.1287697227
21
7.9383720805
31
0.0000000000
11
-15.0866769425
21
7.9110287231
31
0.0000000000
11
-15.0400240961
21
7.8855981949
31
0.0000000000
0
SPLINE
5
309
100
AcDbEntity
8
0
100
AcDbSpline
62
9
6
CONTINUOUS
70
0
71
3
72
16
73
12
74
10
42
0.0000001000
43
0.0000001000
44
0.0000000001
12
-0.0196045573
22
-0.3829695242
32
0.0000000000
13
0.3426486951
23
-0.1708004363
33
0.0000000000
40
0.0000000000
40
0.0000000000
40
0.0000000000
40
0.0000000000
40
0.0755939559
40
0.1652857749
40
0.2597745989
40
0.3610039963
40
0.4703586653
40
0.5886984698
40
0.7164358970
40
0.8536184294
40
1.0000000000
40
1.0000000000
40
1.0000000000
40
1.0000000000
10
-14.7933635586
20
25.7544059269
30
0.0000000000
10
-14.7938575539
20
25.7447558665
30
0.0000000000
10
-14.7930969391
20
25.7235591419
30
0.0000000000
10
-14.7857997875
20
25.6910141317
30
0.0000000000
10
-14.7714781817
20
25.6573318783
30
0.0000000000
10
-14.7506707028
20
25.6242577433
30
0.0000000000
10
-14.7236035639
20
25.5920271662
30
0.0000000000
10
-14.6905215132
20
25.5608655698
30
0.0000000000
10
-14.6516992921
20
25.5309990764
30
0.0000000000
10
-14.6074548989
20
25.5026558682
30
0.0000000000
10
-14.5755736389
20
25.4854594410
30
0.0000000000
10
-14.5588544875
20
25.4771254289
30
0.0000000000
11
-14.7933635586
21
25.7544059269
31
0.0000000000
11
-14.7923497438
21
25.7254694690
31
0.0000000000
11
-14.7849697475
21
25.6919325672
31
0.0000000000
11
-14.7709941248
21
25.6585652687
31
0.0000000000
11
-14.7505394838
21
25.6256459793
31
0.0000000000
11
-14.7237764912
21
25.5934493667
31
0.0000000000
11
-14.6909284486
21
25.5622440689
31
0.0000000000
11
-14.6522694294
21
25.5322904528
31
0.0000000000
11
-14.6081219918
21
25.5038384413
31
0.0000000000
11
-14.5588544875
21
25.4771254289
31
0.0000000000
0
SPLINE
5
30A
100
AcDbEntity
8
0
100
AcDbSpline
62
9
6
CONTINUOUS
70
0
71
3
72
15
73
11
74
9
42
0.0000001000
43
0.0000001000
44
0.0000000001
12
0.3385987058
22
0.1823368470
32
0.0000000000
13
0.3460354530
23
-0.1669561820
33
0.0000000000
40
0.0000000000
40
0.0000000000
40
0.0000000000
40
0.0000000000
40
0.0722745600
40
0.1913986084
40
0.3131186027
40
0.4388299500
40
0.5696721386
40
0.7064930235
40
0.8498446789
40
1.0000000000
40
1.0000000000
40
1.0000000000
40
1.0000000000
10
-13.8974122705
20
27.2282130940
30
0.0000000000
10
-13.8892549130
20
27.2326058658
30
0.0000000000
10
-13.8671176694
20
27.2432464901
30
0.0000000000
10
-13.8289967221
20
27.2561589406
30
0.0000000000
10
-13.7826620462
20
27.2646286875
30
0.0000000000
10
-13.7341189589
20
27.2667157426
30
0.0000000000
10
-13.6837960858
20
27.2624319212
30
0.0000000000
10
-13.6321214548
20
27.2518405125
30
0.0000000000
10
-13.5795320616
20
27.2350547746
30
0.0000000000
10
-13.5449433770
20
27.2201779762
30
0.0000000000
10
-13.5276236888
20
27.2118215232
30
0.0000000000
11
-13.8974122705
21
27.2282130940
31
0.0000000000
11
-13.8723702137
21
27.2402501404
31
0.0000000000
11
-13.8290382228
21
27.2549835570
31
0.0000000000
11
-13.7830514691
21
27.2634832631
31
0.0000000000
11
-13.7348021435
21
27.2656767701
31
0.0000000000
11
-13.6847017326
21
27.2615453713
31
0.0000000000
11
-13.6331775099
21
27.2511243004
31
0.0000000000
11
-13.5806688915
21
27.2345024321
31
0.0000000000
11
-13.5276236888
21
27.2118215232
31
0.0000000000
0
SPLINE
5
30B
100
AcDbEntity
8
0
100
AcDbSpline
62
9
6
CONTINUOUS
70
0
71
3
72
17
73
13
74
11
42
0.0000001000
43
0.0000001000
44
0.0000000001
12
-0.0074434282
22
-0.5170630141
32
0.0000000000
13
-0.4698937844
23
-0.2170610814
33
0.0000000000
40
0.0000000000
40
0.0000000000
40
0.0000000000
40
0.0000000000
40
0.1222347831
40
0.2395433338
40
0.3517466121
40
0.4588263348
40
0.5609488842
40
0.6584871938
40
0.7520358142
40
0.8424118869
40
0.9306335130
40
1.0000000000
40
1.0000000000
40
1.0000000000
40
1.0000000000
10
17.1233158609
20
-25.1336140262
30
0.0000000000
10
17.1230125789
20
-25.1546817213
30
0.0000000000
10
17.1209194910
20
-25.1959669176
30
0.0000000000
10
17.1130150144
20
-25.2561488178
30
0.0000000000
10
17.1004666960
20
-25.3128774755
30
0.0000000000
10
17.0833693340
20
-25.3656716633
30
0.0000000000
10
17.0618515585
20
-25.4140856152
30
0.0000000000
10
17.0360753541
20
-25.4577027192
30
0.0000000000
10
17.0062377372
20
-25.4961368014
30
0.0000000000
10
16.9725756631
20
-25.5290327069
30
0.0000000000
10
16.9378737368
20
-25.5542545995
30
0.0000000000
10
16.9138768666
20
-25.5671447486
30
0.0000000000
10
16.9030119062
20
-25.5721636702
30
0.0000000000
11
17.1233158609
21
-25.1336140262
31
0.0000000000
11
17.1200197825
21
-25.1967376643
31
0.0000000000
11
17.1120123872
21
-25.2568690523
31
0.0000000000
11
17.0993619648
21
-25.3134953692
31
0.0000000000
11
17.0821764024
21
-25.3661336864
31
0.0000000000
11
17.0606022643
21
-25.4143350864
31
0.0000000000
11
17.0348235422
21
-25.4576884912
31
0.0000000000
11
17.0050600858
21
-25.4958241682
31
0.0000000000
11
16.9715657281
21
-25.5284168832
31
0.0000000000
11
16.9346261202
21
-25.5551886745
31
0.0000000000
11
16.9030119062
21
-25.5721636702
31
0.0000000000
0
SPLINE
5
30C
100
AcDbEntity
8
0
100
AcDbSpline
62
9
6
CONTINUOUS
70
0
71
3
72
27
73
23
74
21
42
0.0000001000
43
0.0000001000
44
0.0000000001
12
0.0420941086
22
-0.7239344791
32
0.0000000000
13
0.6583414078
23
0.3040388704
33
0.0000000000
40
0.0000000000
40
0.0000000000
40
0.0000000000
40
0.0000000000
40
0.0593551826
40
0.1167323710
40
0.1721050104
40
0.2255004525
40
0.2769958971
40
0.3267214575
40
0.3748624107
40
0.4216595008
40
0.4674054888
40
0.5124373929
40
0.5571243845
40
0.6018518067
40
0.6470031178
40
0.6929420822
40
0.7399973714
40
0.7884512671
40
0.8385332241
40
0.8904171764
40
0.9442214091
40
1.0000000000
40
1.0000000000
40
1.0000000000
40
1.0000000000
10
16.6296534919
20
-24.8070240445
30
0.0000000000
10
16.6304863264
20
-24.8213471323
30
0.0000000000
10
16.6330281814
20
-24.8494739755
30
0.0000000000
10
16.6396521724
20
-24.8905793149
30
0.0000000000
10
16.6489912195
20
-24.9296804283
30
0.0000000000
10
16.6609977244
20
-24.9665585700
30
0.0000000000
10
16.6756107954
20
-25.0010113483
30
0.0000000000
10
16.6927560756
20
-25.0328473210
30
0.0000000000
10
16.7123454202
20
-25.0618871888
30
0.0000000000
10
16.7342762779
20
-25.0879641700
30
0.0000000000
10
16.7584307728
20
-25.1109252223
30
0.0000000000
10
16.7846748896
20
-25.1306330090
30
0.0000000000
10
16.8128584761
20
-25.1469687145
30
0.0000000000
10
16.8428166804
20
-25.1598350637
30
0.0000000000
10
16.8743727855
20
-25.1691585407
30
0.0000000000
10
16.9073416954
20
-25.1748900556
30
0.0000000000
10
16.9415330062
20
-25.1770041057
30
0.0000000000
10
16.9767531649
20
-25.1754970287
30
0.0000000000
10
17.0128062389
20
-25.1703853959
30
0.0000000000
10
17.0494950342
20
-25.1617041175
30
0.0000000000
10
17.0866146510
20
-25.1495087938
30
0.0000000000
10
17.1110754089
20
-25.1392669795
30
0.0000000000
10
17.1233158609
20
-25.1336140262
30
0.0000000000
11
16.6296534919
21
-24.8070240445
31
0.0000000000
11
16.6335756589
21
-24.8498868105
31
0.0000000000
11
16.6402467835
21
-24.8909560064
31
0.0000000000
11
16.6496297048
21
-24.9299982164
31
0.0000000000
11
16.6616726711
21
-24.9667978427
31
0.0000000000
11
16.6763093221
21
-25.0011521069
31
0.0000000000
11
16.6934590187
21
-25.0328716377
31
0.0000000000
11
16.7130271977
21
-25.0617814598
31
0.0000000000
11
16.7349059865
21
-25.0877221566
31
0.0000000000
11
16.7589747975
21
-25.1105507043
31
0.0000000000
11
16.7851009400
21
-25.1301412006
31
0.0000000000
11
16.8131403734
21
-25.1463855975
31
0.0000000000
11
16.8429385013
21
-25.1591942991
31
0.0000000000
11
16.8743310413
21
-25.1684966616
31
0.0000000000
11
16.9071449476
21
-25.1742413758
31
0.0000000000
11
16.9411992919
21
-25.1763967347
31
0.0000000000
11
16.9763062233
21
-25.1749508335
31
0.0000000000
11
17.0122722134
21
-25.1699116433
31
0.0000000000
11
17.0488990547
21
-25.1613068943
31
0.0000000000
11
17.0859844810
21
-25.1491841576
31
0.0000000000
11
17.1233158609
21
-25.1336140262
31
0.0000000000
0
SPLINE
5
30D
100
AcDbEntity
8
0
100
AcDbSpline
62
9
6
CONTINUOUS
70
0
71
3
72
18
73
14
74
12
42
0.0000001000
43
0.0000001000
44
0.0000000001
12
0.0495995118
22
-0.8607076221
32
0.0000000000
13
0.7707903798
23
-0.3873532994
33
0.0000000000
40
0.0000000000
40
0.0000000000
40
0.0000000000
40
0.0000000000
40
0.1069451745
40
0.2102598556
40
0.3099073130
40
0.4059295542
40
0.4984591886
40
0.5877255028
40
0.6740591535
40
0.7578934163
40
0.8397586385
40
0.9202686783
40
1.0000000000
40
1.0000000000
40
1.0000000000
40
1.0000000000
10
15.5095476080
20
-24.8485329946
30
0.0000000000
10
15.5113157508
20
-24.8792158369
30
0.0000000000
10
15.5167113828
20
-24.9394515532
30
0.0000000000
10
15.5307747832
20
-25.0274687363
30
0.0000000000
10
15.5506013016
20
-25.1111594753
30
0.0000000000
10
15.5760905068
20
-25.1900613584
30
0.0000000000
10
15.6071134049
20
-25.2637417166
30
0.0000000000
10
15.6435124652
20
-25.3317915687
30
0.0000000000
10
15.6851011862
20
-25.3938279883
30
0.0000000000
10
15.7316626680
20
-25.4494947752
30
0.0000000000
10
15.7829475332
20
-25.4984648981
30
0.0000000000
10
15.8386491168
20
-25.5404274663
30
0.0000000000
10
15.8785711228
20
-25.5636027579
30
0.0000000000
10
15.8990565014
20
-25.5738974880
30
0.0000000000
11
15.5095476080
21
-24.8485329946
31
0.0000000000
11
15.5178771062
21
-24.9403572164
31
0.0000000000
11
15.5320421080
21
-25.0282949339
31
0.0000000000
11
15.5519647314
21
-25.1118625787
31
0.0000000000
11
15.5775350290
21
-25.1905987316
31
0.0000000000
11
15.6086121236
21
-25.2640695405
31
0.0000000000
11
15.6450247915
21
-25.3318700380
31
0.0000000000
11
15.6865722587
21
-25.3936262353
31
0.0000000000
11
15.7330254907
21
-25.4489976138
31
0.0000000000
11
15.7841284724
21
-25.4976789149
31
0.0000000000
11
15.8395995173
21
-25.5394016922
31
0.0000000000
11
15.8990565014
21
-25.5738974880
31
0.0000000000
0
SPLINE
5
30E
100
AcDbEntity
8
0
100
AcDbSpline
62
9
6
CONTINUOUS
70
0
71
3
72
24
73
20
74
18
42
0.0000001000
43
0.0000001000
44
0.0000000001
12
-1.0088419886
22
-0.5698083474
32
0.0000000000
13
-1.0368848304
23
0.5170237511
33
0.0000000000
40
0.0000000000
40
0.0000000000
40
0.0000000000
40
0.0000000000
40
0.0531966254
40
0.1086694782
40
0.1661815756
40
0.2254556774
40
0.2861822564
40
0.3480266664
40
0.4106357462
40
0.4736440422
40
0.5366797964
40
0.5993708200
40
0.6613503592
40
0.7222630592
40
0.7817711440
40
0.8395609534
40
0.8953500152
40
0.9488948797
40
1.0000000000
40
1.0000000000
40
1.0000000000
40
1.0000000000
10
16.6296534919
20
-24.8070240445
30
0.0000000000
10
16.6117644954
20
-24.8171280049
30
0.0000000000
10
16.5744467856
20
-24.8364205810
30
0.0000000000
10
16.5155734536
20
-24.8620791398
30
0.0000000000
10
16.4530372259
20
-24.8848945884
30
0.0000000000
10
16.3873588031
20
-24.9046766805
30
0.0000000000
10
16.3190804726
20
-24.9212624781
30
0.0000000000
10
16.2487682525
20
-24.9345143265
30
0.0000000000
10
16.1770051313
20
-24.9443222736
30
0.0000000000
10
16.1043865953
20
-24.9506048350
30
0.0000000000
10
16.0315153755
20
-24.9533098324
30
0.0000000000
10
15.9589963277
20
-24.9524148405
30
0.0000000000
10
15.8874312231
20
-24.9479273641
30
0.0000000000
10
15.8174136362
20
-24.9398847425
30
0.0000000000
10
15.7495236610
20
-24.9283536404
30
0.0000000000
10
15.6843235491
20
-24.9134296102
30
0.0000000000
10
15.6223505974
20
-24.8952348774
30
0.0000000000
10
15.5641205885
20
-24.8739207612
30
0.0000000000
10
15.5272109970
20
-24.8573405066
30
0.0000000000
10
15.5095476224
20
-24.8485329863
30
0.0000000000
11
16.6296534919
21
-24.8070240445
31
0.0000000000
11
16.5749455047
21
-24.8354140433
31
0.0000000000
11
16.5160571817
21
-24.8611663909
31
0.0000000000
11
16.4534798678
21
-24.8840662184
31
0.0000000000
11
16.3877356876
21
-24.9039224569
31
0.0000000000
11
16.3193731889
21
-24.9205694325
31
0.0000000000
11
16.2489627661
21
-24.9338682485
31
0.0000000000
11
16.1770919006
21
-24.9437079437
31
0.0000000000
11
16.1043602594
21
-24.9500064190
31
0.0000000000
11
16.0313746915
21
-24.9527111219
31
0.0000000000
11
15.9587441644
21
-24.9517994855
31
0.0000000000
11
15.8870746836
21
-24.9472791159
31
0.0000000000
11
15.8169642356
21
-24.9391877297
31
0.0000000000
11
15.7489977991
21
-24.9275928388
31
0.0000000000
11
15.6837424637
21
-24.9125911872
31
0.0000000000
11
15.6217426986
21
-24.8943079437
31
0.0000000000
11
15.5635158095
21
-24.8728956577
31
0.0000000000
11
15.5095476224
21
-24.8485329863
31
0.0000000000
0
SPLINE
5
30F
100
AcDbEntity
8
0
100
AcDbSpline
62
0
6
CONTINUOUS
70
0
71
3
72
21
73
17
74
15
42
0.0000001000
43
0.0000001000
44
0.0000000001
12
0.5160210402
22
-0.2580105201
32
0.0000000000
13
0.5195369640
23
0.2508555071
33
0.0000000000
40
0.0000000000
40
0.0000000000
40
0.0000000000
40
0.0000000000
40
0.0627713395
40
0.1292478837
40
0.1989794981
40
0.2714267165
40
0.3459820682
40
0.4219886691
40
0.4987571045
40
0.5755813229
40
0.6517540662
40
0.7265822664
40
0.7994028357
40
0.8695993524
40
0.9366203240
40
1.0000000000
40
1.0000000000
40
1.0000000000
40
1.0000000000
10
15.2940239122
20
-7.4319426049
30
0.0000000000
10
15.3048210229
20
-7.4373411603
30
0.0000000000
10
15.3275668728
20
-7.4474474948
30
0.0000000000
10
15.3636694197
20
-7.4602271846
30
0.0000000000
10
15.4023711169
20
-7.4709409058
30
0.0000000000
10
15.4431991616
20
-7.4794568982
30
0.0000000000
10
15.4856582894
20
-7.4856717352
30
0.0000000000
10
15.5292307713
20
-7.4895091112
30
0.0000000000
10
15.5733849731
20
-7.4909219432
30
0.0000000000
10
15.6175816955
20
-7.4898928494
30
0.0000000000
10
15.6612811958
20
-7.4864344946
30
0.0000000000
10
15.7039502065
20
-7.4805893198
30
0.0000000000
10
15.7450683091
20
-7.4724291215
30
0.0000000000
10
15.7841364601
20
-7.4620530938
30
0.0000000000
10
15.8206772242
20
-7.4495889423
30
0.0000000000
10
15.8437539449
20
-7.4396889224
30
0.0000000000
10
15.8547299730
20
-7.4343892088
30
0.0000000000
11
15.2940239122
21
-7.4319426049
31
0.0000000000
11
15.3270810255
21
-7.4467319673
31
0.0000000000
11
15.3632099922
21
-7.4596002564
31
0.0000000000
11
15.4019664998
21
-7.4703892186
31
0.0000000000
11
15.4428739222
21
-7.4789661715
31
0.0000000000
11
15.4854291815
21
-7.4852256362
31
0.0000000000
11
15.5291089350
21
-7.4890906340
31
0.0000000000
11
15.5733760106
21
-7.4905136333
31
0.0000000000
11
15.6176860136
21
-7.4894771342
31
0.0000000000
11
15.6614940214
21
-7.4859938835
31
0.0000000000
11
15.7042612849
21
-7.4801067180
31
0.0000000000
11
15.7454618538
21
-7.4718880378
31
0.0000000000
11
15.7845890452
21
-7.4614389161
31
0.0000000000
11
15.8211616745
21
-7.4488878556
31
0.0000000000
11
15.8547299730
21
-7.4343892088
31
0.0000000000
0
SPLINE
5
310
100
AcDbEntity
8
0
100
AcDbSpline
62
0
6
CONTINUOUS
70
0
71
3
72
13
73
9
74
7
42
0.0000001000
43
0.0000001000
44
0.0000000001
12
0.3783835718
22
-0.1176018708
32
0.0000000000
13
0.3796275436
23
0.1139413959
33
0.0000000000
40
0.0000000000
40
0.0000000000
40
0.0000000000
40
0.0000000000
40
0.1014396553
40
0.2932296990
40
0.4780053695
40
0.6566219937
40
0.8301792885
40
1.0000000000
40
1.0000000000
40
1.0000000000
40
1.0000000000
10
0.4194874947
20
-1.0629929298
30
0.0000000000
10
0.4322818610
20
-1.0669694276
30
0.0000000000
10
0.4695236431
20
-1.0776340465
30
0.0000000000
10
0.5313435455
20
-1.0908167184
30
0.0000000000
10
0.6043256912
20
-1.0989465792
30
0.0000000000
10
0.6753654402
20
-1.0992535903
30
0.0000000000
10
0.7440319899
20
-1.0917144011
30
0.0000000000
10
0.7882956902
20
-1.0813925743
30
0.0000000000
10
0.8097852301
20
-1.0749427046
30
0.0000000000
11
0.4194874947
21
-1.0629929298
31
0.0000000000
11
0.4581301801
21
-1.0740395541
31
0.0000000000
11
0.5324585026
21
-1.0897466653
31
0.0000000000
11
0.6052148472
21
-1.0977146705
31
0.0000000000
11
0.6759663160
21
-1.0978962718
31
0.0000000000
11
0.7442919496
21
-1.0902904972
31
0.0000000000
11
0.8097852301
21
-1.0749427046
31
0.0000000000
0
SPLINE
5
311
100
AcDbEntity
8
0
100
AcDbSpline
62
0
6
CONTINUOUS
70
0
71
3
72
8
73
4
74
2
42
0.0000001000
43
0.0000001000
44
0.0000000001
12
0.0047441431
22
0.0014239069
32
0.0000000000
13
0.0047308793
23
0.0014675788
33
0.0000000000
40
0.0000000000
40
0.0000000000
40
0.0000000000
40
0.0000000000
40
1.0000000000
40
1.0000000000
40
1.0000000000
40
1.0000000000
10
0.8097852301
20
-1.0749427046
30
0.0000000000
10
0.8113666111
20
-1.0744680690
30
0.0000000000
10
0.8129458180
20
-1.0739861492
30
0.0000000000
10
0.8145227778
20
-1.0734969563
30
0.0000000000
11
0.8097852301
21
-1.0749427046
31
0.0000000000
11
0.8145227778
21
-1.0734969563
31
0.0000000000
0
SPLINE
5
312
100
AcDbEntity
8
0
100
AcDbSpline
62
9
6
CONTINUOUS
70
0
71
3
72
13
73
9
74
7
42
0.0000001000
43
0.0000001000
44
0.0000000001
12
0.0165917701
22
-17.0651152526
32
0.0000000000
13
0.9905169905
23
-17.0363526015
33
0.0000000000
40
0.0000000000
40
0.0000000000
40
0.0000000000
40
0.0000000000
40
0.1685903466
40
0.3364193264
40
0.5034803522
40
0.6697677030
40
0.8352759592
40
1.0000000000
40
1.0000000000
40
1.0000000000
40
1.0000000000
10
16.1327406028
20
-7.7513911355
30
0.0000000000
10
16.1336730069
20
-8.7103957008
30
0.0000000000
10
16.1443717411
20
-10.6240774696
30
0.0000000000
10
16.1871351209
20
-13.4877830347
30
0.0000000000
10
16.2565724714
20
-16.3378647471
30
0.0000000000
10
16.3526752465
20
-19.1739639518
30
0.0000000000
10
16.4754313809
20
-21.9957263820
30
0.0000000000
10
16.5752661715
20
-23.8715917642
30
0.0000000000
10
16.6296534919
20
-24.8070240445
30
0.0000000000
11
16.1327406028
21
-7.7513911355
31
0.0000000000
11
16.1488850104
21
-10.6283608937
31
0.0000000000
11
16.1917095642
21
-13.4920629425
31
0.0000000000
11
16.2612089527
21
-16.3421326994
31
0.0000000000
11
16.3573745656
21
-19.1782169286
31
0.0000000000
11
16.4801944913
21
-21.9999640537
31
0.0000000000
11
16.6296534919
21
-24.8070240445
31
0.0000000000
0
SPLINE
5
313
100
AcDbEntity
8
0
100
AcDbSpline
62
9
6
CONTINUOUS
70
0
71
3
72
13
73
9
74
7
42
0.0000001000
43
0.0000001000
44
0.0000000001
12
0.0166025799
22
-17.1113396297
32
0.0000000000
13
0.9931561127
23
-17.0825015880
33
0.0000000000
40
0.0000000000
40
0.0000000000
40
0.0000000000
40
0.0000000000
40
0.1685909842
40
0.3364199689
40
0.5034809327
40
0.6697681526
40
0.8352762094
40
1.0000000000
40
1.0000000000
40
1.0000000000
40
1.0000000000
10
15.0113282768
20
-7.7467002280
30
0.0000000000
10
15.0122612919
20
-8.7083060908
30
0.0000000000
10
15.0229851230
20
-10.6271751426
30
0.0000000000
10
15.0658582499
20
-13.4986410392
30
0.0000000000
10
15.1354772406
20
-16.3564418632
30
0.0000000000
10
15.2318335755
20
-19.2002212099
30
0.0000000000
10
15.3549151560
20
-22.0296239513
30
0.0000000000
10
15.4550154615
20
-23.9105681897
30
0.0000000000
10
15.5095476080
20
-24.8485329946
30
0.0000000000
11
15.0113282768
21
-7.7467002280
31
0.0000000000
11
15.0275106048
21
-10.6314737868
31
0.0000000000
11
15.0704450292
21
-13.5029329330
31
0.0000000000
11
15.1401262312
21
-16.3607217806
31
0.0000000000
11
15.2365455781
21
-19.2044861111
31
0.0000000000
11
15.3596911226
21
-22.0338734049
31
0.0000000000
11
15.5095476080
21
-24.8485329946
31
0.0000000000
0
SPLINE
5
314
100
AcDbEntity
8
0
100
AcDbSpline
62
9
6
CONTINUOUS
70
0
71
3
72
9
73
5
74
3
42
0.0000001000
43
0.0000001000
44
0.0000000001
12
-0.0160290287
22
0.0080143731
32
0.0000000000
13
-0.0157609104
23
0.0085297253
33
0.0000000000
40
0.0000000000
40
0.0000000000
40
0.0000000000
40
0.0000000000
40
0.0590101761
40
1.0000000000
40
1.0000000000
40
1.0000000000
40
1.0000000000
10
-14.1746194914
20
-10.5370608036
30
0.0000000000
10
-14.1749347833
20
-10.5369031604
30
0.0000000000
10
-14.1802752313
20
-10.5342265806
30
0.0000000000
10
-14.1855720917
20
-10.5314632566
30
0.0000000000
10
-14.1905157105
20
-10.5287877951
30
0.0000000000
11
-14.1746194914
21
-10.5370608036
31
0.0000000000
11
-14.1755649131
21
-10.5365869675
31
0.0000000000
11
-14.1905157105
21
-10.5287877951
31
0.0000000000
0
SPLINE
5
315
100
AcDbEntity
8
0
100
AcDbSpline
62
9
6
CONTINUOUS
70
0
71
3
72
8
73
4
74
2
42
0.0000001000
43
0.0000001000
44
0.0000000001
12
-0.0238195698
22
0.0128910311
32
0.0000000000
13
-0.0231642473
23
0.0140349577
33
0.0000000000
40
0.0000000000
40
0.0000000000
40
0.0000000000
40
0.0000000000
40
1.0000000000
40
1.0000000000
40
1.0000000000
40
1.0000000000
10
-14.1905157105
20
-10.5287877951
30
0.0000000000
10
-14.1984555671
20
-10.5244907847
30
0.0000000000
10
-14.2062905077
20
-10.5199997913
30
0.0000000000
10
-14.2140119234
20
-10.5153214721
30
0.0000000000
11
-14.1905157105
21
-10.5287877951
31
0.0000000000
11
-14.2140119234
21
-10.5153214721
31
0.0000000000
0
SPLINE
5
316
100
AcDbEntity
8
0
100
AcDbSpline
62
9
6
CONTINUOUS
70
0
71
3
72
18
73
14
74
12
42
0.0000001000
43
0.0000001000
44
0.0000000001
12
-0.6950720297
22
0.4211363505
32
0.0000000000
13
-0.0459950557
23
0.8108888373
33
0.0000000000
40
0.0000000000
40
0.0000000000
40
0.0000000000
40
0.0000000000
40
0.0293409985
40
0.1135883095
40
0.1994013797
40
0.2874436631
40
0.3782829076
40
0.4723776297
40
0.5700725074
40
0.6716010725
40
0.7770918763
40
0.8865759436
40
1.0000000000
40
1.0000000000
40
1.0000000000
40
1.0000000000
10
-14.2140119234
20
-10.5153214721
30
0.0000000000
10
-14.2208099592
20
-10.5112026184
30
0.0000000000
10
-14.2467866503
20
-10.4946951090
30
0.0000000000
10
-14.2899183702
20
-10.4620159505
30
0.0000000000
10
-14.3403742286
20
-10.4134501045
30
0.0000000000
10
-14.3861790481
20
-10.3581527868
30
0.0000000000
10
-14.4270890914
20
-10.2964494548
30
0.0000000000
10
-14.4628924643
20
-10.2286942360
30
0.0000000000
10
-14.4934067766
20
-10.1552678059
30
0.0000000000
10
-14.5184777176
20
-10.0765770126
30
0.0000000000
10
-14.5379786428
20
-9.9930527413
30
0.0000000000
10
-14.5518108588
20
-9.9051558495
30
0.0000000000
10
-14.5571155307
20
-9.8449900347
30
0.0000000000
10
-14.5588545127
20
-9.8143319343
30
0.0000000000
11
-14.2140119234
21
-10.5153214721
31
0.0000000000
11
-14.2341361673
21
-10.5025338499
31
0.0000000000
11
-14.2887108111
21
-10.4612592732
31
0.0000000000
11
-14.3389879788
21
-10.4129908791
31
0.0000000000
11
-14.3846905360
21
-10.3579948380
31
0.0000000000
11
-14.4255666047
21
-10.2965743399
31
0.0000000000
11
-14.4613908523
21
-10.2290680525
31
0.0000000000
11
-14.4919657472
21
-10.1558483435
31
0.0000000000
11
-14.5171228376
21
-10.0773187941
31
0.0000000000
11
-14.5367235118
21
-9.9939121240
31
0.0000000000
11
-14.5506596187
21
-9.9060888540
31
0.0000000000
11
-14.5588545127
21
-9.8143319343
31
0.0000000000
0
SPLINE
5
317
100
AcDbEntity
8
0
100
AcDbSpline
62
9
6
CONTINUOUS
70
0
71
3
72
13
73
9
74
7
42
0.0000001000
43
0.0000001000
44
0.0000000001
12
-0.9669463657
22
-17.5655444625
32
0.0000000000
13
-0.0170530952
23
-17.5921302499
33
0.0000000000
40
0.0000000000
40
0.0000000000
40
0.0000000000
40
0.0000000000
40
0.1684377116
40
0.3361768009
40
0.5032097288
40
0.6695292083
40
0.8351282167
40
1.0000000000
40
1.0000000000
40
1.0000000000
40
1.0000000000
10
15.5095476080
20
10.4429243581
30
0.0000000000
10
15.4552575303
20
9.4566909871
30
0.0000000000
10
15.3555230513
20
7.4878290053
30
0.0000000000
10
15.2323229717
20
4.5395198321
30
0.0000000000
10
15.1358477770
20
1.6026406315
30
0.0000000000
10
15.0661096187
20
-1.3224425620
30
0.0000000000
10
15.0231171255
20
-4.2353647684
30
0.0000000000
10
15.0122654682
20
-6.1732627339
30
0.0000000000
10
15.0113282768
20
-7.1400780295
30
0.0000000000
11
15.5095476080
21
10.4429243581
31
0.0000000000
11
15.3596911226
21
7.4835365658
31
0.0000000000
11
15.2365455781
21
4.5352179275
31
0.0000000000
11
15.1401262312
21
1.5983338448
31
0.0000000000
11
15.0704450292
21
-1.3267516239
31
0.0000000000
11
15.0275106048
21
-4.2396759229
31
0.0000000000
11
15.0113282768
21
-7.1400780295
31
0.0000000000
0
SPLINE
5
318
100
AcDbEntity
8
0
100
AcDbSpline
62
9
6
CONTINUOUS
70
0
71
3
72
17
73
13
74
11
42
0.0000001000
43
0.0000001000
44
0.0000000001
12
-0.3450275814
22
0.1725175580
32
0.0000000000
13
-0.0005907202
23
0.3862159478
33
0.0000000000
40
0.0000000000
40
0.0000000000
40
0.0000000000
40
0.0000000000
40
0.1377426203
40
0.2678695433
40
0.3902928197
40
0.5051401905
40
0.6128218619
40
0.7140682410
40
0.8099645590
40
0.9019573664
40
0.9918038810
40
1.0000000000
40
1.0000000000
40
1.0000000000
40
1.0000000000
10
-15.0400240960
20
7.2789759956
30
0.0000000000
10
-15.0558657637
20
7.2868970024
30
0.0000000000
10
-15.0861715679
20
7.3033400889
30
0.0000000000
10
-15.1283649160
20
7.3306101018
30
0.0000000000
10
-15.1657377978
20
7.3596159917
30
0.0000000000
10
-15.1980130358
20
7.3901584457
30
0.0000000000
10
-15.2249471189
20
7.4220328165
30
0.0000000000
10
-15.2463230759
20
7.4550277984
30
0.0000000000
10
-15.2619474379
20
7.4889185755
30
0.0000000000
10
-15.2716529980
20
7.5234539574
30
0.0000000000
10
-15.2742170504
20
7.5478768880
30
0.0000000000
10
-15.2743365904
20
7.5604985383
30
0.0000000000
10
-15.2743382043
20
7.5615536956
30
0.0000000000
11
-15.0400240960
21
7.2789759956
31
0.0000000000
11
-15.0866769424
21
7.3044086318
31
0.0000000000
11
-15.1287697227
21
7.3317570869
31
0.0000000000
11
-15.1659930764
21
7.3608199635
31
0.0000000000
11
-15.1980684279
21
7.3913799918
31
0.0000000000
11
-15.2247575210
21
7.4232100525
31
0.0000000000
11
-15.2458617608
21
7.4560733976
31
0.0000000000
11
-15.2612238886
21
7.4897251966
31
0.0000000000
11
-15.2707296013
21
7.5239149809
31
0.0000000000
11
-15.2743081946
21
7.5583884113
31
0.0000000000
11
-15.2743382043
21
7.5615536956
31
0.0000000000
0
SPLINE
5
319
100
AcDbEntity
8
0
100
AcDbSpline
62
9
6
CONTINUOUS
70
0
71
3
72
10
73
6
74
4
42
0.0000001000
43
0.0000001000
44
0.0000000001
12
-0.0445215031
22
0.0602506604
32
0.0000000000
13
-0.0181039840
23
0.0727260743
33
0.0000000000
40
0.0000000000
40
0.0000000000
40
0.0000000000
40
0.0000000000
40
0.3912216839
40
0.7617484783
40
1.0000000000
40
1.0000000000
40
1.0000000000
40
1.0000000000
10
-15.0371499717
20
7.6312505178
30
0.0000000000
10
-15.0429558976
20
7.6391076394
30
0.0000000000
10
-15.0533250240
20
7.6551081688
30
0.0000000000
10
-15.0638152215
20
7.6778548567
30
0.0000000000
10
-15.0683094573
20
7.6924095404
30
0.0000000000
10
-15.0697472245
20
7.6981852397
30
0.0000000000
11
-15.0371499717
21
7.6312505178
31
0.0000000000
11
-15.0529794255
21
7.6558928132
31
0.0000000000
11
-15.0645019494
21
7.6811255815
31
0.0000000000
11
-15.0697472245
21
7.6981852397
31
0.0000000000
0
SPLINE
5
31A
100
AcDbEntity
8
0
100
AcDbSpline
62
9
6
CONTINUOUS
70
0
71
3
72
9
73
5
74
3
42
0.0000001000
43
0.0000001000
44
0.0000000001
12
0.0071103930
22
0.0261583209
32
0.0000000000
13
0.0111261127
23
0.0247141185
33
0.0000000000
40
0.0000000000
40
0.0000000000
40
0.0000000000
40
0.0000000000
40
0.3287319426
40
1.0000000000
40
1.0000000000
40
1.0000000000
40
1.0000000000
10
-15.0688692626
20
7.7756376475
30
0.0000000000
10
-15.0680901249
20
7.7785040060
30
0.0000000000
10
-15.0654814286
20
7.7871586361
30
0.0000000000
10
-15.0621800906
20
7.7955797483
30
0.0000000000
10
-15.0596905559
20
7.8011096811
30
0.0000000000
11
-15.0688692626
21
7.7756376475
31
0.0000000000
11
-15.0663001512
21
7.7841688777
31
0.0000000000
11
-15.0596905559
21
7.8011096811
31
0.0000000000
0
SPLINE
5
31B
100
AcDbEntity
8
0
100
AcDbSpline
62
9
6
CONTINUOUS
70
0
71
3
72
9
73
5
74
3
42
0.0000001000
43
0.0000001000
44
0.0000000001
12
0.0061872967
22
0.0137436666
32
0.0000000000
13
0.0072479899
23
0.0132107606
33
0.0000000000
40
0.0000000000
40
0.0000000000
40
0.0000000000
40
0.0000000000
40
0.6175578126
40
1.0000000000
40
1.0000000000
40
1.0000000000
40
1.0000000000
10
-15.0596905559
20
7.8011096811
30
0.0000000000
10
-15.0584168848
20
7.8039388506
30
0.0000000000
10
-15.0562385530
20
7.8084679869
30
0.0000000000
10
-15.0538861194
20
7.8129065780
30
0.0000000000
10
-15.0529621404
20
7.8145906954
30
0.0000000000
11
-15.0596905559
21
7.8011096811
31
0.0000000000
11
-15.0556599946
21
7.8094983257
31
0.0000000000
11
-15.0529621404
21
7.8145906954
31
0.0000000000
0
SPLINE
5
31C
100
AcDbEntity
8
0
100
AcDbSpline
62
9
6
CONTINUOUS
70
0
71
3
72
19
73
15
74
13
42
0.0000001000
43
0.0000001000
44
0.0000000001
12
-0.0002810185
22
0.2946697021
32
0.0000000000
13
0.2635607144
23
0.1317803556
33
0.0000000000
40
0.0000000000
40
0.0000000000
40
0.0000000000
40
0.0000000000
40
0.0789078273
40
0.1613918527
40
0.2467548026
40
0.3341797562
40
0.4227696308
40
0.5115838713
40
0.5996736909
40
0.6861170433
40
0.7700544737
40
0.8507271033
40
0.9275182119
40
1.0000000000
40
1.0000000000
40
1.0000000000
40
1.0000000000
10
-15.0400241336
20
7.2789759772
30
0.0000000000
10
-15.0400315252
20
7.2867265592
30
0.0000000000
10
-15.0391792496
20
7.3025887590
30
0.0000000000
10
-15.0355473496
20
7.3265847842
30
0.0000000000
10
-15.0295936961
20
7.3509741883
30
0.0000000000
10
-15.0214195929
20
7.3753420753
30
0.0000000000
10
-15.0111635667
20
7.3992777839
30
0.0000000000
10
-14.9989992991
20
7.4223759775
30
0.0000000000
10
-14.9851326988
20
7.4442456977
30
0.0000000000
10
-14.9697980056
20
7.4645169209
30
0.0000000000
10
-14.9532540052
20
7.4828468459
30
0.0000000000
10
-14.9357767143
20
7.4989267289
30
0.0000000000
10
-14.9176616540
20
7.5124827623
30
0.0000000000
10
-14.9049706571
20
7.5199100042
30
0.0000000000
10
-14.8986028732
20
7.5230938961
30
0.0000000000
11
-15.0400241336
21
7.2789759772
31
0.0000000000
11
-15.0388340245
21
7.3021972567
31
0.0000000000
11
-15.0352409583
21
7.3262357642
31
0.0000000000
11
-15.0293065047
21
7.3506795828
31
0.0000000000
11
-15.0211323548
21
7.3751098506
31
0.0000000000
11
-15.0108585783
21
7.3991079383
31
0.0000000000
11
-14.9986612236
21
7.4222626220
31
0.0000000000
11
-14.9847493009
21
7.4441771305
31
0.0000000000
11
-14.9693612008
21
7.4644759436
31
0.0000000000
11
-14.9527606088
21
7.4828112276
31
0.0000000000
11
-14.9352319877
21
7.4988687949
31
0.0000000000
11
-14.9170757024
21
7.5123734883
31
0.0000000000
11
-14.8986028732
21
7.5230938961
31
0.0000000000
0
SPLINE
5
31D
100
AcDbEntity
8
0
100
AcDbSpline
62
9
6
CONTINUOUS
70
0
71
3
72
20
73
16
74
14
42
0.0000001000
43
0.0000001000
44
0.0000000001
12
-0.0002810326
22
0.2946851589
32
0.0000000000
13
0.2635745389
23
0.1317872691
33
0.0000000000
40
0.0000000000
40
0.0000000000
40
0.0000000000
40
0.0000000000
40
0.0727039542
40
0.1484965578
40
0.2268419306
40
0.3071127188
40
0.3886170110
40
0.4706233145
40
0.5523843956
40
0.6331606840
40
0.7122438879
40
0.7889814950
40
0.8628029205
40
0.9332481823
40
1.0000000000
40
1.0000000000
40
1.0000000000
40
1.0000000000
10
-1.1183180367
20
0.3181229290
30
0.0000000000
10
-1.1183248474
20
0.3252645211
30
0.0000000000
10
-1.1176030126
20
0.3398590416
30
0.0000000000
10
-1.1145074363
20
0.3619513670
30
0.0000000000
10
-1.1094202990
20
0.3844342005
30
0.0000000000
10
-1.1024155533
20
0.4069809952
30
0.0000000000
10
-1.0935945745
20
0.4292673961
30
0.0000000000
10
-1.0830849182
20
0.4509712592
30
0.0000000000
10
-1.0710384931
20
0.4717789644
30
0.0000000000
10
-1.0576293181
20
0.4913897694
30
0.0000000000
10
-1.0430506756
20
0.5095204858
30
0.0000000000
10
-1.0275124937
20
0.5259093739
30
0.0000000000
10
-1.0112361304
20
0.5403206979
30
0.0000000000
10
-0.9944567129
20
0.5525447492
30
0.0000000000
10
-0.9827614697
20
0.5593085009
30
0.0000000000
10
-0.9768967765
20
0.5622408475
30
0.0000000000
11
-1.1183180367
21
0.3181229290
31
0.0000000000
11
-1.1173053006
21
0.3395237659
31
0.0000000000
11
-1.1142420512
21
0.3616476714
31
0.0000000000
11
-1.1091730240
21
0.3841715501
31
0.0000000000
11
-1.1021722464
21
0.4067664653
31
0.0000000000
11
-1.0933419573
21
0.4291024431
31
0.0000000000
11
-1.0828111133
21
0.4508532907
31
0.0000000000
11
-1.0707335060
21
0.4717013609
31
0.0000000000
11
-1.0572855157
21
0.4913421902
31
0.0000000000
11
-1.0426635355
21
0.5094889458
31
0.0000000000
11
-1.0270811036
21
0.5258766142
31
0.0000000000
11
-1.0107657843
21
0.5402658712
31
0.0000000000
11
-0.9939558451
21
0.5524465776
31
0.0000000000
11
-0.9768967765
21
0.5622408475
31
0.0000000000
0
SPLINE
5
31E
100
AcDbEntity
8
0
100
AcDbSpline
62
9
6
CONTINUOUS
70
0
71
3
72
15
73
11
74
9
42
0.0000001000
43
0.0000001000
44
0.0000000001
12
-0.1022565987
22
0.0791673425
32
0.0000000000
13
0.0252449141
23
0.1270434396
33
0.0000000000
40
0.0000000000
40
0.0000000000
40
0.0000000000
40
0.0000000000
40
0.1590802921
40
0.3098482557
40
0.4521195891
40
0.5862156261
40
0.7130390271
40
0.8341122752
40
0.9515357998
40
1.0000000000
40
1.0000000000
40
1.0000000000
40
1.0000000000
10
1.0896221799
20
-0.7858471790
30
0.0000000000
10
1.0841998433
20
-0.7816491910
30
0.0000000000
10
1.0740214120
20
-0.7729577121
30
0.0000000000
10
1.0606338381
20
-0.7587371405
30
0.0000000000
10
1.0497040041
20
-0.7438556791
30
0.0000000000
10
1.0413998095
20
-0.7285177811
30
0.0000000000
10
1.0358579249
20
-0.7129340862
30
0.0000000000
10
1.0331854787
20
-0.6973283948
30
0.0000000000
10
1.0333998333
20
-0.6848841754
30
0.0000000000
10
1.0345125482
20
-0.6778030628
30
0.0000000000
10
1.0349203731
20
-0.6757507099
30
0.0000000000
11
1.0896221799
21
-0.7858471790
31
0.0000000000
11
1.0740128994
21
-0.7724466607
31
0.0000000000
11
1.0606942326
21
-0.7582071635
31
0.0000000000
11
1.0498604593
21
-0.7433363994
31
0.0000000000
11
1.0416696118
21
-0.7280512890
31
0.0000000000
11
1.0362411691
21
-0.7125747964
31
0.0000000000
11
1.0336543151
21
-0.6971326769
31
0.0000000000
11
1.0339467836
21
-0.6819501846
31
0.0000000000
11
1.0349203731
21
-0.6757507099
31
0.0000000000
0
SPLINE
5
31F
100
AcDbEntity
8
0
100
AcDbSpline
62
9
6
CONTINUOUS
70
0
71
3
72
8
73
4
74
2
42
0.0000001000
43
0.0000001000
44
0.0000000001
12
-0.0061245247
22
-0.0305627846
32
0.0000000000
13
-0.0068941250
23
-0.0304060121
33
0.0000000000
40
0.0000000000
40
0.0000000000
40
0.0000000000
40
0.0000000000
40
1.0000000000
40
1.0000000000
40
1.0000000000
40
1.0000000000
10
1.0896216694
20
-0.7858469240
30
0.0000000000
10
1.0875801611
20
-0.7960345189
30
0.0000000000
10
1.0854124876
20
-0.8061986273
30
0.0000000000
10
1.0831144460
20
-0.8163339646
30
0.0000000000
11
1.0896216694
21
-0.7858469240
31
0.0000000000
11
1.0831144460
21
-0.8163339646
31
0.0000000000
0
SPLINE
5
320
100
AcDbEntity
8
0
100
AcDbSpline
62
9
6
CONTINUOUS
70
0
71
3
72
8
73
4
74
2
42
0.0000001000
43
0.0000001000
44
0.0000000001
12
-0.0135062387
22
-0.0595682349
32
0.0000000000
13
-0.0166032006
23
-0.0587864831
33
0.0000000000
40
0.0000000000
40
0.0000000000
40
0.0000000000
40
0.0000000000
40
1.0000000000
40
1.0000000000
40
1.0000000000
40
1.0000000000
10
1.0831144460
20
-0.8163339646
30
0.0000000000
10
1.0786123664
20
-0.8361900429
30
0.0000000000
10
1.0736099275
20
-0.8559356967
30
0.0000000000
10
1.0680755273
20
-0.8755311911
30
0.0000000000
11
1.0831144460
21
-0.8163339646
31
0.0000000000
11
1.0680755273
21
-0.8755311911
31
0.0000000000
0
SPLINE
5
321
100
AcDbEntity
8
0
100
AcDbSpline
62
9
6
CONTINUOUS
70
0
71
3
72
42
73
38
74
36
42
0.0000001000
43
0.0000001000
44
0.0000000001
12
-0.9263175015
22
-3.2797861989
32
0.0000000000
13
-0.5662238242
23
3.3595673536
33
0.0000000000
40
0.0000000000
40
0.0000000000
40
0.0000000000
40
0.0000000000
40
0.0260527011
40
0.0511224168
40
0.0752708561
40
0.0985914512
40
0.1212085493
40
0.1432752188
40
0.1649689053
40
0.1864846754
40
0.2080260399
40
0.2297950258
40
0.2519825172
40
0.2747595305
40
0.2982714917
40
0.3226345810
40
0.3479352197
40
0.3742304495
40
0.4015500245
40
0.4298985856
40
0.4592583497
40
0.4895917993
40
0.5208439384
40
0.5529448939
40
0.5858116600
40
0.6193506020
40
0.6534589015
40
0.6880264710
40
0.7229372023
40
0.7580708921
40
0.7933051560
40
0.8285166117
40
0.8635822716
40
0.8983806063
40
0.9327920698
40
0.9667002828
40
1.0000000000
40
1.0000000000
40
1.0000000000
40
1.0000000000
10
1.0680755273
20
-0.8755311911
30
0.0000000000
10
1.0600311696
20
-0.9040136209
30
0.0000000000
10
1.0420406094
20
-0.9592813008
30
0.0000000000
10
1.0085805239
20
-1.0380691934
30
0.0000000000
10
0.9693496497
20
-1.1106545079
30
0.0000000000
10
0.9245515751
20
-1.1766193130
30
0.0000000000
10
0.8744221985
20
-1.2355773160
30
0.0000000000
10
0.8192325050
20
-1.2871763876
30
0.0000000000
10
0.7592917406
20
-1.3311017431
30
0.0000000000
10
0.6949484177
20
-1.3670830500
30
0.0000000000
10
0.6265869578
20
-1.3949026688
30
0.0000000000
10
0.5546197520
20
-1.4144018179
30
0.0000000000
10
0.4794774108
20
-1.4254818231
30
0.0000000000
10
0.4016004908
20
-1.4281008529
30
0.0000000000
10
0.3214353232
20
-1.4222684938
30
0.0000000000
10
0.2394320722
20
-1.4080408198
30
0.0000000000
10
0.1560451127
20
-1.3855170514
30
0.0000000000
10
0.0717329715
20
-1.3548377607
30
0.0000000000
10
-0.0130415548
20
-1.3161843100
30
0.0000000000
10
-0.0978125773
20
-1.2697785878
30
0.0000000000
10
-0.1821128141
20
-1.2158827544
30
0.0000000000
10
-0.2654757815
20
-1.1547986879
30
0.0000000000
10
-0.3474384762
20
-1.0868669252
30
0.0000000000
10
-0.4275437667
20
-1.0124655419
30
0.0000000000
10
-0.5053434972
20
-0.9320081582
30
0.0000000000
10
-0.5804009696
20
-0.8459421117
30
0.0000000000
10
-0.6522938266
20
-0.7547458993
30
0.0000000000
10
-0.7206161977
20
-0.6589271859
30
0.0000000000
10
-0.7849813498
20
-0.5590199974
30
0.0000000000
10
-0.8450243134
20
-0.4555815004
30
0.0000000000
10
-0.9004042926
20
-0.3491884511
30
0.0000000000
10
-0.9508066099
20
-0.2404339703
30
0.0000000000
10
-0.9959441726
20
-0.1299249018
30
0.0000000000
10
-1.0355587193
20
-0.0182805512
30
0.0000000000
10
-1.0694223785
20
0.0938706800
30
0.0000000000
10
-1.0973412067
20
0.2058931019
30
0.0000000000
10
-1.1120323299
20
0.2808317102
30
0.0000000000
10
-1.1183173609
20
0.3181225911
30
0.0000000000
11
1.0680755273
21
-0.8755311911
31
0.0000000000
11
1.0404650167
21
-0.9598878005
31
0.0000000000
11
1.0069413219
21
-1.0384450582
31
0.0000000000
11
0.9676936032
21
-1.1107526058
31
0.0000000000
11
0.9229421339
21
-1.1764027326
31
0.0000000000
11
0.8729368840
21
-1.2350286190
31
0.0000000000
11
0.8179563939
21
-1.2863041604
31
0.0000000000
11
0.7583066900
21
-1.3299446843
31
0.0000000000
11
0.6943198481
21
-1.3657082619
31
0.0000000000
11
0.6263530400
21
-1.3933967783
31
0.0000000000
11
0.5547859851
21
-1.4128576765
31
0.0000000000
11
0.4800177893
21
-1.4239848980
31
0.0000000000
11
0.4024658406
21
-1.4267188816
31
0.0000000000
11
0.3225628501
21
-1.4210468639
31
0.0000000000
11
0.2407557629
21
-1.4070029267
31
0.0000000000
11
0.1575017622
21
-1.3846676497
31
0.0000000000
11
0.0732669815
21
-1.3541677417
31
0.0000000000
11
-0.0114769318
21
-1.3156750703
31
0.0000000000
11
-0.0962546872
21
-1.2694059103
31
0.0000000000
11
-0.1805902452
21
-1.2156196776
31
0.0000000000
11
-0.2640096801
21
-1.1546173212
31
0.0000000000
11
-0.3460431758
21
-1.0867401265
31
0.0000000000
11
-0.4262284287
21
-1.0123672987
31
0.0000000000
11
-0.5041122392
21
-0.9319148150
31
0.0000000000
11
-0.5792543768
21
-0.8458319686
31
0.0000000000
11
-0.6512291099
21
-0.7545998704
31
0.0000000000
11
-0.7196280972
21
-0.6587283956
31
0.0000000000
11
-0.7840620293
21
-0.5587545275
31
0.0000000000
11
-0.8441637151
21
-0.4552385168
31
0.0000000000
11
-0.8995908319
21
-0.3487596034
31
0.0000000000
11
-0.9500272633
21
-0.2399136540
31
0.0000000000
11
-0.9951848205
21
-0.1293101292
31
0.0000000000
11
-1.0348045263
21
-0.0175700697
31
0.0000000000
11
-1.0686576195
21
0.0946740453
31
0.0000000000
11
-1.0965478424
21
0.2067803674
31
0.0000000000
11
-1.1183173609
21
0.3181225911
31
0.0000000000
0
SPLINE
5
322
100
AcDbEntity
8
0
100
AcDbSpline
62
9
6
CONTINUOUS
70
0
71
3
72
20
73
16
74
14
42
0.0000001000
43
0.0000001000
44
0.0000000001
12
0.2798081806
22
-0.0618305275
32
0.0000000000
13
0.2555900187
23
0.1295738185
33
0.0000000000
40
0.0000000000
40
0.0000000000
40
0.0000000000
40
0.0000000000
40
0.0625893449
40
0.1309321203
40
0.2042704237
40
0.2817613882
40
0.3624786014
40
0.4454165342
40
0.5295301044
40
0.6137473138
40
0.6969954066
40
0.7782208101
40
0.8564121078
40
0.9306233056
40
1.0000000000
40
1.0000000000
40
1.0000000000
40
1.0000000000
10
-1.1183180367
20
0.3181229293
30
0.0000000000
10
-1.1124803665
20
0.3168329519
30
0.0000000000
10
-1.1001644928
20
0.3145813103
30
0.0000000000
10
-1.0807498458
20
0.3125000950
30
0.0000000000
10
-1.0598285372
20
0.3114914483
30
0.0000000000
10
-1.0377020706
20
0.3116055980
30
0.0000000000
10
-1.0146923768
20
0.3128314336
30
0.0000000000
10
-0.9911323644
20
0.3151559896
30
0.0000000000
10
-0.9673643466
20
0.3185447848
30
0.0000000000
10
-0.9437333809
20
0.3229494124
30
0.0000000000
10
-0.9205823006
20
0.3283050565
30
0.0000000000
10
-0.8982481151
20
0.3345356218
30
0.0000000000
10
-0.8770500240
20
0.3415425097
30
0.0000000000
10
-0.8573087904
20
0.3492491808
30
0.0000000000
10
-0.8448111769
20
0.3549297785
30
0.0000000000
10
-0.8389005133
20
0.3579262462
30
0.0000000000
11
-1.1183180367
21
0.3181229293
31
0.0000000000
11
-1.1006763328
21
0.3148899426
31
0.0000000000
11
-1.0812110494
21
0.3127351581
31
0.0000000000
11
-1.0602212467
21
0.3116922470
31
0.0000000000
11
-1.0380157379
21
0.3117782372
31
0.0000000000
11
-1.0149173845
21
0.3129912757
31
0.0000000000
11
-0.9912646069
21
0.3153139828
31
0.0000000000
11
-0.9674019487
21
0.3187124018
31
0.0000000000
11
-0.9436778756
21
0.3231369502
31
0.0000000000
11
-0.9204384442
21
0.3285230689
31
0.0000000000
11
-0.8980227806
21
0.3347921470
31
0.0000000000
11
-0.8767579489
21
0.3418527402
31
0.0000000000
11
-0.8569542053
21
0.3496017601
31
0.0000000000
11
-0.8389005133
21
0.3579262462
31
0.0000000000
0
SPLINE
5
323
100
AcDbEntity
8
0
100
AcDbSpline
62
9
6
CONTINUOUS
70
0
71
3
72
25
73
21
74
19
42
0.0000001000
43
0.0000001000
44
0.0000000001
12
-1.0390246871
22
-0.5020482727
32
0.0000000000
13
-1.0321381304
23
0.5160577955
33
0.0000000000
40
0.0000000000
40
0.0000000000
40
0.0000000000
40
0.0000000000
40
0.0489753402
40
0.1002051433
40
0.1534900425
40
0.2085894557
40
0.2652366400
40
0.3231415476
40
0.3819956980
40
0.4414780877
40
0.5012595830
40
0.5610068519
40
0.6203870113
40
0.6790722765
40
0.7367439148
40
0.7930966855
40
0.8478448151
40
0.9007269271
40
0.9515091365
40
1.0000000000
40
1.0000000000
40
1.0000000000
40
1.0000000000
10
16.1327405626
20
-7.7513911147
30
0.0000000000
10
16.1157783668
20
-7.7595871097
30
0.0000000000
10
16.0804860845
20
-7.7751617135
30
0.0000000000
10
16.0250848479
20
-7.7956604377
30
0.0000000000
10
15.9663676445
20
-7.8137031973
30
0.0000000000
10
15.9047693080
20
-7.8291555955
30
0.0000000000
10
15.8407440187
20
-7.8419038571
30
0.0000000000
10
15.7747652261
20
-7.8518533247
30
0.0000000000
10
15.7073212526
20
-7.8589301407
30
0.0000000000
10
15.6389117325
20
-7.8630816772
30
0.0000000000
10
15.5700435084
20
-7.8642770638
30
0.0000000000
10
15.5012269477
20
-7.8625074047
30
0.0000000000
10
15.4329720232
20
-7.8577858716
30
0.0000000000
10
15.3657843971
20
-7.8501475746
30
0.0000000000
10
15.3001617441
20
-7.8396493093
30
0.0000000000
10
15.2365896536
20
-7.8263689870
30
0.0000000000
10
15.1755381120
20
-7.8104051712
30
0.0000000000
10
15.1174570510
20
-7.7918753143
30
0.0000000000
10
15.0627765640
20
-7.7709173543
30
0.0000000000
10
15.0280114041
20
-7.7550415724
30
0.0000000000
10
15.0113283144
20
-7.7467002097
30
0.0000000000
11
16.1327405626
21
-7.7513911147
31
0.0000000000
11
16.0810708230
21
-7.7742876603
31
0.0000000000
11
16.0256526956
21
-7.7948709223
31
0.0000000000
11
15.9668941534
21
-7.8129896950
31
0.0000000000
11
15.9052345137
21
-7.8285083559
31
0.0000000000
11
15.8411320080
21
-7.8413116419
31
0.0000000000
11
15.7750634361
21
-7.8513042793
31
0.0000000000
11
15.7075210082
21
-7.8584118084
31
0.0000000000
11
15.6390074376
21
-7.8625813482
31
0.0000000000
11
15.5700324023
21
-7.8637818872
31
0.0000000000
11
15.5011093299
21
-7.8620044847
31
0.0000000000
11
15.4327512595
21
-7.8572623775
31
0.0000000000
11
15.3654667115
21
-7.8495908386
31
0.0000000000
11
15.2997564828
21
-7.8390469493
31
0.0000000000
11
15.2361101126
21
-7.8257092784
31
0.0000000000
11
15.1750009960
21
-7.8096770727
31
0.0000000000
11
15.1168832914
21
-7.7910694201
31
0.0000000000
11
15.0621914788
21
-7.7700255788
31
0.0000000000
11
15.0113283144
21
-7.7467002097
31
0.0000000000
0
SPLINE
5
324
100
AcDbEntity
8
0
100
AcDbSpline
62
9
6
CONTINUOUS
70
0
71
3
72
25
73
21
74
19
42
0.0000001000
43
0.0000001000
44
0.0000000001
12
-0.7793633729
22
-0.3763032391
32
0.0000000000
13
-0.7740891923
23
0.3870365837
33
0.0000000000
40
0.0000000000
40
0.0000000000
40
0.0000000000
40
0.0000000000
40
0.0489525170
40
0.1001796161
40
0.1534625626
40
0.2085612625
40
0.2652087698
40
0.3231149848
40
0.3819713249
40
0.4414566821
40
0.5012418064
40
0.5609932106
40
0.6203777681
40
0.6790675487
40
0.7367436838
40
0.7931007873
40
0.8478529722
40
0.9007385990
40
0.9515241335
40
1.0000000000
40
1.0000000000
40
1.0000000000
40
1.0000000000
10
15.9938089287
20
-7.5062520747
30
0.0000000000
10
15.9810916624
20
-7.5123924050
30
0.0000000000
10
15.9546265652
20
-7.5240630430
30
0.0000000000
10
15.9130798949
20
-7.5394233911
30
0.0000000000
10
15.8690409139
20
-7.5529437576
30
0.0000000000
10
15.8228408708
20
-7.5645215020
30
0.0000000000
10
15.7748203135
20
-7.5740714097
30
0.0000000000
10
15.7253343908
20
-7.5815225472
30
0.0000000000
10
15.6747493762
20
-7.5868195922
30
0.0000000000
10
15.6234400395
20
-7.5899231395
30
0.0000000000
10
15.5717865680
20
-7.5908101003
30
0.0000000000
10
15.5201718280
20
-7.5894738667
30
0.0000000000
10
15.4689783932
20
-7.5859243862
30
0.0000000000
10
15.4185855930
20
-7.5801880635
30
0.0000000000
10
15.3693667316
20
-7.5723075635
30
0.0000000000
10
15.3216860347
20
-7.5623413802
30
0.0000000000
10
15.2758960522
20
-7.5503635033
30
0.0000000000
10
15.2323341586
20
-7.5364620309
30
0.0000000000
10
15.1913276710
20
-7.5207423023
30
0.0000000000
10
15.1652577521
20
-7.5088362870
30
0.0000000000
10
15.1527495373
20
-7.5025823091
30
0.0000000000
11
15.9938089287
21
-7.5062520747
31
0.0000000000
11
15.9550707312
21
-7.5234056372
31
0.0000000000
11
15.9135061525
21
-7.5388313704
31
0.0000000000
11
15.8694362830
21
-7.5524087104
31
0.0000000000
11
15.8231901927
21
-7.5640361739
31
0.0000000000
11
15.7751116946
21
-7.5736273530
31
0.0000000000
11
15.7255583964
21
-7.5811108698
31
0.0000000000
11
15.6748995004
21
-7.5864309481
31
0.0000000000
11
15.6235120834
21
-7.5895479943
31
0.0000000000
11
15.5717784510
21
-7.5904388143
31
0.0000000000
11
15.5200837502
21
-7.5890967658
31
0.0000000000
11
15.4688129080
21
-7.5855318472
31
0.0000000000
11
15.4183473714
21
-7.5797705853
31
0.0000000000
11
15.3690627807
21
-7.5718558584
31
0.0000000000
11
15.3213263346
21
-7.5618466566
31
0.0000000000
11
15.2754930907
21
-7.5498174659
31
0.0000000000
11
15.2319037962
21
-7.5358576835
31
0.0000000000
11
15.1908839337
21
-7.5200716459
31
0.0000000000
11
15.1527495373
21
-7.5025823091
31
0.0000000000
0
SPLINE
5
325
100
AcDbEntity
8
0
100
AcDbSpline
62
9
6
CONTINUOUS
70
0
71
3
72
19
73
15
74
13
42
0.0000001000
43
0.0000001000
44
0.0000000001
12
-0.0000000001
22
0.2938974480
32
0.0000000000
13
-0.2609890933
23
0.1351310590
33
0.0000000000
40
0.0000000000
40
0.0000000000
40
0.0000000000
40
0.0000000000
40
0.0791214889
40
0.1618595825
40
0.2474876376
40
0.3351618415
40
0.4239606769
40
0.5129215675
40
0.6010761111
40
0.6874851176
40
0.7712746391
40
0.8516743210
40
0.9280596655
40
1.0000000000
40
1.0000000000
40
1.0000000000
40
1.0000000000
10
16.1327406028
20
-7.7513911355
30
0.0000000000
10
16.1327406028
20
-7.7436399343
30
0.0000000000
10
16.1318896023
20
-7.7277746721
30
0.0000000000
10
16.1283066005
20
-7.7037642890
30
0.0000000000
10
16.1224472441
20
-7.6793435683
30
0.0000000000
10
16.1144109604
20
-7.6549273518
30
0.0000000000
10
16.1043336825
20
-7.6309266980
30
0.0000000000
10
16.0923858159
20
-7.6077475437
30
0.0000000000
10
16.0787693439
20
-7.5857817053
30
0.0000000000
10
16.0637139888
20
-7.5654002834
30
0.0000000000
10
16.0474734875
20
-7.5469473647
30
0.0000000000
10
16.0303183369
20
-7.5307331059
30
0.0000000000
10
16.0125380578
20
-7.5170329479
30
0.0000000000
10
16.0000674762
20
-7.5094925326
30
0.0000000000
10
15.9938089287
20
-7.5062520747
30
0.0000000000
11
16.1327406028
21
-7.7513911355
31
0.0000000000
11
16.1315520228
21
-7.7281679281
31
0.0000000000
11
16.1280066198
21
-7.7041112659
31
0.0000000000
11
16.1221650567
21
-7.6796327652
31
0.0000000000
11
16.1141272844
21
-7.6551512602
31
0.0000000000
11
16.1040308317
21
-7.6310856362
31
0.0000000000
11
16.0920484517
21
-7.6078476631
31
0.0000000000
11
16.0783851665
21
-7.5858349488
31
0.0000000000
11
16.0632747588
21
-7.5654241370
31
0.0000000000
11
16.0469757722
21
-7.5469644623
31
0.0000000000
11
16.0297670869
21
-7.5307717745
31
0.0000000000
11
16.0119431482
21
-7.5171231347
31
0.0000000000
11
15.9938089287
21
-7.5062520747
31
0.0000000000
0
SPLINE
5
326
100
AcDbEntity
8
0
100
AcDbSpline
62
9
6
CONTINUOUS
70
0
71
3
72
19
73
15
74
13
42
0.0000001000
43
0.0000001000
44
0.0000000001
12
-0.0002810184
22
0.2946697021
32
0.0000000000
13
0.2635607143
23
0.1317803557
33
0.0000000000
40
0.0000000000
40
0.0000000000
40
0.0000000000
40
0.0000000000
40
0.0789078210
40
0.1613918382
40
0.2467547804
40
0.3341797274
40
0.4227695971
40
0.5115838351
40
0.5996736546
40
0.6861170098
40
0.7700544455
40
0.8507270827
40
0.9275182010
40
1.0000000000
40
1.0000000000
40
1.0000000000
40
1.0000000000
10
15.0113282768
20
-7.7467002280
30
0.0000000000
10
15.0113208853
20
-7.7389496466
30
0.0000000000
10
15.0121731607
20
-7.7230874483
30
0.0000000000
10
15.0158050601
20
-7.6990914252
30
0.0000000000
10
15.0217587126
20
-7.6747020232
30
0.0000000000
10
15.0299328146
20
-7.6503341378
30
0.0000000000
10
15.0401888396
20
-7.6263984301
30
0.0000000000
10
15.0523531061
20
-7.6033002368
30
0.0000000000
10
15.0662197057
20
-7.5814305161
30
0.0000000000
10
15.0815543987
20
-7.5611592917
30
0.0000000000
10
15.0980983996
20
-7.5428293651
30
0.0000000000
10
15.1155756915
20
-7.5267494801
30
0.0000000000
10
15.1336907538
20
-7.5131934446
30
0.0000000000
10
15.1463817524
20
-7.5057662015
30
0.0000000000
10
15.1527495373
20
-7.5025823091
30
0.0000000000
11
15.0113282768
21
-7.7467002280
31
0.0000000000
11
15.0125183857
21
-7.7234789503
31
0.0000000000
11
15.0161114513
21
-7.6994404452
31
0.0000000000
11
15.0220459039
21
-7.6749966288
31
0.0000000000
11
15.0302200527
21
-7.6505663626
31
0.0000000000
11
15.0404938279
21
-7.6265682759
31
0.0000000000
11
15.0526911815
21
-7.6034135925
31
0.0000000000
11
15.0666031034
21
-7.5814990835
31
0.0000000000
11
15.0819912034
21
-7.5612002692
31
0.0000000000
11
15.0985917958
21
-7.5428649836
31
0.0000000000
11
15.1161204181
21
-7.5268074142
31
0.0000000000
11
15.1342767054
21
-7.5133027187
31
0.0000000000
11
15.1527495373
21
-7.5025823091
31
0.0000000000
0
SPLINE
5
327
100
AcDbEntity
8
0
100
AcDbSpline
62
9
6
CONTINUOUS
70
0
71
3
72
10
73
6
74
4
42
0.0000001000
43
0.0000001000
44
0.0000000001
12
-0.0000637301
22
0.0668261327
32
0.0000000000
13
0.0172696871
23
0.0645749915
33
0.0000000000
40
0.0000000000
40
0.0000000000
40
0.0000000000
40
0.0000000000
40
0.3203014281
40
0.6545208909
40
1.0000000000
40
1.0000000000
40
1.0000000000
40
1.0000000000
10
1.0896221799
20
-0.7858471793
30
0.0000000000
10
1.0896153756
20
-0.7787123441
30
0.0000000000
10
1.0903361782
20
-0.7641247202
30
0.0000000000
10
1.0934290477
20
-0.7420390158
30
0.0000000000
10
1.0967730364
20
-0.7272551247
30
0.0000000000
10
1.0987618085
20
-0.7198186879
30
0.0000000000
11
1.0896221799
21
-0.7858471793
31
0.0000000000
11
1.0906330248
21
-0.7644665461
31
0.0000000000
11
1.0936944653
21
-0.7423427550
31
0.0000000000
11
1.0987618085
21
-0.7198186879
31
0.0000000000
0
SPLINE
5
328
100
AcDbEntity
8
0
100
AcDbSpline
62
9
6
CONTINUOUS
70
0
71
3
72
9
73
5
74
3
42
0.0000001000
43
0.0000001000
44
0.0000000001
12
0.0102446018
22
0.0383067203
32
0.0000000000
13
0.0150351176
23
0.0366904014
33
0.0000000000
40
0.0000000000
40
0.0000000000
40
0.0000000000
40
0.0000000000
40
0.5967427663
40
1.0000000000
40
1.0000000000
40
1.0000000000
40
1.0000000000
10
1.0987618085
20
-0.7198186879
30
0.0000000000
10
1.1007996058
20
-0.7121989352
30
0.0000000000
10
1.1047230806
20
-0.6995671931
30
0.0000000000
10
1.1094310021
20
-0.6872126366
30
0.0000000000
10
1.1114520088
20
-0.6822807466
30
0.0000000000
11
1.0987618085
21
-0.7198186879
31
0.0000000000
11
1.1057615592
21
-0.6972218401
31
0.0000000000
11
1.1114520088
21
-0.6822807466
31
0.0000000000
0
SPLINE
5
329
100
AcDbEntity
8
0
100
AcDbSpline
62
9
6
CONTINUOUS
70
0
71
3
72
10
73
6
74
4
42
0.0000001000
43
0.0000001000
44
0.0000000001
12
0.0401361620
22
0.0387276707
32
0.0000000000
13
0.0488876055
23
0.0268576857
33
0.0000000000
40
0.0000000000
40
0.0000000000
40
0.0000000000
40
0.0000000000
40
0.3902120161
40
0.7625766533
40
1.0000000000
40
1.0000000000
40
1.0000000000
40
1.0000000000
10
1.1808546960
20
-0.5780977560
30
0.0000000000
10
1.1860752336
20
-0.5730604219
30
0.0000000000
10
1.1967009521
20
-0.5636518563
30
0.0000000000
10
1.2117454661
20
-0.5526913802
30
0.0000000000
10
1.2214751453
20
-0.5468450152
30
0.0000000000
10
1.2253441649
20
-0.5447194680
30
0.0000000000
11
1.1808546960
21
-0.5780977560
31
0.0000000000
11
1.1971713822
21
-0.5637066836
31
0.0000000000
11
1.2139828122
21
-0.5515245424
31
0.0000000000
11
1.2253441649
21
-0.5447194680
31
0.0000000000
0
SPLINE
5
32A
100
AcDbEntity
8
0
100
AcDbSpline
62
9
6
CONTINUOUS
70
0
71
3
72
8
73
4
74
2
42
0.0000001000
43
0.0000001000
44
0.0000000001
12
0.0056424452
22
0.0030998249
32
0.0000000000
13
0.0057557015
23
0.0028778507
33
0.0000000000
40
0.0000000000
40
0.0000000000
40
0.0000000000
40
0.0000000000
40
1.0000000000
40
1.0000000000
40
1.0000000000
40
1.0000000000
10
1.2253441649
20
-0.5447194680
30
0.0000000000
10
1.2272249800
20
-0.5436861930
30
0.0000000000
10
1.2291248729
20
-0.5426885443
30
0.0000000000
10
1.2310434401
20
-0.5417292608
30
0.0000000000
11
1.2253441649
21
-0.5447194680
31
0.0000000000
11
1.2310434401
21
-0.5417292608
31
0.0000000000
0
SPLINE
5
32B
100
AcDbEntity
8
0
100
AcDbSpline
62
9
6
CONTINUOUS
70
0
71
3
72
24
73
20
74
18
42
0.0000001000
43
0.0000001000
44
0.0000000001
12
-1.0662605609
22
-0.4274366564
32
0.0000000000
13
-1.0268393346
23
0.5149899610
33
0.0000000000
40
0.0000000000
40
0.0000000000
40
0.0000000000
40
0.0000000000
40
0.0506476600
40
0.1040613641
40
0.1599841864
40
0.2181138985
40
0.2781117731
40
0.3396102027
40
0.4022195243
40
0.4655343261
40
0.5291394283
40
0.5926156818
40
0.6555456955
40
0.7175195959
40
0.7781409221
40
0.8370327880
40
0.8938444793
40
0.9482587273
40
1.0000000000
40
1.0000000000
40
1.0000000000
40
1.0000000000
10
16.6296534919
20
10.3903227552
30
0.0000000000
10
16.6116522911
20
10.3831065331
30
0.0000000000
10
16.5741265508
20
10.3696033813
30
0.0000000000
10
16.5152758257
20
10.3524727506
30
0.0000000000
10
16.4527638350
20
10.3380374030
30
0.0000000000
10
16.3871101034
20
10.3264184240
30
0.0000000000
10
16.3188564298
20
10.3177121789
30
0.0000000000
10
16.2485686762
20
10.3119915930
30
0.0000000000
10
16.1768299031
20
10.3093046433
30
0.0000000000
10
16.1042358222
20
10.3096740420
30
0.0000000000
10
16.0313895006
20
10.3130969349
30
0.0000000000
10
15.9588962171
20
10.3195449168
30
0.0000000000
10
15.8873582466
20
10.3289642718
30
0.0000000000
10
15.8173697260
20
10.3412764345
30
0.0000000000
10
15.7495114048
20
10.3563787668
30
0.0000000000
10
15.6843460824
20
10.3741453034
30
0.0000000000
10
15.6224120165
20
10.3944287740
30
0.0000000000
10
15.5642240825
20
10.4170593920
30
0.0000000000
10
15.5272575994
20
10.4340422795
30
0.0000000000
10
15.5095476081
20
10.4429243581
30
0.0000000000
11
16.6296534919
21
10.3903227552
31
0.0000000000
11
16.5749455047
21
10.3705214937
31
0.0000000000
11
16.5160571814
21
10.3532862217
31
0.0000000000
11
16.4534798671
21
10.3387607446
31
0.0000000000
11
16.3877356863
21
10.3270662583
31
0.0000000000
11
16.3193731869
21
10.3183003378
31
0.0000000000
11
16.2489627632
21
10.3125361230
31
0.0000000000
11
16.1770918968
21
10.3098217086
31
0.0000000000
11
16.1043602545
21
10.3101797428
31
0.0000000000
11
16.0313746854
21
10.3136072384
31
0.0000000000
11
15.9587441572
21
10.3200755973
31
0.0000000000
11
15.8870746752
21
10.3295308498
31
0.0000000000
11
15.8169642261
21
10.3418941043
31
0.0000000000
11
15.7489977884
21
10.3570622058
31
0.0000000000
11
15.6837424520
21
10.3749085967
31
0.0000000000
11
15.6217426859
21
10.3952843726
31
0.0000000000
11
15.5635157959
21
10.4180195246
31
0.0000000000
11
15.5095476081
21
10.4429243581
31
0.0000000000
0
SPLINE
5
32C
100
AcDbEntity
8
0
100
AcDbSpline
62
9
6
CONTINUOUS
70
0
71
3
72
17
73
13
74
11
42
0.0000001000
43
0.0000001000
44
0.0000000001
12
0.2277961320
22
-0.1138980660
32
0.0000000000
13
0.0421208596
23
-0.2511765921
33
0.0000000000
40
0.0000000000
40
0.0000000000
40
0.0000000000
40
0.0000000000
40
0.0865187990
40
0.1783218317
40
0.2748549510
40
0.3753212012
40
0.4787431795
40
0.5840184122
40
0.6899700003
40
0.7953945855
40
0.8991093946
40
1.0000000000
40
1.0000000000
40
1.0000000000
40
1.0000000000
10
-0.9768967769
20
0.5622408474
30
0.0000000000
10
-0.9703272276
20
0.5589560727
30
0.0000000000
10
-0.9572374424
20
0.5512591064
30
0.0000000000
10
-0.9385925325
20
0.5371580512
30
0.0000000000
10
-0.9206451907
20
0.5203942014
30
0.0000000000
10
-0.9037175041
20
0.5012704739
30
0.0000000000
10
-0.8881092812
20
0.4801288104
30
0.0000000000
10
-0.8741002045
20
0.4573487208
30
0.0000000000
10
-0.8619415879
20
0.4333396123
30
0.0000000000
10
-0.8518517954
20
0.4085320981
30
0.0000000000
10
-0.8440128030
20
0.3833748555
30
0.0000000000
10
-0.8403170463
20
0.3663733657
30
0.0000000000
10
-0.8389005133
20
0.3579262462
30
0.0000000000
11
-0.9768967769
21
0.5622408474
31
0.0000000000
11
-0.9578591461
21
0.5511454830
31
0.0000000000
11
-0.9391680843
21
0.5370990053
31
0.0000000000
11
-0.9211638515
21
0.5203571224
31
0.0000000000
11
-0.9041742042
21
0.5012246104
31
0.0000000000
11
-0.8885084292
21
0.4800497656
31
0.0000000000
11
-0.8744517127
21
0.4572180638
31
0.0000000000
11
-0.8622599492
21
0.4331451429
31
0.0000000000
11
-0.8521550825
21
0.4082692363
31
0.0000000000
11
-0.8443210660
21
0.3830431957
31
0.0000000000
11
-0.8389005133
21
0.3579262462
31
0.0000000000
0
SPLINE
5
32D
100
AcDbEntity
8
0
100
AcDbSpline
62
9
6
CONTINUOUS
70
0
71
3
72
13
73
9
74
7
42
0.0000001000
43
0.0000001000
44
0.0000000001
12
-0.9643790337
22
-17.5180840345
32
0.0000000000
13
-0.0170419540
23
-17.5446004438
33
0.0000000000
40
0.0000000000
40
0.0000000000
40
0.0000000000
40
0.0000000000
40
0.1684376468
40
0.3361767530
40
0.5032097503
40
0.6695293518
40
0.8351285365
40
1.0000000000
40
1.0000000000
40
1.0000000000
40
1.0000000000
10
16.6296534919
20
10.3903227552
30
0.0000000000
10
16.5755075802
20
9.4067544713
30
0.0000000000
10
16.4760376205
20
7.4432124189
30
0.0000000000
10
16.3531633157
20
4.5028690485
30
0.0000000000
10
16.2569420083
20
1.5739236027
30
0.0000000000
10
16.1873858191
20
-1.3432587072
30
0.0000000000
10
16.1445034025
20
-4.2483106727
30
0.0000000000
10
16.1336771801
20
-6.1809720358
30
0.0000000000
10
16.1327406028
20
-7.1451733529
30
0.0000000000
11
16.6296534919
21
10.3903227552
31
0.0000000000
11
16.4801944984
21
7.4389320408
31
0.0000000000
11
16.3573745703
21
4.4985790620
31
0.0000000000
11
16.2612089554
21
1.5696287481
31
0.0000000000
11
16.1917095654
21
-1.3475558196
31
0.0000000000
11
16.1488850107
21
-4.2526130905
31
0.0000000000
11
16.1327406028
21
-7.1451733529
31
0.0000000000
0
SPLINE
5
32E
100
AcDbEntity
8
0
100
AcDbSpline
62
9
6
CONTINUOUS
70
0
71
3
72
14
73
10
74
8
42
0.0000001000
43
0.0000001000
44
0.0000000001
12
0.0000000000
22
-0.1260139876
32
0.0000000000
13
-0.1134350706
23
-0.0554338986
33
0.0000000000
40
0.0000000000
40
0.0000000000
40
0.0000000000
40
0.0000000000
40
0.1747781330
40
0.3389765631
40
0.4923962754
40
0.6356099407
40
0.7700907114
40
0.8982610843
40
1.0000000000
40
1.0000000000
40
1.0000000000
40
1.0000000000
10
16.1327406028
20
-7.1451733529
30
0.0000000000
10
16.1327406028
20
-7.1525148494
30
0.0000000000
10
16.1320170568
20
-7.1667689509
30
0.0000000000
10
16.1285484845
20
-7.1872116810
30
0.0000000000
10
16.1227727556
20
-7.2057568569
30
0.0000000000
10
16.1147627708
20
-7.2220892589
30
0.0000000000
10
16.1046214518
20
-7.2359180605
30
0.0000000000
10
16.0932253230
20
-7.2463012318
30
0.0000000000
10
16.0849080899
20
-7.2513223590
30
0.0000000000
10
16.0810611695
20
-7.2532022873
30
0.0000000000
11
16.1327406028
21
-7.1451733529
31
0.0000000000
11
16.1315520230
21
-7.1671657474
31
0.0000000000
11
16.1280066208
21
-7.1875510355
31
0.0000000000
11
16.1221650588
21
-7.2059804195
31
0.0000000000
11
16.1141272878
21
-7.2221385673
31
0.0000000000
11
16.1040308364
21
-7.2357490086
31
0.0000000000
11
16.0920484575
21
-7.2465788651
31
0.0000000000
11
16.0810611695
21
-7.2532022873
31
0.0000000000
0
SPLINE
5
32F
100
AcDbEntity
8
0
100
AcDbSpline
62
9
6
CONTINUOUS
70
0
71
3
72
27
73
23
74
21
42
0.0000001000
43
0.0000001000
44
0.0000000001
12
-0.8764024665
22
-0.4415861943
32
0.0000000000
13
-0.0539479012
23
-0.9798822757
33
0.0000000000
40
0.0000000000
40
0.0000000000
40
0.0000000000
40
0.0000000000
40
0.0433913413
40
0.0882333749
40
0.1344590785
40
0.1819839589
40
0.2307031999
40
0.2804940730
40
0.3312185199
40
0.3827260240
40
0.4348560018
40
0.4874400043
40
0.5403040213
40
0.5932706698
40
0.6461613716
40
0.6987985092
40
0.7510074541
40
0.8026187080
40
0.8534704420
40
0.9034106525
40
0.9522989956
40
1.0000000000
40
1.0000000000
40
1.0000000000
40
1.0000000000
10
17.1233158609
20
11.1936369452
30
0.0000000000
10
17.1106397680
20
11.1872499394
30
0.0000000000
10
17.0853268189
20
11.1733249501
30
0.0000000000
10
17.0482600960
20
11.1495928664
30
0.0000000000
10
17.0116563099
20
11.1227946293
30
0.0000000000
10
16.9757196156
20
11.0930801135
30
0.0000000000
10
16.9406453853
20
11.0606122184
30
0.0000000000
10
16.9066255508
20
11.0255692366
30
0.0000000000
10
16.8738462659
20
10.9881434928
30
0.0000000000
10
16.8424871617
20
10.9485404536
30
0.0000000000
10
16.8127201787
20
10.9069775425
30
0.0000000000
10
16.7847086295
20
10.8636829841
30
0.0000000000
10
16.7586062663
20
10.8188945594
30
0.0000000000
10
16.7345563936
20
10.7728582608
30
0.0000000000
10
16.7126910563
20
10.7258269078
30
0.0000000000
10
16.6931303188
20
10.6780587483
30
0.0000000000
10
16.6759816135
20
10.6298160774
30
0.0000000000
10
16.6613391415
20
10.5813636453
30
0.0000000000
10
16.6492833336
20
10.5329674127
30
0.0000000000
10
16.6398805519
20
10.4848921724
30
0.0000000000
10
16.6331830726
20
10.4374069883
30
0.0000000000
10
16.6305112816
20
10.4059032115
30
0.0000000000
10
16.6296534919
20
10.3903227552
30
0.0000000000
11
17.1233158609
21
11.1936369452
31
0.0000000000
11
17.0859822858
21
11.1731552772
31
0.0000000000
11
17.0488968347
21
11.1494648243
31
0.0000000000
11
17.0122699818
21
11.1226992243
31
0.0000000000
11
16.9763039912
21
11.0930062463
31
0.0000000000
11
16.9411970755
21
11.0605495661
31
0.0000000000
11
16.9071427602
21
11.0255081012
31
0.0000000000
11
16.8743288962
21
10.9880751623
31
0.0000000000
11
16.8429364140
21
10.9484571802
31
0.0000000000
11
16.8131383665
21
10.9068725843
31
0.0000000000
11
16.7850990499
21
10.8635506912
31
0.0000000000
11
16.7589730563
21
10.8187303947
31
0.0000000000
11
16.7349044202
21
10.7726588435
31
0.0000000000
11
16.7130258143
21
10.7255900536
31
0.0000000000
11
16.6934578192
21
10.6777834873
31
0.0000000000
11
16.6763083053
21
10.6295027295
31
0.0000000000
11
16.6616718356
21
10.5810140736
31
0.0000000000
11
16.6496290477
21
10.5325847661
31
0.0000000000
11
16.6402463043
21
10.4844816634
31
0.0000000000
11
16.6335753450
21
10.4369703366
31
0.0000000000
11
16.6296534919
21
10.3903227552
31
0.0000000000
0
SPLINE
5
330
100
AcDbEntity
8
0
100
AcDbSpline
62
9
6
CONTINUOUS
70
0
71
3
72
9
73
5
74
3
42
0.0000001000
43
0.0000001000
44
0.0000000001
12
0.0772365074
22
-0.0271565875
32
0.0000000000
13
0.0790043624
23
-0.0214719901
33
0.0000000000
40
0.0000000000
40
0.0000000000
40
0.0000000000
40
0.0000000000
40
0.7454835344
40
1.0000000000
40
1.0000000000
40
1.0000000000
40
1.0000000000
10
15.1168832913
20
-7.1844544265
30
0.0000000000
10
15.1360761395
20
-7.1912026894
30
0.0000000000
10
15.1620846564
20
-7.1995039188
30
0.0000000000
10
15.1883577084
20
-7.2068885033
30
0.0000000000
10
15.1950603454
20
-7.2087101616
30
0.0000000000
11
15.1168832913
21
-7.1844544265
31
0.0000000000
11
15.1750009960
21
-7.2030701276
31
0.0000000000
11
15.1950603454
21
-7.2087101616
31
0.0000000000
0
SPLINE
5
331
100
AcDbEntity
8
0
100
AcDbSpline
62
9
6
CONTINUOUS
70
0
71
3
72
19
73
15
74
13
42
0.0000001000
43
0.0000001000
44
0.0000000001
12
0.7329327380
22
-0.1991981708
32
0.0000000000
13
0.7350383771
23
0.1912744894
33
0.0000000000
40
0.0000000000
40
0.0000000000
40
0.0000000000
40
0.0000000000
40
0.0557581992
40
0.1413895639
40
0.2290246600
40
0.3181993636
40
0.4084290726
40
0.4992154514
40
0.5900524368
40
0.6804333023
40
0.7698577178
40
0.8578377248
40
0.9439044101
40
1.0000000000
40
1.0000000000
40
1.0000000000
40
1.0000000000
10
15.1950603454
20
-7.2087101616
30
0.0000000000
10
15.2086826820
20
-7.2124124720
30
0.0000000000
10
15.2433902731
20
-7.2211948258
30
0.0000000000
10
15.3001616079
20
-7.2330667537
30
0.0000000000
10
15.3657841531
20
-7.2435814722
30
0.0000000000
10
15.4329716787
20
-7.2512388090
30
0.0000000000
10
15.5012265078
20
-7.2559818278
30
0.0000000000
10
15.5700429768
20
-7.2577752602
30
0.0000000000
10
15.6389111112
20
-7.2566057600
30
0.0000000000
10
15.7073205424
20
-7.2524820328
30
0.0000000000
10
15.7747644268
20
-7.2454347457
30
0.0000000000
10
15.8407431298
20
-7.2355163104
30
0.0000000000
10
15.8979085275
20
-7.2241627729
30
0.0000000000
10
15.9328969067
20
-7.2157016173
30
0.0000000000
10
15.9466410438
20
-7.2121250655
30
0.0000000000
11
15.1950603454
21
-7.2087101616
31
0.0000000000
11
15.2361101125
21
-7.2191132734
31
0.0000000000
11
15.2997564827
21
-7.2324646956
31
0.0000000000
11
15.3654667114
21
-7.2430250461
31
0.0000000000
11
15.4327512594
21
-7.2507156350
31
0.0000000000
11
15.5011093298
21
-7.2554792406
31
0.0000000000
11
15.5700324022
21
-7.2572804313
31
0.0000000000
11
15.6390074375
21
-7.2561057950
31
0.0000000000
11
15.7075210081
21
-7.2519640810
31
0.0000000000
11
15.7750634360
21
-7.2448860952
31
0.0000000000
11
15.8411320080
21
-7.2349245005
31
0.0000000000
11
15.9052345136
21
-7.2221535262
31
0.0000000000
11
15.9466410438
21
-7.2121250655
31
0.0000000000
0
SPLINE
5
332
100
AcDbEntity
8
0
100
AcDbSpline
62
9
6
CONTINUOUS
70
0
71
3
72
9
73
5
74
3
42
0.0000001000
43
0.0000001000
44
0.0000000001
12
0.0798028935
22
0.0207666133
32
0.0000000000
13
0.0781116275
23
0.0264298401
33
0.0000000000
40
0.0000000000
40
0.0000000000
40
0.0000000000
40
0.0000000000
40
0.2543701167
40
1.0000000000
40
1.0000000000
40
1.0000000000
40
1.0000000000
10
15.9466410438
20
-7.2121250655
30
0.0000000000
10
15.9534075342
20
-7.2103642635
30
0.0000000000
10
15.9799495431
20
-7.2032153967
30
0.0000000000
10
16.0062385743
20
-7.1951525182
30
0.0000000000
10
16.0256526956
20
-7.1885835587
30
0.0000000000
11
15.9466410438
21
-7.2121250655
31
0.0000000000
11
15.9668941533
21
-7.2066682070
31
0.0000000000
11
16.0256526956
21
-7.1885835587
31
0.0000000000
0
SPLINE
5
333
100
AcDbEntity
8
0
100
AcDbSpline
62
9
6
CONTINUOUS
70
0
71
3
72
9
73
5
74
3
42
0.0000001000
43
0.0000001000
44
0.0000000001
12
0.0919641747
22
0.0311169861
32
0.0000000000
13
0.0883552287
23
0.0402431178
33
0.0000000000
40
0.0000000000
40
0.0000000000
40
0.0000000000
40
0.0000000000
40
0.6088653180
40
1.0000000000
40
1.0000000000
40
1.0000000000
40
1.0000000000
10
16.0256526956
20
-7.1885835587
30
0.0000000000
10
16.0443172944
20
-7.1822682075
30
0.0000000000
10
16.0746869847
20
-7.1710502804
30
0.0000000000
10
16.1044401029
20
-7.1582871221
30
0.0000000000
10
16.1159597009
20
-7.1530402958
30
0.0000000000
11
16.0256526956
21
-7.1885835587
31
0.0000000000
11
16.0810708229
21
-7.1680349506
31
0.0000000000
11
16.1159597009
21
-7.1530402958
31
0.0000000000
0
SPLINE
5
334
100
AcDbEntity
8
0
100
AcDbSpline
62
9
6
CONTINUOUS
70
0
71
3
72
8
73
4
74
2
42
0.0000001000
43
0.0000001000
44
0.0000000001
12
0.0168678478
22
0.0076827913
32
0.0000000000
13
0.0166911371
23
0.0080532655
33
0.0000000000
40
0.0000000000
40
0.0000000000
40
0.0000000000
40
0.0000000000
40
1.0000000000
40
1.0000000000
40
1.0000000000
40
1.0000000000
10
16.1159597009
20
-7.1530402958
30
0.0000000000
10
16.1215823169
20
-7.1504793653
30
0.0000000000
10
16.1271768503
20
-7.1478577539
30
0.0000000000
10
16.1327405626
20
-7.1451733321
30
0.0000000000
11
16.1159597009
21
-7.1530402958
31
0.0000000000
11
16.1327405626
21
-7.1451733321
31
0.0000000000
0
SPLINE
5
335
100
AcDbEntity
8
0
100
AcDbSpline
62
9
6
CONTINUOUS
70
0
71
3
72
14
73
10
74
8
42
0.0000001000
43
0.0000001000
44
0.0000000001
12
-0.0001201100
22
-0.1260648755
32
0.0000000000
13
0.1126936235
23
-0.0570302753
33
0.0000000000
40
0.0000000000
40
0.0000000000
40
0.0000000000
40
0.0000000000
40
0.1750152953
40
0.3396825140
40
0.4938685049
40
0.6382032628
40
0.7741944660
40
0.9042567729
40
1.0000000000
40
1.0000000000
40
1.0000000000
40
1.0000000000
10
15.0113282768
20
-7.1400780295
30
0.0000000000
10
15.0113212698
20
-7.1474324567
30
0.0000000000
10
15.0120464802
20
-7.1617231913
30
0.0000000000
10
15.0155644397
20
-7.1822304130
30
0.0000000000
10
15.0214366137
20
-7.2008591338
30
0.0000000000
10
15.0295882046
20
-7.2172906264
30
0.0000000000
10
15.0399120830
20
-7.2312303718
30
0.0000000000
10
15.0512652115
20
-7.2415036136
30
0.0000000000
10
15.0594030416
20
-7.2464796059
30
0.0000000000
10
15.0629995920
20
-7.2482996934
30
0.0000000000
11
15.0113282768
21
-7.1400780295
31
0.0000000000
11
15.0125183859
21
-7.1621091999
31
0.0000000000
11
15.0161114522
21
-7.1825546412
31
0.0000000000
11
15.0220459058
21
-7.2010640061
31
0.0000000000
11
15.0302200557
21
-7.2173201240
31
0.0000000000
11
15.0404938322
21
-7.2310444351
31
0.0000000000
11
15.0526911869
21
-7.2420017642
31
0.0000000000
11
15.0629995920
21
-7.2482996934
31
0.0000000000
0
SPLINE
5
336
100
AcDbEntity
8
0
100
AcDbSpline
62
9
6
CONTINUOUS
70
0
71
3
72
8
73
4
74
2
42
0.0000001000
43
0.0000001000
44
0.0000000001
12
-0.0000194489
22
-0.0204132289
32
0.0000000000
13
0.0020990631
23
-0.0203178066
33
0.0000000000
40
0.0000000000
40
0.0000000000
40
0.0000000000
40
0.0000000000
40
1.0000000000
40
1.0000000000
40
1.0000000000
40
1.0000000000
10
1.0896221799
20
-0.1792249813
30
0.0000000000
10
1.0896156969
20
-0.1860293909
30
0.0000000000
10
1.0899352282
20
-0.1928404800
30
0.0000000000
10
1.0906349159
20
-0.1996130822
30
0.0000000000
11
1.0896221799
21
-0.1792249813
31
0.0000000000
11
1.0906349159
21
-0.1996130822
31
0.0000000000
0
SPLINE
5
337
100
AcDbEntity
8
0
100
AcDbSpline
62
9
6
CONTINUOUS
70
0
71
3
72
8
73
4
74
2
42
0.0000001000
43
0.0000001000
44
0.0000000001
12
0.0019851288
22
-0.0192149835
32
0.0000000000
13
0.0041994678
23
-0.0188552677
33
0.0000000000
40
0.0000000000
40
0.0000000000
40
0.0000000000
40
0.0000000000
40
1.0000000000
40
1.0000000000
40
1.0000000000
40
1.0000000000
10
1.0906349159
20
-0.1996130822
30
0.0000000000
10
1.0912966255
20
-0.2060180767
30
0.0000000000
10
1.0922983427
20
-0.2123886490
30
0.0000000000
10
1.0936981653
20
-0.2186737382
30
0.0000000000
11
1.0906349159
21
-0.1996130822
31
0.0000000000
11
1.0936981653
21
-0.2186737382
31
0.0000000000
0
SPLINE
5
338
100
AcDbEntity
8
0
100
AcDbSpline
62
9
6
CONTINUOUS
70
0
71
3
72
12
73
8
74
6
42
0.0000001000
43
0.0000001000
44
0.0000000001
12
0.0170021033
22
-0.0763380557
32
0.0000000000
13
0.0655827871
23
-0.0427395062
33
0.0000000000
40
0.0000000000
40
0.0000000000
40
0.0000000000
40
0.0000000000
40
0.2325491510
40
0.4512486112
40
0.6577002557
40
0.8545775275
40
1.0000000000
40
1.0000000000
40
1.0000000000
40
1.0000000000
10
1.0936981653
20
-0.2186737382
30
0.0000000000
10
1.0950161069
20
-0.2245911882
30
0.0000000000
10
1.0982582700
20
-0.2359266314
30
0.0000000000
10
1.1052306291
20
-0.2516472101
30
0.0000000000
10
1.1140779564
20
-0.2653140268
30
0.0000000000
10
1.1238776995
20
-0.2758339306
30
0.0000000000
10
1.1309957188
20
-0.2812717220
30
0.0000000000
10
1.1341747892
20
-0.2833434835
30
0.0000000000
11
1.0936981653
21
-0.2186737382
31
0.0000000000
11
1.0987671926
21
-0.2361285896
31
0.0000000000
11
1.1057679702
21
-0.2517227273
31
0.0000000000
11
1.1145982593
21
-0.2652284159
31
0.0000000000
11
1.1251291033
21
-0.2764484196
31
0.0000000000
11
1.1341747892
21
-0.2833434835
31
0.0000000000
0
SPLINE
5
339
100
AcDbEntity
8
0
100
AcDbSpline
62
9
6
CONTINUOUS
70
0
71
3
72
8
73
4
74
2
42
0.0000001000
43
0.0000001000
44
0.0000000001
12
0.0107608907
22
0.0531243680
32
0.0000000000
13
0.0134808533
23
0.0525183867
33
0.0000000000
40
0.0000000000
40
0.0000000000
40
0.0000000000
40
0.0000000000
40
1.0000000000
40
1.0000000000
40
1.0000000000
40
1.0000000000
10
-0.8389005219
20
0.8883668018
30
0.0000000000
10
-0.8353135583
20
0.9060749244
30
0.0000000000
10
-0.8312872104
20
0.9237003177
30
0.0000000000
10
-0.8267935926
20
0.9412064466
30
0.0000000000
11
-0.8389005219
21
0.8883668018
31
0.0000000000
11
-0.8267935926
21
0.9412064466
31
0.0000000000
0
SPLINE
5
33A
100
AcDbEntity
8
0
100
AcDbSpline
62
9
6
CONTINUOUS
70
0
71
3
72
16
73
12
74
10
42
0.0000001000
43
0.0000001000
44
0.0000000001
12
0.1434186912
22
0.5587271160
32
0.0000000000
13
0.5160062160
23
0.2582119658
33
0.0000000000
40
0.0000000000
40
0.0000000000
40
0.0000000000
40
0.0000000000
40
0.0461227527
40
0.1810699138
40
0.3110401497
40
0.4363514554
40
0.5574812510
40
0.6750609646
40
0.7898628932
40
0.9027784260
40
1.0000000000
40
1.0000000000
40
1.0000000000
40
1.0000000000
10
-0.8267935926
20
0.9412064466
30
0.0000000000
10
-0.8245886376
20
0.9497964575
30
0.0000000000
10
-0.8154906894
20
0.9834066152
30
0.0000000000
10
-0.7967965355
20
1.0402673050
30
0.0000000000
10
-0.7672058920
20
1.1093053193
30
0.0000000000
10
-0.7325263305
20
1.1729357271
30
0.0000000000
10
-0.6929445309
20
1.2307894560
30
0.0000000000
10
-0.6486761397
20
1.2825252567
30
0.0000000000
10
-0.5999678446
20
1.3278317072
30
0.0000000000
10
-0.5494008833
20
1.3647500662
30
0.0000000000
10
-0.5142163588
20
1.3847553364
30
0.0000000000
10
-0.4974940466
20
1.3931232610
30
0.0000000000
11
-0.8267935926
21
0.9412064466
31
0.0000000000
11
-0.8198379159
21
0.9668860160
31
0.0000000000
11
-0.7954163251
21
1.0407721461
31
0.0000000000
11
-0.7657738154
21
1.1096086682
31
0.0000000000
11
-0.7310831627
21
1.1729980652
31
0.0000000000
11
-0.6915449578
21
1.2305803448
31
0.0000000000
11
-0.6473860972
21
1.2820311649
31
0.0000000000
11
-0.5988591869
21
1.3270609565
31
0.0000000000
11
-0.5462416528
21
1.3654158245
31
0.0000000000
11
-0.4974940466
21
1.3931232610
31
0.0000000000
0
SPLINE
5
33B
100
AcDbEntity
8
0
100
AcDbSpline
62
9
6
CONTINUOUS
70
0
71
3
72
10
73
6
74
4
42
0.0000001000
43
0.0000001000
44
0.0000000001
12
0.0580433584
22
0.0039154823
32
0.0000000000
13
0.0553420170
23
0.0179608240
33
0.0000000000
40
0.0000000000
40
0.0000000000
40
0.0000000000
40
0.0000000000
40
0.3877015062
40
0.7606599497
40
1.0000000000
40
1.0000000000
40
1.0000000000
40
1.0000000000
10
-0.9204271356
20
0.8678305796
30
0.0000000000
10
-0.9129259697
20
0.8683365924
30
0.0000000000
10
-0.8982481815
20
0.8699314316
30
0.0000000000
10
-0.8792099990
20
0.8737351865
30
0.0000000000
10
-0.8677866746
20
0.8770021656
30
0.0000000000
10
-0.8633714875
20
0.8784350805
30
0.0000000000
11
-0.9204271356
21
0.8678305796
31
0.0000000000
11
-0.8980146687
21
0.8702996798
31
0.0000000000
11
-0.8767528641
21
0.8745914325
31
0.0000000000
11
-0.8633714875
21
0.8784350805
31
0.0000000000
0
SPLINE
5
33C
100
AcDbEntity
8
0
100
AcDbSpline
62
9
6
CONTINUOUS
70
0
71
3
72
9
73
5
74
3
42
0.0000001000
43
0.0000001000
44
0.0000000001
12
0.0190267522
22
0.0061749854
32
0.0000000000
13
0.0182373951
23
0.0082193013
33
0.0000000000
40
0.0000000000
40
0.0000000000
40
0.0000000000
40
0.0000000000
40
0.3393624106
40
1.0000000000
40
1.0000000000
40
1.0000000000
40
1.0000000000
10
-0.8633714875
20
0.8784350805
30
0.0000000000
10
-0.8612191660
20
0.8791335998
30
0.0000000000
10
-0.8549119640
20
0.8813010917
30
0.0000000000
10
-0.8487224647
20
0.8838029101
30
0.0000000000
10
-0.8447063618
20
0.8856129032
30
0.0000000000
11
-0.8633714875
21
0.8784350805
31
0.0000000000
11
-0.8569518669
21
0.8806432337
31
0.0000000000
11
-0.8447063618
21
0.8856129032
31
0.0000000000
0
SPLINE
5
33D
100
AcDbEntity
8
0
100
AcDbSpline
62
9
6
CONTINUOUS
70
0
71
3
72
8
73
4
74
2
42
0.0000001000
43
0.0000001000
44
0.0000000001
12
0.0058600736
22
0.0026410411
32
0.0000000000
13
0.0057491447
23
0.0028680630
33
0.0000000000
40
0.0000000000
40
0.0000000000
40
0.0000000000
40
0.0000000000
40
1.0000000000
40
1.0000000000
40
1.0000000000
40
1.0000000000
10
-0.8447063618
20
0.8856129032
30
0.0000000000
10
-0.8427530040
20
0.8864932502
30
0.0000000000
10
-0.8408168949
20
0.8874107851
30
0.0000000000
10
-0.8389005133
20
0.8883668061
30
0.0000000000
11
-0.8447063618
21
0.8856129032
31
0.0000000000
11
-0.8389005133
21
0.8883668061
31
0.0000000000
0
SPLINE
5
33E
100
AcDbEntity
8
0
100
AcDbSpline
62
9
6
CONTINUOUS
70
0
71
3
72
8
73
4
74
2
42
0.0000001000
43
0.0000001000
44
0.0000000001
12
0.0061893938
22
0.0305982744
32
0.0000000000
13
0.0069652169
23
0.0304387369
33
0.0000000000
40
0.0000000000
40
0.0000000000
40
0.0000000000
40
0.0000000000
40
1.0000000000
40
1.0000000000
40
1.0000000000
40
1.0000000000
10
-1.1183175120
20
0.9247448647
30
0.0000000000
10
-1.1162543808
20
0.9349442895
30
0.0000000000
10
-1.1140639983
20
0.9451197912
30
0.0000000000
10
-1.1117422594
20
0.9552660369
30
0.0000000000
11
-1.1183175120
21
0.9247448647
31
0.0000000000
11
-1.1117422594
21
0.9552660369
31
0.0000000000
0
SPLINE
5
33F
100
AcDbEntity
8
0
100
AcDbSpline
62
9
6
CONTINUOUS
70
0
71
3
72
26
73
22
74
20
42
0.0000001000
43
0.0000001000
44
0.0000000001
12
0.3272184646
22
1.4299794125
32
0.0000000000
13
1.2956910619
23
-0.6877133376
33
0.0000000000
40
0.0000000000
40
0.0000000000
40
0.0000000000
40
0.0000000000
40
0.0417157657
40
0.1023883948
40
0.1608189697
40
0.2171498521
40
0.2715952760
40
0.3244389364
40
0.3760281325
40
0.4267640060
40
0.4770872018
40
0.5274578347
40
0.5783334411
40
0.6301475395
40
0.6832901989
40
0.7380951297
40
0.7948310564
40
0.8537000829
40
0.9148380364
40
0.9783188093
40
1.0000000000
40
1.0000000000
40
1.0000000000
40
1.0000000000
10
-1.1117422594
20
0.9552660369
30
0.0000000000
10
-1.1071922031
20
0.9751502656
30
0.0000000000
10
-1.0947861603
20
1.0236789108
30
0.0000000000
10
-1.0702343094
20
1.0984586719
30
0.0000000000
10
-1.0364400376
20
1.1774115105
30
0.0000000000
10
-0.9968328166
20
1.2501804839
30
0.0000000000
10
-0.9516254666
20
1.3163438178
30
0.0000000000
10
-0.9010636758
20
1.3755115333
30
0.0000000000
10
-0.8454285890
20
1.4273277301
30
0.0000000000
10
-0.7850396554
20
1.4714737620
30
0.0000000000
10
-0.7202550208
20
1.5076754008
30
0.0000000000
10
-0.6514678221
20
1.5357107681
30
0.0000000000
10
-0.5790985499
20
1.5554161603
30
0.0000000000
10
-0.5035857927
20
1.5666874523
30
0.0000000000
10
-0.4253780686
20
1.5694773981
30
0.0000000000
10
-0.3449293559
20
1.5637907618
30
0.0000000000
10
-0.2626967173
20
1.5496797130
30
0.0000000000
10
-0.1791402966
20
1.5272405958
30
0.0000000000
10
-0.0947229743
20
1.4966121126
30
0.0000000000
10
-0.0295745870
20
1.4669329816
30
0.0000000000
10
0.0074397380
20
1.4478499943
30
0.0000000000
10
0.0168037796
20
1.4428798463
30
0.0000000000
11
-1.1117422594
21
0.9552660369
31
0.0000000000
11
-1.0965477000
21
1.0145414933
31
0.0000000000
11
-1.0686568171
21
1.0990391265
31
0.0000000000
11
-1.0348026352
21
1.1777619545
31
0.0000000000
11
-0.9951821172
21
1.2502555378
31
0.0000000000
11
-0.9500239351
21
1.3161084185
31
0.0000000000
11
-0.8995867702
21
1.3749499278
31
0.0000000000
11
-0.8441586452
21
1.4264491781
31
0.0000000000
11
-0.7840559210
21
1.4703160845
31
0.0000000000
11
-0.7196210938
21
1.5063034972
31
0.0000000000
11
-0.6512213023
21
1.5342083950
31
0.0000000000
11
-0.5792458299
21
1.5538734273
31
0.0000000000
11
-0.5041029521
21
1.5651879236
31
0.0000000000
11
-0.4262185456
21
1.5680880977
31
0.0000000000
11
-0.3460327990
21
1.5625574655
31
0.0000000000
11
-0.2639989675
21
1.5486269402
31
0.0000000000
11
-0.1805793009
21
1.5263745537
31
0.0000000000
11
-0.0962436585
21
1.4959251566
31
0.0000000000
11
-0.0114659579
21
1.4574494880
31
0.0000000000
11
0.0168037796
21
1.4428798463
31
0.0000000000
0
SPLINE
5
340
100
AcDbEntity
8
0
100
AcDbSpline
62
9
6
CONTINUOUS
70
0
71
3
72
24
73
20
74
18
42
0.0000001000
43
0.0000001000
44
0.0000000001
12
1.6045305406
22
-0.8516359230
32
0.0000000000
13
0.4483200099
23
-1.7601315027
33
0.0000000000
40
0.0000000000
40
0.0000000000
40
0.0000000000
40
0.0000000000
40
0.0356592307
40
0.0907033959
40
0.1475593308
40
0.2061290090
40
0.2662862559
40
0.3278798665
40
0.3907381244
40
0.4546714042
40
0.5194758060
40
0.5849355475
40
0.6508263428
40
0.7169186452
40
0.7829801107
40
0.8487789224
40
0.9140857303
40
0.9786738111
40
1.0000000000
40
1.0000000000
40
1.0000000000
40
1.0000000000
10
0.0168037796
20
1.4428798463
30
0.0000000000
10
0.0358758879
20
1.4327569523
30
0.0000000000
10
0.0837617551
20
1.4058279498
30
0.0000000000
10
0.1590334068
20
1.3576011625
30
0.0000000000
10
0.2422334013
20
1.2964311961
30
0.0000000000
10
0.3239713895
20
1.2283828222
30
0.0000000000
10
0.4037953472
20
1.1538368456
30
0.0000000000
10
0.4812635008
20
1.0732102050
30
0.0000000000
10
0.5559466286
20
0.9869541189
30
0.0000000000
10
0.6274307996
20
0.8955514348
30
0.0000000000
10
0.6953194045
20
0.7995144488
30
0.0000000000
10
0.7592355841
20
0.6993819714
30
0.0000000000
10
0.8188244823
20
0.5957162126
30
0.0000000000
10
0.8737553847
20
0.4890993003
30
0.0000000000
10
0.9237236583
20
0.3801296450
30
0.0000000000
10
0.9684521664
20
0.2694187017
30
0.0000000000
10
1.0076921146
20
0.1575896987
30
0.0000000000
10
1.0338918008
20
0.0698343400
30
0.0000000000
10
1.0471444842
20
0.0195330029
30
0.0000000000
10
1.0503314700
20
0.0070207039
30
0.0000000000
11
0.0168037796
21
1.4428798463
31
0.0000000000
11
0.0732777583
21
1.4111634399
31
0.0000000000
11
0.1575122188
21
1.3573268034
31
0.0000000000
11
0.2407657537
21
1.2962416638
31
0.0000000000
11
0.3225722548
21
1.2282511734
31
0.0000000000
11
0.4024745246
21
1.1537370658
31
0.0000000000
11
0.4800257425
21
1.0731184527
31
0.0000000000
11
0.5547931140
21
0.9868483706
31
0.0000000000
11
0.6263592377
21
0.8954122338
31
0.0000000000
11
0.6943249445
21
0.7993245238
31
0.0000000000
11
0.7583108152
21
0.6991268542
31
0.0000000000
11
0.8179598121
21
0.5953843031
31
0.0000000000
11
0.8729395448
21
0.4886815727
31
0.0000000000
11
0.9229436933
21
0.3796201821
31
0.0000000000
11
0.9676940015
21
0.2688141595
31
0.0000000000
11
1.0069410768
21
0.1568879902
31
0.0000000000
11
1.0404645749
21
0.0444778664
31
0.0000000000
11
1.0503314700
21
0.0070207039
31
0.0000000000
0
SPLINE
5
341
100
AcDbEntity
8
0
100
AcDbSpline
62
9
6
CONTINUOUS
70
0
71
3
72
9
73
5
74
3
42
0.0000001000
43
0.0000001000
44
0.0000000001
12
0.0283670619
22
-0.1113708024
32
0.0000000000
13
0.0227745229
23
-0.1126540892
33
0.0000000000
40
0.0000000000
40
0.0000000000
40
0.0000000000
40
0.0000000000
40
0.6688529503
40
1.0000000000
40
1.0000000000
40
1.0000000000
40
1.0000000000
10
1.0503314700
20
0.0070207039
30
0.0000000000
10
1.0566559343
20
-0.0178095260
30
0.0000000000
10
1.0655070573
20
-0.0550872691
30
0.0000000000
10
1.0734175756
20
-0.0925745888
30
0.0000000000
10
1.0759314809
20
-0.1050096118
30
0.0000000000
11
1.0503314700
21
0.0070207039
31
0.0000000000
11
1.0680753408
21
-0.0677699400
31
0.0000000000
11
1.0759314809
21
-0.1050096118
31
0.0000000000
0
SPLINE
5
342
100
AcDbEntity
8
0
100
AcDbSpline
62
9
6
CONTINUOUS
70
0
71
3
72
8
73
4
74
2
42
0.0000001000
43
0.0000001000
44
0.0000000001
12
0.0074983047
22
-0.0370903351
32
0.0000000000
13
0.0068643898
23
-0.0372108903
33
0.0000000000
40
0.0000000000
40
0.0000000000
40
0.0000000000
40
0.0000000000
40
1.0000000000
40
1.0000000000
40
1.0000000000
40
1.0000000000
10
1.0759314809
20
-0.1050096118
30
0.0000000000
10
1.0784309158
20
-0.1173730569
30
0.0000000000
10
1.0808259240
20
-0.1297574663
30
0.0000000000
10
1.0831140539
20
-0.1421610963
30
0.0000000000
11
1.0759314809
21
-0.1050096118
31
0.0000000000
11
1.0831140539
21
-0.1421610963
31
0.0000000000
0
SPLINE
5
343
100
AcDbEntity
8
0
100
AcDbSpline
62
9
6
CONTINUOUS
70
0
71
3
72
8
73
4
74
2
42
0.0000001000
43
0.0000001000
44
0.0000000001
12
0.0068270029
22
-0.0370082214
32
0.0000000000
13
0.0061854653
23
-0.0371171472
33
0.0000000000
40
0.0000000000
40
0.0000000000
40
0.0000000000
40
0.0000000000
40
1.0000000000
40
1.0000000000
40
1.0000000000
40
1.0000000000
10
1.0831140539
20
-0.1421610963
30
0.0000000000
10
1.0853897215
20
-0.1544971701
30
0.0000000000
10
1.0875596720
20
-0.1668522559
30
0.0000000000
10
1.0896214938
20
-0.1792246383
30
0.0000000000
11
1.0831140539
21
-0.1421610963
31
0.0000000000
11
1.0896214938
21
-0.1792246383
31
0.0000000000
0
SPLINE
5
344
100
AcDbEntity
8
0
100
AcDbSpline
62
9
6
CONTINUOUS
70
0
71
3
72
13
73
9
74
7
42
0.0000001000
43
0.0000001000
44
0.0000000001
12
-0.0692171795
22
0.0152686889
32
0.0000000000
13
-0.0117348159
23
0.0701752660
33
0.0000000000
40
0.0000000000
40
0.0000000000
40
0.0000000000
40
0.0000000000
40
0.2280317785
40
0.4299108414
40
0.6054969351
40
0.7568090666
40
0.8888335511
40
1.0000000000
40
1.0000000000
40
1.0000000000
40
1.0000000000
10
1.0896221799
20
-0.1792249816
30
0.0000000000
10
1.0843609410
20
-0.1780643995
30
0.0000000000
10
1.0745390482
20
-0.1754032244
30
0.0000000000
10
1.0611477229
20
-0.1702833146
30
0.0000000000
10
1.0501539430
20
-0.1642408362
30
0.0000000000
10
1.0416946163
20
-0.1573310677
30
0.0000000000
10
1.0360730510
20
-0.1497362321
30
0.0000000000
10
1.0341998004
20
-0.1441955420
30
0.0000000000
10
1.0337649612
20
-0.1415951637
30
0.0000000000
11
1.0896221799
21
-0.1792249816
31
0.0000000000
11
1.0740298601
21
-0.1749673026
31
0.0000000000
11
1.0607093155
21
-0.1697401485
31
0.0000000000
11
1.0498716464
21
-0.1636211705
31
0.0000000000
11
1.0416771213
21
-0.1567016687
31
0.0000000000
11
1.0362450748
21
-0.1490815537
31
0.0000000000
11
1.0337649612
21
-0.1415951637
31
0.0000000000
0
SPLINE
5
345
100
AcDbEntity
8
0
100
AcDbSpline
62
9
6
CONTINUOUS
70
0
71
3
72
27
73
23
74
21
42
0.0000001000
43
0.0000001000
44
0.0000000001
12
-1.8689925287
22
-0.9590365421
32
0.0000000000
13
-0.1143909463
23
-2.0975697540
33
0.0000000000
40
0.0000000000
40
0.0000000000
40
0.0000000000
40
0.0000000000
40
0.0432239180
40
0.0879158179
40
0.1340161840
40
0.1814401668
40
0.2300822988
40
0.2798189099
40
0.3305107644
40
0.3820059565
40
0.4341423375
40
0.4867497404
40
0.5396522486
40
0.5926704210
40
0.6456234779
40
0.6983314633
40
0.7506172767
40
0.8023088190
40
0.8532415332
40
0.9032605712
40
0.9522226088
40
1.0000000000
40
1.0000000000
40
1.0000000000
40
1.0000000000
10
16.5577165926
20
12.1691513825
30
0.0000000000
10
16.5307881993
20
12.1553336102
30
0.0000000000
10
16.4770214646
20
12.1252322355
30
0.0000000000
10
16.3983188873
20
12.0740106027
30
0.0000000000
10
16.3206038228
20
12.0162267488
30
0.0000000000
10
16.2443052522
20
11.9522010036
30
0.0000000000
10
16.1698378845
20
11.8822842688
30
0.0000000000
10
16.0976091603
20
11.8068604077
30
0.0000000000
10
16.0280142673
20
11.7263433085
30
0.0000000000
10
15.9614345579
20
11.6411749540
30
0.0000000000
10
15.8982350518
20
11.5518228632
30
0.0000000000
10
15.8387624613
20
11.4587776172
30
0.0000000000
10
15.7833432115
20
11.3625501918
30
0.0000000000
10
15.7322815589
20
11.2636690805
30
0.0000000000
10
15.6858578555
20
11.1626773023
30
0.0000000000
10
15.6443270116
20
11.0601293984
30
0.0000000000
10
15.6079171244
20
10.9565884605
30
0.0000000000
10
15.5768281638
20
10.8526227251
30
0.0000000000
10
15.5512309361
20
10.7488028629
30
0.0000000000
10
15.5312661672
20
10.6456969774
30
0.0000000000
10
15.5170440754
20
10.5438744382
30
0.0000000000
10
15.5113693750
20
10.4763298283
30
0.0000000000
10
15.5095476080
20
10.4429243581
30
0.0000000000
11
16.5577165926
21
12.1691513825
31
0.0000000000
11
16.4784358303
21
12.1248887176
31
0.0000000000
11
16.3996957923
21
12.0737599508
31
0.0000000000
11
16.3219294902
21
12.0160463755
31
0.0000000000
11
16.2455663996
21
11.9520666479
31
0.0000000000
11
16.1710273294
21
11.8821734255
31
0.0000000000
11
16.0987231607
21
11.8067519880
31
0.0000000000
11
16.0290527177
21
11.7262183960
31
0.0000000000
11
15.9624001331
21
11.6410167542
31
0.0000000000
11
15.8991327993
21
11.5516167764
31
0.0000000000
11
15.8395995004
21
11.4585113813
31
0.0000000000
11
15.7841284565
21
11.3622139590
31
0.0000000000
11
15.7330254759
21
11.2632554887
31
0.0000000000
11
15.6865722460
21
11.1621815533
31
0.0000000000
11
15.6450247813
21
11.0595492891
31
0.0000000000
11
15.6086121145
21
10.9559245422
31
0.0000000000
11
15.5775350205
21
10.8518788345
31
0.0000000000
11
15.5519647252
21
10.7479855941
31
0.0000000000
11
15.5320421035
21
10.6448172735
31
0.0000000000
11
15.5178771024
21
10.5429434463
31
0.0000000000
11
15.5095476080
21
10.4429243581
31
0.0000000000
0
SPLINE
5
346
100
AcDbEntity
8
0
100
AcDbSpline
62
9
6
CONTINUOUS
70
0
71
3
72
24
73
20
74
18
42
0.0000001000
43
0.0000001000
44
0.0000000001
12
-0.0171491469
22
1.1747168863
32
0.0000000000
13
-1.0431329568
23
0.5404881966
33
0.0000000000
40
0.0000000000
40
0.0000000000
40
0.0000000000
40
0.0000000000
40
0.0551281700
40
0.1122124276
40
0.1710183849
40
0.2312753970
40
0.2926841265
40
0.3549235377
40
0.4176574830
40
0.4805410181
40
0.5432265659
40
0.6053700365
40
0.6666370058
40
0.7267090610
40
0.7852904347
40
0.8421150689
40
0.8969542724
40
0.9496251541
40
1.0000000000
40
1.0000000000
40
1.0000000000
40
1.0000000000
10
17.1233158609
20
11.1936369452
30
0.0000000000
10
17.1230007272
20
11.2152236093
30
0.0000000000
10
17.1207039849
20
11.2591519171
30
0.0000000000
10
17.1126304304
20
11.3256829498
30
0.0000000000
10
17.0999338117
20
11.3935326259
30
0.0000000000
10
17.0827223740
20
11.4621228443
30
0.0000000000
10
17.0611421592
20
11.5308748429
30
0.0000000000
10
17.0353761531
20
11.5992060560
30
0.0000000000
10
17.0056428004
20
11.6665375605
30
0.0000000000
10
16.9721942019
20
11.7322985327
30
0.0000000000
10
16.9353139491
20
11.7959314243
30
0.0000000000
10
16.8953146521
20
11.8568967762
30
0.0000000000
10
16.8525351493
20
11.9146779244
30
0.0000000000
10
16.8073375185
20
11.9687854203
30
0.0000000000
10
16.7601035417
20
12.0187613195
30
0.0000000000
10
16.7112319540
20
12.0641825883
30
0.0000000000
10
16.6611318139
20
12.1046659553
30
0.0000000000
10
16.6102286795
20
12.1398655231
30
0.0000000000
10
16.5752324799
20
12.1600757126
30
0.0000000000
10
16.5577165926
20
12.1691513825
30
0.0000000000
11
17.1233158609
21
11.1936369452
31
0.0000000000
11
17.1200197826
21
11.2583199123
31
0.0000000000
11
17.1120123874
21
11.3249051513
31
0.0000000000
11
17.0993619653
21
11.3928248005
31
0.0000000000
11
17.0821764032
21
11.4614996179
31
0.0000000000
11
17.0606022655
21
11.5303439213
31
0.0000000000
11
17.0348235437
21
11.5987705829
31
0.0000000000
11
17.0050600876
21
11.6661960369
31
0.0000000000
11
16.9715657300
21
11.7320452559
31
0.0000000000
11
16.9346261223
21
11.7957566552
31
0.0000000000
11
16.8945562981
21
11.8567868824
31
0.0000000000
11
16.8516979864
21
11.9146154507
31
0.0000000000
11
16.8064166976
21
11.9687491784
31
0.0000000000
11
16.7590986060
21
12.0187263945
31
0.0000000000
11
16.7101472564
21
12.0641208762
31
0.0000000000
11
16.6599801227
21
12.1045454838
31
0.0000000000
11
16.6090250473
21
12.1396554626
31
0.0000000000
11
16.5577165926
21
12.1691513825
31
0.0000000000
0
SPLINE
5
347
100
AcDbEntity
8
0
100
AcDbSpline
62
9
6
CONTINUOUS
70
0
71
3
72
14
73
10
74
8
42
0.0000001000
43
0.0000001000
44
0.0000000001
12
-0.0001204374
22
-0.1264084975
32
0.0000000000
13
0.1132609806
23
-0.0566665285
33
0.0000000000
40
0.0000000000
40
0.0000000000
40
0.0000000000
40
0.0000000000
40
0.1745395300
40
0.3387591122
40
0.4925259616
40
0.6364683603
40
0.7720898881
40
0.9017986385
40
1.0000000000
40
1.0000000000
40
1.0000000000
40
1.0000000000
10
-15.0400241336
20
7.8855981757
30
0.0000000000
10
-15.0400311407
20
7.8782437491
30
0.0000000000
10
-15.0393059303
20
7.8639530157
30
0.0000000000
10
-15.0357879714
20
7.8434457955
30
0.0000000000
10
-15.0299157984
20
7.8248170759
30
0.0000000000
10
-15.0217642088
20
7.8083855837
30
0.0000000000
10
-15.0114403317
20
7.7944458381
30
0.0000000000
10
-15.0000016688
20
7.7840951961
30
0.0000000000
10
-14.9917527500
20
7.7790766767
30
0.0000000000
10
-14.9880452891
20
7.7772217666
30
0.0000000000
11
-15.0400241336
21
7.8855981757
31
0.0000000000
11
-15.0388340247
21
7.8635670070
31
0.0000000000
11
-15.0352409591
21
7.8431215674
31
0.0000000000
11
-15.0293065065
21
7.8246122036
31
0.0000000000
11
-15.0211323578
21
7.8083560862
31
0.0000000000
11
-15.0108585825
21
7.7946317748
31
0.0000000000
11
-14.9986612289
21
7.7836744449
31
0.0000000000
11
-14.9880452891
21
7.7772217666
31
0.0000000000
0
SPLINE
5
348
100
AcDbEntity
8
0
100
AcDbSpline
62
9
6
CONTINUOUS
70
0
71
3
72
15
73
11
74
9
42
0.0000001000
43
0.0000001000
44
0.0000000001
12
-0.0001204093
22
-0.1263791533
32
0.0000000000
13
0.1131923979
23
-0.0566703134
33
0.0000000000
40
0.0000000000
40
0.0000000000
40
0.0000000000
40
0.0000000000
40
0.1613782376
40
0.3141456207
40
0.4579772357
40
0.5932509674
40
0.7209473981
40
0.8427210673
40
0.9608389274
40
1.0000000000
40
1.0000000000
40
1.0000000000
40
1.0000000000
10
-1.1183180367
20
0.9247451270
30
0.0000000000
10
-1.1183245139
20
0.9179468453
30
0.0000000000
10
-1.1177036285
20
0.9047000710
30
0.0000000000
10
-1.1147024148
20
0.8856002140
30
0.0000000000
10
-1.1096872126
20
0.8680579829
30
0.0000000000
10
-1.1027160840
20
0.8523348256
30
0.0000000000
10
-1.0938694227
20
0.8386651849
30
0.0000000000
10
-1.0832565336
20
0.8272694875
30
0.0000000000
10
-1.0736982793
20
0.8202976239
30
0.0000000000
10
-1.0678620685
20
0.8171312587
30
0.0000000000
10
-1.0663844900
20
0.8163915019
30
0.0000000000
11
-1.1183180367
21
0.9247451270
31
0.0000000000
11
-1.1173071918
21
0.9043753387
31
0.0000000000
11
-1.1142457512
21
0.8853129882
31
0.0000000000
11
-1.1091784081
21
0.8678562642
31
0.0000000000
11
-1.1021786574
21
0.8522591671
31
0.0000000000
11
-1.0933490230
21
0.8387507171
31
0.0000000000
11
-1.0828183704
21
0.8275281062
31
0.0000000000
11
-1.0707405618
21
0.8187553625
31
0.0000000000
11
-1.0663844900
21
0.8163915019
31
0.0000000000
0
SPLINE
5
349
100
AcDbEntity
8
0
100
AcDbSpline
62
9
6
CONTINUOUS
70
0
71
3
72
12
73
8
74
6
42
0.0000001000
43
0.0000001000
44
0.0000000001
12
0.0588225813
22
0.0294232085
32
0.0000000000
13
0.0633335843
23
-0.0175524421
33
0.0000000000
40
0.0000000000
40
0.0000000000
40
0.0000000000
40
0.0000000000
40
0.0178541138
40
0.2708238934
40
0.5316851575
40
0.8066248851
40
1.0000000000
40
1.0000000000
40
1.0000000000
40
1.0000000000
10
1.1416007686
20
-0.5360489993
30
0.0000000000
10
1.1419508436
20
-0.5358738909
30
0.0000000000
10
1.1472819366
20
-0.5332596282
30
0.0000000000
10
1.1583542027
20
-0.5293901068
30
0.0000000000
10
1.1756099307
20
-0.5272936776
30
0.0000000000
10
1.1916111516
20
-0.5285074596
30
0.0000000000
10
1.2016376440
20
-0.5307353086
30
0.0000000000
10
1.2057200237
20
-0.5318667105
30
0.0000000000
11
1.1416007686
21
-0.5360489993
31
0.0000000000
11
1.1426550921
21
-0.5355319950
31
0.0000000000
11
1.1583208671
21
-0.5300229253
31
0.0000000000
11
1.1753105144
21
-0.5278800605
31
0.0000000000
11
1.1933147472
21
-0.5291424104
31
0.0000000000
11
1.2057200237
21
-0.5318667105
31
0.0000000000
0
SPLINE
5
34A
100
AcDbEntity
8
0
100
AcDbSpline
62
9
6
CONTINUOUS
70
0
71
3
72
9
73
5
74
3
42
0.0000001000
43
0.0000001000
44
0.0000000001
12
0.0262357684
22
-0.0072710524
32
0.0000000000
13
0.0243224161
23
-0.0121612081
33
0.0000000000
40
0.0000000000
40
0.0000000000
40
0.0000000000
40
0.0000000000
40
0.2414334889
40
1.0000000000
40
1.0000000000
40
1.0000000000
40
1.0000000000
10
1.2057200237
20
-0.5318667105
30
0.0000000000
10
1.2078314214
20
-0.5324518690
30
0.0000000000
10
1.2165127179
20
-0.5351098659
30
0.0000000000
10
1.2248933830
20
-0.5386542325
30
0.0000000000
10
1.2310434397
20
-0.5417292609
30
0.0000000000
11
1.2057200237
21
-0.5318667105
31
0.0000000000
11
1.2120058090
21
-0.5337869945
31
0.0000000000
11
1.2310434397
21
-0.5417292609
31
0.0000000000
0
SPLINE
5
34B
100
AcDbEntity
8
0
100
AcDbSpline
62
0
6
CONTINUOUS
70
0
71
3
72
13
73
9
74
7
42
0.0000001000
43
0.0000001000
44
0.0000000001
12
0.0832049363
22
0.0415974478
32
0.0000000000
13
0.0830594282
23
-0.0415297141
33
0.0000000000
40
0.0000000000
40
0.0000000000
40
0.0000000000
40
0.0000000000
40
0.0941086148
40
0.2585439442
40
0.4279246332
40
0.6073595882
40
0.7982665521
40
1.0000000000
40
1.0000000000
40
1.0000000000
40
1.0000000000
10
1.2828756115
20
-0.4654126204
30
0.0000000000
10
1.2854857119
20
-0.4641077276
30
0.0000000000
10
1.2928648443
20
-0.4609391038
30
0.0000000000
10
1.3057946929
20
-0.4576903263
30
0.0000000000
10
1.3217432456
20
-0.4567892405
30
0.0000000000
10
1.3384116711
20
-0.4587372410
30
0.0000000000
10
1.3555337368
20
-0.4634845064
30
0.0000000000
10
1.3667350437
20
-0.4682981707
30
0.0000000000
10
1.3723203320
20
-0.4710908148
30
0.0000000000
11
1.2828756115
21
-0.4654126204
31
0.0000000000
11
1.2909149889
21
-0.4619607589
31
0.0000000000
11
1.3057147935
21
-0.4582006090
31
0.0000000000
11
1.3214151734
21
-0.4572481516
31
0.0000000000
11
1.3379744746
21
-0.4591034944
31
0.0000000000
11
1.3550796061
21
-0.4637623683
31
0.0000000000
11
1.3723203320
21
-0.4710908148
31
0.0000000000
0
SPLINE
5
34C
100
AcDbEntity
8
0
100
AcDbSpline
62
9
6
CONTINUOUS
70
0
71
3
72
18
73
14
74
12
42
0.0000001000
43
0.0000001000
44
0.0000000001
12
-0.6059828078
22
-0.3030207924
32
0.0000000000
13
-0.5982761168
23
0.3173574284
33
0.0000000000
40
0.0000000000
40
0.0000000000
40
0.0000000000
40
0.0000000000
40
0.0122726991
40
0.1070483698
40
0.2028369927
40
0.3004790857
40
0.4007271018
40
0.5042203223
40
0.6114688907
40
0.7228516893
40
0.8386181254
40
0.9588974391
40
1.0000000000
40
1.0000000000
40
1.0000000000
40
1.0000000000
10
0.7548391061
20
-1.1112048771
30
0.0000000000
10
0.7523600912
20
-1.1124445047
30
0.0000000000
10
0.7306505864
20
-1.1230843358
30
0.0000000000
10
0.6881304454
20
-1.1403603260
30
0.0000000000
10
0.6251848471
20
-1.1573768638
30
0.0000000000
10
0.5594591342
20
-1.1670317180
30
0.0000000000
10
0.4913382105
20
-1.1692887946
30
0.0000000000
10
0.4212120594
20
-1.1641568895
30
0.0000000000
10
0.3494740883
20
-1.1516853694
30
0.0000000000
10
0.2765214871
20
-1.1319612578
30
0.0000000000
10
0.2027551904
20
-1.1051076789
30
0.0000000000
10
0.1457864924
20
-1.0791296398
30
0.0000000000
10
0.1134010470
20
-1.0624382747
30
0.0000000000
10
0.1052041535
20
-1.0580902070
30
0.0000000000
11
0.7548391061
21
-1.1112048771
31
0.0000000000
11
0.7473726579
21
-1.1148641300
31
0.0000000000
11
0.6879290548
21
-1.1390424406
31
0.0000000000
11
0.6253336536
21
-1.1560261725
31
0.0000000000
11
0.5599350938
21
-1.1657229719
31
0.0000000000
11
0.4920980609
21
-1.1680811248
31
0.0000000000
11
0.4222007090
21
-1.1630898134
31
0.0000000000
11
0.3506337182
21
-1.1507791521
31
0.0000000000
11
0.2777968071
21
-1.1312198787
31
0.0000000000
11
0.2040976123
21
-1.1045230281
31
0.0000000000
11
0.1299486874
21
-1.0708390804
31
0.0000000000
11
0.1052041535
21
-1.0580902070
31
0.0000000000
0
SPLINE
5
34D
100
AcDbEntity
8
0
100
AcDbSpline
62
9
6
CONTINUOUS
70
0
71
3
72
11
73
7
74
5
42
0.0000001000
43
0.0000001000
44
0.0000000001
12
-0.2396745881
22
0.1789725931
32
0.0000000000
13
-0.2045595879
23
0.2182258677
33
0.0000000000
40
0.0000000000
40
0.0000000000
40
0.0000000000
40
0.0000000000
40
0.1018292737
40
0.4133276259
40
0.7332765917
40
1.0000000000
40
1.0000000000
40
1.0000000000
40
1.0000000000
10
-0.0668168925
20
-0.9484143576
30
0.0000000000
10
-0.0749521889
20
-0.9423394746
30
0.0000000000
10
-0.1077217376
20
-0.9173439710
30
0.0000000000
10
-0.1640500366
20
-0.8706859767
30
0.0000000000
10
-0.2297117863
20
-0.8097426989
30
0.0000000000
10
-0.2706098630
20
-0.7679055509
30
0.0000000000
10
-0.2887968065
20
-0.7485035685
30
0.0000000000
11
-0.0668168925
21
-0.9484143576
31
0.0000000000
11
-0.0910368592
21
-0.9299442969
31
0.0000000000
11
-0.1628306073
21
-0.8705747268
31
0.0000000000
11
-0.2330106622
21
-0.8055274809
31
0.0000000000
11
-0.2887968065
21
-0.7485035685
31
0.0000000000
0
SPLINE
5
34E
100
AcDbEntity
8
0
100
AcDbSpline
62
9
6
CONTINUOUS
70
0
71
3
72
8
73
4
74
2
42
0.0000001000
43
0.0000001000
44
0.0000000001
12
-0.0133984122
22
0.0653121283
32
0.0000000000
13
-0.0110941552
23
0.0657324695
33
0.0000000000
40
0.0000000000
40
0.0000000000
40
0.0000000000
40
0.0000000000
40
1.0000000000
40
1.0000000000
40
1.0000000000
40
1.0000000000
10
-0.8266451183
20
0.2923975999
30
0.0000000000
10
-0.8311112557
20
0.3141683093
30
0.0000000000
10
-0.8352024434
20
0.3360154322
30
0.0000000000
10
-0.8389004951
20
0.3579262553
30
0.0000000000
11
-0.8266451183
21
0.2923975999
31
0.0000000000
11
-0.8389004951
21
0.3579262553
31
0.0000000000
0
SPLINE
5
34F
100
AcDbEntity
8
0
100
AcDbSpline
62
0
6
CONTINUOUS
70
0
71
3
72
10
73
6
74
4
42
0.0000001000
43
0.0000001000
44
0.0000000001
12
-0.0904153512
22
-0.0655904721
32
0.0000000000
13
-0.0756765224
23
-0.0821420911
33
0.0000000000
40
0.0000000000
40
0.0000000000
40
0.0000000000
40
0.0000000000
40
0.1897821147
40
0.7952361515
40
1.0000000000
40
1.0000000000
40
1.0000000000
40
1.0000000000
10
-0.4318613410
20
1.4179651135
30
0.0000000000
10
-0.4375810799
20
1.4138158139
30
0.0000000000
10
-0.4612063344
20
1.3959579480
30
0.0000000000
10
-0.4890303801
20
1.3711160795
30
0.0000000000
10
-0.5098954982
20
1.3493254013
30
0.0000000000
10
-0.5150607702
20
1.3437188244
30
0.0000000000
11
-0.4318613410
21
1.4179651135
31
0.0000000000
11
-0.4487720066
21
1.4051842426
31
0.0000000000
11
-0.4992419430
21
1.3602333423
31
0.0000000000
11
-0.5150607702
21
1.3437188244
31
0.0000000000
0
SPLINE
5
350
100
AcDbEntity
8
0
100
AcDbSpline
62
0
6
CONTINUOUS
70
0
71
3
72
9
73
5
74
3
42
0.0000001000
43
0.0000001000
44
0.0000000001
12
-0.0473606726
22
-0.0514070224
32
0.0000000000
13
-0.0412673425
23
-0.0564100992
33
0.0000000000
40
0.0000000000
40
0.0000000000
40
0.0000000000
40
0.0000000000
40
0.6634279682
40
1.0000000000
40
1.0000000000
40
1.0000000000
40
1.0000000000
10
-0.5150607702
20
1.3437188244
30
0.0000000000
10
-0.5255342351
20
1.3323505389
30
0.0000000000
10
-0.5406524125
20
1.3145983199
30
0.0000000000
10
-0.5547493219
20
1.2960446828
30
0.0000000000
10
-0.5593791330
20
1.2897159956
30
0.0000000000
11
-0.5150607702
21
1.3437188244
31
0.0000000000
11
-0.5451443811
21
1.3084431682
31
0.0000000000
11
-0.5593791330
21
1.2897159956
31
0.0000000000
0
SPLINE
5
351
100
AcDbEntity
8
0
100
AcDbSpline
62
0
6
CONTINUOUS
70
0
71
3
72
14
73
10
74
8
42
0.0000001000
43
0.0000001000
44
0.0000000001
12
0.0270131161
22
-0.1758876957
32
0.0000000000
13
0.1588329511
23
-0.0794164755
33
0.0000000000
40
0.0000000000
40
0.0000000000
40
0.0000000000
40
0.0000000000
40
0.0490024160
40
0.1794642731
40
0.3184843071
40
0.4688090898
40
0.6321271755
40
0.8091935114
40
1.0000000000
40
1.0000000000
40
1.0000000000
40
1.0000000000
10
-14.8733023743
20
7.7198263139
30
0.0000000000
10
-14.8728611383
20
7.7169533399
30
0.0000000000
10
-14.8708011510
20
7.7064996041
30
0.0000000000
10
-14.8643684865
20
7.6886383966
30
0.0000000000
10
-14.8515568627
20
7.6671909870
30
0.0000000000
10
-14.8341421857
20
7.6466914486
30
0.0000000000
10
-14.8123667133
20
7.6273465374
30
0.0000000000
10
-14.7865034048
20
7.6093585657
30
0.0000000000
10
-14.7674255841
20
7.5987821432
30
0.0000000000
10
-14.7573234649
20
7.5937310836
30
0.0000000000
11
-14.8733023743
21
7.7198263139
31
0.0000000000
11
-14.8716195230
21
7.7112735950
31
0.0000000000
11
-14.8638895274
21
7.6894337183
31
0.0000000000
11
-14.8513705980
21
7.6681560886
31
0.0000000000
11
-14.8342166921
21
7.6477023774
31
0.0000000000
11
-14.8126387678
21
7.6283241236
31
0.0000000000
11
-14.7869021896
21
7.6102596403
31
0.0000000000
11
-14.7573234649
21
7.5937310836
31
0.0000000000
0
SPLINE
5
352
100
AcDbEntity
8
0
100
AcDbSpline
62
9
6
CONTINUOUS
70
0
71
3
72
8
73
4
74
2
42
0.0000001000
43
0.0000001000
44
0.0000000001
12
1.1153130183
22
-3.7097397202
32
-0.5726899594
13
1.1448406420
23
-3.6971379945
33
-0.5980624161
40
0.0000000000
40
0.0000000000
40
0.0000000000
40
0.0000000000
40
1.0000000000
40
1.0000000000
40
1.0000000000
40
1.0000000000
10
0.6309712042
20
12.7770745585
30
10.0253121914
10
1.0027422103
20
11.5404946517
30
9.8344155383
10
1.3794473295
20
10.3059729459
30
9.6392834900
10
1.7610608768
20
9.0735936144
30
9.4399293513
11
0.6309712042
21
12.7770745585
31
10.0253121914
11
1.7610608768
21
9.0735936144
31
9.4399293513
0
SPLINE
5
353
100
AcDbEntity
8
0
100
AcDbSpline
62
9
6
CONTINUOUS
70
0
71
3
72
8
73
4
74
2
42
0.0000001000
43
0.0000001000
44
0.0000000001
12
0.3703810356
22
0.2646529770
32
0.5416476779
13
0.3709424334
23
0.2649272600
33
0.5410918616
40
0.0000000000
40
0.0000000000
40
0.0000000000
40
0.0000000000
40
1.0000000000
40
1.0000000000
40
1.0000000000
40
1.0000000000
10
-1.3306808160
20
13.3077794784
30
8.1061043659
10
-1.2072204708
20
13.3959971374
30
8.2866535919
10
-1.0836664733
20
13.4842605717
30
8.4671103074
10
-0.9600189955
20
13.5725696583
30
8.6474742613
11
-1.3306808160
21
13.3077794784
31
8.1061043659
11
-0.9600189955
21
13.5725696583
31
8.6474742613
0
SPLINE
5
354
100
AcDbEntity
8
0
100
AcDbSpline
62
9
6
CONTINUOUS
70
0
71
3
72
47
73
43
74
41
42
0.0000001000
43
0.0000001000
44
0.0000000001
12
0.0871783017
22
2.7621909423
32
1.4940868522
13
0.1399372215
23
3.7264212962
33
1.9898647535
40
0.0000000000
40
0.0000000000
40
0.0000000000
40
0.0000000000
40
0.1250000000
40
0.1875000000
40
0.2500000000
40
0.3125000000
40
0.3750000000
40
0.4375000000
40
0.5000000000
40
0.5312500000
40
0.5625000000
40
0.5781250000
40
0.5937500000
40
0.6093750000
40
0.6250000000
40
0.6406250000
40
0.6484375000
40
0.6523437500
40
0.6562500000
40
0.6601562500
40
0.6640625000
40
0.6650390625
40
0.6660156250
40
0.6665039063
40
0.6669921875
40
0.6679687500
40
0.6699218750
40
0.6718750000
40
0.6757812500
40
0.6796875000
40
0.6875000000
40
0.6953125000
40
0.7031250000
40
0.7187500000
40
0.7343750000
40
0.7500000000
40
0.7812500000
40
0.8125000000
40
0.8437500000
40
0.8750000000
40
0.9375000000
40
1.0000000000
40
1.0000000000
40
1.0000000000
40
1.0000000000
10
0.5236240097
20
9.6923120480
30
8.3682775889
10
0.5272564389
20
9.8074033372
30
8.4305312077
10
0.5327084921
20
9.9800418045
30
8.5239085845
10
0.5399642590
20
10.2102202940
30
8.6484239594
10
0.5454401777
20
10.3828694950
30
8.7417799759
10
0.5507865410
20
10.5554604274
30
8.8352519485
10
0.5566170320
20
10.7282691001
30
8.9282906112
10
0.5625775103
20
10.9011362355
30
9.0212129308
10
0.5675149040
20
11.0451788369
30
9.0986747544
10
0.5714710370
20
11.1604157142
30
9.1606386475
10
0.5739429107
20
11.2324384446
30
9.1993667165
10
0.5759205580
20
11.2900566929
30
9.2303490372
10
0.5774037739
20
11.3332703779
30
9.2535857997
10
0.5788869938
20
11.3764840357
30
9.2768225418
10
0.5803702174
20
11.4196978034
30
9.3000593431
10
0.5816062214
20
11.4557089330
30
9.3194231641
10
0.5824714556
20
11.4809173968
30
9.3329781910
10
0.5829658259
20
11.4953211825
30
9.3407233709
10
0.5833367424
20
11.5061269818
30
9.3465338046
10
0.5837071287
20
11.5169214666
30
9.3523383180
10
0.5839864047
20
11.5250490533
30
9.3567083023
10
0.5841702773
20
11.5304181085
30
9.3595958099
10
0.5842503304
20
11.5327286295
30
9.3608373525
10
0.5843063492
20
11.5344057846
30
9.3617409735
10
0.5843917110
20
11.5367092546
30
9.3629723152
10
0.5845547276
20
11.5410313275
30
9.3652794298
10
0.5847804952
20
11.5470538880
30
9.3684958628
10
0.5851456985
20
11.5567748341
30
9.3736865531
10
0.5856008416
20
11.5688969642
30
9.3801597142
10
0.5863298313
20
11.5883086099
30
9.3905252683
10
0.5872408074
20
11.6125675961
30
9.4034792959
10
0.5883340904
20
11.6416807640
30
9.4190253767
10
0.5897917621
20
11.6804974883
30
9.4397530486
10
0.5916138652
20
11.7290186794
30
9.4656627881
10
0.5938003830
20
11.7872439864
30
9.4967544114
10
0.5967157422
20
11.8648777718
30
9.5382099315
10
0.6003599405
20
11.9619199890
30
9.5900293240
10
0.6047329787
20
12.0783706558
30
9.6522125982
10
0.6091060169
20
12.1948213210
30
9.7143958716
10
0.6149367344
20
12.3500888751
30
9.7973069030
10
0.6222251314
20
12.5441733175
30
9.9009456922
10
0.6280558490
20
12.6994408716
30
9.9838567236
10
0.6309712077
20
12.7770746486
30
10.0253122393
11
0.5236240097
21
9.6923120480
31
8.3682775889
11
0.5345212974
21
10.0375859158
31
8.5550384454
11
0.5399699413
21
10.2102228497
31
8.6484188737
11
0.5454185851
21
10.3828597835
31
8.7417993019
11
0.5508672290
21
10.5554967174
31
8.8351797302
11
0.5566386965
21
10.7282788439
31
8.9282712207
11
0.5625715760
21
10.9011335666
31
9.0212182423
11
0.5685044554
21
11.0739882893
31
9.1141652639
11
0.5714708951
21
11.1604156506
31
9.1606387747
11
0.5744373349
21
11.2468430120
31
9.2071122855
11
0.5759205547
21
11.2900566927
31
9.2303490409
11
0.5774037746
21
11.3332703733
31
9.2535857963
11
0.5788869944
21
11.3764840540
31
9.2768225517
11
0.5803702143
21
11.4196977347
31
9.3000593071
11
0.5818534341
21
11.4629114154
31
9.3232960625
11
0.5825950441
21
11.4845182557
31
9.3349144402
11
0.5829658490
21
11.4953216759
31
9.3407236290
11
0.5833366540
21
11.5061250960
31
9.3465328179
11
0.5837074590
21
11.5169285162
31
9.3523420067
11
0.5840782639
21
11.5277319364
31
9.3581511956
11
0.5841709652
21
11.5304327914
31
9.3596034928
11
0.5842636664
21
11.5331336465
31
9.3610557900
11
0.5843100170
21
11.5344840740
31
9.3617819386
11
0.5843710197
21
11.5361472443
31
9.3626717306
11
0.5845076772
21
11.5397863276
31
9.3646149579
11
0.5847809921
21
11.5470644941
31
9.3685014125
11
0.5850543069
21
11.5543426607
31
9.3723878671
11
0.5856009367
21
11.5688989939
31
9.3801607763
11
0.5861475665
21
11.5834553271
31
9.3879336855
11
0.5872408260
21
11.6125679935
31
9.4034795039
11
0.5883340856
21
11.6416806599
31
9.4190253222
11
0.5894273451
21
11.6707933262
31
9.4345711406
11
0.5916138642
21
11.7290186590
31
9.4656627774
11
0.5938003833
21
11.7872439918
31
9.4967544142
11
0.5959869024
21
11.8454693245
31
9.5278460510
11
0.6003599405
21
11.9619199900
31
9.5900293245
11
0.6047329787
21
12.0783706555
31
9.6522125980
11
0.6091060169
21
12.1948213210
31
9.7143958716
11
0.6134790551
21
12.3112719865
31
9.7765791451
11
0.6222251314
21
12.5441733176
31
9.9009456922
11
0.6309712077
21
12.7770746486
31
10.0253122393
0
SPLINE
5
355
100
AcDbEntity
8
0
100
AcDbSpline
62
9
6
CONTINUOUS
70
0
71
3
72
47
73
43
74
41
42
0.0000001000
43
0.0000001000
44
0.0000000001
12
0.0605869659
22
1.8425734344
32
0.9938504662
13
0.0927648954
23
2.5642297425
33
1.3733430575
40
0.0000000000
40
0.0000000000
40
0.0000000000
40
0.0000000000
40
0.0625000000
40
0.1250000000
40
0.1875000000
40
0.2500000000
40
0.3125000000
40
0.3437500000
40
0.3750000000
40
0.4062500000
40
0.4218750000
40
0.4375000000
40
0.4531250000
40
0.4687500000
40
0.4765625000
40
0.4843750000
40
0.4882812500
40
0.4921875000
40
0.4960937500
40
0.4980468750
40
0.4990234375
40
0.5000000000
40
0.5009765625
40
0.5019531250
40
0.5039062500
40
0.5078125000
40
0.5117187500
40
0.5156250000
40
0.5234375000
40
0.5312500000
40
0.5468750000
40
0.5625000000
40
0.5781250000
40
0.5937500000
40
0.6250000000
40
0.6562500000
40
0.6875000000
40
0.7500000000
40
0.8125000000
40
0.8750000000
40
0.9375000000
40
1.0000000000
40
1.0000000000
40
1.0000000000
40
1.0000000000
10
-1.4073567425
20
11.1043779992
30
6.9225076624
10
-1.4060945141
20
11.1427649458
30
6.9432128804
10
-1.4035700571
20
11.2195388389
30
6.9846233165
10
-1.3997833718
20
11.3346996785
30
7.0467389706
10
-1.3959966864
20
11.4498605182
30
7.1088546248
10
-1.3922100010
20
11.5650213578
30
7.1709702789
10
-1.3890544299
20
11.6609887244
30
7.2227333241
10
-1.3865299730
20
11.7377626171
30
7.2641437600
10
-1.3846366303
20
11.7953430381
30
7.2952015877
10
-1.3830588449
20
11.8433267174
30
7.3210831082
10
-1.3817966160
20
11.8817136720
30
7.3417883305
10
-1.3808499458
20
11.9105038574
30
7.3573172311
10
-1.3799032704
20
11.9392941592
30
7.3728461930
10
-1.3791143903
20
11.9632857150
30
7.3857868039
10
-1.3784832501
20
11.9824797711
30
7.3961397195
10
-1.3780888698
20
11.9944742085
30
7.4026093200
10
-1.3777731770
20
12.0040739901
30
7.4077872258
10
-1.3775369239
20
12.0112622397
30
7.4116645621
10
-1.3773384029
20
12.0172893067
30
7.4149150585
10
-1.3772026635
20
12.0214359188
30
7.4171523678
10
-1.3771200621
20
12.0239183563
30
7.4184902238
10
-1.3770722977
20
12.0254620169
30
7.4193263032
10
-1.3769703044
20
12.0282218750
30
7.4208019362
10
-1.3768532289
20
12.0314774625
30
7.4225463635
10
-1.3766395337
20
12.0373723941
30
7.4257030499
10
-1.3763388625
20
12.0456903895
30
7.4301582615
10
-1.3759760848
20
12.0557162149
30
7.4355277749
10
-1.3754930701
20
12.0690685331
30
7.4426790021
10
-1.3748890658
20
12.0857642206
30
7.4516208177
10
-1.3739227908
20
12.1124743642
30
7.4659261680
10
-1.3727149019
20
12.1458630581
30
7.4838083894
10
-1.3712654545
20
12.1859290560
30
7.5052668264
10
-1.3698160019
20
12.2259951702
30
7.5267253245
10
-1.3678834002
20
12.2794166151
30
7.5553366340
10
-1.3654676476
20
12.3461934353
30
7.5911007782
10
-1.3625687447
20
12.4263256135
30
7.6340177481
10
-1.3587035407
20
12.5331685198
30
7.6912403757
10
-1.3538720357
20
12.6667221520
30
7.7627686598
10
-1.3480742298
20
12.8269865110
30
7.8486026009
10
-1.3422764238
20
12.9872508699
30
7.9344365420
10
-1.3364786178
20
13.1475152288
30
8.0202704831
10
-1.3326134139
20
13.2543581348
30
8.0774931105
10
-1.3306808119
20
13.3077795877
30
8.1061044242
11
-1.4073567425
21
11.1043779992
31
6.9225076624
11
-1.4035700571
21
11.2195388389
31
6.9846233165
11
-1.3997833718
21
11.3346996785
31
7.0467389706
11
-1.3959966864
21
11.4498605182
31
7.1088546248
11
-1.3922100010
21
11.5650213578
31
7.1709702789
11
-1.3884233157
21
11.6801821975
31
7.2330859330
11
-1.3865299730
21
11.7377626173
31
7.2641437601
11
-1.3846366303
21
11.7953430372
31
7.2952015872
11
-1.3827432876
21
11.8529234570
31
7.3262594142
11
-1.3817966163
21
11.8817136669
31
7.3417883278
11
-1.3808499449
21
11.9105038768
31
7.3573172413
11
-1.3799032736
21
11.9392940867
31
7.3728461549
11
-1.3789566022
21
11.9680842966
31
7.3883750684
11
-1.3784832666
21
11.9824794016
31
7.3961395252
11
-1.3780099309
21
11.9968745065
31
7.4039039819
11
-1.3777732631
21
12.0040720590
31
7.4077862103
11
-1.3775365952
21
12.0112696115
31
7.4116684387
11
-1.3772999274
21
12.0184671640
31
7.4155506671
11
-1.3771815935
21
12.0220659402
31
7.4174917813
11
-1.3771224265
21
12.0238653283
31
7.4184623384
11
-1.3770632596
21
12.0256647165
31
7.4194328955
11
-1.3769726688
21
12.0281688471
31
7.4207740508
11
-1.3768820781
21
12.0306729777
31
7.4221152061
11
-1.3767008967
21
12.0356812389
31
7.4247975168
11
-1.3763385338
21
12.0456977613
31
7.4301621381
11
-1.3759761709
21
12.0557142838
31
7.4355267594
11
-1.3756138081
21
12.0657308062
31
7.4408913807
11
-1.3748890823
21
12.0857638510
31
7.4516206234
11
-1.3741643566
21
12.1057968959
31
7.4623498660
11
-1.3727149051
21
12.1458629856
31
7.4838083513
11
-1.3712654536
21
12.1859290754
31
7.5052668365
11
-1.3698160021
21
12.2259951651
31
7.5267253218
11
-1.3683665506
21
12.2660612548
31
7.5481838071
11
-1.3654676476
21
12.3461934343
31
7.5911007776
11
-1.3625687447
21
12.4263256137
31
7.6340177482
11
-1.3596698417
21
12.5064577932
31
7.6769347187
11
-1.3538720357
21
12.6667221521
31
7.7627686598
11
-1.3480742298
21
12.8269865110
31
7.8486026009
11
-1.3422764238
21
12.9872508699
31
7.9344365420
11
-1.3364786178
21
13.1475152288
31
8.0202704831
11
-1.3306808119
21
13.3077795877
31
8.1061044242
0
SPLINE
5
356
100
AcDbEntity
8
0
100
AcDbSpline
62
9
6
CONTINUOUS
70
0
71
3
72
8
73
4
74
2
42
0.0000001000
43
0.0000001000
44
0.0000000001
12
-0.3402966290
22
0.6164427942
32
-0.0676784352
13
-0.3396843184
23
0.6166986227
33
-0.0681855261
40
0.0000000000
40
0.0000000000
40
0.0000000000
40
0.0000000000
40
1.0000000000
40
1.0000000000
40
1.0000000000
40
1.0000000000
10
-1.0673661900
20
10.4878071478
30
6.9904396587
10
-1.1807983997
20
10.6932880792
30
6.9678801803
10
-1.2941286364
20
10.8988117917
30
6.9452361710
10
-1.4073567425
20
11.1043779992
30
6.9225076624
11
-1.0673661900
21
10.4878071478
31
6.9904396587
11
-1.4073567425
21
11.1043779992
31
6.9225076624
0
SPLINE
5
357
100
AcDbEntity
8
0
100
AcDbSpline
62
9
6
CONTINUOUS
70
0
71
3
72
47
73
43
74
41
42
0.0000001000
43
0.0000001000
44
0.0000000001
12
-0.1053481966
22
2.6649624522
32
1.6602624086
13
-0.1190913895
23
3.5980143857
33
2.2148294657
40
0.0000000000
40
0.0000000000
40
0.0000000000
40
0.0000000000
40
0.1250000000
40
0.1875000000
40
0.2500000000
40
0.3125000000
40
0.3750000000
40
0.4375000000
40
0.5000000000
40
0.5312500000
40
0.5625000000
40
0.5781250000
40
0.5937500000
40
0.6093750000
40
0.6250000000
40
0.6406250000
40
0.6484375000
40
0.6523437500
40
0.6562500000
40
0.6601562500
40
0.6640625000
40
0.6650390625
40
0.6660156250
40
0.6665039063
40
0.6669921875
40
0.6679687500
40
0.6699218750
40
0.6718750000
40
0.6757812500
40
0.6796875000
40
0.6875000000
40
0.6953125000
40
0.7031250000
40
0.7187500000
40
0.7343750000
40
0.7500000000
40
0.7812500000
40
0.8125000000
40
0.8437500000
40
0.8750000000
40
0.9375000000
40
1.0000000000
40
1.0000000000
40
1.0000000000
40
1.0000000000
10
1.4794993838
20
-13.1949389430
30
-3.9898408493
10
1.4751098756
20
-13.0838988408
30
-3.9206632489
10
1.4685290219
20
-12.9173367923
30
-3.8168996901
10
1.4597409158
20
-12.6952616419
30
-3.6785369114
10
1.4531839227
20
-12.5286863268
30
-3.5747932450
10
1.4464974008
20
-12.3621830304
30
-3.4709415915
10
1.4402949078
20
-12.1954106116
30
-3.3674934686
10
1.4342223758
20
-12.0285659339
30
-3.2641536930
10
1.4291322668
20
-11.8895451965
30
-3.1780124813
10
1.4250663965
20
-11.7783251505
30
-3.1091046952
10
1.4225245181
20
-11.7088130150
30
-3.0660367367
10
1.4204911640
20
-11.6532032268
30
-3.0315824953
10
1.4189661283
20
-11.6114958892
30
-3.0057417932
10
1.4174410986
20
-11.5697885772
30
-2.9799011128
10
1.4159160650
20
-11.5280811592
30
-2.9540603667
10
1.4146452117
20
-11.4933253095
30
-2.9325266125
10
1.4137555993
20
-11.4689955641
30
-2.9174525915
10
1.4132472728
20
-11.4550938681
30
-2.9088394788
10
1.4128659618
20
-11.4446647349
30
-2.9023779158
10
1.4124849038
20
-11.4342465390
30
-2.8959229598
10
1.4121984007
20
-11.4264022258
30
-2.8910632182
10
1.4120085022
20
-11.4212203763
30
-2.8878522001
10
1.4119277358
20
-11.4189903030
30
-2.8864714056
10
1.4118669533
20
-11.4173718016
30
-2.8854667778
10
1.4117921617
20
-11.4151478468
30
-2.8840964150
10
1.4116547676
20
-11.4109746181
30
-2.8815283513
10
1.4114618863
20
-11.4051596350
30
-2.8779483491
10
1.4111513784
20
-11.3957736389
30
-2.8721707981
10
1.4107638934
20
-11.3840692286
30
-2.8649658245
10
1.4101435541
20
-11.3653264755
30
-2.8534283849
10
1.4093682547
20
-11.3419034196
30
-2.8390098385
10
1.4084378420
20
-11.3137934474
30
-2.8217061904
10
1.4071973103
20
-11.2763142897
30
-2.7986351461
10
1.4056466394
20
-11.2294650662
30
-2.7697961737
10
1.4037858370
20
-11.1732461163
30
-2.7351894784
10
1.4013047662
20
-11.0982874751
30
-2.6890471929
10
1.3982034280
20
-11.0045891878
30
-2.6313693447
10
1.3944818221
20
-10.8921512370
30
-2.5621559231
10
1.3907602162
20
-10.7797132878
30
-2.4929425025
10
1.3857980749
20
-10.6297960216
30
-2.4006579413
10
1.3795953984
20
-10.4423994391
30
-2.2853022400
10
1.3746332572
20
-10.2924821730
30
-2.1930176790
10
1.3721521866
20
-10.2175235399
30
-2.1468753984
11
1.4794993838
21
-13.1949389430
31
-3.9898408493
11
1.4663308592
21
-12.8618186364
31
-3.7823080482
11
1.4597465969
21
-12.6952584832
31
-3.6785416476
11
1.4531623346
21
-12.5286983299
31
-3.5747752471
11
1.4465780723
21
-12.3621381766
31
-3.4710088466
11
1.4403165680
21
-12.1953985684
31
-3.3675115265
11
1.4342164426
21
-12.0285692327
31
-3.2641487466
11
1.4281163173
21
-11.8617398970
31
-3.1607859667
11
1.4250662546
21
-11.7783252292
31
-3.1091045767
11
1.4220161920
21
-11.6949105613
31
-3.0574231868
11
1.4204911606
21
-11.6532032274
31
-3.0315824918
11
1.4189661293
21
-11.6114958935
31
-3.0057417969
11
1.4174410979
21
-11.5697885595
31
-2.9799011019
11
1.4159160666
21
-11.5280812256
31
-2.9540604069
11
1.4143910353
21
-11.4863738917
31
-2.9282197119
11
1.4136285196
21
-11.4655202247
31
-2.9152993645
11
1.4132472618
21
-11.4550933913
31
-2.9088391907
11
1.4128660039
21
-11.4446665578
31
-2.9023790170
11
1.4124847461
21
-11.4342397243
31
-2.8959188432
11
1.4121034883
21
-11.4238128908
31
-2.8894586695
11
1.4120081738
21
-11.4212061824
31
-2.8878436260
11
1.4119128594
21
-11.4185994741
31
-2.8862285826
11
1.4118652021
21
-11.4172961199
31
-2.8854210609
11
1.4118105497
21
-11.4156904398
31
-2.8844309139
11
1.4116942495
21
-11.4121767539
31
-2.8822679945
11
1.4114616491
21
-11.4051493821
31
-2.8779421557
11
1.4112290487
21
-11.3981220102
31
-2.8736163169
11
1.4107638480
21
-11.3840672665
31
-2.8649646393
11
1.4102986473
21
-11.3700125228
31
-2.8563129617
11
1.4093682458
21
-11.3419030355
31
-2.8390096065
11
1.4084378443
21
-11.3137935481
31
-2.8217062513
11
1.4075074428
21
-11.2856840607
31
-2.8044028960
11
1.4056466399
21
-11.2294650859
31
-2.7697961856
11
1.4037858369
21
-11.1732461111
31
-2.7351894752
11
1.4019250339
21
-11.1170271364
31
-2.7005827648
11
1.3982034280
21
-11.0045891868
31
-2.6313693440
11
1.3944818221
21
-10.8921512372
31
-2.5621559232
11
1.3907602162
21
-10.7797132877
31
-2.4929425024
11
1.3870386102
21
-10.6672753381
31
-2.4237290816
11
1.3795953984
21
-10.4423994390
31
-2.2853022400
11
1.3721521866
21
-10.2175235399
31
-2.1468753984
0
SPLINE
5
358
100
AcDbEntity
8
0
100
AcDbSpline
62
9
6
CONTINUOUS
70
0
71
3
72
47
73
43
74
41
42
0.0000001000
43
0.0000001000
44
0.0000000001
12
-0.1053481966
22
2.6649624522
32
1.6602624086
13
-0.1190913895
23
3.5980143857
33
2.2148294657
40
0.0000000000
40
0.0000000000
40
0.0000000000
40
0.0000000000
40
0.1250000000
40
0.1875000000
40
0.2500000000
40
0.3125000000
40
0.3750000000
40
0.4375000000
40
0.5000000000
40
0.5312500000
40
0.5625000000
40
0.5781250000
40
0.5937500000
40
0.6093750000
40
0.6250000000
40
0.6406250000
40
0.6484375000
40
0.6523437500
40
0.6562500000
40
0.6601562500
40
0.6640625000
40
0.6650390625
40
0.6660156250
40
0.6665039063
40
0.6669921875
40
0.6679687500
40
0.6699218750
40
0.6718750000
40
0.6757812500
40
0.6796875000
40
0.6875000000
40
0.6953125000
40
0.7031250000
40
0.7187500000
40
0.7343750000
40
0.7500000000
40
0.7812500000
40
0.8125000000
40
0.8437500000
40
0.8750000000
40
0.9375000000
40
1.0000000000
40
1.0000000000
40
1.0000000000
40
1.0000000000
10
-0.2882676114
20
-12.3110554454
30
-5.5207719750
10
-0.2926571196
20
-12.2000153432
30
-5.4515943746
10
-0.2992379732
20
-12.0334532947
30
-5.3478308159
10
-0.3080260793
20
-11.8113781443
30
-5.2094680371
10
-0.3145830724
20
-11.6448028292
30
-5.1057243707
10
-0.3212695943
20
-11.4782995328
30
-5.0018727172
10
-0.3274720873
20
-11.3115271140
30
-4.8984245943
10
-0.3335446194
20
-11.1446824364
30
-4.7950848187
10
-0.3386347283
20
-11.0056616990
30
-4.7089436070
10
-0.3427005986
20
-10.8944416530
30
-4.6400358209
10
-0.3452424770
20
-10.8249295175
30
-4.5969678624
10
-0.3472758311
20
-10.7693197292
30
-4.5625136211
10
-0.3488008668
20
-10.7276123916
30
-4.5366729190
10
-0.3503258965
20
-10.6859050797
30
-4.5108322386
10
-0.3518509301
20
-10.6441976617
30
-4.4849914925
10
-0.3531217834
20
-10.6094418119
30
-4.4634577383
10
-0.3540113958
20
-10.5851120665
30
-4.4483837172
10
-0.3545197223
20
-10.5712103706
30
-4.4397706045
10
-0.3549010333
20
-10.5607812373
30
-4.4333090415
10
-0.3552820913
20
-10.5503630415
30
-4.4268540855
10
-0.3555685944
20
-10.5425187282
30
-4.4219943440
10
-0.3557584929
20
-10.5373368788
30
-4.4187833258
10
-0.3558392594
20
-10.5351068054
30
-4.4174025313
10
-0.3559000419
20
-10.5334883040
30
-4.4163979035
10
-0.3559748334
20
-10.5312643492
30
-4.4150275408
10
-0.3561122275
20
-10.5270911205
30
-4.4124594770
10
-0.3563051088
20
-10.5212761374
30
-4.4088794748
10
-0.3566156167
20
-10.5118901413
30
-4.4031019238
10
-0.3570031017
20
-10.5001857311
30
-4.3958969502
10
-0.3576234410
20
-10.4814429780
30
-4.3843595106
10
-0.3583987405
20
-10.4580199221
30
-4.3699409643
10
-0.3593291531
20
-10.4299099499
30
-4.3526373162
10
-0.3605696848
20
-10.3924307921
30
-4.3295662718
10
-0.3621203557
20
-10.3455815686
30
-4.3007272995
10
-0.3639811581
20
-10.2893626187
30
-4.2661206041
10
-0.3664622289
20
-10.2144039776
30
-4.2199783187
10
-0.3695635671
20
-10.1207056903
30
-4.1623004704
10
-0.3732851730
20
-10.0082677394
30
-4.0930870488
10
-0.3770067789
20
-9.8958297902
30
-4.0238736282
10
-0.3819689202
20
-9.7459125240
30
-3.9315890671
10
-0.3881715967
20
-9.5585159415
30
-3.8162333658
10
-0.3931337379
20
-9.4085986754
30
-3.7239488047
10
-0.3956148086
20
-9.3336400424
30
-3.6778065242
11
-0.2882676114
21
-12.3110554454
31
-5.5207719750
11
-0.3014361359
21
-11.9779351389
31
-5.3132391739
11
-0.3080203982
21
-11.8113749856
31
-5.2094727734
11
-0.3146046605
21
-11.6448148323
31
-5.1057063729
11
-0.3211889228
21
-11.4782546791
31
-5.0019399723
11
-0.3274504271
21
-11.3115150709
31
-4.8984426522
11
-0.3335505525
21
-11.1446857352
31
-4.7950798723
11
-0.3396506778
21
-10.9778563995
31
-4.6917170924
11
-0.3427007405
21
-10.8944417316
31
-4.6400357025
11
-0.3457508032
21
-10.8110270638
31
-4.5883543125
11
-0.3472758345
21
-10.7693197298
31
-4.5625136176
11
-0.3488008658
21
-10.7276123959
31
-4.5366729226
11
-0.3503258972
21
-10.6859050620
31
-4.5108322276
11
-0.3518509285
21
-10.6441977281
31
-4.4849915327
11
-0.3533759598
21
-10.6024903941
31
-4.4591508377
11
-0.3541384755
21
-10.5816367272
31
-4.4462304902
11
-0.3545197333
21
-10.5712098937
31
-4.4397703164
11
-0.3549009912
21
-10.5607830602
31
-4.4333101427
11
-0.3552822490
21
-10.5503562267
31
-4.4268499690
11
-0.3556635068
21
-10.5399293933
31
-4.4203897952
11
-0.3557588213
21
-10.5373226849
31
-4.4187747518
11
-0.3558541358
21
-10.5347159765
31
-4.4171597083
11
-0.3559017930
21
-10.5334126223
31
-4.4163521866
11
-0.3559564455
21
-10.5318069423
31
-4.4153620396
11
-0.3560727456
21
-10.5282932564
31
-4.4131991202
11
-0.3563053460
21
-10.5212658845
31
-4.4088732814
11
-0.3565379464
21
-10.5142385127
31
-4.4045474426
11
-0.3570031471
21
-10.5001837690
31
-4.3958957650
11
-0.3574683479
21
-10.4861290253
31
-4.3872440874
11
-0.3583987493
21
-10.4580195379
31
-4.3699407322
11
-0.3593291508
21
-10.4299100505
31
-4.3526373770
11
-0.3602595523
21
-10.4018005631
31
-4.3353340218
11
-0.3621203553
21
-10.3455815883
31
-4.3007273114
11
-0.3639811582
21
-10.2893626136
31
-4.2661206010
11
-0.3658419612
21
-10.2331436388
31
-4.2315138906
11
-0.3695635671
21
-10.1207056892
31
-4.1623004698
11
-0.3732851730
21
-10.0082677397
31
-4.0930870490
11
-0.3770067789
21
-9.8958297901
31
-4.0238736282
11
-0.3807283849
21
-9.7833918406
31
-3.9546602074
11
-0.3881715967
21
-9.5585159415
31
-3.8162333658
11
-0.3956148086
21
-9.3336400424
31
-3.6778065242
0
SPLINE
5
359
100
AcDbEntity
8
0
100
AcDbSpline
62
9
6
CONTINUOUS
70
0
71
3
72
8
73
4
74
2
42
0.0000001000
43
0.0000001000
44
0.0000000001
12
-0.3367541219
22
-0.2478396022
32
-0.5707694017
13
-0.3361356293
23
-0.2475239400
33
-0.5712354004
40
0.0000000000
40
0.0000000000
40
0.0000000000
40
0.0000000000
40
1.0000000000
40
1.0000000000
40
1.0000000000
40
1.0000000000
10
-1.0124827663
20
-11.5330435626
30
-5.8683280403
10
-1.1247341402
20
-11.6156567633
30
-6.0585845075
10
-1.2368825102
20
-11.6982174111
30
-6.2489187736
10
-1.3489277199
20
-11.7807253911
30
-6.4393305738
11
-1.0124827663
21
-11.5330435626
31
-5.8683280403
11
-1.3489277199
21
-11.7807253911
31
-6.4393305738
0
SPLINE
5
35A
100
AcDbEntity
8
0
100
AcDbSpline
62
9
6
CONTINUOUS
70
0
71
3
72
47
73
43
74
41
42
0.0000001000
43
0.0000001000
44
0.0000000001
12
0.0605869657
22
-1.7819864687
32
-1.0987901692
13
0.0927648950
23
-2.4714648474
33
-1.5340165691
40
0.0000000000
40
0.0000000000
40
0.0000000000
40
0.0000000000
40
0.0625000000
40
0.1250000000
40
0.1875000000
40
0.2500000000
40
0.3125000000
40
0.3437500000
40
0.3750000000
40
0.4062500000
40
0.4218750000
40
0.4375000000
40
0.4531250000
40
0.4687500000
40
0.4765625000
40
0.4843750000
40
0.4882812500
40
0.4921875000
40
0.4960937500
40
0.4980468750
40
0.4990234375
40
0.5000000000
40
0.5009765625
40
0.5019531250
40
0.5039062500
40
0.5078125000
40
0.5117187500
40
0.5156250000
40
0.5234375000
40
0.5312500000
40
0.5468750000
40
0.5625000000
40
0.5781250000
40
0.5937500000
40
0.6250000000
40
0.6562500000
40
0.6875000000
40
0.7500000000
40
0.8125000000
40
0.8750000000
40
0.9375000000
40
1.0000000000
40
1.0000000000
40
1.0000000000
40
1.0000000000
10
-1.0891586924
20
-9.4063180097
30
-4.5519247366
10
-1.0878964640
20
-9.4434427278
30
-4.5748161985
10
-1.0853720071
20
-9.5176921640
30
-4.6205991222
10
-1.0815853217
20
-9.6290663183
30
-4.6892735078
10
-1.0777986364
20
-9.7404404726
30
-4.7579478933
10
-1.0740119510
20
-9.8518146268
30
-4.8266222789
10
-1.0708563799
20
-9.9446264223
30
-4.8838509337
10
-1.0683319230
20
-10.0188758581
30
-4.9296338571
10
-1.0664385803
20
-10.0745629364
30
-4.9639710507
10
-1.0648607949
20
-10.1209688303
30
-4.9925853756
10
-1.0635985661
20
-10.1580935561
30
-5.0154768423
10
-1.0626518958
20
-10.1859370712
30
-5.0326454240
10
-1.0617052204
20
-10.2137806976
30
-5.0498140758
10
-1.0609163403
20
-10.2369833733
30
-5.0641210670
10
-1.0602852001
20
-10.2555462893
30
-5.0755671495
10
-1.0598908199
20
-10.2671463464
30
-5.0827198367
10
-1.0595751270
20
-10.2764304351
30
-5.0884445386
10
-1.0593388740
20
-10.2833824317
30
-5.0927310771
10
-1.0591403529
20
-10.2892109777
30
-5.0963254221
10
-1.0590046136
20
-10.2932218503
30
-5.0987978388
10
-1.0589220121
20
-10.2956216864
30
-5.1002787648
10
-1.0588742478
20
-10.2971175827
30
-5.1011975744
10
-1.0587722544
20
-10.2997754474
30
-5.1028498651
10
-1.0586551790
20
-10.3029139595
30
-5.1047970729
10
-1.0584414838
20
-10.3085951959
30
-5.1083238903
10
-1.0581408126
20
-10.3166125201
30
-5.1132998798
10
-1.0577780349
20
-10.3262755678
30
-5.1192977425
10
-1.0572950202
20
-10.3391448713
30
-5.1272855757
10
-1.0566910159
20
-10.3552365545
30
-5.1372735574
10
-1.0557247409
20
-10.3809804231
30
-5.1532525452
10
-1.0545168519
20
-10.4131612280
30
-5.1732268916
10
-1.0530674045
20
-10.4517777785
30
-5.1971958451
10
-1.0516179519
20
-10.4903944401
30
-5.2211648688
10
-1.0496853503
20
-10.5418832834
30
-5.2531235425
10
-1.0472695977
20
-10.6062443509
30
-5.2930718930
10
-1.0443706948
20
-10.6834776262
30
-5.3410099100
10
-1.0405054908
20
-10.7864553286
30
-5.4049272673
10
-1.0356739858
20
-10.9151774559
30
-5.4848239635
10
-1.0298761799
20
-11.0696440089
30
-5.5806999991
10
-1.0240783740
20
-11.2241105618
30
-5.6765760347
10
-1.0182805680
20
-11.3785771148
30
-5.7724520702
10
-1.0144153641
20
-11.4815548168
30
-5.8363694273
10
-1.0124827621
20
-11.5330436677
30
-5.8683281058
11
-1.0891586924
21
-9.4063180097
31
-4.5519247366
11
-1.0853720071
21
-9.5176921640
31
-4.6205991222
11
-1.0815853217
21
-9.6290663183
31
-4.6892735078
11
-1.0777986364
21
-9.7404404726
31
-4.7579478933
11
-1.0740119510
21
-9.8518146269
31
-4.8266222789
11
-1.0702252657
21
-9.9631887812
31
-4.8952966645
11
-1.0683319230
21
-10.0188758583
31
-4.9296338573
11
-1.0664385803
21
-10.0745629355
31
-4.9639710501
11
-1.0645452376
21
-10.1302500126
31
-4.9983082429
11
-1.0635985663
21
-10.1580935512
31
-5.0154768393
11
-1.0626518949
21
-10.1859370898
31
-5.0326454357
11
-1.0617052236
21
-10.2137806283
31
-5.0498140320
11
-1.0607585523
21
-10.2416241669
31
-5.0669826284
11
-1.0602852166
21
-10.2555459362
31
-5.0755669266
11
-1.0598118809
21
-10.2694677055
31
-5.0841512248
11
-1.0595752131
21
-10.2764285901
31
-5.0884433739
11
-1.0593385453
21
-10.2833894748
31
-5.0927355230
11
-1.0591018774
21
-10.2903503594
31
-5.0970276721
11
-1.0589835435
21
-10.2938308017
31
-5.0991737467
11
-1.0589243766
21
-10.2955710229
31
-5.1002467840
11
-1.0588652096
21
-10.2973112441
31
-5.1013198212
11
-1.0587746189
21
-10.2997247840
31
-5.1028178843
11
-1.0586840282
21
-10.3021383238
31
-5.1043159473
11
-1.0585028467
21
-10.3069654036
31
-5.1073120735
11
-1.0581404839
21
-10.3166195632
31
-5.1133043257
11
-1.0577781210
21
-10.3262737227
31
-5.1192965779
11
-1.0574157581
21
-10.3359278823
31
-5.1252888301
11
-1.0566910324
21
-10.3552362014
31
-5.1372733346
11
-1.0559663066
21
-10.3745445205
31
-5.1492578390
11
-1.0545168551
21
-10.4131611588
31
-5.1732268479
11
-1.0530674037
21
-10.4517777970
31
-5.1971958568
11
-1.0516179522
21
-10.4903944353
31
-5.2211648657
11
-1.0501685007
21
-10.5290110735
31
-5.2451338746
11
-1.0472695977
21
-10.6062443500
31
-5.2930718924
11
-1.0443706947
21
-10.6834776265
31
-5.3410099102
11
-1.0414717918
21
-10.7607109029
31
-5.3889479279
11
-1.0356739858
21
-10.9151774559
31
-5.4848239635
11
-1.0298761799
21
-11.0696440089
31
-5.5806999991
11
-1.0240783740
21
-11.2241105618
31
-5.6765760347
11
-1.0182805680
21
-11.3785771148
31
-5.7724520702
11
-1.0124827621
21
-11.5330436677
31
-5.8683281058
0
SPLINE
5
35B
100
AcDbEntity
8
0
100
AcDbSpline
62
9
6
CONTINUOUS
70
0
71
3
72
8
73
4
74
2
42
0.0000001000
43
0.0000001000
44
0.0000000001
12
0.3668326030
22
-0.6031747251
32
0.0446975698
13
0.3673996707
23
-0.6028408645
33
0.0441832891
40
0.0000000000
40
0.0000000000
40
0.0000000000
40
0.0000000000
40
1.0000000000
40
1.0000000000
40
1.0000000000
40
1.0000000000
10
-1.4562749144
20
-8.8033100751
30
-4.5963651763
10
-1.3339973801
20
-9.0043683168
30
-4.5814659864
10
-1.2116252493
20
-9.2053710549
30
-4.5666524996
10
-1.0891586924
20
-9.4063180097
30
-4.5519247366
11
-1.4562749144
21
-8.8033100751
31
-4.5963651763
11
-1.0891586924
21
-9.4063180097
31
-4.5519247366
0
SPLINE
5
35C
100
AcDbEntity
8
0
100
AcDbSpline
62
9
6
CONTINUOUS
70
0
71
3
72
8
73
4
74
2
42
0.0000001000
43
0.0000001000
44
0.0000000001
12
0.3396843199
22
0.2492988692
32
0.5681694094
13
0.3402966303
23
0.2496101085
33
0.5676943101
40
0.0000000000
40
0.0000000000
40
0.0000000000
40
0.0000000000
40
1.0000000000
40
1.0000000000
40
1.0000000000
40
1.0000000000
10
-2.3265955595
20
-8.7875995762
30
-5.6235764991
10
-2.2133674529
20
-8.7044999531
30
-5.4341866959
10
-2.1000372157
20
-8.6213483990
30
-5.2448759444
10
-1.9866050056
20
-8.5381450295
30
-5.0556445077
11
-2.3265955595
21
-8.7875995762
31
-5.6235764991
11
-1.9866050056
21
-8.5381450295
31
-5.0556445077
0
SPLINE
5
35D
100
AcDbEntity
8
0
100
AcDbSpline
62
9
6
CONTINUOUS
70
0
71
3
72
47
73
43
74
41
42
0.0000001000
43
0.0000001000
44
0.0000000001
12
-0.0677636592
22
1.7780168770
32
1.1047852563
13
-0.0855882000
23
2.4754344399
33
1.5280214808
40
0.0000000000
40
0.0000000000
40
0.0000000000
40
0.0000000000
40
0.0625000000
40
0.1250000000
40
0.1875000000
40
0.2500000000
40
0.3125000000
40
0.3437500000
40
0.3750000000
40
0.4062500000
40
0.4218750000
40
0.4375000000
40
0.4531250000
40
0.4687500000
40
0.4765625000
40
0.4843750000
40
0.4882812500
40
0.4921875000
40
0.4960937500
40
0.4980468750
40
0.4990234375
40
0.5000000000
40
0.5009765625
40
0.5019531250
40
0.5039062500
40
0.5078125000
40
0.5117187500
40
0.5156250000
40
0.5234375000
40
0.5312500000
40
0.5468750000
40
0.5625000000
40
0.5781250000
40
0.5937500000
40
0.6250000000
40
0.6562500000
40
0.6875000000
40
0.7500000000
40
0.8125000000
40
0.8750000000
40
0.9375000000
40
1.0000000000
40
1.0000000000
40
1.0000000000
40
1.0000000000
10
-2.2499196333
20
-10.9143251290
30
-6.9399798027
10
-2.2513313762
20
-10.8772831108
30
-6.9169634432
10
-2.2541548620
20
-10.8031990742
30
-6.8709307242
10
-2.2583900907
20
-10.6920730194
30
-6.8018816457
10
-2.2626253194
20
-10.5809469646
30
-6.7328325672
10
-2.2668605481
20
-10.4698209098
30
-6.6637834887
10
-2.2703899054
20
-10.3772158640
30
-6.6062425898
10
-2.2732133912
20
-10.3031318278
30
-6.5602098710
10
-2.2753310056
20
-10.2475687992
30
-6.5256853310
10
-2.2770956841
20
-10.2012662802
30
-6.4969148839
10
-2.2785074272
20
-10.1642242541
30
-6.4738985197
10
-2.2795662338
20
-10.1364427641
30
-6.4566362644
10
-2.2806250432
20
-10.1086611616
30
-6.4393739409
10
-2.2815073755
20
-10.0855101764
30
-6.4249888839
10
-2.2822132613
20
-10.0669886039
30
-6.4134803623
10
-2.2826543943
20
-10.0554144069
30
-6.4062886199
10
-2.2830074053
20
-10.0461509596
30
-6.4005327442
10
-2.2832718773
20
-10.0392145716
30
-6.3962226328
10
-2.2834931810
20
-10.0333986273
30
-6.3926092562
10
-2.2836463070
20
-10.0293973715
30
-6.3901223154
10
-2.2837365973
20
-10.0270017883
30
-6.3886349667
10
-2.2837964564
20
-10.0255125819
30
-6.3877060536
10
-2.2838863549
20
-10.0228480273
30
-6.3860638663
10
-2.2839957416
20
-10.0197052624
30
-6.3841230813
10
-2.2841920502
20
-10.0140144090
30
-6.3806107880
10
-2.2844699387
20
-10.0059844832
30
-6.3756538301
10
-2.2848044974
20
-9.9963058269
30
-6.3696795403
10
-2.2852501940
20
-9.9834158820
30
-6.3617228809
10
-2.2858074455
20
-9.9672983387
30
-6.3517739544
10
-2.2866989749
20
-9.9415131266
30
-6.3358574058
10
-2.2878134116
20
-9.9092806311
30
-6.3159611251
10
-2.2891507250
20
-9.8706020568
30
-6.2920858434
10
-2.2904880412
20
-9.8319233700
30
-6.2682104934
10
-2.2922711285
20
-9.7803518269
30
-6.2363767172
10
-2.2944999880
20
-9.7158873846
30
-6.1965844889
10
-2.2971746192
20
-9.6385300596
30
-6.1488338183
10
-2.3007407942
20
-9.5353869575
30
-6.0851662564
10
-2.3051985129
20
-9.4064580806
30
-6.0055818044
10
-2.3105477754
20
-9.2517434281
30
-5.9100804618
10
-2.3158970379
20
-9.0970287756
30
-5.8145791192
10
-2.3212463004
20
-8.9423141231
30
-5.7190777767
10
-2.3248124754
20
-8.8391710214
30
-5.6554102150
10
-2.3265955629
20
-8.7875994706
30
-5.6235764341
11
-2.2499196333
21
-10.9143251290
31
-6.9399798027
11
-2.2541548620
21
-10.8031990742
31
-6.8709307242
11
-2.2583900907
21
-10.6920730194
31
-6.8018816457
11
-2.2626253194
21
-10.5809469646
31
-6.7328325672
11
-2.2668605481
21
-10.4698209098
31
-6.6637834886
11
-2.2710957768
21
-10.3586948550
31
-6.5947344101
11
-2.2732133912
21
-10.3031318276
31
-6.5602098709
11
-2.2753310055
21
-10.2475688002
31
-6.5256853316
11
-2.2774486199
21
-10.1920057728
31
-6.4911607923
11
-2.2785074271
21
-10.1642242591
31
-6.4738985227
11
-2.2795662342
21
-10.1364427453
31
-6.4566362531
11
-2.2806250414
21
-10.1086612316
31
-6.4393739834
11
-2.2816838486
21
-10.0808797179
31
-6.4221117138
11
-2.2822132522
21
-10.0669889611
31
-6.4134805790
11
-2.2827426558
21
-10.0530982042
31
-6.4048494442
11
-2.2830073576
21
-10.0461528258
31
-6.4005338768
11
-2.2832720594
21
-10.0392074474
31
-6.3962183094
11
-2.2835367612
21
-10.0322620690
31
-6.3919027420
11
-2.2836691121
21
-10.0287893798
31
-6.3897449583
11
-2.2837352875
21
-10.0270530351
31
-6.3886660664
11
-2.2838014629
21
-10.0253166905
31
-6.3875871746
11
-2.2838850452
21
-10.0228992741
31
-6.3860949661
11
-2.2839686274
21
-10.0204818576
31
-6.3846027576
11
-2.2841357919
21
-10.0156470248
31
-6.3816183406
11
-2.2844701208
21
-10.0059773590
31
-6.3756495067
11
-2.2848044497
21
-9.9963076932
31
-6.3696806728
11
-2.2851387786
21
-9.9866380274
31
-6.3637118389
11
-2.2858074364
21
-9.9672986959
31
-6.3517741711
11
-2.2864760942
21
-9.9479593643
31
-6.3398365033
11
-2.2878134098
21
-9.9092807012
31
-6.3159611676
11
-2.2891507254
21
-9.8706020380
31
-6.2920858320
11
-2.2904880411
21
-9.8319233749
31
-6.2682104964
11
-2.2918253567
21
-9.7932447118
31
-6.2443351607
11
-2.2944999879
21
-9.7158873856
31
-6.1965844895
11
-2.2971746192
21
-9.6385300593
31
-6.1488338182
11
-2.2998492504
21
-9.5611727331
31
-6.1010831469
11
-2.3051985129
21
-9.4064580806
31
-6.0055818043
11
-2.3105477754
21
-9.2517434281
31
-5.9100804618
11
-2.3158970379
21
-9.0970287756
31
-5.8145791192
11
-2.3212463004
21
-8.9423141231
31
-5.7190777767
11
-2.3265955629
21
-8.7875994706
31
-5.6235764341
0
SPLINE
5
35E
100
AcDbEntity
8
0
100
AcDbSpline
62
9
6
CONTINUOUS
70
0
71
3
72
8
73
4
74
2
42
0.0000001000
43
0.0000001000
44
0.0000000001
12
-0.3709424352
22
0.6010629722
32
-0.0411121659
13
-0.3703810373
23
0.6014071818
33
-0.0416276102
40
0.0000000000
40
0.0000000000
40
0.0000000000
40
0.0000000000
40
1.0000000000
40
1.0000000000
40
1.0000000000
40
1.0000000000
10
-1.8792578111
20
-11.5155603455
30
-6.8986099051
10
-2.0029052895
20
-11.3152060215
30
-6.9123139604
10
-2.1264592876
20
-11.1147941896
30
-6.9261039327
10
-2.2499196333
20
-10.9143251290
30
-6.9399798027
11
-1.8792578111
21
-11.5155603455
31
-6.8986099051
11
-2.2499196333
21
-10.9143251290
31
-6.9399798027
0
SPLINE
5
35F
100
AcDbEntity
8
0
100
AcDbSpline
62
9
6
CONTINUOUS
70
0
71
3
72
47
73
43
74
41
42
0.0000001000
43
0.0000001000
44
0.0000000001
12
0.0871783017
22
2.7621909423
32
1.4940868522
13
0.1399372215
23
3.7264212962
33
1.9898647535
40
0.0000000000
40
0.0000000000
40
0.0000000000
40
0.0000000000
40
0.1250000000
40
0.1875000000
40
0.2500000000
40
0.3125000000
40
0.3750000000
40
0.4375000000
40
0.5000000000
40
0.5312500000
40
0.5625000000
40
0.5781250000
40
0.5937500000
40
0.6093750000
40
0.6250000000
40
0.6406250000
40
0.6484375000
40
0.6523437500
40
0.6562500000
40
0.6601562500
40
0.6640625000
40
0.6650390625
40
0.6660156250
40
0.6665039063
40
0.6669921875
40
0.6679687500
40
0.6699218750
40
0.6718750000
40
0.6757812500
40
0.6796875000
40
0.6875000000
40
0.6953125000
40
0.7031250000
40
0.7187500000
40
0.7343750000
40
0.7500000000
40
0.7812500000
40
0.8125000000
40
0.8437500000
40
0.8750000000
40
0.9375000000
40
1.0000000000
40
1.0000000000
40
1.0000000000
40
1.0000000000
10
1.7610608768
20
9.0735936144
30
9.4399293513
10
1.7646933060
20
9.1886849037
30
9.5021829702
10
1.7701453592
20
9.3613233710
30
9.5955603470
10
1.7774011261
20
9.5915018605
30
9.7200757219
10
1.7828770447
20
9.7641510614
30
9.8134317383
10
1.7882234081
20
9.9367419939
30
9.9069037110
10
1.7940538991
20
10.1095506665
30
9.9999423736
10
1.8000143774
20
10.2824178020
30
10.0928646933
10
1.8049517710
20
10.4264604034
30
10.1703265169
10
1.8089079041
20
10.5416972807
30
10.2322904100
10
1.8113797777
20
10.6137200110
30
10.2710184790
10
1.8133574250
20
10.6713382593
30
10.3020007997
10
1.8148406410
20
10.7145519443
30
10.3252375621
10
1.8163238609
20
10.7577656022
30
10.3484743043
10
1.8178070845
20
10.8009793698
30
10.3717111056
10
1.8190430884
20
10.8369904995
30
10.3910749266
10
1.8199083227
20
10.8621989633
30
10.4046299535
10
1.8204026930
20
10.8766027490
30
10.4123751334
10
1.8207736094
20
10.8874085482
30
10.4181855671
10
1.8211439958
20
10.8982030331
30
10.4239900805
10
1.8214232718
20
10.9063306198
30
10.4283600647
10
1.8216071444
20
10.9116996749
30
10.4312475724
10
1.8216871974
20
10.9140101959
30
10.4324891150
10
1.8217432162
20
10.9156873511
30
10.4333927360
10
1.8218285780
20
10.9179908210
30
10.4346240777
10
1.8219915946
20
10.9223128939
30
10.4369311923
10
1.8222173622
20
10.9283354544
30
10.4401476253
10
1.8225825656
20
10.9380564006
30
10.4453383156
10
1.8230377087
20
10.9501785307
30
10.4518114767
10
1.8237666984
20
10.9695901764
30
10.4621770308
10
1.8246776745
20
10.9938491625
30
10.4751310584
10
1.8257709575
20
11.0229623305
30
10.4906771392
10
1.8272286292
20
11.0617790547
30
10.5114048111
10
1.8290507322
20
11.1103002459
30
10.5373145505
10
1.8312372501
20
11.1685255529
30
10.5684061739
10
1.8341526093
20
11.2461593383
30
10.6098616940
10
1.8377968076
20
11.3432015554
30
10.6616810864
10
1.8421698458
20
11.4596522223
30
10.7238643607
10
1.8465428840
20
11.5761028874
30
10.7860476340
10
1.8523736015
20
11.7313704415
30
10.8689586655
10
1.8596619985
20
11.9254548840
30
10.9725974547
10
1.8654927160
20
12.0807224380
30
11.0555084861
10
1.8684080748
20
12.1583562150
30
11.0969640018
11
1.7610608768
21
9.0735936144
31
9.4399293513
11
1.7719581645
21
9.4188674822
31
9.6266902079
11
1.7774068083
21
9.5915044161
31
9.7200706361
11
1.7828554522
21
9.7641413500
31
9.8134510644
11
1.7883040960
21
9.9367782839
31
9.9068314926
11
1.7940755636
21
10.1095604103
31
9.9999229831
11
1.8000084431
21
10.2824151330
31
10.0928700047
11
1.8059413225
21
10.4552698557
31
10.1858170263
11
1.8089077622
21
10.5416972171
31
10.2322905371
11
1.8118742019
21
10.6281245784
31
10.2787640479
11
1.8133574218
21
10.6713382591
31
10.3020008034
11
1.8148406416
21
10.7145519398
31
10.3252375588
11
1.8163238615
21
10.7577656205
31
10.3484743142
11
1.8178070814
21
10.8009793011
31
10.3717110696
11
1.8192903012
21
10.8441929818
31
10.3949478250
11
1.8200319112
21
10.8657998222
31
10.4065662027
11
1.8204027161
21
10.8766032423
31
10.4123753915
11
1.8207735211
21
10.8874066625
31
10.4181845804
11
1.8211443260
21
10.8982100827
31
10.4239937692
11
1.8215151310
21
10.9090135028
31
10.4298029581
11
1.8216078323
21
10.9117143579
31
10.4312552553
11
1.8217005335
21
10.9144152129
31
10.4327075525
11
1.8217468841
21
10.9157656404
31
10.4334337011
11
1.8218078868
21
10.9174288107
31
10.4343234931
11
1.8219445442
21
10.9210678940
31
10.4362667204
11
1.8222178591
21
10.9283460606
31
10.4401531750
11
1.8224911740
21
10.9356242272
31
10.4440396296
11
1.8230378038
21
10.9501805604
31
10.4518125387
11
1.8235844336
21
10.9647368936
31
10.4595854479
11
1.8246776931
21
10.9938495600
31
10.4751312663
11
1.8257709526
21
11.0229622263
31
10.4906770847
11
1.8268642122
21
11.0520748927
31
10.5062229031
11
1.8290507313
21
11.1103002255
31
10.5373145399
11
1.8312372504
21
11.1685255582
31
10.5684061766
11
1.8334237694
21
11.2267508910
31
10.5994978134
11
1.8377968076
21
11.3432015565
31
10.6616810870
11
1.8421698458
21
11.4596522220
31
10.7238643605
11
1.8465428840
21
11.5761028875
31
10.7860476341
11
1.8509159221
21
11.6925535530
31
10.8482309076
11
1.8596619985
21
11.9254548840
31
10.9725974547
11
1.8684080748
21
12.1583562150
31
11.0969640018
0
SPLINE
5
360
100
AcDbEntity
8
0
100
AcDbSpline
62
9
6
CONTINUOUS
70
0
71
3
72
8
73
4
74
2
42
0.0000001000
43
0.0000001000
44
0.0000000001
12
-0.3673996722
22
-0.2631566274
32
-0.5441671724
13
-0.3668326044
23
-0.2628781775
33
-0.5447134447
40
0.0000000000
40
0.0000000000
40
0.0000000000
40
0.0000000000
40
1.0000000000
40
1.0000000000
40
1.0000000000
40
1.0000000000
10
-0.1699198754
20
10.4856595657
30
7.9941594248
10
-0.2923864328
20
10.3979406899
30
7.8127703674
10
-0.4147585641
20
10.3102681614
30
7.6312901383
10
-0.5370360989
20
10.2226421023
30
7.4497189901
11
-0.1699198754
21
10.4856595657
31
7.9941594248
11
-0.5370360989
21
10.2226421023
31
7.4497189901
0
SPLINE
5
361
100
AcDbEntity
8
0
100
AcDbSpline
62
9
6
CONTINUOUS
70
0
71
3
72
47
73
43
74
41
42
0.0000001000
43
0.0000001000
44
0.0000000001
12
-0.0677636595
22
-1.8457805363
32
-0.9874151554
13
-0.0855882003
23
-2.5610226400
33
-1.3797783696
40
0.0000000000
40
0.0000000000
40
0.0000000000
40
0.0000000000
40
0.0625000000
40
0.1250000000
40
0.1875000000
40
0.2500000000
40
0.3125000000
40
0.3437500000
40
0.3750000000
40
0.4062500000
40
0.4218750000
40
0.4375000000
40
0.4531250000
40
0.4687500000
40
0.4765625000
40
0.4843750000
40
0.4882812500
40
0.4921875000
40
0.4960937500
40
0.4980468750
40
0.4990234375
40
0.5000000000
40
0.5009765625
40
0.5019531250
40
0.5039062500
40
0.5078125000
40
0.5117187500
40
0.5156250000
40
0.5234375000
40
0.5312500000
40
0.5468750000
40
0.5625000000
40
0.5781250000
40
0.5937500000
40
0.6250000000
40
0.6562500000
40
0.6875000000
40
0.7500000000
40
0.8125000000
40
0.8750000000
40
0.9375000000
40
1.0000000000
40
1.0000000000
40
1.0000000000
40
1.0000000000
10
-0.0932439490
20
12.6890610449
30
9.1777561284
10
-0.0946556919
20
12.6506072837
30
9.1571849793
10
-0.0974791777
20
12.5736997613
30
9.1160426811
10
-0.1017144064
20
12.4583384778
30
9.0543292339
10
-0.1059496351
20
12.3429771943
30
8.9926157867
10
-0.1101848638
20
12.2276159108
30
8.9309023395
10
-0.1137142211
20
12.1314815077
30
8.8794744667
10
-0.1165377069
20
12.0545739858
30
8.8383321688
10
-0.1186553213
20
11.9968933427
30
8.8074754445
10
-0.1204199998
20
11.9488261452
30
8.7817615103
10
-0.1218317429
20
11.9103723761
30
8.7611903569
10
-0.1228905495
20
11.8815320794
30
8.7457620084
10
-0.1239493590
20
11.8526916675
30
8.7303335967
10
-0.1248316912
20
11.8286583501
30
8.7174767839
10
-0.1255375771
20
11.8094308917
30
8.7071908924
10
-0.1259787101
20
11.7974155617
30
8.7007632149
10
-0.1263317210
20
11.7877991034
30
8.6956187721
10
-0.1265961930
20
11.7805982434
30
8.6917667396
10
-0.1268174968
20
11.7745609953
30
8.6885366723
10
-0.1269706228
20
11.7704066136
30
8.6863149536
10
-0.1270609130
20
11.7679207402
30
8.6849839921
10
-0.1271207721
20
11.7663716746
30
8.6841587580
10
-0.1272106707
20
11.7636172214
30
8.6826722797
10
-0.1273200574
20
11.7603650699
30
8.6809209579
10
-0.1275163659
20
11.7544779079
30
8.6777486810
10
-0.1277942544
20
11.7461700936
30
8.6732730402
10
-0.1281288131
20
11.7361568787
30
8.6678782229
10
-0.1285745098
20
11.7228212371
30
8.6606935328
10
-0.1291317613
20
11.7061464423
30
8.6517097942
10
-0.1300232906
20
11.6794697009
30
8.6373374198
10
-0.1311377274
20
11.6461227686
30
8.6193714002
10
-0.1324750407
20
11.6061068809
30
8.5978124131
10
-0.1338123570
20
11.5660908779
30
8.5762533628
10
-0.1355954443
20
11.5127362475
30
8.5475079844
10
-0.1378243038
20
11.4460429457
30
8.5115762539
10
-0.1404989350
20
11.3660109895
30
8.4684581805
10
-0.1440651100
20
11.2593017124
30
8.4109674149
10
-0.1485228288
20
11.1259151167
30
8.3391039583
10
-0.1538720913
20
10.9658512017
30
8.2528678101
10
-0.1592213538
20
10.8057872867
30
8.1666316621
10
-0.1645706164
20
10.6457233717
30
8.0803955139
10
-0.1681367914
20
10.5390140950
30
8.0229047485
10
-0.1699198789
20
10.4856594567
30
7.9941593658
11
-0.0932439490
21
12.6890610449
31
9.1777561284
11
-0.0974791777
21
12.5736997613
31
9.1160426811
11
-0.1017144064
21
12.4583384778
31
9.0543292339
11
-0.1059496351
21
12.3429771943
31
8.9926157867
11
-0.1101848638
21
12.2276159108
31
8.9309023395
11
-0.1144200925
21
12.1122546273
31
8.8691888923
11
-0.1165377069
21
12.0545739855
31
8.8383321687
11
-0.1186553213
21
11.9968933437
31
8.8074754451
11
-0.1207729356
21
11.9392127020
31
8.7766187215
11
-0.1218317428
21
11.9103723811
31
8.7611903597
11
-0.1228905500
21
11.8815320602
31
8.7457619979
11
-0.1239493572
21
11.8526917393
31
8.7303336361
11
-0.1250081643
21
11.8238514185
31
8.7149052743
11
-0.1255375679
21
11.8094312580
31
8.7071910934
11
-0.1260669715
21
11.7950110976
31
8.6994769125
11
-0.1263316733
21
11.7878010174
31
8.6956198220
11
-0.1265963751
21
11.7805909371
31
8.6917627316
11
-0.1268610769
21
11.7733808569
31
8.6879056411
11
-0.1269934278
21
11.7697758168
31
8.6859770959
11
-0.1270596033
21
11.7679732968
31
8.6850128233
11
-0.1271257787
21
11.7661707767
31
8.6840485506
11
-0.1272093609
21
11.7636697780
31
8.6827011108
11
-0.1272929432
21
11.7611687794
31
8.6813536710
11
-0.1274601076
21
11.7561667820
31
8.6786587914
11
-0.1277944365
21
11.7461627873
31
8.6732690321
11
-0.1281287654
21
11.7361587926
31
8.6678792729
11
-0.1284630943
21
11.7261547979
31
8.6624895136
11
-0.1291317522
21
11.7061468086
31
8.6517099951
11
-0.1298004100
21
11.6861388192
31
8.6409304766
11
-0.1311377256
21
11.6461228404
31
8.6193714396
11
-0.1324750412
21
11.6061068617
31
8.5978124025
11
-0.1338123569
21
11.5660908829
31
8.5762533655
11
-0.1351496725
21
11.5260749042
31
8.5546943285
11
-0.1378243037
21
11.4460429467
31
8.5115762544
11
-0.1404989350
21
11.3660109892
31
8.4684581804
11
-0.1431735663
21
11.2859790317
31
8.4253401063
11
-0.1485228288
21
11.1259151167
31
8.3391039582
11
-0.1538720913
21
10.9658512017
31
8.2528678101
11
-0.1592213538
21
10.8057872867
31
8.1666316620
11
-0.1645706164
21
10.6457233717
31
8.0803955139
11
-0.1699198789
21
10.4856594567
31
7.9941593658
0
SPLINE
5
362
100
AcDbEntity
8
0
100
AcDbSpline
62
9
6
CONTINUOUS
70
0
71
3
72
8
73
4
74
2
42
0.0000001000
43
0.0000001000
44
0.0000000001
12
0.3361356311
22
-0.6184662922
32
0.0712557046
13
0.3367541236
23
-0.6182205566
33
0.0707493339
40
0.0000000000
40
0.0000000000
40
0.0000000000
40
0.0000000000
40
1.0000000000
40
1.0000000000
40
1.0000000000
40
1.0000000000
10
-0.4296889044
20
13.3074046127
30
9.1067535926
10
-0.3176436940
20
13.1012491820
30
9.1305054942
10
-0.2054953235
20
12.8951345637
30
9.1541730171
10
-0.0932439490
20
12.6890610449
30
9.1777561284
11
-0.4296889044
21
13.3074046127
31
9.1067535926
11
-0.0932439490
21
12.6890610449
31
9.1777561284
0
ENDSEC
0
SECTION
2
OBJECTS
0
DICTIONARY
5
C
100
AcDbDictionary
280
0
281
1
3
ACAD_GROUP
350
D
3
ACAD_MLINESTYLE
350
17
3
ACAD_LAYOUT
350
1A
3
ACAD_PLOTSETTINGS
350
19
3
ACAD_PLOTSTYLENAME
350
E
0
DICTIONARY
5
D
102
{ACAD_REACTORS
330
C
102
}
100
AcDbDictionary
280
0
281
1
0
ACDBDICTIONARYWDFLT
5
E
102
{ACAD_REACTORS
330
C
102
}
100
AcDbDictionary
281
1
3
Normal
350
F
100
AcDbDictionaryWithDefault
340
F
0
DICTIONARY
5
17
102
{ACAD_REACTORS
330
C
102
}
100
AcDbDictionary
280
0
281
1
3
Standard
350
18
0
DICTIONARY
5
19
102
{ACAD_REACTORS
330
C
102
}
100
AcDbDictionary
281
1
0
DICTIONARY
5
1A
102
{ACAD_REACTORS
330
C
102
}
100
AcDbDictionary
281
1
3
Layout1
350
1E
3
Model
350
22
0
ACDBPLACEHOLDER
5
F
102
{ACAD_REACTORS
330
E
102
}
0
MLINESTYLE
5
18
102
{ACAD_REACTORS
330
17
102
}
100
AcDbMlineStyle
2
STANDARD
70
0
3

62
256
51
90.0
52
90.0
71
2
49
0.5
62
256
6
BYLAYER
49
-0.5
62
256
6
BYLAYER
0
LAYOUT
5
1E
102
{ACAD_REACTORS
330
1A
102
}
100
AcDbPlotSettings
1

2

4

6

40
0.0
41
0.0
42
0.0
43
0.0
44
0.0
45
0.0
46
0.0
47
0.0
48
0.0
49
0.0
140
0.0
141
0.0
142
1.0
143
1.0
70
0
72
0
73
0
74
0
7

75
0
147
1.0
148
0.0
149
0.0
100
AcDbLayout
1
Layout1
70
0
71
0
10
0.0
20
0.0
11
0.0
21
0.0
12
0.0
22
0.0
32
0.0
14
0.0
24
0.0
34
0.0
15
0.0
25
0.0
35
0.0
146
0.0
13
0.0
23
0.0
33
0.0
16
0.0
26
0.0
36
0.0
17
0.0
27
0.0
37
0.0
76
0
330
1B
331
0
345
0
346
0
0
LAYOUT
5
22
102
{ACAD_REACTORS
330
1A
102
}
100
AcDbPlotSettings
1

2

4

6

40
0.0
41
0.0
42
0.0
43
0.0
44
0.0
45
0.0
46
0.0
47
0.0
48
0.0
49
0.0
140
0.0
141
0.0
142
1.0
143
1.0
70
0
72
0
73
0
74
0
7

75
0
147
1.0
148
0.0
149
0.0
100
AcDbLayout
1
Model
70
0
71
0
10
0.0
20
0.0
11
0.0
21
0.0
12
0.0
22
0.0
32
0.0
14
0.0
24
0.0
34
0.0
15
0.0
25
0.0
35
0.0
146
0.0
13
0.0
23
0.0
33
0.0
16
0.0
26
0.0
36
0.0
17
0.0
27
0.0
37
0.0
76
0
330
1F
331
0
345
0
346
0
0
ENDSEC
0
EOF
