  0
SECTION
  2
HEADER
  9
$ACADVER
  1
AC1015
  9
$DWGCODEPAGE
  3
ANSI_1252
  9
$EXTMAX
 10
297.0
 20
210.0
 30
0.0
  9
$EXTMIN
 10
0.0
 20
0.0
 30
0.0
  9
$LIMMIN
 10
0.0
 20
0.0
  9
$LIMMAX
 10
297.0
 20
210.0
  9
$VIEWCTR
 10
148.5
 20
105.0
  9
$VIEWSIZE
 40
210.0
  9
$CLAYER
  8
0
  9
$LTSCALE
 40
16.335
  9
$CELTYPE
  6
BYLAYER
  9
$DIMSCALE
 40
1.0
  9
$DIMASZ
 40
3.0
  9
$DIMEXO
 40
0.5
  9
$DIMDLI
 40
11.286
  9
$DIMEXE
 40
1.5
  9
$DIMCEN
 40
2.673
  9
$DIMLFAC
 40
1.0
  9
$DIMBLK
  1
_FILLED
  9
$DIMTXT
 40
3.0
  9
$DIMTOL
 70
1
  9
$DIMLIM
 70
0
  9
$DIMTFAC
 40
1.0
  9
$DIMTP
 40
0.01
  9
$DIMTM
 40
0.01
  9
$DIMGAP
 40
0.625
  9
$DIMDSEP
 70
44
  9
$PDMODE
 70
3
  9
$PDSIZE
 40
3.0
  9
$HANDSEED
  5
51F
  9
$TILEMODE
 70
1
  9
$MEASUREMENT
 70
1
  9
$INSUNITS
 70
4
  0
ENDSEC
  0
SECTION
  2
CLASSES
  0
CLASS
  1
ACDBDICTIONARYWDFLT
  2
AcDbDictionaryWithDefault
  3
AutoCAD 2000
 90
0
280
0
281
0
  0
CLASS
  1
ACDBPLACEHOLDER
  2
AcDbPlaceHolder
  3
AutoCAD 2000
 90
0
280
0
281
0
  0
CLASS
  1
LAYOUT
  2
AcDbLayout
  3
AutoCAD 2000
 90
0
280
0
281
0
  0
ENDSEC
  0
SECTION
  2
TABLES
  0
TABLE
  2
VPORT
  5
8
100
AcDbSymbolTable
 70
2
  0
VPORT
  5
1F4
100
AcDbSymbolTableRecord
100
AcDbViewportTableRecord
  2
*ACTIVE
 70
0
 10
0.0
 20
0.0
 11
1.0
 21
1.0
 12
148.5
 22
105.0
 13
0.0
 23
0.0
 14
1.0
 24
1.0
 15
0.0
 25
0.0
 16
0.0
 26
0.0
 36
1.0
 17
0.0
 27
0.0
 37
0.0
 40
210.0
 41
1.4142857143
 42
50.0
 43
0.0
 44
0.0
 50
0.0
 51
0.0
 71
0
 72
100
 73
1
 74
1
 75
0
 76
0
 77
0
 78
0
  0
ENDTAB
  0
TABLE
  2
LTYPE
  5
5
100
AcDbSymbolTable
 70
6
  0
LTYPE
  5
14
100
AcDbSymbolTableRecord
100
AcDbLinetypeTableRecord
  2
BYBLOCK
 70
0
  3

 72
65
 73
0
 40
0.0
  0
LTYPE
  5
15
100
AcDbSymbolTableRecord
100
AcDbLinetypeTableRecord
  2
BYLAYER
 70
0
  3

 72
65
 73
0
 40
0.0
  0
LTYPE
  5
16
100
AcDbSymbolTableRecord
100
AcDbLinetypeTableRecord
  2
CONTINUOUS
 70
64
  3
Solid line
 72
65
 73
0
 40
0.0
  0
LTYPE
  5
1F5
100
AcDbSymbolTableRecord
100
AcDbLinetypeTableRecord
  2
CENTER
 70
64
  3
____ _ ____ _ ____ _ ____ _ ____ _ ____ _ ____
 72
65
 73
4
 40
0.6
 49
0.375
 74
0
 49
-0.075
 74
0
 49
0.075
 74
0
 49
-0.075
 74
0
  0
LTYPE
  5
1F6
100
AcDbSymbolTableRecord
100
AcDbLinetypeTableRecord
  2
HIDDEN
 70
64
  3
- - - - - - - - - - - - - - - - - - - -
 72
65
 73
2
 40
0.2
 49
0.1
 74
0
 49
-0.1
 74
0
  0
LTYPE
  5
1F7
100
AcDbSymbolTableRecord
100
AcDbLinetypeTableRecord
  2
PHANTOM
 70
64
  3
_____ _ _ _____ _ _ _____ _ _ _____
 72
65
 73
6
 40
0.8
 49
0.45
 74
0
 49
-0.05
 74
0
 49
0.1
 74
0
 49
-0.05
 74
0
 49
0.1
 74
0
 49
-0.05
 74
0
  0
LTYPE
  5
1F8
100
AcDbSymbolTableRecord
100
AcDbLinetypeTableRecord
  2
DOT
 70
64
  3
. . . . . . . . . . . . . . . . . . . .
 72
65
 73
2
 40
0.2
 49
0.1
 74
0
 49
-0.1
 74
0
  0
LTYPE
  5
1F9
100
AcDbSymbolTableRecord
100
AcDbLinetypeTableRecord
  2
DASHED
 70
64
  3
- - - - - - - - - - - - - - - - - - - -
 72
65
 73
2
 40
0.2
 49
0.1
 74
0
 49
-0.1
 74
0
  0
ENDTAB
  0
TABLE
  2
LAYER
  5
2
100
AcDbSymbolTable
 70
36
  0
LAYER
  5
10
100
AcDbSymbolTableRecord
100
AcDbLayerTableRecord
  2
0
 70
0
 62
7
  6
CONTINUOUS
370
-3
390
F
  0
LAYER
  5
1FA
100
AcDbSymbolTableRecord
100
AcDbLayerTableRecord
  2
DEFAULT_1
 70
0
 62
7
  6
CENTER
370
-3
390
F
  0
LAYER
  5
1FB
100
AcDbSymbolTableRecord
100
AcDbLayerTableRecord
  2
DEFAULT_2
 70
0
 62
7
  6
HIDDEN
370
-3
390
F
  0
LAYER
  5
1FC
100
AcDbSymbolTableRecord
100
AcDbLayerTableRecord
  2
DEFAULT_3
 70
0
 62
7
  6
PHANTOM
370
-3
390
F
  0
LAYER
  5
1FD
100
AcDbSymbolTableRecord
100
AcDbLayerTableRecord
  2
200A_170000__200A_170000_45
 70
0
 62
7
  6
CONTINUOUS
370
-3
390
F
  0
LAYER
  5
1FE
100
AcDbSymbolTableRecord
100
AcDbLayerTableRecord
  2
200A_170000__200A_170000_45_1
 70
0
 62
7
  6
CONTINUOUS
370
-3
390
F
  0
LAYER
  5
1FF
100
AcDbSymbolTableRecord
100
AcDbLayerTableRecord
  2
200A_170000__200A_170000_45_2
 70
0
 62
7
  6
CONTINUOUS
370
-3
390
F
  0
LAYER
  5
200
100
AcDbSymbolTableRecord
100
AcDbLayerTableRecord
  2
200A_170000__200A_170000_45_3
 70
0
 62
7
  6
CONTINUOUS
370
-3
390
F
  0
LAYER
  5
201
100
AcDbSymbolTableRecord
100
AcDbLayerTableRecord
  2
2125-CC-RF-VIMAR_65000__2125-CC
 70
0
 62
7
  6
CONTINUOUS
370
-3
390
F
  0
LAYER
  5
202
100
AcDbSymbolTableRecord
100
AcDbLayerTableRecord
  2
2125-CC-RF-VIMAR_65000__2125-_1
 70
0
 62
7
  6
CONTINUOUS
370
-3
390
F
  0
LAYER
  5
203
100
AcDbSymbolTableRecord
100
AcDbLayerTableRecord
  2
2125-DL-RF-FINE_VIMAR_110000__1
 70
0
 62
7
  6
CONTINUOUS
370
-3
390
F
  0
LAYER
  5
204
100
AcDbSymbolTableRecord
100
AcDbLayerTableRecord
  2
2125-DL-RF-FINE_VIMAR_110000__2
 70
0
 62
7
  6
CONTINUOUS
370
-3
390
F
  0
LAYER
  5
205
100
AcDbSymbolTableRecord
100
AcDbLayerTableRecord
  2
2125-R1-RF-VIMAR_60000__2125-R1
 70
0
 62
7
  6
CONTINUOUS
370
-3
390
F
  0
LAYER
  5
206
100
AcDbSymbolTableRecord
100
AcDbLayerTableRecord
  2
2125-R1-RF-VIMAR_60000__2125-_1
 70
0
 62
7
  6
CONTINUOUS
370
-3
390
F
  0
LAYER
  5
207
100
AcDbSymbolTableRecord
100
AcDbLayerTableRecord
  2
2125-R1-RF-VIMAR_60000__2125-_2
 70
0
 62
7
  6
CONTINUOUS
370
-3
390
F
  0
LAYER
  5
208
100
AcDbSymbolTableRecord
100
AcDbLayerTableRecord
  2
2125-R1-RF-VIMAR_60000__2125-_3
 70
0
 62
7
  6
CONTINUOUS
370
-3
390
F
  0
LAYER
  5
209
100
AcDbSymbolTableRecord
100
AcDbLayerTableRecord
  2
2125-R1-RF-VIMAR_60000__2125-_4
 70
0
 62
7
  6
CONTINUOUS
370
-3
390
F
  0
LAYER
  5
20A
100
AcDbSymbolTableRecord
100
AcDbLayerTableRecord
  2
2125-R1-RF-VIMAR_60000__2125-_5
 70
0
 62
7
  6
CONTINUOUS
370
-3
390
F
  0
LAYER
  5
20B
100
AcDbSymbolTableRecord
100
AcDbLayerTableRecord
  2
2125-R1-RF-VIMAR_60000__2125-_6
 70
0
 62
7
  6
CONTINUOUS
370
-3
390
F
  0
LAYER
  5
20C
100
AcDbSymbolTableRecord
100
AcDbLayerTableRecord
  2
2125-R1-RF-VIMAR_60000__2125-_7
 70
0
 62
7
  6
CONTINUOUS
370
-3
390
F
  0
LAYER
  5
20D
100
AcDbSymbolTableRecord
100
AcDbLayerTableRecord
  2
2125-R1-RF-VIMAR_60000__2125-_8
 70
0
 62
7
  6
CONTINUOUS
370
-3
390
F
  0
LAYER
  5
20E
100
AcDbSymbolTableRecord
100
AcDbLayerTableRecord
  2
3216-CF-RF-1-VIMAR_180000__3216
 70
0
 62
7
  6
CONTINUOUS
370
-3
390
F
  0
LAYER
  5
20F
100
AcDbSymbolTableRecord
100
AcDbLayerTableRecord
  2
3216-CF-RF-1-VIMAR_180000__32_1
 70
0
 62
7
  6
CONTINUOUS
370
-3
390
F
  0
LAYER
  5
210
100
AcDbSymbolTableRecord
100
AcDbLayerTableRecord
  2
3216-CF-RF-1-VIMAR_180000__32_2
 70
0
 62
7
  6
CONTINUOUS
370
-3
390
F
  0
LAYER
  5
211
100
AcDbSymbolTableRecord
100
AcDbLayerTableRecord
  2
3216-CF-RF-1-VIMAR_180000__32_3
 70
0
 62
7
  6
CONTINUOUS
370
-3
390
F
  0
LAYER
  5
212
100
AcDbSymbolTableRecord
100
AcDbLayerTableRecord
  2
3216-CF-RF-VIMAR_100000__3216-C
 70
0
 62
7
  6
CONTINUOUS
370
-3
390
F
  0
LAYER
  5
213
100
AcDbSymbolTableRecord
100
AcDbLayerTableRecord
  2
43000599A0
 70
0
 62
7
  6
CONTINUOUS
370
-3
390
F
  0
LAYER
  5
214
100
AcDbSymbolTableRecord
100
AcDbLayerTableRecord
  2
43000599A0_CONTORNO
 70
0
 62
7
  6
CONTINUOUS
370
-3
390
F
  0
LAYER
  5
215
100
AcDbSymbolTableRecord
100
AcDbLayerTableRecord
  2
43000600A0
 70
0
 62
7
  6
CONTINUOUS
370
-3
390
F
  0
LAYER
  5
216
100
AcDbSymbolTableRecord
100
AcDbLayerTableRecord
  2
43000600A0_CONTORNO
 70
0
 62
7
  6
CONTINUOUS
370
-3
390
F
  0
LAYER
  5
217
100
AcDbSymbolTableRecord
100
AcDbLayerTableRecord
  2
ASSI
 70
0
 62
7
  6
CONTINUOUS
370
-3
390
F
  0
LAYER
  5
218
100
AcDbSymbolTableRecord
100
AcDbLayerTableRecord
  2
CAPC1608N_80000__CAPC160-105767
 70
0
 62
7
  6
CONTINUOUS
370
-3
390
F
  0
LAYER
  5
219
100
AcDbSymbolTableRecord
100
AcDbLayerTableRecord
  2
CAPC1608N_80000__CAPC160-1057_1
 70
0
 62
7
  6
CONTINUOUS
370
-3
390
F
  0
LAYER
  5
21A
100
AcDbSymbolTableRecord
100
AcDbLayerTableRecord
  2
CAPC1608N_80000__CAPC160-1057_2
 70
0
 62
7
  6
CONTINUOUS
370
-3
390
F
  0
LAYER
  5
21B
100
AcDbSymbolTableRecord
100
AcDbLayerTableRecord
  2
CAPC1608N_80000__CAPC160-1057_3
 70
0
 62
7
  6
CONTINUOUS
370
-3
390
F
  0
LAYER
  5
21C
100
AcDbSymbolTableRecord
100
AcDbLayerTableRecord
  2
CAPC1608N_80000__CAPC160-1057_4
 70
0
 62
7
  6
CONTINUOUS
370
-3
390
F
  0
LAYER
  5
21D
100
AcDbSymbolTableRecord
100
AcDbLayerTableRecord
  2
CAPC1608N_80000__CAPC160-1057_5
 70
0
 62
7
  6
CONTINUOUS
370
-3
390
F
  0
LAYER
  5
21E
100
AcDbSymbolTableRecord
100
AcDbLayerTableRecord
  2
CAPC1608N_80000__CAPC160-1057_6
 70
0
 62
7
  6
CONTINUOUS
370
-3
390
F
  0
LAYER
  5
21F
100
AcDbSymbolTableRecord
100
AcDbLayerTableRecord
  2
CAPC1608N_80000__CAPC160-1057_7
 70
0
 62
7
  6
CONTINUOUS
370
-3
390
F
  0
LAYER
  5
220
100
AcDbSymbolTableRecord
100
AcDbLayerTableRecord
  2
CAPC1608N_80000__CAPC160-1057_8
 70
0
 62
7
  6
CONTINUOUS
370
-3
390
F
  0
LAYER
  5
221
100
AcDbSymbolTableRecord
100
AcDbLayerTableRecord
  2
CAPC1608N_80000__CAPC160-1057_9
 70
0
 62
7
  6
CONTINUOUS
370
-3
390
F
  0
LAYER
  5
222
100
AcDbSymbolTableRecord
100
AcDbLayerTableRecord
  2
CAPC1608N_80000__CAPC160-105_10
 70
0
 62
7
  6
CONTINUOUS
370
-3
390
F
  0
LAYER
  5
223
100
AcDbSymbolTableRecord
100
AcDbLayerTableRecord
  2
CAPC1608N_80000__CAPC160-105_11
 70
0
 62
7
  6
CONTINUOUS
370
-3
390
F
  0
LAYER
  5
224
100
AcDbSymbolTableRecord
100
AcDbLayerTableRecord
  2
CAPC1608N_80000__CAPC160-105_12
 70
0
 62
7
  6
CONTINUOUS
370
-3
390
F
  0
LAYER
  5
225
100
AcDbSymbolTableRecord
100
AcDbLayerTableRecord
  2
CAPC1608N_80000__CAPC160-105_13
 70
0
 62
7
  6
CONTINUOUS
370
-3
390
F
  0
LAYER
  5
226
100
AcDbSymbolTableRecord
100
AcDbLayerTableRecord
  2
CAPC1608N_80000__CAPC160-105_14
 70
0
 62
7
  6
CONTINUOUS
370
-3
390
F
  0
LAYER
  5
227
100
AcDbSymbolTableRecord
100
AcDbLayerTableRecord
  2
CAPC1608N_80000__CAPC160-105_15
 70
0
 62
7
  6
CONTINUOUS
370
-3
390
F
  0
LAYER
  5
228
100
AcDbSymbolTableRecord
100
AcDbLayerTableRecord
  2
CAPC1608N_80000__CAPC160-105_16
 70
0
 62
7
  6
CONTINUOUS
370
-3
390
F
  0
LAYER
  5
229
100
AcDbSymbolTableRecord
100
AcDbLayerTableRecord
  2
CAPC1608N_80000__CAPC160-105_17
 70
0
 62
7
  6
CONTINUOUS
370
-3
390
F
  0
LAYER
  5
22A
100
AcDbSymbolTableRecord
100
AcDbLayerTableRecord
  2
CAPC1608N_80000__CAPC160-105_18
 70
0
 62
7
  6
CONTINUOUS
370
-3
390
F
  0
LAYER
  5
22B
100
AcDbSymbolTableRecord
100
AcDbLayerTableRecord
  2
CAPC1608N_80000__CAPC160-105_19
 70
0
 62
7
  6
CONTINUOUS
370
-3
390
F
  0
LAYER
  5
22C
100
AcDbSymbolTableRecord
100
AcDbLayerTableRecord
  2
CAPC1608N_80000__CAPC160-105_20
 70
0
 62
7
  6
CONTINUOUS
370
-3
390
F
  0
LAYER
  5
22D
100
AcDbSymbolTableRecord
100
AcDbLayerTableRecord
  2
CAPC1608N_80000__CAPC160-105_21
 70
0
 62
7
  6
CONTINUOUS
370
-3
390
F
  0
LAYER
  5
22E
100
AcDbSymbolTableRecord
100
AcDbLayerTableRecord
  2
CAPC1608N_80000__CAPC160-118831
 70
0
 62
7
  6
CONTINUOUS
370
-3
390
F
  0
LAYER
  5
22F
100
AcDbSymbolTableRecord
100
AcDbLayerTableRecord
  2
CAPC1608N_80000__CAPC160-1188_1
 70
0
 62
7
  6
CONTINUOUS
370
-3
390
F
  0
LAYER
  5
230
100
AcDbSymbolTableRecord
100
AcDbLayerTableRecord
  2
CAPC1608N_80000__CAPC160-1188_2
 70
0
 62
7
  6
CONTINUOUS
370
-3
390
F
  0
LAYER
  5
231
100
AcDbSymbolTableRecord
100
AcDbLayerTableRecord
  2
CAPC1608N_80000__CAPC160-1188_3
 70
0
 62
7
  6
CONTINUOUS
370
-3
390
F
  0
LAYER
  5
232
100
AcDbSymbolTableRecord
100
AcDbLayerTableRecord
  2
CAPC1608N_80000__CAPC160-1188_4
 70
0
 62
7
  6
CONTINUOUS
370
-3
390
F
  0
LAYER
  5
233
100
AcDbSymbolTableRecord
100
AcDbLayerTableRecord
  2
CAPC1608N_80000__CAPC160-1188_5
 70
0
 62
7
  6
CONTINUOUS
370
-3
390
F
  0
LAYER
  5
234
100
AcDbSymbolTableRecord
100
AcDbLayerTableRecord
  2
CAPC1608N_80000__CAPC160-1188_6
 70
0
 62
7
  6
CONTINUOUS
370
-3
390
F
  0
LAYER
  5
235
100
AcDbSymbolTableRecord
100
AcDbLayerTableRecord
  2
CAPC1608N_80000__CAPC160-1188_7
 70
0
 62
7
  6
CONTINUOUS
370
-3
390
F
  0
LAYER
  5
236
100
AcDbSymbolTableRecord
100
AcDbLayerTableRecord
  2
CAPC1608N_80000__CAPC160-1188_8
 70
0
 62
7
  6
CONTINUOUS
370
-3
390
F
  0
LAYER
  5
237
100
AcDbSymbolTableRecord
100
AcDbLayerTableRecord
  2
CAPC1608N_80000__CAPC160-1188_9
 70
0
 62
7
  6
CONTINUOUS
370
-3
390
F
  0
LAYER
  5
238
100
AcDbSymbolTableRecord
100
AcDbLayerTableRecord
  2
CAPC1608N_80000__CAPC160-118_10
 70
0
 62
7
  6
CONTINUOUS
370
-3
390
F
  0
LAYER
  5
239
100
AcDbSymbolTableRecord
100
AcDbLayerTableRecord
  2
CAPC1608N_80000__CAPC160-118_11
 70
0
 62
7
  6
CONTINUOUS
370
-3
390
F
  0
LAYER
  5
23A
100
AcDbSymbolTableRecord
100
AcDbLayerTableRecord
  2
CAPC1608N_80000__CAPC160-118_12
 70
0
 62
7
  6
CONTINUOUS
370
-3
390
F
  0
LAYER
  5
23B
100
AcDbSymbolTableRecord
100
AcDbLayerTableRecord
  2
CAPC1608N_80000__CAPC160-118_13
 70
0
 62
7
  6
CONTINUOUS
370
-3
390
F
  0
LAYER
  5
23C
100
AcDbSymbolTableRecord
100
AcDbLayerTableRecord
  2
CAPC1608N_80000__CAPC160-118_14
 70
0
 62
7
  6
CONTINUOUS
370
-3
390
F
  0
LAYER
  5
23D
100
AcDbSymbolTableRecord
100
AcDbLayerTableRecord
  2
CAPC1608N_80000__CAPC160-118_15
 70
0
 62
7
  6
CONTINUOUS
370
-3
390
F
  0
LAYER
  5
23E
100
AcDbSymbolTableRecord
100
AcDbLayerTableRecord
  2
CAPC1608N_80000__CAPC160-118_16
 70
0
 62
7
  6
CONTINUOUS
370
-3
390
F
  0
LAYER
  5
23F
100
AcDbSymbolTableRecord
100
AcDbLayerTableRecord
  2
CN-CSF_CSM_2-VIMAR_900000__CN-C
 70
0
 62
7
  6
CONTINUOUS
370
-3
390
F
  0
LAYER
  5
240
100
AcDbSymbolTableRecord
100
AcDbLayerTableRecord
  2
CN-MKDSN2-VIMAR_1500000__CN-MKD
 70
0
 62
7
  6
CONTINUOUS
370
-3
390
F
  0
LAYER
  5
241
100
AcDbSymbolTableRecord
100
AcDbLayerTableRecord
  2
CN1-REF_SQUAREHOLE12_SPE-112392
 70
0
 62
7
  6
CONTINUOUS
370
-3
390
F
  0
LAYER
  5
242
100
AcDbSymbolTableRecord
100
AcDbLayerTableRecord
  2
CN1-REF_SQUAREHOLE12_SPE-1123_1
 70
0
 62
7
  6
CONTINUOUS
370
-3
390
F
  0
LAYER
  5
243
100
AcDbSymbolTableRecord
100
AcDbLayerTableRecord
  2
CN1-REF_SQUAREHOLE12_SPE-1123_2
 70
0
 62
7
  6
CONTINUOUS
370
-3
390
F
  0
LAYER
  5
244
100
AcDbSymbolTableRecord
100
AcDbLayerTableRecord
  2
CN1-REF_SQUAREHOLE12_SPE-1123_3
 70
0
 62
7
  6
CONTINUOUS
370
-3
390
F
  0
LAYER
  5
245
100
AcDbSymbolTableRecord
100
AcDbLayerTableRecord
  2
CN1-REF_SQUAREHOLE12_SPE-121063
 70
0
 62
7
  6
CONTINUOUS
370
-3
390
F
  0
LAYER
  5
246
100
AcDbSymbolTableRecord
100
AcDbLayerTableRecord
  2
CN1-REF_SQUAREHOLE12_SPE-1210_1
 70
0
 62
7
  6
CONTINUOUS
370
-3
390
F
  0
LAYER
  5
247
100
AcDbSymbolTableRecord
100
AcDbLayerTableRecord
  2
CN1-REF_SQUAREHOLE12_SPE-1210_2
 70
0
 62
7
  6
CONTINUOUS
370
-3
390
F
  0
LAYER
  5
248
100
AcDbSymbolTableRecord
100
AcDbLayerTableRecord
  2
CN1-REF_SQUAREHOLE12_SPE-1210_3
 70
0
 62
7
  6
CONTINUOUS
370
-3
390
F
  0
LAYER
  5
249
100
AcDbSymbolTableRecord
100
AcDbLayerTableRecord
  2
CN1-TP15_SMD-VIMAR_5000__CN1-TP
 70
0
 62
7
  6
CONTINUOUS
370
-3
390
F
  0
LAYER
  5
24A
100
AcDbSymbolTableRecord
100
AcDbLayerTableRecord
  2
CN1-TP15_SMD-VIMAR_5000__CN1-_1
 70
0
 62
7
  6
CONTINUOUS
370
-3
390
F
  0
LAYER
  5
24B
100
AcDbSymbolTableRecord
100
AcDbLayerTableRecord
  2
CN1-TP15_SMD-VIMAR_5000__CN1-_2
 70
0
 62
7
  6
CONTINUOUS
370
-3
390
F
  0
LAYER
  5
24C
100
AcDbSymbolTableRecord
100
AcDbLayerTableRecord
  2
CN1-TP15_SMD-VIMAR_5000__CN1-_3
 70
0
 62
7
  6
CONTINUOUS
370
-3
390
F
  0
LAYER
  5
24D
100
AcDbSymbolTableRecord
100
AcDbLayerTableRecord
  2
CN1-TP15_SMD-VIMAR_5000__CN1-_4
 70
0
 62
7
  6
CONTINUOUS
370
-3
390
F
  0
LAYER
  5
24E
100
AcDbSymbolTableRecord
100
AcDbLayerTableRecord
  2
CN1-TP15_SMD-VIMAR_5000__CN1-_5
 70
0
 62
7
  6
CONTINUOUS
370
-3
390
F
  0
LAYER
  5
24F
100
AcDbSymbolTableRecord
100
AcDbLayerTableRecord
  2
CN12-ZIF_P0_5-VIMAR_200000__CN1
 70
0
 62
7
  6
CONTINUOUS
370
-3
390
F
  0
LAYER
  5
250
100
AcDbSymbolTableRecord
100
AcDbLayerTableRecord
  2
COLOR1
 70
0
 62
7
  6
CONTINUOUS
370
-3
390
F
  0
LAYER
  5
251
100
AcDbSymbolTableRecord
100
AcDbLayerTableRecord
  2
COLOR10
 70
0
 62
7
  6
CONTINUOUS
370
-3
390
F
  0
LAYER
  5
252
100
AcDbSymbolTableRecord
100
AcDbLayerTableRecord
  2
COLOR12
 70
0
 62
7
  6
CONTINUOUS
370
-3
390
F
  0
LAYER
  5
253
100
AcDbSymbolTableRecord
100
AcDbLayerTableRecord
  2
COLOR13
 70
0
 62
7
  6
CONTINUOUS
370
-3
390
F
  0
LAYER
  5
254
100
AcDbSymbolTableRecord
100
AcDbLayerTableRecord
  2
COLOR15
 70
0
 62
7
  6
CONTINUOUS
370
-3
390
F
  0
LAYER
  5
255
100
AcDbSymbolTableRecord
100
AcDbLayerTableRecord
  2
COLOR17
 70
0
 62
7
  6
CONTINUOUS
370
-3
390
F
  0
LAYER
  5
256
100
AcDbSymbolTableRecord
100
AcDbLayerTableRecord
  2
COLOR18
 70
0
 62
7
  6
CONTINUOUS
370
-3
390
F
  0
LAYER
  5
257
100
AcDbSymbolTableRecord
100
AcDbLayerTableRecord
  2
COLOR19
 70
0
 62
7
  6
CONTINUOUS
370
-3
390
F
  0
LAYER
  5
258
100
AcDbSymbolTableRecord
100
AcDbLayerTableRecord
  2
COLOR2
 70
0
 62
7
  6
CONTINUOUS
370
-3
390
F
  0
LAYER
  5
259
100
AcDbSymbolTableRecord
100
AcDbLayerTableRecord
  2
COLOR20
 70
0
 62
7
  6
CONTINUOUS
370
-3
390
F
  0
LAYER
  5
25A
100
AcDbSymbolTableRecord
100
AcDbLayerTableRecord
  2
COLOR21
 70
0
 62
7
  6
CONTINUOUS
370
-3
390
F
  0
LAYER
  5
25B
100
AcDbSymbolTableRecord
100
AcDbLayerTableRecord
  2
COLOR22
 70
0
 62
7
  6
CONTINUOUS
370
-3
390
F
  0
LAYER
  5
25C
100
AcDbSymbolTableRecord
100
AcDbLayerTableRecord
  2
COLOR24
 70
0
 62
7
  6
CONTINUOUS
370
-3
390
F
  0
LAYER
  5
25D
100
AcDbSymbolTableRecord
100
AcDbLayerTableRecord
  2
COLOR25
 70
0
 62
7
  6
CONTINUOUS
370
-3
390
F
  0
LAYER
  5
25E
100
AcDbSymbolTableRecord
100
AcDbLayerTableRecord
  2
COLOR27
 70
0
 62
7
  6
CONTINUOUS
370
-3
390
F
  0
LAYER
  5
25F
100
AcDbSymbolTableRecord
100
AcDbLayerTableRecord
  2
COLOR3
 70
0
 62
7
  6
CONTINUOUS
370
-3
390
F
  0
LAYER
  5
260
100
AcDbSymbolTableRecord
100
AcDbLayerTableRecord
  2
COLOR31
 70
0
 62
7
  6
CONTINUOUS
370
-3
390
F
  0
LAYER
  5
261
100
AcDbSymbolTableRecord
100
AcDbLayerTableRecord
  2
COLOR33
 70
0
 62
7
  6
CONTINUOUS
370
-3
390
F
  0
LAYER
  5
262
100
AcDbSymbolTableRecord
100
AcDbLayerTableRecord
  2
COLOR36
 70
0
 62
7
  6
CONTINUOUS
370
-3
390
F
  0
LAYER
  5
263
100
AcDbSymbolTableRecord
100
AcDbLayerTableRecord
  2
COLOR37
 70
0
 62
7
  6
CONTINUOUS
370
-3
390
F
  0
LAYER
  5
264
100
AcDbSymbolTableRecord
100
AcDbLayerTableRecord
  2
COLOR39
 70
0
 62
7
  6
CONTINUOUS
370
-3
390
F
  0
LAYER
  5
265
100
AcDbSymbolTableRecord
100
AcDbLayerTableRecord
  2
COLOR4
 70
0
 62
7
  6
CONTINUOUS
370
-3
390
F
  0
LAYER
  5
266
100
AcDbSymbolTableRecord
100
AcDbLayerTableRecord
  2
COLOR40
 70
0
 62
7
  6
CONTINUOUS
370
-3
390
F
  0
LAYER
  5
267
100
AcDbSymbolTableRecord
100
AcDbLayerTableRecord
  2
COLOR41
 70
0
 62
7
  6
CONTINUOUS
370
-3
390
F
  0
LAYER
  5
268
100
AcDbSymbolTableRecord
100
AcDbLayerTableRecord
  2
COLOR42
 70
0
 62
7
  6
CONTINUOUS
370
-3
390
F
  0
LAYER
  5
269
100
AcDbSymbolTableRecord
100
AcDbLayerTableRecord
  2
COLOR43
 70
0
 62
7
  6
CONTINUOUS
370
-3
390
F
  0
LAYER
  5
26A
100
AcDbSymbolTableRecord
100
AcDbLayerTableRecord
  2
COLOR44
 70
0
 62
7
  6
CONTINUOUS
370
-3
390
F
  0
LAYER
  5
26B
100
AcDbSymbolTableRecord
100
AcDbLayerTableRecord
  2
COLOR45
 70
0
 62
7
  6
CONTINUOUS
370
-3
390
F
  0
LAYER
  5
26C
100
AcDbSymbolTableRecord
100
AcDbLayerTableRecord
  2
COLOR46
 70
0
 62
7
  6
CONTINUOUS
370
-3
390
F
  0
LAYER
  5
26D
100
AcDbSymbolTableRecord
100
AcDbLayerTableRecord
  2
COLOR47
 70
0
 62
7
  6
CONTINUOUS
370
-3
390
F
  0
LAYER
  5
26E
100
AcDbSymbolTableRecord
100
AcDbLayerTableRecord
  2
COLOR48
 70
0
 62
7
  6
CONTINUOUS
370
-3
390
F
  0
LAYER
  5
26F
100
AcDbSymbolTableRecord
100
AcDbLayerTableRecord
  2
COLOR49
 70
0
 62
7
  6
CONTINUOUS
370
-3
390
F
  0
LAYER
  5
270
100
AcDbSymbolTableRecord
100
AcDbLayerTableRecord
  2
COLOR50
 70
0
 62
7
  6
CONTINUOUS
370
-3
390
F
  0
LAYER
  5
271
100
AcDbSymbolTableRecord
100
AcDbLayerTableRecord
  2
COLOR51
 70
0
 62
7
  6
CONTINUOUS
370
-3
390
F
  0
LAYER
  5
272
100
AcDbSymbolTableRecord
100
AcDbLayerTableRecord
  2
COLOR52
 70
0
 62
7
  6
CONTINUOUS
370
-3
390
F
  0
LAYER
  5
273
100
AcDbSymbolTableRecord
100
AcDbLayerTableRecord
  2
COLOR53
 70
0
 62
7
  6
CONTINUOUS
370
-3
390
F
  0
LAYER
  5
274
100
AcDbSymbolTableRecord
100
AcDbLayerTableRecord
  2
COLOR54
 70
0
 62
7
  6
CONTINUOUS
370
-3
390
F
  0
LAYER
  5
275
100
AcDbSymbolTableRecord
100
AcDbLayerTableRecord
  2
COLOR55
 70
0
 62
7
  6
CONTINUOUS
370
-3
390
F
  0
LAYER
  5
276
100
AcDbSymbolTableRecord
100
AcDbLayerTableRecord
  2
COLOR56
 70
0
 62
7
  6
CONTINUOUS
370
-3
390
F
  0
LAYER
  5
277
100
AcDbSymbolTableRecord
100
AcDbLayerTableRecord
  2
COLOR57
 70
0
 62
7
  6
CONTINUOUS
370
-3
390
F
  0
LAYER
  5
278
100
AcDbSymbolTableRecord
100
AcDbLayerTableRecord
  2
COLOR58
 70
0
 62
7
  6
CONTINUOUS
370
-3
390
F
  0
LAYER
  5
279
100
AcDbSymbolTableRecord
100
AcDbLayerTableRecord
  2
COLOR59
 70
0
 62
7
  6
CONTINUOUS
370
-3
390
F
  0
LAYER
  5
27A
100
AcDbSymbolTableRecord
100
AcDbLayerTableRecord
  2
COLOR60
 70
0
 62
7
  6
CONTINUOUS
370
-3
390
F
  0
LAYER
  5
27B
100
AcDbSymbolTableRecord
100
AcDbLayerTableRecord
  2
COLOR61
 70
0
 62
7
  6
CONTINUOUS
370
-3
390
F
  0
LAYER
  5
27C
100
AcDbSymbolTableRecord
100
AcDbLayerTableRecord
  2
COLOR62
 70
0
 62
7
  6
CONTINUOUS
370
-3
390
F
  0
LAYER
  5
27D
100
AcDbSymbolTableRecord
100
AcDbLayerTableRecord
  2
COLOR63
 70
0
 62
7
  6
CONTINUOUS
370
-3
390
F
  0
LAYER
  5
27E
100
AcDbSymbolTableRecord
100
AcDbLayerTableRecord
  2
COLOR64
 70
0
 62
7
  6
CONTINUOUS
370
-3
390
F
  0
LAYER
  5
27F
100
AcDbSymbolTableRecord
100
AcDbLayerTableRecord
  2
COLOR65
 70
0
 62
7
  6
CONTINUOUS
370
-3
390
F
  0
LAYER
  5
280
100
AcDbSymbolTableRecord
100
AcDbLayerTableRecord
  2
COLORE_MATERIALE
 70
0
 62
7
  6
CONTINUOUS
370
-3
390
F
  0
LAYER
  5
281
100
AcDbSymbolTableRecord
100
AcDbLayerTableRecord
  2
COORDINATE
 70
0
 62
7
  6
CONTINUOUS
370
-3
390
F
  0
LAYER
  5
282
100
AcDbSymbolTableRecord
100
AcDbLayerTableRecord
  2
COORD_ORIGINE
 70
0
 62
7
  6
CONTINUOUS
370
-3
390
F
  0
LAYER
  5
283
100
AcDbSymbolTableRecord
100
AcDbLayerTableRecord
  2
COPY_PUBLISH
 70
0
 62
7
  6
CONTINUOUS
370
-3
390
F
  0
LAYER
  5
284
100
AcDbSymbolTableRecord
100
AcDbLayerTableRecord
  2
COSMETIC
 70
0
 62
7
  6
CONTINUOUS
370
-3
390
F
  0
LAYER
  5
285
100
AcDbSymbolTableRecord
100
AcDbLayerTableRecord
  2
CP-CE2-RF_570000__CP-CE2-RF_570
 70
0
 62
7
  6
CONTINUOUS
370
-3
390
F
  0
LAYER
  5
286
100
AcDbSymbolTableRecord
100
AcDbLayerTableRecord
  2
CP-CE2-RF_570000__CP-CE2-RF_5_1
 70
0
 62
7
  6
CONTINUOUS
370
-3
390
F
  0
LAYER
  5
287
100
AcDbSymbolTableRecord
100
AcDbLayerTableRecord
  2
CP-CE5-RF_650000__CP-CE5-RF_650
 70
0
 62
7
  6
CONTINUOUS
370
-3
390
F
  0
LAYER
  5
288
100
AcDbSymbolTableRecord
100
AcDbLayerTableRecord
  2
CP-CE5-RF_650000__CP-CE5-RF_6_1
 70
0
 62
7
  6
CONTINUOUS
370
-3
390
F
  0
LAYER
  5
289
100
AcDbSymbolTableRecord
100
AcDbLayerTableRecord
  2
CP-DO-214AC-D-VIMAR_240000__CP-
 70
0
 62
7
  6
CONTINUOUS
370
-3
390
F
  0
LAYER
  5
28A
100
AcDbSymbolTableRecord
100
AcDbLayerTableRecord
  2
CP-DO-214AC-VIMAR_240000__CP-DO
 70
0
 62
7
  6
CONTINUOUS
370
-3
390
F
  0
LAYER
  5
28B
100
AcDbSymbolTableRecord
100
AcDbLayerTableRecord
  2
CP-DO-214AC-VIMAR_240000__CP-_1
 70
0
 62
7
  6
CONTINUOUS
370
-3
390
F
  0
LAYER
  5
28C
100
AcDbSymbolTableRecord
100
AcDbLayerTableRecord
  2
CP-L3-RF-VIMAR_180000__CP-L3-RF
 70
0
 62
7
  6
CONTINUOUS
370
-3
390
F
  0
LAYER
  5
28D
100
AcDbSymbolTableRecord
100
AcDbLayerTableRecord
  2
CURVE
 70
0
 62
7
  6
CONTINUOUS
370
-3
390
F
  0
LAYER
  5
28E
100
AcDbSymbolTableRecord
100
AcDbLayerTableRecord
  2
DRAFT
 70
0
 62
7
  6
CONTINUOUS
370
-3
390
F
  0
LAYER
  5
28F
100
AcDbSymbolTableRecord
100
AcDbLayerTableRecord
  2
E4_MARK_10000__E4_MARK_10000_11
 70
0
 62
7
  6
CONTINUOUS
370
-3
390
F
  0
LAYER
  5
290
100
AcDbSymbolTableRecord
100
AcDbLayerTableRecord
  2
E4_MARK_10000__E4_MARK_10000_32
 70
0
 62
7
  6
CONTINUOUS
370
-3
390
F
  0
LAYER
  5
291
100
AcDbSymbolTableRecord
100
AcDbLayerTableRecord
  2
IGES_SCRITTE
 70
0
 62
7
  6
CONTINUOUS
370
-3
390
F
  0
LAYER
  5
292
100
AcDbSymbolTableRecord
100
AcDbLayerTableRecord
  2
IMPORT_IGES
 70
0
 62
7
  6
CONTINUOUS
370
-3
390
F
  0
LAYER
  5
293
100
AcDbSymbolTableRecord
100
AcDbLayerTableRecord
  2
INDC1711X100L_100000__INDC1711X
 70
0
 62
7
  6
CONTINUOUS
370
-3
390
F
  0
LAYER
  5
294
100
AcDbSymbolTableRecord
100
AcDbLayerTableRecord
  2
INTF_1
 70
0
 62
7
  6
CONTINUOUS
370
-3
390
F
  0
LAYER
  5
295
100
AcDbSymbolTableRecord
100
AcDbLayerTableRecord
  2
INTF_11
 70
0
 62
7
  6
CONTINUOUS
370
-3
390
F
  0
LAYER
  5
296
100
AcDbSymbolTableRecord
100
AcDbLayerTableRecord
  2
INTF_BLUE
 70
0
 62
7
  6
CONTINUOUS
370
-3
390
F
  0
LAYER
  5
297
100
AcDbSymbolTableRecord
100
AcDbLayerTableRecord
  2
INTF_CYAN
 70
0
 62
7
  6
CONTINUOUS
370
-3
390
F
  0
LAYER
  5
298
100
AcDbSymbolTableRecord
100
AcDbLayerTableRecord
  2
INTF_GREEN
 70
0
 62
7
  6
CONTINUOUS
370
-3
390
F
  0
LAYER
  5
299
100
AcDbSymbolTableRecord
100
AcDbLayerTableRecord
  2
INTF_MAGENTA
 70
0
 62
7
  6
CONTINUOUS
370
-3
390
F
  0
LAYER
  5
29A
100
AcDbSymbolTableRecord
100
AcDbLayerTableRecord
  2
LOGO_RESIST-RESTYLING_10000__LO
 70
0
 62
7
  6
CONTINUOUS
370
-3
390
F
  0
LAYER
  5
29B
100
AcDbSymbolTableRecord
100
AcDbLayerTableRecord
  2
L_SRR0604-RF-VIMAR_480000__L_SR
 70
0
 62
7
  6
CONTINUOUS
370
-3
390
F
  0
LAYER
  5
29C
100
AcDbSymbolTableRecord
100
AcDbLayerTableRecord
  2
MC-406_360000__MC-406_360000_74
 70
0
 62
7
  6
CONTINUOUS
370
-3
390
F
  0
LAYER
  5
29D
100
AcDbSymbolTableRecord
100
AcDbLayerTableRecord
  2
MM2-SWITCH-1-VIMAR_150000__MM2-
 70
0
 62
7
  6
CONTINUOUS
370
-3
390
F
  0
LAYER
  5
29E
100
AcDbSymbolTableRecord
100
AcDbLayerTableRecord
  2
MM3-MPAK-RF-VIMAR_120000-109521
 70
0
 62
7
  6
CONTINUOUS
370
-3
390
F
  0
LAYER
  5
29F
100
AcDbSymbolTableRecord
100
AcDbLayerTableRecord
  2
MM3-MPAK-RF-VIMAR_120000-1095_1
 70
0
 62
7
  6
CONTINUOUS
370
-3
390
F
  0
LAYER
  5
2A0
100
AcDbSymbolTableRecord
100
AcDbLayerTableRecord
  2
MM3-MPAK-RF-VIMAR_120000-1095_2
 70
0
 62
7
  6
CONTINUOUS
370
-3
390
F
  0
LAYER
  5
2A1
100
AcDbSymbolTableRecord
100
AcDbLayerTableRecord
  2
MM3-MPAK-RF-VIMAR_120000-1095_3
 70
0
 62
7
  6
CONTINUOUS
370
-3
390
F
  0
LAYER
  5
2A2
100
AcDbSymbolTableRecord
100
AcDbLayerTableRecord
  2
MM3-MPAK-RF-VIMAR_120000-1095_4
 70
0
 62
7
  6
CONTINUOUS
370
-3
390
F
  0
LAYER
  5
2A3
100
AcDbSymbolTableRecord
100
AcDbLayerTableRecord
  2
MM3-MPAK-RF-VIMAR_120000-1095_5
 70
0
 62
7
  6
CONTINUOUS
370
-3
390
F
  0
LAYER
  5
2A4
100
AcDbSymbolTableRecord
100
AcDbLayerTableRecord
  2
MM3-MPAK-RF-VIMAR_120000-1095_6
 70
0
 62
7
  6
CONTINUOUS
370
-3
390
F
  0
LAYER
  5
2A5
100
AcDbSymbolTableRecord
100
AcDbLayerTableRecord
  2
MM3-MPAK-RF-VIMAR_120000-1095_7
 70
0
 62
7
  6
CONTINUOUS
370
-3
390
F
  0
LAYER
  5
2A6
100
AcDbSymbolTableRecord
100
AcDbLayerTableRecord
  2
MM3-MPAK-RF-VIMAR_120000-1095_8
 70
0
 62
7
  6
CONTINUOUS
370
-3
390
F
  0
LAYER
  5
2A7
100
AcDbSymbolTableRecord
100
AcDbLayerTableRecord
  2
MM3-MPAK-RF-VIMAR_120000-1095_9
 70
0
 62
7
  6
CONTINUOUS
370
-3
390
F
  0
LAYER
  5
2A8
100
AcDbSymbolTableRecord
100
AcDbLayerTableRecord
  2
MM3-MPAK-RF-VIMAR_120000-109_10
 70
0
 62
7
  6
CONTINUOUS
370
-3
390
F
  0
LAYER
  5
2A9
100
AcDbSymbolTableRecord
100
AcDbLayerTableRecord
  2
MM3-MPAK-RF-VIMAR_120000-109_11
 70
0
 62
7
  6
CONTINUOUS
370
-3
390
F
  0
LAYER
  5
2AA
100
AcDbSymbolTableRecord
100
AcDbLayerTableRecord
  2
MM3-MPAK-RF-VIMAR_120000-109_12
 70
0
 62
7
  6
CONTINUOUS
370
-3
390
F
  0
LAYER
  5
2AB
100
AcDbSymbolTableRecord
100
AcDbLayerTableRecord
  2
MM3-MPAK-RF-VIMAR_120000-109_13
 70
0
 62
7
  6
CONTINUOUS
370
-3
390
F
  0
LAYER
  5
2AC
100
AcDbSymbolTableRecord
100
AcDbLayerTableRecord
  2
MM3-MPAK-RF-VIMAR_120000-121861
 70
0
 62
7
  6
CONTINUOUS
370
-3
390
F
  0
LAYER
  5
2AD
100
AcDbSymbolTableRecord
100
AcDbLayerTableRecord
  2
MM3-MPAK-RF-VIMAR_120000-1218_1
 70
0
 62
7
  6
CONTINUOUS
370
-3
390
F
  0
LAYER
  5
2AE
100
AcDbSymbolTableRecord
100
AcDbLayerTableRecord
  2
MM3-MPAK-RF-VIMAR_120000-1218_2
 70
0
 62
7
  6
CONTINUOUS
370
-3
390
F
  0
LAYER
  5
2AF
100
AcDbSymbolTableRecord
100
AcDbLayerTableRecord
  2
MM3-SOT-223-RF-VIMAR_180000__MM
 70
0
 62
7
  6
CONTINUOUS
370
-3
390
F
  0
LAYER
  5
2B0
100
AcDbSymbolTableRecord
100
AcDbLayerTableRecord
  2
MM3-SOT-89-RF-VIMAR_150000__MM3
 70
0
 62
7
  6
CONTINUOUS
370
-3
390
F
  0
LAYER
  5
2B1
100
AcDbSymbolTableRecord
100
AcDbLayerTableRecord
  2
MM4-X-7-VIMAR_130000__MM4-X-7-V
 70
0
 62
7
  6
CONTINUOUS
370
-3
390
F
  0
LAYER
  5
2B2
100
AcDbSymbolTableRecord
100
AcDbLayerTableRecord
  2
MM5-FMT-RF_120000__MM5-F-111658
 70
0
 62
7
  6
CONTINUOUS
370
-3
390
F
  0
LAYER
  5
2B3
100
AcDbSymbolTableRecord
100
AcDbLayerTableRecord
  2
MM5-FMT-RF_120000__MM5-F-120835
 70
0
 62
7
  6
CONTINUOUS
370
-3
390
F
  0
LAYER
  5
2B4
100
AcDbSymbolTableRecord
100
AcDbLayerTableRecord
  2
MSOP8-T1-RF-VIMAR_86000__MSOP8-
 70
0
 62
7
  6
CONTINUOUS
370
-3
390
F
  0
LAYER
  5
2B5
100
AcDbSymbolTableRecord
100
AcDbLayerTableRecord
  2
NO-PB_MARK_10000__NO-PB_-108041
 70
0
 62
7
  6
CONTINUOUS
370
-3
390
F
  0
LAYER
  5
2B6
100
AcDbSymbolTableRecord
100
AcDbLayerTableRecord
  2
NO-PB_MARK_10000__NO-PB_-119383
 70
0
 62
7
  6
CONTINUOUS
370
-3
390
F
  0
LAYER
  5
2B7
100
AcDbSymbolTableRecord
100
AcDbLayerTableRecord
  2
NOTE
 70
0
 62
7
  6
CONTINUOUS
370
-3
390
F
  0
LAYER
  5
2B8
100
AcDbSymbolTableRecord
100
AcDbLayerTableRecord
  2
PIANI
 70
0
 62
7
  6
CONTINUOUS
370
-3
390
F
  0
LAYER
  5
2B9
100
AcDbSymbolTableRecord
100
AcDbLayerTableRecord
  2
PIANI_DI_RIFERIMENTO
 70
0
 62
7
  6
CONTINUOUS
370
-3
390
F
  0
LAYER
  5
2BA
100
AcDbSymbolTableRecord
100
AcDbLayerTableRecord
  2
PIANI_ORIGINE
 70
0
 62
7
  6
CONTINUOUS
370
-3
390
F
  0
LAYER
  5
2BB
100
AcDbSymbolTableRecord
100
AcDbLayerTableRecord
  2
PIANI_RIFERIMENTO
 70
0
 62
7
  6
CONTINUOUS
370
-3
390
F
  0
LAYER
  5
2BC
100
AcDbSymbolTableRecord
100
AcDbLayerTableRecord
  2
PUBLISHED_GEOMETRY
 70
0
 62
7
  6
CONTINUOUS
370
-3
390
F
  0
LAYER
  5
2BD
100
AcDbSymbolTableRecord
100
AcDbLayerTableRecord
  2
PUNTI
 70
0
 62
7
  6
CONTINUOUS
370
-3
390
F
  0
LAYER
  5
2BE
100
AcDbSymbolTableRecord
100
AcDbLayerTableRecord
  2
RACCORDO
 70
0
 62
7
  6
CONTINUOUS
370
-3
390
F
  0
LAYER
  5
2BF
100
AcDbSymbolTableRecord
100
AcDbLayerTableRecord
  2
RD-C25-NTC-1-VIMAR_1800000__RD-
 70
0
 62
7
  6
CONTINUOUS
370
-3
390
F
  0
LAYER
  5
2C0
100
AcDbSymbolTableRecord
100
AcDbLayerTableRecord
  2
RESC1608N_45000__RESC160-112651
 70
0
 62
7
  6
CONTINUOUS
370
-3
390
F
  0
LAYER
  5
2C1
100
AcDbSymbolTableRecord
100
AcDbLayerTableRecord
  2
RESC1608N_45000__RESC160-1126_1
 70
0
 62
7
  6
CONTINUOUS
370
-3
390
F
  0
LAYER
  5
2C2
100
AcDbSymbolTableRecord
100
AcDbLayerTableRecord
  2
RESC1608N_45000__RESC160-1126_2
 70
0
 62
7
  6
CONTINUOUS
370
-3
390
F
  0
LAYER
  5
2C3
100
AcDbSymbolTableRecord
100
AcDbLayerTableRecord
  2
RESC1608N_45000__RESC160-1126_3
 70
0
 62
7
  6
CONTINUOUS
370
-3
390
F
  0
LAYER
  5
2C4
100
AcDbSymbolTableRecord
100
AcDbLayerTableRecord
  2
RESC1608N_45000__RESC160-1126_4
 70
0
 62
7
  6
CONTINUOUS
370
-3
390
F
  0
LAYER
  5
2C5
100
AcDbSymbolTableRecord
100
AcDbLayerTableRecord
  2
RESC1608N_45000__RESC160-1126_5
 70
0
 62
7
  6
CONTINUOUS
370
-3
390
F
  0
LAYER
  5
2C6
100
AcDbSymbolTableRecord
100
AcDbLayerTableRecord
  2
RESC1608N_45000__RESC160-1126_6
 70
0
 62
7
  6
CONTINUOUS
370
-3
390
F
  0
LAYER
  5
2C7
100
AcDbSymbolTableRecord
100
AcDbLayerTableRecord
  2
RESC1608N_45000__RESC160-1126_7
 70
0
 62
7
  6
CONTINUOUS
370
-3
390
F
  0
LAYER
  5
2C8
100
AcDbSymbolTableRecord
100
AcDbLayerTableRecord
  2
RESC1608N_45000__RESC160-1126_8
 70
0
 62
7
  6
CONTINUOUS
370
-3
390
F
  0
LAYER
  5
2C9
100
AcDbSymbolTableRecord
100
AcDbLayerTableRecord
  2
RESC1608N_45000__RESC160-1126_9
 70
0
 62
7
  6
CONTINUOUS
370
-3
390
F
  0
LAYER
  5
2CA
100
AcDbSymbolTableRecord
100
AcDbLayerTableRecord
  2
RESC1608N_45000__RESC160-112_10
 70
0
 62
7
  6
CONTINUOUS
370
-3
390
F
  0
LAYER
  5
2CB
100
AcDbSymbolTableRecord
100
AcDbLayerTableRecord
  2
RESC1608N_45000__RESC160-112_11
 70
0
 62
7
  6
CONTINUOUS
370
-3
390
F
  0
LAYER
  5
2CC
100
AcDbSymbolTableRecord
100
AcDbLayerTableRecord
  2
RESC1608N_45000__RESC160-112_12
 70
0
 62
7
  6
CONTINUOUS
370
-3
390
F
  0
LAYER
  5
2CD
100
AcDbSymbolTableRecord
100
AcDbLayerTableRecord
  2
RESC1608N_45000__RESC160-112_13
 70
0
 62
7
  6
CONTINUOUS
370
-3
390
F
  0
LAYER
  5
2CE
100
AcDbSymbolTableRecord
100
AcDbLayerTableRecord
  2
RESC1608N_45000__RESC160-112_14
 70
0
 62
7
  6
CONTINUOUS
370
-3
390
F
  0
LAYER
  5
2CF
100
AcDbSymbolTableRecord
100
AcDbLayerTableRecord
  2
RESC1608N_45000__RESC160-112_15
 70
0
 62
7
  6
CONTINUOUS
370
-3
390
F
  0
LAYER
  5
2D0
100
AcDbSymbolTableRecord
100
AcDbLayerTableRecord
  2
RESC1608N_45000__RESC160-112_16
 70
0
 62
7
  6
CONTINUOUS
370
-3
390
F
  0
LAYER
  5
2D1
100
AcDbSymbolTableRecord
100
AcDbLayerTableRecord
  2
RESC1608N_45000__RESC160-112_17
 70
0
 62
7
  6
CONTINUOUS
370
-3
390
F
  0
LAYER
  5
2D2
100
AcDbSymbolTableRecord
100
AcDbLayerTableRecord
  2
RESC1608N_45000__RESC160-112_18
 70
0
 62
7
  6
CONTINUOUS
370
-3
390
F
  0
LAYER
  5
2D3
100
AcDbSymbolTableRecord
100
AcDbLayerTableRecord
  2
RESC1608N_45000__RESC160-112_19
 70
0
 62
7
  6
CONTINUOUS
370
-3
390
F
  0
LAYER
  5
2D4
100
AcDbSymbolTableRecord
100
AcDbLayerTableRecord
  2
RESC1608N_45000__RESC160-112_20
 70
0
 62
7
  6
CONTINUOUS
370
-3
390
F
  0
LAYER
  5
2D5
100
AcDbSymbolTableRecord
100
AcDbLayerTableRecord
  2
RESC1608N_45000__RESC160-112_21
 70
0
 62
7
  6
CONTINUOUS
370
-3
390
F
  0
LAYER
  5
2D6
100
AcDbSymbolTableRecord
100
AcDbLayerTableRecord
  2
RESC1608N_45000__RESC160-112_22
 70
0
 62
7
  6
CONTINUOUS
370
-3
390
F
  0
LAYER
  5
2D7
100
AcDbSymbolTableRecord
100
AcDbLayerTableRecord
  2
RESC1608N_45000__RESC160-112_23
 70
0
 62
7
  6
CONTINUOUS
370
-3
390
F
  0
LAYER
  5
2D8
100
AcDbSymbolTableRecord
100
AcDbLayerTableRecord
  2
RESC1608N_45000__RESC160-112_24
 70
0
 62
7
  6
CONTINUOUS
370
-3
390
F
  0
LAYER
  5
2D9
100
AcDbSymbolTableRecord
100
AcDbLayerTableRecord
  2
RESC1608N_45000__RESC160-112_25
 70
0
 62
7
  6
CONTINUOUS
370
-3
390
F
  0
LAYER
  5
2DA
100
AcDbSymbolTableRecord
100
AcDbLayerTableRecord
  2
RESC1608N_45000__RESC160-112_26
 70
0
 62
7
  6
CONTINUOUS
370
-3
390
F
  0
LAYER
  5
2DB
100
AcDbSymbolTableRecord
100
AcDbLayerTableRecord
  2
RESC1608N_45000__RESC160-121327
 70
0
 62
7
  6
CONTINUOUS
370
-3
390
F
  0
LAYER
  5
2DC
100
AcDbSymbolTableRecord
100
AcDbLayerTableRecord
  2
RESC1608N_45000__RESC160-1213_1
 70
0
 62
7
  6
CONTINUOUS
370
-3
390
F
  0
LAYER
  5
2DD
100
AcDbSymbolTableRecord
100
AcDbLayerTableRecord
  2
RESC1608N_45000__RESC160-1213_2
 70
0
 62
7
  6
CONTINUOUS
370
-3
390
F
  0
LAYER
  5
2DE
100
AcDbSymbolTableRecord
100
AcDbLayerTableRecord
  2
RESC1608N_45000__RESC160-1213_3
 70
0
 62
7
  6
CONTINUOUS
370
-3
390
F
  0
LAYER
  5
2DF
100
AcDbSymbolTableRecord
100
AcDbLayerTableRecord
  2
RESC1608N_45000__RESC160-1213_4
 70
0
 62
7
  6
CONTINUOUS
370
-3
390
F
  0
LAYER
  5
2E0
100
AcDbSymbolTableRecord
100
AcDbLayerTableRecord
  2
RESC1608N_45000__RESC160-1213_5
 70
0
 62
7
  6
CONTINUOUS
370
-3
390
F
  0
LAYER
  5
2E1
100
AcDbSymbolTableRecord
100
AcDbLayerTableRecord
  2
RESC1608N_45000__RESC160-1213_6
 70
0
 62
7
  6
CONTINUOUS
370
-3
390
F
  0
LAYER
  5
2E2
100
AcDbSymbolTableRecord
100
AcDbLayerTableRecord
  2
RESC1608N_45000__RESC160-1213_7
 70
0
 62
7
  6
CONTINUOUS
370
-3
390
F
  0
LAYER
  5
2E3
100
AcDbSymbolTableRecord
100
AcDbLayerTableRecord
  2
RESC1608N_45000__RESC160-1213_8
 70
0
 62
7
  6
CONTINUOUS
370
-3
390
F
  0
LAYER
  5
2E4
100
AcDbSymbolTableRecord
100
AcDbLayerTableRecord
  2
RESC1608N_45000__RESC160-1213_9
 70
0
 62
7
  6
CONTINUOUS
370
-3
390
F
  0
LAYER
  5
2E5
100
AcDbSymbolTableRecord
100
AcDbLayerTableRecord
  2
RESC1608N_45000__RESC160-121_10
 70
0
 62
7
  6
CONTINUOUS
370
-3
390
F
  0
LAYER
  5
2E6
100
AcDbSymbolTableRecord
100
AcDbLayerTableRecord
  2
RESC1608N_45000__RESC160-121_11
 70
0
 62
7
  6
CONTINUOUS
370
-3
390
F
  0
LAYER
  5
2E7
100
AcDbSymbolTableRecord
100
AcDbLayerTableRecord
  2
RESC1608N_45000__RESC160-121_12
 70
0
 62
7
  6
CONTINUOUS
370
-3
390
F
  0
LAYER
  5
2E8
100
AcDbSymbolTableRecord
100
AcDbLayerTableRecord
  2
RESC1608N_45000__RESC160-121_13
 70
0
 62
7
  6
CONTINUOUS
370
-3
390
F
  0
LAYER
  5
2E9
100
AcDbSymbolTableRecord
100
AcDbLayerTableRecord
  2
RESC1608N_45000__RESC160-121_14
 70
0
 62
7
  6
CONTINUOUS
370
-3
390
F
  0
LAYER
  5
2EA
100
AcDbSymbolTableRecord
100
AcDbLayerTableRecord
  2
RESC1608N_45000__RESC160-121_15
 70
0
 62
7
  6
CONTINUOUS
370
-3
390
F
  0
LAYER
  5
2EB
100
AcDbSymbolTableRecord
100
AcDbLayerTableRecord
  2
RESC1608N_45000__RESC160-121_16
 70
0
 62
7
  6
CONTINUOUS
370
-3
390
F
  0
LAYER
  5
2EC
100
AcDbSymbolTableRecord
100
AcDbLayerTableRecord
  2
SMUSSO
 70
0
 62
7
  6
CONTINUOUS
370
-3
390
F
  0
LAYER
  5
2ED
100
AcDbSymbolTableRecord
100
AcDbLayerTableRecord
  2
SOP8-T1-RF-FINE-VIMAR_150000__S
 70
0
 62
7
  6
CONTINUOUS
370
-3
390
F
  0
LAYER
  5
2EE
100
AcDbSymbolTableRecord
100
AcDbLayerTableRecord
  2
SUPERFICI
 70
0
 62
7
  6
CONTINUOUS
370
-3
390
F
  0
LAYER
  5
2EF
100
AcDbSymbolTableRecord
100
AcDbLayerTableRecord
  2
TQFP48-F1-RF-VIMAR_160000__TQFP
 70
0
 62
7
  6
CONTINUOUS
370
-3
390
F
  0
LAYER
  5
2F0
100
AcDbSymbolTableRecord
100
AcDbLayerTableRecord
  2
TRASH
 70
0
 62
7
  6
CONTINUOUS
370
-3
390
F
  0
LAYER
  5
2F1
100
AcDbSymbolTableRecord
100
AcDbLayerTableRecord
  2
XSEC_DATUMS
 70
0
 62
7
  6
CONTINUOUS
370
-3
390
F
  0
LAYER
  5
2F2
100
AcDbSymbolTableRecord
100
AcDbLayerTableRecord
  2
___SHELL
 70
0
 62
7
  6
CONTINUOUS
370
-3
390
F
  0
ENDTAB
  0
TABLE
  2
STYLE
  5
3
100
AcDbSymbolTable
 70
1
  0
STYLE
  5
11
100
AcDbSymbolTableRecord
100
AcDbTextStyleTableRecord
  2
STANDARD
 70
0
 40
0.0
 41
0.8
 50
0.0
 71
0
 42
0.2
  3
txt
  4

  0
STYLE
  5
2F3
100
AcDbSymbolTableRecord
100
AcDbTextStyleTableRecord
  2
TEXTSTYLE_1
 70
0
 40
0.0
 41
0.8
 50
0.0
 71
0
 42
0.2
  3
gdt
  4

  0
ENDTAB
  0
TABLE
  2
VIEW
  5
6
100
AcDbSymbolTable
 70
0
  0
ENDTAB
  0
TABLE
  2
UCS
  5
7
100
AcDbSymbolTable
 70
0
  0
ENDTAB
  0
TABLE
  2
APPID
  5
9
100
AcDbSymbolTable
 70
1
  0
APPID
  5
2F4
100
AcDbSymbolTableRecord
100
AcDbRegAppTableRecord
  2
ACAD
 70
0
  0
ENDTAB
  0
TABLE
  2
BLOCK_RECORD
  5
1
100
AcDbSymbolTable
 70
0
  0
BLOCK_RECORD
  5
2F5
100
AcDbSymbolTableRecord
100
AcDbBlockTableRecord
  2
*Model_Space
  0
BLOCK_RECORD
  5
2F6
100
AcDbSymbolTableRecord
100
AcDbBlockTableRecord
  2
*Paper_Space
  0
ENDTAB
  0
TABLE
  2
DIMSTYLE
  5
A
100
AcDbSymbolTable
 70
1
100
AcDbDimStyleTable
 71
0
  0
DIMSTYLE
105
2F7
100
AcDbSymbolTableRecord
100
AcDbDimStyleTableRecord
  2
STANDARD
 70
0
  3

  4

 40
1.0
 41
3.0
 42
0.5
 43
0.38
 44
1.5
 45
0.0
 46
0.0
 47
0.01
 48
0.01
140
3.0
141
0.09
142
0.0
143
25.4
144
1.0
145
0.0
146
1.0
147
0.625
 71
1.0
 72
0.0
 73
0
 74
0
 75
0
 76
0
 77
1
 78
8
170
0
171
2
172
0
173
0
174
0
175
0
176
0
177
0
178
0
270
2
271
2
272
2
273
2
274
2
275
0
280
0
281
0
282
0
283
1
284
8
285
0
286
0
287
3
288
0
340
11
278
44
  0
ENDTAB
  0
ENDSEC
  0
SECTION
  2
BLOCKS
  0
BLOCK
  5
20
100
AcDbEntity
  8
0
100
AcDbBlockBegin
  2
*Model_Space
 70
0
 10
0.0
 20
0.0
 30
0.0
  3
*Model_Space
  1

  0
ENDBLK
  5
21
100
AcDbEntity
  8
0
100
AcDbBlockEnd
  0
BLOCK
  5
1C
100
AcDbEntity
  8
0
100
AcDbBlockBegin
  2
*Paper_Space
 70
0
 10
0.0
 20
0.0
 30
0.0
  3
*Paper_Space
  1

  0
ENDBLK
  5
1D
100
AcDbEntity
  8
0
100
AcDbBlockEnd
  0
ENDSEC
  0
SECTION
  2
ENTITIES
  0
LWPOLYLINE
  5
2F8
100
AcDbEntity
  8
RACCORDO
100
AcDbPolyline
 62
253
  6
CONTINUOUS
 90
25
 70
0
 10
101.8402890502
 20
82.4240173893
 10
101.8115255303
 20
82.4394834482
 10
101.7842574712
 20
82.456274563
 10
101.7578785299
 20
82.4746905015
 10
101.7324216785
 20
82.4947082944
 10
101.7079188154
 20
82.516302957
 10
101.6843994684
 20
82.5394481795
 10
101.6618929633
 20
82.5641152567
 10
101.6404275914
 20
82.5902734138
 10
101.6200294133
 20
82.617890408
 10
101.6007239581
 20
82.6469318097
 10
101.5825353381
 20
82.677361595
 10
101.5654854276
 20
82.7091424885
 10
101.5495955292
 20
82.742235011
 10
101.5348855432
 20
82.7765981213
 10
101.5213731095
 20
82.8121898315
 10
101.509074978
 20
82.8489664764
 10
101.4980067725
 20
82.8868820752
 10
101.4881821055
 20
82.9258889333
 10
101.4796133244
 20
82.9659377798
 10
101.4723108998
 20
83.006979797
 10
101.4662833445
 20
83.0489660995
 10
101.4615381296
 20
83.0918454496
 10
101.4580814898
 20
83.135564183
 10
101.455917845
 20
83.1800682492
  0
LWPOLYLINE
  5
2F9
100
AcDbEntity
  8
RACCORDO
100
AcDbPolyline
 62
253
  6
CONTINUOUS
 90
31
 70
0
 10
120.8705866523
 20
74.9412232986
 10
120.8800446705
 20
74.936734765
 10
120.8899579075
 20
74.9324989187
 10
120.9002993927
 20
74.928527284
 10
120.9110409903
 20
74.9248306664
 10
120.922153476
 20
74.9214191233
 10
120.9336066163
 20
74.9183019363
 10
120.9453692511
 20
74.9154875862
 10
120.9574093782
 20
74.91298373
 10
120.9696942402
 20
74.9107971798
 10
120.9821904143
 20
74.9089338844
 10
120.9948639023
 20
74.9073989134
 10
121.007680224
 20
74.9061964428
 10
121.0206045104
 20
74.9053297442
 10
121.0336015987
 20
74.9048011756
 10
121.0466361281
 20
74.9046121751
 10
121.0596726361
 20
74.9047632567
 10
121.0726756546
 20
74.9052540096
 10
121.0856098067
 20
74.9060830985
 10
121.0984399028
 20
74.9072482678
 10
121.1111310365
 20
74.9087463474
 10
121.1236486793
 20
74.9105732615
 10
121.135958775
 20
74.9127240397
 10
121.1480278319
 20
74.9151928304
 10
121.1598230139
 20
74.917972917
 10
121.1713122303
 20
74.9210567356
 10
121.1824642228
 20
74.9244358962
 10
121.1932486505
 20
74.9281012054
 10
121.2036361725
 20
74.9320426908
 10
121.2135985277
 20
74.9362496292
 10
121.223108612
 20
74.9407105747
  0
LWPOLYLINE
  5
2FA
100
AcDbEntity
  8
RACCORDO
100
AcDbPolyline
 62
253
  6
CONTINUOUS
 90
31
 70
0
 10
120.8705866523
 20
75.2811972327
 10
120.8800446705
 20
75.2767086991
 10
120.8899579075
 20
75.2724728528
 10
120.9002993927
 20
75.2685012181
 10
120.9110409903
 20
75.2648046006
 10
120.922153476
 20
75.2613930575
 10
120.9336066163
 20
75.2582758704
 10
120.9453692511
 20
75.2554615204
 10
120.9574093782
 20
75.2529576641
 10
120.9696942402
 20
75.2507711139
 10
120.9821904143
 20
75.2489078186
 10
120.9948639023
 20
75.2473728475
 10
121.007680224
 20
75.246170377
 10
121.0206045104
 20
75.2453036784
 10
121.0336015987
 20
75.2447751098
 10
121.0466361281
 20
75.2445861092
 10
121.0596726361
 20
75.2447371909
 10
121.0726756546
 20
75.2452279438
 10
121.0856098067
 20
75.2460570327
 10
121.0984399028
 20
75.2472222019
 10
121.1111310365
 20
75.2487202815
 10
121.1236486793
 20
75.2505471956
 10
121.135958775
 20
75.2526979738
 10
121.1480278319
 20
75.2551667646
 10
121.1598230139
 20
75.2579468511
 10
121.1713122303
 20
75.2610306697
 10
121.1824642228
 20
75.2644098304
 10
121.1932486505
 20
75.2680751395
 10
121.2036361725
 20
75.272016625
 10
121.2135985277
 20
75.2762235633
 10
121.223108612
 20
75.2806845088
  0
LWPOLYLINE
  5
2FB
100
AcDbEntity
  8
RACCORDO
100
AcDbPolyline
 62
7
  6
CONTINUOUS
 90
19
 70
0
 10
120.9355600213
 20
74.8060048122
 10
120.9442105291
 20
74.8018848449
 10
120.9560468342
 20
74.796885854
 10
120.9681453327
 20
74.7924945737
 10
120.9804768679
 20
74.7887253684
 10
120.9930079462
 20
74.7855921996
 10
121.0057095892
 20
74.7831061404
 10
121.0185495138
 20
74.7812776715
 10
121.0314927561
 20
74.7801159061
 10
121.0445054059
 20
74.7796279824
 10
121.0575522726
 20
74.7798193609
 10
121.0705977946
 20
74.7806936668
 10
121.0836068287
 20
74.7822527772
 10
121.0965451364
 20
74.7844970778
 10
121.1093742491
 20
74.7874244292
 10
121.1220525987
 20
74.7910293422
 10
121.1345436097
 20
74.7953050054
 10
121.1468117076
 20
74.8002428957
 10
121.1568470768
 20
74.8048599765
  0
LWPOLYLINE
  5
2FC
100
AcDbEntity
  8
RACCORDO
100
AcDbPolyline
 62
7
  6
CONTINUOUS
 90
24
 70
0
 10
116.688090236
 20
75.000116814
 10
116.7102774936
 20
74.9894049573
 10
116.742488875
 20
74.9751789648
 10
116.7753803239
 20
74.962194153
 10
116.8089224614
 20
74.9504773866
 10
116.8431067862
 20
74.9400491658
 10
116.8778938702
 20
74.9309397736
 10
116.9132410536
 20
74.923176576
 10
116.9491378555
 20
74.9167794552
 10
116.9855463149
 20
74.9117746634
 10
117.0224207906
 20
74.9081870368
 10
117.0597431874
 20
74.906036167
 10
117.0974709806
 20
74.9053434177
 10
117.135564599
 20
74.906128589
 10
117.1740157939
 20
74.9084117641
 10
117.2127845084
 20
74.9122110042
 10
117.2518327877
 20
74.9175433958
 10
117.2911614002
 20
74.9244328346
 10
117.3307379102
 20
74.9328991367
 10
117.370524006
 20
74.9429592926
 10
117.4105180069
 20
74.9546411249
 10
117.4506975212
 20
74.9679694677
 10
117.4910129326
 20
74.9829579259
 10
117.5184911948
 20
74.9941093713
  0
LINE
  5
2FD
100
AcDbEntity
  8
RACCORDO
100
AcDbLine
 62
7
  6
CONTINUOUS
 10
101.8402890502
 20
82.4240173893
 11
116.6881756294
 21
75.0000740997
  0
LINE
  5
2FE
100
AcDbEntity
  8
RACCORDO
100
AcDbLine
 62
7
  6
CONTINUOUS
 10
116.6880878123
 20
75.0001180175
 11
116.6881752994
 21
75.0000742647
  0
LINE
  5
2FF
100
AcDbEntity
  8
RACCORDO
100
AcDbLine
 62
253
  6
CONTINUOUS
 10
101.455917845
 20
83.1800682492
 11
116.2946615694
 21
75.760696387
  0
LINE
  5
300
100
AcDbEntity
  8
RACCORDO
100
AcDbLine
 62
7
  6
CONTINUOUS
 10
119.6105752689
 20
75.4684971884
 11
120.9355599488
 21
74.8060048485
  0
LINE
  5
301
100
AcDbEntity
  8
RACCORDO
100
AcDbLine
 62
253
  6
CONTINUOUS
 10
119.5456019725
 20
75.6037156385
 11
120.8705866523
 21
74.9412232986
  0
LINE
  5
302
100
AcDbEntity
  8
RACCORDO
100
AcDbLine
 62
253
  6
CONTINUOUS
 10
120.8705866523
 20
75.2811972327
 11
119.6528927144
 21
75.8900442017
  0
LWPOLYLINE
  5
303
100
AcDbEntity
  8
RACCORDO
100
AcDbPolyline
 62
253
  6
CONTINUOUS
 90
16
 70
0
 10
119.5456019725
 20
75.6037156385
 10
119.5366249053
 20
75.6084446476
 10
119.5281532127
 20
75.6134012661
 10
119.5202099433
 20
75.6185720087
 10
119.5128167083
 20
75.6239428074
 10
119.5059936221
 20
75.6294990503
 10
119.499759248
 20
75.6352256205
 10
119.4941305478
 20
75.6411069379
 10
119.4891228354
 20
75.6471270014
 10
119.4847497349
 20
75.6532694324
 10
119.4810231443
 20
75.6595175194
 10
119.4779532022
 20
75.6658542635
 10
119.4755482611
 20
75.6722624243
 10
119.4738148639
 20
75.6787245675
 10
119.4727577267
 20
75.6852231116
 10
119.4723786678
 20
75.6921039861
  0
LWPOLYLINE
  5
304
100
AcDbEntity
  8
RACCORDO
100
AcDbPolyline
 62
253
  6
CONTINUOUS
 90
17
 70
0
 10
101.3125688289
 20
83.3502931801
 10
101.3138644081
 20
83.3382262624
 10
101.3162415971
 20
83.3262310944
 10
101.3196951298
 20
83.3143342491
 10
101.3242173555
 20
83.3025620818
 10
101.329798256
 20
83.2909406713
 10
101.3364254679
 20
83.2794957629
 10
101.3440843099
 20
83.2682527105
 10
101.3527578153
 20
83.2572364211
 10
101.3624267695
 20
83.246471299
 10
101.3730697528
 20
83.2359811925
 10
101.3846631876
 20
83.2257893405
 10
101.3971813909
 20
83.2159183209
 10
101.4105966309
 20
83.2063900013
 10
101.4248791887
 20
83.1972254898
 10
101.439997424
 20
83.1884450887
 10
101.4559178451
 20
83.1800682493
  0
LWPOLYLINE
  5
305
100
AcDbEntity
  8
RACCORDO
100
AcDbPolyline
 62
7
  6
CONTINUOUS
 90
27
 70
0
 10
101.3123833793
 20
83.3541638375
 10
101.3141347063
 20
83.3162474121
 10
101.3180182725
 20
83.2653895432
 10
101.3236180893
 20
83.2154273153
 10
101.330925837
 20
83.1663666248
 10
101.3399252
 20
83.118265881
 10
101.3505837279
 20
83.0712416099
 10
101.3628814875
 20
83.0253171331
 10
101.3767960468
 20
82.9805259682
 10
101.3922702632
 20
82.9369967783
 10
101.4092700476
 20
82.8947563701
 10
101.4277596386
 20
82.8538323521
 10
101.4476519959
 20
82.8143499802
 10
101.4688778498
 20
82.7763626595
 10
101.4913979502
 20
82.7398612704
 10
101.5151501321
 20
82.7048776689
 10
101.5400507032
 20
82.6714638038
 10
101.5660557645
 20
82.6396077935
 10
101.5931629304
 20
82.6092594993
 10
101.6213088557
 20
82.5804482492
 10
101.6504319363
 20
82.5531941196
 10
101.6805423459
 20
82.527453968
 10
101.7115766776
 20
82.5032578984
 10
101.7434731266
 20
82.480629768
 10
101.7762535836
 20
82.4595360641
 10
101.8098862055
 20
82.4399895149
 10
101.8404198703
 20
82.4239520074
  0
LWPOLYLINE
  5
306
100
AcDbEntity
  8
RACCORDO
100
AcDbPolyline
 62
253
  6
CONTINUOUS
 90
22
 70
0
 10
101.455917845
 20
83.1800682492
 10
101.4026113235
 20
84.8476083846
 10
101.3546331011
 20
86.5181545422
 10
101.3119839272
 20
88.1916810744
 10
101.2746644765
 20
89.8681622805
 10
101.242675323
 20
91.5475724312
 10
101.2160169399
 20
93.2298857694
 10
101.194689739
 20
94.915076474
 10
101.1786940579
 20
96.603118672
 10
101.1680301332
 20
98.2939864631
 10
101.1626981271
 20
99.9876538921
 10
101.1626981271
 20
101.6840949632
 10
101.1680301332
 20
103.3832836523
 10
101.1786940579
 20
105.0851938848
 10
101.194689739
 20
106.7897995346
 10
101.2160169399
 20
108.4970744385
 10
101.242675323
 20
110.2069923949
 10
101.2746644765
 20
111.919527162
 10
101.3119839272
 20
113.6346524572
 10
101.3546331011
 20
115.35234196
 10
101.4026113235
 20
117.0725693122
 10
101.455917845
 20
118.7953081168
  0
LWPOLYLINE
  5
307
100
AcDbEntity
  8
RACCORDO
100
AcDbPolyline
 62
253
  6
CONTINUOUS
 90
18
 70
0
 10
101.3123649761
 20
118.9668423912
 10
101.3125690146
 20
118.9556770044
 10
101.3138645996
 20
118.9447264871
 10
101.3162417938
 20
118.9337897598
 10
101.3196953309
 20
118.9228910506
 10
101.3242175603
 20
118.9120545037
 10
101.3297984638
 20
118.9013041254
 10
101.336425678
 20
118.890663731
 10
101.3440845215
 20
118.8801568924
 10
101.3527580277
 20
118.8698068855
 10
101.3624269821
 20
118.8596366387
 10
101.3730699648
 20
118.8496686823
 10
101.3846633983
 20
118.8399250985
 10
101.3971815997
 20
118.8304274722
 10
101.4105968372
 20
118.8211968438
 10
101.4248793919
 20
118.8122536619
 10
101.4399976235
 20
118.8036177384
 10
101.4559180403
 20
118.7953082046
  0
LWPOLYLINE
  5
308
100
AcDbEntity
  8
RACCORDO
100
AcDbPolyline
 62
7
  6
CONTINUOUS
 90
22
 70
0
 10
101.3123650706
 20
118.966850795
 10
101.2594097276
 20
117.256002976
 10
101.2113670916
 20
115.5346456694
 10
101.1686607155
 20
113.8158234255
 10
101.1312914238
 20
112.0995658475
 10
101.0992597556
 20
110.38589865
 10
101.0725661778
 20
108.6748459897
 10
101.0512111498
 20
106.9664332916
 10
101.0351949976
 20
105.2606869512
 10
101.0245180079
 20
103.5576325892
 10
101.0191804359
 20
101.8572960073
 10
101.019182373
 20
100.1597038067
 10
101.0245238602
 20
98.4648828052
 10
101.0352048876
 20
96.772859554
 10
101.0512252815
 20
95.0836596316
 10
101.0725848374
 20
93.3973083961
 10
101.099283311
 20
91.7138319451
 10
101.1313203245
 20
90.0332552669
 10
101.1686954936
 20
88.3556020646
 10
101.2114083608
 20
86.6808975403
 10
101.2594581831
 20
85.009170498
 10
101.3123833196
 20
83.3541622715
  0
LWPOLYLINE
  5
309
100
AcDbEntity
  8
RACCORDO
100
AcDbPolyline
 62
253
  6
CONTINUOUS
 90
43
 70
0
 10
101.455917845
 20
118.7953081168
 10
101.4580814762
 20
118.8420272915
 10
101.4615380947
 20
118.8892846708
 10
101.4662832861
 20
118.937021787
 10
101.4723108248
 20
118.9851789806
 10
101.4796132431
 20
119.0336973078
 10
101.4881820198
 20
119.0825186596
 10
101.4980066785
 20
119.1315838373
 10
101.5090748752
 20
119.1808311323
 10
101.5213729964
 20
119.230198256
 10
101.5348854159
 20
119.2796237013
 10
101.5495953849
 20
119.3290469555
 10
101.5654852694
 20
119.3784071161
 10
101.5825351739
 20
119.4276433558
 10
101.6007237933
 20
119.4766947785
 10
101.6200292469
 20
119.5255006166
 10
101.6404274199
 20
119.5740008263
 10
101.6618927847
 20
119.6221353567
 10
101.6843992814
 20
119.6698440111
 10
101.7079186173
 20
119.7170678096
 10
101.7324214673
 20
119.7637486353
 10
101.757878308
 20
119.8098285001
 10
101.7842572439
 20
119.8552506066
 10
101.8115253006
 20
119.899958927
 10
101.8396496186
 20
119.9438978459
 10
101.868595064
 20
119.9870133564
 10
101.8983253618
 20
120.0292521582
 10
101.9288043887
 20
120.0705612441
 10
101.9599938417
 20
120.1108896144
 10
101.9918548116
 20
120.1501877468
 10
102.0243489227
 20
120.188406687
 10
102.0574354228
 20
120.2254993434
 10
102.0910729718
 20
120.2614201172
 10
102.12522122
 20
120.2961243484
 10
102.1598377966
 20
120.3295696968
 10
102.1948790249
 20
120.3617145986
 10
102.2303016976
 20
120.3925179679
 10
102.2660606372
 20
120.4219413826
 10
102.3021118661
 20
120.4499494755
 10
102.3384133534
 20
120.4765082274
 10
102.3749207137
 20
120.5015850124
 10
102.4115872251
 20
120.5251488391
 10
102.4483669931
 20
120.5471707037
  0
LINE
  5
30A
100
AcDbEntity
  8
RACCORDO
100
AcDbLine
 62
253
  6
CONTINUOUS
 10
109.4600712384
 20
123.6780988156
 11
109.9883384101
 21
124.3210509714
  0
LINE
  5
30B
100
AcDbEntity
  8
RACCORDO
100
AcDbLine
 62
7
  6
CONTINUOUS
 10
109.4600712384
 20
123.5885683493
 11
110.0036989825
 21
124.2502158048
  0
LWPOLYLINE
  5
30C
100
AcDbEntity
  8
RACCORDO
100
AcDbPolyline
 62
7
  6
CONTINUOUS
 90
30
 70
0
 10
108.5700110557
 20
123.1139442076
 10
108.5621319327
 20
123.1048098043
 10
108.5539116836
 20
123.0958123634
 10
108.5453538224
 20
123.0869733768
 10
108.5364553919
 20
123.0783168469
 10
108.5272289569
 20
123.0698621677
 10
108.5177023826
 20
123.061624275
 10
108.5078821943
 20
123.0536255214
 10
108.497776296
 20
123.0458876446
 10
108.4874155131
 20
123.0384251048
 10
108.4768089918
 20
123.0312603269
 10
108.4659670804
 20
123.0244150216
 10
108.4549233033
 20
123.01790305
 10
108.4436894549
 20
123.0117465309
 10
108.4322785041
 20
123.005966867
 10
108.4207266836
 20
123.0005773435
 10
108.4090485517
 20
122.9955993858
 10
108.3972598202
 20
122.9910536885
 10
108.3853995062
 20
122.9869529033
 10
108.3734850585
 20
122.9833172779
 10
108.3615350452
 20
122.9801662928
 10
108.3495913676
 20
122.9775117566
 10
108.337674518
 20
122.9753721241
 10
108.3258059508
 20
122.9737649867
 10
108.3140303722
 20
122.9727008259
 10
108.3023715517
 20
122.9721955206
 10
108.2908536145
 20
122.9722638867
 10
108.2795232619
 20
122.9729142851
 10
108.2684179995
 20
122.9741576779
 10
108.2575536477
 20
122.9760051733
  0
LWPOLYLINE
  5
30D
100
AcDbEntity
  8
RACCORDO
100
AcDbPolyline
 62
7
  6
CONTINUOUS
 90
37
 70
0
 10
102.2196904482
 20
120.5557686868
 10
102.1879446813
 20
120.5366789216
 10
102.1450200762
 20
120.5089953109
 10
102.1029071217
 20
120.4796811428
 10
102.0616246024
 20
120.4487976592
 10
102.0211818653
 20
120.4163988791
 10
101.9815922516
 20
120.382536562
 10
101.942870718
 20
120.3472624991
 10
101.9050332375
 20
120.3106260648
 10
101.8681047757
 20
120.2726817939
 10
101.832103018
 20
120.2334781651
 10
101.7970478127
 20
120.1930614338
 10
101.7629725556
 20
120.151493437
 10
101.729898725
 20
120.1088224788
 10
101.6978490147
 20
120.0650940634
 10
101.6668608249
 20
120.0203765148
 10
101.6369583163
 20
119.9747182765
 10
101.6081657101
 20
119.9281663005
 10
101.5805216156
 20
119.8807930202
 10
101.5540514203
 20
119.8326468686
 10
101.5287801127
 20
119.7837771783
 10
101.5047468582
 20
119.7342598796
 10
101.4819770493
 20
119.6841443295
 10
101.4604957246
 20
119.6334804611
 10
101.4403406567
 20
119.5823449472
 10
101.4215361471
 20
119.5307870261
 10
101.4041080332
 20
119.478856477
 10
101.3880912007
 20
119.4266284841
 10
101.3735097307
 20
119.3741511003
 10
101.3603905514
 20
119.3214724794
 10
101.3487648869
 20
119.2686625204
 10
101.3386586263
 20
119.2157686047
 10
101.3301001801
 20
119.1628372575
 10
101.3231191517
 20
119.1099260357
 10
101.3177455863
 20
119.0570796142
 10
101.31401011
 20
119.004343562
 10
101.3123649761
 20
118.9668423912
  0
LINE
  5
30E
100
AcDbEntity
  8
RACCORDO
100
AcDbLine
 62
7
  6
CONTINUOUS
 10
102.2196800265
 20
120.555762749
 11
106.8110534577
 21
123.2329539969
  0
LINE
  5
30F
100
AcDbEntity
  8
RACCORDO
100
AcDbLine
 62
253
  6
CONTINUOUS
 10
106.8110534577
 20
123.091016504
 11
102.4483669931
 21
120.5471707037
  0
LWPOLYLINE
  5
310
100
AcDbEntity
  8
RACCORDO
100
AcDbPolyline
 62
253
  6
CONTINUOUS
 90
17
 70
0
 10
102.2196903879
 20
120.5557687902
 10
102.2220895155
 20
120.5571420664
 10
102.2344732573
 20
120.563464791
 10
102.2473820043
 20
120.5688123009
 10
102.2607865482
 20
120.5731724963
 10
102.2746565586
 20
120.5765355116
 10
102.288960652
 20
120.5788937371
 10
102.3036664627
 20
120.580241837
 10
102.318740716
 20
120.580576761
 10
102.3341493037
 20
120.5798977513
 10
102.3498573608
 20
120.5782063441
 10
102.3658293449
 20
120.5755063668
 10
102.3820291164
 20
120.5718039283
 10
102.3984200203
 20
120.5671074063
 10
102.4149649691
 20
120.5614274275
 10
102.4316265267
 20
120.5547768439
 10
102.4483669931
 20
120.5471707037
  0
LWPOLYLINE
  5
311
100
AcDbEntity
  8
RACCORDO
100
AcDbPolyline
 62
7
  6
CONTINUOUS
 90
22
 70
0
 10
106.2439463979
 20
124.5762515184
 10
106.2324193937
 20
124.5699500103
 10
106.2211942071
 20
124.5630221883
 10
106.210313536
 20
124.5554851869
 10
106.1998142843
 20
124.5473561157
 10
106.1897409639
 20
124.5386623983
 10
106.1801431773
 20
124.5294437327
 10
106.1710932337
 20
124.5197766379
 10
106.162577425
 20
124.509655911
 10
106.1545299059
 20
124.4989884065
 10
106.1469525205
 20
124.4877307936
 10
106.1399411536
 20
124.4759786924
 10
106.1335745492
 20
124.4638426014
 10
106.1278886098
 20
124.4513901718
 10
106.1228915002
 20
124.4386416038
 10
106.1186005127
 20
124.4256406484
 10
106.1150304843
 20
124.4124359744
 10
106.1121902699
 20
124.3990680113
 10
106.1100844115
 20
124.3855618527
 10
106.1087188272
 20
124.371945944
 10
106.1081002534
 20
124.3582730318
 10
106.1080605037
 20
124.3538214727
  0
LINE
  5
312
100
AcDbEntity
  8
RACCORDO
100
AcDbLine
 62
7
  6
CONTINUOUS
 10
107.8271180929
 20
125.3884485657
 11
106.2439463979
 21
124.5762515184
  0
LINE
  5
313
100
AcDbEntity
  8
RACCORDO
100
AcDbLine
 62
253
  6
CONTINUOUS
 10
107.9397886672
 20
125.3817876406
 11
106.3570320641
 21
124.5698035433
  0
LINE
  5
314
100
AcDbEntity
  8
RACCORDO
100
AcDbLine
 62
253
  6
CONTINUOUS
 10
109.2832975347
 20
124.7100332069
 11
107.6820167439
 21
123.9073112034
  0
LINE
  5
315
100
AcDbEntity
  8
RACCORDO
100
AcDbLine
 62
7
  6
CONTINUOUS
 10
107.8288564784
 20
125.3893177985
 11
107.8271200666
 21
125.3884495783
  0
LINE
  5
316
100
AcDbEntity
  8
RACCORDO
100
AcDbLine
 62
253
  6
CONTINUOUS
 10
109.8115647065
 20
124.9734720269
 11
109.2832975347
 21
124.7100332069
  0
LINE
  5
317
100
AcDbEntity
  8
RACCORDO
100
AcDbLine
 62
7
  6
CONTINUOUS
 10
108.3637264348
 20
125.6498698982
 11
107.828859244
 21
125.3893191457
  0
LINE
  5
318
100
AcDbEntity
  8
RACCORDO
100
AcDbLine
 62
253
  6
CONTINUOUS
 10
108.4742385459
 20
125.6421351072
 11
107.9397886672
 21
125.3817876406
  0
LINE
  5
319
100
AcDbEntity
  8
RACCORDO
100
AcDbLine
 62
253
  6
CONTINUOUS
 10
123.3526565746
 20
76.3392877498
 11
122.8243894028
 21
76.4477900268
  0
LINE
  5
31A
100
AcDbEntity
  8
RACCORDO
100
AcDbLine
 62
253
  6
CONTINUOUS
 10
123.2632427792
 20
76.6588545558
 11
122.8243894028
 21
76.7489918825
  0
LWPOLYLINE
  5
31B
100
AcDbEntity
  8
RACCORDO
100
AcDbPolyline
 62
7
  6
CONTINUOUS
 90
34
 70
0
 10
121.9343292201
 20
76.132180986
 10
121.9264357577
 20
76.1338966342
 10
121.9181883774
 20
76.1357640579
 10
121.9095987104
 20
76.1377924325
 10
121.9006804072
 20
76.1400017527
 10
121.8914461068
 20
76.1423897999
 10
121.8819071269
 20
76.1449323467
 10
121.8720790458
 20
76.1476384956
 10
121.8619779406
 20
76.1505159989
 10
121.8516168347
 20
76.1535386965
 10
121.8410140859
 20
76.156715022
 10
121.8301884941
 20
76.160052154
 10
121.8191547566
 20
76.1635221812
 10
121.8079340083
 20
76.1671327267
 10
121.796547878
 20
76.1708902247
 10
121.7850129322
 20
76.1747651401
 10
121.7733531016
 20
76.178764092
 10
121.7615929597
 20
76.1828925834
 10
121.7497513485
 20
76.1871195515
 10
121.7378550142
 20
76.1914503307
 10
121.7259315735
 20
76.1958892812
 10
121.7140026966
 20
76.2004039332
 10
121.7020979354
 20
76.204997939
 10
121.6902479575
 20
76.2096742696
 10
121.6784778093
 20
76.2143993006
 10
121.6668198104
 20
76.2191744545
 10
121.6553074366
 20
76.2240010458
 10
121.6439692375
 20
76.2288448763
 10
121.6328284449
 20
76.2337079047
 10
121.6219332106
 20
76.23858668
 10
121.6113478888
 20
76.2434355175
 10
121.6011147561
 20
76.2482339591
 10
121.591257021
 20
76.252989291
 10
121.5818072604
 20
76.2576937098
  0
LWPOLYLINE
  5
31C
100
AcDbEntity
  8
RACCORDO
100
AcDbPolyline
 62
253
  6
CONTINUOUS
 90
5
 70
0
 10
123.2866515045
 20
76.6507703423
 10
123.2850778051
 20
76.6515387574
 10
123.2780501052
 20
76.6545449629
 10
123.2707657236
 20
76.6569855858
 10
123.2632427792
 20
76.6588545558
  0
LINE
  5
31D
100
AcDbEntity
  8
RACCORDO
100
AcDbLine
 62
253
  6
CONTINUOUS
 10
120.958975
 20
75.5128914065
 11
119.9528498045
 21
76.0159540043
  0
LINE
  5
31E
100
AcDbEntity
  8
RACCORDO
100
AcDbLine
 62
7
  6
CONTINUOUS
 10
121.1012136645
 20
76.4979905078
 11
121.5812930321
 21
76.257950824
  0
LINE
  5
31F
100
AcDbEntity
  8
RACCORDO
100
AcDbLine
 62
253
  6
CONTINUOUS
 10
122.8243894028
 20
76.878281244
 11
123.2632427792
 21
76.6588545558
  0
LINE
  5
320
100
AcDbEntity
  8
RACCORDO
100
AcDbLine
 62
7
  6
CONTINUOUS
 10
122.8243894028
 20
76.8819013935
 11
123.2866578304
 21
76.6507671797
  0
LWPOLYLINE
  5
321
100
AcDbEntity
  8
0
100
AcDbPolyline
 62
253
  6
CONTINUOUS
 90
13
 70
0
 10
109.3023736486
 20
85.2045820298
 10
109.3567784454
 20
85.1529230116
 10
109.4085596139
 20
85.10051572
 10
109.4576831375
 20
85.047394583
 10
109.5041167457
 20
84.9935944971
 10
109.5478299351
 20
84.9391508051
 10
109.5887939892
 20
84.8840992725
 10
109.6269819977
 20
84.8284760641
 10
109.6623688739
 20
84.7723177203
 10
109.6949313711
 20
84.7156611331
 10
109.7246480983
 20
84.6585435216
 10
109.7514995336
 20
84.6010024079
 10
109.7754680377
 20
84.5430755924
  0
LWPOLYLINE
  5
322
100
AcDbEntity
  8
0
100
AcDbPolyline
 62
253
  6
CONTINUOUS
 90
200
 70
0
 10
104.3057844692
 20
99.2636529256
 10
104.3061079345
 20
99.3367913929
 10
104.3074358572
 20
99.4110323744
 10
104.3097689127
 20
99.4863762053
 10
104.3131257349
 20
99.563531408
 10
104.3174893
 20
99.6417902591
 10
104.3228058457
 20
99.71902825
 10
104.3291628167
 20
99.7950971877
 10
104.3364722369
 20
99.870144995
 10
104.344415427
 20
99.9424904463
 10
104.3530180522
 20
100.0118273315
 10
104.3622523368
 20
100.0784608052
 10
104.371718289
 20
100.1416261165
 10
104.3813450649
 20
100.200870713
 10
104.3912008867
 20
100.25664584
 10
104.401094241
 20
100.3095423834
 10
104.410986638
 20
100.3595365725
 10
104.420914737
 20
100.4066512665
 10
104.4308001702
 20
100.4515475065
 10
104.4406150826
 20
100.4942372068
 10
104.4503860973
 20
100.5347078403
 10
104.4601169497
 20
100.5735839774
 10
104.4697854937
 20
100.610877496
 10
104.4794130935
 20
100.6465761295
 10
104.4890690742
 20
100.6812683922
 10
104.4987370392
 20
100.7149701249
 10
104.5084329493
 20
100.74766527
 10
104.5182749429
 20
100.7798946327
 10
104.5282727186
 20
100.811737591
 10
104.5384164251
 20
100.8431146906
 10
104.5487950753
 20
100.8743285868
 10
104.5594394972
 20
100.9054860404
 10
104.5703188598
 20
100.9364802886
 10
104.5814297558
 20
100.9672937346
 10
104.592778325
 20
100.9979393954
 10
104.6043584022
 20
101.0284042409
 10
104.6161481054
 20
101.058631595
 10
104.6281478036
 20
101.0886174102
 10
104.6403570726
 20
101.1183657062
 10
104.6527528152
 20
101.1478318958
 10
104.6652796204
 20
101.1768997951
 10
104.677992804
 20
101.2056855403
 10
104.6910354228
 20
101.2344930558
 10
104.7043533742
 20
101.263248526
 10
104.7180008205
 20
101.2920257955
 10
104.7322834261
 20
101.3213503827
 10
104.7471824739
 20
101.3512454024
 10
104.76271704
 20
101.3816879165
 10
104.7792497578
 20
101.4131345013
 10
104.796809286
 20
101.4456948307
 10
104.8153676664
 20
101.4792595757
 10
104.835202828
 20
101.5139569166
 10
104.8564262659
 20
101.5499901264
 10
104.878927433
 20
101.5871563985
 10
104.9026511469
 20
101.6249747705
 10
104.9276170682
 20
101.6634451066
 10
104.9538062478
 20
101.7025678916
 10
104.9811053076
 20
101.7418629555
 10
105.0094176069
 20
101.7811872195
 10
105.0388401785
 20
101.8206839538
 10
105.0695500136
 20
101.8603024419
 10
105.1014852959
 20
101.9000011918
 10
105.1347082971
 20
101.9398219175
 10
105.1695822373
 20
101.9798387592
 10
105.2063047607
 20
102.020272802
 10
105.2446789525
 20
102.0609033168
 10
105.2844760488
 20
102.1011416515
 10
105.3258685056
 20
102.1410642539
 10
105.3686841144
 20
102.1805947952
 10
105.4121764765
 20
102.2189151449
 10
105.456148905
 20
102.255780798
 10
105.5007974277
 20
102.2914359341
 10
105.5459642671
 20
102.3257952295
 10
105.5915400914
 20
102.3587835437
 10
105.6376335494
 20
102.3904756808
 10
105.6844138596
 20
102.4210112465
 10
105.7319473912
 20
102.4504477936
 10
105.7801673041
 20
102.4787275372
 10
105.8290430629
 20
102.5058171059
 10
105.878592505
 20
102.5317197307
 10
105.9287973013
 20
102.5564319388
 10
105.9795726358
 20
102.5799102875
 10
106.0308995616
 20
102.602141749
 10
106.0827965078
 20
102.6231390971
 10
106.1352347014
 20
102.6428975811
 10
106.1882125749
 20
102.661419398
 10
106.2417312035
 20
102.6787021097
 10
106.2957657761
 20
102.6947340117
 10
106.350321433
 20
102.709514955
 10
106.4053925624
 20
102.723044858
 10
106.46093822
 20
102.7353121144
 10
106.5169596796
 20
102.74631393
 10
106.5734552148
 20
102.7560528781
 10
106.6303793772
 20
102.7645254017
 10
106.6877312962
 20
102.7717315951
 10
106.7455114153
 20
102.7776711557
 10
106.803676256
 20
102.7823399313
 10
106.8622195705
 20
102.7857370129
 10
106.9211472073
 20
102.7878631147
 10
106.9804338352
 20
102.7887165209
 10
107.0400774327
 20
102.7882968489
 10
107.1000796568
 20
102.7866043036
 10
107.1604206995
 20
102.7836380528
 10
107.2211272601
 20
102.7793946473
 10
107.2821723129
 20
102.7738773773
 10
107.3434554653
 20
102.7670955216
 10
107.4049527755
 20
102.7590489017
 10
107.4666878878
 20
102.7497375514
 10
107.5286317935
 20
102.7391710696
 10
107.5905407288
 20
102.7274217127
 10
107.6526582006
 20
102.7144170996
 10
107.7156861312
 20
102.6999498845
 10
107.7795258921
 20
102.6841148576
 10
107.8442759291
 20
102.6668171401
 10
107.9109337988
 20
102.6475648946
 10
107.9795118918
 20
102.6264418302
 10
108.0499976707
 20
102.6033641666
 10
108.1233512912
 20
102.5775888279
 10
108.2001064696
 20
102.5489517508
 10
108.2797293488
 20
102.5176169303
 10
108.3615786941
 20
102.4833333631
 10
108.4462390692
 20
102.4457191996
 10
108.5331257929
 20
102.4051562323
 10
108.6198437601
 20
102.3625389192
 10
108.7063692559
 20
102.3176516808
 10
108.7927260061
 20
102.2707101019
 10
108.8765900923
 20
102.2232553995
 10
108.9572871657
 20
102.1755691489
 10
109.035491702
 20
102.1273698365
 10
109.1109030106
 20
102.0793540417
 10
109.1830925776
 20
102.0318425471
 10
109.2524890589
 20
101.9845146391
 10
109.3200774877
 20
101.9371046389
 10
109.3858548763
 20
101.8897022423
 10
109.4498243618
 20
101.8422178261
 10
109.5129801598
 20
101.7941167297
 10
109.5754520283
 20
101.7453665734
 10
109.6371104008
 20
101.6959998299
 10
109.6985605312
 20
101.6455791299
 10
109.7600268184
 20
101.5939413755
 10
109.8212851287
 20
101.5412497934
 10
109.8822679398
 20
101.4875565122
 10
109.9429818125
 20
101.432852108
 10
110.0034204877
 20
101.3771461513
 10
110.0634972173
 20
101.3205192638
 10
110.1231896837
 20
101.2629915459
 10
110.1825205362
 20
101.2045430585
 10
110.2414704796
 20
101.1451943651
 10
110.3000425645
 20
101.0849419789
 10
110.3582341099
 20
101.0237895666
 10
110.4160172282
 20
100.9617684239
 10
110.4733964522
 20
100.8988740049
 10
110.5303676516
 20
100.8351110517
 10
110.586889947
 20
100.7705247936
 10
110.6429636894
 20
100.7051153242
 10
110.698588958
 20
100.6388827598
 10
110.7537244648
 20
100.5718723626
 10
110.808369117
 20
100.5040827786
 10
110.8625244635
 20
100.4355155847
 10
110.9161531751
 20
100.3662204391
 10
110.9692516861
 20
100.2962015344
 10
111.0218240374
 20
100.2254549106
 10
111.0738443047
 20
100.154017994
 10
111.1253156503
 20
100.0818890985
 10
111.1762354077
 20
100.0090701533
 10
111.2265689054
 20
99.9356040055
 10
111.2763314407
 20
99.8614631147
 10
111.3255082333
 20
99.7866752749
 10
111.3740194707
 20
99.7113663241
 10
111.4218414159
 20
99.6355695368
 10
111.4689982946
 20
99.5592518786
 10
111.5154822142
 20
99.4824397126
 10
111.5612425284
 20
99.4052342933
 10
111.6063303715
 20
99.3275346065
 10
111.6508905844
 20
99.2490636427
 10
111.6950452461
 20
99.1696030457
 10
111.7386729704
 20
99.0893715129
 10
111.7815533847
 20
99.0087476076
 10
111.8238235429
 20
98.927396162
 10
111.8653469654
 20
98.8456526276
 10
111.9054925339
 20
98.7649012785
 10
111.9440925045
 20
98.6854046155
 10
111.9813143807
 20
98.6069000222
 10
112.0170293754
 20
98.5299838313
 10
112.051107345
 20
98.454936972
 10
112.0836778437
 20
98.3814782278
 10
112.1150014966
 20
98.3093606473
 10
112.1451421622
 20
98.2384527326
 10
112.1740355556
 20
98.1688857739
 10
112.201750072
 20
98.1008069951
 10
112.2283446952
 20
98.0340500563
 10
112.2537599304
 20
97.9687810476
 10
112.2778862317
 20
97.9056457284
 10
112.3006839294
 20
97.8447214589
 10
112.322191846
 20
97.7859304629
 10
112.3424179062
 20
97.7296856637
 10
112.3612496377
 20
97.6763274633
 10
112.3787985053
 20
97.6255149638
 10
112.3954083609
 20
97.5766391483
 10
112.4110711048
 20
97.5297896231
  0
LWPOLYLINE
  5
323
100
AcDbEntity
  8
0
100
AcDbPolyline
 62
253
  6
CONTINUOUS
 90
48
 70
0
 10
112.4110711048
 20
97.5297896231
 10
112.4257941706
 20
97.484876454
 10
112.4399449775
 20
97.4410214453
 10
112.4535452284
 20
97.3982215136
 10
112.4665729052
 20
97.3564795871
 10
112.4793301405
 20
97.3149266331
 10
112.4918855991
 20
97.2733794749
 10
112.5041706155
 20
97.2320212893
 10
112.5162815223
 20
97.1905326704
 10
112.5282621564
 20
97.1487705413
 10
112.540068785
 20
97.1068780307
 10
112.5516664215
 20
97.0649650581
 10
112.5630519754
 20
97.0230352787
 10
112.5742285888
 20
96.9810850633
 10
112.5851705881
 20
96.9392133866
 10
112.5958693031
 20
96.8974493731
 10
112.6063334175
 20
96.8557639056
 10
112.616563269
 20
96.8141685869
 10
112.6265268371
 20
96.7728131826
 10
112.6362561361
 20
96.7315479246
 10
112.6458476331
 20
96.6899351533
 10
112.6552997943
 20
96.6480316966
 10
112.66461432
 20
96.6057808096
 10
112.6738927272
 20
96.5625745723
 10
112.6831505344
 20
96.5184117225
 10
112.6923726509
 20
96.473293735
 10
112.7016149378
 20
96.4266169238
 10
112.7108975484
 20
96.3783738976
 10
112.720201077
 20
96.3285724194
 10
112.7295223467
 20
96.2766316834
 10
112.7388859001
 20
96.2225447152
 10
112.7482683557
 20
96.1663190668
 10
112.7575950111
 20
96.1073959014
 10
112.7669029602
 20
96.0457033959
 10
112.7761568325
 20
95.9813142316
 10
112.7851736115
 20
95.9138865197
 10
112.794015664
 20
95.8429250732
 10
112.8026230456
 20
95.7689262869
 10
112.8106291266
 20
95.6930355727
 10
112.8180053726
 20
95.6150418455
 10
112.8247821964
 20
95.53515713
 10
112.8306803481
 20
95.4551609842
 10
112.8356237984
 20
95.3750225268
 10
112.8396890875
 20
95.294772899
 10
112.8428243041
 20
95.2162839371
 10
112.8450114173
 20
95.1401792254
 10
112.8462671792
 20
95.0658345457
 10
112.8465910546
 20
94.993249633
  0
LWPOLYLINE
  5
324
100
AcDbEntity
  8
0
100
AcDbPolyline
 62
253
  6
CONTINUOUS
 90
200
 70
0
 10
104.369447158
 20
99.2422311046
 10
104.3698654297
 20
99.3144237065
 10
104.371157532
 20
99.3877488379
 10
104.3733819952
 20
99.462183466
 10
104.3766322403
 20
99.5383907074
 10
104.3809537123
 20
99.6156538755
 10
104.3862543321
 20
99.6919205182
 10
104.3925038821
 20
99.7670668875
 10
104.3996881962
 20
99.8411817081
 10
104.4075921631
 20
99.9125919279
 10
104.4161006119
 20
99.9810755501
 10
104.4251590027
 20
100.0469053599
 10
104.4345508688
 20
100.1092319138
 10
104.4441007505
 20
100.1677007094
 10
104.4537743099
 20
100.2228164928
 10
104.4635551613
 20
100.2750388967
 10
104.4733578733
 20
100.3243769121
 10
104.4831185573
 20
100.3709289595
 10
104.4928855213
 20
100.4152630645
 10
104.5026035617
 20
100.4574021298
 10
104.5122234287
 20
100.4973843313
 10
104.5218330358
 20
100.5357737327
 10
104.5313984923
 20
100.5725888011
 10
104.5408881749
 20
100.6078517451
 10
104.5504208526
 20
100.6421118339
 10
104.5599795531
 20
100.6753838036
 10
104.5695454955
 20
100.7076743795
 10
104.5792585056
 20
100.7395019191
 10
104.5891352932
 20
100.7709406116
 10
104.5991493134
 20
100.8019248367
 10
104.6093930772
 20
100.8327499242
 10
104.6199024762
 20
100.8635163623
 10
104.6306447363
 20
100.8941207314
 10
104.6416151867
 20
100.9245471097
 10
104.6528193257
 20
100.9548083322
 10
104.6642528716
 20
100.9848903845
 10
104.6758949509
 20
101.014738489
 10
104.6877429593
 20
101.044348534
 10
104.699797064
 20
101.0737236107
 10
104.7120383693
 20
101.1028215143
 10
104.7244123004
 20
101.1315221826
 10
104.7369660489
 20
101.1599445082
 10
104.749839451
 20
101.1883985951
 10
104.762995806
 20
101.2167887411
 10
104.776478771
 20
101.2451946757
 10
104.7905685233
 20
101.2741684842
 10
104.8052829326
 20
101.3036875904
 10
104.82063889
 20
101.3337257883
 10
104.8369426858
 20
101.3648004572
 10
104.8542754627
 20
101.3969579159
 10
104.8726268249
 20
101.4300677591
 10
104.8921897908
 20
101.4643562025
 10
104.913125532
 20
101.4999595558
 10
104.9353719982
 20
101.5366218957
 10
104.9587876956
 20
101.5739800231
 10
104.9834189748
 20
101.6119903995
 10
105.0093011895
 20
101.6505884503
 10
105.0362544468
 20
101.6894022062
 10
105.0642038994
 20
101.7282436735
 10
105.0932761276
 20
101.7672082616
 10
105.1235859376
 20
101.8063550283
 10
105.1551153782
 20
101.8455625255
 10
105.1879456239
 20
101.8848338854
 10
105.222357985
 20
101.9243885696
 10
105.2585940461
 20
101.9643555679
 10
105.2965105812
 20
102.0044263518
 10
105.3358067516
 20
102.0441677694
 10
105.3766473915
 20
102.0836446241
 10
105.4189313026
 20
102.1226562758
 10
105.4618997291
 20
102.1604591506
 10
105.5053133756
 20
102.1968632015
 10
105.5493884825
 20
102.2320694851
 10
105.5940025317
 20
102.265992417
 10
105.6390189862
 20
102.2985551861
 10
105.6845211757
 20
102.3298451057
 10
105.7307143769
 20
102.360011177
 10
105.7776629734
 20
102.38908663
 10
105.8252717198
 20
102.4170032312
 10
105.8735256887
 20
102.4437473346
 10
105.9224474859
 20
102.4693262014
 10
105.9720171236
 20
102.4937240494
 10
106.0221598782
 20
102.5169031961
 10
106.0728394329
 20
102.538850903
 10
106.1240753332
 20
102.5595805265
 10
106.1758693593
 20
102.5790952346
 10
106.2281970111
 20
102.5973865681
 10
106.2810349116
 20
102.6144466048
 10
106.334388106
 20
102.6302754895
 10
106.3882623396
 20
102.6448718011
 10
106.4426374123
 20
102.6582279599
 10
106.4974838426
 20
102.6703365259
 10
106.5527946872
 20
102.6811970128
 10
106.6085737591
 20
102.6908111226
 10
106.6647994441
 20
102.6991763728
 10
106.7214406222
 20
102.7062899055
 10
106.7784849347
 20
102.7121514832
 10
106.8359275628
 20
102.7167604893
 10
106.8937478237
 20
102.7201140121
 10
106.9519265456
 20
102.7222100976
 10
107.0104682295
 20
102.7230494718
 10
107.0693665014
 20
102.7226321862
 10
107.1286107041
 20
102.720958257
 10
107.1882004367
 20
102.7180272706
 10
107.2481496103
 20
102.7138368443
 10
107.3084228451
 20
102.7083870688
 10
107.3689449627
 20
102.7016846005
 10
107.4296746165
 20
102.693736324
 10
107.4906253613
 20
102.6845425076
 10
107.5518027638
 20
102.674103207
 10
107.6129480739
 20
102.6624718863
 10
107.6742792857
 20
102.6496165524
 10
107.7365206386
 20
102.6353659636
 10
107.7995770302
 20
102.6197027502
 10
107.8635156641
 20
102.6025703149
 10
107.929327776
 20
102.5836303676
 10
107.997039417
 20
102.5627707287
 10
108.0666408395
 20
102.5398870668
 10
108.1390871869
 20
102.5145256304
 10
108.2148765328
 20
102.4863216496
 10
108.2934885806
 20
102.4552732387
 10
108.3743461191
 20
102.4214414555
 10
108.4579849698
 20
102.3844268761
 10
108.5437681233
 20
102.3443299885
 10
108.6293858811
 20
102.3021545406
 10
108.7148137606
 20
102.2579244147
 10
108.8000774542
 20
102.2116381637
 10
108.8829310375
 20
102.1646097646
 10
108.9626555222
 20
102.1174455323
 10
109.039873556
 20
102.069967981
 10
109.1143304063
 20
102.0225022116
 10
109.1856218068
 20
101.9754898697
 10
109.2541551335
 20
101.9288420663
 10
109.3208971342
 20
101.8820327814
 10
109.3858422519
 20
101.8351656059
 10
109.4490145709
 20
101.7883205565
 10
109.5114007827
 20
101.7408315159
 10
109.5730979031
 20
101.6926564962
 10
109.63397959
 20
101.6439254594
 10
109.6946755132
 20
101.5941495411
 10
109.7553856617
 20
101.5431539308
 10
109.815871097
 20
101.491129661
 10
109.8760981122
 20
101.4381047709
 10
109.9360637606
 20
101.3840810448
 10
109.9957445324
 20
101.3290785917
 10
110.0550771475
 20
101.2731562887
 10
110.1140317443
 20
101.2163444883
 10
110.1726194481
 20
101.1586340931
 10
110.2308398047
 20
101.1000261299
 10
110.2886822264
 20
101.0405315063
 10
110.3461410449
 20
100.9801561468
 10
110.4032189166
 20
100.918897655
 10
110.4598945675
 20
100.8567804653
 10
110.5161480827
 20
100.793827742
 10
110.5719760883
 20
100.7300434341
 10
110.6273680952
 20
100.6654381865
 10
110.6822960311
 20
100.6000429531
 10
110.7367409447
 20
100.5338794308
 10
110.7907041662
 20
100.4669456354
 10
110.8441824068
 20
100.3992452261
 10
110.8971530997
 20
100.3308072889
 10
110.9495944922
 20
100.2616624508
 10
111.0015056472
 20
100.1918155684
 10
111.0528949114
 20
100.1212566906
 10
111.1037448377
 20
100.0500089038
 10
111.1540259625
 20
99.9781120556
 10
111.2037299556
 20
99.9055758706
 10
111.2528793582
 20
99.8323642155
 10
111.3014441043
 20
99.7585190554
 10
111.3493518266
 20
99.6841523639
 10
111.3965744923
 20
99.6093145672
 10
111.4431432185
 20
99.5339633773
 10
111.4890656196
 20
99.4580912681
 10
111.5342627451
 20
99.3818353401
 10
111.578781235
 20
99.3051230472
 10
111.622802116
 20
99.2276335514
 10
111.6664262339
 20
99.1491610679
 10
111.7095052049
 20
99.0699454618
 10
111.7518478338
 20
98.990331032
 10
111.7936148948
 20
98.9100086371
 10
111.8346332935
 20
98.829303914
 10
111.8742556016
 20
98.749538666
 10
111.9123766731
 20
98.6710263945
 10
111.9491619457
 20
98.5935273859
 10
111.9844161168
 20
98.5175603205
 10
112.0180553524
 20
98.4434377102
 10
112.0502472728
 20
98.3709209398
 10
112.0811780821
 20
98.2997011325
 10
112.1109372063
 20
98.2296691243
 10
112.1394959564
 20
98.1609887698
 10
112.1668568784
 20
98.0937563234
 10
112.1931202293
 20
98.0278239112
 10
112.2182488239
 20
97.963382698
 10
112.2420543016
 20
97.9010364242
 10
112.2645574241
 20
97.8408700176
 10
112.2858318134
 20
97.7828235074
 10
112.3057892625
 20
97.7272807109
 10
112.3243634872
 20
97.6745861381
 10
112.3417230665
 20
97.624416561
 10
112.3581253031
 20
97.5761523576
 10
112.3735746575
 20
97.5298866536
  0
LWPOLYLINE
  5
325
100
AcDbEntity
  8
0
100
AcDbPolyline
 62
253
  6
CONTINUOUS
 90
48
 70
0
 10
112.3735746575
 20
97.5298866536
 10
112.38813226
 20
97.4855402573
 10
112.4021126622
 20
97.4422323147
 10
112.4155328138
 20
97.3999640743
 10
112.4284059129
 20
97.3587471273
 10
112.4410131367
 20
97.317712654
 10
112.4534107612
 20
97.2766828297
 10
112.4655440969
 20
97.235844006
 10
112.4775097915
 20
97.1948725316
 10
112.4893451817
 20
97.1536299026
 10
112.5010049229
 20
97.1122631824
 10
112.512458379
 20
97.0708764654
 10
112.5237045011
 20
97.0294717273
 10
112.5347430983
 20
96.988047874
 10
112.5455486185
 20
96.9467017801
 10
112.5561148647
 20
96.9054618142
 10
112.5664503527
 20
96.8642994385
 10
112.5765532951
 20
96.8232260568
 10
112.5863894595
 20
96.7823902073
 10
112.595996978
 20
96.7416430784
 10
112.6054760456
 20
96.7005504726
 10
112.6148075857
 20
96.659173198
 10
112.6239995169
 20
96.6174538492
 10
112.6331756564
 20
96.5747833208
 10
112.6423183054
 20
96.5311719477
 10
112.6514107832
 20
96.4866236883
 10
112.6605569825
 20
96.4405235581
 10
112.6697270033
 20
96.3928821951
 10
112.6788893893
 20
96.3437133182
 10
112.6881208182
 20
96.2924132119
 10
112.6973748024
 20
96.2389982069
 10
112.7066020568
 20
96.1834904526
 10
112.7158467649
 20
96.1253000412
 10
112.7250522781
 20
96.0643797087
 10
112.7341382913
 20
96.0008144981
 10
112.7430845359
 20
95.9342205153
 10
112.75186051
 20
95.8641491575
 10
112.7603077518
 20
95.7911026878
 10
112.7682267035
 20
95.7161349437
 10
112.7755658323
 20
95.6390876509
 10
112.7822290734
 20
95.5602268634
 10
112.7880316829
 20
95.4812303132
 10
112.7929581999
 20
95.4020550953
 10
112.7969826832
 20
95.3228134054
 10
112.8000264511
 20
95.245345568
 10
112.8021237752
 20
95.1702297694
 10
112.8033488824
 20
95.0968180104
 10
112.8037474124
 20
95.0250809773
  0
LWPOLYLINE
  5
326
100
AcDbEntity
  8
RACCORDO
100
AcDbPolyline
 62
253
  6
CONTINUOUS
 90
27
 70
0
 10
107.8587904476
 20
123.2624477304
 10
107.8539064304
 20
123.2504790722
 10
107.848555827
 20
123.2387858681
 10
107.8427532486
 20
123.2274000499
 10
107.836514541
 20
123.2163527097
 10
107.8298567407
 20
123.2056740155
 10
107.8227980287
 20
123.1953931288
 10
107.815357681
 20
123.1855381243
 10
107.8075560155
 20
123.176135914
 10
107.799414337
 20
123.1672121735
 10
107.7909548788
 20
123.1587912716
 10
107.7822007417
 20
123.1508962039
 10
107.7731758316
 20
123.1435485304
 10
107.7639047935
 20
123.1367683158
 10
107.7544129448
 20
123.1305740757
 10
107.7447262056
 20
123.1249827251
 10
107.7348710285
 20
123.1200095329
 10
107.7248743259
 20
123.1156680798
 10
107.7147633966
 20
123.1119702214
 10
107.7045658516
 20
123.1089260558
 10
107.6943095381
 20
123.106543896
 10
107.6840224639
 20
123.1048302471
 10
107.6737327211
 20
123.1037897888
 10
107.6634684086
 20
123.1034253623
 10
107.6532575562
 20
123.1037379628
 10
107.6431280476
 20
123.1047267367
 10
107.6331075443
 20
123.1063889839
  0
LINE
  5
327
100
AcDbEntity
  8
RACCORDO
100
AcDbLine
 62
7
  6
CONTINUOUS
 10
109.4600712384
 20
122.8029930071
 11
108.5700110557
 21
122.3063120858
  0
LINE
  5
328
100
AcDbEntity
  8
RACCORDO
100
AcDbLine
 62
253
  6
CONTINUOUS
 10
109.4600712384
 20
124.4051436681
 11
107.8587904476
 21
123.6024216646
  0
LINE
  5
329
100
AcDbEntity
  8
RACCORDO
100
AcDbLine
 62
253
  6
CONTINUOUS
 10
109.9883384101
 20
124.6685824881
 11
109.4600712384
 21
124.4051436681
  0
LINE
  5
32A
100
AcDbEntity
  8
RACCORDO
100
AcDbLine
 62
7
  6
CONTINUOUS
 10
117.1826543
 20
125.9432970361
 11
110.8681139734
 21
122.7985207316
  0
LWPOLYLINE
  5
32B
100
AcDbEntity
  8
RACCORDO
100
AcDbPolyline
 62
253
  6
CONTINUOUS
 90
26
 70
0
 10
135.9653551385
 20
134.1225806986
 10
135.9802722417
 20
134.1287698742
 10
135.9954650353
 20
134.1343322303
 10
136.0109232384
 20
134.1392640123
 10
136.026636264
 20
134.1435618433
 10
136.0425933481
 20
134.1472227793
 10
136.058783556
 20
134.1502443113
 10
136.0751957937
 20
134.1526243684
 10
136.091818816
 20
134.1543613199
 10
136.108641234
 20
134.1554539757
 10
136.1256515224
 20
134.1559015876
 10
136.1428380267
 20
134.1557038488
 10
136.1601889714
 20
134.1548608948
 10
136.1776924683
 20
134.1533733029
 10
136.1953365242
 20
134.1512420922
 10
136.213109051
 20
134.1484687231
 10
136.2309978731
 20
134.1450550964
 10
136.248990736
 20
134.1410035517
 10
136.2670753099
 20
134.1363168642
 10
136.2852391999
 20
134.1309982429
 10
136.3034700778
 20
134.125051289
 10
136.3217553366
 20
134.1184801116
 10
136.3400820914
 20
134.1112893635
 10
136.3584376647
 20
134.1034840622
 10
136.3768095986
 20
134.0950695452
 10
136.3951853064
 20
134.0860516128
  0
LWPOLYLINE
  5
32C
100
AcDbEntity
  8
DRAFT
100
AcDbPolyline
 62
253
  6
CONTINUOUS
 90
13
 70
0
 10
111.9455081125
 20
83.837013184
 10
111.9234495941
 20
83.8423399146
 10
111.8288620252
 20
83.8637764863
 10
111.733264744
 20
83.8840530399
 10
111.6367093774
 20
83.9031586249
 10
111.5392480696
 20
83.9210829235
 10
111.4409334541
 20
83.9378162559
 10
111.3418186253
 20
83.9533495851
 10
111.2419571097
 20
83.9676745226
 10
111.141402837
 20
83.9807833322
 10
111.0402101111
 20
83.9926689345
 10
110.9384335806
 20
84.0033249109
 10
110.8361282095
 20
84.0127455065
  0
LWPOLYLINE
  5
32D
100
AcDbEntity
  8
DRAFT
100
AcDbPolyline
 62
7
  6
CONTINUOUS
 90
43
 70
0
 10
112.9644548443
 20
84.4989036463
 10
113.00051929
 20
84.4800640582
 10
113.0365683647
 20
84.459628385
 10
113.0725524352
 20
84.4376248805
 10
113.1084312653
 20
84.4140789558
 10
113.1441462095
 20
84.3890275326
 10
113.1796207934
 20
84.3625224373
 10
113.2147927224
 20
84.3346138671
 10
113.2496291044
 20
84.3053339147
 10
113.2840984354
 20
84.2747111815
 10
113.3181325189
 20
84.2428093188
 10
113.3517076427
 20
84.209654331
 10
113.3848559499
 20
84.1752101947
 10
113.4175759997
 20
84.1394661846
 10
113.449770516
 20
84.1025119226
 10
113.4813283201
 20
84.0644627665
 10
113.5122018054
 20
84.0253735883
 10
113.5423522665
 20
83.985296269
 10
113.571690799
 20
83.9443551111
 10
113.6001511264
 20
83.9026599261
 10
113.6277301473
 20
83.8602255787
 10
113.6544351607
 20
83.8170356879
 10
113.6802373276
 20
83.7731327658
 10
113.7050924808
 20
83.7285934326
 10
113.728980198
 20
83.6834487791
 10
113.7518783225
 20
83.6377350326
 10
113.7737390419
 20
83.5915392466
 10
113.794506705
 20
83.544970421
 10
113.8141612523
 20
83.4980768569
 10
113.8326682212
 20
83.4509410372
 10
113.8499634644
 20
83.4037265057
 10
113.8660075803
 20
83.3565710498
 10
113.8808154688
 20
83.30947001
 10
113.8944058393
 20
83.2623734538
 10
113.9067646469
 20
83.2153346036
 10
113.9178701614
 20
83.1684303946
 10
113.9277169494
 20
83.1216471328
 10
113.9362986277
 20
83.0749657482
 10
113.9435791236
 20
83.028539577
 10
113.9495200003
 20
82.9826106265
 10
113.954116475
 20
82.9372981604
 10
113.9573804022
 20
82.8926033895
 10
113.9593164232
 20
82.8485848742
  0
LWPOLYLINE
  5
32E
100
AcDbEntity
  8
DRAFT
100
AcDbPolyline
 62
253
  6
CONTINUOUS
 90
13
 70
0
 10
113.9593164232
 20
82.8485848742
 10
114.0060903668
 20
82.8010195282
 10
114.0506787962
 20
82.7528681008
 10
114.0930576316
 20
82.7041565961
 10
114.1332039865
 20
82.6549113203
 10
114.1710961801
 20
82.6051588683
 10
114.2067137489
 20
82.5549261085
 10
114.2400374578
 20
82.5042401689
 10
114.2710493104
 20
82.4531284222
 10
114.299732559
 20
82.4016184712
 10
114.3260717133
 20
82.3497381334
 10
114.350052549
 20
82.2975154266
 10
114.3716621154
 20
82.2449785536
  0
LWPOLYLINE
  5
32F
100
AcDbEntity
  8
RACCORDO
100
AcDbPolyline
 62
253
  6
CONTINUOUS
 90
19
 70
0
 10
106.1812838081
 20
123.9254527942
 10
106.1815036628
 20
123.9147681377
 10
106.18216268
 20
123.9043299112
 10
106.1832592208
 20
123.8941640787
 10
106.1847905517
 20
123.8842959602
 10
106.186752867
 20
123.8747500655
 10
106.1891413128
 20
123.8655500451
 10
106.1919499829
 20
123.8567187332
 10
106.1951718884
 20
123.8482781761
 10
106.198798986
 20
123.8402494678
 10
106.2028222656
 20
123.8326525569
 10
106.2072317082
 20
123.8255063661
 10
106.2120162447
 20
123.8188288008
 10
106.2171638781
 20
123.8126365235
 10
106.2226618461
 20
123.8069448111
 10
106.2284965798
 20
123.8017676849
 10
106.2346547963
 20
123.7971171698
 10
106.2411200705
 20
123.7930058961
 10
106.2462582552
 20
123.7902337688
  0
LWPOLYLINE
  5
330
100
AcDbEntity
  8
RACCORDO
100
AcDbPolyline
 62
253
  6
CONTINUOUS
 90
64
 70
0
 10
107.4491165358
 20
85.9690534594
 10
107.4501324666
 20
85.9185243703
 10
107.4531781729
 20
85.8671019366
 10
107.4582463862
 20
85.8149132865
 10
107.4653221845
 20
85.7621050608
 10
107.4743896461
 20
85.7087906243
 10
107.4854384637
 20
85.6550482669
 10
107.4984545735
 20
85.6009820729
 10
107.5134064406
 20
85.5467537913
 10
107.5302527072
 20
85.4925290954
 10
107.548962775
 20
85.4384192112
 10
107.5694853185
 20
85.3845839132
 10
107.5917273958
 20
85.3312596245
 10
107.6155963899
 20
85.2786400728
 10
107.6410516061
 20
85.2267887361
 10
107.6680703888
 20
85.1757446144
 10
107.6966056155
 20
85.1256031607
 10
107.7265709775
 20
85.0765221233
 10
107.7578865856
 20
85.0286338609
 10
107.7904745406
 20
84.9820578679
 10
107.8242545597
 20
84.9369092438
 10
107.8591369775
 20
84.8933074588
 10
107.8950283214
 20
84.8513674515
 10
107.9318454767
 20
84.8111844993
 10
107.9695110279
 20
84.7728435897
 10
108.0079233181
 20
84.7364492646
 10
108.0469961723
 20
84.7020842119
 10
108.08667532
 20
84.669802227
 10
108.1269106539
 20
84.6396586268
 10
108.1675577009
 20
84.6117760595
 10
108.2084174677
 20
84.5862917727
 10
108.2493243842
 20
84.5632948901
 10
108.2902386574
 20
84.5427937139
 10
108.3311481797
 20
84.5247942195
 10
108.3720097375
 20
84.5093289857
 10
108.4126612853
 20
84.4964729813
 10
108.4529140205
 20
84.4862859593
 10
108.492613021
 20
84.4787935117
 10
108.5317180796
 20
84.4739894768
 10
108.5702133345
 20
84.4718755524
 10
108.6080512235
 20
84.4724677604
 10
108.6450825496
 20
84.4757774596
 10
108.6811424052
 20
84.481790136
 10
108.7161003359
 20
84.4904705204
 10
108.7499181448
 20
84.501795236
 10
108.7825728875
 20
84.5157561325
 10
108.8140150773
 20
84.5323453918
 10
108.8441250954
 20
84.5515137978
 10
108.8727794321
 20
84.5731832151
 10
108.8998839665
 20
84.5972690696
 10
108.9254035232
 20
84.6237259766
 10
108.9493093332
 20
84.6525231322
 10
108.9715558941
 20
84.6836184163
 10
108.992065061
 20
84.7169163008
 10
109.0107641409
 20
84.7522999538
 10
109.0276063442
 20
84.7896723601
 10
109.0425552451
 20
84.828943158
 10
109.0555694366
 20
84.8699886141
 10
109.0666172762
 20
84.9126792133
 10
109.0756843425
 20
84.956924711
 10
109.0827599775
 20
85.0026562329
 10
109.0878281455
 20
85.0497760408
 10
109.0908738943
 20
85.0981528294
 10
109.0918898658
 20
85.1476667944
  0
LWPOLYLINE
  5
331
100
AcDbEntity
  8
0
100
AcDbPolyline
 62
7
  6
CONTINUOUS
 90
100
 70
0
 10
106.2399341318
 20
86.3108425459
 10
106.2392686543
 20
86.3787345368
 10
106.2403972309
 20
86.4454957962
 10
106.2433197646
 20
86.5111262707
 10
106.2480449179
 20
86.575684601
 10
106.2545638523
 20
86.6391120489
 10
106.2628501454
 20
86.7012324536
 10
106.2729092628
 20
86.7620464437
 10
106.284735402
 20
86.8215532076
 10
106.2982850878
 20
86.8795743437
 10
106.313561095
 20
86.936099694
 10
106.3305601643
 20
86.9911391556
 10
106.3492296308
 20
87.0445443352
 10
106.369574289
 20
87.0963139012
 10
106.3915887501
 20
87.1464488665
 10
106.4152049508
 20
87.1948042883
 10
106.4404295487
 20
87.2413778904
 10
106.4672551916
 20
87.2861715775
 10
106.4955926823
 20
87.3290466166
 10
106.5254373057
 20
87.3699876616
 10
106.556792994
 20
87.4090096407
 10
106.5895834277
 20
87.4460191831
 10
106.6238220075
 20
87.4810222439
 10
106.6594945259
 20
87.5140124383
 10
106.696483173
 20
87.5448778444
 10
106.7347799958
 20
87.5736041893
 10
106.7743921005
 20
87.6002052957
 10
106.8152242013
 20
87.6246113521
 10
106.8572868975
 20
87.6468225381
 10
106.9005687665
 20
87.6668382371
 10
106.9449414474
 20
87.6845874203
 10
106.9904118746
 20
87.7000628457
 10
107.0369723199
 20
87.7132713346
 10
107.0844723952
 20
87.7241629362
 10
107.1329133404
 20
87.7327282489
 10
107.1822931807
 20
87.7389762852
 10
107.2324566909
 20
87.7428847077
 10
107.2834137658
 20
87.744443463
 10
107.3351538676
 20
87.7436622643
 10
107.3874911256
 20
87.740548425
 10
107.4404205784
 20
87.7350922523
 10
107.4939466591
 20
87.7273031597
 10
107.5478976073
 20
87.7172171299
 10
107.6022639288
 20
87.7048304796
 10
107.6570547288
 20
87.6901466867
 10
107.7121261773
 20
87.6732124923
 10
107.7674908564
 20
87.6540179154
 10
107.8231359471
 20
87.6325728119
 10
107.8788795544
 20
87.6089536983
 10
107.9347015792
 20
87.5831654351
 10
107.9906220409
 20
87.5552031198
 10
108.0465192623
 20
87.5251286448
 10
108.1024130868
 20
87.4929270882
 10
108.1582837506
 20
87.458613414
 10
108.2139502055
 20
87.4222943646
 10
108.2693994386
 20
87.3839733595
 10
108.3246446993
 20
87.3436471042
 10
108.3795443685
 20
87.3014122887
 10
108.4341068593
 20
87.2572578124
 10
108.4883241465
 20
87.2111949809
 10
108.5420299846
 20
87.1633541103
 10
108.5952305053
 20
87.11372124
 10
108.6479201046
 20
87.0623106095
 10
108.6999149522
 20
87.0092948453
 10
108.7512075868
 20
86.9546723801
 10
108.8018061137
 20
86.8984451221
 10
108.8515500578
 20
86.8407909127
 10
108.9004399748
 20
86.7816998121
 10
108.9484760465
 20
86.7211821509
 10
108.9954972226
 20
86.6594461686
 10
109.0414960647
 20
86.5964920229
 10
109.0864808072
 20
86.5323199781
 10
109.1303138734
 20
86.4671384149
 10
109.1729833154
 20
86.4009599288
 10
109.2145019044
 20
86.3337723614
 10
109.2547690979
 20
86.2657469386
 10
109.2937920337
 20
86.1968646871
 10
109.3315644181
 20
86.127145029
 10
109.3679654976
 20
86.0568167501
 10
109.402982518
 20
85.9858981862
 10
109.4366290395
 20
85.914371431
 10
109.4688237017
 20
85.8424108659
 10
109.4995712141
 20
85.76999863
 10
109.5288676472
 20
85.6971530006
 10
109.5566185878
 20
85.6241025173
 10
109.5828179382
 20
85.5508507545
 10
109.6074724898
 20
85.4773945088
 10
109.6305070447
 20
85.4039520913
 10
109.651916224
 20
85.3305296731
 10
109.6717059978
 20
85.2571214003
 10
109.6898180684
 20
85.1839274814
 10
109.706250242
 20
85.1109427567
 10
109.7210051963
 20
85.0381726466
 10
109.7340318068
 20
84.9658331582
 10
109.7453254781
 20
84.8939296716
 10
109.7548911505
 20
84.8224569938
 10
109.7626918602
 20
84.7516151963
 10
109.7687153231
 20
84.6814709903
 10
109.7729740142
 20
84.6119577699
 10
109.7754680376
 20
84.5430755923
  0
LINE
  5
332
100
AcDbEntity
  8
RACCORDO
100
AcDbLine
 62
7
  6
CONTINUOUS
 10
106.1080605034
 20
124.353815076
 11
106.1080605034
 21
124.0138411418
  0
LINE
  5
333
100
AcDbEntity
  8
RACCORDO
100
AcDbLine
 62
253
  6
CONTINUOUS
 10
106.1812838081
 20
124.2654267283
 11
106.1812838081
 21
123.9254527942
  0
LINE
  5
334
100
AcDbEntity
  8
RACCORDO
100
AcDbLine
 62
7
  6
CONTINUOUS
 10
106.8110534577
 20
123.053875913
 11
106.8110534577
 21
123.5078361675
  0
LINE
  5
335
100
AcDbEntity
  8
RACCORDO
100
AcDbLine
 62
253
  6
CONTINUOUS
 10
106.8842767624
 20
122.962150371
 11
106.8842767624
 21
123.4712245152
  0
LWPOLYLINE
  5
336
100
AcDbEntity
  8
RACCORDO
100
AcDbPolyline
 62
253
  6
CONTINUOUS
 90
31
 70
0
 10
106.1812838081
 20
124.2654267283
 10
106.1815243893
 20
124.2768386377
 10
106.1822454805
 20
124.2884600944
 10
106.1834451223
 20
124.3002594675
 10
106.1851200548
 20
124.3122046541
 10
106.1872657214
 20
124.3242631292
 10
106.189876276
 20
124.3364020329
 10
106.1929446094
 20
124.3485883151
 10
106.1964623707
 20
124.3607888145
 10
106.2004199799
 20
124.3729703114
 10
106.2048066618
 20
124.385099647
 10
106.2096104749
 20
124.3971438092
 10
106.2148183395
 20
124.4090700112
 10
106.2204160849
 20
124.4208458059
 10
106.2263884665
 20
124.4324391283
 10
106.2327192008
 20
124.4438183805
 10
106.2393910217
 20
124.4549525482
 10
106.24638579
 20
124.4658113798
 10
106.2536845269
 20
124.4763654158
 10
106.2612674695
 20
124.4865860586
 10
106.2691138878
 20
124.4964453474
 10
106.2772021791
 20
124.5059161637
 10
106.2855101469
 20
124.5149725917
 10
106.2940153193
 20
124.5235902083
 10
106.302694782
 20
124.5317458222
 10
106.3115268725
 20
124.5394188707
 10
106.3204856555
 20
124.5465866183
 10
106.3295409924
 20
124.5532255248
 10
106.3386661612
 20
124.5593173222
 10
106.3478381657
 20
124.5648479696
 10
106.3570320641
 20
124.5698035433
  0
LWPOLYLINE
  5
337
100
AcDbEntity
  8
RACCORDO
100
AcDbPolyline
 62
253
  6
CONTINUOUS
 90
31
 70
0
 10
107.5062684879
 20
123.6029343884
 10
107.5065089634
 20
123.6143437643
 10
107.5072297356
 20
123.6259625745
 10
107.5084288435
 20
123.6377592081
 10
107.5101030248
 20
123.6497015704
 10
107.5122477245
 20
123.6617571701
 10
107.5148571076
 20
123.673893208
 10
107.517924075
 20
123.6860766658
 10
107.5214402822
 20
123.6982743965
 10
107.5253961631
 20
123.7104532139
 10
107.5297809547
 20
123.7225799837
 10
107.5345827277
 20
123.7346217129
 10
107.539788418
 20
123.7465456398
 10
107.5453838626
 20
123.7583193234
 10
107.5513538381
 20
123.7699107315
 10
107.5576821023
 20
123.7812883277
 10
107.564351438
 20
123.7924211571
 10
107.5713437001
 20
123.8032789312
 10
107.5786398651
 20
123.8138321095
 10
107.5862200824
 20
123.8240519803
 10
107.5940637288
 20
123.8339107387
 10
107.6021494643
 20
123.8433815622
 10
107.6104552904
 20
123.8524386839
 10
107.6189586095
 20
123.8610574624
 10
107.6276362871
 20
123.8692144488
 10
107.6364647139
 20
123.8768874507
 10
107.6454198708
 20
123.8840555922
 10
107.6544773938
 20
123.8906993714
 10
107.6636126402
 20
123.8968007127
 10
107.6728007562
 20
123.9023430162
 10
107.6820167439
 20
123.9073112034
  0
LINE
  5
338
100
AcDbEntity
  8
RACCORDO
100
AcDbLine
 62
7
  6
CONTINUOUS
 10
111.8288909568
 20
122.4728745938
 11
112.182432346
 21
122.6542480186
  0
LINE
  5
339
100
AcDbEntity
  8
0
100
AcDbLine
 62
7
  6
CONTINUOUS
 10
117.1321798143
 20
122.6740723017
 11
117.8392865955
 21
123.0276256923
  0
LINE
  5
33A
100
AcDbEntity
  8
ASSI
100
AcDbLine
 62
7
  6
CONTINUOUS
 10
118.1241861866
 20
124.9509262668
 11
113.5259352302
 21
122.6845649693
  0
LINE
  5
33B
100
AcDbEntity
  8
DRAFT
100
AcDbLine
 62
7
  6
CONTINUOUS
 10
117.8392865955
 20
123.5801838817
 11
118.1730622181
 21
123.7435042368
  0
LINE
  5
33C
100
AcDbEntity
  8
RACCORDO
100
AcDbLine
 62
7
  6
CONTINUOUS
 10
120.2496202439
 20
124.4098140642
 11
118.1928399861
 21
123.4034071864
  0
LINE
  5
33D
100
AcDbEntity
  8
ASSI
100
AcDbLine
 62
7
  6
CONTINUOUS
 10
112.182432346
 20
122.6542480186
 11
117.5186557519
 21
125.2536914841
  0
LINE
  5
33E
100
AcDbEntity
  8
DRAFT
100
AcDbLine
 62
7
  6
CONTINUOUS
 10
130.3197212834
 20
129.1538188365
 11
138.5206719428
 21
133.1496294498
  0
LWPOLYLINE
  5
33F
100
AcDbEntity
  8
ASSI
100
AcDbPolyline
 62
7
  6
CONTINUOUS
 90
7
 70
0
 10
118.1241861866
 20
124.9509262668
 10
118.132395446
 20
124.9548537519
 10
118.1405794037
 20
124.9585388141
 10
118.1487380598
 20
124.9619814534
 10
118.1568714142
 20
124.9651816698
 10
118.164979467
 20
124.9681394633
 10
118.1730622181
 20
124.9708548339
  0
LINE
  5
340
100
AcDbEntity
  8
RACCORDO
100
AcDbLine
 62
7
  6
CONTINUOUS
 10
138.1102365914
 20
133.2285259703
 11
138.2393172327
 21
133.2903068048
  0
LINE
  5
341
100
AcDbEntity
  8
0
100
AcDbLine
 62
7
  6
CONTINUOUS
 10
137.8857638421
 20
132.7058942234
 11
138.5345006601
 21
133.0163939359
  0
LINE
  5
342
100
AcDbEntity
  8
RACCORDO
100
AcDbLine
 62
7
  6
CONTINUOUS
 10
135.9563005634
 20
134.1184545513
 11
118.1339878298
 21
125.7135012394
  0
LINE
  5
343
100
AcDbEntity
  8
RACCORDO
100
AcDbLine
 62
253
  6
CONTINUOUS
 10
136.3951853064
 20
134.0860516128
 11
118.3803654029
 21
125.5903124528
  0
LWPOLYLINE
  5
344
100
AcDbEntity
  8
RACCORDO
100
AcDbPolyline
 62
7
  6
CONTINUOUS
 90
35
 70
0
 10
135.956300556
 20
134.1184545478
 10
135.9809010754
 20
134.1296522146
 10
136.0057559374
 20
134.1401649194
 10
136.030840808
 20
134.1499863285
 10
136.0561330487
 20
134.1591118532
 10
136.0816065654
 20
134.1675367284
 10
136.107231272
 20
134.1752563393
 10
136.1329421722
 20
134.1822587779
 10
136.1587540295
 20
134.1885560763
 10
136.184758642
 20
134.1941724057
 10
136.2109551426
 20
134.199103997
 10
136.2372998358
 20
134.2033394199
 10
136.2638230395
 20
134.2068794223
 10
136.2905300466
 20
134.2097176469
 10
136.3173698509
 20
134.2118419784
 10
136.3442880093
 20
134.2132441699
 10
136.3712403358
 20
134.2139204197
 10
136.3982224471
 20
134.2138695051
 10
136.4252390351
 20
134.2130887028
 10
136.4522695104
 20
134.2115749308
 10
136.4792848775
 20
134.2093265235
 10
136.506276881
 20
134.206340748
 10
136.5332146354
 20
134.2026175354
 10
136.5600784352
 20
134.1981565197
 10
136.5868761576
 20
134.1929520613
 10
136.6136239443
 20
134.1869938615
 10
136.6402526644
 20
134.1802905424
 10
136.6666443427
 20
134.1728713216
 10
136.6926715268
 20
134.1647807205
 10
136.7184180179
 20
134.156001804
 10
136.7440789069
 20
134.1464628285
 10
136.7697549401
 20
134.1361050877
 10
136.7952812943
 20
134.1249740115
 10
136.8204551091
 20
134.113152383
 10
136.8300623039
 20
134.1084128839
  0
LINE
  5
345
100
AcDbEntity
  8
0
100
AcDbLine
 62
7
  6
CONTINUOUS
 10
138.569762189
 20
133.0320233799
 11
138.5345006601
 21
133.0163939359
  0
LWPOLYLINE
  5
346
100
AcDbEntity
  8
DRAFT
100
AcDbPolyline
 62
7
  6
CONTINUOUS
 90
9
 70
0
 10
112.698566484
 20
84.5870060824
 10
112.731046982
 20
84.5812412195
 10
112.763841848
 20
84.5739455565
 10
112.7969062937
 20
84.5651274196
 10
112.8302047953
 20
84.5547972554
 10
112.8636542945
 20
84.5429863704
 10
112.8971993711
 20
84.5297219252
 10
112.9308131429
 20
84.5150199011
 10
112.9644548444
 20
84.4989036463
  0
LWPOLYLINE
  5
347
100
AcDbEntity
  8
0
100
AcDbPolyline
 62
253
  6
CONTINUOUS
 90
12
 70
0
 10
107.4328837253
 20
86.1148247861
 10
107.3300053423
 20
86.1397928558
 10
107.225657607
 20
86.1634073482
 10
107.1200862335
 20
86.1856097532
 10
107.0133605746
 20
86.2063854853
 10
106.9055507413
 20
86.2257208964
 10
106.7967275566
 20
86.2436032847
 10
106.6869625094
 20
86.2600209026
 10
106.5763277074
 20
86.274962965
 10
106.4648958295
 20
86.288419656
 10
106.3527400782
 20
86.3003821356
 10
106.2399341317
 20
86.3108425454
  0
LWPOLYLINE
  5
348
100
AcDbEntity
  8
RACCORDO
100
AcDbPolyline
 62
253
  6
CONTINUOUS
 90
31
 70
0
 10
121.223108612
 20
75.2806845088
 10
121.2182301122
 20
75.2882972692
 10
121.2128844706
 20
75.2961337343
 10
121.2070858805
 20
75.304172714
 10
121.2008491953
 20
75.3123932031
 10
121.1941916011
 20
75.320772165
 10
121.1871329521
 20
75.3292844579
 10
121.1796932963
 20
75.337905958
 10
121.1718922602
 20
75.3466139713
 10
121.1637509409
 20
75.3553849361
 10
121.1552914054
 20
75.3641950486
 10
121.1465368686
 20
75.3730201031
 10
121.1375114484
 20
75.3818357766
 10
121.128239882
 20
75.3906179105
 10
121.1187474127
 20
75.3993425979
 10
121.1090599444
 20
75.4079860289
 10
121.0992039198
 20
75.4165246083
 10
121.089206274
 20
75.4249349989
 10
121.079094338
 20
75.4331942079
 10
121.06889574
 20
75.4412796696
 10
121.0586383283
 20
75.4491693059
 10
121.0483501203
 20
75.4568415671
 10
121.0380592017
 20
75.4642755079
 10
121.0277936967
 20
75.4714508117
 10
121.0175816908
 20
75.478347849
 10
121.0074511057
 20
75.4849477665
 10
120.9974295799
 20
75.4912325623
 10
120.9875444415
 20
75.4971851001
 10
120.9778226759
 20
75.5027891296
 10
120.9682908506
 20
75.5080293359
 10
120.958975
 20
75.5128914065
  0
LWPOLYLINE
  5
349
100
AcDbEntity
  8
0
100
AcDbPolyline
 62
7
  6
CONTINUOUS
 90
62
 70
0
 10
109.3023736486
 20
85.2045820298
 10
109.300541148
 20
85.2448269501
 10
109.2974965694
 20
85.2856157982
 10
109.2932421245
 20
85.3268922677
 10
109.2877799985
 20
85.3686070438
 10
109.2811169901
 20
85.4106948174
 10
109.2732667947
 20
85.4530737288
 10
109.264242155
 20
85.4956705647
 10
109.2540544971
 20
85.5384398362
 10
109.242718719
 20
85.5813405441
 10
109.2302491259
 20
85.6243182639
 10
109.2166615567
 20
85.6673082989
 10
109.2019740804
 20
85.7102542534
 10
109.1862025765
 20
85.7531014966
 10
109.1693701573
 20
85.7957854967
 10
109.1515088357
 20
85.8382353797
 10
109.1326489678
 20
85.8803804326
 10
109.112810784
 20
85.9221746291
 10
109.0920125744
 20
85.9635844173
 10
109.0702724602
 20
86.0045690132
 10
109.0476264851
 20
86.0450536631
 10
109.0241220922
 20
86.0849551648
 10
108.9997989955
 20
86.1242051304
 10
108.9746841299
 20
86.1627640482
 10
108.9488085021
 20
86.2005939531
 10
108.9222090148
 20
86.2376433147
 10
108.8949196329
 20
86.273860283
 10
108.8669669941
 20
86.3092064786
 10
108.8383796731
 20
86.3436395092
 10
108.8092041714
 20
86.3771030372
 10
108.7794953958
 20
86.4095398478
 10
108.749297064
 20
86.4409040987
 10
108.7186472334
 20
86.4711539615
 10
108.6875943148
 20
86.5002423529
 10
108.6561868594
 20
86.5281249209
 10
108.6244622356
 20
86.5547697941
 10
108.592452705
 20
86.5801505006
 10
108.5601982045
 20
86.6042332918
 10
108.5277463792
 20
86.6269828087
 10
108.4951412118
 20
86.6483710389
 10
108.4624255438
 20
86.6683709702
 10
108.4296459146
 20
86.6869506336
 10
108.396852194
 20
86.7040780713
 10
108.3640895934
 20
86.7197279168
 10
108.3314030883
 20
86.7338811069
 10
108.2988422137
 20
86.7465194772
 10
108.2664540297
 20
86.7576271182
 10
108.2342809572
 20
86.7671883192
 10
108.2023652299
 20
86.7751887517
 10
108.1707544036
 20
86.7816169049
 10
108.139488436
 20
86.7864663519
 10
108.1085979377
 20
86.7897319207
 10
108.0781205179
 20
86.7914081496
 10
108.048104451
 20
86.7914909324
 10
108.0185958162
 20
86.7899792589
 10
107.9896337808
 20
86.786875075
 10
107.9612611592
 20
86.78218174
 10
107.9335273698
 20
86.7759068316
 10
107.9064774713
 20
86.7680631121
 10
107.8801410364
 20
86.7586625582
 10
107.8545428816
 20
86.747715052
 10
107.8429075083
 20
86.7421047666
  0
LWPOLYLINE
  5
34A
100
AcDbEntity
  8
RACCORDO
100
AcDbPolyline
 62
253
  6
CONTINUOUS
 90
31
 70
0
 10
107.8587904476
 20
123.6024216646
 10
107.8584953531
 20
123.6138499037
 10
107.8577191696
 20
123.6254905991
 10
107.8564640222
 20
123.6373118327
 10
107.8547333478
 20
123.649281203
 10
107.8525318899
 20
123.6613658788
 10
107.8498656906
 20
123.6735326888
 10
107.8467420639
 20
123.6857482628
 10
107.8431695744
 20
123.6979791129
 10
107.8391580231
 20
123.71019169
 10
107.8347184129
 20
123.7223525047
 10
107.8298629188
 20
123.7344282143
 10
107.8246048588
 20
123.7463857031
 10
107.8189586461
 20
123.7581921981
 10
107.812939771
 20
123.7698153128
 10
107.8065647648
 20
123.7812231343
 10
107.7998511424
 20
123.7923843408
 10
107.7928172919
 20
123.8032683822
 10
107.7854824401
 20
123.8138455111
 10
107.7778665962
 20
123.8240868532
 10
107.769990733
 20
123.8339641859
 10
107.761876691
 20
123.8434501438
 10
107.7535468991
 20
123.8525185803
 10
107.7450240564
 20
123.8611448557
 10
107.7363312979
 20
123.8693055796
 10
107.72749051
 20
123.8769799999
 10
107.7185278197
 20
123.8841452339
 10
107.7094735145
 20
123.8907776374
 10
107.7003544699
 20
123.8968588384
 10
107.6911938514
 20
123.9023746917
 10
107.6820167439
 20
123.9073112034
  0
LINE
  5
34B
100
AcDbEntity
  8
0
100
AcDbLine
 62
7
  6
CONTINUOUS
 10
109.3027279551
 20
85.1905890276
 11
109.3023736486
 21
85.2045820298
  0
LWPOLYLINE
  5
34C
100
AcDbEntity
  8
RACCORDO
100
AcDbPolyline
 62
253
  6
CONTINUOUS
 90
19
 70
0
 10
107.5062684879
 20
123.2629604543
 10
107.5064883426
 20
123.2522757977
 10
107.5071473598
 20
123.2418375713
 10
107.5082439006
 20
123.2316717388
 10
107.5097752315
 20
123.2218036203
 10
107.5117375468
 20
123.2122577256
 10
107.5141259926
 20
123.2030577052
 10
107.5169346627
 20
123.1942263933
 10
107.5201565682
 20
123.1857858362
 10
107.5237836658
 20
123.1777571279
 10
107.5278069454
 20
123.170160217
 10
107.532216388
 20
123.1630140262
 10
107.5370009245
 20
123.1563364609
 10
107.542148558
 20
123.1501441836
 10
107.5476465259
 20
123.1444524711
 10
107.5534812596
 20
123.1392753449
 10
107.5596394761
 20
123.1346248299
 10
107.5661047503
 20
123.1305135562
 10
107.571231162
 20
123.1277473162
  0
LWPOLYLINE
  5
34D
100
AcDbEntity
  8
RACCORDO
100
AcDbPolyline
 62
253
  6
CONTINUOUS
 90
64
 70
0
 10
109.0918898658
 20
85.1476667944
 10
109.0908739614
 20
85.1981958968
 10
109.0878282687
 20
85.2496183373
 10
109.0827600561
 20
85.3018069877
 10
109.0756842374
 20
85.3546152032
 10
109.0666167425
 20
85.4079296231
 10
109.0555679036
 20
85.4616719698
 10
109.0425517982
 20
85.515738166
 10
109.0275999475
 20
85.5699664558
 10
109.0107536928
 20
85.6241911577
 10
108.9920436252
 20
85.678301042
 10
108.9715210775
 20
85.7321363378
 10
108.9492789971
 20
85.785460625
 10
108.9254100035
 20
85.838080177
 10
108.8999547887
 20
85.8899315144
 10
108.8729360073
 20
85.9409756368
 10
108.8444007812
 20
85.9911170907
 10
108.8144354195
 20
86.0401981283
 10
108.7831198117
 20
86.0880863909
 10
108.7505318571
 20
86.1346623841
 10
108.7167518384
 20
86.1798110083
 10
108.681869421
 20
86.2234127935
 10
108.6459780776
 20
86.2653528011
 10
108.6091609228
 20
86.3055357535
 10
108.5714953718
 20
86.3438766633
 10
108.5330830817
 20
86.3802709884
 10
108.4940102274
 20
86.414636041
 10
108.4543310799
 20
86.446918026
 10
108.4140957464
 20
86.4770616264
 10
108.3734487
 20
86.5049441941
 10
108.3325889337
 20
86.5304284811
 10
108.2916820172
 20
86.5534253637
 10
108.2507677438
 20
86.5739265398
 10
108.2098582214
 20
86.5919260341
 10
108.1689966637
 20
86.607391268
 10
108.1283451161
 20
86.6202472725
 10
108.0880923812
 20
86.6304342946
 10
108.0483933806
 20
86.6379267423
 10
108.0092883221
 20
86.6427307772
 10
107.9707930671
 20
86.6448447015
 10
107.9329551779
 20
86.6442524934
 10
107.8959238515
 20
86.6409427941
 10
107.8598639958
 20
86.6349301175
 10
107.8249060651
 20
86.6262497332
 10
107.7910882563
 20
86.6149250176
 10
107.7584335136
 20
86.6009641211
 10
107.7269913236
 20
86.5843748617
 10
107.696881305
 20
86.5652064555
 10
107.6682269679
 20
86.543537038
 10
107.6411224326
 20
86.5194511831
 10
107.6156028751
 20
86.4929942756
 10
107.591697065
 20
86.46419712
 10
107.5694505061
 20
86.4331018369
 10
107.548941342
 20
86.3998039538
 10
107.530242262
 20
86.3644203007
 10
107.5134000507
 20
86.3270478904
 10
107.4984511389
 20
86.2877770871
 10
107.4854369446
 20
86.2467316295
 10
107.4743891197
 20
86.2040410377
 10
107.4653220763
 20
86.1597955514
 10
107.458246455
 20
86.1140640364
 10
107.4531782858
 20
86.066944228
 10
107.4501325267
 20
86.0185674342
 10
107.4491165358
 20
85.9690534594
  0
LWPOLYLINE
  5
34E
100
AcDbEntity
  8
RACCORDO
100
AcDbPolyline
 62
253
  6
CONTINUOUS
 90
44
 70
0
 10
109.2246186671
 20
85.1515343836
 10
109.2235253315
 20
85.2059081387
 10
109.2202478331
 20
85.2612431688
 10
109.214793993
 20
85.3174026839
 10
109.2071799001
 20
85.3742288852
 10
109.1974226522
 20
85.4315998108
 10
109.1855332437
 20
85.4894312464
 10
109.171526759
 20
85.5476111854
 10
109.1554371879
 20
85.605965545
 10
109.1373090966
 20
85.6643160363
 10
109.1171754359
 20
85.7225429772
 10
109.0950914083
 20
85.7804744424
 10
109.0711570082
 20
85.8378560186
 10
109.0454718926
 20
85.8944792339
 10
109.0180798608
 20
85.950275781
 10
108.9890052965
 20
86.0052036941
 10
108.958298909
 20
86.0591602587
 10
108.9260535723
 20
86.1119757235
 10
108.8923552534
 20
86.1635076585
 10
108.8572877785
 20
86.2136274771
 10
108.8209375391
 20
86.2622113222
 10
108.7834010229
 20
86.3091306338
 10
108.7447788147
 20
86.3542617277
 10
108.7051603529
 20
86.3975020772
 10
108.6646289437
 20
86.438760229
 10
108.6232939788
 20
86.4779236877
 10
108.5812481897
 20
86.5149034733
 10
108.5385499761
 20
86.5496416961
 10
108.4952532575
 20
86.582078829
 10
108.4515135002
 20
86.6120828931
 10
108.4075448382
 20
86.6395061995
 10
108.3635254388
 20
86.6642528449
 10
108.3194981229
 20
86.6863138943
 10
108.2754759193
 20
86.705682916
 10
108.23150533
 20
86.7223248518
 10
108.1877607299
 20
86.7361590291
 10
108.1444452869
 20
86.7471211498
 10
108.1017257103
 20
86.7551836745
 10
108.0596452669
 20
86.7603532337
 10
108.0182210251
 20
86.7626280005
 10
107.9775041658
 20
86.7619907344
 10
107.937655238
 20
86.7584292119
 10
107.8988516971
 20
86.7519590502
 10
107.8612339239
 20
86.7426182016
  0
LWPOLYLINE
  5
34F
100
AcDbEntity
  8
RACCORDO
100
AcDbPolyline
 62
7
  6
CONTINUOUS
 90
34
 70
0
 10
109.4600712384
 20
124.4051436681
 10
109.4598711824
 20
124.4155454767
 10
109.4592709449
 20
124.4261238447
 10
109.4582719869
 20
124.4368548628
 10
109.4568767514
 20
124.447714316
 10
109.4550884031
 20
124.4586776084
 10
109.4529108218
 20
124.4697198194
 10
109.4503489973
 20
124.4808159663
 10
109.447408823
 20
124.4919409597
 10
109.444096828
 20
124.5030695301
 10
109.4404205509
 20
124.5141764879
 10
109.4363883907
 20
124.5252367091
 10
109.4320093933
 20
124.5362250904
 10
109.4272934928
 20
124.547116748
 10
109.4222514228
 20
124.5578870351
 10
109.4168945621
 20
124.5685115264
 10
109.4112350379
 20
124.5789661509
 10
109.4052857
 20
124.589227241
 10
109.3990600282
 20
124.5992715473
 10
109.3925720957
 20
124.6090763023
 10
109.3858366068
 20
124.6186192994
 10
109.3788688676
 20
124.6278789396
 10
109.3716846106
 20
124.636834222
 10
109.3643000949
 20
124.645464854
 10
109.3567321406
 20
124.6537513268
 10
109.348997819
 20
124.6616748341
 10
109.3411146131
 20
124.6692174101
 10
109.3331005136
 20
124.6763620339
 10
109.3249735833
 20
124.6830924767
 10
109.3167521722
 20
124.6893934652
 10
109.3084550755
 20
124.6952508125
 10
109.3001010821
 20
124.7006512493
 10
109.291708933
 20
124.7055824539
 10
109.2832975347
 20
124.7100332069
  0
LWPOLYLINE
  5
350
100
AcDbEntity
  8
0
100
AcDbPolyline
 62
7
  6
CONTINUOUS
 90
100
 70
0
 10
109.7754680376
 20
84.5430755923
 10
109.776141222
 20
84.4751662997
 10
109.7750388456
 20
84.4084057368
 10
109.7721608081
 20
84.3427938517
 10
109.7674977559
 20
84.2782731554
 10
109.7610588591
 20
84.2149010422
 10
109.7528717294
 20
84.1528497462
 10
109.7429316386
 20
84.0921205176
 10
109.7312429726
 20
84.0327119261
 10
109.7178468695
 20
83.9747921068
 10
109.7027388695
 20
83.9183655429
 10
109.6859229532
 20
83.8634274974
 10
109.6674527804
 20
83.810132201
 10
109.6473265892
 20
83.7584878431
 10
109.6255455432
 20
83.7084859159
 10
109.6021675707
 20
83.6602555397
 10
109.5771840256
 20
83.6137924571
 10
109.5506028729
 20
83.569100562
 10
109.5225068454
 20
83.5263211417
 10
109.492898236
 20
83.485467295
 10
109.4617739794
 20
83.4465255099
 10
109.4292086753
 20
83.4095971051
 10
109.3951923868
 20
83.3746791138
 10
109.3597342461
 20
83.3417740717
 10
109.3229373776
 20
83.3109915078
 10
109.2847889009
 20
83.2823350823
 10
109.2453008602
 20
83.2558006863
 10
109.2046136897
 20
83.2314861535
 10
109.1627259747
 20
83.2094041978
 10
109.1196382824
 20
83.1895416497
 10
109.0754939645
 20
83.1719574878
 10
109.0302915446
 20
83.156660928
 10
108.9840316892
 20
83.1436423182
 10
108.9368609378
 20
83.1329323199
 10
108.8887768459
 20
83.1245383103
 10
108.8397811197
 20
83.1184525142
 10
108.7900265164
 20
83.1146828601
 10
108.7395262805
 20
83.1132332986
 10
108.6882665268
 20
83.1140995335
 10
108.6363593275
 20
83.1172771285
 10
108.5837887316
 20
83.122770375
 10
108.5305701735
 20
83.1305747027
 10
108.476862824
 20
83.1406723935
 10
108.422672537
 20
83.1530670032
 10
108.3679930731
 20
83.1677547678
 10
108.3129654916
 20
83.1847070037
 10
108.2575776286
 20
83.2039331794
 10
108.2018414101
 20
83.2254236979
 10
108.1459340636
 20
83.2491212955
 10
108.0898429345
 20
83.2750421681
 10
108.0335805964
 20
83.303170076
 10
107.9773621588
 20
83.3333991245
 10
107.9211969528
 20
83.3657353655
 10
107.8650757283
 20
83.4001727907
 10
107.8091857627
 20
83.4365874364
 10
107.7535394037
 20
83.47497782
 10
107.6981245418
 20
83.5153455527
 10
107.6430918032
 20
83.5575713301
 10
107.5884366372
 20
83.601664525
 10
107.5341639804
 20
83.6476159729
 10
107.480438716
 20
83.6952785775
 10
107.4272778446
 20
83.7446405045
 10
107.3746648821
 20
83.7957138669
 10
107.322714505
 20
83.8483875008
 10
107.2714144765
 20
83.9026774193
 10
107.2207776726
 20
83.958567954
 10
107.1709564491
 20
84.0159004236
 10
107.1219525998
 20
84.0746800687
 10
107.0737650675
 20
84.1349020457
 10
107.0265419252
 20
84.1963925432
 10
106.9802833553
 20
84.2591605356
 10
106.9349899854
 20
84.3231974846
 10
106.8908105305
 20
84.3883032953
 10
106.8477436606
 20
84.4544934797
 10
106.8057915567
 20
84.5217529835
 10
106.7651081455
 20
84.5898358331
 10
106.7257060386
 20
84.6587352986
 10
106.6875734642
 20
84.7284585608
 10
106.6508276957
 20
84.7987804702
 10
106.6154800283
 20
84.8696881107
 10
106.5815199718
 20
84.9411948297
 10
106.5490320388
 20
85.0131148278
 10
106.5180144194
 20
85.0854622392
 10
106.4884696923
 20
85.158223341
 10
106.460488856
 20
85.2311704951
 10
106.4340805691
 20
85.3042923807
 10
106.4092368511
 20
85.3776006805
 10
106.3860236278
 20
85.4509022008
 10
106.3644428738
 20
85.5242017011
 10
106.3444932074
 20
85.5974947374
 10
106.3262354011
 20
85.6705742465
 10
106.30967348
 20
85.7434390395
 10
106.2948038958
 20
85.8160905579
 10
106.2816759285
 20
85.8883256135
 10
106.270293294
 20
85.9601411695
 10
106.2606526248
 20
86.0315404459
 10
106.252792439
 20
86.1023295664
 10
106.2467256171
 20
86.1724439265
 10
106.2424394786
 20
86.2419482343
 10
106.2399341318
 20
86.3108425459
  0
LINE
  5
351
100
AcDbEntity
  8
RACCORDO
100
AcDbLine
 62
253
  6
CONTINUOUS
 10
107.5062684879
 20
123.2629604543
 11
107.5062684879
 21
123.6029343884
  0
LINE
  5
352
100
AcDbEntity
  8
RACCORDO
100
AcDbLine
 62
253
  6
CONTINUOUS
 10
107.8587904476
 20
123.2624477304
 11
107.8587904476
 21
123.6024216646
  0
LINE
  5
353
100
AcDbEntity
  8
RACCORDO
100
AcDbLine
 62
253
  6
CONTINUOUS
 10
108.217489096
 20
122.9843648271
 11
108.217489096
 21
122.2955442042
  0
LINE
  5
354
100
AcDbEntity
  8
RACCORDO
100
AcDbLine
 62
253
  6
CONTINUOUS
 10
108.5700110557
 20
123.1139442076
 11
108.5700110557
 21
122.3063120858
  0
LINE
  5
355
100
AcDbEntity
  8
RACCORDO
100
AcDbLine
 62
7
  6
CONTINUOUS
 10
109.4600712384
 20
122.8029930071
 11
109.4600712384
 21
124.4051436681
  0
LWPOLYLINE
  5
356
100
AcDbEntity
  8
RACCORDO
100
AcDbPolyline
 62
7
  6
CONTINUOUS
 90
15
 70
0
 10
110.0605362671
 20
124.4089212914
 10
110.0603765086
 20
124.3999875135
 10
110.0596183533
 20
124.3875199973
 10
110.0582365601
 20
124.3750921851
 10
110.0562323075
 20
124.362734257
 10
110.0536089494
 20
124.3504798601
 10
110.0503705942
 20
124.3383580627
 10
110.0465232549
 20
124.3264000214
 10
110.0420748892
 20
124.3146375151
 10
110.0370344455
 20
124.3031002828
 10
110.0314129016
 20
124.2918188968
 10
110.0252229157
 20
124.2808234751
 10
110.0184780773
 20
124.270142468
 10
110.011193723
 20
124.2598042373
 10
110.0036979095
 20
124.250214499
  0
LWPOLYLINE
  5
357
100
AcDbEntity
  8
RACCORDO
100
AcDbPolyline
 62
7
  6
CONTINUOUS
 90
19
 70
0
 10
107.4275623922
 20
86.0000625209
 10
107.4287544802
 20
86.0555879953
 10
107.4323308713
 20
86.109907993
 10
107.438289681
 20
86.1629025108
 10
107.4466350723
 20
86.2145008064
 10
107.4573542379
 20
86.2645332782
 10
107.4703957052
 20
86.312750804
 10
107.4857304708
 20
86.3590699042
 10
107.5033177571
 20
86.4033808775
 10
107.5230388148
 20
86.4454372827
 10
107.5448075564
 20
86.4851435375
 10
107.5685632319
 20
86.5224652949
 10
107.5941807145
 20
86.5572820395
 10
107.6215259745
 20
86.5895037686
 10
107.6505300677
 20
86.6191349049
 10
107.6811523816
 20
86.6461925663
 10
107.7133103713
 20
86.6706435749
 10
107.7468713122
 20
86.6924268323
 10
107.7817181967
 20
86.7115101108
  0
LWPOLYLINE
  5
358
100
AcDbEntity
  8
RACCORDO
100
AcDbPolyline
 62
253
  6
CONTINUOUS
 90
16
 70
0
 10
110.0605362671
 20
124.7564551235
 10
110.0602349966
 20
124.7503202914
 10
110.059255278
 20
124.7438173432
 10
110.057598589
 20
124.737348779
 10
110.0552694375
 20
124.7309322123
 10
110.0522741573
 20
124.7245851011
 10
110.0486208984
 20
124.7183247244
 10
110.0443196003
 20
124.7121681212
 10
110.0393819677
 20
124.7061320507
 10
110.0338214425
 20
124.7002329483
 10
110.0276531534
 20
124.6944868669
 10
110.0208938921
 20
124.6889094512
 10
110.0135620782
 20
124.6835158989
 10
110.00567768
 20
124.6783208945
 10
109.9972621543
 20
124.673338571
 10
109.9883384101
 20
124.6685824881
  0
LWPOLYLINE
  5
359
100
AcDbEntity
  8
RACCORDO
100
AcDbPolyline
 62
253
  6
CONTINUOUS
 90
16
 70
0
 10
110.0605362671
 20
124.4089212914
 10
110.0602333439
 20
124.4027719805
 10
110.0592521069
 20
124.3962702337
 10
110.0575941491
 20
124.3898029147
 10
110.0552639827
 20
124.3833876228
 10
110.0522679471
 20
124.3770418106
 10
110.0486141906
 20
124.3707827385
 10
110.044312646
 20
124.3646274279
 10
110.0393750203
 20
124.3585926363
 10
110.0338147673
 20
124.3526948045
 10
110.0276470338
 20
124.3469499902
 10
110.0208885951
 20
124.3413738106
 10
110.0135578245
 20
124.3359814222
 10
110.0056746604
 20
124.3307874924
 10
109.9972605578
 20
124.3258061576
 10
109.9883384101
 20
124.3210509714
  0
LWPOLYLINE
  5
35A
100
AcDbEntity
  8
RACCORDO
100
AcDbPolyline
 62
7
  6
CONTINUOUS
 90
5
 70
0
 10
111.6893166819
 20
122.3302611011
 10
111.6872801386
 20
122.3211397031
 10
111.6857657797
 20
122.3113061056
 10
111.684809396
 20
122.3008479457
 10
111.6844776492
 20
122.2891741894
  0
LINE
  5
35B
100
AcDbEntity
  8
RACCORDO
100
AcDbLine
 62
7
  6
CONTINUOUS
 10
116.9462440455
 20
120.9744105616
 11
117.8011288345
 21
121.7215018786
  0
LINE
  5
35C
100
AcDbEntity
  8
RACCORDO
100
AcDbLine
 62
253
  6
CONTINUOUS
 10
117.1000793236
 20
120.8974929225
 11
118.0497655544
 21
121.7274320512
  0
LINE
  5
35D
100
AcDbEntity
  8
DRAFT
100
AcDbLine
 62
7
  6
CONTINUOUS
 10
116.990758458
 20
121.0445158968
 11
116.9019075652
 21
120.9965788018
  0
LINE
  5
35E
100
AcDbEntity
  8
RACCORDO
100
AcDbLine
 62
253
  6
CONTINUOUS
 10
118.1722935128
 20
121.7839834181
 11
118.2015670384
 21
121.7995573352
  0
LINE
  5
35F
100
AcDbEntity
  8
RACCORDO
100
AcDbLine
 62
253
  6
CONTINUOUS
 10
118.2015670384
 20
121.7995573352
 11
118.2087536989
 21
121.8033353573
  0
LINE
  5
360
100
AcDbEntity
  8
RACCORDO
100
AcDbLine
 62
253
  6
CONTINUOUS
 10
118.1658663043
 20
121.7806033622
 11
118.1722935128
 21
121.7839834181
  0
LINE
  5
361
100
AcDbEntity
  8
RACCORDO
100
AcDbLine
 62
253
  6
CONTINUOUS
 10
118.2087536989
 20
121.8033353573
 11
118.2161403233
 21
121.8071699459
  0
LINE
  5
362
100
AcDbEntity
  8
RACCORDO
100
AcDbLine
 62
253
  6
CONTINUOUS
 10
118.159523352
 20
121.7773130221
 11
118.1658663043
 21
121.7806033622
  0
LINE
  5
363
100
AcDbEntity
  8
RACCORDO
100
AcDbLine
 62
253
  6
CONTINUOUS
 10
118.2161403233
 20
121.8071699459
 11
118.2211840865
 21
121.8097545653
  0
LINE
  5
364
100
AcDbEntity
  8
DRAFT
100
AcDbLine
 62
7
  6
CONTINUOUS
 10
116.7770449094
 20
121.0590101297
 11
117.1321798143
 21
121.2403733302
  0
LINE
  5
365
100
AcDbEntity
  8
RACCORDO
100
AcDbLine
 62
253
  6
CONTINUOUS
 10
118.1553324577
 20
121.7751708597
 11
118.159523352
 21
121.7773130221
  0
LINE
  5
366
100
AcDbEntity
  8
RACCORDO
100
AcDbLine
 62
253
  6
CONTINUOUS
 10
118.2211840865
 20
121.8097545653
 11
118.2263292106
 21
121.8123592792
  0
LINE
  5
367
100
AcDbEntity
  8
RACCORDO
100
AcDbLine
 62
253
  6
CONTINUOUS
 10
118.1511642115
 20
121.7730706476
 11
118.1553324577
 21
121.7751708597
  0
LINE
  5
368
100
AcDbEntity
  8
0
100
AcDbLine
 62
7
  6
CONTINUOUS
 10
119.5906244926
 20
123.5497412503
 11
118.1928399861
 21
122.850848997
  0
LINE
  5
369
100
AcDbEntity
  8
0
100
AcDbLine
 62
7
  6
CONTINUOUS
 10
131.8277494531
 20
128.3998047517
 11
137.249367739
 21
131.1106138946
  0
LWPOLYLINE
  5
36A
100
AcDbEntity
  8
RACCORDO
100
AcDbPolyline
 62
7
  6
CONTINUOUS
 90
6
 70
0
 10
117.8391395078
 20
121.7462005656
 10
117.8305470138
 20
121.7419130805
 10
117.8224435111
 20
121.7372429113
 10
117.8146240171
 20
121.7320948661
 10
117.8070936118
 20
121.7264727366
 10
117.8011621009
 20
121.7215312543
  0
LINE
  5
36B
100
AcDbEntity
  8
DRAFT
100
AcDbLine
 62
7
  6
CONTINUOUS
 10
137.9765838292
 20
131.6210954414
 11
131.668394659
 21
128.4794821487
  0
LINE
  5
36C
100
AcDbEntity
  8
RACCORDO
100
AcDbLine
 62
253
  6
CONTINUOUS
 10
118.2263292106
 20
121.8123592792
 11
118.2315811805
 21
121.8149817315
  0
LINE
  5
36D
100
AcDbEntity
  8
RACCORDO
100
AcDbLine
 62
253
  6
CONTINUOUS
 10
118.1470142866
 20
121.771012711
 11
118.1511642115
 21
121.7730706476
  0
LINE
  5
36E
100
AcDbEntity
  8
RACCORDO
100
AcDbLine
 62
253
  6
CONTINUOUS
 10
118.2315811805
 20
121.8149817315
 11
118.23694367
 21
121.8176203573
  0
LINE
  5
36F
100
AcDbEntity
  8
RACCORDO
100
AcDbLine
 62
253
  6
CONTINUOUS
 10
118.1428761553
 20
121.7689974202
 11
118.1470142866
 21
121.771012711
  0
LINE
  5
370
100
AcDbEntity
  8
RACCORDO
100
AcDbLine
 62
253
  6
CONTINUOUS
 10
118.23694367
 20
121.8176203573
 11
118.2424222925
 21
121.8202728561
  0
LWPOLYLINE
  5
371
100
AcDbEntity
  8
ASSI
100
AcDbPolyline
 62
7
  6
CONTINUOUS
 90
7
 70
0
 10
123.0739336549
 20
122.4760525326
 10
123.0821429143
 20
122.4799800177
 10
123.090326872
 20
122.4836650799
 10
123.0984855281
 20
122.4871077192
 10
123.1066188825
 20
122.4903079356
 10
123.1147269353
 20
122.4932657291
 10
123.1228096864
 20
122.4959810997
  0
LINE
  5
372
100
AcDbEntity
  8
RACCORDO
100
AcDbLine
 62
253
  6
CONTINUOUS
 10
118.1387422241
 20
121.7670244718
 11
118.1428761553
 21
121.7689974202
  0
LINE
  5
373
100
AcDbEntity
  8
RACCORDO
100
AcDbLine
 62
253
  6
CONTINUOUS
 10
118.2424222925
 20
121.8202728561
 11
118.248022126
 21
121.8229366573
  0
LINE
  5
374
100
AcDbEntity
  8
RACCORDO
100
AcDbLine
 62
253
  6
CONTINUOUS
 10
118.248022126
 20
121.8229366573
 11
118.2537465105
 21
121.8256100275
  0
LINE
  5
375
100
AcDbEntity
  8
RACCORDO
100
AcDbLine
 62
253
  6
CONTINUOUS
 10
118.1346102301
 20
121.7650938068
 11
118.1387422241
 21
121.7670244718
  0
LINE
  5
376
100
AcDbEntity
  8
RACCORDO
100
AcDbLine
 62
7
  6
CONTINUOUS
 10
117.8391747109
 20
121.7462168237
 11
117.9547931558
 21
121.7997247395
  0
LINE
  5
377
100
AcDbEntity
  8
RACCORDO
100
AcDbLine
 62
253
  6
CONTINUOUS
 10
118.0513647819
 20
121.7266483002
 11
118.1346102301
 21
121.7650938068
  0
LINE
  5
378
100
AcDbEntity
  8
DRAFT
100
AcDbLine
 62
7
  6
CONTINUOUS
 10
117.0664819345
 20
121.0794875076
 11
116.990758458
 21
121.0445158968
  0
LINE
  5
379
100
AcDbEntity
  8
RACCORDO
100
AcDbLine
 62
7
  6
CONTINUOUS
 10
117.9648909503
 20
121.8043603208
 11
117.9547931558
 21
121.7997247395
  0
LINE
  5
37A
100
AcDbEntity
  8
RACCORDO
100
AcDbLine
 62
253
  6
CONTINUOUS
 10
118.2537465105
 20
121.8256100275
 11
118.2596003418
 21
121.8282903125
  0
LWPOLYLINE
  5
37B
100
AcDbEntity
  8
RACCORDO
100
AcDbPolyline
 62
253
  6
CONTINUOUS
 90
18
 70
0
 10
118.9037461107
 20
121.856465216
 10
118.9093745209
 20
121.8590217106
 10
118.9149900888
 20
121.8612975027
 10
118.9205839071
 20
121.8632889828
 10
118.9261471031
 20
121.8649929919
 10
118.9316708526
 20
121.8664068273
 10
118.937146394
 20
121.8675282463
 10
118.9425650423
 20
121.8683554703
 10
118.9479182025
 20
121.868887187
 10
118.9531973837
 20
121.8691225532
 10
118.9583942122
 20
121.8690611955
 10
118.9635004449
 20
121.8687032112
 10
118.9685079826
 20
121.8680491682
 10
118.9734088825
 20
121.8671001038
 10
118.9781953708
 20
121.8658575235
 10
118.9828598556
 20
121.8643233981
 10
118.987394938
 20
121.8625001611
 10
118.9907206872
 20
121.8609378818
  0
LINE
  5
37C
100
AcDbEntity
  8
RACCORDO
100
AcDbLine
 62
7
  6
CONTINUOUS
 10
117.9755129584
 20
121.8091764143
 11
117.9648909503
 21
121.8043603208
  0
LWPOLYLINE
  5
37D
100
AcDbEntity
  8
RACCORDO
100
AcDbPolyline
 62
253
  6
CONTINUOUS
 90
22
 70
0
 10
117.9188004
 20
121.7829906057
 10
117.9219287379
 20
121.7844005485
 10
117.9311772027
 20
121.7881744422
 10
117.9406368195
 20
121.7914568974
 10
117.9502974626
 20
121.7942444006
 10
117.9601487913
 20
121.7965339681
 10
117.9701802606
 20
121.798323149
 10
117.9803811326
 20
121.7996100282
 10
117.9907404883
 20
121.8003932283
 10
118.0012472389
 20
121.8006719109
 10
118.0118901379
 20
121.8004457777
 10
118.0226577929
 20
121.7997150708
 10
118.0335386783
 20
121.7984805723
 10
118.0445211471
 20
121.7967436037
 10
118.0555934434
 20
121.7945060242
 10
118.0667437153
 20
121.791770229
 10
118.0779600277
 20
121.7885391465
 10
118.0892303743
 20
121.7848162352
 10
118.1005426913
 20
121.7806054802
 10
118.11188487
 20
121.7759113888
 10
118.1232447695
 20
121.7707389854
 10
118.1346102301
 20
121.7650938068
  0
LINE
  5
37E
100
AcDbEntity
  8
RACCORDO
100
AcDbLine
 62
253
  6
CONTINUOUS
 10
118.2596003418
 20
121.8282903125
 11
118.2655883233
 21
121.8309747706
  0
LINE
  5
37F
100
AcDbEntity
  8
RACCORDO
100
AcDbLine
 62
7
  6
CONTINUOUS
 10
117.9866449623
 20
121.81414729
 11
117.9755129584
 21
121.8091764143
  0
LINE
  5
380
100
AcDbEntity
  8
RACCORDO
100
AcDbLine
 62
7
  6
CONTINUOUS
 10
117.9982976574
 20
121.8192584699
 11
117.9866449623
 21
121.81414729
  0
LINE
  5
381
100
AcDbEntity
  8
RACCORDO
100
AcDbLine
 62
253
  6
CONTINUOUS
 10
118.2655883233
 20
121.8309747706
 11
118.2717134881
 21
121.8336615295
  0
LINE
  5
382
100
AcDbEntity
  8
RACCORDO
100
AcDbLine
 62
7
  6
CONTINUOUS
 10
118.0105232188
 20
121.8245127233
 11
117.9982976574
 21
121.8192584699
  0
LWPOLYLINE
  5
383
100
AcDbEntity
  8
RACCORDO
100
AcDbPolyline
 62
253
  6
CONTINUOUS
 90
3
 70
0
 10
118.2717134881
 20
121.8336615295
 10
118.2779802802
 20
121.8363477313
 10
118.2811680874
 20
121.8376895967
  0
LWPOLYLINE
  5
384
100
AcDbEntity
  8
RACCORDO
100
AcDbPolyline
 62
253
  6
CONTINUOUS
 90
153
 70
0
 10
118.2811680874
 20
121.8376895967
 10
118.2876538744
 20
121.8403698489
 10
118.2909531544
 20
121.8417072113
 10
118.2942904484
 20
121.843042387
 10
118.2976657696
 20
121.8443753796
 10
118.3010804654
 20
121.8457051786
 10
118.304534609
 20
121.8470318141
 10
118.3080281272
 20
121.848355256
 10
118.3115621476
 20
121.8496744029
 10
118.3151367527
 20
121.8509892848
 10
118.31875186
 20
121.8522998717
 10
118.32240835
 20
121.8536049734
 10
118.3261062472
 20
121.8549045967
 10
118.3298455272
 20
121.8561987349
 10
118.3336269969
 20
121.8574861772
 10
118.3374506889
 20
121.8587669336
 10
118.3413165707
 20
121.8600409942
 10
118.3452253514
 20
121.861307119
 10
118.3491770729
 20
121.8625653206
 10
118.3531716933
 20
121.8638155866
 10
118.3572097973
 20
121.8650566395
 10
118.3612914222
 20
121.8662884902
 10
118.3654165306
 20
121.867511128
 10
118.3695855944
 20
121.8687232432
 10
118.37379867
 20
121.8699248515
 10
118.378055701
 20
121.8711159371
 10
118.3823569899
 20
121.872295144
 10
118.3867026146
 20
121.8734624912
 10
118.3910924973
 20
121.8746179597
 10
118.3955267067
 20
121.8757601353
 10
118.4000053229
 20
121.8768890348
 10
118.4045282658
 20
121.8780046414
 10
118.4090953643
 20
121.8791054912
 10
118.4137066901
 20
121.880191596
 10
118.4183621716
 20
121.8812629439
 10
118.423061423
 20
121.8823180347
 10
118.4278043976
 20
121.883356856
 10
118.4325911422
 20
121.8843794202
 10
118.4374214122
 20
121.8853842641
 10
118.442298035
 20
121.886371879
 10
118.4472181831
 20
121.8873417735
 10
118.4521731298
 20
121.8882910109
 10
118.4571664482
 20
121.8892199721
 10
118.462194565
 20
121.8901282761
 10
118.4672380337
 20
121.891011843
 10
118.4722941038
 20
121.8918698877
 10
118.4773655258
 20
121.8927031952
 10
118.4824411043
 20
121.8935100414
 10
118.4875181166
 20
121.8942898761
 10
118.4925992853
 20
121.8950432494
 10
118.4976815837
 20
121.8957700869
 10
118.5027644674
 20
121.8964702958
 10
118.5078484808
 20
121.8971439689
 10
118.5129322301
 20
121.8977913104
 10
118.5180157577
 20
121.898412326
 10
118.5230990212
 20
121.8990070101
 10
118.5281805004
 20
121.8995755503
 10
118.5332604139
 20
121.9001179634
 10
118.5383385431
 20
121.9006342326
 10
118.5434127113
 20
121.9011244953
 10
118.5484830452
 20
121.9015887464
 10
118.5535494182
 20
121.9020269908
 10
118.5586092734
 20
121.9024393811
 10
118.563662754
 20
121.9028259041
 10
118.5687097169
 20
121.9031865728
 10
118.5737471758
 20
121.9035215791
 10
118.5787751453
 20
121.9038308951
 10
118.5837936107
 20
121.9041145486
 10
118.5887995419
 20
121.9043728144
 10
118.5937928426
 20
121.9046056618
 10
118.598773609
 20
121.9048131215
 10
118.6037390996
 20
121.9049955607
 10
118.6086893008
 20
121.9051529559
 10
118.6136242263
 20
121.9052853306
 10
118.6185411751
 20
121.9053931225
 10
118.6234401064
 20
121.9054763086
 10
118.628321061
 20
121.9055349119
 10
118.6331814605
 20
121.9055694379
 10
118.6380212331
 20
121.905579867
 10
118.6428404505
 20
121.9055662188
 10
118.6476367496
 20
121.9055290587
 10
118.652410046
 20
121.9054683714
 10
118.6571604241
 20
121.905384172
 10
118.6618857732
 20
121.9052770711
 10
118.6665861633
 20
121.9051470499
 10
118.6712615245
 20
121.9049941271
 10
118.6759095368
 20
121.9048189697
 10
118.6805303658
 20
121.904621545
 10
118.6851238459
 20
121.9044018855
 10
118.6896871604
 20
121.9041607562
 10
118.6942201775
 20
121.9038981348
 10
118.698723029
 20
121.9036140435
 10
118.703193294
 20
121.9033093133
 10
118.7076307427
 20
121.9029839394
 10
118.7120356048
 20
121.9026379265
 10
118.7164061484
 20
121.90227212
 10
118.7207422637
 20
121.901886516
 10
118.7250440606
 20
121.9014811184
 10
118.7293101361
 20
121.9010567836
 10
118.7335404101
 20
121.9006135097
 10
118.7377349628
 20
121.9001512988
 10
118.7418926326
 20
121.8996710129
 10
118.7460133432
 20
121.8991726531
 10
118.7500971709
 20
121.8986562184
 10
118.7541431824
 20
121.8981225677
 10
118.7581512914
 20
121.8975717073
 10
118.7621215842
 20
121.8970036309
 10
118.7660533869
 20
121.8964191794
 10
118.7699466406
 20
121.8958183582
 10
118.7738014042
 20
121.8952011618
 10
118.7776171792
 20
121.8945684154
 10
118.781393889
 20
121.89392013
 10
118.7851316103
 20
121.8932562946
 10
118.7888300749
 20
121.8925777004
 10
118.7924891977
 20
121.8918843648
 10
118.7961090637
 20
121.8911762705
 10
118.7996896598
 20
121.8904541575
 10
118.8032309528
 20
121.8897180357
 10
118.8067329758
 20
121.8889678952
 10
118.8101958158
 20
121.8882044458
 10
118.8136194035
 20
121.8874277078
 10
118.8170038081
 20
121.886637661
 10
118.8203493246
 20
121.8858349537
 10
118.8236558406
 20
121.8850196236
 10
118.8269234684
 20
121.8841916331
 10
118.8301528398
 20
121.8833515177
 10
118.8333439226
 20
121.882499301
 10
118.8364967491
 20
121.8816349594
 10
118.8396120473
 20
121.8807589574
 10
118.8426898026
 20
121.879871316
 10
118.8457300297
 20
121.8789720142
 10
118.8487335001
 20
121.8780614541
 10
118.8517001872
 20
121.8771396624
 10
118.8546301175
 20
121.8762066124
 10
118.8575241431
 20
121.8752626257
 10
118.8603822579
 20
121.874307725
 10
118.8632044679
 20
121.8733418877
 10
118.8659916431
 20
121.8723653669
 10
118.868743793
 20
121.8713781809
 10
118.871460908
 20
121.8703803113
 10
118.8741438303
 20
121.8693719568
 10
118.8767925713
 20
121.8683531355
 10
118.8794071195
 20
121.8673238292
 10
118.8819882822
 20
121.8662841814
 10
118.8845360723
 20
121.8652342088
 10
118.8870504768
 20
121.8641738947
 10
118.8895322642
 20
121.8631033321
 10
118.8919814481
 20
121.862022541
 10
118.8943980147
 20
121.8609315014
 10
118.8967826915
 20
121.8598302458
 10
118.899135721
 20
121.8587187852
 10
118.9014568608
 20
121.8575971086
 10
118.9037461107
 20
121.856465216
  0
LWPOLYLINE
  5
385
100
AcDbEntity
  8
ASSI
100
AcDbPolyline
 62
7
  6
CONTINUOUS
 90
16
 70
0
 10
123.1228096864
 20
122.4959810997
 10
123.1349536245
 20
122.4994702202
 10
123.1476823428
 20
122.5021932212
 10
123.1609897249
 20
122.5041332628
 10
123.1748764571
 20
122.505287753
 10
123.1893244687
 20
122.5056246329
 10
123.2042943695
 20
122.5050842273
 10
123.2197680037
 20
122.503643432
 10
123.2357295222
 20
122.5012941191
 10
123.2521365157
 20
122.498002229
 10
123.2689280815
 20
122.493763108
 10
123.2861163429
 20
122.488555775
 10
123.3037687632
 20
122.4823176664
 10
123.3218665679
 20
122.4750328401
 10
123.3403769491
 20
122.4666796527
 10
123.3493757531
 20
122.4622904183
  0
LWPOLYLINE
  5
386
100
AcDbEntity
  8
0
100
AcDbPolyline
 62
7
  6
CONTINUOUS
 90
88
 70
0
 10
108.4638545326
 20
93.2946464538
 10
108.3711130987
 20
93.3426417713
 10
108.278816721
 20
93.393648338
 10
108.1870206962
 20
93.4476147068
 10
108.0957830779
 20
93.5044867268
 10
108.0051530804
 20
93.5642148434
 10
107.9151737759
 20
93.6267537125
 10
107.8259410187
 20
93.6920191147
 10
107.7374664649
 20
93.7599859607
 10
107.6496734338
 20
93.8307072671
 10
107.562496572
 20
93.9042452928
 10
107.4761207281
 20
93.9804548396
 10
107.3908434644
 20
94.0590638314
 10
107.306799196
 20
94.1399204227
 10
107.223953324
 20
94.2230307774
 10
107.1423439669
 20
94.308336229
 10
107.0620257924
 20
94.3957604724
 10
106.9830437796
 20
94.485236148
 10
106.9054241674
 20
94.5767177466
 10
106.829190966
 20
94.6701653589
 10
106.7544199013
 20
94.7654753206
 10
106.6812132282
 20
94.8625011955
 10
106.6096490159
 20
94.9611172054
 10
106.5397356884
 20
95.061289973
 10
106.4714705741
 20
95.1630087905
 10
106.4048880709
 20
95.2662134709
 10
106.3400432755
 20
95.3708104262
 10
106.2769680246
 20
95.476741021
 10
106.215700151
 20
95.5839369852
 10
106.1562878201
 20
95.6923101814
 10
106.09877774
 20
95.8017712032
 10
106.043209988
 20
95.9122398141
 10
105.9896234004
 20
96.0236358041
 10
105.9380603317
 20
96.1358684941
 10
105.8885643471
 20
96.248839635
 10
105.8411628164
 20
96.3624844131
 10
105.795873806
 20
96.4767627283
 10
105.7527317637
 20
96.5915958233
 10
105.7117720086
 20
96.7068997077
 10
105.6730163556
 20
96.822627878
 10
105.6364827903
 20
96.9387521046
 10
105.6022229043
 20
97.0551372989
 10
105.5703016344
 20
97.1715774324
 10
105.540764204
 20
97.2879018009
 10
105.5136078164
 20
97.40411752
 10
105.4888246051
 20
97.5202867879
 10
105.4664345996
 20
97.6363776713
 10
105.4464770649
 20
97.7522587952
 10
105.4289796949
 20
97.8678449706
 10
105.4139589988
 20
97.9831341615
 10
105.4014530672
 20
98.0979648128
 10
105.3915041432
 20
98.2120194276
 10
105.3841277559
 20
98.3250707988
 10
105.3793151975
 20
98.4371975834
 10
105.3770699774
 20
98.5485447947
 10
105.3774137442
 20
98.6591565911
 10
105.3803695838
 20
98.7688294752
 10
105.3859466811
 20
98.8773400717
 10
105.3941561498
 20
98.9846594956
 10
105.4050027309
 20
99.090670233
 10
105.4184545451
 20
99.195035685
 10
105.4344734533
 20
99.2975598432
 10
105.4530601927
 20
99.3983251597
 10
105.4742321697
 20
99.4974212834
 10
105.498023237
 20
99.594934888
 10
105.5243966215
 20
99.690646955
 10
105.5532503119
 20
99.7842009126
 10
105.5845431573
 20
99.8755254695
 10
105.6182506585
 20
99.9646037275
 10
105.6542530119
 20
100.0511935231
 10
105.6924267564
 20
100.1351148011
 10
105.7327828547
 20
100.2164995256
 10
105.775406365
 20
100.2955678074
 10
105.820330625
 20
100.3723815745
 10
105.8674613273
 20
100.4467788834
 10
105.9167021362
 20
100.5186295117
 10
105.9680216227
 20
100.5879154827
 10
106.0213549342
 20
100.6545758742
 10
106.0765281884
 20
100.7184378844
 10
106.1333861283
 20
100.7793916165
 10
106.1919381471
 20
100.8375147784
 10
106.2522511132
 20
100.8929141407
 10
106.3143265307
 20
100.9456094023
 10
106.3780380607
 20
100.9955118813
 10
106.4432633283
 20
101.0425558248
 10
106.5099085611
 20
101.0867102485
 10
106.5779149696
 20
101.1279728583
 10
106.6472048515
 20
101.1663316366
  0
LWPOLYLINE
  5
387
100
AcDbEntity
  8
0
100
AcDbPolyline
 62
253
  6
CONTINUOUS
 90
112
 70
0
 10
108.3431480998
 20
93.4713540622
 10
108.2613409723
 20
93.5136755613
 10
108.1795990252
 20
93.5587992291
 10
108.0979877325
 20
93.6066889581
 10
108.0165723456
 20
93.6573065008
 10
107.9354181999
 20
93.7106112791
 10
107.8545906583
 20
93.7665603777
 10
107.7741545609
 20
93.8251089073
 10
107.6941742368
 20
93.8862100362
 10
107.614713808
 20
93.9498147736
 10
107.5358369806
 20
94.0158721137
 10
107.4576068701
 20
94.0843291873
 10
107.3800860136
 20
94.1551312685
 10
107.3033364414
 20
94.2282217128
 10
107.2274196958
 20
94.3035419218
 10
107.1523966565
 20
94.3810314956
 10
107.0783274465
 20
94.4606283301
 10
107.0052713613
 20
94.5422686999
 10
106.9332868923
 20
94.6258872399
 10
106.8624316898
 20
94.7114169831
 10
106.7927625167
 20
94.7987894122
 10
106.7243351777
 20
94.8879345427
 10
106.6572044791
 20
94.9787809755
 10
106.5914241952
 20
95.0712559396
 10
106.5270470257
 20
95.1652853488
 10
106.4641245437
 20
95.2607938736
 10
106.40270714
 20
95.3577050248
 10
106.3428439941
 20
95.4559412021
 10
106.2845830461
 20
95.5554237375
 10
106.2279709736
 20
95.6560729303
 10
106.1730531377
 20
95.7578081341
 10
106.1198735348
 20
95.8605478429
 10
106.0684747512
 20
95.9642097797
 10
106.0188979454
 20
96.068710935
 10
105.9711828235
 20
96.1739676152
 10
105.9253676102
 20
96.2798955011
 10
105.8814890069
 20
96.3864097371
 10
105.8395821605
 20
96.4934250043
 10
105.7996806369
 20
96.6008555873
 10
105.7618163973
 20
96.7086154336
 10
105.726019771
 20
96.8166182267
 10
105.6923194296
 20
96.9247774601
 10
105.6607423652
 20
97.0330065041
 10
105.6313138706
 20
97.1412186693
 10
105.6040575178
 20
97.2493272786
 10
105.5789951383
 20
97.3572457412
 10
105.5561468061
 20
97.4648876202
 10
105.5355308237
 20
97.5721666915
 10
105.5171637062
 20
97.6789970154
 10
105.5010601661
 20
97.7852930149
 10
105.4872331002
 20
97.890969556
 10
105.4756935824
 20
97.9959420053
 10
105.4664508553
 20
98.1001262886
 10
105.4595123235
 20
98.203438948
 10
105.4548835455
 20
98.3057972209
 10
105.4525682285
 20
98.4071191134
 10
105.4525682264
 20
98.5073234747
 10
105.4548835392
 20
98.6063300523
 10
105.459512313
 20
98.7040595492
 10
105.4664508406
 20
98.8004336789
 10
105.4756935635
 20
98.8953752376
 10
105.4872330773
 20
98.9888081725
 10
105.5010601391
 20
99.0806576516
 10
105.5171636753
 20
99.1708501145
 10
105.5355307888
 20
99.2593133244
 10
105.5561467672
 20
99.3459764165
 10
105.5789950947
 20
99.4307699645
 10
105.6040574677
 20
99.5136260432
 10
105.6313138128
 20
99.5944782938
 10
105.660742302
 20
99.6732619659
 10
105.692319367
 20
99.7499139619
 10
105.7260197129
 20
99.8243728761
 10
105.7618163407
 20
99.8965790561
 10
105.7996805726
 20
99.9664746584
 10
105.8395820834
 20
100.0340037065
 10
105.88148892
 20
100.099112123
 10
105.925367522
 20
100.1617477642
 10
105.9711827383
 20
100.2218604505
 10
106.0188978623
 20
100.27940202
 10
106.068474667
 20
100.3343263761
 10
106.1198734481
 20
100.3865895343
 10
106.1730530472
 20
100.4361496439
 10
106.2279708772
 20
100.482967014
 10
106.2845829424
 20
100.5270041358
 10
106.3428438844
 20
100.5682257264
 10
106.4027070278
 20
100.6065987632
 10
106.4641244307
 20
100.6420925173
 10
106.5270469115
 20
100.674678566
 10
106.5914240784
 20
100.704330811
 10
106.6572043591
 20
100.7310254963
 10
106.7243350547
 20
100.7547412356
 10
106.7927623909
 20
100.7754590324
 10
106.8624315614
 20
100.7931622938
 10
106.9332867619
 20
100.8078368402
 10
107.0052712307
 20
100.8194709169
 10
107.0783273163
 20
100.8280552073
 10
107.152396525
 20
100.8335828372
 10
107.2274195586
 20
100.8360493771
 10
107.3033362966
 20
100.8354528462
 10
107.3800858652
 20
100.8317937242
 10
107.4576067274
 20
100.8250749541
 10
107.5358368478
 20
100.8153019211
 10
107.6147136798
 20
100.802482438
 10
107.6941741031
 20
100.7866267525
 10
107.7741544157
 20
100.7677475651
 10
107.8545904997
 20
100.7458600063
 10
107.9354180167
 20
100.720981577
 10
108.0165721356
 20
100.6931322257
 10
108.0979875243
 20
100.6623343882
 10
108.1795988576
 20
100.6286128142
 10
108.2613408742
 20
100.5919945084
 10
108.3431480998
 20
100.5525088343
  0
LWPOLYLINE
  5
388
100
AcDbEntity
  8
RACCORDO
100
AcDbPolyline
 62
7
  6
CONTINUOUS
 90
27
 70
0
 10
111.6844776492
 20
122.2891741894
 10
111.6847536462
 20
122.2784103063
 10
111.6855448302
 20
122.2665504563
 10
111.6868566006
 20
122.2543376397
 10
111.6887093584
 20
122.2418318346
 10
111.6910321881
 20
122.2290548869
 10
111.6938267244
 20
122.2160499306
 10
111.6971044225
 20
122.202862952
 10
111.7008121722
 20
122.1895054394
 10
111.7049501873
 20
122.1760098758
 10
111.7095243911
 20
122.1624124249
 10
111.7144938833
 20
122.148721237
 10
111.7198583512
 20
122.1349620659
 10
111.7256203959
 20
122.1211640616
 10
111.73174695
 20
122.1073352815
 10
111.7382374951
 20
122.0934969615
 10
111.7450925408
 20
122.0796734275
 10
111.7522835524
 20
122.0658744674
 10
111.7598098506
 20
122.0521181812
 10
111.76767049
 20
122.0384255538
 10
111.7758389295
 20
122.0248091892
 10
111.7843144577
 20
122.0112845317
 10
111.7930947289
 20
121.9978705523
 10
111.8021524138
 20
121.9845844013
 10
111.8114772556
 20
121.9714421593
 10
111.8210748529
 20
121.9584585091
 10
111.8309418522
 20
121.9456477616
  0
LWPOLYLINE
  5
389
100
AcDbEntity
  8
RACCORDO
100
AcDbPolyline
 62
253
  6
CONTINUOUS
 90
31
 70
0
 10
109.9883384101
 20
124.6685824881
 10
109.9881481621
 20
124.6800631504
 10
109.9874708976
 20
124.6917533053
 10
109.9863084707
 20
124.7036208992
 10
109.984664064
 20
124.7156334034
 10
109.9825421845
 20
124.7277578683
 10
109.9799486556
 20
124.7399610135
 10
109.9768905921
 20
124.7522093692
 10
109.9733763789
 20
124.7644693574
 10
109.9694156572
 20
124.7767073493
 10
109.9650192906
 20
124.7888897857
 10
109.9601993354
 20
124.8009832648
 10
109.9549690123
 20
124.8129546221
 10
109.9493426585
 20
124.8247710466
 10
109.9433357099
 20
124.8364001245
 10
109.9369646651
 20
124.8478099267
 10
109.9302470283
 20
124.8589691261
 10
109.9232011989
 20
124.869847178
 10
109.9158464363
 20
124.8804143514
 10
109.9082028039
 20
124.8906417993
 10
109.9002913509
 20
124.9005013371
 10
109.8921340166
 20
124.9099656489
 10
109.8837533504
 20
124.9190086482
 10
109.8751721907
 20
124.9276057651
 10
109.8664138311
 20
124.9357336885
 10
109.857500321
 20
124.9433717477
 10
109.8484580006
 20
124.9504971666
 10
109.8393174318
 20
124.9570864384
 10
109.8301057589
 20
124.9631213252
 10
109.8208463951
 20
124.9685878058
 10
109.8115647065
 20
124.9734720269
  0
LWPOLYLINE
  5
38A
100
AcDbEntity
  8
0
100
AcDbPolyline
 62
7
  6
CONTINUOUS
 90
58
 70
0
 10
112.1036715905
 20
95.7236947173
 10
112.1024802989
 20
95.8310729264
 10
112.0989053595
 20
95.9396473494
 10
112.0929449262
 20
96.0493377647
 10
112.0845959831
 20
96.1601049206
 10
112.0738615554
 20
96.2718250053
 10
112.0607597071
 20
96.3842865785
 10
112.0453141473
 20
96.497328418
 10
112.0275331369
 20
96.6109374997
 10
112.0074164051
 20
96.7251228845
 10
111.9849666465
 20
96.8398558108
 10
111.9602066025
 20
96.9549926914
 10
111.9331673205
 20
97.0703704045
 10
111.9038822602
 20
97.1858549287
 10
111.8723669054
 20
97.301404618
 10
111.8386286899
 20
97.4169944152
 10
111.8026796252
 20
97.532579719
 10
111.7645561539
 20
97.6480295825
 10
111.724304928
 20
97.7631897647
 10
111.6819753786
 20
97.8779265032
 10
111.6375869155
 20
97.9922001499
 10
111.5911430861
 20
98.1059976996
 10
111.5426550616
 20
98.219284583
 10
111.4921783272
 20
98.3319213991
 10
111.4397855744
 20
98.4437390016
 10
111.3855484016
 20
98.5545953418
 10
111.3294831686
 20
98.6644666212
 10
111.271581341
 20
98.7733614308
 10
111.2118492245
 20
98.881257481
 10
111.1503634753
 20
98.9880083833
 10
111.0872230976
 20
99.0934382409
 10
111.022517527
 20
99.1974083566
 10
110.9562609909
 20
99.2999037002
 10
110.8884417396
 20
99.4009350815
 10
110.8190665834
 20
99.5004832367
 10
110.7482275798
 20
99.5984090762
 10
110.6760425557
 20
99.6945460258
 10
110.6026140735
 20
99.7887664834
 10
110.5279559975
 20
99.8810610944
 10
110.4520549351
 20
99.9714425638
 10
110.3749217254
 20
100.0598910238
 10
110.2966578685
 20
100.1462831831
 10
110.2173868422
 20
100.2304788343
 10
110.1372116016
 20
100.3123750871
 10
110.0561540856
 20
100.3919567227
 10
109.9742179956
 20
100.4692183875
 10
109.8914344904
 20
100.5441263855
 10
109.8078958946
 20
100.6165933593
 10
109.7236977061
 20
100.6865342076
 10
109.6389209179
 20
100.7538842868
 10
109.5536137914
 20
100.8186069717
 10
109.4678238922
 20
100.8806637321
 10
109.3816092541
 20
100.9400105103
 10
109.2950424404
 20
100.9965980344
 10
109.2081930596
 20
101.050381875
 10
109.1211283942
 20
101.1013207115
 10
109.0339133215
 20
101.1493760744
 10
108.9466141064
 20
101.194511296
  0
LWPOLYLINE
  5
38B
100
AcDbEntity
  8
0
100
AcDbPolyline
 62
7
  6
CONTINUOUS
 90
100
 70
0
 10
110.8361282095
 20
84.0127455071
 10
110.835462732
 20
84.0806374979
 10
110.8365913086
 20
84.1473987573
 10
110.8395138423
 20
84.2130292319
 10
110.8442389956
 20
84.2775875621
 10
110.85075793
 20
84.34101501
 10
110.8590442231
 20
84.4031354147
 10
110.8691033406
 20
84.4639494048
 10
110.8809294797
 20
84.5234561687
 10
110.8944791656
 20
84.5814773048
 10
110.9097551727
 20
84.6380026552
 10
110.926754242
 20
84.6930421167
 10
110.9454237085
 20
84.7464472963
 10
110.9657683667
 20
84.7982168624
 10
110.9877828278
 20
84.8483518276
 10
111.0113990285
 20
84.8967072495
 10
111.0366236264
 20
84.9432808515
 10
111.0634492693
 20
84.9880745387
 10
111.09178676
 20
85.0309495777
 10
111.1216313834
 20
85.0718906227
 10
111.1529870717
 20
85.1109126018
 10
111.1857775054
 20
85.1479221443
 10
111.2200160852
 20
85.182925205
 10
111.2556886037
 20
85.2159153994
 10
111.2926772507
 20
85.2467808056
 10
111.3309740735
 20
85.2755071504
 10
111.3705861782
 20
85.3021082568
 10
111.411418279
 20
85.3265143133
 10
111.4534809752
 20
85.3487254993
 10
111.4967628442
 20
85.3687411982
 10
111.5411355252
 20
85.3864903815
 10
111.5866059523
 20
85.4019658068
 10
111.6331663976
 20
85.4151742957
 10
111.6806664729
 20
85.4260658973
 10
111.7291074181
 20
85.4346312101
 10
111.7784872584
 20
85.4408792464
 10
111.8286507686
 20
85.4447876688
 10
111.8796078435
 20
85.4463464242
 10
111.9313479453
 20
85.4455652254
 10
111.9836852033
 20
85.4424513861
 10
112.0366146561
 20
85.4369952134
 10
112.0901407368
 20
85.4292061208
 10
112.144091685
 20
85.4191200911
 10
112.1984580065
 20
85.4067334408
 10
112.2532488065
 20
85.3920496478
 10
112.308320255
 20
85.3751154535
 10
112.3636849341
 20
85.3559208765
 10
112.4193300248
 20
85.334475773
 10
112.4750736322
 20
85.3108566594
 10
112.5308956569
 20
85.2850683963
 10
112.5868161186
 20
85.257106081
 10
112.64271334
 20
85.227031606
 10
112.6986071645
 20
85.1948300494
 10
112.7544778283
 20
85.1605163752
 10
112.8101442832
 20
85.1241973257
 10
112.8655935164
 20
85.0858763207
 10
112.920838777
 20
85.0455500653
 10
112.9757384462
 20
85.0033152498
 10
113.030300937
 20
84.9591607735
 10
113.0845182242
 20
84.913097942
 10
113.1382240623
 20
84.8652570714
 10
113.1914245831
 20
84.8156242011
 10
113.2441141823
 20
84.7642135706
 10
113.2961090299
 20
84.7111978064
 10
113.3474016645
 20
84.6565753413
 10
113.3980001915
 20
84.6003480832
 10
113.4477441355
 20
84.5426938738
 10
113.4966340525
 20
84.4836027733
 10
113.5446701242
 20
84.4230851121
 10
113.5916913003
 20
84.3613491297
 10
113.6376901424
 20
84.298394984
 10
113.6826748849
 20
84.2342229392
 10
113.7265079511
 20
84.169041376
 10
113.7691773931
 20
84.10286289
 10
113.8106959821
 20
84.0356753225
 10
113.8509631756
 20
83.9676498998
 10
113.8899861114
 20
83.8987676482
 10
113.9277584958
 20
83.8290479901
 10
113.9641595753
 20
83.7587197113
 10
113.9991765957
 20
83.6878011474
 10
114.0328231172
 20
83.6162743921
 10
114.0650177794
 20
83.5443138271
 10
114.0957652918
 20
83.4719015912
 10
114.1250617249
 20
83.3990559617
 10
114.1528126655
 20
83.3260054785
 10
114.179012016
 20
83.2527537156
 10
114.2036665675
 20
83.1792974699
 10
114.2267011224
 20
83.1058550525
 10
114.2481103017
 20
83.0324326343
 10
114.2679000755
 20
82.9590243615
 10
114.2860121461
 20
82.8858304426
 10
114.3024443197
 20
82.8128457178
 10
114.317199274
 20
82.7400756077
 10
114.3302258846
 20
82.6677361193
 10
114.3415195558
 20
82.5958326327
 10
114.3510852282
 20
82.5243599549
 10
114.3588859379
 20
82.4535181574
 10
114.3649094008
 20
82.3833739515
 10
114.369168092
 20
82.3138607311
 10
114.3716621153
 20
82.2449785535
  0
LINE
  5
38C
100
AcDbEntity
  8
RACCORDO
100
AcDbLine
 62
253
  6
CONTINUOUS
 10
109.9883384101
 20
124.6685824881
 11
109.9883384101
 21
124.3210509714
  0
LINE
  5
38D
100
AcDbEntity
  8
RACCORDO
100
AcDbLine
 62
7
  6
CONTINUOUS
 10
110.0605362671
 20
124.7564551203
 11
110.0605362671
 21
124.4089236035
  0
LINE
  5
38E
100
AcDbEntity
  8
RACCORDO
100
AcDbLine
 62
7
  6
CONTINUOUS
 10
111.6844952428
 20
122.2887175926
 11
111.6844952428
 21
121.0485285599
  0
LINE
  5
38F
100
AcDbEntity
  8
RACCORDO
100
AcDbLine
 62
253
  6
CONTINUOUS
 10
111.8309418522
 20
121.9456477616
 11
111.8309418522
 21
120.8650644508
  0
LWPOLYLINE
  5
390
100
AcDbEntity
  8
0
100
AcDbPolyline
 62
7
  6
CONTINUOUS
 90
17
 70
0
 10
111.9349449726
 20
83.6782704116
 10
111.9364403635
 20
83.7404663398
 10
111.9409214764
 20
83.8009564257
 10
111.9483731486
 20
83.85953599
 10
111.9587701661
 20
83.9160068181
 10
111.9720773485
 20
83.9701778304
 10
111.9882496685
 20
84.0218657295
 10
112.0072324043
 20
84.0708956198
 10
112.0289613242
 20
84.1171015998
 10
112.0533629044
 20
84.160327323
 10
112.0803545777
 20
84.2004265273
 10
112.1098450129
 20
84.2372635296
 10
112.1417344235
 20
84.2707136851
 10
112.175914906
 20
84.3006638093
 10
112.2122708044
 20
84.3270125602
 10
112.2506791019
 20
84.3496707821
 10
112.2598114547
 20
84.3543626621
  0
LINE
  5
391
100
AcDbEntity
  8
RACCORDO
100
AcDbLine
 62
7
  6
CONTINUOUS
 10
118.4049720204
 20
118.3305426161
 11
118.0472928711
 21
118.1309466642
  0
LINE
  5
392
100
AcDbEntity
  8
RACCORDO
100
AcDbLine
 62
7
  6
CONTINUOUS
 10
121.1914362573
 20
118.7062894835
 11
119.6082645624
 21
117.8940924362
  0
LINE
  5
393
100
AcDbEntity
  8
RACCORDO
100
AcDbLine
 62
253
  6
CONTINUOUS
 10
121.3041068317
 20
118.6996285584
 11
119.7213502285
 21
117.8876444611
  0
LINE
  5
394
100
AcDbEntity
  8
RACCORDO
100
AcDbLine
 62
7
  6
CONTINUOUS
 10
118.0472928711
 20
119.3636736366
 11
118.4049720204
 21
119.5429781814
  0
LINE
  5
395
100
AcDbEntity
  8
RACCORDO
100
AcDbLine
 62
7
  6
CONTINUOUS
 10
121.1931746428
 20
118.7071587163
 11
121.191438231
 21
118.7062904961
  0
LINE
  5
396
100
AcDbEntity
  8
ASSI
100
AcDbLine
 62
7
  6
CONTINUOUS
 10
118.4049720204
 20
119.5429781814
 11
123.6794640895
 21
122.1732873153
  0
LINE
  5
397
100
AcDbEntity
  8
DRAFT
100
AcDbLine
 62
7
  6
CONTINUOUS
 10
118.4049720204
 20
118.3305426161
 11
123.7298060906
 21
120.966874048
  0
LINE
  5
398
100
AcDbEntity
  8
ASSI
100
AcDbLine
 62
7
  6
CONTINUOUS
 10
123.0739336549
 20
122.4760525326
 11
118.4756826985
 21
120.2096912351
  0
LINE
  5
399
100
AcDbEntity
  8
RACCORDO
100
AcDbLine
 62
7
  6
CONTINUOUS
 10
124.492260931
 20
122.2884937206
 11
123.8534001545
 21
121.9758915955
  0
LINE
  5
39A
100
AcDbEntity
  8
RACCORDO
100
AcDbLine
 62
7
  6
CONTINUOUS
 10
121.7280445992
 20
118.967710816
 11
121.1931774084
 21
118.7071600635
  0
LINE
  5
39B
100
AcDbEntity
  8
RACCORDO
100
AcDbLine
 62
253
  6
CONTINUOUS
 10
121.8385567103
 20
118.959976025
 11
121.3041068317
 21
118.6996285584
  0
LINE
  5
39C
100
AcDbEntity
  8
0
100
AcDbLine
 62
7
  6
CONTINUOUS
 10
134.3502299362
 20
127.2077635353
 11
141.7748511386
 21
130.7613505752
  0
LWPOLYLINE
  5
39D
100
AcDbEntity
  8
RACCORDO
100
AcDbPolyline
 62
7
  6
CONTINUOUS
 90
18
 70
0
 10
124.492260931
 20
122.2884937206
 10
124.5206354518
 20
122.3016756774
 10
124.5488699038
 20
122.3134100691
 10
124.576964287
 20
122.3236968958
 10
124.6049686001
 20
122.3325490304
 10
124.6328328444
 20
122.3399536
 10
124.660407024
 20
122.3458719856
 10
124.6876761527
 20
122.3502954069
 10
124.7146552167
 20
122.3532326442
 10
124.7412391793
 20
122.3546714202
 10
124.7674441381
 20
122.3546042836
 10
124.7932539956
 20
122.3530386856
 10
124.8185154219
 20
122.3499847022
 10
124.8432051752
 20
122.3454389178
 10
124.8673464973
 20
122.339404748
 10
124.8908557836
 20
122.3319025152
 10
124.9137515638
 20
122.3229171006
 10
124.9333136481
 20
122.3138273675
  0
LWPOLYLINE
  5
39E
100
AcDbEntity
  8
RACCORDO
100
AcDbPolyline
 62
7
  6
CONTINUOUS
 90
18
 70
0
 10
121.7280445992
 20
118.967710816
 10
121.740265559
 20
118.9732631822
 10
121.7528946826
 20
118.9781976223
 10
121.7658934818
 20
118.9824762513
 10
121.7792387323
 20
118.9860688252
 10
121.7928644616
 20
118.9889370523
 10
121.8066634205
 20
118.9910465243
 10
121.8205624025
 20
118.9923827724
 10
121.8345318238
 20
118.99294116
 10
121.8485326754
 20
118.9927168071
 10
121.8625061396
 20
118.9917082007
 10
121.8764118949
 20
118.9899167333
 10
121.8902453348
 20
118.987337741
 10
121.9040133962
 20
118.9839564788
 10
121.9176144452
 20
118.9797843803
 10
121.9309002757
 20
118.9748678692
 10
121.9438344311
 20
118.969231079
 10
121.9493376748
 20
118.9665629134
  0
LINE
  5
39F
100
AcDbEntity
  8
RACCORDO
100
AcDbLine
 62
7
  6
CONTINUOUS
 10
117.4836255684
 20
119.2313959723
 11
117.3846672049
 21
119.2020843143
  0
LWPOLYLINE
  5
3A0
100
AcDbEntity
  8
RACCORDO
100
AcDbPolyline
 62
7
  6
CONTINUOUS
 90
4
 70
0
 10
117.3846672049
 20
119.2020843143
 10
117.3628476482
 20
119.195756963
 10
117.3523982157
 20
119.1927968277
 10
117.3422489518
 20
119.1899942118
  0
LWPOLYLINE
  5
3A1
100
AcDbEntity
  8
0
100
AcDbPolyline
 62
253
  6
CONTINUOUS
 90
10
 70
0
 10
112.1036715905
 20
95.7236947173
 10
112.1903752322
 20
95.6484000602
 10
112.2748892307
 20
95.5724855573
 10
112.3571958648
 20
95.4959671265
 10
112.4372778751
 20
95.4188608138
 10
112.5151184704
 20
95.3411827861
 10
112.5907013317
 20
95.2629493285
 10
112.6640106111
 20
95.1841768441
 10
112.7350309354
 20
95.1048818514
 10
112.8037474124
 20
95.0250809773
  0
LWPOLYLINE
  5
3A2
100
AcDbEntity
  8
RACCORDO
100
AcDbPolyline
 62
253
  6
CONTINUOUS
 90
25
 70
0
 10
116.2946615694
 20
75.760696387
 10
116.2968769174
 20
75.7161664692
 10
116.3004157405
 20
75.6724066441
 10
116.3052736189
 20
75.6294709623
 10
116.3114445294
 20
75.5874129822
 10
116.3189207893
 20
75.5462840473
 10
116.3276932507
 20
75.5061333606
 10
116.3377515589
 20
75.467009682
 10
116.3490832505
 20
75.4289623401
 10
116.3616737307
 20
75.3920395208
 10
116.3755074793
 20
75.3562871532
 10
116.3905676428
 20
75.3217489542
 10
116.4068352888
 20
75.288467558
 10
116.4242906199
 20
75.2564839541
 10
116.4429122308
 20
75.2258376734
 10
116.4626766455
 20
75.1965667919
 10
116.48355985
 20
75.1687072845
 10
116.5055362169
 20
75.1422936299
 10
116.528577791
 20
75.1173590182
 10
116.5526563691
 20
75.0939341801
 10
116.5777425372
 20
75.0720478651
 10
116.603804609
 20
75.051727462
 10
116.630810767
 20
75.0329979151
 10
116.6587279582
 20
75.0158822343
 10
116.6880878123
 20
75.0001180175
  0
LWPOLYLINE
  5
3A3
100
AcDbEntity
  8
DRAFT
100
AcDbPolyline
 62
7
  6
CONTINUOUS
 90
14
 70
0
 10
113.9593164232
 20
82.8485848742
 10
113.959925444
 20
82.807458298
 10
113.9593406031
 20
82.76693868
 10
113.9575616306
 20
82.7270773913
 10
113.9545903469
 20
82.6879175475
 10
113.9504283022
 20
82.6495170494
 10
113.9450793092
 20
82.6119467887
 10
113.9385519387
 20
82.5752613248
 10
113.9308553717
 20
82.5394977514
 10
113.9219985657
 20
82.5046977209
 10
113.911996664
 20
82.4709114118
 10
113.9008602695
 20
82.4381735503
 10
113.8885913194
 20
82.4065029169
 10
113.8751959522
 20
82.375926263
  0
LWPOLYLINE
  5
3A4
100
AcDbEntity
  8
0
100
AcDbPolyline
 62
7
  6
CONTINUOUS
 90
100
 70
0
 10
114.3716621153
 20
82.2449785535
 10
114.3723352997
 20
82.1770692608
 10
114.3712329233
 20
82.1103086979
 10
114.3683548858
 20
82.0446968128
 10
114.3636918336
 20
81.9801761165
 10
114.3572529368
 20
81.9168040034
 10
114.3490658071
 20
81.8547527073
 10
114.3391257163
 20
81.7940234787
 10
114.3274370503
 20
81.7346148872
 10
114.3140409472
 20
81.6766950679
 10
114.2989329473
 20
81.6202685041
 10
114.2821170309
 20
81.5653304586
 10
114.2636468581
 20
81.5120351621
 10
114.2435206669
 20
81.4603908042
 10
114.221739621
 20
81.4103888771
 10
114.1983616484
 20
81.3621585009
 10
114.1733781033
 20
81.3156954182
 10
114.1467969506
 20
81.2710035231
 10
114.1187009231
 20
81.2282241028
 10
114.0890923137
 20
81.1873702561
 10
114.0579680571
 20
81.148428471
 10
114.025402753
 20
81.1115000662
 10
113.9913864645
 20
81.076582075
 10
113.9559283238
 20
81.0436770328
 10
113.9191314553
 20
81.0128944689
 10
113.8809829786
 20
80.9842380435
 10
113.841494938
 20
80.9577036474
 10
113.8008077675
 20
80.9333891146
 10
113.7589200524
 20
80.911307159
 10
113.7158323601
 20
80.8914446109
 10
113.6716880423
 20
80.8738604489
 10
113.6264856223
 20
80.8585638891
 10
113.580225767
 20
80.8455452794
 10
113.5330550155
 20
80.8348352811
 10
113.4849709236
 20
80.8264412714
 10
113.4359751974
 20
80.8203554753
 10
113.3862205941
 20
80.8165858212
 10
113.3357203583
 20
80.8151362598
 10
113.2844606045
 20
80.8160024946
 10
113.2325534052
 20
80.8191800896
 10
113.1799828093
 20
80.8246733362
 10
113.1267642512
 20
80.8324776639
 10
113.0730569017
 20
80.8425753546
 10
113.0188666147
 20
80.8549699644
 10
112.9641871509
 20
80.869657729
 10
112.9091595693
 20
80.8866099648
 10
112.8537717064
 20
80.9058361406
 10
112.7980354878
 20
80.927326659
 10
112.7421281413
 20
80.9510242567
 10
112.6860370122
 20
80.9769451292
 10
112.6297746741
 20
81.0050730372
 10
112.5735562365
 20
81.0353020857
 10
112.5173910305
 20
81.0676383266
 10
112.461269806
 20
81.1020757519
 10
112.4053798404
 20
81.1384903975
 10
112.3497334814
 20
81.1768807811
 10
112.2943186195
 20
81.2172485139
 10
112.2392858809
 20
81.2594742912
 10
112.1846307149
 20
81.3035674861
 10
112.1303580581
 20
81.349518934
 10
112.0766327937
 20
81.3971815386
 10
112.0234719223
 20
81.4465434656
 10
111.9708589598
 20
81.4976168281
 10
111.9189085827
 20
81.5502904619
 10
111.8676085542
 20
81.6045803804
 10
111.8169717504
 20
81.6604709152
 10
111.7671505268
 20
81.7178033847
 10
111.7181466775
 20
81.7765830298
 10
111.6699591452
 20
81.8368050069
 10
111.6227360029
 20
81.8982955043
 10
111.576477433
 20
81.9610634967
 10
111.5311840631
 20
82.0251004457
 10
111.4870046082
 20
82.0902062565
 10
111.4439377384
 20
82.1563964408
 10
111.4019856345
 20
82.2236559446
 10
111.3613022232
 20
82.2917387942
 10
111.3219001163
 20
82.3606382597
 10
111.2837675419
 20
82.430361522
 10
111.2470217734
 20
82.5006834313
 10
111.211674106
 20
82.5715910718
 10
111.1777140495
 20
82.6430977908
 10
111.1452261165
 20
82.7150177889
 10
111.1142084971
 20
82.7873652003
 10
111.08466377
 20
82.8601263021
 10
111.0566829337
 20
82.9330734562
 10
111.0302746468
 20
83.0061953419
 10
111.0054309288
 20
83.0795036416
 10
110.9822177055
 20
83.1528051619
 10
110.9606369515
 20
83.2261046623
 10
110.9406872851
 20
83.2993976985
 10
110.9224294788
 20
83.3724772077
 10
110.9058675577
 20
83.4453420007
 10
110.8909979735
 20
83.5179935191
 10
110.8778700062
 20
83.5902285746
 10
110.8664873717
 20
83.6620441306
 10
110.8568467025
 20
83.733443407
 10
110.8489865167
 20
83.8042325276
 10
110.8429196948
 20
83.8743468877
 10
110.8386335563
 20
83.9438511955
 10
110.8361282095
 20
84.0127455071
  0
LWPOLYLINE
  5
3A5
100
AcDbEntity
  8
0
100
AcDbPolyline
 62
253
  6
CONTINUOUS
 90
200
 70
0
 10
112.8465910546
 20
94.993249633
 10
112.8462793134
 20
94.920251237
 10
112.8449872347
 20
94.8461553702
 10
112.8427154942
 20
94.7709623729
 10
112.8394488153
 20
94.6939732998
 10
112.8352040831
 20
94.6158879064
 10
112.8300292782
 20
94.5388041146
 10
112.8238358126
 20
94.4628574269
 10
112.8167117754
 20
94.3879120959
 10
112.8089683868
 20
94.3156582782
 10
112.8005760759
 20
94.246399015
 10
112.791562321
 20
94.1798302191
 10
112.7823227519
 20
94.1167307696
 10
112.7729238081
 20
94.0575549594
 10
112.7632964284
 20
94.001847181
 10
112.7536328616
 20
93.9490213977
 10
112.7439696169
 20
93.8991014869
 10
112.7342683517
 20
93.8520626506
 10
112.7246094568
 20
93.8072460499
 10
112.7150196515
 20
93.7646397485
 10
112.7054709816
 20
93.7242550621
 10
112.6959622141
 20
93.685468224
 10
112.6865148202
 20
93.6482672437
 10
112.6771065444
 20
93.6126637174
 10
112.6676708892
 20
93.5780694226
 10
112.6582239005
 20
93.5444683121
 10
112.6487490951
 20
93.5118762133
 10
112.6391314606
 20
93.4797528566
 10
112.6293617604
 20
93.4480192045
 10
112.6194490774
 20
93.4167542175
 10
112.609306078
 20
93.3856547243
 10
112.5989026015
 20
93.3546138696
 10
112.5882688056
 20
93.3237385077
 10
112.577407902
 20
93.2930460657
 10
112.5663138224
 20
93.262523523
 10
112.5549926098
 20
93.232183888
 10
112.5434656246
 20
93.2020836221
 10
112.5317323803
 20
93.172226661
 10
112.5197933083
 20
93.1426090417
 10
112.5076711207
 20
93.1132753647
 10
112.4954198651
 20
93.0843409284
 10
112.4829853985
 20
93.0556903867
 10
112.470228211
 20
93.0270224057
 10
112.4572017955
 20
92.9984108331
 10
112.4438527181
 20
92.9697818514
 10
112.429881289
 20
92.9406127356
 10
112.4153067171
 20
92.9108806644
 10
112.4001101518
 20
92.8806086411
 10
112.383935093
 20
92.8493428184
 10
112.3667549407
 20
92.8169748415
 10
112.3485969947
 20
92.7836134205
 10
112.3291858249
 20
92.7491304186
 10
112.3084132122
 20
92.7133239156
 10
112.2863883239
 20
92.6763963135
 10
112.2631617633
 20
92.6388259343
 10
112.2387144437
 20
92.6006129282
 10
112.2130661641
 20
92.561757508
 10
112.1863255748
 20
92.5227379466
 10
112.1585874793
 20
92.4836963488
 10
112.1297574667
 20
92.4444908109
 10
112.0996602245
 20
92.4051735221
 10
112.068357588
 20
92.3657863388
 10
112.0357881766
 20
92.3262876376
 10
112.0015919504
 20
92.2866044366
 10
111.965576247
 20
92.2465182126
 10
111.927934458
 20
92.206247862
 10
111.8888854801
 20
92.1663764583
 10
111.8482584376
 20
92.1268278452
 10
111.8062244557
 20
92.0876783086
 10
111.7635147955
 20
92.0497392608
 10
111.7203205825
 20
92.0132525033
 10
111.6764500329
 20
91.9779759013
 10
111.632059592
 20
91.9439947323
 10
111.5872566749
 20
91.9113834486
 10
111.5419331828
 20
91.8800672509
 10
111.4959223147
 20
91.8499075505
 10
111.4491585898
 20
91.8208471868
 10
111.4017070177
 20
91.7929430814
 10
111.3535965928
 20
91.7662278003
 10
111.3048090223
 20
91.7406978564
 10
111.2553621074
 20
91.7163564868
 10
111.205338952
 20
91.6932463281
 10
111.1547576451
 20
91.6713799997
 10
111.1035995799
 20
91.6507446184
 10
111.0518927955
 20
91.6313445554
 10
110.9996384183
 20
91.6131773904
 10
110.9468348295
 20
91.5962452927
 10
110.8935059475
 20
91.5805595163
 10
110.8396461943
 20
91.5661199832
 10
110.7852606762
 20
91.5529265305
 10
110.7303893332
 20
91.5409902825
 10
110.6750303957
 20
91.5303137907
 10
110.6191851807
 20
91.5208942721
 10
110.5628982544
 20
91.5127348469
 10
110.5061700474
 20
91.5058352062
 10
110.448999702
 20
91.5001954402
 10
110.3914298512
 20
91.4958192677
 10
110.3334662623
 20
91.4927073579
 10
110.2751027686
 20
91.4908588368
 10
110.2163641043
 20
91.4902751089
 10
110.1572519226
 20
91.4909563622
 10
110.0977642058
 20
91.4929022217
 10
110.0379201869
 20
91.4961132503
 10
109.9776930426
 20
91.5005928142
 10
109.9171092697
 20
91.5063373797
 10
109.8562680846
 20
91.5133371608
 10
109.7951927008
 20
91.5215921109
 10
109.7338596073
 20
91.5311021238
 10
109.6722979391
 20
91.5418573273
 10
109.6107501887
 20
91.5537849409
 10
109.5489736066
 20
91.566957613
 10
109.4862694888
 20
91.5815836265
 10
109.4227374231
 20
91.5975684927
 10
109.358277639
 20
91.6150066064
 10
109.2918924191
 20
91.6343895887
 10
109.2235710928
 20
91.655634456
 10
109.1533241839
 20
91.6788241162
 10
109.0801857573
 20
91.7046990234
 10
109.003624579
 20
91.7334237747
 10
108.9241717422
 20
91.7648337005
 10
108.8424547718
 20
91.7991753383
 10
108.7578864325
 20
91.836829767
 10
108.6710538419
 20
91.8774158471
 10
108.5843460514
 20
91.9200367867
 10
108.497781941
 20
91.9649061897
 10
108.4113426414
 20
92.0118104577
 10
108.3273606052
 20
92.0592120082
 10
108.2465088611
 20
92.1068291806
 10
108.1681145072
 20
92.1549437009
 10
108.092491091
 20
92.2028630616
 10
108.0200700221
 20
92.2502672286
 10
107.9504200329
 20
92.297476309
 10
107.8825606235
 20
92.3447579918
 10
107.816496697
 20
92.3920234276
 10
107.7522234996
 20
92.4393615426
 10
107.6887460416
 20
92.4873066868
 10
107.6259354877
 20
92.5358915086
 10
107.5639208645
 20
92.5850834581
 10
107.5020940009
 20
92.6353191005
 10
107.4402296526
 20
92.6867612558
 10
107.3785533289
 20
92.7392472403
 10
107.3171330106
 20
92.7927253753
 10
107.2559622394
 20
92.8472052355
 10
107.1950477753
 20
92.9026774011
 10
107.1344774306
 20
92.9590617029
 10
107.0742740247
 20
93.0163382713
 10
107.0144150698
 20
93.0745271461
 10
106.9549204209
 20
93.1336080238
 10
106.8957873564
 20
93.1935845479
 10
106.8370189674
 20
93.2544532644
 10
106.7786438326
 20
93.3161832261
 10
106.7206577689
 20
93.378779159
 10
106.6630653621
 20
93.4422365434
 10
106.6059083459
 20
93.5065105642
 10
106.5491867944
 20
93.5716013399
 10
106.4929010639
 20
93.6375089722
 10
106.4370933109
 20
93.7041886208
 10
106.3817650429
 20
93.7716418472
 10
106.3269152086
 20
93.8398673232
 10
106.2725821231
 20
93.9088158719
 10
106.2187698582
 20
93.9784835534
 10
106.1654748174
 20
94.0488745504
 10
106.112723808
 20
94.1199518678
 10
106.0605141531
 20
94.1917174334
 10
106.0088490255
 20
94.2641695724
 10
105.9577640022
 20
94.3372658822
 10
105.9072439839
 20
94.41103401
 10
105.8573045869
 20
94.4854465719
 10
105.8080274391
 20
94.5603786069
 10
105.7594370861
 20
94.6357972247
 10
105.7115094708
 20
94.7117355639
 10
105.6642532924
 20
94.7881676948
 10
105.6177207644
 20
94.8649931343
 10
105.5718601613
 20
94.942312613
 10
105.5265243355
 20
95.0204020536
 10
105.4815896751
 20
95.0994792081
 10
105.4371804851
 20
95.1793266763
 10
105.3935214779
 20
95.2595676442
 10
105.3504727297
 20
95.3405358007
 10
105.3081747386
 20
95.4218977474
 10
105.2672724043
 20
95.5022758117
 10
105.2279355247
 20
95.5814082869
 10
105.1899940612
 20
95.6595567547
 10
105.1535826187
 20
95.7361282003
 10
105.1188332191
 20
95.8108427426
 10
105.0856132511
 20
95.8839799606
 10
105.0536602351
 20
95.9557859609
 10
105.0229087325
 20
96.0263916154
 10
104.9934237555
 20
96.0956658335
 10
104.9651384866
 20
96.1634617708
 10
104.9379920348
 20
96.2299447454
 10
104.91204478
 20
96.2949491778
 10
104.887411587
 20
96.3578317641
 10
104.8641319046
 20
96.418514806
 10
104.8421654367
 20
96.4770755704
 10
104.8215071637
 20
96.5331030653
 10
104.8022711752
 20
96.5862576541
 10
104.784342374
 20
96.6368784615
 10
104.7673719816
 20
96.6855726488
 10
104.7513681308
 20
96.7322507613
  0
LWPOLYLINE
  5
3A6
100
AcDbEntity
  8
0
100
AcDbPolyline
 62
253
  6
CONTINUOUS
 90
48
 70
0
 10
104.7513681308
 20
96.7322507613
 10
104.7363220228
 20
96.7770019156
 10
104.7218597504
 20
96.8207012658
 10
104.7079593412
 20
96.8633518179
 10
104.6946424525
 20
96.9049504058
 10
104.6816009143
 20
96.9463630744
 10
104.6687648124
 20
96.9877726065
 10
104.6562040606
 20
97.0289962186
 10
104.6438204278
 20
97.0703517052
 10
104.6315693119
 20
97.1119815781
 10
104.619495419
 20
97.1537433777
 10
104.6076345157
 20
97.1955274589
 10
104.5959897793
 20
97.2373301279
 10
104.5845580839
 20
97.2791551039
 10
104.5733657051
 20
97.3209038435
 10
104.5624215152
 20
97.3625472179
 10
104.5517166555
 20
97.4041143621
 10
104.5412507852
 20
97.4455941183
 10
104.5310567584
 20
97.4868371716
 10
104.521101715
 20
97.5279928333
 10
104.511286821
 20
97.5694979244
 10
104.5016140669
 20
97.6112960375
 10
104.492081629
 20
97.6534436635
 10
104.4825851508
 20
97.6965470706
 10
104.47310957
 20
97.7406077617
 10
104.4636703771
 20
97.7856244492
 10
104.4542093027
 20
97.8321993452
 10
104.44470701
 20
97.880339783
 10
104.4351835838
 20
97.9300388052
 10
104.4256401873
 20
97.9818773392
 10
104.4160534826
 20
98.03586228
 10
104.4064479695
 20
98.0919873163
 10
104.3968969301
 20
98.1508137481
 10
104.3873645039
 20
98.2124150731
 10
104.3778882784
 20
98.2767186603
 10
104.3686520916
 20
98.3440668095
 10
104.3595940245
 20
98.4149599111
 10
104.3507784244
 20
98.4888987921
 10
104.3425783777
 20
98.5647263302
 10
104.3350243611
 20
98.6426538831
 10
104.3280877698
 20
98.7224710285
 10
104.3220520146
 20
98.8023874462
 10
104.3169941413
 20
98.8824261033
 10
104.3128375934
 20
98.9625642729
 10
104.3096338617
 20
99.0409423339
 10
104.3073993816
 20
99.1169400462
 10
104.3061164307
 20
99.1911770008
 10
104.3057844692
 20
99.2636529256
  0
LWPOLYLINE
  5
3A7
100
AcDbEntity
  8
0
100
AcDbPolyline
 62
253
  6
CONTINUOUS
 90
200
 70
0
 10
112.8037474124
 20
95.0250809773
 10
112.8033407246
 20
94.953026831
 10
112.8020836742
 20
94.8798448135
 10
112.7999191054
 20
94.8055587186
 10
112.7967561553
 20
94.7295152175
 10
112.7925501808
 20
94.652422793
 10
112.7873889523
 20
94.5763072118
 10
112.7812997221
 20
94.501280485
 10
112.7742957609
 20
94.4272661687
 10
112.7665867793
 20
94.3559450985
 10
112.7582842022
 20
94.2875364576
 10
112.7494407646
 20
94.2217694091
 10
112.7402693431
 20
94.1595067595
 10
112.7309417128
 20
94.1011043751
 10
112.7214909725
 20
94.0460537064
 10
112.7119340507
 20
93.9938998541
 10
112.7023546554
 20
93.9446337339
 10
112.6928151405
 20
93.8981550953
 10
112.6832689351
 20
93.8538982333
 10
112.6737702814
 20
93.811840142
 10
112.6643672797
 20
93.771941375
 10
112.6549741905
 20
93.7336387851
 10
112.645624325
 20
93.6969137608
 10
112.6363486098
 20
93.6617433625
 10
112.6270308217
 20
93.6275786773
 10
112.6176876132
 20
93.5944047542
 10
112.6083373855
 20
93.562214582
 10
112.5988432187
 20
93.5304903584
 10
112.5891888499
 20
93.4991582377
 10
112.5794001824
 20
93.4682833196
 10
112.5693862832
 20
93.4375697598
 10
112.5591118619
 20
93.4069169858
 10
112.5486090708
 20
93.3764285058
 10
112.5378824045
 20
93.3461200741
 10
112.5269264155
 20
93.3159788471
 10
112.5157452658
 20
93.2860188259
 10
112.5043593637
 20
93.2562945991
 10
112.4927711819
 20
93.2268101518
 10
112.4809805329
 20
93.197562435
 10
112.4690059848
 20
93.1685937031
 10
112.4569007683
 20
93.1400231142
 10
112.4446188151
 20
93.1117325663
 10
112.4320237973
 20
93.0834145677
 10
112.4191517647
 20
93.0551647466
 10
112.4059597905
 20
93.0269033875
 10
112.3921736361
 20
92.9980812824
 10
112.3777757281
 20
92.968721143
 10
112.3627493822
 20
92.9388491812
 10
112.3467945579
 20
92.9079509287
 10
112.3298318355
 20
92.8759811828
 10
112.3118709092
 20
92.8430696057
 10
112.2927216774
 20
92.8089903084
 10
112.2722257441
 20
92.7736081602
 10
112.2504435624
 20
92.7371785008
 10
112.2275128765
 20
92.7000622677
 10
112.203387553
 20
92.6623029028
 10
112.1780326281
 20
92.6239654713
 10
112.1516241528
 20
92.5854204206
 10
112.1242348511
 20
92.5468545947
 10
112.0957402908
 20
92.5081738104
 10
112.0660281324
 20
92.4693208959
 10
112.0351157587
 20
92.4304172663
 10
112.0029225618
 20
92.3914596967
 10
111.9691715353
 20
92.3522305223
 10
111.9336251606
 20
92.3126029604
 10
111.896422516
 20
92.2728832096
 10
111.8578561815
 20
92.2334995055
 10
111.817762598
 20
92.1943874799
 10
111.7762407345
 20
92.1557472618
 10
111.7340353355
 20
92.1183159687
 10
111.6913806073
 20
92.0822811612
 10
111.6480640013
 20
92.0474438312
 10
111.6042070671
 20
92.0138896181
 10
111.5599443003
 20
91.9816944176
 10
111.5151928682
 20
91.9507709234
 10
111.4697502472
 20
91.9209713893
 10
111.4235526312
 20
91.8922628436
 10
111.3766931193
 20
91.8647124317
 10
111.3291854568
 20
91.8383331796
 10
111.2810066196
 20
91.8131176296
 10
111.2321759472
 20
91.7890812734
 10
111.1827667006
 20
91.7662610826
 10
111.132814194
 20
91.7446693049
 10
111.0822986474
 20
91.7242924782
 10
111.0312180246
 20
91.7051272906
 10
110.9795961414
 20
91.6871818392
 10
110.9274554905
 20
91.6704636037
 10
110.8747904703
 20
91.6549721703
 10
110.8215949498
 20
91.6407087616
 10
110.7678884332
 20
91.6276806067
 10
110.713699531
 20
91.6158947263
 10
110.6590346219
 20
91.6053513401
 10
110.6038895757
 20
91.596048583
 10
110.5482854111
 20
91.5879886432
 10
110.4922525357
 20
91.5811740209
 10
110.4358027483
 20
91.5756046764
 10
110.3789404104
 20
91.5712809901
 10
110.3216855968
 20
91.5682055638
 10
110.2640569317
 20
91.5663800697
 10
110.2060495853
 20
91.5658036134
 10
110.1476695149
 20
91.5664759277
 10
110.0889269416
 20
91.5683967808
 10
110.0298219116
 20
91.5715664261
 10
109.9703403023
 20
91.5759871309
 10
109.9105168199
 20
91.5816584843
 10
109.8504256658
 20
91.588573409
 10
109.7901074434
 20
91.5967247841
 10
109.7295486448
 20
91.6061122516
 10
109.668743975
 20
91.6167355727
 10
109.6079504445
 20
91.628540456
 10
109.5469513249
 20
91.6415594465
 10
109.4850264404
 20
91.6559652511
 10
109.4222697959
 20
91.671774415
 10
109.3586133251
 20
91.6890432199
 10
109.2930684425
 20
91.7081112744
 10
109.2256071464
 20
91.7290896477
 10
109.1562368582
 20
91.7520815225
 10
109.0840022805
 20
91.7775408611
 10
109.0084035546
 20
91.8058309973
 10
108.9299551633
 20
91.8369514885
 10
108.8492274743
 20
91.8708400725
 10
108.7656812856
 20
91.9078953007
 10
108.6799500782
 20
91.9480143571
 10
108.5943403699
 20
91.990192299
 10
108.508876385
 20
92.0344057111
 10
108.4235331702
 20
92.080656164
 10
108.3405614969
 20
92.1276313199
 10
108.2606849397
 20
92.1747275678
 10
108.1832838666
 20
92.2221235637
 10
108.1086189455
 20
92.2694949369
 10
108.0370998968
 20
92.3164018455
 10
107.9683209918
 20
92.3629346273
 10
107.9013147502
 20
92.4096188638
 10
107.8360888497
 20
92.4563519023
 10
107.7726210776
 20
92.503054675
 10
107.7099214401
 20
92.5503918251
 10
107.6478933514
 20
92.5984053467
 10
107.5866644577
 20
92.646966055
 10
107.5256014604
 20
92.6965616951
 10
107.4645031005
 20
92.7473665995
 10
107.4036100502
 20
92.7991904222
 10
107.3429563058
 20
92.8520055033
 10
107.2825450281
 20
92.9058102686
 10
107.222400266
 20
92.9605847753
 10
107.1625861735
 20
93.0162705141
 10
107.1031332342
 20
93.0728374143
 10
107.0440305575
 20
93.1302947049
 10
106.9852789483
 20
93.1886415206
 10
106.9268894489
 20
93.247867176
 10
106.8688681526
 20
93.30796596
 10
106.8112127565
 20
93.3689404566
 10
106.7539451452
 20
93.4307665349
 10
106.6970858676
 20
93.4934213445
 10
106.6406387744
 20
93.5569011752
 10
106.5846149
 20
93.6211956466
 10
106.5290430085
 20
93.6862741312
 10
106.4739426184
 20
93.7521152175
 10
106.4193127818
 20
93.8187210902
 10
106.3651572981
 20
93.8860883359
 10
106.3114995065
 20
93.9541882388
 10
106.2583619218
 20
94.0229905566
 10
106.2057460211
 20
94.0924907114
 10
106.1536439044
 20
94.1626988699
 10
106.1020737787
 20
94.2335923135
 10
106.051065936
 20
94.3051316049
 10
106.0006292034
 20
94.3773072708
 10
105.9507411354
 20
94.4501554984
 10
105.9014327471
 20
94.5236347845
 10
105.8527780369
 20
94.5976339461
 10
105.8048060309
 20
94.6721030301
 10
105.7574857003
 20
94.7470843895
 10
105.7108098975
 20
94.8225858208
 10
105.6648594528
 20
94.8984711439
 10
105.6195874721
 20
94.974812783
 10
105.5748102672
 20
95.0519303188
 10
105.5304255192
 20
95.1300289601
 10
105.4865845917
 20
95.2088701723
 10
105.4434826586
 20
95.2881112319
 10
105.4009565422
 20
95.3680600294
 10
105.3591829599
 20
95.4483927839
 10
105.3188221322
 20
95.5277938119
 10
105.2799822616
 20
95.6059509014
 10
105.242495628
 20
95.6831028499
 10
105.2065619941
 20
95.7587336181
 10
105.1722677249
 20
95.8325320679
 10
105.139442857
 20
95.9047355331
 10
105.1078982258
 20
95.9756514925
 10
105.077543215
 20
96.0453886791
 10
105.0484077902
 20
96.1137837115
 10
105.0204901361
 20
96.1807402925
 10
104.9936885408
 20
96.2464055096
 10
104.9680413971
 20
96.3105888669
 10
104.9437415076
 20
96.3726886337
 10
104.9207682858
 20
96.4326197534
 10
104.8990469868
 20
96.4904418681
 10
104.8786679635
 20
96.5457726967
 10
104.8596993646
 20
96.5982686151
 10
104.8419694471
 20
96.648251319
 10
104.8252155826
 20
96.6963383704
 10
104.8094334542
 20
96.7424368429
  0
LWPOLYLINE
  5
3A8
100
AcDbEntity
  8
0
100
AcDbPolyline
 62
253
  6
CONTINUOUS
 90
48
 70
0
 10
104.8094334542
 20
96.7424368429
 10
104.7945609066
 20
96.7866252784
 10
104.78027674
 20
96.829781413
 10
104.7665637727
 20
96.871903937
 10
104.7534086693
 20
96.9129811316
 10
104.7405242003
 20
96.9538788271
 10
104.7278528581
 20
96.9947744575
 10
104.715450654
 20
97.0354820979
 10
104.7032190222
 20
97.0763237908
 10
104.6911198792
 20
97.1174374917
 10
104.6791995542
 20
97.1586768036
 10
104.667489408
 20
97.1999378787
 10
104.6559905751
 20
97.241218708
 10
104.6447032723
 20
97.2825204814
 10
104.6336536146
 20
97.3237467329
 10
104.6228480016
 20
97.3648690863
 10
104.612277752
 20
97.4059161037
 10
104.6019446368
 20
97.4468768195
 10
104.5918837023
 20
97.4876031247
 10
104.5820560076
 20
97.5282433951
 10
104.5723590497
 20
97.5692310336
 10
104.5628123317
 20
97.6105056194
 10
104.5534078334
 20
97.6521243013
 10
104.5440189896
 20
97.6946946073
 10
104.5346639275
 20
97.7382064209
 10
104.5253597292
 20
97.7826559605
 10
104.5160001699
 20
97.8286567999
 10
104.5066159407
 20
97.8761982157
 10
104.4972391432
 20
97.9252672727
 10
104.4877911215
 20
97.9764678446
 10
104.4783196236
 20
98.0297834842
 10
104.4688749768
 20
98.0851932827
 10
104.4594114506
 20
98.1432896177
 10
104.449987002
 20
98.204121279
 10
104.4406841819
 20
98.2676032781
 10
104.4315238965
 20
98.3341200767
 10
104.4225369617
 20
98.404125336
 10
104.4138865177
 20
98.4771138724
 10
104.4057786321
 20
98.5520203225
 10
104.3982659456
 20
98.6290035439
 10
104.3914465704
 20
98.7077987402
 10
104.3855103119
 20
98.7867170997
 10
104.3804728292
 20
98.8657942532
 10
104.376359245
 20
98.9449267732
 10
104.3732487907
 20
99.0222857268
 10
104.3711058745
 20
99.0972960055
 10
104.3698543718
 20
99.1706015076
 10
104.369447158
 20
99.2422311046
  0
LWPOLYLINE
  5
3A9
100
AcDbEntity
  8
0
100
AcDbPolyline
 62
7
  6
CONTINUOUS
 90
17
 70
0
 10
113.7027119255
 20
82.7943869351
 10
113.7012165346
 20
82.7321910069
 10
113.6967354217
 20
82.671700921
 10
113.6892837494
 20
82.6131213567
 10
113.678886732
 20
82.5566505286
 10
113.6655795496
 20
82.5024795163
 10
113.6494072295
 20
82.4507916172
 10
113.6304244937
 20
82.4017617268
 10
113.6086955739
 20
82.3555557469
 10
113.5842939937
 20
82.3123300237
 10
113.5573023203
 20
82.2722308194
 10
113.5278118852
 20
82.2353938171
 10
113.4959224746
 20
82.2019436616
 10
113.4617419921
 20
82.1719935374
 10
113.4253860936
 20
82.1456447865
 10
113.3869777961
 20
82.1229865646
 10
113.3778454434
 20
82.1182946846
  0
LINE
  5
3AA
100
AcDbEntity
  8
RACCORDO
100
AcDbLine
 62
7
  6
CONTINUOUS
 10
128.4407623335
 20
120.0211525573
 11
122.9492190053
 21
117.0583389464
  0
LINE
  5
3AB
100
AcDbEntity
  8
RACCORDO
100
AcDbLine
 62
7
  6
CONTINUOUS
 10
128.4407623335
 20
119.4444009138
 11
123.1033774511
 21
116.6808889927
  0
LINE
  5
3AC
100
AcDbEntity
  8
RACCORDO
100
AcDbLine
 62
253
  6
CONTINUOUS
 10
122.6476156991
 20
118.0278741247
 11
121.0463349083
 21
117.2251521212
  0
LINE
  5
3AD
100
AcDbEntity
  8
RACCORDO
100
AcDbLine
 62
253
  6
CONTINUOUS
 10
122.8243894028
 20
117.7229845859
 11
121.223108612
 21
116.9202625824
  0
LINE
  5
3AE
100
AcDbEntity
  8
RACCORDO
100
AcDbLine
 62
253
  6
CONTINUOUS
 10
123.1758828709
 20
118.2913129447
 11
122.6476156991
 21
118.0278741247
  0
LINE
  5
3AF
100
AcDbEntity
  8
RACCORDO
100
AcDbLine
 62
253
  6
CONTINUOUS
 10
123.3526565746
 20
117.9864234059
 11
122.8243894028
 21
117.7229845859
  0
LINE
  5
3B0
100
AcDbEntity
  8
RACCORDO
100
AcDbLine
 62
7
  6
CONTINUOUS
 10
127.559226875
 20
120.7550107486
 11
122.8756899954
 21
118.5033867533
  0
LWPOLYLINE
  5
3B1
100
AcDbEntity
  8
0
100
AcDbPolyline
 62
253
  6
CONTINUOUS
 90
10
 70
0
 10
104.3057844705
 20
99.2636529263
 10
104.3119793187
 20
99.2606856014
 10
104.3184229709
 20
99.2578538371
 10
104.3251035715
 20
99.2551628435
 10
104.3320088287
 20
99.2526175717
 10
104.3391260376
 20
99.2502227049
 10
104.3464421031
 20
99.2479826493
 10
104.3539435644
 20
99.2459015265
 10
104.3616166195
 20
99.2439831655
 10
104.3694471507
 20
99.2422310959
  0
LWPOLYLINE
  5
3B2
100
AcDbEntity
  8
0
100
AcDbPolyline
 62
253
  6
CONTINUOUS
 90
10
 70
0
 10
112.8465910559
 20
94.9932496336
 10
112.8406564062
 20
94.9963470577
 10
112.8349928775
 20
94.9995688838
 10
112.8296108903
 20
95.0029091841
 10
112.8245203467
 20
95.0063618127
 10
112.8197306131
 20
95.0099204171
 10
112.8152505019
 20
95.0135784499
 10
112.8110882563
 20
95.0173291805
 10
112.8072515343
 20
95.0211657081
 10
112.8037473951
 20
95.0250809737
  0
LWPOLYLINE
  5
3B3
100
AcDbEntity
  8
RACCORDO
100
AcDbPolyline
 62
253
  6
CONTINUOUS
 90
43
 70
0
 10
116.9812333738
 20
75.7750042049
 10
116.9827384885
 20
75.744972614
 10
116.9851322734
 20
75.7155241017
 10
116.9884147285
 20
75.686658668
 10
116.9925921022
 20
75.6583409494
 10
116.9976581461
 20
75.6306063094
 10
117.0035941147
 20
75.6035608389
 10
117.0104032759
 20
75.5772079865
 10
117.0180823617
 20
75.5515443036
 10
117.0266028227
 20
75.5266655349
 10
117.0359677159
 20
75.5025748903
 10
117.0461739844
 20
75.47926916
 10
117.0571839079
 20
75.4568344598
 10
117.0690004626
 20
75.4352739597
 10
117.0816206724
 20
75.4145844896
 10
117.0949978878
 20
75.3948426553
 10
117.1091349806
 20
75.3760518997
 10
117.1240290791
 20
75.3582087798
 10
117.1396249187
 20
75.3413795725
 10
117.1559250581
 20
75.325568105
 10
117.1729269385
 20
75.31077055
 10
117.1905676187
 20
75.2970417028
 10
117.2088494591
 20
75.2843855202
 10
117.2277700993
 20
75.2727980454
 10
117.2472595165
 20
75.2623222027
 10
117.2673198905
 20
75.2529620928
 10
117.2879490415
 20
75.2447136151
 10
117.3090704081
 20
75.2376073921
 10
117.3306857476
 20
75.2316476943
 10
117.3527933026
 20
75.2268302512
 10
117.3753112392
 20
75.2231728747
 10
117.398241028
 20
75.2206798406
 10
117.4215811985
 20
75.2193468731
 10
117.4452455046
 20
75.2191789565
 10
117.4692354283
 20
75.2201804725
 10
117.4935494876
 20
75.2223470393
 10
117.5180969904
 20
75.2256704962
 10
117.5428799294
 20
75.2301556867
 10
117.567896312
 20
75.2357977673
 10
117.5930494683
 20
75.242574046
 10
117.6183071751
 20
75.2504769591
 10
117.6437016555
 20
75.2595140705
 10
117.6692329097
 20
75.2696853801
  0
LINE
  5
3B4
100
AcDbEntity
  8
DRAFT
100
AcDbLine
 62
253
  6
CONTINUOUS
 10
117.1321798143
 20
121.2403733302
 11
117.1321798143
 21
122.6740723017
  0
LINE
  5
3B5
100
AcDbEntity
  8
RACCORDO
100
AcDbLine
 62
253
  6
CONTINUOUS
 10
117.3422489518
 20
118.109410901
 11
117.3422489518
 21
119.1899942118
  0
LINE
  5
3B6
100
AcDbEntity
  8
DRAFT
100
AcDbLine
 62
7
  6
CONTINUOUS
 10
117.8392865955
 20
123.0276256923
 11
117.8392865955
 21
123.5801838817
  0
LWPOLYLINE
  5
3B7
100
AcDbEntity
  8
RACCORDO
100
AcDbPolyline
 62
253
  6
CONTINUOUS
 90
22
 70
0
 10
116.2946615694
 20
111.3759362546
 10
116.2394629001
 20
109.6541435239
 10
116.1897817056
 20
107.9347676578
 10
116.1456187351
 20
106.2178350533
 10
116.1069746459
 20
104.5033720773
 10
116.0738500296
 20
102.7914050416
 10
116.0462454114
 20
101.0819602027
 10
116.0241612121
 20
99.3750637981
 10
116.0075977603
 20
97.6707420336
 10
115.996555319
 20
95.9690210594
 10
115.9910340589
 20
94.2699269973
 10
115.9910340589
 20
92.5734859262
 10
115.996555319
 20
90.8797238703
 10
116.0075977603
 20
89.1886668208
 10
116.0241612121
 20
87.5003407375
 10
116.0462454114
 20
85.8147715336
 10
116.0738500296
 20
84.131985078
 10
116.1069746459
 20
82.4520071958
 10
116.1456187351
 20
80.7748636705
 10
116.1897817056
 20
79.1005802399
 10
116.2394629001
 20
77.4291825962
 10
116.2946615694
 20
75.760696387
  0
LWPOLYLINE
  5
3B8
100
AcDbEntity
  8
RACCORDO
100
AcDbPolyline
 62
253
  6
CONTINUOUS
 90
22
 70
0
 10
116.9812333738
 20
111.3553411375
 10
116.9260867753
 20
109.6351928168
 10
116.8764536913
 20
107.9175114779
 10
116.8323341219
 20
106.2022971208
 10
116.7937275577
 20
104.4895234499
 10
116.7606345081
 20
102.7792167607
 10
116.733056501
 20
101.0714559399
 10
116.7109937917
 20
99.3662411513
 10
116.6944461249
 20
97.663572231
 10
116.6834142621
 20
95.9635275741
 10
116.6778984574
 20
94.2661073044
 10
116.6778984568
 20
92.5713112981
 10
116.6834142603
 20
90.8792175784
 10
116.6944461217
 20
89.1898262667
 10
116.7109937873
 20
87.5031372416
 10
116.7330564953
 20
85.8192281629
 10
116.7606345008
 20
84.1380991271
 10
116.7937275487
 20
82.4597500375
 10
116.8323341126
 20
80.7842582636
 10
116.8764536837
 20
79.1116495951
 10
116.9260867707
 20
77.4418982422
 10
116.9812333738
 20
75.7750042049
  0
LWPOLYLINE
  5
3B9
100
AcDbEntity
  8
RACCORDO
100
AcDbPolyline
 62
253
  6
CONTINUOUS
 90
27
 70
0
 10
121.223108612
 20
116.5802886482
 10
121.2182245949
 20
116.56831999
 10
121.2128739914
 20
116.5566267859
 10
121.2070714131
 20
116.5452409676
 10
121.2008327054
 20
116.5341936274
 10
121.1941749051
 20
116.5235149333
 10
121.1871161931
 20
116.5132340465
 10
121.1796758454
 20
116.5033790421
 10
121.1718741799
 20
116.4939768318
 10
121.1637325015
 20
116.4850530913
 10
121.1552730432
 20
116.4766321893
 10
121.1465189061
 20
116.4687371217
 10
121.137493996
 20
116.4613894482
 10
121.1282229579
 20
116.4546092336
 10
121.1187311092
 20
116.4484149935
 10
121.1090443701
 20
116.4428236429
 10
121.099189193
 20
116.4378504507
 10
121.0891924903
 20
116.4335089976
 10
121.0790815611
 20
116.4298111392
 10
121.068884016
 20
116.4267669736
 10
121.0586277025
 20
116.4243848138
 10
121.0483406284
 20
116.4226711649
 10
121.0380508855
 20
116.4216307066
 10
121.0277865731
 20
116.4212662801
 10
121.0175757207
 20
116.4215788806
 10
121.007446212
 20
116.4225676545
 10
120.9974257087
 20
116.4242299016
  0
LINE
  5
3BA
100
AcDbEntity
  8
RACCORDO
100
AcDbLine
 62
253
  6
CONTINUOUS
 10
122.8243894028
 20
116.9959397334
 11
123.3526565746
 21
117.6388918891
  0
LINE
  5
3BB
100
AcDbEntity
  8
RACCORDO
100
AcDbLine
 62
7
  6
CONTINUOUS
 10
122.8243894028
 20
116.9064092671
 11
123.368017147
 21
117.5680567226
  0
LWPOLYLINE
  5
3BC
100
AcDbEntity
  8
RACCORDO
100
AcDbPolyline
 62
7
  6
CONTINUOUS
 90
30
 70
0
 10
121.9343292201
 20
116.4317851254
 10
121.9264500971
 20
116.4226507221
 10
121.918229848
 20
116.4136532811
 10
121.9096719868
 20
116.4048142946
 10
121.9007735563
 20
116.3961577647
 10
121.8915471213
 20
116.3877030855
 10
121.882020547
 20
116.3794651927
 10
121.8722003587
 20
116.3714664392
 10
121.8620944605
 20
116.3637285624
 10
121.8517336775
 20
116.3562660225
 10
121.8411271562
 20
116.3491012447
 10
121.8302852448
 20
116.3422559394
 10
121.8192414677
 20
116.3357439678
 10
121.8080076193
 20
116.3295874486
 10
121.7965966685
 20
116.3238077848
 10
121.785044848
 20
116.3184182613
 10
121.7733667162
 20
116.3134403036
 10
121.7615779846
 20
116.3088946063
 10
121.7497176706
 20
116.3047938211
 10
121.737803223
 20
116.3011581957
 10
121.7258532096
 20
116.2980072106
 10
121.7139095321
 20
116.2953526743
 10
121.7019926824
 20
116.2932130419
 10
121.6901241152
 20
116.2916059045
 10
121.6783485366
 20
116.2905417437
 10
121.6666897161
 20
116.2900364384
 10
121.655171779
 20
116.2901048045
 10
121.6438414263
 20
116.2907552029
 10
121.6327361639
 20
116.2919985957
 10
121.6218718121
 20
116.2938460911
  0
LWPOLYLINE
  5
3BD
100
AcDbEntity
  8
RACCORDO
100
AcDbPolyline
 62
253
  6
CONTINUOUS
 90
43
 70
0
 10
117.3107168245
 20
113.115995788
 10
117.2730604015
 20
113.0944122509
 10
117.2355221105
 20
113.071284314
 10
117.1981478461
 20
113.046640981
 10
117.1609832882
 20
113.0205137644
 10
117.124073864
 20
112.9929347692
 10
117.0874647308
 20
112.9639364513
 10
117.0511998668
 20
112.9335541777
 10
117.0153244488
 20
112.9018263706
 10
116.9798848081
 20
112.8687925543
 10
116.9449246782
 20
112.8344942639
 10
116.9104863732
 20
112.7989738682
 10
116.8766131961
 20
112.7622745503
 10
116.8433465352
 20
112.724441885
 10
116.8107270945
 20
112.685522988
 10
116.7787960585
 20
112.6455654092
 10
116.7475923974
 20
112.6046186404
 10
116.7171543531
 20
112.5627337119
 10
116.6875206746
 20
112.5199623179
 10
116.6587277114
 20
112.4763577215
 10
116.630810523
 20
112.4319739671
 10
116.6038043708
 20
112.3868654686
 10
116.5777423106
 20
112.3410882137
 10
116.5526561565
 20
112.29469904
 10
116.5285775906
 20
112.2477548566
 10
116.5055360257
 20
112.2003137362
 10
116.4835596667
 20
112.1524347029
 10
116.4626764684
 20
112.1041770059
 10
116.4429120561
 20
112.0556006471
 10
116.4242904469
 20
112.0067657193
 10
116.4068351226
 20
111.9577321895
 10
116.3905674912
 20
111.9085609023
 10
116.3755073452
 20
111.8593127367
 10
116.3616736117
 20
111.8100479483
 10
116.3490831433
 20
111.7608269983
 10
116.3377514623
 20
111.7117114454
 10
116.3276931636
 20
111.6627630878
 10
116.3189207062
 20
111.6140435763
 10
116.3114444514
 20
111.5656121673
 10
116.3052735571
 20
111.5175266515
 10
116.3004157027
 20
111.4698458667
 10
116.2968769021
 20
111.4226295786
 10
116.2946615694
 20
111.3759362546
  0
LWPOLYLINE
  5
3BE
100
AcDbEntity
  8
RACCORDO
100
AcDbPolyline
 62
253
  6
CONTINUOUS
 90
43
 70
0
 10
117.6692329097
 20
112.5250533912
 10
117.643696782
 20
112.5105663239
 10
117.6182986305
 20
112.4950777915
 10
117.5930384551
 20
112.478587794
 10
117.567884429
 20
112.4610729992
 10
117.5428683792
 20
112.4425567393
 10
117.5180857858
 20
112.4231090109
 10
117.4935382452
 20
112.4027266689
 10
117.4692241611
 20
112.3814128583
 10
117.445234225
 20
112.3592470111
 10
117.4215699152
 20
112.3362261784
 10
117.3982297535
 20
112.312353309
 10
117.3752999966
 20
112.2877166813
 10
117.3527821209
 20
112.2623134428
 10
117.3306746501
 20
112.236146446
 10
117.309059412
 20
112.209312526
 10
117.2879381529
 20
112.1818090934
 10
117.2673091266
 20
112.1536387377
 10
117.247248922
 20
112.1249060626
 10
117.2277597263
 20
112.0956090765
 10
117.2088393525
 20
112.0657497709
 10
117.1905578284
 20
112.0354387244
 10
117.1729175249
 20
112.0046742773
 10
117.1559160712
 20
111.9734580893
 10
117.1396163825
 20
111.9419057179
 10
117.124021018
 20
111.9100158162
 10
117.1091274185
 20
111.877789731
 10
117.0949908214
 20
111.8453470612
 10
117.0816140895
 20
111.8126871192
 10
117.0689943602
 20
111.7798105927
 10
117.0571782821
 20
111.7468391428
 10
117.0461688321
 20
111.7137724809
 10
117.0359630335
 20
111.6806108957
 10
117.0265986049
 20
111.6474769149
 10
117.0180786064
 20
111.6143702777
 10
117.0103999779
 20
111.5812912451
 10
117.0035912585
 20
111.5483631268
 10
116.9976556919
 20
111.5155851413
 10
116.9925900343
 20
111.4829580703
 10
116.9884130929
 20
111.4506075689
 10
116.9851311369
 20
111.4185755222
 10
116.9827378972
 20
111.386820045
 10
116.9812333738
 20
111.3553411375
  0
LINE
  5
3BF
100
AcDbEntity
  8
RACCORDO
100
AcDbLine
 62
7
  6
CONTINUOUS
 10
121.9343292201
 20
115.6237383028
 11
122.8243894028
 21
116.1207895596
  0
LINE
  5
3C0
100
AcDbEntity
  8
RACCORDO
100
AcDbLine
 62
253
  6
CONTINUOUS
 10
117.3107168245
 20
113.115995788
 11
121.8439838299
 21
115.5908394945
  0
LINE
  5
3C1
100
AcDbEntity
  8
RACCORDO
100
AcDbLine
 62
253
  6
CONTINUOUS
 10
123.1671416926
 20
115.5265233981
 11
117.6692329097
 21
112.5250533912
  0
LWPOLYLINE
  5
3C2
100
AcDbEntity
  8
RACCORDO
100
AcDbPolyline
 62
7
  6
CONTINUOUS
 90
10
 70
0
 10
121.9343292201
 20
115.6237383028
 10
121.9256181469
 20
115.6191018178
 10
121.9165234131
 20
115.6146959017
 10
121.9070657669
 20
115.610529532
 10
121.8972660279
 20
115.6066169752
 10
121.8871473012
 20
115.6029604243
 10
121.8767351638
 20
115.5995497929
 10
121.8660544501
 20
115.5963858993
 10
121.8551289599
 20
115.5934806381
 10
121.8439838299
 20
115.5908394945
  0
LINE
  5
3C3
100
AcDbEntity
  8
DRAFT
100
AcDbLine
 62
7
  6
CONTINUOUS
 10
123.5251809865
 20
116.469987225
 11
129.1198658014
 21
119.4089309428
  0
LINE
  5
3C4
100
AcDbEntity
  8
SUPERFICI
100
AcDbLine
 62
253
  6
CONTINUOUS
 10
149.9231849054
 20
127.0914224721
 11
149.8838885113
 21
127.0720711064
  0
LINE
  5
3C5
100
AcDbEntity
  8
0
100
AcDbLine
 62
253
  6
CONTINUOUS
 10
149.3712294224
 20
127.5980295548
 11
141.3562427866
 21
123.7047571101
  0
LINE
  5
3C6
100
AcDbEntity
  8
RACCORDO
100
AcDbLine
 62
253
  6
CONTINUOUS
 10
129.8653927371
 20
118.123087184
 11
141.2860433554
 21
123.6706578005
  0
LINE
  5
3C7
100
AcDbEntity
  8
RACCORDO
100
AcDbLine
 62
253
  6
CONTINUOUS
 10
130.2030610709
 20
117.5406954569
 11
141.785967203
 21
123.1670815412
  0
LINE
  5
3C8
100
AcDbEntity
  8
0
100
AcDbLine
 62
253
  6
CONTINUOUS
 10
149.8776073998
 20
127.0833215681
 11
141.8561666341
 21
123.2011808508
  0
LINE
  5
3C9
100
AcDbEntity
  8
RACCORDO
100
AcDbLine
 62
253
  6
CONTINUOUS
 10
123.5384616959
 20
116.4633468703
 11
122.8243894028
 21
116.1260622753
  0
LINE
  5
3CA
100
AcDbEntity
  8
RACCORDO
100
AcDbLine
 62
253
  6
CONTINUOUS
 10
123.8850495746
 20
115.8656196935
 11
123.1671416926
 21
115.5265233981
  0
LWPOLYLINE
  5
3CB
100
AcDbEntity
  8
RACCORDO
100
AcDbPolyline
 62
253
  6
CONTINUOUS
 90
34
 70
0
 10
116.9812333738
 20
111.3553411375
 10
116.9642849292
 20
111.3483562202
 10
116.9466199769
 20
111.3417771994
 10
116.9282776504
 20
111.3356186497
 10
116.9092985836
 20
111.3298942143
 10
116.8897248211
 20
111.3246165744
 10
116.8695997249
 20
111.3197974219
 10
116.8489678784
 20
111.3154474324
 10
116.8278749875
 20
111.3115762428
 10
116.8063677796
 20
111.3081924287
 10
116.7844938998
 20
111.3053034866
 10
116.7623018057
 20
111.3029158162
 10
116.7398406596
 20
111.301034707
 10
116.71716022
 20
111.2996643262
 10
116.6943107312
 20
111.2988077097
 10
116.6713428119
 20
111.2984667551
 10
116.6483073432
 20
111.2986422178
 10
116.6252553558
 20
111.299333709
 10
116.6022379172
 20
111.3005396969
 10
116.5793060181
 20
111.3022575099
 10
116.5565104599
 20
111.3044833424
 10
116.5339017417
 20
111.3072122635
 10
116.5115299491
 20
111.3104382279
 10
116.4894446424
 20
111.314154089
 10
116.4676947476
 20
111.3183516149
 10
116.4463284475
 20
111.323021507
 10
116.425393075
 20
111.3281534199
 10
116.4049350086
 20
111.3337359848
 10
116.3849995692
 20
111.3397568346
 10
116.3656309201
 20
111.3462026313
 10
116.346871969
 20
111.3530590953
 10
116.3287642726
 20
111.3603110375
 10
116.3113479453
 20
111.3679423926
 10
116.2946615696
 20
111.3759362547
  0
LWPOLYLINE
  5
3CC
100
AcDbEntity
  8
0
100
AcDbPolyline
 62
253
  6
CONTINUOUS
 90
8
 70
0
 10
105.3953503898
 20
98.9963315854
 10
105.3112194564
 20
99.0189553308
 10
105.1570068309
 20
99.0589963359
 10
105.0016507756
 20
99.0979166335
 10
104.8451838603
 20
99.1357080642
 10
104.6876388915
 20
99.1723627039
 10
104.5290489062
 20
99.207872866
 10
104.369447158
 20
99.2422311046
  0
LWPOLYLINE
  5
3CD
100
AcDbEntity
  8
0
100
AcDbPolyline
 62
7
  6
CONTINUOUS
 90
27
 70
0
 10
108.9466141064
 20
101.194511296
 10
108.8592914108
 20
101.2366870413
 10
108.7720206346
 20
101.2758746197
 10
108.6848680428
 20
101.3120444252
 10
108.5978991892
 20
101.3451696915
 10
108.5111806814
 20
101.3752247931
 10
108.4247800989
 20
101.4021856082
 10
108.3387679343
 20
101.4260299405
 10
108.2532042865
 20
101.4467427599
 10
108.168140897
 20
101.4643128565
 10
108.0836264424
 20
101.4787282989
 10
107.9997415097
 20
101.4899729831
 10
107.9165845405
 20
101.4980351478
 10
107.8342478279
 20
101.5029099299
 10
107.752762553
 20
101.5045998009
 10
107.6721354418
 20
101.503104799
 10
107.5923875504
 20
101.4984185701
 10
107.5136227255
 20
101.4905406538
 10
107.4359701328
 20
101.4794850157
 10
107.35953165
 20
101.4652733019
 10
107.2843177333
 20
101.4479147015
 10
107.2103195323
 20
101.4274076079
 10
107.1375507581
 20
101.4037475839
 10
107.0661141253
 20
101.3769595988
 10
106.9961324631
 20
101.3470898854
 10
106.927697198
 20
101.3141857769
 10
106.9048588535
 20
101.3023496426
  0
LWPOLYLINE
  5
3CE
100
AcDbEntity
  8
0
100
AcDbPolyline
 62
253
  6
CONTINUOUS
 90
91
 70
0
 10
108.6812909729
 20
101.0561776509
 10
108.7684747479
 20
101.0111143871
 10
108.8555923172
 20
100.9631425908
 10
108.942577525
 20
100.912298691
 10
109.0293643137
 20
100.8586212992
 10
109.1158867808
 20
100.8021511761
 10
109.2020792291
 20
100.7429311995
 10
109.2878762102
 20
100.6810063357
 10
109.3732125658
 20
100.6164236126
 10
109.4580234833
 20
100.5492320802
 10
109.5422445568
 20
100.4794827643
 10
109.6258118318
 20
100.4072286306
 10
109.7086618442
 20
100.3325245521
 10
109.7907316719
 20
100.2554272653
 10
109.8719589996
 20
100.1759953111
 10
109.9522821615
 20
100.0942889922
 10
110.0316401737
 20
100.0103703403
 10
110.1099727594
 20
99.9243030946
 10
110.1872204117
 20
99.8361526377
 10
110.263324455
 20
99.7459859293
 10
110.3382271133
 20
99.6538714239
 10
110.4118715309
 20
99.5598790421
 10
110.4842017987
 20
99.4640801377
 10
110.5551629728
 20
99.3665474789
 10
110.6247011414
 20
99.2673551649
 10
110.692763483
 20
99.1665785459
 10
110.7592983295
 20
99.0642941278
 10
110.8242551792
 20
98.9605795471
 10
110.8875847181
 20
98.8555135383
 10
110.949238839
 20
98.7491759099
 10
111.0091707025
 20
98.6416474471
 10
111.0673347881
 20
98.533009825
 10
111.1236869381
 20
98.4233455233
 10
111.1781843708
 20
98.3127377982
 10
111.2307857056
 20
98.2012706338
 10
111.2814509929
 20
98.0890286861
 10
111.3301417546
 20
97.9760971971
 10
111.3768210146
 20
97.8625619287
 10
111.4214533265
 20
97.7485090948
 10
111.4640047985
 20
97.6340253025
 10
111.504443119
 20
97.5191974847
 10
111.5427375778
 20
97.4041128444
 10
111.5788590913
 20
97.2888587863
 10
111.6127802264
 20
97.1735228442
 10
111.6444752281
 20
97.0581925911
 10
111.6739200342
 20
96.9429555836
 10
111.7010922875
 20
96.8278993138
 10
111.7259713484
 20
96.7131111713
 10
111.748538318
 20
96.5986783525
 10
111.7687760573
 20
96.4846877721
 10
111.7866692023
 20
96.3712259765
 10
111.8022041686
 20
96.2583791061
 10
111.8153691598
 20
96.1462328448
 10
111.8261541766
 20
96.0348723658
 10
111.8345510277
 20
95.9243822457
 10
111.8405533367
 20
95.8148463936
 10
111.8441565461
 20
95.7063479848
 10
111.84535792
 20
95.5989694089
 10
111.844156546
 20
95.4927922086
 10
111.8405533367
 20
95.3878970123
 10
111.8345510278
 20
95.284363471
 10
111.8261541767
 20
95.1822702009
 10
111.8153691597
 20
95.0816947364
 10
111.8022041682
 20
94.9827134648
 10
111.7866692018
 20
94.8854015604
 10
111.7687760567
 20
94.78983291
 10
111.7485383176
 20
94.6960800702
 10
111.7259713486
 20
94.6042142235
 10
111.7010922887
 20
94.5143051452
 10
111.6739200365
 20
94.426421132
 10
111.6444752325
 20
94.3406289352
 10
111.612780233
 20
94.2569936884
 10
111.5788590978
 20
94.1755788799
 10
111.542737578
 20
94.0964463205
 10
111.504443109
 20
94.0196561196
 10
111.4640047834
 20
93.9452666147
 10
111.4214533199
 20
93.8733343103
 10
111.376821024
 20
93.8039138132
 10
111.3301417735
 20
93.7370578166
 10
111.2814510035
 20
93.6728170769
 10
111.2307856986
 20
93.6112403949
 10
111.1781843515
 20
93.5523745528
 10
111.1236869213
 20
93.4962642644
 10
111.0673347811
 20
93.442952123
 10
111.0091707033
 20
93.3924785935
 10
110.9492388411
 20
93.3448819952
 10
110.8875847189
 20
93.3001984865
 10
110.8242551786
 20
93.2584620158
 10
110.7592983284
 20
93.2197042846
 10
110.6927634816
 20
93.1839547128
 10
110.6491023015
 20
93.1625367365
  0
LWPOLYLINE
  5
3CF
100
AcDbEntity
  8
0
100
AcDbPolyline
 62
253
  6
CONTINUOUS
 90
112
 70
0
 10
108.3431480998
 20
100.5525088343
 10
108.4249552274
 20
100.5101873352
 10
108.5066971745
 20
100.4650636674
 10
108.5883084672
 20
100.4171739384
 10
108.6697238541
 20
100.3665563957
 10
108.7508779998
 20
100.3132516174
 10
108.8317055414
 20
100.2573025188
 10
108.9121416388
 20
100.1987539893
 10
108.9921219629
 20
100.1376528603
 10
109.0715823917
 20
100.0740481229
 10
109.1504592191
 20
100.0079907828
 10
109.2286893295
 20
99.9395337093
 10
109.3062101861
 20
99.868731628
 10
109.3829597583
 20
99.7956411837
 10
109.4588765039
 20
99.7203209748
 10
109.5338995432
 20
99.6428314009
 10
109.6079687532
 20
99.5632345664
 10
109.6810248383
 20
99.4815941966
 10
109.7530093074
 20
99.3979756567
 10
109.8238645099
 20
99.3124459134
 10
109.893533683
 20
99.2250734843
 10
109.961961022
 20
99.1359283538
 10
110.0290917206
 20
99.045081921
 10
110.0948720045
 20
98.952606957
 10
110.159249174
 20
98.8585775477
 10
110.222171656
 20
98.763069023
 10
110.2835890597
 20
98.6661578717
 10
110.3434522056
 20
98.5679216944
 10
110.4017131536
 20
98.468439159
 10
110.4583252261
 20
98.3677899662
 10
110.513243062
 20
98.2660547624
 10
110.5664226649
 20
98.1633150537
 10
110.6178214485
 20
98.0596531168
 10
110.6673982543
 20
97.9551519616
 10
110.7151133762
 20
97.8498952813
 10
110.7609285895
 20
97.7439673954
 10
110.8048071928
 20
97.6374531594
 10
110.8467140392
 20
97.5304378922
 10
110.8866155628
 20
97.4230073092
 10
110.9244798024
 20
97.3152474629
 10
110.9602764287
 20
97.2072446698
 10
110.9939767701
 20
97.0990854364
 10
111.0255538345
 20
96.9908563924
 10
111.0549823291
 20
96.8826442272
 10
111.0822386819
 20
96.7745356179
 10
111.1073010614
 20
96.6666171553
 10
111.1301493936
 20
96.5589752763
 10
111.150765376
 20
96.451696205
 10
111.1691324935
 20
96.3448658811
 10
111.1852360336
 20
96.2385698816
 10
111.1990630995
 20
96.1328933405
 10
111.2106026173
 20
96.0279208912
 10
111.2198453444
 20
95.9237366079
 10
111.2267838762
 20
95.8204239485
 10
111.2314126542
 20
95.7180656756
 10
111.2337279712
 20
95.6167437831
 10
111.2337279733
 20
95.5165394218
 10
111.2314126605
 20
95.4175328442
 10
111.2267838867
 20
95.3198033473
 10
111.2198453591
 20
95.2234292176
 10
111.2106026362
 20
95.1284876589
 10
111.1990631224
 20
95.0350547241
 10
111.1852360605
 20
94.9432052449
 10
111.1691325244
 20
94.8530127821
 10
111.1507654109
 20
94.7645495721
 10
111.1301494325
 20
94.67788648
 10
111.1073011049
 20
94.593092932
 10
111.082238732
 20
94.5102368533
 10
111.0549823869
 20
94.4293846027
 10
111.0255538977
 20
94.3506009306
 10
110.9939768326
 20
94.2739489346
 10
110.9602764867
 20
94.1994900204
 10
110.924479859
 20
94.1272838404
 10
110.8866156271
 20
94.0573882382
 10
110.8467141163
 20
93.98985919
 10
110.8048072797
 20
93.9247507735
 10
110.7609286777
 20
93.8621151323
 10
110.7151134614
 20
93.8020024461
 10
110.6673983374
 20
93.7444608765
 10
110.6178215327
 20
93.6895365204
 10
110.5664227516
 20
93.6372733623
 10
110.5132431525
 20
93.5877132526
 10
110.4583253225
 20
93.5408958825
 10
110.4017132573
 20
93.4968587607
 10
110.3434523152
 20
93.4556371702
 10
110.2835891719
 20
93.4172641333
 10
110.222171769
 20
93.3817703793
 10
110.1592492882
 20
93.3491843305
 10
110.0948721213
 20
93.3195320855
 10
110.0290918406
 20
93.2928374002
 10
109.961961145
 20
93.2691216609
 10
109.8935338088
 20
93.2484038641
 10
109.8238646383
 20
93.2307006027
 10
109.7530094378
 20
93.2160260563
 10
109.681024969
 20
93.2043919796
 10
109.6079688834
 20
93.1958076892
 10
109.5338996746
 20
93.1902800593
 10
109.4588766411
 20
93.1878135194
 10
109.3829599031
 20
93.1884100504
 10
109.3062103345
 20
93.1920691723
 10
109.2286894723
 20
93.1987879424
 10
109.1504593519
 20
93.2085609754
 10
109.0715825199
 20
93.2213804585
 10
108.9921220966
 20
93.237236144
 10
108.912141784
 20
93.2561153314
 10
108.8317057
 20
93.2780028902
 10
108.750878183
 20
93.3028813195
 10
108.669724064
 20
93.3307306708
 10
108.5883086754
 20
93.3615285084
 10
108.5066973421
 20
93.3952500823
 10
108.4249553255
 20
93.4318683881
 10
108.3431480998
 20
93.4713540622
  0
LWPOLYLINE
  5
3D0
100
AcDbEntity
  8
RACCORDO
100
AcDbPolyline
 62
253
  6
CONTINUOUS
 90
34
 70
0
 10
117.6692329097
 20
112.5250533912
 10
117.6679707106
 20
112.5449813884
 10
117.6659411879
 20
112.5652630671
 10
117.6631489339
 20
112.5858525363
 10
117.6596002665
 20
112.6067032084
 10
117.6553032153
 20
112.6277679049
 10
117.6502675029
 20
112.648998963
 10
117.6445045238
 20
112.6703483435
 10
117.6380273175
 20
112.6917677393
 10
117.6308505401
 20
112.713208685
 10
117.6229904303
 20
112.7346226666
 10
117.614464773
 20
112.7559612308
 10
117.6052928591
 20
112.7771760951
 10
117.5954954418
 20
112.7982192569
 10
117.5850946895
 20
112.819043102
 10
117.5741141359
 20
112.8396005126
 10
117.5625786264
 20
112.8598449736
 10
117.5505142625
 20
112.8797306781
 10
117.5379483419
 20
112.8992126309
 10
117.5249092973
 20
112.9182467504
 10
117.5114266322
 20
112.9367899684
 10
117.4975308535
 20
112.9548003271
 10
117.483253403
 20
112.9722370747
 10
117.4686265862
 20
112.9890607574
 10
117.4536834991
 20
113.0052333083
 10
117.4384579532
 20
113.0207181338
 10
117.4229843991
 20
113.0354801967
 10
117.4072978487
 20
113.049486095
 10
117.3914337959
 20
113.0627041375
 10
117.375428136
 20
113.0751044161
 10
117.3593170849
 20
113.0866588726
 10
117.3431370969
 20
113.0973413629
 10
117.3269247823
 20
113.1071277159
 10
117.3107168245
 20
113.115995788
  0
LWPOLYLINE
  5
3D1
100
AcDbEntity
  8
ASSI
100
AcDbPolyline
 62
7
  6
CONTINUOUS
 90
6
 70
0
 10
118.2984116964
 20
124.9804509829
 10
118.2983587021
 20
124.9816914952
 10
118.2975613471
 20
124.9851319188
 10
118.2958482596
 20
124.9879585526
 10
118.2932634042
 20
124.9902215611
 10
118.2915999542
 20
124.9911782454
  0
LWPOLYLINE
  5
3D2
100
AcDbEntity
  8
RACCORDO
100
AcDbPolyline
 62
7
  6
CONTINUOUS
 90
20
 70
0
 10
119.4723786678
 20
75.6921039861
 10
119.4727841352
 20
75.6778713704
 10
119.4740073192
 20
75.6636141297
 10
119.4760549065
 20
75.6493885956
 10
119.4789289042
 20
75.6352514355
 10
119.4826262095
 20
75.6212607886
 10
119.4871386498
 20
75.6074745945
 10
119.4924526528
 20
75.5939509039
 10
119.4985518276
 20
75.5807417595
 10
119.5054192061
 20
75.5678921028
 10
119.5130322879
 20
75.5554508005
 10
119.5213633409
 20
75.5434673881
 10
119.5303867558
 20
75.5319818274
 10
119.540076919
 20
75.5210306911
 10
119.5503967087
 20
75.510659213
 10
119.5613037773
 20
75.5009106817
 10
119.5727724878
 20
75.4918092263
 10
119.5847605172
 20
75.4833906789
 10
119.5972013365
 20
75.4757001143
 10
119.610582371
 20
75.4684936377
  0
LWPOLYLINE
  5
3D3
100
AcDbEntity
  8
RACCORDO
100
AcDbPolyline
 62
253
  6
CONTINUOUS
 90
18
 70
0
 10
119.5456019725
 20
75.6037156385
 10
119.5458413274
 20
75.5925724932
 10
119.5465593326
 20
75.5816922728
 10
119.5477549228
 20
75.571105002
 10
119.5494261202
 20
75.560837932
 10
119.5515690551
 20
75.550921816
 10
119.5541770106
 20
75.5413900675
 10
119.5572421826
 20
75.5322705387
 10
119.5607567369
 20
75.5235859676
 10
119.5647112181
 20
75.5153597768
 10
119.5690949819
 20
75.5076142528
 10
119.5738960616
 20
75.5003706685
 10
119.5791012671
 20
75.4936489633
 10
119.584696356
 20
75.4874675007
 10
119.5906661589
 20
75.4818430139
 10
119.5969944809
 20
75.4767907654
 10
119.6036641319
 20
75.4723244988
 10
119.6105752447
 20
75.4684972005
  0
LWPOLYLINE
  5
3D4
100
AcDbEntity
  8
RACCORDO
100
AcDbPolyline
 62
253
  6
CONTINUOUS
 90
18
 70
0
 10
120.8705866523
 20
74.9412232986
 10
120.8708260073
 20
74.9300801533
 10
120.8715440125
 20
74.9191999328
 10
120.8727396026
 20
74.9086126621
 10
120.8744108
 20
74.8983455921
 10
120.8765537349
 20
74.888429476
 10
120.8791616904
 20
74.8788977276
 10
120.8822268624
 20
74.8697781988
 10
120.8857414167
 20
74.8610936277
 10
120.889695898
 20
74.8528674369
 10
120.8940796618
 20
74.8451219129
 10
120.8988807414
 20
74.8378783286
 10
120.9040859469
 20
74.8311566234
 10
120.9096810358
 20
74.8249751608
 10
120.9156508388
 20
74.819350674
 10
120.9219791607
 20
74.8142984255
 10
120.9286488118
 20
74.8098321589
 10
120.9355599245
 20
74.8060048606
  0
LWPOLYLINE
  5
3D5
100
AcDbEntity
  8
RACCORDO
100
AcDbPolyline
 62
253
  6
CONTINUOUS
 90
19
 70
0
 10
119.5456019725
 20
117.243293712
 10
119.5458218272
 20
117.2326090554
 10
119.5464808444
 20
117.222170829
 10
119.5475773852
 20
117.2120049965
 10
119.5491087161
 20
117.202136878
 10
119.5510710314
 20
117.1925909833
 10
119.5534594772
 20
117.1833909629
 10
119.5562681473
 20
117.174559651
 10
119.5594900528
 20
117.1661190939
 10
119.5631171504
 20
117.1580903856
 10
119.56714043
 20
117.1504934747
 10
119.5715498726
 20
117.1433472839
 10
119.5763344091
 20
117.1366697186
 10
119.5814820426
 20
117.1304774413
 10
119.5869800105
 20
117.1247857288
 10
119.5928147442
 20
117.1196086026
 10
119.5989729607
 20
117.1149580876
 10
119.6054382349
 20
117.1108468139
 10
119.6105764196
 20
117.1080746866
  0
LINE
  5
3D6
100
AcDbEntity
  8
RACCORDO
100
AcDbLine
 62
253
  6
CONTINUOUS
 10
118.0472928711
 20
118.1309466642
 11
118.0472928711
 21
119.3636736366
  0
LINE
  5
3D7
100
AcDbEntity
  8
ASSI
100
AcDbLine
 62
253
  6
CONTINUOUS
 10
118.1730622181
 20
124.9708548339
 11
118.1730622181
 21
123.7435042368
  0
LINE
  5
3D8
100
AcDbEntity
  8
DRAFT
100
AcDbLine
 62
7
  6
CONTINUOUS
 10
118.1928399861
 20
122.850848997
 11
118.1928399861
 21
123.4034071864
  0
LINE
  5
3D9
100
AcDbEntity
  8
ASSI
100
AcDbLine
 62
7
  6
CONTINUOUS
 10
118.2984117253
 20
124.9801746564
 11
118.2984117253
 21
123.8925323952
  0
LINE
  5
3DA
100
AcDbEntity
  8
DRAFT
100
AcDbLine
 62
7
  6
CONTINUOUS
 10
118.4049720204
 20
119.5429781814
 11
118.4049720204
 21
118.3305426161
  0
LINE
  5
3DB
100
AcDbEntity
  8
DRAFT
100
AcDbLine
 62
253
  6
CONTINUOUS
 10
118.5463933766
 20
121.9408324296
 11
118.5463933766
 21
122.6740723017
  0
LINE
  5
3DC
100
AcDbEntity
  8
RACCORDO
100
AcDbLine
 62
7
  6
CONTINUOUS
 10
119.4723786678
 20
117.6716559938
 11
119.4723786678
 21
117.3316820596
  0
LINE
  5
3DD
100
AcDbEntity
  8
RACCORDO
100
AcDbLine
 62
7
  6
CONTINUOUS
 10
119.4723786678
 20
75.8142717372
 11
119.4723786678
 21
75.6921039861
  0
LINE
  5
3DE
100
AcDbEntity
  8
RACCORDO
100
AcDbLine
 62
253
  6
CONTINUOUS
 10
119.5456019725
 20
117.5832676461
 11
119.5456019725
 21
117.243293712
  0
LINE
  5
3DF
100
AcDbEntity
  8
RACCORDO
100
AcDbLine
 62
253
  6
CONTINUOUS
 10
119.5456019725
 20
75.8450079063
 11
119.5456019725
 21
75.6037156385
  0
LINE
  5
3E0
100
AcDbEntity
  8
RACCORDO
100
AcDbLine
 62
7
  6
CONTINUOUS
 10
120.1753716221
 20
116.3717048924
 11
120.1753716221
 21
116.8256770853
  0
LINE
  5
3E1
100
AcDbEntity
  8
RACCORDO
100
AcDbLine
 62
253
  6
CONTINUOUS
 10
120.2485949268
 20
116.2799912888
 11
120.2485949268
 21
116.789065433
  0
LWPOLYLINE
  5
3E2
100
AcDbEntity
  8
RACCORDO
100
AcDbPolyline
 62
253
  6
CONTINUOUS
 90
31
 70
0
 10
119.5456019725
 20
117.5832676461
 10
119.5458413274
 20
117.5946501463
 10
119.5465593326
 20
117.606248372
 10
119.5477549228
 20
117.6180312328
 10
119.5494261202
 20
117.6299695003
 10
119.5515690551
 20
117.6420285512
 10
119.5541770106
 20
117.6541682552
 10
119.5572421826
 20
117.666352956
 10
119.5607567369
 20
117.6785520814
 10
119.5647112181
 20
117.6907327534
 10
119.5690949819
 20
117.7028620412
 10
119.5738960616
 20
117.7149067051
 10
119.5791012671
 20
117.7268336158
 10
119.584696356
 20
117.7386101674
 10
119.5906661589
 20
117.7502044571
 10
119.5969944809
 20
117.7615850276
 10
119.6036641319
 20
117.7727209452
 10
119.6106569394
 20
117.7835818487
 10
119.6179538482
 20
117.7941381333
 10
119.6255349906
 20
117.8043610535
 10
119.6333797419
 20
117.8142227939
 10
119.6414667481
 20
117.8236965063
 10
119.6497740003
 20
117.8327564041
 10
119.6582788871
 20
117.8413778238
 10
119.6669582521
 20
117.8495372894
 10
119.6757884781
 20
117.8572125959
 10
119.6847455244
 20
117.864382845
 10
119.6938049837
 20
117.8710284994
 10
119.7029421872
 20
117.8771314681
 10
119.7121322735
 20
117.8826751504
 10
119.7213502285
 20
117.8876444611
  0
LWPOLYLINE
  5
3E3
100
AcDbEntity
  8
RACCORDO
100
AcDbPolyline
 62
253
  6
CONTINUOUS
 90
31
 70
0
 10
120.8705866523
 20
116.9207753062
 10
120.8708272336
 20
116.9321872156
 10
120.8715483248
 20
116.9438086723
 10
120.8727479666
 20
116.9556080454
 10
120.8744228991
 20
116.967553232
 10
120.8765685656
 20
116.9796117071
 10
120.8791791202
 20
116.9917506108
 10
120.8822474537
 20
117.003936893
 10
120.885765215
 20
117.0161373924
 10
120.8897228242
 20
117.0283188893
 10
120.8941095061
 20
117.0404482249
 10
120.8989133191
 20
117.0524923871
 10
120.9041211837
 20
117.064418589
 10
120.9097189291
 20
117.0761943837
 10
120.9156913107
 20
117.0877877061
 10
120.922022045
 20
117.0991669583
 10
120.928693866
 20
117.1103011261
 10
120.9356886343
 20
117.1211599577
 10
120.9429873711
 20
117.1317139937
 10
120.9505703138
 20
117.1419346364
 10
120.9584167321
 20
117.1517939253
 10
120.9665050234
 20
117.1612647415
 10
120.9748129911
 20
117.1703211696
 10
120.9833181635
 20
117.1789387862
 10
120.9919976262
 20
117.1870944001
 10
121.0008297167
 20
117.1947674486
 10
121.0097884997
 20
117.2019351962
 10
121.0188438366
 20
117.2085741027
 10
121.0279690054
 20
117.2146659001
 10
121.03714101
 20
117.2201965474
 10
121.0463349083
 20
117.2251521212
  0
LWPOLYLINE
  5
3E4
100
AcDbEntity
  8
RACCORDO
100
AcDbPolyline
 62
7
  6
CONTINUOUS
 90
20
 70
0
 10
119.4723786678
 20
117.6716559938
 10
119.4727825399
 20
117.6858606057
 10
119.4740011515
 20
117.7000920297
 10
119.476041539
 20
117.7142942274
 10
119.4789062904
 20
117.7284116223
 10
119.4825926128
 20
117.7423853915
 10
119.4870919051
 20
117.7561553388
 10
119.4923904985
 20
117.7696633502
 10
119.4984722401
 20
117.782858114
 10
119.5053197215
 20
117.7956939469
 10
119.512910392
 20
117.8081222582
 10
119.5212167785
 20
117.8200941769
 10
119.5302131865
 20
117.8315698073
 10
119.5398744947
 20
117.8425133223
 10
119.5501637672
 20
117.8528796897
 10
119.5610380381
 20
117.8626251044
 10
119.5724722017
 20
117.8717261098
 10
119.5844243578
 20
117.8801472606
 10
119.5968269893
 20
117.8878428945
 10
119.6082717204
 20
117.894096108
  0
LWPOLYLINE
  5
3E5
100
AcDbEntity
  8
RACCORDO
100
AcDbPolyline
 62
253
  6
CONTINUOUS
 90
21
 70
0
 10
117.6692329097
 20
75.2696853801
 10
117.6679707102
 20
75.2493091357
 10
117.6659411869
 20
75.2293777687
 10
117.663148932
 20
75.2099363774
 10
117.6596002634
 20
75.1910289518
 10
117.6553032108
 20
75.1726982734
 10
117.650267497
 20
75.1549858189
 10
117.6445045162
 20
75.137931666
 10
117.6380273083
 20
75.1215744029
 10
117.6308505291
 20
75.1059510411
 10
117.6229904176
 20
75.0910969313
 10
117.6144647587
 20
75.0770456838
 10
117.6052928432
 20
75.0638290921
 10
117.5954954244
 20
75.0514770613
 10
117.5850946708
 20
75.0400175403
 10
117.5741141161
 20
75.0294764582
 10
117.5625786058
 20
75.0198776663
 10
117.5505142412
 20
75.0112428837
 10
117.5379483201
 20
75.0035916481
 10
117.5249092754
 20
74.996941272
 10
117.5185018092
 20
74.9941135957
  0
LWPOLYLINE
  5
3E6
100
AcDbEntity
  8
DRAFT
100
AcDbPolyline
 62
7
  6
CONTINUOUS
 90
18
 70
0
 10
112.0684385667
 20
84.182723936
 10
112.0700611939
 20
84.187836019
 10
112.0815828465
 20
84.2196308263
 10
112.0941944705
 20
84.2503580033
 10
112.1078836123
 20
84.2799867556
 10
112.1226317983
 20
84.3084720039
 10
112.138419913
 20
84.3357701924
 10
112.1552298645
 20
84.3618498872
 10
112.1730383663
 20
84.3866781986
 10
112.1918141708
 20
84.4102147353
 10
112.2115237979
 20
84.4324247753
 10
112.2321492246
 20
84.4532927532
 10
112.2536810487
 20
84.4728089012
 10
112.2760842002
 20
84.4909423986
 10
112.2993391432
 20
84.5076793395
 10
112.3234644948
 20
84.523027302
 10
112.3484739844
 20
84.5369793849
 10
112.3605082001
 20
84.5430359791
  0
LINE
  5
3E7
100
AcDbEntity
  8
0
100
AcDbLine
 62
253
  6
CONTINUOUS
 10
141.9516264575
 20
123.0365370101
 11
149.8776073998
 21
127.0833215681
  0
LINE
  5
3E8
100
AcDbEntity
  8
RACCORDO
100
AcDbLine
 62
253
  6
CONTINUOUS
 10
141.8821500388
 20
123.0011906884
 11
123.8850495746
 21
113.8451156631
  0
LINE
  5
3E9
100
AcDbEntity
  8
0
100
AcDbLine
 62
253
  6
CONTINUOUS
 10
142.3657769331
 20
121.6049034354
 11
150.2982139651
 21
125.6405501365
  0
LINE
  5
3EA
100
AcDbEntity
  8
RACCORDO
100
AcDbLine
 62
253
  6
CONTINUOUS
 10
142.2963005145
 20
121.5695571138
 11
123.8850495746
 21
112.2027818796
  0
LWPOLYLINE
  5
3EB
100
AcDbEntity
  8
RACCORDO
100
AcDbPolyline
 62
253
  6
CONTINUOUS
 90
31
 70
0
 10
121.223108612
 20
116.9202625824
 10
121.2228136351
 20
116.93168829
 10
121.2220377819
 20
116.9433263432
 10
121.2207831788
 20
116.955144844
 10
121.2190532645
 20
116.9671114003
 10
121.2168527803
 20
116.9791932139
 10
121.2141877574
 20
116.9913571708
 10
121.2110655001
 20
117.003569932
 10
121.2074945659
 20
117.0157980246
 10
121.2034847421
 20
117.0280079335
 10
121.1990470188
 20
117.0401661939
 10
121.1941935591
 20
117.052239482
 10
121.1889376652
 20
117.0641947075
 10
121.1832937428
 20
117.0759991031
 10
121.1772772606
 20
117.0876203153
 10
121.1709047087
 20
117.0990264925
 10
121.1641935532
 20
117.1101863725
 10
121.157162188
 20
117.1210693682
 10
121.1498298847
 20
117.1316456514
 10
121.1422167399
 20
117.1418862343
 10
121.1343436198
 20
117.1517630496
 10
121.126232103
 20
117.1612490267
 10
121.1179044218
 20
117.1703181663
 10
121.1093834007
 20
117.1789456116
 10
121.1006923943
 20
117.1871077164
 10
121.091855223
 20
117.1947821099
 10
121.0828961078
 20
117.201947758
 10
121.0738396039
 20
117.2085850211
 10
121.0647105337
 20
117.2146757077
 10
121.055533918
 20
117.2202031242
 10
121.0463349083
 20
117.2251521212
  0
LWPOLYLINE
  5
3EC
100
AcDbEntity
  8
RACCORDO
100
AcDbPolyline
 62
7
  6
CONTINUOUS
 90
23
 70
0
 10
123.4248544316
 20
76.4271603819
 10
123.4245360236
 20
76.4397739342
 10
123.4235774069
 20
76.4523968824
 10
123.4219756326
 20
76.4649904226
 10
123.4197314727
 20
76.477511496
 10
123.4168474327
 20
76.4899249211
 10
123.4133256085
 20
76.502203688
 10
123.4091722433
 20
76.5143106148
 10
123.4043973884
 20
76.5262059821
 10
123.3990095936
 20
76.5378602615
 10
123.393021233
 20
76.5492392364
 10
123.3864491918
 20
76.5603056312
 10
123.379309758
 20
76.5710284447
 10
123.371619965
 20
76.581378814
 10
123.3634026452
 20
76.5913236272
 10
123.3546836115
 20
76.6008309496
 10
123.3454823955
 20
76.6098790123
 10
123.335825946
 20
76.61844073
 10
123.3257515441
 20
76.6264843931
 10
123.3152789943
 20
76.6339959256
 10
123.3044363043
 20
76.6409559344
 10
123.2932725545
 20
76.6473356489
 10
123.2866515045
 20
76.6507703423
  0
LWPOLYLINE
  5
3ED
100
AcDbEntity
  8
RACCORDO
100
AcDbPolyline
 62
253
  6
CONTINUOUS
 90
19
 70
0
 10
120.8705866523
 20
116.5808013721
 10
120.870806507
 20
116.5701167155
 10
120.8714655243
 20
116.5596784891
 10
120.872562065
 20
116.5495126566
 10
120.8740933959
 20
116.5396445381
 10
120.8760557112
 20
116.5300986434
 10
120.878444157
 20
116.520898623
 10
120.8812528271
 20
116.5120673111
 10
120.8844747326
 20
116.503626754
 10
120.8881018302
 20
116.4955980457
 10
120.8921251098
 20
116.4880011348
 10
120.8965345524
 20
116.480854944
 10
120.901319089
 20
116.4741773787
 10
120.9064667224
 20
116.4679851014
 10
120.9119646903
 20
116.4622933889
 10
120.9177994241
 20
116.4571162627
 10
120.9239576405
 20
116.4524657477
 10
120.9304229147
 20
116.448354474
 10
120.9355493264
 20
116.445588234
  0
LWPOLYLINE
  5
3EE
100
AcDbEntity
  8
RACCORDO
100
AcDbPolyline
 62
7
  6
CONTINUOUS
 90
34
 70
0
 10
122.8243894028
 20
117.7229845859
 10
122.8241893468
 20
117.7333863945
 10
122.8235891093
 20
117.7439647625
 10
122.8225901513
 20
117.7546957806
 10
122.8211949158
 20
117.7655552338
 10
122.8194065675
 20
117.7765185262
 10
122.8172289862
 20
117.7875607372
 10
122.8146671617
 20
117.7986568841
 10
122.8117269874
 20
117.8097818775
 10
122.8084149924
 20
117.8209104479
 10
122.8047387153
 20
117.8320174057
 10
122.8007065551
 20
117.8430776269
 10
122.7963275578
 20
117.8540660082
 10
122.7916116572
 20
117.8649576658
 10
122.7865695872
 20
117.8757279529
 10
122.7812127266
 20
117.8863524442
 10
122.7755532023
 20
117.8968070686
 10
122.7696038644
 20
117.9070681587
 10
122.7633781926
 20
117.9171124651
 10
122.7568902601
 20
117.92691722
 10
122.7501547713
 20
117.9364602172
 10
122.743187032
 20
117.9457198574
 10
122.736002775
 20
117.9546751398
 10
122.7286182593
 20
117.9633057718
 10
122.721050305
 20
117.9715922446
 10
122.7133159835
 20
117.9795157519
 10
122.7054327775
 20
117.9870583279
 10
122.6974186781
 20
117.9942029517
 10
122.6892917477
 20
118.0009333945
 10
122.6810703367
 20
118.007234383
 10
122.6727732399
 20
118.0130917303
 10
122.6644192466
 20
118.018492167
 10
122.6560270974
 20
118.0234233716
 10
122.6476156991
 20
118.0278741247
  0
LWPOLYLINE
  5
3EF
100
AcDbEntity
  8
RACCORDO
100
AcDbPolyline
 62
7
  6
CONTINUOUS
 90
24
 70
0
 10
120.9505564327
 20
123.8942897304
 10
120.9499832483
 20
123.9287621365
 10
120.9482841353
 20
123.9625120575
 10
120.9454590937
 20
123.9955394933
 10
120.9414986592
 20
124.0279010507
 10
120.936412296
 20
124.0595401229
 10
120.9302283977
 20
124.0902868894
 10
120.9229457822
 20
124.1201224168
 10
120.9145656316
 20
124.1490656386
 10
120.9051198843
 20
124.1770035345
 10
120.8945960258
 20
124.2039496973
 10
120.8830065708
 20
124.2298905343
 10
120.870421002
 20
124.2546722472
 10
120.8568458162
 20
124.2782695486
 10
120.8422745166
 20
124.3007077259
 10
120.8267570966
 20
124.3219088431
 10
120.8102738092
 20
124.341885933
 10
120.7928444014
 20
124.3606259629
 10
120.7745781067
 20
124.3780118985
 10
120.7554894508
 20
124.3940208248
 10
120.7355639081
 20
124.4086756569
 10
120.7148671356
 20
124.4219281052
 10
120.693374621
 20
124.4337839665
 10
117.4634845567
 20
126.0487528759
  0
LINE
  5
3F0
100
AcDbEntity
  8
RACCORDO
100
AcDbLine
 62
253
  6
CONTINUOUS
 10
120.8705866523
 20
74.9412232986
 11
120.8705866523
 21
75.2811972327
  0
LINE
  5
3F1
100
AcDbEntity
  8
RACCORDO
100
AcDbLine
 62
253
  6
CONTINUOUS
 10
120.8705866523
 20
116.5808013721
 11
120.8705866523
 21
116.9207753062
  0
LINE
  5
3F2
100
AcDbEntity
  8
RACCORDO
100
AcDbLine
 62
7
  6
CONTINUOUS
 10
120.9505564327
 20
123.8942897304
 11
120.9505564327
 21
123.6234894377
  0
LINE
  5
3F3
100
AcDbEntity
  8
RACCORDO
100
AcDbLine
 62
253
  6
CONTINUOUS
 10
121.223108612
 20
74.9407105747
 11
121.223108612
 21
75.2806845088
  0
LINE
  5
3F4
100
AcDbEntity
  8
RACCORDO
100
AcDbLine
 62
253
  6
CONTINUOUS
 10
121.223108612
 20
116.5802886482
 11
121.223108612
 21
116.9202625824
  0
LINE
  5
3F5
100
AcDbEntity
  8
RACCORDO
100
AcDbLine
 62
253
  6
CONTINUOUS
 10
121.5818072604
 20
116.3022057449
 11
121.5818072604
 21
115.613385122
  0
LINE
  5
3F6
100
AcDbEntity
  8
RACCORDO
100
AcDbLine
 62
253
  6
CONTINUOUS
 10
121.5818072604
 20
76.6997241783
 11
121.5818072604
 21
76.2576937098
  0
LINE
  5
3F7
100
AcDbEntity
  8
RACCORDO
100
AcDbLine
 62
253
  6
CONTINUOUS
 10
121.9343292201
 20
116.4317851254
 11
121.9343292201
 21
115.6237383028
  0
LINE
  5
3F8
100
AcDbEntity
  8
RACCORDO
100
AcDbLine
 62
253
  6
CONTINUOUS
 10
121.9343292201
 20
76.847698578
 11
121.9343292201
 21
76.132180986
  0
LINE
  5
3F9
100
AcDbEntity
  8
RACCORDO
100
AcDbLine
 62
7
  6
CONTINUOUS
 10
122.8243894028
 20
75.7207451744
 11
122.8243894028
 21
77.2213096897
  0
LINE
  5
3FA
100
AcDbEntity
  8
RACCORDO
100
AcDbLine
 62
7
  6
CONTINUOUS
 10
122.8243894028
 20
116.1207828347
 11
122.8243894028
 21
117.7229845859
  0
LWPOLYLINE
  5
3FB
100
AcDbEntity
  8
RACCORDO
100
AcDbPolyline
 62
253
  6
CONTINUOUS
 90
22
 70
0
 10
120.8705866523
 20
75.2811972327
 10
120.8708055235
 20
75.2920770961
 10
120.8714620792
 20
75.3031550683
 10
120.8725554169
 20
75.3144039833
 10
120.8740838667
 20
75.3257982873
 10
120.8760441853
 20
75.3373078026
 10
120.8784307684
 20
75.3488976217
 10
120.8812371012
 20
75.3605366811
 10
120.8844566182
 20
75.372198239
 10
120.8880813874
 20
75.3838535227
 10
120.8921024705
 20
75.3954736911
 10
120.8965098437
 20
75.407029686
 10
120.9012924715
 20
75.4184925415
 10
120.9064384444
 20
75.4298337154
 10
120.9119349733
 20
75.4410250246
 10
120.9177683166
 20
75.4520385042
 10
120.9239239054
 20
75.4628466844
 10
120.9303864607
 20
75.4734227721
 10
120.9371399741
 20
75.4837405823
 10
120.944167674
 20
75.4937744877
 10
120.9514520556
 20
75.5034994922
 10
120.958975
 20
75.5128914065
  0
LWPOLYLINE
  5
3FC
100
AcDbEntity
  8
RACCORDO
100
AcDbPolyline
 62
7
  6
CONTINUOUS
 90
15
 70
0
 10
123.4248544316
 20
117.7267645213
 10
123.4245375027
 20
117.714180281
 10
123.4235831561
 20
117.7015847475
 10
123.4219881714
 20
117.68901648
 10
123.4197528663
 20
117.6765175648
 10
123.4168795104
 20
117.6641237904
 10
123.413370563
 20
117.6518642207
 10
123.4092324305
 20
117.6397762831
 10
123.4044749658
 20
117.6278989045
 10
123.3991069133
 20
117.6162619221
 10
123.39314063
 20
117.6048992861
 10
123.3865928649
 20
117.5938478715
 10
123.3794799791
 20
117.5831386696
 10
123.3718187875
 20
117.572800102
 10
123.368016892
 20
117.5680564123
  0
LWPOLYLINE
  5
3FD
100
AcDbEntity
  8
RACCORDO
100
AcDbPolyline
 62
253
  6
CONTINUOUS
 90
16
 70
0
 10
123.4248544316
 20
117.7267645213
 10
123.4245512105
 20
117.7206098771
 10
123.4235697047
 20
117.7141083678
 10
123.4219115269
 20
117.7076412918
 10
123.4195811884
 20
117.7012262437
 10
123.4165850293
 20
117.6948806769
 10
123.412931201
 20
117.6886218555
 10
123.4086296446
 20
117.6824668076
 10
123.4036920631
 20
117.6764322792
 10
123.3981318901
 20
117.6705346882
 10
123.3919642528
 20
117.66479008
 10
123.3852059315
 20
117.6592140837
 10
123.3778753133
 20
117.6538218699
 10
123.3699923424
 20
117.6486281089
 10
123.3615784657
 20
117.6436469313
 10
123.3526565746
 20
117.6388918891
  0
LWPOLYLINE
  5
3FE
100
AcDbEntity
  8
RACCORDO
100
AcDbPolyline
 62
253
  6
CONTINUOUS
 90
16
 70
0
 10
123.4248544316
 20
118.0742956887
 10
123.4245489266
 20
118.0681182722
 10
123.4235647549
 20
118.0616155898
 10
123.4219036555
 20
118.0551474026
 10
123.4195701094
 20
118.048731233
 10
123.4165704799
 20
118.0423846295
 10
123.4129130465
 20
118.0361250548
 10
123.4086079077
 20
118.0299696565
 10
123.4036667677
 20
118.0239350541
 10
123.39810296
 20
118.0180374953
 10
123.3919302015
 20
118.012291784
 10
123.3851664521
 20
118.0067148757
 10
123.3778349339
 20
118.0013252979
 10
123.3699583623
 20
117.9961384149
 10
123.3615576572
 20
117.9911667629
 10
123.3526565746
 20
117.9864234059
  0
LINE
  5
3FF
100
AcDbEntity
  8
0
100
AcDbLine
 62
7
  6
CONTINUOUS
 10
106.6472048515
 20
101.1663316366
 11
106.9048600544
 21
101.3023502766
  0
LWPOLYLINE
  5
400
100
AcDbEntity
  8
0
100
AcDbPolyline
 62
253
  6
CONTINUOUS
 90
27
 70
0
 10
106.6472048503
 20
101.166331636
 10
106.6698184642
 20
101.1780510567
 10
106.7378808059
 20
101.2107653341
 10
106.8074189739
 20
101.2404194792
 10
106.8783801471
 20
101.2669909635
 10
106.9507104145
 20
101.2904596
 10
107.0243548328
 20
101.3108075644
 10
107.0992574924
 20
101.3280194117
 10
107.1753615364
 20
101.3420820769
 10
107.2526091877
 20
101.3529848813
 10
107.3309417718
 20
101.3607195411
 10
107.4102997833
 20
101.3652801807
 10
107.4906229463
 20
101.3666633378
 10
107.5718502761
 20
101.3648679642
 10
107.6539201049
 20
101.3598954231
 10
107.7367701164
 20
101.3517494893
 10
107.8203373897
 20
101.3404363481
 10
107.9045584617
 20
101.3259645907
 10
107.9893693783
 20
101.3083452059
 10
108.0747057334
 20
101.2875915736
 10
108.1605027143
 20
101.2637194564
 10
108.2466951627
 20
101.2367469848
 10
108.3332176303
 20
101.2066946407
 10
108.4200044194
 20
101.1735852436
 10
108.5069896276
 20
101.1374439355
 10
108.5941071974
 20
101.0982981623
 10
108.6812909729
 20
101.0561776509
  0
LWPOLYLINE
  5
401
100
AcDbEntity
  8
RACCORDO
100
AcDbPolyline
 62
253
  6
CONTINUOUS
 90
14
 70
0
 10
109.9883384101
 20
124.3210509714
 10
109.9926861008
 20
124.3136978738
 10
109.996536347
 20
124.3066048343
 10
109.9998786339
 20
124.2997912235
 10
110.0027038316
 20
124.2932756544
 10
110.0050042275
 20
124.2870759151
 10
110.0067735432
 20
124.281208923
 10
110.0080069445
 20
124.2756906929
 10
110.0087010552
 20
124.2705363093
 10
110.0088539762
 20
124.2657598668
 10
110.0084652922
 20
124.2613744146
 10
110.0075360669
 20
124.2573919216
 10
110.0060688377
 20
124.2538232596
 10
110.0040994401
 20
124.2507281954
  0
LWPOLYLINE
  5
402
100
AcDbEntity
  8
ASSI
100
AcDbPolyline
 62
7
  6
CONTINUOUS
 90
6
 70
0
 10
123.8534001345
 20
122.2029521189
 10
123.8533646713
 20
122.2039710748
 10
123.8526286936
 20
122.2074362626
 10
123.8509807917
 20
122.2102908248
 10
123.848464791
 20
122.2125840969
 10
123.8465845036
 20
122.2136859668
  0
LWPOLYLINE
  5
403
100
AcDbEntity
  8
RACCORDO
100
AcDbPolyline
 62
253
  6
CONTINUOUS
 90
31
 70
0
 10
123.3526565746
 20
117.9864234059
 10
123.3524664217
 20
117.9979015256
 10
123.3517894676
 20
118.0095890283
 10
123.3506275678
 20
118.0214538808
 10
123.3489839068
 20
118.0334635637
 10
123.3468629896
 20
118.0455851608
 10
123.3442706292
 20
118.057785449
 10
123.3412139308
 20
118.0700309896
 10
123.3377012722
 20
118.0822882199
 10
123.333742281
 20
118.0945235452
 10
123.329347808
 20
118.1067034307
 10
123.3245298976
 20
118.1187944935
 10
123.3193017548
 20
118.1307635945
 10
123.313677709
 20
118.1425779285
 10
123.3076731747
 20
118.1542051146
 10
123.3013046091
 20
118.1656132849
 10
123.2945894673
 20
118.1767711718
 10
123.2875461542
 20
118.1876481936
 10
123.2801939743
 20
118.1982145384
 10
123.2725530784
 20
118.2084412458
 10
123.2646444089
 20
118.2183002864
 10
123.2564896419
 20
118.2277646383
 10
123.248111128
 20
118.2368083616
 10
123.2395318314
 20
118.2454066691
 10
123.2307752661
 20
118.2535359945
 10
123.2218654323
 20
118.2611740568
 10
123.2128267501
 20
118.2682999215
 10
123.203683993
 20
118.2748940579
 10
123.1944622194
 20
118.2809383928
 10
123.1851867045
 20
118.2864163598
 10
123.1758828709
 20
118.2913129447
  0
LINE
  5
404
100
AcDbEntity
  8
RACCORDO
100
AcDbLine
 62
253
  6
CONTINUOUS
 10
123.3526565746
 20
117.9864234059
 11
123.3526565746
 21
117.6388918891
  0
LINE
  5
405
100
AcDbEntity
  8
RACCORDO
100
AcDbLine
 62
253
  6
CONTINUOUS
 10
123.3526565746
 20
76.3392877498
 11
123.3526565746
 21
75.991756233
  0
LINE
  5
406
100
AcDbEntity
  8
RACCORDO
100
AcDbLine
 62
7
  6
CONTINUOUS
 10
123.4248544316
 20
118.0742960381
 11
123.4248544316
 21
117.7267645213
  0
LINE
  5
407
100
AcDbEntity
  8
RACCORDO
100
AcDbLine
 62
7
  6
CONTINUOUS
 10
123.4248544316
 20
76.4271603819
 11
123.4248544316
 21
76.0796288652
  0
LINE
  5
408
100
AcDbEntity
  8
ASSI
100
AcDbLine
 62
253
  6
CONTINUOUS
 10
123.7298060906
 20
122.1939240153
 11
123.7298060906
 21
120.966874048
  0
LINE
  5
409
100
AcDbEntity
  8
ASSI
100
AcDbLine
 62
7
  6
CONTINUOUS
 10
123.8534001545
 20
122.2027222619
 11
123.8534001545
 21
121.1150376688
  0
LINE
  5
40A
100
AcDbEntity
  8
RACCORDO
100
AcDbLine
 62
7
  6
CONTINUOUS
 10
123.8850495746
 20
115.8656196935
 11
123.8850495746
 21
77.9316634573
  0
LWPOLYLINE
  5
40B
100
AcDbEntity
  8
RACCORDO
100
AcDbPolyline
 62
7
  6
CONTINUOUS
 90
20
 70
0
 10
123.1671416926
 20
77.5774841697
 10
123.1664371091
 20
77.558177799
 10
123.1650269767
 20
77.5392400999
 10
123.1629089456
 20
77.5207125511
 10
123.1600819469
 20
77.5026403347
 10
123.1565472375
 20
77.4850594619
 10
123.1523065756
 20
77.4679981057
 10
123.1473640655
 20
77.4515029127
 10
123.141722003
 20
77.4356070228
 10
123.1353762158
 20
77.420322421
 10
123.1283258269
 20
77.4056836934
 10
123.1205791178
 20
77.3917410518
 10
123.1121438155
 20
77.3785334695
 10
123.1030185541
 20
77.3660895767
 10
123.0932217107
 20
77.35446319
 10
123.0827981781
 20
77.3437229506
 10
123.0717641952
 20
77.3338962083
 10
123.0601429741
 20
77.3250138357
 10
123.0480035932
 20
77.3171294154
 10
123.0351651129
 20
77.3101523585
  0
LWPOLYLINE
  5
40C
100
AcDbEntity
  8
RACCORDO
100
AcDbPolyline
 62
253
  6
CONTINUOUS
 90
16
 70
0
 10
123.4248544316
 20
76.0796288685
 10
123.424553161
 20
76.0734940363
 10
123.4235734424
 20
76.0669910882
 10
123.4219167534
 20
76.0605225239
 10
123.4195876019
 20
76.0541059572
 10
123.4165923217
 20
76.0477588461
 10
123.4129390628
 20
76.0414984693
 10
123.4086377647
 20
76.0353418661
 10
123.4037001322
 20
76.0293057957
 10
123.3981396069
 20
76.0234066932
 10
123.3919713178
 20
76.0176606118
 10
123.3852120565
 20
76.0120831961
 10
123.3778802426
 20
76.0066896438
 10
123.3699958445
 20
76.0014946394
 10
123.3615803187
 20
75.9965123159
 10
123.3526565746
 20
75.991756233
  0
LWPOLYLINE
  5
40D
100
AcDbEntity
  8
RACCORDO
100
AcDbPolyline
 62
253
  6
CONTINUOUS
 90
16
 70
0
 10
123.4248544316
 20
76.4271603819
 10
123.4245512105
 20
76.4210057377
 10
123.4235697047
 20
76.4145042284
 10
123.4219115269
 20
76.4080371524
 10
123.4195811884
 20
76.4016221044
 10
123.4165850293
 20
76.3952765375
 10
123.412931201
 20
76.3890177161
 10
123.4086296446
 20
76.3828626682
 10
123.4036920631
 20
76.3768281398
 10
123.3981318901
 20
76.3709305488
 10
123.3919642528
 20
76.3651859406
 10
123.3852059315
 20
76.3596099444
 10
123.3778753133
 20
76.3542177305
 10
123.3699923424
 20
76.3490239695
 10
123.3615784657
 20
76.3440427919
 10
123.3526565746
 20
76.3392877498
  0
LWPOLYLINE
  5
40E
100
AcDbEntity
  8
DRAFT
100
AcDbPolyline
 62
7
  6
CONTINUOUS
 90
14
 70
0
 10
113.8751959522
 20
82.375926263
 10
113.8606965547
 20
82.346499742
 10
113.845121964
 20
82.3182835723
 10
113.82849506
 20
82.2913143737
 10
113.8108357419
 20
82.2656231861
 10
113.7921747231
 20
82.2412542147
 10
113.7725474016
 20
82.2182457351
 10
113.7519729691
 20
82.1966106784
 10
113.7304587255
 20
82.1763539822
 10
113.7080404612
 20
82.1575081937
 10
113.6847377307
 20
82.1400897183
 10
113.6605275423
 20
82.1240890938
 10
113.6353935468
 20
82.1095130014
 10
113.6260213257
 20
82.1045685587
  0
LINE
  5
40F
100
AcDbEntity
  8
RACCORDO
100
AcDbLine
 62
253
  6
CONTINUOUS
 10
128.4407623335
 20
120.0211525573
 11
128.4407623335
 21
119.4444009138
  0
LINE
  5
410
100
AcDbEntity
  8
RACCORDO
100
AcDbLine
 62
253
  6
CONTINUOUS
 10
128.4407623335
 20
82.938931782
 11
128.4407623335
 21
82.6677873921
  0
LINE
  5
411
100
AcDbEntity
  8
RACCORDO
100
AcDbLine
 62
7
  6
CONTINUOUS
 10
128.5810924334
 20
120.321657066
 11
128.5810924334
 21
119.6180655064
  0
LINE
  5
412
100
AcDbEntity
  8
RACCORDO
100
AcDbLine
 62
7
  6
CONTINUOUS
 10
128.5810924334
 20
83.0126485826
 11
128.5810924334
 21
82.7146120686
  0
LWPOLYLINE
  5
413
100
AcDbEntity
  8
RACCORDO
100
AcDbPolyline
 62
7
  6
CONTINUOUS
 90
18
 70
0
 10
128.5810819347
 20
119.6180601745
 10
128.5810280327
 20
119.6143408639
 10
128.5801318812
 20
119.6025765628
 10
128.5781279845
 20
119.5908760714
 10
128.5750217858
 20
119.5792225362
 10
128.5708278075
 20
119.5676689208
 10
128.5655331662
 20
119.5562008257
 10
128.5591507454
 20
119.5448326504
 10
128.5517337171
 20
119.5336605568
 10
128.543283246
 20
119.5226982144
 10
128.5337981674
 20
119.5119319537
 10
128.5233281595
 20
119.5014169289
 10
128.5118587304
 20
119.491146048
 10
128.499404372
 20
119.481126403
 10
128.4860582378
 20
119.471434424
 10
128.4718513789
 20
119.4620955879
 10
128.4567527441
 20
119.4530844178
 10
128.4407623335
 20
119.4444009138
  0
LINE
  5
414
100
AcDbEntity
  8
DRAFT
100
AcDbLine
 62
253
  6
CONTINUOUS
 10
146.2911945863
 20
94.7299588426
 11
145.5533175994
 21
95.0988973361
  0
LWPOLYLINE
  5
415
100
AcDbEntity
  8
RACCORDO
100
AcDbPolyline
 62
253
  6
CONTINUOUS
 90
16
 70
0
 10
108.9888367935
 20
84.5333400886
 10
109.0180036328
 20
84.5592585587
 10
109.0454648987
 20
84.5877284875
 10
109.0711896299
 20
84.6187167308
 10
109.0951288553
 20
84.6521779708
 10
109.11719849
 20
84.6880094026
 10
109.1373203265
 20
84.7260852891
 10
109.1554440391
 20
84.7663012153
 10
109.1715304092
 20
84.8085599681
 10
109.1855348258
 20
84.8527284419
 10
109.1974231906
 20
84.8986672935
 10
109.2071800289
 20
84.9462793694
 10
109.214793958
 20
84.9954904987
 10
109.2202477527
 20
85.0461954981
 10
109.223525295
 20
85.0982530972
 10
109.2246186671
 20
85.1515343836
  0
LINE
  5
416
100
AcDbEntity
  8
0
100
AcDbLine
 62
7
  6
CONTINUOUS
 10
150.2982139651
 20
113.2591365319
 11
142.3657769331
 21
109.1519970275
  0
LINE
  5
417
100
AcDbEntity
  8
SMUSSO
100
AcDbLine
 62
7
  6
CONTINUOUS
 10
150.2861151127
 20
113.0793559137
 11
142.2963005145
 21
109.0294220183
  0
LWPOLYLINE
  5
418
100
AcDbEntity
  8
0
100
AcDbPolyline
 62
7
  6
CONTINUOUS
 90
34
 70
0
 10
110.9128324327
 20
93.2872019705
 10
110.9562608139
 20
93.3085080257
 10
111.0225173653
 20
93.3441219439
 10
111.0872229252
 20
93.3827595894
 10
111.150363232
 20
93.4244209473
 10
111.2118488894
 20
93.4690559592
 10
111.2715809648
 20
93.5165922121
 10
111.3294828516
 20
93.5669594445
 10
111.3855481844
 20
93.6201422181
 10
111.4397854078
 20
93.6761466785
 10
111.4921781027
 20
93.7349652791
 10
111.5426547422
 20
93.7965276599
 10
111.5911427379
 20
93.8607437552
 10
111.6375866637
 20
93.9275310196
 10
111.6819752701
 20
93.9968647095
 10
111.724304909
 20
94.0687376798
 10
111.7645561253
 20
94.1431276301
 10
111.8026795508
 20
94.2199522705
 10
111.8386285981
 20
94.2991124763
 10
111.8723668496
 20
94.3805168156
 10
111.9038822551
 20
94.4641296403
 10
111.9331673459
 20
94.5499325997
 10
111.9602066296
 20
94.6378968028
 10
111.9849666655
 20
94.7279244066
 10
112.0074164176
 20
94.8198907769
 10
112.027533133
 20
94.9136778818
 10
112.0453141305
 20
95.0092568389
 10
112.0607597106
 20
95.1066354494
 10
112.0738616294
 20
95.2058076399
 10
112.0845961171
 20
95.3066372362
 10
112.0929450528
 20
95.4089338264
 10
112.0989054321
 20
95.5125775869
 10
112.1024803193
 20
95.6175252447
 10
112.1036715905
 20
95.7236947173
  0
LINE
  5
419
100
AcDbEntity
  8
0
100
AcDbLine
 62
7
  6
CONTINUOUS
 10
110.6491023015
 20
93.1625367365
 11
110.9128193092
 21
93.287195767
  0
LINE
  5
41A
100
AcDbEntity
  8
0
100
AcDbLine
 62
7
  6
CONTINUOUS
 10
145.8319664973
 20
96.2307596892
 11
146.2649791992
 21
96.0142533383
  0
LINE
  5
41B
100
AcDbEntity
  8
RACCORDO
100
AcDbLine
 62
253
  6
CONTINUOUS
 10
101.455917845
 20
118.7953081168
 11
116.2946615694
 21
111.3759362546
  0
LINE
  5
41C
100
AcDbEntity
  8
DRAFT
100
AcDbLine
 62
7
  6
CONTINUOUS
 10
147.7113891904
 20
96.1969321389
 11
146.8306646241
 21
96.6372944221
  0
LINE
  5
41D
100
AcDbEntity
  8
DRAFT
100
AcDbLine
 62
7
  6
CONTINUOUS
 10
149.2332313568
 20
96.9712510586
 11
149.128761663
 21
97.0234859056
  0
LINE
  5
41E
100
AcDbEntity
  8
RACCORDO
100
AcDbLine
 62
253
  6
CONTINUOUS
 10
102.4483669931
 20
120.5471707037
 11
117.3107168245
 21
113.115995788
  0
LWPOLYLINE
  5
41F
100
AcDbEntity
  8
RACCORDO
100
AcDbPolyline
 62
253
  6
CONTINUOUS
 90
14
 70
0
 10
123.3526565746
 20
117.6388918891
 10
123.3569997159
 20
117.631546808
 10
123.3608475249
 20
117.6244592592
 10
123.3641890936
 20
117.6176487902
 10
123.3670151179
 20
117.6111336315
 10
123.3693171178
 20
117.6049324668
 10
123.3710879502
 20
117.5990640822
 10
123.3723226812
 20
117.5935450445
 10
123.3730181441
 20
117.5883898178
 10
123.3731724369
 20
117.5836123662
 10
123.3727850871
 20
117.5792256964
 10
123.3718571053
 20
117.5752419013
 10
123.3703910291
 20
117.571671976
 10
123.3683908834
 20
117.5685256981
  0
LWPOLYLINE
  5
420
100
AcDbEntity
  8
RACCORDO
100
AcDbPolyline
 62
253
  6
CONTINUOUS
 90
31
 70
0
 10
123.3526565746
 20
76.3392877498
 10
123.3569997159
 20
76.3515113307
 10
123.3608475249
 20
76.363944521
 10
123.3641890936
 20
76.3765535802
 10
123.3670151179
 20
76.389305424
 10
123.3693171178
 20
76.402164183
 10
123.3710879502
 20
76.4150912167
 10
123.3723226812
 20
76.4280499101
 10
123.3730181441
 20
76.4410061729
 10
123.3731724369
 20
76.4539249438
 10
123.3727850871
 20
76.4667711491
 10
123.3718571053
 20
76.479509481
 10
123.3703910291
 20
76.4921048265
 10
123.3683908834
 20
76.5045226708
 10
123.3658621204
 20
76.5167292113
 10
123.3628116392
 20
76.528691136
 10
123.3592477619
 20
76.540375789
 10
123.3551802236
 20
76.5517512334
 10
123.3506201423
 20
76.5627863696
 10
123.3455799777
 20
76.573451048
 10
123.3400734931
 20
76.5837161479
 10
123.334115729
 20
76.593553631
 10
123.3277229485
 20
76.602936641
 10
123.3209126217
 20
76.6118395338
 10
123.3137033838
 20
76.6202379552
 10
123.3061149544
 20
76.6281089505
 10
123.2981680443
 20
76.6354310541
 10
123.2898843274
 20
76.6421843027
 10
123.2812864168
 20
76.6483502597
 10
123.2723978082
 20
76.6539120743
 10
123.2632427792
 20
76.6588545558
  0
LINE
  5
421
100
AcDbEntity
  8
RACCORDO
100
AcDbLine
 62
253
  6
CONTINUOUS
 10
108.9580022335
 20
84.5100219137
 11
108.9888367935
 21
84.5333400886
  0
LWPOLYLINE
  5
422
100
AcDbEntity
  8
0
100
AcDbPolyline
 62
7
  6
CONTINUOUS
 90
6
 70
0
 10
150.2982139651
 20
113.2591365319
 10
150.4096135657
 20
113.3300468493
 10
150.4927909219
 20
113.4045627908
 10
150.547746034
 20
113.4826843564
 10
150.5744355179
 20
113.5668972036
 10
150.5772305624
 20
113.6063658309
  0
LWPOLYLINE
  5
423
100
AcDbEntity
  8
0
100
AcDbPolyline
 62
7
  6
CONTINUOUS
 90
28
 70
0
 10
110.6491023015
 20
93.1625367365
 10
110.5810045663
 20
93.131894851
 10
110.511588587
 20
93.1037375122
 10
110.4409044396
 20
93.0781037435
 10
110.3690359169
 20
93.0550396809
 10
110.2960043636
 20
93.0345670225
 10
110.2217628729
 20
93.0166944924
 10
110.1463501405
 20
93.0014589369
 10
110.0698275284
 20
92.9888994869
 10
109.9921743999
 20
92.9790421049
 10
109.9134221252
 20
92.9719243571
 10
109.8336363566
 20
92.9675852068
 10
109.7528422542
 20
92.9660589186
 10
109.6710679508
 20
92.9673808495
 10
109.588380617
 20
92.9715844986
 10
109.5048606239
 20
92.978697517
 10
109.4205378524
 20
92.9887482976
 10
109.3354771706
 20
93.0017601359
 10
109.249809984
 20
93.0177390136
 10
109.1635727037
 20
93.0367008505
 10
109.0768237559
 20
93.0586559027
 10
108.9897273493
 20
93.0835798311
 10
108.9023287711
 20
93.1114717755
 10
108.8146776356
 20
93.1423286364
 10
108.7269449824
 20
93.1760974215
 10
108.6392194613
 20
93.2127438493
 10
108.5515070027
 20
93.252266073
 10
108.4638545326
 20
93.2946464538
  0
LINE
  5
424
100
AcDbEntity
  8
DRAFT
100
AcDbLine
 62
253
  6
CONTINUOUS
 10
146.2911945863
 20
99.0600858616
 11
145.5533175994
 21
99.429024355
  0
LINE
  5
425
100
AcDbEntity
  8
RACCORDO
100
AcDbLine
 62
7
  6
CONTINUOUS
 10
150.285980946
 20
97.5055364358
 11
150.1894218347
 21
97.5538159914
  0
LINE
  5
426
100
AcDbEntity
  8
0
100
AcDbLine
 62
7
  6
CONTINUOUS
 10
134.3502299362
 20
127.2077635353
 11
134.3502299362
 21
127.1385645101
  0
LWPOLYLINE
  5
427
100
AcDbEntity
  8
RACCORDO
100
AcDbPolyline
 62
253
  6
CONTINUOUS
 90
3
 70
0
 10
108.8997521854
 20
84.4754421333
 10
108.9256012341
 20
84.4893950442
 10
108.9580022335
 20
84.5100219137
  0
LINE
  5
428
100
AcDbEntity
  8
0
100
AcDbLine
 62
7
  6
CONTINUOUS
 10
107.7817181962
 20
86.7115101106
 11
107.8429075083
 21
86.7421047666
  0
LWPOLYLINE
  5
429
100
AcDbEntity
  8
RACCORDO
100
AcDbPolyline
 62
253
  6
CONTINUOUS
 90
31
 70
0
 10
120.8705866523
 20
116.5808013721
 10
120.8800456227
 20
116.5763124096
 10
120.8899598991
 20
116.5720761852
 10
120.9003025028
 20
116.5681042263
 10
120.9110452733
 20
116.5644073469
 10
120.9221589925
 20
116.5609956008
 10
120.9336134698
 20
116.5578782588
 10
120.9453775752
 20
116.5550638
 10
120.9574192656
 20
116.5525598971
 10
120.9697057198
 20
116.5503733774
 10
120.9822034842
 20
116.5485101935
 10
120.994878567
 20
116.5469754123
 10
121.0076964754
 20
116.5457732102
 10
121.0206223388
 20
116.5449068584
 10
121.0336209719
 20
116.5443787155
 10
121.0466569703
 20
116.5441902187
 10
121.0596948381
 20
116.544341878
 10
121.0726991174
 20
116.5448332776
 10
121.0856344518
 20
116.5456630803
 10
121.0984657574
 20
116.5468290401
 10
121.1111579987
 20
116.5483279779
 10
121.1236763277
 20
116.5501557655
 10
121.1359864921
 20
116.5523073662
 10
121.1480552229
 20
116.5547769295
 10
121.1598499937
 20
116.5575577861
 10
121.1713398563
 20
116.5606426961
 10
121.182492338
 20
116.5640229998
 10
121.1932741479
 20
116.567688441
 10
121.203655337
 20
116.5716284389
 10
121.2136090491
 20
116.5758323864
 10
121.223108612
 20
116.5802886482
  0
LWPOLYLINE
  5
42A
100
AcDbEntity
  8
RACCORDO
100
AcDbPolyline
 62
253
  6
CONTINUOUS
 90
31
 70
0
 10
107.5062684879
 20
123.2629604543
 10
107.5157274582
 20
123.2584714919
 10
107.5256417346
 20
123.2542352674
 10
107.5359843384
 20
123.2502633085
 10
107.5467271088
 20
123.2465664291
 10
107.557840828
 20
123.2431546831
 10
107.5692953054
 20
123.2400373411
 10
107.5810594108
 20
123.2372228822
 10
107.5931011012
 20
123.2347189793
 10
107.6053875554
 20
123.2325324596
 10
107.6178853198
 20
123.2306692757
 10
107.6305604026
 20
123.2291344945
 10
107.643378311
 20
123.2279322925
 10
107.6563041744
 20
123.2270659406
 10
107.6693028075
 20
123.2265377977
 10
107.6823388058
 20
123.2263493009
 10
107.6953766737
 20
123.2265009602
 10
107.7083809529
 20
123.2269923598
 10
107.7213162874
 20
123.2278221625
 10
107.734147593
 20
123.2289881223
 10
107.7468398342
 20
123.2304870602
 10
107.7593581633
 20
123.2323148477
 10
107.7716683276
 20
123.2344664484
 10
107.7837370584
 20
123.2369360117
 10
107.7955318293
 20
123.2397168683
 10
107.8070216918
 20
123.2428017784
 10
107.8181741736
 20
123.246182082
 10
107.8289559835
 20
123.2498475232
 10
107.8393371726
 20
123.2537875211
 10
107.8492908847
 20
123.2579914686
 10
107.8587904476
 20
123.2624477304
  0
LWPOLYLINE
  5
42B
100
AcDbEntity
  8
RACCORDO
100
AcDbPolyline
 62
253
  6
CONTINUOUS
 90
31
 70
0
 10
120.8705866523
 20
116.9207753062
 10
120.8800468017
 20
116.9162858128
 10
120.8899623883
 20
116.9120491107
 10
120.9003064262
 20
116.9080767335
 10
120.9110507744
 20
116.9043794919
 10
120.9221661799
 20
116.9009674557
 10
120.9336223534
 20
116.8978499235
 10
120.9453881027
 20
116.8950353823
 10
120.9574314101
 20
116.89253149
 10
120.9697194827
 20
116.8903450629
 10
120.9822188702
 20
116.888482051
 10
120.994895552
 20
116.8869475231
 10
121.0077150179
 20
116.8857456548
 10
121.0206423894
 20
116.8848797144
 10
121.0336424646
 20
116.8843520585
 10
121.0466798079
 20
116.8841641211
 10
121.0597188793
 20
116.8843164063
 10
121.0727242443
 20
116.8848084922
 10
121.0856606186
 20
116.8856390419
 10
121.0984929577
 20
116.8868058149
 10
121.1111861648
 20
116.8883056297
 10
121.1237053141
 20
116.8901343464
 10
121.1360161107
 20
116.8922869158
 10
121.1480853155
 20
116.8947574858
 10
121.1598804333
 20
116.8975393896
 10
121.1713718558
 20
116.9006257689
 10
121.1825256724
 20
116.9040076436
 10
121.1933048279
 20
116.9076734027
 10
121.2036785939
 20
116.9116116885
 10
121.2136218979
 20
116.915812041
 10
121.223108612
 20
116.9202625824
  0
LWPOLYLINE
  5
42C
100
AcDbEntity
  8
RACCORDO
100
AcDbPolyline
 62
253
  6
CONTINUOUS
 90
31
 70
0
 10
107.5062684879
 20
123.6029343884
 10
107.515703899
 20
123.5984560378
 10
107.5255986915
 20
123.5942266468
 10
107.5359268496
 20
123.5902581578
 10
107.5466633381
 20
123.586561111
 10
107.5577775974
 20
123.5831469163
 10
107.5692328862
 20
123.5800272273
 10
107.5809954736
 20
123.5772111057
 10
107.5930357613
 20
123.5747055161
 10
107.6053213093
 20
123.5725172233
 10
107.6178189311
 20
123.5706521762
 10
107.6304944051
 20
123.5691155189
 10
107.6433128761
 20
123.5679114888
 10
107.6562392936
 20
123.567043369
 10
107.6692386327
 20
123.5665135025
 10
107.6822756249
 20
123.5663233283
 10
107.6953148409
 20
123.5664733713
 10
107.7083207373
 20
123.5669632306
 10
107.7212578658
 20
123.5677915751
 10
107.7340909992
 20
123.5689561509
 10
107.7467852215
 20
123.570453791
 10
107.759305975
 20
123.5722804204
 10
107.7716191814
 20
123.5744310695
 10
107.7836913223
 20
123.5768998858
 10
107.7954895272
 20
123.5796801484
 10
107.80698169
 20
123.582764293
 10
107.8181365214
 20
123.5861439236
 10
107.8289236259
 20
123.5898098305
 10
107.8393136348
 20
123.5937520296
 10
107.8492782818
 20
123.5979597925
 10
107.8587904476
 20
123.6024216646
  0
LINE
  5
42D
100
AcDbEntity
  8
DRAFT
100
AcDbLine
 62
7
  6
CONTINUOUS
 10
149.2332313568
 20
101.3013780776
 11
149.128761663
 21
101.3536129245
  0
LINE
  5
42E
100
AcDbEntity
  8
RACCORDO
100
AcDbLine
 62
7
  6
CONTINUOUS
 10
106.8842767624
 20
122.962150371
 11
108.217489096
 21
122.2955442042
  0
LINE
  5
42F
100
AcDbEntity
  8
RACCORDO
100
AcDbLine
 62
7
  6
CONTINUOUS
 10
120.2485949268
 20
116.2799912888
 11
121.5818072604
 21
115.613385122
  0
LINE
  5
430
100
AcDbEntity
  8
RACCORDO
100
AcDbLine
 62
7
  6
CONTINUOUS
 10
117.3422489518
 20
118.109410901
 11
111.8309418522
 21
120.8650644508
  0
LINE
  5
431
100
AcDbEntity
  8
RACCORDO
100
AcDbLine
 62
7
  6
CONTINUOUS
 10
106.2462571045
 20
123.7902343441
 11
107.5712417843
 21
123.1277420042
  0
LINE
  5
432
100
AcDbEntity
  8
RACCORDO
100
AcDbLine
 62
7
  6
CONTINUOUS
 10
119.6105752689
 20
117.1080752619
 11
120.9355599488
 21
116.445582922
  0
LINE
  5
433
100
AcDbEntity
  8
RACCORDO
100
AcDbLine
 62
7
  6
CONTINUOUS
 10
150.285980946
 20
101.8356634547
 11
150.1894218347
 21
101.8839430104
  0
LINE
  5
434
100
AcDbEntity
  8
RACCORDO
100
AcDbLine
 62
253
  6
CONTINUOUS
 10
106.1812838081
 20
123.9254527942
 11
107.5062684879
 21
123.2629604543
  0
LINE
  5
435
100
AcDbEntity
  8
RACCORDO
100
AcDbLine
 62
253
  6
CONTINUOUS
 10
119.5456019725
 20
117.243293712
 11
120.8705866523
 21
116.5808013721
  0
LINE
  5
436
100
AcDbEntity
  8
RACCORDO
100
AcDbLine
 62
253
  6
CONTINUOUS
 10
120.8705866523
 20
116.9207753062
 11
119.5456019725
 21
117.5832676461
  0
LINE
  5
437
100
AcDbEntity
  8
RACCORDO
100
AcDbLine
 62
253
  6
CONTINUOUS
 10
107.5062684879
 20
123.6029343884
 11
106.1812838081
 21
124.2654267283
  0
LINE
  5
438
100
AcDbEntity
  8
DRAFT
100
AcDbLine
 62
7
  6
CONTINUOUS
 10
119.4988657457
 20
117.7835957534
 11
118.4049720204
 21
118.3305426161
  0
LINE
  5
439
100
AcDbEntity
  8
DRAFT
100
AcDbLine
 62
7
  6
CONTINUOUS
 10
111.6844952428
 20
121.6907810049
 11
109.4600712384
 21
122.8029930071
  0
LINE
  5
43A
100
AcDbEntity
  8
RACCORDO
100
AcDbLine
 62
253
  6
CONTINUOUS
 10
121.0463349083
 20
117.2251521212
 11
119.7213502285
 21
117.8876444611
  0
LINE
  5
43B
100
AcDbEntity
  8
RACCORDO
100
AcDbLine
 62
253
  6
CONTINUOUS
 10
107.6820167439
 20
123.9073112034
 11
106.3570320641
 21
124.5698035433
  0
LINE
  5
43C
100
AcDbEntity
  8
RACCORDO
100
AcDbLine
 62
253
  6
CONTINUOUS
 10
117.3422489518
 20
119.1899942118
 11
111.8309418522
 21
121.9456477616
  0
LWPOLYLINE
  5
43D
100
AcDbEntity
  8
RACCORDO
100
AcDbPolyline
 62
7
  6
CONTINUOUS
 90
22
 70
0
 10
106.2462964106
 20
123.7902147026
 10
106.2375775218
 20
123.7947890147
 10
106.2257698757
 20
123.801711042
 10
106.2143717316
 20
123.8092597721
 10
106.2034577726
 20
123.8173774201
 10
106.1930360857
 20
123.8260461963
 10
106.1830613552
 20
123.8353045962
 10
106.1735556812
 20
123.8451462394
 10
106.1645794896
 20
123.855521537
 10
106.1561544103
 20
123.8664168238
 10
106.1483173416
 20
123.8777977448
 10
106.1411004901
 20
123.8896302222
 10
106.1345214457
 20
123.9019023654
 10
106.1286100051
 20
123.9145815391
 10
106.1233980362
 20
123.9276232412
 10
106.1189082534
 20
123.9409974646
 10
106.1151665549
 20
123.9546589677
 10
106.1121948367
 20
123.9685634012
 10
106.1100101103
 20
123.9826802288
 10
106.1086313718
 20
123.996955992
 10
106.1080729854
 20
124.0113430428
 10
106.1080605045
 20
124.0138531446
  0
LWPOLYLINE
  5
43E
100
AcDbEntity
  8
RACCORDO
100
AcDbPolyline
 62
7
  6
CONTINUOUS
 90
22
 70
0
 10
119.610614575
 20
117.1080556204
 10
119.6018956862
 20
117.1126299325
 10
119.5900880401
 20
117.1195519598
 10
119.578689896
 20
117.1271006899
 10
119.5677759371
 20
117.1352183379
 10
119.5573542501
 20
117.1438871141
 10
119.5473795197
 20
117.1531455139
 10
119.5378738456
 20
117.1629871572
 10
119.528897654
 20
117.1733624548
 10
119.5204725747
 20
117.1842577416
 10
119.512635506
 20
117.1956386626
 10
119.5054186545
 20
117.2074711399
 10
119.4988396101
 20
117.2197432832
 10
119.4929281695
 20
117.2324224569
 10
119.4877162006
 20
117.245464159
 10
119.4832264178
 20
117.2588383824
 10
119.4794847194
 20
117.2724998854
 10
119.4765130011
 20
117.286404319
 10
119.4743282748
 20
117.3005211466
 10
119.4729495362
 20
117.3147969097
 10
119.4723911499
 20
117.3291839606
 10
119.472378669
 20
117.3316940624
  0
LWPOLYLINE
  5
43F
100
AcDbEntity
  8
RACCORDO
100
AcDbPolyline
 62
253
  6
CONTINUOUS
 90
16
 70
0
 10
106.1812838081
 20
123.9254527942
 10
106.1723058832
 20
123.9301822794
 10
106.1638334343
 20
123.9351394176
 10
106.1558895166
 20
123.9403107194
 10
106.1484957578
 20
123.9456821047
 10
106.1416722656
 20
123.9512389643
 10
106.1354375816
 20
123.9569662029
 10
106.1298086639
 20
123.9628482556
 10
106.1248008581
 20
123.9688691008
 10
106.1204278187
 20
123.9750123279
 10
106.1167014509
 20
123.9812612101
 10
106.1136318885
 20
123.9875987515
 10
106.1112274844
 20
123.9940077057
 10
106.1094947808
 20
124.0004706374
 10
106.1084384949
 20
124.006969954
 10
106.1080605034
 20
124.0138411431
  0
LWPOLYLINE
  5
440
100
AcDbEntity
  8
RACCORDO
100
AcDbPolyline
 62
253
  6
CONTINUOUS
 90
16
 70
0
 10
106.1812838081
 20
124.2654267283
 10
106.1723048212
 20
124.270156803
 10
106.163831417
 20
124.2751145963
 10
106.1558866627
 20
124.2802866152
 10
106.1484921795
 20
124.2856587893
 10
106.1416681071
 20
124.2912164921
 10
106.1354330427
 20
124.2969445789
 10
106.1298039604
 20
124.3028274535
 10
106.1247961756
 20
124.3088491072
 10
106.1204233215
 20
124.3149931435
 10
106.1166972977
 20
124.3212428373
 10
106.113628242
 20
124.3275811782
 10
106.1112245053
 20
124.3339909111
 10
106.1094926246
 20
124.3404545969
 10
106.1084373126
 20
124.3469546344
 10
106.1080605034
 20
124.3538150789
  0
LWPOLYLINE
  5
441
100
AcDbEntity
  8
RACCORDO
100
AcDbPolyline
 62
253
  6
CONTINUOUS
 90
16
 70
0
 10
119.5456019725
 20
117.243293712
 10
119.5366240477
 20
117.2480231971
 10
119.5281515987
 20
117.2529803353
 10
119.520207681
 20
117.2581516372
 10
119.5128139222
 20
117.2635230224
 10
119.5059904301
 20
117.269079882
 10
119.4997557461
 20
117.2748071207
 10
119.4941268284
 20
117.2806891734
 10
119.4891190226
 20
117.2867100186
 10
119.4847459831
 20
117.2928532457
 10
119.4810196154
 20
117.2991021279
 10
119.4779500529
 20
117.3054396693
 10
119.4755456489
 20
117.3118486235
 10
119.4738129452
 20
117.3183115552
 10
119.4727566594
 20
117.3248108718
 10
119.4723786678
 20
117.3316820609
  0
LWPOLYLINE
  5
442
100
AcDbEntity
  8
RACCORDO
100
AcDbPolyline
 62
253
  6
CONTINUOUS
 90
16
 70
0
 10
119.5456019725
 20
117.5832676461
 10
119.5366249053
 20
117.5879966552
 10
119.5281532127
 20
117.5929532737
 10
119.5202099433
 20
117.5981240163
 10
119.5128167083
 20
117.6034948151
 10
119.5059936221
 20
117.6090510579
 10
119.499759248
 20
117.6147776281
 10
119.4941305478
 20
117.6206589455
 10
119.4891228354
 20
117.626679009
 10
119.4847497349
 20
117.6328214401
 10
119.4810231443
 20
117.6390695271
 10
119.4779532022
 20
117.6454062711
 10
119.4755482611
 20
117.6518144319
 10
119.4738148639
 20
117.6582765751
 10
119.4727577267
 20
117.6647751193
 10
119.4723786678
 20
117.6716559938
  0
LWPOLYLINE
  5
443
100
AcDbEntity
  8
RACCORDO
100
AcDbPolyline
 62
7
  6
CONTINUOUS
 90
34
 70
0
 10
122.824344276
 20
116.1207610019
 10
122.8404937324
 20
116.1116051403
 10
122.8566510547
 20
116.1015072704
 10
122.8727792413
 20
116.0904845003
 10
122.8888624776
 20
116.0785421808
 10
122.9048414634
 20
116.0657141855
 10
122.9206157487
 20
116.0520733361
 10
122.9361357443
 20
116.0376673073
 10
122.9513828359
 20
116.0225219422
 10
122.9663072586
 20
116.0066913467
 10
122.9808469661
 20
115.9902536408
 10
122.9950053805
 20
115.9732177319
 10
123.0088274384
 20
115.9555272588
 10
123.0223093265
 20
115.9371746412
 10
123.0353852679
 20
115.9182367237
 10
123.0480035932
 20
115.8987784507
 10
123.0601429741
 20
115.8788278751
 10
123.0717641952
 20
115.8584431933
 10
123.0827981781
 20
115.8377430031
 10
123.0932217107
 20
115.8167831772
 10
123.1030185541
 20
115.7956080673
 10
123.1121438155
 20
115.7743253128
 10
123.1205791178
 20
115.7530079546
 10
123.1283258269
 20
115.7316843476
 10
123.1353762158
 20
115.7103954558
 10
123.141722003
 20
115.6892002532
 10
123.1473640655
 20
115.6681335263
 10
123.1523065756
 20
115.6471982757
 10
123.1565472375
 20
115.626430784
 10
123.1600819469
 20
115.6058823966
 10
123.1629089456
 20
115.5855779335
 10
123.1650269767
 20
115.5655533772
 10
123.1664371091
 20
115.5458553209
 10
123.1671416926
 20
115.5265233981
  0
LINE
  5
444
100
AcDbEntity
  8
RACCORDO
100
AcDbLine
 62
7
  6
CONTINUOUS
 10
130.2030610709
 20
117.5406954569
 11
129.1198658014
 21
119.4089309428
  0
LINE
  5
445
100
AcDbEntity
  8
0
100
AcDbLine
 62
7
  6
CONTINUOUS
 10
137.8857638421
 20
131.6665054349
 11
137.8857638421
 21
132.7058942234
  0
LINE
  5
446
100
AcDbEntity
  8
0
100
AcDbLine
 62
7
  6
CONTINUOUS
 10
137.9564745202
 20
130.5981418814
 11
137.9564745202
 21
128.9337915261
  0
LINE
  5
447
100
AcDbEntity
  8
DRAFT
100
AcDbLine
 62
7
  6
CONTINUOUS
 10
138.0300167751
 20
131.5943789684
 11
138.0300167751
 21
128.9689904671
  0
LINE
  5
448
100
AcDbEntity
  8
0
100
AcDbLine
 62
7
  6
CONTINUOUS
 10
138.3807385889
 20
133.2533083691
 11
138.3807385889
 21
133.2195961267
  0
LINE
  5
449
100
AcDbEntity
  8
RACCORDO
100
AcDbLine
 62
7
  6
CONTINUOUS
 10
138.3807385889
 20
129.1368536426
 11
138.3807385889
 21
131.4190180615
  0
LINE
  5
44A
100
AcDbEntity
  8
SMUSSO
100
AcDbLine
 62
7
  6
CONTINUOUS
 10
138.5206719428
 20
133.1496294498
 11
138.5206719428
 21
133.0097752076
  0
LWPOLYLINE
  5
44B
100
AcDbEntity
  8
0
100
AcDbPolyline
 62
7
  6
CONTINUOUS
 90
25
 70
0
 10
108.9942188544
 20
84.5226754678
 10
109.0113499643
 20
84.5317061264
 10
109.0354854991
 20
84.5460995794
 10
109.0587583282
 20
84.5620133007
 10
109.0811355599
 20
84.5794257264
 10
109.1025843387
 20
84.5983115569
 10
109.1230726909
 20
84.6186405948
 10
109.1425683216
 20
84.6403782391
 10
109.1610477286
 20
84.663496709
 10
109.1784936809
 20
84.6879736748
 10
109.1948834792
 20
84.7137807827
 10
109.2101890691
 20
84.7408771773
 10
109.2243868008
 20
84.7692198126
 10
109.2374543265
 20
84.7987655012
 10
109.2493743556
 20
84.8294749287
 10
109.2601337923
 20
84.8613075754
 10
109.2697170418
 20
84.8942167354
 10
109.2781094039
 20
84.9281573183
 10
109.2853006654
 20
84.9630897523
 10
109.2912786727
 20
84.9989720197
 10
109.2960329635
 20
85.0357475317
 10
109.2995590079
 20
85.0733524585
 10
109.3018529218
 20
85.1117289518
 10
109.3029098786
 20
85.1508263493
 10
109.3027279551
 20
85.1905890276
  0
LINE
  5
44C
100
AcDbEntity
  8
RACCORDO
100
AcDbLine
 62
7
  6
CONTINUOUS
 10
150.2982139651
 20
104.7720875748
 11
146.2911945863
 21
102.6973925575
  0
LINE
  5
44D
100
AcDbEntity
  8
0
100
AcDbLine
 62
7
  6
CONTINUOUS
 10
108.8997521849
 20
84.4754421331
 11
108.9942188544
 21
84.5226754678
  0
LINE
  5
44E
100
AcDbEntity
  8
0
100
AcDbLine
 62
7
  6
CONTINUOUS
 10
112.2598114547
 20
84.3543626621
 11
112.7181475351
 21
84.5835307023
  0
LWPOLYLINE
  5
44F
100
AcDbEntity
  8
RACCORDO
100
AcDbPolyline
 62
7
  6
CONTINUOUS
 90
46
 70
0
 10
108.8997521855
 20
84.4754421333
 10
108.8640854745
 20
84.4592231073
 10
108.8270112509
 20
84.4455610288
 10
108.7886168725
 20
84.4345394501
 10
108.7489823335
 20
84.4262311069
 10
108.7082156464
 20
84.4207056148
 10
108.6664487524
 20
84.418020515
 10
108.6237919534
 20
84.4182161095
 10
108.5803281655
 20
84.4213245513
 10
108.5361406074
 20
84.4273746855
 10
108.4912546865
 20
84.4364057244
 10
108.4458286336
 20
84.4484294185
 10
108.4001431702
 20
84.4633923591
 10
108.3543138543
 20
84.4812598395
 10
108.3084146221
 20
84.502008269
 10
108.2626676006
 20
84.5255347996
 10
108.2171849256
 20
84.5517681692
 10
108.1720441067
 20
84.5806524013
 10
108.127418276
 20
84.6120618907
 10
108.0834108942
 20
84.6459026606
 10
108.0401044753
 20
84.6820921588
 10
107.9976413745
 20
84.720490124
 10
107.9561303923
 20
84.7609712788
 10
107.9156379409
 20
84.8034455692
 10
107.876243087
 20
84.8478092538
 10
107.8380309135
 20
84.8939478444
 10
107.8010829021
 20
84.9417456684
 10
107.7654736242
 20
84.9910911729
 10
107.73128022
 20
85.0418646732
 10
107.6985795116
 20
85.093940676
 10
107.6674438118
 20
85.1471939113
 10
107.6379469702
 20
85.2014887179
 10
107.6101513466
 20
85.25670247
 10
107.5841099526
 20
85.312727225
 10
107.5598810503
 20
85.369441122
 10
107.5375282254
 20
85.4267015125
 10
107.5171087095
 20
85.4843690458
 10
107.4986754876
 20
85.5423033254
 10
107.4822739463
 20
85.6003753567
 10
107.4679446441
 20
85.6584646543
 10
107.4557291282
 20
85.7164372128
 10
107.4456654787
 20
85.7741585697
 10
107.4377860509
 20
85.8315119397
 10
107.4321229362
 20
85.8883715298
 10
107.4287064028
 20
85.9445993003
 10
107.4275623922
 20
86.0000625209
  0
LWPOLYLINE
  5
450
100
AcDbEntity
  8
RACCORDO
100
AcDbPolyline
 62
253
  6
CONTINUOUS
 90
4
 70
0
 10
107.8612339239
 20
86.7426182016
 10
107.8248430211
 20
86.7304318221
 10
107.7897036783
 20
86.7154086835
 10
107.7817261578
 20
86.7115140913
  0
LINE
  5
451
100
AcDbEntity
  8
RACCORDO
100
AcDbLine
 62
7
  6
CONTINUOUS
 10
120.9962651185
 20
116.4244674874
 11
121.6218718121
 21
116.2938460911
  0
LINE
  5
452
100
AcDbEntity
  8
RACCORDO
100
AcDbLine
 62
253
  6
CONTINUOUS
 10
121.223108612
 20
116.5802886482
 11
121.9343292201
 21
116.4317851254
  0
LWPOLYLINE
  5
453
100
AcDbEntity
  8
RACCORDO
100
AcDbPolyline
 62
7
  6
CONTINUOUS
 90
10
 70
0
 10
120.9962651185
 20
116.4244674874
 10
120.9887235294
 20
116.4261642661
 10
120.9812203003
 20
116.4280982498
 10
120.9737661167
 20
116.4302682941
 10
120.9663554892
 20
116.4326781411
 10
120.9590166527
 20
116.435320394
 10
120.9518073461
 20
116.4381722949
 10
120.9447497014
 20
116.4412194598
 10
120.9378344513
 20
116.4444600588
 10
120.9355493264
 20
116.445588234
  0
LWPOLYLINE
  5
454
100
AcDbEntity
  8
RACCORDO
100
AcDbPolyline
 62
253
  6
CONTINUOUS
 90
14
 70
0
 10
123.2866578287
 20
118.2979028367
 10
123.2792304081
 20
118.3012223544
 10
123.2716474655
 20
118.3038600545
 10
123.2638010471
 20
118.3058729251
 10
123.2557127558
 20
118.30725545
 10
123.2474047881
 20
118.3080039103
 10
123.2388996157
 20
118.3081163546
 10
123.230220153
 20
118.3075925057
 10
123.2213880625
 20
118.3064334637
 10
123.2124292795
 20
118.3046424283
 10
123.2033739426
 20
118.3022259979
 10
123.1942487738
 20
118.2991926265
 10
123.1850767692
 20
118.2955512693
 10
123.1758828709
 20
118.2913129447
  0
LWPOLYLINE
  5
455
100
AcDbEntity
  8
RACCORDO
100
AcDbPolyline
 62
253
  6
CONTINUOUS
 90
14
 70
0
 10
121.9493316681
 20
118.966565917
 10
121.9419042475
 20
118.9698854347
 10
121.9343213049
 20
118.9725231348
 10
121.9264748866
 20
118.9745360054
 10
121.9183865953
 20
118.9759185303
 10
121.9100786275
 20
118.9766669906
 10
121.9015734552
 20
118.9767794348
 10
121.8928939924
 20
118.9762555859
 10
121.8840619019
 20
118.975096544
 10
121.8751031189
 20
118.9733055086
 10
121.866047782
 20
118.9708890782
 10
121.8569226132
 20
118.9678557068
 10
121.8477506087
 20
118.9642143496
 10
121.8385567103
 20
118.959976025
  0
LWPOLYLINE
  5
456
100
AcDbEntity
  8
RACCORDO
100
AcDbPolyline
 62
253
  6
CONTINUOUS
 90
15
 70
0
 10
119.7213502285
 20
117.8876444611
 10
119.7120443556
 20
117.891947764
 10
119.7027668002
 20
117.8956470306
 10
119.6935430018
 20
117.8987321137
 10
119.6843982443
 20
117.901194552
 10
119.6753576123
 20
117.9030275862
 10
119.6664459221
 20
117.9042261835
 10
119.6576876153
 20
117.9047870586
 10
119.6491067014
 20
117.904708676
 10
119.640726717
 20
117.9039912532
 10
119.6325706408
 20
117.9026367609
 10
119.6246608342
 20
117.9006489163
 10
119.6170189874
 20
117.8980331744
 10
119.6096660445
 20
117.8947967075
 10
119.6082717204
 20
117.894096108
  0
LWPOLYLINE
  5
457
100
AcDbEntity
  8
RACCORDO
100
AcDbPolyline
 62
253
  6
CONTINUOUS
 90
15
 70
0
 10
106.3570320641
 20
124.5698035433
 10
106.3477282304
 20
124.574105968
 10
106.3384527156
 20
124.5778046167
 10
106.329230942
 20
124.5808893521
 10
106.3200881849
 20
124.5833517195
 10
106.3110495027
 20
124.58518497
 10
106.3021396689
 20
124.5863840791
 10
106.2933831036
 20
124.5869457601
 10
106.2848038069
 20
124.5868684737
 10
106.2764252931
 20
124.5861524316
 10
106.2682705261
 20
124.5847995964
 10
106.2603618566
 20
124.582813676
 10
106.2527209607
 20
124.5802001134
 10
106.2453687807
 20
124.5769660718
 10
106.2439463979
 20
124.5762515184
  0
LWPOLYLINE
  5
458
100
AcDbEntity
  8
RACCORDO
100
AcDbPolyline
 62
7
  6
CONTINUOUS
 90
18
 70
0
 10
108.5850135055
 20
125.6487249983
 10
108.5728076932
 20
125.6544221859
 10
108.5601854145
 20
125.6595009939
 10
108.5471852247
 20
125.6639228946
 10
108.5338306434
 20
125.6676571673
 10
108.5201876556
 20
125.6706647537
 10
108.5063633661
 20
125.6729101725
 10
108.4924322321
 20
125.6743781247
 10
108.4784235434
 20
125.6750638345
 10
108.4643740469
 20
125.6749619999
 10
108.4503417346
 20
125.6740700784
 10
108.4363691885
 20
125.6723887943
 10
108.4224633293
 20
125.669913553
 10
108.4086184233
 20
125.6666299271
 10
108.3949361646
 20
125.6625485904
 10
108.3815652349
 20
125.6577148848
 10
108.3685425138
 20
125.6521527681
 10
108.3637197954
 20
125.6498666637
  0
LWPOLYLINE
  5
459
100
AcDbEntity
  8
RACCORDO
100
AcDbPolyline
 62
7
  6
CONTINUOUS
 90
16
 70
0
 10
121.3041068317
 20
118.6996285584
 10
121.2956957562
 20
118.7035890422
 10
121.2873035386
 20
118.707050021
 10
121.2789492909
 20
118.7100037048
 10
121.2706521169
 20
118.7124434928
 10
121.2624308185
 20
118.714363859
 10
121.2543038527
 20
118.7157603643
 10
121.2462896874
 20
118.716629873
 10
121.238406568
 20
118.7169704596
 10
121.2306722258
 20
118.7167812841
 10
121.2231042183
 20
118.7160627923
 10
121.2157197613
 20
118.7148166467
 10
121.2085354988
 20
118.713045624
 10
121.2015677201
 20
118.7107537428
 10
121.1948322609
 20
118.7079462196
 10
121.1931746428
 20
118.7071587163
  0
LWPOLYLINE
  5
45A
100
AcDbEntity
  8
RACCORDO
100
AcDbPolyline
 62
7
  6
CONTINUOUS
 90
16
 70
0
 10
107.9397886672
 20
125.3817876406
 10
107.9313775918
 20
125.3857481245
 10
107.9229853742
 20
125.3892091032
 10
107.9146311265
 20
125.392162787
 10
107.9063339525
 20
125.3946025751
 10
107.8981126541
 20
125.3965229413
 10
107.8899856883
 20
125.3979194466
 10
107.8819715229
 20
125.3987889552
 10
107.8740884036
 20
125.3991295418
 10
107.8663540614
 20
125.3989403664
 10
107.8587860539
 20
125.3982218745
 10
107.8514015969
 20
125.3969757289
 10
107.8442173344
 20
125.3952047062
 10
107.8372495557
 20
125.392912825
 10
107.8305140965
 20
125.3901053019
 10
107.8288564784
 20
125.3893177985
  0
LWPOLYLINE
  5
45B
100
AcDbEntity
  8
RACCORDO
100
AcDbPolyline
 62
253
  6
CONTINUOUS
 90
14
 70
0
 10
121.8385567103
 20
118.959976025
 10
121.8293577007
 20
118.9643308617
 10
121.820181085
 20
118.96807896
 10
121.8110520147
 20
118.971210047
 10
121.8019955109
 20
118.9737155411
 10
121.7930363957
 20
118.9755885751
 10
121.7841992244
 20
118.9768240154
 10
121.775508218
 20
118.9774184758
 10
121.7669871969
 20
118.9773703272
 10
121.7586595157
 20
118.9766797014
 10
121.7505479989
 20
118.9753484914
 10
121.7426748787
 20
118.9733803457
 10
121.7350617339
 20
118.9707806586
 10
121.7280445992
 20
118.967710816
  0
LWPOLYLINE
  5
45C
100
AcDbEntity
  8
RACCORDO
100
AcDbPolyline
 62
253
  6
CONTINUOUS
 90
14
 70
0
 10
108.4742385459
 20
125.6421351072
 10
108.4650614384
 20
125.6464802842
 10
108.4559008199
 20
125.6502237947
 10
108.4467817753
 20
125.6533542666
 10
108.4377274701
 20
125.6558624318
 10
108.4287647798
 20
125.6577395182
 10
108.4199239919
 20
125.6589786081
 10
108.4112312334
 20
125.6595762437
 10
108.4027083907
 20
125.6595311281
 10
108.3943785988
 20
125.6588433578
 10
108.3862645568
 20
125.6575147341
 10
108.3783886936
 20
125.6555488545
 10
108.3707728497
 20
125.6529511448
 10
108.3637264353
 20
125.6498698985
  0
LINE
  5
45D
100
AcDbEntity
  8
RACCORDO
100
AcDbLine
 62
253
  6
CONTINUOUS
 10
117.7650713317
 20
119.2923837762
 11
111.6893166819
 21
122.3302611011
  0
LINE
  5
45E
100
AcDbEntity
  8
RACCORDO
100
AcDbLine
 62
7
  6
CONTINUOUS
 10
109.4600712384
 20
123.5025420991
 11
110.8681139734
 21
122.7985207316
  0
LINE
  5
45F
100
AcDbEntity
  8
RACCORDO
100
AcDbLine
 62
7
  6
CONTINUOUS
 10
122.8243894028
 20
116.8203830169
 11
123.5384616959
 21
116.4633468703
  0
LINE
  5
460
100
AcDbEntity
  8
DRAFT
100
AcDbLine
 62
7
  6
CONTINUOUS
 10
112.182432346
 20
122.6542480186
 11
118.4049720204
 21
119.5429781814
  0
LINE
  5
461
100
AcDbEntity
  8
RACCORDO
100
AcDbLine
 62
7
  6
CONTINUOUS
 10
107.9397886672
 20
125.3817876406
 11
109.2832975347
 21
124.7100332069
  0
LINE
  5
462
100
AcDbEntity
  8
RACCORDO
100
AcDbLine
 62
7
  6
CONTINUOUS
 10
121.3041068317
 20
118.6996285584
 11
122.6476156991
 21
118.0278741247
  0
LINE
  5
463
100
AcDbEntity
  8
DRAFT
100
AcDbLine
 62
7
  6
CONTINUOUS
 10
118.4756826985
 20
120.2096912351
 11
113.5259352302
 21
122.6845649693
  0
LINE
  5
464
100
AcDbEntity
  8
DRAFT
100
AcDbLine
 62
7
  6
CONTINUOUS
 10
116.990758458
 20
121.0445158968
 11
117.0134701549
 21
121.0331600484
  0
LINE
  5
465
100
AcDbEntity
  8
RACCORDO
100
AcDbLine
 62
253
  6
CONTINUOUS
 10
108.4742385459
 20
125.6421351072
 11
109.8115647065
 21
124.9734720269
  0
LINE
  5
466
100
AcDbEntity
  8
RACCORDO
100
AcDbLine
 62
253
  6
CONTINUOUS
 10
121.8385567103
 20
118.959976025
 11
123.1758828709
 21
118.2913129447
  0
LINE
  5
467
100
AcDbEntity
  8
RACCORDO
100
AcDbLine
 62
7
  6
CONTINUOUS
 10
108.5850135055
 20
125.6487249983
 11
109.922339666
 21
124.980061918
  0
LINE
  5
468
100
AcDbEntity
  8
RACCORDO
100
AcDbLine
 62
7
  6
CONTINUOUS
 10
121.9493316699
 20
118.9665659161
 11
123.2866578304
 21
118.2979028358
  0
LINE
  5
469
100
AcDbEntity
  8
0
100
AcDbLine
 62
7
  6
CONTINUOUS
 10
142.2963005145
 20
109.1867352368
 11
142.3657769331
 21
109.1519970275
  0
LINE
  5
46A
100
AcDbEntity
  8
RACCORDO
100
AcDbLine
 62
7
  6
CONTINUOUS
 10
118.0513647819
 20
121.7266483002
 11
119.7898446789
 21
120.8574083517
  0
LWPOLYLINE
  5
46B
100
AcDbEntity
  8
RACCORDO
100
AcDbPolyline
 62
7
  6
CONTINUOUS
 90
22
 70
0
 10
123.2866641722
 20
118.2978996646
 10
123.2979328858
 20
118.2919004822
 10
123.3090118736
 20
118.2852504899
 10
123.3197417258
 20
118.2780303551
 10
123.330093385
 20
118.2702574305
 10
123.3400461415
 20
118.2619438437
 10
123.3495723328
 20
118.2531078245
 10
123.3586417945
 20
118.2437723055
 10
123.3672300198
 20
118.2339570322
 10
123.3753109444
 20
118.2236854167
 10
123.3828584636
 20
118.2129838986
 10
123.3898491412
 20
118.2018784618
 10
123.3962599599
 20
118.1903976834
 10
123.4020694118
 20
118.1785714078
 10
123.4072580771
 20
118.1664293412
 10
123.4118079269
 20
118.1540020043
 10
123.4157011783
 20
118.1413247226
 10
123.4189217078
 20
118.1284362698
 10
123.4214567826
 20
118.1153725576
 10
123.4232956352
 20
118.1021701891
 10
123.4244292371
 20
118.0888705509
 10
123.4248544316
 20
118.0742956887
  0
LWPOLYLINE
  5
46C
100
AcDbEntity
  8
RACCORDO
100
AcDbPolyline
 62
7
  6
CONTINUOUS
 90
22
 70
0
 10
109.922339666
 20
124.980061918
 10
109.9339962319
 20
124.9738433337
 10
109.9453516146
 20
124.9669897278
 10
109.9563624601
 20
124.9595184637
 10
109.9669910222
 20
124.9514471959
 10
109.9771925108
 20
124.9428034403
 10
109.9869174346
 20
124.9336264604
 10
109.9960919531
 20
124.9239934364
 10
110.0047302222
 20
124.9138994203
 10
110.0129007168
 20
124.9032496348
 10
110.0206015128
 20
124.8920006567
 10
110.0277350367
 20
124.88024807
 10
110.0342220408
 20
124.8681004277
 10
110.0400256727
 20
124.8556247357
 10
110.0451363163
 20
124.8428427168
 10
110.0495353545
 20
124.8297997603
 10
110.0532069459
 20
124.8165462309
 10
110.0561419313
 20
124.8031226422
 10
110.0583355813
 20
124.7895534573
 10
110.0597813532
 20
124.7758686965
 10
110.0604720377
 20
124.7621217344
 10
110.0605362668
 20
124.7564619063
  0
LWPOLYLINE
  5
46D
100
AcDbEntity
  8
0
100
AcDbPolyline
 62
7
  6
CONTINUOUS
 90
5
 70
0
 10
137.249367739
 20
131.1106138946
 10
137.2632384452
 20
130.9594470217
 10
137.2950475853
 20
130.8305526558
 10
137.3447951592
 20
130.7239307969
 10
137.4148335076
 20
130.6378696083
  0
LINE
  5
46E
100
AcDbEntity
  8
RACCORDO
100
AcDbLine
 62
253
  6
CONTINUOUS
 10
121.5812930321
 20
76.257950824
 11
120.958975
 21
75.5128914065
  0
LINE
  5
46F
100
AcDbEntity
  8
RACCORDO
100
AcDbLine
 62
253
  6
CONTINUOUS
 10
121.9343292201
 20
76.132180986
 11
121.223108612
 21
75.2806845088
  0
LWPOLYLINE
  5
470
100
AcDbEntity
  8
RACCORDO
100
AcDbPolyline
 62
7
  6
CONTINUOUS
 90
30
 70
0
 10
150.2982139651
 20
101.1347808789
 10
150.3168968204
 20
101.1447231182
 10
150.3350054317
 20
101.1549004962
 10
150.3525397991
 20
101.1653130131
 10
150.3695120847
 20
101.1759687463
 10
150.3859101264
 20
101.1868596183
 10
150.4016974375
 20
101.1979613962
 10
150.416872658
 20
101.2092745497
 10
150.4314371479
 20
101.2207986091
 10
150.4453585003
 20
101.2325079326
 10
150.4586352831
 20
101.2444029328
 10
150.4712689284
 20
101.2564831972
 10
150.4832313255
 20
101.2687218464
 10
150.4945209798
 20
101.2811192331
 10
150.5051393859
 20
101.2936750046
 10
150.5150629172
 20
101.3063612236
 10
150.5242900265
 20
101.3191781805
 10
150.532822261
 20
101.3321255849
 10
150.540640636
 20
101.3451746279
 10
150.5477435619
 20
101.3583255359
 10
150.5541326283
 20
101.3715780826
 10
150.5597936191
 20
101.3849027802
 10
150.564724913
 20
101.3982997894
 10
150.5689281314
 20
101.4117689495
 10
150.5723939218
 20
101.4252802909
 10
150.575120642
 20
101.4388339074
 10
150.5771099343
 20
101.452429705
 10
150.5783573723
 20
101.4660374325
 10
150.578861304
 20
101.4796571161
 10
150.5788732116
 20
101.4821077431
  0
LINE
  5
471
100
AcDbEntity
  8
RACCORDO
100
AcDbLine
 62
7
  6
CONTINUOUS
 10
150.2982139651
 20
101.1347808789
 11
146.2911945863
 21
99.0600858616
  0
LINE
  5
472
100
AcDbEntity
  8
RACCORDO
100
AcDbLine
 62
7
  6
CONTINUOUS
 10
150.2982139651
 20
100.4419605559
 11
146.2911945863
 21
98.3672655385
  0
LINE
  5
473
100
AcDbEntity
  8
DRAFT
100
AcDbLine
 62
7
  6
CONTINUOUS
 10
149.2332313568
 20
101.3013780776
 11
145.5533175994
 21
99.429024355
  0
LINE
  5
474
100
AcDbEntity
  8
ASSI
100
AcDbLine
 62
7
  6
CONTINUOUS
 10
149.128761663
 20
101.3536129245
 11
150.1894218347
 21
101.8839430104
  0
LINE
  5
475
100
AcDbEntity
  8
0
100
AcDbLine
 62
7
  6
CONTINUOUS
 10
113.3778454434
 20
82.1182946846
 11
113.8693402303
 21
82.3640420781
  0
LWPOLYLINE
  5
476
100
AcDbEntity
  8
DRAFT
100
AcDbPolyline
 62
7
  6
CONTINUOUS
 90
16
 70
0
 10
113.6260213257
 20
82.1045685587
 10
113.609401895
 20
82.0964166005
 10
113.5826569984
 20
82.084856174
 10
113.5552178792
 20
82.0748506069
 10
113.5270986432
 20
82.0663985902
 10
113.4983446534
 20
82.0595084409
 10
113.4690133979
 20
82.0541866267
 10
113.4391249937
 20
82.0504295664
 10
113.4086675769
 20
82.0482333877
 10
113.3776744631
 20
82.0476027268
 10
113.3461873853
 20
82.0485414323
 10
113.314203882
 20
82.0510551794
 10
113.2817314185
 20
82.055154833
 10
113.2488384676
 20
82.0608413265
 10
113.2156152727
 20
82.0681007845
 10
113.2081196157
 20
82.0700740294
  0
LWPOLYLINE
  5
477
100
AcDbEntity
  8
DRAFT
100
AcDbPolyline
 62
7
  6
CONTINUOUS
 90
13
 70
0
 10
112.3605082001
 20
84.5430359791
 10
112.3743048677
 20
84.5494851165
 10
112.4008576238
 20
84.5604934155
 10
112.4280743219
 20
84.5699873761
 10
112.4559419108
 20
84.5779691455
 10
112.48442069
 20
84.5844323498
 10
112.5134569981
 20
84.5893713532
 10
112.5430301762
 20
84.5927890247
 10
112.5731514794
 20
84.5946880833
 10
112.6037878909
 20
84.5950632228
 10
112.6349004619
 20
84.5939114645
 10
112.6664945578
 20
84.5912287981
 10
112.698566484
 20
84.5870060824
  0
LWPOLYLINE
  5
478
100
AcDbEntity
  8
0
100
AcDbPolyline
 62
7
  6
CONTINUOUS
 90
40
 70
0
 10
112.2598114547
 20
84.3543626621
 10
112.291009837
 20
84.3685618067
 10
112.3331265431
 20
84.3836217128
 10
112.3768867108
 20
84.3947995425
 10
112.4221422694
 20
84.4020574734
 10
112.4687400885
 20
84.405370947
 10
112.5165224957
 20
84.4047287517
 10
112.5653278106
 20
84.4001330603
 10
112.6149908915
 20
84.3915994233
 10
112.6653436941
 20
84.3791567158
 10
112.7162158405
 20
84.3628470399
 10
112.7674351955
 20
84.3427255824
 10
112.818828449
 20
84.3188604281
 10
112.8702217026
 20
84.2913323289
 10
112.9214410576
 20
84.2602344314
 10
112.972313204
 20
84.2256719608
 10
113.0226660066
 20
84.1877618657
 10
113.0723290874
 20
84.1466324219
 10
113.1211344023
 20
84.1024227984
 10
113.1689168096
 20
84.0552825865
 10
113.2155146287
 20
84.0053712937
 10
113.2607701873
 20
83.9528578042
 10
113.3045303549
 20
83.8979198069
 10
113.3466470611
 20
83.8407431947
 10
113.3869777961
 20
83.781521435
 10
113.4253860936
 20
83.7204549156
 10
113.4617419921
 20
83.6577502662
 10
113.4959224746
 20
83.5936196596
 10
113.5278118852
 20
83.5282800934
 10
113.5573023203
 20
83.461952656
 10
113.5842939937
 20
83.3948617784
 10
113.6086955739
 20
83.327234475
 10
113.6304244937
 20
83.2592995751
 10
113.6494072295
 20
83.191286949
 10
113.6655795496
 20
83.1234267298
 10
113.678886732
 20
83.0559485351
 10
113.6892837494
 20
82.9890806896
 10
113.6967354217
 20
82.9230494531
 10
113.7012165346
 20
82.8580782542
 10
113.7027119255
 20
82.7943869351
  0
LWPOLYLINE
  5
479
100
AcDbEntity
  8
RACCORDO
100
AcDbPolyline
 62
7
  6
CONTINUOUS
 90
10
 70
0
 10
107.6319469541
 20
123.1066265697
 10
107.6244053649
 20
123.1083233483
 10
107.6169021359
 20
123.110257332
 10
107.6094479523
 20
123.1124273764
 10
107.6020373248
 20
123.1148372233
 10
107.5946984883
 20
123.1174794763
 10
107.5874891817
 20
123.1203313771
 10
107.580431537
 20
123.1233785421
 10
107.5735162869
 20
123.126619141
 10
107.571231162
 20
123.1277473162
  0
LWPOLYLINE
  5
47A
100
AcDbEntity
  8
RACCORDO
100
AcDbPolyline
 62
253
  6
CONTINUOUS
 90
14
 70
0
 10
109.922339666
 20
124.980061918
 10
109.9149415853
 20
124.9833698119
 10
109.907361368
 20
124.9860094654
 10
109.8995177216
 20
124.9880245773
 10
109.891431986
 20
124.9894096653
 10
109.88312616
 20
124.990160961
 10
109.8746228408
 20
124.9902764203
 10
109.8659451633
 20
124.9897557292
 10
109.8571167364
 20
124.9886003042
 10
109.8481615795
 20
124.9868132888
 10
109.8391040566
 20
124.9843995451
 10
109.8299688101
 20
124.9813656399
 10
109.8207806941
 20
124.9777198275
 10
109.8115647065
 20
124.9734720269
  0
LWPOLYLINE
  5
47B
100
AcDbEntity
  8
RACCORDO
100
AcDbPolyline
 62
253
  6
CONTINUOUS
 90
14
 70
0
 10
108.5850135055
 20
125.6487249983
 10
108.5776154247
 20
125.6520328922
 10
108.5700352074
 20
125.6546725456
 10
108.562191561
 20
125.6566876576
 10
108.5541058255
 20
125.6580727456
 10
108.5457999994
 20
125.6588240413
 10
108.5372966803
 20
125.6589395006
 10
108.5286190027
 20
125.6584188094
 10
108.5197905759
 20
125.6572633844
 10
108.510835419
 20
125.6554763691
 10
108.501777896
 20
125.6530626253
 10
108.4926426496
 20
125.6500287201
 10
108.4834545336
 20
125.6463829077
 10
108.4742385459
 20
125.6421351072
  0
LWPOLYLINE
  5
47C
100
AcDbEntity
  8
RACCORDO
100
AcDbPolyline
 62
7
  6
CONTINUOUS
 90
21
 70
0
 10
118.0497655544
 20
121.7274320512
 10
118.0379360083
 20
121.7329029173
 10
118.0261723397
 20
121.7379182825
 10
118.0144870741
 20
121.7424724444
 10
118.0028935297
 20
121.7465603331
 10
117.9914033694
 20
121.7501772445
 10
117.9800266026
 20
121.753318696
 10
117.9687758604
 20
121.7559810937
 10
117.9576632289
 20
121.7581612291
 10
117.9466978415
 20
121.7598557364
 10
117.9358920321
 20
121.7610625651
 10
117.9252577456
 20
121.7617799764
 10
117.9148034367
 20
121.7620056452
 10
117.904541496
 20
121.761739119
 10
117.8944831599
 20
121.760980245
 10
117.8846350447
 20
121.7597276692
 10
117.8750083615
 20
121.7579823154
 10
117.8656147979
 20
121.7557455436
 10
117.8564614602
 20
121.7530174147
 10
117.8475610981
 20
121.7498013976
 10
117.8391395078
 20
121.7462005656
  0
LWPOLYLINE
  5
47D
100
AcDbEntity
  8
0
100
AcDbPolyline
 62
7
  6
CONTINUOUS
 90
40
 70
0
 10
118.5463933766
 20
122.6740723017
 10
118.5172669563
 20
122.6880545279
 10
118.4871410484
 20
122.7013993145
 10
118.456015653
 20
122.7141066617
 10
118.4238370731
 20
122.7261951319
 10
118.3906590057
 20
122.7376461627
 10
118.3566425415
 20
122.7484040666
 10
118.32178358
 20
122.7584654612
 10
118.2860862217
 20
122.767833729
 10
118.2497238586
 20
122.7764633302
 10
118.2126935858
 20
122.7843506266
 10
118.1749983083
 20
122.7914992564
 10
118.1368201328
 20
122.7978745946
 10
118.0981562474
 20
122.8034729626
 10
118.0590094642
 20
122.808298039
 10
118.0195703256
 20
122.8123262354
 10
117.9798375096
 20
122.8155536322
 10
117.9398123382
 20
122.817984149
 10
117.8996893213
 20
122.8196059553
 10
117.8594680672
 20
122.8204151065
 10
117.8191489676
 20
122.8204155473
 10
117.7789277062
 20
122.8196072812
 10
117.7388047595
 20
122.8179863768
 10
117.6987796511
 20
122.8155567656
 10
117.6590466353
 20
122.8123302461
 10
117.6196071331
 20
122.8083029441
 10
117.5804597236
 20
122.8034787338
 10
117.5417943981
 20
122.7978810359
 10
117.5036135013
 20
122.7915060903
 10
117.4659146887
 20
122.7843576573
 10
117.4288809174
 20
122.776470438
 10
117.3925154216
 20
122.7678408413
 10
117.3568149672
 20
122.7584724583
 10
117.321952809
 20
122.7484107647
 10
117.2879330238
 20
122.7376523904
 10
117.2547515348
 20
122.7262007054
 10
117.2225693669
 20
122.7141112955
 10
117.191440195
 20
122.7014026892
 10
117.1613103441
 20
122.6880563579
 10
117.1321798143
 20
122.6740723017
  0
LWPOLYLINE
  5
47E
100
AcDbEntity
  8
RACCORDO
100
AcDbPolyline
 62
7
  6
CONTINUOUS
 90
80
 70
0
 10
118.990751432
 20
121.8609224971
 10
118.9793832678
 20
121.8664481188
 10
118.9614400706
 20
121.8745537952
 10
118.9435396608
 20
121.8819479492
 10
118.925793278
 20
121.8886552299
 10
118.9082144033
 20
121.8947385553
 10
118.8907239531
 20
121.9002817902
 10
118.8733519756
 20
121.9053227702
 10
118.8561430948
 20
121.9098927955
 10
118.8390374666
 20
121.9140460135
 10
118.8220538564
 20
121.9178100681
 10
118.8052140116
 20
121.9212096433
 10
118.7884625572
 20
121.9242809938
 10
118.7717998429
 20
121.9270447417
 10
118.7552475384
 20
121.9295161449
 10
118.7387831855
 20
121.9317152877
 10
118.7224035944
 20
121.9336569146
 10
118.706125631
 20
121.9353520971
 10
118.689958211
 20
121.9368121514
 10
118.6739066538
 20
121.9380479019
 10
118.6579755056
 20
121.9390694068
 10
118.6421735604
 20
121.9398857983
 10
118.6265053518
 20
121.9405059264
 10
118.6109739434
 20
121.9409381262
 10
118.5955865773
 20
121.9411901548
 10
118.5803470151
 20
121.9412694924
 10
118.5652575066
 20
121.9411832289
 10
118.5503234267
 20
121.9409381384
 10
118.5355462397
 20
121.9405406679
 10
118.5209292272
 20
121.9399970198
 10
118.506480734
 20
121.939313452
 10
118.492197954
 20
121.9384955498
 10
118.4780873235
 20
121.9375491756
 10
118.4641711259
 20
121.9364814868
 10
118.4504500734
 20
121.9352982929
 10
118.4369258429
 20
121.9340053092
 10
118.4236220765
 20
121.9326105272
 10
118.4105454063
 20
121.9311205988
 10
118.3976902747
 20
121.9295406876
 10
118.3850620184
 20
121.9278770892
 10
118.372668855
 20
121.9261365526
 10
118.3605026635
 20
121.9243234786
 10
118.3485446015
 20
121.9224401335
 10
118.3367952211
 20
121.9204913451
 10
118.3252537863
 20
121.9184816495
 10
118.3139001373
 20
121.9164118501
 10
118.3027337151
 20
121.9142858504
 10
118.2917548384
 20
121.9121076505
 10
118.2809453399
 20
121.9098773274
 10
118.2703035326
 20
121.9075979392
 10
118.2598309681
 20
121.9052731841
 10
118.2495149792
 20
121.9029034667
 10
118.2393550726
 20
121.900491702
 10
118.2293517163
 20
121.8980410231
 10
118.2194942867
 20
121.8955517033
 10
118.2097826229
 20
121.8930264567
 10
118.2002170562
 20
121.8904681053
 10
118.1907883198
 20
121.8878768079
 10
118.1814955503
 20
121.8852548443
 10
118.1723400854
 20
121.8826051123
 10
118.163316557
 20
121.8799285391
 10
118.1544250505
 20
121.8772275662
 10
118.1456662279
 20
121.8745048358
 10
118.1370361997
 20
121.8717615317
 10
118.1285350498
 20
121.8690000615
 10
118.1201638211
 20
121.8662231367
 10
118.1119205903
 20
121.8634325204
 10
118.1038054221
 20
121.8606305914
 10
118.0958198152
 20
121.8578202838
 10
118.0879646879
 20
121.8550043327
 10
118.0802409313
 20
121.8521855328
 10
118.0726496967
 20
121.8493667693
 10
118.0651927044
 20
121.8465512156
 10
118.0578725013
 20
121.8437423787
 10
118.0506892205
 20
121.8409429141
 10
118.0436418126
 20
121.838154983
 10
118.0367307687
 20
121.8353813697
 10
118.0299593796
 20
121.8326259979
 10
118.0233314129
 20
121.8298930723
 10
118.0105232188
 20
121.8245127233
  0
LINE
  5
47F
100
AcDbEntity
  8
RACCORDO
100
AcDbLine
 62
253
  6
CONTINUOUS
 10
120.3498424432
 20
121.1334170498
 11
118.9037461107
 21
121.856465216
  0
LINE
  5
480
100
AcDbEntity
  8
RACCORDO
100
AcDbLine
 62
7
  6
CONTINUOUS
 10
120.3981465814
 20
121.1572249346
 11
118.9907206871
 21
121.8609378818
  0
LINE
  5
481
100
AcDbEntity
  8
0
100
AcDbLine
 62
7
  6
CONTINUOUS
 10
118.1928399861
 20
122.850848997
 11
117.8392865955
 21
123.0276256923
  0
LINE
  5
482
100
AcDbEntity
  8
ASSI
100
AcDbLine
 62
7
  6
CONTINUOUS
 10
118.5463933766
 20
122.6740723017
 11
120.9933584433
 21
121.4505897684
  0
LINE
  5
483
100
AcDbEntity
  8
DRAFT
100
AcDbLine
 62
7
  6
CONTINUOUS
 10
117.8392865955
 20
123.5801838817
 11
118.1928399861
 21
123.4034071864
  0
LINE
  5
484
100
AcDbEntity
  8
0
100
AcDbLine
 62
7
  6
CONTINUOUS
 10
122.4011741395
 20
122.1444664268
 11
119.5906244926
 21
123.5497412503
  0
LINE
  5
485
100
AcDbEntity
  8
DRAFT
100
AcDbLine
 62
7
  6
CONTINUOUS
 10
128.5810924334
 20
119.6783176268
 11
129.1198658014
 21
119.4089309428
  0
LINE
  5
486
100
AcDbEntity
  8
ASSI
100
AcDbLine
 62
253
  6
CONTINUOUS
 10
123.6794640895
 20
122.1732873153
 11
123.0739336549
 21
122.4760525326
  0
LINE
  5
487
100
AcDbEntity
  8
ASSI
100
AcDbLine
 62
253
  6
CONTINUOUS
 10
118.1241861866
 20
124.9509262668
 11
117.5186557519
 21
125.2536914841
  0
LINE
  5
488
100
AcDbEntity
  8
0
100
AcDbLine
 62
7
  6
CONTINUOUS
 10
124.051695554
 20
122.072919877
 11
123.8534001545
 21
122.1720675768
  0
LINE
  5
489
100
AcDbEntity
  8
0
100
AcDbLine
 62
7
  6
CONTINUOUS
 10
123.1864214213
 20
122.5055569434
 11
120.9505564327
 21
123.6234894377
  0
LINE
  5
48A
100
AcDbEntity
  8
ASSI
100
AcDbLine
 62
7
  6
CONTINUOUS
 10
123.8462833377
 20
122.213832433
 11
123.3498953303
 21
122.4620264367
  0
LINE
  5
48B
100
AcDbEntity
  8
ASSI
100
AcDbLine
 62
7
  6
CONTINUOUS
 10
118.2913267772
 20
124.9913107132
 11
117.7949384622
 21
125.2395048707
  0
LINE
  5
48C
100
AcDbEntity
  8
RACCORDO
100
AcDbLine
 62
7
  6
CONTINUOUS
 10
142.2963005145
 20
109.0294220183
 11
142.2963005145
 21
121.5695571138
  0
LINE
  5
48D
100
AcDbEntity
  8
0
100
AcDbLine
 62
7
  6
CONTINUOUS
 10
142.3657769331
 20
109.1519970275
 11
142.3657769331
 21
121.6049034354
  0
LINE
  5
48E
100
AcDbEntity
  8
DRAFT
100
AcDbLine
 62
7
  6
CONTINUOUS
 10
149.2332313568
 20
96.9712510586
 11
145.5533175994
 21
95.0988973361
  0
LINE
  5
48F
100
AcDbEntity
  8
0
100
AcDbLine
 62
7
  6
CONTINUOUS
 10
144.8331497644
 20
95.7313513228
 11
146.2649791992
 21
96.4472660402
  0
LINE
  5
490
100
AcDbEntity
  8
0
100
AcDbLine
 62
7
  6
CONTINUOUS
 10
146.8306646241
 20
96.7301087526
 11
147.5377714053
 21
97.0836621432
  0
LINE
  5
491
100
AcDbEntity
  8
0
100
AcDbLine
 62
7
  6
CONTINUOUS
 10
146.2649791992
 20
96.0142533383
 11
146.8306646241
 21
96.2970960507
  0
LINE
  5
492
100
AcDbEntity
  8
ASSI
100
AcDbLine
 62
7
  6
CONTINUOUS
 10
149.128761663
 20
97.0234859056
 11
150.1894218347
 21
97.5538159914
  0
LWPOLYLINE
  5
493
100
AcDbEntity
  8
0
100
AcDbPolyline
 62
7
  6
CONTINUOUS
 90
40
 70
0
 10
113.3778454434
 20
82.1182946846
 10
113.3466470611
 20
82.10409554
 10
113.3045303549
 20
82.0890356339
 10
113.2607701873
 20
82.0778578042
 10
113.2155146287
 20
82.0705998733
 10
113.1689168096
 20
82.0672863997
 10
113.1211344023
 20
82.067928595
 10
113.0723290874
 20
82.0725242864
 10
113.0226660066
 20
82.0810579234
 10
112.972313204
 20
82.0935006309
 10
112.9214410576
 20
82.1098103068
 10
112.8702217026
 20
82.1299317643
 10
112.818828449
 20
82.1537969186
 10
112.7674351955
 20
82.1813250178
 10
112.7162158405
 20
82.2124229153
 10
112.6653436941
 20
82.2469853859
 10
112.6149908915
 20
82.2848954809
 10
112.5653278106
 20
82.3260249248
 10
112.5165224957
 20
82.3702345483
 10
112.4687400885
 20
82.4173747602
 10
112.4221422694
 20
82.467286053
 10
112.3768867108
 20
82.5197995425
 10
112.3331265431
 20
82.5747375397
 10
112.291009837
 20
82.631914152
 10
112.2506791019
 20
82.6911359117
 10
112.2122708044
 20
82.7522024311
 10
112.175914906
 20
82.8149070804
 10
112.1417344235
 20
82.8790376871
 10
112.1098450129
 20
82.9443772533
 10
112.0803545777
 20
83.0107046907
 10
112.0533629044
 20
83.0777955683
 10
112.0289613242
 20
83.1454228717
 10
112.0072324043
 20
83.2133577716
 10
111.9882496685
 20
83.2813703977
 10
111.9720773485
 20
83.3492306169
 10
111.9587701661
 20
83.4167088116
 10
111.9483731486
 20
83.4835766571
 10
111.9409214764
 20
83.5496078936
 10
111.9364403635
 20
83.6145790924
 10
111.9349449726
 20
83.6782704116
  0
LWPOLYLINE
  5
494
100
AcDbEntity
  8
RACCORDO
100
AcDbPolyline
 62
7
  6
CONTINUOUS
 90
18
 70
0
 10
117.7650713317
 20
119.2923837762
 10
117.7477766637
 20
119.2908914406
 10
117.7305822655
 20
119.2888978627
 10
117.7135239277
 20
119.2864906798
 10
117.6966330943
 20
119.2837797262
 10
117.6799288315
 20
119.2808227136
 10
117.6634220116
 20
119.2776118656
 10
117.6471286047
 20
119.2742016377
 10
117.6310588117
 20
119.270657108
 10
117.6152156579
 20
119.266963152
 10
117.5996068462
 20
119.2631598697
 10
117.5842377635
 20
119.2592962815
 10
117.5691110355
 20
119.2553560077
 10
117.5542300179
 20
119.2513699605
 10
117.5395974919
 20
119.2473758745
 10
117.525218867
 20
119.2433587451
 10
117.5110953141
 20
119.2393435845
 10
117.4836255684
 20
119.2313959723
  0
LINE
  5
495
100
AcDbEntity
  8
RACCORDO
100
AcDbLine
 62
7
  6
CONTINUOUS
 10
107.6319469541
 20
123.1066265697
 11
108.2575536477
 21
122.9760051733
  0
LINE
  5
496
100
AcDbEntity
  8
RACCORDO
100
AcDbLine
 62
253
  6
CONTINUOUS
 10
107.8587904476
 20
123.2624477304
 11
108.5700110557
 21
123.1139442076
  0
LWPOLYLINE
  5
497
100
AcDbEntity
  8
ASSI
100
AcDbPolyline
 62
7
  6
CONTINUOUS
 90
16
 70
0
 10
118.2915999542
 20
124.9911782454
 10
118.289853374
 20
124.991938722
 10
118.2856643202
 20
124.9931255717
 10
118.2807211664
 20
124.9938275804
 10
118.275063758
 20
124.994063092
 10
118.2687282405
 20
124.9938394325
 10
118.2617127141
 20
124.9931868113
 10
118.2540257715
 20
124.9921157179
 10
118.2457103556
 20
124.9906399589
 10
118.2368079898
 20
124.9887948828
 10
118.2273492966
 20
124.9865817007
 10
118.2173666012
 20
124.9840159879
 10
118.2069101371
 20
124.981151436
 10
118.196020867
 20
124.9780084227
 10
118.1847270137
 20
124.9745752128
 10
118.1730622181
 20
124.9708548339
  0
LWPOLYLINE
  5
498
100
AcDbEntity
  8
ASSI
100
AcDbPolyline
 62
7
  6
CONTINUOUS
 90
16
 70
0
 10
123.8465845036
 20
122.2136859668
 10
123.8451266302
 20
122.21433346
 10
123.8410122717
 20
122.2155547152
 10
123.8361482976
 20
122.2162933846
 10
123.8305757655
 20
122.2165672242
 10
123.8243306366
 20
122.2163837496
 10
123.8174112138
 20
122.2157742523
 10
123.8098268413
 20
122.2147494884
 10
123.8016201262
 20
122.2133225169
 10
123.7928305273
 20
122.2115283573
 10
123.7834879756
 20
122.20936853
 10
123.7736247363
 20
122.2068581228
 10
123.7632892376
 20
122.2040495332
 10
123.752521374
 20
122.2009627726
 10
123.7413492851
 20
122.1975865692
 10
123.7298060906
 20
122.1939240153
  0
LWPOLYLINE
  5
499
100
AcDbEntity
  8
RACCORDO
100
AcDbPolyline
 62
7
  6
CONTINUOUS
 90
18
 70
0
 10
120.690672961
 20
124.435147711
 10
120.6711108767
 20
124.4442374441
 10
120.6482150965
 20
124.4532228588
 10
120.6247058102
 20
124.4607250915
 10
120.6005644881
 20
124.4667592614
 10
120.5758747348
 20
124.4713050458
 10
120.5506133085
 20
124.4743590292
 10
120.524803451
 20
124.4759246272
 10
120.4985984922
 20
124.4759917637
 10
120.4720145295
 20
124.4745529878
 10
120.4450354655
 20
124.4716157504
 10
120.4177663369
 20
124.4671923292
 10
120.3901921572
 20
124.4612739435
 10
120.362327913
 20
124.453869374
 10
120.3343235999
 20
124.4450172394
 10
120.3062292167
 20
124.4347304127
 10
120.2779947647
 20
124.422996021
 10
120.2496202439
 20
124.4098140642
  0
LINE
  5
49A
100
AcDbEntity
  8
RACCORDO
100
AcDbLine
 62
253
  6
CONTINUOUS
 10
117.1826543
 20
125.9432970361
 11
120.2496202439
 21
124.4098140642
  0
LINE
  5
49B
100
AcDbEntity
  8
RACCORDO
100
AcDbLine
 62
253
  6
CONTINUOUS
 10
124.492260931
 20
122.2884937206
 11
127.559226875
 21
120.7550107486
  0
LINE
  5
49C
100
AcDbEntity
  8
RACCORDO
100
AcDbLine
 62
7
  6
CONTINUOUS
 10
124.9333039341
 20
122.3138431872
 11
128.1604826244
 21
120.700253842
  0
LINE
  5
49D
100
AcDbEntity
  8
0
100
AcDbLine
 62
7
  6
CONTINUOUS
 10
146.2649791992
 20
96.4472660402
 11
146.2649791992
 21
96.0142533383
  0
LINE
  5
49E
100
AcDbEntity
  8
0
100
AcDbLine
 62
7
  6
CONTINUOUS
 10
146.8306646241
 20
96.2970960507
 11
146.8306646241
 21
96.7301087526
  0
LINE
  5
49F
100
AcDbEntity
  8
0
100
AcDbLine
 62
7
  6
CONTINUOUS
 10
147.5377714053
 20
97.0836621432
 11
147.5377714053
 21
99.0126995808
  0
LINE
  5
4A0
100
AcDbEntity
  8
0
100
AcDbLine
 62
7
  6
CONTINUOUS
 10
147.5377714053
 20
100.438721787
 11
147.5377714053
 21
103.3428265997
  0
LINE
  5
4A1
100
AcDbEntity
  8
RACCORDO
100
AcDbLine
 62
7
  6
CONTINUOUS
 10
129.1198658014
 20
83.295671605
 11
130.2030610709
 21
84.0807118213
  0
LWPOLYLINE
  5
4A2
100
AcDbEntity
  8
RACCORDO
100
AcDbPolyline
 62
7
  6
CONTINUOUS
 90
4
 70
0
 10
149.82636534
 20
94.453588266
 10
149.8406831812
 20
94.4613094458
 10
149.8548808452
 20
94.4692666831
 10
149.8689535476
 20
94.4774577411
  0
LWPOLYLINE
  5
4A3
100
AcDbEntity
  8
RACCORDO
100
AcDbPolyline
 62
7
  6
CONTINUOUS
 90
30
 70
0
 10
150.2982139651
 20
96.80465386
 10
150.3168968204
 20
96.8145960993
 10
150.3350054317
 20
96.8247734773
 10
150.3525397991
 20
96.8351859942
 10
150.3695120847
 20
96.8458417274
 10
150.3859101264
 20
96.8567325994
 10
150.4016974375
 20
96.8678343773
 10
150.416872658
 20
96.8791475308
 10
150.4314371479
 20
96.8906715901
 10
150.4453585003
 20
96.9023809137
 10
150.4586352831
 20
96.9142759139
 10
150.4712689284
 20
96.9263561783
 10
150.4832313255
 20
96.9385948275
 10
150.4945209798
 20
96.9509922142
 10
150.5051393859
 20
96.9635479857
 10
150.5150629172
 20
96.9762342047
 10
150.5242900265
 20
96.9890511616
 10
150.532822261
 20
97.0019985659
 10
150.540640636
 20
97.015047609
 10
150.5477435619
 20
97.028198517
 10
150.5541326283
 20
97.0414510637
 10
150.5597936191
 20
97.0547757613
 10
150.564724913
 20
97.0681727705
 10
150.5689281314
 20
97.0816419306
 10
150.5723939218
 20
97.095153272
 10
150.575120642
 20
97.1087068884
 10
150.5771099343
 20
97.1223026861
 10
150.5783573723
 20
97.1359104135
 10
150.578861304
 20
97.1495300972
 10
150.5788732116
 20
97.1519807242
  0
LINE
  5
4A4
100
AcDbEntity
  8
RACCORDO
100
AcDbLine
 62
253
  6
CONTINUOUS
 10
149.87115327
 20
94.48152296
 11
130.2030610709
 21
84.0807118213
  0
LINE
  5
4A5
100
AcDbEntity
  8
RACCORDO
100
AcDbLine
 62
7
  6
CONTINUOUS
 10
149.8263653422
 20
94.4535882672
 11
130.1813689687
 21
84.0649905814
  0
LINE
  5
4A6
100
AcDbEntity
  8
RACCORDO
100
AcDbLine
 62
253
  6
CONTINUOUS
 10
123.8850495746
 20
81.5945012712
 11
150.2982139651
 21
95.5083654238
  0
LINE
  5
4A7
100
AcDbEntity
  8
RACCORDO
100
AcDbLine
 62
253
  6
CONTINUOUS
 10
123.8850495746
 20
80.7951833292
 11
149.8840615297
 21
94.4908781551
  0
LINE
  5
4A8
100
AcDbEntity
  8
DRAFT
100
AcDbLine
 62
7
  6
CONTINUOUS
 10
123.8850495746
 20
80.5457704448
 11
129.1198658014
 21
83.295671605
  0
LINE
  5
4A9
100
AcDbEntity
  8
RACCORDO
100
AcDbLine
 62
7
  6
CONTINUOUS
 10
150.2982139651
 20
96.80465386
 11
146.2911945863
 21
94.7299588426
  0
LINE
  5
4AA
100
AcDbEntity
  8
SMUSSO
100
AcDbLine
 62
7
  6
CONTINUOUS
 10
150.1156275962
 20
113.1645996719
 11
150.2861151127
 21
113.0793559137
  0
LINE
  5
4AB
100
AcDbEntity
  8
ASSI
100
AcDbLine
 62
7
  6
CONTINUOUS
 10
149.128761663
 20
97.0234859056
 11
149.128761663
 21
99.8364589012
  0
LINE
  5
4AC
100
AcDbEntity
  8
ASSI
100
AcDbLine
 62
7
  6
CONTINUOUS
 10
149.128761663
 20
101.3536129245
 11
149.128761663
 21
104.1665859201
  0
LINE
  5
4AD
100
AcDbEntity
  8
ASSI
100
AcDbLine
 62
7
  6
CONTINUOUS
 10
150.1894218347
 20
97.5538159914
 11
150.1894218347
 21
100.3856317814
  0
LINE
  5
4AE
100
AcDbEntity
  8
ASSI
100
AcDbLine
 62
7
  6
CONTINUOUS
 10
150.1894218347
 20
101.8839430104
 11
150.1894218347
 21
104.7157588004
  0
LWPOLYLINE
  5
4AF
100
AcDbEntity
  8
SUPERFICI
100
AcDbPolyline
 62
253
  6
CONTINUOUS
 90
28
 70
0
 10
150.5788719377
 20
125.9868268298
 10
150.5786733914
 20
125.977863259
 10
150.5776834578
 20
125.9634894686
 10
150.575867106
 20
125.9491358608
 10
150.5732258388
 20
125.9348143117
 10
150.5697618418
 20
125.9205366711
 10
150.5654779809
 20
125.9063147523
 10
150.5603778007
 20
125.8921603226
 10
150.5544655212
 20
125.8780850933
 10
150.547746034
 20
125.8641007105
 10
150.540224899
 20
125.8502187447
 10
150.5319083392
 20
125.8364506821
 10
150.5228032357
 20
125.8228079143
 10
150.5129171221
 20
125.8093017294
 10
150.5022581782
 20
125.7959433025
 10
150.4908352233
 20
125.7827436863
 10
150.4786577088
 20
125.7697138024
 10
150.4657357103
 20
125.7568644316
 10
150.4520799196
 20
125.7442062056
 10
150.4377016355
 20
125.7317495978
 10
150.4226127546
 20
125.7195049149
 10
150.4068257617
 20
125.7074822881
 10
150.3903537188
 20
125.6956916651
 10
150.3732102549
 20
125.6841428014
 10
150.3554095547
 20
125.6728452526
 10
150.3369663466
 20
125.6618083663
 10
150.3178958904
 20
125.6510412745
 10
150.2982139651
 20
125.6405528859
  0
LWPOLYLINE
  5
4B0
100
AcDbEntity
  8
RACCORDO
100
AcDbPolyline
 62
253
  6
CONTINUOUS
 90
4
 70
0
 10
149.9531699399
 20
94.5471387944
 10
149.930728873
 20
94.5274291686
 10
149.9076883592
 20
94.508672076
 10
149.884061519
 20
94.4908781495
  0
LWPOLYLINE
  5
4B1
100
AcDbEntity
  8
RACCORDO
100
AcDbPolyline
 62
7
  6
CONTINUOUS
 90
40
 70
0
 10
149.9586423614
 20
94.5372499164
 10
149.9790818682
 20
94.5523517124
 10
150.0071563007
 20
94.5740632304
 10
150.0347367983
 20
94.5965420005
 10
150.0617952728
 20
94.6197701434
 10
150.0883189345
 20
94.6437415778
 10
150.1143095627
 20
94.6684642253
 10
150.1397473237
 20
94.6939265762
 10
150.1646130836
 20
94.7201167821
 10
150.1889083168
 20
94.7470453722
 10
150.2126137623
 20
94.7747015152
 10
150.235709834
 20
94.8030724176
 10
150.2581956485
 20
94.8321688226
 10
150.2800527714
 20
94.8619808745
 10
150.3012608561
 20
94.8924948703
 10
150.3218148907
 20
94.9237185907
 10
150.3416960464
 20
94.9556403767
 10
150.3608858466
 20
94.9882481115
 10
150.3793786494
 20
95.0215519163
 10
150.3971550336
 20
95.0555381117
 10
150.4141982403
 20
95.0901968493
 10
150.4305047915
 20
95.12554755
 10
150.4460584278
 20
95.161585711
 10
150.4608381244
 20
95.1982942094
 10
150.4748316138
 20
95.2356773905
 10
150.4880262967
 20
95.2737424671
 10
150.5003979588
 20
95.3124619138
 10
150.5119195474
 20
95.351790417
 10
150.5225767828
 20
95.3917184469
 10
150.5323554056
 20
95.4322343924
 10
150.5412343283
 20
95.4732913303
 10
150.5492027803
 20
95.5148810312
 10
150.5562495209
 20
95.5569912849
 10
150.5623584839
 20
95.5995706859
 10
150.5675215628
 20
95.6426100312
 10
150.571730603
 20
95.6860995052
 10
150.57497477
 20
95.7299883498
 10
150.5772475008
 20
95.7742542958
 10
150.578544005
 20
95.8189000741
 10
150.5788741538
 20
95.8556907977
  0
LINE
  5
4B2
100
AcDbEntity
  8
RACCORDO
100
AcDbLine
 62
253
  6
CONTINUOUS
 10
149.8840615297
 20
94.4908781551
 11
149.87115327
 21
94.48152296
  0
LINE
  5
4B3
100
AcDbEntity
  8
RACCORDO
100
AcDbLine
 62
7
  6
CONTINUOUS
 10
149.9586310835
 20
94.5372417082
 11
149.945720864
 21
94.5278850928
  0
LWPOLYLINE
  5
4B4
100
AcDbEntity
  8
RACCORDO
100
AcDbPolyline
 62
253
  6
CONTINUOUS
 90
5
 70
0
 10
149.9586310835
 20
94.5372417082
 10
149.9423411942
 20
94.5258304777
 10
149.9233663021
 20
94.5134873528
 10
149.9039350414
 20
94.501833838
 10
149.8840634895
 20
94.4908795754
  0
LINE
  5
4B5
100
AcDbEntity
  8
RACCORDO
100
AcDbLine
 62
253
  6
CONTINUOUS
 10
149.9457208133
 20
94.5278850561
 11
149.9372629203
 21
94.5218221153
  0
LWPOLYLINE
  5
4B6
100
AcDbEntity
  8
RACCORDO
100
AcDbPolyline
 62
253
  6
CONTINUOUS
 90
4
 70
0
 10
149.87115327
 20
94.48152296
 10
149.8580250451
 20
94.4724026968
 10
149.8445545607
 20
94.4638748874
 10
149.8309758782
 20
94.4560745902
  0
LWPOLYLINE
  5
4B7
100
AcDbEntity
  8
RACCORDO
100
AcDbPolyline
 62
253
  6
CONTINUOUS
 90
4
 70
0
 10
149.9264652369
 20
94.5144790516
 10
149.9084313551
 20
94.5028710662
 10
149.8899894662
 20
94.4918829851
 10
149.87115327
 20
94.48152296
  0
LWPOLYLINE
  5
4B8
100
AcDbEntity
  8
RACCORDO
100
AcDbPolyline
 62
7
  6
CONTINUOUS
 90
6
 70
0
 10
149.8828977273
 20
94.4858809808
 10
149.896707491
 20
94.4945332248
 10
149.910374855
 20
94.5034096449
 10
149.9238943774
 20
94.5125066734
 10
149.9372629203
 20
94.5218221153
 10
149.9457241471
 20
94.5278874723
  0
LWPOLYLINE
  5
4B9
100
AcDbEntity
  8
RACCORDO
100
AcDbPolyline
 62
7
  6
CONTINUOUS
 90
19
 70
0
 10
122.7633781926
 20
75.5876285053
 10
122.7696038644
 20
75.5914471151
 10
122.7755532023
 20
75.5957588672
 10
122.7812127266
 20
75.6005539923
 10
122.7865695872
 20
75.6058216132
 10
122.7916116572
 20
75.6115498006
 10
122.7963275578
 20
75.6177255971
 10
122.8007065551
 20
75.6243349865
 10
122.8047387153
 20
75.6313629888
 10
122.8084149924
 20
75.6387937227
 10
122.8117269874
 20
75.6466103188
 10
122.8146671617
 20
75.6547950514
 10
122.8172289862
 20
75.6633294397
 10
122.8194065675
 20
75.6721941047
 10
122.8211949158
 20
75.6813689363
 10
122.8225901513
 20
75.6908332311
 10
122.8235891093
 20
75.7005655455
 10
122.8241893468
 20
75.7105437446
 10
122.8243894028
 20
75.7207451744
  0
LINE
  5
4BA
100
AcDbEntity
  8
RACCORDO
100
AcDbLine
 62
7
  6
CONTINUOUS
 10
149.8689535476
 20
94.4774577411
 11
149.8828977273
 21
94.4858809808
  0
LWPOLYLINE
  5
4BB
100
AcDbEntity
  8
RACCORDO
100
AcDbPolyline
 62
253
  6
CONTINUOUS
 90
34
 70
0
 10
116.9812333738
 20
75.7750042049
 10
116.9642849286
 20
75.7663767172
 10
116.9466199762
 20
75.7581587648
 10
116.9282776501
 20
75.750368553
 10
116.9092985842
 20
75.7430233396
 10
116.889724823
 20
75.7361393965
 10
116.8695997285
 20
75.7297319737
 10
116.8489678841
 20
75.7238152658
 10
116.8278749957
 20
75.71840238
 10
116.8063677907
 20
75.7135053076
 10
116.7844939141
 20
75.7091348972
 10
116.7623018235
 20
75.7053008304
 10
116.7398406812
 20
75.7020116011
 10
116.7171602457
 20
75.6992744959
 10
116.6943107611
 20
75.6970955782
 10
116.6713428463
 20
75.6954796752
 10
116.6483073823
 20
75.6944303665
 10
116.6252553997
 20
75.6939499766
 10
116.602237966
 20
75.6940395698
 10
116.579306072
 20
75.6946989476
 10
116.5565105188
 20
75.6959266493
 10
116.5339018057
 20
75.6977199551
 10
116.5115300182
 20
75.7000748923
 10
116.4894447166
 20
75.702986244
 10
116.4676948268
 20
75.7064475606
 10
116.4463285316
 20
75.7104511743
 10
116.4253931639
 20
75.7149882157
 10
116.4049351021
 20
75.720048634
 10
116.3849996672
 20
75.7256212187
 10
116.3656310224
 20
75.7316936248
 10
116.3468720753
 20
75.7382524
 10
116.3287643828
 20
75.7452830147
 10
116.311348059
 20
75.7527698938
 10
116.2946616865
 20
75.7606964515
  0
LINE
  5
4BC
100
AcDbEntity
  8
RACCORDO
100
AcDbLine
 62
7
  6
CONTINUOUS
 10
127.559226875
 20
82.108358348
 11
123.8850495746
 21
80.2641258087
  0
LINE
  5
4BD
100
AcDbEntity
  8
RACCORDO
100
AcDbLine
 62
7
  6
CONTINUOUS
 10
128.4407623335
 20
82.6677873921
 11
123.8850495746
 21
80.4081202785
  0
LINE
  5
4BE
100
AcDbEntity
  8
RACCORDO
100
AcDbLine
 62
253
  6
CONTINUOUS
 10
123.1671416926
 20
77.5774841697
 11
123.8850495746
 21
77.9316634573
  0
LINE
  5
4BF
100
AcDbEntity
  8
0
100
AcDbLine
 62
7
  6
CONTINUOUS
 10
120.9505564327
 20
123.6234894377
 11
119.5906244926
 21
123.5497412503
  0
LINE
  5
4C0
100
AcDbEntity
  8
RACCORDO
100
AcDbLine
 62
7
  6
CONTINUOUS
 10
150.2982139651
 20
113.0704068398
 11
150.2861151127
 21
113.0793559137
  0
LINE
  5
4C1
100
AcDbEntity
  8
RACCORDO
100
AcDbLine
 62
7
  6
CONTINUOUS
 10
141.785967203
 20
123.1670815412
 11
141.8821500388
 21
123.0011906884
  0
LINE
  5
4C2
100
AcDbEntity
  8
0
100
AcDbLine
 62
7
  6
CONTINUOUS
 10
141.9516264575
 20
123.0365370101
 11
141.8561666341
 21
123.2011808508
  0
LWPOLYLINE
  5
4C3
100
AcDbEntity
  8
RACCORDO
100
AcDbPolyline
 62
7
  6
CONTINUOUS
 90
30
 70
0
 10
150.5788732116
 20
97.1519807242
 10
150.5786233814
 20
97.1631617106
 10
150.5776441339
 20
97.1767749226
 10
150.5759219108
 20
97.1903696921
 10
150.5734583627
 20
97.2039460601
 10
150.5702589713
 20
97.2174738184
 10
150.566322098
 20
97.2309528587
 10
150.5616493812
 20
97.2443832892
 10
150.5562512182
 20
97.2577352265
 10
150.5501259936
 20
97.2710084958
 10
150.5432753226
 20
97.2842032717
 10
150.5357144486
 20
97.2972901952
 10
150.5274417899
 20
97.3102690261
 10
150.5184589282
 20
97.3231400045
 10
150.5087858508
 20
97.3358744917
 10
150.4984210207
 20
97.3484721837
 10
150.487365975
 20
97.3609333846
 10
150.4756453117
 20
97.3732303673
 10
150.4632575488
 20
97.3853627662
 10
150.4502041683
 20
97.3973309469
 10
150.4365142148
 20
97.4091082796
 10
150.422186271
 20
97.4206943392
 10
150.4072217542
 20
97.4320895507
 10
150.3916539614
 20
97.443268559
 10
150.3754815494
 20
97.4542308828
 10
150.3587058614
 20
97.4649770034
 10
150.3413642243
 20
97.4754830101
 10
150.3234690806
 20
97.4857409326
 10
150.3050079878
 20
97.4957587412
 10
150.285980946
 20
97.5055364358
  0
LWPOLYLINE
  5
4C4
100
AcDbEntity
  8
RACCORDO
100
AcDbPolyline
 62
7
  6
CONTINUOUS
 90
30
 70
0
 10
150.5788732116
 20
101.4821077431
 10
150.5786233814
 20
101.4932887296
 10
150.5776441339
 20
101.5069019415
 10
150.5759219108
 20
101.520496711
 10
150.5734583627
 20
101.534073079
 10
150.5702589713
 20
101.5476008373
 10
150.566322098
 20
101.5610798776
 10
150.5616493812
 20
101.5745103082
 10
150.5562512182
 20
101.5878622455
 10
150.5501259936
 20
101.6011355147
 10
150.5432753226
 20
101.6143302907
 10
150.5357144486
 20
101.6274172142
 10
150.5274417899
 20
101.640396045
 10
150.5184589282
 20
101.6532670234
 10
150.5087858508
 20
101.6660015106
 10
150.4984210207
 20
101.6785992026
 10
150.487365975
 20
101.6910604035
 10
150.4756453117
 20
101.7033573862
 10
150.4632575488
 20
101.7154897851
 10
150.4502041683
 20
101.7274579658
 10
150.4365142148
 20
101.7392352985
 10
150.422186271
 20
101.7508213581
 10
150.4072217542
 20
101.7622165696
 10
150.3916539614
 20
101.7733955779
 10
150.3754815494
 20
101.7843579017
 10
150.3587058614
 20
101.7951040224
 10
150.3413642243
 20
101.805610029
 10
150.3234690806
 20
101.8158679515
 10
150.3050079878
 20
101.8258857601
 10
150.285980946
 20
101.8356634547
  0
LWPOLYLINE
  5
4C5
100
AcDbEntity
  8
SUPERFICI
100
AcDbPolyline
 62
7
  6
CONTINUOUS
 90
8
 70
0
 10
150.5788719267
 20
125.9868268298
 10
150.5786359794
 20
126.0191623725
 10
150.5628875846
 20
126.2481552095
 10
150.5228984105
 20
126.4791115258
 10
150.4592050773
 20
126.709785093
 10
150.373552042
 20
126.9347584412
 10
150.2673656193
 20
127.1512888712
 10
150.236887191
 20
127.2053182635
  0
LINE
  5
4C6
100
AcDbEntity
  8
RACCORDO
100
AcDbLine
 62
253
  6
CONTINUOUS
 10
150.2982139651
 20
113.0704068398
 11
150.2982139651
 21
104.7720875748
  0
LINE
  5
4C7
100
AcDbEntity
  8
RACCORDO
100
AcDbLine
 62
253
  6
CONTINUOUS
 10
150.2982139651
 20
101.1347808789
 11
150.2982139651
 21
100.4419605559
  0
LINE
  5
4C8
100
AcDbEntity
  8
RACCORDO
100
AcDbLine
 62
253
  6
CONTINUOUS
 10
150.2982139651
 20
96.80465386
 11
150.2982139651
 21
95.5083654238
  0
LINE
  5
4C9
100
AcDbEntity
  8
0
100
AcDbLine
 62
253
  6
CONTINUOUS
 10
150.2982139651
 20
113.2591365319
 11
150.2982139651
 21
125.6405501365
  0
LINE
  5
4CA
100
AcDbEntity
  8
SUPERFICI
100
AcDbLine
 62
7
  6
CONTINUOUS
 10
150.5788741648
 20
125.9878820712
 11
150.5788741648
 21
113.6064657171
  0
LINE
  5
4CB
100
AcDbEntity
  8
RACCORDO
100
AcDbLine
 62
7
  6
CONTINUOUS
 10
150.5788741648
 20
112.8154397649
 11
150.5788741648
 21
105.11941676
  0
LINE
  5
4CC
100
AcDbEntity
  8
RACCORDO
100
AcDbLine
 62
7
  6
CONTINUOUS
 10
150.5788741648
 20
101.4821100642
 11
150.5788741648
 21
100.7892897411
  0
LINE
  5
4CD
100
AcDbEntity
  8
RACCORDO
100
AcDbLine
 62
7
  6
CONTINUOUS
 10
150.5788741648
 20
97.1519830452
 11
150.5788741648
 21
95.8556918596
  0
LWPOLYLINE
  5
4CE
100
AcDbEntity
  8
RACCORDO
100
AcDbPolyline
 62
7
  6
CONTINUOUS
 90
30
 70
0
 10
150.5788732116
 20
105.119414439
 10
150.578861304
 20
105.116963812
 10
150.5783573723
 20
105.1033441284
 10
150.5771099343
 20
105.0897364009
 10
150.575120642
 20
105.0761406033
 10
150.5723939218
 20
105.0625869868
 10
150.5689281314
 20
105.0490756454
 10
150.564724913
 20
105.0356064853
 10
150.5597936191
 20
105.0222094761
 10
150.5541326283
 20
105.0088847785
 10
150.5477435619
 20
104.9956322318
 10
150.540640636
 20
104.9824813238
 10
150.532822261
 20
104.9694322808
 10
150.5242900265
 20
104.9564848764
 10
150.5150629172
 20
104.9436679195
 10
150.5051393859
 20
104.9309817005
 10
150.4945209798
 20
104.918425929
 10
150.4832313255
 20
104.9060285423
 10
150.4712689284
 20
104.8937898931
 10
150.4586352831
 20
104.8817096287
 10
150.4453585003
 20
104.8698146285
 10
150.4314371479
 20
104.858105305
 10
150.416872658
 20
104.8465812456
 10
150.4016974375
 20
104.8352680921
 10
150.3859101264
 20
104.8241663142
 10
150.3695120847
 20
104.8132754422
 10
150.3525397991
 20
104.802619709
 10
150.3350054317
 20
104.7922071921
 10
150.3168968204
 20
104.7820298141
 10
150.2982139651
 20
104.7720875748
  0
LWPOLYLINE
  5
4CF
100
AcDbEntity
  8
RACCORDO
100
AcDbPolyline
 62
7
  6
CONTINUOUS
 90
30
 70
0
 10
150.5788732116
 20
100.7892874201
 10
150.578861304
 20
100.7868367931
 10
150.5783573723
 20
100.7732171094
 10
150.5771099343
 20
100.759609382
 10
150.575120642
 20
100.7460135843
 10
150.5723939218
 20
100.7324599678
 10
150.5689281314
 20
100.7189486265
 10
150.564724913
 20
100.7054794664
 10
150.5597936191
 20
100.6920824572
 10
150.5541326283
 20
100.6787577596
 10
150.5477435619
 20
100.6655052129
 10
150.540640636
 20
100.6523543049
 10
150.532822261
 20
100.6393052618
 10
150.5242900265
 20
100.6263578575
 10
150.5150629172
 20
100.6135409006
 10
150.5051393859
 20
100.6008546816
 10
150.4945209798
 20
100.5882989101
 10
150.4832313255
 20
100.5759015234
 10
150.4712689284
 20
100.5636628742
 10
150.4586352831
 20
100.5515826098
 10
150.4453585003
 20
100.5396876096
 10
150.4314371479
 20
100.527978286
 10
150.416872658
 20
100.5164542267
 10
150.4016974375
 20
100.5051410732
 10
150.3859101264
 20
100.4940392953
 10
150.3695120847
 20
100.4831484233
 10
150.3525397991
 20
100.4724926901
 10
150.3350054317
 20
100.4620801732
 10
150.3168968204
 20
100.4519027952
 10
150.2982139651
 20
100.4419605559
  0
LWPOLYLINE
  5
4D0
100
AcDbEntity
  8
RACCORDO
100
AcDbPolyline
 62
253
  6
CONTINUOUS
 90
31
 70
0
 10
150.2982139565
 20
95.5083654193
 10
150.2979295248
 20
95.467413998
 10
150.2968376293
 20
95.4268825528
 10
150.2949388135
 20
95.3867940078
 10
150.2922340279
 20
95.3471709496
 10
150.2887247886
 20
95.3080358841
 10
150.2844131896
 20
95.2694112157
 10
150.2793016419
 20
95.2313188364
 10
150.2733929822
 20
95.1937802488
 10
150.2666906446
 20
95.1568168153
 10
150.2591984162
 20
95.1204494933
 10
150.2509204927
 20
95.0846988088
 10
150.2418615991
 20
95.049584974
 10
150.2320268497
 20
95.015127848
 10
150.2214217885
 20
94.981346947
 10
150.2100524466
 20
94.9482614168
 10
150.1979252648
 20
94.9158899923
 10
150.1850470934
 20
94.884250997
 10
150.1714252285
 20
94.8533623558
 10
150.1570674015
 20
94.8232415694
 10
150.1419817374
 20
94.7939056888
 10
150.1261767557
 20
94.7653713153
 10
150.1096614451
 20
94.7376546364
 10
150.0924451575
 20
94.7107713336
 10
150.0745375634
 20
94.6847365613
 10
150.0559488213
 20
94.6595650594
 10
150.0366894941
 20
94.6352711248
 10
150.0167704434
 20
94.611868517
 10
149.9962029679
 20
94.5893704784
 10
149.9749987811
 20
94.5677898038
 10
149.9531699399
 20
94.5471387944
  0
LWPOLYLINE
  5
4D1
100
AcDbEntity
  8
RACCORDO
100
AcDbPolyline
 62
253
  6
CONTINUOUS
 90
28
 70
0
 10
150.5788741648
 20
95.8556907977
 10
150.5786733915
 20
95.845673049
 10
150.5776834579
 20
95.8312992587
 10
150.5758671062
 20
95.8169456508
 10
150.5732258392
 20
95.8026241017
 10
150.5697618422
 20
95.7883464611
 10
150.5654779814
 20
95.7741245422
 10
150.5603778013
 20
95.7599701124
 10
150.5544655218
 20
95.7458948831
 10
150.5477460347
 20
95.7319105002
 10
150.5402248997
 20
95.7180285344
 10
150.53190834
 20
95.7042604717
 10
150.5228032365
 20
95.6906177038
 10
150.5129171229
 20
95.6771115189
 10
150.5022581791
 20
95.6637530919
 10
150.4908352241
 20
95.6505534757
 10
150.4786577096
 20
95.6375235917
 10
150.4657357111
 20
95.6246742208
 10
150.4520799203
 20
95.6120159947
 10
150.4377016362
 20
95.5995593869
 10
150.4226127553
 20
95.5873147039
 10
150.4068257623
 20
95.5752920771
 10
150.3903537193
 20
95.563501454
 10
150.3732102554
 20
95.5519525902
 10
150.3554095551
 20
95.5406550413
 10
150.3369663468
 20
95.529618155
 10
150.3178958905
 20
95.5188510631
 10
150.2982139651
 20
95.5083626744
  0
LWPOLYLINE
  5
4D2
100
AcDbEntity
  8
RACCORDO
100
AcDbPolyline
 62
253
  6
CONTINUOUS
 90
18
 70
0
 10
123.2889740849
 20
75.8571952691
 10
123.2945651927
 20
75.8603089003
 10
123.3012828295
 20
75.8647544772
 10
123.3076538743
 20
75.8697892732
 10
123.313660823
 20
75.875399476
 10
123.3192871767
 20
75.8815696878
 10
123.3245174998
 20
75.888282985
 10
123.329337455
 20
75.89552097
 10
123.3337338217
 20
75.9032637963
 10
123.3376945434
 20
75.9114902369
 10
123.3412087565
 20
75.9201777356
 10
123.34426682
 20
75.9293024646
 10
123.3468603489
 20
75.9388394104
 10
123.3489822284
 20
75.9487624176
 10
123.3506266351
 20
75.9590442473
 10
123.351789062
 20
75.9696566938
 10
123.3524663265
 20
75.9805706651
 10
123.3526565746
 20
75.991756233
  0
LWPOLYLINE
  5
4D3
100
AcDbEntity
  8
RACCORDO
100
AcDbPolyline
 62
253
  6
CONTINUOUS
 90
18
 70
0
 10
121.1568470768
 20
74.8048599765
 10
121.1642149862
 20
74.8088668161
 10
121.1709264845
 20
74.8133144166
 10
121.177299115
 20
74.8183550414
 10
121.1833154392
 20
74.8239748767
 10
121.1889590149
 20
74.8301585591
 10
121.1942144301
 20
74.8368892284
 10
121.1990671962
 20
74.8441483576
 10
121.2035038768
 20
74.8519158057
 10
121.2075122687
 20
74.8601700709
 10
121.2110815078
 20
74.8688886295
 10
121.2142019262
 20
74.8780478045
 10
121.2168654999
 20
74.8876246215
 10
121.2190641922
 20
74.8975908627
 10
121.2207910372
 20
74.9079126112
 10
121.2220419815
 20
74.9185586794
 10
121.2228149101
 20
74.9295014771
 10
121.223108612
 20
74.9407105747
  0
LWPOLYLINE
  5
4D4
100
AcDbEntity
  8
RACCORDO
100
AcDbPolyline
 62
7
  6
CONTINUOUS
 90
22
 70
0
 10
123.2889740849
 20
75.8571952691
 10
123.298780861
 20
75.8625062268
 10
123.309792481
 20
75.8691728773
 10
123.3204561415
 20
75.8764045014
 10
123.3307428367
 20
75.884183719
 10
123.3406315202
 20
75.8924980102
 10
123.3500947097
 20
75.9013289916
 10
123.3591029682
 20
75.9106540838
 10
123.367632323
 20
75.9204538528
 10
123.3756571453
 20
75.9307051594
 10
123.3831516562
 20
75.9413817452
 10
123.3900927504
 20
75.9524578539
 10
123.3964577649
 20
75.9639052175
 10
123.4022255027
 20
75.9756942897
 10
123.4073768004
 20
75.9877956032
 10
123.4118939395
 20
76.0001790591
 10
123.4157593782
 20
76.0128096564
 10
123.4189571662
 20
76.0256487304
 10
123.4214747527
 20
76.0386603751
 10
123.4233017026
 20
76.0518088461
 10
123.4244292277
 20
76.0650541916
 10
123.4248544316
 20
76.0796292014
  0
LINE
  5
4D5
100
AcDbEntity
  8
RACCORDO
100
AcDbLine
 62
7
  6
CONTINUOUS
 10
122.7602843038
 20
75.5859674036
 11
122.7633781926
 21
75.5876285053
  0
LINE
  5
4D6
100
AcDbEntity
  8
RACCORDO
100
AcDbLine
 62
253
  6
CONTINUOUS
 10
123.3526565746
 20
75.991756233
 11
122.8243894028
 21
75.7207451744
  0
LINE
  5
4D7
100
AcDbEntity
  8
RACCORDO
100
AcDbLine
 62
7
  6
CONTINUOUS
 10
123.288968537
 20
75.8571924227
 11
122.7602862735
 21
75.5859684141
  0
LINE
  5
4D8
100
AcDbEntity
  8
RACCORDO
100
AcDbLine
 62
7
  6
CONTINUOUS
 10
122.7585478863
 20
75.5850991806
 11
122.7602843038
 21
75.5859674036
  0
LINE
  5
4D9
100
AcDbEntity
  8
RACCORDO
100
AcDbLine
 62
7
  6
CONTINUOUS
 10
123.0352094101
 20
77.3101742101
 11
123.7567924105
 21
77.6661666145
  0
LINE
  5
4DA
100
AcDbEntity
  8
RACCORDO
100
AcDbLine
 62
253
  6
CONTINUOUS
 10
122.8243894028
 20
75.7207451744
 11
121.223108612
 21
74.9407105747
  0
LINE
  5
4DB
100
AcDbEntity
  8
RACCORDO
100
AcDbLine
 62
7
  6
CONTINUOUS
 10
122.7585451224
 20
75.5850978342
 11
121.1568470194
 21
74.8048599485
  0
LINE
  5
4DC
100
AcDbEntity
  8
RACCORDO
100
AcDbLine
 62
7
  6
CONTINUOUS
 10
123.0351651129
 20
77.3101523585
 11
123.02497595
 21
77.3055077808
  0
LINE
  5
4DD
100
AcDbEntity
  8
RACCORDO
100
AcDbLine
 62
253
  6
CONTINUOUS
 10
117.6692329097
 20
75.2696853801
 11
123.1671416926
 21
77.5774841697
  0
LINE
  5
4DE
100
AcDbEntity
  8
RACCORDO
100
AcDbLine
 62
7
  6
CONTINUOUS
 10
117.5185018092
 20
74.9941135957
 11
123.0249877578
 21
77.3055127311
  0
LWPOLYLINE
  5
4DF
100
AcDbEntity
  8
ASSI
100
AcDbPolyline
 62
7
  6
CONTINUOUS
 90
16
 70
0
 10
117.5695869432
 20
125.274033589
 10
117.5817425335
 20
125.2773978621
 10
117.5944752773
 20
125.2800006155
 10
117.6077789331
 20
125.2818252699
 10
117.6216535281
 20
125.2828691377
 10
117.6360814627
 20
125.2831008327
 10
117.6510251506
 20
125.282461994
 10
117.6664660808
 20
125.28093023
 10
117.6823891351
 20
125.2784970677
 10
117.6987558015
 20
125.2751278279
 10
117.7155064544
 20
125.2708181286
 10
117.7326529135
 20
125.2655464997
 10
117.7502643878
 20
125.259248299
 10
117.7683249438
 20
125.2519060639
 10
117.7867997369
 20
125.2434991484
 10
117.794366115
 20
125.2397952352
  0
LINE
  5
4E0
100
AcDbEntity
  8
RACCORDO
100
AcDbLine
 62
7
  6
CONTINUOUS
 10
141.2860433554
 20
123.6706578005
 11
130.3197212834
 21
129.1538188365
  0
LINE
  5
4E1
100
AcDbEntity
  8
0
100
AcDbLine
 62
7
  6
CONTINUOUS
 10
141.3562427866
 20
123.7047571101
 11
134.3502299362
 21
127.2077635353
  0
LWPOLYLINE
  5
4E2
100
AcDbEntity
  8
0
100
AcDbPolyline
 62
7
  6
CONTINUOUS
 90
6
 70
0
 10
138.7342919795
 20
133.0765316738
 10
138.7029564019
 20
133.0721152051
 10
138.670835634
 20
133.0654561414
 10
138.6379296759
 20
133.0565544826
 10
138.6042385276
 20
133.0454102287
 10
138.569762189
 20
133.0320233799
  0
LINE
  5
4E3
100
AcDbEntity
  8
0
100
AcDbLine
 62
7
  6
CONTINUOUS
 10
137.4148335076
 20
130.6378696083
 11
137.5105847677
 21
130.5700056645
  0
LINE
  5
4E4
100
AcDbEntity
  8
0
100
AcDbLine
 62
7
  6
CONTINUOUS
 10
138.3807385889
 20
133.2533083691
 11
138.4739610266
 21
133.2545357156
  0
LWPOLYLINE
  5
4E5
100
AcDbEntity
  8
0
100
AcDbPolyline
 62
7
  6
CONTINUOUS
 90
5
 70
0
 10
137.5105847677
 20
130.5700056645
 10
137.6016684843
 20
130.5377002623
 10
137.7090557506
 20
130.5304394516
 10
137.8273244293
 20
130.550586658
 10
137.9564745202
 20
130.5981418814
  0
LINE
  5
4E6
100
AcDbEntity
  8
0
100
AcDbLine
 62
7
  6
CONTINUOUS
 10
137.9564745202
 20
130.5981418814
 11
137.249367739
 21
130.951695272
  0
LINE
  5
4E7
100
AcDbEntity
  8
0
100
AcDbLine
 62
7
  6
CONTINUOUS
 10
137.1007613476
 20
131.1849170903
 11
137.249367739
 21
131.1106138946
  0
LINE
  5
4E8
100
AcDbEntity
  8
0
100
AcDbLine
 62
7
  6
CONTINUOUS
 10
140.7127568981
 20
130.2530089069
 11
137.8857638421
 21
131.6665054349
  0
LINE
  5
4E9
100
AcDbEntity
  8
0
100
AcDbLine
 62
7
  6
CONTINUOUS
 10
137.8857638421
 20
132.7058942234
 11
141.7748511386
 21
130.7613505752
  0
LWPOLYLINE
  5
4EA
100
AcDbEntity
  8
SUPERFICI
100
AcDbPolyline
 62
253
  6
CONTINUOUS
 90
4
 70
0
 10
149.884061519
 20
127.0721898352
 10
149.9076883592
 20
127.0310050876
 10
149.930728873
 20
126.9894296344
 10
149.9531699399
 20
126.9474869765
  0
LWPOLYLINE
  5
4EB
100
AcDbEntity
  8
SUPERFICI
100
AcDbPolyline
 62
253
  6
CONTINUOUS
 90
9
 70
0
 10
149.9531699399
 20
126.9474869765
 10
149.9749987811
 20
126.9052007072
 10
149.9962029679
 20
126.8625948531
 10
150.0167704434
 20
126.819693867
 10
150.0366894941
 20
126.7765220933
 10
150.0559488213
 20
126.7331038813
 10
150.0745375634
 20
126.6894639322
 10
150.0924451575
 20
126.6456269963
 10
150.109661445
 20
126.6016178261
  0
LWPOLYLINE
  5
4EC
100
AcDbEntity
  8
SUPERFICI
100
AcDbPolyline
 62
253
  6
CONTINUOUS
 90
23
 70
0
 10
150.109661445
 20
126.6016178261
 10
150.1261767557
 20
126.5574612966
 10
150.1419817374
 20
126.5131823805
 10
150.1570674014
 20
126.4688061608
 10
150.1714252285
 20
126.4243577839
 10
150.1850470934
 20
126.3798624177
 10
150.1979252648
 20
126.335345251
 10
150.2100524466
 20
126.2908315051
 10
150.2214217885
 20
126.2463463967
 10
150.2320268497
 20
126.2019151099
 10
150.2418615991
 20
126.1575627956
 10
150.2509204927
 20
126.1133146075
 10
150.2591984162
 20
126.0691955796
 10
150.2666906446
 20
126.0252305989
 10
150.2733929821
 20
125.9814445335
 10
150.2793016419
 20
125.9378622368
 10
150.2844131896
 20
125.8945084252
 10
150.2887247886
 20
125.8514076299
 10
150.2922340279
 20
125.8085843181
 10
150.2949388135
 20
125.7660628933
 10
150.2968376293
 20
125.723867498
 10
150.2979295248
 20
125.6820220045
 10
150.2982139565
 20
125.6405501321
  0
LINE
  5
4ED
100
AcDbEntity
  8
0
100
AcDbLine
 62
7
  6
CONTINUOUS
 10
138.4739610266
 20
133.2545357156
 11
138.558626734
 21
133.2385628444
  0
LINE
  5
4EE
100
AcDbEntity
  8
0
100
AcDbLine
 62
7
  6
CONTINUOUS
 10
138.558626734
 20
133.2385628444
 11
138.6162677658
 21
133.2154184826
  0
LWPOLYLINE
  5
4EF
100
AcDbEntity
  8
RACCORDO
100
AcDbPolyline
 62
7
  6
CONTINUOUS
 90
18
 70
0
 10
138.5451094525
 20
133.2508893096
 10
138.5302276411
 20
133.2579255174
 10
138.5150415771
 20
133.2643081729
 10
138.4995660666
 20
133.2700324897
 10
138.4838004837
 20
133.2750970446
 10
138.4677454543
 20
133.2795032609
 10
138.4514356624
 20
133.2832416215
 10
138.4348705575
 20
133.2863106829
 10
138.4180506902
 20
133.2887118887
 10
138.4010123968
 20
133.2904400535
 10
138.3837552052
 20
133.2914937223
 10
138.3662795874
 20
133.29187435
 10
138.3486232963
 20
133.291581116
 10
138.3307859413
 20
133.2906125638
 10
138.3127679129
 20
133.2889701499
 10
138.2946081354
 20
133.286657424
 10
138.2763195836
 20
133.2836755694
 10
138.25931786
 20
133.2803064912
  0
LWPOLYLINE
  5
4F0
100
AcDbEntity
  8
SUPERFICI
100
AcDbPolyline
 62
253
  6
CONTINUOUS
 90
26
 70
0
 10
149.8053628522
 20
127.620761592
 10
149.7988184575
 20
127.6239370009
 10
149.7835707346
 20
127.630742815
 10
149.7680076399
 20
127.6368767354
 10
149.7521407305
 20
127.6423342072
 10
149.7359817892
 20
127.6471111774
 10
149.7195428159
 20
127.6512040988
 10
149.7028360185
 20
127.6546099317
 10
149.6858738041
 20
127.6573261469
 10
149.6686687685
 20
127.6593507275
 10
149.6512336877
 20
127.6606821701
 10
149.6335815083
 20
127.6613194859
 10
149.6157253396
 20
127.6612622014
 10
149.5976784438
 20
127.6605103593
 10
149.5794542235
 20
127.6590645182
 10
149.5610662113
 20
127.6569257519
 10
149.5425280607
 20
127.6540956485
 10
149.523853536
 20
127.6505763093
 10
149.5050565072
 20
127.6463703481
 10
149.4861509386
 20
127.6414808896
 10
149.467150846
 20
127.6359115581
 10
149.4480703625
 20
127.6296664956
 10
149.4289237336
 20
127.6227503692
 10
149.4097252039
 20
127.6151683336
 10
149.3904890051
 20
127.6069260192
 10
149.3712294224
 20
127.5980295548
  0
LWPOLYLINE
  5
4F1
100
AcDbEntity
  8
RACCORDO
100
AcDbPolyline
 62
253
  6
CONTINUOUS
 90
26
 70
0
 10
136.830058187
 20
134.1084149423
 10
136.8227743415
 20
134.1119590589
 10
136.8075266186
 20
134.118764873
 10
136.7919635239
 20
134.1248987934
 10
136.7760966144
 20
134.1303562652
 10
136.7599376731
 20
134.1351332355
 10
136.7434986998
 20
134.1392261568
 10
136.7267919024
 20
134.1426319897
 10
136.709829688
 20
134.1453482049
 10
136.6926246524
 20
134.1473727855
 10
136.6751895717
 20
134.1487042281
 10
136.6575373923
 20
134.1493415438
 10
136.6396812237
 20
134.1492842594
 10
136.6216343279
 20
134.1485324173
 10
136.6034101077
 20
134.1470865762
 10
136.5850220956
 20
134.1449478099
 10
136.566483945
 20
134.1421177065
 10
136.5478094203
 20
134.1385983673
 10
136.5290123914
 20
134.1343924061
 10
136.5101068227
 20
134.1295029476
 10
136.4911067302
 20
134.1239336161
 10
136.4720262467
 20
134.1176885536
 10
136.4528796177
 20
134.1107724272
 10
136.4336810879
 20
134.1031903916
 10
136.4144448892
 20
134.0949480772
 10
136.3951853064
 20
134.0860516128
  0
LINE
  5
4F2
100
AcDbEntity
  8
0
100
AcDbLine
 62
253
  6
CONTINUOUS
 10
149.3712294224
 20
127.5980295548
 11
138.5345006601
 21
133.0163939359
  0
LINE
  5
4F3
100
AcDbEntity
  8
RACCORDO
100
AcDbLine
 62
253
  6
CONTINUOUS
 10
136.3951853064
 20
134.0860516128
 11
138.1102365914
 21
133.2285259703
  0
LINE
  5
4F4
100
AcDbEntity
  8
RACCORDO
100
AcDbLine
 62
7
  6
CONTINUOUS
 10
138.5206719428
 20
133.1496294498
 11
138.2393172327
 21
133.2903068048
  0
LINE
  5
4F5
100
AcDbEntity
  8
0
100
AcDbLine
 62
7
  6
CONTINUOUS
 10
138.3807385889
 20
133.2533083691
 11
138.7342919795
 21
133.0765316738
  0
LINE
  5
4F6
100
AcDbEntity
  8
RACCORDO
100
AcDbLine
 62
7
  6
CONTINUOUS
 10
136.830058187
 20
134.1084149424
 11
138.545109472
 21
133.2508892999
  0
LINE
  5
4F7
100
AcDbEntity
  8
SUPERFICI
100
AcDbLine
 62
7
  6
CONTINUOUS
 10
138.6158201501
 20
133.2155339608
 11
149.8061023029
 21
127.6203928844
  0
LWPOLYLINE
  5
4F8
100
AcDbEntity
  8
SUPERFICI
100
AcDbPolyline
 62
253
  6
CONTINUOUS
 90
19
 70
0
 10
149.3712294224
 20
127.5980295548
 10
149.3898641778
 20
127.5885422556
 10
149.4084780832
 20
127.578463853
 10
149.4270583851
 20
127.5678012167
 10
149.4455924755
 20
127.5565615421
 10
149.4640675288
 20
127.5447525635
 10
149.4824705149
 20
127.5323825853
 10
149.5007887016
 20
127.5194601684
 10
149.5190096626
 20
127.5059940885
 10
149.5371209182
 20
127.4919935738
 10
149.5551100615
 20
127.4774682179
 10
149.5729647652
 20
127.4624279717
 10
149.5906727951
 20
127.4468831395
 10
149.6082220178
 20
127.4308443716
 10
149.6256004102
 20
127.414322657
 10
149.6427960657
 20
127.3973293159
 10
149.6597972031
 20
127.3798759912
 10
149.6765921737
 20
127.361974641
 10
149.6931694702
 20
127.3436375302
  0
LINE
  5
4F9
100
AcDbEntity
  8
RACCORDO
100
AcDbLine
 62
7
  6
CONTINUOUS
 10
138.5596323109
 20
133.2432251564
 11
138.5451094525
 21
133.2508893096
  0
LWPOLYLINE
  5
4FA
100
AcDbEntity
  8
SUPERFICI
100
AcDbPolyline
 62
7
  6
CONTINUOUS
 90
5
 70
0
 10
149.8053628522
 20
127.620761592
 10
149.8871906739
 20
127.5750218269
 10
149.9670757969
 20
127.5197594098
 10
150.0413602792
 20
127.4568778063
 10
150.1093126466
 20
127.3869224607
  0
LWPOLYLINE
  5
4FB
100
AcDbEntity
  8
SUPERFICI
100
AcDbPolyline
 62
253
  6
CONTINUOUS
 90
13
 70
0
 10
149.6931694702
 20
127.3436375302
 10
149.7095177341
 20
127.3248772222
 10
149.725625765
 20
127.3057065708
 10
149.7414825278
 20
127.2861387114
 10
149.7570771597
 20
127.2661870517
 10
149.7723989746
 20
127.2458652606
 10
149.7874374707
 20
127.2251872598
 10
149.8021824658
 20
127.2041670349
 10
149.8166237308
 20
127.1828191642
 10
149.8307510189
 20
127.1611588334
 10
149.8445545607
 20
127.139201095
 10
149.8580250451
 20
127.1169608301
 10
149.87115327
 20
127.0944532955
  0
LWPOLYLINE
  5
4FC
100
AcDbEntity
  8
SUPERFICI
100
AcDbPolyline
 62
253
  6
CONTINUOUS
 90
29
 70
0
 10
150.2365959433
 20
127.2051562293
 10
150.2351045511
 20
127.2068990975
 10
150.2328828011
 20
127.2082530487
 10
150.2299525663
 20
127.2091821969
 10
150.2263086851
 20
127.2096999455
 10
150.2219574607
 20
127.2097994273
 10
150.2169064241
 20
127.2094732211
 10
150.2111530784
 20
127.2087349238
 10
150.2047048134
 20
127.207579214
 10
150.1975704514
 20
127.2060000446
 10
150.1897505268
 20
127.2040112147
 10
150.181253272
 20
127.2016089358
 10
150.1720885615
 20
127.1987885151
 10
150.1622603192
 20
127.1955639744
 10
150.1517773813
 20
127.1919330289
 10
150.1406504158
 20
127.187892306
 10
150.1288870523
 20
127.1834560716
 10
150.1164965175
 20
127.1786235075
 10
150.1034900129
 20
127.1733925174
 10
150.0898791072
 20
127.1677776198
 10
150.0756732534
 20
127.1617794267
 10
150.060883945
 20
127.1553970725
 10
150.0455268015
 20
127.1486453062
 10
150.0296114036
 20
127.1415261438
 10
150.0131493365
 20
127.1340399138
 10
149.9961602284
 20
127.1262015234
 10
149.9786537638
 20
127.1180143857
 10
149.9606414802
 20
127.1094800047
 10
149.9231849054
 20
127.0914224721
  0
LWPOLYLINE
  5
4FD
100
AcDbEntity
  8
SUPERFICI
100
AcDbPolyline
 62
7
  6
CONTINUOUS
 90
4
 70
0
 10
150.1093126466
 20
127.3869224607
 10
150.1703961457
 20
127.310307783
 10
150.2239213416
 20
127.2276804401
 10
150.2367363217
 20
127.2049045079
  0
ELLIPSE
  5
4FE
100
AcDbEntity
  8
0
100
AcDbEllipse
 62
7
  6
CONTINUOUS
 10
140.9513479463
 20
122.3118993733
 30
0.0
 11
-0.894612936
 21
1.7887945813
 31
0.0
 40
0.6124635976
 41
-2.2555607096
 42
-1.470288718
  0
ELLIPSE
  5
4FF
100
AcDbEntity
  8
0
100
AcDbEllipse
 62
7
  6
CONTINUOUS
 10
141.3561535616
 20
122.8386443988
 30
0.0
 11
-0.447101003
 21
0.8945282396
 31
0.0
 40
0.6124326778
 41
4.8132948115
 42
5.5985668031
  0
ELLIPSE
  5
500
100
AcDbEntity
  8
DRAFT
100
AcDbEllipse
 62
7
  6
CONTINUOUS
 10
117.8392865955
 20
120.8868199397
 30
0.0
 11
0.9999934239
 21
0.0071767279
 31
0.0
 40
0.5053247124
 41
2.0833245176
 42
2.3525679043
  0
ELLIPSE
  5
501
100
AcDbEntity
  8
ASSI
100
AcDbEllipse
 62
7
  6
CONTINUOUS
 10
117.5165869067
 20
124.8196636541
 30
0.0
 11
0.2257019663
 21
0.4461636818
 31
0.0
 40
0.6159267166
 41
0.5380090616
 42
0.6817883054
  0
ELLIPSE
  5
502
100
AcDbEntity
  8
RACCORDO
100
AcDbEllipse
 62
7
  6
CONTINUOUS
 10
123.5385144728
 20
78.1048663772
 30
0.0
 11
-0.2191716667
 21
0.4382558376
 31
0.0
 40
0.6124778111
 41
-3.1448859382
 42
-2.255529033
  0
ELLIPSE
  5
503
100
AcDbEntity
  8
RACCORDO
100
AcDbEllipse
 62
7
  6
CONTINUOUS
 10
123.5385144728
 20
116.0389518753
 30
0.0
 11
-0.2192305083
 21
0.4383081735
 31
0.0
 40
0.6122950388
 41
-2.2557482655
 42
-0.6847996396
  0
ELLIPSE
  5
504
100
AcDbEntity
  8
RACCORDO
100
AcDbEllipse
 62
7
  6
CONTINUOUS
 10
116.4694038508
 20
125.4277592401
 30
0.0
 11
0.9987332359
 21
0.6172510855
 31
0.0
 40
0.0815198604
 41
0.0509898783
 42
0.7263320369
  0
ELLIPSE
  5
505
100
AcDbEntity
  8
RACCORDO
100
AcDbEllipse
 62
7
  6
CONTINUOUS
 10
128.2601361393
 20
82.6177255516
 30
0.0
 11
0.9987332359
 21
0.6172510855
 31
0.0
 40
0.0815198604
 41
-2.3978073241
 42
-1.2985018509
  0
ELLIPSE
  5
506
100
AcDbEntity
  8
RACCORDO
100
AcDbEllipse
 62
7
  6
CONTINUOUS
 10
112.1844952428
 20
122.2971439854
 30
0.0
 11
0.4999985559
 21
0.0023864752
 31
0.0
 40
0.5035541159
 41
2.3596088132
 42
3.0002042076
  0
ELLIPSE
  5
507
100
AcDbEntity
  8
ASSI
100
AcDbEllipse
 62
7
  6
CONTINUOUS
 10
123.6774191775
 20
121.7392475187
 30
0.0
 11
0.221538876
 21
0.4482453432
 31
0.0
 40
0.6088015717
 41
0.5323082896
 42
0.6760875334
  0
ELLIPSE
  5
508
100
AcDbEntity
  8
RACCORDO
100
AcDbEllipse
 62
7
  6
CONTINUOUS
 10
128.2601361393
 20
119.5323930959
 30
0.0
 11
-0.7417913999
 21
1.2002436976
 31
0.0
 40
0.5587454355
 41
5.1248137075
 42
6.2241191807
  0
ELLIPSE
  5
509
100
AcDbEntity
  8
RACCORDO
100
AcDbEllipse
 62
7
  6
CONTINUOUS
 10
128.0810924334
 20
82.4085052327
 30
0.0
 11
0.499366618
 21
0.3086255427
 31
0.0
 40
0.0815198604
 41
6.1080157147
 42
7.0007906979
  0
ELLIPSE
  5
50A
100
AcDbEntity
  8
DRAFT
100
AcDbEllipse
 62
7
  6
CONTINUOUS
 10
123.4254301668
 20
121.1173202625
 30
0.0
 11
0.4279673669
 21
-0.0030279657
 31
0.0
 40
0.4946372042
 41
-0.7760807437
 42
0.0034304302
  0
ELLIPSE
  5
50B
100
AcDbEntity
  8
DRAFT
100
AcDbEllipse
 62
7
  6
CONTINUOUS
 10
117.8704417377
 20
123.8948144771
 30
0.0
 11
0.4279673669
 21
-0.0030279657
 31
0.0
 40
0.4946372042
 41
-0.7818985079
 42
0.0034334386
  0
ELLIPSE
  5
50C
100
AcDbEntity
  8
RACCORDO
100
AcDbEllipse
 62
7
  6
CONTINUOUS
 10
128.0810924334
 20
120.6277639019
 30
0.0
 11
-0.3708957
 21
0.6001218488
 31
0.0
 40
0.5587454355
 41
-3.1744788413
 42
-2.2817038581
  0
ELLIPSE
  5
50D
100
AcDbEntity
  8
RACCORDO
100
AcDbEllipse
 62
7
  6
CONTINUOUS
 10
107.0610534577
 20
123.0618853357
 30
0.0
 11
0.249929385
 21
0.0111824824
 31
0.0
 40
0.5313301283
 41
3.1177919815
 42
3.9032222197
  0
ELLIPSE
  5
50E
100
AcDbEntity
  8
RACCORDO
100
AcDbEllipse
 62
7
  6
CONTINUOUS
 10
108.3942657913
 20
122.3952791689
 30
0.0
 11
0.249929385
 21
0.0111824824
 31
0.0
 40
0.5313301283
 41
-2.3799630874
 42
-0.8149845248
  0
ELLIPSE
  5
50F
100
AcDbEntity
  8
RACCORDO
100
AcDbEllipse
 62
7
  6
CONTINUOUS
 10
120.4253716221
 20
116.3797262535
 30
0.0
 11
0.249929385
 21
0.0111824824
 31
0.0
 40
0.5313301283
 41
3.1178369227
 42
3.9032222197
  0
ELLIPSE
  5
510
100
AcDbEntity
  8
RACCORDO
100
AcDbEllipse
 62
7
  6
CONTINUOUS
 10
117.6958023424
 20
118.3088808304
 30
0.0
 11
0.4998587701
 21
0.0223649649
 31
0.0
 40
0.5313301283
 41
-2.3799630874
 42
-0.8149845248
  0
ELLIPSE
  5
511
100
AcDbEntity
  8
RACCORDO
100
AcDbEllipse
 62
7
  6
CONTINUOUS
 10
117.6958023424
 20
119.5414904356
 30
0.0
 11
0.4999985559
 21
0.0023864752
 31
0.0
 40
0.5035541159
 41
-1.4342147631
 42
-0.7936193687
  0
ELLIPSE
  5
512
100
AcDbEntity
  8
RACCORDO
100
AcDbEllipse
 62
7
  6
CONTINUOUS
 10
121.7585839557
 20
115.7131200867
 30
0.0
 11
0.249929385
 21
0.0111824824
 31
0.0
 40
0.5313301283
 41
-2.3799630874
 42
-1.24594668
  0
ELLIPSE
  5
513
100
AcDbEntity
  8
RACCORDO
100
AcDbEllipse
 62
7
  6
CONTINUOUS
 10
112.1844952428
 20
121.0645343802
 30
0.0
 11
0.4998587701
 21
0.0223649649
 31
0.0
 40
0.5313301283
 41
3.1178197826
 42
3.9032222197
  0
ELLIPSE
  5
514
100
AcDbEntity
  8
DRAFT
100
AcDbEllipse
 62
7
  6
CONTINUOUS
 10
145.5533175994
 20
101.247677703
 30
0.0
 11
0.9261626287
 21
1.8847694129
 31
0.0
 40
0.607010042
 41
-2.811164929
 42
-2.4610674593
  0
ELLIPSE
  5
515
100
AcDbEntity
  8
DRAFT
100
AcDbEllipse
 62
7
  6
CONTINUOUS
 10
145.5533175994
 20
96.9175506841
 30
0.0
 11
0.9261626287
 21
1.8847694129
 31
0.0
 40
0.607010042
 41
-2.811164929
 42
-2.4610674593
  0
ELLIPSE
  5
516
100
AcDbEntity
  8
RACCORDO
100
AcDbEllipse
 62
7
  6
CONTINUOUS
 10
141.2859541305
 20
122.8045450892
 30
0.0
 11
-0.447101003
 21
0.8945282396
 31
0.0
 40
0.6124326778
 41
-1.4698904957
 42
-0.6846185041
  0
ELLIPSE
  5
517
100
AcDbEntity
  8
RACCORDO
100
AcDbEllipse
 62
7
  6
CONTINUOUS
 10
140.8818715277
 20
122.2765530517
 30
0.0
 11
-0.894612936
 21
1.7887945813
 31
0.0
 40
0.6124635976
 41
-2.2555607096
 42
-1.470288718
  0
ELLIPSE
  5
518
100
AcDbEntity
  8
RACCORDO
100
AcDbEllipse
 62
7
  6
CONTINUOUS
 10
149.5788741648
 20
113.4329827278
 30
0.0
 11
0.9985969906
 21
-0.623107864
 31
0.0
 40
0.084982534
 41
0.0528483921
 42
0.8209229347
  0
ELLIPSE
  5
519
100
AcDbEntity
  8
DRAFT
100
AcDbEllipse
 62
7
  6
CONTINUOUS
 10
146.2911945863
 20
100.8787392095
 30
0.0
 11
0.9134242373
 21
1.8910797574
 31
0.0
 40
0.6016116119
 41
0.6764898932
 42
3.8180825468
  0
ELLIPSE
  5
51A
100
AcDbEntity
  8
DRAFT
100
AcDbEllipse
 62
7
  6
CONTINUOUS
 10
146.2911945863
 20
96.5486121906
 30
0.0
 11
0.9134242373
 21
1.8910797574
 31
0.0
 40
0.6016116119
 41
0.6764898932
 42
3.8180825468
  0
ELLIPSE
  5
51B
100
AcDbEntity
  8
RACCORDO
100
AcDbEllipse
 62
7
  6
CONTINUOUS
 10
137.0372336853
 20
131.3882830713
 30
0.0
 11
-0.1341676082
 21
0.2683327138
 31
0.0
 40
0.6123610127
 41
-2.9771062615
 42
-2.3489982891
  0
ELLIPSE
  5
51C
100
AcDbEntity
  8
RACCORDO
100
AcDbEllipse
 62
7
  6
CONTINUOUS
 10
116.8647447267
 20
120.7454455803
 30
0.0
 11
1.2181247452
 21
0.9560445338
 31
0.0
 40
0.2321910517
 41
0.1093596625
 42
0.1138484791
  0
ENDSEC
  0
SECTION
  2
OBJECTS
  0
DICTIONARY
  5
C
100
AcDbDictionary
280
0
281
1
  3
ACAD_GROUP
350
D
  3
ACAD_MLINESTYLE
350
17
  3
ACAD_LAYOUT
350
1A
  3
ACAD_PLOTSETTINGS
350
19
  3
ACAD_PLOTSTYLENAME
350
E
  0
DICTIONARY
  5
D
102
{ACAD_REACTORS
330
C
102
}
100
AcDbDictionary
280
0
281
1
  0
ACDBDICTIONARYWDFLT
  5
E
102
{ACAD_REACTORS
330
C
102
}
100
AcDbDictionary
281
1
  3
Normal
350
F
100
AcDbDictionaryWithDefault
340
F
  0
DICTIONARY
  5
17
102
{ACAD_REACTORS
330
C
102
}
100
AcDbDictionary
280
0
281
1
  3
Standard
350
18
  0
DICTIONARY
  5
19
102
{ACAD_REACTORS
330
C
102
}
100
AcDbDictionary
281
1
  0
DICTIONARY
  5
1A
102
{ACAD_REACTORS
330
C
102
}
100
AcDbDictionary
281
1
  3
Model
350
51D
  3
Layout1
350
51E
  0
ACDBPLACEHOLDER
  5
F
102
{ACAD_REACTORS
330
E
102
}
  0
MLINESTYLE
  5
18
102
{ACAD_REACTORS
330
17
102
}
100
AcDbMlineStyle
  2
STANDARD
 70
0
  3

 62
256
 51
90.0
 52
90.0
 71
2
 49
0.5
 62
256
  6
BYLAYER
 49
-0.5
 62
256
  6
BYLAYER
  0
LAYOUT
  5
51D
102
{ACAD_REACTORS
330
1A
102
}
100
AcDbPlotSettings
  1

  2
none_device
  4
ISO_A4_(297.00_x_210.00_MM)
  6

 40
0.0
 41
0.0
 42
0.0
 43
0.0
 44
297.0
 45
210.0
 46
0.0
 47
0.0
 48
0.0
 49
0.0
140
0.0
141
0.0
142
1.0
143
1.0
 70
1024
 72
1
 73
0
 74
0
  7

 75
0
147
1.0
148
0.0
149
0.0
100
AcDbLayout
  1
Model
 70
0
 71
0
 10
0.0
 20
0.0
 11
297.0
 21
210.0
 12
0.0
 22
0.0
 32
0.0
 14
0.0
 24
0.0
 34
0.0
 15
0.0
 25
0.0
 35
0.0
146
0.0
 13
0.0
 23
0.0
 33
0.0
 16
1.0
 26
0.0
 36
0.0
 17
0.0
 27
1.0
 37
0.0
 76
0
330
2F5
345
0
346
0
  0
LAYOUT
  5
51E
102
{ACAD_REACTORS
330
1A
102
}
100
AcDbPlotSettings
  1

  2
none_device
  4
ISO_A4_(297.00_x_210.00_MM)
  6

 40
0.0
 41
0.0
 42
0.0
 43
0.0
 44
297.0
 45
210.0
 46
0.0
 47
0.0
 48
0.0
 49
0.0
140
0.0
141
0.0
142
1.0
143
1.0
 70
0
 72
1
 73
0
 74
0
  7

 75
0
147
1.0
148
0.0
149
0.0
100
AcDbLayout
  1
Layout1
 70
0
 71
1
 10
0.0
 20
0.0
 11
297.0
 21
210.0
 12
0.0
 22
0.0
 32
0.0
 14
0.0
 24
0.0
 34
0.0
 15
0.0
 25
0.0
 35
0.0
146
0.0
 13
0.0
 23
0.0
 33
0.0
 16
1.0
 26
0.0
 36
0.0
 17
0.0
 27
1.0
 37
0.0
 76
0
330
2F6
345
0
346
0
  0
ENDSEC
  0
EOF
