  0
SECTION
  2
HEADER
  9
$ACADVER
  1
AC1015
  9
$DWGCODEPAGE
  3
ANSI_1252
  9
$EXTMAX
 10
297.0
 20
210.0
 30
0.0
  9
$EXTMIN
 10
0.0
 20
0.0
 30
0.0
  9
$LIMMIN
 10
0.0
 20
0.0
  9
$LIMMAX
 10
297.0
 20
210.0
  9
$VIEWCTR
 10
148.5
 20
105.0
  9
$VIEWSIZE
 40
210.0
  9
$CLAYER
  8
0
  9
$LTSCALE
 40
16.335
  9
$CELTYPE
  6
BYLAYER
  9
$DIMSCALE
 40
1.0
  9
$DIMASZ
 40
3.0
  9
$DIMEXO
 40
1.85625
  9
$DIMDLI
 40
11.286
  9
$DIMEXE
 40
5.346
  9
$DIMCEN
 40
2.673
  9
$DIMLFAC
 40
1.0
  9
$DIMBLK
  1
_FILLED
  9
$DIMTXT
 40
3.0
  9
$DIMTOL
 70
1
  9
$DIMLIM
 70
0
  9
$DIMTFAC
 40
1.0
  9
$DIMTP
 40
0.01
  9
$DIMTM
 40
0.01
  9
$PDMODE
 70
3
  9
$PDSIZE
 40
3.0
  9
$HANDSEED
  5
61D
  9
$TILEMODE
 70
1
  9
$MEASUREMENT
 70
1
  9
$INSUNITS
 70
4
  0
ENDSEC
  0
SECTION
  2
CLASSES
  0
CLASS
  1
ACDBDICTIONARYWDFLT
  2
AcDbDictionaryWithDefault
  3
AutoCAD 2000
 90
0
280
0
281
0
  0
CLASS
  1
ACDBPLACEHOLDER
  2
AcDbPlaceHolder
  3
AutoCAD 2000
 90
0
280
0
281
0
  0
CLASS
  1
LAYOUT
  2
AcDbLayout
  3
AutoCAD 2000
 90
0
280
0
281
0
  0
ENDSEC
  0
SECTION
  2
TABLES
  0
TABLE
  2
VPORT
  5
8
100
AcDbSymbolTable
 70
2
  0
VPORT
  5
1F4
100
AcDbSymbolTableRecord
100
AcDbViewportTableRecord
  2
*ACTIVE
 70
0
 10
0.0
 20
0.0
 11
1.0
 21
1.0
 12
148.5
 22
105.0
 13
0.0
 23
0.0
 14
1.0
 24
1.0
 15
0.0
 25
0.0
 16
0.0
 26
0.0
 36
1.0
 17
0.0
 27
0.0
 37
0.0
 40
210.0
 41
1.4142857143
 42
50.0
 43
0.0
 44
0.0
 50
0.0
 51
0.0
 71
0
 72
100
 73
1
 74
1
 75
0
 76
0
 77
0
 78
0
  0
ENDTAB
  0
TABLE
  2
LTYPE
  5
5
100
AcDbSymbolTable
 70
6
  0
LTYPE
  5
14
100
AcDbSymbolTableRecord
100
AcDbLinetypeTableRecord
  2
BYBLOCK
 70
0
  3

 72
65
 73
0
 40
0.0
  0
LTYPE
  5
15
100
AcDbSymbolTableRecord
100
AcDbLinetypeTableRecord
  2
BYLAYER
 70
0
  3

 72
65
 73
0
 40
0.0
  0
LTYPE
  5
16
100
AcDbSymbolTableRecord
100
AcDbLinetypeTableRecord
  2
CONTINUOUS
 70
64
  3
Solid line
 72
65
 73
0
 40
0.0
  0
LTYPE
  5
1F5
100
AcDbSymbolTableRecord
100
AcDbLinetypeTableRecord
  2
CENTER
 70
64
  3
____ _ ____ _ ____ _ ____ _ ____ _ ____ _ ____
 72
65
 73
4
 40
0.6
 49
0.375
 74
0
 49
-0.075
 74
0
 49
0.075
 74
0
 49
-0.075
 74
0
  0
LTYPE
  5
1F6
100
AcDbSymbolTableRecord
100
AcDbLinetypeTableRecord
  2
HIDDEN
 70
64
  3
- - - - - - - - - - - - - - - - - - - -
 72
65
 73
2
 40
0.2
 49
0.1
 74
0
 49
-0.1
 74
0
  0
LTYPE
  5
1F7
100
AcDbSymbolTableRecord
100
AcDbLinetypeTableRecord
  2
PHANTOM
 70
64
  3
_____ _ _ _____ _ _ _____ _ _ _____
 72
65
 73
6
 40
0.8
 49
0.45
 74
0
 49
-0.05
 74
0
 49
0.1
 74
0
 49
-0.05
 74
0
 49
0.1
 74
0
 49
-0.05
 74
0
  0
LTYPE
  5
1F8
100
AcDbSymbolTableRecord
100
AcDbLinetypeTableRecord
  2
DOT
 70
64
  3
. . . . . . . . . . . . . . . . . . . .
 72
65
 73
2
 40
0.2
 49
0.1
 74
0
 49
-0.1
 74
0
  0
LTYPE
  5
1F9
100
AcDbSymbolTableRecord
100
AcDbLinetypeTableRecord
  2
DASHED
 70
64
  3
- - - - - - - - - - - - - - - - - - - -
 72
65
 73
2
 40
0.2
 49
0.1
 74
0
 49
-0.1
 74
0
  0
ENDTAB
  0
TABLE
  2
LAYER
  5
2
100
AcDbSymbolTable
 70
36
  0
LAYER
  5
10
100
AcDbSymbolTableRecord
100
AcDbLayerTableRecord
  2
0
 70
0
 62
7
  6
CONTINUOUS
370
-3
390
F
  0
LAYER
  5
1FA
100
AcDbSymbolTableRecord
100
AcDbLayerTableRecord
  2
DEFAULT_1
 70
0
 62
7
  6
CENTER
370
-3
390
F
  0
LAYER
  5
1FB
100
AcDbSymbolTableRecord
100
AcDbLayerTableRecord
  2
DEFAULT_2
 70
0
 62
7
  6
HIDDEN
370
-3
390
F
  0
LAYER
  5
1FC
100
AcDbSymbolTableRecord
100
AcDbLayerTableRecord
  2
DEFAULT_3
 70
0
 62
7
  6
PHANTOM
370
-3
390
F
  0
LAYER
  5
1FD
100
AcDbSymbolTableRecord
100
AcDbLayerTableRecord
  2
201A_260000
 70
0
 62
7
  6
CONTINUOUS
370
-3
390
F
  0
LAYER
  5
1FE
100
AcDbSymbolTableRecord
100
AcDbLayerTableRecord
  2
201A_260000_1
 70
0
 62
7
  6
CONTINUOUS
370
-3
390
F
  0
LAYER
  5
1FF
100
AcDbSymbolTableRecord
100
AcDbLayerTableRecord
  2
201A_260000_2
 70
0
 62
7
  6
CONTINUOUS
370
-3
390
F
  0
LAYER
  5
200
100
AcDbSymbolTableRecord
100
AcDbLayerTableRecord
  2
2125-CC-RF-VIMAR_65000
 70
0
 62
7
  6
CONTINUOUS
370
-3
390
F
  0
LAYER
  5
201
100
AcDbSymbolTableRecord
100
AcDbLayerTableRecord
  2
2125-CC-RF-VIMAR_65000_1
 70
0
 62
7
  6
CONTINUOUS
370
-3
390
F
  0
LAYER
  5
202
100
AcDbSymbolTableRecord
100
AcDbLayerTableRecord
  2
2125-R1-RF-VIMAR_60000
 70
0
 62
7
  6
CONTINUOUS
370
-3
390
F
  0
LAYER
  5
203
100
AcDbSymbolTableRecord
100
AcDbLayerTableRecord
  2
2125-R1-RF-VIMAR_60000_1
 70
0
 62
7
  6
CONTINUOUS
370
-3
390
F
  0
LAYER
  5
204
100
AcDbSymbolTableRecord
100
AcDbLayerTableRecord
  2
2125-R1-RF-VIMAR_60000_2
 70
0
 62
7
  6
CONTINUOUS
370
-3
390
F
  0
LAYER
  5
205
100
AcDbSymbolTableRecord
100
AcDbLayerTableRecord
  2
3216-R1-RF-VIMAR_60000
 70
0
 62
7
  6
CONTINUOUS
370
-3
390
F
  0
LAYER
  5
206
100
AcDbSymbolTableRecord
100
AcDbLayerTableRecord
  2
43000463A0
 70
0
 62
7
  6
CONTINUOUS
370
-3
390
F
  0
LAYER
  5
207
100
AcDbSymbolTableRecord
100
AcDbLayerTableRecord
  2
ASSI
 70
0
 62
7
  6
CONTINUOUS
370
-3
390
F
  0
LAYER
  5
208
100
AcDbSymbolTableRecord
100
AcDbLayerTableRecord
  2
AX-D100-1-VIMAR_300000
 70
0
 62
7
  6
CONTINUOUS
370
-3
390
F
  0
LAYER
  5
209
100
AcDbSymbolTableRecord
100
AcDbLayerTableRecord
  2
AX-R5W-3-VIMAR_2200000
 70
0
 62
7
  6
CONTINUOUS
370
-3
390
F
  0
LAYER
  5
20A
100
AcDbSymbolTableRecord
100
AcDbLayerTableRecord
  2
CN-1S-HEADER-PIH-1_254000
 70
0
 62
7
  6
CONTINUOUS
370
-3
390
F
  0
LAYER
  5
20B
100
AcDbSymbolTableRecord
100
AcDbLayerTableRecord
  2
CN-CSF_CSM_2-VIMAR_1150000
 70
0
 62
7
  6
CONTINUOUS
370
-3
390
F
  0
LAYER
  5
20C
100
AcDbSymbolTableRecord
100
AcDbLayerTableRecord
  2
CN-MKDSN2-VIMAR_1500000
 70
0
 62
7
  6
CONTINUOUS
370
-3
390
F
  0
LAYER
  5
20D
100
AcDbSymbolTableRecord
100
AcDbLayerTableRecord
  2
CN1-REF_SQUAREHOLE14_SPEA-VIMAR
 70
0
 62
7
  6
CONTINUOUS
370
-3
390
F
  0
LAYER
  5
20E
100
AcDbSymbolTableRecord
100
AcDbLayerTableRecord
  2
CN1-REF_SQUAREHOLE14_SPEA-VIM_1
 70
0
 62
7
  6
CONTINUOUS
370
-3
390
F
  0
LAYER
  5
20F
100
AcDbSymbolTableRecord
100
AcDbLayerTableRecord
  2
CN1-REF_SQUAREHOLE14_SPEA-VIM_2
 70
0
 62
7
  6
CONTINUOUS
370
-3
390
F
  0
LAYER
  5
210
100
AcDbSymbolTableRecord
100
AcDbLayerTableRecord
  2
CN1-REF_SQUAREHOLE14_SPEA-VIM_3
 70
0
 62
7
  6
CONTINUOUS
370
-3
390
F
  0
LAYER
  5
211
100
AcDbSymbolTableRecord
100
AcDbLayerTableRecord
  2
COLOR5
 70
0
 62
7
  6
CONTINUOUS
370
-3
390
F
  0
LAYER
  5
212
100
AcDbSymbolTableRecord
100
AcDbLayerTableRecord
  2
COLORE_MATERIALE
 70
0
 62
7
  6
CONTINUOUS
370
-3
390
F
  0
LAYER
  5
213
100
AcDbSymbolTableRecord
100
AcDbLayerTableRecord
  2
COORDINATE
 70
0
 62
7
  6
CONTINUOUS
370
-3
390
F
  0
LAYER
  5
214
100
AcDbSymbolTableRecord
100
AcDbLayerTableRecord
  2
COORD_ORIGINE
 70
0
 62
7
  6
CONTINUOUS
370
-3
390
F
  0
LAYER
  5
215
100
AcDbSymbolTableRecord
100
AcDbLayerTableRecord
  2
COPY_PUBLISH
 70
0
 62
7
  6
CONTINUOUS
370
-3
390
F
  0
LAYER
  5
216
100
AcDbSymbolTableRecord
100
AcDbLayerTableRecord
  2
COSMETIC
 70
0
 62
7
  6
CONTINUOUS
370
-3
390
F
  0
LAYER
  5
217
100
AcDbSymbolTableRecord
100
AcDbLayerTableRecord
  2
CP-DO-214AC-D-VIMAR_240000
 70
0
 62
7
  6
CONTINUOUS
370
-3
390
F
  0
LAYER
  5
218
100
AcDbSymbolTableRecord
100
AcDbLayerTableRecord
  2
CP-DO-214AC-D-VIMAR_240000_1
 70
0
 62
7
  6
CONTINUOUS
370
-3
390
F
  0
LAYER
  5
219
100
AcDbSymbolTableRecord
100
AcDbLayerTableRecord
  2
CP-DO-214AC-D-VIMAR_240000_2
 70
0
 62
7
  6
CONTINUOUS
370
-3
390
F
  0
LAYER
  5
21A
100
AcDbSymbolTableRecord
100
AcDbLayerTableRecord
  2
CURVE
 70
0
 62
7
  6
CONTINUOUS
370
-3
390
F
  0
LAYER
  5
21B
100
AcDbSymbolTableRecord
100
AcDbLayerTableRecord
  2
DRAFT
 70
0
 62
7
  6
CONTINUOUS
370
-3
390
F
  0
LAYER
  5
21C
100
AcDbSymbolTableRecord
100
AcDbLayerTableRecord
  2
E2_MARK_10000
 70
0
 62
7
  6
CONTINUOUS
370
-3
390
F
  0
LAYER
  5
21D
100
AcDbSymbolTableRecord
100
AcDbLayerTableRecord
  2
FL-9_2X6X5_530000
 70
0
 62
7
  6
CONTINUOUS
370
-3
390
F
  0
LAYER
  5
21E
100
AcDbSymbolTableRecord
100
AcDbLayerTableRecord
  2
IGES_IMPORT
 70
0
 62
7
  6
CONTINUOUS
370
-3
390
F
  0
LAYER
  5
21F
100
AcDbSymbolTableRecord
100
AcDbLayerTableRecord
  2
IMPORT_IGES
 70
0
 62
7
  6
CONTINUOUS
370
-3
390
F
  0
LAYER
  5
220
100
AcDbSymbolTableRecord
100
AcDbLayerTableRecord
  2
INTF_GREEN
 70
0
 62
7
  6
CONTINUOUS
370
-3
390
F
  0
LAYER
  5
221
100
AcDbSymbolTableRecord
100
AcDbLayerTableRecord
  2
LOGO_RESIST-RESTYLING_10000
 70
0
 62
7
  6
CONTINUOUS
370
-3
390
F
  0
LAYER
  5
222
100
AcDbSymbolTableRecord
100
AcDbLayerTableRecord
  2
NO-PB_MARK_10000
 70
0
 62
7
  6
CONTINUOUS
370
-3
390
F
  0
LAYER
  5
223
100
AcDbSymbolTableRecord
100
AcDbLayerTableRecord
  2
NOTE
 70
0
 62
7
  6
CONTINUOUS
370
-3
390
F
  0
LAYER
  5
224
100
AcDbSymbolTableRecord
100
AcDbLayerTableRecord
  2
PIANI
 70
0
 62
7
  6
CONTINUOUS
370
-3
390
F
  0
LAYER
  5
225
100
AcDbSymbolTableRecord
100
AcDbLayerTableRecord
  2
PIANI_DI_RIFERIMENTO
 70
0
 62
7
  6
CONTINUOUS
370
-3
390
F
  0
LAYER
  5
226
100
AcDbSymbolTableRecord
100
AcDbLayerTableRecord
  2
PIANI_ORIGINE
 70
0
 62
7
  6
CONTINUOUS
370
-3
390
F
  0
LAYER
  5
227
100
AcDbSymbolTableRecord
100
AcDbLayerTableRecord
  2
PIANI_RIFERIMENTO
 70
0
 62
7
  6
CONTINUOUS
370
-3
390
F
  0
LAYER
  5
228
100
AcDbSymbolTableRecord
100
AcDbLayerTableRecord
  2
PUBLISHED_GEOMETRY
 70
0
 62
7
  6
CONTINUOUS
370
-3
390
F
  0
LAYER
  5
229
100
AcDbSymbolTableRecord
100
AcDbLayerTableRecord
  2
PUNTI
 70
0
 62
7
  6
CONTINUOUS
370
-3
390
F
  0
LAYER
  5
22A
100
AcDbSymbolTableRecord
100
AcDbLayerTableRecord
  2
RACCORDO
 70
0
 62
7
  6
CONTINUOUS
370
-3
390
F
  0
LAYER
  5
22B
100
AcDbSymbolTableRecord
100
AcDbLayerTableRecord
  2
RD-CE35-1-VIMAR_1150000
 70
0
 62
7
  6
CONTINUOUS
370
-3
390
F
  0
LAYER
  5
22C
100
AcDbSymbolTableRecord
100
AcDbLayerTableRecord
  2
RD-CE50-11-VIMAR_1250000
 70
0
 62
7
  6
CONTINUOUS
370
-3
390
F
  0
LAYER
  5
22D
100
AcDbSymbolTableRecord
100
AcDbLayerTableRecord
  2
RD-CE50-11-VIMAR_1250000_1
 70
0
 62
7
  6
CONTINUOUS
370
-3
390
F
  0
LAYER
  5
22E
100
AcDbSymbolTableRecord
100
AcDbLayerTableRecord
  2
RD-L50-4-VIMAR_950000
 70
0
 62
7
  6
CONTINUOUS
370
-3
390
F
  0
LAYER
  5
22F
100
AcDbSymbolTableRecord
100
AcDbLayerTableRecord
  2
RD-ZNR75-1-VIMAR_0
 70
0
 62
7
  6
CONTINUOUS
370
-3
390
F
  0
LAYER
  5
230
100
AcDbSymbolTableRecord
100
AcDbLayerTableRecord
  2
SMD8C-VIMAR_343000
 70
0
 62
7
  6
CONTINUOUS
370
-3
390
F
  0
LAYER
  5
231
100
AcDbSymbolTableRecord
100
AcDbLayerTableRecord
  2
SMUSSO
 70
0
 62
7
  6
CONTINUOUS
370
-3
390
F
  0
LAYER
  5
232
100
AcDbSymbolTableRecord
100
AcDbLayerTableRecord
  2
SNAPLINE
 70
0
 62
7
  6
CONTINUOUS
370
-3
390
F
  0
LAYER
  5
233
100
AcDbSymbolTableRecord
100
AcDbLayerTableRecord
  2
SUPERFICI
 70
0
 62
7
  6
CONTINUOUS
370
-3
390
F
  0
LAYER
  5
234
100
AcDbSymbolTableRecord
100
AcDbLayerTableRecord
  2
TR-29V-1-VIMAR_1400000
 70
0
 62
7
  6
CONTINUOUS
370
-3
390
F
  0
LAYER
  5
235
100
AcDbSymbolTableRecord
100
AcDbLayerTableRecord
  2
TRASH
 70
0
 62
7
  6
CONTINUOUS
370
-3
390
F
  0
LAYER
  5
236
100
AcDbSymbolTableRecord
100
AcDbLayerTableRecord
  2
XSEC_DATUMS
 70
0
 62
7
  6
CONTINUOUS
370
-3
390
F
  0
LAYER
  5
237
100
AcDbSymbolTableRecord
100
AcDbLayerTableRecord
  2
___SHELL
 70
0
 62
7
  6
CONTINUOUS
370
-3
390
F
  0
ENDTAB
  0
TABLE
  2
STYLE
  5
3
100
AcDbSymbolTable
 70
1
  0
STYLE
  5
11
100
AcDbSymbolTableRecord
100
AcDbTextStyleTableRecord
  2
STANDARD
 70
0
 40
0.0
 41
0.8
 50
0.0
 71
0
 42
0.2
  3
txt
  4

  0
STYLE
  5
238
100
AcDbSymbolTableRecord
100
AcDbTextStyleTableRecord
  2
TEXTSTYLE_1
 70
0
 40
0.0
 41
0.8
 50
0.0
 71
0
 42
0.2
  3
gdt
  4

  0
ENDTAB
  0
TABLE
  2
VIEW
  5
6
100
AcDbSymbolTable
 70
0
  0
ENDTAB
  0
TABLE
  2
UCS
  5
7
100
AcDbSymbolTable
 70
0
  0
ENDTAB
  0
TABLE
  2
APPID
  5
9
100
AcDbSymbolTable
 70
1
  0
APPID
  5
239
100
AcDbSymbolTableRecord
100
AcDbRegAppTableRecord
  2
ACAD
 70
0
  0
ENDTAB
  0
TABLE
  2
BLOCK_RECORD
  5
1
100
AcDbSymbolTable
 70
0
  0
BLOCK_RECORD
  5
23A
100
AcDbSymbolTableRecord
100
AcDbBlockTableRecord
  2
*Model_Space
  0
BLOCK_RECORD
  5
23B
100
AcDbSymbolTableRecord
100
AcDbBlockTableRecord
  2
*Paper_Space
  0
ENDTAB
  0
TABLE
  2
DIMSTYLE
  5
A
100
AcDbSymbolTable
 70
1
100
AcDbDimStyleTable
 71
0
  0
DIMSTYLE
105
23C
100
AcDbSymbolTableRecord
100
AcDbDimStyleTableRecord
  2
STANDARD
 70
0
  3

  4

 40
1.0
 41
3.0
 42
0.0625
 43
0.38
 44
0.18
 45
0.0
 46
0.0
 47
0.01
 48
0.01
140
3.0
141
0.09
142
0.0
143
25.4
144
1.0
145
0.0
146
1.0
147
0.09
 71
1.0
 72
0.0
 73
0
 74
0
 75
0
 76
0
 77
1
 78
8
170
0
171
2
172
0
173
0
174
0
175
0
176
0
177
0
178
0
270
2
271
2
272
2
273
2
274
2
275
0
280
0
281
0
282
0
283
1
284
8
285
0
286
0
287
3
288
0
340
11
  0
ENDTAB
  0
ENDSEC
  0
SECTION
  2
BLOCKS
  0
BLOCK
  5
20
100
AcDbEntity
  8
0
100
AcDbBlockBegin
  2
*Model_Space
 70
0
 10
0.0
 20
0.0
 30
0.0
  3
*Model_Space
  1

  0
ENDBLK
  5
21
100
AcDbEntity
  8
0
100
AcDbBlockEnd
  0
BLOCK
  5
1C
100
AcDbEntity
  8
0
100
AcDbBlockBegin
  2
*Paper_Space
 70
0
 10
0.0
 20
0.0
 30
0.0
  3
*Paper_Space
  1

  0
ENDBLK
  5
1D
100
AcDbEntity
  8
0
100
AcDbBlockEnd
  0
ENDSEC
  0
SECTION
  2
ENTITIES
  0
LWPOLYLINE
  5
23D
100
AcDbEntity
  8
RACCORDO
100
AcDbPolyline
 62
7
  6
CONTINUOUS
 90
21
 70
0
 10
-9.0643605642
 20
-28.2840101264
 10
-9.031296208
 20
-28.2970435147
 10
-8.9975805375
 20
-28.3088041203
 10
-8.9632219617
 20
-28.3192714026
 10
-8.9282605341
 20
-28.3284151387
 10
-8.8927392522
 20
-28.3362078687
 10
-8.8566681901
 20
-28.3426296482
 10
-8.8200855872
 20
-28.3476540001
 10
-8.7830377766
 20
-28.35125614
 10
-8.7455429613
 20
-28.3534164177
 10
-8.7076440563
 20
-28.3541132535
 10
-8.6693812084
 20
-28.3533266828
 10
-8.6307631027
 20
-28.3510368276
 10
-8.5918302686
 20
-28.3472255974
 10
-8.5526212131
 20
-28.341875798
 10
-8.5131355711
 20
-28.3349635375
 10
-8.4734061398
 20
-28.3264692693
 10
-8.4334716997
 20
-28.3163760044
 10
-8.3933343099
 20
-28.3046559029
 10
-8.3530172164
 20
-28.2912846983
 10
-8.3125706883
 20
-28.2762490684
  0
LINE
  5
23E
100
AcDbEntity
  8
RACCORDO
100
AcDbLine
 62
7
  6
CONTINUOUS
 10
-9.0967440065
 20
-28.2697309804
 11
-9.0643605642
 21
-28.2840101264
  0
LWPOLYLINE
  5
23F
100
AcDbEntity
  8
ASSI
100
AcDbPolyline
 62
7
  6
CONTINUOUS
 90
11
 70
0
 10
-9.1205415134
 20
-28.2582329786
 10
-9.063599066
 20
-28.284327294
 10
-8.9886527453
 20
-28.3116686021
 10
-8.9107044816
 20
-28.3324518496
 10
-8.8301588977
 20
-28.346417635
 10
-8.7472307382
 20
-28.3533508333
 10
-8.6623722155
 20
-28.3530220872
 10
-8.5760533375
 20
-28.3452547575
 10
-8.4883929368
 20
-28.3298546916
 10
-8.3996495558
 20
-28.306604891
 10
-8.3108330228
 20
-28.27554389
  0
LINE
  5
240
100
AcDbEntity
  8
RACCORDO
100
AcDbLine
 62
7
  6
CONTINUOUS
 10
-9.1195973836
 20
-28.2587063374
 11
-9.0967440065
 21
-28.2697309804
  0
LINE
  5
241
100
AcDbEntity
  8
RACCORDO
100
AcDbLine
 62
7
  6
CONTINUOUS
 10
-9.1195050823
 20
-28.2587524989
 11
-23.9534037964
 21
-20.8418031418
  0
LINE
  5
242
100
AcDbEntity
  8
ASSI
100
AcDbLine
 62
7
  6
CONTINUOUS
 10
-9.1195050823
 20
-28.2587524989
 11
-23.9534037964
 21
-20.8418031418
  0
LINE
  5
243
100
AcDbEntity
  8
RACCORDO
100
AcDbLine
 62
253
  6
CONTINUOUS
 10
-9.5129738733
 20
-27.498152846
 11
-24.3378199509
 21
-20.0857298072
  0
LINE
  5
244
100
AcDbEntity
  8
ASSI
100
AcDbLine
 62
253
  6
CONTINUOUS
 10
-9.5129738733
 20
-27.498152846
 11
-24.3378199509
 21
-20.0857298072
  0
LINE
  5
245
100
AcDbEntity
  8
RACCORDO
100
AcDbLine
 62
7
  6
CONTINUOUS
 10
-23.984431984
 20
-20.8254920969
 11
-23.9532813933
 21
-20.8418643229
  0
LINE
  5
246
100
AcDbEntity
  8
ASSI
100
AcDbLine
 62
7
  6
CONTINUOUS
 10
-24.0207884953
 20
-20.8042545903
 11
-23.9524766199
 21
-20.8422656309
  0
LWPOLYLINE
  5
247
100
AcDbEntity
  8
RACCORDO
100
AcDbPolyline
 62
7
  6
CONTINUOUS
 90
3
 70
0
 10
-24.0511523481
 20
-20.7846257647
 10
-24.0182201105
 20
-20.8058338227
 10
-23.984431984
 20
-20.8254920969
  0
LWPOLYLINE
  5
248
100
AcDbEntity
  8
RACCORDO
100
AcDbPolyline
 62
7
  6
CONTINUOUS
 90
35
 70
0
 10
-23.6104325103
 20
17.2709391573
 10
-23.6531719343
 20
17.2433812225
 10
-23.6952464877
 20
17.2141024548
 10
-23.7364865258
 20
17.183261731
 10
-23.7768832326
 20
17.1509125873
 10
-23.816422706
 20
17.1171072562
 10
-23.8550906376
 20
17.0818973698
 10
-23.8928718677
 20
17.0453313869
 10
-23.9297412904
 20
17.0074643691
 10
-23.9656820261
 20
16.968344172
 10
-24.0006750119
 20
16.9280161151
 10
-24.0346868121
 20
16.886542561
 10
-24.0676965992
 20
16.8439709082
 10
-24.0996824463
 20
16.8003458668
 10
-24.1306068337
 20
16.7557361655
 10
-24.160446154
 20
16.7101892597
 10
-24.1891769512
 20
16.663751378
 10
-24.2167602968
 20
16.6164952679
 10
-24.243171385
 20
16.5684684528
 10
-24.2683858444
 20
16.5197194191
 10
-24.2923641171
 20
16.4703244253
 10
-24.3150814992
 20
16.4203319282
 10
-24.3365132417
 20
16.3697908946
 10
-24.3566212823
 20
16.3187785219
 10
-24.3753818694
 20
16.2673431555
 10
-24.39276929
 20
16.2155334673
 10
-24.4087486981
 20
16.1634250036
 10
-24.4232962149
 20
16.1110648307
 10
-24.4363850551
 20
16.0584999812
 10
-24.4479841205
 20
16.0058005006
 10
-24.4580674445
 20
15.9530126805
 10
-24.4666068703
 20
15.9001816588
 10
-24.4735726507
 20
15.8473648942
 10
-24.4789345677
 20
15.7946065917
 10
-24.4826622145
 20
15.7419518737
  0
LINE
  5
249
100
AcDbEntity
  8
RACCORDO
100
AcDbLine
 62
7
  6
CONTINUOUS
 10
-23.5785982722
 20
17.2900870472
 11
-23.6104325103
 21
17.2709391573
  0
LWPOLYLINE
  5
24A
100
AcDbEntity
  8
ASSI
100
AcDbPolyline
 62
7
  6
CONTINUOUS
 90
19
 70
0
 10
-23.5784120499
 20
17.2901954647
 10
-23.6106288599
 20
17.2708210776
 10
-23.7001956559
 20
17.2105147375
 10
-23.7861972757
 20
17.1431438257
 10
-23.868536918
 20
17.0691349526
 10
-23.9470319506
 20
16.988924923
 10
-24.0213376021
 20
16.9030989554
 10
-24.0912497247
 20
16.8120858208
 10
-24.1565338964
 20
16.7163103754
 10
-24.2167418033
 20
16.6165279028
 10
-24.2716366782
 20
16.5132064031
 10
-24.3209650377
 20
16.4068094018
 10
-24.3643129348
 20
16.2981861453
 10
-24.401455895
 20
16.1878170975
 10
-24.4321547193
 20
16.0761687931
 10
-24.4560921539
 20
15.9640206722
 10
-24.4730392534
 20
15.8518791009
 10
-24.4827652623
 20
15.7400614229
 10
-24.4843072165
 20
15.7043977992
  0
LINE
  5
24B
100
AcDbEntity
  8
RACCORDO
100
AcDbLine
 62
7
  6
CONTINUOUS
 10
-23.5786079884
 20
17.2900816094
 11
-18.9896331616
 21
19.9658742513
  0
LINE
  5
24C
100
AcDbEntity
  8
ASSI
100
AcDbLine
 62
7
  6
CONTINUOUS
 10
-23.5786079884
 20
17.2900816094
 11
-18.9896331616
 21
19.9658742513
  0
LINE
  5
24D
100
AcDbEntity
  8
RACCORDO
100
AcDbLine
 62
253
  6
CONTINUOUS
 10
-18.9896331616
 20
19.8210400749
 11
-23.3452539409
 21
17.2813142163
  0
LINE
  5
24E
100
AcDbEntity
  8
ASSI
100
AcDbLine
 62
253
  6
CONTINUOUS
 10
-18.9896331616
 20
19.8210400749
 11
-23.3452539409
 21
17.2813142163
  0
LINE
  5
24F
100
AcDbEntity
  8
RACCORDO
100
AcDbLine
 62
7
  6
CONTINUOUS
 10
-17.9735685264
 20
22.126124921
 11
-19.5567402214
 21
21.3139278737
  0
LINE
  5
250
100
AcDbEntity
  8
ASSI
100
AcDbLine
 62
7
  6
CONTINUOUS
 10
-17.9735685264
 20
22.126124921
 11
-19.5567402214
 21
21.3139278737
  0
LINE
  5
251
100
AcDbEntity
  8
RACCORDO
100
AcDbLine
 62
253
  6
CONTINUOUS
 10
-17.8608979521
 20
22.1194639959
 11
-19.4436545552
 21
21.3074798985
  0
LINE
  5
252
100
AcDbEntity
  8
ASSI
100
AcDbLine
 62
253
  6
CONTINUOUS
 10
-17.8608979521
 20
22.1194639959
 11
-19.4436545552
 21
21.3074798985
  0
LINE
  5
253
100
AcDbEntity
  8
ASSI
100
AcDbLine
 62
253
  6
CONTINUOUS
 10
-19.55670457
 20
21.3139461539
 11
-19.5567402492
 21
21.3139278594
  0
LINE
  5
254
100
AcDbEntity
  8
RACCORDO
100
AcDbLine
 62
253
  6
CONTINUOUS
 10
-16.5173890846
 20
21.4477095621
 11
-18.1186698754
 21
20.6449875586
  0
LINE
  5
255
100
AcDbEntity
  8
ASSI
100
AcDbLine
 62
253
  6
CONTINUOUS
 10
-16.5173890846
 20
21.4477095621
 11
-18.1186698754
 21
20.6449875586
  0
LINE
  5
256
100
AcDbEntity
  8
RACCORDO
100
AcDbLine
 62
253
  6
CONTINUOUS
 10
-16.3406153809
 20
21.1428200233
 11
-17.9418961717
 21
20.3400980198
  0
LINE
  5
257
100
AcDbEntity
  8
ASSI
100
AcDbLine
 62
253
  6
CONTINUOUS
 10
-16.3406153809
 20
21.1428200233
 11
-17.9418961717
 21
20.3400980198
  0
LINE
  5
258
100
AcDbEntity
  8
RACCORDO
100
AcDbLine
 62
7
  6
CONTINUOUS
 10
-17.9718301409
 20
22.1269941537
 11
-17.9735665527
 21
22.1261259335
  0
LINE
  5
259
100
AcDbEntity
  8
ASSI
100
AcDbLine
 62
7
  6
CONTINUOUS
 10
-17.9718301409
 20
22.1269941537
 11
-17.9735665527
 21
22.1261259335
  0
LINE
  5
25A
100
AcDbEntity
  8
RACCORDO
100
AcDbLine
 62
253
  6
CONTINUOUS
 10
-15.9891219128
 20
21.7111483822
 11
-16.5173890846
 21
21.4477095621
  0
LINE
  5
25B
100
AcDbEntity
  8
ASSI
100
AcDbLine
 62
253
  6
CONTINUOUS
 10
-15.9891219128
 20
21.7111483822
 11
-16.5173890846
 21
21.4477095621
  0
LINE
  5
25C
100
AcDbEntity
  8
RACCORDO
100
AcDbLine
 62
253
  6
CONTINUOUS
 10
-15.8123482091
 20
21.4062588434
 11
-16.3406153809
 21
21.1428200233
  0
LINE
  5
25D
100
AcDbEntity
  8
ASSI
100
AcDbLine
 62
253
  6
CONTINUOUS
 10
-15.8123482091
 20
21.4062588434
 11
-16.3406153809
 21
21.1428200233
  0
LINE
  5
25E
100
AcDbEntity
  8
RACCORDO
100
AcDbLine
 62
7
  6
CONTINUOUS
 10
-17.4369601845
 20
22.3875462535
 11
-17.9718273753
 21
22.126995501
  0
LINE
  5
25F
100
AcDbEntity
  8
ASSI
100
AcDbLine
 62
7
  6
CONTINUOUS
 10
-17.4369601845
 20
22.3875462535
 11
-17.9718273753
 21
22.126995501
  0
LINE
  5
260
100
AcDbEntity
  8
RACCORDO
100
AcDbLine
 62
253
  6
CONTINUOUS
 10
-17.3264480734
 20
22.3798114624
 11
-17.8608979521
 21
22.1194639959
  0
LINE
  5
261
100
AcDbEntity
  8
ASSI
100
AcDbLine
 62
253
  6
CONTINUOUS
 10
-17.3264480734
 20
22.3798114624
 11
-17.8608979521
 21
22.1194639959
  0
LINE
  5
262
100
AcDbEntity
  8
RACCORDO
100
AcDbLine
 62
253
  6
CONTINUOUS
 10
-2.4480300447
 20
-26.923035895
 11
-2.9762972165
 21
-26.8145336179
  0
LINE
  5
263
100
AcDbEntity
  8
ASSI
100
AcDbLine
 62
253
  6
CONTINUOUS
 10
-2.4480300447
 20
-26.923035895
 11
-2.9762972165
 21
-26.8145336179
  0
LINE
  5
264
100
AcDbEntity
  8
RACCORDO
100
AcDbLine
 62
253
  6
CONTINUOUS
 10
-2.5374438401
 20
-26.603469089
 11
-2.9762972165
 21
-26.5133317623
  0
LINE
  5
265
100
AcDbEntity
  8
ASSI
100
AcDbLine
 62
253
  6
CONTINUOUS
 10
-2.5374438401
 20
-26.603469089
 11
-2.9762972165
 21
-26.5133317623
  0
LINE
  5
266
100
AcDbEntity
  8
RACCORDO
100
AcDbLine
 62
7
  6
CONTINUOUS
 10
-6.1901113503
 20
-27.7938264564
 11
-4.8651266705
 21
-28.4563187963
  0
LINE
  5
267
100
AcDbEntity
  8
ASSI
100
AcDbLine
 62
7
  6
CONTINUOUS
 10
-6.1901113503
 20
-27.7938264564
 11
-4.8651266705
 21
-28.4563187963
  0
LINE
  5
268
100
AcDbEntity
  8
RACCORDO
100
AcDbLine
 62
253
  6
CONTINUOUS
 10
-6.2550846468
 20
-27.6586080063
 11
-4.9300999669
 21
-28.3211003462
  0
LINE
  5
269
100
AcDbEntity
  8
ASSI
100
AcDbLine
 62
253
  6
CONTINUOUS
 10
-6.2550846468
 20
-27.6586080063
 11
-4.9300999669
 21
-28.3211003462
  0
LINE
  5
26A
100
AcDbEntity
  8
RACCORDO
100
AcDbLine
 62
253
  6
CONTINUOUS
 10
-4.9300999669
 20
-27.9811264121
 11
-6.1525033373
 21
-27.3699247269
  0
LINE
  5
26B
100
AcDbEntity
  8
ASSI
100
AcDbLine
 62
253
  6
CONTINUOUS
 10
-4.9300999669
 20
-27.9811264121
 11
-6.1525033373
 21
-27.3699247269
  0
LINE
  5
26C
100
AcDbEntity
  8
RACCORDO
100
AcDbLine
 62
253
  6
CONTINUOUS
 10
-4.8417116193
 20
-27.7494322382
 11
-5.8525462472
 21
-27.2440149243
  0
LINE
  5
26D
100
AcDbEntity
  8
ASSI
100
AcDbLine
 62
253
  6
CONTINUOUS
 10
-4.8417116193
 20
-27.7494322382
 11
-5.8525462472
 21
-27.2440149243
  0
LINE
  5
26E
100
AcDbEntity
  8
CURVE
100
AcDbLine
 62
253
  6
CONTINUOUS
 10
-13.5721779036
 20
-23.1091306945
 11
-11.0973041694
 21
-24.3465675616
  0
LINE
  5
26F
100
AcDbEntity
  8
CURVE
100
AcDbLine
 62
253
  6
CONTINUOUS
 10
-11.4300753141
 20
-23.6838000941
 11
-12.2786034515
 21
-23.2595360254
  0
LWPOLYLINE
  5
270
100
AcDbEntity
  8
ASSI
100
AcDbPolyline
 62
7
  6
CONTINUOUS
 90
13
 70
0
 10
-24.4842826275
 20
-19.9081107649
 10
-24.4824607658
 20
-19.9472036737
 10
-24.4724648968
 20
-20.0512519827
 10
-24.4553304484
 20
-20.150763831
 10
-24.4313199372
 20
-20.2454583454
 10
-24.4006551769
 20
-20.33520168
 10
-24.363500969
 20
-20.4199052641
 10
-24.320103612
 20
-20.499242622
 10
-24.2707419472
 20
-20.5728965317
 10
-24.2156831848
 20
-20.6406018353
 10
-24.155337723
 20
-20.7019648114
 10
-24.0901951296
 20
-20.7566180199
 10
-24.0207884953
 20
-20.8042545903
  0
LWPOLYLINE
  5
271
100
AcDbEntity
  8
RACCORDO
100
AcDbPolyline
 62
7
  6
CONTINUOUS
 90
24
 70
0
 10
-24.4842835852
 20
-19.9080823421
 10
-24.4825202317
 20
-19.9462021692
 10
-24.4786099707
 20
-19.9972700127
 10
-24.4729714079
 20
-20.0474211202
 10
-24.4656155797
 20
-20.0966493797
 10
-24.4565605597
 20
-20.1448996895
 10
-24.4458393048
 20
-20.1920623566
 10
-24.4334735008
 20
-20.2381143398
 10
-24.4194868495
 20
-20.283022443
 10
-24.4039358835
 20
-20.3266640801
 10
-24.3868560603
 20
-20.3690122411
 10
-24.3682837878
 20
-20.4100396274
 10
-24.3483038012
 20
-20.4496272411
 10
-24.3269855145
 20
-20.4877221182
 10
-24.3043687974
 20
-20.5243319251
 10
-24.2805136449
 20
-20.5594277069
 10
-24.255503056
 20
-20.5929581331
 10
-24.2293818245
 20
-20.6249329446
 10
-24.2021525544
 20
-20.6554011439
 10
-24.1738788617
 20
-20.6843326909
 10
-24.144622671
 20
-20.7117071253
 10
-24.1143740259
 20
-20.737566856
 10
-24.0831965221
 20
-20.7618811564
 10
-24.0511523481
 20
-20.7846257647
  0
LINE
  5
272
100
AcDbEntity
  8
ASSI
100
AcDbLine
 62
7
  6
CONTINUOUS
 10
-24.5989584741
 20
-16.0667952766
 11
-24.4842837519
 21
-19.9080828577
  0
LWPOLYLINE
  5
273
100
AcDbEntity
  8
RACCORDO
100
AcDbPolyline
 62
7
  6
CONTINUOUS
 90
4
 70
0
 10
-24.6279714853
 20
-14.9066463691
 10
-24.5852586492
 20
-16.5813496467
 10
-24.5372088573
 20
-18.2530756084
 10
-24.4842837523
 20
-19.9080828456
  0
LWPOLYLINE
  5
274
100
AcDbEntity
  8
RACCORDO
100
AcDbPolyline
 62
7
  6
CONTINUOUS
 90
17
 70
0
 10
-24.5853001211
 20
12.272356343
 10
-24.6280064057
 20
10.5535377767
 10
-24.6653756202
 20
8.8372837316
 10
-24.6974072245
 20
7.1236199276
 10
-24.7241007512
 20
5.4125705167
 10
-24.7454557398
 20
3.7041609211
 10
-24.7614718635
 20
1.9984175335
 10
-24.772148835
 20
0.2953659701
 10
-24.777486398
 20
-1.4049679687
 10
-24.77748446
 20
-3.1025576807
 10
-24.7721429793
 20
-4.7973763488
 10
-24.7614619648
 20
-6.4893974245
 10
-24.7454415891
 20
-8.1785953295
 10
-24.724082056
 20
-9.8649447033
 10
-24.6973836086
 20
-11.548419447
 10
-24.6653466238
 20
-13.2289945708
 10
-24.6279714853
 20
-14.9066463691
  0
LWPOLYLINE
  5
275
100
AcDbEntity
  8
ASSI
100
AcDbPolyline
 62
7
  6
CONTINUOUS
 90
9
 70
0
 10
-24.4843023735
 20
15.7045536188
 10
-24.5991168616
 20
11.7389732391
 10
-24.6868190728
 20
7.7222432779
 10
-24.7452845072
 20
3.7197840918
 10
-24.7745079434
 20
-0.2680714613
 10
-24.7744863849
 20
-4.2409876316
 10
-24.7452192978
 20
-8.198634911
 10
-24.68670861
 20
-12.1406801297
 10
-24.5989584741
 20
-16.0667952766
  0
LWPOLYLINE
  5
276
100
AcDbEntity
  8
RACCORDO
100
AcDbPolyline
 62
7
  6
CONTINUOUS
 90
3
 70
0
 10
-24.4843023738
 20
15.7045536095
 10
-24.5372575922
 20
13.9937098193
 10
-24.5853001211
 20
12.272356343
  0
LINE
  5
277
100
AcDbEntity
  8
RACCORDO
100
AcDbLine
 62
7
  6
CONTINUOUS
 10
-24.4826622145
 20
15.7419518737
 11
-24.4843025592
 21
15.7045445789
  0
LINE
  5
278
100
AcDbEntity
  8
RACCORDO
100
AcDbLine
 62
253
  6
CONTINUOUS
 10
-16.3406153809
 20
20.4157751708
 11
-15.8123482091
 21
21.0587273266
  0
LINE
  5
279
100
AcDbEntity
  8
ASSI
100
AcDbLine
 62
253
  6
CONTINUOUS
 10
-16.3406153809
 20
20.4157751708
 11
-15.8123482091
 21
21.0587273266
  0
LINE
  5
27A
100
AcDbEntity
  8
RACCORDO
100
AcDbLine
 62
7
  6
CONTINUOUS
 10
-16.3406153809
 20
20.3262447045
 11
-15.7969876368
 21
20.98789216
  0
LINE
  5
27B
100
AcDbEntity
  8
ASSI
100
AcDbLine
 62
7
  6
CONTINUOUS
 10
-16.3406153809
 20
20.3262447045
 11
-15.7969876368
 21
20.98789216
  0
LINE
  5
27C
100
AcDbEntity
  8
RACCORDO
100
AcDbLine
 62
7
  6
CONTINUOUS
 10
-16.3406153809
 20
19.5406693623
 11
-17.2306755636
 21
19.0439884411
  0
LINE
  5
27D
100
AcDbEntity
  8
ASSI
100
AcDbLine
 62
7
  6
CONTINUOUS
 10
-16.3406153809
 20
19.5406693623
 11
-17.2306755636
 21
19.0439884411
  0
LINE
  5
27E
100
AcDbEntity
  8
RACCORDO
100
AcDbLine
 62
7
  6
CONTINUOUS
 10
-13.9717956625
 20
19.210550949
 11
-13.6182542733
 21
19.3919243739
  0
LINE
  5
27F
100
AcDbEntity
  8
ASSI
100
AcDbLine
 62
7
  6
CONTINUOUS
 10
-13.9717956625
 20
19.210550949
 11
-13.6182542733
 21
19.3919243739
  0
LINE
  5
280
100
AcDbEntity
  8
RACCORDO
100
AcDbLine
 62
7
  6
CONTINUOUS
 10
-8.6180323193
 20
22.6809733914
 11
-14.9325726459
 21
19.5361970868
  0
LINE
  5
281
100
AcDbEntity
  8
ASSI
100
AcDbLine
 62
7
  6
CONTINUOUS
 10
-8.6180323193
 20
22.6809733914
 11
-14.9325726459
 21
19.5361970868
  0
LINE
  5
282
100
AcDbEntity
  8
RACCORDO
100
AcDbLine
 62
7
  6
CONTINUOUS
 10
10.1556139441
 20
30.8561309065
 11
-7.6666987895
 21
22.4511775946
  0
LINE
  5
283
100
AcDbEntity
  8
ASSI
100
AcDbLine
 62
7
  6
CONTINUOUS
 10
10.1556139441
 20
30.8561309065
 11
-7.6666987895
 21
22.4511775946
  0
LINE
  5
284
100
AcDbEntity
  8
ASSI
100
AcDbLine
 62
253
  6
CONTINUOUS
 10
-2.514028791
 20
-26.611556464
 11
-2.5141600084
 21
-26.6114909835
  0
LINE
  5
285
100
AcDbEntity
  8
RACCORDO
100
AcDbLine
 62
7
  6
CONTINUOUS
 10
-4.2188793588
 20
-27.0046299349
 11
-4.7041823871
 21
-26.7619784208
  0
LINE
  5
286
100
AcDbEntity
  8
ASSI
100
AcDbLine
 62
7
  6
CONTINUOUS
 10
-4.2188793588
 20
-27.0046299349
 11
-4.7041823871
 21
-26.7619784208
  0
LINE
  5
287
100
AcDbEntity
  8
CURVE
100
AcDbLine
 62
253
  6
CONTINUOUS
 10
-11.4439207134
 20
-23.1884280596
 11
-12.2924488508
 21
-22.7641639909
  0
LINE
  5
288
100
AcDbEntity
  8
RACCORDO
100
AcDbLine
 62
253
  6
CONTINUOUS
 10
-2.9762972165
 20
-26.3840424008
 11
-2.5374438401
 21
-26.603469089
  0
LINE
  5
289
100
AcDbEntity
  8
ASSI
100
AcDbLine
 62
253
  6
CONTINUOUS
 10
-2.9762972165
 20
-26.3840424008
 11
-2.5374438401
 21
-26.603469089
  0
LINE
  5
28A
100
AcDbEntity
  8
RACCORDO
100
AcDbLine
 62
7
  6
CONTINUOUS
 10
-2.9762972165
 20
-26.3804222512
 11
-2.5140287888
 21
-26.6115564651
  0
LINE
  5
28B
100
AcDbEntity
  8
ASSI
100
AcDbLine
 62
7
  6
CONTINUOUS
 10
-2.9762972165
 20
-26.3804222512
 11
-2.5140287888
 21
-26.6115564651
  0
LINE
  5
28C
100
AcDbEntity
  8
CURVE
100
AcDbLine
 62
253
  6
CONTINUOUS
 10
-11.1765411948
 20
-21.355097161
 11
-13.6514149289
 21
-20.1176602939
  0
LINE
  5
28D
100
AcDbEntity
  8
0
100
AcDbLine
 62
7
  6
CONTINUOUS
 10
-8.668506805
 20
19.411748657
 11
-7.9614000238
 21
19.7653020476
  0
LINE
  5
28E
100
AcDbEntity
  8
ASSI
100
AcDbLine
 62
7
  6
CONTINUOUS
 10
-8.668506805
 20
19.411748657
 11
-7.9614000238
 21
19.7653020476
  0
LINE
  5
28F
100
AcDbEntity
  8
0
100
AcDbLine
 62
7
  6
CONTINUOUS
 10
-6.2100621267
 20
20.2874176056
 11
-7.6078466332
 21
19.5885253523
  0
LINE
  5
290
100
AcDbEntity
  8
ASSI
100
AcDbLine
 62
7
  6
CONTINUOUS
 10
-6.2100621267
 20
20.2874176056
 11
-7.6078466332
 21
19.5885253523
  0
LINE
  5
291
100
AcDbEntity
  8
ASSI
100
AcDbLine
 62
7
  6
CONTINUOUS
 10
-7.6765004327
 20
21.688602622
 11
-12.2747513891
 21
19.4222413245
  0
LINE
  5
292
100
AcDbEntity
  8
DRAFT
100
AcDbLine
 62
7
  6
CONTINUOUS
 10
-7.9614000238
 20
20.3178602369
 11
-7.6276244012
 21
20.4811805921
  0
LINE
  5
293
100
AcDbEntity
  8
ASSI
100
AcDbLine
 62
7
  6
CONTINUOUS
 10
-7.9614000238
 20
20.3178602369
 11
-7.6276244012
 21
20.4811805921
  0
LINE
  5
294
100
AcDbEntity
  8
RACCORDO
100
AcDbLine
 62
7
  6
CONTINUOUS
 10
-5.5510663754
 20
21.1474904194
 11
-7.6078466332
 21
20.1410835416
  0
LINE
  5
295
100
AcDbEntity
  8
ASSI
100
AcDbLine
 62
7
  6
CONTINUOUS
 10
-5.5510663754
 20
21.1474904194
 11
-7.6078466332
 21
20.1410835416
  0
LINE
  5
296
100
AcDbEntity
  8
ASSI
100
AcDbLine
 62
7
  6
CONTINUOUS
 10
-13.6182542733
 20
19.3919243739
 11
-8.2820308674
 21
21.9913678394
  0
LINE
  5
297
100
AcDbEntity
  8
DRAFT
100
AcDbLine
 62
7
  6
CONTINUOUS
 10
4.5190346641
 20
25.8914951918
 11
12.7199853235
 21
29.887305805
  0
LINE
  5
298
100
AcDbEntity
  8
ASSI
100
AcDbLine
 62
7
  6
CONTINUOUS
 10
4.5190346641
 20
25.8914951918
 11
12.7199853235
 21
29.887305805
  0
LINE
  5
299
100
AcDbEntity
  8
RACCORDO
100
AcDbLine
 62
7
  6
CONTINUOUS
 10
12.3095499721
 20
29.9662023255
 11
12.4386306134
 21
30.0279831601
  0
LINE
  5
29A
100
AcDbEntity
  8
ASSI
100
AcDbLine
 62
7
  6
CONTINUOUS
 10
12.3095499721
 20
29.9662023255
 11
12.4386306134
 21
30.0279831601
  0
LINE
  5
29B
100
AcDbEntity
  8
0
100
AcDbLine
 62
7
  6
CONTINUOUS
 10
12.0850772228
 20
29.4435705787
 11
12.7338140408
 21
29.7540702912
  0
LINE
  5
29C
100
AcDbEntity
  8
RACCORDO
100
AcDbLine
 62
253
  6
CONTINUOUS
 10
10.5944986871
 20
30.823727968
 11
-7.4203212164
 21
22.3279888081
  0
LINE
  5
29D
100
AcDbEntity
  8
ASSI
100
AcDbLine
 62
253
  6
CONTINUOUS
 10
10.5944986871
 20
30.823727968
 11
-7.4203212164
 21
22.3279888081
  0
LINE
  5
29E
100
AcDbEntity
  8
RACCORDO
100
AcDbLine
 62
7
  6
CONTINUOUS
 10
-19.6926261159
 20
21.0914914312
 11
-19.6926261159
 21
20.7515174971
  0
LINE
  5
29F
100
AcDbEntity
  8
ASSI
100
AcDbLine
 62
7
  6
CONTINUOUS
 10
-19.6926261159
 20
21.0914914312
 11
-19.6926261159
 21
20.7515174971
  0
LINE
  5
2A0
100
AcDbEntity
  8
RACCORDO
100
AcDbLine
 62
253
  6
CONTINUOUS
 10
-19.6194028112
 20
21.0031030836
 11
-19.6194028112
 21
20.6631291495
  0
LINE
  5
2A1
100
AcDbEntity
  8
ASSI
100
AcDbLine
 62
253
  6
CONTINUOUS
 10
-19.6194028112
 20
21.0031030836
 11
-19.6194028112
 21
20.6631291495
  0
LINE
  5
2A2
100
AcDbEntity
  8
RACCORDO
100
AcDbLine
 62
7
  6
CONTINUOUS
 10
-18.9896331616
 20
20.2455125228
 11
-18.9896331616
 21
19.7915554282
  0
LINE
  5
2A3
100
AcDbEntity
  8
ASSI
100
AcDbLine
 62
7
  6
CONTINUOUS
 10
-18.9896331616
 20
20.2455125228
 11
-18.9896331616
 21
19.7915554282
  0
LINE
  5
2A4
100
AcDbEntity
  8
RACCORDO
100
AcDbLine
 62
253
  6
CONTINUOUS
 10
-18.9164098569
 20
20.2089008704
 11
-18.9164098569
 21
19.6998267263
  0
LINE
  5
2A5
100
AcDbEntity
  8
ASSI
100
AcDbLine
 62
253
  6
CONTINUOUS
 10
-18.9164098569
 20
20.2089008704
 11
-18.9164098569
 21
19.6998267263
  0
LINE
  5
2A6
100
AcDbEntity
  8
RACCORDO
100
AcDbLine
 62
253
  6
CONTINUOUS
 10
-18.2944181314
 20
20.0006368095
 11
-18.2944181314
 21
20.3406107437
  0
LINE
  5
2A7
100
AcDbEntity
  8
ASSI
100
AcDbLine
 62
253
  6
CONTINUOUS
 10
-18.2944181314
 20
20.0006368095
 11
-18.2944181314
 21
20.3406107437
  0
LINE
  5
2A8
100
AcDbEntity
  8
RACCORDO
100
AcDbLine
 62
7
  6
CONTINUOUS
 10
-8.8544425738
 20
17.7120869169
 11
-7.9995577847
 21
18.4591782339
  0
LINE
  5
2A9
100
AcDbEntity
  8
ASSI
100
AcDbLine
 62
7
  6
CONTINUOUS
 10
-8.8544425738
 20
17.7120869169
 11
-7.9995577847
 21
18.4591782339
  0
LINE
  5
2AA
100
AcDbEntity
  8
RACCORDO
100
AcDbLine
 62
253
  6
CONTINUOUS
 10
-8.7006072956
 20
17.6351692778
 11
-7.7509210649
 21
18.4651084064
  0
LINE
  5
2AB
100
AcDbEntity
  8
ASSI
100
AcDbLine
 62
253
  6
CONTINUOUS
 10
-8.7006072956
 20
17.6351692778
 11
-7.7509095192
 21
18.4651184963
  0
LINE
  5
2AC
100
AcDbEntity
  8
DRAFT
100
AcDbLine
 62
7
  6
CONTINUOUS
 10
-8.8099281613
 20
17.7821922521
 11
-8.8987790541
 21
17.734255157
  0
LINE
  5
2AD
100
AcDbEntity
  8
ASSI
100
AcDbLine
 62
7
  6
CONTINUOUS
 10
-8.8099281613
 20
17.7821922521
 11
-8.8987790541
 21
17.734255157
  0
LINE
  5
2AE
100
AcDbEntity
  8
DRAFT
100
AcDbLine
 62
7
  6
CONTINUOUS
 10
-8.668506805
 20
17.9780496855
 11
-9.0236417099
 21
17.7966864849
  0
LINE
  5
2AF
100
AcDbEntity
  8
ASSI
100
AcDbLine
 62
7
  6
CONTINUOUS
 10
-8.668506805
 20
17.9780496855
 11
-9.0236417099
 21
17.7966864849
  0
LINE
  5
2B0
100
AcDbEntity
  8
0
100
AcDbLine
 62
7
  6
CONTINUOUS
 10
11.4840364588
 20
27.8306125803
 11
6.0624181729
 21
25.1198034374
  0
LINE
  5
2B1
100
AcDbEntity
  8
0
100
AcDbLine
 62
7
  6
CONTINUOUS
 10
6.1490207133
 20
25.0765021672
 11
11.8375898494
 21
27.9207867352
  0
LINE
  5
2B2
100
AcDbEntity
  8
0
100
AcDbLine
 62
7
  6
CONTINUOUS
 10
7.5632342756
 20
24.369395386
 11
8.9384520465
 21
25.0570042714
  0
LINE
  5
2B3
100
AcDbEntity
  8
0
100
AcDbLine
 62
7
  6
CONTINUOUS
 10
10.4940869651
 20
25.8348217307
 11
12.4739859525
 21
26.8247712244
  0
LINE
  5
2B4
100
AcDbEntity
  8
DRAFT
100
AcDbLine
 62
7
  6
CONTINUOUS
 10
12.1758972099
 20
28.3587717966
 11
5.8677080397
 21
25.217158504
  0
LINE
  5
2B5
100
AcDbEntity
  8
ASSI
100
AcDbLine
 62
7
  6
CONTINUOUS
 10
12.1758972099
 20
28.3587717966
 11
5.8677080397
 21
25.217158504
  0
LINE
  5
2B6
100
AcDbEntity
  8
ASSI
100
AcDbLine
 62
7
  6
CONTINUOUS
 10
-2.7267529644
 20
19.2137288879
 11
-7.3250039208
 21
16.9473675904
  0
LINE
  5
2B7
100
AcDbEntity
  8
RACCORDO
100
AcDbLine
 62
7
  6
CONTINUOUS
 10
-7.9615119083
 20
18.483893179
 11
-7.8458934635
 21
18.5374010947
  0
LINE
  5
2B8
100
AcDbEntity
  8
RACCORDO
100
AcDbLine
 62
253
  6
CONTINUOUS
 10
-7.7493218374
 20
18.4643246554
 11
-7.6660763891
 21
18.5027701621
  0
LINE
  5
2B9
100
AcDbEntity
  8
ASSI
100
AcDbLine
 62
253
  6
CONTINUOUS
 10
-7.7493218374
 20
18.4643246554
 11
-7.6660763891
 21
18.5027701621
  0
LINE
  5
2BA
100
AcDbEntity
  8
DRAFT
100
AcDbLine
 62
7
  6
CONTINUOUS
 10
-8.7342046848
 20
17.8171638629
 11
-8.8099281613
 21
17.7821922521
  0
LINE
  5
2BB
100
AcDbEntity
  8
ASSI
100
AcDbLine
 62
7
  6
CONTINUOUS
 10
-8.7342046848
 20
17.8171638629
 11
-8.8099281613
 21
17.7821922521
  0
LINE
  5
2BC
100
AcDbEntity
  8
ASSI
100
AcDbLine
 62
7
  6
CONTINUOUS
 10
-7.9615119083
 20
18.483893179
 11
-7.8816858992
 21
18.5207593314
  0
LINE
  5
2BD
100
AcDbEntity
  8
RACCORDO
100
AcDbLine
 62
7
  6
CONTINUOUS
 10
-7.835795669
 20
18.5420366761
 11
-7.8458934635
 21
18.5374010947
  0
LINE
  5
2BE
100
AcDbEntity
  8
RACCORDO
100
AcDbLine
 62
7
  6
CONTINUOUS
 10
-7.8251736609
 20
18.5468527695
 11
-7.835795669
 21
18.5420366761
  0
LINE
  5
2BF
100
AcDbEntity
  8
RACCORDO
100
AcDbLine
 62
7
  6
CONTINUOUS
 10
-7.814041657
 20
18.5518236453
 11
-7.8251736609
 21
18.5468527695
  0
LINE
  5
2C0
100
AcDbEntity
  8
RACCORDO
100
AcDbLine
 62
7
  6
CONTINUOUS
 10
-7.8023889619
 20
18.5569348252
 11
-7.814041657
 21
18.5518236453
  0
LINE
  5
2C1
100
AcDbEntity
  8
RACCORDO
100
AcDbLine
 62
7
  6
CONTINUOUS
 10
-7.7901634005
 20
18.5621890785
 11
-7.8023889619
 21
18.5569348252
  0
LWPOLYLINE
  5
2C2
100
AcDbEntity
  8
ASSI
100
AcDbPolyline
 62
7
  6
CONTINUOUS
 90
16
 70
0
 10
-7.6869542596
 20
18.6017270124
 10
-7.6995611375
 20
18.5973697009
 10
-7.7119958586
 20
18.5929431215
 10
-7.7242471353
 20
18.588456329
 10
-7.7363031957
 20
18.583919228
 10
-7.7481492961
 20
18.579343592
 10
-7.7597757468
 20
18.574740008
 10
-7.7711713595
 20
18.5701203357
 10
-7.7822774649
 20
18.5655170575
 10
-7.7931150854
 20
18.560930955
 10
-7.8037740916
 20
18.5563324309
 10
-7.8142097903
 20
18.5517491896
 10
-7.8243789499
 20
18.547210338
 10
-7.8343359314
 20
18.5427024284
 10
-7.8439250707
 20
18.5383085872
 10
-7.881685893
 20
18.520759318
  0
LINE
  5
2C3
100
AcDbEntity
  8
RACCORDO
100
AcDbLine
 62
253
  6
CONTINUOUS
 10
-17.9418961717
 20
20.0001240857
 11
-17.9418961717
 21
20.3400980198
  0
LINE
  5
2C4
100
AcDbEntity
  8
ASSI
100
AcDbLine
 62
253
  6
CONTINUOUS
 10
-17.9418961717
 20
20.0001240857
 11
-17.9418961717
 21
20.3400980198
  0
LINE
  5
2C5
100
AcDbEntity
  8
RACCORDO
100
AcDbLine
 62
253
  6
CONTINUOUS
 10
-17.5831975233
 20
19.7220411824
 11
-17.5831975233
 21
19.0332205594
  0
LINE
  5
2C6
100
AcDbEntity
  8
ASSI
100
AcDbLine
 62
253
  6
CONTINUOUS
 10
-17.5831975233
 20
19.7220411824
 11
-17.5831975233
 21
19.0332205594
  0
LINE
  5
2C7
100
AcDbEntity
  8
RACCORDO
100
AcDbLine
 62
253
  6
CONTINUOUS
 10
-17.2306755636
 20
19.8516205628
 11
-17.2306755636
 21
19.0439884411
  0
LINE
  5
2C8
100
AcDbEntity
  8
ASSI
100
AcDbLine
 62
253
  6
CONTINUOUS
 10
-17.2306755636
 20
19.8516205628
 11
-17.2306755636
 21
19.0439884411
  0
LINE
  5
2C9
100
AcDbEntity
  8
RACCORDO
100
AcDbLine
 62
7
  6
CONTINUOUS
 10
-16.3406153809
 20
19.5406693623
 11
-16.3406153809
 21
21.1428200233
  0
LINE
  5
2CA
100
AcDbEntity
  8
ASSI
100
AcDbLine
 62
7
  6
CONTINUOUS
 10
-16.3406153809
 20
19.5406693623
 11
-16.3406153809
 21
21.1428200233
  0
LINE
  5
2CB
100
AcDbEntity
  8
RACCORDO
100
AcDbLine
 62
253
  6
CONTINUOUS
 10
-15.8123482091
 20
21.4062588434
 11
-15.8123482091
 21
21.0587273266
  0
LINE
  5
2CC
100
AcDbEntity
  8
ASSI
100
AcDbLine
 62
253
  6
CONTINUOUS
 10
-15.8123482091
 20
21.4062588434
 11
-15.8123482091
 21
21.0587273266
  0
LINE
  5
2CD
100
AcDbEntity
  8
RACCORDO
100
AcDbLine
 62
7
  6
CONTINUOUS
 10
-15.7401503521
 20
21.4941314755
 11
-15.7401503521
 21
21.1465999588
  0
LINE
  5
2CE
100
AcDbEntity
  8
ASSI
100
AcDbLine
 62
7
  6
CONTINUOUS
 10
-15.7401503521
 20
21.4941314755
 11
-15.7401503521
 21
21.1465999588
  0
LINE
  5
2CF
100
AcDbEntity
  8
ASSI
100
AcDbLine
 62
253
  6
CONTINUOUS
 10
-15.7401503521
 20
21.4941314788
 11
-15.7401503906
 21
21.494062111
  0
LINE
  5
2D0
100
AcDbEntity
  8
RACCORDO
100
AcDbLine
 62
7
  6
CONTINUOUS
 10
-7.3957145989
 20
15.0682189713
 11
-7.7533937481
 21
14.8686230195
  0
LINE
  5
2D1
100
AcDbEntity
  8
ASSI
100
AcDbLine
 62
7
  6
CONTINUOUS
 10
-7.3957145989
 20
15.0682189713
 11
-7.7533937481
 21
14.8686230195
  0
LINE
  5
2D2
100
AcDbEntity
  8
RACCORDO
100
AcDbLine
 62
7
  6
CONTINUOUS
 10
-4.609250362
 20
15.4439658388
 11
-6.1924220569
 21
14.6317687915
  0
LINE
  5
2D3
100
AcDbEntity
  8
ASSI
100
AcDbLine
 62
7
  6
CONTINUOUS
 10
-4.609250362
 20
15.4439658388
 11
-6.1924220569
 21
14.6317687915
  0
LINE
  5
2D4
100
AcDbEntity
  8
RACCORDO
100
AcDbLine
 62
253
  6
CONTINUOUS
 10
-4.4965797876
 20
15.4373049137
 11
-6.0793363908
 21
14.6253208163
  0
LINE
  5
2D5
100
AcDbEntity
  8
ASSI
100
AcDbLine
 62
253
  6
CONTINUOUS
 10
-4.4965797876
 20
15.4373049137
 11
-6.0793363908
 21
14.6253208163
  0
LINE
  5
2D6
100
AcDbEntity
  8
ASSI
100
AcDbLine
 62
253
  6
CONTINUOUS
 10
-6.1923417126
 20
14.6318099609
 11
-6.192422051
 21
14.6317687945
  0
LINE
  5
2D7
100
AcDbEntity
  8
RACCORDO
100
AcDbLine
 62
7
  6
CONTINUOUS
 10
-7.7533937481
 20
16.1013499918
 11
-7.3957145989
 21
16.2806545366
  0
LINE
  5
2D8
100
AcDbEntity
  8
ASSI
100
AcDbLine
 62
7
  6
CONTINUOUS
 10
-7.7533937481
 20
16.1013499918
 11
-7.3957145989
 21
16.2806545366
  0
LINE
  5
2D9
100
AcDbEntity
  8
RACCORDO
100
AcDbLine
 62
7
  6
CONTINUOUS
 10
-4.6075119764
 20
15.4448350715
 11
-4.6092483883
 21
15.4439668513
  0
LINE
  5
2DA
100
AcDbEntity
  8
ASSI
100
AcDbLine
 62
7
  6
CONTINUOUS
 10
-4.6075119764
 20
15.4448350715
 11
-4.6092483883
 21
15.4439668513
  0
LINE
  5
2DB
100
AcDbEntity
  8
ASSI
100
AcDbLine
 62
7
  6
CONTINUOUS
 10
-7.3957145989
 20
16.2806545366
 11
-2.1212225297
 21
18.9109636705
  0
LINE
  5
2DC
100
AcDbEntity
  8
DRAFT
100
AcDbLine
 62
7
  6
CONTINUOUS
 10
-7.3957145989
 20
15.0682189713
 11
-2.0708805287
 21
17.7045504032
  0
LINE
  5
2DD
100
AcDbEntity
  8
ASSI
100
AcDbLine
 62
7
  6
CONTINUOUS
 10
-7.3957145989
 20
15.0682189713
 11
-2.0708805287
 21
17.7045504032
  0
LINE
  5
2DE
100
AcDbEntity
  8
RACCORDO
100
AcDbLine
 62
7
  6
CONTINUOUS
 10
-1.3084256882
 20
19.0261700759
 11
-1.9472864648
 21
18.7135679508
  0
LINE
  5
2DF
100
AcDbEntity
  8
ASSI
100
AcDbLine
 62
7
  6
CONTINUOUS
 10
-1.3084256882
 20
19.0261700759
 11
-1.9472864648
 21
18.7135679508
  0
LINE
  5
2E0
100
AcDbEntity
  8
RACCORDO
100
AcDbLine
 62
7
  6
CONTINUOUS
 10
-4.0726420201
 20
15.7053871713
 11
-4.6075092109
 21
15.4448364187
  0
LINE
  5
2E1
100
AcDbEntity
  8
ASSI
100
AcDbLine
 62
7
  6
CONTINUOUS
 10
-4.0726420201
 20
15.7053871713
 11
-4.6075092109
 21
15.4448364187
  0
LINE
  5
2E2
100
AcDbEntity
  8
RACCORDO
100
AcDbLine
 62
253
  6
CONTINUOUS
 10
-3.9621299089
 20
15.6976523802
 11
-4.4965797876
 21
15.4373049137
  0
LINE
  5
2E3
100
AcDbEntity
  8
ASSI
100
AcDbLine
 62
253
  6
CONTINUOUS
 10
-3.9621299089
 20
15.6976523802
 11
-4.4965797876
 21
15.4373049137
  0
LINE
  5
2E4
100
AcDbEntity
  8
0
100
AcDbLine
 62
7
  6
CONTINUOUS
 10
8.5495433169
 20
23.9454398905
 11
15.9741645193
 21
27.4990269304
  0
LINE
  5
2E5
100
AcDbEntity
  8
RACCORDO
100
AcDbLine
 62
7
  6
CONTINUOUS
 10
-14.1161913765
 20
19.0263939479
 11
-14.1161913765
 21
17.7862049152
  0
LINE
  5
2E6
100
AcDbEntity
  8
ASSI
100
AcDbLine
 62
7
  6
CONTINUOUS
 10
-14.1161913765
 20
19.0263939479
 11
-14.1161913765
 21
17.7862049152
  0
LINE
  5
2E7
100
AcDbEntity
  8
RACCORDO
100
AcDbLine
 62
253
  6
CONTINUOUS
 10
-13.9697447671
 20
18.6833241169
 11
-13.9697447671
 21
17.6027408061
  0
LINE
  5
2E8
100
AcDbEntity
  8
ASSI
100
AcDbLine
 62
253
  6
CONTINUOUS
 10
-13.9697447671
 20
18.6833241169
 11
-13.9697447671
 21
17.6027408061
  0
LINE
  5
2E9
100
AcDbEntity
  8
RACCORDO
100
AcDbLine
 62
7
  6
CONTINUOUS
 10
2.6400757142
 20
16.7588289125
 11
-2.851467614
 21
13.7960153017
  0
LINE
  5
2EA
100
AcDbEntity
  8
ASSI
100
AcDbLine
 62
7
  6
CONTINUOUS
 10
2.6400757142
 20
16.7588289125
 11
-2.851467614
 21
13.7960153017
  0
LINE
  5
2EB
100
AcDbEntity
  8
RACCORDO
100
AcDbLine
 62
7
  6
CONTINUOUS
 10
2.6400757142
 20
16.182077269
 11
-2.6973091682
 21
13.418565348
  0
LINE
  5
2EC
100
AcDbEntity
  8
ASSI
100
AcDbLine
 62
7
  6
CONTINUOUS
 10
2.6400757142
 20
16.182077269
 11
-2.6973091682
 21
13.418565348
  0
LINE
  5
2ED
100
AcDbEntity
  8
RACCORDO
100
AcDbLine
 62
253
  6
CONTINUOUS
 10
-3.1530709201
 20
14.7655504799
 11
-4.754351711
 21
13.9628284764
  0
LINE
  5
2EE
100
AcDbEntity
  8
ASSI
100
AcDbLine
 62
253
  6
CONTINUOUS
 10
-3.1530709201
 20
14.7655504799
 11
-4.754351711
 21
13.9628284764
  0
LINE
  5
2EF
100
AcDbEntity
  8
RACCORDO
100
AcDbLine
 62
253
  6
CONTINUOUS
 10
-2.9762972165
 20
14.4606609411
 11
-4.5775780073
 21
13.6579389376
  0
LINE
  5
2F0
100
AcDbEntity
  8
ASSI
100
AcDbLine
 62
253
  6
CONTINUOUS
 10
-2.9762972165
 20
14.4606609411
 11
-4.5775780073
 21
13.6579389376
  0
LINE
  5
2F1
100
AcDbEntity
  8
RACCORDO
100
AcDbLine
 62
253
  6
CONTINUOUS
 10
-2.6248037484
 20
15.0289893
 11
-3.1530709201
 21
14.7655504799
  0
LINE
  5
2F2
100
AcDbEntity
  8
ASSI
100
AcDbLine
 62
253
  6
CONTINUOUS
 10
-2.6248037484
 20
15.0289893
 11
-3.1530709201
 21
14.7655504799
  0
LINE
  5
2F3
100
AcDbEntity
  8
RACCORDO
100
AcDbLine
 62
253
  6
CONTINUOUS
 10
-2.4480300447
 20
14.7240997611
 11
-2.9762972165
 21
14.4606609411
  0
LINE
  5
2F4
100
AcDbEntity
  8
ASSI
100
AcDbLine
 62
253
  6
CONTINUOUS
 10
-2.4480300447
 20
14.7240997611
 11
-2.9762972165
 21
14.4606609411
  0
LINE
  5
2F5
100
AcDbEntity
  8
RACCORDO
100
AcDbLine
 62
7
  6
CONTINUOUS
 10
1.7585402557
 20
17.4926871039
 11
-2.9249966239
 21
15.2410631086
  0
LINE
  5
2F6
100
AcDbEntity
  8
ASSI
100
AcDbLine
 62
7
  6
CONTINUOUS
 10
1.7585402557
 20
17.4926871039
 11
-2.9249966239
 21
15.2410631086
  0
LINE
  5
2F7
100
AcDbEntity
  8
RACCORDO
100
AcDbLine
 62
253
  6
CONTINUOUS
 10
-2.2692981454
 20
13.2045598366
 11
-2.9762972165
 21
12.8706162042
  0
LINE
  5
2F8
100
AcDbEntity
  8
ASSI
100
AcDbLine
 62
253
  6
CONTINUOUS
 10
-2.2692981454
 20
13.2045598366
 11
-2.9762972165
 21
12.8706162042
  0
LINE
  5
2F9
100
AcDbEntity
  8
RACCORDO
100
AcDbLine
 62
253
  6
CONTINUOUS
 10
-2.9762972165
 20
13.7336160886
 11
-2.4480300447
 21
14.3765682444
  0
LINE
  5
2FA
100
AcDbEntity
  8
ASSI
100
AcDbLine
 62
253
  6
CONTINUOUS
 10
-2.9762972165
 20
13.7336160886
 11
-2.4480300447
 21
14.3765682444
  0
LINE
  5
2FB
100
AcDbEntity
  8
RACCORDO
100
AcDbLine
 62
7
  6
CONTINUOUS
 10
-2.9762972165
 20
13.6440856223
 11
-2.3769370147
 21
14.3735648601
  0
LINE
  5
2FC
100
AcDbEntity
  8
ASSI
100
AcDbLine
 62
7
  6
CONTINUOUS
 10
-2.9762972165
 20
13.6440856223
 11
-2.3769370147
 21
14.3735648601
  0
LINE
  5
2FD
100
AcDbEntity
  8
RACCORDO
100
AcDbLine
 62
253
  6
CONTINUOUS
 10
-8.4970354801
 20
9.8572049859
 11
-3.9780043417
 21
12.3242769141
  0
LINE
  5
2FE
100
AcDbEntity
  8
ASSI
100
AcDbLine
 62
253
  6
CONTINUOUS
 10
-8.4970354801
 20
9.8572049859
 11
-3.9780043417
 21
12.3242769141
  0
LINE
  5
2FF
100
AcDbEntity
  8
RACCORDO
100
AcDbLine
 62
253
  6
CONTINUOUS
 10
-2.6335134676
 20
12.2555527099
 11
-8.1312027401
 21
9.2542025402
  0
LINE
  5
300
100
AcDbEntity
  8
ASSI
100
AcDbLine
 62
253
  6
CONTINUOUS
 10
-2.6335134676
 20
12.2555527099
 11
-8.1312027401
 21
9.2542025402
  0
LINE
  5
301
100
AcDbEntity
  8
DRAFT
100
AcDbLine
 62
7
  6
CONTINUOUS
 10
-2.2719184563
 20
13.2095479598
 11
3.3191791821
 21
16.146607298
  0
LINE
  5
302
100
AcDbEntity
  8
ASSI
100
AcDbLine
 62
7
  6
CONTINUOUS
 10
-2.2719184563
 20
13.2095479598
 11
3.3191791821
 21
16.146607298
  0
LINE
  5
303
100
AcDbEntity
  8
0
100
AcDbLine
 62
253
  6
CONTINUOUS
 10
16.1509398382
 20
19.7742133653
 11
24.0769207806
 21
23.8209979233
  0
LINE
  5
304
100
AcDbEntity
  8
RACCORDO
100
AcDbLine
 62
253
  6
CONTINUOUS
 10
16.0814634195
 20
19.7388670437
 11
-1.9156370447
 21
10.5827920184
  0
LINE
  5
305
100
AcDbEntity
  8
ASSI
100
AcDbLine
 62
253
  6
CONTINUOUS
 10
16.0814634195
 20
19.7388670437
 11
-1.9156370447
 21
10.5827920184
  0
LINE
  5
306
100
AcDbEntity
  8
0
100
AcDbLine
 62
253
  6
CONTINUOUS
 10
23.5705428031
 20
24.33570591
 11
15.5555561673
 21
20.4424334653
  0
LINE
  5
307
100
AcDbEntity
  8
RACCORDO
100
AcDbLine
 62
253
  6
CONTINUOUS
 10
4.0647061178
 20
14.8607635392
 11
15.4853567362
 21
20.4083341557
  0
LINE
  5
308
100
AcDbEntity
  8
ASSI
100
AcDbLine
 62
253
  6
CONTINUOUS
 10
4.0647061178
 20
14.8607635392
 11
15.4853567362
 21
20.4083341557
  0
LINE
  5
309
100
AcDbEntity
  8
RACCORDO
100
AcDbLine
 62
253
  6
CONTINUOUS
 10
4.4023744517
 20
14.2783718122
 11
15.9852805837
 21
19.9047578964
  0
LINE
  5
30A
100
AcDbEntity
  8
ASSI
100
AcDbLine
 62
253
  6
CONTINUOUS
 10
4.4023744517
 20
14.2783718122
 11
15.9852805837
 21
19.9047578964
  0
LINE
  5
30B
100
AcDbEntity
  8
0
100
AcDbLine
 62
253
  6
CONTINUOUS
 10
24.0769207806
 20
23.8209979233
 11
16.0554800148
 21
19.938857206
  0
LINE
  5
30C
100
AcDbEntity
  8
RACCORDO
100
AcDbLine
 62
253
  6
CONTINUOUS
 10
-1.9156370447
 20
12.594634146
 11
-2.6335134676
 21
12.2555527099
  0
LINE
  5
30D
100
AcDbEntity
  8
ASSI
100
AcDbLine
 62
253
  6
CONTINUOUS
 10
-1.9156370447
 20
12.594634146
 11
-2.6335134676
 21
12.2555527099
  0
LINE
  5
30E
100
AcDbEntity
  8
DRAFT
100
AcDbLine
 62
253
  6
CONTINUOUS
 10
-8.668506805
 20
19.411748657
 11
-8.668506805
 21
17.9780496855
  0
LINE
  5
30F
100
AcDbEntity
  8
ASSI
100
AcDbLine
 62
253
  6
CONTINUOUS
 10
-8.668506805
 20
19.411748657
 11
-8.668506805
 21
17.9780496855
  0
LINE
  5
310
100
AcDbEntity
  8
RACCORDO
100
AcDbLine
 62
253
  6
CONTINUOUS
 10
-8.4584376674
 20
14.8470872562
 11
-8.4584376674
 21
15.927670567
  0
LINE
  5
311
100
AcDbEntity
  8
ASSI
100
AcDbLine
 62
253
  6
CONTINUOUS
 10
-8.4584376674
 20
14.8470872562
 11
-8.4584376674
 21
15.927670567
  0
LINE
  5
312
100
AcDbEntity
  8
DRAFT
100
AcDbLine
 62
7
  6
CONTINUOUS
 10
-7.9614000238
 20
19.7653020476
 11
-7.9614000238
 21
20.3178602369
  0
LINE
  5
313
100
AcDbEntity
  8
ASSI
100
AcDbLine
 62
7
  6
CONTINUOUS
 10
-7.9614000238
 20
19.7653020476
 11
-7.9614000238
 21
20.3178602369
  0
LINE
  5
314
100
AcDbEntity
  8
RACCORDO
100
AcDbLine
 62
253
  6
CONTINUOUS
 10
-7.7533937481
 20
14.8686230195
 11
-7.7533937481
 21
16.1013499918
  0
LINE
  5
315
100
AcDbEntity
  8
ASSI
100
AcDbLine
 62
253
  6
CONTINUOUS
 10
-7.7533937481
 20
14.8686230195
 11
-7.7533937481
 21
16.1013499918
  0
LINE
  5
316
100
AcDbEntity
  8
ASSI
100
AcDbLine
 62
253
  6
CONTINUOUS
 10
-7.6276244012
 20
20.4811805921
 11
-7.6276244012
 21
21.7085311891
  0
LINE
  5
317
100
AcDbEntity
  8
DRAFT
100
AcDbLine
 62
7
  6
CONTINUOUS
 10
-7.6078466332
 20
19.5885253523
 11
-7.6078466332
 21
20.1410835416
  0
LINE
  5
318
100
AcDbEntity
  8
ASSI
100
AcDbLine
 62
7
  6
CONTINUOUS
 10
-7.6078466332
 20
19.5885253523
 11
-7.6078466332
 21
20.1410835416
  0
LINE
  5
319
100
AcDbEntity
  8
0
100
AcDbLine
 62
253
  6
CONTINUOUS
 10
16.5650903138
 20
18.3425797907
 11
24.4975273458
 21
22.3782264918
  0
LINE
  5
31A
100
AcDbEntity
  8
RACCORDO
100
AcDbLine
 62
253
  6
CONTINUOUS
 10
16.4956138952
 20
18.307233469
 11
-1.9156370447
 21
8.9404582349
  0
LINE
  5
31B
100
AcDbEntity
  8
ASSI
100
AcDbLine
 62
253
  6
CONTINUOUS
 10
16.4956138952
 20
18.307233469
 11
-1.9156370447
 21
8.9404582349
  0
LINE
  5
31C
100
AcDbEntity
  8
ASSI
100
AcDbLine
 62
7
  6
CONTINUOUS
 10
-7.5022748939
 20
20.6302087505
 11
-7.5022748939
 21
21.7178428082
  0
LINE
  5
31D
100
AcDbEntity
  8
DRAFT
100
AcDbLine
 62
7
  6
CONTINUOUS
 10
-7.3957145989
 20
16.2806545366
 11
-7.3957145989
 21
15.0682189713
  0
LINE
  5
31E
100
AcDbEntity
  8
ASSI
100
AcDbLine
 62
7
  6
CONTINUOUS
 10
-7.3957145989
 20
16.2806545366
 11
-7.3957145989
 21
15.0682189713
  0
LINE
  5
31F
100
AcDbEntity
  8
DRAFT
100
AcDbLine
 62
253
  6
CONTINUOUS
 10
-7.2542932426
 20
19.411748657
 11
-7.2542932426
 21
18.6784962616
  0
LINE
  5
320
100
AcDbEntity
  8
ASSI
100
AcDbLine
 62
253
  6
CONTINUOUS
 10
-7.2542932426
 20
19.411748657
 11
-7.2542932426
 21
18.6784962616
  0
LINE
  5
321
100
AcDbEntity
  8
RACCORDO
100
AcDbLine
 62
7
  6
CONTINUOUS
 10
-6.3283079515
 20
14.409332349
 11
-6.3283079515
 21
14.0693584149
  0
LINE
  5
322
100
AcDbEntity
  8
ASSI
100
AcDbLine
 62
7
  6
CONTINUOUS
 10
-6.3283079515
 20
14.409332349
 11
-6.3283079515
 21
14.0693584149
  0
LINE
  5
323
100
AcDbEntity
  8
RACCORDO
100
AcDbLine
 62
7
  6
CONTINUOUS
 10
-6.3283079515
 20
-27.443720363
 11
-6.3283079515
 21
-27.5702196586
  0
LINE
  5
324
100
AcDbEntity
  8
ASSI
100
AcDbLine
 62
7
  6
CONTINUOUS
 10
-6.3283079515
 20
-27.443720363
 11
-6.3283079515
 21
-27.5702196586
  0
LINE
  5
325
100
AcDbEntity
  8
RACCORDO
100
AcDbLine
 62
253
  6
CONTINUOUS
 10
-6.2550846468
 20
14.3209440014
 11
-6.2550846468
 21
13.9809700672
  0
LINE
  5
326
100
AcDbEntity
  8
ASSI
100
AcDbLine
 62
253
  6
CONTINUOUS
 10
-6.2550846468
 20
14.3209440014
 11
-6.2550846468
 21
13.9809700672
  0
LINE
  5
327
100
AcDbEntity
  8
RACCORDO
100
AcDbLine
 62
253
  6
CONTINUOUS
 10
-6.2550846468
 20
-27.4129841939
 11
-6.2550846468
 21
-27.6586080063
  0
LINE
  5
328
100
AcDbEntity
  8
ASSI
100
AcDbLine
 62
253
  6
CONTINUOUS
 10
-6.2550846468
 20
-27.4129841939
 11
-6.2550846468
 21
-27.6586080063
  0
LINE
  5
329
100
AcDbEntity
  8
RACCORDO
100
AcDbLine
 62
7
  6
CONTINUOUS
 10
-5.6253149972
 20
13.1093812477
 11
-5.6253149972
 21
13.5633534406
  0
LINE
  5
32A
100
AcDbEntity
  8
ASSI
100
AcDbLine
 62
7
  6
CONTINUOUS
 10
-5.6253149972
 20
13.1093812477
 11
-5.6253149972
 21
13.5633534406
  0
LINE
  5
32B
100
AcDbEntity
  8
RACCORDO
100
AcDbLine
 62
253
  6
CONTINUOUS
 10
-5.5520916925
 20
13.017667644
 11
-5.5520916925
 21
13.5267417882
  0
LINE
  5
32C
100
AcDbEntity
  8
ASSI
100
AcDbLine
 62
253
  6
CONTINUOUS
 10
-5.5520916925
 20
13.017667644
 11
-5.5520916925
 21
13.5267417882
  0
LINE
  5
32D
100
AcDbEntity
  8
RACCORDO
100
AcDbLine
 62
253
  6
CONTINUOUS
 10
-4.9300999669
 20
-28.3211003462
 11
-4.9300999669
 21
-27.9811264121
  0
LINE
  5
32E
100
AcDbEntity
  8
ASSI
100
AcDbLine
 62
253
  6
CONTINUOUS
 10
-4.9300999669
 20
-28.3211003462
 11
-4.9300999669
 21
-27.9811264121
  0
LINE
  5
32F
100
AcDbEntity
  8
RACCORDO
100
AcDbLine
 62
253
  6
CONTINUOUS
 10
-4.9300999669
 20
13.3184777273
 11
-4.9300999669
 21
13.6584516615
  0
LINE
  5
330
100
AcDbEntity
  8
ASSI
100
AcDbLine
 62
253
  6
CONTINUOUS
 10
-4.9300999669
 20
13.3184777273
 11
-4.9300999669
 21
13.6584516615
  0
LINE
  5
331
100
AcDbEntity
  8
RACCORDO
100
AcDbLine
 62
7
  6
CONTINUOUS
 10
-4.8501301866
 20
20.6319660856
 11
-4.8501301866
 21
20.361165793
  0
LINE
  5
332
100
AcDbEntity
  8
ASSI
100
AcDbLine
 62
7
  6
CONTINUOUS
 10
-4.8501301866
 20
20.6319660856
 11
-4.8501301866
 21
20.361165793
  0
LINE
  5
333
100
AcDbEntity
  8
RACCORDO
100
AcDbLine
 62
253
  6
CONTINUOUS
 10
-4.5775780073
 20
-28.32161307
 11
-4.5775780073
 21
-27.9816391359
  0
LINE
  5
334
100
AcDbEntity
  8
ASSI
100
AcDbLine
 62
253
  6
CONTINUOUS
 10
-4.5775780073
 20
-28.32161307
 11
-4.5775780073
 21
-27.9816391359
  0
LINE
  5
335
100
AcDbEntity
  8
RACCORDO
100
AcDbLine
 62
253
  6
CONTINUOUS
 10
-4.5775780073
 20
13.3179650035
 11
-4.5775780073
 21
13.6579389376
  0
LINE
  5
336
100
AcDbEntity
  8
ASSI
100
AcDbLine
 62
253
  6
CONTINUOUS
 10
-4.5775780073
 20
13.3179650035
 11
-4.5775780073
 21
13.6579389376
  0
LINE
  5
337
100
AcDbEntity
  8
RACCORDO
100
AcDbLine
 62
253
  6
CONTINUOUS
 10
-4.2188793588
 20
-27.0046299349
 11
-4.2188793588
 21
-26.5582679219
  0
LINE
  5
338
100
AcDbEntity
  8
ASSI
100
AcDbLine
 62
253
  6
CONTINUOUS
 10
-4.2188793588
 20
-27.0046299349
 11
-4.2188793588
 21
-26.5582679219
  0
LINE
  5
339
100
AcDbEntity
  8
RACCORDO
100
AcDbLine
 62
253
  6
CONTINUOUS
 10
-4.2188793588
 20
12.3510614772
 11
-4.2188793588
 21
13.0398821002
  0
LINE
  5
33A
100
AcDbEntity
  8
ASSI
100
AcDbLine
 62
253
  6
CONTINUOUS
 10
-4.2188793588
 20
12.3510614772
 11
-4.2188793588
 21
13.0398821002
  0
LINE
  5
33B
100
AcDbEntity
  8
RACCORDO
100
AcDbLine
 62
253
  6
CONTINUOUS
 10
-3.8663573992
 20
-27.1301426588
 11
-3.8663573992
 21
-26.4102935222
  0
LINE
  5
33C
100
AcDbEntity
  8
ASSI
100
AcDbLine
 62
253
  6
CONTINUOUS
 10
-3.8663573992
 20
-27.1301426588
 11
-3.8663573992
 21
-26.4102935222
  0
LINE
  5
33D
100
AcDbEntity
  8
RACCORDO
100
AcDbLine
 62
253
  6
CONTINUOUS
 10
-3.8663573992
 20
12.3609606567
 11
-3.8663573992
 21
13.1694614806
  0
LINE
  5
33E
100
AcDbEntity
  8
ASSI
100
AcDbLine
 62
253
  6
CONTINUOUS
 10
-3.8663573992
 20
12.3609606567
 11
-3.8663573992
 21
13.1694614806
  0
LINE
  5
33F
100
AcDbEntity
  8
RACCORDO
100
AcDbLine
 62
7
  6
CONTINUOUS
 10
-2.9762972165
 20
-26.0366824105
 11
-2.9762972165
 21
-27.5415784704
  0
LINE
  5
340
100
AcDbEntity
  8
ASSI
100
AcDbLine
 62
7
  6
CONTINUOUS
 10
-2.9762972165
 20
-26.0366824105
 11
-2.9762972165
 21
-27.5415784704
  0
LINE
  5
341
100
AcDbEntity
  8
RACCORDO
100
AcDbLine
 62
7
  6
CONTINUOUS
 10
-2.9762972165
 20
12.8582417845
 11
-2.9762972165
 21
14.4606609411
  0
LINE
  5
342
100
AcDbEntity
  8
ASSI
100
AcDbLine
 62
7
  6
CONTINUOUS
 10
-2.9762972165
 20
12.8582417845
 11
-2.9762972165
 21
14.4606609411
  0
LINE
  5
343
100
AcDbEntity
  8
RACCORDO
100
AcDbLine
 62
253
  6
CONTINUOUS
 10
-2.4480300447
 20
14.7240997611
 11
-2.4480300447
 21
14.3765682444
  0
LINE
  5
344
100
AcDbEntity
  8
ASSI
100
AcDbLine
 62
253
  6
CONTINUOUS
 10
-2.4480300447
 20
14.7240997611
 11
-2.4480300447
 21
14.3765682444
  0
LINE
  5
345
100
AcDbEntity
  8
RACCORDO
100
AcDbLine
 62
253
  6
CONTINUOUS
 10
-2.4480300447
 20
-26.923035895
 11
-2.4480300447
 21
-27.2705674117
  0
LINE
  5
346
100
AcDbEntity
  8
ASSI
100
AcDbLine
 62
253
  6
CONTINUOUS
 10
-2.4480300447
 20
-26.923035895
 11
-2.4480300447
 21
-27.2705674117
  0
LINE
  5
347
100
AcDbEntity
  8
RACCORDO
100
AcDbLine
 62
7
  6
CONTINUOUS
 10
-2.3758321877
 20
14.8119723933
 11
-2.3758321877
 21
14.3767279143
  0
LINE
  5
348
100
AcDbEntity
  8
ASSI
100
AcDbLine
 62
7
  6
CONTINUOUS
 10
-2.3758321877
 20
14.8119723933
 11
-2.3758321877
 21
14.3767279143
  0
LINE
  5
349
100
AcDbEntity
  8
RACCORDO
100
AcDbLine
 62
7
  6
CONTINUOUS
 10
-2.3758321877
 20
-26.8351632628
 11
-2.3758321877
 21
-27.1826947796
  0
LINE
  5
34A
100
AcDbEntity
  8
ASSI
100
AcDbLine
 62
7
  6
CONTINUOUS
 10
-2.3758321877
 20
-26.8351632628
 11
-2.3758321877
 21
-27.1826947796
  0
LINE
  5
34B
100
AcDbEntity
  8
ASSI
100
AcDbLine
 62
253
  6
CONTINUOUS
 10
-2.3758321877
 20
-27.1826947763
 11
-2.375832205
 21
-27.1827411968
  0
LINE
  5
34C
100
AcDbEntity
  8
ASSI
100
AcDbLine
 62
253
  6
CONTINUOUS
 10
-2.0708805287
 20
17.7045504032
 11
-2.0708805287
 21
18.9316003705
  0
LINE
  5
34D
100
AcDbEntity
  8
ASSI
100
AcDbLine
 62
7
  6
CONTINUOUS
 10
-1.9472864648
 20
17.852714024
 11
-1.9472864648
 21
18.9403905131
  0
LINE
  5
34E
100
AcDbEntity
  8
RACCORDO
100
AcDbLine
 62
7
  6
CONTINUOUS
 10
-1.9156370447
 20
-25.3219982847
 11
-1.9156370447
 21
12.594634146
  0
LINE
  5
34F
100
AcDbEntity
  8
ASSI
100
AcDbLine
 62
7
  6
CONTINUOUS
 10
-1.9156370447
 20
-25.3219982847
 11
-1.9156370447
 21
12.594634146
  0
LINE
  5
350
100
AcDbEntity
  8
RACCORDO
100
AcDbLine
 62
253
  6
CONTINUOUS
 10
2.6400757142
 20
16.7588289125
 11
2.6400757142
 21
16.182077269
  0
LINE
  5
351
100
AcDbEntity
  8
ASSI
100
AcDbLine
 62
253
  6
CONTINUOUS
 10
2.6400757142
 20
16.7588289125
 11
2.6400757142
 21
16.182077269
  0
LINE
  5
352
100
AcDbEntity
  8
RACCORDO
100
AcDbLine
 62
253
  6
CONTINUOUS
 10
2.6400757142
 20
-20.3233918628
 11
2.6400757142
 21
-20.5945362527
  0
LINE
  5
353
100
AcDbEntity
  8
ASSI
100
AcDbLine
 62
253
  6
CONTINUOUS
 10
2.6400757142
 20
-20.3233918628
 11
2.6400757142
 21
-20.5945362527
  0
LINE
  5
354
100
AcDbEntity
  8
RACCORDO
100
AcDbLine
 62
7
  6
CONTINUOUS
 10
2.7804058141
 20
17.0593334212
 11
2.7804058141
 21
16.3557418616
  0
LINE
  5
355
100
AcDbEntity
  8
ASSI
100
AcDbLine
 62
7
  6
CONTINUOUS
 10
2.7804058141
 20
17.0593334212
 11
2.7804058141
 21
16.3557418616
  0
LINE
  5
356
100
AcDbEntity
  8
RACCORDO
100
AcDbLine
 62
7
  6
CONTINUOUS
 10
2.7804058141
 20
-20.2496750621
 11
2.7804058141
 21
-20.5477115761
  0
LINE
  5
357
100
AcDbEntity
  8
ASSI
100
AcDbLine
 62
7
  6
CONTINUOUS
 10
2.7804058141
 20
-20.2496750621
 11
2.7804058141
 21
-20.5477115761
  0
LINE
  5
358
100
AcDbEntity
  8
0
100
AcDbLine
 62
7
  6
CONTINUOUS
 10
24.4975273458
 20
9.9968128872
 11
16.5650903138
 21
5.8896733827
  0
LINE
  5
359
100
AcDbEntity
  8
SMUSSO
100
AcDbLine
 62
7
  6
CONTINUOUS
 10
24.4854284934
 20
9.8170322689
 11
16.4956138952
 21
5.7670983735
  0
LINE
  5
35A
100
AcDbEntity
  8
ASSI
100
AcDbLine
 62
7
  6
CONTINUOUS
 10
24.4854284934
 20
9.8170322689
 11
16.4956138952
 21
5.7670983735
  0
LINE
  5
35B
100
AcDbEntity
  8
DRAFT
100
AcDbLine
 62
253
  6
CONTINUOUS
 10
20.490507967
 20
-8.5323648021
 11
19.7526309801
 21
-8.1634263086
  0
LINE
  5
35C
100
AcDbEntity
  8
ASSI
100
AcDbLine
 62
253
  6
CONTINUOUS
 10
20.490507967
 20
-8.5323648021
 11
19.7526309801
 21
-8.1634263086
  0
LINE
  5
35D
100
AcDbEntity
  8
RACCORDO
100
AcDbLine
 62
253
  6
CONTINUOUS
 10
-9.5129738733
 20
8.1170870216
 11
-24.3378199509
 21
15.5295100604
  0
LINE
  5
35E
100
AcDbEntity
  8
ASSI
100
AcDbLine
 62
253
  6
CONTINUOUS
 10
-9.5129738733
 20
8.1170870216
 11
-24.3378199509
 21
15.5295100604
  0
LINE
  5
35F
100
AcDbEntity
  8
DRAFT
100
AcDbLine
 62
7
  6
CONTINUOUS
 10
21.9107025712
 20
-7.0653915058
 11
21.0653333439
 21
-6.6427068922
  0
LINE
  5
360
100
AcDbEntity
  8
ASSI
100
AcDbLine
 62
7
  6
CONTINUOUS
 10
21.9107025712
 20
-7.0653915058
 11
21.0653333439
 21
-6.6427068922
  0
LINE
  5
361
100
AcDbEntity
  8
0
100
AcDbLine
 62
253
  6
CONTINUOUS
 10
20.117745184
 20
-5.1484874124
 11
20.5350032579
 21
-5.3571164493
  0
LINE
  5
362
100
AcDbEntity
  8
DRAFT
100
AcDbLine
 62
7
  6
CONTINUOUS
 10
23.4325447375
 20
-6.2910725861
 11
23.3280750437
 21
-6.2388377392
  0
LINE
  5
363
100
AcDbEntity
  8
ASSI
100
AcDbLine
 62
7
  6
CONTINUOUS
 10
23.4325447375
 20
-6.2910725861
 11
23.3280750437
 21
-6.2388377392
  0
LINE
  5
364
100
AcDbEntity
  8
RACCORDO
100
AcDbLine
 62
253
  6
CONTINUOUS
 10
-8.4970354801
 20
9.8572049859
 11
-23.3452539409
 21
17.2813142163
  0
LINE
  5
365
100
AcDbEntity
  8
ASSI
100
AcDbLine
 62
253
  6
CONTINUOUS
 10
-8.4970354801
 20
9.8572049859
 11
-23.3452539409
 21
17.2813142163
  0
LINE
  5
366
100
AcDbEntity
  8
DRAFT
100
AcDbLine
 62
253
  6
CONTINUOUS
 10
20.490507967
 20
-4.2022377832
 11
19.7526309801
 21
-3.8332992897
  0
LINE
  5
367
100
AcDbEntity
  8
ASSI
100
AcDbLine
 62
253
  6
CONTINUOUS
 10
20.490507967
 20
-4.2022377832
 11
19.7526309801
 21
-3.8332992897
  0
LINE
  5
368
100
AcDbEntity
  8
RACCORDO
100
AcDbLine
 62
7
  6
CONTINUOUS
 10
24.4852943267
 20
-5.7567872089
 11
24.3887352155
 21
-5.7085076533
  0
LINE
  5
369
100
AcDbEntity
  8
ASSI
100
AcDbLine
 62
7
  6
CONTINUOUS
 10
24.4852943267
 20
-5.7567872089
 11
24.3887352155
 21
-5.7085076533
  0
LINE
  5
36A
100
AcDbEntity
  8
0
100
AcDbLine
 62
253
  6
CONTINUOUS
 10
20.117745184
 20
-0.8183603934
 11
20.5350032579
 21
-1.0269894304
  0
LINE
  5
36B
100
AcDbEntity
  8
0
100
AcDbLine
 62
7
  6
CONTINUOUS
 10
8.5495433169
 20
23.9454398905
 11
8.5495433169
 21
23.8762408654
  0
LINE
  5
36C
100
AcDbEntity
  8
0
100
AcDbLine
 62
7
  6
CONTINUOUS
 10
8.9384520465
 20
25.0570042714
 11
8.9384520465
 21
24.1315801641
  0
LINE
  5
36D
100
AcDbEntity
  8
RACCORDO
100
AcDbLine
 62
7
  6
CONTINUOUS
 10
24.4975273458
 20
1.5097639301
 11
20.490507967
 21
-0.5649310873
  0
LINE
  5
36E
100
AcDbEntity
  8
ASSI
100
AcDbLine
 62
7
  6
CONTINUOUS
 10
24.4975273458
 20
1.5097639301
 11
20.490507967
 21
-0.5649310873
  0
LINE
  5
36F
100
AcDbEntity
  8
DRAFT
100
AcDbLine
 62
7
  6
CONTINUOUS
 10
23.4325447375
 20
-1.9609455672
 11
23.3280750437
 21
-1.9087107203
  0
LINE
  5
370
100
AcDbEntity
  8
ASSI
100
AcDbLine
 62
7
  6
CONTINUOUS
 10
23.4325447375
 20
-1.9609455672
 11
23.3280750437
 21
-1.9087107203
  0
LINE
  5
371
100
AcDbEntity
  8
RACCORDO
100
AcDbLine
 62
7
  6
CONTINUOUS
 10
-4.2188793588
 20
12.3510614772
 11
-5.5520916925
 21
13.017667644
  0
LINE
  5
372
100
AcDbEntity
  8
ASSI
100
AcDbLine
 62
7
  6
CONTINUOUS
 10
-4.2188793588
 20
12.3510614772
 11
-5.5520916925
 21
13.017667644
  0
LINE
  5
373
100
AcDbEntity
  8
RACCORDO
100
AcDbLine
 62
7
  6
CONTINUOUS
 10
-17.5831975233
 20
19.0332205594
 11
-18.9164098569
 21
19.6998267263
  0
LINE
  5
374
100
AcDbEntity
  8
ASSI
100
AcDbLine
 62
7
  6
CONTINUOUS
 10
-17.5831975233
 20
19.0332205594
 11
-18.9164098569
 21
19.6998267263
  0
LINE
  5
375
100
AcDbEntity
  8
RACCORDO
100
AcDbLine
 62
7
  6
CONTINUOUS
 10
-13.9697447671
 20
17.6027408061
 11
-8.4584376674
 21
14.8470872562
  0
LINE
  5
376
100
AcDbEntity
  8
ASSI
100
AcDbLine
 62
7
  6
CONTINUOUS
 10
-13.9697447671
 20
17.6027408061
 11
-8.4584376674
 21
14.8470872562
  0
LINE
  5
377
100
AcDbEntity
  8
RACCORDO
100
AcDbLine
 62
7
  6
CONTINUOUS
 10
-19.5544295148
 20
20.5279106994
 11
-18.2294448349
 21
19.8654183594
  0
LINE
  5
378
100
AcDbEntity
  8
ASSI
100
AcDbLine
 62
7
  6
CONTINUOUS
 10
-19.5544295148
 20
20.5279106994
 11
-18.2294448349
 21
19.8654183594
  0
LINE
  5
379
100
AcDbEntity
  8
RACCORDO
100
AcDbLine
 62
7
  6
CONTINUOUS
 10
-6.1901113503
 20
13.8457516171
 11
-4.8651266705
 21
13.1832592772
  0
LINE
  5
37A
100
AcDbEntity
  8
ASSI
100
AcDbLine
 62
7
  6
CONTINUOUS
 10
-6.1901113503
 20
13.8457516171
 11
-4.8651266705
 21
13.1832592772
  0
LINE
  5
37B
100
AcDbEntity
  8
RACCORDO
100
AcDbLine
 62
7
  6
CONTINUOUS
 10
24.4852943267
 20
-1.42666019
 11
24.3887352155
 21
-1.3783806344
  0
LINE
  5
37C
100
AcDbEntity
  8
ASSI
100
AcDbLine
 62
7
  6
CONTINUOUS
 10
24.4852943267
 20
-1.42666019
 11
24.3887352155
 21
-1.3783806344
  0
LINE
  5
37D
100
AcDbEntity
  8
RACCORDO
100
AcDbLine
 62
253
  6
CONTINUOUS
 10
-19.6194028112
 20
20.6631291495
 11
-18.2944181314
 21
20.0006368095
  0
LINE
  5
37E
100
AcDbEntity
  8
ASSI
100
AcDbLine
 62
253
  6
CONTINUOUS
 10
-19.6194028112
 20
20.6631291495
 11
-18.2944181314
 21
20.0006368095
  0
LINE
  5
37F
100
AcDbEntity
  8
RACCORDO
100
AcDbLine
 62
253
  6
CONTINUOUS
 10
-6.2550846468
 20
13.9809700672
 11
-4.9300999669
 21
13.3184777273
  0
LINE
  5
380
100
AcDbEntity
  8
ASSI
100
AcDbLine
 62
253
  6
CONTINUOUS
 10
-6.2550846468
 20
13.9809700672
 11
-4.9300999669
 21
13.3184777273
  0
LINE
  5
381
100
AcDbEntity
  8
RACCORDO
100
AcDbLine
 62
253
  6
CONTINUOUS
 10
-4.9300999669
 20
13.6584516615
 11
-6.2550846468
 21
14.3209440014
  0
LINE
  5
382
100
AcDbEntity
  8
ASSI
100
AcDbLine
 62
253
  6
CONTINUOUS
 10
-4.9300999669
 20
13.6584516615
 11
-6.2550846468
 21
14.3209440014
  0
LINE
  5
383
100
AcDbEntity
  8
RACCORDO
100
AcDbLine
 62
253
  6
CONTINUOUS
 10
-18.2944181314
 20
20.3406107437
 11
-19.6194028112
 21
21.0031030836
  0
LINE
  5
384
100
AcDbEntity
  8
ASSI
100
AcDbLine
 62
253
  6
CONTINUOUS
 10
-18.2944181314
 20
20.3406107437
 11
-19.6194028112
 21
21.0031030836
  0
LINE
  5
385
100
AcDbEntity
  8
DRAFT
100
AcDbLine
 62
7
  6
CONTINUOUS
 10
-16.3406153809
 20
19.5406693623
 11
-14.1161913765
 21
18.4284573602
  0
LINE
  5
386
100
AcDbEntity
  8
ASSI
100
AcDbLine
 62
7
  6
CONTINUOUS
 10
-16.3406153809
 20
19.5406693623
 11
-14.1161913765
 21
18.4284573602
  0
LINE
  5
387
100
AcDbEntity
  8
DRAFT
100
AcDbLine
 62
7
  6
CONTINUOUS
 10
-7.3957145989
 20
15.0682189713
 11
-6.301673947
 21
14.5211986454
  0
LINE
  5
388
100
AcDbEntity
  8
ASSI
100
AcDbLine
 62
7
  6
CONTINUOUS
 10
-7.3957145989
 20
15.0682189713
 11
-6.301673947
 21
14.5211986454
  0
LINE
  5
389
100
AcDbEntity
  8
RACCORDO
100
AcDbLine
 62
253
  6
CONTINUOUS
 10
-4.754351711
 20
13.9628284764
 11
-6.0793363908
 21
14.6253208163
  0
LINE
  5
38A
100
AcDbEntity
  8
ASSI
100
AcDbLine
 62
253
  6
CONTINUOUS
 10
-4.754351711
 20
13.9628284764
 11
-6.0793363908
 21
14.6253208163
  0
LINE
  5
38B
100
AcDbEntity
  8
RACCORDO
100
AcDbLine
 62
253
  6
CONTINUOUS
 10
-18.1186698754
 20
20.6449875586
 11
-19.4436545552
 21
21.3074798985
  0
LINE
  5
38C
100
AcDbEntity
  8
ASSI
100
AcDbLine
 62
253
  6
CONTINUOUS
 10
-18.1186698754
 20
20.6449875586
 11
-19.4436545552
 21
21.3074798985
  0
LINE
  5
38D
100
AcDbEntity
  8
RACCORDO
100
AcDbLine
 62
253
  6
CONTINUOUS
 10
-8.4584376674
 20
15.927670567
 11
-13.9697447671
 21
18.6833241169
  0
LINE
  5
38E
100
AcDbEntity
  8
ASSI
100
AcDbLine
 62
253
  6
CONTINUOUS
 10
-8.4584376674
 20
15.927670567
 11
-13.9697447671
 21
18.6833241169
  0
LINE
  5
38F
100
AcDbEntity
  8
RACCORDO
100
AcDbLine
 62
253
  6
CONTINUOUS
 10
-8.0356152876
 20
16.0300601315
 11
-14.1113699374
 21
19.0679374564
  0
LINE
  5
390
100
AcDbEntity
  8
ASSI
100
AcDbLine
 62
253
  6
CONTINUOUS
 10
-8.0356152876
 20
16.0300601315
 11
-14.1113699374
 21
19.0679374564
  0
LINE
  5
391
100
AcDbEntity
  8
RACCORDO
100
AcDbLine
 62
7
  6
CONTINUOUS
 10
-16.3406153809
 20
20.2402184543
 11
-14.9325726459
 21
19.5361970868
  0
LINE
  5
392
100
AcDbEntity
  8
ASSI
100
AcDbLine
 62
7
  6
CONTINUOUS
 10
-16.3406153809
 20
20.2402184543
 11
-14.9325726459
 21
19.5361970868
  0
LINE
  5
393
100
AcDbEntity
  8
RACCORDO
100
AcDbLine
 62
7
  6
CONTINUOUS
 10
-2.9762972165
 20
13.5580593721
 11
-2.2692981454
 21
13.2045598366
  0
LINE
  5
394
100
AcDbEntity
  8
ASSI
100
AcDbLine
 62
7
  6
CONTINUOUS
 10
-2.9762972165
 20
13.5580593721
 11
-2.2692981454
 21
13.2045598366
  0
LINE
  5
395
100
AcDbEntity
  8
0
100
AcDbLine
 62
7
  6
CONTINUOUS
 10
12.0850772228
 20
28.4041817902
 11
12.0850772228
 21
29.4435705787
  0
LINE
  5
396
100
AcDbEntity
  8
DRAFT
100
AcDbLine
 62
7
  6
CONTINUOUS
 10
12.2293301558
 20
28.3320553237
 11
12.2293301558
 21
27.724916582
  0
LINE
  5
397
100
AcDbEntity
  8
ASSI
100
AcDbLine
 62
7
  6
CONTINUOUS
 10
12.2293301558
 20
28.3320553237
 11
12.2293301558
 21
27.724916582
  0
LINE
  5
398
100
AcDbEntity
  8
0
100
AcDbLine
 62
7
  6
CONTINUOUS
 10
12.4739859525
 20
26.8247712244
 11
12.4739859525
 21
25.8237644688
  0
LINE
  5
399
100
AcDbEntity
  8
0
100
AcDbLine
 62
7
  6
CONTINUOUS
 10
12.5800519696
 20
29.9909847244
 11
12.5800519696
 21
29.9572724819
  0
LINE
  5
39A
100
AcDbEntity
  8
RACCORDO
100
AcDbLine
 62
7
  6
CONTINUOUS
 10
12.5800519696
 20
27.5495556751
 11
12.5800519696
 21
28.1566944168
  0
LINE
  5
39B
100
AcDbEntity
  8
SMUSSO
100
AcDbLine
 62
7
  6
CONTINUOUS
 10
12.7199853235
 20
29.887305805
 11
12.7199853235
 21
29.7474515628
  0
LINE
  5
39C
100
AcDbEntity
  8
ASSI
100
AcDbLine
 62
7
  6
CONTINUOUS
 10
12.7199853235
 20
29.887305805
 11
12.7199853235
 21
29.7540702912
  0
LINE
  5
39D
100
AcDbEntity
  8
RACCORDO
100
AcDbLine
 62
7
  6
CONTINUOUS
 10
24.4975273458
 20
-2.1275427658
 11
20.490507967
 21
-4.2022377832
  0
LINE
  5
39E
100
AcDbEntity
  8
ASSI
100
AcDbLine
 62
7
  6
CONTINUOUS
 10
24.4975273458
 20
-2.1275427658
 11
20.490507967
 21
-4.2022377832
  0
LINE
  5
39F
100
AcDbEntity
  8
DRAFT
100
AcDbLine
 62
7
  6
CONTINUOUS
 10
23.4325447375
 20
-1.9609455672
 11
19.7526309801
 21
-3.8332992897
  0
LINE
  5
3A0
100
AcDbEntity
  8
ASSI
100
AcDbLine
 62
7
  6
CONTINUOUS
 10
23.4325447375
 20
-1.9609455672
 11
19.7526309801
 21
-3.8332992897
  0
LINE
  5
3A1
100
AcDbEntity
  8
ASSI
100
AcDbLine
 62
7
  6
CONTINUOUS
 10
23.3280750437
 20
-1.9087107203
 11
24.3887352155
 21
-1.3783806344
  0
LINE
  5
3A2
100
AcDbEntity
  8
RACCORDO
100
AcDbLine
 62
7
  6
CONTINUOUS
 10
-4.8044215008
 20
13.1621438427
 11
-4.1800162514
 21
13.0317674473
  0
LINE
  5
3A3
100
AcDbEntity
  8
ASSI
100
AcDbLine
 62
7
  6
CONTINUOUS
 10
-4.8044215008
 20
13.1621438427
 11
-4.1800162514
 21
13.0317674473
  0
LINE
  5
3A4
100
AcDbEntity
  8
RACCORDO
100
AcDbLine
 62
253
  6
CONTINUOUS
 10
-4.5775780073
 20
13.3179650035
 11
-3.8663573992
 21
13.1694614806
  0
LINE
  5
3A5
100
AcDbEntity
  8
ASSI
100
AcDbLine
 62
253
  6
CONTINUOUS
 10
-4.5775780073
 20
13.3179650035
 11
-3.8663573992
 21
13.1694614806
  0
LINE
  5
3A6
100
AcDbEntity
  8
ASSI
100
AcDbLine
 62
253
  6
CONTINUOUS
 10
-2.5140287646
 20
15.035579179
 11
-2.5140609166
 21
15.0355952472
  0
LINE
  5
3A7
100
AcDbEntity
  8
DRAFT
100
AcDbLine
 62
7
  6
CONTINUOUS
 10
-13.6182542733
 20
19.3919243739
 11
-7.3957145989
 21
16.2806545366
  0
LINE
  5
3A8
100
AcDbEntity
  8
ASSI
100
AcDbLine
 62
7
  6
CONTINUOUS
 10
-13.6182542733
 20
19.3919243739
 11
-7.3957145989
 21
16.2806545366
  0
LINE
  5
3A9
100
AcDbEntity
  8
RACCORDO
100
AcDbLine
 62
7
  6
CONTINUOUS
 10
-17.8608979521
 20
22.1194639959
 11
-16.5173890846
 21
21.4477095621
  0
LINE
  5
3AA
100
AcDbEntity
  8
ASSI
100
AcDbLine
 62
7
  6
CONTINUOUS
 10
-17.8608979521
 20
22.1194639959
 11
-16.5173890846
 21
21.4477095621
  0
LINE
  5
3AB
100
AcDbEntity
  8
RACCORDO
100
AcDbLine
 62
7
  6
CONTINUOUS
 10
-4.4965797876
 20
15.4373049137
 11
-3.1530709201
 21
14.7655504799
  0
LINE
  5
3AC
100
AcDbEntity
  8
ASSI
100
AcDbLine
 62
7
  6
CONTINUOUS
 10
-4.4965797876
 20
15.4373049137
 11
-3.1530709201
 21
14.7655504799
  0
LINE
  5
3AD
100
AcDbEntity
  8
DRAFT
100
AcDbLine
 62
7
  6
CONTINUOUS
 10
-12.2747513891
 20
19.4222413245
 11
-7.3250039208
 21
16.9473675904
  0
LINE
  5
3AE
100
AcDbEntity
  8
ASSI
100
AcDbLine
 62
7
  6
CONTINUOUS
 10
-12.2747513891
 20
19.4222413245
 11
-7.3250039208
 21
16.9473675904
  0
LINE
  5
3AF
100
AcDbEntity
  8
DRAFT
100
AcDbLine
 62
7
  6
CONTINUOUS
 10
-8.8099281613
 20
17.7821922521
 11
-8.7872164644
 21
17.7708364036
  0
LINE
  5
3B0
100
AcDbEntity
  8
ASSI
100
AcDbLine
 62
7
  6
CONTINUOUS
 10
-8.8099281613
 20
17.7821922521
 11
-8.7872164644
 21
17.7708364036
  0
LINE
  5
3B1
100
AcDbEntity
  8
RACCORDO
100
AcDbLine
 62
253
  6
CONTINUOUS
 10
-17.3264480734
 20
22.3798114624
 11
-15.9891219128
 21
21.7111483822
  0
LINE
  5
3B2
100
AcDbEntity
  8
ASSI
100
AcDbLine
 62
253
  6
CONTINUOUS
 10
-17.3264480734
 20
22.3798114624
 11
-15.9891219128
 21
21.7111483822
  0
LINE
  5
3B3
100
AcDbEntity
  8
RACCORDO
100
AcDbLine
 62
253
  6
CONTINUOUS
 10
-3.9621299089
 20
15.6976523802
 11
-2.6248037484
 21
15.0289893
  0
LINE
  5
3B4
100
AcDbEntity
  8
ASSI
100
AcDbLine
 62
253
  6
CONTINUOUS
 10
-3.9621299089
 20
15.6976523802
 11
-2.6248037484
 21
15.0289893
  0
LINE
  5
3B5
100
AcDbEntity
  8
RACCORDO
100
AcDbLine
 62
7
  6
CONTINUOUS
 10
-17.2156731138
 20
22.3864013536
 11
-15.8783469533
 21
21.7177382733
  0
LINE
  5
3B6
100
AcDbEntity
  8
ASSI
100
AcDbLine
 62
7
  6
CONTINUOUS
 10
-17.2156731138
 20
22.3864013536
 11
-15.8783469533
 21
21.7177382733
  0
LINE
  5
3B7
100
AcDbEntity
  8
RACCORDO
100
AcDbLine
 62
7
  6
CONTINUOUS
 10
-3.8513549494
 20
15.7042422713
 11
-2.5140287888
 21
15.0355791911
  0
LINE
  5
3B8
100
AcDbEntity
  8
ASSI
100
AcDbLine
 62
7
  6
CONTINUOUS
 10
-3.8513549494
 20
15.7042422713
 11
-2.5140287888
 21
15.0355791911
  0
LINE
  5
3B9
100
AcDbEntity
  8
0
100
AcDbLine
 62
7
  6
CONTINUOUS
 10
16.4956138952
 20
5.924411592
 11
16.5650903138
 21
5.8896733827
  0
LINE
  5
3BA
100
AcDbEntity
  8
RACCORDO
100
AcDbLine
 62
7
  6
CONTINUOUS
 10
-7.7493218374
 20
18.4643246554
 11
-6.0108419404
 21
17.595084707
  0
LINE
  5
3BB
100
AcDbEntity
  8
ASSI
100
AcDbLine
 62
7
  6
CONTINUOUS
 10
-7.7493218374
 20
18.4643246554
 11
-6.0108419404
 21
17.595084707
  0
LINE
  5
3BC
100
AcDbEntity
  8
RACCORDO
100
AcDbLine
 62
253
  6
CONTINUOUS
 10
-5.4508441761
 20
17.871093405
 11
-6.8969405086
 21
18.5941415713
  0
LINE
  5
3BD
100
AcDbEntity
  8
ASSI
100
AcDbLine
 62
253
  6
CONTINUOUS
 10
-5.4508441761
 20
17.871093405
 11
-6.8969405086
 21
18.5941415713
  0
LINE
  5
3BE
100
AcDbEntity
  8
RACCORDO
100
AcDbLine
 62
7
  6
CONTINUOUS
 10
4.4023744517
 20
14.2783718122
 11
3.3191791821
 21
16.146607298
  0
LINE
  5
3BF
100
AcDbEntity
  8
ASSI
100
AcDbLine
 62
7
  6
CONTINUOUS
 10
4.4023744517
 20
14.2783718122
 11
3.3191791821
 21
16.146607298
  0
LINE
  5
3C0
100
AcDbEntity
  8
RACCORDO
100
AcDbLine
 62
253
  6
CONTINUOUS
 10
-4.2193935872
 20
-27.0043728207
 11
-4.8417116193
 21
-27.7494322382
  0
LINE
  5
3C1
100
AcDbEntity
  8
ASSI
100
AcDbLine
 62
253
  6
CONTINUOUS
 10
-4.2193935872
 20
-27.0043728207
 11
-4.8417116193
 21
-27.7494322382
  0
LINE
  5
3C2
100
AcDbEntity
  8
RACCORDO
100
AcDbLine
 62
253
  6
CONTINUOUS
 10
-3.8663573992
 20
-27.1301426588
 11
-4.5775780073
 21
-27.9816391359
  0
LINE
  5
3C3
100
AcDbEntity
  8
ASSI
100
AcDbLine
 62
253
  6
CONTINUOUS
 10
-3.8663573992
 20
-27.1301426588
 11
-4.5775780073
 21
-27.9816391359
  0
LINE
  5
3C4
100
AcDbEntity
  8
RACCORDO
100
AcDbLine
 62
7
  6
CONTINUOUS
 10
24.4975273458
 20
-2.8203630889
 11
20.490507967
 21
-4.8950581062
  0
LINE
  5
3C5
100
AcDbEntity
  8
ASSI
100
AcDbLine
 62
7
  6
CONTINUOUS
 10
24.4975273458
 20
-2.8203630889
 11
20.490507967
 21
-4.8950581062
  0
LINE
  5
3C6
100
AcDbEntity
  8
0
100
AcDbLine
 62
7
  6
CONTINUOUS
 10
19.1833021939
 20
-8.1980149178
 11
21.0653333439
 21
-7.2569993428
  0
LINE
  5
3C7
100
AcDbEntity
  8
ASSI
100
AcDbLine
 62
7
  6
CONTINUOUS
 10
23.3280750437
 20
-6.2388377392
 11
24.3887352155
 21
-5.7085076533
  0
LINE
  5
3C8
100
AcDbEntity
  8
RACCORDO
100
AcDbLine
 62
7
  6
CONTINUOUS
 10
-18.1687396652
 20
19.8443029249
 11
-17.5443335808
 21
19.7139263551
  0
LINE
  5
3C9
100
AcDbEntity
  8
ASSI
100
AcDbLine
 62
7
  6
CONTINUOUS
 10
-18.1687396652
 20
19.8443029249
 11
-17.5443335808
 21
19.7139263551
  0
LINE
  5
3CA
100
AcDbEntity
  8
RACCORDO
100
AcDbLine
 62
253
  6
CONTINUOUS
 10
-17.9418961717
 20
20.0001240857
 11
-17.2306755636
 21
19.8516205628
  0
LINE
  5
3CB
100
AcDbEntity
  8
ASSI
100
AcDbLine
 62
253
  6
CONTINUOUS
 10
-17.9418961717
 20
20.0001240857
 11
-17.2306755636
 21
19.8516205628
  0
LWPOLYLINE
  5
3CC
100
AcDbEntity
  8
ASSI
100
AcDbPolyline
 62
7
  6
CONTINUOUS
 90
7
 70
0
 10
-6.8177557501
 20
18.6024338714
 10
-6.8358621471
 20
18.6107564117
 10
-6.8541800729
 20
18.6184439343
 10
-6.8726594123
 20
18.6255195569
 10
-6.8912448282
 20
18.6320073151
 10
-6.909953961
 20
18.6379555063
 10
-6.928749731
 20
18.6433904111
  0
LWPOLYLINE
  5
3CD
100
AcDbEntity
  8
RACCORDO
100
AcDbPolyline
 62
7
  6
CONTINUOUS
 90
80
 70
0
 10
-6.8190333794
 20
18.603021129
 10
-6.8213033515
 20
18.604124474
 10
-6.8392465487
 20
18.6122301505
 10
-6.8571469585
 20
18.6196243044
 10
-6.8748933413
 20
18.6263315851
 10
-6.892472216
 20
18.6324149105
 10
-6.9099626662
 20
18.6379581455
 10
-6.9273346437
 20
18.6429991254
 10
-6.9445435244
 20
18.6475691508
 10
-6.9616491527
 20
18.6517223687
 10
-6.9786327629
 20
18.6554864233
 10
-6.9954726077
 20
18.6588859986
 10
-7.012224062
 20
18.6619573491
 10
-7.0288867764
 20
18.664721097
 10
-7.0454390808
 20
18.6671925002
 10
-7.0619034338
 20
18.6693916429
 10
-7.0782830248
 20
18.6713332698
 10
-7.0945609883
 20
18.6730284523
 10
-7.1107284083
 20
18.6744885067
 10
-7.1267799655
 20
18.6757242572
 10
-7.1427111137
 20
18.676745762
 10
-7.1585130589
 20
18.6775621536
 10
-7.1741812675
 20
18.6781822816
 10
-7.1897126759
 20
18.6786144815
 10
-7.205100042
 20
18.6788665101
 10
-7.2203396042
 20
18.6789458476
 10
-7.2354291127
 20
18.6788595841
 10
-7.2503631926
 20
18.6786144936
 10
-7.2651403796
 20
18.6782170232
 10
-7.2797573921
 20
18.677673375
 10
-7.2942058853
 20
18.6769898072
 10
-7.3084886653
 20
18.676171905
 10
-7.3225992958
 20
18.6752255308
 10
-7.3365154934
 20
18.674157842
 10
-7.3502365459
 20
18.6729746481
 10
-7.3637607763
 20
18.6716816645
 10
-7.3770645428
 20
18.6702868825
 10
-7.390141213
 20
18.6687969541
 10
-7.4029963446
 20
18.6672170428
 10
-7.4156246009
 20
18.6655534444
 10
-7.4280177643
 20
18.6638129078
 10
-7.4401839558
 20
18.6619998338
 10
-7.4521420178
 20
18.6601164887
 10
-7.4638913982
 20
18.6581677004
 10
-7.475432833
 20
18.6561580048
 10
-7.486786482
 20
18.6540882054
 10
-7.4979529042
 20
18.6519622057
 10
-7.5089317809
 20
18.6497840057
 10
-7.5197412794
 20
18.6475536827
 10
-7.5303830866
 20
18.6452742944
 10
-7.5408556512
 20
18.6429495394
 10
-7.5511716401
 20
18.640579822
 10
-7.5613315467
 20
18.6381680572
 10
-7.571334903
 20
18.6357173783
 10
-7.5811923326
 20
18.6332280586
 10
-7.5909039964
 20
18.630702812
 10
-7.6004695631
 20
18.6281444605
 10
-7.6098982995
 20
18.6255531632
 10
-7.6191910689
 20
18.6229311996
 10
-7.6283465339
 20
18.6202814676
 10
-7.6373700623
 20
18.6176048943
 10
-7.6462615688
 20
18.6149039214
 10
-7.6550203914
 20
18.612181191
 10
-7.6636504196
 20
18.609437887
 10
-7.6721515695
 20
18.6066764167
 10
-7.6805227982
 20
18.603899492
 10
-7.6887660289
 20
18.6011088756
 10
-7.6968811971
 20
18.5983069467
 10
-7.704866804
 20
18.595496639
 10
-7.7127219314
 20
18.592680688
 10
-7.7204456879
 20
18.5898618881
 10
-7.7280369225
 20
18.5870431245
 10
-7.7354939148
 20
18.5842275708
 10
-7.742814118
 20
18.5814187339
 10
-7.7499973988
 20
18.5786192694
 10
-7.7570448067
 20
18.5758313383
 10
-7.7639558505
 20
18.5730577249
 10
-7.7707272397
 20
18.5703023532
 10
-7.7773552063
 20
18.5675694276
 10
-7.7901634005
 20
18.5621890785
  0
LINE
  5
3CE
100
AcDbEntity
  8
ASSI
100
AcDbLine
 62
7
  6
CONTINUOUS
 10
-6.809985891
 20
18.5986242094
 11
-6.8177557501
 21
18.6024338714
  0
LINE
  5
3CF
100
AcDbEntity
  8
RACCORDO
100
AcDbLine
 62
7
  6
CONTINUOUS
 10
-5.4025400379
 20
17.8949012899
 11
-6.8099659321
 21
18.598614237
  0
LINE
  5
3D0
100
AcDbEntity
  8
ASSI
100
AcDbLine
 62
7
  6
CONTINUOUS
 10
-5.4025400379
 20
17.8949012899
 11
-6.8099659321
 21
18.598614237
  0
LINE
  5
3D1
100
AcDbEntity
  8
ASSI
100
AcDbLine
 62
7
  6
CONTINUOUS
 10
-4.807328176
 20
18.1882661237
 11
-7.2542932426
 21
19.411748657
  0
LINE
  5
3D2
100
AcDbEntity
  8
0
100
AcDbLine
 62
7
  6
CONTINUOUS
 10
-7.6078466332
 20
19.5885253523
 11
-7.9614000238
 21
19.7653020476
  0
LINE
  5
3D3
100
AcDbEntity
  8
ASSI
100
AcDbLine
 62
7
  6
CONTINUOUS
 10
-7.6078466332
 20
19.5885253523
 11
-7.9614000238
 21
19.7653020476
  0
LINE
  5
3D4
100
AcDbEntity
  8
DRAFT
100
AcDbLine
 62
7
  6
CONTINUOUS
 10
-7.6078466332
 20
20.1410835416
 11
-7.9614000238
 21
20.3178602369
  0
LINE
  5
3D5
100
AcDbEntity
  8
ASSI
100
AcDbLine
 62
7
  6
CONTINUOUS
 10
-7.6078466332
 20
20.1410835416
 11
-7.9614000238
 21
20.3178602369
  0
LINE
  5
3D6
100
AcDbEntity
  8
0
100
AcDbLine
 62
7
  6
CONTINUOUS
 10
-3.3995124798
 20
18.8821427821
 11
-6.2100621267
 21
20.2874176056
  0
LINE
  5
3D7
100
AcDbEntity
  8
ASSI
100
AcDbLine
 62
7
  6
CONTINUOUS
 10
-3.3995124798
 20
18.8821427821
 11
-6.2100621267
 21
20.2874176056
  0
LINE
  5
3D8
100
AcDbEntity
  8
DRAFT
100
AcDbLine
 62
7
  6
CONTINUOUS
 10
2.7804058141
 20
16.4159939821
 11
3.3191791821
 21
16.146607298
  0
LINE
  5
3D9
100
AcDbEntity
  8
ASSI
100
AcDbLine
 62
7
  6
CONTINUOUS
 10
2.7804058141
 20
16.4159939821
 11
3.3191791821
 21
16.146607298
  0
LINE
  5
3DA
100
AcDbEntity
  8
ASSI
100
AcDbLine
 62
253
  6
CONTINUOUS
 10
-8.2820308674
 20
21.9913678394
 11
-7.6765004327
 21
21.688602622
  0
LINE
  5
3DB
100
AcDbEntity
  8
ASSI
100
AcDbLine
 62
253
  6
CONTINUOUS
 10
-2.7267529644
 20
19.2137288879
 11
-2.1212225297
 21
18.9109636705
  0
LINE
  5
3DC
100
AcDbEntity
  8
0
100
AcDbLine
 62
7
  6
CONTINUOUS
 10
-4.8501301866
 20
20.361165793
 11
-2.614269315
 21
19.2432353571
  0
LINE
  5
3DD
100
AcDbEntity
  8
ASSI
100
AcDbLine
 62
7
  6
CONTINUOUS
 10
-4.8501301866
 20
20.361165793
 11
-2.614269315
 21
19.2432353571
  0
LINE
  5
3DE
100
AcDbEntity
  8
0
100
AcDbLine
 62
7
  6
CONTINUOUS
 10
-1.9472864648
 20
18.909743932
 11
-1.7489910653
 21
18.8105962323
  0
LINE
  5
3DF
100
AcDbEntity
  8
ASSI
100
AcDbLine
 62
7
  6
CONTINUOUS
 10
-1.9472864648
 20
18.909743932
 11
-1.7489910653
 21
18.8105962323
  0
LINE
  5
3E0
100
AcDbEntity
  8
ASSI
100
AcDbLine
 62
7
  6
CONTINUOUS
 10
-8.0057588463
 20
21.9771865706
 11
-7.5093523617
 21
21.7289833283
  0
LINE
  5
3E1
100
AcDbEntity
  8
ASSI
100
AcDbLine
 62
7
  6
CONTINUOUS
 10
-2.4508034542
 20
19.1997088746
 11
-1.9543966843
 21
18.9515054896
  0
LINE
  5
3E2
100
AcDbEntity
  8
RACCORDO
100
AcDbLine
 62
7
  6
CONTINUOUS
 10
16.4956138952
 20
5.7670983735
 11
16.4956138952
 21
18.307233469
  0
LINE
  5
3E3
100
AcDbEntity
  8
ASSI
100
AcDbLine
 62
7
  6
CONTINUOUS
 10
16.4956138952
 20
5.7670983735
 11
16.4956138952
 21
18.307233469
  0
LINE
  5
3E4
100
AcDbEntity
  8
0
100
AcDbLine
 62
7
  6
CONTINUOUS
 10
16.5650903138
 20
5.8896733827
 11
16.5650903138
 21
18.3425797907
  0
LINE
  5
3E5
100
AcDbEntity
  8
RACCORDO
100
AcDbLine
 62
7
  6
CONTINUOUS
 10
3.3191791821
 20
-19.9666520398
 11
4.4023744517
 21
-19.1816118235
  0
LINE
  5
3E6
100
AcDbEntity
  8
ASSI
100
AcDbLine
 62
7
  6
CONTINUOUS
 10
3.3191791821
 20
-19.9666520398
 11
4.4023744517
 21
-19.1816118235
  0
LINE
  5
3E7
100
AcDbEntity
  8
RACCORDO
100
AcDbLine
 62
253
  6
CONTINUOUS
 10
-1.9156370447
 20
-21.6678223736
 11
24.4975273458
 21
-7.7539582209
  0
LINE
  5
3E8
100
AcDbEntity
  8
ASSI
100
AcDbLine
 62
253
  6
CONTINUOUS
 10
-1.9156370447
 20
-21.6678223736
 11
24.4975273458
 21
-7.7539582209
  0
LINE
  5
3E9
100
AcDbEntity
  8
RACCORDO
100
AcDbLine
 62
7
  6
CONTINUOUS
 10
24.4975273458
 20
-6.4576697847
 11
20.490507967
 21
-8.5323648021
  0
LINE
  5
3EA
100
AcDbEntity
  8
ASSI
100
AcDbLine
 62
7
  6
CONTINUOUS
 10
24.4975273458
 20
-6.4576697847
 11
20.490507967
 21
-8.5323648021
  0
LINE
  5
3EB
100
AcDbEntity
  8
DRAFT
100
AcDbLine
 62
7
  6
CONTINUOUS
 10
23.4325447375
 20
-6.2910725861
 11
19.7526309801
 21
-8.1634263086
  0
LINE
  5
3EC
100
AcDbEntity
  8
ASSI
100
AcDbLine
 62
7
  6
CONTINUOUS
 10
23.4325447375
 20
-6.2910725861
 11
19.7526309801
 21
-8.1634263086
  0
LWPOLYLINE
  5
3ED
100
AcDbEntity
  8
ASSI
100
AcDbPolyline
 62
7
  6
CONTINUOUS
 90
44
 70
0
 10
-6.985470542
 20
18.6569056554
 10
-7.0044574733
 20
18.6605707861
 10
-7.0234375073
 20
18.663848348
 10
-7.0423958859
 20
18.6667580528
 10
-7.0613212222
 20
18.6693181654
 10
-7.0801866128
 20
18.6715434152
 10
-7.0989800917
 20
18.6734493674
 10
-7.1176961819
 20
18.675050744
 10
-7.1363151413
 20
18.6763598538
 10
-7.1548296073
 20
18.6773891396
 10
-7.1732338551
 20
18.6781500709
 10
-7.191509024
 20
18.6786528904
 10
-7.2096487334
 20
18.6789078263
 10
-7.2276488248
 20
18.6789244249
 10
-7.2454928574
 20
18.6787117863
 10
-7.2631725645
 20
18.6782788038
 10
-7.2806876143
 20
18.6776337346
 10
-7.2980329233
 20
18.6767844915
 10
-7.3152015285
 20
18.6757388086
 10
-7.3321933794
 20
18.6745037193
 10
-7.3490132907
 20
18.6730853906
 10
-7.3656580156
 20
18.67149021
 10
-7.3821249243
 20
18.669724314
 10
-7.3984192158
 20
18.6677926946
 10
-7.4145381862
 20
18.6657009219
 10
-7.4304794483
 20
18.6634544178
 10
-7.4462480312
 20
18.6610573474
 10
-7.4618415014
 20
18.6585147434
 10
-7.4772576459
 20
18.6558315591
 10
-7.4925010034
 20
18.6530114337
 10
-7.5075740216
 20
18.6500581265
 10
-7.5224696147
 20
18.6469772311
 10
-7.5371771922
 20
18.6437753642
 10
-7.5516871118
 20
18.6404593254
 10
-7.5660047285
 20
18.6370326243
 10
-7.58014068
 20
18.6334971694
 10
-7.5940870515
 20
18.6298593471
 10
-7.6078464336
 20
18.6261229803
 10
-7.621442755
 20
18.6222856666
 10
-7.6348743189
 20
18.6183516676
 10
-7.648134847
 20
18.6143267922
 10
-7.6612380192
 20
18.610210816
 10
-7.6741805845
 20
18.6060086106
 10
-7.6869542596
 20
18.6017270124
  0
LWPOLYLINE
  5
3EE
100
AcDbEntity
  8
ASSI
100
AcDbPolyline
 62
7
  6
CONTINUOUS
 90
4
 70
0
 10
-6.928749731
 20
18.6433904111
 10
-6.9475950441
 20
18.6483377449
 10
-6.9665048376
 20
18.6528341065
 10
-6.985470542
 20
18.6569056554
  0
LINE
  5
3EF
100
AcDbEntity
  8
RACCORDO
100
AcDbLine
 62
253
  6
CONTINUOUS
 10
-8.6180323193
 20
22.6809733914
 11
-5.5510663754
 21
21.1474904194
  0
LINE
  5
3F0
100
AcDbEntity
  8
ASSI
100
AcDbLine
 62
253
  6
CONTINUOUS
 10
-8.6180323193
 20
22.6809733914
 11
-5.5510663754
 21
21.1474904194
  0
LINE
  5
3F1
100
AcDbEntity
  8
RACCORDO
100
AcDbLine
 62
253
  6
CONTINUOUS
 10
-1.3084256882
 20
19.0261700759
 11
1.7585402557
 21
17.4926871039
  0
LINE
  5
3F2
100
AcDbEntity
  8
ASSI
100
AcDbLine
 62
253
  6
CONTINUOUS
 10
-1.3084256882
 20
19.0261700759
 11
1.7585402557
 21
17.4926871039
  0
LINE
  5
3F3
100
AcDbEntity
  8
RACCORDO
100
AcDbLine
 62
7
  6
CONTINUOUS
 10
-8.3372020626
 20
22.7864292312
 11
-5.1100233723
 21
21.172839886
  0
LINE
  5
3F4
100
AcDbEntity
  8
ASSI
100
AcDbLine
 62
7
  6
CONTINUOUS
 10
-8.3372020626
 20
22.7864292312
 11
-5.1100233723
 21
21.172839886
  0
LINE
  5
3F5
100
AcDbEntity
  8
ASSI
100
AcDbLine
 62
7
  6
CONTINUOUS
 10
-0.8673826852
 20
19.0515195425
 11
2.3597960051
 21
17.4379301973
  0
LINE
  5
3F6
100
AcDbEntity
  8
RACCORDO
100
AcDbLine
 62
7
  6
CONTINUOUS
 10
-0.8673826852
 20
19.0515195425
 11
2.3597960051
 21
17.4379301973
  0
LINE
  5
3F7
100
AcDbEntity
  8
0
100
AcDbLine
 62
7
  6
CONTINUOUS
 10
21.0653333439
 20
-7.2569993428
 11
21.0653333439
 21
-4.5974335548
  0
LINE
  5
3F8
100
AcDbEntity
  8
0
100
AcDbLine
 62
7
  6
CONTINUOUS
 10
21.0653333439
 20
-3.1653914746
 11
21.0653333439
 21
-0.2673065359
  0
LWPOLYLINE
  5
3F9
100
AcDbEntity
  8
RACCORDO
100
AcDbPolyline
 62
7
  6
CONTINUOUS
 90
3
 70
0
 10
24.1579557421
 20
-8.7250737283
 10
24.1783952489
 20
-8.7099719323
 10
24.2064696814
 20
-8.6882604143
  0
LINE
  5
3FA
100
AcDbEntity
  8
RACCORDO
100
AcDbLine
 62
253
  6
CONTINUOUS
 10
24.0833749104
 20
-8.7714454896
 11
24.0704666507
 21
-8.7808006847
  0
LINE
  5
3FB
100
AcDbEntity
  8
ASSI
100
AcDbLine
 62
253
  6
CONTINUOUS
 10
24.0833749104
 20
-8.7714454896
 11
24.0704666507
 21
-8.7808006847
  0
LINE
  5
3FC
100
AcDbEntity
  8
RACCORDO
100
AcDbLine
 62
7
  6
CONTINUOUS
 10
24.1579444643
 20
-8.7250819365
 11
24.1450342447
 21
-8.7344385519
  0
LINE
  5
3FD
100
AcDbEntity
  8
ASSI
100
AcDbLine
 62
7
  6
CONTINUOUS
 10
24.1584645686
 20
-8.7247045815
 11
24.1450342447
 21
-8.7344385519
  0
LINE
  5
3FE
100
AcDbEntity
  8
RACCORDO
100
AcDbLine
 62
253
  6
CONTINUOUS
 10
24.0704666507
 20
-8.7808006847
 11
4.4023744517
 21
-19.1816118235
  0
LINE
  5
3FF
100
AcDbEntity
  8
ASSI
100
AcDbLine
 62
253
  6
CONTINUOUS
 10
24.0704666507
 20
-8.7808006847
 11
4.4023744517
 21
-19.1816118235
  0
LINE
  5
400
100
AcDbEntity
  8
RACCORDO
100
AcDbLine
 62
7
  6
CONTINUOUS
 10
24.0256787229
 20
-8.8087353775
 11
4.3806823494
 21
-19.1973330633
  0
LINE
  5
401
100
AcDbEntity
  8
ASSI
100
AcDbLine
 62
7
  6
CONTINUOUS
 10
24.0256787229
 20
-8.8087353775
 11
4.3806823494
 21
-19.1973330633
  0
LINE
  5
402
100
AcDbEntity
  8
RACCORDO
100
AcDbLine
 62
253
  6
CONTINUOUS
 10
-1.9156370447
 20
-22.4671403155
 11
24.0833749104
 21
-8.7714454896
  0
LINE
  5
403
100
AcDbEntity
  8
ASSI
100
AcDbLine
 62
253
  6
CONTINUOUS
 10
-1.9156370447
 20
-22.4671403155
 11
24.0833749104
 21
-8.7714454896
  0
LINE
  5
404
100
AcDbEntity
  8
DRAFT
100
AcDbLine
 62
7
  6
CONTINUOUS
 10
-1.9156370447
 20
-22.7165532
 11
3.3191791821
 21
-19.9666520398
  0
LINE
  5
405
100
AcDbEntity
  8
ASSI
100
AcDbLine
 62
7
  6
CONTINUOUS
 10
-1.9156370447
 20
-22.7165532
 11
3.3191791821
 21
-19.9666520398
  0
LINE
  5
406
100
AcDbEntity
  8
RACCORDO
100
AcDbLine
 62
7
  6
CONTINUOUS
 10
1.7585402557
 20
-21.1539652967
 11
-1.9156370447
 21
-22.9981978361
  0
LINE
  5
407
100
AcDbEntity
  8
ASSI
100
AcDbLine
 62
7
  6
CONTINUOUS
 10
1.7585402557
 20
-21.1539652967
 11
-1.9156370447
 21
-22.9981978361
  0
LINE
  5
408
100
AcDbEntity
  8
RACCORDO
100
AcDbLine
 62
7
  6
CONTINUOUS
 10
2.6400757142
 20
-20.5945362527
 11
-1.9156370447
 21
-22.8542033662
  0
LINE
  5
409
100
AcDbEntity
  8
ASSI
100
AcDbLine
 62
7
  6
CONTINUOUS
 10
2.6400757142
 20
-20.5945362527
 11
-1.9156370447
 21
-22.8542033662
  0
LINE
  5
40A
100
AcDbEntity
  8
0
100
AcDbLine
 62
7
  6
CONTINUOUS
 10
-6.2100621267
 20
20.2874176056
 11
-4.8501301866
 21
20.361165793
  0
LINE
  5
40B
100
AcDbEntity
  8
ASSI
100
AcDbLine
 62
7
  6
CONTINUOUS
 10
-6.2100621267
 20
20.2874176056
 11
-4.8501301866
 21
20.361165793
  0
LINE
  5
40C
100
AcDbEntity
  8
SMUSSO
100
AcDbLine
 62
7
  6
CONTINUOUS
 10
24.3149409769
 20
9.9022760272
 11
24.4854284934
 21
9.8170322689
  0
LINE
  5
40D
100
AcDbEntity
  8
ASSI
100
AcDbLine
 62
7
  6
CONTINUOUS
 10
24.3149409769
 20
9.9022760272
 11
24.4854284934
 21
9.8170322689
  0
LINE
  5
40E
100
AcDbEntity
  8
ASSI
100
AcDbLine
 62
7
  6
CONTINUOUS
 10
23.3280750437
 20
-6.2388377392
 11
23.3280750437
 21
-3.4258647436
  0
LINE
  5
40F
100
AcDbEntity
  8
ASSI
100
AcDbLine
 62
7
  6
CONTINUOUS
 10
23.3280750437
 20
-1.9087107203
 11
23.3280750437
 21
0.9042622754
  0
LWPOLYLINE
  5
410
100
AcDbEntity
  8
RACCORDO
100
AcDbPolyline
 62
7
  6
CONTINUOUS
 90
38
 70
0
 10
24.2064696814
 20
-8.6882604143
 10
24.234050179
 20
-8.6657816443
 10
24.2611086535
 20
-8.6425535014
 10
24.2876323152
 20
-8.618582067
 10
24.3136229435
 20
-8.5938594194
 10
24.3390607044
 20
-8.5683970686
 10
24.3639264643
 20
-8.5422068626
 10
24.3882216975
 20
-8.5152782726
 10
24.411927143
 20
-8.4876221296
 10
24.4350232147
 20
-8.4592512271
 10
24.4575090292
 20
-8.4301548222
 10
24.4793661522
 20
-8.4003427702
 10
24.5005742368
 20
-8.3698287745
 10
24.5211282714
 20
-8.338605054
 10
24.5410094271
 20
-8.306683268
 10
24.5601992273
 20
-8.2740755333
 10
24.5786920301
 20
-8.2407717284
 10
24.5964684143
 20
-8.2067855331
 10
24.613511621
 20
-8.1721267955
 10
24.6298181722
 20
-8.1367760947
 10
24.6453718085
 20
-8.1007379338
 10
24.6601515051
 20
-8.0640294354
 10
24.6741449945
 20
-8.0266462542
 10
24.6873396774
 20
-7.9885811776
 10
24.6997113396
 20
-7.949861731
 10
24.7112329281
 20
-7.9105332278
 10
24.7218901635
 20
-7.8706051978
 10
24.7316687864
 20
-7.8300892524
 10
24.740547709
 20
-7.7890323145
 10
24.748516161
 20
-7.7474426135
 10
24.7555629016
 20
-7.7053323599
 10
24.7616718646
 20
-7.6627529588
 10
24.7668349435
 20
-7.6197136136
 10
24.7710439837
 20
-7.5762241395
 10
24.7742881507
 20
-7.532335295
 10
24.7765608815
 20
-7.4880693489
 10
24.7778573858
 20
-7.4434235707
 10
24.7781875345
 20
-7.406632847
  0
LWPOLYLINE
  5
411
100
AcDbEntity
  8
ASSI
100
AcDbPolyline
 62
7
  6
CONTINUOUS
 90
15
 70
0
 10
24.1584645522
 20
-8.7247045589
 10
24.237478422
 20
-8.6629043939
 10
24.3119774544
 20
-8.5954624326
 10
24.3821063373
 20
-8.5221869364
 10
24.447500821
 20
-8.4432936166
 10
24.5079334997
 20
-8.3588450303
 10
24.5630396091
 20
-8.2690859764
 10
24.6124492612
 20
-8.1743520932
 10
24.655953001
 20
-8.0747259157
 10
24.6932801596
 20
-7.9703944379
 10
24.7241274869
 20
-7.8617008415
 10
24.7482713247
 20
-7.7488041623
 10
24.7654803315
 20
-7.6318516398
 10
24.7755031996
 20
-7.5110830006
 10
24.7781875304
 20
-7.4066771476
  0
LINE
  5
412
100
AcDbEntity
  8
RACCORDO
100
AcDbLine
 62
253
  6
CONTINUOUS
 10
-2.4480300447
 20
-27.2705674117
 11
-2.9762972165
 21
-27.5415784704
  0
LINE
  5
413
100
AcDbEntity
  8
ASSI
100
AcDbLine
 62
253
  6
CONTINUOUS
 10
-2.4480300447
 20
-27.2705674117
 11
-2.9762972165
 21
-27.5415784704
  0
LINE
  5
414
100
AcDbEntity
  8
RACCORDO
100
AcDbLine
 62
7
  6
CONTINUOUS
 10
-2.5117180823
 20
-27.405131222
 11
-3.0404003458
 21
-27.6763552306
  0
LINE
  5
415
100
AcDbEntity
  8
ASSI
100
AcDbLine
 62
7
  6
CONTINUOUS
 10
-2.5117180823
 20
-27.405131222
 11
-3.0404003458
 21
-27.6763552306
  0
LINE
  5
416
100
AcDbEntity
  8
RACCORDO
100
AcDbLine
 62
7
  6
CONTINUOUS
 10
-3.0421387329
 20
-27.6772244642
 11
-3.0404023155
 21
-27.6763562412
  0
LINE
  5
417
100
AcDbEntity
  8
ASSI
100
AcDbLine
 62
7
  6
CONTINUOUS
 10
-3.0421387329
 20
-27.6772244642
 11
-3.0404023155
 21
-27.6763562412
  0
LINE
  5
418
100
AcDbEntity
  8
RACCORDO
100
AcDbLine
 62
253
  6
CONTINUOUS
 10
-2.6335134676
 20
-25.6761620519
 11
-1.9156370447
 21
-25.3219982847
  0
LINE
  5
419
100
AcDbEntity
  8
ASSI
100
AcDbLine
 62
253
  6
CONTINUOUS
 10
-2.6335134676
 20
-25.6761620519
 11
-1.9156370447
 21
-25.3219982847
  0
LINE
  5
41A
100
AcDbEntity
  8
RACCORDO
100
AcDbLine
 62
7
  6
CONTINUOUS
 10
-2.7681578867
 20
-25.9489370067
 11
-2.0465117019
 21
-25.5929134304
  0
LINE
  5
41B
100
AcDbEntity
  8
ASSI
100
AcDbLine
 62
7
  6
CONTINUOUS
 10
-2.7681578867
 20
-25.9489370067
 11
-2.0465117019
 21
-25.5929134304
  0
LINE
  5
41C
100
AcDbEntity
  8
RACCORDO
100
AcDbLine
 62
253
  6
CONTINUOUS
 10
-2.9762972165
 20
-27.5415784704
 11
-4.5775780073
 21
-28.32161307
  0
LINE
  5
41D
100
AcDbEntity
  8
ASSI
100
AcDbLine
 62
253
  6
CONTINUOUS
 10
-2.9762972165
 20
-27.5415784704
 11
-4.5775780073
 21
-28.32161307
  0
LINE
  5
41E
100
AcDbEntity
  8
RACCORDO
100
AcDbLine
 62
7
  6
CONTINUOUS
 10
-3.0421414969
 20
-27.6772258106
 11
-4.6438395999
 21
-28.4574636962
  0
LINE
  5
41F
100
AcDbEntity
  8
ASSI
100
AcDbLine
 62
7
  6
CONTINUOUS
 10
-3.0421414969
 20
-27.6772258106
 11
-4.6438395999
 21
-28.4574636962
  0
LINE
  5
420
100
AcDbEntity
  8
RACCORDO
100
AcDbLine
 62
7
  6
CONTINUOUS
 10
-2.7681584084
 20
-25.9489372641
 11
-2.7785722053
 21
-25.9536854676
  0
LINE
  5
421
100
AcDbEntity
  8
ASSI
100
AcDbLine
 62
7
  6
CONTINUOUS
 10
-2.7681584084
 20
-25.9489372641
 11
-2.7785722053
 21
-25.9536854676
  0
LINE
  5
422
100
AcDbEntity
  8
RACCORDO
100
AcDbLine
 62
253
  6
CONTINUOUS
 10
-8.1312027401
 20
-27.9838687
 11
-2.6335134676
 21
-25.6761620519
  0
LINE
  5
423
100
AcDbEntity
  8
ASSI
100
AcDbLine
 62
253
  6
CONTINUOUS
 10
-8.1312027401
 20
-27.9838687
 11
-2.6335134676
 21
-25.6761620519
  0
LINE
  5
424
100
AcDbEntity
  8
RACCORDO
100
AcDbLine
 62
7
  6
CONTINUOUS
 10
-8.2850099855
 20
-28.2650643983
 11
-2.7785623731
 21
-25.953681355
  0
LINE
  5
425
100
AcDbEntity
  8
ASSI
100
AcDbLine
 62
7
  6
CONTINUOUS
 10
-2.7785623731
 20
-25.953681355
 11
-8.2851941756
 21
-28.2651416038
  0
LINE
  5
426
100
AcDbEntity
  8
RACCORDO
100
AcDbLine
 62
7
  6
CONTINUOUS
 10
-8.3125706883
 20
-28.2762490684
 11
-8.2850199887
 21
-28.2650684583
  0
LINE
  5
427
100
AcDbEntity
  8
ASSI
100
AcDbLine
 62
7
  6
CONTINUOUS
 10
-8.3108330228
 20
-28.27554389
 11
-8.2851942251
 21
-28.2651414859
  0
LINE
  5
428
100
AcDbEntity
  8
RACCORDO
100
AcDbLine
 62
7
  6
CONTINUOUS
 10
24.4975273458
 20
9.8080831951
 11
24.4854284934
 21
9.8170322689
  0
LINE
  5
429
100
AcDbEntity
  8
ASSI
100
AcDbLine
 62
7
  6
CONTINUOUS
 10
24.4975273458
 20
9.8080831951
 11
24.4854284934
 21
9.8170322689
  0
LINE
  5
42A
100
AcDbEntity
  8
RACCORDO
100
AcDbLine
 62
7
  6
CONTINUOUS
 10
15.9852805837
 20
19.9047578964
 11
16.0814634195
 21
19.7388670437
  0
LINE
  5
42B
100
AcDbEntity
  8
ASSI
100
AcDbLine
 62
7
  6
CONTINUOUS
 10
15.9852805837
 20
19.9047578964
 11
16.0814634195
 21
19.7388670437
  0
LINE
  5
42C
100
AcDbEntity
  8
0
100
AcDbLine
 62
7
  6
CONTINUOUS
 10
16.1509398382
 20
19.7742133653
 11
16.0554800148
 21
19.938857206
  0
LWPOLYLINE
  5
42D
100
AcDbEntity
  8
SUPERFICI
100
AcDbPolyline
 62
7
  6
CONTINUOUS
 90
8
 70
0
 10
24.7781853074
 20
22.7245031851
 10
24.7779493602
 20
22.7568387277
 10
24.7622009653
 20
22.9858315648
 10
24.7222117913
 20
23.216787881
 10
24.6585184581
 20
23.4474614482
 10
24.5728654227
 20
23.6724347965
 10
24.466679
 20
23.8889652264
 10
24.4362005717
 20
23.9429946187
  0
LINE
  5
42E
100
AcDbEntity
  8
ASSI
100
AcDbLine
 62
7
  6
CONTINUOUS
 10
24.3887352155
 20
-5.7085076533
 11
24.3887352155
 21
-2.8766918633
  0
LINE
  5
42F
100
AcDbEntity
  8
ASSI
100
AcDbLine
 62
7
  6
CONTINUOUS
 10
24.3887352155
 20
-1.3783806344
 11
24.3887352155
 21
1.4534351556
  0
LINE
  5
430
100
AcDbEntity
  8
RACCORDO
100
AcDbLine
 62
253
  6
CONTINUOUS
 10
24.4975273458
 20
9.8080831951
 11
24.4975273458
 21
1.5097639301
  0
LINE
  5
431
100
AcDbEntity
  8
ASSI
100
AcDbLine
 62
253
  6
CONTINUOUS
 10
24.4975273458
 20
9.8080831951
 11
24.4975273458
 21
1.5097639301
  0
LINE
  5
432
100
AcDbEntity
  8
RACCORDO
100
AcDbLine
 62
253
  6
CONTINUOUS
 10
24.4975273458
 20
-2.1275427658
 11
24.4975273458
 21
-2.8203630889
  0
LINE
  5
433
100
AcDbEntity
  8
ASSI
100
AcDbLine
 62
253
  6
CONTINUOUS
 10
24.4975273458
 20
-2.1275427658
 11
24.4975273458
 21
-2.8203630889
  0
LINE
  5
434
100
AcDbEntity
  8
RACCORDO
100
AcDbLine
 62
253
  6
CONTINUOUS
 10
24.4975273458
 20
-6.4576697847
 11
24.4975273458
 21
-7.7539582209
  0
LINE
  5
435
100
AcDbEntity
  8
ASSI
100
AcDbLine
 62
253
  6
CONTINUOUS
 10
24.4975273458
 20
-6.4576697847
 11
24.4975273458
 21
-7.7539582209
  0
LINE
  5
436
100
AcDbEntity
  8
0
100
AcDbLine
 62
253
  6
CONTINUOUS
 10
24.4975273458
 20
9.9968128872
 11
24.4975273458
 21
22.3782264918
  0
LINE
  5
437
100
AcDbEntity
  8
SUPERFICI
100
AcDbLine
 62
7
  6
CONTINUOUS
 10
24.7781875455
 20
22.7255584264
 11
24.7781875455
 21
10.3441420724
  0
LINE
  5
438
100
AcDbEntity
  8
RACCORDO
100
AcDbLine
 62
7
  6
CONTINUOUS
 10
24.7781875455
 20
9.5531161201
 11
24.7781875455
 21
1.8570931153
  0
LINE
  5
439
100
AcDbEntity
  8
ASSI
100
AcDbLine
 62
7
  6
CONTINUOUS
 10
24.7781875455
 20
9.5531161201
 11
24.7781875455
 21
1.8570931153
  0
LINE
  5
43A
100
AcDbEntity
  8
RACCORDO
100
AcDbLine
 62
7
  6
CONTINUOUS
 10
24.7781875455
 20
-1.7802135806
 11
24.7781875455
 21
-2.4730339036
  0
LINE
  5
43B
100
AcDbEntity
  8
ASSI
100
AcDbLine
 62
7
  6
CONTINUOUS
 10
24.7781875455
 20
-1.7802135806
 11
24.7781875455
 21
-2.4730339036
  0
LINE
  5
43C
100
AcDbEntity
  8
RACCORDO
100
AcDbLine
 62
7
  6
CONTINUOUS
 10
24.7781875455
 20
-6.1103405995
 11
24.7781875455
 21
-7.4066317852
  0
LINE
  5
43D
100
AcDbEntity
  8
ASSI
100
AcDbLine
 62
7
  6
CONTINUOUS
 10
24.7781875455
 20
-6.1103405995
 11
24.7781875455
 21
-7.4066317852
  0
LINE
  5
43E
100
AcDbEntity
  8
RACCORDO
100
AcDbLine
 62
7
  6
CONTINUOUS
 10
15.4853567362
 20
20.4083341557
 11
4.5190346641
 21
25.8914951918
  0
LINE
  5
43F
100
AcDbEntity
  8
ASSI
100
AcDbLine
 62
7
  6
CONTINUOUS
 10
15.4853567362
 20
20.4083341557
 11
4.5190346641
 21
25.8914951918
  0
LINE
  5
440
100
AcDbEntity
  8
0
100
AcDbLine
 62
7
  6
CONTINUOUS
 10
15.5555561673
 20
20.4424334653
 11
8.5495433169
 21
23.9454398905
  0
LINE
  5
441
100
AcDbEntity
  8
0
100
AcDbLine
 62
7
  6
CONTINUOUS
 10
8.9384520465
 20
25.0570042714
 11
9.884092047
 21
24.5841842712
  0
LINE
  5
442
100
AcDbEntity
  8
0
100
AcDbLine
 62
7
  6
CONTINUOUS
 10
11.4737098163
 20
25.3450103052
 11
10.4940869651
 21
25.8348217307
  0
LINE
  5
443
100
AcDbEntity
  8
0
100
AcDbLine
 62
7
  6
CONTINUOUS
 10
12.4739859525
 20
26.8247712244
 11
13.4968597045
 21
26.3133343484
  0
LINE
  5
444
100
AcDbEntity
  8
0
100
AcDbLine
 62
7
  6
CONTINUOUS
 10
11.3000747283
 20
27.9225934456
 11
11.4840364588
 21
27.8306125803
  0
LINE
  5
445
100
AcDbEntity
  8
0
100
AcDbLine
 62
7
  6
CONTINUOUS
 10
11.8375898494
 20
27.9207867352
 11
14.2916685891
 21
26.6937473654
  0
LINE
  5
446
100
AcDbEntity
  8
0
100
AcDbLine
 62
7
  6
CONTINUOUS
 10
14.9120702788
 20
26.9906852622
 11
12.0850772228
 21
28.4041817902
  0
LINE
  5
447
100
AcDbEntity
  8
0
100
AcDbLine
 62
7
  6
CONTINUOUS
 10
12.0850772228
 20
29.4435705787
 11
15.9741645193
 21
27.4990269304
  0
LINE
  5
448
100
AcDbEntity
  8
RACCORDO
100
AcDbLine
 62
253
  6
CONTINUOUS
 10
10.5944986871
 20
30.823727968
 11
12.3095499721
 21
29.9662023255
  0
LINE
  5
449
100
AcDbEntity
  8
ASSI
100
AcDbLine
 62
253
  6
CONTINUOUS
 10
10.5944986871
 20
30.823727968
 11
12.3095499721
 21
29.9662023255
  0
LINE
  5
44A
100
AcDbEntity
  8
0
100
AcDbLine
 62
253
  6
CONTINUOUS
 10
23.5705428031
 20
24.33570591
 11
12.7338140408
 21
29.7540702912
  0
LINE
  5
44B
100
AcDbEntity
  8
RACCORDO
100
AcDbLine
 62
7
  6
CONTINUOUS
 10
12.7199853235
 20
29.887305805
 11
12.4386306134
 21
30.0279831601
  0
LINE
  5
44C
100
AcDbEntity
  8
ASSI
100
AcDbLine
 62
7
  6
CONTINUOUS
 10
12.7199853235
 20
29.887305805
 11
12.4386306134
 21
30.0279831601
  0
LINE
  5
44D
100
AcDbEntity
  8
0
100
AcDbLine
 62
7
  6
CONTINUOUS
 10
12.5800519696
 20
29.9909847244
 11
12.9336053602
 21
29.8142080291
  0
LINE
  5
44E
100
AcDbEntity
  8
RACCORDO
100
AcDbLine
 62
7
  6
CONTINUOUS
 10
11.0293715677
 20
30.8460912976
 11
12.7444228527
 21
29.9885656551
  0
LINE
  5
44F
100
AcDbEntity
  8
ASSI
100
AcDbLine
 62
7
  6
CONTINUOUS
 10
11.0293715677
 20
30.8460912976
 11
12.7444228527
 21
29.9885656551
  0
LINE
  5
450
100
AcDbEntity
  8
SUPERFICI
100
AcDbLine
 62
7
  6
CONTINUOUS
 10
12.8151335308
 20
29.9532103161
 11
24.0054156837
 21
24.3580692396
  0
LINE
  5
451
100
AcDbEntity
  8
SUPERFICI
100
AcDbLine
 62
7
  6
CONTINUOUS
 10
24.4360497024
 20
23.9425808631
 11
24.435909324
 21
23.9428325845
  0
ARC
  5
452
100
AcDbEntity
  8
RACCORDO
100
AcDbCircle
 62
253
  6
CONTINUOUS
 10
-23.7044334715
 20
-20.344779912
 40
0.5559084019
100
AcDbArc
 50
236.7244547521
 51
238.8182470502
  0
ARC
  5
453
100
AcDbEntity
  8
RACCORDO
100
AcDbCircle
 62
253
  6
CONTINUOUS
 10
-23.7059601891
 20
-20.3472830409
 40
0.5529764371
100
AcDbArc
 50
238.8192982142
 51
240.033304743
  0
ARC
  5
454
100
AcDbEntity
  8
ASSI
100
AcDbCircle
 62
253
  6
CONTINUOUS
 10
-23.7068636886
 20
-20.3488170021
 40
0.5511962974
100
AcDbArc
 50
238.8170932097
 51
243.4306107241
  0
ARC
  5
455
100
AcDbEntity
  8
RACCORDO
100
AcDbCircle
 62
253
  6
CONTINUOUS
 10
-23.7072474984
 20
-20.3495325728
 40
0.5503846254
100
AcDbArc
 50
240.0324285455
 51
243.4330274958
  0
ARC
  5
456
100
AcDbEntity
  8
ASSI
100
AcDbCircle
 62
7
  6
CONTINUOUS
 10
-2.6267768644
 20
-26.8368846817
 40
0.2519506317
100
AcDbArc
 50
58.7858857914
 51
63.4512206141
  0
ARC
  5
457
100
AcDbEntity
  8
ASSI
100
AcDbCircle
 62
7
  6
CONTINUOUS
 10
-6.0772551893
 20
-27.5688188172
 40
0.2517356221
100
AcDbArc
 50
225.183190145
 51
237.3871518954
  0
ARC
  5
458
100
AcDbEntity
  8
ASSI
100
AcDbCircle
 62
7
  6
CONTINUOUS
 10
-4.7528154348
 20
-28.2316995414
 40
0.2511246961
100
AcDbArc
 50
243.3938602717
 51
245.0973546904
  0
ARC
  5
459
100
AcDbEntity
  8
ASSI
100
AcDbCircle
 62
7
  6
CONTINUOUS
 10
-6.077957055
 20
-27.5702269452
 40
0.2503510786
100
AcDbArc
 50
179.9825025345
 51
181.263629286
  0
ARC
  5
45A
100
AcDbEntity
  8
ASSI
100
AcDbCircle
 62
7
  6
CONTINUOUS
 10
-2.6260209578
 20
-27.1824524524
 40
0.2503058744
100
AcDbArc
 50
302.6630319399
 51
314.4929751617
  0
ARC
  5
45B
100
AcDbEntity
  8
RACCORDO
100
AcDbCircle
 62
7
  6
CONTINUOUS
 10
-2.6260817196
 20
-26.8351827779
 40
0.2502495327
100
AcDbArc
 50
0.004468071
 51
5.7736918685
  0
ARC
  5
45C
100
AcDbEntity
  8
RACCORDO
100
AcDbCircle
 62
7
  6
CONTINUOUS
 10
-4.7532167724
 20
-28.2325009005
 40
0.2502360075
100
AcDbArc
 50
243.4332169837
 51
245.1033658859
  0
ARC
  5
45D
100
AcDbEntity
  8
ASSI
100
AcDbCircle
 62
7
  6
CONTINUOUS
 10
-2.62577375
 20
-27.1825572501
 40
0.2500842781
100
AcDbArc
 50
297.1116842833
 51
302.6283097854
  0
ARC
  5
45E
100
AcDbEntity
  8
ASSI
100
AcDbCircle
 62
7
  6
CONTINUOUS
 10
-6.0782267846
 20
-27.57018425
 40
0.2500823609
100
AcDbArc
 50
181.2747714952
 51
225.1205978932
  0
ARC
  5
45F
100
AcDbEntity
  8
ASSI
100
AcDbCircle
 62
7
  6
CONTINUOUS
 10
-2.6258899629
 20
-27.1826707731
 40
0.2500583413
100
AcDbArc
 50
314.5066222471
 51
356.9931953406
  0
ARC
  5
460
100
AcDbEntity
  8
ASSI
100
AcDbCircle
 62
7
  6
CONTINUOUS
 10
-2.6258395157
 20
-26.8351680027
 40
0.250007328
100
AcDbArc
 50
0.0010862662
 51
58.7757993417
  0
ARC
  5
461
100
AcDbEntity
  8
RACCORDO
100
AcDbCircle
 62
7
  6
CONTINUOUS
 10
-4.7533230703
 20
-28.23270808
 40
0.2500035661
100
AcDbArc
 50
245.1054744617
 51
295.9717453476
  0
ARC
  5
462
100
AcDbEntity
  8
RACCORDO
100
AcDbCircle
 62
7
  6
CONTINUOUS
 10
-2.6258325077
 20
-27.182694559
 40
0.2500002333
100
AcDbArc
 50
297.1614723085
 51
356.9979418307
  0
ARC
  5
463
100
AcDbEntity
  8
RACCORDO
100
AcDbCircle
 62
7
  6
CONTINUOUS
 10
-6.0783286271
 20
-27.5702117397
 40
0.2499791919
100
AcDbArc
 50
180.0033704292
 51
243.4346360947
  0
ARC
  5
464
100
AcDbEntity
  8
RACCORDO
100
AcDbCircle
 62
7
  6
CONTINUOUS
 10
-2.6257652107
 20
-26.8350544627
 40
0.2498722914
100
AcDbArc
 50
5.7747657279
 51
63.4391505733
  0
ARC
  5
465
100
AcDbEntity
  8
ASSI
100
AcDbCircle
 62
7
  6
CONTINUOUS
 10
-4.7533474796
 20
-28.2328572456
 40
0.2498505978
100
AcDbArc
 50
245.0962297071
 51
289.2052042784
  0
ARC
  5
466
100
AcDbEntity
  8
ASSI
100
AcDbCircle
 62
7
  6
CONTINUOUS
 10
-2.6251127663
 20
-27.182854499
 40
0.2492726183
100
AcDbArc
 50
357.0259964602
 51
0.0260655959
  0
ARC
  5
467
100
AcDbEntity
  8
ASSI
100
AcDbCircle
 62
7
  6
CONTINUOUS
 10
-6.0787056429
 20
-27.5711456219
 40
0.248993947
100
AcDbArc
 50
237.3797214305
 51
243.4215110658
  0
ARC
  5
468
100
AcDbEntity
  8
ASSI
100
AcDbCircle
 62
7
  6
CONTINUOUS
 10
-4.7526293668
 20
-28.2339386369
 40
0.2485933739
100
AcDbArc
 50
289.1308926808
 51
295.9522118724
  0
ARC
  5
469
100
AcDbEntity
  8
RACCORDO
100
AcDbCircle
 62
253
  6
CONTINUOUS
 10
-2.6093331066
 20
-26.7475596265
 40
0.1610284125
100
AcDbArc
 50
59.7820764503
 51
63.4845961651
  0
ARC
  5
46A
100
AcDbEntity
  8
ASSI
100
AcDbCircle
 62
253
  6
CONTINUOUS
 10
-2.6093331066
 20
-26.7475596265
 40
0.1610284125
100
AcDbArc
 50
59.7820764503
 51
63.4845961651
  0
ARC
  5
46B
100
AcDbEntity
  8
RACCORDO
100
AcDbCircle
 62
253
  6
CONTINUOUS
 10
-2.5547573946
 20
-27.321254567
 40
0.0942740857
100
AcDbArc
 50
297.1673390812
 51
301.9524911754
  0
ARC
  5
46C
100
AcDbEntity
  8
ASSI
100
AcDbCircle
 62
253
  6
CONTINUOUS
 10
-2.5547573444
 20
-27.3212546465
 40
0.0942739917
100
AcDbArc
 50
297.1635401501
 51
301.9524908364
  0
ARC
  5
46D
100
AcDbEntity
  8
RACCORDO
100
AcDbCircle
 62
253
  6
CONTINUOUS
 10
-6.1479910761
 20
-27.7096138158
 40
0.0941585041
100
AcDbArc
 50
237.9321111031
 51
243.4273542156
  0
ARC
  5
46E
100
AcDbEntity
  8
ASSI
100
AcDbCircle
 62
253
  6
CONTINUOUS
 10
-6.1479910761
 20
-27.7096138158
 40
0.0941585041
100
AcDbArc
 50
237.9321111031
 51
243.4273542156
  0
ARC
  5
46F
100
AcDbEntity
  8
RACCORDO
100
AcDbCircle
 62
7
  6
CONTINUOUS
 10
-3.083191343
 20
-27.5929428093
 40
0.0937479893
100
AcDbArc
 50
297.1567006962
 51
299.3030104151
  0
ARC
  5
470
100
AcDbEntity
  8
0
100
AcDbCircle
 62
7
  6
CONTINUOUS
 10
19.0317585807
 20
-5.2905261533
 40
1.4983535731
100
AcDbArc
 50
11.6207669082
 51
15.062098927
  0
ARC
  5
471
100
AcDbEntity
  8
ASSI
100
AcDbCircle
 62
7
  6
CONTINUOUS
 10
19.0515699431
 20
-0.9556991538
 40
1.4780040098
100
AcDbArc
 50
11.5710787326
 51
15.0855854909
  0
ARC
  5
472
100
AcDbEntity
  8
RACCORDO
100
AcDbCircle
 62
7
  6
CONTINUOUS
 10
23.5579917046
 20
-7.9244157695
 40
1.0003778485
100
AcDbArc
 50
301.6023883929
 51
305.9319583362
  0
ARC
  5
473
100
AcDbEntity
  8
RACCORDO
100
AcDbCircle
 62
7
  6
CONTINUOUS
 10
23.5581098245
 20
-7.924565332
 40
1.0001886543
100
AcDbArc
 50
297.8708874582
 51
300.6678849264
  0
ARC
  5
474
100
AcDbEntity
  8
ASSI
100
AcDbCircle
 62
7
  6
CONTINUOUS
 10
23.5582085058
 20
-7.9247352449
 40
0.9999919405
100
AcDbArc
 50
297.8708874582
 51
305.9326418163
  0
ARC
  5
475
100
AcDbEntity
  8
RACCORDO
100
AcDbCircle
 62
7
  6
CONTINUOUS
 10
23.5582489626
 20
-7.9248058854
 40
0.9999107763
100
AcDbArc
 50
300.6680579084
 51
301.6015472822
  0
ARC
  5
476
100
AcDbEntity
  8
ASSI
100
AcDbCircle
 62
253
  6
CONTINUOUS
 10
23.5682097024
 20
-8.0788369705
 40
0.8639952041
100
AcDbArc
 50
316.5565496042
 51
320.6161917698
  0
ARC
  5
477
100
AcDbEntity
  8
RACCORDO
100
AcDbCircle
 62
253
  6
CONTINUOUS
 10
23.5940465287
 20
-8.1031107772
 40
0.828544701
100
AcDbArc
 50
312.3763238043
 51
316.5467084247
  0
ARC
  5
478
100
AcDbEntity
  8
ASSI
100
AcDbCircle
 62
253
  6
CONTINUOUS
 10
23.5989320507
 20
-8.1079137695
 40
0.8216948175
100
AcDbArc
 50
310.2676707906
 51
316.5555347144
  0
ARC
  5
479
100
AcDbEntity
  8
RACCORDO
100
AcDbCircle
 62
253
  6
CONTINUOUS
 10
23.6176790101
 20
-8.1288271145
 40
0.7936189545
100
AcDbArc
 50
305.9302794011
 51
312.3672721576
  0
ARC
  5
47A
100
AcDbEntity
  8
ASSI
100
AcDbCircle
 62
253
  6
CONTINUOUS
 10
23.6194984176
 20
-8.1312918844
 40
0.7905634916
100
AcDbArc
 50
308.0721222258
 51
310.2254791885
  0
ARC
  5
47B
100
AcDbEntity
  8
ASSI
100
AcDbCircle
 62
253
  6
CONTINUOUS
 10
23.6262264251
 20
-8.13987119
 40
0.7796607153
100
AcDbArc
 50
305.8979119426
 51
308.0716761318
  0
ARC
  5
47C
100
AcDbEntity
  8
RACCORDO
100
AcDbCircle
 62
253
  6
CONTINUOUS
 10
23.7921284332
 20
-8.2196183364
 40
0.6239689829
100
AcDbArc
 50
297.8246711755
 51
299.9083652744
  0
ARC
  5
47D
100
AcDbEntity
  8
ASSI
100
AcDbCircle
 62
253
  6
CONTINUOUS
 10
23.7921284332
 20
-8.2196183364
 40
0.6239689829
100
AcDbArc
 50
297.8246711755
 51
299.9083652744
  0
ARC
  5
47E
100
AcDbEntity
  8
ASSI
100
AcDbCircle
 62
253
  6
CONTINUOUS
 10
23.7796167546
 20
-8.2297035207
 40
0.6231386252
100
AcDbArc
 50
297.8235320109
 51
301.7741841168
  0
ARC
  5
47F
100
AcDbEntity
  8
RACCORDO
100
AcDbCircle
 62
253
  6
CONTINUOUS
 10
23.7932074463
 20
-8.2214981181
 40
0.6218015317
100
AcDbArc
 50
299.9085469496
 51
301.9964651721
  0
ARC
  5
480
100
AcDbEntity
  8
ASSI
100
AcDbCircle
 62
253
  6
CONTINUOUS
 10
23.7936699797
 20
-8.222276803
 40
0.6208959233
100
AcDbArc
 50
299.9073778886
 51
304.0873111477
  0
ARC
  5
481
100
AcDbEntity
  8
RACCORDO
100
AcDbCircle
 62
253
  6
CONTINUOUS
 10
23.7810774854
 20
-8.2322075039
 40
0.6202423454
100
AcDbArc
 50
297.8121585419
 51
305.9300837261
  0
ARC
  5
482
100
AcDbEntity
  8
ASSI
100
AcDbCircle
 62
253
  6
CONTINUOUS
 10
23.78132508
 20
-8.2325100744
 40
0.6198531324
100
AcDbArc
 50
301.776546381
 51
303.7590706622
  0
ARC
  5
483
100
AcDbEntity
  8
RACCORDO
100
AcDbCircle
 62
253
  6
CONTINUOUS
 10
23.7945181674
 20
-8.2235987554
 40
0.6193255137
100
AcDbArc
 50
301.9966003249
 51
305.9309511181
  0
ARC
  5
484
100
AcDbEntity
  8
ASSI
100
AcDbCircle
 62
253
  6
CONTINUOUS
 10
23.7819306044
 20
-8.2334295676
 40
0.6187521917
100
AcDbArc
 50
303.759769062
 51
305.9325195326
  0
ARC
  5
485
100
AcDbEntity
  8
ASSI
100
AcDbCircle
 62
253
  6
CONTINUOUS
 10
23.7949128629
 20
-8.2241740674
 40
0.6186280585
100
AcDbArc
 50
304.0904597605
 51
305.9326186032
  0
ARC
  5
486
100
AcDbEntity
  8
RACCORDO
100
AcDbCircle
 62
253
  6
CONTINUOUS
 10
23.8513061529
 20
-8.4793145324
 40
0.3727267415
100
AcDbArc
 50
298.6988708434
 51
306.0146731099
  0
ARC
  5
487
100
AcDbEntity
  8
ASSI
100
AcDbCircle
 62
253
  6
CONTINUOUS
 10
23.8513479581
 20
-8.4793805168
 40
0.3726487878
100
AcDbArc
 50
298.6981046123
 51
306.0154393411
  0
ARC
  5
488
100
AcDbEntity
  8
RACCORDO
100
AcDbCircle
 62
253
  6
CONTINUOUS
 10
23.8529609015
 20
-8.4821252008
 40
0.3694667414
100
AcDbArc
 50
297.8707816068
 51
298.6830884105
  0
ARC
  5
489
100
AcDbEntity
  8
ASSI
100
AcDbCircle
 62
253
  6
CONTINUOUS
 10
23.8529609015
 20
-8.4821252008
 40
0.3694667414
100
AcDbArc
 50
297.8707816068
 51
298.6830884105
  0
ARC
  5
48A
100
AcDbEntity
  8
RACCORDO
100
AcDbCircle
 62
253
  6
CONTINUOUS
 10
24.5279581898
 20
-7.4066264508
 40
0.2502293366
100
AcDbArc
 50
357.4084587147
 51
359.9985354235
  0
ARC
  5
48B
100
AcDbEntity
  8
ASSI
100
AcDbCircle
 62
7
  6
CONTINUOUS
 10
-18.1175040713
 20
20.0894542484
 40
0.2504508285
100
AcDbArc
 50
248.5796324883
 51
254.4714572898
  0
ARC
  5
48C
100
AcDbEntity
  8
RACCORDO
100
AcDbCircle
 62
7
  6
CONTINUOUS
 10
-18.1175170883
 20
20.0893132091
 40
0.2503131547
100
AcDbArc
 50
243.4389961269
 51
248.5706161006
  0
ARC
  5
48D
100
AcDbEntity
  8
RACCORDO
100
AcDbCircle
 62
7
  6
CONTINUOUS
 10
-18.117581358
 20
20.0892683232
 40
0.2502501347
100
AcDbArc
 50
254.4771101477
 51
258.2039701367
  0
ARC
  5
48E
100
AcDbEntity
  8
RACCORDO
100
AcDbCircle
 62
7
  6
CONTINUOUS
 10
-18.1176279211
 20
20.0890602455
 40
0.2500371858
100
AcDbArc
 50
248.573079319
 51
254.4746303338
  0
ARC
  5
48F
100
AcDbEntity
  8
ASSI
100
AcDbCircle
 62
7
  6
CONTINUOUS
 10
-18.117680478
 20
20.0888325418
 40
0.2498045886
100
AcDbArc
 50
254.472265811
 51
258.2059032213
  0
ARC
  5
490
100
AcDbEntity
  8
ASSI
100
AcDbCircle
 62
7
  6
CONTINUOUS
 10
-18.1179195967
 20
20.0883915766
 40
0.2493098065
100
AcDbArc
 50
243.4270984733
 51
248.5793400492
  0
ARC
  5
491
100
AcDbEntity
  8
ASSI
100
AcDbCircle
 62
253
  6
CONTINUOUS
 10
-17.9307207808
 20
20.3287973885
 40
0.3646253834
100
AcDbArc
 50
162.9191993998
 51
168.8398059608
  0
ARC
  5
492
100
AcDbEntity
  8
ASSI
100
AcDbCircle
 62
253
  6
CONTINUOUS
 10
-18.173789702
 20
20.5825958326
 40
0.2703849131
100
AcDbArc
 50
243.5039607159
 51
248.0071508211
  0
ARC
  5
493
100
AcDbEntity
  8
ASSI
100
AcDbCircle
 62
7
  6
CONTINUOUS
 10
-19.4416814393
 20
20.753238916
 40
0.2519506317
100
AcDbArc
 50
238.7858857914
 51
243.4512206141
  0
ARC
  5
494
100
AcDbEntity
  8
RACCORDO
100
AcDbCircle
 62
7
  6
CONTINUOUS
 10
-19.442376584
 20
20.7515370122
 40
0.2502495327
100
AcDbArc
 50
180.004468071
 51
185.7736918685
  0
ARC
  5
495
100
AcDbEntity
  8
ASSI
100
AcDbCircle
 62
7
  6
CONTINUOUS
 10
-19.4426187879
 20
20.751522237
 40
0.250007328
100
AcDbArc
 50
180.0010862662
 51
238.7757993417
  0
ARC
  5
496
100
AcDbEntity
  8
RACCORDO
100
AcDbCircle
 62
7
  6
CONTINUOUS
 10
-19.4426261437
 20
20.7515164881
 40
0.2499991743
100
AcDbArc
 50
185.7747657279
 51
238.7664446803
  0
ARC
  5
497
100
AcDbEntity
  8
RACCORDO
100
AcDbCircle
 62
7
  6
CONTINUOUS
 10
-19.4426273976
 20
21.0914916015
 40
0.2499987182
100
AcDbArc
 50
117.1539096193
 51
180.0000390216
  0
ARC
  5
498
100
AcDbEntity
  8
ASSI
100
AcDbCircle
 62
7
  6
CONTINUOUS
 10
-19.4426582302
 20
21.0915256002
 40
0.2499553067
100
AcDbArc
 50
117.1465291782
 51
174.5616739457
  0
ARC
  5
499
100
AcDbEntity
  8
ASSI
100
AcDbCircle
 62
7
  6
CONTINUOUS
 10
-19.4437368916
 20
21.0914447662
 40
0.2488892286
100
AcDbArc
 50
174.519615435
 51
179.989257439
  0
ARC
  5
49A
100
AcDbEntity
  8
RACCORDO
100
AcDbCircle
 62
253
  6
CONTINUOUS
 10
-19.5124413557
 20
20.6118814197
 40
0.0938834456
100
AcDbArc
 50
239.2615802981
 51
243.4334224532
  0
ARC
  5
49B
100
AcDbEntity
  8
ASSI
100
AcDbCircle
 62
253
  6
CONTINUOUS
 10
-19.5124413557
 20
20.6118814197
 40
0.0938834456
100
AcDbArc
 50
239.2615802981
 51
243.4334224532
  0
ARC
  5
49C
100
AcDbEntity
  8
RACCORDO
100
AcDbCircle
 62
7
  6
CONTINUOUS
 10
-13.8904184416
 20
19.026988165
 40
0.2257734614
100
AcDbArc
 50
180.0339733367
 51
180.2049219894
  0
ARC
  5
49D
100
AcDbEntity
  8
RACCORDO
100
AcDbCircle
 62
7
  6
CONTINUOUS
 10
-15.9906278965
 20
21.1469261228
 40
0.2505771635
100
AcDbArc
 50
325.6833637802
 51
326.4174335947
  0
ARC
  5
49E
100
AcDbEntity
  8
RACCORDO
100
AcDbCircle
 62
7
  6
CONTINUOUS
 10
-15.9904979323
 20
21.1466952973
 40
0.2503596058
100
AcDbArc
 50
342.8959416045
 51
348.0168327476
  0
ARC
  5
49F
100
AcDbEntity
  8
RACCORDO
100
AcDbCircle
 62
7
  6
CONTINUOUS
 10
-15.9903954783
 20
21.1466252899
 40
0.2502460773
100
AcDbArc
 50
353.6380298766
 51
354.5258965624
  0
ARC
  5
4A0
100
AcDbEntity
  8
RACCORDO
100
AcDbCircle
 62
7
  6
CONTINUOUS
 10
-15.9902985355
 20
21.1466687657
 40
0.2501633014
100
AcDbArc
 50
332.1881032699
 51
337.0450930211
  0
ARC
  5
4A1
100
AcDbEntity
  8
RACCORDO
100
AcDbCircle
 62
7
  6
CONTINUOUS
 10
-15.9902581002
 20
21.1466647382
 40
0.2501243762
100
AcDbArc
 50
320.5967377659
 51
325.6850607415
  0
ARC
  5
4A2
100
AcDbEntity
  8
RACCORDO
100
AcDbCircle
 62
7
  6
CONTINUOUS
 10
-15.9901842846
 20
21.1466373637
 40
0.2500478714
100
AcDbArc
 50
326.4163299769
 51
331.2695553063
  0
ARC
  5
4A3
100
AcDbEntity
  8
RACCORDO
100
AcDbCircle
 62
7
  6
CONTINUOUS
 10
-15.9901539572
 20
21.1466021265
 40
0.250003448
100
AcDbArc
 50
354.5259006141
 51
359.9998828952
  0
ARC
  5
4A4
100
AcDbEntity
  8
RACCORDO
100
AcDbCircle
 62
7
  6
CONTINUOUS
 10
-15.9901427625
 20
21.1465953404
 40
0.2499915992
100
AcDbArc
 50
348.7700300626
 51
353.6384336791
  0
ARC
  5
4A5
100
AcDbEntity
  8
ASSI
100
AcDbCircle
 62
7
  6
CONTINUOUS
 10
-15.9901357278
 20
21.1466200515
 40
0.249987522
100
AcDbArc
 50
348.4961518459
 51
0.0075616455
  0
ARC
  5
4A6
100
AcDbEntity
  8
RACCORDO
100
AcDbCircle
 62
7
  6
CONTINUOUS
 10
-15.9901323387
 20
21.146594811
 40
0.2499814226
100
AcDbArc
 50
337.0458449479
 51
342.8951409206
  0
ARC
  5
4A7
100
AcDbEntity
  8
RACCORDO
100
AcDbCircle
 62
7
  6
CONTINUOUS
 10
-15.9901296763
 20
21.4941235566
 40
0.2499791916
100
AcDbArc
 50
0.003370429
 51
63.4346360947
  0
ARC
  5
4A8
100
AcDbEntity
  8
ASSI
100
AcDbCircle
 62
7
  6
CONTINUOUS
 10
-15.9900932169
 20
21.4941486508
 40
0.2499430501
100
AcDbArc
 50
359.9802071359
 51
57.4262704204
  0
ARC
  5
4A9
100
AcDbEntity
  8
RACCORDO
100
AcDbCircle
 62
7
  6
CONTINUOUS
 10
-15.9899196901
 20
21.1464756086
 40
0.2497380973
100
AcDbArc
 50
331.2729172192
 51
332.1867465644
  0
ARC
  5
4AA
100
AcDbEntity
  8
RACCORDO
100
AcDbCircle
 62
7
  6
CONTINUOUS
 10
-15.9898688057
 20
21.1465528287
 40
0.2497146089
100
AcDbArc
 50
348.0188385744
 51
348.767355967
  0
ARC
  5
4AB
100
AcDbEntity
  8
ASSI
100
AcDbCircle
 62
7
  6
CONTINUOUS
 10
-15.9897526607
 20
21.4950574388
 40
0.248993947
100
AcDbArc
 50
57.3797214304
 51
63.4215110658
  0
ARC
  5
4AC
100
AcDbEntity
  8
RACCORDO
100
AcDbCircle
 62
253
  6
CONTINUOUS
 10
-15.8029062881
 20
21.1466100608
 40
0.0627559348
100
AcDbArc
 50
354.2200195361
 51
359.9907758283
  0
ARC
  5
4AD
100
AcDbEntity
  8
ASSI
100
AcDbCircle
 62
253
  6
CONTINUOUS
 10
-15.8029062881
 20
21.1466100608
 40
0.0627559348
100
AcDbArc
 50
354.2200195361
 51
359.9907758283
  0
ARC
  5
4AE
100
AcDbEntity
  8
RACCORDO
100
AcDbCircle
 62
253
  6
CONTINUOUS
 10
-15.8125295865
 20
21.0006631505
 40
0.0201155511
100
AcDbArc
 50
320.5896796722
 51
323.0606008002
  0
ARC
  5
4AF
100
AcDbEntity
  8
RACCORDO
100
AcDbCircle
 62
7
  6
CONTINUOUS
 10
-2.3699719223
 20
14.7233588706
 40
0.3552945762
100
AcDbArc
 50
260.8293307691
 51
261.88222393
  0
ARC
  5
4B0
100
AcDbEntity
  8
ASSI
100
AcDbCircle
 62
7
  6
CONTINUOUS
 10
-6.0773632748
 20
14.0710798338
 40
0.2519506317
100
AcDbArc
 50
238.7858857914
 51
243.4512206141
  0
ARC
  5
4B1
100
AcDbEntity
  8
ASSI
100
AcDbCircle
 62
7
  6
CONTINUOUS
 10
-6.0770655911
 20
14.0703262961
 40
0.2515542602
100
AcDbArc
 50
209.2875512576
 51
226.9148966746
  0
ARC
  5
4B2
100
AcDbEntity
  8
ASSI
100
AcDbCircle
 62
7
  6
CONTINUOUS
 10
-3.9636661851
 20
15.4796230164
 40
0.2511246961
100
AcDbArc
 50
63.3938602717
 51
65.0973546904
  0
ARC
  5
4B3
100
AcDbEntity
  8
ASSI
100
AcDbCircle
 62
7
  6
CONTINUOUS
 10
-4.7531859069
 20
13.4072951661
 40
0.2504508284
100
AcDbArc
 50
248.5796324883
 51
254.4714572898
  0
ARC
  5
4B4
100
AcDbEntity
  8
RACCORDO
100
AcDbCircle
 62
7
  6
CONTINUOUS
 10
-4.7531989239
 20
13.4071541269
 40
0.2503131547
100
AcDbArc
 50
243.4389961268
 51
248.5706161007
  0
ARC
  5
4B5
100
AcDbEntity
  8
RACCORDO
100
AcDbCircle
 62
7
  6
CONTINUOUS
 10
-2.6259372941
 20
14.8117379922
 40
0.2502559383
100
AcDbArc
 50
63.1091567273
 51
63.4392433673
  0
ARC
  5
4B6
100
AcDbEntity
  8
RACCORDO
100
AcDbCircle
 62
7
  6
CONTINUOUS
 10
-4.7532631936
 20
13.407109241
 40
0.2502501347
100
AcDbArc
 50
254.4771101478
 51
258.2039701365
  0
ARC
  5
4B7
100
AcDbEntity
  8
RACCORDO
100
AcDbCircle
 62
7
  6
CONTINUOUS
 10
-6.0780584196
 20
14.06937793
 40
0.2502495327
100
AcDbArc
 50
180.004468071
 51
185.7736918685
  0
ARC
  5
4B8
100
AcDbEntity
  8
ASSI
100
AcDbCircle
 62
7
  6
CONTINUOUS
 10
-6.0783663891
 20
14.4091948195
 40
0.2500842781
100
AcDbArc
 50
117.1116842833
 51
176.9873643291
  0
ARC
  5
4B9
100
AcDbEntity
  8
ASSI
100
AcDbCircle
 62
7
  6
CONTINUOUS
 10
-6.0782982913
 20
14.0694518478
 40
0.2500737615
100
AcDbArc
 50
226.984311486
 51
238.7757993417
  0
ARC
  5
4BA
100
AcDbEntity
  8
ASSI
100
AcDbCircle
 62
7
  6
CONTINUOUS
 10
-3.9632361787
 20
15.4805869409
 40
0.2500693274
100
AcDbArc
 50
65.0937206947
 51
72.8408124733
  0
ARC
  5
4BB
100
AcDbEntity
  8
RACCORDO
100
AcDbCircle
 62
7
  6
CONTINUOUS
 10
-4.7533097566
 20
13.4069011633
 40
0.2500371858
100
AcDbArc
 50
248.5730793191
 51
254.4746303338
  0
ARC
  5
4BC
100
AcDbEntity
  8
RACCORDO
100
AcDbCircle
 62
7
  6
CONTINUOUS
 10
-3.9631585495
 20
15.4806315439
 40
0.2500035661
100
AcDbArc
 50
65.1054755597
 51
115.9717442496
  0
ARC
  5
4BD
100
AcDbEntity
  8
RACCORDO
100
AcDbCircle
 62
7
  6
CONTINUOUS
 10
-6.0783079793
 20
14.0693574059
 40
0.2499991743
100
AcDbArc
 50
185.7747657279
 51
238.7664446803
  0
ARC
  5
4BE
100
AcDbEntity
  8
RACCORDO
100
AcDbCircle
 62
7
  6
CONTINUOUS
 10
-2.6258291096
 20
14.8119750505
 40
0.2499957027
100
AcDbArc
 50
0.0049007854
 51
63.1066968432
  0
ARC
  5
4BF
100
AcDbEntity
  8
ASSI
100
AcDbCircle
 62
7
  6
CONTINUOUS
 10
-2.6258271264
 20
14.8119760083
 40
0.2499949387
100
AcDbArc
 50
359.9991715019
 51
63.4438428087
  0
ARC
  5
4C0
100
AcDbEntity
  8
RACCORDO
100
AcDbCircle
 62
7
  6
CONTINUOUS
 10
-6.0783513064
 20
14.4093340532
 40
0.2499566435
100
AcDbArc
 50
117.1614723085
 51
180.0004672476
  0
ARC
  5
4C1
100
AcDbEntity
  8
ASSI
100
AcDbCircle
 62
7
  6
CONTINUOUS
 10
-6.078382114
 20
14.0693445295
 40
0.2499258378
100
AcDbArc
 50
179.9968167592
 51
209.2388952004
  0
ARC
  5
4C2
100
AcDbEntity
  8
ASSI
100
AcDbCircle
 62
7
  6
CONTINUOUS
 10
-4.7533623136
 20
13.4066734596
 40
0.2498045886
100
AcDbArc
 50
254.472265811
 51
258.2059032213
  0
ARC
  5
4C3
100
AcDbEntity
  8
ASSI
100
AcDbCircle
 62
7
  6
CONTINUOUS
 10
-3.9631301628
 20
15.4808693547
 40
0.2497682071
100
AcDbArc
 50
72.8449363664
 51
109.2127542875
  0
ARC
  5
4C4
100
AcDbEntity
  8
ASSI
100
AcDbCircle
 62
7
  6
CONTINUOUS
 10
-4.7536014323
 20
13.4062324944
 40
0.2493098065
100
AcDbArc
 50
243.4270984733
 51
248.5793400493
  0
ARC
  5
4C5
100
AcDbEntity
  8
ASSI
100
AcDbCircle
 62
7
  6
CONTINUOUS
 10
-6.0790273729
 20
14.4094920685
 40
0.2492726183
100
AcDbArc
 50
177.0259964588
 51
180.0260655959
  0
ARC
  5
4C6
100
AcDbEntity
  8
ASSI
100
AcDbCircle
 62
7
  6
CONTINUOUS
 10
-3.9638522531
 20
15.4818621119
 40
0.2485933739
100
AcDbArc
 50
109.1308926809
 51
115.9522118724
  0
ARC
  5
4C7
100
AcDbEntity
  8
RACCORDO
100
AcDbCircle
 62
253
  6
CONTINUOUS
 10
-4.0315314601
 20
15.6209785569
 40
0.0938873403
100
AcDbArc
 50
109.7954365947
 51
115.9680379479
  0
ARC
  5
4C8
100
AcDbEntity
  8
RACCORDO
100
AcDbCircle
 62
253
  6
CONTINUOUS
 10
-6.1481231913
 20
13.9297223374
 40
0.0938834456
100
AcDbArc
 50
239.2615802981
 51
243.4334224532
  0
ARC
  5
4C9
100
AcDbEntity
  8
ASSI
100
AcDbCircle
 62
253
  6
CONTINUOUS
 10
-6.1481231913
 20
13.9297223374
 40
0.0938834456
100
AcDbArc
 50
239.2615802981
 51
243.4334224532
  0
ARC
  5
4CA
100
AcDbEntity
  8
ASSI
100
AcDbCircle
 62
7
  6
CONTINUOUS
 10
-7.889813631
 20
18.3242145058
 40
0.1751552288
100
AcDbArc
 50
101.8153193566
 51
104.9747757698
  0
ARC
  5
4CB
100
AcDbEntity
  8
ASSI
100
AcDbCircle
 62
7
  6
CONTINUOUS
 10
-7.8925464153
 20
18.3339745209
 40
0.1650205747
100
AcDbArc
 50
104.9337880496
 51
114.7171759311
  0
ARC
  5
4CC
100
AcDbEntity
  8
ASSI
100
AcDbCircle
 62
7
  6
CONTINUOUS
 10
-7.8943597181
 20
18.3388790744
 40
0.1598076586
100
AcDbArc
 50
114.8618836039
 51
131.1525108473
  0
ARC
  5
4CD
100
AcDbEntity
  8
RACCORDO
100
AcDbCircle
 62
7
  6
CONTINUOUS
 10
-7.8948775064
 20
18.3396761731
 40
0.1588667938
100
AcDbArc
 50
114.8133214759
 51
131.201080505
  0
ARC
  5
4CE
100
AcDbEntity
  8
ASSI
100
AcDbCircle
 62
7
  6
CONTINUOUS
 10
-17.3269747463
 20
22.161776511
 40
0.2511268574
100
AcDbArc
 50
114.5099945062
 51
116.0150122365
  0
ARC
  5
4CF
100
AcDbEntity
  8
RACCORDO
100
AcDbCircle
 62
7
  6
CONTINUOUS
 10
-17.327609167
 20
22.1624679787
 40
0.2503514258
100
AcDbArc
 50
63.4412196529
 51
70.2372484484
  0
ARC
  5
4D0
100
AcDbEntity
  8
ASSI
100
AcDbCircle
 62
7
  6
CONTINUOUS
 10
-17.3274758791
 20
22.1628018982
 40
0.2499931494
100
AcDbArc
 50
63.4343261371
 51
114.513695662
  0
ARC
  5
4D1
100
AcDbEntity
  8
RACCORDO
100
AcDbCircle
 62
7
  6
CONTINUOUS
 10
-17.3274774238
 20
22.1628019665
 40
0.249992564
100
AcDbArc
 50
70.2397818208
 51
114.5027462238
  0
ARC
  5
4D2
100
AcDbEntity
  8
RACCORDO
100
AcDbCircle
 62
253
  6
CONTINUOUS
 10
-17.2577554194
 20
22.3022198369
 40
0.0941136854
100
AcDbArc
 50
63.4395515145
 51
69.7060916093
  0
ARC
  5
4D3
100
AcDbEntity
  8
SUPERFICI
100
AcDbCircle
 62
253
  6
CONTINUOUS
 10
21.3056790264
 20
22.1890086894
 40
3.216018253
100
AcDbArc
 50
27.7244334403
 51
30.2646687978
  0
ARC
  5
4D4
100
AcDbEntity
  8
SUPERFICI
100
AcDbCircle
 62
253
  6
CONTINUOUS
 10
21.3128269236
 20
22.1919990561
 40
3.2082998625
100
AcDbArc
 50
20.9530122239
 51
27.736546634
  0
ARC
  5
4D5
100
AcDbEntity
  8
ASSI
100
AcDbCircle
 62
7
  6
CONTINUOUS
 10
10.5794806506
 20
29.9464852118
 40
1.0057990516
100
AcDbArc
 50
63.3911301142
 51
64.4033549108
  0
ARC
  5
4D6
100
AcDbEntity
  8
SUPERFICI
100
AcDbCircle
 62
7
  6
CONTINUOUS
 10
23.5555496412
 20
23.4624439789
 40
1.0028487246
100
AcDbArc
 50
28.6035578695
 51
36.7383117499
  0
ARC
  5
4D7
100
AcDbEntity
  8
RACCORDO
100
AcDbCircle
 62
7
  6
CONTINUOUS
 10
10.5821577776
 20
29.9516639576
 40
1.0000000518
100
AcDbArc
 50
64.4139738005
 51
115.2484212992
  0
ARC
  5
4D8
100
AcDbEntity
  8
ASSI
100
AcDbCircle
 62
7
  6
CONTINUOUS
 10
10.5821600681
 20
29.9519454703
 40
0.9997170798
100
AcDbArc
 50
64.4066470334
 51
110.3503561318
  0
ARC
  5
4D9
100
AcDbEntity
  8
RACCORDO
100
AcDbCircle
 62
7
  6
CONTINUOUS
 10
10.5823041957
 20
29.9519563361
 40
0.9996732464
100
AcDbArc
 50
63.4346906567
 51
64.4138840121
  0
ARC
  5
4DA
100
AcDbEntity
  8
ASSI
100
AcDbCircle
 62
7
  6
CONTINUOUS
 10
10.5809698156
 20
29.9538940747
 40
0.9974762745
100
AcDbArc
 50
110.3251789908
 51
115.2413428896
  0
ARC
  5
4DB
100
AcDbEntity
  8
0
100
AcDbCircle
 62
7
  6
CONTINUOUS
 10
13.0608611925
 20
29.0712830597
 40
0.7570721517
100
AcDbArc
 50
112.6686439769
 51
115.5938794607
  0
ARC
  5
4DC
100
AcDbEntity
  8
ASSI
100
AcDbCircle
 62
7
  6
CONTINUOUS
 10
12.5729991747
 20
29.4816850356
 40
0.5483802833
100
AcDbArc
 50
98.2910847093
 51
102.037274498
  0
ARC
  5
4DD
100
AcDbEntity
  8
RACCORDO
100
AcDbCircle
 62
7
  6
CONTINUOUS
 10
12.572367431
 20
29.4852087578
 40
0.5448023039
100
AcDbArc
 50
98.2787787646
 51
102.0495804427
  0
ARC
  5
4DE
100
AcDbEntity
  8
ASSI
100
AcDbCircle
 62
7
  6
CONTINUOUS
 10
12.5672378348
 20
29.5212360238
 40
0.5084118745
100
AcDbArc
 50
94.1890574531
 51
98.2913345445
  0
ARC
  5
4DF
100
AcDbEntity
  8
0
100
AcDbCircle
 62
7
  6
CONTINUOUS
 10
12.637274469
 20
29.5796331446
 40
0.414365863
100
AcDbArc
 50
75.9208072368
 51
85.0061413278
  0
ARC
  5
4E0
100
AcDbEntity
  8
0
100
AcDbCircle
 62
7
  6
CONTINUOUS
 10
12.6418380153
 20
29.5996410998
 40
0.3938490439
100
AcDbArc
 50
72.8694808901
 51
75.8566911503
  0
ARC
  5
4E1
100
AcDbEntity
  8
0
100
AcDbCircle
 62
7
  6
CONTINUOUS
 10
12.6443708518
 20
29.6078183401
 40
0.3852885314
100
AcDbArc
 50
68.8011355631
 51
72.8712459438
  0
ARC
  5
4E2
100
AcDbEntity
  8
RACCORDO
100
AcDbCircle
 62
253
  6
CONTINUOUS
 10
10.3181373692
 20
30.5114559869
 40
0.3810704223
100
AcDbArc
 50
110.5507825313
 51
115.2451286327
  0
ARC
  5
4E3
100
AcDbEntity
  8
ASSI
100
AcDbCircle
 62
253
  6
CONTINUOUS
 10
10.3178210648
 20
30.5121751637
 40
0.3802850324
100
AcDbArc
 50
113.7300496162
 51
115.2482365982
  0
ARC
  5
4E4
100
AcDbEntity
  8
RACCORDO
100
AcDbCircle
 62
253
  6
CONTINUOUS
 10
10.8606470504
 20
30.5084383985
 40
0.3774632935
100
AcDbArc
 50
64.7679474273
 51
72.2997411952
  0
ARC
  5
4E5
100
AcDbEntity
  8
0
100
AcDbCircle
 62
7
  6
CONTINUOUS
 10
12.6473924811
 20
29.6156238822
 40
0.3769185433
100
AcDbArc
 50
63.509286007
 51
68.8003188025
  0
ARC
  5
4E6
100
AcDbEntity
  8
RACCORDO
100
AcDbCircle
 62
7
  6
CONTINUOUS
 10
12.5766130758
 20
29.6529560894
 40
0.3752251348
100
AcDbArc
 50
60.9266160058
 51
63.4342700914
  0
ARC
  5
4E7
100
AcDbEntity
  8
ASSI
100
AcDbCircle
 62
7
  6
CONTINUOUS
 10
12.5766130758
 20
29.6529560894
 40
0.3752251348
100
AcDbArc
 50
60.9266160058
 51
63.4342700914
  0
ARC
  5
4E8
100
AcDbEntity
  8
RACCORDO
100
AcDbCircle
 62
253
  6
CONTINUOUS
 10
10.8616860795
 20
30.5107256852
 40
0.3749513184
100
AcDbArc
 50
63.4345822517
 51
64.7625772938
  0
ARC
  5
4E9
100
AcDbEntity
  8
ASSI
100
AcDbCircle
 62
253
  6
CONTINUOUS
 10
10.8616860795
 20
30.5107256852
 40
0.3749513184
100
AcDbArc
 50
63.4345822517
 51
64.7625772938
  0
ARC
  5
4EA
100
AcDbEntity
  8
RACCORDO
100
AcDbCircle
 62
253
  6
CONTINUOUS
 10
514.9894545537
 20
-2.2781098734
 40
539.6211822679
100
AcDbArc
 50
178.1088830888
 51
181.8911169112
  0
ARC
  5
4EB
100
AcDbEntity
  8
ASSI
100
AcDbCircle
 62
253
  6
CONTINUOUS
 10
526.9780787854
 20
-9.9613826613
 40
536.795566905
100
AcDbArc
 50
178.069999105
 51
179.8927423836
  0
ARC
  5
4EC
100
AcDbEntity
  8
ASSI
100
AcDbCircle
 62
253
  6
CONTINUOUS
 10
510.3680373093
 20
-2.2781098734
 40
535.0023038418
100
AcDbArc
 50
178.0925503486
 51
181.9074496514
  0
ARC
  5
4ED
100
AcDbEntity
  8
ASSI
100
AcDbCircle
 62
253
  6
CONTINUOUS
 10
515.7781749985
 20
-9.693740718
 40
524.8921210369
100
AcDbArc
 50
178.0577410794
 51
181.9422589206
  0
ARC
  5
4EE
100
AcDbEntity
  8
RACCORDO
100
AcDbCircle
 62
253
  6
CONTINUOUS
 10
511.3198195297
 20
-9.6905329122
 40
521.1371316762
100
AcDbArc
 50
178.0417819713
 51
181.9582180287
  0
ARC
  5
4EF
100
AcDbEntity
  8
RACCORDO
100
AcDbCircle
 62
253
  6
CONTINUOUS
 10
511.4906396919
 20
-9.693740718
 40
520.6070692416
100
AcDbArc
 50
178.0417483865
 51
181.9582516135
  0
ARC
  5
4F0
100
AcDbEntity
  8
ASSI
100
AcDbCircle
 62
253
  6
CONTINUOUS
 10
501.3638693602
 20
-9.8605687553
 40
511.1812137831
100
AcDbArc
 50
179.9023014012
 51
181.9773022184
  0
SPLINE
  5
4F1
100
AcDbEntity
  8
0
100
AcDbSpline
 62
7
  6
CONTINUOUS
 70
0
 71
3
 72
8
 73
4
 74
2
 42
0.0000001
 43
0.0000001
 44
0.0000000001
 12
0.0926945628
 22
0.0106446317
 32
0.0
 13
0.0929417789
 23
-0.0082107187
 33
0.0
 40
0.0
 40
0.0
 40
0.0
 40
0.0
 40
1.0
 40
1.0
 40
1.0
 40
1.0
 10
12.5800519696
 20
29.9909847244
 30
0.0
 10
12.6109501572
 20
29.9945329349
 30
0.0
 10
12.642363995
 20
29.9951629952
 30
0.0
 10
12.6733445879
 20
29.992426089
 30
0.0
 11
12.5800519696
 21
29.9909847244
 31
0.0
 11
12.6733445879
 21
29.992426089
 31
0.0
  0
SPLINE
  5
4F2
100
AcDbEntity
  8
0
100
AcDbSpline
 62
7
  6
CONTINUOUS
 70
0
 71
3
 72
11
 73
7
 74
5
 42
0.0000001
 43
0.0000001
 44
0.0000000001
 12
0.4151213401
 22
0.2149353658
 32
0.0
 13
0.0001826755
 23
0.4674643357
 33
0.0
 40
0.0
 40
0.0
 40
0.0
 40
0.0
 40
0.2995974132
 40
0.562897425
 40
0.7922363201
 40
1.0
 40
1.0
 40
1.0
 40
1.0
 10
24.4975273458
 20
9.9968128872
 30
0.0
 10
24.5389837724
 20
10.0182775804
 30
0.0
 10
24.6140612549
 20
10.0646202987
 30
0.0
 10
24.7052796568
 20
10.1492334778
 30
0.0
 10
24.7643800611
 20
10.2430040274
 30
0.0
 10
24.7782991305
 20
10.3116679766
 30
0.0
 10
24.7783117816
 20
10.3440420134
 30
0.0
 11
24.4975273458
 21
9.9968128872
 31
0.0
 11
24.6159945361
 21
10.071511214
 31
0.0
 11
24.7048612661
 21
10.1566711893
 31
0.0
 11
24.7598788797
 21
10.2486851367
 31
0.0
 11
24.7783117816
 21
10.3440420134
 31
0.0
  0
SPLINE
  5
4F3
100
AcDbEntity
  8
0
100
AcDbSpline
 62
7
  6
CONTINUOUS
 70
0
 71
3
 72
9
 73
5
 74
3
 42
0.0000001
 43
0.0000001
 44
0.0000000001
 12
-0.1695999392
 22
-0.0194761034
 32
0.0
 13
-0.1575468563
 23
-0.0657453122
 33
0.0
 40
0.0
 40
0.0
 40
0.0
 40
0.0
 40
0.2391443545
 40
1.0
 40
1.0
 40
1.0
 40
1.0
 10
12.9336053602
 20
29.8142080291
 30
0.0
 10
12.9200857376
 20
29.8126554957
 30
0.0
 10
12.8638160451
 20
29.8039055189
 30
0.0
 10
12.8090415491
 20
29.7865449706
 30
0.0
 10
12.7690847441
 20
29.76987074
 30
0.0
 11
12.9336053602
 21
29.8142080291
 31
0.0
 11
12.8932580893
 21
29.8079780418
 31
0.0
 11
12.7690847441
 21
29.76987074
 31
0.0
  0
SPLINE
  5
4F4
100
AcDbEntity
  8
SUPERFICI
100
AcDbSpline
 62
7
  6
CONTINUOUS
 70
0
 71
3
 72
8
 73
4
 74
2
 42
0.0000001
 43
0.0000001
 44
0.0000000001
 12
0.4132480846
 22
-0.2064062586
 32
0.0
 13
0.2764216096
 23
-0.3700927138
 33
0.0
 40
0.0
 40
0.0
 40
0.0
 40
0.0
 40
1.0
 40
1.0
 40
1.0
 40
1.0
 10
24.004660171
 20
24.3584055136
 30
0.0
 10
24.1424095325
 20
24.2896034274
 30
0.0
 10
24.2670678571
 20
24.1856733467
 30
0.0
 10
24.3592083936
 20
24.0623091088
 30
0.0
 11
24.004660171
 21
24.3584055136
 31
0.0
 11
24.3592083936
 21
24.0623091088
 31
0.0
  0
SPLINE
  5
4F5
100
AcDbEntity
  8
SUPERFICI
100
AcDbSpline
 62
253
  6
CONTINUOUS
 70
0
 71
3
 72
12
 73
8
 74
6
 42
0.0000001
 43
0.0000001
 44
0.0000000001
 12
-0.1934795021
 22
0.3290683049
 32
0.0
 13
-0.3417884541
 23
-0.1700027049
 33
0.0
 40
0.0
 40
0.0
 40
0.0
 40
0.0
 40
0.0283467926
 40
0.0820962627
 40
0.2783377776
 40
0.5889646748
 40
1.0
 40
1.0
 40
1.0
 40
1.0
 10
24.4359079391
 20
23.9428348875
 30
0.0
 10
24.4340797647
 20
23.9459442312
 30
0.0
 10
24.4221393736
 20
23.9487584487
 30
0.0
 10
24.3883383922
 20
23.9426981573
 30
0.0
 10
24.3195350232
 20
23.9192404287
 30
0.0
 10
24.2130059321
 20
23.8729067275
 30
0.0
 10
24.1300309348
 20
23.833039834
 30
0.0
 10
24.083201892
 20
23.8097474616
 30
0.0
 11
24.4359079391
 21
23.9428348875
 31
0.0
 11
24.4260689916
 21
23.9473390268
 31
0.0
 11
24.4056275461
 21
23.9455687269
 31
0.0
 11
24.3340801169
 21
23.9233705386
 31
0.0
 11
24.2248033357
 21
23.8773379629
 31
0.0
 11
24.083201892
 21
23.8097474616
 31
0.0
  0
SPLINE
  5
4F6
100
AcDbEntity
  8
SUPERFICI
100
AcDbSpline
 62
253
  6
CONTINUOUS
 70
0
 71
3
 72
11
 73
7
 74
5
 42
0.0000001
 43
0.0000001
 44
0.0000000001
 12
-0.001973642
 22
-0.4666041959
 32
0.0
 13
-0.4143611871
 23
-0.2145417851
 33
0.0
 40
0.0
 40
0.0
 40
0.0
 40
0.0
 40
0.2077579626
 40
0.4362472796
 40
0.6987057174
 40
1.0
 40
1.0
 40
1.0
 40
1.0
 10
24.7781852905
 20
22.7245031851
 30
0.0
 10
24.7780486106
 20
22.6921896061
 30
0.0
 10
24.7639067391
 20
22.623893112
 30
0.0
 10
24.7054718502
 20
22.5303150441
 30
0.0
 10
24.6143506474
 20
22.4458260346
 30
0.0
 10
24.5391422314
 20
22.3997759789
 30
0.0
 10
24.4975273458
 20
22.3782292412
 30
0.0
 11
24.7781852905
 21
22.7245031851
 31
0.0
 11
24.7595113585
 21
22.6293771692
 31
0.0
 11
24.7049754363
 21
22.537766049
 31
0.0
 11
24.6165703832
 21
22.4530176141
 31
0.0
 11
24.4975273458
 21
22.3782292412
 31
0.0
  0
SPLINE
  5
4F7
100
AcDbEntity
  8
SUPERFICI
100
AcDbSpline
 62
253
  6
CONTINUOUS
 70
0
 71
3
 72
9
 73
5
 74
3
 42
0.0000001
 43
0.0000001
 44
0.0000000001
 12
-0.3997078279
 22
0.198757501
 32
0.0
 13
-0.4026540113
 23
-0.1927190677
 33
0.0
 40
0.0
 40
0.0
 40
0.0
 40
0.0
 40
0.4650998724
 40
1.0
 40
1.0
 40
1.0
 40
1.0
 10
24.00467622
 20
24.3584379215
 30
0.0
 10
23.9427082001
 20
24.389251951
 30
0.0
 10
23.7883732613
 20
24.4159976297
 30
0.0
 10
23.6423360304
 20
24.370067728
 30
0.0
 10
23.5705428031
 20
24.33570591
 30
0.0
 11
24.00467622
 21
24.3584379215
 31
0.0
 11
23.8009408221
 21
24.3984097462
 31
0.0
 11
23.5705428031
 21
24.33570591
 31
0.0
  0
SPLINE
  5
4F8
100
AcDbEntity
  8
SUPERFICI
100
AcDbSpline
 62
253
  6
CONTINUOUS
 70
0
 71
3
 72
9
 73
5
 74
3
 42
0.0000001
 43
0.0000001
 44
0.0000000001
 12
0.3510228256
 22
-0.9174793108
 32
0.0
 13
-0.0028438243
 23
-0.9823325417
 33
0.0
 40
0.0
 40
0.0
 40
0.0
 40
0.0
 40
0.2620244903
 40
1.0
 40
1.0
 40
1.0
 40
1.0
 10
24.3089747718
 20
23.3392941703
 30
0.0
 10
24.3396336308
 20
23.259160154
 30
0.0
 10
24.444022203
 20
22.9489031878
 30
0.0
 10
24.4982268947
 20
22.6198722734
 30
0.0
 10
24.4975273372
 20
22.3782264874
 30
0.0
 11
24.3089747718
 21
23.3392941703
 31
0.0
 11
24.3908928893
 21
23.0952813473
 31
0.0
 11
24.4975273372
 21
22.3782264874
 31
0.0
  0
SPLINE
  5
4F9
100
AcDbEntity
  8
SUPERFICI
100
AcDbSpline
 62
253
  6
CONTINUOUS
 70
0
 71
3
 72
9
 73
5
 74
3
 42
0.0000001
 43
0.0000001
 44
0.0000000001
 12
0.3693534406
 22
-0.1820828823
 32
0.0
 13
0.2733509942
 23
-0.3079859965
 33
0.0
 40
0.0
 40
0.0
 40
0.0
 40
0.0
 40
0.2332847634
 40
1.0
 40
1.0
 40
1.0
 40
1.0
 10
23.5705428031
 20
24.33570591
 30
0.0
 10
23.5992643131
 20
24.321546856
 30
0.0
 10
23.7187272778
 20
24.253464995
 30
0.0
 10
23.8226220601
 20
24.1600264042
 30
0.0
 10
23.8924828509
 20
24.0813138855
 30
0.0
 11
23.5705428031
 21
24.33570591
 31
0.0
 11
23.6541548438
 21
24.288401976
 31
0.0
 11
23.8924828509
 21
24.0813138855
 31
0.0
  0
SPLINE
  5
4FA
100
AcDbEntity
  8
SUPERFICI
100
AcDbSpline
 62
253
  6
CONTINUOUS
 70
0
 71
3
 72
9
 73
5
 74
3
 42
0.0000001
 43
0.0000001
 44
0.0000000001
 12
0.2034732947
 22
-0.2292544266
 32
0.0
 13
0.1522502439
 23
-0.2660429233
 33
0.0
 40
0.0
 40
0.0
 40
0.0
 40
0.0
 40
0.245003486
 40
1.0
 40
1.0
 40
1.0
 40
1.0
 10
23.8924828509
 20
24.0813138855
 30
0.0
 10
23.9091000731
 20
24.0625911742
 30
0.0
 10
23.9748072915
 20
23.9843106892
 30
0.0
 10
24.0321505162
 20
23.8990834773
 30
0.0
 10
24.0704666507
 20
23.8321296507
 30
0.0
 11
23.8924828509
 21
24.0813138855
 31
0.0
 11
23.9407950052
 21
24.0238162017
 31
0.0
 11
24.0704666507
 21
23.8321296507
 31
0.0
  0
SPLINE
  5
4FB
100
AcDbEntity
  8
ASSI
100
AcDbSpline
 62
7
  6
CONTINUOUS
 70
0
 71
3
 72
11
 73
7
 74
5
 42
0.0000001
 43
0.0000001
 44
0.0000000001
 12
0.2230926208
 22
0.0717696553
 32
0.0
 13
0.2096565956
 23
-0.1047153896
 33
0.0
 40
0.0
 40
0.0
 40
0.0
 40
0.0
 40
0.2281620518
 40
0.4713410479
 40
0.7293701433
 40
1.0
 40
1.0
 40
1.0
 40
1.0
 10
-2.6778769329
 20
19.233657455
 30
0.0
 10
-2.6609098428
 20
19.2391158256
 30
0.0
 10
-2.6240936535
 20
19.2452606416
 30
0.0
 10
-2.5668780145
 20
19.2411514032
 30
0.0
 10
-2.5083070437
 20
19.225731249
 30
0.0
 10
-2.4702236127
 20
19.2094086207
 30
0.0
 10
-2.4513105012
 20
19.1999622504
 30
0.0
 11
-2.6778769329
 21
19.233657455
 31
0.0
 11
-2.6252295283
 21
19.2430027412
 31
0.0
 11
-2.5683450059
 21
19.2395426001
 31
0.0
 11
-2.5097477746
 21
19.2246106249
 31
0.0
 11
-2.4513105012
 21
19.1999622504
 31
0.0
  0
SPLINE
  5
4FC
100
AcDbEntity
  8
ASSI
100
AcDbSpline
 62
7
  6
CONTINUOUS
 70
0
 71
3
 72
11
 73
7
 74
5
 42
0.0000001
 43
0.0000001
 44
0.0000000001
 12
0.222019678
 22
0.0689784695
 32
0.0
 13
0.2079932826
 23
-0.103872812
 33
0.0
 40
0.0
 40
0.0
 40
0.0
 40
0.0
 40
0.2283694312
 40
0.4716456017
 40
0.7295971459
 40
1.0
 40
1.0
 40
1.0
 40
1.0
 10
-8.2310996761
 20
22.0117099442
 30
0.0
 10
-8.2141988402
 20
22.0169608022
 30
0.0
 10
-8.1776188249
 20
22.022767291
 30
0.0
 10
-8.1208702814
 20
22.0184391488
 30
0.0
 10
-8.0628181101
 20
22.003029607
 30
0.0
 10
-8.0250690304
 20
21.9868303434
 30
0.0
 10
-8.0063217047
 20
21.9774678418
 30
0.0
 11
-8.2310996761
 21
22.0117099442
 31
0.0
 11
-8.178750375
 21
22.0205664976
 31
0.0
 11
-8.1223125465
 21
22.0168686621
 31
0.0
 11
-8.0642317315
 21
22.0019320344
 31
0.0
 11
-8.0063217047
 21
21.9774678418
 31
0.0
  0
SPLINE
  5
4FD
100
AcDbEntity
  8
RACCORDO
100
AcDbSpline
 62
7
  6
CONTINUOUS
 70
0
 71
3
 72
12
 73
8
 74
6
 42
0.0000001
 43
0.0000001
 44
0.0000000001
 12
-0.0000065812
 22
-0.2340309852
 32
0.0
 13
-0.2078260124
 23
-0.1076050679
 33
0.0
 40
0.0
 40
0.0
 40
0.0
 40
0.0
 40
0.1028544969
 40
0.2084739994
 40
0.4366785568
 40
0.6988693622
 40
1.0
 40
1.0
 40
1.0
 40
1.0
 10
2.7804053022
 20
16.3557365297
 30
0.0
 10
2.7804050765
 20
16.3477128166
 30
0.0
 10
2.7788161553
 20
16.3314083723
 30
0.0
 10
2.769167383
 20
16.298557099
 30
0.0
 10
2.744259411
 20
16.2582951137
 30
0.0
 10
2.6986248565
 20
16.2159816737
 30
0.0
 10
2.6609366408
 20
16.1928783299
 30
0.0
 10
2.6400757142
 20
16.182077269
 30
0.0
 11
2.7804053022
 21
16.3557365297
 31
0.0
 11
2.7781027363
 21
16.3317757715
 31
0.0
 11
2.7712178471
 21
16.3080357314
 31
0.0
 11
2.7439951574
 21
16.2620876506
 31
0.0
 11
2.6997411199
 21
16.2195820678
 31
0.0
 11
2.6400757142
 21
16.182077269
 31
0.0
  0
SPLINE
  5
4FE
100
AcDbEntity
  8
RACCORDO
100
AcDbSpline
 62
7
  6
CONTINUOUS
 70
0
 71
3
 72
14
 73
10
 74
8
 42
0.0000001
 43
0.0000001
 44
0.0000000001
 12
0.0
 22
0.630991571
 32
0.0
 13
-0.5643681094
 23
0.2822038267
 33
0.0
 40
0.0
 40
0.0
 40
0.0
 40
0.0
 40
0.2891525564
 40
0.4227177506
 40
0.5489643138
 40
0.668508974
 40
0.7824375212
 40
0.892292605
 40
1.0
 40
1.0
 40
1.0
 40
1.0
 10
-4.8501301866
 20
20.6319660856
 30
0.0
 10
-4.8501301866
 20
20.6927836942
 30
0.0
 10
-4.8577166433
 20
20.7821751188
 30
0.0
 10
-4.8867160741
 20
20.8941617943
 30
0.0
 10
-4.9161657208
 20
20.9685712849
 30
0.0
 10
-4.9535740321
 20
21.0346418994
 30
0.0
 10
-4.9985633825
 20
21.0915334586
 30
0.0
 10
-5.050601076
 20
21.1384388211
 30
0.0
 10
-5.0897472844
 20
21.1627005883
 30
0.0
 10
-5.1100094907
 20
21.1728324014
 30
0.0
 11
-4.8501301866
 21
20.6319660856
 31
0.0
 11
-4.8674076242
 21
20.8135990226
 31
0.0
 11
-4.8888058802
 21
20.8951157827
 31
0.0
 11
-4.9183954468
 21
20.9690769587
 31
0.0
 11
-4.9558135538
 21
21.0345736957
 31
0.0
 11
-5.0006018214
 21
21.0908043712
 31
0.0
 11
-5.0522112628
 21
21.1370796308
 31
0.0
 11
-5.1100094907
 21
21.1728324014
 31
0.0
  0
SPLINE
  5
4FF
100
AcDbEntity
  8
RACCORDO
100
AcDbSpline
 62
7
  6
CONTINUOUS
 70
0
 71
3
 72
11
 73
7
 74
5
 42
0.0000001
 43
0.0000001
 44
0.0000000001
 12
0.4104598159
 22
0.2008428369
 32
0.0
 13
0.4087143287
 23
-0.2043714832
 33
0.0
 40
0.0
 40
0.0
 40
0.0
 40
0.0
 40
0.2787325875
 40
0.5346772883
 40
0.772449667
 40
1.0
 40
1.0
 40
1.0
 40
1.0
 10
-1.3084256882
 20
19.0261700759
 30
0.0
 10
-1.2702895127
 20
19.0448305571
 30
0.0
 10
-1.1940585231
 20
19.0749170065
 30
0.0
 10
-1.0773893204
 20
19.0959711807
 30
0.0
 10
-0.9665811693
 20
19.0898587864
 30
0.0
 10
-0.8983698307
 20
19.0670136575
 30
0.0
 10
-0.8673688036
 20
19.0515120578
 30
0.0
 11
-1.3084256882
 21
19.0261700759
 31
0.0
 11
-1.1895796811
 21
19.0719833881
 31
0.0
 11
-1.0743007181
 21
19.0917256232
 31
0.0
 11
-0.9658661593
 21
19.08483683
 31
0.0
 11
-0.8673688036
 21
19.0515120578
 31
0.0
  0
SPLINE
  5
500
100
AcDbEntity
  8
RACCORDO
100
AcDbSpline
 62
7
  6
CONTINUOUS
 70
0
 71
3
 72
9
 73
5
 74
3
 42
0.0000001
 43
0.0000001
 44
0.0000000001
 12
-0.0110860342
 22
-0.0399468313
 32
0.0
 13
0.0000244836
 23
-0.0414565904
 33
0.0
 40
0.0
 40
0.0
 40
0.0
 40
0.0
 40
0.470196659
 40
1.0
 40
1.0
 40
1.0
 40
1.0
 10
-14.1113699374
 20
19.0679374564
 30
0.0
 10
-14.1131074761
 20
19.0616765008
 30
0.0
 10
-14.1155366586
 20
19.0480066283
 30
0.0
 10
-14.1161961871
 20
19.0341755735
 30
0.0
 10
-14.1161918633
 20
19.0268542934
 30
0.0
 11
-14.1113699374
 21
19.0679374564
 31
0.0
 11
-14.1150006193
 21
19.0487858091
 31
0.0
 11
-14.1161918633
 21
19.0268542934
 31
0.0
  0
SPLINE
  5
501
100
AcDbEntity
  8
RACCORDO
100
AcDbSpline
 62
253
  6
CONTINUOUS
 70
0
 71
3
 72
11
 73
7
 74
5
 42
0.0000001
 43
0.0000001
 44
0.0000000001
 12
-0.1026843425
 22
0.0513470616
 32
0.0
 13
-0.1029781233
 23
-0.0507553057
 33
0.0
 40
0.0
 40
0.0
 40
0.0
 40
0.0
 40
0.2274030322
 40
0.4651083369
 40
0.721100729
 40
1.0
 40
1.0
 40
1.0
 40
1.0
 10
-15.8783471015
 20
21.7177379767
 30
0.0
 10
-15.8861306785
 20
21.7216301359
 30
0.0
 10
-15.9032662898
 20
21.7273559964
 30
0.0
 10
-15.9311035793
 20
21.7288432768
 30
0.0
 10
-15.9604093442
 20
21.723482405
 30
0.0
 10
-15.979548405
 20
21.7158669214
 30
0.0
 10
-15.9891219128
 20
21.7111483822
 30
0.0
 11
-15.8783471015
 21
21.7177379767
 31
0.0
 11
-15.9030826016
 21
21.7260897308
 31
0.0
 11
-15.9303206726
 21
21.7277753605
 31
0.0
 11
-15.9592770069
 21
21.7227471568
 31
0.0
 11
-15.9891219128
 21
21.7111483822
 31
0.0
  0
SPLINE
  5
502
100
AcDbEntity
  8
RACCORDO
100
AcDbSpline
 62
253
  6
CONTINUOUS
 70
0
 71
3
 72
9
 73
5
 74
3
 42
0.0000001
 43
0.0000001
 44
0.0000000001
 12
-0.0221872219
 22
0.0110907997
 32
0.0
 13
-0.0242893561
 23
0.0050304904
 33
0.0
 40
0.0
 40
0.0
 40
0.0
 40
0.0
 40
0.2486668508
 40
1.0
 40
1.0
 40
1.0
 40
1.0
 10
-2.5140350815
 20
-26.611553236
 30
0.0
 10
-2.5158741571
 20
-26.6106339312
 30
0.0
 10
-2.5233898769
 20
-26.6071807506
 30
0.0
 10
-2.5313607073
 20
-26.604728947
 30
0.0
 10
-2.5374438401
 20
-26.603469089
 30
0.0
 11
-2.5140350815
 21
-26.611553236
 31
0.0
 11
-2.5196401197
 21
-26.6089784685
 31
0.0
 11
-2.5374438401
 21
-26.603469089
 31
0.0
  0
SPLINE
  5
503
100
AcDbEntity
  8
RACCORDO
100
AcDbSpline
 62
253
  6
CONTINUOUS
 70
0
 71
3
 72
11
 73
7
 74
5
 42
0.0000001
 43
0.0000001
 44
0.0000000001
 12
-0.0000014429
 22
-0.119182188
 32
0.0
 13
-0.1063496889
 23
-0.0537971895
 33
0.0
 40
0.0
 40
0.0
 40
0.0
 40
0.0
 40
0.2069627842
 40
0.4350648191
 40
0.6978060254
 40
1.0
 40
1.0
 40
1.0
 40
1.0
 10
-2.3758321901
 20
-27.1826947763
 30
0.0
 10
-2.3758322897
 20
-27.1909168688
 30
0.0
 10
-2.3794313984
 20
-27.2083327649
 30
0.0
 10
-2.3944807684
 20
-27.2321280149
 30
0.0
 10
-2.4179577071
 20
-27.2535398141
 30
0.0
 10
-2.4373172997
 20
-27.2651483496
 30
0.0
 10
-2.4480300447
 20
-27.2705674117
 30
0.0
 11
-2.3758321901
 21
-27.1826947763
 31
0.0
 11
-2.3805653726
 21
-27.2069026723
 31
0.0
 11
-2.3945856711
 21
-27.230194162
 31
0.0
 11
-2.4173597832
 21
-27.2516862748
 31
0.0
 11
-2.4480300447
 21
-27.2705674117
 31
0.0
  0
SPLINE
  5
504
100
AcDbEntity
  8
RACCORDO
100
AcDbSpline
 62
253
  6
CONTINUOUS
 70
0
 71
3
 72
11
 73
7
 74
5
 42
0.0000001
 43
0.0000001
 44
0.0000000001
 12
-0.0000013698
 22
-0.1191821853
 32
0.0
 13
-0.1063496865
 23
-0.0537971883
 33
0.0
 40
0.0
 40
0.0
 40
0.0
 40
0.0
 40
0.2069627866
 40
0.4350648202
 40
0.69780603
 40
1.0
 40
1.0
 40
1.0
 40
1.0
 10
-2.3758321898
 20
-26.8351632628
 30
0.0
 10
-2.3758322843
 20
-26.8433853552
 30
0.0
 10
-2.3794314011
 20
-26.860801251
 30
0.0
 10
-2.3944807686
 20
-26.8845964999
 30
0.0
 10
-2.4179577084
 20
-26.9060082977
 30
0.0
 10
-2.4373173001
 20
-26.917616833
 30
0.0
 10
-2.4480300447
 20
-26.923035895
 30
0.0
 11
-2.3758321898
 21
-26.8351632628
 31
0.0
 11
-2.3805653727
 21
-26.8593711584
 31
0.0
 11
-2.3945856718
 21
-26.8826626469
 31
0.0
 11
-2.4173597843
 21
-26.9041547588
 31
0.0
 11
-2.4480300447
 21
-26.923035895
 31
0.0
  0
SPLINE
  5
505
100
AcDbEntity
  8
RACCORDO
100
AcDbSpline
 62
253
  6
CONTINUOUS
 70
0
 71
3
 72
11
 73
7
 74
5
 42
0.0000001
 43
0.0000001
 44
0.0000000001
 12
0.1258954653
 22
0.0785190299
 32
0.0
 13
-0.0007023586
 23
0.1483725478
 33
0.0
 40
0.0
 40
0.0
 40
0.0
 40
0.0
 40
0.2176890101
 40
0.4523897046
 40
0.7123281861
 40
1.0
 40
1.0
 40
1.0
 40
1.0
 10
-2.5048660502
 20
-27.4012449226
 30
0.0
 10
-2.4957306971
 20
-27.3955473459
 30
0.0
 10
-2.478728293
 20
-27.3802828682
 30
0.0
 10
-2.4607240621
 20
-27.3494910801
 30
0.0
 10
-2.4500107757
 20
-27.3119775626
 30
0.0
 10
-2.4479626951
 20
-27.284794945
 30
0.0
 10
-2.4480300447
 20
-27.2705674117
 30
0.0
 11
-2.5048660502
 21
-27.4012449226
 31
0.0
 11
-2.4806569698
 21
-27.3798632967
 31
0.0
 11
-2.4626516206
 21
-27.3500558202
 31
0.0
 11
-2.4516188082
 21
-27.3130993519
 31
0.0
 11
-2.4480300447
 21
-27.2705674117
 31
0.0
  0
SPLINE
  5
506
100
AcDbEntity
  8
RACCORDO
100
AcDbSpline
 62
7
  6
CONTINUOUS
 70
0
 71
3
 72
12
 73
8
 74
6
 42
0.0000001
 43
0.0000001
 44
0.0000000001
 12
0.3495976162
 22
-0.0728101698
 32
0.0
 13
0.2289187257
 23
0.2740730398
 33
0.0
 40
0.0
 40
0.0
 40
0.0
 40
0.0
 40
0.2325109382
 40
0.3575195464
 40
0.4857910002
 40
0.7451588474
 40
1.0
 40
1.0
 40
1.0
 40
1.0
 10
-4.1801726227
 20
13.0318051606
 30
0.0
 10
-4.1530775327
 20
13.026162107
 30
0.0
 10
-4.1092838385
 20
13.0269392883
 30
0.0
 10
-4.0530877199
 20
13.0407385559
 30
0.0
 10
-3.9960978195
 20
13.0630665107
 30
0.0
 10
-3.9304239649
 20
13.1035052788
 30
0.0
 10
-3.8858033698
 20
13.1461797842
 30
0.0
 10
-3.8663573992
 20
13.1694614806
 30
0.0
 11
-4.1801726227
 21
13.0318051606
 31
0.0
 11
-4.0971458284
 21
13.0311395716
 31
0.0
 11
-4.0537435447
 21
13.041580515
 31
0.0
 11
-4.0110513309
 21
13.0581796275
 31
0.0
 11
-3.9319817214
 21
13.1064131118
 31
0.0
 11
-3.8663573992
 21
13.1694614806
 31
0.0
  0
SPLINE
  5
507
100
AcDbEntity
  8
RACCORDO
100
AcDbSpline
 62
7
  6
CONTINUOUS
 70
0
 71
3
 72
9
 73
5
 74
3
 42
0.0000001
 43
0.0000001
 44
0.0000000001
 12
0.0530380884
 22
0.0297672245
 32
0.0
 13
0.0286142223
 23
0.053668918
 33
0.0
 40
0.0
 40
0.0
 40
0.0
 40
0.0
 40
0.4846390923
 40
1.0
 40
1.0
 40
1.0
 40
1.0
 10
-3.0373084267
 20
-27.6746951394
 30
0.0
 10
-3.0287403163
 20
-27.6698863526
 30
0.0
 10
-3.012573821
 20
-27.6570596903
 30
0.0
 10
-3.0008635345
 20
-27.6401801428
 30
0.0
 10
-2.995947984
 20
-27.630960522
 30
0.0
 11
-3.0373084267
 21
-27.6746951394
 31
0.0
 11
-3.0141171374
 21
-27.656501827
 31
0.0
 11
-2.995947984
 21
-27.630960522
 31
0.0
  0
SPLINE
  5
508
100
AcDbEntity
  8
RACCORDO
100
AcDbSpline
 62
7
  6
CONTINUOUS
 70
0
 71
3
 72
9
 73
5
 74
3
 42
0.0000001
 43
0.0000001
 44
0.0000000001
 12
0.043308731
 22
0.0812299808
 32
0.0
 13
0.0
 23
0.0920540926
 33
0.0
 40
0.0
 40
0.0
 40
0.0
 40
0.0
 40
0.2290669126
 40
1.0
 40
1.0
 40
1.0
 40
1.0
 10
-2.995947984
 20
-27.630960522
 30
0.0
 10
-2.9926411182
 20
-27.6247581551
 30
0.0
 10
-2.980351065
 20
-27.5965311632
 30
0.0
 10
-2.9762972165
 20
-27.565234319
 30
0.0
 10
-2.9762972165
 20
-27.5415784704
 30
0.0
 11
-2.995947984
 21
-27.630960522
 31
0.0
 11
-2.9874427964
 21
-27.6116653351
 31
0.0
 11
-2.9762972165
 21
-27.5415784704
 31
0.0
  0
SPLINE
  5
509
100
AcDbEntity
  8
RACCORDO
100
AcDbSpline
 62
253
  6
CONTINUOUS
 70
0
 71
3
 72
11
 73
7
 74
5
 42
0.0000001
 43
0.0000001
 44
0.0000000001
 12
-0.011364783
 22
-0.112370681
 32
0.0
 13
-0.1007831
 23
-0.0509813201
 33
0.0
 40
0.0
 40
0.0
 40
0.0
 40
0.0
 40
0.2073801376
 40
0.4374115733
 40
0.7004546351
 40
1.0
 40
1.0
 40
1.0
 40
1.0
 10
-15.7404694072
 20
21.1402899938
 30
0.0
 10
-15.7412550172
 20
21.1325221781
 30
0.0
 10
-15.7460792002
 20
21.1163681157
 30
0.0
 10
-15.7613813592
 20
21.094496632
 30
0.0
 10
-15.7839840658
 20
21.07468853
 30
0.0
 10
-15.8022851723
 20
21.0638177327
 30
0.0
 10
-15.8123482091
 20
21.0587273266
 30
0.0
 11
-15.7404694072
 21
21.1402899938
 31
0.0
 11
-15.7468929237
 21
21.1177657016
 31
0.0
 11
-15.7613760237
 21
21.0961964167
 31
0.0
 11
-15.783436791
 21
21.0762978244
 31
0.0
 11
-15.8123482091
 21
21.0587273266
 31
0.0
  0
SPLINE
  5
50A
100
AcDbEntity
  8
0
100
AcDbSpline
 62
7
  6
CONTINUOUS
 70
0
 71
3
 72
15
 73
11
 74
9
 42
0.0000001
 43
0.0000001
 44
0.0000000001
 12
-1.301960625
 22
0.6509803125
 32
0.0
 13
-1.301960625
 23
-0.6509803125
 33
0.0
 40
0.0
 40
0.0
 40
0.0
 40
0.0
 40
0.1125283523
 40
0.2354661028
 40
0.3658134951
 40
0.4999999817
 40
0.6341864682
 40
0.7645338681
 40
0.8874716303
 40
1.0
 40
1.0
 40
1.0
 40
1.0
 10
-7.2542932426
 20
19.411748657
 30
0.0
 10
-7.3031290706
 20
19.436166571
 30
0.0
 10
-7.4095552381
 20
19.4789512896
 30
0.0
 10
-7.5815720541
 20
19.5241347354
 30
0.0
 10
-7.767857618
 20
19.5519635531
 30
0.0
 10
-7.9613999971
 20
19.5613559168
 30
0.0
 10
-8.15494238
 20
19.5519635576
 30
0.0
 10
-8.341227954
 20
19.5241347443
 30
0.0
 10
-8.5132447882
 20
19.4789512973
 30
0.0
 10
-8.6196709695
 20
19.4361665748
 30
0.0
 10
-8.668506805
 20
19.411748657
 30
0.0
 11
-7.2542932426
 21
19.411748657
 31
0.0
 11
-7.4058318215
 21
19.4739307497
 31
0.0
 11
-7.578716813
 21
19.5201349536
 31
0.0
 11
-7.766309692
 21
19.5485878472
 31
0.0
 11
-7.9613999972
 21
19.5581949848
 31
0.0
 11
-8.1564903024
 21
19.5485878522
 31
0.0
 11
-8.3440831932
 21
19.5201349624
 31
0.0
 11
-8.516968202
 21
19.4739307578
 31
0.0
 11
-8.668506805
 21
19.411748657
 31
0.0
  0
SPLINE
  5
50B
100
AcDbEntity
  8
RACCORDO
100
AcDbSpline
 62
253
  6
CONTINUOUS
 70
0
 71
3
 72
11
 73
7
 74
5
 42
0.0000001
 43
0.0000001
 44
0.0000000001
 12
0.1426575687
 22
0.0695004483
 32
0.0
 13
0.0007563653
 23
0.1586849776
 33
0.0
 40
0.0
 40
0.0
 40
0.0
 40
0.0
 40
0.2167635091
 40
0.4498673846
 40
0.7098578217
 40
1.0
 40
1.0
 40
1.0
 40
1.0
 10
-4.643839739
 20
-28.4574634106
 30
0.0
 10
-4.6335320873
 20
-28.4524416902
 30
0.0
 10
-4.6139783884
 20
-28.4378341678
 30
0.0
 10
-4.5929562502
 20
-28.4060247517
 30
0.0
 10
-4.5802684007
 20
-28.3661586654
 30
0.0
 10
-4.5776511584
 20
-28.3369601384
 30
0.0
 10
-4.5775780073
 20
-28.32161307
 30
0.0
 11
-4.643839739
 21
-28.4574634106
 31
0.0
 11
-4.6161352878
 21
-28.4370758747
 31
0.0
 11
-4.5952308095
 21
-28.4065586643
 31
0.0
 11
-4.5821626931
 21
-28.3674259654
 31
0.0
 11
-4.5775780073
 21
-28.32161307
 31
0.0
  0
SPLINE
  5
50C
100
AcDbEntity
  8
RACCORDO
100
AcDbSpline
 62
253
  6
CONTINUOUS
 70
0
 71
3
 72
11
 73
7
 74
5
 42
0.0000001
 43
0.0000001
 44
0.0000000001
 12
-0.0000014429
 22
-0.119182188
 32
0.0
 13
-0.1063496889
 23
-0.0537971895
 33
0.0
 40
0.0
 40
0.0
 40
0.0
 40
0.0
 40
0.2069627842
 40
0.4350648191
 40
0.6978060254
 40
1.0
 40
1.0
 40
1.0
 40
1.0
 10
-15.7401503545
 20
21.4941314788
 30
0.0
 10
-15.7401504541
 20
21.4859093863
 30
0.0
 10
-15.7437495629
 20
21.4684934902
 30
0.0
 10
-15.7587989328
 20
21.4446982402
 30
0.0
 10
-15.7822758715
 20
21.423286441
 30
0.0
 10
-15.8016354641
 20
21.4116779055
 30
0.0
 10
-15.8123482091
 20
21.4062588434
 30
0.0
 11
-15.7401503545
 21
21.4941314788
 31
0.0
 11
-15.744883537
 21
21.4699235828
 31
0.0
 11
-15.7589038355
 21
21.4466320931
 31
0.0
 11
-15.7816779476
 21
21.4251399803
 31
0.0
 11
-15.8123482091
 21
21.4062588434
 31
0.0
  0
SPLINE
  5
50D
100
AcDbEntity
  8
RACCORDO
100
AcDbSpline
 62
253
  6
CONTINUOUS
 70
0
 71
3
 72
11
 73
7
 74
5
 42
0.0000001
 43
0.0000001
 44
0.0000000001
 12
-0.0980945308
 22
0.0362784873
 32
0.0
 13
-0.0938122688
 23
-0.0462376885
 33
0.0
 40
0.0
 40
0.0
 40
0.0
 40
0.0
 40
0.2274335139
 40
0.4664660116
 40
0.7229002891
 40
1.0
 40
1.0
 40
1.0
 40
1.0
 10
-17.2251134114
 20
22.390491492
 30
0.0
 10
-17.2325500727
 20
22.3932418066
 30
0.0
 10
-17.2485776465
 20
22.3969545966
 30
0.0
 10
-17.2739721697
 20
22.3967911342
 30
0.0
 10
-17.3004646838
 20
22.3911213419
 30
0.0
 10
-17.3177829559
 20
22.3840822792
 30
0.0
 10
-17.3264480734
 20
22.3798114624
 30
0.0
 11
-17.2251134114
 21
22.390491492
 31
0.0
 11
-17.2482643943
 21
22.3959545905
 31
0.0
 11
-17.2732643351
 21
22.3959748327
 31
0.0
 11
-17.299530236
 21
22.3905514468
 31
0.0
 11
-17.3264480734
 21
22.3798114624
 31
0.0
  0
SPLINE
  5
50E
100
AcDbEntity
  8
RACCORDO
100
AcDbSpline
 62
7
  6
CONTINUOUS
 70
0
 71
3
 72
11
 73
7
 74
5
 42
0.0000001
 43
0.0000001
 44
0.0000000001
 12
-0.4087143287
 22
0.2043714832
 32
0.0
 13
-0.4104598159
 23
-0.2008428369
 33
0.0
 40
0.0
 40
0.0
 40
0.0
 40
0.0
 40
0.227550333
 40
0.4653227117
 40
0.7212674125
 40
1.0
 40
1.0
 40
1.0
 40
1.0
 10
-5.1100094907
 20
21.1728324014
 30
0.0
 10
-5.1410105179
 20
21.188334001
 30
0.0
 10
-5.2092218564
 20
21.21117913
 30
0.0
 10
-5.3200300075
 20
21.2172915243
 30
0.0
 10
-5.4366992102
 20
21.1962373501
 30
0.0
 10
-5.5129301998
 20
21.1661509006
 30
0.0
 10
-5.5510663754
 20
21.1474904194
 30
0.0
 11
-5.1100094907
 21
21.1728324014
 31
0.0
 11
-5.2085068464
 21
21.2061571735
 31
0.0
 11
-5.3169414052
 21
21.2130459668
 31
0.0
 11
-5.4322203683
 21
21.1933037317
 31
0.0
 11
-5.5510663754
 21
21.1474904194
 31
0.0
  0
SPLINE
  5
50F
100
AcDbEntity
  8
RACCORDO
100
AcDbSpline
 62
7
  6
CONTINUOUS
 70
0
 71
3
 72
15
 73
11
 74
9
 42
0.0000001
 43
0.0000001
 44
0.0000000001
 12
0.6271739864
 22
-0.3539607568
 32
0.0
 13
0.0132597171
 23
-0.7200413922
 33
0.0
 40
0.0
 40
0.0
 40
0.0
 40
0.0
 40
0.1110347967
 40
0.2313523873
 40
0.3587689084
 40
0.4905634939
 40
0.6236594143
 40
0.7548811152
 40
0.8812008158
 40
1.0
 40
1.0
 40
1.0
 40
1.0
 10
-2.9764024578
 20
12.8581908384
 30
0.0
 10
-2.9531897458
 20
12.8450901848
 30
0.0
 10
-2.9072572473
 20
12.8133673856
 30
0.0
 10
-2.8441009008
 20
12.7544526994
 30
0.0
 10
-2.7858868578
 20
12.6840634196
 30
0.0
 10
-2.7346814539
 20
12.6047828113
 30
0.0
 10
-2.6923127172
 20
12.519432133
 30
0.0
 10
-2.6602948897
 20
12.4310663537
 30
0.0
 10
-2.6397685488
 20
12.3428665526
 30
0.0
 10
-2.6340385488
 20
12.2840661532
 30
0.0
 10
-2.6335134676
 20
12.2555527099
 30
0.0
 11
-2.9764024578
 21
12.8581908384
 31
0.0
 11
-2.9102994166
 21
12.8131963715
 31
0.0
 11
-2.846674191
 21
12.7543766094
 31
0.0
 11
-2.7879902411
 21
12.6838342495
 31
0.0
 11
-2.7363963761
 21
12.6041682383
 31
0.0
 11
-2.6937876366
 21
12.5183086142
 31
0.0
 11
-2.6617264744
 21
12.4294124096
 31
0.0
 11
-2.6413871676
 21
12.34074446
 31
0.0
 11
-2.6335134676
 21
12.2555527099
 31
0.0
  0
SPLINE
  5
510
100
AcDbEntity
  8
ASSI
100
AcDbSpline
 62
7
  6
CONTINUOUS
 70
0
 71
3
 72
11
 73
7
 74
5
 42
0.0000001
 43
0.0000001
 44
0.0000000001
 12
-0.0416312992
 22
0.0206907002
 32
0.0
 13
-0.0456449528
 23
-0.0088209092
 33
0.0
 40
0.0
 40
0.0
 40
0.0
 40
0.0
 40
0.1604874675
 40
0.3744738917
 40
0.6521052632
 40
1.0
 40
1.0
 40
1.0
 40
1.0
 10
-7.5090871282
 20
21.7288505635
 30
0.0
 10
-7.5113142288
 20
21.7299574296
 30
0.0
 10
-7.5170178829
 20
21.7314727502
 30
0.0
 10
-7.5271371404
 20
21.7319642379
 30
0.0
 10
-7.5401336084
 20
21.7309332474
 30
0.0
 10
-7.5497031322
 20
21.7293417841
 30
0.0
 10
-7.5549963451
 20
21.7283188681
 30
0.0
 11
-7.5090871282
 21
21.7288505635
 31
0.0
 11
-7.5162227545
 21
21.7310297843
 31
0.0
 11
-7.526146076
 21
21.7317316828
 31
0.0
 11
-7.5390233617
 21
21.7308573607
 31
0.0
 11
-7.5549963451
 21
21.7283188681
 31
0.0
  0
SPLINE
  5
511
100
AcDbEntity
  8
RACCORDO
100
AcDbSpline
 62
7
  6
CONTINUOUS
 70
0
 71
3
 72
12
 73
8
 74
6
 42
0.0000001
 43
0.0000001
 44
0.0000000001
 12
-0.0057716671
 22
-0.318992024
 32
0.0
 13
-0.2861193449
 23
-0.1411557438
 33
0.0
 40
0.0
 40
0.0
 40
0.0
 40
0.0
 40
0.2898656106
 40
0.5500311809
 40
0.7831910579
 40
0.8928393341
 40
1.0
 40
1.0
 40
1.0
 40
1.0
 10
-2.6335134676
 20
-25.6761620519
 30
0.0
 10
-2.6340711369
 20
-25.7069836579
 30
0.0
 10
-2.6400477716
 20
-25.7656028357
 30
0.0
 10
-2.666099993
 20
-25.8454867718
 30
0.0
 10
-2.702262776
 20
-25.8997913474
 30
0.0
 10
-2.7381535613
 20
-25.9317643196
 30
0.0
 10
-2.757938166
 20
-25.9438951516
 30
0.0
 10
-2.7681584125
 20
-25.9489372661
 30
0.0
 11
-2.6335134676
 21
-25.6761620519
 31
0.0
 11
-2.6437920135
 21
-25.768069032
 31
0.0
 11
-2.6706630105
 21
-25.846603531
 31
0.0
 11
-2.7128084293
 21
-25.9079010432
 31
0.0
 11
-2.7389891821
 21
-25.9311035
 31
0.0
 11
-2.7681584125
 21
-25.9489372661
 31
0.0
  0
LINE
  5
512
100
AcDbEntity
  8
RACCORDO
100
AcDbLine
 62
7
  6
CONTINUOUS
 10
-3.8663573992
 20
12.3609606567
 11
-2.9762972165
 21
12.8582574675
  0
SPLINE
  5
513
100
AcDbEntity
  8
RACCORDO
100
AcDbSpline
 62
253
  6
CONTINUOUS
 70
0
 71
3
 72
15
 73
11
 74
9
 42
0.0000001
 43
0.0000001
 44
0.0000000001
 12
-1.2257468404
 22
-0.6692011747
 32
0.0
 13
-0.0469702942
 23
-1.3957361214
 33
0.0
 40
0.0
 40
0.0
 40
0.0
 40
0.0
 40
0.1125344619
 40
0.2331195696
 40
0.3599630726
 40
0.4907310907
 40
0.6227817409
 40
0.7533762873
 40
0.8798845414
 40
1.0
 40
1.0
 40
1.0
 40
1.0
 10
-8.1312027401
 20
9.2542025402
 30
0.0
 10
-8.1771823271
 20
9.2290998088
 30
0.0
 10
-8.2679195148
 20
9.1685890709
 30
0.0
 10
-8.3927106462
 20
9.056047666
 30
0.0
 10
-8.507488701
 20
8.9219472951
 30
0.0
 10
-8.6084356941
 20
8.7707511094
 30
0.0
 10
-8.6922336803
 20
8.6074642981
 30
0.0
 10
-8.7560964604
 20
8.4374912112
 30
0.0
 10
-8.7978983055
 20
8.2665104482
 30
0.0
 10
-8.8105097799
 20
8.1519547573
 30
0.0
 10
-8.8123903994
 20
8.0960715959
 30
0.0
 11
-8.1312027401
 21
9.2542025402
 31
0.0
 11
-8.2624743263
 21
9.1677953844
 31
0.0
 11
-8.3880028421
 21
9.0555401328
 31
0.0
 11
-8.5035230745
 21
8.9212503169
 31
0.0
 11
-8.6051064969
 21
8.7694898928
 31
0.0
 11
-8.6892975925
 21
8.6054175977
 31
0.0
 11
-8.7532319954
 21
8.4346124861
 31
0.0
 11
-8.794733899
 21
8.2628841498
 31
0.0
 11
-8.8123903994
 21
8.0960715959
 31
0.0
  0
SPLINE
  5
514
100
AcDbEntity
  8
RACCORDO
100
AcDbSpline
 62
253
  6
CONTINUOUS
 70
0
 71
3
 72
15
 73
11
 74
9
 42
0.0000001
 43
0.0000001
 44
0.0000000001
 12
-1.8328740634
 22
-1.0116674781
 32
0.0
 13
-0.069987329
 23
-2.0923671265
 33
0.0
 40
0.0
 40
0.0
 40
0.0
 40
0.0
 40
0.1123063317
 40
0.2327572391
 40
0.3595516106
 40
0.4903413227
 40
0.6224664263
 40
0.7531670867
 40
0.8797892771
 40
1.0
 40
1.0
 40
1.0
 40
1.0
 10
-8.4970354801
 20
9.8572049859
 30
0.0
 10
-8.5656499343
 20
9.8193327648
 30
0.0
 10
-8.7010336036
 20
9.7281220024
 30
0.0
 10
-8.8871328731
 20
9.5587689105
 30
0.0
 10
-9.0582972587
 20
9.3571268111
 30
0.0
 10
-9.2088333531
 20
9.129907892
 30
0.0
 10
-9.3337936937
 20
8.8846345809
 30
0.0
 10
-9.4290247331
 20
8.6294263036
 30
0.0
 10
-9.491358054
 20
8.3728091074
 30
0.0
 10
-9.5101694641
 20
8.2009286765
 30
0.0
 10
-9.5129738733
 20
8.1170870216
 30
0.0
 11
-8.4970354801
 21
9.8572049859
 31
0.0
 11
-8.6928247397
 21
9.727025103
 31
0.0
 11
-8.8800463239
 21
9.5580960814
 31
0.0
 11
-9.0523380081
 21
9.3561589321
 31
0.0
 11
-9.2038405583
 21
9.1280786543
 31
0.0
 11
-9.3294012058
 21
8.8816096502
 31
0.0
 11
-9.4247495443
 21
8.6251330055
 31
0.0
 11
-9.4866423644
 21
8.3673713439
 31
0.0
 11
-9.5129738733
 21
8.1170870216
 31
0.0
  0
SPLINE
  5
515
100
AcDbEntity
  8
RACCORDO
100
AcDbSpline
 62
253
  6
CONTINUOUS
 70
0
 71
3
 72
15
 73
11
 74
9
 42
0.0000001
 43
0.0000001
 44
0.0000000001
 12
-0.0325364716
 22
0.7318350036
 32
0.0
 13
-0.6502427749
 23
0.3373802427
 33
0.0
 40
0.0
 40
0.0
 40
0.0
 40
0.0
 40
0.1182341878
 40
0.2445920213
 40
0.3762598592
 40
0.5099675801
 40
0.6422895236
 40
0.7699078884
 40
0.8898863776
 40
1.0
 40
1.0
 40
1.0
 40
1.0
 10
-8.1312027401
 20
9.2542025402
 30
0.0
 10
-8.1324850478
 20
9.2830451793
 30
0.0
 10
-8.1399746835
 20
9.3425499097
 30
0.0
 10
-8.1634315215
 20
9.431607717
 30
0.0
 10
-8.1986746407
 20
9.5207675532
 30
0.0
 10
-8.2443897094
 20
9.6066745837
 30
0.0
 10
-8.2988618962
 20
9.6861242273
 30
0.0
 10
-8.3600729038
 20
9.7561527005
 30
0.0
 10
-8.4257255853
 20
9.8141450637
 30
0.0
 10
-8.4731686176
 20
9.844821599
 30
0.0
 10
-8.4970354801
 20
9.8572049859
 30
0.0
 11
-8.1312027401
 21
9.2542025402
 31
0.0
 11
-8.1415389112
 21
9.3401969752
 31
0.0
 11
-8.1648098836
 21
9.4297884685
 31
0.0
 11
-8.2001231551
 21
9.5195459641
 31
0.0
 11
-8.2461234516
 21
9.6060208768
 31
0.0
 11
-8.3010443657
 21
9.6858944896
 31
0.0
 11
-8.3627785405
 21
9.7561003899
 31
0.0
 11
-8.4289535073
 21
9.8139427213
 31
0.0
 11
-8.4970354801
 21
9.8572049859
 31
0.0
  0
SPLINE
  5
516
100
AcDbEntity
  8
RACCORDO
100
AcDbSpline
 62
253
  6
CONTINUOUS
 70
0
 71
3
 72
15
 73
11
 74
9
 42
0.0000001
 43
0.0000001
 44
0.0000000001
 12
-0.6597277107
 22
-0.2858494006
 32
0.0
 13
-0.6428529925
 23
0.3220101895
 33
0.0
 40
0.0
 40
0.0
 40
0.0
 40
0.0
 40
0.111849354
 40
0.2344080018
 40
0.364618772
 40
0.4988638171
 40
0.6332637546
 40
0.7639293112
 40
0.8872119581
 40
1.0
 40
1.0
 40
1.0
 40
1.0
 10
-8.8123903994
 20
8.0960715959
 30
0.0
 10
-8.8369871055
 20
8.085414239
 30
0.0
 10
-8.8903095824
 20
8.0670948581
 30
0.0
 10
-8.9758912028
 20
8.0486733146
 30
0.0
 10
-9.0682408656
 20
8.0385227149
 30
0.0
 10
-9.163954445
 20
8.0370372512
 30
0.0
 10
-9.259514823
 20
8.0442704841
 30
0.0
 10
-9.3514092124
 20
8.0599580964
 30
0.0
 10
-9.4362499609
 20
8.0835023097
 30
0.0
 10
-9.4888051631
 20
8.1049807221
 30
0.0
 10
-9.5129738732
 20
8.1170870216
 30
0.0
 11
-8.8123903994
 21
8.0960715959
 31
0.0
 11
-8.8882597593
 21
8.0694063547
 31
0.0
 11
-8.974327205
 21
8.0505036196
 31
0.0
 11
-9.0673647371
 21
8.040071284
 31
0.0
 11
-9.1638732031
 21
8.038502846
 31
0.0
 11
-9.2602255674
 21
8.0458565367
 31
0.0
 11
-9.352800636
 21
8.0618566997
 31
0.0
 11
-9.4381166897
 21
8.0859004313
 31
0.0
 11
-9.5129738732
 21
8.1170870216
 31
0.0
  0
SPLINE
  5
517
100
AcDbEntity
  8
RACCORDO
100
AcDbSpline
 62
253
  6
CONTINUOUS
 70
0
 71
3
 72
18
 73
14
 74
12
 42
0.0000001
 43
0.0000001
 44
0.0000000001
 12
0.035807711
 22
-1.0294053606
 32
0.0
 13
0.9497563548
 23
0.3986482848
 33
0.0
 40
0.0
 40
0.0
 40
0.0
 40
0.0
 40
0.1464028953
 40
0.280415864
 40
0.4031528169
 40
0.4613353922
 40
0.5180567946
 40
0.5739992256
 40
0.6299000508
 40
0.6864996056
 40
0.7444881179
 40
0.8666676364
 40
1.0
 40
1.0
 40
1.0
 40
1.0
 10
-8.8123903994
 20
-27.4835530318
 30
0.0
 10
-8.8106429485
 20
-27.5337890069
 30
0.0
 10
-8.8000017087
 20
-27.6300324758
 30
0.0
 10
-8.7593980869
 20
-27.7632849768
 30
0.0
 10
-8.7050310987
 20
-27.8581635375
 30
0.0
 10
-8.6509086562
 20
-27.9195339065
 30
0.0
 10
-8.6061667348
 20
-27.9577876144
 30
0.0
 10
-8.5569682007
 20
-27.9886687652
 30
0.0
 10
-8.5037681228
 20
-28.0118875246
 30
0.0
 10
-8.447063305
 20
-28.0272302019
 30
0.0
 10
-8.3661442503
 20
-28.0372128425
 30
0.0
 10
-8.2576620813
 20
-28.0284076815
 30
0.0
 10
-8.1734138266
 20
-28.0015862727
 30
0.0
 10
-8.1312027401
 20
-27.9838687
 30
0.0
 11
-8.8123903994
 21
-27.4835530318
 31
0.0
 11
-8.7947338786
 21
-27.6333148703
 31
0.0
 11
-8.7532319895
 21
-27.7649652987
 31
0.0
 11
-8.68929759
 21
-27.8740296798
 31
0.0
 11
-8.649570215
 21
-27.918899515
 31
0.0
 11
-8.6051065009
 21
-27.956799588
 31
0.0
 11
-8.5562854155
 21
-27.9874072237
 31
0.0
 11
-8.5035230835
 21
-28.0104620515
 31
0.0
 11
-8.4472690638
 21
-28.025768034
 31
0.0
 11
-8.3880028537
 21
-28.033195281
 31
0.0
 11
-8.2624743443
 21
-28.0242290744
 31
0.0
 11
-8.1312027401
 21
-27.9838687
 31
0.0
  0
SPLINE
  5
518
100
AcDbEntity
  8
RACCORDO
100
AcDbSpline
 62
253
  6
CONTINUOUS
 70
0
 71
3
 72
14
 73
10
 74
8
 42
0.0000001
 43
0.0000001
 44
0.0000000001
 12
0.0309952064
 22
-0.8963333883
 32
0.0
 13
0.8013750219
 23
-0.4027062453
 33
0.0
 40
0.0
 40
0.0
 40
0.0
 40
0.0
 40
0.2860742794
 40
0.4187446214
 40
0.5446680967
 40
0.6645114956
 40
0.779336603
 40
0.8905840666
 40
1.0
 40
1.0
 40
1.0
 40
1.0
 10
-9.5129738733
 20
-27.498152846
 30
0.0
 10
-9.5100182295
 20
-27.5836254887
 30
0.0
 10
-9.4949931618
 20
-27.709029091
 30
0.0
 10
-9.4489347122
 20
-27.865520042
 30
0.0
 10
-9.4039604348
 20
-27.9696812873
 30
0.0
 10
-9.3481414671
 20
-28.0623205819
 30
0.0
 10
-9.2820067065
 20
-28.1423658159
 30
0.0
 10
-9.206284584
 20
-28.2087930161
 30
0.0
 10
-9.1497687575
 20
-28.2435457306
 30
0.0
 10
-9.1205410255
 20
-28.2582332238
 30
0.0
 11
-9.5129738733
 21
-27.498152846
 31
0.0
 11
-9.4799746997
 21
-27.7525930765
 31
0.0
 11
-9.4460309027
 21
-27.8666366966
 31
0.0
 11
-9.4009180057
 21
-27.9701720289
 31
0.0
 11
-9.3451375119
 21
-28.0620486503
 31
0.0
 11
-9.2793094789
 21
-28.141245796
 31
0.0
 11
-9.2041655948
 21
-28.2068836727
 31
0.0
 11
-9.1205410255
 21
-28.2582332238
 31
0.0
  0
LINE
  5
519
100
AcDbEntity
  8
RACCORDO
100
AcDbLine
 62
253
  6
CONTINUOUS
 10
-9.1205410255
 20
-28.2582332238
 11
-9.119596628
 21
-28.2587067157
  0
SPLINE
  5
51A
100
AcDbEntity
  8
RACCORDO
100
AcDbSpline
 62
253
  6
CONTINUOUS
 70
0
 71
3
 72
15
 73
11
 74
9
 42
0.0000001
 43
0.0000001
 44
0.0000000001
 12
-0.6379205315
 22
-0.3396317062
 32
0.0
 13
-0.646620102
 23
0.3227611254
 33
0.0
 40
0.0
 40
0.0
 40
0.0
 40
0.0
 40
0.1147806334
 40
0.2389963615
 40
0.3697513051
 40
0.5036352202
 40
0.6370195587
 40
0.7663105315
 40
0.8882056496
 40
1.0
 40
1.0
 40
1.0
 40
1.0
 10
-8.8123903994
 20
-27.4835530318
 30
0.0
 10
-8.8367973736
 20
-27.4965474126
 30
0.0
 10
-8.8898067213
 20
-27.5195798524
 30
0.0
 10
-8.975478076
 20
-27.5446216152
 30
0.0
 10
-9.0679162759
 20
-27.5608688286
 30
0.0
 10
-9.1637184511
 20
-27.5677084242
 30
0.0
 10
-9.2593719342
 20
-27.5648948508
 30
0.0
 10
-9.3513738245
 20
-27.5525265373
 30
0.0
 10
-9.4363417405
 20
-27.531074139
 30
0.0
 10
-9.4888775208
 20
-27.5101803624
 30
0.0
 10
-9.5129736788
 20
-27.498152739
 30
0.0
 11
-8.8123903994
 21
-27.4835530318
 31
0.0
 11
-8.8882597603
 21
-27.5170915021
 31
0.0
 11
-8.9743271954
 21
-27.5426087562
 31
0.0
 11
-9.0673647066
 21
-27.5591489314
 31
0.0
 11
-9.1638731432
 21
-27.5660886955
 31
0.0
 11
-9.2602254727
 21
-27.563168024
 31
0.0
 11
-9.3528005045
 21
-27.5504958942
 31
0.0
 11
-9.4381165236
 21
-27.5285501623
 31
0.0
 11
-9.5129736788
 21
-27.498152739
 31
0.0
  0
SPLINE
  5
51B
100
AcDbEntity
  8
RACCORDO
100
AcDbSpline
 62
253
  6
CONTINUOUS
 70
0
 71
3
 72
12
 73
8
 74
6
 42
0.0000001
 43
0.0000001
 44
0.0000000001
 12
-0.0143667242
 22
-0.337021057
 32
0.0
 13
-0.3110365509
 23
-0.1305597934
 33
0.0
 40
0.0
 40
0.0
 40
0.0
 40
0.0
 40
0.2890978441
 40
0.5488670609
 40
0.7821082425
 40
0.892142372
 40
1.0
 40
1.0
 40
1.0
 40
1.0
 10
-8.1312027401
 20
-27.9838687
 30
0.0
 10
-8.1325872031
 20
-28.0163460536
 30
0.0
 10
-8.1406502652
 20
-28.0780267421
 30
0.0
 10
-8.1712578365
 20
-28.1613656741
 30
0.0
 10
-8.2122100217
 20
-28.2169884052
 30
0.0
 10
-8.2520708822
 20
-28.2487468876
 30
0.0
 10
-8.2738276532
 20
-28.2603699117
 30
0.0
 10
-8.285010208
 20
-28.2650638682
 30
0.0
 11
-8.1312027401
 21
-27.9838687
 31
0.0
 11
-8.1448033215
 21
-28.0804361962
 31
0.0
 11
-8.1762344494
 21
-28.1622323535
 31
0.0
 11
-8.2238174751
 21
-28.224891547
 31
0.0
 11
-8.252901877
 21
-28.2479524706
 31
0.0
 11
-8.285010208
 21
-28.2650638682
 31
0.0
  0
SPLINE
  5
51C
100
AcDbEntity
  8
ASSI
100
AcDbSpline
 62
7
  6
CONTINUOUS
 70
0
 71
3
 72
11
 73
7
 74
5
 42
0.0000001
 43
0.0000001
 44
0.0000000001
 12
-0.040794579
 22
0.0202622031
 32
0.0
 13
-0.0447498448
 23
-0.0084974082
 33
0.0
 40
0.0
 40
0.0
 40
0.0
 40
0.0
 40
0.1613307781
 40
0.3756632268
 40
0.6530269295
 40
1.0
 40
1.0
 40
1.0
 40
1.0
 10
-1.9541027516
 20
18.9513583653
 30
0.0
 10
-1.9562965587
 20
18.9524480043
 30
0.0
 10
-1.9618968205
 20
18.9539513213
 30
0.0
 10
-1.9718240648
 20
18.954470316
 30
0.0
 10
-1.9845484584
 20
18.9535080268
 30
0.0
 10
-1.9939120883
 20
18.951983769
 30
0.0
 10
-1.999087752
 20
18.9510009784
 30
0.0
 11
-1.9541027516
 21
18.9513583653
 31
0.0
 11
-1.9611270746
 21
18.9535170246
 31
0.0
 11
-1.9708630894
 21
18.9542387695
 31
0.0
 11
-1.9834708467
 21
18.9534284499
 31
0.0
 11
-1.999087752
 21
18.9510009784
 31
0.0
  0
SPLINE
  5
51D
100
AcDbEntity
  8
RACCORDO
100
AcDbSpline
 62
253
  6
CONTINUOUS
 70
0
 71
3
 72
12
 73
8
 74
6
 42
0.0000001
 43
0.0000001
 44
0.0000000001
 12
0.0080892484
 22
-0.2408843262
 32
0.0
 13
0.2155017185
 23
-0.1079337941
 33
0.0
 40
0.0
 40
0.0
 40
0.0
 40
0.0
 40
0.1048972659
 40
0.2122700343
 40
0.4422669275
 40
0.7032089287
 40
1.0
 40
1.0
 40
1.0
 40
1.0
 10
-24.4842832648
 20
-19.9080828293
 30
0.0
 10
-24.4840004181
 20
-19.9165055317
 30
0.0
 10
-24.4818439245
 20
-19.9335364257
 30
0.0
 10
-24.4710965667
 20
-19.9675761564
 30
0.0
 10
-24.4449530961
 20
-20.0089033649
 30
0.0
 10
-24.3978352219
 20
-20.0519122653
 30
0.0
 10
-24.3591396127
 20
-20.0750518783
 30
0.0
 10
-24.3378199507
 20
-20.0857298071
 30
0.0
 11
-24.4842832648
 21
-19.9080828293
 31
0.0
 11
-24.4811360255
 21
-19.9331685253
 31
0.0
 11
-24.4734136313
 21
-19.9578684666
 31
0.0
 11
-24.4445683984
 21
-20.0052062662
 31
0.0
 11
-24.3988117347
 21
-20.0483544458
 31
0.0
 11
-24.3378199507
 21
-20.0857298071
 31
0.0
  0
SPLINE
  5
51E
100
AcDbEntity
  8
RACCORDO
100
AcDbSpline
 62
253
  6
CONTINUOUS
 70
0
 71
3
 72
12
 73
8
 74
6
 42
0.0000001
 43
0.0000001
 44
0.0000000001
 12
-0.0077587338
 22
-0.2398606219
 32
0.0
 13
0.2147279964
 23
-0.1071690416
 33
0.0
 40
0.0
 40
0.0
 40
0.0
 40
0.0
 40
0.099277791
 40
0.2018807832
 40
0.4272193789
 40
0.6918016567
 40
1.0
 40
1.0
 40
1.0
 40
1.0
 10
-24.4843021726
 20
15.7045445663
 30
0.0
 10
-24.4845589293
 20
15.6966069554
 30
0.0
 10
-24.4833431528
 20
15.6803609273
 30
0.0
 10
-24.4737895324
 20
15.6473300184
 30
0.0
 10
-24.4476786584
 20
15.6066298598
 30
0.0
 10
-24.399581558
 20
15.5639089181
 30
0.0
 10
-24.3598794387
 20
15.5405198864
 30
0.0
 10
-24.3378198344
 20
15.5295101127
 30
0.0
 11
-24.4843021726
 21
15.7045445663
 31
0.0
 11
-24.4825654343
 21
15.6807826629
 31
0.0
 11
-24.47583743
 21
15.6570963729
 31
0.0
 11
-24.447729412
 21
15.6108969905
 31
0.0
 11
-24.4011037255
 21
15.5677948412
 31
0.0
 11
-24.3378198344
 21
15.5295101127
 31
0.0
  0
SPLINE
  5
51F
100
AcDbEntity
  8
RACCORDO
100
AcDbSpline
 62
253
  6
CONTINUOUS
 70
0
 71
3
 72
11
 73
7
 74
5
 42
0.0000001
 43
0.0000001
 44
0.0000000001
 12
0.2095462293
 22
0.1221727803
 32
0.0
 13
0.2185212513
 23
-0.1052818749
 33
0.0
 40
0.0
 40
0.0
 40
0.0
 40
0.0
 40
0.2233920384
 40
0.4591546198
 40
0.7164477244
 40
1.0
 40
1.0
 40
1.0
 40
1.0
 10
-23.5785983565
 20
17.2900871919
 30
0.0
 10
-23.5629947034
 20
17.2991846674
 30
0.0
 10
-23.5277974032
 20
17.3129433403
 30
0.0
 10
-23.469383447
 20
17.3176540069
 30
0.0
 10
-23.4069501147
 20
17.3071608266
 30
0.0
 10
-23.3659080069
 20
17.291265188
 30
0.0
 10
-23.3452539409
 20
17.2813142163
 30
0.0
 11
-23.5785983565
 21
17.2900871919
 31
0.0
 11
-23.5282157318
 21
17.3100304508
 31
0.0
 11
-23.4712674528
 21
17.3152480078
 31
0.0
 11
-23.409612839
 21
17.3055720555
 31
0.0
 11
-23.3452539409
 21
17.2813142163
 31
0.0
  0
SPLINE
  5
520
100
AcDbEntity
  8
RACCORDO
100
AcDbSpline
 62
253
  6
CONTINUOUS
 70
0
 71
3
 72
15
 73
11
 74
9
 42
0.0000001
 43
0.0000001
 44
0.0000000001
 12
0.0681959732
 22
2.0876384573
 32
0.0
 13
1.8094012684
 23
1.0435286623
 33
0.0
 40
0.0
 40
0.0
 40
0.0
 40
0.0
 40
0.1206003718
 40
0.2476870836
 40
0.378818603
 40
0.511243798
 40
0.6421179418
 40
0.7687096746
 40
0.8886154667
 40
1.0
 40
1.0
 40
1.0
 40
1.0
 10
-24.3378199509
 20
15.5295100604
 30
0.0
 10
-24.3350784643
 20
15.6134333851
 30
0.0
 10
-24.3166891626
 20
15.7855300181
 30
0.0
 10
-24.2558146766
 20
16.042765335
 30
0.0
 10
-24.16281566
 20
16.2989877049
 30
0.0
 10
-24.0407845253
 20
16.5456341951
 30
0.0
 10
-23.8937788105
 20
16.7745347288
 30
0.0
 10
-23.7266316106
 20
16.9781129308
 30
0.0
 10
-23.5449037613
 20
17.1495975552
 30
0.0
 10
-23.4124337128
 20
17.2425698986
 30
0.0
 10
-23.3452539409
 20
17.2813142163
 30
0.0
 11
-24.3378199509
 21
15.5295100604
 31
0.0
 11
-24.3120942095
 21
15.7800972664
 31
0.0
 11
-24.2516252808
 21
16.0385708737
 31
0.0
 11
-24.1584705015
 21
16.2961442981
 31
0.0
 11
-24.0357984727
 21
16.5440576115
 31
0.0
 11
-23.8877813539
 21
16.773880605
 31
0.0
 11
-23.7194533661
 21
16.9777996025
 31
0.0
 11
-23.5365389647
 21
17.1488822154
 31
0.0
 11
-23.3452539409
 21
17.2813142163
 31
0.0
  0
SPLINE
  5
521
100
AcDbEntity
  8
RACCORDO
100
AcDbSpline
 62
7
  6
CONTINUOUS
 70
0
 71
3
 72
9
 73
5
 74
3
 42
0.0000001
 43
0.0000001
 44
0.0000000001
 12
-0.0045884295
 22
-0.005576179
 32
0.0
 13
-0.0070425727
 23
-0.0015967554
 33
0.0
 40
0.0
 40
0.0
 40
0.0
 40
0.0
 40
0.2030518491
 40
1.0
 40
1.0
 40
1.0
 40
1.0
 10
-2.3768874555
 20
14.3736252341
 30
0.0
 10
-2.3771980185
 20
14.3732478163
 30
0.0
 10
-2.3789993538
 20
14.3716107492
 30
0.0
 10
-2.38140994
 20
14.3708638333
 30
0.0
 10
-2.383280795
 20
14.3704396562
 30
0.0
 11
-2.3768874555
 21
14.3736252341
 31
0.0
 11
-2.3779546669
 21
14.3726196983
 31
0.0
 11
-2.383280795
 21
14.3704396562
 31
0.0
  0
SPLINE
  5
522
100
AcDbEntity
  8
RACCORDO
100
AcDbSpline
 62
7
  6
CONTINUOUS
 70
0
 71
3
 72
10
 73
6
 74
4
 42
0.0000001
 43
0.0000001
 44
0.0000000001
 12
-0.0361042069
 22
-0.0081858706
 32
0.0
 13
-0.0366503987
 23
0.0052221176
 33
0.0
 40
0.0
 40
0.0
 40
0.0
 40
0.0
 40
0.1774336531
 40
0.4038439875
 40
1.0
 40
1.0
 40
1.0
 40
1.0
 10
-2.383280795
 20
14.3704396562
 30
0.0
 10
-2.3854161622
 20
14.3699555065
 30
0.0
 10
-2.3903955811
 20
14.3694065733
 30
0.0
 10
-2.402742979
 20
14.3694232183
 30
0.0
 10
-2.4128593757
 20
14.3705866509
 30
0.0
 10
-2.4201424942
 20
14.3716243832
 30
0.0
 11
-2.383280795
 21
14.3704396562
 31
0.0
 11
-2.3897930478
 21
14.3695804089
 31
0.0
 11
-2.3981745396
 21
14.3695041704
 31
0.0
 11
-2.4201424942
 21
14.3716243832
 31
0.0
  0
SPLINE
  5
523
100
AcDbEntity
  8
RACCORDO
100
AcDbSpline
 62
7
  6
CONTINUOUS
 70
0
 71
3
 72
9
 73
5
 74
3
 42
0.0000001
 43
0.0000001
 44
0.0000000001
 12
-0.0215198209
 22
0.0034647399
 32
0.0
 13
-0.0213511642
 23
0.004385761
 33
0.0
 40
0.0
 40
0.0
 40
0.0
 40
0.0
 40
0.2352505176
 40
1.0
 40
1.0
 40
1.0
 40
1.0
 10
-2.4265972915
 20
14.3726056761
 30
0.0
 10
-2.4282848078
 20
14.37287737
 30
0.0
 10
-2.4354505857
 20
14.3740787731
 30
0.0
 10
-2.4425872808
 20
14.3754502416
 30
0.0
 10
-2.4480300447
 20
14.3765682444
 30
0.0
 11
-2.4265972915
 21
14.3726056761
 31
0.0
 11
-2.4316547042
 21
14.3734520433
 31
0.0
 11
-2.4480300447
 21
14.3765682444
 31
0.0
  0
SPLINE
  5
524
100
AcDbEntity
  8
RACCORDO
100
AcDbSpline
 62
253
  6
CONTINUOUS
 70
0
 71
3
 72
13
 73
9
 74
7
 42
0.0000001
 43
0.0000001
 44
0.0000000001
 12
-0.6892462477
 22
0.4523085724
 32
0.0
 13
-0.0278469829
 23
0.8239344514
 33
0.0
 40
0.0
 40
0.0
 40
0.0
 40
0.0
 40
0.1078953641
 40
0.2187349259
 40
0.4539175537
 40
0.5805825092
 40
0.7138083501
 40
1.0
 40
1.0
 40
1.0
 40
1.0
 10
-24.0094415285
 20
-20.8095424711
 30
0.0
 10
-24.0342303535
 20
-20.7932751384
 30
0.0
 10
-24.0819171588
 20
-20.7561976009
 30
0.0
 10
-24.1678750887
 20
-20.6652749688
 30
0.0
 10
-24.235462198
 20
-20.5522613873
 30
0.0
 10
-24.2840602295
 20
-20.4250219379
 30
0.0
 10
-24.3224291829
 20
-20.2796868893
 30
0.0
 10
-24.3351634262
 20
-20.1643308605
 30
0.0
 10
-24.3378199509
 20
-20.0857298072
 30
0.0
 11
-24.0094415285
 21
-20.8095424711
 31
0.0
 11
-24.0797508743
 21
-20.7550575788
 31
0.0
 11
-24.1426815068
 21
-20.688804785
 31
0.0
 11
-24.244127298
 21
-20.5235763974
 31
0.0
 11
-24.2816937554
 21
-20.4261445341
 31
0.0
 11
-24.3099929405
 21
-20.3200208695
 31
0.0
 11
-24.3378199509
 21
-20.0857298072
 31
0.0
  0
SPLINE
  5
525
100
AcDbEntity
  8
RACCORDO
100
AcDbSpline
 62
7
  6
CONTINUOUS
 70
0
 71
3
 72
12
 73
8
 74
6
 42
0.0000001
 43
0.0000001
 44
0.0000000001
 12
0.0013523503
 22
-0.378362677
 32
0.0
 13
0.2335499491
 23
-0.2976819872
 33
0.0
 40
0.0
 40
0.0
 40
0.0
 40
0.0
 40
0.1017390782
 40
0.2138140225
 40
0.4593746596
 40
0.7238545188
 40
1.0
 40
1.0
 40
1.0
 40
1.0
 10
-14.1161904589
 20
19.0261806737
 30
0.0
 10
-14.1161445967
 20
19.0133492503
 30
0.0
 10
-14.1138291669
 20
18.9863808618
 30
0.0
 10
-14.1022887319
 20
18.9295232139
 30
0.0
 10
-14.0759287288
 20
18.855204115
 30
0.0
 10
-14.0300981911
 20
18.7670148381
 30
0.0
 10
-13.9912426881
 20
18.7107252954
 30
0.0
 10
-13.9697447671
 20
18.6833241169
 30
0.0
 11
-14.1161904589
 21
19.0261806737
 31
0.0
 11
-14.1132491707
 21
18.9877986912
 31
0.0
 11
-14.1050363335
 21
18.9461963564
 31
0.0
 11
-14.0748478282
 21
18.8583259141
 31
0.0
 11
-14.0290216044
 21
18.7693655215
 31
0.0
 11
-13.9697447671
 21
18.6833241169
 31
0.0
  0
SPLINE
  5
526
100
AcDbEntity
  8
RACCORDO
100
AcDbSpline
 62
253
  6
CONTINUOUS
 70
0
 71
3
 72
11
 73
7
 74
5
 42
0.0000001
 43
0.0000001
 44
0.0000000001
 12
-0.1026816329
 22
0.0513348711
 32
0.0
 13
-0.1029710594
 23
-0.0507518241
 33
0.0
 40
0.0
 40
0.0
 40
0.0
 40
0.0
 40
0.2274027353
 40
0.4651090575
 40
0.7211019479
 40
1.0
 40
1.0
 40
1.0
 40
1.0
 10
-2.5140360388
 20
15.0355824459
 30
0.0
 10
-2.5218194002
 20
15.039473676
 30
0.0
 10
-2.5389542443
 20
15.0451978597
 30
0.0
 10
-2.5667896812
 20
15.0466837289
 30
0.0
 10
-2.5960932795
 20
15.0413225456
 30
0.0
 10
-2.6152309391
 20
15.0337074949
 30
0.0
 10
-2.6248037484
 20
15.0289893
 30
0.0
 11
-2.5140360388
 21
15.0355824459
 31
0.0
 11
-2.5387704213
 21
15.0439318049
 31
0.0
 11
-2.5660068211
 21
15.0456160225
 31
0.0
 11
-2.5949611008
 21
15.0405874359
 31
0.0
 11
-2.6248037484
 21
15.0289893
 31
0.0
  0
SPLINE
  5
527
100
AcDbEntity
  8
RACCORDO
100
AcDbSpline
 62
253
  6
CONTINUOUS
 70
0
 71
3
 72
11
 73
7
 74
5
 42
0.0000001
 43
0.0000001
 44
0.0000000001
 12
-0.0000013698
 22
-0.1191821853
 32
0.0
 13
-0.1063496865
 23
-0.0537971883
 33
0.0
 40
0.0
 40
0.0
 40
0.0
 40
0.0
 40
0.2069627866
 40
0.4350648202
 40
0.69780603
 40
1.0
 40
1.0
 40
1.0
 40
1.0
 10
-2.3758321898
 20
14.8119723933
 30
0.0
 10
-2.3758322843
 20
14.8037503009
 30
0.0
 10
-2.3794314011
 20
14.7863344051
 30
0.0
 10
-2.3944807686
 20
14.7625391563
 30
0.0
 10
-2.4179577084
 20
14.7411273585
 30
0.0
 10
-2.4373173001
 20
14.7295188231
 30
0.0
 10
-2.4480300447
 20
14.7240997611
 30
0.0
 11
-2.3758321898
 21
14.8119723933
 31
0.0
 11
-2.3805653727
 21
14.7877644977
 31
0.0
 11
-2.3945856718
 21
14.7644730093
 31
0.0
 11
-2.4173597843
 21
14.7429808973
 31
0.0
 11
-2.4480300447
 21
14.7240997611
 31
0.0
  0
SPLINE
  5
528
100
AcDbEntity
  8
RACCORDO
100
AcDbSpline
 62
253
  6
CONTINUOUS
 70
0
 71
3
 72
11
 73
7
 74
5
 42
0.0000001
 43
0.0000001
 44
0.0000000001
 12
-0.1026843522
 22
0.0513470349
 32
0.0
 13
-0.1029781204
 23
-0.0507553043
 33
0.0
 40
0.0
 40
0.0
 40
0.0
 40
0.0
 40
0.2274032722
 40
0.4651087917
 40
0.721101419
 40
1.0
 40
1.0
 40
1.0
 40
1.0
 10
-3.8513550999
 20
15.7042419747
 30
0.0
 10
-3.8591386858
 20
15.708134136
 30
0.0
 10
-3.8762743142
 20
15.7138599995
 30
0.0
 10
-3.9041116306
 20
15.7153472715
 30
0.0
 10
-3.9334173833
 20
15.7099863876
 30
0.0
 10
-3.9525564251
 20
15.7023709077
 30
0.0
 10
-3.9621299089
 20
15.6976523802
 30
0.0
 11
-3.8513550999
 21
15.7042419747
 31
0.0
 11
-3.8760906271
 21
15.712593732
 31
0.0
 11
-3.9033287225
 21
15.7142793541
 31
0.0
 11
-3.9322850803
 21
15.7092511326
 31
0.0
 11
-3.9621299089
 21
15.6976523802
 31
0.0
  0
SPLINE
  5
529
100
AcDbEntity
  8
RACCORDO
100
AcDbSpline
 62
253
  6
CONTINUOUS
 70
0
 71
3
 72
11
 73
7
 74
5
 42
0.0000001
 43
0.0000001
 44
0.0000000001
 12
-0.1076143396
 22
0.0538071698
 32
0.0
 13
-0.0000116247
 23
0.1203164888
 33
0.0
 40
0.0
 40
0.0
 40
0.0
 40
0.0
 40
0.3025789318
 40
0.5654800689
 40
0.7934320357
 40
1.0
 40
1.0
 40
1.0
 40
1.0
 10
-6.2550846468
 20
-27.6586080063
 30
0.0
 10
-6.2659385907
 20
-27.6531810343
 30
0.0
 10
-6.2855559168
 20
-27.6415420972
 30
0.0
 10
-6.3093663964
 20
-27.6200232331
 30
0.0
 10
-6.3246459847
 20
-27.5960710426
 30
0.0
 10
-6.3283071484
 20
-27.5785109553
 30
0.0
 10
-6.3283079488
 20
-27.5702264446
 30
0.0
 11
-6.2550846468
 21
-27.6586080063
 31
0.0
 11
-6.2861743618
 21
-27.6396667619
 31
0.0
 11
-6.3092745326
 21
-27.6180583399
 31
0.0
 11
-6.3235021229
 21
-27.594610909
 31
0.0
 11
-6.3283079488
 21
-27.5702264446
 31
0.0
  0
SPLINE
  5
52A
100
AcDbEntity
  8
RACCORDO
100
AcDbSpline
 62
253
  6
CONTINUOUS
 70
0
 71
3
 72
11
 73
7
 74
5
 42
0.0000001
 43
0.0000001
 44
0.0000000001
 12
0.0
 22
0.2523287194
 32
0.0
 13
0.1609736043
 23
0.1943123294
 33
0.0
 40
0.0
 40
0.0
 40
0.0
 40
0.0
 40
0.2352285381
 40
0.4870811593
 40
0.7456475008
 40
1.0
 40
1.0
 40
1.0
 40
1.0
 10
-4.9300999669
 20
-27.9811264121
 30
0.0
 10
-4.9300999669
 20
-27.9613414401
 30
0.0
 10
-4.9255691472
 20
-27.9203160952
 30
0.0
 10
-4.9078195151
 20
-27.8598863179
 30
0.0
 10
-4.8799950981
 20
-27.8016052425
 30
0.0
 10
-4.8553596322
 20
-27.7659068471
 30
0.0
 10
-4.8417116193
 20
-27.7494322382
 30
0.0
 11
-4.9300999669
 21
-27.9811264121
 31
0.0
 11
-4.924076317
 21
-27.9220779432
 31
0.0
 11
-4.9064162214
 21
-27.8610314121
 31
0.0
 11
-4.8783236176
 21
-27.8021455242
 31
0.0
 11
-4.8417116193
 21
-27.7494322382
 31
0.0
  0
SPLINE
  5
52B
100
AcDbEntity
  8
RACCORDO
100
AcDbSpline
 62
253
  6
CONTINUOUS
 70
0
 71
3
 72
13
 73
9
 74
7
 42
0.0000001
 43
0.0000001
 44
0.0000000001
 12
0.3242438587
 22
-0.1621219294
 32
0.0
 13
0.3249922966
 23
0.1606163349
 33
0.0
 40
0.0
 40
0.0
 40
0.0
 40
0.0
 40
0.1125245594
 40
0.2354259647
 40
0.4995815213
 40
0.7639633273
 40
0.8871315091
 40
1.0
 40
1.0
 40
1.0
 40
1.0
 10
-4.9300999669
 20
-27.9811264121
 30
0.0
 10
-4.9179381678
 20
-27.9872073116
 30
0.0
 10
-4.8914414147
 20
-27.997871428
 30
0.0
 10
-4.8329514701
 20
-28.0132587386
 30
0.0
 10
-4.7540266307
 20
-28.020718721
 30
0.0
 10
-4.6750517324
 20
-28.0134783171
 30
0.0
 10
-4.6164124687
 20
-27.9982654587
 30
0.0
 10
-4.5898051373
 20
-27.987681977
 30
0.0
 10
-4.5775780073
 20
-27.9816391359
 30
0.0
 11
-4.9300999669
 21
-27.9811264121
 31
0.0
 11
-4.8923656888
 21
-27.9966217187
 31
0.0
 11
-4.8493301118
 21
-28.0081529725
 31
0.0
 11
-4.7540504486
 21
-28.0177375356
 31
0.0
 11
-4.6586608891
 21
-28.0084302761
 31
0.0
 11
-4.6154918777
 21
-27.9970243939
 31
0.0
 11
-4.5775780073
 21
-27.9816391359
 31
0.0
  0
SPLINE
  5
52C
100
AcDbEntity
  8
RACCORDO
100
AcDbSpline
 62
253
  6
CONTINUOUS
 70
0
 71
3
 72
13
 73
9
 74
7
 42
0.0000001
 43
0.0000001
 44
0.0000000001
 12
0.3242438585
 22
-0.1621219293
 32
0.0
 13
0.3249922964
 23
0.1606163348
 33
0.0
 40
0.0
 40
0.0
 40
0.0
 40
0.0
 40
0.1125245899
 40
0.2354260292
 40
0.4995816495
 40
0.7639634918
 40
0.8871317035
 40
1.0
 40
1.0
 40
1.0
 40
1.0
 10
-4.9300999669
 20
-28.3211003462
 30
0.0
 10
-4.9179381645
 20
-28.3271812474
 30
0.0
 10
-4.891441404
 20
-28.3378453663
 30
0.0
 10
-4.8329514435
 20
-28.3532326778
 30
0.0
 10
-4.7540265875
 20
-28.3606926555
 30
0.0
 10
-4.6750516731
 20
-28.3534522453
 30
0.0
 10
-4.6164124283
 20
-28.3382393759
 30
0.0
 10
-4.5898051163
 20
-28.3276559007
 30
0.0
 10
-4.5775780073
 20
-28.32161307
 30
0.0
 11
-4.9300999669
 21
-28.3211003462
 31
0.0
 11
-4.8923656783
 21
-28.3365956563
 31
0.0
 11
-4.8493300889
 21
-28.3481269112
 31
0.0
 11
-4.7540504021
 21
-28.3577114698
 31
0.0
 11
-4.6586608306
 21
-28.3484041988
 31
0.0
 11
-4.6154918112
 21
-28.3369983045
 31
0.0
 11
-4.5775780073
 21
-28.32161307
 31
0.0
  0
SPLINE
  5
52D
100
AcDbEntity
  8
RACCORDO
100
AcDbSpline
 62
253
  6
CONTINUOUS
 70
0
 71
3
 72
11
 73
7
 74
5
 42
0.0000001
 43
0.0000001
 44
0.0000000001
 12
0.0
 22
-0.1574238334
 32
0.0
 13
0.1407964518
 23
-0.0704174871
 33
0.0
 40
0.0
 40
0.0
 40
0.0
 40
0.0
 40
0.2897495234
 40
0.549584515
 40
0.7828462997
 40
1.0
 40
1.0
 40
1.0
 40
1.0
 10
-4.9300999669
 20
-28.3211003462
 30
0.0
 10
-4.9300999669
 20
-28.3363048397
 30
0.0
 10
-4.9276464978
 20
-28.3652537827
 30
0.0
 10
-4.9152737676
 20
-28.4048463552
 30
0.0
 10
-4.8946102179
 20
-28.4365455495
 30
0.0
 10
-4.8753240167
 20
-28.4512183565
 30
0.0
 10
-4.8651325266
 20
-28.4563154958
 30
0.0
 11
-4.9300999669
 21
-28.3211003462
 31
0.0
 11
-4.925780561
 21
-28.3665088515
 31
0.0
 11
-4.9130343342
 21
-28.4053764338
 31
0.0
 11
-4.8924835298
 21
-28.4358082208
 31
0.0
 11
-4.8651325266
 21
-28.4563154958
 31
0.0
  0
SPLINE
  5
52E
100
AcDbEntity
  8
RACCORDO
100
AcDbSpline
 62
253
  6
CONTINUOUS
 70
0
 71
3
 72
11
 73
7
 74
5
 42
0.0000001
 43
0.0000001
 44
0.0000000001
 12
0.0
 22
-0.1485075132
 32
0.0
 13
0.125851273
 23
-0.0788412238
 33
0.0
 40
0.0
 40
0.0
 40
0.0
 40
0.0
 40
0.2877750821
 40
0.5478823996
 40
0.7826264214
 40
1.0
 40
1.0
 40
1.0
 40
1.0
 10
-6.2550846468
 20
-27.6586080063
 30
0.0
 10
-6.2550846468
 20
-27.6728535935
 30
0.0
 10
-6.2529200604
 20
-27.700062605
 30
0.0
 10
-6.2421008959
 20
-27.737592846
 30
0.0
 10
-6.2240776863
 20
-27.7683958514
 30
0.0
 10
-6.2071009743
 20
-27.7836929121
 30
0.0
 10
-6.1979820604
 20
-27.7894055784
 30
0.0
 11
-6.2550846468
 21
-27.6586080063
 31
0.0
 11
-6.2513183554
 21
-27.7011784874
 31
0.0
 11
-6.2401805481
 21
-27.7381658257
 31
0.0
 11
-6.2221458231
 21
-27.7679996239
 31
0.0
 11
-6.1979820604
 21
-27.7894055784
 31
0.0
  0
SPLINE
  5
52F
100
AcDbEntity
  8
RACCORDO
100
AcDbSpline
 62
253
  6
CONTINUOUS
 70
0
 71
3
 72
11
 73
7
 74
5
 42
0.0000001
 43
0.0000001
 44
0.0000000001
 12
0.0933195666
 22
0.2463317537
 32
0.0
 13
-0.1424013108
 23
0.2216071774
 33
0.0
 40
0.0
 40
0.0
 40
0.0
 40
0.0
 40
0.2593675241
 40
0.5167766675
 40
0.7652915396
 40
1.0
 40
1.0
 40
1.0
 40
1.0
 10
-2.4480300447
 20
-26.923035895
 30
0.0
 10
-2.4399620231
 20
-26.901739076
 30
0.0
 10
-2.4284871522
 20
-26.8574138416
 30
0.0
 10
-2.4257730913
 20
-26.7897622196
 30
0.0
 10
-2.4376138534
 20
-26.7252579473
 30
0.0
 10
-2.4554299595
 20
-26.6861077069
 30
0.0
 10
-2.4665708903
 20
-26.6687700137
 30
0.0
 11
-2.4480300447
 21
-26.923035895
 31
0.0
 11
-2.4308725098
 21
-26.8569038584
 31
0.0
 11
-2.4282998368
 21
-26.7891470511
 31
0.0
 11
-2.4405034527
 21
-26.724831874
 31
0.0
 11
-2.4665708903
 21
-26.6687700137
 31
0.0
  0
SPLINE
  5
530
100
AcDbEntity
  8
RACCORDO
100
AcDbSpline
 62
253
  6
CONTINUOUS
 70
0
 71
3
 72
9
 73
5
 74
3
 42
0.0000001
 43
0.0000001
 44
0.0000000001
 12
-0.0469957893
 22
0.0731355924
 32
0.0
 13
-0.075126589
 23
0.0437425961
 33
0.0
 40
0.0
 40
0.0
 40
0.0
 40
0.0
 40
0.511563463
 40
1.0
 40
1.0
 40
1.0
 40
1.0
 10
-2.4665708903
 20
-26.6687700137
 30
0.0
 10
-2.4745846666
 20
-26.6562988481
 30
0.0
 10
-2.4928559637
 20
-26.6334600834
 30
0.0
 10
-2.5160575467
 20
-26.6155340003
 30
0.0
 10
-2.5282890704
 20
-26.6084121729
 30
0.0
 11
-2.4665708903
 21
-26.6687700137
 31
0.0
 11
-2.4945687645
 21
-26.6342175279
 31
0.0
 11
-2.5282890704
 21
-26.6084121729
 31
0.0
  0
SPLINE
  5
531
100
AcDbEntity
  8
RACCORDO
100
AcDbSpline
 62
7
  6
CONTINUOUS
 70
0
 71
3
 72
12
 73
8
 74
6
 42
0.0000001
 43
0.0000001
 44
0.0000000001
 12
-0.4345619355
 22
-0.032159537
 32
0.0
 13
-0.4201960756
 23
-0.1153844428
 33
0.0
 40
0.0
 40
0.0
 40
0.0
 40
0.0
 40
0.1460665466
 40
0.2901900051
 40
0.5606459046
 40
0.7988834635
 40
1.0
 40
1.0
 40
1.0
 40
1.0
 10
-8.0356152876
 20
16.0300601315
 30
0.0
 10
-8.056773608
 20
16.0284943206
 30
0.0
 10
-8.0986427338
 20
16.02308521
 30
0.0
 10
-8.1785526495
 20
16.0072619802
 30
0.0
 10
-8.2703124166
 20
15.9830991104
 30
0.0
 10
-8.3691121734
 20
15.9536689622
 30
0.0
 10
-8.4302682077
 20
15.9354058069
 30
0.0
 10
-8.4584376674
 20
15.927670567
 30
0.0
 11
-8.0356152876
 21
16.0300601315
 31
0.0
 11
-8.0987944306
 21
16.0223444032
 31
0.0
 11
-8.1604474385
 21
16.0103870833
 31
0.0
 11
-8.2746443252
 21
15.981266905
 31
0.0
 11
-8.3742795668
 21
15.952116133
 31
0.0
 11
-8.4584376674
 21
15.927670567
 31
0.0
  0
SPLINE
  5
532
100
AcDbEntity
  8
RACCORDO
100
AcDbSpline
 62
253
  6
CONTINUOUS
 70
0
 71
3
 72
13
 73
9
 74
7
 42
0.0000001
 43
0.0000001
 44
0.0000000001
 12
-0.1868382045
 22
0.3017261023
 32
0.0
 13
-0.3164708648
 23
0.1606030733
 33
0.0
 40
0.0
 40
0.0
 40
0.0
 40
0.0
 40
0.1018788417
 40
0.2189946503
 40
0.483012367
 40
0.7559759138
 40
0.8838496473
 40
1.0
 40
1.0
 40
1.0
 40
1.0
 10
-4.5775780073
 20
-27.9816391359
 30
0.0
 10
-4.5839229606
 20
-27.971392634
 30
0.0
 10
-4.5989376407
 20
-27.9502166875
 30
0.0
 10
-4.6357431514
 20
-27.9064590426
 30
0.0
 10
-4.691375254
 20
-27.8524010963
 30
0.0
 10
-4.7531867659
 20
-27.8035156619
 30
0.0
 10
-4.804303108
 20
-27.7698803059
 30
0.0
 10
-4.8294588851
 20
-27.7556502728
 30
0.0
 10
-4.8417116193
 20
-27.7494322382
 30
0.0
 11
-4.5775780073
 21
-27.9816391359
 31
0.0
 11
-4.5982549742
 21
-27.9519792953
 31
0.0
 11
-4.6248677921
 21
-27.9200533921
 31
0.0
 11
-4.6916422492
 21
-27.8543239237
 31
0.0
 11
-4.767773121
 21
-27.7944215089
 31
0.0
 11
-4.8057446019
 21
-27.7695696338
 31
0.0
 11
-4.8417116193
 21
-27.7494322382
 31
0.0
  0
SPLINE
  5
533
100
AcDbEntity
  8
RACCORDO
100
AcDbSpline
 62
7
  6
CONTINUOUS
 70
0
 71
3
 72
13
 73
9
 74
7
 42
0.0000001
 43
0.0000001
 44
0.0000000001
 12
-0.3676034061
 22
0.0767624926
 32
0.0
 13
-0.3358865814
 23
0.1679432907
 33
0.0
 40
0.0
 40
0.0
 40
0.0
 40
0.0
 40
0.0966834289
 40
0.2082492961
 40
0.4660034111
 40
0.7454687051
 40
0.8795048358
 40
1.0
 40
1.0
 40
1.0
 40
1.0
 10
-3.8663573992
 20
-27.1301426588
 30
0.0
 10
-3.8782044518
 20
-27.1276687718
 30
0.0
 10
-3.9035790377
 20
-27.1216522147
 30
0.0
 10
-3.9598204926
 20
-27.1061414454
 30
0.0
 10
-4.0370910394
 20
-27.0810057068
 30
0.0
 10
-4.1156805888
 20
-27.0511656577
 30
0.0
 10
-4.1771290492
 20
-27.024824579
 30
0.0
 10
-4.2059026843
 20
-27.0111182722
 30
0.0
 10
-4.2193935872
 20
-27.0043728207
 30
0.0
 11
-3.8663573992
 21
-27.1301426588
 31
0.0
 11
-3.9017136654
 21
-27.1218849722
 31
0.0
 11
-3.9421236495
 21
-27.1108233221
 31
0.0
 11
-4.0342551847
 21
-27.0811405478
 31
0.0
 11
-4.1323283816
 21
-27.0437801338
 31
0.0
 11
-4.1785441597
 21
-27.0238375186
 31
0.0
 11
-4.2193935872
 21
-27.0043728207
 31
0.0
  0
SPLINE
  5
534
100
AcDbEntity
  8
RACCORDO
100
AcDbSpline
 62
253
  6
CONTINUOUS
 70
0
 71
3
 72
11
 73
7
 74
5
 42
0.0000001
 43
0.0000001
 44
0.0000000001
 12
-0.1076203225
 22
0.0538101613
 32
0.0
 13
0.0000013829
 23
0.1203231785
 33
0.0
 40
0.0
 40
0.0
 40
0.0
 40
0.0
 40
0.3025823249
 40
0.5654825874
 40
0.7934322572
 40
1.0
 40
1.0
 40
1.0
 40
1.0
 10
-19.6194028112
 20
21.0031030836
 30
0.0
 10
-19.6302574803
 20
21.0085304181
 30
0.0
 10
-19.6498759534
 20
21.0201701486
 30
0.0
 10
-19.6736873236
 20
21.0416907761
 30
0.0
 10
-19.6889665206
 20
21.065645061
 30
0.0
 10
-19.692626209
 20
21.0832064688
 30
0.0
 10
-19.6926261138
 20
21.0914914312
 30
0.0
 11
-19.6194028112
 21
21.0031030836
 31
0.0
 11
-19.6504944842
 21
21.0220457891
 31
0.0
 11
-19.6735953207
 21
21.0436559195
 31
0.0
 11
-19.6878222809
 21
21.067105193
 31
0.0
 11
-19.6926261138
 21
21.0914914312
 31
0.0
  0
SPLINE
  5
535
100
AcDbEntity
  8
RACCORDO
100
AcDbSpline
 62
253
  6
CONTINUOUS
 70
0
 71
3
 72
11
 73
7
 74
5
 42
0.0000001
 43
0.0000001
 44
0.0000000001
 12
-0.1076203225
 22
0.0538101613
 32
0.0
 13
0.0000013829
 23
0.1203231785
 33
0.0
 40
0.0
 40
0.0
 40
0.0
 40
0.0
 40
0.3025823249
 40
0.5654825874
 40
0.7934322572
 40
1.0
 40
1.0
 40
1.0
 40
1.0
 10
-19.6194028112
 20
20.6631291495
 30
0.0
 10
-19.6302574803
 20
20.668556484
 30
0.0
 10
-19.6498759534
 20
20.6801962145
 30
0.0
 10
-19.6736873236
 20
20.7017168419
 30
0.0
 10
-19.6889665206
 20
20.7256711268
 30
0.0
 10
-19.692626209
 20
20.7432325346
 30
0.0
 10
-19.6926261138
 20
20.7515174971
 30
0.0
 11
-19.6194028112
 21
20.6631291495
 31
0.0
 11
-19.6504944842
 21
20.682071855
 31
0.0
 11
-19.6735953207
 21
20.7036819854
 31
0.0
 11
-19.6878222809
 21
20.7271312588
 31
0.0
 11
-19.6926261138
 21
20.7515174971
 31
0.0
  0
SPLINE
  5
536
100
AcDbEntity
  8
RACCORDO
100
AcDbSpline
 62
253
  6
CONTINUOUS
 70
0
 71
3
 72
13
 73
9
 74
7
 42
0.0000001
 43
0.0000001
 44
0.0000000001
 12
0.0394649328
 22
-0.0642471106
 32
0.0
 13
-0.0453135263
 23
-0.0602648859
 33
0.0
 40
0.0
 40
0.0
 40
0.0
 40
0.0
 40
0.3431485768
 40
0.6189964258
 40
0.732599103
 40
0.8317373882
 40
0.919339117
 40
1.0
 40
1.0
 40
1.0
 40
1.0
 10
-15.8123482091
 20
21.0587273266
 30
0.0
 10
-15.8078340973
 20
21.0513785584
 30
0.0
 10
-15.8003022665
 20
21.0377335657
 30
0.0
 10
-15.7937928628
 20
21.0203613961
 30
0.0
 10
-15.7917632022
 20
21.0082092546
 30
0.0
 10
-15.7917592911
 20
21.0006155001
 30
0.0
 10
-15.7932086117
 20
20.9939878672
 30
0.0
 10
-15.7952334549
 20
20.9901946477
 30
0.0
 10
-15.7964517979
 20
20.9885743081
 30
0.0
 11
-15.8123482091
 21
21.0587273266
 31
0.0
 11
-15.8001077813
 21
21.0359324517
 31
0.0
 11
-15.7932756584
 21
21.0162876453
 31
0.0
 11
-15.7919543285
 21
21.0078245215
 31
0.0
 11
-15.7920450903
 21
21.0003500378
 31
0.0
 11
-15.7935478711
 21
20.9939180849
 31
0.0
 11
-15.7964517979
 21
20.9885743081
 31
0.0
  0
SPLINE
  5
537
100
AcDbEntity
  8
RACCORDO
100
AcDbSpline
 62
7
  6
CONTINUOUS
 70
0
 71
3
 72
11
 73
7
 74
5
 42
0.0000001
 43
0.0000001
 44
0.0000000001
 12
0.0
 22
0.3670486434
 32
0.0
 13
-0.328298287
 23
0.1641491435
 33
0.0
 40
0.0
 40
0.0
 40
0.0
 40
0.0
 40
0.2467927921
 40
0.5117852903
 40
0.7703247525
 40
1.0
 40
1.0
 40
1.0
 40
1.0
 10
-16.3406153809
 20
21.1428200233
 30
0.0
 10
-16.3406153809
 20
21.1730150098
 30
0.0
 10
-16.3510353843
 20
21.2357393484
 30
0.0
 10
-16.388769158
 20
21.3229731576
 30
0.0
 10
-16.4442277638
 20
21.3975692668
 30
0.0
 10
-16.4922550878
 20
21.4351425637
 30
0.0
 10
-16.5173890846
 20
21.4477095621
 30
0.0
 11
-16.3406153809
 21
21.1428200233
 31
0.0
 11
-16.354071345
 21
21.2323999983
 31
0.0
 11
-16.3923909684
 21
21.3217986188
 31
0.0
 11
-16.4497407156
 21
21.3974052546
 31
0.0
 11
-16.5173890846
 21
21.4477095621
 31
0.0
  0
SPLINE
  5
538
100
AcDbEntity
  8
RACCORDO
100
AcDbSpline
 62
253
  6
CONTINUOUS
 70
0
 71
3
 72
11
 73
7
 74
5
 42
0.0000001
 43
0.0000001
 44
0.0000000001
 12
-0.0017563531
 22
0.3667457897
 32
0.0
 13
-0.3272560829
 23
0.165556683
 33
0.0
 40
0.0
 40
0.0
 40
0.0
 40
0.0
 40
0.2466955157
 40
0.5118832147
 40
0.7705705489
 40
1.0
 40
1.0
 40
1.0
 40
1.0
 10
-17.9418961717
 20
20.3400980198
 30
0.0
 10
-17.9420405999
 20
20.3702562004
 30
0.0
 10
-17.9526935937
 20
20.4328853027
 30
0.0
 10
-17.9905120248
 20
20.5200115505
 30
0.0
 10
-18.04582746
 20
20.5946094099
 30
0.0
 10
-18.0936424809
 20
20.6323263657
 30
0.0
 10
-18.1186698754
 20
20.6449875586
 30
0.0
 11
-17.9418961717
 21
20.3400980198
 31
0.0
 11
-17.9556694707
 21
20.4295190837
 31
0.0
 11
-17.9941000303
 21
20.5188618528
 31
0.0
 11
-18.0513385515
 21
20.5945239146
 31
0.0
 11
-18.1186698754
 21
20.6449875586
 31
0.0
  0
SPLINE
  5
539
100
AcDbEntity
  8
RACCORDO
100
AcDbSpline
 62
253
  6
CONTINUOUS
 70
0
 71
3
 72
11
 73
7
 74
5
 42
0.0000001
 43
0.0000001
 44
0.0000000001
 12
0.0017306169
 22
0.3673419508
 32
0.0
 13
-0.3293172695
 23
0.1627674411
 33
0.0
 40
0.0
 40
0.0
 40
0.0
 40
0.0
 40
0.2468893536
 40
0.5116863499
 40
0.7700780422
 40
1.0
 40
1.0
 40
1.0
 40
1.0
 10
-15.8123482091
 20
21.4062588434
 30
0.0
 10
-15.8122057855
 20
21.4364897823
 30
0.0
 10
-15.822396239
 20
21.4993072068
 30
0.0
 10
-15.8600444245
 20
21.5866483737
 30
0.0
 10
-15.9156468131
 20
21.6612418239
 30
0.0
 10
-15.9638828224
 20
21.6986737793
 30
0.0
 10
-15.9891219128
 20
21.7111483822
 30
0.0
 11
-15.8123482091
 21
21.4062588434
 31
0.0
 11
-15.8254910364
 21
21.4959953224
 31
0.0
 11
-15.8637002193
 21
21.5854487995
 31
0.0
 11
-15.9211601786
 21
21.6610001088
 31
0.0
 11
-15.9891219128
 21
21.7111483822
 31
0.0
  0
SPLINE
  5
53A
100
AcDbEntity
  8
RACCORDO
100
AcDbSpline
 62
253
  6
CONTINUOUS
 70
0
 71
3
 72
11
 73
7
 74
5
 42
0.0000001
 43
0.0000001
 44
0.0000000001
 12
-0.1022732388
 22
0.0517308249
 32
0.0
 13
-0.1030347983
 23
-0.0501968522
 33
0.0
 40
0.0
 40
0.0
 40
0.0
 40
0.0
 40
0.2789492198
 40
0.5349524055
 40
0.7726363297
 40
1.0
 40
1.0
 40
1.0
 40
1.0
 10
-17.3264480734
 20
22.3798114624
 30
0.0
 10
-17.3359577534
 20
22.3846215535
 30
0.0
 10
-17.3549862392
 20
22.3924233473
 30
0.0
 10
-17.3841860805
 20
22.3980812928
 30
0.0
 10
-17.4119882774
 20
22.3968875209
 30
0.0
 10
-17.4291512544
 20
22.3913502806
 30
0.0
 10
-17.4369600443
 20
22.3875459671
 30
0.0
 11
-17.3264480734
 21
22.3798114624
 31
0.0
 11
-17.3561256526
 21
22.3917018035
 31
0.0
 11
-17.3849800203
 21
22.3970235339
 31
0.0
 11
-17.412185516
 21
22.3956251233
 31
0.0
 11
-17.4369600443
 21
22.3875459671
 31
0.0
  0
SPLINE
  5
53B
100
AcDbEntity
  8
RACCORDO
100
AcDbSpline
 62
7
  6
CONTINUOUS
 70
0
 71
3
 72
11
 73
7
 74
5
 42
0.0000001
 43
0.0000001
 44
0.0000000001
 12
-0.1028463418
 22
0.0514231709
 32
0.0
 13
-0.1033748983
 23
-0.0503521891
 33
0.0
 40
0.0
 40
0.0
 40
0.0
 40
0.0
 40
0.2790833933
 40
0.5352290697
 40
0.7729212505
 40
1.0
 40
1.0
 40
1.0
 40
1.0
 10
-17.8608979521
 20
22.1194639959
 30
0.0
 10
-17.8704655207
 20
22.1242477802
 30
0.0
 10
-17.8895970342
 20
22.1319985127
 30
0.0
 10
-17.9189160127
 20
22.1375923361
 30
0.0
 10
-17.9467987822
 20
22.1363585792
 30
0.0
 10
-17.9640053206
 20
22.1308053129
 30
0.0
 10
-17.9718300681
 20
22.1269940089
 30
0.0
 11
-17.8608979521
 21
22.1194639959
 31
0.0
 11
-17.8907353561
 21
22.1312765311
 31
0.0
 11
-17.9197148694
 21
22.1365369873
 31
0.0
 11
-17.9470080596
 21
22.1350960029
 31
0.0
 11
-17.9718300681
 21
22.1269940089
 31
0.0
  0
SPLINE
  5
53C
100
AcDbEntity
  8
RACCORDO
100
AcDbSpline
 62
253
  6
CONTINUOUS
 70
0
 71
3
 72
11
 73
7
 74
5
 42
0.0000001
 43
0.0000001
 44
0.0000000001
 12
-0.1051368994
 22
0.0519560066
 32
0.0
 13
-0.104347279
 23
-0.0535241963
 33
0.0
 40
0.0
 40
0.0
 40
0.0
 40
0.0
 40
0.2795156184
 40
0.5356957389
 40
0.7731450427
 40
1.0
 40
1.0
 40
1.0
 40
1.0
 10
-19.4436545552
 20
21.3074798985
 30
0.0
 10
-19.453450357
 20
21.312320737
 30
0.0
 10
-19.4730267411
 20
21.320124724
 30
0.0
 10
-19.5029929177
 20
21.3255778326
 30
0.0
 10
-19.5314063719
 20
21.3239569692
 30
0.0
 10
-19.5488423225
 20
21.3179786141
 30
0.0
 10
-19.5567328883
 20
21.3139312043
 30
0.0
 11
-19.4436545552
 21
21.3074798985
 31
0.0
 11
-19.4742025518
 21
21.3193686727
 31
0.0
 11
-19.5038090151
 21
21.3244731275
 31
0.0
 11
-19.5315954268
 21
21.3226427498
 31
0.0
 11
-19.5567328883
 21
21.3139312043
 31
0.0
  0
SPLINE
  5
53D
100
AcDbEntity
  8
RACCORDO
100
AcDbSpline
 62
253
  6
CONTINUOUS
 70
0
 71
3
 72
9
 73
5
 74
3
 42
0.0000001
 43
0.0000001
 44
0.0000000001
 12
0.0
 22
0.0966852017
 32
0.0
 13
0.0283194002
 23
0.0924447933
 33
0.0
 40
0.0
 40
0.0
 40
0.0
 40
0.0
 40
0.2382068112
 40
1.0
 40
1.0
 40
1.0
 40
1.0
 10
-18.2944181314
 20
20.3406107437
 30
0.0
 10
-18.2944181314
 20
20.3482877682
 30
0.0
 10
-18.2930170861
 20
20.380511631
 30
0.0
 10
-18.2864542578
 20
20.4124205622
 30
0.0
 10
-18.2792630825
 20
20.4358951668
 30
0.0
 11
-18.2944181314
 21
20.3406107437
 31
0.0
 11
-18.2934577619
 21
20.3636217854
 31
0.0
 11
-18.2792630825
 21
20.4358951668
 31
0.0
  0
SPLINE
  5
53E
100
AcDbEntity
  8
RACCORDO
100
AcDbSpline
 62
253
  6
CONTINUOUS
 70
0
 71
3
 72
11
 73
7
 74
5
 42
0.0000001
 43
0.0000001
 44
0.0000000001
 12
0.0790188741
 22
0.2579462641
 32
0.0
 13
0.2406072622
 23
0.1220180438
 33
0.0
 40
0.0
 40
0.0
 40
0.0
 40
0.0
 40
0.2637491952
 40
0.5265848138
 40
0.7754569962
 40
1.0
 40
1.0
 40
1.0
 40
1.0
 10
-18.2792630825
 20
20.4358951668
 30
0.0
 10
-18.2723160276
 20
20.4585728733
 30
0.0
 10
-18.2542370418
 20
20.502652515
 30
0.0
 10
-18.2169185026
 20
20.5619740633
 30
0.0
 10
-18.1718746968
 20
20.6110054856
 30
0.0
 10
-18.1366787679
 20
20.6358547926
 30
0.0
 10
-18.1186698754
 20
20.6449875586
 30
0.0
 11
-18.2792630825
 21
20.4358951668
 31
0.0
 11
-18.2523836996
 21
20.5017765623
 31
0.0
 11
-18.2144839881
 21
20.5617053413
 31
0.0
 11
-18.1686638794
 21
20.61078013
 31
0.0
 11
-18.1186698754
 21
20.6449875586
 31
0.0
  0
SPLINE
  5
53F
100
AcDbEntity
  8
RACCORDO
100
AcDbSpline
 62
253
  6
CONTINUOUS
 70
0
 71
3
 72
11
 73
7
 74
5
 42
0.0000001
 43
0.0000001
 44
0.0000000001
 12
0.0
 22
0.3659184282
 32
0.0
 13
0.3263519551
 23
0.1655013518
 33
0.0
 40
0.0
 40
0.0
 40
0.0
 40
0.0
 40
0.2465991784
 40
0.5114081618
 40
0.7699752382
 40
1.0
 40
1.0
 40
1.0
 40
1.0
 10
-19.6194028112
 20
21.0031030836
 30
0.0
 10
-19.6194028112
 20
21.0331814782
 30
0.0
 10
-19.6090600686
 20
21.0956664592
 30
0.0
 10
-19.5715764679
 20
21.1826368671
 30
0.0
 10
-19.5164371163
 20
21.2571358931
 30
0.0
 10
-19.4686775655
 20
21.2947900955
 30
0.0
 10
-19.4436545552
 20
21.3074798985
 30
0.0
 11
-19.6194028112
 21
21.0031030836
 31
0.0
 11
-19.6060444826
 21
21.0923440128
 31
0.0
 11
-19.5679892398
 21
21.1814569483
 31
0.0
 11
-19.5109872022
 21
21.2569729294
 31
0.0
 11
-19.4436545552
 21
21.3074798985
 31
0.0
  0
SPLINE
  5
540
100
AcDbEntity
  8
RACCORDO
100
AcDbSpline
 62
253
  6
CONTINUOUS
 70
0
 71
3
 72
13
 73
9
 74
7
 42
0.0000001
 43
0.0000001
 44
0.0000000001
 12
0.3242438589
 22
-0.1621219295
 32
0.0
 13
0.3249922968
 23
0.160616335
 33
0.0
 40
0.0
 40
0.0
 40
0.0
 40
0.0
 40
0.1125245356
 40
0.2354259129
 40
0.4995814041
 40
0.7639631741
 40
0.8871313456
 40
1.0
 40
1.0
 40
1.0
 40
1.0
 10
-18.2944181314
 20
20.0006368095
 30
0.0
 10
-18.2822563348
 20
19.9945559113
 30
0.0
 10
-18.2557595877
 20
19.9838917969
 30
0.0
 10
-18.1972696576
 20
19.9685044873
 30
0.0
 10
-18.1183448341
 20
19.961044501
 30
0.0
 10
-18.0393699496
 20
19.9682848991
 30
0.0
 10
-17.9807306688
 20
19.983497748
 30
0.0
 10
-17.9541233195
 20
19.9940812358
 30
0.0
 10
-17.9418961717
 20
20.0001240857
 30
0.0
 11
-18.2944181314
 21
20.0006368095
 31
0.0
 11
-18.2566838614
 21
19.9851415057
 31
0.0
 11
-18.2136482946
 21
19.9736102528
 31
0.0
 11
-18.1183686556
 21
19.964025686
 31
0.0
 11
-18.0229791081
 21
19.9733329349
 31
0.0
 11
-17.9798100982
 21
19.984738808
 31
0.0
 11
-17.9418961717
 21
20.0001240857
 31
0.0
  0
SPLINE
  5
541
100
AcDbEntity
  8
RACCORDO
100
AcDbSpline
 62
253
  6
CONTINUOUS
 70
0
 71
3
 72
13
 73
9
 74
7
 42
0.0000001
 43
0.0000001
 44
0.0000000001
 12
0.3242438589
 22
-0.1621219295
 32
0.0
 13
0.3249922968
 23
0.160616335
 33
0.0
 40
0.0
 40
0.0
 40
0.0
 40
0.0
 40
0.1125245356
 40
0.2354259129
 40
0.4995814041
 40
0.7639631741
 40
0.8871313456
 40
1.0
 40
1.0
 40
1.0
 40
1.0
 10
-18.2944181314
 20
20.3406107437
 30
0.0
 10
-18.2822563348
 20
20.3345298454
 30
0.0
 10
-18.2557595877
 20
20.323865731
 30
0.0
 10
-18.1972696576
 20
20.3084784215
 30
0.0
 10
-18.1183448341
 20
20.3010184351
 30
0.0
 10
-18.0393699496
 20
20.3082588333
 30
0.0
 10
-17.9807306688
 20
20.3234716821
 30
0.0
 10
-17.9541233195
 20
20.33405517
 30
0.0
 10
-17.9418961717
 20
20.3400980198
 30
0.0
 11
-18.2944181314
 21
20.3406107437
 31
0.0
 11
-18.2566838614
 21
20.3251154398
 31
0.0
 11
-18.2136482946
 21
20.3135841869
 31
0.0
 11
-18.1183686556
 21
20.3039996202
 31
0.0
 11
-18.0229791081
 21
20.313306869
 31
0.0
 11
-17.9798100982
 21
20.3247127421
 31
0.0
 11
-17.9418961717
 21
20.3400980198
 31
0.0
  0
SPLINE
  5
542
100
AcDbEntity
  8
RACCORDO
100
AcDbSpline
 62
253
  6
CONTINUOUS
 70
0
 71
3
 72
13
 73
9
 74
7
 42
0.0000001
 43
0.0000001
 44
0.0000000001
 12
-0.1069170157
 22
-0.2783410717
 32
0.0
 13
-0.2918756657
 23
0.0609392829
 33
0.0
 40
0.0
 40
0.0
 40
0.0
 40
0.0
 40
0.2769974725
 40
0.5361985654
 40
0.6582146203
 40
0.7753291389
 40
0.8886899808
 40
1.0
 40
1.0
 40
1.0
 40
1.0
 10
-4.5775780073
 20
13.3179650035
 30
0.0
 10
-4.5874499217
 20
13.292265079
 30
0.0
 10
-4.6131869076
 20
13.2447300096
 30
0.0
 10
-4.6605134461
 20
13.1978248918
 30
0.0
 10
-4.7037945113
 20
13.1732250378
 30
0.0
 10
-4.7371941126
 20
13.1618950126
 30
0.0
 10
-4.7711520595
 20
13.1577373968
 30
0.0
 10
-4.7935918745
 20
13.1598826978
 30
0.0
 10
-4.8044214365
 20
13.1621437487
 30
0.0
 11
-4.5775780073
 21
13.3179650035
 31
0.0
 11
-4.6174614408
 21
13.2456408787
 31
0.0
 11
-4.6730121043
 21
13.1919079781
 31
0.0
 11
-4.7047121253
 21
13.1740552754
 31
0.0
 11
-4.7378236327
 21
13.1629632867
 31
0.0
 11
-4.7713857913
 21
13.1589543883
 31
0.0
 11
-4.8044214365
 21
13.1621437487
 31
0.0
  0
SPLINE
  5
543
100
AcDbEntity
  8
RACCORDO
100
AcDbSpline
 62
7
  6
CONTINUOUS
 70
0
 71
3
 72
9
 73
5
 74
3
 42
0.0000001
 43
0.0000001
 44
0.0000000001
 12
-0.1029438807
 22
-0.0575384424
 32
0.0
 13
-0.1162019051
 23
-0.0201303799
 33
0.0
 40
0.0
 40
0.0
 40
0.0
 40
0.0
 40
0.4764818357
 40
1.0
 40
1.0
 40
1.0
 40
1.0
 10
-3.8663573992
 20
12.3609606567
 30
0.0
 10
-3.8827076956
 20
12.3518219824
 30
0.0
 10
-3.919305901
 20
12.3366674837
 30
0.0
 10
-3.9577264057
 20
12.3277897873
 30
0.0
 10
-3.9780043417
 20
12.3242769141
 30
0.0
 11
-3.8663573992
 21
12.3609606567
 31
0.0
 11
-3.9179981814
 21
12.3388053491
 31
0.0
 11
-3.9780043417
 21
12.3242769141
 31
0.0
  0
SPLINE
  5
544
100
AcDbEntity
  8
RACCORDO
100
AcDbSpline
 62
253
  6
CONTINUOUS
 70
0
 71
3
 72
11
 73
7
 74
5
 42
0.0000001
 43
0.0000001
 44
0.0000000001
 12
0.0
 22
-0.1574304972
 32
0.0
 13
0.1408119364
 23
-0.0704014205
 33
0.0
 40
0.0
 40
0.0
 40
0.0
 40
0.0
 40
0.289749639
 40
0.5495875602
 40
0.7828489991
 40
1.0
 40
1.0
 40
1.0
 40
1.0
 10
-4.9300999669
 20
13.3184777273
 30
0.0
 10
-4.9300999669
 20
13.3032725841
 30
0.0
 10
-4.9276461055
 20
13.2743223606
 30
0.0
 10
-4.9152727321
 20
13.2347276719
 30
0.0
 10
-4.8946059055
 20
13.2030290321
 30
0.0
 10
-4.875319186
 20
13.1883551225
 30
0.0
 10
-4.8651267017
 20
13.1832592096
 30
0.0
 11
-4.9300999669
 21
13.3184777273
 31
0.0
 11
-4.9257801569
 21
13.2730673026
 31
0.0
 11
-4.9130326677
 21
13.2341978268
 31
0.0
 11
-4.8924794521
 21
13.2037658581
 31
0.0
 11
-4.8651267017
 21
13.1832592096
 31
0.0
  0
SPLINE
  5
545
100
AcDbEntity
  8
RACCORDO
100
AcDbSpline
 62
253
  6
CONTINUOUS
 70
0
 71
3
 72
11
 73
7
 74
5
 42
0.0000001
 43
0.0000001
 44
0.0000000001
 12
0.0
 22
-0.1506778962
 32
0.0
 13
0.1295113006
 23
-0.0770107228
 33
0.0
 40
0.0
 40
0.0
 40
0.0
 40
0.0
 40
0.2882821934
 40
0.5483532173
 40
0.7827404965
 40
1.0
 40
1.0
 40
1.0
 40
1.0
 10
-6.2550846468
 20
13.9809700672
 30
0.0
 10
-6.2550846468
 20
13.9664908158
 30
0.0
 10
-6.2528510027
 20
13.9388567485
 30
0.0
 10
-6.2416641699
 20
13.9008178803
 30
0.0
 10
-6.2230171767
 20
13.8697796113
 30
0.0
 10
-6.2054880265
 20
13.8546057059
 30
0.0
 10
-6.1961088395
 20
13.8490286021
 30
0.0
 11
-6.2550846468
 21
13.9809700672
 31
0.0
 11
-6.2511874039
 21
13.9377074967
 31
0.0
 11
-6.239668192
 21
13.9002518539
 31
0.0
 11
-6.2210343733
 21
13.8702506868
 31
0.0
 11
-6.1961088395
 21
13.8490286021
 31
0.0
  0
SPLINE
  5
546
100
AcDbEntity
  8
RACCORDO
100
AcDbSpline
 62
253
  6
CONTINUOUS
 70
0
 71
3
 72
13
 73
9
 74
7
 42
0.0000001
 43
0.0000001
 44
0.0000000001
 12
-0.1069170157
 22
-0.2783410717
 32
0.0
 13
-0.2918756657
 23
0.0609392829
 33
0.0
 40
0.0
 40
0.0
 40
0.0
 40
0.0
 40
0.2769974725
 40
0.5361985654
 40
0.6582146203
 40
0.7753291389
 40
0.8886899808
 40
1.0
 40
1.0
 40
1.0
 40
1.0
 10
-17.9418961717
 20
20.0001240857
 30
0.0
 10
-17.9517680861
 20
19.9744241612
 30
0.0
 10
-17.9775050721
 20
19.9268890918
 30
0.0
 10
-18.0248316105
 20
19.879983974
 30
0.0
 10
-18.0681126758
 20
19.85538412
 30
0.0
 10
-18.101512277
 20
19.8440540948
 30
0.0
 10
-18.1354702239
 20
19.839896479
 30
0.0
 10
-18.1579100389
 20
19.84204178
 30
0.0
 10
-18.1687396009
 20
19.8443028309
 30
0.0
 11
-17.9418961717
 21
20.0001240857
 31
0.0
 11
-17.9817796053
 21
19.927799961
 31
0.0
 11
-18.0373302687
 21
19.8740670603
 31
0.0
 11
-18.0690302897
 21
19.8562143576
 31
0.0
 11
-18.1021417971
 21
19.845122369
 31
0.0
 11
-18.1357039557
 21
19.8411134705
 31
0.0
 11
-18.1687396009
 21
19.8443028309
 31
0.0
  0
SPLINE
  5
547
100
AcDbEntity
  8
RACCORDO
100
AcDbSpline
 62
7
  6
CONTINUOUS
 70
0
 71
3
 72
12
 73
8
 74
6
 42
0.0000001
 43
0.0000001
 44
0.0000000001
 12
-0.2288947893
 22
-0.2740443819
 32
0.0
 13
-0.3495652491
 23
0.0727824462
 33
0.0
 40
0.0
 40
0.0
 40
0.0
 40
0.0
 40
0.2548335856
 40
0.5141953181
 40
0.6424651752
 40
0.7674743832
 40
1.0
 40
1.0
 40
1.0
 40
1.0
 10
-17.2306755636
 20
19.8516205628
 30
0.0
 10
-17.2501189236
 20
19.828341992
 30
0.0
 10
-17.2947329579
 20
19.785672446
 30
0.0
 10
-17.3603964704
 20
19.7452365098
 30
0.0
 10
-17.4173780037
 20
19.722906462
 30
0.0
 10
-17.4735680993
 20
19.7091048777
 30
0.0
 10
-17.5173595161
 20
19.7083102072
 30
0.0
 10
-17.5444538078
 20
19.7139514683
 30
0.0
 11
-17.2306755636
 21
19.8516205628
 31
0.0
 11
-17.2962901655
 21
19.7885797113
 31
0.0
 11
-17.3753474929
 21
19.7403488823
 31
0.0
 11
-17.4180334731
 21
19.7237485275
 31
0.0
 11
-17.4614303111
 21
19.7133039891
 31
0.0
 11
-17.5444538078
 21
19.7139514683
 31
0.0
  0
SPLINE
  5
548
100
AcDbEntity
  8
RACCORDO
100
AcDbSpline
 62
253
  6
CONTINUOUS
 70
0
 71
3
 72
11
 73
7
 74
5
 42
0.0000001
 43
0.0000001
 44
0.0000000001
 12
0.0
 22
-0.1506778962
 32
0.0
 13
0.1295113006
 23
-0.0770107228
 33
0.0
 40
0.0
 40
0.0
 40
0.0
 40
0.0
 40
0.2882821934
 40
0.5483532173
 40
0.7827404965
 40
1.0
 40
1.0
 40
1.0
 40
1.0
 10
-19.6194028112
 20
20.6631291495
 30
0.0
 10
-19.6194028112
 20
20.648649898
 30
0.0
 10
-19.6171691671
 20
20.6210158307
 30
0.0
 10
-19.6059823343
 20
20.5829769625
 30
0.0
 10
-19.5873353411
 20
20.5519386935
 30
0.0
 10
-19.5698061909
 20
20.5367647882
 30
0.0
 10
-19.5604270039
 20
20.5311876844
 30
0.0
 11
-19.6194028112
 21
20.6631291495
 31
0.0
 11
-19.6155055683
 21
20.6198665789
 31
0.0
 11
-19.6039863564
 21
20.5824109361
 31
0.0
 11
-19.5853525378
 21
20.552409769
 31
0.0
 11
-19.5604270039
 21
20.5311876844
 31
0.0
  0
SPLINE
  5
549
100
AcDbEntity
  8
RACCORDO
100
AcDbSpline
 62
253
  6
CONTINUOUS
 70
0
 71
3
 72
11
 73
7
 74
5
 42
0.0000001
 43
0.0000001
 44
0.0000000001
 12
-0.1076203225
 22
0.0538101613
 32
0.0
 13
0.0000013829
 23
0.1203231785
 33
0.0
 40
0.0
 40
0.0
 40
0.0
 40
0.0
 40
0.3025823249
 40
0.5654825874
 40
0.7934322572
 40
1.0
 40
1.0
 40
1.0
 40
1.0
 10
-6.2550846468
 20
13.9809700672
 30
0.0
 10
-6.2659393159
 20
13.9863974018
 30
0.0
 10
-6.2855577889
 20
13.9980371323
 30
0.0
 10
-6.3093691592
 20
14.0195577597
 30
0.0
 10
-6.3246483562
 20
14.0435120446
 30
0.0
 10
-6.3283080446
 20
14.0610734524
 30
0.0
 10
-6.3283079493
 20
14.0693584149
 30
0.0
 11
-6.2550846468
 21
13.9809700672
 31
0.0
 11
-6.2861763197
 21
13.9999127728
 31
0.0
 11
-6.3092771563
 21
14.0215229032
 31
0.0
 11
-6.3235041165
 21
14.0449721766
 31
0.0
 11
-6.3283079493
 21
14.0693584149
 31
0.0
  0
SPLINE
  5
54A
100
AcDbEntity
  8
RACCORDO
100
AcDbSpline
 62
253
  6
CONTINUOUS
 70
0
 71
3
 72
11
 73
7
 74
5
 42
0.0000001
 43
0.0000001
 44
0.0000000001
 12
0.0
 22
-0.1574304972
 32
0.0
 13
0.1408119364
 23
-0.0704014205
 33
0.0
 40
0.0
 40
0.0
 40
0.0
 40
0.0
 40
0.289749639
 40
0.5495875602
 40
0.7828489991
 40
1.0
 40
1.0
 40
1.0
 40
1.0
 10
-18.2944181314
 20
20.0006368095
 30
0.0
 10
-18.2944181314
 20
19.9854316663
 30
0.0
 10
-18.2919642699
 20
19.9564814428
 30
0.0
 10
-18.2795908965
 20
19.9168867541
 30
0.0
 10
-18.2589240699
 20
19.8851881144
 30
0.0
 10
-18.2396373505
 20
19.8705142048
 30
0.0
 10
-18.2294448661
 20
19.8654182918
 30
0.0
 11
-18.2944181314
 21
20.0006368095
 31
0.0
 11
-18.2900983213
 21
19.9552263848
 31
0.0
 11
-18.2773508321
 21
19.916356909
 31
0.0
 11
-18.2567976166
 21
19.8859249403
 31
0.0
 11
-18.2294448661
 21
19.8654182918
 31
0.0
  0
SPLINE
  5
54B
100
AcDbEntity
  8
RACCORDO
100
AcDbSpline
 62
253
  6
CONTINUOUS
 70
0
 71
3
 72
11
 73
7
 74
5
 42
0.0000001
 43
0.0000001
 44
0.0000000001
 12
-0.1076200259
 22
0.053810013
 32
0.0
 13
0.0000008147
 23
0.1203228468
 33
0.0
 40
0.0
 40
0.0
 40
0.0
 40
0.0
 40
0.3025814593
 40
0.565482116
 40
0.7934320761
 40
1.0
 40
1.0
 40
1.0
 40
1.0
 10
-6.2550846468
 20
14.3209440014
 30
0.0
 10
-6.2659392549
 20
14.3263713054
 30
0.0
 10
-6.285557656
 20
14.3380109911
 30
0.0
 10
-6.3093689953
 20
14.3595315079
 30
0.0
 10
-6.3246482304
 20
14.3834857097
 30
0.0
 10
-6.3283080052
 20
14.401047066
 30
0.0
 10
-6.3283079491
 20
14.4093320129
 30
0.0
 11
-6.2550846468
 21
14.3209440014
 31
0.0
 11
-6.2861761536
 21
14.3398865866
 31
0.0
 11
-6.309277001
 21
14.3614966472
 31
0.0
 11
-6.3235040108
 21
14.384945843
 31
0.0
 11
-6.3283079491
 21
14.4093320129
 31
0.0
  0
SPLINE
  5
54C
100
AcDbEntity
  8
RACCORDO
100
AcDbSpline
 62
253
  6
CONTINUOUS
 70
0
 71
3
 72
11
 73
7
 74
5
 42
0.0000001
 43
0.0000001
 44
0.0000000001
 12
-0.1051440438
 22
0.0519595372
 32
0.0
 13
-0.1043498228
 23
-0.0535366971
 33
0.0
 40
0.0
 40
0.0
 40
0.0
 40
0.0
 40
0.2795161735
 40
0.5356960478
 40
0.773144514
 40
1.0
 40
1.0
 40
1.0
 40
1.0
 10
-6.0793363908
 20
14.6253208163
 30
0.0
 10
-6.0891328777
 20
14.6301619933
 30
0.0
 10
-6.1087106655
 20
14.6379664156
 30
0.0
 10
-6.1386790268
 20
14.6434192132
 30
0.0
 10
-6.1670943776
 20
14.6417969023
 30
0.0
 10
-6.1845310989
 20
14.6358168169
 30
0.0
 10
-6.1924218755
 20
14.6317684524
 30
0.0
 11
-6.0793363908
 21
14.6253208163
 31
0.0
 11
-6.1098866042
 21
14.6372102159
 31
0.0
 11
-6.1394951754
 21
14.6423142901
 31
0.0
 11
-6.1672832896
 21
14.6404824636
 31
0.0
 11
-6.1924218755
 21
14.6317684524
 31
0.0
  0
SPLINE
  5
54D
100
AcDbEntity
  8
RACCORDO
100
AcDbSpline
 62
7
  6
CONTINUOUS
 70
0
 71
3
 72
11
 73
7
 74
5
 42
0.0000001
 43
0.0000001
 44
0.0000000001
 12
-0.1028463418
 22
0.0514231709
 32
0.0
 13
-0.1033748983
 23
-0.0503521891
 33
0.0
 40
0.0
 40
0.0
 40
0.0
 40
0.0
 40
0.2790833933
 40
0.5352290697
 40
0.7729212505
 40
1.0
 40
1.0
 40
1.0
 40
1.0
 10
-4.4965797876
 20
15.4373049137
 30
0.0
 10
-4.5061473563
 20
15.442088698
 30
0.0
 10
-4.5252788698
 20
15.4498394305
 30
0.0
 10
-4.5545978482
 20
15.4554332539
 30
0.0
 10
-4.5824806178
 20
15.454199497
 30
0.0
 10
-4.5996871562
 20
15.4486462307
 30
0.0
 10
-4.6075119037
 20
15.4448349267
 30
0.0
 11
-4.4965797876
 21
15.4373049137
 31
0.0
 11
-4.5264171917
 21
15.4491174489
 31
0.0
 11
-4.555396705
 21
15.4543779051
 31
0.0
 11
-4.5826898952
 21
15.4529369207
 31
0.0
 11
-4.6075119037
 21
15.4448349267
 31
0.0
  0
SPLINE
  5
54E
100
AcDbEntity
  8
RACCORDO
100
AcDbSpline
 62
253
  6
CONTINUOUS
 70
0
 71
3
 72
11
 73
7
 74
5
 42
0.0000001
 43
0.0000001
 44
0.0000000001
 12
-0.0933130795
 22
0.0471986869
 32
0.0
 13
-0.0983901726
 23
-0.0354178032
 33
0.0
 40
0.0
 40
0.0
 40
0.0
 40
0.0
 40
0.2771778777
 40
0.5336195602
 40
0.7726121171
 40
1.0
 40
1.0
 40
1.0
 40
1.0
 10
-3.9621299089
 20
15.6976523802
 30
0.0
 10
-3.9707513494
 20
15.7020131909
 30
0.0
 10
-3.9879964569
 20
15.7092300457
 30
0.0
 10
-4.0144287291
 20
15.7151639619
 30
0.0
 10
-4.0398145054
 20
15.7155700837
 30
0.0
 10
-4.055870049
 20
15.712002409
 30
0.0
 10
-4.0633276267
 20
15.7093178826
 30
0.0
 11
-3.9621299089
 21
15.6976523802
 31
0.0
 11
-3.9889393293
 21
15.7086691005
 31
0.0
 11
-4.0151463217
 21
15.7143530937
 31
0.0
 11
-4.040137009
 21
15.7145709365
 31
0.0
 11
-4.0633276267
 21
15.7093178826
 31
0.0
  0
SPLINE
  5
54F
100
AcDbEntity
  8
RACCORDO
100
AcDbSpline
 62
253
  6
CONTINUOUS
 70
0
 71
3
 72
11
 73
7
 74
5
 42
0.0000001
 43
0.0000001
 44
0.0000000001
 12
0.0
 22
0.3659184285
 32
0.0
 13
0.3263519554
 23
0.165501352
 33
0.0
 40
0.0
 40
0.0
 40
0.0
 40
0.0
 40
0.2465996066
 40
0.5114086341
 40
0.7699756527
 40
1.0
 40
1.0
 40
1.0
 40
1.0
 10
-4.9300999669
 20
13.6584516615
 30
0.0
 10
-4.9300999669
 20
13.6885301083
 30
0.0
 10
-4.9197571948
 20
13.751015147
 30
0.0
 10
-4.8822735425
 20
13.8379855865
 30
0.0
 10
-4.8271341921
 20
13.9124845508
 30
0.0
 10
-4.7793746761
 20
13.9501386963
 30
0.0
 10
-4.754351711
 20
13.9628284764
 30
0.0
 11
-4.9300999669
 21
13.6584516615
 31
0.0
 11
-4.9167415929
 21
13.7476927423
 31
0.0
 11
-4.8786863081
 21
13.8368056776
 31
0.0
 11
-4.8216842513
 21
13.9123216178
 31
0.0
 11
-4.754351711
 21
13.9628284764
 31
0.0
  0
SPLINE
  5
550
100
AcDbEntity
  8
RACCORDO
100
AcDbSpline
 62
253
  6
CONTINUOUS
 70
0
 71
3
 72
11
 73
7
 74
5
 42
0.0000001
 43
0.0000001
 44
0.0000000001
 12
0.0
 22
0.365918428
 32
0.0
 13
0.3263519549
 23
0.1655013517
 33
0.0
 40
0.0
 40
0.0
 40
0.0
 40
0.0
 40
0.2465994894
 40
0.5114083944
 40
0.7699753467
 40
1.0
 40
1.0
 40
1.0
 40
1.0
 10
-6.2550846468
 20
14.3209440014
 30
0.0
 10
-6.2550846468
 20
14.3510224339
 30
0.0
 10
-6.2447418848
 20
14.4135074432
 30
0.0
 10
-6.2072582613
 20
14.500477854
 30
0.0
 10
-6.1521189201
 20
14.5749768401
 30
0.0
 10
-6.1043593892
 20
14.6126310193
 30
0.0
 10
-6.0793363908
 20
14.6253208163
 30
0.0
 11
-6.2550846468
 21
14.3209440014
 31
0.0
 11
-6.2417262851
 21
14.4101850406
 31
0.0
 11
-6.2036710324
 21
14.4992979406
 31
0.0
 11
-6.1466690098
 21
14.5748138761
 31
0.0
 11
-6.0793363908
 21
14.6253208163
 31
0.0
  0
SPLINE
  5
551
100
AcDbEntity
  8
RACCORDO
100
AcDbSpline
 62
253
  6
CONTINUOUS
 70
0
 71
3
 72
13
 73
9
 74
7
 42
0.0000001
 43
0.0000001
 44
0.0000000001
 12
0.3242438589
 22
-0.1621219295
 32
0.0
 13
0.3249922968
 23
0.160616335
 33
0.0
 40
0.0
 40
0.0
 40
0.0
 40
0.0
 40
0.1125245356
 40
0.2354259129
 40
0.4995814041
 40
0.7639631741
 40
0.8871313456
 40
1.0
 40
1.0
 40
1.0
 40
1.0
 10
-4.9300999669
 20
13.3184777273
 30
0.0
 10
-4.9179381704
 20
13.3123968291
 30
0.0
 10
-4.8914414233
 20
13.3017327147
 30
0.0
 10
-4.8329514931
 20
13.2863454051
 30
0.0
 10
-4.7540266697
 20
13.2788854188
 30
0.0
 10
-4.6750517852
 20
13.2861258169
 30
0.0
 10
-4.6164125044
 20
13.3013386658
 30
0.0
 10
-4.589805155
 20
13.3119221536
 30
0.0
 10
-4.5775780073
 20
13.3179650035
 30
0.0
 11
-4.9300999669
 21
13.3184777273
 31
0.0
 11
-4.892365697
 21
13.3029824235
 31
0.0
 11
-4.8493301302
 21
13.2914511706
 31
0.0
 11
-4.7540504911
 21
13.2818666038
 31
0.0
 11
-4.6586609437
 21
13.2911738527
 31
0.0
 11
-4.6154919337
 21
13.3025797258
 31
0.0
 11
-4.5775780073
 21
13.3179650035
 31
0.0
  0
SPLINE
  5
552
100
AcDbEntity
  8
RACCORDO
100
AcDbSpline
 62
253
  6
CONTINUOUS
 70
0
 71
3
 72
13
 73
9
 74
7
 42
0.0000001
 43
0.0000001
 44
0.0000000001
 12
0.3242438585
 22
-0.1621219293
 32
0.0
 13
0.3249922964
 23
0.1606163348
 33
0.0
 40
0.0
 40
0.0
 40
0.0
 40
0.0
 40
0.1125245899
 40
0.2354260292
 40
0.4995816495
 40
0.7639634918
 40
0.8871317035
 40
1.0
 40
1.0
 40
1.0
 40
1.0
 10
-4.9300999669
 20
13.6584516615
 30
0.0
 10
-4.9179381645
 20
13.6523707603
 30
0.0
 10
-4.891441404
 20
13.6417066414
 30
0.0
 10
-4.8329514435
 20
13.6263193299
 30
0.0
 10
-4.7540265875
 20
13.6188593521
 30
0.0
 10
-4.6750516731
 20
13.6260997623
 30
0.0
 10
-4.6164124283
 20
13.6413126317
 30
0.0
 10
-4.5898051163
 20
13.6518961069
 30
0.0
 10
-4.5775780073
 20
13.6579389376
 30
0.0
 11
-4.9300999669
 21
13.6584516615
 31
0.0
 11
-4.8923656783
 21
13.6429563513
 31
0.0
 11
-4.8493300889
 21
13.6314250964
 31
0.0
 11
-4.7540504021
 21
13.6218405378
 31
0.0
 11
-4.6586608306
 21
13.6311478089
 31
0.0
 11
-4.6154918112
 21
13.6425537031
 31
0.0
 11
-4.5775780073
 21
13.6579389376
 31
0.0
  0
SPLINE
  5
553
100
AcDbEntity
  8
RACCORDO
100
AcDbSpline
 62
7
  6
CONTINUOUS
 70
0
 71
3
 72
11
 73
7
 74
5
 42
0.0000001
 43
0.0000001
 44
0.0000000001
 12
0.0
 22
0.3670486434
 32
0.0
 13
-0.328298287
 23
0.1641491435
 33
0.0
 40
0.0
 40
0.0
 40
0.0
 40
0.0
 40
0.2467927921
 40
0.5117852903
 40
0.7703247525
 40
1.0
 40
1.0
 40
1.0
 40
1.0
 10
-2.9762972165
 20
14.4606609411
 30
0.0
 10
-2.9762972165
 20
14.4908559276
 30
0.0
 10
-2.9867172199
 20
14.5535802661
 30
0.0
 10
-3.0244509936
 20
14.6408140754
 30
0.0
 10
-3.0799095993
 20
14.7154101846
 30
0.0
 10
-3.1279369234
 20
14.7529834815
 30
0.0
 10
-3.1530709201
 20
14.7655504799
 30
0.0
 11
-2.9762972165
 21
14.4606609411
 31
0.0
 11
-2.9897531806
 21
14.5502409161
 31
0.0
 11
-3.028072804
 21
14.6396395365
 31
0.0
 11
-3.0854225512
 21
14.7152461724
 31
0.0
 11
-3.1530709201
 21
14.7655504799
 31
0.0
  0
SPLINE
  5
554
100
AcDbEntity
  8
RACCORDO
100
AcDbSpline
 62
253
  6
CONTINUOUS
 70
0
 71
3
 72
11
 73
7
 74
5
 42
0.0000001
 43
0.0000001
 44
0.0000000001
 12
0.0017306169
 22
0.3673419505
 32
0.0
 13
-0.3293172692
 23
0.162767441
 33
0.0
 40
0.0
 40
0.0
 40
0.0
 40
0.0
 40
0.2468889152
 40
0.5116858701
 40
0.7700776245
 40
1.0
 40
1.0
 40
1.0
 40
1.0
 10
-2.4480300447
 20
14.7240997611
 30
0.0
 10
-2.4478876213
 20
14.7543306464
 30
0.0
 10
-2.4580780445
 20
14.8171480119
 30
0.0
 10
-2.495726177
 20
14.9044891473
 30
0.0
 10
-2.5513285669
 20
14.9790826611
 30
0.0
 10
-2.5995646121
 20
15.0165146744
 30
0.0
 10
-2.6248037484
 20
15.0289893
 30
0.0
 11
-2.4480300447
 21
14.7240997611
 31
0.0
 11
-2.4611728255
 21
14.8138360841
 31
0.0
 11
-2.4993819654
 21
14.903289563
 31
0.0
 11
-2.5568419056
 21
14.9788409154
 31
0.0
 11
-2.6248037484
 21
15.0289893
 31
0.0
  0
SPLINE
  5
555
100
AcDbEntity
  8
RACCORDO
100
AcDbSpline
 62
253
  6
CONTINUOUS
 70
0
 71
3
 72
11
 73
7
 74
5
 42
0.0000001
 43
0.0000001
 44
0.0000000001
 12
-0.0017563531
 22
0.3667457895
 32
0.0
 13
-0.3272560827
 23
0.1655566829
 33
0.0
 40
0.0
 40
0.0
 40
0.0
 40
0.0
 40
0.2466958371
 40
0.5118834552
 40
0.7705706608
 40
1.0
 40
1.0
 40
1.0
 40
1.0
 10
-4.5775780073
 20
13.6579389376
 30
0.0
 10
-4.5777224356
 20
13.6880971574
 30
0.0
 10
-4.5883754496
 20
13.7507262889
 30
0.0
 10
-4.6261939042
 20
13.8378525398
 30
0.0
 10
-4.6815093285
 20
13.9124503579
 30
0.0
 10
-4.7293243287
 20
13.9501672896
 30
0.0
 10
-4.754351711
 20
13.9628284764
 30
0.0
 11
-4.5775780073
 21
13.6579389376
 31
0.0
 11
-4.5913513408
 21
13.7473601154
 31
0.0
 11
-4.6297819105
 21
13.8367028478
 31
0.0
 11
-4.6870204161
 21
13.9123648623
 31
0.0
 11
-4.754351711
 21
13.9628284764
 31
0.0
  0
SPLINE
  5
556
100
AcDbEntity
  8
ASSI
100
AcDbSpline
 62
7
  6
CONTINUOUS
 70
0
 71
3
 72
8
 73
4
 74
2
 42
0.0000001
 43
0.0000001
 44
0.0000000001
 12
0.0765443071
 22
0.0931618126
 32
0.0
 13
0.0240433608
 23
0.1181527446
 33
0.0
 40
0.0
 40
0.0
 40
0.0
 40
0.0
 40
1.0
 40
1.0
 40
1.0
 40
1.0
 10
-15.7969876368
 20
20.98789216
 30
0.0
 10
-15.7714728677
 20
21.0189460976
 30
0.0
 10
-15.7531845806
 20
21.0573798547
 30
0.0
 10
-15.745170127
 20
21.0967641029
 30
0.0
 11
-15.7969876368
 21
20.98789216
 31
0.0
 11
-15.745170127
 21
21.0967641029
 31
0.0
  0
SPLINE
  5
557
100
AcDbEntity
  8
ASSI
100
AcDbSpline
 62
7
  6
CONTINUOUS
 70
0
 71
3
 72
8
 73
4
 74
2
 42
0.0000001
 43
0.0000001
 44
0.0000000001
 12
-0.0000053732
 22
-0.0031177234
 32
0.0
 13
-0.0019810057
 23
-0.002407456
 33
0.0
 40
0.0
 40
0.0
 40
0.0
 40
0.0
 40
1.0
 40
1.0
 40
1.0
 40
1.0
 10
-2.3758322233
 20
14.3765589541
 30
0.0
 10
-2.3758340143
 20
14.3755197129
 30
0.0
 10
-2.3762271203
 20
14.3744277194
 30
0.0
 10
-2.3768874555
 20
14.3736252341
 30
0.0
 11
-2.3758322233
 21
14.3765589541
 31
0.0
 11
-2.3768874555
 21
14.3736252341
 31
0.0
  0
SPLINE
  5
558
100
AcDbEntity
  8
ASSI
100
AcDbSpline
 62
7
  6
CONTINUOUS
 70
0
 71
3
 72
9
 73
5
 74
3
 42
0.0000001
 43
0.0000001
 44
0.0000000001
 12
-0.0502723709
 22
-0.0161727928
 32
0.0
 13
-0.0473687191
 23
-0.0233468405
 33
0.0
 40
0.0
 40
0.0
 40
0.0
 40
0.0
 40
0.2435111882
 40
1.0
 40
1.0
 40
1.0
 40
1.0
 10
-2.6778769329
 20
19.233657455
 30
0.0
 10
-2.6819575611
 20
19.232344703
 30
0.0
 10
-2.698607332
 20
19.2266217237
 30
0.0
 10
-2.7148083291
 20
19.2196160957
 30
0.0
 10
-2.7267529644
 20
19.2137288879
 30
0.0
 11
-2.6778769329
 21
19.233657455
 31
0.0
 11
-2.6900397609
 21
19.2294814259
 31
0.0
 11
-2.7267529644
 21
19.2137288879
 31
0.0
  0
SPLINE
  5
559
100
AcDbEntity
  8
ASSI
100
AcDbSpline
 62
7
  6
CONTINUOUS
 70
0
 71
3
 72
9
 73
5
 74
3
 42
0.0000001
 43
0.0000001
 44
0.0000000001
 12
0.0372012104
 22
0.011967756
 32
0.0
 13
0.0388208716
 23
0.0044829861
 33
0.0
 40
0.0
 40
0.0
 40
0.0
 40
0.0
 40
0.2460035507
 40
1.0
 40
1.0
 40
1.0
 40
1.0
 10
-2.6778769329
 20
19.233657455
 30
0.0
 10
-2.6748263896
 20
19.2346388251
 30
0.0
 10
-2.6623224711
 20
19.2383023452
 30
0.0
 10
-2.6494514683
 20
19.2406831718
 30
0.0
 10
-2.6396945351
 20
19.2418098904
 30
0.0
 11
-2.6778769329
 21
19.233657455
 31
0.0
 11
-2.6686521578
 21
19.2363636773
 31
0.0
 11
-2.6396945351
 21
19.2418098904
 31
0.0
  0
SPLINE
  5
55A
100
AcDbEntity
  8
ASSI
100
AcDbSpline
 62
7
  6
CONTINUOUS
 70
0
 71
3
 72
9
 73
5
 74
3
 42
0.0000001
 43
0.0000001
 44
0.0000000001
 12
0.1933348375
 22
0.022326067
 32
0.0
 13
0.1741106071
 23
-0.0869615382
 33
0.0
 40
0.0
 40
0.0
 40
0.0
 40
0.0
 40
0.2337551908
 40
1.0
 40
1.0
 40
1.0
 40
1.0
 10
-2.6396945351
 20
19.2418098904
 30
0.0
 10
-2.6246301945
 20
19.2435495017
 30
0.0
 10
-2.5593603378
 20
19.2441894939
 30
0.0
 10
-2.4957809509
 20
19.2221735262
 30
0.0
 10
-2.4513105012
 20
19.1999622504
 30
0.0
 11
-2.6396945351
 21
19.2418098904
 31
0.0
 11
-2.5942082287
 21
19.2426107493
 31
0.0
 11
-2.4513105012
 21
19.1999622504
 31
0.0
  0
SPLINE
  5
55B
100
AcDbEntity
  8
ASSI
100
AcDbSpline
 62
7
  6
CONTINUOUS
 70
0
 71
3
 72
9
 73
5
 74
3
 42
0.0000001
 43
0.0000001
 44
0.0000000001
 12
0.2209896182
 22
0.0686584441
 32
0.0
 13
0.2070282982
 23
-0.1033908943
 33
0.0
 40
0.0
 40
0.0
 40
0.0
 40
0.0
 40
0.4706346872
 40
1.0
 40
1.0
 40
1.0
 40
1.0
 10
-8.2310996761
 20
22.0117099442
 30
0.0
 10
-8.1964312162
 20
22.0224809593
 30
0.0
 10
-8.1159505493
 20
22.0231171843
 30
0.0
 10
-8.0428529046
 20
21.9957116929
 30
0.0
 10
-8.0063217047
 20
21.9774678418
 30
0.0
 11
-8.2310996761
 21
22.0117099442
 31
0.0
 11
-8.1223125465
 21
22.0168686621
 31
0.0
 11
-8.0063217047
 21
21.9774678418
 31
0.0
  0
SPLINE
  5
55C
100
AcDbEntity
  8
ASSI
100
AcDbSpline
 62
7
  6
CONTINUOUS
 70
0
 71
3
 72
11
 73
7
 74
5
 42
0.0000001
 43
0.0000001
 44
0.0000000001
 12
-0.0000065753
 22
-0.2338191301
 32
0.0
 13
-0.2076378792
 23
-0.1075076591
 33
0.0
 40
0.0
 40
0.0
 40
0.0
 40
0.0
 40
0.2077568263
 40
0.4361681516
 40
0.6985965187
 40
1.0
 40
1.0
 40
1.0
 40
1.0
 10
2.7804053022
 20
16.3557365297
 30
0.0
 10
2.7804048468
 20
16.3395440229
 30
0.0
 10
2.7734436031
 20
16.3052935842
 30
0.0
 10
2.744254317
 20
16.2583439923
 30
0.0
 10
2.6986266427
 20
16.2159645349
 30
0.0
 10
2.6609366408
 20
16.1928783299
 30
0.0
 10
2.6400757142
 20
16.182077269
 30
0.0
 11
2.7804053022
 21
16.3557365297
 31
0.0
 11
2.7712178471
 21
16.3080357314
 31
0.0
 11
2.7439951574
 21
16.2620876506
 31
0.0
 11
2.6997411199
 21
16.2195820678
 31
0.0
 11
2.6400757142
 21
16.182077269
 31
0.0
  0
SPLINE
  5
55D
100
AcDbEntity
  8
ASSI
100
AcDbSpline
 62
7
  6
CONTINUOUS
 70
0
 71
3
 72
9
 73
5
 74
3
 42
0.0000001
 43
0.0000001
 44
0.0000000001
 12
-0.0000282459
 22
0.0132944178
 32
0.0
 13
-0.0119051738
 23
0.0059168555
 33
0.0
 40
0.0
 40
0.0
 40
0.0
 40
0.0
 40
0.4881036285
 40
1.0
 40
1.0
 40
1.0
 40
1.0
 10
-7.5022747768
 20
21.7181306192
 30
0.0
 10
-7.5022793725
 20
21.720293637
 30
0.0
 10
-7.503316775
 20
21.7249197935
 30
0.0
 10
-7.5070557232
 20
21.7278409579
 30
0.0
 10
-7.5090871282
 20
21.7288505635
 30
0.0
 11
-7.5022747768
 21
21.7181306192
 31
0.0
 11
-7.5039357225
 21
21.7244035185
 31
0.0
 11
-7.5090871282
 21
21.7288505635
 31
0.0
  0
SPLINE
  5
55E
100
AcDbEntity
  8
ASSI
100
AcDbSpline
 62
7
  6
CONTINUOUS
 70
0
 71
3
 72
11
 73
7
 74
5
 42
0.0000001
 43
0.0000001
 44
0.0000000001
 12
0.0
 22
0.6297066429
 32
0.0
 13
-0.5632188509
 23
0.2816291572
 33
0.0
 40
0.0
 40
0.0
 40
0.0
 40
0.0
 40
0.2897425776
 40
0.549585824
 40
0.7828465733
 40
1.0
 40
1.0
 40
1.0
 40
1.0
 10
-4.8501301866
 20
20.6319660856
 30
0.0
 10
-4.8501301866
 20
20.6927836942
 30
0.0
 10
-4.8599444843
 20
20.8085815934
 30
0.0
 10
-4.9094359429
 20
20.9669555583
 30
0.0
 10
-4.9920956206
 20
21.0937529334
 30
0.0
 10
-5.0692411895
 20
21.1524468225
 30
0.0
 10
-5.1100094907
 20
21.1728324014
 30
0.0
 11
-4.8501301866
 21
20.6319660856
 31
0.0
 11
-4.8674076242
 21
20.8135990226
 31
0.0
 11
-4.9183954468
 21
20.9690769587
 31
0.0
 11
-5.0006018214
 21
21.0908043712
 31
0.0
 11
-5.1100094907
 21
21.1728324014
 31
0.0
  0
SPLINE
  5
55F
100
AcDbEntity
  8
ASSI
100
AcDbSpline
 62
7
  6
CONTINUOUS
 70
0
 71
3
 72
9
 73
5
 74
3
 42
0.0000001
 43
0.0000001
 44
0.0000000001
 12
-0.0000238058
 22
0.0133037541
 32
0.0
 13
-0.0119149986
 23
0.0059180442
 33
0.0
 40
0.0
 40
0.0
 40
0.0
 40
0.0
 40
0.4881017562
 40
1.0
 40
1.0
 40
1.0
 40
1.0
 10
-1.9472863759
 20
18.9406312873
 30
0.0
 10
-1.9472902492
 20
18.9427958159
 30
0.0
 10
-1.9483271319
 20
18.9474259068
 30
0.0
 10
-1.9520696627
 20
18.9503485531
 30
0.0
 10
-1.9541027516
 20
18.9513583653
 30
0.0
 11
-1.9472863759
 21
18.9406312873
 31
0.0
 11
-1.9489470603
 21
18.9469089396
 31
0.0
 11
-1.9541027516
 21
18.9513583653
 31
0.0
  0
SPLINE
  5
560
100
AcDbEntity
  8
ASSI
100
AcDbSpline
 62
7
  6
CONTINUOUS
 70
0
 71
3
 72
11
 73
7
 74
5
 42
0.0000001
 43
0.0000001
 44
0.0000000001
 12
0.4104598159
 22
0.2008428369
 32
0.0
 13
0.4087143287
 23
-0.2043714832
 33
0.0
 40
0.0
 40
0.0
 40
0.0
 40
0.0
 40
0.2787325875
 40
0.5346772883
 40
0.772449667
 40
1.0
 40
1.0
 40
1.0
 40
1.0
 10
-1.3084256882
 20
19.0261700759
 30
0.0
 10
-1.2702895127
 20
19.0448305571
 30
0.0
 10
-1.1940585231
 20
19.0749170065
 30
0.0
 10
-1.0773893204
 20
19.0959711807
 30
0.0
 10
-0.9665811693
 20
19.0898587864
 30
0.0
 10
-0.8983698307
 20
19.0670136575
 30
0.0
 10
-0.8673688036
 20
19.0515120578
 30
0.0
 11
-1.3084256882
 21
19.0261700759
 31
0.0
 11
-1.1895796811
 21
19.0719833881
 31
0.0
 11
-1.0743007181
 21
19.0917256232
 31
0.0
 11
-0.9658661593
 21
19.08483683
 31
0.0
 11
-0.8673688036
 21
19.0515120578
 31
0.0
  0
SPLINE
  5
561
100
AcDbEntity
  8
ASSI
100
AcDbSpline
 62
7
  6
CONTINUOUS
 70
0
 71
3
 72
9
 73
5
 74
3
 42
0.0000001
 43
0.0000001
 44
0.0000000001
 12
-0.0110813789
 22
-0.0399300568
 32
0.0
 13
0.0000244733
 23
-0.0414391819
 33
0.0
 40
0.0
 40
0.0
 40
0.0
 40
0.0
 40
0.2273205054
 40
1.0
 40
1.0
 40
1.0
 40
1.0
 10
-14.1113699374
 20
19.0679374564
 30
0.0
 10
-14.1122096123
 20
19.0649118161
 30
0.0
 10
-14.1152707431
 20
19.0514263369
 30
0.0
 10
-14.1161981666
 20
19.0375273622
 30
0.0
 10
-14.1161918633
 20
19.0268542934
 30
0.0
 11
-14.1113699374
 21
19.0679374564
 31
0.0
 11
-14.1134910694
 21
19.058759397
 31
0.0
 11
-14.1161918633
 21
19.0268542934
 31
0.0
  0
SPLINE
  5
562
100
AcDbEntity
  8
ASSI
100
AcDbSpline
 62
253
  6
CONTINUOUS
 70
0
 71
3
 72
9
 73
5
 74
3
 42
0.0000001
 43
0.0000001
 44
0.0000000001
 12
-0.1019876271
 22
0.0509499007
 32
0.0
 13
-0.1022598571
 23
-0.0504012905
 33
0.0
 40
0.0
 40
0.0
 40
0.0
 40
0.0
 40
0.4641710228
 40
1.0
 40
1.0
 40
1.0
 40
1.0
 10
-2.5140610639
 20
15.0355949524
 30
0.0
 10
-2.5298409643
 20
15.0434781082
 30
0.0
 10
-2.569356004
 20
15.0501506396
 30
0.0
 10
-2.6065391502
 20
15.0379914573
 30
0.0
 10
-2.6248037484
 20
15.0289893
 30
0.0
 11
-2.5140610639
 21
15.0355949524
 31
0.0
 11
-2.5660220196
 21
15.0456151177
 31
0.0
 11
-2.6248037484
 21
15.0289893
 31
0.0
  0
SPLINE
  5
563
100
AcDbEntity
  8
ASSI
100
AcDbSpline
 62
253
  6
CONTINUOUS
 70
0
 71
3
 72
11
 73
7
 74
5
 42
0.0000001
 43
0.0000001
 44
0.0000000001
 12
-0.0000013698
 22
-0.1191821853
 32
0.0
 13
-0.1063496865
 23
-0.0537971883
 33
0.0
 40
0.0
 40
0.0
 40
0.0
 40
0.0
 40
0.2069627866
 40
0.4350648202
 40
0.69780603
 40
1.0
 40
1.0
 40
1.0
 40
1.0
 10
-2.3758321898
 20
14.8119723933
 30
0.0
 10
-2.3758322843
 20
14.8037503009
 30
0.0
 10
-2.3794314011
 20
14.7863344051
 30
0.0
 10
-2.3944807686
 20
14.7625391563
 30
0.0
 10
-2.4179577084
 20
14.7411273585
 30
0.0
 10
-2.4373173001
 20
14.7295188231
 30
0.0
 10
-2.4480300447
 20
14.7240997611
 30
0.0
 11
-2.3758321898
 21
14.8119723933
 31
0.0
 11
-2.3805653727
 21
14.7877644977
 31
0.0
 11
-2.3945856718
 21
14.7644730093
 31
0.0
 11
-2.4173597843
 21
14.7429808973
 31
0.0
 11
-2.4480300447
 21
14.7240997611
 31
0.0
  0
SPLINE
  5
564
100
AcDbEntity
  8
ASSI
100
AcDbSpline
 62
253
  6
CONTINUOUS
 70
0
 71
3
 72
9
 73
5
 74
3
 42
0.0000001
 43
0.0000001
 44
0.0000000001
 12
-0.1019992073
 22
0.05100443
 32
0.0
 13
-0.1022910153
 23
-0.0504166476
 33
0.0
 40
0.0
 40
0.0
 40
0.0
 40
0.0
 40
0.4641672987
 40
1.0
 40
1.0
 40
1.0
 40
1.0
 10
-3.8513550999
 20
15.7042419747
 30
0.0
 10
-3.8671366654
 20
15.7121335042
 30
0.0
 10
-3.9066636704
 20
15.7188192333
 30
0.0
 10
-3.9438596186
 20
15.7066573431
 30
0.0
 10
-3.9621299089
 20
15.6976523802
 30
0.0
 11
-3.8513550999
 21
15.7042419747
 31
0.0
 11
-3.9033287225
 21
15.7142793541
 31
0.0
 11
-3.9621299089
 21
15.6976523802
 31
0.0
  0
SPLINE
  5
565
100
AcDbEntity
  8
ASSI
100
AcDbSpline
 62
7
  6
CONTINUOUS
 70
0
 71
3
 72
13
 73
9
 74
7
 42
0.0000001
 43
0.0000001
 44
0.0000000001
 12
-1.3010770606
 22
0.6505385303
 32
0.0
 13
-1.3010770606
 23
-0.6505385303
 33
0.0
 40
0.0
 40
0.0
 40
0.0
 40
0.0
 40
0.1126047705
 40
0.2356260084
 40
0.4999999817
 40
0.7643739625
 40
0.887395212
 40
1.0
 40
1.0
 40
1.0
 40
1.0
 10
-7.2542932426
 20
19.411748657
 30
0.0
 10
-7.3031290706
 20
19.436166571
 30
0.0
 10
-7.4095576736
 20
19.4789622979
 30
0.0
 10
-7.6444971045
 20
19.5406034727
 30
0.0
 10
-7.9614000006
 20
19.5702001329
 30
0.0
 10
-8.2783029033
 20
19.5406034801
 30
0.0
 10
-8.5132423526
 20
19.4789623057
 30
0.0
 10
-8.6196709695
 20
19.4361665748
 30
0.0
 10
-8.668506805
 20
19.411748657
 30
0.0
 11
-7.2542932426
 21
19.411748657
 31
0.0
 11
-7.4058318215
 21
19.4739307497
 31
0.0
 11
-7.578716813
 21
19.5201349536
 31
0.0
 11
-7.9613999972
 21
19.5581949848
 31
0.0
 11
-8.3440831932
 21
19.5201349624
 31
0.0
 11
-8.516968202
 21
19.4739307578
 31
0.0
 11
-8.668506805
 21
19.411748657
 31
0.0
  0
SPLINE
  5
566
100
AcDbEntity
  8
ASSI
100
AcDbSpline
 62
7
  6
CONTINUOUS
 70
0
 71
3
 72
8
 73
4
 74
2
 42
0.0000001
 43
0.0000001
 44
0.0000000001
 12
-0.005330687
 22
0.0026476915
 32
0.0
 13
-0.00581866
 23
0.0012528725
 33
0.0
 40
0.0
 40
0.0
 40
0.0
 40
0.0
 40
1.0
 40
1.0
 40
1.0
 40
1.0
 10
-1.9541027516
 20
18.9513583653
 30
0.0
 10
-1.9558796473
 20
18.9522409291
 30
0.0
 10
-1.9578070388
 20
18.9528311268
 30
0.0
 10
-1.9597465921
 20
18.953248751
 30
0.0
 11
-1.9541027516
 21
18.9513583653
 31
0.0
 11
-1.9597465921
 21
18.953248751
 31
0.0
  0
SPLINE
  5
567
100
AcDbEntity
  8
ASSI
100
AcDbSpline
 62
7
  6
CONTINUOUS
 70
0
 71
3
 72
9
 73
5
 74
3
 42
0.0000001
 43
0.0000001
 44
0.0000000001
 12
-0.0817109314
 22
-0.0126966334
 32
0.0
 13
-0.0787533751
 23
-0.0252148113
 33
0.0
 40
0.0
 40
0.0
 40
0.0
 40
0.0
 40
0.4283838516
 40
1.0
 40
1.0
 40
1.0
 40
1.0
 10
-1.9909091789
 20
18.9524190817
 30
0.0
 10
-2.0025770601
 20
18.9506060708
 30
0.0
 10
-2.0294831684
 20
18.944363903
 30
0.0
 10
-2.0558749617
 20
18.9364047683
 30
0.0
 10
-2.0708805287
 20
18.9316003705
 30
0.0
 11
-1.9909091789
 21
18.9524190817
 31
0.0
 11
-2.0255349614
 21
18.9449428978
 31
0.0
 11
-2.0708805287
 21
18.9316003705
 31
0.0
  0
SPLINE
  5
568
100
AcDbEntity
  8
ASSI
100
AcDbSpline
 62
253
  6
CONTINUOUS
 70
0
 71
3
 72
8
 73
4
 74
2
 42
0.0000001
 43
0.0000001
 44
0.0000000001
 12
-0.0220445506
 22
0.0109784266
 32
0.0
 13
-0.0241152188
 23
0.0049944253
 33
0.0
 40
0.0
 40
0.0
 40
0.0
 40
0.0
 40
1.0
 40
1.0
 40
1.0
 40
1.0
 10
-2.514159977
 20
-26.6114909204
 30
0.0
 10
-2.5215081605
 20
-26.6078314449
 30
0.0
 10
-2.5294054338
 20
-26.6051338974
 30
0.0
 10
-2.5374438401
 20
-26.603469089
 30
0.0
 11
-2.514159977
 21
-26.6114909204
 31
0.0
 11
-2.5374438401
 21
-26.603469089
 31
0.0
  0
SPLINE
  5
569
100
AcDbEntity
  8
ASSI
100
AcDbSpline
 62
253
  6
CONTINUOUS
 70
0
 71
3
 72
11
 73
7
 74
5
 42
0.0000001
 43
0.0000001
 44
0.0000000001
 12
-0.0000013698
 22
-0.1191821853
 32
0.0
 13
-0.1063496865
 23
-0.0537971883
 33
0.0
 40
0.0
 40
0.0
 40
0.0
 40
0.0
 40
0.2069627866
 40
0.4350648202
 40
0.69780603
 40
1.0
 40
1.0
 40
1.0
 40
1.0
 10
-2.3758321898
 20
-26.8351632628
 30
0.0
 10
-2.3758322843
 20
-26.8433853552
 30
0.0
 10
-2.3794314011
 20
-26.860801251
 30
0.0
 10
-2.3944807686
 20
-26.8845964999
 30
0.0
 10
-2.4179577084
 20
-26.9060082977
 30
0.0
 10
-2.4373173001
 20
-26.917616833
 30
0.0
 10
-2.4480300447
 20
-26.923035895
 30
0.0
 11
-2.3758321898
 21
-26.8351632628
 31
0.0
 11
-2.3805653727
 21
-26.8593711584
 31
0.0
 11
-2.3945856718
 21
-26.8826626469
 31
0.0
 11
-2.4173597843
 21
-26.9041547588
 31
0.0
 11
-2.4480300447
 21
-26.923035895
 31
0.0
  0
SPLINE
  5
56A
100
AcDbEntity
  8
ASSI
100
AcDbSpline
 62
7
  6
CONTINUOUS
 70
0
 71
3
 72
9
 73
5
 74
3
 42
0.0000001
 43
0.0000001
 44
0.0000000001
 12
-0.0056727021
 22
0.0028193254
 32
0.0
 13
-0.0062069351
 23
0.0012657411
 33
0.0
 40
0.0
 40
0.0
 40
0.0
 40
0.0
 40
0.7258170149
 40
1.0
 40
1.0
 40
1.0
 40
1.0
 10
-7.5090871282
 20
21.7288505635
 30
0.0
 10
-7.5104595761
 20
21.7295326683
 30
0.0
 10
-7.5124741551
 20
21.7302298581
 30
0.0
 10
-7.5145310039
 20
21.7307034058
 30
0.0
 10
-7.5150982826
 20
21.7308190873
 30
0.0
 11
-7.5090871282
 21
21.7288505635
 31
0.0
 11
-7.5134062757
 21
21.7304269158
 31
0.0
 11
-7.5150982826
 21
21.7308190873
 31
0.0
  0
SPLINE
  5
56B
100
AcDbEntity
  8
ASSI
100
AcDbSpline
 62
7
  6
CONTINUOUS
 70
0
 71
3
 72
9
 73
5
 74
3
 42
0.0000001
 43
0.0000001
 44
0.0000000001
 12
-0.0826712162
 22
-0.0131655828
 32
0.0
 13
-0.0796907622
 23
-0.0256367894
 33
0.0
 40
0.0
 40
0.0
 40
0.0
 40
0.0
 40
0.4288294207
 40
1.0
 40
1.0
 40
1.0
 40
1.0
 10
-7.5467101125
 20
21.7297854819
 30
0.0
 10
-7.5585273957
 20
21.7279035521
 30
0.0
 10
-7.5857476879
 20
21.7215139422
 30
0.0
 10
-7.6124520616
 20
21.7134121824
 30
0.0
 10
-7.6276244012
 20
21.7085311891
 30
0.0
 11
-7.5467101125
 21
21.7297854819
 31
0.0
 11
-7.5817782453
 21
21.7221085914
 31
0.0
 11
-7.6276244012
 21
21.7085311891
 31
0.0
  0
SPLINE
  5
56C
100
AcDbEntity
  8
ASSI
100
AcDbSpline
 62
253
  6
CONTINUOUS
 70
0
 71
3
 72
11
 73
7
 74
5
 42
0.0000001
 43
0.0000001
 44
0.0000000001
 12
-0.0000900909
 22
-0.1191363894
 32
0.0
 13
-0.1063088519
 23
-0.0537765321
 33
0.0
 40
0.0
 40
0.0
 40
0.0
 40
0.0
 40
0.2069629957
 40
0.4350793914
 40
0.6978241076
 40
1.0
 40
1.0
 40
1.0
 40
1.0
 10
-2.3758322079
 20
-27.1827411968
 30
0.0
 10
-2.3758384231
 20
-27.1909601382
 30
0.0
 10
-2.3794474385
 20
-27.2083669292
 30
0.0
 10
-2.3944993567
 20
-27.2321477365
 30
0.0
 10
-2.4179701569
 20
-27.2535476313
 30
0.0
 10
-2.437322054
 20
-27.2651507545
 30
0.0
 10
-2.4480300447
 20
-27.2705674117
 30
0.0
 11
-2.3758322079
 21
-27.1827411968
 31
0.0
 11
-2.3805788687
 21
-27.2069368273
 31
0.0
 11
-2.394603315
 21
-27.2302156307
 31
0.0
 11
-2.4173725954
 21
-27.2516959527
 31
0.0
 11
-2.4480300447
 21
-27.2705674117
 31
0.0
  0
SPLINE
  5
56D
100
AcDbEntity
  8
ASSI
100
AcDbSpline
 62
7
  6
CONTINUOUS
 70
0
 71
3
 72
11
 73
7
 74
5
 42
0.0000001
 43
0.0000001
 44
0.0000000001
 12
0.1392205295
 22
0.0714160392
 32
0.0
 13
0.0
 23
0.156469187
 33
0.0
 40
0.0
 40
0.0
 40
0.0
 40
0.0
 40
0.2171472971
 40
0.4505679661
 40
0.7104501796
 40
1.0
 40
1.0
 40
1.0
 40
1.0
 10
-3.0404023559
 20
-27.676356166
 30
0.0
 10
-3.0303252354
 20
-27.6711868994
 30
0.0
 10
-3.0112913768
 20
-27.6564310314
 30
0.0
 10
-2.9909197171
 20
-27.6248193115
 30
0.0
 10
-2.9787191489
 20
-27.5854437947
 30
0.0
 10
-2.9762972165
 20
-27.5566803454
 30
0.0
 10
-2.9762972165
 20
-27.5415784704
 30
0.0
 11
-3.0404023559
 21
-27.676356166
 31
0.0
 11
-3.0133989465
 21
-27.655734746
 31
0.0
 11
-2.9931242206
 21
-27.6253558814
 31
0.0
 11
-2.9805554025
 21
-27.5866835422
 31
0.0
 11
-2.9762972165
 21
-27.5415784704
 31
0.0
  0
SPLINE
  5
56E
100
AcDbEntity
  8
ASSI
100
AcDbSpline
 62
253
  6
CONTINUOUS
 70
0
 71
3
 72
10
 73
6
 74
4
 42
0.0000001
 43
0.0000001
 44
0.0000000001
 12
0.1255312609
 22
0.0782918813
 32
0.0
 13
-0.0007003268
 23
0.1479433192
 33
0.0
 40
0.0
 40
0.0
 40
0.0
 40
0.0
 40
0.2183205922
 40
0.4537022248
 40
1.0
 40
1.0
 40
1.0
 40
1.0
 10
-2.5048660502
 20
-27.4012449226
 30
0.0
 10
-2.4957306971
 20
-27.3955473459
 30
0.0
 10
-2.4787234733
 20
-27.3802770213
 30
0.0
 10
-2.4535549311
 20
-27.3372157802
 30
0.0
 10
-2.4479025157
 20
-27.2975077804
 30
0.0
 10
-2.4480300447
 20
-27.2705674117
 30
0.0
 11
-2.5048660502
 21
-27.4012449226
 31
0.0
 11
-2.4806569698
 21
-27.3798632967
 31
0.0
 11
-2.4626516206
 21
-27.3500558202
 31
0.0
 11
-2.4480300447
 21
-27.2705674117
 31
0.0
  0
SPLINE
  5
56F
100
AcDbEntity
  8
ASSI
100
AcDbSpline
 62
7
  6
CONTINUOUS
 70
0
 71
3
 72
11
 73
7
 74
5
 42
0.0000001
 43
0.0000001
 44
0.0000000001
 12
0.6258733781
 22
-0.3532267272
 32
0.0
 13
0.0132322197
 23
-0.7185481992
 33
0.0
 40
0.0
 40
0.0
 40
0.0
 40
0.0
 40
0.2311951074
 40
0.4904839243
 40
0.7549167973
 40
1.0
 40
1.0
 40
1.0
 40
1.0
 10
-2.9764024578
 20
12.8581908384
 30
0.0
 10
-2.9281695035
 20
12.830969408
 30
0.0
 10
-2.8364245986
 20
12.7542833822
 30
0.0
 10
-2.7298173735
 20
12.6064721451
 30
0.0
 10
-2.6562995546
 20
12.4361116874
 30
0.0
 10
-2.6345944659
 20
12.3142540746
 30
0.0
 10
-2.6335134676
 20
12.2555527099
 30
0.0
 11
-2.9764024578
 21
12.8581908384
 31
0.0
 11
-2.846674191
 21
12.7543766094
 31
0.0
 11
-2.7363963761
 21
12.6041682383
 31
0.0
 11
-2.6617264744
 21
12.4294124096
 31
0.0
 11
-2.6335134676
 21
12.2555527099
 31
0.0
  0
SPLINE
  5
570
100
AcDbEntity
  8
ASSI
100
AcDbSpline
 62
253
  6
CONTINUOUS
 70
0
 71
3
 72
11
 73
7
 74
5
 42
0.0000001
 43
0.0000001
 44
0.0000000001
 12
0.1426575687
 22
0.0695004483
 32
0.0
 13
0.0007563653
 23
0.1586849776
 33
0.0
 40
0.0
 40
0.0
 40
0.0
 40
0.0
 40
0.2167635091
 40
0.4498673846
 40
0.7098578217
 40
1.0
 40
1.0
 40
1.0
 40
1.0
 10
-4.643839739
 20
-28.4574634106
 30
0.0
 10
-4.6335320873
 20
-28.4524416902
 30
0.0
 10
-4.6139783884
 20
-28.4378341678
 30
0.0
 10
-4.5929562502
 20
-28.4060247517
 30
0.0
 10
-4.5802684007
 20
-28.3661586654
 30
0.0
 10
-4.5776511584
 20
-28.3369601384
 30
0.0
 10
-4.5775780073
 20
-28.32161307
 30
0.0
 11
-4.643839739
 21
-28.4574634106
 31
0.0
 11
-4.6161352878
 21
-28.4370758747
 31
0.0
 11
-4.5952308095
 21
-28.4065586643
 31
0.0
 11
-4.5821626931
 21
-28.3674259654
 31
0.0
 11
-4.5775780073
 21
-28.32161307
 31
0.0
  0
SPLINE
  5
571
100
AcDbEntity
  8
ASSI
100
AcDbSpline
 62
7
  6
CONTINUOUS
 70
0
 71
3
 72
11
 73
7
 74
5
 42
0.0000001
 43
0.0000001
 44
0.0000000001
 12
-0.0057668031
 22
-0.3187231989
 32
0.0
 13
-0.2858782227
 23
-0.1410367872
 33
0.0
 40
0.0
 40
0.0
 40
0.0
 40
0.0
 40
0.290110096
 40
0.5504951014
 40
0.7838516356
 40
1.0
 40
1.0
 40
1.0
 40
1.0
 10
-2.6335134676
 20
-25.6761620519
 30
0.0
 10
-2.6340711369
 20
-25.7069836579
 30
0.0
 10
-2.6400298058
 20
-25.765595305
 30
0.0
 10
-2.6661535297
 20
-25.8455092125
 30
0.0
 10
-2.7084678764
 20
-25.9092947063
 30
0.0
 10
-2.7475610425
 20
-25.9387756425
 30
0.0
 10
-2.7681584125
 20
-25.9489372661
 30
0.0
 11
-2.6335134676
 21
-25.6761620519
 31
0.0
 11
-2.6437920135
 21
-25.768069032
 31
0.0
 11
-2.6706630105
 21
-25.846603531
 31
0.0
 11
-2.7128084293
 21
-25.9079010432
 31
0.0
 11
-2.7681584125
 21
-25.9489372661
 31
0.0
  0
LINE
  5
572
100
AcDbEntity
  8
ASSI
100
AcDbLine
 62
7
  6
CONTINUOUS
 10
-3.8663573992
 20
12.3609606567
 11
-2.9762972165
 21
12.8582574675
  0
SPLINE
  5
573
100
AcDbEntity
  8
ASSI
100
AcDbSpline
 62
253
  6
CONTINUOUS
 70
0
 71
3
 72
11
 73
7
 74
5
 42
0.0000001
 43
0.0000001
 44
0.0000000001
 12
-1.2232027863
 22
-0.6678122387
 32
0.0
 13
-0.0468728067
 23
-1.3928392522
 33
0.0
 40
0.0
 40
0.0
 40
0.0
 40
0.0
 40
0.2329702147
 40
0.4906489657
 40
0.7533983859
 40
1.0
 40
1.0
 40
1.0
 40
1.0
 10
-8.1312027401
 20
9.2542025402
 30
0.0
 10
-8.2261926787
 20
9.20234242
 30
0.0
 10
-8.4068227978
 20
9.0569377291
 30
0.0
 10
-8.6179577402
 20
8.7742769633
 30
0.0
 10
-8.7641948003
 20
8.4462850383
 30
0.0
 10
-8.8085374295
 20
8.2105637318
 30
0.0
 10
-8.8123903994
 20
8.0960715959
 30
0.0
 11
-8.1312027401
 21
9.2542025402
 31
0.0
 11
-8.3880028421
 21
9.0555401328
 31
0.0
 11
-8.6051064969
 21
8.7694898928
 31
0.0
 11
-8.7532319954
 21
8.4346124861
 31
0.0
 11
-8.8123903994
 21
8.0960715959
 31
0.0
  0
SPLINE
  5
574
100
AcDbEntity
  8
ASSI
100
AcDbSpline
 62
253
  6
CONTINUOUS
 70
0
 71
3
 72
11
 73
7
 74
5
 42
0.0000001
 43
0.0000001
 44
0.0000000001
 12
-1.8291028155
 22
-1.0095859119
 32
0.0
 13
-0.0698433259
 23
-2.0880619562
 33
0.0
 40
0.0
 40
0.0
 40
0.0
 40
0.0
 40
0.2326055864
 40
0.4902562664
 40
0.7531868579
 40
1.0
 40
1.0
 40
1.0
 40
1.0
 10
-8.4970354801
 20
9.8572049859
 30
0.0
 10
-8.6388553244
 20
9.7789265449
 30
0.0
 10
-8.9083653456
 20
9.559829094
 30
0.0
 10
-9.2231109223
 20
9.1350120584
 30
0.0
 10
-9.4411044642
 20
8.6425357574
 30
0.0
 10
-9.5072277897
 20
8.2888740657
 30
0.0
 10
-9.5129738733
 20
8.1170870216
 30
0.0
 11
-8.4970354801
 21
9.8572049859
 31
0.0
 11
-8.8800463239
 21
9.5580960814
 31
0.0
 11
-9.2038405583
 21
9.1280786543
 31
0.0
 11
-9.4247495443
 21
8.6251330055
 31
0.0
 11
-9.5129738733
 21
8.1170870216
 31
0.0
  0
SPLINE
  5
575
100
AcDbEntity
  8
ASSI
100
AcDbSpline
 62
253
  6
CONTINUOUS
 70
0
 71
3
 72
11
 73
7
 74
5
 42
0.0000001
 43
0.0000001
 44
0.0000000001
 12
-0.0324678866
 22
0.7302923393
 32
0.0
 13
-0.6488721021
 23
0.3366690654
 33
0.0
 40
0.0
 40
0.0
 40
0.0
 40
0.0
 40
0.2445551947
 40
0.5100590826
 40
0.7700882667
 40
1.0
 40
1.0
 40
1.0
 40
1.0
 10
-8.1312027401
 20
9.2542025402
 30
0.0
 10
-8.1338494702
 20
9.3137348019
 30
0.0
 10
-8.1596411181
 20
9.4371370769
 30
0.0
 10
-8.2394848381
 20
9.608473711
 30
0.0
 10
-8.3520019894
 20
9.7558779016
 30
0.0
 10
-8.4473077102
 20
9.8314035964
 30
0.0
 10
-8.4970354801
 20
9.8572049859
 30
0.0
 11
-8.1312027401
 21
9.2542025402
 31
0.0
 11
-8.1648098836
 21
9.4297884685
 31
0.0
 11
-8.2461234516
 21
9.6060208768
 31
0.0
 11
-8.3627785405
 21
9.7561003899
 31
0.0
 11
-8.4970354801
 21
9.8572049859
 31
0.0
  0
LINE
  5
576
100
AcDbEntity
  8
ASSI
100
AcDbLine
 62
253
  6
CONTINUOUS
 10
-9.8165475525
 20
-8.9565027233
 11
-9.8166012734
 21
-8.9889222822
  0
SPLINE
  5
577
100
AcDbEntity
  8
ASSI
100
AcDbSpline
 62
253
  6
CONTINUOUS
 70
0
 71
3
 72
11
 73
7
 74
5
 42
0.0000001
 43
0.0000001
 44
0.0000000001
 12
-0.658766232
 22
-0.2854328074
 32
0.0
 13
-0.6419161068
 23
0.3215408959
 33
0.0
 40
0.0
 40
0.0
 40
0.0
 40
0.0
 40
0.2343159689
 40
0.4988565068
 40
0.7640097055
 40
1.0
 40
1.0
 40
1.0
 40
1.0
 10
-8.8123903994
 20
8.0960715959
 30
0.0
 10
-8.8638435487
 20
8.0737777743
 30
0.0
 10
-8.9807979055
 20
8.0435219317
 30
0.0
 10
-9.1641873167
 20
8.0329245777
 30
0.0
 10
-9.3470104697
 20
8.0545835327
 30
0.0
 10
-9.4624785495
 20
8.0917935114
 30
0.0
 10
-9.5129738732
 20
8.1170870216
 30
0.0
 11
-8.8123903994
 21
8.0960715959
 31
0.0
 11
-8.974327205
 21
8.0505036196
 31
0.0
 11
-9.1638732031
 21
8.038502846
 31
0.0
 11
-9.352800636
 21
8.0618566997
 31
0.0
 11
-9.5129738732
 21
8.1170870216
 31
0.0
  0
SPLINE
  5
578
100
AcDbEntity
  8
ASSI
100
AcDbSpline
 62
253
  6
CONTINUOUS
 70
0
 71
3
 72
15
 73
11
 74
9
 42
0.0000001
 43
0.0000001
 44
0.0000000001
 12
0.0357764478
 22
-1.028506603
 32
0.0
 13
0.9489271375
 23
0.3983002313
 33
0.0
 40
0.0
 40
0.0
 40
0.0
 40
0.0
 40
0.146530829
 40
0.2806609046
 40
0.4035051109
 40
0.5182269484
 40
0.6298614371
 40
0.7442648396
 40
0.8665511243
 40
1.0
 40
1.0
 40
1.0
 40
1.0
 10
-8.8123903994
 20
-27.4835530318
 30
0.0
 10
-8.8106429485
 20
-27.5337890069
 30
0.0
 10
-8.8000123077
 20
-27.6300245886
 30
0.0
 10
-8.7593655506
 20
-27.7633091885
 30
0.0
 10
-8.6953948568
 20
-27.8750872088
 30
0.0
 10
-8.6094618985
 20
-27.9608590208
 30
0.0
 10
-8.5045331189
 20
-28.0163221912
 30
0.0
 10
-8.3855071017
 20
-28.0388405011
 30
0.0
 10
-8.2577021219
 20
-28.0283928549
 30
0.0
 10
-8.1734138266
 20
-28.0015862727
 30
0.0
 10
-8.1312027401
 20
-27.9838687
 30
0.0
 11
-8.8123903994
 21
-27.4835530318
 31
0.0
 11
-8.7947338786
 21
-27.6333148703
 31
0.0
 11
-8.7532319895
 21
-27.7649652987
 31
0.0
 11
-8.68929759
 21
-27.8740296798
 31
0.0
 11
-8.6051065009
 21
-27.956799588
 31
0.0
 11
-8.5035230835
 21
-28.0104620515
 31
0.0
 11
-8.3880028537
 21
-28.033195281
 31
0.0
 11
-8.2624743443
 21
-28.0242290744
 31
0.0
 11
-8.1312027401
 21
-27.9838687
 31
0.0
  0
SPLINE
  5
579
100
AcDbEntity
  8
ASSI
100
AcDbSpline
 62
253
  6
CONTINUOUS
 70
0
 71
3
 72
11
 73
7
 74
5
 42
0.0000001
 43
0.0000001
 44
0.0000000001
 12
0.0309366127
 22
-0.8946389481
 32
0.0
 13
0.799859614
 23
-0.401945916
 33
0.0
 40
0.0
 40
0.0
 40
0.0
 40
0.0
 40
0.2866158652
 40
0.5452206341
 40
0.7796917488
 40
1.0
 40
1.0
 40
1.0
 40
1.0
 10
-9.5129738733
 20
-27.498152846
 30
0.0
 10
-9.5100182319
 20
-27.5836254181
 30
0.0
 10
-9.4905476823
 20
-27.7463487235
 30
0.0
 10
-9.413167328
 20
-27.9681015982
 30
0.0
 10
-9.2905381651
 20
-28.1457817967
 30
0.0
 10
-9.1792801946
 20
-28.2287155826
 30
0.0
 10
-9.120541637
 20
-28.2582329165
 30
0.0
 11
-9.5129738733
 21
-27.498152846
 31
0.0
 11
-9.4799747489
 21
-27.7525928689
 31
0.0
 11
-9.4009181822
 21
-27.9701716871
 31
0.0
 11
-9.2793098487
 21
-28.141245416
 31
0.0
 11
-9.120541637
 21
-28.2582329165
 31
0.0
  0
SPLINE
  5
57A
100
AcDbEntity
  8
ASSI
100
AcDbSpline
 62
253
  6
CONTINUOUS
 70
0
 71
3
 72
11
 73
7
 74
5
 42
0.0000001
 43
0.0000001
 44
0.0000000001
 12
-0.6368123074
 22
-0.3390416829
 32
0.0
 13
-0.6454967647
 23
0.3222004104
 33
0.0
 40
0.0
 40
0.0
 40
0.0
 40
0.0
 40
0.2389228675
 40
0.5036629055
 40
0.7664277838
 40
1.0
 40
1.0
 40
1.0
 40
1.0
 10
-8.8123903994
 20
-27.4835530318
 30
0.0
 10
-8.8631067403
 20
-27.5105546355
 30
0.0
 10
-8.9791698174
 20
-27.5503730281
 30
0.0
 10
-9.1632673334
 20
-27.5722626852
 30
0.0
 10
-9.3468321358
 20
-27.5583107223
 30
0.0
 10
-9.4627169756
 20
-27.523238427
 30
0.0
 10
-9.5129736788
 20
-27.498152739
 30
0.0
 11
-8.8123903994
 21
-27.4835530318
 31
0.0
 11
-8.9743271954
 21
-27.5426087562
 31
0.0
 11
-9.1638731432
 21
-27.5660886955
 31
0.0
 11
-9.3528005045
 21
-27.5504958942
 31
0.0
 11
-9.5129736788
 21
-27.498152739
 31
0.0
  0
SPLINE
  5
57B
100
AcDbEntity
  8
ASSI
100
AcDbSpline
 62
253
  6
CONTINUOUS
 70
0
 71
3
 72
11
 73
7
 74
5
 42
0.0000001
 43
0.0000001
 44
0.0000000001
 12
-0.0143539498
 22
-0.3367213873
 32
0.0
 13
-0.3107599859
 23
-0.1304437033
 33
0.0
 40
0.0
 40
0.0
 40
0.0
 40
0.0
 40
0.2893551305
 40
0.5493555324
 40
0.7828042902
 40
1.0
 40
1.0
 40
1.0
 40
1.0
 10
-8.1312027401
 20
-27.9838687
 30
0.0
 10
-8.1325872031
 20
-28.0163460536
 30
0.0
 10
-8.1406301804
 20
-28.07801981
 30
0.0
 10
-8.1713178043
 20
-28.1613863717
 30
0.0
 10
-8.2192816295
 20
-28.226788357
 30
0.0
 10
-8.2625116295
 20
-28.2556199306
 30
0.0
 10
-8.285010208
 20
-28.2650638682
 30
0.0
 11
-8.1312027401
 21
-27.9838687
 31
0.0
 11
-8.1448033215
 21
-28.0804361962
 31
0.0
 11
-8.1762344494
 21
-28.1622323535
 31
0.0
 11
-8.2238174751
 21
-28.224891547
 31
0.0
 11
-8.285010208
 21
-28.2650638682
 31
0.0
  0
SPLINE
  5
57C
100
AcDbEntity
  8
ASSI
100
AcDbSpline
 62
7
  6
CONTINUOUS
 70
0
 71
3
 72
10
 73
6
 74
4
 42
0.0000001
 43
0.0000001
 44
0.0000000001
 12
0.3473360696
 22
-0.0723391609
 32
0.0
 13
0.2274378507
 23
0.2723000616
 33
0.0
 40
0.0
 40
0.0
 40
0.0
 40
0.0
 40
0.482442924
 40
0.7434995462
 40
1.0
 40
1.0
 40
1.0
 40
1.0
 10
-4.1801726227
 20
13.0318051606
 30
0.0
 10
-4.124316013
 20
13.0201719885
 30
0.0
 10
-4.0309376876
 20
13.0413647151
 30
0.0
 10
-3.9306386052
 20
13.1034243148
 30
0.0
 10
-3.8858033698
 20
13.1461797842
 30
0.0
 10
-3.8663573992
 20
13.1694614806
 30
0.0
 11
-4.1801726227
 21
13.0318051606
 31
0.0
 11
-4.0110513309
 21
13.0581796275
 31
0.0
 11
-3.9319817214
 21
13.1064131118
 31
0.0
 11
-3.8663573992
 21
13.1694614806
 31
0.0
  0
SPLINE
  5
57D
100
AcDbEntity
  8
ASSI
100
AcDbSpline
 62
7
  6
CONTINUOUS
 70
0
 71
3
 72
11
 73
7
 74
5
 42
0.0000001
 43
0.0000001
 44
0.0000000001
 12
-0.4087143287
 22
0.2043714832
 32
0.0
 13
-0.4104598159
 23
-0.2008428369
 33
0.0
 40
0.0
 40
0.0
 40
0.0
 40
0.0
 40
0.227550333
 40
0.4653227117
 40
0.7212674125
 40
1.0
 40
1.0
 40
1.0
 40
1.0
 10
-5.1100094907
 20
21.1728324014
 30
0.0
 10
-5.1410105179
 20
21.188334001
 30
0.0
 10
-5.2092218564
 20
21.21117913
 30
0.0
 10
-5.3200300075
 20
21.2172915243
 30
0.0
 10
-5.4366992102
 20
21.1962373501
 30
0.0
 10
-5.5129301998
 20
21.1661509006
 30
0.0
 10
-5.5510663754
 20
21.1474904194
 30
0.0
 11
-5.1100094907
 21
21.1728324014
 31
0.0
 11
-5.2085068464
 21
21.2061571735
 31
0.0
 11
-5.3169414052
 21
21.2130459668
 31
0.0
 11
-5.4322203683
 21
21.1933037317
 31
0.0
 11
-5.5510663754
 21
21.1474904194
 31
0.0
  0
SPLINE
  5
57E
100
AcDbEntity
  8
ASSI
100
AcDbSpline
 62
253
  6
CONTINUOUS
 70
0
 71
3
 72
11
 73
7
 74
5
 42
0.0000001
 43
0.0000001
 44
0.0000000001
 12
0.0680605826
 22
2.0834938337
 32
0.0
 13
1.8058090337
 23
1.0414569274
 33
0.0
 40
0.0
 40
0.0
 40
0.0
 40
0.0
 40
0.2476759304
 40
0.5113395128
 40
0.7688695861
 40
1.0
 40
1.0
 40
1.0
 40
1.0
 10
-24.3378199509
 20
15.5295100604
 30
0.0
 10
-24.3322009615
 20
15.701520485
 30
0.0
 10
-24.26762825
 20
16.0555528082
 30
0.0
 10
-24.0550307092
 20
16.5499945578
 30
0.0
 10
-23.7480978714
 20
16.9780628051
 30
0.0
 10
-23.4843797373
 20
17.2010767594
 30
0.0
 10
-23.3452539409
 20
17.2813142163
 30
0.0
 11
-24.3378199509
 21
15.5295100604
 31
0.0
 11
-24.2516252808
 21
16.0385708737
 31
0.0
 11
-24.0357984727
 21
16.5440576115
 31
0.0
 11
-23.7194533661
 21
16.9777996025
 31
0.0
 11
-23.3452539409
 21
17.2813142163
 31
0.0
  0
SPLINE
  5
57F
100
AcDbEntity
  8
ASSI
100
AcDbSpline
 62
253
  6
CONTINUOUS
 70
0
 71
3
 72
11
 73
7
 74
5
 42
0.0000001
 43
0.0000001
 44
0.0000000001
 12
0.0081302279
 22
-0.2406522848
 32
0.0
 13
0.2152955958
 23
-0.1078305578
 33
0.0
 40
0.0
 40
0.0
 40
0.0
 40
0.0
 40
0.2116060205
 40
0.4418003598
 40
0.7029632986
 40
1.0
 40
1.0
 40
1.0
 40
1.0
 10
-24.4842823242
 20
-19.9081107547
 30
0.0
 10
-24.4837088558
 20
-19.9250852454
 30
0.0
 10
-24.4756419185
 20
-19.9605501234
 30
0.0
 10
-24.4449394806
 20
-20.0088699983
 30
0.0
 10
-24.397828844
 20
-20.0519323922
 30
0.0
 10
-24.3591368486
 20
-20.0750532627
 30
0.0
 10
-24.3378199507
 20
-20.0857298071
 30
0.0
 11
-24.4842823242
 21
-19.9081107547
 31
0.0
 11
-24.4734053281
 21
-19.9578887697
 31
0.0
 11
-24.4445579998
 21
-20.0052188768
 31
0.0
 11
-24.3988042961
 21
-20.0483600569
 31
0.0
 11
-24.3378199507
 21
-20.0857298071
 31
0.0
  0
SPLINE
  5
580
100
AcDbEntity
  8
ASSI
100
AcDbSpline
 62
253
  6
CONTINUOUS
 70
0
 71
3
 72
11
 73
7
 74
5
 42
0.0000001
 43
0.0000001
 44
0.0000000001
 12
-0.0074329967
 22
-0.2394750109
 32
0.0
 13
0.2143739109
 23
-0.1069923203
 33
0.0
 40
0.0
 40
0.0
 40
0.0
 40
0.0
 40
0.2010467954
 40
0.4266490933
 40
0.6915138814
 40
1.0
 40
1.0
 40
1.0
 40
1.0
 10
-24.4843068245
 20
15.7043977866
 30
0.0
 10
-24.4848049512
 20
15.6883492254
 30
0.0
 10
-24.4780955052
 20
15.6537815986
 30
0.0
 10
-24.4476077853
 20
15.6066293003
 30
0.0
 10
-24.3995439858
 20
15.5638611843
 30
0.0
 10
-24.3598636263
 20
15.5405119946
 30
0.0
 10
-24.3378198344
 20
15.5295101127
 30
0.0
 11
-24.4843068245
 21
15.7043977866
 31
0.0
 11
-24.4757946648
 21
15.6569869951
 31
0.0
 11
-24.44767119
 21
15.6108274563
 31
0.0
 11
-24.4010609301
 21
15.567763156
 31
0.0
 11
-24.3378198344
 21
15.5295101127
 31
0.0
  0
SPLINE
  5
581
100
AcDbEntity
  8
ASSI
100
AcDbSpline
 62
253
  6
CONTINUOUS
 70
0
 71
3
 72
11
 73
7
 74
5
 42
0.0000001
 43
0.0000001
 44
0.0000000001
 12
0.2095099651
 22
0.1218108484
 32
0.0
 13
0.2183289587
 23
-0.1051892298
 33
0.0
 40
0.0
 40
0.0
 40
0.0
 40
0.0
 40
0.2233885961
 40
0.4591676702
 40
0.7164674905
 40
1.0
 40
1.0
 40
1.0
 40
1.0
 10
-23.5784121365
 20
17.2901956132
 30
0.0
 10
-23.5628114242
 20
17.299265998
 30
0.0
 10
-23.5276309939
 20
17.3129749011
 30
0.0
 10
-23.4692657331
 20
17.3176431267
 30
0.0
 10
-23.4068916672
 20
17.3071397939
 30
0.0
 10
-23.3658883934
 20
17.2912557384
 30
0.0
 10
-23.3452539409
 20
17.2813142163
 30
0.0
 11
-23.5784121365
 21
17.2901956132
 31
0.0
 11
-23.5280538011
 21
17.3100683334
 31
0.0
 11
-23.4711481704
 21
17.3152434922
 31
0.0
 11
-23.4095494736
 21
17.3055549858
 31
0.0
 11
-23.3452539409
 21
17.2813142163
 31
0.0
  0
SPLINE
  5
582
100
AcDbEntity
  8
ASSI
100
AcDbSpline
 62
253
  6
CONTINUOUS
 70
0
 71
3
 72
11
 73
7
 74
5
 42
0.0000001
 43
0.0000001
 44
0.0000000001
 12
-0.0001338865
 22
-0.119113725
 32
0.0
 13
-0.1062886646
 23
-0.0537663203
 33
0.0
 40
0.0
 40
0.0
 40
0.0
 40
0.0
 40
0.2069631164
 40
0.4350866104
 40
0.6978330542
 40
1.0
 40
1.0
 40
1.0
 40
1.0
 10
-15.7401503939
 20
21.494062111
 30
0.0
 10
-15.7401596305
 20
21.4858447284
 30
0.0
 10
-15.7437735381
 20
21.4684424395
 30
0.0
 10
-15.7588267122
 20
21.44466877
 30
0.0
 10
-15.7822944763
 20
21.4232747594
 30
0.0
 10
-15.8016425688
 20
21.4116743116
 30
0.0
 10
-15.8123482091
 20
21.4062588434
 30
0.0
 11
-15.7401503939
 21
21.494062111
 31
0.0
 11
-15.7449037118
 21
21.4698725445
 31
0.0
 11
-15.7589302043
 21
21.4466000123
 31
0.0
 11
-15.7816970939
 21
21.4251255185
 31
0.0
 11
-15.8123482091
 21
21.4062588434
 31
0.0
  0
SPLINE
  5
583
100
AcDbEntity
  8
ASSI
100
AcDbSpline
 62
253
  6
CONTINUOUS
 70
0
 71
3
 72
9
 73
5
 74
3
 42
0.0000001
 43
0.0000001
 44
0.0000000001
 12
-0.1019991976
 22
0.0510044566
 32
0.0
 13
-0.1022910182
 23
-0.0504166491
 33
0.0
 40
0.0
 40
0.0
 40
0.0
 40
0.0
 40
0.4641668489
 40
1.0
 40
1.0
 40
1.0
 40
1.0
 10
-15.8783471015
 20
21.7177379767
 30
0.0
 10
-15.8941286503
 20
21.7256295027
 30
0.0
 10
-15.9336556535
 20
21.7323152392
 30
0.0
 10
-15.9708516066
 20
21.7201533528
 30
0.0
 10
-15.9891219128
 20
21.7111483822
 30
0.0
 11
-15.8783471015
 21
21.7177379767
 31
0.0
 11
-15.9303206726
 21
21.7277753605
 31
0.0
 11
-15.9891219128
 21
21.7111483822
 31
0.0
  0
SPLINE
  5
584
100
AcDbEntity
  8
ASSI
100
AcDbSpline
 62
7
  6
CONTINUOUS
 70
0
 71
3
 72
11
 73
7
 74
5
 42
0.0000001
 43
0.0000001
 44
0.0000000001
 12
-0.0460202925
 22
-0.0559270633
 32
0.0
 13
-0.0709459607
 23
0.0145730709
 33
0.0
 40
0.0
 40
0.0
 40
0.0
 40
0.0
 40
0.1186998093
 40
0.3251466647
 40
0.6209999347
 40
1.0
 40
1.0
 40
1.0
 40
1.0
 10
-2.3768874555
 20
14.3736252341
 30
0.0
 10
-2.3787083221
 20
14.3714123902
 30
0.0
 10
-2.387121357
 20
14.3692840581
 30
0.0
 10
-2.4017340774
 20
14.369350254
 30
0.0
 10
-2.4230964371
 20
14.3717606802
 30
0.0
 10
-2.4390672035
 20
14.3747271795
 30
0.0
 10
-2.4480300447
 20
14.3765682444
 30
0.0
 11
-2.3768874555
 21
14.3736252341
 31
0.0
 11
-2.3847493816
 21
14.370146697
 31
0.0
 11
-2.3996903877
 21
14.3695637512
 31
0.0
 11
-2.4210065365
 21
14.3717486602
 31
0.0
 11
-2.4480300447
 21
14.3765682444
 31
0.0
  0
SPLINE
  5
585
100
AcDbEntity
  8
ASSI
100
AcDbSpline
 62
253
  6
CONTINUOUS
 70
0
 71
3
 72
11
 73
7
 74
5
 42
0.0000001
 43
0.0000001
 44
0.0000000001
 12
-0.7218087742
 22
0.4368052049
 32
0.0
 13
-0.028498278
 23
0.8432049227
 33
0.0
 40
0.0
 40
0.0
 40
0.0
 40
0.0
 40
0.2181062628
 40
0.4529719053
 40
0.7127010018
 40
1.0
 40
1.0
 40
1.0
 40
1.0
 10
-23.9922575894
 20
-20.8203757786
 30
0.0
 10
-24.0447345942
 20
-20.7886191284
 30
0.0
 10
-24.1430051477
 20
-20.7035997552
 30
0.0
 10
-24.2500346914
 20
-20.5313392536
 30
0.0
 10
-24.3177971966
 20
-20.3203083172
 30
0.0
 10
-24.3350907753
 20
-20.1664804504
 30
0.0
 10
-24.3378199509
 20
-20.0857298072
 30
0.0
 11
-23.9922575894
 21
-20.8203757786
 31
0.0
 11
-24.1323570118
 21
-20.7010734752
 31
0.0
 11
-24.239217606
 21
-20.53420406
 31
0.0
 11
-24.3086190152
 21
-20.3263546985
 31
0.0
 11
-24.3378199509
 21
-20.0857298072
 31
0.0
  0
SPLINE
  5
586
100
AcDbEntity
  8
ASSI
100
AcDbSpline
 62
253
  6
CONTINUOUS
 70
0
 71
3
 72
10
 73
6
 74
4
 42
0.0000001
 43
0.0000001
 44
0.0000000001
 12
-0.0113039963
 22
-0.1117696455
 32
0.0
 13
-0.1002440428
 23
-0.050708637
 33
0.0
 40
0.0
 40
0.0
 40
0.0
 40
0.0
 40
0.4343862831
 40
0.6988438454
 40
1.0
 40
1.0
 40
1.0
 40
1.0
 10
-15.7404694072
 20
21.1402899938
 30
0.0
 10
-15.7421061741
 20
21.1241062602
 30
0.0
 10
-15.755683411
 20
21.0992462291
 30
0.0
 10
-15.7839677295
 20
21.074765808
 30
0.0
 10
-15.8022851723
 20
21.0638177327
 30
0.0
 10
-15.8123482091
 20
21.0587273266
 30
0.0
 11
-15.7404694072
 21
21.1402899938
 31
0.0
 11
-15.7613760237
 21
21.0961964167
 31
0.0
 11
-15.783436791
 21
21.0762978244
 31
0.0
 11
-15.8123482091
 21
21.0587273266
 31
0.0
  0
SPLINE
  5
587
100
AcDbEntity
  8
ASSI
100
AcDbSpline
 62
253
  6
CONTINUOUS
 70
0
 71
3
 72
9
 73
5
 74
3
 42
0.0000001
 43
0.0000001
 44
0.0000000001
 12
-0.1019991976
 22
0.0510044566
 32
0.0
 13
-0.1022910182
 23
-0.0504166491
 33
0.0
 40
0.0
 40
0.0
 40
0.0
 40
0.0
 40
0.4641668489
 40
1.0
 40
1.0
 40
1.0
 40
1.0
 10
-17.2156732621
 20
22.386401057
 30
0.0
 10
-17.2314548108
 20
22.394292583
 30
0.0
 10
-17.270981814
 20
22.4009783194
 30
0.0
 10
-17.3081777672
 20
22.3888164331
 30
0.0
 10
-17.3264480734
 20
22.3798114624
 30
0.0
 11
-17.2156732621
 21
22.386401057
 31
0.0
 11
-17.2676468331
 21
22.3964384408
 31
0.0
 11
-17.3264480734
 21
22.3798114624
 31
0.0
  0
SPLINE
  5
588
100
AcDbEntity
  8
ASSI
100
AcDbSpline
 62
253
  6
CONTINUOUS
 70
0
 71
3
 72
11
 73
7
 74
5
 42
0.0000001
 43
0.0000001
 44
0.0000000001
 12
-0.1076203194
 22
0.0538101597
 32
0.0
 13
0.0000014567
 23
0.120323175
 33
0.0
 40
0.0
 40
0.0
 40
0.0
 40
0.0
 40
0.3025815898
 40
0.5654822217
 40
0.7934320781
 40
1.0
 40
1.0
 40
1.0
 40
1.0
 10
-6.2550846468
 20
-27.6586080063
 30
0.0
 10
-6.2659392892
 20
-27.653180685
 30
0.0
 10
-6.2855577457
 20
-27.6415409607
 30
0.0
 10
-6.3093691295
 20
-27.6200203586
 30
0.0
 10
-6.3246483463
 20
-27.596066053
 30
0.0
 10
-6.3283080494
 20
-27.5785046313
 30
0.0
 10
-6.3283079491
 20
-27.5702196619
 30
0.0
 11
-6.2550846468
 21
-27.6586080063
 31
0.0
 11
-6.2861762461
 21
-27.6396653519
 31
0.0
 11
-6.3092771284
 21
-27.6180552067
 31
0.0
 11
-6.3235041082
 21
-27.5946059198
 31
0.0
 11
-6.3283079491
 21
-27.5702196619
 31
0.0
  0
SPLINE
  5
589
100
AcDbEntity
  8
ASSI
100
AcDbSpline
 62
253
  6
CONTINUOUS
 70
0
 71
3
 72
9
 73
5
 74
3
 42
0.0000001
 43
0.0000001
 44
0.0000000001
 12
0.0
 22
0.2514082793
 32
0.0
 13
0.1603864077
 23
0.1936035204
 33
0.0
 40
0.0
 40
0.0
 40
0.0
 40
0.0
 40
0.4868894637
 40
1.0
 40
1.0
 40
1.0
 40
1.0
 10
-4.9300999669
 20
-27.9811264121
 30
0.0
 10
-4.9300999669
 20
-27.9403237313
 30
0.0
 10
-4.9116205656
 20
-27.856487658
 30
0.0
 10
-4.8691436045
 20
-27.7825455736
 30
0.0
 10
-4.8417116193
 20
-27.7494322382
 30
0.0
 11
-4.9300999669
 21
-27.9811264121
 31
0.0
 11
-4.9064162214
 21
-27.8610314121
 31
0.0
 11
-4.8417116193
 21
-27.7494322382
 31
0.0
  0
SPLINE
  5
58A
100
AcDbEntity
  8
ASSI
100
AcDbSpline
 62
253
  6
CONTINUOUS
 70
0
 71
3
 72
11
 73
7
 74
5
 42
0.0000001
 43
0.0000001
 44
0.0000000001
 12
0.3239338538
 22
-0.1619669269
 32
0.0
 13
0.3246815761
 23
0.1604627719
 33
0.0
 40
0.0
 40
0.0
 40
0.0
 40
0.0
 40
0.2351708842
 40
0.4995792379
 40
0.7642140574
 40
1.0
 40
1.0
 40
1.0
 40
1.0
 10
-4.9300999669
 20
-27.9811264121
 30
0.0
 10
-4.9047066967
 20
-27.9938230472
 30
0.0
 10
-4.8463624484
 20
-28.0119669497
 30
0.0
 10
-4.7540273933
 20
-28.0207234409
 30
0.0
 10
-4.6615930964
 20
-28.012220507
 30
0.0
 10
-4.6030964578
 20
-27.9942507579
 30
0.0
 10
-4.5775780073
 20
-27.9816391359
 30
0.0
 11
-4.9300999669
 21
-27.9811264121
 31
0.0
 11
-4.8493301118
 21
-28.0081529725
 31
0.0
 11
-4.7540504486
 21
-28.0177375356
 31
0.0
 11
-4.6586608891
 21
-28.0084302761
 31
0.0
 11
-4.5775780073
 21
-27.9816391359
 31
0.0
  0
SPLINE
  5
58B
100
AcDbEntity
  8
ASSI
100
AcDbSpline
 62
253
  6
CONTINUOUS
 70
0
 71
3
 72
11
 73
7
 74
5
 42
0.0000001
 43
0.0000001
 44
0.0000000001
 12
0.3239338539
 22
-0.161966927
 32
0.0
 13
0.3246815763
 23
0.160462772
 33
0.0
 40
0.0
 40
0.0
 40
0.0
 40
0.0
 40
0.2351709482
 40
0.4995793653
 40
0.764214221
 40
1.0
 40
1.0
 40
1.0
 40
1.0
 10
-4.9300999669
 20
-28.3211003462
 30
0.0
 10
-4.9047066898
 20
-28.3337969848
 30
0.0
 10
-4.8463624255
 20
-28.3519408895
 30
0.0
 10
-4.75402735
 20
-28.3606973759
 30
0.0
 10
-4.6615930608
 20
-28.3521944344
 30
0.0
 10
-4.6030964401
 20
-28.3342246833
 30
0.0
 10
-4.5775780073
 20
-28.32161307
 30
0.0
 11
-4.9300999669
 21
-28.3211003462
 31
0.0
 11
-4.8493300889
 21
-28.3481269112
 31
0.0
 11
-4.7540504021
 21
-28.3577114698
 31
0.0
 11
-4.6586608306
 21
-28.3484041988
 31
0.0
 11
-4.5775780073
 21
-28.32161307
 31
0.0
  0
SPLINE
  5
58C
100
AcDbEntity
  8
ASSI
100
AcDbSpline
 62
253
  6
CONTINUOUS
 70
0
 71
3
 72
11
 73
7
 74
5
 42
0.0000001
 43
0.0000001
 44
0.0000000001
 12
0.0
 22
-0.157253955
 32
0.0
 13
0.1405152511
 23
-0.0705993667
 33
0.0
 40
0.0
 40
0.0
 40
0.0
 40
0.0
 40
0.2897147144
 40
0.5495575715
 40
0.7828479084
 40
1.0
 40
1.0
 40
1.0
 40
1.0
 10
-4.9300999669
 20
-28.3211003462
 30
0.0
 10
-4.9300999669
 20
-28.3362866077
 30
0.0
 10
-4.9276521443
 20
-28.3652025616
 30
0.0
 10
-4.9153100189
 20
-28.4047564873
 30
0.0
 10
-4.8946987881
 20
-28.4364404414
 30
0.0
 10
-4.8754574368
 20
-28.4511281066
 30
0.0
 10
-4.8652863766
 20
-28.4562383733
 30
0.0
 11
-4.9300999669
 21
-28.3211003462
 31
0.0
 11
-4.9257914697
 21
-28.3664549458
 31
0.0
 11
-4.9130768988
 21
-28.405287753
 31
0.0
 11
-4.8925753952
 21
-28.4357104146
 31
0.0
 11
-4.8652863766
 21
-28.4562383733
 31
0.0
  0
SPLINE
  5
58D
100
AcDbEntity
  8
ASSI
100
AcDbSpline
 62
253
  6
CONTINUOUS
 70
0
 71
3
 72
10
 73
6
 74
4
 42
0.0000001
 43
0.0000001
 44
0.0000000001
 12
0.0
 22
-0.148084684
 32
0.0
 13
0.1254929504
 23
-0.0786167478
 33
0.0
 40
0.0
 40
0.0
 40
0.0
 40
0.0
 40
0.5465914592
 40
0.7820057503
 40
1.0
 40
1.0
 40
1.0
 40
1.0
 10
-6.2550846468
 20
-27.6586080063
 30
0.0
 10
-6.2550846468
 20
-27.6855886141
 30
0.0
 10
-6.2492820645
 20
-27.7253042531
 30
0.0
 10
-6.2240825572
 20
-27.7683901136
 30
0.0
 10
-6.2071009743
 20
-27.7836929121
 30
0.0
 10
-6.1979820604
 20
-27.7894055784
 30
0.0
 11
-6.2550846468
 21
-27.6586080063
 31
0.0
 11
-6.2401805481
 21
-27.7381658257
 31
0.0
 11
-6.2221458231
 21
-27.7679996239
 31
0.0
 11
-6.1979820604
 21
-27.7894055784
 31
0.0
  0
SPLINE
  5
58E
100
AcDbEntity
  8
ASSI
100
AcDbSpline
 62
253
  6
CONTINUOUS
 70
0
 71
3
 72
9
 73
5
 74
3
 42
0.0000001
 43
0.0000001
 44
0.0000000001
 12
0.0764965154
 22
0.2019246497
 32
0.0
 13
-0.0775734205
 23
0.2015133878
 33
0.0
 40
0.0
 40
0.0
 40
0.0
 40
0.0
 40
0.5100322631
 40
1.0
 40
1.0
 40
1.0
 40
1.0
 10
-2.4480300447
 20
-26.923035895
 30
0.0
 10
-2.4350248144
 20
-26.888706533
 30
0.0
 10
-2.4211548315
 20
-26.8164810032
 30
0.0
 10
-2.4328371425
 20
-26.7434842619
 30
0.0
 10
-2.4455066336
 20
-26.7105725757
 30
0.0
 11
-2.4480300447
 21
-26.923035895
 31
0.0
 11
-2.4275235294
 21
-26.8148312147
 31
0.0
 11
-2.4455066336
 21
-26.7105725757
 31
0.0
  0
SPLINE
  5
58F
100
AcDbEntity
  8
ASSI
100
AcDbSpline
 62
253
  6
CONTINUOUS
 70
0
 71
3
 72
9
 73
5
 74
3
 42
0.0000001
 43
0.0000001
 44
0.0000000001
 12
-0.0168327747
 22
0.0437266971
 32
0.0
 13
-0.0253294463
 23
0.0394180859
 33
0.0
 40
0.0
 40
0.0
 40
0.0
 40
0.0
 40
0.2548350716
 40
1.0
 40
1.0
 40
1.0
 40
1.0
 10
-2.4455066336
 20
-26.7105725757
 30
0.0
 10
-2.4469364941
 20
-26.7068582104
 30
0.0
 10
-2.4528963133
 20
-26.6924205542
 30
0.0
 10
-2.460279352
 20
-26.6785610054
 30
0.0
 10
-2.4665708903
 20
-26.6687700137
 30
0.0
 11
-2.4455066336
 21
-26.7105725757
 31
0.0
 11
-2.4500664612
 21
-26.6995373109
 31
0.0
 11
-2.4665708903
 21
-26.6687700137
 31
0.0
  0
SPLINE
  5
590
100
AcDbEntity
  8
ASSI
100
AcDbSpline
 62
253
  6
CONTINUOUS
 70
0
 71
3
 72
9
 73
5
 74
3
 42
0.0000001
 43
0.0000001
 44
0.0000000001
 12
-0.0469078172
 22
0.0729986888
 32
0.0
 13
-0.0749859584
 23
0.0436607137
 33
0.0
 40
0.0
 40
0.0
 40
0.0
 40
0.0
 40
0.2599139397
 40
1.0
 40
1.0
 40
1.0
 40
1.0
 10
-2.4665708903
 20
-26.6687700137
 30
0.0
 10
-2.4706348889
 20
-26.6624455548
 30
0.0
 10
-2.4875133516
 20
-26.6389542943
 30
0.0
 10
-2.5097903828
 20
-26.6191830681
 30
0.0
 10
-2.5282890704
 20
-26.6084121729
 30
0.0
 11
-2.4665708903
 21
-26.6687700137
 31
0.0
 11
-2.479773486
 21
-26.6504854505
 31
0.0
 11
-2.5282890704
 21
-26.6084121729
 31
0.0
  0
SPLINE
  5
591
100
AcDbEntity
  8
ASSI
100
AcDbSpline
 62
7
  6
CONTINUOUS
 70
0
 71
3
 72
11
 73
7
 74
5
 42
0.0000001
 43
0.0000001
 44
0.0000000001
 12
-0.4344846094
 22
-0.0321538145
 32
0.0
 13
-0.4201213058
 23
-0.1153639113
 33
0.0
 40
0.0
 40
0.0
 40
0.0
 40
0.0
 40
0.2900636789
 40
0.5605677119
 40
0.7988476704
 40
1.0
 40
1.0
 40
1.0
 40
1.0
 10
-8.0356152876
 20
16.0300601315
 30
0.0
 10
-8.077624689
 20
16.0269512469
 30
0.0
 10
-8.1581110048
 20
16.0125728494
 30
0.0
 10
-8.2702977159
 20
15.9831194075
 30
0.0
 10
-8.369115482
 20
15.953664394
 30
0.0
 10
-8.4302682077
 20
15.9354058069
 30
0.0
 10
-8.4584376674
 20
15.927670567
 30
0.0
 11
-8.0356152876
 21
16.0300601315
 31
0.0
 11
-8.1604474385
 21
16.0103870833
 31
0.0
 11
-8.2746443252
 21
15.981266905
 31
0.0
 11
-8.3742795668
 21
15.952116133
 31
0.0
 11
-8.4584376674
 21
15.927670567
 31
0.0
  0
SPLINE
  5
592
100
AcDbEntity
  8
ASSI
100
AcDbSpline
 62
253
  6
CONTINUOUS
 70
0
 71
3
 72
11
 73
7
 74
5
 42
0.0000001
 43
0.0000001
 44
0.0000000001
 12
-0.1867733292
 22
0.3016213348
 32
0.0
 13
-0.3163609776
 23
0.1605473076
 33
0.0
 40
0.0
 40
0.0
 40
0.0
 40
0.0
 40
0.2188688119
 40
0.4829782346
 40
0.7560365946
 40
1.0
 40
1.0
 40
1.0
 40
1.0
 10
-4.5775780073
 20
-27.9816391359
 30
0.0
 10
-4.5912042928
 20
-27.9596339682
 30
0.0
 10
-4.6272303885
 20
-27.9148617942
 30
0.0
 10
-4.6913381711
 20
-27.852382763
 30
0.0
 10
-4.7639676264
 20
-27.7950581521
 30
0.0
 10
-4.8159847855
 20
-27.7624881275
 30
0.0
 10
-4.8417116193
 20
-27.7494322382
 30
0.0
 11
-4.5775780073
 21
-27.9816391359
 31
0.0
 11
-4.6248677921
 21
-27.9200533921
 31
0.0
 11
-4.6916422492
 21
-27.8543239237
 31
0.0
 11
-4.767773121
 21
-27.7944215089
 31
0.0
 11
-4.8417116193
 21
-27.7494322382
 31
0.0
  0
SPLINE
  5
593
100
AcDbEntity
  8
ASSI
100
AcDbSpline
 62
7
  6
CONTINUOUS
 70
0
 71
3
 72
11
 73
7
 74
5
 42
0.0000001
 43
0.0000001
 44
0.0000000001
 12
-0.367573618
 22
0.0767562723
 32
0.0
 13
-0.3358593634
 23
0.1679296817
 33
0.0
 40
0.0
 40
0.0
 40
0.0
 40
0.0
 40
0.2082292705
 40
0.4660042739
 40
0.7454922158
 40
1.0
 40
1.0
 40
1.0
 40
1.0
 10
-3.8663573992
 20
-27.1301426588
 30
0.0
 10
-3.8918705946
 20
-27.1248150246
 30
0.0
 10
-3.9483151982
 20
-27.1098392612
 30
0.0
 10
-4.0370876521
 20
-27.0810089914
 30
0.0
 10
-4.1297902085
 20
-27.0458555807
 30
0.0
 10
-4.1909006464
 20
-27.0186192911
 30
0.0
 10
-4.2193935872
 20
-27.0043728207
 30
0.0
 11
-3.8663573992
 21
-27.1301426588
 31
0.0
 11
-3.9421236495
 21
-27.1108233221
 31
0.0
 11
-4.0342551847
 21
-27.0811405478
 31
0.0
 11
-4.1323283816
 21
-27.0437801338
 31
0.0
 11
-4.2193935872
 21
-27.0043728207
 31
0.0
  0
SPLINE
  5
594
100
AcDbEntity
  8
ASSI
100
AcDbSpline
 62
7
  6
CONTINUOUS
 70
0
 71
3
 72
10
 73
6
 74
4
 42
0.0000001
 43
0.0000001
 44
0.0000000001
 12
0.0002235202
 22
-0.3784736196
 32
0.0
 13
0.2336169785
 23
-0.2977674227
 33
0.0
 40
0.0
 40
0.0
 40
0.0
 40
0.0
 40
0.2135259509
 40
0.4594431457
 40
1.0
 40
1.0
 40
1.0
 40
1.0
 10
-14.1161918633
 20
19.0268542934
 30
0.0
 10
-14.1161759542
 20
18.9999163136
 30
0.0
 10
-14.106623971
 20
18.9420388464
 30
0.0
 10
-14.0645473347
 20
18.8228590769
 30
0.0
 10
-14.0118391868
 20
18.736977524
 30
0.0
 10
-13.9697447671
 20
18.6833241169
 30
0.0
 11
-14.1161918633
 21
19.0268542934
 31
0.0
 11
-14.1051850287
 21
18.9467934123
 31
0.0
 11
-14.0750269126
 21
18.8587416878
 31
0.0
 11
-13.9697447671
 21
18.6833241169
 31
0.0
  0
SPLINE
  5
595
100
AcDbEntity
  8
ASSI
100
AcDbSpline
 62
7
  6
CONTINUOUS
 70
0
 71
3
 72
9
 73
5
 74
3
 42
0.0000001
 43
0.0000001
 44
0.0000000001
 12
-0.0502723709
 22
-0.0161727928
 32
0.0
 13
-0.0473687191
 23
-0.0233468405
 33
0.0
 40
0.0
 40
0.0
 40
0.0
 40
0.0
 40
0.2435111882
 40
1.0
 40
1.0
 40
1.0
 40
1.0
 10
-7.6276244012
 20
21.7085311891
 30
0.0
 10
-7.6317050294
 20
21.7072184371
 30
0.0
 10
-7.6483548003
 20
21.7014954578
 30
0.0
 10
-7.6645557974
 20
21.6944898299
 30
0.0
 10
-7.6765004327
 20
21.688602622
 30
0.0
 11
-7.6276244012
 21
21.7085311891
 31
0.0
 11
-7.6397872292
 21
21.70435516
 31
0.0
 11
-7.6765004327
 21
21.688602622
 31
0.0
  0
SPLINE
  5
596
100
AcDbEntity
  8
ASSI
100
AcDbSpline
 62
253
  6
CONTINUOUS
 70
0
 71
3
 72
11
 73
7
 74
5
 42
0.0000001
 43
0.0000001
 44
0.0000000001
 12
-0.1076203225
 22
0.0538101613
 32
0.0
 13
0.0000013829
 23
0.1203231785
 33
0.0
 40
0.0
 40
0.0
 40
0.0
 40
0.0
 40
0.3025823249
 40
0.5654825874
 40
0.7934322572
 40
1.0
 40
1.0
 40
1.0
 40
1.0
 10
-19.6194028112
 20
21.0031030836
 30
0.0
 10
-19.6302574803
 20
21.0085304181
 30
0.0
 10
-19.6498759534
 20
21.0201701486
 30
0.0
 10
-19.6736873236
 20
21.0416907761
 30
0.0
 10
-19.6889665206
 20
21.065645061
 30
0.0
 10
-19.692626209
 20
21.0832064688
 30
0.0
 10
-19.6926261138
 20
21.0914914312
 30
0.0
 11
-19.6194028112
 21
21.0031030836
 31
0.0
 11
-19.6504944842
 21
21.0220457891
 31
0.0
 11
-19.6735953207
 21
21.0436559195
 31
0.0
 11
-19.6878222809
 21
21.067105193
 31
0.0
 11
-19.6926261138
 21
21.0914914312
 31
0.0
  0
SPLINE
  5
597
100
AcDbEntity
  8
ASSI
100
AcDbSpline
 62
253
  6
CONTINUOUS
 70
0
 71
3
 72
11
 73
7
 74
5
 42
0.0000001
 43
0.0000001
 44
0.0000000001
 12
-0.1076203225
 22
0.0538101613
 32
0.0
 13
0.0000013829
 23
0.1203231785
 33
0.0
 40
0.0
 40
0.0
 40
0.0
 40
0.0
 40
0.3025823249
 40
0.5654825874
 40
0.7934322572
 40
1.0
 40
1.0
 40
1.0
 40
1.0
 10
-19.6194028112
 20
20.6631291495
 30
0.0
 10
-19.6302574803
 20
20.668556484
 30
0.0
 10
-19.6498759534
 20
20.6801962145
 30
0.0
 10
-19.6736873236
 20
20.7017168419
 30
0.0
 10
-19.6889665206
 20
20.7256711268
 30
0.0
 10
-19.692626209
 20
20.7432325346
 30
0.0
 10
-19.6926261138
 20
20.7515174971
 30
0.0
 11
-19.6194028112
 21
20.6631291495
 31
0.0
 11
-19.6504944842
 21
20.682071855
 31
0.0
 11
-19.6735953207
 21
20.7036819854
 31
0.0
 11
-19.6878222809
 21
20.7271312588
 31
0.0
 11
-19.6926261138
 21
20.7515174971
 31
0.0
  0
SPLINE
  5
598
100
AcDbEntity
  8
ASSI
100
AcDbSpline
 62
253
  6
CONTINUOUS
 70
0
 71
3
 72
10
 73
6
 74
4
 42
0.0000001
 43
0.0000001
 44
0.0000000001
 12
0.039436702
 22
-0.0642011521
 32
0.0
 13
-0.0478356045
 23
-0.058213369
 33
0.0
 40
0.0
 40
0.0
 40
0.0
 40
0.0
 40
0.3489911991
 40
0.6281630367
 40
1.0
 40
1.0
 40
1.0
 40
1.0
 10
-15.8123482091
 20
21.0587273266
 30
0.0
 10
-15.8077605218
 20
21.0512587809
 30
0.0
 10
-15.800147428
 20
21.037213397
 30
0.0
 10
-15.7912965374
 20
21.0143088032
 30
0.0
 10
-15.7910589096
 20
20.9951076909
 30
0.0
 10
-15.7969879249
 20
20.9878923968
 30
0.0
 11
-15.8123482091
 21
21.0587273266
 31
0.0
 11
-15.7999350188
 21
21.035546577
 31
0.0
 11
-15.7931326111
 21
21.0156423478
 31
0.0
 11
-15.7969879249
 21
20.9878923968
 31
0.0
  0
SPLINE
  5
599
100
AcDbEntity
  8
ASSI
100
AcDbSpline
 62
7
  6
CONTINUOUS
 70
0
 71
3
 72
11
 73
7
 74
5
 42
0.0000001
 43
0.0000001
 44
0.0000000001
 12
0.0
 22
0.3670486434
 32
0.0
 13
-0.328298287
 23
0.1641491435
 33
0.0
 40
0.0
 40
0.0
 40
0.0
 40
0.0
 40
0.2467927921
 40
0.5117852903
 40
0.7703247525
 40
1.0
 40
1.0
 40
1.0
 40
1.0
 10
-16.3406153809
 20
21.1428200233
 30
0.0
 10
-16.3406153809
 20
21.1730150098
 30
0.0
 10
-16.3510353843
 20
21.2357393484
 30
0.0
 10
-16.388769158
 20
21.3229731576
 30
0.0
 10
-16.4442277638
 20
21.3975692668
 30
0.0
 10
-16.4922550878
 20
21.4351425637
 30
0.0
 10
-16.5173890846
 20
21.4477095621
 30
0.0
 11
-16.3406153809
 21
21.1428200233
 31
0.0
 11
-16.354071345
 21
21.2323999983
 31
0.0
 11
-16.3923909684
 21
21.3217986188
 31
0.0
 11
-16.4497407156
 21
21.3974052546
 31
0.0
 11
-16.5173890846
 21
21.4477095621
 31
0.0
  0
SPLINE
  5
59A
100
AcDbEntity
  8
ASSI
100
AcDbSpline
 62
253
  6
CONTINUOUS
 70
0
 71
3
 72
11
 73
7
 74
5
 42
0.0000001
 43
0.0000001
 44
0.0000000001
 12
-0.0017563531
 22
0.3667457897
 32
0.0
 13
-0.3272560829
 23
0.165556683
 33
0.0
 40
0.0
 40
0.0
 40
0.0
 40
0.0
 40
0.2466955157
 40
0.5118832147
 40
0.7705705489
 40
1.0
 40
1.0
 40
1.0
 40
1.0
 10
-17.9418961717
 20
20.3400980198
 30
0.0
 10
-17.9420405999
 20
20.3702562004
 30
0.0
 10
-17.9526935937
 20
20.4328853027
 30
0.0
 10
-17.9905120248
 20
20.5200115505
 30
0.0
 10
-18.04582746
 20
20.5946094099
 30
0.0
 10
-18.0936424809
 20
20.6323263657
 30
0.0
 10
-18.1186698754
 20
20.6449875586
 30
0.0
 11
-17.9418961717
 21
20.3400980198
 31
0.0
 11
-17.9556694707
 21
20.4295190837
 31
0.0
 11
-17.9941000303
 21
20.5188618528
 31
0.0
 11
-18.0513385515
 21
20.5945239146
 31
0.0
 11
-18.1186698754
 21
20.6449875586
 31
0.0
  0
SPLINE
  5
59B
100
AcDbEntity
  8
ASSI
100
AcDbSpline
 62
253
  6
CONTINUOUS
 70
0
 71
3
 72
11
 73
7
 74
5
 42
0.0000001
 43
0.0000001
 44
0.0000000001
 12
0.0017306169
 22
0.3673419508
 32
0.0
 13
-0.3293172695
 23
0.1627674411
 33
0.0
 40
0.0
 40
0.0
 40
0.0
 40
0.0
 40
0.2468893536
 40
0.5116863499
 40
0.7700780422
 40
1.0
 40
1.0
 40
1.0
 40
1.0
 10
-15.8123482091
 20
21.4062588434
 30
0.0
 10
-15.8122057855
 20
21.4364897823
 30
0.0
 10
-15.822396239
 20
21.4993072068
 30
0.0
 10
-15.8600444245
 20
21.5866483737
 30
0.0
 10
-15.9156468131
 20
21.6612418239
 30
0.0
 10
-15.9638828224
 20
21.6986737793
 30
0.0
 10
-15.9891219128
 20
21.7111483822
 30
0.0
 11
-15.8123482091
 21
21.4062588434
 31
0.0
 11
-15.8254910364
 21
21.4959953224
 31
0.0
 11
-15.8637002193
 21
21.5854487995
 31
0.0
 11
-15.9211601786
 21
21.6610001088
 31
0.0
 11
-15.9891219128
 21
21.7111483822
 31
0.0
  0
SPLINE
  5
59C
100
AcDbEntity
  8
ASSI
100
AcDbSpline
 62
253
  6
CONTINUOUS
 70
0
 71
3
 72
11
 73
7
 74
5
 42
0.0000001
 43
0.0000001
 44
0.0000000001
 12
-0.1066631984
 22
-0.2776802995
 32
0.0
 13
-0.2911829591
 23
0.0607936755
 33
0.0
 40
0.0
 40
0.0
 40
0.0
 40
0.0
 40
0.2776561271
 40
0.537473604
 40
0.7760963196
 40
1.0
 40
1.0
 40
1.0
 40
1.0
 10
-4.5775780073
 20
13.3179650035
 30
0.0
 10
-4.5874499041
 20
13.2922651246
 30
0.0
 10
-4.6132255276
 20
13.2447076815
 30
0.0
 10
-4.6687349651
 20
13.1896265221
 30
0.0
 10
-4.7351257858
 20
13.1585524725
 30
0.0
 10
-4.7826886474
 20
13.1576063399
 30
0.0
 10
-4.8044209595
 20
13.1621436491
 30
0.0
 11
-4.5775780073
 21
13.3179650035
 31
0.0
 11
-4.6174613515
 21
13.2456409968
 31
0.0
 11
-4.6730118788
 21
13.191908133
 31
0.0
 11
-4.7378232634
 21
13.1629633704
 31
0.0
 11
-4.8044209595
 21
13.1621436491
 31
0.0
  0
SPLINE
  5
59D
100
AcDbEntity
  8
ASSI
100
AcDbSpline
 62
253
  6
CONTINUOUS
 70
0
 71
3
 72
9
 73
5
 74
3
 42
0.0000001
 43
0.0000001
 44
0.0000000001
 12
-0.1015908262
 22
0.0513856538
 32
0.0
 13
-0.1023473042
 23
-0.0498619164
 33
0.0
 40
0.0
 40
0.0
 40
0.0
 40
0.0
 40
0.5358955337
 40
1.0
 40
1.0
 40
1.0
 40
1.0
 10
-17.3264480734
 20
22.3798114624
 30
0.0
 10
-17.3445954301
 20
22.3889905766
 30
0.0
 10
-17.3815981684
 20
22.4015202963
 30
0.0
 10
-17.421126764
 20
22.3952596798
 30
0.0
 10
-17.4369600443
 20
22.3875459671
 30
0.0
 11
-17.3264480734
 21
22.3798114624
 31
0.0
 11
-17.3849800203
 21
22.3970235339
 31
0.0
 11
-17.4369600443
 21
22.3875459671
 31
0.0
  0
SPLINE
  5
59E
100
AcDbEntity
  8
ASSI
100
AcDbSpline
 62
7
  6
CONTINUOUS
 70
0
 71
3
 72
9
 73
5
 74
3
 42
0.0000001
 43
0.0000001
 44
0.0000000001
 12
-0.1028781266
 22
-0.0575016905
 32
0.0
 13
-0.1161276826
 23
-0.0201175219
 33
0.0
 40
0.0
 40
0.0
 40
0.0
 40
0.0
 40
0.2318530821
 40
1.0
 40
1.0
 40
1.0
 40
1.0
 10
-3.8663573992
 20
12.3609606567
 30
0.0
 10
-3.8743082694
 20
12.3565166753
 30
0.0
 10
-3.9097167335
 20
12.3393304994
 30
0.0
 10
-3.9482699679
 20
12.329427985
 30
0.0
 10
-3.9780043417
 20
12.3242769141
 30
0.0
 11
-3.8663573992
 21
12.3609606567
 31
0.0
 11
-3.8908964423
 21
12.348938879
 31
0.0
 11
-3.9780043417
 21
12.3242769141
 31
0.0
  0
SPLINE
  5
59F
100
AcDbEntity
  8
ASSI
100
AcDbSpline
 62
253
  6
CONTINUOUS
 70
0
 71
3
 72
11
 73
7
 74
5
 42
0.0000001
 43
0.0000001
 44
0.0000000001
 12
0.0
 22
-0.1574304972
 32
0.0
 13
0.1408119364
 23
-0.0704014205
 33
0.0
 40
0.0
 40
0.0
 40
0.0
 40
0.0
 40
0.289749639
 40
0.5495875602
 40
0.7828489991
 40
1.0
 40
1.0
 40
1.0
 40
1.0
 10
-4.9300999669
 20
13.3184777273
 30
0.0
 10
-4.9300999669
 20
13.3032725841
 30
0.0
 10
-4.9276461055
 20
13.2743223606
 30
0.0
 10
-4.9152727321
 20
13.2347276719
 30
0.0
 10
-4.8946059055
 20
13.2030290321
 30
0.0
 10
-4.875319186
 20
13.1883551225
 30
0.0
 10
-4.8651267017
 20
13.1832592096
 30
0.0
 11
-4.9300999669
 21
13.3184777273
 31
0.0
 11
-4.9257801569
 21
13.2730673026
 31
0.0
 11
-4.9130326677
 21
13.2341978268
 31
0.0
 11
-4.8924794521
 21
13.2037658581
 31
0.0
 11
-4.8651267017
 21
13.1832592096
 31
0.0
  0
SPLINE
  5
5A0
100
AcDbEntity
  8
ASSI
100
AcDbSpline
 62
253
  6
CONTINUOUS
 70
0
 71
3
 72
11
 73
7
 74
5
 42
0.0000001
 43
0.0000001
 44
0.0000000001
 12
0.0
 22
-0.1506778962
 32
0.0
 13
0.1295113006
 23
-0.0770107228
 33
0.0
 40
0.0
 40
0.0
 40
0.0
 40
0.0
 40
0.2882821934
 40
0.5483532173
 40
0.7827404965
 40
1.0
 40
1.0
 40
1.0
 40
1.0
 10
-6.2550846468
 20
13.9809700672
 30
0.0
 10
-6.2550846468
 20
13.9664908158
 30
0.0
 10
-6.2528510027
 20
13.9388567485
 30
0.0
 10
-6.2416641699
 20
13.9008178803
 30
0.0
 10
-6.2230171767
 20
13.8697796113
 30
0.0
 10
-6.2054880265
 20
13.8546057059
 30
0.0
 10
-6.1961088395
 20
13.8490286021
 30
0.0
 11
-6.2550846468
 21
13.9809700672
 31
0.0
 11
-6.2511874039
 21
13.9377074967
 31
0.0
 11
-6.239668192
 21
13.9002518539
 31
0.0
 11
-6.2210343733
 21
13.8702506868
 31
0.0
 11
-6.1961088395
 21
13.8490286021
 31
0.0
  0
SPLINE
  5
5A1
100
AcDbEntity
  8
ASSI
100
AcDbSpline
 62
7
  6
CONTINUOUS
 70
0
 71
3
 72
9
 73
5
 74
3
 42
0.0000001
 43
0.0000001
 44
0.0000000001
 12
-0.1021672394
 22
0.0510836197
 32
0.0
 13
-0.1026923057
 23
-0.0500197096
 33
0.0
 40
0.0
 40
0.0
 40
0.0
 40
0.0
 40
0.5361694326
 40
1.0
 40
1.0
 40
1.0
 40
1.0
 10
-17.8608979521
 20
22.1194639959
 30
0.0
 10
-17.8791576023
 20
22.128593821
 30
0.0
 10
-17.9163127637
 20
22.1410185419
 30
0.0
 10
-17.9559527913
 20
22.1347275656
 30
0.0
 10
-17.9718300681
 20
22.1269940089
 30
0.0
 11
-17.8608979521
 21
22.1194639959
 31
0.0
 11
-17.9197148694
 21
22.1365369873
 31
0.0
 11
-17.9718300681
 21
22.1269940089
 31
0.0
  0
SPLINE
  5
5A2
100
AcDbEntity
  8
ASSI
100
AcDbSpline
 62
253
  6
CONTINUOUS
 70
0
 71
3
 72
9
 73
5
 74
3
 42
0.0000001
 43
0.0000001
 44
0.0000000001
 12
-0.104390344
 22
0.0515870777
 32
0.0
 13
-0.1036244213
 23
-0.0531088488
 33
0.0
 40
0.0
 40
0.0
 40
0.0
 40
0.0
 40
0.5366789097
 40
1.0
 40
1.0
 40
1.0
 40
1.0
 10
-19.4436545552
 20
21.3074798985
 30
0.0
 10
-19.4623292539
 20
21.3167084641
 30
0.0
 10
-19.5003126003
 20
21.3291694421
 30
0.0
 10
-19.5407006021
 20
21.3221479633
 30
0.0
 10
-19.5567043954
 20
21.3139458134
 30
0.0
 11
-19.4436545552
 21
21.3074798985
 31
0.0
 11
-19.5037915748
 21
21.3244721322
 31
0.0
 11
-19.5567043954
 21
21.3139458134
 31
0.0
  0
SPLINE
  5
5A3
100
AcDbEntity
  8
ASSI
100
AcDbSpline
 62
253
  6
CONTINUOUS
 70
0
 71
3
 72
9
 73
5
 74
3
 42
0.0000001
 43
0.0000001
 44
0.0000000001
 12
0.0
 22
0.0591159102
 32
0.0
 13
0.0113884801
 23
0.0580085628
 33
0.0
 40
0.0
 40
0.0
 40
0.0
 40
0.0
 40
0.2415564588
 40
1.0
 40
1.0
 40
1.0
 40
1.0
 10
-18.2944181314
 20
20.3406107437
 30
0.0
 10
-18.2944181314
 20
20.345370687
 30
0.0
 10
-18.2938859661
 20
20.3650744893
 30
0.0
 10
-18.2913302209
 20
20.3847062424
 30
0.0
 10
-18.2884510478
 20
20.399371649
 30
0.0
 11
-18.2944181314
 21
20.3406107437
 31
0.0
 11
-18.2940429605
 21
20.3548856444
 31
0.0
 11
-18.2884510478
 21
20.399371649
 31
0.0
  0
SPLINE
  5
5A4
100
AcDbEntity
  8
ASSI
100
AcDbSpline
 62
253
  6
CONTINUOUS
 70
0
 71
3
 72
9
 73
5
 74
3
 42
0.0000001
 43
0.0000001
 44
0.0000000001
 12
0.0786321763
 22
0.2566839422
 32
0.0
 13
0.2394297929
 23
0.1214209192
 33
0.0
 40
0.0
 40
0.0
 40
0.0
 40
0.0
 40
0.5271144534
 40
1.0
 40
1.0
 40
1.0
 40
1.0
 10
-18.2792630825
 20
20.4358951668
 30
0.0
 10
-18.2654470303
 20
20.4809957721
 30
0.0
 10
-18.2239903661
 20
20.5621592245
 30
0.0
 10
-18.1564108382
 20
20.6258481594
 30
0.0
 10
-18.1186698754
 20
20.6449875586
 30
0.0
 11
-18.2792630825
 21
20.4358951668
 31
0.0
 11
-18.2144839881
 21
20.5617053413
 31
0.0
 11
-18.1186698754
 21
20.6449875586
 31
0.0
  0
SPLINE
  5
5A5
100
AcDbEntity
  8
ASSI
100
AcDbSpline
 62
253
  6
CONTINUOUS
 70
0
 71
3
 72
11
 73
7
 74
5
 42
0.0000001
 43
0.0000001
 44
0.0000000001
 12
-0.1076203225
 22
0.0538101613
 32
0.0
 13
0.0000013829
 23
0.1203231785
 33
0.0
 40
0.0
 40
0.0
 40
0.0
 40
0.0
 40
0.3025823249
 40
0.5654825874
 40
0.7934322572
 40
1.0
 40
1.0
 40
1.0
 40
1.0
 10
-6.2550846468
 20
13.9809700672
 30
0.0
 10
-6.2659393159
 20
13.9863974018
 30
0.0
 10
-6.2855577889
 20
13.9980371323
 30
0.0
 10
-6.3093691592
 20
14.0195577597
 30
0.0
 10
-6.3246483562
 20
14.0435120446
 30
0.0
 10
-6.3283080446
 20
14.0610734524
 30
0.0
 10
-6.3283079493
 20
14.0693584149
 30
0.0
 11
-6.2550846468
 21
13.9809700672
 31
0.0
 11
-6.2861763197
 21
13.9999127728
 31
0.0
 11
-6.3092771563
 21
14.0215229032
 31
0.0
 11
-6.3235041165
 21
14.0449721766
 31
0.0
 11
-6.3283079493
 21
14.0693584149
 31
0.0
  0
SPLINE
  5
5A6
100
AcDbEntity
  8
ASSI
100
AcDbSpline
 62
253
  6
CONTINUOUS
 70
0
 71
3
 72
11
 73
7
 74
5
 42
0.0000001
 43
0.0000001
 44
0.0000000001
 12
0.0
 22
0.3659184282
 32
0.0
 13
0.3263519551
 23
0.1655013518
 33
0.0
 40
0.0
 40
0.0
 40
0.0
 40
0.0
 40
0.2465991784
 40
0.5114081618
 40
0.7699752382
 40
1.0
 40
1.0
 40
1.0
 40
1.0
 10
-19.6194028112
 20
21.0031030836
 30
0.0
 10
-19.6194028112
 20
21.0331814782
 30
0.0
 10
-19.6090600686
 20
21.0956664592
 30
0.0
 10
-19.5715764679
 20
21.1826368671
 30
0.0
 10
-19.5164371163
 20
21.2571358931
 30
0.0
 10
-19.4686775655
 20
21.2947900955
 30
0.0
 10
-19.4436545552
 20
21.3074798985
 30
0.0
 11
-19.6194028112
 21
21.0031030836
 31
0.0
 11
-19.6060444826
 21
21.0923440128
 31
0.0
 11
-19.5679892398
 21
21.1814569483
 31
0.0
 11
-19.5109872022
 21
21.2569729294
 31
0.0
 11
-19.4436545552
 21
21.3074798985
 31
0.0
  0
SPLINE
  5
5A7
100
AcDbEntity
  8
ASSI
100
AcDbSpline
 62
253
  6
CONTINUOUS
 70
0
 71
3
 72
11
 73
7
 74
5
 42
0.0000001
 43
0.0000001
 44
0.0000000001
 12
-0.1076203194
 22
0.0538101597
 32
0.0
 13
0.0000014567
 23
0.120323175
 33
0.0
 40
0.0
 40
0.0
 40
0.0
 40
0.0
 40
0.3025815898
 40
0.5654822217
 40
0.7934320781
 40
1.0
 40
1.0
 40
1.0
 40
1.0
 10
-6.2550846468
 20
14.3209440014
 30
0.0
 10
-6.2659392892
 20
14.3263713226
 30
0.0
 10
-6.2855577457
 20
14.3380110469
 30
0.0
 10
-6.3093691295
 20
14.359531649
 30
0.0
 10
-6.3246483463
 20
14.3834859546
 30
0.0
 10
-6.3283080494
 20
14.4010473764
 30
0.0
 10
-6.3283079491
 20
14.4093323458
 30
0.0
 11
-6.2550846468
 21
14.3209440014
 31
0.0
 11
-6.2861762461
 21
14.3398866558
 31
0.0
 11
-6.3092771284
 21
14.361496801
 31
0.0
 11
-6.3235041082
 21
14.3849460878
 31
0.0
 11
-6.3283079491
 21
14.4093323458
 31
0.0
  0
SPLINE
  5
5A8
100
AcDbEntity
  8
ASSI
100
AcDbSpline
 62
253
  6
CONTINUOUS
 70
0
 71
3
 72
9
 73
5
 74
3
 42
0.0000001
 43
0.0000001
 44
0.0000000001
 12
-0.1043468426
 22
0.0515655804
 32
0.0
 13
-0.1036096015
 23
-0.053031341
 33
0.0
 40
0.0
 40
0.0
 40
0.0
 40
0.0
 40
0.5366724049
 40
1.0
 40
1.0
 40
1.0
 40
1.0
 10
-6.0793363908
 20
14.6253208163
 30
0.0
 10
-6.0980030811
 20
14.6345454244
 30
0.0
 10
-6.1359685036
 20
14.6470025719
 30
0.0
 10
-6.1763398091
 20
14.6399999153
 30
0.0
 10
-6.1923415383
 20
14.6318096207
 30
0.0
 11
-6.0793363908
 21
14.6253208163
 31
0.0
 11
-6.1394460061
 21
14.6423114793
 31
0.0
 11
-6.1923415383
 21
14.6318096207
 31
0.0
  0
SPLINE
  5
5A9
100
AcDbEntity
  8
ASSI
100
AcDbSpline
 62
7
  6
CONTINUOUS
 70
0
 71
3
 72
9
 73
5
 74
3
 42
0.0000001
 43
0.0000001
 44
0.0000000001
 12
-0.1021672394
 22
0.0510836197
 32
0.0
 13
-0.1026923057
 23
-0.0500197096
 33
0.0
 40
0.0
 40
0.0
 40
0.0
 40
0.0
 40
0.5361694326
 40
1.0
 40
1.0
 40
1.0
 40
1.0
 10
-4.4965797876
 20
15.4373049137
 30
0.0
 10
-4.5148394379
 20
15.4464347388
 30
0.0
 10
-4.5519945993
 20
15.4588594597
 30
0.0
 10
-4.5916346269
 20
15.4525684834
 30
0.0
 10
-4.6075119037
 20
15.4448349267
 30
0.0
 11
-4.4965797876
 21
15.4373049137
 31
0.0
 11
-4.555396705
 21
15.4543779051
 31
0.0
 11
-4.6075119037
 21
15.4448349267
 31
0.0
  0
SPLINE
  5
5AA
100
AcDbEntity
  8
ASSI
100
AcDbSpline
 62
253
  6
CONTINUOUS
 70
0
 71
3
 72
11
 73
7
 74
5
 42
0.0000001
 43
0.0000001
 44
0.0000000001
 12
0.3239338537
 22
-0.1619669268
 32
0.0
 13
0.324681576
 23
0.1604627718
 33
0.0
 40
0.0
 40
0.0
 40
0.0
 40
0.0
 40
0.2351708329
 40
0.4995791214
 40
0.7642139051
 40
1.0
 40
1.0
 40
1.0
 40
1.0
 10
-18.2944181314
 20
20.0006368095
 30
0.0
 10
-18.2690248666
 20
19.9879401772
 30
0.0
 10
-18.210680633
 20
19.9697962769
 30
0.0
 10
-18.1183455968
 20
19.9610397817
 30
0.0
 10
-18.0259112937
 20
19.9695427084
 30
0.0
 10
-17.9674146387
 20
19.9875124556
 30
0.0
 10
-17.9418961717
 20
20.0001240857
 30
0.0
 11
-18.2944181314
 21
20.0006368095
 31
0.0
 11
-18.2136482946
 21
19.9736102528
 31
0.0
 11
-18.1183686556
 21
19.964025686
 31
0.0
 11
-18.0229791081
 21
19.9733329349
 31
0.0
 11
-17.9418961717
 21
20.0001240857
 31
0.0
  0
SPLINE
  5
5AB
100
AcDbEntity
  8
ASSI
100
AcDbSpline
 62
253
  6
CONTINUOUS
 70
0
 71
3
 72
9
 73
5
 74
3
 42
0.0000001
 43
0.0000001
 44
0.0000000001
 12
-0.1015908279
 22
0.0513856547
 32
0.0
 13
-0.1023472956
 23
-0.0498619386
 33
0.0
 40
0.0
 40
0.0
 40
0.0
 40
0.0
 40
0.5358959865
 40
1.0
 40
1.0
 40
1.0
 40
1.0
 10
-3.9621299089
 20
15.6976523802
 30
0.0
 10
-3.9802772813
 20
15.7068315023
 30
0.0
 10
-4.0172800242
 20
15.7193612183
 30
0.0
 10
-4.0568086174
 20
15.7131005943
 30
0.0
 10
-4.0726418809
 20
15.7053868857
 30
0.0
 11
-3.9621299089
 21
15.6976523802
 31
0.0
 11
-4.0206619092
 21
15.7148644568
 31
0.0
 11
-4.0726418809
 21
15.7053868857
 31
0.0
  0
SPLINE
  5
5AC
100
AcDbEntity
  8
ASSI
100
AcDbSpline
 62
253
  6
CONTINUOUS
 70
0
 71
3
 72
9
 73
5
 74
3
 42
0.0000001
 43
0.0000001
 44
0.0000000001
 12
0.0537550799
 22
-0.0217840998
 32
0.0
 13
0.0566058681
 23
-0.012646395
 33
0.0
 40
0.0
 40
0.0
 40
0.0
 40
0.0
 40
0.2395625795
 40
1.0
 40
1.0
 40
1.0
 40
1.0
 10
-18.2750463841
 20
20.3318866673
 30
0.0
 10
-18.2707538156
 20
20.3301471156
 30
0.0
 10
-18.2526649344
 20
20.3233088077
 30
0.0
 10
-18.233983743
 20
20.3180808484
 30
0.0
 10
-18.2196353362
 20
20.3148752511
 30
0.0
 11
-18.2750463841
 21
20.3318866673
 31
0.0
 11
-18.2620529847
 21
20.3269631285
 31
0.0
 11
-18.2196353362
 21
20.3148752511
 31
0.0
  0
SPLINE
  5
5AD
100
AcDbEntity
  8
ASSI
100
AcDbSpline
 62
253
  6
CONTINUOUS
 70
0
 71
3
 72
10
 73
6
 74
4
 42
0.0000001
 43
0.0000001
 44
0.0000000001
 12
0.2761079417
 22
-0.0616856558
 32
0.0
 13
0.253630678
 23
0.1253482939
 33
0.0
 40
0.0
 40
0.0
 40
0.0
 40
0.0
 40
0.5193733998
 40
0.7728480382
 40
1.0
 40
1.0
 40
1.0
 40
1.0
 10
-18.2196353362
 20
20.3148752511
 30
0.0
 10
-18.1718342961
 20
20.3041959548
 30
0.0
 10
-18.0975092275
 20
20.3002340132
 30
0.0
 10
-18.0042810788
 20
20.3155654732
 30
0.0
 10
-17.9611004071
 20
20.3306069829
 30
0.0
 10
-17.9418961717
 20
20.3400980198
 30
0.0
 11
-18.2196353362
 21
20.3148752511
 31
0.0
 11
-18.0729645733
 21
20.3060113599
 31
0.0
 11
-18.0022796591
 21
20.3181031022
 31
0.0
 11
-17.9418961717
 21
20.3400980198
 31
0.0
  0
SPLINE
  5
5AE
100
AcDbEntity
  8
ASSI
100
AcDbSpline
 62
253
  6
CONTINUOUS
 70
0
 71
3
 72
11
 73
7
 74
5
 42
0.0000001
 43
0.0000001
 44
0.0000000001
 12
-0.1066631984
 22
-0.2776802995
 32
0.0
 13
-0.2911829591
 23
0.0607936755
 33
0.0
 40
0.0
 40
0.0
 40
0.0
 40
0.0
 40
0.2776561271
 40
0.537473604
 40
0.7760963196
 40
1.0
 40
1.0
 40
1.0
 40
1.0
 10
-17.9418961717
 20
20.0001240857
 30
0.0
 10
-17.9517680686
 20
19.9744242068
 30
0.0
 10
-17.977543692
 20
19.9268667637
 30
0.0
 10
-18.0330531295
 20
19.8717856043
 30
0.0
 10
-18.0994439503
 20
19.8407115548
 30
0.0
 10
-18.1470068119
 20
19.8397654221
 30
0.0
 10
-18.1687391239
 20
19.8443027313
 30
0.0
 11
-17.9418961717
 21
20.0001240857
 31
0.0
 11
-17.9817795159
 21
19.927800079
 31
0.0
 11
-18.0373300432
 21
19.8740672152
 31
0.0
 11
-18.1021414279
 21
19.8451224526
 31
0.0
 11
-18.1687391239
 21
19.8443027313
 31
0.0
  0
SPLINE
  5
5AF
100
AcDbEntity
  8
ASSI
100
AcDbSpline
 62
7
  6
CONTINUOUS
 70
0
 71
3
 72
10
 73
6
 74
4
 42
0.0000001
 43
0.0000001
 44
0.0000000001
 12
-0.2274151922
 22
-0.2722729337
 32
0.0
 13
-0.347305627
 23
0.0723119738
 33
0.0
 40
0.0
 40
0.0
 40
0.0
 40
0.0
 40
0.2564915708
 40
0.5175407493
 40
1.0
 40
1.0
 40
1.0
 40
1.0
 10
-17.2306755636
 20
19.8516205628
 30
0.0
 10
-17.2501189236
 20
19.828341992
 30
0.0
 10
-17.2949474729
 20
19.785590902
 30
0.0
 10
-17.3952341684
 20
19.7235373038
 30
0.0
 10
-17.4886002036
 20
19.7023222747
 30
0.0
 10
-17.5444538078
 20
19.7139514683
 30
0.0
 11
-17.2306755636
 21
19.8516205628
 31
0.0
 11
-17.2962901655
 21
19.7885797113
 31
0.0
 11
-17.3753474929
 21
19.7403488823
 31
0.0
 11
-17.5444538078
 21
19.7139514683
 31
0.0
  0
SPLINE
  5
5B0
100
AcDbEntity
  8
ASSI
100
AcDbSpline
 62
253
  6
CONTINUOUS
 70
0
 71
3
 72
11
 73
7
 74
5
 42
0.0000001
 43
0.0000001
 44
0.0000000001
 12
0.0
 22
-0.1506778962
 32
0.0
 13
0.1295113006
 23
-0.0770107228
 33
0.0
 40
0.0
 40
0.0
 40
0.0
 40
0.0
 40
0.2882821934
 40
0.5483532173
 40
0.7827404965
 40
1.0
 40
1.0
 40
1.0
 40
1.0
 10
-19.6194028112
 20
20.6631291495
 30
0.0
 10
-19.6194028112
 20
20.648649898
 30
0.0
 10
-19.6171691671
 20
20.6210158307
 30
0.0
 10
-19.6059823343
 20
20.5829769625
 30
0.0
 10
-19.5873353411
 20
20.5519386935
 30
0.0
 10
-19.5698061909
 20
20.5367647882
 30
0.0
 10
-19.5604270039
 20
20.5311876844
 30
0.0
 11
-19.6194028112
 21
20.6631291495
 31
0.0
 11
-19.6155055683
 21
20.6198665789
 31
0.0
 11
-19.6039863564
 21
20.5824109361
 31
0.0
 11
-19.5853525378
 21
20.552409769
 31
0.0
 11
-19.5604270039
 21
20.5311876844
 31
0.0
  0
SPLINE
  5
5B1
100
AcDbEntity
  8
ASSI
100
AcDbSpline
 62
253
  6
CONTINUOUS
 70
0
 71
3
 72
11
 73
7
 74
5
 42
0.0000001
 43
0.0000001
 44
0.0000000001
 12
0.0017306169
 22
0.3673419505
 32
0.0
 13
-0.3293172692
 23
0.162767441
 33
0.0
 40
0.0
 40
0.0
 40
0.0
 40
0.0
 40
0.2468889152
 40
0.5116858701
 40
0.7700776245
 40
1.0
 40
1.0
 40
1.0
 40
1.0
 10
-2.4480300447
 20
14.7240997611
 30
0.0
 10
-2.4478876213
 20
14.7543306464
 30
0.0
 10
-2.4580780445
 20
14.8171480119
 30
0.0
 10
-2.495726177
 20
14.9044891473
 30
0.0
 10
-2.5513285669
 20
14.9790826611
 30
0.0
 10
-2.5995646121
 20
15.0165146744
 30
0.0
 10
-2.6248037484
 20
15.0289893
 30
0.0
 11
-2.4480300447
 21
14.7240997611
 31
0.0
 11
-2.4611728255
 21
14.8138360841
 31
0.0
 11
-2.4993819654
 21
14.903289563
 31
0.0
 11
-2.5568419056
 21
14.9788409154
 31
0.0
 11
-2.6248037484
 21
15.0289893
 31
0.0
  0
SPLINE
  5
5B2
100
AcDbEntity
  8
ASSI
100
AcDbSpline
 62
253
  6
CONTINUOUS
 70
0
 71
3
 72
11
 73
7
 74
5
 42
0.0000001
 43
0.0000001
 44
0.0000000001
 12
-0.0017563531
 22
0.3667457895
 32
0.0
 13
-0.3272560827
 23
0.1655566829
 33
0.0
 40
0.0
 40
0.0
 40
0.0
 40
0.0
 40
0.2466958371
 40
0.5118834552
 40
0.7705706608
 40
1.0
 40
1.0
 40
1.0
 40
1.0
 10
-4.5775780073
 20
13.6579389376
 30
0.0
 10
-4.5777224356
 20
13.6880971574
 30
0.0
 10
-4.5883754496
 20
13.7507262889
 30
0.0
 10
-4.6261939042
 20
13.8378525398
 30
0.0
 10
-4.6815093285
 20
13.9124503579
 30
0.0
 10
-4.7293243287
 20
13.9501672896
 30
0.0
 10
-4.754351711
 20
13.9628284764
 30
0.0
 11
-4.5775780073
 21
13.6579389376
 31
0.0
 11
-4.5913513408
 21
13.7473601154
 31
0.0
 11
-4.6297819105
 21
13.8367028478
 31
0.0
 11
-4.6870204161
 21
13.9123648623
 31
0.0
 11
-4.754351711
 21
13.9628284764
 31
0.0
  0
SPLINE
  5
5B3
100
AcDbEntity
  8
ASSI
100
AcDbSpline
 62
7
  6
CONTINUOUS
 70
0
 71
3
 72
11
 73
7
 74
5
 42
0.0000001
 43
0.0000001
 44
0.0000000001
 12
0.0
 22
0.3670486434
 32
0.0
 13
-0.328298287
 23
0.1641491435
 33
0.0
 40
0.0
 40
0.0
 40
0.0
 40
0.0
 40
0.2467927921
 40
0.5117852903
 40
0.7703247525
 40
1.0
 40
1.0
 40
1.0
 40
1.0
 10
-2.9762972165
 20
14.4606609411
 30
0.0
 10
-2.9762972165
 20
14.4908559276
 30
0.0
 10
-2.9867172199
 20
14.5535802661
 30
0.0
 10
-3.0244509936
 20
14.6408140754
 30
0.0
 10
-3.0799095993
 20
14.7154101846
 30
0.0
 10
-3.1279369234
 20
14.7529834815
 30
0.0
 10
-3.1530709201
 20
14.7655504799
 30
0.0
 11
-2.9762972165
 21
14.4606609411
 31
0.0
 11
-2.9897531806
 21
14.5502409161
 31
0.0
 11
-3.028072804
 21
14.6396395365
 31
0.0
 11
-3.0854225512
 21
14.7152461724
 31
0.0
 11
-3.1530709201
 21
14.7655504799
 31
0.0
  0
SPLINE
  5
5B4
100
AcDbEntity
  8
ASSI
100
AcDbSpline
 62
253
  6
CONTINUOUS
 70
0
 71
3
 72
11
 73
7
 74
5
 42
0.0000001
 43
0.0000001
 44
0.0000000001
 12
0.3239338539
 22
-0.161966927
 32
0.0
 13
0.3246815763
 23
0.160462772
 33
0.0
 40
0.0
 40
0.0
 40
0.0
 40
0.0
 40
0.2351709482
 40
0.4995793653
 40
0.764214221
 40
1.0
 40
1.0
 40
1.0
 40
1.0
 10
-4.9300999669
 20
13.6584516615
 30
0.0
 10
-4.9047066898
 20
13.6457550229
 30
0.0
 10
-4.8463624255
 20
13.6276111181
 30
0.0
 10
-4.75402735
 20
13.6188546317
 30
0.0
 10
-4.6615930608
 20
13.6273575733
 30
0.0
 10
-4.6030964401
 20
13.6453273244
 30
0.0
 10
-4.5775780073
 20
13.6579389376
 30
0.0
 11
-4.9300999669
 21
13.6584516615
 31
0.0
 11
-4.8493300889
 21
13.6314250964
 31
0.0
 11
-4.7540504021
 21
13.6218405378
 31
0.0
 11
-4.6586608306
 21
13.6311478089
 31
0.0
 11
-4.5775780073
 21
13.6579389376
 31
0.0
  0
SPLINE
  5
5B5
100
AcDbEntity
  8
ASSI
100
AcDbSpline
 62
253
  6
CONTINUOUS
 70
0
 71
3
 72
11
 73
7
 74
5
 42
0.0000001
 43
0.0000001
 44
0.0000000001
 12
0.3239338537
 22
-0.1619669268
 32
0.0
 13
0.324681576
 23
0.1604627718
 33
0.0
 40
0.0
 40
0.0
 40
0.0
 40
0.0
 40
0.2351708329
 40
0.4995791214
 40
0.7642139051
 40
1.0
 40
1.0
 40
1.0
 40
1.0
 10
-4.9300999669
 20
13.3184777273
 30
0.0
 10
-4.9047067022
 20
13.305781095
 30
0.0
 10
-4.8463624686
 20
13.2876371946
 30
0.0
 10
-4.7540274324
 20
13.2788806995
 30
0.0
 10
-4.6615931293
 20
13.2873836262
 30
0.0
 10
-4.6030964743
 20
13.3053533734
 30
0.0
 10
-4.5775780073
 20
13.3179650035
 30
0.0
 11
-4.9300999669
 21
13.3184777273
 31
0.0
 11
-4.8493301302
 21
13.2914511706
 31
0.0
 11
-4.7540504911
 21
13.2818666038
 31
0.0
 11
-4.6586609437
 21
13.2911738527
 31
0.0
 11
-4.5775780073
 21
13.3179650035
 31
0.0
  0
SPLINE
  5
5B6
100
AcDbEntity
  8
ASSI
100
AcDbSpline
 62
253
  6
CONTINUOUS
 70
0
 71
3
 72
11
 73
7
 74
5
 42
0.0000001
 43
0.0000001
 44
0.0000000001
 12
0.0
 22
0.365918428
 32
0.0
 13
0.3263519549
 23
0.1655013517
 33
0.0
 40
0.0
 40
0.0
 40
0.0
 40
0.0
 40
0.2465994894
 40
0.5114083944
 40
0.7699753467
 40
1.0
 40
1.0
 40
1.0
 40
1.0
 10
-6.2550846468
 20
14.3209440014
 30
0.0
 10
-6.2550846468
 20
14.3510224339
 30
0.0
 10
-6.2447418848
 20
14.4135074432
 30
0.0
 10
-6.2072582613
 20
14.500477854
 30
0.0
 10
-6.1521189201
 20
14.5749768401
 30
0.0
 10
-6.1043593892
 20
14.6126310193
 30
0.0
 10
-6.0793363908
 20
14.6253208163
 30
0.0
 11
-6.2550846468
 21
14.3209440014
 31
0.0
 11
-6.2417262851
 21
14.4101850406
 31
0.0
 11
-6.2036710324
 21
14.4992979406
 31
0.0
 11
-6.1466690098
 21
14.5748138761
 31
0.0
 11
-6.0793363908
 21
14.6253208163
 31
0.0
  0
SPLINE
  5
5B7
100
AcDbEntity
  8
ASSI
100
AcDbSpline
 62
253
  6
CONTINUOUS
 70
0
 71
3
 72
11
 73
7
 74
5
 42
0.0000001
 43
0.0000001
 44
0.0000000001
 12
0.0
 22
0.3659184285
 32
0.0
 13
0.3263519554
 23
0.165501352
 33
0.0
 40
0.0
 40
0.0
 40
0.0
 40
0.0
 40
0.2465996066
 40
0.5114086341
 40
0.7699756527
 40
1.0
 40
1.0
 40
1.0
 40
1.0
 10
-4.9300999669
 20
13.6584516615
 30
0.0
 10
-4.9300999669
 20
13.6885301083
 30
0.0
 10
-4.9197571948
 20
13.751015147
 30
0.0
 10
-4.8822735425
 20
13.8379855865
 30
0.0
 10
-4.8271341921
 20
13.9124845508
 30
0.0
 10
-4.7793746761
 20
13.9501386963
 30
0.0
 10
-4.754351711
 20
13.9628284764
 30
0.0
 11
-4.9300999669
 21
13.6584516615
 31
0.0
 11
-4.9167415929
 21
13.7476927423
 31
0.0
 11
-4.8786863081
 21
13.8368056776
 31
0.0
 11
-4.8216842513
 21
13.9123216178
 31
0.0
 11
-4.754351711
 21
13.9628284764
 31
0.0
  0
SPLINE
  5
5B8
100
AcDbEntity
  8
ASSI
100
AcDbSpline
 62
253
  6
CONTINUOUS
 70
0
 71
3
 72
11
 73
7
 74
5
 42
0.0000001
 43
0.0000001
 44
0.0000000001
 12
0.0
 22
-0.1574304972
 32
0.0
 13
0.1408119364
 23
-0.0704014205
 33
0.0
 40
0.0
 40
0.0
 40
0.0
 40
0.0
 40
0.289749639
 40
0.5495875602
 40
0.7828489991
 40
1.0
 40
1.0
 40
1.0
 40
1.0
 10
-18.2944181314
 20
20.0006368095
 30
0.0
 10
-18.2944181314
 20
19.9854316663
 30
0.0
 10
-18.2919642699
 20
19.9564814428
 30
0.0
 10
-18.2795908965
 20
19.9168867541
 30
0.0
 10
-18.2589240699
 20
19.8851881144
 30
0.0
 10
-18.2396373505
 20
19.8705142048
 30
0.0
 10
-18.2294448661
 20
19.8654182918
 30
0.0
 11
-18.2944181314
 21
20.0006368095
 31
0.0
 11
-18.2900983213
 21
19.9552263848
 31
0.0
 11
-18.2773508321
 21
19.916356909
 31
0.0
 11
-18.2567976166
 21
19.8859249403
 31
0.0
 11
-18.2294448661
 21
19.8654182918
 31
0.0
  0
SPLINE
  5
5B9
100
AcDbEntity
  8
CURVE
100
AcDbSpline
 62
253
  6
CONTINUOUS
 70
0
 71
3
 72
19
 73
15
 74
13
 42
0.0000001
 43
0.0000001
 44
0.0000000001
 12
0.0746516902
 22
-2.9842886244
 32
0.0
 13
0.083822362
 23
-2.9986522299
 33
0.0
 40
0.0
 40
0.0
 40
0.0
 40
0.0
 40
0.125
 40
0.25
 40
0.375
 40
0.4375
 40
0.46875
 40
0.5
 40
0.53125
 40
0.5625
 40
0.625
 40
0.75
 40
0.875
 40
1.0
 40
1.0
 40
1.0
 40
1.0
 10
-13.6514149289
 20
-20.1176602939
 30
0.0
 10
-13.6483044418
 20
-20.2420056533
 30
0.0
 10
-13.6420826051
 20
-20.4906977229
 30
0.0
 10
-13.6327550253
 20
-20.8637277216
 30
0.0
 10
-13.6249669474
 20
-21.1746096959
 30
0.0
 10
-13.6195447276
 20
-21.3921809758
 30
0.0
 10
-13.6164003853
 20
-21.516579361
 30
0.0
 10
-13.6141715116
 20
-21.6096755032
 30
0.0
 10
-13.6114480711
 20
-21.7035462627
 30
0.0
 10
-13.607989328
 20
-21.8284370797
 30
0.0
 10
-13.6018561482
 20
-22.0471219038
 30
0.0
 10
-13.5931365122
 20
-22.3594629351
 30
0.0
 10
-13.5826548355
 20
-22.7343005433
 30
0.0
 10
-13.5756705012
 20
-22.9841868781
 30
0.0
 10
-13.5721779028
 20
-23.109130721
 30
0.0
 11
-13.6514149289
 21
-20.1176602939
 31
0.0
 11
-13.6420834676
 21
-20.4906963719
 31
0.0
 11
-13.6327520063
 21
-20.86373245
 31
0.0
 11
-13.6234205451
 21
-21.236768528
 31
0.0
 11
-13.6187548144
 21
-21.4232865671
 31
0.0
 11
-13.6164219491
 21
-21.5165455866
 31
0.0
 11
-13.6140890838
 21
-21.6098046061
 31
0.0
 11
-13.611469635
 21
-21.7035124883
 31
0.0
 11
-13.6088501862
 21
-21.7972203704
 31
0.0
 11
-13.6036112885
 21
-21.9846361348
 31
0.0
 11
-13.5931334933
 21
-22.3594676635
 31
0.0
 11
-13.5826556981
 21
-22.7342991923
 31
0.0
 11
-13.5721779028
 21
-23.109130721
 31
0.0
  0
SPLINE
  5
5BA
100
AcDbEntity
  8
CURVE
100
AcDbSpline
 62
253
  6
CONTINUOUS
 70
0
 71
3
 72
23
 73
19
 74
17
 42
0.0000001
 43
0.0000001
 44
0.0000000001
 12
-0.0833181256
 22
2.9796155771
 32
0.0
 13
-0.0751559263
 23
3.0033252773
 33
0.0
 40
0.0
 40
0.0
 40
0.0
 40
0.0
 40
0.125
 40
0.25
 40
0.3125
 40
0.375
 40
0.4375
 40
0.46875
 40
0.484375
 40
0.5
 40
0.515625
 40
0.53125
 40
0.5625
 40
0.625
 40
0.6875
 40
0.75
 40
0.875
 40
1.0
 40
1.0
 40
1.0
 40
1.0
 10
-11.0973041694
 20
-24.3465675616
 30
0.0
 10
-11.100775758
 20
-24.2224169125
 30
0.0
 10
-11.1077188615
 20
-23.9741154006
 30
0.0
 10
-11.116398109
 20
-23.6637395798
 30
0.0
 10
-11.1233407341
 20
-23.4154366781
 30
0.0
 10
-11.1285498006
 20
-23.2292155955
 30
0.0
 10
-11.132884019
 20
-23.0740119835
 30
0.0
 10
-11.135931062
 20
-22.9654074796
 30
0.0
 10
-11.1376517903
 20
-22.9032883911
 30
0.0
 10
-11.1389999139
 20
-22.8568663267
 30
0.0
 10
-11.1401279473
 20
-22.8098049402
 30
0.0
 10
-11.1417087618
 20
-22.7472794276
 30
0.0
 10
-11.1444394186
 20
-22.6377558795
 30
0.0
 10
-11.1483590571
 20
-22.4813479887
 30
0.0
 10
-11.1530546188
 20
-22.2936352679
 30
0.0
 10
-11.1593181647
 20
-22.0433597651
 30
0.0
 10
-11.167146631
 20
-21.7305125802
 30
0.0
 10
-11.1734096984
 20
-21.4802356876
 30
0.0
 10
-11.1765411954
 20
-21.3550971344
 30
0.0
 11
-11.0973041694
 21
-24.3465675616
 31
0.0
 11
-11.1077189351
 21
-23.9741156144
 31
0.0
 11
-11.1181337008
 21
-23.6016636673
 31
0.0
 11
-11.1233410837
 21
-23.4154376937
 31
0.0
 11
-11.1285484665
 21
-23.2292117202
 31
0.0
 11
-11.1337558494
 21
-23.0429857466
 31
0.0
 11
-11.1363595408
 21
-22.9498727598
 31
0.0
 11
-11.1376613865
 21
-22.9033162664
 31
0.0
 11
-11.1389632322
 21
-22.856759773
 31
0.0
 11
-11.1401375436
 21
-22.8098328156
 31
0.0
 11
-11.1413118549
 21
-22.7629058581
 31
0.0
 11
-11.1436604776
 21
-22.6690519432
 31
0.0
 11
-11.148357723
 21
-22.4813441134
 31
0.0
 11
-11.1530549684
 21
-22.2936362835
 31
0.0
 11
-11.1577522138
 21
-22.1059284537
 31
0.0
 11
-11.1671467046
 21
-21.730512794
 31
0.0
 11
-11.1765411954
 21
-21.3550971344
 31
0.0
  0
SPLINE
  5
5BB
100
AcDbEntity
  8
CURVE
100
AcDbSpline
 62
253
  6
CONTINUOUS
 70
0
 71
3
 72
28
 73
24
 74
22
 42
0.0000001
 43
0.0000001
 44
0.0000000001
 12
-0.4316097527
 22
1.9446013585
 32
0.0
 13
-0.4289348097
 23
-1.4795257701
 33
0.0
 40
0.0
 40
0.0
 40
0.0
 40
0.0
 40
0.0526315789
 40
0.1052631579
 40
0.1578947368
 40
0.2105263158
 40
0.2631578947
 40
0.3157894737
 40
0.3684210526
 40
0.4210526316
 40
0.4736842105
 40
0.5263157895
 40
0.5526315789
 40
0.5789473684
 40
0.6052631579
 40
0.6315789474
 40
0.6842105263
 40
0.7368421053
 40
0.7894736842
 40
0.8421052632
 40
0.8947368421
 40
0.9473684211
 40
1.0
 40
1.0
 40
1.0
 40
1.0
 10
-12.8907701012
 20
-21.2375722286
 30
0.0
 10
-12.8983422021
 20
-21.2034564153
 30
0.0
 10
-12.9135669254
 20
-21.1378334192
 30
0.0
 10
-12.9365711773
 20
-21.047428224
 30
0.0
 10
-12.9598755553
 20
-20.9644697155
 30
0.0
 10
-12.983816173
 20
-20.8880699274
 30
0.0
 10
-13.0086440302
 20
-20.8180138551
 30
0.0
 10
-13.0351276299
 20
-20.753594015
 30
0.0
 10
-13.0627912368
 20
-20.6974332303
 30
0.0
 10
-13.0940621612
 20
-20.6475566043
 30
0.0
 10
-13.1291257951
 20
-20.6099279631
 30
0.0
 10
-13.1590167768
 20
-20.5956256254
 30
0.0
 10
-13.1818184264
 20
-20.5951889203
 30
0.0
 10
-13.1981455962
 20
-20.599884127
 30
0.0
 10
-13.2130321617
 20
-20.608474866
 30
0.0
 10
-13.2317833291
 20
-20.62439698
 30
0.0
 10
-13.2523730623
 20
-20.6498075816
 30
0.0
 10
-13.2760635754
 20
-20.6893340996
 30
0.0
 10
-13.2983359576
 20
-20.7355955469
 30
0.0
 10
-13.3200554095
 20
-20.7884994226
 30
0.0
 10
-13.3415836026
 20
-20.8480142596
 30
0.0
 10
-13.3633556943
 20
-20.9146502878
 30
0.0
 10
-13.3782196759
 20
-20.9641282627
 30
0.0
 10
-13.385744848
 20
-20.9900848552
 30
0.0
 11
-12.8907701012
 21
-21.2375722286
 31
0.0
 11
-12.9135947865
 21
-21.1391716357
 31
0.0
 11
-12.9366211983
 21
-21.0486693384
 31
0.0
 11
-12.9599815952
 21
-20.9655628356
 31
0.0
 11
-12.9839640463
 21
-20.8891272133
 31
0.0
 11
-13.0089199873
 21
-20.8189532271
 31
0.0
 11
-13.0353242978
 21
-20.7549705242
 31
0.0
 11
-13.0633924564
 21
-20.6984805901
 31
0.0
 11
-13.0946942795
 21
-20.6495979351
 31
0.0
 11
-13.1292600525
 21
-20.6133389358
 31
0.0
 11
-13.1646245946
 21
-20.5964335462
 31
0.0
 11
-13.1816894152
 21
-20.5960260429
 31
0.0
 11
-13.1979054955
 21
-20.6005333824
 31
0.0
 11
-13.2128949634
 21
-20.6090333404
 31
0.0
 11
-13.2269055888
 21
-20.6207836488
 31
0.0
 11
-13.2522035345
 21
-20.6513132143
 31
0.0
 11
-13.2758272203
 21
-20.6904565878
 31
0.0
 11
-13.2982438026
 21
-20.7367026183
 31
0.0
 11
-13.320023533
 21
-20.7896012495
 31
0.0
 11
-13.3416242524
 21
-20.8492011248
 31
0.0
 11
-13.3634430078
 21
-20.9159137768
 31
0.0
 11
-13.385744848
 21
-20.9900848552
 31
0.0
  0
SPLINE
  5
5BC
100
AcDbEntity
  8
CURVE
100
AcDbSpline
 62
253
  6
CONTINUOUS
 70
0
 71
3
 72
32
 73
28
 74
26
 42
0.0000001
 43
0.0000001
 44
0.0000000001
 12
-0.3251344195
 22
-1.5409081896
 32
0.0
 13
-0.4276871724
 23
1.9269283215
 33
0.0
 40
0.0
 40
0.0
 40
0.0
 40
0.0
 40
0.0555555556
 40
0.1111111111
 40
0.1666666667
 40
0.2222222222
 40
0.2777777778
 40
0.3055555556
 40
0.3333333333
 40
0.3611111111
 40
0.3888888889
 40
0.4166666667
 40
0.4444444444
 40
0.5
 40
0.5277777778
 40
0.5555555556
 40
0.5833333333
 40
0.6111111111
 40
0.6388888889
 40
0.6666666667
 40
0.6944444444
 40
0.7222222222
 40
0.7777777778
 40
0.8333333333
 40
0.8888888889
 40
0.9444444444
 40
1.0
 40
1.0
 40
1.0
 40
1.0
 10
-12.3957953543
 20
-21.485059602
 30
0.0
 10
-12.4018163621
 20
-21.5135949389
 30
0.0
 10
-12.4142337187
 20
-21.5676746403
 30
0.0
 10
-12.4338954689
 20
-21.6396987584
 30
0.0
 10
-12.4547109987
 20
-21.7031419955
 30
0.0
 10
-12.4769845602
 20
-21.7584836377
 30
0.0
 10
-12.4970796318
 20
-21.7977719574
 30
0.0
 10
-12.5143543161
 20
-21.8247357916
 30
0.0
 10
-12.5279575807
 20
-21.8424736304
 30
0.0
 10
-12.542094122
 20
-21.8572979695
 30
0.0
 10
-12.5569928785
 20
-21.8692030861
 30
0.0
 10
-12.5735223535
 20
-21.8780392212
 30
0.0
 10
-12.5967818533
 20
-21.8840224965
 30
0.0
 10
-12.6218161317
 20
-21.8801025729
 30
0.0
 10
-12.647724891
 20
-21.8645354476
 30
0.0
 10
-12.6670178659
 20
-21.8473399604
 30
0.0
 10
-12.6858633318
 20
-21.8252155292
 30
0.0
 10
-12.7039636752
 20
-21.7989299499
 30
0.0
 10
-12.7200760681
 20
-21.7714565981
 30
0.0
 10
-12.7354886959
 20
-21.7416695221
 30
0.0
 10
-12.7503874583
 20
-21.709499868
 30
0.0
 10
-12.7694811295
 20
-21.6640993458
 30
0.0
 10
-12.7921316543
 20
-21.6029353511
 30
0.0
 10
-12.8178519441
 20
-21.5230927765
 30
0.0
 10
-12.8426404869
 20
-21.4363399241
 30
0.0
 10
-12.8668883756
 20
-21.3418809122
 30
0.0
 10
-12.8828499683
 20
-21.2732560864
 30
0.0
 10
-12.8907701012
 20
-21.2375722286
 30
0.0
 11
-12.3957953543
 21
-21.485059602
 31
0.0
 11
-12.4144063379
 21
-21.5661587346
 31
0.0
 11
-12.4340877655
 21
-21.6382686116
 31
0.0
 11
-12.454954004
 21
-21.7017917297
 31
0.0
 11
-12.4772913143
 21
-21.7571176946
 31
0.0
 11
-12.5014981885
 21
-21.8041406808
 31
0.0
 11
-12.5144621914
 21
-21.8243216188
 31
0.0
 11
-12.5280464602
 21
-21.8419880471
 31
0.0
 11
-12.5422211579
 21
-21.8568114324
 31
0.0
 11
-12.5572646649
 21
-21.8686915892
 31
0.0
 11
-12.5736748785
 21
-21.8773144414
 31
0.0
 11
-12.5911148765
 21
-21.8817014111
 31
0.0
 11
-12.6283661949
 21
-21.8752401914
 31
0.0
 11
-12.6477017919
 21
-21.8636154237
 31
0.0
 11
-12.666943281
 21
-21.8465184697
 31
0.0
 11
-12.6857391447
 21
-21.8245220045
 31
0.0
 11
-12.7036323501
 21
-21.7987319878
 31
0.0
 11
-12.7199594406
 21
-21.7710709774
 31
0.0
 11
-12.7354030517
 21
-21.7412724257
 31
0.0
 11
-12.7502910402
 21
-21.7091864118
 31
0.0
 11
-12.7646266075
 21
-21.6751552536
 31
0.0
 11
-12.7918882643
 21
-21.6018610543
 31
0.0
 11
-12.8176966529
 21
-21.5219410635
 31
0.0
 11
-12.8425503779
 21
-21.4350555641
 31
0.0
 11
-12.866837459
 21
-21.3404678744
 31
0.0
 11
-12.8907701012
 21
-21.2375722286
 31
0.0
  0
SPLINE
  5
5BD
100
AcDbEntity
  8
0
100
AcDbSpline
 62
7
  6
CONTINUOUS
 70
0
 71
3
 72
9
 73
5
 74
3
 42
0.0000001
 43
0.0000001
 44
0.0000000001
 12
-0.0
 22
-0.0849186629
 32
0.0
 13
0.0072402046
 23
-0.0846094483
 33
0.0
 40
0.0
 40
0.0
 40
0.0
 40
0.0
 40
0.2540621404
 40
1.0
 40
1.0
 40
1.0
 40
1.0
 10
11.4840364588
 20
27.8306125803
 30
0.0
 10
11.4840364588
 20
27.8234210413
 30
0.0
 10
11.4843252699
 20
27.7951158859
 30
0.0
 10
11.4857806284
 20
27.7668200455
 30
0.0
 10
11.487580876
 20
27.7457822486
 30
0.0
 11
11.4840364588
 21
27.8306125803
 31
0.0
 11
11.4842585086
 21
27.8090391058
 31
0.0
 11
11.487580876
 21
27.7457822486
 31
0.0
  0
SPLINE
  5
5BE
100
AcDbEntity
  8
0
100
AcDbSpline
 62
7
  6
CONTINUOUS
 70
0
 71
3
 72
9
 73
5
 74
3
 42
0.0000001
 43
0.0000001
 44
0.0000000001
 12
-0.0000027196
 22
0.3704548313
 32
0.0
 13
-0.0746970373
 23
0.3628458828
 33
0.0
 40
0.0
 40
0.0
 40
0.0
 40
0.0
 40
0.2594003633
 40
1.0
 40
1.0
 40
1.0
 40
1.0
 10
20.535003258
 20
-5.3571008763
 30
0.0
 10
20.5350030228
 20
-5.325068837
 30
0.0
 10
20.5321798489
 20
-5.2016196321
 30
0.0
 10
20.5178395578
 20
-5.0782828737
 30
0.0
 10
20.4993993583
 20
-4.9887083641
 30
0.0
 11
20.535003258
 21
-5.3571008763
 31
0.0
 11
20.5327633881
 21
-5.2610308662
 31
0.0
 11
20.4993993583
 21
-4.9887083641
 31
0.0
  0
SPLINE
  5
5BF
100
AcDbEntity
  8
0
100
AcDbSpline
 62
7
  6
CONTINUOUS
 70
0
 71
3
 72
15
 73
11
 74
9
 42
0.0000001
 43
0.0000001
 44
0.0000000001
 12
2.7443384633
 22
1.2320350505
 32
0.0
 13
0.0000220837
 23
3.0082061044
 33
0.0
 40
0.0
 40
0.0
 40
0.0
 40
0.0
 40
0.1088076605
 40
0.227390818
 40
0.3538940278
 40
0.4856140296
 40
0.6193665741
 40
0.7517732349
 40
0.8796091962
 40
1.0
 40
1.0
 40
1.0
 40
1.0
 10
19.0620033667
 20
-3.4940193698
 30
0.0
 10
19.1615383827
 20
-3.4493344193
 30
0.0
 10
19.3597853779
 20
-3.3335045895
 30
0.0
 10
19.6328949232
 20
-3.1049225083
 30
0.0
 10
19.8855573774
 20
-2.8223691287
 30
0.0
 10
20.1078767843
 20
-2.4969869262
 30
0.0
 10
20.2912010212
 20
-2.1415166725
 30
0.0
 10
20.4283693074
 20
-1.7699016213
 30
0.0
 10
20.5138934955
 20
-1.3968592925
 30
0.0
 10
20.5350023718
 20
-1.1476939744
 30
0.0
 10
20.535003258
 20
-1.0269738574
 30
0.0
 11
19.0620033667
 21
-3.4940193698
 31
0.0
 11
19.3460507039
 21
-3.3313762387
 31
0.0
 11
19.6209769547
 21
-3.1040734573
 31
0.0
 11
19.8756537103
 21
-2.8213079656
 31
0.0
 11
20.0997686235
 21
-2.4945368418
 31
0.0
 11
20.2842523672
 21
-2.1369680065
 31
0.0
 11
20.4216437017
 21
-1.7631074585
 31
0.0
 11
20.5063724414
 21
-1.3880007208
 31
0.0
 11
20.535003258
 21
-1.0269738574
 31
0.0
  0
SPLINE
  5
5C0
100
AcDbEntity
  8
ASSI
100
AcDbSpline
 62
7
  6
CONTINUOUS
 70
0
 71
3
 72
9
 73
5
 74
3
 42
0.0000001
 43
0.0000001
 44
0.0000000001
 12
0.0744085562
 22
-0.3622430267
 32
0.0
 13
0.0000027148
 23
-0.3698062244
 33
0.0
 40
0.0
 40
0.0
 40
0.0
 40
0.0
 40
0.2406356098
 40
1.0
 40
1.0
 40
1.0
 40
1.0
 10
20.4995359205
 20
-0.659236034
 30
0.0
 10
20.5055043699
 20
-0.6882922246
 30
0.0
 10
20.5268421646
 20
-0.8097426773
 30
0.0
 10
20.5350025708
 20
-0.9333679647
 30
0.0
 10
20.535003258
 20
-1.0269738574
 30
0.0
 11
20.4995359205
 21
-0.659236034
 31
0.0
 11
20.5150105931
 21
-0.746868767
 31
0.0
 11
20.535003258
 21
-1.0269738574
 31
0.0
  0
SPLINE
  5
5C1
100
AcDbEntity
  8
0
100
AcDbSpline
 62
7
  6
CONTINUOUS
 70
0
 71
3
 72
15
 73
11
 74
9
 42
0.0000001
 43
0.0000001
 44
0.0000000001
 12
2.7443384633
 22
1.2320350505
 32
0.0
 13
0.0000220837
 23
3.0082061044
 33
0.0
 40
0.0
 40
0.0
 40
0.0
 40
0.0
 40
0.1088076605
 40
0.227390818
 40
0.3538940278
 40
0.4856140296
 40
0.6193665741
 40
0.7517732349
 40
0.8796091962
 40
1.0
 40
1.0
 40
1.0
 40
1.0
 10
19.0620033667
 20
-7.8241463888
 30
0.0
 10
19.1615383827
 20
-7.7794614382
 30
0.0
 10
19.3597853779
 20
-7.6636316084
 30
0.0
 10
19.6328949232
 20
-7.4350495273
 30
0.0
 10
19.8855573774
 20
-7.1524961476
 30
0.0
 10
20.1078767843
 20
-6.8271139452
 30
0.0
 10
20.2912010212
 20
-6.4716436915
 30
0.0
 10
20.4283693074
 20
-6.1000286402
 30
0.0
 10
20.5138934955
 20
-5.7269863114
 30
0.0
 10
20.5350023718
 20
-5.4778209933
 30
0.0
 10
20.535003258
 20
-5.3571008763
 30
0.0
 11
19.0620033667
 21
-7.8241463888
 31
0.0
 11
19.3460507039
 21
-7.6615032576
 31
0.0
 11
19.6209769547
 21
-7.4342004762
 31
0.0
 11
19.8756537103
 21
-7.1514349845
 31
0.0
 11
20.0997686235
 21
-6.8246638607
 31
0.0
 11
20.2842523672
 21
-6.4670950254
 31
0.0
 11
20.4216437017
 21
-6.0932344774
 31
0.0
 11
20.5063724414
 21
-5.7181277398
 31
0.0
 11
20.535003258
 21
-5.3571008763
 31
0.0
  0
SPLINE
  5
5C2
100
AcDbEntity
  8
RACCORDO
100
AcDbSpline
 62
7
  6
CONTINUOUS
 70
0
 71
3
 72
15
 73
11
 74
9
 42
0.0000001
 43
0.0000001
 44
0.0000000001
 12
-0.0000021724
 22
-0.4687398473
 32
0.0
 13
-0.4162539982
 23
-0.2155218167
 33
0.0
 40
0.0
 40
0.0
 40
0.0
 40
0.0
 40
0.1027077972
 40
0.2081767552
 40
0.3188663381
 40
0.4367343548
 40
0.5631677775
 40
0.6990102561
 40
0.844627764
 40
1.0
 40
1.0
 40
1.0
 40
1.0
 10
24.7781874394
 20
1.8570907943
 30
0.0
 10
24.778187365
 20
1.8410430486
 30
0.0
 10
24.7750133067
 20
1.8084343223
 30
0.0
 10
24.7608881133
 20
1.7603837663
 30
0.0
 10
24.7376186909
 20
1.7134008269
 30
0.0
 10
24.705522792
 20
1.6679293827
 30
0.0
 10
24.6649575417
 20
1.6243312356
 30
0.0
 10
24.6163177145
 20
1.5829562638
 30
0.0
 10
24.5600551348
 20
1.5441442869
 30
0.0
 10
24.5190854507
 20
1.5209259656
 30
0.0
 10
24.4975273458
 20
1.5097639301
 30
0.0
 11
24.7781874394
 21
1.8570907943
 31
0.0
 11
24.7735833001
 21
1.8091682194
 31
0.0
 11
24.7598140614
 21
1.7616869094
 31
0.0
 11
24.7370064356
 21
1.7150840575
 31
0.0
 11
24.7053704463
 21
1.6697887555
 31
0.0
 11
24.6651975193
 21
1.6262180882
 31
0.0
 11
24.6168572079
 21
1.5847730372
 31
0.0
 11
24.5607958407
 21
1.545835856
 31
0.0
 11
24.4975273458
 21
1.5097639301
 31
0.0
  0
SPLINE
  5
5C3
100
AcDbEntity
  8
RACCORDO
100
AcDbSpline
 62
7
  6
CONTINUOUS
 70
0
 71
3
 72
15
 73
11
 74
9
 42
0.0000001
 43
0.0000001
 44
0.0000000001
 12
-0.0000021724
 22
-0.4687398473
 32
0.0
 13
-0.4162539982
 23
-0.2155218167
 33
0.0
 40
0.0
 40
0.0
 40
0.0
 40
0.0
 40
0.1027077972
 40
0.2081767552
 40
0.3188663381
 40
0.4367343548
 40
0.5631677775
 40
0.6990102561
 40
0.844627764
 40
1.0
 40
1.0
 40
1.0
 40
1.0
 10
24.7781874394
 20
-2.4730362246
 30
0.0
 10
24.778187365
 20
-2.4890839703
 30
0.0
 10
24.7750133067
 20
-2.5216926967
 30
0.0
 10
24.7608881133
 20
-2.5697432526
 30
0.0
 10
24.7376186909
 20
-2.616726192
 30
0.0
 10
24.705522792
 20
-2.6621976362
 30
0.0
 10
24.6649575417
 20
-2.7057957833
 30
0.0
 10
24.6163177145
 20
-2.7471707551
 30
0.0
 10
24.5600551348
 20
-2.7859827321
 30
0.0
 10
24.5190854507
 20
-2.8092010533
 30
0.0
 10
24.4975273458
 20
-2.8203630889
 30
0.0
 11
24.7781874394
 21
-2.4730362246
 31
0.0
 11
24.7735833001
 21
-2.5209587995
 31
0.0
 11
24.7598140614
 21
-2.5684401095
 31
0.0
 11
24.7370064356
 21
-2.6150429614
 31
0.0
 11
24.7053704463
 21
-2.6603382634
 31
0.0
 11
24.6651975193
 21
-2.7039089308
 31
0.0
 11
24.6168572079
 21
-2.7453539817
 31
0.0
 11
24.5607958407
 21
-2.7842911629
 31
0.0
 11
24.4975273458
 21
-2.8203630889
 31
0.0
  0
SPLINE
  5
5C4
100
AcDbEntity
  8
RACCORDO
100
AcDbSpline
 62
7
  6
CONTINUOUS
 70
0
 71
3
 72
15
 73
11
 74
9
 42
0.0000001
 43
0.0000001
 44
0.0000000001
 12
0.0000022359
 22
0.4824496696
 32
0.0
 13
-0.4315161028
 23
0.2157580514
 33
0.0
 40
0.0
 40
0.0
 40
0.0
 40
0.0
 40
0.1020724447
 40
0.2070112963
 40
0.3173569062
 40
0.4351110643
 40
0.5616686495
 40
0.6978525799
 40
0.8439879364
 40
1.0
 40
1.0
 40
1.0
 40
1.0
 10
24.7781874394
 20
-1.7802159016
 30
0.0
 10
24.7781875155
 20
-1.7638009625
 30
0.0
 10
24.7748633019
 20
-1.7304227371
 30
0.0
 10
24.7600769264
 20
-1.6812837019
 30
0.0
 10
24.7357352669
 20
-1.6332926214
 30
0.0
 10
24.7021860845
 20
-1.5869195979
 30
0.0
 10
24.6598175183
 20
-1.5425465345
 30
0.0
 10
24.6090580697
 20
-1.5005438949
 30
0.0
 10
24.5503985679
 20
-1.4612719178
 30
0.0
 10
24.5077348992
 20
-1.4378804763
 30
0.0
 10
24.4852943267
 20
-1.42666019
 30
0.0
 11
24.7781874394
 21
-1.7802159016
 31
0.0
 11
24.773372562
 21
-1.7312070352
 31
0.0
 11
24.7589734559
 21
-1.6826701298
 31
0.0
 11
24.735128723
 21
-1.6350726296
 31
0.0
 11
24.7020679186
 21
-1.5888729437
 31
0.0
 11
24.660109578
 21
-1.5445160262
 31
0.0
 11
24.6096575159
 21
-1.5024288776
 31
0.0
 11
24.5511989179
 21
-1.4630174718
 31
0.0
 11
24.4852943267
 21
-1.42666019
 31
0.0
  0
SPLINE
  5
5C5
100
AcDbEntity
  8
RACCORDO
100
AcDbSpline
 62
7
  6
CONTINUOUS
 70
0
 71
3
 72
15
 73
11
 74
9
 42
0.0000001
 43
0.0000001
 44
0.0000000001
 12
0.0000022359
 22
0.4824496696
 32
0.0
 13
-0.4315161028
 23
0.2157580514
 33
0.0
 40
0.0
 40
0.0
 40
0.0
 40
0.0
 40
0.1020724447
 40
0.2070112963
 40
0.3173569062
 40
0.4351110643
 40
0.5616686495
 40
0.6978525799
 40
0.8439879364
 40
1.0
 40
1.0
 40
1.0
 40
1.0
 10
24.7781874394
 20
-6.1103429205
 30
0.0
 10
24.7781875155
 20
-6.0939279814
 30
0.0
 10
24.7748633019
 20
-6.060549756
 30
0.0
 10
24.7600769264
 20
-6.0114107208
 30
0.0
 10
24.7357352669
 20
-5.9634196404
 30
0.0
 10
24.7021860845
 20
-5.9170466168
 30
0.0
 10
24.6598175183
 20
-5.8726735535
 30
0.0
 10
24.6090580697
 20
-5.8306709138
 30
0.0
 10
24.5503985679
 20
-5.7913989367
 30
0.0
 10
24.5077348992
 20
-5.7680074952
 30
0.0
 10
24.4852943267
 20
-5.7567872089
 30
0.0
 11
24.7781874394
 21
-6.1103429205
 31
0.0
 11
24.773372562
 21
-6.0613340542
 31
0.0
 11
24.7589734559
 21
-6.0127971487
 31
0.0
 11
24.735128723
 21
-5.9651996485
 31
0.0
 11
24.7020679186
 21
-5.9189999626
 31
0.0
 11
24.660109578
 21
-5.8746430451
 31
0.0
 11
24.6096575159
 21
-5.8325558966
 31
0.0
 11
24.5511989179
 21
-5.7931444908
 31
0.0
 11
24.4852943267
 21
-5.7567872089
 31
0.0
  0
SPLINE
  5
5C6
100
AcDbEntity
  8
RACCORDO
100
AcDbSpline
 62
253
  6
CONTINUOUS
 70
0
 71
3
 72
14
 73
10
 74
8
 42
0.0000001
 43
0.0000001
 44
0.0000000001
 12
-0.0206753333
 22
-0.4568727962
 32
0.0
 13
-0.4061309529
 23
-0.2102804565
 33
0.0
 40
0.0
 40
0.0
 40
0.0
 40
0.0
 40
0.1025467163
 40
0.2082816728
 40
0.319430853
 40
0.4377438916
 40
0.5644498448
 40
0.7002898752
 40
1.0
 40
1.0
 40
1.0
 40
1.0
 10
24.7779316059
 20
-7.4179406971
 30
0.0
 10
24.7772248767
 20
-7.4335576321
 30
0.0
 10
24.7727819975
 20
-7.4652130353
 30
0.0
 10
24.7573748385
 20
-7.5116527754
 30
0.0
 10
24.7334070411
 20
-7.5570232068
 30
0.0
 10
24.7011720182
 20
-7.6009259361
 30
0.0
 10
24.6609938044
 20
-7.6430373164
 30
0.0
 10
24.5951727537
 20
-7.6981470058
 30
0.0
 10
24.5381011987
 20
-7.732953243
 30
0.0
 10
24.4975273458
 20
-7.7539609703
 30
0.0
 11
24.7779316059
 21
-7.4179406971
 31
0.0
 11
24.7714917621
 21
-7.4643952075
 31
0.0
 11
24.7564364467
 21
-7.5103487044
 31
0.0
 11
24.7328962514
 21
-7.5554026045
 31
0.0
 11
24.7010753182
 21
-7.5991661485
 31
0.0
 11
24.6612497585
 21
-7.6412596914
 31
0.0
 11
24.6137646251
 21
-7.6813183232
 31
0.0
 11
24.4975273458
 21
-7.7539609703
 31
0.0
  0
SPLINE
  5
5C7
100
AcDbEntity
  8
RACCORDO
100
AcDbSpline
 62
253
  6
CONTINUOUS
 70
0
 71
3
 72
13
 73
9
 74
7
 42
0.0000001
 43
0.0000001
 44
0.0000000001
 12
0.002874063
 22
-0.9898003028
 32
0.0
 13
-0.6808437151
 23
-0.7184460558
 33
0.0
 40
0.0
 40
0.0
 40
0.0
 40
0.0
 40
0.2805520381
 40
0.5397806191
 40
0.6616202624
 40
0.7785670995
 40
0.8911283829
 40
1.0
 40
1.0
 40
1.0
 40
1.0
 10
24.4975273372
 20
-7.7539582255
 30
0.0
 10
24.4977961119
 20
-7.8465217229
 30
0.0
 10
24.4866144614
 20
-8.0249590465
 30
0.0
 10
24.438616224
 20
-8.2391228332
 30
0.0
 10
24.3801363387
 20
-8.3929353866
 30
0.0
 10
24.3280272464
 20
-8.4967364964
 30
0.0
 10
24.2671254397
 20
-8.5905794545
 30
0.0
 10
24.2202245498
 20
-8.6468803804
 30
0.0
 10
24.1955163644
 20
-8.672953175
 30
0.0
 11
24.4975273372
 21
-7.7539582255
 31
0.0
 11
24.4786148289
 21
-8.0310051108
 31
0.0
 11
24.4207348755
 21
-8.2809772814
 31
0.0
 11
24.3776416684
 21
-8.3936125966
 31
0.0
 11
24.3254896574
 21
-8.496953163
 31
0.0
 11
24.2646403561
 21
-8.5902825079
 31
0.0
 11
24.1955163644
 21
-8.672953175
 31
0.0
  0
SPLINE
  5
5C8
100
AcDbEntity
  8
RACCORDO
100
AcDbSpline
 62
7
  6
CONTINUOUS
 70
0
 71
3
 72
11
 73
7
 74
5
 42
0.0000001
 43
0.0000001
 44
0.0000000001
 12
-0.1964593335
 22
0.0943611963
 32
0.0
 13
-0.1978679135
 23
-0.0913706402
 33
0.0
 40
0.0
 40
0.0
 40
0.0
 40
0.0
 40
0.287556388
 40
0.5471310109
 40
0.7820363214
 40
1.0
 40
1.0
 40
1.0
 40
1.0
 10
-7.7509210649
 20
18.4651084064
 30
0.0
 10
-7.7697521103
 20
18.474153128
 30
0.0
 10
-7.8068453203
 20
18.4889581852
 30
0.0
 10
-7.8628321764
 20
18.5005348765
 30
0.0
 10
-7.9150649758
 20
18.4998000771
 30
0.0
 10
-7.9471720366
 20
18.490514867
 30
0.0
 10
-7.9615480427
 20
18.4838763733
 30
0.0
 11
-7.7509210649
 21
18.4651084064
 31
0.0
 11
-7.8093159527
 21
18.4878630636
 31
0.0
 11
-7.8648331792
 21
18.4987423974
 31
0.0
 11
-7.9160124294
 21
18.4974100448
 31
0.0
 11
-7.9615480427
 21
18.4838763733
 31
0.0
  0
SPLINE
  5
5C9
100
AcDbEntity
  8
RACCORDO
100
AcDbSpline
 62
253
  6
CONTINUOUS
 70
0
 71
3
 72
19
 73
15
 74
13
 42
0.0000001
 43
0.0000001
 44
0.0000000001
 12
0.7274477498
 22
0.3359668568
 32
0.0
 13
0.7166890256
 23
-0.3583445244
 33
0.0
 40
0.0
 40
0.0
 40
0.0
 40
0.0
 40
0.0538896952
 40
0.1068604158
 40
0.1609218498
 40
0.2171124715
 40
0.3371375263
 40
0.4667878223
 40
0.6033289085
 40
0.7425588505
 40
0.8113909298
 40
0.878274388
 40
0.9417290888
 40
1.0
 40
1.0
 40
1.0
 40
1.0
 10
-7.6660763891
 20
18.5027701621
 30
0.0
 10
-7.6530090766
 20
18.5088052126
 30
0.0
 10
-7.6276309537
 20
18.5219047765
 30
0.0
 10
-7.5898361766
 20
18.5423614885
 30
0.0
 10
-7.5508429687
 20
18.5618945557
 30
0.0
 10
-7.4944608006
 20
18.5865425788
 30
0.0
 10
-7.4167430905
 20
18.6123942635
 30
0.0
 10
-7.3155621003
 20
18.6335308434
 30
0.0
 10
-7.207613386
 20
18.6442355454
 30
0.0
 10
-7.1153464019
 20
18.6434333961
 30
0.0
 10
-7.042250699
 20
18.6358813779
 30
0.0
 10
-6.9898189472
 20
18.6265308778
 30
0.0
 10
-6.9411461188
 20
18.6132618447
 30
0.0
 10
-6.9108612161
 20
18.6011019253
 30
0.0
 10
-6.8969405086
 20
18.5941415713
 30
0.0
 11
-7.6660763891
 21
18.5027701621
 31
0.0
 11
-7.6274840288
 21
18.5221407102
 31
0.0
 11
-7.5899866595
 21
18.5420275082
 31
0.0
 11
-7.5511939158
 21
18.5613048197
 31
0.0
 11
-7.5099246687
 21
18.5793065252
 31
0.0
 11
-7.4187335714
 21
18.6098617528
 31
0.0
 11
-7.3170968896
 21
18.6313651902
 31
0.0
 11
-7.2082289009
 21
18.6422221498
 31
0.0
 11
-7.0966738724
 21
18.6409272923
 31
0.0
 11
-7.0418235653
 21
18.6351478059
 31
0.0
 11
-6.9890944166
 21
18.6255666211
 31
0.0
 11
-6.9401148686
 21
18.6119198803
 31
0.0
 11
-6.8969405086
 21
18.5941415713
 31
0.0
  0
SPLINE
  5
5CA
100
AcDbEntity
  8
RACCORDO
100
AcDbSpline
 62
253
  6
CONTINUOUS
 70
0
 71
3
 72
11
 73
7
 74
5
 42
0.0000001
 43
0.0000001
 44
0.0000000001
 12
0.0812034272
 22
0.0388657518
 32
0.0
 13
0.0805213959
 23
-0.0402597571
 33
0.0
 40
0.0
 40
0.0
 40
0.0
 40
0.0
 40
0.2782291421
 40
0.5340276418
 40
0.7720108749
 40
1.0
 40
1.0
 40
1.0
 40
1.0
 10
-6.8969405086
 20
18.5941415713
 30
0.0
 10
-6.8894094553
 20
18.5977460996
 30
0.0
 10
-6.8743614657
 20
18.6035399989
 30
0.0
 10
-6.8513631442
 20
18.6075198298
 30
0.0
 10
-6.8295288889
 20
18.6062037925
 30
0.0
 10
-6.8160853105
 20
18.6016737444
 30
0.0
 10
-6.8099659763
 20
18.5986141488
 30
0.0
 11
-6.8969405086
 21
18.5941415713
 31
0.0
 11
-6.8734957575
 21
18.6029579274
 31
0.0
 11
-6.8507713625
 21
18.6066869237
 31
0.0
 11
-6.8293967626
 21
18.605225573
 31
0.0
 11
-6.8099659763
 21
18.5986141488
 31
0.0
  0
SPLINE
  5
5CB
100
AcDbEntity
  8
RACCORDO
100
AcDbSpline
 62
253
  6
CONTINUOUS
 70
0
 71
3
 72
12
 73
8
 74
6
 42
0.0000001
 43
0.0000001
 44
0.0000000001
 12
0.397106005
 22
0.1488830245
 32
0.0
 13
0.3782409168
 23
-0.1918153879
 33
0.0
 40
0.0
 40
0.0
 40
0.0
 40
0.0
 40
0.1133594547
 40
0.2284944551
 40
0.467474684
 40
0.7234654842
 40
1.0
 40
1.0
 40
1.0
 40
1.0
 10
10.1843673848
 20
30.8682756304
 30
0.0
 10
10.1993726249
 20
30.8739013966
 30
0.0
 10
10.2303691385
 20
30.8833423942
 30
0.0
 10
10.2956017332
 20
30.8947393693
 30
0.0
 10
10.3826570968
 20
30.8941535467
 30
0.0
 10
10.4897940776
 20
30.8705808987
 30
0.0
 10
10.5596331309
 20
30.8414091598
 30
0.0
 10
10.5944986871
 20
30.823727968
 30
0.0
 11
10.1843673848
 21
30.8682756304
 31
0.0
 11
10.2303468832
 21
30.882316428
 31
0.0
 11
10.2784378412
 21
30.8907714491
 31
0.0
 11
10.3797889392
 21
30.8907552301
 31
0.0
 11
10.4859911589
 21
30.8682274099
 31
0.0
 11
10.5944986871
 21
30.823727968
 31
0.0
  0
SPLINE
  5
5CC
100
AcDbEntity
  8
RACCORDO
100
AcDbSpline
 62
7
  6
CONTINUOUS
 70
0
 71
3
 72
11
 73
7
 74
5
 42
0.0000001
 43
0.0000001
 44
0.0000000001
 12
-0.2296880673
 22
0.1148440471
 32
0.0
 13
-0.2541308446
 23
-0.0369225848
 33
0.0
 40
0.0
 40
0.0
 40
0.0
 40
0.0
 40
0.2405415998
 40
0.4850643439
 40
0.7372075101
 40
1.0
 40
1.0
 40
1.0
 40
1.0
 10
12.7444228332
 20
29.9885656649
 30
0.0
 10
12.7260063215
 20
29.9977739218
 30
0.0
 10
12.6872558945
 20
30.0132920526
 30
0.0
 10
12.6253948189
 20
30.0269964898
 30
0.0
 10
12.5602791802
 20
30.0311215441
 30
0.0
 10
12.5161827419
 20
30.0275681053
 30
0.0
 10
12.4939215161
 20
30.0243337793
 30
0.0
 11
12.7444228332
 21
29.9885656649
 31
0.0
 11
12.6870937587
 21
30.0115660195
 31
0.0
 11
12.6258143406
 21
30.0252707859
 31
0.0
 11
12.561205178
 21
30.0295411004
 31
0.0
 11
12.4939215161
 21
30.0243337793
 31
0.0
  0
SPLINE
  5
5CD
100
AcDbEntity
  8
RACCORDO
100
AcDbSpline
 62
253
  6
CONTINUOUS
 70
0
 71
3
 72
11
 73
7
 74
5
 42
0.0000001
 43
0.0000001
 44
0.0000000001
 12
-0.3735930284
 22
0.1193884247
 32
0.0
 13
-0.3537724825
 23
-0.1693232927
 33
0.0
 40
0.0
 40
0.0
 40
0.0
 40
0.0
 40
0.2282466264
 40
0.4680843449
 40
0.7243976305
 40
1.0
 40
1.0
 40
1.0
 40
1.0
 10
10.9754099952
 20
30.8680326204
 30
0.0
 10
10.9469862124
 20
30.8771159555
 30
0.0
 10
10.88631272
 20
30.8888917293
 30
0.0
 10
10.7910185122
 20
30.8865926984
 30
0.0
 10
10.691915562
 20
30.8650723461
 30
0.0
 10
10.6269988653
 20
30.8392832682
 30
0.0
 10
10.5944986871
 20
30.823727968
 30
0.0
 11
10.9754099952
 21
30.8680326204
 31
0.0
 11
10.8876005047
 21
30.8854469541
 31
0.0
 11
10.7935495441
 21
30.8837800397
 31
0.0
 11
10.6951792185
 21
30.8630661315
 31
0.0
 11
10.5944986871
 21
30.823727968
 31
0.0
  0
SPLINE
  5
5CE
100
AcDbEntity
  8
RACCORDO
100
AcDbSpline
 62
7
  6
CONTINUOUS
 70
0
 71
3
 72
15
 73
11
 74
9
 42
0.0000001
 43
0.0000001
 44
0.0000000001
 12
0.4162539982
 22
0.2155218167
 32
0.0
 13
0.0000021724
 23
0.4687398473
 33
0.0
 40
0.0
 40
0.0
 40
0.0
 40
0.0
 40
0.155372236
 40
0.3009897439
 40
0.4368322225
 40
0.5632656452
 40
0.6811336619
 40
0.7918232448
 40
0.8972922028
 40
1.0
 40
1.0
 40
1.0
 40
1.0
 10
24.4975273458
 20
-2.1275427658
 30
0.0
 10
24.5190854507
 20
-2.1163807303
 30
0.0
 10
24.5600551348
 20
-2.093162409
 30
0.0
 10
24.6163177145
 20
-2.0543504321
 30
0.0
 10
24.6649575417
 20
-2.0129754603
 30
0.0
 10
24.705522792
 20
-1.9693773132
 30
0.0
 10
24.7376186909
 20
-1.923905869
 30
0.0
 10
24.7608881133
 20
-1.8769229296
 30
0.0
 10
24.7750133067
 20
-1.8288723736
 30
0.0
 10
24.778187365
 20
-1.7962636473
 30
0.0
 10
24.7781874394
 20
-1.7802159016
 30
0.0
 11
24.4975273458
 21
-2.1275427658
 31
0.0
 11
24.5607958407
 21
-2.0914708399
 31
0.0
 11
24.6168572079
 21
-2.0525336587
 31
0.0
 11
24.6651975193
 21
-2.0110886077
 31
0.0
 11
24.7053704463
 21
-1.9675179404
 31
0.0
 11
24.7370064356
 21
-1.9222226384
 31
0.0
 11
24.7598140614
 21
-1.8756197865
 31
0.0
 11
24.7735833001
 21
-1.8281384765
 31
0.0
 11
24.7781874394
 21
-1.7802159016
 31
0.0
  0
SPLINE
  5
5CF
100
AcDbEntity
  8
RACCORDO
100
AcDbSpline
 62
7
  6
CONTINUOUS
 70
0
 71
3
 72
15
 73
11
 74
9
 42
0.0000001
 43
0.0000001
 44
0.0000000001
 12
0.4162539982
 22
0.2155218167
 32
0.0
 13
0.0000021724
 23
0.4687398473
 33
0.0
 40
0.0
 40
0.0
 40
0.0
 40
0.0
 40
0.155372236
 40
0.3009897439
 40
0.4368322225
 40
0.5632656452
 40
0.6811336619
 40
0.7918232448
 40
0.8972922028
 40
1.0
 40
1.0
 40
1.0
 40
1.0
 10
24.4975273458
 20
-6.4576697847
 30
0.0
 10
24.5190854507
 20
-6.4465077492
 30
0.0
 10
24.5600551348
 20
-6.423289428
 30
0.0
 10
24.6163177145
 20
-6.384477451
 30
0.0
 10
24.6649575417
 20
-6.3431024792
 30
0.0
 10
24.705522792
 20
-6.2995043321
 30
0.0
 10
24.7376186909
 20
-6.2540328879
 30
0.0
 10
24.7608881133
 20
-6.2070499485
 30
0.0
 10
24.7750133067
 20
-6.1589993925
 30
0.0
 10
24.778187365
 20
-6.1263906662
 30
0.0
 10
24.7781874394
 20
-6.1103429205
 30
0.0
 11
24.4975273458
 21
-6.4576697847
 31
0.0
 11
24.5607958407
 21
-6.4215978588
 31
0.0
 11
24.6168572079
 21
-6.3826606776
 31
0.0
 11
24.6651975193
 21
-6.3412156267
 31
0.0
 11
24.7053704463
 21
-6.2976449593
 31
0.0
 11
24.7370064356
 21
-6.2523496573
 31
0.0
 11
24.7598140614
 21
-6.2057468054
 31
0.0
 11
24.7735833001
 21
-6.1582654954
 31
0.0
 11
24.7781874394
 21
-6.1103429205
 31
0.0
  0
SPLINE
  5
5D0
100
AcDbEntity
  8
RACCORDO
100
AcDbSpline
 62
253
  6
CONTINUOUS
 70
0
 71
3
 72
11
 73
7
 74
5
 42
0.0000001
 43
0.0000001
 44
0.0000000001
 12
0.2032261409
 22
0.093853485
 32
0.0
 13
0.1988173617
 23
-0.1028639767
 33
0.0
 40
0.0
 40
0.0
 40
0.0
 40
0.0
 40
0.2278649803
 40
0.4657800992
 40
0.7216148521
 40
1.0
 40
1.0
 40
1.0
 40
1.0
 10
-7.8818861954
 20
18.5206669093
 30
0.0
 10
-7.8664501552
 20
18.5277955501
 30
0.0
 10
-7.832700459
 20
18.5380088586
 30
0.0
 10
-7.778344102
 20
18.5395759953
 30
0.0
 10
-7.7214878744
 20
18.5278881897
 30
0.0
 10
-7.684525656
 20
18.5123154299
 30
0.0
 10
-7.6660763891
 20
18.5027701621
 30
0.0
 11
-7.8818861954
 21
18.5206669093
 31
0.0
 11
-7.8331090172
 21
18.5355862458
 31
0.0
 11
-7.7798877627
 21
18.537552805
 31
0.0
 11
-7.7236930811
 21
18.5265126361
 31
0.0
 11
-7.6660763891
 21
18.5027701621
 31
0.0
  0
SPLINE
  5
5D1
100
AcDbEntity
  8
ASSI
100
AcDbSpline
 62
7
  6
CONTINUOUS
 70
0
 71
3
 72
11
 73
7
 74
5
 42
0.0000001
 43
0.0000001
 44
0.0000000001
 12
-0.0000021673
 22
-0.4676468454
 32
0.0
 13
-0.4152833822
 23
-0.2150192655
 33
0.0
 40
0.0
 40
0.0
 40
0.0
 40
0.0
 40
0.2077571975
 40
0.436166072
 40
0.6986043283
 40
1.0
 40
1.0
 40
1.0
 40
1.0
 10
24.7781874394
 20
1.8570907943
 30
0.0
 10
24.7781872893
 20
1.8247051283
 30
0.0
 10
24.7642656238
 20
1.7562031936
 30
0.0
 10
24.7058884434
 20
1.6622991936
 30
0.0
 10
24.6146299946
 20
1.5775398486
 30
0.0
 10
24.5392488838
 20
1.5313658887
 30
0.0
 10
24.4975273458
 20
1.5097639301
 30
0.0
 11
24.7781874394
 21
1.8570907943
 31
0.0
 11
24.7598140614
 21
1.7616869094
 31
0.0
 11
24.7053704463
 21
1.6697887555
 31
0.0
 11
24.6168572079
 21
1.5847730372
 31
0.0
 11
24.4975273458
 21
1.5097639301
 31
0.0
  0
SPLINE
  5
5D2
100
AcDbEntity
  8
ASSI
100
AcDbSpline
 62
7
  6
CONTINUOUS
 70
0
 71
3
 72
11
 73
7
 74
5
 42
0.0000001
 43
0.0000001
 44
0.0000000001
 12
-0.0000021673
 22
-0.4676468454
 32
0.0
 13
-0.4152833822
 23
-0.2150192655
 33
0.0
 40
0.0
 40
0.0
 40
0.0
 40
0.0
 40
0.2077571975
 40
0.436166072
 40
0.6986043283
 40
1.0
 40
1.0
 40
1.0
 40
1.0
 10
24.7781874394
 20
-2.4730362246
 30
0.0
 10
24.7781872893
 20
-2.5054218906
 30
0.0
 10
24.7642656238
 20
-2.5739238253
 30
0.0
 10
24.7058884434
 20
-2.6678278254
 30
0.0
 10
24.6146299946
 20
-2.7525871703
 30
0.0
 10
24.5392488838
 20
-2.7987611302
 30
0.0
 10
24.4975273458
 20
-2.8203630889
 30
0.0
 11
24.7781874394
 21
-2.4730362246
 31
0.0
 11
24.7598140614
 21
-2.5684401095
 31
0.0
 11
24.7053704463
 21
-2.6603382634
 31
0.0
 11
24.6168572079
 21
-2.7453539817
 31
0.0
 11
24.4975273458
 21
-2.8203630889
 31
0.0
  0
SPLINE
  5
5D3
100
AcDbEntity
  8
ASSI
100
AcDbSpline
 62
7
  6
CONTINUOUS
 70
0
 71
3
 72
11
 73
7
 74
5
 42
0.0000001
 43
0.0000001
 44
0.0000000001
 12
0.0000022306
 22
0.4812956135
 32
0.0
 13
-0.4304838836
 23
0.2152419418
 33
0.0
 40
0.0
 40
0.0
 40
0.0
 40
0.0
 40
0.2065676262
 40
0.434513604
 40
0.6974280206
 40
1.0
 40
1.0
 40
1.0
 40
1.0
 10
24.7781874394
 20
-1.7802159016
 30
0.0
 10
24.778187593
 20
-1.7470758708
 30
0.0
 10
24.7635507915
 20
-1.6768304279
 30
0.0
 10
24.7024351268
 20
-1.5810091403
 30
0.0
 10
24.6071856211
 20
-1.4949295522
 30
0.0
 10
24.5287117803
 20
-1.4483689168
 30
0.0
 10
24.4852943267
 20
-1.42666019
 30
0.0
 11
24.7781874394
 21
-1.7802159016
 31
0.0
 11
24.7589734559
 21
-1.6826701298
 31
0.0
 11
24.7020679186
 21
-1.5888729437
 31
0.0
 11
24.6096575159
 21
-1.5024288776
 31
0.0
 11
24.4852943267
 21
-1.42666019
 31
0.0
  0
SPLINE
  5
5D4
100
AcDbEntity
  8
ASSI
100
AcDbSpline
 62
7
  6
CONTINUOUS
 70
0
 71
3
 72
11
 73
7
 74
5
 42
0.0000001
 43
0.0000001
 44
0.0000000001
 12
0.0000022306
 22
0.4812956135
 32
0.0
 13
-0.4304838836
 23
0.2152419418
 33
0.0
 40
0.0
 40
0.0
 40
0.0
 40
0.0
 40
0.2065676262
 40
0.434513604
 40
0.6974280206
 40
1.0
 40
1.0
 40
1.0
 40
1.0
 10
24.7781874394
 20
-6.1103429205
 30
0.0
 10
24.778187593
 20
-6.0772028897
 30
0.0
 10
24.7635507915
 20
-6.0069574468
 30
0.0
 10
24.7024351268
 20
-5.9111361592
 30
0.0
 10
24.6071856211
 20
-5.8250565711
 30
0.0
 10
24.5287117803
 20
-5.7784959357
 30
0.0
 10
24.4852943267
 20
-5.7567872089
 30
0.0
 11
24.7781874394
 21
-6.1103429205
 31
0.0
 11
24.7589734559
 21
-6.0127971487
 31
0.0
 11
24.7020679186
 21
-5.9189999626
 31
0.0
 11
24.6096575159
 21
-5.8325558966
 31
0.0
 11
24.4852943267
 21
-5.7567872089
 31
0.0
  0
SPLINE
  5
5D5
100
AcDbEntity
  8
ASSI
100
AcDbSpline
 62
253
  6
CONTINUOUS
 70
0
 71
3
 72
10
 73
6
 74
4
 42
0.0000001
 43
0.0000001
 44
0.0000000001
 12
0.2026152818
 22
0.0932802951
 32
0.0
 13
0.1981114996
 23
-0.1024987784
 33
0.0
 40
0.0
 40
0.0
 40
0.0
 40
0.0
 40
0.2284490519
 40
0.4669925648
 40
1.0
 40
1.0
 40
1.0
 40
1.0
 10
-7.8816858742
 20
18.5207592772
 30
0.0
 10
-7.8662567846
 20
18.5278625422
 30
0.0
 10
-7.8325184429
 20
18.5380274993
 30
0.0
 10
-7.7575371364
 20
18.54016258
 30
0.0
 10
-7.7012746899
 20
18.5209810324
 30
0.0
 10
-7.6660763891
 20
18.5027701621
 30
0.0
 11
-7.8816858742
 21
18.5207592772
 31
0.0
 11
-7.832942041
 21
18.5356138173
 31
0.0
 11
-7.7797683594
 21
18.5375428736
 31
0.0
 11
-7.6660763891
 21
18.5027701621
 31
0.0
  0
SPLINE
  5
5D6
100
AcDbEntity
  8
ASSI
100
AcDbSpline
 62
253
  6
CONTINUOUS
 70
0
 71
3
 72
11
 73
7
 74
5
 42
0.0000001
 43
0.0000001
 44
0.0000000001
 12
-0.0000885091
 22
-0.4676043596
 32
0.0
 13
-0.415245661
 23
-0.2149997347
 33
0.0
 40
0.0
 40
0.0
 40
0.0
 40
0.0
 40
0.207757268
 40
0.4361694118
 40
0.6986084199
 40
1.0
 40
1.0
 40
1.0
 40
1.0
 10
24.7781875219
 20
-7.4066771476
 30
0.0
 10
24.7781813924
 20
-7.4390598824
 30
0.0
 10
24.7642509939
 20
-7.5075533745
 30
0.0
 10
24.7058713392
 20
-7.6014440689
 30
0.0
 10
24.614618612
 20
-7.6861924154
 30
0.0
 10
24.5392445278
 20
-7.7323612671
 30
0.0
 10
24.4975273458
 20
-7.7539609703
 30
0.0
 11
24.7781875219
 21
-7.4066771476
 31
0.0
 11
24.7598016329
 21
-7.5020696684
 31
0.0
 11
24.7053542579
 21
-7.5939560941
 31
0.0
 11
24.6168455048
 21
-7.6789608969
 31
0.0
 11
24.4975273458
 21
-7.7539609703
 31
0.0
  0
SPLINE
  5
5D7
100
AcDbEntity
  8
ASSI
100
AcDbSpline
 62
253
  6
CONTINUOUS
 70
0
 71
3
 72
11
 73
7
 74
5
 42
0.0000001
 43
0.0000001
 44
0.0000000001
 12
0.0026952874
 22
-0.9282316843
 32
0.0
 13
-0.5891766493
 23
-0.7172811167
 33
0.0
 40
0.0
 40
0.0
 40
0.0
 40
0.0
 40
0.2785714797
 40
0.5375694888
 40
0.7772499709
 40
1.0
 40
1.0
 40
1.0
 40
1.0
 10
24.4975273372
 20
-7.7539582255
 30
0.0
 10
24.4977776139
 20
-7.8401511834
 30
0.0
 10
24.4880704185
 20
-8.0067841204
 30
0.0
 10
24.439326178
 20
-8.2432713308
 30
0.0
 10
24.3577496389
 20
-8.4522989352
 30
0.0
 10
24.279749128
 20
-8.5737942637
 30
0.0
 10
24.2360027561
 20
-8.6270523936
 30
0.0
 11
24.4975273372
 21
-7.7539582255
 31
0.0
 11
24.4812705274
 21
-8.0120266542
 31
0.0
 11
24.4313401454
 21
-8.2471957176
 31
0.0
 11
24.3489282994
 21
-8.4538490947
 31
0.0
 11
24.2360027561
 21
-8.6270523936
 31
0.0
  0
SPLINE
  5
5D8
100
AcDbEntity
  8
ASSI
100
AcDbSpline
 62
253
  6
CONTINUOUS
 70
0
 71
3
 72
11
 73
7
 74
5
 42
0.0000001
 43
0.0000001
 44
0.0000000001
 12
0.4072972252
 22
0.179046204
 32
0.0
 13
0.3968059761
 23
-0.2012301918
 33
0.0
 40
0.0
 40
0.0
 40
0.0
 40
0.0
 40
0.2281566988
 40
0.4665817156
 40
0.7224630644
 40
1.0
 40
1.0
 40
1.0
 40
1.0
 10
10.1647837372
 20
30.8603077278
 30
0.0
 10
10.1957596007
 20
30.8739245914
 30
0.0
 10
10.2631864854
 20
30.893249483
 30
0.0
 10
10.3712929738
 20
30.895757144
 30
0.0
 10
10.4842470682
 20
30.8727427527
 30
0.0
 10
10.5577892489
 20
30.8423442383
 30
0.0
 10
10.5944986871
 20
30.823727968
 30
0.0
 11
10.1647837372
 21
30.8603077278
 31
0.0
 11
10.2622742048
 21
30.8885905239
 31
0.0
 11
10.368302208
 21
30.8918682994
 31
0.0
 11
10.4800378043
 21
30.870053357
 31
0.0
 11
10.5944986871
 21
30.823727968
 31
0.0
  0
SPLINE
  5
5D9
100
AcDbEntity
  8
ASSI
100
AcDbSpline
 62
7
  6
CONTINUOUS
 70
0
 71
3
 72
9
 73
5
 74
3
 42
0.0000001
 43
0.0000001
 44
0.0000000001
 12
-0.0359036209
 22
0.0179518105
 32
0.0
 13
-0.0376707107
 23
0.0138656066
 33
0.0
 40
0.0
 40
0.0
 40
0.0
 40
0.0
 40
0.2541137039
 40
1.0
 40
1.0
 40
1.0
 40
1.0
 10
-7.7493221068
 20
18.464324531
 30
0.0
 10
-7.7523633075
 20
18.4658451313
 30
0.0
 10
-7.7644289803
 20
18.4716330853
 30
0.0
 10
-7.7768335229
 20
18.476701411
 30
0.0
 10
-7.7861995452
 20
18.4801487996
 30
0.0
 11
-7.7493221068
 21
18.464324531
 31
0.0
 11
-7.7585172952
 21
18.4687402591
 31
0.0
 11
-7.7861995452
 21
18.4801487996
 31
0.0
  0
SPLINE
  5
5DA
100
AcDbEntity
  8
ASSI
100
AcDbSpline
 62
7
  6
CONTINUOUS
 70
0
 71
3
 72
9
 73
5
 74
3
 42
0.0000001
 43
0.0000001
 44
0.0000000001
 12
-0.1326086624
 22
0.0488097918
 32
0.0
 13
-0.1383074402
 23
-0.0289569525
 33
0.0
 40
0.0
 40
0.0
 40
0.0
 40
0.0
 40
0.276568896
 40
1.0
 40
1.0
 40
1.0
 40
1.0
 10
-7.7861995452
 20
18.4801487996
 30
0.0
 10
-7.798424689
 20
18.4846485564
 30
0.0
 10
-7.8432106695
 20
18.4988767313
 30
0.0
 10
-7.8923260566
 20
18.5026414508
 30
0.0
 10
-7.9256780246
 20
18.4956586641
 30
0.0
 11
-7.7861995452
 21
18.4801487996
 31
0.0
 11
-7.8235286652
 21
18.4917183442
 31
0.0
 11
-7.9256780246
 21
18.4956586641
 31
0.0
  0
SPLINE
  5
5DB
100
AcDbEntity
  8
ASSI
100
AcDbSpline
 62
253
  6
CONTINUOUS
 70
0
 71
3
 72
15
 73
11
 74
9
 42
0.0000001
 43
0.0000001
 44
0.0000000001
 12
0.7271928527
 22
0.3358491343
 32
0.0
 13
0.7164378984
 23
-0.3582189608
 33
0.0
 40
0.0
 40
0.0
 40
0.0
 40
0.0
 40
0.1068911416
 40
0.2171475717
 40
0.337214698
 40
0.4669104392
 40
0.6034993861
 40
0.7427781312
 40
0.878446413
 40
1.0
 40
1.0
 40
1.0
 40
1.0
 10
-7.6660763891
 20
18.5027701621
 30
0.0
 10
-7.6401662311
 20
18.5147365945
 30
0.0
 10
-7.589684104
 20
18.5433818135
 30
0.0
 10
-7.5082139988
 20
18.5820313979
 30
0.0
 10
-7.4167353815
 20
18.6123779871
 30
0.0
 10
-7.3155645426
 20
18.6335340439
 30
0.0
 10
-7.2076119668
 20
18.644240874
 30
0.0
 10
-7.0974669761
 20
18.643253077
 30
0.0
 10
-6.9923195366
 20
18.6292795557
 30
0.0
 10
-6.9259690408
 20
18.6086558378
 30
0.0
 10
-6.8969405086
 20
18.5941415713
 30
0.0
 11
-7.6660763891
 21
18.5027701621
 31
0.0
 11
-7.5899866595
 21
18.5420275082
 31
0.0
 11
-7.5099246687
 21
18.5793065252
 31
0.0
 11
-7.4187335714
 21
18.6098617528
 31
0.0
 11
-7.3170968896
 21
18.6313651902
 31
0.0
 11
-7.2082289009
 21
18.6422221498
 31
0.0
 11
-7.0966738724
 21
18.6409272923
 31
0.0
 11
-6.9890944166
 21
18.6255666211
 31
0.0
 11
-6.8969405086
 21
18.5941415713
 31
0.0
  0
SPLINE
  5
5DC
100
AcDbEntity
  8
ASSI
100
AcDbSpline
 62
253
  6
CONTINUOUS
 70
0
 71
3
 72
9
 73
5
 74
3
 42
0.0000001
 43
0.0000001
 44
0.0000000001
 12
0.0806556085
 22
0.0386035537
 32
0.0
 13
0.0799900644
 23
-0.0399643733
 33
0.0
 40
0.0
 40
0.0
 40
0.0
 40
0.0
 40
0.5349197963
 40
1.0
 40
1.0
 40
1.0
 40
1.0
 10
-6.8969405086
 20
18.5941415713
 30
0.0
 10
-6.8825590814
 20
18.6010248397
 30
0.0
 10
-6.8533005743
 20
18.6102209167
 30
0.0
 10
-6.8223865323
 20
18.6048196699
 30
0.0
 10
-6.8099859339
 20
18.5986241236
 30
0.0
 11
-6.8969405086
 21
18.5941415713
 31
0.0
 11
-6.8507834587
 21
18.6066863006
 31
0.0
 11
-6.8099859339
 21
18.5986241236
 31
0.0
  0
SPLINE
  5
5DD
100
AcDbEntity
  8
ASSI
100
AcDbSpline
 62
7
  6
CONTINUOUS
 70
0
 71
3
 72
9
 73
5
 74
3
 42
0.0000001
 43
0.0000001
 44
0.0000000001
 12
-0.1967583558
 22
0.0983791895
 32
0.0
 13
-0.2194021113
 23
-0.01596963
 33
0.0
 40
0.0
 40
0.0
 40
0.0
 40
0.0
 40
0.4883434993
 40
1.0
 40
1.0
 40
1.0
 40
1.0
 10
12.7444228332
 20
29.9885656649
 30
0.0
 10
12.7123942785
 20
30.0045799441
 30
0.0
 10
12.6416823608
 20
30.02789433
 30
0.0
 10
12.5675190094
 20
30.0310133037
 30
0.0
 10
12.5300995039
 20
30.0282896487
 30
0.0
 11
12.7444228332
 21
29.9885656649
 31
0.0
 11
12.6425077721
 21
30.0225346124
 31
0.0
 11
12.5300995039
 21
30.0282896487
 31
0.0
  0
SPLINE
  5
5DE
100
AcDbEntity
  8
ASSI
100
AcDbSpline
 62
253
  6
CONTINUOUS
 70
0
 71
3
 72
11
 73
7
 74
5
 42
0.0000001
 43
0.0000001
 44
0.0000000001
 12
-0.399360696
 22
0.1882434116
 32
0.0
 13
-0.3982386115
 23
-0.1906057602
 33
0.0
 40
0.0
 40
0.0
 40
0.0
 40
0.0
 40
0.2279245258
 40
0.4661824644
 40
0.722109952
 40
1.0
 40
1.0
 40
1.0
 40
1.0
 10
11.0215541436
 20
30.8498874361
 30
0.0
 10
10.9912127779
 20
30.8641891995
 30
0.0
 10
10.9248622521
 20
30.8850569013
 30
0.0
 10
10.8177184475
 20
30.890131474
 30
0.0
 10
10.7050918445
 20
30.8698948842
 30
0.0
 10
10.6313875361
 20
30.8413837826
 30
0.0
 10
10.5944986871
 20
30.823727968
 30
0.0
 11
11.0215541436
 21
30.8498874361
 31
0.0
 11
10.925658941
 21
30.8803892448
 31
0.0
 11
10.8206274627
 21
30.8861892623
 31
0.0
 11
10.7092532883
 21
30.8671332236
 31
0.0
 11
10.5944986871
 21
30.823727968
 31
0.0
  0
SPLINE
  5
5DF
100
AcDbEntity
  8
ASSI
100
AcDbSpline
 62
7
  6
CONTINUOUS
 70
0
 71
3
 72
11
 73
7
 74
5
 42
0.0000001
 43
0.0000001
 44
0.0000000001
 12
0.4152833822
 22
0.2150192655
 32
0.0
 13
0.0000021673
 23
0.4676468454
 33
0.0
 40
0.0
 40
0.0
 40
0.0
 40
0.0
 40
0.3013956717
 40
0.563833928
 40
0.7922428025
 40
1.0
 40
1.0
 40
1.0
 40
1.0
 10
24.4975273458
 20
-2.1275427658
 30
0.0
 10
24.5392488838
 20
-2.1059408072
 30
0.0
 10
24.6146299946
 20
-2.0597668473
 30
0.0
 10
24.7058884434
 20
-1.9750075023
 30
0.0
 10
24.7642656238
 20
-1.8811035023
 30
0.0
 10
24.7781872893
 20
-1.8126015676
 30
0.0
 10
24.7781874394
 20
-1.7802159016
 30
0.0
 11
24.4975273458
 21
-2.1275427658
 31
0.0
 11
24.6168572079
 21
-2.0525336587
 31
0.0
 11
24.7053704463
 21
-1.9675179404
 31
0.0
 11
24.7598140614
 21
-1.8756197865
 31
0.0
 11
24.7781874394
 21
-1.7802159016
 31
0.0
  0
SPLINE
  5
5E0
100
AcDbEntity
  8
ASSI
100
AcDbSpline
 62
7
  6
CONTINUOUS
 70
0
 71
3
 72
11
 73
7
 74
5
 42
0.0000001
 43
0.0000001
 44
0.0000000001
 12
0.4152833822
 22
0.2150192655
 32
0.0
 13
0.0000021673
 23
0.4676468454
 33
0.0
 40
0.0
 40
0.0
 40
0.0
 40
0.0
 40
0.3013956717
 40
0.563833928
 40
0.7922428025
 40
1.0
 40
1.0
 40
1.0
 40
1.0
 10
24.4975273458
 20
-6.4576697847
 30
0.0
 10
24.5392488838
 20
-6.4360678261
 30
0.0
 10
24.6146299946
 20
-6.3898938662
 30
0.0
 10
24.7058884434
 20
-6.3051345212
 30
0.0
 10
24.7642656238
 20
-6.2112305212
 30
0.0
 10
24.7781872893
 20
-6.1427285865
 30
0.0
 10
24.7781874394
 20
-6.1103429205
 30
0.0
 11
24.4975273458
 21
-6.4576697847
 31
0.0
 11
24.6168572079
 21
-6.3826606776
 31
0.0
 11
24.7053704463
 21
-6.2976449593
 31
0.0
 11
24.7598140614
 21
-6.2057468054
 31
0.0
 11
24.7781874394
 21
-6.1103429205
 31
0.0
  0
ELLIPSE
  5
5E1
100
AcDbEntity
  8
0
100
AcDbEllipse
 62
7
  6
CONTINUOUS
 10
15.1506613271
 20
19.0495757286
 30
0.0
 11
-0.894612936
 21
1.7887945813
 31
0.0
 40
0.6124635976
 41
-2.2555607096
 42
-1.470288718
  0
ELLIPSE
  5
5E2
100
AcDbEntity
  8
0
100
AcDbEllipse
 62
7
  6
CONTINUOUS
 10
15.5554669424
 20
19.5763207541
 30
0.0
 11
-0.447101003
 21
0.8945282396
 31
0.0
 40
0.6124326778
 41
4.8132948115
 42
5.5985668031
  0
ELLIPSE
  5
5E3
100
AcDbEntity
  8
RACCORDO
100
AcDbEllipse
 62
7
  6
CONTINUOUS
 10
-2.2692442914
 20
12.7715037193
 30
0.0
 11
-0.2237046003
 21
0.4472532382
 31
0.0
 40
0.6122950388
 41
-2.2557482655
 42
-0.6847996396
  0
ELLIPSE
  5
5E4
100
AcDbEntity
  8
RACCORDO
100
AcDbEllipse
 62
7
  6
CONTINUOUS
 10
-2.2692442914
 20
-25.1452606112
 30
0.0
 11
-0.2236445579
 21
0.4471998343
 31
0.0
 40
0.6124778111
 41
-3.1448859382
 42
-2.255529033
  0
ELLIPSE
  5
5E5
100
AcDbEntity
  8
RACCORDO
100
AcDbEllipse
 62
7
  6
CONTINUOUS
 10
2.45944952
 20
-20.6445980931
 30
0.0
 11
0.9987332359
 21
0.6172510855
 31
0.0
 40
0.0815198604
 41
3.885377983
 42
4.9846834562
  0
ELLIPSE
  5
5E6
100
AcDbEntity
  8
RACCORDO
100
AcDbEllipse
 62
7
  6
CONTINUOUS
 10
-9.3312827684
 20
22.1654355953
 30
0.0
 11
0.9987332359
 21
0.6172510855
 31
0.0
 40
0.0815198604
 41
0.0509898783
 42
0.7263320369
  0
ELLIPSE
  5
5E7
100
AcDbEntity
  8
RACCORDO
100
AcDbEllipse
 62
7
  6
CONTINUOUS
 10
-13.6161913765
 20
19.0348203407
 30
0.0
 11
0.4999985559
 21
0.0023864752
 31
0.0
 40
0.5035541159
 41
2.3596088132
 42
3.0002042076
  0
ELLIPSE
  5
5E8
100
AcDbEntity
  8
DRAFT
100
AcDbEllipse
 62
7
  6
CONTINUOUS
 10
-7.9614000238
 20
17.6244962949
 30
0.0
 11
0.9999934239
 21
0.0071767279
 31
0.0
 40
0.5053247124
 41
2.0833245176
 42
2.3525679043
  0
ELLIPSE
  5
5E9
100
AcDbEntity
  8
DRAFT
100
AcDbEllipse
 62
7
  6
CONTINUOUS
 10
-2.3752564525
 20
17.8549966177
 30
0.0
 11
0.4279673669
 21
-0.0030279657
 31
0.0
 40
0.4946372042
 41
-0.7760807437
 42
0.0034304302
  0
ELLIPSE
  5
5EA
100
AcDbEntity
  8
RACCORDO
100
AcDbEllipse
 62
7
  6
CONTINUOUS
 10
2.45944952
 20
16.2700694511
 30
0.0
 11
-0.7417913999
 21
1.2002436976
 31
0.0
 40
0.5587454355
 41
5.1248137075
 42
6.2241191807
  0
ELLIPSE
  5
5EB
100
AcDbEntity
  8
RACCORDO
100
AcDbEllipse
 62
7
  6
CONTINUOUS
 10
2.2804058141
 20
-20.853818412
 30
0.0
 11
0.499366618
 21
0.3086255427
 31
0.0
 40
0.0815198604
 41
6.1080157147
 42
7.0007906979
  0
ELLIPSE
  5
5EC
100
AcDbEntity
  8
RACCORDO
100
AcDbEllipse
 62
7
  6
CONTINUOUS
 10
2.2804058141
 20
17.3654402571
 30
0.0
 11
-0.3708957
 21
0.6001218488
 31
0.0
 40
0.5587454355
 41
-3.1744788413
 42
-2.2817038581
  0
ELLIPSE
  5
5ED
100
AcDbEntity
  8
RACCORDO
100
AcDbEllipse
 62
7
  6
CONTINUOUS
 10
-13.6161913765
 20
17.8022107355
 30
0.0
 11
0.4998587701
 21
0.0223649649
 31
0.0
 40
0.5313301283
 41
3.1178197826
 42
3.9032222197
  0
ELLIPSE
  5
5EE
100
AcDbEntity
  8
RACCORDO
100
AcDbEllipse
 62
7
  6
CONTINUOUS
 10
-8.1048842769
 20
15.0465571856
 30
0.0
 11
0.4998587701
 21
0.0223649649
 31
0.0
 40
0.5313301283
 41
-2.3799630874
 42
-0.8149845248
  0
ELLIPSE
  5
5EF
100
AcDbEntity
  8
RACCORDO
100
AcDbEllipse
 62
7
  6
CONTINUOUS
 10
-8.1048842769
 20
16.2791667908
 30
0.0
 11
0.4999985559
 21
0.0023864752
 31
0.0
 40
0.5035541159
 41
-1.4342147631
 42
-0.7936193687
  0
ELLIPSE
  5
5F0
100
AcDbEntity
  8
DRAFT
100
AcDbEllipse
 62
7
  6
CONTINUOUS
 10
-7.9302448816
 20
20.6324908323
 30
0.0
 11
0.4279673669
 21
-0.0030279657
 31
0.0
 40
0.4946372042
 41
-0.7818985079
 42
0.0034334386
  0
ELLIPSE
  5
5F1
100
AcDbEntity
  8
RACCORDO
100
AcDbEllipse
 62
7
  6
CONTINUOUS
 10
-18.7396331616
 20
19.799561691
 30
0.0
 11
0.249929385
 21
0.0111824824
 31
0.0
 40
0.5313301283
 41
3.1179086008
 42
3.9032222197
  0
ELLIPSE
  5
5F2
100
AcDbEntity
  8
RACCORDO
100
AcDbEllipse
 62
7
  6
CONTINUOUS
 10
-4.0421026635
 20
12.4507964419
 30
0.0
 11
0.249929385
 21
0.0111824824
 31
0.0
 40
0.5313301283
 41
-2.3799630874
 42
-1.3352760237
  0
ELLIPSE
  5
5F3
100
AcDbEntity
  8
RACCORDO
100
AcDbEllipse
 62
7
  6
CONTINUOUS
 10
-17.406420828
 20
19.1329555241
 30
0.0
 11
0.249929385
 21
0.0111824824
 31
0.0
 40
0.5313301283
 41
-2.3799630874
 42
-0.8149845248
  0
ELLIPSE
  5
5F4
100
AcDbEntity
  8
RACCORDO
100
AcDbEllipse
 62
7
  6
CONTINUOUS
 10
-5.3753149972
 20
13.1174026087
 30
0.0
 11
0.249929385
 21
0.0111824824
 31
0.0
 40
0.5313301283
 41
3.1178369227
 42
3.9032222197
  0
ELLIPSE
  5
5F5
100
AcDbEntity
  8
ASSI
100
AcDbEllipse
 62
7
  6
CONTINUOUS
 10
-8.2840997126
 20
21.5573400094
 30
0.0
 11
0.2257019663
 21
0.4461636818
 31
0.0
 40
0.6159267166
 41
0.5380090616
 42
0.6817883054
  0
ELLIPSE
  5
5F6
100
AcDbEntity
  8
ASSI
100
AcDbEllipse
 62
7
  6
CONTINUOUS
 10
-2.2692442914
 20
12.7715037193
 30
0.0
 11
-0.2237046003
 21
0.4472532382
 31
0.0
 40
0.6122950388
 41
-2.2557482655
 42
-0.6847996396
  0
ELLIPSE
  5
5F7
100
AcDbEntity
  8
ASSI
100
AcDbEllipse
 62
7
  6
CONTINUOUS
 10
-2.2692442914
 20
-25.1452606112
 30
0.0
 11
-0.2236445579
 21
0.4471998343
 31
0.0
 40
0.6124778111
 41
-3.1448859382
 42
-2.255529033
  0
ELLIPSE
  5
5F8
100
AcDbEntity
  8
ASSI
100
AcDbEllipse
 62
7
  6
CONTINUOUS
 10
2.45944952
 20
-20.6445980931
 30
0.0
 11
0.9987332359
 21
0.6172510855
 31
0.0
 40
0.0815198604
 41
-2.3978073241
 42
-1.2985018509
  0
ELLIPSE
  5
5F9
100
AcDbEntity
  8
ASSI
100
AcDbEllipse
 62
7
  6
CONTINUOUS
 10
-9.3312827684
 20
22.1654355953
 30
0.0
 11
0.9987332359
 21
0.6172510855
 31
0.0
 40
0.0815198604
 41
0.0509898783
 42
0.7263320369
  0
ELLIPSE
  5
5FA
100
AcDbEntity
  8
ASSI
100
AcDbEllipse
 62
7
  6
CONTINUOUS
 10
-13.6161913765
 20
19.0348203407
 30
0.0
 11
0.4999985559
 21
0.0023864752
 31
0.0
 40
0.5035541159
 41
2.3596088132
 42
3.0002042076
  0
ELLIPSE
  5
5FB
100
AcDbEntity
  8
ASSI
100
AcDbEllipse
 62
7
  6
CONTINUOUS
 10
-7.9614000238
 20
17.6244962949
 30
0.0
 11
0.9999934239
 21
0.0071767279
 31
0.0
 40
0.5053247124
 41
2.0833245176
 42
2.3525679043
  0
ELLIPSE
  5
5FC
100
AcDbEntity
  8
ASSI
100
AcDbEllipse
 62
7
  6
CONTINUOUS
 10
-7.9302448816
 20
20.6324908323
 30
0.0
 11
0.4279673669
 21
-0.0030279657
 31
0.0
 40
0.4946372042
 41
-0.7818985079
 42
0.0034334386
  0
ELLIPSE
  5
5FD
100
AcDbEntity
  8
ASSI
100
AcDbEllipse
 62
7
  6
CONTINUOUS
 10
-2.3752564525
 20
17.8549966177
 30
0.0
 11
0.4279673669
 21
-0.0030279657
 31
0.0
 40
0.4946372042
 41
-0.7760807437
 42
0.0034304302
  0
ELLIPSE
  5
5FE
100
AcDbEntity
  8
ASSI
100
AcDbEllipse
 62
7
  6
CONTINUOUS
 10
2.45944952
 20
16.2700694511
 30
0.0
 11
-0.7417913999
 21
1.2002436976
 31
0.0
 40
0.5587454355
 41
5.1248137075
 42
6.2241191807
  0
ELLIPSE
  5
5FF
100
AcDbEntity
  8
ASSI
100
AcDbEllipse
 62
7
  6
CONTINUOUS
 10
2.2804058141
 20
-20.853818412
 30
0.0
 11
0.499366618
 21
0.3086255427
 31
0.0
 40
0.0815198604
 41
6.1080157147
 42
7.0007906979
  0
ELLIPSE
  5
600
100
AcDbEntity
  8
ASSI
100
AcDbEllipse
 62
7
  6
CONTINUOUS
 10
2.2804058141
 20
17.3654402571
 30
0.0
 11
-0.3708957
 21
0.6001218488
 31
0.0
 40
0.5587454355
 41
-3.1744788413
 42
-2.2817038581
  0
ELLIPSE
  5
601
100
AcDbEntity
  8
ASSI
100
AcDbEllipse
 62
7
  6
CONTINUOUS
 10
-2.1232674418
 20
18.476923874
 30
0.0
 11
0.221538876
 21
0.4482453432
 31
0.0
 40
0.6088015717
 41
0.5323082896
 42
0.6760875334
  0
ELLIPSE
  5
602
100
AcDbEntity
  8
ASSI
100
AcDbEllipse
 62
7
  6
CONTINUOUS
 10
-13.6161913765
 20
17.8022107355
 30
0.0
 11
0.4998587701
 21
0.0223649649
 31
0.0
 40
0.5313301283
 41
3.1178197826
 42
3.9032222197
  0
ELLIPSE
  5
603
100
AcDbEntity
  8
ASSI
100
AcDbEllipse
 62
7
  6
CONTINUOUS
 10
-8.1048842769
 20
15.0465571856
 30
0.0
 11
0.4998587701
 21
0.0223649649
 31
0.0
 40
0.5313301283
 41
-2.3799630874
 42
-0.8149845248
  0
ELLIPSE
  5
604
100
AcDbEntity
  8
ASSI
100
AcDbEllipse
 62
7
  6
CONTINUOUS
 10
-8.1048842769
 20
16.2791667908
 30
0.0
 11
0.4999985559
 21
0.0023864752
 31
0.0
 40
0.5035541159
 41
-1.4342147631
 42
-0.7936193687
  0
ELLIPSE
  5
605
100
AcDbEntity
  8
ASSI
100
AcDbEllipse
 62
7
  6
CONTINUOUS
 10
-18.7396331616
 20
19.799561691
 30
0.0
 11
0.249929385
 21
0.0111824824
 31
0.0
 40
0.5313301283
 41
3.1179086008
 42
3.9032222197
  0
ELLIPSE
  5
606
100
AcDbEntity
  8
ASSI
100
AcDbEllipse
 62
7
  6
CONTINUOUS
 10
-4.0421026635
 20
12.4507964419
 30
0.0
 11
0.249929385
 21
0.0111824824
 31
0.0
 40
0.5313301283
 41
-2.3799630874
 42
-1.3352760237
  0
ELLIPSE
  5
607
100
AcDbEntity
  8
ASSI
100
AcDbEllipse
 62
7
  6
CONTINUOUS
 10
-5.3753149972
 20
13.1174026087
 30
0.0
 11
0.249929385
 21
0.0111824824
 31
0.0
 40
0.5313301283
 41
3.1178369227
 42
3.9032222197
  0
ELLIPSE
  5
608
100
AcDbEntity
  8
ASSI
100
AcDbEllipse
 62
7
  6
CONTINUOUS
 10
-17.406420828
 20
19.1329555241
 30
0.0
 11
0.249929385
 21
0.0111824824
 31
0.0
 40
0.5313301283
 41
-2.3799630874
 42
-0.8149845248
  0
ELLIPSE
  5
609
100
AcDbEntity
  8
CURVE
100
AcDbEllipse
 62
253
  6
CONTINUOUS
 10
352.3095049907
 20
162.6525163038
 30
0.0
 11
499.3666179528
 21
308.6255427419
 31
0.0
 40
0.0815198604
 41
2.3343588696
 42
2.3413624707
  0
ELLIPSE
  5
60A
100
AcDbEntity
  8
DRAFT
100
AcDbEllipse
 62
7
  6
CONTINUOUS
 10
19.7526309801
 20
-2.0146459418
 30
0.0
 11
0.9261626287
 21
1.8847694129
 31
0.0
 40
0.607010042
 41
-2.811164929
 42
-2.4610674593
  0
ELLIPSE
  5
60B
100
AcDbEntity
  8
DRAFT
100
AcDbEllipse
 62
7
  6
CONTINUOUS
 10
19.7526309801
 20
-6.3447729607
 30
0.0
 11
0.9261626287
 21
1.8847694129
 31
0.0
 40
0.607010042
 41
-2.811164929
 42
-2.4610674593
  0
ELLIPSE
  5
60C
100
AcDbEntity
  8
RACCORDO
100
AcDbEllipse
 62
7
  6
CONTINUOUS
 10
15.4852675113
 20
19.5422214445
 30
0.0
 11
-0.447101003
 21
0.8945282396
 31
0.0
 40
0.6124326778
 41
-1.4698904957
 42
-0.6846185041
  0
ELLIPSE
  5
60D
100
AcDbEntity
  8
RACCORDO
100
AcDbEllipse
 62
7
  6
CONTINUOUS
 10
15.0811849084
 20
19.0142294069
 30
0.0
 11
-0.894612936
 21
1.7887945813
 31
0.0
 40
0.6124635976
 41
-2.2555607096
 42
-1.470288718
  0
ELLIPSE
  5
60E
100
AcDbEntity
  8
RACCORDO
100
AcDbEllipse
 62
7
  6
CONTINUOUS
 10
23.7781875455
 20
10.170659083
 30
0.0
 11
0.9985969906
 21
-0.623107864
 31
0.0
 40
0.084982534
 41
0.0528483921
 42
0.8209229347
  0
ELLIPSE
  5
60F
100
AcDbEntity
  8
DRAFT
100
AcDbEllipse
 62
7
  6
CONTINUOUS
 10
20.490507967
 20
-2.3835844352
 30
0.0
 11
0.9134242373
 21
1.8910797574
 31
0.0
 40
0.6016116119
 41
0.6764898932
 42
3.8180825468
  0
ELLIPSE
  5
610
100
AcDbEntity
  8
DRAFT
100
AcDbEllipse
 62
7
  6
CONTINUOUS
 10
20.490507967
 20
-6.7137114542
 30
0.0
 11
0.9134242373
 21
1.8910797574
 31
0.0
 40
0.6016116119
 41
0.6764898932
 42
3.8180825468
  0
ELLIPSE
  5
611
100
AcDbEntity
  8
RACCORDO
100
AcDbEllipse
 62
7
  6
CONTINUOUS
 10
11.236547066
 20
28.1259594266
 30
0.0
 11
-0.1341676082
 21
0.2683327138
 31
0.0
 40
0.6123610127
 41
-2.9771062615
 42
-2.3489982891
  0
ELLIPSE
  5
612
100
AcDbEntity
  8
RACCORDO
100
AcDbEllipse
 62
7
  6
CONTINUOUS
 10
-8.9359418926
 20
17.4831219356
 30
0.0
 11
1.2181247452
 21
0.9560445338
 31
0.0
 40
0.2321910517
 41
0.1093596625
 42
0.1138484791
  0
ELLIPSE
  5
613
100
AcDbEntity
  8
ASSI
100
AcDbEllipse
 62
7
  6
CONTINUOUS
 10
19.7526309801
 20
-2.0146459418
 30
0.0
 11
0.9261626287
 21
1.8847694129
 31
0.0
 40
0.607010042
 41
-2.811164929
 42
-2.4610674593
  0
ELLIPSE
  5
614
100
AcDbEntity
  8
ASSI
100
AcDbEllipse
 62
7
  6
CONTINUOUS
 10
19.7526309801
 20
-6.3447729607
 30
0.0
 11
0.9261626287
 21
1.8847694129
 31
0.0
 40
0.607010042
 41
-2.811164929
 42
-2.4610674593
  0
ELLIPSE
  5
615
100
AcDbEntity
  8
ASSI
100
AcDbEllipse
 62
7
  6
CONTINUOUS
 10
15.4852675113
 20
19.5422214445
 30
0.0
 11
-0.447101003
 21
0.8945282396
 31
0.0
 40
0.6124326778
 41
-1.4698904957
 42
-0.6846185041
  0
ELLIPSE
  5
616
100
AcDbEntity
  8
ASSI
100
AcDbEllipse
 62
7
  6
CONTINUOUS
 10
15.0811849084
 20
19.0142294069
 30
0.0
 11
-0.894612936
 21
1.7887945813
 31
0.0
 40
0.6124635976
 41
-2.2555607096
 42
-1.470288718
  0
ELLIPSE
  5
617
100
AcDbEntity
  8
ASSI
100
AcDbEllipse
 62
7
  6
CONTINUOUS
 10
23.7781875455
 20
10.170659083
 30
0.0
 11
0.9985969906
 21
-0.623107864
 31
0.0
 40
0.084982534
 41
0.0528483921
 42
0.8209229347
  0
ELLIPSE
  5
618
100
AcDbEntity
  8
ASSI
100
AcDbEllipse
 62
7
  6
CONTINUOUS
 10
20.490507967
 20
-2.3835844352
 30
0.0
 11
0.9134242373
 21
1.8910797574
 31
0.0
 40
0.6016116119
 41
0.6764898932
 42
3.8180825468
  0
ELLIPSE
  5
619
100
AcDbEntity
  8
ASSI
100
AcDbEllipse
 62
7
  6
CONTINUOUS
 10
20.490507967
 20
-6.7137114542
 30
0.0
 11
0.9134242373
 21
1.8910797574
 31
0.0
 40
0.6016116119
 41
0.6764898932
 42
3.8180825468
  0
ELLIPSE
  5
61A
100
AcDbEntity
  8
ASSI
100
AcDbEllipse
 62
7
  6
CONTINUOUS
 10
11.236547066
 20
28.1259594266
 30
0.0
 11
-0.1341676082
 21
0.2683327138
 31
0.0
 40
0.6123610127
 41
-2.9771062615
 42
-2.3489982891
  0
ENDSEC
  0
SECTION
  2
OBJECTS
  0
DICTIONARY
  5
C
100
AcDbDictionary
280
0
281
1
  3
ACAD_GROUP
350
D
  3
ACAD_MLINESTYLE
350
17
  3
ACAD_LAYOUT
350
1A
  3
ACAD_PLOTSETTINGS
350
19
  3
ACAD_PLOTSTYLENAME
350
E
  0
DICTIONARY
  5
D
102
{ACAD_REACTORS
330
C
102
}
100
AcDbDictionary
280
0
281
1
  0
ACDBDICTIONARYWDFLT
  5
E
102
{ACAD_REACTORS
330
C
102
}
100
AcDbDictionary
281
1
  3
Normal
350
F
100
AcDbDictionaryWithDefault
340
F
  0
DICTIONARY
  5
17
102
{ACAD_REACTORS
330
C
102
}
100
AcDbDictionary
280
0
281
1
  3
Standard
350
18
  0
DICTIONARY
  5
19
102
{ACAD_REACTORS
330
C
102
}
100
AcDbDictionary
281
1
  0
DICTIONARY
  5
1A
102
{ACAD_REACTORS
330
C
102
}
100
AcDbDictionary
281
1
  3
Model
350
61B
  3
Layout1
350
61C
  0
ACDBPLACEHOLDER
  5
F
102
{ACAD_REACTORS
330
E
102
}
  0
MLINESTYLE
  5
18
102
{ACAD_REACTORS
330
17
102
}
100
AcDbMlineStyle
  2
STANDARD
 70
0
  3

 62
256
 51
90.0
 52
90.0
 71
2
 49
0.5
 62
256
  6
BYLAYER
 49
-0.5
 62
256
  6
BYLAYER
  0
LAYOUT
  5
61B
102
{ACAD_REACTORS
330
1A
102
}
100
AcDbPlotSettings
  1

  2
none_device
  4
ISO_A4_(297.00_x_210.00_MM)
  6

 40
0.0
 41
0.0
 42
0.0
 43
0.0
 44
297.0
 45
210.0
 46
0.0
 47
0.0
 48
0.0
 49
0.0
140
0.0
141
0.0
142
1.0
143
1.0
 70
1024
 72
1
 73
0
 74
0
  7

 75
0
147
1.0
148
0.0
149
0.0
100
AcDbLayout
  1
Model
 70
0
 71
0
 10
0.0
 20
0.0
 11
297.0
 21
210.0
 12
0.0
 22
0.0
 32
0.0
 14
0.0
 24
0.0
 34
0.0
 15
0.0
 25
0.0
 35
0.0
146
0.0
 13
0.0
 23
0.0
 33
0.0
 16
1.0
 26
0.0
 36
0.0
 17
0.0
 27
1.0
 37
0.0
 76
0
330
23A
345
0
346
0
  0
LAYOUT
  5
61C
102
{ACAD_REACTORS
330
1A
102
}
100
AcDbPlotSettings
  1

  2
none_device
  4
ISO_A4_(297.00_x_210.00_MM)
  6

 40
0.0
 41
0.0
 42
0.0
 43
0.0
 44
297.0
 45
210.0
 46
0.0
 47
0.0
 48
0.0
 49
0.0
140
0.0
141
0.0
142
1.0
143
1.0
 70
0
 72
1
 73
0
 74
0
  7

 75
0
147
1.0
148
0.0
149
0.0
100
AcDbLayout
  1
Layout1
 70
0
 71
1
 10
0.0
 20
0.0
 11
297.0
 21
210.0
 12
0.0
 22
0.0
 32
0.0
 14
0.0
 24
0.0
 34
0.0
 15
0.0
 25
0.0
 35
0.0
146
0.0
 13
0.0
 23
0.0
 33
0.0
 16
1.0
 26
0.0
 36
0.0
 17
0.0
 27
1.0
 37
0.0
 76
0
330
23B
345
0
346
0
  0
ENDSEC
  0
EOF
