  0
SECTION
  2
HEADER
  9
$ACADVER
  1
AC1024
  9
$DWGCODEPAGE
  3
ANSI_1252
  9
$EXTMAX
 10
297.0
 20
210.0
 30
0.0
  9
$EXTMIN
 10
0.0
 20
0.0
 30
0.0
  9
$LIMMIN
 10
0.0
 20
0.0
  9
$LIMMAX
 10
297.0
 20
210.0
  9
$VIEWCTR
 10
148.5
 20
105.0
  9
$VIEWSIZE
 40
210.0
  9
$CLAYER
  8
0
  9
$LTSCALE
 40
16.335
  9
$CELTYPE
  6
BYLAYER
  9
$DIMSCALE
 40
1.0
  9
$DIMASZ
 40
3.0
  9
$DIMEXO
 40
0.5
  9
$DIMDLI
 40
11.286
  9
$DIMEXE
 40
1.5
  9
$DIMCEN
 40
2.673
  9
$DIMLFAC
 40
1.0
  9
$DIMBLK
  1
_FILLED
  9
$DIMALT
 70
0
  9
$DIMALTF
 40
0.0393700787
  9
$DIMTXT
 40
3.0
  9
$DIMTOL
 70
1
  9
$DIMLIM
 70
0
  9
$DIMTFAC
 40
1.0
  9
$DIMTP
 40
0.01
  9
$DIMTM
 40
0.01
  9
$DIMGAP
 40
0.625
  9
$DIMDSEP
 70
44
  9
$AUNITS
 70
0
  9
$PDMODE
 70
3
  9
$PDSIZE
 40
3.0
  9
$HANDSEED
  5
5BB
  9
$TILEMODE
 70
1
  9
$MEASUREMENT
 70
1
  9
$INSUNITS
 70
4
  0
ENDSEC
  0
SECTION
  2
CLASSES
  0
CLASS
  1
ACDBDICTIONARYWDFLT
  2
AcDbDictionaryWithDefault
  3
AutoCAD 2000
 90
0
 91
1
280
0
281
0
  0
CLASS
  1
ACDBPLACEHOLDER
  2
AcDbPlaceHolder
  3
AutoCAD 2000
 90
0
 91
1
280
0
281
0
  0
CLASS
  1
LAYOUT
  2
AcDbLayout
  3
AutoCAD 2000
 90
0
 91
0
280
0
281
0
  0
ENDSEC
  0
SECTION
  2
TABLES
  0
TABLE
  2
VPORT
  5
8
100
AcDbSymbolTable
 70
2
  0
VPORT
  5
1F4
100
AcDbSymbolTableRecord
100
AcDbViewportTableRecord
  2
*ACTIVE
 70
0
 10
0.0
 20
0.0
 11
1.0
 21
1.0
 12
148.5
 22
105.0
 13
0.0
 23
0.0
 14
1.0
 24
1.0
 15
0.0
 25
0.0
 16
0.0
 26
0.0
 36
1.0
 17
0.0
 27
0.0
 37
0.0
 40
210.0
 41
1.4142857143
 42
50.0
 43
0.0
 44
0.0
 50
0.0
 51
0.0
 71
0
 72
100
 73
1
 74
1
 75
0
 76
0
 77
0
 78
0
  0
ENDTAB
  0
TABLE
  2
LTYPE
  5
5
100
AcDbSymbolTable
 70
6
  0
LTYPE
  5
14
100
AcDbSymbolTableRecord
100
AcDbLinetypeTableRecord
  2
BYBLOCK
 70
0
  3

 72
65
 73
0
 40
0.0
  0
LTYPE
  5
15
100
AcDbSymbolTableRecord
100
AcDbLinetypeTableRecord
  2
BYLAYER
 70
0
  3

 72
65
 73
0
 40
0.0
  0
LTYPE
  5
16
100
AcDbSymbolTableRecord
100
AcDbLinetypeTableRecord
  2
CONTINUOUS
 70
64
  3
Solid line
 72
65
 73
0
 40
0.0
  0
LTYPE
  5
1F5
100
AcDbSymbolTableRecord
100
AcDbLinetypeTableRecord
  2
CENTER
 70
64
  3
____ _ ____ _ ____ _ ____ _ ____ _ ____ _ ____
 72
65
 73
4
 40
0.6
 49
0.375
 74
0
 49
-0.075
 74
0
 49
0.075
 74
0
 49
-0.075
 74
0
  0
LTYPE
  5
1F6
100
AcDbSymbolTableRecord
100
AcDbLinetypeTableRecord
  2
HIDDEN
 70
64
  3
- - - - - - - - - - - - - - - - - - - -
 72
65
 73
2
 40
0.2
 49
0.1
 74
0
 49
-0.1
 74
0
  0
LTYPE
  5
1F7
100
AcDbSymbolTableRecord
100
AcDbLinetypeTableRecord
  2
PHANTOM
 70
64
  3
_____ _ _ _____ _ _ _____ _ _ _____
 72
65
 73
6
 40
0.8
 49
0.45
 74
0
 49
-0.05
 74
0
 49
0.1
 74
0
 49
-0.05
 74
0
 49
0.1
 74
0
 49
-0.05
 74
0
  0
LTYPE
  5
1F8
100
AcDbSymbolTableRecord
100
AcDbLinetypeTableRecord
  2
DOT
 70
64
  3
. . . . . . . . . . . . . . . . . . . .
 72
65
 73
2
 40
0.2
 49
0.1
 74
0
 49
-0.1
 74
0
  0
LTYPE
  5
1F9
100
AcDbSymbolTableRecord
100
AcDbLinetypeTableRecord
  2
DASHED
 70
64
  3
- - - - - - - - - - - - - - - - - - - -
 72
65
 73
2
 40
0.2
 49
0.1
 74
0
 49
-0.1
 74
0
  0
ENDTAB
  0
TABLE
  2
LAYER
  5
2
100
AcDbSymbolTable
 70
36
  0
LAYER
  5
10
100
AcDbSymbolTableRecord
100
AcDbLayerTableRecord
  2
0
 70
0
 62
7
  6
CONTINUOUS
370
-3
390
F
  0
LAYER
  5
1FA
100
AcDbSymbolTableRecord
100
AcDbLayerTableRecord
  2
DEFAULT_1
 70
0
 62
7
  6
CENTER
370
-3
390
F
  0
LAYER
  5
1FB
100
AcDbSymbolTableRecord
100
AcDbLayerTableRecord
  2
DEFAULT_2
 70
0
 62
7
  6
HIDDEN
370
-3
390
F
  0
LAYER
  5
1FC
100
AcDbSymbolTableRecord
100
AcDbLayerTableRecord
  2
DEFAULT_3
 70
0
 62
7
  6
PHANTOM
370
-3
390
F
  0
LAYER
  5
1FD
100
AcDbSymbolTableRecord
100
AcDbLayerTableRecord
  2
ASSI
 70
0
 62
7
  6
CONTINUOUS
370
-3
390
F
  0
LAYER
  5
1FE
100
AcDbSymbolTableRecord
100
AcDbLayerTableRecord
  2
COORDINATE
 70
0
 62
7
  6
CONTINUOUS
370
-3
390
F
  0
LAYER
  5
1FF
100
AcDbSymbolTableRecord
100
AcDbLayerTableRecord
  2
COPY_PUBLISH
 70
0
 62
7
  6
CONTINUOUS
370
-3
390
F
  0
LAYER
  5
200
100
AcDbSymbolTableRecord
100
AcDbLayerTableRecord
  2
COSMETIC
 70
0
 62
7
  6
CONTINUOUS
370
-3
390
F
  0
LAYER
  5
201
100
AcDbSymbolTableRecord
100
AcDbLayerTableRecord
  2
COSMETICI
 70
0
 62
7
  6
CONTINUOUS
370
-3
390
F
  0
LAYER
  5
202
100
AcDbSymbolTableRecord
100
AcDbLayerTableRecord
  2
CURVE
 70
0
 62
7
  6
CONTINUOUS
370
-3
390
F
  0
LAYER
  5
203
100
AcDbSymbolTableRecord
100
AcDbLayerTableRecord
  2
DRAFT
 70
0
 62
7
  6
CONTINUOUS
370
-3
390
F
  0
LAYER
  5
204
100
AcDbSymbolTableRecord
100
AcDbLayerTableRecord
  2
IMPORT_IGES
 70
0
 62
7
  6
CONTINUOUS
370
-3
390
F
  0
LAYER
  5
205
100
AcDbSymbolTableRecord
100
AcDbLayerTableRecord
  2
INTF_1
 70
0
 62
7
  6
CONTINUOUS
370
-3
390
F
  0
LAYER
  5
206
100
AcDbSymbolTableRecord
100
AcDbLayerTableRecord
  2
INTF_2
 70
0
 62
7
  6
CONTINUOUS
370
-3
390
F
  0
LAYER
  5
207
100
AcDbSymbolTableRecord
100
AcDbLayerTableRecord
  2
NOTE
 70
0
 62
7
  6
CONTINUOUS
370
-3
390
F
  0
LAYER
  5
208
100
AcDbSymbolTableRecord
100
AcDbLayerTableRecord
  2
PIANI
 70
0
 62
7
  6
CONTINUOUS
370
-3
390
F
  0
LAYER
  5
209
100
AcDbSymbolTableRecord
100
AcDbLayerTableRecord
  2
PUNTI
 70
0
 62
7
  6
CONTINUOUS
370
-3
390
F
  0
LAYER
  5
20A
100
AcDbSymbolTableRecord
100
AcDbLayerTableRecord
  2
RACCORDO
 70
0
 62
7
  6
CONTINUOUS
370
-3
390
F
  0
LAYER
  5
20B
100
AcDbSymbolTableRecord
100
AcDbLayerTableRecord
  2
SIMBOLI
 70
0
 62
7
  6
CONTINUOUS
370
-3
390
F
  0
LAYER
  5
20C
100
AcDbSymbolTableRecord
100
AcDbLayerTableRecord
  2
SMUSSO
 70
0
 62
7
  6
CONTINUOUS
370
-3
390
F
  0
LAYER
  5
20D
100
AcDbSymbolTableRecord
100
AcDbLayerTableRecord
  2
SNAPLINE
 70
0
 62
7
  6
CONTINUOUS
370
-3
390
F
  0
LAYER
  5
20E
100
AcDbSymbolTableRecord
100
AcDbLayerTableRecord
  2
SUPERFICI
 70
0
 62
7
  6
CONTINUOUS
370
-3
390
F
  0
LAYER
  5
20F
100
AcDbSymbolTableRecord
100
AcDbLayerTableRecord
  2
TRASH
 70
0
 62
7
  6
CONTINUOUS
370
-3
390
F
  0
LAYER
  5
210
100
AcDbSymbolTableRecord
100
AcDbLayerTableRecord
  2
XSEC_DATUMS
 70
0
 62
7
  6
CONTINUOUS
370
-3
390
F
  0
ENDTAB
  0
TABLE
  2
STYLE
  5
3
100
AcDbSymbolTable
 70
1
  0
STYLE
  5
11
100
AcDbSymbolTableRecord
100
AcDbTextStyleTableRecord
  2
STANDARD
 70
0
 40
0.0
 41
0.8
 50
0.0
 71
0
 42
0.2
  3
txt
  4

  0
STYLE
  5
211
100
AcDbSymbolTableRecord
100
AcDbTextStyleTableRecord
  2
TEXTSTYLE_1
 70
0
 40
0.0
 41
0.8
 50
0.0
 71
0
 42
0.2
  3
gdt
  4

  0
ENDTAB
  0
TABLE
  2
VIEW
  5
6
100
AcDbSymbolTable
 70
0
  0
ENDTAB
  0
TABLE
  2
UCS
  5
7
100
AcDbSymbolTable
 70
0
  0
ENDTAB
  0
TABLE
  2
APPID
  5
9
100
AcDbSymbolTable
 70
1
  0
APPID
  5
212
100
AcDbSymbolTableRecord
100
AcDbRegAppTableRecord
  2
ACAD
 70
0
  0
ENDTAB
  0
TABLE
  2
BLOCK_RECORD
  5
1
100
AcDbSymbolTable
 70
0
  0
BLOCK_RECORD
  5
213
100
AcDbSymbolTableRecord
100
AcDbBlockTableRecord
  2
*Model_Space
  0
BLOCK_RECORD
  5
214
100
AcDbSymbolTableRecord
100
AcDbBlockTableRecord
  2
*Paper_Space
  0
BLOCK_RECORD
  5
215
100
AcDbSymbolTableRecord
100
AcDbBlockTableRecord
  2
_FILLED
  0
ENDTAB
  0
TABLE
  2
DIMSTYLE
  5
A
100
AcDbSymbolTable
 70
1
100
AcDbDimStyleTable
 71
0
  0
DIMSTYLE
105
216
100
AcDbSymbolTableRecord
100
AcDbDimStyleTableRecord
  2
STANDARD
 70
0
  3

  4

 40
1.0
 41
3.0
 42
0.5
 43
0.38
 44
1.5
 45
0.0
 46
0.0
 47
0.01
 48
0.01
140
3.0
141
0.09
142
0.0
143
25.4
144
1.0
145
0.0
146
1.0
147
0.625
 71
1
 72
0
 73
0
 74
0
 75
0
 76
0
 77
1
 78
8
 79
2
170
0
171
1
172
0
173
0
174
0
175
0
176
0
177
0
178
0
270
2
179
2
271
2
272
2
273
2
274
2
275
0
280
0
281
0
282
0
283
1
284
8
285
0
286
0
287
3
288
0
340
11
278
44
341
215
342
215
343
215
344
215
  0
ENDTAB
  0
ENDSEC
  0
SECTION
  2
BLOCKS
  0
BLOCK
  5
20
100
AcDbEntity
  8
0
100
AcDbBlockBegin
  2
*Model_Space
 70
0
 10
0.0
 20
0.0
 30
0.0
  3
*Model_Space
  1

  0
ENDBLK
  5
21
100
AcDbEntity
  8
0
100
AcDbBlockEnd
  0
BLOCK
  5
1C
100
AcDbEntity
  8
0
100
AcDbBlockBegin
  2
*Paper_Space
 70
0
 10
0.0
 20
0.0
 30
0.0
  3
*Paper_Space
  1

  0
ENDBLK
  5
1D
100
AcDbEntity
  8
0
100
AcDbBlockEnd
  0
BLOCK
  5
217
100
AcDbEntity
  8
0
100
AcDbBlockBegin
  2
_FILLED
 70
64
 10
0.0
 20
0.0
  3
_FILLED
  1

  0
SOLID
  5
218
100
AcDbEntity
  8
0
  6
BYBLOCK
 62
0
100
AcDbTrace
 10
0.0
 20
0.0
 11
-1.0
 21
0.3166666667
 12
-1.0
 22
-0.3166666667
 13
-1.0
 23
-0.3166666667
  0
ENDBLK
  5
219
100
AcDbEntity
  8
0
  6
BYBLOCK
 62
0
100
AcDbBlockEnd
  0
ENDSEC
  0
SECTION
  2
ENTITIES
  0
LWPOLYLINE
  5
21A
100
AcDbEntity
  8
0
100
AcDbPolyline
 62
250
  6
CONTINUOUS
 90
3
 70
0
 10
-19.5954519246
 20
40.1935594322
 10
-19.716557374
 20
40.0997368798
 10
-19.8297867443
 20
39.9947591058
  0
LWPOLYLINE
  5
21B
100
AcDbEntity
  8
0
100
AcDbPolyline
 62
7
  6
CONTINUOUS
 90
19
 70
0
 10
-19.8386849242
 20
39.9183774364
 10
-19.9660788401
 20
39.828085481
 10
-20.0891633894
 20
39.7297119688
 10
-20.2074832193
 20
39.6233796431
 10
-20.3204097489
 20
39.5094459887
 10
-20.4277295705
 20
39.3879237685
 10
-20.5295551712
 20
39.2583421156
 10
-20.6254947393
 20
39.1207107159
 10
-20.7150102544
 20
38.9752892382
 10
-20.7979005635
 20
38.8218070799
 10
-20.8737961945
 20
38.6601779439
 10
-20.9421486667
 20
38.4907204181
 10
-21.0025115105
 20
38.3136569429
 10
-21.0546122968
 20
38.1286765006
 10
-21.0979280385
 20
37.9363037213
 10
-21.1318951262
 20
37.7380190057
 10
-21.1563094087
 20
37.5344433328
 10
-21.1710895166
 20
37.3252990569
 10
-21.1760575883
 20
37.1107517412
  0
LINE
  5
21C
100
AcDbEntity
  8
0
100
AcDbLine
 62
7
  6
CONTINUOUS
 10
-19.57420453
 20
40.0946080144
 11
-19.8386849242
 21
39.9183774364
  0
LWPOLYLINE
  5
21D
100
AcDbEntity
  8
0
100
AcDbPolyline
 62
7
  6
CONTINUOUS
 90
18
 70
0
 10
-19.9552956442
 20
41.1200836807
 10
-20.0259760362
 20
41.0773311135
 10
-20.1619178647
 20
40.9832512531
 10
-20.2902207803
 20
40.8779029552
 10
-20.4111255964
 20
40.7612214788
 10
-20.5240723839
 20
40.6337528816
 10
-20.6291566271
 20
40.4952511879
 10
-20.7262828415
 20
40.3459623734
 10
-20.814604645
 20
40.1871704229
 10
-20.8939605634
 20
40.0189897394
 10
-20.9645120709
 20
39.8413059199
 10
-21.0258972067
 20
39.6550597409
 10
-21.0781113047
 20
39.4600416705
 10
-21.1211590311
 20
39.2564612405
 10
-21.1546924237
 20
39.0458878228
 10
-21.1785954952
 20
38.8288445414
 10
-21.192984233
 20
38.6048082723
 10
-21.197858637
 20
38.3737790155
  0
LINE
  5
21E
100
AcDbEntity
  8
0
100
AcDbLine
 62
7
  6
CONTINUOUS
 10
-19.6725201983
 20
41.2835100197
 11
-19.9553629107
 21
41.1202001823
  0
LINE
  5
21F
100
AcDbEntity
  8
0
100
AcDbLine
 62
250
  6
CONTINUOUS
 10
-16.6723752374
 20
40.9862629536
 11
-16.9552179499
 21
40.8229531163
  0
LWPOLYLINE
  5
220
100
AcDbEntity
  8
0
100
AcDbPolyline
 62
250
  6
CONTINUOUS
 90
3
 70
0
 10
-19.6176947101
 20
40.0420885584
 10
-19.7493891557
 20
39.9738251203
 10
-19.8386849242
 20
39.9183774364
  0
LWPOLYLINE
  5
221
100
AcDbEntity
  8
0
100
AcDbPolyline
 62
7
  6
CONTINUOUS
 90
4
 70
0
 10
-19.5777855515
 20
41.2891746229
 10
-19.7331804509
 20
41.2307510173
 10
-19.8826361083
 20
41.1600777953
 10
-19.9552956442
 20
41.1200836807
  0
LINE
  5
222
100
AcDbEntity
  8
0
100
AcDbLine
 62
250
  6
CONTINUOUS
 10
26.5573143259
 20
-40.6486395613
 11
26.7106270649
 21
-40.6155840722
  0
LINE
  5
223
100
AcDbEntity
  8
0
100
AcDbLine
 62
250
  6
CONTINUOUS
 10
26.4753170251
 20
-40.6592902126
 11
26.5573143259
 21
-40.6486395613
  0
LINE
  5
224
100
AcDbEntity
  8
0
100
AcDbLine
 62
250
  6
CONTINUOUS
 10
-19.8297867443
 20
39.9947591058
 11
-19.9350777327
 21
39.8785281643
  0
LINE
  5
225
100
AcDbEntity
  8
0
100
AcDbLine
 62
250
  6
CONTINUOUS
 10
-17.2972720377
 20
39.7307951808
 11
-17.0222279171
 21
39.9062460477
  0
LWPOLYLINE
  5
226
100
AcDbEntity
  8
0
100
AcDbPolyline
 62
250
  6
CONTINUOUS
 90
18
 70
0
 10
-19.9827297263
 20
37.9929593271
 10
-20.0615982948
 20
37.9474302096
 10
-20.1364646675
 20
37.8955827694
 10
-20.2073036319
 20
37.8373726797
 10
-20.2741404006
 20
37.7728442672
 10
-20.3365191101
 20
37.7024373255
 10
-20.3944083311
 20
37.6261125656
 10
-20.4478394931
 20
37.5439092765
 10
-20.4964510211
 20
37.4563851185
 10
-20.540209884
 20
37.3635067878
 10
-20.5791491129
 20
37.2653075883
 10
-20.6130062266
 20
37.162445092
 10
-20.6417482157
 20
37.0548104761
 10
-20.6654080896
 20
36.9425125635
 10
-20.6838223942
 20
36.8265353947
 10
-20.6969366448
 20
36.7072069833
 10
-20.7048053261
 20
36.5841993157
 10
-20.7074284382
 20
36.4575123919
  0
LINE
  5
227
100
AcDbEntity
  8
0
100
AcDbLine
 62
250
  6
CONTINUOUS
 10
-19.9350777327
 20
39.8785281643
 11
-19.9855575798
 21
39.8125173854
  0
LWPOLYLINE
  5
228
100
AcDbEntity
  8
0
100
AcDbPolyline
 62
7
  6
CONTINUOUS
 90
18
 70
0
 10
-27.8727880159
 20
18.5417239826
 10
-28.0058527655
 20
18.429737541
 10
-28.1340062504
 20
18.310121476
 10
-28.2566911476
 20
18.1831138073
 10
-28.3734789801
 20
18.0488624749
 10
-28.4837116033
 20
17.9078360954
 10
-28.586598772
 20
17.7608573651
 10
-28.6816760885
 20
17.6085089071
 10
-28.7686836117
 20
17.4511470693
 10
-28.8472952911
 20
17.289305637
 10
-28.917209384
 20
17.1235989286
 10
-28.9782616079
 20
16.95443199
 10
-29.0303667032
 20
16.7819683968
 10
-29.0733840917
 20
16.6064300131
 10
-29.1070599179
 20
16.4285639261
 10
-29.1312140485
 20
16.2492245095
 10
-29.1458046517
 20
16.0686261636
 10
-29.1507545985
 20
15.8852338463
  0
LINE
  5
229
100
AcDbEntity
  8
0
100
AcDbLine
 62
7
  6
CONTINUOUS
 10
-27.8727880159
 20
18.5417239826
 11
-15.2408094387
 21
28.6322622829
  0
LINE
  5
22A
100
AcDbEntity
  8
0
100
AcDbLine
 62
250
  6
CONTINUOUS
 10
-25.9602912154
 20
18.5296789951
 11
-13.4168279426
 21
28.5495104727
  0
LWPOLYLINE
  5
22B
100
AcDbEntity
  8
0
100
AcDbPolyline
 62
250
  6
CONTINUOUS
 90
28
 70
0
 10
0.4670214292
 20
-35.0775588856
 10
0.6027475105
 20
-35.1517316924
 10
0.7453273302
 20
-35.2214869114
 10
0.8943302009
 20
-35.2866137556
 10
1.0493060635
 20
-35.3469154324
 10
1.209786727
 20
-35.4022096912
 10
1.3752872681
 20
-35.4523293873
 10
1.5453085457
 20
-35.497123261
 10
1.71933612
 20
-35.5364556789
 10
1.8968414827
 20
-35.570207288
 10
2.0772853146
 20
-35.5982759282
 10
2.2601252064
 20
-35.6205776081
 10
2.4448147997
 20
-35.63704562
 10
2.6308035134
 20
-35.6476301588
 10
2.8175222672
 20
-35.6522981316
 10
3.0043911232
 20
-35.6510354353
 10
3.1908345325
 20
-35.6438476312
 10
3.3763005457
 20
-35.6307576737
 10
3.5602463092
 20
-35.6118041987
 10
3.7421349598
 20
-35.5870410671
 10
3.9213975288
 20
-35.5565442676
 10
4.097453842
 20
-35.5204140111
 10
4.2698049221
 20
-35.4787546064
 10
4.4379004706
 20
-35.4317010172
 10
4.6011131104
 20
-35.379440155
 10
4.7589258304
 20
-35.3221594827
 10
4.9109219482
 20
-35.2600328565
 10
5.0566623582
 20
-35.1932604346
  0
LINE
  5
22C
100
AcDbEntity
  8
0
100
AcDbLine
 62
7
  6
CONTINUOUS
 10
-27.450836743
 20
-20.1079153037
 11
1.1711023408
 21
-36.6338642135
  0
LINE
  5
22D
100
AcDbEntity
  8
0
100
AcDbLine
 62
250
  6
CONTINUOUS
 10
-28.1549176546
 20
-18.5516099758
 11
0.4670214292
 21
-35.0775588856
  0
LWPOLYLINE
  5
22E
100
AcDbEntity
  8
0
100
AcDbPolyline
 62
250
  6
CONTINUOUS
 90
16
 70
0
 10
-28.1549176546
 20
-18.5516099758
 10
-28.2833804458
 20
-18.4732434387
 10
-28.4041922412
 20
-18.390919641
 10
-28.516987971
 20
-18.3048872564
 10
-28.6214267994
 20
-18.2154061466
 10
-28.7171930842
 20
-18.1227466366
 10
-28.8039973504
 20
-18.0271887049
 10
-28.8815776277
 20
-17.9290205421
 10
-28.9496989991
 20
-17.828539185
 10
-29.0081547449
 20
-17.7260497968
 10
-29.0567679293
 20
-17.6218637766
 10
-29.095393086
 20
-17.5162943022
 10
-29.1239146813
 20
-17.4096568357
 10
-29.1422464567
 20
-17.3022692763
 10
-29.1503310979
 20
-17.1944602033
 10
-29.1507545976
 20
-17.16352379
  0
LWPOLYLINE
  5
22F
100
AcDbEntity
  8
0
100
AcDbPolyline
 62
250
  6
CONTINUOUS
 90
3
 70
0
 10
-27.5666910109
 20
-20.0312113893
 10
-27.4773739566
 20
-20.092107013
 10
-27.450836743
 20
-20.1079153037
  0
LWPOLYLINE
  5
230
100
AcDbEntity
  8
0
100
AcDbPolyline
 62
250
  6
CONTINUOUS
 90
14
 70
0
 10
-28.1549176546
 20
-18.5516099758
 10
-28.1512860105
 20
-18.7020377139
 10
-28.1404020005
 20
-18.8478177463
 10
-28.1222984331
 20
-18.9885095998
 10
-28.0970299213
 20
-19.1236882007
 10
-28.0646727373
 20
-19.2529450528
 10
-28.0253246006
 20
-19.3758894881
 10
-27.9791040951
 20
-19.4921505605
 10
-27.9261509866
 20
-19.6013763461
 10
-27.866626173
 20
-19.7032352795
 10
-27.8007108465
 20
-19.7974184626
 10
-27.7286034776
 20
-19.8836433562
 10
-27.6505194788
 20
-19.9616522055
 10
-27.5666910109
 20
-20.0312113893
  0
LWPOLYLINE
  5
231
100
AcDbEntity
  8
0
100
AcDbPolyline
 62
250
  6
CONTINUOUS
 90
49
 70
0
 10
-27.3501278884
 20
-14.250868791
 10
-27.348021776
 20
-14.3897326713
 10
-27.3423792579
 20
-14.5284987307
 10
-27.3332003343
 20
-14.6671669691
 10
-27.3204002439
 20
-14.8057537488
 10
-27.3040637479
 20
-14.9442427075
 10
-27.2844451297
 20
-15.0825847589
 10
-27.2615873353
 20
-15.2207333105
 10
-27.2354474187
 20
-15.3587349547
 10
-27.2061508245
 20
-15.4966803822
 10
-27.1737404641
 20
-15.6345498991
 10
-27.1381734262
 20
-15.7723631994
 10
-27.099446422
 20
-15.9102700548
 10
-27.0575534144
 20
-16.0483759739
 10
-27.0125004405
 20
-16.1865754482
 10
-26.9643023236
 20
-16.3247017247
 10
-26.9128994946
 20
-16.4628959036
 10
-26.8583515225
 20
-16.6010168847
 10
-26.8008519366
 20
-16.7384746133
 10
-26.7404034143
 20
-16.8752140304
 10
-26.6770032782
 20
-17.011290195
 10
-26.610837026
 20
-17.1462782298
 10
-26.5419044211
 20
-17.2801563053
 10
-26.4702057002
 20
-17.4129462509
 10
-26.3959270706
 20
-17.5442886781
 10
-26.3190065023
 20
-17.6742540566
 10
-26.2395060253
 20
-17.8027719166
 10
-26.1577979376
 20
-17.9292714602
 10
-26.0738778499
 20
-18.0537119433
 10
-25.9877501514
 20
-18.17613411
 10
-25.8998003083
 20
-18.2960893948
 10
-25.8100660801
 20
-18.4135038731
 10
-25.7185097073
 20
-18.5284514694
 10
-25.6254033767
 20
-18.6407053914
 10
-25.5308374111
 20
-18.7501743587
 10
-25.4347214877
 20
-18.8569496518
 10
-25.3370568255
 20
-18.9610783197
 10
-25.2379073128
 20
-19.0625427939
 10
-25.1372090613
 20
-19.161360643
 10
-25.0347716239
 20
-19.2576316216
 10
-24.9305938282
 20
-19.3514137497
 10
-24.8246768467
 20
-19.4426490074
 10
-24.71683375
 20
-19.5312630889
 10
-24.6070444553
 20
-19.6173225921
 10
-24.4953290455
 20
-19.7007609192
 10
-24.3815608398
 20
-19.7813039709
 10
-24.2656976112
 20
-19.8588603809
 10
-24.1477815868
 20
-19.9335215157
 10
-24.0278127664
 20
-20.005287375
  0
LINE
  5
232
100
AcDbEntity
  8
0
100
AcDbLine
 62
250
  6
CONTINUOUS
 10
-29.1507545976
 20
-17.16352379
 11
-29.1507545985
 21
-17.1634763585
  0
LINE
  5
233
100
AcDbEntity
  8
0
100
AcDbLine
 62
7
  6
CONTINUOUS
 10
-29.1507545985
 20
15.8852273845
 11
-29.1507545985
 21
-17.1634763585
  0
LINE
  5
234
100
AcDbEntity
  8
0
100
AcDbLine
 62
250
  6
CONTINUOUS
 10
-28.1549176546
 20
14.4970937672
 11
-28.1549176546
 21
-18.5516099758
  0
LINE
  5
235
100
AcDbEntity
  8
0
100
AcDbLine
 62
250
  6
CONTINUOUS
 10
-27.3501278884
 20
9.2670015332
 11
-27.3501278884
 21
-14.250868791
  0
LWPOLYLINE
  5
236
100
AcDbEntity
  8
0
100
AcDbPolyline
 62
250
  6
CONTINUOUS
 90
28
 70
0
 10
-28.1549176546
 20
14.4970937672
 10
-28.1512860106
 20
14.6517152345
 10
-28.1404020013
 20
14.8100638427
 10
-28.1222984355
 20
14.9716612322
 10
-28.0970299279
 20
15.1360192575
 10
-28.0646727506
 20
15.3026413507
 10
-28.0253246188
 20
15.4710240179
 10
-27.9791041117
 20
15.6406593864
 10
-27.9261509957
 20
15.8110341238
 10
-27.866626173
 20
15.9816308476
 10
-27.8007108379
 20
16.1519314187
 10
-27.7286034596
 20
16.3214241137
 10
-27.6505194519
 20
16.4896024226
 10
-27.5666909766
 20
16.6559646298
 10
-27.4773739163
 20
16.8200013549
 10
-27.3828460272
 20
16.9812033075
 10
-27.2833998996
 20
17.1390748283
 10
-27.1793313866
 20
17.2931493898
 10
-27.0709453736
 20
17.4429761805
 10
-26.9585569369
 20
17.5881171856
 10
-26.8425163626
 20
17.7281176546
 10
-26.7232005101
 20
17.8625252464
 10
-26.600949191
 20
17.9909599827
 10
-26.4761544335
 20
18.1130127537
 10
-26.3492917936
 20
18.2282336648
 10
-26.2207821169
 20
18.336268683
 10
-26.0909842961
 20
18.4368438651
 10
-25.9602912152
 20
18.529678995
  0
LWPOLYLINE
  5
237
100
AcDbEntity
  8
0
100
AcDbPolyline
 62
250
  6
CONTINUOUS
 90
14
 70
0
 10
-19.4208737945
 20
25.2931892136
 10
-19.3928143826
 20
25.3553565487
 10
-19.3546999139
 20
25.4258687938
 10
-19.3125062742
 20
25.4913553005
 10
-19.2662408863
 20
25.5519303325
 10
-19.2162871282
 20
25.6071882109
 10
-19.162649535
 20
25.6570910794
 10
-19.1053235717
 20
25.7016767943
 10
-19.0446790105
 20
25.7406532467
 10
-18.9806949162
 20
25.7740134197
 10
-18.913392224
 20
25.80176433
 10
-18.8432035117
 20
25.8236349193
 10
-18.770070935
 20
25.8395966769
 10
-18.7302320955
 20
25.8448800253
  0
LINE
  5
238
100
AcDbEntity
  8
0
100
AcDbLine
 62
7
  6
CONTINUOUS
 10
-4.1108745733
 20
29.2645873729
 11
-6.3479540242
 21
27.7739596623
  0
LWPOLYLINE
  5
239
100
AcDbEntity
  8
0
100
AcDbPolyline
 62
250
  6
CONTINUOUS
 90
17
 70
0
 10
-6.3479540242
 20
27.7739596623
 10
-6.3328643805
 20
27.7838790267
 10
-6.2155389692
 20
27.8523471289
 10
-6.0919782068
 20
27.9096542212
 10
-5.9625470222
 20
27.9556310494
 10
-5.8276276875
 20
27.9901418187
 10
-5.6876186923
 20
28.0130845968
 10
-5.5429335572
 20
28.0243916194
 10
-5.3939996052
 20
28.0240294888
 10
-5.2412567215
 20
28.011999272
 10
-5.0851560592
 20
27.9883365032
 10
-4.9261586737
 20
27.9531110763
 10
-4.76473416
 20
27.9064270331
 10
-4.6013592896
 20
27.8484222594
 10
-4.4365165938
 20
27.779268077
 10
-4.2706929385
 20
27.6991687374
 10
-4.1043780871
 20
27.6083608187
  0
LWPOLYLINE
  5
23A
100
AcDbEntity
  8
0
100
AcDbPolyline
 62
250
  6
CONTINUOUS
 90
19
 70
0
 10
-4.1108703428
 20
29.2645901918
 10
-4.0187342892
 20
29.322964981
 10
-3.9104818947
 20
29.3849479418
 10
-3.7903614159
 20
29.4470327108
 10
-3.6578867118
 20
29.5087961574
 10
-3.5131780055
 20
29.5694983895
 10
-3.3559922307
 20
29.6286599513
 10
-3.1863941963
 20
29.6856585903
 10
-3.0041194481
 20
29.7399376843
 10
-2.8084452465
 20
29.7910413699
 10
-2.5994674047
 20
29.8382575136
 10
-2.3770050265
 20
29.8808854988
 10
-2.1398876285
 20
29.918224505
 10
-1.8882558518
 20
29.9494338708
 10
-1.622061007
 20
29.9735535907
 10
-1.3398199829
 20
29.9892403114
 10
-1.0411577372
 20
29.9951160247
 10
-0.7268910446
 20
29.9901011389
 10
-0.3974199673
 20
29.9730324002
  0
LWPOLYLINE
  5
23B
100
AcDbEntity
  8
0
100
AcDbPolyline
 62
250
  6
CONTINUOUS
 90
22
 70
0
 10
-4.2939309604
 20
29.680163994
 10
-4.2210651739
 20
29.7209018059
 10
-4.1386286739
 20
29.761533431
 10
-4.0465332306
 20
29.8017866328
 10
-3.9451064824
 20
29.841338813
 10
-3.8339211801
 20
29.8798902364
 10
-3.7116850874
 20
29.9171917637
 10
-3.577969455
 20
29.952963194
 10
-3.432993568
 20
29.9867327341
 10
-3.2763701958
 20
30.0179287879
 10
-3.1082668115
 20
30.0459822797
 10
-2.9285143733
 20
30.0704691382
 10
-2.7362008067
 20
30.0909517955
 10
-2.5315155342
 20
30.1067386458
 10
-2.3143874125
 20
30.1172131093
 10
-2.0834287411
 20
30.1218664536
 10
-1.8389129275
 20
30.1197207701
 10
-1.5808894298
 20
30.1099159965
 10
-1.3075571297
 20
30.0917311178
 10
-1.0185235976
 20
30.0639015717
 10
-0.7149376506
 20
30.0248490258
 10
-0.3974199673
 20
29.9730324002
  0
LWPOLYLINE
  5
23C
100
AcDbEntity
  8
0
100
AcDbPolyline
 62
250
  6
CONTINUOUS
 90
8
 70
0
 10
20.2492968387
 20
-26.1849140328
 10
20.225664795
 20
-26.1871498205
 10
20.1856958731
 20
-26.1929155864
 10
20.1466847188
 20
-26.2005616414
 10
20.1088961763
 20
-26.210036077
 10
20.0725867897
 20
-26.2212745716
 10
20.0380030611
 20
-26.234200828
 10
20.0053797771
 20
-26.2487270906
  0
LWPOLYLINE
  5
23D
100
AcDbEntity
  8
0
100
AcDbPolyline
 62
7
  6
CONTINUOUS
 90
7
 70
0
 10
22.7219702012
 20
-27.4415882691
 10
22.8065363222
 20
-27.4420428803
 10
22.8892477743
 20
-27.4361409898
 10
22.9698040392
 20
-27.4240218483
 10
23.0475960241
 20
-27.4059431193
 10
23.1222218244
 20
-27.3822348157
 10
23.2001682799
 20
-27.3501416271
  0
LWPOLYLINE
  5
23E
100
AcDbEntity
  8
0
100
AcDbPolyline
 62
250
  6
CONTINUOUS
 90
49
 70
0
 10
-3.6600834589
 20
-31.7653590096
 10
-3.5406829234
 20
-31.8318570129
 10
-3.4231544677
 20
-31.8931820807
 10
-3.3074980917
 20
-31.9493342129
 10
-3.1937424018
 20
-32.0001971612
 10
-3.0818587916
 20
-32.0458871739
 10
-2.9717614426
 20
-32.0867529961
 10
-2.8634690053
 20
-32.1228335239
 10
-2.7569628291
 20
-32.1540898611
 10
-2.652101144
 20
-32.180754064
 10
-2.5488818268
 20
-32.2028781864
 10
-2.4473070005
 20
-32.2204101744
 10
-2.3472412648
 20
-32.2334259228
 10
-2.2485983303
 20
-32.2419709453
 10
-2.1514644863
 20
-32.2459997282
 10
-2.0559632005
 20
-32.2454516251
 10
-1.9619967644
 20
-32.2403120869
 10
-1.8696628866
 20
-32.2305956627
 10
-1.7793781594
 20
-32.2162853531
 10
-1.691187939
 20
-32.1973565312
 10
-1.6050468693
 20
-32.1738338238
 10
-1.5212354751
 20
-32.1457741122
 10
-1.4397747228
 20
-32.1131661677
 10
-1.3606436461
 20
-32.0760212189
 10
-1.2840598706
 20
-32.0344298329
 10
-1.209994075
 20
-31.9883383792
 10
-1.1384755806
 20
-31.9378004881
 10
-1.0698099778
 20
-31.8830676174
 10
-1.0040338279
 20
-31.8241125672
 10
-0.9411105695
 20
-31.7609625373
 10
-0.8812361089
 20
-31.6939505852
 10
-0.8244556062
 20
-31.6230940095
 10
-0.7707239013
 20
-31.5483755115
 10
-0.7201014198
 20
-31.4700762534
 10
-0.672621527
 20
-31.3882786698
 10
-0.6282508576
 20
-31.302900326
 10
-0.5869497416
 20
-31.2139750798
 10
-0.5487027693
 20
-31.121587041
 10
-0.5135253504
 20
-31.0256520998
 10
-0.4814240436
 20
-30.9259517842
 10
-0.4523498758
 20
-30.8225148658
 10
-0.42635182
 20
-30.715312573
 10
-0.4035833545
 20
-30.6040401196
 10
-0.3839968449
 20
-30.4887016802
 10
-0.3676399254
 20
-30.3692930802
 10
-0.3548089769
 20
-30.2454970084
 10
-0.3456027927
 20
-30.1172076946
 10
-0.3399225794
 20
-29.984530909
 10
-0.337768337
 20
-29.8474666516
  0
LINE
  5
23F
100
AcDbEntity
  8
0
100
AcDbLine
 62
250
  6
CONTINUOUS
 10
-24.0278127664
 20
-20.005287375
 11
-3.6600834589
 21
-31.7653590096
  0
LINE
  5
240
100
AcDbEntity
  8
0
100
AcDbLine
 62
250
  6
CONTINUOUS
 10
-23.5090627424
 20
8.8759454507
 11
-23.5090627424
 21
-14.6419227981
  0
LWPOLYLINE
  5
241
100
AcDbEntity
  8
0
100
AcDbPolyline
 62
7
  6
CONTINUOUS
 90
33
 70
0
 10
-6.3479540239
 20
27.7739596625
 10
-6.4627489872
 20
27.6907097388
 10
-6.5722295948
 20
27.5972466772
 10
-6.6758286829
 20
27.4936339422
 10
-6.7729927382
 20
27.3799871644
 10
-6.8632143824
 20
27.2564393487
 10
-6.9460520888
 20
27.1230868973
 10
-7.0211876711
 20
26.9798079469
 10
-7.0880395853
 20
26.8269943869
 10
-7.1459608687
 20
26.6655725803
 10
-7.1947410006
 20
26.4956488462
 10
-7.2340870398
 20
26.3176223961
 10
-7.2635926902
 20
26.1331010233
 10
-7.2832301473
 20
25.9426646345
 10
-7.2930186426
 20
25.7465712639
 10
-7.2929748113
 20
25.5462079611
 10
-7.283251546
 20
25.3423130259
 10
-7.2639964557
 20
25.1351814067
 10
-7.2354162791
 20
24.9256983546
 10
-7.1977437458
 20
24.7145420674
 10
-7.1511800817
 20
24.5021348109
 10
-7.0959598695
 20
24.2890588747
 10
-7.0323404832
 20
24.0759201584
 10
-6.9605634994
 20
23.8632256577
 10
-6.8808623683
 20
23.651449437
 10
-6.7935121274
 20
23.4411595678
 10
-6.6987889134
 20
23.232892062
 10
-6.5969346088
 20
23.0270924929
 10
-6.4882455469
 20
22.8243068726
 10
-6.3730279153
 20
22.62507102
 10
-6.2515393136
 20
22.4298209938
 10
-6.1240782618
 20
22.2390537409
 10
-5.9909940675
 20
22.0533204543
  0
LWPOLYLINE
  5
242
100
AcDbEntity
  8
0
100
AcDbPolyline
 62
250
  6
CONTINUOUS
 90
16
 70
0
 10
-4.1043780871
 20
27.6083608187
 10
-4.1399631934
 20
27.583568308
 10
-4.1749945086
 20
27.5549650028
 10
-4.2091133615
 20
27.5228437603
 10
-4.2419704235
 20
27.4875334565
 10
-4.2732292849
 20
27.4493956189
 10
-4.3025698993
 20
27.4088207248
 10
-4.3296918602
 20
27.3662242037
 10
-4.3543174774
 20
27.3220421835
 10
-4.3761946194
 20
27.2767270256
 10
-4.3950992953
 20
27.2307426928
 10
-4.4108379479
 20
27.1845599995
 10
-4.4232494359
 20
27.1386517912
 10
-4.4322066832
 20
27.0934881026
 10
-4.4376179802
 20
27.0495313461
 10
-4.4394279229
 20
27.0072315764
  0
LINE
  5
243
100
AcDbEntity
  8
0
100
AcDbLine
 62
250
  6
CONTINUOUS
 10
-0.3974199673
 20
29.9730324002
 11
-4.1043780871
 21
27.6083608187
  0
LINE
  5
244
100
AcDbEntity
  8
0
100
AcDbLine
 62
7
  6
CONTINUOUS
 10
-5.8536414853
 20
24.07937354
 11
-5.6608882344
 21
24.1906668513
  0
LINE
  5
245
100
AcDbEntity
  8
0
100
AcDbLine
 62
7
  6
CONTINUOUS
 10
22.6358300873
 20
-27.4346588112
 11
22.7219702012
 21
-27.4415882691
  0
LWPOLYLINE
  5
246
100
AcDbEntity
  8
0
100
AcDbPolyline
 62
250
  6
CONTINUOUS
 90
30
 70
0
 10
18.5273705231
 20
-31.2099690324
 10
18.5802225226
 20
-31.227292911
 10
18.7060733595
 20
-31.2612492619
 10
18.8304994405
 20
-31.2873746702
 10
18.9533188782
 20
-31.3056782952
 10
19.0734191209
 20
-31.3159887845
 10
19.1906871139
 20
-31.3182046308
 10
19.3052359117
 20
-31.3124273413
 10
19.416292127
 20
-31.2987900852
 10
19.5237571482
 20
-31.277276436
 10
19.6277295867
 20
-31.2479028201
 10
19.7277318899
 20
-31.2108516862
 10
19.8237852114
 20
-31.1661077859
 10
19.9158683976
 20
-31.1136863675
 10
20.0034404348
 20
-31.0538156244
 10
20.0865069115
 20
-30.9864559067
 10
20.1650622393
 20
-30.9116468643
 10
20.2385486387
 20
-30.8297356398
 10
20.3069446194
 20
-30.7406950071
 10
20.3702716718
 20
-30.6445521923
 10
20.428036488
 20
-30.5417360174
 10
20.4802459618
 20
-30.4320618553
 10
20.5268931994
 20
-30.3157143331
 10
20.5674642111
 20
-30.1936761545
 10
20.6018593184
 20
-30.0658097921
 10
20.6301781997
 20
-29.9322527732
 10
20.6522059012
 20
-29.7944003833
 10
20.6678707715
 20
-29.6527177174
 10
20.677244462
 20
-29.5067396805
 10
20.6803269725
 20
-29.3564662725
  0
LWPOLYLINE
  5
247
100
AcDbEntity
  8
0
100
AcDbPolyline
 62
7
  6
CONTINUOUS
 90
19
 70
0
 10
23.5397794152
 20
-40.3393944084
 10
23.7290975824
 20
-40.4429052582
 10
23.9182821779
 20
-40.5349301221
 10
24.1070808668
 20
-40.6155986504
 10
24.2955826718
 20
-40.685149502
 10
24.4832352865
 20
-40.7435587163
 10
24.6687626933
 20
-40.7907079549
 10
24.8514908676
 20
-40.8268133582
 10
25.0315150934
 20
-40.8522737404
 10
25.2085932737
 20
-40.8673931376
 10
25.3821729161
 20
-40.8724771009
 10
25.5521555812
 20
-40.8678792802
 10
25.718867326
 20
-40.8538778231
 10
25.8818068821
 20
-40.8307665467
 10
26.0407682678
 20
-40.7988373113
 10
26.1964004715
 20
-40.7581306494
 10
26.3486236717
 20
-40.7087286073
 10
26.4967138973
 20
-40.6509407058
 10
26.6402965444
 20
-40.5850329799
  0
LWPOLYLINE
  5
248
100
AcDbEntity
  8
0
100
AcDbPolyline
 62
7
  6
CONTINUOUS
 90
18
 70
0
 10
24.6226607839
 20
-40.9896885683
 10
24.8251818727
 20
-41.1009934112
 10
25.026404288
 20
-41.2005625639
 10
25.22632803
 20
-41.2883960265
 10
25.425464151
 20
-41.3646549479
 10
25.6233015985
 20
-41.4291781792
 10
25.818307215
 20
-41.4814822734
 10
26.0103018681
 20
-41.521458414
 10
26.1994646901
 20
-41.5492154175
 10
26.3847999208
 20
-41.5645962872
 10
26.566487384
 20
-41.5675184029
 10
26.7443472559
 20
-41.5580643848
 10
26.916844305
 20
-41.536325096
 10
27.0837177566
 20
-41.5022602208
 10
27.2452283855
 20
-41.455910075
 10
27.4006232848
 20
-41.3974864694
 10
27.5500789422
 20
-41.3268132473
 10
27.6227384782
 20
-41.2868191328
  0
LWPOLYLINE
  5
249
100
AcDbEntity
  8
0
100
AcDbPolyline
 62
250
  6
CONTINUOUS
 90
17
 70
0
 10
23.2084472215
 20
-39.6070154306
 10
23.3194811462
 20
-39.6680955827
 10
23.4299502808
 20
-39.7227928668
 10
23.5398546252
 20
-39.7711072829
 10
23.6495050303
 20
-39.8131554026
 10
23.7585906453
 20
-39.8488206542
 10
23.8661789174
 20
-39.8777533233
 10
23.9721924599
 20
-39.8998706981
 10
24.0767086594
 20
-39.9152554902
 10
24.1790271237
 20
-39.9238061199
 10
24.279135815
 20
-39.9254773266
 10
24.3770467711
 20
-39.9203143707
 10
24.4720957127
 20
-39.9083514535
 10
24.5642641071
 20
-39.8895416999
 10
24.653570487
 20
-39.8639319849
 10
24.739406172
 20
-39.8316971344
 10
24.8217454355
 20
-39.7927931525
  0
LINE
  5
24A
100
AcDbEntity
  8
0
100
AcDbLine
 62
250
  6
CONTINUOUS
 10
-22.4459197204
 20
-16.4833389567
 11
-2.0781946172
 21
-28.2434081637
  0
LINE
  5
24B
100
AcDbEntity
  8
0
100
AcDbLine
 62
7
  6
CONTINUOUS
 10
-21.197858637
 20
38.3737790155
 11
-21.197858637
 21
23.8737177109
  0
LINE
  5
24C
100
AcDbEntity
  8
0
100
AcDbLine
 62
7
  6
CONTINUOUS
 10
-21.1760575883
 20
37.1107517412
 11
-21.1760575883
 21
23.891132585
  0
LINE
  5
24D
100
AcDbEntity
  8
0
100
AcDbLine
 62
250
  6
CONTINUOUS
 10
-20.7074284382
 20
36.4575123919
 11
-20.7074284382
 21
24.2654777724
  0
LWPOLYLINE
  5
24E
100
AcDbEntity
  8
0
100
AcDbPolyline
 62
250
  6
CONTINUOUS
 90
20
 70
0
 10
-6.3176761903
 20
20.721028707
 10
-6.2841275399
 20
20.7339741064
 10
-6.2482085825
 20
20.7485200354
 10
-6.2099812641
 20
20.7648372176
 10
-6.1689989278
 20
20.7834101814
 10
-6.1258990785
 20
20.8041615294
 10
-6.0823709782
 20
20.8263308343
 10
-6.0385408281
 20
20.8500100692
 10
-5.9945094771
 20
20.8753147358
 10
-5.9518585791
 20
20.9012954607
 10
-5.9108226449
 20
20.9277971597
 10
-5.8713009239
 20
20.9549260851
 10
-5.8342595024
 20
20.9819216056
 10
-5.7998945347
 20
21.0084923269
 10
-5.7679879619
 20
21.0347033667
 10
-5.7387882953
 20
21.0602143788
 10
-5.7124388836
 20
21.0846915303
 10
-5.688659638
 20
21.1081957289
 10
-5.667045917
 20
21.1309752944
 10
-5.6578821424
 20
21.1411102429
  0
LWPOLYLINE
  5
24F
100
AcDbEntity
  8
0
100
AcDbPolyline
 62
250
  6
CONTINUOUS
 90
16
 70
0
 10
28.1755062784
 20
-38.1422353685
 10
28.1679985305
 20
-38.1383185043
 10
28.1598436743
 20
-38.1348597585
 10
28.1511252038
 20
-38.1318945438
 10
28.1419323838
 20
-38.1294532199
 10
28.1323593358
 20
-38.1275607823
 10
28.1225040743
 20
-38.1262366069
 10
28.1124675031
 20
-38.1254942515
 10
28.1023523824
 20
-38.1253413167
 10
28.0922622769
 20
-38.1257793684
 10
28.0823004948
 20
-38.1268039215
 10
28.0725690307
 20
-38.128404486
 10
28.063167521
 20
-38.1305646744
 10
28.0541922238
 20
-38.1332623696
 10
28.0457350335
 20
-38.1364699508
 10
28.0378825396
 20
-38.140154577
  0
LWPOLYLINE
  5
250
100
AcDbEntity
  8
0
100
AcDbPolyline
 62
7
  6
CONTINUOUS
 90
12
 70
0
 10
13.9711815091
 20
-33.1252518409
 10
14.0209376563
 20
-33.1516907256
 10
14.0684754895
 20
-33.1734579633
 10
14.1137950087
 20
-33.1905535539
 10
14.1569554267
 20
-33.2028358756
 10
14.1978975307
 20
-33.2104465502
 10
14.236443682
 20
-33.2138104434
 10
14.2722458358
 20
-33.2129149825
 10
14.3056520369
 20
-33.2077727402
 10
14.3375287806
 20
-33.1988463004
 10
14.3684141242
 20
-33.1860996416
 10
14.3861212431
 20
-33.1766784395
  0
LWPOLYLINE
  5
251
100
AcDbEntity
  8
0
100
AcDbPolyline
 62
250
  6
CONTINUOUS
 90
28
 70
0
 10
25.5464441474
 20
-38.2573462173
 10
25.6118257388
 20
-38.2930312364
 10
25.6805779058
 20
-38.32653793
 10
25.7524832594
 20
-38.3577603524
 10
25.8273144404
 20
-38.3865997807
 10
25.9048348384
 20
-38.412965027
 10
25.9847993399
 20
-38.4367727263
 10
26.0669551033
 20
-38.4579476006
 10
26.1510423585
 20
-38.4764226965
 10
26.236795228
 20
-38.4921395972
 10
26.3239425679
 20
-38.5050486071
 10
26.4122088251
 20
-38.5151089088
 10
26.5013149084
 20
-38.5222886926
 10
26.5909790714
 20
-38.5265652564
 10
26.6809178029
 20
-38.5279250781
 10
26.7708467235
 20
-38.5263638581
 10
26.860481485
 20
-38.5218865328
 10
26.9495386693
 20
-38.5145072591
 10
27.0377366842
 20
-38.5042493698
 10
27.1247966546
 20
-38.4911452995
 10
27.2104433036
 20
-38.4752364823
 10
27.2944058231
 20
-38.4565732206
 10
27.3764187301
 20
-38.4352145263
 10
27.456222706
 20
-38.4112279337
 10
27.533565417
 20
-38.3846892868
 10
27.6082023113
 20
-38.3556824986
 10
27.6798973929
 20
-38.3242992864
 10
27.7484239674
 20
-38.2906388814
  0
LINE
  5
252
100
AcDbEntity
  8
0
100
AcDbLine
 62
7
  6
CONTINUOUS
 10
12.0665828449
 20
-33.739966531
 11
24.6226607839
 21
-40.9896885683
  0
LINE
  5
253
100
AcDbEntity
  8
0
100
AcDbLine
 62
7
  6
CONTINUOUS
 10
12.0924368606
 20
-33.7298422863
 11
23.5397794152
 21
-40.3393944084
  0
LINE
  5
254
100
AcDbEntity
  8
0
100
AcDbLine
 62
250
  6
CONTINUOUS
 10
12.6508300272
 20
-33.5111795806
 11
23.2084472215
 21
-39.6070154306
  0
LINE
  5
255
100
AcDbEntity
  8
0
100
AcDbLine
 62
7
  6
CONTINUOUS
 10
13.8358719284
 20
-33.0471257848
 11
13.9711815091
 21
-33.1252518409
  0
LINE
  5
256
100
AcDbEntity
  8
0
100
AcDbLine
 62
7
  6
CONTINUOUS
 10
14.8514505737
 20
-33.6335081664
 11
15.9215407215
 21
-34.2513648064
  0
LINE
  5
257
100
AcDbEntity
  8
0
100
AcDbLine
 62
7
  6
CONTINUOUS
 10
16.7695236796
 20
-34.7409795387
 11
16.9653470032
 21
-34.8540454715
  0
LINE
  5
258
100
AcDbEntity
  8
0
100
AcDbLine
 62
7
  6
CONTINUOUS
 10
17.3004420783
 20
-35.0475251681
 11
17.4902988349
 21
-35.1571460799
  0
LINE
  5
259
100
AcDbEntity
  8
0
100
AcDbLine
 62
7
  6
CONTINUOUS
 10
18.2312611816
 20
-35.5849684525
 11
18.4513163475
 21
-35.7120255473
  0
LINE
  5
25A
100
AcDbEntity
  8
0
100
AcDbLine
 62
7
  6
CONTINUOUS
 10
19.3497096551
 20
-36.2307465836
 11
19.5455916685
 21
-36.3438464032
  0
LINE
  5
25B
100
AcDbEntity
  8
0
100
AcDbLine
 62
7
  6
CONTINUOUS
 10
20.2461796323
 20
-36.748357113
 11
20.4419916421
 21
-36.8614165134
  0
LINE
  5
25C
100
AcDbEntity
  8
0
100
AcDbLine
 62
7
  6
CONTINUOUS
 10
20.989134606
 20
-37.1773300034
 11
21.1909959143
 21
-37.293882193
  0
LINE
  5
25D
100
AcDbEntity
  8
0
100
AcDbLine
 62
7
  6
CONTINUOUS
 10
22.0672673863
 20
-37.7998303586
 11
22.2813319435
 21
-37.9234285511
  0
LINE
  5
25E
100
AcDbEntity
  8
0
100
AcDbLine
 62
7
  6
CONTINUOUS
 10
22.460930702
 20
-38.0271266233
 11
23.3917498053
 21
-38.5645699077
  0
LINE
  5
25F
100
AcDbEntity
  8
0
100
AcDbLine
 62
7
  6
CONTINUOUS
 10
24.0054576802
 20
-38.918917143
 11
24.2012343347
 21
-39.0319561297
  0
LINE
  5
260
100
AcDbEntity
  8
0
100
AcDbLine
 62
7
  6
CONTINUOUS
 10
23.3917498053
 20
-38.3640970618
 11
22.6568247362
 21
-37.9397605377
  0
LINE
  5
261
100
AcDbEntity
  8
0
100
AcDbLine
 62
7
  6
CONTINUOUS
 10
15.9215407215
 20
-34.0508919605
 11
15.0473325871
 21
-33.5461351401
  0
LINE
  5
262
100
AcDbEntity
  8
0
100
AcDbLine
 62
7
  6
CONTINUOUS
 10
23.6038818396
 20
-38.2416146838
 11
22.8689567706
 21
-37.8172781597
  0
LINE
  5
263
100
AcDbEntity
  8
0
100
AcDbLine
 62
7
  6
CONTINUOUS
 10
16.1336727559
 20
-33.9284095825
 11
15.2594646215
 21
-33.4236527621
  0
LINE
  5
264
100
AcDbEntity
  8
0
100
AcDbLine
 62
7
  6
CONTINUOUS
 10
21.3424475803
 20
-36.894157002
 11
21.9239276494
 21
-37.2298963062
  0
LINE
  5
265
100
AcDbEntity
  8
0
100
AcDbLine
 62
7
  6
CONTINUOUS
 10
21.8532487911
 20
-36.9886143734
 11
21.4030211756
 21
-36.7286585908
  0
LINE
  5
266
100
AcDbEntity
  8
0
100
AcDbLine
 62
7
  6
CONTINUOUS
 10
15.0473325871
 20
-32.9866799088
 11
15.8407679139
 21
-33.4447995224
  0
LINE
  5
267
100
AcDbEntity
  8
0
100
AcDbLine
 62
250
  6
CONTINUOUS
 10
-1.333605281
 20
-23.4275910403
 11
-17.9031588096
 21
-13.8605384981
  0
LINE
  5
268
100
AcDbEntity
  8
0
100
AcDbLine
 62
7
  6
CONTINUOUS
 10
21.7820752519
 20
-36.7025549079
 11
21.6151532099
 21
-36.6061762128
  0
LINE
  5
269
100
AcDbEntity
  8
0
100
AcDbLine
 62
7
  6
CONTINUOUS
 10
15.8407679139
 20
-33.2443266765
 11
15.0473325871
 21
-32.7862070629
  0
LINE
  5
26A
100
AcDbEntity
  8
0
100
AcDbLine
 62
7
  6
CONTINUOUS
 10
16.0528999483
 20
-33.1218442985
 11
15.2594646215
 21
-32.6637246849
  0
LINE
  5
26B
100
AcDbEntity
  8
0
100
AcDbLine
 62
7
  6
CONTINUOUS
 10
15.3563273751
 20
-32.4517264824
 11
15.9073908077
 21
-32.769903602
  0
LINE
  5
26C
100
AcDbEntity
  8
0
100
AcDbLine
 62
7
  6
CONTINUOUS
 10
19.7555649059
 20
-34.9917910973
 11
20.2461796323
 21
-35.2750658915
  0
LINE
  5
26D
100
AcDbEntity
  8
0
100
AcDbLine
 62
7
  6
CONTINUOUS
 10
20.4419916421
 20
-35.3881252919
 11
20.9326056615
 21
-35.6713996778
  0
LINE
  5
26E
100
AcDbEntity
  8
0
100
AcDbLine
 62
7
  6
CONTINUOUS
 10
24.7484713437
 20
-37.6741598528
 11
24.5182281833
 21
-37.5412203376
  0
LINE
  5
26F
100
AcDbEntity
  8
0
100
AcDbLine
 62
7
  6
CONTINUOUS
 10
23.6864697903
 20
-37.0609734659
 11
23.4583373437
 21
-36.9292526504
  0
LINE
  5
270
100
AcDbEntity
  8
0
100
AcDbLine
 62
7
  6
CONTINUOUS
 10
22.6568247362
 20
-36.4664693161
 11
22.460930702
 21
-36.3533625559
  0
LINE
  5
271
100
AcDbEntity
  8
0
100
AcDbLine
 62
7
  6
CONTINUOUS
 10
21.7563334427
 20
-35.9465369291
 11
21.5342849429
 21
-35.8183289082
  0
LINE
  5
272
100
AcDbEntity
  8
0
100
AcDbLine
 62
7
  6
CONTINUOUS
 10
20.9326056615
 20
-35.4709268319
 11
19.7555649059
 21
-34.7913182514
  0
LINE
  5
273
100
AcDbEntity
  8
0
100
AcDbLine
 62
7
  6
CONTINUOUS
 10
19.5455916685
 20
-34.6700823358
 11
19.3497096551
 21
-34.5569825162
  0
LINE
  5
274
100
AcDbEntity
  8
0
100
AcDbLine
 62
7
  6
CONTINUOUS
 10
18.4513163475
 20
-34.0382614799
 11
18.2615536361
 21
-33.9286948686
  0
LINE
  5
275
100
AcDbEntity
  8
0
100
AcDbLine
 62
7
  6
CONTINUOUS
 10
17.5326665519
 20
-33.5078446013
 11
17.3004420783
 21
-33.3737611007
  0
LINE
  5
276
100
AcDbEntity
  8
0
100
AcDbLine
 62
7
  6
CONTINUOUS
 10
16.9653470032
 20
-33.180281404
 11
16.7695236796
 21
-33.0672154713
  0
LINE
  5
277
100
AcDbEntity
  8
0
100
AcDbLine
 62
7
  6
CONTINUOUS
 10
15.9073908077
 20
-32.5694307561
 11
15.5632179246
 21
-32.3707096469
  0
LINE
  5
278
100
AcDbEntity
  8
0
100
AcDbLine
 62
7
  6
CONTINUOUS
 10
24.960603378
 20
-37.5516774748
 11
24.7303602177
 21
-37.4187379596
  0
LINE
  5
279
100
AcDbEntity
  8
0
100
AcDbLine
 62
7
  6
CONTINUOUS
 10
23.8986018247
 20
-36.9384910879
 11
23.6704693781
 21
-36.8067702724
  0
LINE
  5
27A
100
AcDbEntity
  8
0
100
AcDbLine
 62
7
  6
CONTINUOUS
 10
22.8689567706
 20
-36.3439869381
 11
22.6730627363
 21
-36.2308801779
  0
LINE
  5
27B
100
AcDbEntity
  8
0
100
AcDbLine
 62
7
  6
CONTINUOUS
 10
21.9684654771
 20
-35.8240545511
 11
21.7464169772
 21
-35.6958465302
  0
LINE
  5
27C
100
AcDbEntity
  8
0
100
AcDbLine
 62
7
  6
CONTINUOUS
 10
21.1447376958
 20
-35.3484444539
 11
19.9676969402
 21
-34.6688358734
  0
LINE
  5
27D
100
AcDbEntity
  8
0
100
AcDbLine
 62
7
  6
CONTINUOUS
 10
19.7577237029
 20
-34.5475999578
 11
19.5618416895
 21
-34.4345001382
  0
LINE
  5
27E
100
AcDbEntity
  8
0
100
AcDbLine
 62
7
  6
CONTINUOUS
 10
18.6634483818
 20
-33.9157791019
 11
18.4736856705
 21
-33.8062124906
  0
LINE
  5
27F
100
AcDbEntity
  8
0
100
AcDbLine
 62
7
  6
CONTINUOUS
 10
17.7447985862
 20
-33.3853622233
 11
17.5125741127
 21
-33.2512787227
  0
LINE
  5
280
100
AcDbEntity
  8
0
100
AcDbLine
 62
7
  6
CONTINUOUS
 10
17.1774790375
 20
-33.057799026
 11
16.981655714
 21
-32.9447330933
  0
LINE
  5
281
100
AcDbEntity
  8
0
100
AcDbLine
 62
7
  6
CONTINUOUS
 10
16.1195228421
 20
-32.4469483781
 11
15.8160246963
 21
-32.2717123524
  0
LWPOLYLINE
  5
282
100
AcDbEntity
  8
0
100
AcDbPolyline
 62
250
  6
CONTINUOUS
 90
22
 70
0
 10
-17.9031588096
 20
-13.8605384981
 10
-17.9543270887
 20
-13.7916472133
 10
-18.0071034429
 20
-13.7182769516
 10
-18.0612351239
 20
-13.6407790867
 10
-18.1164628908
 20
-13.5595247629
 10
-18.1725222579
 20
-13.4749031073
 10
-18.229144762
 20
-13.3873193655
 10
-18.2860592379
 20
-13.2971929754
 10
-18.3429931185
 20
-13.204955558
 10
-18.3996737467
 20
-13.1110488388
 10
-18.4558296819
 20
-13.0159225314
 10
-18.511191986
 20
-12.9200322076
 10
-18.5654955129
 20
-12.8238371137
 10
-18.6184801945
 20
-12.7277979449
 10
-18.6698922937
 20
-12.6323746225
 10
-18.719485605
 20
-12.5380241163
 10
-18.7670226245
 20
-12.4451982739
 10
-18.8122756958
 20
-12.3543416412
 10
-18.8550281074
 20
-12.2658893191
 10
-18.8950751175
 20
-12.1802649054
 10
-18.9322249357
 20
-12.097878465
 10
-18.9662996486
 20
-12.0191245512
  0
LINE
  5
283
100
AcDbEntity
  8
0
100
AcDbLine
 62
250
  6
CONTINUOUS
 10
-18.9662996486
 20
-12.0191245512
 11
-18.9662996486
 21
7.1126618188
  0
LINE
  5
284
100
AcDbEntity
  8
0
100
AcDbLine
 62
250
  6
CONTINUOUS
 10
-17.15873958
 20
-12.203150414
 11
-17.15873958
 21
6.0689992892
  0
LWPOLYLINE
  5
285
100
AcDbEntity
  8
0
100
AcDbPolyline
 62
250
  6
CONTINUOUS
 90
28
 70
0
 10
-18.3694315123
 20
37.8071816052
 10
-18.3676428587
 20
37.8816427853
 10
-18.3622825536
 20
37.9579340172
 10
-18.3533675458
 20
38.0358140739
 10
-18.3409260238
 20
38.1150367048
 10
-18.3249973269
 20
38.1953514139
 10
-18.3056318202
 20
38.2765042525
 10
-18.2828907362
 20
38.3582386214
 10
-18.2568459802
 20
38.440296083
 10
-18.2275799038
 20
38.5224171778
 10
-18.1951850441
 20
38.6043422454
 10
-18.1597638311
 20
38.685812245
 10
-18.121428264
 20
38.7665695748
 10
-18.0802995568
 20
38.8463588863
 10
-18.0365077553
 20
38.9249278919
 10
-17.9901913259
 20
39.0020281625
 10
-17.9414967175
 20
39.077415913
 10
-17.8905778986
 20
39.1508527731
 10
-17.8375958708
 20
39.2221065412
 10
-17.7827181589
 20
39.2909519184
 10
-17.7261182822
 20
39.3571712209
 10
-17.667975205
 20
39.4205550684
 10
-17.6084727712
 20
39.4809030461
 10
-17.5477991231
 20
39.5380243383
 10
-17.4861461058
 20
39.5917383319
 10
-17.4237086615
 20
39.6418751874
 10
-17.3606842126
 20
39.688276376
 10
-17.2972720376
 20
39.7307951807
  0
LWPOLYLINE
  5
286
100
AcDbEntity
  8
0
100
AcDbPolyline
 62
250
  6
CONTINUOUS
 90
19
 70
0
 10
-17.15873958
 20
-12.203150414
 10
-17.1613473472
 20
-12.2933016432
 10
-17.1691584551
 20
-12.3860471122
 10
-17.182136639
 20
-12.4809591675
 10
-17.2002218499
 20
-12.5776003473
 10
-17.2233304578
 20
-12.6755249727
 10
-17.2513555662
 20
-12.7742811862
 10
-17.2841671887
 20
-12.873412331
 10
-17.3216141774
 20
-12.9724629482
 10
-17.3635253901
 20
-13.0709804043
 10
-17.4097102219
 20
-13.1685152669
 10
-17.4599541071
 20
-13.2646131444
 10
-17.5140197857
 20
-13.3588211959
 10
-17.5716677206
 20
-13.4507219733
 10
-17.6326219547
 20
-13.5398754953
 10
-17.6965588085
 20
-13.6258175983
 10
-17.7631632244
 20
-13.7081428539
 10
-17.8321369935
 20
-13.7864999751
 10
-17.9031588096
 20
-13.8605384981
  0
LWPOLYLINE
  5
287
100
AcDbEntity
  8
0
100
AcDbPolyline
 62
250
  6
CONTINUOUS
 90
16
 70
0
 10
-16.9552179499
 20
40.0264718961
 10
-16.9555799384
 20
40.0180119424
 10
-16.9566621978
 20
40.0092205912
 10
-16.9584536472
 20
40.0001878536
 10
-16.9609359448
 20
39.9910062119
 10
-16.9640836753
 20
39.9817696731
 10
-16.9678646105
 20
39.9725728065
 10
-16.972240039
 20
39.9635097747
 10
-16.9771651626
 20
39.9546733705
 10
-16.9825895549
 20
39.9461540661
 10
-16.9884576778
 20
39.9380390872
 10
-16.9947094501
 20
39.9304115197
 10
-17.0012808625
 20
39.923349459
 10
-17.0081046331
 20
39.9169252106
 10
-17.015110896
 20
39.9112045497
 10
-17.0222279171
 20
39.9062460477
  0
LWPOLYLINE
  5
288
100
AcDbEntity
  8
0
100
AcDbPolyline
 62
250
  6
CONTINUOUS
 90
13
 70
0
 10
-4.2580901819
 20
29.1664935544
 10
-4.2379325458
 20
29.1995339631
 10
-4.2205743305
 20
29.2376898298
 10
-4.2075870751
 20
29.2782859028
 10
-4.1991037589
 20
29.3209065384
 10
-4.1952112426
 20
29.3651153676
 10
-4.195949385
 20
29.4104597758
 10
-4.2013106445
 20
29.4564754998
 10
-4.2112401402
 20
29.5026914037
 10
-4.2256362144
 20
29.5486343219
 10
-4.2443514862
 20
29.5938338652
 10
-4.2671943561
 20
29.6378272366
 10
-4.2939309603
 20
29.680163994
  0
LWPOLYLINE
  5
289
100
AcDbEntity
  8
0
100
AcDbPolyline
 62
250
  6
CONTINUOUS
 90
4
 70
0
 10
-6.3176761875
 20
20.7210286867
 10
-6.0981519853
 20
20.9736587131
 10
-5.8696607136
 20
21.2299298049
 10
-5.6401268777
 20
21.4811681236
  0
LINE
  5
28A
100
AcDbEntity
  8
0
100
AcDbLine
 62
7
  6
CONTINUOUS
 10
-5.6578821424
 20
21.1411102429
 11
-5.6578610559
 21
21.1411339254
  0
LWPOLYLINE
  5
28B
100
AcDbEntity
  8
0
100
AcDbPolyline
 62
250
  6
CONTINUOUS
 90
16
 70
0
 10
3.673796506
 20
23.1173402921
 10
3.6382113996
 20
23.0925477814
 10
3.6031800845
 20
23.0639444762
 10
3.5690612315
 20
23.0318232337
 10
3.5362041695
 20
22.9965129299
 10
3.5049453081
 20
22.9583750923
 10
3.4756046938
 20
22.9178001982
 10
3.4484827328
 20
22.8752036771
 10
3.4238571156
 20
22.8310216569
 10
3.4019799737
 20
22.785706499
 10
3.3830752978
 20
22.7397221662
 10
3.3673366451
 20
22.693539473
 10
3.3549251571
 20
22.6476312646
 10
3.3459679099
 20
22.602467576
 10
3.3405566129
 20
22.5585108195
 10
3.3387466701
 20
22.5162110497
  0
LINE
  5
28C
100
AcDbEntity
  8
0
100
AcDbLine
 62
250
  6
CONTINUOUS
 10
3.673796506
 20
23.1173402921
 11
7.3807546257
 21
25.4820118736
  0
LWPOLYLINE
  5
28D
100
AcDbEntity
  8
0
100
AcDbPolyline
 62
250
  6
CONTINUOUS
 90
16
 70
0
 10
9.1329466695
 20
21.9276531288
 10
9.1025901211
 20
21.9182812586
 10
9.0689245344
 20
21.9069151757
 10
9.0322946073
 20
21.8936712685
 10
8.9930753866
 20
21.8786851607
 10
8.951668429
 20
21.8621102917
 10
8.9084976871
 20
21.8441163448
 10
8.8640051737
 20
21.8248875559
 10
8.8186464256
 20
21.8046208128
 10
8.7728858377
 20
21.7835236067
 10
8.7271919356
 20
21.7618119381
 10
8.6820325539
 20
21.7397081094
 10
8.6378700341
 20
21.7174384335
 10
8.5951565292
 20
21.6952309165
 10
8.5543293734
 20
21.6733129241
 10
8.5158065798
 20
21.6519088574
  0
LINE
  5
28E
100
AcDbEntity
  8
0
100
AcDbLine
 62
7
  6
CONTINUOUS
 10
17.5817300303
 20
-18.7167799786
 11
17.587507495
 21
-18.7170115563
  0
LWPOLYLINE
  5
28F
100
AcDbEntity
  8
0
100
AcDbPolyline
 62
250
  6
CONTINUOUS
 90
22
 70
0
 10
19.7584278603
 20
-23.8247432519
 10
19.7334185998
 20
-23.8180768895
 10
19.7073412549
 20
-23.8086023421
 10
19.6802438594
 20
-23.7963879901
 10
19.6520108174
 20
-23.7811662383
 10
19.622884606
 20
-23.763353841
 10
19.5934829968
 20
-23.7439916174
 10
19.5638758918
 20
-23.7227999544
 10
19.5341985866
 20
-23.7000791499
 10
19.5051821576
 20
-23.6776165537
 10
19.4770137455
 20
-23.6553513756
 10
19.4496735297
 20
-23.6332115582
 10
19.4235521036
 20
-23.6128693212
 10
19.3989423314
 20
-23.5944818838
 10
19.3756076514
 20
-23.5776927924
 10
19.353135943
 20
-23.5634139517
 10
19.331435868
 20
-23.5515900147
 10
19.3106538395
 20
-23.542186964
 10
19.2907524779
 20
-23.5361918617
 10
19.2717294813
 20
-23.5339080966
 10
19.2536132174
 20
-23.5349505033
 10
19.2364091686
 20
-23.5392791511
  0
LWPOLYLINE
  5
290
100
AcDbEntity
  8
0
100
AcDbPolyline
 62
250
  6
CONTINUOUS
 90
19
 70
0
 10
-17.15873958
 20
-12.203150414
 10
-17.2381191035
 20
-12.1603290558
 10
-17.3223467982
 20
-12.1207171117
 10
-17.411034163
 20
-12.08449702
 10
-17.5037723146
 20
-12.0518355234
 10
-17.6001334578
 20
-12.0228830514
 10
-17.699672808
 20
-11.9977729732
 10
-17.801929881
 20
-11.9766210576
 10
-17.9064346655
 20
-11.9595241428
 10
-18.0127096066
 20
-11.9465603375
 10
-18.1202701889
 20
-11.9377892951
 10
-18.2286156033
 20
-11.9332523983
 10
-18.3372350305
 20
-11.9329705968
 10
-18.4456471694
 20
-11.9369451682
 10
-18.5533330196
 20
-11.9451571137
 10
-18.6597287858
 20
-11.9575581974
 10
-18.7643258375
 20
-11.9740782813
 10
-18.8666708447
 20
-11.9946347446
 10
-18.9662996486
 20
-12.0191245512
  0
LINE
  5
291
100
AcDbEntity
  8
0
100
AcDbLine
 62
250
  6
CONTINUOUS
 10
-1.333605281
 20
-21.3403846227
 11
-17.15873958
 21
-12.203150414
  0
LWPOLYLINE
  5
292
100
AcDbEntity
  8
0
100
AcDbPolyline
 62
250
  6
CONTINUOUS
 90
16
 70
0
 10
-13.0940887604
 20
29.1425377121
 10
-13.0958165308
 20
29.1012304127
 10
-13.1009829484
 20
29.0583316953
 10
-13.1095375085
 20
29.0142608443
 10
-13.1213965914
 20
28.9694485995
 10
-13.1364442812
 20
28.9243329417
 10
-13.1545335002
 20
28.879354812
 10
-13.1754874427
 20
28.834953811
 10
-13.199101306
 20
28.7915638951
 10
-13.2251442959
 20
28.7496091302
 10
-13.2533618733
 20
28.7094995634
 10
-13.2834782476
 20
28.6716272046
 10
-13.3151990784
 20
28.6363621896
 10
-13.3482143408
 20
28.6040491778
 10
-13.3822013539
 20
28.5750039819
 10
-13.4168279426
 20
28.5495104727
  0
LINE
  5
293
100
AcDbEntity
  8
0
100
AcDbLine
 62
7
  6
CONTINUOUS
 10
-13.3724733526
 20
1.6744371546
 11
-14.1085764616
 21
-0.878782315
  0
LWPOLYLINE
  5
294
100
AcDbEntity
  8
0
100
AcDbPolyline
 62
250
  6
CONTINUOUS
 90
8
 70
0
 10
-4.8352535936
 20
28.7819136618
 10
-4.8030333554
 20
28.8780125774
 10
-4.7385714623
 20
29.0354648157
 10
-4.6654166695
 20
29.1844031282
 10
-4.5843019278
 20
29.3234772306
 10
-4.4954715542
 20
29.4522370284
 10
-4.3986812317
 20
29.5711326162
 10
-4.2939309604
 20
29.680163994
  0
LWPOLYLINE
  5
295
100
AcDbEntity
  8
0
100
AcDbPolyline
 62
250
  6
CONTINUOUS
 90
49
 70
0
 10
-23.5090622301
 20
-14.6419226925
 10
-23.5397134354
 20
-14.7043466664
 10
-23.5677214871
 20
-14.7660127196
 10
-23.5931209547
 20
-14.826862035
 10
-23.6159172952
 20
-14.8867703436
 10
-23.63617399
 20
-14.9457475813
 10
-23.6540063594
 20
-15.003944778
 10
-23.6694553505
 20
-15.0613182518
 10
-23.6825343826
 20
-15.1178188192
 10
-23.6933062394
 20
-15.1736022928
 10
-23.7018121821
 20
-15.22863761
 10
-23.7080540538
 20
-15.2828775993
 10
-23.7120252463
 20
-15.3364642793
 10
-23.7137590915
 20
-15.3894126122
 10
-23.7132562093
 20
-15.4416384121
 10
-23.7104548203
 20
-15.4931401193
 10
-23.7053626884
 20
-15.5439324425
 10
-23.6980055383
 20
-15.5939304309
 10
-23.6883491977
 20
-15.642982465
 10
-23.676405266
 20
-15.6910244972
 10
-23.6622025126
 20
-15.738045179
 10
-23.6457348952
 20
-15.7839706465
 10
-23.6270193496
 20
-15.8287523663
 10
-23.6060814978
 20
-15.8723625523
 10
-23.5829289609
 20
-15.9147582867
 10
-23.5575559566
 20
-15.9559197164
 10
-23.53001183
 20
-15.9957900868
 10
-23.5003879123
 20
-16.0342720249
 10
-23.468694851
 20
-16.0713121983
 10
-23.4349676499
 20
-16.1068909052
 10
-23.3993350666
 20
-16.1409639186
 10
-23.3618286473
 20
-16.1734762466
 10
-23.3224617068
 20
-16.2044165215
 10
-23.2813354341
 20
-16.2338081195
 10
-23.2385152743
 20
-16.2615992578
 10
-23.1939783692
 20
-16.2877808981
 10
-23.1476933848
 20
-16.3124377192
 10
-23.0997245914
 20
-16.3355370801
 10
-23.0500498839
 20
-16.3570467116
 10
-22.9985102988
 20
-16.3770412375
 10
-22.9451451398
 20
-16.395496163
 10
-22.8899615806
 20
-16.4123561783
 10
-22.8327568333
 20
-16.4276340494
 10
-22.7735695595
 20
-16.4412913883
 10
-22.7124159743
 20
-16.4532670179
 10
-22.6490659585
 20
-16.4635215813
 10
-22.5834665622
 20
-16.4719965082
 10
-22.5157388906
 20
-16.4786235806
 10
-22.4459187998
 20
-16.483337921
  0
LINE
  5
296
100
AcDbEntity
  8
0
100
AcDbLine
 62
250
  6
CONTINUOUS
 10
5.6844571691
 20
16.3691277688
 11
5.6671154993
 21
16.3625505473
  0
LINE
  5
297
100
AcDbEntity
  8
0
100
AcDbLine
 62
250
  6
CONTINUOUS
 10
5.6671154993
 20
16.3625505473
 11
5.6222390134
 21
16.3490620717
  0
LWPOLYLINE
  5
298
100
AcDbEntity
  8
0
100
AcDbPolyline
 62
7
  6
CONTINUOUS
 90
5
 70
0
 10
5.4312925601
 20
15.6657607651
 10
5.4443664761
 20
15.6694909309
 10
5.481543623
 20
15.6817798772
 10
5.5178323246
 20
15.696301414
 10
5.5436348024
 20
15.7082520283
  0
LWPOLYLINE
  5
299
100
AcDbEntity
  8
0
100
AcDbPolyline
 62
250
  6
CONTINUOUS
 90
10
 70
0
 10
24.4967961324
 20
-22.0252041434
 10
24.5173469969
 20
-22.0298676338
 10
24.6545535445
 20
-22.0537614934
 10
24.7896696413
 20
-22.06993934
 10
24.9230664953
 20
-22.0784044474
 10
25.0543728985
 20
-22.0791535417
 10
25.1824752276
 20
-22.0721768019
 10
25.3070022749
 20
-22.0574709541
 10
25.4283252482
 20
-22.0350392721
 10
25.5464441474
 20
-22.0048817559
  0
LWPOLYLINE
  5
29A
100
AcDbEntity
  8
0
100
AcDbPolyline
 62
250
  6
CONTINUOUS
 90
25
 70
0
 10
17.4424808853
 20
-18.4662418862
 10
17.4260457054
 20
-18.4618831593
 10
17.4083559741
 20
-18.4597263726
 10
17.3893811703
 20
-18.4598367987
 10
17.3690718321
 20
-18.4621612671
 10
17.347437479
 20
-18.466897386
 10
17.3245559939
 20
-18.4744855585
 10
17.3004491926
 20
-18.4850431974
 10
17.2751296327
 20
-18.4986008761
 10
17.2486883474
 20
-18.5154599541
 10
17.2211879773
 20
-18.535737097
 10
17.192676209
 20
-18.5594615193
 10
17.1632442713
 20
-18.5867970609
 10
17.1330229437
 20
-18.6178162067
 10
17.1020701014
 20
-18.6525836383
 10
17.0703875966
 20
-18.6912594469
 10
17.0381674256
 20
-18.7338762867
 10
17.0054941627
 20
-18.7805459313
 10
16.9722423146
 20
-18.8315875089
 10
16.9383989982
 20
-18.8875676579
 10
16.9044134861
 20
-18.9481229523
 10
16.8708738882
 20
-19.0121565444
 10
16.8381286191
 20
-19.0792967832
 10
16.8063167579
 20
-19.1499444719
 10
16.7757032216
 20
-19.2240996028
  0
LINE
  5
29B
100
AcDbEntity
  8
0
100
AcDbLine
 62
7
  6
CONTINUOUS
 10
20.0478596657
 20
-26.0697960874
 11
20.0483289314
 21
-26.0700214389
  0
LWPOLYLINE
  5
29C
100
AcDbEntity
  8
0
100
AcDbPolyline
 62
250
  6
CONTINUOUS
 90
9
 70
0
 10
19.9113563641
 20
-25.8235010819
 10
19.9178602223
 20
-25.8266698411
 10
19.9243667378
 20
-25.8299091302
 10
19.9308759105
 20
-25.8332189493
 10
19.9373878983
 20
-25.8365993924
 10
19.9439025434
 20
-25.8400503655
 10
19.9504193723
 20
-25.8435715863
 10
19.9569382273
 20
-25.8471629606
 10
19.9634592661
 20
-25.8508245826
  0
LWPOLYLINE
  5
29D
100
AcDbEntity
  8
0
100
AcDbPolyline
 62
7
  6
CONTINUOUS
 90
5
 70
0
 10
20.0486833083
 20
-26.0701943615
 10
20.0549127412
 20
-26.0732946512
 10
20.0614812817
 20
-26.0767259605
 10
20.0683735121
 20
-26.0804970827
 10
20.0735208925
 20
-26.0834232044
  0
LWPOLYLINE
  5
29E
100
AcDbEntity
  8
0
100
AcDbPolyline
 62
250
  6
CONTINUOUS
 90
16
 70
0
 10
20.6803269725
 20
-29.3564662725
 10
20.6436890656
 20
-29.3373071672
 10
20.6039537431
 20
-29.3203304791
 10
20.5615093633
 20
-29.305702132
 10
20.5167707622
 20
-29.2935650981
 10
20.4701751983
 20
-29.2840380001
 10
20.4221780796
 20
-29.2772139526
 10
20.3732485124
 20
-29.2731596512
 10
20.3238647163
 20
-29.2719147211
 10
20.2745093503
 20
-29.27349133
 10
20.2256647958
 20
-29.2778740685
 10
20.1778084414
 20
-29.2850201014
 10
20.1314080177
 20
-29.2948595861
 10
20.0869170253
 20
-29.3072963549
 10
20.0447703029
 20
-29.3222088555
 10
20.0053797771
 20
-29.3394513386
  0
LWPOLYLINE
  5
29F
100
AcDbEntity
  8
0
100
AcDbPolyline
 62
250
  6
CONTINUOUS
 90
31
 70
0
 10
-2.0781936268
 20
-28.2434072841
 10
-2.0546116706
 20
-28.292471886
 10
-2.0309021525
 20
-28.3385458655
 10
-2.0070962335
 20
-28.3816516154
 10
-1.9832450054
 20
-28.4217653571
 10
-1.9593499482
 20
-28.4589609924
 10
-1.93536897
 20
-28.493399422
 10
-1.9113372618
 20
-28.525108163
 10
-1.8872695188
 20
-28.5540943015
 10
-1.8631021629
 20
-28.5804696923
 10
-1.8388745046
 20
-28.60425964
 10
-1.8146011551
 20
-28.6254580378
 10
-1.7901949111
 20
-28.6441099027
 10
-1.7656780533
 20
-28.6602414599
 10
-1.7410949932
 20
-28.6738274611
 10
-1.7164033429
 20
-28.6848216725
 10
-1.691611244
 20
-28.6932285921
 10
-1.6667833424
 20
-28.6990402172
 10
-1.641961106
 20
-28.7021927065
 10
-1.6171773578
 20
-28.7026800268
 10
-1.5924572785
 20
-28.7005212966
 10
-1.5678240414
 20
-28.6956971702
 10
-1.5433042052
 20
-28.6882120833
 10
-1.5189218462
 20
-28.6780815954
 10
-1.4946939291
 20
-28.6653052613
 10
-1.4706239863
 20
-28.6498747029
 10
-1.4467555104
 20
-28.631821499
 10
-1.4231580342
 20
-28.6112105506
 10
-1.3998409748
 20
-28.5880483243
 10
-1.3768213323
 20
-28.5623658149
 10
-1.354167431
 20
-28.5342729968
  0
LINE
  5
2A0
100
AcDbEntity
  8
0
100
AcDbLine
 62
7
  6
CONTINUOUS
 10
-15.6725566544
 20
3.0024764263
 11
-14.4846222118
 21
-2.0101723633
  0
LINE
  5
2A1
100
AcDbEntity
  8
0
100
AcDbLine
 62
7
  6
CONTINUOUS
 10
-14.1085764616
 20
-0.878782315
 11
-14.8228603766
 21
2.5118724447
  0
LINE
  5
2A2
100
AcDbEntity
  8
0
100
AcDbLine
 62
7
  6
CONTINUOUS
 10
-13.9710973969
 20
-0.4019276186
 11
-14.6107283422
 21
2.6343548227
  0
LINE
  5
2A3
100
AcDbEntity
  8
0
100
AcDbLine
 62
7
  6
CONTINUOUS
 10
-12.3005496769
 20
1.0557814962
 11
-12.3005496769
 21
-3.2712284721
  0
LINE
  5
2A4
100
AcDbEntity
  8
0
100
AcDbLine
 62
7
  6
CONTINUOUS
 10
-11.5183630048
 20
-3.7228532535
 11
-11.5183630048
 21
0.6041567148
  0
LINE
  5
2A5
100
AcDbEntity
  8
0
100
AcDbLine
 62
7
  6
CONTINUOUS
 10
-11.3062309705
 20
-3.6003708755
 11
-11.3062309705
 21
0.7266390928
  0
LINE
  5
2A6
100
AcDbEntity
  8
0
100
AcDbLine
 62
7
  6
CONTINUOUS
 10
-10.348988701
 20
-4.3980353208
 11
-10.1801924128
 21
-1.6702093798
  0
LINE
  5
2A7
100
AcDbEntity
  8
0
100
AcDbLine
 62
7
  6
CONTINUOUS
 10
-10.1368566666
 20
-4.2755529428
 11
-10.0133813462
 21
-2.2801347634
  0
LINE
  5
2A8
100
AcDbEntity
  8
0
100
AcDbLine
 62
7
  6
CONTINUOUS
 10
-10.7589366858
 20
0.1654138385
 11
-11.0972865735
 21
-3.9659775076
  0
LINE
  5
2A9
100
AcDbEntity
  8
0
100
AcDbLine
 62
7
  6
CONTINUOUS
 10
-13.7953196722
 20
-2.4081670107
 11
-12.5908205461
 21
1.2231206206
  0
LINE
  5
2AA
100
AcDbEntity
  8
0
100
AcDbLine
 62
7
  6
CONTINUOUS
 10
-13.5831876379
 20
-2.2856846327
 11
-12.3786885118
 21
1.3456029986
  0
LWPOLYLINE
  5
2AB
100
AcDbEntity
  8
0
100
AcDbPolyline
 62
250
  6
CONTINUOUS
 90
19
 70
0
 10
9.3764136368
 20
19.6433936461
 10
9.4060965688
 20
19.663782086
 10
9.4354368013
 20
19.6868489266
 10
9.4642256667
 20
19.7124301174
 10
9.4922584196
 20
19.7403437265
 10
9.5193356904
 20
19.7703912325
 10
9.545264904
 20
19.8023589361
 10
9.5698616529
 20
19.8360194847
 10
9.5929510042
 20
19.8711334836
 10
9.6143687431
 20
19.907451196
 10
9.633962546
 20
19.9447143269
 10
9.6515930651
 20
19.9826578641
 10
9.6671349144
 20
20.0210119569
 10
9.6804775631
 20
20.0595038371
 10
9.6915261165
 20
20.0978597456
 10
9.7002019955
 20
20.1358068826
 10
9.7064434998
 20
20.1730753652
 10
9.7102062446
 20
20.2094001469
 10
9.7114634726
 20
20.2445228885
  0
LWPOLYLINE
  5
2AC
100
AcDbEntity
  8
0
100
AcDbPolyline
 62
250
  6
CONTINUOUS
 90
13
 70
0
 10
6.9757286998
 20
15.982543056
 10
6.9882992405
 20
15.9903023135
 10
7.001098912
 20
15.9983018399
 10
7.014116102
 20
16.0065411632
 10
7.0272389831
 20
16.0149636095
 10
7.0405567163
 20
16.0236191665
 10
7.0543501774
 20
16.0326829752
 10
7.0686714649
 20
16.0422281559
 10
7.0834185063
 20
16.0522087104
 10
7.0986283409
 20
16.0626371138
 10
7.1142914157
 20
16.0735235053
 10
7.1303529072
 20
16.0848734033
 10
7.1467771058
 20
16.0966904731
  0
LINE
  5
2AD
100
AcDbEntity
  8
0
100
AcDbLine
 62
250
  6
CONTINUOUS
 10
6.9062688156
 20
15.9272280328
 11
4.5249418482
 21
14.4606369228
  0
LINE
  5
2AE
100
AcDbEntity
  8
0
100
AcDbLine
 62
250
  6
CONTINUOUS
 10
9.332266544
 20
19.6172811393
 11
9.3764136368
 21
19.6433936461
  0
LINE
  5
2AF
100
AcDbEntity
  8
0
100
AcDbLine
 62
250
  6
CONTINUOUS
 10
8.3004933611
 20
19.7056821582
 11
9.0365423487
 21
20.1368861041
  0
LINE
  5
2B0
100
AcDbEntity
  8
0
100
AcDbLine
 62
7
  6
CONTINUOUS
 10
-15.4604246201
 20
3.1249588043
 11
-15.6725566544
 21
3.0024764263
  0
LINE
  5
2B1
100
AcDbEntity
  8
0
100
AcDbLine
 62
250
  6
CONTINUOUS
 10
6.8258758539
 20
15.1180898473
 11
7.490484837
 21
15.4996741827
  0
LINE
  5
2B2
100
AcDbEntity
  8
0
100
AcDbLine
 62
250
  6
CONTINUOUS
 10
7.3605825668
 20
16.6006526019
 11
7.3867893666
 21
16.6153021954
  0
LINE
  5
2B3
100
AcDbEntity
  8
0
100
AcDbLine
 62
250
  6
CONTINUOUS
 10
9.5769289671
 20
16.7705218988
 11
8.3176008976
 21
16.067570257
  0
LINE
  5
2B4
100
AcDbEntity
  8
0
100
AcDbLine
 62
250
  6
CONTINUOUS
 10
9.7194185359
 20
16.6882502076
 11
5.3501752318
 21
14.2493569372
  0
LINE
  5
2B5
100
AcDbEntity
  8
0
100
AcDbLine
 62
250
  6
CONTINUOUS
 10
6.0666176084
 20
16.2857559809
 11
5.7486639205
 21
16.1296720981
  0
LINE
  5
2B6
100
AcDbEntity
  8
0
100
AcDbLine
 62
7
  6
CONTINUOUS
 10
5.543776572
 20
15.708301027
 11
7.3605825668
 21
16.6006526019
  0
LINE
  5
2B7
100
AcDbEntity
  8
0
100
AcDbLine
 62
7
  6
CONTINUOUS
 10
6.3033425177
 20
16.3477392299
 11
7.9467351762
 21
17.1394495379
  0
LINE
  5
2B8
100
AcDbEntity
  8
0
100
AcDbLine
 62
250
  6
CONTINUOUS
 10
6.4543120495
 20
16.4978752368
 11
8.093942125
 21
17.2797453465
  0
LWPOLYLINE
  5
2B9
100
AcDbEntity
  8
0
100
AcDbPolyline
 62
250
  6
CONTINUOUS
 90
16
 70
0
 10
4.8625578115
 20
15.4591846149
 10
4.8232618367
 20
15.4407350292
 10
4.7810291099
 20
15.4243379934
 10
4.736286494
 20
15.4101592155
 10
4.6894862675
 20
15.3983419943
 10
4.6411013943
 20
15.3890057286
 10
4.5916207269
 20
15.3822447392
 10
4.5415443602
 20
15.3781273656
 10
4.4913783953
 20
15.3766952275
 10
4.4416296559
 20
15.3779628166
 10
4.3928009438
 20
15.3819173607
 10
4.3453858
 20
15.3885189295
 10
4.2998633386
 20
15.3977008704
 10
4.2566936731
 20
15.4093704526
 10
4.2163132473
 20
15.4234097745
 10
4.1791302809
 20
15.439676986
  0
LWPOLYLINE
  5
2BA
100
AcDbEntity
  8
0
100
AcDbPolyline
 62
250
  6
CONTINUOUS
 90
16
 70
0
 10
5.7486639205
 20
16.129672098
 10
5.7093996561
 20
16.1112482066
 10
5.6671118686
 20
16.0952098276
 10
5.6222335987
 20
16.0817211494
 10
5.575224371
 20
16.0709202434
 10
5.526565577
 20
16.0629176727
 10
5.4767555546
 20
16.0577953432
 10
5.4263043257
 20
16.0556056444
 10
5.3757284591
 20
16.0563709379
 10
5.3255458765
 20
16.0600833198
 10
5.27627037
 20
16.066704704
 10
5.2284063964
 20
16.0761672259
 10
5.1824440008
 20
16.0883739211
 10
5.1388536989
 20
16.1031997352
 10
5.0980816674
 20
16.1204928158
 10
5.0605452267
 20
16.1400760556
  0
LWPOLYLINE
  5
2BB
100
AcDbEntity
  8
0
100
AcDbPolyline
 62
7
  6
CONTINUOUS
 90
31
 70
0
 10
7.9467684016
 20
17.1394655599
 10
7.9607529746
 20
17.1458362044
 10
7.9774054008
 20
17.1526396703
 10
7.9976345771
 20
17.1600225792
 10
8.0212779851
 20
17.1676726544
 10
8.0483143364
 20
17.1753617886
 10
8.0787219858
 20
17.1828718002
 10
8.1121795351
 20
17.1899374865
 10
8.1484790781
 20
17.1963645205
 10
8.1874645583
 20
17.2019914071
 10
8.2288019024
 20
17.206649326
 10
8.2722062657
 20
17.2102087151
 10
8.3174234837
 20
17.2125697472
 10
8.3641305382
 20
17.2136490772
 10
8.4120330223
 20
17.2133844011
 10
8.460856032
 20
17.2117314291
 10
8.510272838
 20
17.208666653
 10
8.5599836775
 20
17.204186266
 10
8.609733969
 20
17.198296035
 10
8.6592313442
 20
17.1910171342
 10
8.708196919
 20
17.1823849585
 10
8.7563544091
 20
17.1724525217
 10
8.8033497422
 20
17.1613053899
 10
8.8489547727
 20
17.1490160777
 10
8.8928386155
 20
17.135703685
 10
8.9344362884
 20
17.12160081
 10
8.9735073743
 20
17.1068752661
 10
9.0098020661
 20
17.0917193526
 10
9.0427111406
 20
17.0765313314
 10
9.0719024116
 20
17.0616715748
 10
9.0919506055
 20
17.0505424413
  0
LWPOLYLINE
  5
2BC
100
AcDbEntity
  8
0
100
AcDbPolyline
 62
250
  6
CONTINUOUS
 90
16
 70
0
 10
4.8632580172
 20
15.4519388606
 10
4.8239654557
 20
15.4343331362
 10
4.7817475199
 20
15.4186427737
 10
4.7370300743
 20
15.4050260452
 10
4.6902641904
 20
15.3936203063
 10
4.6419216168
 20
15.3845406105
 10
4.5924900228
 20
15.3778785469
 10
4.5424680543
 20
15.3737013163
 10
4.4923602882
 20
15.3720510539
 10
4.4426721645
 20
15.3729444047
 10
4.3939048991
 20
15.3763723589
 10
4.3465504295
 20
15.382300339
 10
4.3010864376
 20
15.3906685476
 10
4.2579715352
 20
15.4013925719
 10
4.2176406376
 20
15.4143642365
 10
4.1805005777
 20
15.4294526923
  0
LWPOLYLINE
  5
2BD
100
AcDbEntity
  8
0
100
AcDbPolyline
 62
250
  6
CONTINUOUS
 90
16
 70
0
 10
6.4543120502
 20
16.4978752371
 10
6.4153856255
 20
16.4810335115
 10
6.3737639344
 20
16.4681161771
 10
6.3298731766
 20
16.4592554536
 10
6.2841627545
 20
16.4545420211
 10
6.2371007384
 20
16.4540241007
 10
6.1891690794
 20
16.4577069409
 10
6.1408585547
 20
16.4655527693
 10
6.0926638061
 20
16.4774811909
 10
6.0450783461
 20
16.4933699871
 10
5.9985893728
 20
16.5130563994
 10
5.9536728231
 20
16.5363388006
 10
5.9107885634
 20
16.5629787276
 10
5.8703756087
 20
16.5927033582
 10
5.8328476338
 20
16.6252083147
 10
5.7985887749
 20
16.6601607599
  0
LWPOLYLINE
  5
2BE
100
AcDbEntity
  8
0
100
AcDbPolyline
 62
250
  6
CONTINUOUS
 90
22
 70
0
 10
8.093942125
 20
17.2797453465
 10
8.1184632519
 20
17.2901080835
 10
8.1456316809
 20
17.3009853993
 10
8.1753656042
 20
17.3122932105
 10
8.2076093293
 20
17.3240414641
 10
8.2422103748
 20
17.3361102633
 10
8.2789210051
 20
17.3482454845
 10
8.3176345462
 20
17.3605164432
 10
8.358163742
 20
17.3728582849
 10
8.4001263107
 20
17.3848208752
 10
8.4434087535
 20
17.3964866709
 10
8.4877580935
 20
17.4078518826
 10
8.5325788794
 20
17.418328792
 10
8.5776955932
 20
17.4279892508
 10
8.622865941
 20
17.4369142303
 10
8.6674107192
 20
17.4445238496
 10
8.711126912
 20
17.4508652739
 10
8.7538068811
 20
17.456096043
 10
8.7948140621
 20
17.4597987397
 10
8.8338423956
 20
17.4619112491
 10
8.8708826106
 20
17.4627318346
 10
8.9057876399
 20
17.4623834457
  0
LWPOLYLINE
  5
2BF
100
AcDbEntity
  8
0
100
AcDbPolyline
 62
250
  6
CONTINUOUS
 90
10
 70
0
 10
6.878781245
 20
15.9462299977
 10
6.8891608281
 20
15.9505245471
 10
6.899657986
 20
15.9547708673
 10
6.9102657889
 20
15.9589586995
 10
6.9209787061
 20
15.9630731271
 10
6.9317868774
 20
15.9671108501
 10
6.9426758816
 20
15.9710809904
 10
6.9536346074
 20
15.9749828839
 10
6.9646555071
 20
15.9788052541
 10
6.9757286998
 20
15.982543056
  0
LWPOLYLINE
  5
2C0
100
AcDbEntity
  8
0
100
AcDbPolyline
 62
250
  6
CONTINUOUS
 90
10
 70
0
 10
17.4506504171
 20
-18.4691634959
 10
17.4497514027
 20
-18.468808035
 10
17.4488502012
 20
-18.4684603064
 10
17.4479468189
 20
-18.4681203131
 10
17.4470412701
 20
-18.4677880977
 10
17.4461335536
 20
-18.4674636234
 10
17.4452236529
 20
-18.467146774
 10
17.4443115665
 20
-18.4668375128
 10
17.4433973085
 20
-18.4665358825
 10
17.4424808853
 20
-18.4662418862
  0
LWPOLYLINE
  5
2C1
100
AcDbEntity
  8
0
100
AcDbPolyline
 62
250
  6
CONTINUOUS
 90
16
 70
0
 10
22.9628660411
 20
-26.44111804
 10
23.0004047804
 20
-26.460702361
 10
23.0411790617
 20
-26.4779960899
 10
23.0847714141
 20
-26.4928221633
 10
23.1307355139
 20
-26.5050287832
 10
23.1786007538
 20
-26.5144909712
 10
23.2278770615
 20
-26.5211118479
 10
23.2780599176
 20
-26.5248236249
 10
23.3286355208
 20
-26.5255882988
 10
23.3790860485
 20
-26.5233980405
 10
23.4288949589
 20
-26.5182752752
 10
23.4775522793
 20
-26.5102724526
 10
23.5245598278
 20
-26.4994715103
 10
23.5694363138
 20
-26.4859830347
 10
23.6117222655
 20
-26.4699451286
 10
23.6509847349
 20
-26.4515219975
  0
LWPOLYLINE
  5
2C2
100
AcDbEntity
  8
0
100
AcDbPolyline
 62
250
  6
CONTINUOUS
 90
16
 70
0
 10
20.5144460685
 20
-22.7988990877
 10
20.4826388448
 20
-22.7813066555
 10
20.4511287725
 20
-22.7647884797
 10
20.4199158515
 20
-22.7493445603
 10
20.3889295849
 20
-22.7350286348
 10
20.3582404697
 20
-22.7217869657
 10
20.328059997
 20
-22.7094583409
 10
20.2983985487
 20
-22.6980359383
 10
20.2692457431
 20
-22.68752658
 10
20.2407819251
 20
-22.6777895202
 10
20.2130146986
 20
-22.668819627
 10
20.1859364598
 20
-22.6606220323
 10
20.1597047429
 20
-22.6530713871
 10
20.1343720593
 20
-22.6461259081
 10
20.1098858976
 20
-22.6398273785
 10
20.0862462578
 20
-22.6341757982
  0
LWPOLYLINE
  5
2C3
100
AcDbEntity
  8
0
100
AcDbPolyline
 62
250
  6
CONTINUOUS
 90
16
 70
0
 10
19.9113563641
 20
-23.880931724
 10
19.9000592889
 20
-23.8746494854
 10
19.888791616
 20
-23.8688080816
 10
19.8775940513
 20
-23.8633938648
 10
19.866511877
 20
-23.8584006098
 10
19.8555735799
 20
-23.8538054548
 10
19.8447893946
 20
-23.8495701887
 10
19.8341843474
 20
-23.8456784312
 10
19.8237896139
 20
-23.8421182976
 10
19.8136195305
 20
-23.8388596109
 10
19.8036934834
 20
-23.8358870043
 10
19.7940354348
 20
-23.8331883459
 10
19.7846633144
 20
-23.830738935
 10
19.7755941462
 20
-23.8285217442
 10
19.7668441855
 20
-23.826527427
 10
19.7584278603
 20
-23.8247432519
  0
LWPOLYLINE
  5
2C4
100
AcDbEntity
  8
0
100
AcDbPolyline
 62
7
  6
CONTINUOUS
 90
8
 70
0
 10
22.0777923756
 20
-27.2406644371
 10
22.1045289391
 20
-27.2558007447
 10
22.1937739957
 20
-27.3020058318
 10
22.2829771982
 20
-27.3416335478
 10
22.3719905453
 20
-27.3747103051
 10
22.4606283638
 20
-27.4012402292
 10
22.5486272354
 20
-27.4212147739
 10
22.6358300873
 20
-27.4346588112
  0
LWPOLYLINE
  5
2C5
100
AcDbEntity
  8
0
100
AcDbPolyline
 62
250
  6
CONTINUOUS
 90
22
 70
0
 10
21.9742732388
 20
-27.0118088116
 10
22.0089989262
 20
-27.0314705277
 10
22.0450074447
 20
-27.0499885143
 10
22.0822987944
 20
-27.0673627714
 10
22.1208498892
 20
-27.0838242868
 10
22.1606838151
 20
-27.0991420728
 10
22.2018698305
 20
-27.1126231659
 10
22.2445922281
 20
-27.1243869516
 10
22.2886667152
 20
-27.1343140445
 10
22.3336096726
 20
-27.1413533246
 10
22.3795972055
 20
-27.145506902
 10
22.4264532086
 20
-27.1467726667
 10
22.4731657475
 20
-27.1440931684
 10
22.5200024015
 20
-27.1371798596
 10
22.5666955913
 20
-27.1263212877
 10
22.6114306443
 20
-27.1113256455
 10
22.6540009673
 20
-27.0917510652
 10
22.6946131535
 20
-27.0680394146
 10
22.7320723099
 20
-27.041324489
 10
22.7659627142
 20
-27.0115306822
 10
22.7967000886
 20
-26.9787336005
 10
22.8243367072
 20
-26.9442938584
  0
LINE
  5
2C6
100
AcDbEntity
  8
0
100
AcDbLine
 62
7
  6
CONTINUOUS
 10
20.0735237993
 20
-26.0834248828
 11
22.0778145494
 21
-27.2406772423
  0
LINE
  5
2C7
100
AcDbEntity
  8
0
100
AcDbLine
 62
250
  6
CONTINUOUS
 10
19.9634592661
 20
-25.8508245826
 11
21.9742732388
 21
-27.0118088116
  0
LINE
  5
2C8
100
AcDbEntity
  8
0
100
AcDbLine
 62
250
  6
CONTINUOUS
 10
20.8596227154
 20
-24.4284488306
 11
19.9113563641
 21
-23.880931724
  0
LINE
  5
2C9
100
AcDbEntity
  8
0
100
AcDbLine
 62
250
  6
CONTINUOUS
 10
20.0550929343
 20
-26.0710836503
 11
20.0735208925
 21
-26.0834232044
  0
LINE
  5
2CA
100
AcDbEntity
  8
0
100
AcDbLine
 62
7
  6
CONTINUOUS
 10
-10.1801924128
 20
-1.6702093798
 11
-9.2625926708
 21
-5.0253067729
  0
LINE
  5
2CB
100
AcDbEntity
  8
0
100
AcDbLine
 62
7
  6
CONTINUOUS
 10
-9.2034707657
 20
-3.1349180693
 11
-9.9773963093
 21
-0.2858377799
  0
LINE
  5
2CC
100
AcDbEntity
  8
0
100
AcDbLine
 62
7
  6
CONTINUOUS
 10
-7.2969821902
 20
-6.1602256295
 11
-7.6473868343
 21
-1.6311560489
  0
LINE
  5
2CD
100
AcDbEntity
  8
0
100
AcDbLine
 62
7
  6
CONTINUOUS
 10
-7.0900778838
 20
-5.9701735316
 11
-7.4352547999
 21
-1.5086736709
  0
LINE
  5
2CE
100
AcDbEntity
  8
0
100
AcDbLine
 62
7
  6
CONTINUOUS
 10
-8.222871345
 20
-2.8121204336
 11
-8.0621686011
 21
-5.7184165859
  0
LINE
  5
2CF
100
AcDbEntity
  8
0
100
AcDbLine
 62
7
  6
CONTINUOUS
 10
-5.6002365333
 20
21.2366741048
 11
-5.6002435481
 21
21.236559266
  0
LINE
  5
2D0
100
AcDbEntity
  8
0
100
AcDbLine
 62
7
  6
CONTINUOUS
 10
-5.6002365334
 20
21.2366741037
 11
-5.600242759
 21
21.2365804935
  0
LWPOLYLINE
  5
2D1
100
AcDbEntity
  8
0
100
AcDbPolyline
 62
7
  6
CONTINUOUS
 90
9
 70
0
 10
-5.6002541882
 20
21.2364086418
 10
-5.6006772388
 20
21.2337827258
 10
-5.6021670288
 20
21.2281034643
 10
-5.6053411903
 20
21.2193188311
 10
-5.6107310538
 20
21.2075754549
 10
-5.618853613
 20
21.1929896941
 10
-5.6300241536
 20
21.1759664364
 10
-5.6443561904
 20
21.1570397159
 10
-5.6578624443
 20
21.1411326474
  0
LINE
  5
2D2
100
AcDbEntity
  8
0
100
AcDbLine
 62
7
  6
CONTINUOUS
 10
-8.4212840936
 20
-1.1843174706
 11
-9.2034707657
 21
-3.1349180693
  0
LINE
  5
2D3
100
AcDbEntity
  8
0
100
AcDbLine
 62
7
  6
CONTINUOUS
 10
-9.1528914176
 20
-5.0886469016
 11
-8.222871345
 21
-2.8121204336
  0
LINE
  5
2D4
100
AcDbEntity
  8
0
100
AcDbLine
 62
7
  6
CONTINUOUS
 10
-8.9407593833
 20
-4.9661645236
 11
-8.2035471022
 21
-3.1615978052
  0
LWPOLYLINE
  5
2D5
100
AcDbEntity
  8
0
100
AcDbPolyline
 62
250
  6
CONTINUOUS
 90
5
 70
0
 10
4.8998027892
 20
15.5968397988
 10
4.8959409887
 20
15.5931512595
 10
4.8860466353
 20
15.5805651427
 10
4.877825107
 20
15.5665841512
 10
4.871363412
 20
15.5517168548
  0
LWPOLYLINE
  5
2D6
100
AcDbEntity
  8
0
100
AcDbPolyline
 62
250
  6
CONTINUOUS
 90
10
 70
0
 10
6.9757286998
 20
15.982543056
 10
6.9681590955
 20
15.9756928184
 10
6.9605435834
 20
15.9690111948
 10
6.9528859354
 20
15.9625014939
 10
6.9451899445
 20
15.9561669395
 10
6.9374594223
 20
15.9500106685
 10
6.9296981978
 20
15.9440357293
 10
6.9219101151
 20
15.9382450808
 10
6.9140990314
 20
15.9326415904
 10
6.9062688156
 20
15.9272280328
  0
LINE
  5
2D7
100
AcDbEntity
  8
0
100
AcDbLine
 62
250
  6
CONTINUOUS
 10
5.7264190339
 20
14.7263912208
 11
5.7794834184
 21
14.7710922353
  0
LINE
  5
2D8
100
AcDbEntity
  8
0
100
AcDbLine
 62
250
  6
CONTINUOUS
 10
5.7794834184
 20
14.7710922353
 11
5.835772299
 21
14.8177600756
  0
LINE
  5
2D9
100
AcDbEntity
  8
0
100
AcDbLine
 62
250
  6
CONTINUOUS
 10
5.835772299
 20
14.8177600756
 11
5.8953992479
 21
14.8664751711
  0
LINE
  5
2DA
100
AcDbEntity
  8
0
100
AcDbLine
 62
250
  6
CONTINUOUS
 10
5.8953992479
 20
14.8664751711
 11
5.9589088584
 21
14.917672863
  0
LINE
  5
2DB
100
AcDbEntity
  8
0
100
AcDbLine
 62
250
  6
CONTINUOUS
 10
5.9589088584
 20
14.917672863
 11
6.0271762755
 21
14.9720086142
  0
LINE
  5
2DC
100
AcDbEntity
  8
0
100
AcDbLine
 62
250
  6
CONTINUOUS
 10
6.0271762755
 20
14.9720086142
 11
6.1007433876
 21
15.0298768469
  0
LINE
  5
2DD
100
AcDbEntity
  8
0
100
AcDbLine
 62
250
  6
CONTINUOUS
 10
6.1007433876
 20
15.0298768469
 11
6.1804077482
 21
15.0918424476
  0
LINE
  5
2DE
100
AcDbEntity
  8
0
100
AcDbLine
 62
250
  6
CONTINUOUS
 10
6.1804077482
 20
15.0918424476
 11
6.2670767329
 21
15.1585213147
  0
LINE
  5
2DF
100
AcDbEntity
  8
0
100
AcDbLine
 62
250
  6
CONTINUOUS
 10
6.2670767329
 20
15.1585213147
 11
6.3613244617
 21
15.2302948197
  0
LINE
  5
2E0
100
AcDbEntity
  8
0
100
AcDbLine
 62
250
  6
CONTINUOUS
 10
6.3613244617
 20
15.2302948197
 11
6.4639516337
 21
15.307679071
  0
LINE
  5
2E1
100
AcDbEntity
  8
0
100
AcDbLine
 62
250
  6
CONTINUOUS
 10
6.4639516337
 20
15.307679071
 11
6.6356079251
 21
15.4355625291
  0
LINE
  5
2E2
100
AcDbEntity
  8
0
100
AcDbLine
 62
250
  6
CONTINUOUS
 10
6.6356079251
 20
15.4355625291
 11
6.8311786374
 21
15.5792869618
  0
LWPOLYLINE
  5
2E3
100
AcDbEntity
  8
0
100
AcDbPolyline
 62
250
  6
CONTINUOUS
 90
10
 70
0
 10
7.3867893666
 20
16.6153021954
 10
7.4182563208
 20
16.6382232292
 10
7.4470755686
 20
16.6656292148
 10
7.4730792807
 20
16.697360553
 10
7.4961160239
 20
16.7332324559
 10
7.5160516434
 20
16.7730360227
 10
7.5327700435
 20
16.8165394566
 10
7.5461738645
 20
16.8634894146
 10
7.5561850489
 20
16.9136124828
 10
7.5611300984
 20
16.9535665875
  0
LWPOLYLINE
  5
2E4
100
AcDbEntity
  8
0
100
AcDbPolyline
 62
250
  6
CONTINUOUS
 90
3
 70
0
 10
6.8311786374
 20
15.5792869618
 10
7.0523844108
 20
15.7397405475
 10
7.1318787999
 20
15.7969636554
  0
LWPOLYLINE
  5
2E5
100
AcDbEntity
  8
0
100
AcDbPolyline
 62
250
  6
CONTINUOUS
 90
10
 70
0
 10
8.0278926222
 20
15.8453516454
 10
8.0751725627
 20
15.8794037563
 10
8.1184123763
 20
15.9110610807
 10
8.1576217588
 20
15.9402946669
 10
8.1924691974
 20
15.9669182407
 10
8.2233041625
 20
15.9910605052
 10
8.2511437235
 20
16.0131689925
 10
8.276315575
 20
16.0333810579
 10
8.2984716009
 20
16.0515200958
 10
8.3176008976
 20
16.067570257
  0
LWPOLYLINE
  5
2E6
100
AcDbEntity
  8
0
100
AcDbPolyline
 62
250
  6
CONTINUOUS
 90
16
 70
0
 10
13.2265921673
 20
17.4203488167
 10
13.2621770735
 20
17.4451411761
 10
13.2972082163
 20
17.4737443055
 10
13.3313269288
 20
17.5058653588
 10
13.3641838818
 20
17.5411754663
 10
13.3954426706
 20
17.579313114
 10
13.4247832581
 20
17.6198878475
 10
13.4519052352
 20
17.6624842485
 10
13.476530905
 20
17.7066661952
 10
13.4984081341
 20
17.751981343
 10
13.5173129212
 20
17.7979657333
 10
13.5330516963
 20
17.8441485498
 10
13.5454633063
 20
17.8900569494
 10
13.5544206601
 20
17.9352208918
 10
13.5598320321
 20
17.9791779515
 10
13.5616420031
 20
18.021478059
  0
LWPOLYLINE
  5
2E7
100
AcDbEntity
  8
0
100
AcDbPolyline
 62
250
  6
CONTINUOUS
 90
10
 70
0
 10
5.3169195605
 20
14.2278069395
 10
5.320608827
 20
14.2302972424
 10
5.3242998365
 20
14.2327637729
 10
5.3279924638
 20
14.2352064475
 10
5.331686583
 20
14.2376251842
 10
5.3353820701
 20
14.2400199006
 10
5.3390788034
 20
14.242390514
 10
5.3427766587
 20
14.2447369438
 10
5.3464755099
 20
14.2470591111
 10
5.3501752318
 20
14.2493569372
  0
LINE
  5
2E8
100
AcDbEntity
  8
0
100
AcDbLine
 62
250
  6
CONTINUOUS
 10
5.3870455199
 20
14.2766187306
 11
5.4012378654
 21
14.2856502131
  0
LINE
  5
2E9
100
AcDbEntity
  8
0
100
AcDbLine
 62
250
  6
CONTINUOUS
 10
5.4012378654
 20
14.2856502131
 11
5.4171032494
 21
14.2955844225
  0
LINE
  5
2EA
100
AcDbEntity
  8
0
100
AcDbLine
 62
250
  6
CONTINUOUS
 10
5.4171032494
 20
14.2955844225
 11
5.4345535854
 21
14.3063851689
  0
LINE
  5
2EB
100
AcDbEntity
  8
0
100
AcDbLine
 62
250
  6
CONTINUOUS
 10
5.4345535854
 20
14.3063851689
 11
5.4640740579
 21
14.3244513048
  0
LINE
  5
2EC
100
AcDbEntity
  8
0
100
AcDbLine
 62
250
  6
CONTINUOUS
 10
5.4640740579
 20
14.3244513048
 11
5.510768625
 21
14.3526891249
  0
LINE
  5
2ED
100
AcDbEntity
  8
0
100
AcDbLine
 62
250
  6
CONTINUOUS
 10
5.510768625
 20
14.3526891249
 11
5.5821816012
 21
14.3953925482
  0
LINE
  5
2EE
100
AcDbEntity
  8
0
100
AcDbLine
 62
250
  6
CONTINUOUS
 10
5.5821816012
 20
14.3953925482
 11
5.7077656429
 21
14.4696899588
  0
LINE
  5
2EF
100
AcDbEntity
  8
0
100
AcDbLine
 62
250
  6
CONTINUOUS
 10
5.7077656429
 20
14.4696899588
 11
5.9667383285
 21
14.6212710351
  0
LWPOLYLINE
  5
2F0
100
AcDbEntity
  8
0
100
AcDbPolyline
 62
250
  6
CONTINUOUS
 90
15
 70
0
 10
7.490484837
 20
15.4996741827
 10
7.5344957899
 20
15.5252770457
 10
7.5768381263
 20
15.5502929381
 10
7.6175158714
 20
15.5747266151
 10
7.6565014956
 20
15.5986203959
 10
7.6938350346
 20
15.6219448694
 10
7.7296202621
 20
15.6445945093
 10
7.7634288257
 20
15.6662584659
 10
7.7956984652
 20
15.6872525269
 10
7.8278308159
 20
15.7084082272
 10
7.8600510312
 20
15.7298283571
 10
7.8921514434
 20
15.7514160558
 10
7.9248918639
 20
15.7737061706
 10
7.9585398624
 20
15.7968799728
 10
8.0278926222
 20
15.8453516454
  0
LINE
  5
2F1
100
AcDbEntity
  8
0
100
AcDbLine
 62
7
  6
CONTINUOUS
 10
-14.6107283422
 20
2.6343548227
 11
-14.8228603766
 21
2.5118724447
  0
LINE
  5
2F2
100
AcDbEntity
  8
0
100
AcDbLine
 62
250
  6
CONTINUOUS
 10
13.2265921673
 20
17.4203488167
 11
13.1876455973
 21
17.3978617717
  0
LINE
  5
2F3
100
AcDbEntity
  8
0
100
AcDbLine
 62
7
  6
CONTINUOUS
 10
-13.1603413183
 20
1.7969195326
 11
-13.3724733526
 21
1.6744371546
  0
LINE
  5
2F4
100
AcDbEntity
  8
0
100
AcDbLine
 62
7
  6
CONTINUOUS
 10
-12.3786885118
 20
1.3456029986
 11
-12.5908205461
 21
1.2231206206
  0
LINE
  5
2F5
100
AcDbEntity
  8
0
100
AcDbLine
 62
7
  6
CONTINUOUS
 10
-12.0884176426
 20
1.1782638742
 11
-12.3005496769
 21
1.0557814962
  0
LINE
  5
2F6
100
AcDbEntity
  8
0
100
AcDbLine
 62
250
  6
CONTINUOUS
 10
5.9667383285
 20
14.6212710351
 11
6.5996851742
 21
14.9878088134
  0
LINE
  5
2F7
100
AcDbEntity
  8
0
100
AcDbLine
 62
250
  6
CONTINUOUS
 10
6.5996851742
 20
14.9878088134
 11
6.8258758539
 21
15.1180898473
  0
LINE
  5
2F8
100
AcDbEntity
  8
0
100
AcDbLine
 62
250
  6
CONTINUOUS
 10
9.8194275023
 20
12.2011300676
 11
9.7752463999
 21
12.1783451473
  0
LINE
  5
2F9
100
AcDbEntity
  8
0
100
AcDbLine
 62
250
  6
CONTINUOUS
 10
9.7752463999
 20
12.1783451473
 11
9.7340012177
 21
12.1574520122
  0
LINE
  5
2FA
100
AcDbEntity
  8
0
100
AcDbLine
 62
250
  6
CONTINUOUS
 10
9.7340012177
 20
12.1574520122
 11
9.6953878987
 21
12.1382530666
  0
LINE
  5
2FB
100
AcDbEntity
  8
0
100
AcDbLine
 62
250
  6
CONTINUOUS
 10
9.6953878987
 20
12.1382530666
 11
9.659121298
 21
12.1205730068
  0
LWPOLYLINE
  5
2FC
100
AcDbEntity
  8
0
100
AcDbPolyline
 62
250
  6
CONTINUOUS
 90
47
 70
0
 10
9.659121298
 20
12.1205730068
 10
9.624994696
 20
12.1042907383
 10
9.60860617
 20
12.096601316
 10
9.5926692394
 20
12.0892151033
 10
9.5770819784
 20
12.0820799563
 10
9.561825321
 20
12.0751856746
 10
9.5469183333
 20
12.0685424586
 10
9.5323162883
 20
12.0621287658
 10
9.5179894821
 20
12.0559318277
 10
9.5039676188
 20
12.0499644128
 10
9.4902950836
 20
12.0442432839
 10
9.4769746742
 20
12.0387710745
 10
9.4640035931
 20
12.0335451511
 10
9.4514178329
 20
12.0285743761
 10
9.4392334844
 20
12.023866009
 10
9.4274344569
 20
12.0194127902
 10
9.416008471
 20
12.0152018035
 10
9.4049604742
 20
12.0112347884
 10
9.3942855191
 20
12.0075100054
 10
9.3839564836
 20
12.0040093196
 10
9.3739736543
 20
12.0007324103
 10
9.3643367446
 20
11.9976795982
 10
9.3550177736
 20
11.9948337102
 10
9.346014473
 20
11.9921936993
 10
9.3373291111
 20
11.9897606125
 10
9.3289405117
 20
11.9875204186
 10
9.3208475518
 20
11.9854724689
 10
9.3130513544
 20
11.9836174121
 10
9.3055341123
 20
11.9819431624
 10
9.2982988655
 20
11.9804498892
 10
9.2913425739
 20
11.9791374231
 10
9.2846383102
 20
11.9779931698
 10
9.2781917609
 20
11.977015699
 10
9.2719972396
 20
11.976206441
 10
9.2660107592
 20
11.9755570924
 10
9.2602271793
 20
11.9750636281
 10
9.2546516404
 20
11.9747300732
 10
9.2492555768
 20
11.9745601992
 10
9.2440710015
 20
11.9745406515
 10
9.2390659015
 20
11.9746847847
 10
9.2341156717
 20
11.9750364339
 10
9.2292170834
 20
11.9755472432
 10
9.2243733653
 20
11.9762655686
 10
9.2194695982
 20
11.9773803127
 10
9.2144674757
 20
11.9789544434
 10
9.2094053041
 20
11.980924993
 10
9.2042830835
 20
11.9832919614
  0
LWPOLYLINE
  5
2FD
100
AcDbEntity
  8
0
100
AcDbPolyline
 62
250
  6
CONTINUOUS
 90
16
 70
0
 10
14.5682538276
 20
15.096522657
 10
14.6075162969
 20
15.1149457881
 10
14.6498022487
 20
15.1309836941
 10
14.6946787346
 20
15.1444721697
 10
14.7416862831
 20
15.155273112
 10
14.7903436036
 20
15.1632759346
 10
14.840152514
 20
15.1683987
 10
14.8906030417
 20
15.1705889583
 10
14.9411786448
 20
15.1698242843
 10
14.9913615009
 20
15.1661125073
 10
15.0406378086
 20
15.1594916307
 10
15.0885030485
 20
15.1500294427
 10
15.1344671483
 20
15.1378228227
 10
15.1780595008
 20
15.1229967493
 10
15.2188337821
 20
15.1057030205
 10
15.2563725213
 20
15.0861186994
  0
LWPOLYLINE
  5
2FE
100
AcDbEntity
  8
0
100
AcDbPolyline
 62
7
  6
CONTINUOUS
 90
10
 70
0
 10
-1.729975309
 20
-7.2505503921
 10
-1.7194223616
 20
-7.2476496856
 10
-1.7086735748
 20
-7.2443381416
 10
-1.697725093
 20
-7.2406151806
 10
-1.686580772
 20
-7.2364813822
 10
-1.6752501011
 20
-7.231859198
 10
-1.6637303148
 20
-7.226751298
 10
-1.6520241787
 20
-7.2211550121
 10
-1.640149479
 20
-7.2149847819
 10
-1.6287215117
 20
-7.2085998657
  0
LWPOLYLINE
  5
2FF
100
AcDbEntity
  8
0
100
AcDbPolyline
 62
250
  6
CONTINUOUS
 90
25
 70
0
 10
-23.5090627424
 20
-14.6419237493
 10
-23.6677187328
 20
-14.6818344105
 10
-23.8296864061
 20
-14.7170321429
 10
-23.9945461358
 20
-14.7474257564
 10
-24.1618708014
 20
-14.7729365075
 10
-24.3312268989
 20
-14.7934983029
 10
-24.5021756638
 20
-14.8090578701
 10
-24.674274203
 20
-14.8195748969
 10
-24.8470766416
 20
-14.8250221358
 10
-25.0201352831
 20
-14.8253854737
 10
-25.1930017665
 20
-14.8206639691
 10
-25.3652282288
 20
-14.8108698542
 10
-25.5363684651
 20
-14.7960285032
 10
-25.7059790848
 20
-14.776178367
 10
-25.8736206598
 20
-14.7513708731
 10
-26.0388588638
 20
-14.7216702924
 10
-26.2012655969
 20
-14.687153573
 10
-26.3604200948
 20
-14.6479101407
 10
-26.5159100192
 20
-14.6040416672
 10
-26.667332529
 20
-14.5556618063
 10
-26.8142953146
 20
-14.5028959009
 10
-26.9564176153
 20
-14.4458806584
 10
-27.0933312179
 20
-14.3847637953
 10
-27.2246814096
 20
-14.3197036534
 10
-27.3501278884
 20
-14.250868791
  0
LWPOLYLINE
  5
300
100
AcDbEntity
  8
0
100
AcDbPolyline
 62
7
  6
CONTINUOUS
 90
4
 70
0
 10
-1.7604599094
 20
-7.257254321
 10
-1.7504940829
 20
-7.2553527098
 10
-1.7403344942
 20
-7.2531195478
 10
-1.729975309
 20
-7.2505503921
  0
LWPOLYLINE
  5
301
100
AcDbEntity
  8
0
100
AcDbPolyline
 62
250
  6
CONTINUOUS
 90
34
 70
0
 10
16.7757032378
 20
-6.7045259324
 10
16.8036881304
 20
-6.7006444372
 10
16.8342442696
 20
-6.6970307063
 10
16.8674885377
 20
-6.6937476627
 10
16.9040638725
 20
-6.6907280283
 10
16.9435845077
 20
-6.6881436786
 10
16.9845472927
 20
-6.6863465155
 10
17.0269687789
 20
-6.6853034051
 10
17.0708985687
 20
-6.6849577801
 10
17.1147236753
 20
-6.6855275326
 10
17.158192537
 20
-6.6869811901
 10
17.2014475392
 20
-6.6891634802
 10
17.2433469191
 20
-6.6920719771
 10
17.2835402441
 20
-6.6956887487
 10
17.3221929296
 20
-6.6998793596
 10
17.3588859654
 20
-6.7044841781
 10
17.3932585671
 20
-6.7094639581
 10
17.4255035229
 20
-6.7147972024
 10
17.4560381967
 20
-6.7203687773
 10
17.4848562298
 20
-6.7261674933
 10
17.5118637228
 20
-6.7321880298
 10
17.5373661676
 20
-6.7383235297
 10
17.5613799961
 20
-6.744587426
 10
17.5838245829
 20
-6.7509748654
 10
17.604868977
 20
-6.7573535046
 10
17.6244795793
 20
-6.7637356234
 10
17.6426488556
 20
-6.7701427859
 10
17.6595903314
 20
-6.7764597248
 10
17.6752912937
 20
-6.7826996
 10
17.689742102
 20
-6.7888941908
 10
17.7031646531
 20
-6.7949541762
 10
17.7156296694
 20
-6.8008639489
 10
17.7270568142
 20
-6.8066847
 10
17.7374438842
 20
-6.8124405766
  0
LWPOLYLINE
  5
302
100
AcDbEntity
  8
0
100
AcDbPolyline
 62
7
  6
CONTINUOUS
 90
5
 70
0
 10
-1.807738709
 20
-7.2635459051
 10
-1.7893078576
 20
-7.261569462
 10
-1.7798667967
 20
-7.2603626971
 10
-1.7702515532
 20
-7.2589169974
 10
-1.7604599094
 20
-7.257254321
  0
LWPOLYLINE
  5
303
100
AcDbEntity
  8
0
100
AcDbPolyline
 62
250
  6
CONTINUOUS
 90
28
 70
0
 10
20.5691659368
 20
-5.0052665517
 10
20.555160497
 20
-5.0064382823
 10
20.534967204
 20
-5.0052790604
 10
20.5135357282
 20
-5.0011516232
 10
20.4908998628
 20
-4.9942029241
 10
20.467013392
 20
-4.984635753
 10
20.4423136426
 20
-4.9722404349
 10
20.4168692679
 20
-4.9572142594
 10
20.3907003524
 20
-4.9398147253
 10
20.364212523
 20
-4.9198802509
 10
20.3374818062
 20
-4.8976697949
 10
20.3105715054
 20
-4.8734816837
 10
20.2838790578
 20
-4.8471853716
 10
20.2574609143
 20
-4.8191054731
 10
20.2313960485
 20
-4.7895789847
 10
20.2060977054
 20
-4.7584834781
 10
20.1815774257
 20
-4.7261993803
 10
20.1579006453
 20
-4.6931055887
 10
20.1355126181
 20
-4.6590742576
 10
20.1143562905
 20
-4.624480447
 10
20.0944585615
 20
-4.5897635399
 10
20.0763108822
 20
-4.5548577014
 10
20.0597993144
 20
-4.5199908268
 10
20.0448754255
 20
-4.4856725308
 10
20.0320378289
 20
-4.4520899164
 10
20.0213519189
 20
-4.4193647524
 10
20.0125010445
 20
-4.3877006541
 10
20.0053797472
 20
-4.3572639956
  0
LWPOLYLINE
  5
304
100
AcDbEntity
  8
0
100
AcDbPolyline
 62
7
  6
CONTINUOUS
 90
9
 70
0
 10
-2.1127144623
 20
-6.4222998279
 10
-2.1168882568
 20
-6.4224681266
 10
-2.1565391448
 20
-6.4196156823
 10
-2.199126555
 20
-6.4124539123
 10
-2.2444859852
 20
-6.4009526424
 10
-2.2923278123
 20
-6.3851266246
 10
-2.3425554954
 20
-6.3649807761
 10
-2.3952655754
 20
-6.3405101796
 10
-2.4504580524
 20
-6.3117148352
  0
LWPOLYLINE
  5
305
100
AcDbEntity
  8
0
100
AcDbPolyline
 62
7
  6
CONTINUOUS
 90
6
 70
0
 10
-1.8517415031
 20
-7.2589832405
 10
-1.8431334085
 20
-7.2615398687
 10
-1.8344258493
 20
-7.2633125652
 10
-1.8256188257
 20
-7.2643013299
 10
-1.8167284996
 20
-7.2643155834
 10
-1.807738709
 20
-7.2635459051
  0
LINE
  5
306
100
AcDbEntity
  8
0
100
AcDbLine
 62
250
  6
CONTINUOUS
 10
17.5892873857
 20
-18.7163696961
 11
17.5751879106
 21
-18.7096016784
  0
LWPOLYLINE
  5
307
100
AcDbEntity
  8
0
100
AcDbPolyline
 62
250
  6
CONTINUOUS
 90
3
 70
0
 10
17.5846515296
 20
-18.7142441831
 10
17.5785592408
 20
-18.7111308367
 10
17.5487047447
 20
-18.6926938663
  0
LWPOLYLINE
  5
308
100
AcDbEntity
  8
0
100
AcDbPolyline
 62
7
  6
CONTINUOUS
 90
5
 70
0
 10
17.58465153
 20
-18.7142441833
 10
17.5951167248
 20
-18.7197632799
 10
17.6070753047
 20
-18.7269203736
 10
17.6209870812
 20
-18.7362168187
 10
17.6366130328
 20
-18.7477763728
  0
LINE
  5
309
100
AcDbEntity
  8
0
100
AcDbLine
 62
250
  6
CONTINUOUS
 10
21.3021565344
 20
-23.2537132383
 11
20.5144460685
 21
-22.7988990877
  0
LINE
  5
30A
100
AcDbEntity
  8
0
100
AcDbLine
 62
7
  6
CONTINUOUS
 10
-14.4846222118
 20
-2.0101723633
 11
-13.7953196722
 21
-2.4081670107
  0
LINE
  5
30B
100
AcDbEntity
  8
0
100
AcDbLine
 62
7
  6
CONTINUOUS
 10
-12.3005496769
 20
-3.2712284721
 11
-11.5183630048
 21
-3.7228532535
  0
LINE
  5
30C
100
AcDbEntity
  8
0
100
AcDbLine
 62
7
  6
CONTINUOUS
 10
-11.0972865735
 20
-3.9659775076
 11
-10.348988701
 21
-4.3980353208
  0
LINE
  5
30D
100
AcDbEntity
  8
0
100
AcDbLine
 62
7
  6
CONTINUOUS
 10
-9.2625926708
 20
-5.0253067729
 11
-9.1528914176
 21
-5.0886469016
  0
LINE
  5
30E
100
AcDbEntity
  8
0
100
AcDbLine
 62
7
  6
CONTINUOUS
 10
-8.0621686011
 20
-5.7184165859
 11
-7.2969821902
 21
-6.1602256295
  0
LINE
  5
30F
100
AcDbEntity
  8
0
100
AcDbLine
 62
7
  6
CONTINUOUS
 10
-7.1741577423
 20
-6.2311429264
 11
-6.4004570587
 21
-6.6778680043
  0
LINE
  5
310
100
AcDbEntity
  8
0
100
AcDbLine
 62
7
  6
CONTINUOUS
 10
-4.9167865185
 20
-7.5345207795
 11
-4.0923933497
 21
-8.0105150631
  0
LINE
  5
311
100
AcDbEntity
  8
0
100
AcDbLine
 62
7
  6
CONTINUOUS
 10
-3.8627055623
 20
-8.143133709
 11
-3.0836659818
 21
-8.5929413992
  0
LINE
  5
312
100
AcDbEntity
  8
0
100
AcDbLine
 62
7
  6
CONTINUOUS
 10
-1.8858546921
 20
-9.2845426258
 11
-1.333605281
 21
-9.6034045144
  0
LINE
  5
313
100
AcDbEntity
  8
0
100
AcDbLine
 62
7
  6
CONTINUOUS
 10
18.833054968
 20
-20.4541690577
 11
18.6015247173
 21
-20.3204863926
  0
LINE
  5
314
100
AcDbEntity
  8
0
100
AcDbLine
 62
7
  6
CONTINUOUS
 10
-6.1846226132
 20
-5.9387148094
 11
-5.1194143306
 21
-6.5537527215
  0
LINE
  5
315
100
AcDbEntity
  8
0
100
AcDbLine
 62
250
  6
CONTINUOUS
 10
18.7295136575
 20
-20.2253006271
 11
18.4979834119
 21
-20.091617965
  0
LINE
  5
316
100
AcDbEntity
  8
0
100
AcDbLine
 62
7
  6
CONTINUOUS
 10
19.9162174624
 20
-20.5553314148
 11
20.0622768687
 21
-20.6396642855
  0
LINE
  5
317
100
AcDbEntity
  8
0
100
AcDbLine
 62
7
  6
CONTINUOUS
 10
-5.2757337196
 20
-5.7951112522
 11
-6.0246220263
 21
-5.3627125297
  0
LINE
  5
318
100
AcDbEntity
  8
0
100
AcDbLine
 62
7
  6
CONTINUOUS
 10
-3.0836659818
 20
-6.8996903945
 11
-2.6642760764
 21
-7.1418408697
  0
LINE
  5
319
100
AcDbEntity
  8
0
100
AcDbLine
 62
7
  6
CONTINUOUS
 10
-5.3305669212
 20
-5.5184864928
 11
-5.8124899919
 21
-5.2402301517
  0
LINE
  5
31A
100
AcDbEntity
  8
0
100
AcDbLine
 62
7
  6
CONTINUOUS
 10
-2.6625900868
 20
-6.4341972132
 11
-3.1096021214
 21
-6.1760980668
  0
LINE
  5
31B
100
AcDbEntity
  8
0
100
AcDbLine
 62
7
  6
CONTINUOUS
 10
-2.4504580524
 20
-6.3117148352
 11
-2.897470087
 21
-6.0536156888
  0
LWPOLYLINE
  5
31C
100
AcDbEntity
  8
0
100
AcDbPolyline
 62
250
  6
CONTINUOUS
 90
14
 70
0
 10
21.5657604313
 20
-24.0208125652
 10
21.5267969595
 20
-23.9968451964
 10
21.4905359534
 20
-23.9715033838
 10
21.4571225127
 20
-23.9448885329
 10
21.4266903426
 20
-23.9171071436
 10
21.3993612186
 20
-23.8882703837
 10
21.3752444995
 20
-23.858493644
 10
21.3544366894
 20
-23.8278960767
 10
21.3370210519
 20
-23.7966001187
 10
21.3230672767
 20
-23.7647310018
 10
21.3126312007
 20
-23.7324162509
 10
21.3057545848
 20
-23.6997851744
 10
21.3024649464
 20
-23.6669683466
 10
21.3021565344
 20
-23.6533654313
  0
LWPOLYLINE
  5
31D
100
AcDbEntity
  8
0
100
AcDbPolyline
 62
7
  6
CONTINUOUS
 90
27
 70
0
 10
18.8335365728
 20
-20.4544499586
 10
18.8376233031
 20
-20.4569975021
 10
18.8431432612
 20
-20.4608027929
 10
18.8499232149
 20
-20.4659329181
 10
18.8578544773
 20
-20.4724793813
 10
18.8667939936
 20
-20.4804901852
 10
18.8765458292
 20
-20.4899580019
 10
18.8869761083
 20
-20.5009168494
 10
18.8979706373
 20
-20.5134099697
 10
18.909296879
 20
-20.5273285861
 10
18.9206537145
 20
-20.5424410246
 10
18.9318684419
 20
-20.5586225656
 10
18.9427639999
 20
-20.5756950594
 10
18.9530625074
 20
-20.5932701145
 10
18.9626243035
 20
-20.6111122428
 10
18.9713599539
 20
-20.6290139982
 10
18.9791260478
 20
-20.6465974749
 10
18.9858785348
 20
-20.6636388304
 10
18.9916024493
 20
-20.6799123367
 10
18.9962700225
 20
-20.6950539211
 10
18.9999314527
 20
-20.7088606752
 10
19.0026757546
 20
-20.7212067475
 10
19.0045942918
 20
-20.7318856943
 10
19.0058033839
 20
-20.7407043107
 10
19.0064596502
 20
-20.7476856543
 10
19.006720874
 20
-20.752914511
 10
19.0067490437
 20
-20.7547328274
  0
LWPOLYLINE
  5
31E
100
AcDbEntity
  8
0
100
AcDbPolyline
 62
250
  6
CONTINUOUS
 90
10
 70
0
 10
18.4979834119
 20
-20.091617965
 10
18.4699495186
 20
-20.0739470622
 10
18.4424187288
 20
-20.0533011826
 10
18.4153910423
 20
-20.029680326
 10
18.3886135803
 20
-20.0030020287
 10
18.3623392216
 20
-19.9733487546
 10
18.337326603
 20
-19.9409678953
 10
18.3138286032
 20
-19.905941915
 10
18.2915923435
 20
-19.8681883495
 10
18.2706178237
 20
-19.827707199
  0
LWPOLYLINE
  5
31F
100
AcDbEntity
  8
0
100
AcDbPolyline
 62
7
  6
CONTINUOUS
 90
16
 70
0
 10
-2.6642760764
 20
-7.1418408697
 10
-2.6255389741
 20
-7.166324406
 10
-2.5884460149
 20
-7.1929098332
 10
-2.5529971988
 20
-7.2215971514
 10
-2.5193723492
 20
-7.2521967265
 10
-2.4873916427
 20
-7.2848981925
 10
-2.4565156091
 20
-7.3202704514
 10
-2.4266891805
 20
-7.358166606
 10
-2.3979674247
 20
-7.3987335535
 10
-2.3699760752
 20
-7.4429808874
 10
-2.3421730503
 20
-7.491716488
 10
-2.3151004317
 20
-7.5441324749
 10
-2.2900101971
 20
-7.5988148012
 10
-2.2673196726
 20
-7.6552921178
 10
-2.2466115323
 20
-7.7140357738
 10
-2.2278857761
 20
-7.7750457691
  0
LWPOLYLINE
  5
320
100
AcDbEntity
  8
0
100
AcDbPolyline
 62
250
  6
CONTINUOUS
 90
9
 70
0
 10
18.6015247173
 20
-20.3204863926
 10
18.5830889399
 20
-20.3081413786
 10
18.5612124584
 20
-20.2880885682
 10
18.5423086227
 20
-20.2639343525
 10
18.5265708924
 20
-20.235926127
 10
18.5141603216
 20
-20.2043507747
 10
18.5052038751
 20
-20.1695316734
 10
18.4997931417
 20
-20.1318253708
 10
18.4979834119
 20
-20.091617965
  0
LWPOLYLINE
  5
321
100
AcDbEntity
  8
0
100
AcDbPolyline
 62
250
  6
CONTINUOUS
 90
9
 70
0
 10
18.8329925107
 20
-20.4541329776
 10
18.814624103
 20
-20.4418278252
 10
18.792746961
 20
-20.4217758424
 10
18.7738422851
 20
-20.3976221555
 10
18.7581036325
 20
-20.3696140638
 10
18.7456921445
 20
-20.3380383307
 10
18.7367348972
 20
-20.3032182467
 10
18.7313236002
 20
-20.2655103203
 10
18.7295136575
 20
-20.2253006271
  0
LINE
  5
322
100
AcDbEntity
  8
0
100
AcDbLine
 62
7
  6
CONTINUOUS
 10
-9.0571719974
 20
-2.7700812915
 11
-9.7652642749
 21
-0.1633554019
  0
LINE
  5
323
100
AcDbEntity
  8
0
100
AcDbLine
 62
7
  6
CONTINUOUS
 10
-5.1194143306
 20
-6.5537527215
 11
-4.9167865185
 21
-7.5345207795
  0
LINE
  5
324
100
AcDbEntity
  8
0
100
AcDbLine
 62
7
  6
CONTINUOUS
 10
-5.8536414853
 20
24.2480229819
 11
-5.8536414853
 21
24.07937354
  0
LINE
  5
325
100
AcDbEntity
  8
0
100
AcDbLine
 62
7
  6
CONTINUOUS
 10
-3.8627055623
 20
-3.8669343459
 11
-3.8627055623
 21
-8.143133709
  0
LINE
  5
326
100
AcDbEntity
  8
0
100
AcDbLine
 62
7
  6
CONTINUOUS
 10
-3.1096021214
 20
-6.1760980668
 11
-3.1096021214
 21
-4.9883207893
  0
LINE
  5
327
100
AcDbEntity
  8
0
100
AcDbLine
 62
7
  6
CONTINUOUS
 10
-3.0836659818
 20
-8.5929413992
 11
-3.0836659818
 21
-6.8996903945
  0
LWPOLYLINE
  5
328
100
AcDbEntity
  8
0
100
AcDbPolyline
 62
250
  6
CONTINUOUS
 90
15
 70
0
 10
-5.4547148751
 20
21.0021384387
 10
-5.4532902892
 20
21.0607442495
 10
-5.4554864994
 20
21.1206743416
 10
-5.4613035058
 20
21.1819287151
 10
-5.4707072221
 20
21.2445053957
 10
-5.4837317346
 20
21.3084063577
 10
-5.500479302
 20
21.3736375236
 10
-5.5209618505
 20
21.4404906628
 10
-5.545167454
 20
21.508674006
 10
-5.5731625923
 20
21.5773181672
 10
-5.6051943854
 20
21.6467629933
 10
-5.6410157133
 20
21.7166686373
 10
-5.6799516959
 20
21.7851461732
 10
-5.7217773732
 20
21.8515659588
 10
-5.7667177052
 20
21.9165576361
  0
LWPOLYLINE
  5
329
100
AcDbEntity
  8
0
100
AcDbPolyline
 62
250
  6
CONTINUOUS
 90
11
 70
0
 10
-5.6002435481
 20
21.236559266
 10
-5.6005879537
 20
21.2263275947
 10
-5.5988514978
 20
21.1993261984
 10
-5.5932991154
 20
21.172377963
 10
-5.583973303
 20
21.1456894559
 10
-5.5709454806
 20
21.1194652968
 10
-5.5543154717
 20
21.0939065895
 10
-5.5342107199
 20
21.0692093249
 10
-5.5107853163
 20
21.0455628933
 10
-5.4842188182
 20
21.0231486326
 10
-5.4547148751
 20
21.0021384387
  0
LINE
  5
32A
100
AcDbEntity
  8
0
100
AcDbLine
 62
7
  6
CONTINUOUS
 10
-6.0246220263
 20
-5.3627125297
 11
-5.6351582178
 21
-3.9818719653
  0
LINE
  5
32B
100
AcDbEntity
  8
0
100
AcDbLine
 62
7
  6
CONTINUOUS
 10
-5.8124899919
 20
-5.2402301517
 11
-5.5618630388
 21
-4.3516344571
  0
LINE
  5
32C
100
AcDbEntity
  8
0
100
AcDbLine
 62
7
  6
CONTINUOUS
 10
-6.4004570587
 20
-6.6778680043
 11
-6.1846226132
 21
-5.9387148094
  0
LINE
  5
32D
100
AcDbEntity
  8
0
100
AcDbLine
 62
7
  6
CONTINUOUS
 10
-6.1883250243
 20
-6.5553856264
 11
-6.0337008899
 21
-6.0258551209
  0
LINE
  5
32E
100
AcDbEntity
  8
0
100
AcDbLine
 62
7
  6
CONTINUOUS
 10
-5.9987984866
 20
-2.5830302991
 11
-7.1741577423
 21
-6.2311429264
  0
LWPOLYLINE
  5
32F
100
AcDbEntity
  8
0
100
AcDbPolyline
 62
250
  6
CONTINUOUS
 90
7
 70
0
 10
6.4543120325
 20
16.4978752286
 10
6.4324959502
 20
16.4616936057
 10
6.4079718339
 20
16.4293644776
 10
6.380920775
 20
16.4009910614
 10
6.3516978619
 20
16.3767719092
 10
6.3203565353
 20
16.3565961413
 10
6.3035813615
 20
16.3478543241
  0
LWPOLYLINE
  5
330
100
AcDbEntity
  8
0
100
AcDbPolyline
 62
250
  6
CONTINUOUS
 90
13
 70
0
 10
5.7985887748
 20
16.66016076
 10
5.7865805695
 20
16.6405003526
 10
5.7728751831
 20
16.6235854552
 10
5.7574726156
 20
16.6094160677
 10
5.740406701
 20
16.5979077276
 10
5.7216436053
 20
16.5891448974
 10
5.7010818263
 20
16.583380965
 10
5.6786018178
 20
16.5804659296
 10
5.654323126
 20
16.5805497919
 10
5.628502887
 20
16.5843359417
 10
5.6012268131
 20
16.5920588424
 10
5.572409192
 20
16.6034840306
 10
5.5420500238
 20
16.6186115064
  0
LWPOLYLINE
  5
331
100
AcDbEntity
  8
0
100
AcDbPolyline
 62
250
  6
CONTINUOUS
 90
13
 70
0
 10
7.338961505
 20
16.5306158397
 10
7.348184993
 20
16.5429225813
 10
7.3556272192
 20
16.5539371262
 10
7.3614170534
 20
16.563660841
 10
7.3657265205
 20
16.572087895
 10
7.3686045844
 20
16.5792633827
 10
7.3699725455
 20
16.585241418
 10
7.3699452568
 20
16.5900236648
 10
7.3685570232
 20
16.5936132833
 10
7.365595208
 20
16.5959933276
 10
7.3610592503
 20
16.5971359201
 10
7.3550741492
 20
16.5970011247
 10
7.351884701
 20
16.5963779315
  0
LWPOLYLINE
  5
332
100
AcDbEntity
  8
0
100
AcDbPolyline
 62
250
  6
CONTINUOUS
 90
13
 70
0
 10
7.1318787999
 20
15.7969636554
 10
7.1436463535
 20
15.8095775579
 10
7.1532176342
 20
15.8236006992
 10
7.1605739618
 20
15.8389625566
 10
7.1653534548
 20
15.8557870744
 10
7.167892109
 20
15.873818599
 10
7.1692228544
 20
15.8924243593
 10
7.1694895425
 20
15.9111970293
 10
7.1685447687
 20
15.9304260263
 10
7.1669659874
 20
15.9505809584
 10
7.164795071
 20
15.9716880441
 10
7.1619415329
 20
15.9937229087
 10
7.1552454012
 20
16.0422006941
  0
LWPOLYLINE
  5
333
100
AcDbEntity
  8
0
100
AcDbPolyline
 62
250
  6
CONTINUOUS
 90
25
 70
0
 10
-22.4459219034
 20
-16.4833376962
 10
-22.5598113307
 20
-16.60078637
 10
-22.6712753448
 20
-16.7234590542
 10
-22.7800251644
 20
-16.8510379277
 10
-22.8857790399
 20
-16.983192457
 10
-22.9882629843
 20
-17.1195802565
 10
-23.087211483
 20
-17.2598479753
 10
-23.18236818
 20
-17.4036322086
 10
-23.2734865428
 20
-17.5505604383
 10
-23.3603305014
 20
-17.7002520022
 10
-23.4426750603
 20
-17.8523190788
 10
-23.5203068808
 20
-18.006367692
 10
-23.5930248342
 20
-18.1619987321
 10
-23.6606405225
 20
-18.3188089895
 10
-23.7229787666
 20
-18.4763921995
 10
-23.7798780606
 20
-18.6343400951
 10
-23.8311909894
 20
-18.792243464
 10
-23.8767846114
 20
-18.9496932096
 10
-23.9165408024
 20
-19.1062814106
 10
-23.9503565632
 20
-19.2616023803
 10
-23.9781442823
 20
-19.4152537097
 10
-23.9998319645
 20
-19.5668373102
 10
-24.0153634216
 20
-19.7159604561
 10
-24.024698417
 20
-19.8622368019
 10
-24.0278127664
 20
-20.005287375
  0
LINE
  5
334
100
AcDbEntity
  8
0
100
AcDbLine
 62
7
  6
CONTINUOUS
 10
11.7264777235
 20
13.6715076956
 11
11.7183707548
 21
13.6651428683
  0
LINE
  5
335
100
AcDbEntity
  8
0
100
AcDbLine
 62
7
  6
CONTINUOUS
 10
11.7183707548
 20
13.6651428683
 11
11.7101644534
 21
13.6588112661
  0
LINE
  5
336
100
AcDbEntity
  8
0
100
AcDbLine
 62
7
  6
CONTINUOUS
 10
11.7101644534
 20
13.6588112661
 11
11.701864288
 21
13.6525137083
  0
LINE
  5
337
100
AcDbEntity
  8
0
100
AcDbLine
 62
7
  6
CONTINUOUS
 10
11.701864288
 20
13.6525137083
 11
11.6934766076
 21
13.6462519611
  0
LINE
  5
338
100
AcDbEntity
  8
0
100
AcDbLine
 62
7
  6
CONTINUOUS
 10
11.6934766076
 20
13.6462519611
 11
11.6850056597
 21
13.6400264596
  0
LINE
  5
339
100
AcDbEntity
  8
0
100
AcDbLine
 62
7
  6
CONTINUOUS
 10
11.6850056597
 20
13.6400264596
 11
11.6764576391
 21
13.6338392521
  0
LINE
  5
33A
100
AcDbEntity
  8
0
100
AcDbLine
 62
7
  6
CONTINUOUS
 10
11.6764576391
 20
13.6338392521
 11
11.6678376538
 21
13.6276906887
  0
LINE
  5
33B
100
AcDbEntity
  8
0
100
AcDbLine
 62
7
  6
CONTINUOUS
 10
11.6678376538
 20
13.6276906887
 11
11.6591471822
 21
13.6215777133
  0
LINE
  5
33C
100
AcDbEntity
  8
0
100
AcDbLine
 62
7
  6
CONTINUOUS
 10
11.6591471822
 20
13.6215777133
 11
11.6503882949
 21
13.615498127
  0
LINE
  5
33D
100
AcDbEntity
  8
0
100
AcDbLine
 62
7
  6
CONTINUOUS
 10
11.6503882949
 20
13.615498127
 11
11.6444847026
 21
13.6114440276
  0
LINE
  5
33E
100
AcDbEntity
  8
0
100
AcDbLine
 62
250
  6
CONTINUOUS
 10
9.2375387549
 20
12.0048419591
 11
11.8468810099
 21
13.789124605
  0
LINE
  5
33F
100
AcDbEntity
  8
0
100
AcDbLine
 62
250
  6
CONTINUOUS
 10
11.6444814492
 20
13.6114384446
 11
11.5817517407
 21
13.5687916994
  0
LWPOLYLINE
  5
340
100
AcDbEntity
  8
0
100
AcDbPolyline
 62
250
  6
CONTINUOUS
 90
10
 70
0
 10
9.2042830835
 20
11.9832919614
 10
9.2079723151
 20
11.9857822804
 10
9.211663299
 20
11.9882488227
 10
9.2153559105
 20
11.9906915048
 10
9.2190500245
 20
11.9931102439
 10
9.2227455161
 20
11.9955049582
 10
9.22644226
 20
11.9978755668
 10
9.2301401312
 20
12.0002219892
 10
9.2338390046
 20
12.0025441462
 10
9.2375387549
 20
12.0048419591
  0
LINE
  5
341
100
AcDbEntity
  8
0
100
AcDbLine
 62
250
  6
CONTINUOUS
 10
11.332693922
 20
13.4016164667
 11
10.3359637803
 21
12.7269109218
  0
LINE
  5
342
100
AcDbEntity
  8
0
100
AcDbLine
 62
250
  6
CONTINUOUS
 10
11.5817517407
 20
13.5687916994
 11
11.332693922
 21
13.4016164667
  0
LINE
  5
343
100
AcDbEntity
  8
0
100
AcDbLine
 62
250
  6
CONTINUOUS
 10
10.3359637803
 20
12.7269109218
 11
9.8342529828
 21
12.3899133122
  0
LINE
  5
344
100
AcDbEntity
  8
0
100
AcDbLine
 62
250
  6
CONTINUOUS
 10
9.8342529828
 20
12.3899133122
 11
9.6036408132
 21
12.2365109104
  0
LINE
  5
345
100
AcDbEntity
  8
0
100
AcDbLine
 62
250
  6
CONTINUOUS
 10
9.6036408132
 20
12.2365109104
 11
9.4869107325
 21
12.1596216369
  0
LINE
  5
346
100
AcDbEntity
  8
0
100
AcDbLine
 62
250
  6
CONTINUOUS
 10
9.4869107325
 20
12.1596216369
 11
9.416560849
 21
12.1137348071
  0
LINE
  5
347
100
AcDbEntity
  8
0
100
AcDbLine
 62
250
  6
CONTINUOUS
 10
9.416560849
 20
12.1137348071
 11
9.3676884242
 21
12.0821921214
  0
LINE
  5
348
100
AcDbEntity
  8
0
100
AcDbLine
 62
250
  6
CONTINUOUS
 10
9.3676884242
 20
12.0821921214
 11
9.3354103995
 21
12.0616000621
  0
LINE
  5
349
100
AcDbEntity
  8
0
100
AcDbLine
 62
250
  6
CONTINUOUS
 10
11.5573475591
 20
13.241753458
 11
11.3160950022
 21
13.0880000598
  0
LINE
  5
34A
100
AcDbEntity
  8
0
100
AcDbLine
 62
250
  6
CONTINUOUS
 10
9.3354103995
 20
12.0616000621
 11
9.3148258593
 21
12.0486204592
  0
LINE
  5
34B
100
AcDbEntity
  8
0
100
AcDbLine
 62
250
  6
CONTINUOUS
 10
11.3160950022
 20
13.0880000598
 11
11.1024020829
 21
12.9534566383
  0
LINE
  5
34C
100
AcDbEntity
  8
0
100
AcDbLine
 62
250
  6
CONTINUOUS
 10
9.3148258593
 20
12.0486204592
 11
9.2970796547
 21
12.0375714113
  0
LINE
  5
34D
100
AcDbEntity
  8
0
100
AcDbLine
 62
250
  6
CONTINUOUS
 10
11.1024020829
 20
12.9534566383
 11
10.9126302153
 21
12.8354724238
  0
LINE
  5
34E
100
AcDbEntity
  8
0
100
AcDbLine
 62
250
  6
CONTINUOUS
 10
14.5682538276
 20
12.7837406404
 11
14.5293072576
 21
12.7597545628
  0
LINE
  5
34F
100
AcDbEntity
  8
0
100
AcDbLine
 62
250
  6
CONTINUOUS
 10
9.2970796547
 20
12.0375714113
 11
9.2867244663
 21
12.03120925
  0
LINE
  5
350
100
AcDbEntity
  8
0
100
AcDbLine
 62
250
  6
CONTINUOUS
 10
10.9126302153
 20
12.8354724238
 11
10.7440151598
 21
12.7320078316
  0
LINE
  5
351
100
AcDbEntity
  8
0
100
AcDbLine
 62
250
  6
CONTINUOUS
 10
9.2867244663
 20
12.03120925
 11
9.2774965383
 21
12.0256131664
  0
LINE
  5
352
100
AcDbEntity
  8
0
100
AcDbLine
 62
250
  6
CONTINUOUS
 10
10.7440151598
 20
12.7320078316
 11
10.5937161828
 21
12.6410331213
  0
LWPOLYLINE
  5
353
100
AcDbEntity
  8
0
100
AcDbPolyline
 62
250
  6
CONTINUOUS
 90
16
 70
0
 10
9.2774965383
 20
12.0256131664
 10
9.2693266837
 20
12.0207371937
 10
9.2656302697
 20
12.018563668
 10
9.2621633779
 20
12.016548571
 10
9.2589211793
 20
12.0146884822
 10
9.2559085143
 20
12.0129868143
 10
9.253111065
 20
12.0114362994
 10
9.2505334839
 20
12.0100368038
 10
9.2481711274
 20
12.0087884886
 10
9.2459957221
 20
12.0076847139
 10
9.2439709256
 20
12.0066960549
 10
9.2421330729
 20
12.005852275
 10
9.2405628779
 20
12.0052360423
 10
9.2392872237
 20
12.0048755083
 10
9.2382791862
 20
12.0047439036
 10
9.2375387549
 20
12.0048419591
  0
LINE
  5
354
100
AcDbEntity
  8
0
100
AcDbLine
 62
250
  6
CONTINUOUS
 10
10.5937161828
 20
12.6410331213
 11
10.4590645938
 21
12.5606846473
  0
LINE
  5
355
100
AcDbEntity
  8
0
100
AcDbLine
 62
250
  6
CONTINUOUS
 10
10.4590645938
 20
12.5606846473
 11
10.3765816191
 21
12.5120788747
  0
LINE
  5
356
100
AcDbEntity
  8
0
100
AcDbLine
 62
250
  6
CONTINUOUS
 10
10.3765816191
 20
12.5120788747
 11
10.2988891683
 21
12.4667689665
  0
LINE
  5
357
100
AcDbEntity
  8
0
100
AcDbLine
 62
7
  6
CONTINUOUS
 10
-11.3062309705
 20
0.7266390928
 11
-11.5183630048
 21
0.6041567148
  0
LINE
  5
358
100
AcDbEntity
  8
0
100
AcDbLine
 62
250
  6
CONTINUOUS
 10
14.5682538276
 20
15.096522657
 11
14.5293072576
 21
15.074035612
  0
LINE
  5
359
100
AcDbEntity
  8
0
100
AcDbLine
 62
7
  6
CONTINUOUS
 10
-10.5468046514
 20
0.2878962165
 11
-10.7589366858
 21
0.1654138385
  0
LINE
  5
35A
100
AcDbEntity
  8
0
100
AcDbLine
 62
7
  6
CONTINUOUS
 10
-13.5831876379
 20
-2.2856846327
 11
-13.7953196722
 21
-2.4081670107
  0
LINE
  5
35B
100
AcDbEntity
  8
0
100
AcDbLine
 62
7
  6
CONTINUOUS
 10
-9.7652642749
 20
-0.1633554019
 11
-9.9773963093
 21
-0.2858377799
  0
LINE
  5
35C
100
AcDbEntity
  8
0
100
AcDbLine
 62
7
  6
CONTINUOUS
 10
-8.2091520592
 20
-1.0618350926
 11
-8.4212840936
 21
-1.1843174706
  0
LINE
  5
35D
100
AcDbEntity
  8
0
100
AcDbLine
 62
250
  6
CONTINUOUS
 10
10.2988891683
 20
12.4667689665
 11
10.2255842509
 21
12.424488327
  0
LINE
  5
35E
100
AcDbEntity
  8
0
100
AcDbLine
 62
250
  6
CONTINUOUS
 10
10.2255842509
 20
12.424488327
 11
10.1562952679
 21
12.3849823346
  0
LINE
  5
35F
100
AcDbEntity
  8
0
100
AcDbLine
 62
250
  6
CONTINUOUS
 10
10.1562952679
 20
12.3849823346
 11
10.0909280419
 21
12.3481593075
  0
LINE
  5
360
100
AcDbEntity
  8
0
100
AcDbLine
 62
250
  6
CONTINUOUS
 10
10.0909280419
 20
12.3481593075
 11
10.0293977115
 21
12.3139444324
  0
LINE
  5
361
100
AcDbEntity
  8
0
100
AcDbLine
 62
250
  6
CONTINUOUS
 10
10.0293977115
 20
12.3139444324
 11
9.9715975028
 21
12.2822368476
  0
LINE
  5
362
100
AcDbEntity
  8
0
100
AcDbLine
 62
250
  6
CONTINUOUS
 10
9.9715975028
 20
12.2822368476
 11
9.9174043037
 21
12.2529249968
  0
LINE
  5
363
100
AcDbEntity
  8
0
100
AcDbLine
 62
250
  6
CONTINUOUS
 10
9.9174043037
 20
12.2529249968
 11
9.8667259426
 21
12.2259290929
  0
LINE
  5
364
100
AcDbEntity
  8
0
100
AcDbLine
 62
250
  6
CONTINUOUS
 10
9.8667259426
 20
12.2259290929
 11
9.8194275023
 21
12.2011300676
  0
LWPOLYLINE
  5
365
100
AcDbEntity
  8
0
100
AcDbPolyline
 62
250
  6
CONTINUOUS
 90
19
 70
0
 10
14.5682538276
 20
12.7837406404
 10
14.6007987692
 20
12.7992748537
 10
14.6354964175
 20
12.8131676721
 10
14.6720990999
 20
12.8253202061
 10
14.7103454178
 20
12.8356459482
 10
14.7499626638
 20
12.8440715413
 10
14.7906688299
 20
12.8505372048
 10
14.8321726249
 20
12.8549968922
 10
14.8741791002
 20
12.8574191277
 10
14.9163924565
 20
12.857786725
 10
14.9585181795
 20
12.85609625
 10
15.0002492911
 20
12.8523591502
 10
15.041272859
 20
12.8466042108
 10
15.0813151389
 20
12.8388703491
 10
15.1200727893
 20
12.8292166811
 10
15.1572077355
 20
12.8177353085
 10
15.1924467531
 20
12.804526992
 10
15.2255748977
 20
12.7896893758
 10
15.2563725213
 20
12.7733366828
  0
LWPOLYLINE
  5
366
100
AcDbEntity
  8
0
100
AcDbPolyline
 62
7
  6
CONTINUOUS
 90
10
 70
0
 10
-3.1096021214
 20
-4.9883207893
 10
-3.0400851547
 20
-5.015146193
 10
-2.9710002467
 20
-5.0443405757
 10
-2.9023473974
 20
-5.0759039374
 10
-2.8342256557
 20
-5.109776073
 10
-2.7665359728
 20
-5.1460171876
 10
-2.6989812016
 20
-5.1848078964
 10
-2.6314622933
 20
-5.2262084045
 10
-2.5640782969
 20
-5.2701585069
 10
-2.4968292123
 20
-5.3166582035
  0
LINE
  5
367
100
AcDbEntity
  8
0
100
AcDbLine
 62
7
  6
CONTINUOUS
 10
-5.2421263485
 20
-3.0199233084
 11
-5.9987984866
 21
-2.5830302991
  0
LINE
  5
368
100
AcDbEntity
  8
0
100
AcDbLine
 62
7
  6
CONTINUOUS
 10
-7.6473868343
 20
-1.6311560489
 11
-8.4212840936
 21
-1.1843174706
  0
LINE
  5
369
100
AcDbEntity
  8
0
100
AcDbLine
 62
7
  6
CONTINUOUS
 10
-9.9773963093
 20
-0.2858377799
 11
-10.7589366858
 21
0.1654138385
  0
LINE
  5
36A
100
AcDbEntity
  8
0
100
AcDbLine
 62
7
  6
CONTINUOUS
 10
-12.5908205461
 20
1.2231206206
 11
-13.3724733526
 21
1.6744371546
  0
LINE
  5
36B
100
AcDbEntity
  8
0
100
AcDbLine
 62
7
  6
CONTINUOUS
 10
-14.8228603766
 20
2.5118724447
 11
-15.6725566544
 21
3.0024764263
  0
LINE
  5
36C
100
AcDbEntity
  8
0
100
AcDbLine
 62
7
  6
CONTINUOUS
 10
-11.5183630048
 20
0.6041567148
 11
-12.3005496769
 21
1.0557814962
  0
LINE
  5
36D
100
AcDbEntity
  8
0
100
AcDbLine
 62
7
  6
CONTINUOUS
 10
-5.0299943142
 20
-2.8974409304
 11
-5.7866664523
 21
-2.4605479211
  0
LINE
  5
36E
100
AcDbEntity
  8
0
100
AcDbLine
 62
7
  6
CONTINUOUS
 10
-7.4352547999
 20
-1.5086736709
 11
-8.2091520592
 21
-1.0618350926
  0
LINE
  5
36F
100
AcDbEntity
  8
0
100
AcDbLine
 62
7
  6
CONTINUOUS
 10
-9.7652642749
 20
-0.1633554019
 11
-10.5468046514
 21
0.2878962165
  0
LINE
  5
370
100
AcDbEntity
  8
0
100
AcDbLine
 62
7
  6
CONTINUOUS
 10
-12.3786885118
 20
1.3456029986
 11
-13.1603413183
 21
1.7969195326
  0
LINE
  5
371
100
AcDbEntity
  8
0
100
AcDbLine
 62
7
  6
CONTINUOUS
 10
-14.6107283422
 20
2.6343548227
 11
-15.4604246201
 21
3.1249588043
  0
LINE
  5
372
100
AcDbEntity
  8
0
100
AcDbLine
 62
7
  6
CONTINUOUS
 10
-11.3062309705
 20
0.7266390928
 11
-12.0884176426
 21
1.1782638742
  0
LINE
  5
373
100
AcDbEntity
  8
0
100
AcDbLine
 62
7
  6
CONTINUOUS
 10
-2.9560025407
 20
-2.1314830752
 11
-23.3325239944
 21
9.6336260965
  0
LINE
  5
374
100
AcDbEntity
  8
0
100
AcDbLine
 62
7
  6
CONTINUOUS
 10
-23.3237319199
 20
9.6285886008
 11
-23.3239288673
 21
9.6287023421
  0
LWPOLYLINE
  5
375
100
AcDbEntity
  8
0
100
AcDbPolyline
 62
7
  6
CONTINUOUS
 90
40
 70
0
 10
-2.9558460315
 20
-2.1315735435
 10
-2.9340311544
 20
-2.1444060092
 10
-2.8840874265
 20
-2.1754792081
 10
-2.8307657645
 20
-2.2111248039
 10
-2.7743876862
 20
-2.2514590056
 10
-2.7154666121
 20
-2.2964255988
 10
-2.6546391828
 20
-2.3458062383
 10
-2.5923233099
 20
-2.3994905368
 10
-2.5288800057
 20
-2.4573776664
 10
-2.4647450962
 20
-2.5192565648
 10
-2.4002989155
 20
-2.5849224509
 10
-2.3358647112
 20
-2.6541864518
 10
-2.2717249112
 20
-2.7268745781
 10
-2.2082015892
 20
-2.8027322327
 10
-2.1455943654
 20
-2.8814957031
 10
-2.0840816009
 20
-2.9630203514
 10
-2.0239488524
 20
-3.0470016484
 10
-1.9654496591
 20
-3.1331315063
 10
-1.9086987267
 20
-3.2212854279
 10
-1.8539329691
 20
-3.3111262299
 10
-1.8013681547
 20
-3.402309428
 10
-1.7510759128
 20
-3.4947088316
 10
-1.703246423
 20
-3.5879660685
 10
-1.658051491
 20
-3.6817056203
 10
-1.6155415486
 20
-3.7757663656
 10
-1.5758550012
 20
-3.8697733668
 10
-1.5391116953
 20
-3.9633280675
 10
-1.5053475826
 20
-4.0562000327
 10
-1.474639721
 20
-4.1479983783
 10
-1.4470459791
 20
-4.23831681
 10
-1.4225746553
 20
-4.326822522
 10
-1.401225898
 20
-4.4131421037
 10
-1.3829849871
 20
-4.4968441692
 10
-1.3678154237
 20
-4.5774438624
 10
-1.355621976
 20
-4.6545784116
 10
-1.3462891082
 20
-4.7278326684
 10
-1.3396851565
 20
-4.7965450928
 10
-1.3355996632
 20
-4.8602450398
 10
-1.3337691927
 20
-4.9187135472
 10
-1.3336053661
 20
-4.9412713552
  0
LWPOLYLINE
  5
376
100
AcDbEntity
  8
0
100
AcDbPolyline
 62
7
  6
CONTINUOUS
 90
9
 70
0
 10
-2.6953115718
 20
-4.4425422393
 10
-2.8241739148
 20
-4.3652870701
 10
-2.9579262748
 20
-4.2896204776
 10
-3.096630982
 20
-4.2156511701
 10
-3.2402257062
 20
-4.1432704392
 10
-3.3886377918
 20
-4.0722329271
 10
-3.5418430205
 20
-4.0024568479
 10
-3.6998656107
 20
-3.9340239875
 10
-3.8627055623
 20
-3.8669343459
  0
LWPOLYLINE
  5
377
100
AcDbEntity
  8
0
100
AcDbPolyline
 62
250
  6
CONTINUOUS
 90
17
 70
0
 10
-2.9560025407
 20
-2.1314830752
 10
-2.9926011803
 20
-2.1094213192
 10
-3.0749457368
 20
-2.0524436737
 10
-3.1525775551
 20
-1.9880423397
 10
-3.2252955065
 20
-1.9163841682
 10
-3.292911193
 20
-1.8376548117
 10
-3.3552494357
 20
-1.7520582425
 10
-3.4121487283
 20
-1.6598162246
 10
-3.4634616559
 20
-1.5611677389
 10
-3.5090552769
 20
-1.4563683644
 10
-3.5488114671
 20
-1.3456896159
 10
-3.5826272261
 20
-1.229418238
 10
-3.6104149437
 20
-1.1078554691
 10
-3.6321026277
 20
-0.9813162615
 10
-3.6476340912
 20
-0.8501284569
 10
-3.6569690963
 20
-0.7146319357
 10
-3.6600834589
 20
-0.5751777434
  0
LWPOLYLINE
  5
378
100
AcDbEntity
  8
0
100
AcDbPolyline
 62
250
  6
CONTINUOUS
 90
17
 70
0
 10
-23.3239288673
 20
9.6287023421
 10
-23.3603304512
 20
9.6506502886
 10
-23.4426750134
 20
9.707627923
 10
-23.5203068385
 20
9.7720292459
 10
-23.5930247977
 20
9.8436874066
 10
-23.6606404928
 20
9.9224167532
 10
-23.7229787443
 20
10.0080133139
 10
-23.779878046
 20
10.1002553254
 10
-23.8311909824
 20
10.198903807
 10
-23.8767846115
 20
10.3037031802
 10
-23.9165408088
 20
10.414381931
 10
-23.9503565745
 20
10.5306533153
 10
-23.9781442967
 20
10.6522160947
 10
-23.9998319799
 20
10.7787553155
 10
-24.0153634353
 20
10.909943136
 10
-24.0246984256
 20
11.0454396764
 10
-24.0278127664
 20
11.1848938911
  0
LWPOLYLINE
  5
379
100
AcDbEntity
  8
0
100
AcDbPolyline
 62
7
  6
CONTINUOUS
 90
19
 70
0
 10
-2.4968292123
 20
-5.3166582035
 10
-2.4536154851
 20
-5.3496911242
 10
-2.4120855297
 20
-5.3849969589
 10
-2.372239346
 20
-5.4225757075
 10
-2.3337195753
 20
-5.4629798423
 10
-2.2968835763
 20
-5.505656891
 10
-2.262803425
 20
-5.5489494366
 10
-2.2320008524
 20
-5.592140269
 10
-2.2039541274
 20
-5.6359465984
 10
-2.178170133
 20
-5.6808626388
 10
-2.1544591162
 20
-5.7270835321
 10
-2.13301083
 20
-5.7744141366
 10
-2.1139014158
 20
-5.8227632405
 10
-2.0969164757
 20
-5.872893764
 10
-2.0822704076
 20
-5.924042787
 10
-2.070682547
 20
-5.9738303375
 10
-2.0623926724
 20
-6.0214630914
 10
-2.0571610053
 20
-6.0677343729
 10
-2.0549875457
 20
-6.1126441818
  0
LWPOLYLINE
  5
37A
100
AcDbEntity
  8
0
100
AcDbPolyline
 62
250
  6
CONTINUOUS
 90
3
 70
0
 10
19.0893225405
 20
-20.9139207035
 10
19.1192754271
 20
-20.9374646491
 10
19.153196287
 20
-20.959140467
  0
LWPOLYLINE
  5
37B
100
AcDbEntity
  8
0
100
AcDbPolyline
 62
7
  6
CONTINUOUS
 90
16
 70
0
 10
17.6366130328
 20
-18.7477763728
 10
17.6537228917
 20
-18.7617019518
 10
17.6719665501
 20
-18.7779569816
 10
17.6910788047
 20
-18.7965324957
 10
17.7108000474
 20
-18.8173944199
 10
17.7308162647
 20
-18.8404038404
 10
17.7508961538
 20
-18.865477099
 10
17.7707379314
 20
-18.8924148829
 10
17.7899643898
 20
-18.9208298354
 10
17.80836842
 20
-18.9504990961
 10
17.8257179547
 20
-18.9811241141
 10
17.8416831883
 20
-19.0121222998
 10
17.8561358335
 20
-19.0431648995
 10
17.8689661225
 20
-19.0739143519
 10
17.8800073124
 20
-19.1037505889
 10
17.9106049631
 20
-19.1938408177
  0
LWPOLYLINE
  5
37C
100
AcDbEntity
  8
0
100
AcDbPolyline
 62
7
  6
CONTINUOUS
 90
14
 70
0
 10
-1.9126268566
 20
-4.7283816004
 10
-2.0166915325
 20
-4.6430385387
 10
-2.1261676451
 20
-4.5596300323
 10
-2.2408965793
 20
-4.4780479817
 10
-2.3604024901
 20
-4.3979680886
 10
-2.4845045248
 20
-4.3192471438
 10
-2.6133835361
 20
-4.2420283565
 10
-2.7471062368
 20
-4.1664170552
 10
-2.8857215243
 20
-4.0925322435
 10
-3.0291805013
 20
-4.0202549178
 10
-3.1774031881
 20
-3.9493333956
 10
-3.3303629248
 20
-3.8796837829
 10
-3.4880863715
 20
-3.8113899736
 10
-3.6505735279
 20
-3.7444519679
  0
LWPOLYLINE
  5
37D
100
AcDbEntity
  8
0
100
AcDbPolyline
 62
7
  6
CONTINUOUS
 90
7
 70
0
 10
-2.0253598309
 20
-4.9385159235
 10
-2.123732054
 20
-4.8516928457
 10
-2.2275046734
 20
-4.7665602362
 10
-2.3368859277
 20
-4.6831789814
 10
-2.4516675782
 20
-4.6014881949
 10
-2.5712249097
 20
-4.5213052173
 10
-2.6953115718
 20
-4.4425422393
  0
LWPOLYLINE
  5
37E
100
AcDbEntity
  8
0
100
AcDbPolyline
 62
7
  6
CONTINUOUS
 90
3
 70
0
 10
-1.7202559698
 20
-4.9045470915
 10
-1.8138150024
 20
-4.815551118
 10
-1.9126268566
 20
-4.7283816004
  0
LINE
  5
37F
100
AcDbEntity
  8
0
100
AcDbLine
 62
7
  6
CONTINUOUS
 10
-1.9323880042
 20
-5.0270294695
 11
-2.0253598309
 21
-4.9385159235
  0
LWPOLYLINE
  5
380
100
AcDbEntity
  8
0
100
AcDbPolyline
 62
7
  6
CONTINUOUS
 90
10
 70
0
 10
-1.333605281
 20
-5.4641854388
 10
-1.3672328596
 20
-5.3984199991
 10
-1.4105143844
 20
-5.3208354055
 10
-1.4548988174
 20
-5.2469434188
 10
-1.5005119428
 20
-5.1768838045
 10
-1.5472279765
 20
-5.1105167971
 10
-1.5927864435
 20
-5.0498944198
 10
-1.6364338522
 20
-4.9957006803
 10
-1.6789236943
 20
-4.9472515709
 10
-1.7202559698
 20
-4.9045470915
  0
LWPOLYLINE
  5
381
100
AcDbEntity
  8
0
100
AcDbPolyline
 62
7
  6
CONTINUOUS
 90
12
 70
0
 10
-1.333605281
 20
-7.6987001319
 10
-1.3440137231
 20
-7.669304628
 10
-1.3692183426
 20
-7.6045729523
 10
-1.3958574097
 20
-7.5424344835
 10
-1.4238355286
 20
-7.4829654336
 10
-1.452713347
 20
-7.4267352825
 10
-1.4825068501
 20
-7.3738020799
 10
-1.5132000527
 20
-7.324107776
 10
-1.5443056467
 20
-7.2780477014
 10
-1.5756611961
 20
-7.2357536329
 10
-1.6074291367
 20
-7.1970937937
 10
-1.6078956996
 20
-7.1965859788
  0
LWPOLYLINE
  5
382
100
AcDbEntity
  8
0
100
AcDbPolyline
 62
7
  6
CONTINUOUS
 90
13
 70
0
 10
-1.4142774919
 20
-5.9119593793
 10
-1.444664691
 20
-5.8238190874
 10
-1.4800000666
 20
-5.7322376798
 10
-1.5187220053
 20
-5.6426215067
 10
-1.5612222118
 20
-5.5557006555
 10
-1.6071089814
 20
-5.4707450389
 10
-1.6536455873
 20
-5.3909707455
 10
-1.7002401696
 20
-5.3174696376
 10
-1.7474845883
 20
-5.2491498529
 10
-1.7944176958
 20
-5.1859518936
 10
-1.8407191097
 20
-5.1278559269
 10
-1.8867092125
 20
-5.0748817855
 10
-1.9323880042
 20
-5.0270294695
  0
LINE
  5
383
100
AcDbEntity
  8
0
100
AcDbLine
 62
7
  6
CONTINUOUS
 10
-1.3897883931
 20
-5.9950686671
 11
-1.4142774919
 21
-5.9119593793
  0
LWPOLYLINE
  5
384
100
AcDbEntity
  8
0
100
AcDbPolyline
 62
7
  6
CONTINUOUS
 90
5
 70
0
 10
-2.2278857761
 20
-7.7750457691
 10
-2.2003069777
 20
-7.8872989508
 10
-2.1727589805
 20
-8.0018833765
 10
-2.1452417844
 20
-8.1187990462
 10
-2.1179232811
 20
-8.2379544809
  0
LINE
  5
385
100
AcDbEntity
  8
0
100
AcDbLine
 62
7
  6
CONTINUOUS
 10
-4.0923933497
 20
-8.0105150631
 11
-5.2421263485
 21
-3.0199233084
  0
LINE
  5
386
100
AcDbEntity
  8
0
100
AcDbLine
 62
7
  6
CONTINUOUS
 10
-3.8802613154
 20
-7.8880326851
 11
-5.0299943142
 21
-2.8974409304
  0
LINE
  5
387
100
AcDbEntity
  8
0
100
AcDbLine
 62
7
  6
CONTINUOUS
 10
-2.1179232811
 20
-8.2379544809
 11
-1.9465392493
 21
-9.0065894132
  0
LINE
  5
388
100
AcDbEntity
  8
0
100
AcDbLine
 62
7
  6
CONTINUOUS
 10
-1.9465392493
 20
-9.0065894132
 11
-1.8858546921
 21
-9.2845426258
  0
LINE
  5
389
100
AcDbEntity
  8
0
100
AcDbLine
 62
7
  6
CONTINUOUS
 10
-1.333605281
 20
-8.7227093721
 11
-1.4008797924
 21
-8.3934933843
  0
LINE
  5
38A
100
AcDbEntity
  8
0
100
AcDbLine
 62
7
  6
CONTINUOUS
 10
-5.6351582178
 20
-3.9818719653
 11
-5.2757337196
 21
-5.7951112522
  0
LWPOLYLINE
  5
38B
100
AcDbEntity
  8
0
100
AcDbPolyline
 62
7
  6
CONTINUOUS
 90
19
 70
0
 10
-1.4008797924
 20
-8.3934933843
 10
-1.4169546563
 20
-8.3115887745
 10
-1.4338071563
 20
-8.231675724
 10
-1.4514372924
 20
-8.1537542328
 10
-1.4695555546
 20
-8.0778624112
 10
-1.4884514529
 20
-8.0039621489
 10
-1.5089935171
 20
-7.9319391151
 10
-1.5315460741
 20
-7.8614924292
 10
-1.555744797
 20
-7.7929229718
 10
-1.5813652347
 20
-7.7270190541
 10
-1.6085637849
 20
-7.6637162881
 10
-1.6371840499
 20
-7.6030790618
 10
-1.6665323852
 20
-7.5460888509
 10
-1.6965547275
 20
-7.4930041951
 10
-1.7273051403
 20
-7.4435665546
 10
-1.7582521696
 20
-7.3979817854
 10
-1.7892186642
 20
-7.3563185062
 10
-1.8203817753
 20
-7.3185080983
 10
-1.8517415031
 20
-7.2845505617
  0
LWPOLYLINE
  5
38C
100
AcDbEntity
  8
0
100
AcDbPolyline
 62
250
  6
CONTINUOUS
 90
16
 70
0
 10
0.4670214292
 20
-35.0775588856
 10
0.4706530732
 20
-35.2279866215
 10
0.4815370825
 20
-35.3737666485
 10
0.4996406483
 20
-35.5144584941
 10
0.5249091559
 20
-35.6496370802
 10
0.5572663332
 20
-35.7788939161
 10
0.596614465
 20
-35.901838347
 10
0.642834972
 20
-36.0180994325
 10
0.6957880881
 20
-36.1273252388
 10
0.7553129108
 20
-36.2291841894
 10
0.8212282459
 20
-36.3233673837
 10
0.8933356242
 20
-36.4095922857
 10
0.9714196319
 20
-36.4876011398
 10
1.0552481072
 20
-36.557160325
 10
1.1445651675
 20
-36.6180559476
 10
1.1711023408
 20
-36.6338642135
  0
LWPOLYLINE
  5
38D
100
AcDbEntity
  8
0
100
AcDbPolyline
 62
250
  6
CONTINUOUS
 90
17
 70
0
 10
-1.3336052605
 20
-28.4595485376
 10
-1.3327961715
 20
-28.502158263
 10
-1.3246187925
 20
-28.6019692117
 10
-1.307655962
 20
-28.7014106179
 10
-1.2819516275
 20
-28.8002248483
 10
-1.247572384
 20
-28.8981558946
 10
-1.2046073012
 20
-28.9949500366
 10
-1.1531676935
 20
-29.0903564998
 10
-1.0933868307
 20
-29.1841281048
 10
-1.0254195934
 20
-29.2760219075
 10
-0.9494420714
 20
-29.3657998294
 10
-0.8656511058
 20
-29.4532292756
 10
-0.774263784
 20
-29.5380837313
 10
-0.6755168792
 20
-29.6201433482
 10
-0.5696662287
 20
-29.6991955244
 10
-0.4569860702
 20
-29.7750354541
 10
-0.337768337
 20
-29.8474666516
  0
LWPOLYLINE
  5
38E
100
AcDbEntity
  8
0
100
AcDbPolyline
 62
250
  6
CONTINUOUS
 90
17
 70
0
 10
-1.333605281
 20
-4.941462635
 10
-1.3327961765
 20
-4.9842877224
 10
-1.3246188097
 20
-5.0840986591
 10
-1.3076559924
 20
-5.1835400568
 10
-1.2819516711
 20
-5.2823542824
 10
-1.2475724404
 20
-5.3802853278
 10
-1.2046073695
 20
-5.4770794726
 10
-1.1531677719
 20
-5.5724859424
 10
-1.093386917
 20
-5.6662575575
 10
-1.0254196848
 20
-5.7581513739
 10
-0.9494421645
 20
-5.8479293128
 10
-0.8656511966
 20
-5.9353587779
 10
-0.7742638681
 20
-6.0202132553
 10
-0.6755169513
 20
-6.1022729005
 10
-0.5696662831
 20
-6.1813251123
 10
-0.4569861006
 20
-6.2571650833
 10
-0.337768337
 20
-6.3295963274
  0
LWPOLYLINE
  5
38F
100
AcDbEntity
  8
0
100
AcDbPolyline
 62
250
  6
CONTINUOUS
 90
49
 70
0
 10
-0.337768337
 20
-6.3295963274
 10
-0.3398835591
 20
-6.1905076037
 10
-0.3455426888
 20
-6.051534294
 10
-0.3547457261
 20
-5.9126763984
 10
-0.3675790437
 20
-5.7739170769
 10
-0.383956269
 20
-5.6352731694
 10
-0.4036182835
 20
-5.4967951961
 10
-0.4265220749
 20
-5.3585295268
 10
-0.4527106556
 20
-5.2204297916
 10
-0.4820539444
 20
-5.0824074009
 10
-0.5145079217
 20
-4.9444853196
 10
-0.5501166072
 20
-4.8066405829
 10
-0.5888819787
 20
-4.6687157068
 10
-0.6308077678
 20
-4.5306089015
 10
-0.6758902429
 20
-4.3924219568
 10
-0.7241201873
 20
-4.2543027578
 10
-0.7755590602
 20
-4.1161029985
 10
-0.8301454023
 20
-3.977970985
 10
-0.8876856197
 20
-3.8404995202
 10
-0.9481783604
 20
-3.7037417555
 10
-1.0116249763
 20
-3.5676445395
 10
-1.0778359295
 20
-3.4326412207
 10
-1.1468104602
 20
-3.2987564469
 10
-1.2185493281
 20
-3.1659655704
 10
-1.292865274
 20
-3.0346279968
 10
-1.3698194067
 20
-2.9046745861
 10
-1.4493506175
 20
-2.7761744783
 10
-1.5310883206
 20
-2.6496944988
 10
-1.6150377902
 20
-2.5252738183
 10
-1.7011937521
 20
-2.4028732661
 10
-1.7891697983
 20
-2.282942155
 10
-1.8789283651
 20
-2.1655543187
 10
-1.9705070161
 20
-2.0506359235
 10
-2.0636320344
 20
-1.9384147816
 10
-2.1582153427
 20
-1.8289802732
 10
-2.2543450183
 20
-1.7222430181
 10
-2.3520115755
 20
-1.6181626875
 10
-2.4511498762
 20
-1.5167590985
 10
-2.5518250584
 20
-1.418012434
 10
-2.6542230508
 20
-1.3218229145
 10
-2.7583434247
 20
-1.2281342398
 10
-2.8641866088
 20
-1.13700271
 10
-2.9719398178
 20
-1.0484974451
 10
-3.0816232556
 20
-0.9625517782
 10
-3.1932167184
 20
-0.8792323762
 10
-3.3068468098
 20
-0.7988083597
 10
-3.4225557309
 20
-0.7213694355
 10
-3.5403012806
 20
-0.6468258967
 10
-3.6600834589
 20
-0.5751777434
  0
LINE
  5
390
100
AcDbEntity
  8
0
100
AcDbLine
 62
7
  6
CONTINUOUS
 10
-2.897470087
 20
-6.0536156888
 11
-2.897470087
 21
-5.0783290798
  0
LINE
  5
391
100
AcDbEntity
  8
0
100
AcDbLine
 62
7
  6
CONTINUOUS
 10
-2.8715339475
 20
-8.4704590212
 11
-2.8715339475
 21
-7.0221727725
  0
LINE
  5
392
100
AcDbEntity
  8
0
100
AcDbLine
 62
7
  6
CONTINUOUS
 10
-1.8517415031
 20
-7.2845505617
 11
-1.8517415031
 21
-7.2589832405
  0
LINE
  5
393
100
AcDbEntity
  8
0
100
AcDbLine
 62
250
  6
CONTINUOUS
 10
-0.337768337
 20
-29.8474666516
 11
-0.337768337
 21
-6.3295963274
  0
LWPOLYLINE
  5
394
100
AcDbEntity
  8
0
100
AcDbPolyline
 62
7
  6
CONTINUOUS
 90
6
 70
0
 10
-1.3336052648
 20
-4.9412713551
 10
-1.3336561228
 20
-28.4717539442
 10
-1.3344427393
 20
-28.508210871
 10
-1.3359359046
 20
-28.5382905729
 10
-1.3378050117
 20
-28.5619471882
 10
-1.3396515737
 20
-28.5787367425
  0
LWPOLYLINE
  5
395
100
AcDbEntity
  8
0
100
AcDbPolyline
 62
7
  6
CONTINUOUS
 90
12
 70
0
 10
-2.0549875457
 20
-6.1126441818
 10
-2.0555201245
 20
-6.1722563567
 10
-2.0589746924
 20
-6.2273740712
 10
-2.0653512495
 20
-6.2779973253
 10
-2.0746869901
 20
-6.324116127
 10
-2.0869447198
 20
-6.3657404683
 10
-2.1020128561
 20
-6.4029003251
 10
-2.1200038145
 20
-6.4355137143
 10
-2.1408051795
 20
-6.463662619
 10
-2.1639681218
 20
-6.4876229641
 10
-2.1891574051
 20
-6.5075090352
 10
-2.2014580118
 20
-6.5152276308
  0
LWPOLYLINE
  5
396
100
AcDbEntity
  8
0
100
AcDbPolyline
 62
250
  6
CONTINUOUS
 90
7
 70
0
 10
4.871363412
 20
15.5517168548
 10
4.8666083169
 20
15.5363188848
 10
4.86340476
 20
15.5205496053
 10
4.8615531634
 20
15.5047352097
 10
4.8608767372
 20
15.4891313878
 10
4.861258246
 20
15.4738927121
 10
4.8625573321
 20
15.4591800762
  0
LWPOLYLINE
  5
397
100
AcDbEntity
  8
0
100
AcDbPolyline
 62
250
  6
CONTINUOUS
 90
8
 70
0
 10
7.1895867628
 20
16.1834453059
 10
7.197541767
 20
16.1996378719
 10
7.2055814693
 20
16.2153239385
 10
7.2136474105
 20
16.2304720169
 10
7.2218468115
 20
16.2451005355
 10
7.2302162457
 20
16.2591997804
 10
7.2387271391
 20
16.2727330188
 10
7.2640199592
 20
16.3106753428
  0
LWPOLYLINE
  5
398
100
AcDbEntity
  8
0
100
AcDbPolyline
 62
250
  6
CONTINUOUS
 90
13
 70
0
 10
8.093942125
 20
17.2797453465
 10
8.1713488817
 20
17.4335119199
 10
8.2383185326
 20
17.5983018667
 10
8.2946106747
 20
17.7735229352
 10
8.3400227341
 20
17.9585428549
 10
8.3743926078
 20
18.1526990494
 10
8.3975977465
 20
18.3553022153
 10
8.4095538467
 20
18.5656325549
 10
8.4102158131
 20
18.7829282995
 10
8.3995811114
 20
19.0063953485
 10
8.3776894449
 20
19.2352255033
 10
8.3446202875
 20
19.4686007055
 10
8.3004933611
 20
19.7056821582
  0
LWPOLYLINE
  5
399
100
AcDbEntity
  8
0
100
AcDbPolyline
 62
250
  6
CONTINUOUS
 90
5
 70
0
 10
7.1467777096
 20
16.0966909112
 10
7.1559239189
 20
16.1145989669
 10
7.1648098351
 20
16.1323108214
 10
7.1734204745
 20
16.1497405757
 10
7.1895867628
 20
16.1834453059
  0
LWPOLYLINE
  5
39A
100
AcDbEntity
  8
0
100
AcDbPolyline
 62
250
  6
CONTINUOUS
 90
12
 70
0
 10
7.2640199592
 20
16.3106753428
 10
7.2790016887
 20
16.3349944486
 10
7.2923041235
 20
16.3585509719
 10
7.3037881007
 20
16.3810715754
 10
7.3135912034
 20
16.4026639445
 10
7.3220063397
 20
16.4237478618
 10
7.328960036
 20
16.4443257889
 10
7.3342891238
 20
16.4640461507
 10
7.3380394821
 20
16.4827225105
 10
7.3401568647
 20
16.5001694804
 10
7.340494112
 20
16.5161981903
 10
7.3389634136
 20
16.5306147278
  0
LWPOLYLINE
  5
39B
100
AcDbEntity
  8
0
100
AcDbPolyline
 62
250
  6
CONTINUOUS
 90
6
 70
0
 10
8.0939421247
 20
17.2797453464
 10
8.070139623
 20
17.2436618101
 10
8.0434920134
 20
17.2114864228
 10
8.0141466833
 20
17.1833972222
 10
7.9822659549
 20
17.1595496489
 10
7.9467684016
 20
17.1394655599
  0
LWPOLYLINE
  5
39C
100
AcDbEntity
  8
0
100
AcDbPolyline
 62
7
  6
CONTINUOUS
 90
6
 70
0
 10
11.8269599266
 20
13.7645711145
 10
11.8242371571
 20
13.7614949165
 10
11.8214429824
 20
13.7583910257
 10
11.8185801914
 20
13.7552627317
 10
11.815655881
 20
13.7521178145
 10
11.8126767992
 20
13.7489633048
  0
LWPOLYLINE
  5
39D
100
AcDbEntity
  8
0
100
AcDbPolyline
 62
7
  6
CONTINUOUS
 90
25
 70
0
 10
11.8126767992
 20
13.7489633048
 10
11.8096421564
 20
13.745798101
 10
11.8065470871
 20
13.7426170897
 10
11.8033919043
 20
13.7394207291
 10
11.80018054
 20
13.7362131051
 10
11.7969125403
 20
13.7329938476
 10
11.7935888385
 20
13.7297639793
 10
11.7902123828
 20
13.7265261842
 10
11.7867854604
 20
13.7232822673
 10
11.7833101409
 20
13.7200337949
 10
11.7797882248
 20
13.716782063
 10
11.7762214502
 20
13.7135282997
 10
11.7726117562
 20
13.7102739025
 10
11.7689608498
 20
13.7070200432
 10
11.7652698761
 20
13.7037673897
 10
11.7615405731
 20
13.7005171328
 10
11.757774628
 20
13.6972704042
 10
11.7539728767
 20
13.6940275985
 10
11.7501367985
 20
13.6907896659
 10
11.746268125
 20
13.687557756
 10
11.7423679117
 20
13.6843324348
 10
11.7384379463
 20
13.6811147005
 10
11.7344794043
 20
13.6779048957
 10
11.7304922356
 20
13.6747023981
 10
11.7264777235
 20
13.6715076956
  0
LINE
  5
39E
100
AcDbEntity
  8
0
100
AcDbLine
 62
250
  6
CONTINUOUS
 10
24.2806066961
 20
15.7242490931
 11
24.5556508167
 21
15.89969996
  0
LINE
  5
39F
100
AcDbEntity
  8
0
100
AcDbLine
 62
250
  6
CONTINUOUS
 10
14.9336333391
 20
12.1803094434
 11
14.1894686618
 21
11.7219997215
  0
LINE
  5
3A0
100
AcDbEntity
  8
0
100
AcDbLine
 62
7
  6
CONTINUOUS
 10
-11.3062309705
 20
-3.6003708755
 11
-11.5183630048
 21
-3.7228532535
  0
LINE
  5
3A1
100
AcDbEntity
  8
0
100
AcDbLine
 62
7
  6
CONTINUOUS
 10
-7.4352547999
 20
-1.5086736709
 11
-7.6473868343
 21
-1.6311560489
  0
LINE
  5
3A2
100
AcDbEntity
  8
0
100
AcDbLine
 62
250
  6
CONTINUOUS
 10
24.9055034963
 20
16.9797168659
 11
24.6226607839
 21
16.8164070286
  0
LINE
  5
3A3
100
AcDbEntity
  8
0
100
AcDbLine
 62
7
  6
CONTINUOUS
 10
-10.1368566666
 20
-4.2755529428
 11
-10.348988701
 21
-4.3980353208
  0
LINE
  5
3A4
100
AcDbEntity
  8
0
100
AcDbLine
 62
7
  6
CONTINUOUS
 10
-5.7866664523
 20
-2.4605479211
 11
-5.9987984866
 21
-2.5830302991
  0
LINE
  5
3A5
100
AcDbEntity
  8
0
100
AcDbLine
 62
250
  6
CONTINUOUS
 10
2.6616478684
 20
2.0037300852
 11
17.6103652873
 21
10.6347979638
  0
LINE
  5
3A6
100
AcDbEntity
  8
0
100
AcDbLine
 62
7
  6
CONTINUOUS
 10
-8.9407593833
 20
-4.9661645236
 11
-9.1528914176
 21
-5.0886469016
  0
LINE
  5
3A7
100
AcDbEntity
  8
0
100
AcDbLine
 62
7
  6
CONTINUOUS
 10
-5.0299943142
 20
-2.8974409304
 11
-5.2421263485
 21
-3.0199233084
  0
LWPOLYLINE
  5
3A8
100
AcDbEntity
  8
0
100
AcDbPolyline
 62
250
  6
CONTINUOUS
 90
28
 70
0
 10
0.4670214292
 20
-2.0288551427
 10
0.6027475084
 20
-2.1030279483
 10
0.7453273225
 20
-2.1727831648
 10
0.8943301838
 20
-2.2379100055
 10
1.0493060273
 20
-2.2982116761
 10
1.2097866668
 20
-2.3535059287
 10
1.3752871966
 20
-2.4036256242
 10
1.545308488
 20
-2.448419504
 10
1.7193360914
 20
-2.48775193
 10
1.8968414827
 20
-2.521503545
 10
2.0772853373
 20
-2.5495721884
 10
2.2601252505
 20
-2.5718738698
 10
2.4448148612
 20
-2.5883418815
 10
2.6308035873
 20
-2.5989264189
 10
2.8175223491
 20
-2.6035943894
 10
3.0043912094
 20
-2.6023316904
 10
3.1908346199
 20
-2.5951438835
 10
3.3763006305
 20
-2.5820539234
 10
3.5602463865
 20
-2.5631004465
 10
3.7421350209
 20
-2.5383373148
 10
3.9213975694
 20
-2.507840517
 10
4.0974538689
 20
-2.4717102621
 10
4.2698049486
 20
-2.4300508565
 10
4.4379005024
 20
-2.3829972647
 10
4.6011131426
 20
-2.330736401
 10
4.7589258554
 20
-2.2734557301
 10
4.9109219623
 20
-2.2113291075
 10
5.0566623582
 20
-2.1445566918
  0
LWPOLYLINE
  5
3A9
100
AcDbEntity
  8
0
100
AcDbPolyline
 62
250
  6
CONTINUOUS
 90
49
 70
0
 10
-24.0278127664
 20
11.1848938911
 10
-24.147213302
 20
11.2513918945
 10
-24.2647417577
 20
11.3127169622
 10
-24.3803981337
 20
11.3688690945
 10
-24.4941538236
 20
11.4197320428
 10
-24.6060374338
 20
11.4654220555
 10
-24.7161347828
 20
11.5062878776
 10
-24.8244272201
 20
11.5423684055
 10
-24.9309333962
 20
11.5736247427
 10
-25.0357950813
 20
11.6002889456
 10
-25.1390143986
 20
11.6224130679
 10
-25.2405892249
 20
11.6399450559
 10
-25.3406549606
 20
11.6529608043
 10
-25.4392978951
 20
11.6615058268
 10
-25.5364317391
 20
11.6655346097
 10
-25.6319330249
 20
11.6649865066
 10
-25.7258994609
 20
11.6598469684
 10
-25.8182333388
 20
11.6501305443
 10
-25.9085180659
 20
11.6358202346
 10
-25.9967082864
 20
11.6168914127
 10
-26.0828493561
 20
11.5933687053
 10
-26.1666607503
 20
11.5653089937
 10
-26.2481215026
 20
11.5327010492
 10
-26.3272525793
 20
11.4955561005
 10
-26.4038363548
 20
11.4539647144
 10
-26.4779021504
 20
11.4078732607
 10
-26.5494206448
 20
11.3573353697
 10
-26.6180862476
 20
11.302602499
 10
-26.6838623975
 20
11.2436474487
 10
-26.7467856558
 20
11.1804974188
 10
-26.8066601164
 20
11.1134854668
 10
-26.8634406191
 20
11.042628891
 10
-26.9171723241
 20
10.9679103931
 10
-26.9677948056
 20
10.8896111349
 10
-27.0152746984
 20
10.8078135513
 10
-27.0596453678
 20
10.7224352076
 10
-27.1009464838
 20
10.6335099613
 10
-27.1391934561
 20
10.5411219226
 10
-27.174370875
 20
10.4451869813
 10
-27.2064721818
 20
10.3454866658
 10
-27.2355463496
 20
10.2420497473
 10
-27.2615444054
 20
10.1348474546
 10
-27.2843128709
 20
10.0235750011
 10
-27.3038993805
 20
9.9082365618
 10
-27.3202562999
 20
9.7888279618
 10
-27.3330872485
 20
9.66503189
 10
-27.3422934327
 20
9.5367425761
 10
-27.3479736459
 20
9.4040657905
 10
-27.3501278884
 20
9.2670015332
  0
LINE
  5
3AA
100
AcDbEntity
  8
0
100
AcDbLine
 62
250
  6
CONTINUOUS
 10
-3.6600834589
 20
-0.5751777434
 11
-24.0278127664
 21
11.1848938911
  0
LINE
  5
3AB
100
AcDbEntity
  8
0
100
AcDbLine
 62
250
  6
CONTINUOUS
 10
0.4670214292
 20
-2.0288551427
 11
-28.1549176546
 21
14.4970937672
  0
LWPOLYLINE
  5
3AC
100
AcDbEntity
  8
0
100
AcDbPolyline
 62
250
  6
CONTINUOUS
 90
16
 70
0
 10
-28.1549176546
 20
14.4970937672
 10
-28.2833804477
 20
14.5754603055
 10
-28.4041922474
 20
14.6577841064
 10
-28.5169879832
 20
14.7438164965
 10
-28.6214268224
 20
14.8332976173
 10
-28.7171931179
 20
14.9259571411
 10
-28.8039973854
 20
15.0215150793
 10
-28.8815776522
 20
15.1196832341
 10
-28.9496990094
 20
15.2201645744
 10
-29.0081547449
 20
15.3226539462
 10
-29.0567679238
 20
15.4268399533
 10
-29.0953930779
 20
15.5324094153
 10
-29.1239146735
 20
15.6390468717
 10
-29.1422464515
 20
15.746434424
 10
-29.1503310966
 20
15.8542434923
 10
-29.1507545985
 20
15.8852273845
  0
LWPOLYLINE
  5
3AD
100
AcDbEntity
  8
0
100
AcDbPolyline
 62
250
  6
CONTINUOUS
 90
8
 70
0
 10
17.5487047447
 20
-18.6926938663
 10
17.5246340624
 20
-18.6713960466
 10
17.5032186721
 20
-18.6459230534
 10
17.4846746021
 20
-18.6165318425
 10
17.4691889133
 20
-18.5835188919
 10
17.456917816
 20
-18.5472172138
 10
17.4479850945
 20
-18.507992995
 10
17.4424808572
 20
-18.4662419032
  0
LWPOLYLINE
  5
3AE
100
AcDbEntity
  8
0
100
AcDbPolyline
 62
250
  6
CONTINUOUS
 90
8
 70
0
 10
17.5522358786
 20
-18.6942195679
 10
17.5284589938
 20
-18.6729704217
 10
17.507468929
 20
-18.6475980921
 10
17.4894778785
 20
-18.618358964
 10
17.4746676828
 20
-18.5855483984
 10
17.4631880988
 20
-18.5494978994
 10
17.4551552521
 20
-18.5105718037
 10
17.450650417
 20
-18.4691634958
  0
LWPOLYLINE
  5
3AF
100
AcDbEntity
  8
0
100
AcDbPolyline
 62
7
  6
CONTINUOUS
 90
5
 70
0
 10
18.4038522236
 20
-20.1680537711
 10
18.4543610809
 20
-20.2149921663
 10
18.5070303943
 20
-20.2577127338
 10
18.5614617143
 20
-20.2959139771
 10
18.6017162162
 20
-20.3205967924
  0
LWPOLYLINE
  5
3B0
100
AcDbEntity
  8
0
100
AcDbPolyline
 62
250
  6
CONTINUOUS
 90
7
 70
0
 10
17.6828638185
 20
-18.6389169532
 10
17.6406821694
 20
-18.5992787066
 10
17.5988895113
 20
-18.5644425912
 10
17.5588532649
 20
-18.5340489756
 10
17.5210292372
 20
-18.5079779826
 10
17.4849616213
 20
-18.4863494894
 10
17.4506504171
 20
-18.4691634959
  0
LINE
  5
3B1
100
AcDbEntity
  8
0
100
AcDbLine
 62
250
  6
CONTINUOUS
 10
19.4563015975
 20
-21.5655973155
 11
19.3174619278
 21
-21.4169664171
  0
LWPOLYLINE
  5
3B2
100
AcDbEntity
  8
0
100
AcDbPolyline
 62
7
  6
CONTINUOUS
 90
25
 70
0
 10
19.2996321936
 20
-21.5476045295
 10
19.4404971569
 20
-21.6987959496
 10
19.58488902
 20
-21.8437017681
 10
19.7325256387
 20
-21.981950629
 10
19.8831537008
 20
-22.1132041724
 10
20.0364372084
 20
-22.2370599354
 10
20.1919764584
 20
-22.353089368
 10
20.3495604153
 20
-22.4610206623
 10
20.508807896
 20
-22.5604670247
 10
20.6690930414
 20
-22.6509373036
 10
20.8303002145
 20
-22.7322666436
 10
20.9919599004
 20
-22.8041049597
 10
21.1529510428
 20
-22.8659182066
 10
21.3130410431
 20
-22.9176387912
 10
21.4718990038
 20
-22.9591690569
 10
21.6282938042
 20
-22.9902785741
 10
21.7817821321
 20
-23.0110680554
 10
21.9322771443
 20
-23.021708166
 10
22.0790920237
 20
-23.0223523566
 10
22.2217011728
 20
-23.0132670219
 10
22.3600927586
 20
-22.9947243513
 10
22.4942940592
 20
-22.9669367042
 10
22.624085565
 20
-22.9301283926
 10
22.7490609253
 20
-22.8846048397
 10
22.8689302598
 20
-22.8306855077
  0
LINE
  5
3B3
100
AcDbEntity
  8
0
100
AcDbLine
 62
7
  6
CONTINUOUS
 10
19.2996594937
 20
-21.5476347839
 11
19.2996321936
 21
-21.5476045295
  0
LWPOLYLINE
  5
3B4
100
AcDbEntity
  8
0
100
AcDbPolyline
 62
7
  6
CONTINUOUS
 90
5
 70
0
 10
-1.333605281
 20
-6.2883412939
 10
-1.3421500591
 20
-6.2214190134
 10
-1.3543665669
 20
-6.15032721
 10
-1.3702474708
 20
-6.0747368392
 10
-1.3897883931
 20
-5.9950686671
  0
LINE
  5
3B5
100
AcDbEntity
  8
0
100
AcDbLine
 62
250
  6
CONTINUOUS
 10
0.4670214292
 20
-35.0775588856
 11
0.4670214292
 21
-2.0288551427
  0
LWPOLYLINE
  5
3B6
100
AcDbEntity
  8
0
100
AcDbPolyline
 62
250
  6
CONTINUOUS
 90
28
 70
0
 10
0.4670214292
 20
-2.0288551427
 10
0.4706530733
 20
-1.874233673
 10
0.4815370833
 20
-1.7158850587
 10
0.4996406507
 20
-1.5542876592
 10
0.5249091625
 20
-1.3899296144
 10
0.5572663464
 20
-1.2233074973
 10
0.5966144832
 20
-1.0549248199
 10
0.6428349887
 20
-0.8852894664
 10
0.6957880972
 20
-0.7149147584
 10
0.7553129108
 20
-0.5443180623
 10
0.8212282373
 20
-0.3740175124
 10
0.8933356061
 20
-0.2045248367
 10
0.971419605
 20
-0.0363465428
 10
1.0552480728
 20
0.1300156545
 10
1.1445651272
 20
0.2940523737
 10
1.2390930118
 20
0.455254324
 10
1.3385391364
 20
0.6131258452
 10
1.4426076484
 20
0.7672004102
 10
1.5509936635
 20
0.9170272083
 10
1.6633821082
 20
1.0621682275
 10
1.7794226942
 20
1.2021687134
 10
1.8987385551
 20
1.3365763163
 10
2.0209898736
 20
1.4650110534
 10
2.1457846262
 20
1.5870638211
 10
2.2726472646
 20
1.7022847326
 10
2.401156946
 20
1.8103197564
 10
2.5309547752
 20
1.9108949462
 10
2.6616478684
 20
2.0037300852
  0
LWPOLYLINE
  5
3B7
100
AcDbEntity
  8
0
100
AcDbPolyline
 62
250
  6
CONTINUOUS
 90
10
 70
0
 10
8.9057876938
 20
17.4623834146
 10
8.9491677691
 20
17.5864130492
 10
8.9874464
 20
17.7218724369
 10
9.0206235864
 20
17.8687615776
 10
9.0495149716
 20
18.0278664489
 10
9.0733049124
 20
18.1984010732
 10
9.0895464792
 20
18.3780075175
 10
9.0974240288
 20
18.5658998042
 10
9.0977532043
 20
18.7628639108
 10
9.0905340058
 20
18.9688998374
  0
LINE
  5
3B8
100
AcDbEntity
  8
0
100
AcDbLine
 62
250
  6
CONTINUOUS
 10
-23.5090627424
 20
-14.6419227981
 11
-18.9662996486
 21
-12.0191245512
  0
LINE
  5
3B9
100
AcDbEntity
  8
0
100
AcDbLine
 62
7
  6
CONTINUOUS
 10
-3.6505735279
 20
-3.7444519679
 11
-3.8627055623
 21
-3.8669343459
  0
LINE
  5
3BA
100
AcDbEntity
  8
0
100
AcDbLine
 62
7
  6
CONTINUOUS
 10
-5.8124899919
 20
-5.2402301517
 11
-6.0246220263
 21
-5.3627125297
  0
LINE
  5
3BB
100
AcDbEntity
  8
0
100
AcDbLine
 62
7
  6
CONTINUOUS
 10
-7.1180176479
 20
-6.0568937457
 11
-7.2969821902
 21
-6.1602256295
  0
LINE
  5
3BC
100
AcDbEntity
  8
0
100
AcDbLine
 62
7
  6
CONTINUOUS
 10
-6.1883250243
 20
-6.5553856264
 11
-6.4004570587
 21
-6.6778680043
  0
LINE
  5
3BD
100
AcDbEntity
  8
0
100
AcDbLine
 62
250
  6
CONTINUOUS
 10
-22.4459197204
 20
-16.4833389567
 11
-17.9031588096
 21
-13.8605384981
  0
LINE
  5
3BE
100
AcDbEntity
  8
0
100
AcDbLine
 62
250
  6
CONTINUOUS
 10
-1.7202559698
 20
-4.9045470915
 11
-1.9323880042
 21
-5.0270294695
  0
LINE
  5
3BF
100
AcDbEntity
  8
0
100
AcDbLine
 62
7
  6
CONTINUOUS
 10
-2.897470087
 20
-6.0536156888
 11
-3.1096021214
 21
-6.1760980668
  0
LWPOLYLINE
  5
3C0
100
AcDbEntity
  8
0
100
AcDbPolyline
 62
7
  6
CONTINUOUS
 90
8
 70
0
 10
-23.4383498379
 20
9.686465362
 10
-23.4403018472
 20
9.6871093876
 10
-23.438681561
 20
9.6864963133
 10
-23.4297660406
 20
9.6828973266
 10
-23.4139511712
 20
9.6759228143
 10
-23.3921416714
 20
9.6654910865
 10
-23.3649297792
 20
9.6514802949
 10
-23.3325239944
 20
9.6336260965
  0
LWPOLYLINE
  5
3C1
100
AcDbEntity
  8
0
100
AcDbPolyline
 62
250
  6
CONTINUOUS
 90
10
 70
0
 10
17.7374438842
 20
-6.8124405766
 10
17.7719851727
 20
-6.8293924707
 10
17.8071470954
 20
-6.8424870998
 10
17.8427068962
 20
-6.8515794631
 10
17.8783100201
 20
-6.8564800129
 10
17.9139122117
 20
-6.8571961959
 10
17.9496933287
 20
-6.8537470122
 10
17.9856909172
 20
-6.8458136629
 10
18.021280855
 20
-6.8332334317
 10
18.0556169868
 20
-6.8162099151
  0
LINE
  5
3C2
100
AcDbEntity
  8
0
100
AcDbLine
 62
7
  6
CONTINUOUS
 10
20.0622768687
 20
-8.3926101336
 11
19.9162174624
 21
-8.3082772629
  0
LINE
  5
3C3
100
AcDbEntity
  8
0
100
AcDbLine
 62
250
  6
CONTINUOUS
 10
2.6616478684
 20
2.0037300852
 11
-25.9602912154
 21
18.5296789951
  0
LWPOLYLINE
  5
3C4
100
AcDbEntity
  8
0
100
AcDbPolyline
 62
250
  6
CONTINUOUS
 90
16
 70
0
 10
17.4506504171
 20
-7.3453156834
 10
17.502118535
 20
-7.3766776468
 10
17.552922978
 20
-7.403475612
 10
17.6030637463
 20
-7.4257095792
 10
17.6525561747
 20
-7.4434277606
 10
17.7013849284
 20
-7.456581944
 10
17.7495040022
 20
-7.465027492
 10
17.7971601203
 20
-7.4688930894
 10
17.8441065585
 20
-7.4680500516
 10
17.8895571392
 20
-7.4619676874
 10
17.9336826158
 20
-7.4504592474
 10
17.9763122348
 20
-7.4337114811
 10
18.0161475582
 20
-7.4117539458
 10
18.0527557732
 20
-7.3845964942
 10
18.0865696924
 20
-7.3522292736
 10
18.117589316
 20
-7.3146522841
  0
LINE
  5
3C5
100
AcDbEntity
  8
0
100
AcDbLine
 62
7
  6
CONTINUOUS
 10
19.2680516946
 20
-21.5110081412
 11
19.2996594936
 21
-21.5476347839
  0
LWPOLYLINE
  5
3C6
100
AcDbEntity
  8
0
100
AcDbPolyline
 62
250
  6
CONTINUOUS
 90
13
 70
0
 10
19.3174619278
 20
-21.4169664171
 10
19.2944302841
 20
-21.3898028002
 10
19.2729277258
 20
-21.3615623853
 10
19.2529542529
 20
-21.3322451723
 10
19.2344536349
 20
-21.3018577615
 10
19.2174821023
 20
-21.2703935525
 10
19.2022083464
 20
-21.2378327449
 10
19.1884426798
 20
-21.2039277798
 10
19.1763747899
 20
-21.1689262161
 10
19.1667424303
 20
-21.1335509291
 10
19.1597915189
 20
-21.0980428774
 10
19.1552761378
 20
-21.0621611024
 10
19.153196287
 20
-21.0259056041
  0
LWPOLYLINE
  5
3C7
100
AcDbEntity
  8
0
100
AcDbPolyline
 62
250
  6
CONTINUOUS
 90
3
 70
0
 10
19.0425032278
 20
-20.8622096321
 10
19.0636442064
 20
-20.8887497662
 10
19.0893225405
 20
-20.9139207035
  0
LWPOLYLINE
  5
3C8
100
AcDbEntity
  8
0
100
AcDbPolyline
 62
250
  6
CONTINUOUS
 90
8
 70
0
 10
19.2996321936
 20
-21.5476045295
 10
19.2962628137
 20
-21.5433129534
 10
19.29006739
 20
-21.529714366
 10
19.2877722661
 20
-21.5128715012
 10
19.2894008603
 20
-21.4929568804
 10
19.2949364101
 20
-21.470174464
 10
19.3043221571
 20
-21.4447575533
 10
19.3174619278
 20
-21.4169664172
  0
LINE
  5
3C9
100
AcDbEntity
  8
0
100
AcDbLine
 62
7
  6
CONTINUOUS
 10
17.4902988349
 20
-33.7978496219
 11
18.2312611816
 21
-35.5849684525
  0
LINE
  5
3CA
100
AcDbEntity
  8
0
100
AcDbLine
 62
7
  6
CONTINUOUS
 10
18.2615536361
 20
-35.2882672936
 11
17.5326665519
 21
-33.5078446013
  0
LINE
  5
3CB
100
AcDbEntity
  8
0
100
AcDbLine
 62
7
  6
CONTINUOUS
 10
18.2615536361
 20
-34.6476186647
 11
17.7447985862
 21
-33.3853622233
  0
LWPOLYLINE
  5
3CC
100
AcDbEntity
  8
0
100
AcDbPolyline
 62
250
  6
CONTINUOUS
 90
34
 70
0
 10
5.0566623582
 20
-2.1445566916
 10
5.0435024502
 20
-2.0171052034
 10
5.0254690141
 20
-1.886565841
 10
5.0026025076
 20
-1.7532314654
 10
4.9749542307
 20
-1.6174012081
 10
4.9425862115
 20
-1.4793798
 10
4.9055710668
 20
-1.3394768881
 10
4.8639918389
 20
-1.1980063403
 10
4.8179418094
 20
-1.0552855414
 10
4.7675242902
 20
-0.9116346808
 10
4.7128523913
 20
-0.7673760347
 10
4.6540487675
 20
-0.622833243
 10
4.5912453427
 20
-0.4783305826
 10
4.5245830143
 20
-0.3341922406
 10
4.4542113372
 20
-0.1907415872
 10
4.3802881883
 20
-0.0483004498
 10
4.302979412
 20
0.0928116092
 10
4.2224584481
 20
0.2322780092
 10
4.1389059429
 20
0.3697858618
 10
4.0525093437
 20
0.5050266724
 10
3.9634624787
 20
0.6376970324
 10
3.8719651223
 20
0.7674992993
 10
3.7782225461
 20
0.8941422655
 10
3.6824450586
 20
1.0173418118
 10
3.5848475333
 20
1.1368215443
 10
3.4856489271
 20
1.2523134138
 10
3.3850717893
 20
1.363558318
 10
3.2833417612
 20
1.4703066825
 10
3.1806870709
 20
1.5723190208
 10
3.0773380212
 20
1.6693664713
 10
2.9735264729
 20
1.7612313106
 10
2.8694853241
 20
1.8477074428
 10
2.7654479878
 20
1.9286008617
 10
2.6616478684
 20
2.0037300852
  0
LINE
  5
3CD
100
AcDbEntity
  8
0
100
AcDbLine
 62
250
  6
CONTINUOUS
 10
4.8625573321
 20
15.4591800762
 11
4.8632577017
 21
15.4519384383
  0
LINE
  5
3CE
100
AcDbEntity
  8
0
100
AcDbLine
 62
7
  6
CONTINUOUS
 10
4.7529602325
 20
17.9552546401
 11
4.7529602325
 21
18.1239040819
  0
LINE
  5
3CF
100
AcDbEntity
  8
0
100
AcDbLine
 62
250
  6
CONTINUOUS
 10
5.0566623582
 20
-35.1932604346
 11
5.0566623582
 21
-2.1445566916
  0
LINE
  5
3D0
100
AcDbEntity
  8
0
100
AcDbLine
 62
250
  6
CONTINUOUS
 10
5.0605452267
 20
16.407415542
 11
5.0605452267
 21
16.1400760556
  0
LINE
  5
3D1
100
AcDbEntity
  8
0
100
AcDbLine
 62
250
  6
CONTINUOUS
 10
5.7486639205
 20
16.3398146715
 11
5.7486639205
 21
16.1296720981
  0
LWPOLYLINE
  5
3D2
100
AcDbEntity
  8
0
100
AcDbPolyline
 62
250
  6
CONTINUOUS
 90
25
 70
0
 10
4.8632577517
 20
15.4519387808
 10
4.8626775481
 20
15.4310995689
 10
4.8610343481
 20
15.4081576078
 10
4.8583883314
 20
15.3831234288
 10
4.8549083287
 20
15.3560514575
 10
4.8505434357
 20
15.3269335178
 10
4.8450125234
 20
15.2957022407
 10
4.8383160191
 20
15.2623944808
 10
4.8305326914
 20
15.2270833791
 10
4.8214782231
 20
15.1897736396
 10
4.8111312098
 20
15.1505353845
 10
4.7995490857
 20
15.1094705157
 10
4.7866490604
 20
15.0666467246
 10
4.7724069631
 20
15.0222129349
 10
4.7568337016
 20
14.9762525613
 10
4.7398932298
 20
14.9287559754
 10
4.7215629328
 20
14.8799447763
 10
4.7018083766
 20
14.8299066955
 10
4.6805839152
 20
14.7784816169
 10
4.6575985284
 20
14.7254944263
 10
4.63303701
 20
14.6715948845
 10
4.6075423602
 20
14.6178656734
 10
4.58124073
 20
14.5647910378
 10
4.553756009
 20
14.5123080439
 10
4.5249418482
 20
14.4606369228
  0
LWPOLYLINE
  5
3D3
100
AcDbEntity
  8
0
100
AcDbPolyline
 62
250
  6
CONTINUOUS
 90
10
 70
0
 10
5.0605452267
 20
16.1400760556
 10
5.0592595842
 20
16.1084486607
 10
5.0551458773
 20
16.0790350698
 10
5.0482041057
 20
16.0518352829
 10
5.0384893032
 20
16.0265255345
 10
5.0259464361
 20
16.0034295901
 10
5.010410404
 20
15.9835187466
 10
4.9918261733
 20
15.9671167696
 10
4.9702487777
 20
15.9538998935
 10
4.9456782169
 20
15.9438681183
  0
LWPOLYLINE
  5
3D4
100
AcDbEntity
  8
0
100
AcDbPolyline
 62
250
  6
CONTINUOUS
 90
12
 70
0
 10
5.7486638923
 20
16.1296720842
 10
5.7462543677
 20
16.0760437572
 10
5.7404586653
 20
16.0246602855
 10
5.7312886264
 20
15.9758225738
 10
5.7188728102
 20
15.9301163954
 10
5.7032031716
 20
15.8874782798
 10
5.6839291233
 20
15.8474162481
 10
5.6607546723
 20
15.8101121607
 10
5.6337696147
 20
15.776415472
 10
5.6031183158
 20
15.7469714212
 10
5.5689273473
 20
15.7222268583
 10
5.5437743068
 20
15.7082999152
  0
LWPOLYLINE
  5
3D5
100
AcDbEntity
  8
0
100
AcDbPolyline
 62
250
  6
CONTINUOUS
 90
13
 70
0
 10
8.3176008976
 20
16.067570257
 10
8.3399934336
 20
16.1581228708
 10
8.3567927103
 20
16.2456619609
 10
8.3679987274
 20
16.3301875272
 10
8.3736805173
 20
16.4115665202
 10
8.3737690477
 20
16.4899319895
 10
8.3680572222
 20
16.5656830834
 10
8.3566331854
 20
16.6396520606
 10
8.3394087926
 20
16.7110066624
 10
8.3159125138
 20
16.7776492608
 10
8.2859871723
 20
16.8388806463
 10
8.2497899446
 20
16.8954000284
 10
8.2073208309
 20
16.9472074071
  0
LWPOLYLINE
  5
3D6
100
AcDbEntity
  8
0
100
AcDbPolyline
 62
7
  6
CONTINUOUS
 90
4
 70
0
 10
11.8635955492
 20
13.8141608869
 10
11.8674922894
 20
13.8255751549
 10
11.876239835
 20
13.8418911778
 10
11.8781159364
 20
13.8446267156
  0
LWPOLYLINE
  5
3D7
100
AcDbEntity
  8
0
100
AcDbPolyline
 62
250
  6
CONTINUOUS
 90
17
 70
0
 10
12.1405497727
 20
13.5078089646
 10
12.1321870025
 20
13.4848885271
 10
12.1216019937
 20
13.4639119799
 10
12.108918077
 20
13.4449376692
 10
12.0940674222
 20
13.4283033129
 10
12.0773492614
 20
13.413745177
 10
12.0593877787
 20
13.4004076643
 10
12.0404440398
 20
13.3882167438
 10
12.0203703026
 20
13.3772828741
 10
11.9990999265
 20
13.367041077
 10
11.976414537
 20
13.3573697295
 10
11.9525576412
 20
13.3484455072
 10
11.9281306697
 20
13.3401577996
 10
11.9031715377
 20
13.3325403379
 10
11.8776974228
 20
13.32558792
 10
11.8522927965
 20
13.3191164947
 10
11.8272827129
 20
13.3132079665
  0
LWPOLYLINE
  5
3D8
100
AcDbEntity
  8
0
100
AcDbPolyline
 62
7
  6
CONTINUOUS
 90
27
 70
0
 10
11.8642495194
 20
13.8166929203
 10
11.8642341017
 20
13.8166590129
 10
11.8639424396
 20
13.8160398362
 10
11.8635674286
 20
13.8152706003
 10
11.8631010057
 20
13.8143453611
 10
11.8625383259
 20
13.8132651229
 10
11.861878592
 20
13.8120383311
 10
11.8611158931
 20
13.810663491
 10
11.8602458576
 20
13.8091421008
 10
11.8592735684
 20
13.8074914783
 10
11.8581986961
 20
13.8057183623
 10
11.8570166434
 20
13.8038221616
 10
11.8557291004
 20
13.8018121863
 10
11.8543356477
 20
13.7996937651
 10
11.8528340225
 20
13.797469048
 10
11.8512246546
 20
13.7951433415
 10
11.8495058228
 20
13.79271835
 10
11.8476791647
 20
13.7902003732
 10
11.8457512631
 20
13.7876019109
 10
11.8437233683
 20
13.7849275928
 10
11.8415960222
 20
13.7821809108
 10
11.8393756253
 20
13.7793725505
 10
11.8370643313
 20
13.776507275
 10
11.8346631054
 20
13.7735881765
 10
11.8321772341
 20
13.7706233368
 10
11.8296087339
 20
13.7676164887
 10
11.8269599266
 20
13.7645711145
  0
LWPOLYLINE
  5
3D9
100
AcDbEntity
  8
0
100
AcDbPolyline
 62
250
  6
CONTINUOUS
 90
25
 70
0
 10
14.1894686618
 20
11.7219997215
 10
14.2176396374
 20
11.772549106
 10
14.2444261746
 20
11.8236029245
 10
14.2699629992
 20
11.8749211766
 10
14.2944600508
 20
11.9262190495
 10
14.3179197173
 20
11.9773165845
 10
14.3401489717
 20
12.0281835881
 10
14.3612451238
 20
12.0787979867
 10
14.3812631088
 20
12.1288587745
 10
14.3999378313
 20
12.1779608249
 10
14.4172404474
 20
12.2258921374
 10
14.4332795769
 20
12.2725673026
 10
14.4479779178
 20
12.3177798846
 10
14.4612938984
 20
12.36131915
 10
14.4732886219
 20
12.4031538323
 10
14.4840359265
 20
12.4433639492
 10
14.4935345207
 20
12.4818376207
 10
14.5017840736
 20
12.5185049543
 10
14.5088766109
 20
12.5535230313
 10
14.514806092
 20
12.5869773528
 10
14.5195883004
 20
12.6186354104
 10
14.5233256469
 20
12.6481927834
 10
14.5260091954
 20
12.6755235685
 10
14.5275540508
 20
12.7006706563
 10
14.5279122789
 20
12.7236047011
  0
LWPOLYLINE
  5
3DA
100
AcDbEntity
  8
0
100
AcDbPolyline
 62
7
  6
CONTINUOUS
 90
27
 70
0
 10
-1.6287215117
 20
-7.2085998657
 10
-1.6158869682
 20
-7.2009267692
 10
-1.6035317842
 20
-7.1929448668
 10
-1.5910321245
 20
-7.1842990219
 10
-1.5783928181
 20
-7.1749872532
 10
-1.5656572677
 20
-7.1649116368
 10
-1.552819452
 20
-7.1540893773
 10
-1.5398853923
 20
-7.1425032701
 10
-1.5269165559
 20
-7.130003778
 10
-1.5139033684
 20
-7.1166168811
 10
-1.5008554042
 20
-7.1023165992
 10
-1.4878628536
 20
-7.0868754547
 10
-1.4749124413
 20
-7.0703082455
 10
-1.4620174426
 20
-7.0526001736
 10
-1.4493078733
 20
-7.0334793674
 10
-1.4367673925
 20
-7.01294782
 10
-1.4244123411
 20
-6.9910035382
 10
-1.4124217568
 20
-6.9673686712
 10
-1.4007749493
 20
-6.9420532374
 10
-1.3894926089
 20
-6.9150472185
 10
-1.3788158452
 20
-6.8860427081
 10
-1.3687283958
 20
-6.8550440311
 10
-1.3592465231
 20
-6.8220468627
 10
-1.3506601233
 20
-6.786730322
 10
-1.3429500083
 20
-6.7490944765
 10
-1.3361353662
 20
-6.7091392587
 10
-1.333605281
 20
-6.6897967752
  0
LWPOLYLINE
  5
3DB
100
AcDbEntity
  8
0
100
AcDbPolyline
 62
7
  6
CONTINUOUS
 90
9
 70
0
 10
-1.4165811233
 20
-7.0861319584
 10
-1.4127479445
 20
-7.0838845529
 10
-1.4014693488
 20
-7.0769908396
 10
-1.3900875507
 20
-7.0695947505
 10
-1.3786191258
 20
-7.0616265322
 10
-1.3670592468
 20
-7.053088364
 10
-1.3554127412
 20
-7.0439780665
 10
-1.3437106663
 20
-7.0342193471
 10
-1.333605281
 20
-7.0252938185
  0
LINE
  5
3DC
100
AcDbEntity
  8
0
100
AcDbLine
 62
250
  6
CONTINUOUS
 10
-2.4504580524
 20
-6.3117148352
 11
-2.6625900868
 21
-6.4341972132
  0
LINE
  5
3DD
100
AcDbEntity
  8
0
100
AcDbLine
 62
250
  6
CONTINUOUS
 10
5.0566623582
 20
-2.1445566916
 11
20.0053797771
 21
6.486511187
  0
LINE
  5
3DE
100
AcDbEntity
  8
0
100
AcDbLine
 62
7
  6
CONTINUOUS
 10
-3.8802613154
 20
-7.8880326851
 11
-4.0923933497
 21
-8.0105150631
  0
LINE
  5
3DF
100
AcDbEntity
  8
0
100
AcDbLine
 62
7
  6
CONTINUOUS
 10
-1.8166900489
 20
-7.2643122914
 11
-1.8517415031
 21
-7.2845505617
  0
LINE
  5
3E0
100
AcDbEntity
  8
0
100
AcDbLine
 62
7
  6
CONTINUOUS
 10
-1.6287168917
 20
-7.2086078741
 11
-1.4165848573
 21
-7.0861254961
  0
LINE
  5
3E1
100
AcDbEntity
  8
0
100
AcDbLine
 62
7
  6
CONTINUOUS
 10
-2.8715339475
 20
-8.4704590212
 11
-3.0836659818
 21
-8.5929413992
  0
LINE
  5
3E2
100
AcDbEntity
  8
0
100
AcDbLine
 62
250
  6
CONTINUOUS
 10
29.1481441835
 20
9.6312476452
 11
28.865301471
 21
9.4679378079
  0
LINE
  5
3E3
100
AcDbEntity
  8
0
100
AcDbLine
 62
250
  6
CONTINUOUS
 10
-1.333605281
 20
-8.3546499246
 11
-1.4008797924
 21
-8.3934933843
  0
LWPOLYLINE
  5
3E4
100
AcDbEntity
  8
0
100
AcDbPolyline
 62
7
  6
CONTINUOUS
 90
12
 70
0
 10
-2.2014580118
 20
-6.5152276308
 10
-2.2167082658
 20
-6.5232065467
 10
-2.2471775831
 20
-6.5346485676
 10
-2.2805661598
 20
-6.5419474888
 10
-2.3168731931
 20
-6.5449909193
 10
-2.3566531537
 20
-6.5433747552
 10
-2.4003420968
 20
-6.5369946977
 10
-2.4475039672
 20
-6.5259550456
 10
-2.4973850709
 20
-6.5101645917
 10
-2.5497341763
 20
-6.4895929339
 10
-2.604802515
 20
-6.4642704744
 10
-2.6625900868
 20
-6.4341972132
  0
LINE
  5
3E5
100
AcDbEntity
  8
0
100
AcDbLine
 62
250
  6
CONTINUOUS
 10
27.7484239674
 20
9.717813394
 11
28.0378825396
 21
9.8682976984
  0
LWPOLYLINE
  5
3E6
100
AcDbEntity
  8
0
100
AcDbPolyline
 62
250
  6
CONTINUOUS
 90
20
 70
0
 10
-25.9602912154
 20
18.5296789951
 10
-26.0833150295
 20
18.5855150676
 10
-26.2055927548
 20
18.6352931284
 10
-26.3268500648
 20
18.678901502
 10
-26.4468149227
 20
18.7162423544
 10
-26.5652181909
 20
18.7472319125
 10
-26.6817942353
 20
18.7718006521
 10
-26.796281521
 20
18.7898934541
 10
-26.9084231994
 20
18.8014697277
 10
-27.0179676843
 20
18.806503502
 10
-27.1246692161
 20
18.8049834839
 10
-27.2282884131
 20
18.7969130834
 10
-27.3285928091
 20
18.7823104063
 10
-27.4253573744
 20
18.7612082129
 10
-27.5183650204
 20
18.7336538455
 10
-27.6074070871
 20
18.6997091213
 10
-27.6922838113
 20
18.6594501945
 10
-27.7728047749
 20
18.6129673847
 10
-27.8487893313
 20
18.5603649745
 10
-27.8727880159
 20
18.5417239826
  0
LWPOLYLINE
  5
3E7
100
AcDbEntity
  8
0
100
AcDbPolyline
 62
250
  6
CONTINUOUS
 90
3
 70
0
 10
17.4306384952
 20
-7.3304614125
 10
17.4409803195
 20
-7.3382601812
 10
17.4506504171
 20
-7.3453156834
  0
LWPOLYLINE
  5
3E8
100
AcDbEntity
  8
0
100
AcDbPolyline
 62
250
  6
CONTINUOUS
 90
4
 70
0
 10
17.3820886368
 20
-7.292352679
 10
17.3953762489
 20
-7.3030122482
 10
17.4078585428
 20
-7.3128104353
 10
17.4306384952
 20
-7.3304614125
  0
LWPOLYLINE
  5
3E9
100
AcDbEntity
  8
0
100
AcDbPolyline
 62
250
  6
CONTINUOUS
 90
3
 70
0
 10
17.3371456022
 20
-7.2553373664
 10
17.3530023707
 20
-7.2685970083
 10
17.3820886368
 20
-7.292352679
  0
LWPOLYLINE
  5
3EA
100
AcDbEntity
  8
0
100
AcDbPolyline
 62
250
  6
CONTINUOUS
 90
3
 70
0
 10
17.2840768999
 20
-7.2098445889
 10
17.3026883407
 20
-7.2260187349
 10
17.3371456022
 20
-7.2553373664
  0
LWPOLYLINE
  5
3EB
100
AcDbEntity
  8
0
100
AcDbPolyline
 62
250
  6
CONTINUOUS
 90
3
 70
0
 10
17.2227110785
 20
-7.1552224945
 10
17.2441597708
 20
-7.1745679734
 10
17.2840768999
 20
-7.2098445889
  0
LWPOLYLINE
  5
3EC
100
AcDbEntity
  8
0
100
AcDbPolyline
 62
250
  6
CONTINUOUS
 90
3
 70
0
 10
17.1522454154
 20
-7.0902009244
 10
17.1768454877
 20
-7.1131931724
 10
17.2227110785
 20
-7.1552224945
  0
LWPOLYLINE
  5
3ED
100
AcDbEntity
  8
0
100
AcDbPolyline
 62
250
  6
CONTINUOUS
 90
4
 70
0
 10
17.0432736327
 20
-6.985271192
 10
17.0716908261
 20
-7.0131589161
 10
17.0993766925
 20
-7.0399129164
 10
17.1522454154
 20
-7.0902009244
  0
LWPOLYLINE
  5
3EE
100
AcDbEntity
  8
0
100
AcDbPolyline
 62
250
  6
CONTINUOUS
 90
8
 70
0
 10
18.1710442582
 20
-19.834936768
 10
18.1714277507
 20
-19.8356522229
 10
18.1769710832
 20
-19.8398761465
 10
18.1870931105
 20
-19.8418854009
 10
18.2016901968
 20
-19.8416594143
 10
18.2206128882
 20
-19.8392005008
 10
18.2436674427
 20
-19.8345338365
 10
18.2706178139
 20
-19.8277072017
  0
LWPOLYLINE
  5
3EF
100
AcDbEntity
  8
0
100
AcDbPolyline
 62
250
  6
CONTINUOUS
 90
25
 70
0
 10
4.1805006065
 20
15.4294527082
 10
4.1835242894
 20
15.4087296926
 10
4.1875612236
 20
15.3859729691
 10
4.1925396246
 20
15.3611887355
 10
4.1982854252
 20
15.3344203756
 10
4.2048276425
 20
15.3056621195
 10
4.2124099826
 20
15.2748631774
 10
4.2210138556
 20
15.2420594665
 10
4.2305468864
 20
15.2073188168
 10
4.2411632289
 20
15.1706573309
 10
4.2528650023
 20
15.1321461103
 10
4.2655789233
 20
15.0918825256
 10
4.2793628475
 20
15.049938508
 10
4.2942189977
 20
15.0064637809
 10
4.3101206965
 20
14.9615405707
 10
4.3270855514
 20
14.9151608431
 10
4.3451128482
 20
14.8675467052
 10
4.3642165161
 20
14.818787767
 10
4.3844180728
 20
14.7687266845
 10
4.4059638496
 20
14.7172063392
 10
4.4286497339
 20
14.6648633605
 10
4.4518498427
 20
14.6127382289
 10
4.4754369632
 20
14.5613067175
 10
4.49975681
 20
14.5105298084
 10
4.5249418482
 20
14.4606369228
  0
LINE
  5
3F0
100
AcDbEntity
  8
0
100
AcDbLine
 62
250
  6
CONTINUOUS
 10
4.1791302809
 20
15.4396769861
 11
4.1805006065
 21
15.4294527082
  0
LWPOLYLINE
  5
3F1
100
AcDbEntity
  8
0
100
AcDbPolyline
 62
250
  6
CONTINUOUS
 90
14
 70
0
 10
8.9057876399
 20
17.4623834457
 10
8.9070609184
 20
17.4166586971
 10
8.9108756588
 20
17.3725872675
 10
8.9172165963
 20
17.3303455099
 10
8.9260583575
 20
17.2901024559
 10
8.9373655618
 20
17.2520191392
 10
8.9510929631
 20
17.2162479513
 10
8.9671856308
 20
17.1829320315
 10
8.9855791697
 20
17.1522046946
 10
9.0061999775
 20
17.1241888968
 10
9.0289655395
 20
17.0989967441
 10
9.0537847586
 20
17.0767290436
 10
9.08055832
 20
17.0574749001
 10
9.0919506055
 20
17.0505424413
  0
LWPOLYLINE
  5
3F2
100
AcDbEntity
  8
0
100
AcDbPolyline
 62
250
  6
CONTINUOUS
 90
16
 70
0
 10
9.0436540434
 20
18.9961851831
 10
9.0452307831
 20
19.0386599584
 10
9.0499002409
 20
19.082972954
 10
9.057615094
 20
19.1286756
 10
9.0682971642
 20
19.1753051583
 10
9.0818382913
 20
19.2223897513
 10
9.0981014974
 20
19.2694531451
 10
9.1169221735
 20
19.31601896
 10
9.1381098342
 20
19.3616158817
 10
9.161450238
 20
19.4057827463
 10
9.186707207
 20
19.4480724664
 10
9.2136251282
 20
19.4880568956
 10
9.2419317779
 20
19.5253314764
 10
9.2713407509
 20
19.5595188176
 10
9.301554324
 20
19.5902725782
 10
9.3322666684
 20
19.6172812404
  0
LWPOLYLINE
  5
3F3
100
AcDbEntity
  8
0
100
AcDbPolyline
 62
250
  6
CONTINUOUS
 90
16
 70
0
 10
9.0905340058
 20
18.9688998374
 10
9.0923439411
 20
19.011199518
 10
9.0977552174
 20
19.0551561888
 10
9.1067124332
 20
19.1003197984
 10
9.1191238815
 20
19.1462279359
 10
9.1348624893
 20
19.1924105703
 10
9.1537671201
 20
19.2383948632
 10
9.1756442208
 20
19.2837100011
 10
9.2002698038
 20
19.3278920209
 10
9.2273917434
 20
19.3704885646
 10
9.2567323528
 20
19.411063502
 10
9.2879912277
 20
19.4492013997
 10
9.3208483251
 20
19.4845117776
 10
9.3549672369
 20
19.5166331029
 10
9.3899986332
 20
19.5452364919
 10
9.4255838416
 20
19.5700290798
  0
LINE
  5
3F4
100
AcDbEntity
  8
0
100
AcDbLine
 62
7
  6
CONTINUOUS
 10
11.8630371072
 20
13.8119725016
 11
11.8631000434
 21
13.8122310122
  0
LINE
  5
3F5
100
AcDbEntity
  8
0
100
AcDbLine
 62
7
  6
CONTINUOUS
 10
11.8677488447
 20
13.8302076197
 11
11.8631000434
 21
13.8122310122
  0
LINE
  5
3F6
100
AcDbEntity
  8
0
100
AcDbLine
 62
7
  6
CONTINUOUS
 10
11.863543479
 20
13.8139661325
 11
11.8635955492
 21
13.8141608869
  0
LWPOLYLINE
  5
3F7
100
AcDbEntity
  8
0
100
AcDbPolyline
 62
250
  6
CONTINUOUS
 90
11
 70
0
 10
11.8272827129
 20
13.3132079665
 10
11.777349537
 20
13.3024138259
 10
11.7520536479
 20
13.2972389301
 10
11.7265941459
 20
13.2921893552
 10
11.7008216201
 20
13.286650593
 10
11.6740050071
 20
13.2806794672
 10
11.6468560367
 20
13.2744234406
 10
11.6213905922
 20
13.2674108013
 10
11.5983023841
 20
13.2594979439
 10
11.5769458331
 20
13.2509266141
 10
11.5573475591
 20
13.241753458
  0
LINE
  5
3F8
100
AcDbEntity
  8
0
100
AcDbLine
 62
250
  6
CONTINUOUS
 10
-21.9127132384
 20
8.8138840983
 11
-23.5090627424
 21
8.8759454507
  0
LWPOLYLINE
  5
3F9
100
AcDbEntity
  8
0
100
AcDbPolyline
 62
250
  6
CONTINUOUS
 90
3
 70
0
 10
16.9570268379
 20
-6.8987180007
 10
16.9855739293
 20
-6.9277378827
 10
17.0432736327
 20
-6.985271192
  0
LWPOLYLINE
  5
3FA
100
AcDbEntity
  8
0
100
AcDbPolyline
 62
250
  6
CONTINUOUS
 90
3
 70
0
 10
16.8763716686
 20
-6.8147005474
 10
16.9019725838
 20
-6.8416744658
 10
16.9570268379
 20
-6.8987180007
  0
LWPOLYLINE
  5
3FB
100
AcDbEntity
  8
0
100
AcDbPolyline
 62
250
  6
CONTINUOUS
 90
5
 70
0
 10
16.7757032216
 20
-6.7045260588
 10
16.7919197758
 20
-6.7228994225
 10
16.8099594251
 20
-6.7429013715
 10
16.8299116346
 20
-6.7646462446
 10
16.8763716686
 20
-6.8147005474
  0
LINE
  5
3FC
100
AcDbEntity
  8
0
100
AcDbLine
 62
7
  6
CONTINUOUS
 10
-5.8526070674
 20
21.8731066722
 11
-5.8526279694
 21
21.8731329244
  0
LWPOLYLINE
  5
3FD
100
AcDbEntity
  8
0
100
AcDbPolyline
 62
7
  6
CONTINUOUS
 90
19
 70
0
 10
-5.8526073405
 20
21.8731064551
 10
-5.8348842145
 20
21.8502678795
 10
-5.8052716374
 20
21.8095462834
 10
-5.7772437235
 20
21.7676829801
 10
-5.75099624
 20
21.7250513536
 10
-5.7266474363
 20
21.6819462109
 10
-5.7043126952
 20
21.6386909965
 10
-5.6841085102
 20
21.595664172
 10
-5.6660994991
 20
21.5531959768
 10
-5.6503239274
 20
21.5116067729
 10
-5.636807336
 20
21.471259143
 10
-5.625547863
 20
21.4325446904
 10
-5.6164700042
 20
21.3957034926
 10
-5.6095035873
 20
21.3610985138
 10
-5.6045573277
 20
21.3292775088
 10
-5.6014243123
 20
21.3004168042
 10
-5.5998767195
 20
21.2747296335
 10
-5.5996438028
 20
21.2526927935
 10
-5.6002435481
 20
21.236559266
  0
LWPOLYLINE
  5
3FE
100
AcDbEntity
  8
0
100
AcDbPolyline
 62
250
  6
CONTINUOUS
 90
49
 70
0
 10
-5.8147726919
 20
21.9801212052
 10
-5.9392928863
 20
22.1420917513
 10
-6.0589330393
 20
22.308504798
 10
-6.1736931509
 20
22.4793603453
 10
-6.2839703184
 20
22.6553058948
 10
-6.3893674445
 20
22.8356939448
 10
-6.488693237
 20
23.0185819909
 10
-6.5817953676
 20
23.2038531243
 10
-6.6688261646
 20
23.3916242539
 10
-6.7490513205
 20
23.5803036016
 10
-6.8224263657
 20
23.7699308017
 10
-6.8889957699
 20
23.96046622
 10
-6.9481586337
 20
24.1501991759
 10
-6.9998442752
 20
24.3391110815
 10
-7.0441233764
 20
24.5272205246
 10
-7.0806070843
 20
24.7128725891
 10
-7.1092271237
 20
24.8960480707
 10
-7.1300517698
 20
25.0767661736
 10
-7.1428969946
 20
25.2534295937
 10
-7.1476920096
 20
25.4260015058
 10
-7.1445076033
 20
25.5945187352
 10
-7.1333721139
 20
25.7574944537
 10
-7.1142152124
 20
25.9148798343
 10
-7.0871072277
 20
26.0667237041
 10
-7.0522874858
 20
26.2116857163
 10
-7.0096877307
 20
26.3497049702
 10
-6.9593762184
 20
26.4808423665
 10
-6.9017970421
 20
26.6039402609
 10
-6.8368860149
 20
26.7189274092
 10
-6.7647073238
 20
26.8258750554
 10
-6.6858976237
 20
26.9238392877
 10
-6.6003976732
 20
27.0127409586
 10
-6.5082667137
 20
27.0926592156
 10
-6.4103191246
 20
27.1628875881
 10
-6.3065050784
 20
27.2233397613
 10
-6.1968744026
 20
27.2741020501
 10
-6.0823909593
 20
27.3147269288
 10
-5.9630034503
 20
27.3451243277
 10
-5.8387631739
 20
27.3653843165
 10
-5.7107878869
 20
27.3753295782
 10
-5.5790681311
 20
27.3748721912
 10
-5.4436133647
 20
27.3641000771
 10
-5.3055697191
 20
27.3430996835
 10
-5.1647935242
 20
27.3117237066
 10
-5.0214284502
 20
27.2701194501
 10
-4.8770516388
 20
27.218815273
 10
-4.7321888042
 20
27.1579872948
 10
-4.5863142322
 20
27.0874593959
 10
-4.4394279229
 20
27.0072315764
  0
LINE
  5
3FF
100
AcDbEntity
  8
0
100
AcDbLine
 62
7
  6
CONTINUOUS
 10
-5.9909940675
 20
22.0533204543
 11
-5.8526279694
 21
21.8731329244
  0
LINE
  5
400
100
AcDbEntity
  8
0
100
AcDbLine
 62
250
  6
CONTINUOUS
 10
-5.7667177052
 20
21.9165576361
 11
-5.8147726919
 21
21.9801212052
  0
LWPOLYLINE
  5
401
100
AcDbEntity
  8
0
100
AcDbPolyline
 62
250
  6
CONTINUOUS
 90
8
 70
0
 10
-5.8526279694
 20
21.8731329244
 10
-5.8540061481
 20
21.875086447
 10
-5.8574871695
 20
21.8854768699
 10
-5.8569110283
 20
21.8989262938
 10
-5.8522836864
 20
21.9152969501
 10
-5.8436525981
 20
21.9344211697
 10
-5.8311061988
 20
21.9561031172
 10
-5.8147730074
 20
21.9801207694
  0
LWPOLYLINE
  5
402
100
AcDbEntity
  8
0
100
AcDbPolyline
 62
7
  6
CONTINUOUS
 90
7
 70
0
 10
18.171044256
 20
-19.8349367691
 10
18.1997940492
 20
-19.892421163
 10
18.2332695189
 20
-19.9510207593
 10
18.2707539756
 20
-20.0087039916
 10
18.3120857976
 20
-20.0647766129
 10
18.3564458634
 20
-20.1179296749
 10
18.4038522236
 20
-20.1680537711
  0
LWPOLYLINE
  5
403
100
AcDbEntity
  8
0
100
AcDbPolyline
 62
250
  6
CONTINUOUS
 90
8
 70
0
 10
17.9521062205
 20
-19.0281255625
 10
17.9214021018
 20
-18.965169429
 10
17.887105314
 20
-18.9034777525
 10
17.8496561171
 20
-18.8435699232
 10
17.8103752912
 20
-18.7870041115
 10
17.7689628893
 20
-18.7338130032
 10
17.7257188584
 20
-18.6839639126
 10
17.6828638185
 20
-18.6389169532
  0
LWPOLYLINE
  5
404
100
AcDbEntity
  8
0
100
AcDbPolyline
 62
250
  6
CONTINUOUS
 90
10
 70
0
 10
18.2706178237
 20
-19.827707199
 10
18.2368264066
 20
-19.7540606978
 10
18.2040661921
 20
-19.6802310829
 10
18.1723371802
 20
-19.6062183542
 10
18.1416231164
 20
-19.5319820386
 10
18.1119402552
 20
-19.4575626093
 10
18.0833373597
 20
-19.3830814859
 10
18.0558306843
 20
-19.3085791417
 10
18.0294039747
 20
-19.2340151034
 10
18.0040572308
 20
-19.1593893711
  0
LINE
  5
405
100
AcDbEntity
  8
0
100
AcDbLine
 62
250
  6
CONTINUOUS
 10
17.9796579302
 20
-19.0928655432
 11
17.9521062205
 21
-19.0281255625
  0
LINE
  5
406
100
AcDbEntity
  8
0
100
AcDbLine
 62
7
  6
CONTINUOUS
 10
23.4583373437
 20
-36.9292526504
 11
24.0054576802
 21
-38.2452148589
  0
LWPOLYLINE
  5
407
100
AcDbEntity
  8
0
100
AcDbPolyline
 62
250
  6
CONTINUOUS
 90
8
 70
0
 10
17.883116553
 20
-19.1129079594
 10
17.8850060482
 20
-19.1175396313
 10
17.8935374176
 20
-19.1292587889
 10
17.9068205621
 20
-19.1391964169
 10
17.9247196727
 20
-19.147250711
 10
17.9470516694
 20
-19.1533391254
 10
17.9735880442
 20
-19.1573992313
 10
18.0040572291
 20
-19.159389371
  0
LINE
  5
408
100
AcDbEntity
  8
0
100
AcDbLine
 62
7
  6
CONTINUOUS
 10
24.1024076767
 20
-38.1054577029
 11
23.6864697903
 21
-37.0609734659
  0
LINE
  5
409
100
AcDbEntity
  8
0
100
AcDbLine
 62
7
  6
CONTINUOUS
 10
24.2717885372
 20
-37.8756205282
 11
23.8986018247
 21
-36.9384910879
  0
LWPOLYLINE
  5
40A
100
AcDbEntity
  8
0
100
AcDbPolyline
 62
250
  6
CONTINUOUS
 90
12
 70
0
 10
5.3501752318
 20
14.2493569372
 10
5.3499595542
 20
14.2499215015
 10
5.3505129905
 20
14.2508955532
 10
5.3518355899
 20
14.2522784563
 10
5.3539737254
 20
14.2540903793
 10
5.3568810975
 20
14.2563098974
 10
5.3604187342
 20
14.2588743385
 10
5.3645648128
 20
14.2617754382
 10
5.369341199
 20
14.2650210574
 10
5.3746744509
 20
14.268573091
 10
5.3805815359
 20
14.2724428507
 10
5.3870455199
 20
14.2766187306
  0
LINE
  5
40B
100
AcDbEntity
  8
0
100
AcDbLine
 62
250
  6
CONTINUOUS
 10
18.0040572308
 20
-19.1593893711
 11
17.9796579302
 21
-19.0928655432
  0
LWPOLYLINE
  5
40C
100
AcDbEntity
  8
0
100
AcDbPolyline
 62
7
  6
CONTINUOUS
 90
9
 70
0
 10
17.9106049631
 20
-19.1938408177
 10
17.9392544325
 20
-19.2746716511
 10
17.9690485887
 20
-19.3553634461
 10
17.9999723219
 20
-19.4358841028
 10
18.0320114542
 20
-19.5162047413
 10
18.0651528314
 20
-19.5962993687
 10
18.0993819342
 20
-19.6761389228
 10
18.1346827947
 20
-19.7556916095
 10
18.1710398119
 20
-19.834927253
  0
LWPOLYLINE
  5
40D
100
AcDbEntity
  8
0
100
AcDbPolyline
 62
250
  6
CONTINUOUS
 90
3
 70
0
 10
7.1552454012
 20
16.0422006941
 10
7.151281237
 20
16.0687039543
 10
7.1467771058
 20
16.0966904731
  0
LWPOLYLINE
  5
40E
100
AcDbEntity
  8
0
100
AcDbPolyline
 62
7
  6
CONTINUOUS
 90
4
 70
0
 10
11.8971550719
 20
15.1444346818
 10
11.8974236455
 20
15.1407503403
 10
11.8976238233
 20
15.1360197841
 10
11.8976363446
 20
15.1348243444
  0
LWPOLYLINE
  5
40F
100
AcDbEntity
  8
0
100
AcDbPolyline
 62
250
  6
CONTINUOUS
 90
14
 70
0
 10
11.4551025256
 20
15.9904409811
 10
11.4563758028
 20
15.9447162565
 10
11.4601905394
 20
15.9006448467
 10
11.4665314711
 20
15.8584031049
 10
11.4753732249
 20
15.8181600625
 10
11.4866804207
 20
15.7800767537
 10
11.5004078129
 20
15.74430557
 10
11.5165004712
 20
15.7109896511
 10
11.534894001
 20
15.680262312
 10
11.5555148002
 20
15.6522465095
 10
11.5782803545
 20
15.6270543501
 10
11.6030995672
 20
15.6047866411
 10
11.6298731235
 20
15.5855324881
 10
11.6414755013
 20
15.5784786048
  0
LWPOLYLINE
  5
410
100
AcDbEntity
  8
0
100
AcDbPolyline
 62
250
  6
CONTINUOUS
 90
34
 70
0
 10
13.8411885638
 20
15.0844395696
 10
13.8408521362
 20
15.1247302968
 10
13.8388837003
 20
15.1674445632
 10
13.8352832562
 20
15.2125823688
 10
13.8302623957
 20
15.2599948865
 10
13.823609527
 20
15.3098309434
 10
13.8146898742
 20
15.3625370213
 10
13.8035146765
 20
15.4183194266
 10
13.7900726946
 20
15.4769718529
 10
13.7736954359
 20
15.5383218621
 10
13.7542966667
 20
15.6026225865
 10
13.7319626205
 20
15.6696208939
 10
13.7062835054
 20
15.7383849493
 10
13.6768756211
 20
15.8094452604
 10
13.6441226678
 20
15.8822713195
 10
13.608765954
 20
15.9543397686
 10
13.5705261054
 20
16.0255733692
 10
13.5296824964
 20
16.0960493597
 10
13.4878145585
 20
16.1634760969
 10
13.4450646938
 20
16.2272913403
 10
13.4012905003
 20
16.2880573305
 10
13.357644203
 20
16.3451691457
 10
13.3142815848
 20
16.3983637993
 10
13.2710468629
 20
16.4479042779
 10
13.2286249142
 20
16.4939746205
 10
13.1874408273
 20
16.5362471401
 10
13.1470695136
 20
16.5750495236
 10
13.1069205838
 20
16.6115488709
 10
13.0674239278
 20
16.6456817288
 10
13.0281496558
 20
16.6775115504
 10
12.987217709
 20
16.7083957953
 10
12.9440014013
 20
16.73878695
 10
12.8991274188
 20
16.768232528
 10
12.8525957615
 20
16.7967325293
  0
LINE
  5
411
100
AcDbEntity
  8
0
100
AcDbLine
 62
7
  6
CONTINUOUS
 10
11.8976363446
 20
15.1348217153
 11
11.8976363446
 21
14.0398933237
  0
LINE
  5
412
100
AcDbEntity
  8
0
100
AcDbLine
 62
250
  6
CONTINUOUS
 10
12.1612402416
 20
14.7673745813
 11
12.1612402416
 21
13.6724461901
  0
LINE
  5
413
100
AcDbEntity
  8
0
100
AcDbLine
 62
250
  6
CONTINUOUS
 10
13.8412184923
 20
12.7626091139
 11
13.8411885638
 21
15.0844395696
  0
LWPOLYLINE
  5
414
100
AcDbEntity
  8
0
100
AcDbPolyline
 62
7
  6
CONTINUOUS
 90
8
 70
0
 10
11.8976363455
 20
14.0398700084
 10
11.8975298442
 20
14.0294581176
 10
11.8965373224
 20
14.0051580093
 10
11.8942746891
 20
13.9770638873
 10
11.8904721036
 20
13.9452314116
 10
11.8848939626
 20
13.9098885023
 10
11.8773683535
 20
13.8714407868
 10
11.8677488447
 20
13.8302076197
  0
LWPOLYLINE
  5
415
100
AcDbEntity
  8
0
100
AcDbPolyline
 62
250
  6
CONTINUOUS
 90
16
 70
0
 10
12.1612402416
 20
13.6724461901
 10
12.161098589
 20
13.6594836404
 10
12.1606677304
 20
13.6467219878
 10
12.1599798374
 20
13.634189662
 10
12.1590710828
 20
13.6219180664
 10
12.1579673667
 20
13.609925143
 10
12.1566824729
 20
13.5982147532
 10
12.1552419986
 20
13.5868010176
 10
12.1536729241
 20
13.5757043584
 10
12.1519874291
 20
13.5649342993
 10
12.1502076929
 20
13.5545004213
 10
12.1483570235
 20
13.5444169377
 10
12.146447118
 20
13.5346977998
 10
12.144495014
 20
13.5253528292
 10
12.1425231526
 20
13.5163878407
 10
12.1405497727
 20
13.5078089646
  0
LWPOLYLINE
  5
416
100
AcDbEntity
  8
0
100
AcDbPolyline
 62
250
  6
CONTINUOUS
 90
16
 70
0
 10
12.8525957615
 20
16.7967325293
 10
12.8544057043
 20
16.8390322991
 10
12.8598170013
 20
16.8829890556
 10
12.8687742485
 20
16.9281527442
 10
12.8811857365
 20
16.9740609526
 10
12.8969243892
 20
17.0202436458
 10
12.915829065
 20
17.0662279786
 10
12.937706207
 20
17.1115431365
 10
12.9623318242
 20
17.1557251567
 10
12.9894537852
 20
17.1983216778
 10
13.0187943995
 20
17.2388965719
 10
13.0500532609
 20
17.2770344095
 10
13.0829103229
 20
17.3123447133
 10
13.1170291758
 20
17.3444659558
 10
13.152060491
 20
17.373069261
 10
13.1876455973
 20
17.3978617717
  0
LINE
  5
417
100
AcDbEntity
  8
0
100
AcDbLine
 62
250
  6
CONTINUOUS
 10
-1.333605281
 20
-26.829455987
 11
-2.0781946172
 21
-28.2434081637
  0
LWPOLYLINE
  5
418
100
AcDbEntity
  8
0
100
AcDbPolyline
 62
250
  6
CONTINUOUS
 90
19
 70
0
 10
20.0053797771
 20
-4.3572639935
 10
20.037977354
 20
-4.3427482323
 10
20.0725393877
 20
-4.329827634
 10
20.1088325694
 20
-4.3185907633
 10
20.1466137302
 20
-4.3091143729
 10
20.1856252734
 20
-4.3014644813
 10
20.2255962973
 20
-4.2956948926
 10
20.2662532408
 20
-4.2918450973
 10
20.307322244
 20
-4.2899410302
 10
20.3485243827
 20
-4.2899957801
 10
20.389580252
 20
-4.2920091538
 10
20.430210639
 20
-4.2959676374
 10
20.4701383902
 20
-4.3018442931
 10
20.5090919094
 20
-4.3095990868
 10
20.5468071436
 20
-4.3191793898
 10
20.5830281675
 20
-4.3305201832
 10
20.6175090558
 20
-4.3435444806
 10
20.6500155777
 20
-4.3581638205
 10
20.6803269725
 20
-4.3742789271
  0
LINE
  5
419
100
AcDbEntity
  8
0
100
AcDbLine
 62
250
  6
CONTINUOUS
 10
4.8632577517
 20
15.4519387808
 11
4.9740081352
 21
15.4826941664
  0
LINE
  5
41A
100
AcDbEntity
  8
0
100
AcDbLine
 62
7
  6
CONTINUOUS
 10
5.4312926253
 20
15.6657607873
 11
5.4312265044
 21
15.6657426826
  0
LINE
  5
41B
100
AcDbEntity
  8
0
100
AcDbLine
 62
250
  6
CONTINUOUS
 10
4.9740081352
 20
15.4826941664
 11
5.0995847417
 21
15.5167940382
  0
LINE
  5
41C
100
AcDbEntity
  8
0
100
AcDbLine
 62
250
  6
CONTINUOUS
 10
5.0995847417
 20
15.5167940382
 11
5.2383726718
 21
15.5536665566
  0
LINE
  5
41D
100
AcDbEntity
  8
0
100
AcDbLine
 62
250
  6
CONTINUOUS
 10
5.2383726718
 20
15.5536665566
 11
5.3832898452
 21
15.5914068692
  0
LINE
  5
41E
100
AcDbEntity
  8
0
100
AcDbLine
 62
250
  6
CONTINUOUS
 10
5.3832898452
 20
15.5914068692
 11
5.5999178954
 21
15.6464963304
  0
LINE
  5
41F
100
AcDbEntity
  8
0
100
AcDbLine
 62
250
  6
CONTINUOUS
 10
5.5999178954
 20
15.6464963304
 11
5.8149790173
 21
15.6998504457
  0
LWPOLYLINE
  5
420
100
AcDbEntity
  8
0
100
AcDbPolyline
 62
250
  6
CONTINUOUS
 90
15
 70
0
 10
5.4312265044
 20
15.6657426826
 10
5.4131104696
 20
15.6613371316
 10
5.3726088247
 20
15.6553214668
 10
5.3313559063
 20
15.6543501878
 10
5.2897740841
 20
15.6584332375
 10
5.2482890917
 20
15.6675288114
 10
5.207325674
 20
15.6815437856
 10
5.167303241
 20
15.7003346667
 10
5.1286315689
 20
15.7237090615
 10
5.0917066012
 20
15.7514276482
 10
5.0569063963
 20
15.7832066278
 10
5.024587259
 20
15.8187206281
 10
4.9950800911
 20
15.8576060354
 10
4.9686870037
 20
15.8994647183
 10
4.9456782241
 20
15.9438681028
  0
LINE
  5
421
100
AcDbEntity
  8
0
100
AcDbLine
 62
250
  6
CONTINUOUS
 10
5.8149790173
 20
15.6998504457
 11
6.0335759627
 21
15.7528541104
  0
LWPOLYLINE
  5
422
100
AcDbEntity
  8
0
100
AcDbPolyline
 62
250
  6
CONTINUOUS
 90
3
 70
0
 10
6.0335759627
 20
15.7528541104
 10
6.2571445815
 20
15.805924882
 10
6.4945617414
 20
15.8611693308
  0
LWPOLYLINE
  5
423
100
AcDbEntity
  8
0
100
AcDbPolyline
 62
250
  6
CONTINUOUS
 90
31
 70
0
 10
-23.4029165386
 20
9.6477733919
 10
-23.4385346568
 20
9.6420050826
 10
-23.4721389239
 20
9.6347167338
 10
-23.5036604154
 20
9.6259154157
 10
-23.5330647442
 20
9.6156100838
 10
-23.5603414847
 20
9.6038084164
 10
-23.5854578384
 20
9.5905191101
 10
-23.6083936417
 20
9.5757433897
 10
-23.6291245207
 20
9.5595017949
 10
-23.647612639
 20
9.5418409257
 10
-23.6638173853
 20
9.5227852598
 10
-23.6777389504
 20
9.5023558663
 10
-23.6894034834
 20
9.4806081717
 10
-23.6987790324
 20
9.4575834077
 10
-23.7058625503
 20
9.4333024067
 10
-23.710725334
 20
9.4077956226
 10
-23.7133550414
 20
9.3811182305
 10
-23.7137326917
 20
9.353280887
 10
-23.7119172484
 20
9.3242381973
 10
-23.7079125944
 20
9.2940306607
 10
-23.7016799983
 20
9.2626685897
 10
-23.6932064209
 20
9.2300397133
 10
-23.6824905086
 20
9.1961556087
 10
-23.6694881981
 20
9.1610345586
 10
-23.6541110884
 20
9.1245513362
 10
-23.6363453574
 20
9.0867109248
 10
-23.6161465442
 20
9.0475262771
 10
-23.5933679626
 20
9.0068656704
 10
-23.5679334691
 20
8.9646854469
 10
-23.5398441591
 20
8.9210414047
 10
-23.5090621371
 20
8.875945652
  0
LINE
  5
424
100
AcDbEntity
  8
0
100
AcDbLine
 62
250
  6
CONTINUOUS
 10
-23.365280252
 20
9.6520195745
 11
-23.4029165386
 21
9.6477733919
  0
LWPOLYLINE
  5
425
100
AcDbEntity
  8
0
100
AcDbPolyline
 62
250
  6
CONTINUOUS
 90
5
 70
0
 10
27.136544361
 20
-9.1925287812
 10
27.2912529416
 20
-9.3423494122
 10
27.4456753538
 20
-9.4938237023
 10
27.5984681924
 20
-9.6453690143
 10
27.7484239674
 20
-9.7958262214
  0
LWPOLYLINE
  5
426
100
AcDbEntity
  8
0
100
AcDbPolyline
 62
250
  6
CONTINUOUS
 90
6
 70
0
 10
5.5863786514
 20
16.4462899782
 10
5.5706399988
 20
16.4742980698
 10
5.5582285108
 20
16.5058738028
 10
5.5492712636
 20
16.5406938868
 10
5.5438599666
 20
16.5784018132
 10
5.5420500238
 20
16.6186115064
  0
LWPOLYLINE
  5
427
100
AcDbEntity
  8
0
100
AcDbPolyline
 62
250
  6
CONTINUOUS
 90
13
 70
0
 10
25.5464441474
 20
-22.0048817559
 10
25.523148042
 20
-21.9605592829
 10
25.4964705112
 20
-21.9187807754
 10
25.4666847136
 20
-21.8799739796
 10
25.4340956394
 20
-21.8445362146
 10
25.3990369607
 20
-21.812830299
 10
25.3618676135
 20
-21.7851808403
 10
25.322968165
 20
-21.7618709204
 10
25.2827368992
 20
-21.7431391859
 10
25.2415857102
 20
-21.729177408
 10
25.1999359243
 20
-21.7201285296
 10
25.1582139785
 20
-21.7160851899
 10
25.1196291126
 20
-21.7170212845
  0
LINE
  5
428
100
AcDbEntity
  8
0
100
AcDbLine
 62
250
  6
CONTINUOUS
 10
6.9757286998
 20
15.982543056
 11
6.9685199868
 21
16.0024076296
  0
LINE
  5
429
100
AcDbEntity
  8
0
100
AcDbLine
 62
250
  6
CONTINUOUS
 10
6.9685199868
 20
16.0024076296
 11
6.9527685118
 21
16.0467196277
  0
LINE
  5
42A
100
AcDbEntity
  8
0
100
AcDbLine
 62
250
  6
CONTINUOUS
 10
6.9527685118
 20
16.0467196277
 11
6.9357068431
 21
16.095819957
  0
LINE
  5
42B
100
AcDbEntity
  8
0
100
AcDbLine
 62
250
  6
CONTINUOUS
 10
6.9357068431
 20
16.095819957
 11
6.9179358297
 21
16.147979472
  0
LINE
  5
42C
100
AcDbEntity
  8
0
100
AcDbLine
 62
250
  6
CONTINUOUS
 10
6.9179358297
 20
16.147979472
 11
6.9000813042
 21
16.2013612953
  0
LINE
  5
42D
100
AcDbEntity
  8
0
100
AcDbLine
 62
250
  6
CONTINUOUS
 10
6.9000813042
 20
16.2013612953
 11
6.8827720385
 21
16.2540855064
  0
LINE
  5
42E
100
AcDbEntity
  8
0
100
AcDbLine
 62
250
  6
CONTINUOUS
 10
6.8827720385
 20
16.2540855064
 11
6.8666176036
 21
16.3042953455
  0
LWPOLYLINE
  5
42F
100
AcDbEntity
  8
0
100
AcDbPolyline
 62
250
  6
CONTINUOUS
 90
3
 70
0
 10
6.8666176036
 20
16.3042953455
 10
6.8521869017
 20
16.3502225983
 10
6.8520250201
 20
16.3507492474
  0
LWPOLYLINE
  5
430
100
AcDbEntity
  8
0
100
AcDbPolyline
 62
7
  6
CONTINUOUS
 90
9
 70
0
 10
19.0360456285
 20
-21.0540653629
 10
19.0533789006
 20
-21.1159376827
 10
19.0744665268
 20
-21.177164915
 10
19.0992552299
 20
-21.2376672671
 10
19.1272757073
 20
-21.2964767754
 10
19.1584019603
 20
-21.3535076236
 10
19.1925799028
 20
-21.4087361678
 10
19.2292406493
 20
-21.4613304945
 10
19.2680516946
 20
-21.5110081412
  0
LINE
  5
431
100
AcDbEntity
  8
0
100
AcDbLine
 62
7
  6
CONTINUOUS
 10
22.2813319435
 20
-37.9234285511
 11
21.7563334427
 21
-35.9465369291
  0
LINE
  5
432
100
AcDbEntity
  8
0
100
AcDbLine
 62
7
  6
CONTINUOUS
 10
22.460930702
 20
-37.6784415174
 11
21.9684654771
 21
-35.8240545511
  0
LWPOLYLINE
  5
433
100
AcDbEntity
  8
0
100
AcDbPolyline
 62
250
  6
CONTINUOUS
 90
4
 70
0
 10
7.5448586083
 20
24.8595458816
 10
7.4908981487
 20
25.0689574786
 10
7.436063539
 20
25.2769868946
 10
7.3807546257
 20
25.4820118736
  0
LINE
  5
434
100
AcDbEntity
  8
0
100
AcDbLine
 62
7
  6
CONTINUOUS
 10
21.9239276494
 20
-37.2298963062
 11
22.0672673863
 21
-37.7998303586
  0
LINE
  5
435
100
AcDbEntity
  8
0
100
AcDbLine
 62
250
  6
CONTINUOUS
 10
7.8005590995
 20
23.8338324289
 11
7.6992010138
 21
24.2375955116
  0
LINE
  5
436
100
AcDbEntity
  8
0
100
AcDbLine
 62
7
  6
CONTINUOUS
 10
21.6372736314
 20
-36.120570723
 11
21.8532487911
 21
-36.9886143734
  0
LINE
  5
437
100
AcDbEntity
  8
0
100
AcDbLine
 62
250
  6
CONTINUOUS
 10
7.6992010138
 20
24.2375955116
 11
7.5448586083
 21
24.8595458816
  0
LWPOLYLINE
  5
438
100
AcDbEntity
  8
0
100
AcDbPolyline
 62
250
  6
CONTINUOUS
 90
10
 70
0
 10
9.0365423487
 20
20.1368861041
 10
8.9984298339
 20
20.3037741128
 10
8.9551795766
 20
20.4716922922
 10
8.9068650356
 20
20.6403554352
 10
8.8535682714
 20
20.809477069
 10
8.7953798068
 20
20.9787699421
 10
8.7323984732
 20
21.1479465112
 10
8.6647312429
 20
21.316719431
 10
8.5924930468
 20
21.4848020421
 10
8.4546033025
 20
21.7852219978
  0
LWPOLYLINE
  5
439
100
AcDbEntity
  8
0
100
AcDbPolyline
 62
250
  6
CONTINUOUS
 90
10
 70
0
 10
9.7114634726
 20
20.2445228885
 10
9.6691835915
 20
20.4297773587
 10
9.6212666502
 20
20.6158724513
 10
9.5677126488
 20
20.802808166
 10
9.5083387615
 20
20.9911186659
 10
9.4433278139
 20
21.180269788
 10
9.3732282833
 20
21.3686590441
 10
9.2982229952
 20
21.5557522716
 10
9.2181291239
 20
21.7420836331
 10
9.1329466696
 20
21.9276531288
  0
LWPOLYLINE
  5
43A
100
AcDbEntity
  8
0
100
AcDbPolyline
 62
250
  6
CONTINUOUS
 90
9
 70
0
 10
13.8436088531
 20
12.7010676388
 10
13.843100924
 20
12.7088706773
 10
13.8426527489
 20
12.7166422829
 10
13.8422643278
 20
12.7243824555
 10
13.8419356632
 20
12.7320913759
 10
13.8416667525
 20
12.7397688634
 10
13.841457588
 20
12.7474143758
 10
13.8413081671
 20
12.7550277324
 10
13.8412184923
 20
12.7626091139
  0
LWPOLYLINE
  5
43B
100
AcDbEntity
  8
0
100
AcDbPolyline
 62
250
  6
CONTINUOUS
 90
34
 70
0
 10
14.5293072576
 20
15.074035612
 10
14.5278418216
 20
15.1283727131
 10
14.5245693243
 20
15.1859429701
 10
14.5192921817
 20
15.2467898744
 10
14.5118536016
 20
15.3107348025
 10
14.5020181837
 20
15.377987407
 10
14.4894068537
 20
15.4491725961
 10
14.4737140374
 20
15.5244795776
 10
14.4546965532
 20
15.6036658228
 10
14.432001188
 20
15.6866884197
 10
14.4052945687
 20
15.7736310608
 10
14.3743679519
 20
15.864120119
 10
14.3391159537
 20
15.9573548704
 10
14.2990766109
 20
16.053690516
 10
14.2543424424
 20
16.1521695596
 10
14.2059698899
 20
16.2499936107
 10
14.1540499535
 20
16.3468379153
 10
14.0987670658
 20
16.4423550835
 10
14.0417955998
 20
16.5338831849
 10
13.9838302767
 20
16.6207232775
 10
13.9248896233
 20
16.7033058691
 10
13.8658682808
 20
16.7809061413
 10
13.8072535258
 20
16.8533411882
 10
13.7491849829
 20
16.9208762756
 10
13.6920414605
 20
16.9835792684
 10
13.6365267797
 20
17.0411121852
 10
13.5823862902
 20
17.0941218045
 10
13.5284744439
 20
17.1440355222
 10
13.4754000081
 20
17.1904818742
 10
13.4227882749
 20
17.2339220924
 10
13.3679108761
 20
17.2765410284
 10
13.3098923897
 20
17.3186852939
 10
13.2497653317
 20
17.3592491304
 10
13.1876455973
 20
17.3978617717
  0
LINE
  5
43C
100
AcDbEntity
  8
0
100
AcDbLine
 62
250
  6
CONTINUOUS
 10
14.5293072576
 20
12.7597545628
 11
14.5293072576
 21
15.074035612
  0
LINE
  5
43D
100
AcDbEntity
  8
0
100
AcDbLine
 62
250
  6
CONTINUOUS
 10
14.5682538276
 20
15.096522657
 11
14.5682538276
 21
12.7837406404
  0
LINE
  5
43E
100
AcDbEntity
  8
0
100
AcDbLine
 62
7
  6
CONTINUOUS
 10
14.8514505737
 20
-32.6494325684
 11
14.8514505737
 21
-33.6335081664
  0
LINE
  5
43F
100
AcDbEntity
  8
0
100
AcDbLine
 62
7
  6
CONTINUOUS
 10
15.0473325871
 20
-33.5461351401
 11
15.0473325871
 21
-32.9866799088
  0
LINE
  5
440
100
AcDbEntity
  8
0
100
AcDbLine
 62
7
  6
CONTINUOUS
 10
15.0473325871
 20
-32.7862070629
 11
15.0473325871
 21
-32.5727265956
  0
LINE
  5
441
100
AcDbEntity
  8
0
100
AcDbLine
 62
250
  6
CONTINUOUS
 10
15.2563725213
 20
15.0861186994
 11
15.2563725213
 21
12.7733366828
  0
LINE
  5
442
100
AcDbEntity
  8
0
100
AcDbLine
 62
7
  6
CONTINUOUS
 10
15.2594646215
 20
-33.4236527621
 11
15.2594646215
 21
-33.1091622868
  0
LINE
  5
443
100
AcDbEntity
  8
0
100
AcDbLine
 62
7
  6
CONTINUOUS
 10
15.2594646215
 20
-32.6637246849
 11
15.2594646215
 21
-32.4896572327
  0
LINE
  5
444
100
AcDbEntity
  8
0
100
AcDbLine
 62
7
  6
CONTINUOUS
 10
15.8407679139
 20
-33.4447995224
 11
15.8407679139
 21
-33.2443266765
  0
LINE
  5
445
100
AcDbEntity
  8
0
100
AcDbLine
 62
7
  6
CONTINUOUS
 10
15.9073908077
 20
-32.769903602
 11
15.9073908077
 21
-32.5694307561
  0
LINE
  5
446
100
AcDbEntity
  8
0
100
AcDbLine
 62
7
  6
CONTINUOUS
 10
15.9215407215
 20
-34.2513648064
 11
15.9215407215
 21
-34.0508919605
  0
LINE
  5
447
100
AcDbEntity
  8
0
100
AcDbLine
 62
7
  6
CONTINUOUS
 10
16.0528999483
 20
-33.3223171444
 11
16.0528999483
 21
-33.1218442985
  0
LINE
  5
448
100
AcDbEntity
  8
0
100
AcDbLine
 62
7
  6
CONTINUOUS
 10
16.1195228421
 20
-32.647421224
 11
16.1195228421
 21
-32.4469483781
  0
LINE
  5
449
100
AcDbEntity
  8
0
100
AcDbLine
 62
7
  6
CONTINUOUS
 10
16.1336727559
 20
-34.1288824284
 11
16.1336727559
 21
-33.9284095825
  0
LINE
  5
44A
100
AcDbEntity
  8
0
100
AcDbLine
 62
7
  6
CONTINUOUS
 10
16.7695236796
 20
-33.0672154713
 11
16.7695236796
 21
-34.7409795387
  0
LINE
  5
44B
100
AcDbEntity
  8
0
100
AcDbLine
 62
250
  6
CONTINUOUS
 10
16.7757032216
 20
-19.2240996028
 11
16.7757032216
 21
-6.7045260613
  0
LINE
  5
44C
100
AcDbEntity
  8
0
100
AcDbLine
 62
7
  6
CONTINUOUS
 10
16.9653470032
 20
-34.8540454715
 11
16.9653470032
 21
-33.180281404
  0
LINE
  5
44D
100
AcDbEntity
  8
0
100
AcDbLine
 62
250
  6
CONTINUOUS
 10
16.9700698989
 20
-24.3266227218
 11
16.9700698989
 21
-19.8380265775
  0
LINE
  5
44E
100
AcDbEntity
  8
0
100
AcDbLine
 62
250
  6
CONTINUOUS
 10
17.0053595743
 20
-24.3085957224
 11
17.0053595743
 21
-19.819999578
  0
LINE
  5
44F
100
AcDbEntity
  8
0
100
AcDbLine
 62
7
  6
CONTINUOUS
 10
17.1774790375
 20
-34.7315630935
 11
17.1774790375
 21
-33.057799026
  0
LINE
  5
450
100
AcDbEntity
  8
0
100
AcDbLine
 62
7
  6
CONTINUOUS
 10
17.3004420783
 20
-33.3737611007
 11
17.3004420783
 21
-35.0475251681
  0
LWPOLYLINE
  5
451
100
AcDbEntity
  8
0
100
AcDbPolyline
 62
250
  6
CONTINUOUS
 90
10
 70
0
 10
14.5279122789
 20
12.7236047011
 10
14.5279408402
 20
12.7276796807
 10
14.5280009693
 20
12.7317406325
 10
14.5280926972
 20
12.7357872497
 10
14.5282160917
 20
12.7398190139
 10
14.5283711367
 20
12.7438358366
 10
14.5285577494
 20
12.7478380494
 10
14.5287759326
 20
12.7518255527
 10
14.529025758
 20
12.7557978261
 10
14.5293072576
 20
12.7597545628
  0
LWPOLYLINE
  5
452
100
AcDbEntity
  8
0
100
AcDbPolyline
 62
250
  6
CONTINUOUS
 90
19
 70
0
 10
15.2563725213
 20
12.7733366828
 10
15.2551723956
 20
12.7390357675
 10
15.2515801661
 20
12.7035818437
 10
15.2456202202
 20
12.667215606
 10
15.2373330196
 20
12.6301839424
 10
15.2267748255
 20
12.5927382584
 10
15.2140173168
 20
12.5551327706
 10
15.1991471036
 20
12.5176227801
 10
15.1822651386
 20
12.48046294
 10
15.1634860326
 20
12.443905526
 10
15.1429372756
 20
12.408198724
 10
15.1207583719
 20
12.3735849453
 10
15.0970998926
 20
12.3402991805
 10
15.0721224536
 20
12.3085674046
 10
15.0459956252
 20
12.2786050425
 10
15.0188967807
 20
12.250615507
 10
14.9910098926
 20
12.2247888171
 10
14.9625242831
 20
12.2013003086
 10
14.9336333391
 20
12.1803094434
  0
LINE
  5
453
100
AcDbEntity
  8
0
100
AcDbLine
 62
250
  6
CONTINUOUS
 10
-1.354167431
 20
-28.5342729968
 11
-1.3344222687
 21
-28.5072621304
  0
LWPOLYLINE
  5
454
100
AcDbEntity
  8
0
100
AcDbPolyline
 62
250
  6
CONTINUOUS
 90
16
 70
0
 10
17.7374346444
 20
-6.8124375313
 10
17.7072480198
 20
-6.8397163148
 10
17.6778045895
 20
-6.869306492
 10
17.6493301047
 20
-6.9009812322
 10
17.6220428896
 20
-6.9344977211
 10
17.5961521785
 20
-6.9695990091
 10
17.5718565087
 20
-7.006015979
 10
17.5493421995
 20
-7.0434694017
 10
17.5287818781
 20
-7.0816721553
 10
17.5103331781
 20
-7.1203314167
 10
17.4941375856
 20
-7.1591508043
 10
17.4803193399
 20
-7.1978326436
 10
17.4689844427
 20
-7.2360803296
 10
17.4602198563
 20
-7.2736005783
 10
17.4540928366
 20
-7.3101056762
 10
17.4506504171
 20
-7.3453156834
  0
LWPOLYLINE
  5
455
100
AcDbEntity
  8
0
100
AcDbPolyline
 62
250
  6
CONTINUOUS
 90
10
 70
0
 10
16.7757032216
 20
-6.7045260613
 10
17.1042378024
 20
-6.4500040194
 10
17.4404090293
 20
-6.1940277135
 10
17.7842169025
 20
-5.9365971436
 10
18.1357374935
 20
-5.6778682426
 10
18.4948947308
 20
-5.4176850774
 10
18.8614603992
 20
-5.1555798498
 10
19.2353584273
 20
-4.8913966269
 10
19.6166648866
 20
-4.6252913414
 10
20.0053797771
 20
-4.3572639935
  0
LWPOLYLINE
  5
456
100
AcDbEntity
  8
0
100
AcDbPolyline
 62
250
  6
CONTINUOUS
 90
31
 70
0
 10
20.6803269725
 20
-4.3742789271
 10
20.7984871251
 20
-4.2836848645
 10
20.9228442537
 20
-4.2045431404
 10
21.0533983586
 20
-4.1368537548
 10
21.1905297762
 20
-4.0804934954
 10
21.3338581699
 20
-4.0355855745
 10
21.4822425302
 20
-4.002499629
 10
21.6357186124
 20
-3.9813354271
 10
21.7942506611
 20
-3.9719932006
 10
21.9565904005
 20
-3.9745432816
 10
22.1227660149
 20
-3.9890807406
 10
22.29274932
 20
-4.015510507
 10
22.4652074877
 20
-4.0536177011
 10
22.6401578768
 20
-4.1034937384
 10
22.8175831284
 20
-4.1650472033
 10
22.9960983378
 20
-4.2377889693
 10
23.1757070325
 20
-4.3218027388
 10
23.3564056849
 20
-4.4170048093
 10
23.536798808
 20
-4.522654947
 10
23.7168949155
 20
-4.6388424357
 10
23.8966854936
 20
-4.7654779914
 10
24.0747495136
 20
-4.9015535281
 10
24.2510466766
 20
-5.0471164291
 10
24.4256172816
 20
-5.202119311
 10
24.5971611966
 20
-5.3654119374
 10
24.7657568883
 20
-5.5371884311
 10
24.9313258901
 20
-5.7172546693
 10
25.0923326701
 20
-5.9038780462
 10
25.2482653843
 20
-6.0964810265
 10
25.3996358767
 20
-6.2956411455
 10
25.5464441474
 20
-6.5013584032
  0
LWPOLYLINE
  5
457
100
AcDbEntity
  8
0
100
AcDbPolyline
 62
7
  6
CONTINUOUS
 90
10
 70
0
 10
18.5422046737
 20
-6.3558867212
 10
18.4831591287
 20
-6.3969726351
 10
18.4255163228
 20
-6.4406290955
 10
18.3693449349
 20
-6.4868384269
 10
18.3147418813
 20
-6.5355521874
 10
18.2617403617
 20
-6.5867720534
 10
18.2103181301
 20
-6.6405645984
 10
18.1605163364
 20
-6.6969470264
 10
18.1124311652
 20
-6.7558724527
 10
18.0661277441
 20
-6.8173210702
  0
LINE
  5
458
100
AcDbEntity
  8
0
100
AcDbLine
 62
7
  6
CONTINUOUS
 10
20.7536261367
 20
-4.8823556352
 11
18.5422046736
 21
-6.3558867212
  0
LINE
  5
459
100
AcDbEntity
  8
0
100
AcDbLine
 62
250
  6
CONTINUOUS
 10
18.0556169868
 20
-6.8162099151
 11
18.0781848531
 21
-6.8013202508
  0
LWPOLYLINE
  5
45A
100
AcDbEntity
  8
0
100
AcDbPolyline
 62
250
  6
CONTINUOUS
 90
32
 70
0
 10
20.7536261367
 20
-4.8823556352
 10
20.8159943855
 20
-4.8429722157
 10
20.9219543693
 20
-4.7852971634
 10
21.0325778265
 20
-4.7361214604
 10
21.1476262847
 20
-4.6955511234
 10
21.2668516516
 20
-4.6636736276
 10
21.3899968705
 20
-4.6405576699
 10
21.5167965631
 20
-4.6262530337
 10
21.6469774942
 20
-4.6207905284
 10
21.7802590346
 20
-4.6241819196
 10
21.9163539369
 20
-4.6364198883
 10
22.0549690464
 20
-4.6574780846
 10
22.1958056827
 20
-4.6873111686
 10
22.3385602077
 20
-4.7258548562
 10
22.4829248637
 20
-4.7730260744
 10
22.6285884674
 20
-4.8287231577
 10
22.7752370706
 20
-4.8928260765
 10
22.9225545705
 20
-4.9651966704
 10
23.0702234183
 20
-5.0456789535
 10
23.2179253389
 20
-5.1340994717
 10
23.3653420035
 20
-5.2302676762
 10
23.5121557544
 20
-5.3339763671
 10
23.6580500472
 20
-5.4450019649
 10
23.8027101737
 20
-5.5631049757
 10
23.9458242888
 20
-5.6880307794
 10
24.0870839638
 20
-5.8195101208
 10
24.2261846187
 20
-5.957259477
 10
24.3628263402
 20
-6.1009817972
 10
24.496714726
 20
-6.2503673716
 10
24.627561396
 20
-6.4050944175
 10
24.7550843848
 20
-6.564829511
 10
24.8790087632
 20
-6.7292282785
  0
LWPOLYLINE
  5
45B
100
AcDbEntity
  8
0
100
AcDbPolyline
 62
250
  6
CONTINUOUS
 90
45
 70
0
 10
18.542204674
 20
-6.355886721
 10
18.6625901179
 20
-6.2838525688
 10
18.7855429581
 20
-6.2254202055
 10
18.9144035583
 20
-6.1783026664
 10
19.0487913223
 20
-6.1426391205
 10
19.1883093119
 20
-6.1185349073
 10
19.3325454495
 20
-6.1060612174
 10
19.481073737
 20
-6.1052548884
 10
19.6334554918
 20
-6.1161182996
 10
19.7892406469
 20
-6.1386193629
 10
19.9479690909
 20
-6.1726916188
 10
20.1091720277
 20
-6.2182344357
 10
20.2723733421
 20
-6.2751133025
 10
20.4370910153
 20
-6.3431602266
 10
20.6028385612
 20
-6.4221742356
 10
20.7691264491
 20
-6.5119219668
 10
20.9354635369
 20
-6.6121383473
 10
21.1013585318
 20
-6.7225273792
 10
21.2663214547
 20
-6.8427630224
 10
21.4298650894
 20
-6.9724901613
 10
21.591506408
 20
-7.1113256454
 10
21.7507679998
 20
-7.2588594215
 10
21.9071794826
 20
-7.4146557455
 10
22.0602788931
 20
-7.5782544714
 10
22.2096140533
 20
-7.7491724122
 10
22.3547438945
 20
-7.926904754
 10
22.495239762
 20
-8.1109265466
 10
22.6306866934
 20
-8.3006942681
 10
22.7606846514
 20
-8.495647443
 10
22.8848496931
 20
-8.695210285
 10
23.0028150945
 20
-8.8987933804
 10
23.1142324433
 20
-9.1057954437
 10
23.2187726742
 20
-9.3156051065
 10
23.3161270272
 20
-9.5276026993
 10
23.4060079594
 20
-9.7411620769
 10
23.4881500029
 20
-9.9556524845
 10
23.5623105516
 20
-10.1704404302
 10
23.6282705655
 20
-10.3848915236
 10
23.6858352209
 20
-10.598372346
 10
23.7348344997
 20
-10.8102523674
 10
23.7751236873
 20
-11.0199058074
 10
23.8065837915
 20
-11.2267134506
 10
23.829121897
 20
-11.4300644878
 10
23.8426714401
 20
-11.6293583195
 10
23.8471924047
 20
-11.8240063295
  0
LWPOLYLINE
  5
45C
100
AcDbEntity
  8
0
100
AcDbPolyline
 62
250
  6
CONTINUOUS
 90
10
 70
0
 10
4.9456782169
 20
15.9438681183
 10
4.8987937627
 20
15.9319209041
 10
4.8512350711
 20
15.9215536779
 10
4.8030021421
 20
15.9127664398
 10
4.7540680518
 20
15.9055559668
 10
4.7044597241
 20
15.8999254819
 10
4.654257931
 20
15.8958846532
 10
4.6034895965
 20
15.8934367037
 10
4.5521277966
 20
15.8925784104
 10
4.5001725313
 20
15.8933097735
  0
LWPOLYLINE
  5
45D
100
AcDbEntity
  8
0
100
AcDbPolyline
 62
250
  6
CONTINUOUS
 90
25
 70
0
 10
-23.5090627424
 20
8.8759465749
 10
-23.6677187649
 20
8.8360359134
 10
-23.8296864694
 20
8.8008381841
 10
-23.9945462291
 20
8.7704445773
 10
-24.1618709234
 20
8.744933837
 10
-24.3312270477
 20
8.7243720555
 10
-24.5021758369
 20
8.7088125027
 10
-24.6742743975
 20
8.6982954898
 10
-24.8470768547
 20
8.6928482648
 10
-25.020135511
 20
8.6924849405
 10
-25.1930020054
 20
8.6972064581
 10
-25.3652284748
 20
8.7070005851
 10
-25.5363687141
 20
8.7218419468
 10
-25.7059793324
 20
8.7416920921
 10
-25.8736209019
 20
8.7664995933
 10
-26.0388590961
 20
8.7962001789
 10
-26.2012658153
 20
8.8307169005
 10
-26.3604202956
 20
8.8699603321
 10
-26.5159101988
 20
8.9138288015
 10
-26.6673326842
 20
8.9622086559
 10
-26.8142954425
 20
9.014974551
 10
-26.9564177135
 20
9.0719897751
 10
-27.0933312845
 20
9.1331066103
 10
-27.2246814432
 20
9.1981667159
 10
-27.3501278884
 20
9.2670015332
  0
LWPOLYLINE
  5
45E
100
AcDbEntity
  8
0
100
AcDbPolyline
 62
250
  6
CONTINUOUS
 90
13
 70
0
 10
5.6222390134
 20
16.3490620717
 10
5.5752314649
 20
16.3382611295
 10
5.5265741445
 20
16.3302583068
 10
5.4767652341
 20
16.3251355415
 10
5.4263147064
 20
16.3229452832
 10
5.3757391032
 20
16.3237099571
 10
5.3255562471
 20
16.3274217341
 10
5.2762799394
 20
16.3340426108
 10
5.2284146995
 20
16.3435047988
 10
5.1824505997
 20
16.3557114187
 10
5.1388582472
 20
16.3705374921
 10
5.0980839659
 20
16.387831221
 10
5.0605452267
 20
16.407415542
  0
LINE
  5
45F
100
AcDbEntity
  8
0
100
AcDbLine
 62
250
  6
CONTINUOUS
 10
6.7740846694
 20
15.9222921407
 11
6.8787810663
 21
15.9462299277
  0
LWPOLYLINE
  5
460
100
AcDbEntity
  8
0
100
AcDbPolyline
 62
250
  6
CONTINUOUS
 90
3
 70
0
 10
6.4945617414
 20
15.8611693308
 10
6.5813511688
 20
15.8804719706
 10
6.7740846694
 20
15.9222921407
  0
LINE
  5
461
100
AcDbEntity
  8
0
100
AcDbLine
 62
7
  6
CONTINUOUS
 10
7.1945957088
 20
16.5578198843
 11
7.1944124993
 21
16.5577852716
  0
LWPOLYLINE
  5
462
100
AcDbEntity
  8
0
100
AcDbPolyline
 62
250
  6
CONTINUOUS
 90
16
 70
0
 10
4.5001725313
 20
15.8933097735
 10
4.4547601797
 20
15.8913573182
 10
4.4124690918
 20
15.8839627133
 10
4.3732992675
 20
15.8711259587
 10
4.3370210384
 20
15.85247131
 10
4.3038640729
 20
15.8283745116
 10
4.274517376
 20
15.799962797
 10
4.249159243
 20
15.766786883
 10
4.2276113785
 20
15.7292960528
 10
4.2100279014
 20
15.6899653886
 10
4.1967919299
 20
15.6489020689
 10
4.1875203457
 20
15.6059989152
 10
4.1812179123
 20
15.5634094754
 10
4.1775528843
 20
15.5218515985
 10
4.1768570072
 20
15.4806074354
 10
4.1791302809
 20
15.4396769861
  0
LWPOLYLINE
  5
463
100
AcDbEntity
  8
0
100
AcDbPolyline
 62
250
  6
CONTINUOUS
 90
15
 70
0
 10
7.3995079336
 20
16.5270271052
 10
7.4612991954
 20
16.5283218892
 10
7.5239612359
 20
16.534492168
 10
7.5871145332
 20
16.5455005193
 10
7.6503766657
 20
16.5612802526
 10
7.7133646214
 20
16.5817358544
 10
7.7756970046
 20
16.6067434932
 10
7.8369962623
 20
16.6361516884
 10
7.8968910778
 20
16.6697822858
 10
7.9550187047
 20
16.7074315782
 10
8.0110271611
 20
16.7488715618
 10
8.064577275
 20
16.7938512616
 10
8.1153447613
 20
16.8420982681
 10
8.1630221857
 20
16.8933203864
 10
8.2073208308
 20
16.9472074072
  0
LWPOLYLINE
  5
464
100
AcDbEntity
  8
0
100
AcDbPolyline
 62
7
  6
CONTINUOUS
 90
10
 70
0
 10
4.839095423
 20
15.5976611681
 10
4.9087024254
 20
15.5967193869
 10
4.9774142105
 20
15.5979756574
 10
5.0452019473
 20
15.6014001772
 10
5.1120257468
 20
15.6069608768
 10
5.177869591
 20
15.6146261533
 10
5.2427382914
 20
15.6243682913
 10
5.3066124568
 20
15.6361579744
 10
5.3694515027
 20
15.6499608525
 10
5.4312265044
 20
15.6657426826
  0
LWPOLYLINE
  5
465
100
AcDbEntity
  8
0
100
AcDbPolyline
 62
250
  6
CONTINUOUS
 90
13
 70
0
 10
4.839095423
 20
15.5976611681
 10
4.8336757539
 20
15.5978695639
 10
4.7949571465
 20
15.6022761467
 10
4.7568398736
 20
15.6117523251
 10
4.719714202
 20
15.6262012142
 10
4.683960264
 20
15.6454750122
 10
4.6499440685
 20
15.6693765862
 10
4.6180139504
 20
15.697661386
 10
4.5884969305
 20
15.7300399467
 10
4.561695283
 20
15.7661809437
 10
4.5378835425
 20
15.8057144824
 10
4.5173056753
 20
15.8482358602
 10
4.5001725321
 20
15.8933097711
  0
LINE
  5
466
100
AcDbEntity
  8
0
100
AcDbLine
 62
250
  6
CONTINUOUS
 10
7.3389616695
 20
16.5306156906
 11
7.3995079336
 21
16.5270271052
  0
LWPOLYLINE
  5
467
100
AcDbEntity
  8
0
100
AcDbPolyline
 62
250
  6
CONTINUOUS
 90
13
 70
0
 10
7.1467797422
 20
16.0966922104
 10
7.216792325
 20
16.0878796109
 10
7.2894067587
 20
16.0764191284
 10
7.3640476988
 20
16.0624015503
 10
7.4401237505
 20
16.045937969
 10
7.5170321399
 20
16.0271588091
 10
7.5941634846
 20
16.0062127725
 10
7.6709066408
 20
15.9832657844
 10
7.7466535477
 20
15.9584996935
 10
7.820804026
 20
15.932110722
 10
7.8927705454
 20
15.9043079537
 10
7.96198288
 20
15.8753116797
 10
8.0278926222
 20
15.8453516454
  0
LWPOLYLINE
  5
468
100
AcDbEntity
  8
0
100
AcDbPolyline
 62
250
  6
CONTINUOUS
 90
16
 70
0
 10
13.8436088531
 20
12.7010676388
 10
13.8808475519
 20
12.685023218
 10
13.9212950155
 20
12.6712127497
 10
13.9645408127
 20
12.6597762814
 10
14.0101461233
 20
12.6508297733
 10
14.0576482464
 20
12.6444639123
 10
14.1065653022
 20
12.6407432037
 10
14.1564010113
 20
12.6397053292
 10
14.2066498183
 20
12.6413607522
 10
14.2568020815
 20
12.645692627
 10
14.3063490569
 20
12.6526569626
 10
14.3547881605
 20
12.6621830666
 10
14.4016281525
 20
12.6741742896
 10
14.4463939518
 20
12.6885089776
 10
14.4886314632
 20
12.70504169
 10
14.5279122789
 20
12.7236047004
  0
LWPOLYLINE
  5
469
100
AcDbEntity
  8
0
100
AcDbPolyline
 62
250
  6
CONTINUOUS
 90
16
 70
0
 10
20.6803269725
 20
6.4694962533
 10
20.6436888476
 20
6.4886554619
 10
20.6039533126
 20
6.5056322126
 10
20.5615087397
 20
6.5202605857
 10
20.5167699786
 20
6.5323976142
 10
20.4701742964
 20
6.5419246822
 10
20.4221771031
 20
6.5487486835
 10
20.3732475109
 20
6.5528029293
 10
20.3238637403
 20
6.5540478021
 10
20.2745084411
 20
6.5524711412
 10
20.2256639931
 20
6.548088362
 10
20.1778077798
 20
6.5409423054
 10
20.1314075144
 20
6.5311028165
 10
20.086916688
 20
6.5186660644
 10
20.044770136
 20
6.5037536043
 10
20.0053797771
 20
6.486511187
  0
LWPOLYLINE
  5
46A
100
AcDbEntity
  8
0
100
AcDbPolyline
 62
250
  6
CONTINUOUS
 90
19
 70
0
 10
5.4842278562
 20
16.6519973013
 10
5.4474531121
 20
16.6712466961
 10
5.4116091593
 20
16.6866145034
 10
5.3766959979
 20
16.6981007232
 10
5.342538364
 20
16.7057008632
 10
5.3093115215
 20
16.7094194157
 10
5.2775412621
 20
16.7092698576
 10
5.2472042518
 20
16.7052120066
 10
5.2183238246
 20
16.6972860451
 10
5.1914957738
 20
16.6856259976
 10
5.1668185351
 20
16.6703751669
 10
5.1441936727
 20
16.6513902501
 10
5.1239216727
 20
16.6283753627
 10
5.1057973462
 20
16.6011448149
 10
5.090025882
 20
16.5698842964
 10
5.0775233328
 20
16.5348549914
 10
5.0685950492
 20
16.4961439614
 10
5.0629356805
 20
16.4536641449
 10
5.0605452267
 20
16.407415542
  0
LWPOLYLINE
  5
46B
100
AcDbEntity
  8
0
100
AcDbPolyline
 62
7
  6
CONTINUOUS
 90
14
 70
0
 10
5.6457109434
 20
16.3896740812
 10
5.6697735792
 20
16.376292199
 10
5.7266568608
 20
16.3485376578
 10
5.7839487329
 20
16.3258287533
 10
5.8412737959
 20
16.3081534871
 10
5.8984624339
 20
16.2954123487
 10
5.9554630529
 20
16.2874822802
 10
6.0119024186
 20
16.2843039408
 10
6.0674993495
 20
16.2857793807
 10
6.1222100497
 20
16.2918191331
 10
6.1756296716
 20
16.3022988702
 10
6.2274425516
 20
16.3170651714
 10
6.2776593275
 20
16.3360723168
 10
6.3035759016
 20
16.3478507673
  0
LINE
  5
46C
100
AcDbEntity
  8
0
100
AcDbLine
 62
250
  6
CONTINUOUS
 10
4.5249418482
 20
14.4606369228
 11
-6.3176761875
 21
20.7210286867
  0
LINE
  5
46D
100
AcDbEntity
  8
0
100
AcDbLine
 62
250
  6
CONTINUOUS
 10
9.2042830835
 20
11.9832919614
 11
5.3169195605
 21
14.2278069395
  0
LINE
  5
46E
100
AcDbEntity
  8
0
100
AcDbLine
 62
250
  6
CONTINUOUS
 10
9.2375387549
 20
12.0048419591
 11
5.3501752318
 21
14.2493569372
  0
LINE
  5
46F
100
AcDbEntity
  8
0
100
AcDbLine
 62
250
  6
CONTINUOUS
 10
4.1791302809
 20
15.4396769861
 11
-5.4547148751
 21
21.0021384387
  0
LINE
  5
470
100
AcDbEntity
  8
0
100
AcDbLine
 62
7
  6
CONTINUOUS
 10
5.6457109434
 20
16.3896740812
 11
5.5877691666
 21
16.4231288708
  0
LINE
  5
471
100
AcDbEntity
  8
0
100
AcDbLine
 62
250
  6
CONTINUOUS
 10
5.5420500238
 20
16.6186115064
 11
5.4842278562
 21
16.6519973013
  0
LINE
  5
472
100
AcDbEntity
  8
0
100
AcDbLine
 62
250
  6
CONTINUOUS
 10
7.1729888285
 20
15.7734407781
 11
6.9062688156
 21
15.9272280328
  0
LWPOLYLINE
  5
473
100
AcDbEntity
  8
0
100
AcDbPolyline
 62
250
  6
CONTINUOUS
 90
10
 70
0
 10
14.1894686618
 20
11.7219997215
 10
11.518877184
 20
13.2641789873
 10
11.4807747395
 20
13.2837748917
 10
11.4431894666
 20
13.3004644173
 10
11.4062685802
 20
13.314182194
 10
11.3701566934
 20
13.3248744914
 10
11.3349952502
 20
13.3324994295
 10
11.300921972
 20
13.3370271428
 10
11.2680703182
 20
13.3384398967
 10
11.2365689631
 20
13.3367321577
  0
LWPOLYLINE
  5
474
100
AcDbEntity
  8
0
100
AcDbPolyline
 62
250
  6
CONTINUOUS
 90
9
 70
0
 10
7.1729888285
 20
15.7734407781
 10
7.2141552652
 20
15.7472682267
 10
7.2552168447
 20
15.7185484562
 10
7.2960126625
 20
15.687393907
 10
7.3363829334
 20
15.6539265411
 10
7.3761696351
 20
15.6182773643
 10
7.4152169475
 20
15.5805859488
 10
7.4533718468
 20
15.5409998862
 10
7.4904848452
 20
15.4996741859
  0
LWPOLYLINE
  5
475
100
AcDbEntity
  8
0
100
AcDbPolyline
 62
250
  6
CONTINUOUS
 90
9
 70
0
 10
5.5877691666
 20
16.4231288708
 10
5.5693434948
 20
16.4354661058
 10
5.5474656658
 20
16.4555172018
 10
5.5285601087
 20
16.4796703152
 10
5.512820484
 20
16.5076782498
 10
5.5004080237
 20
16.5392543766
 10
5.491449924
 20
16.5740755024
 10
5.4860380258
 20
16.6117851607
 10
5.4842278562
 20
16.6519973013
  0
LWPOLYLINE
  5
476
100
AcDbEntity
  8
0
100
AcDbPolyline
 62
250
  6
CONTINUOUS
 90
4
 70
0
 10
5.6455913343
 20
16.3897430759
 10
5.6271604703
 20
16.4020843076
 10
5.6052833274
 20
16.4221362911
 10
5.5863786514
 20
16.4462899782
  0
LWPOLYLINE
  5
477
100
AcDbEntity
  8
0
100
AcDbPolyline
 62
250
  6
CONTINUOUS
 90
46
 70
0
 10
5.3169195605
 20
14.2278069395
 10
5.311579896
 20
14.2316850554
 10
5.3072034599
 20
14.2358902144
 10
5.3037902523
 20
14.2404224165
 10
5.3014260311
 20
14.2452827008
 10
5.3000250383
 20
14.2504700283
 10
5.2993299997
 20
14.2559812819
 10
5.2992857291
 20
14.2618246501
 10
5.2999474127
 20
14.2679919443
 10
5.3012233346
 20
14.2744554819
 10
5.3031176258
 20
14.2812365343
 10
5.3056261552
 20
14.28831383
 10
5.3086448143
 20
14.2955958725
 10
5.3121563719
 20
14.3030497922
 10
5.3161780593
 20
14.3107084586
 10
5.3206574616
 20
14.3185789835
 10
5.325571969
 20
14.3266441588
 10
5.3309441914
 20
14.3349211925
 10
5.336789544
 20
14.3434688198
 10
5.3430945521
 20
14.3522821336
 10
5.3498726903
 20
14.3613660411
 10
5.3571797975
 20
14.3707939987
 10
5.365021225
 20
14.3805794819
 10
5.3733916215
 20
14.3907090153
 10
5.3823307722
 20
14.401215629
 10
5.3918555437
 20
14.4121180387
 10
5.4019490693
 20
14.4233975287
 10
5.4126005349
 20
14.4350309811
 10
5.4238008247
 20
14.4470072116
 10
5.4355590545
 20
14.4593374045
 10
5.4478917567
 20
14.4720319955
 10
5.4607629184
 20
14.4850574027
 10
5.4742085525
 20
14.498447208
 10
5.4883532303
 20
14.5123125927
 10
5.5031829795
 20
14.5266456443
 10
5.5187117724
 20
14.5414542754
 10
5.5351060969
 20
14.556873405
 10
5.5523677346
 20
14.5729090627
 10
5.570494904
 20
14.5895552189
 10
5.5896487485
 20
14.6069287041
 10
5.609884288
 20
14.6250790535
 10
5.6311465025
 20
14.6439567319
 10
5.653431476
 20
14.6635299653
 10
5.6767878659
 20
14.6838363319
 10
5.7011670146
 20
14.7048382534
 10
5.7264190339
 20
14.7263912208
  0
LWPOLYLINE
  5
478
100
AcDbEntity
  8
0
100
AcDbPolyline
 62
250
  6
CONTINUOUS
 90
10
 70
0
 10
6.8787810663
 20
15.9462299277
 10
6.8818410471
 20
15.9439927042
 10
6.8849000185
 20
15.9417866717
 10
6.8879577275
 20
15.9396119984
 10
6.8910137172
 20
15.9374689918
 10
6.8940679391
 20
15.9353576684
 10
6.8971207519
 20
15.9332777752
 10
6.9001721059
 20
15.9312293529
 10
6.9032215446
 20
15.929212715
 10
6.9062688152
 20
15.9272280326
  0
LWPOLYLINE
  5
479
100
AcDbEntity
  8
0
100
AcDbPolyline
 62
7
  6
CONTINUOUS
 90
18
 70
0
 10
4.7529602325
 20
18.1239040819
 10
4.1734488508
 20
18.6206684701
 10
3.5911547968
 20
19.1000809082
 10
3.0060780704
 20
19.5621413961
 10
2.4177565317
 20
20.0071843135
 10
1.8266523207
 20
20.4348752807
 10
1.2341518574
 20
20.8442111595
 10
0.6402518644
 20
21.2351488648
 10
0.044955619
 20
21.6077314816
 10
-0.5503406264
 20
21.9610851268
 10
-1.1456368718
 20
22.2951646641
 10
-1.7409331171
 20
22.6100152298
 10
-2.3348331102
 20
22.9048983499
 10
-2.9273335735
 20
23.1797671546
 10
-3.5184377845
 20
23.4346685136
 10
-4.1067593232
 20
23.6690045624
 10
-4.6918360495
 20
23.8825760125
 10
-5.2741301036
 20
24.0755821524
  0
LWPOLYLINE
  5
47A
100
AcDbEntity
  8
0
100
AcDbPolyline
 62
7
  6
CONTINUOUS
 90
19
 70
0
 10
4.7529602325
 20
17.9552546401
 10
4.1735833106
 20
18.453054612
 10
3.5913853383
 20
18.9333962997
 10
3.0063663155
 20
19.3962797034
 10
2.4180577514
 20
19.8420442707
 10
1.8269281368
 20
20.2703505539
 10
1.2343829445
 20
20.6801802099
 10
0.640418806
 20
21.0714892737
 10
0.0450390898
 20
21.4443217103
 10
-0.5503406264
 20
21.7977910714
 10
-1.1457203426
 20
22.1318512829
 10
-1.7411000588
 20
22.4465484188
 10
-2.3350641972
 20
22.7411342538
 10
-2.9276093896
 20
23.0155609333
 10
-3.5187390042
 20
23.2698763118
 10
-4.1070475683
 20
23.5034757279
 10
-4.6920665911
 20
23.7161576277
 10
-5.2742645634
 20
23.9081235651
 10
-5.8536414853
 20
24.07937354
  0
LWPOLYLINE
  5
47B
100
AcDbEntity
  8
0
100
AcDbPolyline
 62
250
  6
CONTINUOUS
 90
16
 70
0
 10
6.8787810666
 20
15.9462299278
 10
6.8639505155
 20
15.9632687693
 10
6.8492334708
 20
15.9821202345
 10
6.8347601275
 20
16.0026175669
 10
6.8206585231
 20
16.0245794533
 10
6.8070534144
 20
16.0478116118
 10
6.7940651731
 20
16.0721085079
 10
6.7818087038
 20
16.0972552021
 10
6.7703924397
 20
16.1230292332
 10
6.7599173896
 20
16.1492025672
 10
6.7504762251
 20
16.175543658
 10
6.7421524723
 20
16.2018194734
 10
6.7350197778
 20
16.2277975348
 10
6.7291412421
 20
16.2532480219
 10
6.7245688706
 20
16.2779457817
 10
6.7232708258
 20
16.2874933403
  0
LWPOLYLINE
  5
47C
100
AcDbEntity
  8
0
100
AcDbPolyline
 62
250
  6
CONTINUOUS
 90
16
 70
0
 10
24.8790087632
 20
-6.7292282785
 10
25.084030232
 20
-7.0177256976
 10
25.175193287
 20
-7.1393050312
 10
25.2722967098
 20
-7.2627235135
 10
25.3747303456
 20
-7.3878425072
 10
25.4825398005
 20
-7.5148309862
 10
25.5963714229
 20
-7.6441998144
 10
25.7161018443
 20
-7.776223276
 10
25.8410301702
 20
-7.9105736798
 10
25.9708626895
 20
-8.0468374142
 10
26.1050280912
 20
-8.1846282112
 10
26.2431765503
 20
-8.3240310095
 10
26.385274645
 20
-8.4652810499
 10
26.5306577201
 20
-8.6079214417
 10
26.6788094595
 20
-8.7518254399
 10
27.136544361
 20
-9.1925287812
  0
LINE
  5
47D
100
AcDbEntity
  8
0
100
AcDbLine
 62
250
  6
CONTINUOUS
 10
26.3477782776
 20
-7.7150654741
 11
26.7971354063
 21
-8.350281548
  0
LWPOLYLINE
  5
47E
100
AcDbEntity
  8
0
100
AcDbPolyline
 62
250
  6
CONTINUOUS
 90
8
 70
0
 10
26.7971354063
 20
-8.350281548
 10
27.0342887559
 20
-8.6894614503
 10
27.1546928133
 20
-8.864749973
 10
27.2752176723
 20
-9.0434521565
 10
27.3961394747
 20
-9.2262004874
 10
27.5165592735
 20
-9.4128737349
 10
27.6345357599
 20
-9.6028266592
 10
27.7484239674
 20
-9.7958262214
  0
LWPOLYLINE
  5
47F
100
AcDbEntity
  8
0
100
AcDbPolyline
 62
250
  6
CONTINUOUS
 90
13
 70
0
 10
8.4546033025
 20
21.7852219978
 10
8.3949325326
 20
21.9248658933
 10
8.3366180641
 20
22.0706390904
 10
8.2794606628
 20
22.2219605927
 10
8.2233428132
 20
22.3789339113
 10
8.1681753308
 20
22.5423187171
 10
8.1136693885
 20
22.712133909
 10
8.0597480289
 20
22.8876192077
 10
8.00662609
 20
23.0682935601
 10
7.9543551602
 20
23.2534705866
 10
7.9026858132
 20
23.4428888431
 10
7.8513976054
 20
23.6366154803
 10
7.8005590995
 20
23.8338324289
  0
LWPOLYLINE
  5
480
100
AcDbEntity
  8
0
100
AcDbPolyline
 62
250
  6
CONTINUOUS
 90
6
 70
0
 10
11.8761810961
 20
13.7307857807
 10
11.8674530157
 20
13.7512557714
 10
11.8622060403
 20
13.7710477384
 10
11.860461267
 20
13.790082092
 10
11.8622257124
 20
13.8082822884
 10
11.8630371072
 20
13.8119725016
  0
LWPOLYLINE
  5
481
100
AcDbEntity
  8
0
100
AcDbPolyline
 62
250
  6
CONTINUOUS
 90
19
 70
0
 10
14.5682538276
 20
12.7837406404
 10
14.572334871
 20
12.749015939
 10
14.5789207275
 20
12.7129295597
 10
14.5879612065
 20
12.6757551554
 10
14.5993873607
 20
12.6377750702
 10
14.6131124435
 20
12.599276724
 10
14.6290328626
 20
12.5605503812
 10
14.6470283167
 20
12.5218888373
 10
14.6669621945
 20
12.4835857333
 10
14.6886831639
 20
12.4459318032
 10
14.7120261562
 20
12.4092129834
 10
14.7368146033
 20
12.3737068173
 10
14.7628616782
 20
12.3396809997
 10
14.7899851815
 20
12.3073763708
 10
14.8179655064
 20
12.277057206
 10
14.8465442225
 20
12.2489968051
 10
14.8754870966
 20
12.2234094888
 10
14.9045897831
 20
12.2004605042
 10
14.9336333388
 20
12.1803094432
  0
LWPOLYLINE
  5
482
100
AcDbEntity
  8
0
100
AcDbPolyline
 62
250
  6
CONTINUOUS
 90
10
 70
0
 10
19.911356364
 20
-25.8235010819
 10
19.9160820161
 20
-25.8650858553
 10
19.9243465825
 20
-25.90417733
 10
19.9360661218
 20
-25.9403789872
 10
19.9511216392
 20
-25.9733236304
 10
19.9693603136
 20
-26.0026771493
 10
19.9905970622
 20
-26.0281418922
 10
20.0146163739
 20
-26.0494596222
 10
20.0411745299
 20
-26.0664141923
 10
20.0478596657
 20
-26.0697960874
  0
LWPOLYLINE
  5
483
100
AcDbEntity
  8
0
100
AcDbPolyline
 62
250
  6
CONTINUOUS
 90
5
 70
0
 10
19.006749684
 20
-20.7550492652
 10
19.0082224358
 20
-20.7771449762
 10
19.0146498965
 20
-20.80612008
 10
19.0261159152
 20
-20.834572079
 10
19.0425032278
 20
-20.8622096321
  0
LWPOLYLINE
  5
484
100
AcDbEntity
  8
0
100
AcDbPolyline
 62
250
  6
CONTINUOUS
 90
9
 70
0
 10
19.0067496776
 20
-20.8217683074
 10
19.0082233013
 20
-20.8439166088
 10
19.0146518736
 20
-20.8728915623
 10
19.0261188298
 20
-20.901343085
 10
19.0425067642
 20
-20.9289798745
 10
19.063647888
 20
-20.9555189695
 10
19.089325746
 20
-20.9806886475
 10
19.1192774333
 20
-21.0042312065
 10
19.153196287
 20
-21.0259056041
  0
LWPOLYLINE
  5
485
100
AcDbEntity
  8
0
100
AcDbPolyline
 62
250
  6
CONTINUOUS
 90
8
 70
0
 10
19.9699824888
 20
-25.8545564522
 10
19.9717924315
 20
-25.8947661454
 10
19.9772037285
 20
-25.9324740719
 10
19.9861609758
 20
-25.9672941558
 10
19.9985724638
 20
-25.998869889
 10
20.0143111164
 20
-26.0268779806
 10
20.0332157923
 20
-26.0510316676
 10
20.0550929343
 20
-26.0710836503
  0
LWPOLYLINE
  5
486
100
AcDbEntity
  8
0
100
AcDbPolyline
 62
250
  6
CONTINUOUS
 90
9
 70
0
 10
21.9742732388
 20
-27.0118088116
 10
21.9760831739
 20
-27.0520184216
 10
21.9814944505
 20
-27.0897262892
 10
21.9904516688
 20
-27.1245463378
 10
22.0028631238
 20
-27.1561220578
 10
22.0186017436
 20
-27.184130155
 10
22.0375063898
 20
-27.2082838616
 10
22.0593835087
 20
-27.2283358746
 10
22.0777923756
 20
-27.2406644371
  0
LWPOLYLINE
  5
487
100
AcDbEntity
  8
0
100
AcDbPolyline
 62
250
  6
CONTINUOUS
 90
19
 70
0
 10
19.153196287
 20
-20.959140467
 10
19.1514781398
 20
-20.9156859815
 10
19.1468637716
 20
-20.8716340049
 10
19.1393531824
 20
-20.8269845374
 10
19.1288548412
 20
-20.7814823591
 10
19.1154602789
 20
-20.7353826898
 10
19.0994440887
 20
-20.6894511885
 10
19.0807598023
 20
-20.6436340822
 10
19.059453888
 20
-20.5979851438
 10
19.0359403434
 20
-20.553431351
 10
19.0103924992
 20
-20.5101864432
 10
18.9826370248
 20
-20.468036681
 10
18.9525679259
 20
-20.4272678248
 10
18.9199217809
 20
-20.3874908545
 10
18.8849620113
 20
-20.3490947903
 10
18.8483728872
 20
-20.3135324534
 10
18.8103824985
 20
-20.2812881174
 10
18.7707627553
 20
-20.2518775086
 10
18.7295136575
 20
-20.2253006271
  0
LWPOLYLINE
  5
488
100
AcDbEntity
  8
0
100
AcDbPolyline
 62
7
  6
CONTINUOUS
 90
5
 70
0
 10
19.0067498273
 20
-20.821544939
 10
19.0079247714
 20
-20.8673261625
 10
19.0131662269
 20
-20.9291886275
 10
19.0225570939
 20
-20.9915440679
 10
19.0360456285
 20
-21.0540653629
  0
LWPOLYLINE
  5
489
100
AcDbEntity
  8
0
100
AcDbPolyline
 62
250
  6
CONTINUOUS
 90
34
 70
0
 10
20.0053797771
 20
6.486511187
 10
20.0042508694
 20
6.6207630115
 10
19.9976102968
 20
6.7575938979
 10
19.9855112113
 20
6.8967048561
 10
19.9680537183
 20
7.037699987
 10
19.9452821126
 20
7.1803610437
 10
19.9171503925
 20
7.3246630651
 10
19.8836629158
 20
7.4705249273
 10
19.8449401479
 20
7.6174187245
 10
19.8011273218
 20
7.7646459667
 10
19.7523745664
 20
7.9117805366
 10
19.6987988351
 20
8.0586014724
 10
19.6405455615
 20
8.2047110462
 10
19.5778164955
 20
8.3496789318
 10
19.5107346851
 20
8.4933039344
 10
19.4393235464
 20
8.6355327779
 10
19.3637217491
 20
8.7760863293
 10
19.2841122856
 20
8.9146200559
 10
19.2005662657
 20
9.0509754318
 10
19.1132346027
 20
9.1848644304
 10
19.0223145492
 20
9.3159523395
 10
18.9279438934
 20
9.4440036889
 10
18.8303177271
 20
9.5686968861
 10
18.7296285494
 20
9.689740674
 10
18.6260125619
 20
9.806937281
 10
18.5195549388
 20
9.920095352
 10
18.4105902606
 20
10.0287900612
 10
18.2996446565
 20
10.1325035647
 10
18.1869068161
 20
10.2310019383
 10
18.0726614716
 20
10.3240175197
 10
17.9575982513
 20
10.4110808533
 10
17.8421104242
 20
10.4919532608
 10
17.7262878
 20
10.5665701004
 10
17.6103652873
 20
10.6347979638
  0
LWPOLYLINE
  5
48A
100
AcDbEntity
  8
0
100
AcDbPolyline
 62
250
  6
CONTINUOUS
 90
25
 70
0
 10
19.7584278604
 20
-23.824743252
 10
19.7581576701
 20
-23.7769734231
 10
19.7593402368
 20
-23.7274819232
 10
19.7619708807
 20
-23.6764677458
 10
19.7660390838
 20
-23.6241360033
 10
19.7715285501
 20
-23.5706971055
 10
19.7784172613
 20
-23.5163659117
 10
19.786677549
 20
-23.4613608661
 10
19.796276205
 20
-23.4059031117
 10
19.8071746339
 20
-23.3502156042
 10
19.8193289792
 20
-23.2945222217
 10
19.8326904018
 20
-23.239046886
 10
19.8472052021
 20
-23.1840126366
 10
19.8628149653
 20
-23.1296407247
 10
19.8794568732
 20
-23.0761497383
 10
19.8970640189
 20
-23.0237547361
 10
19.9155656718
 20
-22.9726663872
 10
19.9348874982
 20
-22.9230901071
 10
19.9549517927
 20
-22.8752252131
 10
19.9756778475
 20
-22.8292641396
 10
19.9969823925
 20
-22.7853916918
 10
20.0187798569
 20
-22.7437842832
 10
20.0409826849
 20
-22.7046092208
 10
20.0635016449
 20
-22.6680240221
 10
20.0862462586
 20
-22.6341757978
  0
LINE
  5
48B
100
AcDbEntity
  8
0
100
AcDbLine
 62
250
  6
CONTINUOUS
 10
17.4506504171
 20
-18.4691634959
 11
17.4506504171
 21
-7.3453156834
  0
LINE
  5
48C
100
AcDbEntity
  8
0
100
AcDbLine
 62
7
  6
CONTINUOUS
 10
17.4902988349
 20
-35.1571460799
 11
17.4902988349
 21
-33.7978496219
  0
LINE
  5
48D
100
AcDbEntity
  8
0
100
AcDbLine
 62
7
  6
CONTINUOUS
 10
17.7024308692
 20
-35.0346637019
 11
17.7024308692
 21
-34.3094885127
  0
LINE
  5
48E
100
AcDbEntity
  8
0
100
AcDbLine
 62
7
  6
CONTINUOUS
 10
18.2615536361
 20
-33.9286948686
 11
18.2615536361
 21
-35.2882672936
  0
LINE
  5
48F
100
AcDbEntity
  8
0
100
AcDbLine
 62
7
  6
CONTINUOUS
 10
18.4513163475
 20
-35.7120255473
 11
18.4513163475
 21
-34.0382614799
  0
LINE
  5
490
100
AcDbEntity
  8
0
100
AcDbLine
 62
7
  6
CONTINUOUS
 10
18.6634483818
 20
-35.5895431693
 11
18.6634483818
 21
-33.9157791019
  0
LINE
  5
491
100
AcDbEntity
  8
0
100
AcDbLine
 62
7
  6
CONTINUOUS
 10
19.0067496776
 20
-20.8217683074
 11
19.0067496776
 21
-20.7550031702
  0
LINE
  5
492
100
AcDbEntity
  8
0
100
AcDbLine
 62
250
  6
CONTINUOUS
 10
19.153196287
 20
-21.0259056041
 11
19.153196287
 21
-20.959140467
  0
LINE
  5
493
100
AcDbEntity
  8
0
100
AcDbLine
 62
7
  6
CONTINUOUS
 10
19.3497096551
 20
-34.5569825162
 11
19.3497096551
 21
-36.2307465836
  0
LINE
  5
494
100
AcDbEntity
  8
0
100
AcDbLine
 62
7
  6
CONTINUOUS
 10
19.5455916685
 20
-36.3438464032
 11
19.5455916685
 21
-34.6700823358
  0
LINE
  5
495
100
AcDbEntity
  8
0
100
AcDbLine
 62
7
  6
CONTINUOUS
 10
19.7555649059
 20
-34.7913182514
 11
19.7555649059
 21
-34.9917910973
  0
LINE
  5
496
100
AcDbEntity
  8
0
100
AcDbLine
 62
7
  6
CONTINUOUS
 10
19.7577237029
 20
-36.2213640252
 11
19.7577237029
 21
-34.9917910973
  0
LINE
  5
497
100
AcDbEntity
  8
0
100
AcDbLine
 62
7
  6
CONTINUOUS
 10
19.7577237029
 20
-34.7913182514
 11
19.7577237029
 21
-34.5475999578
  0
LINE
  5
498
100
AcDbEntity
  8
0
100
AcDbLine
 62
250
  6
CONTINUOUS
 10
19.9113563641
 20
-25.8235010819
 11
19.9113563641
 21
-23.880931724
  0
LINE
  5
499
100
AcDbEntity
  8
0
100
AcDbLine
 62
250
  6
CONTINUOUS
 10
20.0053797771
 20
-29.3394513388
 11
20.0053797771
 21
-26.2487270906
  0
LINE
  5
49A
100
AcDbEntity
  8
0
100
AcDbLine
 62
250
  6
CONTINUOUS
 10
20.0053797771
 20
-4.3572639935
 11
20.0053797771
 21
6.486511187
  0
LINE
  5
49B
100
AcDbEntity
  8
0
100
AcDbLine
 62
7
  6
CONTINUOUS
 10
20.2461796323
 20
-35.2750658915
 11
20.2461796323
 21
-36.748357113
  0
LINE
  5
49C
100
AcDbEntity
  8
0
100
AcDbLine
 62
7
  6
CONTINUOUS
 10
20.4419916421
 20
-36.8614165134
 11
20.4419916421
 21
-35.3881252919
  0
LINE
  5
49D
100
AcDbEntity
  8
0
100
AcDbLine
 62
7
  6
CONTINUOUS
 10
20.6541236765
 20
-36.7389341354
 11
20.6541236765
 21
-35.5106076699
  0
LINE
  5
49E
100
AcDbEntity
  8
0
100
AcDbLine
 62
250
  6
CONTINUOUS
 10
20.6803269725
 20
-29.3564662725
 11
20.6803269725
 21
-26.43378543
  0
LINE
  5
49F
100
AcDbEntity
  8
0
100
AcDbLine
 62
250
  6
CONTINUOUS
 10
20.6803269725
 20
-4.3742789271
 11
20.6803269725
 21
6.4694962533
  0
LWPOLYLINE
  5
4A0
100
AcDbEntity
  8
0
100
AcDbPolyline
 62
250
  6
CONTINUOUS
 90
10
 70
0
 10
19.2364091686
 20
-26.5784928914
 10
19.2365936981
 20
-23.4919166219
 10
19.2345115841
 20
-23.4431804154
 10
19.2301709818
 20
-23.3932614232
 10
19.2235888927
 20
-23.3423551693
 10
19.2147910978
 20
-23.290661045
 10
19.2038120563
 20
-23.2383815272
 10
19.1906947715
 20
-23.1857213861
 10
19.1754906214
 20
-23.1328868823
 10
19.1582591582
 20
-23.0800849597
  0
LWPOLYLINE
  5
4A1
100
AcDbEntity
  8
0
100
AcDbPolyline
 62
250
  6
CONTINUOUS
 90
25
 70
0
 10
19.9113563641
 20
-23.880931724
 10
19.9126296189
 20
-23.8337370691
 10
19.9164442915
 20
-23.7852609111
 10
19.9227851218
 20
-23.7356972234
 10
19.9316267415
 20
-23.6852443319
 10
19.9429337752
 20
-23.6341041205
 10
19.9566609825
 20
-23.5824812235
 10
19.9727534368
 20
-23.5305822133
 10
19.9911467498
 20
-23.4786147572
 10
20.0117673318
 20
-23.4267867856
 10
20.0345326774
 20
-23.3753056845
 10
20.0593516954
 20
-23.3243774605
 10
20.0861250808
 20
-23.2742058996
 10
20.1147457051
 20
-23.2249917669
 10
20.1450990479
 20
-23.1769319968
 10
20.1770636587
 20
-23.1302188997
 10
20.2105116353
 20
-23.0850394047
 10
20.2453091387
 20
-23.0415743056
 10
20.2813169332
 20
-22.9999975323
 10
20.3183909367
 20
-22.9604754632
 10
20.3563827971
 20
-22.9231662587
 10
20.39514049
 20
-22.8882192231
 10
20.4345089255
 20
-22.8557742098
 10
20.4743305682
 20
-22.825961061
 10
20.5144460685
 20
-22.7988990877
  0
LWPOLYLINE
  5
4A2
100
AcDbEntity
  8
0
100
AcDbPolyline
 62
250
  6
CONTINUOUS
 90
16
 70
0
 10
17.9331044696
 20
11.2278252032
 10
17.931376719
 20
11.1865181441
 10
17.9262103537
 20
11.1436196419
 10
17.9176558679
 20
11.0995489709
 10
17.9057968699
 20
11.0547368617
 10
17.8907492652
 20
11.0096212915
 10
17.8726601237
 20
10.9646432031
 10
17.8517062418
 20
10.9202421961
 10
17.8280924153
 20
10.8768522295
 10
17.8020494369
 20
10.8348973809
 10
17.7738318412
 20
10.7947877016
 10
17.7437154166
 20
10.756915209
 10
17.71199451
 20
10.7216500548
 10
17.67897915
 20
10.6893369077
 10
17.6449920164
 20
10.6602915847
 10
17.6103652871
 20
10.634797964
  0
LWPOLYLINE
  5
4A3
100
AcDbEntity
  8
0
100
AcDbPolyline
 62
250
  6
CONTINUOUS
 90
45
 70
0
 10
16.9700698989
 20
-19.8380265775
 10
16.9702781673
 20
-19.8335925505
 10
16.9708978932
 20
-19.8289842501
 10
16.9719290769
 20
-19.8242016762
 10
16.9733945473
 20
-19.8192082555
 10
16.9752714754
 20
-19.8140405613
 10
16.9774913734
 20
-19.8088083137
 10
16.9800538073
 20
-19.8035384087
 10
16.982959211
 20
-19.7982039503
 10
16.9861403993
 20
-19.7928339715
 10
16.9895685937
 20
-19.7874609241
 10
16.9932725726
 20
-19.7820523563
 10
16.9972714857
 20
-19.7765399451
 10
17.0015617317
 20
-19.7709150269
 10
17.0061469118
 20
-19.7651862654
 10
17.0110569806
 20
-19.7593113283
 10
17.0162959773
 20
-19.7532806395
 10
17.0218598627
 20
-19.7471037751
 10
17.0277664731
 20
-19.7407671316
 10
17.0340096214
 20
-19.7342753744
 10
17.0405954949
 20
-19.727623838
 10
17.0475604913
 20
-19.7207849227
 10
17.0548994701
 20
-19.7137611669
 10
17.0626175718
 20
-19.7065500322
 10
17.0707666158
 20
-19.699116303
 10
17.0793515475
 20
-19.6914540194
 10
17.0883674216
 20
-19.6835691414
 10
17.0978512212
 20
-19.6754443337
 10
17.1078119056
 20
-19.6670724212
 10
17.1182405156
 20
-19.6584605789
 10
17.1291471569
 20
-19.6496129965
 10
17.1405346439
 20
-19.6405284198
 10
17.1524001622
 20
-19.6312081028
 10
17.164745375
 20
-19.6216599975
 10
17.1775655331
 20
-19.6118883521
 10
17.1908653857
 20
-19.6018889183
 10
17.204660843
 20
-19.5916569029
 10
17.218934724
 20
-19.5812042646
 10
17.2337042097
 20
-19.5705190448
 10
17.249036753
 20
-19.5595605748
 10
17.2649217992
 20
-19.5483345981
 10
17.2813699029
 20
-19.5368353712
 10
17.2984801806
 20
-19.5250049941
 10
17.3162520801
 20
-19.5128421821
 10
17.3346861536
 20
-19.5003482199
  0
LWPOLYLINE
  5
4A4
100
AcDbEntity
  8
0
100
AcDbPolyline
 62
250
  6
CONTINUOUS
 90
15
 70
0
 10
17.0053595743
 20
-19.819999578
 10
17.0053855057
 20
-19.81953675
 10
17.0058347293
 20
-19.8188737224
 10
17.006707235
 20
-19.8180105035
 10
17.0080279477
 20
-19.8169323186
 10
17.0097719489
 20
-19.8156539755
 10
17.0118643451
 20
-19.8142197784
 10
17.0142999626
 20
-19.812635283
 10
17.0170836964
 20
-19.8108947758
 10
17.0201556587
 20
-19.8090255919
 10
17.0234884631
 20
-19.8070423561
 10
17.0271092829
 20
-19.80493032
 10
17.0310401668
 20
-19.8026728235
 10
17.0352793664
 20
-19.8002695234
 10
17.0398286001
 20
-19.7977207611
  0
LWPOLYLINE
  5
4A5
100
AcDbEntity
  8
0
100
AcDbPolyline
 62
250
  6
CONTINUOUS
 90
14
 70
0
 10
18.0661277441
 20
-6.8173210702
 10
18.0624313272
 20
-6.8225388196
 10
18.0417643695
 20
-6.8568464412
 10
18.0254937935
 20
-6.8937512753
 10
18.0137861804
 20
-6.9328753843
 10
18.0067613553
 20
-6.973818155
 10
18.0044911921
 20
-7.0161603789
 10
18.0069988813
 20
-7.0594684801
 10
18.0142586895
 20
-7.1032990496
 10
18.0261962271
 20
-7.1472033139
 10
18.0426891821
 20
-7.1907316929
 10
18.0635686026
 20
-7.2334385188
 10
18.0886206538
 20
-7.2748865977
 10
18.1175887808
 20
-7.3146516108
  0
LINE
  5
4A6
100
AcDbEntity
  8
0
100
AcDbLine
 62
7
  6
CONTINUOUS
 10
18.0661724948
 20
-6.8172592679
 11
18.0661277441
 21
-6.8173210702
  0
LWPOLYLINE
  5
4A7
100
AcDbEntity
  8
0
100
AcDbPolyline
 62
250
  6
CONTINUOUS
 90
49
 70
0
 10
18.117589316
 20
-7.3146522841
 10
18.1955983281
 20
-7.2159148066
 10
18.2798950391
 20
-7.1264425725
 10
18.3704794491
 20
-7.0462355819
 10
18.4677137607
 20
-6.9750444524
 10
18.5712357713
 20
-6.9131185664
 10
18.679958872
 20
-6.8612060709
 10
18.7938579849
 20
-6.8194683743
 10
18.912958188
 20
-6.7877440682
 10
19.0362481058
 20
-6.7662970753
 10
19.1637843007
 20
-6.755211401
 10
19.2955102104
 20
-6.7544030399
 10
19.4302447729
 20
-6.7638838978
 10
19.5680072346
 20
-6.7837467012
 10
19.7087783491
 20
-6.8138987236
 10
19.851319316
 20
-6.8540736916
 10
19.9956476444
 20
-6.9043605492
 10
20.1417458252
 20
-6.9646703524
 10
20.2883225308
 20
-7.034469995
 10
20.4353812664
 20
-7.1138432379
 10
20.5829185268
 20
-7.2027063202
 10
20.7296324692
 20
-7.300274853
 10
20.8755159746
 20
-7.4066259327
 10
21.020576162
 20
-7.5216824629
 10
21.1635325453
 20
-7.6444287664
 10
21.3043665123
 20
-7.7749329093
 10
21.4430966752
 20
-7.9131268255
 10
21.578498384
 20
-8.057790639
 10
21.710542034
 20
-8.2089813711
 10
21.83925723
 20
-8.3666420005
 10
21.9635081354
 20
-8.5293815875
 10
22.0832558283
 20
-8.6972460629
 10
22.1985392307
 20
-8.8701894959
 10
22.3083392725
 20
-9.0466831542
 10
22.4126061167
 20
-9.2267557965
 10
22.5113896003
 20
-9.410378664
 10
22.6038201646
 20
-9.5959367482
 10
22.6898454562
 20
-9.7834590531
 10
22.7695178284
 20
-9.9729165747
 10
22.8421247829
 20
-10.1626072925
 10
22.9075949045
 20
-10.3525008932
 10
22.9659996083
 20
-10.54262769
 10
23.0168406416
 20
-10.7313766021
 10
23.0600622734
 20
-10.9188813418
 10
23.0957202346
 20
-11.1050081968
 10
23.123483465
 20
-11.287744949
 10
23.1432416111
 20
-11.4664208593
 10
23.1551050265
 20
-11.641706667
 10
23.1590737109
 20
-11.8136023719
  0
LWPOLYLINE
  5
4A8
100
AcDbEntity
  8
0
100
AcDbPolyline
 62
250
  6
CONTINUOUS
 90
26
 70
0
 10
20.677987091
 20
-4.9327560166
 10
20.6829969301
 20
-4.9275567442
 10
20.6995389137
 20
-4.9073888636
 10
20.7139136178
 20
-4.8868832505
 10
20.7263568291
 20
-4.8661256141
 10
20.7369597784
 20
-4.8453913039
 10
20.745900643
 20
-4.8247902118
 10
20.7534566378
 20
-4.8040622062
 10
20.7596968608
 20
-4.7833305043
 10
20.764703441
 20
-4.7626802358
 10
20.7686355581
 20
-4.741705055
 10
20.7715152388
 20
-4.7203363659
 10
20.7733274489
 20
-4.6987522735
 10
20.7740871456
 20
-4.676876711
 10
20.7737940795
 20
-4.6548330625
 10
20.7724519872
 20
-4.6326022524
 10
20.7700168436
 20
-4.6098826658
 10
20.7664614266
 20
-4.5868266195
 10
20.7617345155
 20
-4.563387458
 10
20.7556152245
 20
-4.538966841
 10
20.7479255513
 20
-4.5135079775
 10
20.7385641318
 20
-4.4872437128
 10
20.7272945728
 20
-4.4600455934
 10
20.713914974
 20
-4.4319845645
 10
20.6983052714
 20
-4.4033248702
 10
20.6803269725
 20
-4.3742789271
  0
LWPOLYLINE
  5
4A9
100
AcDbEntity
  8
0
100
AcDbPolyline
 62
250
  6
CONTINUOUS
 90
25
 70
0
 10
-2.0781925959
 20
-28.2434093308
 10
-2.1920819949
 20
-28.3608579843
 10
-2.303545982
 20
-28.4835306485
 10
-2.4122957761
 20
-28.6111095025
 10
-2.5180496266
 20
-28.7432640136
 10
-2.6205335474
 20
-28.8796517961
 10
-2.7194820263
 20
-29.0199194987
 10
-2.814638708
 20
-29.1637037163
 10
-2.9057570591
 20
-29.3106319316
 10
-2.9926010098
 20
-29.4603234832
 10
-3.0749455645
 20
-29.6123905496
 10
-3.1525773842
 20
-29.7664391551
 10
-3.2252953401
 20
-29.9220701904
 10
-3.292911034
 20
-30.0788804462
 10
-3.3552492864
 20
-30.2364636577
 10
-3.4121485911
 20
-30.3944115582
 10
-3.4634615327
 20
-30.5523149356
 10
-3.509055169
 20
-30.7097646931
 10
-3.5488113756
 20
-30.8663529093
 10
-3.5826271515
 20
-31.0216738982
 10
-3.6104148861
 20
-31.1753252497
 10
-3.6321025866
 20
-31.3269088735
 10
-3.6476340655
 20
-31.4760320429
 10
-3.6569690845
 20
-31.6223084127
 10
-3.6600834589
 20
-31.7653590096
  0
LWPOLYLINE
  5
4AA
100
AcDbEntity
  8
0
100
AcDbPolyline
 62
250
  6
CONTINUOUS
 90
16
 70
0
 10
24.9990674243
 20
-6.8979363701
 10
25.0368642859
 20
-6.8752749636
 10
25.0762585838
 20
-6.8508751971
 10
25.1168469829
 20
-6.8249868939
 10
25.1582139181
 20
-6.7978751241
 10
25.1999358578
 20
-6.7698174684
 10
25.2415856406
 20
-6.7411011749
 10
25.2827368297
 20
-6.7120202499
 10
25.3229680986
 20
-6.6828724448
 10
25.3618675518
 20
-6.6539561857
 10
25.3990369058
 20
-6.6255675254
 10
25.4340955933
 20
-6.5979971266
 10
25.4666846771
 20
-6.5715272844
 10
25.4964704849
 20
-6.5464290174
 10
25.5231480278
 20
-6.5229592912
 10
25.5464441474
 20
-6.5013584032
  0
LWPOLYLINE
  5
4AB
100
AcDbEntity
  8
0
100
AcDbPolyline
 62
250
  6
CONTINUOUS
 90
3
 70
0
 10
8.3616325776
 20
19.707181197
 10
8.3303956285
 20
19.7065197256
 10
8.3004933611
 20
19.7056821582
  0
LINE
  5
4AC
100
AcDbEntity
  8
0
100
AcDbLine
 62
250
  6
CONTINUOUS
 10
7.9067197366
 20
17.094287518
 11
7.8572031572
 21
17.0962846554
  0
LWPOLYLINE
  5
4AD
100
AcDbEntity
  8
0
100
AcDbPolyline
 62
250
  6
CONTINUOUS
 90
34
 70
0
 10
-6.3176761897
 20
20.721028688
 10
-6.2806129977
 20
20.7183551586
 10
-6.2410028127
 20
20.7163162026
 10
-6.1988999158
 20
20.7150464576
 10
-6.1537646677
 20
20.7146135443
 10
-6.1063012877
 20
20.7152309123
 10
-6.0584274599
 20
20.7171516843
 10
-6.0102611436
 20
20.7204005229
 10
-5.9618718221
 20
20.7249749649
 10
-5.9150407377
 20
20.7308995707
 10
-5.8700252609
 20
20.7381170019
 10
-5.8266728422
 20
20.7465045477
 10
-5.7860523737
 20
20.7558648014
 10
-5.748398324
 20
20.7660932605
 10
-5.7134510759
 20
20.7770600683
 10
-5.6814574685
 20
20.7884908056
 10
-5.6525952178
 20
20.8002320911
 10
-5.6265682941
 20
20.8122582014
 10
-5.6028985123
 20
20.824499174
 10
-5.5815007938
 20
20.8369112757
 10
-5.5623656482
 20
20.8494400037
 10
-5.545152422
 20
20.862016464
 10
-5.5297853876
 20
20.8746342745
 10
-5.5162563705
 20
20.8872452957
 10
-5.5043349196
 20
20.8997269946
 10
-5.4939819489
 20
20.9120589276
 10
-5.4851473927
 20
20.9242389492
 10
-5.477587007
 20
20.9361781172
 10
-5.4712552547
 20
20.9478651702
 10
-5.4661156923
 20
20.9593106599
 10
-5.4619447253
 20
20.970460889
 10
-5.4586461722
 20
20.9813012279
 10
-5.4562473507
 20
20.9918575494
 10
-5.4547148751
 20
21.0021384387
  0
LWPOLYLINE
  5
4AE
100
AcDbEntity
  8
0
100
AcDbPolyline
 62
250
  6
CONTINUOUS
 90
5
 70
0
 10
7.274157018
 20
16.5562984164
 10
7.2519032353
 20
16.5599798505
 10
7.2296350627
 20
16.5611520928
 10
7.2075410868
 20
16.5598051512
 10
7.1945957088
 20
16.5578198843
  0
LWPOLYLINE
  5
4AF
100
AcDbEntity
  8
0
100
AcDbPolyline
 62
250
  6
CONTINUOUS
 90
3
 70
0
 10
8.0118408142
 20
17.0726353574
 10
7.9599553499
 20
17.0864137275
 10
7.9067197366
 20
17.094287518
  0
LINE
  5
4B0
100
AcDbEntity
  8
0
100
AcDbLine
 62
250
  6
CONTINUOUS
 10
7.296208239
 20
16.5501390792
 11
7.274157018
 21
16.5562984164
  0
LWPOLYLINE
  5
4B1
100
AcDbEntity
  8
0
100
AcDbPolyline
 62
250
  6
CONTINUOUS
 90
19
 70
0
 10
7.2473765038
 20
16.285684863
 10
7.3029115946
 20
16.259820292
 10
7.3606995004
 20
16.2350149417
 10
7.4204245826
 20
16.2114042925
 10
7.4817605743
 20
16.189117315
 10
7.544372509
 20
16.1682757134
 10
7.6079185599
 20
16.1489932737
 10
7.6720517025
 20
16.1313753062
 10
7.736421599
 20
16.1155180602
 10
7.8006766659
 20
16.1015081561
 10
7.8644659413
 20
16.089422124
 10
7.9274410162
 20
16.0793259814
 10
7.9892579345
 20
16.0712748781
 10
8.0495790516
 20
16.0653127977
 10
8.1080748855
 20
16.0614723139
 10
8.1644259296
 20
16.0597744102
 10
8.2183243848
 20
16.0602283692
 10
8.2694758425
 20
16.0628317216
 10
8.3176008976
 20
16.0675702571
  0
LWPOLYLINE
  5
4B2
100
AcDbEntity
  8
0
100
AcDbPolyline
 62
250
  6
CONTINUOUS
 90
3
 70
0
 10
7.338961505
 20
16.5306158397
 10
7.3178707354
 20
16.5415539986
 10
7.296208239
 20
16.5501390792
  0
LWPOLYLINE
  5
4B3
100
AcDbEntity
  8
0
100
AcDbPolyline
 62
250
  6
CONTINUOUS
 90
16
 70
0
 10
13.8411885638
 20
12.7701585204
 10
13.8787273031
 20
12.7505741993
 10
13.9195015843
 20
12.7332804705
 10
13.9630939368
 20
12.7184543971
 10
14.0090580366
 20
12.7062477772
 10
14.0569232765
 20
12.6967855891
 10
14.1061995842
 20
12.6901647125
 10
14.1563824403
 20
12.6864529355
 10
14.2069580435
 20
12.6856882615
 10
14.2574085712
 20
12.6878785198
 10
14.3072174816
 20
12.6930012852
 10
14.355874802
 20
12.7010041078
 10
14.4028823505
 20
12.7118050501
 10
14.4477588365
 20
12.7252935257
 10
14.4900447882
 20
12.7413314317
 10
14.5293072576
 20
12.7597545628
  0
LWPOLYLINE
  5
4B4
100
AcDbEntity
  8
0
100
AcDbPolyline
 62
250
  6
CONTINUOUS
 90
16
 70
0
 10
13.8411885638
 20
15.0844395696
 10
13.8787272194
 20
15.0648552879
 10
13.9195014191
 20
15.0475615826
 10
13.9630936975
 20
15.0327355186
 10
14.0090577365
 20
15.0205288957
 10
14.0569229318
 20
15.0110666955
 10
14.106199212
 20
15.0044458004
 10
14.1563820597
 20
15.0007340017
 10
14.2069576738
 20
14.9999693056
 10
14.2574082279
 20
15.0021595441
 10
14.3072171792
 20
15.0072822942
 10
14.3558745532
 20
15.0152851082
 10
14.4028821617
 20
15.0260860494
 10
14.4477587104
 20
15.0395745322
 10
14.4900447261
 20
15.0556124547
 10
14.5293072576
 20
15.074035612
  0
LWPOLYLINE
  5
4B5
100
AcDbEntity
  8
0
100
AcDbPolyline
 62
250
  6
CONTINUOUS
 90
30
 70
0
 10
-13.0940887604
 20
29.1425377121
 10
-13.225516294
 20
29.2147413828
 10
-13.3559040735
 20
29.2793221001
 10
-13.4852520989
 20
29.3362798641
 10
-13.6137493332
 20
29.3856809516
 10
-13.7412068134
 20
29.4274590857
 10
-13.8670576503
 20
29.4614154365
 10
-13.9914837313
 20
29.4875408448
 10
-14.114303169
 20
29.5058444699
 10
-14.2344034117
 20
29.5161549591
 10
-14.3516714047
 20
29.5183708054
 10
-14.4662202025
 20
29.5125935159
 10
-14.5772764178
 20
29.4989562598
 10
-14.684741439
 20
29.4774426106
 10
-14.7887138775
 20
29.4480689947
 10
-14.8887161807
 20
29.4110178608
 10
-14.9847695022
 20
29.3662739605
 10
-15.0768526884
 20
29.3138525421
 10
-15.1644247256
 20
29.253981799
 10
-15.2474912023
 20
29.1866220813
 10
-15.3260465301
 20
29.1118130389
 10
-15.3995329295
 20
29.0299018145
 10
-15.4679289102
 20
28.9408611817
 10
-15.5312559626
 20
28.8447183669
 10
-15.5890207788
 20
28.7419021921
 10
-15.6412302526
 20
28.6322280299
 10
-15.6878774902
 20
28.5158805077
 10
-15.728448502
 20
28.3938423291
 10
-15.7628436092
 20
28.2659759667
 10
-15.775790876
 20
28.2049142907
  0
LWPOLYLINE
  5
4B6
100
AcDbEntity
  8
0
100
AcDbPolyline
 62
250
  6
CONTINUOUS
 90
20
 70
0
 10
-13.4168279426
 20
28.5495104727
 10
-13.5296405459
 20
28.6133437091
 10
-13.6421596847
 20
28.6706433725
 10
-13.7541149858
 20
28.7213147277
 10
-13.8651400612
 20
28.7652618189
 10
-13.9750747525
 20
28.802443318
 10
-14.0839533251
 20
28.8328258885
 10
-14.1916770719
 20
28.8563575718
 10
-14.2978075066
 20
28.8729242904
 10
-14.4018796724
 20
28.8824252756
 10
-14.5035995924
 20
28.8848641374
 10
-14.6028005055
 20
28.8802796334
 10
-14.6992418421
 20
28.8687007871
 10
-14.7926505232
 20
28.8502028792
 10
-14.8829024452
 20
28.8248563337
 10
-14.9699780497
 20
28.7926768946
 10
-15.0536983692
 20
28.7537213453
 10
-15.1338508689
 20
28.7080782662
 10
-15.2103427594
 20
28.6557761888
 10
-15.2395240801
 20
28.6332875405
  0
LWPOLYLINE
  5
4B7
100
AcDbEntity
  8
0
100
AcDbPolyline
 62
250
  6
CONTINUOUS
 90
11
 70
0
 10
12.1405497726
 20
13.5078089641
 10
12.1011370083
 20
13.5302533319
 10
12.0642658037
 20
13.5529081337
 10
12.0300844033
 20
13.5756823054
 10
11.9987302363
 20
13.5984842986
 10
11.9703293652
 20
13.621222454
 10
11.9449959779
 20
13.6438053668
 10
11.922831931
 20
13.6661422478
 10
11.9039263319
 20
13.6881432948
 10
11.8883551857
 20
13.7097200586
 10
11.8761810961
 20
13.7307857807
  0
LINE
  5
4B8
100
AcDbEntity
  8
0
100
AcDbLine
 62
250
  6
CONTINUOUS
 10
13.8436088531
 20
12.7010676388
 11
12.1612402416
 21
13.6724461901
  0
LINE
  5
4B9
100
AcDbEntity
  8
0
100
AcDbLine
 62
250
  6
CONTINUOUS
 10
17.6103652873
 20
10.6347979638
 11
14.9336333391
 21
12.1803094434
  0
LINE
  5
4BA
100
AcDbEntity
  8
0
100
AcDbLine
 62
250
  6
CONTINUOUS
 10
-7.2435235457
 20
24.9851218837
 11
-13.4168279426
 21
28.5495104727
  0
LINE
  5
4BB
100
AcDbEntity
  8
0
100
AcDbLine
 62
250
  6
CONTINUOUS
 10
17.9331044696
 20
11.2278252032
 11
15.2563725213
 21
12.7733366828
  0
LINE
  5
4BC
100
AcDbEntity
  8
0
100
AcDbLine
 62
250
  6
CONTINUOUS
 10
-7.2907624422
 20
25.7917698288
 11
-13.0940887604
 21
29.1425377121
  0
LINE
  5
4BD
100
AcDbEntity
  8
0
100
AcDbLine
 62
7
  6
CONTINUOUS
 10
9.0921619989
 20
17.0504202707
 11
11.6414768847
 21
15.578477806
  0
LINE
  5
4BE
100
AcDbEntity
  8
0
100
AcDbLine
 62
250
  6
CONTINUOUS
 10
8.9057876938
 20
17.4623834146
 11
11.4551025256
 21
15.9904409811
  0
LWPOLYLINE
  5
4BF
100
AcDbEntity
  8
0
100
AcDbPolyline
 62
250
  6
CONTINUOUS
 90
15
 70
0
 10
-20.7074284382
 20
36.4575123919
 10
-20.7692327224
 20
36.4952629033
 10
-20.8272642792
 20
36.5349595429
 10
-20.8813396171
 20
36.5764767929
 10
-20.9312877542
 20
36.6196833789
 10
-20.9769507584
 20
36.6644426852
 10
-21.0181842466
 20
36.7106131862
 10
-21.0548578418
 20
36.7580488943
 10
-21.086855585
 20
36.8065998216
 10
-21.1140763018
 20
36.8561124537
 10
-21.1364339223
 20
36.9064302355
 10
-21.1538577535
 20
36.9573940662
 10
-21.1662927025
 20
37.008842802
 10
-21.1736994511
 20
37.0606137659
 10
-21.1760575883
 20
37.1107517412
  0
LWPOLYLINE
  5
4C0
100
AcDbEntity
  8
0
100
AcDbPolyline
 62
7
  6
CONTINUOUS
 90
28
 70
0
 10
11.6414755013
 20
15.5784786048
 10
11.6448003685
 20
15.5764397319
 10
11.650206476
 20
15.5728039369
 10
11.6576978906
 20
15.5673143804
 10
11.6669762215
 20
15.5599453953
 10
11.6778037919
 20
15.5506659578
 10
11.6899600789
 20
15.5394479344
 10
11.7032297712
 20
15.5262870601
 10
11.7174262748
 20
15.5111786823
 10
11.7323706879
 20
15.4941148741
 10
11.7477923425
 20
15.4752121959
 10
11.7633855742
 20
15.4546928025
 10
11.7789547048
 20
15.4326814094
 10
11.7942469794
 20
15.4094001298
 10
11.8089148866
 20
15.3853055424
 10
11.822794844
 20
15.3606536775
 10
11.835724764
 20
15.3357238681
 10
11.847454425
 20
15.3110668838
 10
11.8579042164
 20
15.287015188
 10
11.8670511533
 20
15.2638048379
 10
11.8748343414
 20
15.2418401502
 10
11.8812747363
 20
15.2214340036
 10
11.886466415
 20
15.2027287486
 10
11.8905031242
 20
15.1858675914
 10
11.8934873684
 20
15.1710304191
 10
11.8955413202
 20
15.1584141306
 10
11.8968002522
 20
15.1482343432
 10
11.8971550719
 20
15.1444346818
  0
LWPOLYLINE
  5
4C1
100
AcDbEntity
  8
0
100
AcDbPolyline
 62
250
  6
CONTINUOUS
 90
14
 70
0
 10
12.1612402416
 20
13.6724461901
 10
12.1222770986
 20
13.6964133433
 10
12.0860163551
 20
13.7217549304
 10
12.0526031116
 20
13.7483695504
 10
12.0221710749
 20
13.7761507076
 10
11.9948420229
 20
13.8049872389
 10
11.9707253168
 20
13.8347637577
 10
11.9499174667
 20
13.8653611124
 10
11.932501738
 20
13.8966568727
 10
11.9185478214
 20
13.9285258205
 10
11.9081115622
 20
13.9608404362
 10
11.9012347319
 20
13.9934714117
 10
11.8979448577
 20
14.0262881782
 10
11.8976363455
 20
14.0398700084
  0
LWPOLYLINE
  5
4C2
100
AcDbEntity
  8
0
100
AcDbPolyline
 62
250
  6
CONTINUOUS
 90
14
 70
0
 10
12.1612402416
 20
14.7673745813
 10
12.1222767497
 20
14.7913419633
 10
12.0860157283
 20
14.8166837892
 10
12.0526022768
 20
14.843298653
 10
12.0221701002
 20
14.8710800545
 10
11.9948409737
 20
14.8999168257
 10
11.9707242555
 20
14.9296935754
 10
11.9499164493
 20
14.9602911512
 10
11.9325008183
 20
14.991587116
 10
11.9185470514
 20
15.0234562381
 10
11.9081109852
 20
15.0557709923
 10
11.9012343798
 20
15.0884020702
 10
11.8979447521
 20
15.1212188976
 10
11.8976363446
 20
15.1348217153
  0
LWPOLYLINE
  5
4C3
100
AcDbEntity
  8
0
100
AcDbPolyline
 62
250
  6
CONTINUOUS
 90
22
 70
0
 10
11.4551025256
 20
15.9904409811
 10
11.5092759673
 20
15.9564738485
 10
11.5620605062
 20
15.9190900195
 10
11.6134561424
 20
15.8782894941
 10
11.6635381238
 20
15.8339275745
 10
11.7122312024
 20
15.7861489585
 10
11.7593096348
 20
15.7353877401
 10
11.8049404665
 20
15.6814716696
 10
11.8489566521
 20
15.6245729967
 10
11.8906313113
 20
15.5656425633
 10
11.9298824365
 20
15.5047446315
 10
11.9667920354
 20
15.4418149393
 10
12.0008792509
 20
15.3776115422
 10
12.0321147009
 20
15.3122934856
 10
12.0605277674
 20
15.2457017241
 10
12.0857257398
 20
15.1781171766
 10
12.1078507122
 20
15.1090760253
 10
12.1267605904
 20
15.039042088
 10
12.1416363818
 20
14.9696877377
 10
12.1522050886
 20
14.9015704319
 10
12.1587397085
 20
14.8341327131
 10
12.1612402416
 20
14.7673745813
  0
LWPOLYLINE
  5
4C4
100
AcDbEntity
  8
0
100
AcDbPolyline
 62
250
  6
CONTINUOUS
 90
5
 70
0
 10
8.2073208309
 20
16.9472074071
 10
8.1602688279
 20
16.9890432701
 10
8.1119975532
 20
17.0239501287
 10
8.0625070067
 20
17.0519279827
 10
8.0118408142
 20
17.0726353574
  0
LWPOLYLINE
  5
4C5
100
AcDbEntity
  8
0
100
AcDbPolyline
 62
250
  6
CONTINUOUS
 90
5
 70
0
 10
8.412145179
 20
19.5732193068
 10
8.364715532
 20
19.6287441922
 10
8.34234912
 20
19.6551955501
 10
8.3209456045
 20
19.6808278489
 10
8.3004933611
 20
19.7056821582
  0
LWPOLYLINE
  5
4C6
100
AcDbEntity
  8
0
100
AcDbPolyline
 62
250
  6
CONTINUOUS
 90
9
 70
0
 10
25.5464441474
 20
-6.5013584032
 10
25.6181614715
 20
-6.6219571473
 10
25.6945722309
 20
-6.7462709485
 10
25.7754847651
 20
-6.8740872589
 10
25.8604558491
 20
-7.0047129447
 10
25.9494395345
 20
-7.1384436691
 10
26.0428662115
 20
-7.2764824013
 10
26.1407075889
 20
-7.4188907346
 10
26.3477782776
 20
-7.7150654741
  0
LWPOLYLINE
  5
4C7
100
AcDbEntity
  8
0
100
AcDbPolyline
 62
250
  6
CONTINUOUS
 90
8
 70
0
 10
9.1329466696
 20
21.9276531288
 10
9.064447768
 20
22.0499206655
 10
8.995037047
 20
22.1781634403
 10
8.9248082986
 20
22.3121124501
 10
8.8541385929
 20
22.4510577759
 10
8.7827628429
 20
22.5950913426
 10
8.7098778624
 20
22.7451331453
 10
8.6354183914
 20
22.9011758866
  0
LWPOLYLINE
  5
4C8
100
AcDbEntity
  8
0
100
AcDbPolyline
 62
250
  6
CONTINUOUS
 90
25
 70
0
 10
14.1894686618
 20
11.7219997215
 10
14.1648534835
 20
11.770810415
 10
14.1411620112
 20
11.8202016928
 10
14.1182786861
 20
11.8699253214
 10
14.096015661
 20
11.9196835233
 10
14.0743934889
 20
11.9692968209
 10
14.0536193168
 20
12.0187478149
 10
14.033612497
 20
12.068008273
 10
14.0143320024
 20
12.1167743024
 10
13.9960468158
 20
12.1646588781
 10
13.978801673
 20
12.2114528516
 10
13.9625099034
 20
12.257064031
 10
13.947263287
 20
12.3012908878
 10
13.9331224916
 20
12.3439256659
 10
13.9200456441
 20
12.3849340547
 10
13.9079712056
 20
12.424392019
 10
13.896916527
 20
12.4621881919
 10
13.8868974517
 20
12.4982533047
 10
13.8778282423
 20
12.5327392791
 10
13.8697123376
 20
12.5657327986
 10
13.8625600659
 20
12.5970002957
 10
13.8563193539
 20
12.6262303426
 10
13.8510272009
 20
12.6532979364
 10
13.8467700908
 20
12.678252279
 10
13.8436088531
 20
12.7010676388
  0
LWPOLYLINE
  5
4C9
100
AcDbEntity
  8
0
100
AcDbPolyline
 62
250
  6
CONTINUOUS
 90
7
 70
0
 10
7.9817023406
 20
24.310652389
 10
7.8901095565
 20
24.5025410598
 10
7.7956218344
 20
24.6962389581
 10
7.6978344456
 20
24.8922924277
 10
7.5964042324
 20
25.0898611976
 10
7.4909177018
 20
25.2869471488
 10
7.3807546257
 20
25.4820118736
  0
LINE
  5
4CA
100
AcDbEntity
  8
0
100
AcDbLine
 62
250
  6
CONTINUOUS
 10
8.1568381601
 20
23.9357540586
 11
7.9817023406
 21
24.310652389
  0
LINE
  5
4CB
100
AcDbEntity
  8
0
100
AcDbLine
 62
250
  6
CONTINUOUS
 10
8.6354183914
 20
22.9011758866
 11
8.4823631096
 21
23.2287997558
  0
LINE
  5
4CC
100
AcDbEntity
  8
0
100
AcDbLine
 62
250
  6
CONTINUOUS
 10
8.4823631096
 20
23.2287997558
 11
8.1568381601
 21
23.9357540586
  0
LWPOLYLINE
  5
4CD
100
AcDbEntity
  8
0
100
AcDbPolyline
 62
250
  6
CONTINUOUS
 90
15
 70
0
 10
23.2084472215
 20
-39.6070154306
 10
23.2102358751
 20
-39.6794111184
 10
23.2155961802
 20
-39.7495124042
 10
23.224511188
 20
-39.8170976334
 10
23.23695271
 20
-39.8819531066
 10
23.2528814069
 20
-39.9438737558
 10
23.2722469135
 20
-40.0026637927
 10
23.2949879976
 20
-40.0581373277
 10
23.3210327536
 20
-40.1101189579
 10
23.35029883
 20
-40.1584443214
 10
23.3826936897
 20
-40.202960617
 10
23.4181149027
 20
-40.2435270877
 10
23.4564504698
 20
-40.2800154654
 10
23.497579177
 20
-40.3123103768
 10
23.5397794152
 20
-40.3393944084
  0
LWPOLYLINE
  5
4CE
100
AcDbEntity
  8
0
100
AcDbPolyline
 62
250
  6
CONTINUOUS
 90
34
 70
0
 10
20.6803269725
 20
6.4694962533
 10
20.6771390822
 20
6.6230914561
 10
20.6678692352
 20
6.7789977383
 10
20.6525174317
 20
6.9372151001
 10
20.6310465801
 20
7.0979831464
 10
20.6034937719
 20
7.2610622721
 10
20.5699702817
 20
7.4257336627
 10
20.5303772246
 20
7.5922644318
 10
20.4848134856
 20
7.7603874657
 10
20.4336869939
 20
7.9285826084
 10
20.3769663716
 20
8.0967374371
 10
20.3146829965
 20
8.2649643747
 10
20.2473389315
 20
8.4320805341
 10
20.1749692608
 20
8.5979517951
 10
20.0975389002
 20
8.7627122779
 10
20.0154446591
 20
8.9255814571
 10
19.928662754
 20
9.0865974904
 10
19.8372169685
 20
9.2457222201
 10
19.7415754631
 20
9.4020606475
 10
19.6417011046
 20
9.5556406657
 10
19.5376310263
 20
9.7064343816
 10
19.4299447888
 20
9.8534631168
 10
19.3186295591
 20
9.9967094668
 10
19.2036981702
 20
10.136190836
 10
19.0857686827
 20
10.2709807596
 10
18.9646777523
 20
10.4011815106
 10
18.8405887233
 20
10.5266908159
 10
18.714609689
 20
10.6462753912
 10
18.5866713876
 20
10.7598601324
 10
18.4568430809
 20
10.8675201436
 10
18.3264406479
 20
10.9682474534
 10
18.1959027148
 20
11.0617060714
 10
18.0647906554
 20
11.148231988
 10
17.9331044696
 20
11.2278252032
  0
LINE
  5
4CF
100
AcDbEntity
  8
0
100
AcDbLine
 62
7
  6
CONTINUOUS
 10
20.9326056615
 20
-35.6713996778
 11
20.9326056615
 21
-35.4709268319
  0
LINE
  5
4D0
100
AcDbEntity
  8
0
100
AcDbLine
 62
7
  6
CONTINUOUS
 10
21.1447376958
 20
-35.5489172998
 11
21.1447376958
 21
-35.3484444539
  0
LINE
  5
4D1
100
AcDbEntity
  8
0
100
AcDbLine
 62
7
  6
CONTINUOUS
 10
21.3021565344
 20
-22.9141223121
 11
21.3021565344
 21
-23.6533654313
  0
LINE
  5
4D2
100
AcDbEntity
  8
0
100
AcDbLine
 62
250
  6
CONTINUOUS
 10
21.5657604313
 20
-22.9778396501
 11
21.5657604313
 21
-24.0208125652
  0
LINE
  5
4D3
100
AcDbEntity
  8
0
100
AcDbLine
 62
7
  6
CONTINUOUS
 10
22.460930702
 20
-36.3533625559
 11
22.460930702
 21
-38.0271266233
  0
LINE
  5
4D4
100
AcDbEntity
  8
0
100
AcDbLine
 62
7
  6
CONTINUOUS
 10
22.6568247362
 20
-37.9397605377
 11
22.6568247362
 21
-36.4664693161
  0
LINE
  5
4D5
100
AcDbEntity
  8
0
100
AcDbLine
 62
7
  6
CONTINUOUS
 10
22.8689567706
 20
-37.8172781597
 11
22.8689567706
 21
-36.3439869381
  0
LINE
  5
4D6
100
AcDbEntity
  8
0
100
AcDbLine
 62
250
  6
CONTINUOUS
 10
22.9628660411
 20
-26.44111804
 11
22.9628660411
 21
-22.7842053139
  0
LINE
  5
4D7
100
AcDbEntity
  8
0
100
AcDbLine
 62
250
  6
CONTINUOUS
 10
23.1590737109
 20
-11.8136023719
 11
23.1590737109
 21
-20.7947754166
  0
LINE
  5
4D8
100
AcDbEntity
  8
0
100
AcDbLine
 62
7
  6
CONTINUOUS
 10
23.3917498053
 20
-38.5645699077
 11
23.3917498053
 21
-38.3640970618
  0
LINE
  5
4D9
100
AcDbEntity
  8
0
100
AcDbLine
 62
7
  6
CONTINUOUS
 10
23.6038818396
 20
-38.4420875297
 11
23.6038818396
 21
-38.2416146838
  0
LINE
  5
4DA
100
AcDbEntity
  8
0
100
AcDbLine
 62
250
  6
CONTINUOUS
 10
23.6509847349
 20
-26.4515219975
 11
23.6509847349
 21
-22.4437185492
  0
LINE
  5
4DB
100
AcDbEntity
  8
0
100
AcDbLine
 62
250
  6
CONTINUOUS
 10
23.6899313049
 20
-22.4244474675
 11
23.6899313049
 21
-26.4335138003
  0
LINE
  5
4DC
100
AcDbEntity
  8
0
100
AcDbLine
 62
250
  6
CONTINUOUS
 10
23.8471924047
 20
-11.8240063295
 11
23.8471924047
 21
-20.8051793742
  0
LINE
  5
4DD
100
AcDbEntity
  8
0
100
AcDbLine
 62
7
  6
CONTINUOUS
 10
24.0054576802
 20
-38.2452148589
 11
24.0054576802
 21
-38.918917143
  0
LWPOLYLINE
  5
4DE
100
AcDbEntity
  8
0
100
AcDbPolyline
 62
250
  6
CONTINUOUS
 90
14
 70
0
 10
23.6899313049
 20
-26.4335138003
 10
23.6883483864
 20
-26.5322022044
 10
23.6809440851
 20
-26.6273661598
 10
23.6677500446
 20
-26.7185742942
 10
23.6488266736
 20
-26.8054490162
 10
23.624240293
 20
-26.8875455148
 10
23.5940916084
 20
-26.9643832861
 10
23.5585242347
 20
-27.0356261032
 10
23.5177125341
 20
-27.1009747627
 10
23.4718775817
 20
-27.160092503
 10
23.421306035
 20
-27.2126918727
 10
23.3661854894
 20
-27.2586570669
 10
23.3065989718
 20
-27.2979227087
 10
23.2550202188
 20
-27.3247798699
  0
LWPOLYLINE
  5
4DF
100
AcDbEntity
  8
0
100
AcDbPolyline
 62
250
  6
CONTINUOUS
 90
28
 70
0
 10
23.2084472215
 20
13.8006355175
 10
23.2102358751
 20
13.8750966976
 10
23.2155961802
 20
13.9513879295
 10
23.224511188
 20
14.0292679863
 10
23.23695271
 20
14.1084906171
 10
23.2528814069
 20
14.1888053263
 10
23.2722469135
 20
14.2699581648
 10
23.2949879976
 20
14.3516925338
 10
23.3210327536
 20
14.4337499953
 10
23.35029883
 20
14.5158710902
 10
23.3826936897
 20
14.5977961578
 10
23.4181149027
 20
14.6792661574
 10
23.4564504698
 20
14.7600234872
 10
23.497579177
 20
14.8398127987
 10
23.5413709785
 20
14.9183818043
 10
23.5876874079
 20
14.9954820749
 10
23.6363820163
 20
15.0708698254
 10
23.6873008351
 20
15.1443066855
 10
23.740282863
 20
15.2155604536
 10
23.7951605749
 20
15.2844058308
 10
23.8517604516
 20
15.3506251332
 10
23.9099035288
 20
15.4140089807
 10
23.9694059625
 20
15.4743569584
 10
24.0300796107
 20
15.5314782506
 10
24.091732628
 20
15.5851922442
 10
24.1541700722
 20
15.6353290998
 10
24.2171945211
 20
15.6817302884
 10
24.2806066961
 20
15.7242490931
  0
LWPOLYLINE
  5
4E0
100
AcDbEntity
  8
0
100
AcDbPolyline
 62
250
  6
CONTINUOUS
 90
36
 70
0
 10
23.1590737109
 20
-20.7947754166
 10
23.154770534
 20
-20.9671866976
 10
23.1422085213
 20
-21.1332241985
 10
23.1213876727
 20
-21.2928879194
 10
23.0921911732
 20
-21.4466350661
 10
23.0547358378
 20
-21.5940084327
 10
23.0093721121
 20
-21.7336364018
 10
22.9560262953
 20
-21.8654431439
 10
22.8947720881
 20
-21.9895044884
 10
22.8261810387
 20
-22.1046763055
 10
22.750184996
 20
-22.2108752413
 10
22.6668521111
 20
-22.3081846496
 10
22.5769583856
 20
-22.3957104625
 10
22.4804432913
 20
-22.4733611449
 10
22.3773673564
 20
-22.5412282318
 10
22.2686881676
 20
-22.5986922605
 10
22.1543556829
 20
-22.6456564932
 10
22.0344199442
 20
-22.6822176677
 10
21.9099886645
 20
-22.7080465344
 10
21.7810213135
 20
-22.7230448572
 10
21.6475584214
 20
-22.7273108723
 10
21.5108292919
 20
-22.7208100387
 10
21.370804976
 20
-22.7034443842
 10
21.2275144226
 20
-22.675311881
 10
21.0822737822
 20
-22.6366719049
 10
20.9350613564
 20
-22.5874263286
 10
20.7858988436
 20
-22.5276732793
 10
20.6361674887
 20
-22.457966514
 10
20.4858731474
 20
-22.3782225116
 10
20.335009964
 20
-22.2885247932
 10
20.1849416169
 20
-22.1896776795
 10
20.0356222404
 20
-22.0815455706
 10
19.8870977001
 20
-21.9642640663
 10
19.7408692712
 20
-21.8390442868
 10
19.5974373787
 20
-21.7062899388
 10
19.4563015975
 20
-21.5655973155
  0
LWPOLYLINE
  5
4E1
100
AcDbEntity
  8
0
100
AcDbPolyline
 62
250
  6
CONTINUOUS
 90
21
 70
0
 10
20.8596227154
 20
-24.4284488306
 10
20.8608959939
 20
-24.381253732
 10
20.8647107344
 20
-24.3327771358
 10
20.8710516719
 20
-24.2832130225
 10
20.879893433
 20
-24.2327597243
 10
20.8912006373
 20
-24.1816191315
 10
20.9049280385
 20
-24.1299958847
 10
20.9210207063
 20
-24.0780965556
 10
20.9394142452
 20
-24.026128821
 10
20.960035053
 20
-23.9743006312
 10
20.982800615
 20
-23.9228193782
 10
21.0076198341
 20
-23.8718910656
 10
21.0343933955
 20
-23.8217194845
 10
21.0630141641
 20
-23.7725053979
 10
21.093367613
 20
-23.7244457375
 10
21.1253322821
 20
-23.6777328152
 10
21.1587802638
 20
-23.6325535541
 10
21.1935777151
 20
-23.5890887404
 10
21.229585393
 20
-23.5475122997
 10
21.2666592118
 20
-23.5079906013
 10
21.3021565344
 20
-23.4731312493
  0
LWPOLYLINE
  5
4E2
100
AcDbEntity
  8
0
100
AcDbPolyline
 62
250
  6
CONTINUOUS
 90
22
 70
0
 10
21.5657604313
 20
-24.0208125652
 10
21.5634324226
 20
-24.0820204891
 10
21.5574508541
 20
-24.1395151784
 10
21.5478157261
 20
-24.1932966331
 10
21.5344393498
 20
-24.2434011089
 10
21.5174094139
 20
-24.28979235
 10
21.4969889841
 20
-24.3323615897
 10
21.4731124141
 20
-24.371263806
 10
21.4458453502
 20
-24.4063440208
 10
21.4156477971
 20
-24.4370285332
 10
21.3825344014
 20
-24.4632311089
 10
21.3464905166
 20
-24.4850379822
 10
21.3079322073
 20
-24.5021341558
 10
21.2669825229
 20
-24.5145567502
 10
21.2235184141
 20
-24.5222686447
 10
21.1775867973
 20
-24.5248434798
 10
21.1288570354
 20
-24.5222544205
 10
21.0776597655
 20
-24.5145283016
 10
21.0250338158
 20
-24.5013192687
 10
20.9713254622
 20
-24.4825120368
 10
20.9161884287
 20
-24.4582218908
 10
20.8596227154
 20
-24.4284488306
  0
LWPOLYLINE
  5
4E3
100
AcDbEntity
  8
0
100
AcDbPolyline
 62
250
  6
CONTINUOUS
 90
16
 70
0
 10
24.6226607839
 20
16.0199258085
 10
24.6222987953
 20
16.0114658545
 10
24.6212165359
 20
16.0026745032
 10
24.6194250865
 20
15.9936417655
 10
24.6169427889
 20
15.9844601238
 10
24.6137950583
 20
15.9752235852
 10
24.6100141232
 20
15.9660267186
 10
24.6056386948
 20
15.956963687
 10
24.6007135713
 20
15.948127283
 10
24.5952891791
 20
15.9396079788
 10
24.5894210563
 20
15.931493
 10
24.583169284
 20
15.9238654324
 10
24.5765978716
 20
15.9168033717
 10
24.569774101
 20
15.9103791232
 10
24.562767838
 20
15.9046584621
 10
24.5556508167
 20
15.89969996
  0
LINE
  5
4E4
100
AcDbEntity
  8
0
100
AcDbLine
 62
250
  6
CONTINUOUS
 10
27.7484239674
 20
-9.7958262214
 11
23.8471924047
 21
-11.8240063295
  0
LWPOLYLINE
  5
4E5
100
AcDbEntity
  8
0
100
AcDbPolyline
 62
250
  6
CONTINUOUS
 90
16
 70
0
 10
23.8471924047
 20
-11.8240063295
 10
23.8079299354
 20
-11.8424294606
 10
23.7656439836
 20
-11.8584673666
 10
23.7207674977
 20
-11.8719558422
 10
23.6737599492
 20
-11.8827567845
 10
23.6251026287
 20
-11.8907596071
 10
23.5752937183
 20
-11.8958823725
 10
23.5248431906
 20
-11.8980726308
 10
23.4742675874
 20
-11.8973079568
 10
23.4240847313
 20
-11.8935961798
 10
23.3748084236
 20
-11.8869753032
 10
23.3269431837
 20
-11.8775131151
 10
23.2809790839
 20
-11.8653064952
 10
23.2373867315
 20
-11.8504804218
 10
23.1966124502
 20
-11.833186693
 10
23.1590737109
 20
-11.8136023719
  0
LINE
  5
4E6
100
AcDbEntity
  8
0
100
AcDbLine
 62
7
  6
CONTINUOUS
 10
17.4456701538
 20
-18.7517327131
 11
17.4456354299
 21
-18.7517476034
  0
LWPOLYLINE
  5
4E7
100
AcDbEntity
  8
0
100
AcDbPolyline
 62
7
  6
CONTINUOUS
 90
9
 70
0
 10
17.4456691606
 20
-18.7517319373
 10
17.4649953305
 20
-18.7438202989
 10
17.4875963657
 20
-18.7355669228
 10
17.508655422
 20
-18.7289383972
 10
17.5278802335
 20
-18.7238954412
 10
17.5450365274
 20
-18.7203353852
 10
17.5598870701
 20
-18.7181090731
 10
17.5721923956
 20
-18.7170123699
 10
17.5817300303
 20
-18.7167799786
  0
LWPOLYLINE
  5
4E8
100
AcDbEntity
  8
0
100
AcDbPolyline
 62
250
  6
CONTINUOUS
 90
19
 70
0
 10
9.7114634726
 20
20.2445228885
 10
9.6816580168
 20
20.251013893
 10
9.6495294888
 20
20.2560242403
 10
9.615297308
 20
20.2595131392
 10
9.5791818565
 20
20.2614508616
 10
9.541447673
 20
20.2618163063
 10
9.5024077566
 20
20.2606037616
 10
9.4623584903
 20
20.2578237246
 10
9.42156807
 20
20.2534960703
 10
9.3803232208
 20
20.2476512781
 10
9.3389159796
 20
20.2403305139
 10
9.2976426663
 20
20.2315859491
 10
9.2567980289
 20
20.2214799405
 10
9.216673564
 20
20.2100846025
 10
9.1775542981
 20
20.1974808732
 10
9.1397177298
 20
20.1837580448
 10
9.1034331079
 20
20.1690135608
 10
9.0689593982
 20
20.1533524351
 10
9.0365423487
 20
20.1368861041
  0
LINE
  5
4E9
100
AcDbEntity
  8
0
100
AcDbLine
 62
7
  6
CONTINUOUS
 10
-5.2741301036
 20
24.0755821524
 11
-5.8536414853
 21
24.2480229819
  0
LWPOLYLINE
  5
4EA
100
AcDbEntity
  8
0
100
AcDbPolyline
 62
250
  6
CONTINUOUS
 90
22
 70
0
 10
9.3322665748
 20
19.6172811575
 10
9.3022393636
 20
19.6262524988
 10
9.2682733413
 20
19.6350187426
 10
9.2304614996
 20
19.6436117458
 10
9.1887941473
 20
19.6521309908
 10
9.1435038772
 20
19.6605119951
 10
9.0950493424
 20
19.6684608366
 10
9.042740139
 20
19.6757438812
 10
8.9875123414
 20
19.682439615
 10
8.9321707381
 20
19.6885117067
 10
8.8767978526
 20
19.6935213559
 10
8.8213200179
 20
19.6974749312
 10
8.7681477937
 20
19.7008578671
 10
8.7178738495
 20
19.7034959793
 10
8.6697078858
 20
19.7052297801
 10
8.6239437402
 20
19.7065850909
 10
8.5807160157
 20
19.707578518
 10
8.5397221941
 20
19.708046859
 10
8.5006541794
 20
19.7082870382
 10
8.4634951261
 20
19.7083222176
 10
8.4281487199
 20
19.7080681037
 10
8.3616325776
 20
19.707181197
  0
LWPOLYLINE
  5
4EB
100
AcDbEntity
  8
0
100
AcDbPolyline
 62
250
  6
CONTINUOUS
 90
16
 70
0
 10
28.1755062784
 20
9.8662169069
 10
28.1679985307
 20
9.8701337711
 10
28.1598436746
 20
9.8735925168
 10
28.1511252041
 20
9.8765577315
 10
28.1419323842
 20
9.8789990555
 10
28.1323593361
 20
9.8808914931
 10
28.1225040745
 20
9.8822156685
 10
28.1124675031
 20
9.8829580239
 10
28.1023523822
 20
9.8831109587
 10
28.0922622765
 20
9.882672907
 10
28.0823004943
 20
9.8816483539
 10
28.0725690302
 20
9.8800477893
 10
28.0631675206
 20
9.8778876009
 10
28.0541922235
 20
9.8751899057
 10
28.0457350333
 20
9.8719823246
 10
28.0378825396
 20
9.8682976984
  0
LWPOLYLINE
  5
4EC
100
AcDbEntity
  8
0
100
AcDbPolyline
 62
250
  6
CONTINUOUS
 90
20
 70
0
 10
9.0491141676
 20
18.9933444132
 10
9.0177195103
 20
19.0097419897
 10
8.9895901824
 20
19.0267365559
 10
8.9592707107
 20
19.0469739804
 10
8.9266519207
 20
19.0701629915
 10
8.8918873667
 20
19.0962015073
 10
8.85542744
 20
19.1252334896
 10
8.8169687038
 20
19.1579155652
 10
8.7769793495
 20
19.1933413291
 10
8.7371866043
 20
19.2295974053
 10
8.6979271315
 20
19.2670741882
 10
8.6591283133
 20
19.3057065297
 10
8.6219859065
 20
19.3432276432
 10
8.5870182542
 20
19.3794199709
 10
8.553838104
 20
19.4150131348
 10
8.5223091674
 20
19.4492114251
 10
8.4925341876
 20
19.481918296
 10
8.4644363188
 20
19.513545786
 10
8.4376422664
 20
19.5439809455
 10
8.412145179
 20
19.5732193068
  0
LWPOLYLINE
  5
4ED
100
AcDbEntity
  8
0
100
AcDbPolyline
 62
250
  6
CONTINUOUS
 90
28
 70
0
 10
25.5464441474
 20
9.7511060582
 10
25.6118257388
 20
9.715421039
 10
25.6805779058
 20
9.6819143455
 10
25.7524832594
 20
9.650691923
 10
25.8273144404
 20
9.6218524947
 10
25.9048348384
 20
9.5954872484
 10
25.9847993399
 20
9.5716795491
 10
26.0669551033
 20
9.5505046748
 10
26.1510423584
 20
9.5320295789
 10
26.2367952279
 20
9.5163126782
 10
26.3239425679
 20
9.5034036683
 10
26.412208825
 20
9.4933433666
 10
26.5013149084
 20
9.4861635828
 10
26.5909790714
 20
9.481887019
 10
26.6809178029
 20
9.4805271973
 10
26.7708467235
 20
9.4820884173
 10
26.860481485
 20
9.4865657426
 10
26.9495386692
 20
9.4939450163
 10
27.0377366842
 20
9.5042029056
 10
27.1247966546
 20
9.5173069759
 10
27.2104433036
 20
9.5332157931
 10
27.2944058231
 20
9.5518790548
 10
27.37641873
 20
9.5732377492
 10
27.456222706
 20
9.5972243417
 10
27.533565417
 20
9.6237629886
 10
27.6082023113
 20
9.6527697768
 10
27.6798973929
 20
9.684152989
 10
27.7484239674
 20
9.7178133938
  0
LWPOLYLINE
  5
4EE
100
AcDbEntity
  8
0
100
AcDbPolyline
 62
250
  6
CONTINUOUS
 90
10
 70
0
 10
9.4255838416
 20
19.5700290798
 10
9.4157246562
 20
19.5756395203
 10
9.4057377266
 20
19.5811601469
 10
9.395623053
 20
19.5865909596
 10
9.3853801109
 20
19.5919322772
 10
9.3750094247
 20
19.5971837809
 10
9.3645125676
 20
19.6023445145
 10
9.353890064
 20
19.6074141594
 10
9.3431413895
 20
19.6123930344
 10
9.332266544
 20
19.6172811393
  0
LINE
  5
4EF
100
AcDbEntity
  8
0
100
AcDbLine
 62
250
  6
CONTINUOUS
 10
12.8525957615
 20
16.7967325293
 11
9.0905340058
 21
18.9688998374
  0
LINE
  5
4F0
100
AcDbEntity
  8
0
100
AcDbLine
 62
250
  6
CONTINUOUS
 10
-4.4394279229
 20
27.0072315764
 11
3.3387466701
 21
22.5162110497
  0
LINE
  5
4F1
100
AcDbEntity
  8
0
100
AcDbLine
 62
250
  6
CONTINUOUS
 10
13.1876455973
 20
17.3978617717
 11
9.4255838416
 21
19.5700290798
  0
LINE
  5
4F2
100
AcDbEntity
  8
0
100
AcDbLine
 62
250
  6
CONTINUOUS
 10
9.3764136368
 20
19.6433936461
 11
13.2265921673
 21
17.4203488167
  0
LINE
  5
4F3
100
AcDbEntity
  8
0
100
AcDbLine
 62
250
  6
CONTINUOUS
 10
-4.1043780871
 20
27.6083608187
 11
3.673796506
 21
23.1173402921
  0
LINE
  5
4F4
100
AcDbEntity
  8
0
100
AcDbLine
 62
250
  6
CONTINUOUS
 10
9.7114634726
 20
20.2445228885
 11
13.5616420031
 21
18.021478059
  0
LINE
  5
4F5
100
AcDbEntity
  8
0
100
AcDbLine
 62
250
  6
CONTINUOUS
 10
23.2084472215
 20
13.8006355175
 11
9.1329466696
 21
21.9276531288
  0
LINE
  5
4F6
100
AcDbEntity
  8
0
100
AcDbLine
 62
250
  6
CONTINUOUS
 10
-4.2939309604
 20
29.680163994
 11
-18.3694315123
 21
37.8071816052
  0
LWPOLYLINE
  5
4F7
100
AcDbEntity
  8
0
100
AcDbPolyline
 62
250
  6
CONTINUOUS
 90
25
 70
0
 10
13.2265921673
 20
17.4203488167
 10
13.3152462921
 20
17.3673334317
 10
13.4035064761
 20
17.3078237518
 10
13.4910208063
 20
17.242059507
 10
13.5775019484
 20
17.170276356
 10
13.6625296376
 20
17.0927935327
 10
13.7455593902
 20
17.0100416919
 10
13.8262320286
 20
16.9223940453
 10
13.9042384306
 20
16.830230408
 10
13.9791365611
 20
16.7340612705
 10
14.0505303881
 20
16.6344462893
 10
14.1182413072
 20
16.531705199
 10
14.1821583872
 20
16.4259979171
 10
14.2420181477
 20
16.3177263603
 10
14.2975332189
 20
16.2073797101
 10
14.3485321857
 20
16.0952378239
 10
14.3948069805
 20
15.9816131266
 10
14.4360504446
 20
15.8671408416
 10
14.4719788754
 20
15.7525941965
 10
14.5024302555
 20
15.6383462938
 10
14.527228918
 20
15.5250042593
 10
14.5462170785
 20
15.4136654708
 10
14.5593706461
 20
15.3049700313
 10
14.5667080715
 20
15.1991253361
 10
14.5682538276
 20
15.096522657
  0
LWPOLYLINE
  5
4F8
100
AcDbEntity
  8
0
100
AcDbPolyline
 62
250
  6
CONTINUOUS
 90
46
 70
0
 10
3.673796506
 20
23.1173402921
 10
3.8099853828
 20
23.0352070742
 10
3.9459046093
 20
22.9462375437
 10
4.0812850718
 20
22.8506078564
 10
4.2158587239
 20
22.7485073548
 10
4.3493591158
 20
22.6401381935
 10
4.481521922
 20
22.5257149398
 10
4.612085466
 20
22.4054641474
 10
4.740791239
 20
22.2796239071
 10
4.8673844107
 20
22.1484433763
 10
4.9916143331
 20
22.012182286
 10
5.1132350368
 20
21.8711104275
 10
5.2320057187
 20
21.7255071169
 10
5.3476912311
 20
21.5756606255
 10
5.4600625096
 20
21.4218676582
 10
5.5688970293
 20
21.2644327703
 10
5.6739792414
 20
21.1036677825
 10
5.7751011636
 20
20.9398909049
 10
5.8720627347
 20
20.7734261438
 10
5.9646720176
 20
20.6046029732
 10
6.0527455704
 20
20.4337557532
 10
6.136108967
 20
20.2612228052
 10
6.2145971475
 20
20.0873457119
 10
6.2880546834
 20
19.9124687636
 10
6.35633607
 20
19.7369383354
 10
6.4193061084
 20
19.561101975
 10
6.4768401172
 20
19.3853078314
 10
6.5288241446
 20
19.2099040909
 10
6.5751552558
 20
19.0352381112
 10
6.6157417448
 20
18.86165566
 10
6.6505032741
 20
18.6895003497
 10
6.6793710157
 20
18.5191130555
 10
6.7022878166
 20
18.3508311245
 10
6.7192083126
 20
18.1849876396
 10
6.7300989946
 20
18.0219108892
 10
6.7349382784
 20
17.8619238504
 10
6.7337165748
 20
17.7053434299
 10
6.7264363083
 20
17.5524796675
 10
6.713111898
 20
17.403635209
 10
6.6937697414
 20
17.2591048315
 10
6.668448154
 20
17.1191747163
 10
6.637197282
 20
16.9841218827
 10
6.600079012
 20
16.8542137134
 10
6.5571668484
 20
16.7297074084
 10
6.5085457677
 20
16.6108494758
 10
6.4543120495
 20
16.4978752368
  0
LWPOLYLINE
  5
4F9
100
AcDbEntity
  8
0
100
AcDbPolyline
 62
250
  6
CONTINUOUS
 90
31
 70
0
 10
13.5616420031
 20
18.021478059
 10
13.6503811646
 20
17.9675581742
 10
13.7384940177
 20
17.9087172832
 10
13.8259805625
 20
17.8449553862
 10
13.9130949432
 20
17.7760710199
 10
13.9995830155
 20
17.7022656474
 10
14.0846823468
 20
17.6241436585
 10
14.168415055
 20
17.5416080191
 10
14.2507590221
 20
17.4547557632
 10
14.3308854612
 20
17.3644823818
 10
14.4086991255
 20
17.2708342983
 10
14.4842952618
 20
17.1737650894
 10
14.557130823
 20
17.074030976
 10
14.6271707557
 20
16.9716574344
 10
14.6944501133
 20
16.8666189883
 10
14.7585310099
 20
16.7595954302
 10
14.819417837
 20
16.6505600514
 10
14.877106203
 20
16.5395395606
 10
14.9311450471
 20
16.4272938764
 10
14.9815386024
 20
16.3137537639
 10
15.0282826358
 20
16.198988458
 10
15.0709133872
 20
16.0839655817
 10
15.1094073406
 20
15.9685801887
 10
15.1437880119
 20
15.8529372254
 10
15.173662189
 20
15.7383191538
 10
15.1989399832
 20
15.6247304861
 10
15.2197112832
 20
15.5121667101
 10
15.2358525416
 20
15.4018967509
 10
15.2473225763
 20
15.2943435836
 10
15.2541625695
 20
15.1890842331
 10
15.2563725213
 20
15.0861186994
  0
LWPOLYLINE
  5
4FA
100
AcDbEntity
  8
0
100
AcDbPolyline
 62
250
  6
CONTINUOUS
 90
37
 70
0
 10
3.3387466701
 20
22.5162110497
 10
3.4902158261
 20
22.4237859368
 10
3.6402947659
 20
22.3226273423
 10
3.7889834894
 20
22.2127352664
 10
3.9367363745
 20
22.0937124747
 10
4.0830990433
 20
21.9659562014
 10
4.2267083623
 20
21.8306581496
 10
4.3675355131
 20
21.6877498587
 10
4.5056093141
 20
21.5372997891
 10
4.6396530862
 20
21.380705025
 10
4.7696287192
 20
21.2179088791
 10
4.8955743232
 20
21.0489680386
 10
5.0163275494
 20
20.87544965
 10
5.1318393906
 20
20.6973121196
 10
5.242158854
 20
20.5145970409
 10
5.3462706121
 20
20.3289963416
 10
5.4441159084
 20
20.1404861653
 10
5.5357534994
 20
19.9490903683
 10
5.6203443277
 20
19.7565724474
 10
5.6978235824
 20
19.5629230246
 10
5.7682560743
 20
19.3681514779
 10
5.830997178
 20
19.1740494378
 10
5.8859765199
 20
18.9806241107
 10
5.9332644736
 20
18.7878682902
 10
5.9724275334
 20
18.5975519875
 10
6.003391566
 20
18.4096929521
 10
6.0262307048
 20
18.2242734345
 10
6.0407338434
 20
18.0430101979
 10
6.0468257201
 20
17.8659534587
 10
6.0445815966
 20
17.6930530005
 10
6.0340161526
 20
17.5258749368
 10
6.0150348863
 20
17.3644208722
 10
5.9877322993
 20
17.2086892021
 10
5.9524065763
 20
17.0602412259
 10
5.9091571119
 20
16.9195973767
 10
5.8578845114
 20
16.7862372214
 10
5.7985887748
 20
16.66016076
  0
LWPOLYLINE
  5
4FB
100
AcDbEntity
  8
0
100
AcDbPolyline
 62
250
  6
CONTINUOUS
 90
9
 70
0
 10
9.0905340058
 20
18.9688998374
 10
9.0855811764
 20
18.9721198849
 10
9.080562588
 20
18.9752936483
 10
9.0754792072
 20
18.9784207092
 10
9.0703327063
 20
18.9815004366
 10
9.0651233991
 20
18.9845326618
 10
9.059850155
 20
18.9875176221
 10
9.0545131931
 20
18.9904550866
 10
9.0491141676
 20
18.9933444132
  0
LWPOLYLINE
  5
4FC
100
AcDbEntity
  8
0
100
AcDbPolyline
 62
250
  6
CONTINUOUS
 90
16
 70
0
 10
9.3764136354
 20
19.6433936454
 10
9.3471254599
 20
19.6634646799
 10
9.3181135962
 20
19.6858638202
 10
9.2894581247
 20
19.710645222
 10
9.2612304884
 20
19.7381533187
 10
9.2334829968
 20
19.7682825342
 10
9.2064657794
 20
19.8002915191
 10
9.1807694565
 20
19.8339787719
 10
9.1565220831
 20
19.869427918
 10
9.1335219362
 20
19.9060723998
 10
9.1122442494
 20
19.9436367681
 10
9.0930486086
 20
19.9820319681
 10
9.0755938415
 20
20.0208212257
 10
9.0600120857
 20
20.059678006
 10
9.0468925449
 20
20.0984433013
 10
9.0365423487
 20
20.1368861041
  0
LWPOLYLINE
  5
4FD
100
AcDbEntity
  8
0
100
AcDbPolyline
 62
250
  6
CONTINUOUS
 90
34
 70
0
 10
25.5464441474
 20
9.7511060582
 10
25.543820487
 20
9.880827729
 10
25.5359513451
 20
10.0129259327
 10
25.5228367216
 20
10.1474006692
 10
25.5044221333
 20
10.2846423246
 10
25.4807620634
 20
10.4242605128
 10
25.4520199619
 20
10.5650840755
 10
25.4181628933
 20
10.7070426734
 10
25.379223793
 20
10.8502066458
 10
25.3354649174
 20
10.9936158517
 10
25.2868530882
 20
11.1372755484
 10
25.2334214838
 20
11.2811804785
 10
25.1755318958
 20
11.4243547294
 10
25.1131529955
 20
11.5667949906
 10
25.0463161116
 20
11.7085045725
 10
24.9754770224
 20
11.8485174935
 10
24.9006104896
 20
11.98681862
 10
24.8217417515
 20
12.1234230856
 10
24.7394023004
 20
12.2574103086
 10
24.6535663544
 20
12.3887660632
 10
24.5642596955
 20
12.5175045753
 10
24.4720911618
 20
12.6427479405
 10
24.3770424433
 20
12.7644704405
 10
24.2791318502
 20
12.8826977937
 10
24.1790231508
 20
12.9966292513
 10
24.0767040196
 20
13.10623379
 10
23.9721867822
 20
13.2115424331
 10
23.8661721845
 20
13.311847501
 10
23.7585824862
 20
13.4071557656
 10
23.6494954276
 20
13.497460455
 10
23.5398449752
 20
13.5820335744
 10
23.4299424511
 20
13.6606324588
 10
23.3194765332
 20
13.7334997732
 10
23.2084472215
 20
13.8006355175
  0
LINE
  5
4FE
100
AcDbEntity
  8
0
100
AcDbLine
 62
7
  6
CONTINUOUS
 10
24.2012343347
 20
-39.0319561297
 11
24.2012343347
 21
-38.3582538455
  0
LINE
  5
4FF
100
AcDbEntity
  8
0
100
AcDbLine
 62
250
  6
CONTINUOUS
 10
24.3780499986
 20
-22.0839607028
 11
24.3780499986
 21
-26.4439177578
  0
LINE
  5
500
100
AcDbEntity
  8
0
100
AcDbLine
 62
7
  6
CONTINUOUS
 10
24.413366369
 20
-38.9094737517
 11
24.413366369
 21
-38.2357714675
  0
LINE
  5
501
100
AcDbEntity
  8
0
100
AcDbLine
 62
250
  6
CONTINUOUS
 10
25.5464441474
 20
-38.2573462173
 11
25.5464441474
 21
-22.0048817559
  0
LINE
  5
502
100
AcDbEntity
  8
0
100
AcDbLine
 62
250
  6
CONTINUOUS
 10
25.5464441474
 20
-6.5013584032
 11
25.5464441474
 21
9.7511060582
  0
LWPOLYLINE
  5
503
100
AcDbEntity
  8
0
100
AcDbPolyline
 62
250
  6
CONTINUOUS
 90
20
 70
0
 10
23.8471924047
 20
-20.8051793742
 10
23.8441616796
 20
-20.9606817748
 10
23.835075505
 20
-21.1123764793
 10
23.8199518717
 20
-21.2599631398
 10
23.798820724
 20
-21.4031495424
 10
23.771723901
 20
-21.5416521846
 10
23.7387150537
 20
-21.6751968369
 10
23.6998595389
 20
-21.8035190873
 10
23.6552342891
 20
-21.9263648649
 10
23.6049276601
 20
-22.0434909421
 10
23.5490392571
 20
-22.1546654156
 10
23.4876797369
 20
-22.2596681655
 10
23.420970589
 20
-22.3582912916
 10
23.3490438866
 20
-22.4503395351
 10
23.2720420485
 20
-22.5356306344
 10
23.1901175627
 20
-22.613995693
 10
23.1034326979
 20
-22.6852795164
 10
23.0121590395
 20
-22.7493410262
 10
22.9164771542
 20
-22.8060534762
 10
22.8689302598
 20
-22.8306855077
  0
LWPOLYLINE
  5
504
100
AcDbEntity
  8
0
100
AcDbPolyline
 62
250
  6
CONTINUOUS
 90
31
 70
0
 10
24.3780499986
 20
-26.4439177578
 10
24.3757263731
 20
-26.545039982
 10
24.3688277096
 20
-26.6427974613
 10
24.357354008
 20
-26.7371901957
 10
24.341257875
 20
-26.8284842719
 10
24.3205867039
 20
-26.9164136032
 10
24.2954826752
 20
-27.0001799295
 10
24.2658728123
 20
-27.0797666543
 10
24.2318300918
 20
-27.1551903741
 10
24.1937156231
 20
-27.2257026192
 10
24.1515219834
 20
-27.2911891259
 10
24.1052565955
 20
-27.3517641578
 10
24.0553028374
 20
-27.4070220363
 10
24.0016652442
 20
-27.4569249048
 10
23.9443392809
 20
-27.5015106197
 10
23.8836947197
 20
-27.5404870721
 10
23.8197106254
 20
-27.573847245
 10
23.7524079332
 20
-27.6015981554
 10
23.6822192209
 20
-27.6234687447
 10
23.6090866442
 20
-27.6394305023
 10
23.5330680473
 20
-27.6495119389
 10
23.454769541
 20
-27.6535275283
 10
23.374088477
 20
-27.6513908499
 10
23.2911275036
 20
-27.6431883244
 10
23.206800676
 20
-27.628993688
 10
23.1210669537
 20
-27.6086794536
 10
23.0339673773
 20
-27.5823731083
 10
22.946539124
 20
-27.55053085
 10
22.8591279196
 20
-27.5133047446
 10
22.7713880384
 20
-27.4705427263
 10
22.7180103675
 20
-27.4412697241
  0
LWPOLYLINE
  5
505
100
AcDbEntity
  8
0
100
AcDbPolyline
 62
7
  6
CONTINUOUS
 90
19
 70
0
 10
20.0622768687
 20
-20.6396642855
 10
20.2027176136
 20
-20.0516124646
 10
20.3267391741
 20
-19.4508673627
 10
20.4343415502
 20
-18.8374289799
 10
20.5255832401
 20
-18.210797476
 10
20.6004057457
 20
-17.5714726912
 10
20.6586335726
 20
-16.9209541456
 10
20.7002277681
 20
-16.2592155639
 10
20.7252272849
 20
-15.5862832214
 10
20.7335734873
 20
-14.9037354638
 10
20.7252272849
 20
-14.2115497209
 10
20.7002277681
 20
-13.5097485631
 10
20.6586335726
 20
-12.7999780471
 10
20.6004057457
 20
-12.0822194664
 10
20.5255832401
 20
-11.3564915276
 10
20.4343415502
 20
-10.6244964073
 10
20.3267391741
 20
-9.8868014976
 10
20.2027176136
 20
-9.1428394064
 10
20.0622768687
 20
-8.3926101336
  0
LWPOLYLINE
  5
506
100
AcDbEntity
  8
0
100
AcDbPolyline
 62
7
  6
CONTINUOUS
 90
19
 70
0
 10
19.9162174624
 20
-20.5553314148
 10
20.0576223143
 20
-19.9679915131
 10
20.1824967
 20
-19.3678497639
 10
20.2908406196
 20
-18.7549061671
 10
20.3827137848
 20
-18.1286542504
 10
20.4580564838
 20
-17.4896004861
 10
20.5166895814
 20
-16.8392642918
 10
20.5585733174
 20
-16.1776188208
 10
20.583747452
 20
-15.5046909197
 10
20.5921521311
 20
-14.8220805452
 10
20.583747452
 20
-14.1297646579
 10
20.5585733174
 20
-13.4277662971
 10
20.5166895814
 20
-12.7177545377
 10
20.4580564838
 20
-11.9997103119
 10
20.3827137848
 20
-11.2736526874
 10
20.2908406196
 20
-10.5413079424
 10
20.1824967
 20
-9.803251503
 10
20.0576223143
 20
-9.0589079432
 10
19.9162174624
 20
-8.3082772629
  0
LWPOLYLINE
  5
507
100
AcDbEntity
  8
0
100
AcDbPolyline
 62
250
  6
CONTINUOUS
 90
4
 70
0
 10
20.0213175706
 20
-26.1488597058
 10
20.0136305214
 20
-26.180107586
 10
20.0083083461
 20
-26.213483473
 10
20.0053797768
 20
-26.2487270908
  0
LINE
  5
508
100
AcDbEntity
  8
0
100
AcDbLine
 62
250
  6
CONTINUOUS
 10
20.0313285647
 20
-26.1199712913
 11
20.0213175706
 21
-26.1488597058
  0
LWPOLYLINE
  5
509
100
AcDbEntity
  8
0
100
AcDbPolyline
 62
7
  6
CONTINUOUS
 90
6
 70
0
 10
14.3239681654
 20
-32.8559908459
 10
14.3153464132
 20
-32.8738170898
 10
14.2985237694
 20
-32.9006258907
 10
14.2797435202
 20
-32.9231338043
 10
14.2590713613
 20
-32.9415798902
 10
14.2385638339
 20
-32.9553684457
  0
LINE
  5
50A
100
AcDbEntity
  8
0
100
AcDbLine
 62
250
  6
CONTINUOUS
 10
17.3346861536
 20
-19.5003482199
 11
17.3738429833
 21
-19.4742035201
  0
LINE
  5
50B
100
AcDbEntity
  8
0
100
AcDbLine
 62
250
  6
CONTINUOUS
 10
17.3738429833
 20
-19.4742035201
 11
17.4161526906
 21
-19.4464663742
  0
LINE
  5
50C
100
AcDbEntity
  8
0
100
AcDbLine
 62
250
  6
CONTINUOUS
 10
17.4161526906
 20
-19.4464663742
 11
17.4618465508
 21
-19.4170295236
  0
LINE
  5
50D
100
AcDbEntity
  8
0
100
AcDbLine
 62
250
  6
CONTINUOUS
 10
17.4618465508
 20
-19.4170295236
 11
17.5115793524
 21
-19.385531685
  0
LINE
  5
50E
100
AcDbEntity
  8
0
100
AcDbLine
 62
250
  6
CONTINUOUS
 10
17.5115793524
 20
-19.385531685
 11
17.5659166572
 21
-19.3516634164
  0
LINE
  5
50F
100
AcDbEntity
  8
0
100
AcDbLine
 62
250
  6
CONTINUOUS
 10
17.5659166572
 20
-19.3516634164
 11
17.6259562414
 21
-19.314815064
  0
LINE
  5
510
100
AcDbEntity
  8
0
100
AcDbLine
 62
250
  6
CONTINUOUS
 10
17.6259562414
 20
-19.314815064
 11
17.6929779378
 21
-19.2743264353
  0
LINE
  5
511
100
AcDbEntity
  8
0
100
AcDbLine
 62
250
  6
CONTINUOUS
 10
17.6929779378
 20
-19.2743264353
 11
17.7673779449
 21
-19.23003145
  0
LINE
  5
512
100
AcDbEntity
  8
0
100
AcDbLine
 62
250
  6
CONTINUOUS
 10
17.7673779449
 20
-19.23003145
 11
17.8493513988
 21
-19.1819429765
  0
LINE
  5
513
100
AcDbEntity
  8
0
100
AcDbLine
 62
250
  6
CONTINUOUS
 10
17.8493513988
 20
-19.1819429765
 11
17.9044906426
 21
-19.1499797447
  0
LINE
  5
514
100
AcDbEntity
  8
0
100
AcDbLine
 62
250
  6
CONTINUOUS
 10
17.0398286001
 20
-19.7977207611
 11
17.0499410671
 21
-19.7921387696
  0
LINE
  5
515
100
AcDbEntity
  8
0
100
AcDbLine
 62
250
  6
CONTINUOUS
 10
17.0499410671
 20
-19.7921387696
 11
17.0614269668
 21
-19.7859001502
  0
LINE
  5
516
100
AcDbEntity
  8
0
100
AcDbLine
 62
250
  6
CONTINUOUS
 10
17.0614269668
 20
-19.7859001502
 11
17.0743371448
 21
-19.7789794425
  0
LINE
  5
517
100
AcDbEntity
  8
0
100
AcDbLine
 62
250
  6
CONTINUOUS
 10
17.0743371448
 20
-19.7789794425
 11
17.0966406852
 21
-19.7671832632
  0
LINE
  5
518
100
AcDbEntity
  8
0
100
AcDbLine
 62
250
  6
CONTINUOUS
 10
17.0966406852
 20
-19.7671832632
 11
17.1229074678
 21
-19.7534700697
  0
LINE
  5
519
100
AcDbEntity
  8
0
100
AcDbLine
 62
250
  6
CONTINUOUS
 10
17.1229074678
 20
-19.7534700697
 11
17.1646567099
 21
-19.7319360251
  0
LINE
  5
51A
100
AcDbEntity
  8
0
100
AcDbLine
 62
250
  6
CONTINUOUS
 10
17.1646567099
 20
-19.7319360251
 11
17.2279096352
 21
-19.6997021619
  0
LINE
  5
51B
100
AcDbEntity
  8
0
100
AcDbLine
 62
250
  6
CONTINUOUS
 10
17.2279096352
 20
-19.6997021619
 11
17.3392105775
 21
-19.6436615975
  0
LINE
  5
51C
100
AcDbEntity
  8
0
100
AcDbLine
 62
250
  6
CONTINUOUS
 10
17.3392105775
 20
-19.6436615975
 11
17.5371965404
 21
-19.5451407916
  0
LINE
  5
51D
100
AcDbEntity
  8
0
100
AcDbLine
 62
250
  6
CONTINUOUS
 10
17.5371965404
 20
-19.5451407916
 11
17.9619689712
 21
-19.3361896509
  0
LWPOLYLINE
  5
51E
100
AcDbEntity
  8
0
100
AcDbPolyline
 62
250
  6
CONTINUOUS
 90
10
 70
0
 10
16.9700698989
 20
-19.8380265775
 10
16.974071086
 20
-19.8360765835
 10
16.978052557
 20
-19.8341131813
 10
16.9820141774
 20
-19.8321364374
 10
16.985955813
 20
-19.8301464186
 10
16.9898773304
 20
-19.8281431922
 10
16.9937785969
 20
-19.8261268265
 10
16.9976594805
 20
-19.8240973897
 10
17.0015198499
 20
-19.8220549506
 10
17.0053595743
 20
-19.819999578
  0
LINE
  5
51F
100
AcDbEntity
  8
0
100
AcDbLine
 62
250
  6
CONTINUOUS
 10
17.0053595743
 20
-19.819999578
 11
17.9697336455
 21
-19.357147229
  0
LWPOLYLINE
  5
520
100
AcDbEntity
  8
0
100
AcDbPolyline
 62
250
  6
CONTINUOUS
 90
14
 70
0
 10
17.4456354299
 20
-18.7517476034
 10
17.4313582701
 20
-18.7579722372
 10
17.3857571801
 20
-18.7791718345
 10
17.3381685762
 20
-18.8033178958
 10
17.2885661034
 20
-18.8305524796
 10
17.2371303675
 20
-18.8609007212
 10
17.1839201342
 20
-18.8944580268
 10
17.1287739277
 20
-18.9315210869
 10
17.0713946031
 20
-18.9724755052
 10
17.0124372592
 20
-19.0170888404
 10
16.9531609979
 20
-19.0646919067
 10
16.8940482528
 20
-19.1149983707
 10
16.8348564772
 20
-19.1681656331
 10
16.7757032216
 20
-19.2240996028
  0
LINE
  5
521
100
AcDbEntity
  8
0
100
AcDbLine
 62
250
  6
CONTINUOUS
 10
17.7144099011
 20
-18.8215440871
 11
16.7757032216
 21
-19.2240996028
  0
LWPOLYLINE
  5
522
100
AcDbEntity
  8
0
100
AcDbPolyline
 62
250
  6
CONTINUOUS
 90
15
 70
0
 10
-17.2972720377
 20
39.7307951808
 10
-17.4787635194
 20
39.8300985267
 10
-17.6597575609
 20
39.918154574
 10
-17.8397580701
 20
39.9947219644
 10
-18.0182716813
 20
40.0595908303
 10
-18.1948090971
 20
40.1125833662
 10
-18.3688864307
 20
40.1535543182
 10
-18.5400265493
 20
40.1823913871
 10
-18.7077603679
 20
40.1990155309
 10
-18.871628126
 20
40.2033811832
 10
-19.0311806655
 20
40.1954763808
 10
-19.1859806738
 20
40.1753227927
 10
-19.3356038683
 20
40.1429756572
 10
-19.479640147
 20
40.0985236325
 10
-19.6176947101
 20
40.0420885584
  0
LWPOLYLINE
  5
523
100
AcDbEntity
  8
0
100
AcDbPolyline
 62
250
  6
CONTINUOUS
 90
17
 70
0
 10
-17.0222279171
 20
39.9062460477
 10
-17.204473878
 20
40.0059622054
 10
-17.3862203319
 20
40.0943843037
 10
-17.5669691239
 20
40.1712699804
 10
-17.7462248384
 20
40.2364084954
 10
-17.923496142
 20
40.2896213029
 10
-18.0982971305
 20
40.3307625438
 10
-18.270148701
 20
40.3597194545
 10
-18.438579804
 20
40.3764126615
 10
-18.6031287247
 20
40.3807964101
 10
-18.7633444229
 20
40.3728586997
 10
-18.9187877915
 20
40.3526213013
 10
-19.0690328013
 20
40.3201396899
 10
-19.2136676442
 20
40.2755029018
 10
-19.35229589
 20
40.2188332891
 10
-19.4845375943
 20
40.1502861724
 10
-19.57420453
 20
40.0946080144
  0
LWPOLYLINE
  5
524
100
AcDbEntity
  8
0
100
AcDbPolyline
 62
250
  6
CONTINUOUS
 90
17
 70
0
 10
-16.9552179499
 20
40.0264718961
 10
-17.1411653393
 20
40.1282148308
 10
-17.3258536862
 20
40.218120862
 10
-17.5092829905
 20
40.2961899897
 10
-17.6920465317
 20
40.3626213281
 10
-17.8735510304
 20
40.417215763
 10
-18.0520166482
 20
40.4593759514
 10
-18.2273038074
 20
40.4889462829
 10
-18.3995520857
 20
40.5060823678
 10
-18.5674003778
 20
40.5106536952
 10
-18.730835928
 20
40.502561281
 10
-18.889871492
 20
40.4819041092
 10
-19.0431842309
 20
40.4488486202
 10
-19.1907201957
 20
40.4032919532
 10
-19.3325333354
 20
40.3453369689
 10
-19.4674626592
 20
40.2754586897
 10
-19.5954519246
 20
40.1935594322
  0
LWPOLYLINE
  5
525
100
AcDbEntity
  8
0
100
AcDbPolyline
 62
250
  6
CONTINUOUS
 90
17
 70
0
 10
-18.3694315123
 20
37.8071816052
 10
-18.480465437
 20
37.8682617573
 10
-18.5909345716
 20
37.9229590414
 10
-18.700838916
 20
37.9712734575
 10
-18.8104893211
 20
38.0133215772
 10
-18.9195749361
 20
38.0489868289
 10
-19.0271632082
 20
38.0779194979
 10
-19.1331767507
 20
38.1000368727
 10
-19.2376929502
 20
38.1154216649
 10
-19.3400114145
 20
38.1239722945
 10
-19.4401201058
 20
38.1256435012
 10
-19.5380310619
 20
38.1204805453
 10
-19.6330800035
 20
38.1085176281
 10
-19.7252483979
 20
38.0897078745
 10
-19.8145547778
 20
38.0640981596
 10
-19.9003904628
 20
38.031863309
 10
-19.9827297263
 20
37.9929593271
  0
LINE
  5
526
100
AcDbEntity
  8
0
100
AcDbLine
 62
250
  6
CONTINUOUS
 10
24.2806066961
 20
15.7242490931
 11
7.3807546257
 21
25.4820118736
  0
LINE
  5
527
100
AcDbEntity
  8
0
100
AcDbLine
 62
250
  6
CONTINUOUS
 10
-0.3974199673
 20
29.9730324002
 11
-17.2972720377
 21
39.7307951808
  0
LINE
  5
528
100
AcDbEntity
  8
0
100
AcDbLine
 62
250
  6
CONTINUOUS
 10
24.5556508167
 20
15.89969996
 11
-17.0222279171
 21
39.9062460477
  0
LINE
  5
529
100
AcDbEntity
  8
0
100
AcDbLine
 62
250
  6
CONTINUOUS
 10
24.6226607839
 20
16.0199258085
 11
-16.9552179499
 21
40.0264718961
  0
LINE
  5
52A
100
AcDbEntity
  8
0
100
AcDbLine
 62
7
  6
CONTINUOUS
 10
24.6226607839
 20
16.8164070286
 11
-16.9552179499
 21
40.8229531163
  0
LINE
  5
52B
100
AcDbEntity
  8
0
100
AcDbLine
 62
7
  6
CONTINUOUS
 10
24.9055034963
 20
16.9797168659
 11
-16.6723752374
 21
40.9862629536
  0
LWPOLYLINE
  5
52C
100
AcDbEntity
  8
0
100
AcDbPolyline
 62
7
  6
CONTINUOUS
 90
31
 70
0
 10
29.1481441835
 20
9.6312476452
 10
29.1421975034
 20
9.8922260263
 10
29.1247861877
 20
10.1577272838
 10
29.0959102363
 20
10.4277514175
 10
29.0554279141
 20
10.7030619415
 10
29.0034809562
 20
10.9828953419
 10
28.9404945681
 20
11.2649610762
 10
28.8663781407
 20
11.5492774671
 10
28.7812222832
 20
11.835826192
 10
28.6857240283
 20
12.1222617412
 10
28.5797984882
 20
12.4085831857
 10
28.4635305508
 20
12.6947914546
 10
28.3378719132
 20
12.9785438247
 10
28.2027454987
 20
13.2598201388
 10
28.058228384
 20
13.5386405541
 10
27.9055034963
 20
13.8127228201
 10
27.7445034682
 20
14.0820280473
 10
27.5752956671
 20
14.3465951251
 10
27.399265123
 20
14.6042584721
 10
27.2163558363
 20
14.8549614239
 10
27.0266238065
 20
15.0987606447
 10
26.8316220621
 20
15.3336605458
 10
26.6313073505
 20
15.5595880835
 10
26.4257229242
 20
15.7766163015
 10
26.2165515697
 20
15.9829687415
 10
26.0037638461
 20
16.1785577794
 10
25.7873891943
 20
16.3634710394
 10
25.5691987226
 20
16.5361949366
 10
25.3497828004
 20
16.6962249425
 10
25.1285510583
 20
16.8440655857
 10
24.9055034963
 20
16.9797168659
  0
LWPOLYLINE
  5
52D
100
AcDbEntity
  8
0
100
AcDbPolyline
 62
250
  6
CONTINUOUS
 90
31
 70
0
 10
27.7484239674
 20
9.717813394
 10
27.7436714471
 20
9.9301189999
 10
27.7294269107
 20
10.1473308009
 10
27.7057293993
 20
10.368853436
 10
27.672643863
 20
10.5940797322
 10
27.6302609849
 20
10.8223923569
 10
27.5786969344
 20
11.0531655086
 10
27.5180930438
 20
11.2857666562
 10
27.4486154237
 20
11.5195582542
 10
27.3704545135
 20
11.7538994769
 10
27.2838245533
 20
11.9881479981
 10
27.1889629871
 20
12.2216617721
 10
27.0861298159
 20
12.4538007736
 10
26.9756068933
 20
12.6839287344
 10
26.857697158
 20
12.9114148806
 10
26.732723795
 20
13.1356356822
 10
26.6010293468
 20
13.3559765671
 10
26.4629747795
 20
13.5718335944
 10
26.3189384981
 20
13.7826151047
 10
26.1693153046
 20
13.9877433508
 10
26.0145152993
 20
14.1866561022
 10
25.8549627613
 20
14.3788081743
 10
25.6910950013
 20
14.5636729019
 10
25.523361179
 20
14.7407435694
 10
25.3522210556
 20
14.9095348224
 10
25.1781437133
 20
15.0695840173
 10
25.0016062876
 20
15.2204524696
 10
24.8230926746
 20
15.3617266453
 10
24.643092175
 20
15.4930193211
 10
24.4620981515
 20
15.613970642
 10
24.2806066961
 20
15.7242490931
  0
LWPOLYLINE
  5
52E
100
AcDbEntity
  8
0
100
AcDbPolyline
 62
250
  6
CONTINUOUS
 90
31
 70
0
 10
28.0378825396
 20
9.8682976984
 10
28.0331102603
 20
10.0814858824
 10
28.0188065011
 20
10.299600661
 10
27.9950104649
 20
10.5220441977
 10
27.9617873715
 20
10.7482067972
 10
27.9192282811
 20
10.9774685578
 10
27.8674498474
 20
11.2092010696
 10
27.8065939859
 20
11.4427691894
 10
27.7368275022
 20
11.6775327025
 10
27.6583416502
 20
11.912848056
 10
27.5713515786
 20
12.148070226
 10
27.4760957169
 20
12.3825545257
 10
27.3728351447
 20
12.6156582905
 10
27.2618528961
 20
12.8467426005
 10
27.1434531688
 20
13.0751740723
 10
27.0179604694
 20
13.300326632
 10
26.8857187631
 20
13.5215831544
 10
26.7470905152
 20
13.7383371909
 10
26.6024556723
 20
13.9499946675
 10
26.4522106665
 20
14.1559754422
 10
26.2967673045
 20
14.3557149362
 10
26.1365516128
 20
14.54866571
 10
25.972002698
 20
14.7342989231
 10
25.8035716004
 20
14.912105726
 10
25.6317200314
 20
15.0815986999
 10
25.4569190356
 20
15.2423132655
 10
25.2796477202
 20
15.3938089252
 10
25.1003919992
 20
15.53567042
 10
24.9196432096
 20
15.6675089145
 10
24.7378967638
 20
15.7889630591
 10
24.5556508167
 20
15.89969996
  0
LWPOLYLINE
  5
52F
100
AcDbEntity
  8
0
100
AcDbPolyline
 62
250
  6
CONTINUOUS
 90
31
 70
0
 10
28.1755062784
 20
9.8662169069
 10
28.1706384028
 20
10.0837341907
 10
28.1561487199
 20
10.3053532153
 10
28.1320372297
 20
10.5310739804
 10
28.0981797074
 20
10.7616532502
 10
28.0547003778
 20
10.9963342606
 10
28.0019719153
 20
11.2328467201
 10
27.9399293484
 20
11.4710669772
 10
27.8686376486
 20
11.7111186833
 10
27.7886644047
 20
11.9511025013
 10
27.6999302697
 20
12.1910495168
 10
27.6025145907
 20
12.4309286442
 10
27.497222997
 20
12.6687472899
 10
27.3839933831
 20
12.9044790194
 10
27.2628878546
 20
13.1381502672
 10
27.1348983579
 20
13.3678477421
 10
26.9999684176
 20
13.5935391109
 10
26.8581545091
 20
13.8152567069
 10
26.7106180042
 20
14.0311842386
 10
26.557305231
 20
14.2412807565
 10
26.3982698614
 20
14.4455872101
 10
26.234834283
 20
14.6424101558
 10
26.0669856425
 20
14.8316655409
 10
25.8947367932
 20
15.0134374182
 10
25.7194486821
 20
15.1862845024
 10
25.5409807593
 20
15.3502129568
 10
25.3594735748
 20
15.5052166182
 10
25.1767097253
 20
15.6498357115
 10
24.9932834098
 20
15.7835836452
 10
24.8086004293
 20
15.9069470108
 10
24.6226607839
 20
16.0199258085
  0
LWPOLYLINE
  5
530
100
AcDbEntity
  8
0
100
AcDbPolyline
 62
7
  6
CONTINUOUS
 90
34
 70
0
 10
28.865301471
 20
9.4679378079
 10
28.8604270669
 20
9.7045959043
 10
28.8460383292
 20
9.9452479271
 10
28.8221352576
 20
10.1898938763
 10
28.788601865
 20
10.4391908153
 10
28.7455541387
 20
10.6924816807
 10
28.6933400406
 20
10.9477952827
 10
28.6319549048
 20
11.2049274779
 10
28.5614033974
 20
11.4640824097
 10
28.4820474789
 20
11.7239013188
 10
28.3937256755
 20
11.984685074
 10
28.296599461
 20
12.2461328064
 10
28.1915152179
 20
12.50598315
 10
28.0785684304
 20
12.7638798663
 10
27.9576636142
 20
13.0201791939
 10
27.8293606986
 20
13.2736884826
 10
27.6934188701
 20
13.524750559
 10
27.5500789422
 20
13.7730225966
 10
27.4006232848
 20
14.0162834657
 10
27.2452283855
 20
14.2541532059
 10
27.0837177566
 20
14.4870117775
 10
26.916844305
 20
14.7137779318
 10
26.7443472559
 20
14.9347124891
 10
26.566487384
 20
15.1495546291
 10
26.3847999208
 20
15.3564406416
 10
26.1994646901
 20
15.5550802509
 10
26.0103018681
 20
15.7457637327
 10
25.818307215
 20
15.9274982049
 10
25.6233015985
 20
16.1003817087
 10
25.425464151
 20
16.2643162028
 10
25.22632803
 20
16.4180146824
 10
25.026404288
 20
16.5610481457
 10
24.8251818727
 20
16.6938455945
 10
24.6226607839
 20
16.8164070286
  0
LINE
  5
531
100
AcDbEntity
  8
0
100
AcDbLine
 62
250
  6
CONTINUOUS
 10
27.7484239674
 20
-38.2906388814
 11
27.7484239674
 21
-18.7769992661
  0
LINE
  5
532
100
AcDbEntity
  8
0
100
AcDbLine
 62
250
  6
CONTINUOUS
 10
27.7484239674
 20
-9.7958262214
 11
27.7484239674
 21
9.717813394
  0
LINE
  5
533
100
AcDbEntity
  8
0
100
AcDbLine
 62
250
  6
CONTINUOUS
 10
28.0378825396
 20
-38.140154577
 11
28.0378825396
 21
9.8682976984
  0
LINE
  5
534
100
AcDbEntity
  8
0
100
AcDbLine
 62
250
  6
CONTINUOUS
 10
28.1755062784
 20
-38.1422353685
 11
28.1755062784
 21
9.8662169069
  0
LINE
  5
535
100
AcDbEntity
  8
0
100
AcDbLine
 62
7
  6
CONTINUOUS
 10
28.865301471
 20
-38.5405144675
 11
28.865301471
 21
9.4679378079
  0
LINE
  5
536
100
AcDbEntity
  8
0
100
AcDbLine
 62
7
  6
CONTINUOUS
 10
29.1481441835
 20
-38.3772046302
 11
29.1481441835
 21
9.6312476452
  0
LWPOLYLINE
  5
537
100
AcDbEntity
  8
0
100
AcDbPolyline
 62
250
  6
CONTINUOUS
 90
25
 70
0
 10
19.2364091686
 20
-26.5784928914
 10
19.2663704804
 20
-26.5059116252
 10
19.2972965942
 20
-26.4370412049
 10
19.3289147527
 20
-26.3718575882
 10
19.3608731478
 20
-26.310320294
 10
19.3930266202
 20
-26.2523760479
 10
19.4254636714
 20
-26.1979995599
 10
19.4581195225
 20
-26.1470451463
 10
19.490710483
 20
-26.0995977959
 10
19.5230358789
 20
-26.0559980795
 10
19.5549369498
 20
-26.0162802729
 10
19.5862905141
 20
-25.9802957356
 10
19.6169679325
 20
-25.9480984537
 10
19.6468196157
 20
-25.9197035664
 10
19.6757949068
 20
-25.8949586112
 10
19.7039288172
 20
-25.8736744073
 10
19.7311335729
 20
-25.8557989502
 10
19.7573571035
 20
-25.841265168
 10
19.7826881026
 20
-25.8298866852
 10
19.8072033585
 20
-25.8216203488
 10
19.8307057565
 20
-25.816423939
 10
19.8528995458
 20
-25.8141007886
 10
19.8736949637
 20
-25.814527665
 10
19.8931778609
 20
-25.8176829467
 10
19.9113563641
 20
-25.8235010819
  0
LWPOLYLINE
  5
538
100
AcDbEntity
  8
0
100
AcDbPolyline
 62
250
  6
CONTINUOUS
 90
3
 70
0
 10
20.0558448887
 20
-26.0737815914
 10
20.0435950187
 20
-26.0936901337
 10
20.0313285647
 20
-26.1199712913
  0
LINE
  5
539
100
AcDbEntity
  8
0
100
AcDbLine
 62
250
  6
CONTINUOUS
 10
20.23366282
 20
-22.3816408973
 11
17.0053595743
 21
-24.3085957224
  0
LINE
  5
53A
100
AcDbEntity
  8
0
100
AcDbLine
 62
250
  6
CONTINUOUS
 10
20.3626477561
 20
-22.4691934034
 11
20.0862462578
 21
-22.6341757982
  0
LINE
  5
53B
100
AcDbEntity
  8
0
100
AcDbLine
 62
7
  6
CONTINUOUS
 10
19.9162174624
 20
-20.5553314148
 11
20.1090012607
 21
-20.4440204658
  0
LINE
  5
53C
100
AcDbEntity
  8
0
100
AcDbLine
 62
250
  6
CONTINUOUS
 10
19.1582591582
 20
-23.0800849597
 11
18.1273981279
 21
-23.6778041631
  0
LINE
  5
53D
100
AcDbEntity
  8
0
100
AcDbLine
 62
250
  6
CONTINUOUS
 10
18.1273981279
 20
-23.6778041631
 11
17.5846819584
 21
-23.9897362383
  0
LINE
  5
53E
100
AcDbEntity
  8
0
100
AcDbLine
 62
250
  6
CONTINUOUS
 10
17.5846819584
 20
-23.9897362383
 11
17.3491854089
 21
-24.1236372288
  0
LINE
  5
53F
100
AcDbEntity
  8
0
100
AcDbLine
 62
250
  6
CONTINUOUS
 10
17.3491854089
 20
-24.1236372288
 11
17.2371075391
 21
-24.1866757715
  0
LINE
  5
540
100
AcDbEntity
  8
0
100
AcDbLine
 62
250
  6
CONTINUOUS
 10
17.2371075391
 20
-24.1866757715
 11
17.1693855487
 21
-24.2243595499
  0
LINE
  5
541
100
AcDbEntity
  8
0
100
AcDbLine
 62
250
  6
CONTINUOUS
 10
17.1693855487
 20
-24.2243595499
 11
17.1299232657
 21
-24.2460825342
  0
LINE
  5
542
100
AcDbEntity
  8
0
100
AcDbLine
 62
250
  6
CONTINUOUS
 10
17.1299232657
 20
-24.2460825342
 11
17.1032840553
 21
-24.2605955211
  0
LINE
  5
543
100
AcDbEntity
  8
0
100
AcDbLine
 62
250
  6
CONTINUOUS
 10
17.1032840553
 20
-24.2605955211
 11
17.0808671083
 21
-24.2726687224
  0
LINE
  5
544
100
AcDbEntity
  8
0
100
AcDbLine
 62
250
  6
CONTINUOUS
 10
17.0808671083
 20
-24.2726687224
 11
17.0665735071
 21
-24.2802723308
  0
LWPOLYLINE
  5
545
100
AcDbEntity
  8
0
100
AcDbPolyline
 62
250
  6
CONTINUOUS
 90
19
 70
0
 10
25.2784138993
 20
-21.6384532714
 10
25.3745738046
 20
-21.588095867
 10
25.4824569065
 20
-21.52531009
 10
25.5963673078
 20
-21.4522843373
 10
25.7161769387
 20
-21.3683897994
 10
25.8411888839
 20
-21.2733565916
 10
25.9710939337
 20
-21.1667459279
 10
26.1053234443
 20
-21.048303134
 10
26.2435262652
 20
-20.9175233701
 10
26.3856502972
 20
-20.7735714393
 10
26.5310213353
 20
-20.6161909929
 10
26.6791390143
 20
-20.444866491
 10
26.830000439
 20
-20.2582135076
 10
26.9828155632
 20
-20.0559219745
 10
27.1367693021
 20
-19.8374811787
 10
27.2914327535
 20
-19.6009473301
 10
27.445799701
 20
-19.3453122266
 10
27.5985317782
 20
-19.0707408966
 10
27.7484239674
 20
-18.7769992661
  0
LINE
  5
546
100
AcDbEntity
  8
0
100
AcDbLine
 62
250
  6
CONTINUOUS
 10
17.0665735071
 20
-24.2802723308
 11
17.0541691188
 21
-24.2867862542
  0
LINE
  5
547
100
AcDbEntity
  8
0
100
AcDbLine
 62
250
  6
CONTINUOUS
 10
23.8471924047
 20
-20.8051793742
 11
27.7484239674
 21
-18.7769992661
  0
LINE
  5
548
100
AcDbEntity
  8
0
100
AcDbLine
 62
250
  6
CONTINUOUS
 10
17.0541691188
 20
-24.2867862542
 11
17.0468069751
 21
-24.2906021444
  0
LINE
  5
549
100
AcDbEntity
  8
0
100
AcDbLine
 62
250
  6
CONTINUOUS
 10
17.0468069751
 20
-24.2906021444
 11
17.0400945289
 21
-24.294037556
  0
LINE
  5
54A
100
AcDbEntity
  8
0
100
AcDbLine
 62
250
  6
CONTINUOUS
 10
17.0400945289
 20
-24.294037556
 11
17.0339520149
 21
-24.2971345528
  0
LINE
  5
54B
100
AcDbEntity
  8
0
100
AcDbLine
 62
7
  6
CONTINUOUS
 10
25.2783751285
 20
-21.6384724558
 11
22.8689302597
 21
-22.8306855078
  0
LWPOLYLINE
  5
54C
100
AcDbEntity
  8
0
100
AcDbPolyline
 62
250
  6
CONTINUOUS
 90
16
 70
0
 10
17.0339520149
 20
-24.2971345528
 10
17.028311974
 20
-24.2999241893
 10
17.0256716387
 20
-24.30120796
 10
17.0231464528
 20
-24.3024167623
 10
17.020728911
 20
-24.303555515
 10
17.0184266355
 20
-24.3046193715
 10
17.0162560343
 20
-24.3055938829
 10
17.0141996841
 20
-24.3064882167
 10
17.0122752342
 20
-24.3072933433
 10
17.0105517546
 20
-24.3079675503
 10
17.0090234477
 20
-24.3085188559
 10
17.0076963346
 20
-24.3089393846
 10
17.0066573772
 20
-24.3091636814
 10
17.00593584
 20
-24.3091701006
 10
17.0055031238
 20
-24.3089807065
 10
17.0053595743
 20
-24.3085957224
  0
LWPOLYLINE
  5
54D
100
AcDbEntity
  8
0
100
AcDbPolyline
 62
250
  6
CONTINUOUS
 90
10
 70
0
 10
16.9700698989
 20
-24.3266227218
 10
16.9740710854
 20
-24.3246727247
 10
16.9780525562
 20
-24.3227093202
 10
16.9820141763
 20
-24.3207325748
 10
16.9859558118
 20
-24.3187425555
 10
16.9898773293
 20
-24.3167393296
 10
16.9937785959
 20
-24.3147229648
 10
16.9976594798
 20
-24.3126935295
 10
17.0015198494
 20
-24.3106510923
 10
17.0053595743
 20
-24.3085957224
  0
LWPOLYLINE
  5
54E
100
AcDbEntity
  8
0
100
AcDbPolyline
 62
250
  6
CONTINUOUS
 90
16
 70
0
 10
23.8471924047
 20
-20.8051793742
 10
23.8079299353
 20
-20.8236025053
 10
23.7656439836
 20
-20.8396404114
 10
23.7207674977
 20
-20.853128887
 10
23.6737599491
 20
-20.8639298292
 10
23.6251026287
 20
-20.8719326518
 10
23.5752937183
 20
-20.8770554172
 10
23.5248431906
 20
-20.8792456755
 10
23.4742675875
 20
-20.8784810015
 10
23.4240847314
 20
-20.8747692246
 10
23.3748084236
 20
-20.8681483479
 10
23.3269431838
 20
-20.8586861599
 10
23.280979084
 20
-20.8464795399
 10
23.2373867315
 20
-20.8316534666
 10
23.1966124502
 20
-20.8143597377
 10
23.1590737109
 20
-20.7947754166
  0
LINE
  5
54F
100
AcDbEntity
  8
0
100
AcDbLine
 62
250
  6
CONTINUOUS
 10
19.2364091686
 20
-23.5392791511
 11
19.0101486483
 21
-23.6408578361
  0
LINE
  5
550
100
AcDbEntity
  8
0
100
AcDbLine
 62
250
  6
CONTINUOUS
 10
19.0101486483
 20
-23.6408578361
 11
18.8083798443
 21
-23.7301962119
  0
LINE
  5
551
100
AcDbEntity
  8
0
100
AcDbLine
 62
250
  6
CONTINUOUS
 10
18.8083798443
 20
-23.7301962119
 11
18.6274397051
 21
-23.8091578862
  0
LINE
  5
552
100
AcDbEntity
  8
0
100
AcDbLine
 62
250
  6
CONTINUOUS
 10
18.6274397051
 20
-23.8091578862
 11
18.4639158781
 21
-23.8794326766
  0
LINE
  5
553
100
AcDbEntity
  8
0
100
AcDbLine
 62
250
  6
CONTINUOUS
 10
18.4639158781
 20
-23.8794326766
 11
18.3145233841
 21
-23.9425894963
  0
LINE
  5
554
100
AcDbEntity
  8
0
100
AcDbLine
 62
250
  6
CONTINUOUS
 10
18.3145233841
 20
-23.9425894963
 11
18.2219310122
 21
-23.9811597662
  0
LINE
  5
555
100
AcDbEntity
  8
0
100
AcDbLine
 62
250
  6
CONTINUOUS
 10
18.2219310122
 20
-23.9811597662
 11
18.1346684088
 21
-24.0170623481
  0
LINE
  5
556
100
AcDbEntity
  8
0
100
AcDbLine
 62
250
  6
CONTINUOUS
 10
18.1346684088
 20
-24.0170623481
 11
18.0525959066
 21
-24.0503815763
  0
LINE
  5
557
100
AcDbEntity
  8
0
100
AcDbLine
 62
250
  6
CONTINUOUS
 10
18.0525959066
 20
-24.0503815763
 11
17.975522445
 21
-24.0812360509
  0
LINE
  5
558
100
AcDbEntity
  8
0
100
AcDbLine
 62
250
  6
CONTINUOUS
 10
17.975522445
 20
-24.0812360509
 11
17.9032794943
 21
-24.1097359026
  0
LINE
  5
559
100
AcDbEntity
  8
0
100
AcDbLine
 62
250
  6
CONTINUOUS
 10
17.9032794943
 20
-24.1097359026
 11
17.8357474608
 21
-24.1359576377
  0
LWPOLYLINE
  5
55A
100
AcDbEntity
  8
0
100
AcDbPolyline
 62
250
  6
CONTINUOUS
 90
19
 70
0
 10
20.0862462578
 20
-22.6341757982
 10
20.0534183483
 20
-22.6468038938
 10
20.016314314
 20
-22.6615537877
 10
19.9749685868
 20
-22.6784624045
 10
19.9288484892
 20
-22.697823134
 10
19.878552538
 20
-22.7194135257
 10
19.8257975451
 20
-22.7425319199
 10
19.7703060602
 20
-22.7674170913
 10
19.7123710385
 20
-22.7939598275
 10
19.6545266829
 20
-22.820981189
 10
19.5973644125
 20
-22.8482543785
 10
19.5402364133
 20
-22.876118878
 10
19.4837917938
 20
-22.9042496774
 10
19.428253242
 20
-22.9325164001
 10
19.3733324746
 20
-22.9610987396
 10
19.3189080443
 20
-22.9901270951
 10
19.2649205441
 20
-23.0196500463
 10
19.2113767983
 20
-23.0496348828
 10
19.1582591582
 20
-23.0800849597
  0
LINE
  5
55B
100
AcDbEntity
  8
0
100
AcDbLine
 62
250
  6
CONTINUOUS
 10
17.8357474608
 20
-24.1359576377
 11
17.7727438969
 21
-24.1600176601
  0
LINE
  5
55C
100
AcDbEntity
  8
0
100
AcDbLine
 62
250
  6
CONTINUOUS
 10
17.7727438969
 20
-24.1600176601
 11
17.714069012
 21
-24.1820392581
  0
LINE
  5
55D
100
AcDbEntity
  8
0
100
AcDbLine
 62
250
  6
CONTINUOUS
 10
17.714069012
 20
-24.1820392581
 11
17.6595673183
 21
-24.2021121911
  0
LINE
  5
55E
100
AcDbEntity
  8
0
100
AcDbLine
 62
250
  6
CONTINUOUS
 10
17.6595673183
 20
-24.2021121911
 11
17.6089716925
 21
-24.2203835924
  0
LINE
  5
55F
100
AcDbEntity
  8
0
100
AcDbLine
 62
250
  6
CONTINUOUS
 10
17.6089716925
 20
-24.2203835924
 11
17.5620007979
 21
-24.2370007376
  0
LINE
  5
560
100
AcDbEntity
  8
0
100
AcDbLine
 62
250
  6
CONTINUOUS
 10
17.5620007979
 20
-24.2370007376
 11
17.5184639783
 21
-24.2520611365
  0
LINE
  5
561
100
AcDbEntity
  8
0
100
AcDbLine
 62
250
  6
CONTINUOUS
 10
17.5184639783
 20
-24.2520611365
 11
17.4780710163
 21
-24.2657107538
  0
LINE
  5
562
100
AcDbEntity
  8
0
100
AcDbLine
 62
250
  6
CONTINUOUS
 10
17.4780710163
 20
-24.2657107538
 11
17.4405059843
 21
-24.278095084
  0
LWPOLYLINE
  5
563
100
AcDbEntity
  8
0
100
AcDbPolyline
 62
250
  6
CONTINUOUS
 90
3
 70
0
 10
17.4405059843
 20
-24.278095084
 10
17.4055682221
 20
-24.2893052403
 10
17.3889767034
 20
-24.2945187074
  0
LWPOLYLINE
  5
564
100
AcDbEntity
  8
0
100
AcDbPolyline
 62
250
  6
CONTINUOUS
 90
62
 70
0
 10
17.3889767034
 20
-24.2945187074
 10
17.3574467881
 20
-24.3042010148
 10
17.3423973693
 20
-24.3087146815
 10
17.3278324001
 20
-24.3130070588
 10
17.313685402
 20
-24.3171051842
 10
17.2999474327
 20
-24.3210122896
 10
17.2866274344
 20
-24.3247251433
 10
17.2736857547
 20
-24.3282610874
 10
17.2611190672
 20
-24.3316213846
 10
17.2489306982
 20
-24.3348047724
 10
17.2370909742
 20
-24.337824805
 10
17.2255976702
 20
-24.340682302
 10
17.2144530111
 20
-24.3433764439
 10
17.2036339975
 20
-24.3459183264
 10
17.1931397802
 20
-24.3483083225
 10
17.1829712083
 20
-24.3505460593
 10
17.1731078306
 20
-24.3526415139
 10
17.1635482583
 20
-24.3545951024
 10
17.15429388
 20
-24.3564064087
 10
17.1453284103
 20
-24.3580841622
 10
17.1366512011
 20
-24.3596285375
 10
17.1282629005
 20
-24.3610393601
 10
17.120149167
 20
-24.3623248354
 10
17.1123071383
 20
-24.3634852015
 10
17.1047396768
 20
-24.3645202204
 10
17.0974410284
 20
-24.3654373833
 10
17.0904112227
 20
-24.366236238
 10
17.0836502301
 20
-24.3669172368
 10
17.0771522081
 20
-24.3674892277
 10
17.0709211323
 20
-24.3679515745
 10
17.064953027
 20
-24.3683049134
 10
17.0592301224
 20
-24.3685600011
 10
17.0537546647
 20
-24.3687170421
 10
17.0485244077
 20
-24.3687758318
 10
17.0435148424
 20
-24.3687465134
 10
17.0387277212
 20
-24.3686300272
 10
17.0341612917
 20
-24.3684254328
 10
17.0297857887
 20
-24.3681400515
 10
17.0256006455
 20
-24.3677754362
 10
17.0216064287
 20
-24.3673300341
 10
17.0177750721
 20
-24.3668065079
 10
17.0141060576
 20
-24.3662073801
 10
17.0105999034
 20
-24.3655301283
 10
17.0072300976
 20
-24.3647698478
 10
17.0039944877
 20
-24.3639300368
 10
17.0008952262
 20
-24.3630071971
 10
16.9979122589
 20
-24.361985929
 10
16.9950405763
 20
-24.3608710986
 10
16.9922851879
 20
-24.3596578397
 10
16.9896410681
 20
-24.3583161542
 10
16.9871009235
 20
-24.3568531628
 10
16.9846720476
 20
-24.3552617447
 10
16.9823712951
 20
-24.3534905391
 10
16.9801810157
 20
-24.3515358085
 10
16.9781188598
 20
-24.3494012904
 10
16.9762546339
 20
-24.347046836
 10
16.9745855148
 20
-24.3445182634
 10
16.9731143256
 20
-24.3417697545
 10
16.9719193419
 20
-24.3386237062
 10
16.9710266555
 20
-24.3350209175
 10
16.9704101745
 20
-24.3310205893
 10
16.9700698989
 20
-24.3266227218
  0
LWPOLYLINE
  5
565
100
AcDbEntity
  8
0
100
AcDbPolyline
 62
7
  6
CONTINUOUS
 90
16
 70
0
 10
-16.6723752374
 20
40.9862629536
 10
-16.8954227994
 20
41.108181407
 10
-17.1166545415
 20
41.2158136343
 10
-17.3360704637
 20
41.3091596354
 10
-17.5542609354
 20
41.3883966259
 10
-17.7706355873
 20
41.4533473902
 10
-17.9834233108
 20
41.5034802817
 10
-18.1925946653
 20
41.5386736788
 10
-18.3981790916
 20
41.5590492031
 10
-18.5984938032
 20
41.5644400733
 10
-18.7934955476
 20
41.5547232988
 10
-18.9832275774
 20
41.5300218701
 10
-19.1661368641
 20
41.4905379779
 10
-19.3421674082
 20
41.4361502909
 10
-19.5113752093
 20
41.3669801404
 10
-19.6725201982
 20
41.2835100196
  0
LWPOLYLINE
  5
566
100
AcDbEntity
  8
0
100
AcDbPolyline
 62
7
  6
CONTINUOUS
 90
15
 70
0
 10
-16.9552179499
 20
40.8229531163
 10
-17.1577390387
 20
40.9342579591
 10
-17.3589614541
 20
41.0338271119
 10
-17.558885196
 20
41.1216605744
 10
-17.758021317
 20
41.1979194958
 10
-17.9558587646
 20
41.2624427271
 10
-18.1508643811
 20
41.3147468214
 10
-18.3428590341
 20
41.3547229619
 10
-18.5320218562
 20
41.3824799655
 10
-18.7173570869
 20
41.3978608351
 10
-18.89904455
 20
41.4007829508
 10
-19.0769044219
 20
41.3913289327
 10
-19.2494014711
 20
41.3695896439
 10
-19.4162749227
 20
41.3355247687
 10
-19.5777855515
 20
41.2891746229
  0
LINE
  5
567
100
AcDbEntity
  8
0
100
AcDbLine
 62
7
  6
CONTINUOUS
 10
21.1909959143
 20
-37.293882193
 11
21.3424475803
 21
-36.894157002
  0
LINE
  5
568
100
AcDbEntity
  8
0
100
AcDbLine
 62
7
  6
CONTINUOUS
 10
21.4031279487
 20
-37.171399815
 11
21.4784250745
 21
-36.9726687029
  0
LINE
  5
569
100
AcDbEntity
  8
0
100
AcDbLine
 62
7
  6
CONTINUOUS
 10
21.4030211756
 20
-36.7286585908
 11
21.6372736314
 21
-36.120570723
  0
LINE
  5
56A
100
AcDbEntity
  8
0
100
AcDbLine
 62
7
  6
CONTINUOUS
 10
21.6151532099
 20
-36.6061762128
 11
21.7020023878
 21
-36.3807274285
  0
LINE
  5
56B
100
AcDbEntity
  8
0
100
AcDbLine
 62
7
  6
CONTINUOUS
 10
21.5342849429
 20
-35.8183289082
 11
20.989134606
 21
-37.1773300034
  0
LWPOLYLINE
  5
56C
100
AcDbEntity
  8
0
100
AcDbPolyline
 62
250
  6
CONTINUOUS
 90
11
 70
0
 10
22.8700079531
 20
-26.8706730896
 10
22.8886943012
 20
-26.8324792838
 10
22.9047105229
 20
-26.7941730942
 10
22.9181278476
 20
-26.7553048135
 10
22.9296618229
 20
-26.715605889
 10
22.9394724606
 20
-26.6756650876
 10
22.9473997489
 20
-26.6348936424
 10
22.9536791999
 20
-26.5912567004
 10
22.9583893176
 20
-26.5440759771
 10
22.961451598
 20
-26.494029757
 10
22.9628660411
 20
-26.44111804
  0
LWPOLYLINE
  5
56D
100
AcDbEntity
  8
0
100
AcDbPolyline
 62
250
  6
CONTINUOUS
 90
3
 70
0
 10
22.8243367072
 20
-26.9442938584
 10
22.8487227081
 20
-26.9083048042
 10
22.8700079531
 20
-26.8706730896
  0
LWPOLYLINE
  5
56E
100
AcDbEntity
  8
0
100
AcDbPolyline
 62
250
  6
CONTINUOUS
 90
14
 70
0
 10
19.2364091686
 20
-26.5784928914
 10
19.2942694279
 20
-26.5237229656
 10
19.3518744636
 20
-26.4718852563
 10
19.4090837913
 20
-26.4230401693
 10
19.4657557252
 20
-26.3772815976
 10
19.5217356067
 20
-26.3345499724
 10
19.5769007692
 20
-26.29468451
 10
19.6312807465
 20
-26.2575993552
 10
19.6846423295
 20
-26.223412133
 10
19.736502128
 20
-26.1922833834
 10
19.7866621212
 20
-26.164222598
 10
19.8351026471
 20
-26.1391468017
 10
19.8816062752
 20
-26.1170527144
 10
19.9063010056
 20
-26.1061582058
  0
LWPOLYLINE
  5
56F
100
AcDbEntity
  8
0
100
AcDbPolyline
 62
250
  6
CONTINUOUS
 90
22
 70
0
 10
25.5464441474
 20
-22.0048817559
 10
25.6180813842
 20
-21.9622163649
 10
25.694437122
 20
-21.9111897192
 10
25.7753252814
 20
-21.8515860701
 10
25.8603195845
 20
-21.7835171538
 10
25.9493670795
 20
-21.7064652176
 10
26.0428628773
 20
-21.6192060093
 10
26.1407680076
 20
-21.5212319019
 10
26.242572936
 20
-21.4124930022
 10
26.3479655172
 20
-21.292381197
 10
26.4563677318
 20
-21.1607561583
 10
26.5674959541
 20
-21.0172621474
 10
26.6814168174
 20
-20.8609112067
 10
26.7974271467
 20
-20.6915380552
 10
26.9150377068
 20
-20.5087618617
 10
27.0345195248
 20
-20.3111051588
 10
27.1548971357
 20
-20.0983039094
 10
27.2753935128
 20
-19.8699827031
 10
27.3962793681
 20
-19.6242340534
 10
27.5166553845
 20
-19.3600912553
 10
27.6345843933
 20
-19.0777570239
 10
27.7484239674
 20
-18.7769992661
  0
LWPOLYLINE
  5
570
100
AcDbEntity
  8
0
100
AcDbPolyline
 62
250
  6
CONTINUOUS
 90
16
 70
0
 10
23.6899313049
 20
-26.4335138003
 10
23.7291935431
 20
-26.4150907668
 10
23.7714792565
 20
-26.3990529221
 10
23.8163555083
 20
-26.3855644735
 10
23.8633628323
 20
-26.3747635277
 10
23.912019952
 20
-26.3667606733
 10
23.96182871
 20
-26.361637851
 10
24.0122791417
 20
-26.3594475188
 10
24.0628547075
 20
-26.3602121104
 10
24.1130375983
 20
-26.3639238069
 10
24.1623140116
 20
-26.3705446159
 10
24.2101794193
 20
-26.3800067592
 10
24.2561437458
 20
-26.392213369
 10
24.2997363714
 20
-26.407039477
 10
24.3405109527
 20
-26.4243332924
 10
24.3780499986
 20
-26.4439177578
  0
LINE
  5
571
100
AcDbEntity
  8
0
100
AcDbLine
 62
250
  6
CONTINUOUS
 10
23.6899313049
 20
-26.4335138003
 11
23.6509847349
 21
-26.4515219975
  0
LINE
  5
572
100
AcDbEntity
  8
0
100
AcDbLine
 62
7
  6
CONTINUOUS
 10
19.9063010056
 20
-26.1061582058
 11
19.9064666827
 21
-26.1060871635
  0
LINE
  5
573
100
AcDbEntity
  8
0
100
AcDbLine
 62
250
  6
CONTINUOUS
 10
20.0053797771
 20
-26.2487270906
 11
19.2364091686
 21
-26.5784928914
  0
LWPOLYLINE
  5
574
100
AcDbEntity
  8
0
100
AcDbPolyline
 62
7
  6
CONTINUOUS
 90
9
 70
0
 10
19.9064739618
 20
-26.1060881325
 10
19.9207335932
 20
-26.1001765447
 10
19.9463709298
 20
-26.0906229461
 10
19.9702698931
 20
-26.0830763235
 10
19.991787324
 20
-26.0775548822
 10
20.0106853328
 20
-26.0738916272
 10
20.0266831726
 20
-26.0718657436
 10
20.0390356744
 20
-26.0711818759
 10
20.0437145479
 20
-26.0711942721
  0
LWPOLYLINE
  5
575
100
AcDbEntity
  8
0
100
AcDbPolyline
 62
250
  6
CONTINUOUS
 90
17
 70
0
 10
23.2790705108
 20
-27.3064490765
 10
23.3298502294
 20
-27.2697447438
 10
23.3760728996
 20
-27.2291130522
 10
23.4181206292
 20
-27.1848131839
 10
23.4558130479
 20
-27.1377075687
 10
23.4892354145
 20
-27.0884846678
 10
23.5186872848
 20
-27.0375388549
 10
23.5444168528
 20
-26.9853750431
 10
23.5664833557
 20
-26.9328953573
 10
23.5853196033
 20
-26.8801276717
 10
23.601588964
 20
-26.8260502985
 10
23.615274143
 20
-26.7713562876
 10
23.6265872222
 20
-26.7157932983
 10
23.6360560804
 20
-26.6564410322
 10
23.6435431459
 20
-26.5921465361
 10
23.648607081
 20
-26.5238528678
 10
23.6509847349
 20
-26.4515219975
  0
LWPOLYLINE
  5
576
100
AcDbEntity
  8
0
100
AcDbPolyline
 62
7
  6
CONTINUOUS
 90
14
 70
0
 10
14.3861212431
 20
-33.1766784395
 10
14.3977700104
 20
-33.1695687853
 10
14.4248487632
 20
-33.1498243795
 10
14.4493496187
 20
-33.127088584
 10
14.4715733409
 20
-33.101139239
 10
14.4916745452
 20
-33.0718805141
 10
14.5095675388
 20
-33.0394770015
 10
14.5253380145
 20
-33.0037641089
 10
14.5393976665
 20
-32.9641522292
 10
14.5521960428
 20
-32.9205708459
 10
14.5632835953
 20
-32.8730904754
 10
14.5717233737
 20
-32.8213330601
 10
14.5772030613
 20
-32.7651725807
 10
14.577601471
 20
-32.7566698867
  0
LWPOLYLINE
  5
577
100
AcDbEntity
  8
0
100
AcDbPolyline
 62
7
  6
CONTINUOUS
 90
11
 70
0
 10
14.5981191843
 20
-33.0539654037
 10
14.614511002
 20
-33.0439768425
 10
14.6464515893
 20
-33.0196998759
 10
14.6750976991
 20
-32.9904144984
 10
14.6999210923
 20
-32.9557822694
 10
14.7214500081
 20
-32.9161416295
 10
14.7402817998
 20
-32.8724647899
 10
14.7568184187
 20
-32.8254480386
 10
14.7706579135
 20
-32.7743950877
 10
14.7811917839
 20
-32.7181892846
 10
14.7861045752
 20
-32.6750215865
  0
LINE
  5
578
100
AcDbEntity
  8
0
100
AcDbLine
 62
7
  6
CONTINUOUS
 10
15.2594646215
 20
-32.6637246849
 11
15.0473325871
 21
-32.7862070629
  0
LINE
  5
579
100
AcDbEntity
  8
0
100
AcDbLine
 62
7
  6
CONTINUOUS
 10
14.3858705051
 20
-33.1762443856
 11
14.5980025394
 21
-33.0537620076
  0
LINE
  5
57A
100
AcDbEntity
  8
0
100
AcDbLine
 62
7
  6
CONTINUOUS
 10
16.1195228421
 20
-32.4469483781
 11
15.9073908077
 21
-32.5694307561
  0
LINE
  5
57B
100
AcDbEntity
  8
0
100
AcDbLine
 62
7
  6
CONTINUOUS
 10
16.1195228421
 20
-32.647421224
 11
15.9073908077
 21
-32.769903602
  0
LINE
  5
57C
100
AcDbEntity
  8
0
100
AcDbLine
 62
7
  6
CONTINUOUS
 10
15.2594646215
 20
-33.4236527621
 11
15.0473325871
 21
-33.5461351401
  0
LINE
  5
57D
100
AcDbEntity
  8
0
100
AcDbLine
 62
7
  6
CONTINUOUS
 10
16.0528999483
 20
-33.1218442985
 11
15.8407679139
 21
-33.2443266765
  0
LINE
  5
57E
100
AcDbEntity
  8
0
100
AcDbLine
 62
7
  6
CONTINUOUS
 10
16.0528999483
 20
-33.3223171444
 11
15.8407679139
 21
-33.4447995224
  0
LINE
  5
57F
100
AcDbEntity
  8
0
100
AcDbLine
 62
7
  6
CONTINUOUS
 10
16.981655714
 20
-32.9447330933
 11
16.7695236796
 21
-33.0672154713
  0
LINE
  5
580
100
AcDbEntity
  8
0
100
AcDbLine
 62
7
  6
CONTINUOUS
 10
17.1774790375
 20
-33.057799026
 11
16.9653470032
 21
-33.180281404
  0
LINE
  5
581
100
AcDbEntity
  8
0
100
AcDbLine
 62
7
  6
CONTINUOUS
 10
16.1336727559
 20
-33.9284095825
 11
15.9215407215
 21
-34.0508919605
  0
LINE
  5
582
100
AcDbEntity
  8
0
100
AcDbLine
 62
7
  6
CONTINUOUS
 10
17.5125741127
 20
-33.2512787227
 11
17.3004420783
 21
-33.3737611007
  0
LINE
  5
583
100
AcDbEntity
  8
0
100
AcDbLine
 62
7
  6
CONTINUOUS
 10
16.1336727559
 20
-34.1288824284
 11
15.9215407215
 21
-34.2513648064
  0
LWPOLYLINE
  5
584
100
AcDbEntity
  8
0
100
AcDbPolyline
 62
250
  6
CONTINUOUS
 90
3
 70
0
 10
23.2001866102
 20
-27.350133795
 10
23.2239916669
 20
-27.3384767443
 10
23.2790705108
 20
-27.3064490765
  0
LWPOLYLINE
  5
585
100
AcDbEntity
  8
0
100
AcDbPolyline
 62
7
  6
CONTINUOUS
 90
8
 70
0
 10
14.2385638339
 20
-32.9553684457
 10
14.2130023812
 20
-32.9676895395
 10
14.1876055599
 20
-32.9753531029
 10
14.1605479429
 20
-32.9794918057
 10
14.1317030135
 20
-32.9801990386
 10
14.1011972884
 20
-32.9773814108
 10
14.0693610386
 20
-32.9708642762
 10
14.0477626068
 20
-32.9641509352
  0
LINE
  5
586
100
AcDbEntity
  8
0
100
AcDbLine
 62
7
  6
CONTINUOUS
 10
23.2550202188
 20
-27.3247798699
 11
23.19942122
 21
-27.3504883259
  0
LWPOLYLINE
  5
587
100
AcDbEntity
  8
0
100
AcDbPolyline
 62
250
  6
CONTINUOUS
 90
20
 70
0
 10
4.1109339975
 20
-36.8553407989
 10
4.1389059519
 20
-36.8439483962
 10
4.2224584568
 20
-36.804454057
 10
4.3029794204
 20
-36.7579712471
 10
4.3802881963
 20
-36.7046042492
 10
4.4542113448
 20
-36.6444727905
 10
4.5245830215
 20
-36.5777117741
 10
4.5912453494
 20
-36.5044709766
 10
4.6540487736
 20
-36.4249147117
 10
4.7128523968
 20
-36.3392214615
 10
4.767524295
 20
-36.2475834757
 10
4.8179418136
 20
-36.1502063415
 10
4.8639918424
 20
-36.0473085214
 10
4.9055710697
 20
-35.9391208634
 10
4.9425862139
 20
-35.8258860829
 10
4.9749542325
 20
-35.707858219
 10
5.0026025089
 20
-35.5853020639
 10
5.0254690149
 20
-35.4584925687
 10
5.0435024505
 20
-35.3277142265
 10
5.0566623582
 20
-35.1932604346
  0
LWPOLYLINE
  5
588
100
AcDbEntity
  8
0
100
AcDbPolyline
 62
250
  6
CONTINUOUS
 90
20
 70
0
 10
19.1666366753
 20
-30.9596358584
 10
19.1884758619
 20
-30.9507899768
 10
19.2723981678
 20
-30.9117178031
 10
19.3525671799
 20
-30.86606519
 10
19.4288811651
 20
-30.8138658328
 10
19.5011661412
 20
-30.7551956452
 10
19.569230865
 20
-30.6901656735
 10
19.6329403074
 20
-30.6188522634
 10
19.6921135078
 20
-30.5413881099
 10
19.7465944812
 20
-30.4579059101
 10
19.796280053
 20
-30.3684806233
 10
19.8410470921
 20
-30.273168515
 10
19.8806949829
 20
-30.1722345803
 10
19.9150383323
 20
-30.0661169773
 10
19.9439689058
 20
-29.9550325714
 10
19.9673972741
 20
-29.8392645449
 10
19.9852617059
 20
-29.7194562217
 10
19.9975521469
 20
-29.596059375
 10
20.0042575275
 20
-29.4692809618
 10
20.0053797771
 20
-29.3394513388
  0
LINE
  5
589
100
AcDbEntity
  8
0
100
AcDbLine
 62
250
  6
CONTINUOUS
 10
5.0566623582
 20
-35.1932604346
 11
20.0053797771
 21
-29.3394513388
  0
LINE
  5
58A
100
AcDbEntity
  8
0
100
AcDbLine
 62
7
  6
CONTINUOUS
 10
4.1109339975
 20
-36.8553407989
 11
19.165142856
 21
-30.9602220221
  0
LWPOLYLINE
  5
58B
100
AcDbEntity
  8
0
100
AcDbPolyline
 62
7
  6
CONTINUOUS
 90
18
 70
0
 10
4.1109339975
 20
-36.8553407989
 10
3.9474152804
 20
-36.9145961095
 10
3.7797443771
 20
-36.9657828059
 10
3.6084061341
 20
-37.008537234
 10
3.4337430832
 20
-37.0425622786
 10
3.2564900602
 20
-37.0675223068
 10
3.0777543627
 20
-37.0831443029
 10
2.8982728044
 20
-37.0893173562
 10
2.7184840547
 20
-37.0859945031
 10
2.5390132079
 20
-37.0731602228
 10
2.360543291
 20
-37.0508603131
 10
2.183507286
 20
-37.0191549952
 10
2.0080892069
 20
-36.9780521156
 10
1.834551465
 20
-36.9275407637
 10
1.6636682992
 20
-36.8677746284
 10
1.4962699301
 20
-36.7990249155
 10
1.3325632105
 20
-36.7213626932
 10
1.1711080614
 20
-36.6338675166
  0
LINE
  5
58C
100
AcDbEntity
  8
0
100
AcDbLine
 62
7
  6
CONTINUOUS
 10
17.7447985862
 20
-33.3853622233
 11
17.5326665519
 21
-33.5078446013
  0
LINE
  5
58D
100
AcDbEntity
  8
0
100
AcDbLine
 62
7
  6
CONTINUOUS
 10
18.4736856705
 20
-33.8062124906
 11
18.2615536361
 21
-33.9286948686
  0
LINE
  5
58E
100
AcDbEntity
  8
0
100
AcDbLine
 62
7
  6
CONTINUOUS
 10
17.1774790375
 20
-34.7315630935
 11
16.9653470032
 21
-34.8540454715
  0
LINE
  5
58F
100
AcDbEntity
  8
0
100
AcDbLine
 62
7
  6
CONTINUOUS
 10
18.6634483818
 20
-33.9157791019
 11
18.4513163475
 21
-34.0382614799
  0
LINE
  5
590
100
AcDbEntity
  8
0
100
AcDbLine
 62
7
  6
CONTINUOUS
 10
17.7024308692
 20
-35.0346637019
 11
17.4902988349
 21
-35.1571460799
  0
LINE
  5
591
100
AcDbEntity
  8
0
100
AcDbLine
 62
7
  6
CONTINUOUS
 10
19.5618416895
 20
-34.4345001382
 11
19.3497096551
 21
-34.5569825162
  0
LINE
  5
592
100
AcDbEntity
  8
0
100
AcDbLine
 62
7
  6
CONTINUOUS
 10
19.7577237029
 20
-34.5475999578
 11
19.5455916685
 21
-34.6700823358
  0
LINE
  5
593
100
AcDbEntity
  8
0
100
AcDbLine
 62
7
  6
CONTINUOUS
 10
19.9676969402
 20
-34.6688358734
 11
19.7555649059
 21
-34.7913182514
  0
LINE
  5
594
100
AcDbEntity
  8
0
100
AcDbLine
 62
7
  6
CONTINUOUS
 10
18.6634483818
 20
-35.5895431693
 11
18.4513163475
 21
-35.7120255473
  0
LINE
  5
595
100
AcDbEntity
  8
0
100
AcDbLine
 62
7
  6
CONTINUOUS
 10
24.5182281833
 20
-37.5412203376
 11
24.1024076767
 21
-38.1054577029
  0
LINE
  5
596
100
AcDbEntity
  8
0
100
AcDbLine
 62
7
  6
CONTINUOUS
 10
24.2012343347
 20
-38.3582538455
 11
24.7484713437
 21
-37.6741598528
  0
LINE
  5
597
100
AcDbEntity
  8
0
100
AcDbLine
 62
7
  6
CONTINUOUS
 10
24.413366369
 20
-38.2357714675
 11
24.960603378
 21
-37.5516774748
  0
LINE
  5
598
100
AcDbEntity
  8
0
100
AcDbLine
 62
7
  6
CONTINUOUS
 10
21.1447376958
 20
-35.3484444539
 11
20.9326056615
 21
-35.4709268319
  0
LINE
  5
599
100
AcDbEntity
  8
0
100
AcDbLine
 62
7
  6
CONTINUOUS
 10
19.7577237029
 20
-36.2213640252
 11
19.5455916685
 21
-36.3438464032
  0
LINE
  5
59A
100
AcDbEntity
  8
0
100
AcDbLine
 62
7
  6
CONTINUOUS
 10
21.1447376958
 20
-35.5489172998
 11
20.9326056615
 21
-35.6713996778
  0
LINE
  5
59B
100
AcDbEntity
  8
0
100
AcDbLine
 62
7
  6
CONTINUOUS
 10
21.7464169772
 20
-35.6958465302
 11
21.5342849429
 21
-35.8183289082
  0
LINE
  5
59C
100
AcDbEntity
  8
0
100
AcDbLine
 62
7
  6
CONTINUOUS
 10
21.9684654771
 20
-35.8240545511
 11
21.7563334427
 21
-35.9465369291
  0
LINE
  5
59D
100
AcDbEntity
  8
0
100
AcDbLine
 62
7
  6
CONTINUOUS
 10
20.6541236765
 20
-36.7389341354
 11
20.4419916421
 21
-36.8614165134
  0
LINE
  5
59E
100
AcDbEntity
  8
0
100
AcDbLine
 62
7
  6
CONTINUOUS
 10
21.6151532099
 20
-36.6061762128
 11
21.4030211756
 21
-36.7286585908
  0
LINE
  5
59F
100
AcDbEntity
  8
0
100
AcDbLine
 62
7
  6
CONTINUOUS
 10
22.6730627363
 20
-36.2308801779
 11
22.460930702
 21
-36.3533625559
  0
LINE
  5
5A0
100
AcDbEntity
  8
0
100
AcDbLine
 62
7
  6
CONTINUOUS
 10
21.4031279487
 20
-37.171399815
 11
21.1909959143
 21
-37.293882193
  0
LINE
  5
5A1
100
AcDbEntity
  8
0
100
AcDbLine
 62
7
  6
CONTINUOUS
 10
22.8689567706
 20
-36.3439869381
 11
22.6568247362
 21
-36.4664693161
  0
LINE
  5
5A2
100
AcDbEntity
  8
0
100
AcDbLine
 62
7
  6
CONTINUOUS
 10
23.6704693781
 20
-36.8067702724
 11
23.4583373437
 21
-36.9292526504
  0
LINE
  5
5A3
100
AcDbEntity
  8
0
100
AcDbLine
 62
7
  6
CONTINUOUS
 10
23.8986018247
 20
-36.9384910879
 11
23.6864697903
 21
-37.0609734659
  0
LINE
  5
5A4
100
AcDbEntity
  8
0
100
AcDbLine
 62
7
  6
CONTINUOUS
 10
22.460930702
 20
-37.8197304788
 11
22.2813319435
 21
-37.9234285511
  0
LINE
  5
5A5
100
AcDbEntity
  8
0
100
AcDbLine
 62
7
  6
CONTINUOUS
 10
22.8689567706
 20
-37.8172781597
 11
22.6568247362
 21
-37.9397605377
  0
LWPOLYLINE
  5
5A6
100
AcDbEntity
  8
0
100
AcDbPolyline
 62
7
  6
CONTINUOUS
 90
15
 70
0
 10
27.9576636142
 20
-41.0446384073
 10
28.0785684304
 20
-40.9279569309
 10
28.1915152179
 20
-40.8004883337
 10
28.296599461
 20
-40.66198664
 10
28.3937256755
 20
-40.5126978255
 10
28.4820474789
 20
-40.353905875
 10
28.5614033974
 20
-40.1857251915
 10
28.6319549048
 20
-40.008041372
 10
28.6933400406
 20
-39.821795193
 10
28.7455541387
 20
-39.6267771225
 10
28.788601865
 20
-39.4231966925
 10
28.8221352576
 20
-39.2126232748
 10
28.8460383292
 20
-38.9955799934
 10
28.8604270669
 20
-38.7715437243
 10
28.865301471
 20
-38.5405144675
  0
LWPOLYLINE
  5
5A7
100
AcDbEntity
  8
0
100
AcDbPolyline
 62
7
  6
CONTINUOUS
 90
16
 70
0
 10
27.9056484571
 20
-41.123625797
 10
28.058228384
 20
-41.0259900936
 10
28.2027454987
 20
-40.9140544199
 10
28.3378719132
 20
-40.7888187023
 10
28.4635305508
 20
-40.6501737771
 10
28.5797984882
 20
-40.498228808
 10
28.6857240283
 20
-40.334227522
 10
28.7812222832
 20
-40.1580709638
 10
28.8663781407
 20
-39.9698580887
 10
28.9404945681
 20
-39.7711294904
 10
29.0034809562
 20
-39.5617988581
 10
29.0554279141
 20
-39.3419525027
 10
29.0959102363
 20
-39.1133899496
 10
29.1247861877
 20
-38.8767110408
 10
29.1421975034
 20
-38.6313159343
 10
29.1481441835
 20
-38.3772046302
  0
LWPOLYLINE
  5
5A8
100
AcDbEntity
  8
0
100
AcDbPolyline
 62
7
  6
CONTINUOUS
 90
4
 70
0
 10
27.6227384782
 20
-41.2868191328
 10
27.6934188701
 20
-41.2440665655
 10
27.8293606986
 20
-41.1499867051
 10
27.9576636142
 20
-41.0446384073
  0
LINE
  5
5A9
100
AcDbEntity
  8
0
100
AcDbLine
 62
7
  6
CONTINUOUS
 10
24.7303602177
 20
-37.4187379596
 11
24.5182281833
 21
-37.5412203376
  0
LINE
  5
5AA
100
AcDbEntity
  8
0
100
AcDbLine
 62
7
  6
CONTINUOUS
 10
23.6038818396
 20
-38.2416146838
 11
23.3917498053
 21
-38.3640970618
  0
LINE
  5
5AB
100
AcDbEntity
  8
0
100
AcDbLine
 62
7
  6
CONTINUOUS
 10
24.960603378
 20
-37.5516774748
 11
24.7484713437
 21
-37.6741598528
  0
LINE
  5
5AC
100
AcDbEntity
  8
0
100
AcDbLine
 62
7
  6
CONTINUOUS
 10
23.6038818396
 20
-38.4420875297
 11
23.3917498053
 21
-38.5645699077
  0
LINE
  5
5AD
100
AcDbEntity
  8
0
100
AcDbLine
 62
7
  6
CONTINUOUS
 10
24.413366369
 20
-38.2357714675
 11
24.2012343347
 21
-38.3582538455
  0
LINE
  5
5AE
100
AcDbEntity
  8
0
100
AcDbLine
 62
7
  6
CONTINUOUS
 10
24.413366369
 20
-38.9094737517
 11
24.2012343347
 21
-39.0319561297
  0
LINE
  5
5AF
100
AcDbEntity
  8
0
100
AcDbLine
 62
250
  6
CONTINUOUS
 10
29.1481441835
 20
-38.3772046302
 11
28.865301471
 21
-38.5405144675
  0
LINE
  5
5B0
100
AcDbEntity
  8
0
100
AcDbLine
 62
7
  6
CONTINUOUS
 10
27.9056484572
 20
-41.1236257971
 11
27.6228057447
 21
-41.2869356344
  0
LWPOLYLINE
  5
5B1
100
AcDbEntity
  8
0
100
AcDbPolyline
 62
250
  6
CONTINUOUS
 90
18
 70
0
 10
24.8217454355
 20
-39.7927931525
 10
24.900614004
 20
-39.747264035
 10
24.9754803767
 20
-39.6954165948
 10
25.0463193411
 20
-39.6372065051
 10
25.1131561098
 20
-39.5726780926
 10
25.1755348193
 20
-39.5022711509
 10
25.2334240403
 20
-39.425946391
 10
25.2868552023
 20
-39.3437431018
 10
25.3354667303
 20
-39.2562189439
 10
25.3792255932
 20
-39.1633406132
 10
25.4181648221
 20
-39.0651414137
 10
25.4520219358
 20
-38.9622789174
 10
25.4807639249
 20
-38.8546443015
 10
25.5044237988
 20
-38.7423463889
 10
25.5228381034
 20
-38.6263692201
 10
25.535952354
 20
-38.5070408086
 10
25.5438210353
 20
-38.384033141
 10
25.5464441474
 20
-38.2573462173
  0
LWPOLYLINE
  5
5B2
100
AcDbEntity
  8
0
100
AcDbPolyline
 62
250
  6
CONTINUOUS
 90
17
 70
0
 10
26.6402965444
 20
-40.5850329799
 10
26.7327238141
 20
-40.535556059
 10
26.8576971775
 20
-40.4556513615
 10
26.9756069143
 20
-40.3643244181
 10
27.0861298367
 20
-40.2618255547
 10
27.188963005
 20
-40.1484357212
 10
27.2838245675
 20
-40.0244657076
 10
27.3704545253
 20
-39.8902552932
 10
27.4486154348
 20
-39.7461723279
 10
27.5180930548
 20
-39.5926117396
 10
27.5786969453
 20
-39.4299944402
 10
27.6302609962
 20
-39.2587661517
 10
27.672643874
 20
-39.0793962008
 10
27.7057294078
 20
-38.892376249
 10
27.7294269154
 20
-38.698218915
 10
27.7436714485
 20
-38.4974563663
 10
27.7484239674
 20
-38.2906388814
  0
LWPOLYLINE
  5
5B3
100
AcDbEntity
  8
0
100
AcDbPolyline
 62
250
  6
CONTINUOUS
 90
17
 70
0
 10
26.925149035
 20
-40.4440856349
 10
27.0179604939
 20
-40.3944030549
 10
27.1434531927
 20
-40.3141663163
 10
27.2618529193
 20
-40.222459879
 10
27.3728351655
 20
-40.1195350864
 10
27.4760957328
 20
-40.0056740439
 10
27.571351589
 20
-39.88118883
 10
27.6583416561
 20
-39.746420619
 10
27.7368275047
 20
-39.601738765
 10
27.8065939859
 20
-39.4475398434
 10
27.867449847
 20
-39.2842465485
 10
27.9192282827
 20
-39.1123064668
 10
27.9617873753
 20
-38.9321908646
 10
27.9950104688
 20
-38.7443934531
 10
28.0188065034
 20
-38.5494289844
 10
28.033110261
 20
-38.3478318369
 10
28.0378825396
 20
-38.140154577
  0
LINE
  5
5B4
100
AcDbEntity
  8
0
100
AcDbLine
 62
250
  6
CONTINUOUS
 10
27.7484239674
 20
-38.2906388814
 11
28.0378825396
 21
-38.140154577
  0
LINE
  5
5B5
100
AcDbEntity
  8
0
100
AcDbLine
 62
7
  6
CONTINUOUS
 10
26.925149035
 20
-40.4440856349
 11
26.6402965444
 21
-40.5850329799
  0
LWPOLYLINE
  5
5B6
100
AcDbEntity
  8
0
100
AcDbPolyline
 62
250
  6
CONTINUOUS
 90
18
 70
0
 10
26.8581630296
 20
-40.5700274052
 10
26.9999761694
 20
-40.5120724209
 10
27.1349054932
 20
-40.4421941418
 10
27.2628947585
 20
-40.3602948842
 10
27.384000208
 20
-40.2664723318
 10
27.4972295783
 20
-40.1614945578
 10
27.6025205666
 20
-40.0452636163
 10
27.6999354759
 20
-39.9178774532
 10
27.7886689513
 20
-39.7803979792
 10
27.8686417717
 20
-39.6327646117
 10
27.9399331583
 20
-39.4750379334
 10
28.0019754206
 20
-39.3084616025
 10
28.0547036146
 20
-39.1328358333
 10
28.0981826843
 20
-38.9483604116
 10
28.1320397714
 20
-38.7568783527
 10
28.1561505897
 20
-38.5590039951
 10
28.1706394254
 20
-38.3541230004
 10
28.1755062784
 20
-38.1422353685
  0
LINE
  5
5B7
100
AcDbEntity
  8
0
100
AcDbLine
 62
250
  6
CONTINUOUS
 10
26.7106270649
 20
-40.6155840722
 11
26.8581630296
 21
-40.5700274052
  0
ARC
  5
5B8
100
AcDbEntity
  8
0
100
AcDbCircle
 62
7
  6
CONTINUOUS
 10
-25.7507545985
 20
-17.1634763585
 40
3.4
100
AcDbArc
 50
180.0007992628
 51
239.9992007507
  0
ENDSEC
  0
SECTION
  2
OBJECTS
  0
DICTIONARY
  5
C
100
AcDbDictionary
280
0
281
1
  3
ACAD_GROUP
350
D
  3
ACAD_MLINESTYLE
350
17
  3
ACAD_LAYOUT
350
1A
  3
ACAD_PLOTSETTINGS
350
19
  3
ACAD_PLOTSTYLENAME
350
E
  0
DICTIONARY
  5
D
102
{ACAD_REACTORS
330
C
102
}
100
AcDbDictionary
280
0
281
1
  0
ACDBDICTIONARYWDFLT
  5
E
102
{ACAD_REACTORS
330
C
102
}
100
AcDbDictionary
281
1
  3
Normal
350
F
100
AcDbDictionaryWithDefault
340
F
  0
DICTIONARY
  5
17
102
{ACAD_REACTORS
330
C
102
}
100
AcDbDictionary
280
0
281
1
  3
Standard
350
18
  0
DICTIONARY
  5
19
102
{ACAD_REACTORS
330
C
102
}
100
AcDbDictionary
281
1
  0
DICTIONARY
  5
1A
102
{ACAD_REACTORS
330
C
102
}
100
AcDbDictionary
281
1
  3
Model
350
5B9
  3
Layout1
350
5BA
  0
ACDBPLACEHOLDER
  5
F
102
{ACAD_REACTORS
330
E
102
}
  0
MLINESTYLE
  5
18
102
{ACAD_REACTORS
330
17
102
}
100
AcDbMlineStyle
  2
STANDARD
 70
0
  3

 62
256
 51
90.0
 52
90.0
 71
2
 49
0.5
 62
256
  6
BYLAYER
 49
-0.5
 62
256
  6
BYLAYER
  0
LAYOUT
  5
5B9
102
{ACAD_REACTORS
330
1A
102
}
100
AcDbPlotSettings
  1

  2
none_device
  4
ISO_A4_(297.00_x_210.00_MM)
  6

 40
0.0
 41
0.0
 42
0.0
 43
0.0
 44
297.0
 45
210.0
 46
0.0
 47
0.0
 48
0.0
 49
0.0
140
0.0
141
0.0
142
1.0
143
1.0
 70
1024
 72
1
 73
0
 74
0
  7

 75
0
147
1.0
148
0.0
149
0.0
100
AcDbLayout
  1
Model
 70
0
 71
0
 10
0.0
 20
0.0
 11
297.0
 21
210.0
 12
0.0
 22
0.0
 32
0.0
 14
0.0
 24
0.0
 34
0.0
 15
0.0
 25
0.0
 35
0.0
146
0.0
 13
0.0
 23
0.0
 33
0.0
 16
1.0
 26
0.0
 36
0.0
 17
0.0
 27
1.0
 37
0.0
 76
0
330
213
345
0
346
0
  0
LAYOUT
  5
5BA
102
{ACAD_REACTORS
330
1A
102
}
100
AcDbPlotSettings
  1

  2
none_device
  4
ISO_A4_(297.00_x_210.00_MM)
  6

 40
0.0
 41
0.0
 42
0.0
 43
0.0
 44
297.0
 45
210.0
 46
0.0
 47
0.0
 48
0.0
 49
0.0
140
0.0
141
0.0
142
1.0
143
1.0
 70
0
 72
1
 73
0
 74
0
  7

 75
0
147
1.0
148
0.0
149
0.0
100
AcDbLayout
  1
Layout1
 70
0
 71
1
 10
0.0
 20
0.0
 11
297.0
 21
210.0
 12
0.0
 22
0.0
 32
0.0
 14
0.0
 24
0.0
 34
0.0
 15
0.0
 25
0.0
 35
0.0
146
0.0
 13
0.0
 23
0.0
 33
0.0
 16
1.0
 26
0.0
 36
0.0
 17
0.0
 27
1.0
 37
0.0
 76
0
330
214
345
0
346
0
  0
ENDSEC
  0
EOF
