  0
SECTION
  2
HEADER
  9
$ACADVER
  1
AC1024
  9
$DWGCODEPAGE
  3
ANSI_1252
  9
$EXTMAX
 10
297.0
 20
210.0
 30
0.0
  9
$EXTMIN
 10
0.0
 20
0.0
 30
0.0
  9
$LIMMIN
 10
0.0
 20
0.0
  9
$LIMMAX
 10
297.0
 20
210.0
  9
$VIEWCTR
 10
148.5
 20
105.0
  9
$VIEWSIZE
 40
210.0
  9
$CLAYER
  8
0
  9
$LTSCALE
 40
16.335
  9
$CELTYPE
  6
BYLAYER
  9
$DIMSCALE
 40
1.0
  9
$DIMASZ
 40
3.0
  9
$DIMEXO
 40
0.5
  9
$DIMDLI
 40
11.286
  9
$DIMEXE
 40
1.5
  9
$DIMCEN
 40
2.673
  9
$DIMLFAC
 40
1.0
  9
$DIMBLK
  1
_FILLED
  9
$DIMALT
 70
0
  9
$DIMALTF
 40
0.0393700787
  9
$DIMTXT
 40
3.0
  9
$DIMTOL
 70
1
  9
$DIMLIM
 70
0
  9
$DIMTFAC
 40
1.0
  9
$DIMTP
 40
0.01
  9
$DIMTM
 40
0.01
  9
$DIMGAP
 40
0.625
  9
$DIMDSEP
 70
44
  9
$AUNITS
 70
0
  9
$PDMODE
 70
3
  9
$PDSIZE
 40
3.0
  9
$HANDSEED
  5
464
  9
$TILEMODE
 70
1
  9
$MEASUREMENT
 70
1
  9
$INSUNITS
 70
4
  0
ENDSEC
  0
SECTION
  2
CLASSES
  0
CLASS
  1
ACDBDICTIONARYWDFLT
  2
AcDbDictionaryWithDefault
  3
AutoCAD 2000
 90
0
 91
1
280
0
281
0
  0
CLASS
  1
ACDBPLACEHOLDER
  2
AcDbPlaceHolder
  3
AutoCAD 2000
 90
0
 91
1
280
0
281
0
  0
CLASS
  1
LAYOUT
  2
AcDbLayout
  3
AutoCAD 2000
 90
0
 91
0
280
0
281
0
  0
ENDSEC
  0
SECTION
  2
TABLES
  0
TABLE
  2
VPORT
  5
8
100
AcDbSymbolTable
 70
2
  0
VPORT
  5
1F4
100
AcDbSymbolTableRecord
100
AcDbViewportTableRecord
  2
*ACTIVE
 70
0
 10
0.0
 20
0.0
 11
1.0
 21
1.0
 12
148.5
 22
105.0
 13
0.0
 23
0.0
 14
1.0
 24
1.0
 15
0.0
 25
0.0
 16
0.0
 26
0.0
 36
1.0
 17
0.0
 27
0.0
 37
0.0
 40
210.0
 41
1.4142857143
 42
50.0
 43
0.0
 44
0.0
 50
0.0
 51
0.0
 71
0
 72
100
 73
1
 74
1
 75
0
 76
0
 77
0
 78
0
  0
ENDTAB
  0
TABLE
  2
LTYPE
  5
5
100
AcDbSymbolTable
 70
6
  0
LTYPE
  5
14
100
AcDbSymbolTableRecord
100
AcDbLinetypeTableRecord
  2
BYBLOCK
 70
0
  3

 72
65
 73
0
 40
0.0
  0
LTYPE
  5
15
100
AcDbSymbolTableRecord
100
AcDbLinetypeTableRecord
  2
BYLAYER
 70
0
  3

 72
65
 73
0
 40
0.0
  0
LTYPE
  5
16
100
AcDbSymbolTableRecord
100
AcDbLinetypeTableRecord
  2
CONTINUOUS
 70
64
  3
Solid line
 72
65
 73
0
 40
0.0
  0
LTYPE
  5
1F5
100
AcDbSymbolTableRecord
100
AcDbLinetypeTableRecord
  2
CENTER
 70
64
  3
____ _ ____ _ ____ _ ____ _ ____ _ ____ _ ____
 72
65
 73
4
 40
0.6
 49
0.375
 74
0
 49
-0.075
 74
0
 49
0.075
 74
0
 49
-0.075
 74
0
  0
LTYPE
  5
1F6
100
AcDbSymbolTableRecord
100
AcDbLinetypeTableRecord
  2
HIDDEN
 70
64
  3
- - - - - - - - - - - - - - - - - - - -
 72
65
 73
2
 40
0.2
 49
0.1
 74
0
 49
-0.1
 74
0
  0
LTYPE
  5
1F7
100
AcDbSymbolTableRecord
100
AcDbLinetypeTableRecord
  2
PHANTOM
 70
64
  3
_____ _ _ _____ _ _ _____ _ _ _____
 72
65
 73
6
 40
0.8
 49
0.45
 74
0
 49
-0.05
 74
0
 49
0.1
 74
0
 49
-0.05
 74
0
 49
0.1
 74
0
 49
-0.05
 74
0
  0
LTYPE
  5
1F8
100
AcDbSymbolTableRecord
100
AcDbLinetypeTableRecord
  2
DOT
 70
64
  3
. . . . . . . . . . . . . . . . . . . .
 72
65
 73
2
 40
0.2
 49
0.1
 74
0
 49
-0.1
 74
0
  0
LTYPE
  5
1F9
100
AcDbSymbolTableRecord
100
AcDbLinetypeTableRecord
  2
DASHED
 70
64
  3
- - - - - - - - - - - - - - - - - - - -
 72
65
 73
2
 40
0.2
 49
0.1
 74
0
 49
-0.1
 74
0
  0
ENDTAB
  0
TABLE
  2
LAYER
  5
2
100
AcDbSymbolTable
 70
36
  0
LAYER
  5
10
100
AcDbSymbolTableRecord
100
AcDbLayerTableRecord
  2
0
 70
0
 62
7
  6
CONTINUOUS
370
-3
390
F
  0
LAYER
  5
1FA
100
AcDbSymbolTableRecord
100
AcDbLayerTableRecord
  2
DEFAULT_1
 70
0
 62
7
  6
CENTER
370
-3
390
F
  0
LAYER
  5
1FB
100
AcDbSymbolTableRecord
100
AcDbLayerTableRecord
  2
DEFAULT_2
 70
0
 62
7
  6
HIDDEN
370
-3
390
F
  0
LAYER
  5
1FC
100
AcDbSymbolTableRecord
100
AcDbLayerTableRecord
  2
DEFAULT_3
 70
0
 62
7
  6
PHANTOM
370
-3
390
F
  0
LAYER
  5
1FD
100
AcDbSymbolTableRecord
100
AcDbLayerTableRecord
  2
ASSI
 70
0
 62
7
  6
CONTINUOUS
370
-3
390
F
  0
LAYER
  5
1FE
100
AcDbSymbolTableRecord
100
AcDbLayerTableRecord
  2
COORDINATE
 70
0
 62
7
  6
CONTINUOUS
370
-3
390
F
  0
LAYER
  5
1FF
100
AcDbSymbolTableRecord
100
AcDbLayerTableRecord
  2
COORD_ORIGINE
 70
0
 62
7
  6
CONTINUOUS
370
-3
390
F
  0
LAYER
  5
200
100
AcDbSymbolTableRecord
100
AcDbLayerTableRecord
  2
CURVE
 70
0
 62
7
  6
CONTINUOUS
370
-3
390
F
  0
LAYER
  5
201
100
AcDbSymbolTableRecord
100
AcDbLayerTableRecord
  2
DRAFT
 70
0
 62
7
  6
CONTINUOUS
370
-3
390
F
  0
LAYER
  5
202
100
AcDbSymbolTableRecord
100
AcDbLayerTableRecord
  2
INCISIONI_STAMPO
 70
0
 62
7
  6
CONTINUOUS
370
-3
390
F
  0
LAYER
  5
203
100
AcDbSymbolTableRecord
100
AcDbLayerTableRecord
  2
INTF_1
 70
0
 62
7
  6
CONTINUOUS
370
-3
390
F
  0
LAYER
  5
204
100
AcDbSymbolTableRecord
100
AcDbLayerTableRecord
  2
INTF_7
 70
0
 62
7
  6
CONTINUOUS
370
-3
390
F
  0
LAYER
  5
205
100
AcDbSymbolTableRecord
100
AcDbLayerTableRecord
  2
NOTE
 70
0
 62
7
  6
CONTINUOUS
370
-3
390
F
  0
LAYER
  5
206
100
AcDbSymbolTableRecord
100
AcDbLayerTableRecord
  2
PELLE_INFERIORE
 70
0
 62
7
  6
CONTINUOUS
370
-3
390
F
  0
LAYER
  5
207
100
AcDbSymbolTableRecord
100
AcDbLayerTableRecord
  2
PIANI
 70
0
 62
7
  6
CONTINUOUS
370
-3
390
F
  0
LAYER
  5
208
100
AcDbSymbolTableRecord
100
AcDbLayerTableRecord
  2
PIANI_ORIGINE
 70
0
 62
7
  6
CONTINUOUS
370
-3
390
F
  0
LAYER
  5
209
100
AcDbSymbolTableRecord
100
AcDbLayerTableRecord
  2
PPP
 70
0
 62
7
  6
CONTINUOUS
370
-3
390
F
  0
LAYER
  5
20A
100
AcDbSymbolTableRecord
100
AcDbLayerTableRecord
  2
PUNTI
 70
0
 62
7
  6
CONTINUOUS
370
-3
390
F
  0
LAYER
  5
20B
100
AcDbSymbolTableRecord
100
AcDbLayerTableRecord
  2
RACCORDO
 70
0
 62
7
  6
CONTINUOUS
370
-3
390
F
  0
LAYER
  5
20C
100
AcDbSymbolTableRecord
100
AcDbLayerTableRecord
  2
RGB__255__255__255__
 70
0
 62
7
  6
CONTINUOUS
370
-3
390
F
  0
LAYER
  5
20D
100
AcDbSymbolTableRecord
100
AcDbLayerTableRecord
  2
RGB____0____0____0__
 70
0
 62
7
  6
CONTINUOUS
370
-3
390
F
  0
LAYER
  5
20E
100
AcDbSymbolTableRecord
100
AcDbLayerTableRecord
  2
SNAPLINE
 70
0
 62
7
  6
CONTINUOUS
370
-3
390
F
  0
LAYER
  5
20F
100
AcDbSymbolTableRecord
100
AcDbLayerTableRecord
  2
SUPERFICI
 70
0
 62
7
  6
CONTINUOUS
370
-3
390
F
  0
LAYER
  5
210
100
AcDbSymbolTableRecord
100
AcDbLayerTableRecord
  2
TRASH
 70
0
 62
7
  6
CONTINUOUS
370
-3
390
F
  0
ENDTAB
  0
TABLE
  2
STYLE
  5
3
100
AcDbSymbolTable
 70
1
  0
STYLE
  5
11
100
AcDbSymbolTableRecord
100
AcDbTextStyleTableRecord
  2
STANDARD
 70
0
 40
0.0
 41
0.8
 50
0.0
 71
0
 42
0.2
  3
txt
  4

  0
STYLE
  5
211
100
AcDbSymbolTableRecord
100
AcDbTextStyleTableRecord
  2
TEXTSTYLE_1
 70
0
 40
0.0
 41
0.8
 50
0.0
 71
0
 42
0.2
  3
gdt
  4

  0
ENDTAB
  0
TABLE
  2
VIEW
  5
6
100
AcDbSymbolTable
 70
0
  0
ENDTAB
  0
TABLE
  2
UCS
  5
7
100
AcDbSymbolTable
 70
0
  0
ENDTAB
  0
TABLE
  2
APPID
  5
9
100
AcDbSymbolTable
 70
1
  0
APPID
  5
212
100
AcDbSymbolTableRecord
100
AcDbRegAppTableRecord
  2
ACAD
 70
0
  0
ENDTAB
  0
TABLE
  2
BLOCK_RECORD
  5
1
100
AcDbSymbolTable
 70
0
  0
BLOCK_RECORD
  5
213
100
AcDbSymbolTableRecord
100
AcDbBlockTableRecord
  2
*Model_Space
  0
BLOCK_RECORD
  5
214
100
AcDbSymbolTableRecord
100
AcDbBlockTableRecord
  2
*Paper_Space
  0
BLOCK_RECORD
  5
215
100
AcDbSymbolTableRecord
100
AcDbBlockTableRecord
  2
_FILLED
  0
ENDTAB
  0
TABLE
  2
DIMSTYLE
  5
A
100
AcDbSymbolTable
 70
1
100
AcDbDimStyleTable
 71
0
  0
DIMSTYLE
105
216
100
AcDbSymbolTableRecord
100
AcDbDimStyleTableRecord
  2
STANDARD
 70
0
  3

  4

 40
1.0
 41
3.0
 42
0.5
 43
0.38
 44
1.5
 45
0.0
 46
0.0
 47
0.01
 48
0.01
140
3.0
141
0.09
142
0.0
143
25.4
144
1.0
145
0.0
146
1.0
147
0.625
 71
1
 72
0
 73
0
 74
0
 75
0
 76
0
 77
1
 78
8
 79
2
170
0
171
1
172
0
173
0
174
0
175
0
176
0
177
0
178
0
270
2
179
2
271
2
272
2
273
2
274
2
275
0
280
0
281
0
282
0
283
1
284
8
285
0
286
0
287
3
288
0
340
11
278
44
341
215
342
215
343
215
344
215
  0
ENDTAB
  0
ENDSEC
  0
SECTION
  2
BLOCKS
  0
BLOCK
  5
20
100
AcDbEntity
  8
0
100
AcDbBlockBegin
  2
*Model_Space
 70
0
 10
0.0
 20
0.0
 30
0.0
  3
*Model_Space
  1

  0
ENDBLK
  5
21
100
AcDbEntity
  8
0
100
AcDbBlockEnd
  0
BLOCK
  5
1C
100
AcDbEntity
  8
0
100
AcDbBlockBegin
  2
*Paper_Space
 70
0
 10
0.0
 20
0.0
 30
0.0
  3
*Paper_Space
  1

  0
ENDBLK
  5
1D
100
AcDbEntity
  8
0
100
AcDbBlockEnd
  0
BLOCK
  5
217
100
AcDbEntity
  8
0
100
AcDbBlockBegin
  2
_FILLED
 70
64
 10
0.0
 20
0.0
  3
_FILLED
  1

  0
SOLID
  5
218
100
AcDbEntity
  8
0
  6
BYBLOCK
 62
0
100
AcDbTrace
 10
0.0
 20
0.0
 11
-1.0
 21
0.3166666667
 12
-1.0
 22
-0.3166666667
 13
-1.0
 23
-0.3166666667
  0
ENDBLK
  5
219
100
AcDbEntity
  8
0
  6
BYBLOCK
 62
0
100
AcDbBlockEnd
  0
ENDSEC
  0
SECTION
  2
ENTITIES
  0
LWPOLYLINE
  5
21A
100
AcDbEntity
  8
RACCORDO
100
AcDbPolyline
 62
7
  6
CONTINUOUS
 90
14
 70
0
 10
-31.0761084112
 20
45.463054064
 10
-31.1365737193
 20
45.4191663295
 10
-31.2575873481
 20
45.3187514528
 10
-31.3711325249
 20
45.2063992445
 10
-31.4759940083
 20
45.0828196996
 10
-31.5713339658
 20
44.9485742849
 10
-31.6563954541
 20
44.8043347644
 10
-31.73043836
 20
44.6510339633
 10
-31.793028371
 20
44.4893274942
 10
-31.8437923543
 20
44.3199133521
 10
-31.8824001431
 20
44.1436792392
 10
-31.9086734663
 20
43.9612834244
 10
-31.9224830555
 20
43.7732292951
 10
-31.9237162831
 20
43.7358021733
  0
LINE
  5
21B
100
AcDbEntity
  8
SUPERFICI
100
AcDbLine
 62
7
  6
CONTINUOUS
 10
-28.3858605118
 20
47.3328642972
 11
-31.0769224637
 21
45.4624914767
  0
LINE
  5
21C
100
AcDbEntity
  8
RACCORDO
100
AcDbLine
 62
7
  6
CONTINUOUS
 10
-31.0768158583
 20
45.4625655706
 11
-31.0761105908
 21
45.4630553701
  0
LWPOLYLINE
  5
21D
100
AcDbEntity
  8
RACCORDO
100
AcDbPolyline
 62
250
  6
CONTINUOUS
 90
13
 70
0
 10
-29.6057776361
 20
45.5155082801
 10
-29.6831993883
 20
45.4624973989
 10
-29.7591508922
 20
45.399004814
 10
-29.8326266917
 20
45.3258710465
 10
-29.9026541044
 20
45.244064248
 10
-29.9683060979
 20
45.1546673851
 10
-30.0287135623
 20
45.0588639021
 10
-30.083076815
 20
44.9579220551
 10
-30.1306761877
 20
44.8531781224
 10
-30.1708815529
 20
44.7460187145
 10
-30.2031606658
 20
44.6378624186
 10
-30.2270862102
 20
44.5301410184
 10
-30.2423414554
 20
44.4242805408
  0
LWPOLYLINE
  5
21E
100
AcDbEntity
  8
RACCORDO
100
AcDbPolyline
 62
250
  6
CONTINUOUS
 90
24
 70
0
 10
-31.0761105908
 20
45.4630553701
 10
-31.0564214888
 20
45.476435908
 10
-30.9902754192
 20
45.5174498612
 10
-30.9218924567
 20
45.5539950724
 10
-30.8514188531
 20
45.5860440533
 10
-30.7794784245
 20
45.6134144315
 10
-30.7062595688
 20
45.6361814273
 10
-30.6319469289
 20
45.6544297531
 10
-30.557233663
 20
45.6681741419
 10
-30.482327465
 20
45.6775973091
 10
-30.4074202632
 20
45.6828899841
 10
-30.3332288623
 20
45.6842538689
 10
-30.2599515506
 20
45.6819622881
 10
-30.1877604639
 20
45.676290128
 10
-30.1173541673
 20
45.6675960767
 10
-30.0488934089
 20
45.6562144435
 10
-29.9825154058
 20
45.6424730265
 10
-29.9188837033
 20
45.6268476051
 10
-29.8581097371
 20
45.6096990599
 10
-29.8002850557
 20
45.5913742407
 10
-29.7460307395
 20
45.5724238225
 10
-29.6955907705
 20
45.5532837887
 10
-29.6488289722
 20
45.5342118735
 10
-29.6057776361
 20
45.5155082801
  0
LINE
  5
21F
100
AcDbEntity
  8
RACCORDO
100
AcDbLine
 62
250
  6
CONTINUOUS
 10
-26.7724090961
 20
47.4039076294
 11
-29.6057776361
 21
45.5155082801
  0
LWPOLYLINE
  5
220
100
AcDbEntity
  8
RACCORDO
100
AcDbPolyline
 62
250
  6
CONTINUOUS
 90
46
 70
0
 10
-31.6628413534
 20
43.405778605
 10
-31.6608436982
 20
43.4387548584
 10
-31.658049956
 20
43.4742080825
 10
-31.6543072847
 20
43.5120420537
 10
-31.6494330704
 20
43.552283015
 10
-31.6432642324
 20
43.5946631076
 10
-31.6356887518
 20
43.6386377852
 10
-31.6265420241
 20
43.6840628818
 10
-31.6156537292
 20
43.730781109
 10
-31.6029540438
 20
43.7782438846
 10
-31.5882964866
 20
43.8262848506
 10
-31.571536514
 20
43.8747230897
 10
-31.5526711853
 20
43.9230181779
 10
-31.5315906863
 20
43.9709934328
 10
-31.5081905706
 20
44.018461621
 10
-31.4825495411
 20
44.0649143382
 10
-31.4546043511
 20
44.1101842092
 10
-31.424300203
 20
44.1541002727
 10
-31.391806587
 20
44.1962161969
 10
-31.3571145298
 20
44.2363945417
 10
-31.3202264939
 20
44.2744999076
 10
-31.2814060381
 20
44.3101740238
 10
-31.2407001249
 20
44.3433267013
 10
-31.1981602706
 20
44.3738776439
 10
-31.1541258351
 20
44.4015826221
 10
-31.1086809354
 20
44.4264192904
 10
-31.0619199852
 20
44.4483715664
 10
-31.0142555513
 20
44.4673135494
 10
-30.965804868
 20
44.4832920271
 10
-30.9166866101
 20
44.4963617135
 10
-30.8673581203
 20
44.5065217797
 10
-30.8179488081
 20
44.5138882187
 10
-30.768579675
 20
44.5185848693
 10
-30.7197208603
 20
44.52073191
 10
-30.6714923222
 20
44.5205061838
 10
-30.6240044824
 20
44.5180833769
 10
-30.5777231212
 20
44.5136788929
 10
-30.5327476074
 20
44.5075075805
 10
-30.489163786
 20
44.4997794458
 10
-30.4474130186
 20
44.4907843723
 10
-30.4075598482
 20
44.4807574054
 10
-30.3696581891
 20
44.4699232903
 10
-30.3341215177
 20
44.4586190665
 10
-30.3011052966
 20
44.4471223616
 10
-30.2705071919
 20
44.4356104012
 10
-30.2423403837
 20
44.4242809349
  0
LINE
  5
221
100
AcDbEntity
  8
RACCORDO
100
AcDbLine
 62
250
  6
CONTINUOUS
 10
26.1480709926
 20
-46.6489575982
 11
26.0331083818
 21
-46.6099385064
  0
LINE
  5
222
100
AcDbEntity
  8
RACCORDO
100
AcDbLine
 62
250
  6
CONTINUOUS
 10
26.5131181947
 20
-46.7763220915
 11
26.1480709926
 21
-46.6489575982
  0
LWPOLYLINE
  5
223
100
AcDbEntity
  8
RACCORDO
100
AcDbPolyline
 62
250
  6
CONTINUOUS
 90
3
 70
0
 10
26.0331083818
 20
-46.6099385064
 10
25.9734576103
 20
-46.5888134093
 10
25.9114423034
 20
-46.565608223
  0
LWPOLYLINE
  5
224
100
AcDbEntity
  8
RACCORDO
100
AcDbPolyline
 62
7
  6
CONTINUOUS
 90
12
 70
0
 10
26.7561094014
 20
-47.1979806808
 10
26.8034469756
 20
-47.2156856033
 10
26.9837715157
 20
-47.2737720088
 10
27.163546477
 20
-47.3169810034
 10
27.342155336
 20
-47.3453037946
 10
27.5187811653
 20
-47.3587436745
 10
27.6922361038
 20
-47.3574052935
 10
27.8615490601
 20
-47.3415702251
 10
28.0258216998
 20
-47.311628447
 10
28.1837626619
 20
-47.2682201856
 10
28.3343276894
 20
-47.2121523266
 10
28.445597263
 20
-47.1604894974
  0
LINE
  5
225
100
AcDbEntity
  8
RACCORDO
100
AcDbLine
 62
7
  6
CONTINUOUS
 10
26.7564008873
 20
-47.1980934695
 11
26.7561090461
 21
-47.1979815938
  0
LINE
  5
226
100
AcDbEntity
  8
RACCORDO
100
AcDbLine
 62
250
  6
CONTINUOUS
 10
25.9114423034
 20
-46.565608223
 11
25.7822308913
 21
-46.5155510814
  0
LINE
  5
227
100
AcDbEntity
  8
RACCORDO
100
AcDbLine
 62
250
  6
CONTINUOUS
 10
-29.8888185367
 20
-23.1391893137
 11
-30.2423414062
 21
-22.9645792948
  0
LWPOLYLINE
  5
228
100
AcDbEntity
  8
RACCORDO
100
AcDbPolyline
 62
250
  6
CONTINUOUS
 90
46
 70
0
 10
-30.2423403854
 20
-22.9645785591
 10
-30.2705339183
 20
-22.9503009247
 10
-30.3009975854
 20
-22.9341682999
 10
-30.3337182243
 20
-22.9160239911
 10
-30.3687806054
 20
-22.8956403028
 10
-30.4060489863
 20
-22.8729020487
 10
-30.4451668459
 20
-22.8478373988
 10
-30.4860837241
 20
-22.8202928053
 10
-30.5287395211
 20
-22.7901133347
 10
-30.5727517095
 20
-22.7573789266
 10
-30.6180400701
 20
-22.7219667727
 10
-30.6645118937
 20
-22.6837607653
 10
-30.7117602302
 20
-22.64291538
 10
-30.7596800847
 20
-22.5993523123
 10
-30.8081574911
 20
-22.5530002641
 10
-30.8567772916
 20
-22.5040928926
 10
-30.9054216819
 20
-22.4526013316
 10
-30.9539641716
 20
-22.39851122
 10
-31.0019946463
 20
-22.342146925
 10
-31.0493922427
 20
-22.2835379596
 10
-31.0960346374
 20
-22.2227259143
 10
-31.1415419227
 20
-22.1601160897
 10
-31.1858188628
 20
-22.0957723141
 10
-31.2287566951
 20
-22.0297900561
 10
-31.2700048391
 20
-21.9626749238
 10
-31.3095076727
 20
-21.8945160162
 10
-31.347187048
 20
-21.8254561524
 10
-31.3827289891
 20
-21.7561224903
 10
-31.4161163847
 20
-21.6866481087
 10
-31.4473422468
 20
-21.6171646174
 10
-31.47619374
 20
-21.5483182117
 10
-31.5027161157
 20
-21.4802347422
 10
-31.5269638936
 20
-21.4130301199
 10
-31.5488276693
 20
-21.3473344071
 10
-31.5684096524
 20
-21.2832467932
 10
-31.5858179879
 20
-21.220852645
 10
-31.6010377474
 20
-21.1607404512
 10
-31.6142180001
 20
-21.1029657428
 10
-31.6255103281
 20
-21.0475667465
 10
-31.6349787598
 20
-20.9950722702
 10
-31.6428038685
 20
-20.9454842766
 10
-31.6491600644
 20
-20.8987957305
 10
-31.6541621235
 20
-20.8554839285
 10
-31.6579841378
 20
-20.8156734001
 10
-31.6608228639
 20
-20.779150821
 10
-31.6628413532
 20
-20.7458645185
  0
LWPOLYLINE
  5
229
100
AcDbEntity
  8
RACCORDO
100
AcDbPolyline
 62
250
  6
CONTINUOUS
 90
8
 70
0
 10
-29.9884334307
 20
-23.3907461945
 10
-30.0287126657
 20
-23.3688882931
 10
-30.0830758127
 20
-23.3267908915
 10
-30.1306751056
 20
-23.2735036977
 10
-30.170880421
 20
-23.2097321323
 10
-30.2031595175
 20
-23.1363204083
 10
-30.2270850819
 20
-23.0542403564
 10
-30.2423403854
 20
-22.9645785591
  0
LWPOLYLINE
  5
22A
100
AcDbEntity
  8
RACCORDO
100
AcDbPolyline
 62
7
  6
CONTINUOUS
 90
4
 70
0
 10
-30.4126544689
 20
-23.148406424
 10
-30.2292385748
 20
-23.2653412691
 10
-30.0401425149
 20
-23.3664076251
 10
-29.9872090927
 20
-23.3913061644
  0
LWPOLYLINE
  5
22B
100
AcDbEntity
  8
RACCORDO
100
AcDbPolyline
 62
250
  6
CONTINUOUS
 90
7
 70
0
 10
-31.9637780081
 20
11.6398848625
 10
-31.9581623567
 20
11.587052941
 10
-31.9410886962
 20
11.5340837718
 10
-31.9127528427
 20
11.4823324686
 10
-31.8734813291
 20
11.4323953956
 10
-31.8237267067
 20
11.3848480105
 10
-31.7640623307
 20
11.3402382331
  0
LWPOLYLINE
  5
22C
100
AcDbEntity
  8
RACCORDO
100
AcDbPolyline
 62
250
  6
CONTINUOUS
 90
8
 70
0
 10
-31.9236726907
 20
-20.4045810738
 10
-31.9226959931
 20
-20.4209806604
 10
-31.9106568618
 20
-20.4811279775
 10
-31.8854963345
 20
-20.5398843506
 10
-31.8475490394
 20
-20.5964683381
 10
-31.7973196658
 20
-20.6501273908
 10
-31.7354762512
 20
-20.7001478603
 10
-31.6628412967
 20
-20.7458644902
  0
LINE
  5
22D
100
AcDbEntity
  8
RACCORDO
100
AcDbLine
 62
250
  6
CONTINUOUS
 10
-31.6628412967
 20
-20.7458644902
 11
-31.6907332629
 21
-20.1835484877
  0
LWPOLYLINE
  5
22E
100
AcDbEntity
  8
RACCORDO
100
AcDbPolyline
 62
250
  6
CONTINUOUS
 90
3
 70
0
 10
-31.6907332629
 20
-20.1835484877
 10
-31.6925061805
 20
-20.1405992337
 10
-31.6937263349
 20
-20.0980219953
  0
LWPOLYLINE
  5
22F
100
AcDbEntity
  8
RACCORDO
100
AcDbPolyline
 62
7
  6
CONTINUOUS
 90
16
 70
0
 10
-31.9237040261
 20
-20.4034563599
 10
-31.9205507173
 20
-20.4805829076
 10
-31.900469617
 20
-20.6988943786
 10
-31.8643927551
 20
-20.9174621194
 10
-31.812870477
 20
-21.1354845689
 10
-31.7464544789
 20
-21.3518333414
 10
-31.6659276191
 20
-21.5648049582
 10
-31.571995566
 20
-21.7731872527
 10
-31.4651652484
 20
-21.9761656068
 10
-31.3461635253
 20
-22.1724558648
 10
-31.2155378471
 20
-22.361104323
 10
-31.0739126754
 20
-22.54099236
 10
-30.92219823
 20
-22.7106974292
 10
-30.7606361857
 20
-22.8695562618
 10
-30.5901426626
 20
-23.0161379642
 10
-30.4126544689
 20
-23.148406424
  0
LWPOLYLINE
  5
230
100
AcDbEntity
  8
RACCORDO
100
AcDbPolyline
 62
250
  6
CONTINUOUS
 90
8
 70
0
 10
-31.9237162831
 20
43.7358021733
 10
-31.9226960187
 20
43.7076154525
 10
-31.9106568925
 20
43.6531147419
 10
-31.8854963702
 20
43.5993617857
 10
-31.8475490803
 20
43.5470714843
 10
-31.7973197119
 20
43.4969392852
 10
-31.7354763025
 20
43.4496319335
 10
-31.6628413534
 20
43.405778605
  0
LINE
  5
231
100
AcDbEntity
  8
RACCORDO
100
AcDbLine
 62
7
  6
CONTINUOUS
 10
-31.9237039919
 20
-20.4034563609
 11
-31.9236726907
 21
-20.4045810738
  0
LINE
  5
232
100
AcDbEntity
  8
RACCORDO
100
AcDbLine
 62
250
  6
CONTINUOUS
 10
-31.6937263349
 20
-20.0980219953
 11
-31.6952781988
 21
-20.0139868894
  0
LINE
  5
233
100
AcDbEntity
  8
RACCORDO
100
AcDbLine
 62
7
  6
CONTINUOUS
 10
-31.937131089
 20
-19.218535831
 11
-31.9236726907
 21
-20.4045810738
  0
LINE
  5
234
100
AcDbEntity
  8
RACCORDO
100
AcDbLine
 62
250
  6
CONTINUOUS
 10
-31.6952781988
 20
-20.0139868894
 11
-31.7242391896
 21
-17.2324429139
  0
LINE
  5
235
100
AcDbEntity
  8
RACCORDO
100
AcDbLine
 62
250
  6
CONTINUOUS
 10
-31.7242391896
 20
-17.2324429139
 11
-31.7432644466
 21
-14.7667981579
  0
LINE
  5
236
100
AcDbEntity
  8
RACCORDO
100
AcDbLine
 62
250
  6
CONTINUOUS
 10
-31.7432644466
 20
-14.7667981579
 11
-31.7553085179
 21
-12.3019268749
  0
LINE
  5
237
100
AcDbEntity
  8
RACCORDO
100
AcDbLine
 62
7
  6
CONTINUOUS
 10
-31.9574532135
 20
-13.6993694731
 11
-31.937131089
 21
-19.218535831
  0
LINE
  5
238
100
AcDbEntity
  8
RACCORDO
100
AcDbLine
 62
250
  6
CONTINUOUS
 10
-31.7553085179
 20
-12.3019268749
 11
-31.7636305847
 21
-8.6735723338
  0
LINE
  5
239
100
AcDbEntity
  8
RACCORDO
100
AcDbLine
 62
250
  6
CONTINUOUS
 10
-31.7636305847
 20
-8.6735723338
 11
-31.7674631132
 21
-3.1555907354
  0
LINE
  5
23A
100
AcDbEntity
  8
RACCORDO
100
AcDbLine
 62
7
  6
CONTINUOUS
 10
-31.9654794637
 20
-1.6195136146
 11
-31.9574532135
 21
-13.6993694731
  0
LINE
  5
23B
100
AcDbEntity
  8
RACCORDO
100
AcDbLine
 62
7
  6
CONTINUOUS
 10
-31.9641240172
 20
4.9100766813
 11
-31.9654794637
 21
-1.6195136146
  0
LINE
  5
23C
100
AcDbEntity
  8
RACCORDO
100
AcDbLine
 62
250
  6
CONTINUOUS
 10
-31.7674631132
 20
-3.1555907354
 11
-31.7674812168
 21
25.5678901144
  0
LINE
  5
23D
100
AcDbEntity
  8
RACCORDO
100
AcDbLine
 62
250
  6
CONTINUOUS
 10
-31.7674812168
 20
25.5678901144
 11
-31.7641685265
 21
30.9528225823
  0
LINE
  5
23E
100
AcDbEntity
  8
RACCORDO
100
AcDbLine
 62
7
  6
CONTINUOUS
 10
-31.9574830531
 20
36.9747909758
 11
-31.9641240172
 21
4.9100766813
  0
LINE
  5
23F
100
AcDbEntity
  8
RACCORDO
100
AcDbLine
 62
250
  6
CONTINUOUS
 10
-31.7641685265
 20
30.9528225823
 11
-31.752546976
 21
35.6786679361
  0
LINE
  5
240
100
AcDbEntity
  8
RACCORDO
100
AcDbLine
 62
250
  6
CONTINUOUS
 10
-31.752546976
 20
35.6786679361
 11
-31.7384348855
 21
38.1626562845
  0
LINE
  5
241
100
AcDbEntity
  8
RACCORDO
100
AcDbLine
 62
250
  6
CONTINUOUS
 10
-31.7384348855
 20
38.1626562845
 11
-31.7166016995
 21
40.7035360402
  0
LWPOLYLINE
  5
242
100
AcDbEntity
  8
RACCORDO
100
AcDbPolyline
 62
7
  6
CONTINUOUS
 90
3
 70
0
 10
-31.9237056948
 20
43.7361844816
 10
-31.937200162
 20
42.5209953099
 10
-31.9574830531
 20
36.9747909758
  0
LINE
  5
243
100
AcDbEntity
  8
RACCORDO
100
AcDbLine
 62
250
  6
CONTINUOUS
 10
-31.7166016995
 20
40.7035360402
 11
-31.6953085995
 21
42.6793371662
  0
LWPOLYLINE
  5
244
100
AcDbEntity
  8
RACCORDO
100
AcDbPolyline
 62
250
  6
CONTINUOUS
 90
5
 70
0
 10
-31.6953085995
 20
42.6793371662
 10
-31.6937928632
 20
42.7638787719
 10
-31.6925848685
 20
42.8062946292
 10
-31.6907980095
 20
42.8485603866
 10
-31.6628412936
 20
43.4057786296
  0
LINE
  5
245
100
AcDbEntity
  8
RACCORDO
100
AcDbLine
 62
7
  6
CONTINUOUS
 10
-31.9237057349
 20
43.7361844815
 11
-31.9237162831
 21
43.7358021733
  0
LINE
  5
246
100
AcDbEntity
  8
0
100
AcDbLine
 62
7
  6
CONTINUOUS
 10
6.466732475
 20
-30.362333505
 11
6.4149035654
 21
-30.3678069426
  0
LINE
  5
247
100
AcDbEntity
  8
RACCORDO
100
AcDbLine
 62
250
  6
CONTINUOUS
 10
25.7822308913
 20
-46.5155510814
 11
20.6262849633
 21
-44.4896437875
  0
LINE
  5
248
100
AcDbEntity
  8
RACCORDO
100
AcDbLine
 62
250
  6
CONTINUOUS
 10
20.6262849633
 20
-44.4896437875
 11
19.3681881501
 21
-43.9910115774
  0
LINE
  5
249
100
AcDbEntity
  8
RACCORDO
100
AcDbLine
 62
7
  6
CONTINUOUS
 10
25.6944843573
 20
-46.7715241519
 11
26.7564008873
 21
-47.1980934695
  0
LINE
  5
24A
100
AcDbEntity
  8
RACCORDO
100
AcDbLine
 62
250
  6
CONTINUOUS
 10
19.3681881501
 20
-43.9910115774
 11
18.4359363603
 21
-43.6161216264
  0
LINE
  5
24B
100
AcDbEntity
  8
RACCORDO
100
AcDbLine
 62
250
  6
CONTINUOUS
 10
18.4359363603
 20
-43.6161216264
 11
17.800702976
 21
-43.3569786307
  0
LINE
  5
24C
100
AcDbEntity
  8
RACCORDO
100
AcDbLine
 62
250
  6
CONTINUOUS
 10
17.2033029255
 20
-43.1095561774
 11
16.1892162583
 21
-42.6927552941
  0
LWPOLYLINE
  5
24D
100
AcDbEntity
  8
RACCORDO
100
AcDbPolyline
 62
7
  6
CONTINUOUS
 90
3
 70
0
 10
18.2537963637
 20
-43.7267863408
 10
19.5371629323
 20
-44.2571209152
 10
25.6944843573
 20
-46.7715241519
  0
LINE
  5
24E
100
AcDbEntity
  8
RACCORDO
100
AcDbLine
 62
250
  6
CONTINUOUS
 10
17.800702976
 20
-43.3569786307
 11
17.2033029255
 21
-43.1095561774
  0
LINE
  5
24F
100
AcDbEntity
  8
RACCORDO
100
AcDbLine
 62
7
  6
CONTINUOUS
 10
-18.6360636661
 20
-28.2532001633
 11
-13.8779243347
 21
-30.2342477972
  0
LINE
  5
250
100
AcDbEntity
  8
RACCORDO
100
AcDbLine
 62
250
  6
CONTINUOUS
 10
-12.3204378586
 20
-30.6973529257
 11
-19.1421852575
 21
-27.8705855816
  0
LINE
  5
251
100
AcDbEntity
  8
RACCORDO
100
AcDbLine
 62
250
  6
CONTINUOUS
 10
16.1892162583
 20
-42.6927552941
 11
15.6086481159
 21
-42.4509919522
  0
LINE
  5
252
100
AcDbEntity
  8
RACCORDO
100
AcDbLine
 62
7
  6
CONTINUOUS
 10
15.6444578951
 20
-42.6370822541
 11
18.2537963637
 21
-43.7267863408
  0
LINE
  5
253
100
AcDbEntity
  8
RACCORDO
100
AcDbLine
 62
7
  6
CONTINUOUS
 10
-13.8779243347
 20
-30.2342477972
 11
-10.5937835063
 21
-31.6095054956
  0
LINE
  5
254
100
AcDbEntity
  8
RACCORDO
100
AcDbLine
 62
250
  6
CONTINUOUS
 10
0.1932588209
 20
-35.9608551447
 11
-3.5781870359
 21
-34.3790906091
  0
LINE
  5
255
100
AcDbEntity
  8
RACCORDO
100
AcDbLine
 62
7
  6
CONTINUOUS
 10
-10.5937835063
 20
-31.6095054956
 11
8.8539672314
 21
-39.7692345564
  0
LINE
  5
256
100
AcDbEntity
  8
RACCORDO
100
AcDbLine
 62
250
  6
CONTINUOUS
 10
-19.1421852575
 20
-27.8705855816
 11
-19.7429070189
 21
-27.6188953457
  0
LINE
  5
257
100
AcDbEntity
  8
RACCORDO
100
AcDbLine
 62
250
  6
CONTINUOUS
 10
9.0576580384
 20
-39.6675830923
 11
0.1932588209
 21
-35.9608551447
  0
LINE
  5
258
100
AcDbEntity
  8
RACCORDO
100
AcDbLine
 62
7
  6
CONTINUOUS
 10
8.8539672314
 20
-39.7692345564
 11
11.6255605073
 21
-40.9370467918
  0
LINE
  5
259
100
AcDbEntity
  8
RACCORDO
100
AcDbLine
 62
250
  6
CONTINUOUS
 10
-3.5781870359
 20
-34.3790906091
 11
-12.3204378586
 21
-30.6973529257
  0
LINE
  5
25A
100
AcDbEntity
  8
RACCORDO
100
AcDbLine
 62
7
  6
CONTINUOUS
 10
11.6255605073
 20
-40.9370467918
 11
15.6444578951
 21
-42.6370822541
  0
LINE
  5
25B
100
AcDbEntity
  8
RACCORDO
100
AcDbLine
 62
250
  6
CONTINUOUS
 10
15.6086481159
 20
-42.4509919522
 11
14.7042902749
 21
-42.0675920801
  0
LWPOLYLINE
  5
25C
100
AcDbEntity
  8
RACCORDO
100
AcDbPolyline
 62
7
  6
CONTINUOUS
 90
4
 70
0
 10
-23.1518539662
 20
-26.345154457
 10
-21.677158465
 20
-26.9737854286
 10
-20.1732069594
 20
-27.6096770955
 10
-18.6360636661
 20
-28.2532001633
  0
LWPOLYLINE
  5
25D
100
AcDbEntity
  8
RACCORDO
100
AcDbPolyline
 62
250
  6
CONTINUOUS
 90
3
 70
0
 10
14.7042902749
 20
-42.0675920801
 10
13.3320611312
 20
-41.4828560444
 10
9.0576580384
 20
-39.6675830923
  0
LINE
  5
25E
100
AcDbEntity
  8
RACCORDO
100
AcDbLine
 62
250
  6
CONTINUOUS
 10
-20.9161443749
 20
-27.1172972438
 11
-21.6684362303
 21
-26.7976373065
  0
LINE
  5
25F
100
AcDbEntity
  8
RACCORDO
100
AcDbLine
 62
250
  6
CONTINUOUS
 10
-19.7429070189
 20
-27.6188953457
 11
-20.3305329107
 21
-27.3688529864
  0
LINE
  5
260
100
AcDbEntity
  8
RACCORDO
100
AcDbLine
 62
250
  6
CONTINUOUS
 10
-20.3305329107
 20
-27.3688529864
 11
-20.9161443749
 21
-27.1172972438
  0
LINE
  5
261
100
AcDbEntity
  8
RACCORDO
100
AcDbLine
 62
7
  6
CONTINUOUS
 10
-28.7634578233
 20
-23.9258978565
 11
-23.1518539662
 21
-26.345154457
  0
LINE
  5
262
100
AcDbEntity
  8
RACCORDO
100
AcDbLine
 62
250
  6
CONTINUOUS
 10
-21.6684362303
 20
-26.7976373065
 11
-22.3090220711
 21
-26.521544103
  0
LINE
  5
263
100
AcDbEntity
  8
RACCORDO
100
AcDbLine
 62
7
  6
CONTINUOUS
 10
-29.9884338222
 20
-23.3907470481
 11
-28.7634578233
 21
-23.9258978565
  0
LINE
  5
264
100
AcDbEntity
  8
RACCORDO
100
AcDbLine
 62
250
  6
CONTINUOUS
 10
-22.3090220711
 20
-26.521544103
 11
-23.2053308468
 21
-26.1298272467
  0
LINE
  5
265
100
AcDbEntity
  8
RACCORDO
100
AcDbLine
 62
250
  6
CONTINUOUS
 10
-23.2053308468
 20
-26.1298272467
 11
-24.692093485
 21
-25.4705688733
  0
LWPOLYLINE
  5
266
100
AcDbEntity
  8
RACCORDO
100
AcDbPolyline
 62
250
  6
CONTINUOUS
 90
5
 70
0
 10
-24.692093485
 20
-25.4705688733
 10
-29.6506478284
 20
-23.255177239
 10
-29.7134198709
 20
-23.2261339351
 10
-29.773687136
 20
-23.1969212397
 10
-29.8888185367
 20
-23.1391893137
  0
LINE
  5
267
100
AcDbEntity
  8
RACCORDO
100
AcDbLine
 62
7
  6
CONTINUOUS
 10
-29.9872090927
 20
-23.3913061644
 11
-29.9884334307
 21
-23.3907461945
  0
LWPOLYLINE
  5
268
100
AcDbEntity
  8
RACCORDO
100
AcDbPolyline
 62
250
  6
CONTINUOUS
 90
7
 70
0
 10
-2.0913364278
 20
-35.1832208048
 10
-2.137562285
 20
-35.1590865048
 10
-2.1819914728
 20
-35.1253253912
 10
-2.2218264971
 20
-35.0832451551
 10
-2.2566839674
 20
-35.0332508088
 10
-2.2862279425
 20
-34.9758237306
 10
-2.310173892
 20
-34.9115167261
  0
LWPOLYLINE
  5
269
100
AcDbEntity
  8
RACCORDO
100
AcDbPolyline
 62
250
  6
CONTINUOUS
 90
7
 70
0
 10
-1.325256118
 20
-35.50462964
 10
-1.3714159838
 20
-35.4805230494
 10
-1.4158708825
 20
-35.4467511531
 10
-1.4557290201
 20
-35.4046612234
 10
-1.4906067628
 20
-35.354658375
 10
-1.5201684132
 20
-35.2972238843
 10
-1.5441294408
 20
-35.2329105571
  0
LWPOLYLINE
  5
26A
100
AcDbEntity
  8
RACCORDO
100
AcDbPolyline
 62
250
  6
CONTINUOUS
 90
13
 70
0
 10
-0.9719252336
 20
33.4013812605
 10
-1.0345537927
 20
33.3553480801
 10
-1.0962897871
 20
33.3016411349
 10
-1.1565382951
 20
33.2407770563
 10
-1.2147313652
 20
33.173346675
 10
-1.2702966557
 20
33.0999938727
 10
-1.322662824
 20
33.0214093322
 10
-1.371314174
 20
32.9383445267
 10
-1.4157947747
 20
32.8516041331
 10
-1.4556760183
 20
32.7620228228
 10
-1.4905740274
 20
32.6704628048
 10
-1.5201533478
 20
32.5778055267
 10
-1.5441294489
 20
32.4849428842
  0
LWPOLYLINE
  5
26B
100
AcDbEntity
  8
RACCORDO
100
AcDbPolyline
 62
250
  6
CONTINUOUS
 90
13
 70
0
 10
-1.7379696767
 20
33.7227750653
 10
-1.8007074961
 20
33.6767877535
 10
-1.8625176722
 20
33.6231119556
 10
-1.9228052833
 20
33.5622643002
 10
-1.9809900623
 20
33.4948304446
 10
-2.0365119819
 20
33.4214594384
 10
-2.0888366447
 20
33.3428574761
 10
-2.1374604269
 20
33.2597811
 10
-2.1819153256
 20
33.1730299186
 10
-2.2217734632
 20
33.0834389102
 10
-2.2566512059
 20
32.9918703865
 10
-2.2862128563
 20
32.8992056929
 10
-2.3101738839
 20
32.8063367249
  0
LWPOLYLINE
  5
26C
100
AcDbEntity
  8
0
100
AcDbPolyline
 62
7
  6
CONTINUOUS
 90
4
 70
0
 10
6.2673553457
 20
-29.7993128839
 10
6.2589815937
 20
-29.7997572641
 10
6.228681025
 20
-29.7970039836
 10
6.1978723457
 20
-29.7903173309
  0
LWPOLYLINE
  5
26D
100
AcDbEntity
  8
RACCORDO
100
AcDbPolyline
 62
250
  6
CONTINUOUS
 90
13
 70
0
 10
5.2298267749
 20
-28.1733214775
 10
5.1486746595
 20
-28.1558095099
 10
5.1078786572
 20
-28.1466169226
 10
5.0668297738
 20
-28.1368688319
 10
5.0261365715
 20
-28.1267334064
 10
4.9857380192
 20
-28.1162135588
 10
4.9444301196
 20
-28.1047676746
 10
4.9019902363
 20
-28.09219027
 10
4.8585606633
 20
-28.0785631186
 10
4.813492067
 20
-28.0636817251
 10
4.766568501
 20
-28.0474047376
 10
4.7180162945
 20
-28.02969634
 10
4.6678531375
 20
-28.0104721048
  0
LWPOLYLINE
  5
26E
100
AcDbEntity
  8
0
100
AcDbPolyline
 62
7
  6
CONTINUOUS
 90
7
 70
0
 10
6.0371106677
 20
-29.8574963171
 10
6.0694563305
 20
-29.868129596
 10
6.1014485976
 20
-29.8748102914
 10
6.1326055293
 20
-29.8772029994
 10
6.1625400299
 20
-29.8750085571
 10
6.1905583624
 20
-29.8679895618
 10
6.2156901739
 20
-29.8562559842
  0
LINE
  5
26F
100
AcDbEntity
  8
0
100
AcDbLine
 62
7
  6
CONTINUOUS
 10
6.1978723457
 20
-29.7903173309
 11
6.1669968633
 21
-29.780100147
  0
LINE
  5
270
100
AcDbEntity
  8
0
100
AcDbLine
 62
7
  6
CONTINUOUS
 10
7.0017010686
 20
-31.5299236948
 11
6.4862522668
 21
-31.3288926603
  0
LINE
  5
271
100
AcDbEntity
  8
0
100
AcDbLine
 62
7
  6
CONTINUOUS
 10
5.6306612411
 20
-30.9927549978
 11
5.175676578
 21
-30.8126873334
  0
LINE
  5
272
100
AcDbEntity
  8
0
100
AcDbLine
 62
7
  6
CONTINUOUS
 10
4.8728901496
 20
-30.6923355796
 11
4.4195014322
 21
-30.51131
  0
LINE
  5
273
100
AcDbEntity
  8
0
100
AcDbLine
 62
7
  6
CONTINUOUS
 10
3.4205943812
 20
-30.1091112048
 11
2.9702376414
 21
-29.9262982416
  0
LINE
  5
274
100
AcDbEntity
  8
0
100
AcDbLine
 62
7
  6
CONTINUOUS
 10
2.6704937621
 20
-29.8041257973
 11
2.2215802613
 21
-29.6204459132
  0
LINE
  5
275
100
AcDbEntity
  8
0
100
AcDbLine
 62
7
  6
CONTINUOUS
 10
1.7978884184
 20
-29.4463416511
 11
1.3504811974
 21
-29.2617820281
  0
LINE
  5
276
100
AcDbEntity
  8
0
100
AcDbLine
 62
7
  6
CONTINUOUS
 10
0.9280946879
 20
-29.0869123214
 11
0.4819220706
 21
-28.9015992085
  0
LINE
  5
277
100
AcDbEntity
  8
0
100
AcDbLine
 62
7
  6
CONTINUOUS
 10
0.0362978017
 20
-28.7159710153
 11
-0.4088730439
 21
-28.5300670321
  0
LINE
  5
278
100
AcDbEntity
  8
0
100
AcDbLine
 62
7
  6
CONTINUOUS
 10
-1.4189759434
 20
-28.1068828636
 11
-1.8631810797
 21
-27.9203871014
  0
LWPOLYLINE
  5
279
100
AcDbEntity
  8
RACCORDO
100
AcDbPolyline
 62
250
  6
CONTINUOUS
 90
8
 70
0
 10
26.7561090461
 20
-47.1979815938
 10
26.7027976804
 20
-47.170584165
 10
26.6542872407
 20
-47.1309423685
 10
26.6118777396
 20
-47.0798326241
 10
26.5761305955
 20
-47.0179315271
 10
26.5475190295
 20
-46.9460585295
 10
26.5264218012
 20
-46.8651650927
 10
26.5131181947
 20
-46.7763220915
  0
LINE
  5
27A
100
AcDbEntity
  8
0
100
AcDbLine
 62
250
  6
CONTINUOUS
 10
-12.1890654359
 20
20.6485872708
 11
-12.1483061023
 21
20.6728748119
  0
LWPOLYLINE
  5
27B
100
AcDbEntity
  8
RACCORDO
100
AcDbPolyline
 62
250
  6
CONTINUOUS
 90
3
 70
0
 10
-12.3394814982
 20
20.5759853242
 10
-12.2604667829
 20
20.6103140507
 10
-12.1890657661
 20
20.648587074
  0
LWPOLYLINE
  5
27C
100
AcDbEntity
  8
RACCORDO
100
AcDbPolyline
 62
250
  6
CONTINUOUS
 90
16
 70
0
 10
5.7436586572
 20
-25.8536313605
 10
5.639629061
 20
-25.8571755708
 10
5.5376045279
 20
-25.84463532
 10
5.4386890366
 20
-25.8177363627
 10
5.3437305528
 20
-25.7695676715
 10
5.2532486813
 20
-25.7119255199
 10
5.1690913476
 20
-25.6698945301
 10
5.0931905658
 20
-25.6544791218
 10
5.0251086493
 20
-25.6454087434
 10
4.96505768
 20
-25.621810344
 10
4.9142501553
 20
-25.5793040482
 10
4.8733452653
 20
-25.5289078701
 10
4.842728296
 20
-25.4770807757
 10
4.8227338785
 20
-25.4255940296
 10
4.8135929139
 20
-25.3733851472
 10
4.8129786309
 20
-25.3557990017
  0
LWPOLYLINE
  5
27D
100
AcDbEntity
  8
RACCORDO
100
AcDbPolyline
 62
250
  6
CONTINUOUS
 90
10
 70
0
 10
5.7436583582
 20
-25.8536335071
 10
5.9400589526
 20
-25.8615494388
 10
6.1347079075
 20
-25.8759088192
 10
6.3267620272
 20
-25.8966493703
 10
6.5153893568
 20
-25.9236811757
 10
6.6997727857
 20
-25.9568870706
 10
6.8791135875
 20
-25.996123149
 10
7.0526348797
 20
-26.0412193874
 10
7.2195849896
 20
-26.0919803812
 10
7.3792407097
 20
-26.1481861918
  0
LINE
  5
27E
100
AcDbEntity
  8
0
100
AcDbLine
 62
7
  6
CONTINUOUS
 10
6.1253508992
 20
-28.7917159059
 11
5.945186304
 21
-28.7225235827
  0
LINE
  5
27F
100
AcDbEntity
  8
0
100
AcDbLine
 62
7
  6
CONTINUOUS
 10
5.7802331293
 20
-28.7857896224
 11
5.9959378363
 21
-28.8688301472
  0
LINE
  5
280
100
AcDbEntity
  8
0
100
AcDbLine
 62
7
  6
CONTINUOUS
 10
5.9737477549
 20
-29.2840709663
 11
5.7921193261
 21
-29.2136348888
  0
LINE
  5
281
100
AcDbEntity
  8
0
100
AcDbLine
 62
7
  6
CONTINUOUS
 10
5.945186304
 20
-28.7225235827
 11
5.7649864065
 21
-28.6521838284
  0
LINE
  5
282
100
AcDbEntity
  8
0
100
AcDbLine
 62
7
  6
CONTINUOUS
 10
5.9329410655
 20
-30.2353450311
 11
5.5338778145
 21
-30.0793536862
  0
LINE
  5
283
100
AcDbEntity
  8
0
100
AcDbLine
 62
7
  6
CONTINUOUS
 10
6.1669966845
 20
-29.7800985214
 11
5.6103221389
 21
-29.5628894827
  0
LINE
  5
284
100
AcDbEntity
  8
0
100
AcDbLine
 62
7
  6
CONTINUOUS
 10
5.6350026549
 20
-28.7290007886
 11
5.7802331293
 21
-28.7857896224
  0
LINE
  5
285
100
AcDbEntity
  8
0
100
AcDbLine
 62
7
  6
CONTINUOUS
 10
5.4804926565
 20
-29.6402518586
 11
6.0371108466
 21
-29.8574944784
  0
LINE
  5
286
100
AcDbEntity
  8
0
100
AcDbLine
 62
7
  6
CONTINUOUS
 10
5.7921193261
 20
-29.2136348888
 11
5.5446967298
 21
-29.1161156503
  0
LINE
  5
287
100
AcDbEntity
  8
RACCORDO
100
AcDbLine
 62
250
  6
CONTINUOUS
 10
4.6678528158
 20
-28.0104723327
 11
4.3151836423
 21
-27.8709701103
  0
LINE
  5
288
100
AcDbEntity
  8
0
100
AcDbLine
 62
7
  6
CONTINUOUS
 10
5.4901972123
 20
-28.671602266
 11
5.6350026549
 21
-28.7290007886
  0
LINE
  5
289
100
AcDbEntity
  8
0
100
AcDbLine
 62
7
  6
CONTINUOUS
 10
5.7649864065
 20
-28.6521838284
 11
5.5852684818
 21
-28.5808870735
  0
LINE
  5
28A
100
AcDbEntity
  8
0
100
AcDbLine
 62
7
  6
CONTINUOUS
 10
5.5446967298
 20
-29.1161156503
 11
5.4186822365
 21
-29.0658969226
  0
LINE
  5
28B
100
AcDbEntity
  8
0
100
AcDbLine
 62
7
  6
CONTINUOUS
 10
5.3466556731
 20
-28.6139268165
 11
5.4901972123
 21
-28.671602266
  0
LINE
  5
28C
100
AcDbEntity
  8
RACCORDO
100
AcDbLine
 62
250
  6
CONTINUOUS
 10
4.3151836423
 20
-27.8709701103
 11
3.816840285
 21
-27.6711492252
  0
LINE
  5
28D
100
AcDbEntity
  8
0
100
AcDbLine
 62
7
  6
CONTINUOUS
 10
4.2260744668
 20
-29.9902189205
 11
3.5124874898
 21
-29.7028723257
  0
LINE
  5
28E
100
AcDbEntity
  8
0
100
AcDbLine
 62
7
  6
CONTINUOUS
 10
3.9852785762
 20
-29.3340597452
 11
3.7328465424
 21
-29.2319873148
  0
LINE
  5
28F
100
AcDbEntity
  8
0
100
AcDbLine
 62
7
  6
CONTINUOUS
 10
3.6031997582
 20
-29.3092408252
 11
4.0406051039
 21
-29.4859104297
  0
LINE
  5
290
100
AcDbEntity
  8
0
100
AcDbLine
 62
7
  6
CONTINUOUS
 10
5.5852684818
 20
-28.5808870735
 11
5.3203455384
 21
-28.4735281869
  0
LINE
  5
291
100
AcDbEntity
  8
RACCORDO
100
AcDbLine
 62
250
  6
CONTINUOUS
 10
3.816840285
 20
-27.6711492252
 11
3.1332580366
 21
-27.3933000083
  0
LWPOLYLINE
  5
292
100
AcDbEntity
  8
0
100
AcDbPolyline
 62
7
  6
CONTINUOUS
 90
3
 70
0
 10
4.9340947942
 20
-28.4450540586
 10
5.000609127
 20
-28.4724267148
 10
5.3466556731
 20
-28.6139268165
  0
LINE
  5
293
100
AcDbEntity
  8
0
100
AcDbLine
 62
7
  6
CONTINUOUS
 10
5.3203455384
 20
-28.4735281869
 11
5.0632725777
 21
-28.3680800148
  0
LINE
  5
294
100
AcDbEntity
  8
RACCORDO
100
AcDbLine
 62
250
  6
CONTINUOUS
 10
3.1332580366
 20
-27.3933000083
 11
2.043892168
 21
-26.9444050803
  0
LINE
  5
295
100
AcDbEntity
  8
0
100
AcDbLine
 62
7
  6
CONTINUOUS
 10
3.4729062218
 20
-27.8394631899
 11
3.9187270993
 21
-28.0250076766
  0
LINE
  5
296
100
AcDbEntity
  8
0
100
AcDbLine
 62
7
  6
CONTINUOUS
 10
4.0477152684
 20
-27.9481466197
 11
3.6018487655
 21
-27.7626293201
  0
LWPOLYLINE
  5
297
100
AcDbEntity
  8
0
100
AcDbPolyline
 62
7
  6
CONTINUOUS
 90
31
 70
0
 10
5.9959379637
 20
-28.868828437
 10
6.0483300053
 20
-28.8907071603
 10
6.1014683739
 20
-28.9167552959
 10
6.155056134
 20
-28.9469652818
 10
6.2087453029
 20
-28.9812599655
 10
6.2622417785
 20
-29.0195936747
 10
6.3152960201
 20
-29.0619814052
 10
6.367639282
 20
-29.1083737612
 10
6.4187783392
 20
-29.1585342986
 10
6.4681164381
 20
-29.2121327642
 10
6.515273581
 20
-29.2688591106
 10
6.5598742159
 20
-29.3284071931
 10
6.6013693717
 20
-29.3903511512
 10
6.6394845184
 20
-29.4543732696
 10
6.6738098171
 20
-29.5199237133
 10
6.703723369
 20
-29.586148514
 10
6.7290095286
 20
-29.6524537301
 10
6.7495467748
 20
-29.7184049777
 10
6.7650352649
 20
-29.7833695767
 10
6.7754180421
 20
-29.8467531249
 10
6.7807196386
 20
-29.9081742045
 10
6.7808379787
 20
-29.9673384229
 10
6.7758097001
 20
-30.0238095909
 10
6.7657164747
 20
-30.0771310366
 10
6.7505441484
 20
-30.126991516
 10
6.7304265843
 20
-30.1729990161
 10
6.7055423359
 20
-30.2147888819
 10
6.6759745533
 20
-30.2521145545
 10
6.6419103805
 20
-30.2846938622
 10
6.6036422944
 20
-30.3122088264
 10
6.5988882084
 20
-30.3150945917
  0
LINE
  5
298
100
AcDbEntity
  8
0
100
AcDbLine
 62
7
  6
CONTINUOUS
 10
1.7895041653
 20
-27.1354418289
 11
2.4615815018
 21
-27.4170246453
  0
LINE
  5
299
100
AcDbEntity
  8
0
100
AcDbLine
 62
7
  6
CONTINUOUS
 10
2.5904626426
 20
-27.340227364
 11
1.9183641879
 21
-27.0586571315
  0
LINE
  5
29A
100
AcDbEntity
  8
RACCORDO
100
AcDbLine
 62
250
  6
CONTINUOUS
 10
2.043892168
 20
-26.9444050803
 11
0.3122263123
 21
-26.2217109609
  0
LINE
  5
29B
100
AcDbEntity
  8
RACCORDO
100
AcDbLine
 62
250
  6
CONTINUOUS
 10
-4.7680116181
 20
-23.083937125
 11
-12.4732499539
 21
-19.8508713658
  0
LINE
  5
29C
100
AcDbEntity
  8
0
100
AcDbLine
 62
7
  6
CONTINUOUS
 10
0.2887690623
 20
-26.5051074839
 11
0.9599421327
 21
-26.7872291316
  0
LINE
  5
29D
100
AcDbEntity
  8
0
100
AcDbLine
 62
7
  6
CONTINUOUS
 10
1.0887889157
 20
-26.7104523233
 11
0.4176122212
 21
-26.4283328352
  0
LINE
  5
29E
100
AcDbEntity
  8
RACCORDO
100
AcDbLine
 62
250
  6
CONTINUOUS
 10
4.3015145499
 20
-26.8887207479
 11
-4.7680116181
 21
-23.083937125
  0
LINE
  5
29F
100
AcDbEntity
  8
0
100
AcDbLine
 62
7
  6
CONTINUOUS
 10
-0.5987759018
 20
-26.1316380012
 11
-0.1550426564
 21
-26.3184046792
  0
LINE
  5
2A0
100
AcDbEntity
  8
0
100
AcDbLine
 62
7
  6
CONTINUOUS
 10
-0.0261993509
 20
-26.2416299432
 11
-0.469930867
 21
-26.0548622346
  0
LINE
  5
2A1
100
AcDbEntity
  8
0
100
AcDbLine
 62
7
  6
CONTINUOUS
 10
-1.3381707353
 20
-25.820261669
 11
-0.894551419
 21
-26.0071016799
  0
LINE
  5
2A2
100
AcDbEntity
  8
0
100
AcDbLine
 62
7
  6
CONTINUOUS
 10
-0.765704511
 20
-25.9303247971
 11
-1.2093201584
 21
-25.7434826001
  0
LINE
  5
2A3
100
AcDbEntity
  8
0
100
AcDbLine
 62
7
  6
CONTINUOUS
 10
-2.7622596563
 20
-25.2202418616
 11
-2.3187265082
 21
-25.4071332181
  0
LINE
  5
2A4
100
AcDbEntity
  8
0
100
AcDbLine
 62
7
  6
CONTINUOUS
 10
-2.1898655306
 20
-25.3303479516
 11
-2.6333936501
 21
-25.1434535987
  0
LINE
  5
2A5
100
AcDbEntity
  8
RACCORDO
100
AcDbLine
 62
250
  6
CONTINUOUS
 10
0.3122263123
 20
-26.2217109609
 11
-9.5040594131
 21
-22.0992678179
  0
LWPOLYLINE
  5
2A6
100
AcDbEntity
  8
RACCORDO
100
AcDbPolyline
 62
250
  6
CONTINUOUS
 90
91
 70
0
 10
-12.4732517356
 20
-19.8508730778
 10
-12.4998132554
 20
-19.8395085046
 10
-12.5255928496
 20
-19.8279424409
 10
-12.5505822028
 20
-19.8162261475
 10
-12.5746789556
 20
-19.8044560447
 10
-12.5979733726
 20
-19.7926358436
 10
-12.6207472014
 20
-19.7806594967
 10
-12.6428983337
 20
-19.768610371
 10
-12.6645213944
 20
-19.7564655503
 10
-12.6861901008
 20
-19.7439148357
 10
-12.7078981945
 20
-19.7309555829
 10
-12.7296392363
 20
-19.7175895929
 10
-12.7519793071
 20
-19.7034570161
 10
-12.7751357863
 20
-19.6883791089
 10
-12.7988656383
 20
-19.6724687295
 10
-12.823040423
 20
-19.6557800775
 10
-12.8478803666
 20
-19.6381218003
 10
-12.8731352682
 20
-19.6196289748
 10
-12.8979836024
 20
-19.600894946
 10
-12.9223204665
 20
-19.5820206385
 10
-12.9462468096
 20
-19.5629480704
 10
-12.9692714574
 20
-19.5441009224
 10
-12.9912559211
 20
-19.5256455709
 10
-13.0123563402
 20
-19.5075025806
 10
-13.0325338778
 20
-19.4897514786
 10
-13.0517899683
 20
-19.4724382298
 10
-13.0701443742
 20
-19.4555906609
 10
-13.0875874682
 20
-19.4392610907
 10
-13.1040882847
 20
-19.4235228096
 10
-13.1197015976
 20
-19.4083661887
 10
-13.1345449251
 20
-19.3937135578
 10
-13.1486439288
 20
-19.3795729374
 10
-13.1619924439
 20
-19.3659810612
 10
-13.1746570651
 20
-19.3528963845
 10
-13.1865522778
 20
-19.3404355367
 10
-13.1977812828
 20
-19.3285181894
 10
-13.2086871155
 20
-19.3167964331
 10
-13.2193066044
 20
-19.3052399998
 10
-13.2296084533
 20
-19.2938932028
 10
-13.2398248439
 20
-19.2825066257
 10
-13.249958599
 20
-19.2710784612
 10
-13.2600060244
 20
-19.2596140763
 10
-13.2701826366
 20
-19.247865157
 10
-13.2804824635
 20
-19.2358313723
 10
-13.2909034467
 20
-19.2235076063
 10
-13.3016594032
 20
-19.2106290637
 10
-13.312737857
 20
-19.1971927592
 10
-13.3241336382
 20
-19.1831866966
 10
-13.3360621414
 20
-19.1683222809
 10
-13.348556759
 20
-19.152523836
 10
-13.3615513481
 20
-19.1358393821
 10
-13.3751037685
 20
-19.1181578062
 10
-13.3892478639
 20
-19.099389912
 10
-13.4039051033
 20
-19.0795911789
 10
-13.4189637299
 20
-19.0588675758
 10
-13.4344409167
 20
-19.0371493378
 10
-13.4502721828
 20
-19.0144782545
 10
-13.4662325433
 20
-18.9911370006
 10
-13.4822572839
 20
-18.9671904828
 10
-13.4983764199
 20
-18.9425629
 10
-13.5145168327
 20
-18.917334761
 10
-13.5306044258
 20
-18.8915954953
 10
-13.5466806851
 20
-18.8652515248
 10
-13.5628414038
 20
-18.8381075913
 10
-13.5790580537
 20
-18.8101643187
 10
-13.5953076596
 20
-18.7814121481
 10
-13.6116790536
 20
-18.7516340732
 10
-13.6281361971
 20
-18.7208231239
 10
-13.6446403116
 20
-18.6889757565
 10
-13.6612576605
 20
-18.6558745499
 10
-13.6779384148
 20
-18.6215123366
 10
-13.6946280865
 20
-18.5858885871
 10
-13.7113644671
 20
-18.5487921862
 10
-13.7280816773
 20
-18.5102153544
 10
-13.7447042571
 20
-18.4701676619
 10
-13.761231459
 20
-18.4284632828
 10
-13.7775737653
 20
-18.3851085035
 10
-13.7936358597
 20
-18.3401184258
 10
-13.8093812119
 20
-18.2933235847
 10
-13.8247331728
 20
-18.2446210112
 10
-13.8395259576
 20
-18.1941677845
 10
-13.8535831151
 20
-18.1421937612
 10
-13.8667087942
 20
-18.0890940251
 10
-13.8788753479
 20
-18.0345725022
 10
-13.8900973629
 20
-17.9778482206
 10
-13.9002439767
 20
-17.9185298381
 10
-13.9090013118
 20
-17.8572183239
 10
-13.9160814916
 20
-17.7946508309
 10
-13.921296302
 20
-17.7311631854
 10
-13.9244986397
 20
-17.6667015658
 10
-13.9255115358
 20
-17.6014314376
  0
LINE
  5
2A7
100
AcDbEntity
  8
RACCORDO
100
AcDbLine
 62
250
  6
CONTINUOUS
 10
-9.5040594131
 20
-22.0992678179
 11
-10.576634134
 21
-21.6410728768
  0
LINE
  5
2A8
100
AcDbEntity
  8
RACCORDO
100
AcDbLine
 62
250
  6
CONTINUOUS
 10
-10.576634134
 20
-21.6410728768
 11
-11.2485721207
 21
-21.3502541781
  0
LINE
  5
2A9
100
AcDbEntity
  8
RACCORDO
100
AcDbLine
 62
250
  6
CONTINUOUS
 10
-11.2485721207
 20
-21.3502541781
 11
-11.7378518745
 21
-21.1358070727
  0
LINE
  5
2AA
100
AcDbEntity
  8
RACCORDO
100
AcDbLine
 62
250
  6
CONTINUOUS
 10
-11.7378518745
 20
-21.1358070727
 11
-12.0836195183
 21
-20.9823950549
  0
LWPOLYLINE
  5
2AB
100
AcDbEntity
  8
RACCORDO
100
AcDbPolyline
 62
250
  6
CONTINUOUS
 90
35
 70
0
 10
-12.083618762
 20
-20.9823945287
 10
-12.134956321
 20
-20.958968287
 10
-12.1848203951
 20
-20.9352699433
 10
-12.2331845628
 20
-20.9114032928
 10
-12.2798233932
 20
-20.8875983201
 10
-12.3248955586
 20
-20.8638383799
 10
-12.3689641816
 20
-20.8398158737
 10
-12.4119818644
 20
-20.815491327
 10
-12.4541580996
 20
-20.7909281731
 10
-12.4964398118
 20
-20.7658943331
 10
-12.538503664
 20
-20.7406518555
 10
-12.5798849327
 20
-20.7154001866
 10
-12.6210875361
 20
-20.6898622782
 10
-12.6625188605
 20
-20.6638805079
 10
-12.7043260736
 20
-20.6372048713
 10
-12.7469756129
 20
-20.6091365315
 10
-12.7910129315
 20
-20.5791432596
 10
-12.8358406823
 20
-20.5476424651
 10
-12.8799652234
 20
-20.5156005973
 10
-12.9232109358
 20
-20.4831458739
 10
-12.9657816155
 20
-20.4501972737
 10
-13.0068280676
 20
-20.4175005715
 10
-13.0460802668
 20
-20.3853638682
 10
-13.0837677209
 20
-20.3536853523
 10
-13.1197832807
 20
-20.3226613258
 10
-13.1541633638
 20
-20.2923489929
 10
-13.1870084196
 20
-20.262735259
 10
-13.218338654
 20
-20.2338871072
 10
-13.2479799571
 20
-20.206048452
 10
-13.2758919666
 20
-20.1793252618
 10
-13.3022449737
 20
-20.1536112162
 10
-13.3272595307
 20
-20.1287907474
 10
-13.3514525859
 20
-20.1043680774
 10
-13.3755754858
 20
-20.0794894463
 10
-13.3996038903
 20
-20.0540471407
  0
LINE
  5
2AC
100
AcDbEntity
  8
RACCORDO
100
AcDbLine
 62
250
  6
CONTINUOUS
 10
-13.3996038903
 20
-20.0540471407
 11
-13.4462158188
 21
-20.0035086375
  0
LINE
  5
2AD
100
AcDbEntity
  8
RACCORDO
100
AcDbLine
 62
250
  6
CONTINUOUS
 10
-13.4462158188
 20
-20.0035086375
 11
-13.4905529581
 21
-19.9550014753
  0
LINE
  5
2AE
100
AcDbEntity
  8
RACCORDO
100
AcDbLine
 62
250
  6
CONTINUOUS
 10
-13.4905529581
 20
-19.9550014753
 11
-13.5549688826
 21
-19.8837158635
  0
LINE
  5
2AF
100
AcDbEntity
  8
RACCORDO
100
AcDbLine
 62
250
  6
CONTINUOUS
 10
-13.5549688826
 20
-19.8837158635
 11
-13.5977945067
 21
-19.8357994983
  0
LINE
  5
2B0
100
AcDbEntity
  8
RACCORDO
100
AcDbLine
 62
250
  6
CONTINUOUS
 10
-13.5977945067
 20
-19.8357994983
 11
-13.6413326929
 21
-19.786549735
  0
LWPOLYLINE
  5
2B1
100
AcDbEntity
  8
RACCORDO
100
AcDbPolyline
 62
250
  6
CONTINUOUS
 90
45
 70
0
 10
-13.6413326929
 20
-19.786549735
 10
-13.6865359099
 20
-19.7346282404
 10
-13.7098922858
 20
-19.7074149917
 10
-13.7337909921
 20
-19.6792844594
 10
-13.7582377527
 20
-19.6501591579
 10
-13.7835200315
 20
-19.6195198722
 10
-13.8098018107
 20
-19.5870469391
 10
-13.8369701078
 20
-19.5528284652
 10
-13.8649052873
 20
-19.5169214848
 10
-13.8936864093
 20
-19.4791440907
 10
-13.9231740393
 20
-19.4395899594
 10
-13.9529343424
 20
-19.3987440355
 10
-13.9828390259
 20
-19.3567233393
 10
-14.012947238
 20
-19.3133943155
 10
-14.0431197357
 20
-19.2688876232
 10
-14.0732202648
 20
-19.2233574622
 10
-14.1033241776
 20
-19.1766386054
 10
-14.1336010378
 20
-19.1283805317
 10
-14.1639974424
 20
-19.0785858975
 10
-14.1944693999
 20
-19.0272352678
 10
-14.2251732338
 20
-18.9739321566
 10
-14.2560440443
 20
-18.9186624737
 10
-14.2870089934
 20
-18.86141585
 10
-14.3181787988
 20
-18.8017904079
 10
-14.3494655153
 20
-18.7397677011
 10
-14.3807593268
 20
-18.6753561925
 10
-14.4120973089
 20
-18.6081923617
 10
-14.4433506287
 20
-18.5382852059
 10
-14.4743880622
 20
-18.4656293074
 10
-14.5051998715
 20
-18.3898315014
 10
-14.535665146
 20
-18.3108133614
 10
-14.5655400662
 20
-18.2287242652
 10
-14.594571819
 20
-18.1435830616
 10
-14.6223268554
 20
-18.0557179755
 10
-14.6488272637
 20
-17.9649854595
 10
-14.6744988344
 20
-17.8704868216
 10
-14.6992038808
 20
-17.7719198326
 10
-14.7227178796
 20
-17.6688139987
 10
-14.7451529547
 20
-17.560184563
 10
-14.7664183172
 20
-17.4456246863
 10
-14.7855933366
 20
-17.3266935651
 10
-14.8015581162
 20
-17.2053485445
 10
-14.8137556625
 20
-17.0824970447
 10
-14.8220713133
 20
-16.9579160253
 10
-14.8261787437
 20
-16.831892549
  0
LWPOLYLINE
  5
2B2
100
AcDbEntity
  8
RACCORDO
100
AcDbPolyline
 62
250
  6
CONTINUOUS
 90
10
 70
0
 10
-12.4732474292
 20
21.8894908247
 10
-12.4026756364
 20
22.0634018751
 10
-12.3384292935
 20
22.239120358
 10
-12.2807601526
 20
22.4159577061
 10
-12.2298941926
 20
22.5932209679
 10
-12.1860307338
 20
22.7702155228
 10
-12.1493416563
 20
22.9462478032
 10
-12.1199707272
 20
23.1206280124
 10
-12.0980330366
 20
23.2926728272
 10
-12.083614547
 20
23.461708076
  0
LWPOLYLINE
  5
2B3
100
AcDbEntity
  8
RACCORDO
100
AcDbPolyline
 62
250
  6
CONTINUOUS
 90
5
 70
0
 10
-12.4732491635
 20
21.8894904673
 10
-12.5142036725
 20
21.7926140282
 10
-12.5452867123
 20
21.6929265811
 10
-12.566707127
 20
21.5917627227
 10
-12.5756198106
 20
21.4891051083
  0
LWPOLYLINE
  5
2B4
100
AcDbEntity
  8
RACCORDO
100
AcDbPolyline
 62
7
  6
CONTINUOUS
 90
3
 70
0
 10
-0.9997985856
 20
-20.0894919991
 10
-0.9687566583
 20
-20.0910194244
 10
-0.9376364186
 20
-20.0977441667
  0
LINE
  5
2B5
100
AcDbEntity
  8
RACCORDO
100
AcDbLine
 62
7
  6
CONTINUOUS
 10
-0.9376364186
 20
-20.0977441667
 11
-0.9050000272
 21
-20.1098482373
  0
LINE
  5
2B6
100
AcDbEntity
  8
0
100
AcDbLine
 62
250
  6
CONTINUOUS
 10
4.8171220708
 20
-25.1976902278
 11
-11.9592512178
 21
-18.1591658924
  0
LINE
  5
2B7
100
AcDbEntity
  8
SUPERFICI
100
AcDbLine
 62
7
  6
CONTINUOUS
 10
4.812978867
 20
-23.4989234836
 11
-10.2880044452
 21
-17.1633087197
  0
LINE
  5
2B8
100
AcDbEntity
  8
DRAFT
100
AcDbLine
 62
7
  6
CONTINUOUS
 10
2.6866282068
 20
-22.4980802973
 11
-1.9224717641
 21
-20.5643332545
  0
LINE
  5
2B9
100
AcDbEntity
  8
DRAFT
100
AcDbLine
 62
7
  6
CONTINUOUS
 10
2.8071563911
 20
-22.4181071458
 11
-1.7858849045
 21
-20.4910975173
  0
LINE
  5
2BA
100
AcDbEntity
  8
DRAFT
100
AcDbLine
 62
7
  6
CONTINUOUS
 10
2.9879486676
 20
-22.2981474187
 11
-1.5810046152
 21
-20.3812439115
  0
LINE
  5
2BB
100
AcDbEntity
  8
DRAFT
100
AcDbLine
 62
7
  6
CONTINUOUS
 10
3.1084768519
 20
-22.2181742673
 11
-1.4444177556
 21
-20.3080081743
  0
LINE
  5
2BC
100
AcDbEntity
  8
DRAFT
100
AcDbLine
 62
7
  6
CONTINUOUS
 10
3.2892691284
 20
-22.0982145401
 11
-1.2395374663
 21
-20.1981545685
  0
LINE
  5
2BD
100
AcDbEntity
  8
RACCORDO
100
AcDbLine
 62
250
  6
CONTINUOUS
 10
-1.0688038918
 20
-20.106609897
 11
3.4399293588
 21
-21.9982481008
  0
LINE
  5
2BE
100
AcDbEntity
  8
RACCORDO
100
AcDbLine
 62
7
  6
CONTINUOUS
 10
-0.9040269859
 20
-20.1102159879
 11
3.5072801981
 21
-21.9609791035
  0
LWPOLYLINE
  5
2BF
100
AcDbEntity
  8
0
100
AcDbPolyline
 62
250
  6
CONTINUOUS
 90
13
 70
0
 10
-11.9592524332
 20
-18.1591666166
 10
-11.9892490924
 20
-18.1443588335
 10
-12.0187325006
 20
-18.1253590353
 10
-12.0471981882
 20
-18.1024923137
 10
-12.0741590996
 20
-18.0761499248
 10
-12.0991539261
 20
-18.046782594
 10
-12.1217549993
 20
-18.0148928046
 10
-12.1415756085
 20
-17.9810261996
 10
-12.1582766176
 20
-17.9457622462
 10
-12.1715722678
 20
-17.9097043203
 10
-12.1812350667
 20
-17.873469383
 10
-12.1870996812
 20
-17.8376774241
 10
-12.1890657661
 20
-17.802940854
  0
LWPOLYLINE
  5
2C0
100
AcDbEntity
  8
SUPERFICI
100
AcDbPolyline
 62
7
  6
CONTINUOUS
 90
10
 70
0
 10
-10.2880044452
 20
-17.1633087197
 10
-10.3297268721
 20
-17.1409008846
 10
-10.3680286449
 20
-17.1132291358
 10
-10.4029097637
 20
-17.0802934732
 10
-10.4352052272
 20
-17.0407996135
 10
-10.4640800366
 20
-16.99604184
 10
-10.487029196
 20
-16.9499030026
 10
-10.5032177067
 20
-16.9036773847
 10
-10.5134805674
 20
-16.8560707029
 10
-10.5178177781
 20
-16.8070829571
  0
LWPOLYLINE
  5
2C1
100
AcDbEntity
  8
RACCORDO
100
AcDbPolyline
 62
250
  6
CONTINUOUS
 90
10
 70
0
 10
-12.4732515843
 20
-19.8508728471
 10
-12.4026803279
 20
-19.9434249911
 10
-12.3384344019
 20
-20.0453182795
 10
-12.2807655516
 20
-20.1561534388
 10
-12.2298997498
 20
-20.2754961559
 10
-12.1860363114
 20
-20.4028787801
 10
-12.1493471127
 20
-20.5378021553
 10
-12.1199759173
 20
-20.6797375765
 10
-12.0980378133
 20
-20.8281288612
 10
-12.083618762
 20
-20.9823945287
  0
LWPOLYLINE
  5
2C2
100
AcDbEntity
  8
RACCORDO
100
AcDbPolyline
 62
250
  6
CONTINUOUS
 90
6
 70
0
 10
-12.4732517356
 20
-19.8508730778
 10
-12.5141937041
 20
-19.7960678059
 10
-12.5452786334
 20
-19.7342703147
 10
-12.5667132027
 20
-19.6659365297
 10
-12.5756622841
 20
-19.5928709078
 10
-12.5768960429
 20
-19.4269365855
  0
LWPOLYLINE
  5
2C3
100
AcDbEntity
  8
RACCORDO
100
AcDbPolyline
 62
250
  6
CONTINUOUS
 90
22
 70
0
 10
-13.9255115358
 20
-17.6014314376
 10
-13.8949343976
 20
-17.6531775
 10
-13.8540590521
 20
-17.7010205931
 10
-13.8033384553
 20
-17.7447399349
 10
-13.7433308222
 20
-17.7823501752
 10
-13.6746757676
 20
-17.8158080938
 10
-13.5981403206
 20
-17.8497275778
 10
-13.5145756185
 20
-17.8859290613
 10
-13.4248444823
 20
-17.919734482
 10
-13.3299390186
 20
-17.9461527745
 10
-13.2309508377
 20
-17.9637732534
 10
-13.1289555749
 20
-17.9748323033
 10
-13.0250535426
 20
-17.9806572955
 10
-12.920377817
 20
-17.98147537
 10
-12.8160816861
 20
-17.9768587185
 10
-12.7133093976
 20
-17.9668310731
 10
-12.6131877378
 20
-17.9514926716
 10
-12.5168137459
 20
-17.9310159351
 10
-12.4252437545
 20
-17.9056259289
 10
-12.3394814246
 20
-17.8755988118
 10
-12.2604667479
 20
-17.8412605356
 10
-12.1890657625
 20
-17.8029870133
  0
LWPOLYLINE
  5
2C4
100
AcDbEntity
  8
RACCORDO
100
AcDbPolyline
 62
250
  6
CONTINUOUS
 90
10
 70
0
 10
-13.9255106892
 20
-17.6014311155
 10
-13.9794691832
 20
-17.5043037027
 10
-14.0458046845
 20
-17.4091627377
 10
-14.1242298414
 20
-17.3164203485
 10
-14.2144049318
 20
-17.2264782729
 10
-14.3159393357
 20
-17.1397261181
 10
-14.4283932267
 20
-17.0565396734
 10
-14.5512794773
 20
-16.9772792823
 10
-14.6840657693
 20
-16.9022882809
 10
-14.8261768994
 20
-16.8318915117
  0
LINE
  5
2C5
100
AcDbEntity
  8
RACCORDO
100
AcDbLine
 62
250
  6
CONTINUOUS
 10
-14.8261768994
 20
-16.8318915117
 11
-14.8352354436
 21
-16.1184918591
  0
LINE
  5
2C6
100
AcDbEntity
  8
RACCORDO
100
AcDbLine
 62
250
  6
CONTINUOUS
 10
-14.8352354436
 20
-16.1184918591
 11
-14.8465999056
 21
-14.6933272564
  0
LINE
  5
2C7
100
AcDbEntity
  8
RACCORDO
100
AcDbLine
 62
250
  6
CONTINUOUS
 10
-14.8465999056
 20
-14.6933272564
 11
-14.8573170732
 21
-11.9091896839
  0
LINE
  5
2C8
100
AcDbEntity
  8
RACCORDO
100
AcDbLine
 62
250
  6
CONTINUOUS
 10
-14.8573170732
 20
-11.9091896839
 11
-14.8733601596
 21
-2.6720323484
  0
LINE
  5
2C9
100
AcDbEntity
  8
RACCORDO
100
AcDbLine
 62
250
  6
CONTINUOUS
 10
-14.8733601596
 20
-2.6720323484
 11
-14.8790607175
 21
2.9711493332
  0
LINE
  5
2CA
100
AcDbEntity
  8
RACCORDO
100
AcDbLine
 62
250
  6
CONTINUOUS
 10
-14.8790607175
 20
2.9711493332
 11
-14.8636638713
 21
13.7003249193
  0
LINE
  5
2CB
100
AcDbEntity
  8
RACCORDO
100
AcDbLine
 62
250
  6
CONTINUOUS
 10
-14.8636638713
 20
13.7003249193
 11
-14.8535878719
 21
17.8848697388
  0
LINE
  5
2CC
100
AcDbEntity
  8
RACCORDO
100
AcDbLine
 62
250
  6
CONTINUOUS
 10
-14.8535878719
 20
17.8848697388
 11
-14.8432428526
 21
19.9537216171
  0
LINE
  5
2CD
100
AcDbEntity
  8
RACCORDO
100
AcDbLine
 62
250
  6
CONTINUOUS
 10
-14.8432428526
 20
19.9537216171
 11
-14.8325165152
 21
21.111076767
  0
LINE
  5
2CE
100
AcDbEntity
  8
RACCORDO
100
AcDbLine
 62
250
  6
CONTINUOUS
 10
-14.8325165152
 20
21.111076767
 11
-14.826176788
 21
21.5808453618
  0
LWPOLYLINE
  5
2CF
100
AcDbEntity
  8
RACCORDO
100
AcDbPolyline
 62
250
  6
CONTINUOUS
 90
78
 70
0
 10
-14.8261866605
 20
21.5808399822
 10
-14.8225472275
 20
21.6959149259
 10
-14.815069504
 20
21.8083460083
 10
-14.8038353404
 20
21.9180413756
 10
-14.7886262587
 20
22.0256903568
 10
-14.7697332594
 20
22.130585178
 10
-14.748280119
 20
22.2305021753
 10
-14.7251050552
 20
22.3245643679
 10
-14.7003625186
 20
22.4126969804
 10
-14.6744296181
 20
22.4942272291
 10
-14.6476699468
 20
22.5698002035
 10
-14.6200145252
 20
22.640638504
 10
-14.5910265585
 20
22.7073988374
 10
-14.560833743
 20
22.7699789791
 10
-14.5299257547
 20
22.8283932848
 10
-14.4984855848
 20
22.8830030285
 10
-14.46670933
 20
22.9339666927
 10
-14.4347508241
 20
22.9814551173
 10
-14.4026162008
 20
23.025921159
 10
-14.3704655366
 20
23.0674669459
 10
-14.3384355555
 20
23.106193127
 10
-14.3064582347
 20
23.1424832732
 10
-14.2746447158
 20
23.1764283164
 10
-14.2430871512
 20
23.2081227467
 10
-14.211637468
 20
23.2379189605
 10
-14.1803692621
 20
23.2658887883
 10
-14.1493497083
 20
23.2920975876
 10
-14.1183828566
 20
23.3168432388
 10
-14.0874804094
 20
23.3402020326
 10
-14.0567267277
 20
23.3621865912
 10
-14.0260088633
 20
23.382965883
 10
-13.9952351534
 20
23.4026545575
 10
-13.9645574116
 20
23.4212056755
 10
-13.9342244868
 20
23.4385495344
 10
-13.9042476641
 20
23.454742915
 10
-13.87470846
 20
23.4698134339
 10
-13.845978806
 20
23.4836790241
 10
-13.8181921306
 20
23.4963656143
 10
-13.7912389809
 20
23.5080135228
 10
-13.7651167143
 20
23.5187354274
 10
-13.7398851788
 20
23.5285511223
 10
-13.7153985808
 20
23.5376093759
 10
-13.6913245076
 20
23.5461967018
 10
-13.6677092023
 20
23.554343211
 10
-13.6446234077
 20
23.562026995
 10
-13.6217610194
 20
23.569420273
 10
-13.599175461
 20
23.576518467
 10
-13.5768904889
 20
23.5833237468
 10
-13.5545101831
 20
23.5899975294
 10
-13.5320107898
 20
23.5965501935
 10
-13.509455555
 20
23.6029502634
 10
-13.4865574406
 20
23.6092684445
 10
-13.463325068
 20
23.6155322096
 10
-13.4398564196
 20
23.6216562895
 10
-13.4160023241
 20
23.6275189469
 10
-13.3918686285
 20
23.6331253218
 10
-13.3676048969
 20
23.6384085276
 10
-13.3431670581
 20
23.6431220662
 10
-13.318695783
 20
23.6470939714
 10
-13.2939729227
 20
23.6505165328
 10
-13.2684113757
 20
23.6536688009
 10
-13.2416536572
 20
23.6566499141
 10
-13.213703841
 20
23.6593360395
 10
-13.1844760152
 20
23.6616492301
 10
-13.1540855439
 20
23.6635139841
 10
-13.1225353613
 20
23.6648878665
 10
-13.0895766433
 20
23.6657223758
 10
-13.0551083225
 20
23.665967548
 10
-13.0191510629
 20
23.6655481389
 10
-12.9816381169
 20
23.6643606036
 10
-12.9422615151
 20
23.6623056883
 10
-12.9013404948
 20
23.6593179861
 10
-12.8597570879
 20
23.6553911425
 10
-12.8174300047
 20
23.6504607655
 10
-12.7744445054
 20
23.6445443401
 10
-12.7319728149
 20
23.6378805981
 10
-12.6904279719
 20
23.6304573548
 10
-12.6492946719
 20
23.6223488041
  0
LINE
  5
2D0
100
AcDbEntity
  8
DRAFT
100
AcDbLine
 62
7
  6
CONTINUOUS
 10
2.8975525293
 20
-22.4880310928
 11
2.8071563911
 21
-22.4181071458
  0
LINE
  5
2D1
100
AcDbEntity
  8
DRAFT
100
AcDbLine
 62
7
  6
CONTINUOUS
 10
3.1988729901
 20
-22.2880982143
 11
3.1084768519
 21
-22.2181742673
  0
LWPOLYLINE
  5
2D2
100
AcDbEntity
  8
RACCORDO
100
AcDbPolyline
 62
250
  6
CONTINUOUS
 90
10
 70
0
 10
-3.7022814293
 20
-23.5311743983
 10
-3.6312677601
 20
-23.6253445314
 10
-3.5668960239
 20
-23.7293265451
 10
-3.509431168
 20
-23.8426924602
 10
-3.4591097115
 20
-23.9649756748
 10
-3.4161387723
 20
-24.0956728841
 10
-3.3806952142
 20
-24.2342461522
 10
-3.3529249189
 20
-24.3801251262
 10
-3.3329421862
 20
-24.5327093839
 10
-3.3208292629
 20
-24.6913709044
  0
LWPOLYLINE
  5
2D3
100
AcDbEntity
  8
RACCORDO
100
AcDbPolyline
 62
250
  6
CONTINUOUS
 90
10
 70
0
 10
-4.4683258724
 20
-23.2097805934
 10
-4.39734795
 20
-23.3039357331
 10
-4.3330029398
 20
-23.4079066537
 10
-4.2755558182
 20
-23.5212654139
 10
-4.2252430487
 20
-23.6435456798
 10
-4.1822718955
 20
-23.7742439716
 10
-4.1468194324
 20
-23.9128215836
 10
-4.1190314912
 20
-24.058707785
 10
-4.0990222002
 20
-24.2113023196
 10
-4.086873706
 20
-24.3699770996
  0
LWPOLYLINE
  5
2D4
100
AcDbEntity
  8
RACCORDO
100
AcDbPolyline
 62
250
  6
CONTINUOUS
 90
22
 70
0
 10
-4.4683258724
 20
-23.2097805934
 10
-4.506059585
 20
-23.156461099
 10
-4.5376620939
 20
-23.0945586732
 10
-4.5627823893
 20
-23.0247609412
 10
-4.5811414599
 20
-22.947843254
 10
-4.5925354149
 20
-22.864659986
 10
-4.5968377201
 20
-22.7761350198
 10
-4.5940005847
 20
-22.683251622
 10
-4.5840555193
 20
-22.5870415432
 10
-4.5671129903
 20
-22.4885734518
 10
-4.5433611894
 20
-22.3889410973
 10
-4.5130639435
 20
-22.2892511614
 10
-4.4765577839
 20
-22.1906109655
 10
-4.4342482084
 20
-22.0941161707
 10
-4.3866051771
 20
-22.0008386079
 10
-4.3341578923
 20
-21.9118143719
 10
-4.2774889203
 20
-21.8280323132
 10
-4.2172277206
 20
-21.750423054
 10
-4.1540436536
 20
-21.679848651
 10
-4.0886385461
 20
-21.6170930204
 10
-4.0217388954
 20
-21.5628532299
 10
-3.9540877998
 20
-21.5177317564
  0
LWPOLYLINE
  5
2D5
100
AcDbEntity
  8
RACCORDO
100
AcDbPolyline
 62
250
  6
CONTINUOUS
 90
22
 70
0
 10
-3.7022813766
 20
-23.5311744204
 10
-3.7400151099
 20
-23.4778549205
 10
-3.7716176353
 20
-23.4159524918
 10
-3.7967379424
 20
-23.3461547586
 10
-3.8150970179
 20
-23.2692370718
 10
-3.8264909723
 20
-23.1860538047
 10
-3.8307932769
 20
-23.0975288393
 10
-3.8279561426
 20
-23.0046454418
 10
-3.8180110782
 20
-22.9084353632
 10
-3.8010685502
 20
-22.8099672717
 10
-3.7773167164
 20
-22.7103349312
 10
-3.7470194375
 20
-22.6106450092
 10
-3.7105133464
 20
-22.5120047843
 10
-3.6682041826
 20
-22.4155098164
 10
-3.6205616646
 20
-22.3222320378
 10
-3.568114372
 20
-22.2332078044
 10
-3.5114458703
 20
-22.1494255477
 10
-3.4511846195
 20
-22.0718163088
 10
-3.3879963599
 20
-22.0012436627
 10
-3.3225817112
 20
-21.9384920318
 10
-3.2556683777
 20
-21.8842579782
 10
-3.1879994576
 20
-21.8391439791
  0
LWPOLYLINE
  5
2D6
100
AcDbEntity
  8
RACCORDO
100
AcDbPolyline
 62
250
  6
CONTINUOUS
 90
16
 70
0
 10
-12.5768960429
 20
-19.4269365855
 10
-12.5816250126
 20
-19.3310281188
 10
-12.582961985
 20
-19.2302181397
 10
-12.5731480758
 20
-19.1287799638
 10
-12.5504551905
 20
-19.0287403022
 10
-12.5191234734
 20
-18.9295531082
 10
-12.4818101437
 20
-18.8313285427
 10
-12.4393955647
 20
-18.7349557297
 10
-12.3916985407
 20
-18.6417832628
 10
-12.339221719
 20
-18.5528566913
 10
-12.2825401886
 20
-18.4691656726
 10
-12.2222840698
 20
-18.3916377771
 10
-12.1591168291
 20
-18.3211351893
 10
-12.0937368375
 20
-18.2584409846
 10
-12.0268685869
 20
-18.2042508958
 10
-11.9592524334
 20
-18.1591666165
  0
LINE
  5
2D7
100
AcDbEntity
  8
0
100
AcDbLine
 62
250
  6
CONTINUOUS
 10
-12.1890654493
 20
-17.8029406652
 11
-12.1890654359
 21
20.6485872708
  0
LINE
  5
2D8
100
AcDbEntity
  8
RACCORDO
100
AcDbLine
 62
250
  6
CONTINUOUS
 10
-13.9255106892
 20
-17.6014311155
 11
-13.9255106563
 21
20.8483714946
  0
LWPOLYLINE
  5
2D9
100
AcDbEntity
  8
RACCORDO
100
AcDbPolyline
 62
250
  6
CONTINUOUS
 90
11
 70
0
 10
-12.5756198106
 20
21.4891051083
 10
-12.5767979627
 20
21.2926242557
 10
-12.5815569037
 20
21.206583437
 10
-12.5829382958
 20
21.1272286395
 10
-12.5731524047
 20
21.052078705
 10
-12.5504636281
 20
20.9813109358
 10
-12.5191277625
 20
20.9174074499
 10
-12.4818112058
 20
20.8620344744
 10
-12.439396187
 20
20.8160024699
 10
-12.3916989207
 20
20.7795508631
 10
-12.3461389049
 20
20.7558746082
  0
LWPOLYLINE
  5
2DA
100
AcDbEntity
  8
RACCORDO
100
AcDbPolyline
 62
250
  6
CONTINUOUS
 90
91
 70
0
 10
-13.9255115417
 20
20.8483711612
 10
-13.9246455874
 20
20.9086228002
 10
-13.9218103223
 20
20.9675401587
 10
-13.9170495265
 20
21.0250569455
 10
-13.9103626291
 20
21.0814390521
 10
-13.9018227824
 20
21.1362881528
 10
-13.891687822
 20
21.1886104294
 10
-13.8801536649
 20
21.238198057
 10
-13.8673325191
 20
21.285313814
 10
-13.8534795983
 20
21.3297721298
 10
-13.8387976708
 20
21.3715706757
 10
-13.8234070754
 20
21.4108639662
 10
-13.8074567565
 20
21.4477378937
 10
-13.7911204574
 20
21.4822188349
 10
-13.774502415
 20
21.5144567875
 10
-13.7576205325
 20
21.5447113806
 10
-13.7405737314
 20
21.5730644275
 10
-13.7234669693
 20
21.5995847067
 10
-13.706291445
 20
21.6244848239
 10
-13.6891288769
 20
21.6478236591
 10
-13.6720503694
 20
21.6696713329
 10
-13.6550022706
 20
21.6902314194
 10
-13.6380420919
 20
21.7095529641
 10
-13.6212222088
 20
21.7276890577
 10
-13.6044559341
 20
21.7448230614
 10
-13.5877820395
 20
21.7609924744
 10
-13.5712380029
 20
21.7762352835
 10
-13.554713754
 20
21.7907104976
 10
-13.538214369
 20
21.8044599016
 10
-13.5217845517
 20
21.8174915472
 10
-13.5053587973
 20
21.8298950001
 10
-13.4888886175
 20
21.8417361447
 10
-13.4724570136
 20
21.8529833933
 10
-13.4561953594
 20
21.8635813587
 10
-13.4401062589
 20
21.8735684658
 10
-13.4242289745
 20
21.8829582818
 10
-13.4087604721
 20
21.8916768888
 10
-13.39377332
 20
21.89973695
 10
-13.3792446663
 20
21.9071989577
 10
-13.3652342772
 20
21.9140724173
 10
-13.3518190672
 20
21.920368943
 10
-13.3389652683
 20
21.9261465404
 10
-13.3265626843
 20
21.9314780706
 10
-13.3146669684
 20
21.9363694984
 10
-13.3032518069
 20
21.9408641652
 10
-13.2920743965
 20
21.9450729993
 10
-13.2811330462
 20
21.9490107
 10
-13.2704438309
 20
21.9526859949
 10
-13.2597807973
 20
21.9561814654
 10
-13.2491315245
 20
21.9595048013
 10
-13.2385134603
 20
21.962653696
 10
-13.2277382105
 20
21.9656803187
 10
-13.2168101341
 20
21.9685788278
 10
-13.2057239893
 20
21.9713472296
 10
-13.1942707142
 20
21.9740290087
 10
-13.182435879
 20
21.9766084448
 10
-13.1702266822
 20
21.9790767835
 10
-13.1574602166
 20
21.9814730183
 10
-13.1440595199
 20
21.9837923692
 10
-13.1300875312
 20
21.9859962973
 10
-13.1155684911
 20
21.9880664861
 10
-13.1005457971
 20
21.9899775713
 10
-13.0849644858
 20
21.9917132324
 10
-13.0686997923
 20
21.9932635101
 10
-13.0517383812
 20
21.9945990886
 10
-13.034078328
 20
21.9956895548
 10
-13.0156084617
 20
21.996510836
 10
-12.9963032911
 20
21.9970248372
 10
-12.9761709846
 20
21.9971913309
 10
-12.9551486029
 20
21.9969725228
 10
-12.933037227
 20
21.996314638
 10
-12.9100176358
 20
21.9951705014
 10
-12.8866047127
 20
21.9935394049
 10
-12.862764174
 20
21.9914044235
 10
-12.8385340295
 20
21.9887478866
 10
-12.8145555792
 20
21.9856410286
 10
-12.7909794246
 20
21.982135109
 10
-12.7676775975
 20
21.9782317511
 10
-12.7448845585
 20
21.9739809461
 10
-12.7228172375
 20
21.9694665539
 10
-12.7012819897
 20
21.9646817393
 10
-12.6798965038
 20
21.9595308264
 10
-12.6587541919
 20
21.9540390988
 10
-12.6377756495
 20
21.948207463
 10
-12.6163130048
 20
21.9418485052
 10
-12.5942634086
 20
21.934908292
 10
-12.5717366509
 20
21.9273922255
 10
-12.548400132
 20
21.9191495716
 10
-12.5241461844
 20
21.9100935461
 10
-12.4990933278
 20
21.9002217604
 10
-12.4732491635
 20
21.8894904673
  0
LWPOLYLINE
  5
2DB
100
AcDbEntity
  8
0
100
AcDbPolyline
 62
250
  6
CONTINUOUS
 90
3
 70
0
 10
-12.1890657661
 20
20.648587074
 10
-12.1870996812
 20
20.6816739029
 10
-12.1857841488
 20
20.6885987832
  0
LWPOLYLINE
  5
2DC
100
AcDbEntity
  8
RACCORDO
100
AcDbPolyline
 62
250
  6
CONTINUOUS
 90
10
 70
0
 10
-4.4683258724
 20
18.5326151805
 10
-4.397312203
 20
18.7114161091
 10
-4.3329404667
 20
18.8921133707
 10
-4.2754756106
 20
19.0739632345
 10
-4.2251541539
 20
19.2562172257
 10
-4.1821832145
 20
19.4381252062
 10
-4.1467396563
 20
19.6189384621
 10
-4.1189693612
 20
19.7979127852
 10
-4.0989866289
 20
19.9743115361
 10
-4.086873706
 20
20.1474086763
  0
LWPOLYLINE
  5
2DD
100
AcDbEntity
  8
RACCORDO
100
AcDbPolyline
 62
250
  6
CONTINUOUS
 90
10
 70
0
 10
4.3015145499
 20
-26.8887207479
 10
4.36938218
 20
-26.9801389586
 10
4.4309290069
 20
-27.0809002103
 10
4.4859138528
 20
-27.1906096616
 10
4.5341212532
 20
-27.3088374067
 10
4.5753623018
 20
-27.4351201602
 10
4.6094753903
 20
-27.5689630728
 10
4.6363268418
 20
-27.7098416698
 10
4.655811435
 20
-27.8572039068
 10
4.6678528158
 20
-28.0104723327
  0
LWPOLYLINE
  5
2DE
100
AcDbEntity
  8
RACCORDO
100
AcDbPolyline
 62
250
  6
CONTINUOUS
 90
10
 70
0
 10
4.3015128268
 20
-26.8887224505
 10
4.2671977543
 20
-26.8366974084
 10
4.2352801967
 20
-26.7745505554
 10
4.206662625
 20
-26.7032031719
 10
4.1790530822
 20
-26.6223083046
 10
4.1568898529
 20
-26.5344175745
 10
4.1491539975
 20
-26.4443456561
 10
4.159709313
 20
-26.3548509126
 10
4.1810958444
 20
-26.2635755171
 10
4.2301861503
 20
-26.0690551387
  0
LWPOLYLINE
  5
2DF
100
AcDbEntity
  8
RACCORDO
100
AcDbPolyline
 62
250
  6
CONTINUOUS
 90
10
 70
0
 10
-13.9212927505
 20
1.615471956
 10
-13.9799903377
 20
1.7121863011
 10
-14.0515904594
 20
1.8067051812
 10
-14.1357678096
 20
1.8986004297
 10
-14.2321399387
 20
1.9874558001
 10
-14.3402689919
 20
2.0728688574
 10
-14.4596636979
 20
2.1544528061
 10
-14.5897816013
 20
2.231838248
 10
-14.7300315271
 20
2.3046748604
 10
-14.8797762667
 20
2.3726329875
  0
LWPOLYLINE
  5
2E0
100
AcDbEntity
  8
0
100
AcDbPolyline
 62
7
  6
CONTINUOUS
 90
3
 70
0
 10
-1.8631810797
 20
-27.9203871014
 10
-1.9870100199
 20
-27.5722967934
 10
-2.0487244515
 20
-27.3961940018
  0
LINE
  5
2E1
100
AcDbEntity
  8
SUPERFICI
100
AcDbLine
 62
7
  6
CONTINUOUS
 10
-10.5178177781
 20
19.9888030419
 11
-10.5178177781
 21
-16.8070829571
  0
LWPOLYLINE
  5
2E2
100
AcDbEntity
  8
RACCORDO
100
AcDbPolyline
 62
250
  6
CONTINUOUS
 90
16
 70
0
 10
-4.4683259251
 20
18.5326152026
 10
-4.5060596116
 20
18.4343264183
 10
-4.5376621018
 20
18.3347615875
 10
-4.5627823855
 20
18.2350266519
 10
-4.5811414533
 20
18.1362294755
 10
-4.5925354116
 20
18.03946742
 10
-4.59683772
 20
17.9458151654
 10
-4.5940005857
 20
17.8563129329
 10
-4.5840555214
 20
17.7719549204
 10
-4.5671129934
 20
17.6936781476
 10
-4.5433612273
 20
17.6223521
 10
-4.5130640162
 20
17.5587690285
 10
-4.4765577895
 20
17.5036351496
 10
-4.4342478037
 20
17.4575627696
 10
-4.3866042603
 20
17.4210637439
 10
-4.3409664089
 20
17.3973061644
  0
LWPOLYLINE
  5
2E3
100
AcDbEntity
  8
RACCORDO
100
AcDbPolyline
 62
250
  6
CONTINUOUS
 90
16
 70
0
 10
-3.7022814293
 20
18.2112213756
 10
-3.7400151419
 20
18.1129325936
 10
-3.7716176508
 20
18.0133677643
 10
-3.7967379461
 20
17.91363283
 10
-3.8150970167
 20
17.8148356546
 10
-3.8264909717
 20
17.7180735997
 10
-3.830793277
 20
17.6244213457
 10
-3.8279561416
 20
17.5349191143
 10
-3.8180110761
 20
17.450561103
 10
-3.8010685471
 20
17.3722843314
 10
-3.7773167463
 20
17.3009582709
 10
-3.7470195004
 20
17.2373751866
 10
-3.7105133408
 20
17.1822413375
 10
-3.6682037653
 20
17.1361691314
 10
-3.620560734
 20
17.0996703223
 10
-3.5749229321
 20
17.0759127649
  0
LWPOLYLINE
  5
2E4
100
AcDbEntity
  8
RACCORDO
100
AcDbPolyline
 62
250
  6
CONTINUOUS
 90
10
 70
0
 10
-3.7022814293
 20
18.2112213756
 10
-3.6312320054
 20
18.3900073153
 10
-3.5668333693
 20
18.5706935874
 10
-3.509350497
 20
18.7525364642
 10
-3.4590198524
 20
18.9347878053
 10
-3.4160486994
 20
19.1166971231
 10
-3.3806141118
 20
19.2975146838
 10
-3.3528619212
 20
19.476495961
 10
-3.3329062561
 20
19.6529046857
 10
-3.3208292629
 20
19.8260148714
  0
LINE
  5
2E5
100
AcDbEntity
  8
RACCORDO
100
AcDbLine
 62
250
  6
CONTINUOUS
 10
-31.764062333
 20
11.3402382323
 11
-29.9019624161
 21
10.1328634569
  0
LWPOLYLINE
  5
2E6
100
AcDbEntity
  8
RACCORDO
100
AcDbPolyline
 62
250
  6
CONTINUOUS
 90
22
 70
0
 10
-13.9212926762
 20
1.6154719282
 10
-13.8893263718
 20
1.5660663896
 10
-13.847277144
 20
1.518582526
 10
-13.7955987712
 20
1.4735328363
 10
-13.734848924
 20
1.4314035292
 10
-13.6656832539
 20
1.3926493478
 10
-13.5888483676
 20
1.3576886397
 10
-13.505173596
 20
1.3268987513
 10
-13.4155619958
 20
1.3006119769
 10
-13.3209807439
 20
1.2791120293
 10
-13.2224506543
 20
1.2626309995
 10
-13.1210351609
 20
1.2513467251
 10
-13.0178288399
 20
1.2453808706
 10
-12.9139455955
 20
1.2447975303
 10
-12.8105066383
 20
1.2496032889
 10
-12.7086283832
 20
1.2597470263
 10
-12.6094104011
 20
1.2751183047
 10
-12.51392355
 20
1.295552175
 10
-12.4231984175
 20
1.3208317233
 10
-12.3382141988
 20
1.3506853652
 10
-12.2598881277
 20
1.3847897907
 10
-12.1890655767
 20
1.4227770652
  0
LINE
  5
2E7
100
AcDbEntity
  8
0
100
AcDbLine
 62
7
  6
CONTINUOUS
 10
6.4862522668
 20
-31.3288926603
 11
5.9329410655
 21
-30.2353450311
  0
LINE
  5
2E8
100
AcDbEntity
  8
0
100
AcDbLine
 62
7
  6
CONTINUOUS
 10
7.1314102345
 20
-31.4526330126
 11
6.565824113
 21
-30.3321738149
  0
LINE
  5
2E9
100
AcDbEntity
  8
0
100
AcDbLine
 62
7
  6
CONTINUOUS
 10
6.4149035654
 20
-30.3678069426
 11
7.0017010686
 21
-31.5299236948
  0
LINE
  5
2EA
100
AcDbEntity
  8
0
100
AcDbLine
 62
7
  6
CONTINUOUS
 10
-2.0487244515
 20
-27.3961940018
 11
-2.171896919
 21
-27.0395019894
  0
LINE
  5
2EB
100
AcDbEntity
  8
0
100
AcDbLine
 62
7
  6
CONTINUOUS
 10
-1.8170494869
 20
-26.9649533366
 11
-1.7119758814
 21
-27.2736594274
  0
LINE
  5
2EC
100
AcDbEntity
  8
0
100
AcDbLine
 62
7
  6
CONTINUOUS
 10
-1.6471793501
 20
-27.0076681138
 11
-1.7213689006
 21
-26.7881588609
  0
LINE
  5
2ED
100
AcDbEntity
  8
0
100
AcDbLine
 62
7
  6
CONTINUOUS
 10
1.3504811974
 20
-29.2617820281
 11
1.2332833831
 21
-28.9161295918
  0
LINE
  5
2EE
100
AcDbEntity
  8
0
100
AcDbLine
 62
7
  6
CONTINUOUS
 10
-2.171896919
 20
-27.0395019894
 11
-2.2938634239
 21
-26.6790576892
  0
LINE
  5
2EF
100
AcDbEntity
  8
0
100
AcDbLine
 62
7
  6
CONTINUOUS
 10
-1.9208126758
 20
-26.6545511458
 11
-1.8170494869
 21
-26.9649533366
  0
LINE
  5
2F0
100
AcDbEntity
  8
0
100
AcDbLine
 62
7
  6
CONTINUOUS
 10
-1.7213689006
 20
-26.7881588609
 11
-1.8234284126
 21
-26.4813864815
  0
LINE
  5
2F1
100
AcDbEntity
  8
0
100
AcDbLine
 62
7
  6
CONTINUOUS
 10
1.2332833831
 20
-28.9161295918
 11
1.1161104617
 21
-28.5637553794
  0
LINE
  5
2F2
100
AcDbEntity
  8
0
100
AcDbLine
 62
7
  6
CONTINUOUS
 10
-2.2938634239
 20
-26.6790576892
 11
-2.4142708052
 21
-26.3157809062
  0
LINE
  5
2F3
100
AcDbEntity
  8
0
100
AcDbLine
 62
7
  6
CONTINUOUS
 10
-2.023046756
 20
-26.3429061502
 11
-1.9208126758
 21
-26.6545511458
  0
LINE
  5
2F4
100
AcDbEntity
  8
0
100
AcDbLine
 62
7
  6
CONTINUOUS
 10
1.1161104617
 20
-28.5637553794
 11
1.0389443347
 21
-28.3273932103
  0
LINE
  5
2F5
100
AcDbEntity
  8
0
100
AcDbLine
 62
7
  6
CONTINUOUS
 10
-1.8234284126
 20
-26.4813864815
 11
-1.9242295559
 21
-26.1726655632
  0
LINE
  5
2F6
100
AcDbEntity
  8
0
100
AcDbLine
 62
7
  6
CONTINUOUS
 10
-2.4142708052
 20
-26.3157809062
 11
-2.5327352754
 21
-25.9506115408
  0
LINE
  5
2F7
100
AcDbEntity
  8
0
100
AcDbLine
 62
7
  6
CONTINUOUS
 10
1.5491199755
 20
-28.2338719859
 11
1.5399675462
 21
-28.2054583737
  0
LINE
  5
2F8
100
AcDbEntity
  8
0
100
AcDbLine
 62
7
  6
CONTINUOUS
 10
1.410584224
 20
-28.2825616385
 11
1.4900770458
 21
-28.528233626
  0
LINE
  5
2F9
100
AcDbEntity
  8
0
100
AcDbLine
 62
7
  6
CONTINUOUS
 10
-2.1235583259
 20
-26.0306956627
 11
-2.023046756
 21
-26.3429061502
  0
LINE
  5
2FA
100
AcDbEntity
  8
0
100
AcDbLine
 62
7
  6
CONTINUOUS
 10
1.0389443347
 20
-28.3273932103
 11
0.9633047613
 21
-28.0919868214
  0
LINE
  5
2FB
100
AcDbEntity
  8
0
100
AcDbLine
 62
7
  6
CONTINUOUS
 10
-1.9242295559
 20
-26.1726655632
 11
-2.0241697013
 21
-25.8607954133
  0
LINE
  5
2FC
100
AcDbEntity
  8
0
100
AcDbLine
 62
7
  6
CONTINUOUS
 10
-2.5327352754
 20
-25.9506115408
 11
-2.6487790233
 21
-25.5852684504
  0
LINE
  5
2FD
100
AcDbEntity
  8
0
100
AcDbLine
 62
7
  6
CONTINUOUS
 10
1.3322351944
 20
-28.0360557342
 11
1.410584224
 21
-28.2825616385
  0
LINE
  5
2FE
100
AcDbEntity
  8
0
100
AcDbLine
 62
7
  6
CONTINUOUS
 10
0.9633047613
 20
-28.0919868214
 11
0.889603116
 21
-27.8587069065
  0
LINE
  5
2FF
100
AcDbEntity
  8
0
100
AcDbLine
 62
7
  6
CONTINUOUS
 10
-2.2221857399
 20
-25.7185674454
 11
-2.1235583259
 21
-26.0306956627
  0
LINE
  5
300
100
AcDbEntity
  8
0
100
AcDbLine
 62
7
  6
CONTINUOUS
 10
-2.0241697013
 20
-25.8607954133
 11
-2.1236548877
 21
-25.5443912212
  0
LINE
  5
301
100
AcDbEntity
  8
0
100
AcDbLine
 62
7
  6
CONTINUOUS
 10
-2.6487790233
 20
-25.5852684504
 11
-2.7622596563
 21
-25.2202418616
  0
LINE
  5
302
100
AcDbEntity
  8
0
100
AcDbLine
 62
7
  6
CONTINUOUS
 10
0.889603116
 20
-27.8587069065
 11
0.8185518326
 21
-27.6296539521
  0
LINE
  5
303
100
AcDbEntity
  8
0
100
AcDbLine
 62
7
  6
CONTINUOUS
 10
-2.1236548877
 20
-25.5443912212
 11
-2.1898655306
 21
-25.3303479516
  0
LINE
  5
304
100
AcDbEntity
  8
0
100
AcDbLine
 62
7
  6
CONTINUOUS
 10
-2.3187265082
 20
-25.4071332181
 11
-2.2221857399
 21
-25.7185674454
  0
LINE
  5
305
100
AcDbEntity
  8
0
100
AcDbLine
 62
7
  6
CONTINUOUS
 10
0.8185518326
 20
-27.6296539521
 11
0.7839710635
 21
-27.5165688897
  0
LWPOLYLINE
  5
306
100
AcDbEntity
  8
RACCORDO
100
AcDbPolyline
 62
250
  6
CONTINUOUS
 90
7
 70
0
 10
-3.575983126
 20
-29.3963806318
 10
-3.419477107
 20
-30.3296072841
 10
-3.249292652
 20
-31.2234745987
 10
-3.0570212025
 20
-32.1218126349
 10
-2.8365726511
 20
-33.0428438613
 10
-2.5882906638
 20
-33.9732755868
 10
-2.310173892
 20
-34.9115167261
  0
LWPOLYLINE
  5
307
100
AcDbEntity
  8
RACCORDO
100
AcDbPolyline
 62
250
  6
CONTINUOUS
 90
7
 70
0
 10
-2.8099393085
 20
-29.7177704418
 10
-2.6534334651
 20
-30.6509966124
 10
-2.4832491739
 20
-31.5448636272
 10
-2.2909777768
 20
-32.4432019428
 10
-2.0705290918
 20
-33.3642341692
 10
-1.822246778
 20
-34.29466741
 10
-1.5441294408
 20
-35.2329105571
  0
LINE
  5
308
100
AcDbEntity
  8
RACCORDO
100
AcDbLine
 62
250
  6
CONTINUOUS
 10
-3.7175624376
 20
-28.4212748859
 11
-3.575983126
 21
-29.3963806318
  0
LINE
  5
309
100
AcDbEntity
  8
0
100
AcDbLine
 62
7
  6
CONTINUOUS
 10
-0.4088730439
 20
-28.5300670321
 11
-0.4192212089
 21
-28.4310423102
  0
LWPOLYLINE
  5
30A
100
AcDbEntity
  8
RACCORDO
100
AcDbPolyline
 62
250
  6
CONTINUOUS
 90
6
 70
0
 10
-4.0868734042
 20
-24.3699830727
 10
-4.0454440075
 20
-25.0886576656
 10
-3.994319696
 20
-25.8034217207
 10
-3.9277838933
 20
-26.5742884559
 10
-3.8365434267
 20
-27.4554495956
 10
-3.7175624376
 20
-28.4212748859
  0
LWPOLYLINE
  5
30B
100
AcDbEntity
  8
RACCORDO
100
AcDbPolyline
 62
250
  6
CONTINUOUS
 90
7
 70
0
 10
-3.3208292629
 20
-24.6913709044
 10
-3.2793998106
 20
-25.4100476645
 10
-3.2282754591
 20
-26.1248129014
 10
-3.161739649
 20
-26.8956801518
 10
-3.070499254
 20
-27.7768410016
 10
-2.9515184305
 20
-28.742665436
 10
-2.8099393085
 20
-29.7177704418
  0
LWPOLYLINE
  5
30C
100
AcDbEntity
  8
RACCORDO
100
AcDbPolyline
 62
250
  6
CONTINUOUS
 90
13
 70
0
 10
-4.0868734069
 20
20.1474149523
 10
-4.0454440567
 20
20.9154624155
 10
-3.994319807
 20
21.691153326
 10
-3.9277840961
 20
22.5413134948
 10
-3.8365437601
 20
23.5312098274
 10
-3.7175629199
 20
24.638830318
 10
-3.5759837688
 20
25.7826630219
 10
-3.4194779311
 20
26.9024055687
 10
-3.2492936454
 20
27.9990903049
 10
-3.0570222509
 20
29.1265687489
 10
-2.8365735638
 20
30.3103215133
 10
-2.5882912427
 20
31.5366461393
 10
-2.310173892
 20
32.8063366891
  0
LWPOLYLINE
  5
30D
100
AcDbEntity
  8
RACCORDO
100
AcDbPolyline
 62
250
  6
CONTINUOUS
 90
13
 70
0
 10
-3.3208289611
 20
19.8260212042
 10
-3.2793995637
 20
20.5940694412
 10
-3.228275251
 20
21.3697610916
 10
-3.1617394465
 20
22.2199221266
 10
-3.0704989769
 20
23.2098194448
 10
-2.9515179836
 20
24.3174407827
 10
-2.8099386673
 20
25.4612742053
 10
-2.6534326432
 20
26.5810174908
 10
-2.4832481833
 20
27.6777027583
 10
-2.2909767319
 20
28.805180982
 10
-2.0705281838
 20
29.9889325316
 10
-1.8222462052
 20
31.2152551563
 10
-1.5441294489
 20
32.4849428842
  0
LWPOLYLINE
  5
30E
100
AcDbEntity
  8
RACCORDO
100
AcDbPolyline
 62
250
  6
CONTINUOUS
 90
13
 70
0
 10
29.20749066
 20
18.4469943749
 10
29.1241656155
 20
18.411044283
 10
29.0322219592
 20
18.3801075226
 10
28.9328825178
 20
18.354595547
 10
28.8274684801
 20
18.3348476612
 10
28.7173818255
 20
18.3211265095
 10
28.6040866779
 20
18.3136145819
 10
28.4890898334
 20
18.3124117876
 10
28.3739207201
 20
18.3175341256
 10
28.2601110573
 20
18.3289134727
 10
28.1491744841
 20
18.3463984888
 10
28.0425864281
 20
18.3697566301
 10
27.9417644827
 20
18.3986772417
  0
LWPOLYLINE
  5
30F
100
AcDbEntity
  8
RACCORDO
100
AcDbPolyline
 62
250
  6
CONTINUOUS
 90
10
 70
0
 10
5.7268137693
 20
-6.6280716197
 10
5.9275742048
 20
-6.6401544765
 10
6.1262480686
 20
-6.6589735263
 10
6.3219327121
 20
-6.6844446279
 10
6.5137390677
 20
-6.7164534172
 10
6.7007956886
 20
-6.7548558265
 10
6.8822527076
 20
-6.79947874
 10
7.0572856989
 20
-6.8501207793
 10
7.2250994233
 20
-6.906553219
 10
7.3849314416
 20
-6.9685210257
  0
LWPOLYLINE
  5
310
100
AcDbEntity
  8
RACCORDO
100
AcDbPolyline
 62
250
  6
CONTINUOUS
 90
16
 70
0
 10
5.7268137693
 20
-6.6280715742
 10
5.6239162777
 20
-6.6209136787
 10
5.5230591351
 20
-6.6084566578
 10
5.4253308935
 20
-6.5908349316
 10
5.3317862914
 20
-6.5682386474
 10
5.2434350339
 20
-6.5409116713
 10
5.1612308621
 20
-6.5091489833
 10
5.0860610469
 20
-6.4732934216
 10
5.0187368456
 20
-6.4337319559
 10
4.9599848874
 20
-6.3908915726
 10
4.9104392814
 20
-6.345234605
 10
4.8706347726
 20
-6.2972538701
 10
4.8410009706
 20
-6.2474673498
 10
4.8218577127
 20
-6.1964126845
 10
4.8134116116
 20
-6.1446406177
 10
4.81297885
 20
-6.1299324194
  0
LWPOLYLINE
  5
311
100
AcDbEntity
  8
RACCORDO
100
AcDbPolyline
 62
250
  6
CONTINUOUS
 90
10
 70
0
 10
27.9795912903
 20
-13.725200628
 10
25.278176954
 20
-13.0179538399
 10
22.7453979747
 20
-12.3105562027
 10
20.3910755764
 20
-11.6128470504
 10
18.2575258887
 20
-10.9457071036
 10
16.2431681448
 20
-10.2839131125
 10
14.2032286094
 20
-9.5808810685
 10
11.9278918637
 20
-8.755572186
 10
9.5366330414
 20
-7.839005372
 10
7.3849314416
 20
-6.9685210257
  0
LWPOLYLINE
  5
312
100
AcDbEntity
  8
RACCORDO
100
AcDbPolyline
 62
250
  6
CONTINUOUS
 90
9
 70
0
 10
-29.9019624161
 20
10.1328634569
 10
-28.0688486066
 20
9.0085515798
 10
-26.2858060476
 20
7.9704300272
 10
-24.6013098497
 20
7.035709527
 10
-22.948040593
 20
6.1587512864
 10
-21.2091059924
 20
5.2763573833
 10
-19.1884567301
 20
4.2992861278
 10
-16.9679347669
 20
3.2809811635
 10
-14.8797762227
 20
2.3726329687
  0
LINE
  5
313
100
AcDbEntity
  8
RACCORDO
100
AcDbLine
 62
7
  6
CONTINUOUS
 10
3.5094494472
 20
-21.9619297002
 11
3.5097999663
 21
-21.9626413934
  0
LINE
  5
314
100
AcDbEntity
  8
0
100
AcDbLine
 62
7
  6
CONTINUOUS
 10
4.4195014322
 20
-30.51131
 11
4.2260744668
 21
-29.9902189205
  0
LINE
  5
315
100
AcDbEntity
  8
0
100
AcDbLine
 62
7
  6
CONTINUOUS
 10
4.468868253
 20
-29.6012850896
 11
4.8728901496
 21
-30.6923355796
  0
LINE
  5
316
100
AcDbEntity
  8
0
100
AcDbLine
 62
7
  6
CONTINUOUS
 10
5.0027232169
 20
-30.6149710674
 11
4.5831947792
 21
-29.4820461274
  0
LINE
  5
317
100
AcDbEntity
  8
0
100
AcDbLine
 62
7
  6
CONTINUOUS
 10
4.5831947792
 20
-29.4820461274
 11
4.4499901678
 21
-29.1172575867
  0
LINE
  5
318
100
AcDbEntity
  8
0
100
AcDbLine
 62
7
  6
CONTINUOUS
 10
4.3258144824
 20
-29.209531357
 11
4.468868253
 21
-29.6012850896
  0
LINE
  5
319
100
AcDbEntity
  8
0
100
AcDbLine
 62
7
  6
CONTINUOUS
 10
4.0406051039
 20
-29.4859104297
 11
3.9138516344
 21
-29.1364381187
  0
LINE
  5
31A
100
AcDbEntity
  8
0
100
AcDbLine
 62
7
  6
CONTINUOUS
 10
4.4499901678
 20
-29.1172575867
 11
4.3541375485
 21
-28.8506552676
  0
LINE
  5
31B
100
AcDbEntity
  8
0
100
AcDbLine
 62
7
  6
CONTINUOUS
 10
4.220411589
 20
-28.9159898729
 11
4.3258144824
 21
-29.209531357
  0
LINE
  5
31C
100
AcDbEntity
  8
0
100
AcDbLine
 62
7
  6
CONTINUOUS
 10
3.9138516344
 20
-29.1364381187
 11
3.8172679922
 21
-28.8656238706
  0
LINE
  5
31D
100
AcDbEntity
  8
0
100
AcDbLine
 62
7
  6
CONTINUOUS
 10
4.3541375485
 20
-28.8506552676
 11
4.2910404981
 21
-28.6721440779
  0
LINE
  5
31E
100
AcDbEntity
  8
0
100
AcDbLine
 62
7
  6
CONTINUOUS
 10
4.1512408521
 20
-28.7196595254
 11
4.220411589
 21
-28.9159898729
  0
LINE
  5
31F
100
AcDbEntity
  8
0
100
AcDbLine
 62
7
  6
CONTINUOUS
 10
3.8172679922
 20
-28.8656238706
 11
3.7523883359
 21
-28.6807522249
  0
LINE
  5
320
100
AcDbEntity
  8
0
100
AcDbLine
 62
7
  6
CONTINUOUS
 10
4.2910404981
 20
-28.6721440779
 11
4.2286082888
 21
-28.4924958201
  0
LINE
  5
321
100
AcDbEntity
  8
0
100
AcDbLine
 62
7
  6
CONTINUOUS
 10
4.0831911345
 20
-28.5225058002
 11
4.1512408521
 21
-28.7196595254
  0
LINE
  5
322
100
AcDbEntity
  8
0
100
AcDbLine
 62
7
  6
CONTINUOUS
 10
4.2286082888
 20
-28.4924958201
 11
4.167106913
 21
-28.3117750242
  0
LINE
  5
323
100
AcDbEntity
  8
0
100
AcDbLine
 62
7
  6
CONTINUOUS
 10
4.0163725201
 20
-28.3243831219
 11
4.0831911345
 21
-28.5225058002
  0
LINE
  5
324
100
AcDbEntity
  8
0
100
AcDbLine
 62
7
  6
CONTINUOUS
 10
4.167106913
 20
-28.3117750242
 11
4.1067844918
 21
-28.1302990959
  0
LINE
  5
325
100
AcDbEntity
  8
0
100
AcDbLine
 62
7
  6
CONTINUOUS
 10
4.1067844918
 20
-28.1302990959
 11
4.0477152684
 21
-27.9481466197
  0
LWPOLYLINE
  5
326
100
AcDbEntity
  8
0
100
AcDbPolyline
 62
7
  6
CONTINUOUS
 90
3
 70
0
 10
3.9187270993
 20
-28.0250076766
 10
3.9509370466
 20
-28.1250837985
 10
4.0163725201
 20
-28.3243831219
  0
LINE
  5
327
100
AcDbEntity
  8
0
100
AcDbLine
 62
7
  6
CONTINUOUS
 10
1.5399675462
 20
-28.2054583737
 11
1.4615248294
 21
-27.9590214055
  0
LINE
  5
328
100
AcDbEntity
  8
0
100
AcDbLine
 62
7
  6
CONTINUOUS
 10
1.4615248294
 20
-27.9590214055
 11
1.3843106399
 21
-27.7115652468
  0
LINE
  5
329
100
AcDbEntity
  8
0
100
AcDbLine
 62
7
  6
CONTINUOUS
 10
1.2551155783
 20
-27.7885257575
 11
1.3322351944
 21
-28.0360557342
  0
LINE
  5
32A
100
AcDbEntity
  8
0
100
AcDbLine
 62
7
  6
CONTINUOUS
 10
1.3843106399
 20
-27.7115652468
 11
1.3083943245
 21
-27.4629719842
  0
LINE
  5
32B
100
AcDbEntity
  8
0
100
AcDbLine
 62
7
  6
CONTINUOUS
 10
1.1792883798
 20
-27.5398508003
 11
1.2551155783
 21
-27.7885257575
  0
LINE
  5
32C
100
AcDbEntity
  8
0
100
AcDbLine
 62
7
  6
CONTINUOUS
 10
1.3083943245
 20
-27.4629719842
 11
1.2338078892
 21
-27.2131947189
  0
LINE
  5
32D
100
AcDbEntity
  8
0
100
AcDbLine
 62
7
  6
CONTINUOUS
 10
1.1047893879
 20
-27.290008346
 11
1.1792883798
 21
-27.5398508003
  0
LINE
  5
32E
100
AcDbEntity
  8
0
100
AcDbLine
 62
7
  6
CONTINUOUS
 10
1.2338078892
 20
-27.2131947189
 11
1.1605988291
 21
-26.9623115447
  0
LINE
  5
32F
100
AcDbEntity
  8
0
100
AcDbLine
 62
7
  6
CONTINUOUS
 10
1.0316691888
 20
-27.0390947289
 11
1.1047893879
 21
-27.290008346
  0
LINE
  5
330
100
AcDbEntity
  8
0
100
AcDbLine
 62
7
  6
CONTINUOUS
 10
1.1605988291
 20
-26.9623115447
 11
1.0887889157
 21
-26.7104523233
  0
LINE
  5
331
100
AcDbEntity
  8
0
100
AcDbLine
 62
7
  6
CONTINUOUS
 10
0.9599421327
 20
-26.7872291316
 11
1.0316691888
 21
-27.0390947289
  0
LINE
  5
332
100
AcDbEntity
  8
0
100
AcDbLine
 62
7
  6
CONTINUOUS
 10
2.2215802613
 20
-29.6204459132
 11
2.1845380676
 21
-29.27677312
  0
LINE
  5
333
100
AcDbEntity
  8
0
100
AcDbLine
 62
7
  6
CONTINUOUS
 10
2.6266252115
 20
-29.3979427742
 11
2.6615261855
 21
-29.7227680966
  0
LINE
  5
334
100
AcDbEntity
  8
0
100
AcDbLine
 62
7
  6
CONTINUOUS
 10
2.789610404
 20
-29.6298144799
 11
2.7478953437
 21
-29.240207786
  0
LINE
  5
335
100
AcDbEntity
  8
0
100
AcDbLine
 62
7
  6
CONTINUOUS
 10
1.057853104
 20
-29.0095922922
 11
1.0224290447
 21
-28.6735448298
  0
LINE
  5
336
100
AcDbEntity
  8
0
100
AcDbLine
 62
7
  6
CONTINUOUS
 10
0.8928642507
 20
-28.7514407199
 11
0.9280946879
 21
-29.0869123214
  0
LINE
  5
337
100
AcDbEntity
  8
0
100
AcDbLine
 62
7
  6
CONTINUOUS
 10
0.4819220706
 20
-28.9015992085
 11
0.4509471144
 21
-28.6044267719
  0
LINE
  5
338
100
AcDbEntity
  8
0
100
AcDbLine
 62
7
  6
CONTINUOUS
 10
0.1660195846
 20
-28.638672815
 11
0.1351841041
 21
-28.3413904319
  0
LINE
  5
339
100
AcDbEntity
  8
0
100
AcDbLine
 62
7
  6
CONTINUOUS
 10
0.0056351554
 20
-28.4191595683
 11
0.0362978017
 21
-28.7159710153
  0
LINE
  5
33A
100
AcDbEntity
  8
0
100
AcDbLine
 62
7
  6
CONTINUOUS
 10
2.5932075247
 20
-29.072208982
 11
2.6266252115
 21
-29.3979427742
  0
LINE
  5
33B
100
AcDbEntity
  8
0
100
AcDbLine
 62
7
  6
CONTINUOUS
 10
2.1845380676
 20
-29.27677312
 11
2.1493103705
 21
-28.9307188345
  0
LINE
  5
33C
100
AcDbEntity
  8
0
100
AcDbLine
 62
7
  6
CONTINUOUS
 10
2.7478953437
 20
-29.240207786
 11
2.717974226
 21
-28.9465677267
  0
LINE
  5
33D
100
AcDbEntity
  8
0
100
AcDbLine
 62
7
  6
CONTINUOUS
 10
-0.4192212089
 20
-28.4310423102
 11
-0.4491096138
 21
-28.1333048785
  0
LINE
  5
33E
100
AcDbEntity
  8
0
100
AcDbLine
 62
7
  6
CONTINUOUS
 10
1.0224290447
 20
-28.6735448298
 11
0.9886563272
 21
-28.3303111091
  0
LINE
  5
33F
100
AcDbEntity
  8
0
100
AcDbLine
 62
7
  6
CONTINUOUS
 10
0.8592491202
 20
-28.4084070971
 11
0.8928642507
 21
-28.7514407199
  0
LINE
  5
340
100
AcDbEntity
  8
0
100
AcDbLine
 62
7
  6
CONTINUOUS
 10
0.4509471144
 20
-28.6044267719
 11
0.4216549946
 21
-28.306344376
  0
LINE
  5
341
100
AcDbEntity
  8
0
100
AcDbLine
 62
7
  6
CONTINUOUS
 10
2.5691119083
 20
-28.8253127817
 11
2.5932075247
 21
-29.072208982
  0
LINE
  5
342
100
AcDbEntity
  8
0
100
AcDbLine
 62
7
  6
CONTINUOUS
 10
0.1351841041
 20
-28.3413904319
 11
0.1060714442
 21
-28.043206631
  0
LINE
  5
343
100
AcDbEntity
  8
0
100
AcDbLine
 62
7
  6
CONTINUOUS
 10
-0.0232869333
 20
-28.1216967967
 11
0.0056351554
 21
-28.4191595683
  0
LINE
  5
344
100
AcDbEntity
  8
0
100
AcDbLine
 62
7
  6
CONTINUOUS
 10
2.717974226
 20
-28.9465677267
 11
2.6895918722
 21
-28.6528034104
  0
LINE
  5
345
100
AcDbEntity
  8
0
100
AcDbLine
 62
7
  6
CONTINUOUS
 10
2.1493103705
 20
-28.9307188345
 11
2.1160542622
 21
-28.5821778421
  0
LINE
  5
346
100
AcDbEntity
  8
0
100
AcDbLine
 62
7
  6
CONTINUOUS
 10
-0.4491096138
 20
-28.1333048785
 11
-0.4772320548
 21
-27.8346324839
  0
LINE
  5
347
100
AcDbEntity
  8
0
100
AcDbLine
 62
7
  6
CONTINUOUS
 10
2.5458444787
 20
-28.5738902447
 11
2.5691119083
 21
-28.8253127817
  0
LINE
  5
348
100
AcDbEntity
  8
0
100
AcDbLine
 62
7
  6
CONTINUOUS
 10
2.6895918722
 20
-28.6528034104
 11
2.6716937373
 21
-28.4570328611
  0
LINE
  5
349
100
AcDbEntity
  8
0
100
AcDbLine
 62
7
  6
CONTINUOUS
 10
0.4216549946
 20
-28.306344376
 11
0.3941868313
 21
-28.0075445895
  0
LINE
  5
34A
100
AcDbEntity
  8
0
100
AcDbLine
 62
7
  6
CONTINUOUS
 10
0.1060714442
 20
-28.043206631
 11
0.0787980132
 21
-27.7442631354
  0
LINE
  5
34B
100
AcDbEntity
  8
0
100
AcDbLine
 62
7
  6
CONTINUOUS
 10
0.9886563272
 20
-28.3303111091
 11
0.9679796589
 21
-28.1065968345
  0
LINE
  5
34C
100
AcDbEntity
  8
0
100
AcDbLine
 62
7
  6
CONTINUOUS
 10
-0.0503844609
 20
-27.8234525037
 11
-0.0232869333
 21
-28.1216967967
  0
LINE
  5
34D
100
AcDbEntity
  8
0
100
AcDbLine
 62
7
  6
CONTINUOUS
 10
0.8273949138
 20
-28.0577107815
 11
0.8592491202
 21
-28.4084070971
  0
LINE
  5
34E
100
AcDbEntity
  8
0
100
AcDbLine
 62
7
  6
CONTINUOUS
 10
2.5307496329
 20
-28.4015861315
 11
2.5458444787
 21
-28.5738902447
  0
LINE
  5
34F
100
AcDbEntity
  8
0
100
AcDbLine
 62
7
  6
CONTINUOUS
 10
-0.4772320548
 20
-27.8346324839
 11
-0.5034788914
 21
-27.5354147489
  0
LINE
  5
350
100
AcDbEntity
  8
0
100
AcDbLine
 62
7
  6
CONTINUOUS
 10
0.3941868313
 20
-28.0075445895
 11
0.3769608423
 21
-27.8082825617
  0
LWPOLYLINE
  5
351
100
AcDbEntity
  8
0
100
AcDbPolyline
 62
7
  6
CONTINUOUS
 90
3
 70
0
 10
2.1160542622
 20
-28.5821778421
 10
2.0853981107
 20
-28.2307292847
 10
2.0710057458
 20
-28.0539409728
  0
LINE
  5
352
100
AcDbEntity
  8
0
100
AcDbLine
 62
7
  6
CONTINUOUS
 10
2.6716937373
 20
-28.4570328611
 11
2.6546856659
 21
-28.2608652319
  0
LINE
  5
353
100
AcDbEntity
  8
0
100
AcDbLine
 62
7
  6
CONTINUOUS
 10
0.0787980132
 20
-27.7442631354
 11
0.0616991842
 21
-27.5448964217
  0
LINE
  5
354
100
AcDbEntity
  8
0
100
AcDbLine
 62
7
  6
CONTINUOUS
 10
-0.0673899369
 20
-27.6243556074
 11
-0.0503844609
 21
-27.8234525037
  0
LINE
  5
355
100
AcDbEntity
  8
0
100
AcDbLine
 62
7
  6
CONTINUOUS
 10
2.5159944436
 20
-28.2232398788
 11
2.5307496329
 21
-28.4015861315
  0
LINE
  5
356
100
AcDbEntity
  8
0
100
AcDbLine
 62
7
  6
CONTINUOUS
 10
-0.5034788914
 20
-27.5354147489
 11
-0.5198823962
 21
-27.3358935119
  0
LINE
  5
357
100
AcDbEntity
  8
0
100
AcDbLine
 62
7
  6
CONTINUOUS
 10
0.3769608423
 20
-27.8082825617
 11
0.3606738102
 21
-27.6089694353
  0
LINE
  5
358
100
AcDbEntity
  8
0
100
AcDbLine
 62
7
  6
CONTINUOUS
 10
0.0616991842
 20
-27.5448964217
 11
0.04552586
 21
-27.345471807
  0
LWPOLYLINE
  5
359
100
AcDbEntity
  8
0
100
AcDbPolyline
 62
7
  6
CONTINUOUS
 90
3
 70
0
 10
2.6546856659
 20
-28.2608652319
 10
2.6386203852
 20
-28.0631049613
 10
2.6309574317
 20
-27.9631653585
  0
LINE
  5
35A
100
AcDbEntity
  8
0
100
AcDbLine
 62
7
  6
CONTINUOUS
 10
-0.0834933533
 20
-27.4249359708
 11
-0.0673899369
 21
-27.6243556074
  0
LINE
  5
35B
100
AcDbEntity
  8
0
100
AcDbLine
 62
7
  6
CONTINUOUS
 10
-0.5198823962
 20
-27.3358935119
 11
-0.5353598388
 21
-27.1363389584
  0
LWPOLYLINE
  5
35C
100
AcDbEntity
  8
0
100
AcDbPolyline
 62
7
  6
CONTINUOUS
 90
3
 70
0
 10
0.7839710635
 20
-27.5165688897
 10
0.7978841014
 20
-27.6989490866
 10
0.8273949138
 20
-28.0577107815
  0
LINE
  5
35D
100
AcDbEntity
  8
0
100
AcDbLine
 62
7
  6
CONTINUOUS
 10
0.3606738102
 20
-27.6089694353
 11
0.3453544492
 21
-27.4095397772
  0
LINE
  5
35E
100
AcDbEntity
  8
0
100
AcDbLine
 62
7
  6
CONTINUOUS
 10
0.04552586
 20
-27.345471807
 11
0.0303016989
 21
-27.1459323622
  0
LINE
  5
35F
100
AcDbEntity
  8
0
100
AcDbLine
 62
7
  6
CONTINUOUS
 10
-0.0986698679
 20
-27.225130481
 11
-0.0834933533
 21
-27.4249359708
  0
LWPOLYLINE
  5
360
100
AcDbEntity
  8
0
100
AcDbPolyline
 62
7
  6
CONTINUOUS
 90
3
 70
0
 10
2.4945766152
 20
-27.9412606391
 10
2.5016074901
 20
-28.0375561717
 10
2.5159944436
 20
-28.2232398788
  0
LINE
  5
361
100
AcDbEntity
  8
0
100
AcDbLine
 62
7
  6
CONTINUOUS
 10
-0.5353598388
 20
-27.1363389584
 11
-0.5499026534
 21
-26.9365605419
  0
LINE
  5
362
100
AcDbEntity
  8
0
100
AcDbLine
 62
7
  6
CONTINUOUS
 10
0.3453544492
 20
-27.4095397772
 11
0.3310349221
 21
-27.2098066341
  0
LINE
  5
363
100
AcDbEntity
  8
0
100
AcDbLine
 62
7
  6
CONTINUOUS
 10
0.0303016989
 20
-27.1459323622
 11
0.0160531651
 21
-26.9461168368
  0
LINE
  5
364
100
AcDbEntity
  8
0
100
AcDbLine
 62
7
  6
CONTINUOUS
 10
-0.1128860899
 20
-27.0248463281
 11
-0.0986698679
 21
-27.225130481
  0
LINE
  5
365
100
AcDbEntity
  8
0
100
AcDbLine
 62
7
  6
CONTINUOUS
 10
-0.5499026534
 20
-26.9365605419
 11
-0.5635093531
 21
-26.7364325647
  0
LINE
  5
366
100
AcDbEntity
  8
0
100
AcDbLine
 62
7
  6
CONTINUOUS
 10
0.3310349221
 20
-27.2098066341
 11
0.3177118691
 21
-27.0095368802
  0
LINE
  5
367
100
AcDbEntity
  8
0
100
AcDbLine
 62
7
  6
CONTINUOUS
 10
0.0160531651
 20
-26.9461168368
 11
0.0027714409
 21
-26.745815285
  0
LINE
  5
368
100
AcDbEntity
  8
0
100
AcDbLine
 62
7
  6
CONTINUOUS
 10
-0.1261417698
 20
-26.8239693505
 11
-0.1128860899
 21
-27.0248463281
  0
LINE
  5
369
100
AcDbEntity
  8
0
100
AcDbLine
 62
7
  6
CONTINUOUS
 10
-0.5635093531
 20
-26.7364325647
 11
-0.5761924757
 21
-26.5357489511
  0
LINE
  5
36A
100
AcDbEntity
  8
0
100
AcDbLine
 62
7
  6
CONTINUOUS
 10
0.0027714409
 20
-26.745815285
 11
-0.0095437325
 21
-26.5448689094
  0
LINE
  5
36B
100
AcDbEntity
  8
0
100
AcDbLine
 62
7
  6
CONTINUOUS
 10
0.3177118691
 20
-27.0095368802
 11
0.3053862852
 21
-26.8085577637
  0
LINE
  5
36C
100
AcDbEntity
  8
0
100
AcDbLine
 62
7
  6
CONTINUOUS
 10
-0.138432515
 20
-26.6224065217
 11
-0.1261417698
 21
-26.8239693505
  0
LINE
  5
36D
100
AcDbEntity
  8
0
100
AcDbLine
 62
7
  6
CONTINUOUS
 10
-0.5761924757
 20
-26.5357489511
 11
-0.5879481634
 21
-26.334182049
  0
LWPOLYLINE
  5
36E
100
AcDbEntity
  8
0
100
AcDbPolyline
 62
7
  6
CONTINUOUS
 90
3
 70
0
 10
-0.0095437325
 20
-26.5448689094
 10
-0.0208896841
 20
-26.3429401711
 10
-0.0261993509
 20
-26.2416299432
  0
LWPOLYLINE
  5
36F
100
AcDbEntity
  8
0
100
AcDbPolyline
 62
7
  6
CONTINUOUS
 90
3
 70
0
 10
0.3053862852
 20
-26.8085577637
 10
0.2940586753
 20
-26.6065089316
 10
0.2887690623
 20
-26.5051074839
  0
LINE
  5
370
100
AcDbEntity
  8
0
100
AcDbLine
 62
7
  6
CONTINUOUS
 10
-0.5879481634
 20
-26.334182049
 11
-0.5987759018
 21
-26.1316380012
  0
LWPOLYLINE
  5
371
100
AcDbEntity
  8
0
100
AcDbPolyline
 62
7
  6
CONTINUOUS
 90
3
 70
0
 10
-0.1550426564
 20
-26.3184046792
 10
-0.1497490765
 20
-26.4199523634
 10
-0.138432515
 20
-26.6224065217
  0
LWPOLYLINE
  5
372
100
AcDbEntity
  8
RACCORDO
100
AcDbPolyline
 62
250
  6
CONTINUOUS
 90
4
 70
0
 10
4.3015154068
 20
14.8516410985
 10
4.267187894
 20
14.7519844892
 10
4.2352722288
 20
14.6526464055
 10
4.1790955145
 20
14.459667686
  0
LWPOLYLINE
  5
373
100
AcDbEntity
  8
RACCORDO
100
AcDbPolyline
 62
250
  6
CONTINUOUS
 90
10
 70
0
 10
4.3015155463
 20
14.8516410411
 10
4.3693841774
 20
15.0266863018
 10
4.4309319044
 20
15.203537109
 10
4.4859175402
 20
15.3815004626
 10
4.5341256126
 20
15.5598790024
 10
4.5753672081
 20
15.7379737414
 10
4.6094807121
 20
15.9150868042
 10
4.6363324426
 20
16.0905241624
 10
4.6558171739
 20
16.2635983533
 10
4.6678585487
 20
16.4336311747
  0
LWPOLYLINE
  5
374
100
AcDbEntity
  8
RACCORDO
100
AcDbPolyline
 62
250
  6
CONTINUOUS
 90
13
 70
0
 10
27.0815111555
 20
21.7323667012
 10
27.0120625965
 20
21.6760106092
 10
26.9439787444
 20
21.6092171276
 10
26.878160899
 20
21.5328704743
 10
26.8154803623
 20
21.4479813324
 10
26.7567669046
 20
21.3556734715
 10
26.7027977794
 20
21.2571688708
 10
26.6542874346
 20
21.1537715425
 10
26.6118780542
 20
21.0468502688
 10
26.5761310569
 20
20.9378204826
 10
26.5475196647
 20
20.8281255293
 10
26.5264226374
 20
20.7192175597
 10
26.5131192593
 20
20.6125383067
  0
LINE
  5
375
100
AcDbEntity
  8
RACCORDO
100
AcDbLine
 62
250
  6
CONTINUOUS
 10
29.9148796947
 20
23.620766071
 11
27.0815111547
 21
21.7323667217
  0
LINE
  5
376
100
AcDbEntity
  8
RACCORDO
100
AcDbLine
 62
250
  6
CONTINUOUS
 10
29.20749066
 20
18.4469943749
 11
32.213013024
 21
20.0585084451
  0
LINE
  5
377
100
AcDbEntity
  8
0
100
AcDbLine
 62
7
  6
CONTINUOUS
 10
30.8471444285
 20
-14.5940053011
 11
32.213013024
 21
-15.1670552185
  0
LWPOLYLINE
  5
378
100
AcDbEntity
  8
RACCORDO
100
AcDbPolyline
 62
250
  6
CONTINUOUS
 90
10
 70
0
 10
-13.925515727
 20
20.8483706357
 10
-13.9794738739
 20
20.9411647166
 10
-14.0458092639
 20
21.031983173
 10
-14.1242345403
 20
21.1204325153
 10
-14.2144099744
 20
21.2061295209
 10
-14.3159449374
 20
21.2887028943
 10
-14.4283995927
 20
21.3677948754
 10
-14.5512868007
 20
21.4430627898
 10
-14.6840742294
 20
21.5141805327
 10
-14.8261866605
 20
21.5808399822
  0
LINE
  5
379
100
AcDbEntity
  8
0
100
AcDbLine
 62
7
  6
CONTINUOUS
 10
2.8003203513
 20
-29.7267651452
 11
2.789610404
 21
-29.6298144799
  0
LINE
  5
37A
100
AcDbEntity
  8
0
100
AcDbLine
 62
7
  6
CONTINUOUS
 10
2.6615261855
 20
-29.7227680966
 11
2.6704937621
 21
-29.8041257973
  0
LINE
  5
37B
100
AcDbEntity
  8
0
100
AcDbLine
 62
7
  6
CONTINUOUS
 10
5.6103221389
 20
-29.5628894827
 11
5.5627647591
 21
-29.1232768797
  0
LINE
  5
37C
100
AcDbEntity
  8
0
100
AcDbLine
 62
7
  6
CONTINUOUS
 10
5.4186822365
 20
-29.0658969226
 11
5.4804926565
 21
-29.6402518586
  0
LINE
  5
37D
100
AcDbEntity
  8
0
100
AcDbLine
 62
7
  6
CONTINUOUS
 10
5.5338778145
 20
-30.0793536862
 11
5.6306612411
 21
-30.9927549978
  0
LINE
  5
37E
100
AcDbEntity
  8
0
100
AcDbLine
 62
7
  6
CONTINUOUS
 10
5.7604630899
 20
-30.915409088
 11
5.6778537307
 21
-30.1357523762
  0
LINE
  5
37F
100
AcDbEntity
  8
0
100
AcDbLine
 62
7
  6
CONTINUOUS
 10
5.175676578
 20
-30.8126873334
 11
4.9940569127
 21
-29.1049635197
  0
LINE
  5
380
100
AcDbEntity
  8
0
100
AcDbLine
 62
7
  6
CONTINUOUS
 10
4.9940569127
 20
-29.1049635197
 11
4.9754111898
 21
-28.9172736839
  0
LWPOLYLINE
  5
381
100
AcDbEntity
  8
0
100
AcDbPolyline
 62
7
  6
CONTINUOUS
 90
16
 70
0
 10
6.2867941709
 20
-29.7004245358
 10
6.2833707377
 20
-29.6644042722
 10
6.2755157864
 20
-29.6271621436
 10
6.2636968592
 20
-29.5896386207
 10
6.2482338877
 20
-29.5524296065
 10
6.229480439
 20
-29.5161583914
 10
6.2082869378
 20
-29.4817401031
 10
6.1853941764
 20
-29.4498005054
 10
6.1611203322
 20
-29.4203637738
 10
6.135732415
 20
-29.3933193356
 10
6.1097183834
 20
-29.3689187219
 10
6.0833415952
 20
-29.3471657313
 10
6.056360213
 20
-29.3276803736
 10
6.0288353234
 20
-29.3105034737
 10
6.0012116202
 20
-29.2959320651
 10
5.973747582
 20
-29.2840728013
  0
LINE
  5
382
100
AcDbEntity
  8
0
100
AcDbLine
 62
7
  6
CONTINUOUS
 10
4.9754111898
 20
-28.9172736839
 11
4.9577198456
 21
-28.7287068186
  0
LWPOLYLINE
  5
383
100
AcDbEntity
  8
0
100
AcDbPolyline
 62
7
  6
CONTINUOUS
 90
3
 70
0
 10
4.9577198456
 20
-28.7287068186
 10
4.9416036785
 20
-28.5397277414
 10
4.9340947942
 20
-28.4450540586
  0
LINE
  5
384
100
AcDbEntity
  8
0
100
AcDbLine
 62
7
  6
CONTINUOUS
 10
2.6309574317
 20
-27.9631653585
 11
2.61638699
 21
-27.7607557737
  0
LINE
  5
385
100
AcDbEntity
  8
0
100
AcDbLine
 62
7
  6
CONTINUOUS
 10
2.4808951457
 20
-27.7409867998
 11
2.4945766152
 21
-27.9412606391
  0
LINE
  5
386
100
AcDbEntity
  8
0
100
AcDbLine
 62
7
  6
CONTINUOUS
 10
2.61638699
 20
-27.7607557737
 11
2.6028828957
 21
-27.5532750146
  0
LWPOLYLINE
  5
387
100
AcDbEntity
  8
0
100
AcDbPolyline
 62
7
  6
CONTINUOUS
 90
3
 70
0
 10
2.4615815018
 20
-27.4170246453
 10
2.4678639719
 20
-27.5280556727
 10
2.4808951457
 20
-27.7409867998
  0
LINE
  5
388
100
AcDbEntity
  8
0
100
AcDbLine
 62
7
  6
CONTINUOUS
 10
2.6028828957
 20
-27.5532750146
 11
2.5904626426
 21
-27.340227364
  0
LINE
  5
389
100
AcDbEntity
  8
RACCORDO
100
AcDbLine
 62
250
  6
CONTINUOUS
 10
3.4493912954
 20
-22.8579952976
 11
3.4493912954
 21
-21.9923259511
  0
LINE
  5
38A
100
AcDbEntity
  8
RACCORDO
100
AcDbLine
 62
7
  6
CONTINUOUS
 10
3.5098006424
 20
-22.7677230441
 11
3.5098006424
 21
-21.9638858704
  0
LWPOLYLINE
  5
38B
100
AcDbEntity
  8
RACCORDO
100
AcDbPolyline
 62
250
  6
CONTINUOUS
 90
12
 70
0
 10
4.1790955145
 20
14.459667686
 10
4.1569743805
 20
14.3673941367
 10
4.1492520683
 20
14.2752151787
 10
4.1597774921
 20
14.1827606844
 10
4.181119587
 20
14.0938712935
 10
4.2052927059
 20
14.0126851989
 10
4.2301776577
 20
13.9409960664
 10
4.2594862933
 20
13.8779430516
 10
4.2952087849
 20
13.8232388374
 10
4.3374197682
 20
13.7772924334
 10
4.3849965086
 20
13.7408913921
 10
4.4301662739
 20
13.717378918
  0
LWPOLYLINE
  5
38C
100
AcDbEntity
  8
RACCORDO
100
AcDbPolyline
 62
250
  6
CONTINUOUS
 90
11
 70
0
 10
-13.9255115417
 20
20.8483711612
 10
-13.894891285
 20
20.8081724487
 10
-13.8540131067
 20
20.7591965041
 10
-13.8033390554
 20
20.7035515928
 10
-13.7431984172
 20
20.6346357572
 10
-13.6738012865
 20
20.5644297001
 10
-13.5967975347
 20
20.5181360577
 10
-13.5139613185
 20
20.5068533122
 10
-13.4248509824
 20
20.5103132787
 10
-13.3299396094
 20
20.5074873834
 10
-13.1289342912
 20
20.4797100146
  0
LINE
  5
38D
100
AcDbEntity
  8
RACCORDO
100
AcDbLine
 62
250
  6
CONTINUOUS
 10
7.3792498167
 20
12.2645565452
 11
7.3860312942
 21
9.8556176766
  0
LINE
  5
38E
100
AcDbEntity
  8
RACCORDO
100
AcDbLine
 62
7
  6
CONTINUOUS
 10
4.8129786754
 20
13.0958274168
 11
4.8129786307
 21
13.0959372269
  0
LINE
  5
38F
100
AcDbEntity
  8
0
100
AcDbLine
 62
7
  6
CONTINUOUS
 10
4.8129789641
 20
13.0958284285
 11
4.8129789862
 21
-25.3556842957
  0
LINE
  5
390
100
AcDbEntity
  8
RACCORDO
100
AcDbLine
 62
250
  6
CONTINUOUS
 10
7.3860312942
 20
9.8556176766
 11
7.3851246993
 21
-6.398967343
  0
LINE
  5
391
100
AcDbEntity
  8
RACCORDO
100
AcDbLine
 62
250
  6
CONTINUOUS
 10
7.3851246993
 20
-6.398967343
 11
7.387146892
 21
-21.9352538322
  0
LINE
  5
392
100
AcDbEntity
  8
RACCORDO
100
AcDbLine
 62
7
  6
CONTINUOUS
 10
4.8129786309
 20
-25.3557990017
 11
4.8129786794
 21
-25.3556833201
  0
LINE
  5
393
100
AcDbEntity
  8
RACCORDO
100
AcDbLine
 62
250
  6
CONTINUOUS
 10
7.387146892
 20
-21.9352538322
 11
7.3823865453
 21
-25.4532174371
  0
LINE
  5
394
100
AcDbEntity
  8
RACCORDO
100
AcDbLine
 62
250
  6
CONTINUOUS
 10
5.7436591149
 20
12.5961716967
 11
5.7436591756
 21
-25.8536308577
  0
LWPOLYLINE
  5
395
100
AcDbEntity
  8
0
100
AcDbPolyline
 62
7
  6
CONTINUOUS
 90
4
 70
0
 10
4.8129786306
 20
-25.3558001357
 10
4.8129632672
 20
-25.3585615306
 10
4.8124125277
 20
-25.3719884176
 10
4.8118736027
 20
-25.3775217828
  0
LINE
  5
396
100
AcDbEntity
  8
RACCORDO
100
AcDbLine
 62
250
  6
CONTINUOUS
 10
7.3823865453
 20
-25.4532174371
 11
7.3792497625
 21
-26.1481802942
  0
LWPOLYLINE
  5
397
100
AcDbEntity
  8
RACCORDO
100
AcDbPolyline
 62
250
  6
CONTINUOUS
 90
91
 70
0
 10
5.7436586572
 20
-25.8536313605
 10
5.7430900456
 20
-25.9137058199
 10
5.7404931933
 20
-25.9724811137
 10
5.7359118037
 20
-26.0298909964
 10
5.7293409627
 20
-26.0862039477
 10
5.7208580684
 20
-26.1410191118
 10
5.7107337961
 20
-26.1933350196
 10
5.6991449178
 20
-26.2429552542
 10
5.6862227991
 20
-26.2901311785
 10
5.6722929335
 20
-26.3346353439
 10
5.6575800022
 20
-26.3764523642
 10
5.6421824128
 20
-26.4157498222
 10
5.6262535932
 20
-26.4526109388
 10
5.6099725198
 20
-26.4870589723
 10
5.5934382089
 20
-26.5192470312
 10
5.5766573696
 20
-26.549441415
 10
5.5597269942
 20
-26.5777250866
 10
5.5427539889
 20
-26.6041656632
 10
5.5257241681
 20
-26.628978959
 10
5.5087185298
 20
-26.6522242834
 10
5.4918089181
 20
-26.6739713161
 10
5.4749384804
 20
-26.6944255386
 10
5.4581641746
 20
-26.7136363259
 10
5.4415389465
 20
-26.731656429
 10
5.424974591
 20
-26.7486701139
 10
5.4085094729
 20
-26.7647151218
 10
5.3921814925
 20
-26.779829188
 10
5.3758803038
 20
-26.7941714858
 10
5.3596109065
 20
-26.8077838454
 10
5.3434180975
 20
-26.8206742631
 10
5.3272363507
 20
-26.8329323176
 10
5.3110182868
 20
-26.8446232323
 10
5.2948458171
 20
-26.8557160688
 10
5.2788469912
 20
-26.8661574209
 10
5.2630249945
 20
-26.8759853671
 10
5.2474185185
 20
-26.8852138146
 10
5.2322194649
 20
-26.8937718634
 10
5.2175006719
 20
-26.9016720156
 10
5.2032390136
 20
-26.9089749269
 10
5.1894883595
 20
-26.9156936164
 10
5.1763264287
 20
-26.921839219
 10
5.1637186291
 20
-26.9274702311
 10
5.1515464076
 20
-26.9326644936
 10
5.1398628819
 20
-26.9374294823
 10
5.1286442348
 20
-26.9418070506
 10
5.117646844
 20
-26.9459086152
 10
5.1068687546
 20
-26.9497490325
 10
5.0963262753
 20
-26.9533368908
 10
5.0857933824
 20
-26.9567548135
 10
5.075257992
 20
-26.9600102895
 10
5.0647371936
 20
-26.9631012257
 10
5.0540414815
 20
-26.9660804538
 10
5.0431746675
 20
-26.9689424581
 10
5.0321320436
 20
-26.9716849267
 10
5.0207050594
 20
-26.9743510397
 10
5.0088743337
 20
-26.976928027
 10
4.9966520135
 20
-26.9794041856
 10
4.9838705539
 20
-26.981809355
 10
4.9704560061
 20
-26.9841369594
 10
4.9564682958
 20
-26.9863502557
 10
4.9419379839
 20
-26.9884271611
 10
4.926909947
 20
-26.99034143
 10
4.9113277422
 20
-26.9920776235
 10
4.8950684862
 20
-26.9936246611
 10
4.8781184621
 20
-26.9949534544
 10
4.8604761275
 20
-26.9960333625
 10
4.8420333388
 20
-26.9968385088
 10
4.8227644318
 20
-26.9973309013
 10
4.8026777511
 20
-26.9974702077
 10
4.781713911
 20
-26.997216516
 10
4.7596742088
 20
-26.9965159225
 10
4.7367392159
 20
-26.9953213757
 10
4.7134267383
 20
-26.9936304261
 10
4.6897051625
 20
-26.9914245575
 10
4.6656098472
 20
-26.988687679
 10
4.6417770327
 20
-26.9854940401
 10
4.6183604847
 20
-26.9818930146
 10
4.5952290897
 20
-26.9778881002
 10
4.5726027694
 20
-26.9735379514
 10
4.5507004972
 20
-26.9689252104
 10
4.5293265793
 20
-26.9640442631
 10
4.5080779969
 20
-26.9588117725
 10
4.4870405876
 20
-26.9532575359
 10
4.4661424873
 20
-26.9473779665
 10
4.4447377781
 20
-26.9409844864
 10
4.4227257335
 20
-26.9340218971
 10
4.4002140099
 20
-26.9264968721
 10
4.3768655806
 20
-26.9182613154
 10
4.3525713051
 20
-26.9092293204
 10
4.3274511836
 20
-26.8993976164
 10
4.3015128268
 20
-26.8887224505
  0
LWPOLYLINE
  5
398
100
AcDbEntity
  8
RACCORDO
100
AcDbPolyline
 62
250
  6
CONTINUOUS
 90
78
 70
0
 10
7.3792407097
 20
-26.1481861918
 10
7.3766173108
 20
-26.262655704
 10
7.3699819464
 20
-26.3745848438
 10
7.3593774338
 20
-26.4839050164
 10
7.3445040674
 20
-26.5913539524
 10
7.3256010737
 20
-26.696254729
 10
7.3038960374
 20
-26.7963218251
 10
7.2804215406
 20
-26.8905624428
 10
7.2553956539
 20
-26.9788638968
 10
7.2291962286
 20
-27.0605529616
 10
7.2022282534
 20
-27.1362500593
 10
7.1744953409
 20
-27.2071345347
 10
7.1455906611
 20
-27.2738452395
 10
7.1155995304
 20
-27.3363052018
 10
7.0849720349
 20
-27.3945523684
 10
7.0538563814
 20
-27.4489687401
 10
7.0224449012
 20
-27.4997150437
 10
6.9908931581
 20
-27.5469610878
 10
6.9592133388
 20
-27.5911561223
 10
6.9275584541
 20
-27.6324064857
 10
6.8960549212
 20
-27.6708189686
 10
6.8646317946
 20
-27.7067788833
 10
6.8333961206
 20
-27.7403796022
 10
6.8024363062
 20
-27.7717178471
 10
6.7716073575
 20
-27.8011441795
 10
6.7409797724
 20
-27.8287322763
 10
6.7106168902
 20
-27.8545497803
 10
6.680326632
 20
-27.8788922651
 10
6.6501196049
 20
-27.9018366742
 10
6.6200769958
 20
-27.9233975212
 10
6.5900885895
 20
-27.9437421457
 10
6.560064433
 20
-27.9629841789
 10
6.5301523609
 20
-27.981079052
 10
6.5005955662
 20
-27.997960433
 10
6.4714029296
 20
-28.0136865354
 10
6.4426516847
 20
-28.0282875277
 10
6.4147031268
 20
-28.0416876808
 10
6.3876861978
 20
-28.053915597
 10
6.3614970276
 20
-28.0651082678
 10
6.3361384696
 20
-28.0753750962
 10
6.3116541449
 20
-28.0847455456
 10
6.2878848918
 20
-28.0933763499
 10
6.264506839
 20
-28.1015489335
 10
6.2415589354
 20
-28.1092977535
 10
6.2191008843
 20
-28.1166074797
 10
6.1968323955
 20
-28.1236468667
 10
6.1747985281
 20
-28.1304163208
 10
6.1530174709
 20
-28.1369213295
 10
6.131100229
 20
-28.143319183
 10
6.1090187947
 20
-28.149622795
 10
6.086831664
 20
-28.1558035203
 10
6.0642519414
 20
-28.1619319791
 10
6.0412866959
 20
-28.1680365692
 10
6.0180236993
 20
-28.174038106
 10
5.994293608
 20
-28.1798268722
 10
5.97020545
 20
-28.1854061123
 10
5.9459357958
 20
-28.1906928472
 10
5.9214512755
 20
-28.1954342022
 10
5.8969044476
 20
-28.1994511276
 10
5.8720896903
 20
-28.2029284483
 10
5.8464391822
 20
-28.2061337262
 10
5.8196150201
 20
-28.2091544316
 10
5.7916212898
 20
-28.2118667244
 10
5.7623693144
 20
-28.2141943051
 10
5.731969654
 20
-28.2160645348
 10
5.7004257145
 20
-28.2174346971
 10
5.6674922076
 20
-28.2182541836
 10
5.6330759313
 20
-28.2184683438
 10
5.5972025649
 20
-28.2179989446
 10
5.5598061408
 20
-28.2167419766
 10
5.520582099
 20
-28.2145961545
 10
5.4798523843
 20
-28.2114944576
 10
5.4384965838
 20
-28.2074319887
 10
5.3964350783
 20
-28.2023433602
 10
5.3537647218
 20
-28.1962391486
 10
5.3116631876
 20
-28.189354839
 10
5.2705243494
 20
-28.1816896669
 10
5.2298267749
 20
-28.1733214775
  0
LWPOLYLINE
  5
399
100
AcDbEntity
  8
RACCORDO
100
AcDbPolyline
 62
250
  6
CONTINUOUS
 90
4
 70
0
 10
3.4493912954
 20
-22.8579952976
 10
3.4474242667
 20
-22.8904775671
 10
3.4415051602
 20
-22.921132988
 10
3.4407792098
 20
-22.9232173704
  0
LWPOLYLINE
  5
39A
100
AcDbEntity
  8
RACCORDO
100
AcDbPolyline
 62
7
  6
CONTINUOUS
 90
6
 70
0
 10
3.5098006424
 20
-22.7677230441
 10
3.5074676065
 20
-22.8050598035
 10
3.5004305996
 20
-22.8421139631
 10
3.488711171
 20
-22.8782170126
 10
3.4723639832
 20
-22.9128452767
 10
3.4604520034
 20
-22.9314710874
  0
LINE
  5
39B
100
AcDbEntity
  8
0
100
AcDbLine
 62
7
  6
CONTINUOUS
 10
1.9276833571
 20
-29.3689998589
 11
1.9847780995
 21
-29.0610744876
  0
LINE
  5
39C
100
AcDbEntity
  8
0
100
AcDbLine
 62
7
  6
CONTINUOUS
 10
1.8551183248
 20
-29.1382350345
 11
1.7978884184
 21
-29.4463416511
  0
LINE
  5
39D
100
AcDbEntity
  8
0
100
AcDbLine
 62
7
  6
CONTINUOUS
 10
1.9847780995
 20
-29.0610744876
 11
2.0437028542
 21
-28.7524101842
  0
LINE
  5
39E
100
AcDbEntity
  8
0
100
AcDbLine
 62
7
  6
CONTINUOUS
 10
1.9141735918
 20
-28.8294513569
 11
1.8551183248
 21
-29.1382350345
  0
LINE
  5
39F
100
AcDbEntity
  8
0
100
AcDbLine
 62
7
  6
CONTINUOUS
 10
2.0437028542
 20
-28.7524101842
 11
2.1039242991
 21
-28.4461657191
  0
LINE
  5
3A0
100
AcDbEntity
  8
0
100
AcDbLine
 62
7
  6
CONTINUOUS
 10
1.9751581364
 20
-28.5199399475
 11
1.9141735918
 21
-28.8294513569
  0
LINE
  5
3A1
100
AcDbEntity
  8
0
100
AcDbLine
 62
7
  6
CONTINUOUS
 10
1.4900770458
 20
-28.528233626
 11
1.5535955518
 21
-28.211789812
  0
LWPOLYLINE
  5
3A2
100
AcDbEntity
  8
0
100
AcDbPolyline
 62
7
  6
CONTINUOUS
 90
3
 70
0
 10
2.0710057458
 20
-28.0539409728
 10
2.0384876259
 20
-28.209498123
 10
1.9751581364
 20
-28.5199399475
  0
LINE
  5
3A3
100
AcDbEntity
  8
0
100
AcDbLine
 62
7
  6
CONTINUOUS
 10
1.5535955518
 20
-28.211789812
 11
1.6187450875
 21
-27.8994069448
  0
LINE
  5
3A4
100
AcDbEntity
  8
0
100
AcDbLine
 62
7
  6
CONTINUOUS
 10
1.6187450875
 20
-27.8994069448
 11
1.6855901245
 21
-27.591018393
  0
LWPOLYLINE
  5
3A5
100
AcDbEntity
  8
0
100
AcDbPolyline
 62
7
  6
CONTINUOUS
 90
3
 70
0
 10
1.6855901245
 20
-27.591018393
 10
1.7543885499
 20
-27.2863576309
 10
1.7895041653
 20
-27.1354418289
  0
LINE
  5
3A6
100
AcDbEntity
  8
0
100
AcDbLine
 62
7
  6
CONTINUOUS
 10
-1.2893041874
 20
-28.029614473
 11
-1.2298413089
 21
-27.7696526542
  0
LINE
  5
3A7
100
AcDbEntity
  8
0
100
AcDbLine
 62
7
  6
CONTINUOUS
 10
-1.359498448
 20
-27.8472955899
 11
-1.4189759434
 21
-28.1068828636
  0
LINE
  5
3A8
100
AcDbEntity
  8
0
100
AcDbLine
 62
7
  6
CONTINUOUS
 10
-1.2298413089
 20
-27.7696526542
 11
-1.1687314968
 21
-27.5088531771
  0
LINE
  5
3A9
100
AcDbEntity
  8
0
100
AcDbLine
 62
7
  6
CONTINUOUS
 10
-1.2984332408
 20
-27.5870892255
 11
-1.359498448
 21
-27.8472955899
  0
LINE
  5
3AA
100
AcDbEntity
  8
0
100
AcDbLine
 62
7
  6
CONTINUOUS
 10
-1.1687314968
 20
-27.5088531771
 11
-1.1059582569
 21
-27.2473069851
  0
LINE
  5
3AB
100
AcDbEntity
  8
0
100
AcDbLine
 62
7
  6
CONTINUOUS
 10
-1.2357118094
 20
-27.3261154265
 11
-1.2984332408
 21
-27.5870892255
  0
LINE
  5
3AC
100
AcDbEntity
  8
0
100
AcDbLine
 62
7
  6
CONTINUOUS
 10
-1.7119758814
 20
-27.2736594274
 11
-1.6452143035
 21
-26.999676302
  0
LINE
  5
3AD
100
AcDbEntity
  8
0
100
AcDbLine
 62
7
  6
CONTINUOUS
 10
-1.1059582569
 20
-27.2473069851
 11
-1.0416130492
 21
-26.9854755975
  0
LINE
  5
3AE
100
AcDbEntity
  8
0
100
AcDbLine
 62
7
  6
CONTINUOUS
 10
-1.171348808
 20
-27.0645325138
 11
-1.2357118094
 21
-27.3261154265
  0
LINE
  5
3AF
100
AcDbEntity
  8
0
100
AcDbLine
 62
7
  6
CONTINUOUS
 10
-1.6452143035
 20
-26.999676302
 11
-1.5938461693
 21
-26.7933322337
  0
LINE
  5
3B0
100
AcDbEntity
  8
0
100
AcDbLine
 62
7
  6
CONTINUOUS
 10
-1.0416130492
 20
-26.9854755975
 11
-0.9755817846
 21
-26.723269354
  0
LINE
  5
3B1
100
AcDbEntity
  8
0
100
AcDbLine
 62
7
  6
CONTINUOUS
 10
-1.1051715528
 20
-26.8020515834
 11
-1.171348808
 21
-27.0645325138
  0
LINE
  5
3B2
100
AcDbEntity
  8
0
100
AcDbLine
 62
7
  6
CONTINUOUS
 10
-1.5938461693
 20
-26.7933322337
 11
-1.5413052965
 21
-26.5862395158
  0
LINE
  5
3B3
100
AcDbEntity
  8
0
100
AcDbLine
 62
7
  6
CONTINUOUS
 10
-1.5413052965
 20
-26.5862395158
 11
-1.4875705297
 21
-26.378411424
  0
LINE
  5
3B4
100
AcDbEntity
  8
0
100
AcDbLine
 62
7
  6
CONTINUOUS
 10
-0.9755817846
 20
-26.723269354
 11
-0.9077067273
 21
-26.4603471606
  0
LINE
  5
3B5
100
AcDbEntity
  8
0
100
AcDbLine
 62
7
  6
CONTINUOUS
 10
-1.0370591408
 20
-26.5384930758
 11
-1.1051715528
 21
-26.8020515834
  0
LINE
  5
3B6
100
AcDbEntity
  8
0
100
AcDbLine
 62
7
  6
CONTINUOUS
 10
-1.4875705297
 20
-26.378411424
 11
-1.4326182883
 21
-26.1698151979
  0
LINE
  5
3B7
100
AcDbEntity
  8
0
100
AcDbLine
 62
7
  6
CONTINUOUS
 10
-0.9077067273
 20
-26.4603471606
 11
-0.8378311324
 21
-26.1962428112
  0
LINE
  5
3B8
100
AcDbEntity
  8
0
100
AcDbLine
 62
7
  6
CONTINUOUS
 10
-0.9669104952
 20
-26.2736269354
 11
-1.0370591408
 21
-26.5384930758
  0
LINE
  5
3B9
100
AcDbEntity
  8
0
100
AcDbLine
 62
7
  6
CONTINUOUS
 10
-1.4326182883
 20
-26.1698151979
 11
-1.3763889816
 21
-25.9603807779
  0
LINE
  5
3BA
100
AcDbEntity
  8
0
100
AcDbLine
 62
7
  6
CONTINUOUS
 10
-1.3763889816
 20
-25.9603807779
 11
-1.3381707353
 21
-25.820261669
  0
LINE
  5
3BB
100
AcDbEntity
  8
0
100
AcDbLine
 62
7
  6
CONTINUOUS
 10
-0.8378311324
 20
-26.1962428112
 11
-0.765704511
 21
-25.9303247971
  0
LINE
  5
3BC
100
AcDbEntity
  8
0
100
AcDbLine
 62
7
  6
CONTINUOUS
 10
-0.894551419
 20
-26.0071016799
 11
-0.9669104952
 21
-26.2736269354
  0
LINE
  5
3BD
100
AcDbEntity
  8
0
100
AcDbLine
 62
7
  6
CONTINUOUS
 10
2.9702376414
 20
-29.9262982416
 11
3.044350798
 21
-29.5974595663
  0
LINE
  5
3BE
100
AcDbEntity
  8
0
100
AcDbLine
 62
7
  6
CONTINUOUS
 10
3.5504381392
 20
-30.0317403223
 11
3.6151914286
 21
-29.7443956781
  0
LINE
  5
3BF
100
AcDbEntity
  8
0
100
AcDbLine
 62
7
  6
CONTINUOUS
 10
3.5124874898
 20
-29.7028723257
 11
3.4205943812
 21
-30.1091112048
  0
LINE
  5
3C0
100
AcDbEntity
  8
0
100
AcDbLine
 62
7
  6
CONTINUOUS
 10
3.044350798
 20
-29.5974595663
 11
3.1649851002
 21
-29.0753744943
  0
LWPOLYLINE
  5
3C1
100
AcDbEntity
  8
0
100
AcDbPolyline
 62
7
  6
CONTINUOUS
 90
3
 70
0
 10
3.7328465424
 20
-29.2319873148
 10
3.8142737941
 20
-28.8850127746
 10
3.8182362864
 20
-28.8683574102
  0
LINE
  5
3C2
100
AcDbEntity
  8
0
100
AcDbLine
 62
7
  6
CONTINUOUS
 10
3.6846504463
 20
-28.9625874303
 11
3.6031997582
 21
-29.3092408252
  0
LWPOLYLINE
  5
3C3
100
AcDbEntity
  8
0
100
AcDbPolyline
 62
7
  6
CONTINUOUS
 90
7
 70
0
 10
3.1649851002
 20
-29.0753744943
 10
3.2505404701
 20
-28.716152835
 10
3.2946138903
 20
-28.5348610191
 10
3.3389455373
 20
-28.3561839179
 10
3.383340872
 20
-28.1813289605
 10
3.4279944335
 20
-28.0090887179
 10
3.4729062218
 20
-27.8394631899
  0
LINE
  5
3C4
100
AcDbEntity
  8
0
100
AcDbLine
 62
7
  6
CONTINUOUS
 10
3.7523883359
 20
-28.6807522249
 11
3.6846504463
 21
-28.9625874303
  0
LWPOLYLINE
  5
3C5
100
AcDbEntity
  8
RACCORDO
100
AcDbPolyline
 62
250
  6
CONTINUOUS
 90
10
 70
0
 10
4.2301861503
 20
-26.0690551387
 10
4.2594906191
 20
-25.9690174846
 10
4.2952098574
 20
-25.8701241736
 10
4.3374203997
 20
-25.7736657609
 10
4.3849969011
 20
-25.6804427267
 10
4.4373844112
 20
-25.5914786838
 10
4.4939920922
 20
-25.5077566856
 10
4.5541964263
 20
-25.4302070684
 10
4.6173299679
 20
-25.3596903446
 10
4.6826902499
 20
-25.2969878715
  0
LINE
  5
3C6
100
AcDbEntity
  8
DRAFT
100
AcDbLine
 62
7
  6
CONTINUOUS
 10
-1.9224717641
 20
-20.5643332545
 11
-1.9713663339
 21
-20.6525527056
  0
LINE
  5
3C7
100
AcDbEntity
  8
DRAFT
100
AcDbLine
 62
7
  6
CONTINUOUS
 10
-1.5810046152
 20
-20.3812439115
 11
-1.6690559445
 21
-20.5401130859
  0
LINE
  5
3C8
100
AcDbEntity
  8
DRAFT
100
AcDbLine
 62
7
  6
CONTINUOUS
 10
-1.2395374663
 20
-20.1981545685
 11
-1.3275887956
 21
-20.3570237429
  0
LINE
  5
3C9
100
AcDbEntity
  8
0
100
AcDbLine
 62
250
  6
CONTINUOUS
 10
-10.5178177781
 20
-16.8070829571
 11
-12.1890654493
 21
-17.8029406652
  0
LINE
  5
3CA
100
AcDbEntity
  8
0
100
AcDbLine
 62
250
  6
CONTINUOUS
 10
-10.2880044452
 20
-17.1633087197
 11
-11.9592512178
 21
-18.1591658924
  0
LINE
  5
3CB
100
AcDbEntity
  8
DRAFT
100
AcDbLine
 62
7
  6
CONTINUOUS
 10
2.6866282068
 20
-22.4980802973
 11
2.6434822281
 21
-22.5887115688
  0
LINE
  5
3CC
100
AcDbEntity
  8
DRAFT
100
AcDbLine
 62
7
  6
CONTINUOUS
 10
2.9879486676
 20
-22.2981474187
 11
2.8975525293
 21
-22.4880310928
  0
LINE
  5
3CD
100
AcDbEntity
  8
DRAFT
100
AcDbLine
 62
7
  6
CONTINUOUS
 10
3.2892691284
 20
-22.0982145401
 11
3.1988729901
 21
-22.2880982143
  0
LWPOLYLINE
  5
3CE
100
AcDbEntity
  8
RACCORDO
100
AcDbPolyline
 62
250
  6
CONTINUOUS
 90
10
 70
0
 10
5.7436591149
 20
12.5961716967
 10
5.9400604288
 20
12.5839226551
 10
6.1347101277
 20
12.5652411432
 10
6.3267650286
 20
12.5402080819
 10
6.5153931886
 20
12.508931906
 10
6.699777509
 20
12.4715480941
 10
6.8791192742
 20
12.4282185818
 10
7.0526416121
 20
12.3791310602
 10
7.2195928592
 20
12.324498163
 10
7.3792498167
 20
12.2645565452
  0
LWPOLYLINE
  5
3CF
100
AcDbEntity
  8
RACCORDO
100
AcDbPolyline
 62
250
  6
CONTINUOUS
 90
16
 70
0
 10
5.7436586374
 20
12.5961712299
 10
5.63970986
 20
12.6041968351
 10
5.5376809417
 20
12.6155999331
 10
5.4386879916
 20
12.6305548998
 10
5.3438151393
 20
12.6473897649
 10
5.2540670794
 20
12.668278851
 10
5.1704336578
 20
12.6979688165
 10
5.0938602795
 20
12.7383362677
 10
5.0251496635
 20
12.7846673285
 10
4.9650573398
 20
12.8318299634
 10
4.914276505
 20
12.8781760811
 10
4.8733541939
 20
12.9256270858
 10
4.8427281943
 20
12.9751155656
 10
4.8227338271
 20
13.0263932965
 10
4.8135929023
 20
13.0784774244
 10
4.8129786754
 20
13.0958274168
  0
LINE
  5
3D0
100
AcDbEntity
  8
RACCORDO
100
AcDbLine
 62
7
  6
CONTINUOUS
 10
-12.3461389049
 20
20.7558746082
 11
-12.3460442082
 21
20.7558349415
  0
LINE
  5
3D1
100
AcDbEntity
  8
0
100
AcDbLine
 62
7
  6
CONTINUOUS
 10
-12.3460435696
 20
20.7558358665
 11
4.4301664876
 21
13.7173800403
  0
LINE
  5
3D2
100
AcDbEntity
  8
RACCORDO
100
AcDbLine
 62
7
  6
CONTINUOUS
 10
4.4301662739
 20
13.717378918
 11
4.4303627726
 21
13.7172963971
  0
LINE
  5
3D3
100
AcDbEntity
  8
RACCORDO
100
AcDbLine
 62
250
  6
CONTINUOUS
 10
-4.4683258724
 20
18.5326151805
 11
4.3015171622
 21
14.8516414944
  0
LINE
  5
3D4
100
AcDbEntity
  8
RACCORDO
100
AcDbLine
 62
250
  6
CONTINUOUS
 10
-12.4732474292
 20
21.8894908247
 11
-4.4683267094
 21
18.5326131249
  0
LWPOLYLINE
  5
3D5
100
AcDbEntity
  8
RACCORDO
100
AcDbPolyline
 62
250
  6
CONTINUOUS
 90
91
 70
0
 10
4.3015154068
 20
14.8516410985
 10
4.3281732469
 20
14.8403339203
 10
4.3540207369
 20
14.8288083141
 10
4.3790495516
 20
14.8171155349
 10
4.4031559657
 20
14.8053511891
 10
4.4264316021
 20
14.7935197972
 10
4.4491622903
 20
14.7815177437
 10
4.4712468752
 20
14.7694289641
 10
4.4927790422
 20
14.7572299819
 10
4.5143337543
 20
14.7446113408
 10
4.5358981419
 20
14.731566457
 10
4.5574724111
 20
14.7181010911
 10
4.5796437592
 20
14.7038679763
 10
4.6026322242
 20
14.6886899534
 10
4.6261921141
 20
14.6726782976
 10
4.6502081023
 20
14.6558950225
 10
4.6749029019
 20
14.6381502573
 10
4.7000238061
 20
14.6195775859
 10
4.7247549002
 20
14.6007736965
 10
4.7489942768
 20
14.5818412985
 10
4.7728398698
 20
14.5627206132
 10
4.7957970985
 20
14.5438332918
 10
4.8177274677
 20
14.5253457067
 10
4.8387871148
 20
14.5071784212
 10
4.8589338075
 20
14.4894089394
 10
4.8781690713
 20
14.4720832804
 10
4.8965125748
 20
14.455229215
 10
4.9139510189
 20
14.438896874
 10
4.9304531493
 20
14.4231593759
 10
4.9460740288
 20
14.4080072637
 10
4.96092837
 20
14.3933611957
 10
4.9750452445
 20
14.379231224
 10
4.9884150782
 20
14.365652051
 10
5.0010914323
 20
14.3525743657
 10
5.0129868485
 20
14.3401136391
 10
5.0242064705
 20
14.3281907006
 10
5.035086129
 20
14.3164533478
 10
5.0456598784
 20
14.3048696593
 10
5.0558992033
 20
14.2934856057
 10
5.0660374149
 20
14.2820524436
 10
5.0760776547
 20
14.2705685554
 10
5.086015924
 20
14.2590391269
 10
5.0960679358
 20
14.2472159611
 10
5.1062280587
 20
14.2350989299
 10
5.116493915
 20
14.2226827274
 10
5.127078531
 20
14.2097020869
 10
5.1379684808
 20
14.1961534573
 10
5.1491595759
 20
14.1820254269
 10
5.1608693169
 20
14.1670306559
 10
5.1731289696
 20
14.1510922008
 10
5.1858745533
 20
14.1342593704
 10
5.1991724561
 20
14.1164261333
 10
5.2130576962
 20
14.0975039931
 10
5.2274505822
 20
14.077547738
 10
5.2422443659
 20
14.0566663211
 10
5.2574560551
 20
14.0347898793
 10
5.2730213359
 20
14.0119603015
 10
5.2887207157
 20
13.9884635352
 10
5.304490639
 20
13.9643651777
 10
5.3203599477
 20
13.9395887286
 10
5.3362575067
 20
13.9142158787
 10
5.3521099818
 20
13.8883365116
 10
5.3679580784
 20
13.8618565842
 10
5.3838972585
 20
13.8345806411
 10
5.3998986849
 20
13.8065091218
 10
5.4159396763
 20
13.7776326427
 10
5.4321096373
 20
13.7477345385
 10
5.4483721673
 20
13.7168076236
 10
5.4646888349
 20
13.6848485609
 10
5.4811275372
 20
13.651640903
 10
5.4976379432
 20
13.617177183
 10
5.5141660506
 20
13.5814571612
 10
5.5307527627
 20
13.5442715762
 10
5.5473314395
 20
13.5056121956
 10
5.5638273633
 20
13.4654890318
 10
5.5802451468
 20
13.4237194529
 10
5.5964943172
 20
13.3803091761
 10
5.6124804946
 20
13.3352738612
 10
5.6281753414
 20
13.2884489251
 10
5.643504744
 20
13.2397329097
 10
5.6583003718
 20
13.1892813772
 10
5.6723863459
 20
13.1373245251
 10
5.6855904319
 20
13.0842715098
 10
5.6978613859
 20
13.0298121968
 10
5.7091435168
 20
12.9731237369
 10
5.7192895395
 20
12.9138050024
 10
5.7280019831
 20
12.8524667384
 10
5.7349719234
 20
12.7898335563
 10
5.740004168
 20
12.7262371242
 10
5.7429586996
 20
12.6616278427
 10
5.7436586374
 20
12.5961712299
  0
LWPOLYLINE
  5
3D6
100
AcDbEntity
  8
0
100
AcDbPolyline
 62
7
  6
CONTINUOUS
 90
22
 70
0
 10
4.4303618354
 20
13.7172967906
 10
4.4369030168
 20
13.714355186
 10
4.4511724041
 20
13.7069399442
 10
4.4700595735
 20
13.6955321245
 10
4.4929600673
 20
13.6796841065
 10
4.5190087581
 20
13.6592380199
 10
4.5471838398
 20
13.6343450999
 10
4.5766774306
 20
13.6051690089
 10
4.6067695728
 20
13.5719335311
 10
4.6366787969
 20
13.5350813225
 10
4.6658197989
 20
13.4949712788
 10
4.6934625349
 20
13.4523193497
 10
4.7187903762
 20
13.4082832439
 10
4.7413977082
 20
13.3636624461
 10
4.7609890954
 20
13.3192768142
 10
4.7772212469
 20
13.276411973
 10
4.7900773213
 20
13.235991849
 10
4.7997469428
 20
13.1986209751
 10
4.806460234
 20
13.1650548219
 10
4.8105751577
 20
13.1359267747
 10
4.8125595179
 20
13.1117040004
 10
4.8129786305
 20
13.0959381115
  0
LINE
  5
3D7
100
AcDbEntity
  8
RACCORDO
100
AcDbLine
 62
250
  6
CONTINUOUS
 10
6.0013950004
 20
15.4762893531
 11
6.0465869165
 21
15.4264680882
  0
LINE
  5
3D8
100
AcDbEntity
  8
RACCORDO
100
AcDbLine
 62
250
  6
CONTINUOUS
 10
6.0465869165
 20
15.4264680882
 11
6.0895706868
 21
15.3782200656
  0
LINE
  5
3D9
100
AcDbEntity
  8
RACCORDO
100
AcDbLine
 62
250
  6
CONTINUOUS
 10
6.0895706868
 20
15.3782200656
 11
6.1315489588
 21
15.3303882658
  0
LWPOLYLINE
  5
3DA
100
AcDbEntity
  8
RACCORDO
100
AcDbPolyline
 62
250
  6
CONTINUOUS
 90
49
 70
0
 10
6.1315489588
 20
15.3303882658
 10
6.1734506742
 20
15.2819213648
 10
6.1944689133
 20
15.2573323638
 10
6.2158992059
 20
15.2320223015
 10
6.2377197769
 20
15.2060017001
 10
6.2598529757
 20
15.1793562903
 10
6.2825345694
 20
15.1517409545
 10
6.3057335144
 20
15.1231934507
 10
6.3294616406
 20
15.0936399316
 10
6.3540030096
 20
15.0625591549
 10
6.3795318674
 20
15.0296375733
 10
6.4059424425
 20
14.9949675904
 10
6.4331138406
 20
14.9586054904
 10
6.4611214819
 20
14.9203671971
 10
6.4898322663
 20
14.8803501615
 10
6.5188246457
 20
14.8390466497
 10
6.547975224
 20
14.7965765998
 10
6.5773427956
 20
14.7528062454
 10
6.6067908644
 20
14.7078678828
 10
6.6361867267
 20
14.6619178272
 10
6.6656045477
 20
14.6147901443
 10
6.695209826
 20
14.5661318904
 10
6.7249516814
 20
14.5159472256
 10
6.75478835
 20
14.464218042
 10
6.7848731433
 20
14.410546059
 10
6.8151446156
 20
14.3549192443
 10
6.8455327191
 20
14.2973288917
 10
6.8761457781
 20
14.2373716974
 10
6.9068996836
 20
14.1750315009
 10
6.9376906127
 20
14.1103203364
 10
6.968558124
 20
14.042876163
 10
6.9993803863
 20
13.9727121501
 10
7.0300284173
 20
13.8998242158
 10
7.060489295
 20
13.8238172979
 10
7.0906475319
 20
13.7446162015
 10
7.1202799675
 20
13.6623826144
 10
7.1491552338
 20
13.5771481642
 10
7.1768438681
 20
13.4892435107
 10
7.2033645322
 20
13.3985230648
 10
7.2291606296
 20
13.3040986296
 10
7.2541220659
 20
13.2056844176
 10
7.2780087146
 20
13.1028006373
 10
7.300843455
 20
12.994409353
 10
7.322362428
 20
12.8800005972
 10
7.3414986043
 20
12.7610463306
 10
7.3571279484
 20
12.6395014319
 10
7.3687277314
 20
12.5162937389
 10
7.3762121411
 20
12.3912174021
 10
7.3792481256
 20
12.2645554759
  0
LINE
  5
3DB
100
AcDbEntity
  8
RACCORDO
100
AcDbLine
 62
7
  6
CONTINUOUS
 10
-1.0688038918
 20
-20.106609897
 11
-1.2395374663
 21
-20.1981545685
  0
LINE
  5
3DC
100
AcDbEntity
  8
DRAFT
100
AcDbLine
 62
7
  6
CONTINUOUS
 10
-1.4444177556
 20
-20.3080081743
 11
-1.5810046152
 21
-20.3812439115
  0
LINE
  5
3DD
100
AcDbEntity
  8
DRAFT
100
AcDbLine
 62
7
  6
CONTINUOUS
 10
-1.7858849045
 20
-20.4910975173
 11
-1.9224717641
 21
-20.5643332545
  0
LWPOLYLINE
  5
3DE
100
AcDbEntity
  8
RACCORDO
100
AcDbPolyline
 62
7
  6
CONTINUOUS
 90
3
 70
0
 10
-1.058081286
 20
-20.1012166608
 10
-1.0298462731
 20
-20.0928655412
 10
-0.9997985856
 20
-20.0894919991
  0
LWPOLYLINE
  5
3DF
100
AcDbEntity
  8
RACCORDO
100
AcDbPolyline
 62
250
  6
CONTINUOUS
 90
9
 70
0
 10
-13.1289342912
 20
20.4797100146
 10
-13.0250539597
 20
20.4715388578
 10
-12.9203781841
 20
20.470511768
 10
-12.8160820085
 20
20.4750036679
 10
-12.7133096719
 20
20.484938678
 10
-12.6131879584
 20
20.5002006297
 10
-12.5168139132
 20
20.5206236024
 10
-12.4252438724
 20
20.5459786162
 10
-12.3394814982
 20
20.5759853242
  0
LINE
  5
3E0
100
AcDbEntity
  8
RACCORDO
100
AcDbLine
 62
250
  6
CONTINUOUS
 10
-12.083614547
 20
23.461708076
 11
-11.5414999163
 21
23.2442274633
  0
LINE
  5
3E1
100
AcDbEntity
  8
RACCORDO
100
AcDbLine
 62
250
  6
CONTINUOUS
 10
-11.5414999163
 20
23.2442274633
 11
-10.7921890558
 21
22.9395156889
  0
LINE
  5
3E2
100
AcDbEntity
  8
RACCORDO
100
AcDbLine
 62
250
  6
CONTINUOUS
 10
-10.7921890558
 20
22.9395156889
 11
-9.3111762051
 21
22.3290619877
  0
LINE
  5
3E3
100
AcDbEntity
  8
RACCORDO
100
AcDbLine
 62
250
  6
CONTINUOUS
 10
-9.3111762051
 20
22.3290619877
 11
-6.2176157559
 21
21.0391514094
  0
LINE
  5
3E4
100
AcDbEntity
  8
RACCORDO
100
AcDbLine
 62
250
  6
CONTINUOUS
 10
-6.2176157559
 20
21.0391514094
 11
-3.0213992733
 21
19.7000396751
  0
LINE
  5
3E5
100
AcDbEntity
  8
RACCORDO
100
AcDbLine
 62
250
  6
CONTINUOUS
 10
-3.0213992733
 20
19.7000396751
 11
2.37345206
 21
17.424064362
  0
LINE
  5
3E6
100
AcDbEntity
  8
RACCORDO
100
AcDbLine
 62
250
  6
CONTINUOUS
 10
2.37345206
 20
17.424064362
 11
3.6158059789
 21
16.8919264952
  0
LINE
  5
3E7
100
AcDbEntity
  8
RACCORDO
100
AcDbLine
 62
250
  6
CONTINUOUS
 10
3.6158059789
 20
16.8919264952
 11
4.3204944136
 21
16.5860919569
  0
LINE
  5
3E8
100
AcDbEntity
  8
RACCORDO
100
AcDbLine
 62
250
  6
CONTINUOUS
 10
4.3204944136
 20
16.5860919569
 11
4.6678578009
 21
16.4336308045
  0
LWPOLYLINE
  5
3E9
100
AcDbEntity
  8
RACCORDO
100
AcDbPolyline
 62
250
  6
CONTINUOUS
 90
12
 70
0
 10
4.6678585487
 20
16.4336311747
 10
4.719404337
 20
16.4103290116
 10
4.7693592141
 20
16.3866847751
 10
4.817705375
 20
16.3628073947
 10
4.8642394429
 20
16.3389399965
 10
4.9091337098
 20
16.3150740509
 10
4.9529448426
 20
16.2908981123
 10
4.9955941004
 20
16.2663540298
 10
5.0372920024
 20
16.2415058483
 10
5.0790140856
 20
16.2161385384
 10
5.1204959015
 20
16.190549239
 10
5.1613083231
 20
16.1649586074
  0
LWPOLYLINE
  5
3EA
100
AcDbEntity
  8
RACCORDO
100
AcDbPolyline
 62
250
  6
CONTINUOUS
 90
24
 70
0
 10
5.1613083231
 20
16.1649586074
 10
5.2429105977
 20
16.1128241906
 10
5.2842760928
 20
16.0858853446
 10
5.3265251742
 20
16.0575783812
 10
5.3702018937
 20
16.0273702368
 10
5.4147243298
 20
15.9956875124
 10
5.4585923734
 20
15.9634928037
 10
5.5016191799
 20
15.9309076395
 10
5.5440077772
 20
15.8978505406
 10
5.584913285
 20
15.8650698529
 10
5.6240649142
 20
15.8328732223
 10
5.6616885482
 20
15.8011566775
 10
5.6976750031
 20
15.7701153081
 10
5.73205115
 20
15.7398006297
 10
5.7649078739
 20
15.7101938485
 10
5.7962622299
 20
15.6813600702
 10
5.8259481522
 20
15.6535480025
 10
5.8539316951
 20
15.6268674373
 10
5.8803807435
 20
15.6012106205
 10
5.9054959073
 20
15.5764501009
 10
5.9297680376
 20
15.5520745499
 10
5.9539326328
 20
15.5272207641
 10
5.977943287
 20
15.5017678814
 10
6.0013950004
 20
15.4762893531
  0
LWPOLYLINE
  5
3EB
100
AcDbEntity
  8
0
100
AcDbPolyline
 62
7
  6
CONTINUOUS
 90
5
 70
0
 10
6.2557869753
 20
-29.8193086849
 10
6.2700648993
 20
-29.7946294503
 10
6.2801274259
 20
-29.7662112351
 10
6.2857084739
 20
-29.7345646234
 10
6.2867941709
 20
-29.7004245358
  0
LINE
  5
3EC
100
AcDbEntity
  8
RACCORDO
100
AcDbLine
 62
250
  6
CONTINUOUS
 10
4.6826902499
 20
-25.2969878715
 11
4.749549223
 21
-25.24279389
  0
LWPOLYLINE
  5
3ED
100
AcDbEntity
  8
RACCORDO
100
AcDbPolyline
 62
250
  6
CONTINUOUS
 90
7
 70
0
 10
3.4493912954
 20
-22.8579952976
 10
3.4702602868
 20
-22.8421555197
 10
3.4869645022
 20
-22.825125559
 10
3.4992368396
 20
-22.8071777263
 10
3.506881063
 20
-22.7885990093
 10
3.5097749407
 20
-22.7696864835
 10
3.5098006424
 20
-22.7677230441
  0
LINE
  5
3EE
100
AcDbEntity
  8
RACCORDO
100
AcDbLine
 62
7
  6
CONTINUOUS
 10
3.4399293588
 20
-21.9982481008
 11
3.2892691284
 21
-22.0982145401
  0
LINE
  5
3EF
100
AcDbEntity
  8
DRAFT
100
AcDbLine
 62
7
  6
CONTINUOUS
 10
3.1084768519
 20
-22.2181742673
 11
2.9879486676
 21
-22.2981474187
  0
LINE
  5
3F0
100
AcDbEntity
  8
DRAFT
100
AcDbLine
 62
7
  6
CONTINUOUS
 10
2.8071563911
 20
-22.4181071458
 11
2.6866282068
 21
-22.4980802973
  0
LINE
  5
3F1
100
AcDbEntity
  8
RACCORDO
100
AcDbLine
 62
250
  6
CONTINUOUS
 10
3.3858357263
 20
-22.9001658421
 11
3.4493912954
 21
-22.8579952976
  0
LINE
  5
3F2
100
AcDbEntity
  8
0
100
AcDbLine
 62
7
  6
CONTINUOUS
 10
-2.7622596563
 20
-25.2202418616
 11
-2.6333936501
 21
-25.1434535987
  0
LINE
  5
3F3
100
AcDbEntity
  8
0
100
AcDbLine
 62
7
  6
CONTINUOUS
 10
-2.3187265082
 20
-25.4071332181
 11
-2.1898655306
 21
-25.3303479516
  0
LINE
  5
3F4
100
AcDbEntity
  8
0
100
AcDbLine
 62
7
  6
CONTINUOUS
 10
-1.3381707353
 20
-25.820261669
 11
-1.2093201584
 21
-25.7434826001
  0
LINE
  5
3F5
100
AcDbEntity
  8
0
100
AcDbLine
 62
7
  6
CONTINUOUS
 10
-0.894551419
 20
-26.0071016799
 11
-0.765704511
 21
-25.9303247971
  0
LINE
  5
3F6
100
AcDbEntity
  8
0
100
AcDbLine
 62
7
  6
CONTINUOUS
 10
-0.5987759018
 20
-26.1316380012
 11
-0.469930867
 21
-26.0548622346
  0
LINE
  5
3F7
100
AcDbEntity
  8
0
100
AcDbLine
 62
7
  6
CONTINUOUS
 10
-0.1550426564
 20
-26.3184046792
 11
-0.0261993509
 21
-26.2416299432
  0
LINE
  5
3F8
100
AcDbEntity
  8
0
100
AcDbLine
 62
7
  6
CONTINUOUS
 10
0.2887690623
 20
-26.5051074839
 11
0.4176122212
 21
-26.4283328352
  0
LINE
  5
3F9
100
AcDbEntity
  8
0
100
AcDbLine
 62
7
  6
CONTINUOUS
 10
-1.4189759434
 20
-28.1068828636
 11
-1.2893041874
 21
-28.029614473
  0
LWPOLYLINE
  5
3FA
100
AcDbEntity
  8
RACCORDO
100
AcDbPolyline
 62
7
  6
CONTINUOUS
 90
6
 70
0
 10
3.4493912954
 20
-21.9923259511
 10
3.4706850728
 20
-21.9810626374
 10
3.4869946515
 20
-21.9719252743
 10
3.4986130435
 20
-21.965303559
 10
3.5058903441
 20
-21.9620250005
 10
3.5094494472
 20
-21.9619297002
  0
LWPOLYLINE
  5
3FB
100
AcDbEntity
  8
RACCORDO
100
AcDbPolyline
 62
250
  6
CONTINUOUS
 90
13
 70
0
 10
-12.6492946719
 20
23.6223488041
 10
-12.5670913466
 20
23.605463228
 10
-12.5256962638
 20
23.5966276189
 10
-12.4840635145
 20
23.5872274404
 10
-12.4428548139
 20
23.5773991883
 10
-12.4020336694
 20
23.5671311536
 10
-12.3603984988
 20
23.5558802825
 10
-12.3177218062
 20
23.543443987
 10
-12.274126352
 20
23.5299156805
 10
-12.2289630825
 20
23.5150907004
 10
-12.1820304123
 20
23.4988191375
 10
-12.1335727195
 20
23.481054421
 10
-12.0836142216
 20
23.4617082337
  0
LINE
  5
3FC
100
AcDbEntity
  8
RACCORDO
100
AcDbLine
 62
250
  6
CONTINUOUS
 10
4.749549223
 20
-25.24279389
 11
4.8171647716
 21
-25.1977093553
  0
LINE
  5
3FD
100
AcDbEntity
  8
0
100
AcDbLine
 62
7
  6
CONTINUOUS
 10
30.8471444285
 20
-9.6856999536
 11
32.213013024
 21
-8.8018077714
  0
LINE
  5
3FE
100
AcDbEntity
  8
0
100
AcDbLine
 62
7
  6
CONTINUOUS
 10
0.9599421327
 20
-26.7872291316
 11
1.0887889157
 21
-26.7104523233
  0
LINE
  5
3FF
100
AcDbEntity
  8
0
100
AcDbLine
 62
7
  6
CONTINUOUS
 10
1.7895041653
 20
-27.1354418289
 11
1.9183641879
 21
-27.0586571315
  0
LINE
  5
400
100
AcDbEntity
  8
0
100
AcDbLine
 62
7
  6
CONTINUOUS
 10
0.0362978017
 20
-28.7159710153
 11
0.1660195846
 21
-28.638672815
  0
LINE
  5
401
100
AcDbEntity
  8
0
100
AcDbLine
 62
7
  6
CONTINUOUS
 10
2.4615815018
 20
-27.4170246453
 11
2.5904626426
 21
-27.340227364
  0
LINE
  5
402
100
AcDbEntity
  8
0
100
AcDbLine
 62
7
  6
CONTINUOUS
 10
0.9280946879
 20
-29.0869123214
 11
1.057853104
 21
-29.0095922922
  0
LINE
  5
403
100
AcDbEntity
  8
0
100
AcDbLine
 62
7
  6
CONTINUOUS
 10
3.4729062218
 20
-27.8394631899
 11
3.6018487655
 21
-27.7626293201
  0
LINE
  5
404
100
AcDbEntity
  8
0
100
AcDbLine
 62
7
  6
CONTINUOUS
 10
3.9187270993
 20
-28.0250076766
 11
4.0477152684
 21
-27.9481466197
  0
LINE
  5
405
100
AcDbEntity
  8
0
100
AcDbLine
 62
7
  6
CONTINUOUS
 10
1.7978884184
 20
-29.4463416511
 11
1.9276833571
 21
-29.3689998589
  0
LINE
  5
406
100
AcDbEntity
  8
0
100
AcDbLine
 62
7
  6
CONTINUOUS
 10
4.9340947942
 20
-28.4450540586
 11
5.0632725777
 21
-28.3680800148
  0
LINE
  5
407
100
AcDbEntity
  8
0
100
AcDbLine
 62
7
  6
CONTINUOUS
 10
2.6704937621
 20
-29.8041257973
 11
2.8003203513
 21
-29.7267651452
  0
LINE
  5
408
100
AcDbEntity
  8
0
100
AcDbLine
 62
7
  6
CONTINUOUS
 10
3.6031997582
 20
-29.3092408252
 11
3.7328465424
 21
-29.2319873148
  0
LWPOLYLINE
  5
409
100
AcDbEntity
  8
RACCORDO
100
AcDbPolyline
 62
250
  6
CONTINUOUS
 90
13
 70
0
 10
29.1624881616
 20
-13.6197943867
 10
29.0851684018
 20
-13.6570591467
 10
29.0003117791
 20
-13.6899649228
 10
28.9088961523
 20
-13.71813252
 10
28.8119749636
 20
-13.7412373448
 10
28.7106650995
 20
-13.7590131449
 10
28.6061340203
 20
-13.7712550782
 10
28.4995863062
 20
-13.7778220728
 10
28.3922497765
 20
-13.7786384529
 10
28.2853613405
 20
-13.7736948109
 10
28.1801527441
 20
-13.7630481156
 10
28.0778363749
 20
-13.7468210558
 10
27.9795912916
 20
-13.7252006267
  0
LINE
  5
40A
100
AcDbEntity
  8
0
100
AcDbLine
 62
7
  6
CONTINUOUS
 10
32.213013024
 20
-15.1670552185
 11
30.8471444285
 21
-15.7478777801
  0
LWPOLYLINE
  5
40B
100
AcDbEntity
  8
RACCORDO
100
AcDbPolyline
 62
250
  6
CONTINUOUS
 90
5
 70
0
 10
27.949504326
 20
17.9044558414
 10
27.9513260465
 20
17.8591857387
 10
27.9533046357
 20
17.815087489
 10
27.9548810516
 20
17.7711536182
 10
27.9557343198
 20
17.7274764591
  0
LINE
  5
40C
100
AcDbEntity
  8
RACCORDO
100
AcDbLine
 62
250
  6
CONTINUOUS
 10
27.9466972782
 20
17.998426476
 11
27.949504326
 21
17.9044558414
  0
LINE
  5
40D
100
AcDbEntity
  8
RACCORDO
100
AcDbLine
 62
250
  6
CONTINUOUS
 10
29.2027752719
 20
-45.4708661206
 11
29.20749066
 21
-45.6388855052
  0
LINE
  5
40E
100
AcDbEntity
  8
RACCORDO
100
AcDbLine
 62
250
  6
CONTINUOUS
 10
29.1994525296
 20
-45.3214470357
 11
29.2027752719
 21
-45.4708661206
  0
LINE
  5
40F
100
AcDbEntity
  8
RACCORDO
100
AcDbLine
 62
250
  6
CONTINUOUS
 10
27.9444722791
 20
18.1005906847
 11
27.9466972782
 21
17.998426476
  0
LINE
  5
410
100
AcDbEntity
  8
RACCORDO
100
AcDbLine
 62
250
  6
CONTINUOUS
 10
29.1972694232
 20
-45.1895591825
 11
29.1994525296
 21
-45.3214470357
  0
LINE
  5
411
100
AcDbEntity
  8
RACCORDO
100
AcDbLine
 62
250
  6
CONTINUOUS
 10
27.9428769309
 20
18.2123313889
 11
27.9444722791
 21
18.1005906847
  0
LWPOLYLINE
  5
412
100
AcDbEntity
  8
RACCORDO
100
AcDbPolyline
 62
250
  6
CONTINUOUS
 90
26
 70
0
 10
29.20749066
 20
-45.6388855052
 10
29.207999257
 20
-45.6880321652
 10
29.2074524378
 20
-45.7409101369
 10
29.2055988525
 20
-45.7973775322
 10
29.2021627411
 20
-45.8574713855
 10
29.1968517928
 20
-45.9207951258
 10
29.1894110417
 20
-45.9865445852
 10
29.1795699216
 20
-46.0545032245
 10
29.1670527352
 20
-46.1244307307
 10
29.1516843562
 20
-46.1955097138
 10
29.1332269379
 20
-46.2674859919
 10
29.1114456926
 20
-46.3400811784
 10
29.0862798401
 20
-46.4124875112
 10
29.0575504972
 20
-46.4844352207
 10
29.0250888342
 20
-46.5556318386
 10
28.9889754704
 20
-46.6253111728
 10
28.9491105196
 20
-46.6932156354
 10
28.9054082344
 20
-46.7590737566
 10
28.8581053313
 20
-46.822206967
 10
28.8071931842
 20
-46.8824010104
 10
28.7526721061
 20
-46.9394431048
 10
28.6949242864
 20
-46.9927949473
 10
28.6340226225
 20
-47.0423214002
 10
28.5700506013
 20
-47.087890542
 10
28.5035256247
 20
-47.129130277
 10
28.4455720301
 20
-47.1605029804
  0
LINE
  5
413
100
AcDbEntity
  8
RACCORDO
100
AcDbLine
 62
250
  6
CONTINUOUS
 10
29.1960086407
 20
-45.0669153363
 11
29.1972694232
 21
-45.1895591825
  0
LINE
  5
414
100
AcDbEntity
  8
RACCORDO
100
AcDbLine
 62
250
  6
CONTINUOUS
 10
27.9557343198
 20
17.7274764591
 11
27.9564075009
 21
17.6409047815
  0
LWPOLYLINE
  5
415
100
AcDbEntity
  8
RACCORDO
100
AcDbPolyline
 62
250
  6
CONTINUOUS
 90
3
 70
0
 10
27.9417644827
 20
18.3986772417
 10
27.9419504043
 20
18.3340860964
 10
27.9428769309
 20
18.2123313889
  0
LINE
  5
416
100
AcDbEntity
  8
RACCORDO
100
AcDbLine
 62
250
  6
CONTINUOUS
 10
27.9564075009
 20
17.6409047815
 11
27.97190731
 21
11.6972100209
  0
LINE
  5
417
100
AcDbEntity
  8
RACCORDO
100
AcDbLine
 62
250
  6
CONTINUOUS
 10
29.1645343688
 20
-36.269382772
 11
29.1960086407
 21
-45.0669153363
  0
LINE
  5
418
100
AcDbEntity
  8
RACCORDO
100
AcDbLine
 62
250
  6
CONTINUOUS
 10
27.97190731
 20
11.6972100209
 11
27.9786309623
 21
5.1735821891
  0
LINE
  5
419
100
AcDbEntity
  8
0
100
AcDbLine
 62
7
  6
CONTINUOUS
 10
30.8471444285
 20
-15.7478777801
 11
30.8471444285
 21
-9.6856999536
  0
LINE
  5
41A
100
AcDbEntity
  8
RACCORDO
100
AcDbLine
 62
250
  6
CONTINUOUS
 10
27.9786309623
 20
5.1735821891
 11
27.9802162978
 21
-26.4186083541
  0
LWPOLYLINE
  5
41B
100
AcDbEntity
  8
RACCORDO
100
AcDbPolyline
 62
250
  6
CONTINUOUS
 90
3
 70
0
 10
29.1627380338
 20
-11.950128792
 10
29.1616023747
 20
-22.1608316028
 10
29.1645343688
 20
-36.269382772
  0
LINE
  5
41C
100
AcDbEntity
  8
RACCORDO
100
AcDbLine
 62
250
  6
CONTINUOUS
 10
27.9802162978
 20
-26.4186083541
 11
27.9762742007
 21
-36.1070200345
  0
LINE
  5
41D
100
AcDbEntity
  8
RACCORDO
100
AcDbLine
 62
250
  6
CONTINUOUS
 10
27.9762742007
 20
-36.1070200345
 11
27.9681618909
 21
-40.8567844668
  0
LINE
  5
41E
100
AcDbEntity
  8
RACCORDO
100
AcDbLine
 62
250
  6
CONTINUOUS
 10
27.9681618909
 20
-40.8567844668
 11
27.9564168029
 21
-45.0375138577
  0
LINE
  5
41F
100
AcDbEntity
  8
RACCORDO
100
AcDbLine
 62
250
  6
CONTINUOUS
 10
27.9422961987
 20
-45.6360742825
 11
27.9417645089
 21
-45.752965857
  0
LINE
  5
420
100
AcDbEntity
  8
RACCORDO
100
AcDbLine
 62
250
  6
CONTINUOUS
 10
29.1966591395
 20
17.9353138783
 11
29.1627380338
 21
-11.950128792
  0
LWPOLYLINE
  5
421
100
AcDbEntity
  8
RACCORDO
100
AcDbPolyline
 62
250
  6
CONTINUOUS
 90
46
 70
0
 10
27.9417644622
 20
-45.7529658968
 10
27.9414106425
 20
-45.7849626267
 10
27.9403246879
 20
-45.8193982199
 10
27.9383379598
 20
-45.8561858652
 10
27.9352577163
 20
-45.895357841
 10
27.9308977324
 20
-45.9366600794
 10
27.9251136373
 20
-45.9795673119
 10
27.9177276252
 20
-46.0239432389
 10
27.9085561182
 20
-46.0696384721
 10
27.8975037878
 20
-46.1161196271
 10
27.8844148458
 20
-46.1632258917
 10
27.8691353018
 20
-46.2107819778
 10
27.8516437854
 20
-46.258258443
 10
27.8318248833
 20
-46.3054819417
 10
27.8095671181
 20
-46.3522694297
 10
27.784935607
 20
-46.3981205983
 10
27.7578632433
 20
-46.4428703723
 10
27.7282911305
 20
-46.486350233
 10
27.6963814382
 20
-46.5281182106
 10
27.662124196
 20
-46.5680374592
 10
27.6255193134
 20
-46.6059741007
 10
27.5868268925
 20
-46.6415719239
 10
27.5460935492
 20
-46.6747409463
 10
27.5033688433
 20
-46.7054020377
 10
27.4589921574
 20
-46.7333109549
 10
27.413047866
 20
-46.7584451991
 10
27.3656301265
 20
-46.7807888407
 10
27.3171568465
 20
-46.8002127964
 10
27.267747667
 20
-46.8167624197
 10
27.2175215099
 20
-46.8304922774
 10
27.1669441128
 20
-46.8413965386
 10
27.1161477869
 20
-46.8495894668
 10
27.0652563614
 20
-46.8551932162
 10
27.0147554227
 20
-46.8583187605
 10
26.9647717226
 20
-46.8591388946
 10
26.9154216772
 20
-46.8578257328
 10
26.8671927319
 20
-46.8545817689
 10
26.8201942182
 20
-46.8496159152
 10
26.7745215083
 20
-46.8431325008
 10
26.730644783
 20
-46.8354042362
 10
26.6886423557
 20
-46.8266579616
 10
26.6485823981
 20
-46.8171099265
 10
26.6109157224
 20
-46.8070749228
 10
26.5758238206
 20
-46.796815068
 10
26.5432148394
 20
-46.7865013422
 10
26.5131192609
 20
-46.7763211853
  0
LINE
  5
422
100
AcDbEntity
  8
RACCORDO
100
AcDbLine
 62
250
  6
CONTINUOUS
 10
27.9435051453
 20
-45.52749287
 11
27.9422961987
 21
-45.6360742825
  0
LWPOLYLINE
  5
423
100
AcDbEntity
  8
RACCORDO
100
AcDbPolyline
 62
250
  6
CONTINUOUS
 90
8
 70
0
 10
27.9564168029
 20
-45.0375138577
 10
27.9554576321
 20
-45.1216389944
 10
27.9544952092
 20
-45.1638718683
 10
27.9529045339
 20
-45.2060054382
 10
27.9509563305
 20
-45.248004735
 10
27.9491747491
 20
-45.2909852969
 10
27.9477395415
 20
-45.3350549707
 10
27.9453335342
 20
-45.4271193712
  0
LINE
  5
424
100
AcDbEntity
  8
RACCORDO
100
AcDbLine
 62
250
  6
CONTINUOUS
 10
29.1984640756
 20
18.0660711058
 11
29.1966591395
 21
17.9353138783
  0
LINE
  5
425
100
AcDbEntity
  8
RACCORDO
100
AcDbLine
 62
250
  6
CONTINUOUS
 10
27.9453335342
 20
-45.4271193712
 11
27.9435051453
 21
-45.52749287
  0
LINE
  5
426
100
AcDbEntity
  8
RACCORDO
100
AcDbLine
 62
250
  6
CONTINUOUS
 10
29.2013853024
 20
18.2146708324
 11
29.1984640756
 21
18.0660711058
  0
LWPOLYLINE
  5
427
100
AcDbEntity
  8
RACCORDO
100
AcDbPolyline
 62
250
  6
CONTINUOUS
 90
3
 70
0
 10
29.20749066
 20
18.4469943749
 10
29.2057142706
 20
18.3852231333
 10
29.2013853024
 20
18.2146708324
  0
LWPOLYLINE
  5
428
100
AcDbEntity
  8
0
100
AcDbPolyline
 62
7
  6
CONTINUOUS
 90
3
 70
0
 10
6.2156901739
 20
-29.8562559842
 10
6.2375975259
 20
-29.8399246904
 10
6.2557869753
 20
-29.8193086849
  0
LWPOLYLINE
  5
429
100
AcDbEntity
  8
0
100
AcDbPolyline
 62
7
  6
CONTINUOUS
 90
25
 70
0
 10
6.7286385081
 20
-30.2377793976
 10
6.7731308894
 20
-30.2061613677
 10
6.8156045706
 20
-30.1634563301
 10
6.8506906986
 20
-30.1131638458
 10
6.8778228568
 20
-30.0563986306
 10
6.8969574676
 20
-29.993657381
 10
6.9081858627
 20
-29.9249536334
 10
6.9111491012
 20
-29.8507472105
 10
6.9055375795
 20
-29.7721558199
 10
6.8914826635
 20
-29.6901540419
 10
6.8687529087
 20
-29.6050954875
 10
6.8375295948
 20
-29.5187190885
 10
6.7993964683
 20
-29.4342190068
 10
6.7556467661
 20
-29.3532822422
 10
6.7068409561
 20
-29.276092856
 10
6.6541537719
 20
-29.2033977728
 10
6.5986500502
 20
-29.1358910772
 10
6.541002686
 20
-29.0737849071
 10
6.4817114261
 20
-29.0169434865
 10
6.4213493957
 20
-28.9654688199
 10
6.3606429796
 20
-28.9196137569
 10
6.300187295
 20
-28.8793939133
 10
6.2405154778
 20
-28.8447567914
 10
6.1820974493
 20
-28.8155897451
 10
6.1253507701
 20
-28.7917143486
  0
LINE
  5
42A
100
AcDbEntity
  8
0
100
AcDbLine
 62
7
  6
CONTINUOUS
 10
3.4205943812
 20
-30.1091112048
 11
3.5504381392
 21
-30.0317403223
  0
LINE
  5
42B
100
AcDbEntity
  8
0
100
AcDbLine
 62
7
  6
CONTINUOUS
 10
5.9959378363
 20
-28.8688301472
 11
6.1253508992
 21
-28.7917159059
  0
LINE
  5
42C
100
AcDbEntity
  8
0
100
AcDbLine
 62
7
  6
CONTINUOUS
 10
5.4804926565
 20
-29.6402518586
 11
5.6103221389
 21
-29.5628894827
  0
LINE
  5
42D
100
AcDbEntity
  8
0
100
AcDbLine
 62
7
  6
CONTINUOUS
 10
6.0371108466
 20
-29.8574944784
 11
6.1669966845
 21
-29.7800985214
  0
LINE
  5
42E
100
AcDbEntity
  8
0
100
AcDbLine
 62
7
  6
CONTINUOUS
 10
4.8728901496
 20
-30.6923355796
 11
5.0027232169
 21
-30.6149710674
  0
LINE
  5
42F
100
AcDbEntity
  8
ASSI
100
AcDbLine
 62
7
  6
CONTINUOUS
 10
6.7285612453
 20
-30.2378254384
 11
6.5984040215
 21
-30.3153831079
  0
LINE
  5
430
100
AcDbEntity
  8
0
100
AcDbLine
 62
7
  6
CONTINUOUS
 10
5.6306612411
 20
-30.9927549978
 11
5.7604630899
 21
-30.915409088
  0
LINE
  5
431
100
AcDbEntity
  8
0
100
AcDbLine
 62
7
  6
CONTINUOUS
 10
7.0017010686
 20
-31.5299236948
 11
7.1314102345
 21
-31.4526330126
  0
LWPOLYLINE
  5
432
100
AcDbEntity
  8
0
100
AcDbPolyline
 62
7
  6
CONTINUOUS
 90
4
 70
0
 10
6.5988882084
 20
-30.3150945917
 10
6.5614642082
 20
-30.3344259191
 10
6.5157100895
 20
-30.3511774961
 10
6.466732475
 20
-30.362333505
  0
LINE
  5
433
100
AcDbEntity
  8
RACCORDO
100
AcDbLine
 62
250
  6
CONTINUOUS
 10
26.8934821608
 20
21.8044465612
 11
27.0815111547
 21
21.7323667217
  0
LINE
  5
434
100
AcDbEntity
  8
RACCORDO
100
AcDbLine
 62
250
  6
CONTINUOUS
 10
26.7790976955
 20
21.8489594452
 11
26.8934821608
 21
21.8044465612
  0
LWPOLYLINE
  5
435
100
AcDbEntity
  8
RACCORDO
100
AcDbPolyline
 62
250
  6
CONTINUOUS
 90
7
 70
0
 10
-30.0051029219
 20
44.3283348074
 10
-29.9499339954
 20
44.3067368841
 10
-29.8943031255
 20
44.2854357604
 10
-29.8381684234
 20
44.2649073346
 10
-29.7814956131
 20
44.2447174083
 10
-29.7225060785
 20
44.2229643289
 10
-29.6611654894
 20
44.1990302035
  0
LINE
  5
436
100
AcDbEntity
  8
RACCORDO
100
AcDbLine
 62
250
  6
CONTINUOUS
 10
26.6664669986
 20
21.8935100112
 11
26.7790976955
 21
21.8489594452
  0
LWPOLYLINE
  5
437
100
AcDbEntity
  8
RACCORDO
100
AcDbPolyline
 62
250
  6
CONTINUOUS
 90
46
 70
0
 10
27.0815111547
 20
21.7323667217
 10
27.1267402688
 20
21.7140309277
 10
27.1754780915
 20
21.6930403249
 10
27.2276932247
 20
21.6691418613
 10
27.283519395
 20
21.6419896253
 10
27.342720677
 20
21.6113752219
 10
27.404693967
 20
21.5772790742
 10
27.469348728
 20
21.5394524869
 10
27.5365861837
 20
21.4976449595
 10
27.6057780489
 20
21.4519234719
 10
27.6767912053
 20
21.4020874525
 10
27.7494803137
 20
21.3479438232
 10
27.8231958739
 20
21.2896772184
 10
27.8977701979
 20
21.2271569661
 10
27.973019363
 20
21.1602699753
 10
28.0482830613
 20
21.0893437165
 10
28.1233701298
 20
21.014335711
 10
28.1980806695
 20
20.9352206265
 10
28.2717763229
 20
20.8524688117
 10
28.3442661966
 20
20.7661277546
 10
28.415356422
 20
20.676258215
 10
28.4844628636
 20
20.5834573786
 10
28.5514350237
 20
20.4878273742
 10
28.6160939831
 20
20.3895243195
 10
28.6779001706
 20
20.2893179175
 10
28.7367612535
 20
20.1873594065
 10
28.7925553969
 20
20.0838670639
 10
28.8448208269
 20
19.9797822943
 10
28.8935340374
 20
19.8753123011
 10
28.9386785903
 20
19.7706697737
 10
28.9799508625
 20
19.6668432697
 10
29.01742118
 20
19.5640357584
 10
29.0511749377
 20
19.4624344791
 10
29.081085209
 20
19.3630059375
 10
29.1073166829
 20
19.2659080323
 10
29.1300458467
 20
19.1712745806
 10
29.1493099608
 20
19.0800062228
 10
29.165351224
 20
18.9921873529
 10
29.1784159904
 20
18.9078844384
 10
29.1886762745
 20
18.827921349
 10
29.1964241
 20
18.752303906
 10
29.2019464003
 20
18.6810275327
 10
29.2055105971
 20
18.6148435394
 10
29.2074298369
 20
18.5539528047
 10
29.2080004754
 20
18.4980278515
 10
29.20749066
 20
18.4469943749
  0
LINE
  5
438
100
AcDbEntity
  8
RACCORDO
100
AcDbLine
 62
250
  6
CONTINUOUS
 10
26.4894459646
 20
21.9648720099
 11
26.6664669986
 21
21.8935100112
  0
LINE
  5
439
100
AcDbEntity
  8
RACCORDO
100
AcDbLine
 62
250
  6
CONTINUOUS
 10
-29.6611654894
 20
44.1990302035
 11
-29.5332570505
 21
44.1473201
  0
LINE
  5
43A
100
AcDbEntity
  8
RACCORDO
100
AcDbLine
 62
250
  6
CONTINUOUS
 10
19.5586559761
 20
24.785118958
 11
26.4894459646
 21
21.9648720099
  0
LWPOLYLINE
  5
43B
100
AcDbEntity
  8
RACCORDO
100
AcDbPolyline
 62
250
  6
CONTINUOUS
 90
4
 70
0
 10
-30.2423414554
 20
44.4242805408
 10
-30.1806926593
 20
44.39888494
 10
-30.1204925464
 20
44.3744000678
 10
-30.0051029219
 20
44.3283348074
  0
LINE
  5
43C
100
AcDbEntity
  8
RACCORDO
100
AcDbLine
 62
250
  6
CONTINUOUS
 10
-22.1184614636
 20
41.1025469201
 11
-21.5007179662
 21
40.8480574534
  0
LINE
  5
43D
100
AcDbEntity
  8
RACCORDO
100
AcDbLine
 62
250
  6
CONTINUOUS
 10
-29.5332570505
 20
44.1473201
 11
-22.1184614636
 21
41.1025469201
  0
LINE
  5
43E
100
AcDbEntity
  8
RACCORDO
100
AcDbLine
 62
250
  6
CONTINUOUS
 10
-20.6257626116
 20
40.4822134082
 11
-19.3204579518
 21
39.9432606145
  0
LINE
  5
43F
100
AcDbEntity
  8
RACCORDO
100
AcDbLine
 62
250
  6
CONTINUOUS
 10
18.3853031503
 20
25.2703588645
 11
19.5586559761
 21
24.785118958
  0
LINE
  5
440
100
AcDbEntity
  8
RACCORDO
100
AcDbLine
 62
250
  6
CONTINUOUS
 10
16.5968867906
 20
26.0148296127
 11
18.3853031503
 21
25.2703588645
  0
LINE
  5
441
100
AcDbEntity
  8
RACCORDO
100
AcDbLine
 62
250
  6
CONTINUOUS
 10
-21.5007179662
 20
40.8480574534
 11
-20.6257626116
 21
40.4822134082
  0
LINE
  5
442
100
AcDbEntity
  8
RACCORDO
100
AcDbLine
 62
250
  6
CONTINUOUS
 10
-11.9928974035
 20
38.0321441537
 11
-7.4088320688
 21
36.1071959793
  0
LINE
  5
443
100
AcDbEntity
  8
RACCORDO
100
AcDbLine
 62
250
  6
CONTINUOUS
 10
-1.5441294696
 20
32.4849428818
 11
15.129610639
 21
25.4905550548
  0
LINE
  5
444
100
AcDbEntity
  8
RACCORDO
100
AcDbLine
 62
250
  6
CONTINUOUS
 10
-7.4088320688
 20
36.1071959793
 11
7.6150930494
 21
29.8062007831
  0
LINE
  5
445
100
AcDbEntity
  8
RACCORDO
100
AcDbLine
 62
250
  6
CONTINUOUS
 10
-19.3204579518
 20
39.9432606145
 11
-1.5441294489
 21
32.4849428842
  0
LINE
  5
446
100
AcDbEntity
  8
RACCORDO
100
AcDbLine
 62
250
  6
CONTINUOUS
 10
-19.62209543
 20
41.2108838758
 11
-11.9928974035
 21
38.0321441537
  0
LINE
  5
447
100
AcDbEntity
  8
RACCORDO
100
AcDbLine
 62
250
  6
CONTINUOUS
 10
7.6150930494
 20
29.8062007831
 11
10.945771221
 21
28.4055253273
  0
LINE
  5
448
100
AcDbEntity
  8
RACCORDO
100
AcDbLine
 62
250
  6
CONTINUOUS
 10
16.9096475957
 20
24.7335443627
 11
17.5075685869
 21
24.4825553261
  0
LWPOLYLINE
  5
449
100
AcDbEntity
  8
RACCORDO
100
AcDbPolyline
 62
250
  6
CONTINUOUS
 90
3
 70
0
 10
10.945771221
 20
28.4055253273
 10
15.5478904667
 20
26.457492473
 10
16.5968867906
 20
26.0148296127
  0
LINE
  5
44A
100
AcDbEntity
  8
RACCORDO
100
AcDbLine
 62
250
  6
CONTINUOUS
 10
15.129610639
 20
25.4905550548
 11
15.8803776607
 21
25.1723806437
  0
LINE
  5
44B
100
AcDbEntity
  8
RACCORDO
100
AcDbLine
 62
250
  6
CONTINUOUS
 10
-22.0454592079
 20
42.2382275972
 11
-19.62209543
 21
41.2108838758
  0
LINE
  5
44C
100
AcDbEntity
  8
RACCORDO
100
AcDbLine
 62
250
  6
CONTINUOUS
 10
15.8803776607
 20
25.1723806437
 11
16.9096475957
 21
24.7335443627
  0
LINE
  5
44D
100
AcDbEntity
  8
RACCORDO
100
AcDbLine
 62
250
  6
CONTINUOUS
 10
17.5075685869
 20
24.4825553261
 11
25.6979245298
 21
20.975810978
  0
LWPOLYLINE
  5
44E
100
AcDbEntity
  8
RACCORDO
100
AcDbPolyline
 62
250
  6
CONTINUOUS
 90
10
 70
0
 10
25.6979245298
 20
20.975810978
 10
25.8357485959
 20
20.9165574423
 10
25.900891748
 20
20.8882704451
 10
25.9643265849
 20
20.8599277186
 10
26.025205767
 20
20.8313522227
 10
26.0838502466
 20
20.8030715767
 10
26.1424057112
 20
20.7754044976
 10
26.200894963
 20
20.7487790934
 10
26.2591924531
 20
20.7227329682
 10
26.382041202
 20
20.6687922085
  0
LINE
  5
44F
100
AcDbEntity
  8
RACCORDO
100
AcDbLine
 62
250
  6
CONTINUOUS
 10
26.382041202
 20
20.6687922085
 11
26.5131182211
 21
20.6125378324
  0
LINE
  5
450
100
AcDbEntity
  8
RACCORDO
100
AcDbLine
 62
250
  6
CONTINUOUS
 10
-24.0454732292
 20
43.0997107369
 11
-22.0454592079
 21
42.2382275972
  0
LWPOLYLINE
  5
451
100
AcDbEntity
  8
RACCORDO
100
AcDbPolyline
 62
250
  6
CONTINUOUS
 90
46
 70
0
 10
26.5131192593
 20
20.6125383067
 10
26.5432433641
 20
20.5994110552
 10
26.5757091885
 20
20.5844714696
 10
26.6104876436
 20
20.5675533657
 10
26.6476534693
 20
20.5484230712
 10
26.6870476272
 20
20.5269515183
 10
26.7282806459
 20
20.5031472427
 10
26.7712888739
 20
20.4768488359
 10
26.8159994376
 20
20.4478937531
 10
26.8620041349
 20
20.4163466348
 10
26.9092137168
 20
20.3820792921
 10
26.957525974
 20
20.3449699564
 10
27.0065143288
 20
20.3051614077
 10
27.0560677591
 20
20.2625717499
 10
27.1060654238
 20
20.2171255883
 10
27.1560776898
 20
20.1690479547
 10
27.2059833146
 20
20.118307934
 10
27.2556523253
 20
20.0648890902
 10
27.3046662518
 20
20.0091108113
 10
27.3529032336
 20
19.9510020162
 10
27.4002378421
 20
19.8906024451
 10
27.4462842188
 20
19.8283138525
 10
27.4909462925
 20
19.764199569
 10
27.5341135871
 20
19.6983540424
 10
27.5754338821
 20
19.6312819032
 10
27.6148522543
 20
19.5630726669
 10
27.6522897726
 20
19.4938686862
 10
27.6874349013
 20
19.4242985728
 10
27.7202723597
 20
19.3544964964
 10
27.7507951787
 20
19.284594078
 10
27.7787973092
 20
19.2152415569
 10
27.8043274448
 20
19.1465668344
 10
27.8274433229
 20
19.0786877393
 10
27.8480495486
 20
19.0122426816
 10
27.8662552528
 20
18.9473349751
 10
27.8821739526
 20
18.8840531875
 10
27.8958104079
 20
18.8229975395
 10
27.9073233673
 20
18.7642293297
 10
27.9168739078
 20
18.7077924427
 10
27.9245538255
 20
18.6542322323
 10
27.9305576998
 20
18.6035590074
 10
27.9350738959
 20
18.5557740482
 10
27.9382528685
 20
18.5113759112
 10
27.9402939983
 20
18.470504195
 10
27.9414045442
 20
18.4329518334
 10
27.9417644624
 20
18.3986772269
  0
LINE
  5
452
100
AcDbEntity
  8
RACCORDO
100
AcDbLine
 62
250
  6
CONTINUOUS
 10
-29.1658609831
 20
45.3169844536
 11
-24.0454732292
 21
43.0997107369
  0
LINE
  5
453
100
AcDbEntity
  8
RACCORDO
100
AcDbLine
 62
250
  6
CONTINUOUS
 10
-29.2725191691
 20
45.3640532523
 11
-29.1658609831
 21
45.3169844536
  0
LINE
  5
454
100
AcDbEntity
  8
RACCORDO
100
AcDbLine
 62
250
  6
CONTINUOUS
 10
-29.3780660874
 20
45.4114029887
 11
-29.2725191691
 21
45.3640532523
  0
LWPOLYLINE
  5
455
100
AcDbEntity
  8
RACCORDO
100
AcDbPolyline
 62
250
  6
CONTINUOUS
 90
3
 70
0
 10
-29.6057776361
 20
45.5155082801
 10
-29.5463834148
 20
45.4881373532
 10
-29.3780660874
 20
45.4114029887
  0
LINE
  5
456
100
AcDbEntity
  8
0
100
AcDbLine
 62
7
  6
CONTINUOUS
 10
32.213013024
 20
20.0585084452
 11
32.213013024
 21
-8.8018077714
  0
LINE
  5
457
100
AcDbEntity
  8
0
100
AcDbLine
 62
7
  6
CONTINUOUS
 10
32.213013024
 20
-15.1670552185
 11
32.213013024
 21
-44.027371435
  0
LWPOLYLINE
  5
458
100
AcDbEntity
  8
0
100
AcDbPolyline
 62
7
  6
CONTINUOUS
 90
15
 70
0
 10
-26.7724090962
 20
47.4039076294
 10
-26.9067785887
 20
47.4557634463
 10
-27.0398008102
 20
47.498416023
 10
-27.1714757608
 20
47.5318653595
 10
-27.3022388854
 20
47.5561622413
 10
-27.431654739
 20
47.5712558828
 10
-27.5584169868
 20
47.5769939277
 10
-27.6824987527
 20
47.5732816208
 10
-27.8039269128
 20
47.5602137171
 10
-27.9214757608
 20
47.5379221253
 10
-28.0351060064
 20
47.5063134263
 10
-28.1448569398
 20
47.465481039
 10
-28.2496207256
 20
47.4158371293
 10
-28.3493468533
 20
47.3572924525
 10
-28.3857965958
 20
47.3328306199
  0
LINE
  5
459
100
AcDbEntity
  8
0
100
AcDbLine
 62
7
  6
CONTINUOUS
 10
-26.7724090962
 20
47.4039076294
 11
29.9148796947
 21
23.620766071
  0
LWPOLYLINE
  5
45A
100
AcDbEntity
  8
0
100
AcDbPolyline
 62
7
  6
CONTINUOUS
 90
28
 70
0
 10
29.9148796947
 20
23.620766071
 10
30.0492491872
 20
23.5598724963
 10
30.1822714088
 20
23.4909061759
 10
30.3139463594
 20
23.4138671099
 10
30.4447094839
 20
23.3284407021
 10
30.5741253375
 20
23.2349415487
 10
30.7008875854
 20
23.1343134381
 10
30.8249693513
 20
23.0264841672
 10
30.9463975114
 20
22.9115259392
 10
31.0639463594
 20
22.7905991524
 10
31.1775766049
 20
22.6636433562
 10
31.2873275383
 20
22.5307190012
 10
31.3920913242
 20
22.3931678374
 10
31.4918174519
 20
22.2509430036
 10
31.586556432
 20
22.1040913609
 10
31.6753519612
 20
21.9540952426
 10
31.7581438431
 20
21.8009228007
 10
31.834992274
 20
21.6446058832
 10
31.9051215392
 20
21.4867223665
 10
31.9684635859
 20
21.3272563838
 10
32.0250864668
 20
21.1662238018
 10
32.0744186259
 20
21.0052500975
 10
32.1163862213
 20
20.8443358671
 10
32.1510630947
 20
20.6834805142
 10
32.1780992149
 20
20.5243077268
 10
32.1973779046
 20
20.3673587342
 10
32.209015841
 20
20.212092307
 10
32.213013024
 20
20.0585084452
  0
LINE
  5
45B
100
AcDbEntity
  8
RACCORDO
100
AcDbLine
 62
250
  6
CONTINUOUS
 10
32.213013024
 20
-44.0273714349
 11
29.20749066
 21
-45.6388855052
  0
LWPOLYLINE
  5
45C
100
AcDbEntity
  8
RACCORDO
100
AcDbPolyline
 62
250
  6
CONTINUOUS
 90
13
 70
0
 10
29.207490655
 20
-45.6388855028
 10
29.1241656167
 20
-45.6825400897
 10
29.0322219652
 20
-45.7210788812
 10
28.9328825272
 20
-45.7539893214
 10
28.8274684914
 20
-45.7808337099
 10
28.7173818372
 20
-45.8012550233
 10
28.6040866887
 20
-45.8149816634
 10
28.4890898418
 20
-45.8218310695
 10
28.3739207249
 20
-45.8217121463
 10
28.2601110574
 20
-45.8146264754
 10
28.1491744782
 20
-45.8006682945
 10
28.0425864153
 20
-45.7800232437
 10
27.9417644622
 20
-45.7529658968
  0
LWPOLYLINE
  5
45D
100
AcDbEntity
  8
0
100
AcDbPolyline
 62
7
  6
CONTINUOUS
 90
17
 70
0
 10
31.3695335705
 20
-45.6848494199
 10
31.3920913242
 20
-45.6731957317
 10
31.4918174519
 20
-45.6146510548
 10
31.586556432
 20
-45.5472948555
 10
31.6753519612
 20
-45.4718070329
 10
31.7581438431
 20
-45.3881052286
 10
31.834992274
 20
-45.2962718011
 10
31.9051215392
 20
-45.1972337249
 10
31.9684635859
 20
-45.0909180302
 10
32.0250864668
 20
-44.9773976868
 10
32.0744186259
 20
-44.8578185789
 10
32.1163862213
 20
-44.7321193423
 10
32.1510630947
 20
-44.6003613412
 10
32.1780992149
 20
-44.4638745523
 10
32.1973779046
 20
-44.3231023011
 10
32.209015841
 20
-44.177601262
 10
32.213013024
 20
-44.027371435
  0
LINE
  5
45E
100
AcDbEntity
  8
RACCORDO
100
AcDbLine
 62
7
  6
CONTINUOUS
 10
28.4455720301
 20
-47.1605029804
 11
28.4430028022
 21
-47.1618024309
  0
LINE
  5
45F
100
AcDbEntity
  8
SUPERFICI
100
AcDbLine
 62
7
  6
CONTINUOUS
 10
31.3694445192
 20
-45.6848997325
 11
28.4432373573
 21
-47.1616841146
  0
ELLIPSE
  5
460
100
AcDbEntity
  8
RACCORDO
100
AcDbEllipse
 62
7
  6
CONTINUOUS
 10
-1.0688038918
 20
-20.3664175181
 30
0.0
 11
0.1271704472
 21
0.2718872338
 31
0.0
 40
0.5908148751
 41
0.6172831043
 42
0.6696429818
  0
ELLIPSE
  5
461
100
AcDbEntity
  8
RACCORDO
100
AcDbEllipse
 62
7
  6
CONTINUOUS
 10
3.4399293588
 20
-22.258055722
 30
0.0
 11
0.1060860249
 21
0.2807679776
 31
0.0
 40
0.5214104725
 41
0.5747216592
 42
0.6270815368
  0
ENDSEC
  0
SECTION
  2
OBJECTS
  0
DICTIONARY
  5
C
100
AcDbDictionary
280
0
281
1
  3
ACAD_GROUP
350
D
  3
ACAD_MLINESTYLE
350
17
  3
ACAD_LAYOUT
350
1A
  3
ACAD_PLOTSETTINGS
350
19
  3
ACAD_PLOTSTYLENAME
350
E
  0
DICTIONARY
  5
D
102
{ACAD_REACTORS
330
C
102
}
100
AcDbDictionary
280
0
281
1
  0
ACDBDICTIONARYWDFLT
  5
E
102
{ACAD_REACTORS
330
C
102
}
100
AcDbDictionary
281
1
  3
Normal
350
F
100
AcDbDictionaryWithDefault
340
F
  0
DICTIONARY
  5
17
102
{ACAD_REACTORS
330
C
102
}
100
AcDbDictionary
280
0
281
1
  3
Standard
350
18
  0
DICTIONARY
  5
19
102
{ACAD_REACTORS
330
C
102
}
100
AcDbDictionary
281
1
  0
DICTIONARY
  5
1A
102
{ACAD_REACTORS
330
C
102
}
100
AcDbDictionary
281
1
  3
Model
350
462
  3
Layout1
350
463
  0
ACDBPLACEHOLDER
  5
F
102
{ACAD_REACTORS
330
E
102
}
  0
MLINESTYLE
  5
18
102
{ACAD_REACTORS
330
17
102
}
100
AcDbMlineStyle
  2
STANDARD
 70
0
  3

 62
256
 51
90.0
 52
90.0
 71
2
 49
0.5
 62
256
  6
BYLAYER
 49
-0.5
 62
256
  6
BYLAYER
  0
LAYOUT
  5
462
102
{ACAD_REACTORS
330
1A
102
}
100
AcDbPlotSettings
  1

  2
none_device
  4
ISO_A4_(297.00_x_210.00_MM)
  6

 40
0.0
 41
0.0
 42
0.0
 43
0.0
 44
297.0
 45
210.0
 46
0.0
 47
0.0
 48
0.0
 49
0.0
140
0.0
141
0.0
142
1.0
143
1.0
 70
1024
 72
1
 73
0
 74
0
  7

 75
0
147
1.0
148
0.0
149
0.0
100
AcDbLayout
  1
Model
 70
0
 71
0
 10
0.0
 20
0.0
 11
297.0
 21
210.0
 12
0.0
 22
0.0
 32
0.0
 14
0.0
 24
0.0
 34
0.0
 15
0.0
 25
0.0
 35
0.0
146
0.0
 13
0.0
 23
0.0
 33
0.0
 16
1.0
 26
0.0
 36
0.0
 17
0.0
 27
1.0
 37
0.0
 76
0
330
213
345
0
346
0
  0
LAYOUT
  5
463
102
{ACAD_REACTORS
330
1A
102
}
100
AcDbPlotSettings
  1

  2
none_device
  4
ISO_A4_(297.00_x_210.00_MM)
  6

 40
0.0
 41
0.0
 42
0.0
 43
0.0
 44
297.0
 45
210.0
 46
0.0
 47
0.0
 48
0.0
 49
0.0
140
0.0
141
0.0
142
1.0
143
1.0
 70
0
 72
1
 73
0
 74
0
  7

 75
0
147
1.0
148
0.0
149
0.0
100
AcDbLayout
  1
Layout1
 70
0
 71
1
 10
0.0
 20
0.0
 11
297.0
 21
210.0
 12
0.0
 22
0.0
 32
0.0
 14
0.0
 24
0.0
 34
0.0
 15
0.0
 25
0.0
 35
0.0
146
0.0
 13
0.0
 23
0.0
 33
0.0
 16
1.0
 26
0.0
 36
0.0
 17
0.0
 27
1.0
 37
0.0
 76
0
330
214
345
0
346
0
  0
ENDSEC
  0
EOF
