  0
SECTION
  2
HEADER
  9
$ACADVER
  1
AC1024
  9
$DWGCODEPAGE
  3
ANSI_1252
  9
$EXTMAX
 10
297.0
 20
210.0
 30
0.0
  9
$EXTMIN
 10
0.0
 20
0.0
 30
0.0
  9
$LIMMIN
 10
0.0
 20
0.0
  9
$LIMMAX
 10
297.0
 20
210.0
  9
$VIEWCTR
 10
148.5
 20
105.0
  9
$VIEWSIZE
 40
210.0
  9
$CLAYER
  8
0
  9
$LTSCALE
 40
16.335
  9
$CELTYPE
  6
BYLAYER
  9
$DIMSCALE
 40
1.0
  9
$DIMASZ
 40
3.0
  9
$DIMEXO
 40
0.5
  9
$DIMDLI
 40
11.286
  9
$DIMEXE
 40
1.5
  9
$DIMCEN
 40
2.673
  9
$DIMLFAC
 40
1.0
  9
$DIMBLK
  1
_FILLED
  9
$DIMALT
 70
0
  9
$DIMALTF
 40
0.0393700787
  9
$DIMTXT
 40
3.0
  9
$DIMTOL
 70
1
  9
$DIMLIM
 70
0
  9
$DIMTFAC
 40
1.0
  9
$DIMTP
 40
0.01
  9
$DIMTM
 40
0.01
  9
$DIMGAP
 40
0.625
  9
$DIMDSEP
 70
44
  9
$AUNITS
 70
0
  9
$PDMODE
 70
3
  9
$PDSIZE
 40
3.0
  9
$HANDSEED
  5
361
  9
$TILEMODE
 70
1
  9
$MEASUREMENT
 70
1
  9
$INSUNITS
 70
4
  0
ENDSEC
  0
SECTION
  2
CLASSES
  0
CLASS
  1
ACDBDICTIONARYWDFLT
  2
AcDbDictionaryWithDefault
  3
AutoCAD 2000
 90
0
 91
1
280
0
281
0
  0
CLASS
  1
ACDBPLACEHOLDER
  2
AcDbPlaceHolder
  3
AutoCAD 2000
 90
0
 91
1
280
0
281
0
  0
CLASS
  1
LAYOUT
  2
AcDbLayout
  3
AutoCAD 2000
 90
0
 91
0
280
0
281
0
  0
ENDSEC
  0
SECTION
  2
TABLES
  0
TABLE
  2
VPORT
  5
8
100
AcDbSymbolTable
 70
2
  0
VPORT
  5
1F4
100
AcDbSymbolTableRecord
100
AcDbViewportTableRecord
  2
*ACTIVE
 70
0
 10
0.0
 20
0.0
 11
1.0
 21
1.0
 12
148.5
 22
105.0
 13
0.0
 23
0.0
 14
1.0
 24
1.0
 15
0.0
 25
0.0
 16
0.0
 26
0.0
 36
1.0
 17
0.0
 27
0.0
 37
0.0
 40
210.0
 41
1.4142857143
 42
50.0
 43
0.0
 44
0.0
 50
0.0
 51
0.0
 71
0
 72
100
 73
1
 74
1
 75
0
 76
0
 77
0
 78
0
  0
ENDTAB
  0
TABLE
  2
LTYPE
  5
5
100
AcDbSymbolTable
 70
6
  0
LTYPE
  5
14
100
AcDbSymbolTableRecord
100
AcDbLinetypeTableRecord
  2
BYBLOCK
 70
0
  3

 72
65
 73
0
 40
0.0
  0
LTYPE
  5
15
100
AcDbSymbolTableRecord
100
AcDbLinetypeTableRecord
  2
BYLAYER
 70
0
  3

 72
65
 73
0
 40
0.0
  0
LTYPE
  5
16
100
AcDbSymbolTableRecord
100
AcDbLinetypeTableRecord
  2
CONTINUOUS
 70
64
  3
Solid line
 72
65
 73
0
 40
0.0
  0
LTYPE
  5
1F5
100
AcDbSymbolTableRecord
100
AcDbLinetypeTableRecord
  2
CENTER
 70
64
  3
____ _ ____ _ ____ _ ____ _ ____ _ ____ _ ____
 72
65
 73
4
 40
0.6
 49
0.375
 74
0
 49
-0.075
 74
0
 49
0.075
 74
0
 49
-0.075
 74
0
  0
LTYPE
  5
1F6
100
AcDbSymbolTableRecord
100
AcDbLinetypeTableRecord
  2
HIDDEN
 70
64
  3
- - - - - - - - - - - - - - - - - - - -
 72
65
 73
2
 40
0.2
 49
0.1
 74
0
 49
-0.1
 74
0
  0
LTYPE
  5
1F7
100
AcDbSymbolTableRecord
100
AcDbLinetypeTableRecord
  2
PHANTOM
 70
64
  3
_____ _ _ _____ _ _ _____ _ _ _____
 72
65
 73
6
 40
0.8
 49
0.45
 74
0
 49
-0.05
 74
0
 49
0.1
 74
0
 49
-0.05
 74
0
 49
0.1
 74
0
 49
-0.05
 74
0
  0
LTYPE
  5
1F8
100
AcDbSymbolTableRecord
100
AcDbLinetypeTableRecord
  2
DOT
 70
64
  3
. . . . . . . . . . . . . . . . . . . .
 72
65
 73
2
 40
0.2
 49
0.1
 74
0
 49
-0.1
 74
0
  0
LTYPE
  5
1F9
100
AcDbSymbolTableRecord
100
AcDbLinetypeTableRecord
  2
DASHED
 70
64
  3
- - - - - - - - - - - - - - - - - - - -
 72
65
 73
2
 40
0.2
 49
0.1
 74
0
 49
-0.1
 74
0
  0
ENDTAB
  0
TABLE
  2
LAYER
  5
2
100
AcDbSymbolTable
 70
36
  0
LAYER
  5
10
100
AcDbSymbolTableRecord
100
AcDbLayerTableRecord
  2
0
 70
0
 62
7
  6
CONTINUOUS
370
-3
390
F
  0
LAYER
  5
1FA
100
AcDbSymbolTableRecord
100
AcDbLayerTableRecord
  2
DEFAULT_1
 70
0
 62
7
  6
CENTER
370
-3
390
F
  0
LAYER
  5
1FB
100
AcDbSymbolTableRecord
100
AcDbLayerTableRecord
  2
DEFAULT_2
 70
0
 62
7
  6
HIDDEN
370
-3
390
F
  0
LAYER
  5
1FC
100
AcDbSymbolTableRecord
100
AcDbLayerTableRecord
  2
DEFAULT_3
 70
0
 62
7
  6
PHANTOM
370
-3
390
F
  0
LAYER
  5
1FD
100
AcDbSymbolTableRecord
100
AcDbLayerTableRecord
  2
262146410
 70
0
 62
7
  6
CONTINUOUS
370
-3
390
F
  0
LAYER
  5
1FE
100
AcDbSymbolTableRecord
100
AcDbLayerTableRecord
  2
262146420
 70
0
 62
7
  6
CONTINUOUS
370
-3
390
F
  0
LAYER
  5
1FF
100
AcDbSymbolTableRecord
100
AcDbLayerTableRecord
  2
262146520
 70
0
 62
7
  6
CONTINUOUS
370
-3
390
F
  0
LAYER
  5
200
100
AcDbSymbolTableRecord
100
AcDbLayerTableRecord
  2
262146530
 70
0
 62
7
  6
CONTINUOUS
370
-3
390
F
  0
LAYER
  5
201
100
AcDbSymbolTableRecord
100
AcDbLayerTableRecord
  2
262146540
 70
0
 62
7
  6
CONTINUOUS
370
-3
390
F
  0
LAYER
  5
202
100
AcDbSymbolTableRecord
100
AcDbLayerTableRecord
  2
262146570
 70
0
 62
7
  6
CONTINUOUS
370
-3
390
F
  0
LAYER
  5
203
100
AcDbSymbolTableRecord
100
AcDbLayerTableRecord
  2
ASSI
 70
0
 62
7
  6
CONTINUOUS
370
-3
390
F
  0
LAYER
  5
204
100
AcDbSymbolTableRecord
100
AcDbLayerTableRecord
  2
COORDINATE
 70
0
 62
7
  6
CONTINUOUS
370
-3
390
F
  0
LAYER
  5
205
100
AcDbSymbolTableRecord
100
AcDbLayerTableRecord
  2
COORD_ORIGINE
 70
0
 62
7
  6
CONTINUOUS
370
-3
390
F
  0
LAYER
  5
206
100
AcDbSymbolTableRecord
100
AcDbLayerTableRecord
  2
CURVE
 70
0
 62
7
  6
CONTINUOUS
370
-3
390
F
  0
LAYER
  5
207
100
AcDbSymbolTableRecord
100
AcDbLayerTableRecord
  2
DRAFT
 70
0
 62
7
  6
CONTINUOUS
370
-3
390
F
  0
LAYER
  5
208
100
AcDbSymbolTableRecord
100
AcDbLayerTableRecord
  2
IGES
 70
0
 62
7
  6
CONTINUOUS
370
-3
390
F
  0
LAYER
  5
209
100
AcDbSymbolTableRecord
100
AcDbLayerTableRecord
  2
INCISIONI_STAMPO
 70
0
 62
7
  6
CONTINUOUS
370
-3
390
F
  0
LAYER
  5
20A
100
AcDbSymbolTableRecord
100
AcDbLayerTableRecord
  2
INTF_1
 70
0
 62
7
  6
CONTINUOUS
370
-3
390
F
  0
LAYER
  5
20B
100
AcDbSymbolTableRecord
100
AcDbLayerTableRecord
  2
INTF_7
 70
0
 62
7
  6
CONTINUOUS
370
-3
390
F
  0
LAYER
  5
20C
100
AcDbSymbolTableRecord
100
AcDbLayerTableRecord
  2
INTF_GREEN
 70
0
 62
7
  6
CONTINUOUS
370
-3
390
F
  0
LAYER
  5
20D
100
AcDbSymbolTableRecord
100
AcDbLayerTableRecord
  2
INTF_YELLOW
 70
0
 62
7
  6
CONTINUOUS
370
-3
390
F
  0
LAYER
  5
20E
100
AcDbSymbolTableRecord
100
AcDbLayerTableRecord
  2
NOTE
 70
0
 62
7
  6
CONTINUOUS
370
-3
390
F
  0
LAYER
  5
20F
100
AcDbSymbolTableRecord
100
AcDbLayerTableRecord
  2
PELLE_INFERIORE
 70
0
 62
7
  6
CONTINUOUS
370
-3
390
F
  0
LAYER
  5
210
100
AcDbSymbolTableRecord
100
AcDbLayerTableRecord
  2
PIANI
 70
0
 62
7
  6
CONTINUOUS
370
-3
390
F
  0
LAYER
  5
211
100
AcDbSymbolTableRecord
100
AcDbLayerTableRecord
  2
PIANI_ORIGINE
 70
0
 62
7
  6
CONTINUOUS
370
-3
390
F
  0
LAYER
  5
212
100
AcDbSymbolTableRecord
100
AcDbLayerTableRecord
  2
PPP
 70
0
 62
7
  6
CONTINUOUS
370
-3
390
F
  0
LAYER
  5
213
100
AcDbSymbolTableRecord
100
AcDbLayerTableRecord
  2
PUNTI
 70
0
 62
7
  6
CONTINUOUS
370
-3
390
F
  0
LAYER
  5
214
100
AcDbSymbolTableRecord
100
AcDbLayerTableRecord
  2
RACCORDO
 70
0
 62
7
  6
CONTINUOUS
370
-3
390
F
  0
LAYER
  5
215
100
AcDbSymbolTableRecord
100
AcDbLayerTableRecord
  2
RGB__255__255__255__
 70
0
 62
7
  6
CONTINUOUS
370
-3
390
F
  0
LAYER
  5
216
100
AcDbSymbolTableRecord
100
AcDbLayerTableRecord
  2
RGB____0____0____0__
 70
0
 62
7
  6
CONTINUOUS
370
-3
390
F
  0
LAYER
  5
217
100
AcDbSymbolTableRecord
100
AcDbLayerTableRecord
  2
SNAPLINE
 70
0
 62
7
  6
CONTINUOUS
370
-3
390
F
  0
LAYER
  5
218
100
AcDbSymbolTableRecord
100
AcDbLayerTableRecord
  2
SUPERFICI
 70
0
 62
7
  6
CONTINUOUS
370
-3
390
F
  0
LAYER
  5
219
100
AcDbSymbolTableRecord
100
AcDbLayerTableRecord
  2
TRASH
 70
0
 62
7
  6
CONTINUOUS
370
-3
390
F
  0
LAYER
  5
21A
100
AcDbSymbolTableRecord
100
AcDbLayerTableRecord
  2
XSEC_DATUMS
 70
0
 62
7
  6
CONTINUOUS
370
-3
390
F
  0
ENDTAB
  0
TABLE
  2
STYLE
  5
3
100
AcDbSymbolTable
 70
1
  0
STYLE
  5
11
100
AcDbSymbolTableRecord
100
AcDbTextStyleTableRecord
  2
STANDARD
 70
0
 40
0.0
 41
0.8
 50
0.0
 71
0
 42
0.2
  3
txt
  4

  0
STYLE
  5
21B
100
AcDbSymbolTableRecord
100
AcDbTextStyleTableRecord
  2
TEXTSTYLE_1
 70
0
 40
0.0
 41
0.8
 50
0.0
 71
0
 42
0.2
  3
gdt
  4

  0
ENDTAB
  0
TABLE
  2
VIEW
  5
6
100
AcDbSymbolTable
 70
0
  0
ENDTAB
  0
TABLE
  2
UCS
  5
7
100
AcDbSymbolTable
 70
0
  0
ENDTAB
  0
TABLE
  2
APPID
  5
9
100
AcDbSymbolTable
 70
1
  0
APPID
  5
21C
100
AcDbSymbolTableRecord
100
AcDbRegAppTableRecord
  2
ACAD
 70
0
  0
ENDTAB
  0
TABLE
  2
BLOCK_RECORD
  5
1
100
AcDbSymbolTable
 70
0
  0
BLOCK_RECORD
  5
21D
100
AcDbSymbolTableRecord
100
AcDbBlockTableRecord
  2
*Model_Space
  0
BLOCK_RECORD
  5
21E
100
AcDbSymbolTableRecord
100
AcDbBlockTableRecord
  2
*Paper_Space
  0
BLOCK_RECORD
  5
21F
100
AcDbSymbolTableRecord
100
AcDbBlockTableRecord
  2
_FILLED
  0
ENDTAB
  0
TABLE
  2
DIMSTYLE
  5
A
100
AcDbSymbolTable
 70
1
100
AcDbDimStyleTable
 71
0
  0
DIMSTYLE
105
220
100
AcDbSymbolTableRecord
100
AcDbDimStyleTableRecord
  2
STANDARD
 70
0
  3

  4

 40
1.0
 41
3.0
 42
0.5
 43
0.38
 44
1.5
 45
0.0
 46
0.0
 47
0.01
 48
0.01
140
3.0
141
0.09
142
0.0
143
25.4
144
1.0
145
0.0
146
1.0
147
0.625
 71
1
 72
0
 73
0
 74
0
 75
0
 76
0
 77
1
 78
8
 79
2
170
0
171
1
172
0
173
0
174
0
175
0
176
0
177
0
178
0
270
2
179
2
271
2
272
2
273
2
274
2
275
0
280
0
281
0
282
0
283
1
284
8
285
0
286
0
287
3
288
0
340
11
278
44
341
21F
342
21F
343
21F
344
21F
  0
ENDTAB
  0
ENDSEC
  0
SECTION
  2
BLOCKS
  0
BLOCK
  5
20
100
AcDbEntity
  8
0
100
AcDbBlockBegin
  2
*Model_Space
 70
0
 10
0.0
 20
0.0
 30
0.0
  3
*Model_Space
  1

  0
ENDBLK
  5
21
100
AcDbEntity
  8
0
100
AcDbBlockEnd
  0
BLOCK
  5
1C
100
AcDbEntity
  8
0
100
AcDbBlockBegin
  2
*Paper_Space
 70
0
 10
0.0
 20
0.0
 30
0.0
  3
*Paper_Space
  1

  0
ENDBLK
  5
1D
100
AcDbEntity
  8
0
100
AcDbBlockEnd
  0
BLOCK
  5
221
100
AcDbEntity
  8
0
100
AcDbBlockBegin
  2
_FILLED
 70
64
 10
0.0
 20
0.0
  3
_FILLED
  1

  0
SOLID
  5
222
100
AcDbEntity
  8
0
  6
BYBLOCK
 62
0
100
AcDbTrace
 10
0.0
 20
0.0
 11
-1.0
 21
0.1333333333
 12
-1.0
 22
-0.1333333333
 13
-1.0
 23
-0.1333333333
  0
ENDBLK
  5
223
100
AcDbEntity
  8
0
  6
BYBLOCK
 62
0
100
AcDbBlockEnd
  0
ENDSEC
  0
SECTION
  2
ENTITIES
  0
LINE
  5
224
100
AcDbEntity
  8
RACCORDO
100
AcDbLine
 62
7
  6
CONTINUOUS
 10
-36.7557117027
 20
38.9149078738
 11
-35.0766389081
 21
41.8774354117
  0
LWPOLYLINE
  5
225
100
AcDbEntity
  8
RACCORDO
100
AcDbPolyline
 62
250
  6
CONTINUOUS
 90
17
 70
0
 10
-36.7550469532
 20
38.9160794335
 10
-36.7186909842
 20
38.9764872495
 10
-36.6302609621
 20
39.099880051
 10
-36.5288457484
 20
39.212870373
 10
-36.4148777027
 20
39.3150087474
 10
-36.2889581261
 20
39.4057425453
 10
-36.1517772505
 20
39.4845572687
 10
-36.0039096231
 20
39.5510660883
 10
-35.8459141974
 20
39.6049012855
 10
-35.6788246998
 20
39.6456059057
 10
-35.5040620364
 20
39.6728176914
 10
-35.3229018142
 20
39.6863981003
 10
-35.1361642306
 20
39.6863379198
 10
-34.9446936838
 20
39.6726343282
 10
-34.7494967725
 20
39.6453153477
 10
-34.551759914
 20
39.6044891533
 10
-34.3526094742
 20
39.5503313171
  0
LWPOLYLINE
  5
226
100
AcDbEntity
  8
RACCORDO
100
AcDbPolyline
 62
250
  6
CONTINUOUS
 90
13
 70
0
 10
-34.3526094742
 20
39.5503313171
 10
-34.4062429621
 20
39.4764222377
 10
-34.4584786442
 20
39.3944463576
 10
-34.5086671376
 20
39.3054227949
 10
-34.5561845096
 20
39.2104582837
 10
-34.6004400347
 20
39.1107334156
 10
-34.640883538
 20
39.007487962
 10
-34.6770122354
 20
38.9020054623
 10
-34.7083769842
 20
38.7955972665
 10
-34.7345878666
 20
38.6895862327
 10
-34.7553190369
 20
38.5852902816
 10
-34.7703127728
 20
38.4840060121
 10
-34.7793826793
 20
38.3869925822
  0
LWPOLYLINE
  5
227
100
AcDbEntity
  8
RACCORDO
100
AcDbPolyline
 62
7
  6
CONTINUOUS
 90
8
 70
0
 10
-36.7550702178
 20
38.9160410055
 10
-36.7998258556
 20
38.832607978
 10
-36.8778453212
 20
38.658342614
 10
-36.9402443967
 20
38.4741826465
 10
-36.9860668661
 20
38.2816252869
 10
-37.0147172736
 20
38.0819273486
 10
-37.0258950848
 20
37.876289029
 10
-37.0259444007
 20
37.8254087869
  0
LINE
  5
228
100
AcDbEntity
  8
RACCORDO
100
AcDbLine
 62
250
  6
CONTINUOUS
 10
-34.3526094742
 20
39.5503313171
 11
-32.6738420012
 21
42.5123201508
  0
LINE
  5
229
100
AcDbEntity
  8
RACCORDO
100
AcDbLine
 62
250
  6
CONTINUOUS
 10
-35.2029680297
 20
-19.3105855031
 11
-35.2111085908
 21
-19.2134355344
  0
LWPOLYLINE
  5
22A
100
AcDbEntity
  8
RACCORDO
100
AcDbPolyline
 62
250
  6
CONTINUOUS
 90
8
 70
0
 10
-35.2111085908
 20
-19.2134355344
 10
-35.2136104364
 20
-19.1823325169
 10
-35.2159393252
 20
-19.1515358393
 10
-35.2180911247
 20
-19.1212272073
 10
-35.2199066871
 20
-19.0909513648
 10
-35.2212194386
 20
-19.0606970812
 10
-35.2222110942
 20
-19.0303843274
 10
-35.3270800875
 20
-16.1658644925
  0
LINE
  5
22B
100
AcDbEntity
  8
RACCORDO
100
AcDbLine
 62
250
  6
CONTINUOUS
 10
-35.1878790553
 20
-19.5003363098
 11
-35.2029680297
 21
-19.3105855031
  0
LWPOLYLINE
  5
22C
100
AcDbEntity
  8
RACCORDO
100
AcDbPolyline
 62
250
  6
CONTINUOUS
 90
10
 70
0
 10
-35.6124731314
 20
-18.9941011218
 10
-35.6108387827
 20
-19.0173167365
 10
-35.5975041081
 20
-19.0894939624
 10
-35.5718725086
 20
-19.1599591163
 10
-35.534264246
 20
-19.2278317502
 10
-35.485149228
 20
-19.2922638093
 10
-35.4251411368
 20
-19.3524502281
 10
-35.3549897617
 20
-19.4076389892
 10
-35.27557163
 20
-19.4571405203
 10
-35.1878790553
 20
-19.5003363098
  0
LWPOLYLINE
  5
22D
100
AcDbEntity
  8
RACCORDO
100
AcDbPolyline
 62
7
  6
CONTINUOUS
 90
22
 70
0
 10
-35.6124960717
 20
-18.9930625744
 10
-35.6103481836
 20
-19.0360650599
 10
-35.5916426471
 20
-19.2260968461
 10
-35.5579269025
 20
-19.4175253437
 10
-35.5092056496
 20
-19.6098170241
 10
-35.4457013177
 20
-19.8018859707
 10
-35.368056875
 20
-19.9920455348
 10
-35.2766268595
 20
-20.1796072991
 10
-35.1717645285
 20
-20.3639639173
 10
-35.0544751576
 20
-20.5435430034
 10
-34.9253313188
 20
-20.7175853638
 10
-34.784852269
 20
-20.8855051521
 10
-34.63425592
 20
-21.04599119
 10
-34.4742146757
 20
-21.1983899782
 10
-34.3054652821
 20
-21.3420937309
 10
-34.1295202743
 20
-21.4759285643
 10
-33.9472334226
 20
-21.5993131104
 10
-33.7593484868
 20
-21.7118357859
 10
-33.5672824559
 20
-21.8127100168
 10
-33.3720542415
 20
-21.9014548456
 10
-33.1744438435
 20
-21.9778420922
 10
-33.1222989543
 20
-21.9958012163
  0
LINE
  5
22E
100
AcDbEntity
  8
RACCORDO
100
AcDbLine
 62
7
  6
CONTINUOUS
 10
-35.6125165051
 20
-18.9930633921
 11
-35.6124731314
 21
-18.9941011218
  0
LINE
  5
22F
100
AcDbEntity
  8
RACCORDO
100
AcDbLine
 62
7
  6
CONTINUOUS
 10
-35.679732111
 20
-16.7529574501
 11
-35.6124731314
 21
-18.9941011218
  0
LINE
  5
230
100
AcDbEntity
  8
RACCORDO
100
AcDbLine
 62
7
  6
CONTINUOUS
 10
-35.8494347676
 20
-10.498986842
 11
-35.679732111
 21
-16.7529574501
  0
LINE
  5
231
100
AcDbEntity
  8
RACCORDO
100
AcDbLine
 62
7
  6
CONTINUOUS
 10
-36.2339319072
 20
4.906734632
 11
-35.8494347676
 21
-10.498986842
  0
LINE
  5
232
100
AcDbEntity
  8
RACCORDO
100
AcDbLine
 62
7
  6
CONTINUOUS
 10
-36.9643238114
 20
34.7750026244
 11
-36.2339319072
 21
4.906734632
  0
LINE
  5
233
100
AcDbEntity
  8
RACCORDO
100
AcDbLine
 62
7
  6
CONTINUOUS
 10
-37.0259681989
 20
37.8254874114
 11
-36.9643238114
 21
34.7750026244
  0
LINE
  5
234
100
AcDbEntity
  8
RACCORDO
100
AcDbLine
 62
250
  6
CONTINUOUS
 10
-36.5605424311
 20
33.075595809
 11
-36.5950511499
 21
35.4425022315
  0
LINE
  5
235
100
AcDbEntity
  8
RACCORDO
100
AcDbLine
 62
250
  6
CONTINUOUS
 10
-36.5950511499
 20
35.4425022315
 11
-36.6122353723
 21
36.8362826797
  0
LINE
  5
236
100
AcDbEntity
  8
RACCORDO
100
AcDbLine
 62
7
  6
CONTINUOUS
 10
-37.0259450366
 20
37.8254876076
 11
-37.0259444007
 21
37.8254087869
  0
LWPOLYLINE
  5
237
100
AcDbEntity
  8
RACCORDO
100
AcDbPolyline
 62
250
  6
CONTINUOUS
 90
7
 70
0
 10
-36.6132690563
 20
36.8980099771
 10
-36.6134563172
 20
36.9282148258
 10
-36.6131234849
 20
36.9580514178
 10
-36.6124466755
 20
36.9877683423
 10
-36.6116201571
 20
37.0179842044
 10
-36.6106428741
 20
37.0485314164
 10
-36.6083575769
 20
37.1112164761
  0
LINE
  5
238
100
AcDbEntity
  8
RACCORDO
100
AcDbLine
 62
250
  6
CONTINUOUS
 10
-36.6083575769
 20
37.1112164761
 11
-36.6017009373
 21
37.3330739491
  0
LWPOLYLINE
  5
239
100
AcDbEntity
  8
RACCORDO
100
AcDbPolyline
 62
250
  6
CONTINUOUS
 90
22
 70
0
 10
-36.6016981891
 20
37.3330763433
 10
-36.5934338284
 20
37.4527814788
 10
-36.5756122867
 20
37.5683782428
 10
-36.5482537043
 20
37.679193179
 10
-36.5114488421
 20
37.7846743313
 10
-36.4653848973
 20
37.8842889017
 10
-36.410299118
 20
37.97746165
 10
-36.3465190206
 20
38.0636764785
 10
-36.2743706891
 20
38.1426124967
 10
-36.1940933382
 20
38.2139831038
 10
-36.1060526849
 20
38.2773950519
 10
-36.010724732
 20
38.3325378169
 10
-35.908448681
 20
38.3791801505
 10
-35.7995543468
 20
38.4170575537
 10
-35.6847561761
 20
38.4458892202
 10
-35.564992339
 20
38.4654545872
 10
-35.4410845439
 20
38.4756491199
 10
-35.3135505154
 20
38.4764961587
 10
-35.1828998241
 20
38.4680174838
 10
-35.0497500599
 20
38.4502110063
 10
-34.9149463176
 20
38.4231565616
 10
-34.7793798671
 20
38.386995133
  0
LWPOLYLINE
  5
23A
100
AcDbEntity
  8
RACCORDO
100
AcDbPolyline
 62
250
  6
CONTINUOUS
 90
10
 70
0
 10
-37.0259444007
 20
37.8254087869
 10
-37.023997587
 20
37.7903458442
 10
-37.0107802666
 20
37.7228264236
 10
-36.9852585403
 20
37.6567037611
 10
-36.9477512883
 20
37.5928040232
 10
-36.8987271437
 20
37.5319256021
 10
-36.8387986367
 20
37.4748291399
 10
-36.768714542
 20
37.422228025
 10
-36.6893505225
 20
37.3747794786
 10
-36.6016981891
 20
37.3330763433
  0
LWPOLYLINE
  5
23B
100
AcDbEntity
  8
RACCORDO
100
AcDbPolyline
 62
250
  6
CONTINUOUS
 90
10
 70
0
 10
-36.3450912043
 20
9.3753899712
 10
-36.344634747
 20
9.3638598349
 10
-36.3356108044
 20
9.2982503188
 10
-36.3157591687
 20
9.2337557891
 10
-36.2852969123
 20
9.1710814761
 10
-36.2445571317
 20
9.1109127065
 10
-36.1939853054
 20
9.0539074094
 10
-36.1341344226
 20
9.0006889225
 10
-36.0656589366
 20
8.9518391754
 10
-35.9893076082
 20
8.907892327
  0
LINE
  5
23C
100
AcDbEntity
  8
RACCORDO
100
AcDbLine
 62
250
  6
CONTINUOUS
 10
-35.3270800875
 20
-16.1658644925
 11
-35.3956562561
 21
-14.1095694199
  0
LINE
  5
23D
100
AcDbEntity
  8
RACCORDO
100
AcDbLine
 62
250
  6
CONTINUOUS
 10
-35.3956562561
 20
-14.1095694199
 11
-35.4623187122
 21
-11.9069524334
  0
LINE
  5
23E
100
AcDbEntity
  8
RACCORDO
100
AcDbLine
 62
250
  6
CONTINUOUS
 10
-35.4623187122
 20
-11.9069524334
 11
-35.5604435099
 21
-8.3156564344
  0
LINE
  5
23F
100
AcDbEntity
  8
RACCORDO
100
AcDbLine
 62
250
  6
CONTINUOUS
 10
-35.5604435099
 20
-8.3156564344
 11
-35.6916727637
 21
-3.1820336801
  0
LINE
  5
240
100
AcDbEntity
  8
RACCORDO
100
AcDbLine
 62
250
  6
CONTINUOUS
 10
-35.6916727637
 20
-3.1820336801
 11
-36.3445663889
 21
23.0849686218
  0
LINE
  5
241
100
AcDbEntity
  8
RACCORDO
100
AcDbLine
 62
250
  6
CONTINUOUS
 10
-36.3445663889
 20
23.0849686218
 11
-36.5222282533
 21
30.9276850494
  0
LINE
  5
242
100
AcDbEntity
  8
RACCORDO
100
AcDbLine
 62
250
  6
CONTINUOUS
 10
-36.6122353723
 20
36.8362826797
 11
-36.6132690563
 21
36.8980099771
  0
LINE
  5
243
100
AcDbEntity
  8
RACCORDO
100
AcDbLine
 62
250
  6
CONTINUOUS
 10
-36.5222282533
 20
30.9276850494
 11
-36.5605424311
 21
33.075595809
  0
LINE
  5
244
100
AcDbEntity
  8
RACCORDO
100
AcDbLine
 62
250
  6
CONTINUOUS
 10
31.7669161171
 20
-41.7030105257
 11
31.6889859692
 21
-41.6839537453
  0
LINE
  5
245
100
AcDbEntity
  8
RACCORDO
100
AcDbLine
 62
250
  6
CONTINUOUS
 10
31.6889859692
 20
-41.6839537453
 11
31.6497411133
 21
-41.6741636526
  0
LINE
  5
246
100
AcDbEntity
  8
RACCORDO
100
AcDbLine
 62
250
  6
CONTINUOUS
 10
32.0144748387
 20
-41.7648445872
 11
31.7669161171
 21
-41.7030105257
  0
LWPOLYLINE
  5
247
100
AcDbEntity
  8
RACCORDO
100
AcDbPolyline
 62
250
  6
CONTINUOUS
 90
4
 70
0
 10
31.6497411133
 20
-41.6741636526
 10
31.5705017358
 20
-41.6537482931
 10
31.5297900479
 20
-41.6428411089
 10
31.488003094
 20
-41.6312171533
  0
LWPOLYLINE
  5
248
100
AcDbEntity
  8
RACCORDO
100
AcDbPolyline
 62
7
  6
CONTINUOUS
 90
14
 70
0
 10
32.1577114898
 20
-42.042677362
 10
32.2489878479
 20
-42.0668946157
 10
32.478333162
 20
-42.1161884041
 10
32.7069946643
 20
-42.1485321499
 10
32.9350566943
 20
-42.1633935945
 10
33.1602723954
 20
-42.1601417068
 10
33.3779632451
 20
-42.1387998727
 10
33.5859326243
 20
-42.100170541
 10
33.7844190501
 20
-42.0448558541
 10
33.9723495432
 20
-41.9735859741
 10
34.1483220417
 20
-41.8874848929
 10
34.3118597776
 20
-41.7875335897
 10
34.4629570276
 20
-41.6742561335
 10
34.5201987747
 20
-41.6250019585
  0
LINE
  5
249
100
AcDbEntity
  8
RACCORDO
100
AcDbLine
 62
7
  6
CONTINUOUS
 10
32.1580746107
 20
-42.0427967468
 11
32.1577067669
 21
-42.0426942483
  0
LINE
  5
24A
100
AcDbEntity
  8
RACCORDO
100
AcDbLine
 62
250
  6
CONTINUOUS
 10
31.488003094
 20
-41.6312171533
 11
25.5212955421
 21
-39.9368145713
  0
LINE
  5
24B
100
AcDbEntity
  8
RACCORDO
100
AcDbLine
 62
250
  6
CONTINUOUS
 10
25.5212955421
 20
-39.9368145713
 11
23.9014807137
 21
-39.4716288523
  0
LINE
  5
24C
100
AcDbEntity
  8
RACCORDO
100
AcDbLine
 62
250
  6
CONTINUOUS
 10
23.9014807137
 20
-39.4716288523
 11
22.8555880991
 21
-39.165876981
  0
LINE
  5
24D
100
AcDbEntity
  8
RACCORDO
100
AcDbLine
 62
250
  6
CONTINUOUS
 10
22.8555880991
 20
-39.165876981
 11
22.0060683713
 21
-38.9130895512
  0
LWPOLYLINE
  5
24E
100
AcDbEntity
  8
RACCORDO
100
AcDbPolyline
 62
250
  6
CONTINUOUS
 90
3
 70
0
 10
22.0060683713
 20
-38.9130895512
 10
21.5250260988
 20
-38.7674263292
 10
20.0677826384
 20
-38.3301403601
  0
LINE
  5
24F
100
AcDbEntity
  8
RACCORDO
100
AcDbLine
 62
7
  6
CONTINUOUS
 10
-20.5023684815
 20
-25.9912982973
 11
-14.2697004825
 21
-27.8848075665
  0
LINE
  5
250
100
AcDbEntity
  8
RACCORDO
100
AcDbLine
 62
250
  6
CONTINUOUS
 10
-11.9977776219
 20
-28.4505089309
 11
-20.6116602878
 21
-25.8383113295
  0
LWPOLYLINE
  5
251
100
AcDbEntity
  8
RACCORDO
100
AcDbPolyline
 62
7
  6
CONTINUOUS
 90
5
 70
0
 10
19.419897524
 20
-38.2512176503
 10
20.9310433758
 20
-38.7145368924
 10
22.4224693233
 20
-39.1670549196
 10
23.8972300617
 20
-39.6102627505
 10
32.1580746107
 20
-42.0427967468
  0
LINE
  5
252
100
AcDbEntity
  8
RACCORDO
100
AcDbLine
 62
7
  6
CONTINUOUS
 10
-14.2697004825
 20
-27.8848075665
 11
-11.0382992309
 21
-28.8746672845
  0
LINE
  5
253
100
AcDbEntity
  8
RACCORDO
100
AcDbLine
 62
250
  6
CONTINUOUS
 10
1.2257451193
 20
-32.5262897373
 11
-2.61626275
 21
-31.3464237657
  0
LINE
  5
254
100
AcDbEntity
  8
RACCORDO
100
AcDbLine
 62
250
  6
CONTINUOUS
 10
20.0677826384
 20
-38.3301403601
 11
19.4046370963
 21
-38.1273428451
  0
LWPOLYLINE
  5
255
100
AcDbEntity
  8
RACCORDO
100
AcDbPolyline
 62
7
  6
CONTINUOUS
 90
3
 70
0
 10
-11.0382992309
 20
-28.8746672845
 10
-6.0415190869
 20
-30.413767576
 10
11.5978835371
 20
-35.8264923612
  0
LINE
  5
256
100
AcDbEntity
  8
RACCORDO
100
AcDbLine
 62
250
  6
CONTINUOUS
 10
-20.6116602878
 20
-25.8383113295
 11
-21.2963773717
 21
-25.6282110464
  0
LINE
  5
257
100
AcDbEntity
  8
RACCORDO
100
AcDbLine
 62
250
  6
CONTINUOUS
 10
12.3494614559
 20
-35.9294942187
 11
1.2257451193
 21
-32.5262897373
  0
LINE
  5
258
100
AcDbEntity
  8
RACCORDO
100
AcDbLine
 62
7
  6
CONTINUOUS
 10
11.5978835371
 20
-35.8264923612
 11
14.7890381704
 21
-36.8124359999
  0
LWPOLYLINE
  5
259
100
AcDbEntity
  8
RACCORDO
100
AcDbPolyline
 62
250
  6
CONTINUOUS
 90
3
 70
0
 10
-2.61626275
 20
-31.3464237657
 10
-5.9926248062
 20
-30.3030586712
 10
-11.9977776219
 20
-28.4505089309
  0
LINE
  5
25A
100
AcDbEntity
  8
RACCORDO
100
AcDbLine
 62
7
  6
CONTINUOUS
 10
14.7890381704
 20
-36.8124359999
 11
19.419897524
 21
-38.2512176503
  0
LWPOLYLINE
  5
25B
100
AcDbEntity
  8
RACCORDO
100
AcDbPolyline
 62
250
  6
CONTINUOUS
 90
3
 70
0
 10
19.4046370963
 20
-38.1273428451
 10
16.7048664586
 20
-37.2855613391
 10
12.3494614559
 20
-35.9294942187
  0
LWPOLYLINE
  5
25C
100
AcDbEntity
  8
RACCORDO
100
AcDbPolyline
 62
7
  6
CONTINUOUS
 90
4
 70
0
 10
-24.9505446565
 20
-24.6101177137
 10
-23.4915725987
 20
-25.0674969668
 10
-22.0103179591
 20
-25.527873377
 10
-20.5023684815
 20
-25.9912982973
  0
LWPOLYLINE
  5
25D
100
AcDbEntity
  8
RACCORDO
100
AcDbPolyline
 62
250
  6
CONTINUOUS
 90
8
 70
0
 10
32.1577067669
 20
-42.0426942483
 10
32.151070265
 20
-42.0406080706
 10
32.11758841
 20
-42.0223573108
 10
32.087955696
 20
-41.9923874511
 10
32.0625405199
 20
-41.9510710755
 10
32.0416588464
 20
-41.8989218268
 10
32.0255702803
 20
-41.8365880209
 10
32.0144748387
 20
-41.7648445872
  0
LINE
  5
25E
100
AcDbEntity
  8
RACCORDO
100
AcDbLine
 62
250
  6
CONTINUOUS
 10
-22.4562079682
 20
-25.2642102562
 11
-23.5989329703
 21
-24.9067235058
  0
LINE
  5
25F
100
AcDbEntity
  8
RACCORDO
100
AcDbLine
 62
250
  6
CONTINUOUS
 10
-21.2963773717
 20
-25.6282110464
 11
-22.4562079682
 21
-25.2642102562
  0
LINE
  5
260
100
AcDbEntity
  8
RACCORDO
100
AcDbLine
 62
250
  6
CONTINUOUS
 10
-23.5989329703
 20
-24.9067235058
 11
-24.4856962692
 21
-24.6246777386
  0
LINE
  5
261
100
AcDbEntity
  8
RACCORDO
100
AcDbLine
 62
7
  6
CONTINUOUS
 10
-33.1226137445
 20
-21.9957159329
 11
-24.9505446565
 21
-24.6101177137
  0
LWPOLYLINE
  5
262
100
AcDbEntity
  8
RACCORDO
100
AcDbPolyline
 62
250
  6
CONTINUOUS
 90
7
 70
0
 10
-1.0023621253
 20
-31.9652914561
 10
-1.0063895823
 20
-31.9639834512
 10
-1.0377944312
 20
-31.9484050138
 10
-1.0662017068
 20
-31.9242612599
 10
-1.0913523527
 20
-31.8917723786
 10
-1.1130165697
 20
-31.8512348052
 10
-1.1309966225
 20
-31.8030182995
  0
LWPOLYLINE
  5
263
100
AcDbEntity
  8
RACCORDO
100
AcDbPolyline
 62
250
  6
CONTINUOUS
 90
7
 70
0
 10
-0.1115897098
 20
-32.2388390245
 10
-0.1155723205
 20
-32.2375448019
 10
-0.1470132186
 20
-32.2219552923
 10
-0.1754533477
 20
-32.1978014482
 10
-0.2006334138
 20
-32.1653035319
 10
-0.2223238555
 20
-32.1247579061
 10
-0.2403269378
 20
-32.0765343305
  0
LINE
  5
264
100
AcDbEntity
  8
RACCORDO
100
AcDbLine
 62
250
  6
CONTINUOUS
 10
-24.4856962692
 20
-24.6246777386
 11
-25.5613490059
 21
-24.27702608
  0
LINE
  5
265
100
AcDbEntity
  8
RACCORDO
100
AcDbLine
 62
250
  6
CONTINUOUS
 10
-25.5613490059
 20
-24.27702608
 11
-27.4358906284
 21
-23.6615847406
  0
LINE
  5
266
100
AcDbEntity
  8
RACCORDO
100
AcDbLine
 62
250
  6
CONTINUOUS
 10
-27.4358906284
 20
-23.6615847406
 11
-32.7660410874
 21
-21.8994468055
  0
LINE
  5
267
100
AcDbEntity
  8
RACCORDO
100
AcDbLine
 62
7
  6
CONTINUOUS
 10
-33.1222989543
 20
-21.9958012163
 11
-33.1226075701
 21
-21.9956975493
  0
LWPOLYLINE
  5
268
100
AcDbEntity
  8
RACCORDO
100
AcDbPolyline
 62
250
  6
CONTINUOUS
 90
3
 70
0
 10
-32.7660410874
 20
-21.8994468055
 10
-32.8074498853
 20
-21.8855242917
 10
-32.84786523
 20
-21.8715220448
  0
LWPOLYLINE
  5
269
100
AcDbEntity
  8
RACCORDO
100
AcDbPolyline
 62
250
  6
CONTINUOUS
 90
5
 70
0
 10
-32.84786523
 20
-21.8715220448
 10
-32.926611892
 20
-21.8434286651
 10
-32.965536296
 20
-21.8292119672
 10
-33.0039373341
 20
-21.8149620961
 10
-33.2843189892
 20
-21.7122177195
  0
LWPOLYLINE
  5
26A
100
AcDbEntity
  8
RACCORDO
100
AcDbPolyline
 62
250
  6
CONTINUOUS
 90
22
 70
0
 10
-33.2843157655
 20
-21.7122132568
 10
-33.4203184903
 20
-21.6582885439
 10
-33.5559804113
 20
-21.5964940294
 10
-33.690405207
 20
-21.5271243939
 10
-33.8227517699
 20
-21.4505352097
 10
-33.9523915671
 20
-21.3670492079
 10
-34.0787996095
 20
-21.2769033159
 10
-34.201448772
 20
-21.1803554271
 10
-34.3195037813
 20
-21.0779964312
 10
-34.4320042224
 20
-20.9706047208
 10
-34.538216648
 20
-20.8588835198
 10
-34.6377906852
 20
-20.7432988289
 10
-34.7303636922
 20
-20.6242950884
 10
-34.8154333425
 20
-20.5024909765
 10
-34.8926183458
 20
-20.3785190804
 10
-34.9616694373
 20
-20.2528185135
 10
-35.0222403628
 20
-20.1259287685
 10
-35.0739663737
 20
-19.9986253977
 10
-35.1165666567
 20
-19.8716996939
 10
-35.1498198662
 20
-19.7458627333
 10
-35.173609589
 20
-19.6218081351
 10
-35.1878767065
 20
-19.5003340699
  0
LWPOLYLINE
  5
26B
100
AcDbEntity
  8
RACCORDO
100
AcDbPolyline
 62
250
  6
CONTINUOUS
 90
7
 70
0
 10
-33.1226075701
 20
-21.9956975493
 10
-33.162584534
 20
-21.9754300413
 10
-33.1973812292
 20
-21.9438764112
 10
-33.2272914617
 20
-21.9011820362
 10
-33.251943404
 20
-21.8478776723
 10
-33.2710305983
 20
-21.7846259742
 10
-33.2843157655
 20
-21.7122132568
  0
LINE
  5
26C
100
AcDbEntity
  8
0
100
AcDbLine
 62
250
  6
CONTINUOUS
 10
-13.1650730245
 20
17.2414262535
 11
-13.1974329184
 21
17.2055795742
  0
LINE
  5
26D
100
AcDbEntity
  8
RACCORDO
100
AcDbLine
 62
250
  6
CONTINUOUS
 10
-13.1974329184
 20
17.2055795742
 11
-13.2531019271
 21
17.1505223308
  0
LWPOLYLINE
  5
26E
100
AcDbEntity
  8
RACCORDO
100
AcDbPolyline
 62
250
  6
CONTINUOUS
 90
21
 70
0
 10
-13.2531019271
 20
17.1505223308
 10
-13.3172570289
 20
17.0992155898
 10
-13.3892260984
 20
17.0521968699
 10
-13.4682551465
 20
17.0099587662
 10
-13.5535162197
 20
16.9729437891
 10
-13.6441160745
 20
16.9415397286
 10
-13.739105535
 20
16.9160755916
 10
-13.8374894374
 20
16.8968181549
 10
-13.9382370559
 20
16.8839691704
 10
-14.0402929008
 20
16.8776632514
 10
-14.1425877769
 20
16.8779664624
 10
-14.2440499847
 20
16.8848756266
 10
-14.3436165482
 20
16.8983183598
 10
-14.4402443513
 20
16.9181538282
 10
-14.5329210659
 20
16.9441742241
 10
-14.6206757626
 20
16.9761069449
 10
-14.7025890677
 20
17.013617444
 10
-14.7778027988
 20
17.0563127323
 10
-14.8455289741
 20
17.1037455047
 10
-14.9050580643
 20
17.1554188286
 10
-14.9557664133
 20
17.2107913434
  0
LWPOLYLINE
  5
26F
100
AcDbEntity
  8
RACCORDO
100
AcDbPolyline
 62
250
  6
CONTINUOUS
 90
3
 70
0
 10
9.4430391741
 20
-26.408019993
 10
9.3836263296
 20
-26.4229973803
 10
9.3235230941
 20
-26.4366327063
  0
LWPOLYLINE
  5
270
100
AcDbEntity
  8
RACCORDO
100
AcDbPolyline
 62
250
  6
CONTINUOUS
 90
7
 70
0
 10
9.3235230941
 20
-26.4366327063
 10
9.2042207708
 20
-26.4628314837
 10
9.1475365805
 20
-26.4736008118
 10
9.0911441406
 20
-26.4807820899
 10
9.0324419366
 20
-26.4866967723
 10
8.9704458551
 20
-26.4920481038
 10
8.9060737564
 20
-26.4957867834
  0
LWPOLYLINE
  5
271
100
AcDbEntity
  8
RACCORDO
100
AcDbPolyline
 62
250
  6
CONTINUOUS
 90
10
 70
0
 10
9.0801140921
 20
-24.4868405934
 10
9.2760389602
 20
-24.465737077
 10
9.473191969
 20
-24.4528093776
 10
9.670717411
 20
-24.4481135997
 10
9.867757962
 20
-24.4516701193
 10
10.0634584026
 20
-24.4634634949
 10
10.25696933
 20
-24.4834425348
 10
10.4474508444
 20
-24.511520519
 10
10.6340761947
 20
-24.5475755762
 10
10.8160353668
 20
-24.591451212
  0
LWPOLYLINE
  5
272
100
AcDbEntity
  8
RACCORDO
100
AcDbPolyline
 62
250
  6
CONTINUOUS
 90
10
 70
0
 10
8.9060737564
 20
-26.4957867834
 10
8.8394640378
 20
-26.498099925
 10
8.769610612
 20
-26.4989280317
 10
8.6975010609
 20
-26.4979195842
 10
8.6263570846
 20
-26.4951389252
 10
8.5574078963
 20
-26.4907739782
 10
8.489621946
 20
-26.4848749972
 10
8.4229025281
 20
-26.4776467936
 10
8.3576916703
 20
-26.4694587972
 10
8.293692773
 20
-26.4603489452
  0
LWPOLYLINE
  5
273
100
AcDbEntity
  8
0
100
AcDbPolyline
 62
250
  6
CONTINUOUS
 90
7
 70
0
 10
7.7271464918
 20
-23.8195201963
 10
7.7693423098
 20
-23.8251960201
 10
7.8099570674
 20
-23.8256701028
 10
7.8482958347
 20
-23.8209343326
 10
7.8837026249
 20
-23.81106974
 10
7.915571618
 20
-23.7962451107
 10
7.9183922459
 20
-23.7942624612
  0
LWPOLYLINE
  5
274
100
AcDbEntity
  8
RACCORDO
100
AcDbPolyline
 62
250
  6
CONTINUOUS
 90
10
 70
0
 10
8.293692773
 20
-26.4603489452
 10
8.1652545629
 20
-26.4395631663
 10
8.100869383
 20
-26.4294170115
 10
8.0365910855
 20
-26.4183916221
 10
7.9722613031
 20
-26.4057546044
 10
7.9080786586
 20
-26.3919912516
 10
7.844655225
 20
-26.377448717
 10
7.7822053433
 20
-26.3622498602
 10
7.7205486863
 20
-26.3462841695
 10
7.6597010093
 20
-26.3295441073
  0
LINE
  5
275
100
AcDbEntity
  8
0
100
AcDbLine
 62
250
  6
CONTINUOUS
 10
7.6840915956
 20
-23.8087397461
 11
7.7271464918
 21
-23.8195201963
  0
LINE
  5
276
100
AcDbEntity
  8
RACCORDO
100
AcDbLine
 62
250
  6
CONTINUOUS
 10
7.6597010093
 20
-26.3295441073
 11
6.7243400111
 21
-26.0652182975
  0
LINE
  5
277
100
AcDbEntity
  8
RACCORDO
100
AcDbLine
 62
250
  6
CONTINUOUS
 10
6.7243400111
 20
-26.0652182975
 11
5.7619727195
 21
-25.7809210823
  0
LINE
  5
278
100
AcDbEntity
  8
RACCORDO
100
AcDbLine
 62
250
  6
CONTINUOUS
 10
-5.9735829386
 20
-22.1871885547
 11
-7.0465588282
 21
-21.8581911257
  0
LINE
  5
279
100
AcDbEntity
  8
RACCORDO
100
AcDbLine
 62
250
  6
CONTINUOUS
 10
-0.5760106562
 20
-23.8377961987
 11
-2.6046345257
 21
-23.217258319
  0
LWPOLYLINE
  5
27A
100
AcDbEntity
  8
RACCORDO
100
AcDbPolyline
 62
250
  6
CONTINUOUS
 90
3
 70
0
 10
5.7619727195
 20
-25.7809210823
 10
1.6399158277
 20
-24.5252173044
 10
-0.5760106562
 20
-23.8377961987
  0
LINE
  5
27B
100
AcDbEntity
  8
RACCORDO
100
AcDbLine
 62
250
  6
CONTINUOUS
 10
7.3768723699
 20
-25.4753269853
 11
-12.306925395
 21
-19.4306233875
  0
LWPOLYLINE
  5
27C
100
AcDbEntity
  8
RACCORDO
100
AcDbPolyline
 62
250
  6
CONTINUOUS
 90
3
 70
0
 10
-2.6059488646
 20
-23.2168565425
 10
-3.7509389154
 20
-22.8628156975
 10
-5.9735829386
 20
-22.1871885547
  0
LWPOLYLINE
  5
27D
100
AcDbEntity
  8
RACCORDO
100
AcDbPolyline
 62
250
  6
CONTINUOUS
 90
4
 70
0
 10
-7.0465588282
 20
-21.8581911257
 10
-10.0943230688
 20
-20.9115827437
 10
-11.054284795
 20
-20.6055533421
 10
-11.9867516281
 20
-20.2963088363
  0
LWPOLYLINE
  5
27E
100
AcDbEntity
  8
RACCORDO
100
AcDbPolyline
 62
250
  6
CONTINUOUS
 90
58
 70
0
 10
-12.306925395
 20
-19.4306233875
 10
-12.3410888521
 20
-19.41988505
 10
-12.3755127602
 20
-19.4084730021
 10
-12.4101815038
 20
-19.3963802466
 10
-12.4451471648
 20
-19.3835750396
 10
-12.4803245628
 20
-19.3700740281
 10
-12.5154917931
 20
-19.3559540273
 10
-12.5503325374
 20
-19.3413456941
 10
-12.5851301356
 20
-19.3261393002
 10
-12.6205587465
 20
-19.3100270092
 10
-12.6568138733
 20
-19.2928745559
 10
-12.693651219
 20
-19.2747514484
 10
-12.7310800902
 20
-19.2556178155
 10
-12.7690375926
 20
-19.235464125
 10
-12.8075304122
 20
-19.2142400199
 10
-12.8466681593
 20
-19.1918344069
 10
-12.8870859617
 20
-19.1678041771
 10
-12.9280599567
 20
-19.1424960108
 10
-12.9677006441
 20
-19.1170802609
 10
-13.0054853886
 20
-19.0919801251
 10
-13.0419586125
 20
-19.0669192548
 10
-13.0768881337
 20
-19.0421296246
 10
-13.1100290614
 20
-19.0178787817
 10
-13.1416722356
 20
-18.9940368498
 10
-13.1723780597
 20
-18.970225717
 10
-13.2016822189
 20
-18.9468585551
 10
-13.230067522
 20
-18.9236067941
 10
-13.2594316624
 20
-18.8988854592
 10
-13.2900634254
 20
-18.8723428824
 10
-13.3215318873
 20
-18.844249476
 10
-13.354550956
 20
-18.8138481293
 10
-13.3894664829
 20
-18.7806219933
 10
-13.4256655992
 20
-18.7449376152
 10
-13.4624158147
 20
-18.7073555759
 10
-13.4993898817
 20
-18.6680773096
 10
-13.536694773
 20
-18.6268405791
 10
-13.5742741544
 20
-18.5835379764
 10
-13.6119772741
 20
-18.5381555088
 10
-13.6496621084
 20
-18.4906637645
 10
-13.6872571914
 20
-18.4409329269
 10
-13.7245706588
 20
-18.3889701756
 10
-13.7614213737
 20
-18.334763215
 10
-13.7977132402
 20
-18.2781567453
 10
-13.833297745
 20
-18.219026897
 10
-13.8678359056
 20
-18.1575492292
 10
-13.9009416734
 20
-18.094036793
 10
-13.9328061121
 20
-18.0276300168
 10
-13.9626753472
 20
-17.9593358762
 10
-13.9891447832
 20
-17.8923158843
 10
-14.0120985794
 20
-17.8274627558
 10
-14.0319868871
 20
-17.7640878624
 10
-14.0487217117
 20
-17.7029877518
 10
-14.0622987941
 20
-17.645187333
 10
-14.0732312527
 20
-17.5897741821
 10
-14.0820389614
 20
-17.5346612312
 10
-14.0887691925
 20
-17.4792237168
 10
-14.0932692745
 20
-17.4242530509
 10
-14.095518321
 20
-17.3698282984
  0
LWPOLYLINE
  5
27F
100
AcDbEntity
  8
RACCORDO
100
AcDbPolyline
 62
250
  6
CONTINUOUS
 90
9
 70
0
 10
-11.9867516281
 20
-20.2963088363
 10
-12.0516900746
 20
-20.2742315153
 10
-12.1171283708
 20
-20.2508991211
 10
-12.1830476823
 20
-20.2263331577
 10
-12.2495734105
 20
-20.2005233811
 10
-12.3165410083
 20
-20.173496711
 10
-12.3834942667
 20
-20.1453260999
 10
-12.4505098658
 20
-20.1155703872
 10
-12.6481415715
 20
-20.0256744853
  0
LWPOLYLINE
  5
280
100
AcDbEntity
  8
RACCORDO
100
AcDbPolyline
 62
250
  6
CONTINUOUS
 90
15
 70
0
 10
-12.6481415715
 20
-20.0256744853
 10
-12.7119048412
 20
-19.995507045
 10
-12.7765588346
 20
-19.9638125941
 10
-12.8424173207
 20
-19.9303123522
 10
-12.9090500012
 20
-19.8950190662
 10
-12.9769944536
 20
-19.8575007884
 10
-13.047471742
 20
-19.8169746705
 10
-13.1190769839
 20
-19.7740749839
 10
-13.1884609306
 20
-19.7307677696
 10
-13.2544802946
 20
-19.6880719752
 10
-13.3182821371
 20
-19.6453635675
 10
-13.3800264283
 20
-19.6023967122
 10
-13.4387702874
 20
-19.5607554806
 10
-13.4954912445
 20
-19.5191083729
 10
-13.5530950264
 20
-19.4734824174
  0
LWPOLYLINE
  5
281
100
AcDbEntity
  8
RACCORDO
100
AcDbPolyline
 62
250
  6
CONTINUOUS
 90
4
 70
0
 10
-13.5530950264
 20
-19.4734824174
 10
-13.7383833347
 20
-19.3216746625
 10
-13.8006963527
 20
-19.2692085952
 10
-13.9307923398
 20
-19.1581829473
  0
LWPOLYLINE
  5
282
100
AcDbEntity
  8
RACCORDO
100
AcDbPolyline
 62
250
  6
CONTINUOUS
 90
28
 70
0
 10
-13.9307923398
 20
-19.1581829473
 10
-13.9973389908
 20
-19.1004386965
 10
-14.0617055078
 20
-19.041095575
 10
-14.1272056628
 20
-18.9784138115
 10
-14.1945043186
 20
-18.9117807485
 10
-14.2622413832
 20
-18.8416345943
 10
-14.330821232
 20
-18.7675517078
 10
-14.3997915583
 20
-18.6894785725
 10
-14.4686901228
 20
-18.6074059977
 10
-14.5377602662
 20
-18.5209778138
 10
-14.6062875003
 20
-18.4302984476
 10
-14.6737773895
 20
-18.3353674433
 10
-14.7406101342
 20
-18.2356981943
 10
-14.8060437148
 20
-18.1312672608
 10
-14.8691291101
 20
-18.0225159047
 10
-14.9297696833
 20
-17.9097425706
 10
-14.9878619873
 20
-17.7922442754
 10
-15.0417179903
 20
-17.6715981242
 10
-15.0891099598
 20
-17.5517569545
 10
-15.1313666094
 20
-17.4332234021
 10
-15.1699676425
 20
-17.3156375911
 10
-15.2037907034
 20
-17.2014676683
 10
-15.2317043404
 20
-17.0924044819
 10
-15.2555693966
 20
-16.9864532905
 10
-15.2753397935
 20
-16.8813398083
 10
-15.2908704951
 20
-16.776317692
 10
-15.3018992425
 20
-16.6721784962
 10
-15.3082236308
 20
-16.5689438961
  0
LWPOLYLINE
  5
283
100
AcDbEntity
  8
RACCORDO
100
AcDbPolyline
 62
250
  6
CONTINUOUS
 90
10
 70
0
 10
-12.3069256495
 20
-19.4306240578
 10
-12.2526528936
 20
-19.4877724959
 10
-12.2026653631
 20
-19.5554274723
 10
-12.157156898
 20
-19.6333266155
 10
-12.1163039686
 20
-19.7211678251
 10
-12.0802649915
 20
-19.8186104432
 10
-12.0491797153
 20
-19.9252765759
 10
-12.0231686783
 20
-20.0407525583
 10
-12.0023327411
 20
-20.1645905591
 10
-11.986752696
 20
-20.2963103173
  0
LWPOLYLINE
  5
284
100
AcDbEntity
  8
RACCORDO
100
AcDbPolyline
 62
250
  6
CONTINUOUS
 90
10
 70
0
 10
-14.095517865
 20
-17.3698281463
 10
-14.1903319153
 20
-17.2594412727
 10
-14.2963576818
 20
-17.1534101162
 10
-14.4131349796
 20
-17.0521948837
 10
-14.540156959
 20
-16.9562348793
 10
-14.6768723048
 20
-16.8659465978
 10
-14.8226876299
 20
-16.781721917
 10
-14.9769700503
 20
-16.7039263969
 10
-15.1390499321
 20
-16.6328976927
 10
-15.3082237982
 20
-16.5689440896
  0
LWPOLYLINE
  5
285
100
AcDbEntity
  8
0
100
AcDbPolyline
 62
250
  6
CONTINUOUS
 90
13
 70
0
 10
-12.3371848261
 20
-17.3750400676
 10
-12.3334251387
 20
-17.4134415403
 10
-12.3240778243
 20
-17.4529216142
 10
-12.309302818
 20
-17.4928047743
 10
-12.2893529243
 20
-17.5324086086
 10
-12.2645694913
 20
-17.5710554846
 10
-12.2353765706
 20
-17.6080841435
 10
-12.2022736611
 20
-17.6428610146
 10
-12.1658271626
 20
-17.6747910561
 10
-12.126660685
 20
-17.7033279362
 10
-12.0854443775
 20
-17.7279833808
 10
-12.0428834626
 20
-17.7483355285
 10
-11.9997061692
 20
-17.7640361483
  0
LWPOLYLINE
  5
286
100
AcDbEntity
  8
RACCORDO
100
AcDbPolyline
 62
250
  6
CONTINUOUS
 90
5
 70
0
 10
-15.3082236308
 20
-16.5689438961
 10
-15.3369276755
 20
-15.98734252
 10
-15.357185989
 20
-15.3821138624
 10
-15.3738759998
 20
-14.7534940569
 10
-15.415591238
 20
-13.4181034454
  0
LINE
  5
287
100
AcDbEntity
  8
RACCORDO
100
AcDbLine
 62
250
  6
CONTINUOUS
 10
-15.415591238
 20
-13.4181034454
 11
-15.7869125036
 21
0.6859010956
  0
LINE
  5
288
100
AcDbEntity
  8
RACCORDO
100
AcDbLine
 62
250
  6
CONTINUOUS
 10
-14.095518321
 20
-17.3698282984
 11
-14.9557664133
 21
17.2107913434
  0
LWPOLYLINE
  5
289
100
AcDbEntity
  8
RACCORDO
100
AcDbPolyline
 62
250
  6
CONTINUOUS
 90
3
 70
0
 10
-15.7869125036
 20
0.6859010956
 10
-16.0681022571
 20
12.6406228095
 10
-16.1180369357
 20
14.819722292
  0
LWPOLYLINE
  5
28A
100
AcDbEntity
  8
RACCORDO
100
AcDbPolyline
 62
250
  6
CONTINUOUS
 90
3
 70
0
 10
-16.1180369357
 20
14.819722292
 10
-16.1300080245
 20
15.4990046968
 10
-16.1573953168
 20
16.7864064546
  0
LWPOLYLINE
  5
28B
100
AcDbEntity
  8
RACCORDO
100
AcDbPolyline
 62
250
  6
CONTINUOUS
 90
3
 70
0
 10
-16.1573953168
 20
16.7864064546
 10
-16.1672925722
 20
17.3933638342
 10
-16.1674920008
 20
17.9722924473
  0
LWPOLYLINE
  5
28C
100
AcDbEntity
  8
RACCORDO
100
AcDbPolyline
 62
250
  6
CONTINUOUS
 90
55
 70
0
 10
-14.9557664133
 20
17.2107913434
 10
-14.9562213958
 20
17.2649647426
 10
-14.9544300742
 20
17.3181782206
 10
-14.9504175806
 20
17.3703678868
 10
-14.9443078275
 20
17.4208249145
 10
-14.9360909496
 20
17.4701624701
 10
-14.9253486493
 20
17.5201936597
 10
-14.9116305531
 20
17.571433224
 10
-14.8948862578
 20
17.6229523608
 10
-14.8750993713
 20
17.6743025948
 10
-14.8518266009
 20
17.7259316723
 10
-14.8251182679
 20
17.7769552184
 10
-14.7961154812
 20
17.8251854748
 10
-14.765362779
 20
17.870211061
 10
-14.7327700493
 20
17.912557501
 10
-14.6989714574
 20
17.9517652045
 10
-14.6644068055
 20
17.9877925233
 10
-14.6291777561
 20
18.0209623344
 10
-14.5934761361
 20
18.0514352466
 10
-14.5575642015
 20
18.0793178877
 10
-14.5216085031
 20
18.1047857313
 10
-14.4856125105
 20
18.128079077
 10
-14.4497173581
 20
18.1493303922
 10
-14.4140955526
 20
18.1686493425
 10
-14.3787523214
 20
18.186208041
 10
-14.343606516
 20
18.2022268778
 10
-14.3089676031
 20
18.2166882582
 10
-14.2754403614
 20
18.2294342932
 10
-14.2435935598
 20
18.2404701295
 10
-14.2131244415
 20
18.2500919505
 10
-14.183314792
 20
18.2585549151
 10
-14.1545046876
 20
18.2658163034
 10
-14.1264924445
 20
18.2720716702
 10
-14.0976428046
 20
18.277772955
 10
-14.0677190149
 20
18.2829161053
 10
-14.0369464589
 20
18.2874291912
 10
-14.0042842944
 20
18.2914965108
 10
-13.9690899835
 20
18.2950984593
 10
-13.931919565
 20
18.2980156266
 10
-13.8935200472
 20
18.300115601
 10
-13.8536152684
 20
18.3013459458
 10
-13.8124671996
 20
18.3016230072
 10
-13.7717041433
 20
18.300939181
 10
-13.7317783475
 20
18.2993768106
 10
-13.6923267701
 20
18.2969830678
 10
-13.6538058222
 20
18.2938432237
 10
-13.6165440081
 20
18.2900866162
 10
-13.5802945034
 20
18.2857521797
 10
-13.5446497965
 20
18.2807877642
 10
-13.5096134316
 20
18.2752270839
 10
-13.4752335382
 20
18.2691286658
 10
-13.4411595745
 20
18.262429576
 10
-13.4072887266
 20
18.2551117946
 10
-13.3737610107
 20
18.2472384108
 10
-13.3405854629
 20
18.2388471851
  0
LWPOLYLINE
  5
28D
100
AcDbEntity
  8
RACCORDO
100
AcDbPolyline
 62
250
  6
CONTINUOUS
 90
29
 70
0
 10
-16.1674920008
 20
17.9722924473
 10
-16.1662730478
 20
18.0743202815
 10
-16.1603664831
 20
18.1740967022
 10
-16.149974514
 20
18.2717176146
 10
-16.1353208945
 20
18.3666108016
 10
-16.1165869583
 20
18.4595430218
 10
-16.0939338973
 20
18.552624821
 10
-16.0656457454
 20
18.6462424907
 10
-16.0328962118
 20
18.7399353358
 10
-15.9967043965
 20
18.8332111092
 10
-15.9551001118
 20
18.9258452135
 10
-15.9065942534
 20
19.0159869637
 10
-15.8533573463
 20
19.1008925722
 10
-15.7968795381
 20
19.1801125302
 10
-15.7372293521
 20
19.2541642331
 10
-15.674889342
 20
19.3222446311
 10
-15.6110170694
 20
19.3844375962
 10
-15.5462912048
 20
19.4413566017
 10
-15.4804818157
 20
19.4930997335
 10
-15.4142708542
 20
19.5399612008
 10
-15.3483490089
 20
19.5824164075
 10
-15.2822957972
 20
19.6207371136
 10
-15.2165841753
 20
19.6552061222
 10
-15.1517158876
 20
19.6862206779
 10
-15.0871020728
 20
19.7140709383
 10
-15.0240062749
 20
19.7392346511
 10
-14.9618449842
 20
19.761812282
 10
-14.8974266873
 20
19.7813404036
 10
-14.7715819337
 20
19.8175755516
  0
LINE
  5
28E
100
AcDbEntity
  8
0
100
AcDbLine
 62
250
  6
CONTINUOUS
 10
-13.1955791281
 20
17.2414998
 11
-13.1974329184
 21
17.2055795742
  0
LWPOLYLINE
  5
28F
100
AcDbEntity
  8
RACCORDO
100
AcDbPolyline
 62
250
  6
CONTINUOUS
 90
10
 70
0
 10
-13.2433159932
 20
18.2108172809
 10
-13.1949165166
 20
18.3898094846
 10
-13.1510509869
 20
18.568282532
 10
-13.1118894949
 20
18.7455442677
 10
-13.077583888
 20
18.920907234
 10
-13.048267182
 20
19.0936913369
 10
-13.0240530447
 20
19.2632264834
 10
-13.0050353552
 20
19.4288551807
 10
-12.99128784
 20
19.5899350857
 10
-12.9828637869
 20
19.7458414963
  0
LWPOLYLINE
  5
290
100
AcDbEntity
  8
RACCORDO
100
AcDbPolyline
 62
250
  6
CONTINUOUS
 90
13
 70
0
 10
-2.2567864247
 20
29.56648618
 10
-2.299514082
 20
29.5026483449
 10
-2.3413156526
 20
29.4328006838
 10
-2.3818098078
 20
29.3575801986
 10
-2.4206271433
 20
29.2776728928
 10
-2.4574135473
 20
29.1938075152
 10
-2.4918334309
 20
29.1067489129
 10
-2.5235727884
 20
29.0172910562
 10
-2.5523420613
 20
28.9262497971
 10
-2.5778787789
 20
28.8344554289
 10
-2.5999499524
 20
28.7427451131
 10
-2.6183541995
 20
28.651955245
 10
-2.6329235813
 20
28.5629138248
  0
LWPOLYLINE
  5
291
100
AcDbEntity
  8
RACCORDO
100
AcDbPolyline
 62
250
  6
CONTINUOUS
 90
13
 70
0
 10
-1.3656569778
 20
29.2928289601
 10
-1.408434156
 20
29.2290063365
 10
-1.4502836818
 20
29.159173406
 10
-1.4908242265
 20
29.0839671703
 10
-1.5296866909
 20
29.0040737268
 10
-1.5665166581
 20
28.9202217299
 10
-1.6009776235
 20
28.8331757451
 10
-1.6327555139
 20
28.7437297215
 10
-1.661560838
 20
28.652699532
 10
-1.6871304116
 20
28.5609152508
 10
-1.7092310081
 20
28.4692139665
 10
-1.7276614827
 20
28.3784321474
 10
-1.7422538964
 20
28.289397794
  0
LINE
  5
292
100
AcDbEntity
  8
RACCORDO
100
AcDbLine
 62
7
  6
CONTINUOUS
 10
-1.1937245556
 20
-17.5499619354
 11
-1.1662861395
 21
-17.5568084242
  0
LINE
  5
293
100
AcDbEntity
  8
0
100
AcDbLine
 62
250
  6
CONTINUOUS
 10
-11.9997061692
 20
-17.7640361483
 11
7.6840915956
 21
-23.8087397461
  0
LINE
  5
294
100
AcDbEntity
  8
0
100
AcDbLine
 62
7
  6
CONTINUOUS
 10
7.895165832
 20
-22.8605971709
 11
-11.3867855738
 21
-16.9392966969
  0
LINE
  5
295
100
AcDbEntity
  8
0
100
AcDbLine
 62
7
  6
CONTINUOUS
 10
7.8701408252
 20
-21.8546312756
 11
-10.7981999656
 21
-16.1217646769
  0
LINE
  5
296
100
AcDbEntity
  8
DRAFT
100
AcDbLine
 62
7
  6
CONTINUOUS
 10
3.1638291503
 20
-20.2098062059
 11
-2.2071868054
 21
-18.5604192401
  0
LINE
  5
297
100
AcDbEntity
  8
DRAFT
100
AcDbLine
 62
7
  6
CONTINUOUS
 10
3.2453419189
 20
-20.0930936406
 11
-2.1070028308
 21
-18.4494404212
  0
LINE
  5
298
100
AcDbEntity
  8
DRAFT
100
AcDbLine
 62
7
  6
CONTINUOUS
 10
3.3676110719
 20
-19.9180247927
 11
-1.9567268689
 21
-18.282972193
  0
LINE
  5
299
100
AcDbEntity
  8
DRAFT
100
AcDbLine
 62
7
  6
CONTINUOUS
 10
3.4491238406
 20
-19.8013122274
 11
-1.8565428943
 21
-18.1719933741
  0
LINE
  5
29A
100
AcDbEntity
  8
DRAFT
100
AcDbLine
 62
7
  6
CONTINUOUS
 10
3.5713929936
 20
-19.6262433794
 11
-1.7062669324
 21
-18.0055251459
  0
LINE
  5
29B
100
AcDbEntity
  8
DRAFT
100
AcDbLine
 62
7
  6
CONTINUOUS
 10
3.6529057622
 20
-19.5095308141
 11
-1.6060829578
 21
-17.894546327
  0
LINE
  5
29C
100
AcDbEntity
  8
DRAFT
100
AcDbLine
 62
7
  6
CONTINUOUS
 10
3.7751749152
 20
-19.3344619662
 11
-1.4558069959
 21
-17.7280780988
  0
LINE
  5
29D
100
AcDbEntity
  8
RACCORDO
100
AcDbLine
 62
250
  6
CONTINUOUS
 10
-1.3305770276
 20
-17.5893545752
 11
3.877065876
 21
-19.1885712595
  0
LINE
  5
29E
100
AcDbEntity
  8
RACCORDO
100
AcDbLine
 62
7
  6
CONTINUOUS
 10
-1.1656883471
 20
-17.5569913777
 11
3.8998861015
 21
-19.1125802158
  0
LWPOLYLINE
  5
29F
100
AcDbEntity
  8
0
100
AcDbPolyline
 62
7
  6
CONTINUOUS
 90
13
 70
0
 10
-11.3867855738
 20
-16.9392966969
 10
-11.4226560972
 20
-16.9260316811
 10
-11.4568873682
 20
-16.9096626749
 10
-11.4894793868
 20
-16.8901896782
 10
-11.5209280104
 20
-16.8671782803
 10
-11.5507373815
 20
-16.841062892
 10
-11.577419928
 20
-16.8131467453
 10
-11.6008169729
 20
-16.7833384571
 10
-11.6210871932
 20
-16.7517294104
 10
-11.6372190472
 20
-16.7198969864
 10
-11.6488753545
 20
-16.6883669789
 10
-11.6563932957
 20
-16.6566135942
 10
-11.6597728706
 20
-16.6246368321
  0
LWPOLYLINE
  5
2A0
100
AcDbEntity
  8
0
100
AcDbPolyline
 62
7
  6
CONTINUOUS
 90
10
 70
0
 10
-10.7981999656
 20
-16.1217646769
 10
-10.8306134766
 20
-16.1089062491
 10
-10.8604747368
 20
-16.0928639003
 10
-10.8877837462
 20
-16.0736376304
 10
-10.9132015804
 20
-16.0504654482
 10
-10.9360671638
 20
-16.0241093449
 10
-10.9543972699
 20
-15.9968552944
 10
-10.9675308229
 20
-15.969465288
 10
-10.9761288986
 20
-15.9411773344
 10
-10.9801914968
 20
-15.9119914336
  0
LINE
  5
2A1
100
AcDbEntity
  8
DRAFT
100
AcDbLine
 62
7
  6
CONTINUOUS
 10
3.3093697065
 20
-20.1218617491
 11
3.2453419189
 21
-20.0930936406
  0
LINE
  5
2A2
100
AcDbEntity
  8
DRAFT
100
AcDbLine
 62
7
  6
CONTINUOUS
 10
3.5131516281
 20
-19.8300803358
 11
3.4491238406
 21
-19.8013122274
  0
LINE
  5
2A3
100
AcDbEntity
  8
DRAFT
100
AcDbLine
 62
7
  6
CONTINUOUS
 10
3.7169335498
 20
-19.5382989226
 11
3.6529057622
 21
-19.5095308141
  0
LWPOLYLINE
  5
2A4
100
AcDbEntity
  8
RACCORDO
100
AcDbPolyline
 62
250
  6
CONTINUOUS
 90
10
 70
0
 10
-2.022376427
 20
-22.5888731783
 10
-1.9685017302
 20
-22.6474798023
 10
-1.9191986858
 20
-22.7172917379
 10
-1.8746707316
 20
-22.7980202517
 10
-1.8351015436
 20
-22.8893314315
 10
-1.8006542758
 20
-22.9908475685
 10
-1.7714708853
 20
-23.1021487201
 10
-1.7476715442
 20
-23.2227744483
 10
-1.7293541423
 20
-23.352225725
 10
-1.7165938825
 20
-23.4899669973
  0
LWPOLYLINE
  5
2A5
100
AcDbEntity
  8
RACCORDO
100
AcDbPolyline
 62
250
  6
CONTINUOUS
 90
10
 70
0
 10
-2.9077881313
 20
-22.3169718217
 10
-2.8545372481
 20
-22.3753868373
 10
-2.8058494562
 20
-22.445009784
 10
-2.7619281959
 20
-22.5255519355
 10
-2.7230563097
 20
-22.6166489319
 10
-2.6892977903
 20
-22.7179535249
 10
-2.6604971062
 20
-22.8291371429
 10
-2.6366752704
 20
-22.9497698105
 10
-2.618029341
 20
-23.0793220516
 10
-2.6046345257
 20
-23.217258319
  0
LINE
  5
2A6
100
AcDbEntity
  8
0
100
AcDbLine
 62
250
  6
CONTINUOUS
 10
-13.1974329184
 20
17.2055795742
 11
-12.3371848261
 21
-17.3750400676
  0
LINE
  5
2A7
100
AcDbEntity
  8
0
100
AcDbLine
 62
7
  6
CONTINUOUS
 10
-11.6597728706
 20
-16.6246368321
 11
-12.4971163373
 21
17.0352529017
  0
LINE
  5
2A8
100
AcDbEntity
  8
0
100
AcDbLine
 62
7
  6
CONTINUOUS
 10
-10.9801914968
 20
-15.9119914336
 11
-11.794438764
 21
16.8194674265
  0
LWPOLYLINE
  5
2A9
100
AcDbEntity
  8
RACCORDO
100
AcDbPolyline
 62
250
  6
CONTINUOUS
 90
10
 70
0
 10
-3.8441731171
 20
15.3242311304
 10
-3.7966646625
 20
15.509884996
 10
-3.7539920913
 20
15.6949552178
 10
-3.7163326099
 20
15.8786760617
 10
-3.6838426778
 20
16.0602873785
 10
-3.6566573601
 20
16.239037749
 10
-3.6348897684
 20
16.4141875941
 10
-3.6186305929
 20
16.5850122358
 10
-3.6079477274
 20
16.7508048959
 10
-3.6028859876
 20
16.9108796215
  0
LWPOLYLINE
  5
2AA
100
AcDbEntity
  8
RACCORDO
100
AcDbPolyline
 62
250
  6
CONTINUOUS
 90
10
 70
0
 10
-2.9587614128
 20
15.0523297738
 10
-2.9106292272
 20
15.2377919275
 10
-2.8673414528
 20
15.4226730986
 10
-2.8290752983
 20
15.6062075542
 10
-2.7958880637
 20
15.7876046885
 10
-2.7680139792
 20
15.966143538
 10
-2.7458636477
 20
16.1411758912
 10
-2.7296269268
 20
16.3120075226
 10
-2.7192725522
 20
16.477901193
 10
-2.7148453444
 20
16.6381709433
  0
LWPOLYLINE
  5
2AB
100
AcDbEntity
  8
RACCORDO
100
AcDbPolyline
 62
250
  6
CONTINUOUS
 90
10
 70
0
 10
8.6306225145
 20
-7.2013431289
 10
8.8312501594
 20
-7.1844137077
 10
9.0328733455
 20
-7.1760204065
 10
9.2345795112
 20
-7.1762012142
 10
9.4354557193
 20
-7.1849553124
 10
9.6345927891
 20
-7.2022430794
 10
9.8310894113
 20
-7.2279862697
 10
10.0240562275
 20
-7.2620683677
 10
10.2126198554
 20
-7.3043351155
 10
10.3959268419
 20
-7.3545952104
  0
LWPOLYLINE
  5
2AC
100
AcDbEntity
  8
RACCORDO
100
AcDbPolyline
 62
250
  6
CONTINUOUS
 90
10
 70
0
 10
33.1851604623
 20
-12.3349166601
 10
30.2800246728
 20
-11.8959482389
 10
27.5357897088
 20
-11.4315352705
 10
24.9668450567
 20
-10.9519995528
 10
22.6222603826
 20
-10.4757170982
 10
20.3937165589
 20
-9.9878428584
 10
18.1248933746
 20
-9.4553054451
 10
15.5817445882
 20
-8.8138956399
 10
12.8753622897
 20
-8.0782506813
 10
10.3959268427
 20
-7.3545952094
  0
LWPOLYLINE
  5
2AD
100
AcDbEntity
  8
RACCORDO
100
AcDbPolyline
 62
250
  6
CONTINUOUS
 90
10
 70
0
 10
-35.9893076099
 20
8.9078923256
 10
-33.6650742009
 20
7.7409721278
 10
-31.4057870002
 20
6.6688519133
 10
-29.2334022329
 20
5.6923713002
 10
-27.2012289319
 20
4.8245937824
 10
-25.224558216
 20
4.021087377
 10
-23.1662119685
 20
3.2247929793
 10
-20.8019682885
 20
2.3591901007
 10
-18.2179510663
 20
1.4702046196
 10
-15.7869125036
 20
0.6859010956
  0
LWPOLYLINE
  5
2AE
100
AcDbEntity
  8
RACCORDO
100
AcDbPolyline
 62
250
  6
CONTINUOUS
 90
10
 70
0
 10
-14.5166833317
 20
-0.0877492681
 10
-14.617032971
 20
0.0209836505
 10
-14.7289265807
 20
0.1250340348
 10
-14.8518577222
 20
0.2239309448
 10
-14.9852699999
 20
0.3172267658
 10
-15.1285595798
 20
0.4044992339
 10
-15.2810779225
 20
0.4853533477
 10
-15.4421347187
 20
0.5594231555
 10
-15.6110010131
 20
0.6263734118
 10
-15.7869125044
 20
0.6859010946
  0
LWPOLYLINE
  5
2AF
100
AcDbEntity
  8
RACCORDO
100
AcDbPolyline
 62
250
  6
CONTINUOUS
 90
10
 70
0
 10
7.3768726525
 20
-25.4753262412
 10
7.426774925
 20
-25.5311326304
 10
7.4724086359
 20
-25.5974506353
 10
7.5135967834
 20
-25.6740230558
 10
7.5501796064
 20
-25.7605529235
 10
7.5820152037
 20
-25.8567046535
 10
7.6089800845
 20
-25.9621053458
 10
7.6309696474
 20
-26.0763462312
 10
7.6478985861
 20
-26.198984257
 10
7.6597012201
 20
-26.3295438051
  0
LWPOLYLINE
  5
2B0
100
AcDbEntity
  8
RACCORDO
100
AcDbPolyline
 62
250
  6
CONTINUOUS
 90
3
 70
0
 10
-0.7559091162
 20
-30.1729607737
 10
-0.5113782481
 20
-31.1416494506
 10
-0.2404418568
 20
-32.0764991777
  0
LINE
  5
2B1
100
AcDbEntity
  8
RACCORDO
100
AcDbLine
 62
250
  6
CONTINUOUS
 10
-2.4733473756
 20
-24.7876802483
 11
-2.372752671
 21
-25.7041345358
  0
LWPOLYLINE
  5
2B2
100
AcDbEntity
  8
RACCORDO
100
AcDbPolyline
 62
250
  6
CONTINUOUS
 90
6
 70
0
 10
-1.5826781142
 20
-25.0611930381
 10
-1.482083609
 20
-25.9776461884
 10
-1.345845415
 20
-27.0141504413
 10
-1.1741538664
 20
-28.1034973289
 10
-0.9756084712
 20
-29.1668081977
 10
-0.7559091162
 20
-30.1729607737
  0
LINE
  5
2B3
100
AcDbEntity
  8
RACCORDO
100
AcDbLine
 62
250
  6
CONTINUOUS
 10
-2.5469030915
 20
-23.9869180836
 11
-2.4733473756
 21
-24.7876802483
  0
LINE
  5
2B4
100
AcDbEntity
  8
RACCORDO
100
AcDbLine
 62
250
  6
CONTINUOUS
 10
-2.6059488646
 20
-23.2168565425
 11
-2.5469030915
 21
-23.9869180836
  0
LWPOLYLINE
  5
2B5
100
AcDbEntity
  8
RACCORDO
100
AcDbPolyline
 62
250
  6
CONTINUOUS
 90
3
 70
0
 10
-1.715279282
 20
-23.4903725492
 10
-1.6562336604
 20
-24.2604322848
 10
-1.5826781142
 20
-25.0611930381
  0
LWPOLYLINE
  5
2B6
100
AcDbEntity
  8
RACCORDO
100
AcDbPolyline
 62
250
  6
CONTINUOUS
 90
5
 70
0
 10
-3.6042004571
 20
16.9112832824
 10
-3.5858795745
 20
17.7782950183
 10
-3.5554073652
 20
18.7094176905
 10
-3.5051130928
 20
19.8149560142
 10
-3.4271226103
 20
21.1199188993
  0
LWPOLYLINE
  5
2B7
100
AcDbEntity
  8
RACCORDO
100
AcDbPolyline
 62
250
  6
CONTINUOUS
 90
5
 70
0
 10
-2.7135308432
 20
16.6377693702
 10
-2.6952099073
 20
17.5047821981
 10
-2.6647376176
 20
18.4359059761
 10
-2.614443232
 20
19.5414453576
 10
-2.5364526633
 20
20.8464083155
  0
LINE
  5
2B8
100
AcDbEntity
  8
RACCORDO
100
AcDbLine
 62
250
  6
CONTINUOUS
 10
-3.4271226103
 20
21.1199188993
 11
-3.3183720114
 21
22.5606988544
  0
LWPOLYLINE
  5
2B9
100
AcDbEntity
  8
RACCORDO
100
AcDbPolyline
 62
250
  6
CONTINUOUS
 90
6
 70
0
 10
-2.5364526633
 20
20.8464083155
 10
-2.4277020445
 20
22.2871874688
 10
-2.2924650913
 20
23.7687730096
 10
-2.1345953879
 20
25.2480713594
 10
-1.9515880003
 20
26.7525241523
 10
-1.7421389957
 20
28.28936278
  0
LINE
  5
2BA
100
AcDbEntity
  8
RACCORDO
100
AcDbLine
 62
250
  6
CONTINUOUS
 10
-3.3183720114
 20
22.5606988544
 11
-3.1831350181
 21
24.0422855328
  0
LWPOLYLINE
  5
2BB
100
AcDbEntity
  8
RACCORDO
100
AcDbPolyline
 62
250
  6
CONTINUOUS
 90
4
 70
0
 10
-3.1831350181
 20
24.0422855328
 10
-3.0252652535
 20
25.5215848774
 10
-2.8422577655
 20
27.0260387323
 10
-2.6328086151
 20
28.5628785198
  0
LWPOLYLINE
  5
2BC
100
AcDbEntity
  8
RACCORDO
100
AcDbPolyline
 62
250
  6
CONTINUOUS
 90
22
 70
0
 10
-11.9997061692
 20
-17.7640361483
 10
-12.046107066
 20
-17.8307424359
 10
-12.0915561559
 20
-17.9046620087
 10
-12.1355697537
 20
-17.9850081881
 10
-12.1776794508
 20
-18.0709259015
 10
-12.2174371009
 20
-18.161500782
 10
-12.254419589
 20
-18.2557688994
 10
-12.2882333341
 20
-18.3527270189
 10
-12.3185184783
 20
-18.4513432774
 10
-12.3449527164
 20
-18.5505681658
 10
-12.3672547258
 20
-18.6493456973
 10
-12.3851871606
 20
-18.7466246462
 10
-12.3985591773
 20
-18.8413697354
 10
-12.4072284662
 20
-18.9325726537
 10
-12.4111027657
 20
-19.0192627873
 10
-12.410140844
 20
-19.1005175488
 10
-12.4043529387
 20
-19.1754721933
 10
-12.3938006466
 20
-19.2433290302
 10
-12.3785962671
 20
-19.3033659092
 10
-12.3589016082
 20
-19.3549438953
 10
-12.3349262665
 20
-19.3975140716
 10
-12.306925395
 20
-19.4306233875
  0
LINE
  5
2BD
100
AcDbEntity
  8
0
100
AcDbLine
 62
250
  6
CONTINUOUS
 10
-11.3867855738
 20
-16.9392966969
 11
-10.7981999656
 21
-16.1217646769
  0
LINE
  5
2BE
100
AcDbEntity
  8
0
100
AcDbLine
 62
250
  6
CONTINUOUS
 10
-11.9997061692
 20
-17.7640361483
 11
-11.3867855738
 21
-16.9392966969
  0
LINE
  5
2BF
100
AcDbEntity
  8
0
100
AcDbLine
 62
250
  6
CONTINUOUS
 10
35.9250399878
 20
-13.1771814889
 11
35.6927001726
 21
-13.1058321826
  0
LINE
  5
2C0
100
AcDbEntity
  8
0
100
AcDbLine
 62
250
  6
CONTINUOUS
 10
36.5295376253
 20
-12.6761072749
 11
35.6687498975
 21
-12.411767703
  0
LINE
  5
2C1
100
AcDbEntity
  8
0
100
AcDbLine
 62
7
  6
CONTINUOUS
 10
35.6663591672
 20
-12.3156641068
 11
36.6775448719
 21
-12.6261894404
  0
LWPOLYLINE
  5
2C2
100
AcDbEntity
  8
RACCORDO
100
AcDbPolyline
 62
250
  6
CONTINUOUS
 90
10
 70
0
 10
-14.9557665779
 20
17.2107912885
 10
-15.0504650631
 20
17.3165385612
 10
-15.1563757892
 20
17.4179501794
 10
-15.2730390695
 20
17.5145859785
 10
-15.3999485476
 20
17.6060265227
 10
-15.5365533957
 20
17.6918749256
 10
-15.6822607046
 20
17.7717585727
 10
-15.8364380577
 20
17.845330739
 10
-15.9984162757
 20
17.9122720937
 10
-16.1674923211
 20
17.9722920859
  0
LWPOLYLINE
  5
2C3
100
AcDbEntity
  8
RACCORDO
100
AcDbPolyline
 62
7
  6
CONTINUOUS
 90
3
 70
0
 10
3.9101420835
 20
-19.1286242795
 10
3.9061579218
 20
-19.1160864368
 10
3.8997071214
 20
-19.1115184416
  0
LWPOLYLINE
  5
2C4
100
AcDbEntity
  8
RACCORDO
100
AcDbPolyline
 62
250
  6
CONTINUOUS
 90
7
 70
0
 10
-2.372752671
 20
-25.7041345358
 10
-2.2365143687
 20
-26.740638812
 10
-2.0648228494
 20
-27.8299848166
 10
-1.8662775638
 20
-28.8932946161
 10
-1.6465783232
 20
-29.8994463706
 10
-1.4020476151
 20
-30.8681342453
 10
-1.1311114385
 20
-31.8029831793
  0
LWPOLYLINE
  5
2C5
100
AcDbEntity
  8
RACCORDO
100
AcDbPolyline
 62
250
  6
CONTINUOUS
 90
18
 70
0
 10
7.9207948152
 20
-23.8908419646
 10
7.9249683422
 20
-23.9393365239
 10
7.9396481063
 20
-24.0030709354
 10
7.9646036831
 20
-24.0653690314
 10
7.9995736238
 20
-24.1255781414
 10
8.0441915632
 20
-24.1830674804
 10
8.0979900584
 20
-24.2372347573
 10
8.1604054857
 20
-24.2875124848
 10
8.2307839453
 20
-24.3333739248
 10
8.3083881125
 20
-24.3743386066
 10
8.3924049616
 20
-24.4099773608
 10
8.4819542842
 20
-24.4399168155
 10
8.5760979157
 20
-24.463843309
 10
8.6738495489
 20
-24.481506172
 10
8.774185065
 20
-24.4927203567
 10
8.8760532855
 20
-24.4973683803
 10
8.9783869864
 20
-24.4954015514
 10
9.0801140626
 20
-24.4868404789
  0
LWPOLYLINE
  5
2C6
100
AcDbEntity
  8
RACCORDO
100
AcDbPolyline
 62
250
  6
CONTINUOUS
 90
17
 70
0
 10
7.0605467228
 20
10.6897776772
 10
7.0647202371
 20
10.6412832048
 10
7.0793999818
 20
10.5775488089
 10
7.104355534
 20
10.5152507267
 10
7.1393254452
 20
10.4550416281
 10
7.1839433508
 20
10.3975522976
 10
7.2377418086
 20
10.3433850261
 10
7.3001571954
 20
10.2931073003
 10
7.3705356123
 20
10.2472458582
 10
7.4481397354
 20
10.2062811702
 10
7.5321565399
 20
10.1706424055
 10
7.6217058184
 20
10.1407029359
 10
7.715849387
 20
10.1167764274
 10
7.8136009584
 20
10.0991135425
 10
7.9139364794
 20
10.0878993238
 10
8.0158047965
 20
10.0832512668
 10
8.1181386636
 20
10.0852180786
  0
LINE
  5
2C7
100
AcDbEntity
  8
0
100
AcDbLine
 62
7
  6
CONTINUOUS
 10
7.0605467228
 20
10.6897776772
 11
7.0606045653
 21
10.687940624
  0
LINE
  5
2C8
100
AcDbEntity
  8
RACCORDO
100
AcDbLine
 62
250
  6
CONTINUOUS
 10
9.0461933315
 20
-23.2941494106
 11
9.0801140626
 21
-24.4868404789
  0
LINE
  5
2C9
100
AcDbEntity
  8
RACCORDO
100
AcDbLine
 62
250
  6
CONTINUOUS
 10
3.8834728791
 20
-19.1797276411
 11
3.9085315149
 21
-20.1870453679
  0
LINE
  5
2CA
100
AcDbEntity
  8
RACCORDO
100
AcDbLine
 62
7
  6
CONTINUOUS
 10
3.910079111
 20
-19.1260202546
 11
3.9338064362
 21
-20.0798213893
  0
LINE
  5
2CB
100
AcDbEntity
  8
0
100
AcDbLine
 62
7
  6
CONTINUOUS
 10
7.9207948152
 20
-23.8908419646
 11
7.0605467228
 21
10.6897776772
  0
LWPOLYLINE
  5
2CC
100
AcDbEntity
  8
RACCORDO
100
AcDbPolyline
 62
250
  6
CONTINUOUS
 90
10
 70
0
 10
6.4404811986
 20
12.1661137062
 10
6.4845101537
 20
12.3464479112
 10
6.5240217966
 20
12.5262578458
 10
6.5588628738
 20
12.7048461824
 10
6.5888982463
 20
12.8815203302
 10
6.6140114135
 20
13.0555951219
 10
6.6341049652
 20
13.2263954706
 10
6.6491009595
 20
13.3932589877
 10
6.6589412245
 20
13.5555385523
 10
6.6635875849
 20
13.7126048201
  0
LINE
  5
2CD
100
AcDbEntity
  8
DRAFT
100
AcDbLine
 62
7
  6
CONTINUOUS
 10
-2.2071868054
 20
-18.5604192401
 11
-2.2722110947
 21
-18.7400132597
  0
LINE
  5
2CE
100
AcDbEntity
  8
DRAFT
100
AcDbLine
 62
7
  6
CONTINUOUS
 10
-1.9567268689
 20
-18.282972193
 11
-2.0289716388
 21
-18.4825088395
  0
LINE
  5
2CF
100
AcDbEntity
  8
DRAFT
100
AcDbLine
 62
7
  6
CONTINUOUS
 10
-1.7062669324
 20
-18.0055251459
 11
-1.7785117023
 21
-18.2050617924
  0
LINE
  5
2D0
100
AcDbEntity
  8
DRAFT
100
AcDbLine
 62
7
  6
CONTINUOUS
 10
-1.4558069959
 20
-17.7280780988
 11
-1.5280517658
 21
-17.9276147453
  0
LINE
  5
2D1
100
AcDbEntity
  8
0
100
AcDbLine
 62
250
  6
CONTINUOUS
 10
-11.6597728706
 20
-16.6246368321
 11
-12.3371848261
 21
-17.3750400676
  0
LINE
  5
2D2
100
AcDbEntity
  8
0
100
AcDbLine
 62
250
  6
CONTINUOUS
 10
-11.6597728706
 20
-16.6246368321
 11
-10.9801914968
 21
-15.9119914336
  0
LWPOLYLINE
  5
2D3
100
AcDbEntity
  8
RACCORDO
100
AcDbPolyline
 62
250
  6
CONTINUOUS
 90
22
 70
0
 10
-12.3371848261
 20
-17.3750400676
 10
-12.3928538186
 20
-17.4300972966
 10
-12.4570088997
 20
-17.4814040254
 10
-12.5289779447
 20
-17.5284227356
 10
-12.6080069651
 20
-17.5706608326
 10
-12.6932680082
 20
-17.6076758063
 10
-12.7838678312
 20
-17.6390798669
 10
-12.8788572592
 20
-17.6645440078
 10
-12.9772411292
 20
-17.6838014521
 10
-13.0779887161
 20
-17.696650448
 10
-13.1800445315
 20
-17.7029563822
 10
-13.2823393808
 20
-17.7026531902
 10
-13.3838015654
 20
-17.6957440483
 10
-13.4833681102
 20
-17.6823013407
 10
-13.5799958997
 20
-17.6624659007
 10
-13.6726726067
 20
-17.6364455355
 10
-13.7604272844
 20
-17.6045128548
 10
-13.8423405802
 20
-17.5670023996
 10
-13.9175543577
 20
-17.5243071294
 10
-13.9852806346
 20
-17.4768743297
 10
-14.0448098474
 20
-17.4252009341
 10
-14.095518321
 20
-17.3698282984
  0
LWPOLYLINE
  5
2D4
100
AcDbEntity
  8
RACCORDO
100
AcDbPolyline
 62
250
  6
CONTINUOUS
 90
5
 70
0
 10
9.9567672715
 20
9.9497855155
 10
9.9809091576
 20
9.3624671179
 10
9.9972914299
 20
8.7523812395
 10
10.0107237064
 20
8.1196790382
 10
10.0476702216
 20
6.7783125509
  0
LWPOLYLINE
  5
2D5
100
AcDbEntity
  8
RACCORDO
100
AcDbPolyline
 62
250
  6
CONTINUOUS
 90
4
 70
0
 10
10.7796016732
 20
-22.7883594057
 10
10.7975124792
 20
-23.4161243888
 10
10.8112807954
 20
-24.0182307888
 10
10.8160356414
 20
-24.5914508279
  0
LINE
  5
2D6
100
AcDbEntity
  8
RACCORDO
100
AcDbLine
 62
250
  6
CONTINUOUS
 10
8.6305546108
 20
-7.1986828261
 11
9.0461933315
 21
-23.2941494106
  0
LINE
  5
2D7
100
AcDbEntity
  8
RACCORDO
100
AcDbLine
 62
250
  6
CONTINUOUS
 10
10.0476702216
 20
6.7783125509
 11
10.7501340096
 21
-21.4594905168
  0
LINE
  5
2D8
100
AcDbEntity
  8
RACCORDO
100
AcDbLine
 62
250
  6
CONTINUOUS
 10
8.2198659703
 20
10.0937791629
 11
8.6305546108
 21
-7.1986828261
  0
LINE
  5
2D9
100
AcDbEntity
  8
RACCORDO
100
AcDbLine
 62
250
  6
CONTINUOUS
 10
10.7501340096
 20
-21.4594905168
 11
10.7796016732
 21
-22.7883594057
  0
LWPOLYLINE
  5
2DA
100
AcDbEntity
  8
RACCORDO
100
AcDbPolyline
 62
250
  6
CONTINUOUS
 90
58
 70
0
 10
9.0801140626
 20
-24.4868404789
 10
9.0808286834
 20
-24.540688515
 10
9.0792587479
 20
-24.5936245652
 10
9.0754293235
 20
-24.6455848203
 10
9.069465217
 20
-24.6958593323
 10
9.0613555735
 20
-24.7450625083
 10
9.0506792186
 20
-24.7950110592
 10
9.0369592041
 20
-24.8462530273
 10
9.020171677
 20
-24.8978263395
 10
9.0003770552
 20
-24.9491862671
 10
8.9771541268
 20
-25.0007528854
 10
8.950531146
 20
-25.0516694735
 10
8.9216598114
 20
-25.099735002
 10
8.891092947
 20
-25.1445277075
 10
8.8587322725
 20
-25.1865833499
 10
8.8251978686
 20
-25.2254599889
 10
8.7909275368
 20
-25.2611184836
 10
8.756025072
 20
-25.2938790386
 10
8.7206743841
 20
-25.3239121839
 10
8.6851374441
 20
-25.3513249044
 10
8.6495812179
 20
-25.3762921535
 10
8.6140022739
 20
-25.3990628792
 10
8.5785413862
 20
-25.41977
 10
8.5433715293
 20
-25.4385225958
 10
8.5084922333
 20
-25.4554999187
 10
8.473837556
 20
-25.4709033034
 10
8.4397018736
 20
-25.4847340657
 10
8.4066386187
 20
-25.4968986604
 10
8.3752142445
 20
-25.5074051363
 10
8.3451280462
 20
-25.516547105
 10
8.315616724
 20
-25.5246362238
 10
8.2869918156
 20
-25.5316655357
 10
8.2590798442
 20
-25.5377952482
 10
8.230285571
 20
-25.5434271506
 10
8.2003675913
 20
-25.5485630203
 10
8.1695559198
 20
-25.5531251234
 10
8.1368637008
 20
-25.5572301055
 10
8.1016637867
 20
-25.5608390755
 10
8.0644968224
 20
-25.5637519142
 10
8.0261176149
 20
-25.5658264371
 10
7.9862521394
 20
-25.5670075293
 10
7.9451602375
 20
-25.5672142057
 10
7.9044716146
 20
-25.566437104
 10
7.8646407676
 20
-25.5647557495
 10
7.8253024289
 20
-25.5622201029
 10
7.7869076999
 20
-25.5589220888
 10
7.7497937299
 20
-25.554980212
 10
7.713705081
 20
-25.5504442008
 10
7.6782030079
 20
-25.5453010453
 10
7.6432860313
 20
-25.5395907546
 10
7.6090072668
 20
-25.5333656081
 10
7.5749999094
 20
-25.5265830512
 10
7.5411529738
 20
-25.5192353043
 10
7.5076146236
 20
-25.5113752468
 10
7.4744021111
 20
-25.503030343
 10
7.4415311308
 20
-25.4942254379
 10
7.4090165456
 20
-25.4849831778
 10
7.3768723699
 20
-25.4753269853
  0
LWPOLYLINE
  5
2DB
100
AcDbEntity
  8
RACCORDO
100
AcDbPolyline
 62
250
  6
CONTINUOUS
 90
29
 70
0
 10
10.8160356414
 20
-24.5914508279
 10
10.8157277552
 20
-24.6923369684
 10
10.810579228
 20
-24.7911634621
 10
10.8007881644
 20
-24.8880313561
 10
10.7865685913
 20
-24.9823806224
 10
10.7681060223
 20
-25.0749727815
 10
10.7455798819
 20
-25.1678955316
 10
10.7171825454
 20
-25.2616500247
 10
10.68417919
 20
-25.3556609441
 10
10.6478811401
 20
-25.4490698442
 10
10.6064191543
 20
-25.5415256282
 10
10.5582034675
 20
-25.6313037528
 10
10.5053935928
 20
-25.7156742301
 10
10.4494937486
 20
-25.7941699186
 10
10.3905627722
 20
-25.8673203515
 10
10.3290362606
 20
-25.9343813222
 10
10.2660697362
 20
-25.9954392584
 10
10.202348225
 20
-26.0510996689
 10
10.1376056433
 20
-26.1015059422
 10
10.0725208549
 20
-26.1469561573
 10
10.0077905994
 20
-26.1879181356
 10
9.9429702118
 20
-26.224693941
 10
9.8785293196
 20
-26.2575705479
 10
9.8149746513
 20
-26.2869389551
 10
9.7517044434
 20
-26.3131054884
 10
9.6900052519
 20
-26.3365190585
 10
9.6292720071
 20
-26.3573071484
 10
9.5662303663
 20
-26.3751101279
 10
9.4430391741
 20
-26.408019993
  0
LINE
  5
2DC
100
AcDbEntity
  8
DRAFT
100
AcDbLine
 62
7
  6
CONTINUOUS
 10
3.1638291503
 20
-20.2098062059
 11
3.1114086997
 21
-20.3932707423
  0
LINE
  5
2DD
100
AcDbEntity
  8
DRAFT
100
AcDbLine
 62
7
  6
CONTINUOUS
 10
3.3676110719
 20
-19.9180247927
 11
3.3093697065
 21
-20.1218617491
  0
LINE
  5
2DE
100
AcDbEntity
  8
DRAFT
100
AcDbLine
 62
7
  6
CONTINUOUS
 10
3.5713929936
 20
-19.6262433794
 11
3.5131516281
 21
-19.8300803358
  0
LINE
  5
2DF
100
AcDbEntity
  8
DRAFT
100
AcDbLine
 62
7
  6
CONTINUOUS
 10
3.7751749152
 20
-19.3344619662
 11
3.7169335498
 21
-19.5382989226
  0
LWPOLYLINE
  5
2E0
100
AcDbEntity
  8
RACCORDO
100
AcDbPolyline
 62
7
  6
CONTINUOUS
 90
4
 70
0
 10
3.9085315149
 20
-20.1870453679
 10
3.9276114053
 20
-20.1383857458
 10
3.9338282466
 20
-20.0858082938
 10
3.9337725367
 20
-20.0785313117
  0
LINE
  5
2E1
100
AcDbEntity
  8
RACCORDO
100
AcDbLine
 62
7
  6
CONTINUOUS
 10
3.877065876
 20
-19.1885712595
 11
3.7751749152
 21
-19.3344619662
  0
LINE
  5
2E2
100
AcDbEntity
  8
DRAFT
100
AcDbLine
 62
7
  6
CONTINUOUS
 10
3.6529057622
 20
-19.5095308141
 11
3.5713929936
 21
-19.6262433794
  0
LINE
  5
2E3
100
AcDbEntity
  8
DRAFT
100
AcDbLine
 62
7
  6
CONTINUOUS
 10
3.4491238406
 20
-19.8013122274
 11
3.3676110719
 21
-19.9180247927
  0
LINE
  5
2E4
100
AcDbEntity
  8
DRAFT
100
AcDbLine
 62
7
  6
CONTINUOUS
 10
3.2453419189
 20
-20.0930936406
 11
3.1638291503
 21
-20.2098062059
  0
LINE
  5
2E5
100
AcDbEntity
  8
RACCORDO
100
AcDbLine
 62
7
  6
CONTINUOUS
 10
3.902140372
 20
-20.1965265406
 11
3.6493571895
 21
-20.5584695119
  0
LWPOLYLINE
  5
2E6
100
AcDbEntity
  8
RACCORDO
100
AcDbPolyline
 62
7
  6
CONTINUOUS
 90
4
 70
0
 10
3.8834728791
 20
-19.1797276411
 10
3.9030932031
 20
-19.1527925985
 10
3.9100773396
 20
-19.1310592035
 10
3.9101420835
 20
-19.1286242795
  0
LINE
  5
2E7
100
AcDbEntity
  8
RACCORDO
100
AcDbLine
 62
250
  6
CONTINUOUS
 10
30.8789055269
 20
19.5183650204
 11
33.2560426755
 21
22.2658912924
  0
LINE
  5
2E8
100
AcDbEntity
  8
RACCORDO
100
AcDbLine
 62
250
  6
CONTINUOUS
 10
33.6039498673
 20
16.3901657151
 11
35.9755276525
 21
19.131266402
  0
LINE
  5
2E9
100
AcDbEntity
  8
RACCORDO
100
AcDbLine
 62
7
  6
CONTINUOUS
 10
-1.3305770276
 20
-17.5893545752
 11
-1.4558069959
 21
-17.7280780988
  0
LINE
  5
2EA
100
AcDbEntity
  8
DRAFT
100
AcDbLine
 62
7
  6
CONTINUOUS
 10
-1.6060829578
 20
-17.894546327
 11
-1.7062669324
 21
-18.0055251459
  0
LINE
  5
2EB
100
AcDbEntity
  8
DRAFT
100
AcDbLine
 62
7
  6
CONTINUOUS
 10
-1.8565428943
 20
-18.1719933741
 11
-1.9567268689
 21
-18.282972193
  0
LINE
  5
2EC
100
AcDbEntity
  8
DRAFT
100
AcDbLine
 62
7
  6
CONTINUOUS
 10
-2.1070028308
 20
-18.4494404212
 11
-2.2071868054
 21
-18.5604192401
  0
LWPOLYLINE
  5
2ED
100
AcDbEntity
  8
RACCORDO
100
AcDbPolyline
 62
250
  6
CONTINUOUS
 90
13
 70
0
 10
33.6039498673
 20
16.3901657151
 10
33.5394492998
 20
16.3342335012
 10
33.4651629294
 20
16.2830245577
 10
33.3820189496
 20
16.2371787303
 10
33.2910562276
 20
16.1972688537
 10
33.1934113245
 20
16.1637935936
 10
33.0903042939
 20
16.1371712167
 10
32.9830234374
 20
16.1177343642
 10
32.8729092079
 20
16.1057258959
 10
32.7613374608
 20
16.1012958554
 10
32.6497022625
 20
16.104499595
 10
32.5393984728
 20
16.115297085
 10
32.4318043152
 20
16.1335534128
  0
LWPOLYLINE
  5
2EE
100
AcDbEntity
  8
RACCORDO
100
AcDbPolyline
 62
7
  6
CONTINUOUS
 90
4
 70
0
 10
-1.3227042614
 20
-17.5809610785
 10
-1.2820042954
 20
-17.5572219203
 10
-1.2387744099
 20
-17.5473076969
 10
-1.1937245556
 20
-17.5499619354
  0
LWPOLYLINE
  5
2EF
100
AcDbEntity
  8
RACCORDO
100
AcDbPolyline
 62
250
  6
CONTINUOUS
 90
10
 70
0
 10
8.1181386636
 20
10.0852180786
 10
8.4159062288
 20
10.1102432788
 10
8.6131741998
 20
10.1185513419
 10
8.810813597
 20
10.1186676083
 10
9.007966604
 20
10.1105915717
 10
9.2037775152
 20
10.0943582833
 10
9.39739645
 20
10.0700381989
 10
9.587983042
 20
10.0377368738
 10
9.7747100858
 20
9.9975945043
 10
9.9567671278
 20
9.9497853192
  0
LWPOLYLINE
  5
2F0
100
AcDbEntity
  8
RACCORDO
100
AcDbPolyline
 62
250
  6
CONTINUOUS
 90
3
 70
0
 10
-13.3405854629
 20
18.2388471851
 10
-13.3077750332
 20
18.2299664016
 10
-13.2753473111
 20
18.2206152899
  0
LWPOLYLINE
  5
2F1
100
AcDbEntity
  8
0
100
AcDbPolyline
 62
7
  6
CONTINUOUS
 90
7
 70
0
 10
-13.1633096712
 20
17.2398344205
 10
-13.1961813266
 20
17.2488881578
 10
-13.2245734432
 20
17.2548777844
 10
-13.2478920475
 20
17.2582845672
 10
-13.265719659
 20
17.2597133503
 10
-13.2777012841
 20
17.259861547
 10
-13.2797356267
 20
17.2597902721
  0
LWPOLYLINE
  5
2F2
100
AcDbEntity
  8
RACCORDO
100
AcDbPolyline
 62
250
  6
CONTINUOUS
 90
4
 70
0
 10
-12.9828640052
 20
19.7458412608
 10
-12.0506379434
 20
19.477586938
 10
-11.0903250727
 20
19.1907152467
 10
-8.0396474781
 20
18.2650282894
  0
LINE
  5
2F3
100
AcDbEntity
  8
RACCORDO
100
AcDbLine
 62
250
  6
CONTINUOUS
 10
-4.7462559899
 20
17.2552166037
 11
-3.6042004252
 21
16.9112853777
  0
LINE
  5
2F4
100
AcDbEntity
  8
0
100
AcDbLine
 62
7
  6
CONTINUOUS
 10
6.5204880936
 20
11.1951308228
 11
-13.1633096712
 21
17.2398344205
  0
LINE
  5
2F5
100
AcDbEntity
  8
RACCORDO
100
AcDbLine
 62
250
  6
CONTINUOUS
 10
-3.6028859876
 20
16.9108796215
 11
-2.7148453444
 21
16.6381709433
  0
LINE
  5
2F6
100
AcDbEntity
  8
RACCORDO
100
AcDbLine
 62
250
  6
CONTINUOUS
 10
0.4034623426
 20
14.0162299478
 11
6.4404814702
 21
12.1661136953
  0
LINE
  5
2F7
100
AcDbEntity
  8
RACCORDO
100
AcDbLine
 62
250
  6
CONTINUOUS
 10
-2.9587614127
 20
15.0523297738
 11
0.4034623426
 21
14.0162299478
  0
LINE
  5
2F8
100
AcDbEntity
  8
RACCORDO
100
AcDbLine
 62
250
  6
CONTINUOUS
 10
-8.0396474781
 20
18.2650282894
 11
-4.7462559899
 21
17.2552166037
  0
LWPOLYLINE
  5
2F9
100
AcDbEntity
  8
RACCORDO
100
AcDbPolyline
 62
250
  6
CONTINUOUS
 90
58
 70
0
 10
6.4404814702
 20
12.1661136953
 10
6.4747658076
 20
12.1555268377
 10
6.5092800495
 20
12.1442279906
 10
6.5440085604
 20
12.1322101318
 10
6.5790049159
 20
12.1194433894
 10
6.6141824225
 20
12.1059425139
 10
6.6493146549
 20
12.0917786559
 10
6.6840764631
 20
12.0770714047
 10
6.7187600499
 20
12.0617221387
 10
6.7540615935
 20
12.0454506144
 10
6.7901749971
 20
12.0281205623
 10
6.8268575898
 20
12.0098035276
 10
6.8641454909
 20
11.9904932396
 10
6.9019836251
 20
11.970189964
 10
6.9403708285
 20
11.9488335072
 10
6.9794199922
 20
11.9263168868
 10
7.0197674562
 20
11.9021985131
 10
7.0606881254
 20
11.8768235221
 10
7.1002921137
 20
11.8513617832
 10
7.1380590849
 20
11.8262393749
 10
7.1745311553
 20
11.8011770593
 10
7.2094688538
 20
11.7763976762
 10
7.2426440639
 20
11.7521897939
 10
7.2743308556
 20
11.7284025209
 10
7.3050320126
 20
11.7045855396
 10
7.3342755341
 20
11.6811423902
 10
7.362551939
 20
11.6577541645
 10
7.3917244341
 20
11.6327926713
 10
7.4220563528
 20
11.6058743477
 10
7.4531425493
 20
11.5773019094
 10
7.4857392786
 20
11.5463713124
 10
7.5201893137
 20
11.5125618502
 10
7.555883134
 20
11.4762442658
 10
7.59213995
 20
11.438043928
 10
7.6286470579
 20
11.3981804968
 10
7.6654967729
 20
11.3563733668
 10
7.7026404463
 20
11.3125247611
 10
7.7399279009
 20
11.2666214071
 10
7.7772164175
 20
11.2186330214
 10
7.8144402703
 20
11.1684369806
 10
7.8514069979
 20
11.1160397159
 10
7.8879359289
 20
11.0614295152
 10
7.9239382737
 20
11.0044602344
 10
7.9592642984
 20
10.9450064744
 10
7.9935761105
 20
10.8832451603
 10
8.0264984094
 20
10.8195028121
 10
8.0582275956
 20
10.7529265455
 10
8.0880043503
 20
10.6845165141
 10
8.1144186612
 20
10.6174274427
 10
8.1373788449
 20
10.5525823187
 10
8.1573108786
 20
10.48926222
 10
8.1740488547
 20
10.4281660588
 10
8.1875622354
 20
10.3702858128
 10
8.1983904404
 20
10.3147420177
 10
8.2070543015
 20
10.2594488056
 10
8.2136014425
 20
10.2037818536
 10
8.2178789385
 20
10.1485322564
 10
8.2198659703
 20
10.0937791629
  0
LINE
  5
2FA
100
AcDbEntity
  8
RACCORDO
100
AcDbLine
 62
250
  6
CONTINUOUS
 10
-13.2753473111
 20
18.2206152899
 11
-2.9587614127
 21
15.0523297738
  0
LINE
  5
2FB
100
AcDbEntity
  8
RACCORDO
100
AcDbLine
 62
250
  6
CONTINUOUS
 10
0.6471413573
 20
15.5993771831
 11
4.7659721715
 21
14.3213787325
  0
LWPOLYLINE
  5
2FC
100
AcDbEntity
  8
RACCORDO
100
AcDbPolyline
 62
250
  6
CONTINUOUS
 90
3
 70
0
 10
-2.7135308432
 20
16.6377693702
 10
-1.5713331735
 20
16.2802292819
 10
0.6471413573
 20
15.5993771831
  0
LWPOLYLINE
  5
2FD
100
AcDbEntity
  8
RACCORDO
100
AcDbPolyline
 62
250
  6
CONTINUOUS
 90
3
 70
0
 10
4.7659721715
 20
14.3213787325
 10
5.7279881917
 20
14.0179236481
 10
6.6635886322
 20
13.7126059899
  0
LWPOLYLINE
  5
2FE
100
AcDbEntity
  8
RACCORDO
100
AcDbPolyline
 62
250
  6
CONTINUOUS
 90
9
 70
0
 10
6.6635886322
 20
13.7126059899
 10
6.7287982483
 20
13.6908684823
 10
6.7943987731
 20
13.6677393832
 10
6.860370969
 20
13.6432396911
 10
6.9268442438
 20
13.6173641831
 10
6.9936498807
 20
13.5901345535
 10
7.060319361
 20
13.5616083289
 10
7.1268681798
 20
13.5312676753
 10
7.3229524886
 20
13.439432669
  0
LWPOLYLINE
  5
2FF
100
AcDbEntity
  8
RACCORDO
100
AcDbPolyline
 62
250
  6
CONTINUOUS
 90
16
 70
0
 10
-13.1633096712
 20
17.2398344205
 10
-13.1737469674
 20
17.2435248787
 10
-13.206959132
 20
17.2625701742
 10
-13.2365825902
 20
17.2915469741
 10
-13.2623020785
 20
17.3301468968
 10
-13.2838438807
 20
17.3779591479
 10
-13.3009787412
 20
17.434474892
 10
-13.3135243045
 20
17.4990926682
 10
-13.3213470563
 20
17.5711247907
 10
-13.3243637439
 20
17.6498046676
 10
-13.322542262
 20
17.7342949747
 10
-13.3159019944
 20
17.8236965216
 10
-13.3045136167
 20
17.917057813
 10
-13.2884983389
 20
18.0133852415
 10
-13.2680266069
 20
18.1116536706
 10
-13.2433162946
 20
18.2108172931
  0
LWPOLYLINE
  5
300
100
AcDbEntity
  8
RACCORDO
100
AcDbPolyline
 62
250
  6
CONTINUOUS
 90
16
 70
0
 10
6.5204880936
 20
11.1951308228
 10
6.5100508662
 20
11.1988212533
 10
6.4768387036
 20
11.2178665223
 10
6.4472152447
 20
11.2468432906
 10
6.4214957529
 20
11.2854431773
 10
6.399953944
 20
11.3332553884
 10
6.3828190738
 20
11.3897710894
 10
6.3702734976
 20
11.4543888202
 10
6.3624507299
 20
11.5264208957
 10
6.3594340234
 20
11.6051007249
 10
6.3612554828
 20
11.6895909658
 10
6.3678957233
 20
11.778992446
 10
6.3792840786
 20
11.8723537341
 10
6.3952993522
 20
11.9686812508
 10
6.4157711048
 20
12.066949841
 10
6.4404814702
 20
12.1661136953
  0
LWPOLYLINE
  5
301
100
AcDbEntity
  8
RACCORDO
100
AcDbPolyline
 62
250
  6
CONTINUOUS
 90
15
 70
0
 10
7.3229524886
 20
13.439432669
 10
7.3863407936
 20
13.4087953456
 10
7.4506759378
 20
13.376701332
 10
7.5162741457
 20
13.3428749254
 10
7.5827020938
 20
13.3073250809
 10
7.6504937738
 20
13.2696153581
 10
7.72087017
 20
13.2289628082
 10
7.7924262855
 20
13.1860015594
 10
7.861809335
 20
13.1426932207
 10
7.9278855743
 20
13.100068699
 10
7.9917926714
 20
13.0574921899
 10
8.0536586409
 20
13.0146778146
 10
8.1126096953
 20
12.9732962277
 10
8.1695546032
 20
12.9319297616
 10
8.2271591867
 20
12.8863048105
  0
LWPOLYLINE
  5
302
100
AcDbEntity
  8
RACCORDO
100
AcDbPolyline
 62
250
  6
CONTINUOUS
 90
5
 70
0
 10
8.2271591867
 20
12.8863048105
 10
8.349160205
 20
12.7848304797
 10
8.4108764649
 20
12.7325283355
 10
8.4721172446
 20
12.6787186041
 10
8.5995454907
 20
12.5643499043
  0
LWPOLYLINE
  5
303
100
AcDbEntity
  8
RACCORDO
100
AcDbPolyline
 62
250
  6
CONTINUOUS
 90
28
 70
0
 10
8.5995454907
 20
12.5643499043
 10
8.6647152116
 20
12.5048801679
 10
8.7276562117
 20
12.4437506748
 10
8.7917597494
 20
12.3793187548
 10
8.8577082657
 20
12.3109937785
 10
8.9241228787
 20
12.2391904077
 10
8.9914277754
 20
12.1635098283
 10
9.0591681433
 20
12.0838953834
 10
9.1268822649
 20
12.0003385363
 10
9.1948364721
 20
11.9125119286
 10
9.2623116224
 20
11.8205141545
 10
9.3288147921
 20
11.7243466529
 10
9.3947568976
 20
11.6235613086
 10
9.4593890164
 20
11.5181260316
 10
9.5217649015
 20
11.4084855602
 10
9.5818315895
 20
11.2949930679
 10
9.6394917334
 20
11.1769532158
 10
9.693047014
 20
11.0559302173
 10
9.7402884135
 20
10.9359003624
 10
9.7826481085
 20
10.8174959403
 10
9.8215019619
 20
10.7002269485
 10
9.8554345232
 20
10.5861942449
 10
9.8832235484
 20
10.4769749026
 10
9.906820861
 20
10.3706881911
 10
9.9261592689
 20
10.2650333664
 10
9.9410886206
 20
10.1592576747
 10
9.9513573723
 20
10.0541660981
 10
9.9567672715
 20
9.9497855155
  0
LWPOLYLINE
  5
304
100
AcDbEntity
  8
0
100
AcDbPolyline
 62
7
  6
CONTINUOUS
 90
21
 70
0
 10
7.0605902652
 20
10.6880273408
 10
7.0597995859
 20
10.6928221022
 10
7.0571615549
 20
10.7040866068
 10
7.0518367102
 20
10.7213412065
 10
7.0432512305
 20
10.7437133447
 10
7.031151008
 20
10.770081137
 10
7.0153772021
 20
10.7995978722
 10
6.9957869211
 20
10.831639701
 10
6.9722825754
 20
10.8656412468
 10
6.9448279339
 20
10.9010415958
 10
6.9136716687
 20
10.93703306
 10
6.8792048154
 20
10.9728225152
 10
6.841754856
 20
11.0078283205
 10
6.8018607235
 20
11.0413853595
 10
6.7604056377
 20
11.0727116482
 10
6.7180472605
 20
11.1013753319
 10
6.6754670319
 20
11.1270382796
 10
6.6336936815
 20
11.149290397
 10
6.5935466392
 20
11.1679972233
 10
6.5555995184
 20
11.1832370256
 10
6.5204880936
 20
11.1951308228
  0
LWPOLYLINE
  5
305
100
AcDbEntity
  8
RACCORDO
100
AcDbPolyline
 62
250
  6
CONTINUOUS
 90
13
 70
0
 10
30.8789070487
 20
19.5183462567
 10
30.8329702352
 20
19.4420751402
 10
30.7883355193
 20
19.3577668824
 10
30.7455577799
 20
19.2664695655
 10
30.7051688113
 20
19.1693181564
 10
30.6676707118
 20
19.0675203975
 10
30.6335296418
 20
18.9623417922
 10
30.6031700294
 20
18.8550898732
 10
30.5769692939
 20
18.7470979472
 10
30.5552531539
 20
18.6397085204
 10
30.538291578
 20
18.5342566089
 10
30.5262954288
 20
18.4320531422
 10
30.5194138417
 20
18.3343686664
  0
LWPOLYLINE
  5
306
100
AcDbEntity
  8
RACCORDO
100
AcDbPolyline
 62
250
  6
CONTINUOUS
 90
22
 70
0
 10
7.6840915956
 20
-23.8087397461
 10
7.6376906859
 20
-23.8754460535
 10
7.5922415837
 20
-23.9493656499
 10
7.5482279747
 20
-24.0297118561
 10
7.5061182679
 20
-24.1156295988
 10
7.4663606098
 20
-24.20620451
 10
7.429378116
 20
-24.3004726589
 10
7.3955643675
 20
-24.3974308095
 10
7.3652792226
 20
-24.4960470982
 10
7.3388449866
 20
-24.5952720146
 10
7.3165429823
 20
-24.6940495713
 10
7.2986105557
 20
-24.7913285416
 10
7.2852385502
 20
-24.8860736475
 10
7.2765692756
 20
-24.9772765773
 10
7.2726949934
 20
-25.0639667163
 10
7.273656935
 20
-25.1452214767
 10
7.2794448648
 20
-25.2201761287
 10
7.2899971855
 20
-25.2880329623
 10
7.3052015862
 20
-25.34806979
 10
7.3248962448
 20
-25.3996476832
 10
7.3488715593
 20
-25.4422177582
 10
7.3768723699
 20
-25.4753269853
  0
LINE
  5
307
100
AcDbEntity
  8
0
100
AcDbLine
 62
250
  6
CONTINUOUS
 10
7.9111518485
 20
-23.5032098785
 11
7.6840915956
 21
-23.8087397461
  0
LWPOLYLINE
  5
308
100
AcDbEntity
  8
RACCORDO
100
AcDbPolyline
 62
250
  6
CONTINUOUS
 90
19
 70
0
 10
-14.7715819337
 20
19.8175755516
 10
-14.7111066533
 20
19.8338843193
 10
-14.6502540856
 20
19.8484586632
 10
-14.5894016474
 20
19.8623821444
 10
-14.530164443
 20
19.8756440617
 10
-14.4734815699
 20
19.8864117392
 10
-14.4173090608
 20
19.8933174131
 10
-14.3588114159
 20
19.8989757546
 10
-14.2969397039
 20
19.9041712337
 10
-14.2326769128
 20
19.9077729355
 10
-14.1661235221
 20
19.9100154905
 10
-14.0962614756
 20
19.9108544001
 10
-14.0240904821
 20
19.9099229485
 10
-13.9528304862
 20
19.9072876783
 10
-13.883711657
 20
19.9031353149
 10
-13.8157012534
 20
19.8975176052
 10
-13.7486974757
 20
19.8906457444
 10
-13.6831301715
 20
19.8829044249
 10
-13.6187142018
 20
19.8743172229
  0
LWPOLYLINE
  5
309
100
AcDbEntity
  8
RACCORDO
100
AcDbPolyline
 62
250
  6
CONTINUOUS
 90
10
 70
0
 10
-13.6187142018
 20
19.8743172229
 10
-13.489311244
 20
19.8547404076
 10
-13.4243776761
 20
19.8452814593
 10
-13.3596716046
 20
19.8347921305
 10
-13.2950942543
 20
19.82246535
 10
-13.2307862458
 20
19.8088590959
 10
-13.1673356547
 20
19.7943505933
 10
-13.1049487401
 20
19.7790728299
 10
-13.0434530568
 20
19.7629054168
 10
-12.9828640052
 20
19.7458412608
  0
LINE
  5
30A
100
AcDbEntity
  8
RACCORDO
100
AcDbLine
 62
250
  6
CONTINUOUS
 10
-34.5000083348
 20
38.3064211363
 11
-34.4230215198
 21
38.2858196538
  0
LWPOLYLINE
  5
30B
100
AcDbEntity
  8
RACCORDO
100
AcDbPolyline
 62
250
  6
CONTINUOUS
 90
4
 70
0
 10
-34.4230215198
 20
38.2858196538
 10
-34.344622438
 20
38.2643512865
 10
-34.3043384059
 20
38.2529081899
 10
-34.2630585275
 20
38.2406487979
  0
LINE
  5
30C
100
AcDbEntity
  8
RACCORDO
100
AcDbLine
 62
250
  6
CONTINUOUS
 10
30.7157827034
 20
19.5635403595
 11
30.8789055269
 21
19.5183650204
  0
LWPOLYLINE
  5
30D
100
AcDbEntity
  8
RACCORDO
100
AcDbPolyline
 62
250
  6
CONTINUOUS
 90
3
 70
0
 10
-34.5770282556
 20
38.3277488085
 10
-34.5384291157
 20
38.3168813356
 10
-34.5000083348
 20
38.3064211363
  0
LINE
  5
30E
100
AcDbEntity
  8
RACCORDO
100
AcDbLine
 62
250
  6
CONTINUOUS
 10
30.6020596099
 20
19.5956610944
 11
30.7157827034
 21
19.5635403595
  0
LINE
  5
30F
100
AcDbEntity
  8
RACCORDO
100
AcDbLine
 62
250
  6
CONTINUOUS
 10
-34.6552959555
 20
38.3503307944
 11
-34.5770282556
 21
38.3277488085
  0
LINE
  5
310
100
AcDbEntity
  8
RACCORDO
100
AcDbLine
 62
250
  6
CONTINUOUS
 10
30.4893196899
 20
19.6281253261
 11
30.6020596099
 21
19.5956610944
  0
LINE
  5
311
100
AcDbEntity
  8
RACCORDO
100
AcDbLine
 62
250
  6
CONTINUOUS
 10
30.0794641283
 20
19.7482284117
 11
30.4893196899
 21
19.6281253261
  0
LINE
  5
312
100
AcDbEntity
  8
RACCORDO
100
AcDbLine
 62
250
  6
CONTINUOUS
 10
22.597963381
 20
21.9351527925
 11
30.0794641283
 21
19.7482284117
  0
LWPOLYLINE
  5
313
100
AcDbEntity
  8
RACCORDO
100
AcDbPolyline
 62
250
  6
CONTINUOUS
 90
3
 70
0
 10
-34.7793826793
 20
38.3869925822
 10
-34.7371993155
 20
38.3744046228
 10
-34.6552959555
 20
38.3503307944
  0
LINE
  5
314
100
AcDbEntity
  8
RACCORDO
100
AcDbLine
 62
250
  6
CONTINUOUS
 10
21.4217029554
 20
22.2864183117
 11
22.597963381
 21
21.9351527925
  0
LINE
  5
315
100
AcDbEntity
  8
RACCORDO
100
AcDbLine
 62
250
  6
CONTINUOUS
 10
-23.7395888416
 20
35.024890595
 11
-21.5639666736
 21
34.3680112792
  0
LINE
  5
316
100
AcDbEntity
  8
RACCORDO
100
AcDbLine
 62
250
  6
CONTINUOUS
 10
18.9899973363
 20
23.0231257513
 11
21.4217029554
 21
22.2864183117
  0
LINE
  5
317
100
AcDbEntity
  8
RACCORDO
100
AcDbLine
 62
250
  6
CONTINUOUS
 10
-21.5639666736
 20
34.3680112792
 11
-17.2027932322
 21
33.0343612025
  0
LINE
  5
318
100
AcDbEntity
  8
RACCORDO
100
AcDbLine
 62
250
  6
CONTINUOUS
 10
-15.6665053367
 20
33.6916724985
 11
-12.5728399255
 21
32.7449779744
  0
LINE
  5
319
100
AcDbEntity
  8
RACCORDO
100
AcDbLine
 62
250
  6
CONTINUOUS
 10
-22.5855229022
 20
35.7905258898
 11
-15.6665053367
 21
33.6916724985
  0
LINE
  5
31A
100
AcDbEntity
  8
RACCORDO
100
AcDbLine
 62
250
  6
CONTINUOUS
 10
19.3878217531
 20
21.7806896651
 11
20.3856503883
 21
21.475367454
  0
LINE
  5
31B
100
AcDbEntity
  8
RACCORDO
100
AcDbLine
 62
250
  6
CONTINUOUS
 10
-17.2027932322
 20
33.0343612025
 11
1.8258137571
 21
27.1925724385
  0
LINE
  5
31C
100
AcDbEntity
  8
RACCORDO
100
AcDbLine
 62
250
  6
CONTINUOUS
 10
-34.2630585275
 20
38.2406487979
 11
-24.7346067171
 21
35.3314409309
  0
LINE
  5
31D
100
AcDbEntity
  8
RACCORDO
100
AcDbLine
 62
250
  6
CONTINUOUS
 10
-12.5728399255
 20
32.7449779744
 11
11.7140793956
 21
25.284098492
  0
LINE
  5
31E
100
AcDbEntity
  8
RACCORDO
100
AcDbLine
 62
250
  6
CONTINUOUS
 10
1.8258137571
 20
27.1925724385
 11
16.9718938855
 21
22.534479218
  0
LINE
  5
31F
100
AcDbEntity
  8
RACCORDO
100
AcDbLine
 62
250
  6
CONTINUOUS
 10
-24.7346067171
 20
35.3314409309
 11
-23.7395888416
 21
35.024890595
  0
LINE
  5
320
100
AcDbEntity
  8
RACCORDO
100
AcDbLine
 62
250
  6
CONTINUOUS
 10
17.6084417086
 20
23.4509148305
 11
18.9899973363
 21
23.0231257513
  0
LINE
  5
321
100
AcDbEntity
  8
RACCORDO
100
AcDbLine
 62
250
  6
CONTINUOUS
 10
11.7140793956
 20
25.284098492
 11
15.3330800445
 21
24.1601429779
  0
LINE
  5
322
100
AcDbEntity
  8
RACCORDO
100
AcDbLine
 62
250
  6
CONTINUOUS
 10
15.3330800445
 20
24.1601429779
 11
17.6084417086
 21
23.4509148305
  0
LINE
  5
323
100
AcDbEntity
  8
RACCORDO
100
AcDbLine
 62
250
  6
CONTINUOUS
 10
20.3856503883
 20
21.475367454
 11
29.990972132
 21
18.5088615053
  0
LINE
  5
324
100
AcDbEntity
  8
RACCORDO
100
AcDbLine
 62
250
  6
CONTINUOUS
 10
-23.5338254526
 20
36.0850945945
 11
-22.5855229022
 21
35.7905258898
  0
LINE
  5
325
100
AcDbEntity
  8
RACCORDO
100
AcDbLine
 62
250
  6
CONTINUOUS
 10
16.9718938855
 20
22.534479218
 11
19.3878217531
 21
21.7806896651
  0
LINE
  5
326
100
AcDbEntity
  8
RACCORDO
100
AcDbLine
 62
250
  6
CONTINUOUS
 10
-25.5457836967
 20
36.7131472108
 11
-23.5338254526
 21
36.0850945945
  0
LWPOLYLINE
  5
327
100
AcDbEntity
  8
RACCORDO
100
AcDbPolyline
 62
250
  6
CONTINUOUS
 90
3
 70
0
 10
29.990972132
 20
18.5088615053
 10
30.0328887513
 20
18.4955753625
 10
30.0737349543
 20
18.4821130412
  0
LINE
  5
328
100
AcDbEntity
  8
RACCORDO
100
AcDbLine
 62
250
  6
CONTINUOUS
 10
30.432907963
 20
18.3617804884
 11
30.5194110325
 21
18.3343655691
  0
LINE
  5
329
100
AcDbEntity
  8
RACCORDO
100
AcDbLine
 62
250
  6
CONTINUOUS
 10
-27.0781166048
 20
37.2008405458
 11
-25.5457836967
 21
36.7131472108
  0
LINE
  5
32A
100
AcDbEntity
  8
RACCORDO
100
AcDbLine
 62
250
  6
CONTINUOUS
 10
-34.0490362772
 20
39.4486106358
 11
-27.0781166048
 21
37.2008405458
  0
LINE
  5
32B
100
AcDbEntity
  8
RACCORDO
100
AcDbLine
 62
250
  6
CONTINUOUS
 10
-34.1584445485
 20
39.4847875543
 11
-34.0490362772
 21
39.4486106358
  0
LWPOLYLINE
  5
32C
100
AcDbEntity
  8
RACCORDO
100
AcDbPolyline
 62
250
  6
CONTINUOUS
 90
3
 70
0
 10
-34.3526094742
 20
39.5503313171
 10
-34.3120364764
 20
39.5365129911
 10
-34.1584445485
 20
39.4847875543
  0
LINE
  5
32D
100
AcDbEntity
  8
RACCORDO
100
AcDbLine
 62
250
  6
CONTINUOUS
 10
30.0737349543
 20
18.4821130412
 11
30.1533280135
 21
18.4550803154
  0
LWPOLYLINE
  5
32E
100
AcDbEntity
  8
RACCORDO
100
AcDbPolyline
 62
250
  6
CONTINUOUS
 90
22
 70
0
 10
30.8789055269
 20
19.5183650204
 10
31.0776464591
 20
19.4503358132
 10
31.275451983
 20
19.3696977375
 10
31.4712769665
 20
19.2769407646
 10
31.6640110565
 20
19.1726595248
 10
31.852696222
 20
19.0574288373
 10
32.0365186813
 20
18.9317648405
 10
32.2146981292
 20
18.7961723505
 10
32.3859960343
 20
18.6515606565
 10
32.548986901
 20
18.4991631652
 10
32.7026034469
 20
18.3400784456
 10
32.8462641318
 20
18.1750271756
 10
32.9793753272
 20
18.0047614804
 10
33.1011953825
 20
17.8302463746
 10
33.211070682
 20
17.6524110854
 10
33.3085433377
 20
17.4719538968
 10
33.3930846392
 20
17.2896865011
 10
33.4640634489
 20
17.1067513926
 10
33.5209554983
 20
16.9243445742
 10
33.5633948082
 20
16.7435096024
 10
33.5911266321
 20
16.5651362845
 10
33.6039498673
 20
16.3901657151
  0
LWPOLYLINE
  5
32F
100
AcDbEntity
  8
RACCORDO
100
AcDbPolyline
 62
250
  6
CONTINUOUS
 90
22
 70
0
 10
30.5194138417
 20
18.3343686664
 10
30.6597050305
 20
18.2858179976
 10
30.7990796873
 20
18.2286760594
 10
30.9367140607
 20
18.1633284727
 10
31.0718199458
 20
18.0901971045
 10
31.2038070386
 20
18.0096525917
 10
31.3321887377
 20
17.9219799671
 10
31.4564674436
 20
17.8274741237
 10
31.5758215126
 20
17.7267430309
 10
31.6893038815
 20
17.6205818131
 10
31.7961948674
 20
17.5097109429
 10
31.8961504212
 20
17.3946043455
 10
31.9888109454
 20
17.2757102764
 10
32.0736742296
 20
17.153647559
 10
32.1503502001
 20
17.0290377736
 10
32.2185763681
 20
16.9023034625
 10
32.277990772
 20
16.7739644345
 10
32.3282036648
 20
16.6447649153
 10
32.3689046774
 20
16.5154591607
 10
32.3998417096
 20
16.3867197066
 10
32.4208495361
 20
16.2591790039
 10
32.4318056415
 20
16.1335557784
  0
LWPOLYLINE
  5
330
100
AcDbEntity
  8
RACCORDO
100
AcDbPolyline
 62
250
  6
CONTINUOUS
 90
6
 70
0
 10
30.1533280135
 20
18.4550803154
 10
30.2317205479
 20
18.427950962
 10
30.2709751227
 20
18.4145505964
 10
30.3105398701
 20
18.4014123041
 10
30.3503567306
 20
18.3884037776
 10
30.432907963
 20
18.3617804884
  0
LINE
  5
331
100
AcDbEntity
  8
RACCORDO
100
AcDbLine
 62
250
  6
CONTINUOUS
 10
32.4446828313
 20
15.9042575028
 11
32.4517331187
 21
15.8082781802
  0
LWPOLYLINE
  5
332
100
AcDbEntity
  8
RACCORDO
100
AcDbPolyline
 62
250
  6
CONTINUOUS
 90
6
 70
0
 10
32.4517331187
 20
15.8082781802
 10
32.4559360352
 20
15.7468247838
 10
32.4576053748
 20
15.7163657037
 10
32.4586962786
 20
15.685833414
 10
32.4594120734
 20
15.6551749679
 10
32.5889000216
 20
11.149923297
  0
LINE
  5
333
100
AcDbEntity
  8
RACCORDO
100
AcDbLine
 62
250
  6
CONTINUOUS
 10
32.4402966227
 20
15.9733470968
 11
32.4446828313
 21
15.9042575028
  0
LINE
  5
334
100
AcDbEntity
  8
RACCORDO
100
AcDbLine
 62
250
  6
CONTINUOUS
 10
32.4360039229
 20
16.0494953687
 11
32.4402966227
 21
15.9733470968
  0
LINE
  5
335
100
AcDbEntity
  8
RACCORDO
100
AcDbLine
 62
250
  6
CONTINUOUS
 10
32.4318043152
 20
16.1335534128
 11
32.4360039229
 21
16.0494953687
  0
LINE
  5
336
100
AcDbEntity
  8
RACCORDO
100
AcDbLine
 62
250
  6
CONTINUOUS
 10
35.0102090527
 20
-40.2514138568
 11
35.0166193964
 21
-40.396926406
  0
LINE
  5
337
100
AcDbEntity
  8
RACCORDO
100
AcDbLine
 62
250
  6
CONTINUOUS
 10
35.0065540829
 20
-40.1576000238
 11
35.0102090527
 21
-40.2514138568
  0
LINE
  5
338
100
AcDbEntity
  8
RACCORDO
100
AcDbLine
 62
250
  6
CONTINUOUS
 10
35.002615722
 20
-40.0414981114
 11
35.0065540829
 21
-40.1576000238
  0
LINE
  5
339
100
AcDbEntity
  8
RACCORDO
100
AcDbLine
 62
250
  6
CONTINUOUS
 10
34.8008628268
 20
-33.0812342401
 11
35.002615722
 21
-40.0414981114
  0
LINE
  5
33A
100
AcDbEntity
  8
RACCORDO
100
AcDbLine
 62
250
  6
CONTINUOUS
 10
32.5889000216
 20
11.149923297
 11
32.7046420987
 21
6.8449926642
  0
LINE
  5
33B
100
AcDbEntity
  8
RACCORDO
100
AcDbLine
 62
250
  6
CONTINUOUS
 10
33.8491656259
 20
-40.2118312961
 11
33.8507522098
 21
-40.2728657326
  0
LINE
  5
33C
100
AcDbEntity
  8
0
100
AcDbLine
 62
7
  6
CONTINUOUS
 10
35.5660252106
 20
-8.2823969323
 11
35.6841265406
 21
-13.0298845554
  0
LINE
  5
33D
100
AcDbEntity
  8
0
100
AcDbLine
 62
7
  6
CONTINUOUS
 10
37.4032854968
 20
-38.2623522455
 11
36.7704510726
 21
-12.8234042084
  0
LINE
  5
33E
100
AcDbEntity
  8
0
100
AcDbLine
 62
7
  6
CONTINUOUS
 10
36.6083620767
 20
-6.3076816351
 11
35.9755276525
 21
19.131266402
  0
LINE
  5
33F
100
AcDbEntity
  8
RACCORDO
100
AcDbLine
 62
250
  6
CONTINUOUS
 10
32.7046420987
 20
6.8449926642
 11
33.0368369982
 21
-6.3578231395
  0
LWPOLYLINE
  5
340
100
AcDbEntity
  8
RACCORDO
100
AcDbPolyline
 62
250
  6
CONTINUOUS
 90
3
 70
0
 10
34.3616235951
 20
-15.5607496168
 10
34.4517412439
 20
-19.2186872998
 10
34.8008628268
 20
-33.0812342401
  0
LINE
  5
341
100
AcDbEntity
  8
RACCORDO
100
AcDbLine
 62
250
  6
CONTINUOUS
 10
33.0368369982
 20
-6.3578231395
 11
33.7117196311
 21
-33.7793760127
  0
LINE
  5
342
100
AcDbEntity
  8
RACCORDO
100
AcDbLine
 62
250
  6
CONTINUOUS
 10
33.7117196311
 20
-33.7793760127
 11
33.7953820991
 21
-37.6010059237
  0
LINE
  5
343
100
AcDbEntity
  8
RACCORDO
100
AcDbLine
 62
250
  6
CONTINUOUS
 10
33.7953820991
 20
-37.6010059237
 11
33.8491656259
 21
-40.2118312961
  0
LINE
  5
344
100
AcDbEntity
  8
RACCORDO
100
AcDbLine
 62
250
  6
CONTINUOUS
 10
33.6064319319
 20
16.1115189096
 11
34.3616235951
 21
-15.5607496168
  0
LWPOLYLINE
  5
345
100
AcDbEntity
  8
RACCORDO
100
AcDbPolyline
 62
250
  6
CONTINUOUS
 90
3
 70
0
 10
33.8507522098
 20
-40.2728657326
 10
33.8511567784
 20
-40.3027982645
 10
33.8509698509
 20
-40.3324520175
  0
LINE
  5
346
100
AcDbEntity
  8
RACCORDO
100
AcDbLine
 62
250
  6
CONTINUOUS
 10
33.6049310036
 20
16.2376398682
 11
33.6064319319
 21
16.1115189096
  0
LINE
  5
347
100
AcDbEntity
  8
RACCORDO
100
AcDbLine
 62
250
  6
CONTINUOUS
 10
33.6039498673
 20
16.3901657151
 11
33.6049310036
 21
16.2376398682
  0
LINE
  5
348
100
AcDbEntity
  8
RACCORDO
100
AcDbLine
 62
250
  6
CONTINUOUS
 10
33.8457574389
 20
-40.6215829264
 11
33.845626021
 21
-40.6998570669
  0
LINE
  5
349
100
AcDbEntity
  8
RACCORDO
100
AcDbLine
 62
250
  6
CONTINUOUS
 10
33.8463496399
 20
-40.5498824262
 11
33.8457574389
 21
-40.6215829264
  0
LINE
  5
34A
100
AcDbEntity
  8
RACCORDO
100
AcDbLine
 62
250
  6
CONTINUOUS
 10
33.8509698509
 20
-40.3324520175
 11
33.8497521792
 21
-40.392026837
  0
LWPOLYLINE
  5
34B
100
AcDbEntity
  8
RACCORDO
100
AcDbPolyline
 62
250
  6
CONTINUOUS
 90
10
 70
0
 10
35.0166193964
 20
-40.396926406
 10
35.012443206
 20
-40.569435169
 10
34.9933096222
 20
-40.7363719037
 10
34.9593718424
 20
-40.8967710077
 10
34.9108424525
 20
-41.0497578309
 10
34.8480363324
 20
-41.1943976784
 10
34.7714141522
 20
-41.3297334596
 10
34.6815446647
 20
-41.4549301121
 10
34.5789251899
 20
-41.5694295414
 10
34.5204027146
 20
-41.6248283047
  0
LWPOLYLINE
  5
34C
100
AcDbEntity
  8
RACCORDO
100
AcDbPolyline
 62
250
  6
CONTINUOUS
 90
4
 70
0
 10
33.8497521792
 20
-40.392026837
 10
33.8481249896
 20
-40.4527568291
 10
33.8473706818
 20
-40.484154989
 10
33.8463496399
 20
-40.5498824262
  0
LWPOLYLINE
  5
34D
100
AcDbEntity
  8
RACCORDO
100
AcDbPolyline
 62
250
  6
CONTINUOUS
 90
22
 70
0
 10
33.8456275642
 20
-40.6998540832
 10
33.8406734661
 20
-40.8154109977
 10
33.8256331366
 20
-40.9275225146
 10
33.8005907255
 20
-41.0354349647
 10
33.7656849162
 20
-41.1385363387
 10
33.7211339269
 20
-41.2362549645
 10
33.6672050317
 20
-41.3279779756
 10
33.6042502969
 20
-41.4131585095
 10
33.5326112998
 20
-41.4914562607
 10
33.4525406238
 20
-41.5625678752
 10
33.3644126145
 20
-41.6260892926
 10
33.2687031466
 20
-41.6817101492
 10
33.1657486238
 20
-41.7292027027
 10
33.0558724101
 20
-41.7683105379
 10
32.9397749921
 20
-41.7987703428
 10
32.8183815696
 20
-41.8203778076
 10
32.692500369
 20
-41.833045293
 10
32.5626191165
 20
-41.8368337312
 10
32.4292091633
 20
-41.8318127965
 10
32.292849854
 20
-41.8180283271
 10
32.1543326215
 20
-41.7956274039
 10
32.0144772282
 20
-41.7648406196
  0
LINE
  5
34E
100
AcDbEntity
  8
0
100
AcDbLine
 62
7
  6
CONTINUOUS
 10
36.3865716911
 20
-6.9291016892
 11
35.7878155962
 21
-7.6609768782
  0
LWPOLYLINE
  5
34F
100
AcDbEntity
  8
RACCORDO
100
AcDbPolyline
 62
250
  6
CONTINUOUS
 90
13
 70
0
 10
34.2738893633
 20
-12.0403673152
 10
34.2138949983
 20
-12.095365999
 10
34.1452873887
 20
-12.1462413559
 10
34.0688167404
 20
-12.1924370776
 10
33.9853192391
 20
-12.2334480264
 10
33.8957079074
 20
-12.2688257588
 10
33.8009626209
 20
-12.2981834286
 10
33.7021193939
 20
-12.3212000178
 10
33.6002590501
 20
-12.3376238463
 10
33.496495405
 20
-12.3472753237
 10
33.391963086
 20
-12.350048914
 10
33.2878051256
 20
-12.3459142885
 10
33.185160463
 20
-12.3349166584
  0
LINE
  5
350
100
AcDbEntity
  8
0
100
AcDbLine
 62
7
  6
CONTINUOUS
 10
35.9250399878
 20
-13.1771814889
 11
36.5295376253
 21
-12.6761072749
  0
LINE
  5
351
100
AcDbEntity
  8
RACCORDO
100
AcDbLine
 62
7
  6
CONTINUOUS
 10
33.2560426755
 20
22.2658912924
 11
-32.6738420012
 21
42.5123201508
  0
LWPOLYLINE
  5
352
100
AcDbEntity
  8
RACCORDO
100
AcDbPolyline
 62
250
  6
CONTINUOUS
 90
13
 70
0
 10
35.0165969074
 20
-40.396917857
 10
34.9522296669
 20
-40.4581569461
 10
34.8780752867
 20
-40.5146066179
 10
34.7950602861
 20
-40.565561564
 10
34.7042218927
 20
-40.6103851295
 10
34.6066950836
 20
-40.6485172677
 10
34.5036984039
 20
-40.6794815374
 10
34.3965187417
 20
-40.7028910558
 10
34.2864952492
 20
-40.718453333
 10
34.1750026109
 20
-40.7259739257
 10
34.0634338674
 20
-40.7253588669
 10
33.9531830101
 20
-40.7166158401
 10
33.8456275642
 20
-40.6998540832
  0
LINE
  5
353
100
AcDbEntity
  8
RACCORDO
100
AcDbLine
 62
250
  6
CONTINUOUS
 10
35.0166193964
 20
-40.396926406
 11
37.4032854968
 21
-38.2623522455
  0
LINE
  5
354
100
AcDbEntity
  8
RACCORDO
100
AcDbLine
 62
7
  6
CONTINUOUS
 10
34.5200998252
 20
-41.6250992781
 11
36.9151064951
 21
-39.483065522
  0
ELLIPSE
  5
355
100
AcDbEntity
  8
RACCORDO
100
AcDbEllipse
 62
7
  6
CONTINUOUS
 10
-1.3247906055
 20
-17.8219596401
 30
0.0
 11
0.0993376304
 21
0.2832828308
 31
0.0
 40
0.3985724632
 41
0.7076711624
 42
0.76003104
  0
ELLIPSE
  5
356
100
AcDbEntity
  8
RACCORDO
100
AcDbEllipse
 62
7
  6
CONTINUOUS
 10
3.8963539498
 20
-19.9639214757
 30
0.0
 11
0.0774387118
 21
0.2900233438
 31
0.0
 40
0.3268599536
 41
-2.4093475932
 42
-2.3569877156
  0
ELLIPSE
  5
357
100
AcDbEntity
  8
RACCORDO
100
AcDbEllipse
 62
7
  6
CONTINUOUS
 10
3.8828522982
 20
-19.4211763244
 30
0.0
 11
0.0774387118
 21
0.2900233438
 31
0.0
 40
0.3268599536
 41
0.6798851829
 42
0.7322450604
  0
ELLIPSE
  5
358
100
AcDbEntity
  8
0
100
AcDbEllipse
 62
7
  6
CONTINUOUS
 10
36.3422794019
 20
-6.5803310906
 30
0.0
 11
0.1788355099
 21
0.4679165299
 31
0.0
 40
0.421567395
 41
-2.2380117126
 42
-0.7981150797
  0
ELLIPSE
  5
359
100
AcDbEntity
  8
0
100
AcDbEllipse
 62
7
  6
CONTINUOUS
 10
35.8321078853
 20
-8.0097474768
 30
0.0
 11
0.1788355099
 21
0.4679165299
 31
0.0
 40
0.421567395
 41
0.903580941
 42
2.3434775739
  0
ELLIPSE
  5
35A
100
AcDbEntity
  8
RACCORDO
100
AcDbEllipse
 62
7
  6
CONTINUOUS
 10
34.7206288883
 20
-37.4209334252
 30
0.0
 11
2.3524271986
 21
-1.8959547758
 31
0.0
 40
0.6808060394
 41
-0.1113174541
 42
0.5234929292
  0
ELLIPSE
  5
35B
100
AcDbEntity
  8
RACCORDO
100
AcDbEllipse
 62
7
  6
CONTINUOUS
 10
33.2937534896
 20
19.9372123012
 30
0.0
 11
2.3555058179
 21
-1.8603884235
 31
0.0
 40
0.6898063351
 41
0.5205065929
 42
2.0837067232
  0
ELLIPSE
  5
35C
100
AcDbEntity
  8
RACCORDO
100
AcDbEllipse
 62
7
  6
CONTINUOUS
 10
-32.5953823085
 20
40.1711275737
 30
0.0
 11
2.3524271986
 21
-1.8959547758
 31
0.0
 40
0.6808060394
 41
2.1018854526
 42
3.2529101101
  0
ELLIPSE
  5
35D
100
AcDbEntity
  8
0
100
AcDbEllipse
 62
7
  6
CONTINUOUS
 10
36.5043683978
 20
-13.0960536639
 30
0.0
 11
0.1788355099
 21
0.4679165299
 31
0.0
 40
0.421567395
 41
5.4850702275
 42
6.9249668604
  0
ELLIPSE
  5
35E
100
AcDbEntity
  8
0
100
AcDbEllipse
 62
7
  6
CONTINUOUS
 10
35.9502092153
 20
-12.7572350999
 30
0.0
 11
0.1788355099
 21
0.4679165299
 31
0.0
 40
0.421567395
 41
2.3434775739
 42
3.7833742068
  0
ENDSEC
  0
SECTION
  2
OBJECTS
  0
DICTIONARY
  5
C
100
AcDbDictionary
280
0
281
1
  3
ACAD_GROUP
350
D
  3
ACAD_MLINESTYLE
350
17
  3
ACAD_LAYOUT
350
1A
  3
ACAD_PLOTSETTINGS
350
19
  3
ACAD_PLOTSTYLENAME
350
E
  0
DICTIONARY
  5
D
102
{ACAD_REACTORS
330
C
102
}
100
AcDbDictionary
280
0
281
1
  0
ACDBDICTIONARYWDFLT
  5
E
102
{ACAD_REACTORS
330
C
102
}
100
AcDbDictionary
281
1
  3
Normal
350
F
100
AcDbDictionaryWithDefault
340
F
  0
DICTIONARY
  5
17
102
{ACAD_REACTORS
330
C
102
}
100
AcDbDictionary
280
0
281
1
  3
Standard
350
18
  0
DICTIONARY
  5
19
102
{ACAD_REACTORS
330
C
102
}
100
AcDbDictionary
281
1
  0
DICTIONARY
  5
1A
102
{ACAD_REACTORS
330
C
102
}
100
AcDbDictionary
281
1
  3
Model
350
35F
  3
Layout1
350
360
  0
ACDBPLACEHOLDER
  5
F
102
{ACAD_REACTORS
330
E
102
}
  0
MLINESTYLE
  5
18
102
{ACAD_REACTORS
330
17
102
}
100
AcDbMlineStyle
  2
STANDARD
 70
0
  3

 62
256
 51
90.0
 52
90.0
 71
2
 49
0.5
 62
256
  6
BYLAYER
 49
-0.5
 62
256
  6
BYLAYER
  0
LAYOUT
  5
35F
102
{ACAD_REACTORS
330
1A
102
}
100
AcDbPlotSettings
  1

  2
none_device
  4
ISO_A4_(297.00_x_210.00_MM)
  6

 40
0.0
 41
0.0
 42
0.0
 43
0.0
 44
297.0
 45
210.0
 46
0.0
 47
0.0
 48
0.0
 49
0.0
140
0.0
141
0.0
142
1.0
143
1.0
 70
1024
 72
1
 73
0
 74
0
  7

 75
0
147
1.0
148
0.0
149
0.0
100
AcDbLayout
  1
Model
 70
0
 71
0
 10
0.0
 20
0.0
 11
297.0
 21
210.0
 12
0.0
 22
0.0
 32
0.0
 14
0.0
 24
0.0
 34
0.0
 15
0.0
 25
0.0
 35
0.0
146
0.0
 13
0.0
 23
0.0
 33
0.0
 16
1.0
 26
0.0
 36
0.0
 17
0.0
 27
1.0
 37
0.0
 76
0
330
21D
345
0
346
0
  0
LAYOUT
  5
360
102
{ACAD_REACTORS
330
1A
102
}
100
AcDbPlotSettings
  1

  2
none_device
  4
ISO_A4_(297.00_x_210.00_MM)
  6

 40
0.0
 41
0.0
 42
0.0
 43
0.0
 44
297.0
 45
210.0
 46
0.0
 47
0.0
 48
0.0
 49
0.0
140
0.0
141
0.0
142
1.0
143
1.0
 70
0
 72
1
 73
0
 74
0
  7

 75
0
147
1.0
148
0.0
149
0.0
100
AcDbLayout
  1
Layout1
 70
0
 71
1
 10
0.0
 20
0.0
 11
297.0
 21
210.0
 12
0.0
 22
0.0
 32
0.0
 14
0.0
 24
0.0
 34
0.0
 15
0.0
 25
0.0
 35
0.0
146
0.0
 13
0.0
 23
0.0
 33
0.0
 16
1.0
 26
0.0
 36
0.0
 17
0.0
 27
1.0
 37
0.0
 76
0
330
21E
345
0
346
0
  0
ENDSEC
  0
EOF
