  0
SECTION
  2
HEADER
  9
$ACADVER
  1
AC1024
  9
$DWGCODEPAGE
  3
ANSI_1252
  9
$EXTMAX
 10
297.0
 20
210.0
 30
0.0
  9
$EXTMIN
 10
0.0
 20
0.0
 30
0.0
  9
$LIMMIN
 10
0.0
 20
0.0
  9
$LIMMAX
 10
297.0
 20
210.0
  9
$VIEWCTR
 10
148.5
 20
105.0
  9
$VIEWSIZE
 40
210.0
  9
$CLAYER
  8
0
  9
$LTSCALE
 40
16.335
  9
$CELTYPE
  6
BYLAYER
  9
$DIMSCALE
 40
1.0
  9
$DIMASZ
 40
3.0
  9
$DIMEXO
 40
0.5
  9
$DIMDLI
 40
11.286
  9
$DIMEXE
 40
1.5
  9
$DIMCEN
 40
2.673
  9
$DIMLFAC
 40
1.0
  9
$DIMBLK
  1
_FILLED
  9
$DIMALT
 70
0
  9
$DIMALTF
 40
0.0393700787
  9
$DIMTXT
 40
3.0
  9
$DIMTOL
 70
1
  9
$DIMLIM
 70
0
  9
$DIMTFAC
 40
1.0
  9
$DIMTP
 40
0.01
  9
$DIMTM
 40
0.01
  9
$DIMGAP
 40
0.625
  9
$DIMDSEP
 70
44
  9
$AUNITS
 70
0
  9
$PDMODE
 70
3
  9
$PDSIZE
 40
3.0
  9
$HANDSEED
  5
3C5
  9
$TILEMODE
 70
1
  9
$MEASUREMENT
 70
1
  9
$INSUNITS
 70
4
  0
ENDSEC
  0
SECTION
  2
CLASSES
  0
CLASS
  1
ACDBDICTIONARYWDFLT
  2
AcDbDictionaryWithDefault
  3
AutoCAD 2000
 90
0
 91
1
280
0
281
0
  0
CLASS
  1
ACDBPLACEHOLDER
  2
AcDbPlaceHolder
  3
AutoCAD 2000
 90
0
 91
1
280
0
281
0
  0
CLASS
  1
LAYOUT
  2
AcDbLayout
  3
AutoCAD 2000
 90
0
 91
0
280
0
281
0
  0
ENDSEC
  0
SECTION
  2
TABLES
  0
TABLE
  2
VPORT
  5
8
100
AcDbSymbolTable
 70
2
  0
VPORT
  5
1F4
100
AcDbSymbolTableRecord
100
AcDbViewportTableRecord
  2
*ACTIVE
 70
0
 10
0.0
 20
0.0
 11
1.0
 21
1.0
 12
148.5
 22
105.0
 13
0.0
 23
0.0
 14
1.0
 24
1.0
 15
0.0
 25
0.0
 16
0.0
 26
0.0
 36
1.0
 17
0.0
 27
0.0
 37
0.0
 40
210.0
 41
1.4142857143
 42
50.0
 43
0.0
 44
0.0
 50
0.0
 51
0.0
 71
0
 72
100
 73
1
 74
1
 75
0
 76
0
 77
0
 78
0
  0
ENDTAB
  0
TABLE
  2
LTYPE
  5
5
100
AcDbSymbolTable
 70
6
  0
LTYPE
  5
14
100
AcDbSymbolTableRecord
100
AcDbLinetypeTableRecord
  2
BYBLOCK
 70
0
  3

 72
65
 73
0
 40
0.0
  0
LTYPE
  5
15
100
AcDbSymbolTableRecord
100
AcDbLinetypeTableRecord
  2
BYLAYER
 70
0
  3

 72
65
 73
0
 40
0.0
  0
LTYPE
  5
16
100
AcDbSymbolTableRecord
100
AcDbLinetypeTableRecord
  2
CONTINUOUS
 70
64
  3
Solid line
 72
65
 73
0
 40
0.0
  0
LTYPE
  5
1F5
100
AcDbSymbolTableRecord
100
AcDbLinetypeTableRecord
  2
CENTER
 70
64
  3
____ _ ____ _ ____ _ ____ _ ____ _ ____ _ ____
 72
65
 73
4
 40
0.6
 49
0.375
 74
0
 49
-0.075
 74
0
 49
0.075
 74
0
 49
-0.075
 74
0
  0
LTYPE
  5
1F6
100
AcDbSymbolTableRecord
100
AcDbLinetypeTableRecord
  2
HIDDEN
 70
64
  3
- - - - - - - - - - - - - - - - - - - -
 72
65
 73
2
 40
0.2
 49
0.1
 74
0
 49
-0.1
 74
0
  0
LTYPE
  5
1F7
100
AcDbSymbolTableRecord
100
AcDbLinetypeTableRecord
  2
PHANTOM
 70
64
  3
_____ _ _ _____ _ _ _____ _ _ _____
 72
65
 73
6
 40
0.8
 49
0.45
 74
0
 49
-0.05
 74
0
 49
0.1
 74
0
 49
-0.05
 74
0
 49
0.1
 74
0
 49
-0.05
 74
0
  0
LTYPE
  5
1F8
100
AcDbSymbolTableRecord
100
AcDbLinetypeTableRecord
  2
DOT
 70
64
  3
. . . . . . . . . . . . . . . . . . . .
 72
65
 73
2
 40
0.2
 49
0.1
 74
0
 49
-0.1
 74
0
  0
LTYPE
  5
1F9
100
AcDbSymbolTableRecord
100
AcDbLinetypeTableRecord
  2
DASHED
 70
64
  3
- - - - - - - - - - - - - - - - - - - -
 72
65
 73
2
 40
0.2
 49
0.1
 74
0
 49
-0.1
 74
0
  0
ENDTAB
  0
TABLE
  2
LAYER
  5
2
100
AcDbSymbolTable
 70
36
  0
LAYER
  5
10
100
AcDbSymbolTableRecord
100
AcDbLayerTableRecord
  2
0
 70
0
 62
7
  6
CONTINUOUS
370
-3
390
F
  0
LAYER
  5
1FA
100
AcDbSymbolTableRecord
100
AcDbLayerTableRecord
  2
DEFAULT_1
 70
0
 62
7
  6
CENTER
370
-3
390
F
  0
LAYER
  5
1FB
100
AcDbSymbolTableRecord
100
AcDbLayerTableRecord
  2
DEFAULT_2
 70
0
 62
7
  6
HIDDEN
370
-3
390
F
  0
LAYER
  5
1FC
100
AcDbSymbolTableRecord
100
AcDbLayerTableRecord
  2
DEFAULT_3
 70
0
 62
7
  6
PHANTOM
370
-3
390
F
  0
LAYER
  5
1FD
100
AcDbSymbolTableRecord
100
AcDbLayerTableRecord
  2
ASSI
 70
0
 62
7
  6
CONTINUOUS
370
-3
390
F
  0
LAYER
  5
1FE
100
AcDbSymbolTableRecord
100
AcDbLayerTableRecord
  2
COORDINATE
 70
0
 62
7
  6
CONTINUOUS
370
-3
390
F
  0
LAYER
  5
1FF
100
AcDbSymbolTableRecord
100
AcDbLayerTableRecord
  2
COORD_ORIGINE
 70
0
 62
7
  6
CONTINUOUS
370
-3
390
F
  0
LAYER
  5
200
100
AcDbSymbolTableRecord
100
AcDbLayerTableRecord
  2
CURVE
 70
0
 62
7
  6
CONTINUOUS
370
-3
390
F
  0
LAYER
  5
201
100
AcDbSymbolTableRecord
100
AcDbLayerTableRecord
  2
DRAFT
 70
0
 62
7
  6
CONTINUOUS
370
-3
390
F
  0
LAYER
  5
202
100
AcDbSymbolTableRecord
100
AcDbLayerTableRecord
  2
MARCHI
 70
0
 62
7
  6
CONTINUOUS
370
-3
390
F
  0
LAYER
  5
203
100
AcDbSymbolTableRecord
100
AcDbLayerTableRecord
  2
NOTE
 70
0
 62
7
  6
CONTINUOUS
370
-3
390
F
  0
LAYER
  5
204
100
AcDbSymbolTableRecord
100
AcDbLayerTableRecord
  2
PIANI
 70
0
 62
7
  6
CONTINUOUS
370
-3
390
F
  0
LAYER
  5
205
100
AcDbSymbolTableRecord
100
AcDbLayerTableRecord
  2
PIANI_ORIGINE
 70
0
 62
7
  6
CONTINUOUS
370
-3
390
F
  0
LAYER
  5
206
100
AcDbSymbolTableRecord
100
AcDbLayerTableRecord
  2
PUNTI
 70
0
 62
7
  6
CONTINUOUS
370
-3
390
F
  0
LAYER
  5
207
100
AcDbSymbolTableRecord
100
AcDbLayerTableRecord
  2
RACCORDO
 70
0
 62
7
  6
CONTINUOUS
370
-3
390
F
  0
LAYER
  5
208
100
AcDbSymbolTableRecord
100
AcDbLayerTableRecord
  2
SCRITTA_VIMAR
 70
0
 62
7
  6
CONTINUOUS
370
-3
390
F
  0
LAYER
  5
209
100
AcDbSymbolTableRecord
100
AcDbLayerTableRecord
  2
SNAPLINE
 70
0
 62
7
  6
CONTINUOUS
370
-3
390
F
  0
LAYER
  5
20A
100
AcDbSymbolTableRecord
100
AcDbLayerTableRecord
  2
SUPERFICI
 70
0
 62
7
  6
CONTINUOUS
370
-3
390
F
  0
LAYER
  5
20B
100
AcDbSymbolTableRecord
100
AcDbLayerTableRecord
  2
TRASH
 70
0
 62
7
  6
CONTINUOUS
370
-3
390
F
  0
LAYER
  5
20C
100
AcDbSymbolTableRecord
100
AcDbLayerTableRecord
  2
XSEC_DATUMS
 70
0
 62
7
  6
CONTINUOUS
370
-3
390
F
  0
ENDTAB
  0
TABLE
  2
STYLE
  5
3
100
AcDbSymbolTable
 70
1
  0
STYLE
  5
11
100
AcDbSymbolTableRecord
100
AcDbTextStyleTableRecord
  2
STANDARD
 70
0
 40
0.0
 41
0.8
 50
0.0
 71
0
 42
0.2
  3
txt
  4

  0
STYLE
  5
20D
100
AcDbSymbolTableRecord
100
AcDbTextStyleTableRecord
  2
TEXTSTYLE_1
 70
0
 40
0.0
 41
0.8
 50
0.0
 71
0
 42
0.2
  3
gdt
  4

  0
ENDTAB
  0
TABLE
  2
VIEW
  5
6
100
AcDbSymbolTable
 70
0
  0
ENDTAB
  0
TABLE
  2
UCS
  5
7
100
AcDbSymbolTable
 70
0
  0
ENDTAB
  0
TABLE
  2
APPID
  5
9
100
AcDbSymbolTable
 70
1
  0
APPID
  5
20E
100
AcDbSymbolTableRecord
100
AcDbRegAppTableRecord
  2
ACAD
 70
0
  0
ENDTAB
  0
TABLE
  2
BLOCK_RECORD
  5
1
100
AcDbSymbolTable
 70
0
  0
BLOCK_RECORD
  5
20F
100
AcDbSymbolTableRecord
100
AcDbBlockTableRecord
  2
*Model_Space
  0
BLOCK_RECORD
  5
210
100
AcDbSymbolTableRecord
100
AcDbBlockTableRecord
  2
*Paper_Space
  0
BLOCK_RECORD
  5
211
100
AcDbSymbolTableRecord
100
AcDbBlockTableRecord
  2
_FILLED
  0
ENDTAB
  0
TABLE
  2
DIMSTYLE
  5
A
100
AcDbSymbolTable
 70
1
100
AcDbDimStyleTable
 71
0
  0
DIMSTYLE
105
212
100
AcDbSymbolTableRecord
100
AcDbDimStyleTableRecord
  2
STANDARD
 70
0
  3

  4

 40
1.0
 41
3.0
 42
0.5
 43
0.38
 44
1.5
 45
0.0
 46
0.0
 47
0.01
 48
0.01
140
3.0
141
0.09
142
0.0
143
25.4
144
1.0
145
0.0
146
1.0
147
0.625
 71
1
 72
0
 73
0
 74
0
 75
0
 76
0
 77
1
 78
8
 79
2
170
0
171
1
172
0
173
0
174
0
175
0
176
0
177
0
178
0
270
2
179
2
271
2
272
2
273
2
274
2
275
0
280
0
281
0
282
0
283
1
284
8
285
0
286
0
287
3
288
0
340
11
278
44
341
211
342
211
343
211
344
211
  0
ENDTAB
  0
ENDSEC
  0
SECTION
  2
BLOCKS
  0
BLOCK
  5
20
100
AcDbEntity
  8
0
100
AcDbBlockBegin
  2
*Model_Space
 70
0
 10
0.0
 20
0.0
 30
0.0
  3
*Model_Space
  1

  0
ENDBLK
  5
21
100
AcDbEntity
  8
0
100
AcDbBlockEnd
  0
BLOCK
  5
1C
100
AcDbEntity
  8
0
100
AcDbBlockBegin
  2
*Paper_Space
 70
0
 10
0.0
 20
0.0
 30
0.0
  3
*Paper_Space
  1

  0
ENDBLK
  5
1D
100
AcDbEntity
  8
0
100
AcDbBlockEnd
  0
BLOCK
  5
213
100
AcDbEntity
  8
0
100
AcDbBlockBegin
  2
_FILLED
 70
64
 10
0.0
 20
0.0
  3
_FILLED
  1

  0
SOLID
  5
214
100
AcDbEntity
  8
0
  6
BYBLOCK
 62
0
100
AcDbTrace
 10
0.0
 20
0.0
 11
-1.0
 21
0.3166666667
 12
-1.0
 22
-0.3166666667
 13
-1.0
 23
-0.3166666667
  0
ENDBLK
  5
215
100
AcDbEntity
  8
0
  6
BYBLOCK
 62
0
100
AcDbBlockEnd
  0
ENDSEC
  0
SECTION
  2
ENTITIES
  0
LWPOLYLINE
  5
216
100
AcDbEntity
  8
RACCORDO
100
AcDbPolyline
 62
250
  6
CONTINUOUS
 90
16
 70
0
 10
-37.0301348685
 20
38.8756387104
 10
-36.9521557415
 20
38.9837782561
 10
-36.8499914828
 20
39.0985930208
 10
-36.7352873268
 20
39.2022085281
 10
-36.6087790381
 20
39.2940174566
 10
-36.4711227697
 20
39.3735888282
 10
-36.3228232391
 20
39.4405996621
 10
-36.1644224514
 20
39.4946939907
 10
-35.996994595
 20
39.5353934161
 10
-35.8219460149
 20
39.5623279177
 10
-35.6405199647
 20
39.5753743101
 10
-35.4535750404
 20
39.5745208039
 10
-35.2620457386
 20
39.5597431492
 10
-35.0669764481
 20
39.5310866276
 10
-34.8695321511
 20
39.4887041398
 10
-34.6708433203
 20
39.4328066827
  0
LWPOLYLINE
  5
217
100
AcDbEntity
  8
RACCORDO
100
AcDbPolyline
 62
7
  6
CONTINUOUS
 90
9
 70
0
 10
-37.03114599
 20
38.874052821
 10
-37.0526591621
 20
38.8402148756
 10
-37.1365722501
 20
38.6911638902
 10
-37.208208052
 20
38.5335297996
 10
-37.26693043
 20
38.3681858043
 10
-37.3122037732
 20
38.1960183338
 10
-37.3435556547
 20
38.018131684
 10
-37.3607776281
 20
37.8354713625
 10
-37.3643249334
 20
37.684542036
  0
LINE
  5
218
100
AcDbEntity
  8
RACCORDO
100
AcDbLine
 62
7
  6
CONTINUOUS
 10
-37.0309872402
 20
38.8743284434
 11
-35.0305898464
 21
41.9456208005
  0
LINE
  5
219
100
AcDbEntity
  8
RACCORDO
100
AcDbLine
 62
250
  6
CONTINUOUS
 10
-34.6708433203
 20
39.4328066827
 11
-32.6673781743
 21
42.508807497
  0
LWPOLYLINE
  5
21A
100
AcDbEntity
  8
RACCORDO
100
AcDbPolyline
 62
250
  6
CONTINUOUS
 90
13
 70
0
 10
-34.6708433203
 20
39.4328066826
 10
-34.7263310329
 20
39.3595872975
 10
-34.7805263642
 20
39.2775627905
 10
-34.8327184436
 20
39.1878090927
 10
-34.8822226775
 20
39.0915035199
 10
-34.9283897288
 20
38.9899093297
 10
-34.970614034
 20
38.8843591506
 10
-35.0083417474
 20
38.7762375026
 10
-35.0410780059
 20
38.6669626361
 10
-35.0683934194
 20
38.5579679282
 10
-35.089929704
 20
38.4506830811
 10
-35.1054043809
 20
38.3465153686
 10
-35.1146144824
 20
38.2468311765
  0
LWPOLYLINE
  5
21B
100
AcDbEntity
  8
RACCORDO
100
AcDbPolyline
 62
7
  6
CONTINUOUS
 90
18
 70
0
 10
-35.9459068851
 20
-19.3334596837
 10
-35.9242791645
 20
-19.5683827137
 10
-35.8828503955
 20
-19.7916518627
 10
-35.8211558009
 20
-20.0155627679
 10
-35.739620308
 20
-20.2386843715
 10
-35.6390503942
 20
-20.4589181903
 10
-35.5199316748
 20
-20.6753034375
 10
-35.3829198226
 20
-20.8866386588
 10
-35.2295942582
 20
-21.0904015928
 10
-35.0608999047
 20
-21.2855268956
 10
-34.8777879648
 20
-21.4708855567
 10
-34.6826486862
 20
-21.64409414
 10
-34.4768445886
 20
-21.8042322268
 10
-34.2616038666
 20
-21.950348284
 10
-34.0397005155
 20
-22.0807335749
 10
-33.8129561772
 20
-22.1946029586
 10
-33.5822383379
 20
-22.2916677609
 10
-33.4530376894
 20
-22.3381025069
  0
LWPOLYLINE
  5
21C
100
AcDbEntity
  8
RACCORDO
100
AcDbPolyline
 62
250
  6
CONTINUOUS
 90
22
 70
0
 10
-36.9386564972
 20
37.1911666506
 10
-36.9306873658
 20
37.3082478984
 10
-36.9134020181
 20
37.4221362707
 10
-36.886633895
 20
37.532112585
 10
-36.850234412
 20
37.6377661385
 10
-36.8042513616
 20
37.7382411487
 10
-36.7490836531
 20
37.8323203813
 10
-36.6851509722
 20
37.9193540241
 10
-36.6126938756
 20
37.9991278685
 10
-36.5320662663
 20
38.0712187668
 10
-36.4437246789
 20
38.1352060201
 10
-36.3481154019
 20
38.1908448778
 10
-36.245542934
 20
38.2379362943
 10
-36.1363267967
 20
38.2762187685
 10
-36.0212023983
 20
38.3054005622
 10
-35.9011085268
 20
38.3252592172
 10
-35.7768506908
 20
38.3356837155
 10
-35.6489809753
 20
38.3366751116
 10
-35.5180940274
 20
38.3282498325
 10
-35.3848493684
 20
38.3104072151
 10
-35.2500590238
 20
38.283214347
 10
-35.1146172859
 20
38.2468286342
  0
LWPOLYLINE
  5
21D
100
AcDbEntity
  8
RACCORDO
100
AcDbPolyline
 62
250
  6
CONTINUOUS
 90
9
 70
0
 10
-35.9458935638
 20
-19.3350199318
 10
-35.9342229469
 20
-19.4165560393
 10
-35.9099187739
 20
-19.4893550553
 10
-35.8729156222
 20
-19.559534958
 10
-35.823701428
 20
-19.6261703015
 10
-35.7629251458
 20
-19.6883823793
 10
-35.6913881916
 20
-19.7453508118
 10
-35.6100338744
 20
-19.7963243648
 10
-35.5199349582
 20
-19.8406308541
  0
LWPOLYLINE
  5
21E
100
AcDbEntity
  8
RACCORDO
100
AcDbPolyline
 62
250
  6
CONTINUOUS
 90
9
 70
0
 10
-36.6830118015
 20
9.1363666535
 10
-36.6761502969
 20
9.0719729214
 10
-36.6577570683
 20
9.0054205269
 10
-36.6281117441
 20
8.9406666059
 10
-36.5875566434
 20
8.8784587483
 10
-36.5365600635
 20
8.8195151441
 10
-36.4757108723
 20
8.7645162901
 10
-36.4057117084
 20
8.7140971318
 10
-36.3273708676
 20
8.6688397318
  0
LWPOLYLINE
  5
21F
100
AcDbEntity
  8
RACCORDO
100
AcDbPolyline
 62
250
  6
CONTINUOUS
 90
9
 70
0
 10
-35.5199349582
 20
-19.8406308541
 10
-35.5285874371
 20
-19.7436400684
 10
-35.5366664705
 20
-19.6415755885
 10
-35.5441150197
 20
-19.5344210263
 10
-35.5510171354
 20
-19.422718223
 10
-35.5574028505
 20
-19.3071759526
 10
-35.5632196627
 20
-19.1882887721
 10
-35.5682750314
 20
-19.0656963824
 10
-35.6162783456
 20
-17.7695694211
  0
LINE
  5
220
100
AcDbEntity
  8
RACCORDO
100
AcDbLine
 62
7
  6
CONTINUOUS
 10
-35.9459626986
 20
-19.3334620623
 11
-35.9458935638
 21
-19.3350199318
  0
LWPOLYLINE
  5
221
100
AcDbEntity
  8
RACCORDO
100
AcDbPolyline
 62
250
  6
CONTINUOUS
 90
10
 70
0
 10
-37.3643249334
 20
37.684542036
 10
-37.3635362751
 20
37.6627063634
 10
-37.3523743078
 20
37.593256423
 10
-37.3281853655
 20
37.5251063075
 10
-37.2912883793
 20
37.4591545789
 10
-37.2421698357
 20
37.3962708184
 10
-37.1814773626
 20
37.3372841593
 10
-37.1100111899
 20
37.2829723505
 10
-37.0287135986
 20
37.2340515029
 10
-36.9386564972
 20
37.1911666506
  0
LINE
  5
222
100
AcDbEntity
  8
RACCORDO
100
AcDbLine
 62
250
  6
CONTINUOUS
 10
-35.6162783456
 20
-17.7695694211
 11
-35.6474049876
 21
-16.9084009007
  0
LINE
  5
223
100
AcDbEntity
  8
RACCORDO
100
AcDbLine
 62
250
  6
CONTINUOUS
 10
-35.6474049876
 20
-16.9084009007
 11
-35.6813757388
 21
-15.9353684123
  0
LINE
  5
224
100
AcDbEntity
  8
RACCORDO
100
AcDbLine
 62
250
  6
CONTINUOUS
 10
-35.6813757388
 20
-15.9353684123
 11
-35.710641423
 21
-15.0633096326
  0
LINE
  5
225
100
AcDbEntity
  8
RACCORDO
100
AcDbLine
 62
250
  6
CONTINUOUS
 10
-35.710641423
 20
-15.0633096326
 11
-35.7417066858
 21
-14.0978945801
  0
LINE
  5
226
100
AcDbEntity
  8
RACCORDO
100
AcDbLine
 62
250
  6
CONTINUOUS
 10
-35.7417066858
 20
-14.0978945801
 11
-35.7661450836
 21
-13.3067729337
  0
LINE
  5
227
100
AcDbEntity
  8
RACCORDO
100
AcDbLine
 62
250
  6
CONTINUOUS
 10
-35.7661450836
 20
-13.3067729337
 11
-35.7915606609
 21
-12.4529398739
  0
LINE
  5
228
100
AcDbEntity
  8
RACCORDO
100
AcDbLine
 62
250
  6
CONTINUOUS
 10
-35.7915606609
 20
-12.4529398739
 11
-35.8179938369
 21
-11.5315689051
  0
LINE
  5
229
100
AcDbEntity
  8
RACCORDO
100
AcDbLine
 62
250
  6
CONTINUOUS
 10
-35.8179938369
 20
-11.5315689051
 11
-35.8550113391
 21
-10.1896981662
  0
LINE
  5
22A
100
AcDbEntity
  8
RACCORDO
100
AcDbLine
 62
250
  6
CONTINUOUS
 10
-35.8550113391
 20
-10.1896981662
 11
-35.9050229639
 21
-8.3118518733
  0
LWPOLYLINE
  5
22B
100
AcDbEntity
  8
RACCORDO
100
AcDbPolyline
 62
7
  6
CONTINUOUS
 90
7
 70
0
 10
-36.1849300944
 20
-10.8307971767
 10
-36.1453886062
 20
-12.3440679909
 10
-36.1055647212
 20
-13.8309038929
 10
-36.0653597292
 20
-15.2911993191
 10
-36.024825485
 20
-16.725039877
 10
-35.9841401198
 20
-18.1326848944
 10
-35.9458935638
 20
-19.3350199318
  0
LINE
  5
22C
100
AcDbEntity
  8
RACCORDO
100
AcDbLine
 62
250
  6
CONTINUOUS
 10
-35.9050229639
 20
-8.3118518733
 11
-35.9487055251
 21
-6.6312535403
  0
LINE
  5
22D
100
AcDbEntity
  8
RACCORDO
100
AcDbLine
 62
7
  6
CONTINUOUS
 10
-36.2641764739
 20
-7.7260494522
 11
-36.1849300944
 21
-10.8307971767
  0
LINE
  5
22E
100
AcDbEntity
  8
RACCORDO
100
AcDbLine
 62
250
  6
CONTINUOUS
 10
-35.9487055251
 20
-6.6312535403
 11
-35.9959801911
 21
-4.7734043521
  0
LINE
  5
22F
100
AcDbEntity
  8
RACCORDO
100
AcDbLine
 62
7
  6
CONTINUOUS
 10
-36.3854352263
 20
-2.8808156143
 11
-36.2641764739
 21
-7.7260494522
  0
LINE
  5
230
100
AcDbEntity
  8
RACCORDO
100
AcDbLine
 62
7
  6
CONTINUOUS
 10
-36.5972839967
 20
5.6954497495
 11
-36.3854352263
 21
-2.8808156143
  0
LINE
  5
231
100
AcDbEntity
  8
RACCORDO
100
AcDbLine
 62
250
  6
CONTINUOUS
 10
-36.6006958602
 20
19.5319806794
 11
-36.6527474972
 21
21.6225760292
  0
LINE
  5
232
100
AcDbEntity
  8
RACCORDO
100
AcDbLine
 62
250
  6
CONTINUOUS
 10
-35.9959801911
 20
-4.7734043521
 11
-36.0606993688
 21
-2.1747848575
  0
LINE
  5
233
100
AcDbEntity
  8
RACCORDO
100
AcDbLine
 62
7
  6
CONTINUOUS
 10
-37.1004404407
 20
25.88867972
 11
-36.5972839967
 21
5.6954497495
  0
LINE
  5
234
100
AcDbEntity
  8
RACCORDO
100
AcDbLine
 62
250
  6
CONTINUOUS
 10
-36.2491216224
 20
5.5376046647
 11
-36.6006958602
 21
19.5319806794
  0
LINE
  5
235
100
AcDbEntity
  8
RACCORDO
100
AcDbLine
 62
250
  6
CONTINUOUS
 10
-36.0606993688
 20
-2.1747848575
 11
-36.2491216224
 21
5.5376046647
  0
LINE
  5
236
100
AcDbEntity
  8
RACCORDO
100
AcDbLine
 62
250
  6
CONTINUOUS
 10
-36.6527474972
 20
21.6225760292
 11
-36.7096483678
 21
23.9571739438
  0
LINE
  5
237
100
AcDbEntity
  8
RACCORDO
100
AcDbLine
 62
7
  6
CONTINUOUS
 10
-37.1899918109
 20
29.5917303703
 11
-37.1004404407
 21
25.88867972
  0
LINE
  5
238
100
AcDbEntity
  8
RACCORDO
100
AcDbLine
 62
250
  6
CONTINUOUS
 10
-36.7096483678
 20
23.9571739438
 11
-36.7584481384
 21
26.0162809105
  0
LINE
  5
239
100
AcDbEntity
  8
RACCORDO
100
AcDbLine
 62
7
  6
CONTINUOUS
 10
-37.2313131325
 20
31.3590119205
 11
-37.1899918109
 21
29.5917303703
  0
LINE
  5
23A
100
AcDbEntity
  8
RACCORDO
100
AcDbLine
 62
250
  6
CONTINUOUS
 10
-36.7584481384
 20
26.0162809105
 11
-36.800181185
 21
27.8329711836
  0
LINE
  5
23B
100
AcDbEntity
  8
RACCORDO
100
AcDbLine
 62
7
  6
CONTINUOUS
 10
-37.2699056871
 20
33.0692961107
 11
-37.2313131325
 21
31.3590119205
  0
LINE
  5
23C
100
AcDbEntity
  8
RACCORDO
100
AcDbLine
 62
7
  6
CONTINUOUS
 10
-37.3057395372
 20
34.7192993287
 11
-37.2699056871
 21
33.0692961107
  0
LINE
  5
23D
100
AcDbEntity
  8
RACCORDO
100
AcDbLine
 62
250
  6
CONTINUOUS
 10
-36.800181185
 20
27.8329711836
 11
-36.8286335968
 21
29.1310504844
  0
LINE
  5
23E
100
AcDbEntity
  8
RACCORDO
100
AcDbLine
 62
250
  6
CONTINUOUS
 10
-36.8286335968
 20
29.1310504844
 11
-36.8471514243
 21
30.0220464484
  0
LINE
  5
23F
100
AcDbEntity
  8
RACCORDO
100
AcDbLine
 62
250
  6
CONTINUOUS
 10
-36.8471514243
 20
30.0220464484
 11
-36.8634209775
 21
30.8477214004
  0
LINE
  5
240
100
AcDbEntity
  8
RACCORDO
100
AcDbLine
 62
250
  6
CONTINUOUS
 10
-36.8634209775
 20
30.8477214004
 11
-36.8819825092
 21
31.8552988699
  0
LINE
  5
241
100
AcDbEntity
  8
RACCORDO
100
AcDbLine
 62
250
  6
CONTINUOUS
 10
-36.9461215437
 20
36.2937778701
 11
-36.9504639099
 21
36.5392590126
  0
LINE
  5
242
100
AcDbEntity
  8
RACCORDO
100
AcDbLine
 62
250
  6
CONTINUOUS
 10
-36.8819825092
 20
31.8552988699
 11
-36.8974610336
 21
32.7656212016
  0
LWPOLYLINE
  5
243
100
AcDbEntity
  8
RACCORDO
100
AcDbPolyline
 62
7
  6
CONTINUOUS
 90
3
 70
0
 10
-37.3644309958
 20
37.6864208954
 10
-37.3552147699
 20
37.095027426
 10
-37.3057395372
 20
34.7192993287
  0
LINE
  5
244
100
AcDbEntity
  8
RACCORDO
100
AcDbLine
 62
250
  6
CONTINUOUS
 10
-36.8974610336
 20
32.7656212016
 11
-36.9103853776
 21
33.5880797144
  0
LINE
  5
245
100
AcDbEntity
  8
RACCORDO
100
AcDbLine
 62
250
  6
CONTINUOUS
 10
-36.9103853776
 20
33.5880797144
 11
-36.9236861752
 21
34.5070793519
  0
LINE
  5
246
100
AcDbEntity
  8
RACCORDO
100
AcDbLine
 62
250
  6
CONTINUOUS
 10
-36.9236861752
 20
34.5070793519
 11
-36.9403036928
 21
35.7621533616
  0
LWPOLYLINE
  5
247
100
AcDbEntity
  8
RACCORDO
100
AcDbPolyline
 62
250
  6
CONTINUOUS
 90
5
 70
0
 10
-36.9504639099
 20
36.5392590126
 10
-36.9517444369
 20
36.6594215747
 10
-36.9508569945
 20
36.7840848815
 10
-36.9476838209
 20
36.9152171112
 10
-36.9387187775
 20
37.1911123039
  0
LINE
  5
248
100
AcDbEntity
  8
RACCORDO
100
AcDbLine
 62
250
  6
CONTINUOUS
 10
-36.9403036928
 20
35.7621533616
 11
-36.9461215437
 21
36.2937778701
  0
LWPOLYLINE
  5
249
100
AcDbEntity
  8
RACCORDO
100
AcDbPolyline
 62
7
  6
CONTINUOUS
 90
13
 70
0
 10
32.0559277896
 20
-42.4552895762
 10
32.2889776583
 20
-42.5115003679
 10
32.5324408168
 20
-42.55183591
 10
32.772668302
 20
-42.572517866
 10
33.0090614046
 20
-42.5734254337
 10
33.2398932342
 20
-42.5543418933
 10
33.4622587345
 20
-42.5155549868
 10
33.6743240276
 20
-42.457800096
 10
33.8753752887
 20
-42.3816021647
 10
34.064066577
 20
-42.2877958501
 10
34.2389662781
 20
-42.1776136689
 10
34.3990062759
 20
-42.0522656692
 10
34.5129075714
 20
-41.9448026611
  0
LWPOLYLINE
  5
24A
100
AcDbEntity
  8
RACCORDO
100
AcDbPolyline
 62
250
  6
CONTINUOUS
 90
7
 70
0
 10
-33.4536523263
 20
-22.3378939406
 10
-33.4884519503
 20
-22.3209047472
 10
-33.5246814678
 20
-22.2897734164
 10
-33.5557766814
 20
-22.2468481053
 10
-33.5813297368
 20
-22.1926918493
 10
-33.6010054773
 20
-22.1280149964
 10
-33.6145458399
 20
-22.0536658898
  0
LINE
  5
24B
100
AcDbEntity
  8
RACCORDO
100
AcDbLine
 62
250
  6
CONTINUOUS
 10
31.9119265713
 20
-42.176206771
 11
31.5207627741
 21
-42.0789903869
  0
LWPOLYLINE
  5
24C
100
AcDbEntity
  8
RACCORDO
100
AcDbPolyline
 62
250
  6
CONTINUOUS
 90
3
 70
0
 10
31.5207627741
 20
-42.0789903869
 10
31.4466365501
 20
-42.0599663592
 10
31.3730019547
 20
-42.0400975697
  0
LINE
  5
24D
100
AcDbEntity
  8
RACCORDO
100
AcDbLine
 62
7
  6
CONTINUOUS
 10
32.0563258101
 20
-42.4554199359
 11
32.0559224747
 21
-42.4553087191
  0
LINE
  5
24E
100
AcDbEntity
  8
RACCORDO
100
AcDbLine
 62
250
  6
CONTINUOUS
 10
31.3730019547
 20
-42.0400975697
 11
31.2265804462
 21
-41.9991896642
  0
LINE
  5
24F
100
AcDbEntity
  8
RACCORDO
100
AcDbLine
 62
250
  6
CONTINUOUS
 10
29.1574806429
 20
-41.4106351056
 11
26.6682138105
 21
-40.7050677969
  0
LINE
  5
250
100
AcDbEntity
  8
RACCORDO
100
AcDbLine
 62
250
  6
CONTINUOUS
 10
29.2822906445
 20
-41.4460424106
 11
29.1574806429
 21
-41.4106351056
  0
LINE
  5
251
100
AcDbEntity
  8
RACCORDO
100
AcDbLine
 62
250
  6
CONTINUOUS
 10
29.5223720766
 20
-41.5141760134
 11
29.2822906445
 21
-41.4460424106
  0
LWPOLYLINE
  5
252
100
AcDbEntity
  8
RACCORDO
100
AcDbPolyline
 62
250
  6
CONTINUOUS
 90
3
 70
0
 10
29.860325801
 20
-41.6101470789
 10
29.7504541251
 20
-41.5789375705
 10
29.5223720766
 20
-41.5141760134
  0
LINE
  5
253
100
AcDbEntity
  8
RACCORDO
100
AcDbLine
 62
250
  6
CONTINUOUS
 10
30.0720394522
 20
-41.6703106262
 11
29.860325801
 21
-41.6101470789
  0
LINE
  5
254
100
AcDbEntity
  8
RACCORDO
100
AcDbLine
 62
250
  6
CONTINUOUS
 10
30.2740746748
 20
-41.7277559681
 11
30.0720394522
 21
-41.6703106262
  0
LINE
  5
255
100
AcDbEntity
  8
RACCORDO
100
AcDbLine
 62
250
  6
CONTINUOUS
 10
26.6682138105
 20
-40.7050677969
 11
25.4335747047
 21
-40.3542482419
  0
LINE
  5
256
100
AcDbEntity
  8
RACCORDO
100
AcDbLine
 62
250
  6
CONTINUOUS
 10
30.4670673148
 20
-41.7826615962
 11
30.2740746748
 21
-41.7277559681
  0
LINE
  5
257
100
AcDbEntity
  8
RACCORDO
100
AcDbLine
 62
250
  6
CONTINUOUS
 10
30.6521546892
 20
-41.8353542585
 11
30.4670673148
 21
-41.7826615962
  0
LINE
  5
258
100
AcDbEntity
  8
RACCORDO
100
AcDbLine
 62
250
  6
CONTINUOUS
 10
25.4335747047
 20
-40.3542482419
 11
24.7309500017
 21
-40.1537080332
  0
LINE
  5
259
100
AcDbEntity
  8
RACCORDO
100
AcDbLine
 62
250
  6
CONTINUOUS
 10
31.2265804462
 20
-41.9991896642
 11
30.6521546892
 21
-41.8353542585
  0
LINE
  5
25A
100
AcDbEntity
  8
RACCORDO
100
AcDbLine
 62
250
  6
CONTINUOUS
 10
24.7309500017
 20
-40.1537080332
 11
24.2260465495
 21
-40.0088118429
  0
LINE
  5
25B
100
AcDbEntity
  8
RACCORDO
100
AcDbLine
 62
250
  6
CONTINUOUS
 10
24.2260465495
 20
-40.0088118429
 11
23.689566637
 21
-39.853916896
  0
LWPOLYLINE
  5
25C
100
AcDbEntity
  8
RACCORDO
100
AcDbPolyline
 62
250
  6
CONTINUOUS
 90
4
 70
0
 10
23.689566637
 20
-39.853916896
 10
23.1166106494
 20
-39.6872564993
 10
22.8159110778
 20
-39.5991364133
 10
22.5020520532
 20
-39.5064213398
  0
LWPOLYLINE
  5
25D
100
AcDbEntity
  8
RACCORDO
100
AcDbPolyline
 62
7
  6
CONTINUOUS
 90
4
 70
0
 10
25.7479676255
 20
-40.6024191099
 10
29.0644191891
 20
-41.5772993224
 10
30.6743841764
 20
-42.0519207594
 10
32.0563258101
 20
-42.4554199359
  0
LINE
  5
25E
100
AcDbEntity
  8
RACCORDO
100
AcDbLine
 62
250
  6
CONTINUOUS
 10
22.5020520532
 20
-39.5064213398
 11
21.8330991636
 21
-39.3068764361
  0
LINE
  5
25F
100
AcDbEntity
  8
RACCORDO
100
AcDbLine
 62
250
  6
CONTINUOUS
 10
21.8330991636
 20
-39.3068764361
 11
21.110009618
 21
-39.0902389669
  0
LWPOLYLINE
  5
260
100
AcDbEntity
  8
RACCORDO
100
AcDbPolyline
 62
250
  6
CONTINUOUS
 90
5
 70
0
 10
21.110009618
 20
-39.0902389669
 10
19.9629210252
 20
-38.7449519773
 10
19.5825244728
 20
-38.6297747812
 10
19.2011100321
 20
-38.5131203736
 10
18.8215931353
 20
-38.3956635454
  0
LINE
  5
261
100
AcDbEntity
  8
RACCORDO
100
AcDbLine
 62
250
  6
CONTINUOUS
 10
-15.7692222069
 20
-27.74839248
 11
-20.6411677426
 21
-26.2770392271
  0
LWPOLYLINE
  5
262
100
AcDbEntity
  8
RACCORDO
100
AcDbPolyline
 62
7
  6
CONTINUOUS
 90
6
 70
0
 10
-20.3263985008
 20
-26.4931217512
 10
-16.6792432596
 20
-27.5989345647
 10
-14.8168269964
 20
-28.1655547644
 10
-12.927910158
 20
-28.7428275841
 10
-11.0118331579
 20
-29.3307840289
 10
-9.0685315547
 20
-29.9288187496
  0
LINE
  5
263
100
AcDbEntity
  8
RACCORDO
100
AcDbLine
 62
250
  6
CONTINUOUS
 10
-14.7166965832
 20
-28.0676444445
 11
-15.7692222069
 21
-27.74839248
  0
LWPOLYLINE
  5
264
100
AcDbEntity
  8
RACCORDO
100
AcDbPolyline
 62
250
  6
CONTINUOUS
 90
3
 70
0
 10
-20.6411677426
 20
-26.2770392271
 10
-21.0227886109
 20
-26.1607700085
 10
-21.4081254519
 20
-26.0419204276
  0
LINE
  5
265
100
AcDbEntity
  8
RACCORDO
100
AcDbLine
 62
250
  6
CONTINUOUS
 10
-13.6068875263
 20
-28.4056612438
 11
-14.7166965832
 21
-28.0676444445
  0
LINE
  5
266
100
AcDbEntity
  8
RACCORDO
100
AcDbLine
 62
250
  6
CONTINUOUS
 10
7.385678556
 20
-34.8528896331
 11
2.9290868406
 21
-33.4943114217
  0
LINE
  5
267
100
AcDbEntity
  8
RACCORDO
100
AcDbLine
 62
250
  6
CONTINUOUS
 10
2.9290868406
 20
-33.4943114217
 11
1.2807766234
 21
-32.9909637701
  0
LINE
  5
268
100
AcDbEntity
  8
RACCORDO
100
AcDbLine
 62
7
  6
CONTINUOUS
 10
1.5421843425
 20
-33.1947210893
 11
7.5498018538
 21
-35.0321311229
  0
LINE
  5
269
100
AcDbEntity
  8
RACCORDO
100
AcDbLine
 62
250
  6
CONTINUOUS
 10
-12.4374950706
 20
-28.7633236396
 11
-13.6068875263
 21
-28.4056612438
  0
LWPOLYLINE
  5
26A
100
AcDbEntity
  8
RACCORDO
100
AcDbPolyline
 62
7
  6
CONTINUOUS
 90
5
 70
0
 10
7.5498018538
 20
-35.0321311229
 10
9.494862121
 20
-35.6281872442
 10
11.4103473266
 20
-36.2168837937
 10
13.2955077422
 20
-36.7986194048
 10
15.1507439586
 20
-37.3736748706
  0
LINE
  5
26B
100
AcDbEntity
  8
RACCORDO
100
AcDbLine
 62
250
  6
CONTINUOUS
 10
9.3697841642
 20
-35.4600191821
 11
7.385678556
 21
-34.8528896331
  0
LINE
  5
26C
100
AcDbEntity
  8
RACCORDO
100
AcDbLine
 62
7
  6
CONTINUOUS
 10
1.5421843425
 20
-33.1947210893
 11
-1.2182408067
 21
-32.3474511622
  0
LINE
  5
26D
100
AcDbEntity
  8
RACCORDO
100
AcDbLine
 62
250
  6
CONTINUOUS
 10
1.2807766234
 20
-32.9909637701
 11
-0.2936370084
 21
-32.5082996163
  0
LINE
  5
26E
100
AcDbEntity
  8
RACCORDO
100
AcDbLine
 62
250
  6
CONTINUOUS
 10
-0.2936370084
 20
-32.5082996163
 11
-2.2360353823
 21
-31.9117152972
  0
LINE
  5
26F
100
AcDbEntity
  8
RACCORDO
100
AcDbLine
 62
250
  6
CONTINUOUS
 10
-11.2048868355
 20
-29.1417205521
 11
-12.4374950706
 21
-28.7633236396
  0
LINE
  5
270
100
AcDbEntity
  8
RACCORDO
100
AcDbLine
 62
7
  6
CONTINUOUS
 10
-3.0712130545
 20
-31.7780047126
 11
-1.2181865275
 21
-32.3474677968
  0
LINE
  5
271
100
AcDbEntity
  8
RACCORDO
100
AcDbLine
 62
250
  6
CONTINUOUS
 10
10.6076070472
 20
-35.8402299702
 11
9.3697841642
 21
-35.4600191821
  0
LINE
  5
272
100
AcDbEntity
  8
RACCORDO
100
AcDbLine
 62
7
  6
CONTINUOUS
 10
-9.0685315547
 20
-29.9288187496
 11
-3.0712130545
 21
-31.7780047126
  0
LINE
  5
273
100
AcDbEntity
  8
RACCORDO
100
AcDbLine
 62
250
  6
CONTINUOUS
 10
-2.2360353823
 20
-31.9117152972
 11
-3.9441231217
 21
-31.3851870485
  0
LINE
  5
274
100
AcDbEntity
  8
RACCORDO
100
AcDbLine
 62
250
  6
CONTINUOUS
 10
-9.2285431561
 20
-29.7507475241
 11
-11.2048868355
 21
-29.1417205521
  0
LINE
  5
275
100
AcDbEntity
  8
RACCORDO
100
AcDbLine
 62
250
  6
CONTINUOUS
 10
11.7811318894
 20
-36.2020230102
 11
10.6076070472
 21
-35.8402299702
  0
LWPOLYLINE
  5
276
100
AcDbEntity
  8
RACCORDO
100
AcDbPolyline
 62
250
  6
CONTINUOUS
 90
3
 70
0
 10
-3.9441231217
 20
-31.3851870485
 10
-6.3328288906
 20
-30.6462134932
 10
-9.2285431561
 20
-29.7507475241
  0
LINE
  5
277
100
AcDbEntity
  8
RACCORDO
100
AcDbLine
 62
250
  6
CONTINUOUS
 10
12.8937447614
 20
-36.546468665
 11
11.7811318894
 21
-36.2020230102
  0
LWPOLYLINE
  5
278
100
AcDbEntity
  8
RACCORDO
100
AcDbPolyline
 62
7
  6
CONTINUOUS
 90
6
 70
0
 10
15.1507439586
 20
-37.3736748706
 10
18.7781542949
 20
-38.5018224231
 10
20.5583769897
 20
-39.049458314
 10
22.3119158565
 20
-39.5808611569
 10
24.0427831699
 20
-40.0993020563
 10
25.7479676255
 20
-40.6024191099
  0
LINE
  5
279
100
AcDbEntity
  8
RACCORDO
100
AcDbLine
 62
250
  6
CONTINUOUS
 10
14.4539721073
 20
-37.0318150119
 11
12.8937447614
 21
-36.546468665
  0
LINE
  5
27A
100
AcDbEntity
  8
RACCORDO
100
AcDbLine
 62
250
  6
CONTINUOUS
 10
18.8215931353
 20
-38.3956635454
 11
17.226367143
 21
-37.8977694121
  0
LINE
  5
27B
100
AcDbEntity
  8
RACCORDO
100
AcDbLine
 62
250
  6
CONTINUOUS
 10
17.226367143
 20
-37.8977694121
 11
14.4539721073
 21
-37.0318150119
  0
LINE
  5
27C
100
AcDbEntity
  8
RACCORDO
100
AcDbLine
 62
250
  6
CONTINUOUS
 10
-21.4081254519
 20
-26.0419204276
 11
-22.5915520299
 21
-25.6721930918
  0
LINE
  5
27D
100
AcDbEntity
  8
RACCORDO
100
AcDbLine
 62
250
  6
CONTINUOUS
 10
-22.5915520299
 20
-25.6721930918
 11
-23.4001482493
 21
-25.4186041027
  0
LWPOLYLINE
  5
27E
100
AcDbEntity
  8
RACCORDO
100
AcDbPolyline
 62
250
  6
CONTINUOUS
 90
4
 70
0
 10
-23.4001482493
 20
-25.4186041027
 10
-24.1572734785
 20
-25.179340463
 10
-24.5159526247
 20
-25.0652700513
 10
-24.8570011303
 20
-24.9561025924
  0
LWPOLYLINE
  5
27F
100
AcDbEntity
  8
RACCORDO
100
AcDbPolyline
 62
7
  6
CONTINUOUS
 90
6
 70
0
 10
-30.5009992079
 20
-23.2855317341
 10
-27.2438850167
 20
-24.3293381306
 10
-25.566280379
 20
-24.865021784
 10
-23.8526515759
 20
-25.4042694796
 10
-22.1083983958
 20
-25.9468553146
 10
-20.3263985008
 20
-26.4931217512
  0
LWPOLYLINE
  5
280
100
AcDbEntity
  8
RACCORDO
100
AcDbPolyline
 62
7
  6
CONTINUOUS
 90
3
 70
0
 10
-33.4536593489
 20
-22.3379147346
 10
-32.0836546013
 20
-22.7797168843
 10
-30.5009992079
 20
-23.2855317341
  0
LINE
  5
281
100
AcDbEntity
  8
RACCORDO
100
AcDbLine
 62
250
  6
CONTINUOUS
 10
-24.8570011303
 20
-24.9561025924
 11
-25.4955254339
 21
-24.7497502436
  0
LINE
  5
282
100
AcDbEntity
  8
RACCORDO
100
AcDbLine
 62
250
  6
CONTINUOUS
 10
-25.4955254339
 20
-24.7497502436
 11
-26.0857306095
 21
-24.5574625262
  0
LINE
  5
283
100
AcDbEntity
  8
RACCORDO
100
AcDbLine
 62
250
  6
CONTINUOUS
 10
-26.0857306095
 20
-24.5574625262
 11
-26.6339448828
 21
-24.3778426323
  0
LINE
  5
284
100
AcDbEntity
  8
RACCORDO
100
AcDbLine
 62
250
  6
CONTINUOUS
 10
-26.6339448828
 20
-24.3778426323
 11
-27.3853677231
 21
-24.1304035929
  0
LINE
  5
285
100
AcDbEntity
  8
RACCORDO
100
AcDbLine
 62
250
  6
CONTINUOUS
 10
-27.3853677231
 20
-24.1304035929
 11
-28.6763853959
 21
-23.703714253
  0
LWPOLYLINE
  5
286
100
AcDbEntity
  8
RACCORDO
100
AcDbPolyline
 62
250
  6
CONTINUOUS
 90
5
 70
0
 10
-28.6763853959
 20
-23.703714253
 10
-33.0190159463
 20
-22.2679396781
 10
-33.0906307115
 20
-22.2437426886
 10
-33.1631928631
 20
-22.2186621408
 10
-33.2363685607
 20
-22.1924396003
  0
LINE
  5
287
100
AcDbEntity
  8
RACCORDO
100
AcDbLine
 62
7
  6
CONTINUOUS
 10
-33.4530376894
 20
-22.3381025069
 11
-33.4536523263
 21
-22.3378939406
  0
LINE
  5
288
100
AcDbEntity
  8
RACCORDO
100
AcDbLine
 62
250
  6
CONTINUOUS
 10
-33.459503574
 20
-22.1104237426
 11
-33.5363941063
 21
-22.0822665305
  0
LINE
  5
289
100
AcDbEntity
  8
RACCORDO
100
AcDbLine
 62
250
  6
CONTINUOUS
 10
-33.5363941063
 20
-22.0822665305
 11
-33.6145436128
 21
-22.0536628221
  0
LINE
  5
28A
100
AcDbEntity
  8
RACCORDO
100
AcDbLine
 62
250
  6
CONTINUOUS
 10
-33.2363685607
 20
-22.1924396003
 11
-33.459503574
 21
-22.1104237426
  0
LWPOLYLINE
  5
28B
100
AcDbEntity
  8
RACCORDO
100
AcDbPolyline
 62
250
  6
CONTINUOUS
 90
22
 70
0
 10
-33.6145458399
 20
-22.0536658898
 10
-33.7502052624
 20
-21.9998370471
 10
-33.8856387813
 20
-21.9380714454
 10
-34.0199539184
 20
-21.8686413223
 10
-34.1523490277
 20
-21.7918916617
 10
-34.282154661
 20
-21.7081578262
 10
-34.4087615215
 20
-21.6177240343
 10
-34.5316106445
 20
-21.5208866303
 10
-34.6498852706
 20
-21.41822515
 10
-34.7626261459
 20
-21.3105123338
 10
-34.8690788625
 20
-21.1984751895
 10
-34.9689097756
 20
-21.0825633973
 10
-35.0618029939
 20
-20.963150694
 10
-35.1473202495
 20
-20.8407210295
 10
-35.2249507842
 20
-20.7160366639
 10
-35.2942510954
 20
-20.5898754511
 10
-35.3548547617
 20
-20.4629262044
 10
-35.4065042077
 20
-20.3358467801
 10
-35.4489816393
 20
-20.2093723208
 10
-35.4820990297
 20
-20.0841955684
 10
-35.5057453085
 20
-19.9610109739
 10
-35.5199006443
 20
-19.8405979268
  0
LWPOLYLINE
  5
28C
100
AcDbEntity
  8
RACCORDO
100
AcDbPolyline
 62
250
  6
CONTINUOUS
 90
5
 70
0
 10
-1.2182408067
 20
-32.3474511622
 10
-1.2501323369
 20
-32.3328435575
 10
-1.288869472
 20
-32.2988543629
 10
-1.3213393309
 20
-32.2492372148
 10
-1.3469822961
 20
-32.1848467564
  0
LWPOLYLINE
  5
28D
100
AcDbEntity
  8
RACCORDO
100
AcDbPolyline
 62
250
  6
CONTINUOUS
 90
5
 70
0
 10
-0.3281669973
 20
-32.6207841933
 10
-0.3600396812
 20
-32.6061823883
 10
-0.3988198505
 20
-32.5721799792
 10
-0.4313269254
 20
-32.5225514066
 10
-0.4570012885
 20
-32.4581513143
  0
LWPOLYLINE
  5
28E
100
AcDbEntity
  8
RACCORDO
100
AcDbPolyline
 62
250
  6
CONTINUOUS
 90
37
 70
0
 10
9.0323122789
 20
-26.6391570932
 10
8.9817476194
 20
-26.6513879855
 10
8.9559725153
 20
-26.6574248188
 10
8.9294307997
 20
-26.6633953067
 10
8.9021485561
 20
-26.6693310378
 10
8.8744035201
 20
-26.6750957732
 10
8.8461684822
 20
-26.6804159601
 10
8.8176129251
 20
-26.6851002235
 10
8.7886493524
 20
-26.6893026563
 10
8.7588369092
 20
-26.6932572906
 10
8.7277544342
 20
-26.6970615174
 10
8.6953078561
 20
-26.7006178188
 10
8.6615320577
 20
-26.7038524486
 10
8.6265569683
 20
-26.7067008796
 10
8.5904177944
 20
-26.7091268616
 10
8.5530049845
 20
-26.711095393
 10
8.5142822888
 20
-26.7125690765
 10
8.4742035958
 20
-26.7134982751
 10
8.4326479904
 20
-26.7138190481
 10
8.3896471306
 20
-26.7134798081
 10
8.3451862848
 20
-26.7124215997
 10
8.2990696274
 20
-26.7105543999
 10
8.2512196519
 20
-26.7077811979
 10
8.2017167288
 20
-26.7040616237
 10
8.1506200033
 20
-26.6993816932
 10
8.0979440251
 20
-26.693518753
 10
8.0434800424
 20
-26.6865427995
 10
7.9867432926
 20
-26.6788321566
 10
7.9273623369
 20
-26.6704706436
 10
7.8648955012
 20
-26.6610334643
 10
7.7989804039
 20
-26.6501150097
 10
7.7300815377
 20
-26.6376182942
 10
7.6587427585
 20
-26.6235492249
 10
7.5845374804
 20
-26.6075699552
 10
7.5071647293
 20
-26.5894035653
 10
7.426622429
 20
-26.5688976202
 10
7.3430174146
 20
-26.5458968248
  0
LWPOLYLINE
  5
28F
100
AcDbEntity
  8
RACCORDO
100
AcDbPolyline
 62
250
  6
CONTINUOUS
 90
10
 70
0
 10
8.698972901
 20
-24.7269512812
 10
8.8946779202
 20
-24.7066503987
 10
9.0915690651
 20
-24.6945024151
 10
9.2887945326
 20
-24.6905600732
 10
9.4855010731
 20
-24.6948406052
 10
9.6808376811
 20
-24.7073256586
 10
9.8739592778
 20
-24.7279613748
 10
10.0640303665
 20
-24.7566586218
 10
10.2502286476
 20
-24.7932933799
 10
10.4317485758
 20
-24.8377072779
  0
LWPOLYLINE
  5
290
100
AcDbEntity
  8
RACCORDO
100
AcDbPolyline
 62
250
  6
CONTINUOUS
 90
7
 70
0
 10
7.3430210131
 20
-26.5458917304
 10
6.4014941368
 20
-26.2732048258
 10
5.436001983
 20
-25.9869168323
 10
4.447116824
 20
-25.6890928226
 10
3.4345906916
 20
-25.3813887187
 10
2.3991889292
 20
-25.0646347388
 10
1.3430525277
 20
-24.7399390865
  0
LWPOLYLINE
  5
291
100
AcDbEntity
  8
RACCORDO
100
AcDbPolyline
 62
250
  6
CONTINUOUS
 90
8
 70
0
 10
-2.8378937419
 20
-23.4507713179
 10
-6.131424758
 20
-22.4445978487
 10
-7.1879913861
 20
-22.120500928
 10
-8.2235644
 20
-21.8012841025
 10
-9.2364476333
 20
-21.4870223641
 10
-10.2259526811
 20
-21.1773252939
 10
-11.1919726459
 20
-20.8704684963
 10
-12.1337675838
 20
-20.5647581539
  0
LINE
  5
292
100
AcDbEntity
  8
RACCORDO
100
AcDbLine
 62
250
  6
CONTINUOUS
 10
-1.9484630718
 20
-23.7239048884
 11
-2.8353837761
 21
-23.4515401326
  0
LINE
  5
293
100
AcDbEntity
  8
RACCORDO
100
AcDbLine
 62
250
  6
CONTINUOUS
 10
-3.1365759771
 20
-22.5486194565
 11
-12.4474903383
 21
-19.6891401529
  0
LINE
  5
294
100
AcDbEntity
  8
RACCORDO
100
AcDbLine
 62
250
  6
CONTINUOUS
 10
7.0581735101
 20
-25.6791405507
 11
-3.1365759771
 21
-22.5486194565
  0
LINE
  5
295
100
AcDbEntity
  8
RACCORDO
100
AcDbLine
 62
250
  6
CONTINUOUS
 10
1.3430525277
 20
-24.7399390865
 11
-1.9484615994
 21
-23.723903705
  0
LWPOLYLINE
  5
296
100
AcDbEntity
  8
RACCORDO
100
AcDbPolyline
 62
250
  6
CONTINUOUS
 90
64
 70
0
 10
-12.4474903383
 20
-19.6891401529
 10
-12.5042924487
 20
-19.6709166255
 10
-12.5590560152
 20
-19.6517646608
 10
-12.6117199378
 20
-19.6318781777
 10
-12.6620135323
 20
-19.6115293541
 10
-12.7101230638
 20
-19.5908172531
 10
-12.7566891124
 20
-19.5696111308
 10
-12.8018977609
 20
-19.5479198891
 10
-12.845526007
 20
-19.5259396469
 10
-12.8876117691
 20
-19.5037568201
 10
-12.9282348158
 20
-19.4814204045
 10
-12.9673162702
 20
-19.4590536868
 10
-13.004669203
 20
-19.4368533465
 10
-13.0401845534
 20
-19.4149832628
 10
-13.0740029656
 20
-19.3934525931
 10
-13.106315761
 20
-19.3722212093
 10
-13.137129505
 20
-19.3513602232
 10
-13.1664731391
 20
-19.3309238717
 10
-13.194564718
 20
-19.3108247963
 10
-13.2214530171
 20
-19.2910861826
 10
-13.2471226833
 20
-19.2717729157
 10
-13.2716884332
 20
-19.2528453461
 10
-13.2949417131
 20
-19.2345184674
 10
-13.3171262737
 20
-19.2166511828
 10
-13.3390117736
 20
-19.1986413699
 10
-13.3605141205
 20
-19.1805632949
 10
-13.3817106286
 20
-19.1623619531
 10
-13.4035652163
 20
-19.1431901043
 10
-13.4262811424
 20
-19.122812442
 10
-13.4495810424
 20
-19.1014206707
 10
-13.4736696174
 20
-19.0787714076
 10
-13.4986299871
 20
-19.0547082812
 10
-13.5242725359
 20
-19.0293312182
 10
-13.5503885633
 20
-19.0027778939
 10
-13.5768922418
 20
-18.9750662417
 10
-13.6037639955
 20
-18.9461396554
 10
-13.6309012737
 20
-18.9160316019
 10
-13.6581769252
 20
-18.8848071755
 10
-13.6856004982
 20
-18.8523759003
 10
-13.7132616506
 20
-18.8185361415
 10
-13.7410830906
 20
-18.7832697939
 10
-13.768976276
 20
-18.7465698831
 10
-13.7969843114
 20
-18.7082446509
 10
-13.8250900924
 20
-18.6681526612
 10
-13.8530817683
 20
-18.6264198818
 10
-13.8807057099
 20
-18.5832617995
 10
-13.907936255
 20
-18.5385480803
 10
-13.9345677163
 20
-18.4924329502
 10
-13.9601409576
 20
-18.4455815143
 10
-13.984577775
 20
-18.3980553547
 10
-14.0078275105
 20
-18.3498648091
 10
-14.0295783398
 20
-18.301617515
 10
-14.0497582588
 20
-18.2535085266
 10
-14.0684251192
 20
-18.2054312813
 10
-14.0855263784
 20
-18.1575458843
 10
-14.1009454439
 20
-18.1103006103
 10
-14.1148319144
 20
-18.0633288516
 10
-14.1274360308
 20
-18.015581
 10
-14.1386386405
 20
-17.9671592675
 10
-14.1483501717
 20
-17.9180841853
 10
-14.156624862
 20
-17.8672295944
 10
-14.1632546852
 20
-17.8143101214
 10
-14.1679134582
 20
-17.7598558554
 10
-14.1703352982
 20
-17.7040134227
  0
LWPOLYLINE
  5
297
100
AcDbEntity
  8
RACCORDO
100
AcDbPolyline
 62
250
  6
CONTINUOUS
 90
24
 70
0
 10
-12.1337730267
 20
-20.564765664
 10
-12.243996988
 20
-20.5270483149
 10
-12.350207716
 20
-20.4878427164
 10
-12.4521700487
 20
-20.4475937056
 10
-12.5493390164
 20
-20.4066802548
 10
-12.6418079667
 20
-20.3656326487
 10
-12.7300984337
 20
-20.325101012
 10
-12.8139925106
 20
-20.2859094463
 10
-12.8930827438
 20
-20.2479862621
 10
-12.9681240244
 20
-20.2102890203
 10
-13.039892371
 20
-20.1723403124
 10
-13.108848232
 20
-20.1343365425
 10
-13.1750932789
 20
-20.0962875513
 10
-13.2384067109
 20
-20.0584396497
 10
-13.2987850284
 20
-20.0209986801
 10
-13.3564968201
 20
-19.9839863237
 10
-13.4115179876
 20
-19.9475543269
 10
-13.4639594259
 20
-19.911761053
 10
-13.5143216651
 20
-19.8764118681
 10
-13.562579702
 20
-19.8417076803
 10
-13.6088328474
 20
-19.8075636785
 10
-13.6540808611
 20
-19.7730693858
 10
-13.6986366309
 20
-19.7377661121
 10
-13.7432087866
 20
-19.70141594
  0
LWPOLYLINE
  5
298
100
AcDbEntity
  8
RACCORDO
100
AcDbPolyline
 62
250
  6
CONTINUOUS
 90
7
 70
0
 10
32.0559224747
 20
-42.4553087191
 10
32.0194052827
 20
-42.4377525886
 10
31.988485462
 20
-42.4082476811
 10
31.9619612278
 20
-42.3667215807
 10
31.9401805183
 20
-42.3137189951
 10
31.9234290502
 20
-42.2499351703
 10
31.9119265713
 20
-42.176206771
  0
LWPOLYLINE
  5
299
100
AcDbEntity
  8
RACCORDO
100
AcDbPolyline
 62
250
  6
CONTINUOUS
 90
3
 70
0
 10
-13.7432087866
 20
-19.70141594
 10
-13.835240462
 20
-19.6252123292
 10
-13.8811425343
 20
-19.5866126108
  0
LWPOLYLINE
  5
29A
100
AcDbEntity
  8
RACCORDO
100
AcDbPolyline
 62
250
  6
CONTINUOUS
 90
37
 70
0
 10
-13.8811425343
 20
-19.5866126108
 10
-13.9743563718
 20
-19.5071666058
 10
-14.0214307641
 20
-19.4664276367
 10
-14.0688653257
 20
-19.4246106675
 10
-14.1167592634
 20
-19.381527279
 10
-14.1649895277
 20
-19.3371753332
 10
-14.2134979206
 20
-19.2912548924
 10
-14.262372538
 20
-19.2435007709
 10
-14.3118813235
 20
-19.1935936254
 10
-14.3621242633
 20
-19.1412565411
 10
-14.4128752499
 20
-19.086588984
 10
-14.4640029942
 20
-19.0295760968
 10
-14.5155914865
 20
-18.969895903
 10
-14.5675097709
 20
-18.9074982223
 10
-14.6196218892
 20
-18.8423325777
 10
-14.6719849999
 20
-18.7740242607
 10
-14.7245691761
 20
-18.70231461
 10
-14.7769751197
 20
-18.6274293134
 10
-14.8286767048
 20
-18.5497598067
 10
-14.8796071313
 20
-18.4690895904
 10
-14.9293703865
 20
-18.3857224404
 10
-14.977070563
 20
-18.3008657337
 10
-15.0225756439
 20
-18.214582091
 10
-15.0658008606
 20
-18.1268796897
 10
-15.1060759363
 20
-18.0390089777
 10
-15.1429894632
 20
-17.9516922004
 10
-15.1767720146
 20
-17.8647870509
 10
-15.2079145528
 20
-17.7779945175
 10
-15.2363695122
 20
-17.6914292098
 10
-15.2625595795
 20
-17.6038600512
 10
-15.2874570378
 20
-17.5129560189
 10
-15.3110162135
 20
-17.4191714264
 10
-15.3324081883
 20
-17.3234962169
 10
-15.3509512001
 20
-17.2247652097
 10
-15.366057038
 20
-17.1225583801
 10
-15.3773593794
 20
-17.0175292727
 10
-15.3843568949
 20
-16.909859879
  0
LWPOLYLINE
  5
29B
100
AcDbEntity
  8
RACCORDO
100
AcDbPolyline
 62
250
  6
CONTINUOUS
 90
10
 70
0
 10
-12.4474902812
 20
-19.6891400033
 10
-12.393727872
 20
-19.7471112948
 10
-12.3443044202
 20
-19.8156761739
 10
-12.2994134871
 20
-19.894566123
 10
-12.2592308837
 20
-19.98347219
 10
-12.2239139812
 20
-20.0820461972
 10
-12.1936010956
 20
-20.1899021058
 10
-12.1684109452
 20
-20.3066175269
 10
-12.1484421864
 20
-20.4317353763
 10
-12.1337730267
 20
-20.564765664
  0
LWPOLYLINE
  5
29C
100
AcDbEntity
  8
RACCORDO
100
AcDbPolyline
 62
250
  6
CONTINUOUS
 90
10
 70
0
 10
-14.170334238
 20
-17.7040130666
 10
-14.2655079688
 20
-17.594397959
 10
-14.3718382347
 20
-17.4891433445
 10
-14.4888650015
 20
-17.3887045997
 10
-14.6160819569
 20
-17.2935162655
 10
-14.7529387009
 20
-17.2039901672
 10
-14.8988431275
 20
-17.1205136326
 10
-15.053163986
 20
-17.0434478161
 10
-15.2152336126
 20
-16.9731261366
 10
-15.3843508183
 20
-16.9098528343
  0
LWPOLYLINE
  5
29D
100
AcDbEntity
  8
RACCORDO
100
AcDbPolyline
 62
250
  6
CONTINUOUS
 90
10
 70
0
 10
-2.462573492
 20
29.4187690821
 10
-2.5214592971
 20
29.3326016826
 10
-2.5785895784
 20
29.2350963393
 10
-2.6329802007
 20
29.1279322391
 10
-2.6836942117
 20
29.0129549141
 10
-2.7298579785
 20
28.8921444571
 10
-2.7706762334
 20
28.7675814204
 10
-2.8054457702
 20
28.641410984
 10
-2.8335675547
 20
28.5158060106
 10
-2.8545570419
 20
28.3929296248
  0
LINE
  5
29E
100
AcDbEntity
  8
ASSI
100
AcDbLine
 62
250
  6
CONTINUOUS
 10
-11.7581078161
 20
15.3558142655
 11
-12.3486222317
 21
14.615817267
  0
LWPOLYLINE
  5
29F
100
AcDbEntity
  8
RACCORDO
100
AcDbPolyline
 62
250
  6
CONTINUOUS
 90
4
 70
0
 10
-13.2810280765
 20
16.866618989
 10
-13.3010072296
 20
16.8444877911
 10
-13.3625725134
 20
16.7901046657
 10
-13.4326523927
 20
16.7399520061
  0
LWPOLYLINE
  5
2A0
100
AcDbEntity
  8
RACCORDO
100
AcDbPolyline
 62
250
  6
CONTINUOUS
 90
19
 70
0
 10
-13.4326523927
 20
16.7399520061
 10
-13.5104786427
 20
16.694579592
 10
-13.5951981226
 20
16.6544848016
 10
-13.6858821266
 20
16.6201071591
 10
-13.7815365653
 20
16.5918235163
 10
-13.8811128629
 20
16.5699439222
 10
-13.9835194513
 20
16.5547082237
 10
-14.0876337367
 20
16.5462834363
 10
-14.1923144052
 20
16.5447619137
 10
-14.2964139343
 20
16.550160335
 10
-14.3987911717
 20
16.562419522
 10
-14.4983238454
 20
16.5814050879
 10
-14.5939208657
 20
16.6069089106
 10
-14.6845342045
 20
16.6386513818
 10
-14.7691706396
 20
16.6762845577
 10
-14.8469025837
 20
16.719396027
 10
-14.9168779261
 20
16.7675132849
 10
-14.9783294365
 20
16.8201088603
 10
-15.0305833906
 20
16.8766062191
  0
LWPOLYLINE
  5
2A1
100
AcDbEntity
  8
0
100
AcDbPolyline
 62
250
  6
CONTINUOUS
 90
5
 70
0
 10
7.3902678101
 20
-23.9827746767
 10
7.4365788463
 20
-23.9934895496
 10
7.4813069276
 20
-23.9968112693
 10
7.5230930139
 20
-23.9926389071
 10
7.5391065467
 20
-23.9877209134
  0
LINE
  5
2A2
100
AcDbEntity
  8
0
100
AcDbLine
 62
250
  6
CONTINUOUS
 10
-12.1153960383
 20
-17.9927742789
 11
7.3902678101
 21
-23.9827746767
  0
LINE
  5
2A3
100
AcDbEntity
  8
ASSI
100
AcDbLine
 62
7
  6
CONTINUOUS
 10
-11.2977606936
 20
-16.9681630503
 11
-7.493965449
 21
-18.1362717189
  0
LINE
  5
2A4
100
AcDbEntity
  8
ASSI
100
AcDbLine
 62
7
  6
CONTINUOUS
 10
4.4041079102
 20
-21.7900547795
 11
7.5081489869
 21
-22.7432757224
  0
LINE
  5
2A5
100
AcDbEntity
  8
ASSI
100
AcDbLine
 62
7
  6
CONTINUOUS
 10
-6.9034510334
 20
-17.3962747205
 11
4.9946223258
 21
-21.0500577811
  0
LINE
  5
2A6
100
AcDbEntity
  8
DRAFT
100
AcDbLine
 62
7
  6
CONTINUOUS
 10
3.108318138
 20
-20.4069035072
 11
-2.424305064
 21
-18.7078885217
  0
LINE
  5
2A7
100
AcDbEntity
  8
ASSI
100
AcDbLine
 62
7
  6
CONTINUOUS
 10
-11.118615613
 20
-17.023176769
 11
-11.1713869027
 21
-16.9836650901
  0
LINE
  5
2A8
100
AcDbEntity
  8
ASSI
100
AcDbLine
 62
7
  6
CONTINUOUS
 10
-11.1713869027
 20
-16.9836650901
 11
-11.3381450613
 21
-16.8420257388
  0
LWPOLYLINE
  5
2A9
100
AcDbEntity
  8
ASSI
100
AcDbPolyline
 62
7
  6
CONTINUOUS
 90
3
 70
0
 10
-11.3381450613
 20
-16.8420257388
 10
-11.4967111168
 20
-16.6901156894
 10
-11.5718589546
 20
-16.6088441727
  0
LWPOLYLINE
  5
2AA
100
AcDbEntity
  8
RACCORDO
100
AcDbPolyline
 62
250
  6
CONTINUOUS
 90
6
 70
0
 10
-15.3843508183
 20
-16.9098528343
 10
-15.4133034063
 20
-16.1868195575
 10
-15.4394282846
 20
-15.4344166177
 10
-15.4639693101
 20
-14.6530133969
 10
-15.4880754953
 20
-13.8423340373
 10
-15.5120500078
 20
-13.0030593989
  0
LINE
  5
2AB
100
AcDbEntity
  8
RACCORDO
100
AcDbLine
 62
250
  6
CONTINUOUS
 10
-15.5120500078
 20
-13.0030593989
 11
-15.5604864194
 21
-11.2447836755
  0
LINE
  5
2AC
100
AcDbEntity
  8
RACCORDO
100
AcDbLine
 62
250
  6
CONTINUOUS
 10
-15.5604864194
 20
-11.2447836755
 11
-15.6363788514
 21
-8.4111492429
  0
LINE
  5
2AD
100
AcDbEntity
  8
RACCORDO
100
AcDbLine
 62
250
  6
CONTINUOUS
 10
-15.6363788514
 20
-8.4111492429
 11
-15.7458402737
 21
-4.2650009909
  0
LINE
  5
2AE
100
AcDbEntity
  8
RACCORDO
100
AcDbLine
 62
250
  6
CONTINUOUS
 10
-15.7458402737
 20
-4.2650009909
 11
-15.8666022025
 21
0.353939564
  0
LINE
  5
2AF
100
AcDbEntity
  8
RACCORDO
100
AcDbLine
 62
250
  6
CONTINUOUS
 10
-15.8666018437
 20
0.3539397515
 11
-16.0260786159
 21
7.125686377
  0
LINE
  5
2B0
100
AcDbEntity
  8
RACCORDO
100
AcDbLine
 62
250
  6
CONTINUOUS
 10
-16.0260786159
 20
7.125686377
 11
-16.1172500688
 21
11.0594577189
  0
LWPOLYLINE
  5
2B1
100
AcDbEntity
  8
RACCORDO
100
AcDbPolyline
 62
250
  6
CONTINUOUS
 90
8
 70
0
 10
-16.1172500688
 20
11.0594577189
 10
-16.1581355934
 20
12.8684848184
 10
-16.1771457977
 20
13.7337526877
 10
-16.1949129821
 20
14.5724433684
 10
-16.2111307617
 20
15.3827090391
 10
-16.2254602297
 20
16.1638588753
 10
-16.2367661302
 20
16.9159711952
 10
-16.2437943426
 20
17.6384435288
  0
LWPOLYLINE
  5
2B2
100
AcDbEntity
  8
RACCORDO
100
AcDbPolyline
 62
250
  6
CONTINUOUS
 90
85
 70
0
 10
-15.0305833906
 20
16.8766062191
 10
-15.0307633181
 20
16.9407840532
 10
-15.0278069859
 20
17.0016399049
 10
-15.0220462176
 20
17.0591734495
 10
-15.0138217873
 20
17.1132283771
 10
-15.0034473462
 20
17.1640262661
 10
-14.991133208
 20
17.2121355698
 10
-14.9770308317
 20
17.2578363539
 10
-14.9614201555
 20
17.3009287339
 10
-14.9446598135
 20
17.3412746799
 10
-14.927076711
 20
17.3788374794
 10
-14.9088190714
 20
17.4138495194
 10
-14.8899680586
 20
17.4465909174
 10
-14.8707078328
 20
17.4771295839
 10
-14.8512007979
 20
17.5055711478
 10
-14.8314302501
 20
17.5322182903
 10
-14.811519303
 20
17.557143754
 10
-14.7915893123
 20
17.5804167894
 10
-14.7715637741
 20
17.602298547
 10
-14.7515113361
 20
17.622859994
 10
-14.7315313574
 20
17.6421381917
 10
-14.7115522896
 20
17.6603137487
 10
-14.6916072271
 20
17.6774528477
 10
-14.6717825406
 20
17.6935730299
 10
-14.6520638789
 20
17.7087646863
 10
-14.6324999108
 20
17.7230649582
 10
-14.6131374224
 20
17.7365110454
 10
-14.5939464005
 20
17.7491833162
 10
-14.5749524651
 20
17.7611209953
 10
-14.556203996
 20
17.7723475912
 10
-14.5376962
 20
17.7829124771
 10
-14.5194306575
 20
17.7928599154
 10
-14.5014657913
 20
17.8022011771
 10
-14.4838802012
 20
17.8109358453
 10
-14.4666964845
 20
17.8190972322
 10
-14.4499480997
 20
17.8267101952
 10
-14.4337325228
 20
17.8337663116
 10
-14.4181045196
 20
17.8402876275
 10
-14.4030616073
 20
17.8463122169
 10
-14.3886155847
 20
17.8518568165
 10
-14.3748854824
 20
17.8569102292
 10
-14.3617959794
 20
17.8615373964
 10
-14.3490582287
 20
17.8658571691
 10
-14.3366735727
 20
17.8698853976
 10
-14.3246624489
 20
17.8736328775
 10
-14.3127514546
 20
17.8771922762
 10
-14.3009394821
 20
17.880570228
 10
-14.2892365692
 20
17.8837693793
 10
-14.2773757545
 20
17.8868609097
 10
-14.2653860784
 20
17.8898353575
 10
-14.2532382746
 20
17.8926973203
 10
-14.2405673022
 20
17.8955217138
 10
-14.2273187528
 20
17.8982986186
 10
-14.2135340687
 20
17.9010101886
 10
-14.1989817181
 20
17.9037019511
 10
-14.1835161081
 20
17.9063773876
 10
-14.1672597073
 20
17.9089847712
 10
-14.1503817639
 20
17.9114845989
 10
-14.1329531434
 20
17.9138507511
 10
-14.1148886522
 20
17.9160730617
 10
-14.0961256546
 20
17.9181391948
 10
-14.0766465988
 20
17.9200268193
 10
-14.056452559
 20
17.9217118869
 10
-14.0355074983
 20
17.9231752443
 10
-14.0138207694
 20
17.924390002
 10
-13.9913674417
 20
17.9253306845
 10
-13.9680584298
 20
17.9259744866
 10
-13.9438898782
 20
17.9262880671
 10
-13.9188496278
 20
17.9262399637
 10
-13.8928335176
 20
17.9258008181
 10
-13.8657968255
 20
17.9249307656
 10
-13.8377683208
 20
17.9235883523
 10
-13.8087535932
 20
17.9217362663
 10
-13.7786373613
 20
17.919331674
 10
-13.7475247035
 20
17.9163281062
 10
-13.7157598166
 20
17.9127003821
 10
-13.683708409
 20
17.9084858914
 10
-13.6510180524
 20
17.9036086933
 10
-13.6169569226
 20
17.8978515413
 10
-13.5813413609
 20
17.8910965787
 10
-13.5443630334
 20
17.883317152
 10
-13.5058504345
 20
17.8743792294
 10
-13.4657562127
 20
17.8641768513
 10
-13.4241584274
 20
17.8526444484
 10
-13.3810800078
 20
17.8396954849
  0
LWPOLYLINE
  5
2B3
100
AcDbEntity
  8
RACCORDO
100
AcDbPolyline
 62
250
  6
CONTINUOUS
 90
75
 70
0
 10
-16.2437814243
 20
17.6384582094
 10
-16.2412274091
 20
17.7610947056
 10
-16.2327184766
 20
17.8774518686
 10
-16.2188426983
 20
17.9877036923
 10
-16.2000302217
 20
18.0912763145
 10
-16.1773099824
 20
18.1878243737
 10
-16.1521509038
 20
18.2777339459
 10
-16.1256934793
 20
18.3618664126
 10
-16.0977276491
 20
18.4406683416
 10
-16.0675231084
 20
18.5142449808
 10
-16.0351787966
 20
18.5825442253
 10
-16.0014290211
 20
18.6460377494
 10
-15.9664605023
 20
18.7053058108
 10
-15.9305973969
 20
18.7604712184
 10
-15.8941518849
 20
18.8116864537
 10
-15.8571599304
 20
18.8595378445
 10
-15.8198584634
 20
18.9041533805
 10
-15.7824650311
 20
18.945642719
 10
-15.7448828291
 20
18.9845053621
 10
-15.707245676
 20
19.0208683583
 10
-15.6697315521
 20
19.0547934158
 10
-15.632233678
 20
19.0866337578
 10
-15.5948145022
 20
19.1165096323
 10
-15.5576296745
 20
19.144451938
 10
-15.5206695441
 20
19.170650381
 10
-15.4840230533
 20
19.1951731822
 10
-15.4477762087
 20
19.2180843664
 10
-15.4118904905
 20
19.2395499651
 10
-15.3764116923
 20
19.2596419503
 10
-15.3414203615
 20
19.2784054101
 10
-15.3069124806
 20
19.2959533292
 10
-15.2728890598
 20
19.3123600322
 10
-15.2394693532
 20
19.3276422175
 10
-15.2068207412
 20
19.3418262593
 10
-15.1750065409
 20
19.3549639849
 10
-15.1440035254
 20
19.3671373125
 10
-15.1138507588
 20
19.3784192456
 10
-15.0845696348
 20
19.3888380188
 10
-15.0560533357
 20
19.3985134243
 10
-15.0281631899
 20
19.407639205
 10
-15.0010153936
 20
19.4162297268
 10
-14.9745978858
 20
19.4243017178
 10
-14.9485492851
 20
19.4320379915
 10
-14.9229448033
 20
19.4394313992
 10
-14.8978231703
 20
19.4464831143
 10
-14.8727120944
 20
19.453369133
 10
-14.8476131994
 20
19.460095795
 10
-14.8225767005
 20
19.4666432263
 10
-14.7971667509
 20
19.4731200446
 10
-14.7714332054
 20
19.47952947
 10
-14.7454305937
 20
19.4858156717
 10
-14.718721144
 20
19.4919635021
 10
-14.6913334702
 20
19.4980010535
 10
-14.6635317638
 20
19.503809824
 10
-14.6352840911
 20
19.5091261608
 10
-14.6067433951
 20
19.5137746402
 10
-14.5778063352
 20
19.5179252827
 10
-14.5480223472
 20
19.5218290468
 10
-14.5169617738
 20
19.5256014714
 10
-14.4845297986
 20
19.5291470385
 10
-14.4507594827
 20
19.5323904682
 10
-14.415784367
 20
19.5352621986
 10
-14.3796387901
 20
19.537725641
 10
-14.3422056452
 20
19.5397493482
 10
-14.3034433389
 20
19.5413019818
 10
-14.2633040779
 20
19.5423377133
 10
-14.2216641028
 20
19.5427934591
 10
-14.1785522539
 20
19.5426191297
 10
-14.1339539352
 20
19.5417572406
 10
-14.0876743446
 20
19.5401191562
 10
-14.0396344031
 20
19.5376099565
 10
-13.9899032288
 20
19.5342025656
 10
-13.9385248182
 20
19.5299035933
 10
-13.8855219
 20
19.5244813628
 10
-13.8306873305
 20
19.5180039042
  0
LWPOLYLINE
  5
2B4
100
AcDbEntity
  8
RACCORDO
100
AcDbPolyline
 62
250
  6
CONTINUOUS
 90
10
 70
0
 10
-13.381079284
 20
17.8396954631
 10
-13.3332379909
 20
18.0197132578
 10
-13.2899848052
 20
18.1991586747
 10
-13.2514890485
 20
18.3773289416
 10
-13.2179014114
 20
18.55352628
 10
-13.1893533629
 20
18.7270606379
 10
-13.1659566356
 20
18.8972523921
 10
-13.1478027883
 20
19.0634350096
 10
-13.1349628473
 20
19.2249576583
 10
-13.1274870281
 20
19.3811877556
  0
LWPOLYLINE
  5
2B5
100
AcDbEntity
  8
RACCORDO
100
AcDbPolyline
 62
250
  6
CONTINUOUS
 90
10
 70
0
 10
-1.5717454129
 20
29.1452044995
 10
-1.6307006758
 20
29.0590584346
 10
-1.6878967193
 20
28.961573286
 10
-1.7423494078
 20
28.8544282405
 10
-1.7931224956
 20
28.7394690472
 10
-1.8393416422
 20
28.618675582
 10
-1.8802094581
 20
28.4941277456
 10
-1.9150220293
 20
28.3679705015
 10
-1.9431810281
 20
28.2423769308
 10
-1.9642019087
 20
28.1195101594
  0
LINE
  5
2B6
100
AcDbEntity
  8
RACCORDO
100
AcDbLine
 62
7
  6
CONTINUOUS
 10
-1.4976032989
 20
-17.6813344475
 11
-1.3143639124
 21
-17.6429566253
  0
LWPOLYLINE
  5
2B7
100
AcDbEntity
  8
RACCORDO
100
AcDbPolyline
 62
7
  6
CONTINUOUS
 90
4
 70
0
 10
-1.2653980041
 20
-17.640232992
 10
-1.252008628
 20
-17.6416788949
 10
-1.2386406345
 20
-17.6446858554
 10
-1.2354081958
 20
-17.6456347177
  0
LINE
  5
2B8
100
AcDbEntity
  8
DRAFT
100
AcDbLine
 62
7
  6
CONTINUOUS
 10
3.2305872909
 20
-20.2318346593
 11
-2.2740291021
 21
-18.5414202935
  0
LINE
  5
2B9
100
AcDbEntity
  8
DRAFT
100
AcDbLine
 62
7
  6
CONTINUOUS
 10
3.3121000596
 20
-20.115122094
 11
-2.1738451275
 21
-18.4304414746
  0
LINE
  5
2BA
100
AcDbEntity
  8
DRAFT
100
AcDbLine
 62
7
  6
CONTINUOUS
 10
3.4343692126
 20
-19.9400532461
 11
-2.0235691656
 21
-18.2639732464
  0
LINE
  5
2BB
100
AcDbEntity
  8
DRAFT
100
AcDbLine
 62
7
  6
CONTINUOUS
 10
3.5158819812
 20
-19.8233406808
 11
-1.923385191
 21
-18.1529944276
  0
LINE
  5
2BC
100
AcDbEntity
  8
DRAFT
100
AcDbLine
 62
7
  6
CONTINUOUS
 10
3.6381511342
 20
-19.6482718328
 11
-1.7731092291
 21
-17.9865261993
  0
LINE
  5
2BD
100
AcDbEntity
  8
DRAFT
100
AcDbLine
 62
7
  6
CONTINUOUS
 10
3.7196639029
 20
-19.5315592675
 11
-1.6729252545
 21
-17.8755473805
  0
LINE
  5
2BE
100
AcDbEntity
  8
DRAFT
100
AcDbLine
 62
7
  6
CONTINUOUS
 10
3.8419330559
 20
-19.3564904196
 11
-1.5226492926
 21
-17.7090791522
  0
LINE
  5
2BF
100
AcDbEntity
  8
DRAFT
100
AcDbLine
 62
7
  6
CONTINUOUS
 10
3.862311248
 20
-19.3273122782
 11
-1.4976032989
 21
-17.6813344475
  0
LINE
  5
2C0
100
AcDbEntity
  8
RACCORDO
100
AcDbLine
 62
250
  6
CONTINUOUS
 10
-1.2653980041
 20
-17.640232992
 11
4.0256771111
 21
-19.2650709001
  0
LINE
  5
2C1
100
AcDbEntity
  8
RACCORDO
100
AcDbLine
 62
7
  6
CONTINUOUS
 10
-1.2354918307
 20
-17.6456090097
 11
4.0207138783
 21
-19.2597388611
  0
LWPOLYLINE
  5
2C2
100
AcDbEntity
  8
ASSI
100
AcDbPolyline
 62
7
  6
CONTINUOUS
 90
9
 70
0
 10
4.9946223258
 20
-21.0500577811
 10
5.1938440056
 20
-21.1192269566
 10
5.3888963904
 20
-21.2015302967
 10
5.5797794804
 20
-21.2969678015
 10
5.7679107264
 20
-21.406484512
 10
5.9518726776
 20
-21.5291353872
 10
6.1274129808
 20
-21.6620853037
 10
6.2931141851
 20
-21.8043892204
 10
6.4503937414
 20
-21.9569921783
  0
LINE
  5
2C3
100
AcDbEntity
  8
DRAFT
100
AcDbLine
 62
7
  6
CONTINUOUS
 10
3.108318138
 20
-20.4069035072
 11
3.1723459255
 21
-20.4356716157
  0
LINE
  5
2C4
100
AcDbEntity
  8
DRAFT
100
AcDbLine
 62
7
  6
CONTINUOUS
 10
3.3121000596
 20
-20.115122094
 11
3.3761278472
 21
-20.1438902025
  0
LINE
  5
2C5
100
AcDbEntity
  8
DRAFT
100
AcDbLine
 62
7
  6
CONTINUOUS
 10
3.5158819812
 20
-19.8233406808
 11
3.5799097688
 21
-19.8521087892
  0
LINE
  5
2C6
100
AcDbEntity
  8
DRAFT
100
AcDbLine
 62
7
  6
CONTINUOUS
 10
3.7196639029
 20
-19.5315592675
 11
3.7836916904
 21
-19.560327376
  0
LWPOLYLINE
  5
2C7
100
AcDbEntity
  8
RACCORDO
100
AcDbPolyline
 62
250
  6
CONTINUOUS
 90
10
 70
0
 10
-2.2521650883
 20
-22.8202134723
 10
-2.1985303776
 20
-22.8792387046
 10
-2.1494680526
 20
-22.9494385898
 10
-2.1051802272
 20
-23.0305232902
 10
-2.0658492899
 20
-23.1221580002
 10
-2.0316371516
 20
-23.223964329
 10
-2.002684576
 20
-23.3355218641
 10
-1.979110598
 20
-23.4563699081
 10
-1.9610120319
 20
-23.5860093825
 10
-1.9484630718
 20
-23.7239048884
  0
LWPOLYLINE
  5
2C8
100
AcDbEntity
  8
RACCORDO
100
AcDbPolyline
 62
250
  6
CONTINUOUS
 90
10
 70
0
 10
-3.1365759771
 20
-22.5486194565
 10
-3.0835367205
 20
-22.6074618066
 10
-3.0350617009
 20
-22.6774813096
 10
-2.991353034
 20
-22.7583881334
 10
-2.95268778
 20
-22.8498184097
 10
-2.9191331833
 20
-22.9514228215
 10
-2.8905460008
 20
-23.0628681619
 10
-2.8669505976
 20
-23.1837227999
 10
-2.848538458
 20
-23.3134585897
 10
-2.8353837761
 20
-23.4515401326
  0
LWPOLYLINE
  5
2C9
100
AcDbEntity
  8
ASSI
100
AcDbPolyline
 62
7
  6
CONTINUOUS
 90
13
 70
0
 10
-11.5707479904
 20
-16.6535031855
 10
-11.5673684154
 20
-16.6854799476
 10
-11.5598504743
 20
-16.7172333323
 10
-11.548194167
 20
-16.7487633398
 10
-11.5320623129
 20
-16.7805957638
 10
-11.5117920927
 20
-16.8122048104
 10
-11.4883950478
 20
-16.8420130987
 10
-11.4617125013
 20
-16.8699292454
 10
-11.4319031302
 20
-16.8960446337
 10
-11.4004545066
 20
-16.9190560316
 10
-11.367862488
 20
-16.9385290283
 10
-11.333631217
 20
-16.9548980345
 10
-11.2977606936
 20
-16.9681630503
  0
LINE
  5
2CA
100
AcDbEntity
  8
RACCORDO
100
AcDbLine
 62
250
  6
CONTINUOUS
 10
-14.9508933319
 20
13.7978798254
 11
-15.0305833906
 21
16.8766062191
  0
LWPOLYLINE
  5
2CB
100
AcDbEntity
  8
RACCORDO
100
AcDbPolyline
 62
250
  6
CONTINUOUS
 90
3
 70
0
 10
-14.5926018181
 20
-0.42314395
 10
-14.8620023633
 20
10.2831426198
 10
-14.9508933319
 20
13.7978798254
  0
LINE
  5
2CC
100
AcDbEntity
  8
0
100
AcDbLine
 62
250
  6
CONTINUOUS
 10
-13.2474824326
 20
16.8563174468
 11
-12.388383335
 21
-17.6781144141
  0
LINE
  5
2CD
100
AcDbEntity
  8
ASSI
100
AcDbLine
 62
7
  6
CONTINUOUS
 10
-12.3978677349
 20
16.5954090041
 11
-12.3486222317
 21
14.615817267
  0
LINE
  5
2CE
100
AcDbEntity
  8
ASSI
100
AcDbLine
 62
7
  6
CONTINUOUS
 10
-11.6531218414
 20
-13.3422039962
 11
-11.5707479904
 21
-16.6535031855
  0
LINE
  5
2CF
100
AcDbEntity
  8
ASSI
100
AcDbLine
 62
7
  6
CONTINUOUS
 10
-11.7581078161
 20
15.3558142655
 11
-11.0626074258
 21
-12.6022069978
  0
LINE
  5
2D0
100
AcDbEntity
  8
RACCORDO
100
AcDbLine
 62
250
  6
CONTINUOUS
 10
-14.205354267
 20
-16.2224366575
 11
-14.5926018181
 21
-0.42314395
  0
LINE
  5
2D1
100
AcDbEntity
  8
RACCORDO
100
AcDbLine
 62
250
  6
CONTINUOUS
 10
-14.1703352982
 20
-17.7040134227
 11
-14.205354267
 21
-16.2224366575
  0
LWPOLYLINE
  5
2D2
100
AcDbEntity
  8
ASSI
100
AcDbPolyline
 62
7
  6
CONTINUOUS
 90
5
 70
0
 10
7.1407489951
 20
-22.6304507442
 10
7.0678494794
 20
-22.5750839607
 10
6.903308646
 20
-22.4335046538
 10
6.7471093694
 20
-22.2817747261
 10
6.4503937414
 20
-21.9569921783
  0
LWPOLYLINE
  5
2D3
100
AcDbEntity
  8
RACCORDO
100
AcDbPolyline
 62
250
  6
CONTINUOUS
 90
10
 70
0
 10
-14.5926663218
 20
-0.4205783643
 10
-14.693301205
 20
-0.3116370552
 10
-14.8055209424
 20
-0.2074008021
 10
-14.928815639
 20
-0.1083432252
 10
-15.0626250784
 20
-0.0149144142
 10
-15.2063412683
 20
0.0724611166
 10
-15.3593112027
 20
0.1533863575
 10
-15.5208398294
 20
0.2274936072
 10
-15.6901932077
 20
0.294446143
 10
-15.8666018437
 20
0.3539397515
  0
LWPOLYLINE
  5
2D4
100
AcDbEntity
  8
RACCORDO
100
AcDbPolyline
 62
250
  6
CONTINUOUS
 90
10
 70
0
 10
7.0581741892
 20
-25.6791387708
 10
7.1085550822
 20
-25.7360704547
 10
7.1546103452
 20
-25.8035999179
 10
7.1961595467
 20
-25.8814626778
 10
7.233039902
 20
-25.9693537845
 10
7.2651069102
 20
-26.0669290145
 10
7.2922349207
 20
-26.1738062189
 10
7.3143176252
 20
-26.2895668201
 10
7.3312684735
 20
-26.413757451
 10
7.3430210131
 20
-26.5458917304
  0
LWPOLYLINE
  5
2D5
100
AcDbEntity
  8
0
100
AcDbPolyline
 62
250
  6
CONTINUOUS
 90
10
 70
0
 10
-12.388383335
 20
-17.6781144141
 10
-12.3833191517
 20
-17.7197524565
 10
-12.3702900776
 20
-17.7626185417
 10
-12.3496919947
 20
-17.8054102052
 10
-12.3221507652
 20
-17.8468272442
 10
-12.2885032154
 20
-17.8856112227
 10
-12.2497717092
 20
-17.9205837093
 10
-12.2071330837
 20
-17.9506820826
 10
-12.161882892
 20
-17.9749918189
 10
-12.1153960383
 20
-17.9927742789
  0
LWPOLYLINE
  5
2D6
100
AcDbEntity
  8
ASSI
100
AcDbPolyline
 62
7
  6
CONTINUOUS
 90
7
 70
0
 10
-11.0626074233
 20
-12.6022070979
 10
-11.0675466538
 20
-12.7726198429
 10
-11.0892698806
 20
-12.9339644855
 10
-11.1277771037
 20
-13.0862410258
 10
-11.1836279844
 20
-13.2304910602
 10
-11.2562628613
 20
-13.3656729923
 10
-11.3351065188
 20
-13.4776477641
  0
LWPOLYLINE
  5
2D7
100
AcDbEntity
  8
RACCORDO
100
AcDbPolyline
 62
250
  6
CONTINUOUS
 90
10
 70
0
 10
-4.070597661
 20
14.9815744395
 10
-4.0233221482
 20
15.167054263
 10
-3.9808817277
 20
15.3519198556
 10
-3.9434523082
 20
15.535407665
 10
-3.9111890969
 20
15.7167598309
 10
-3.8842259578
 20
15.8952273157
 10
-3.8626748586
 20
16.0700729993
 10
-3.8466254088
 20
16.2405747242
 10
-3.8361444891
 20
16.4060282791
 10
-3.8312759749
 20
16.565750308
  0
LWPOLYLINE
  5
2D8
100
AcDbEntity
  8
RACCORDO
100
AcDbPolyline
 62
250
  6
CONTINUOUS
 90
10
 70
0
 10
8.2520406829
 20
-7.4407486001
 10
8.45307079
 20
-7.4238807378
 10
8.6550925205
 20
-7.415582616
 10
8.8571879441
 20
-7.415891939
 10
9.0584387961
 20
-7.4248073014
 10
9.2579306489
 20
-7.4422881941
 10
9.4547570676
 20
-7.4682551891
 10
9.648023728
 20
-7.5025902995
 10
9.8368524806
 20
-7.5451375163
 10
10.0203853406
 20
-7.5957035167
  0
LWPOLYLINE
  5
2D9
100
AcDbEntity
  8
RACCORDO
100
AcDbPolyline
 62
250
  6
CONTINUOUS
 90
10
 70
0
 10
33.0849672668
 20
-12.6473424699
 10
30.1444219828
 20
-12.2024654121
 10
27.3673834535
 20
-11.7324071756
 10
24.7688120664
 20
-11.2473485232
 10
22.3978981695
 20
-10.7656122394
 10
20.1432554779
 20
-10.2713599819
 10
17.841305404
 20
-9.7293880423
 10
15.2519523509
 20
-9.0736559141
 10
12.5098695834
 20
-8.3252600532
 10
10.0203918747
 20
-7.5960215136
  0
LWPOLYLINE
  5
2DA
100
AcDbEntity
  8
RACCORDO
100
AcDbPolyline
 62
250
  6
CONTINUOUS
 90
10
 70
0
 10
-36.3273631983
 20
8.6685117527
 10
-33.9750531058
 20
7.4880042015
 10
-31.6884778199
 20
6.4030756916
 10
-29.490331761
 20
5.4151088869
 10
-27.4343087168
 20
4.537375724
 10
-25.4332129284
 20
3.7247319237
 10
-23.3430471532
 20
2.9179276367
 10
-20.9331582872
 20
2.0384410044
 10
-18.3113139397
 20
1.1396268146
 10
-15.8665929224
 20
0.3536207293
  0
LWPOLYLINE
  5
2DB
100
AcDbEntity
  8
RACCORDO
100
AcDbPolyline
 62
250
  6
CONTINUOUS
 90
11
 70
0
 10
-13.4153854177
 20
16.9972295468
 10
-13.4340497278
 20
17.0528353908
 10
-13.4479584113
 20
17.117067989
 10
-13.4569567604
 20
17.1892128751
 10
-13.4609446855
 20
17.2684675735
 10
-13.4598778294
 20
17.3539504986
 10
-13.453768061
 20
17.4447108382
 10
-13.4426833275
 20
17.5397391438
 10
-13.4267469068
 20
17.6379784442
 10
-13.4061360517
 20
17.7383359878
 10
-13.3810800078
 20
17.8396954849
  0
LWPOLYLINE
  5
2DC
100
AcDbEntity
  8
RACCORDO
100
AcDbPolyline
 62
250
  6
CONTINUOUS
 90
10
 70
0
 10
-2.8369750594
 20
-23.4510529056
 10
-2.777732218
 20
-24.2356866734
 10
-2.7051187677
 20
-25.0429664848
 10
-2.6059383729
 20
-25.9646925563
 10
-2.4698299446
 20
-27.0154456875
 10
-2.2966718708
 20
-28.1250158821
 10
-2.0950322746
 20
-29.2117676655
 10
-1.8715804994
 20
-30.2399391313
 10
-1.6228100337
 20
-31.2296158568
 10
-1.3472217367
 20
-32.1847735921
  0
LWPOLYLINE
  5
2DD
100
AcDbEntity
  8
RACCORDO
100
AcDbPolyline
 62
250
  6
CONTINUOUS
 90
10
 70
0
 10
-1.9468718789
 20
-23.7243949677
 10
-1.8880135787
 20
-24.5089106385
 10
-1.8145908545
 20
-25.3164389613
 10
-1.7143249641
 20
-26.2384983673
 10
-1.5777887077
 20
-27.289382868
 10
-1.4050467598
 20
-28.3988252642
 10
-1.2044100025
 20
-29.4852690864
 10
-0.9818485764
 20
-30.5131671451
 10
-0.7333752244
 20
-31.502752646
 10
-0.4569979437
 20
-32.4581526916
  0
LWPOLYLINE
  5
2DE
100
AcDbEntity
  8
RACCORDO
100
AcDbPolyline
 62
250
  6
CONTINUOUS
 90
10
 70
0
 10
-3.8321898062
 20
16.5660309364
 10
-3.8146516872
 20
17.4466299379
 10
-3.7851106437
 20
18.3826482126
 10
-3.7360224398
 20
19.4911521548
 10
-3.6588165898
 20
20.8098091482
 10
-3.5500427102
 20
22.2726854179
 10
-3.4135982433
 20
23.7825407415
 10
-3.2536709918
 20
25.2904805569
 10
-3.0677440379
 20
26.8245745571
 10
-2.85437241
 20
28.3928729261
  0
LWPOLYLINE
  5
2DF
100
AcDbEntity
  8
RACCORDO
100
AcDbPolyline
 62
250
  6
CONTINUOUS
 90
10
 70
0
 10
-3.1857854862
 20
14.7098573949
 10
-3.1379145601
 20
14.895154291
 10
-3.0948868529
 20
15.0798394843
 10
-3.0568782758
 20
15.2631494226
 10
-3.0239493657
 20
15.444297181
 10
-2.9963286621
 20
15.6225627842
 10
-2.9744121514
 20
15.7972963025
 10
-2.9583841149
 20
15.9678046418
 10
-2.9482167614
 20
16.1333545262
 10
-2.9439539666
 20
16.2932625989
  0
LWPOLYLINE
  5
2E0
100
AcDbEntity
  8
RACCORDO
100
AcDbPolyline
 62
7
  6
CONTINUOUS
 90
4
 70
0
 10
4.0256771111
 20
-19.2650709001
 10
4.0240466976
 20
-19.2619043712
 10
4.0213770204
 20
-19.2599863184
 10
4.0205720272
 20
-19.2596953244
  0
LWPOLYLINE
  5
2E1
100
AcDbEntity
  8
RACCORDO
100
AcDbPolyline
 62
250
  6
CONTINUOUS
 90
10
 70
0
 10
-2.9423628398
 20
16.2927751757
 10
-2.9249299145
 20
17.1734943581
 10
-2.8948785764
 20
18.109427451
 10
-2.8451227099
 20
19.2177914072
 10
-2.7675299357
 20
20.5363419184
 10
-2.6587777015
 20
21.9991850236
 10
-2.5227296789
 20
23.5091065239
 10
-2.3632535973
 20
25.0171400912
 10
-2.1775614182
 20
26.5512592368
 10
-1.9639621571
 20
28.119437384
  0
LINE
  5
2E2
100
AcDbEntity
  8
ASSI
100
AcDbLine
 62
250
  6
CONTINUOUS
 10
-11.6531218414
 20
-13.3422039962
 11
-11.0626074258
 21
-12.6022069978
  0
LINE
  5
2E3
100
AcDbEntity
  8
ASSI
100
AcDbLine
 62
7
  6
CONTINUOUS
 10
-11.6402402683
 20
-13.8600229643
 11
-11.3352002896
 21
-13.4777652875
  0
LINE
  5
2E4
100
AcDbEntity
  8
0
100
AcDbLine
 62
7
  6
CONTINUOUS
 10
35.9398108093
 20
-13.1840121773
 11
36.7858048657
 21
-13.4438087561
  0
LWPOLYLINE
  5
2E5
100
AcDbEntity
  8
RACCORDO
100
AcDbPolyline
 62
250
  6
CONTINUOUS
 90
10
 70
0
 10
-15.0305754074
 20
16.8766088998
 10
-15.1256550871
 20
16.9824056205
 10
-15.2318913034
 20
17.0838609221
 10
-15.3488244525
 20
17.1805360671
 10
-15.4759486518
 20
17.272012988
 10
-15.6127139287
 20
17.3578960961
 10
-15.7585286004
 20
17.4378139921
 10
-15.9127618329
 20
17.5114210729
 10
-16.074746371
 20
17.5783990266
 10
-16.2437814243
 20
17.6384582094
  0
LWPOLYLINE
  5
2E6
100
AcDbEntity
  8
ASSI
100
AcDbPolyline
 62
7
  6
CONTINUOUS
 90
8
 70
0
 10
-12.1427119051
 20
16.5170531207
 10
-12.0882790768
 20
16.4300754606
 10
-11.9930221095
 20
16.2508898545
 10
-11.9124914126
 20
16.0686722546
 10
-11.8485484849
 20
15.8876346925
 10
-11.8018138261
 20
15.709181179
 10
-11.7716669365
 20
15.5319077033
 10
-11.7581078161
 20
15.3558142655
  0
LINE
  5
2E7
100
AcDbEntity
  8
RACCORDO
100
AcDbLine
 62
7
  6
CONTINUOUS
 10
4.0256771111
 20
-19.2650709001
 11
4.0258151354
 21
-19.2663719568
  0
LINE
  5
2E8
100
AcDbEntity
  8
RACCORDO
100
AcDbLine
 62
250
  6
CONTINUOUS
 10
4.0121431426
 20
-19.2786753389
 11
4.0286724347
 21
-19.9431268712
  0
LINE
  5
2E9
100
AcDbEntity
  8
RACCORDO
100
AcDbLine
 62
7
  6
CONTINUOUS
 10
4.0258081846
 20
-19.2663705027
 11
4.041642723
 21
-19.90289403
  0
LINE
  5
2EA
100
AcDbEntity
  8
RACCORDO
100
AcDbLine
 62
250
  6
CONTINUOUS
 10
4.041642723
 20
-19.90289403
 11
4.0416483262
 21
-19.9056222188
  0
LWPOLYLINE
  5
2EB
100
AcDbEntity
  8
RACCORDO
100
AcDbPolyline
 62
250
  6
CONTINUOUS
 90
9
 70
0
 10
6.1690425172
 20
12.0307510776
 10
6.2089263743
 20
12.2112305236
 10
6.2440792947
 20
12.3904266247
 10
6.2743636209
 20
12.567637608
 10
6.2996607614
 20
12.7421694754
 10
6.3198716548
 20
12.9133387206
 10
6.3349171584
 20
13.0804750065
 10
6.3447383572
 20
13.2429237897
 10
6.3492967954
 20
13.4000488846
  0
LINE
  5
2EC
100
AcDbEntity
  8
DRAFT
100
AcDbLine
 62
7
  6
CONTINUOUS
 10
-2.3433068902
 20
-18.7327622762
 11
-2.2740291021
 21
-18.5414202935
  0
LWPOLYLINE
  5
2ED
100
AcDbEntity
  8
RACCORDO
100
AcDbPolyline
 62
250
  6
CONTINUOUS
 90
22
 70
0
 10
-12.1153960383
 20
-17.9927742789
 10
-12.1631291962
 20
-18.057037158
 10
-12.2101168715
 20
-18.1292095208
 10
-12.2558364161
 20
-18.208488588
 10
-12.2997792879
 20
-18.2939925321
 10
-12.3414567065
 20
-18.3847702855
 10
-12.3804050907
 20
-18.4798121197
 10
-12.4161912143
 20
-18.5780608765
 10
-12.4484170252
 20
-18.6784237268
 10
-12.476724073
 20
-18.7797843261
 10
-12.5007974962
 20
-18.8810152322
 10
-12.520369524
 20
-18.9809904452
 10
-12.5352224551
 20
-19.0785979326
 10
-12.5451910792
 20
-19.172751998
 10
-12.5501645144
 20
-19.262405358
 10
-12.5500874407
 20
-19.3465607908
 10
-12.544960725
 20
-19.424282136
 10
-12.5348413951
 20
-19.4947050032
 10
-12.5198419438
 20
-19.5570462921
 10
-12.5001291311
 20
-19.6106125385
 10
-12.4759221915
 20
-19.6548077272
 10
-12.4474903383
 20
-19.6891401529
  0
LINE
  5
2EE
100
AcDbEntity
  8
ASSI
100
AcDbLine
 62
250
  6
CONTINUOUS
 10
-11.5707479904
 20
-16.6535031855
 11
-12.388383335
 21
-17.6781144141
  0
LINE
  5
2EF
100
AcDbEntity
  8
ASSI
100
AcDbLine
 62
250
  6
CONTINUOUS
 10
-11.2977606936
 20
-16.9681630503
 11
-12.1153960383
 21
-17.9927742789
  0
LINE
  5
2F0
100
AcDbEntity
  8
ASSI
100
AcDbLine
 62
250
  6
CONTINUOUS
 10
-8.4791482466
 20
-17.4894636483
 11
-8.6998003283
 21
-17.7659715096
  0
LWPOLYLINE
  5
2F1
100
AcDbEntity
  8
RACCORDO
100
AcDbPolyline
 62
250
  6
CONTINUOUS
 90
22
 70
0
 10
-12.388383335
 20
-17.6781144141
 10
-12.4407591829
 20
-17.7361318957
 10
-12.5023245266
 20
-17.7905150599
 10
-12.5724044781
 20
-17.8406677506
 10
-12.6502308109
 20
-17.8860401868
 10
-12.7349503816
 20
-17.9261349893
 10
-12.8256344821
 20
-17.9605126334
 10
-12.9212890205
 20
-17.9887962662
 10
-13.0208654178
 20
-18.0106758385
 10
-13.1232721035
 20
-18.0259115034
 10
-13.2273864807
 20
-18.0343362453
 10
-13.3320672329
 20
-18.035857711
 10
-13.4361668345
 20
-18.0304592219
 10
-13.5385441308
 20
-18.0181999571
 10
-13.6380768474
 20
-17.9992143044
 10
-13.7336738922
 20
-17.9737103872
 10
-13.8242872899
 20
-17.9419677938
 10
-13.9089237541
 20
-17.9043344839
 10
-13.9866555563
 20
-17.8612229571
 10
-14.0566305884
 20
-17.8131057787
 10
-14.1180817238
 20
-17.7605104174
 10
-14.1703352982
 20
-17.7040134227
  0
LWPOLYLINE
  5
2F2
100
AcDbEntity
  8
0
100
AcDbPolyline
 62
7
  6
CONTINUOUS
 90
3
 70
0
 10
6.6824130314
 20
10.4500103282
 10
6.6827585705
 20
10.4439653582
 10
6.6826361367
 20
10.4443960923
  0
LWPOLYLINE
  5
2F3
100
AcDbEntity
  8
RACCORDO
100
AcDbPolyline
 62
250
  6
CONTINUOUS
 90
18
 70
0
 10
7.5426611237
 20
-24.1306093136
 10
7.5438957909
 20
-24.1535719298
 10
7.5548148559
 20
-24.2191508903
 10
7.5765594252
 20
-24.283486631
 10
7.6088911323
 20
-24.3458738953
 10
7.6514555528
 20
-24.4056287862
 10
7.7037860902
 20
-24.4620962631
 10
7.7653090907
 20
-24.5146573225
 10
7.8353501313
 20
-24.5627357834
 10
7.9131414134
 20
-24.6058046036
 10
7.9978301793
 20
-24.6433916575
 10
8.0884880599
 20
-24.6750849109
 10
8.1841211612
 20
-24.7005369178
 10
8.2836812249
 20
-24.7194687029
 10
8.3860771523
 20
-24.7316727585
 10
8.4901865789
 20
-24.7370152467
 10
8.5948681465
 20
-24.7354375295
 10
8.6989743033
 20
-24.7269568445
  0
LWPOLYLINE
  5
2F4
100
AcDbEntity
  8
RACCORDO
100
AcDbPolyline
 62
250
  6
CONTINUOUS
 90
18
 70
0
 10
6.6824130314
 20
10.4500103282
 10
6.6836477206
 20
10.4270474461
 10
6.6945668427
 20
10.3614684367
 10
6.7163114858
 20
10.2971326526
 10
6.7486432819
 20
10.2347453519
 10
6.7912078054
 20
10.1749904331
 10
6.8435384577
 20
10.1185229383
 10
6.9050615828
 20
10.0659618722
 10
6.9751027554
 20
10.0178834167
 10
7.0528941742
 20
9.9748146147
 10
7.1375830784
 20
9.9372275926
 10
7.2282410962
 20
9.9055343847
 10
7.3238743916
 20
9.8800824233
 10
7.4234346461
 20
9.8611507056
 10
7.5258305613
 20
9.8489467558
 10
7.6299396952
 20
9.8436043734
 10
7.7346207568
 20
9.8451821462
 10
8.0345246569
 20
9.8701454775
  0
LINE
  5
2F5
100
AcDbEntity
  8
RACCORDO
100
AcDbLine
 62
250
  6
CONTINUOUS
 10
8.6580154402
 20
-23.2461861685
 11
8.6989743033
 21
-24.7269568445
  0
LINE
  5
2F6
100
AcDbEntity
  8
RACCORDO
100
AcDbLine
 62
250
  6
CONTINUOUS
 10
8.6155539468
 20
-21.6528695108
 11
8.6580154402
 21
-23.2461861685
  0
LINE
  5
2F7
100
AcDbEntity
  8
RACCORDO
100
AcDbLine
 62
250
  6
CONTINUOUS
 10
8.5484611733
 20
-19.0576220926
 11
8.6155539468
 21
-21.6528695108
  0
LINE
  5
2F8
100
AcDbEntity
  8
RACCORDO
100
AcDbLine
 62
250
  6
CONTINUOUS
 10
8.2519833005
 20
-7.4384948675
 11
8.5484611733
 21
-19.0576220926
  0
LINE
  5
2F9
100
AcDbEntity
  8
0
100
AcDbLine
 62
7
  6
CONTINUOUS
 10
7.5426611237
 20
-24.1306093136
 11
6.6824130314
 21
10.4500103282
  0
LINE
  5
2FA
100
AcDbEntity
  8
RACCORDO
100
AcDbLine
 62
250
  6
CONTINUOUS
 10
7.8894299797
 20
7.5850871095
 11
8.2519833005
 21
-7.4384948675
  0
LINE
  5
2FB
100
AcDbEntity
  8
RACCORDO
100
AcDbLine
 62
250
  6
CONTINUOUS
 10
7.838726211
 20
9.8536627974
 11
7.8894299797
 21
7.5850871095
  0
LWPOLYLINE
  5
2FC
100
AcDbEntity
  8
RACCORDO
100
AcDbPolyline
 62
250
  6
CONTINUOUS
 90
6
 70
0
 10
4.0286724347
 20
-19.9431268712
 10
4.0283330343
 20
-19.9549501966
 10
4.0264894147
 20
-19.9662415368
 10
4.0231618708
 20
-19.9768765929
 10
4.018386374
 20
-19.9867394251
 10
4.0156137302
 20
-19.9911388001
  0
LWPOLYLINE
  5
2FD
100
AcDbEntity
  8
RACCORDO
100
AcDbPolyline
 62
250
  6
CONTINUOUS
 90
5
 70
0
 10
4.0416483262
 20
-19.9056222188
 10
4.0406764551
 20
-19.9152303104
 10
4.0381699502
 20
-19.9247482129
 10
4.0341547708
 20
-19.9340790937
 10
4.0286724347
 20
-19.9431268712
  0
LINE
  5
2FE
100
AcDbEntity
  8
DRAFT
100
AcDbLine
 62
7
  6
CONTINUOUS
 10
-2.0928469536
 20
-18.4553152291
 11
-2.0235691656
 21
-18.2639732464
  0
LINE
  5
2FF
100
AcDbEntity
  8
DRAFT
100
AcDbLine
 62
7
  6
CONTINUOUS
 10
-1.8423870171
 20
-18.177868182
 11
-1.7731092291
 21
-17.9865261993
  0
LINE
  5
300
100
AcDbEntity
  8
DRAFT
100
AcDbLine
 62
7
  6
CONTINUOUS
 10
-1.5919270806
 20
-17.9004211349
 11
-1.5226492926
 21
-17.7090791522
  0
LINE
  5
301
100
AcDbEntity
  8
ASSI
100
AcDbLine
 62
250
  6
CONTINUOUS
 10
-6.9034510334
 20
-17.3962747205
 11
-7.493965449
 21
-18.1362717189
  0
LWPOLYLINE
  5
302
100
AcDbEntity
  8
RACCORDO
100
AcDbPolyline
 62
250
  6
CONTINUOUS
 90
4
 70
0
 10
9.5722930443
 20
9.7105725337
 10
9.5964830873
 20
8.9815787247
 10
9.6189900945
 20
8.2246507541
 10
9.6407196166
 20
7.4397341344
  0
LINE
  5
303
100
AcDbEntity
  8
RACCORDO
100
AcDbLine
 62
250
  6
CONTINUOUS
 10
9.6407196166
 20
7.4397341344
 11
9.684508285
 21
5.7844244729
  0
LINE
  5
304
100
AcDbEntity
  8
RACCORDO
100
AcDbLine
 62
250
  6
CONTINUOUS
 10
9.684508285
 20
5.7844244729
 11
9.752995406
 21
3.1013451013
  0
LINE
  5
305
100
AcDbEntity
  8
RACCORDO
100
AcDbLine
 62
250
  6
CONTINUOUS
 10
9.752995406
 20
3.1013451013
 11
9.9613970618
 21
-5.2208535166
  0
LINE
  5
306
100
AcDbEntity
  8
RACCORDO
100
AcDbLine
 62
250
  6
CONTINUOUS
 10
9.9613970618
 20
-5.2208535166
 11
10.1355818369
 21
-12.2276557779
  0
LWPOLYLINE
  5
307
100
AcDbEntity
  8
RACCORDO
100
AcDbPolyline
 62
250
  6
CONTINUOUS
 90
3
 70
0
 10
10.1355818369
 20
-12.2276557779
 10
10.2618637496
 20
-17.3416361359
 10
10.2849839671
 20
-18.2839720575
  0
LINE
  5
308
100
AcDbEntity
  8
RACCORDO
100
AcDbLine
 62
250
  6
CONTINUOUS
 10
10.2849839671
 20
-18.2839720575
 11
10.3496200234
 21
-20.9523695865
  0
LWPOLYLINE
  5
309
100
AcDbEntity
  8
RACCORDO
100
AcDbPolyline
 62
250
  6
CONTINUOUS
 90
5
 70
0
 10
10.3496200234
 20
-20.9523695865
 10
10.3878941331
 20
-22.5959733371
 10
10.4050340907
 20
-23.3736106165
 10
10.4199552726
 20
-24.1212007577
 10
10.4317374301
 20
-24.8377227499
  0
LWPOLYLINE
  5
30A
100
AcDbEntity
  8
RACCORDO
100
AcDbPolyline
 62
250
  6
CONTINUOUS
 90
85
 70
0
 10
8.6989743033
 20
-24.7269568445
 10
8.699398098
 20
-24.7908002505
 10
8.6966335107
 20
-24.8513939586
 10
8.6910117691
 20
-24.9087377073
 10
8.682858537
 20
-24.9626937621
 10
8.672501476
 20
-25.0134650401
 10
8.6601942434
 20
-25.0615641802
 10
8.6460895915
 20
-25.1072688587
 10
8.6304657434
 20
-25.1503814542
 10
8.6137202625
 20
-25.1907150996
 10
8.5961969729
 20
-25.2282115006
 10
8.578026563
 20
-25.2631242541
 10
8.5592774792
 20
-25.2957488395
 10
8.5401309975
 20
-25.3261564786
 10
8.5207521865
 20
-25.3544492891
 10
8.5011200807
 20
-25.3809351848
 10
8.4813572528
 20
-25.4056874137
 10
8.4615854545
 20
-25.4287745489
 10
8.4417253816
 20
-25.4504612593
 10
8.4218453397
 20
-25.4708189151
 10
8.4020449951
 20
-25.4898840895
 10
8.3822509839
 20
-25.5078395933
 10
8.3624962794
 20
-25.5247516141
 10
8.3428672944
 20
-25.540637562
 10
8.3233480967
 20
-25.5555898283
 10
8.3039871538
 20
-25.5696457203
 10
8.2848314162
 20
-25.5828421867
 10
8.2658498624
 20
-25.5952610065
 10
8.2470683121
 20
-25.6069412464
 10
8.2285349537
 20
-25.6179065415
 10
8.2102434002
 20
-25.6282081141
 10
8.1921955882
 20
-25.6378897475
 10
8.1744495668
 20
-25.6469631404
 10
8.1570812228
 20
-25.6554310721
 10
8.1401135386
 20
-25.6633262301
 10
8.1235795529
 20
-25.6706740398
 10
8.1075728111
 20
-25.6774710776
 10
8.092148716
 20
-25.6837379743
 10
8.0773041131
 20
-25.6895141894
 10
8.0630449602
 20
-25.6948257771
 10
8.0494885726
 20
-25.699664553
 10
8.0365614265
 20
-25.7040926436
 10
8.0239741399
 20
-25.7082295595
 10
8.0117275246
 20
-25.7120917432
 10
7.9998425831
 20
-25.7156895205
 10
7.9880470191
 20
-25.7191146224
 10
7.9763403558
 20
-25.722373366
 10
7.9647320459
 20
-25.7254688439
 10
7.9529544027
 20
-25.7284724321
 10
7.9410356265
 20
-25.7313748552
 10
7.928947297
 20
-25.7341805832
 10
7.9163262013
 20
-25.7369642996
 10
7.903118307
 20
-25.7397198393
 10
7.8893648208
 20
-25.7424258889
 10
7.8748350031
 20
-25.7451167012
 10
7.8593805049
 20
-25.7477942523
 10
7.8431262701
 20
-25.7504078366
 10
7.8262500695
 20
-25.7529102564
 10
7.8088248951
 20
-25.7552732578
 10
7.7907632758
 20
-25.7574885313
 10
7.7720045598
 20
-25.7595421538
 10
7.7525301538
 20
-25.7614120321
 10
7.732342036
 20
-25.763073586
 10
7.7114091503
 20
-25.7645050715
 10
7.6897415022
 20
-25.7656795716
 10
7.6673135137
 20
-25.7665716151
 10
7.6440392129
 20
-25.7671560324
 10
7.6199149258
 20
-25.7674004213
 10
7.5949283711
 20
-25.7672724762
 10
7.5689780437
 20
-25.7667377841
 10
7.5420197035
 20
-25.7657555467
 10
7.5140816447
 20
-25.7642851689
 10
7.4851706455
 20
-25.7622868622
 10
7.4551763101
 20
-25.7597108523
 10
7.4241988353
 20
-25.7565174256
 10
7.3925689519
 20
-25.7526995047
 10
7.3606576615
 20
-25.7482881702
 10
7.3281072738
 20
-25.7432137921
 10
7.2941566373
 20
-25.7372962747
 10
7.2586156928
 20
-25.730425957
 10
7.221682494
 20
-25.7225680468
 10
7.1831753679
 20
-25.7136011885
 10
7.1430435897
 20
-25.7034236446
 10
7.1013686446
 20
-25.6919656172
 10
7.0581735101
 20
-25.6791405507
  0
LWPOLYLINE
  5
30B
100
AcDbEntity
  8
RACCORDO
100
AcDbPolyline
 62
250
  6
CONTINUOUS
 90
48
 70
0
 10
10.4317485758
 20
-24.8377072779
 10
10.4300552695
 20
-24.9592136248
 10
10.422150782
 20
-25.0747740313
 10
10.408623633
 20
-25.1845600837
 10
10.3899603518
 20
-25.2879256951
 10
10.3672547167
 20
-25.3844441105
 10
10.342006855
 20
-25.4744622456
 10
10.3154323798
 20
-25.5587459868
 10
10.2874077606
 20
-25.6376307632
 10
10.2572657906
 20
-25.7111418059
 10
10.2251111847
 20
-25.7792199076
 10
10.1916433965
 20
-25.8423798973
 10
10.1570079963
 20
-25.9012523857
 10
10.1215096779
 20
-25.9559837619
 10
10.0854612345
 20
-26.0067254287
 10
10.0489042366
 20
-26.0540562342
 10
10.012071593
 20
-26.0981088438
 10
9.9751723984
 20
-26.1390032436
 10
9.9381091384
 20
-26.1772398545
 10
9.9010113359
 20
-26.2129510818
 10
9.8640525314
 20
-26.246203978
 10
9.8271277588
 20
-26.2773492965
 10
9.790297039
 20
-26.3065100724
 10
9.7537120061
 20
-26.3337221142
 10
9.7173634904
 20
-26.3591745184
 10
9.6813375017
 20
-26.3829389886
 10
9.6457172565
 20
-26.40508297
 10
9.6104656636
 20
-26.4257709882
 10
9.5756269173
 20
-26.4450772772
 10
9.5412789162
 20
-26.4630501155
 10
9.5074180984
 20
-26.4798016591
 10
9.4740442079
 20
-26.4954076333
 10
9.4412719611
 20
-26.5098900227
 10
9.4092641385
 20
-26.5232803162
 10
9.3780811679
 20
-26.5356337505
 10
9.3477037947
 20
-26.5470288377
 10
9.3181769193
 20
-26.5575333129
 10
9.2895163467
 20
-26.5671823659
 10
9.2616022096
 20
-26.5761111074
 10
9.2342953906
 20
-26.5845146585
 10
9.2077043324
 20
-26.5924173666
 10
9.1818114616
 20
-26.5998431692
 10
9.156262833
 20
-26.6069668517
 10
9.1311277908
 20
-26.6137891791
 10
9.1064401796
 20
-26.6203171927
 10
9.0817344199
 20
-26.6267186101
 10
9.0570092582
 20
-26.6330040656
 10
9.0323122789
 20
-26.6391570932
  0
LINE
  5
30C
100
AcDbEntity
  8
DRAFT
100
AcDbLine
 62
7
  6
CONTINUOUS
 10
3.1723459255
 20
-20.4356716157
 11
3.2305872909
 21
-20.2318346593
  0
LINE
  5
30D
100
AcDbEntity
  8
DRAFT
100
AcDbLine
 62
7
  6
CONTINUOUS
 10
3.3761278472
 20
-20.1438902025
 11
3.4343692126
 21
-19.9400532461
  0
LINE
  5
30E
100
AcDbEntity
  8
DRAFT
100
AcDbLine
 62
7
  6
CONTINUOUS
 10
3.5799097688
 20
-19.8521087892
 11
3.6381511342
 21
-19.6482718328
  0
LINE
  5
30F
100
AcDbEntity
  8
DRAFT
100
AcDbLine
 62
7
  6
CONTINUOUS
 10
3.7836916904
 20
-19.560327376
 11
3.8419330559
 21
-19.3564904196
  0
LINE
  5
310
100
AcDbEntity
  8
RACCORDO
100
AcDbLine
 62
250
  6
CONTINUOUS
 10
30.7859774683
 20
19.3316511614
 11
33.2494946927
 21
22.2663744394
  0
LINE
  5
311
100
AcDbEntity
  8
DRAFT
100
AcDbLine
 62
7
  6
CONTINUOUS
 10
-1.4976032989
 20
-17.6813344475
 11
-1.5226492926
 21
-17.7090791522
  0
LINE
  5
312
100
AcDbEntity
  8
DRAFT
100
AcDbLine
 62
7
  6
CONTINUOUS
 10
-1.6729252545
 20
-17.8755473805
 11
-1.7731092291
 21
-17.9865261993
  0
LINE
  5
313
100
AcDbEntity
  8
DRAFT
100
AcDbLine
 62
7
  6
CONTINUOUS
 10
-1.923385191
 20
-18.1529944276
 11
-2.0235691656
 21
-18.2639732464
  0
LINE
  5
314
100
AcDbEntity
  8
DRAFT
100
AcDbLine
 62
7
  6
CONTINUOUS
 10
-2.1738451275
 20
-18.4304414746
 11
-2.2740291021
 21
-18.5414202935
  0
LINE
  5
315
100
AcDbEntity
  8
DRAFT
100
AcDbLine
 62
7
  6
CONTINUOUS
 10
-2.424305064
 20
-18.7078885217
 11
-2.4694610595
 21
-18.7579100852
  0
LWPOLYLINE
  5
316
100
AcDbEntity
  8
RACCORDO
100
AcDbPolyline
 62
250
  6
CONTINUOUS
 90
13
 70
0
 10
33.516778031
 20
16.1949266267
 10
33.4536858644
 20
16.1363019851
 10
33.3800102519
 20
16.0824445373
 10
33.2967227023
 20
16.0340644344
 10
33.2049214704
 20
15.991799602
 10
33.1058170749
 20
15.9562073278
 10
33.0007163364
 20
15.9277569129
 10
32.891005145
 20
15.9068234849
 10
32.7781301856
 20
15.8936830496
 10
32.6635798617
 20
15.8885088517
 10
32.5488646682
 20
15.8913690914
 10
32.4354972745
 20
15.9022260249
 10
32.3249725772
 20
15.9209364618
  0
LWPOLYLINE
  5
317
100
AcDbEntity
  8
ASSI
100
AcDbPolyline
 62
7
  6
CONTINUOUS
 90
10
 70
0
 10
-8.6211663587
 20
-17.5623261372
 10
-8.3361657583
 20
-17.4161830075
 10
-8.1841156047
 20
-17.3585722067
 10
-8.0229977857
 20
-17.3166312459
 10
-7.8514204077
 20
-17.2902778064
 10
-7.6707753643
 20
-17.279594207
 10
-7.4852383371
 20
-17.2848274031
 10
-7.2962012198
 20
-17.3060597133
 10
-7.1022721185
 20
-17.3432088191
 10
-6.9034510334
 20
-17.3962747205
  0
LWPOLYLINE
  5
318
100
AcDbEntity
  8
RACCORDO
100
AcDbPolyline
 62
250
  6
CONTINUOUS
 90
9
 70
0
 10
8.0345246569
 20
9.8701454775
 10
8.2315090061
 20
9.8784930846
 10
8.4288268262
 20
9.8786702381
 10
8.6256244281
 20
9.8706761675
 10
8.8210503736
 20
9.854545455
 10
9.0142591589
 20
9.8303478855
 10
9.2044148727
 20
9.7981881451
 10
9.3906948124
 20
9.7582053678
 10
9.5722930443
 20
9.7105725337
  0
LWPOLYLINE
  5
319
100
AcDbEntity
  8
RACCORDO
100
AcDbPolyline
 62
250
  6
CONTINUOUS
 90
5
 70
0
 10
-13.3000651515
 20
16.8724650903
 10
-13.3331848484
 20
16.8878377226
 10
-13.3646709266
 20
16.9142693248
 10
-13.3921730862
 20
16.9508689669
 10
-13.4153854177
 20
16.9972295468
  0
LWPOLYLINE
  5
31A
100
AcDbEntity
  8
0
100
AcDbPolyline
 62
7
  6
CONTINUOUS
 90
20
 70
0
 10
6.6826361367
 20
10.4443960923
 10
6.6810824425
 20
10.451084683
 10
6.6772145568
 20
10.4637758454
 10
6.6703945721
 20
10.4817297968
 10
6.6603234209
 20
10.503847508
 10
6.6467941221
 20
10.5293108583
 10
6.6296373166
 20
10.5574847271
 10
6.6088271843
 20
10.5876664358
 10
6.5843854911
 20
10.6192350467
 10
6.5565254815
 20
10.6514563542
 10
6.5255917664
 20
10.6836029438
 10
6.4918861674
 20
10.7151235796
 10
6.4559457952
 20
10.7453593715
 10
6.4186213613
 20
10.7735606787
 10
6.3805549084
 20
10.799311379
 10
6.3424032513
 20
10.8222941854
 10
6.3051375776
 20
10.8421340427
 10
6.2695362764
 20
10.8587136839
 10
6.2361545726
 20
10.872114581
 10
6.2055986969
 20
10.8824646925
  0
LINE
  5
31B
100
AcDbEntity
  8
RACCORDO
100
AcDbLine
 62
250
  6
CONTINUOUS
 10
3.5717396626
 20
-20.6131043
 11
4.0286724347
 21
-19.9431268712
  0
LINE
  5
31C
100
AcDbEntity
  8
RACCORDO
100
AcDbLine
 62
7
  6
CONTINUOUS
 10
3.5880166396
 20
-20.618102802
 11
4.015612025
 21
-19.9911413004
  0
LINE
  5
31D
100
AcDbEntity
  8
DRAFT
100
AcDbLine
 62
7
  6
CONTINUOUS
 10
3.862311248
 20
-19.3273122782
 11
3.8419330559
 21
-19.3564904196
  0
LINE
  5
31E
100
AcDbEntity
  8
DRAFT
100
AcDbLine
 62
7
  6
CONTINUOUS
 10
3.7196639029
 20
-19.5315592675
 11
3.6381511342
 21
-19.6482718328
  0
LINE
  5
31F
100
AcDbEntity
  8
DRAFT
100
AcDbLine
 62
7
  6
CONTINUOUS
 10
3.5158819812
 20
-19.8233406808
 11
3.4343692126
 21
-19.9400532461
  0
LINE
  5
320
100
AcDbEntity
  8
DRAFT
100
AcDbLine
 62
7
  6
CONTINUOUS
 10
3.3121000596
 20
-20.115122094
 11
3.2305872909
 21
-20.2318346593
  0
LINE
  5
321
100
AcDbEntity
  8
DRAFT
100
AcDbLine
 62
7
  6
CONTINUOUS
 10
3.108318138
 20
-20.4069035072
 11
3.0715778287
 21
-20.4595094464
  0
LINE
  5
322
100
AcDbEntity
  8
RACCORDO
100
AcDbLine
 62
250
  6
CONTINUOUS
 10
33.5167780321
 20
16.1949266263
 11
35.9756264644
 21
19.1240880952
  0
LWPOLYLINE
  5
323
100
AcDbEntity
  8
ASSI
100
AcDbPolyline
 62
7
  6
CONTINUOUS
 90
4
 70
0
 10
-8.6211663587
 20
-17.5623261372
 10
-8.7721633706
 20
-17.6197190608
 10
-8.9321392825
 20
-17.6616424191
 10
-9.0033853038
 20
-17.6727435047
  0
LWPOLYLINE
  5
324
100
AcDbEntity
  8
0
100
AcDbPolyline
 62
7
  6
CONTINUOUS
 90
7
 70
0
 10
-13.3000651515
 20
16.8724650903
 10
-13.3291453828
 20
16.88044947
 10
-13.3534618364
 20
16.88551326
 10
-13.3724450555
 20
16.8882044006
 10
-13.3856946495
 20
16.8891926294
 10
-13.3929221376
 20
16.889242181
 10
-13.3937588619
 20
16.889206287
  0
LWPOLYLINE
  5
325
100
AcDbEntity
  8
RACCORDO
100
AcDbPolyline
 62
250
  6
CONTINUOUS
 90
6
 70
0
 10
-13.1274870281
 20
19.3811877556
 10
-12.1886798416
 20
19.1051100281
 10
-11.2245884805
 20
18.8170966014
 10
-10.2360679007
 20
18.5188582484
 10
-9.2231394617
 20
18.2117127963
 10
-8.186696827
 20
17.896330348
  0
LINE
  5
326
100
AcDbEntity
  8
RACCORDO
100
AcDbLine
 62
250
  6
CONTINUOUS
 10
-8.186696827
 20
17.896330348
 11
-6.050864443
 21
17.2442636706
  0
LINE
  5
327
100
AcDbEntity
  8
RACCORDO
100
AcDbLine
 62
250
  6
CONTINUOUS
 10
-6.050864443
 20
17.2442636706
 11
-3.8312749221
 21
16.5657528115
  0
LWPOLYLINE
  5
328
100
AcDbEntity
  8
RACCORDO
100
AcDbPolyline
 62
250
  6
CONTINUOUS
 90
3
 70
0
 10
3.2115069028
 20
12.7405710003
 10
4.2041516704
 20
12.4364086801
 10
6.1245838406
 20
11.8496950871
  0
LINE
  5
329
100
AcDbEntity
  8
0
100
AcDbLine
 62
7
  6
CONTINUOUS
 10
6.2055986969
 20
10.8824646925
 11
-13.3000651515
 21
16.8724650903
  0
LWPOLYLINE
  5
32A
100
AcDbEntity
  8
RACCORDO
100
AcDbPolyline
 62
250
  6
CONTINUOUS
 90
3
 70
0
 10
-10.4743400796
 20
16.9433629713
 10
-9.4592966096
 20
16.6316621338
 10
-4.070597661
 20
14.9815744395
  0
LINE
  5
32B
100
AcDbEntity
  8
RACCORDO
100
AcDbLine
 62
250
  6
CONTINUOUS
 10
-4.070597661
 20
14.9815744395
 11
-3.1857854862
 21
14.7098573949
  0
LINE
  5
32C
100
AcDbEntity
  8
RACCORDO
100
AcDbLine
 62
250
  6
CONTINUOUS
 10
-3.8312759749
 20
16.565750308
 11
-2.9439539666
 21
16.2932625989
  0
LINE
  5
32D
100
AcDbEntity
  8
RACCORDO
100
AcDbLine
 62
250
  6
CONTINUOUS
 10
1.1604256026
 20
13.3710226699
 11
3.2115069028
 21
12.7405710003
  0
LINE
  5
32E
100
AcDbEntity
  8
RACCORDO
100
AcDbLine
 62
250
  6
CONTINUOUS
 10
-3.1857854862
 20
14.7098573949
 11
1.1604256026
 21
13.3710226699
  0
LWPOLYLINE
  5
32F
100
AcDbEntity
  8
RACCORDO
100
AcDbPolyline
 62
250
  6
CONTINUOUS
 90
8
 70
0
 10
-2.9414459265
 20
16.2924913711
 10
0.3456188867
 20
15.2782869055
 10
1.4005724586
 20
14.9521754313
 10
2.4350613895
 20
14.6315985453
 10
3.447510496
 20
14.3167840343
 10
4.4373611703
 20
14.0075045107
 10
5.4047772519
 20
13.7023744045
 10
6.3493021441
 20
13.4000549
  0
LWPOLYLINE
  5
330
100
AcDbEntity
  8
RACCORDO
100
AcDbPolyline
 62
250
  6
CONTINUOUS
 90
3
 70
0
 10
-13.3810800078
 20
17.8396954849
 10
-12.4348311944
 20
17.5473137174
 10
-10.4743400796
 20
16.9433629713
  0
LWPOLYLINE
  5
331
100
AcDbEntity
  8
RACCORDO
100
AcDbPolyline
 62
250
  6
CONTINUOUS
 90
64
 70
0
 10
6.1245838406
 20
11.8496950871
 10
6.1815207162
 20
11.8316305399
 10
6.2363493643
 20
11.8125478222
 10
6.2890086256
 20
11.7926407434
 10
6.3392102494
 20
11.77215898
 10
6.3871580618
 20
11.7512240542
 10
6.4335452742
 20
11.7297726015
 10
6.4785611567
 20
11.7078178484
 10
6.5219795222
 20
11.6855516665
 10
6.5638812529
 20
11.6631148977
 10
6.6043623808
 20
11.6405771846
 10
6.6433276659
 20
11.6180411216
 10
6.6805841577
 20
11.5956957533
 10
6.7160231849
 20
11.5737053036
 10
6.749784967
 20
11.552078595
 10
6.7820536016
 20
11.53076687
 10
6.8128347964
 20
11.5098389598
 10
6.8421583418
 20
11.4893514125
 10
6.870237687
 20
11.4692152244
 10
6.8971261155
 20
11.4494615727
 10
6.9228039039
 20
11.4301475669
 10
6.9473678549
 20
11.4112082879
 10
6.9706123927
 20
11.392862808
 10
6.9927783297
 20
11.3749660188
 10
7.0146084459
 20
11.3568782919
 10
7.0360107042
 20
11.3386621596
 10
7.0570703248
 20
11.320274338
 10
7.0787481
 20
11.3008652506
 10
7.1012406188
 20
11.2801900081
 10
7.1242772332
 20
11.258450025
 10
7.1480796709
 20
11.235428588
 10
7.1727288165
 20
11.2109681451
 10
7.1980375288
 20
11.1851700742
 10
7.2238212125
 20
11.1582026362
 10
7.2500003897
 20
11.1300928349
 10
7.2765493314
 20
11.1007751327
 10
7.3033707172
 20
11.0702864567
 10
7.3303384667
 20
11.0386921216
 10
7.3574611091
 20
11.0059014419
 10
7.3848303235
 20
10.9717155416
 10
7.4123688042
 20
10.9361162031
 10
7.4399881398
 20
10.8990965819
 10
7.4677336966
 20
10.8604680434
 10
7.4955874228
 20
10.820088324
 10
7.5233386246
 20
10.77808423
 10
7.5507390636
 20
10.7346768404
 10
7.5777629502
 20
10.6897360772
 10
7.6042048897
 20
10.6434158405
 10
7.6296115747
 20
10.596385881
 10
7.6539053915
 20
10.5487082321
 10
7.6770349512
 20
10.5003926281
 10
7.6986920256
 20
10.4520497211
 10
7.7188075414
 20
10.4038777586
 10
7.7374360544
 20
10.3557668692
 10
7.7545192009
 20
10.3078704289
 10
7.7699525908
 20
10.2606513025
 10
7.7838732945
 20
10.2137282778
 10
7.7964888589
 20
10.166001219
 10
7.8076724878
 20
10.1175631273
 10
7.8173424085
 20
10.0684437121
 10
7.8255336634
 20
10.0174938317
 10
7.8320320523
 20
9.9644204287
 10
7.8365180977
 20
9.909761219
 10
7.838726211
 20
9.8536627974
  0
LWPOLYLINE
  5
332
100
AcDbEntity
  8
RACCORDO
100
AcDbPolyline
 62
250
  6
CONTINUOUS
 90
64
 70
0
 10
6.3492967954
 20
13.4000488846
 10
6.4598107212
 20
13.3626738481
 10
6.566044445
 20
13.3234713738
 10
6.6677716611
 20
13.2828983614
 10
6.7644225106
 20
13.2413035426
 10
6.8561188271
 20
13.1992545966
 10
6.9435708109
 20
13.157638938
 10
7.0267695527
 20
13.1175413259
 10
7.105345563
 20
13.0789359488
 10
7.1799537496
 20
13.0406560282
 10
7.251329176
 20
13.0021736594
 10
7.3199764868
 20
12.9637409769
 10
7.38599125
 20
12.9253598721
 10
7.4491348174
 20
12.8872534885
 10
7.5093901362
 20
12.8496108661
 10
7.5670140655
 20
12.8124419143
 10
7.6219726319
 20
12.7758880624
 10
7.6743696645
 20
12.740000717
 10
7.724719221
 20
12.7045994519
 10
7.7730251389
 20
12.6699135908
 10
7.8193891762
 20
12.6358543659
 10
7.8647350009
 20
12.6014212613
 10
7.9092694792
 20
12.5660359449
 10
7.9536745749
 20
12.5294366046
 10
7.9991634704
 20
12.4913169059
 10
8.0450583506
 20
12.4523743189
 10
8.0904442846
 20
12.4131111744
 10
8.1360936989
 20
12.3729441874
 10
8.1822086804
 20
12.3318278212
 10
8.2284125927
 20
12.2899969614
 10
8.2748961022
 20
12.2469975209
 10
8.3217979468
 20
12.2026861853
 10
8.3690528254
 20
12.1571242977
 10
8.416605198
 20
12.1100138645
 10
8.4645272674
 20
12.0610757334
 10
8.5130900422
 20
12.0099999292
 10
8.5623988708
 20
11.9565159335
 10
8.6122364468
 20
11.9007317492
 10
8.6624716931
 20
11.8426318445
 10
8.7131827279
 20
11.7818863444
 10
8.7642439086
 20
11.7184519301
 10
8.8155254797
 20
11.652286534
 10
8.8670840497
 20
11.5830155388
 10
8.9188921196
 20
11.5103838881
 10
8.9705575392
 20
11.4346249535
 10
9.0215627731
 20
11.3561386736
 10
9.0718478478
 20
11.2747178213
 10
9.1210272104
 20
11.190678058
 10
9.1682118103
 20
11.1052306322
 10
9.2132617811
 20
11.0184279226
 10
9.2560866319
 20
10.9302714449
 10
9.2960374819
 20
10.842035104
 10
9.332729845
 20
10.7544735151
 10
9.3664156548
 20
10.6674724608
 10
9.3975675902
 20
10.5807118214
 10
9.4260718754
 20
10.4942220599
 10
9.4523235999
 20
10.4067396916
 10
9.4773086931
 20
10.315956032
 10
9.5009583649
 20
10.2222974571
 10
9.5223367286
 20
10.1266188544
 10
9.5406609702
 20
10.027631309
 10
9.5553381043
 20
9.9249086732
 10
9.5660405535
 20
9.8191510843
 10
9.5722877815
 20
9.7105653683
  0
LWPOLYLINE
  5
333
100
AcDbEntity
  8
RACCORDO
100
AcDbPolyline
 62
250
  6
CONTINUOUS
 90
15
 70
0
 10
6.2055986969
 20
10.8824646925
 10
6.172479324
 20
10.8978371185
 10
6.1409932447
 20
10.924268582
 10
6.1134910706
 20
10.9608680645
 10
6.0902787108
 20
11.0072284669
 10
6.0716143583
 20
11.0628341185
 10
6.0577056182
 20
11.127066513
 10
6.0487071985
 20
11.1992111882
 10
6.0447191896
 20
11.2784656729
 10
6.0457859457
 20
11.3639483026
 10
6.0518955933
 20
11.4547083439
 10
6.0629802251
 20
11.5497366304
 10
6.078916623
 20
11.6479763153
 10
6.0995275653
 20
11.7483345678
 10
6.1690425172
 20
12.0307510776
  0
LWPOLYLINE
  5
334
100
AcDbEntity
  8
RACCORDO
100
AcDbPolyline
 62
250
  6
CONTINUOUS
 90
13
 70
0
 10
30.7859793115
 20
19.3316191448
 10
30.7386104753
 20
19.2559092524
 10
30.6924274244
 20
19.1714271798
 10
30.6480359312
 20
19.0792810558
 10
30.6060182694
 20
18.9806795365
 10
30.5669255772
 20
18.8769159514
 10
30.5312706278
 20
18.7693513391
 10
30.4995211048
 20
18.6593965944
 10
30.4720934676
 20
18.5484939627
 10
30.4493474888
 20
18.4380981215
 10
30.4315815354
 20
18.3296571004
 10
30.4190286555
 20
18.2245932874
 10
30.4118535214
 20
18.1242847718
  0
LINE
  5
335
100
AcDbEntity
  8
ASSI
100
AcDbLine
 62
250
  6
CONTINUOUS
 10
4.9946223258
 20
-21.0500577811
 11
4.4041079102
 21
-21.7900547795
  0
LINE
  5
336
100
AcDbEntity
  8
ASSI
100
AcDbLine
 62
250
  6
CONTINUOUS
 10
6.5992516497
 20
-22.1198941776
 11
6.3785995681
 21
-22.3964020389
  0
LWPOLYLINE
  5
337
100
AcDbEntity
  8
RACCORDO
100
AcDbPolyline
 62
250
  6
CONTINUOUS
 90
10
 70
0
 10
-13.8306873305
 20
19.5180039042
 10
-13.7136119252
 20
19.5032062158
 10
-13.6505813261
 20
19.4945138969
 10
-13.5841094926
 20
19.4843303643
 10
-13.5147401716
 20
19.4724602891
 10
-13.4430735414
 20
19.4588421114
 10
-13.3686938238
 20
19.4431242107
 10
-13.2912895845
 20
19.4250411691
 10
-13.2108475471
 20
19.4044528087
 10
-13.1274907378
 20
19.3811836934
  0
LWPOLYLINE
  5
338
100
AcDbEntity
  8
RACCORDO
100
AcDbPolyline
 62
250
  6
CONTINUOUS
 90
22
 70
0
 10
7.3902678101
 20
-23.9827746767
 10
7.3425345948
 20
-24.0470376384
 10
7.2955468646
 20
-24.119210102
 10
7.2498272694
 20
-24.1984892852
 10
7.2058843531
 20
-24.283993357
 10
7.1642068977
 20
-24.374771246
 10
7.1252584861
 20
-24.4698132199
 10
7.0894723458
 20
-24.5680621163
 10
7.0572465299
 20
-24.668425102
 10
7.0289394898
 20
-24.7697858282
 10
7.0048660878
 20
-24.8710168486
 10
6.985294095
 20
-24.9709921594
 10
6.9704412129
 20
-25.0685997241
 10
6.9604726515
 20
-25.162753843
 10
6.9554992925
 20
-25.2524072295
 10
6.955576455
 20
-25.3365626592
 10
6.9607032783
 20
-25.4142840391
 10
6.9708227356
 20
-25.4847068931
 10
6.985822283
 20
-25.5470479535
 10
7.0055350986
 20
-25.6006137849
 10
7.0297419225
 20
-25.6448085213
 10
7.0581735101
 20
-25.6791405507
  0
LINE
  5
339
100
AcDbEntity
  8
ASSI
100
AcDbLine
 62
250
  6
CONTINUOUS
 10
7.5344876151
 20
-23.8020471281
 11
7.3902678101
 21
-23.9827746767
  0
LINE
  5
33A
100
AcDbEntity
  8
RACCORDO
100
AcDbLine
 62
7
  6
CONTINUOUS
 10
3.862311248
 20
-19.3273122782
 11
4.0121431426
 21
-19.2786753389
  0
LWPOLYLINE
  5
33B
100
AcDbEntity
  8
RACCORDO
100
AcDbPolyline
 62
250
  6
CONTINUOUS
 90
3
 70
0
 10
30.5565809835
 20
19.3954088365
 10
30.6314485906
 20
19.374383699
 10
30.7859774683
 20
19.3316511614
  0
LINE
  5
33C
100
AcDbEntity
  8
RACCORDO
100
AcDbLine
 62
250
  6
CONTINUOUS
 10
-34.5868762594
 20
38.0965087119
 11
-34.4421529898
 21
38.0534254606
  0
LINE
  5
33D
100
AcDbEntity
  8
RACCORDO
100
AcDbLine
 62
250
  6
CONTINUOUS
 10
-23.2887634486
 20
34.6511841102
 11
-22.5255102626
 21
34.4216949091
  0
LWPOLYLINE
  5
33E
100
AcDbEntity
  8
RACCORDO
100
AcDbPolyline
 62
250
  6
CONTINUOUS
 90
8
 70
0
 10
-35.1146144824
 20
38.2468311765
 10
-35.0352461744
 20
38.2229492347
 10
-34.9573171558
 20
38.1999793055
 10
-34.8808038464
 20
38.1779292135
 10
-34.8061842914
 20
38.15728835
 10
-34.7329199256
 20
38.1375955748
 10
-34.6596623277
 20
38.1174622859
 10
-34.5868762594
 20
38.0965087119
  0
LINE
  5
33F
100
AcDbEntity
  8
RACCORDO
100
AcDbLine
 62
250
  6
CONTINUOUS
 10
-23.6685988811
 20
34.7661565514
 11
-23.2887634486
 21
34.6511841102
  0
LWPOLYLINE
  5
340
100
AcDbEntity
  8
RACCORDO
100
AcDbPolyline
 62
250
  6
CONTINUOUS
 90
3
 70
0
 10
-26.1343196456
 20
35.5180152436
 10
-25.1541679439
 20
35.2208546255
 10
-24.8018265976
 20
35.1134946148
  0
LINE
  5
341
100
AcDbEntity
  8
RACCORDO
100
AcDbLine
 62
250
  6
CONTINUOUS
 10
-22.5255102626
 20
34.4216949091
 11
-21.7621503605
 21
34.1902106612
  0
LINE
  5
342
100
AcDbEntity
  8
RACCORDO
100
AcDbLine
 62
250
  6
CONTINUOUS
 10
-21.7621503605
 20
34.1902106612
 11
-20.9610114231
 21
33.9463627287
  0
LINE
  5
343
100
AcDbEntity
  8
RACCORDO
100
AcDbLine
 62
250
  6
CONTINUOUS
 10
-27.7867420168
 20
36.021173229
 11
-26.1343196456
 21
35.5180152436
  0
LWPOLYLINE
  5
344
100
AcDbEntity
  8
RACCORDO
100
AcDbPolyline
 62
250
  6
CONTINUOUS
 90
3
 70
0
 10
-29.561049034
 20
36.5634181873
 10
-28.7262862875
 20
36.3082188156
 10
-27.7867420168
 20
36.021173229
  0
LINE
  5
345
100
AcDbEntity
  8
RACCORDO
100
AcDbLine
 62
250
  6
CONTINUOUS
 10
-20.9610114231
 20
33.9463627287
 11
-19.2061036239
 21
33.4101253162
  0
LINE
  5
346
100
AcDbEntity
  8
RACCORDO
100
AcDbLine
 62
250
  6
CONTINUOUS
 10
-19.2061036239
 20
33.4101253162
 11
-16.7306237248
 21
32.6514458898
  0
LINE
  5
347
100
AcDbEntity
  8
RACCORDO
100
AcDbLine
 62
250
  6
CONTINUOUS
 10
-34.4421529898
 20
38.0534254606
 11
-29.561049034
 21
36.5634181873
  0
LWPOLYLINE
  5
348
100
AcDbEntity
  8
RACCORDO
100
AcDbPolyline
 62
250
  6
CONTINUOUS
 90
3
 70
0
 10
-16.7306237248
 20
32.6514458898
 10
-10.6878865525
 20
30.7961142688
 10
-2.8545572044
 20
28.3929293811
  0
LINE
  5
349
100
AcDbEntity
  8
RACCORDO
100
AcDbLine
 62
250
  6
CONTINUOUS
 10
-24.8018265976
 20
35.1134946148
 11
-23.6685988811
 21
34.7661565514
  0
LINE
  5
34A
100
AcDbEntity
  8
RACCORDO
100
AcDbLine
 62
250
  6
CONTINUOUS
 10
4.5023078162
 20
26.1316238789
 11
12.439994938
 21
23.6932984136
  0
LINE
  5
34B
100
AcDbEntity
  8
RACCORDO
100
AcDbLine
 62
250
  6
CONTINUOUS
 10
-2.8545570419
 20
28.3929296248
 11
4.5023078162
 21
26.1316238789
  0
LINE
  5
34C
100
AcDbEntity
  8
RACCORDO
100
AcDbLine
 62
250
  6
CONTINUOUS
 10
12.439994938
 20
23.6932984136
 11
14.3789544702
 21
23.096486302
  0
LINE
  5
34D
100
AcDbEntity
  8
RACCORDO
100
AcDbLine
 62
250
  6
CONTINUOUS
 10
14.3789544702
 20
23.096486302
 11
16.1185831937
 21
22.5596026577
  0
LINE
  5
34E
100
AcDbEntity
  8
RACCORDO
100
AcDbLine
 62
250
  6
CONTINUOUS
 10
21.8390064934
 20
20.7840513453
 11
25.9535872003
 21
19.5135194042
  0
LWPOLYLINE
  5
34F
100
AcDbEntity
  8
RACCORDO
100
AcDbPolyline
 62
250
  6
CONTINUOUS
 90
3
 70
0
 10
16.1185831937
 20
22.5596026577
 10
17.28948701
 20
22.1966951437
 10
17.6688181465
 20
22.0784989854
  0
LINE
  5
350
100
AcDbEntity
  8
RACCORDO
100
AcDbLine
 62
250
  6
CONTINUOUS
 10
20.0441608306
 20
21.341572768
 11
21.8390064934
 21
20.7840513453
  0
LINE
  5
351
100
AcDbEntity
  8
RACCORDO
100
AcDbLine
 62
250
  6
CONTINUOUS
 10
25.9535872003
 20
19.5135194042
 11
29.7303644183
 21
18.3466559243
  0
LWPOLYLINE
  5
352
100
AcDbEntity
  8
RACCORDO
100
AcDbPolyline
 62
250
  6
CONTINUOUS
 90
4
 70
0
 10
17.6688181465
 20
22.0784989854
 10
18.4362237827
 20
21.8379545866
 10
18.8275858715
 20
21.7161013623
 10
20.0441608306
 20
21.341572768
  0
LWPOLYLINE
  5
353
100
AcDbEntity
  8
RACCORDO
100
AcDbPolyline
 62
250
  6
CONTINUOUS
 90
9
 70
0
 10
29.7303644183
 20
18.3466559243
 10
29.8765497162
 20
18.3002633725
 10
29.9501791017
 20
18.2762294198
 10
30.0243945297
 20
18.2511053932
 10
30.0987531995
 20
18.2255061947
 10
30.1744828294
 20
18.2000103456
 10
30.2521116386
 20
18.1747489659
 10
30.3312139377
 20
18.1495215949
 10
30.4118554225
 20
18.1242868815
  0
LINE
  5
354
100
AcDbEntity
  8
RACCORDO
100
AcDbLine
 62
250
  6
CONTINUOUS
 10
-33.7930728785
 20
39.1463247898
 11
-32.4539312473
 21
38.7168919546
  0
LINE
  5
355
100
AcDbEntity
  8
RACCORDO
100
AcDbLine
 62
250
  6
CONTINUOUS
 10
-28.5297826331
 20
37.4534871742
 11
-27.1234851582
 21
37.0018501687
  0
LWPOLYLINE
  5
356
100
AcDbEntity
  8
RACCORDO
100
AcDbPolyline
 62
250
  6
CONTINUOUS
 90
3
 70
0
 10
-32.4539312473
 20
38.7168919546
 10
-30.5629301227
 20
38.1085619687
 10
-28.5297826331
 20
37.4534871742
  0
LINE
  5
357
100
AcDbEntity
  8
RACCORDO
100
AcDbLine
 62
250
  6
CONTINUOUS
 10
-34.3747955915
 20
39.3334434517
 11
-34.1646740371
 21
39.2652050804
  0
LINE
  5
358
100
AcDbEntity
  8
RACCORDO
100
AcDbLine
 62
250
  6
CONTINUOUS
 10
-34.5195159174
 20
39.3815432883
 11
-34.3747955915
 21
39.3334434517
  0
LINE
  5
359
100
AcDbEntity
  8
RACCORDO
100
AcDbLine
 62
250
  6
CONTINUOUS
 10
-34.6708433203
 20
39.4328066827
 11
-34.5195159174
 21
39.3815432883
  0
LINE
  5
35A
100
AcDbEntity
  8
RACCORDO
100
AcDbLine
 62
250
  6
CONTINUOUS
 10
30.412804292
 20
19.4364920877
 11
30.5565809835
 21
19.3954088365
  0
LINE
  5
35B
100
AcDbEntity
  8
RACCORDO
100
AcDbLine
 62
250
  6
CONTINUOUS
 10
27.6275913878
 20
20.2537573152
 11
29.071159881
 21
19.8305676677
  0
LWPOLYLINE
  5
35C
100
AcDbEntity
  8
RACCORDO
100
AcDbPolyline
 62
250
  6
CONTINUOUS
 90
3
 70
0
 10
29.071159881
 20
19.8305676677
 10
29.3651109815
 20
19.7442274069
 10
29.4587995678
 20
19.7166930876
  0
LINE
  5
35D
100
AcDbEntity
  8
RACCORDO
100
AcDbLine
 62
250
  6
CONTINUOUS
 10
23.1377959955
 20
21.5675394952
 11
27.6275913878
 21
20.2537573152
  0
LINE
  5
35E
100
AcDbEntity
  8
RACCORDO
100
AcDbLine
 62
250
  6
CONTINUOUS
 10
30.1985201905
 20
19.4990387843
 11
30.412804292
 21
19.4364920877
  0
LINE
  5
35F
100
AcDbEntity
  8
RACCORDO
100
AcDbLine
 62
250
  6
CONTINUOUS
 10
29.4587995678
 20
19.7166930876
 11
30.1985201905
 21
19.4990387843
  0
LINE
  5
360
100
AcDbEntity
  8
RACCORDO
100
AcDbLine
 62
250
  6
CONTINUOUS
 10
22.5405516369
 20
21.7438542549
 11
23.1377959955
 21
21.5675394952
  0
LINE
  5
361
100
AcDbEntity
  8
RACCORDO
100
AcDbLine
 62
250
  6
CONTINUOUS
 10
21.8965843947
 20
21.9353740906
 11
22.5405516369
 21
21.7438542549
  0
LINE
  5
362
100
AcDbEntity
  8
RACCORDO
100
AcDbLine
 62
250
  6
CONTINUOUS
 10
21.1940728702
 20
22.1462035769
 11
21.8965843947
 21
21.9353740906
  0
LINE
  5
363
100
AcDbEntity
  8
RACCORDO
100
AcDbLine
 62
250
  6
CONTINUOUS
 10
19.6205974947
 20
22.6219583715
 11
21.1940728702
 21
22.1462035769
  0
LINE
  5
364
100
AcDbEntity
  8
RACCORDO
100
AcDbLine
 62
250
  6
CONTINUOUS
 10
-21.7569535387
 20
35.3277598694
 11
-20.5738460396
 21
34.9698780808
  0
LINE
  5
365
100
AcDbEntity
  8
RACCORDO
100
AcDbLine
 62
250
  6
CONTINUOUS
 10
-20.5738460396
 20
34.9698780808
 11
-17.8645043633
 21
34.1494317369
  0
LINE
  5
366
100
AcDbEntity
  8
RACCORDO
100
AcDbLine
 62
250
  6
CONTINUOUS
 10
-17.8645043633
 20
34.1494317369
 11
-16.8619193047
 21
33.8450411337
  0
LINE
  5
367
100
AcDbEntity
  8
RACCORDO
100
AcDbLine
 62
250
  6
CONTINUOUS
 10
-16.8619193047
 20
33.8450411337
 11
-15.804365907
 21
33.5231236556
  0
LINE
  5
368
100
AcDbEntity
  8
RACCORDO
100
AcDbLine
 62
250
  6
CONTINUOUS
 10
-15.804365907
 20
33.5231236556
 11
-14.6891621043
 21
33.1826138362
  0
LINE
  5
369
100
AcDbEntity
  8
RACCORDO
100
AcDbLine
 62
250
  6
CONTINUOUS
 10
1.0197749499
 20
28.3506015946
 11
5.6080956673
 21
26.948357257
  0
LWPOLYLINE
  5
36A
100
AcDbEntity
  8
RACCORDO
100
AcDbPolyline
 62
250
  6
CONTINUOUS
 90
3
 70
0
 10
-22.5167764423
 20
35.5595431389
 10
-22.136775146
 20
35.4432179903
 10
-21.7569535387
 20
35.3277598694
  0
LINE
  5
36B
100
AcDbEntity
  8
RACCORDO
100
AcDbLine
 62
250
  6
CONTINUOUS
 10
5.6080956673
 20
26.948357257
 11
7.6378351984
 21
26.3270245374
  0
LINE
  5
36C
100
AcDbEntity
  8
RACCORDO
100
AcDbLine
 62
250
  6
CONTINUOUS
 10
-14.6891621043
 20
33.1826138362
 11
-13.5141576098
 21
32.8227814805
  0
LINE
  5
36D
100
AcDbEntity
  8
RACCORDO
100
AcDbLine
 62
250
  6
CONTINUOUS
 10
-1.5717454129
 20
29.1452044995
 11
1.0197749499
 21
28.3506015946
  0
LINE
  5
36E
100
AcDbEntity
  8
RACCORDO
100
AcDbLine
 62
250
  6
CONTINUOUS
 10
7.6378351984
 20
26.3270245374
 11
8.9029891422
 21
25.9388431716
  0
LINE
  5
36F
100
AcDbEntity
  8
RACCORDO
100
AcDbLine
 62
250
  6
CONTINUOUS
 10
-13.5141576098
 20
32.8227814805
 11
-12.2759343527
 21
32.4426109405
  0
LINE
  5
370
100
AcDbEntity
  8
RACCORDO
100
AcDbLine
 62
250
  6
CONTINUOUS
 10
-4.1984942101
 20
29.9524064178
 11
-1.5717454129
 21
29.1452044995
  0
LINE
  5
371
100
AcDbEntity
  8
RACCORDO
100
AcDbLine
 62
250
  6
CONTINUOUS
 10
8.9029891422
 20
25.9388431716
 11
10.1028433854
 21
25.5698302295
  0
LINE
  5
372
100
AcDbEntity
  8
RACCORDO
100
AcDbLine
 62
250
  6
CONTINUOUS
 10
-12.2759343527
 20
32.4426109405
 11
-10.293093206
 21
31.8322451431
  0
LINE
  5
373
100
AcDbEntity
  8
RACCORDO
100
AcDbLine
 62
250
  6
CONTINUOUS
 10
-5.8440681254
 20
30.4593909254
 11
-4.1984942101
 21
29.9524064178
  0
LINE
  5
374
100
AcDbEntity
  8
RACCORDO
100
AcDbLine
 62
250
  6
CONTINUOUS
 10
10.1028433854
 20
25.5698302295
 11
11.2400192643
 21
25.2191485641
  0
LINE
  5
375
100
AcDbEntity
  8
RACCORDO
100
AcDbLine
 62
250
  6
CONTINUOUS
 10
-10.293093206
 20
31.8322451431
 11
-5.8440681254
 21
30.4593909254
  0
LINE
  5
376
100
AcDbEntity
  8
RACCORDO
100
AcDbLine
 62
250
  6
CONTINUOUS
 10
-23.2721344377
 20
35.7924749838
 11
-22.5167764423
 21
35.5595431389
  0
LINE
  5
377
100
AcDbEntity
  8
RACCORDO
100
AcDbLine
 62
250
  6
CONTINUOUS
 10
11.2400192643
 20
25.2191485641
 11
12.3181364782
 21
24.8856172344
  0
LWPOLYLINE
  5
378
100
AcDbEntity
  8
RACCORDO
100
AcDbPolyline
 62
250
  6
CONTINUOUS
 90
5
 70
0
 10
17.6843555468
 20
23.2157570652
 10
18.0627896397
 20
23.0983514917
 10
18.4440755089
 20
22.9809064614
 10
18.8262694551
 20
22.8637973581
 10
19.6205974947
 20
22.6219583715
  0
LINE
  5
379
100
AcDbEntity
  8
RACCORDO
100
AcDbLine
 62
250
  6
CONTINUOUS
 10
12.3181364782
 20
24.8856172344
 11
13.3400309089
 21
24.5686442213
  0
LINE
  5
37A
100
AcDbEntity
  8
RACCORDO
100
AcDbLine
 62
250
  6
CONTINUOUS
 10
13.3400309089
 20
24.5686442213
 11
14.775287027
 21
24.122262474
  0
LINE
  5
37B
100
AcDbEntity
  8
RACCORDO
100
AcDbLine
 62
250
  6
CONTINUOUS
 10
-24.0366930466
 20
36.0305260012
 11
-23.2721344377
 21
35.7924749838
  0
LINE
  5
37C
100
AcDbEntity
  8
RACCORDO
100
AcDbLine
 62
250
  6
CONTINUOUS
 10
14.775287027
 20
24.122262474
 11
17.6843555468
 21
23.2157570652
  0
LINE
  5
37D
100
AcDbEntity
  8
RACCORDO
100
AcDbLine
 62
250
  6
CONTINUOUS
 10
-25.4211538852
 20
36.4622913783
 11
-24.0366930466
 21
36.0305260012
  0
LINE
  5
37E
100
AcDbEntity
  8
RACCORDO
100
AcDbLine
 62
250
  6
CONTINUOUS
 10
-26.0290256549
 20
36.6536730073
 11
-25.4211538852
 21
36.4622913783
  0
LINE
  5
37F
100
AcDbEntity
  8
RACCORDO
100
AcDbLine
 62
250
  6
CONTINUOUS
 10
-26.5946938404
 20
36.8330577863
 11
-26.0290256549
 21
36.6536730073
  0
LINE
  5
380
100
AcDbEntity
  8
RACCORDO
100
AcDbLine
 62
250
  6
CONTINUOUS
 10
-27.1234851582
 20
37.0018501687
 11
-26.5946938404
 21
36.8330577863
  0
LINE
  5
381
100
AcDbEntity
  8
RACCORDO
100
AcDbLine
 62
250
  6
CONTINUOUS
 10
-34.1646740371
 20
39.2652050804
 11
-34.0219187918
 21
39.2195329836
  0
LINE
  5
382
100
AcDbEntity
  8
RACCORDO
100
AcDbLine
 62
250
  6
CONTINUOUS
 10
-34.0219187918
 20
39.2195329836
 11
-33.7930728785
 21
39.1463247898
  0
LWPOLYLINE
  5
383
100
AcDbEntity
  8
RACCORDO
100
AcDbPolyline
 62
250
  6
CONTINUOUS
 90
22
 70
0
 10
30.7859774683
 20
19.3316511614
 10
30.9862549009
 20
19.2650498513
 10
31.1856065573
 20
19.1856423423
 10
31.3829556797
 20
19.0938933027
 10
31.5771696772
 20
18.9903515288
 10
31.7672513616
 20
18.8755965238
 10
31.9523338618
 20
18.7502081883
 10
32.1315893126
 20
18.6147184785
 10
32.3037845294
 20
18.470006985
 10
32.4675270911
 20
18.3172968209
 10
32.6217148176
 20
18.1577316054
 10
32.7657805467
 20
17.9920036474
 10
32.8992169371
 20
17.8207356934
 10
33.0213765556
 20
17.6447094498
 10
33.1314204022
 20
17.4650509779
 10
33.2286182162
 20
17.28291216
 10
33.3124231817
 20
17.099327145
 10
33.3823782624
 20
16.9152713323
 10
33.4380487476
 20
16.7318170985
 10
33.4791280789
 20
16.5499764736
 10
33.5054166421
 20
16.3706968516
 10
33.5167780321
 20
16.1949266263
  0
LWPOLYLINE
  5
384
100
AcDbEntity
  8
RACCORDO
100
AcDbPolyline
 62
250
  6
CONTINUOUS
 90
22
 70
0
 10
30.4118535214
 20
18.1242847718
 10
30.5519890006
 20
18.0760612566
 10
30.6912830731
 20
18.0191294516
 10
30.8289197607
 20
17.9538575332
 10
30.9641513844
 20
17.8806582386
 10
31.0963526378
 20
17.7999222566
 10
31.2249584476
 20
17.7119891204
 10
31.3494422772
 20
17.6171957224
 10
31.4690034101
 20
17.5161419161
 10
31.5826984547
 20
17.4096206633
 10
31.6897881874
 20
17.2983778742
 10
31.7899453369
 20
17.1828714771
 10
31.8828566436
 20
17.0634793764
 10
31.9680825127
 20
16.9406851926
 10
32.0451020444
 20
16.8152369577
 10
32.1134596462
 20
16.6878942309
 10
32.1727759665
 20
16.5593251421
 10
32.2227641248
 20
16.4301565764
 10
32.2631684729
 20
16.3010868752
 10
32.2937661102
 20
16.1727664447
 10
32.3144011561
 20
16.0458278987
 10
32.3249920343
 20
15.9209708818
  0
LINE
  5
385
100
AcDbEntity
  8
RACCORDO
100
AcDbLine
 62
250
  6
CONTINUOUS
 10
32.3249725772
 20
15.9209364618
 11
32.3368163491
 21
15.7154307837
  0
LWPOLYLINE
  5
386
100
AcDbEntity
  8
RACCORDO
100
AcDbPolyline
 62
250
  6
CONTINUOUS
 90
5
 70
0
 10
32.3368163491
 20
15.7154307837
 10
32.3484403809
 20
15.4928377151
 10
32.3539995319
 20
15.376087299
 10
32.3590509195
 20
15.2560379737
 10
32.3632674325
 20
15.1321575303
  0
LINE
  5
387
100
AcDbEntity
  8
RACCORDO
100
AcDbLine
 62
250
  6
CONTINUOUS
 10
34.9237616526
 20
-40.5275644693
 11
34.9343102276
 21
-40.7876370306
  0
LINE
  5
388
100
AcDbEntity
  8
RACCORDO
100
AcDbLine
 62
250
  6
CONTINUOUS
 10
34.9151454053
 20
-40.2800784137
 11
34.9237616526
 21
-40.5275644693
  0
LINE
  5
389
100
AcDbEntity
  8
RACCORDO
100
AcDbLine
 62
250
  6
CONTINUOUS
 10
34.8707378206
 20
-38.7966295874
 11
34.8797805817
 21
-39.1003104919
  0
LINE
  5
38A
100
AcDbEntity
  8
RACCORDO
100
AcDbLine
 62
250
  6
CONTINUOUS
 10
34.8797805817
 20
-39.1003104919
 11
34.9151454053
 21
-40.2800784137
  0
LINE
  5
38B
100
AcDbEntity
  8
RACCORDO
100
AcDbLine
 62
250
  6
CONTINUOUS
 10
34.8612742947
 20
-38.4775412778
 11
34.8707378206
 21
-38.7966295874
  0
LINE
  5
38C
100
AcDbEntity
  8
RACCORDO
100
AcDbLine
 62
250
  6
CONTINUOUS
 10
34.8513889984
 20
-38.1422656677
 11
34.8612742947
 21
-38.4775412778
  0
LINE
  5
38D
100
AcDbEntity
  8
RACCORDO
100
AcDbLine
 62
250
  6
CONTINUOUS
 10
34.8410764169
 20
-37.7902672053
 11
34.8513889984
 21
-38.1422656677
  0
LINE
  5
38E
100
AcDbEntity
  8
RACCORDO
100
AcDbLine
 62
250
  6
CONTINUOUS
 10
34.8247755937
 20
-37.2288691599
 11
34.8410764169
 21
-37.7902672053
  0
LINE
  5
38F
100
AcDbEntity
  8
RACCORDO
100
AcDbLine
 62
250
  6
CONTINUOUS
 10
34.8074076546
 20
-36.623325166
 11
34.8247755937
 21
-37.2288691599
  0
LINE
  5
390
100
AcDbEntity
  8
RACCORDO
100
AcDbLine
 62
250
  6
CONTINUOUS
 10
32.3632674325
 20
15.1321575303
 11
32.4328319671
 21
12.7656136509
  0
LINE
  5
391
100
AcDbEntity
  8
RACCORDO
100
AcDbLine
 62
250
  6
CONTINUOUS
 10
32.4328319671
 20
12.7656136509
 11
32.49422717
 21
10.6195644866
  0
LINE
  5
392
100
AcDbEntity
  8
RACCORDO
100
AcDbLine
 62
250
  6
CONTINUOUS
 10
34.769247097
 20
-35.2633729199
 11
34.8074076546
 21
-36.623325166
  0
LINE
  5
393
100
AcDbEntity
  8
RACCORDO
100
AcDbLine
 62
250
  6
CONTINUOUS
 10
32.49422717
 20
10.6195644866
 11
32.5613032747
 21
8.1694864357
  0
LINE
  5
394
100
AcDbEntity
  8
RACCORDO
100
AcDbLine
 62
250
  6
CONTINUOUS
 10
34.7106666576
 20
-33.0930684955
 11
34.769247097
 21
-35.2633729199
  0
LINE
  5
395
100
AcDbEntity
  8
RACCORDO
100
AcDbLine
 62
250
  6
CONTINUOUS
 10
32.5613032747
 20
8.1694864357
 11
32.604031395
 21
6.5496755896
  0
LINE
  5
396
100
AcDbEntity
  8
RACCORDO
100
AcDbLine
 62
250
  6
CONTINUOUS
 10
34.6861538312
 20
-32.1576973252
 11
34.7106666576
 21
-33.0930684955
  0
LINE
  5
397
100
AcDbEntity
  8
RACCORDO
100
AcDbLine
 62
250
  6
CONTINUOUS
 10
34.6600542829
 20
-31.1484341202
 11
34.6861538312
 21
-32.1576973252
  0
LINE
  5
398
100
AcDbEntity
  8
RACCORDO
100
AcDbLine
 62
250
  6
CONTINUOUS
 10
32.604031395
 20
6.5496755896
 11
32.6932526366
 21
3.0753072604
  0
LWPOLYLINE
  5
399
100
AcDbEntity
  8
RACCORDO
100
AcDbPolyline
 62
250
  6
CONTINUOUS
 90
3
 70
0
 10
34.6321762856
 20
-30.0599979896
 10
34.6416742405
 20
-30.4318087348
 10
34.6600542829
 20
-31.1484341202
  0
LWPOLYLINE
  5
39A
100
AcDbEntity
  8
RACCORDO
100
AcDbPolyline
 62
250
  6
CONTINUOUS
 90
3
 70
0
 10
34.6023373195
 20
-28.88634732
 10
34.6125078251
 20
-29.2872672822
 10
34.6321762856
 20
-30.0599979896
  0
LINE
  5
39B
100
AcDbEntity
  8
RACCORDO
100
AcDbLine
 62
250
  6
CONTINUOUS
 10
32.6932526366
 20
3.0753072604
 11
32.844514578
 21
-2.9480167259
  0
LINE
  5
39C
100
AcDbEntity
  8
RACCORDO
100
AcDbLine
 62
250
  6
CONTINUOUS
 10
32.844514578
 20
-2.9480167259
 11
33.356004247
 21
-23.5096030442
  0
LINE
  5
39D
100
AcDbEntity
  8
RACCORDO
100
AcDbLine
 62
250
  6
CONTINUOUS
 10
34.1714493894
 20
-11.5221782997
 11
34.2700056997
 21
-15.481594433
  0
LWPOLYLINE
  5
39E
100
AcDbEntity
  8
RACCORDO
100
AcDbPolyline
 62
250
  6
CONTINUOUS
 90
3
 70
0
 10
34.2700056997
 20
-15.481594433
 10
34.3724167923
 20
-19.6340347744
 10
34.6023373195
 20
-28.88634732
  0
LINE
  5
39F
100
AcDbEntity
  8
RACCORDO
100
AcDbLine
 62
250
  6
CONTINUOUS
 10
33.7400228659
 20
-40.2268074278
 11
33.7462928281
 21
-40.4700859879
  0
LINE
  5
3A0
100
AcDbEntity
  8
RACCORDO
100
AcDbLine
 62
250
  6
CONTINUOUS
 10
33.356004247
 20
-23.5096030442
 11
33.4429563542
 21
-27.0357581638
  0
LINE
  5
3A1
100
AcDbEntity
  8
RACCORDO
100
AcDbLine
 62
250
  6
CONTINUOUS
 10
33.4429563542
 20
-27.0357581638
 11
33.5147859957
 21
-29.9922279101
  0
LWPOLYLINE
  5
3A2
100
AcDbEntity
  8
RACCORDO
100
AcDbPolyline
 62
250
  6
CONTINUOUS
 90
3
 70
0
 10
33.5147859957
 20
-29.9922279101
 10
33.5329119049
 20
-30.7455372754
 10
33.5416081416
 20
-31.1083296068
  0
LINE
  5
3A3
100
AcDbEntity
  8
RACCORDO
100
AcDbLine
 62
250
  6
CONTINUOUS
 10
33.5416081416
 20
-31.1083296068
 11
33.5662123333
 21
-32.1433864523
  0
LWPOLYLINE
  5
3A4
100
AcDbEntity
  8
RACCORDO
100
AcDbPolyline
 62
250
  6
CONTINUOUS
 90
3
 70
0
 10
33.5662123333
 20
-32.1433864523
 10
33.6024695778
 20
-33.7029492917
 10
33.6090562271
 20
-33.9917536593
  0
LINE
  5
3A5
100
AcDbEntity
  8
RACCORDO
100
AcDbLine
 62
250
  6
CONTINUOUS
 10
33.6090562271
 20
-33.9917536593
 11
33.644412919
 21
-35.5770317861
  0
LINE
  5
3A6
100
AcDbEntity
  8
RACCORDO
100
AcDbLine
 62
250
  6
CONTINUOUS
 10
33.644412919
 20
-35.5770317861
 11
33.6644892239
 21
-36.5064398095
  0
LINE
  5
3A7
100
AcDbEntity
  8
RACCORDO
100
AcDbLine
 62
250
  6
CONTINUOUS
 10
33.6644892239
 20
-36.5064398095
 11
33.677974554
 21
-37.1435146994
  0
LINE
  5
3A8
100
AcDbEntity
  8
RACCORDO
100
AcDbLine
 62
250
  6
CONTINUOUS
 10
33.677974554
 20
-37.1435146994
 11
33.6862962699
 21
-37.5417625235
  0
LINE
  5
3A9
100
AcDbEntity
  8
RACCORDO
100
AcDbLine
 62
250
  6
CONTINUOUS
 10
33.6862962699
 20
-37.5417625235
 11
33.6941353591
 21
-37.9203457264
  0
LINE
  5
3AA
100
AcDbEntity
  8
RACCORDO
100
AcDbLine
 62
250
  6
CONTINUOUS
 10
33.6941353591
 20
-37.9203457264
 11
33.7015279012
 21
-38.2808166817
  0
LINE
  5
3AB
100
AcDbEntity
  8
RACCORDO
100
AcDbLine
 62
250
  6
CONTINUOUS
 10
33.7015279012
 20
-38.2808166817
 11
33.7118908689
 21
-38.7894040172
  0
LINE
  5
3AC
100
AcDbEntity
  8
RACCORDO
100
AcDbLine
 62
250
  6
CONTINUOUS
 10
33.7118908689
 20
-38.7894040172
 11
33.7331354769
 21
-39.8381589469
  0
LWPOLYLINE
  5
3AD
100
AcDbEntity
  8
RACCORDO
100
AcDbPolyline
 62
250
  6
CONTINUOUS
 90
3
 70
0
 10
33.7462928281
 20
-40.4700859879
 10
33.7485898039
 20
-40.5890715552
 10
33.7487487388
 20
-40.7125123911
  0
LINE
  5
3AE
100
AcDbEntity
  8
RACCORDO
100
AcDbLine
 62
250
  6
CONTINUOUS
 10
33.7331354769
 20
-39.8381589469
 11
33.7400228659
 21
-40.2268074278
  0
LINE
  5
3AF
100
AcDbEntity
  8
RACCORDO
100
AcDbLine
 62
250
  6
CONTINUOUS
 10
33.5195147381
 20
15.8949289228
 11
34.1714493894
 21
-11.5221782997
  0
LWPOLYLINE
  5
3B0
100
AcDbEntity
  8
RACCORDO
100
AcDbPolyline
 62
250
  6
CONTINUOUS
 90
3
 70
0
 10
33.5167780321
 20
16.1949266263
 10
33.5173142079
 20
16.0993987618
 10
33.5195147381
 20
15.8949289228
  0
LWPOLYLINE
  5
3B1
100
AcDbEntity
  8
RACCORDO
100
AcDbPolyline
 62
250
  6
CONTINUOUS
 90
3
 70
0
 10
33.7487487388
 20
-40.7125123911
 10
33.7446862683
 20
-40.9750917199
 10
33.7437129862
 20
-41.1108612104
  0
LWPOLYLINE
  5
3B2
100
AcDbEntity
  8
RACCORDO
100
AcDbPolyline
 62
250
  6
CONTINUOUS
 90
13
 70
0
 10
34.1914995615
 20
-12.3337297343
 10
34.1328254363
 20
-12.391461453
 10
34.0648326384
 20
-12.4450283466
 10
33.9883062956
 20
-12.4938117225
 10
33.9041300749
 20
-12.5372481248
 10
33.8132759787
 20
-12.5748358404
 10
33.7167931204
 20
-12.6061406929
 10
33.6157956104
 20
-12.6308010554
 10
33.5114496911
 20
-12.6485320272
 10
33.4049602696
 20
-12.6591287227
 10
33.2975570048
 20
-12.6624686381
 10
33.1904801082
 20
-12.6585130655
 10
33.0849660221
 20
-12.6473075398
  0
LINE
  5
3B3
100
AcDbEntity
  8
RACCORDO
100
AcDbLine
 62
7
  6
CONTINUOUS
 10
33.2494946927
 20
22.2663744394
 11
-32.6673781743
 21
42.508807497
  0
LINE
  5
3B4
100
AcDbEntity
  8
0
100
AcDbLine
 62
7
  6
CONTINUOUS
 10
35.7375597333
 20
-8.5499564826
 11
35.8378577171
 21
-12.5817776068
  0
LINE
  5
3B5
100
AcDbEntity
  8
RACCORDO
100
AcDbLine
 62
7
  6
CONTINUOUS
 10
37.4031025288
 20
-38.2582034456
 11
36.7858048657
 21
-13.4438087561
  0
LINE
  5
3B6
100
AcDbEntity
  8
RACCORDO
100
AcDbLine
 62
7
  6
CONTINUOUS
 10
36.5929241275
 20
-5.6903065942
 11
35.9756264644
 21
19.1240880952
  0
LWPOLYLINE
  5
3B7
100
AcDbEntity
  8
RACCORDO
100
AcDbPolyline
 62
250
  6
CONTINUOUS
 90
9
 70
0
 10
34.9343102276
 20
-40.7876370306
 10
34.9317526242
 20
-40.9551910429
 10
34.9145839055
 20
-41.118613071
 10
34.8826637508
 20
-41.2768711256
 10
34.8358114479
 20
-41.4292633061
 10
34.7741121203
 20
-41.5744014114
 10
34.6982203449
 20
-41.7104200169
 10
34.608799917
 20
-41.8362907887
 10
34.5143417008
 20
-41.9433690937
  0
LWPOLYLINE
  5
3B8
100
AcDbEntity
  8
RACCORDO
100
AcDbPolyline
 62
250
  6
CONTINUOUS
 90
22
 70
0
 10
33.7437483393
 20
-41.1107931288
 10
33.7392840779
 20
-41.2234836674
 10
33.7249809978
 20
-41.3336354314
 10
33.7007262231
 20
-41.4404621456
 10
33.6664129077
 20
-41.5435009152
 10
33.6221133236
 20
-41.6418656519
 10
33.5682502088
 20
-41.7343095764
 10
33.5052688965
 20
-41.8201506858
 10
33.433428552
 20
-41.8991513311
 10
33.3530978423
 20
-41.9708698644
 10
33.2647437429
 20
-42.034872553
 10
33.1688132702
 20
-42.0909137415
 10
33.0656085096
 20
-42.1387973928
 10
32.9554424397
 20
-42.1782701854
 10
32.8390348634
 20
-42.2090599451
 10
32.7173091323
 20
-42.2309635693
 10
32.5910548485
 20
-42.2438899813
 10
32.4607905828
 20
-42.2478822274
 10
32.3270671292
 20
-42.2430116827
 10
32.1905002565
 20
-42.229332508
 10
32.0518465571
 20
-42.2069812539
 10
31.9119242
 20
-42.1762107138
  0
LINE
  5
3B9
100
AcDbEntity
  8
RACCORDO
100
AcDbLine
 62
7
  6
CONTINUOUS
 10
36.9833707488
 20
-39.4136929466
 11
34.5131414892
 21
-41.9445973023
  0
LWPOLYLINE
  5
3BA
100
AcDbEntity
  8
RACCORDO
100
AcDbPolyline
 62
250
  6
CONTINUOUS
 90
13
 70
0
 10
37.4031025288
 20
-38.2582034456
 10
34.8713257309
 20
-40.8519916964
 10
34.7977917644
 20
-40.911515574
 10
34.7146435359
 20
-40.9654118212
 10
34.622977354
 20
-41.0129698181
 10
34.5240018369
 20
-41.0535625147
 10
34.4190219763
 20
-41.0866546984
 10
34.3094219314
 20
-41.111810052
 10
34.1966467782
 20
-41.1286969102
 10
34.0821834569
 20
-41.1370926305
 10
33.9675411662
 20
-41.1368865253
 10
33.8542314642
 20
-41.1280813217
 10
33.7437483393
 20
-41.1107931288
  0
ARC
  5
3BB
100
AcDbEntity
  8
RACCORDO
100
AcDbCircle
 62
7
  6
CONTINUOUS
 10
3.8916891148
 20
-19.9066243653
 40
0.15
100
AcDbArc
 50
325.706691543
 51
1.4285363892
  0
ELLIPSE
  5
3BC
100
AcDbEntity
  8
RACCORDO
100
AcDbEllipse
 62
7
  6
CONTINUOUS
 10
-1.1845999689
 20
-17.6848822479
 30
0.0
 11
0.1505926105
 21
-0.0294362225
 31
0.0
 40
0.2251237175
 41
2.1804824813
 42
2.6517213793
  0
ELLIPSE
  5
3BD
100
AcDbEntity
  8
RACCORDO
100
AcDbEllipse
 62
7
  6
CONTINUOUS
 10
3.8750724009
 20
-19.2386586148
 30
0.0
 11
0.1505926105
 21
-0.0294362225
 31
0.0
 40
0.2251237175
 41
-0.3851515191
 42
0.0498062696
  0
ELLIPSE
  5
3BE
100
AcDbEntity
  8
0
100
AcDbEllipse
 62
7
  6
CONTINUOUS
 10
36.9898594158
 20
-7.1627212472
 30
0.0
 11
0.8278135869
 21
2.3606902569
 31
0.0
 40
0.3985724632
 41
1.0438251492
 42
2.3308273668
  0
ELLIPSE
  5
3BF
100
AcDbEntity
  8
RACCORDO
100
AcDbEllipse
 62
7
  6
CONTINUOUS
 10
33.3001095082
 20
19.9393822528
 30
0.0
 11
2.3486830781
 21
-1.867365038
 31
0.0
 40
0.686928133
 41
0.5215401104
 42
2.0895973814
  0
ELLIPSE
  5
3C0
100
AcDbEntity
  8
RACCORDO
100
AcDbEllipse
 62
7
  6
CONTINUOUS
 10
34.7272681513
 20
-37.4301494522
 30
0.0
 11
2.3475766321
 21
-1.8801564348
 31
0.0
 40
0.6836826228
 41
-0.0671024101
 42
0.522616035
  0
ELLIPSE
  5
3C1
100
AcDbEntity
  8
RACCORDO
100
AcDbEllipse
 62
7
  6
CONTINUOUS
 10
-32.6021057275
 20
40.1773140939
 30
0.0
 11
2.3475766321
 21
-1.8801564348
 31
0.0
 40
0.6836826228
 41
2.0961514176
 42
3.2086950729
  0
ELLIPSE
  5
3C2
100
AcDbEntity
  8
0
100
AcDbEllipse
 62
7
  6
CONTINUOUS
 10
37.0901573997
 20
-11.1945423713
 30
0.0
 11
0.8278135869
 21
2.3606902569
 31
0.0
 40
0.3985724632
 41
2.3308273668
 42
3.6178295844
  0
ENDSEC
  0
SECTION
  2
OBJECTS
  0
DICTIONARY
  5
C
100
AcDbDictionary
280
0
281
1
  3
ACAD_GROUP
350
D
  3
ACAD_MLINESTYLE
350
17
  3
ACAD_LAYOUT
350
1A
  3
ACAD_PLOTSETTINGS
350
19
  3
ACAD_PLOTSTYLENAME
350
E
  0
DICTIONARY
  5
D
102
{ACAD_REACTORS
330
C
102
}
100
AcDbDictionary
280
0
281
1
  0
ACDBDICTIONARYWDFLT
  5
E
102
{ACAD_REACTORS
330
C
102
}
100
AcDbDictionary
281
1
  3
Normal
350
F
100
AcDbDictionaryWithDefault
340
F
  0
DICTIONARY
  5
17
102
{ACAD_REACTORS
330
C
102
}
100
AcDbDictionary
280
0
281
1
  3
Standard
350
18
  0
DICTIONARY
  5
19
102
{ACAD_REACTORS
330
C
102
}
100
AcDbDictionary
281
1
  0
DICTIONARY
  5
1A
102
{ACAD_REACTORS
330
C
102
}
100
AcDbDictionary
281
1
  3
Model
350
3C3
  3
Layout1
350
3C4
  0
ACDBPLACEHOLDER
  5
F
102
{ACAD_REACTORS
330
E
102
}
  0
MLINESTYLE
  5
18
102
{ACAD_REACTORS
330
17
102
}
100
AcDbMlineStyle
  2
STANDARD
 70
0
  3

 62
256
 51
90.0
 52
90.0
 71
2
 49
0.5
 62
256
  6
BYLAYER
 49
-0.5
 62
256
  6
BYLAYER
  0
LAYOUT
  5
3C3
102
{ACAD_REACTORS
330
1A
102
}
100
AcDbPlotSettings
  1

  2
none_device
  4
ISO_A4_(297.00_x_210.00_MM)
  6

 40
0.0
 41
0.0
 42
0.0
 43
0.0
 44
297.0
 45
210.0
 46
0.0
 47
0.0
 48
0.0
 49
0.0
140
0.0
141
0.0
142
1.0
143
1.0
 70
1024
 72
1
 73
0
 74
0
  7

 75
0
147
1.0
148
0.0
149
0.0
100
AcDbLayout
  1
Model
 70
0
 71
0
 10
0.0
 20
0.0
 11
297.0
 21
210.0
 12
0.0
 22
0.0
 32
0.0
 14
0.0
 24
0.0
 34
0.0
 15
0.0
 25
0.0
 35
0.0
146
0.0
 13
0.0
 23
0.0
 33
0.0
 16
1.0
 26
0.0
 36
0.0
 17
0.0
 27
1.0
 37
0.0
 76
0
330
20F
345
0
346
0
  0
LAYOUT
  5
3C4
102
{ACAD_REACTORS
330
1A
102
}
100
AcDbPlotSettings
  1

  2
none_device
  4
ISO_A4_(297.00_x_210.00_MM)
  6

 40
0.0
 41
0.0
 42
0.0
 43
0.0
 44
297.0
 45
210.0
 46
0.0
 47
0.0
 48
0.0
 49
0.0
140
0.0
141
0.0
142
1.0
143
1.0
 70
0
 72
1
 73
0
 74
0
  7

 75
0
147
1.0
148
0.0
149
0.0
100
AcDbLayout
  1
Layout1
 70
0
 71
1
 10
0.0
 20
0.0
 11
297.0
 21
210.0
 12
0.0
 22
0.0
 32
0.0
 14
0.0
 24
0.0
 34
0.0
 15
0.0
 25
0.0
 35
0.0
146
0.0
 13
0.0
 23
0.0
 33
0.0
 16
1.0
 26
0.0
 36
0.0
 17
0.0
 27
1.0
 37
0.0
 76
0
330
210
345
0
346
0
  0
ENDSEC
  0
EOF
