  0
SECTION
  2
HEADER
  9
$ACADVER
  1
AC1024
  9
$DWGCODEPAGE
  3
ANSI_1252
  9
$EXTMAX
 10
297.0
 20
210.0
 30
0.0
  9
$EXTMIN
 10
0.0
 20
0.0
 30
0.0
  9
$LIMMIN
 10
0.0
 20
0.0
  9
$LIMMAX
 10
297.0
 20
210.0
  9
$VIEWCTR
 10
148.5
 20
105.0
  9
$VIEWSIZE
 40
210.0
  9
$CLAYER
  8
0
  9
$LTSCALE
 40
16.335
  9
$CELTYPE
  6
BYLAYER
  9
$DIMSCALE
 40
1.0
  9
$DIMASZ
 40
3.0
  9
$DIMEXO
 40
0.5
  9
$DIMDLI
 40
11.286
  9
$DIMEXE
 40
1.5
  9
$DIMCEN
 40
2.673
  9
$DIMLFAC
 40
1.0
  9
$DIMBLK
  1
_FILLED
  9
$DIMALT
 70
0
  9
$DIMALTF
 40
0.0393700787
  9
$DIMTXT
 40
3.0
  9
$DIMTOL
 70
1
  9
$DIMLIM
 70
0
  9
$DIMTFAC
 40
1.0
  9
$DIMTP
 40
0.01
  9
$DIMTM
 40
0.01
  9
$DIMGAP
 40
0.625
  9
$DIMDSEP
 70
44
  9
$AUNITS
 70
0
  9
$PDMODE
 70
3
  9
$PDSIZE
 40
3.0
  9
$HANDSEED
  5
3C5
  9
$TILEMODE
 70
1
  9
$MEASUREMENT
 70
1
  9
$INSUNITS
 70
4
  0
ENDSEC
  0
SECTION
  2
CLASSES
  0
CLASS
  1
ACDBDICTIONARYWDFLT
  2
AcDbDictionaryWithDefault
  3
AutoCAD 2000
 90
0
 91
1
280
0
281
0
  0
CLASS
  1
ACDBPLACEHOLDER
  2
AcDbPlaceHolder
  3
AutoCAD 2000
 90
0
 91
1
280
0
281
0
  0
CLASS
  1
LAYOUT
  2
AcDbLayout
  3
AutoCAD 2000
 90
0
 91
0
280
0
281
0
  0
ENDSEC
  0
SECTION
  2
TABLES
  0
TABLE
  2
VPORT
  5
8
100
AcDbSymbolTable
 70
2
  0
VPORT
  5
1F4
100
AcDbSymbolTableRecord
100
AcDbViewportTableRecord
  2
*ACTIVE
 70
0
 10
0.0
 20
0.0
 11
1.0
 21
1.0
 12
148.5
 22
105.0
 13
0.0
 23
0.0
 14
1.0
 24
1.0
 15
0.0
 25
0.0
 16
0.0
 26
0.0
 36
1.0
 17
0.0
 27
0.0
 37
0.0
 40
210.0
 41
1.4142857143
 42
50.0
 43
0.0
 44
0.0
 50
0.0
 51
0.0
 71
0
 72
100
 73
1
 74
1
 75
0
 76
0
 77
0
 78
0
  0
ENDTAB
  0
TABLE
  2
LTYPE
  5
5
100
AcDbSymbolTable
 70
6
  0
LTYPE
  5
14
100
AcDbSymbolTableRecord
100
AcDbLinetypeTableRecord
  2
BYBLOCK
 70
0
  3

 72
65
 73
0
 40
0.0
  0
LTYPE
  5
15
100
AcDbSymbolTableRecord
100
AcDbLinetypeTableRecord
  2
BYLAYER
 70
0
  3

 72
65
 73
0
 40
0.0
  0
LTYPE
  5
16
100
AcDbSymbolTableRecord
100
AcDbLinetypeTableRecord
  2
CONTINUOUS
 70
64
  3
Solid line
 72
65
 73
0
 40
0.0
  0
LTYPE
  5
1F5
100
AcDbSymbolTableRecord
100
AcDbLinetypeTableRecord
  2
CENTER
 70
64
  3
____ _ ____ _ ____ _ ____ _ ____ _ ____ _ ____
 72
65
 73
4
 40
0.6
 49
0.375
 74
0
 49
-0.075
 74
0
 49
0.075
 74
0
 49
-0.075
 74
0
  0
LTYPE
  5
1F6
100
AcDbSymbolTableRecord
100
AcDbLinetypeTableRecord
  2
HIDDEN
 70
64
  3
- - - - - - - - - - - - - - - - - - - -
 72
65
 73
2
 40
0.2
 49
0.1
 74
0
 49
-0.1
 74
0
  0
LTYPE
  5
1F7
100
AcDbSymbolTableRecord
100
AcDbLinetypeTableRecord
  2
PHANTOM
 70
64
  3
_____ _ _ _____ _ _ _____ _ _ _____
 72
65
 73
6
 40
0.8
 49
0.45
 74
0
 49
-0.05
 74
0
 49
0.1
 74
0
 49
-0.05
 74
0
 49
0.1
 74
0
 49
-0.05
 74
0
  0
LTYPE
  5
1F8
100
AcDbSymbolTableRecord
100
AcDbLinetypeTableRecord
  2
DOT
 70
64
  3
. . . . . . . . . . . . . . . . . . . .
 72
65
 73
2
 40
0.2
 49
0.1
 74
0
 49
-0.1
 74
0
  0
LTYPE
  5
1F9
100
AcDbSymbolTableRecord
100
AcDbLinetypeTableRecord
  2
DASHED
 70
64
  3
- - - - - - - - - - - - - - - - - - - -
 72
65
 73
2
 40
0.2
 49
0.1
 74
0
 49
-0.1
 74
0
  0
ENDTAB
  0
TABLE
  2
LAYER
  5
2
100
AcDbSymbolTable
 70
36
  0
LAYER
  5
10
100
AcDbSymbolTableRecord
100
AcDbLayerTableRecord
  2
0
 70
0
 62
7
  6
CONTINUOUS
370
-3
390
F
  0
LAYER
  5
1FA
100
AcDbSymbolTableRecord
100
AcDbLayerTableRecord
  2
DEFAULT_1
 70
0
 62
7
  6
CENTER
370
-3
390
F
  0
LAYER
  5
1FB
100
AcDbSymbolTableRecord
100
AcDbLayerTableRecord
  2
DEFAULT_2
 70
0
 62
7
  6
HIDDEN
370
-3
390
F
  0
LAYER
  5
1FC
100
AcDbSymbolTableRecord
100
AcDbLayerTableRecord
  2
DEFAULT_3
 70
0
 62
7
  6
PHANTOM
370
-3
390
F
  0
LAYER
  5
1FD
100
AcDbSymbolTableRecord
100
AcDbLayerTableRecord
  2
ASSI
 70
0
 62
7
  6
CONTINUOUS
370
-3
390
F
  0
LAYER
  5
1FE
100
AcDbSymbolTableRecord
100
AcDbLayerTableRecord
  2
COLOR16
 70
0
 62
7
  6
CONTINUOUS
370
-3
390
F
  0
LAYER
  5
1FF
100
AcDbSymbolTableRecord
100
AcDbLayerTableRecord
  2
COLOR5
 70
0
 62
7
  6
CONTINUOUS
370
-3
390
F
  0
LAYER
  5
200
100
AcDbSymbolTableRecord
100
AcDbLayerTableRecord
  2
COORDINATE
 70
0
 62
7
  6
CONTINUOUS
370
-3
390
F
  0
LAYER
  5
201
100
AcDbSymbolTableRecord
100
AcDbLayerTableRecord
  2
COORD_ORIGINE
 70
0
 62
7
  6
CONTINUOUS
370
-3
390
F
  0
LAYER
  5
202
100
AcDbSymbolTableRecord
100
AcDbLayerTableRecord
  2
CURVE
 70
0
 62
7
  6
CONTINUOUS
370
-3
390
F
  0
LAYER
  5
203
100
AcDbSymbolTableRecord
100
AcDbLayerTableRecord
  2
DRAFT
 70
0
 62
7
  6
CONTINUOUS
370
-3
390
F
  0
LAYER
  5
204
100
AcDbSymbolTableRecord
100
AcDbLayerTableRecord
  2
ESTRATTORI
 70
0
 62
7
  6
CONTINUOUS
370
-3
390
F
  0
LAYER
  5
205
100
AcDbSymbolTableRecord
100
AcDbLayerTableRecord
  2
IGES
 70
0
 62
7
  6
CONTINUOUS
370
-3
390
F
  0
LAYER
  5
206
100
AcDbSymbolTableRecord
100
AcDbLayerTableRecord
  2
INTF_1
 70
0
 62
7
  6
CONTINUOUS
370
-3
390
F
  0
LAYER
  5
207
100
AcDbSymbolTableRecord
100
AcDbLayerTableRecord
  2
INTF_6
 70
0
 62
7
  6
CONTINUOUS
370
-3
390
F
  0
LAYER
  5
208
100
AcDbSymbolTableRecord
100
AcDbLayerTableRecord
  2
INTF_7
 70
0
 62
7
  6
CONTINUOUS
370
-3
390
F
  0
LAYER
  5
209
100
AcDbSymbolTableRecord
100
AcDbLayerTableRecord
  2
INTF_BLANK
 70
0
 62
7
  6
CONTINUOUS
370
-3
390
F
  0
LAYER
  5
20A
100
AcDbSymbolTableRecord
100
AcDbLayerTableRecord
  2
INTF_RED
 70
0
 62
7
  6
CONTINUOUS
370
-3
390
F
  0
LAYER
  5
20B
100
AcDbSymbolTableRecord
100
AcDbLayerTableRecord
  2
NOTE
 70
0
 62
7
  6
CONTINUOUS
370
-3
390
F
  0
LAYER
  5
20C
100
AcDbSymbolTableRecord
100
AcDbLayerTableRecord
  2
PIANI
 70
0
 62
7
  6
CONTINUOUS
370
-3
390
F
  0
LAYER
  5
20D
100
AcDbSymbolTableRecord
100
AcDbLayerTableRecord
  2
PIANI_ORIGINE
 70
0
 62
7
  6
CONTINUOUS
370
-3
390
F
  0
LAYER
  5
20E
100
AcDbSymbolTableRecord
100
AcDbLayerTableRecord
  2
PLACCA
 70
0
 62
7
  6
CONTINUOUS
370
-3
390
F
  0
LAYER
  5
20F
100
AcDbSymbolTableRecord
100
AcDbLayerTableRecord
  2
PUNTI
 70
0
 62
7
  6
CONTINUOUS
370
-3
390
F
  0
LAYER
  5
210
100
AcDbSymbolTableRecord
100
AcDbLayerTableRecord
  2
RACCORDO
 70
0
 62
7
  6
CONTINUOUS
370
-3
390
F
  0
LAYER
  5
211
100
AcDbSymbolTableRecord
100
AcDbLayerTableRecord
  2
RGB__255__255__255__
 70
0
 62
7
  6
CONTINUOUS
370
-3
390
F
  0
LAYER
  5
212
100
AcDbSymbolTableRecord
100
AcDbLayerTableRecord
  2
RGB____0____0____0__
 70
0
 62
7
  6
CONTINUOUS
370
-3
390
F
  0
LAYER
  5
213
100
AcDbSymbolTableRecord
100
AcDbLayerTableRecord
  2
SMUSSO
 70
0
 62
7
  6
CONTINUOUS
370
-3
390
F
  0
LAYER
  5
214
100
AcDbSymbolTableRecord
100
AcDbLayerTableRecord
  2
SNAPLINE
 70
0
 62
7
  6
CONTINUOUS
370
-3
390
F
  0
LAYER
  5
215
100
AcDbSymbolTableRecord
100
AcDbLayerTableRecord
  2
SUPERFICI
 70
0
 62
7
  6
CONTINUOUS
370
-3
390
F
  0
LAYER
  5
216
100
AcDbSymbolTableRecord
100
AcDbLayerTableRecord
  2
SUPPORTO
 70
0
 62
7
  6
CONTINUOUS
370
-3
390
F
  0
LAYER
  5
217
100
AcDbSymbolTableRecord
100
AcDbLayerTableRecord
  2
TEMP
 70
0
 62
7
  6
CONTINUOUS
370
-3
390
F
  0
LAYER
  5
218
100
AcDbSymbolTableRecord
100
AcDbLayerTableRecord
  2
TRASH
 70
0
 62
7
  6
CONTINUOUS
370
-3
390
F
  0
LAYER
  5
219
100
AcDbSymbolTableRecord
100
AcDbLayerTableRecord
  2
WHITE
 70
0
 62
7
  6
CONTINUOUS
370
-3
390
F
  0
LAYER
  5
21A
100
AcDbSymbolTableRecord
100
AcDbLayerTableRecord
  2
XSEC_DATUMS
 70
0
 62
7
  6
CONTINUOUS
370
-3
390
F
  0
ENDTAB
  0
TABLE
  2
STYLE
  5
3
100
AcDbSymbolTable
 70
1
  0
STYLE
  5
11
100
AcDbSymbolTableRecord
100
AcDbTextStyleTableRecord
  2
STANDARD
 70
0
 40
0.0
 41
0.8
 50
0.0
 71
0
 42
0.2
  3
txt
  4

  0
STYLE
  5
21B
100
AcDbSymbolTableRecord
100
AcDbTextStyleTableRecord
  2
TEXTSTYLE_1
 70
0
 40
0.0
 41
0.8
 50
0.0
 71
0
 42
0.2
  3
gdt
  4

  0
ENDTAB
  0
TABLE
  2
VIEW
  5
6
100
AcDbSymbolTable
 70
0
  0
ENDTAB
  0
TABLE
  2
UCS
  5
7
100
AcDbSymbolTable
 70
0
  0
ENDTAB
  0
TABLE
  2
APPID
  5
9
100
AcDbSymbolTable
 70
1
  0
APPID
  5
21C
100
AcDbSymbolTableRecord
100
AcDbRegAppTableRecord
  2
ACAD
 70
0
  0
ENDTAB
  0
TABLE
  2
BLOCK_RECORD
  5
1
100
AcDbSymbolTable
 70
0
  0
BLOCK_RECORD
  5
21D
100
AcDbSymbolTableRecord
100
AcDbBlockTableRecord
  2
*Model_Space
  0
BLOCK_RECORD
  5
21E
100
AcDbSymbolTableRecord
100
AcDbBlockTableRecord
  2
*Paper_Space
  0
BLOCK_RECORD
  5
21F
100
AcDbSymbolTableRecord
100
AcDbBlockTableRecord
  2
_FILLED
  0
ENDTAB
  0
TABLE
  2
DIMSTYLE
  5
A
100
AcDbSymbolTable
 70
1
100
AcDbDimStyleTable
 71
0
  0
DIMSTYLE
105
220
100
AcDbSymbolTableRecord
100
AcDbDimStyleTableRecord
  2
STANDARD
 70
0
  3

  4

 40
1.0
 41
3.0
 42
0.5
 43
0.38
 44
1.5
 45
0.0
 46
0.0
 47
0.01
 48
0.01
140
3.0
141
0.09
142
0.0
143
25.4
144
1.0
145
0.0
146
1.0
147
0.625
 71
1
 72
0
 73
0
 74
0
 75
0
 76
0
 77
1
 78
8
 79
2
170
0
171
1
172
0
173
0
174
0
175
0
176
0
177
0
178
0
270
2
179
2
271
2
272
2
273
2
274
2
275
0
280
0
281
0
282
0
283
1
284
8
285
0
286
0
287
3
288
0
340
11
278
44
341
21F
342
21F
343
21F
344
21F
  0
ENDTAB
  0
ENDSEC
  0
SECTION
  2
BLOCKS
  0
BLOCK
  5
20
100
AcDbEntity
  8
0
100
AcDbBlockBegin
  2
*Model_Space
 70
0
 10
0.0
 20
0.0
 30
0.0
  3
*Model_Space
  1

  0
ENDBLK
  5
21
100
AcDbEntity
  8
0
100
AcDbBlockEnd
  0
BLOCK
  5
1C
100
AcDbEntity
  8
0
100
AcDbBlockBegin
  2
*Paper_Space
 70
0
 10
0.0
 20
0.0
 30
0.0
  3
*Paper_Space
  1

  0
ENDBLK
  5
1D
100
AcDbEntity
  8
0
100
AcDbBlockEnd
  0
BLOCK
  5
221
100
AcDbEntity
  8
0
100
AcDbBlockBegin
  2
_FILLED
 70
64
 10
0.0
 20
0.0
  3
_FILLED
  1

  0
SOLID
  5
222
100
AcDbEntity
  8
0
  6
BYBLOCK
 62
0
100
AcDbTrace
 10
0.0
 20
0.0
 11
-1.0
 21
0.1333333333
 12
-1.0
 22
-0.1333333333
 13
-1.0
 23
-0.1333333333
  0
ENDBLK
  5
223
100
AcDbEntity
  8
0
  6
BYBLOCK
 62
0
100
AcDbBlockEnd
  0
ENDSEC
  0
SECTION
  2
ENTITIES
  0
LWPOLYLINE
  5
224
100
AcDbEntity
  8
SUPERFICI
100
AcDbPolyline
 62
7
  6
CONTINUOUS
 90
7
 70
0
 10
-37.9682281286
 20
38.8592620436
 10
-38.0766286891
 20
38.6816015239
 10
-38.1663377476
 20
38.489242865
 10
-38.2355769933
 20
38.2841497579
 10
-38.2829622612
 20
38.0688918793
 10
-38.3078005985
 20
37.8454616357
 10
-38.3117074243
 20
37.7026751204
  0
LINE
  5
225
100
AcDbEntity
  8
SUPERFICI
100
AcDbLine
 62
7
  6
CONTINUOUS
 10
-36.1645674365
 20
41.4866970735
 11
-37.9704628567
 21
38.8560170218
  0
LWPOLYLINE
  5
226
100
AcDbEntity
  8
SUPERFICI
100
AcDbPolyline
 62
250
  6
CONTINUOUS
 90
31
 70
0
 10
-37.9682267161
 20
38.8592640944
 10
-37.9257708911
 20
38.9172799091
 10
-37.8760860793
 20
38.9776363628
 10
-37.8223399472
 20
39.0355016671
 10
-37.7645200822
 20
39.0906823624
 10
-37.7026197978
 20
39.1429897367
 10
-37.6370748149
 20
39.191929368
 10
-37.5679681508
 20
39.237377395
 10
-37.495391205
 20
39.2792156772
 10
-37.4199334923
 20
39.3171006435
 10
-37.3417581574
 20
39.3509969121
 10
-37.2610338879
 20
39.3808776348
 10
-37.1784777111
 20
39.4065691917
 10
-37.0943080587
 20
39.42813502
 10
-37.0087403046
 20
39.4456479418
 10
-36.9225774341
 20
39.4591107428
 10
-36.8360621159
 20
39.468682425
 10
-36.7494208998
 20
39.4745309086
 10
-36.6634910353
 20
39.4768281093
 10
-36.5785062212
 20
39.4758142181
 10
-36.4946721942
 20
39.4717329761
 10
-36.4128119121
 20
39.4648996864
 10
-36.3331170627
 20
39.4556097808
 10
-36.2557543604
 20
39.4441550768
 10
-36.1815124471
 20
39.4309590263
 10
-36.1105266682
 20
39.4163417202
 10
-36.0429115512
 20
39.400612927
 10
-35.9794120753
 20
39.3842667473
 10
-35.9203248112
 20
39.3676931903
 10
-35.8654929756
 20
39.3511213281
 10
-35.8149604975
 20
39.3348193321
  0
LINE
  5
227
100
AcDbEntity
  8
0
100
AcDbLine
 62
250
  6
CONTINUOUS
 10
-35.8149604975
 20
39.3348193321
 11
-33.8171458628
 21
42.0230575121
  0
LWPOLYLINE
  5
228
100
AcDbEntity
  8
SUPERFICI
100
AcDbPolyline
 62
250
  6
CONTINUOUS
 90
13
 70
0
 10
-35.8149604975
 20
39.3348193321
 10
-35.8712471775
 20
39.2614300979
 10
-35.9262190334
 20
39.1791566571
 10
-35.9791483377
 20
39.0890881531
 10
-36.0293344028
 20
38.9924169213
 10
-36.0761128561
 20
38.8904227047
 10
-36.1188644357
 20
38.7844557124
 10
-36.1570231876
 20
38.6759187457
 10
-36.1900839584
 20
38.5662486277
 10
-36.2176090822
 20
38.4568971819
 10
-36.2392341748
 20
38.3493120135
 10
-36.254672957
 20
38.2449173454
 10
-36.263721045
 20
38.1450951642
  0
LWPOLYLINE
  5
229
100
AcDbEntity
  8
SUPERFICI
100
AcDbPolyline
 62
250
  6
CONTINUOUS
 90
9
 70
0
 10
-37.6245974381
 20
8.9545096855
 10
-37.6178006387
 20
8.8904556062
 10
-37.5994904848
 20
8.8239716822
 10
-37.5699495516
 20
8.7592781943
 10
-37.5295182587
 20
8.697120648
 10
-37.4786625223
 20
8.6382153256
 10
-37.4179683866
 20
8.5832410318
 10
-37.34813527
 20
8.5328312716
 10
-37.2699679053
 20
8.4875669497
  0
LWPOLYLINE
  5
22A
100
AcDbEntity
  8
SUPERFICI
100
AcDbPolyline
 62
7
  6
CONTINUOUS
 90
15
 70
0
 10
-36.8833308143
 20
-19.7160652857
 10
-36.864076728
 20
-19.922925574
 10
-36.8141487307
 20
-20.1788235275
 10
-36.7354756356
 20
-20.435647494
 10
-36.6286439676
 20
-20.690785808
 10
-36.4954913821
 20
-20.9399812251
 10
-36.3370710815
 20
-21.1815462719
 10
-36.1545381749
 20
-21.4134476803
 10
-35.9516030096
 20
-21.6310553012
 10
-35.7301436419
 20
-21.8326723155
 10
-35.4921291237
 20
-22.0164511083
 10
-35.2427738631
 20
-22.1785907248
 10
-34.9854974797
 20
-22.3174862348
 10
-34.7215057447
 20
-22.4327867385
 10
-34.5995538821
 20
-22.4772084721
  0
LINE
  5
22B
100
AcDbEntity
  8
SUPERFICI
100
AcDbLine
 62
250
  6
CONTINUOUS
 10
-36.4872451307
 20
-19.7959045886
 11
-36.4942187743
 21
-19.7164311381
  0
LINE
  5
22C
100
AcDbEntity
  8
SUPERFICI
100
AcDbLine
 62
250
  6
CONTINUOUS
 10
-36.4523427801
 20
-20.2265836168
 11
-36.4872451307
 21
-19.7959045886
  0
LWPOLYLINE
  5
22D
100
AcDbEntity
  8
SUPERFICI
100
AcDbPolyline
 62
250
  6
CONTINUOUS
 90
3
 70
0
 10
-36.4942187743
 20
-19.7164311381
 10
-36.497171137
 20
-19.6772477629
 10
-36.4993616767
 20
-19.6383414573
  0
LINE
  5
22E
100
AcDbEntity
  8
SUPERFICI
100
AcDbLine
 62
7
  6
CONTINUOUS
 10
-36.8833308006
 20
-19.7160652847
 11
-36.8832268659
 21
-19.7182180278
  0
LINE
  5
22F
100
AcDbEntity
  8
SUPERFICI
100
AcDbLine
 62
250
  6
CONTINUOUS
 10
-36.4993616767
 20
-19.6383414573
 11
-36.5026545877
 21
-19.5613046028
  0
LINE
  5
230
100
AcDbEntity
  8
SUPERFICI
100
AcDbLine
 62
250
  6
CONTINUOUS
 10
-36.5026545877
 20
-19.5613046028
 11
-36.5864892212
 21
-17.273909222
  0
LWPOLYLINE
  5
231
100
AcDbEntity
  8
SUPERFICI
100
AcDbPolyline
 62
250
  6
CONTINUOUS
 90
10
 70
0
 10
-38.3117074243
 20
37.7026751204
 10
-38.3108303121
 20
37.6778989192
 10
-38.2993642909
 20
37.608667089
 10
-38.2747627776
 20
37.5407298396
 10
-38.2373529661
 20
37.4749907191
 10
-38.1876323972
 20
37.4123240406
 10
-38.1262623416
 20
37.3535632547
 10
-38.054059005
 20
37.2994898647
 10
-37.9719826732
 20
37.2508230326
 10
-37.8811249401
 20
37.2082100147
  0
LINE
  5
232
100
AcDbEntity
  8
SUPERFICI
100
AcDbLine
 62
250
  6
CONTINUOUS
 10
-36.5864892212
 20
-17.273909222
 11
-36.6403926197
 21
-15.7025225721
  0
LINE
  5
233
100
AcDbEntity
  8
SUPERFICI
100
AcDbLine
 62
7
  6
CONTINUOUS
 10
-36.9295780958
 20
-18.2898509326
 11
-36.8832268659
 21
-19.7182180278
  0
LINE
  5
234
100
AcDbEntity
  8
SUPERFICI
100
AcDbLine
 62
250
  6
CONTINUOUS
 10
-36.6403926197
 20
-15.7025225721
 11
-36.6865270113
 21
-14.2663889847
  0
LINE
  5
235
100
AcDbEntity
  8
SUPERFICI
100
AcDbLine
 62
250
  6
CONTINUOUS
 10
-36.6865270113
 20
-14.2663889847
 11
-36.7334596872
 21
-12.7029817789
  0
LINE
  5
236
100
AcDbEntity
  8
SUPERFICI
100
AcDbLine
 62
7
  6
CONTINUOUS
 10
-37.0267342856
 20
-14.8118538548
 11
-36.9295780958
 21
-18.2898509326
  0
LINE
  5
237
100
AcDbEntity
  8
SUPERFICI
100
AcDbLine
 62
250
  6
CONTINUOUS
 10
-36.7334596872
 20
-12.7029817789
 11
-36.7869651212
 21
-10.7939057566
  0
LINE
  5
238
100
AcDbEntity
  8
SUPERFICI
100
AcDbLine
 62
7
  6
CONTINUOUS
 10
-37.1225488423
 20
-11.181215799
 11
-37.0267342856
 21
-14.8118538548
  0
LINE
  5
239
100
AcDbEntity
  8
SUPERFICI
100
AcDbLine
 62
250
  6
CONTINUOUS
 10
-36.7869651212
 20
-10.7939057566
 11
-36.867176469
 21
-7.7630523879
  0
LINE
  5
23A
100
AcDbEntity
  8
SUPERFICI
100
AcDbLine
 62
250
  6
CONTINUOUS
 10
-36.867176469
 20
-7.7630523879
 11
-36.9556511737
 21
-4.2807333269
  0
LINE
  5
23B
100
AcDbEntity
  8
SUPERFICI
100
AcDbLine
 62
7
  6
CONTINUOUS
 10
-37.3666994879
 20
-1.4539861261
 11
-37.1225488423
 21
-11.181215799
  0
LINE
  5
23C
100
AcDbEntity
  8
SUPERFICI
100
AcDbLine
 62
7
  6
CONTINUOUS
 10
-37.5217082603
 20
4.8203730495
 11
-37.3666994879
 21
-1.4539861261
  0
LINE
  5
23D
100
AcDbEntity
  8
SUPERFICI
100
AcDbLine
 62
7
  6
CONTINUOUS
 10
-38.1239349812
 20
29.0721899451
 11
-37.5217082603
 21
4.8203730495
  0
LINE
  5
23E
100
AcDbEntity
  8
SUPERFICI
100
AcDbLine
 62
250
  6
CONTINUOUS
 10
-36.9556511737
 20
-4.2807333269
 11
-37.6010387028
 21
21.6649977632
  0
LINE
  5
23F
100
AcDbEntity
  8
SUPERFICI
100
AcDbLine
 62
250
  6
CONTINUOUS
 10
-37.6010387028
 20
21.6649977632
 11
-37.6993560477
 21
25.7378695735
  0
LINE
  5
240
100
AcDbEntity
  8
SUPERFICI
100
AcDbLine
 62
7
  6
CONTINUOUS
 10
-38.2091409181
 20
32.7169653988
 11
-38.1239349812
 21
29.0721899451
  0
LINE
  5
241
100
AcDbEntity
  8
SUPERFICI
100
AcDbLine
 62
250
  6
CONTINUOUS
 10
-37.6993560477
 20
25.7378695735
 11
-37.7875040973
 21
29.6662037492
  0
LINE
  5
242
100
AcDbEntity
  8
SUPERFICI
100
AcDbLine
 62
250
  6
CONTINUOUS
 10
-37.7875040973
 20
29.6662037492
 11
-37.8182264599
 21
31.2213254642
  0
LWPOLYLINE
  5
243
100
AcDbEntity
  8
SUPERFICI
100
AcDbPolyline
 62
7
  6
CONTINUOUS
 90
3
 70
0
 10
-38.311707507
 20
37.702759999
 10
-38.2857948191
 20
36.2241633631
 10
-38.2091409181
 20
32.7169653988
  0
LINE
  5
244
100
AcDbEntity
  8
SUPERFICI
100
AcDbLine
 62
250
  6
CONTINUOUS
 10
-37.8182264599
 20
31.2213254642
 11
-37.8457925751
 21
32.7904977474
  0
LINE
  5
245
100
AcDbEntity
  8
SUPERFICI
100
AcDbLine
 62
250
  6
CONTINUOUS
 10
-37.8457925751
 20
32.7904977474
 11
-37.8692393953
 21
34.3192809537
  0
LWPOLYLINE
  5
246
100
AcDbEntity
  8
SUPERFICI
100
AcDbPolyline
 62
250
  6
CONTINUOUS
 90
7
 70
0
 10
-37.8692393953
 20
34.3192809537
 10
-37.8985366573
 20
36.5545921922
 10
-37.8987589699
 20
36.5926286843
 10
-37.8987852571
 20
36.6303308641
 10
-37.8983857133
 20
36.6683388791
 10
-37.8973070859
 20
36.7062325085
 10
-37.8942301885
 20
36.7829039096
  0
LINE
  5
247
100
AcDbEntity
  8
SUPERFICI
100
AcDbLine
 62
250
  6
CONTINUOUS
 10
-37.8942301885
 20
36.7829039096
 11
-37.8811248903
 21
37.2082100582
  0
LWPOLYLINE
  5
248
100
AcDbEntity
  8
SUPERFICI
100
AcDbPolyline
 62
250
  6
CONTINUOUS
 90
46
 70
0
 10
-37.8811249401
 20
37.2082100147
 10
-37.8799116211
 20
37.2380447786
 10
-37.8778491665
 20
37.2701226168
 10
-37.8747557309
 20
37.304357585
 10
-37.8704190877
 20
37.3407748812
 10
-37.8646401679
 20
37.3791338616
 10
-37.8572706368
 20
37.4189436809
 10
-37.8481145772
 20
37.4600761235
 10
-37.836969176
 20
37.5023913218
 10
-37.8237361578
 20
37.5453951756
 10
-37.808240858
 20
37.5889399133
 10
-37.7903104914
 20
37.6328646694
 10
-37.7699256367
 20
37.6766825852
 10
-37.746954492
 20
37.7202365833
 10
-37.7212709012
 20
37.7633598013
 10
-37.6929513687
 20
37.8055933393
 10
-37.661918385
 20
37.8467878777
 10
-37.6281040539
 20
37.8867906893
 10
-37.5916923287
 20
37.9251978061
 10
-37.5526695827
 20
37.9618861787
 10
-37.5110350874
 20
37.9967341128
 10
-37.4670840879
 20
38.0294153783
 10
-37.420868664
 20
38.0598482993
 10
-37.3724460196
 20
38.0879597038
 10
-37.3222021181
 20
38.1135246348
 10
-37.2702335334
 20
38.1365215674
 10
-37.2166487432
 20
38.1569343067
 10
-37.1619219314
 20
38.1746433626
 10
-37.1061898729
 20
38.189688848
 10
-37.0495907125
 20
38.2021175854
 10
-36.9926537238
 20
38.2119217388
 10
-36.9355313722
 20
38.2192032368
 10
-36.8783665848
 20
38.2240711764
 10
-36.8217076172
 20
38.2266269971
 10
-36.765698233
 20
38.2270279313
 10
-36.7104709982
 20
38.2254302191
 10
-36.6565726091
 20
38.2220216729
 10
-36.604124616
 20
38.216994462
 10
-36.5532327693
 20
38.2105365987
 10
-36.5044188113
 20
38.2029042235
 10
-36.4577654012
 20
38.1943088696
 10
-36.4133428158
 20
38.1849531268
 10
-36.371643532
 20
38.1751372924
 10
-36.3328586752
 20
38.1651113788
 10
-36.2968764376
 20
38.1550377039
 10
-36.263720174
 20
38.1450959527
  0
LWPOLYLINE
  5
249
100
AcDbEntity
  8
SUPERFICI
100
AcDbPolyline
 62
250
  6
CONTINUOUS
 90
9
 70
0
 10
-36.8832268659
 20
-19.7182180278
 10
-36.8712338499
 20
-19.7999287385
 10
-36.8464939205
 20
-19.8734300006
 10
-36.8089583462
 20
-19.9442245141
 10
-36.7591263404
 20
-20.0113707324
 10
-36.6976606555
 20
-20.0739756303
 10
-36.6253787692
 20
-20.131206581
 10
-36.5432420116
 20
-20.1823024296
 10
-36.4523427801
 20
-20.2265836168
  0
LWPOLYLINE
  5
24A
100
AcDbEntity
  8
SUPERFICI
100
AcDbPolyline
 62
7
  6
CONTINUOUS
 90
12
 70
0
 10
31.3690918698
 20
-42.7355590434
 10
31.6129688846
 20
-42.7922271505
 10
31.8625489011
 20
-42.8289781454
 10
32.1077172686
 20
-42.8433743774
 10
32.3475022621
 20
-42.8353744953
 10
32.579996581
 20
-42.8049793981
 10
32.8021997
 20
-42.752743227
 10
33.0118107591
 20
-42.6797148332
 10
33.2079926342
 20
-42.5867566219
 10
33.3895762687
 20
-42.4748589708
 10
33.5547135586
 20
-42.3456621383
 10
33.6922056081
 20
-42.2116958324
  0
LWPOLYLINE
  5
24B
100
AcDbEntity
  8
SUPERFICI
100
AcDbPolyline
 62
250
  6
CONTINUOUS
 90
4
 70
0
 10
30.8044525282
 20
-42.3478990536
 10
30.6710331704
 20
-42.3154126877
 10
30.6016873976
 20
-42.2976759039
 10
30.5295094425
 20
-42.2780861762
  0
LINE
  5
24C
100
AcDbEntity
  8
SUPERFICI
100
AcDbLine
 62
250
  6
CONTINUOUS
 10
31.225970844
 20
-42.4524942846
 11
30.8044525282
 21
-42.3478990536
  0
LINE
  5
24D
100
AcDbEntity
  8
SUPERFICI
100
AcDbLine
 62
7
  6
CONTINUOUS
 10
31.3695715475
 20
-42.735690307
 11
31.3690915942
 21
-42.7355600476
  0
LINE
  5
24E
100
AcDbEntity
  8
SUPERFICI
100
AcDbLine
 62
250
  6
CONTINUOUS
 10
30.5295094425
 20
-42.2780861762
 11
30.3788804243
 21
-42.2356877598
  0
LINE
  5
24F
100
AcDbEntity
  8
SUPERFICI
100
AcDbLine
 62
250
  6
CONTINUOUS
 10
30.3788804243
 20
-42.2356877598
 11
24.8362425358
 21
-40.6556074312
  0
LINE
  5
250
100
AcDbEntity
  8
SUPERFICI
100
AcDbLine
 62
250
  6
CONTINUOUS
 10
24.8362425358
 20
-40.6556074312
 11
23.6398924055
 21
-40.3126635487
  0
LINE
  5
251
100
AcDbEntity
  8
SUPERFICI
100
AcDbLine
 62
250
  6
CONTINUOUS
 10
23.6398924055
 20
-40.3126635487
 11
22.6822799706
 21
-40.035162142
  0
LINE
  5
252
100
AcDbEntity
  8
SUPERFICI
100
AcDbLine
 62
250
  6
CONTINUOUS
 10
22.6822799706
 20
-40.035162142
 11
21.840235673
 21
-39.7878143669
  0
LWPOLYLINE
  5
253
100
AcDbEntity
  8
SUPERFICI
100
AcDbPolyline
 62
7
  6
CONTINUOUS
 90
3
 70
0
 10
24.2109994978
 20
-40.6228861765
 10
29.2363517663
 20
-42.1108597943
 10
31.3695715475
 20
-42.735690307
  0
LINE
  5
254
100
AcDbEntity
  8
SUPERFICI
100
AcDbLine
 62
250
  6
CONTINUOUS
 10
21.840235673
 20
-39.7878143669
 11
21.1069001345
 21
-39.569193657
  0
LINE
  5
255
100
AcDbEntity
  8
SUPERFICI
100
AcDbLine
 62
250
  6
CONTINUOUS
 10
19.2401272358
 20
-39.0069351924
 11
19.0727058842
 21
-38.9561639227
  0
LWPOLYLINE
  5
256
100
AcDbEntity
  8
SUPERFICI
100
AcDbPolyline
 62
250
  6
CONTINUOUS
 90
4
 70
0
 10
21.1069001345
 20
-39.569193657
 10
20.7576731103
 20
-39.4636004958
 10
20.5857907656
 20
-39.4113631779
 10
19.2401272358
 20
-39.0069351924
  0
LWPOLYLINE
  5
257
100
AcDbEntity
  8
SUPERFICI
100
AcDbPolyline
 62
7
  6
CONTINUOUS
 90
4
 70
0
 10
1.613920884
 20
-33.6940186965
 10
7.6487701626
 20
-35.541465719
 10
10.5670833165
 20
-36.43774737
 10
13.4178779954
 20
-37.3176706562
  0
LINE
  5
258
100
AcDbEntity
  8
SUPERFICI
100
AcDbLine
 62
7
  6
CONTINUOUS
 10
1.613920884
 20
-33.6940186965
 11
-2.1262871548
 21
-32.5464556354
  0
LWPOLYLINE
  5
259
100
AcDbEntity
  8
SUPERFICI
100
AcDbPolyline
 62
7
  6
CONTINUOUS
 90
3
 70
0
 10
-10.9775665302
 20
-29.8215104937
 10
-4.9507566155
 20
-31.6780902146
 10
-2.1262381853
 20
-32.5464707078
  0
LWPOLYLINE
  5
25A
100
AcDbEntity
  8
SUPERFICI
100
AcDbPolyline
 62
7
  6
CONTINUOUS
 90
4
 70
0
 10
-27.5348777113
 20
-24.7324601692
 10
-24.9481546499
 20
-25.5464678656
 10
-22.2850331138
 20
-26.3707256363
 10
-16.7526397933
 20
-28.052538323
  0
LINE
  5
25B
100
AcDbEntity
  8
SUPERFICI
100
AcDbLine
 62
250
  6
CONTINUOUS
 10
-23.2190820986
 20
-25.9660751747
 11
-23.9020333424
 21
-25.7509431277
  0
LINE
  5
25C
100
AcDbEntity
  8
SUPERFICI
100
AcDbLine
 62
250
  6
CONTINUOUS
 10
-24.7803592728
 20
-25.4773001025
 11
-25.5292694793
 21
-25.2404251376
  0
LWPOLYLINE
  5
25D
100
AcDbEntity
  8
SUPERFICI
100
AcDbPolyline
 62
7
  6
CONTINUOUS
 90
3
 70
0
 10
-34.6005161777
 20
-22.4768790976
 10
-32.4848289546
 20
-23.1571167453
 10
-27.5348777113
 20
-24.7324601692
  0
LINE
  5
25E
100
AcDbEntity
  8
SUPERFICI
100
AcDbLine
 62
250
  6
CONTINUOUS
 10
-25.5292694793
 20
-25.2404251376
 11
-26.3569152928
 21
-24.9749464497
  0
LINE
  5
25F
100
AcDbEntity
  8
SUPERFICI
100
AcDbLine
 62
250
  6
CONTINUOUS
 10
-26.3569152928
 20
-24.9749464497
 11
-27.2881966208
 21
-24.6725939736
  0
LINE
  5
260
100
AcDbEntity
  8
SUPERFICI
100
AcDbLine
 62
250
  6
CONTINUOUS
 10
-27.2881966208
 20
-24.6725939736
 11
-28.8504653718
 21
-24.1600966155
  0
LINE
  5
261
100
AcDbEntity
  8
SUPERFICI
100
AcDbLine
 62
250
  6
CONTINUOUS
 10
-28.8504653718
 20
-24.1600966155
 11
-33.9196647826
 21
-22.4904657536
  0
LWPOLYLINE
  5
262
100
AcDbEntity
  8
SUPERFICI
100
AcDbPolyline
 62
250
  6
CONTINUOUS
 90
4
 70
0
 10
-33.9196647826
 20
-22.4904657536
 10
-34.071834023
 20
-22.4399984852
 10
-34.1447174155
 20
-22.4150930788
 10
-34.2147582555
 20
-22.3900095078
  0
LINE
  5
263
100
AcDbEntity
  8
SUPERFICI
100
AcDbLine
 62
7
  6
CONTINUOUS
 10
-34.5995538821
 20
-22.4772084721
 11
-34.6005158014
 21
-22.4768779999
  0
LINE
  5
264
100
AcDbEntity
  8
SUPERFICI
100
AcDbLine
 62
250
  6
CONTINUOUS
 10
-34.3488009229
 20
-22.3402474092
 11
-34.7628397575
 21
-22.1879699488
  0
LINE
  5
265
100
AcDbEntity
  8
SUPERFICI
100
AcDbLine
 62
250
  6
CONTINUOUS
 10
-34.2147582555
 20
-22.3900095078
 11
-34.3488009229
 21
-22.3402474092
  0
LWPOLYLINE
  5
266
100
AcDbEntity
  8
SUPERFICI
100
AcDbPolyline
 62
250
  6
CONTINUOUS
 90
46
 70
0
 10
-34.7628389184
 20
-22.1879688157
 10
-34.7960920566
 20
-22.1753877734
 10
-34.8320202633
 20
-22.1611761872
 10
-34.8706083966
 20
-22.1451961811
 10
-34.9119571233
 20
-22.1272471469
 10
-34.9559074031
 20
-22.1072273222
 10
-35.0020402777
 20
-22.0851608008
 10
-35.0502981103
 20
-22.0609113741
 10
-35.100612268
 20
-22.0343413447
 10
-35.1525342218
 20
-22.0055194591
 10
-35.2059722297
 20
-21.9743357834
 10
-35.2608198937
 20
-21.940686229
 10
-35.3166001672
 20
-21.9047048124
 10
-35.373192393
 20
-21.8663204831
 10
-35.4304652274
 20
-21.8254684377
 10
-35.4879315106
 20
-21.7823525725
 10
-35.5454552717
 20
-21.7369454291
 10
-35.6028901891
 20
-21.6892323815
 10
-35.6597542255
 20
-21.6394976114
 10
-35.715907111
 20
-21.5877654635
 10
-35.7712061653
 20
-21.5340714195
 10
-35.8252029086
 20
-21.4787722806
 10
-35.8777858987
 20
-21.4219235628
 10
-35.9288271977
 20
-21.3636090046
 10
-35.9779108498
 20
-21.3042750381
 10
-36.0249708707
 20
-21.2440002836
 10
-36.0699137786
 20
-21.1829112862
 10
-36.1123640126
 20
-21.1215633005
 10
-36.1522992703
 20
-21.0600748484
 10
-36.1897085649
 20
-20.9985636271
 10
-36.2243335028
 20
-20.9376030889
 10
-36.2562242176
 20
-20.8773061741
 10
-36.2854417048
 20
-20.8177771333
 10
-36.3118487865
 20
-20.7595756917
 10
-36.3355626366
 20
-20.7027913975
 10
-36.3567072456
 20
-20.6475017919
 10
-36.3752565559
 20
-20.594230187
 10
-36.391383356
 20
-20.543027454
 10
-36.4052636779
 20
-20.4939290491
 10
-36.4169656082
 20
-20.4474049714
 10
-36.4267004009
 20
-20.4034579961
 10
-36.4346723915
 20
-20.3620827369
 10
-36.4410110571
 20
-20.3237026982
 10
-36.445919892
 20
-20.2884283872
 10
-36.4496328508
 20
-20.2560707181
 10
-36.4523428017
 20
-20.226583638
  0
LWPOLYLINE
  5
267
100
AcDbEntity
  8
SUPERFICI
100
AcDbPolyline
 62
250
  6
CONTINUOUS
 90
7
 70
0
 10
-34.6005158014
 20
-22.4768779999
 10
-34.6361883623
 20
-22.4592010121
 10
-34.672768747
 20
-22.4273862436
 10
-34.7041008378
 20
-22.3837036023
 10
-34.729769858
 20
-22.3287313627
 10
-34.7494359989
 20
-22.2631972518
 10
-34.7628389184
 20
-22.1879688157
  0
LWPOLYLINE
  5
268
100
AcDbEntity
  8
SUPERFICI
100
AcDbPolyline
 62
250
  6
CONTINUOUS
 90
27
 70
0
 10
8.053106546
 20
-26.77683274
 10
8.0007231775
 20
-26.7885331826
 10
7.9739820793
 20
-26.794304091
 10
7.9467152153
 20
-26.7999067961
 10
7.9190477146
 20
-26.8053416476
 10
7.8911755233
 20
-26.8105265719
 10
7.8630522036
 20
-26.8152340059
 10
7.8348471438
 20
-26.8192988318
 10
7.8063245933
 20
-26.8228882523
 10
7.7768314409
 20
-26.8262491458
 10
7.7459756734
 20
-26.8294628343
 10
7.7137592422
 20
-26.8324183662
 10
7.6800787724
 20
-26.8350495389
 10
7.6450612008
 20
-26.8372900666
 10
7.6087094021
 20
-26.8391015635
 10
7.5707385815
 20
-26.8404426861
 10
7.5310383235
 20
-26.8412649252
 10
7.489635416
 20
-26.8414969257
 10
7.4464512903
 20
-26.8410466634
 10
7.4011316897
 20
-26.8398285456
 10
7.3540458475
 20
-26.8377761381
 10
7.3062086494
 20
-26.8348691286
 10
7.2575264489
 20
-26.8310501757
 10
7.2081086751
 20
-26.8263250165
 10
7.1593176525
 20
-26.8208817
 10
7.1116117885
 20
-26.8147154223
 10
7.0643927546
 20
-26.8079065839
  0
LWPOLYLINE
  5
269
100
AcDbEntity
  8
SUPERFICI
100
AcDbPolyline
 62
7
  6
CONTINUOUS
 90
3
 70
0
 10
-16.7526397933
 20
-28.052538323
 10
-13.8958803038
 20
-28.9253918339
 10
-10.9775665302
 20
-29.8215104937
  0
LINE
  5
26A
100
AcDbEntity
  8
SUPERFICI
100
AcDbLine
 62
250
  6
CONTINUOUS
 10
-13.5074916496
 20
-28.9165152047
 11
-21.8363118151
 21
-26.393325031
  0
LINE
  5
26B
100
AcDbEntity
  8
SUPERFICI
100
AcDbLine
 62
250
  6
CONTINUOUS
 10
1.2844836373
 20
-33.4710481579
 11
-0.6721502149
 21
-32.8720459093
  0
LINE
  5
26C
100
AcDbEntity
  8
SUPERFICI
100
AcDbLine
 62
250
  6
CONTINUOUS
 10
-0.6721502149
 20
-32.8720459093
 11
-4.4348060878
 21
-31.7154017485
  0
LINE
  5
26D
100
AcDbEntity
  8
SUPERFICI
100
AcDbLine
 62
250
  6
CONTINUOUS
 10
-21.8363118151
 20
-26.393325031
 11
-22.534821146
 21
-26.1793509425
  0
LINE
  5
26E
100
AcDbEntity
  8
SUPERFICI
100
AcDbLine
 62
250
  6
CONTINUOUS
 10
19.0727058842
 20
-38.9561639227
 11
18.3947382168
 21
-38.7483968109
  0
LINE
  5
26F
100
AcDbEntity
  8
SUPERFICI
100
AcDbLine
 62
250
  6
CONTINUOUS
 10
-4.4348060878
 20
-31.7154017485
 11
-13.5074916496
 21
-28.9165152047
  0
LINE
  5
270
100
AcDbEntity
  8
SUPERFICI
100
AcDbLine
 62
250
  6
CONTINUOUS
 10
11.6638231146
 20
-36.6493154824
 11
1.2844836373
 21
-33.4710481579
  0
LWPOLYLINE
  5
271
100
AcDbEntity
  8
SUPERFICI
100
AcDbPolyline
 62
7
  6
CONTINUOUS
 90
4
 70
0
 10
13.4178779954
 20
-37.3176706562
 10
18.9265161656
 20
-39.0264135695
 10
21.5978358054
 20
-39.8402110418
 10
24.2109994978
 20
-40.6228861765
  0
LWPOLYLINE
  5
272
100
AcDbEntity
  8
SUPERFICI
100
AcDbPolyline
 62
250
  6
CONTINUOUS
 90
3
 70
0
 10
18.3947382168
 20
-38.7483968109
 10
15.916359314
 20
-37.9746103969
 10
11.6638231146
 20
-36.6493154824
  0
LINE
  5
273
100
AcDbEntity
  8
SUPERFICI
100
AcDbLine
 62
250
  6
CONTINUOUS
 10
-23.9020333424
 20
-25.7509431277
 11
-24.7803592728
 21
-25.4773001025
  0
LINE
  5
274
100
AcDbEntity
  8
SUPERFICI
100
AcDbLine
 62
250
  6
CONTINUOUS
 10
-22.534821146
 20
-26.1793509425
 11
-23.2190820986
 21
-25.9660751747
  0
LWPOLYLINE
  5
275
100
AcDbEntity
  8
SUPERFICI
100
AcDbPolyline
 62
250
  6
CONTINUOUS
 90
6
 70
0
 10
-2.1262870376
 20
-32.5464557161
 10
-2.1572876745
 20
-32.5323977987
 10
-2.1868939428
 20
-32.508756115
 10
-2.2130941337
 20
-32.4762755283
 10
-2.2356355606
 20
-32.4352688199
 10
-2.2543010649
 20
-32.3861307388
  0
LWPOLYLINE
  5
276
100
AcDbEntity
  8
SUPERFICI
100
AcDbPolyline
 62
250
  6
CONTINUOUS
 90
6
 70
0
 10
-1.2355490056
 20
-32.8199926815
 10
-1.2665295653
 20
-32.8059409888
 10
-1.2961627056
 20
-32.782291057
 10
-1.3223864655
 20
-32.7498032359
 10
-1.344948442
 20
-32.7087902202
 10
-1.3636314764
 20
-32.6596467592
  0
LWPOLYLINE
  5
277
100
AcDbEntity
  8
SUPERFICI
100
AcDbPolyline
 62
250
  6
CONTINUOUS
 90
5
 70
0
 10
6.6108805645
 20
-24.1106505608
 10
6.5948554087
 20
-24.1151152873
 10
6.5638430876
 20
-24.1189460631
 10
6.5309897126
 20
-24.1185625765
 10
6.496857414
 20
-24.1139713889
  0
LWPOLYLINE
  5
278
100
AcDbEntity
  8
SUPERFICI
100
AcDbPolyline
 62
250
  6
CONTINUOUS
 90
18
 70
0
 10
7.7705601755
 20
-24.8486803199
 10
7.6665650333
 20
-24.8660266133
 10
7.5618668179
 20
-24.8668904214
 10
7.4576381255
 20
-24.8526892613
 10
7.354590632
 20
-24.8171334702
 10
7.2535192753
 20
-24.7707229578
 10
7.1570711117
 20
-24.7358485716
 10
7.0676852973
 20
-24.722300334
 10
6.9844047049
 20
-24.7119375426
 10
6.9070656126
 20
-24.6861121963
 10
6.8370695482
 20
-24.6409579387
 10
6.7755371175
 20
-24.5864153735
 10
6.7231949493
 20
-24.5283665468
 10
6.6806375428
 20
-24.4685211806
 10
6.6483121362
 20
-24.4060811844
 10
6.6265729442
 20
-24.3417076503
 10
6.6156581021
 20
-24.2760999166
 10
6.6144169546
 20
-24.2528164705
  0
LWPOLYLINE
  5
279
100
AcDbEntity
  8
SUPERFICI
100
AcDbPolyline
 62
250
  6
CONTINUOUS
 90
10
 70
0
 10
7.7705608502
 20
-24.848682995
 10
7.9663872767
 20
-24.828370031
 10
8.163398673
 20
-24.8162144156
 10
8.360741608
 20
-24.8122687384
 10
8.5575612146
 20
-24.8165500283
 10
8.7530048929
 20
-24.8290396797
 10
8.9462260035
 20
-24.8496835335
 10
9.1363875351
 20
-24.8783921115
 10
9.3226657301
 20
-24.9150410042
 10
9.5042536532
 20
-24.9594714098
  0
LWPOLYLINE
  5
27A
100
AcDbEntity
  8
SUPERFICI
100
AcDbPolyline
 62
250
  6
CONTINUOUS
 90
13
 70
0
 10
7.0643927546
 20
-26.8079065839
 10
6.9701787603
 20
-26.7935600359
 10
6.9227924458
 20
-26.7859877046
 10
6.8751053976
 20
-26.7779252662
 10
6.8278347599
 20
-26.7695208426
 10
6.7809155253
 20
-26.7607822671
 10
6.7329475331
 20
-26.7512473967
 10
6.6836683779
 20
-26.7407355872
 10
6.6332397618
 20
-26.7293141501
 10
6.5809082868
 20
-26.7168121074
 10
6.5264248566
 20
-26.7031093123
 10
6.4700536198
 20
-26.6881725052
 10
6.4118145133
 20
-26.6719268583
  0
LINE
  5
27B
100
AcDbEntity
  8
SUPERFICI
100
AcDbLine
 62
250
  6
CONTINUOUS
 10
6.4118142876
 20
-26.6719271762
 11
5.8924064539
 21
-26.5218847449
  0
LINE
  5
27C
100
AcDbEntity
  8
SUPERFICI
100
AcDbLine
 62
250
  6
CONTINUOUS
 10
5.8924064539
 20
-26.5218847449
 11
5.1713543386
 21
-26.3100067152
  0
LINE
  5
27D
100
AcDbEntity
  8
SUPERFICI
100
AcDbLine
 62
250
  6
CONTINUOUS
 10
5.1713543386
 20
-26.3100067152
 11
4.3371738171
 21
-26.0611801321
  0
LINE
  5
27E
100
AcDbEntity
  8
SUPERFICI
100
AcDbLine
 62
250
  6
CONTINUOUS
 10
4.3371738171
 20
-26.0611801321
 11
3.184477707
 21
-25.7128960253
  0
LINE
  5
27F
100
AcDbEntity
  8
SUPERFICI
100
AcDbLine
 62
250
  6
CONTINUOUS
 10
3.184477707
 20
-25.7128960253
 11
2.4213942171
 21
-25.4803704487
  0
LINE
  5
280
100
AcDbEntity
  8
SUPERFICI
100
AcDbLine
 62
250
  6
CONTINUOUS
 10
-10.7207443508
 20
-21.4387792475
 11
-11.5844289574
 21
-21.1669474733
  0
LINE
  5
281
100
AcDbEntity
  8
SUPERFICI
100
AcDbLine
 62
250
  6
CONTINUOUS
 10
-11.5844289574
 20
-21.1669474733
 11
-12.3293949835
 21
-20.9294035209
  0
LWPOLYLINE
  5
282
100
AcDbEntity
  8
SUPERFICI
100
AcDbPolyline
 62
250
  6
CONTINUOUS
 90
3
 70
0
 10
-12.3293949835
 20
-20.9294035209
 10
-12.9688615868
 20
-20.722255035
 10
-13.0648975439
 20
-20.6908175268
  0
LWPOLYLINE
  5
283
100
AcDbEntity
  8
SUPERFICI
100
AcDbPolyline
 62
250
  6
CONTINUOUS
 90
35
 70
0
 10
-13.0648970092
 20
-20.690816791
 10
-13.1246736622
 20
-20.6707620601
 10
-13.1827314968
 20
-20.6504559325
 10
-13.2390395955
 20
-20.6299894085
 10
-13.293337616
 20
-20.609560528
 10
-13.3458118841
 20
-20.5891550645
 10
-13.3971173246
 20
-20.5685091605
 10
-13.4471933589
 20
-20.547591821
 10
-13.4962804135
 20
-20.526463557
 10
-13.5454819856
 20
-20.5049294042
 10
-13.5944320817
 20
-20.483208149
 10
-13.6425979881
 20
-20.4614637886
 10
-13.6905706608
 20
-20.4394548746
 10
-13.7388270847
 20
-20.4170450696
 10
-13.787543514
 20
-20.3940125464
 10
-13.837271393
 20
-20.3697419033
 10
-13.888651366
 20
-20.3437670011
 10
-13.9409885334
 20
-20.3164478791
 10
-13.9925372887
 20
-20.2886231352
 10
-14.0430897946
 20
-20.2604061727
 10
-14.092882736
 20
-20.2317283665
 10
-14.1409210254
 20
-20.203240916
 10
-14.1868862037
 20
-20.1752147757
 10
-14.231044454
 20
-20.1475636606
 10
-14.2732673838
 20
-20.1204616689
 10
-14.3135936522
 20
-20.0939622834
 10
-14.3521373309
 20
-20.0680572412
 10
-14.3889195494
 20
-20.0428074125
 10
-14.4237358103
 20
-20.0184265986
 10
-14.4565385922
 20
-19.9950078528
 10
-14.4875261459
 20
-19.9724595511
 10
-14.5169510959
 20
-19.9506856471
 10
-14.5454150475
 20
-19.9292562248
 10
-14.573800141
 20
-19.907423512
 10
-14.6020759214
 20
-19.8850943006
  0
LWPOLYLINE
  5
284
100
AcDbEntity
  8
SUPERFICI
100
AcDbPolyline
 62
250
  6
CONTINUOUS
 90
7
 70
0
 10
31.3690915942
 20
-42.7355600476
 10
31.3315815267
 20
-42.7172652319
 10
31.3010353073
 20
-42.6873035715
 10
31.2748867488
 20
-42.6452127901
 10
31.2534820064
 20
-42.5915500895
 10
31.2371044362
 20
-42.5270258616
 10
31.225970844
 20
-42.4524942846
  0
LINE
  5
285
100
AcDbEntity
  8
SUPERFICI
100
AcDbLine
 62
250
  6
CONTINUOUS
 10
-14.6020759214
 20
-19.8850943006
 11
-14.6569117063
 21
-19.8407509442
  0
LINE
  5
286
100
AcDbEntity
  8
SUPERFICI
100
AcDbLine
 62
250
  6
CONTINUOUS
 10
-14.6569117063
 20
-19.8407509442
 11
-14.7090270043
 21
-19.7982237276
  0
LINE
  5
287
100
AcDbEntity
  8
SUPERFICI
100
AcDbLine
 62
250
  6
CONTINUOUS
 10
-14.7090270043
 20
-19.7982237276
 11
-14.7846773185
 21
-19.7357759807
  0
LINE
  5
288
100
AcDbEntity
  8
SUPERFICI
100
AcDbLine
 62
250
  6
CONTINUOUS
 10
-14.7846773185
 20
-19.7357759807
 11
-14.8349369072
 21
-19.6938260104
  0
LINE
  5
289
100
AcDbEntity
  8
SUPERFICI
100
AcDbLine
 62
250
  6
CONTINUOUS
 10
-14.8349369072
 20
-19.6938260104
 11
-14.8860121043
 21
-19.6507231243
  0
LWPOLYLINE
  5
28A
100
AcDbEntity
  8
SUPERFICI
100
AcDbPolyline
 62
250
  6
CONTINUOUS
 90
45
 70
0
 10
-14.8860121043
 20
-19.6507231243
 10
-14.93903253
 20
-19.6052858133
 10
-14.9664302961
 20
-19.5814681614
 10
-14.9944685716
 20
-19.5568435056
 10
-15.023157007
 20
-19.5313415612
 10
-15.0528379733
 20
-19.5045033825
 10
-15.0837099418
 20
-19.47604411
 10
-15.1156422053
 20
-19.4460393244
 10
-15.14849524
 20
-19.4145380766
 10
-15.182363492
 20
-19.3813795806
 10
-15.2170854318
 20
-19.3466440589
 10
-15.2521525611
 20
-19.3107555752
 10
-15.2874153693
 20
-19.2738156982
 10
-15.3229449725
 20
-19.2357060136
 10
-15.3585784611
 20
-19.1965404563
 10
-15.3941560222
 20
-19.1564539581
 10
-15.4297679856
 20
-19.1153001894
 10
-15.4656168423
 20
-19.0727691562
 10
-15.5016414877
 20
-19.0288618246
 10
-15.5377921001
 20
-18.9835596057
 10
-15.5742571521
 20
-18.9365109326
 10
-15.610962854
 20
-18.8877014087
 10
-15.6478260343
 20
-18.8371199326
 10
-15.6849828206
 20
-18.7844091599
 10
-15.7223330239
 20
-18.7295503026
 10
-15.7597510988
 20
-18.6725478985
 10
-15.7972884407
 20
-18.6130767635
 10
-15.834797778
 20
-18.5511413924
 10
-15.8721283708
 20
-18.4867341239
 10
-15.9092770547
 20
-18.4195033085
 10
-15.9461073002
 20
-18.3493755817
 10
-15.9823390497
 20
-18.2764767075
 10
-16.0176849506
 20
-18.2008152901
 10
-16.0516385476
 20
-18.1226764552
 10
-16.0842277707
 20
-18.0419326666
 10
-16.1159675345
 20
-17.9577842986
 10
-16.1467117494
 20
-17.8699536081
 10
-16.176208561
 20
-17.7780177952
 10
-16.2045898796
 20
-17.6811121739
 10
-16.2317225518
 20
-17.5788996756
 10
-16.2564783248
 20
-17.4727835591
 10
-16.2775210835
 20
-17.3644961215
 10
-16.2941956388
 20
-17.2548337154
 10
-16.3063809653
 20
-17.1435897132
 10
-16.3136928474
 20
-17.0310161825
  0
LWPOLYLINE
  5
28B
100
AcDbEntity
  8
SUPERFICI
100
AcDbPolyline
 62
7
  6
CONTINUOUS
 90
9
 70
0
 10
-14.2746516539
 20
16.6247627856
 10
-14.2919902304
 20
16.6181615622
 10
-14.3094992423
 20
16.6132229412
 10
-14.3176617329
 20
16.6117374298
 10
-14.3160040727
 20
16.6117280587
 10
-14.3041301441
 20
16.6113151954
 10
-14.282513918
 20
16.6087443783
 10
-14.2520875382
 20
16.6025550585
 10
-14.2246884539
 20
16.5949933638
  0
LINE
  5
28C
100
AcDbEntity
  8
SUPERFICI
100
AcDbLine
 62
250
  6
CONTINUOUS
 10
6.496857414
 20
-24.1139713889
 11
6.4620302049
 21
-24.1052510569
  0
LINE
  5
28D
100
AcDbEntity
  8
SUPERFICI
100
AcDbLine
 62
250
  6
CONTINUOUS
 10
-3.7682096629
 20
-23.5738561559
 11
-7.5934053557
 21
-22.4055013494
  0
LINE
  5
28E
100
AcDbEntity
  8
SUPERFICI
100
AcDbLine
 62
250
  6
CONTINUOUS
 10
6.4620310527
 20
-24.1052499945
 11
-13.0436327846
 21
-18.1152495828
  0
LINE
  5
28F
100
AcDbEntity
  8
0
100
AcDbLine
 62
7
  6
CONTINUOUS
 10
6.6030078836
 20
-23.7941828455
 11
-12.816512571
 21
-17.8306362494
  0
LINE
  5
290
100
AcDbEntity
  8
0
100
AcDbLine
 62
7
  6
CONTINUOUS
 10
6.5862523324
 20
-23.120639606
 11
-12.3612598678
 21
-17.302042172
  0
LINE
  5
291
100
AcDbEntity
  8
DRAFT
100
AcDbLine
 62
7
  6
CONTINUOUS
 10
-12.362237048
 20
-17.2627610648
 11
-4.8360790791
 21
-19.5739712639
  0
LINE
  5
292
100
AcDbEntity
  8
DRAFT
100
AcDbLine
 62
7
  6
CONTINUOUS
 10
-0.3827311685
 20
-20.9415512634
 11
6.5852751469
 21
-23.0813584972
  0
LINE
  5
293
100
AcDbEntity
  8
DRAFT
100
AcDbLine
 62
7
  6
CONTINUOUS
 10
-0.3451828748
 20
-20.893921041
 11
-4.092657925
 21
-19.7431077585
  0
LINE
  5
294
100
AcDbEntity
  8
DRAFT
100
AcDbLine
 62
7
  6
CONTINUOUS
 10
-12.2714223413
 20
-17.1475620969
 11
-4.7452643724
 21
-19.4587722961
  0
LINE
  5
295
100
AcDbEntity
  8
DRAFT
100
AcDbLine
 62
7
  6
CONTINUOUS
 10
-0.2919164618
 20
-20.8263522956
 11
6.5816882051
 21
-22.9371696976
  0
LINE
  5
296
100
AcDbEntity
  8
DRAFT
100
AcDbLine
 62
7
  6
CONTINUOUS
 10
-0.2086151239
 20
-20.723243154
 11
-3.9423819631
 21
-19.5766395302
  0
LINE
  5
297
100
AcDbEntity
  8
DRAFT
100
AcDbLine
 62
7
  6
CONTINUOUS
 10
-0.1168638019
 20
-20.6096747492
 11
-3.8421979885
 21
-19.4656607114
  0
LINE
  5
298
100
AcDbEntity
  8
SUPERFICI
100
AcDbLine
 62
250
  6
CONTINUOUS
 10
-4.4170567532
 20
-22.5623755671
 11
-13.3756585953
 21
-19.8110630832
  0
LINE
  5
299
100
AcDbEntity
  8
SUPERFICI
100
AcDbLine
 62
250
  6
CONTINUOUS
 10
2.4213942171
 20
-25.4803704487
 11
0.8799183229
 21
-25.0075385305
  0
LINE
  5
29A
100
AcDbEntity
  8
SUPERFICI
100
AcDbLine
 62
250
  6
CONTINUOUS
 10
6.1281347421
 20
-25.8004890989
 11
-4.4170567532
 21
-22.5623755671
  0
LINE
  5
29B
100
AcDbEntity
  8
SUPERFICI
100
AcDbLine
 62
250
  6
CONTINUOUS
 10
-7.5934053557
 20
-22.4055013494
 11
-9.1330932243
 21
-21.9320061631
  0
LWPOLYLINE
  5
29C
100
AcDbEntity
  8
SUPERFICI
100
AcDbPolyline
 62
250
  6
CONTINUOUS
 90
3
 70
0
 10
0.8799183229
 20
-25.0075385305
 10
-1.5696421525
 20
-24.2515028267
 10
-3.7682100147
 20
-23.5738509166
  0
LINE
  5
29D
100
AcDbEntity
  8
SUPERFICI
100
AcDbLine
 62
250
  6
CONTINUOUS
 10
-9.1330932243
 20
-21.9320061631
 11
-10.4012919678
 21
-21.53858818
  0
LINE
  5
29E
100
AcDbEntity
  8
SUPERFICI
100
AcDbLine
 62
250
  6
CONTINUOUS
 10
-10.4012919678
 20
-21.53858818
 11
-10.7207443508
 21
-21.4387792475
  0
LWPOLYLINE
  5
29F
100
AcDbEntity
  8
SUPERFICI
100
AcDbPolyline
 62
250
  6
CONTINUOUS
 90
91
 70
0
 10
-13.3756598447
 20
-19.8110652379
 10
-13.4065683546
 20
-19.8013678061
 10
-13.4365733646
 20
-19.7914801983
 10
-13.4656641405
 20
-19.7814481554
 10
-13.4937201832
 20
-19.7713563289
 10
-13.5208458105
 20
-19.7612094912
 10
-13.5473692204
 20
-19.7509172503
 10
-13.5731709966
 20
-19.7405521891
 10
-13.598360581
 20
-19.7300957049
 10
-13.6236068448
 20
-19.7192805247
 10
-13.6489011961
 20
-19.7081052675
 10
-13.6742376082
 20
-19.6965703177
 10
-13.7002815566
 20
-19.6843604952
 10
-13.7272883112
 20
-19.6713193651
 10
-13.7549744797
 20
-19.6575438985
 10
-13.7831935612
 20
-19.643078048
 10
-13.8122043525
 20
-19.6277541714
 10
-13.8417147348
 20
-19.6116889738
 10
-13.8707652092
 20
-19.5953974825
 10
-13.899233188
 20
-19.5789676072
 10
-13.9272357382
 20
-19.5623498145
 10
-13.9541961933
 20
-19.5459148706
 10
-13.9799511213
 20
-19.5298091607
 10
-14.0046823733
 20
-19.5139644668
 10
-14.02834265
 20
-19.4984518345
 10
-14.0509326018
 20
-19.4833124272
 10
-14.0724743816
 20
-19.4685715408
 10
-14.0929549248
 20
-19.4542764497
 10
-14.1123368225
 20
-19.4404922437
 10
-14.1306835251
 20
-19.4272112712
 10
-14.1481316929
 20
-19.4143666444
 10
-14.1647114831
 20
-19.4019654524
 10
-14.1804142284
 20
-19.3900410363
 10
-14.1953148365
 20
-19.3785596119
 10
-14.2093116608
 20
-19.3676243328
 10
-14.2225259374
 20
-19.3571648739
 10
-14.2353594908
 20
-19.3468773252
 10
-14.2478548699
 20
-19.3367357342
 10
-14.2599755952
 20
-19.3267787297
 10
-14.2719952515
 20
-19.3167871336
 10
-14.2839172035
 20
-19.306759327
 10
-14.2957370053
 20
-19.2967000971
 10
-14.3077087941
 20
-19.286391099
 10
-14.3198257631
 20
-19.2758318686
 10
-14.3320855832
 20
-19.2650178406
 10
-14.3447405847
 20
-19.2537160474
 10
-14.3577762391
 20
-19.241923743
 10
-14.3711870637
 20
-19.2296299274
 10
-14.385228366
 20
-19.2165798716
 10
-14.3999398838
 20
-19.2027067977
 10
-14.4152447303
 20
-19.1880521091
 10
-14.4312139607
 20
-19.1725159791
 10
-14.4478888494
 20
-19.1560189831
 10
-14.4651773362
 20
-19.1386095268
 10
-14.4829492523
 20
-19.120379573
 10
-14.5012259224
 20
-19.1012670081
 10
-14.5199320831
 20
-19.0813080206
 10
-14.5388031444
 20
-19.0607505941
 10
-14.557763274
 20
-19.0396514445
 10
-14.5768485237
 20
-19.0179434602
 10
-14.5959731995
 20
-18.9956970319
 10
-14.6150500164
 20
-18.9729907222
 10
-14.6341287365
 20
-18.9497416517
 10
-14.6533241195
 20
-18.9257768405
 10
-14.6726031815
 20
-18.9010963689
 10
-14.6919397011
 20
-18.875691203
 10
-14.7114410891
 20
-18.8493686121
 10
-14.7310658575
 20
-18.8221217469
 10
-14.7507694357
 20
-18.7939466566
 10
-14.7706334443
 20
-18.7646496431
 10
-14.7906004643
 20
-18.7342234474
 10
-14.8106077696
 20
-18.7026665026
 10
-14.8307043228
 20
-18.6697899808
 10
-14.850814151
 20
-18.6355858204
 10
-14.8708501706
 20
-18.6000610643
 10
-14.8908168199
 20
-18.5630484355
 10
-14.9106105073
 20
-18.5245520587
 10
-14.930121167
 20
-18.4845835283
 10
-14.9493122168
 20
-18.442989078
 10
-14.9680980967
 20
-18.3996746738
 10
-14.98628355
 20
-18.3547782937
 10
-15.0036600726
 20
-18.3085023553
 10
-15.0199980997
 20
-18.2611930005
 10
-15.0352672255
 20
-18.2125885765
 10
-15.0494864383
 20
-18.162001871
 10
-15.0625099657
 20
-18.1090828246
 10
-15.0739659704
 20
-18.0543609181
 10
-15.0835014531
 20
-17.998494286
 10
-15.0908903468
 20
-17.9417812604
 10
-15.0959657254
 20
-17.8841697418
 10
-15.0985198169
 20
-17.8258045693
  0
LWPOLYLINE
  5
2A0
100
AcDbEntity
  8
SUPERFICI
100
AcDbPolyline
 62
250
  6
CONTINUOUS
 90
13
 70
0
 10
-13.0436336427
 20
-18.1152506582
 10
-13.078559859
 20
-18.102550389
 10
-13.1129874855
 20
-18.0860874878
 10
-13.1463274557
 20
-18.0661436394
 10
-13.1780093136
 20
-18.0430600885
 10
-13.2074909738
 20
-18.0172318012
 10
-13.2342679969
 20
-17.9891007065
 10
-13.2578822206
 20
-17.9591481354
 10
-13.2779295991
 20
-17.9278865845
 10
-13.2940671161
 20
-17.8958509477
 10
-13.3060186542
 20
-17.8635893636
 10
-13.3135797193
 20
-17.8316538369
 10
-13.3166209395
 20
-17.8005907933
  0
LWPOLYLINE
  5
2A1
100
AcDbEntity
  8
0
100
AcDbPolyline
 62
7
  6
CONTINUOUS
 90
10
 70
0
 10
-12.3612598678
 20
-17.302042172
 10
-12.4183737349
 20
-17.2793851222
 10
-12.4709904368
 20
-17.2511178796
 10
-12.5191099737
 20
-17.2172404443
 10
-12.5638971862
 20
-17.1764101578
 10
-12.6041872336
 20
-17.1299696786
 10
-12.6364855934
 20
-17.0819469816
 10
-12.6596274248
 20
-17.0336847249
 10
-12.6747775685
 20
-16.9838402504
 10
-12.6819360245
 20
-16.932413558
  0
LWPOLYLINE
  5
2A2
100
AcDbEntity
  8
DRAFT
100
AcDbPolyline
 62
7
  6
CONTINUOUS
 90
10
 70
0
 10
-12.512530424
 20
-17.1774795483
 10
-12.4974130508
 20
-17.1901284025
 10
-12.4816787856
 20
-17.2021424159
 10
-12.4655283245
 20
-17.2133683457
 10
-12.4489563362
 20
-17.2237960965
 10
-12.4319681519
 20
-17.2334357637
 10
-12.4147804619
 20
-17.2421643898
 10
-12.3974654963
 20
-17.2499409892
 10
-12.379951025
 20
-17.2568065475
 10
-12.362237048
 20
-17.2627610648
  0
LWPOLYLINE
  5
2A3
100
AcDbEntity
  8
SUPERFICI
100
AcDbPolyline
 62
250
  6
CONTINUOUS
 90
10
 70
0
 10
-13.3756597384
 20
-19.8110649801
 10
-13.3222052589
 20
-19.869530931
 10
-13.2730975908
 20
-19.9385862384
 10
-13.2285291577
 20
-20.0179603065
 10
-13.1886745963
 20
-20.1073421044
 10
-13.1536900721
 20
-20.2063813852
 10
-13.1237126676
 20
-20.314690058
 10
-13.0988598449
 20
-20.4318437091
 10
-13.0792289856
 20
-20.557383265
 10
-13.0648970092
 20
-20.690816791
  0
LWPOLYLINE
  5
2A4
100
AcDbEntity
  8
SUPERFICI
100
AcDbPolyline
 62
250
  6
CONTINUOUS
 90
22
 70
0
 10
-15.0985198169
 20
-17.8258045693
 10
-15.046201929
 20
-17.8837996434
 10
-14.9847412404
 20
-17.9360717578
 10
-14.9148087858
 20
-17.9823210776
 10
-14.8372065606
 20
-18.0206927939
 10
-14.7527077903
 20
-18.0528898077
 10
-14.6621426459
 20
-18.0830200102
 10
-14.5664726629
 20
-18.1127133189
 10
-14.4667841351
 20
-18.1378075239
 10
-14.3642811961
 20
-18.1538920126
 10
-14.2601679295
 20
-18.1597905118
 10
-14.1555205557
 20
-18.1576133724
 10
-14.0514349807
 20
-18.1486798984
 10
-13.9490400985
 20
-18.1333475183
 10
-13.8494737234
 20
-18.1114099609
 10
-13.7538288506
 20
-18.0830837769
 10
-13.6631543265
 20
-18.048670853
 10
-13.5784435674
 20
-18.0085521646
 10
-13.5006250531
 20
-17.9631680032
 10
-13.4305517655
 20
-17.9130138999
 10
-13.3689918057
 20
-17.8586367393
 10
-13.3166199072
 20
-17.8006321195
  0
LWPOLYLINE
  5
2A5
100
AcDbEntity
  8
SUPERFICI
100
AcDbPolyline
 62
250
  6
CONTINUOUS
 90
22
 70
0
 10
-13.3756598447
 20
-19.8110652379
 10
-13.4077898202
 20
-19.775309913
 10
-13.4313656293
 20
-19.7310655502
 10
-13.4467658055
 20
-19.6786285069
 10
-13.4508001564
 20
-19.6194694133
 10
-13.4482237291
 20
-19.5527019261
 10
-13.4491844127
 20
-19.4761139499
 10
-13.4580306829
 20
-19.3893686157
 10
-13.4661529764
 20
-19.2958026552
 10
-13.4644583287
 20
-19.1991356709
 10
-13.4508237667
 20
-19.1012152937
 10
-13.4300373096
 20
-19.0017194915
 10
-13.4050166399
 20
-18.9009074721
 10
-13.3765827158
 20
-18.7997259725
 10
-13.344292491
 20
-18.6995360228
 10
-13.3084732505
 20
-18.6014593716
 10
-13.2695140929
 20
-18.5065867574
 10
-13.2278488171
 20
-18.4159698619
 10
-13.1839338265
 20
-18.3306157674
 10
-13.1382535341
 20
-18.2514721588
 10
-13.0913137861
 20
-18.1794171946
 10
-13.043633643
 20
-18.1152506581
  0
LWPOLYLINE
  5
2A6
100
AcDbEntity
  8
SUPERFICI
100
AcDbPolyline
 62
250
  6
CONTINUOUS
 90
10
 70
0
 10
-15.0985191357
 20
-17.8258040451
 10
-15.193782055
 20
-17.7160956746
 10
-15.300214014
 20
-17.6107516033
 10
-15.4173539712
 20
-17.5102281572
 10
-15.5446945
 20
-17.4149607803
 10
-15.6816839874
 20
-17.3253621485
 10
-15.8277290227
 20
-17.2418203819
 10
-15.9821969686
 20
-17.1646973631
 10
-16.1444187014
 20
-17.0943271704
 10
-16.3136915095
 20
-17.03101463
  0
LWPOLYLINE
  5
2A7
100
AcDbEntity
  8
DRAFT
100
AcDbPolyline
 62
7
  6
CONTINUOUS
 90
5
 70
0
 10
-12.5662582513
 20
-17.1210302567
 10
-12.5539804961
 20
-17.1358771838
 10
-12.5408986902
 20
-17.1502610531
 10
-12.5270230031
 20
-17.1641877211
 10
-12.512530424
 20
-17.1774795483
  0
LINE
  5
2A8
100
AcDbEntity
  8
SUPERFICI
100
AcDbLine
 62
250
  6
CONTINUOUS
 10
-16.3136915095
 20
-17.03101463
 11
-16.3360992078
 21
-16.4651360058
  0
LINE
  5
2A9
100
AcDbEntity
  8
SUPERFICI
100
AcDbLine
 62
250
  6
CONTINUOUS
 10
-16.3360992078
 20
-16.4651360058
 11
-16.3682118938
 21
-15.5429333805
  0
LINE
  5
2AA
100
AcDbEntity
  8
SUPERFICI
100
AcDbLine
 62
250
  6
CONTINUOUS
 10
-16.3682118938
 20
-15.5429333805
 11
-16.4046097245
 21
-14.3719714504
  0
LINE
  5
2AB
100
AcDbEntity
  8
SUPERFICI
100
AcDbLine
 62
250
  6
CONTINUOUS
 10
-16.4046097245
 20
-14.3719714504
 11
-16.4646299498
 21
-12.2526130467
  0
LINE
  5
2AC
100
AcDbEntity
  8
SUPERFICI
100
AcDbLine
 62
250
  6
CONTINUOUS
 10
-16.4646299498
 20
-12.2526130467
 11
-16.5996389257
 21
-7.2128437453
  0
LINE
  5
2AD
100
AcDbEntity
  8
SUPERFICI
100
AcDbLine
 62
250
  6
CONTINUOUS
 10
-16.5996389257
 20
-7.2128437453
 11
-16.8178825663
 21
1.2105201005
  0
LINE
  5
2AE
100
AcDbEntity
  8
SUPERFICI
100
AcDbLine
 62
250
  6
CONTINUOUS
 10
-16.8178825663
 20
1.2105201005
 11
-17.0060646838
 21
9.2375564404
  0
LINE
  5
2AF
100
AcDbEntity
  8
SUPERFICI
100
AcDbLine
 62
250
  6
CONTINUOUS
 10
-17.0060646838
 20
9.2375564404
 11
-17.0806782486
 21
12.5041301238
  0
LINE
  5
2B0
100
AcDbEntity
  8
SUPERFICI
100
AcDbLine
 62
250
  6
CONTINUOUS
 10
-17.0806782486
 20
12.5041301238
 11
-17.1448957614
 21
15.5955797864
  0
LINE
  5
2B1
100
AcDbEntity
  8
SUPERFICI
100
AcDbLine
 62
250
  6
CONTINUOUS
 10
-17.1448957614
 20
15.5955797864
 11
-17.1607345877
 21
16.586551854
  0
LINE
  5
2B2
100
AcDbEntity
  8
SUPERFICI
100
AcDbLine
 62
250
  6
CONTINUOUS
 10
-17.1607345877
 20
16.586551854
 11
-17.1677732721
 21
17.1876712603
  0
LINE
  5
2B3
100
AcDbEntity
  8
SUPERFICI
100
AcDbLine
 62
250
  6
CONTINUOUS
 10
-17.1677732721
 20
17.1876712603
 11
-17.1692179185
 21
17.3598054534
  0
LWPOLYLINE
  5
2B4
100
AcDbEntity
  8
SUPERFICI
100
AcDbPolyline
 62
250
  6
CONTINUOUS
 90
91
 70
0
 10
-15.9548718779
 20
16.5982003488
 10
-15.9552794911
 20
16.6522091442
 10
-15.9533733277
 20
16.7050501093
 10
-15.9492023881
 20
16.7566630678
 10
-15.9427709946
 20
16.8072853582
 10
-15.9341555654
 20
16.8565597099
 10
-15.9236341214
 20
16.9035937126
 10
-15.9114238443
 20
16.9481944703
 10
-15.8976641528
 20
16.9905983583
 10
-15.8826604919
 20
17.0306462152
 10
-15.8666514194
 20
17.0683358444
 10
-15.8497744162
 20
17.1037996902
 10
-15.8322041506
 20
17.1371126335
 10
-15.8141427298
 20
17.1682959348
 10
-15.7957125838
 20
17.1974810805
 10
-15.776937718
 20
17.2248983165
 10
-15.7579336269
 20
17.2506187312
 10
-15.7388233165
 20
17.2747022776
 10
-15.7196002044
 20
17.2973385664
 10
-15.700359695
 20
17.3185786751
 10
-15.6811855184
 20
17.3384841851
 10
-15.6620196358
 20
17.3572378187
 10
-15.6429293497
 20
17.3748823255
 10
-15.6239763734
 20
17.3914643599
 10
-15.6050644815
 20
17.4071494417
 10
-15.5862391381
 20
17.4219703558
 10
-15.5675445058
 20
17.4359604861
 10
-15.5488571173
 20
17.4492641911
 10
-15.5301837414
 20
17.4619187736
 10
-15.5115761363
 20
17.4739306277
 10
-15.4929607428
 20
17.4853811542
 10
-15.474283345
 20
17.4963304248
 10
-15.4556387319
 20
17.5067484357
 10
-15.4371764688
 20
17.5165826049
 10
-15.4189005407
 20
17.5258673825
 10
-15.400856409
 20
17.5346140908
 10
-15.3832684991
 20
17.542752049
 10
-15.3662208477
 20
17.5502912915
 10
-15.3496883867
 20
17.5572863556
 10
-15.3337389806
 20
17.5637436583
 10
-15.3184617715
 20
17.5696723034
 10
-15.3038189265
 20
17.575124713
 10
-15.2896831635
 20
17.5801667723
 10
-15.2761182532
 20
17.5848023653
 10
-15.263095353
 20
17.5890712003
 10
-15.2503367207
 20
17.5930769641
 10
-15.2378406765
 20
17.5968328042
 10
-15.2256260048
 20
17.6003462748
 10
-15.2134339285
 20
17.6036954957
 10
-15.2012503663
 20
17.6068876382
 10
-15.1890953122
 20
17.6099202535
 10
-15.1767524045
 20
17.6128433622
 10
-15.1642264218
 20
17.6156515619
 10
-15.1515113899
 20
17.6183432541
 10
-15.138367268
 20
17.6209613385
 10
-15.1247759906
 20
17.623491183
 10
-15.1107467375
 20
17.6259256414
 10
-15.0960727514
 20
17.628305583
 10
-15.080665815
 20
17.6306286603
 10
-15.0645970073
 20
17.632858698
 10
-15.0478952478
 20
17.6349799011
 10
-15.030610344
 20
17.6369690017
 10
-15.0126782204
 20
17.6388121622
 10
-14.9939551663
 20
17.6405030969
 10
-14.9744250656
 20
17.6420157436
 10
-14.9540851043
 20
17.6433229728
 10
-14.9328071841
 20
17.6444058021
 10
-14.910561019
 20
17.6452305694
 10
-14.887355172
 20
17.645761137
 10
-14.863116981
 20
17.6459654292
 10
-14.8376158734
 20
17.6457990317
 10
-14.8110592536
 20
17.645216317
 10
-14.7840415761
 20
17.644207576
 10
-14.7565235015
 20
17.6427587376
 10
-14.7285479001
 20
17.6408528335
 10
-14.7008549005
 20
17.6385408857
 10
-14.6736200252
 20
17.6358665173
 10
-14.6466950376
 20
17.6328330339
 10
-14.6203483139
 20
17.6294784135
 10
-14.594832359
 20
17.6258740476
 10
-14.5699232379
 20
17.6220170715
 10
-14.5451733967
 20
17.6178254741
 10
-14.5206894933
 20
17.6133188937
 10
-14.4963816012
 20
17.6085008741
 10
-14.4714987518
 20
17.6032159823
 10
-14.4459215834
 20
17.5974181959
 10
-14.4197763797
 20
17.5911099565
 10
-14.3926752227
 20
17.5841617515
 10
-14.364491683
 20
17.5764976367
 10
-14.3353627219
 20
17.5681135198
 10
-14.3052961339
 20
17.5589700942
  0
LWPOLYLINE
  5
2B5
100
AcDbEntity
  8
SUPERFICI
100
AcDbPolyline
 62
250
  6
CONTINUOUS
 90
78
 70
0
 10
-17.1692250841
 20
17.3597972978
 10
-17.1678106873
 20
17.4630606027
 10
-17.1618729087
 20
17.5639991898
 10
-17.1514956454
 20
17.6625227939
 10
-17.1364246685
 20
17.7592390821
 10
-17.1169686182
 20
17.8535003484
 10
-17.0943965634
 20
17.943312192
 10
-17.0696978422
 20
18.0279062974
 10
-17.04306271
 20
18.1072234586
 10
-17.0149112792
 20
18.1806544545
 10
-16.9856862349
 20
18.2487769819
 10
-16.9553509802
 20
18.3126990179
 10
-16.9234228609
 20
18.3730216188
 10
-16.8900376939
 20
18.4296438248
 10
-16.8557519841
 20
18.4825627928
 10
-16.8207772914
 20
18.5320927713
 10
-16.7853424965
 20
18.5783713796
 10
-16.749629202
 20
18.6215490016
 10
-16.71365588
 20
18.662031974
 10
-16.6776078967
 20
18.699907581
 10
-16.6416429502
 20
18.7352616751
 10
-16.6056904963
 20
18.7684384424
 10
-16.5698798572
 20
18.7995165469
 10
-16.5343186088
 20
18.8285782494
 10
-16.4988444883
 20
18.8559423129
 10
-16.4635433054
 20
18.8816711636
 10
-16.4284931602
 20
18.9058214287
 10
-16.3934755283
 20
18.9286640845
 10
-16.3585053687
 20
18.9502670338
 10
-16.3236795715
 20
18.9706394813
 10
-16.2888722243
 20
18.9899352572
 10
-16.2539805327
 20
19.0082589945
 10
-16.2191776819
 20
19.0255651856
 10
-16.1847479019
 20
19.0417858611
 10
-16.1507049519
 20
19.0569712464
 10
-16.1171425352
 20
19.0711438384
 10
-16.0844854836
 20
19.0842214814
 10
-16.0528872912
 20
19.0962241634
 10
-16.022226056
 20
19.1072804745
 10
-15.992502431
 20
19.1174922604
 10
-15.9637823658
 20
19.1268734254
 10
-15.9358981269
 20
19.1355576401
 10
-15.9084745609
 20
19.1438090172
 10
-15.881564092
 20
19.1516524398
 10
-15.8552454305
 20
19.1590651386
 10
-15.8291706289
 20
19.1662079554
 10
-15.8033993884
 20
19.1730744048
 10
-15.77795795
 20
19.1796650597
 10
-15.7523947782
 20
19.1861329439
 10
-15.726681786
 20
19.1924870815
 10
-15.7008901875
 20
19.1986973257
 10
-15.674690535
 20
19.2048323334
 10
-15.6480930473
 20
19.2109162819
 10
-15.6212066202
 20
19.2168693077
 10
-15.5938521254
 20
19.2225818263
 10
-15.5661524445
 20
19.2280570041
 10
-15.5382844386
 20
19.2332366836
 10
-15.5101941075
 20
19.2379027783
 10
-15.482042439
 20
19.2419006974
 10
-15.4535848298
 20
19.2454087374
 10
-15.424154544
 20
19.2486908503
 10
-15.3933457304
 20
19.2518456988
 10
-15.3611603323
 20
19.254762342
 10
-15.3274969284
 20
19.2573721287
 10
-15.2924858506
 20
19.2596045188
 10
-15.2561296401
 20
19.2614215444
 10
-15.2181410035
 20
19.262784993
 10
-15.178403967
 20
19.2636533206
 10
-15.1369417743
 20
19.2639596138
 10
-15.0936753056
 20
19.2636125389
 10
-15.0482478948
 20
19.2625295223
 10
-15.0010268618
 20
19.2606465279
 10
-14.95302882
 20
19.257941078
 10
-14.9041589426
 20
19.2543573106
 10
-14.8545184654
 20
19.2499112299
 10
-14.8054658628
 20
19.2447957098
 10
-14.7574730854
 20
19.2389889746
 10
-14.7099461353
 20
19.2325659982
  0
LWPOLYLINE
  5
2B6
100
AcDbEntity
  8
SUPERFICI
100
AcDbPolyline
 62
250
  6
CONTINUOUS
 90
10
 70
0
 10
-14.3052948917
 20
17.5589710224
 10
-14.2577743476
 20
17.7390687858
 10
-14.2148490491
 20
17.9185584782
 10
-14.1766871999
 20
18.0967367548
 10
-14.143438338
 20
18.2729054097
 10
-14.1152327491
 20
18.4463741117
 10
-14.0921809566
 20
18.6164631098
 10
-14.0743732885
 20
18.7825058963
 10
-14.0618795229
 20
18.9438518193
 10
-14.0547486154
 20
19.0998686315
  0
LWPOLYLINE
  5
2B7
100
AcDbEntity
  8
SUPERFICI
100
AcDbPolyline
 62
250
  6
CONTINUOUS
 90
8
 70
0
 10
-14.3052961339
 20
17.5589700942
 10
-14.3340623038
 20
17.4589249412
 10
-14.3540393486
 20
17.3585923073
 10
-14.3656481687
 20
17.2592788381
 10
-14.3657268627
 20
17.1611140829
 10
-14.3590892395
 20
17.0665817848
 10
-14.355975286
 20
16.980001242
 10
-14.3649646485
 20
16.8361113986
  0
LWPOLYLINE
  5
2B8
100
AcDbEntity
  8
SUPERFICI
100
AcDbPolyline
 62
250
  6
CONTINUOUS
 90
13
 70
0
 10
-2.4802946829
 20
28.9899092365
 10
-2.5243112655
 20
28.9266094334
 10
-2.5675295461
 20
28.8567652807
 10
-2.6095327195
 20
28.7810487745
 10
-2.6499303884
 20
28.7001929536
 10
-2.6883194997
 20
28.6149716829
 10
-2.7242880853
 20
28.5261921609
 10
-2.7574763756
 20
28.4347047167
 10
-2.7875792794
 20
28.341394324
 10
-2.8143064952
 20
28.2471589206
 10
-2.8374007496
 20
28.1529055126
 10
-2.8566402705
 20
28.0595414438
 10
-2.8718400756
 20
27.9679654024
  0
LWPOLYLINE
  5
2B9
100
AcDbEntity
  8
SUPERFICI
100
AcDbPolyline
 62
250
  6
CONTINUOUS
 90
13
 70
0
 10
-3.370964265
 20
29.2634252364
 10
-3.4151078938
 20
29.2001644779
 10
-3.4584124318
 20
29.1303468388
 10
-3.5004610736
 20
29.0546443126
 10
-3.5408491019
 20
28.9737855345
 10
-3.5791877827
 20
28.8885487687
 10
-3.615108107
 20
28.7997544173
 10
-3.6482643423
 20
28.7082571242
 10
-3.6783373607
 20
28.6149375491
 10
-3.7050377097
 20
28.520693891
 10
-3.7281083993
 20
28.4264332433
 10
-3.7473273743
 20
28.3330628627
 10
-3.7625096526
 20
28.2414814373
  0
LWPOLYLINE
  5
2BA
100
AcDbEntity
  8
RACCORDO
100
AcDbPolyline
 62
250
  6
CONTINUOUS
 90
3
 70
0
 10
34.4719157125
 20
-12.875482681
 10
34.4743687353
 20
-12.8749880754
 10
34.4919525036
 20
-12.8763571536
  0
LWPOLYLINE
  5
2BB
100
AcDbEntity
  8
RACCORDO
100
AcDbPolyline
 62
7
  6
CONTINUOUS
 90
19
 70
0
 10
-2.1610121882
 20
-17.9620796406
 10
-2.1841437779
 20
-17.9557396637
 10
-2.2078298138
 20
-17.9507122042
 10
-2.2320702956
 20
-17.9469972623
 10
-2.257110478
 20
-17.9445852811
 10
-2.2827051063
 20
-17.9434858174
 10
-2.3081184176
 20
-17.9437275419
 10
-2.333251751
 20
-17.9453479273
 10
-2.3582037672
 20
-17.9483095011
 10
-2.3825346857
 20
-17.9525285156
 10
-2.4062201839
 20
-17.9580044291
 10
-2.4292845844
 20
-17.9647377835
 10
-2.4513610742
 20
-17.972646456
 10
-2.4725256336
 20
-17.9818011257
 10
-2.4927022824
 20
-17.9921311136
 10
-2.5112962665
 20
-18.0033422606
 10
-2.5281093345
 20
-18.0153365137
 10
-2.5433397377
 20
-18.0282119259
 10
-2.5569874761
 20
-18.0419684973
  0
LINE
  5
2BC
100
AcDbEntity
  8
DRAFT
100
AcDbLine
 62
7
  6
CONTINUOUS
 10
0.0207631811
 20
-20.4393221421
 11
-3.6919220266
 21
-19.2991924831
  0
LINE
  5
2BD
100
AcDbEntity
  8
DRAFT
100
AcDbLine
 62
7
  6
CONTINUOUS
 10
0.112514503
 20
-20.3257537373
 11
-3.591738052
 21
-19.1882136643
  0
LINE
  5
2BE
100
AcDbEntity
  8
DRAFT
100
AcDbLine
 62
7
  6
CONTINUOUS
 10
0.2519735966
 20
-20.1559637536
 11
-3.4414620901
 21
-19.021745436
  0
LINE
  5
2BF
100
AcDbEntity
  8
DRAFT
100
AcDbLine
 62
7
  6
CONTINUOUS
 10
-11.7261301221
 20
-16.4726075991
 11
-4.1999721532
 21
-18.7838177983
  0
LINE
  5
2C0
100
AcDbEntity
  8
DRAFT
100
AcDbLine
 62
7
  6
CONTINUOUS
 10
0.2533757574
 20
-20.1513977978
 11
6.5605706064
 21
-22.0882762321
  0
LINE
  5
2C1
100
AcDbEntity
  8
DRAFT
100
AcDbLine
 62
7
  6
CONTINUOUS
 10
2.1726738805
 20
-20.6040478562
 11
-3.3412781155
 21
-18.9107666172
  0
LINE
  5
2C2
100
AcDbEntity
  8
DRAFT
100
AcDbLine
 62
7
  6
CONTINUOUS
 10
2.2949430335
 20
-20.4289790083
 11
-3.1910021536
 21
-18.7442983889
  0
LINE
  5
2C3
100
AcDbEntity
  8
DRAFT
100
AcDbLine
 62
7
  6
CONTINUOUS
 10
2.3764558021
 20
-20.312266443
 11
-3.090818179
 21
-18.6333195701
  0
LINE
  5
2C4
100
AcDbEntity
  8
DRAFT
100
AcDbLine
 62
7
  6
CONTINUOUS
 10
2.4987249551
 20
-20.137197595
 11
-2.9405422171
 21
-18.4668513418
  0
LINE
  5
2C5
100
AcDbEntity
  8
DRAFT
100
AcDbLine
 62
7
  6
CONTINUOUS
 10
2.5802377238
 20
-20.0204850297
 11
-2.8403582425
 21
-18.355872523
  0
LINE
  5
2C6
100
AcDbEntity
  8
DRAFT
100
AcDbLine
 62
7
  6
CONTINUOUS
 10
2.7025068768
 20
-19.8454161818
 11
-2.6900822806
 21
-18.1894042947
  0
LINE
  5
2C7
100
AcDbEntity
  8
RACCORDO
100
AcDbLine
 62
7
  6
CONTINUOUS
 10
2.6731028284
 20
-19.4465895295
 11
-2.1610121882
 21
-17.9620796406
  0
LINE
  5
2C8
100
AcDbEntity
  8
DRAFT
100
AcDbLine
 62
7
  6
CONTINUOUS
 10
2.1726738805
 20
-20.6040478562
 11
2.2367016681
 21
-20.6328159647
  0
LINE
  5
2C9
100
AcDbEntity
  8
DRAFT
100
AcDbLine
 62
7
  6
CONTINUOUS
 10
2.3764558021
 20
-20.312266443
 11
2.4404835897
 21
-20.3410345514
  0
LINE
  5
2CA
100
AcDbEntity
  8
DRAFT
100
AcDbLine
 62
7
  6
CONTINUOUS
 10
2.5802377238
 20
-20.0204850297
 11
2.6442655114
 21
-20.0492531382
  0
LWPOLYLINE
  5
2CB
100
AcDbEntity
  8
SUPERFICI
100
AcDbPolyline
 62
250
  6
CONTINUOUS
 90
10
 70
0
 10
-3.1780053154
 20
-22.9429460212
 10
-3.1247819404
 20
-23.0022541234
 10
-3.0761218702
 20
-23.0726852369
 10
-3.0322253845
 20
-23.1539494748
 10
-2.9932731567
 20
-23.2457123619
 10
-2.9594255099
 20
-23.3475962121
 10
-2.9308217574
 20
-23.4591816822
 10
-2.9075796292
 20
-23.5800094982
 10
-2.8897947874
 20
-23.7095823457
 10
-2.8775404326
 20
-23.8473669165
  0
LWPOLYLINE
  5
2CC
100
AcDbEntity
  8
SUPERFICI
100
AcDbPolyline
 62
250
  6
CONTINUOUS
 90
10
 70
0
 10
-4.0686748976
 20
-22.6694300213
 10
-4.0154930864
 20
-22.7287253625
 10
-3.9668641251
 20
-22.7991470118
 10
-3.9229883136
 20
-22.8804051262
 10
-3.8840462791
 20
-22.9721654512
 10
-3.850198454
 20
-23.0740501952
 10
-3.8215843201
 20
-23.1856394
 10
-3.7983215797
 20
-23.3064734354
 10
-3.780505768
 20
-23.4360550755
 10
-3.7682100147
 20
-23.5738509166
  0
LWPOLYLINE
  5
2CD
100
AcDbEntity
  8
SUPERFICI
100
AcDbPolyline
 62
250
  6
CONTINUOUS
 90
22
 70
0
 10
-4.0686748976
 20
-22.6694300213
 10
-4.0970286704
 20
-22.6349783327
 10
-4.1211594649
 20
-22.5906837228
 10
-4.1407992581
 20
-22.5370382385
 10
-4.1557299084
 20
-22.4746378168
 10
-4.1657855968
 20
-22.4041755916
 10
-4.1708546487
 20
-22.3264341631
 10
-4.1708807581
 20
-22.2422770211
 10
-4.1658636318
 20
-22.1526389835
 10
-4.1558589985
 20
-22.0585157186
 10
-4.140977986
 20
-21.960952715
 10
-4.1213858875
 20
-21.8610336688
 10
-4.0973003254
 20
-21.7598684463
 10
-4.0689888336
 20
-21.6585807559
 10
-4.0367658864
 20
-21.558295666
 10
-4.0009894053
 20
-21.4601271089
 10
-3.9620567829
 20
-21.3651655069
 10
-3.9204004694
 20
-21.2744656606
 10
-3.8764831688
 20
-21.1890350326
 10
-3.8307926991
 20
-21.1098225568
 10
-3.7838365744
 20
-21.0377080979
 10
-3.736136367
 20
-20.9734926785
  0
LWPOLYLINE
  5
2CE
100
AcDbEntity
  8
SUPERFICI
100
AcDbPolyline
 62
250
  6
CONTINUOUS
 90
22
 70
0
 10
-3.1780052542
 20
-22.9429460401
 10
-3.2063590522
 20
-22.9084943461
 10
-3.2304898662
 20
-22.8641997334
 10
-3.250129673
 20
-22.8105542484
 10
-3.2650603286
 20
-22.7481538274
 10
-3.2751160156
 20
-22.6776916035
 10
-3.2801850662
 20
-22.5999501761
 10
-3.2802111764
 20
-22.5157930348
 10
-3.2751940509
 20
-22.4261549977
 10
-3.2651894182
 20
-22.332031733
 10
-3.250308367
 20
-22.2344687417
 10
-3.2307162298
 20
-22.1345497076
 10
-3.206630747
 20
-22.0333844607
 10
-3.1783197336
 20
-21.9320966232
 10
-3.1460973831
 20
-21.8318113499
 10
-3.1103208926
 20
-21.733642795
 10
-3.0713888168
 20
-21.6386810246
 10
-3.0297324439
 20
-21.5479811957
 10
-2.9858102688
 20
-21.4625520626
 10
-2.9401087066
 20
-21.3833429899
 10
-2.8931366742
 20
-21.3112334123
 10
-2.845415744
 20
-21.2470243525
  0
LWPOLYLINE
  5
2CF
100
AcDbEntity
  8
DRAFT
100
AcDbPolyline
 62
7
  6
CONTINUOUS
 90
5
 70
0
 10
-12.6065274842
 20
-17.0582350801
 10
-12.5978767419
 20
-17.0743285399
 10
-12.5882856376
 20
-17.090160008
 10
-12.5777421255
 20
-17.1057261282
 10
-12.5662582513
 20
-17.1210302567
  0
LWPOLYLINE
  5
2D0
100
AcDbEntity
  8
SUPERFICI
100
AcDbPolyline
 62
250
  6
CONTINUOUS
 90
7
 70
0
 10
-14.3649646485
 20
16.8361113986
 10
-14.3593693705
 20
16.7746790149
 10
-14.3419353395
 20
16.7196758874
 10
-14.3175117467
 20
16.6731571164
 10
-14.2890664328
 20
16.6364537258
 10
-14.2574603683
 20
16.6101405832
 10
-14.2246839972
 20
16.5949919966
  0
LWPOLYLINE
  5
2D1
100
AcDbEntity
  8
DRAFT
100
AcDbPolyline
 62
7
  6
CONTINUOUS
 90
8
 70
0
 10
-12.6368125608
 20
-16.9462705366
 10
-12.635833397
 20
-16.9618627405
 10
-12.6337335627
 20
-16.9776056874
 10
-12.630513058
 20
-16.9934993774
 10
-12.6261485611
 20
-17.009612963
 10
-12.6206633938
 20
-17.0258772916
 10
-12.6141275213
 20
-17.0420849061
 10
-12.6065274842
 20
-17.0582350801
  0
LWPOLYLINE
  5
2D2
100
AcDbEntity
  8
DRAFT
100
AcDbPolyline
 62
7
  6
CONTINUOUS
 90
25
 70
0
 10
-12.0086467151
 20
-16.1469637541
 10
-12.0076392326
 20
-16.1630069048
 10
-12.0054786684
 20
-16.1792051582
 10
-12.0021650225
 20
-16.1955585144
 10
-11.9976742987
 20
-16.2121381257
 10
-11.9920304932
 20
-16.2288728398
 10
-11.9853055948
 20
-16.2455491996
 10
-11.9774857547
 20
-16.2621664575
 10
-11.9685848217
 20
-16.2787253611
 10
-11.9587163303
 20
-16.2950146958
 10
-11.9478678861
 20
-16.3110310084
 10
-11.9360518834
 20
-16.3267777521
 10
-11.9234190395
 20
-16.3420540717
 10
-11.9099588908
 20
-16.3568539411
 10
-11.8956819009
 20
-16.3711833864
 10
-11.8807701776
 20
-16.3848596305
 10
-11.8652155903
 20
-16.397874306
 10
-11.8490262698
 20
-16.4102357803
 10
-11.8324087164
 20
-16.4217863785
 10
-11.8153574446
 20
-16.4325157134
 10
-11.79787794
 20
-16.4424341723
 10
-11.7801931597
 20
-16.4514152416
 10
-11.7623774228
 20
-16.4594167503
 10
-11.7443564103
 20
-16.4664808695
 10
-11.7261301221
 20
-16.4726075991
  0
LWPOLYLINE
  5
2D3
100
AcDbEntity
  8
DRAFT
100
AcDbPolyline
 62
7
  6
CONTINUOUS
 90
25
 70
0
 10
-12.544409638
 20
-16.8329022321
 10
-12.5434590903
 20
-16.8482910169
 10
-12.5413684179
 20
-16.8639652757
 10
-12.5381465732
 20
-16.8798578891
 10
-12.5338073528
 20
-16.8959008024
 10
-12.5283693378
 20
-16.9120253174
 10
-12.5218558147
 20
-16.9281623865
 10
-12.5142946753
 20
-16.9442429082
 10
-12.5057182977
 20
-16.9601980232
 10
-12.4961634071
 20
-16.9759594095
 10
-12.4856709192
 20
-16.9914595741
 10
-12.4742857643
 20
-17.0066321432
 10
-12.4620566955
 20
-17.0214121453
 10
-12.4490360794
 20
-17.0357362903
 10
-12.4352796723
 20
-17.04954324
 10
-12.4208463814
 20
-17.0627738708
 10
-12.4057980121
 20
-17.0753715273
 10
-12.390199004
 20
-17.0872822643
 10
-12.3741161543
 20
-17.0984550782
 10
-12.3576183322
 20
-17.1088421252
 10
-12.340776184
 20
-17.1183989266
 10
-12.3236618304
 20
-17.1270845585
 10
-12.3063485576
 20
-17.1348618278
 10
-12.2889105038
 20
-17.141697431
 10
-12.2714223413
 20
-17.1475620969
  0
LINE
  5
2D4
100
AcDbEntity
  8
SUPERFICI
100
AcDbLine
 62
250
  6
CONTINUOUS
 10
-13.3166207163
 20
-17.8005905137
 11
-14.1718622171
 21
16.5787722471
  0
LINE
  5
2D5
100
AcDbEntity
  8
0
100
AcDbLine
 62
7
  6
CONTINUOUS
 10
-13.0894998678
 20
-17.5159763845
 11
-13.9358582154
 21
16.5062973742
  0
LINE
  5
2D6
100
AcDbEntity
  8
0
100
AcDbLine
 62
7
  6
CONTINUOUS
 10
-12.6819360245
 20
-16.932413558
 11
-13.5105280499
 21
16.3756820056
  0
LINE
  5
2D7
100
AcDbEntity
  8
DRAFT
100
AcDbLine
 62
7
  6
CONTINUOUS
 10
-13.465404585
 20
16.3618249801
 11
-13.1132279841
 21
2.2048798032
  0
LINE
  5
2D8
100
AcDbEntity
  8
DRAFT
100
AcDbLine
 62
7
  6
CONTINUOUS
 10
-13.016787615
 20
-1.6718712778
 11
-12.6368125608
 21
-16.9462705366
  0
LINE
  5
2D9
100
AcDbEntity
  8
DRAFT
100
AcDbLine
 62
7
  6
CONTINUOUS
 10
-13.3694484007
 20
16.3323577602
 11
-13.0208250614
 21
2.3182481076
  0
LINE
  5
2DA
100
AcDbEntity
  8
DRAFT
100
AcDbLine
 62
7
  6
CONTINUOUS
 10
-12.9243846923
 20
-1.5585029733
 11
-12.544409638
 21
-16.8329022321
  0
LINE
  5
2DB
100
AcDbEntity
  8
DRAFT
100
AcDbLine
 62
7
  6
CONTINUOUS
 10
-12.8123659082
 20
16.1612830931
 11
-12.4850621384
 21
3.0041865856
  0
LINE
  5
2DC
100
AcDbEntity
  8
DRAFT
100
AcDbLine
 62
7
  6
CONTINUOUS
 10
-12.3886217693
 20
-0.8725644953
 11
-12.0086467151
 21
-16.1469637541
  0
LINE
  5
2DD
100
AcDbEntity
  8
SUPERFICI
100
AcDbLine
 62
250
  6
CONTINUOUS
 10
-15.0985191357
 20
-17.8258040451
 11
-15.9548711694
 21
16.5982008972
  0
LINE
  5
2DE
100
AcDbEntity
  8
DRAFT
100
AcDbLine
 62
7
  6
CONTINUOUS
 10
-13.0208250614
 20
2.3182481076
 11
-12.4850621384
 21
3.0041865856
  0
LWPOLYLINE
  5
2DF
100
AcDbEntity
  8
SUPERFICI
100
AcDbPolyline
 62
250
  6
CONTINUOUS
 90
22
 70
0
 10
-15.5189118379
 20
-0.623154562
 10
-15.4655723214
 20
-0.6786380802
 10
-15.4032736991
 20
-0.7301894454
 10
-15.3326883073
 20
-0.7772522482
 10
-15.2545778798
 20
-0.8193185435
 10
-15.169785461
 20
-0.8559342542
 10
-15.0792263445
 20
-0.886704105
 10
-14.9838779913
 20
-0.9112959831
 10
-14.8847694439
 20
-0.9294444897
 10
-14.7829703796
 20
-0.9409537482
 10
-14.6795795133
 20
-0.9456995773
 10
-14.5757127422
 20
-0.9436307178
 10
-14.4724911017
 20
-0.9347693855
 10
-14.3710286684
 20
-0.9192109566
 10
-14.2724205182
 20
-0.8971236115
 10
-14.1777309109
 20
-0.8687464085
 10
-14.0879818515
 20
-0.834384766
 10
-14.004141979
 20
-0.7944104018
 10
-13.9271160947
 20
-0.7492580067
 10
-13.8577355099
 20
-0.6994160353
 10
-13.7967490734
 20
-0.6454214463
 10
-13.7448150077
 20
-0.5878571402
  0
LWPOLYLINE
  5
2E0
100
AcDbEntity
  8
SUPERFICI
100
AcDbPolyline
 62
250
  6
CONTINUOUS
 90
10
 70
0
 10
-15.5189118389
 20
-0.6231545212
 10
-15.6195494901
 20
-0.513949035
 10
-15.7317711691
 20
-0.4094482266
 10
-15.8550670416
 20
-0.3101256635
 10
-15.9888769587
 20
-0.2164313865
 10
-16.1325930024
 20
-0.1287898647
 10
-16.2855622473
 20
-0.0475980674
 10
-16.4470897271
 20
0.0267763397
 10
-16.6164415921
 20
0.093996665
 10
-16.7928484437
 20
0.1537587204
  0
LWPOLYLINE
  5
2E1
100
AcDbEntity
  8
SUPERFICI
100
AcDbPolyline
 62
250
  6
CONTINUOUS
 90
10
 70
0
 10
6.1281347421
 20
-25.8004890989
 10
6.1784458608
 20
-25.8579901316
 10
6.2244154357
 20
-25.9260821379
 10
6.2658633294
 20
-26.0044982934
 10
6.3026271227
 20
-26.0929313176
 10
6.3345627515
 20
-26.1910346782
 10
6.3615450713
 20
-26.2984239489
 10
6.3834683474
 20
-26.414678316
 10
6.4002466693
 20
-26.539342227
 10
6.4118142876
 20
-26.6719271762
  0
LWPOLYLINE
  5
2E2
100
AcDbEntity
  8
0
100
AcDbPolyline
 62
7
  6
CONTINUOUS
 90
10
 70
0
 10
-13.0894998678
 20
-17.5159763845
 10
-13.0844356845
 20
-17.5576144269
 10
-13.0714066104
 20
-17.6004805121
 10
-13.0508085275
 20
-17.6432721756
 10
-13.0232672979
 20
-17.6846892146
 10
-12.9896197482
 20
-17.7234731931
 10
-12.9508882419
 20
-17.7584456797
 10
-12.9082496164
 20
-17.7885440531
 10
-12.8629994247
 20
-17.8128537893
 10
-12.816512571
 20
-17.8306362494
  0
LWPOLYLINE
  5
2E3
100
AcDbEntity
  8
SUPERFICI
100
AcDbPolyline
 62
250
  6
CONTINUOUS
 90
15
 70
0
 10
-4.998359478
 20
14.7024247328
 10
-5.02333661
 20
14.6011419385
 10
-5.0438711928
 20
14.5008753483
 10
-5.0597351497
 20
14.4027386911
 10
-5.0707522837
 20
14.3078220675
 10
-5.0768002421
 20
14.2171797277
 10
-5.0778118554
 20
14.1318183796
 10
-5.0737758821
 20
14.0526861566
 10
-5.0647371533
 20
13.9806620671
 10
-5.050796068
 20
13.9165461299
 10
-5.0321075184
 20
13.8610505346
 10
-5.0088790516
 20
13.8147916952
 10
-4.9813685633
 20
13.7782834028
 10
-4.9498813491
 20
13.7519310923
 10
-4.9169468171
 20
13.7366763256
  0
LWPOLYLINE
  5
2E4
100
AcDbEntity
  8
SUPERFICI
100
AcDbPolyline
 62
250
  6
CONTINUOUS
 90
10
 70
0
 10
-4.9983594167
 20
14.702424714
 10
-4.9512156391
 20
14.8875068697
 10
-4.908895931
 20
15.0719483461
 10
-4.871574476
 20
15.2549900016
 10
-4.8394048851
 20
15.4358784562
 10
-4.812519565
 20
15.6138691922
 10
-4.7910291729
 20
15.7882296186
 10
-4.775022161
 20
15.9582420864
 10
-4.7645644125
 20
16.1232068421
 10
-4.7596989703
 20
16.2824449085
  0
LWPOLYLINE
  5
2E5
100
AcDbEntity
  8
SUPERFICI
100
AcDbPolyline
 62
250
  6
CONTINUOUS
 90
10
 70
0
 10
-4.1076898346
 20
14.4289087141
 10
-4.0605044876
 20
14.6139781156
 10
-4.0181535478
 20
14.7984102817
 10
-3.9808112194
 20
14.9814460634
 10
-3.9486310812
 20
15.1623323995
 10
-3.9217456372
 20
15.3403244081
 10
-3.9002656729
 20
15.5146885109
 10
-3.8842795972
 20
15.684706792
 10
-3.8738531783
 20
15.8496798897
 10
-3.8690293882
 20
16.0089289086
  0
LINE
  5
2E6
100
AcDbEntity
  8
DRAFT
100
AcDbLine
 62
7
  6
CONTINUOUS
 10
-12.3886217693
 20
-0.8725644953
 11
-12.9243846923
 21
-1.5585029733
  0
LINE
  5
2E7
100
AcDbEntity
  8
DRAFT
100
AcDbLine
 62
7
  6
CONTINUOUS
 10
-13.1132279841
 20
2.2048798032
 11
-13.0208250614
 21
2.3182481076
  0
LINE
  5
2E8
100
AcDbEntity
  8
DRAFT
100
AcDbLine
 62
7
  6
CONTINUOUS
 10
-12.9243846923
 20
-1.5585029733
 11
-13.016787615
 21
-1.6718712778
  0
LWPOLYLINE
  5
2E9
100
AcDbEntity
  8
SUPERFICI
100
AcDbPolyline
 62
250
  6
CONTINUOUS
 90
10
 70
0
 10
7.3256818034
 20
-7.6386714126
 10
7.5267112194
 20
-7.6220530956
 10
7.7287322431
 20
-7.6140038865
 10
7.930827046
 20
-7.6145614908
 10
8.1320774646
 20
-7.6237245096
 10
8.3315691717
 20
-7.6414524467
 10
8.5283958306
 20
-7.6676658918
 10
8.721663213
 20
-7.702246882
 10
8.9104932616
 20
-7.7450394372
 10
9.0940280798
 20
-7.7958502691
  0
LWPOLYLINE
  5
2EA
100
AcDbEntity
  8
SUPERFICI
100
AcDbPolyline
 62
250
  6
CONTINUOUS
 90
18
 70
0
 10
7.3256816404
 20
-7.6386714488
 10
7.2222172799
 20
-7.6460185482
 10
7.1183609508
 20
-7.6465590473
 10
7.0152335616
 20
-7.6402870759
 10
6.9139481038
 20
-7.6272702816
 10
6.8155978224
 20
-7.6076491183
 10
6.7212443964
 20
-7.5816353703
 10
6.6319062342
 20
-7.5495098233
 10
6.5485475033
 20
-7.5116191959
 10
6.4720678934
 20
-7.4683724409
 10
6.4032928488
 20
-7.4202363579
 10
6.3429646567
 20
-7.3677304415
 10
6.2917344355
 20
-7.311421274
 10
6.2501551059
 20
-7.2519163355
 10
6.2186754393
 20
-7.1898581202
 10
6.197635212
 20
-7.1259170916
 10
6.1872614896
 20
-7.060782508
 10
6.1862298591
 20
-7.0403681624
  0
LWPOLYLINE
  5
2EB
100
AcDbEntity
  8
RACCORDO
100
AcDbPolyline
 62
250
  6
CONTINUOUS
 90
3
 70
0
 10
34.8526104189
 20
-12.8803706266
 10
34.8829513738
 20
-12.8840796323
 10
34.9133846681
 20
-12.8907083695
  0
LWPOLYLINE
  5
2EC
100
AcDbEntity
  8
SUPERFICI
100
AcDbPolyline
 62
250
  6
CONTINUOUS
 90
10
 70
0
 10
32.1931754978
 20
-12.8438914354
 10
29.2436459332
 20
-12.4008231502
 10
26.4583455879
 20
-11.9312011614
 10
23.8512617065
 20
-11.4455304755
 10
21.4729989695
 20
-10.9627466692
 10
19.2132625696
 20
-10.4678671336
 10
16.9100831591
 20
-9.9265233529
 10
14.3226499173
 20
-9.2723537406
 10
11.5812943964
 20
-8.5246351487
 10
9.0940280282
 20
-7.7958502535
  0
LWPOLYLINE
  5
2ED
100
AcDbEntity
  8
SUPERFICI
100
AcDbPolyline
 62
250
  6
CONTINUOUS
 90
3
 70
0
 10
-34.9135607608
 20
7.3012334732
 10
-32.6226962168
 20
6.2120144023
 10
-30.4193214483
 20
5.2204398402
  0
LINE
  5
2EE
100
AcDbEntity
  8
SUPERFICI
100
AcDbLine
 62
250
  6
CONTINUOUS
 10
-37.2699679072
 20
8.4875669483
 11
-34.9135607608
 21
7.3012334732
  0
LWPOLYLINE
  5
2EF
100
AcDbEntity
  8
SUPERFICI
100
AcDbPolyline
 62
250
  6
CONTINUOUS
 90
21
 70
0
 10
6.1281335411
 20
-25.8004912327
 10
6.1037085883
 20
-25.7671019819
 10
6.0791646934
 20
-25.7225603006
 10
6.0554129256
 20
-25.6675585846
 10
6.02968228
 20
-25.6017365353
 10
6.0070635209
 20
-25.5272308318
 10
5.9979692012
 20
-25.4481445227
 10
6.0068938081
 20
-25.3668575304
 10
6.0251918445
 20
-25.2814058321
 10
6.0436143997
 20
-25.1898757502
 10
6.0598024532
 20
-25.0927394571
 10
6.0782318615
 20
-24.9925198932
 10
6.1013991095
 20
-24.8911387576
 10
6.1295958035
 20
-24.7898844101
 10
6.1617458976
 20
-24.6896514253
 10
6.1974612962
 20
-24.5915428843
 10
6.2363345907
 20
-24.496643906
 10
6.2779396583
 20
-24.4060085254
 10
6.3218154682
 20
-24.3206424015
 10
6.367472845
 20
-24.2414917568
 10
6.4144018063
 20
-24.1694334804
  0
LWPOLYLINE
  5
2F0
100
AcDbEntity
  8
SUPERFICI
100
AcDbPolyline
 62
250
  6
CONTINUOUS
 90
11
 70
0
 10
-2.7789810286
 20
-25.0981388181
 10
-2.7139102068
 20
-25.7648674865
 10
-2.6285969135
 20
-26.5216444889
 10
-2.5214263099
 20
-27.3444544741
 10
-2.3977794409
 20
-28.1676170421
 10
-2.2643188892
 20
-28.9480300549
 10
-2.1218871955
 20
-29.6883890816
 10
-1.9634543865
 20
-30.4249749387
 10
-1.7842300041
 20
-31.1719580796
 10
-1.5847575229
 20
-31.9175583988
 10
-1.3636314828
 20
-32.6596467387
  0
LWPOLYLINE
  5
2F1
100
AcDbEntity
  8
SUPERFICI
100
AcDbPolyline
 62
250
  6
CONTINUOUS
 90
3
 70
0
 10
-3.7223764421
 20
-24.202697328
 10
-3.6696504975
 20
-24.8246240641
 10
-3.6045795914
 20
-25.4913533751
  0
LINE
  5
2F2
100
AcDbEntity
  8
SUPERFICI
100
AcDbLine
 62
250
  6
CONTINUOUS
 10
-2.8317069131
 20
-24.4762126551
 11
-2.7789810286
 21
-25.0981388181
  0
LINE
  5
2F3
100
AcDbEntity
  8
SUPERFICI
100
AcDbLine
 62
250
  6
CONTINUOUS
 10
-3.7682096644
 20
-23.573856158
 11
-3.7223764421
 21
-24.202697328
  0
LINE
  5
2F4
100
AcDbEntity
  8
SUPERFICI
100
AcDbLine
 62
250
  6
CONTINUOUS
 10
-2.8775400855
 20
-23.8473721109
 11
-2.8317069131
 21
-24.4762126551
  0
LINE
  5
2F5
100
AcDbEntity
  8
DRAFT
100
AcDbLine
 62
7
  6
CONTINUOUS
 10
-4.8360790791
 20
-19.5739712639
 11
-4.8351018989
 21
-19.6132523712
  0
LINE
  5
2F6
100
AcDbEntity
  8
DRAFT
100
AcDbLine
 62
7
  6
CONTINUOUS
 10
-4.1742904673
 20
-19.8161811599
 11
-4.1999721532
 21
-18.7838177983
  0
LWPOLYLINE
  5
2F7
100
AcDbEntity
  8
SUPERFICI
100
AcDbPolyline
 62
250
  6
CONTINUOUS
 90
9
 70
0
 10
-4.7596989703
 20
16.2824449085
 10
-4.7469779735
 20
16.9846647101
 10
-4.7274473821
 20
17.6971400741
 10
-4.6984799318
 20
18.4817130377
 10
-4.6548386883
 20
19.4000885849
 10
-4.5938477563
 20
20.4336282443
 10
-4.5173937805
 20
21.5075448708
 10
-4.4296568399
 20
22.5651492405
 10
-4.33155861
 20
23.6069258539
  0
LWPOLYLINE
  5
2F8
100
AcDbEntity
  8
SUPERFICI
100
AcDbPolyline
 62
250
  6
CONTINUOUS
 90
13
 70
0
 10
-3.8690293119
 20
16.0089346846
 10
-3.8563083055
 20
16.7111524669
 10
-3.8367777154
 20
17.4236267163
 10
-3.8078102588
 20
18.208199208
 10
-3.7641689721
 20
19.1265751164
 10
-3.7031779443
 20
20.160115777
 10
-3.6267238535
 20
21.2340333353
 10
-3.5389868019
 20
22.2916383853
 10
-3.4408884651
 20
23.3334154995
 10
-3.3275744997
 20
24.41053777
 10
-3.1952278536
 20
25.5479618859
 10
-3.0437907718
 20
26.7332992574
 10
-2.8718400756
 20
27.9679654024
  0
LWPOLYLINE
  5
2F9
100
AcDbEntity
  8
SUPERFICI
100
AcDbPolyline
 62
250
  6
CONTINUOUS
 90
5
 70
0
 10
-4.33155861
 20
23.6069258539
 10
-4.2182446872
 20
24.6840483001
 10
-4.0858979707
 20
25.8214735007
 10
-3.9344606962
 20
27.0068126923
 10
-3.7625096526
 20
28.2414814373
  0
LWPOLYLINE
  5
2FA
100
AcDbEntity
  8
SUPERFICI
100
AcDbPolyline
 62
250
  6
CONTINUOUS
 90
15
 70
0
 10
-4.1076898346
 20
14.4289087141
 10
-4.1326669956
 20
14.3276259203
 10
-4.1532015996
 20
14.2273593309
 10
-4.1690655698
 20
14.1292226746
 10
-4.1800827076
 20
14.0343060521
 10
-4.1861306629
 20
13.9436637134
 10
-4.1871422731
 20
13.8583023664
 10
-4.183106299
 20
13.7791701447
 10
-4.1740675694
 20
13.7071460566
 10
-4.1601264834
 20
13.6430301209
 10
-4.1414378938
 20
13.587534515
 10
-4.1182093869
 20
13.5412756651
 10
-4.090698977
 20
13.5047673984
 10
-4.0592122402
 20
13.4784152361
 10
-4.0262782834
 20
13.4631606476
  0
LWPOLYLINE
  5
2FB
100
AcDbEntity
  8
RACCORDO
100
AcDbPolyline
 62
250
  6
CONTINUOUS
 90
8
 70
0
 10
34.9953243084
 20
-12.850524709
 10
34.9885343398
 20
-12.8490755507
 10
34.9773206439
 20
-12.8491342192
 10
34.9654223195
 20
-12.8520094293
 10
34.9529556566
 20
-12.8576730797
 10
34.9400424997
 20
-12.866069816
 10
34.9268090573
 20
-12.8771175715
 10
34.9133846681
 20
-12.8907083695
  0
LWPOLYLINE
  5
2FC
100
AcDbEntity
  8
RACCORDO
100
AcDbPolyline
 62
250
  6
CONTINUOUS
 90
5
 70
0
 10
34.4919525036
 20
-12.8763571536
 10
34.5207888692
 20
-12.8829312678
 10
34.5591195713
 20
-12.8941290258
 10
34.6068767664
 20
-12.9098754948
 10
34.662544381
 20
-12.9307784296
  0
LINE
  5
2FD
100
AcDbEntity
  8
RACCORDO
100
AcDbLine
 62
250
  6
CONTINUOUS
 10
34.5874362173
 20
-12.911084536
 11
34.662544381
 21
-12.9307784296
  0
LINE
  5
2FE
100
AcDbEntity
  8
DRAFT
100
AcDbLine
 62
7
  6
CONTINUOUS
 10
-13.0619110788
 20
-1.6580142992
 11
-13.016787615
 21
-1.6718712778
  0
LINE
  5
2FF
100
AcDbEntity
  8
DRAFT
100
AcDbLine
 62
7
  6
CONTINUOUS
 10
-12.3886217693
 20
-0.8725644953
 11
-13.0867839089
 21
-0.658165666
  0
LWPOLYLINE
  5
300
100
AcDbEntity
  8
SUPERFICI
100
AcDbPolyline
 62
250
  6
CONTINUOUS
 90
7
 70
0
 10
-30.4193214483
 20
5.2204398402
 10
-28.3583935304
 20
4.339991203
 10
-26.3538292918
 20
3.5253453247
 10
-24.2633625135
 20
2.7174429266
 10
-21.8559105399
 20
1.8377316801
 10
-19.235210501
 20
0.9388149571
 10
-16.7928484437
 20
0.1537587203
  0
LWPOLYLINE
  5
301
100
AcDbEntity
  8
SUPERFICI
100
AcDbPolyline
 62
250
  6
CONTINUOUS
 90
10
 70
0
 10
-3.6045795914
 20
-25.4913533751
 10
-3.5192661836
 20
-26.2481310704
 10
-3.4120954549
 20
-27.0709415968
 10
-3.2884484554
 20
-27.894104574
 10
-3.154987758
 20
-28.6745179836
 10
-3.0125559317
 20
-29.4148772387
 10
-2.8541230881
 20
-30.1514628178
 10
-2.6748988292
 20
-30.8984450685
 10
-2.4754266301
 20
-31.6440440818
 10
-2.2543010649
 20
-32.3861307388
  0
LINE
  5
302
100
AcDbEntity
  8
DRAFT
100
AcDbLine
 62
7
  6
CONTINUOUS
 10
-0.3817539883
 20
-20.9808323707
 11
-0.3827311685
 21
-20.9415512634
  0
LINE
  5
303
100
AcDbEntity
  8
0
100
AcDbLine
 62
250
  6
CONTINUOUS
 10
-12.6819360245
 20
-16.932413558
 11
-13.0894998678
 21
-17.5159763845
  0
LINE
  5
304
100
AcDbEntity
  8
DRAFT
100
AcDbLine
 62
250
  6
CONTINUOUS
 10
-12.0086467151
 20
-16.1469637541
 11
-12.544409638
 21
-16.8329022321
  0
LWPOLYLINE
  5
305
100
AcDbEntity
  8
RACCORDO
100
AcDbPolyline
 62
7
  6
CONTINUOUS
 90
23
 70
0
 10
34.9959159082
 20
-12.8507121018
 10
34.9708467203
 20
-12.8435655464
 10
34.9455308514
 20
-12.8374605244
 10
34.9199644712
 20
-12.8323476674
 10
34.8942032205
 20
-12.8281944967
 10
34.868310735
 20
-12.8249684711
 10
34.8422974277
 20
-12.8226315486
 10
34.8162130693
 20
-12.8211529841
 10
34.7901264192
 20
-12.8205026549
 10
34.7640804489
 20
-12.8206493432
 10
34.7381258985
 20
-12.8215631957
 10
34.7123341761
 20
-12.8232137274
 10
34.6867805954
 20
-12.8255689056
 10
34.6615209377
 20
-12.8285980169
 10
34.6366242523
 20
-12.8322692309
 10
34.6121831143
 20
-12.8365460621
 10
34.5883437761
 20
-12.8413778031
 10
34.5650802552
 20
-12.8467473127
 10
34.5422450252
 20
-12.8526818579
 10
34.5199480596
 20
-12.8591572934
 10
34.4982666682
 20
-12.8661584239
 10
34.4770675408
 20
-12.8737527877
 10
34.4718159259
 20
-12.8757601296
  0
LINE
  5
306
100
AcDbEntity
  8
RACCORDO
100
AcDbLine
 62
250
  6
CONTINUOUS
 10
34.5388761491
 20
-13.9637718043
 11
34.3858688337
 21
-13.91678474
  0
LINE
  5
307
100
AcDbEntity
  8
RACCORDO
100
AcDbLine
 62
250
  6
CONTINUOUS
 10
34.9133846681
 20
-12.8907083695
 11
35.4698524693
 21
-13.0615942402
  0
LINE
  5
308
100
AcDbEntity
  8
RACCORDO
100
AcDbLine
 62
7
  6
CONTINUOUS
 10
34.9953401661
 20
-12.8505295751
 11
35.5600747391
 21
-13.0239540914
  0
LINE
  5
309
100
AcDbEntity
  8
DRAFT
100
AcDbLine
 62
7
  6
CONTINUOUS
 10
-13.1132279841
 20
2.2048798032
 11
-13.1583514479
 21
2.2187367817
  0
LWPOLYLINE
  5
30A
100
AcDbEntity
  8
SUPERFICI
100
AcDbPolyline
 62
250
  6
CONTINUOUS
 90
10
 70
0
 10
-15.9548757215
 20
16.5981990529
 10
-16.0500416483
 20
16.7040277472
 10
-16.1563770712
 20
16.8055017847
 10
-16.2734213566
 20
16.902181525
 10
-16.4006674815
 20
16.9936480999
 10
-16.5375642299
 20
17.0795052275
 10
-16.6835185808
 20
17.1593809297
 10
-16.8378982766
 20
17.2329291428
 10
-17.0000345628
 20
17.2998312172
 10
-17.1692250841
 20
17.3597972978
  0
LWPOLYLINE
  5
30B
100
AcDbEntity
  8
RACCORDO
100
AcDbPolyline
 62
7
  6
CONTINUOUS
 90
14
 70
0
 10
2.8367385885
 20
-19.6099420027
 10
2.8356113946
 20
-19.5962244812
 10
2.8323630898
 20
-19.5805388096
 10
2.8270091667
 20
-19.5650784634
 10
2.8196667735
 20
-19.550074185
 10
2.8103218564
 20
-19.5355136476
 10
2.7989884692
 20
-19.521409178
 10
2.7858259211
 20
-19.5080284984
 10
2.7707263542
 20
-19.4953456615
 10
2.7537976264
 20
-19.4833866145
 10
2.7355226216
 20
-19.4724969214
 10
2.7160623009
 20
-19.4627917702
 10
2.6952557032
 20
-19.4541559729
 10
2.6731028284
 20
-19.4465895295
  0
LINE
  5
30C
100
AcDbEntity
  8
RACCORDO
100
AcDbLine
 62
250
  6
CONTINUOUS
 10
2.8296304364
 20
-20.4474411812
 11
2.8107969106
 21
-19.6903630796
  0
LINE
  5
30D
100
AcDbEntity
  8
RACCORDO
100
AcDbLine
 62
7
  6
CONTINUOUS
 10
2.855571013
 20
-20.3669754987
 11
2.8367374872
 21
-19.6098973971
  0
LINE
  5
30E
100
AcDbEntity
  8
RACCORDO
100
AcDbLine
 62
250
  6
CONTINUOUS
 10
2.8555821247
 20
-20.3724364363
 11
2.855571013
 21
-20.3669754987
  0
LWPOLYLINE
  5
30F
100
AcDbEntity
  8
RACCORDO
100
AcDbPolyline
 62
250
  6
CONTINUOUS
 90
7
 70
0
 10
2.8296304364
 20
-20.4474411812
 10
2.8291455312
 20
-20.467386265
 10
2.8265728543
 20
-20.4866219825
 10
2.8219319778
 20
-20.5050014613
 10
2.8152582246
 20
-20.522384445
 10
2.8066024982
 20
-20.5386380915
 10
2.8021943095
 20
-20.5453826704
  0
LINE
  5
310
100
AcDbEntity
  8
SUPERFICI
100
AcDbLine
 62
250
  6
CONTINUOUS
 10
5.1984972574
 20
11.5695441071
 11
5.1365306019
 21
11.270348811
  0
LWPOLYLINE
  5
311
100
AcDbEntity
  8
SUPERFICI
100
AcDbPolyline
 62
250
  6
CONTINUOUS
 90
12
 70
0
 10
5.1365306019
 20
11.270348811
 10
5.1147555446
 20
11.1788469253
 10
5.0961979538
 20
11.092052809
 10
5.0911783211
 20
11.0079706614
 10
5.1041207996
 20
10.9263584482
 10
5.1263802101
 20
10.8505082693
 10
5.1487033412
 20
10.783938915
 10
5.1686908415
 20
10.7281516755
 10
5.1907573986
 20
10.6823566822
 10
5.2173493094
 20
10.6462224311
 10
5.2487181444
 20
10.6199821372
 10
5.2812623047
 20
10.6049049434
  0
LWPOLYLINE
  5
312
100
AcDbEntity
  8
SUPERFICI
100
AcDbPolyline
 62
250
  6
CONTINUOUS
 90
10
 70
0
 10
5.1984973566
 20
11.5695441068
 10
5.2428748683
 20
11.7506072
 10
5.282662415
 20
11.9310606213
 10
5.3177040776
 20
12.1101972529
 10
5.3478625345
 20
12.2873151367
 10
5.3730196
 20
12.4617202252
 10
5.3930766871
 20
12.6327291009
 10
5.407955194
 20
12.7996716545
 10
5.4175968119
 20
12.9618937109
 10
5.421963754
 20
13.1187595921
  0
LINE
  5
313
100
AcDbEntity
  8
DRAFT
100
AcDbLine
 62
7
  6
CONTINUOUS
 10
-4.0116597512
 20
-19.7679815129
 11
-3.9423819631
 21
-19.5766395302
  0
LINE
  5
314
100
AcDbEntity
  8
DRAFT
100
AcDbLine
 62
7
  6
CONTINUOUS
 10
-3.7611998147
 20
-19.4905344658
 11
-3.6919220266
 21
-19.2991924831
  0
LINE
  5
315
100
AcDbEntity
  8
DRAFT
100
AcDbLine
 62
7
  6
CONTINUOUS
 10
-3.5107398782
 20
-19.2130874188
 11
-3.4414620901
 21
-19.021745436
  0
LINE
  5
316
100
AcDbEntity
  8
DRAFT
100
AcDbLine
 62
7
  6
CONTINUOUS
 10
-3.2602799417
 20
-18.9356403717
 11
-3.1910021536
 21
-18.7442983889
  0
LINE
  5
317
100
AcDbEntity
  8
DRAFT
100
AcDbLine
 62
7
  6
CONTINUOUS
 10
-3.0098200051
 20
-18.6581933246
 11
-2.9405422171
 21
-18.4668513418
  0
LINE
  5
318
100
AcDbEntity
  8
DRAFT
100
AcDbLine
 62
7
  6
CONTINUOUS
 10
-2.7593600686
 20
-18.3807462775
 11
-2.6900822806
 21
-18.1894042947
  0
LINE
  5
319
100
AcDbEntity
  8
DRAFT
100
AcDbLine
 62
250
  6
CONTINUOUS
 10
-12.2714223413
 20
-17.1475620969
 11
-12.362237048
 21
-17.2627610648
  0
LINE
  5
31A
100
AcDbEntity
  8
0
100
AcDbLine
 62
250
  6
CONTINUOUS
 10
-13.0894998678
 20
-17.5159763845
 11
-13.3166207163
 21
-17.8005905137
  0
LINE
  5
31B
100
AcDbEntity
  8
0
100
AcDbLine
 62
250
  6
CONTINUOUS
 10
-13.0436327846
 20
-18.1152495828
 11
-12.816512571
 21
-17.8306362494
  0
LINE
  5
31C
100
AcDbEntity
  8
DRAFT
100
AcDbLine
 62
250
  6
CONTINUOUS
 10
-11.7261301221
 20
-16.4726075991
 11
-12.2714223413
 21
-17.1475620969
  0
LINE
  5
31D
100
AcDbEntity
  8
DRAFT
100
AcDbLine
 62
250
  6
CONTINUOUS
 10
-12.544409638
 20
-16.8329022321
 11
-12.6368125608
 21
-16.9462705366
  0
LINE
  5
31E
100
AcDbEntity
  8
0
100
AcDbLine
 62
250
  6
CONTINUOUS
 10
-12.3612598678
 20
-17.302042172
 11
-12.816512571
 21
-17.8306362494
  0
LWPOLYLINE
  5
31F
100
AcDbEntity
  8
SUPERFICI
100
AcDbPolyline
 62
250
  6
CONTINUOUS
 90
22
 70
0
 10
-15.9548718779
 20
16.5982003488
 10
-15.902753272
 20
16.5505381009
 10
-15.8412656495
 20
16.4972530037
 10
-15.771127971
 20
16.4403310434
 10
-15.6926853744
 20
16.3739418798
 10
-15.6065140744
 20
16.3088595143
 10
-15.5151211675
 20
16.2676501852
 10
-15.4208342561
 20
16.2602437078
 10
-15.322693408
 20
16.2685028936
 10
-15.2207193442
 20
16.273548607
 10
-15.1166418278
 20
16.2711031669
 10
-15.0119562996
 20
16.270637457
 10
-14.9078407537
 20
16.2774679001
 10
-14.8054411585
 20
16.2926131503
 10
-14.7058719545
 20
16.3144390196
 10
-14.6102249668
 20
16.3426822711
 10
-14.519548685
 20
16.377026756
 10
-14.4348366762
 20
16.4170973179
 10
-14.3570173362
 20
16.4624501599
 10
-14.2869435547
 20
16.5125860009
 10
-14.2253833501
 20
16.5669546219
 10
-14.2111233951
 20
16.5827481394
  0
LINE
  5
320
100
AcDbEntity
  8
SUPERFICI
100
AcDbLine
 62
7
  6
CONTINUOUS
 10
5.7583949105
 20
10.1662378721
 11
5.7580314318
 21
10.1725282772
  0
LINE
  5
321
100
AcDbEntity
  8
SUPERFICI
100
AcDbLine
 62
250
  6
CONTINUOUS
 10
7.3525738542
 20
-8.6949312437
 11
7.7705604586
 21
-24.8486796253
  0
LINE
  5
322
100
AcDbEntity
  8
SUPERFICI
100
AcDbLine
 62
7
  6
CONTINUOUS
 10
5.7580315221
 20
10.1725246804
 11
6.6144172026
 21
-24.2528170954
  0
LINE
  5
323
100
AcDbEntity
  8
SUPERFICI
100
AcDbLine
 62
7
  6
CONTINUOUS
 10
6.6144169546
 20
-24.2528164705
 11
6.6143879869
 21
-24.2515239998
  0
LINE
  5
324
100
AcDbEntity
  8
SUPERFICI
100
AcDbLine
 62
250
  6
CONTINUOUS
 10
6.9142083588
 20
9.5753252342
 11
7.3525738542
 21
-8.6949312437
  0
LWPOLYLINE
  5
325
100
AcDbEntity
  8
SUPERFICI
100
AcDbPolyline
 62
250
  6
CONTINUOUS
 90
91
 70
0
 10
7.7705601755
 20
-24.8486803199
 10
7.7711779133
 20
-24.9024257997
 10
7.7694402304
 20
-24.9550556354
 10
7.7653960727
 20
-25.0065097186
 10
7.7590466934
 20
-25.0570292338
 10
7.750471511
 20
-25.1062531507
 10
7.7399576199
 20
-25.1532776885
 10
7.7277086728
 20
-25.1979269053
 10
7.7138776262
 20
-25.2404202111
 10
7.6988195902
 20
-25.2805362075
 10
7.6827886081
 20
-25.3182532926
 10
7.6659066624
 20
-25.3537233321
 10
7.6483515898
 20
-25.3870172363
 10
7.6303291955
 20
-25.418151632
 10
7.6119582205
 20
-25.4472626281
 10
7.5932547594
 20
-25.4745903842
 10
7.5743329433
 20
-25.5002076968
 10
7.5553171554
 20
-25.5241727931
 10
7.5361970084
 20
-25.5466800525
 10
7.5170673974
 20
-25.56778119
 10
7.4980125751
 20
-25.5875371324
 10
7.4789722411
 20
-25.6061334359
 10
7.4600133067
 20
-25.6236133407
 10
7.4411978882
 20
-25.640022996
 10
7.4224286875
 20
-25.6555292658
 10
7.4037508812
 20
-25.6701652953
 10
7.3852089304
 20
-25.6839640944
 10
7.3666791729
 20
-25.6970702657
 10
7.3481683235
 20
-25.7095211798
 10
7.3297282063
 20
-25.7213231481
 10
7.3112852468
 20
-25.7325575908
 10
7.292786013
 20
-25.743283597
 10
7.2743245236
 20
-25.7534721285
 10
7.2560479946
 20
-25.7630735468
 10
7.237960822
 20
-25.7721217873
 10
7.2201080639
 20
-25.7806286779
 10
7.2027105667
 20
-25.7885280225
 10
7.185852558
 20
-25.7958296162
 10
7.1695087759
 20
-25.8025882393
 10
7.1537429181
 20
-25.8088155304
 10
7.138644695
 20
-25.8145198811
 10
7.1241756916
 20
-25.8197544428
 10
7.11020272
 20
-25.8245925018
 10
7.0967877591
 20
-25.8290401872
 10
7.0839037308
 20
-25.8331349964
 10
7.0712723139
 20
-25.8369813416
 10
7.058891642
 20
-25.840592604
 10
7.0467806651
 20
-25.8439761307
 10
7.034680556
 20
-25.8472101039
 10
7.0225774716
 20
-25.8503013964
 10
7.0104911529
 20
-25.8532478768
 10
6.9982044525
 20
-25.8561005499
 10
6.9857217624
 20
-25.8588544979
 10
6.9730374856
 20
-25.8615076496
 10
6.9599119429
 20
-25.8641024518
 10
6.9463235697
 20
-25.866628657
 10
6.9322850426
 20
-25.869074737
 10
6.9176004606
 20
-25.8714679568
 10
6.902183736
 20
-25.8738033
 10
6.8861038183
 20
-25.8760472602
 10
6.8693940932
 20
-25.8781784451
 10
6.8521054138
 20
-25.8801722772
 10
6.8341726588
 20
-25.882016229
 10
6.8154534471
 20
-25.8837023485
 10
6.7959313934
 20
-25.8852049113
 10
6.7756039533
 20
-25.8864964496
 10
6.7543451682
 20
-25.8875553
 10
6.7321246296
 20
-25.8883479536
 10
6.7089510252
 20
-25.8888381168
 10
6.684754204
 20
-25.8889905667
 10
6.6593037464
 20
-25.8887606978
 10
6.6328069101
 20
-25.8881030661
 10
6.6058602148
 20
-25.8870053743
 10
6.5784262082
 20
-25.8854511869
 10
6.5505458872
 20
-25.8834258832
 10
6.5229558047
 20
-25.8809849658
 10
6.4958337194
 20
-25.8781692559
 10
6.4690291719
 20
-25.8749848441
 10
6.442800264
 20
-25.871482584
 10
6.417400945
 20
-25.8677320571
 10
6.3926058316
 20
-25.8637322134
 10
6.3679527367
 20
-25.8594193793
 10
6.3435429653
 20
-25.8548199012
 10
6.3192919196
 20
-25.8499306451
 10
6.2944500117
 20
-25.8445944479
 10
6.2688993801
 20
-25.8387634072
 10
6.2427648005
 20
-25.8324418542
 10
6.2156552267
 20
-25.8255041965
 10
6.1874431881
 20
-25.8178757947
 10
6.1582666925
 20
-25.8095512451
 10
6.1281335411
 20
-25.8004912327
  0
LINE
  5
326
100
AcDbEntity
  8
DRAFT
100
AcDbLine
 62
7
  6
CONTINUOUS
 10
2.2367016681
 20
-20.6328159647
 11
2.2949430335
 21
-20.4289790083
  0
LINE
  5
327
100
AcDbEntity
  8
DRAFT
100
AcDbLine
 62
7
  6
CONTINUOUS
 10
2.4404835897
 20
-20.3410345514
 11
2.4987249551
 21
-20.137197595
  0
LINE
  5
328
100
AcDbEntity
  8
DRAFT
100
AcDbLine
 62
7
  6
CONTINUOUS
 10
2.6442655114
 20
-20.0492531382
 11
2.7025068768
 21
-19.8454161818
  0
LINE
  5
329
100
AcDbEntity
  8
DRAFT
100
AcDbLine
 62
7
  6
CONTINUOUS
 10
-4.8360790791
 20
-19.5739712639
 11
-4.7452643724
 21
-19.4587722961
  0
LINE
  5
32A
100
AcDbEntity
  8
DRAFT
100
AcDbLine
 62
7
  6
CONTINUOUS
 10
-4.7452643724
 20
-19.4587722961
 11
-4.1999721532
 21
-18.7838177983
  0
LINE
  5
32B
100
AcDbEntity
  8
SUPERFICI
100
AcDbLine
 62
250
  6
CONTINUOUS
 10
8.6487334123
 20
9.4313572269
 11
8.6766525886
 21
8.5589139264
  0
LINE
  5
32C
100
AcDbEntity
  8
SUPERFICI
100
AcDbLine
 62
250
  6
CONTINUOUS
 10
8.6766525886
 20
8.5589139264
 11
8.7134833285
 21
7.2722451531
  0
LINE
  5
32D
100
AcDbEntity
  8
SUPERFICI
100
AcDbLine
 62
250
  6
CONTINUOUS
 10
8.7134833285
 20
7.2722451531
 11
8.7980787215
 21
4.0285815398
  0
LINE
  5
32E
100
AcDbEntity
  8
SUPERFICI
100
AcDbLine
 62
250
  6
CONTINUOUS
 10
8.7980787215
 20
4.0285815398
 11
9.3789255019
 21
-19.3143681127
  0
LINE
  5
32F
100
AcDbEntity
  8
SUPERFICI
100
AcDbLine
 62
250
  6
CONTINUOUS
 10
9.3789255019
 20
-19.3143681127
 11
9.4549214967
 21
-22.5034924747
  0
LINE
  5
330
100
AcDbEntity
  8
SUPERFICI
100
AcDbLine
 62
250
  6
CONTINUOUS
 10
9.4549214967
 20
-22.5034924747
 11
9.4845694132
 21
-23.8726946884
  0
LWPOLYLINE
  5
331
100
AcDbEntity
  8
SUPERFICI
100
AcDbPolyline
 62
250
  6
CONTINUOUS
 90
3
 70
0
 10
9.4845694132
 20
-23.8726946884
 10
9.5025080497
 20
-24.8471726687
 10
9.5042598618
 20
-24.9594628057
  0
LWPOLYLINE
  5
332
100
AcDbEntity
  8
SUPERFICI
100
AcDbPolyline
 62
250
  6
CONTINUOUS
 90
51
 70
0
 10
9.5042536532
 20
-24.9594714098
 10
9.503557263
 20
-25.0618349529
 10
9.4982147589
 20
-25.1620275784
 10
9.4882824546
 20
-25.2599935873
 10
9.4734487194
 20
-25.3564125787
 10
9.4539856062
 20
-25.450682696
 10
9.4312355428
 20
-25.5407176092
 10
9.4063252196
 20
-25.6255768814
 10
9.379489851
 20
-25.7051449668
 10
9.3511500737
 20
-25.7788119873
 10
9.3217778261
 20
-25.8471189809
 10
9.2913878106
 20
-25.9111096399
 10
9.2595185478
 20
-25.9713584853
 10
9.2262759063
 20
-26.027802087
 10
9.1921884137
 20
-26.0804726612
 10
9.1574430486
 20
-26.1297152602
 10
9.1222660306
 20
-26.175670838
 10
9.0868401851
 20
-26.2184882462
 10
9.0511882616
 20
-26.2585684614
 10
9.0154906332
 20
-26.2960050247
 10
8.9798977143
 20
-26.3308929163
 10
8.9443368955
 20
-26.36357891
 10
8.9089346048
 20
-26.3941452971
 10
8.8737957714
 20
-26.4226776545
 10
8.8387603084
 20
-26.4494920189
 10
8.8039118361
 20
-26.47465356
 10
8.7693257441
 20
-26.4982223016
 10
8.7347862439
 20
-26.5204657916
 10
8.7003075202
 20
-26.5414529031
 10
8.6659842201
 20
-26.5611956516
 10
8.6316923627
 20
-26.5798454468
 10
8.5973303616
 20
-26.597505408
 10
8.5630685903
 20
-26.6141335508
 10
8.5291872819
 20
-26.6296669149
 10
8.4956984965
 20
-26.6441578546
 10
8.4626929108
 20
-26.6576326595
 10
8.4305878403
 20
-26.6700185933
 10
8.3995336082
 20
-26.6813396169
 10
8.3694122583
 20
-26.6917193765
 10
8.340228327
 20
-26.7012548508
 10
8.3120362968
 20
-26.7099743142
 10
8.2846589876
 20
-26.7180232752
 10
8.2577272818
 20
-26.7256582829
 10
8.231288449
 20
-26.7329106798
 10
8.2054133981
 20
-26.7397674725
 10
8.1797582904
 20
-26.7463843543
 10
8.1543769161
 20
-26.7527622469
 10
8.1292915817
 20
-26.7589066538
 10
8.1040556456
 20
-26.7649644661
 10
8.0786380146
 20
-26.770948475
 10
8.053106546
 20
-26.77683274
  0
LINE
  5
333
100
AcDbEntity
  8
RACCORDO
100
AcDbLine
 62
7
  6
CONTINUOUS
 10
-2.5569874761
 20
-18.0419684973
 11
-2.6900822806
 21
-18.1894042947
  0
LINE
  5
334
100
AcDbEntity
  8
DRAFT
100
AcDbLine
 62
7
  6
CONTINUOUS
 10
-2.8403582425
 20
-18.355872523
 11
-2.9405422171
 21
-18.4668513418
  0
LINE
  5
335
100
AcDbEntity
  8
DRAFT
100
AcDbLine
 62
7
  6
CONTINUOUS
 10
-3.090818179
 20
-18.6333195701
 11
-3.1910021536
 21
-18.7442983889
  0
LINE
  5
336
100
AcDbEntity
  8
DRAFT
100
AcDbLine
 62
7
  6
CONTINUOUS
 10
-3.3412781155
 20
-18.9107666172
 11
-3.4414620901
 21
-19.021745436
  0
LINE
  5
337
100
AcDbEntity
  8
DRAFT
100
AcDbLine
 62
7
  6
CONTINUOUS
 10
-3.591738052
 20
-19.1882136643
 11
-3.6919220266
 21
-19.2991924831
  0
LINE
  5
338
100
AcDbEntity
  8
DRAFT
100
AcDbLine
 62
7
  6
CONTINUOUS
 10
-3.8421979885
 20
-19.4656607114
 11
-3.9423819631
 21
-19.5766395302
  0
LINE
  5
339
100
AcDbEntity
  8
DRAFT
100
AcDbLine
 62
7
  6
CONTINUOUS
 10
-4.092657925
 20
-19.7431077585
 11
-4.1620240217
 21
-19.8199480665
  0
LWPOLYLINE
  5
33A
100
AcDbEntity
  8
SUPERFICI
100
AcDbPolyline
 62
250
  6
CONTINUOUS
 90
13
 70
0
 10
32.6177802503
 20
16.1942440417
 10
32.5543876414
 20
16.1359561266
 10
32.4803248752
 20
16.0824723512
 10
32.3965769673
 20
16.0345040388
 10
32.3042577432
 20
15.9926891586
 10
32.2045950244
 20
15.9575838406
 10
32.0989142992
 20
15.9296549791
 10
31.988621094
 20
15.9092740237
 10
31.8751822795
 20
15.8967120387
 10
31.7601065627
 20
15.892136098
 10
31.6449244206
 20
15.8956070634
 10
31.5311677457
 20
15.9070787747
 10
31.4203494724
 20
15.926398664
  0
LWPOLYLINE
  5
33B
100
AcDbEntity
  8
SUPERFICI
100
AcDbPolyline
 62
250
  6
CONTINUOUS
 90
10
 70
0
 10
6.9142083588
 20
9.5753252342
 10
7.1101320412
 20
9.591758852
 10
7.3072404207
 20
9.6000449938
 10
7.5046796639
 20
9.6001477628
 10
7.7015945043
 20
9.5920667106
 10
7.8971319467
 20
9.5758368397
 10
8.0904449628
 20
9.5515284513
 10
8.2806961599
 20
9.5192468415
 10
8.4670614085
 20
9.4791318444
 10
8.6487334123
 20
9.4313572269
  0
LWPOLYLINE
  5
33C
100
AcDbEntity
  8
SUPERFICI
100
AcDbPolyline
 62
250
  6
CONTINUOUS
 90
18
 70
0
 10
6.9142081047
 20
9.5753245859
 10
6.8100403224
 20
9.5683445041
 10
6.7053639401
 20
9.5664613213
 10
6.6013186259
 20
9.5699624659
 10
6.499078026
 20
9.5774588592
 10
6.3996733585
 20
9.5909767031
 10
6.3040922535
 20
9.6148212069
 10
6.2133628635
 20
9.6507057683
 10
6.1285290091
 20
9.6944149529
 10
6.0506276416
 20
9.7413286452
 10
5.9805812955
 20
9.7899177516
 10
5.9190926426
 20
9.8418245146
 10
5.8667893992
 20
9.897781531
 10
5.8242367058
 20
9.9574397675
 10
5.7919141248
 20
10.0197680713
 10
5.7701770358
 20
10.0840586581
 10
5.7592639288
 20
10.1495979245
 10
5.7583949105
 20
10.1662378721
  0
LINE
  5
33D
100
AcDbEntity
  8
SUPERFICI
100
AcDbLine
 62
7
  6
CONTINUOUS
 10
-14.2246839972
 20
16.5949919966
 11
5.2812667317
 21
10.6049048907
  0
LINE
  5
33E
100
AcDbEntity
  8
SUPERFICI
100
AcDbLine
 62
7
  6
CONTINUOUS
 10
5.2812623047
 20
10.6049049434
 11
5.2814188547
 21
10.6048567746
  0
LINE
  5
33F
100
AcDbEntity
  8
SUPERFICI
100
AcDbLine
 62
250
  6
CONTINUOUS
 10
-4.9983594167
 20
14.702424714
 11
5.1984985076
 21
11.5695450845
  0
LINE
  5
340
100
AcDbEntity
  8
SUPERFICI
100
AcDbLine
 62
250
  6
CONTINUOUS
 10
-14.3052948917
 20
17.5589710224
 11
-4.9983599735
 21
14.7024225789
  0
LWPOLYLINE
  5
341
100
AcDbEntity
  8
SUPERFICI
100
AcDbPolyline
 62
250
  6
CONTINUOUS
 90
91
 70
0
 10
5.1984972574
 20
11.5695441071
 10
5.2294738346
 20
11.559931973
 10
5.2595268249
 20
11.5501044913
 10
5.2886454872
 20
11.540107394
 10
5.3167083574
 20
11.5300241231
 10
5.343820713
 20
11.5198606542
 10
5.3703136365
 20
11.5095302095
 10
5.3960683854
 20
11.4991062165
 10
5.4211937377
 20
11.4885692402
 10
5.4463594446
 20
11.477653111
 10
5.4715522424
 20
11.4663505931
 10
5.4967708005
 20
11.4546679558
 10
5.5226955168
 20
11.4423087188
 10
5.5495835401
 20
11.4291188018
 10
5.5771496007
 20
11.4151928231
 10
5.6052564647
 20
11.4005863484
 10
5.6341646864
 20
11.3851339377
 10
5.6635803762
 20
11.3689500771
 10
5.6925479999
 20
11.3525547623
 10
5.7209470869
 20
11.3360385559
 10
5.7488925729
 20
11.3193492539
 10
5.7758053847
 20
11.3028546062
 10
5.8015220854
 20
11.2867009922
 10
5.8262245249
 20
11.2708201923
 10
5.8498630042
 20
11.2552802448
 10
5.8724382382
 20
11.2401223941
 10
5.8939723135
 20
11.2253718529
 10
5.9144495707
 20
11.2110726441
 10
5.933832397
 20
11.1972896017
 10
5.9521844466
 20
11.1840153297
 10
5.9696403976
 20
11.1711804564
 10
5.9862328165
 20
11.1587950899
 10
6.0019506272
 20
11.146889553
 10
6.0168595265
 20
11.1354185187
 10
6.0308564946
 20
11.1244834198
 10
6.0440641405
 20
11.1140156517
 10
6.0568791972
 20
11.1037049241
 10
6.0693422534
 20
11.0935228279
 10
6.0814187945
 20
11.0835104545
 10
6.0933832036
 20
11.0734496261
 10
6.1052390707
 20
11.0633390058
 10
6.1169817346
 20
11.0531831114
 10
6.1288654713
 20
11.0427637719
 10
6.1408837151
 20
11.0320808249
 10
6.1530339108
 20
11.0211294224
 10
6.1655678302
 20
11.0096758964
 10
6.1784702736
 20
10.9977166601
 10
6.1917364516
 20
10.9852415822
 10
6.2056231603
 20
10.9719977989
 10
6.2201686341
 20
10.9579166489
 10
6.2352975148
 20
10.9430414505
 10
6.2510868839
 20
10.9272799293
 10
6.267578846
 20
10.9105537008
 10
6.2846805209
 20
10.8929101432
 10
6.3022652793
 20
10.8744456546
 10
6.3203543288
 20
10.8550979749
 10
6.3388725244
 20
10.8349034409
 10
6.3575591572
 20
10.8141148998
 10
6.3763392138
 20
10.7927900935
 10
6.3952479168
 20
10.7708608716
 10
6.414200974
 20
10.7483993812
 10
6.4331116388
 20
10.7254848598
 10
6.4520291222
 20
10.7020337371
 10
6.4710679494
 20
10.6778727397
 10
6.4901949184
 20
10.6530016743
 10
6.5093840154
 20
10.6274117672
 10
6.5287430557
 20
10.6009107948
 10
6.5482302958
 20
10.5734915874
 10
6.5678014099
 20
10.5451505012
 10
6.5875391735
 20
10.5156952849
 10
6.6073858127
 20
10.4851182352
 10
6.6272789445
 20
10.4534182153
 10
6.6472697307
 20
10.4204091526
 10
6.6672816608
 20
10.3860823122
 10
6.6872281759
 20
10.3504453944
 10
6.707117502
 20
10.3133358687
 10
6.7268453727
 20
10.2747570143
 10
6.7463023837
 20
10.2347212546
 10
6.7654577426
 20
10.1930820787
 10
6.7842276812
 20
10.1497476977
 10
6.8024151436
 20
10.1048538353
 10
6.8198120302
 20
10.0586034157
 10
6.8362054656
 20
10.0113634951
 10
6.8515483685
 20
9.962851524
 10
6.8658100637
 20
9.9123180549
 10
6.8788331736
 20
9.859398485
 10
6.8902574546
 20
9.8046368242
 10
6.8997150337
 20
9.748672568
 10
6.9069749128
 20
9.691797869
 10
6.911875173
 20
9.6339669025
 10
6.9142081047
 20
9.5753245859
  0
LWPOLYLINE
  5
342
100
AcDbEntity
  8
SUPERFICI
100
AcDbPolyline
 62
7
  6
CONTINUOUS
 90
15
 70
0
 10
5.2814224495
 20
10.6048556695
 10
5.3167524889
 20
10.5927050512
 10
5.367901079
 20
10.5708431331
 10
5.4226846439
 20
10.5420863069
 10
5.4792414435
 20
10.5065093974
 10
5.5349704601
 20
10.4650843465
 10
5.5868382136
 20
10.4199066444
 10
5.6331172112
 20
10.3728427103
 10
5.6726789542
 20
10.3257653165
 10
5.7043213893
 20
10.2813778317
 10
5.7278463125
 20
10.2419738816
 10
5.7439261612
 20
10.2090929821
 10
5.7534227083
 20
10.1844771561
 10
5.7576260933
 20
10.1698188857
 10
5.758161205
 20
10.1673264306
  0
LWPOLYLINE
  5
343
100
AcDbEntity
  8
RACCORDO
100
AcDbPolyline
 62
250
  6
CONTINUOUS
 90
5
 70
0
 10
2.8296304364
 20
-20.4474411812
 10
2.8405950775
 20
-20.4293456864
 10
2.8486251878
 20
-20.4106846727
 10
2.853638064
 20
-20.3916503316
 10
2.8554543776
 20
-20.37369901
  0
LWPOLYLINE
  5
344
100
AcDbEntity
  8
SUPERFICI
100
AcDbPolyline
 62
250
  6
CONTINUOUS
 90
13
 70
0
 10
30.0945885802
 20
19.0946353214
 10
30.0475722553
 20
19.0183992177
 10
30.001748035
 20
18.9333166273
 10
29.9577225441
 20
18.8405138804
 10
29.9160785958
 20
18.7412195077
 10
29.8773674762
 20
18.6367479762
 10
29.8421016462
 20
18.5284822889
 10
29.8107479579
 20
18.4178556759
 10
29.783721474
 20
18.3063326214
 10
29.7613799733
 20
18.1953894771
 10
29.7440192145
 20
18.0864949175
 10
29.7318690207
 20
17.9810904978
 10
29.7250902373
 20
17.8805715706
  0
LWPOLYLINE
  5
345
100
AcDbEntity
  8
RACCORDO
100
AcDbPolyline
 62
7
  6
CONTINUOUS
 90
7
 70
0
 10
2.8107969106
 20
-19.6903630796
 10
2.8201556015
 20
-19.6752893833
 10
2.827425115
 20
-19.6599692589
 10
2.832605451
 20
-19.6444027065
 10
2.8357020899
 20
-19.628432475
 10
2.8367095514
 20
-19.6122158154
 10
2.8367385885
 20
-19.6099420027
  0
LINE
  5
346
100
AcDbEntity
  8
RACCORDO
100
AcDbLine
 62
250
  6
CONTINUOUS
 10
2.5465936005
 20
-20.8556227808
 11
2.8296304364
 21
-20.4474411812
  0
LINE
  5
347
100
AcDbEntity
  8
RACCORDO
100
AcDbLine
 62
7
  6
CONTINUOUS
 10
2.579964929
 20
-20.8658707925
 11
2.8021943095
 21
-20.5453826704
  0
LINE
  5
348
100
AcDbEntity
  8
RACCORDO
100
AcDbLine
 62
7
  6
CONTINUOUS
 10
2.8107969106
 20
-19.6903630796
 11
2.7025068768
 21
-19.8454161818
  0
LINE
  5
349
100
AcDbEntity
  8
DRAFT
100
AcDbLine
 62
7
  6
CONTINUOUS
 10
2.5802377238
 20
-20.0204850297
 11
2.4987249551
 21
-20.137197595
  0
LINE
  5
34A
100
AcDbEntity
  8
DRAFT
100
AcDbLine
 62
7
  6
CONTINUOUS
 10
2.3764558021
 20
-20.312266443
 11
2.2949430335
 21
-20.4289790083
  0
LINE
  5
34B
100
AcDbEntity
  8
DRAFT
100
AcDbLine
 62
7
  6
CONTINUOUS
 10
2.1726738805
 20
-20.6040478562
 11
2.09403447
 21
-20.7166462562
  0
LINE
  5
34C
100
AcDbEntity
  8
0
100
AcDbLine
 62
250
  6
CONTINUOUS
 10
32.092403214
 20
21.7828735195
 11
30.0945885792
 21
19.0946353395
  0
LINE
  5
34D
100
AcDbEntity
  8
DRAFT
100
AcDbLine
 62
7
  6
CONTINUOUS
 10
-0.2919164618
 20
-20.8263522956
 11
-0.3827311685
 21
-20.9415512634
  0
LINE
  5
34E
100
AcDbEntity
  8
DRAFT
100
AcDbLine
 62
7
  6
CONTINUOUS
 10
0.2533757574
 20
-20.1513977978
 11
-0.2919164618
 21
-20.8263522956
  0
LINE
  5
34F
100
AcDbEntity
  8
0
100
AcDbLine
 62
250
  6
CONTINUOUS
 10
32.6177802503
 20
16.1942440417
 11
34.8222761818
 21
18.6362748713
  0
LINE
  5
350
100
AcDbEntity
  8
SUPERFICI
100
AcDbLine
 62
250
  6
CONTINUOUS
 10
-14.0547486154
 20
19.0998686315
 11
-13.3086351892
 21
18.8806770064
  0
LINE
  5
351
100
AcDbEntity
  8
SUPERFICI
100
AcDbLine
 62
250
  6
CONTINUOUS
 10
-13.3086351892
 20
18.8806770064
 11
-12.2753529231
 21
18.5724977893
  0
LINE
  5
352
100
AcDbEntity
  8
SUPERFICI
100
AcDbLine
 62
250
  6
CONTINUOUS
 10
-12.2753529231
 20
18.5724977893
 11
-11.0092984964
 21
18.190558642
  0
LINE
  5
353
100
AcDbEntity
  8
SUPERFICI
100
AcDbLine
 62
250
  6
CONTINUOUS
 10
-11.0092984964
 20
18.190558642
 11
-8.9937590569
 21
17.5774368855
  0
LINE
  5
354
100
AcDbEntity
  8
SUPERFICI
100
AcDbLine
 62
250
  6
CONTINUOUS
 10
-8.9937590569
 20
17.5774368855
 11
-3.1820789413
 21
15.797202431
  0
LINE
  5
355
100
AcDbEntity
  8
SUPERFICI
100
AcDbLine
 62
250
  6
CONTINUOUS
 10
-3.1820789413
 20
15.797202431
 11
0.4194791897
 21
14.6866000496
  0
LINE
  5
356
100
AcDbEntity
  8
SUPERFICI
100
AcDbLine
 62
250
  6
CONTINUOUS
 10
0.4194791897
 20
14.6866000496
 11
2.4173384092
 21
14.067177157
  0
LINE
  5
357
100
AcDbEntity
  8
SUPERFICI
100
AcDbLine
 62
250
  6
CONTINUOUS
 10
2.4173384092
 20
14.067177157
 11
3.6649872031
 21
13.6771862088
  0
LINE
  5
358
100
AcDbEntity
  8
SUPERFICI
100
AcDbLine
 62
250
  6
CONTINUOUS
 10
3.6649872031
 20
13.6771862088
 11
4.6845946932
 21
13.3550066656
  0
LINE
  5
359
100
AcDbEntity
  8
SUPERFICI
100
AcDbLine
 62
250
  6
CONTINUOUS
 10
4.6845946932
 20
13.3550066656
 11
5.4219632257
 21
13.118758996
  0
LWPOLYLINE
  5
35A
100
AcDbEntity
  8
SUPERFICI
100
AcDbPolyline
 62
250
  6
CONTINUOUS
 90
12
 70
0
 10
5.421963754
 20
13.1187595921
 10
5.4818875576
 20
13.0988892617
 10
5.5400095606
 20
13.0786635462
 10
5.5963049344
 20
13.0581810761
 10
5.6505289221
 20
13.037659422
 10
5.7028774739
 20
13.0170964183
 10
5.7540009527
 20
12.9962224908
 10
5.8038166305
 20
12.974978888
 10
5.8525656591
 20
12.9534270302
 10
5.9013717555
 20
12.931397291
 10
5.9499105413
 20
12.9091606065
 10
5.9976744579
 20
12.8869124966
  0
LWPOLYLINE
  5
35B
100
AcDbEntity
  8
SUPERFICI
100
AcDbPolyline
 62
250
  6
CONTINUOUS
 90
24
 70
0
 10
5.9976744579
 20
12.8869124966
 10
6.0931745112
 20
12.8415801843
 10
6.1415787896
 20
12.8181564923
 10
6.1910236751
 20
12.7935312188
 10
6.2421488219
 20
12.7672369836
 10
6.2942702311
 20
12.7396474865
 10
6.3456377261
 20
12.711595598
 10
6.3960355368
 20
12.6831847808
 10
6.4456998052
 20
12.6543457293
 10
6.4936384927
 20
12.6257334639
 10
6.5395326007
 20
12.5976182625
 10
6.583645751
 20
12.5699106307
 10
6.625848113
 20
12.5427828648
 10
6.6661715998
 20
12.5162799936
 10
6.704723524
 20
12.4903852842
 10
6.7415227886
 20
12.4651568167
 10
6.7763705807
 20
12.4408155158
 10
6.8092239135
 20
12.4174601174
 10
6.840279337
 20
12.3949968661
 10
6.8697753834
 20
12.3733120558
 10
6.8982952153
 20
12.3519526593
 10
6.9267097738
 20
12.3301568704
 10
6.9549730105
 20
12.30781194
 10
6.9826064846
 20
12.2854226517
  0
LINE
  5
35C
100
AcDbEntity
  8
SUPERFICI
100
AcDbLine
 62
250
  6
CONTINUOUS
 10
6.9826064846
 20
12.2854226517
 11
7.0359131072
 21
12.2415992045
  0
LINE
  5
35D
100
AcDbEntity
  8
SUPERFICI
100
AcDbLine
 62
250
  6
CONTINUOUS
 10
7.0359131072
 20
12.2415992045
 11
7.0866874743
 21
12.1991051515
  0
LINE
  5
35E
100
AcDbEntity
  8
SUPERFICI
100
AcDbLine
 62
250
  6
CONTINUOUS
 10
7.0866874743
 20
12.1991051515
 11
7.1363311398
 21
12.1569356323
  0
LWPOLYLINE
  5
35F
100
AcDbEntity
  8
SUPERFICI
100
AcDbPolyline
 62
250
  6
CONTINUOUS
 90
49
 70
0
 10
7.1363311398
 20
12.1569356323
 10
7.1859378252
 20
12.1141674832
 10
7.2108396803
 20
12.0924564256
 10
7.2362429909
 20
12.0700996402
 10
7.2621211427
 20
12.0471071172
 10
7.2883804636
 20
12.0235558658
 10
7.3153013779
 20
11.9991406524
 10
7.3428451497
 20
11.9738963144
 10
7.3710257442
 20
11.9477579744
 10
7.4001831282
 20
11.920263674
 10
7.430523026
 20
11.8911376427
 10
7.4619198263
 20
11.8604618471
 10
7.4942331159
 20
11.8282842232
 10
7.5275547685
 20
11.794440762
 10
7.5617277311
 20
11.7590172951
 10
7.596252188
 20
11.7224487672
 10
7.6309820891
 20
11.6848410831
 10
7.6659883003
 20
11.6460755153
 10
7.7011098531
 20
11.606268431
 10
7.736189444
 20
11.5655579066
 10
7.7713165636
 20
11.5237965608
 10
7.8066908302
 20
11.4806708
 10
7.8422529222
 20
11.4361838243
 10
7.877954592
 20
11.3903190177
 10
7.9139821835
 20
11.3427221455
 10
7.9502643482
 20
11.2933818702
 10
7.9867198863
 20
11.2422895615
 10
8.023483234
 20
11.1890857552
 10
8.0604569132
 20
11.1337550606
 10
8.0975196138
 20
11.0763073229
 10
8.1347244859
 20
11.0164195567
 10
8.1719292057
 20
10.9541024572
 10
8.2089846176
 20
10.8893503486
 10
8.2458853071
 20
10.8218087615
 10
8.2824985769
 20
10.7514091337
 10
8.3185589687
 20
10.6782955243
 10
8.3537942846
 20
10.6024955284
 10
8.387700957
 20
10.5242978902
 10
8.4203044945
 20
10.4435720393
 10
8.4521322583
 20
10.3595339474
 10
8.4830576576
 20
10.2719303061
 10
8.5128178116
 20
10.1803244979
 10
8.5414815638
 20
10.083772805
 10
8.5687934564
 20
9.9817848945
 10
8.5935217801
 20
9.8756343799
 10
8.6143274948
 20
9.767049893
 10
8.6305796256
 20
9.6568581301
 10
8.6421775344
 20
9.5448780118
 10
8.6487322518
 20
9.4313556487
  0
LINE
  5
360
100
AcDbEntity
  8
SUPERFICI
100
AcDbLine
 62
250
  6
CONTINUOUS
 10
6.4144018063
 20
-24.1694334804
 11
6.462081246
 21
-24.1052667269
  0
LINE
  5
361
100
AcDbEntity
  8
0
100
AcDbLine
 62
250
  6
CONTINUOUS
 10
6.6062503229
 20
-23.924523116
 11
6.4620310527
 21
-24.1052499945
  0
LWPOLYLINE
  5
362
100
AcDbEntity
  8
SUPERFICI
100
AcDbPolyline
 62
250
  6
CONTINUOUS
 90
13
 70
0
 10
-14.7099461353
 20
19.2325659982
 10
-14.6149892776
 20
19.219150362
 10
-14.5671796079
 20
19.2121085538
 10
-14.5190799564
 20
19.204563165
 10
-14.4714450291
 20
19.1966152473
 10
-14.4242271592
 20
19.1882509034
 10
-14.376027893
 20
19.1790058519
 10
-14.3265813908
 20
19.1687037515
 10
-14.2760355506
 20
19.1574292126
 10
-14.2236371726
 20
19.1450110089
 10
-14.1691473089
 20
19.1313162763
 10
-14.1128428627
 20
19.1162957716
 10
-14.0547483838
 20
19.0998688866
  0
LWPOLYLINE
  5
363
100
AcDbEntity
  8
RACCORDO
100
AcDbPolyline
 62
250
  6
CONTINUOUS
 90
5
 70
0
 10
34.3723615816
 20
-12.9364695834
 10
34.382591456
 20
-12.9304765717
 10
34.445313075
 20
-12.9109312924
 10
34.5142892227
 20
-12.9044015286
 10
34.5874362173
 20
-12.911084536
  0
LINE
  5
364
100
AcDbEntity
  8
SUPERFICI
100
AcDbLine
 62
250
  6
CONTINUOUS
 10
29.8780714691
 20
19.1537975749
 11
30.0945885792
 21
19.0946353395
  0
LINE
  5
365
100
AcDbEntity
  8
SUPERFICI
100
AcDbLine
 62
250
  6
CONTINUOUS
 10
29.746052208
 20
19.1906004245
 11
29.8780714691
 21
19.1537975749
  0
LWPOLYLINE
  5
366
100
AcDbEntity
  8
SUPERFICI
100
AcDbPolyline
 62
250
  6
CONTINUOUS
 90
6
 70
0
 10
-35.9216306349
 20
38.042938331
 10
-35.8568357956
 20
38.0246307257
 10
-35.7915764877
 20
38.0071006601
 10
-35.7257866735
 20
37.9899551326
 10
-35.6573540561
 20
37.9714992111
 10
-35.5862146777
 20
37.9511729935
  0
LINE
  5
367
100
AcDbEntity
  8
SUPERFICI
100
AcDbLine
 62
250
  6
CONTINUOUS
 10
29.6156595109
 20
19.2277370099
 11
29.746052208
 21
19.1906004245
  0
LWPOLYLINE
  5
368
100
AcDbEntity
  8
SUPERFICI
100
AcDbPolyline
 62
250
  6
CONTINUOUS
 90
46
 70
0
 10
30.0945885792
 20
19.0946353395
 10
30.1466987691
 20
19.0794155085
 10
30.2029049215
 20
19.061891622
 10
30.2631764598
 20
19.0418365402
 10
30.3276704006
 20
19.0189468391
 10
30.3961242025
 20
18.9930277754
 10
30.4678574769
 20
18.9640392626
 10
30.5427723888
 20
18.9317561583
 10
30.6207595483
 20
18.8959531604
 10
30.7011044583
 20
18.8566696237
 10
30.783659032
 20
18.8137227526
 10
30.8682589666
 20
18.7669377377
 10
30.9541597447
 20
18.7164611314
 10
31.0411717881
 20
18.6621721263
 10
31.1290845766
 20
18.6039667594
 10
31.2171352061
 20
18.5421213716
 10
31.3051049635
 20
18.4765937531
 10
31.392763044
 20
18.4073581398
 10
31.4793662275
 20
18.3348210849
 10
31.5646937083
 20
18.2590212376
 10
31.6485201189
 20
18.1800097166
 10
31.7301606983
 20
18.0983086025
 10
31.8094401114
 20
18.0140061396
 10
31.8861480112
 20
17.927239173
 10
31.9596456473
 20
17.838686254
 10
32.0298236907
 20
17.7484806629
 10
32.0965362321
 20
17.6568159684
 10
32.1592288327
 20
17.5645271148
 10
32.2178703958
 20
17.4717986906
 10
32.2724365969
 20
17.3788212946
 10
32.3225524634
 20
17.2864764755
 10
32.3682955707
 20
17.1949464985
 10
32.4097592523
 20
17.1044013432
 10
32.4467698609
 20
17.0157083726
 10
32.4795148145
 20
16.9290112485
 10
32.5081936911
 20
16.8444338176
 10
32.532820699
 20
16.7627898132
 10
32.5536745091
 20
16.6841583578
 10
32.5710365595
 20
16.6086044681
 10
32.5850745479
 20
16.536878446
 10
32.5961263377
 20
16.4689900116
 10
32.6045217737
 20
16.4049413116
 10
32.6105366394
 20
16.3454222031
 10
32.6145223221
 20
16.2906224296
 10
32.6168332188
 20
16.2402502241
 10
32.6177802503
 20
16.1942440417
  0
LINE
  5
369
100
AcDbEntity
  8
SUPERFICI
100
AcDbLine
 62
250
  6
CONTINUOUS
 10
-36.052172478
 20
38.0810626162
 11
-35.9216306349
 21
38.042938331
  0
LINE
  5
36A
100
AcDbEntity
  8
SUPERFICI
100
AcDbLine
 62
250
  6
CONTINUOUS
 10
29.40994926
 20
19.2877872599
 11
29.6156595109
 21
19.2277370099
  0
LINE
  5
36B
100
AcDbEntity
  8
SUPERFICI
100
AcDbLine
 62
250
  6
CONTINUOUS
 10
28.5046832003
 20
19.555581323
 11
29.40994926
 21
19.2877872599
  0
LINE
  5
36C
100
AcDbEntity
  8
SUPERFICI
100
AcDbLine
 62
250
  6
CONTINUOUS
 10
-35.5862146777
 20
37.9511729935
 11
-35.4380061974
 21
37.9072531783
  0
LINE
  5
36D
100
AcDbEntity
  8
SUPERFICI
100
AcDbLine
 62
250
  6
CONTINUOUS
 10
21.3614591472
 20
21.6652439222
 11
28.5046832003
 21
19.555581323
  0
LINE
  5
36E
100
AcDbEntity
  8
SUPERFICI
100
AcDbLine
 62
250
  6
CONTINUOUS
 10
20.0075659706
 20
22.0736308833
 11
21.3614591472
 21
21.6652439222
  0
LINE
  5
36F
100
AcDbEntity
  8
SUPERFICI
100
AcDbLine
 62
250
  6
CONTINUOUS
 10
-35.4380061974
 20
37.9072531783
 11
-26.2716677959
 21
35.1424274328
  0
LINE
  5
370
100
AcDbEntity
  8
SUPERFICI
100
AcDbLine
 62
250
  6
CONTINUOUS
 10
-26.2716677959
 20
35.1424274328
 11
-25.9212652858
 21
35.0360561976
  0
LINE
  5
371
100
AcDbEntity
  8
SUPERFICI
100
AcDbLine
 62
250
  6
CONTINUOUS
 10
-25.2420885251
 20
34.8274842892
 11
-23.5545471167
 21
34.3174936728
  0
LINE
  5
372
100
AcDbEntity
  8
SUPERFICI
100
AcDbLine
 62
250
  6
CONTINUOUS
 10
-17.4273309436
 20
33.584038681
 11
-15.3148736159
 21
32.9386896238
  0
LWPOLYLINE
  5
373
100
AcDbEntity
  8
SUPERFICI
100
AcDbPolyline
 62
250
  6
CONTINUOUS
 90
3
 70
0
 10
-36.263721045
 20
38.1450951642
 10
-36.1914184643
 20
38.1228945851
 10
-36.052172478
 20
38.0810626162
  0
LINE
  5
374
100
AcDbEntity
  8
SUPERFICI
100
AcDbLine
 62
250
  6
CONTINUOUS
 10
-25.9212652858
 20
35.0360561976
 11
-25.2420885251
 21
34.8274842892
  0
LINE
  5
375
100
AcDbEntity
  8
SUPERFICI
100
AcDbLine
 62
250
  6
CONTINUOUS
 10
-23.5545471167
 20
34.3174936728
 11
-21.2862512233
 21
33.6219221018
  0
LINE
  5
376
100
AcDbEntity
  8
SUPERFICI
100
AcDbLine
 62
250
  6
CONTINUOUS
 10
-15.3148736159
 20
32.9386896238
 11
-12.3993933397
 21
32.0436889819
  0
LINE
  5
377
100
AcDbEntity
  8
SUPERFICI
100
AcDbLine
 62
250
  6
CONTINUOUS
 10
-21.2862512233
 20
33.6219221018
 11
-5.7822435397
 21
28.8611612267
  0
LINE
  5
378
100
AcDbEntity
  8
SUPERFICI
100
AcDbLine
 62
250
  6
CONTINUOUS
 10
-5.7822435397
 20
28.8611612267
 11
1.8912657231
 21
26.5025729203
  0
LINE
  5
379
100
AcDbEntity
  8
SUPERFICI
100
AcDbLine
 62
250
  6
CONTINUOUS
 10
1.8912657231
 20
26.5025729203
 11
15.9559384521
 21
22.1853695934
  0
LINE
  5
37A
100
AcDbEntity
  8
SUPERFICI
100
AcDbLine
 62
250
  6
CONTINUOUS
 10
-24.0117773611
 20
35.5854789058
 11
-17.4273309436
 21
33.584038681
  0
LINE
  5
37B
100
AcDbEntity
  8
SUPERFICI
100
AcDbLine
 62
250
  6
CONTINUOUS
 10
7.0350629875
 20
26.0757657774
 11
9.5591782106
 21
25.3000326434
  0
LINE
  5
37C
100
AcDbEntity
  8
SUPERFICI
100
AcDbLine
 62
250
  6
CONTINUOUS
 10
-12.3993933397
 20
32.0436889819
 11
7.0350629875
 21
26.0757657774
  0
LINE
  5
37D
100
AcDbEntity
  8
SUPERFICI
100
AcDbLine
 62
250
  6
CONTINUOUS
 10
17.4216555794
 20
22.8619942386
 11
20.0075659706
 21
22.0736308833
  0
LINE
  5
37E
100
AcDbEntity
  8
SUPERFICI
100
AcDbLine
 62
250
  6
CONTINUOUS
 10
18.5697153535
 20
21.3731600561
 11
19.2622052094
 21
21.1607372317
  0
LINE
  5
37F
100
AcDbEntity
  8
SUPERFICI
100
AcDbLine
 62
250
  6
CONTINUOUS
 10
9.5591782106
 20
25.3000326434
 11
11.6884740569
 21
24.6426074495
  0
LINE
  5
380
100
AcDbEntity
  8
SUPERFICI
100
AcDbLine
 62
250
  6
CONTINUOUS
 10
11.6884740569
 20
24.6426074495
 11
14.7101420078
 21
23.7048166901
  0
LINE
  5
381
100
AcDbEntity
  8
SUPERFICI
100
AcDbLine
 62
250
  6
CONTINUOUS
 10
14.7101420078
 20
23.7048166901
 11
17.4216555794
 21
22.8619942386
  0
LINE
  5
382
100
AcDbEntity
  8
SUPERFICI
100
AcDbLine
 62
250
  6
CONTINUOUS
 10
15.9559384521
 20
22.1853695934
 11
17.0298827526
 21
21.8538836481
  0
LINE
  5
383
100
AcDbEntity
  8
SUPERFICI
100
AcDbLine
 62
250
  6
CONTINUOUS
 10
29.573849775
 20
17.9273470142
 11
29.725089609
 21
17.8805708554
  0
LINE
  5
384
100
AcDbEntity
  8
SUPERFICI
100
AcDbLine
 62
250
  6
CONTINUOUS
 10
-25.0144697976
 20
35.8969994454
 11
-24.0117773611
 21
35.5854789058
  0
LINE
  5
385
100
AcDbEntity
  8
SUPERFICI
100
AcDbLine
 62
250
  6
CONTINUOUS
 10
17.0298827526
 20
21.8538836481
 11
18.5697153535
 21
21.3731600561
  0
LINE
  5
386
100
AcDbEntity
  8
SUPERFICI
100
AcDbLine
 62
250
  6
CONTINUOUS
 10
19.2622052094
 20
21.1607372317
 11
28.7780308864
 21
18.1876520158
  0
LWPOLYLINE
  5
387
100
AcDbEntity
  8
SUPERFICI
100
AcDbPolyline
 62
250
  6
CONTINUOUS
 90
46
 70
0
 10
29.7250902373
 20
17.8805715706
 10
29.7597076621
 20
17.8697001699
 10
29.7970507431
 20
17.8572616187
 10
29.8370930834
 20
17.843103937
 10
29.8799282616
 20
17.8270176339
 10
29.9253807746
 20
17.8088803172
 10
29.973008379
 20
17.7886869009
 10
30.022744116
 20
17.7662894947
 10
30.0745103257
 20
17.7415390891
 10
30.1278403354
 20
17.7144816943
 10
30.1826360222
 20
17.6849993797
 10
30.2387842744
 20
17.6529796438
 10
30.2957941751
 20
17.6185391219
 10
30.3535408079
 20
17.5816014256
 10
30.4118879707
 20
17.5420956637
 10
30.4703382742
 20
17.5002129134
 10
30.5287533181
 20
17.4559226716
 10
30.5869843195
 20
17.4092072285
 10
30.6445433367
 20
17.3603433663
 10
30.7012893947
 20
17.3093545464
 10
30.7570776191
 20
17.2562735009
 10
30.8114553249
 20
17.2014517611
 10
30.8643104792
 20
17.144944103
 10
30.9155139334
 20
17.086832748
 10
30.9646485728
 20
17.0275626756
 10
31.0116489069
 20
16.9672131253
 10
31.0564209006
 20
16.9059099485
 10
31.0985907172
 20
16.8442105606
 10
31.1381373481
 20
16.782235105
 10
31.1750498198
 20
16.7201012952
 10
31.2090745345
 20
16.6583885935
 10
31.2402640581
 20
16.5972129882
 10
31.2686816601
 20
16.5366815796
 10
31.2942000629
 20
16.4773664992
 10
31.3169413311
 20
16.4193634243
 10
31.3370332521
 20
16.3627546535
 10
31.3544636811
 20
16.3080809342
 10
31.3694122469
 20
16.2554017091
 10
31.3820616914
 20
16.2047608429
 10
31.3924997237
 20
16.1566529246
 10
31.4009474958
 20
16.1110931329
 10
31.4076192047
 20
16.0680884393
 10
31.412669541
 20
16.0280939439
 10
31.4163198694
 20
15.9912425487
 10
31.4188115668
 20
15.9573544685
 10
31.420349447
 20
15.9263986203
  0
LINE
  5
388
100
AcDbEntity
  8
SUPERFICI
100
AcDbLine
 62
250
  6
CONTINUOUS
 10
-27.0136247564
 20
36.5192170624
 11
-25.0144697976
 21
35.8969994454
  0
LWPOLYLINE
  5
389
100
AcDbEntity
  8
SUPERFICI
100
AcDbPolyline
 62
250
  6
CONTINUOUS
 90
9
 70
0
 10
28.7780308864
 20
18.1876520158
 10
29.0149209206
 20
18.1131946141
 10
29.0888716936
 20
18.0890635205
 10
29.1598339877
 20
18.0646537702
 10
29.2281584628
 20
18.0404892402
 10
29.2962798671
 20
18.0169529457
 10
29.3641901613
 20
17.9944417368
 10
29.4317617668
 20
17.9725143548
 10
29.573849775
 20
17.9273470142
  0
LINE
  5
38A
100
AcDbEntity
  8
SUPERFICI
100
AcDbLine
 62
250
  6
CONTINUOUS
 10
-31.835882444
 20
38.0558141985
 11
-27.0136247564
 21
36.5192170624
  0
LINE
  5
38B
100
AcDbEntity
  8
SUPERFICI
100
AcDbLine
 62
250
  6
CONTINUOUS
 10
-35.2996782877
 20
39.161642725
 11
-31.835882444
 21
38.0558141985
  0
LINE
  5
38C
100
AcDbEntity
  8
SUPERFICI
100
AcDbLine
 62
250
  6
CONTINUOUS
 10
-35.4240696291
 20
39.202329884
 11
-35.2996782877
 21
39.161642725
  0
LINE
  5
38D
100
AcDbEntity
  8
SUPERFICI
100
AcDbLine
 62
250
  6
CONTINUOUS
 10
-35.5475858033
 20
39.2435456656
 11
-35.4240696291
 21
39.202329884
  0
LWPOLYLINE
  5
38E
100
AcDbEntity
  8
SUPERFICI
100
AcDbPolyline
 62
250
  6
CONTINUOUS
 90
3
 70
0
 10
-35.8149604975
 20
39.3348193321
 10
-35.7451245696
 20
39.3107516754
 10
-35.5475858033
 20
39.2435456656
  0
LWPOLYLINE
  5
38F
100
AcDbEntity
  8
SUPERFICI
100
AcDbPolyline
 62
250
  6
CONTINUOUS
 90
10
 70
0
 10
31.440362439
 20
15.5308634699
 10
31.4431783088
 20
15.4899696667
 10
31.4462975838
 20
15.4501552948
 10
31.4495291248
 20
15.4114002292
 10
31.4523483933
 20
15.3728390649
 10
31.4544800436
 20
15.3345681538
 10
31.4561610607
 20
15.2968745064
 10
31.4576429165
 20
15.2589724427
 10
31.4589161173
 20
15.2205192442
 10
31.5503532079
 20
12.1942019398
  0
LINE
  5
390
100
AcDbEntity
  8
SUPERFICI
100
AcDbLine
 62
250
  6
CONTINUOUS
 10
31.4350051585
 20
15.6167906535
 11
31.440362439
 21
15.5308634699
  0
LINE
  5
391
100
AcDbEntity
  8
SUPERFICI
100
AcDbLine
 62
250
  6
CONTINUOUS
 10
31.429861501
 20
15.7113075813
 11
31.4350051585
 21
15.6167906535
  0
LINE
  5
392
100
AcDbEntity
  8
SUPERFICI
100
AcDbLine
 62
250
  6
CONTINUOUS
 10
34.0378376731
 20
-41.0327488087
 11
34.0450977129
 21
-41.1816719559
  0
LINE
  5
393
100
AcDbEntity
  8
SUPERFICI
100
AcDbLine
 62
250
  6
CONTINUOUS
 10
31.4249630534
 20
15.8144417684
 11
31.429861501
 21
15.7113075813
  0
LINE
  5
394
100
AcDbEntity
  8
SUPERFICI
100
AcDbLine
 62
250
  6
CONTINUOUS
 10
34.0320309462
 20
-40.9000208712
 11
34.0378376731
 21
-41.0327488087
  0
LINE
  5
395
100
AcDbEntity
  8
SUPERFICI
100
AcDbLine
 62
250
  6
CONTINUOUS
 10
31.4203494724
 20
15.926398664
 11
31.4249630534
 21
15.8144417684
  0
LINE
  5
396
100
AcDbEntity
  8
SUPERFICI
100
AcDbLine
 62
250
  6
CONTINUOUS
 10
34.0274642477
 20
-40.7826020042
 11
34.0320309462
 21
-40.9000208712
  0
LINE
  5
397
100
AcDbEntity
  8
SUPERFICI
100
AcDbLine
 62
250
  6
CONTINUOUS
 10
34.0226547717
 20
-40.6363115625
 11
34.0274642477
 21
-40.7826020042
  0
LINE
  5
398
100
AcDbEntity
  8
SUPERFICI
100
AcDbLine
 62
250
  6
CONTINUOUS
 10
33.999785089
 20
-39.862492711
 11
34.0226547717
 21
-40.6363115625
  0
LINE
  5
399
100
AcDbEntity
  8
SUPERFICI
100
AcDbLine
 62
250
  6
CONTINUOUS
 10
31.5503532079
 20
12.1942019398
 11
31.6226195312
 21
9.6874866429
  0
LINE
  5
39A
100
AcDbEntity
  8
SUPERFICI
100
AcDbLine
 62
250
  6
CONTINUOUS
 10
31.6226195312
 20
9.6874866429
 11
31.7033081008
 21
6.710879494
  0
LINE
  5
39B
100
AcDbEntity
  8
SUPERFICI
100
AcDbLine
 62
250
  6
CONTINUOUS
 10
31.7033081008
 20
6.710879494
 11
31.8314298391
 21
1.7241796871
  0
LINE
  5
39C
100
AcDbEntity
  8
SUPERFICI
100
AcDbLine
 62
250
  6
CONTINUOUS
 10
31.8314298391
 20
1.7241796871
 11
32.0025915976
 21
-5.1484935049
  0
LINE
  5
39D
100
AcDbEntity
  8
SUPERFICI
100
AcDbLine
 62
250
  6
CONTINUOUS
 10
32.0025915976
 20
-5.1484935049
 11
32.5002076919
 21
-25.1366780995
  0
LINE
  5
39E
100
AcDbEntity
  8
SUPERFICI
100
AcDbLine
 62
250
  6
CONTINUOUS
 10
32.5002076919
 20
-25.1366780995
 11
32.6212492329
 21
-30.0902896022
  0
LINE
  5
39F
100
AcDbEntity
  8
SUPERFICI
100
AcDbLine
 62
250
  6
CONTINUOUS
 10
32.6212492329
 20
-30.0902896022
 11
32.7034975012
 21
-33.5770861889
  0
LINE
  5
3A0
100
AcDbEntity
  8
SUPERFICI
100
AcDbLine
 62
250
  6
CONTINUOUS
 10
32.7034975012
 20
-33.5770861889
 11
32.7551049599
 21
-35.9105837466
  0
LINE
  5
3A1
100
AcDbEntity
  8
SUPERFICI
100
AcDbLine
 62
250
  6
CONTINUOUS
 10
32.7551049599
 20
-35.9105837466
 11
32.8029025073
 21
-38.2320736597
  0
LWPOLYLINE
  5
3A2
100
AcDbEntity
  8
SUPERFICI
100
AcDbPolyline
 62
250
  6
CONTINUOUS
 90
11
 70
0
 10
32.8029025073
 20
-38.2320736597
 10
32.8539476866
 20
-40.8702170548
 10
32.8543766936
 20
-40.9080319585
 10
32.8546058706
 20
-40.945527599
 10
32.8543862827
 20
-40.9833466004
 10
32.8534467092
 20
-41.0210801241
 10
32.8520792461
 20
-41.0586800025
 10
32.8508775198
 20
-41.097124171
 10
32.8500415642
 20
-41.136506002
 10
32.8493683548
 20
-41.1767387701
 10
32.8484813359
 20
-41.2625311381
  0
LINE
  5
3A3
100
AcDbEntity
  8
SUPERFICI
100
AcDbLine
 62
250
  6
CONTINUOUS
 10
32.6186951717
 20
15.9425709683
 11
32.6199145011
 21
15.8172350766
  0
LINE
  5
3A4
100
AcDbEntity
  8
SUPERFICI
100
AcDbLine
 62
250
  6
CONTINUOUS
 10
32.6179443121
 20
16.0870317778
 11
32.6186951717
 21
15.9425709683
  0
LWPOLYLINE
  5
3A5
100
AcDbEntity
  8
SUPERFICI
100
AcDbPolyline
 62
250
  6
CONTINUOUS
 90
3
 70
0
 10
32.8482398162
 20
-41.3554301375
 10
32.8483623718
 20
-41.4046273102
 10
32.8491316119
 20
-41.5083949816
  0
LINE
  5
3A6
100
AcDbEntity
  8
SUPERFICI
100
AcDbLine
 62
250
  6
CONTINUOUS
 10
32.6177802503
 20
16.1942440417
 11
32.6179443121
 21
16.0870317778
  0
LINE
  5
3A7
100
AcDbEntity
  8
RACCORDO
100
AcDbLine
 62
7
  6
CONTINUOUS
 10
35.3276602592
 20
-7.3456911472
 11
34.4029353842
 21
-8.4991669706
  0
LWPOLYLINE
  5
3A8
100
AcDbEntity
  8
SUPERFICI
100
AcDbPolyline
 62
250
  6
CONTINUOUS
 90
13
 70
0
 10
33.2984242141
 20
-12.5300277325
 10
33.2398152449
 20
-12.5877098974
 10
33.1719059147
 20
-12.6412364652
 10
33.0954787874
 20
-12.6899906141
 10
33.0114145829
 20
-12.733410518
 10
32.9206820284
 20
-12.7709958208
 10
32.8243266945
 20
-12.8023134023
 10
32.7234589473
 20
-12.8270023696
 10
32.619241152
 20
-12.8447782154
 10
32.5128742787
 20
-12.8554360969
 10
32.4055840627
 20
-12.8588531965
 10
32.2986068799
 20
-12.8549901365
 10
32.1931754984
 20
-12.8438914337
  0
LWPOLYLINE
  5
3A9
100
AcDbEntity
  8
RACCORDO
100
AcDbPolyline
 62
250
  6
CONTINUOUS
 90
8
 70
0
 10
34.662544381
 20
-12.9307784296
 10
34.6834677866
 20
-12.9164411541
 10
34.7066763248
 20
-12.9044256503
 10
34.7321699956
 20
-12.8947319183
 10
34.7606797301
 20
-12.887160638
 10
34.7914745971
 20
-12.8819111294
 10
34.8223618037
 20
-12.8795813523
 10
34.8526104189
 20
-12.8803706266
  0
LWPOLYLINE
  5
3AA
100
AcDbEntity
  8
0
100
AcDbPolyline
 62
7
  6
CONTINUOUS
 90
12
 70
0
 10
-33.8171458628
 20
42.0230575121
 10
-34.1010129654
 20
42.0964487792
 10
-34.3753009771
 20
42.1430215308
 10
-34.6400098979
 20
42.1627757667
 10
-34.8978104186
 20
42.1553429666
 10
-35.1460318484
 20
42.1210916509
 10
-35.3766621149
 20
42.061127381
 10
-35.5891272363
 20
41.9746111692
 10
-35.7840011943
 20
41.8623820031
 10
-35.9549938622
 20
41.7280624073
 10
-36.1013260178
 20
41.5709315933
 10
-36.1645819528
 20
41.4866759269
  0
LINE
  5
3AB
100
AcDbEntity
  8
0
100
AcDbLine
 62
7
  6
CONTINUOUS
 10
32.092403214
 20
21.7828735195
 11
-33.8171458628
 21
42.0230575121
  0
LWPOLYLINE
  5
3AC
100
AcDbEntity
  8
0
100
AcDbPolyline
 62
7
  6
CONTINUOUS
 90
16
 70
0
 10
32.092403214
 20
21.7828735195
 10
32.3769612722
 20
21.6817069266
 10
32.6531373349
 20
21.5592374938
 10
32.9209314023
 20
21.4154652209
 10
33.1830737602
 20
21.248363
 10
33.4368341226
 20
21.0599579391
 10
33.674021632
 20
20.8563313624
 10
33.8940955329
 20
20.6369866073
 10
34.0975965808
 20
20.4024203363
 10
34.2779561844
 20
20.1602038618
 10
34.4344192616
 20
19.9100875653
 10
34.5677408945
 20
19.6523210653
 10
34.6736177375
 20
19.3952245291
 10
34.7506153421
 20
19.141571346
 10
34.8001681569
 20
18.8885881267
 10
34.8222761818
 20
18.6362748713
  0
LWPOLYLINE
  5
3AD
100
AcDbEntity
  8
SUPERFICI
100
AcDbPolyline
 62
250
  6
CONTINUOUS
 90
19
 70
0
 10
34.0450977129
 20
-41.1816719559
 10
34.0463844199
 20
-41.2253598326
 10
34.0465289885
 20
-41.2724017986
 10
34.0452383659
 20
-41.3226754901
 10
34.0421904438
 20
-41.3762154241
 10
34.0370441429
 20
-41.4326757416
 10
34.0295021522
 20
-41.4913524914
 10
34.0192486258
 20
-41.5520576257
 10
34.0059592057
 20
-41.614580319
 10
33.9894252724
 20
-41.6782009166
 10
33.9693679077
 20
-41.7426970845
 10
33.9455090592
 20
-41.8078231274
 10
33.9177690175
 20
-41.8728634365
 10
33.8859363124
 20
-41.9375804655
 10
33.84980886
 20
-42.0017148482
 10
33.8094684035
 20
-42.0645836012
 10
33.7647948626
 20
-42.1259586232
 10
33.7156824353
 20
-42.1855977993
 10
33.6928069537
 20
-42.2110462484
  0
LINE
  5
3AE
100
AcDbEntity
  8
SUPERFICI
100
AcDbLine
 62
250
  6
CONTINUOUS
 10
33.6746648012
 20
-27.7070653928
 11
33.999785089
 21
-39.862492711
  0
LINE
  5
3AF
100
AcDbEntity
  8
RACCORDO
100
AcDbLine
 62
7
  6
CONTINUOUS
 10
34.2715212385
 20
-8.8828464691
 11
34.3959331972
 21
-13.8840114381
  0
LINE
  5
3B0
100
AcDbEntity
  8
RACCORDO
100
AcDbLine
 62
7
  6
CONTINUOUS
 10
34.3793514101
 20
-12.7887680063
 11
34.3826697064
 21
-12.9221582945
  0
LINE
  5
3B1
100
AcDbEntity
  8
RACCORDO
100
AcDbLine
 62
7
  6
CONTINUOUS
 10
36.2495936444
 20
-38.7396411264
 11
35.6127954212
 21
-13.1413546064
  0
LINE
  5
3B2
100
AcDbEntity
  8
RACCORDO
100
AcDbLine
 62
7
  6
CONTINUOUS
 10
35.459074405
 20
-6.9620116487
 11
34.8222761818
 21
18.6362748713
  0
LINE
  5
3B3
100
AcDbEntity
  8
SUPERFICI
100
AcDbLine
 62
250
  6
CONTINUOUS
 10
32.6209643178
 20
15.7413289657
 11
33.6746648012
 21
-27.7070653928
  0
LINE
  5
3B4
100
AcDbEntity
  8
SUPERFICI
100
AcDbLine
 62
250
  6
CONTINUOUS
 10
32.6199145011
 20
15.8172350766
 11
32.6209643178
 21
15.7413289657
  0
LWPOLYLINE
  5
3B5
100
AcDbEntity
  8
SUPERFICI
100
AcDbPolyline
 62
250
  6
CONTINUOUS
 90
46
 70
0
 10
32.8491315852
 20
-41.5083950327
 10
32.8490799235
 20
-41.5367740778
 10
32.8482243194
 20
-41.5673395638
 10
32.8463717649
 20
-41.6000195349
 10
32.8433028758
 20
-41.6348481583
 10
32.8388022277
 20
-41.6716052857
 10
32.8326986236
 20
-41.7098287216
 10
32.8247868177
 20
-41.7494019407
 10
32.8148546272
 20
-41.7901968166
 10
32.8027857536
 20
-41.8317418348
 10
32.7883989546
 20
-41.8738974661
 10
32.7715147697
 20
-41.9165112105
 10
32.7521007537
 20
-41.95911253
 10
32.7300211478
 20
-42.0015493055
 10
32.7051448275
 20
-42.043660901
 10
32.6775386962
 20
-42.0850004475
 10
32.647122517
 20
-42.1254220438
 10
32.6138254968
 20
-42.1647765926
 10
32.5778264158
 20
-42.2026666086
 10
32.5391109426
 20
-42.2389699254
 10
32.4976765447
 20
-42.2735671097
 10
32.4538160242
 20
-42.3061349923
 10
32.4075812161
 20
-42.3365922043
 10
32.3590279418
 20
-42.3648673064
 10
32.3085421805
 20
-42.3907353215
 10
32.2562206883
 20
-42.4141744965
 10
32.2021717616
 20
-42.4351688637
 10
32.1468733585
 20
-42.4535942033
 10
32.0904639549
 20
-42.4694884967
 10
32.03308187
 20
-42.4828983478
 10
31.9752623098
 20
-42.4938084864
 10
31.9171597904
 20
-42.5023182714
 10
31.8589192373
 20
-42.5085342956
 10
31.8010998218
 20
-42.5125443196
 10
31.7438501088
 20
-42.514499559
 10
31.6873069001
 20
-42.5145509457
 10
31.6320322022
 20
-42.5128671066
 10
31.5781546059
 20
-42.509631388
 10
31.5257865941
 20
-42.5050233657
 10
31.475470275
 20
-42.4992736586
 10
31.4272980392
 20
-42.4925816054
 10
31.3813502384
 20
-42.4851371704
 10
31.338145734
 20
-42.4772075875
 10
31.2978940458
 20
-42.4690198185
 10
31.2604907723
 20
-42.4607269
 10
31.2259714952
 20
-42.4524931949
  0
LINE
  5
3B6
100
AcDbEntity
  8
SUPERFICI
100
AcDbLine
 62
250
  6
CONTINUOUS
 10
32.8484813359
 20
-41.2625311381
 11
32.8482398162
 21
-41.3554301375
  0
LINE
  5
3B7
100
AcDbEntity
  8
RACCORDO
100
AcDbLine
 62
250
  6
CONTINUOUS
 10
34.3790541231
 20
-13.2054992197
 11
34.662544381
 21
-12.9307784296
  0
LINE
  5
3B8
100
AcDbEntity
  8
RACCORDO
100
AcDbLine
 62
7
  6
CONTINUOUS
 10
34.5388761491
 20
-13.9637718043
 11
35.4698524693
 21
-13.0615942402
  0
LINE
  5
3B9
100
AcDbEntity
  8
0
100
AcDbLine
 62
250
  6
CONTINUOUS
 10
34.0450977129
 20
-41.1816719559
 11
36.2495936444
 21
-38.7396411264
  0
LWPOLYLINE
  5
3BA
100
AcDbEntity
  8
0
100
AcDbPolyline
 62
7
  6
CONTINUOUS
 90
7
 70
0
 10
35.8570730275
 20
-39.866541353
 10
35.9196292745
 20
-39.7930178565
 10
36.04208014
 20
-39.6137966127
 10
36.1366972557
 20
-39.4182698289
 10
36.202163135
 20
-39.2083658015
 10
36.2397952646
 20
-38.982156234
 10
36.2495936444
 20
-38.7396411264
  0
LINE
  5
3BB
100
AcDbEntity
  8
SUPERFICI
100
AcDbLine
 62
7
  6
CONTINUOUS
 10
35.8563870924
 20
-39.8672849454
 11
33.6928068222
 21
-42.2110463909
  0
LWPOLYLINE
  5
3BC
100
AcDbEntity
  8
SUPERFICI
100
AcDbPolyline
 62
250
  6
CONTINUOUS
 90
13
 70
0
 10
34.0450977069
 20
-41.1816719538
 10
33.9818766956
 20
-41.2468576583
 10
33.907983244
 20
-41.3071474891
 10
33.8244001159
 20
-41.3617396071
 10
33.7322389452
 20
-41.4099079514
 10
33.6327254517
 20
-41.4510118953
 10
33.527183139
 20
-41.484504767
 10
33.4170156924
 20
-41.5099411202
 10
33.3036883105
 20
-41.5269826579
 10
33.1887082181
 20
-41.535402732
 10
33.0736046206
 20
-41.5350893577
 10
32.9599083661
 20
-41.526046703
 10
32.8491315852
 20
-41.5083950327
  0
ARC
  5
3BD
100
AcDbEntity
  8
RACCORDO
100
AcDbCircle
 62
7
  6
CONTINUOUS
 10
34.6523568262
 20
-13.3417840815
 40
0.5
100
AcDbArc
 50
111.1545642524
 51
124.1237609905
  0
ARC
  5
3BE
100
AcDbEntity
  8
RACCORDO
100
AcDbCircle
 62
7
  6
CONTINUOUS
 10
2.5556637967
 20
-20.3744361692
 40
0.3
100
AcDbArc
 50
325.2613292642
 51
1.4251590525
  0
ELLIPSE
  5
3BF
100
AcDbEntity
  8
RACCORDO
100
AcDbEllipse
 62
7
  6
CONTINUOUS
 10
35.3087984431
 20
-7.128479877
 30
0.0
 11
0.0993376304
 21
0.2832828308
 31
0.0
 40
0.3985724632
 41
-2.294295151
 42
-0.8107652868
  0
ELLIPSE
  5
3C0
100
AcDbEntity
  8
RACCORDO
100
AcDbEllipse
 62
7
  6
CONTINUOUS
 10
34.4217972004
 20
-8.7163782409
 30
0.0
 11
0.0993376304
 21
0.2832828308
 31
0.0
 40
0.3985724632
 41
0.8472975026
 42
2.3308273668
  0
ELLIPSE
  5
3C1
100
AcDbEntity
  8
RACCORDO
100
AcDbEllipse
 62
7
  6
CONTINUOUS
 10
35.4625194593
 20
-13.3078228346
 30
0.0
 11
0.0993376304
 21
0.2832828308
 31
0.0
 40
0.3985724632
 41
5.4724200204
 42
6.9559498846
  0
ELLIPSE
  5
3C2
100
AcDbEntity
  8
RACCORDO
100
AcDbEllipse
 62
7
  6
CONTINUOUS
 10
34.5462091591
 20
-13.7175432098
 30
0.0
 11
0.0993376304
 21
0.2832828308
 31
0.0
 40
0.3985724632
 41
2.3308273668
 42
3.814357231
  0
ENDSEC
  0
SECTION
  2
OBJECTS
  0
DICTIONARY
  5
C
100
AcDbDictionary
280
0
281
1
  3
ACAD_GROUP
350
D
  3
ACAD_MLINESTYLE
350
17
  3
ACAD_LAYOUT
350
1A
  3
ACAD_PLOTSETTINGS
350
19
  3
ACAD_PLOTSTYLENAME
350
E
  0
DICTIONARY
  5
D
102
{ACAD_REACTORS
330
C
102
}
100
AcDbDictionary
280
0
281
1
  0
ACDBDICTIONARYWDFLT
  5
E
102
{ACAD_REACTORS
330
C
102
}
100
AcDbDictionary
281
1
  3
Normal
350
F
100
AcDbDictionaryWithDefault
340
F
  0
DICTIONARY
  5
17
102
{ACAD_REACTORS
330
C
102
}
100
AcDbDictionary
280
0
281
1
  3
Standard
350
18
  0
DICTIONARY
  5
19
102
{ACAD_REACTORS
330
C
102
}
100
AcDbDictionary
281
1
  0
DICTIONARY
  5
1A
102
{ACAD_REACTORS
330
C
102
}
100
AcDbDictionary
281
1
  3
Model
350
3C3
  3
Layout1
350
3C4
  0
ACDBPLACEHOLDER
  5
F
102
{ACAD_REACTORS
330
E
102
}
  0
MLINESTYLE
  5
18
102
{ACAD_REACTORS
330
17
102
}
100
AcDbMlineStyle
  2
STANDARD
 70
0
  3

 62
256
 51
90.0
 52
90.0
 71
2
 49
0.5
 62
256
  6
BYLAYER
 49
-0.5
 62
256
  6
BYLAYER
  0
LAYOUT
  5
3C3
102
{ACAD_REACTORS
330
1A
102
}
100
AcDbPlotSettings
  1

  2
none_device
  4
ISO_A4_(297.00_x_210.00_MM)
  6

 40
0.0
 41
0.0
 42
0.0
 43
0.0
 44
297.0
 45
210.0
 46
0.0
 47
0.0
 48
0.0
 49
0.0
140
0.0
141
0.0
142
1.0
143
1.0
 70
1024
 72
1
 73
0
 74
0
  7

 75
0
147
1.0
148
0.0
149
0.0
100
AcDbLayout
  1
Model
 70
0
 71
0
 10
0.0
 20
0.0
 11
297.0
 21
210.0
 12
0.0
 22
0.0
 32
0.0
 14
0.0
 24
0.0
 34
0.0
 15
0.0
 25
0.0
 35
0.0
146
0.0
 13
0.0
 23
0.0
 33
0.0
 16
1.0
 26
0.0
 36
0.0
 17
0.0
 27
1.0
 37
0.0
 76
0
330
21D
345
0
346
0
  0
LAYOUT
  5
3C4
102
{ACAD_REACTORS
330
1A
102
}
100
AcDbPlotSettings
  1

  2
none_device
  4
ISO_A4_(297.00_x_210.00_MM)
  6

 40
0.0
 41
0.0
 42
0.0
 43
0.0
 44
297.0
 45
210.0
 46
0.0
 47
0.0
 48
0.0
 49
0.0
140
0.0
141
0.0
142
1.0
143
1.0
 70
0
 72
1
 73
0
 74
0
  7

 75
0
147
1.0
148
0.0
149
0.0
100
AcDbLayout
  1
Layout1
 70
0
 71
1
 10
0.0
 20
0.0
 11
297.0
 21
210.0
 12
0.0
 22
0.0
 32
0.0
 14
0.0
 24
0.0
 34
0.0
 15
0.0
 25
0.0
 35
0.0
146
0.0
 13
0.0
 23
0.0
 33
0.0
 16
1.0
 26
0.0
 36
0.0
 17
0.0
 27
1.0
 37
0.0
 76
0
330
21E
345
0
346
0
  0
ENDSEC
  0
EOF
