  0
SECTION
  2
HEADER
  9
$ACADVER
  1
AC1024
  9
$DWGCODEPAGE
  3
ANSI_1252
  9
$EXTMAX
 10
297.0
 20
210.0
 30
0.0
  9
$EXTMIN
 10
0.0
 20
0.0
 30
0.0
  9
$LIMMIN
 10
0.0
 20
0.0
  9
$LIMMAX
 10
297.0
 20
210.0
  9
$VIEWCTR
 10
148.5
 20
105.0
  9
$VIEWSIZE
 40
210.0
  9
$CLAYER
  8
0
  9
$LTSCALE
 40
16.335
  9
$CELTYPE
  6
BYLAYER
  9
$DIMSCALE
 40
1.0
  9
$DIMASZ
 40
3.0
  9
$DIMEXO
 40
0.5
  9
$DIMDLI
 40
11.286
  9
$DIMEXE
 40
1.5
  9
$DIMCEN
 40
2.673
  9
$DIMLFAC
 40
1.0
  9
$DIMBLK
  1
_FILLED
  9
$DIMALT
 70
0
  9
$DIMALTF
 40
0.0393700787
  9
$DIMTXT
 40
3.0
  9
$DIMTOL
 70
1
  9
$DIMLIM
 70
0
  9
$DIMTFAC
 40
1.0
  9
$DIMTP
 40
0.01
  9
$DIMTM
 40
0.01
  9
$DIMGAP
 40
0.625
  9
$DIMDSEP
 70
44
  9
$AUNITS
 70
0
  9
$PDMODE
 70
3
  9
$PDSIZE
 40
3.0
  9
$HANDSEED
  5
3A7
  9
$TILEMODE
 70
1
  9
$MEASUREMENT
 70
1
  9
$INSUNITS
 70
4
  0
ENDSEC
  0
SECTION
  2
CLASSES
  0
CLASS
  1
ACDBDICTIONARYWDFLT
  2
AcDbDictionaryWithDefault
  3
AutoCAD 2000
 90
0
 91
1
280
0
281
0
  0
CLASS
  1
ACDBPLACEHOLDER
  2
AcDbPlaceHolder
  3
AutoCAD 2000
 90
0
 91
1
280
0
281
0
  0
CLASS
  1
LAYOUT
  2
AcDbLayout
  3
AutoCAD 2000
 90
0
 91
0
280
0
281
0
  0
ENDSEC
  0
SECTION
  2
TABLES
  0
TABLE
  2
VPORT
  5
8
100
AcDbSymbolTable
 70
2
  0
VPORT
  5
1F4
100
AcDbSymbolTableRecord
100
AcDbViewportTableRecord
  2
*ACTIVE
 70
0
 10
0.0
 20
0.0
 11
1.0
 21
1.0
 12
148.5
 22
105.0
 13
0.0
 23
0.0
 14
1.0
 24
1.0
 15
0.0
 25
0.0
 16
0.0
 26
0.0
 36
1.0
 17
0.0
 27
0.0
 37
0.0
 40
210.0
 41
1.4142857143
 42
50.0
 43
0.0
 44
0.0
 50
0.0
 51
0.0
 71
0
 72
100
 73
1
 74
1
 75
0
 76
0
 77
0
 78
0
  0
ENDTAB
  0
TABLE
  2
LTYPE
  5
5
100
AcDbSymbolTable
 70
6
  0
LTYPE
  5
14
100
AcDbSymbolTableRecord
100
AcDbLinetypeTableRecord
  2
BYBLOCK
 70
0
  3

 72
65
 73
0
 40
0.0
  0
LTYPE
  5
15
100
AcDbSymbolTableRecord
100
AcDbLinetypeTableRecord
  2
BYLAYER
 70
0
  3

 72
65
 73
0
 40
0.0
  0
LTYPE
  5
16
100
AcDbSymbolTableRecord
100
AcDbLinetypeTableRecord
  2
CONTINUOUS
 70
64
  3
Solid line
 72
65
 73
0
 40
0.0
  0
LTYPE
  5
1F5
100
AcDbSymbolTableRecord
100
AcDbLinetypeTableRecord
  2
CENTER
 70
64
  3
____ _ ____ _ ____ _ ____ _ ____ _ ____ _ ____
 72
65
 73
4
 40
0.6
 49
0.375
 74
0
 49
-0.075
 74
0
 49
0.075
 74
0
 49
-0.075
 74
0
  0
LTYPE
  5
1F6
100
AcDbSymbolTableRecord
100
AcDbLinetypeTableRecord
  2
HIDDEN
 70
64
  3
- - - - - - - - - - - - - - - - - - - -
 72
65
 73
2
 40
0.2
 49
0.1
 74
0
 49
-0.1
 74
0
  0
LTYPE
  5
1F7
100
AcDbSymbolTableRecord
100
AcDbLinetypeTableRecord
  2
PHANTOM
 70
64
  3
_____ _ _ _____ _ _ _____ _ _ _____
 72
65
 73
6
 40
0.8
 49
0.45
 74
0
 49
-0.05
 74
0
 49
0.1
 74
0
 49
-0.05
 74
0
 49
0.1
 74
0
 49
-0.05
 74
0
  0
LTYPE
  5
1F8
100
AcDbSymbolTableRecord
100
AcDbLinetypeTableRecord
  2
DOT
 70
64
  3
. . . . . . . . . . . . . . . . . . . .
 72
65
 73
2
 40
0.2
 49
0.1
 74
0
 49
-0.1
 74
0
  0
LTYPE
  5
1F9
100
AcDbSymbolTableRecord
100
AcDbLinetypeTableRecord
  2
DASHED
 70
64
  3
- - - - - - - - - - - - - - - - - - - -
 72
65
 73
2
 40
0.2
 49
0.1
 74
0
 49
-0.1
 74
0
  0
ENDTAB
  0
TABLE
  2
LAYER
  5
2
100
AcDbSymbolTable
 70
36
  0
LAYER
  5
10
100
AcDbSymbolTableRecord
100
AcDbLayerTableRecord
  2
0
 70
0
 62
7
  6
CONTINUOUS
370
-3
390
F
  0
LAYER
  5
1FA
100
AcDbSymbolTableRecord
100
AcDbLayerTableRecord
  2
DEFAULT_1
 70
0
 62
7
  6
CENTER
370
-3
390
F
  0
LAYER
  5
1FB
100
AcDbSymbolTableRecord
100
AcDbLayerTableRecord
  2
DEFAULT_2
 70
0
 62
7
  6
HIDDEN
370
-3
390
F
  0
LAYER
  5
1FC
100
AcDbSymbolTableRecord
100
AcDbLayerTableRecord
  2
DEFAULT_3
 70
0
 62
7
  6
PHANTOM
370
-3
390
F
  0
LAYER
  5
1FD
100
AcDbSymbolTableRecord
100
AcDbLayerTableRecord
  2
ASSI
 70
0
 62
7
  6
CONTINUOUS
370
-3
390
F
  0
LAYER
  5
1FE
100
AcDbSymbolTableRecord
100
AcDbLayerTableRecord
  2
COORDINATE
 70
0
 62
7
  6
CONTINUOUS
370
-3
390
F
  0
LAYER
  5
1FF
100
AcDbSymbolTableRecord
100
AcDbLayerTableRecord
  2
COPY_PUBLISH
 70
0
 62
7
  6
CONTINUOUS
370
-3
390
F
  0
LAYER
  5
200
100
AcDbSymbolTableRecord
100
AcDbLayerTableRecord
  2
COSMETICI
 70
0
 62
7
  6
CONTINUOUS
370
-3
390
F
  0
LAYER
  5
201
100
AcDbSymbolTableRecord
100
AcDbLayerTableRecord
  2
CURVE
 70
0
 62
7
  6
CONTINUOUS
370
-3
390
F
  0
LAYER
  5
202
100
AcDbSymbolTableRecord
100
AcDbLayerTableRecord
  2
DRAFT
 70
0
 62
7
  6
CONTINUOUS
370
-3
390
F
  0
LAYER
  5
203
100
AcDbSymbolTableRecord
100
AcDbLayerTableRecord
  2
IMPORT_IGES
 70
0
 62
7
  6
CONTINUOUS
370
-3
390
F
  0
LAYER
  5
204
100
AcDbSymbolTableRecord
100
AcDbLayerTableRecord
  2
INTFCLR
 70
0
 62
7
  6
CONTINUOUS
370
-3
390
F
  0
LAYER
  5
205
100
AcDbSymbolTableRecord
100
AcDbLayerTableRecord
  2
INTFCLR_17
 70
0
 62
7
  6
CONTINUOUS
370
-3
390
F
  0
LAYER
  5
206
100
AcDbSymbolTableRecord
100
AcDbLayerTableRecord
  2
INTF_1
 70
0
 62
7
  6
CONTINUOUS
370
-3
390
F
  0
LAYER
  5
207
100
AcDbSymbolTableRecord
100
AcDbLayerTableRecord
  2
INTF_11
 70
0
 62
7
  6
CONTINUOUS
370
-3
390
F
  0
LAYER
  5
208
100
AcDbSymbolTableRecord
100
AcDbLayerTableRecord
  2
INTF_2
 70
0
 62
7
  6
CONTINUOUS
370
-3
390
F
  0
LAYER
  5
209
100
AcDbSymbolTableRecord
100
AcDbLayerTableRecord
  2
INTF_5
 70
0
 62
7
  6
CONTINUOUS
370
-3
390
F
  0
LAYER
  5
20A
100
AcDbSymbolTableRecord
100
AcDbLayerTableRecord
  2
INTF_YELLOW
 70
0
 62
7
  6
CONTINUOUS
370
-3
390
F
  0
LAYER
  5
20B
100
AcDbSymbolTableRecord
100
AcDbLayerTableRecord
  2
NONE
 70
0
 62
7
  6
CONTINUOUS
370
-3
390
F
  0
LAYER
  5
20C
100
AcDbSymbolTableRecord
100
AcDbLayerTableRecord
  2
NOTE
 70
0
 62
7
  6
CONTINUOUS
370
-3
390
F
  0
LAYER
  5
20D
100
AcDbSymbolTableRecord
100
AcDbLayerTableRecord
  2
PIANI
 70
0
 62
7
  6
CONTINUOUS
370
-3
390
F
  0
LAYER
  5
20E
100
AcDbSymbolTableRecord
100
AcDbLayerTableRecord
  2
POSIZIONE_SCRITTE
 70
0
 62
7
  6
CONTINUOUS
370
-3
390
F
  0
LAYER
  5
20F
100
AcDbSymbolTableRecord
100
AcDbLayerTableRecord
  2
PUNTI
 70
0
 62
7
  6
CONTINUOUS
370
-3
390
F
  0
LAYER
  5
210
100
AcDbSymbolTableRecord
100
AcDbLayerTableRecord
  2
RACCORDO
 70
0
 62
7
  6
CONTINUOUS
370
-3
390
F
  0
LAYER
  5
211
100
AcDbSymbolTableRecord
100
AcDbLayerTableRecord
  2
RGB____0____0____0__
 70
0
 62
7
  6
CONTINUOUS
370
-3
390
F
  0
LAYER
  5
212
100
AcDbSymbolTableRecord
100
AcDbLayerTableRecord
  2
SIMBOLI
 70
0
 62
7
  6
CONTINUOUS
370
-3
390
F
  0
LAYER
  5
213
100
AcDbSymbolTableRecord
100
AcDbLayerTableRecord
  2
SMUSSO
 70
0
 62
7
  6
CONTINUOUS
370
-3
390
F
  0
LAYER
  5
214
100
AcDbSymbolTableRecord
100
AcDbLayerTableRecord
  2
SNAPLINE
 70
0
 62
7
  6
CONTINUOUS
370
-3
390
F
  0
LAYER
  5
215
100
AcDbSymbolTableRecord
100
AcDbLayerTableRecord
  2
SUPERFICI
 70
0
 62
7
  6
CONTINUOUS
370
-3
390
F
  0
LAYER
  5
216
100
AcDbSymbolTableRecord
100
AcDbLayerTableRecord
  2
TRASH
 70
0
 62
7
  6
CONTINUOUS
370
-3
390
F
  0
ENDTAB
  0
TABLE
  2
STYLE
  5
3
100
AcDbSymbolTable
 70
1
  0
STYLE
  5
11
100
AcDbSymbolTableRecord
100
AcDbTextStyleTableRecord
  2
STANDARD
 70
0
 40
0.0
 41
0.8
 50
0.0
 71
0
 42
0.2
  3
txt
  4

  0
STYLE
  5
217
100
AcDbSymbolTableRecord
100
AcDbTextStyleTableRecord
  2
TEXTSTYLE_1
 70
0
 40
0.0
 41
0.8
 50
0.0
 71
0
 42
0.2
  3
gdt
  4

  0
ENDTAB
  0
TABLE
  2
VIEW
  5
6
100
AcDbSymbolTable
 70
0
  0
ENDTAB
  0
TABLE
  2
UCS
  5
7
100
AcDbSymbolTable
 70
0
  0
ENDTAB
  0
TABLE
  2
APPID
  5
9
100
AcDbSymbolTable
 70
1
  0
APPID
  5
218
100
AcDbSymbolTableRecord
100
AcDbRegAppTableRecord
  2
ACAD
 70
0
  0
ENDTAB
  0
TABLE
  2
BLOCK_RECORD
  5
1
100
AcDbSymbolTable
 70
0
  0
BLOCK_RECORD
  5
219
100
AcDbSymbolTableRecord
100
AcDbBlockTableRecord
  2
*Model_Space
  0
BLOCK_RECORD
  5
21A
100
AcDbSymbolTableRecord
100
AcDbBlockTableRecord
  2
*Paper_Space
  0
BLOCK_RECORD
  5
21B
100
AcDbSymbolTableRecord
100
AcDbBlockTableRecord
  2
_FILLED
  0
ENDTAB
  0
TABLE
  2
DIMSTYLE
  5
A
100
AcDbSymbolTable
 70
1
100
AcDbDimStyleTable
 71
0
  0
DIMSTYLE
105
21C
100
AcDbSymbolTableRecord
100
AcDbDimStyleTableRecord
  2
STANDARD
 70
0
  3

  4

 40
1.0
 41
3.0
 42
0.5
 43
0.38
 44
1.5
 45
0.0
 46
0.0
 47
0.01
 48
0.01
140
3.0
141
0.0
142
0.0
143
25.4
144
1.0
145
0.0
146
1.0
147
0.625
 71
1
 72
0
 73
0
 74
0
 75
0
 76
0
 77
1
 78
8
 79
2
170
0
171
1
172
0
173
0
174
0
175
0
176
0
177
0
178
0
270
2
179
2
271
2
272
2
273
2
274
2
275
0
280
0
281
0
282
0
283
1
284
8
285
0
286
0
287
3
288
0
340
11
278
44
341
21B
342
21B
343
21B
344
21B
  0
ENDTAB
  0
ENDSEC
  0
SECTION
  2
BLOCKS
  0
BLOCK
  5
20
100
AcDbEntity
  8
0
100
AcDbBlockBegin
  2
*Model_Space
 70
0
 10
0.0
 20
0.0
 30
0.0
  3
*Model_Space
  1

  0
ENDBLK
  5
21
100
AcDbEntity
  8
0
100
AcDbBlockEnd
  0
BLOCK
  5
1C
100
AcDbEntity
  8
0
100
AcDbBlockBegin
  2
*Paper_Space
 70
0
 10
0.0
 20
0.0
 30
0.0
  3
*Paper_Space
  1

  0
ENDBLK
  5
1D
100
AcDbEntity
  8
0
100
AcDbBlockEnd
  0
BLOCK
  5
21D
100
AcDbEntity
  8
0
100
AcDbBlockBegin
  2
_FILLED
 70
64
 10
0.0
 20
0.0
 30
0.0
  3
_FILLED
  1

  0
SOLID
  5
21E
100
AcDbEntity
  8
0
  6
BYBLOCK
 62
0
100
AcDbTrace
 10
0.0
 20
0.0
 30
0.0
 11
-1.0
 21
0.3166666667
 31
0.0
 12
-1.0
 22
-0.3166666667
 32
0.0
 13
-1.0
 23
-0.3166666667
 33
0.0
  0
ENDBLK
  5
21F
100
AcDbEntity
  8
0
  6
BYBLOCK
 62
0
100
AcDbBlockEnd
  0
ENDSEC
  0
SECTION
  2
ENTITIES
  0
LWPOLYLINE
  5
220
100
AcDbEntity
  8
RACCORDO
100
AcDbPolyline
 62
7
  6
CONTINUOUS
 90
15
 70
0
 10
62.6930967785
 20
153.9790828068
 10
62.6699186619
 20
153.9594165512
 10
62.5792551213
 20
153.8743715534
 10
62.4935823468
 20
153.7805513974
 10
62.4131134432
 20
153.6782644241
 10
62.338038664
 20
153.5676881634
 10
62.2685931655
 20
153.4489353489
 10
62.2050499749
 20
153.3222137627
 10
62.1476304178
 20
153.1878734009
 10
62.0964543173
 20
153.0463189262
 10
62.0516050789
 20
152.8977243341
 10
62.013224148
 20
152.7421783672
 10
61.9815515192
 20
152.579933311
 10
61.9567580243
 20
152.4114243565
 10
61.9453073128
 20
152.308261251
  0
LINE
  5
221
100
AcDbEntity
  8
SUPERFICI
100
AcDbLine
 62
7
  6
CONTINUOUS
 10
62.6915718627
 20
153.9778140239
 30
0.0
 11
64.6273841218
 21
155.5915626286
 31
0.0
  0
LINE
  5
222
100
AcDbEntity
  8
RACCORDO
100
AcDbLine
 62
7
  6
CONTINUOUS
 10
62.6915716945
 20
153.9778138837
 30
0.0
 11
62.6930795236
 21
153.9790689502
 31
0.0
  0
LWPOLYLINE
  5
223
100
AcDbEntity
  8
RACCORDO
100
AcDbPolyline
 62
7
  6
CONTINUOUS
 90
9
 70
0
 10
60.8124588366
 20
136.3112778723
 10
60.7418093127
 20
134.4220282006
 10
60.6807481156
 20
132.4742470373
 10
60.6289768113
 20
130.4678751729
 10
60.5859284261
 20
128.4026914644
 10
60.5513164412
 20
126.2785608997
 10
60.5257363411
 20
124.0958557699
 10
60.5099571796
 20
121.8550729925
 10
60.5047361902
 20
119.622522596
  0
LINE
  5
224
100
AcDbEntity
  8
RACCORDO
100
AcDbLine
 62
250
  6
CONTINUOUS
 10
60.9518622275
 20
137.9740519112
 30
0.0
 11
60.9584301298
 21
138.1132237877
 31
0.0
  0
LINE
  5
225
100
AcDbEntity
  8
RACCORDO
100
AcDbLine
 62
7
  6
CONTINUOUS
 10
60.8964088681
 20
138.219085596
 30
0.0
 11
60.8124588366
 21
136.3112778723
 31
0.0
  0
LWPOLYLINE
  5
226
100
AcDbEntity
  8
RACCORDO
100
AcDbPolyline
 62
7
  6
CONTINUOUS
 90
9
 70
0
 10
61.7678036417
 20
150.4832643779
 10
61.6258641107
 20
148.9265659155
 10
61.4932303327
 20
147.3740582485
 10
61.3699092052
 20
145.8258209854
 10
61.2559072708
 20
144.2819354017
 10
61.151230629
 20
142.7424820724
 10
61.0558849477
 20
141.2075418017
 10
60.9698754182
 20
139.677195808
 10
60.8964088676
 20
138.2190855845
  0
LINE
  5
227
100
AcDbEntity
  8
RACCORDO
100
AcDbLine
 62
7
  6
CONTINUOUS
 10
61.9453195326
 20
152.3083821945
 30
0.0
 11
61.7678036417
 21
150.4832643779
 31
0.0
  0
LWPOLYLINE
  5
228
100
AcDbEntity
  8
RACCORDO
100
AcDbPolyline
 62
7
  6
CONTINUOUS
 90
15
 70
0
 10
119.5863851773
 20
52.4944239521
 10
119.6861281343
 20
52.4504603301
 10
119.8436854449
 20
52.3876974139
 10
119.9991779427
 20
52.3339886163
 10
120.1521467864
 20
52.2894001899
 10
120.3022900243
 20
52.2538454243
 10
120.4494712601
 20
52.2272314762
 10
120.5935034849
 20
52.2095955957
 10
120.7339807359
 20
52.2010213365
 10
120.8705043276
 20
52.2014981494
 10
121.0027665578
 20
52.2108984239
 10
121.1305654632
 20
52.2290731887
 10
121.2536426181
 20
52.2559685568
 10
121.37164204
 20
52.291534046
 10
121.400792431
 20
52.3019495061
  0
LWPOLYLINE
  5
229
100
AcDbEntity
  8
RACCORDO
100
AcDbPolyline
 62
7
  6
CONTINUOUS
 90
9
 70
0
 10
97.0767334864
 20
63.8757094407
 10
100.0529374613
 20
62.2339276266
 10
102.9769321575
 20
60.6587965516
 10
105.8504812035
 20
59.1520364021
 10
108.6712053142
 20
57.7128268641
 10
111.4356755477
 20
56.3395159228
 10
114.140619661
 20
55.0304365473
 10
116.7827758424
 20
53.7838727457
 10
119.5864926698
 20
52.4943754185
  0
LINE
  5
22A
100
AcDbEntity
  8
RACCORDO
100
AcDbLine
 62
250
  6
CONTINUOUS
 10
94.1279746779
 20
65.6054416972
 30
0.0
 11
94.0183916803
 21
65.6675674955
 31
0.0
  0
LINE
  5
22B
100
AcDbEntity
  8
RACCORDO
100
AcDbLine
 62
7
  6
CONTINUOUS
 10
93.7298389882
 20
65.7602806518
 30
0.0
 11
97.0767334864
 21
63.8757094407
 31
0.0
  0
LWPOLYLINE
  5
22C
100
AcDbEntity
  8
RACCORDO
100
AcDbPolyline
 62
7
  6
CONTINUOUS
 90
3
 70
0
 10
91.3003074836
 20
67.1492179326
 10
91.7042097283
 20
66.9171327564
 10
93.7298389882
 20
65.7602806518
  0
LWPOLYLINE
  5
22D
100
AcDbEntity
  8
RACCORDO
100
AcDbPolyline
 62
7
  6
CONTINUOUS
 90
9
 70
0
 10
60.9702323104
 20
100.0967722852
 10
61.0562995087
 20
98.6650444222
 10
61.1517076455
 20
97.2394355602
 10
61.2564520272
 20
95.8200191585
 10
61.3705274045
 20
94.4068697106
 10
61.4939281289
 20
93.0000605644
 10
61.6266479998
 20
91.5996660957
 10
61.7686805118
 20
90.2057583266
 10
61.9131092376
 20
88.879802346
  0
LINE
  5
22E
100
AcDbEntity
  8
RACCORDO
100
AcDbLine
 62
7
  6
CONTINUOUS
 10
60.8898702645
 20
101.6075575143
 30
0.0
 11
60.9702323104
 21
100.0967722852
 31
0.0
  0
LINE
  5
22F
100
AcDbEntity
  8
RACCORDO
100
AcDbLine
 62
250
  6
CONTINUOUS
 10
60.9584354057
 20
101.3720574173
 30
0.0
 11
60.9462630769
 21
101.6104299313
 31
0.0
  0
LWPOLYLINE
  5
230
100
AcDbEntity
  8
RACCORDO
100
AcDbPolyline
 62
7
  6
CONTINUOUS
 90
10
 70
0
 10
60.5047361902
 20
119.6225236413
 10
60.5099829778
 20
117.3905186599
 10
60.5257883969
 20
115.1678799045
 10
60.5513972092
 20
113.0146011949
 10
60.5860301645
 20
110.9302939011
 10
60.6291144271
 20
108.9146305541
 10
60.6809150571
 20
106.9677840878
 10
60.7420188337
 20
105.090178045
 10
60.8127112958
 20
103.2820837374
 10
60.8898702502
 20
101.6075578003
  0
LINE
  5
231
100
AcDbEntity
  8
RACCORDO
100
AcDbLine
 62
250
  6
CONTINUOUS
 10
90.5765456989
 20
67.6368493866
 30
0.0
 11
90.4858421526
 21
67.6891687831
 31
0.0
  0
LINE
  5
232
100
AcDbEntity
  8
RACCORDO
100
AcDbLine
 62
7
  6
CONTINUOUS
 10
89.3958847987
 20
68.2499147717
 30
0.0
 11
91.3003074836
 21
67.1492179326
 31
0.0
  0
LINE
  5
233
100
AcDbEntity
  8
RACCORDO
100
AcDbLine
 62
7
  6
CONTINUOUS
 10
87.3922282319
 20
69.4194942166
 30
0.0
 11
89.3958847987
 21
68.2499147717
 31
0.0
  0
LINE
  5
234
100
AcDbEntity
  8
RACCORDO
100
AcDbLine
 62
7
  6
CONTINUOUS
 10
87.026111882
 20
69.6344959623
 30
0.0
 11
87.3922282319
 21
69.4194942166
 31
0.0
  0
LINE
  5
235
100
AcDbEntity
  8
RACCORDO
100
AcDbLine
 62
250
  6
CONTINUOUS
 10
87.0750819472
 20
69.6756622608
 30
0.0
 11
86.9660904035
 21
69.7396692912
 31
0.0
  0
LWPOLYLINE
  5
236
100
AcDbEntity
  8
RACCORDO
100
AcDbPolyline
 62
7
  6
CONTINUOUS
 90
10
 70
0
 10
64.6326463124
 20
84.1889292488
 10
66.6423159704
 20
82.734092104
 10
68.8027877954
 20
81.207656065
 10
71.0713890076
 20
79.6450684473
 10
73.4511219643
 20
78.048193346
 10
75.9448265753
 20
76.4189473959
 10
78.555337705
 20
74.7593256583
 10
81.2840332554
 20
73.0707156015
 10
84.1279542837
 20
71.35208038
 10
87.0261094241
 20
69.634497407
  0
LINE
  5
237
100
AcDbEntity
  8
RACCORDO
100
AcDbLine
 62
7
  6
CONTINUOUS
 10
64.4037236269
 20
84.3566337133
 30
0.0
 11
64.6326451613
 21
84.188930092
 31
0.0
  0
LINE
  5
238
100
AcDbEntity
  8
RACCORDO
100
AcDbLine
 62
250
  6
CONTINUOUS
 10
64.6620486067
 20
84.2291272363
 30
0.0
 11
64.347167322
 21
84.4597092977
 31
0.0
  0
LWPOLYLINE
  5
239
100
AcDbEntity
  8
RACCORDO
100
AcDbPolyline
 62
7
  6
CONTINUOUS
 90
31
 70
0
 10
61.9457295977
 20
88.5898948813
 10
61.9571993664
 20
88.4971803856
 10
61.9810185661
 20
88.3438383692
 10
62.0110815706
 20
88.1878272438
 10
62.0471739701
 20
88.029676195
 10
62.0890614647
 20
87.8697389757
 10
62.1365704365
 20
87.7081975727
 10
62.1895567942
 20
87.5454240107
 10
62.2478573691
 20
87.3818612812
 10
62.3113373333
 20
87.2177834038
 10
62.3797348371
 20
87.053647563
 10
62.4527881689
 20
86.8898684191
 10
62.5303754901
 20
86.7266803459
 10
62.6123088755
 20
86.5645223036
 10
62.6983549369
 20
86.4038442444
 10
62.7883358421
 20
86.2449053209
 10
62.8820015268
 20
86.0881167146
 10
62.9791151766
 20
85.9338995569
 10
63.0795340141
 20
85.7825333826
 10
63.1829852278
 20
85.6344466751
 10
63.2891723027
 20
85.4900076177
 10
63.3979546485
 20
85.3494433177
 10
63.509096225
 20
85.2131852284
 10
63.622327039
 20
85.0816814089
 10
63.7374745191
 20
84.9551877757
 10
63.8542344597
 20
84.8340436455
 10
63.9723520648
 20
84.7185811171
 10
64.0917501429
 20
84.6090233044
 10
64.2122177628
 20
84.5057696282
 10
64.3334042921
 20
84.4092549382
 10
64.4038860375
 20
84.3565146459
  0
LINE
  5
23A
100
AcDbEntity
  8
RACCORDO
100
AcDbLine
 62
7
  6
CONTINUOUS
 10
61.9131093326
 20
88.8798015005
 30
0.0
 11
61.9457521177
 21
88.5896980044
 31
0.0
  0
LINE
  5
23B
100
AcDbEntity
  8
RACCORDO
100
AcDbLine
 62
250
  6
CONTINUOUS
 10
61.9861146653
 20
88.6799258186
 30
0.0
 11
61.9630624061
 21
88.8852345571
 31
0.0
  0
LINE
  5
23C
100
AcDbEntity
  8
RACCORDO
100
AcDbLine
 62
7
  6
CONTINUOUS
 10
81.5468055532
 20
124.3259809052
 30
0.0
 11
81.5468354566
 21
124.3259969898
 31
0.0
  0
LINE
  5
23D
100
AcDbEntity
  8
0
100
AcDbLine
 62
7
  6
CONTINUOUS
 10
92.7511884981
 20
76.5910424318
 30
0.0
 11
92.3934156022
 21
76.7942982107
 31
0.0
  0
LINE
  5
23E
100
AcDbEntity
  8
0
100
AcDbLine
 62
7
  6
CONTINUOUS
 10
91.9700336527
 20
77.7725801619
 30
0.0
 11
91.7709243182
 21
77.8860652235
 31
0.0
  0
LINE
  5
23F
100
AcDbEntity
  8
0
100
AcDbLine
 62
7
  6
CONTINUOUS
 10
91.7370108976
 20
78.2148717618
 30
0.0
 11
91.9492310545
 21
78.093910515
 31
0.0
  0
LINE
  5
240
100
AcDbEntity
  8
0
100
AcDbLine
 62
7
  6
CONTINUOUS
 10
91.8244813824
 20
77.1182694865
 30
0.0
 11
91.4548872396
 21
77.3292256227
 31
0.0
  0
LINE
  5
241
100
AcDbEntity
  8
0
100
AcDbLine
 62
7
  6
CONTINUOUS
 10
91.3459832532
 20
77.391460186
 30
0.0
 11
90.9553504191
 21
77.6149732646
 31
0.0
  0
LINE
  5
242
100
AcDbEntity
  8
0
100
AcDbLine
 62
7
  6
CONTINUOUS
 10
90.8317330138
 20
78.0614207827
 30
0.0
 11
90.3276779406
 21
78.3506214608
 31
0.0
  0
LINE
  5
243
100
AcDbEntity
  8
0
100
AcDbLine
 62
7
  6
CONTINUOUS
 10
90.3824317182
 20
78.6103628613
 30
0.0
 11
90.7368057051
 21
78.4070423312
 31
0.0
  0
LINE
  5
244
100
AcDbEntity
  8
0
100
AcDbLine
 62
7
  6
CONTINUOUS
 10
90.3117935821
 20
79.8737410469
 30
0.0
 11
90.6698631152
 21
79.6683147545
 31
0.0
  0
LINE
  5
245
100
AcDbEntity
  8
0
100
AcDbLine
 62
7
  6
CONTINUOUS
 10
90.2532844064
 20
78.0177887162
 30
0.0
 11
89.8876643757
 21
78.2281306372
 31
0.0
  0
LINE
  5
246
100
AcDbEntity
  8
0
100
AcDbLine
 62
7
  6
CONTINUOUS
 10
89.8296529849
 20
78.2615403652
 30
0.0
 11
89.4684394756
 21
78.4697893761
 31
0.0
  0
LINE
  5
247
100
AcDbEntity
  8
0
100
AcDbLine
 62
7
  6
CONTINUOUS
 10
89.1675971555
 20
80.5326627254
 30
0.0
 11
89.5327684778
 21
80.3219539385
 31
0.0
  0
LINE
  5
248
100
AcDbEntity
  8
0
100
AcDbLine
 62
7
  6
CONTINUOUS
 10
88.9541225688
 20
78.7669626775
 30
0.0
 11
88.9024306406
 21
78.7968731093
 31
0.0
  0
LINE
  5
249
100
AcDbEntity
  8
0
100
AcDbLine
 62
7
  6
CONTINUOUS
 10
88.0665955171
 20
81.1703143812
 30
0.0
 11
88.4343480526
 21
80.9569331754
 31
0.0
  0
LINE
  5
24A
100
AcDbEntity
  8
0
100
AcDbLine
 62
7
  6
CONTINUOUS
 10
88.390885107
 20
79.0932900044
 30
0.0
 11
88.0389233959
 21
79.2976816529
 31
0.0
  0
LINE
  5
24B
100
AcDbEntity
  8
0
100
AcDbLine
 62
7
  6
CONTINUOUS
 10
87.8410093141
 20
79.4127747524
 30
0.0
 11
87.4736294063
 21
79.6267238585
 31
0.0
  0
LINE
  5
24C
100
AcDbEntity
  8
0
100
AcDbLine
 62
7
  6
CONTINUOUS
 10
87.3421900923
 20
81.5919150589
 30
0.0
 11
87.7095700006
 21
81.3779659459
 31
0.0
  0
LINE
  5
24D
100
AcDbEntity
  8
0
100
AcDbLine
 62
7
  6
CONTINUOUS
 10
86.8392914028
 20
81.8853191001
 30
0.0
 11
87.2059490771
 21
81.671244481
 31
0.0
  0
LINE
  5
24E
100
AcDbEntity
  8
0
100
AcDbLine
 62
7
  6
CONTINUOUS
 10
86.7725172186
 20
80.0361357452
 30
0.0
 11
86.4496275955
 21
80.2251771511
 31
0.0
  0
LINE
  5
24F
100
AcDbEntity
  8
0
100
AcDbLine
 62
7
  6
CONTINUOUS
 10
85.762358399
 20
82.5164033299
 30
0.0
 11
86.1598524495
 21
82.2830684329
 31
0.0
  0
LINE
  5
250
100
AcDbEntity
  8
RACCORDO
100
AcDbLine
 62
7
  6
CONTINUOUS
 10
93.6369902325
 20
85.7409926354
 30
0.0
 11
92.8156240006
 21
85.5631189065
 31
0.0
  0
LINE
  5
251
100
AcDbEntity
  8
RACCORDO
100
AcDbLine
 62
7
  6
CONTINUOUS
 10
83.8574279328
 20
88.9624159434
 30
0.0
 11
97.2179152179
 21
81.2482380311
 31
0.0
  0
LINE
  5
252
100
AcDbEntity
  8
DRAFT
100
AcDbLine
 62
7
  6
CONTINUOUS
 10
91.2890665603
 20
84.7694891553
 30
0.0
 11
95.6517958925
 21
82.2505039168
 31
0.0
  0
LINE
  5
253
100
AcDbEntity
  8
DRAFT
100
AcDbLine
 62
7
  6
CONTINUOUS
 10
91.4378994957
 20
84.8468647211
 30
0.0
 11
95.8863130022
 21
82.2784183506
 31
0.0
  0
LINE
  5
254
100
AcDbEntity
  8
DRAFT
100
AcDbLine
 62
7
  6
CONTINUOUS
 10
91.6611488989
 20
84.9629280696
 30
0.0
 11
95.986820335
 21
82.4653395958
 31
0.0
  0
LINE
  5
255
100
AcDbEntity
  8
DRAFT
100
AcDbLine
 62
7
  6
CONTINUOUS
 10
91.8099818344
 20
85.0403036353
 30
0.0
 11
96.2213374448
 21
82.4932540297
 31
0.0
  0
LINE
  5
256
100
AcDbEntity
  8
DRAFT
100
AcDbLine
 62
7
  6
CONTINUOUS
 10
92.0332312376
 20
85.1563669839
 30
0.0
 11
96.3218447775
 21
82.6801752749
 31
0.0
  0
LINE
  5
257
100
AcDbEntity
  8
DRAFT
100
AcDbLine
 62
7
  6
CONTINUOUS
 10
92.1820641731
 20
85.2337425496
 30
0.0
 11
96.5563618873
 21
82.7080897087
 31
0.0
  0
LINE
  5
258
100
AcDbEntity
  8
DRAFT
100
AcDbLine
 62
7
  6
CONTINUOUS
 10
92.4053135762
 20
85.3498058982
 30
0.0
 11
96.6568692201
 21
82.8950109539
 31
0.0
  0
LINE
  5
259
100
AcDbEntity
  8
DRAFT
100
AcDbLine
 62
7
  6
CONTINUOUS
 10
92.5541465117
 20
85.4271814639
 30
0.0
 11
96.8913863298
 21
82.9229253878
 31
0.0
  0
LINE
  5
25A
100
AcDbEntity
  8
DRAFT
100
AcDbLine
 62
7
  6
CONTINUOUS
 10
92.7773959149
 20
85.5432448124
 30
0.0
 11
96.9918936626
 21
83.109846633
 31
0.0
  0
LINE
  5
25B
100
AcDbEntity
  8
RACCORDO
100
AcDbLine
 62
250
  6
CONTINUOUS
 10
93.6369902325
 20
85.7409926354
 30
0.0
 11
97.1337906709
 21
83.7219838874
 31
0.0
  0
LINE
  5
25C
100
AcDbEntity
  8
RACCORDO
100
AcDbLine
 62
7
  6
CONTINUOUS
 10
93.7824448322
 20
85.7246587447
 30
0.0
 11
97.1316520251
 21
83.7908684869
 31
0.0
  0
LINE
  5
25D
100
AcDbEntity
  8
RACCORDO
100
AcDbLine
 62
7
  6
CONTINUOUS
 10
83.5039283901
 20
123.1761440345
 30
0.0
 11
83.5039283901
 21
89.5746951111
 31
0.0
  0
LINE
  5
25E
100
AcDbEntity
  8
0
100
AcDbLine
 62
7
  6
CONTINUOUS
 10
91.4548871247
 20
77.3292257004
 30
0.0
 11
91.4478796284
 21
77.4274131505
 31
0.0
  0
LINE
  5
25F
100
AcDbEntity
  8
0
100
AcDbLine
 62
7
  6
CONTINUOUS
 10
92.3452822439
 20
77.712686858
 30
0.0
 11
92.3460620683
 21
77.7010768258
 31
0.0
  0
LINE
  5
260
100
AcDbEntity
  8
0
100
AcDbLine
 62
7
  6
CONTINUOUS
 10
91.7018713408
 20
78.7548658469
 30
0.0
 11
91.7370108618
 21
78.2148717897
 31
0.0
  0
LWPOLYLINE
  5
261
100
AcDbEntity
  8
RACCORDO
100
AcDbPolyline
 62
7
  6
CONTINUOUS
 90
9
 70
0
 10
97.311892309
 20
79.0148494949
 10
97.3123234659
 20
78.999181533
 10
97.3120204497
 20
78.9819640826
 10
97.3109400465
 20
78.9666123173
 10
97.3092176092
 20
78.9531629673
 10
97.3070428961
 20
78.9418682748
 10
97.3047363852
 20
78.9331464547
 10
97.3026520184
 20
78.927082107
 10
97.3017837568
 20
78.9249723316
  0
LINE
  5
262
100
AcDbEntity
  8
0
100
AcDbLine
 62
7
  6
CONTINUOUS
 10
90.3595269536
 20
78.2723795004
 30
0.0
 11
90.3714229113
 21
78.3254931768
 31
0.0
  0
LINE
  5
263
100
AcDbEntity
  8
0
100
AcDbLine
 62
7
  6
CONTINUOUS
 10
89.8876643754
 20
78.2281306409
 30
0.0
 11
89.9033189257
 21
78.289984118
 31
0.0
  0
LWPOLYLINE
  5
264
100
AcDbEntity
  8
RACCORDO
100
AcDbPolyline
 62
7
  6
CONTINUOUS
 90
10
 70
0
 10
96.9510960975
 20
96.6700128518
 10
96.9560112663
 20
94.4891498955
 10
96.9708770193
 20
92.3108018795
 10
96.9949762963
 20
90.2004093139
 10
97.0275932539
 20
88.1575960255
 10
97.0680913894
 20
86.182001962
 10
97.116660246
 20
84.2737453883
 10
97.1738028754
 20
82.4332129402
 10
97.2397883899
 20
80.6606664267
 10
97.3118904807
 20
79.0148880728
  0
LINE
  5
265
100
AcDbEntity
  8
RACCORDO
100
AcDbLine
 62
7
  6
CONTINUOUS
 10
97.0263143856
 20
82.5532060304
 30
0.0
 11
97.0263143856
 21
83.1319190506
 31
0.0
  0
LWPOLYLINE
  5
266
100
AcDbEntity
  8
RACCORDO
100
AcDbPolyline
 62
7
  6
CONTINUOUS
 90
10
 70
0
 10
97.3118557845
 20
114.7554219742
 10
97.2399797127
 20
113.0292466225
 10
97.1739688698
 20
111.1779952623
 10
97.1168007446
 20
109.2692909993
 10
97.0682107988
 20
107.3030781852
 10
97.0276826574
 20
105.279141951
 10
96.9950484338
 20
103.1974016155
 10
96.9709259759
 20
101.0582511629
 10
96.9560356585
 20
98.862169413
 10
96.9510960975
 20
96.6700119702
  0
LINE
  5
267
100
AcDbEntity
  8
DRAFT
100
AcDbLine
 62
7
  6
CONTINUOUS
 10
91.2444043542
 20
84.6972683382
 30
0.0
 11
91.2890665603
 21
84.7694891553
 31
0.0
  0
LINE
  5
268
100
AcDbEntity
  8
DRAFT
100
AcDbLine
 62
7
  6
CONTINUOUS
 10
91.5495241973
 20
84.7824258538
 30
0.0
 11
91.6611488989
 21
84.9629280696
 31
0.0
  0
LINE
  5
269
100
AcDbEntity
  8
DRAFT
100
AcDbLine
 62
7
  6
CONTINUOUS
 10
91.921606536
 20
84.9758647681
 30
0.0
 11
92.0332312376
 21
85.1563669839
 31
0.0
  0
LINE
  5
26A
100
AcDbEntity
  8
DRAFT
100
AcDbLine
 62
7
  6
CONTINUOUS
 10
92.2936888746
 20
85.1693036824
 30
0.0
 11
92.4053135762
 21
85.3498058982
 31
0.0
  0
LINE
  5
26B
100
AcDbEntity
  8
DRAFT
100
AcDbLine
 62
7
  6
CONTINUOUS
 10
92.6657712133
 20
85.3627425966
 30
0.0
 11
92.7773959149
 21
85.5432448124
 31
0.0
  0
LINE
  5
26C
100
AcDbEntity
  8
RACCORDO
100
AcDbLine
 62
7
  6
CONTINUOUS
 10
95.6307620348
 20
116.1857531227
 30
0.0
 11
96.9189346238
 21
115.4697213386
 31
0.0
  0
LINE
  5
26D
100
AcDbEntity
  8
RACCORDO
100
AcDbLine
 62
7
  6
CONTINUOUS
 10
94.2059163362
 20
116.9846119559
 30
0.0
 11
95.6307620348
 21
116.1857531227
 31
0.0
  0
LINE
  5
26E
100
AcDbEntity
  8
RACCORDO
100
AcDbLine
 62
250
  6
CONTINUOUS
 10
92.6938682627
 20
117.9558410097
 30
0.0
 11
92.8056759874
 21
117.8924812477
 31
0.0
  0
LINE
  5
26F
100
AcDbEntity
  8
RACCORDO
100
AcDbLine
 62
7
  6
CONTINUOUS
 10
92.4000311738
 20
118.0062962553
 30
0.0
 11
94.2059163362
 21
116.9846119559
 31
0.0
  0
LINE
  5
270
100
AcDbEntity
  8
RACCORDO
100
AcDbLine
 62
7
  6
CONTINUOUS
 10
90.3640176879
 20
119.1692843236
 30
0.0
 11
92.4000311738
 21
118.0062962553
 31
0.0
  0
LINE
  5
271
100
AcDbEntity
  8
RACCORDO
100
AcDbLine
 62
250
  6
CONTINUOUS
 10
89.1425661617
 20
119.9884281896
 30
0.0
 11
89.2544863718
 21
119.9238697567
 31
0.0
  0
LINE
  5
272
100
AcDbEntity
  8
RACCORDO
100
AcDbLine
 62
7
  6
CONTINUOUS
 10
88.4473653754
 20
120.2748378842
 30
0.0
 11
90.3640176879
 21
119.1692843236
 31
0.0
  0
LWPOLYLINE
  5
273
100
AcDbEntity
  8
RACCORDO
100
AcDbPolyline
 62
7
  6
CONTINUOUS
 90
12
 70
0
 10
96.9189675396
 20
115.4697031308
 10
96.9347285043
 20
115.4605463154
 10
96.9572734825
 20
115.4459788195
 10
96.9808789728
 20
115.4289073416
 10
97.0051324772
 20
115.409431756
 10
97.029796383
 20
115.3875795115
 10
97.0546523678
 20
115.3633888642
 10
97.0793511112
 20
115.3370690444
 10
97.1036622945
 20
115.3087635155
 10
97.1273996359
 20
115.2785962474
 10
97.150307737
 20
115.2468170177
 10
97.1737250303
 20
115.2112064445
  0
LINE
  5
274
100
AcDbEntity
  8
RACCORDO
100
AcDbLine
 62
7
  6
CONTINUOUS
 10
86.4314558429
 20
121.4490593738
 30
0.0
 11
88.4473653754
 21
120.2748378842
 31
0.0
  0
LINE
  5
275
100
AcDbEntity
  8
RACCORDO
100
AcDbLine
 62
250
  6
CONTINUOUS
 10
85.6228004508
 20
122.0385869429
 30
0.0
 11
85.7347874902
 21
121.9728475499
 31
0.0
  0
LINE
  5
276
100
AcDbEntity
  8
RACCORDO
100
AcDbLine
 62
7
  6
CONTINUOUS
 10
84.7413278048
 20
122.442715354
 30
0.0
 11
86.4314558429
 21
121.4490593738
 31
0.0
  0
LINE
  5
277
100
AcDbEntity
  8
RACCORDO
100
AcDbLine
 62
7
  6
CONTINUOUS
 10
83.3271891353
 20
123.2812426416
 30
0.0
 11
84.7413278048
 21
122.442715354
 31
0.0
  0
LINE
  5
278
100
AcDbEntity
  8
RACCORDO
100
AcDbLine
 62
7
  6
CONTINUOUS
 10
81.6431042069
 20
124.2897969346
 30
0.0
 11
83.3271891353
 21
123.2812426416
 31
0.0
  0
LINE
  5
279
100
AcDbEntity
  8
RACCORDO
100
AcDbLine
 62
250
  6
CONTINUOUS
 10
81.5815966933
 20
124.4411147613
 30
0.0
 11
81.6935987585
 21
124.373749045
 31
0.0
  0
LWPOLYLINE
  5
27A
100
AcDbEntity
  8
RACCORDO
100
AcDbPolyline
 62
7
  6
CONTINUOUS
 90
15
 70
0
 10
97.1737261706
 20
115.2112046232
 10
97.190745556
 20
115.1829979683
 10
97.209843379
 20
115.1485557954
 10
97.2276056021
 20
115.113278699
 10
97.2438572744
 20
115.0775018483
 10
97.2585029988
 20
115.0414575067
 10
97.2714600766
 20
115.0053959613
 10
97.2826285064
 20
114.9696988527
 10
97.2919897389
 20
114.934595999
 10
97.2995386198
 20
114.90033855
 10
97.3052668118
 20
114.8673474281
 10
97.3092434074
 20
114.835832879
 10
97.3115595368
 20
114.8060052899
 10
97.3123314727
 20
114.7782628059
 10
97.3118573881
 20
114.7554576952
  0
LINE
  5
27B
100
AcDbEntity
  8
DRAFT
100
AcDbLine
 62
7
  6
CONTINUOUS
 10
95.6115818615
 20
82.1757147791
 30
0.0
 11
95.6517958925
 21
82.2505039168
 31
0.0
  0
LINE
  5
27C
100
AcDbEntity
  8
DRAFT
100
AcDbLine
 62
7
  6
CONTINUOUS
 10
95.8863130022
 20
82.2784183506
 30
0.0
 11
95.986820335
 21
82.4653395958
 31
0.0
  0
LINE
  5
27D
100
AcDbEntity
  8
DRAFT
100
AcDbLine
 62
7
  6
CONTINUOUS
 10
96.2213374448
 20
82.4932540297
 30
0.0
 11
96.3218447775
 21
82.6801752749
 31
0.0
  0
LINE
  5
27E
100
AcDbEntity
  8
DRAFT
100
AcDbLine
 62
7
  6
CONTINUOUS
 10
96.5563618873
 20
82.7080897087
 30
0.0
 11
96.6568692201
 21
82.8950109539
 31
0.0
  0
LINE
  5
27F
100
AcDbEntity
  8
DRAFT
100
AcDbLine
 62
7
  6
CONTINUOUS
 10
96.8913863298
 20
82.9229253878
 30
0.0
 11
96.9918936626
 21
83.109846633
 31
0.0
  0
LINE
  5
280
100
AcDbEntity
  8
RACCORDO
100
AcDbLine
 62
250
  6
CONTINUOUS
 10
97.0263143856
 20
82.5526909984
 30
0.0
 11
97.1634600292
 21
82.7663502879
 31
0.0
  0
LINE
  5
281
100
AcDbEntity
  8
RACCORDO
100
AcDbLine
 62
7
  6
CONTINUOUS
 10
97.1645841257
 20
82.7301437624
 30
0.0
 11
97.0087475893
 21
82.4873659186
 31
0.0
  0
LINE
  5
282
100
AcDbEntity
  8
RACCORDO
100
AcDbLine
 62
7
  6
CONTINUOUS
 10
97.0263143856
 20
83.1319190506
 30
0.0
 11
97.1463722071
 21
83.3167395752
 31
0.0
  0
LINE
  5
283
100
AcDbEntity
  8
0
100
AcDbLine
 62
7
  6
CONTINUOUS
 10
85.7623584001
 20
82.5164033112
 30
0.0
 11
85.8190600223
 21
82.5491421172
 31
0.0
  0
LINE
  5
284
100
AcDbEntity
  8
0
100
AcDbLine
 62
7
  6
CONTINUOUS
 10
86.1598524484
 20
82.2830684505
 30
0.0
 11
86.216553597
 21
82.3158069831
 31
0.0
  0
LINE
  5
285
100
AcDbEntity
  8
0
100
AcDbLine
 62
7
  6
CONTINUOUS
 10
86.8392914035
 20
81.8853190885
 30
0.0
 11
86.8959918757
 21
81.9180572305
 31
0.0
  0
LINE
  5
286
100
AcDbEntity
  8
0
100
AcDbLine
 62
7
  6
CONTINUOUS
 10
87.2059490765
 20
81.6712444919
 30
0.0
 11
87.2626492549
 21
81.7039824642
 31
0.0
  0
LINE
  5
287
100
AcDbEntity
  8
SMUSSO
100
AcDbLine
 62
7
  6
CONTINUOUS
 10
92.8156240006
 20
85.5631189065
 30
0.0
 11
92.7773959149
 21
85.5432448124
 31
0.0
  0
LINE
  5
288
100
AcDbEntity
  8
DRAFT
100
AcDbLine
 62
7
  6
CONTINUOUS
 10
92.5541465117
 20
85.4271814639
 30
0.0
 11
92.4053135762
 21
85.3498058982
 31
0.0
  0
LINE
  5
289
100
AcDbEntity
  8
DRAFT
100
AcDbLine
 62
7
  6
CONTINUOUS
 10
92.1820641731
 20
85.2337425496
 30
0.0
 11
92.0332312376
 21
85.1563669839
 31
0.0
  0
LINE
  5
28A
100
AcDbEntity
  8
DRAFT
100
AcDbLine
 62
7
  6
CONTINUOUS
 10
91.8099818344
 20
85.0403036353
 30
0.0
 11
91.6611488989
 21
84.9629280696
 31
0.0
  0
LINE
  5
28B
100
AcDbEntity
  8
DRAFT
100
AcDbLine
 62
7
  6
CONTINUOUS
 10
91.4378994957
 20
84.8468647211
 30
0.0
 11
91.2890665603
 21
84.7694891553
 31
0.0
  0
LINE
  5
28C
100
AcDbEntity
  8
RACCORDO
100
AcDbLine
 62
250
  6
CONTINUOUS
 10
96.2282946942
 20
81.8196325187
 30
0.0
 11
96.6017476208
 21
82.2118519476
 31
0.0
  0
LINE
  5
28D
100
AcDbEntity
  8
RACCORDO
100
AcDbLine
 62
7
  6
CONTINUOUS
 10
96.241838608
 20
81.8118124326
 30
0.0
 11
96.6570854956
 21
82.2479260242
 31
0.0
  0
LINE
  5
28E
100
AcDbEntity
  8
RACCORDO
100
AcDbLine
 62
250
  6
CONTINUOUS
 10
97.0263143856
 20
82.5532060304
 30
0.0
 11
96.0547335952
 21
81.919844522
 31
0.0
  0
LINE
  5
28F
100
AcDbEntity
  8
RACCORDO
100
AcDbLine
 62
7
  6
CONTINUOUS
 10
96.9800422792
 20
82.4584575596
 30
0.0
 11
96.1072720841
 21
81.889509457
 31
0.0
  0
LINE
  5
290
100
AcDbEntity
  8
DRAFT
100
AcDbLine
 62
7
  6
CONTINUOUS
 10
96.7908789971
 20
82.9809452256
 30
0.0
 11
96.6568692201
 21
82.8950109539
 31
0.0
  0
LINE
  5
291
100
AcDbEntity
  8
SMUSSO
100
AcDbLine
 62
7
  6
CONTINUOUS
 10
97.0263143856
 20
83.1319190506
 30
0.0
 11
96.9918936626
 21
83.109846633
 31
0.0
  0
LINE
  5
292
100
AcDbEntity
  8
DRAFT
100
AcDbLine
 62
7
  6
CONTINUOUS
 10
96.4558545545
 20
82.7661095465
 30
0.0
 11
96.3218447775
 21
82.6801752749
 31
0.0
  0
LINE
  5
293
100
AcDbEntity
  8
DRAFT
100
AcDbLine
 62
7
  6
CONTINUOUS
 10
96.120830112
 20
82.5512738675
 30
0.0
 11
95.986820335
 21
82.4653395958
 31
0.0
  0
LINE
  5
294
100
AcDbEntity
  8
DRAFT
100
AcDbLine
 62
7
  6
CONTINUOUS
 10
95.7858056695
 20
82.3364381884
 30
0.0
 11
95.6517958925
 21
82.2505039168
 31
0.0
  0
LINE
  5
295
100
AcDbEntity
  8
0
100
AcDbLine
 62
7
  6
CONTINUOUS
 10
87.3421900929
 20
81.5919150498
 30
0.0
 11
87.3988901729
 21
81.6246529654
 31
0.0
  0
LINE
  5
296
100
AcDbEntity
  8
0
100
AcDbLine
 62
7
  6
CONTINUOUS
 10
87.7095700001
 20
81.3779659541
 30
0.0
 11
87.7662698546
 21
81.4107037395
 31
0.0
  0
LINE
  5
297
100
AcDbEntity
  8
0
100
AcDbLine
 62
7
  6
CONTINUOUS
 10
88.0665955175
 20
81.1703143758
 30
0.0
 11
88.1232952029
 21
81.2030520636
 31
0.0
  0
LINE
  5
298
100
AcDbEntity
  8
0
100
AcDbLine
 62
7
  6
CONTINUOUS
 10
86.7725172186
 20
80.0361357452
 30
0.0
 11
86.8292533245
 21
80.0688944617
 31
0.0
  0
LINE
  5
299
100
AcDbEntity
  8
0
100
AcDbLine
 62
7
  6
CONTINUOUS
 10
88.4343480523
 20
80.9569331799
 30
0.0
 11
88.4910476107
 21
80.9896707943
 31
0.0
  0
LINE
  5
29A
100
AcDbEntity
  8
0
100
AcDbLine
 62
7
  6
CONTINUOUS
 10
89.1675971555
 20
80.5326627254
 30
0.0
 11
89.2242966057
 21
80.5654002773
 31
0.0
  0
LINE
  5
29B
100
AcDbEntity
  8
0
100
AcDbLine
 62
7
  6
CONTINUOUS
 10
87.8410093141
 20
79.4127747524
 30
0.0
 11
87.8977446252
 21
79.4455330099
 31
0.0
  0
LINE
  5
29C
100
AcDbEntity
  8
0
100
AcDbLine
 62
7
  6
CONTINUOUS
 10
89.5327684778
 20
80.3219539375
 30
0.0
 11
89.5894679443
 21
80.3546914988
 31
0.0
  0
LINE
  5
29D
100
AcDbEntity
  8
0
100
AcDbLine
 62
7
  6
CONTINUOUS
 10
88.390885107
 20
79.0932900044
 30
0.0
 11
88.4476201744
 21
79.1260481213
 31
0.0
  0
LINE
  5
29E
100
AcDbEntity
  8
0
100
AcDbLine
 62
7
  6
CONTINUOUS
 10
90.3117935817
 20
79.8737410528
 30
0.0
 11
90.3684932399
 21
79.9064787247
 31
0.0
  0
LINE
  5
29F
100
AcDbEntity
  8
0
100
AcDbLine
 62
7
  6
CONTINUOUS
 10
88.9541225688
 20
78.7669626778
 30
0.0
 11
89.010857501
 21
78.7997207166
 31
0.0
  0
LINE
  5
2A0
100
AcDbEntity
  8
0
100
AcDbLine
 62
7
  6
CONTINUOUS
 10
90.6698631156
 20
79.6683147479
 30
0.0
 11
90.7265629351
 21
79.7010525131
 31
0.0
  0
LINE
  5
2A1
100
AcDbEntity
  8
0
100
AcDbLine
 62
7
  6
CONTINUOUS
 10
91.3248880401
 20
79.2712803417
 30
0.0
 11
91.3815886581
 21
79.3040185679
 31
0.0
  0
LINE
  5
2A2
100
AcDbEntity
  8
0
100
AcDbLine
 62
7
  6
CONTINUOUS
 10
90.3824317177
 20
78.6103628676
 30
0.0
 11
90.4391535691
 21
78.6431133537
 31
0.0
  0
LINE
  5
2A3
100
AcDbEntity
  8
0
100
AcDbLine
 62
7
  6
CONTINUOUS
 10
89.8296529849
 20
78.2615403652
 30
0.0
 11
89.8863879288
 21
78.2942984108
 31
0.0
  0
LINE
  5
2A4
100
AcDbEntity
  8
0
100
AcDbLine
 62
7
  6
CONTINUOUS
 10
90.2532844064
 20
78.0177887162
 30
0.0
 11
90.3100194525
 21
78.0505468208
 31
0.0
  0
LINE
  5
2A5
100
AcDbEntity
  8
0
100
AcDbLine
 62
250
  6
CONTINUOUS
 10
92.2425922421
 20
78.7281886197
 30
0.0
 11
92.2992940484
 21
78.7609275321
 31
0.0
  0
LINE
  5
2A6
100
AcDbEntity
  8
0
100
AcDbLine
 62
7
  6
CONTINUOUS
 10
91.7370108971
 20
78.2148717696
 30
0.0
 11
91.7937264712
 21
78.2476186312
 31
0.0
  0
LINE
  5
2A7
100
AcDbEntity
  8
0
100
AcDbLine
 62
250
  6
CONTINUOUS
 10
91.949231055
 20
78.093910507
 30
0.0
 11
92.0059468242
 21
78.1266574813
 31
0.0
  0
LINE
  5
2A8
100
AcDbEntity
  8
0
100
AcDbLine
 62
7
  6
CONTINUOUS
 10
91.3459832532
 20
77.391460186
 30
0.0
 11
91.4027188618
 21
77.4242186154
 31
0.0
  0
LINE
  5
2A9
100
AcDbEntity
  8
0
100
AcDbLine
 62
7
  6
CONTINUOUS
 10
92.3460620683
 20
77.7010768258
 30
0.0
 11
92.3593663326
 21
77.7087585413
 31
0.0
  0
LINE
  5
2AA
100
AcDbEntity
  8
0
100
AcDbLine
 62
7
  6
CONTINUOUS
 10
91.8244813824
 20
77.1182694865
 30
0.0
 11
91.8812173735
 21
77.1510281367
 31
0.0
  0
LINE
  5
2AB
100
AcDbEntity
  8
0
100
AcDbLine
 62
250
  6
CONTINUOUS
 10
92.5866789825
 20
77.1940582326
 30
0.0
 11
92.6434055831
 21
77.2268114608
 31
0.0
  0
LINE
  5
2AC
100
AcDbEntity
  8
0
100
AcDbLine
 62
7
  6
CONTINUOUS
 10
92.7511884981
 20
76.5910424318
 30
0.0
 11
92.8079254608
 21
76.623801643
 31
0.0
  0
LWPOLYLINE
  5
2AD
100
AcDbEntity
  8
RACCORDO
100
AcDbPolyline
 62
7
  6
CONTINUOUS
 90
11
 70
0
 10
81.5441792049
 20
124.3248410351
 10
81.5454951371
 20
124.3249836907
 10
81.5495330148
 20
124.3250606808
 10
81.5558804058
 20
124.3245897181
 10
81.5644760411
 20
124.3232136984
 10
81.5752361613
 20
124.3206222963
 10
81.5879104056
 20
124.3165922063
 10
81.602249484
 20
124.3109659038
 10
81.6180736268
 20
124.3036129386
 10
81.6351753345
 20
124.2944489842
 10
81.6430259326
 20
124.2898441348
  0
LINE
  5
2AE
100
AcDbEntity
  8
RACCORDO
100
AcDbLine
 62
250
  6
CONTINUOUS
 10
120.7939779218
 20
66.9515612592
 30
0.0
 11
120.8005458241
 21
66.8199738317
 31
0.0
  0
LINE
  5
2AF
100
AcDbEntity
  8
RACCORDO
100
AcDbLine
 62
250
  6
CONTINUOUS
 10
120.8005458248
 20
103.5611361833
 30
0.0
 11
120.7939779225
 21
103.4219643072
 31
0.0
  0
LINE
  5
2B0
100
AcDbEntity
  8
RACCORDO
100
AcDbLine
 62
250
  6
CONTINUOUS
 10
94.0183916803
 20
134.7678252913
 30
0.0
 11
94.0371582153
 21
134.7571808364
 31
0.0
  0
LINE
  5
2B1
100
AcDbEntity
  8
RACCORDO
100
AcDbLine
 62
250
  6
CONTINUOUS
 10
94.1974325642
 20
135.0824174921
 30
0.0
 11
94.2161905334
 21
135.0717778955
 31
0.0
  0
LINE
  5
2B2
100
AcDbEntity
  8
RACCORDO
100
AcDbLine
 62
250
  6
CONTINUOUS
 10
86.9660904035
 20
138.8399267696
 30
0.0
 11
86.9845256777
 21
138.8290913661
 31
0.0
  0
LINE
  5
2B3
100
AcDbEntity
  8
RACCORDO
100
AcDbLine
 62
250
  6
CONTINUOUS
 10
87.1483458476
 20
139.1526628362
 30
0.0
 11
87.1667727281
 21
139.1418323666
 31
0.0
  0
LINE
  5
2B4
100
AcDbEntity
  8
RACCORDO
100
AcDbLine
 62
250
  6
CONTINUOUS
 10
76.2845932334
 20
145.366260705
 30
0.0
 11
76.2984919282
 21
145.3573550489
 31
0.0
  0
LWPOLYLINE
  5
2B5
100
AcDbEntity
  8
RACCORDO
100
AcDbPolyline
 62
7
  6
CONTINUOUS
 90
31
 70
0
 10
125.2733445487
 20
120.1418441132
 10
125.2728120757
 20
120.2012900846
 10
125.2674756
 20
120.3250795625
 10
125.2564698869
 20
120.4510679662
 10
125.2398914187
 20
120.5788720125
 10
125.2178431551
 20
120.7081704094
 10
125.1904112642
 20
120.8386776266
 10
125.1576931694
 20
120.9700467707
 10
125.1198013767
 20
121.1019162212
 10
125.0768501689
 20
121.2339604982
 10
125.0289752401
 20
121.3658240818
 10
124.9763255995
 20
121.4971403974
 10
124.9190558072
 20
121.6275626539
 10
124.8573328435
 20
121.7567282953
 10
124.7913333369
 20
121.8842853548
 10
124.7212345036
 20
122.0098999399
 10
124.6472298883
 20
122.1332203864
 10
124.5695319141
 20
122.253905676
 10
124.4883408868
 20
122.3716357348
 10
124.4038802828
 20
122.4860820799
 10
124.3163840386
 20
122.5969225193
 10
124.2260718054
 20
122.7038572586
 10
124.1331900026
 20
122.806582896
 10
124.0379824478
 20
122.904804615
 10
123.9406726885
 20
122.9982686848
 10
123.8415174782
 20
123.0866995918
 10
123.7407721799
 20
123.1698417953
 10
123.6386487318
 20
123.2474846107
 10
123.535372898
 20
123.3193938211
 10
123.4312202422
 20
123.3853104525
 10
123.3853089693
 20
123.4122876427
  0
LINE
  5
2B6
100
AcDbEntity
  8
RACCORDO
100
AcDbLine
 62
250
  6
CONTINUOUS
 10
125.2673813762
 20
56.7271666448
 30
0.0
 11
125.2685079936
 21
56.4353317589
 31
0.0
  0
LINE
  5
2B7
100
AcDbEntity
  8
RACCORDO
100
AcDbLine
 62
250
  6
CONTINUOUS
 10
125.2438538482
 20
69.9413104118
 30
0.0
 11
125.2438851507
 21
69.9036509972
 31
0.0
  0
LINE
  5
2B8
100
AcDbEntity
  8
RACCORDO
100
AcDbLine
 62
7
  6
CONTINUOUS
 10
125.2733445933
 20
56.4572162661
 30
0.0
 11
125.2588168031
 21
69.9413225208
 31
0.0
  0
LINE
  5
2B9
100
AcDbEntity
  8
RACCORDO
100
AcDbLine
 62
250
  6
CONTINUOUS
 10
125.2378692224
 20
88.3098149792
 30
0.0
 11
125.237869198
 21
88.2690257472
 31
0.0
  0
LINE
  5
2BA
100
AcDbEntity
  8
RACCORDO
100
AcDbLine
 62
7
  6
CONTINUOUS
 10
125.2588168014
 20
69.9413269582
 30
0.0
 11
125.255904858
 21
81.6349301076
 31
0.0
  0
LINE
  5
2BB
100
AcDbEntity
  8
RACCORDO
100
AcDbLine
 62
7
  6
CONTINUOUS
 10
125.255904858
 20
81.6349301076
 30
0.0
 11
125.2559054476
 21
94.9897288805
 31
0.0
  0
LINE
  5
2BC
100
AcDbEntity
  8
RACCORDO
100
AcDbLine
 62
7
  6
CONTINUOUS
 10
125.2559054476
 20
94.9897288805
 30
0.0
 11
125.2588167998
 21
106.674523812
 31
0.0
  0
LINE
  5
2BD
100
AcDbEntity
  8
RACCORDO
100
AcDbLine
 62
250
  6
CONTINUOUS
 10
125.2439175048
 20
106.6745366076
 30
0.0
 11
125.2438851507
 21
106.6368630906
 31
0.0
  0
LINE
  5
2BE
100
AcDbEntity
  8
RACCORDO
100
AcDbLine
 62
7
  6
CONTINUOUS
 10
125.2588167977
 20
106.6745197107
 30
0.0
 11
125.2639160263
 21
112.9983566741
 31
0.0
  0
LINE
  5
2BF
100
AcDbEntity
  8
RACCORDO
100
AcDbLine
 62
7
  6
CONTINUOUS
 10
125.2639160263
 20
112.9983566741
 30
0.0
 11
125.2733445906
 21
120.1418599079
 31
0.0
  0
LINE
  5
2C0
100
AcDbEntity
  8
RACCORDO
100
AcDbLine
 62
250
  6
CONTINUOUS
 10
125.2684572562
 20
120.1200023563
 30
0.0
 11
125.267460311
 21
119.8499600568
 31
0.0
  0
LWPOLYLINE
  5
2C1
100
AcDbEntity
  8
RACCORDO
100
AcDbPolyline
 62
7
  6
CONTINUOUS
 90
8
 70
0
 10
68.2310399193
 20
155.2576713611
 10
68.1785732147
 20
155.2873262794
 10
68.0726016363
 20
155.3421827131
 10
67.9672178464
 20
155.3900163773
 10
67.8627044029
 20
155.4307670038
 10
67.7592825531
 20
155.4644160324
 10
67.6571416172
 20
155.4909431571
 10
67.5910707199
 20
155.5044355754
  0
LINE
  5
2C2
100
AcDbEntity
  8
RACCORDO
100
AcDbLine
 62
250
  6
CONTINUOUS
 10
123.1719313549
 20
123.5288344576
 30
0.0
 11
123.36438552
 21
123.4189270179
 31
0.0
  0
LINE
  5
2C3
100
AcDbEntity
  8
RACCORDO
100
AcDbLine
 62
7
  6
CONTINUOUS
 10
123.3853269927
 20
123.4122773059
 30
0.0
 11
120.9147129376
 21
124.8315906538
 31
0.0
  0
LINE
  5
2C4
100
AcDbEntity
  8
RACCORDO
100
AcDbLine
 62
7
  6
CONTINUOUS
 10
120.9147129376
 20
124.8315906538
 30
0.0
 11
116.0061632578
 21
127.6588389267
 31
0.0
  0
LINE
  5
2C5
100
AcDbEntity
  8
RACCORDO
100
AcDbLine
 62
7
  6
CONTINUOUS
 10
116.0061632578
 20
127.6588389267
 30
0.0
 11
108.0194948578
 21
132.2653794148
 31
0.0
  0
LINE
  5
2C6
100
AcDbEntity
  8
RACCORDO
100
AcDbLine
 62
250
  6
CONTINUOUS
 10
95.7639136175
 20
139.3192220267
 30
0.0
 11
95.8816477653
 21
139.25124431
 31
0.0
  0
LINE
  5
2C7
100
AcDbEntity
  8
RACCORDO
100
AcDbLine
 62
250
  6
CONTINUOUS
 10
99.2991875552
 20
137.2783338611
 30
0.0
 11
99.4325378668
 21
137.2013578591
 31
0.0
  0
LINE
  5
2C8
100
AcDbEntity
  8
RACCORDO
100
AcDbLine
 62
250
  6
CONTINUOUS
 10
92.2292960139
 20
141.3605333933
 30
0.0
 11
92.3629038263
 21
141.2833580251
 31
0.0
  0
LINE
  5
2C9
100
AcDbEntity
  8
RACCORDO
100
AcDbLine
 62
7
  6
CONTINUOUS
 10
108.0194948578
 20
132.2653794148
 30
0.0
 11
86.4203449562
 21
144.7355986539
 31
0.0
  0
LINE
  5
2CA
100
AcDbEntity
  8
RACCORDO
100
AcDbLine
 62
7
  6
CONTINUOUS
 10
86.4203449562
 20
144.7355986539
 30
0.0
 11
75.6054792181
 21
150.985692015
 31
0.0
  0
LINE
  5
2CB
100
AcDbEntity
  8
RACCORDO
100
AcDbLine
 62
7
  6
CONTINUOUS
 10
75.6054792181
 20
150.985692015
 30
0.0
 11
70.6946868677
 21
153.8280200284
 31
0.0
  0
LINE
  5
2CC
100
AcDbEntity
  8
RACCORDO
100
AcDbLine
 62
7
  6
CONTINUOUS
 10
70.6946868677
 20
153.8280200284
 30
0.0
 11
68.231024301
 21
155.2576804389
 31
0.0
  0
LINE
  5
2CD
100
AcDbEntity
  8
RACCORDO
100
AcDbLine
 62
250
  6
CONTINUOUS
 10
68.2098234175
 20
155.2644192471
 30
0.0
 11
68.4197520352
 21
155.142014861
 31
0.0
  0
LWPOLYLINE
  5
2CE
100
AcDbEntity
  8
RACCORDO
100
AcDbPolyline
 62
7
  6
CONTINUOUS
 90
8
 70
0
 10
125.1646508872
 20
55.773200703
 10
125.1888001582
 20
55.8451443526
 10
125.2169257239
 20
55.9473632531
 10
125.2394910784
 20
56.0543202629
 10
125.2564083082
 20
56.1658500474
 10
125.2675723421
 20
56.2817466818
 10
125.2728804909
 20
56.4017465068
 10
125.2733445623
 20
56.4572281333
  0
LWPOLYLINE
  5
2CF
100
AcDbEntity
  8
SUPERFICI
100
AcDbPolyline
 62
7
  6
CONTINUOUS
 90
3
 70
0
 10
125.1644406443
 20
55.7726204048
 10
125.1213235788
 20
55.6538286059
 10
124.6669906872
 20
54.391168491
  0
LINE
  5
2D0
100
AcDbEntity
  8
RACCORDO
100
AcDbLine
 62
7
  6
CONTINUOUS
 10
125.1646430361
 20
55.7731778204
 30
0.0
 11
125.1644406167
 21
55.7726203289
 31
0.0
  0
LINE
  5
2D1
100
AcDbEntity
  8
RACCORDO
100
AcDbLine
 62
7
  6
CONTINUOUS
 10
67.5909178008
 20
155.5044640242
 30
0.0
 11
67.5910679934
 21
155.504436708
 31
0.0
  0
LINE
  5
2D2
100
AcDbEntity
  8
SUPERFICI
100
AcDbLine
 62
7
  6
CONTINUOUS
 10
66.1589951935
 20
155.7662320753
 30
0.0
 11
67.5909176995
 21
155.5044640427
 31
0.0
  0
LINE
  5
2D3
100
AcDbEntity
  8
RACCORDO
100
AcDbLine
 62
7
  6
CONTINUOUS
 10
121.400799787
 20
52.3019535152
 30
0.0
 11
121.3991667129
 21
52.3013518152
 31
0.0
  0
LINE
  5
2D4
100
AcDbEntity
  8
SUPERFICI
100
AcDbLine
 62
7
  6
CONTINUOUS
 10
123.7647678733
 20
53.1711433169
 30
0.0
 11
121.3991664144
 21
52.3013517054
 31
0.0
  0
ARC
  5
2D5
100
AcDbEntity
  8
RACCORDO
100
AcDbCircle
 62
250
  6
CONTINUOUS
 10
168.0169146697
 20
228.9235623815
 30
0.0
 40
117.6828544439
100
AcDbArc
 50
245.5113436368
 51
245.6670943016
  0
ARC
  5
2D6
100
AcDbEntity
  8
RACCORDO
100
AcDbCircle
 62
250
  6
CONTINUOUS
 10
167.5723591785
 20
227.9624859891
 30
0.0
 40
116.2624374434
100
AcDbArc
 50
245.5188361246
 51
245.6760183253
  0
ARC
  5
2D7
100
AcDbEntity
  8
RACCORDO
100
AcDbCircle
 62
250
  6
CONTINUOUS
 10
119.9874085085
 20
229.0856514278
 30
0.0
 40
93.8120670773
100
AcDbArc
 50
233.6224656362
 51
233.7962286794
  0
ARC
  5
2D8
100
AcDbEntity
  8
RACCORDO
100
AcDbCircle
 62
250
  6
CONTINUOUS
 10
119.463487509
 20
228.3722836254
 30
0.0
 40
92.5658741383
100
AcDbArc
 50
233.6116495057
 51
233.7872065834
  0
ARC
  5
2D9
100
AcDbEntity
  8
SUPERFICI
100
AcDbCircle
 62
7
  6
CONTINUOUS
 10
84.2221487926
 20
122.4369161663
 30
0.0
 40
40.6230800722
100
AcDbArc
 50
354.2565185842
 51
354.7364465583
  0
ARC
  5
2DA
100
AcDbEntity
  8
SUPERFICI
100
AcDbCircle
 62
7
  6
CONTINUOUS
 10
106.293822124
 20
90.1135414601
 30
0.0
 40
36.9405775381
100
AcDbArc
 50
65.081841384
 51
65.5935211001
  0
ARC
  5
2DB
100
AcDbEntity
  8
SUPERFICI
100
AcDbCircle
 62
7
  6
CONTINUOUS
 10
96.2794706002
 20
52.098609366
 30
0.0
 40
28.5448292663
100
AcDbArc
 50
5.8835941615
 51
6.4913454814
  0
ARC
  5
2DC
100
AcDbEntity
  8
SUPERFICI
100
AcDbCircle
 62
7
  6
CONTINUOUS
 10
51.3178444754
 20
134.0215670628
 30
0.0
 40
26.3884325928
100
AcDbArc
 50
53.6978895536
 51
54.3375994313
  0
ARC
  5
2DD
100
AcDbEntity
  8
0
100
AcDbCircle
 62
7
  6
CONTINUOUS
 10
107.0921838291
 20
80.6137186369
 30
0.0
 40
14.8310308054
100
AcDbArc
 50
195.347182085
 51
195.6062526298
  0
ARC
  5
2DE
100
AcDbEntity
  8
RACCORDO
100
AcDbCircle
 62
250
  6
CONTINUOUS
 10
121.0312175158
 20
55.8859632708
 30
0.0
 40
3.6143036065
100
AcDbArc
 50
245.408493094
 51
248.0246046919
  0
ARC
  5
2DF
100
AcDbEntity
  8
RACCORDO
100
AcDbCircle
 62
250
  6
CONTINUOUS
 10
122.0264023395
 20
121.0851651014
 30
0.0
 40
2.6900777328
100
AcDbArc
 50
57.5066849373
 51
58.8586878058
  0
ARC
  5
2E0
100
AcDbEntity
  8
RACCORDO
100
AcDbCircle
 62
250
  6
CONTINUOUS
 10
122.6719962637
 20
120.1297743824
 30
0.0
 40
2.5964793814
100
AcDbArc
 50
359.7843629414
 51
1.2200606893
  0
ARC
  5
2E1
100
AcDbEntity
  8
RACCORDO
100
AcDbCircle
 62
250
  6
CONTINUOUS
 10
122.0811483652
 20
121.1757923766
 30
0.0
 40
2.5841984137
100
AcDbArc
 50
58.8584410159
 51
60.2298768477
  0
ARC
  5
2E2
100
AcDbEntity
  8
SUPERFICI
100
AcDbCircle
 62
7
  6
CONTINUOUS
 10
122.9084951724
 20
54.6026369192
 30
0.0
 40
1.7698968448
100
AcDbArc
 50
340.5645892315
 51
344.8405695656
  0
ARC
  5
2E3
100
AcDbEntity
  8
SUPERFICI
100
AcDbCircle
 62
7
  6
CONTINUOUS
 10
65.4704758016
 20
154.2036836021
 30
0.0
 40
1.7040640487
100
AcDbArc
 50
78.9272155354
 51
79.7123872273
  0
ARC
  5
2E4
100
AcDbEntity
  8
RACCORDO
100
AcDbCircle
 62
250
  6
CONTINUOUS
 10
96.1293831111
 20
114.5756923241
 30
0.0
 40
1.2880064757
100
AcDbArc
 50
29.4556501754
 51
31.293928676
  0
ARC
  5
2E5
100
AcDbEntity
  8
RACCORDO
100
AcDbCircle
 62
250
  6
CONTINUOUS
 10
96.1406666587
 20
114.5825158329
 30
0.0
 40
1.2748202026
100
AcDbArc
 50
31.2952866182
 51
32.0600612335
  0
ARC
  5
2E6
100
AcDbEntity
  8
RACCORDO
100
AcDbCircle
 62
250
  6
CONTINUOUS
 10
96.1471522926
 20
114.5865317862
 30
0.0
 40
1.2671919796
100
AcDbArc
 50
32.0618308139
 51
34.405018038
  0
ARC
  5
2E7
100
AcDbEntity
  8
0
100
AcDbCircle
 62
7
  6
CONTINUOUS
 10
91.9688126154
 20
77.321686373
 30
0.0
 40
0.5351171479
100
AcDbArc
 50
39.3510401711
 51
42.2371104895
  0
ARC
  5
2E8
100
AcDbEntity
  8
0
100
AcDbCircle
 62
7
  6
CONTINUOUS
 10
92.0564941524
 20
77.3824148323
 30
0.0
 40
0.4933820035
100
AcDbArc
 50
42.0378839999
 51
43.4506718279
  0
ARC
  5
2E9
100
AcDbEntity
  8
0
100
AcDbCircle
 62
7
  6
CONTINUOUS
 10
92.01687938
 20
77.3654816369
 30
0.0
 40
0.4700908136
100
AcDbArc
 50
42.223193996
 51
45.5526625423
  0
ARC
  5
2EA
100
AcDbEntity
  8
RACCORDO
100
AcDbCircle
 62
250
  6
CONTINUOUS
 10
97.2258747354
 20
79.0832339316
 30
0.0
 40
0.1740061157
100
AcDbArc
 50
280.2606733192
 51
285.4111740424
  0
ARC
  5
2EB
100
AcDbEntity
  8
RACCORDO
100
AcDbCircle
 62
250
  6
CONTINUOUS
 10
97.228903386
 20
79.0721821001
 30
0.0
 40
0.1625468231
100
AcDbArc
 50
285.4172397272
 51
290.7816370495
  0
ARC
  5
2EC
100
AcDbEntity
  8
RACCORDO
100
AcDbCircle
 62
250
  6
CONTINUOUS
 10
97.2317269953
 20
79.0645769563
 30
0.0
 40
0.154434648
100
AcDbArc
 50
290.8033248416
 51
296.6866777196
  0
ARC
  5
2ED
100
AcDbEntity
  8
0
100
AcDbCircle
 62
7
  6
CONTINUOUS
 10
360.4829942693
 20
171.0857148161
 30
0.0
 40
286.5897122852
100
AcDbArc
 50
198.3298562496
 51
198.604581009
  0
ARC
  5
2EE
100
AcDbEntity
  8
0
100
AcDbCircle
 62
7
  6
CONTINUOUS
 10
360.3134005656
 20
171.0475561062
 30
0.0
 40
286.3526047948
100
AcDbArc
 50
198.3306300218
 51
198.5912468842
  0
ARC
  5
2EF
100
AcDbEntity
  8
0
100
AcDbCircle
 62
7
  6
CONTINUOUS
 10
359.781930112
 20
171.5661873646
 30
0.0
 40
286.3247263184
100
AcDbArc
 50
198.5812206572
 51
198.9050230741
  0
ARC
  5
2F0
100
AcDbEntity
  8
0
100
AcDbCircle
 62
7
  6
CONTINUOUS
 10
348.0383345529
 20
159.9392143669
 30
0.0
 40
273.4647680025
100
AcDbArc
 50
196.4463879915
 51
196.9475737246
  0
ARC
  5
2F1
100
AcDbEntity
  8
0
100
AcDbCircle
 62
7
  6
CONTINUOUS
 10
350.6753039265
 20
155.6390485658
 30
0.0
 40
270.8770600256
100
AcDbArc
 50
196.287782841
 51
196.790169089
  0
ARC
  5
2F2
100
AcDbEntity
  8
0
100
AcDbCircle
 62
7
  6
CONTINUOUS
 10
350.2823447994
 20
155.543036722
 30
0.0
 40
270.4093387217
100
AcDbArc
 50
196.2883189128
 51
196.7915720947
  0
ARC
  5
2F3
100
AcDbEntity
  8
0
100
AcDbCircle
 62
7
  6
CONTINUOUS
 10
341.997997067
 20
151.2864508318
 30
0.0
 40
264.9804200728
100
AcDbArc
 50
195.0943536721
 51
195.441698383
  0
ARC
  5
2F4
100
AcDbEntity
  8
0
100
AcDbCircle
 62
7
  6
CONTINUOUS
 10
341.7731506803
 20
151.2467663169
 30
0.0
 40
264.6897267887
100
AcDbArc
 50
195.095088196
 51
195.4203712725
  0
ARC
  5
2F5
100
AcDbEntity
  8
0
100
AcDbCircle
 62
7
  6
CONTINUOUS
 10
341.9364931297
 20
145.2606902981
 30
0.0
 40
259.9436346776
100
AcDbArc
 50
194.7145640048
 51
194.9031054325
  0
ARC
  5
2F6
100
AcDbEntity
  8
0
100
AcDbCircle
 62
7
  6
CONTINUOUS
 10
313.6215263221
 20
111.5592545577
 30
0.0
 40
226.2554758281
100
AcDbArc
 50
187.9357223982
 51
188.4628814702
  0
ARC
  5
2F7
100
AcDbEntity
  8
0
100
AcDbCircle
 62
7
  6
CONTINUOUS
 10
313.1074229019
 20
111.5139190874
 30
0.0
 40
225.6793602711
100
AcDbArc
 50
187.9360983609
 51
188.4645993144
  0
ARC
  5
2F8
100
AcDbEntity
  8
0
100
AcDbCircle
 62
7
  6
CONTINUOUS
 10
308.0477286026
 20
106.1744915822
 30
0.0
 40
220.3280648478
100
AcDbArc
 50
186.8776796542
 51
187.2236625766
  0
ARC
  5
2F9
100
AcDbEntity
  8
0
100
AcDbCircle
 62
7
  6
CONTINUOUS
 10
301.956288788
 20
92.1986522299
 30
0.0
 40
210.6251028203
100
AcDbArc
 50
183.666296591
 51
183.7978425749
  0
ARC
  5
2FA
100
AcDbEntity
  8
0
100
AcDbCircle
 62
7
  6
CONTINUOUS
 10
297.6810220308
 20
94.4346647362
 30
0.0
 40
210.3770141494
100
AcDbArc
 50
183.55825387
 51
184.0946677327
  0
ARC
  5
2FB
100
AcDbEntity
  8
0
100
AcDbCircle
 62
7
  6
CONTINUOUS
 10
300.8230554907
 20
92.3194023606
 30
0.0
 40
209.9041105124
100
AcDbArc
 50
183.56393516
 51
184.0683602989
  0
ARC
  5
2FC
100
AcDbEntity
  8
0
100
AcDbCircle
 62
7
  6
CONTINUOUS
 10
296.7602946139
 20
94.6116078369
 30
0.0
 40
209.8224366945
100
AcDbArc
 50
183.5575460569
 51
184.0953777216
  0
ARC
  5
2FD
100
AcDbEntity
  8
0
100
AcDbCircle
 62
7
  6
CONTINUOUS
 10
297.1049448346
 20
94.4289942447
 30
0.0
 40
209.7430731396
100
AcDbArc
 50
183.5585101234
 51
184.0965403281
  0
ARC
  5
2FE
100
AcDbEntity
  8
0
100
AcDbCircle
 62
7
  6
CONTINUOUS
 10
300.4877670243
 20
92.0591714361
 30
0.0
 40
209.1975079863
100
AcDbArc
 50
183.8847579779
 51
184.0955557594
  0
ARC
  5
2FF
100
AcDbEntity
  8
0
100
AcDbCircle
 62
7
  6
CONTINUOUS
 10
300.2885394832
 20
92.0781840454
 30
0.0
 40
208.9412163564
100
AcDbArc
 50
183.9043685342
 51
184.0968089517
  0
ARC
  5
300
100
AcDbEntity
  8
0
100
AcDbCircle
 62
7
  6
CONTINUOUS
 10
288.404560182
 20
81.0713590941
 30
0.0
 40
200.0234560603
100
AcDbArc
 50
180.2125885392
 51
180.5666178358
  0
ARC
  5
301
100
AcDbEntity
  8
0
100
AcDbCircle
 62
7
  6
CONTINUOUS
 10
287.8169673427
 20
81.103264671
 30
0.0
 40
199.3791513063
100
AcDbArc
 50
180.2716225304
 51
180.5682039454
  0
ARC
  5
302
100
AcDbEntity
  8
0
100
AcDbCircle
 62
7
  6
CONTINUOUS
 10
285.6045122231
 20
77.3147517855
 30
0.0
 40
197.5755397293
100
AcDbArc
 50
178.881837866
 51
179.4249519973
  0
ARC
  5
303
100
AcDbEntity
  8
0
100
AcDbCircle
 62
7
  6
CONTINUOUS
 10
272.4197298462
 20
17.9311369825
 30
0.0
 40
193.6499294114
100
AcDbArc
 50
161.1391057567
 51
161.413748838
  0
ARC
  5
304
100
AcDbEntity
  8
0
100
AcDbCircle
 62
7
  6
CONTINUOUS
 10
271.1596796817
 20
16.8348084576
 30
0.0
 40
192.4433858805
100
AcDbArc
 50
160.933875203
 51
161.2269659882
  0
ARC
  5
305
100
AcDbEntity
  8
0
100
AcDbCircle
 62
7
  6
CONTINUOUS
 10
270.5114094661
 20
17.1124933415
 30
0.0
 40
191.6970641007
100
AcDbArc
 50
160.9462652237
 51
161.228464039
  0
ARC
  5
306
100
AcDbEntity
  8
0
100
AcDbCircle
 62
7
  6
CONTINUOUS
 10
272.2754612658
 20
32.0980289501
 30
0.0
 40
188.1310581056
100
AcDbArc
 50
165.288676927
 51
165.7867998899
  0
ARC
  5
307
100
AcDbEntity
  8
0
100
AcDbCircle
 62
7
  6
CONTINUOUS
 10
268.7712590953
 20
32.6672184931
 30
0.0
 40
188.0621077366
100
AcDbArc
 50
164.8958979924
 51
165.4112635688
  0
ARC
  5
308
100
AcDbEntity
  8
0
100
AcDbCircle
 62
7
  6
CONTINUOUS
 10
274.1409438628
 20
38.9411114808
 30
0.0
 40
187.9915963317
100
AcDbArc
 50
167.6235688897
 51
167.8180957173
  0
ARC
  5
309
100
AcDbEntity
  8
0
100
AcDbCircle
 62
7
  6
CONTINUOUS
 10
273.7775023624
 20
39.0684873413
 30
0.0
 40
187.5609265339
100
AcDbArc
 50
167.6666836628
 51
167.8192667463
  0
ARC
  5
30A
100
AcDbEntity
  8
0
100
AcDbCircle
 62
7
  6
CONTINUOUS
 10
267.8858560696
 20
32.9530681189
 30
0.0
 40
187.0865962316
100
AcDbArc
 50
164.8955551123
 51
165.4135989786
  0
ARC
  5
30B
100
AcDbEntity
  8
0
100
AcDbCircle
 62
7
  6
CONTINUOUS
 10
269.2248893747
 20
40.6820945327
 30
0.0
 40
186.98184955
100
AcDbArc
 50
167.2698516997
 51
167.6314750393
  0
ARC
  5
30C
100
AcDbEntity
  8
RACCORDO
100
AcDbCircle
 62
250
  6
CONTINUOUS
 10
236.5890161819
 20
105.9508592181
 30
0.0
 40
115.3380421462
100
AcDbArc
 50
174.1763115097
 51
174.340260382
  0
ARC
  5
30D
100
AcDbEntity
  8
RACCORDO
100
AcDbCircle
 62
250
  6
CONTINUOUS
 10
235.4772038204
 20
106.0552676645
 30
0.0
 40
113.8586180395
100
AcDbArc
 50
174.1673697711
 51
174.332945855
  0
ARC
  5
30E
100
AcDbEntity
  8
RACCORDO
100
AcDbCircle
 62
250
  6
CONTINUOUS
 10
211.9031104477
 20
64.3169859138
 30
0.0
 40
90.6528838041
100
AcDbArc
 50
186.3889401575
 51
186.5738130447
  0
ARC
  5
30F
100
AcDbEntity
  8
RACCORDO
100
AcDbCircle
 62
250
  6
CONTINUOUS
 10
210.9990709942
 20
64.2123617159
 30
0.0
 40
89.3806427465
100
AcDbArc
 50
186.3977703542
 51
186.5846875845
  0
ARC
  5
310
100
AcDbEntity
  8
RACCORDO
100
AcDbCircle
 62
250
  6
CONTINUOUS
 10
359.698319096
 20
588.5803646431
 30
0.0
 40
541.0903981868
100
AcDbArc
 50
240.0123885108
 51
240.4319933964
  0
ARC
  5
311
100
AcDbEntity
  8
RACCORDO
100
AcDbCircle
 62
250
  6
CONTINUOUS
 10
356.0356465638
 20
582.2440428315
 30
0.0
 40
533.7716455887
100
AcDbArc
 50
239.5758005495
 51
239.9991004362
  0
ARC
  5
312
100
AcDbEntity
  8
RACCORDO
100
AcDbCircle
 62
250
  6
CONTINUOUS
 10
356.3734809313
 20
528.2048416227
 30
0.0
 40
531.7620923053
100
AcDbArc
 50
240.0104598814
 51
240.4377227415
  0
ARC
  5
313
100
AcDbEntity
  8
RACCORDO
100
AcDbCircle
 62
250
  6
CONTINUOUS
 10
356.1965317735
 20
596.988732796
 30
0.0
 40
531.39960903
100
AcDbArc
 50
239.9986447906
 51
240.4374885908
  0
ARC
  5
314
100
AcDbEntity
  8
RACCORDO
100
AcDbCircle
 62
250
  6
CONTINUOUS
 10
356.2564621088
 20
597.0933176252
 30
0.0
 40
531.158174942
100
AcDbArc
 50
239.9986447601
 51
240.4374877877
  0
ARC
  5
315
100
AcDbEntity
  8
0
100
AcDbCircle
 62
7
  6
CONTINUOUS
 10
357.3483183589
 20
596.8611493445
 30
0.0
 40
529.0520975005
100
AcDbArc
 50
239.9991373771
 51
240.4397320076
  0
ARC
  5
316
100
AcDbEntity
  8
RACCORDO
100
AcDbCircle
 62
250
  6
CONTINUOUS
 10
352.8658562604
 20
522.1196787306
 30
0.0
 40
524.7383730721
100
AcDbArc
 50
239.5676529828
 51
239.998634841
  0
ARC
  5
317
100
AcDbEntity
  8
RACCORDO
100
AcDbCircle
 62
250
  6
CONTINUOUS
 10
352.671414944
 20
590.8924663291
 30
0.0
 40
524.3575288969
100
AcDbArc
 50
239.5563753559
 51
239.9991409711
  0
ARC
  5
318
100
AcDbEntity
  8
RACCORDO
100
AcDbCircle
 62
250
  6
CONTINUOUS
 10
352.7333861768
 20
591.0005806031
 30
0.0
 40
524.1201718465
100
AcDbArc
 50
239.5563765345
 51
239.9991408751
  0
ARC
  5
319
100
AcDbEntity
  8
RACCORDO
100
AcDbCircle
 62
250
  6
CONTINUOUS
 10
350.8450586672
 20
536.2052431114
 30
0.0
 40
523.391313967
100
AcDbArc
 50
239.9991359496
 51
240.4470372428
  0
ARC
  5
31A
100
AcDbEntity
  8
RACCORDO
100
AcDbCircle
 62
250
  6
CONTINUOUS
 10
350.9234746543
 20
536.3596701746
 30
0.0
 40
523.1319830409
100
AcDbArc
 50
239.9991359537
 51
240.4470196522
  0
ARC
  5
31B
100
AcDbEntity
  8
0
100
AcDbCircle
 62
7
  6
CONTINUOUS
 10
353.2474155768
 20
589.7586372792
 30
0.0
 40
520.8506902278
100
AcDbArc
 50
239.5536100332
 51
239.9991490901
  0
ARC
  5
31C
100
AcDbEntity
  8
RACCORDO
100
AcDbCircle
 62
250
  6
CONTINUOUS
 10
347.4339183557
 20
530.2884100058
 30
0.0
 40
516.5616161158
100
AcDbArc
 50
239.5468103391
 51
239.9986495335
  0
ARC
  5
31D
100
AcDbEntity
  8
RACCORDO
100
AcDbCircle
 62
250
  6
CONTINUOUS
 10
347.5138711106
 20
530.4455030431
 30
0.0
 40
516.3053623749
100
AcDbArc
 50
239.5468279115
 51
239.9986495352
  0
ARC
  5
31E
100
AcDbEntity
  8
RACCORDO
100
AcDbCircle
 62
250
  6
CONTINUOUS
 10
320.0660451656
 20
518.5376070076
 30
0.0
 40
460.6124600486
100
AcDbArc
 50
240.4365251103
 51
241.0142698219
  0
ARC
  5
31F
100
AcDbEntity
  8
RACCORDO
100
AcDbCircle
 62
250
  6
CONTINUOUS
 10
303.0387928795
 20
454.9202504107
 30
0.0
 40
429.0900177801
100
AcDbArc
 50
238.9283927747
 51
239.556339765
  0
ARC
  5
320
100
AcDbEntity
  8
RACCORDO
100
AcDbCircle
 62
250
  6
CONTINUOUS
 10
303.1230055987
 20
455.0845174942
 30
0.0
 40
428.8421074988
100
AcDbArc
 50
238.9284627483
 51
239.5563615907
  0
ARC
  5
321
100
AcDbEntity
  8
RACCORDO
100
AcDbCircle
 62
250
  6
CONTINUOUS
 10
300.9525877397
 20
447.7984840251
 30
0.0
 40
421.8779528951
100
AcDbArc
 50
240.4194388615
 51
241.0675151855
  0
ARC
  5
322
100
AcDbEntity
  8
RACCORDO
100
AcDbCircle
 62
250
  6
CONTINUOUS
 10
301.0311869802
 20
447.9533270546
 30
0.0
 40
421.6190742893
100
AcDbArc
 50
240.4194063076
 51
241.0674565267
  0
ARC
  5
323
100
AcDbEntity
  8
RACCORDO
100
AcDbCircle
 62
250
  6
CONTINUOUS
 10
297.7403855818
 20
483.4381908822
 30
0.0
 40
419.0507650026
100
AcDbArc
 50
238.9649399948
 51
239.589893822
  0
ARC
  5
324
100
AcDbEntity
  8
RACCORDO
100
AcDbCircle
 62
250
  6
CONTINUOUS
 10
244.5965169235
 20
397.2029539891
 30
0.0
 40
302.5676498305
100
AcDbArc
 50
243.971740753
 51
245.5233210217
  0
ARC
  5
325
100
AcDbEntity
  8
RACCORDO
100
AcDbCircle
 62
250
  6
CONTINUOUS
 10
212.0333936608
 20
356.9463224455
 30
0.0
 40
251.3838890655
100
AcDbArc
 50
237.3197157873
 51
238.2409888707
  0
SPLINE
  5
326
100
AcDbEntity
  8
SUPERFICI
100
AcDbSpline
 62
7
  6
CONTINUOUS
 70
0
 71
3
 72
9
 73
5
 74
0
 42
0.0000001
 43
0.0000001
 44
0.0000000001
 40
0.0
 40
0.0
 40
0.0
 40
0.0
 40
0.2683550105
 40
1.0
 40
1.0
 40
1.0
 40
1.0
 10
124.6739316323
 20
55.0246745497
 30
0.0
 10
124.6820548875
 20
54.9455336358
 30
0.0
 10
124.7014759811
 20
54.6498753021
 30
0.0
 10
124.6735875529
 20
54.3491377019
 30
0.0
 10
124.6168029724
 20
54.1397986088
 30
0.0
  0
SPLINE
  5
327
100
AcDbEntity
  8
SUPERFICI
100
AcDbSpline
 62
7
  6
CONTINUOUS
 70
0
 71
3
 72
11
 73
7
 74
0
 42
0.0000001
 43
0.0000001
 44
0.0000000001
 40
0.0
 40
0.0
 40
0.0
 40
0.0
 40
0.2592041191
 40
0.5077392523
 40
0.7515302248
 40
1.0
 40
1.0
 40
1.0
 40
1.0
 10
124.5775383229
 20
54.0137143412
 30
0.0
 10
124.5427013617
 20
53.9152607413
 30
0.0
 10
124.4559134528
 20
53.7281876374
 30
0.0
 10
124.2711943161
 20
53.4850784923
 30
0.0
 10
124.0384725882
 20
53.2939703913
 30
0.0
 10
123.8587326263
 20
53.2056925594
 30
0.0
 10
123.7647723199
 20
53.1711449518
 30
0.0
  0
SPLINE
  5
328
100
AcDbEntity
  8
SUPERFICI
100
AcDbSpline
 62
7
  6
CONTINUOUS
 70
0
 71
3
 72
9
 73
5
 74
0
 42
0.0000001
 43
0.0000001
 44
0.0000000001
 40
0.0
 40
0.0
 40
0.0
 40
0.0
 40
0.5041925865
 40
1.0
 40
1.0
 40
1.0
 40
1.0
 10
123.2209631621
 20
86.0285462215
 30
0.0
 10
123.2209631621
 20
83.0025155298
 30
0.0
 10
123.2783771402
 20
77.000803069
 30
0.0
 10
123.4594186919
 20
71.0007267567
 30
0.0
 10
123.6086325791
 20
68.0287651062
 30
0.0
  0
SPLINE
  5
329
100
AcDbEntity
  8
SUPERFICI
100
AcDbSpline
 62
7
  6
CONTINUOUS
 70
0
 71
3
 72
9
 73
5
 74
0
 42
0.0000001
 43
0.0000001
 44
0.0000000001
 40
0.0
 40
0.0
 40
0.0
 40
0.0
 40
0.253367319
 40
1.0
 40
1.0
 40
1.0
 40
1.0
 10
123.6086325791
 20
68.0287651062
 30
0.0
 10
123.6626119531
 20
66.9536330758
 30
0.0
 10
123.9077717244
 20
62.7119549228
 30
0.0
 10
124.2829957371
 20
58.4776234447
 30
0.0
 10
124.6412973582
 20
55.3256917627
 30
0.0
  0
SPLINE
  5
32A
100
AcDbEntity
  8
SUPERFICI
100
AcDbSpline
 62
7
  6
CONTINUOUS
 70
0
 71
3
 72
13
 73
9
 74
0
 42
0.0000001
 43
0.0000001
 44
0.0000000001
 40
0.0
 40
0.0
 40
0.0
 40
0.0
 40
0.3159764609
 40
0.4428607916
 40
0.5583309348
 40
0.6691361596
 40
0.7797617306
 40
1.0
 40
1.0
 40
1.0
 40
1.0
 10
121.5579423296
 20
123.7529960216
 30
0.0
 10
118.8401861532
 20
124.9869972118
 30
0.0
 10
115.055795009
 20
126.7719385787
 30
0.0
 10
110.335165858
 20
129.1241485034
 30
0.0
 10
107.3671355542
 20
130.6474444597
 30
0.0
 10
104.552477168
 20
132.1327297738
 30
0.0
 10
100.8838080553
 20
134.1196609066
 30
0.0
 10
98.1560196654
 20
135.6455688304
 30
0.0
 10
96.3463952348
 20
136.6719295715
 30
0.0
  0
SPLINE
  5
32B
100
AcDbEntity
  8
SUPERFICI
100
AcDbSpline
 62
7
  6
CONTINUOUS
 70
0
 71
3
 72
15
 73
11
 74
0
 42
0.0000001
 43
0.0000001
 44
0.0000000001
 40
0.0
 40
0.0
 40
0.0
 40
0.0
 40
0.1176203876
 40
0.2414049118
 40
0.3697402233
 40
0.5003974789
 40
0.6309934027
 40
0.7591540193
 40
0.8826822734
 40
1.0
 40
1.0
 40
1.0
 40
1.0
 10
124.6739316323
 20
118.7102695263
 30
0.0
 10
124.6953332201
 20
118.9435503118
 30
0.0
 10
124.6933574736
 20
119.4272481974
 30
0.0
 10
124.5710158371
 20
120.1561718219
 30
0.0
 10
124.3341770254
 20
120.8835934033
 30
0.0
 10
123.9936971983
 20
121.5835137488
 30
0.0
 10
123.5610743815
 20
122.2301307681
 30
0.0
 10
123.0527901763
 20
122.8005667547
 30
0.0
 10
122.4857486031
 20
123.2723969737
 30
0.0
 10
122.0696324101
 20
123.5168500207
 30
0.0
 10
121.8577466424
 20
123.6153401907
 30
0.0
  0
SPLINE
  5
32C
100
AcDbEntity
  8
SUPERFICI
100
AcDbSpline
 62
7
  6
CONTINUOUS
 70
0
 71
3
 72
9
 73
5
 74
0
 42
0.0000001
 43
0.0000001
 44
0.0000000001
 40
0.0
 40
0.0
 40
0.0
 40
0.0
 40
0.4975554147
 40
1.0
 40
1.0
 40
1.0
 40
1.0
 10
123.2209631621
 20
86.0285462215
 30
0.0
 10
123.2209631621
 20
89.0889578404
 30
0.0
 10
123.2801999905
 20
95.2398571935
 30
0.0
 10
123.4621360026
 20
101.388987965
 30
0.0
 10
123.6086325791
 20
104.4759982622
 30
0.0
  0
SPLINE
  5
32D
100
AcDbEntity
  8
SUPERFICI
100
AcDbSpline
 62
7
  6
CONTINUOUS
 70
0
 71
3
 72
9
 73
5
 74
0
 42
0.0000001
 43
0.0000001
 44
0.0000000001
 40
0.0
 40
0.0
 40
0.0
 40
0.0
 40
0.2471908839
 40
1.0
 40
1.0
 40
1.0
 40
1.0
 10
123.6086325791
 20
104.4759982622
 30
0.0
 10
123.6630593942
 20
105.6228929046
 30
0.0
 10
123.9148815155
 20
110.2610631589
 30
0.0
 10
124.2916839737
 20
114.8923398144
 30
0.0
 10
124.6412973582
 20
118.371567008
 30
0.0
  0
SPLINE
  5
32E
100
AcDbEntity
  8
0
100
AcDbSpline
 62
7
  6
CONTINUOUS
 70
0
 71
3
 72
13
 73
9
 74
0
 42
0.0000001
 43
0.0000001
 44
0.0000000001
 40
0.0
 40
0.0
 40
0.0
 40
0.0
 40
0.2358769388
 40
0.4739500433
 40
0.593917152
 40
0.7161780335
 40
0.8482587416
 40
1.0
 40
1.0
 40
1.0
 40
1.0
 10
92.4514243511
 20
77.7388926221
 30
0.0
 10
92.4437433912
 20
77.7344602048
 30
0.0
 10
92.4277634024
 20
77.7264956203
 30
0.0
 10
92.4070357193
 20
77.7181522904
 30
0.0
 10
92.3900616617
 20
77.712011444
 30
0.0
 10
92.3764642587
 20
77.7081703569
 30
0.0
 10
92.3610174024
 20
77.707587656
 30
0.0
 10
92.3505225015
 20
77.7104316845
 30
0.0
 10
92.3452822439
 20
77.712686858
 30
0.0
  0
SPLINE
  5
32F
100
AcDbEntity
  8
0
100
AcDbSpline
 62
7
  6
CONTINUOUS
 70
0
 71
3
 72
11
 73
7
 74
0
 42
0.0000001
 43
0.0000001
 44
0.0000000001
 40
0.0
 40
0.0
 40
0.0
 40
0.0
 40
0.2114900735
 40
0.4446636218
 40
0.7070434334
 40
1.0
 40
1.0
 40
1.0
 40
1.0
 10
92.1577240442
 20
78.0514352698
 30
0.0
 10
92.1700659224
 20
78.0585112518
 30
0.0
 10
92.191751633
 20
78.0809124942
 30
0.0
 10
92.2104565238
 20
78.1252275628
 30
0.0
 10
92.2195203294
 20
78.1778270273
 30
0.0
 10
92.2193572965
 20
78.2153709789
 30
0.0
 10
92.2178281598
 20
78.235018056
 30
0.0
  0
SPLINE
  5
330
100
AcDbEntity
  8
SUPERFICI
100
AcDbSpline
 62
7
  6
CONTINUOUS
 70
0
 71
3
 72
13
 73
9
 74
0
 42
0.0000001
 43
0.0000001
 44
0.0000000001
 40
0.0
 40
0.0
 40
0.0
 40
0.0
 40
0.3034786585
 40
0.428614873
 40
0.5441710542
 40
0.6565839431
 40
0.7702460455
 40
1.0
 40
1.0
 40
1.0
 40
1.0
 10
66.9409276881
 20
155.2881757636
 30
0.0
 10
69.1184900339
 20
153.6893533923
 30
0.0
 10
72.2366266386
 20
151.4886068638
 30
0.0
 10
76.2630573904
 20
148.795367328
 30
0.0
 10
78.8992614347
 20
147.0833353734
 30
0.0
 10
81.4704683103
 20
145.4592454513
 30
0.0
 10
84.9261698142
 20
143.3324316911
 30
0.0
 10
87.5525601967
 20
141.7677234205
 30
0.0
 10
89.3157353988
 20
140.731344446
 30
0.0
  0
SPLINE
  5
331
100
AcDbEntity
  8
RACCORDO
100
AcDbSpline
 62
7
  6
CONTINUOUS
 70
0
 71
3
 72
8
 73
4
 74
0
 42
0.0000001
 43
0.0000001
 44
0.0000000001
 40
0.0
 40
0.0
 40
0.0
 40
0.0
 40
1.0
 40
1.0
 40
1.0
 40
1.0
 10
96.9800336365
 20
82.4584611333
 30
0.0
 10
96.9914172263
 20
82.4658779743
 30
0.0
 10
97.0014203656
 20
82.4759430934
 30
0.0
 10
97.0087625487
 20
82.4873749784
 30
0.0
  0
SPLINE
  5
332
100
AcDbEntity
  8
SUPERFICI
100
AcDbSpline
 62
7
  6
CONTINUOUS
 70
0
 71
3
 72
11
 73
7
 74
0
 42
0.0000001
 43
0.0000001
 44
0.0000000001
 40
0.0
 40
0.0
 40
0.0
 40
0.0
 40
0.2487556611
 40
0.492744274
 40
0.7412295401
 40
1.0
 40
1.0
 40
1.0
 40
1.0
 10
64.6273873979
 20
155.5915653596
 30
0.0
 10
64.7051697322
 20
155.6564069584
 30
0.0
 10
64.8732910212
 20
155.7692842958
 30
0.0
 10
65.157984726
 20
155.8770309859
 30
0.0
 10
65.4637503218
 20
155.9168711966
 30
0.0
 10
65.6711554195
 20
155.8991636203
 30
0.0
 10
65.774803743
 20
155.8803525576
 30
0.0
  0
SPLINE
  5
333
100
AcDbEntity
  8
SUPERFICI
100
AcDbSpline
 62
7
  6
CONTINUOUS
 70
0
 71
3
 72
9
 73
5
 74
0
 42
0.0000001
 43
0.0000001
 44
0.0000000001
 40
0.0
 40
0.0
 40
0.0
 40
0.0
 40
0.2307760267
 40
1.0
 40
1.0
 40
1.0
 40
1.0
 10
65.7977512371
 20
155.8760247968
 30
0.0
 10
65.8732265243
 20
155.8612557266
 30
0.0
 10
66.1960002248
 20
155.7752780253
 30
0.0
 10
66.4942119253
 20
155.6106863294
 30
0.0
 10
66.7025162271
 20
155.4612789751
 30
0.0
  0
LINE
  5
334
100
AcDbEntity
  8
0
100
AcDbLine
 62
7
  6
CONTINUOUS
 10
90.9553504183
 20
77.6149732751
 30
0.0
 11
90.8317330138
 21
78.0614207827
 31
0.0
  0
SPLINE
  5
335
100
AcDbEntity
  8
0
100
AcDbSpline
 62
7
  6
CONTINUOUS
 70
0
 71
3
 72
11
 73
7
 74
0
 42
0.0000001
 43
0.0000001
 44
0.0000000001
 40
0.0
 40
0.0
 40
0.0
 40
0.0
 40
0.2511937893
 40
0.5124285237
 40
0.7686780633
 40
1.0
 40
1.0
 40
1.0
 40
1.0
 10
92.1890887841
 20
77.4816947831
 30
0.0
 10
92.1790035459
 20
77.5110965286
 30
0.0
 10
92.1538249935
 20
77.5695437991
 30
0.0
 10
92.1047578262
 20
77.6514249787
 30
0.0
 10
92.0437220046
 20
77.7219137882
 30
0.0
 10
91.9949052789
 20
77.7584113127
 30
0.0
 10
91.9700336532
 20
77.7725801542
 30
0.0
  0
SPLINE
  5
336
100
AcDbEntity
  8
0
100
AcDbSpline
 62
7
  6
CONTINUOUS
 70
0
 71
3
 72
9
 73
5
 74
0
 42
0.0000001
 43
0.0000001
 44
0.0000000001
 40
0.0
 40
0.0
 40
0.0
 40
0.0
 40
0.4981071931
 40
1.0
 40
1.0
 40
1.0
 40
1.0
 10
92.3934156009
 20
76.7942982281
 30
0.0
 10
92.3602707516
 20
76.9086617804
 30
0.0
 10
92.2925383838
 20
77.1378546684
 30
0.0
 10
92.2280154929
 20
77.368210728
 30
0.0
 10
92.1890887647
 20
77.4816947858
 30
0.0
  0
SPLINE
  5
337
100
AcDbEntity
  8
0
100
AcDbSpline
 62
7
  6
CONTINUOUS
 70
0
 71
3
 72
10
 73
6
 74
0
 42
0.0000001
 43
0.0000001
 44
0.0000000001
 40
0.0
 40
0.0
 40
0.0
 40
0.0
 40
0.5204701476
 40
0.7650446234
 40
1.0
 40
1.0
 40
1.0
 40
1.0
 10
91.992067091
 20
78.6006606373
 30
0.0
 10
91.9450861144
 20
78.6331788795
 30
0.0
 10
91.8734152369
 20
78.6774758807
 30
0.0
 10
91.7747066933
 20
78.7256797394
 30
0.0
 10
91.7259336159
 20
78.7455759701
 30
0.0
 10
91.7018713061
 20
78.7548658667
 30
0.0
  0
SPLINE
  5
338
100
AcDbEntity
  8
0
100
AcDbSpline
 62
7
  6
CONTINUOUS
 70
0
 71
3
 72
11
 73
7
 74
0
 42
0.0000001
 43
0.0000001
 44
0.0000000001
 40
0.0
 40
0.0
 40
0.0
 40
0.0
 40
0.2314767634
 40
0.4907792178
 40
0.7545805171
 40
1.0
 40
1.0
 40
1.0
 40
1.0
 10
92.2178281751
 20
78.2350180475
 30
0.0
 10
92.2151848125
 20
78.2689812318
 30
0.0
 10
92.1972804516
 20
78.339949132
 30
0.0
 10
92.1485824836
 20
78.440500434
 30
0.0
 10
92.0784214883
 20
78.5301736728
 30
0.0
 10
92.0217649604
 20
78.58010503
 30
0.0
 10
91.992067091
 20
78.6006606374
 30
0.0
  0
SPLINE
  5
339
100
AcDbEntity
  8
RACCORDO
100
AcDbSpline
 62
250
  6
CONTINUOUS
 70
0
 71
3
 72
13
 73
9
 74
0
 42
0.0000001
 43
0.0000001
 44
0.0000000001
 40
0.0
 40
0.0
 40
0.0
 40
0.0
 40
0.1162628318
 40
0.2299516211
 40
0.3439541683
 40
0.4610966664
 40
0.7133810317
 40
1.0
 40
1.0
 40
1.0
 40
1.0
 10
62.6930800093
 20
153.9790691843
 30
0.0
 10
62.7529294111
 20
154.0288112997
 30
0.0
 10
62.8804581689
 20
154.1168723728
 30
0.0
 10
63.0929022087
 20
154.2093308779
 30
0.0
 10
63.3201314183
 20
154.2577274532
 30
0.0
 10
63.6454391026
 20
154.2642579212
 30
0.0
 10
64.0783757616
 20
154.1518039689
 30
0.0
 10
64.3928866986
 20
153.9678798761
 30
0.0
 10
64.5483444405
 20
153.8554526366
 30
0.0
  0
SPLINE
  5
33A
100
AcDbEntity
  8
RACCORDO
100
AcDbSpline
 62
250
  6
CONTINUOUS
 70
0
 71
3
 72
13
 73
9
 74
0
 42
0.0000001
 43
0.0000001
 44
0.0000000001
 40
0.0
 40
0.0
 40
0.0
 40
0.0
 40
0.2451788353
 40
0.3688115379
 40
0.4933024226
 40
0.61867236
 40
0.7449176097
 40
1.0
 40
1.0
 40
1.0
 40
1.0
 10
94.2161905334
 20
135.0717778955
 30
0.0
 10
96.2285995322
 20
133.9303848606
 30
0.0
 10
99.2670980894
 20
132.2330933866
 30
0.0
 10
103.3660252499
 20
130.0267685007
 30
0.0
 10
106.4897932281
 20
128.3946266908
 30
0.0
 10
109.6552868134
 20
126.7896787681
 30
0.0
 10
113.945797617
 20
124.6794106472
 30
0.0
 10
117.2033835101
 20
123.1500117252
 30
0.0
 10
119.3938947351
 20
122.1523261548
 30
0.0
  0
SPLINE
  5
33B
100
AcDbEntity
  8
RACCORDO
100
AcDbSpline
 62
250
  6
CONTINUOUS
 70
0
 71
3
 72
9
 73
5
 74
0
 42
0.0000001
 43
0.0000001
 44
0.0000000001
 40
0.0
 40
0.0
 40
0.0
 40
0.0
 40
0.7448014084
 40
1.0
 40
1.0
 40
1.0
 40
1.0
 10
87.0261094273
 20
69.6344974125
 30
0.0
 10
87.0180419965
 20
69.639240026
 30
0.0
 10
87.0080458594
 20
69.6471918503
 30
0.0
 10
86.9997103645
 20
69.6565984641
 30
0.0
 10
86.997684482
 20
69.6590838973
 30
0.0
  0
SPLINE
  5
33C
100
AcDbEntity
  8
RACCORDO
100
AcDbSpline
 62
250
  6
CONTINUOUS
 70
0
 71
3
 72
8
 73
4
 74
0
 42
0.0000001
 43
0.0000001
 44
0.0000000001
 40
0.0
 40
0.0
 40
0.0
 40
0.0
 40
1.0
 40
1.0
 40
1.0
 40
1.0
 10
86.997684482
 20
69.6590838973
 30
0.0
 10
86.9934536127
 20
69.6642744958
 30
0.0
 10
86.9896654086
 20
69.6698508796
 30
0.0
 10
86.986337505
 20
69.6756618715
 30
0.0
  0
SPLINE
  5
33D
100
AcDbEntity
  8
RACCORDO
100
AcDbSpline
 62
250
  6
CONTINUOUS
 70
0
 71
3
 72
9
 73
5
 74
0
 42
0.0000001
 43
0.0000001
 44
0.0000000001
 40
0.0
 40
0.0
 40
0.0
 40
0.0
 40
0.234435427
 40
1.0
 40
1.0
 40
1.0
 40
1.0
 10
86.986337505
 20
69.6756618715
 30
0.0
 10
86.9837205932
 20
69.6802313708
 30
0.0
 10
86.9737310562
 20
69.7003942041
 30
0.0
 10
86.9682768046
 20
69.7226130633
 30
0.0
 10
86.9660904035
 20
69.7396692912
 30
0.0
  0
SPLINE
  5
33E
100
AcDbEntity
  8
RACCORDO
100
AcDbSpline
 62
250
  6
CONTINUOUS
 70
0
 71
3
 72
9
 73
5
 74
0
 42
0.0000001
 43
0.0000001
 44
0.0000000001
 40
0.0
 40
0.0
 40
0.0
 40
0.0
 40
0.4801844409
 40
1.0
 40
1.0
 40
1.0
 40
1.0
 10
87.0445479952
 20
69.6236597674
 30
0.0
 10
87.0336842787
 20
69.6300452224
 30
0.0
 10
87.0134815087
 20
69.6478214095
 30
0.0
 10
87.0006422569
 20
69.6712447231
 30
0.0
 10
86.9956693826
 20
69.6839474056
 30
0.0
  0
SPLINE
  5
33F
100
AcDbEntity
  8
RACCORDO
100
AcDbSpline
 62
250
  6
CONTINUOUS
 70
0
 71
3
 72
8
 73
4
 74
0
 42
0.0000001
 43
0.0000001
 44
0.0000000001
 40
0.0
 40
0.0
 40
0.0
 40
0.0
 40
1.0
 40
1.0
 40
1.0
 40
1.0
 10
86.9956693826
 20
69.6839474056
 30
0.0
 10
86.9929398375
 20
69.6909197404
 30
0.0
 10
86.9906992112
 20
69.698097205
 30
0.0
 10
86.9888932732
 20
69.705363735
 30
0.0
  0
SPLINE
  5
340
100
AcDbEntity
  8
RACCORDO
100
AcDbSpline
 62
250
  6
CONTINUOUS
 70
0
 71
3
 72
8
 73
4
 74
0
 42
0.0000001
 43
0.0000001
 44
0.0000000001
 40
0.0
 40
0.0
 40
0.0
 40
0.0
 40
1.0
 40
1.0
 40
1.0
 40
1.0
 10
86.9888932732
 20
69.705363735
 30
0.0
 10
86.9869739733
 20
69.7130863976
 30
0.0
 10
86.9855374231
 20
69.7209405608
 30
0.0
 10
86.9845256777
 20
69.7288335704
 30
0.0
  0
SPLINE
  5
341
100
AcDbEntity
  8
RACCORDO
100
AcDbSpline
 62
250
  6
CONTINUOUS
 70
0
 71
3
 72
13
 73
9
 74
0
 42
0.0000001
 43
0.0000001
 44
0.0000000001
 40
0.0
 40
0.0
 40
0.0
 40
0.0
 40
0.2397796078
 40
0.3684511076
 40
0.4997824534
 40
0.631144816
 40
0.7599072405
 40
1.0
 40
1.0
 40
1.0
 40
1.0
 10
119.6843951558
 20
122.0205879791
 30
0.0
 10
120.0727527922
 20
121.8417324113
 30
0.0
 10
120.6191191758
 20
121.4493159173
 30
0.0
 10
121.2147417919
 20
120.7846689758
 30
0.0
 10
121.6047674926
 20
120.2029075756
 30
0.0
 10
121.9104028731
 20
119.5725382665
 30
0.0
 10
122.1843464239
 20
118.7223225684
 30
0.0
 10
122.2484995782
 20
118.052141713
 30
0.0
 10
122.2080872237
 20
117.6259309402
 30
0.0
  0
LINE
  5
342
100
AcDbEntity
  8
0
100
AcDbLine
 62
7
  6
CONTINUOUS
 10
89.5894679443
 20
80.3546914988
 30
0.0
 11
89.2785293957
 21
80.5340826549
 31
0.0
  0
SPLINE
  5
343
100
AcDbEntity
  8
RACCORDO
100
AcDbSpline
 62
250
  6
CONTINUOUS
 70
0
 71
3
 72
9
 73
5
 74
0
 42
0.0000001
 43
0.0000001
 44
0.0000000001
 40
0.0
 40
0.0
 40
0.0
 40
0.0
 40
0.7440994998
 40
1.0
 40
1.0
 40
1.0
 40
1.0
 10
94.0786800638
 20
65.5622399176
 30
0.0
 10
94.0703418889
 20
65.5669687947
 30
0.0
 10
94.0600199708
 20
65.5750705922
 30
0.0
 10
94.0515002179
 20
65.5847385545
 30
0.0
 10
94.0494292367
 20
65.5873034533
 30
0.0
  0
SPLINE
  5
344
100
AcDbEntity
  8
RACCORDO
100
AcDbSpline
 62
250
  6
CONTINUOUS
 70
0
 71
3
 72
8
 73
4
 74
0
 42
0.0000001
 43
0.0000001
 44
0.0000000001
 40
0.0
 40
0.0
 40
0.0
 40
0.0
 40
1.0
 40
1.0
 40
1.0
 40
1.0
 10
94.0494292367
 20
65.5873034533
 30
0.0
 10
94.0452659869
 20
65.5924596153
 30
0.0
 10
94.041546164
 20
65.5979982893
 30
0.0
 10
94.0382822779
 20
65.603765932
 30
0.0
  0
SPLINE
  5
345
100
AcDbEntity
  8
RACCORDO
100
AcDbSpline
 62
250
  6
CONTINUOUS
 70
0
 71
3
 72
9
 73
5
 74
0
 42
0.0000001
 43
0.0000001
 44
0.0000000001
 40
0.0
 40
0.0
 40
0.0
 40
0.0
 40
0.2337314387
 40
1.0
 40
1.0
 40
1.0
 40
1.0
 10
94.0382822779
 20
65.603765932
 30
0.0
 10
94.0357084632
 20
65.6083141431
 30
0.0
 10
94.0258691451
 20
65.6284365631
 30
0.0
 10
94.0205351887
 20
65.6505692213
 30
0.0
 10
94.0183916803
 20
65.6675674955
 30
0.0
  0
SPLINE
  5
346
100
AcDbEntity
  8
RACCORDO
100
AcDbSpline
 62
250
  6
CONTINUOUS
 70
0
 71
3
 72
9
 73
5
 74
0
 42
0.0000001
 43
0.0000001
 44
0.0000000001
 40
0.0
 40
0.0
 40
0.0
 40
0.0
 40
0.4610249148
 40
1.0
 40
1.0
 40
1.0
 40
1.0
 10
90.5460100587
 20
67.5839112594
 30
0.0
 10
90.5294296062
 20
67.5934842084
 30
0.0
 10
90.4997110689
 20
67.6257092055
 30
0.0
 10
90.4886654585
 20
67.6669648566
 30
0.0
 10
90.4858421526
 20
67.6891687831
 30
0.0
  0
SPLINE
  5
347
100
AcDbEntity
  8
RACCORDO
100
AcDbSpline
 62
250
  6
CONTINUOUS
 70
0
 71
3
 72
9
 73
5
 74
0
 42
0.0000001
 43
0.0000001
 44
0.0000000001
 40
0.0
 40
0.0
 40
0.0
 40
0.0
 40
0.4784846182
 40
1.0
 40
1.0
 40
1.0
 40
1.0
 10
94.0974471687
 20
65.5515954451
 30
0.0
 10
94.0864444171
 20
65.5578349091
 30
0.0
 10
94.0659255899
 20
65.575626986
 30
0.0
 10
94.0530716727
 20
65.5992895554
 30
0.0
 10
94.0481057947
 20
65.6121504245
 30
0.0
  0
SPLINE
  5
348
100
AcDbEntity
  8
RACCORDO
100
AcDbSpline
 62
250
  6
CONTINUOUS
 70
0
 71
3
 72
8
 73
4
 74
0
 42
0.0000001
 43
0.0000001
 44
0.0000000001
 40
0.0
 40
0.0
 40
0.0
 40
0.0
 40
1.0
 40
1.0
 40
1.0
 40
1.0
 10
94.0481057947
 20
65.6121504245
 30
0.0
 10
94.0454209233
 20
65.6191038334
 30
0.0
 10
94.0432211672
 20
65.6262578421
 30
0.0
 10
94.0414490104
 20
65.6334978622
 30
0.0
  0
SPLINE
  5
349
100
AcDbEntity
  8
RACCORDO
100
AcDbSpline
 62
250
  6
CONTINUOUS
 70
0
 71
3
 72
8
 73
4
 74
0
 42
0.0000001
 43
0.0000001
 44
0.0000000001
 40
0.0
 40
0.0
 40
0.0
 40
0.0
 40
1.0
 40
1.0
 40
1.0
 40
1.0
 10
94.0414490104
 20
65.6334978622
 30
0.0
 10
94.0395616253
 20
65.6412086394
 30
0.0
 10
94.0381513515
 20
65.649047319
 30
0.0
 10
94.0371582153
 20
65.6569233579
 30
0.0
  0
SPLINE
  5
34A
100
AcDbEntity
  8
RACCORDO
100
AcDbSpline
 62
250
  6
CONTINUOUS
 70
0
 71
3
 72
9
 73
5
 74
0
 42
0.0000001
 43
0.0000001
 44
0.0000000001
 40
0.0
 40
0.0
 40
0.0
 40
0.0
 40
0.5032014362
 40
1.0
 40
1.0
 40
1.0
 40
1.0
 10
121.1568747183
 20
103.4092564024
 30
0.0
 10
121.0120956453
 20
100.3178038062
 30
0.0
 10
120.8318532954
 20
94.1692469041
 30
0.0
 10
120.7730489332
 20
88.0189387033
 30
0.0
 10
120.773050577
 20
84.9634774129
 30
0.0
  0
SPLINE
  5
34B
100
AcDbEntity
  8
RACCORDO
100
AcDbSpline
 62
250
  6
CONTINUOUS
 70
0
 71
3
 72
11
 73
7
 74
0
 42
0.0000001
 43
0.0000001
 44
0.0000000001
 40
0.0
 40
0.0
 40
0.0
 40
0.0
 40
0.2130460311
 40
0.4437468208
 40
0.7046144315
 40
1.0
 40
1.0
 40
1.0
 40
1.0
 10
119.2956261664
 20
52.626784978
 30
0.0
 10
119.287463556
 20
52.6304965221
 30
0.0
 10
119.2717726927
 20
52.6414052815
 30
0.0
 10
119.2538853896
 20
52.6655636428
 30
0.0
 10
119.24152906
 20
52.6965893184
 30
0.0
 10
119.2372111661
 20
52.719733331
 30
0.0
 10
119.2358325722
 20
52.7320890331
 30
0.0
  0
SPLINE
  5
34C
100
AcDbEntity
  8
RACCORDO
100
AcDbSpline
 62
250
  6
CONTINUOUS
 70
0
 71
3
 72
9
 73
5
 74
0
 42
0.0000001
 43
0.0000001
 44
0.0000000001
 40
0.0
 40
0.0
 40
0.0
 40
0.0
 40
0.2527495885
 40
1.0
 40
1.0
 40
1.0
 40
1.0
 10
122.1750679928
 20
117.2985287027
 30
0.0
 10
122.0604741393
 20
116.1425368645
 30
0.0
 10
121.6355828584
 20
111.5661050143
 30
0.0
 10
121.3258707176
 20
106.9788776863
 30
0.0
 10
121.1634224779
 20
103.548297627
 30
0.0
  0
SPLINE
  5
34D
100
AcDbEntity
  8
RACCORDO
100
AcDbSpline
 62
250
  6
CONTINUOUS
 70
0
 71
3
 72
11
 73
7
 74
0
 42
0.0000001
 43
0.0000001
 44
0.0000000001
 40
0.0
 40
0.0
 40
0.0
 40
0.0
 40
0.2127144166
 40
0.4432830597
 40
0.7042646372
 40
1.0
 40
1.0
 40
1.0
 40
1.0
 10
119.5863841564
 20
52.49442678
 30
0.0
 10
119.5782733811
 20
52.4981320315
 30
0.0
 10
119.5626865023
 20
52.5090257126
 30
0.0
 10
119.5449538125
 20
52.5331307638
 30
0.0
 10
119.5327333711
 20
52.5640807324
 30
0.0
 10
119.5284869701
 20
52.5871612563
 30
0.0
 10
119.5271397058
 20
52.5994851277
 30
0.0
  0
LINE
  5
34E
100
AcDbEntity
  8
RACCORDO
100
AcDbLine
 62
250
  6
CONTINUOUS
 10
121.1634224779
 20
103.548297627
 30
0.0
 11
121.1568747183
 21
103.4092564024
 31
0.0
  0
SPLINE
  5
34F
100
AcDbEntity
  8
RACCORDO
100
AcDbSpline
 62
250
  6
CONTINUOUS
 70
0
 71
3
 72
9
 73
5
 74
0
 42
0.0000001
 43
0.0000001
 44
0.0000000001
 40
0.0
 40
0.0
 40
0.0
 40
0.0
 40
0.5000201263
 40
1.0
 40
1.0
 40
1.0
 40
1.0
 10
125.2438851507
 20
106.6368630906
 30
0.0
 10
125.2413418853
 20
103.5822329603
 30
0.0
 10
125.2386928325
 20
97.4732166876
 30
0.0
 10
125.2378728753
 20
91.3642002649
 30
0.0
 10
125.2378692224
 20
88.3098149792
 30
0.0
  0
SPLINE
  5
350
100
AcDbEntity
  8
RACCORDO
100
AcDbSpline
 62
250
  6
CONTINUOUS
 70
0
 71
3
 72
11
 73
7
 74
0
 42
0.0000001
 43
0.0000001
 44
0.0000000001
 40
0.0
 40
0.0
 40
0.0
 40
0.0
 40
0.2500733768
 40
0.5000858445
 40
0.7500658088
 40
1.0
 40
1.0
 40
1.0
 40
1.0
 10
125.267460311
 20
119.8499600568
 30
0.0
 10
125.2636307711
 20
118.751690657
 30
0.0
 10
125.2600870245
 20
116.5554071436
 30
0.0
 10
125.25339961
 20
113.2612641122
 30
0.0
 10
125.2473525421
 20
109.9677301718
 30
0.0
 10
125.2448380609
 20
107.7722008097
 30
0.0
 10
125.243916649
 20
106.6745363977
 30
0.0
  0
SPLINE
  5
351
100
AcDbEntity
  8
RACCORDO
100
AcDbSpline
 62
250
  6
CONTINUOUS
 70
0
 71
3
 72
12
 73
8
 74
0
 42
0.0000001
 43
0.0000001
 44
0.0000000001
 40
0.0
 40
0.0
 40
0.0
 40
0.0
 40
0.1249021436
 40
0.2498750427
 40
0.4998874083
 40
0.7499351288
 40
1.0
 40
1.0
 40
1.0
 40
1.0
 10
68.4197478187
 20
155.1420124309
 30
0.0
 10
69.4091409057
 20
154.5649818359
 30
0.0
 10
71.3901777817
 20
153.4134928581
 30
0.0
 10
75.3559782038
 20
151.1144345059
 30
0.0
 10
80.3169004235
 20
148.2437704281
 30
0.0
 10
86.2722057096
 20
144.8012133012
 30
0.0
 10
90.2433799927
 20
142.5073181623
 30
0.0
 10
92.229130453
 20
141.3604962233
 30
0.0
  0
LINE
  5
352
100
AcDbEntity
  8
RACCORDO
100
AcDbLine
 62
250
  6
CONTINUOUS
 10
92.3629038263
 20
141.2833580251
 30
0.0
 11
95.7639337092
 21
139.3192265777
 31
0.0
  0
LINE
  5
353
100
AcDbEntity
  8
RACCORDO
100
AcDbLine
 62
250
  6
CONTINUOUS
 10
121.1568747183
 20
66.9620232463
 30
0.0
 11
121.1634224779
 21
66.8305690646
 31
0.0
  0
SPLINE
  5
354
100
AcDbEntity
  8
RACCORDO
100
AcDbSpline
 62
250
  6
CONTINUOUS
 70
0
 71
3
 72
15
 73
11
 74
0
 42
0.0000001
 43
0.0000001
 44
0.0000000001
 40
0.0
 40
0.0
 40
0.0
 40
0.0
 40
0.1159636606
 40
0.2398717521
 40
0.3693637059
 40
0.5016322621
 40
0.6336671151
 40
0.7624868298
 40
0.8853531654
 40
1.0
 40
1.0
 40
1.0
 40
1.0
 10
123.4715153329
 20
123.3541222726
 30
0.0
 10
123.5944112647
 20
123.275862309
 30
0.0
 10
123.8360337166
 20
123.0937334346
 30
0.0
 10
124.1681539655
 20
122.7680867504
 30
0.0
 10
124.472963191
 20
122.3900574154
 30
0.0
 10
124.7401584894
 20
121.9725048065
 30
0.0
 10
124.9606831074
 20
121.5294726857
 30
0.0
 10
125.1272726776
 20
121.075926949
 30
0.0
 10
125.234269565
 20
120.6271622466
 30
0.0
 10
125.2648323374
 20
120.3290713896
 30
0.0
 10
125.2678869965
 20
120.1850598337
 30
0.0
  0
SPLINE
  5
355
100
AcDbEntity
  8
RACCORDO
100
AcDbSpline
 62
250
  6
CONTINUOUS
 70
0
 71
3
 72
11
 73
7
 74
0
 42
0.0000001
 43
0.0000001
 44
0.0000000001
 40
0.0
 40
0.0
 40
0.0
 40
0.0
 40
0.2221090141
 40
0.45840094
 40
0.7165167783
 40
1.0
 40
1.0
 40
1.0
 40
1.0
 10
81.2187665023
 20
124.4987281438
 30
0.0
 10
81.2449296528
 20
124.5090222508
 30
0.0
 10
81.3023998256
 20
124.5221928442
 30
0.0
 10
81.3939052312
 20
124.5178158537
 30
0.0
 10
81.4892909179
 20
124.4906718165
 30
0.0
 10
81.5508581151
 20
124.4596305381
 30
0.0
 10
81.5815966933
 20
124.4411147613
 30
0.0
  0
SPLINE
  5
356
100
AcDbEntity
  8
RACCORDO
100
AcDbSpline
 62
250
  6
CONTINUOUS
 70
0
 71
3
 72
9
 73
5
 74
0
 42
0.0000001
 43
0.0000001
 44
0.0000000001
 40
0.0
 40
0.0
 40
0.0
 40
0.0
 40
0.2472542826
 40
1.0
 40
1.0
 40
1.0
 40
1.0
 10
60.9584354057
 20
138.1132198729
 30
0.0
 10
61.012442172
 20
139.2493542338
 30
0.0
 10
61.2615676636
 20
143.8428596911
 30
0.0
 10
61.6319958026
 20
148.4296859573
 30
0.0
 10
61.9749424623
 20
151.8754367995
 30
0.0
  0
LINE
  5
357
100
AcDbEntity
  8
RACCORDO
100
AcDbLine
 62
250
  6
CONTINUOUS
 10
61.9749424623
 20
151.8754367995
 30
0.0
 11
62.0076269605
 21
152.2040072011
 31
0.0
  0
SPLINE
  5
358
100
AcDbEntity
  8
RACCORDO
100
AcDbSpline
 62
250
  6
CONTINUOUS
 70
0
 71
3
 72
20
 73
16
 74
0
 42
0.0000001
 43
0.0000001
 44
0.0000000001
 40
0.0
 40
0.0
 40
0.0
 40
0.0
 40
0.1538627013
 40
0.2251194916
 40
0.292449419
 40
0.4156362302
 40
0.4726386915
 40
0.5274029655
 40
0.5808841645
 40
0.6341452387
 40
0.688272499
 40
0.7442593579
 40
0.802960983
 40
0.8649511026
 40
1.0
 40
1.0
 40
1.0
 40
1.0
 10
62.0076269605
 20
152.2040072011
 30
0.0
 10
62.0250556133
 20
152.3819444394
 30
0.0
 10
62.0689656878
 20
152.6414219156
 30
0.0
 10
62.1717990072
 20
152.9658571136
 30
0.0
 10
62.2925199817
 20
153.2453704534
 30
0.0
 10
62.451593444
 20
153.4896683233
 30
0.0
 10
62.647878983
 20
153.6808374298
 30
0.0
 10
62.8059702279
 20
153.7914140515
 30
0.0
 10
62.9766535032
 20
153.8717136654
 30
0.0
 10
63.1581901298
 20
153.9202556772
 30
0.0
 10
63.3481984939
 20
153.9369668417
 30
0.0
 10
63.5446187144
 20
153.9219586257
 30
0.0
 10
63.7452312439
 20
153.8750112487
 30
0.0
 10
64.0235737987
 20
153.769025022
 30
0.0
 10
64.2209908527
 20
153.6483820533
 30
0.0
 10
64.347167322
 20
153.5550782138
 30
0.0
  0
SPLINE
  5
359
100
AcDbEntity
  8
RACCORDO
100
AcDbSpline
 62
250
  6
CONTINUOUS
 70
0
 71
3
 72
9
 73
5
 74
0
 42
0.0000001
 43
0.0000001
 44
0.0000000001
 40
0.0
 40
0.0
 40
0.0
 40
0.0
 40
0.495609413
 40
1.0
 40
1.0
 40
1.0
 40
1.0
 10
64.5764872269
 20
153.3866835878
 30
0.0
 10
66.4685275161
 20
152.001657456
 30
0.0
 10
70.3311046227
 20
149.2680333547
 30
0.0
 10
74.276148315
 20
146.6549884298
 30
0.0
 10
76.2845932569
 20
145.3662606967
 30
0.0
  0
SPLINE
  5
35A
100
AcDbEntity
  8
RACCORDO
100
AcDbSpline
 62
250
  6
CONTINUOUS
 70
0
 71
3
 72
9
 73
5
 74
0
 42
0.0000001
 43
0.0000001
 44
0.0000000001
 40
0.0
 40
0.0
 40
0.0
 40
0.0
 40
0.2486841165
 40
1.0
 40
1.0
 40
1.0
 40
1.0
 10
79.7180730627
 20
143.2022801503
 30
0.0
 10
80.3142362474
 20
142.8330152259
 30
0.0
 10
82.7171318688
 20
141.3572164246
 30
0.0
 10
85.1396121235
 20
139.9134968153
 30
0.0
 10
86.9660904035
 20
138.8399267696
 30
0.0
  0
SPLINE
  5
35B
100
AcDbEntity
  8
RACCORDO
100
AcDbSpline
 62
250
  6
CONTINUOUS
 70
0
 71
3
 72
9
 73
5
 74
0
 42
0.0000001
 43
0.0000001
 44
0.0000000001
 40
0.0
 40
0.0
 40
0.0
 40
0.0
 40
0.4969474693
 40
1.0
 40
1.0
 40
1.0
 40
1.0
 10
80.6230452923
 20
106.0259447717
 30
0.0
 10
80.6230453102
 20
109.0213685944
 30
0.0
 10
80.6807694107
 20
115.049022951
 30
0.0
 10
80.8563136961
 20
121.0749623076
 30
0.0
 10
80.9966336752
 20
124.1039368007
 30
0.0
  0
SPLINE
  5
35C
100
AcDbEntity
  8
RACCORDO
100
AcDbSpline
 62
250
  6
CONTINUOUS
 70
0
 71
3
 72
9
 73
5
 74
0
 42
0.0000001
 43
0.0000001
 44
0.0000000001
 40
0.0
 40
0.0
 40
0.0
 40
0.0
 40
0.4968242879
 40
1.0
 40
1.0
 40
1.0
 40
1.0
 10
60.5668236277
 20
119.517005389
 30
0.0
 10
60.5668236277
 20
122.5745378592
 30
0.0
 10
60.625737103
 20
128.728695781
 30
0.0
 10
60.8063423652
 20
134.8810994719
 30
0.0
 10
60.9515075378
 20
137.9743151354
 30
0.0
  0
SPLINE
  5
35D
100
AcDbEntity
  8
RACCORDO
100
AcDbSpline
 62
250
  6
CONTINUOUS
 70
0
 71
3
 72
11
 73
7
 74
0
 42
0.0000001
 43
0.0000001
 44
0.0000000001
 40
0.0
 40
0.0
 40
0.0
 40
0.0
 40
0.2905782465
 40
0.5493599205
 40
0.7815717708
 40
1.0
 40
1.0
 40
1.0
 40
1.0
 10
80.9966336752
 20
124.1039368007
 30
0.0
 10
80.9987777226
 20
124.1501445768
 30
0.0
 10
81.0103951802
 20
124.2375152055
 30
0.0
 10
81.0546358157
 20
124.3552330021
 30
0.0
 10
81.1240937214
 20
124.4467173337
 30
0.0
 10
81.1864114585
 20
124.4859910959
 30
0.0
 10
81.2187665023
 20
124.4987281438
 30
0.0
  0
LINE
  5
35E
100
AcDbEntity
  8
0
100
AcDbLine
 62
7
  6
CONTINUOUS
 10
90.3100194525
 20
78.0505468208
 30
0.0
 11
90.3595269536
 21
78.2723795004
 31
0.0
  0
SPLINE
  5
35F
100
AcDbEntity
  8
RACCORDO
100
AcDbSpline
 62
250
  6
CONTINUOUS
 70
0
 71
3
 72
12
 73
8
 74
0
 42
0.0000001
 43
0.0000001
 44
0.0000000001
 40
0.0
 40
0.0
 40
0.0
 40
0.0
 40
0.2499346831
 40
0.4998866205
 40
0.7498741451
 40
0.8749014628
 40
1.0
 40
1.0
 40
1.0
 40
1.0
 10
99.4325378242
 20
137.2013578496
 30
0.0
 10
101.4091996528
 20
136.0603411534
 30
0.0
 10
105.3628528954
 20
133.7785634042
 30
0.0
 10
111.2947844385
 20
130.3576054159
 30
0.0
 10
116.2398909073
 20
127.5086702152
 30
0.0
 10
120.1989057646
 20
125.2320515577
 30
0.0
 10
122.1802748641
 20
124.0957117097
 30
0.0
 10
123.1720663772
 20
123.5288226848
 30
0.0
  0
SPLINE
  5
360
100
AcDbEntity
  8
RACCORDO
100
AcDbSpline
 62
250
  6
CONTINUOUS
 70
0
 71
3
 72
9
 73
5
 74
0
 42
0.0000001
 43
0.0000001
 44
0.0000000001
 40
0.0
 40
0.0
 40
0.0
 40
0.0
 40
0.2330357141
 40
1.0
 40
1.0
 40
1.0
 40
1.0
 10
67.5910679724
 20
155.5044361238
 30
0.0
 10
67.6419379173
 20
155.495181523
 30
0.0
 10
67.8581012302
 20
155.4437676822
 30
0.0
 10
68.0628069775
 20
155.3501175615
 30
0.0
 10
68.2098234175
 20
155.2644192471
 30
0.0
  0
LINE
  5
361
100
AcDbEntity
  8
RACCORDO
100
AcDbLine
 62
250
  6
CONTINUOUS
 10
95.8816477653
 20
139.25124431
 30
0.0
 11
99.2993330634
 21
137.2783665781
 31
0.0
  0
SPLINE
  5
362
100
AcDbEntity
  8
RACCORDO
100
AcDbSpline
 62
250
  6
CONTINUOUS
 70
0
 71
3
 72
9
 73
5
 74
0
 42
0.0000001
 43
0.0000001
 44
0.0000000001
 40
0.0
 40
0.0
 40
0.0
 40
0.0
 40
0.2532970874
 40
1.0
 40
1.0
 40
1.0
 40
1.0
 10
121.1634224779
 20
66.8305690646
 30
0.0
 10
121.2167398273
 20
65.7663978028
 30
0.0
 10
121.4582685996
 20
61.5667530254
 30
0.0
 10
121.8254694828
 20
57.3741784745
 30
0.0
 10
122.1750679928
 20
54.2526534574
 30
0.0
  0
SPLINE
  5
363
100
AcDbEntity
  8
0
100
AcDbSpline
 62
7
  6
CONTINUOUS
 70
0
 71
3
 72
18
 73
14
 74
0
 42
0.0000001
 43
0.0000001
 44
0.0000000001
 40
0.0
 40
0.0
 40
0.0
 40
0.0
 40
0.0412255111
 40
0.0837922333
 40
0.1290921288
 40
0.177899115
 40
0.287111886
 40
0.4110797085
 40
0.5484620349
 40
0.6967372107
 40
0.8496926442
 40
0.9258121373
 40
1.0
 40
1.0
 40
1.0
 40
1.0
 10
92.5081406738
 20
77.7716426185
 30
0.0
 10
92.5214078399
 20
77.7792960251
 30
0.0
 10
92.5467841095
 20
77.7980153625
 30
0.0
 10
92.5766503938
 20
77.8361424387
 30
0.0
 10
92.5991802442
 20
77.8819625603
 30
0.0
 10
92.620526177
 20
77.954751253
 30
0.0
 10
92.6273667989
 20
78.0603877259
 30
0.0
 10
92.6114520994
 20
78.1976114933
 30
0.0
 10
92.5703923187
 20
78.3448532669
 30
0.0
 10
92.502533838
 20
78.493639577
 30
0.0
 10
92.4271492846
 20
78.6124091607
 30
0.0
 10
92.3573359324
 20
78.7009110705
 30
0.0
 10
92.319335183
 20
78.7420046945
 30
0.0
 10
92.2992941942
 20
78.7609273805
 30
0.0
  0
SPLINE
  5
364
100
AcDbEntity
  8
RACCORDO
100
AcDbSpline
 62
250
  6
CONTINUOUS
 70
0
 71
3
 72
9
 73
5
 74
0
 42
0.0000001
 43
0.0000001
 44
0.0000000001
 40
0.0
 40
0.0
 40
0.0
 40
0.0
 40
0.5000200459
 40
1.0
 40
1.0
 40
1.0
 40
1.0
 10
125.237869198
 20
88.2690257472
 30
0.0
 10
125.2378691945
 20
85.2142838428
 30
0.0
 10
125.2386827802
 20
79.1050450148
 30
0.0
 10
125.2413201368
 20
72.9958063353
 30
0.0
 10
125.2438538482
 20
69.9413104118
 30
0.0
  0
SPLINE
  5
365
100
AcDbEntity
  8
0
100
AcDbSpline
 62
7
  6
CONTINUOUS
 70
0
 71
3
 72
9
 73
5
 74
0
 42
0.0000001
 43
0.0000001
 44
0.0000000001
 40
0.0
 40
0.0
 40
0.0
 40
0.0
 40
0.2344681968
 40
1.0
 40
1.0
 40
1.0
 40
1.0
 10
92.1833195152
 20
78.0738593877
 30
0.0
 10
92.1786666983
 20
78.0731897702
 30
0.0
 10
92.1586243638
 20
78.0716582875
 30
0.0
 10
92.1384900926
 20
78.0747106252
 30
0.0
 10
92.1235487796
 20
78.0782196034
 30
0.0
  0
SPLINE
  5
366
100
AcDbEntity
  8
0
100
AcDbSpline
 62
7
  6
CONTINUOUS
 70
0
 71
3
 72
9
 73
5
 74
0
 42
0.0000001
 43
0.0000001
 44
0.0000000001
 40
0.0
 40
0.0
 40
0.0
 40
0.0
 40
0.479149998
 40
1.0
 40
1.0
 40
1.0
 40
1.0
 10
92.1235487796
 20
78.0782196034
 30
0.0
 10
92.1037314551
 20
78.0828737164
 30
0.0
 10
92.0634614645
 20
78.0971434552
 30
0.0
 10
92.025369426
 20
78.1160547344
 30
0.0
 10
92.0059468731
 20
78.1266574534
 30
0.0
  0
LINE
  5
367
100
AcDbEntity
  8
0
100
AcDbLine
 62
7
  6
CONTINUOUS
 10
90.7265629351
 20
79.7010525131
 30
0.0
 11
90.3684932399
 21
79.9064787247
 31
0.0
  0
SPLINE
  5
368
100
AcDbEntity
  8
RACCORDO
100
AcDbSpline
 62
250
  6
CONTINUOUS
 70
0
 71
3
 72
9
 73
5
 74
0
 42
0.0000001
 43
0.0000001
 44
0.0000000001
 40
0.0
 40
0.0
 40
0.0
 40
0.0
 40
0.4953613966
 40
1.0
 40
1.0
 40
1.0
 40
1.0
 10
94.0371582153
 20
134.7571808364
 30
0.0
 10
96.9295379033
 20
133.1166882892
 30
0.0
 10
102.7999793393
 20
129.8592490014
 30
0.0
 10
108.7816468188
 20
126.809080761
 30
0.0
 10
111.8254770588
 20
125.3224035681
 30
0.0
  0
SPLINE
  5
369
100
AcDbEntity
  8
RACCORDO
100
AcDbSpline
 62
250
  6
CONTINUOUS
 70
0
 71
3
 72
13
 73
9
 74
0
 42
0.0000001
 43
0.0000001
 44
0.0000000001
 40
0.0
 40
0.0
 40
0.0
 40
0.0
 40
0.2399785627
 40
0.3685704065
 40
0.499771959
 40
0.6310052575
 40
0.7596907758
 40
1.0
 40
1.0
 40
1.0
 40
1.0
 10
119.5271394932
 20
121.6948538497
 30
0.0
 10
119.886555018
 20
121.5330984894
 30
0.0
 10
120.3928886215
 20
121.1750520345
 30
0.0
 10
120.9436014679
 20
120.5646852629
 30
0.0
 10
121.3031044956
 20
120.0296065079
 30
0.0
 10
121.5834515915
 20
119.4489685417
 30
0.0
 10
121.8326886752
 20
118.6647815389
 30
0.0
 10
121.8870119707
 20
118.0465053104
 30
0.0
 10
121.8462517946
 20
117.653935176
 30
0.0
  0
SPLINE
  5
36A
100
AcDbEntity
  8
RACCORDO
100
AcDbSpline
 62
250
  6
CONTINUOUS
 70
0
 71
3
 72
9
 73
5
 74
0
 42
0.0000001
 43
0.0000001
 44
0.0000000001
 40
0.0
 40
0.0
 40
0.0
 40
0.0
 40
0.2527502108
 40
1.0
 40
1.0
 40
1.0
 40
1.0
 10
121.8132338512
 20
117.3255573014
 30
0.0
 10
121.6985211147
 20
116.1683699095
 30
0.0
 10
121.2731898956
 20
111.5872162878
 30
0.0
 10
120.9631560123
 20
106.995256056
 30
0.0
 10
120.8005389542
 20
103.5611392817
 30
0.0
  0
SPLINE
  5
36B
100
AcDbEntity
  8
RACCORDO
100
AcDbSpline
 62
250
  6
CONTINUOUS
 70
0
 71
3
 72
9
 73
5
 74
0
 42
0.0000001
 43
0.0000001
 44
0.0000000001
 40
0.0
 40
0.0
 40
0.0
 40
0.0
 40
0.239910617
 40
1.0
 40
1.0
 40
1.0
 40
1.0
 10
96.8570348854
 20
115.6212681954
 30
0.0
 10
96.8703532047
 20
115.6138970642
 30
0.0
 10
96.9248925727
 20
115.5814226173
 30
0.0
 10
96.9754772085
 20
115.542482375
 30
0.0
 10
97.0114822392
 20
115.5103970995
 30
0.0
  0
SPLINE
  5
36C
100
AcDbEntity
  8
RACCORDO
100
AcDbSpline
 62
250
  6
CONTINUOUS
 70
0
 71
3
 72
9
 73
5
 74
0
 42
0.0000001
 43
0.0000001
 44
0.0000000001
 40
0.0
 40
0.0
 40
0.0
 40
0.0
 40
0.2423603853
 40
1.0
 40
1.0
 40
1.0
 40
1.0
 10
97.0114822392
 20
115.5103970995
 30
0.0
 10
97.0281360039
 20
115.4955563781
 30
0.0
 10
97.0947870514
 20
115.4320251376
 30
0.0
 10
97.1532629227
 20
115.3600779647
 30
0.0
 10
97.1926667945
 20
115.3025450119
 30
0.0
  0
SPLINE
  5
36D
100
AcDbEntity
  8
RACCORDO
100
AcDbSpline
 62
250
  6
CONTINUOUS
 70
0
 71
3
 72
9
 73
5
 74
0
 42
0.0000001
 43
0.0000001
 44
0.0000000001
 40
0.0
 40
0.0
 40
0.0
 40
0.0
 40
0.5223500283
 40
1.0
 40
1.0
 40
1.0
 40
1.0
 10
97.2508974852
 20
115.2090691394
 30
0.0
 10
97.3026741326
 20
115.1173951344
 30
0.0
 10
97.3811213593
 20
114.9294465241
 30
0.0
 10
97.409107588
 20
114.7262381213
 30
0.0
 10
97.404814971
 20
114.6300585633
 30
0.0
  0
SPLINE
  5
36E
100
AcDbEntity
  8
RACCORDO
100
AcDbSpline
 62
250
  6
CONTINUOUS
 70
0
 71
3
 72
9
 73
5
 74
0
 42
0.0000001
 43
0.0000001
 44
0.0000000001
 40
0.0
 40
0.0
 40
0.0
 40
0.0
 40
0.5031757122
 40
1.0
 40
1.0
 40
1.0
 40
1.0
 10
120.7944190261
 20
103.4217654248
 30
0.0
 10
120.6492538504
 20
100.3285497344
 30
0.0
 10
120.4686485848
 20
94.1761459903
 30
0.0
 10
120.4097351085
 20
88.0219880153
 30
0.0
 10
120.4097351085
 20
84.9644555189
 30
0.0
  0
SPLINE
  5
36F
100
AcDbEntity
  8
RACCORDO
100
AcDbSpline
 62
250
  6
CONTINUOUS
 70
0
 71
3
 72
9
 73
5
 74
0
 42
0.0000001
 43
0.0000001
 44
0.0000000001
 40
0.0
 40
0.0
 40
0.0
 40
0.0
 40
0.5031538511
 40
1.0
 40
1.0
 40
1.0
 40
1.0
 10
97.404814971
 20
114.6300585633
 30
0.0
 10
97.2693493217
 20
111.599064368
 30
0.0
 10
97.0998144916
 20
105.5706535797
 30
0.0
 10
97.0440587697
 20
99.540641775
 30
0.0
 10
97.0440588503
 20
96.544657347
 30
0.0
  0
LINE
  5
370
100
AcDbEntity
  8
0
100
AcDbLine
 62
7
  6
CONTINUOUS
 10
90.7147507553
 20
78.4849594498
 30
0.0
 11
90.4391535691
 21
78.6431133537
 31
0.0
  0
SPLINE
  5
371
100
AcDbEntity
  8
RACCORDO
100
AcDbSpline
 62
7
  6
CONTINUOUS
 70
0
 71
3
 72
8
 73
4
 74
0
 42
0.0000001
 43
0.0000001
 44
0.0000000001
 40
0.0
 40
0.0
 40
0.0
 40
0.0
 40
1.0
 40
1.0
 40
1.0
 40
1.0
 10
97.0087625487
 20
82.4873749784
 30
0.0
 10
97.0124751232
 20
82.4931555103
 30
0.0
 10
97.0155981975
 20
82.4993525486
 30
0.0
 10
97.0180810809
 20
82.505758253
 30
0.0
  0
SPLINE
  5
372
100
AcDbEntity
  8
RACCORDO
100
AcDbSpline
 62
7
  6
CONTINUOUS
 70
0
 71
3
 72
9
 73
5
 74
0
 42
0.0000001
 43
0.0000001
 44
0.0000000001
 40
0.0
 40
0.0
 40
0.0
 40
0.0
 40
0.2400352627
 40
1.0
 40
1.0
 40
1.0
 40
1.0
 10
97.0180810809
 20
82.505758253
 30
0.0
 10
97.0194782662
 20
82.5093629152
 30
0.0
 10
97.0244826674
 20
82.52469574
 30
0.0
 10
97.0263143856
 20
82.5409661615
 30
0.0
 10
97.0263143856
 20
82.5532060304
 30
0.0
  0
SPLINE
  5
373
100
AcDbEntity
  8
RACCORDO
100
AcDbSpline
 62
250
  6
CONTINUOUS
 70
0
 71
3
 72
11
 73
7
 74
0
 42
0.0000001
 43
0.0000001
 44
0.0000000001
 40
0.0
 40
0.0
 40
0.0
 40
0.0
 40
0.2500657064
 40
0.5000856505
 40
0.7500727836
 40
1.0
 40
1.0
 40
1.0
 40
1.0
 10
125.2438851507
 20
69.9036509972
 30
0.0
 10
125.2448001224
 20
68.8053205817
 30
0.0
 10
125.2472994064
 20
66.6088612271
 30
0.0
 10
125.2533353101
 20
63.3144201778
 30
0.0
 10
125.2600408306
 20
60.0205896277
 30
0.0
 10
125.2635780269
 20
57.8248825808
 30
0.0
 10
125.2673813762
 20
56.7271666448
 30
0.0
  0
SPLINE
  5
374
100
AcDbEntity
  8
0
100
AcDbSpline
 62
7
  6
CONTINUOUS
 70
0
 71
3
 72
9
 73
5
 74
0
 42
0.0000001
 43
0.0000001
 44
0.0000000001
 40
0.0
 40
0.0
 40
0.0
 40
0.0
 40
0.2497436837
 40
1.0
 40
1.0
 40
1.0
 40
1.0
 10
92.7900305998
 20
76.6884303984
 30
0.0
 10
92.7777300039
 20
76.7332236862
 30
0.0
 10
92.7291417031
 20
76.9127621094
 30
0.0
 10
92.6807141361
 20
77.0923461083
 30
0.0
 10
92.6434055683
 20
77.2268115146
 30
0.0
  0
SPLINE
  5
375
100
AcDbEntity
  8
0
100
AcDbSpline
 62
7
  6
CONTINUOUS
 70
0
 71
3
 72
11
 73
7
 74
0
 42
0.0000001
 43
0.0000001
 44
0.0000000001
 40
0.0
 40
0.0
 40
0.0
 40
0.0
 40
0.2364765198
 40
0.4814599013
 40
0.7377913418
 40
1.0
 40
1.0
 40
1.0
 40
1.0
 10
92.6434055683
 20
77.2268115146
 30
0.0
 10
92.6320652129
 20
77.2676837746
 30
0.0
 10
92.6095726908
 20
77.351083224
 30
0.0
 10
92.5656048445
 20
77.4761059806
 30
0.0
 10
92.5073547286
 20
77.6003088068
 30
0.0
 10
92.4544281398
 20
77.6778675965
 30
0.0
 10
92.4229300683
 20
77.7127941912
 30
0.0
  0
SPLINE
  5
376
100
AcDbEntity
  8
0
100
AcDbSpline
 62
7
  6
CONTINUOUS
 70
0
 71
3
 72
11
 73
7
 74
0
 42
0.0000001
 43
0.0000001
 44
0.0000000001
 40
0.0
 40
0.0
 40
0.0
 40
0.0
 40
0.2735926359
 40
0.5278716716
 40
0.7686057335
 40
1.0
 40
1.0
 40
1.0
 40
1.0
 10
92.2992941942
 20
78.7609273805
 30
0.0
 10
92.2282511876
 20
78.8280439101
 30
0.0
 10
92.0788344566
 20
78.9445244202
 30
0.0
 10
91.8446536682
 20
79.0883619402
 30
0.0
 10
91.6129413014
 20
79.2057244324
 30
0.0
 10
91.4580046257
 20
79.2725053022
 30
0.0
 10
91.3815886581
 20
79.3040185679
 30
0.0
  0
SPLINE
  5
377
100
AcDbEntity
  8
RACCORDO
100
AcDbSpline
 62
250
  6
CONTINUOUS
 70
0
 71
3
 72
9
 73
5
 74
0
 42
0.0000001
 43
0.0000001
 44
0.0000000001
 40
0.0
 40
0.0
 40
0.0
 40
0.0
 40
0.5033733975
 40
1.0
 40
1.0
 40
1.0
 40
1.0
 10
120.773050577
 20
84.9634774129
 30
0.0
 10
120.7730517826
 20
81.942101663
 30
0.0
 10
120.8300376585
 20
75.9398647861
 30
0.0
 10
121.0094416788
 20
69.9392547889
 30
0.0
 10
121.1568747183
 20
66.9620232463
 30
0.0
  0
SPLINE
  5
378
100
AcDbEntity
  8
RACCORDO
100
AcDbSpline
 62
250
  6
CONTINUOUS
 70
0
 71
3
 72
9
 73
5
 74
0
 42
0.0000001
 43
0.0000001
 44
0.0000000001
 40
0.0
 40
0.0
 40
0.0
 40
0.0
 40
0.2682869176
 40
1.0
 40
1.0
 40
1.0
 40
1.0
 10
125.2684572562
 20
56.4352191134
 30
0.0
 10
125.2686893355
 20
56.3751260697
 30
0.0
 10
125.261646108
 20
56.1513716629
 30
0.0
 10
125.2205495794
 20
55.9272441007
 30
0.0
 10
125.1646426593
 20
55.7731779922
 30
0.0
  0
LINE
  5
379
100
AcDbEntity
  8
0
100
AcDbLine
 62
7
  6
CONTINUOUS
 10
92.0059468242
 20
78.1266574813
 30
0.0
 11
91.7937264712
 21
78.2476186312
 31
0.0
  0
SPLINE
  5
37A
100
AcDbEntity
  8
RACCORDO
100
AcDbSpline
 62
250
  6
CONTINUOUS
 70
0
 71
3
 72
11
 73
7
 74
0
 42
0.0000001
 43
0.0000001
 44
0.0000000001
 40
0.0
 40
0.0
 40
0.0
 40
0.0
 40
0.2145138873
 40
0.4492514049
 40
0.7104920742
 40
1.0
 40
1.0
 40
1.0
 40
1.0
 10
97.2210667525
 20
78.5180380796
 30
0.0
 10
97.1957495568
 20
78.5083078906
 30
0.0
 10
97.1392889349
 20
78.4962847578
 30
0.0
 10
97.0488054116
 20
78.5012726648
 30
0.0
 10
96.9524336874
 20
78.5276038416
 30
0.0
 10
96.8890745464
 20
78.5572555396
 30
0.0
 10
96.8570348854
 20
78.5749576294
 30
0.0
  0
SPLINE
  5
37B
100
AcDbEntity
  8
RACCORDO
100
AcDbSpline
 62
250
  6
CONTINUOUS
 70
0
 71
3
 72
9
 73
5
 74
0
 42
0.0000001
 43
0.0000001
 44
0.0000000001
 40
0.0
 40
0.0
 40
0.0
 40
0.0
 40
0.2532981484
 40
1.0
 40
1.0
 40
1.0
 40
1.0
 10
120.8005389542
 20
66.8199768261
 30
0.0
 10
120.853911499
 20
65.754729365
 30
0.0
 10
121.0956895545
 20
61.5508551857
 30
0.0
 10
121.4632708253
 20
57.3540587127
 30
0.0
 10
121.8132338512
 20
54.2293956756
 30
0.0
  0
SPLINE
  5
37C
100
AcDbEntity
  8
RACCORDO
100
AcDbSpline
 62
250
  6
CONTINUOUS
 70
0
 71
3
 72
20
 73
16
 74
0
 42
0.0000001
 43
0.0000001
 44
0.0000000001
 40
0.0
 40
0.0
 40
0.0
 40
0.0
 40
0.1371817336
 40
0.2002553548
 40
0.2600016829
 40
0.3169272313
 40
0.3718080926
 40
0.4255709978
 40
0.4792397045
 40
0.5338578121
 40
0.5903864233
 40
0.6496246527
 40
0.7121387292
 40
0.8483019695
 40
1.0
 40
1.0
 40
1.0
 40
1.0
 10
121.8462517946
 20
53.9387610403
 30
0.0
 10
121.8638195152
 20
53.7887790604
 30
0.0
 10
121.8710084709
 20
53.5663605058
 30
0.0
 10
121.8300641894
 20
53.282515846
 30
0.0
 10
121.7771189026
 20
53.0912182284
 30
0.0
 10
121.7006122041
 20
52.9177732356
 30
0.0
 10
121.6014271349
 20
52.7639309265
 30
0.0
 10
121.48060749
 20
52.6311274083
 30
0.0
 10
121.3388732952
 20
52.5213677849
 30
0.0
 10
121.1781284099
 20
52.4354959693
 30
0.0
 10
120.9999900826
 20
52.374453492
 30
0.0
 10
120.8063835664
 20
52.3387016938
 30
0.0
 10
120.5221617931
 20
52.3238117307
 30
0.0
 10
120.1365936256
 20
52.374134757
 30
0.0
 10
119.8335797098
 20
52.4717971189
 30
0.0
 10
119.6787147618
 20
52.5342582032
 30
0.0
  0
LINE
  5
37D
100
AcDbEntity
  8
RACCORDO
100
AcDbLine
 62
250
  6
CONTINUOUS
 10
119.5271394932
 20
52.5994849335
 30
0.0
 11
119.3680765873
 21
52.6719040758
 31
0.0
  0
LINE
  5
37E
100
AcDbEntity
  8
RACCORDO
100
AcDbLine
 62
250
  6
CONTINUOUS
 10
119.3680765873
 20
52.6719040758
 30
0.0
 11
119.235832572
 21
52.7320890332
 31
0.0
  0
SPLINE
  5
37F
100
AcDbEntity
  8
RACCORDO
100
AcDbSpline
 62
250
  6
CONTINUOUS
 70
0
 71
3
 72
13
 73
9
 74
0
 42
0.0000001
 43
0.0000001
 44
0.0000000001
 40
0.0
 40
0.0
 40
0.0
 40
0.0
 40
0.2550522864
 40
0.3812907765
 40
0.5066596871
 40
0.6311554765
 40
0.7547977192
 40
1.0
 40
1.0
 40
1.0
 40
1.0
 10
119.235832572
 20
52.7320890332
 30
0.0
 10
117.0516771329
 20
53.7259807892
 30
0.0
 10
113.8034533232
 20
55.2496193396
 30
0.0
 10
109.5251343835
 20
57.3520316989
 30
0.0
 10
106.3684060642
 20
58.9511437304
 30
0.0
 10
103.2531147738
 20
60.5774164743
 30
0.0
 10
99.1651717206
 20
62.7760396835
 30
0.0
 10
96.1348875352
 20
64.4677062171
 30
0.0
 10
94.1279624644
 20
65.605434528
 30
0.0
  0
SPLINE
  5
380
100
AcDbEntity
  8
RACCORDO
100
AcDbSpline
 62
250
  6
CONTINUOUS
 70
0
 71
3
 72
11
 73
7
 74
0
 42
0.0000001
 43
0.0000001
 44
0.0000000001
 40
0.0
 40
0.0
 40
0.0
 40
0.0
 40
0.293880961
 40
0.5510602387
 40
0.7803630144
 40
1.0
 40
1.0
 40
1.0
 40
1.0
 10
97.404814971
 20
78.8906666308
 30
0.0
 10
97.4068598728
 20
78.8473031292
 30
0.0
 10
97.4034912651
 20
78.7652615039
 30
0.0
 10
97.3705062582
 20
78.6532348385
 30
0.0
 10
97.3093231699
 20
78.565961012
 30
0.0
 10
97.2513494155
 20
78.529682999
 30
0.0
 10
97.2210667525
 20
78.5180380796
 30
0.0
  0
SPLINE
  5
381
100
AcDbEntity
  8
RACCORDO
100
AcDbSpline
 62
250
  6
CONTINUOUS
 70
0
 71
3
 72
10
 73
6
 74
0
 42
0.0000001
 43
0.0000001
 44
0.0000000001
 40
0.0
 40
0.0
 40
0.0
 40
0.0
 40
0.5033195606
 40
0.7527003583
 40
1.0
 40
1.0
 40
1.0
 40
1.0
 10
97.0440588503
 20
96.544657347
 30
0.0
 10
97.0440588672
 20
93.5819536484
 30
0.0
 10
97.084594551
 20
89.1511468536
 30
0.0
 10
97.2254666867
 20
83.2664241636
 30
0.0
 10
97.3361582366
 20
80.3447332952
 30
0.0
 10
97.404814971
 20
78.8906666308
 30
0.0
  0
SPLINE
  5
382
100
AcDbEntity
  8
RACCORDO
100
AcDbSpline
 62
250
  6
CONTINUOUS
 70
0
 71
3
 72
10
 73
6
 74
0
 42
0.0000001
 43
0.0000001
 44
0.0000000001
 40
0.0
 40
0.0
 40
0.0
 40
0.0
 40
0.2474003681
 40
0.4968029837
 40
1.0
 40
1.0
 40
1.0
 40
1.0
 10
81.4218178918
 20
88.3725145906
 30
0.0
 10
81.35078676
 20
89.826625829
 30
0.0
 10
81.2362653886
 20
92.7480291274
 30
0.0
 10
81.0904969725
 20
98.6308815364
 30
0.0
 10
81.048549935
 20
103.0597854665
 30
0.0
 10
81.0485501002
 20
106.0208841479
 30
0.0
  0
SPLINE
  5
383
100
AcDbEntity
  8
RACCORDO
100
AcDbSpline
 62
250
  6
CONTINUOUS
 70
0
 71
3
 72
9
 73
5
 74
0
 42
0.0000001
 43
0.0000001
 44
0.0000000001
 40
0.0
 40
0.0
 40
0.0
 40
0.0
 40
0.4969476104
 40
1.0
 40
1.0
 40
1.0
 40
1.0
 10
81.0485501002
 20
106.0208841479
 30
0.0
 10
81.0485501361
 20
109.0140930203
 30
0.0
 10
81.1062249122
 20
115.0372883334
 30
0.0
 10
81.2816046514
 20
121.0587713136
 30
0.0
 10
81.4218178918
 20
124.0855044743
 30
0.0
  0
SPLINE
  5
384
100
AcDbEntity
  8
RACCORDO
100
AcDbSpline
 62
250
  6
CONTINUOUS
 70
0
 71
3
 72
9
 73
5
 74
0
 42
0.0000001
 43
0.0000001
 44
0.0000000001
 40
0.0
 40
0.0
 40
0.0
 40
0.0
 40
0.5033913037
 40
1.0
 40
1.0
 40
1.0
 40
1.0
 10
120.4097558684
 20
84.9644463213
 30
0.0
 10
120.4097558684
 20
81.9410077458
 30
0.0
 10
120.4668672859
 20
75.9348874903
 30
0.0
 10
120.6466222749
 20
69.9303961578
 30
0.0
 10
120.7944397786
 20
66.9513599119
 30
0.0
  0
LINE
  5
385
100
AcDbEntity
  8
0
100
AcDbLine
 62
7
  6
CONTINUOUS
 10
87.2626492549
 20
81.7039824642
 30
0.0
 11
86.8959918757
 21
81.9180572305
 31
0.0
  0
LINE
  5
386
100
AcDbEntity
  8
0
100
AcDbLine
 62
7
  6
CONTINUOUS
 10
86.216553597
 20
82.3158069831
 30
0.0
 11
85.8190600223
 21
82.5491421172
 31
0.0
  0
LINE
  5
387
100
AcDbEntity
  8
0
100
AcDbLine
 62
7
  6
CONTINUOUS
 10
87.7662698546
 20
81.4107037395
 30
0.0
 11
87.3988901729
 21
81.6246529654
 31
0.0
  0
LINE
  5
388
100
AcDbEntity
  8
0
100
AcDbLine
 62
7
  6
CONTINUOUS
 10
89.2785293957
 20
80.5340826549
 30
0.0
 11
89.2242966057
 21
80.5654002773
 31
0.0
  0
LINE
  5
389
100
AcDbEntity
  8
0
100
AcDbLine
 62
7
  6
CONTINUOUS
 10
88.4910476107
 20
80.9896707943
 30
0.0
 11
88.1232952029
 21
81.2030520636
 31
0.0
  0
SPLINE
  5
38A
100
AcDbEntity
  8
RACCORDO
100
AcDbSpline
 62
250
  6
CONTINUOUS
 70
0
 71
3
 72
9
 73
5
 74
0
 42
0.0000001
 43
0.0000001
 44
0.0000000001
 40
0.0
 40
0.0
 40
0.0
 40
0.0
 40
0.2181508523
 40
1.0
 40
1.0
 40
1.0
 40
1.0
 10
97.2568698974
 20
78.912010603
 30
0.0
 10
97.2422953026
 20
78.9093643722
 30
0.0
 10
97.1738988409
 20
78.905603304
 30
0.0
 10
97.1070184267
 20
78.9310013012
 30
0.0
 10
97.0604962753
 20
78.9565775337
 30
0.0
  0
SPLINE
  5
38B
100
AcDbEntity
  8
RACCORDO
100
AcDbSpline
 62
250
  6
CONTINUOUS
 70
0
 71
3
 72
9
 73
5
 74
0
 42
0.0000001
 43
0.0000001
 44
0.0000000001
 40
0.0
 40
0.0
 40
0.0
 40
0.0
 40
0.4733044828
 40
1.0
 40
1.0
 40
1.0
 40
1.0
 10
81.7942067152
 20
87.7711418206
 30
0.0
 10
81.7507002972
 20
87.7975228436
 30
0.0
 10
81.6668188516
 20
87.8665747769
 30
0.0
 10
81.5982952471
 20
87.9501767736
 30
0.0
 10
81.5663092682
 20
87.9968956845
 30
0.0
  0
SPLINE
  5
38C
100
AcDbEntity
  8
RACCORDO
100
AcDbSpline
 62
250
  6
CONTINUOUS
 70
0
 71
3
 72
9
 73
5
 74
0
 42
0.0000001
 43
0.0000001
 44
0.0000000001
 40
0.0
 40
0.0
 40
0.0
 40
0.0
 40
0.5299512892
 40
1.0
 40
1.0
 40
1.0
 40
1.0
 10
81.5663092682
 20
87.9968956845
 30
0.0
 10
81.5258233324
 20
88.0560342061
 30
0.0
 10
81.4613996837
 20
88.1761315262
 30
0.0
 10
81.4262212099
 20
88.3090989218
 30
0.0
 10
81.4218174681
 20
88.372514346
 30
0.0
  0
SPLINE
  5
38D
100
AcDbEntity
  8
RACCORDO
100
AcDbSpline
 62
250
  6
CONTINUOUS
 70
0
 71
3
 72
11
 73
7
 74
0
 42
0.0000001
 43
0.0000001
 44
0.0000000001
 40
0.0
 40
0.0
 40
0.0
 40
0.0
 40
0.2871173629
 40
0.5464754209
 40
0.7811560291
 40
1.0
 40
1.0
 40
1.0
 40
1.0
 10
81.4218175082
 20
124.085504268
 30
0.0
 10
81.4235543829
 20
124.1124514497
 30
0.0
 10
81.4309774601
 20
124.1636447836
 30
0.0
 10
81.4561772588
 20
124.2333052682
 30
0.0
 10
81.4944055612
 20
124.2893995765
 30
0.0
 10
81.5286961654
 20
124.3162251871
 30
0.0
 10
81.5468189213
 20
124.3259815546
 30
0.0
  0
SPLINE
  5
38E
100
AcDbEntity
  8
RACCORDO
100
AcDbSpline
 62
250
  6
CONTINUOUS
 70
0
 71
3
 72
11
 73
7
 74
0
 42
0.0000001
 43
0.0000001
 44
0.0000000001
 40
0.0
 40
0.0
 40
0.0
 40
0.0
 40
0.2916500822
 40
0.5521131821
 40
0.7844043126
 40
1.0
 40
1.0
 40
1.0
 40
1.0
 10
85.6228004508
 20
122.0385869429
 30
0.0
 10
85.6219957857
 20
122.0219545265
 30
0.0
 10
85.6230433984
 20
121.9902342468
 30
0.0
 10
85.6339327549
 20
121.9463651758
 30
0.0
 10
85.6541119272
 20
121.9106162237
 30
0.0
 10
85.6738826866
 20
121.8934116964
 30
0.0
 10
85.6844934597
 20
121.8871718508
 30
0.0
  0
SPLINE
  5
38F
100
AcDbEntity
  8
RACCORDO
100
AcDbSpline
 62
250
  6
CONTINUOUS
 70
0
 71
3
 72
11
 73
7
 74
0
 42
0.0000001
 43
0.0000001
 44
0.0000000001
 40
0.0
 40
0.0
 40
0.0
 40
0.0
 40
0.2926985974
 40
0.5534888523
 40
0.785351522
 40
1.0
 40
1.0
 40
1.0
 40
1.0
 10
89.1425661617
 20
119.9884281896
 30
0.0
 10
89.1417627827
 20
119.9717179887
 30
0.0
 10
89.1428093032
 20
119.9398860855
 30
0.0
 10
89.1537056692
 20
119.8959124108
 30
0.0
 10
89.1739059592
 20
119.8601838776
 30
0.0
 10
89.1937308181
 20
119.8430959657
 30
0.0
 10
89.2043530352
 20
119.8369572603
 30
0.0
  0
SPLINE
  5
390
100
AcDbEntity
  8
RACCORDO
100
AcDbSpline
 62
250
  6
CONTINUOUS
 70
0
 71
3
 72
11
 73
7
 74
0
 42
0.0000001
 43
0.0000001
 44
0.0000000001
 40
0.0
 40
0.0
 40
0.0
 40
0.0
 40
0.2937627677
 40
0.5548882109
 40
0.7863170912
 40
1.0
 40
1.0
 40
1.0
 40
1.0
 10
92.6938682627
 20
117.9558410097
 30
0.0
 10
92.6930664321
 20
117.9390548518
 30
0.0
 10
92.6941112991
 20
117.907115336
 30
0.0
 10
92.7050095293
 20
117.8630428433
 30
0.0
 10
92.7252216146
 20
117.8273387917
 30
0.0
 10
92.745093364
 20
117.8103686203
 30
0.0
 10
92.7557228681
 20
117.8043317437
 30
0.0
  0
SPLINE
  5
391
100
AcDbEntity
  8
RACCORDO
100
AcDbSpline
 62
250
  6
CONTINUOUS
 70
0
 71
3
 72
11
 73
7
 74
0
 42
0.0000001
 43
0.0000001
 44
0.0000000001
 40
0.0
 40
0.0
 40
0.0
 40
0.0
 40
0.2908834225
 40
0.5509476316
 40
0.7835434226
 40
1.0
 40
1.0
 40
1.0
 40
1.0
 10
97.0440588503
 20
96.5446573603
 30
0.0
 10
97.0301952159
 20
96.552290769
 30
0.0
 10
97.0050162802
 20
96.568920381
 30
0.0
 10
96.9747878635
 20
96.5995240273
 30
0.0
 10
96.9555870792
 20
96.6336287345
 30
0.0
 10
96.9511124495
 20
96.6582351239
 30
0.0
 10
96.9511098687
 20
96.6700119712
 30
0.0
  0
LINE
  5
392
100
AcDbEntity
  8
0
100
AcDbLine
 62
7
  6
CONTINUOUS
 10
89.305129631
 20
79.7901864986
 30
0.0
 11
89.2733127893
 21
79.6982024786
 31
0.0
  0
SPLINE
  5
393
100
AcDbEntity
  8
RACCORDO
100
AcDbSpline
 62
250
  6
CONTINUOUS
 70
0
 71
3
 72
14
 73
10
 74
0
 42
0.0000001
 43
0.0000001
 44
0.0000000001
 40
0.0
 40
0.0
 40
0.0
 40
0.0
 40
0.127990549
 40
0.2553378639
 40
0.3818817343
 40
0.5074838755
 40
0.6321063388
 40
0.7557386548
 40
1.0
 40
1.0
 40
1.0
 40
1.0
 10
86.9660904035
 20
69.7396692912
 30
0.0
 10
85.9874086453
 20
70.314937166
 30
0.0
 10
84.0387032197
 20
71.4689695201
 30
0.0
 10
81.1394240625
 20
73.2203617141
 30
0.0
 10
78.2775652156
 20
74.9924035084
 30
0.0
 10
75.4600251256
 20
76.7895724876
 30
0.0
 10
72.6889559279
 20
78.6110215833
 30
0.0
 10
69.0723883709
 20
81.0614468313
 30
0.0
 10
66.4103535873
 20
82.9496405581
 30
0.0
 10
64.6619953347
 20
84.2291027528
 30
0.0
  0
SPLINE
  5
394
100
AcDbEntity
  8
RACCORDO
100
AcDbSpline
 62
250
  6
CONTINUOUS
 70
0
 71
3
 72
15
 73
11
 74
0
 42
0.0000001
 43
0.0000001
 44
0.0000000001
 40
0.0
 40
0.0
 40
0.0
 40
0.0
 40
0.1109375198
 40
0.2336686617
 40
0.3648197351
 40
0.5003070028
 40
0.6357414441
 40
0.766748446
 40
0.8892758347
 40
1.0
 40
1.0
 40
1.0
 40
1.0
 10
64.347167322
 20
84.4597092977
 30
0.0
 10
64.2048791416
 20
84.5636578502
 30
0.0
 10
63.9215338308
 20
84.8052617429
 30
0.0
 10
63.5246087465
 20
85.2286979354
 30
0.0
 10
63.1465973901
 20
85.719337558
 30
0.0
 10
62.8020694937
 20
86.2580175056
 30
0.0
 10
62.5049864232
 20
86.8239914244
 30
0.0
 10
62.2664764992
 20
87.3949126338
 30
0.0
 10
62.0959481072
 20
87.9487565312
 30
0.0
 10
62.0270737892
 20
88.3140368171
 30
0.0
 10
62.0076269605
 20
88.4888330654
 30
0.0
  0
LINE
  5
395
100
AcDbEntity
  8
RACCORDO
100
AcDbLine
 62
250
  6
CONTINUOUS
 10
62.0076269605
 20
88.4888330654
 30
0.0
 11
61.9861146653
 21
88.6799258186
 31
0.0
  0
SPLINE
  5
396
100
AcDbEntity
  8
RACCORDO
100
AcDbSpline
 62
250
  6
CONTINUOUS
 70
0
 71
3
 72
9
 73
5
 74
0
 42
0.0000001
 43
0.0000001
 44
0.0000000001
 40
0.0
 40
0.0
 40
0.0
 40
0.0
 40
0.2467694987
 40
1.0
 40
1.0
 40
1.0
 40
1.0
 10
61.9630624061
 20
88.8852345571
 30
0.0
 10
61.8485204016
 20
89.9093814627
 30
0.0
 10
61.4173389694
 20
94.0632396687
 30
0.0
 10
61.1164120854
 20
98.2304665895
 30
0.0
 10
60.9584354057
 20
101.3720574173
 30
0.0
  0
SPLINE
  5
397
100
AcDbEntity
  8
RACCORDO
100
AcDbSpline
 62
250
  6
CONTINUOUS
 70
0
 71
3
 72
9
 73
5
 74
0
 42
0.0000001
 43
0.0000001
 44
0.0000000001
 40
0.0
 40
0.0
 40
0.0
 40
0.0
 40
0.4734500229
 40
1.0
 40
1.0
 40
1.0
 40
1.0
 10
81.5815966933
 20
87.3948041953
 30
0.0
 10
81.5118736977
 20
87.436872097
 30
0.0
 10
81.3777509964
 20
87.547626806
 30
0.0
 10
81.2691505236
 20
87.6823109848
 30
0.0
 10
81.2187665023
 20
87.7575656882
 30
0.0
  0
LINE
  5
398
100
AcDbEntity
  8
0
100
AcDbLine
 62
7
  6
CONTINUOUS
 10
90.32767794
 20
78.3506214696
 30
0.0
 11
90.2532844064
 21
78.0177887162
 31
0.0
  0
SPLINE
  5
399
100
AcDbEntity
  8
RACCORDO
100
AcDbSpline
 62
250
  6
CONTINUOUS
 70
0
 71
3
 72
10
 73
6
 74
0
 42
0.0000001
 43
0.0000001
 44
0.0000000001
 40
0.0
 40
0.0
 40
0.0
 40
0.0
 40
0.5278598792
 40
0.7747186399
 40
1.0
 40
1.0
 40
1.0
 40
1.0
 10
81.2187665023
 20
87.7575656882
 30
0.0
 10
81.1548848666
 20
87.8529960816
 30
0.0
 10
81.076216466
 20
88.0044923079
 30
0.0
 10
81.0138790171
 20
88.2133717494
 30
0.0
 10
80.9990290411
 20
88.3155924837
 30
0.0
 10
80.9966336752
 20
88.3645448682
 30
0.0
  0
SPLINE
  5
39A
100
AcDbEntity
  8
RACCORDO
100
AcDbSpline
 62
250
  6
CONTINUOUS
 70
0
 71
3
 72
9
 73
5
 74
0
 42
0.0000001
 43
0.0000001
 44
0.0000000001
 40
0.0
 40
0.0
 40
0.0
 40
0.0
 40
0.4966404284
 40
1.0
 40
1.0
 40
1.0
 40
1.0
 10
60.9462630769
 20
101.6104299313
 30
0.0
 10
60.8007071735
 20
104.5720931871
 30
0.0
 10
60.623340716
 20
110.54106288
 30
0.0
 10
60.5668395574
 20
116.5116382401
 30
0.0
 10
60.5668395574
 20
119.5169934025
 30
0.0
  0
SPLINE
  5
39B
100
AcDbEntity
  8
RACCORDO
100
AcDbSpline
 62
250
  6
CONTINUOUS
 70
0
 71
3
 72
10
 73
6
 74
0
 42
0.0000001
 43
0.0000001
 44
0.0000000001
 40
0.0
 40
0.0
 40
0.0
 40
0.0
 40
0.2474003929
 40
0.4968028371
 40
1.0
 40
1.0
 40
1.0
 40
1.0
 10
80.9966336752
 20
88.3645448682
 30
0.0
 10
80.9255487459
 20
89.8197298972
 30
0.0
 10
80.8109298699
 20
92.7432889107
 30
0.0
 10
80.6650290515
 20
98.6304846324
 30
0.0
 10
80.6230452087
 20
103.0626587639
 30
0.0
 10
80.6230452923
 20
106.0259447717
 30
0.0
  0
SPLINE
  5
39C
100
AcDbEntity
  8
0
100
AcDbSpline
 62
7
  6
CONTINUOUS
 70
0
 71
3
 72
9
 73
5
 74
0
 42
0.0000001
 43
0.0000001
 44
0.0000000001
 40
0.0
 40
0.0
 40
0.0
 40
0.0
 40
0.5003782203
 40
1.0
 40
1.0
 40
1.0
 40
1.0
 10
92.5866789828
 20
77.1940582325
 30
0.0
 10
92.614550431
 20
77.0935985486
 30
0.0
 10
92.669232456
 20
76.8925506732
 30
0.0
 10
92.7231714577
 20
76.6912979751
 30
0.0
 10
92.7511884981
 20
76.5910424318
 30
0.0
  0
SPLINE
  5
39D
100
AcDbEntity
  8
RACCORDO
100
AcDbSpline
 62
250
  6
CONTINUOUS
 70
0
 71
3
 72
13
 73
9
 74
0
 42
0.0000001
 43
0.0000001
 44
0.0000000001
 40
0.0
 40
0.0
 40
0.0
 40
0.0
 40
0.2875020518
 40
0.5399969978
 40
0.6569935751
 40
0.7707258054
 40
0.8840747292
 40
1.0
 40
1.0
 40
1.0
 40
1.0
 10
122.2080872325
 20
53.9629577447
 30
0.0
 10
122.2282504647
 20
53.7728149267
 30
0.0
 10
122.2317144239
 20
53.4101553498
 30
0.0
 10
122.1155376164
 20
52.9805171271
 30
0.0
 10
121.9496811878
 20
52.7031588805
 30
0.0
 10
121.7961250467
 20
52.5314578403
 30
0.0
 10
121.6118233974
 20
52.3945361337
 30
0.0
 10
121.4731258175
 20
52.3286562597
 30
0.0
 10
121.4007997343
 20
52.3019523448
 30
0.0
  0
SPLINE
  5
39E
100
AcDbEntity
  8
0
100
AcDbSpline
 62
7
  6
CONTINUOUS
 70
0
 71
3
 72
12
 73
8
 74
0
 42
0.0000001
 43
0.0000001
 44
0.0000000001
 40
0.0
 40
0.0
 40
0.0
 40
0.0
 40
0.2628971981
 40
0.4556539495
 40
0.6421706331
 40
0.8228897352
 40
1.0
 40
1.0
 40
1.0
 40
1.0
 10
92.3826056892
 20
77.6609880885
 30
0.0
 10
92.4111329085
 20
77.6262306039
 30
0.0
 10
92.4534248427
 20
77.5600587742
 30
0.0
 10
92.5005141229
 20
77.4607630113
 30
0.0
 10
92.5347446856
 20
77.3712087249
 30
0.0
 10
92.562631225
 20
77.2823405065
 30
0.0
 10
92.5785805415
 20
77.2232482057
 30
0.0
 10
92.5866789825
 20
77.1940582326
 30
0.0
  0
SPLINE
  5
39F
100
AcDbEntity
  8
0
100
AcDbSpline
 62
7
  6
CONTINUOUS
 70
0
 71
3
 72
18
 73
14
 74
0
 42
0.0000001
 43
0.0000001
 44
0.0000000001
 40
0.0
 40
0.0
 40
0.0
 40
0.0
 40
0.0741860695
 40
0.150320104
 40
0.3032715458
 40
0.4515587641
 40
0.5889428197
 40
0.7128977166
 40
0.8221048878
 40
0.8709110579
 40
0.9162085776
 40
0.9587754933
 40
1.0
 40
1.0
 40
1.0
 40
1.0
 10
92.2425922421
 20
78.7281886197
 30
0.0
 10
92.2626328009
 20
78.7092661091
 30
0.0
 10
92.3006358626
 20
78.6681675697
 30
0.0
 10
92.3704518175
 20
78.5796620709
 30
0.0
 10
92.4458290064
 20
78.4608770528
 30
0.0
 10
92.5137023342
 20
78.3120924706
 30
0.0
 10
92.5547567126
 20
78.1648461223
 30
0.0
 10
92.5706522897
 20
78.0276249547
 30
0.0
 10
92.5638072206
 20
77.9219971478
 30
0.0
 10
92.5424664512
 20
77.8492084715
 30
0.0
 10
92.5199279457
 20
77.8033947284
 30
0.0
 10
92.4900735283
 20
77.7652581347
 30
0.0
 10
92.4646901731
 20
77.746547871
 30
0.0
 10
92.4514243511
 20
77.7388926221
 30
0.0
  0
SPLINE
  5
3A0
100
AcDbEntity
  8
0
100
AcDbSpline
 62
7
  6
CONTINUOUS
 70
0
 71
3
 72
11
 73
7
 74
0
 42
0.0000001
 43
0.0000001
 44
0.0000000001
 40
0.0
 40
0.0
 40
0.0
 40
0.0
 40
0.2313946332
 40
0.47212881
 40
0.7264076296
 40
1.0
 40
1.0
 40
1.0
 40
1.0
 10
91.3248880401
 20
79.2712803417
 30
0.0
 10
91.4013041353
 20
79.2397671738
 30
0.0
 10
91.556240962
 20
79.1729864771
 30
0.0
 10
91.7879533563
 20
79.0556241549
 30
0.0
 10
92.0221336703
 20
78.9117864077
 30
0.0
 10
92.1715497561
 20
78.7953054757
 30
0.0
 10
92.2425922421
 20
78.7281886197
 30
0.0
  0
SPLINE
  5
3A1
100
AcDbEntity
  8
RACCORDO
100
AcDbSpline
 62
250
  6
CONTINUOUS
 70
0
 71
3
 72
14
 73
10
 74
0
 42
0.0000001
 43
0.0000001
 44
0.0000000001
 40
0.0
 40
0.0
 40
0.0
 40
0.0
 40
0.2442116656
 40
0.3678318231
 40
0.4924505641
 40
0.6180571111
 40
0.7446143745
 40
0.8719829635
 40
1.0
 40
1.0
 40
1.0
 40
1.0
 10
64.7768800936
 20
153.6875058968
 30
0.0
 10
66.5300435643
 20
152.404149076
 30
0.0
 10
69.1995491972
 20
150.5101990934
 30
0.0
 10
72.8264784521
 20
148.0523094362
 30
0.0
 10
75.6058161502
 20
146.2251782089
 30
0.0
 10
78.4319832896
 20
144.4223128552
 30
0.0
 10
81.3028376275
 20
142.6446010903
 30
0.0
 10
84.2114277537
 20
140.887553474
 30
0.0
 10
86.1664631454
 20
139.7297952434
 30
0.0
 10
87.1483458476
 20
139.1526628362
 30
0.0
  0
SPLINE
  5
3A2
100
AcDbEntity
  8
0
100
AcDbSpline
 62
7
  6
CONTINUOUS
 70
0
 71
3
 72
11
 73
7
 74
0
 42
0.0000001
 43
0.0000001
 44
0.0000000001
 40
0.0
 40
0.0
 40
0.0
 40
0.0
 40
0.2892390434
 40
0.5566577574
 40
0.7942981876
 40
1.0
 40
1.0
 40
1.0
 40
1.0
 10
91.949231055
 20
78.093910507
 30
0.0
 10
91.9678577541
 20
78.0837422316
 30
0.0
 10
92.0044619915
 20
78.0654649449
 30
0.0
 10
92.0594361394
 20
78.045618615
 30
0.0
 10
92.1113018328
 20
78.0367552713
 30
0.0
 10
92.1446310088
 20
78.043928626
 30
0.0
 10
92.1577240442
 20
78.0514352698
 30
0.0
  0
ELLIPSE
  5
3A3
100
AcDbEntity
  8
RACCORDO
100
AcDbEllipse
 62
7
  6
CONTINUOUS
 10
93.6369902325
 20
85.57769858
 30
0.0
 11
0.193576202
 21
0.0971400987
 31
0.0
 40
0.7160534512
 41
0.4403889818
 42
1.2258350725
  0
ELLIPSE
  5
3A4
100
AcDbEntity
  8
RACCORDO
100
AcDbEllipse
 62
7
  6
CONTINUOUS
 10
83.8575356368
 20
89.3706510805
 30
0.0
 11
-0.2500120911
 21
0.4330057209
 31
0.0
 40
0.5775075436
 41
0.7855021057
 42
2.355993846
  0
ENDSEC
  0
SECTION
  2
OBJECTS
  0
DICTIONARY
  5
C
100
AcDbDictionary
280
0
281
1
  3
ACAD_GROUP
350
D
  3
ACAD_MLINESTYLE
350
17
  3
ACAD_LAYOUT
350
1A
  3
ACAD_PLOTSETTINGS
350
19
  3
ACAD_PLOTSTYLENAME
350
E
  0
DICTIONARY
  5
D
102
{ACAD_REACTORS
330
C
102
}
100
AcDbDictionary
280
0
281
1
  0
ACDBDICTIONARYWDFLT
  5
E
102
{ACAD_REACTORS
330
C
102
}
100
AcDbDictionary
281
1
  3
Normal
350
F
100
AcDbDictionaryWithDefault
340
F
  0
DICTIONARY
  5
17
102
{ACAD_REACTORS
330
C
102
}
100
AcDbDictionary
280
0
281
1
  3
Standard
350
18
  0
DICTIONARY
  5
19
102
{ACAD_REACTORS
330
C
102
}
100
AcDbDictionary
281
1
  0
DICTIONARY
  5
1A
102
{ACAD_REACTORS
330
C
102
}
100
AcDbDictionary
281
1
  3
Model
350
3A5
  3
Layout1
350
3A6
  0
ACDBPLACEHOLDER
  5
F
102
{ACAD_REACTORS
330
E
102
}
  0
MLINESTYLE
  5
18
102
{ACAD_REACTORS
330
17
102
}
100
AcDbMlineStyle
  2
STANDARD
 70
0
  3

 62
256
 51
90.0
 52
90.0
 71
2
 49
0.5
 62
256
  6
BYLAYER
 49
-0.5
 62
256
  6
BYLAYER
  0
LAYOUT
  5
3A5
102
{ACAD_REACTORS
330
1A
102
}
100
AcDbPlotSettings
  1

  2
none_device
  4
ISO_A4_(297.00_x_210.00_MM)
  6

 40
0.0
 41
0.0
 42
0.0
 43
0.0
 44
297.0
 45
210.0
 46
0.0
 47
0.0
 48
0.0
 49
0.0
140
0.0
141
0.0
142
1.0
143
1.0
 70
1024
 72
1
 73
0
 74
0
  7

 75
0
147
1.0
148
0.0
149
0.0
100
AcDbLayout
  1
Model
 70
0
 71
0
 10
0.0
 20
0.0
 11
297.0
 21
210.0
 12
0.0
 22
0.0
 32
0.0
 14
0.0
 24
0.0
 34
0.0
 15
0.0
 25
0.0
 35
0.0
146
0.0
 13
0.0
 23
0.0
 33
0.0
 16
1.0
 26
0.0
 36
0.0
 17
0.0
 27
1.0
 37
0.0
 76
0
330
219
345
0
346
0
  0
LAYOUT
  5
3A6
102
{ACAD_REACTORS
330
1A
102
}
100
AcDbPlotSettings
  1

  2
none_device
  4
ISO_A4_(297.00_x_210.00_MM)
  6

 40
0.0
 41
0.0
 42
0.0
 43
0.0
 44
297.0
 45
210.0
 46
0.0
 47
0.0
 48
0.0
 49
0.0
140
0.0
141
0.0
142
1.0
143
1.0
 70
0
 72
1
 73
0
 74
0
  7

 75
0
147
1.0
148
0.0
149
0.0
100
AcDbLayout
  1
Layout1
 70
0
 71
1
 10
0.0
 20
0.0
 11
297.0
 21
210.0
 12
0.0
 22
0.0
 32
0.0
 14
0.0
 24
0.0
 34
0.0
 15
0.0
 25
0.0
 35
0.0
146
0.0
 13
0.0
 23
0.0
 33
0.0
 16
1.0
 26
0.0
 36
0.0
 17
0.0
 27
1.0
 37
0.0
 76
0
330
21A
345
0
346
0
  0
ENDSEC
  0
EOF
