  0
SECTION
  2
HEADER
  9
$ACADVER
  1
AC1015
  9
$DWGCODEPAGE
  3
ANSI_1252
  9
$EXTMAX
 10
558.8
 20
431.8
 30
0.0
  9
$EXTMIN
 10
0.0
 20
0.0
 30
0.0
  9
$LIMMIN
 10
0.0
 20
0.0
  9
$LIMMAX
 10
558.8
 20
431.8
  9
$VIEWCTR
 10
279.4
 20
215.9
  9
$VIEWSIZE
 40
431.8
  9
$CLAYER
  8
0
  9
$LTSCALE
 40
30.734
  9
$CELTYPE
  6
BYLAYER
  9
$DIMSCALE
 40
1.0
  9
$DIMASZ
 40
3.0
  9
$DIMEXO
 40
3.4925
  9
$DIMDLI
 40
21.2344
  9
$DIMEXE
 40
10.0584
  9
$DIMCEN
 40
5.0292
  9
$DIMLFAC
 40
1.0
  9
$DIMBLK
  1
_FILLED
  9
$DIMTXT
 40
3.0
  9
$DIMTOL
 70
1
  9
$DIMLIM
 70
0
  9
$DIMTFAC
 40
1.0
  9
$DIMTP
 40
0.01
  9
$DIMTM
 40
0.01
  9
$PDMODE
 70
3
  9
$PDSIZE
 40
3.0
  9
$HANDSEED
  5
3F4
  9
$TILEMODE
 70
1
  9
$MEASUREMENT
 70
1
  9
$INSUNITS
 70
4
  0
ENDSEC
  0
SECTION
  2
CLASSES
  0
CLASS
  1
ACDBDICTIONARYWDFLT
  2
AcDbDictionaryWithDefault
  3
AutoCAD 2000
 90
0
280
0
281
0
  0
CLASS
  1
ACDBPLACEHOLDER
  2
AcDbPlaceHolder
  3
AutoCAD 2000
 90
0
280
0
281
0
  0
CLASS
  1
LAYOUT
  2
AcDbLayout
  3
AutoCAD 2000
 90
0
280
0
281
0
  0
ENDSEC
  0
SECTION
  2
TABLES
  0
TABLE
  2
VPORT
  5
8
100
AcDbSymbolTable
 70
2
  0
VPORT
  5
1F4
100
AcDbSymbolTableRecord
100
AcDbViewportTableRecord
  2
*ACTIVE
 70
0
 10
0.0
 20
0.0
 11
1.0
 21
1.0
 12
279.4
 22
215.9
 13
0.0
 23
0.0
 14
1.0
 24
1.0
 15
0.0
 25
0.0
 16
0.0
 26
0.0
 36
1.0
 17
0.0
 27
0.0
 37
0.0
 40
431.8
 41
1.2941176471
 42
50.0
 43
0.0
 44
0.0
 50
0.0
 51
0.0
 71
0
 72
100
 73
1
 74
1
 75
0
 76
0
 77
0
 78
0
  0
ENDTAB
  0
TABLE
  2
LTYPE
  5
5
100
AcDbSymbolTable
 70
6
  0
LTYPE
  5
14
100
AcDbSymbolTableRecord
100
AcDbLinetypeTableRecord
  2
BYBLOCK
 70
0
  3

 72
65
 73
0
 40
0.0
  0
LTYPE
  5
15
100
AcDbSymbolTableRecord
100
AcDbLinetypeTableRecord
  2
BYLAYER
 70
0
  3

 72
65
 73
0
 40
0.0
  0
LTYPE
  5
16
100
AcDbSymbolTableRecord
100
AcDbLinetypeTableRecord
  2
CONTINUOUS
 70
64
  3
Solid line
 72
65
 73
0
 40
0.0
  0
LTYPE
  5
1F5
100
AcDbSymbolTableRecord
100
AcDbLinetypeTableRecord
  2
CENTER
 70
64
  3
____ _ ____ _ ____ _ ____ _ ____ _ ____ _ ____
 72
65
 73
4
 40
0.6
 49
0.375
 74
0
 49
-0.075
 74
0
 49
0.075
 74
0
 49
-0.075
 74
0
  0
LTYPE
  5
1F6
100
AcDbSymbolTableRecord
100
AcDbLinetypeTableRecord
  2
HIDDEN
 70
64
  3
- - - - - - - - - - - - - - - - - - - -
 72
65
 73
2
 40
0.2
 49
0.1
 74
0
 49
-0.1
 74
0
  0
LTYPE
  5
1F7
100
AcDbSymbolTableRecord
100
AcDbLinetypeTableRecord
  2
PHANTOM
 70
64
  3
_____ _ _ _____ _ _ _____ _ _ _____
 72
65
 73
6
 40
0.8
 49
0.45
 74
0
 49
-0.05
 74
0
 49
0.1
 74
0
 49
-0.05
 74
0
 49
0.1
 74
0
 49
-0.05
 74
0
  0
LTYPE
  5
1F8
100
AcDbSymbolTableRecord
100
AcDbLinetypeTableRecord
  2
DOT
 70
64
  3
. . . . . . . . . . . . . . . . . . . .
 72
65
 73
2
 40
0.2
 49
0.1
 74
0
 49
-0.1
 74
0
  0
LTYPE
  5
1F9
100
AcDbSymbolTableRecord
100
AcDbLinetypeTableRecord
  2
DASHED
 70
64
  3
- - - - - - - - - - - - - - - - - - - -
 72
65
 73
2
 40
0.2
 49
0.1
 74
0
 49
-0.1
 74
0
  0
ENDTAB
  0
TABLE
  2
LAYER
  5
2
100
AcDbSymbolTable
 70
36
  0
LAYER
  5
10
100
AcDbSymbolTableRecord
100
AcDbLayerTableRecord
  2
0
 70
0
 62
7
  6
CONTINUOUS
370
-3
390
F
  0
LAYER
  5
1FA
100
AcDbSymbolTableRecord
100
AcDbLayerTableRecord
  2
DEFAULT_1
 70
0
 62
7
  6
CENTER
370
-3
390
F
  0
LAYER
  5
1FB
100
AcDbSymbolTableRecord
100
AcDbLayerTableRecord
  2
DEFAULT_2
 70
0
 62
7
  6
HIDDEN
370
-3
390
F
  0
LAYER
  5
1FC
100
AcDbSymbolTableRecord
100
AcDbLayerTableRecord
  2
DEFAULT_3
 70
0
 62
7
  6
PHANTOM
370
-3
390
F
  0
LAYER
  5
1FD
100
AcDbSymbolTableRecord
100
AcDbLayerTableRecord
  2
ASSI
 70
0
 62
7
  6
CONTINUOUS
370
-3
390
F
  0
LAYER
  5
1FE
100
AcDbSymbolTableRecord
100
AcDbLayerTableRecord
  2
COORDINATE
 70
0
 62
7
  6
CONTINUOUS
370
-3
390
F
  0
LAYER
  5
1FF
100
AcDbSymbolTableRecord
100
AcDbLayerTableRecord
  2
COORD_ORIGINE
 70
0
 62
7
  6
CONTINUOUS
370
-3
390
F
  0
LAYER
  5
200
100
AcDbSymbolTableRecord
100
AcDbLayerTableRecord
  2
CURVE
 70
0
 62
7
  6
CONTINUOUS
370
-3
390
F
  0
LAYER
  5
201
100
AcDbSymbolTableRecord
100
AcDbLayerTableRecord
  2
DRAFT
 70
0
 62
7
  6
CONTINUOUS
370
-3
390
F
  0
LAYER
  5
202
100
AcDbSymbolTableRecord
100
AcDbLayerTableRecord
  2
IGES_SCRITTE
 70
0
 62
7
  6
CONTINUOUS
370
-3
390
F
  0
LAYER
  5
203
100
AcDbSymbolTableRecord
100
AcDbLayerTableRecord
  2
NOTE
 70
0
 62
7
  6
CONTINUOUS
370
-3
390
F
  0
LAYER
  5
204
100
AcDbSymbolTableRecord
100
AcDbLayerTableRecord
  2
PIANI
 70
0
 62
7
  6
CONTINUOUS
370
-3
390
F
  0
LAYER
  5
205
100
AcDbSymbolTableRecord
100
AcDbLayerTableRecord
  2
PIANI_ORIGINE
 70
0
 62
7
  6
CONTINUOUS
370
-3
390
F
  0
LAYER
  5
206
100
AcDbSymbolTableRecord
100
AcDbLayerTableRecord
  2
PPP
 70
0
 62
7
  6
CONTINUOUS
370
-3
390
F
  0
LAYER
  5
207
100
AcDbSymbolTableRecord
100
AcDbLayerTableRecord
  2
PUNTI
 70
0
 62
7
  6
CONTINUOUS
370
-3
390
F
  0
LAYER
  5
208
100
AcDbSymbolTableRecord
100
AcDbLayerTableRecord
  2
RACCORDO
 70
0
 62
7
  6
CONTINUOUS
370
-3
390
F
  0
LAYER
  5
209
100
AcDbSymbolTableRecord
100
AcDbLayerTableRecord
  2
SNAPLINE
 70
0
 62
7
  6
CONTINUOUS
370
-3
390
F
  0
LAYER
  5
20A
100
AcDbSymbolTableRecord
100
AcDbLayerTableRecord
  2
SUPERFICI
 70
0
 62
7
  6
CONTINUOUS
370
-3
390
F
  0
LAYER
  5
20B
100
AcDbSymbolTableRecord
100
AcDbLayerTableRecord
  2
TRASH
 70
0
 62
7
  6
CONTINUOUS
370
-3
390
F
  0
ENDTAB
  0
TABLE
  2
STYLE
  5
3
100
AcDbSymbolTable
 70
1
  0
STYLE
  5
11
100
AcDbSymbolTableRecord
100
AcDbTextStyleTableRecord
  2
STANDARD
 70
0
 40
0.0
 41
0.8
 50
0.0
 71
0
 42
0.2
  3
txt
  4

  0
STYLE
  5
20C
100
AcDbSymbolTableRecord
100
AcDbTextStyleTableRecord
  2
TEXTSTYLE_1
 70
0
 40
0.0
 41
0.8
 50
0.0
 71
0
 42
0.2
  3
gdt
  4

  0
ENDTAB
  0
TABLE
  2
VIEW
  5
6
100
AcDbSymbolTable
 70
0
  0
ENDTAB
  0
TABLE
  2
UCS
  5
7
100
AcDbSymbolTable
 70
0
  0
ENDTAB
  0
TABLE
  2
APPID
  5
9
100
AcDbSymbolTable
 70
1
  0
APPID
  5
20D
100
AcDbSymbolTableRecord
100
AcDbRegAppTableRecord
  2
ACAD
 70
0
  0
ENDTAB
  0
TABLE
  2
BLOCK_RECORD
  5
1
100
AcDbSymbolTable
 70
0
  0
BLOCK_RECORD
  5
20E
100
AcDbSymbolTableRecord
100
AcDbBlockTableRecord
  2
*Model_Space
  0
BLOCK_RECORD
  5
20F
100
AcDbSymbolTableRecord
100
AcDbBlockTableRecord
  2
*Paper_Space
  0
ENDTAB
  0
TABLE
  2
DIMSTYLE
  5
A
100
AcDbSymbolTable
 70
1
100
AcDbDimStyleTable
 71
0
  0
DIMSTYLE
105
210
100
AcDbSymbolTableRecord
100
AcDbDimStyleTableRecord
  2
STANDARD
 70
0
  3

  4

 40
1.0
 41
3.0
 42
0.0625
 43
0.38
 44
0.18
 45
0.0
 46
0.0
 47
0.01
 48
0.01
140
3.0
141
0.09
142
0.0
143
25.4
144
1.0
145
0.0
146
1.0
147
0.09
 71
1.0
 72
0.0
 73
0
 74
0
 75
0
 76
0
 77
1
 78
8
170
0
171
2
172
0
173
0
174
0
175
0
176
0
177
0
178
0
270
2
271
2
272
2
273
2
274
2
275
0
280
0
281
0
282
0
283
1
284
8
285
0
286
0
287
3
288
0
340
11
  0
ENDTAB
  0
ENDSEC
  0
SECTION
  2
BLOCKS
  0
BLOCK
  5
20
100
AcDbEntity
  8
0
100
AcDbBlockBegin
  2
*Model_Space
 70
0
 10
0.0
 20
0.0
 30
0.0
  3
*Model_Space
  1

  0
ENDBLK
  5
21
100
AcDbEntity
  8
0
100
AcDbBlockEnd
  0
BLOCK
  5
1C
100
AcDbEntity
  8
0
100
AcDbBlockBegin
  2
*Paper_Space
 70
0
 10
0.0
 20
0.0
 30
0.0
  3
*Paper_Space
  1

  0
ENDBLK
  5
1D
100
AcDbEntity
  8
0
100
AcDbBlockEnd
  0
ENDSEC
  0
SECTION
  2
ENTITIES
  0
LWPOLYLINE
  5
211
100
AcDbEntity
  8
RACCORDO
100
AcDbPolyline
 62
7
  6
CONTINUOUS
 90
14
 70
0
 10
-25.8728472347
 20
50.3400314794
 10
-25.9648147524
 20
50.2821881046
 10
-26.0905857779
 20
50.188511812
 10
-26.2101314468
 20
50.0808773917
 10
-26.3214025944
 20
49.9602606959
 10
-26.4233345834
 20
49.8271427325
 10
-26.514972071
 20
49.6820932912
 10
-26.5951561785
 20
49.526546975
 10
-26.663430463
 20
49.3611458547
 10
-26.7194382824
 20
49.186507362
 10
-26.7627603057
 20
49.0039186675
 10
-26.7932799202
 20
48.8140752778
 10
-26.8110381558
 20
48.6173654728
 10
-26.8135438799
 20
48.565552331
  0
LINE
  5
212
100
AcDbEntity
  8
SUPERFICI
100
AcDbLine
 62
7
  6
CONTINUOUS
 10
-22.885304999
 20
52.0900708258
 11
-25.8743244918
 21
50.3391694446
  0
LINE
  5
213
100
AcDbEntity
  8
RACCORDO
100
AcDbLine
 62
7
  6
CONTINUOUS
 10
-25.8728878064
 20
50.3400097501
 11
-25.8715869974
 21
50.3407679492
  0
LINE
  5
214
100
AcDbEntity
  8
RACCORDO
100
AcDbLine
 62
253
  6
CONTINUOUS
 10
-24.5890341822
 20
50.2852642045
 11
-21.4780659306
 21
52.0404294328
  0
LWPOLYLINE
  5
215
100
AcDbEntity
  8
RACCORDO
100
AcDbPolyline
 62
7
  6
CONTINUOUS
 90
11
 70
0
 10
27.3512234301
 20
-44.7833068754
 10
27.4052081037
 20
-44.807733027
 10
27.5857514819
 20
-44.878447075
 10
27.7665323126
 20
-44.9325205459
 10
27.9469635302
 20
-44.9698765608
 10
28.1260643904
 20
-44.9904070927
 10
28.3021992864
 20
-44.9941423498
 10
28.4741722846
 20
-44.9814147712
 10
28.6408567256
 20
-44.9527232301
 10
28.8004095768
 20
-44.9089623687
 10
28.9294541851
 20
-44.8607647789
  0
LWPOLYLINE
  5
216
100
AcDbEntity
  8
RACCORDO
100
AcDbPolyline
 62
7
  6
CONTINUOUS
 90
4
 70
0
 10
-25.4206118638
 20
-18.3346985352
 10
-25.249913481
 20
-18.4592468812
 10
-25.0727519524
 20
-18.568858084
 10
-25.0236676936
 20
-18.5958541265
  0
LWPOLYLINE
  5
217
100
AcDbEntity
  8
RACCORDO
100
AcDbPolyline
 62
7
  6
CONTINUOUS
 90
3
 70
0
 10
-26.8134930627
 20
-15.6011153298
 10
-26.8093879809
 20
-15.6770467845
 10
-26.7882352677
 20
-15.8887853245
  0
LINE
  5
218
100
AcDbEntity
  8
RACCORDO
100
AcDbLine
 62
7
  6
CONTINUOUS
 10
-26.8135071899
 20
-15.601115906
 11
-26.8134619016
 21
-15.6022040369
  0
LINE
  5
219
100
AcDbEntity
  8
RACCORDO
100
AcDbLine
 62
7
  6
CONTINUOUS
 10
-26.842145517
 20
-14.1946474276
 11
-26.8134619016
 21
-15.6022040369
  0
LWPOLYLINE
  5
21A
100
AcDbEntity
  8
RACCORDO
100
AcDbPolyline
 62
7
  6
CONTINUOUS
 90
4
 70
0
 10
-26.8708154771
 20
43.9053946483
 10
-26.8803515653
 20
42.2575241201
 10
-26.8862679438
 20
40.5821805777
 10
-26.8927174565
 20
-4.2831485282
  0
LWPOLYLINE
  5
21B
100
AcDbEntity
  8
RACCORDO
100
AcDbPolyline
 62
7
  6
CONTINUOUS
 90
3
 70
0
 10
-26.813546648
 20
48.5658521987
 10
-26.8422917918
 20
47.1158017375
 10
-26.8708154771
 20
43.9053946483
  0
LINE
  5
21C
100
AcDbEntity
  8
RACCORDO
100
AcDbLine
 62
7
  6
CONTINUOUS
 10
-26.8135317247
 20
48.5658515975
 11
-26.8135438799
 21
48.565552331
  0
LINE
  5
21D
100
AcDbEntity
  8
0
100
AcDbLine
 62
253
  6
CONTINUOUS
 10
-16.8928214506
 20
28.6647511582
 11
-16.8850214435
 21
28.6686511617
  0
LINE
  5
21E
100
AcDbEntity
  8
RACCORDO
100
AcDbLine
 62
7
  6
CONTINUOUS
 10
27.3518353248
 20
-44.7835911339
 11
27.3512233996
 21
-44.7833069413
  0
LINE
  5
21F
100
AcDbEntity
  8
RACCORDO
100
AcDbLine
 62
7
  6
CONTINUOUS
 10
26.400615486
 20
-44.3232792486
 11
27.3518353248
 21
-44.7835911339
  0
LINE
  5
220
100
AcDbEntity
  8
RACCORDO
100
AcDbLine
 62
7
  6
CONTINUOUS
 10
21.9276353593
 20
-42.138464339
 11
26.400615486
 21
-44.3232792486
  0
LINE
  5
221
100
AcDbEntity
  8
RACCORDO
100
AcDbLine
 62
7
  6
CONTINUOUS
 10
18.3403917582
 20
-40.3749642998
 11
21.9276353593
 21
-42.138464339
  0
LINE
  5
222
100
AcDbEntity
  8
RACCORDO
100
AcDbLine
 62
7
  6
CONTINUOUS
 10
15.848893923
 20
-39.1383115364
 11
18.3403917582
 21
-40.3749642998
  0
LINE
  5
223
100
AcDbEntity
  8
RACCORDO
100
AcDbLine
 62
253
  6
CONTINUOUS
 10
9.1449447924
 20
-35.6194705107
 11
-7.4720645656
 21
-27.3109658313
  0
LINE
  5
224
100
AcDbEntity
  8
RACCORDO
100
AcDbLine
 62
7
  6
CONTINUOUS
 10
-13.7379261965
 20
-24.3449160625
 11
-7.2528176366
 21
-27.5827872467
  0
LWPOLYLINE
  5
225
100
AcDbEntity
  8
RACCORDO
100
AcDbPolyline
 62
7
  6
CONTINUOUS
 90
3
 70
0
 10
-7.2528259754
 20
-27.5827830771
 10
11.9615341508
 20
-37.1927208704
 10
15.848893923
 20
-39.1383115364
  0
LINE
  5
226
100
AcDbEntity
  8
RACCORDO
100
AcDbLine
 62
7
  6
CONTINUOUS
 10
-16.2101804257
 20
-23.0997335819
 11
-13.7379261965
 21
-24.3449160625
  0
LWPOLYLINE
  5
227
100
AcDbEntity
  8
RACCORDO
100
AcDbPolyline
 62
7
  6
CONTINUOUS
 90
3
 70
0
 10
-24.0972932178
 20
-19.0744043081
 10
-20.8627563936
 20
-20.7318955636
 10
-16.2101804257
 20
-23.0997335819
  0
LINE
  5
228
100
AcDbEntity
  8
RACCORDO
100
AcDbLine
 62
7
  6
CONTINUOUS
 10
-25.0253833903
 20
-18.5949335791
 11
-24.0972932178
 21
-19.0744043081
  0
LINE
  5
229
100
AcDbEntity
  8
RACCORDO
100
AcDbLine
 62
7
  6
CONTINUOUS
 10
-25.0236676936
 20
-18.5958541265
 11
-25.0253833542
 21
-18.594933512
  0
LWPOLYLINE
  5
22A
100
AcDbEntity
  8
RACCORDO
100
AcDbPolyline
 62
7
  6
CONTINUOUS
 90
13
 70
0
 10
-26.7531642305
 20
-16.1012271682
 10
-26.7047214093
 20
-16.3132448765
 10
-26.6433862827
 20
-16.5240927765
 10
-26.5695879027
 20
-16.7328364281
 10
-26.483776145
 20
-16.9384324563
 10
-26.3863691454
 20
-17.1398194936
 10
-26.2778927417
 20
-17.3357695716
 10
-26.1586961389
 20
-17.5253648033
 10
-26.0292656484
 20
-17.7073985771
 10
-25.8903410241
 20
-17.8803902907
 10
-25.7419724468
 20
-18.0437008992
 10
-25.5848645495
 20
-18.1958372482
 10
-25.4206118638
 20
-18.3346985352
  0
LINE
  5
22B
100
AcDbEntity
  8
RACCORDO
100
AcDbLine
 62
7
  6
CONTINUOUS
 10
-26.7882352677
 20
-15.8887853245
 11
-26.7531642305
 21
-16.1012271682
  0
LWPOLYLINE
  5
22C
100
AcDbEntity
  8
RACCORDO
100
AcDbPolyline
 62
7
  6
CONTINUOUS
 90
3
 70
0
 10
-26.8802901592
 20
-9.3784189441
 10
-26.8707202811
 20
-11.0158600622
 10
-26.842145517
 20
-14.1946474276
  0
LINE
  5
22D
100
AcDbEntity
  8
RACCORDO
100
AcDbLine
 62
7
  6
CONTINUOUS
 10
-26.8927174565
 20
-4.2831485282
 11
-26.8802901592
 21
-9.3784189441
  0
LINE
  5
22E
100
AcDbEntity
  8
RACCORDO
100
AcDbLine
 62
7
  6
CONTINUOUS
 10
-14.2793670519
 20
25.6223903647
 11
-15.0433942218
 21
25.2894167491
  0
LINE
  5
22F
100
AcDbEntity
  8
RACCORDO
100
AcDbLine
 62
253
  6
CONTINUOUS
 10
-14.1484086124
 20
25.612375785
 11
-15.0433942218
 21
25.2223286689
  0
LINE
  5
230
100
AcDbEntity
  8
RACCORDO
100
AcDbLine
 62
7
  6
CONTINUOUS
 10
-13.4524039641
 20
25.2539839313
 11
-13.6291806594
 21
25.1769422007
  0
LINE
  5
231
100
AcDbEntity
  8
DRAFT
100
AcDbLine
 62
7
  6
CONTINUOUS
 10
-13.8413126938
 20
25.084492124
 11
-13.98273405
 21
25.0228587395
  0
LINE
  5
232
100
AcDbEntity
  8
DRAFT
100
AcDbLine
 62
7
  6
CONTINUOUS
 10
-14.548419475
 20
24.7763252016
 11
-14.6898408312
 21
24.7146918171
  0
LINE
  5
233
100
AcDbEntity
  8
DRAFT
100
AcDbLine
 62
7
  6
CONTINUOUS
 10
-14.1948660844
 20
24.9304086628
 11
-14.3362874406
 21
24.8687752783
  0
LINE
  5
234
100
AcDbEntity
  8
DRAFT
100
AcDbLine
 62
7
  6
CONTINUOUS
 10
-14.9019728656
 20
24.6222417404
 11
-15.0433942218
 21
24.5606083559
  0
LINE
  5
235
100
AcDbEntity
  8
RACCORDO
100
AcDbLine
 62
253
  6
CONTINUOUS
 10
-14.2777227103
 20
25.6230926986
 11
-14.2793643904
 21
25.6223915246
  0
LINE
  5
236
100
AcDbEntity
  8
RACCORDO
100
AcDbLine
 62
7
  6
CONTINUOUS
 10
-13.4524039641
 20
20.1562241128
 11
-13.6291806594
 21
20.0564891481
  0
LINE
  5
237
100
AcDbEntity
  8
DRAFT
100
AcDbLine
 62
7
  6
CONTINUOUS
 10
-13.8413126938
 20
19.9368071904
 11
-13.98273405
 21
19.8570192186
  0
LINE
  5
238
100
AcDbEntity
  8
DRAFT
100
AcDbLine
 62
7
  6
CONTINUOUS
 10
-14.1948660844
 20
19.737337261
 11
-14.3362874406
 21
19.6575492892
  0
LINE
  5
239
100
AcDbEntity
  8
DRAFT
100
AcDbLine
 62
7
  6
CONTINUOUS
 10
-14.9019728656
 20
19.3383974022
 11
-15.0433942218
 21
19.2586094304
  0
LINE
  5
23A
100
AcDbEntity
  8
DRAFT
100
AcDbLine
 62
7
  6
CONTINUOUS
 10
-14.548419475
 20
19.5378673316
 11
-14.6898408312
 21
19.4580793598
  0
LINE
  5
23B
100
AcDbEntity
  8
RACCORDO
100
AcDbLine
 62
253
  6
CONTINUOUS
 10
7.1915344813
 20
-25.0140026589
 11
-9.4254748766
 21
-16.7054979799
  0
LINE
  5
23C
100
AcDbEntity
  8
RACCORDO
100
AcDbLine
 62
253
  6
CONTINUOUS
 10
6.7629178537
 20
-23.8276544625
 11
-9.8540915042
 21
-15.5191497835
  0
LINE
  5
23D
100
AcDbEntity
  8
0
100
AcDbLine
 62
253
  6
CONTINUOUS
 10
7.3256490905
 20
-22.1558199773
 11
-9.2914240982
 21
-13.8472833608
  0
LINE
  5
23E
100
AcDbEntity
  8
SUPERFICI
100
AcDbLine
 62
7
  6
CONTINUOUS
 10
14.6340902311
 20
-23.960613003
 11
-14.8312621874
 21
-9.2279367938
  0
LINE
  5
23F
100
AcDbEntity
  8
DRAFT
100
AcDbLine
 62
7
  6
CONTINUOUS
 10
-2.6517544245
 20
-15.227958416
 11
-6.9289373647
 21
-13.0893669459
  0
LINE
  5
240
100
AcDbEntity
  8
DRAFT
100
AcDbLine
 62
7
  6
CONTINUOUS
 10
8.980965212
 20
-21.0443182343
 11
13.2581481522
 21
-23.1829097044
  0
LINE
  5
241
100
AcDbEntity
  8
DRAFT
100
AcDbLine
 62
7
  6
CONTINUOUS
 10
-2.450739759
 20
-15.1163337144
 11
-6.7056879615
 21
-12.9888596132
  0
LINE
  5
242
100
AcDbEntity
  8
DRAFT
100
AcDbLine
 62
7
  6
CONTINUOUS
 10
9.2042146152
 20
-20.9438109015
 11
13.4591628177
 21
-23.0712850028
  0
LINE
  5
243
100
AcDbEntity
  8
DRAFT
100
AcDbLine
 62
7
  6
CONTINUOUS
 10
-2.316729982
 20
-15.0419172467
 11
-6.556855026
 21
-12.9218547247
  0
LINE
  5
244
100
AcDbEntity
  8
DRAFT
100
AcDbLine
 62
7
  6
CONTINUOUS
 10
9.3530475507
 20
-20.876806013
 11
13.5931725947
 21
-22.996868535
  0
LINE
  5
245
100
AcDbEntity
  8
DRAFT
100
AcDbLine
 62
7
  6
CONTINUOUS
 10
-2.1157153164
 20
-14.9302925451
 11
-6.3336056228
 21
-12.8213473919
  0
LINE
  5
246
100
AcDbEntity
  8
DRAFT
100
AcDbLine
 62
7
  6
CONTINUOUS
 10
9.5762969539
 20
-20.7762986803
 11
13.7941872603
 21
-22.8852438334
  0
LINE
  5
247
100
AcDbEntity
  8
DRAFT
100
AcDbLine
 62
7
  6
CONTINUOUS
 10
-1.9817055394
 20
-14.8558760774
 11
-6.1847726874
 21
-12.7543425034
  0
LINE
  5
248
100
AcDbEntity
  8
DRAFT
100
AcDbLine
 62
7
  6
CONTINUOUS
 10
9.7251298893
 20
-20.7092937917
 11
13.9281970373
 21
-22.8108273657
  0
LINE
  5
249
100
AcDbEntity
  8
SUPERFICI
100
AcDbLine
 62
7
  6
CONTINUOUS
 10
-15.0433942218
 20
27.7478363556
 11
-15.0433942218
 21
-8.8620631554
  0
LINE
  5
24A
100
AcDbEntity
  8
DRAFT
100
AcDbLine
 62
7
  6
CONTINUOUS
 10
-14.9019728656
 20
-0.147174183
 11
-14.9019728656
 21
5.2359282022
  0
LINE
  5
24B
100
AcDbEntity
  8
DRAFT
100
AcDbLine
 62
7
  6
CONTINUOUS
 10
-14.9019728656
 20
19.3383974022
 11
-14.9019728656
 21
24.7214997873
  0
LINE
  5
24C
100
AcDbEntity
  8
DRAFT
100
AcDbLine
 62
7
  6
CONTINUOUS
 10
-14.6898408312
 20
24.7146918171
 11
-14.6898408312
 21
19.4580793598
  0
LINE
  5
24D
100
AcDbEntity
  8
DRAFT
100
AcDbLine
 62
7
  6
CONTINUOUS
 10
-14.6898408312
 20
-0.0274922253
 11
-14.6898408312
 21
5.229120232
  0
LINE
  5
24E
100
AcDbEntity
  8
DRAFT
100
AcDbLine
 62
7
  6
CONTINUOUS
 10
-14.548419475
 20
0.0522957465
 11
-14.548419475
 21
5.3900116634
  0
LINE
  5
24F
100
AcDbEntity
  8
DRAFT
100
AcDbLine
 62
7
  6
CONTINUOUS
 10
-14.548419475
 20
19.5378673316
 11
-14.548419475
 21
24.8755832485
  0
LINE
  5
250
100
AcDbEntity
  8
DRAFT
100
AcDbLine
 62
7
  6
CONTINUOUS
 10
-14.3362874406
 20
24.8687752783
 11
-14.3362874406
 21
19.6575492892
  0
LINE
  5
251
100
AcDbEntity
  8
DRAFT
100
AcDbLine
 62
7
  6
CONTINUOUS
 10
-14.3362874406
 20
0.1719777041
 11
-14.3362874406
 21
5.3832036931
  0
LINE
  5
252
100
AcDbEntity
  8
DRAFT
100
AcDbLine
 62
7
  6
CONTINUOUS
 10
-14.1948660844
 20
0.2517656759
 11
-14.1948660844
 21
5.5440951246
  0
LINE
  5
253
100
AcDbEntity
  8
DRAFT
100
AcDbLine
 62
7
  6
CONTINUOUS
 10
-14.1948660844
 20
19.737337261
 11
-14.1948660844
 21
25.0296667097
  0
LINE
  5
254
100
AcDbEntity
  8
DRAFT
100
AcDbLine
 62
7
  6
CONTINUOUS
 10
-13.98273405
 20
25.0228587395
 11
-13.98273405
 21
19.8570192186
  0
LINE
  5
255
100
AcDbEntity
  8
DRAFT
100
AcDbLine
 62
7
  6
CONTINUOUS
 10
-13.98273405
 20
0.3714476335
 11
-13.98273405
 21
5.5372871543
  0
LINE
  5
256
100
AcDbEntity
  8
DRAFT
100
AcDbLine
 62
7
  6
CONTINUOUS
 10
-13.8413126938
 20
0.4512356053
 11
-13.8413126938
 21
5.6981785858
  0
LINE
  5
257
100
AcDbEntity
  8
DRAFT
100
AcDbLine
 62
7
  6
CONTINUOUS
 10
-13.8413126938
 20
19.9368071904
 11
-13.8413126938
 21
25.1837501709
  0
LINE
  5
258
100
AcDbEntity
  8
DRAFT
100
AcDbLine
 62
7
  6
CONTINUOUS
 10
-13.6291806594
 20
25.1769422007
 11
-13.6291806594
 21
20.0564891481
  0
LINE
  5
259
100
AcDbEntity
  8
DRAFT
100
AcDbLine
 62
7
  6
CONTINUOUS
 10
-13.6291806594
 20
0.5709175629
 11
-13.6291806594
 21
5.6913706155
  0
LINE
  5
25A
100
AcDbEntity
  8
RACCORDO
100
AcDbLine
 62
253
  6
CONTINUOUS
 10
-13.4524039641
 20
25.2539839313
 11
-13.4524039641
 21
20.1562241128
  0
LINE
  5
25B
100
AcDbEntity
  8
RACCORDO
100
AcDbLine
 62
253
  6
CONTINUOUS
 10
-13.4524039641
 20
5.7684123461
 11
-13.4524039641
 21
0.6706525276
  0
LINE
  5
25C
100
AcDbEntity
  8
RACCORDO
100
AcDbLine
 62
7
  6
CONTINUOUS
 10
-13.3645359985
 20
25.2827673427
 11
-13.3645359985
 21
20.3395727357
  0
LINE
  5
25D
100
AcDbEntity
  8
RACCORDO
100
AcDbLine
 62
7
  6
CONTINUOUS
 10
-13.3645359985
 20
5.7971957575
 11
-13.3645359985
 21
0.8540011505
  0
LINE
  5
25E
100
AcDbEntity
  8
DRAFT
100
AcDbLine
 62
7
  6
CONTINUOUS
 10
-1.7806908739
 20
-14.7442513758
 11
-5.9615232842
 21
-12.6538351706
  0
LINE
  5
25F
100
AcDbEntity
  8
DRAFT
100
AcDbLine
 62
7
  6
CONTINUOUS
 10
9.9483792925
 20
-20.608786459
 11
14.1292117028
 21
-22.6992026641
  0
LINE
  5
260
100
AcDbEntity
  8
RACCORDO
100
AcDbLine
 62
253
  6
CONTINUOUS
 10
-5.7754821148
 20
-12.57007906
 11
-1.6131786526
 21
-14.6512307911
  0
LINE
  5
261
100
AcDbEntity
  8
RACCORDO
100
AcDbLine
 62
253
  6
CONTINUOUS
 10
10.1344204619
 20
-20.5250303484
 11
14.2967239241
 21
-22.6061820795
  0
LINE
  5
262
100
AcDbEntity
  8
RACCORDO
100
AcDbLine
 62
7
  6
CONTINUOUS
 10
-5.591815987
 20
-12.5863095484
 11
-1.5285166232
 21
-14.6179592303
  0
LINE
  5
263
100
AcDbEntity
  8
RACCORDO
100
AcDbLine
 62
7
  6
CONTINUOUS
 10
10.3180865897
 20
-20.5412608368
 11
14.3813859535
 21
-22.5729105187
  0
LINE
  5
264
100
AcDbEntity
  8
DRAFT
100
AcDbLine
 62
7
  6
CONTINUOUS
 10
-2.5512470917
 20
-15.3020498758
 11
-2.6517544245
 21
-15.227958416
  0
LINE
  5
265
100
AcDbEntity
  8
DRAFT
100
AcDbLine
 62
7
  6
CONTINUOUS
 10
-2.2162226492
 20
-15.1160087065
 11
-2.316729982
 21
-15.0419172467
  0
LINE
  5
266
100
AcDbEntity
  8
DRAFT
100
AcDbLine
 62
7
  6
CONTINUOUS
 10
-1.8811982067
 20
-14.9299675371
 11
-1.9817055394
 21
-14.8558760774
  0
LINE
  5
267
100
AcDbEntity
  8
DRAFT
100
AcDbLine
 62
7
  6
CONTINUOUS
 10
13.358655485
 20
-23.2570011641
 11
13.2581481522
 21
-23.1829097044
  0
LINE
  5
268
100
AcDbEntity
  8
DRAFT
100
AcDbLine
 62
7
  6
CONTINUOUS
 10
13.6936799275
 20
-23.0709599948
 11
13.5931725947
 21
-22.996868535
  0
LINE
  5
269
100
AcDbEntity
  8
DRAFT
100
AcDbLine
 62
7
  6
CONTINUOUS
 10
14.02870437
 20
-22.8849188255
 11
13.9281970373
 21
-22.8108273657
  0
LINE
  5
26A
100
AcDbEntity
  8
RACCORDO
100
AcDbLine
 62
7
  6
CONTINUOUS
 10
-15.0433942218
 20
5.803845164
 11
-14.2793670519
 21
6.1368187796
  0
LINE
  5
26B
100
AcDbEntity
  8
RACCORDO
100
AcDbLine
 62
253
  6
CONTINUOUS
 10
-15.0433942218
 20
5.7367570837
 11
-14.1484086124
 21
6.1268041999
  0
LINE
  5
26C
100
AcDbEntity
  8
RACCORDO
100
AcDbLine
 62
7
  6
CONTINUOUS
 10
-13.4524039641
 20
5.7684123461
 11
-13.6291806594
 21
5.6913706155
  0
LINE
  5
26D
100
AcDbEntity
  8
DRAFT
100
AcDbLine
 62
7
  6
CONTINUOUS
 10
-13.8413126938
 20
5.5989205388
 11
-13.98273405
 21
5.5372871543
  0
LINE
  5
26E
100
AcDbEntity
  8
DRAFT
100
AcDbLine
 62
7
  6
CONTINUOUS
 10
-14.1948660844
 20
5.4448370776
 11
-14.3362874406
 21
5.3832036931
  0
LINE
  5
26F
100
AcDbEntity
  8
DRAFT
100
AcDbLine
 62
7
  6
CONTINUOUS
 10
-14.548419475
 20
5.2907536164
 11
-14.6898408312
 21
5.229120232
  0
LINE
  5
270
100
AcDbEntity
  8
DRAFT
100
AcDbLine
 62
7
  6
CONTINUOUS
 10
-14.9019728656
 20
5.1366701552
 11
-15.0433942218
 21
5.0750367708
  0
LINE
  5
271
100
AcDbEntity
  8
RACCORDO
100
AcDbLine
 62
253
  6
CONTINUOUS
 10
-1.6026583579
 20
-15.5114142094
 11
-1.6026583579
 21
-14.6457448629
  0
LINE
  5
272
100
AcDbEntity
  8
RACCORDO
100
AcDbLine
 62
7
  6
CONTINUOUS
 10
-1.5256018055
 20
-15.4110446184
 11
-1.5256018055
 21
-14.6219452745
  0
LINE
  5
273
100
AcDbEntity
  8
RACCORDO
100
AcDbLine
 62
253
  6
CONTINUOUS
 10
27.7368676256
 20
24.1223133006
 11
30.8478358772
 21
25.8774785289
  0
LINE
  5
274
100
AcDbEntity
  8
RACCORDO
100
AcDbLine
 62
7
  6
CONTINUOUS
 10
-13.4524039641
 20
0.6706525276
 11
-13.6291806594
 21
0.5709175629
  0
LINE
  5
275
100
AcDbEntity
  8
DRAFT
100
AcDbLine
 62
7
  6
CONTINUOUS
 10
-13.8413126938
 20
0.4512356053
 11
-13.98273405
 21
0.3714476335
  0
LINE
  5
276
100
AcDbEntity
  8
DRAFT
100
AcDbLine
 62
7
  6
CONTINUOUS
 10
-14.1948660844
 20
0.2517656759
 11
-14.3362874406
 21
0.1719777041
  0
LINE
  5
277
100
AcDbEntity
  8
DRAFT
100
AcDbLine
 62
7
  6
CONTINUOUS
 10
-14.9019728656
 20
-0.147174183
 11
-15.0433942218
 21
-0.2269621547
  0
LINE
  5
278
100
AcDbEntity
  8
DRAFT
100
AcDbLine
 62
7
  6
CONTINUOUS
 10
-14.548419475
 20
0.0522957465
 11
-14.6898408312
 21
-0.0274922253
  0
LINE
  5
279
100
AcDbEntity
  8
RACCORDO
100
AcDbLine
 62
253
  6
CONTINUOUS
 10
32.9691562208
 20
22.2187421457
 11
29.6838443451
 21
20.7396880959
  0
LINE
  5
27A
100
AcDbEntity
  8
RACCORDO
100
AcDbLine
 62
253
  6
CONTINUOUS
 10
-13.4415925508
 20
5.7733961691
 11
-14.1484086124
 21
6.1268041999
  0
LINE
  5
27B
100
AcDbEntity
  8
RACCORDO
100
AcDbLine
 62
7
  6
CONTINUOUS
 10
-13.3674508161
 20
5.8011818017
 11
-14.0253466667
 21
6.1301297269
  0
LINE
  5
27C
100
AcDbEntity
  8
DRAFT
100
AcDbLine
 62
7
  6
CONTINUOUS
 10
-6.7056879615
 20
-12.9888596132
 11
-6.8060362783
 21
-13.1508174891
  0
LINE
  5
27D
100
AcDbEntity
  8
DRAFT
100
AcDbLine
 62
7
  6
CONTINUOUS
 10
-14.9019728656
 20
-0.0343001955
 11
-14.6898408312
 21
-0.0274922253
  0
LINE
  5
27E
100
AcDbEntity
  8
DRAFT
100
AcDbLine
 62
7
  6
CONTINUOUS
 10
-14.548419475
 20
0.1651697339
 11
-14.3362874406
 21
0.1719777041
  0
LINE
  5
27F
100
AcDbEntity
  8
DRAFT
100
AcDbLine
 62
7
  6
CONTINUOUS
 10
-14.1948660844
 20
0.3646396633
 11
-13.98273405
 21
0.3714476335
  0
LINE
  5
280
100
AcDbEntity
  8
DRAFT
100
AcDbLine
 62
7
  6
CONTINUOUS
 10
-13.8413126938
 20
0.5641095927
 11
-13.6291806594
 21
0.5709175629
  0
LINE
  5
281
100
AcDbEntity
  8
0
100
AcDbLine
 62
7
  6
CONTINUOUS
 10
31.5530018681
 20
-12.2987443415
 11
32.9691562208
 21
-13.0068215179
  0
LINE
  5
282
100
AcDbEntity
  8
DRAFT
100
AcDbLine
 62
7
  6
CONTINUOUS
 10
-2.450739759
 20
-15.1163337144
 11
-2.5512470917
 21
-15.3020498758
  0
LINE
  5
283
100
AcDbEntity
  8
DRAFT
100
AcDbLine
 62
7
  6
CONTINUOUS
 10
-6.3336056228
 20
-12.8213473919
 11
-6.4339539396
 21
-12.9833052679
  0
LINE
  5
284
100
AcDbEntity
  8
DRAFT
100
AcDbLine
 62
7
  6
CONTINUOUS
 10
-5.9615232842
 20
-12.6538351706
 11
-6.061871601
 21
-12.8157930466
  0
LINE
  5
285
100
AcDbEntity
  8
0
100
AcDbLine
 62
253
  6
CONTINUOUS
 10
-15.0433942218
 20
-8.8620631554
 11
-16.8928215115
 21
-9.7867768003
  0
LINE
  5
286
100
AcDbEntity
  8
0
100
AcDbLine
 62
253
  6
CONTINUOUS
 10
-14.8312621874
 20
-9.2279367938
 11
-16.6806878538
 21
-10.1526496269
  0
LINE
  5
287
100
AcDbEntity
  8
DRAFT
100
AcDbLine
 62
7
  6
CONTINUOUS
 10
-14.9019728656
 20
5.2359282022
 11
-14.6898408312
 21
5.229120232
  0
LINE
  5
288
100
AcDbEntity
  8
DRAFT
100
AcDbLine
 62
7
  6
CONTINUOUS
 10
-14.548419475
 20
5.3900116634
 11
-14.3362874406
 21
5.3832036931
  0
LINE
  5
289
100
AcDbEntity
  8
DRAFT
100
AcDbLine
 62
7
  6
CONTINUOUS
 10
-14.1948660844
 20
5.5440951246
 11
-13.98273405
 21
5.5372871543
  0
LINE
  5
28A
100
AcDbEntity
  8
DRAFT
100
AcDbLine
 62
7
  6
CONTINUOUS
 10
-13.8413126938
 20
5.6981785858
 11
-13.6291806594
 21
5.6913706155
  0
LINE
  5
28B
100
AcDbEntity
  8
DRAFT
100
AcDbLine
 62
7
  6
CONTINUOUS
 10
-2.1157153164
 20
-14.9302925451
 11
-2.2162226492
 21
-15.1160087065
  0
LINE
  5
28C
100
AcDbEntity
  8
DRAFT
100
AcDbLine
 62
7
  6
CONTINUOUS
 10
-1.7806908739
 20
-14.7442513758
 11
-1.8811982067
 21
-14.9299675371
  0
LINE
  5
28D
100
AcDbEntity
  8
RACCORDO
100
AcDbLine
 62
7
  6
CONTINUOUS
 10
14.6340892996
 20
12.4012899152
 11
14.6340890072
 21
12.4015390446
  0
LINE
  5
28E
100
AcDbEntity
  8
RACCORDO
100
AcDbLine
 62
253
  6
CONTINUOUS
 10
14.3072442188
 20
-23.4663654977
 11
14.3072442188
 21
-22.6006961513
  0
LINE
  5
28F
100
AcDbEntity
  8
RACCORDO
100
AcDbLine
 62
7
  6
CONTINUOUS
 10
14.3843007711
 20
-23.3659959068
 11
14.3843007711
 21
-22.5768965628
  0
LINE
  5
290
100
AcDbEntity
  8
0
100
AcDbLine
 62
7
  6
CONTINUOUS
 10
14.6340904353
 20
12.4013067941
 11
14.6340905087
 21
-26.050263508
  0
LINE
  5
291
100
AcDbEntity
  8
RACCORDO
100
AcDbLine
 62
7
  6
CONTINUOUS
 10
14.6340890071
 20
-26.0504778233
 11
14.6340892637
 21
-26.0502472328
  0
LINE
  5
292
100
AcDbEntity
  8
RACCORDO
100
AcDbLine
 62
7
  6
CONTINUOUS
 10
-5.7754821148
 20
-12.57007906
 11
-5.9615232842
 21
-12.6538351706
  0
LINE
  5
293
100
AcDbEntity
  8
DRAFT
100
AcDbLine
 62
7
  6
CONTINUOUS
 10
-6.1847726874
 20
-12.7543425034
 11
-6.3336056228
 21
-12.8213473919
  0
LINE
  5
294
100
AcDbEntity
  8
DRAFT
100
AcDbLine
 62
7
  6
CONTINUOUS
 10
-6.556855026
 20
-12.9218547247
 11
-6.7056879615
 21
-12.9888596132
  0
LINE
  5
295
100
AcDbEntity
  8
DRAFT
100
AcDbLine
 62
7
  6
CONTINUOUS
 10
-6.9289373647
 20
-13.0893669459
 11
-7.0233722923
 21
-13.1318817413
  0
LINE
  5
296
100
AcDbEntity
  8
DRAFT
100
AcDbLine
 62
7
  6
CONTINUOUS
 10
-1.9817055394
 20
-14.8558760774
 11
-2.1157153164
 21
-14.9302925451
  0
LINE
  5
297
100
AcDbEntity
  8
RACCORDO
100
AcDbLine
 62
7
  6
CONTINUOUS
 10
-1.6131786526
 20
-14.6512307911
 11
-1.7806908739
 21
-14.7442513758
  0
LINE
  5
298
100
AcDbEntity
  8
DRAFT
100
AcDbLine
 62
7
  6
CONTINUOUS
 10
-2.316729982
 20
-15.0419172467
 11
-2.450739759
 21
-15.1163337144
  0
LINE
  5
299
100
AcDbEntity
  8
DRAFT
100
AcDbLine
 62
7
  6
CONTINUOUS
 10
-2.6517544245
 20
-15.227958416
 11
-2.7367840153
 21
-15.2751758798
  0
LINE
  5
29A
100
AcDbEntity
  8
RACCORDO
100
AcDbLine
 62
253
  6
CONTINUOUS
 10
-1.9161450797
 20
-15.6854953476
 11
-1.6026583579
 21
-15.5114142094
  0
LINE
  5
29B
100
AcDbEntity
  8
RACCORDO
100
AcDbLine
 62
7
  6
CONTINUOUS
 10
-1.8034006765
 20
-15.7418675492
 11
-1.6799588926
 21
-15.6733195542
  0
LINE
  5
29C
100
AcDbEntity
  8
RACCORDO
100
AcDbLine
 62
253
  6
CONTINUOUS
 10
-14.0269404101
 20
25.6164825303
 11
-14.0253482904
 21
25.6157021239
  0
LINE
  5
29D
100
AcDbEntity
  8
RACCORDO
100
AcDbLine
 62
7
  6
CONTINUOUS
 10
-17.1279237041
 20
28.7900999181
 11
-17.1276172011
 21
28.7899470621
  0
LINE
  5
29E
100
AcDbEntity
  8
RACCORDO
100
AcDbLine
 62
253
  6
CONTINUOUS
 10
-13.4415925508
 20
25.2589677542
 11
-14.1484086124
 21
25.612375785
  0
LINE
  5
29F
100
AcDbEntity
  8
RACCORDO
100
AcDbLine
 62
7
  6
CONTINUOUS
 10
-13.3674508161
 20
25.2867533868
 11
-14.0253466667
 21
25.6157013121
  0
LINE
  5
2A0
100
AcDbEntity
  8
0
100
AcDbLine
 62
7
  6
CONTINUOUS
 10
-17.1276164616
 20
28.7899495103
 11
14.2673827711
 21
13.0924499087
  0
LINE
  5
2A1
100
AcDbEntity
  8
RACCORDO
100
AcDbLine
 62
253
  6
CONTINUOUS
 10
-9.8540915042
 20
26.2330583228
 11
6.7629178537
 21
17.9245536439
  0
LINE
  5
2A2
100
AcDbEntity
  8
RACCORDO
100
AcDbLine
 62
7
  6
CONTINUOUS
 10
14.2673811426
 20
13.0924478342
 11
14.2676686271
 21
13.0923037439
  0
LINE
  5
2A3
100
AcDbEntity
  8
DRAFT
100
AcDbLine
 62
7
  6
CONTINUOUS
 10
9.2042146152
 20
-20.9438109015
 11
9.1038662984
 21
-21.1057687775
  0
LINE
  5
2A4
100
AcDbEntity
  8
DRAFT
100
AcDbLine
 62
7
  6
CONTINUOUS
 10
9.5762969539
 20
-20.7762986803
 11
9.4759486371
 21
-20.9382565562
  0
LINE
  5
2A5
100
AcDbEntity
  8
DRAFT
100
AcDbLine
 62
7
  6
CONTINUOUS
 10
9.9483792925
 20
-20.608786459
 11
9.8480309757
 21
-20.7707443349
  0
LINE
  5
2A6
100
AcDbEntity
  8
DRAFT
100
AcDbLine
 62
7
  6
CONTINUOUS
 10
-14.9019728656
 20
19.4512713896
 11
-14.6898408312
 21
19.4580793598
  0
LINE
  5
2A7
100
AcDbEntity
  8
DRAFT
100
AcDbLine
 62
7
  6
CONTINUOUS
 10
-14.548419475
 20
19.650741319
 11
-14.3362874406
 21
19.6575492892
  0
LINE
  5
2A8
100
AcDbEntity
  8
DRAFT
100
AcDbLine
 62
7
  6
CONTINUOUS
 10
-14.1948660844
 20
19.8502112484
 11
-13.98273405
 21
19.8570192186
  0
LINE
  5
2A9
100
AcDbEntity
  8
DRAFT
100
AcDbLine
 62
7
  6
CONTINUOUS
 10
-13.8413126938
 20
20.0496811778
 11
-13.6291806594
 21
20.0564891481
  0
LINE
  5
2AA
100
AcDbEntity
  8
RACCORDO
100
AcDbLine
 62
253
  6
CONTINUOUS
 10
-9.4254748766
 20
27.8480231468
 11
7.1915344813
 21
19.5395184679
  0
LINE
  5
2AB
100
AcDbEntity
  8
DRAFT
100
AcDbLine
 62
7
  6
CONTINUOUS
 10
13.4591628177
 20
-23.0712850028
 11
13.358655485
 21
-23.2570011641
  0
LINE
  5
2AC
100
AcDbEntity
  8
DRAFT
100
AcDbLine
 62
7
  6
CONTINUOUS
 10
13.7941872603
 20
-22.8852438334
 11
13.6936799275
 21
-23.0709599948
  0
LINE
  5
2AD
100
AcDbEntity
  8
DRAFT
100
AcDbLine
 62
7
  6
CONTINUOUS
 10
14.1292117028
 20
-22.6992026641
 11
14.02870437
 21
-22.8849188255
  0
LINE
  5
2AE
100
AcDbEntity
  8
DRAFT
100
AcDbLine
 62
7
  6
CONTINUOUS
 10
-14.9019728656
 20
24.7214997873
 11
-14.6898408312
 21
24.7146918171
  0
LINE
  5
2AF
100
AcDbEntity
  8
DRAFT
100
AcDbLine
 62
7
  6
CONTINUOUS
 10
-14.548419475
 20
24.8755832485
 11
-14.3362874406
 21
24.8687752783
  0
LINE
  5
2B0
100
AcDbEntity
  8
DRAFT
100
AcDbLine
 62
7
  6
CONTINUOUS
 10
-14.1948660844
 20
25.0296667097
 11
-13.98273405
 21
25.0228587395
  0
LINE
  5
2B1
100
AcDbEntity
  8
DRAFT
100
AcDbLine
 62
7
  6
CONTINUOUS
 10
-13.8413126938
 20
25.1837501709
 11
-13.6291806594
 21
25.1769422007
  0
LINE
  5
2B2
100
AcDbEntity
  8
0
100
AcDbLine
 62
7
  6
CONTINUOUS
 10
31.4808268662
 20
-7.4631577661
 11
32.9691562208
 21
-6.6415740707
  0
LINE
  5
2B3
100
AcDbEntity
  8
RACCORDO
100
AcDbLine
 62
7
  6
CONTINUOUS
 10
10.1344204619
 20
-20.5250303484
 11
9.9483792925
 21
-20.608786459
  0
LINE
  5
2B4
100
AcDbEntity
  8
DRAFT
100
AcDbLine
 62
7
  6
CONTINUOUS
 10
9.7251298893
 20
-20.7092937917
 11
9.5762969539
 21
-20.7762986803
  0
LINE
  5
2B5
100
AcDbEntity
  8
DRAFT
100
AcDbLine
 62
7
  6
CONTINUOUS
 10
9.3530475507
 20
-20.876806013
 11
9.2042146152
 21
-20.9438109015
  0
LINE
  5
2B6
100
AcDbEntity
  8
DRAFT
100
AcDbLine
 62
7
  6
CONTINUOUS
 10
8.980965212
 20
-21.0443182343
 11
8.8865302844
 21
-21.0868330297
  0
LINE
  5
2B7
100
AcDbEntity
  8
0
100
AcDbLine
 62
7
  6
CONTINUOUS
 10
31.5530018681
 20
-12.2987443415
 11
31.4808268662
 21
-12.3238891485
  0
LINE
  5
2B8
100
AcDbEntity
  8
0
100
AcDbLine
 62
7
  6
CONTINUOUS
 10
32.9691562208
 20
-13.0068215179
 11
31.4808268662
 21
-13.5253355926
  0
LINE
  5
2B9
100
AcDbEntity
  8
0
100
AcDbLine
 62
7
  6
CONTINUOUS
 10
31.4808268662
 20
-13.5253355926
 11
31.4808268662
 21
-7.4631577661
  0
LINE
  5
2BA
100
AcDbEntity
  8
0
100
AcDbLine
 62
7
  6
CONTINUOUS
 10
32.9691562208
 20
22.2187421457
 11
32.9691562208
 21
-6.6415740707
  0
LINE
  5
2BB
100
AcDbEntity
  8
0
100
AcDbLine
 62
7
  6
CONTINUOUS
 10
32.9691562208
 20
-13.0068215179
 11
32.9691562208
 21
-41.8671377343
  0
LINE
  5
2BC
100
AcDbEntity
  8
DRAFT
100
AcDbLine
 62
7
  6
CONTINUOUS
 10
13.9281970373
 20
-22.8108273657
 11
13.7941872603
 21
-22.8852438334
  0
LINE
  5
2BD
100
AcDbEntity
  8
RACCORDO
100
AcDbLine
 62
7
  6
CONTINUOUS
 10
14.2967239241
 20
-22.6061820795
 11
14.1292117028
 21
-22.6992026641
  0
LINE
  5
2BE
100
AcDbEntity
  8
DRAFT
100
AcDbLine
 62
7
  6
CONTINUOUS
 10
13.5931725947
 20
-22.996868535
 11
13.4591628177
 21
-23.0712850028
  0
LINE
  5
2BF
100
AcDbEntity
  8
DRAFT
100
AcDbLine
 62
7
  6
CONTINUOUS
 10
13.2581481522
 20
-23.1829097044
 11
13.1731185614
 21
-23.2301271682
  0
LINE
  5
2C0
100
AcDbEntity
  8
RACCORDO
100
AcDbLine
 62
253
  6
CONTINUOUS
 10
14.3072442188
 20
-23.4663654977
 11
13.993757497
 21
-23.640446636
  0
LINE
  5
2C1
100
AcDbEntity
  8
RACCORDO
100
AcDbLine
 62
7
  6
CONTINUOUS
 10
14.2299436841
 20
-23.6282708425
 11
14.1065019002
 21
-23.6968188376
  0
LINE
  5
2C2
100
AcDbEntity
  8
0
100
AcDbLine
 62
7
  6
CONTINUOUS
 10
7.6858826364
 20
-25.5476669311
 11
7.8276492862
 21
-25.4767836061
  0
LINE
  5
2C3
100
AcDbEntity
  8
0
100
AcDbLine
 62
7
  6
CONTINUOUS
 10
8.0959614079
 20
-25.7527699845
 11
8.2377276425
 21
-25.6818868672
  0
LINE
  5
2C4
100
AcDbEntity
  8
0
100
AcDbLine
 62
7
  6
CONTINUOUS
 10
9.0025605066
 20
-26.2061630551
 11
9.144326519
 21
-26.1352800489
  0
LINE
  5
2C5
100
AcDbEntity
  8
0
100
AcDbLine
 62
7
  6
CONTINUOUS
 10
9.4127095928
 20
-26.4112309512
 11
9.5544762528
 21
-26.3403476212
  0
LINE
  5
2C6
100
AcDbEntity
  8
0
100
AcDbLine
 62
7
  6
CONTINUOUS
 10
9.686161913
 20
-26.547927427
 11
9.8279293896
 21
-26.4770436887
  0
LINE
  5
2C7
100
AcDbEntity
  8
0
100
AcDbLine
 62
7
  6
CONTINUOUS
 10
10.0963901724
 20
-26.7529507867
 11
10.238159576
 21
-26.6820660849
  0
LINE
  5
2C8
100
AcDbEntity
  8
0
100
AcDbLine
 62
7
  6
CONTINUOUS
 10
10.5066684895
 20
-26.9579335613
 11
10.6484408155
 21
-26.8870473982
  0
LINE
  5
2C9
100
AcDbEntity
  8
RACCORDO
100
AcDbLine
 62
253
  6
CONTINUOUS
 10
-7.4720645654
 20
40.4069013097
 11
9.1449447923
 21
32.0983966302
  0
LINE
  5
2CA
100
AcDbEntity
  8
RACCORDO
100
AcDbLine
 62
253
  6
CONTINUOUS
 10
-6.8426417945
 20
41.2971167412
 11
9.7744392715
 21
32.9885762082
  0
LINE
  5
2CB
100
AcDbEntity
  8
0
100
AcDbLine
 62
7
  6
CONTINUOUS
 10
11.1270733831
 20
-27.2677485032
 11
11.2688524317
 21
-27.1968589788
  0
LINE
  5
2CC
100
AcDbEntity
  8
0
100
AcDbLine
 62
7
  6
CONTINUOUS
 10
8.9572225928
 20
-28.4921461632
 11
9.0998020085
 21
-28.4208564554
  0
LINE
  5
2CD
100
AcDbEntity
  8
0
100
AcDbLine
 62
7
  6
CONTINUOUS
 10
11.8937559021
 20
-27.6502993471
 11
12.0355480988
 21
-27.5794032487
  0
LINE
  5
2CE
100
AcDbEntity
  8
0
100
AcDbLine
 62
7
  6
CONTINUOUS
 10
12.5147296606
 20
-27.9598298565
 11
12.6565375811
 21
-27.8889258963
  0
LINE
  5
2CF
100
AcDbEntity
  8
0
100
AcDbLine
 62
7
  6
CONTINUOUS
 10
10.2999234594
 20
-29.1627663138
 11
10.4425018032
 21
-29.0914771419
  0
LINE
  5
2D0
100
AcDbEntity
  8
0
100
AcDbLine
 62
7
  6
CONTINUOUS
 10
11.1223433999
 20
-29.5718207158
 11
11.2649351632
 21
-29.5005248341
  0
LINE
  5
2D1
100
AcDbEntity
  8
0
100
AcDbLine
 62
7
  6
CONTINUOUS
 10
13.4487040088
 20
-28.4246647649
 11
13.5905472775
 21
-28.3537431306
  0
LINE
  5
2D2
100
AcDbEntity
  8
0
100
AcDbLine
 62
7
  6
CONTINUOUS
 10
13.8602579251
 20
-28.6290450952
 11
14.0021233981
 21
-28.5581123587
  0
LINE
  5
2D3
100
AcDbEntity
  8
0
100
AcDbLine
 62
7
  6
CONTINUOUS
 10
11.9240272405
 20
-29.9688591383
 11
12.0666455053
 21
-29.897550006
  0
LINE
  5
2D4
100
AcDbEntity
  8
0
100
AcDbLine
 62
7
  6
CONTINUOUS
 10
14.7976272414
 20
-29.0921984812
 11
14.9395798517
 21
-29.0212221761
  0
LINE
  5
2D5
100
AcDbEntity
  8
0
100
AcDbLine
 62
7
  6
CONTINUOUS
 10
13.576740773
 20
-29.9074309283
 11
13.7191042936
 21
-29.8362491681
  0
LINE
  5
2D6
100
AcDbEntity
  8
0
100
AcDbLine
 62
7
  6
CONTINUOUS
 10
12.7278047908
 20
-30.3648794117
 11
12.870465604
 21
-30.2935490051
  0
LINE
  5
2D7
100
AcDbEntity
  8
0
100
AcDbLine
 62
7
  6
CONTINUOUS
 10
-21.4780659306
 20
52.0404294327
 11
30.8478358772
 21
25.8774785289
  0
LINE
  5
2D8
100
AcDbEntity
  8
0
100
AcDbLine
 62
7
  6
CONTINUOUS
 10
13.4184161039
 20
-30.7031276595
 11
13.5611287207
 21
-30.6317713511
  0
LINE
  5
2D9
100
AcDbEntity
  8
0
100
AcDbLine
 62
7
  6
CONTINUOUS
 10
15.7785026328
 20
-29.5621638223
 11
15.9205382623
 21
-29.4911460076
  0
LINE
  5
2DA
100
AcDbEntity
  8
0
100
AcDbLine
 62
7
  6
CONTINUOUS
 10
15.2982308773
 20
-30.3222060005
 11
15.4406529475
 21
-30.2509949654
  0
LINE
  5
2DB
100
AcDbEntity
  8
0
100
AcDbLine
 62
7
  6
CONTINUOUS
 10
15.8113643269
 20
-30.5646275607
 11
15.9538981907
 21
-30.4933606287
  0
LINE
  5
2DC
100
AcDbEntity
  8
0
100
AcDbLine
 62
7
  6
CONTINUOUS
 10
14.7560696414
 20
-31.3511478278
 11
14.8989294029
 21
-31.279717947
  0
LINE
  5
2DD
100
AcDbEntity
  8
ASSI
100
AcDbLine
 62
7
  6
CONTINUOUS
 10
16.4562354792
 20
-30.987898124
 11
16.3134759173
 21
-31.0592779049
  0
LINE
  5
2DE
100
AcDbEntity
  8
0
100
AcDbLine
 62
7
  6
CONTINUOUS
 10
15.4572072581
 20
-31.6841371664
 11
15.6001718061
 21
-31.6126548923
  0
LINE
  5
2DF
100
AcDbEntity
  8
0
100
AcDbLine
 62
7
  6
CONTINUOUS
 10
16.7418569911
 20
-32.2727773204
 11
16.885087268
 21
-32.2011621819
  0
LINE
  5
2E0
100
AcDbEntity
  8
RACCORDO
100
AcDbLine
 62
253
  6
CONTINUOUS
 10
29.6838443451
 20
-43.3461917842
 11
32.9691562208
 21
-41.8671377343
  0
LINE
  5
2E1
100
AcDbEntity
  8
SUPERFICI
100
AcDbLine
 62
7
  6
CONTINUOUS
 10
32.1216665196
 20
-43.5208993799
 11
28.9275812599
 21
-44.8615541911
  0
LINE
  5
2E2
100
AcDbEntity
  8
RACCORDO
100
AcDbLine
 62
7
  6
CONTINUOUS
 10
28.9294445836
 20
-44.8607701553
 11
28.9259566564
 21
-44.8622343192
  0
ARC
  5
2E3
100
AcDbEntity
  8
RACCORDO
100
AcDbCircle
 62
253
  6
CONTINUOUS
 10
-1226.5245558194
 20
-2449.1824927323
 40
2759.8267627042
100
AcDbArc
 50
63.2753218027
 51
63.4469241806
  0
ARC
  5
2E4
100
AcDbEntity
  8
RACCORDO
100
AcDbCircle
 62
253
  6
CONTINUOUS
 10
-811.7850253858
 20
-1572.8306352905
 40
1790.5175272545
100
AcDbArc
 50
63.3771274925
 51
63.6407331779
  0
ARC
  5
2E5
100
AcDbEntity
  8
RACCORDO
100
AcDbCircle
 62
253
  6
CONTINUOUS
 10
15.2439227323
 20
-26.8316556286
 40
1.1166392716
100
AcDbArc
 50
128.1665700567
 51
129.4170680869
  0
ARC
  5
2E6
100
AcDbEntity
  8
RACCORDO
100
AcDbCircle
 62
253
  6
CONTINUOUS
 10
15.1868569293
 20
-26.7569704785
 40
1.0226575018
100
AcDbArc
 50
122.3202196752
 51
128.2385938727
  0
ARC
  5
2E7
100
AcDbEntity
  8
RACCORDO
100
AcDbCircle
 62
7
  6
CONTINUOUS
 10
-13.730932694
 20
0.8530012165
 40
0.3663889916
100
AcDbArc
 50
358.0369866167
 51
0.0977846184
  0
ARC
  5
2E8
100
AcDbEntity
  8
RACCORDO
100
AcDbCircle
 62
7
  6
CONTINUOUS
 10
-5.7544686513
 20
-12.9066866069
 40
0.3593228559
100
AcDbArc
 50
63.1818894672
 51
65.5083272712
  0
ARC
  5
2E9
100
AcDbEntity
  8
RACCORDO
100
AcDbCircle
 62
7
  6
CONTINUOUS
 10
10.1554339254
 20
-20.8616378953
 40
0.3593228559
100
AcDbArc
 50
63.1818894672
 51
65.5083272712
  0
ARC
  5
2EA
100
AcDbEntity
  8
RACCORDO
100
AcDbCircle
 62
7
  6
CONTINUOUS
 10
-14.1594740931
 20
5.8618964218
 40
0.2999194042
100
AcDbArc
 50
63.434335032
 51
113.6078450224
  0
ARC
  5
2EB
100
AcDbEntity
  8
RACCORDO
100
AcDbCircle
 62
253
  6
CONTINUOUS
 10
-17.3727780336
 20
29.6279324942
 40
1.0761396805
100
AcDbArc
 50
291.8811676054
 51
296.4871510866
  0
ARC
  5
2EC
100
AcDbEntity
  8
RACCORDO
100
AcDbCircle
 62
7
  6
CONTINUOUS
 10
-13.730932694
 20
20.3385728016
 40
0.3663889915
100
AcDbArc
 50
358.0369866167
 51
0.0977846184
  0
ARC
  5
2ED
100
AcDbEntity
  8
RACCORDO
100
AcDbCircle
 62
7
  6
CONTINUOUS
 10
-14.1595107453
 20
25.3473731548
 40
0.3
100
AcDbArc
 50
64.052477049
 51
112.9606696439
  0
ARC
  5
2EE
100
AcDbEntity
  8
RACCORDO
100
AcDbCircle
 62
253
  6
CONTINUOUS
 10
31.3410831896
 20
-14.8663849517
 40
40.7885960252
100
AcDbArc
 50
189.764255551
 51
189.9931057284
  0
ARC
  5
2EF
100
AcDbEntity
  8
RACCORDO
100
AcDbCircle
 62
253
  6
CONTINUOUS
 10
31.1035531328
 20
-14.9082406994
 40
40.5474064079
100
AcDbArc
 50
189.9931025841
 51
190.2250858023
  0
ARC
  5
2F0
100
AcDbEntity
  8
RACCORDO
100
AcDbCircle
 62
253
  6
CONTINUOUS
 10
47.6807494822
 20
-23.2237096978
 40
40.5069892082
100
AcDbArc
 50
189.8998829463
 51
190.3953923501
  0
ARC
  5
2F1
100
AcDbEntity
  8
RACCORDO
100
AcDbCircle
 62
253
  6
CONTINUOUS
 10
47.0894806948
 20
-23.3324722553
 40
39.9058003957
100
AcDbArc
 50
190.3949777564
 51
191.0566826252
  0
ARC
  5
2F2
100
AcDbEntity
  8
RACCORDO
100
AcDbCircle
 62
253
  6
CONTINUOUS
 10
30.1480272476
 20
-15.0839551881
 40
39.5758609246
100
AcDbArc
 50
190.2860464496
 51
192.1060249133
  0
ARC
  5
2F3
100
AcDbEntity
  8
RACCORDO
100
AcDbCircle
 62
253
  6
CONTINUOUS
 10
46.63263937
 20
-23.4211646134
 40
39.4404295704
100
AcDbArc
 50
191.0575063091
 51
191.2977760657
  0
ARC
  5
2F4
100
AcDbEntity
  8
RACCORDO
100
AcDbCircle
 62
253
  6
CONTINUOUS
 10
46.4149383654
 20
-23.4646257337
 40
39.2184327338
100
AcDbArc
 50
191.2978205426
 51
191.4908290078
  0
ARC
  5
2F5
100
AcDbEntity
  8
RACCORDO
100
AcDbCircle
 62
253
  6
CONTINUOUS
 10
46.1825088279
 20
-23.5119307529
 40
38.9812381896
100
AcDbArc
 50
191.4907491571
 51
191.7627633309
  0
ARC
  5
2F6
100
AcDbEntity
  8
RACCORDO
100
AcDbCircle
 62
253
  6
CONTINUOUS
 10
45.7480824493
 20
-23.602828164
 40
38.5374043989
100
AcDbArc
 50
191.762129257
 51
192.3664907155
  0
ARC
  5
2F7
100
AcDbEntity
  8
0
100
AcDbCircle
 62
7
  6
CONTINUOUS
 10
34.9706454878
 20
11.1429769946
 40
45.3923484946
100
AcDbArc
 50
244.2403381128
 51
244.5565404133
  0
ARC
  5
2F8
100
AcDbEntity
  8
0
100
AcDbCircle
 62
7
  6
CONTINUOUS
 10
34.3413343195
 20
9.8329888659
 40
43.9390520838
100
AcDbArc
 50
244.5636819545
 51
244.9759859556
  0
ARC
  5
2F9
100
AcDbEntity
  8
0
100
AcDbCircle
 62
7
  6
CONTINUOUS
 10
69.7160799612
 20
-24.8838242381
 40
54.6833569099
100
AcDbArc
 50
186.1757950856
 51
187.1436826446
  0
ARC
  5
2FA
100
AcDbEntity
  8
0
100
AcDbCircle
 62
7
  6
CONTINUOUS
 10
69.7863856304
 20
-24.7973004167
 40
54.6131378446
100
AcDbArc
 50
186.3543170318
 51
187.1688201036
  0
ARC
  5
2FB
100
AcDbEntity
  8
0
100
AcDbCircle
 62
7
  6
CONTINUOUS
 10
67.5984912919
 20
-24.9941357752
 40
52.9619774723
100
AcDbArc
 50
186.6101242261
 51
187.0394068896
  0
ARC
  5
2FC
100
AcDbEntity
  8
0
100
AcDbCircle
 62
7
  6
CONTINUOUS
 10
65.5824368985
 20
-25.2116575038
 40
50.3943788516
100
AcDbArc
 50
185.2389244538
 51
185.7390557257
  0
ARC
  5
2FD
100
AcDbEntity
  8
0
100
AcDbCircle
 62
7
  6
CONTINUOUS
 10
62.50224317
 20
-40.0577211467
 40
49.967294291
100
AcDbArc
 50
168.7380340968
 51
169.2097399182
  0
ARC
  5
2FE
100
AcDbEntity
  8
0
100
AcDbCircle
 62
7
  6
CONTINUOUS
 10
62.4792862531
 20
-39.9344833801
 40
49.7948466185
100
AcDbArc
 50
168.9102993226
 51
169.0738353269
  0
ARC
  5
2FF
100
AcDbEntity
  8
0
100
AcDbCircle
 62
7
  6
CONTINUOUS
 10
62.1125543561
 20
-39.8477947692
 40
49.4181854612
100
AcDbArc
 50
167.933761156
 51
168.3116439559
  0
ARC
  5
300
100
AcDbEntity
  8
0
100
AcDbCircle
 62
7
  6
CONTINUOUS
 10
62.063989354
 20
-39.8543167517
 40
49.3718830235
100
AcDbArc
 50
169.0738311697
 51
169.2340500833
  0
ARC
  5
301
100
AcDbEntity
  8
0
100
AcDbCircle
 62
7
  6
CONTINUOUS
 10
63.9322283778
 20
-25.4476524224
 40
48.8776736912
100
AcDbArc
 50
185.036341114
 51
185.7236030797
  0
ARC
  5
302
100
AcDbEntity
  8
0
100
AcDbCircle
 62
7
  6
CONTINUOUS
 10
60.8583319062
 20
-24.6843510935
 40
48.8519791644
100
AcDbArc
 50
186.016225552
 51
186.4373366743
  0
ARC
  5
303
100
AcDbEntity
  8
0
100
AcDbCircle
 62
7
  6
CONTINUOUS
 10
60.4201947415
 20
-24.7281417291
 40
48.4116655052
100
AcDbArc
 50
184.5651553455
 51
186.0190325472
  0
ARC
  5
304
100
AcDbEntity
  8
0
100
AcDbCircle
 62
7
  6
CONTINUOUS
 10
60.3533392787
 20
-39.5639144811
 40
48.209207565
100
AcDbArc
 50
166.6404766877
 51
169.1635724494
  0
ARC
  5
305
100
AcDbEntity
  8
0
100
AcDbCircle
 62
7
  6
CONTINUOUS
 10
58.7951229381
 20
-24.2908712951
 40
47.9643861181
100
AcDbArc
 50
184.4231490347
 51
186.3211649028
  0
ARC
  5
306
100
AcDbEntity
  8
0
100
AcDbCircle
 62
7
  6
CONTINUOUS
 10
58.8975097271
 20
-24.204941337
 40
47.9260405642
100
AcDbArc
 50
185.3882918364
 51
186.3438456888
  0
ARC
  5
307
100
AcDbEntity
  8
0
100
AcDbCircle
 62
7
  6
CONTINUOUS
 10
60.3610575818
 20
-39.5961644001
 40
47.777022255
100
AcDbArc
 50
167.5313904504
 51
168.2998036246
  0
ARC
  5
308
100
AcDbEntity
  8
0
100
AcDbCircle
 62
7
  6
CONTINUOUS
 10
58.1755244333
 20
-24.1301751219
 40
47.7526548454
100
AcDbArc
 50
183.394857608
 51
186.2965109439
  0
ARC
  5
309
100
AcDbEntity
  8
0
100
AcDbCircle
 62
7
  6
CONTINUOUS
 10
60.2246805386
 20
-24.8688392969
 40
47.6639187174
100
AcDbArc
 50
183.6328152334
 51
186.5350881677
  0
ARC
  5
30A
100
AcDbEntity
  8
0
100
AcDbCircle
 62
7
  6
CONTINUOUS
 10
57.1627820468
 20
-23.7607335397
 40
47.5583631877
100
AcDbArc
 50
183.3597876934
 51
186.2738840427
  0
ARC
  5
30B
100
AcDbEntity
  8
0
100
AcDbCircle
 62
7
  6
CONTINUOUS
 10
57.5338299041
 20
-23.9598823447
 40
47.5195951121
100
AcDbArc
 50
183.3696272358
 51
186.2858728733
  0
ARC
  5
30C
100
AcDbEntity
  8
0
100
AcDbCircle
 62
7
  6
CONTINUOUS
 10
57.6371035412
 20
-23.8755308258
 40
47.4819600393
100
AcDbArc
 50
183.388579685
 51
186.3067331527
  0
ARC
  5
30D
100
AcDbEntity
  8
0
100
AcDbCircle
 62
7
  6
CONTINUOUS
 10
58.9033926348
 20
-25.0619942584
 40
46.4790867346
100
AcDbArc
 50
183.5745432271
 51
186.5512473311
  0
ARC
  5
30E
100
AcDbEntity
  8
0
100
AcDbCircle
 62
7
  6
CONTINUOUS
 10
57.5914689145
 20
-37.0910267578
 40
46.2194818301
100
AcDbArc
 50
169.3904994194
 51
171.1357163968
  0
ARC
  5
30F
100
AcDbEntity
  8
0
100
AcDbCircle
 62
7
  6
CONTINUOUS
 10
56.9560796702
 20
-36.8775753147
 40
45.9976717866
100
AcDbArc
 50
169.9806810507
 51
170.18163265
  0
ARC
  5
310
100
AcDbEntity
  8
0
100
AcDbCircle
 62
7
  6
CONTINUOUS
 10
57.3522712288
 20
-36.9390934842
 40
45.8298072408
100
AcDbArc
 50
170.1108366951
 51
171.1617520701
  0
ARC
  5
311
100
AcDbEntity
  8
0
100
AcDbCircle
 62
7
  6
CONTINUOUS
 10
55.9175934772
 20
-36.6915852316
 40
44.9426648663
100
AcDbArc
 50
168.3943929746
 51
169.9838395444
  0
ARC
  5
312
100
AcDbEntity
  8
0
100
AcDbCircle
 62
7
  6
CONTINUOUS
 10
51.8158562624
 20
-36.6705693808
 40
44.0735985962
100
AcDbArc
 50
166.2650778238
 51
167.9673332642
  0
ARC
  5
313
100
AcDbEntity
  8
0
100
AcDbCircle
 62
7
  6
CONTINUOUS
 10
52.2251507166
 20
-36.8726608583
 40
44.0720617929
100
AcDbArc
 50
166.2685728604
 51
169.0381809215
  0
ARC
  5
314
100
AcDbEntity
  8
0
100
AcDbCircle
 62
7
  6
CONTINUOUS
 10
51.50511505
 20
-36.5981737262
 40
43.1865614734
100
AcDbArc
 50
166.2595747896
 51
169.0852251806
  0
ARC
  5
315
100
AcDbEntity
  8
0
100
AcDbCircle
 62
7
  6
CONTINUOUS
 10
50.730565627
 20
-36.4366745335
 40
42.9633931557
100
AcDbArc
 50
167.9706753849
 51
168.1925168276
  0
ARC
  5
316
100
AcDbEntity
  8
0
100
AcDbCircle
 62
7
  6
CONTINUOUS
 10
67.9702407373
 20
-8.0953802758
 40
62.7597493712
100
AcDbArc
 50
196.1456992723
 51
198.7674721525
  0
ARC
  5
317
100
AcDbEntity
  8
0
100
AcDbCircle
 62
7
  6
CONTINUOUS
 10
68.022299361
 20
-8.4137664305
 40
62.3843491969
100
AcDbArc
 50
196.1371979067
 51
197.9553394097
  0
ARC
  5
318
100
AcDbEntity
  8
0
100
AcDbCircle
 62
7
  6
CONTINUOUS
 10
67.9805296362
 20
-8.3801521142
 40
62.1976881847
100
AcDbArc
 50
196.1512103901
 51
197.7447829741
  0
ARC
  5
319
100
AcDbEntity
  8
0
100
AcDbCircle
 62
7
  6
CONTINUOUS
 10
68.6564478541
 20
-11.4679379095
 40
60.0024921862
100
AcDbArc
 50
197.3702463168
 51
197.7543502
  0
ARC
  5
31A
100
AcDbEntity
  8
0
100
AcDbCircle
 62
7
  6
CONTINUOUS
 10
68.2475830958
 20
-11.593758461
 40
59.5747104135
100
AcDbArc
 50
195.975188783
 51
197.3721525469
  0
ARC
  5
31B
100
AcDbEntity
  8
0
100
AcDbCircle
 62
7
  6
CONTINUOUS
 10
70.3225776852
 20
-11.3025685127
 40
59.3985159922
100
AcDbArc
 50
198.9779944571
 51
199.5202528932
  0
ARC
  5
31C
100
AcDbEntity
  8
0
100
AcDbCircle
 62
7
  6
CONTINUOUS
 10
66.2862534569
 20
-12.4488013608
 40
57.1151148193
100
AcDbArc
 50
195.0378768838
 51
196.8806196863
  0
ARC
  5
31D
100
AcDbEntity
  8
0
100
AcDbCircle
 62
7
  6
CONTINUOUS
 10
66.3050681391
 20
-12.3940138996
 40
56.9921859717
100
AcDbArc
 50
195.0543173891
 51
196.6160278913
  0
ARC
  5
31E
100
AcDbEntity
  8
0
100
AcDbCircle
 62
7
  6
CONTINUOUS
 10
68.0036492724
 20
-12.0883565428
 40
56.9500533953
100
AcDbArc
 50
198.2475700384
 51
198.4419892791
  0
ARC
  5
31F
100
AcDbEntity
  8
0
100
AcDbCircle
 62
7
  6
CONTINUOUS
 10
66.1633779966
 20
-12.6945961865
 40
55.0124970383
100
AcDbArc
 50
197.9471533008
 51
198.2480688406
  0
ARC
  5
320
100
AcDbEntity
  8
0
100
AcDbCircle
 62
7
  6
CONTINUOUS
 10
64.3302260187
 20
-13.2885039006
 40
53.0855376391
100
AcDbArc
 50
197.636376748
 51
197.9470000216
  0
ARC
  5
321
100
AcDbEntity
  8
0
100
AcDbCircle
 62
7
  6
CONTINUOUS
 10
62.6556883361
 20
70.2041638827
 40
112.2924903416
100
AcDbArc
 50
245.5937734175
 51
245.8656825416
  0
ARC
  5
322
100
AcDbEntity
  8
0
100
AcDbCircle
 62
7
  6
CONTINUOUS
 10
55.8833760204
 20
54.3067357454
 40
95.0194998141
100
AcDbArc
 50
244.539616071
 51
244.8207680665
  0
ARC
  5
323
100
AcDbEntity
  8
0
100
AcDbCircle
 62
7
  6
CONTINUOUS
 10
47.2831033842
 20
36.5418542802
 40
74.4993253731
100
AcDbArc
 50
244.6190289518
 51
244.8278796275
  0
ARC
  5
324
100
AcDbEntity
  8
RACCORDO
100
AcDbCircle
 62
253
  6
CONTINUOUS
 10
61.963157767
 20
22.8381484114
 40
71.6233982632
100
AcDbArc
 50
165.8008216203
 51
167.8065637562
  0
ARC
  5
325
100
AcDbEntity
  8
0
100
AcDbCircle
 62
7
  6
CONTINUOUS
 10
45.7002755105
 20
33.1439301353
 40
70.2464325513
100
AcDbArc
 50
244.483955308
 51
244.7933893798
  0
ARC
  5
326
100
AcDbEntity
  8
0
100
AcDbCircle
 62
7
  6
CONTINUOUS
 10
43.8551993093
 20
29.4600123639
 40
66.2526533702
100
AcDbArc
 50
244.4669720773
 51
244.9577653696
  0
ARC
  5
327
100
AcDbEntity
  8
0
100
AcDbCircle
 62
7
  6
CONTINUOUS
 10
41.1820506064
 20
23.5623328725
 40
59.6529770775
100
AcDbArc
 50
244.8004433588
 51
244.9812246706
  0
ARC
  5
328
100
AcDbEntity
  8
0
100
AcDbCircle
 62
7
  6
CONTINUOUS
 10
79.812173601
 20
104.364462068
 40
150.5025695189
100
AcDbArc
 50
244.2123927003
 51
244.3889865815
  0
ARC
  5
329
100
AcDbEntity
  8
RACCORDO
100
AcDbCircle
 62
253
  6
CONTINUOUS
 10
78.9261660627
 20
14.4469531971
 40
71.979110145
100
AcDbArc
 50
165.8045684501
 51
167.3264692569
  0
ARC
  5
32A
100
AcDbEntity
  8
0
100
AcDbCircle
 62
7
  6
CONTINUOUS
 10
79.4476698318
 20
-0.870537768
 40
69.9691249059
100
AcDbArc
 50
205.6486945792
 51
206.4849614848
  0
ARC
  5
32B
100
AcDbEntity
  8
0
100
AcDbCircle
 62
7
  6
CONTINUOUS
 10
79.1692596817
 20
-1.0454225221
 40
69.8020651156
100
AcDbArc
 50
205.4971780663
 51
206.5750751954
  0
ARC
  5
32C
100
AcDbEntity
  8
0
100
AcDbCircle
 62
7
  6
CONTINUOUS
 10
74.9489315324
 20
-3.0441899847
 40
65.4706634647
100
AcDbArc
 50
205.2193662619
 51
206.3013428921
  0
ARC
  5
32D
100
AcDbEntity
  8
RACCORDO
100
AcDbCircle
 62
253
  6
CONTINUOUS
 10
164.718261764
 20
279.39391295
 40
342.715066971
100
AcDbArc
 50
243.5550947157
 51
244.0175991432
  0
ARC
  5
32E
100
AcDbEntity
  8
0
100
AcDbCircle
 62
7
  6
CONTINUOUS
 10
120.7796379051
 20
188.7117103285
 40
243.8757219301
100
AcDbArc
 50
243.9598312366
 51
244.073479785
  0
ARC
  5
32F
100
AcDbEntity
  8
RACCORDO
100
AcDbCircle
 62
253
  6
CONTINUOUS
 10
1693.0441023093
 20
3436.5314555031
 40
3811.8233714982
100
AcDbArc
 50
243.3409958062
 51
243.4652117762
  0
ARC
  5
330
100
AcDbEntity
  8
RACCORDO
100
AcDbCircle
 62
253
  6
CONTINUOUS
 10
1713.019011973
 20
3425.9347007364
 40
3811.2783972639
100
AcDbArc
 50
243.4046813309
 51
243.5289132525
  0
SPLINE
  5
331
100
AcDbEntity
  8
0
100
AcDbSpline
 62
7
  6
CONTINUOUS
 70
0
 71
3
 72
8
 73
4
 74
2
 42
0.0000001
 43
0.0000001
 44
0.0000000001
 12
-0.083794673
 22
-0.0418016119
 32
0.0
 13
-0.0923254663
 23
-0.0156502481
 33
0.0
 40
0.0
 40
0.0
 40
0.0
 40
0.0
 40
1.0
 40
1.0
 40
1.0
 40
1.0
 10
16.313866044
 20
-31.0590656285
 30
0.0
 10
16.2859344863
 20
-31.0729994992
 30
0.0
 10
16.2554887882
 20
-31.0824979552
 30
0.0
 10
16.2247136328
 20
-31.0877147045
 30
0.0
 11
16.313866044
 21
-31.0590656285
 31
0.0
 11
16.2247136328
 21
-31.0877147045
 31
0.0
  0
SPLINE
  5
332
100
AcDbEntity
  8
0
100
AcDbSpline
 62
7
  6
CONTINUOUS
 70
0
 71
3
 72
8
 73
4
 74
2
 42
0.0000001
 43
0.0000001
 44
0.0000000001
 12
-0.0586391982
 22
-0.009940031
 32
0.0
 13
-0.0594728356
 23
-0.0005844691
 33
0.0
 40
0.0
 40
0.0
 40
0.0
 40
0.0
 40
1.0
 40
1.0
 40
1.0
 40
1.0
 10
16.2247136328
 20
-31.0877147045
 30
0.0
 10
16.2051672334
 20
-31.0910280482
 30
0.0
 10
16.1852871948
 20
-31.0926882828
 30
0.0
 10
16.1654629162
 20
-31.0928831058
 30
0.0
 11
16.2247136328
 21
-31.0877147045
 31
0.0
 11
16.1654629162
 21
-31.0928831058
 31
0.0
  0
SPLINE
  5
333
100
AcDbEntity
  8
0
100
AcDbSpline
 62
7
  6
CONTINUOUS
 70
0
 71
3
 72
8
 73
4
 74
2
 42
0.0000001
 43
0.0000001
 44
0.0000000001
 12
0.046004491
 22
0.0229435096
 32
0.0
 13
0.0318412978
 23
0.0403602475
 33
0.0
 40
0.0
 40
0.0
 40
0.0
 40
0.0
 40
1.0
 40
1.0
 40
1.0
 40
1.0
 10
15.9680627635
 20
-30.5751972589
 30
0.0
 10
15.9833975939
 20
-30.5675494224
 30
0.0
 10
15.9972286381
 20
-30.5560869215
 30
0.0
 10
16.007842404
 20
-30.5426335056
 30
0.0
 11
15.9680627635
 21
-30.5751972589
 31
0.0
 11
16.007842404
 21
-30.5426335056
 31
0.0
  0
SPLINE
  5
334
100
AcDbEntity
  8
0
100
AcDbSpline
 62
7
  6
CONTINUOUS
 70
0
 71
3
 72
9
 73
5
 74
3
 42
0.0000001
 43
0.0000001
 44
0.0000000001
 12
0.0805355695
 22
0.1020823817
 32
0.0
 13
-0.0024294895
 23
0.1300034161
 33
0.0
 40
0.0
 40
0.0
 40
0.0
 40
0.0
 40
0.2245680576
 40
1.0
 40
1.0
 40
1.0
 40
1.0
 10
16.007842404
 20
-30.5426335056
 30
0.0
 10
16.0138709761
 20
-30.5349920249
 30
0.0
 10
16.036841074
 20
-30.497829141
 30
0.0
 10
16.0430955797
 20
-30.4524953483
 30
0.0
 10
16.0424676118
 20
-30.4188924144
 30
0.0
 11
16.007842404
 21
-30.5426335056
 31
0.0
 11
16.0233446958
 21
-30.517888766
 31
0.0
 11
16.0424676118
 21
-30.4188924144
 31
0.0
  0
SPLINE
  5
335
100
AcDbEntity
  8
0
100
AcDbSpline
 62
7
  6
CONTINUOUS
 70
0
 71
3
 72
11
 73
7
 74
5
 42
0.0000001
 43
0.0000001
 44
0.0000000001
 12
-0.0101728428
 22
0.5443548097
 32
0.0
 13
-0.493332742
 23
0.2303224941
 33
0.0
 40
0.0
 40
0.0
 40
0.0
 40
0.0
 40
0.2337449138
 40
0.4971860515
 40
0.7621910884
 40
1.0
 40
1.0
 40
1.0
 40
1.0
 10
16.0424676118
 20
-30.4188924144
 30
0.0
 10
16.041674995
 20
-30.3764790251
 30
0.0
 10
16.0219795167
 20
-30.286628651
 30
0.0
 10
15.9590538495
 20
-30.1622332866
 30
0.0
 10
15.8695403223
 20
-30.0543755947
 30
0.0
 10
15.7943058092
 20
-29.9997891776
 30
0.0
 10
15.7551995017
 20
-29.9815315971
 30
0.0
 11
16.0424676118
 21
-30.4188924144
 31
0.0
 11
16.018436594
 21
-30.2939195185
 31
0.0
 11
15.9546834961
 21
-30.1654366487
 31
0.0
 11
15.8617810911
 21
-30.0550445048
 31
0.0
 11
15.7551995017
 21
-29.9815315971
 31
0.0
  0
SPLINE
  5
336
100
AcDbEntity
  8
0
100
AcDbSpline
 62
7
  6
CONTINUOUS
 70
0
 71
3
 72
11
 73
7
 74
5
 42
0.0000001
 43
0.0000001
 44
0.0000000001
 12
3.9396415166
 22
-1.9698207583
 32
0.0
 13
-0.0
 23
-4.4046531191
 33
0.0
 40
0.0
 40
0.0
 40
0.0
 40
0.0
 40
0.2296745775
 40
0.4882148598
 40
0.7532081049
 40
1.0
 40
1.0
 40
1.0
 40
1.0
 10
30.8478358772
 20
25.8774785289
 30
0.0
 10
31.1494477108
 20
25.7266726121
 30
0.0
 10
31.7257804249
 20
25.2757795959
 30
0.0
 10
32.3912940686
 20
24.380611481
 30
0.0
 10
32.8441073921
 20
23.3337891671
 30
0.0
 10
32.9691562208
 20
22.5810863758
 30
0.0
 10
32.9691562208
 20
22.2187421457
 30
0.0
 11
30.8478358772
 21
25.8774785289
 31
0.0
 11
31.6596235117
 21
25.2738147641
 31
0.0
 11
32.3478318426
 21
24.3665167006
 31
0.0
 11
32.8076777348
 21
23.2937141307
 31
0.0
 11
32.9691562208
 21
22.2187421457
 31
0.0
  0
SPLINE
  5
337
100
AcDbEntity
  8
0
100
AcDbSpline
 62
7
  6
CONTINUOUS
 70
0
 71
3
 72
11
 73
7
 74
5
 42
0.0000001
 43
0.0000001
 44
0.0000000001
 12
-1.3105347391
 22
0.6552673696
 32
0.0
 13
-1.2643242769
 23
-0.7405138425
 33
0.0
 40
0.0
 40
0.0
 40
0.0
 40
0.0
 40
0.2800913433
 40
0.5357406114
 40
0.772506692
 40
1.0
 40
1.0
 40
1.0
 40
1.0
 10
-21.4780659306
 20
52.0404294327
 30
0.0
 10
-21.600422409
 20
52.101607672
 30
0.0
 10
-21.8451689194
 20
52.1993249387
 30
0.0
 10
-22.2205041893
 20
52.2627776553
 30
0.0
 10
-22.5750302129
 20
52.231821533
 30
0.0
 10
-22.7893012981
 20
52.1462973465
 30
0.0
 10
-22.8851764021
 20
52.0901433653
 30
0.0
 11
-21.4780659306
 21
52.0404294327
 31
0.0
 11
-21.8605858398
 21
52.1891018313
 31
0.0
 11
-22.2305539721
 21
52.2477194662
 31
0.0
 11
-22.5758623682
 21
52.214371281
 31
0.0
 11
-22.8851764021
 21
52.0901433653
 31
0.0
  0
SPLINE
  5
338
100
AcDbEntity
  8
RACCORDO
100
AcDbSpline
 62
7
  6
CONTINUOUS
 70
0
 71
3
 72
8
 73
4
 74
2
 42
0.0000001
 43
0.0000001
 44
0.0000000001
 12
0.0
 22
-0.1911278044
 32
0.0
 13
-0.1153995924
 23
-0.1523573814
 33
0.0
 40
0.0
 40
0.0
 40
0.0
 40
0.0
 40
1.0
 40
1.0
 40
1.0
 40
1.0
 10
14.3843007711
 20
-23.3659959068
 30
0.0
 10
14.3843007711
 20
-23.4297051749
 30
0.0
 10
14.3618757266
 20
-23.496378691
 30
0.0
 10
14.3234091958
 20
-23.5471644848
 30
0.0
 11
14.3843007711
 21
-23.3659959068
 31
0.0
 11
14.3234091958
 21
-23.5471644848
 31
0.0
  0
SPLINE
  5
339
100
AcDbEntity
  8
RACCORDO
100
AcDbSpline
 62
7
  6
CONTINUOUS
 70
0
 71
3
 72
8
 73
4
 74
2
 42
0.0000001
 43
0.0000001
 44
0.0000000001
 12
-0.0747281284
 22
-0.0986605041
 32
0.0
 13
-0.1081853612
 23
-0.060117517
 33
0.0
 40
0.0
 40
0.0
 40
0.0
 40
0.0
 40
1.0
 40
1.0
 40
1.0
 40
1.0
 10
14.3234091958
 20
-23.5471644848
 30
0.0
 10
14.2984998197
 20
-23.5800513195
 30
0.0
 10
14.265988965
 20
-23.6082382003
 30
0.0
 10
14.2299271779
 20
-23.6282773726
 30
0.0
 11
14.3234091958
 21
-23.5471644848
 31
0.0
 11
14.2299271779
 21
-23.6282773726
 31
0.0
  0
SPLINE
  5
33A
100
AcDbEntity
  8
SUPERFICI
100
AcDbSpline
 62
7
  6
CONTINUOUS
 70
0
 71
3
 72
9
 73
5
 74
3
 42
0.0000001
 43
0.0000001
 44
0.0000000001
 12
-0.3904107632
 22
0.1952053816
 32
0.0
 13
-0.0
 23
0.4364925029
 33
0.0
 40
0.0
 40
0.0
 40
0.0
 40
0.0
 40
0.48777093
 40
1.0
 40
1.0
 40
1.0
 40
1.0
 10
-14.8312621874
 20
-9.2279367938
 30
0.0
 10
-14.8947391945
 20
-9.1961982902
 30
0.0
 10
-14.9971102658
 20
-9.080946261
 30
0.0
 10
-15.0433942218
 20
-8.936591205
 30
0.0
 10
-15.0433942218
 20
-8.8620631554
 30
0.0
 11
-14.8312621874
 21
-9.2279367938
 31
0.0
 11
-14.9812621864
 21
-9.0768409052
 31
0.0
 11
-15.0433942218
 21
-8.8620631554
 31
0.0
  0
SPLINE
  5
33B
100
AcDbEntity
  8
RACCORDO
100
AcDbSpline
 62
7
  6
CONTINUOUS
 70
0
 71
3
 72
8
 73
4
 74
2
 42
0.0000001
 43
0.0000001
 44
0.0000000001
 12
0.0
 22
-0.1911278044
 32
0.0
 13
-0.1153995924
 23
-0.1523573814
 33
0.0
 40
0.0
 40
0.0
 40
0.0
 40
0.0
 40
1.0
 40
1.0
 40
1.0
 40
1.0
 10
-1.5256018055
 20
-15.4110446184
 30
0.0
 10
-1.5256018055
 20
-15.4747538866
 30
0.0
 10
-1.5480268501
 20
-15.5414274027
 30
0.0
 10
-1.5864933809
 20
-15.5922131965
 30
0.0
 11
-1.5256018055
 21
-15.4110446184
 31
0.0
 11
-1.5864933809
 21
-15.5922131965
 31
0.0
  0
SPLINE
  5
33C
100
AcDbEntity
  8
RACCORDO
100
AcDbSpline
 62
7
  6
CONTINUOUS
 70
0
 71
3
 72
8
 73
4
 74
2
 42
0.0000001
 43
0.0000001
 44
0.0000000001
 12
-0.0747281284
 22
-0.0986605041
 32
0.0
 13
-0.1081853612
 23
-0.060117517
 33
0.0
 40
0.0
 40
0.0
 40
0.0
 40
0.0
 40
1.0
 40
1.0
 40
1.0
 40
1.0
 10
-1.5864933809
 20
-15.5922131965
 30
0.0
 10
-1.611402757
 20
-15.6251000312
 30
0.0
 10
-1.6439136117
 20
-15.6532869119
 30
0.0
 10
-1.6799753988
 20
-15.6733260842
 30
0.0
 11
-1.5864933809
 21
-15.5922131965
 31
0.0
 11
-1.6799753988
 21
-15.6733260842
 31
0.0
  0
SPLINE
  5
33D
100
AcDbEntity
  8
0
100
AcDbSpline
 62
7
  6
CONTINUOUS
 70
0
 71
3
 72
12
 73
8
 74
6
 42
0.0000001
 43
0.0000001
 44
0.0000000001
 12
0.7200348342
 22
-0.3604921061
 32
0.0
 13
0.0006560039
 23
-0.8052355498
 33
0.0
 40
0.0
 40
0.0
 40
0.0
 40
0.0
 40
0.0389914626
 40
0.1328721177
 40
0.4297453245
 40
0.7617392285
 40
1.0
 40
1.0
 40
1.0
 40
1.0
 10
14.2676675256
 20
13.0923043022
 30
0.0
 10
14.2770259294
 20
13.0876189307
 30
0.0
 10
14.3066260401
 20
13.0673802844
 30
0.0
 10
14.3932702618
 20
12.9909200693
 30
0.0
 10
14.5093877475
 20
12.8321715965
 30
0.0
 10
14.603433915
 20
12.6179558857
 30
0.0
 10
14.6340368592
 20
12.4655076706
 30
0.0
 10
14.6340889592
 20
12.4015556561
 30
0.0
 11
14.2676675256
 21
13.0923043022
 31
0.0
 11
14.2941562527
 21
13.0754478738
 31
0.0
 11
14.3514196045
 21
13.0260953283
 31
0.0
 11
14.4964289854
 21
12.8360464209
 31
0.0
 11
14.603009691
 21
12.5908777227
 31
0.0
 11
14.6340889592
 21
12.4015556561
 31
0.0
  0
SPLINE
  5
33E
100
AcDbEntity
  8
0
100
AcDbSpline
 62
7
  6
CONTINUOUS
 70
0
 71
3
 72
9
 73
5
 74
3
 42
0.0000001
 43
0.0000001
 44
0.0000000001
 12
-0.0000260622
 22
-0.0357028093
 32
0.0
 13
-0.0055256068
 23
-0.0352726373
 33
0.0
 40
0.0
 40
0.0
 40
0.0
 40
0.0
 40
0.3709093669
 40
1.0
 40
1.0
 40
1.0
 40
1.0
 10
14.6340889846
 20
-26.050494474
 30
0.0
 10
14.6340857624
 20
-26.0549086428
 30
0.0
 10
14.6338486845
 20
-26.066804331
 30
0.0
 10
14.6329840412
 20
-26.0787090066
 30
0.0
 10
14.6318253388
 20
-26.0861055686
 30
0.0
 11
14.6340889846
 21
-26.050494474
 31
0.0
 11
14.6338235571
 21
-26.0637343236
 31
0.0
 11
14.6318253388
 21
-26.0861055686
 31
0.0
  0
SPLINE
  5
33F
100
AcDbEntity
  8
0
100
AcDbSpline
 62
7
  6
CONTINUOUS
 70
0
 71
3
 72
11
 73
7
 74
5
 42
0.0000001
 43
0.0000001
 44
0.0000000001
 12
1.8096531323
 22
0.7597079181
 32
0.0
 13
-0.0
 23
1.9626514159
 33
0.0
 40
0.0
 40
0.0
 40
0.0
 40
0.0
 40
0.2173684266
 40
0.4495993643
 40
0.7090708524
 40
1.0
 40
1.0
 40
1.0
 40
1.0
 10
32.1217873222
 20
-43.5208439008
 30
0.0
 10
32.2529078069
 20
-43.4657983959
 30
0.0
 10
32.5039651732
 20
-43.2970938893
 30
0.0
 10
32.7751855634
 20
-42.9106999918
 30
0.0
 10
32.9372349831
 20
-42.4190761289
 30
0.0
 10
32.9691562208
 20
-42.0574685688
 30
0.0
 10
32.9691562208
 20
-41.8671377343
 30
0.0
 11
32.1217873222
 21
-43.5208439008
 31
0.0
 11
32.4771801957
 21
-43.2848371054
 31
0.0
 11
32.7455228636
 21
-42.9164144421
 31
0.0
 11
32.9124882223
 21
-42.435311279
 31
0.0
 11
32.9691562208
 21
-41.8671377343
 31
0.0
  0
LINE
  5
340
100
AcDbEntity
  8
0
100
AcDbLine
 62
7
  6
CONTINUOUS
 10
8.9572225928
 20
-28.4921461632
 11
8.5472977292
 21
-28.2869623185
  0
LINE
  5
341
100
AcDbEntity
  8
0
100
AcDbLine
 62
7
  6
CONTINUOUS
 10
10.2999234594
 20
-29.1627663138
 11
9.8892520724
 21
-28.95797058
  0
LINE
  5
342
100
AcDbEntity
  8
0
100
AcDbLine
 62
7
  6
CONTINUOUS
 10
11.1223433999
 20
-29.5718207158
 11
10.7109309868
 21
-29.3673894329
  0
LINE
  5
343
100
AcDbEntity
  8
0
100
AcDbLine
 62
7
  6
CONTINUOUS
 10
11.9240272405
 20
-29.9688591383
 11
11.5117153653
 21
-29.7648944142
  0
LINE
  5
344
100
AcDbEntity
  8
0
100
AcDbLine
 62
7
  6
CONTINUOUS
 10
12.7278047908
 20
-30.3648794117
 11
12.3143610668
 21
-30.1614637843
  0
LINE
  5
345
100
AcDbEntity
  8
0
100
AcDbLine
 62
7
  6
CONTINUOUS
 10
13.7179123507
 20
-30.4073319025
 11
13.4970933401
 21
-30.2993509489
  0
LINE
  5
346
100
AcDbEntity
  8
0
100
AcDbLine
 62
7
  6
CONTINUOUS
 10
13.4184161039
 20
-30.7031276595
 11
13.0038022183
 21
-30.500304041
  0
LINE
  5
347
100
AcDbEntity
  8
0
100
AcDbLine
 62
7
  6
CONTINUOUS
 10
13.7397881252
 20
-29.372094923
 11
13.7108831207
 21
-29.2808806765
  0
SPLINE
  5
348
100
AcDbEntity
  8
0
100
AcDbSpline
 62
7
  6
CONTINUOUS
 70
0
 71
3
 72
9
 73
5
 74
3
 42
0.0000001
 43
0.0000001
 44
0.0000000001
 12
-0.2310948466
 22
1.994368116
 32
0.0
 13
-0.1459062206
 23
2.0024036519
 33
0.0
 40
0.0
 40
0.0
 40
0.0
 40
0.0
 40
0.2480613966
 40
1.0
 40
1.0
 40
1.0
 40
1.0
 10
14.9885817122
 20
-31.0907308733
 30
0.0
 10
14.969473142
 20
-30.9258222932
 30
0.0
 10
14.8956328426
 20
-30.2606738126
 30
0.0
 10
14.8341980814
 20
-29.5940933497
 30
0.0
 10
14.7976272414
 20
-29.0921984812
 30
0.0
 11
14.9885817122
 21
-31.0907308733
 31
0.0
 11
14.9336026545
 21
-30.5957388549
 31
0.0
 11
14.7976272414
 21
-29.0921984812
 31
0.0
  0
LINE
  5
349
100
AcDbEntity
  8
0
100
AcDbLine
 62
7
  6
CONTINUOUS
 10
15.7187297165
 20
-30.9402643926
 11
15.5956377937
 21
-30.8825775342
  0
SPLINE
  5
34A
100
AcDbEntity
  8
RACCORDO
100
AcDbSpline
 62
7
  6
CONTINUOUS
 70
0
 71
3
 72
8
 73
4
 74
2
 42
0.0000001
 43
0.0000001
 44
0.0000000001
 12
0.0589870124
 22
0.0229584651
 32
0.0
 13
0.0632643724
 23
-0.0020440009
 33
0.0
 40
0.0
 40
0.0
 40
0.0
 40
0.0
 40
1.0
 40
1.0
 40
1.0
 40
1.0
 10
-5.7637981439
 20
-12.5651749699
 30
0.0
 10
-5.7441358064
 20
-12.5575221482
 30
0.0
 10
-5.7223452754
 20
-12.5547374588
 30
0.0
 10
-5.7012571513
 20
-12.5554187925
 30
0.0
 11
-5.7637981439
 21
-12.5651749699
 31
0.0
 11
-5.7012571513
 21
-12.5554187925
 31
0.0
  0
SPLINE
  5
34B
100
AcDbEntity
  8
RACCORDO
100
AcDbSpline
 62
7
  6
CONTINUOUS
 70
0
 71
3
 72
9
 73
5
 74
3
 42
0.0000001
 43
0.0000001
 44
0.0000000001
 12
0.0991180311
 22
-0.0032023923
 32
0.0
 13
0.0902586751
 23
-0.0410854107
 33
0.0
 40
0.0
 40
0.0
 40
0.0
 40
0.0
 40
0.2428355173
 40
1.0
 40
1.0
 40
1.0
 40
1.0
 10
-5.7012571513
 20
-12.5554187925
 30
0.0
 10
-5.6932340252
 20
-12.5556780107
 30
0.0
 10
-5.6602519937
 20
-12.5587584366
 30
0.0
 10
-5.6282876349
 20
-12.5693255999
 30
0.0
 10
-5.6055074139
 20
-12.5796950711
 30
0.0
 11
-5.7012571513
 21
-12.5554187925
 31
0.0
 11
-5.6772756191
 21
-12.5576155704
 31
0.0
 11
-5.6055074139
 21
-12.5796950711
 31
0.0
  0
SPLINE
  5
34C
100
AcDbEntity
  8
RACCORDO
100
AcDbSpline
 62
7
  6
CONTINUOUS
 70
0
 71
3
 72
8
 73
4
 74
2
 42
0.0000001
 43
0.0000001
 44
0.0000000001
 12
0.0589870124
 22
0.0229584651
 32
0.0
 13
0.0632643724
 23
-0.0020440009
 33
0.0
 40
0.0
 40
0.0
 40
0.0
 40
0.0
 40
1.0
 40
1.0
 40
1.0
 40
1.0
 10
10.1461044328
 20
-20.5201262583
 30
0.0
 10
10.1657667703
 20
-20.5124734366
 30
0.0
 10
10.1875573013
 20
-20.5096887472
 30
0.0
 10
10.2086454254
 20
-20.5103700808
 30
0.0
 11
10.1461044328
 21
-20.5201262583
 31
0.0
 11
10.2086454254
 21
-20.5103700808
 31
0.0
  0
SPLINE
  5
34D
100
AcDbEntity
  8
RACCORDO
100
AcDbSpline
 62
7
  6
CONTINUOUS
 70
0
 71
3
 72
9
 73
5
 74
3
 42
0.0000001
 43
0.0000001
 44
0.0000000001
 12
0.0991180311
 22
-0.0032023923
 32
0.0
 13
0.0902586751
 23
-0.0410854107
 33
0.0
 40
0.0
 40
0.0
 40
0.0
 40
0.0
 40
0.2428355173
 40
1.0
 40
1.0
 40
1.0
 40
1.0
 10
10.2086454254
 20
-20.5103700808
 30
0.0
 10
10.2166685515
 20
-20.510629299
 30
0.0
 10
10.249650583
 20
-20.513709725
 30
0.0
 10
10.2816149418
 20
-20.5242768882
 30
0.0
 10
10.3043951628
 20
-20.5346463595
 30
0.0
 11
10.2086454254
 21
-20.5103700808
 31
0.0
 11
10.2326269576
 21
-20.5125668588
 31
0.0
 11
10.3043951628
 21
-20.5346463595
 31
0.0
  0
SPLINE
  5
34E
100
AcDbEntity
  8
RACCORDO
100
AcDbSpline
 62
7
  6
CONTINUOUS
 70
0
 71
3
 72
9
 73
5
 74
3
 42
0.0000001
 43
0.0000001
 44
0.0000000001
 12
0.077628278
 22
0.0483657018
 32
0.0
 13
0.0364632626
 23
0.0838798017
 33
0.0
 40
0.0
 40
0.0
 40
0.0
 40
0.0
 40
0.7416646048
 40
1.0
 40
1.0
 40
1.0
 40
1.0
 10
-13.4415925508
 20
20.1626331422
 30
0.0
 10
-13.4224011688
 20
20.1745901853
 30
0.0
 10
-13.4008494408
 20
20.1982887627
 30
0.0
 10
-13.3870363353
 20
20.2254353681
 30
0.0
 10
-13.3838964182
 20
20.2326584087
 30
0.0
 11
-13.4415925508
 21
20.1626331422
 31
0.0
 11
-13.3946896172
 21
20.2116396217
 31
0.0
 11
-13.3838964182
 21
20.2326584087
 31
0.0
  0
SPLINE
  5
34F
100
AcDbEntity
  8
RACCORDO
100
AcDbSpline
 62
7
  6
CONTINUOUS
 70
0
 71
3
 72
9
 73
5
 74
3
 42
0.0000001
 43
0.0000001
 44
0.0000000001
 12
0.0381310821
 22
0.0877164406
 32
0.0
 13
0.0032926861
 23
0.095589286
 33
0.0
 40
0.0
 40
0.0
 40
0.0
 40
0.0
 40
0.2428926383
 40
1.0
 40
1.0
 40
1.0
 40
1.0
 10
-13.3838964182
 20
20.2326584087
 30
0.0
 10
-13.3808091651
 20
20.2397603012
 30
0.0
 10
-13.3698998136
 20
20.2697878437
 30
0.0
 10
-13.365589691
 20
20.3018986028
 30
0.0
 10
-13.3647587187
 20
20.3260223869
 30
0.0
 11
-13.3838964182
 21
20.2326584087
 31
0.0
 11
-13.3758988964
 21
20.2544701424
 31
0.0
 11
-13.3647587187
 21
20.3260223869
 31
0.0
  0
SPLINE
  5
350
100
AcDbEntity
  8
RACCORDO
100
AcDbSpline
 62
7
  6
CONTINUOUS
 70
0
 71
3
 72
9
 73
5
 74
3
 42
0.0000001
 43
0.0000001
 44
0.0000000001
 12
0.077628278
 22
0.0483657018
 32
0.0
 13
0.0364632626
 23
0.0838798017
 33
0.0
 40
0.0
 40
0.0
 40
0.0
 40
0.0
 40
0.7416646048
 40
1.0
 40
1.0
 40
1.0
 40
1.0
 10
-13.4415925508
 20
0.6770615571
 30
0.0
 10
-13.4224011688
 20
0.6890186001
 30
0.0
 10
-13.4008494408
 20
0.7127171776
 30
0.0
 10
-13.3870363353
 20
0.7398637829
 30
0.0
 10
-13.3838964182
 20
0.7470868235
 30
0.0
 11
-13.4415925508
 21
0.6770615571
 31
0.0
 11
-13.3946896172
 21
0.7260680365
 31
0.0
 11
-13.3838964182
 21
0.7470868235
 31
0.0
  0
SPLINE
  5
351
100
AcDbEntity
  8
RACCORDO
100
AcDbSpline
 62
7
  6
CONTINUOUS
 70
0
 71
3
 72
9
 73
5
 74
3
 42
0.0000001
 43
0.0000001
 44
0.0000000001
 12
0.0381310821
 22
0.0877164406
 32
0.0
 13
0.0032926861
 23
0.095589286
 33
0.0
 40
0.0
 40
0.0
 40
0.0
 40
0.0
 40
0.2428926383
 40
1.0
 40
1.0
 40
1.0
 40
1.0
 10
-13.3838964182
 20
0.7470868235
 30
0.0
 10
-13.3808091651
 20
0.7541887161
 30
0.0
 10
-13.3698998136
 20
0.7842162585
 30
0.0
 10
-13.365589691
 20
0.8163270177
 30
0.0
 10
-13.3647587187
 20
0.8404508017
 30
0.0
 11
-13.3838964182
 21
0.7470868235
 31
0.0
 11
-13.3758988964
 21
0.7688985573
 31
0.0
 11
-13.3647587187
 21
0.8404508017
 31
0.0
  0
LINE
  5
352
100
AcDbEntity
  8
0
100
AcDbLine
 62
7
  6
CONTINUOUS
 10
11.2688524317
 20
-27.1968589788
 11
10.6484408155
 21
-26.8870473982
  0
LINE
  5
353
100
AcDbEntity
  8
0
100
AcDbLine
 62
7
  6
CONTINUOUS
 10
7.6858826364
 20
-25.5476669311
 11
8.0959614079
 21
-25.7527699845
  0
LINE
  5
354
100
AcDbEntity
  8
0
100
AcDbLine
 62
7
  6
CONTINUOUS
 10
9.686161913
 20
-26.547927427
 11
10.0963901724
 21
-26.7529507867
  0
SPLINE
  5
355
100
AcDbEntity
  8
0
100
AcDbSpline
 62
7
  6
CONTINUOUS
 70
0
 71
3
 72
15
 73
11
 74
9
 42
0.0000001
 43
0.0000001
 44
0.0000000001
 12
1.6383129335
 22
0.8189512984
 32
0.0
 13
-1.6620598364
 23
0.7696152268
 33
0.0
 40
0.0
 40
0.0
 40
0.0
 40
0.0
 40
0.0857285086
 40
0.1826065115
 40
0.2983302022
 40
0.4320343509
 40
0.5777284941
 40
0.7268979703
 40
0.8703323184
 40
1.0
 40
1.0
 40
1.0
 40
1.0
 10
16.4565308285
 20
-30.9877515223
 30
0.0
 10
16.5033475366
 20
-30.9643490311
 30
0.0
 10
16.5897029109
 20
-30.8841684925
 30
0.0
 10
16.6479084626
 20
-30.7061344228
 30
0.0
 10
16.6449521988
 20
-30.492227749
 30
0.0
 10
16.5845663169
 20
-30.2568160789
 30
0.0
 10
16.472308086
 20
-30.0189612541
 30
0.0
 10
16.3176164288
 20
-29.7989411509
 30
0.0
 10
16.1338180166
 20
-29.6162564256
 30
0.0
 10
15.9923766301
 20
-29.5244091711
 30
0.0
 10
15.9205381482
 20
-29.4911444304
 30
0.0
 11
16.4565308285
 21
-30.9877515223
 31
0.0
 11
16.5732496456
 21
-30.8827179824
 31
0.0
 11
16.6352418081
 21
-30.7164577322
 31
0.0
 11
16.6373585479
 21
-30.5045090446
 31
0.0
 11
16.5794175433
 21
-30.2665698894
 31
0.0
 11
16.4666675221
 21
-30.0247063024
 31
0.0
 11
16.3093318248
 21
-29.8013370599
 31
0.0
 11
16.1216000399
 21
-29.6175560984
 31
0.0
 11
15.9205381482
 21
-29.4911444304
 31
0.0
  0
LINE
  5
356
100
AcDbEntity
  8
0
100
AcDbLine
 62
7
  6
CONTINUOUS
 10
10.5066684895
 20
-26.9579335613
 11
11.1270733831
 21
-27.2677485032
  0
SPLINE
  5
357
100
AcDbEntity
  8
0
100
AcDbSpline
 62
7
  6
CONTINUOUS
 70
0
 71
3
 72
8
 73
4
 74
2
 42
0.0000001
 43
0.0000001
 44
0.0000000001
 12
-0.0419195339
 22
0.0060826914
 32
0.0
 13
-0.0401130073
 23
0.0136085671
 33
0.0
 40
0.0
 40
0.0
 40
0.0
 40
0.0
 40
1.0
 40
1.0
 40
1.0
 40
1.0
 10
16.0246438378
 20
-30.5153738452
 30
0.0
 10
16.0106706598
 20
-30.5133462814
 30
0.0
 10
15.9968713104
 20
-30.509837477
 30
0.0
 10
15.983500308
 20
-30.505301288
 30
0.0
 11
16.0246438378
 21
-30.5153738452
 31
0.0
 11
15.983500308
 21
-30.505301288
 31
0.0
  0
SPLINE
  5
358
100
AcDbEntity
  8
0
100
AcDbSpline
 62
7
  6
CONTINUOUS
 70
0
 71
3
 72
8
 73
4
 74
2
 42
0.0000001
 43
0.0000001
 44
0.0000000001
 12
-0.0302267806
 22
0.0102546082
 32
0.0
 13
-0.0289241712
 23
0.0134984285
 33
0.0
 40
0.0
 40
0.0
 40
0.0
 40
0.0
 40
1.0
 40
1.0
 40
1.0
 40
1.0
 10
15.983500308
 20
-30.505301288
 30
0.0
 10
15.9734247144
 20
-30.5018830852
 30
0.0
 10
15.963539752
 20
-30.4978617515
 30
0.0
 10
15.9538983616
 20
-30.4933622754
 30
0.0
 11
15.983500308
 21
-30.505301288
 31
0.0
 11
15.9538983616
 21
-30.4933622754
 31
0.0
  0
LINE
  5
359
100
AcDbEntity
  8
0
100
AcDbLine
 62
7
  6
CONTINUOUS
 10
12.6565375811
 20
-27.8889258963
 11
12.0355480988
 21
-27.5794032487
  0
SPLINE
  5
35A
100
AcDbEntity
  8
RACCORDO
100
AcDbSpline
 62
253
  6
CONTINUOUS
 70
0
 71
3
 72
9
 73
5
 74
3
 42
0.0000001
 43
0.0000001
 44
0.0000000001
 12
0.1233906914
 22
0.0536679236
 32
0.0
 13
0.120351182
 23
-0.060175591
 33
0.0
 40
0.0
 40
0.0
 40
0.0
 40
0.0
 40
0.4701719408
 40
1.0
 40
1.0
 40
1.0
 40
1.0
 10
-14.2793156839
 20
6.1368299992
 30
0.0
 10
-14.2599774036
 20
6.1452410498
 30
0.0
 10
-14.2134679223
 20
6.1518239116
 30
0.0
 10
-14.1696637568
 20
6.1374317721
 30
0.0
 10
-14.1484086124
 20
6.1268041999
 30
0.0
 11
-14.2793156839
 21
6.1368299992
 31
0.0
 11
-14.216840539
 21
6.1467944351
 31
0.0
 11
-14.1484086124
 21
6.1268041999
 31
0.0
  0
LINE
  5
35B
100
AcDbEntity
  8
0
100
AcDbLine
 62
7
  6
CONTINUOUS
 10
10.238159576
 20
-26.6820660849
 11
9.8279293896
 21
-26.4770436887
  0
LINE
  5
35C
100
AcDbEntity
  8
0
100
AcDbLine
 62
7
  6
CONTINUOUS
 10
11.8937559021
 20
-27.6502993471
 11
12.5147296606
 21
-27.9598298565
  0
SPLINE
  5
35D
100
AcDbEntity
  8
RACCORDO
100
AcDbSpline
 62
253
  6
CONTINUOUS
 70
0
 71
3
 72
9
 73
5
 74
3
 42
0.0000001
 43
0.0000001
 44
0.0000000001
 12
0.2856585807
 22
-5.1037358745
 32
0.0
 13
0.8669311844
 23
-5.0376731755
 33
0.0
 40
0.0
 40
0.0
 40
0.0
 40
0.0
 40
0.2559079919
 40
1.0
 40
1.0
 40
1.0
 40
1.0
 10
-9.4254748757
 20
-16.7054979959
 30
0.0
 10
-9.4011074377
 20
-17.1408602621
 30
0.0
 10
-9.2829974677
 20
-18.8407022217
 30
0.0
 10
-9.0716704046
 20
-20.5344176635
 30
0.0
 10
-8.8566448827
 20
-21.7839151133
 30
0.0
 11
-9.4254748757
 21
-16.7054979959
 31
0.0
 11
-9.3345521823
 21
-18.0104653279
 31
0.0
 11
-8.8566448827
 21
-21.7839151133
 31
0.0
  0
LINE
  5
35E
100
AcDbEntity
  8
RACCORDO
100
AcDbLine
 62
253
  6
CONTINUOUS
 10
-8.7998785821
 20
-22.1060392365
 11
-8.7917923425
 21
-22.1507237718
  0
LINE
  5
35F
100
AcDbEntity
  8
RACCORDO
100
AcDbLine
 62
253
  6
CONTINUOUS
 10
-8.5477135858
 20
-23.3838593609
 11
-8.5419959404
 21
-23.4104455808
  0
SPLINE
  5
360
100
AcDbEntity
  8
RACCORDO
100
AcDbSpline
 62
253
  6
CONTINUOUS
 70
0
 71
3
 72
9
 73
5
 74
3
 42
0.0000001
 43
0.0000001
 44
0.0000000001
 12
0.8520452257
 22
-3.9550829444
 32
0.0
 13
1.2969988298
 23
-3.8322912466
 33
0.0
 40
0.0
 40
0.0
 40
0.0
 40
0.0
 40
0.2551499159
 40
1.0
 40
1.0
 40
1.0
 40
1.0
 10
-8.5419959404
 20
-23.4104455808
 30
0.0
 10
-8.4695295178
 20
-23.7468252743
 30
0.0
 10
-8.1678335332
 20
-25.061280264
 30
0.0
 10
-7.7940877947
 20
-26.3594716789
 30
0.0
 10
-7.4720645656
 20
-27.3109658313
 30
0.0
 11
-8.5419959404
 21
-23.4104455808
 31
0.0
 11
-8.310883562
 21
-24.4165326517
 31
0.0
 11
-7.4720645656
 21
-27.3109658313
 31
0.0
  0
SPLINE
  5
361
100
AcDbEntity
  8
RACCORDO
100
AcDbSpline
 62
253
  6
CONTINUOUS
 70
0
 71
3
 72
9
 73
5
 74
3
 42
0.0000001
 43
0.0000001
 44
0.0000000001
 12
6.5201130605
 22
-6.8419926962
 32
0.0
 13
8.2056838505
 23
-4.6895086012
 33
0.0
 40
0.0
 40
0.0
 40
0.0
 40
0.0
 40
0.4756008697
 40
1.0
 40
1.0
 40
1.0
 40
1.0
 10
-26.8093145405
 20
16.2165776832
 30
0.0
 10
-25.7756573931
 20
15.1318917909
 30
0.0
 10
-23.3907076375
 20
13.0496446262
 30
0.0
 10
-20.7399480761
 20
11.3304355098
 30
0.0
 10
-19.3055969179
 20
10.5107107658
 30
0.0
 11
-26.8093145405
 21
16.2165776832
 31
0.0
 11
-23.4469638725
 21
13.2333724883
 31
0.0
 11
-19.3055969179
 21
10.5107107658
 31
0.0
  0
SPLINE
  5
362
100
AcDbEntity
  8
0
100
AcDbSpline
 62
7
  6
CONTINUOUS
 70
0
 71
3
 72
9
 73
5
 74
3
 42
0.0000001
 43
0.0000001
 44
0.0000000001
 12
0.8194863537
 22
-2.7462547328
 32
0.0
 13
0.9649009078
 23
-2.6985994848
 33
0.0
 40
0.0
 40
0.0
 40
0.0
 40
0.0
 40
0.2514255832
 40
1.0
 40
1.0
 40
1.0
 40
1.0
 10
13.8602579251
 20
-28.6290450952
 30
0.0
 10
13.9289378699
 20
-28.8592046612
 30
0.0
 10
14.2091324296
 20
-29.7725206052
 30
0.0
 10
14.5153029299
 20
-30.677780316
 30
0.0
 10
14.7560696414
 20
-31.3511478278
 30
0.0
 11
13.8602579251
 21
-28.6290450952
 31
0.0
 11
14.0714760956
 21
-29.3179573756
 31
0.0
 11
14.7560696414
 21
-31.3511478278
 31
0.0
  0
LINE
  5
363
100
AcDbEntity
  8
0
100
AcDbLine
 62
7
  6
CONTINUOUS
 10
13.4487040088
 20
-28.4246647649
 11
13.8602579251
 21
-28.6290450952
  0
LINE
  5
364
100
AcDbEntity
  8
0
100
AcDbLine
 62
7
  6
CONTINUOUS
 10
9.5544762528
 20
-26.3403476212
 11
9.144326519
 21
-26.1352800489
  0
LINE
  5
365
100
AcDbEntity
  8
0
100
AcDbLine
 62
7
  6
CONTINUOUS
 10
13.576740773
 20
-29.9074309283
 11
13.9782981546
 21
-30.1041834273
  0
SPLINE
  5
366
100
AcDbEntity
  8
0
100
AcDbSpline
 62
7
  6
CONTINUOUS
 70
0
 71
3
 72
15
 73
11
 74
9
 42
0.0000001
 43
0.0000001
 44
0.0000000001
 12
1.6620596536
 22
-0.7697870015
 32
0.0
 13
-1.6390435627
 23
-0.8176493864
 33
0.0
 40
0.0
 40
0.0
 40
0.0
 40
0.0
 40
0.1294925662
 40
0.272745224
 40
0.4217871219
 40
0.5674505874
 40
0.7012417008
 40
0.817127611
 40
0.914156717
 40
1.0
 40
1.0
 40
1.0
 40
1.0
 10
15.778502746
 20
-29.5621621314
 30
0.0
 10
15.8502442026
 20
-29.5953893629
 30
0.0
 10
15.9915043363
 20
-29.687121159
 30
0.0
 10
16.175099195
 20
-29.869603
 30
0.0
 10
16.3296867719
 20
-30.0894537219
 30
0.0
 10
16.4419432828
 20
-30.3272712054
 30
0.0
 10
16.5024096773
 20
-30.5628080009
 30
0.0
 10
16.5054093976
 20
-30.7769750514
 30
0.0
 10
16.4471979706
 20
-30.9552702927
 30
0.0
 10
16.3607663375
 20
-31.0356690593
 30
0.0
 10
16.313866044
 20
-31.0590656285
 30
0.0
 11
15.778502746
 21
-29.5621621314
 31
0.0
 11
15.9792969449
 21
-29.6884144945
 31
0.0
 11
16.1668008213
 21
-29.8719672993
 31
0.0
 11
16.3240204367
 21
-30.0951456149
 31
0.0
 11
16.4367753685
 21
-30.336956491
 31
0.0
 11
16.4948032715
 21
-30.5750483365
 31
0.0
 11
16.4927370666
 21
-30.7873030039
 31
0.0
 11
16.430717322
 21
-30.9538557828
 31
0.0
 11
16.313866044
 21
-31.0590656285
 31
0.0
  0
SPLINE
  5
367
100
AcDbEntity
  8
0
100
AcDbSpline
 62
7
  6
CONTINUOUS
 70
0
 71
3
 72
9
 73
5
 74
3
 42
0.0000001
 43
0.0000001
 44
0.0000000001
 12
0.9761813019
 22
-0.4796729338
 32
0.0
 13
0.9869490602
 23
-0.4571078758
 33
0.0
 40
0.0
 40
0.0
 40
0.0
 40
0.0
 40
0.2483143162
 40
1.0
 40
1.0
 40
1.0
 40
1.0
 10
14.7976272414
 20
-29.0921984812
 30
0.0
 10
14.8784271723
 20
-29.1319017001
 30
0.0
 10
15.2037623619
 20
-29.2919098741
 30
0.0
 10
15.5312108064
 20
-29.4476300069
 30
0.0
 10
15.7785026328
 20
-29.5621638223
 30
0.0
 11
14.7976272414
 21
-29.0921984812
 31
0.0
 11
15.0401282458
 21
-29.2111019401
 31
0.0
 11
15.7785026328
 21
-29.5621638223
 31
0.0
  0
LINE
  5
368
100
AcDbEntity
  8
0
100
AcDbLine
 62
253
  6
CONTINUOUS
 10
-9.2914240982
 20
-13.8472833608
 11
-16.6806878538
 21
-10.1526496269
  0
LINE
  5
369
100
AcDbEntity
  8
0
100
AcDbLine
 62
7
  6
CONTINUOUS
 10
8.2377276425
 20
-25.6818868672
 11
7.8276492862
 21
-25.4767836061
  0
SPLINE
  5
36A
100
AcDbEntity
  8
RACCORDO
100
AcDbSpline
 62
253
  6
CONTINUOUS
 70
0
 71
3
 72
9
 73
5
 74
3
 42
0.0000001
 43
0.0000001
 44
0.0000000001
 12
0.5667930181
 22
10.6934338952
 32
0.0
 13
2.3337624987
 23
10.4510447036
 33
0.0
 40
0.0
 40
0.0
 40
0.0
 40
0.0
 40
0.2436307961
 40
1.0
 40
1.0
 40
1.0
 40
1.0
 10
7.1915344822
 20
19.5395184847
 30
0.0
 10
7.2375638936
 20
20.4079350892
 30
0.0
 10
7.508055698
 20
23.9678570365
 30
0.0
 10
8.0895733896
 20
27.5022075994
 30
0.0
 10
8.6779687506
 20
30.1371570534
 30
0.0
 11
7.1915344822
 21
19.5395184847
 31
0.0
 11
7.3878254026
 21
22.1410305114
 31
0.0
 11
8.6779687506
 21
30.1371570534
 31
0.0
  0
LINE
  5
36B
100
AcDbEntity
  8
RACCORDO
100
AcDbLine
 62
253
  6
CONTINUOUS
 10
8.6779687506
 20
30.1371570534
 11
8.7007547095
 21
30.2388466091
  0
SPLINE
  5
36C
100
AcDbEntity
  8
RACCORDO
100
AcDbSpline
 62
253
  6
CONTINUOUS
 70
0
 71
3
 72
11
 73
7
 74
5
 42
0.0000001
 43
0.0000001
 44
0.0000000001
 12
-0.0147454744
 22
-0.3718782036
 32
0.0
 13
0.3120417302
 23
-0.2028319156
 33
0.0
 40
0.0
 40
0.0
 40
0.0
 40
0.0
 40
0.2098728891
 40
0.4390030336
 40
0.7008286763
 40
1.0
 40
1.0
 40
1.0
 40
1.0
 10
-26.8135421444
 20
48.565552262
 30
0.0
 10
-26.8145737028
 20
48.5395365444
 30
0.0
 10
-26.8064711877
 20
48.4843445208
 30
0.0
 10
-26.7659001004
 20
48.4060892621
 30
0.0
 10
-26.6996176936
 20
48.3328227379
 30
0.0
 10
-26.6437805272
 20
48.2906775761
 30
0.0
 10
-26.612662548
 20
48.2704504119
 30
0.0
 11
-26.8135421444
 21
48.565552262
 31
0.0
 11
-26.8028701141
 21
48.4881762782
 31
0.0
 11
-26.7650127252
 21
48.4117647421
 31
0.0
 11
-26.7008389253
 21
48.3384366434
 31
0.0
 11
-26.612662548
 21
48.2704504119
 31
0.0
  0
SPLINE
  5
36D
100
AcDbEntity
  8
0
100
AcDbSpline
 62
7
  6
CONTINUOUS
 70
0
 71
3
 72
9
 73
5
 74
3
 42
0.0000001
 43
0.0000001
 44
0.0000000001
 12
0.1459355315
 22
-0.0681325472
 32
0.0
 13
0.1441269183
 23
0.071879446
 33
0.0
 40
0.0
 40
0.0
 40
0.0
 40
0.0
 40
0.5469751944
 40
1.0
 40
1.0
 40
1.0
 40
1.0
 10
15.8113641562
 20
-30.564629378
 30
0.0
 10
15.8379718615
 20
-30.5770516491
 30
0.0
 10
15.8901893321
 20
-30.5940174761
 30
0.0
 10
15.9462984071
 20
-30.5860516496
 30
0.0
 10
15.9680627635
 20
-30.5751972589
 30
0.0
 11
15.8113641562
 21
-30.564629378
 31
0.0
 11
15.8962594812
 21
-30.5881523236
 31
0.0
 11
15.9680627635
 21
-30.5751972589
 31
0.0
  0
SPLINE
  5
36E
100
AcDbEntity
  8
RACCORDO
100
AcDbSpline
 62
253
  6
CONTINUOUS
 70
0
 71
3
 72
9
 73
5
 74
3
 42
0.0000001
 43
0.0000001
 44
0.0000000001
 12
-0.0000234299
 22
-0.2404761924
 32
0.0
 13
0.1658976958
 23
-0.1740883517
 33
0.0
 40
0.0
 40
0.0
 40
0.0
 40
0.0
 40
0.469992402
 40
1.0
 40
1.0
 40
1.0
 40
1.0
 10
-26.9065456834
 20
16.4316504156
 30
0.0
 10
-26.906549354
 20
16.3939764211
 30
0.0
 10
-26.8871701051
 20
16.3132182583
 30
0.0
 10
-26.8386235529
 20
16.2473337331
 30
0.0
 10
-26.8093145398
 20
16.2165776834
 30
0.0
 11
-26.9065456834
 21
16.4316504156
 31
0.0
 11
-26.8818903056
 21
16.3213504556
 31
0.0
 11
-26.8093145398
 21
16.2165776834
 31
0.0
  0
LINE
  5
36F
100
AcDbEntity
  8
0
100
AcDbLine
 62
253
  6
CONTINUOUS
 10
14.6340904412
 20
-25.8100390235
 11
7.3256490905
 21
-22.1558199773
  0
SPLINE
  5
370
100
AcDbEntity
  8
RACCORDO
100
AcDbSpline
 62
253
  6
CONTINUOUS
 70
0
 71
3
 72
9
 73
5
 74
3
 42
0.0000001
 43
0.0000001
 44
0.0000000001
 12
0.0163722324
 22
-0.3729667656
 32
0.0
 13
0.3088522388
 23
-0.2097201775
 33
0.0
 40
0.0
 40
0.0
 40
0.0
 40
0.0
 40
0.4559856381
 40
1.0
 40
1.0
 40
1.0
 40
1.0
 10
-26.8134529679
 20
-15.6022036594
 30
0.0
 10
-26.8109644669
 20
-15.6588928223
 30
0.0
 10
-26.7645531574
 20
-15.7821711634
 30
0.0
 10
-26.6686716295
 20
-15.8667415764
 30
0.0
 10
-26.6126649449
 20
-15.9047718393
 30
0.0
 11
-26.8134529679
 21
-15.6022036594
 31
0.0
 11
-26.7583526944
 21
-15.7632708636
 31
0.0
 11
-26.6126649449
 21
-15.9047718393
 31
0.0
  0
SPLINE
  5
371
100
AcDbEntity
  8
RACCORDO
100
AcDbSpline
 62
253
  6
CONTINUOUS
 70
0
 71
3
 72
9
 73
5
 74
3
 42
0.0000001
 43
0.0000001
 44
0.0000000001
 12
0.1626409786
 22
0.0902236002
 32
0.0
 13
0.0
 23
0.1859902846
 33
0.0
 40
0.0
 40
0.0
 40
0.0
 40
0.0
 40
0.4563368741
 40
1.0
 40
1.0
 40
1.0
 40
1.0
 10
14.2299411154
 20
-23.6282675018
 30
0.0
 10
14.2546808073
 20
-23.6145433832
 30
0.0
 10
14.2977536071
 20
-23.5636126991
 30
0.0
 10
14.3072442188
 20
-23.5000708509
 30
0.0
 10
14.3072442188
 20
-23.4663654977
 30
0.0
 11
14.2299411154
 21
-23.6282675018
 31
0.0
 11
14.2869989539
 21
-23.5654340939
 31
0.0
 11
14.3072442188
 21
-23.4663654977
 31
0.0
  0
SPLINE
  5
372
100
AcDbEntity
  8
0
100
AcDbSpline
 62
253
  6
CONTINUOUS
 70
0
 71
3
 72
9
 73
5
 74
3
 42
0.0000001
 43
0.0000001
 44
0.0000000001
 12
-0.3904107632
 22
0.1952053816
 32
0.0
 13
0.0
 23
0.4364925029
 33
0.0
 40
0.0
 40
0.0
 40
0.0
 40
0.0
 40
0.4877709347
 40
1.0
 40
1.0
 40
1.0
 40
1.0
 10
-16.6806908144
 20
-10.1526511072
 30
0.0
 10
-16.744167822
 20
-10.1209126034
 30
0.0
 10
-16.8465388931
 20
-10.0056605737
 30
0.0
 10
-16.8928228487
 20
-9.8613055178
 30
0.0
 10
-16.8928228487
 20
-9.7867774689
 30
0.0
 11
-16.6806908144
 21
-10.1526511072
 31
0.0
 11
-16.8306908143
 21
-10.0015552168
 31
0.0
 11
-16.8928228487
 21
-9.7867774689
 31
0.0
  0
SPLINE
  5
373
100
AcDbEntity
  8
RACCORDO
100
AcDbSpline
 62
253
  6
CONTINUOUS
 70
0
 71
3
 72
9
 73
5
 74
3
 42
0.0000001
 43
0.0000001
 44
0.0000000001
 12
0.2852114275
 22
-5.0957468146
 32
0.0
 13
0.8645896989
 23
-5.0299568397
 33
0.0
 40
0.0
 40
0.0
 40
0.0
 40
0.0
 40
0.2558982455
 40
1.0
 40
1.0
 40
1.0
 40
1.0
 10
7.1915344813
 20
-25.0140026589
 30
0.0
 10
7.2158628493
 20
-25.4486668821
 30
0.0
 10
7.3337505896
 20
-27.1458506059
 30
0.0
 10
7.5445595828
 20
-28.8369279714
 30
0.0
 10
7.7590071534
 20
-30.0845278745
 30
0.0
 11
7.1915344813
 21
-25.0140026589
 31
0.0
 11
7.2822822283
 21
-26.3168796884
 31
0.0
 11
7.7590071534
 21
-30.0845278745
 31
0.0
  0
LINE
  5
374
100
AcDbEntity
  8
RACCORDO
100
AcDbLine
 62
253
  6
CONTINUOUS
 10
7.7590071534
 20
-30.0845278745
 11
7.7603642306
 21
-30.0924183708
  0
LINE
  5
375
100
AcDbEntity
  8
RACCORDO
100
AcDbLine
 62
253
  6
CONTINUOUS
 10
7.7603642306
 20
-30.0924183708
 11
7.7769224109
 21
-30.187958385
  0
LINE
  5
376
100
AcDbEntity
  8
RACCORDO
100
AcDbLine
 62
253
  6
CONTINUOUS
 10
8.1048345194
 20
-31.8561561649
 11
8.1123916067
 21
-31.89054584
  0
SPLINE
  5
377
100
AcDbEntity
  8
RACCORDO
100
AcDbSpline
 62
253
  6
CONTINUOUS
 70
0
 71
3
 72
9
 73
5
 74
3
 42
0.0000001
 43
0.0000001
 44
0.0000000001
 12
0.8324194154
 22
-3.7797398829
 32
0.0
 13
1.2407364985
 23
-3.6660508189
 33
0.0
 40
0.0
 40
0.0
 40
0.0
 40
0.0
 40
0.2549328698
 40
1.0
 40
1.0
 40
1.0
 40
1.0
 10
8.1123916067
 20
-31.89054584
 30
0.0
 10
8.1831286302
 20
-32.2117391518
 30
0.0
 10
8.4768643195
 20
-33.4679863276
 30
0.0
 10
8.8368007984
 20
-34.7089858564
 30
0.0
 10
9.1449447924
 20
-35.6194705107
 30
0.0
 11
8.1123916067
 21
-31.89054584
 31
0.0
 11
8.3371968348
 21
-32.8512655909
 31
0.0
 11
9.1449447924
 21
-35.6194705107
 31
0.0
  0
SPLINE
  5
378
100
AcDbEntity
  8
RACCORDO
100
AcDbSpline
 62
253
  6
CONTINUOUS
 70
0
 71
3
 72
9
 73
5
 74
3
 42
0.0000001
 43
0.0000001
 44
0.0000000001
 12
-0.4483198174
 22
0.2418063775
 32
0.0
 13
-0.0629503718
 23
0.5054683309
 33
0.0
 40
0.0
 40
0.0
 40
0.0
 40
0.0
 40
0.4637940064
 40
1.0
 40
1.0
 40
1.0
 40
1.0
 10
-25.0253815252
 20
-18.5949301075
 30
0.0
 10
-25.0946908733
 20
-18.5575473247
 30
0.0
 10
-25.2196437471
 20
-18.4284093572
 30
0.0
 10
-25.2664220579
 20
-18.2596592616
 30
0.0
 10
-25.2776735135
 20
-18.1693142121
 30
0.0
 11
-25.0253815252
 21
-18.5949301075
 31
0.0
 11
-25.1937799312
 21
-18.4292397319
 31
0.0
 11
-25.2776735135
 21
-18.1693142121
 31
0.0
  0
SPLINE
  5
379
100
AcDbEntity
  8
RACCORDO
100
AcDbSpline
 62
253
  6
CONTINUOUS
 70
0
 71
3
 72
13
 73
9
 74
7
 42
0.0000001
 43
0.0000001
 44
0.0000000001
 12
-0.5402614052
 22
-1.1310482906
 32
0.0
 13
1.1211195632
 23
-0.5605743008
 33
0.0
 40
0.0
 40
0.0
 40
0.0
 40
0.0
 40
0.3003869799
 40
0.5731207715
 40
0.6945673298
 40
0.8046479251
 40
0.90512317
 40
1.0
 40
1.0
 40
1.0
 40
1.0
 10
-17.2401871392
 20
29.9312396953
 30
0.0
 10
-17.2942829698
 20
29.8179889686
 30
0.0
 10
-17.3797522464
 20
29.5917956513
 30
0.0
 10
-17.4021038021
 20
29.2968839846
 30
0.0
 10
-17.3622641452
 20
29.0888661411
 30
0.0
 10
-17.3085572837
 20
28.9596535478
 30
0.0
 10
-17.2308852619
 20
28.8564400597
 30
0.0
 10
-17.1633700755
 20
28.8078396799
 30
0.0
 10
-17.1279139854
 20
28.7901111756
 30
0.0
 11
-17.2401871392
 21
29.9312396953
 31
0.0
 11
-17.3654636535
 21
29.5761698868
 31
0.0
 11
-17.3859908676
 21
29.2349268476
 31
0.0
 11
-17.356093972
 21
29.0856635755
 31
0.0
 11
-17.3016779538
 21
28.9588656577
 31
0.0
 11
-17.2247431194
 21
28.8591548319
 31
0.0
 11
-17.1279139854
 21
28.7901111756
 31
0.0
  0
SPLINE
  5
37A
100
AcDbEntity
  8
RACCORDO
100
AcDbSpline
 62
253
  6
CONTINUOUS
 70
0
 71
3
 72
13
 73
9
 74
7
 42
0.0000001
 43
0.0000001
 44
0.0000000001
 12
0.4162408067
 22
-1.6184579385
 32
0.0
 13
1.5956081558
 23
0.4966861392
 33
0.0
 40
0.0
 40
0.0
 40
0.0
 40
0.0
 40
0.1739183899
 40
0.2895025922
 40
0.4214871144
 40
0.5652601185
 40
0.7142203867
 40
1.0
 40
1.0
 40
1.0
 40
1.0
 10
-18.5917655376
 20
28.9528820705
 30
0.0
 10
-18.567634894
 20
28.8590555376
 30
0.0
 10
-18.4402471832
 20
28.7327821203
 30
0.0
 10
-18.2331589043
 20
28.6271404655
 30
0.0
 10
-18.023127468
 20
28.5624812789
 30
0.0
 10
-17.789446602
 20
28.5226764998
 30
0.0
 10
-17.4668458994
 20
28.5117740505
 30
0.0
 10
-17.2232854411
 20
28.546634608
 30
0.0
 10
-17.0712880139
 20
28.5939488655
 30
0.0
 11
-18.5917655376
 21
28.9528820705
 31
0.0
 11
-18.4092184071
 21
28.7267230528
 31
0.0
 11
-18.2387686092
 21
28.6358604008
 31
0.0
 11
-18.0286010473
 21
28.5689460005
 31
0.0
 11
-17.7917756285
 21
28.5284497685
 31
0.0
 11
-17.5430085278
 21
28.5194071427
 31
0.0
 11
-17.0712880139
 21
28.5939488655
 31
0.0
  0
SPLINE
  5
37B
100
AcDbEntity
  8
RACCORDO
100
AcDbSpline
 62
253
  6
CONTINUOUS
 70
0
 71
3
 72
9
 73
5
 74
3
 42
0.0000001
 43
0.0000001
 44
0.0000000001
 12
0.1009049822
 22
0.0314100338
 32
0.0
 13
0.0980149625
 23
0.0395154753
 33
0.0
 40
0.0
 40
0.0
 40
0.0
 40
0.0
 40
0.2554862198
 40
1.0
 40
1.0
 40
1.0
 40
1.0
 10
-17.0712880139
 20
28.5939488655
 30
0.0
 10
-17.0626947364
 20
28.5966238091
 30
0.0
 10
-17.0291614753
 20
28.6074162343
 30
0.0
 10
-16.996043787
 20
28.6195126022
 30
0.0
 10
-16.9717192903
 20
28.6293192075
 30
0.0
 11
-17.0712880139
 21
28.5939488655
 31
0.0
 11
-17.0455872899
 21
28.6022235535
 31
0.0
 11
-16.9717192903
 21
28.6293192075
 31
0.0
  0
SPLINE
  5
37C
100
AcDbEntity
  8
RACCORDO
100
AcDbSpline
 62
253
  6
CONTINUOUS
 70
0
 71
3
 72
14
 73
10
 74
8
 42
0.0000001
 43
0.0000001
 44
0.0000000001
 12
0.4885227611
 22
-1.7960212696
 32
0.0
 13
1.6651426854
 23
0.8316530085
 33
0.0
 40
0.0
 40
0.0
 40
0.0
 40
0.0
 40
0.1793202143
 40
0.2999043313
 40
0.4369650288
 40
0.5837214282
 40
0.7319193314
 40
0.8731950607
 40
1.0
 40
1.0
 40
1.0
 40
1.0
 10
-18.5908067053
 20
9.7251599922
 30
0.0
 10
-18.5616060365
 20
9.6178056859
 30
0.0
 10
-18.4061208849
 20
9.4774235835
 30
0.0
 10
-18.1600795864
 20
9.371371791
 30
0.0
 10
-17.914172424
 20
9.3111505514
 30
0.0
 10
-17.6467092202
 20
9.2869461266
 30
0.0
 10
-17.3753620718
 20
9.2989121441
 30
0.0
 10
-17.1207211044
 20
9.3466598411
 30
0.0
 10
-16.9632045166
 20
9.4037432447
 30
0.0
 10
-16.8928217442
 20
9.4388958145
 30
0.0
 11
-18.5908067053
 21
9.7251599922
 31
0.0
 11
-18.3708851064
 21
9.4740960052
 31
0.0
 11
-18.1668169123
 21
9.3806636256
 31
0.0
 11
-17.9193381532
 21
9.3187425528
 31
0.0
 11
-17.6473883466
 21
9.2931209096
 31
0.0
 11
-17.3718392439
 21
9.3057233341
 31
0.0
 11
-17.1136661865
 21
9.3556331426
 31
0.0
 11
-16.8928217442
 21
9.4388958145
 31
0.0
  0
SPLINE
  5
37D
100
AcDbEntity
  8
RACCORDO
100
AcDbSpline
 62
253
  6
CONTINUOUS
 70
0
 71
3
 72
15
 73
11
 74
9
 42
0.0000001
 43
0.0000001
 44
0.0000000001
 12
0.4665562617
 22
-1.814777387
 32
0.0
 13
1.6761864328
 23
0.8375504476
 33
0.0
 40
0.0
 40
0.0
 40
0.0
 40
0.0
 40
0.0827478469
 40
0.1826114764
 40
0.3025759655
 40
0.438891008
 40
0.5850068513
 40
0.73272425
 40
0.8735891502
 40
1.0
 40
1.0
 40
1.0
 40
1.0
 10
-18.5917655073
 20
-9.4952997982
 30
0.0
 10
-18.5788966653
 20
-9.5453561053
 30
0.0
 10
-18.5196064753
 20
-9.6482759779
 30
0.0
 10
-18.36746574
 20
-9.7648401243
 30
0.0
 10
-18.163275789
 20
-9.8565683204
 30
0.0
 10
-17.9177510445
 20
-9.91585201
 30
0.0
 10
-17.6492724229
 20
-9.9388055224
 30
0.0
 10
-17.3771509835
 20
-9.9274447536
 30
0.0
 10
-17.1215667009
 20
-9.8793804805
 30
0.0
 10
-16.9634522194
 20
-9.8221605299
 30
0.0
 10
-16.8928228356
 20
-9.7868687086
 30
0.0
 11
-18.5917655073
 21
-9.4952997982
 31
0.0
 11
-18.5184841164
 21
-9.6319416898
 31
0.0
 11
-18.374373675
 21
-9.7513041681
 31
0.0
 11
-18.1705824497
 21
-9.8461668996
 31
0.0
 11
-17.9228102726
 21
-9.9082259029
 31
0.0
 11
-17.650137817
 21
-9.9329438524
 31
0.0
 11
-17.373626891
 21
-9.9204843881
 31
0.0
 11
-17.1144687021
 21
-9.8704109882
 31
0.0
 11
-16.8928228356
 21
-9.7868687086
 31
0.0
  0
SPLINE
  5
37E
100
AcDbEntity
  8
RACCORDO
100
AcDbSpline
 62
253
  6
CONTINUOUS
 70
0
 71
3
 72
13
 73
9
 74
7
 42
0.0000001
 43
0.0000001
 44
0.0000000001
 12
-1.3194069981
 22
1.4431656844
 32
0.0
 13
1.748956722
 23
0.874478361
 33
0.0
 40
0.0
 40
0.0
 40
0.0
 40
0.0
 40
0.0974176024
 40
0.2082675602
 40
0.3327363192
 40
0.4685621527
 40
0.7492730486
 40
1.0
 40
1.0
 40
1.0
 40
1.0
 10
-17.2401949315
 20
-11.8272857989
 30
0.0
 10
-17.2830394203
 20
-11.780422552
 30
0.0
 10
-17.3542342158
 20
-11.6607270638
 30
0.0
 10
-17.3990946427
 20
-11.4455245598
 30
0.0
 10
-17.3859817
 20
-11.2018911649
 30
0.0
 10
-17.2994532672
 20
-10.8583695336
 30
0.0
 10
-17.0911923442
 20
-10.4687855391
 30
0.0
 10
-16.8268610107
 20
-10.2257362047
 30
0.0
 10
-16.680690815
 20
-10.1526511069
 30
0.0
 11
-17.2401949315
 21
-11.8272857989
 31
0.0
 11
-17.34020911
 21
-11.665163958
 31
0.0
 11
-17.3883735402
 21
-11.4538276835
 31
0.0
 11
-17.3789663596
 21
-11.2106242041
 31
0.0
 11
-17.3158864071
 21
-10.9526309795
 31
0.0
 11
-17.0543621543
 21
-10.4700375416
 31
0.0
 11
-16.680690815
 21
-10.1526511069
 31
0.0
  0
SPLINE
  5
37F
100
AcDbEntity
  8
RACCORDO
100
AcDbSpline
 62
253
  6
CONTINUOUS
 70
0
 71
3
 72
12
 73
8
 74
6
 42
0.0000001
 43
0.0000001
 44
0.0000000001
 12
-1.3016185444
 22
1.4436677355
 32
0.0
 13
1.7385942288
 23
0.8692971144
 33
0.0
 40
0.0
 40
0.0
 40
0.0
 40
0.0
 40
0.2044945766
 40
0.3299519203
 40
0.4666015285
 40
0.7483794843
 40
1.0
 40
1.0
 40
1.0
 40
1.0
 10
-9.8540915042
 20
-15.5191497835
 30
0.0
 10
-9.9428161485
 20
-15.4207423761
 30
0.0
 10
-10.0090756865
 20
-15.1970000648
 30
0.0
 10
-9.9937326028
 20
-14.8960037512
 30
0.0
 10
-9.9094829731
 20
-14.5510530815
 30
0.0
 10
-9.7008642766
 20
-14.1627686897
 30
0.0
 10
-9.4372458386
 20
-13.9201944827
 30
0.0
 10
-9.2914238464
 20
-13.8472834867
 30
0.0
 11
-9.8540915042
 21
-15.5191497835
 31
0.0
 11
-9.9953287289
 21
-15.1475898697
 31
0.0
 11
-9.986773275
 21
-14.9038750723
 31
0.0
 11
-9.9249821788
 21
-14.6455417144
 31
0.0
 11
-9.6642529533
 21
-14.163857424
 31
0.0
 11
-9.2914238464
 21
-13.8472834867
 31
0.0
  0
SPLINE
  5
380
100
AcDbEntity
  8
RACCORDO
100
AcDbSpline
 62
253
  6
CONTINUOUS
 70
0
 71
3
 72
12
 73
8
 74
6
 42
0.0000001
 43
0.0000001
 44
0.0000000001
 12
-1.301638278
 22
1.4436888836
 32
0.0
 13
1.7388873273
 23
0.8687753809
 33
0.0
 40
0.0
 40
0.0
 40
0.0
 40
0.0
 40
0.2044915676
 40
0.329947046
 40
0.466594621
 40
0.7483683431
 40
1.0
 40
1.0
 40
1.0
 40
1.0
 10
6.7629179382
 20
-23.8276545047
 30
0.0
 10
6.6741932542
 20
-23.7292471037
 30
0.0
 10
6.6079337987
 20
-23.5055048188
 30
0.0
 10
6.6232764566
 20
-23.2045083289
 30
0.0
 10
6.7075281694
 20
-22.8595584198
 30
0.0
 10
6.9161356686
 20
-22.4712598494
 30
0.0
 10
7.1797960796
 20
-22.2286904291
 30
0.0
 10
7.3256491127
 20
-22.1558199662
 30
0.0
 11
6.7629179382
 21
-23.8276545047
 31
0.0
 11
6.6216806275
 21
-23.4560945539
 31
0.0
 11
6.6302360805
 21
-23.2123797537
 31
0.0
 11
6.6920271883
 21
-22.9540463989
 31
0.0
 11
6.952754047
 21
-22.4723609188
 31
0.0
 11
7.3256491127
 21
-22.1558199662
 31
0.0
  0
SPLINE
  5
381
100
AcDbEntity
  8
RACCORDO
100
AcDbSpline
 62
253
  6
CONTINUOUS
 70
0
 71
3
 72
12
 73
8
 74
6
 42
0.0000001
 43
0.0000001
 44
0.0000000001
 12
-1.1685535903
 22
1.278381921
 32
0.0
 13
1.3380929022
 23
1.0996750494
 33
0.0
 40
0.0
 40
0.0
 40
0.0
 40
0.0
 40
0.1977895173
 40
0.3186507895
 40
0.4509525132
 40
0.7312462882
 40
1.0
 40
1.0
 40
1.0
 40
1.0
 10
14.1529592649
 20
-27.5238629468
 30
0.0
 10
14.0759167147
 20
-27.4395794324
 30
0.0
 10
14.0137053315
 20
-27.2512677711
 30
0.0
 10
14.0072734345
 20
-26.9919846663
 30
0.0
 10
14.0542849388
 20
-26.6853915964
 30
0.0
 10
14.2099384335
 20
-26.3178724443
 30
0.0
 10
14.4150282253
 20
-26.0675160664
 30
0.0
 10
14.5349007034
 20
-25.9690021493
 30
0.0
 11
14.1529592649
 21
-27.5238629468
 31
0.0
 11
14.020904094
 21
-27.2077698911
 31
0.0
 11
14.0133444357
 21
-26.9985763263
 31
0.0
 11
14.0471959481
 21
-26.7719457357
 31
0.0
 11
14.2333358327
 21
-26.3235839516
 31
0.0
 11
14.5349007034
 21
-25.9690021493
 31
0.0
  0
SPLINE
  5
382
100
AcDbEntity
  8
RACCORDO
100
AcDbSpline
 62
253
  6
CONTINUOUS
 70
0
 71
3
 72
13
 73
9
 74
7
 42
0.0000001
 43
0.0000001
 44
0.0000000001
 12
-1.0798196938
 22
0.0693036687
 32
0.0
 13
0.0006350641
 23
1.0820412036
 33
0.0
 40
0.0
 40
0.0
 40
0.0
 40
0.0
 40
0.3195053668
 40
0.5991325799
 40
0.7179717922
 40
0.8226507013
 40
0.9153113775
 40
1.0
 40
1.0
 40
1.0
 40
1.0
 10
15.5065730009
 20
-26.5444876533
 30
0.0
 10
15.3915702718
 20
-26.5371066886
 30
0.0
 10
15.175872356
 20
-26.5096083944
 30
0.0
 10
14.9304501911
 20
-26.4170764132
 30
0.0
 10
14.7781830311
 20
-26.3168228077
 30
0.0
 10
14.6973062351
 20
-26.2349119798
 30
0.0
 10
14.6462568846
 20
-26.1453133255
 30
0.0
 10
14.6341105301
 20
-26.0809244474
 30
0.0
 10
14.6341284577
 20
-26.0503789211
 30
0.0
 11
15.5065730009
 21
-26.5444876533
 31
0.0
 11
15.1646148557
 21
-26.4936390152
 31
0.0
 11
14.883180058
 21
-26.3825445444
 31
0.0
 11
14.7768569788
 21
-26.3102222105
 31
0.0
 11
14.6983847088
 21
-26.2285429827
 31
0.0
 11
14.6502612862
 21
-26.1405842277
 31
0.0
 11
14.6341284577
 21
-26.0503789211
 31
0.0
  0
SPLINE
  5
383
100
AcDbEntity
  8
RACCORDO
100
AcDbSpline
 62
253
  6
CONTINUOUS
 70
0
 71
3
 72
13
 73
9
 74
7
 42
0.0000001
 43
0.0000001
 44
0.0000000001
 12
-1.0711133989
 22
0.0728357499
 32
0.0
 13
-0.000037098
 23
1.0735869589
 33
0.0
 40
0.0
 40
0.0
 40
0.0
 40
0.0
 40
0.3203776501
 40
0.60015003
 40
0.7192507355
 40
0.8236399696
 40
0.9155386645
 40
1.0
 40
1.0
 40
1.0
 40
1.0
 10
15.4993295411
 20
-7.3199078888
 30
0.0
 10
15.3849426098
 20
-7.3121295733
 30
0.0
 10
15.1714992691
 20
-7.2791290222
 30
0.0
 10
14.9274017625
 20
-7.1881552086
 30
0.0
 10
14.7771298954
 20
-7.0873236045
 30
0.0
 10
14.6969570997
 20
-7.0065260249
 30
0.0
 10
14.6460535227
 20
-6.9182634403
 30
0.0
 10
14.634130017
 20
-6.8546947892
 30
0.0
 10
14.6341289726
 20
-6.8244692598
 30
0.0
 11
15.4993295411
 21
-7.3199078888
 31
0.0
 11
15.1598410396
 21
-7.2646683426
 31
0.0
 11
14.8808762372
 21
-7.153336605
 31
0.0
 11
14.7755547109
 21
-7.0808326382
 31
0.0
 11
14.6978285163
 21
-7.0000952251
 31
0.0
 11
14.650150005
 21
-6.913719303
 31
0.0
 11
14.6341289726
 21
-6.8244692598
 31
0.0
  0
SPLINE
  5
384
100
AcDbEntity
  8
RACCORDO
100
AcDbSpline
 62
253
  6
CONTINUOUS
 70
0
 71
3
 72
13
 73
9
 74
7
 42
0.0000001
 43
0.0000001
 44
0.0000000001
 12
-1.0772318942
 22
0.0693396626
 32
0.0
 13
-0.0018656022
 23
1.0794596158
 33
0.0
 40
0.0
 40
0.0
 40
0.0
 40
0.0
 40
0.3210429368
 40
0.6013152249
 40
0.72092629
 40
0.8250893374
 40
0.9160475813
 40
1.0
 40
1.0
 40
1.0
 40
1.0
 10
15.5065728698
 20
11.903694165
 30
0.0
 10
15.3912936395
 20
11.9111145013
 30
0.0
 10
15.1770085091
 20
11.9484076844
 30
0.0
 10
14.9301521942
 20
12.0374305067
 30
0.0
 10
14.7791734222
 20
12.1395773696
 30
0.0
 10
14.6981179934
 20
12.2198770401
 30
0.0
 10
14.6461964802
 20
12.3075457681
 30
0.0
 10
14.6341809926
 20
12.3709755264
 30
0.0
 10
14.6341287853
 20
12.401183275
 30
0.0
 11
15.5065728698
 21
11.903694165
 31
0.0
 11
15.1648697407
 21
11.9614716051
 31
0.0
 11
14.8835629874
 21
12.072821588
 31
0.0
 11
14.7772311918
 21
12.1460634026
 31
0.0
 11
14.6986924408
 21
12.2265271317
 31
0.0
 11
14.650444002
 21
12.3120406315
 31
0.0
 11
14.6341287853
 21
12.401183275
 31
0.0
  0
SPLINE
  5
385
100
AcDbEntity
  8
RACCORDO
100
AcDbSpline
 62
253
  6
CONTINUOUS
 70
0
 71
3
 72
12
 73
8
 74
6
 42
0.0000001
 43
0.0000001
 44
0.0000000001
 12
-0.537614709
 22
-1.1259495378
 32
0.0
 13
1.1148788561
 23
-0.5602116327
 33
0.0
 40
0.0
 40
0.0
 40
0.0
 40
0.0
 40
0.3026443378
 40
0.5762540678
 40
0.8047978575
 40
0.9050595038
 40
1.0
 40
1.0
 40
1.0
 40
1.0
 10
14.1529668613
 20
14.2346624492
 30
0.0
 10
14.0987315121
 20
14.1210750318
 30
0.0
 10
14.0263504955
 20
13.889538633
 30
0.0
 10
13.9962682504
 20
13.5535772337
 30
0.0
 10
14.058218957
 20
13.3016745448
 30
0.0
 10
14.1650472623
 20
13.1586661192
 30
0.0
 10
14.2321029241
 20
13.1101912594
 30
0.0
 10
14.267385308
 20
13.092462336
 30
0.0
 11
14.1529668613
 21
14.2346624492
 31
0.0
 11
14.0367270206
 21
13.8753847433
 31
0.0
 11
14.0154874737
 21
13.5346592199
 31
0.0
 11
14.0951229517
 21
13.2608473176
 31
0.0
 11
14.171096354
 21
13.1614615347
 31
0.0
 11
14.267385308
 21
13.092462336
 31
0.0
  0
SPLINE
  5
386
100
AcDbEntity
  8
RACCORDO
100
AcDbSpline
 62
253
  6
CONTINUOUS
 70
0
 71
3
 72
13
 73
9
 74
7
 42
0.0000001
 43
0.0000001
 44
0.0000000001
 12
-0.5342232145
 22
-1.1267476692
 32
0.0
 13
1.1150036078
 23
-0.5583204344
 33
0.0
 40
0.0
 40
0.0
 40
0.0
 40
0.0
 40
0.3013654992
 40
0.5742530992
 40
0.6951202071
 40
0.804776368
 40
0.9050946956
 40
1.0
 40
1.0
 40
1.0
 40
1.0
 10
6.7629178537
 20
17.9245536439
 30
0.0
 10
6.7092523718
 20
17.8113660193
 30
0.0
 10
6.6310186089
 20
17.5833679481
 30
0.0
 10
6.6078455616
 20
17.2906977295
 30
0.0
 10
6.6459565017
 20
17.0837420858
 30
0.0
 10
6.6988830419
 20
16.9554793808
 30
0.0
 10
6.7759880553
 20
16.8529468646
 30
0.0
 10
6.8431053567
 20
16.8046291197
 30
0.0
 10
6.8783786089
 20
16.7869665961
 30
0.0
 11
6.7629178537
 21
17.9245536439
 31
0.0
 11
6.6434129134
 21
17.5682653195
 31
0.0
 11
6.6233999591
 21
17.2285694321
 31
0.0
 11
6.652145642
 21
17.0806174179
 31
0.0
 11
6.7056984869
 21
16.9548016589
 31
0.0
 11
6.7820426063
 21
16.8557043453
 31
0.0
 11
6.8783786089
 21
16.7869665961
 31
0.0
  0
SPLINE
  5
387
100
AcDbEntity
  8
RACCORDO
100
AcDbSpline
 62
253
  6
CONTINUOUS
 70
0
 71
3
 72
13
 73
9
 74
7
 42
0.0000001
 43
0.0000001
 44
0.0000000001
 12
-0.5342231149
 22
-1.1267487586
 32
0.0
 13
1.115004455
 23
-0.5583208456
 33
0.0
 40
0.0
 40
0.0
 40
0.0
 40
0.0
 40
0.3013652748
 40
0.5742526714
 40
0.6951196883
 40
0.8047757609
 40
0.9050940514
 40
1.0
 40
1.0
 40
1.0
 40
1.0
 10
-9.8540915886
 20
26.233058365
 30
0.0
 10
-9.9077570206
 20
26.1198707153
 30
0.0
 10
-9.9859907209
 20
25.891872631
 30
0.0
 10
-10.0091637992
 20
25.5992024153
 30
0.0
 10
-9.9710528559
 20
25.3922467697
 30
0.0
 10
-9.918126321
 20
25.2639840562
 30
0.0
 10
-9.8410211148
 20
25.1614512608
 30
0.0
 10
-9.7739034237
 20
25.1131335094
 30
0.0
 10
-9.7386299051
 20
25.0954708529
 30
0.0
 11
-9.8540915886
 21
26.233058365
 31
0.0
 11
-9.9735964376
 21
25.8767700059
 31
0.0
 11
-9.9936093986
 21
25.5370741156
 31
0.0
 11
-9.9648637173
 21
25.3891221006
 31
0.0
 11
-9.9113108823
 21
25.2633063448
 31
0.0
 11
-9.8349667157
 21
25.1642090069
 31
0.0
 11
-9.7386299051
 21
25.0954708529
 31
0.0
  0
SPLINE
  5
388
100
AcDbEntity
  8
RACCORDO
100
AcDbSpline
 62
253
  6
CONTINUOUS
 70
0
 71
3
 72
20
 73
16
 74
14
 42
0.0000001
 43
0.0000001
 44
0.0000000001
 12
-1.41897281
 22
-32.0583019426
 32
0.0
 13
0.0001618176
 23
-32.089690046
 33
0.0
 40
0.0
 40
0.0
 40
0.0
 40
0.0
 40
0.0158586766
 40
0.0315741087
 40
0.062933333
 40
0.0942865435
 40
0.1256253834
 40
0.1882359972
 40
0.2507596978
 40
0.3132330489
 40
0.3756941489
 40
0.5005979091
 40
0.6254771961
 40
0.7503346312
 40
1.0
 40
1.0
 40
1.0
 40
1.0
 10
29.6838443451
 20
20.7396880959
 30
0.0
 10
29.6763433348
 20
20.5702206815
 30
0.0
 10
29.6629564798
 20
20.2327139018
 30
0.0
 10
29.6552195399
 20
19.5595516328
 30
0.0
 10
29.6461403301
 20
18.7207098154
 30
0.0
 10
29.6354000872
 20
17.7147360046
 30
0.0
 10
29.622545893
 20
16.3744912918
 30
0.0
 10
29.61061666
 20
14.7008041534
 30
0.0
 10
29.6030655616
 20
12.6940589594
 30
0.0
 10
29.5991534045
 20
10.6889045906
 30
0.0
 10
29.5943230057
 20
8.0164987493
 30
0.0
 10
29.5894424426
 20
4.6765628555
 30
0.0
 10
29.5853493995
 20
0.6691991896
 30
0.0
 10
29.5819847009
 20
-4.6726859705
 30
0.0
 10
29.5814267099
 20
-8.6787930409
 30
0.0
 10
29.5814401767
 20
-11.3493544741
 30
0.0
 11
29.6838443451
 21
20.7396880959
 31
0.0
 11
29.6652936511
 21
20.2311263013
 31
0.0
 11
29.6571804026
 21
19.7268882246
 31
0.0
 11
29.6461642452
 21
18.7206407361
 31
0.0
 11
29.6355805003
 21
17.7145815979
 31
0.0
 11
29.6260293372
 21
16.7089732958
 31
0.0
 11
29.6117374568
 21
14.6998689381
 31
0.0
 11
29.6036696312
 21
12.6935189868
 31
0.0
 11
29.5992011139
 21
10.6887734934
 31
0.0
 11
29.5956073948
 21
8.6844193766
 31
0.0
 11
29.5897359464
 21
4.6763007261
 31
0.0
 11
29.5856106685
 21
0.6689652365
 31
0.0
 11
29.5830440173
 21
-3.3376703348
 31
0.0
 11
29.5814401767
 21
-11.3493544741
 31
0.0
  0
SPLINE
  5
389
100
AcDbEntity
  8
RACCORDO
100
AcDbSpline
 62
253
  6
CONTINUOUS
 70
0
 71
3
 72
29
 73
25
 74
23
 42
0.0000001
 43
0.0000001
 44
0.0000000001
 12
-0.2745223194
 22
-32.1852530683
 32
0.0
 13
-0.0000664668
 23
-32.1864238083
 33
0.0
 40
0.0
 40
0.0
 40
0.0
 40
0.0
 40
0.0080359627
 40
0.0160671183
 40
0.0200841146
 40
0.0241045531
 40
0.0280932571
 40
0.0320273275
 40
0.0359546144
 40
0.0398910526
 40
0.0477557997
 40
0.0634864415
 40
0.0792148791
 40
0.0949394371
 40
0.1263682107
 40
0.1577561909
 40
0.1890971731
 40
0.2516493633
 40
0.314088746
 40
0.3764977866
 40
0.5012794282
 40
0.6260138544
 40
0.7507068927
 40
1.0
 40
1.0
 40
1.0
 40
1.0
 10
28.4146871225
 20
20.7567736138
 30
0.0
 10
28.4139517722
 20
20.6705604495
 30
0.0
 10
28.4134883135
 20
20.4981724276
 30
0.0
 10
28.4166270434
 20
20.2827063692
 30
0.0
 10
28.4221305419
 20
20.1103809625
 30
0.0
 10
28.4296105999
 20
19.9815747269
 30
0.0
 10
28.4360682619
 20
19.8535667994
 30
0.0
 10
28.4356812037
 20
19.7263997895
 30
0.0
 10
28.4354071334
 20
19.5998304296
 30
0.0
 10
28.4369910137
 20
19.43108558
 30
0.0
 10
28.4376029511
 20
19.1357032716
 30
0.0
 10
28.4398604408
 20
18.7138104668
 30
0.0
 10
28.4422079193
 20
18.2075920338
 30
0.0
 10
28.4457367055
 20
17.5329547027
 30
0.0
 10
28.4504814424
 20
16.6903134699
 30
0.0
 10
28.4560670188
 20
15.6801285855
 30
0.0
 10
28.4625562502
 20
14.3360267613
 30
0.0
 10
28.4684589396
 20
12.6587738133
 30
0.0
 10
28.4712498245
 20
10.6481899016
 30
0.0
 10
28.4740419651
 20
7.969958517
 30
0.0
 10
28.4771137612
 20
4.6233752246
 30
0.0
 10
28.4796525523
 20
0.60855838
 30
0.0
 10
28.481813042
 20
-4.7421184615
 30
0.0
 10
28.4821702045
 20
-8.7545440588
 30
0.0
 10
28.4821646812
 20
-11.4291619272
 30
0.0
 11
28.4146871225
 21
20.7567736138
 31
0.0
 11
28.4142322237
 21
20.4981251128
 31
0.0
 11
28.4182513032
 21
20.2396621801
 31
0.0
 11
28.4226904635
 21
20.1104456652
 31
0.0
 11
28.4294662879
 21
19.9812196469
 31
0.0
 11
28.4349464349
 21
19.8529545467
 31
0.0
 11
28.4356995519
 21
19.7263331288
 31
0.0
 11
28.4356504213
 21
19.599927818
 31
0.0
 11
28.4364923857
 21
19.4732307495
 31
0.0
 11
28.4375203452
 21
19.2200947524
 31
0.0
 11
28.4398003484
 21
18.7137867817
 31
0.0
 11
28.4422581808
 21
18.2075505887
 31
0.0
 11
28.4448779307
 21
17.7014400823
 31
0.0
 11
28.450466779
 21
16.6898756956
 31
0.0
 11
28.4559516346
 21
15.6796237507
 31
0.0
 11
28.460792713
 21
14.670881231
 31
0.0
 11
28.4677474366
 21
12.6575619386
 31
0.0
 11
28.4711345012
 21
10.6478643602
 31
0.0
 11
28.4733164963
 21
8.6391417129
 31
0.0
 11
28.4769230591
 21
4.6228685336
 31
0.0
 11
28.4794998612
 21
0.6081142546
 31
0.0
 11
28.4811328667
 21
-3.4053083885
 31
0.0
 11
28.4821646812
 21
-11.4291619272
 31
0.0
  0
SPLINE
  5
38A
100
AcDbEntity
  8
RACCORDO
100
AcDbSpline
 62
253
  6
CONTINUOUS
 70
0
 71
3
 72
11
 73
7
 74
5
 42
0.0000001
 43
0.0000001
 44
0.0000000001
 12
-1.2045588743
 22
-0.4684168938
 32
0.0
 13
-1.205262142
 23
0.4666043691
 33
0.0
 40
0.0
 40
0.0
 40
0.0
 40
0.0
 40
0.2318195306
 40
0.4912200372
 40
0.75524889
 40
1.0
 40
1.0
 40
1.0
 40
1.0
 10
29.6838443451
 20
20.7396880959
 30
0.0
 10
29.5907642541
 20
20.7034920344
 30
0.0
 10
29.383293208
 20
20.6529936896
 30
0.0
 10
29.0573549772
 20
20.6321927854
 30
0.0
 10
28.7265623894
 20
20.6627548066
 30
0.0
 10
28.5130168716
 20
20.7187063014
 30
0.0
 10
28.4146871225
 20
20.7567736138
 30
0.0
 11
29.6838443451
 21
20.7396880959
 31
0.0
 11
29.3939351953
 21
20.6640626464
 31
0.0
 11
29.0594739742
 21
20.6409753391
 31
0.0
 11
28.7197541847
 21
20.6731385377
 31
0.0
 11
28.4146871225
 21
20.7567736138
 31
0.0
  0
SPLINE
  5
38B
100
AcDbEntity
  8
RACCORDO
100
AcDbSpline
 62
253
  6
CONTINUOUS
 70
0
 71
3
 72
20
 73
16
 74
14
 42
0.0000001
 43
0.0000001
 44
0.0000000001
 12
-0.0001613272
 22
-31.9974991245
 32
0.0
 13
1.4735041223
 23
-31.9635532419
 33
0.0
 40
0.0
 40
0.0
 40
0.0
 40
0.0
 40
0.2503395703
 40
0.3754845184
 40
0.5006075216
 40
0.6257059332
 40
0.688245874
 40
0.7507734742
 40
0.8132502915
 40
0.8756391378
 40
0.9067995144
 40
0.9379452508
 40
0.9690848019
 40
0.9846172771
 40
1.0
 40
1.0
 40
1.0
 40
1.0
 10
29.5814401767
 20
-11.3493544741
 30
0.0
 10
29.5814267145
 20
-14.0194345351
 30
0.0
 10
29.5819841368
 20
-18.0242898909
 30
0.0
 10
29.5853488372
 20
-23.3636851931
 30
0.0
 10
29.5894414423
 20
-27.3672781608
 30
0.0
 10
29.5943223686
 20
-30.7031351511
 30
0.0
 10
29.599152279
 20
-33.3713590133
 30
0.0
 10
29.6030620301
 20
-35.371672203
 30
0.0
 10
29.6106025118
 20
-37.3703653507
 30
0.0
 10
29.6225278345
 20
-39.0344751247
 30
0.0
 10
29.6353989528
 20
-40.3643867777
 30
0.0
 10
29.6461241278
 20
-41.361011112
 30
0.0
 10
29.655252796
 20
-42.1909330644
 30
0.0
 10
29.6628323727
 20
-42.8527941151
 30
0.0
 10
29.6762888432
 20
-43.1822962902
 30
0.0
 10
29.6838443451
 20
-43.3461917842
 30
0.0
 11
29.5814401767
 21
-11.3493544741
 31
0.0
 11
29.5830440188
 21
-19.3595944967
 31
0.0
 11
29.5856106687
 21
-23.3639190397
 31
0.0
 11
29.589735963
 21
-27.367540099
 31
0.0
 11
29.5956073181
 21
-31.37037211
 31
0.0
 11
29.5992006855
 21
-33.3714905839
 31
0.0
 11
29.6036695944
 21
-35.3722124259
 31
0.0
 11
29.6117374539
 21
-37.3712980533
 31
0.0
 11
29.6260293149
 21
-39.3675339468
 31
0.0
 11
29.6355805138
 21
-40.3645423237
 31
0.0
 11
29.6461643006
 21
-41.361071794
 31
0.0
 11
29.6571840906
 21
-42.3573986128
 31
0.0
 11
29.6652942624
 21
-42.8543327988
 31
0.0
 11
29.6838443451
 21
-43.3461917842
 31
0.0
  0
SPLINE
  5
38C
100
AcDbEntity
  8
RACCORDO
100
AcDbSpline
 62
253
  6
CONTINUOUS
 70
0
 71
3
 72
29
 73
25
 74
23
 42
0.0000001
 43
0.0000001
 44
0.0000000001
 12
0.00006607
 22
-31.989807272
 32
0.0
 13
0.2920418029
 23
-31.9884741882
 33
0.0
 40
0.0
 40
0.0
 40
0.0
 40
0.0
 40
0.2507406058
 40
0.3760640459
 40
0.5013456724
 40
0.6265795018
 40
0.68917795
 40
0.7517455221
 40
0.8141976321
 40
0.8453565745
 40
0.8764663251
 40
0.9075329863
 40
0.9230554915
 40
0.938573849
 40
0.9540899132
 40
0.9618482479
 40
0.9657242382
 40
0.96960655
 40
0.9734871316
 40
0.9773038292
 40
0.9810851474
 40
0.9848691066
 40
0.9924377008
 40
1.0
 40
1.0
 40
1.0
 40
1.0
 10
28.4821646812
 20
-11.4291619272
 30
0.0
 10
28.4821702034
 20
-14.1028764792
 30
0.0
 10
28.4818137557
 20
-18.1129486671
 30
0.0
 10
28.4796531799
 20
-23.4589320919
 30
0.0
 10
28.477115098
 20
-27.4666025912
 30
0.0
 10
28.4740425423
 20
-30.8054191169
 30
0.0
 10
28.471250972
 20
-33.4754984533
 30
0.0
 10
28.4684667319
 20
-35.4761197868
 30
0.0
 10
28.4625714503
 20
-37.141485459
 30
0.0
 10
28.4560748955
 20
-38.4714011479
 30
0.0
 10
28.4504905318
 20
-39.4666455419
 30
0.0
 10
28.4457336282
 20
-40.2951562899
 30
0.0
 10
28.4422184632
 20
-40.9574163378
 30
0.0
 10
28.4398225136
 20
-41.4538592584
 30
0.0
 10
28.4377161851
 20
-41.8675125772
 30
0.0
 10
28.4368449251
 20
-42.1570217064
 30
0.0
 10
28.4356209353
 20
-42.3224787796
 30
0.0
 10
28.4352872779
 20
-42.4465773926
 30
0.0
 10
28.4365139652
 20
-42.5700932605
 30
0.0
 10
28.4295452007
 20
-42.6923428191
 30
0.0
 10
28.4221386704
 20
-42.8134791503
 30
0.0
 10
28.4166301737
 20
-42.9747794472
 30
0.0
 10
28.4134899667
 20
-43.1764600999
 30
0.0
 10
28.4139509509
 20
-43.337812401
 30
0.0
 10
28.4146871201
 20
-43.4184478722
 30
0.0
 11
28.4821646812
 21
-11.4291619272
 31
0.0
 11
28.4811328649
 21
-19.4503055169
 31
0.0
 11
28.4794998566
 21
-23.4593778798
 31
0.0
 11
28.4769230709
 21
-27.4671121369
 31
0.0
 11
28.4733163925
 21
-31.4733165788
 31
0.0
 11
28.4711350588
 21
-33.475827686
 31
0.0
 11
28.4677477353
 21
-35.4773493927
 31
0.0
 11
28.4607926831
 21
-37.4751682492
 31
0.0
 11
28.4559516155
 21
-38.4719250544
 31
0.0
 11
28.4504663004
 21
-39.4671048643
 31
0.0
 11
28.4448777745
 21
-40.4609056549
 31
0.0
 11
28.4422580898
 21
-40.9574606942
 31
0.0
 11
28.4398004032
 21
-41.4538838745
 31
0.0
 11
28.4375246691
 21
-41.9502345628
 31
0.0
 11
28.4364782539
 21
-42.1984199873
 31
0.0
 11
28.4357186709
 21
-42.3224098441
 31
0.0
 11
28.4355485715
 21
-42.4466041342
 31
0.0
 11
28.4351257362
 21
-42.5707424697
 31
0.0
 11
28.4294401011
 21
-42.692705439
 31
0.0
 11
28.4226823271
 21
-42.8134801659
 31
0.0
 11
28.418257407
 21
-42.9344473872
 31
0.0
 11
28.4142327866
 21
-43.1765318041
 31
0.0
 11
28.4146871201
 21
-43.4184478722
 31
0.0
  0
SPLINE
  5
38D
100
AcDbEntity
  8
RACCORDO
100
AcDbSpline
 62
253
  6
CONTINUOUS
 70
0
 71
3
 72
10
 73
6
 74
4
 42
0.0000001
 43
0.0000001
 44
0.0000000001
 12
-1.0186879498
 22
-0.4586083823
 32
0.0
 13
-1.0867446321
 23
0.2589071109
 33
0.0
 40
0.0
 40
0.0
 40
0.0
 40
0.0
 40
0.2305357788
 40
0.4848727753
 40
1.0
 40
1.0
 40
1.0
 40
1.0
 10
29.5814401769
 20
-11.3493591193
 30
0.0
 10
29.5031588369
 20
-11.3846009995
 30
0.0
 10
29.3297482159
 20
-11.4398004026
 30
0.0
 10
28.9605693111
 20
-11.4931077835
 30
0.0
 10
28.6687685967
 20
-11.4736186277
 30
0.0
 10
28.4821646812
 20
-11.4291619272
 30
0.0
 11
29.5814401769
 21
-11.3493591193
 31
0.0
 11
29.3369959064
 21
-11.4304555026
 31
0.0
 11
29.0560029365
 21
-11.4725950032
 31
0.0
 11
28.4821646812
 21
-11.4291619272
 31
0.0
  0
SPLINE
  5
38E
100
AcDbEntity
  8
RACCORDO
100
AcDbSpline
 62
253
  6
CONTINUOUS
 70
0
 71
3
 72
11
 73
7
 74
5
 42
0.0000001
 43
0.0000001
 44
0.0000000001
 12
0.0522292293
 22
-1.7917242608
 32
0.0
 13
-1.6515290602
 23
-0.6967463543
 33
0.0
 40
0.0
 40
0.0
 40
0.0
 40
0.0
 40
0.2900496265
 40
0.548840813
 40
0.781157683
 40
1.0
 40
1.0
 40
1.0
 40
1.0
 10
29.6838443451
 20
-43.3461917842
 30
0.0
 10
29.6888940345
 20
-43.5194214351
 30
0.0
 10
29.667698891
 20
-43.8496281036
 30
0.0
 10
29.5262133642
 20
-44.3001768224
 30
0.0
 10
29.279999164
 20
-44.6551916527
 30
0.0
 10
29.0499137753
 20
-44.80994612
 30
0.0
 10
28.9294389599
 20
-44.8607719821
 30
0.0
 11
29.6838443451
 21
-43.3461917842
 31
0.0
 11
29.6446479668
 21
-43.8646218622
 31
0.0
 11
29.498824056
 21
-44.3049847736
 31
0.0
 11
29.2558049983
 21
-44.643143276
 31
0.0
 11
28.9294389599
 21
-44.8607719821
 31
0.0
  0
SPLINE
  5
38F
100
AcDbEntity
  8
RACCORDO
100
AcDbSpline
 62
253
  6
CONTINUOUS
 70
0
 71
3
 72
15
 73
11
 74
9
 42
0.0000001
 43
0.0000001
 44
0.0000000001
 12
0.0178338203
 22
-1.9954860109
 32
0.0
 13
-1.8325078261
 23
0.7900617269
 33
0.0
 40
0.0
 40
0.0
 40
0.0
 40
0.0
 40
0.1452571474
 40
0.2776588896
 40
0.3986683811
 40
0.511942935
 40
0.6230457942
 40
0.7382496594
 40
0.8628239995
 40
1.0
 40
1.0
 40
1.0
 40
1.0
 10
28.414688922
 20
-43.4184465393
 30
0.0
 10
28.4155524186
 20
-43.5150660745
 30
0.0
 10
28.4014748015
 20
-43.7005036003
 30
0.0
 10
28.3282732735
 20
-43.9574992651
 30
0.0
 10
28.2067201374
 20
-44.1721293208
 30
0.0
 10
28.0400894047
 20
-44.3352228573
 30
0.0
 10
27.8348903268
 20
-44.4380963901
 30
0.0
 10
27.6013206408
 20
-44.4759979878
 30
0.0
 10
27.3495900487
 20
-44.4496329035
 30
0.0
 10
27.1832326421
 20
-44.3939971101
 30
0.0
 10
27.0994406106
 20
-44.3578712741
 30
0.0
 11
28.414688922
 21
-43.4184465393
 31
0.0
 11
28.3907227234
 21
-43.7073242699
 31
0.0
 11
28.3159518581
 21
-43.9607401549
 31
0.0
 11
28.1947210151
 21
-44.1695865761
 31
0.0
 11
28.0320751003
 21
-44.3265689597
 31
0.0
 11
27.8340196492
 21
-44.4262219432
 31
0.0
 11
27.6074400612
 21
-44.4651355224
 31
0.0
 11
27.3599171508
 21
-44.4420591421
 31
0.0
 11
27.0994406106
 21
-44.3578712741
 31
0.0
  0
SPLINE
  5
390
100
AcDbEntity
  8
RACCORDO
100
AcDbSpline
 62
253
  6
CONTINUOUS
 70
0
 71
3
 72
11
 73
7
 74
5
 42
0.0000001
 43
0.0000001
 44
0.0000000001
 12
-1.157797913
 22
-0.5922553937
 32
0.0
 13
-1.2215426654
 23
0.4462017205
 33
0.0
 40
0.0
 40
0.0
 40
0.0
 40
0.0
 40
0.2374501298
 40
0.4975103251
 40
0.7588907482
 40
1.0
 40
1.0
 40
1.0
 40
1.0
 10
29.683829076
 20
-43.3461833011
 30
0.0
 10
29.592189321
 20
-43.3930603412
 30
0.0
 10
29.3866060023
 20
-43.4651262579
 30
0.0
 10
29.0594616113
 20
-43.512757108
 30
0.0
 10
28.7274407703
 20
-43.5023586294
 30
0.0
 10
28.5128640014
 20
-43.4543076603
 30
0.0
 10
28.414688922
 20
-43.4184465393
 30
0.0
 11
29.683829076
 21
-43.3461833011
 31
0.0
 11
29.3939251803
 21
-43.4525479822
 31
0.0
 11
29.0594696051
 21
-43.5027650681
 31
0.0
 11
28.7197540915
 21
-43.490934733
 31
0.0
 11
28.414688922
 21
-43.4184465393
 31
0.0
  0
SPLINE
  5
391
100
AcDbEntity
  8
RACCORDO
100
AcDbSpline
 62
253
  6
CONTINUOUS
 70
0
 71
3
 72
23
 73
19
 74
17
 42
0.0000001
 43
0.0000001
 44
0.0000000001
 12
-18.0459683763
 22
7.7802071843
 32
0.0
 13
-17.571082217
 23
8.8003220504
 33
0.0
 40
0.0
 40
0.0
 40
0.0
 40
0.0
 40
0.0156019994
 40
0.023304098
 40
0.0311056476
 40
0.0467412953
 40
0.0623763281
 40
0.0936420531
 40
0.1248991618
 40
0.1561437191
 40
0.1874160698
 40
0.2498499564
 40
0.3122929743
 40
0.3747531571
 40
0.4996374698
 40
0.6245832201
 40
0.7496476669
 40
1.0
 40
1.0
 40
1.0
 40
1.0
 10
27.0994406124
 20
-44.3578712728
 30
0.0
 10
27.0055895496
 20
-44.3174090101
 30
0.0
 10
26.8658214906
 20
-44.2560462767
 30
0.0
 10
26.6784250134
 20
-44.1759569333
 30
0.0
 10
26.4946908521
 20
-44.0872806185
 30
0.0
 10
26.2633282284
 20
-43.9778650309
 30
0.0
 10
25.893359641
 20
-43.801967423
 30
0.0
 10
25.4306207716
 20
-43.5828981324
 30
0.0
 10
24.875336703
 20
-43.3203378881
 30
0.0
 10
24.3197557721
 20
-43.0583063428
 30
0.0
 10
23.5806329789
 20
-42.7066826205
 30
0.0
 10
22.6534834919
 20
-42.2746196868
 30
0.0
 10
21.5472782273
 20
-41.7433280218
 30
0.0
 10
20.0711497866
 20
-41.0373979939
 30
0.0
 10
18.2278405314
 20
-40.1502327001
 30
0.0
 10
16.0232173087
 20
-39.0683119695
 30
0.0
 10
13.0899296559
 20
-37.6058023979
 30
0.0
 10
10.8953635687
 20
-36.4960507718
 30
0.0
 10
9.4290430927
 20
-35.7616570527
 30
0.0
 11
27.0994406124
 21
-44.3578712728
 31
0.0
 11
26.8181598273
 21
-44.2358545931
 31
0.0
 11
26.6794990866
 21
-44.1751684878
 31
0.0
 11
26.5408605616
 21
-44.1097130809
 31
0.0
 11
26.2633664665
 21
-43.9777665078
 31
0.0
 11
25.9858080835
 21
-43.8459833961
 31
0.0
 11
25.430548421
 21
-43.5829175189
 31
0.0
 11
24.8752194297
 21
-43.320393967
 31
0.0
 11
24.3200667223
 21
-43.0580746622
 31
0.0
 11
23.7647306879
 21
-42.79486589
 31
0.0
 11
22.654558213
 21
-42.2724901162
 31
0.0
 11
21.5472345943
 21
-41.7436856748
 31
0.0
 11
20.4401929212
 21
-41.2135098142
 31
0.0
 11
18.2295704388
 21
-40.147591908
 31
0.0
 11
16.0250595788
 21
-39.0663462389
 31
0.0
 11
13.8251014416
 21
-37.9706251037
 31
0.0
 11
9.4290430927
 21
-35.7616570527
 31
0.0
  0
LINE
  5
392
100
AcDbEntity
  8
RACCORDO
100
AcDbLine
 62
253
  6
CONTINUOUS
 10
9.4290430927
 20
-35.7616570527
 11
9.1449447955
 21
-35.6194705073
  0
SPLINE
  5
393
100
AcDbEntity
  8
RACCORDO
100
AcDbSpline
 62
253
  6
CONTINUOUS
 70
0
 71
3
 72
9
 73
5
 74
3
 42
0.0000001
 43
0.0000001
 44
0.0000000001
 12
-0.3185091969
 22
0.1593287811
 32
0.0
 13
-0.1141638008
 23
0.3373431422
 33
0.0
 40
0.0
 40
0.0
 40
0.0
 40
0.0
 40
0.4746179016
 40
1.0
 40
1.0
 40
1.0
 40
1.0
 10
-7.2528239817
 20
-27.5827805747
 30
0.0
 10
-7.3032140373
 20
-27.5575738108
 30
0.0
 10
-7.3976025407
 20
-27.4786236882
 30
0.0
 10
-7.4520713598
 20
-27.3700438473
 30
0.0
 10
-7.4720645656
 20
-27.3109658313
 30
0.0
 11
-7.2528239817
 21
-27.5827805747
 31
0.0
 11
-7.3838185901
 21
-27.4759570737
 31
0.0
 11
-7.4720645656
 21
-27.3109658313
 31
0.0
  0
SPLINE
  5
394
100
AcDbEntity
  8
RACCORDO
100
AcDbSpline
 62
253
  6
CONTINUOUS
 70
0
 71
3
 72
9
 73
5
 74
3
 42
0.0000001
 43
0.0000001
 44
0.0000000001
 12
-11.6971147541
 22
2.7867068143
 32
0.0
 13
-11.016525933
 23
4.8191684767
 33
0.0
 40
0.0
 40
0.0
 40
0.0
 40
0.0
 40
0.5155099961
 40
1.0
 40
1.0
 40
1.0
 40
1.0
 10
28.4821646809
 20
-11.4291619275
 30
0.0
 10
26.4721714873
 20
-10.9503035212
 30
0.0
 10
22.6070428681
 20
-9.8705775899
 30
0.0
 10
18.8495632616
 20
-8.4555828483
 30
0.0
 10
17.0704310307
 20
-7.6773031969
 30
0.0
 11
28.4821646809
 21
-11.4291619275
 31
0.0
 11
22.5157543938
 21
-9.7479866273
 31
0.0
 11
17.0704310307
 21
-7.6773031969
 31
0.0
  0
SPLINE
  5
395
100
AcDbEntity
  8
RACCORDO
100
AcDbSpline
 62
253
  6
CONTINUOUS
 70
0
 71
3
 72
23
 73
19
 74
17
 42
0.0000001
 43
0.0000001
 44
0.0000000001
 12
-17.9041158911
 22
8.9500965733
 32
0.0
 13
-17.3640727143
 23
9.9574380885
 33
0.0
 40
0.0
 40
0.0
 40
0.0
 40
0.0
 40
0.2496309824
 40
0.3745480117
 40
0.4995878383
 40
0.5621444533
 40
0.6247033919
 40
0.6872476044
 40
0.7497990726
 40
0.8123869982
 40
0.8436122474
 40
0.8748718647
 40
0.9373567873
 40
0.9529733329
 40
0.9685892436
 40
0.9764091283
 40
0.984334442
 40
1.0
 40
1.0
 40
1.0
 40
1.0
 10
-7.4720645656
 20
-27.3109658314
 30
0.0
 10
-8.961871912
 20
-26.5662253646
 30
0.0
 10
-11.2022522222
 20
-25.4589713273
 30
0.0
 10
-14.182700488
 20
-23.9662706733
 30
0.0
 10
-16.0412357801
 20
-23.0208812559
 30
0.0
 10
-17.5245929156
 20
-22.2557062976
 30
0.0
 10
-18.6355961915
 20
-21.6782721279
 30
0.0
 10
-19.7454369545
 20
-21.0986929192
 30
0.0
 10
-20.8567908997
 20
-20.5215625545
 30
0.0
 10
-21.776758207
 20
-20.0294699779
 30
0.0
 10
-22.5157292674
 20
-19.6417486734
 30
0.0
 10
-23.2528543757
 20
-19.251998424
 30
0.0
 10
-23.898137265
 20
-18.9113631176
 30
0.0
 10
-24.4517636488
 20
-18.6206651164
 30
0.0
 10
-24.6821751327
 20
-18.4990182528
 30
0.0
 10
-24.8680786904
 20
-18.4029093845
 30
0.0
 10
-25.0499475551
 20
-18.2986975455
 30
0.0
 10
-25.1870008897
 20
-18.2213104902
 30
0.0
 10
-25.2776735191
 20
-18.1693142156
 30
0.0
 11
-7.4720645656
 21
-27.3109658314
 31
0.0
 11
-11.945616637
 21
-25.0850254695
 31
0.0
 11
-14.1807968982
 21
-23.9643120474
 31
0.0
 11
-16.4113840057
 21
-22.8290550486
 31
0.0
 11
-17.5242839735
 21
-22.2551432653
 31
0.0
 11
-18.6354946563
 21
-21.6778665843
 31
0.0
 11
-19.7456175925
 21
-21.0991382514
 31
0.0
 11
-20.8553884954
 21
-20.5194214018
 31
0.0
 11
-21.9623174919
 21
-19.9327364797
 31
0.0
 11
-22.5153717075
 21
-19.641562005
 31
0.0
 11
-23.0686956137
 21
-19.3494240067
 31
0.0
 11
-24.175029305
 21
-18.7660244054
 31
0.0
 11
-24.4517101231
 21
-18.6205607642
 31
0.0
 11
-24.7284611651
 21
-18.4752581089
 31
0.0
 11
-24.8669184689
 21
-18.4022494069
 31
0.0
 11
-25.0051835098
 21
-18.3244768382
 31
0.0
 11
-25.2776735191
 21
-18.1693142156
 31
0.0
  0
SPLINE
  5
396
100
AcDbEntity
  8
RACCORDO
100
AcDbSpline
 62
253
  6
CONTINUOUS
 70
0
 71
3
 72
11
 73
7
 74
5
 42
0.0000001
 43
0.0000001
 44
0.0000000001
 12
-2.3551786311
 22
1.3505692243
 32
0.0
 13
-0.1853986321
 23
2.7086031384
 33
0.0
 40
0.0
 40
0.0
 40
0.0
 40
0.0
 40
0.2295952438
 40
0.487942282
 40
0.7529092112
 40
1.0
 40
1.0
 40
1.0
 40
1.0
 10
-25.2776735135
 20
-18.1693142121
 30
0.0
 10
-25.4579194508
 20
-18.0659527886
 30
0.0
 10
-25.8020473007
 20
-17.7779122575
 30
0.0
 10
-26.2092828941
 20
-17.2256083303
 30
0.0
 10
-26.4991212455
 20
-16.5862723097
 30
0.0
 10
-26.5973924587
 20
-16.1278611034
 30
0.0
 10
-26.6126625567
 20
-15.9047708081
 30
0.0
 11
-25.2776735135
 21
-18.1693142121
 31
0.0
 11
-25.7640111351
 21
-17.779409924
 31
0.0
 11
-26.1847007588
 21
-17.2181810254
 31
0.0
 11
-26.4805772448
 21
-16.5624755839
 31
0.0
 11
-26.6126625567
 21
-15.9047708081
 31
0.0
  0
SPLINE
  5
397
100
AcDbEntity
  8
RACCORDO
100
AcDbSpline
 62
253
  6
CONTINUOUS
 70
0
 71
3
 72
26
 73
22
 74
20
 42
0.0000001
 43
0.0000001
 44
0.0000000001
 12
-2.1883646002
 22
32.0493694717
 32
0.0
 13
0.0002548924
 23
32.1239945071
 33
0.0
 40
0.0
 40
0.0
 40
0.0
 40
0.0
 40
0.0156714998
 40
0.019642754
 40
0.0236474798
 40
0.027636934
 40
0.0315450877
 40
0.0393642644
 40
0.0471851253
 40
0.062829654
 40
0.078476972
 40
0.0941267533
 40
0.1254315104
 40
0.1880268138
 40
0.250569055
 40
0.313055692
 40
0.3755235605
 40
0.5004474795
 40
0.6253553391
 40
0.7502484915
 40
1.0
 40
1.0
 40
1.0
 40
1.0
 10
-26.6126649449
 20
-15.9047718393
 30
0.0
 10
-26.6240965967
 20
-15.7373512772
 30
0.0
 10
-26.6377974413
 20
-15.5274642724
 30
0.0
 10
-26.6539470893
 20
-15.2747595784
 30
0.0
 10
-26.6627394029
 20
-15.1469414108
 30
0.0
 10
-26.6697783422
 20
-15.0196554617
 30
0.0
 10
-26.6714059149
 20
-14.8513435915
 30
0.0
 10
-26.6763765152
 20
-14.6420866501
 30
0.0
 10
-26.6826499089
 20
-14.3071471128
 30
0.0
 10
-26.6911533303
 20
-13.8884160674
 30
0.0
 10
-26.7009236586
 20
-13.385859659
 30
0.0
 10
-26.7137143621
 20
-12.7156412775
 30
0.0
 10
-26.734691528
 20
-11.5427685788
 30
0.0
 10
-26.7573442372
 20
-9.8677257708
 30
0.0
 10
-26.7720432021
 20
-7.8586909368
 30
0.0
 10
-26.7790875025
 20
-5.8509875305
 30
0.0
 10
-26.7873567642
 20
-3.175302827
 30
0.0
 10
-26.7957514073
 20
0.1687912024
 30
0.0
 10
-26.8026951095
 20
4.1813393762
 30
0.0
 10
-26.8083998839
 20
9.5305441464
 30
0.0
 10
-26.8093357598
 20
13.5422389881
 30
0.0
 10
-26.8093145399
 20
16.2165776834
 30
0.0
 11
-26.6126649449
 21
-15.9047718393
 31
0.0
 11
-26.6457762305
 21
-15.402430732
 31
0.0
 11
-26.6540268051
 21
-15.2751252596
 31
0.0
 11
-26.6624629014
 21
-15.1467543679
 31
0.0
 11
-26.6688433072
 21
-15.0187560882
 31
0.0
 11
-26.6711971985
 21
-14.8932326493
 31
0.0
 11
-26.6761659794
 21
-14.6420986095
 31
0.0
 11
-26.6811250575
 21
-14.3909102648
 31
0.0
 11
-26.6910802154
 21
-13.8884441178
 31
0.0
 11
-26.7008932654
 21
-13.3858855584
 31
0.0
 11
-26.7104488265
 21
-12.8832428895
 31
0.0
 11
-26.7282126152
 21
-11.8777659481
 31
0.0
 11
-26.755271105
 21
-9.8671368304
 31
0.0
 11
-26.7707719945
 21
-7.8580900148
 31
0.0
 11
-26.7789483067
 21
-5.8507862827
 31
0.0
 11
-26.7851605172
 21
-3.8440784343
 31
0.0
 11
-26.7952302506
 21
0.1689642202
 31
0.0
 11
-26.8022512858
 21
4.1814974716
 31
0.0
 11
-26.8066025747
 21
8.1935620557
 31
0.0
 11
-26.8093145399
 21
16.2165776834
 31
0.0
  0
LINE
  5
398
100
AcDbEntity
  8
RACCORDO
100
AcDbLine
 62
253
  6
CONTINUOUS
 10
-26.8093145398
 20
16.2165776834
 11
-26.8093148967
 21
16.4316492146
  0
SPLINE
  5
399
100
AcDbEntity
  8
RACCORDO
100
AcDbSpline
 62
253
  6
CONTINUOUS
 70
0
 71
3
 72
26
 73
22
 74
20
 42
0.0000001
 43
0.0000001
 44
0.0000000001
 12
0.0001497399
 22
31.8414616715
 32
0.0
 13
2.1501589216
 23
31.768781815
 33
0.0
 40
0.0
 40
0.0
 40
0.0
 40
0.0
 40
0.2502456651
 40
0.3753510138
 40
0.5004417026
 40
0.6255164451
 40
0.6880478794
 40
0.7505596003
 40
0.8130155045
 40
0.8754201993
 40
0.9066168321
 40
0.9222180433
 40
0.9378217879
 40
0.9534283298
 40
0.9612328274
 40
0.965131043
 40
0.9690425045
 40
0.9767617503
 40
0.9805618505
 40
0.9844055448
 40
1.0
 40
1.0
 40
1.0
 40
1.0
 10
-26.8093148967
 20
16.4316492146
 30
0.0
 10
-26.8093024061
 20
19.0877117992
 30
0.0
 10
-26.8082911722
 20
23.0716205945
 30
0.0
 10
-26.8025016996
 20
28.3832162038
 30
0.0
 10
-26.795521419
 20
32.3662671107
 30
0.0
 10
-26.7871074447
 20
35.6851653837
 30
0.0
 10
-26.7788782533
 20
38.339858854
 30
0.0
 10
-26.7717778365
 20
40.3299286218
 30
0.0
 10
-26.7569191261
 20
42.3186186505
 30
0.0
 10
-26.7342199263
 20
43.9748385501
 30
0.0
 10
-26.713316572
 20
45.1337067688
 30
0.0
 10
-26.7005915875
 20
45.7959038907
 30
0.0
 10
-26.6909022202
 20
46.292657958
 30
0.0
 10
-26.6823798116
 20
46.7066672719
 30
0.0
 10
-26.6770474202
 20
46.9964722763
 30
0.0
 10
-26.6730869621
 20
47.1621552086
 30
0.0
 10
-26.6708350496
 20
47.3269510367
 30
0.0
 10
-26.6662399273
 20
47.4907457086
 30
0.0
 10
-26.6533760729
 20
47.6533151813
 30
0.0
 10
-26.6376184061
 20
47.8994571713
 30
0.0
 10
-26.6238417977
 20
48.1053106968
 30
0.0
 10
-26.6126649453
 20
48.2704496451
 30
0.0
 11
-26.8093148967
 21
16.4316492146
 31
0.0
 11
-26.8064734051
 21
24.399836462
 31
0.0
 11
-26.8020616385
 21
28.3833711858
 31
0.0
 11
-26.7950015179
 21
32.366435301
 31
0.0
 11
-26.7849247726
 21
36.3489851705
 31
0.0
 11
-26.7787222574
 21
38.3400677798
 31
0.0
 11
-26.770480171
 21
40.3305152808
 31
0.0
 11
-26.754848368
 21
42.3191411213
 31
0.0
 11
-26.7277682206
 21
44.3060132827
 31
0.0
 11
-26.7100713137
 21
45.2992020196
 31
0.0
 11
-26.7005681888
 21
45.7958764837
 31
0.0
 11
-26.6908134478
 21
46.2926267505
 31
0.0
 11
-26.6809167
 21
46.789463296
 31
0.0
 11
-26.6759807969
 21
47.0379208822
 31
0.0
 11
-26.6733016962
 21
47.1620168498
 31
0.0
 11
-26.6711862654
 21
47.2865455341
 31
0.0
 11
-26.6622819621
 21
47.5321762628
 31
0.0
 11
-26.6537134004
 21
47.6528732395
 31
0.0
 11
-26.6455632061
 21
47.7749904107
 31
0.0
 11
-26.6126649453
 21
48.2704496451
 31
0.0
  0
SPLINE
  5
39A
100
AcDbEntity
  8
RACCORDO
100
AcDbSpline
 62
253
  6
CONTINUOUS
 70
0
 71
3
 72
14
 73
10
 74
8
 42
0.0000001
 43
0.0000001
 44
0.0000000001
 12
0.1356692577
 22
1.9992702725
 32
0.0
 13
1.7972376249
 23
-0.8862418911
 33
0.0
 40
0.0
 40
0.0
 40
0.0
 40
0.0
 40
0.1507652956
 40
0.2877941641
 40
0.4121249928
 40
0.5269847129
 40
0.6376116369
 40
0.7502477821
 40
1.0
 40
1.0
 40
1.0
 40
1.0
 10
-26.612662548
 20
48.2704504119
 30
0.0
 10
-26.6058444761
 20
48.3709239364
 30
0.0
 10
-26.5791449428
 20
48.5622816003
 30
0.0
 10
-26.4928799764
 20
48.8254980406
 30
0.0
 10
-26.3636240411
 20
49.043841112
 30
0.0
 10
-26.193816263
 20
49.2089644181
 30
0.0
 10
-25.9888801271
 20
49.3124201638
 30
0.0
 10
-25.6726338997
 20
49.3629217856
 30
0.0
 10
-25.4272948744
 20
49.2935258008
 30
0.0
 10
-25.2776735135
 20
49.2197455082
 30
0.0
 11
-26.612662548
 21
48.2704504119
 31
0.0
 11
-26.5686658137
 21
48.5693434103
 31
0.0
 11
-26.4805772655
 21
48.8294181367
 31
0.0
 11
-26.3512025748
 21
49.0423364818
 31
0.0
 11
-26.1847007618
 21
49.2012468145
 31
0.0
 11
-25.9866732885
 21
49.3008858091
 31
0.0
 11
-25.7640111344
 21
49.3378406713
 31
0.0
 11
-25.2776735135
 21
49.2197455082
 31
0.0
  0
SPLINE
  5
39B
100
AcDbEntity
  8
RACCORDO
100
AcDbSpline
 62
253
  6
CONTINUOUS
 70
0
 71
3
 72
16
 73
12
 74
10
 42
0.0000001
 43
0.0000001
 44
0.0000000001
 12
13.10334309
 22
-7.0850558186
 32
0.0
 13
13.3284078847
 23
-6.6520041601
 33
0.0
 40
0.0
 40
0.0
 40
0.0
 40
0.0
 40
0.0621555011
 40
0.1245170376
 40
0.1868566346
 40
0.2491923299
 40
0.3114918374
 40
0.3739018021
 40
0.4987777504
 40
0.7489569442
 40
1.0
 40
1.0
 40
1.0
 40
1.0
 10
-24.5890341822
 20
50.2852642045
 30
0.0
 10
-24.3175525637
 20
50.138472473
 30
0.0
 10
-23.7660202911
 20
49.8588387302
 30
0.0
 10
-22.9410919736
 20
49.4342564477
 30
0.0
 10
-22.1150492132
 20
49.0097879388
 30
0.0
 10
-21.2891497385
 20
48.5857403054
 30
0.0
 10
-20.4640172127
 20
48.1594298604
 30
0.0
 10
-19.3603468445
 20
47.5957350287
 30
0.0
 10
-17.4264455019
 20
46.6065950723
 30
0.0
 10
-14.6551986578
 20
45.1976756927
 30
0.0
 10
-12.4296478302
 20
44.0837089438
 30
0.0
 10
-11.3143130819
 20
43.5270624598
 30
0.0
 11
-24.5890341822
 21
50.2852642045
 31
0.0
 11
-23.7673860674
 21
49.858479587
 31
0.0
 11
-22.9409419385
 21
49.4342938366
 31
0.0
 11
-22.115010198
 21
49.0098257805
 31
0.0
 11
-21.289169536
 21
48.5853076665
 31
0.0
 11
-20.4641743806
 21
48.1603245906
 31
0.0
 11
-19.6365997053
 21
47.7367630244
 31
0.0
 11
-17.9801439002
 21
46.8903618486
 31
0.0
 11
-14.6572703292
 21
45.2030931941
 31
0.0
 11
-11.3143130819
 21
43.5270624598
 31
0.0
  0
LINE
  5
39C
100
AcDbEntity
  8
RACCORDO
100
AcDbLine
 62
253
  6
CONTINUOUS
 10
-11.3143130819
 20
43.5270624598
 11
-11.277002777
 21
43.5084420731
  0
SPLINE
  5
39D
100
AcDbEntity
  8
RACCORDO
100
AcDbSpline
 62
253
  6
CONTINUOUS
 70
0
 71
3
 72
8
 73
4
 74
2
 42
0.0000001
 43
0.0000001
 44
0.0000000001
 12
4.4337016853
 22
-2.2126469246
 32
0.0
 13
4.4321275579
 23
-2.2157983567
 33
0.0
 40
0.0
 40
0.0
 40
0.0
 40
0.0
 40
1.0
 40
1.0
 40
1.0
 40
1.0
 10
-11.277002777
 20
43.5084420731
 30
0.0
 10
-9.7991022153
 20
42.7708930983
 30
0.0
 10
-8.3200176472
 20
42.0357161934
 30
0.0
 10
-6.8426417945
 20
41.2971167412
 30
0.0
 11
-11.277002777
 21
43.5084420731
 31
0.0
 11
-6.8426417945
 21
41.2971167412
 31
0.0
  0
SPLINE
  5
39E
100
AcDbEntity
  8
RACCORDO
100
AcDbSpline
 62
253
  6
CONTINUOUS
 70
0
 71
3
 72
21
 73
17
 74
15
 42
0.0000001
 43
0.0000001
 44
0.0000000001
 12
17.8187733856
 22
-8.7865851199
 32
0.0
 13
17.7696220587
 23
-8.8855666633
 33
0.0
 40
0.0
 40
0.0
 40
0.0
 40
0.0
 40
0.0306195972
 40
0.04615564
 40
0.0616863734
 40
0.0927327926
 40
0.1237651631
 40
0.1547983008
 40
0.1858456791
 40
0.2478640732
 40
0.3101056466
 40
0.3723786852
 40
0.4971538297
 40
0.6224365046
 40
0.7481508969
 40
1.0
 40
1.0
 40
1.0
 40
1.0
 10
-25.2776735234
 20
49.2197455052
 30
0.0
 10
-25.0958056353
 20
49.1300649394
 30
0.0
 10
-24.817172869
 20
49.0041373698
 30
0.0
 10
-24.4519037644
 20
48.8211554439
 30
0.0
 10
-24.0828087939
 20
48.6395837321
 30
0.0
 10
-23.6219530224
 20
48.4120427245
 30
0.0
 10
-23.0687759959
 20
48.13959606
 30
0.0
 10
-22.5150826567
 20
47.8681829485
 30
0.0
 10
-21.7787724658
 20
47.5031161864
 30
0.0
 10
-20.8535719554
 20
47.0538180469
 30
0.0
 10
-19.7455050338
 20
46.5077632577
 30
0.0
 10
-18.2640832006
 20
45.7791371325
 30
0.0
 10
-16.407850257
 20
44.866626011
 30
0.0
 10
-14.1776955096
 20
43.7624324817
 30
0.0
 10
-11.1977077839
 20
42.276120794
 30
0.0
 10
-8.963819022
 20
41.1528419742
 30
0.0
 10
-7.4720645628
 20
40.4069013094
 30
0.0
 11
-25.2776735234
 21
49.2197455052
 31
0.0
 11
-24.7284608263
 21
48.9581500028
 31
0.0
 11
-24.4517099067
 21
48.8214744573
 31
0.0
 11
-24.1750291355
 21
48.6848950939
 31
0.0
 11
-23.6218252604
 21
48.4120924782
 31
0.0
 11
-23.068695467
 21
48.1397710001
 31
0.0
 11
-22.5153724376
 21
47.8678078114
 31
0.0
 11
-21.962283051
 21
47.5947301047
 31
0.0
 11
-20.8554245004
 21
47.0533980183
 31
0.0
 11
-19.7456221386
 21
46.507997913
 31
0.0
 11
-18.6354940647
 21
45.9618434916
 31
0.0
 11
-16.4113836131
 21
44.8670598369
 31
0.0
 11
-14.1807965317
 21
43.7626171818
 31
0.0
 11
-11.9456164564
 21
42.6481427141
 31
0.0
 11
-7.4720645628
 21
40.4069013094
 31
0.0
  0
SPLINE
  5
39F
100
AcDbEntity
  8
RACCORDO
100
AcDbSpline
 62
253
  6
CONTINUOUS
 70
0
 71
3
 72
11
 73
7
 74
5
 42
0.0000001
 43
0.0000001
 44
0.0000000001
 12
-1.1603056142
 22
-0.610634554
 32
0.0
 13
-0.1458714474
 23
-1.3030369134
 33
0.0
 40
0.0
 40
0.0
 40
0.0
 40
0.0
 40
0.2323987208
 40
0.4878019049
 40
0.7497558699
 40
1.0
 40
1.0
 40
1.0
 40
1.0
 10
-24.5890341822
 20
50.2852642045
 30
0.0
 10
-24.6789186957
 20
50.2379606414
 30
0.0
 10
-24.851238025
 20
50.1068846435
 30
0.0
 10
-25.0585781127
 20
49.8499511002
 30
0.0
 10
-25.2102665894
 20
49.548005297
 30
0.0
 10
-25.265505699
 20
49.3284379515
 30
0.0
 10
-25.2776735234
 20
49.2197455052
 30
0.0
 11
-24.5890341822
 21
50.2852642045
 31
0.0
 11
-24.8346178858
 21
50.1048748473
 31
0.0
 11
-25.0468146977
 21
49.8458068712
 31
0.0
 11
-25.2005544752
 21
49.5386680458
 31
0.0
 11
-25.2776735234
 21
49.2197455052
 31
0.0
  0
SPLINE
  5
3A0
100
AcDbEntity
  8
RACCORDO
100
AcDbSpline
 62
253
  6
CONTINUOUS
 70
0
 71
3
 72
9
 73
5
 74
3
 42
0.0000001
 43
0.0000001
 44
0.0000000001
 12
-0.9670803128
 22
-0.545613327
 32
0.0
 13
-0.2722040957
 23
-1.0764957799
 33
0.0
 40
0.0
 40
0.0
 40
0.0
 40
0.0
 40
0.4776944585
 40
1.0
 40
1.0
 40
1.0
 40
1.0
 10
-6.8426059656
 20
41.2970988267
 30
0.0
 10
-6.9965956011
 20
41.2102200058
 30
0.0
 10
-7.2657307733
 20
40.9368628311
 30
0.0
 10
-7.4246733296
 20
40.5943212135
 30
0.0
 10
-7.4720645654
 20
40.4069013097
 30
0.0
 11
-6.8426059656
 21
41.2970988267
 31
0.0
 11
-7.2285792889
 21
40.9332702546
 31
0.0
 11
-7.4720645654
 21
40.4069013097
 31
0.0
  0
SPLINE
  5
3A1
100
AcDbEntity
  8
RACCORDO
100
AcDbSpline
 62
253
  6
CONTINUOUS
 70
0
 71
3
 72
10
 73
6
 74
4
 42
0.0000001
 43
0.0000001
 44
0.0000000001
 12
11.1231226537
 22
-5.5622283606
 32
0.0
 13
11.1694141486
 23
-5.4686771236
 33
0.0
 40
0.0
 40
0.0
 40
0.0
 40
0.0
 40
0.4991160972
 40
0.7491865384
 40
1.0
 40
1.0
 40
1.0
 40
1.0
 10
9.7744392715
 20
32.9885762082
 30
0.0
 10
11.6250157942
 20
32.0631769711
 30
0.0
 10
14.3988125903
 20
30.6662048831
 30
0.0
 10
18.1099852828
 20
28.8190429518
 30
0.0
 10
19.9735346069
 20
27.9032959201
 30
0.0
 10
20.9073477492
 20
27.4460899735
 30
0.0
 11
9.7744392715
 21
32.9885762082
 31
0.0
 11
15.323795339
 21
30.2076371287
 31
0.0
 11
18.1083950004
 21
28.822775076
 31
0.0
 11
20.9073477492
 21
27.4460899735
 31
0.0
  0
SPLINE
  5
3A2
100
AcDbEntity
  8
RACCORDO
100
AcDbSpline
 62
253
  6
CONTINUOUS
 70
0
 71
3
 72
14
 73
10
 74
8
 42
0.0000001
 43
0.0000001
 44
0.0000000001
 12
6.8216390684
 22
-3.3399550793
 32
0.0
 13
6.894610678
 23
-3.186597419
 33
0.0
 40
0.0
 40
0.0
 40
0.0
 40
0.0
 40
0.2496463072
 40
0.3745227995
 40
0.4996136968
 40
0.6246425288
 40
0.749660248
 40
0.8746358339
 40
1.0
 40
1.0
 40
1.0
 40
1.0
 10
20.9073477492
 20
27.4460899735
 30
0.0
 10
21.4750134167
 20
27.1681541562
 30
0.0
 10
22.3268580686
 20
26.7516520011
 30
0.0
 10
23.4629812697
 20
26.1955450112
 30
0.0
 10
24.3175743648
 20
25.7819461684
 30
0.0
 10
25.1715430587
 20
25.3662523354
 30
0.0
 10
26.0253508863
 20
24.9508706124
 30
0.0
 10
26.880133108
 20
24.5356434037
 30
0.0
 10
27.4487552528
 20
24.25547501
 30
0.0
 10
27.7368676256
 20
24.1223133006
 30
0.0
 11
20.9073477492
 21
27.4460899735
 31
0.0
 11
22.610565189
 21
26.612732901
 31
0.0
 11
23.4628015539
 21
26.196415778
 31
0.0
 11
24.3175580034
 21
25.7815543132
 31
0.0
 11
25.1715852983
 21
25.3662707497
 31
0.0
 11
26.0254819451
 21
24.9509115447
 31
0.0
 11
26.8788834321
 21
24.5352662587
 31
0.0
 11
27.7368676256
 21
24.1223133006
 31
0.0
  0
SPLINE
  5
3A3
100
AcDbEntity
  8
RACCORDO
100
AcDbSpline
 62
253
  6
CONTINUOUS
 70
0
 71
3
 72
21
 73
17
 74
15
 42
0.0000001
 43
0.0000001
 44
0.0000000001
 12
17.9910766929
 22
-8.9947735581
 32
0.0
 13
17.9441442016
 23
-9.088040537
 33
0.0
 40
0.0
 40
0.0
 40
0.0
 40
0.0
 40
0.2482048897
 40
0.3725150418
 40
0.4972488629
 40
0.6224753367
 40
0.6851992609
 40
0.7479523227
 40
0.8109186962
 40
0.8423636632
 40
0.8738236485
 40
0.9052842194
 40
0.9367314171
 40
0.9524478616
 40
0.9681592572
 40
1.0
 40
1.0
 40
1.0
 40
1.0
 10
9.1449447922
 20
32.0983966302
 30
0.0
 10
10.6334358607
 20
31.3542143707
 30
0.0
 10
12.8699141009
 20
30.2423162119
 30
0.0
 10
15.8503974781
 20
28.7483691541
 30
0.0
 10
18.0904774595
 20
27.6173849093
 30
0.0
 10
19.9593749965
 20
26.6674218543
 30
0.0
 10
21.4579202666
 20
25.9059687714
 30
0.0
 10
22.5848880539
 20
25.3347416473
 30
0.0
 10
23.5218505642
 20
24.852546087
 30
0.0
 10
24.2755807353
 20
24.4729042922
 30
0.0
 10
24.839266013
 20
24.1855584985
 30
0.0
 10
25.4035260582
 20
23.8993128779
 30
0.0
 10
25.8738623267
 20
23.661237478
 30
0.0
 10
26.2497311976
 20
23.4703588163
 30
0.0
 10
26.6292540595
 20
23.2808158072
 30
0.0
 10
26.9089889845
 20
23.1276451004
 30
0.0
 10
27.0994406116
 20
23.0311884465
 30
0.0
 11
9.1449447922
 21
32.0983966302
 31
0.0
 11
13.6121269459
 21
29.8692713146
 31
0.0
 11
15.8473146971
 21
28.7485616574
 31
0.0
 11
18.0870158271
 21
27.6178619163
 31
0.0
 11
20.3329839913
 21
26.4776022551
 31
0.0
 11
21.4578415508
 21
25.9062445353
 31
0.0
 11
22.5830255331
 21
25.334235464
 31
0.0
 11
23.7108807191
 21
24.7580185113
 31
0.0
 11
24.2752601051
 21
24.4724950163
 31
0.0
 11
24.8393560994
 21
24.1857447984
 31
0.0
 11
25.4036485925
 21
23.8993554298
 31
0.0
 11
25.9678800379
 21
23.613440418
 31
0.0
 11
26.2499230412
 21
23.4706578245
 31
0.0
 11
26.5318989239
 21
23.3279675018
 31
0.0
 11
27.0994406116
 21
23.0311884465
 31
0.0
  0
SPLINE
  5
3A4
100
AcDbEntity
  8
RACCORDO
100
AcDbSpline
 62
253
  6
CONTINUOUS
 70
0
 71
3
 72
9
 73
5
 74
3
 42
0.0000001
 43
0.0000001
 44
0.0000000001
 12
-0.9669826089
 22
-0.5457738498
 32
0.0
 13
-0.2722221779
 23
-1.0764848103
 33
0.0
 40
0.0
 40
0.0
 40
0.0
 40
0.0
 40
0.477691993
 40
1.0
 40
1.0
 40
1.0
 40
1.0
 10
9.7744033923
 20
32.9885941478
 30
0.0
 10
9.6204301091
 20
32.9016902151
 30
0.0
 10
9.3512956547
 20
32.6283544781
 30
0.0
 10
9.1923394
 20
32.2858155088
 30
0.0
 10
9.1449447923
 20
32.0983966302
 30
0.0
 11
9.7744033923
 21
32.9885941478
 31
0.0
 11
9.388444885
 21
32.6247581685
 31
0.0
 11
9.1449447923
 21
32.0983966302
 31
0.0
  0
SPLINE
  5
3A5
100
AcDbEntity
  8
RACCORDO
100
AcDbSpline
 62
253
  6
CONTINUOUS
 70
0
 71
3
 72
11
 73
7
 74
5
 42
0.0000001
 43
0.0000001
 44
0.0000000001
 12
3.6844205522
 22
-1.7519547559
 32
0.0
 13
-0.1158127904
 23
-4.078098536
 33
0.0
 40
0.0
 40
0.0
 40
0.0
 40
0.0
 40
0.2302008927
 40
0.4879486736
 40
0.7522781833
 40
1.0
 40
1.0
 40
1.0
 40
1.0
 10
27.7368676256
 20
24.1223133005
 30
0.0
 10
28.0195865923
 20
23.987879451
 30
0.0
 10
28.5594437192
 20
23.5769162058
 30
0.0
 10
29.1772893852
 20
22.7495326669
 30
0.0
 10
29.5905914558
 20
21.7773274586
 30
0.0
 10
29.6934074633
 20
21.0764327552
 30
0.0
 10
29.6838443451
 20
20.7396880959
 30
0.0
 11
27.7368676256
 21
24.1223133005
 31
0.0
 11
28.4980057986
 21
23.5721397389
 31
0.0
 11
29.1356937031
 21
22.7360176035
 31
0.0
 11
29.5536462698
 21
21.7419077479
 31
0.0
 11
29.6838443451
 21
20.7396880959
 31
0.0
  0
SPLINE
  5
3A6
100
AcDbEntity
  8
RACCORDO
100
AcDbSpline
 62
253
  6
CONTINUOUS
 70
0
 71
3
 72
11
 73
7
 74
5
 42
0.0000001
 43
0.0000001
 44
0.0000000001
 12
2.4422795281
 22
-1.2369091808
 32
0.0
 13
-0.0228521481
 23
-2.7375447749
 33
0.0
 40
0.0
 40
0.0
 40
0.0
 40
0.0
 40
0.231529866
 40
0.4880275153
 40
0.7510378767
 40
1.0
 40
1.0
 40
1.0
 40
1.0
 10
27.0994406106
 20
23.0311884462
 30
0.0
 10
27.2879274946
 20
22.9357279739
 30
0.0
 10
27.6459109704
 20
22.6558990059
 30
0.0
 10
28.0590040409
 20
22.1015048338
 30
0.0
 10
28.3400149831
 20
21.4526058656
 30
0.0
 10
28.4165853552
 20
20.9839563262
 30
0.0
 10
28.4146889155
 20
20.756774673
 30
0.0
 11
27.0994406106
 21
23.0311884462
 31
0.0
 11
27.6074400619
 21
22.6521150729
 31
0.0
 11
28.0320750967
 21
22.0928588799
 31
0.0
 11
28.3159518349
 21
21.4311535645
 31
0.0
 11
28.4146889155
 21
20.756774673
 31
0.0
  0
SPLINE
  5
3A7
100
AcDbEntity
  8
RACCORDO
100
AcDbSpline
 62
253
  6
CONTINUOUS
 70
0
 71
3
 72
11
 73
7
 74
5
 42
0.0000001
 43
0.0000001
 44
0.0000000001
 12
-1.1132935665
 22
-0.6735547625
 32
0.0
 13
-0.1301895556
 23
-1.2946618334
 33
0.0
 40
0.0
 40
0.0
 40
0.0
 40
0.0
 40
0.2276634127
 40
0.4824072428
 40
0.7465565115
 40
1.0
 40
1.0
 40
1.0
 40
1.0
 10
27.73686763
 20
24.1223132013
 30
0.0
 10
27.6523822258
 20
24.0711986094
 30
0.0
 10
27.4916175193
 20
23.9323791441
 30
0.0
 10
27.3004768673
 20
23.6683809557
 30
0.0
 10
27.1609545285
 20
23.3615259427
 30
0.0
 10
27.1104391757
 20
23.1405629833
 30
0.0
 10
27.0994406106
 20
23.0311884462
 30
0.0
 11
27.73686763
 21
24.1223132013
 31
0.0
 11
27.5089394381
 21
23.9330961179
 31
0.0
 11
27.3123122089
 21
23.6662433841
 31
0.0
 11
27.1702166042
 21
23.3532824993
 31
0.0
 11
27.0994406106
 21
23.0311884462
 31
0.0
  0
SPLINE
  5
3A8
100
AcDbEntity
  8
RACCORDO
100
AcDbSpline
 62
253
  6
CONTINUOUS
 70
0
 71
3
 72
11
 73
7
 74
5
 42
0.0000001
 43
0.0000001
 44
0.0000000001
 12
-0.0597457981
 22
-19.2235140533
 32
0.0
 13
0.0001334511
 23
-19.2236068962
 33
0.0
 40
0.0
 40
0.0
 40
0.0
 40
0.0
 40
0.1249905925
 40
0.2499887984
 40
0.4999889071
 40
1.0
 40
1.0
 40
1.0
 40
1.0
 10
15.5065748195
 20
11.9036953507
 30
0.0
 10
15.5040855986
 20
11.1027758803
 30
0.0
 10
15.502770881
 20
9.5008788081
 30
0.0
 10
15.5009423092
 20
6.2970169557
 30
0.0
 10
15.4988721951
 20
0.6900709456
 30
0.0
 10
15.4993074646
 20
-4.1159023847
 30
0.0
 10
15.4993297069
 20
-7.3199079491
 30
0.0
 11
15.5065748195
 21
11.9036953507
 31
0.0
 11
15.502871028
 21
9.5009281896
 31
0.0
 11
15.5014532765
 21
7.0980122354
 31
0.0
 11
15.4997091866
 21
2.2921087368
 31
0.0
 11
15.4993297069
 21
-7.3199079491
 31
0.0
  0
SPLINE
  5
3A9
100
AcDbEntity
  8
RACCORDO
100
AcDbSpline
 62
253
  6
CONTINUOUS
 70
0
 71
3
 72
9
 73
5
 74
3
 42
0.0000001
 43
0.0000001
 44
0.0000000001
 12
1.5992213875
 22
-0.1213894798
 32
0.0
 13
1.4697397192
 23
-0.6419576387
 33
0.0
 40
0.0
 40
0.0
 40
0.0
 40
0.0
 40
0.5221941485
 40
1.0
 40
1.0
 40
1.0
 40
1.0
 10
15.5065748195
 20
11.9036953507
 30
0.0
 10
15.7849428364
 20
11.8825657254
 30
0.0
 10
16.3159024625
 20
11.8046511088
 30
0.0
 10
16.8292591948
 20
11.6435159949
 30
0.0
 10
17.0633426075
 20
11.5412722895
 30
0.0
 11
15.5065748195
 21
11.9036953507
 31
0.0
 11
16.3346707806
 21
11.7784994865
 31
0.0
 11
17.0633426075
 21
11.5412722895
 31
0.0
  0
SPLINE
  5
3AA
100
AcDbEntity
  8
RACCORDO
100
AcDbSpline
 62
253
  6
CONTINUOUS
 70
0
 71
3
 72
13
 73
9
 74
7
 42
0.0000001
 43
0.0000001
 44
0.0000000001
 12
-0.071801018
 22
-19.2184450903
 32
0.0
 13
0.0003060729
 23
-19.2185792134
 33
0.0
 40
0.0
 40
0.0
 40
0.0
 40
0.0
 40
0.1251706456
 40
0.2502654409
 40
0.3753050237
 40
0.5002957076
 40
0.7501797127
 40
1.0
 40
1.0
 40
1.0
 40
1.0
 10
17.0633426075
 20
11.5412722895
 30
0.0
 10
17.0603468142
 20
10.7394105628
 30
0.0
 10
17.0624544513
 20
9.1361529585
 30
0.0
 10
17.0663224801
 20
6.7318835956
 30
0.0
 10
17.0680220371
 20
4.3287593314
 30
0.0
 10
17.0697405549
 20
1.1262128474
 30
0.0
 10
17.0705864198
 20
-2.8757040063
 30
0.0
 10
17.0704053588
 20
-6.0769061225
 30
0.0
 10
17.0704308466
 20
-7.6773031159
 30
0.0
 11
17.0633426075
 21
11.5412722895
 31
0.0
 11
17.0625730838
 21
9.1356704438
 31
0.0
 11
17.0659617132
 21
6.7315285988
 31
0.0
 11
17.0679539101
 21
4.3284462984
 31
0.0
 11
17.0692243866
 21
1.9263032755
 31
0.0
 11
17.0703720307
 21
-2.8761121357
 31
0.0
 11
17.0704308466
 21
-7.6773031159
 31
0.0
  0
SPLINE
  5
3AB
100
AcDbEntity
  8
RACCORDO
100
AcDbSpline
 62
253
  6
CONTINUOUS
 70
0
 71
3
 72
13
 73
9
 74
7
 42
0.0000001
 43
0.0000001
 44
0.0000000001
 12
2.519695614
 22
-1.2404681678
 32
0.0
 13
-0.0220635404
 23
-2.8084053238
 33
0.0
 40
0.0
 40
0.0
 40
0.0
 40
0.0
 40
0.1103959725
 40
0.2301025679
 40
0.3571198539
 40
0.4888654572
 40
0.7536288866
 40
1.0
 40
1.0
 40
1.0
 40
1.0
 10
14.1529668613
 20
14.2346624492
 30
0.0
 10
14.2456882772
 20
14.1890148859
 30
0.0
 10
14.4286556673
 20
14.0725170538
 30
0.0
 10
14.6792417613
 20
13.8497404137
 30
0.0
 10
14.911063824
 20
13.580312946
 30
0.0
 10
15.179129697
 20
13.1686546264
 30
0.0
 10
15.422357781
 20
12.6134425159
 30
0.0
 10
15.5083848095
 20
12.1343308138
 30
0.0
 10
15.5065728698
 20
11.903694165
 30
0.0
 11
14.1529668613
 21
14.2346624492
 31
0.0
 11
14.416301703
 21
14.0710060709
 31
0.0
 11
14.6689334901
 21
13.8491857207
 31
0.0
 11
14.9019024842
 21
13.5790383125
 31
0.0
 11
15.1051668643
 21
13.2698646062
 31
0.0
 11
15.4005110202
 21
12.587448365
 31
0.0
 11
15.5065728698
 21
11.903694165
 31
0.0
  0
SPLINE
  5
3AC
100
AcDbEntity
  8
RACCORDO
100
AcDbSpline
 62
253
  6
CONTINUOUS
 70
0
 71
3
 72
9
 73
5
 74
3
 42
0.0000001
 43
0.0000001
 44
0.0000000001
 12
0.7060288755
 22
1.5033898757
 32
0.0
 13
0.0943938445
 23
1.6582363202
 33
0.0
 40
0.0
 40
0.0
 40
0.0
 40
0.0
 40
0.2594468973
 40
1.0
 40
1.0
 40
1.0
 40
1.0
 10
14.1563648448
 20
14.2329761707
 30
0.0
 10
14.2174238452
 20
14.3629927836
 30
0.0
 10
14.4304498498
 20
14.8739041026
 30
0.0
 10
14.556575822
 20
15.4240957999
 30
0.0
 10
14.5798770401
 20
15.8334331506
 30
0.0
 11
14.1563648448
 21
14.2329761707
 31
0.0
 11
14.3221122419
 21
14.6307455646
 31
0.0
 11
14.5798770401
 21
15.8334331506
 31
0.0
  0
SPLINE
  5
3AD
100
AcDbEntity
  8
RACCORDO
100
AcDbSpline
 62
253
  6
CONTINUOUS
 70
0
 71
3
 72
21
 73
17
 74
15
 42
0.0000001
 43
0.0000001
 44
0.0000000001
 12
4.612889397
 22
-2.3428421907
 32
0.0
 13
-0.0193331636
 23
-5.1737108875
 33
0.0
 40
0.0
 40
0.0
 40
0.0
 40
0.0
 40
0.0543870711
 40
0.1110017154
 40
0.1694803822
 40
0.2301638848
 40
0.4879876373
 40
0.5547379069
 40
0.6214493794
 40
0.6876041753
 40
0.7203130602
 40
0.7526737564
 40
0.7847988139
 40
0.8168760148
 40
0.8798277267
 40
1.0
 40
1.0
 40
1.0
 40
1.0
 10
14.5798770401
 20
15.8334331506
 30
0.0
 10
14.6635042214
 20
15.790959709
 30
0.0
 10
14.8299266429
 20
15.6955254324
 30
0.0
 10
15.0682861531
 20
15.5259941676
 30
0.0
 10
15.3063382979
 20
15.3379408725
 30
0.0
 10
15.7829488402
 20
14.8951594676
 30
0.0
 10
16.1866637462
 20
14.3545226854
 30
0.0
 10
16.5044322993
 20
13.7593070411
 30
0.0
 10
16.6471131553
 20
13.4456768134
 30
0.0
 10
16.7483519905
 20
13.1784686475
 30
0.0
 10
16.8181651389
 20
12.9631495683
 30
0.0
 10
16.8635948922
 20
12.8017690193
 30
0.0
 10
16.9054618998
 20
12.6405959752
 30
0.0
 10
16.9636706368
 20
12.4291245678
 30
0.0
 10
17.0365429019
 20
12.0648931528
 30
0.0
 10
17.0641164996
 20
11.7485175059
 30
0.0
 10
17.0633420629
 20
11.541271973
 30
0.0
 11
14.5798770401
 21
15.8334331506
 31
0.0
 11
14.8241122593
 21
15.6936953751
 31
0.0
 11
15.0642128835
 21
15.5259221098
 31
0.0
 11
15.3007688893
 21
15.3372952969
 31
0.0
 11
15.5312096386
 21
15.1240615588
 31
0.0
 11
16.3386003772
 21
14.062247511
 31
0.0
 11
16.5012141404
 21
13.7575793292
 31
0.0
 11
16.6440497182
 21
13.4433734512
 31
0.0
 11
16.7652861699
 21
13.1232965411
 31
0.0
 11
16.8172881723
 21
12.9622569906
 31
0.0
 11
16.863155522
 21
12.8012362769
 31
0.0
 11
16.9058718026
 21
12.6406123071
 31
0.0
 11
16.9482466507
 21
12.4801539983
 31
0.0
 11
17.0130971209
 21
12.160979357
 31
0.0
 11
17.0633420629
 21
11.541271973
 31
0.0
  0
SPLINE
  5
3AE
100
AcDbEntity
  8
RACCORDO
100
AcDbSpline
 62
253
  6
CONTINUOUS
 70
0
 71
3
 72
9
 73
5
 74
3
 42
0.0000001
 43
0.0000001
 44
0.0000000001
 12
0.719153603
 22
1.5167462141
 32
0.0
 13
0.0888280722
 23
1.6762489541
 33
0.0
 40
0.0
 40
0.0
 40
0.0
 40
0.0
 40
0.5147660189
 40
1.0
 40
1.0
 40
1.0
 40
1.0
 10
6.7629178537
 20
17.9245536439
 30
0.0
 10
6.8863164661
 20
18.1848101139
 30
0.0
 10
7.082353832
 20
18.7123452148
 30
0.0
 10
7.177167015
 20
19.2683941501
 30
0.0
 10
7.1915344813
 20
19.5395184679
 30
0.0
 11
6.7629178537
 21
17.9245536439
 31
0.0
 11
7.0613204205
 21
18.7354801128
 31
0.0
 11
7.1915344813
 21
19.5395184679
 31
0.0
  0
SPLINE
  5
3AF
100
AcDbEntity
  8
RACCORDO
100
AcDbSpline
 62
253
  6
CONTINUOUS
 70
0
 71
3
 72
9
 73
5
 74
3
 42
0.0000001
 43
0.0000001
 44
0.0000000001
 12
0.7191360992
 22
1.5167534874
 32
0.0
 13
0.0888475206
 23
1.6762469951
 33
0.0
 40
0.0
 40
0.0
 40
0.0
 40
0.0
 40
0.5147666293
 40
1.0
 40
1.0
 40
1.0
 40
1.0
 10
-9.8540915042
 20
26.2330583228
 30
0.0
 10
-9.7306957489
 20
26.4933163495
 30
0.0
 10
-9.5346617169
 20
27.0208519085
 30
0.0
 10
-9.4398454705
 20
27.5768994869
 30
0.0
 10
-9.4254748766
 20
27.8480231468
 30
0.0
 11
-9.8540915042
 21
26.2330583228
 31
0.0
 11
-9.555693356
 21
27.043987001
 31
0.0
 11
-9.4254748766
 21
27.8480231468
 31
0.0
  0
SPLINE
  5
3B0
100
AcDbEntity
  8
RACCORDO
100
AcDbSpline
 62
253
  6
CONTINUOUS
 70
0
 71
3
 72
9
 73
5
 74
3
 42
0.0000001
 43
0.0000001
 44
0.0000000001
 12
0.7263241661
 22
1.4884648788
 32
0.0
 13
0.1151543067
 23
1.6522148696
 33
0.0
 40
0.0
 40
0.0
 40
0.0
 40
0.0
 40
0.2599517117
 40
1.0
 40
1.0
 40
1.0
 40
1.0
 10
-17.2435344306
 20
29.9329151531
 30
0.0
 10
-17.1805980272
 20
30.0618914841
 30
0.0
 10
-16.9605980455
 20
30.5681099822
 30
0.0
 10
-16.8267291224
 20
31.1149816065
 30
0.0
 10
-16.7983225399
 20
31.5225545352
 30
0.0
 11
-17.2435344306
 21
29.9329151531
 31
0.0
 11
-17.0720395806
 21
30.3278233449
 31
0.0
 11
-16.7983225399
 21
31.5225545352
 31
0.0
  0
SPLINE
  5
3B1
100
AcDbEntity
  8
RACCORDO
100
AcDbSpline
 62
253
  6
CONTINUOUS
 70
0
 71
3
 72
15
 73
11
 74
9
 42
0.0000001
 43
0.0000001
 44
0.0000000001
 12
-0.0035811154
 22
2.0868715821
 32
0.0
 13
1.860716645
 23
-0.9448700394
 33
0.0
 40
0.0
 40
0.0
 40
0.0
 40
0.0
 40
0.1490566979
 40
0.283297061
 40
0.4051875225
 40
0.5185815719
 40
0.6289187059
 40
0.7422962151
 40
0.8648767942
 40
1.0
 40
1.0
 40
1.0
 40
1.0
 10
-18.5917655376
 20
28.9528820705
 30
0.0
 10
-18.5919434673
 20
29.0565694662
 30
0.0
 10
-18.5774222515
 20
29.2542977284
 30
0.0
 10
-18.5021121192
 20
29.5280365651
 30
0.0
 10
-18.3771815632
 20
29.7559267214
 30
0.0
 10
-18.205477838
 20
29.9291790675
 30
0.0
 10
-17.993417245
 20
30.0388803014
 30
0.0
 10
-17.7511578243
 20
30.0741321414
 30
0.0
 10
-17.4927324307
 20
30.039261907
 30
0.0
 10
-17.3239958053
 20
29.9737976516
 30
0.0
 10
-17.2401871392
 20
29.9312396953
 30
0.0
 11
-18.5917655376
 21
28.9528820705
 31
0.0
 11
-18.5661060898
 21
29.2628845895
 31
0.0
 11
-18.4891070773
 21
29.5322377906
 31
0.0
 11
-18.3642869942
 21
29.7538773675
 31
0.0
 11
-18.1963579522
 21
29.9206044877
 31
0.0
 11
-17.9914923202
 21
30.0257217258
 31
0.0
 11
-17.7577683747
 21
30.0625303916
 31
0.0
 11
-17.5038953015
 21
30.0311078808
 31
0.0
 11
-17.2401871392
 21
29.9312396953
 31
0.0
  0
SPLINE
  5
3B2
100
AcDbEntity
  8
RACCORDO
100
AcDbSpline
 62
253
  6
CONTINUOUS
 70
0
 71
3
 72
10
 73
6
 74
4
 42
0.0000001
 43
0.0000001
 44
0.0000000001
 12
-0.2660474487
 22
1.0107108853
 32
0.0
 13
-0.9061893988
 23
0.5207096236
 33
0.0
 40
0.0
 40
0.0
 40
0.0
 40
0.0
 40
0.4452577971
 40
0.7076677719
 40
1.0
 40
1.0
 40
1.0
 40
1.0
 10
-18.59176554
 20
28.9528820411
 30
0.0
 10
-18.631252107
 20
29.1028910085
 30
0.0
 10
-18.7686997162
 20
29.3220072521
 30
0.0
 10
-19.0278575855
 20
29.5546835131
 30
0.0
 10
-19.1901623121
 20
29.661472298
 30
0.0
 10
-19.2784651008
 20
29.7122123662
 30
0.0
 11
-18.59176554
 21
28.9528820411
 31
0.0
 11
-18.8224042894
 21
29.357063536
 31
0.0
 11
-19.0242512266
 21
29.5427345232
 31
0.0
 11
-19.2784651008
 21
29.7122123662
 31
0.0
  0
SPLINE
  5
3B3
100
AcDbEntity
  8
RACCORDO
100
AcDbSpline
 62
253
  6
CONTINUOUS
 70
0
 71
3
 72
21
 73
17
 74
15
 42
0.0000001
 43
0.0000001
 44
0.0000000001
 12
0.0269770607
 22
3.8650579848
 32
0.0
 13
3.4656609072
 23
-1.7113139584
 33
0.0
 40
0.0
 40
0.0
 40
0.0
 40
0.0
 40
0.1480468767
 40
0.2163730043
 40
0.2489696093
 40
0.281594024
 40
0.3137360648
 40
0.3450240722
 40
0.4052587276
 40
0.5185701053
 40
0.6288079912
 40
0.7421920869
 40
0.8023956223
 40
0.8655935904
 40
0.9313417513
 40
1.0
 40
1.0
 40
1.0
 40
1.0
 10
-19.2784651008
 20
29.7122123662
 30
0.0
 10
-19.2771338109
 20
29.9029489538
 30
0.0
 10
-19.2542300503
 20
30.1823402176
 30
0.0
 10
-19.1850934314
 20
30.4963521455
 30
0.0
 10
-19.1297479248
 20
30.6593503974
 30
0.0
 10
-19.0922739201
 20
30.7790589284
 30
0.0
 10
-19.0493413333
 20
30.8952309726
 30
0.0
 10
-18.9832217451
 20
31.0403446946
 30
0.0
 10
-18.8490248253
 20
31.2684048853
 30
0.0
 10
-18.5907615579
 20
31.5377528967
 30
0.0
 10
-18.1930652497
 20
31.7314954039
 30
0.0
 10
-17.8246798219
 20
31.7805125196
 30
0.0
 10
-17.5198536556
 20
31.7553633866
 30
0.0
 10
-17.2811768881
 20
31.7039227997
 30
0.0
 10
-17.0369993739
 20
31.6306933546
 30
0.0
 10
-16.8776444463
 20
31.5617189709
 30
0.0
 10
-16.7983290434
 20
31.5225536977
 30
0.0
 11
-19.2784651008
 21
29.7122123662
 31
0.0
 11
-19.2283847457
 21
30.2822403672
 31
0.0
 11
-19.168846576
 21
30.5395324153
 31
0.0
 11
-19.1302406537
 21
30.6594627025
 31
0.0
 11
-19.0910681947
 21
30.7793222297
 31
0.0
 11
-19.0475310887
 21
30.8956776194
 31
0.0
 11
-18.9974099134
 21
31.0057350412
 31
0.0
 11
-18.8784685542
 21
31.2058757235
 31
0.0
 11
-18.5724415498
 21
31.5191829819
 31
0.0
 11
-18.1903887092
 21
31.7078230525
 31
0.0
 11
-17.7564386482
 21
31.7690405672
 31
0.0
 11
-17.5244578078
 21
31.7508132329
 31
0.0
 11
-17.2852048596
 21
31.7015614009
 31
0.0
 11
-17.0422056647
 21
31.6271857163
 31
0.0
 11
-16.7983290434
 21
31.5225536977
 31
0.0
  0
SPLINE
  5
3B4
100
AcDbEntity
  8
RACCORDO
100
AcDbSpline
 62
253
  6
CONTINUOUS
 70
0
 71
3
 72
11
 73
7
 74
5
 42
0.0000001
 43
0.0000001
 44
0.0000000001
 12
0.0000181517
 22
19.2277230274
 32
0.0
 13
-0.0213890958
 23
19.2277111307
 33
0.0
 40
0.0
 40
0.0
 40
0.0
 40
0.0
 40
0.4999157464
 40
0.7499140267
 40
0.8749273481
 40
1.0
 40
1.0
 40
1.0
 40
1.0
 10
-18.5908067053
 20
9.7251601133
 30
0.0
 10
-18.5908036805
 20
12.9292406163
 30
0.0
 10
-18.5908553145
 20
17.7356202634
 30
0.0
 10
-18.590878063
 20
23.3432407035
 30
0.0
 10
-18.5915268572
 20
26.5484008774
 30
0.0
 10
-18.5908712876
 20
28.1512628058
 30
0.0
 10
-18.5917630179
 20
28.9528830793
 30
0.0
 11
-18.5908067053
 21
9.7251601133
 31
0.0
 11
-18.590858241
 21
19.3374016221
 31
0.0
 11
-18.5910931981
 21
24.1442993069
 31
0.0
 11
-18.5912818906
 21
26.5480208189
 31
0.0
 11
-18.5917630179
 21
28.9528830793
 31
0.0
  0
SPLINE
  5
3B5
100
AcDbEntity
  8
RACCORDO
100
AcDbSpline
 62
253
  6
CONTINUOUS
 70
0
 71
3
 72
10
 73
6
 74
4
 42
0.0000001
 43
0.0000001
 44
0.0000000001
 12
-0.2844948597
 22
1.0459300292
 32
0.0
 13
-0.9410902991
 23
0.5378252504
 33
0.0
 40
0.0
 40
0.0
 40
0.0
 40
0.0
 40
0.4464058945
 40
0.7086545533
 40
1.0
 40
1.0
 40
1.0
 40
1.0
 10
-18.5908067053
 20
9.7251601133
 30
0.0
 10
-18.6331400994
 20
9.8807965567
 30
0.0
 10
-18.7766850238
 20
10.1075476992
 30
0.0
 10
-19.0460006897
 20
10.3483052611
 30
0.0
 10
-19.2142029543
 20
10.4584798791
 30
0.0
 10
-19.3055970788
 20
10.5107108583
 30
0.0
 11
-18.5908067053
 21
9.7251601133
 31
0.0
 11
-18.8327600559
 21
10.1441970391
 31
0.0
 11
-19.0424531151
 21
10.336114452
 31
0.0
 11
-19.3055970788
 21
10.5107108583
 31
0.0
  0
SPLINE
  5
3B6
100
AcDbEntity
  8
RACCORDO
100
AcDbSpline
 62
253
  6
CONTINUOUS
 70
0
 71
3
 72
12
 73
8
 74
6
 42
0.0000001
 43
0.0000001
 44
0.0000000001
 12
-0.0001268684
 22
19.2015397071
 32
0.0
 13
0.1342237755
 23
19.2010705722
 33
0.0
 40
0.0
 40
0.0
 40
0.0
 40
0.0
 40
0.2500445732
 40
0.5000607894
 40
0.7500219576
 40
0.8749568009
 40
1.0
 40
1.0
 40
1.0
 40
1.0
 10
-19.3055970788
 20
10.5107108583
 30
0.0
 10
-19.3056076531
 20
12.1111244589
 30
0.0
 10
-19.3062263186
 20
15.3117703839
 30
0.0
 10
-19.3042218249
 20
20.1122948331
 30
0.0
 10
-19.2985836199
 20
24.1120541516
 30
0.0
 10
-19.2881683904
 20
27.3119017551
 30
0.0
 10
-19.2840597006
 20
28.9118912651
 30
0.0
 10
-19.2784651105
 20
29.7122123621
 30
0.0
 11
-19.3055970788
 21
10.5107108583
 31
0.0
 11
-19.3057375188
 21
15.3119516581
 31
0.0
 11
-19.303427812
 21
20.1126474054
 31
0.0
 11
-19.2954872158
 21
24.9122801322
 31
0.0
 11
-19.2884451848
 21
27.3112111506
 31
0.0
 11
-19.2784651105
 21
29.7122123621
 31
0.0
  0
SPLINE
  5
3B7
100
AcDbEntity
  8
RACCORDO
100
AcDbSpline
 62
253
  6
CONTINUOUS
 70
0
 71
3
 72
11
 73
7
 74
5
 42
0.0000001
 43
0.0000001
 44
0.0000000001
 12
0.0215960239
 22
19.2204469229
 32
0.0
 13
-0.000018147
 23
19.2204590555
 33
0.0
 40
0.0
 40
0.0
 40
0.0
 40
0.0
 40
0.1249270877
 40
0.2499137711
 40
0.499915549
 40
1.0
 40
1.0
 40
1.0
 40
1.0
 10
-18.5917630846
 20
-9.4952987977
 30
0.0
 10
-18.5908637751
 20
-8.6949139785
 30
0.0
 10
-18.5915301949
 20
-7.0937608445
 30
0.0
 10
-18.590875803
 20
-3.8908924032
 30
0.0
 10
-18.5908567873
 20
1.7155421625
 30
0.0
 10
-18.5908035586
 20
6.5212092916
 30
0.0
 10
-18.5908065836
 20
9.7251601962
 30
0.0
 11
-18.5917630846
 21
-9.4952987977
 31
0.0
 11
-18.5912817649
 21
-7.0941428725
 31
0.0
 11
-18.591093075
 21
-4.6918414492
 31
0.0
 11
-18.5908581194
 21
0.1133074823
 31
0.0
 11
-18.5908065836
 21
9.7251601962
 31
0.0
  0
SPLINE
  5
3B8
100
AcDbEntity
  8
RACCORDO
100
AcDbSpline
 62
253
  6
CONTINUOUS
 70
0
 71
3
 72
10
 73
6
 74
4
 42
0.0000001
 43
0.0000001
 44
0.0000000001
 12
-0.2617123976
 22
1.0415396919
 32
0.0
 13
-0.9186688418
 23
0.5561886982
 33
0.0
 40
0.0
 40
0.0
 40
0.0
 40
0.0
 40
0.4493862116
 40
0.7108097029
 40
1.0
 40
1.0
 40
1.0
 40
1.0
 10
-18.5917630846
 20
-9.4952987977
 30
0.0
 10
-18.6309663989
 20
-9.3392809389
 30
0.0
 10
-18.7668570712
 20
-9.1102725965
 30
0.0
 10
-19.0270646002
 20
-8.864332173
 30
0.0
 10
-19.1899087277
 20
-8.7514578081
 30
0.0
 10
-19.2784654328
 20
-8.6978430165
 30
0.0
 11
-18.5917630846
 21
-9.4952987977
 31
0.0
 11
-18.8224034387
 21
-9.07137513
 31
0.0
 11
-19.024251026
 21
-8.8762430122
 31
0.0
 11
-19.2784654328
 21
-8.6978430165
 31
0.0
  0
SPLINE
  5
3B9
100
AcDbEntity
  8
RACCORDO
100
AcDbSpline
 62
253
  6
CONTINUOUS
 70
0
 71
3
 72
12
 73
8
 74
6
 42
0.0000001
 43
0.0000001
 44
0.0000000001
 12
-0.1345817054
 22
19.2081205046
 32
0.0
 13
0.0001268957
 23
19.2085919718
 33
0.0
 40
0.0
 40
0.0
 40
0.0
 40
0.0
 40
0.1249569923
 40
0.2500221514
 40
0.5000609327
 40
0.7500446355
 40
1.0
 40
1.0
 40
1.0
 40
1.0
 10
-19.2784654328
 20
-8.6978430165
 30
0.0
 10
-19.2840710745
 20
-7.8977800279
 30
0.0
 10
-19.2881714101
 20
-6.2969203564
 30
0.0
 10
-19.2985799463
 20
-3.0951181579
 30
0.0
 10
-19.3042213945
 20
0.9072333482
 30
0.0
 10
-19.306226049
 20
5.7092384881
 30
0.0
 10
-19.30560749
 20
8.9102805637
 30
0.0
 10
-19.3055969173
 20
10.510710766
 30
0.0
 11
-19.2784654328
 21
-8.6978430165
 31
0.0
 11
-19.2884453373
 21
-6.2976158851
 31
0.0
 11
-19.2954870738
 21
-3.8953005936
 31
0.0
 11
-19.3034276684
 21
0.9075857692
 31
0.0
 11
-19.3057373514
 21
5.7094201609
 31
0.0
 11
-19.3055969173
 21
10.510710766
 31
0.0
  0
SPLINE
  5
3BA
100
AcDbEntity
  8
RACCORDO
100
AcDbSpline
 62
253
  6
CONTINUOUS
 70
0
 71
3
 72
11
 73
7
 74
5
 42
0.0000001
 43
0.0000001
 44
0.0000000001
 12
-2.5124052843
 22
1.2526998639
 32
0.0
 13
0.0048888866
 23
2.8073855026
 33
0.0
 40
0.0
 40
0.0
 40
0.0
 40
0.0
 40
0.2297018764
 40
0.4881903633
 40
0.7531165177
 40
1.0
 40
1.0
 40
1.0
 40
1.0
 10
-17.2401949315
 20
-11.8272857989
 30
0.0
 10
-17.4325630008
 20
-11.7313699625
 30
0.0
 10
-17.7998229161
 20
-11.4438462359
 30
0.0
 10
-18.2241558136
 20
-10.8735123562
 30
0.0
 10
-18.5122100854
 20
-10.2061276334
 30
0.0
 10
-18.5921678358
 20
-9.7263321679
 30
0.0
 10
-18.5917655073
 20
-9.4952997982
 30
0.0
 11
-17.2401949315
 21
-11.8272857989
 31
0.0
 11
-17.757756172
 21
-11.4426063761
 31
0.0
 11
-18.1963400607
 21
-10.8644605188
 31
0.0
 11
-18.4890997913
 21
-10.180752065
 31
0.0
 11
-18.5917655073
 21
-9.4952997982
 31
0.0
  0
SPLINE
  5
3BB
100
AcDbEntity
  8
RACCORDO
100
AcDbSpline
 62
253
  6
CONTINUOUS
 70
0
 71
3
 72
9
 73
5
 74
3
 42
0.0000001
 43
0.0000001
 44
0.0000000001
 12
0.8576661626
 22
-0.9313862
 32
0.0
 13
0.0902550766
 23
-1.2629036072
 33
0.0
 40
0.0
 40
0.0
 40
0.0
 40
0.0
 40
0.4649055901
 40
1.0
 40
1.0
 40
1.0
 40
1.0
 10
-17.2435828542
 20
-11.8255944274
 30
0.0
 10
-17.1106715897
 20
-11.9699299777
 30
0.0
 10
-16.8960107271
 20
-12.3473797205
 30
0.0
 10
-16.8177803882
 20
-12.7680872983
 30
0.0
 10
-16.8016820593
 20
-12.9933448518
 30
0.0
 11
-17.2435828542
 21
-11.8255944274
 31
0.0
 11
-16.9405652322
 21
-12.3302365962
 31
0.0
 11
-16.8016820593
 21
-12.9933448518
 31
0.0
  0
SPLINE
  5
3BC
100
AcDbEntity
  8
RACCORDO
100
AcDbSpline
 62
253
  6
CONTINUOUS
 70
0
 71
3
 72
23
 73
19
 74
17
 42
0.0000001
 43
0.0000001
 44
0.0000000001
 12
-4.6062876271
 22
2.381968129
 32
0.0
 13
-0.0362996974
 23
5.1855896678
 33
0.0
 40
0.0
 40
0.0
 40
0.0
 40
0.0
 40
0.1108653207
 40
0.1694293191
 40
0.230067875
 40
0.292585783
 40
0.3567277462
 40
0.4220737056
 40
0.4882617961
 40
0.5548628969
 40
0.6214264718
 40
0.6874854238
 40
0.7201852735
 40
0.7525768989
 40
0.7847876263
 40
0.8169793789
 40
0.8800897176
 40
1.0
 40
1.0
 40
1.0
 40
1.0
 10
-16.8016820593
 20
-12.9933448518
 30
0.0
 10
-16.9719079109
 20
-12.905318965
 30
0.0
 10
-17.2185813511
 20
-12.7447078704
 30
0.0
 10
-17.5325321406
 20
-12.5004434998
 30
0.0
 10
-17.7638812593
 20
-12.287351632
 30
0.0
 10
-17.9851721353
 20
-12.0507004185
 30
0.0
 10
-18.1959639324
 20
-11.794086911
 30
0.0
 10
-18.3952697379
 20
-11.5205184035
 30
0.0
 10
-18.5772550192
 20
-11.2300505477
 30
0.0
 10
-18.740534332
 20
-10.926304459
 30
0.0
 10
-18.8825242191
 20
-10.6122634311
 30
0.0
 10
-18.9817210991
 20
-10.3439881134
 30
0.0
 10
-19.0488886815
 20
-10.1274099181
 30
0.0
 10
-19.0918901289
 20
-9.9647604976
 30
0.0
 10
-19.1302269899
 20
-9.8019008313
 30
0.0
 10
-19.182584064
 20
-9.5877604029
 30
0.0
 10
-19.2496314712
 20
-9.2216262586
 30
0.0
 10
-19.2770151732
 20
-8.9051118008
 30
0.0
 10
-19.2784660755
 20
-8.6978432937
 30
0.0
 11
-16.8016820593
 21
-12.9933448518
 31
0.0
 11
-17.288103456
 21
-12.6868765819
 31
0.0
 11
-17.52706863
 21
-12.4994543534
 31
0.0
 11
-17.7587532982
 21
-12.2868425771
 31
0.0
 11
-17.9806721244
 21
-12.0505000743
 31
0.0
 11
-18.1921228539
 21
-11.7937394508
 31
0.0
 11
-18.3911636782
 21
-11.5194901701
 31
0.0
 11
-18.5735949213
 21
-11.228754002
 31
0.0
 11
-18.7370231875
 21
-10.9244930832
 31
0.0
 11
-18.8791189028
 21
-10.6099172864
 31
0.0
 11
-18.9978541951
 21
-10.2885898097
 31
0.0
 11
-19.0478932623
 21
-10.1265687982
 31
0.0
 11
-19.0912250765
 21
-9.9642803231
 31
0.0
 11
-19.1304686876
 21
-9.8019200245
 31
0.0
 11
-19.1688116258
 21
-9.6394457666
 31
0.0
 11
-19.2284122619
 21
-9.3176462205
 31
0.0
 11
-19.2784660755
 21
-8.6978432937
 31
0.0
  0
SPLINE
  5
3BD
100
AcDbEntity
  8
RACCORDO
100
AcDbSpline
 62
253
  6
CONTINUOUS
 70
0
 71
3
 72
9
 73
5
 74
3
 42
0.0000001
 43
0.0000001
 44
0.0000000001
 12
-7.3889737079
 22
3.6946030199
 32
0.0
 13
-7.3939819526
 23
3.6845698277
 33
0.0
 40
0.0
 40
0.0
 40
0.0
 40
0.0
 40
0.500161744
 40
1.0
 40
1.0
 40
1.0
 40
1.0
 10
-9.8540915067
 20
-15.5191497807
 30
0.0
 10
-11.0859854987
 20
-14.9031834174
 30
0.0
 10
-13.5491919399
 20
-13.6720807307
 30
0.0
 10
-16.0116545417
 20
-12.4394853927
 30
0.0
 10
-17.2435862231
 20
-11.8255890738
 30
0.0
 11
-9.8540915067
 21
-15.5191497807
 31
0.0
 11
-13.5498026774
 21
-13.6713090795
 31
0.0
 11
-17.2435862231
 21
-11.8255890738
 31
0.0
  0
SPLINE
  5
3BE
100
AcDbEntity
  8
RACCORDO
100
AcDbSpline
 62
253
  6
CONTINUOUS
 70
0
 71
3
 72
9
 73
5
 74
3
 42
0.0000001
 43
0.0000001
 44
0.0000000001
 12
0.8566772052
 22
-0.9501810217
 32
0.0
 13
0.0715088705
 23
-1.2773512788
 33
0.0
 40
0.0
 40
0.0
 40
0.0
 40
0.0
 40
0.4635656413
 40
1.0
 40
1.0
 40
1.0
 40
1.0
 10
-9.8540915042
 20
-15.5191497835
 30
0.0
 10
-9.7217161315
 20
-15.6659735418
 30
0.0
 10
-9.5103821649
 20
-16.0508182033
 30
0.0
 10
-9.4382614816
 20
-16.4770929419
 30
0.0
 10
-9.4254748766
 20
-16.7054979799
 30
0.0
 11
-9.8540915042
 21
-15.5191497835
 31
0.0
 11
-9.5556977745
 21
-16.0316781042
 31
0.0
 11
-9.4254748766
 21
-16.7054979799
 31
0.0
  0
SPLINE
  5
3BF
100
AcDbEntity
  8
RACCORDO
100
AcDbSpline
 62
253
  6
CONTINUOUS
 70
0
 71
3
 72
10
 73
6
 74
4
 42
0.0000001
 43
0.0000001
 44
0.0000000001
 12
-7.3856229103
 22
3.6934448918
 32
0.0
 13
-7.3444203057
 23
3.7747120838
 33
0.0
 40
0.0
 40
0.0
 40
0.0
 40
0.0
 40
0.4998445821
 40
0.7498670334
 40
1.0
 40
1.0
 40
1.0
 40
1.0
 10
-9.4254748753
 20
-16.7054979956
 30
0.0
 10
-10.6560294077
 20
-16.0901151895
 30
0.0
 10
-12.5027057349
 20
-15.1681045931
 30
0.0
 10
-14.9614599286
 20
-13.9307415718
 30
0.0
 10
-16.1893205442
 20
-13.3080765995
 30
0.0
 10
-16.8016810905
 20
-12.9933499556
 30
0.0
 11
-9.4254748753
 21
-16.7054979956
 31
0.0
 11
-13.1166303708
 21
-14.858333897
 31
0.0
 11
-14.9607137545
 21
-13.9299309498
 31
0.0
 11
-16.8016810905
 21
-12.9933499556
 31
0.0
  0
SPLINE
  5
3C0
100
AcDbEntity
  8
RACCORDO
100
AcDbSpline
 62
253
  6
CONTINUOUS
 70
0
 71
3
 72
9
 73
5
 74
3
 42
0.0000001
 43
0.0000001
 44
0.0000000001
 12
0.8566840709
 22
-0.9501763462
 32
0.0
 13
0.0714940817
 23
-1.2773532333
 33
0.0
 40
0.0
 40
0.0
 40
0.0
 40
0.0
 40
0.4635684638
 40
1.0
 40
1.0
 40
1.0
 40
1.0
 10
6.7629178537
 20
-23.8276544625
 30
0.0
 10
6.8952950933
 20
-23.9744783922
 30
0.0
 10
7.1066321593
 20
-24.3593222708
 30
0.0
 10
7.178750588
 20
-24.7855984731
 30
0.0
 10
7.1915344813
 20
-25.0140026589
 30
0.0
 11
6.7629178537
 21
-23.8276544625
 31
0.0
 11
7.0613160019
 21
-24.3401849924
 31
0.0
 11
7.1915344813
 21
-25.0140026589
 31
0.0
  0
SPLINE
  5
3C1
100
AcDbEntity
  8
RACCORDO
100
AcDbSpline
 62
253
  6
CONTINUOUS
 70
0
 71
3
 72
9
 73
5
 74
3
 42
0.0000001
 43
0.0000001
 44
0.0000000001
 12
-7.3888933454
 22
3.7068623566
 32
0.0
 13
-7.3939127903
 23
3.696840144
 33
0.0
 40
0.0
 40
0.0
 40
0.0
 40
0.0
 40
0.5001613722
 40
1.0
 40
1.0
 40
1.0
 40
1.0
 10
14.1563094326
 20
-27.5255369026
 30
0.0
 10
12.9244297543
 20
-26.907527115
 30
0.0
 10
10.4592605729
 20
-25.6763065112
 30
0.0
 10
7.9948390303
 20
-24.4435955953
 30
0.0
 10
6.7629179559
 20
-23.827654427
 30
0.0
 11
14.1563094326
 21
-27.5255369026
 31
0.0
 11
10.4586519837
 21
-25.6755363231
 31
0.0
 11
6.7629179559
 21
-23.827654427
 31
0.0
  0
SPLINE
  5
3C2
100
AcDbEntity
  8
RACCORDO
100
AcDbSpline
 62
253
  6
CONTINUOUS
 70
0
 71
3
 72
9
 73
5
 74
3
 42
0.0000001
 43
0.0000001
 44
0.0000000001
 12
0.8378962995
 22
-0.9253923314
 32
0.0
 13
0.0730639243
 23
-1.2462274426
 33
0.0
 40
0.0
 40
0.0
 40
0.0
 40
0.0
 40
0.4629832826
 40
1.0
 40
1.0
 40
1.0
 40
1.0
 10
14.1563094326
 20
-27.5255369026
 30
0.0
 10
14.2856200923
 20
-27.668350629
 30
0.0
 10
14.4923729564
 20
-28.0436183144
 30
0.0
 10
14.5634085678
 20
-28.4593996934
 30
0.0
 10
14.5764874174
 20
-28.6824813501
 30
0.0
 11
14.1563094326
 21
-27.5255369026
 31
0.0
 11
14.4479748609
 21
-28.0245202115
 31
0.0
 11
14.5764874174
 21
-28.6824813501
 31
0.0
  0
LINE
  5
3C3
100
AcDbEntity
  8
RACCORDO
100
AcDbLine
 62
253
  6
CONTINUOUS
 10
12.0945440868
 20
-27.4604791179
 11
12.0485486159
 21
-27.4376592434
  0
SPLINE
  5
3C4
100
AcDbEntity
  8
RACCORDO
100
AcDbSpline
 62
253
  6
CONTINUOUS
 70
0
 71
3
 72
8
 73
4
 74
2
 42
0.0000001
 43
0.0000001
 44
0.0000000001
 12
-1.3079500603
 22
0.6489769956
 32
0.0
 13
-1.3068510679
 23
0.6511872139
 33
0.0
 40
0.0
 40
0.0
 40
0.0
 40
0.0
 40
1.0
 40
1.0
 40
1.0
 40
1.0
 10
12.0485486159
 20
-27.4376592434
 30
0.0
 10
11.6125652625
 20
-27.2213335782
 30
0.0
 10
11.1768039282
 20
-27.0045602377
 30
0.0
 10
10.7411869056
 20
-26.787497833
 30
0.0
 11
12.0485486159
 21
-27.4376592434
 31
0.0
 11
10.7411869056
 21
-26.787497833
 31
0.0
  0
LINE
  5
3C5
100
AcDbEntity
  8
RACCORDO
100
AcDbLine
 62
253
  6
CONTINUOUS
 10
10.7411869056
 20
-26.787497833
 11
10.6213688374
 21
-26.7277849214
  0
LINE
  5
3C6
100
AcDbEntity
  8
RACCORDO
100
AcDbLine
 62
253
  6
CONTINUOUS
 10
10.6213688374
 20
-26.7277849214
 11
9.8859062008
 21
-26.3608986383
  0
LINE
  5
3C7
100
AcDbEntity
  8
RACCORDO
100
AcDbLine
 62
253
  6
CONTINUOUS
 10
9.8859062008
 20
-26.3608986383
 11
9.8630901574
 21
-26.3495080609
  0
LINE
  5
3C8
100
AcDbEntity
  8
RACCORDO
100
AcDbLine
 62
253
  6
CONTINUOUS
 10
9.8630901574
 20
-26.3495080609
 11
9.2001401776
 21
-26.0183556971
  0
LINE
  5
3C9
100
AcDbEntity
  8
RACCORDO
100
AcDbLine
 62
253
  6
CONTINUOUS
 10
9.2001401776
 20
-26.0183556971
 11
7.885537281
 21
-25.3610374593
  0
LINE
  5
3CA
100
AcDbEntity
  8
RACCORDO
100
AcDbLine
 62
253
  6
CONTINUOUS
 10
7.885537281
 20
-25.3610374593
 11
7.8547393916
 21
-25.3456346447
  0
LINE
  5
3CB
100
AcDbEntity
  8
RACCORDO
100
AcDbLine
 62
253
  6
CONTINUOUS
 10
7.8547393916
 20
-25.3456346447
 11
7.1915344742
 21
-25.0140025245
  0
SPLINE
  5
3CC
100
AcDbEntity
  8
RACCORDO
100
AcDbSpline
 62
253
  6
CONTINUOUS
 70
0
 71
3
 72
15
 73
11
 74
9
 42
0.0000001
 43
0.0000001
 44
0.0000000001
 12
0.0163492215
 22
-2.0878192071
 32
0.0
 13
-1.8663894405
 23
0.9358668683
 33
0.0
 40
0.0
 40
0.0
 40
0.0
 40
0.0
 40
0.1489540137
 40
0.2844049706
 40
0.4073241595
 40
0.5207348559
 40
0.6301627323
 40
0.7431014935
 40
0.8650724738
 40
1.0
 40
1.0
 40
1.0
 40
1.0
 10
15.5065730009
 20
-26.5444876533
 30
0.0
 10
15.5073847616
 20
-26.6481506703
 30
0.0
 10
15.4930383227
 20
-26.8470117905
 30
0.0
 10
15.4133176182
 20
-27.1212818902
 30
0.0
 10
15.2863920348
 20
-27.3497369196
 30
0.0
 10
15.1148517883
 20
-27.5233897313
 30
0.0
 10
14.9035172984
 20
-27.6327537582
 30
0.0
 10
14.6624329735
 20
-27.6675877244
 30
0.0
 10
14.4047814911
 20
-27.6319650101
 30
0.0
 10
14.2369017016
 20
-27.5659543472
 30
0.0
 10
14.1529592649
 20
-27.5238629468
 30
0.0
 11
15.5065730009
 21
-26.5444876533
 31
0.0
 11
15.4810238812
 21
-26.8544350083
 31
0.0
 11
15.4005200724
 21
-27.1255406074
 31
0.0
 11
15.2732536256
 21
-27.3484033662
 31
0.0
 11
15.105184162
 21
-27.5152006971
 31
0.0
 11
14.9019170856
 21
-27.6195186575
 31
0.0
 11
14.6689456137
 21
-27.6559510865
 31
0.0
 11
14.4163080696
 21
-27.6239108111
 31
0.0
 11
14.1529592649
 21
-27.5238629468
 31
0.0
  0
SPLINE
  5
3CD
100
AcDbEntity
  8
RACCORDO
100
AcDbSpline
 62
253
  6
CONTINUOUS
 70
0
 71
3
 72
9
 73
5
 74
3
 42
0.0000001
 43
0.0000001
 44
0.0000000001
 12
1.5934021983
 22
-0.0839125997
 32
0.0
 13
1.4759957197
 23
-0.606142331
 33
0.0
 40
0.0
 40
0.0
 40
0.0
 40
0.0
 40
0.5231754415
 40
1.0
 40
1.0
 40
1.0
 40
1.0
 10
15.5065730004
 20
-26.5444876253
 30
0.0
 10
15.7844492999
 20
-26.5591212958
 30
0.0
 10
16.3143546038
 20
-26.6241216537
 30
0.0
 10
16.8287456647
 20
-26.7724417142
 30
0.0
 10
17.0633426672
 20
-26.8687828973
 30
0.0
 11
15.5065730004
 21
-26.5444876253
 31
0.0
 11
16.3346697396
 21
-26.6499401253
 31
0.0
 11
17.0633426672
 21
-26.8687828973
 31
0.0
  0
SPLINE
  5
3CE
100
AcDbEntity
  8
RACCORDO
100
AcDbSpline
 62
253
  6
CONTINUOUS
 70
0
 71
3
 72
21
 73
17
 74
15
 42
0.0000001
 43
0.0000001
 44
0.0000000001
 12
0.0145568089
 22
-3.8687556836
 32
0.0
 13
-3.4815292823
 23
1.6871384936
 33
0.0
 40
0.0
 40
0.0
 40
0.0
 40
0.0
 40
0.1479352869
 40
0.2171680622
 40
0.2505731509
 40
0.2838788429
 40
0.316529469
 40
0.3482339766
 40
0.4090184666
 40
0.5221987768
 40
0.576741997
 40
0.6311588983
 40
0.7438872413
 40
0.8037287293
 40
0.8662991062
 40
1.0
 40
1.0
 40
1.0
 40
1.0
 10
17.0633426672
 20
-26.8687828973
 30
0.0
 10
17.0640604891
 20
-27.059558058
 30
0.0
 10
17.0407750455
 20
-27.3406508169
 30
0.0
 10
16.9660312346
 20
-27.6559839419
 30
0.0
 10
16.9050499841
 20
-27.8204564909
 30
0.0
 10
16.8641507942
 20
-27.9418804269
 30
0.0
 10
16.8187433751
 20
-28.0594410752
 30
0.0
 10
16.7501030266
 20
-28.2056443738
 30
0.0
 10
16.6140065536
 20
-28.4339736919
 30
0.0
 10
16.4059360952
 20
-28.6512667236
 30
0.0
 10
16.1597830378
 20
-28.8004320622
 30
0.0
 10
15.8921047251
 20
-28.904056188
 30
0.0
 10
15.5967761888
 20
-28.9435329329
 30
0.0
 10
15.2938524723
 20
-28.9176373429
 30
0.0
 10
14.9708806013
 20
-28.8459332342
 30
0.0
 10
14.731642149
 20
-28.7576776363
 30
0.0
 10
14.5764809567
 20
-28.6824869947
 30
0.0
 11
17.0633426672
 21
-26.8687828973
 31
0.0
 11
17.0130816443
 21
-27.4389012398
 31
0.0
 11
16.9483257887
 21
-27.6988021329
 31
0.0
 11
16.9056235967
 21
-27.8207805562
 31
0.0
 11
16.8629842439
 21
-27.9423735318
 31
0.0
 11
16.8169192803
 21
-28.0599928505
 31
0.0
 11
16.7648232676
 21
-28.1710376909
 31
0.0
 11
16.6433932555
 21
-28.3724226984
 31
0.0
 11
16.3374567839
 21
-28.685684684
 31
0.0
 11
16.156930325
 21
-28.7949453912
 31
0.0
 11
15.9608542439
 21
-28.8715995929
 31
0.0
 11
15.5289096317
 21
-28.9318143679
 31
0.0
 11
15.2981641556
 21
-28.9129693422
 31
0.0
 11
15.0614204781
 21
-28.8624628653
 31
0.0
 11
14.5764809567
 21
-28.6824869947
 31
0.0
  0
SPLINE
  5
3CF
100
AcDbEntity
  8
RACCORDO
100
AcDbSpline
 62
253
  6
CONTINUOUS
 70
0
 71
3
 72
11
 73
7
 74
5
 42
0.0000001
 43
0.0000001
 44
0.0000000001
 12
-0.0001334418
 22
-19.2245819319
 32
0.0
 13
0.0598727883
 23
-19.2244886987
 33
0.0
 40
0.0
 40
0.0
 40
0.0
 40
0.0
 40
0.4999888985
 40
0.7499887916
 40
0.874990594
 40
1.0
 40
1.0
 40
1.0
 40
1.0
 10
15.4993295411
 20
-7.3199080099
 30
0.0
 10
15.4993073012
 20
-10.5239338578
 30
0.0
 10
15.4988730995
 20
-15.3300073398
 30
0.0
 10
15.5009407868
 20
-20.9371171855
 30
0.0
 10
15.5027732398
 20
-24.1412837545
 30
0.0
 10
15.5040802275
 20
-25.7434057081
 30
0.0
 10
15.5065751147
 20
-26.5444863454
 30
0.0
 11
15.4993295411
 21
-7.3199080099
 31
0.0
 11
15.4997090212
 21
-16.9319855465
 31
0.0
 11
15.5014531228
 21
-21.738128659
 31
0.0
 11
15.5028708911
 21
-24.1412356331
 31
0.0
 11
15.5065751147
 21
-26.5444863454
 31
0.0
  0
SPLINE
  5
3D0
100
AcDbEntity
  8
RACCORDO
100
AcDbSpline
 62
253
  6
CONTINUOUS
 70
0
 71
3
 72
9
 73
5
 74
3
 42
0.0000001
 43
0.0000001
 44
0.0000000001
 12
1.6132443381
 22
-0.1097035224
 32
0.0
 13
1.4814283792
 23
-0.6480448399
 33
0.0
 40
0.0
 40
0.0
 40
0.0
 40
0.0
 40
0.5236701582
 40
1.0
 40
1.0
 40
1.0
 40
1.0
 10
15.4993295411
 20
-7.3199080099
 30
0.0
 10
15.7809321803
 20
-7.3390574968
 30
0.0
 10
16.3168397638
 20
-7.4137999206
 30
0.0
 10
16.8352148493
 20
-7.5744088313
 30
0.0
 10
17.0704310312
 20
-7.6773031966
 30
0.0
 11
15.4993295411
 21
-7.3199080099
 31
0.0
 11
16.3374018537
 21
-7.4408854546
 31
0.0
 11
17.0704310312
 21
-7.6773031966
 31
0.0
  0
SPLINE
  5
3D1
100
AcDbEntity
  8
RACCORDO
100
AcDbSpline
 62
253
  6
CONTINUOUS
 70
0
 71
3
 72
13
 73
9
 74
7
 42
0.0000001
 43
0.0000001
 44
0.0000000001
 12
-0.0003055925
 22
-19.1914835237
 32
0.0
 13
0.0719806126
 23
-19.1913485385
 33
0.0
 40
0.0
 40
0.0
 40
0.0
 40
0.0
 40
0.2501807856
 40
0.5002977115
 40
0.625307306
 40
0.7502676991
 40
0.8751724182
 40
1.0
 40
1.0
 40
1.0
 40
1.0
 10
17.0704310312
 20
-7.6773031966
 30
0.0
 10
17.0704055467
 20
-9.2777500051
 30
0.0
 10
17.0705865102
 20
-12.4782350404
 30
0.0
 10
17.0697415063
 20
-16.478426888
 30
0.0
 10
17.0680225033
 20
-19.6775626108
 30
0.0
 10
17.0663241304
 20
-22.07569723
 30
0.0
 10
17.0624565454
 20
-24.4726596754
 30
0.0
 10
17.0603476037
 20
-26.0702463593
 30
0.0
 10
17.063342659
 20
-26.8687829023
 30
0.0
 11
17.0704310312
 21
-7.6773031966
 31
0.0
 11
17.0703722194
 21
-12.4786436222
 31
0.0
 11
17.0692245578
 21
-17.2787583469
 31
0.0
 11
17.0679539967
 21
-19.6778775854
 31
0.0
 11
17.0659619428
 21
-22.0760520832
 31
0.0
 11
17.0625730215
 21
-24.4731565467
 31
0.0
 11
17.063342659
 21
-26.8687829023
 31
0.0
  0
SPLINE
  5
3D2
100
AcDbEntity
  8
RACCORDO
100
AcDbSpline
 62
253
  6
CONTINUOUS
 70
0
 71
3
 72
9
 73
5
 74
3
 42
0.0000001
 43
0.0000001
 44
0.0000000001
 12
-0.3185085206
 22
0.1593385756
 32
0.0
 13
-0.1141708007
 23
0.3373447608
 33
0.0
 40
0.0
 40
0.0
 40
0.0
 40
0.0
 40
0.4746231094
 40
1.0
 40
1.0
 40
1.0
 40
1.0
 10
9.3641897738
 20
-35.8912874504
 30
0.0
 10
9.3137992723
 20
-35.8660788603
 30
0.0
 10
9.2194105859
 20
-35.7871279458
 30
0.0
 10
9.1649390259
 20
-35.6785482245
 30
0.0
 10
9.1449447924
 20
-35.6194705107
 30
0.0
 11
9.3641897738
 21
-35.8912874504
 31
0.0
 11
9.2331931838
 21
-35.784460608
 31
0.0
 11
9.1449447924
 21
-35.6194705107
 31
0.0
  0
SPLINE
  5
3D3
100
AcDbEntity
  8
RACCORDO
100
AcDbSpline
 62
253
  6
CONTINUOUS
 70
0
 71
3
 72
9
 73
5
 74
3
 42
0.0000001
 43
0.0000001
 44
0.0000000001
 12
0.5399232135
 22
10.1864936508
 32
0.0
 13
2.1515854327
 23
9.9713013243
 33
0.0
 40
0.0
 40
0.0
 40
0.0
 40
0.0
 40
0.2438911714
 40
1.0
 40
1.0
 40
1.0
 40
1.0
 10
-9.4254748841
 20
27.8480230051
 30
0.0
 10
-9.3815807157
 20
28.6761549615
 30
0.0
 10
-9.1275010707
 20
32.0675176456
 30
0.0
 10
-8.5903200997
 20
35.4360372029
 30
0.0
 10
-8.0480425193
 20
37.9491668575
 30
0.0
 11
-9.4254748841
 21
27.8480230051
 31
0.0
 11
-9.2408054624
 21
30.3290430215
 31
0.0
 11
-8.0480425193
 21
37.9491668575
 31
0.0
  0
LINE
  5
3D4
100
AcDbEntity
  8
RACCORDO
100
AcDbLine
 62
253
  6
CONTINUOUS
 10
-8.0480425193
 20
37.9491668575
 11
-8.0444235833
 21
37.9659285605
  0
SPLINE
  5
3D5
100
AcDbEntity
  8
RACCORDO
100
AcDbSpline
 62
253
  6
CONTINUOUS
 70
0
 71
3
 72
11
 73
7
 74
5
 42
0.0000001
 43
0.0000001
 44
0.0000000001
 12
-0.467188674
 22
0.2173468068
 32
0.0
 13
-0.0579373571
 23
0.5120040568
 33
0.0
 40
0.0
 40
0.0
 40
0.0
 40
0.0
 40
0.2201431647
 40
0.4544744776
 40
0.7133386918
 40
1.0
 40
1.0
 40
1.0
 40
1.0
 10
27.3512278979
 20
-44.7832972928
 30
0.0
 10
27.3169451002
 20
-44.7673481548
 30
0.0
 10
27.2513474555
 20
-44.7221475014
 30
0.0
 10
27.1755203775
 20
-44.6238896464
 30
0.0
 10
27.1231378187
 20
-44.4993376915
 30
0.0
 10
27.1049767453
 20
-44.4067951904
 30
0.0
 10
27.0994406124
 20
-44.3578712728
 30
0.0
 11
27.3512278979
 21
-44.7832972928
 31
0.0
 11
27.2574515828
 21
-44.7194759035
 31
0.0
 11
27.1824847654
 21
-44.6248230696
 31
0.0
 11
27.1291664636
 21
-44.5025576926
 31
0.0
 11
27.0994406124
 21
-44.3578712728
 31
0.0
  0
LINE
  5
3D6
100
AcDbEntity
  8
0
100
AcDbLine
 62
7
  6
CONTINUOUS
 10
16.885087268
 20
-32.2011621819
 11
16.8217034772
 21
-32.0741718233
  0
LINE
  5
3D7
100
AcDbEntity
  8
0
100
AcDbLine
 62
7
  6
CONTINUOUS
 10
16.3729540898
 20
-31.1568164132
 11
16.3237873503
 21
-31.0541293127
  0
SPLINE
  5
3D8
100
AcDbEntity
  8
0
100
AcDbSpline
 62
7
  6
CONTINUOUS
 70
0
 71
3
 72
9
 73
5
 74
3
 42
0.0000001
 43
0.0000001
 44
0.0000000001
 12
-0.9870422651
 22
0.4570489823
 32
0.0
 13
-0.9762854657
 23
0.4795965959
 33
0.0
 40
0.0
 40
0.0
 40
0.0
 40
0.0
 40
0.251851189
 40
1.0
 40
1.0
 40
1.0
 40
1.0
 10
15.9205382623
 20
-29.4911460076
 30
0.0
 10
15.8376756729
 20
-29.4527765644
 30
0.0
 10
15.5090924357
 20
-29.2994899572
 30
0.0
 10
15.1830487885
 20
-29.1408253837
 30
0.0
 10
14.9395798517
 20
-29.0212221761
 30
0.0
 11
15.9205382623
 21
-29.4911460076
 31
0.0
 11
15.6723285987
 21
-29.3752246167
 31
0.0
 11
14.9395798517
 21
-29.0212221761
 31
0.0
  0
LINE
  5
3D9
100
AcDbEntity
  8
0
100
AcDbLine
 62
253
  6
CONTINUOUS
 10
-16.8928217746
 20
9.4388957991
 11
-16.8928214506
 21
28.6647511582
  0
LINE
  5
3DA
100
AcDbEntity
  8
0
100
AcDbLine
 62
7
  6
CONTINUOUS
 10
13.9208379018
 20
-29.9351712676
 11
13.7191042936
 21
-29.8362491681
  0
SPLINE
  5
3DB
100
AcDbEntity
  8
RACCORDO
100
AcDbSpline
 62
253
  6
CONTINUOUS
 70
0
 71
3
 72
11
 73
7
 74
5
 42
0.0000001
 43
0.0000001
 44
0.0000000001
 12
1.156500838
 22
0.6730043031
 32
0.0
 13
1.1843926684
 23
-0.6226098197
 33
0.0
 40
0.0
 40
0.0
 40
0.0
 40
0.0
 40
0.229135611
 40
0.4662357027
 40
0.7212307316
 40
1.0
 40
1.0
 40
1.0
 40
1.0
 10
-25.8715863843
 20
50.3407648922
 30
0.0
 10
-25.7832545422
 20
50.3921679762
 30
0.0
 10
-25.5865869413
 20
50.4702582615
 30
0.0
 10
-25.261970886
 20
50.4970786196
 30
0.0
 10
-24.9203781121
 20
50.4357866325
 30
0.0
 10
-24.699091608
 20
50.3431190324
 30
0.0
 10
-24.5890341822
 20
50.2852642044
 30
0.0
 11
-25.8715863843
 21
50.3407648922
 31
0.0
 11
-25.586763448
 21
50.4542506502
 31
0.0
 11
-25.2708198836
 21
50.4830817383
 31
0.0
 11
-24.9343913877
 21
50.4262137116
 31
0.0
 11
-24.5890341822
 21
50.2852642044
 31
0.0
  0
LINE
  5
3DC
100
AcDbEntity
  8
0
100
AcDbLine
 62
253
  6
CONTINUOUS
 10
-16.8928215115
 20
-9.7867768003
 11
-16.8928217746
 21
9.4388957991
  0
SPLINE
  5
3DD
100
AcDbEntity
  8
RACCORDO
100
AcDbSpline
 62
253
  6
CONTINUOUS
 70
0
 71
3
 72
9
 73
5
 74
3
 42
0.0000001
 43
0.0000001
 44
0.0000000001
 12
0.0
 22
-0.1859902846
 32
0.0
 13
-0.1626409786
 23
-0.0902236002
 33
0.0
 40
0.0
 40
0.0
 40
0.0
 40
0.0
 40
0.5436631259
 40
1.0
 40
1.0
 40
1.0
 40
1.0
 10
-1.6026583579
 20
-15.5114142094
 30
0.0
 10
-1.6026583579
 20
-15.5451195626
 30
0.0
 10
-1.6121489695
 20
-15.6086614107
 30
0.0
 10
-1.6552217694
 20
-15.6595920949
 30
0.0
 10
-1.6799614613
 20
-15.6733162134
 30
0.0
 11
-1.6026583579
 21
-15.5114142094
 31
0.0
 11
-1.6229036228
 21
-15.6104828055
 31
0.0
 11
-1.6799614613
 21
-15.6733162134
 31
0.0
  0
SPLINE
  5
3DE
100
AcDbEntity
  8
RACCORDO
100
AcDbSpline
 62
7
  6
CONTINUOUS
 70
0
 71
3
 72
11
 73
7
 74
5
 42
0.0000001
 43
0.0000001
 44
0.0000000001
 12
0.0728800179
 22
0.0355341251
 32
0.0
 13
0.0709352671
 23
-0.0392728779
 33
0.0
 40
0.0
 40
0.0
 40
0.0
 40
0.0
 40
0.4128606772
 40
0.716902572
 40
0.9077687133
 40
1.0
 40
1.0
 40
1.0
 40
1.0
 10
-1.6026583579
 20
-14.6457448629
 30
0.0
 10
-1.5926285934
 20
-14.6408546486
 30
0.0
 10
-1.575159281
 20
-14.6326812157
 30
0.0
 10
-1.5521969144
 20
-14.6231974331
 30
0.0
 10
-1.5375131919
 20
-14.6187078343
 30
0.0
 10
-1.529190364
 20
-14.6174775157
 30
0.0
 10
-1.527009547
 20
-14.6186849117
 30
0.0
 11
-1.6026583579
 21
-14.6457448629
 31
0.0
 11
-1.5722870533
 21
-14.6316673202
 31
0.0
 11
-1.5493875975
 21
-14.6225381919
 31
0.0
 11
-1.5344814901
 21
-14.6183783541
 31
0.0
 11
-1.527009547
 21
-14.6186849117
 31
0.0
  0
SPLINE
  5
3DF
100
AcDbEntity
  8
RACCORDO
100
AcDbSpline
 62
253
  6
CONTINUOUS
 70
0
 71
3
 72
9
 73
5
 74
3
 42
0.0000001
 43
0.0000001
 44
0.0000000001
 12
0.1145816296
 22
0.0636278959
 32
0.0
 13
0.0000436281
 23
0.1310627982
 33
0.0
 40
0.0
 40
0.0
 40
0.0
 40
0.0
 40
0.5625427816
 40
1.0
 40
1.0
 40
1.0
 40
1.0
 10
-1.6026583579
 20
-15.5114142094
 30
0.0
 10
-1.5811726684
 20
-15.4994830715
 30
0.0
 10
-1.5444859333
 20
-15.4735964192
 30
0.0
 10
-1.5256088825
 20
-15.4301560741
 30
0.0
 10
-1.5256025207
 20
-15.4110446184
 30
0.0
 11
-1.6026583579
 21
-15.5114142094
 31
0.0
 11
-1.545532905
 21
-15.4648034297
 31
0.0
 11
-1.5256025207
 21
-15.4110446184
 31
0.0
  0
SPLINE
  5
3E0
100
AcDbEntity
  8
RACCORDO
100
AcDbSpline
 62
7
  6
CONTINUOUS
 70
0
 71
3
 72
11
 73
7
 74
5
 42
0.0000001
 43
0.0000001
 44
0.0000000001
 12
0.0728800179
 22
0.0355341251
 32
0.0
 13
0.0709352671
 23
-0.0392728779
 33
0.0
 40
0.0
 40
0.0
 40
0.0
 40
0.0
 40
0.4128606772
 40
0.716902572
 40
0.9077687133
 40
1.0
 40
1.0
 40
1.0
 40
1.0
 10
14.3072442188
 20
-22.6006961513
 30
0.0
 10
14.3172739833
 20
-22.595805937
 30
0.0
 10
14.3347432957
 20
-22.587632504
 30
0.0
 10
14.3577056623
 20
-22.5781487215
 30
0.0
 10
14.3723893848
 20
-22.5736591226
 30
0.0
 10
14.3807122127
 20
-22.572428804
 30
0.0
 10
14.3828930297
 20
-22.5736362
 30
0.0
 11
14.3072442188
 21
-22.6006961513
 31
0.0
 11
14.3376155234
 21
-22.5866186086
 31
0.0
 11
14.3605149792
 21
-22.5774894803
 31
0.0
 11
14.3754210866
 21
-22.5733296424
 31
0.0
 11
14.3828930297
 21
-22.5736362
 31
0.0
  0
SPLINE
  5
3E1
100
AcDbEntity
  8
RACCORDO
100
AcDbSpline
 62
253
  6
CONTINUOUS
 70
0
 71
3
 72
9
 73
5
 74
3
 42
0.0000001
 43
0.0000001
 44
0.0000000001
 12
0.1145816296
 22
0.0636278959
 32
0.0
 13
0.0000436281
 23
0.1310627982
 33
0.0
 40
0.0
 40
0.0
 40
0.0
 40
0.0
 40
0.5625427816
 40
1.0
 40
1.0
 40
1.0
 40
1.0
 10
14.3072442188
 20
-23.4663654977
 30
0.0
 10
14.3287299083
 20
-23.4544343599
 30
0.0
 10
14.3654166434
 20
-23.4285477076
 30
0.0
 10
14.3842936942
 20
-23.3851073624
 30
0.0
 10
14.384300056
 20
-23.3659959067
 30
0.0
 11
14.3072442188
 21
-23.4663654977
 31
0.0
 11
14.3643696717
 21
-23.4197547181
 31
0.0
 11
14.384300056
 21
-23.3659959067
 31
0.0
  0
SPLINE
  5
3E2
100
AcDbEntity
  8
0
100
AcDbSpline
 62
7
  6
CONTINUOUS
 70
0
 71
3
 72
9
 73
5
 74
3
 42
0.0000001
 43
0.0000001
 44
0.0000000001
 12
-0.9660126447
 22
2.6980088519
 32
0.0
 13
-0.8202881438
 23
2.7458258423
 33
0.0
 40
0.0
 40
0.0
 40
0.0
 40
0.0
 40
0.2486558993
 40
1.0
 40
1.0
 40
1.0
 40
1.0
 10
14.8989294029
 20
-31.279717947
 30
0.0
 10
14.8188611553
 20
-31.0560926746
 30
0.0
 10
14.5022439414
 20
-30.1548491481
 30
0.0
 10
14.2075629507
 20
-29.2457990415
 30
0.0
 10
14.0021233981
 20
-28.5581123587
 30
0.0
 11
14.8989294029
 21
-31.279717947
 31
0.0
 11
14.6627599906
 21
-30.6074109566
 31
0.0
 11
14.0021233981
 21
-28.5581123587
 31
0.0
  0
LINE
  5
3E3
100
AcDbEntity
  8
0
100
AcDbLine
 62
7
  6
CONTINUOUS
 10
14.0021233981
 20
-28.5581123587
 11
13.5905472775
 21
-28.3537431306
  0
LINE
  5
3E4
100
AcDbEntity
  8
0
100
AcDbLine
 62
7
  6
CONTINUOUS
 10
9.0025605066
 20
-26.2061630551
 11
9.4127095928
 21
-26.4112309512
  0
SPLINE
  5
3E5
100
AcDbEntity
  8
RACCORDO
100
AcDbSpline
 62
7
  6
CONTINUOUS
 70
0
 71
3
 72
11
 73
7
 74
5
 42
0.0000001
 43
0.0000001
 44
0.0000000001
 12
0.0728800179
 22
0.0355341251
 32
0.0
 13
0.0709352671
 23
-0.0392728779
 33
0.0
 40
0.0
 40
0.0
 40
0.0
 40
0.0
 40
0.4128606772
 40
0.716902572
 40
0.9077687133
 40
1.0
 40
1.0
 40
1.0
 40
1.0
 10
-13.4415925508
 20
25.2589677542
 30
0.0
 10
-13.4315627863
 20
25.2638579685
 30
0.0
 10
-13.414093474
 20
25.2720314015
 30
0.0
 10
-13.3911311073
 20
25.281515184
 30
0.0
 10
-13.3764473849
 20
25.2860047829
 30
0.0
 10
-13.3681245569
 20
25.2872351015
 30
0.0
 10
-13.3659437399
 20
25.2860277055
 30
0.0
 11
-13.4415925508
 21
25.2589677542
 31
0.0
 11
-13.4112212462
 21
25.2730452969
 31
0.0
 11
-13.3883217904
 21
25.2821744252
 31
0.0
 11
-13.373415683
 21
25.2863342631
 31
0.0
 11
-13.3659437399
 21
25.2860277055
 31
0.0
  0
SPLINE
  5
3E6
100
AcDbEntity
  8
RACCORDO
100
AcDbSpline
 62
253
  6
CONTINUOUS
 70
0
 71
3
 72
9
 73
5
 74
3
 42
0.0000001
 43
0.0000001
 44
0.0000000001
 12
0.1140795128
 22
0.0497174306
 32
0.0
 13
0.1121767545
 23
-0.0538733133
 33
0.0
 40
0.0
 40
0.0
 40
0.0
 40
0.0
 40
0.5317456814
 40
1.0
 40
1.0
 40
1.0
 40
1.0
 10
-14.1484086124
 20
25.612375785
 30
0.0
 10
-14.128188183
 20
25.621188128
 30
0.0
 10
-14.0871666392
 20
25.6325672079
 30
0.0
 10
-14.0444527058
 20
25.6248848121
 30
0.0
 10
-14.0269436226
 20
25.6164760082
 30
0.0
 11
-14.1484086124
 21
25.612375785
 31
0.0
 11
-14.0840835965
 21
25.6278999828
 31
0.0
 11
-14.0269436226
 21
25.6164760082
 31
0.0
  0
SPLINE
  5
3E7
100
AcDbEntity
  8
RACCORDO
100
AcDbSpline
 62
253
  6
CONTINUOUS
 70
0
 71
3
 72
9
 73
5
 74
3
 42
0.0000001
 43
0.0000001
 44
0.0000000001
 12
-0.1188400395
 22
0.0594200198
 32
0.0
 13
-0.1225749841
 23
-0.0512744286
 33
0.0
 40
0.0
 40
0.0
 40
0.0
 40
0.0
 40
0.5296849318
 40
1.0
 40
1.0
 40
1.0
 40
1.0
 10
-14.1484086124
 20
25.612375785
 30
0.0
 10
-14.1693912052
 20
25.6228670814
 30
0.0
 10
-14.2125797061
 20
25.6371236085
 30
0.0
 10
-14.258503065
 20
25.6311232439
 30
0.0
 10
-14.2777193523
 20
25.6230848651
 30
0.0
 11
-14.1484086124
 21
25.612375785
 31
0.0
 11
-14.21591111
 21
25.6322866189
 31
0.0
 11
-14.2777193523
 21
25.6230848651
 31
0.0
  0
SPLINE
  5
3E8
100
AcDbEntity
  8
RACCORDO
100
AcDbSpline
 62
253
  6
CONTINUOUS
 70
0
 71
3
 72
9
 73
5
 74
3
 42
0.0000001
 43
0.0000001
 44
0.0000000001
 12
0.1156612358
 22
0.0504067674
 32
0.0
 13
0.1128608285
 23
-0.0563985554
 33
0.0
 40
0.0
 40
0.0
 40
0.0
 40
0.0
 40
0.5319362721
 40
1.0
 40
1.0
 40
1.0
 40
1.0
 10
-14.1484086124
 20
6.1268041999
 30
0.0
 10
-14.1279004769
 20
6.1357419292
 30
0.0
 10
-14.0862450702
 20
6.1472248086
 30
0.0
 10
-14.0429586688
 20
6.1389224673
 30
0.0
 10
-14.0253499821
 20
6.1301230946
 30
0.0
 11
-14.1484086124
 21
6.1268041999
 31
0.0
 11
-14.0831229334
 21
6.1423598985
 31
0.0
 11
-14.0253499821
 21
6.1301230946
 31
0.0
  0
SPLINE
  5
3E9
100
AcDbEntity
  8
RACCORDO
100
AcDbSpline
 62
7
  6
CONTINUOUS
 70
0
 71
3
 72
11
 73
7
 74
5
 42
0.0000001
 43
0.0000001
 44
0.0000000001
 12
0.0728800179
 22
0.0355341251
 32
0.0
 13
0.0709352671
 23
-0.0392728779
 33
0.0
 40
0.0
 40
0.0
 40
0.0
 40
0.0
 40
0.4128606772
 40
0.716902572
 40
0.9077687133
 40
1.0
 40
1.0
 40
1.0
 40
1.0
 10
-13.4415925508
 20
5.7733961691
 30
0.0
 10
-13.4315627863
 20
5.7782863834
 30
0.0
 10
-13.414093474
 20
5.7864598163
 30
0.0
 10
-13.3911311073
 20
5.7959435989
 30
0.0
 10
-13.3764473849
 20
5.8004331977
 30
0.0
 10
-13.3681245569
 20
5.8016635163
 30
0.0
 10
-13.3659437399
 20
5.8004561203
 30
0.0
 11
-13.4415925508
 21
5.7733961691
 31
0.0
 11
-13.4112212462
 21
5.7874737117
 31
0.0
 11
-13.3883217904
 21
5.7966028401
 31
0.0
 11
-13.373415683
 21
5.8007626779
 31
0.0
 11
-13.3659437399
 21
5.8004561203
 31
0.0
  0
ELLIPSE
  5
3EA
100
AcDbEntity
  8
RACCORDO
100
AcDbEllipse
 62
7
  6
CONTINUOUS
 10
-5.7754821148
 20
-12.8298866811
 30
0.0
 11
0.1461194965
 21
0.2622111801
 31
0.0
 40
0.6437101552
 41
0.6611775963
 42
0.7135374739
  0
ELLIPSE
  5
3EB
100
AcDbEntity
  8
RACCORDO
100
AcDbEllipse
 62
7
  6
CONTINUOUS
 10
10.1344204619
 20
-20.7848379695
 30
0.0
 11
0.1461194965
 21
0.2622111801
 31
0.0
 40
0.6437101552
 41
0.6611775963
 42
0.7135374739
  0
ELLIPSE
  5
3EC
100
AcDbEntity
  8
RACCORDO
100
AcDbEllipse
 62
7
  6
CONTINUOUS
 10
-13.6645359985
 20
20.2622901299
 30
0.0
 11
0.2999152621
 21
0.0134189789
 31
0.0
 40
0.5313301283
 41
-0.8091667606
 42
-0.7568068831
  0
ELLIPSE
  5
3ED
100
AcDbEntity
  8
RACCORDO
100
AcDbEllipse
 62
7
  6
CONTINUOUS
 10
-13.6645359985
 20
0.7767185448
 30
0.0
 11
0.2999152621
 21
0.0134189789
 31
0.0
 40
0.5313301283
 41
-0.8091667606
 42
-0.7568068831
  0
ELLIPSE
  5
3EE
100
AcDbEntity
  8
RACCORDO
100
AcDbEllipse
 62
7
  6
CONTINUOUS
 10
-1.6131786526
 20
-14.9110384122
 30
0.0
 11
0.1235365013
 21
0.2735541167
 31
0.0
 40
0.5796795686
 41
0.6094740628
 42
0.6618339404
  0
ELLIPSE
  5
3EF
100
AcDbEntity
  8
RACCORDO
100
AcDbEllipse
 62
7
  6
CONTINUOUS
 10
14.2967239241
 20
-22.8659897006
 30
0.0
 11
0.1235365013
 21
0.2735541167
 31
0.0
 40
0.5796795686
 41
0.6094740628
 42
0.6618339404
  0
ELLIPSE
  5
3F0
100
AcDbEntity
  8
RACCORDO
100
AcDbEllipse
 62
7
  6
CONTINUOUS
 10
-13.6645359985
 20
25.3600499484
 30
0.0
 11
0.2999447571
 21
-0.0123198752
 31
0.0
 40
0.4672909446
 41
-0.7662070983
 42
-0.7138472208
  0
ELLIPSE
  5
3F1
100
AcDbEntity
  8
RACCORDO
100
AcDbEllipse
 62
7
  6
CONTINUOUS
 10
-13.6645359985
 20
5.8744783633
 30
0.0
 11
0.2999447571
 21
-0.0123198752
 31
0.0
 40
0.4672909446
 41
-0.7662070983
 42
-0.7138472208
  0
ENDSEC
  0
SECTION
  2
OBJECTS
  0
DICTIONARY
  5
C
100
AcDbDictionary
280
0
281
1
  3
ACAD_GROUP
350
D
  3
ACAD_MLINESTYLE
350
17
  3
ACAD_LAYOUT
350
1A
  3
ACAD_PLOTSETTINGS
350
19
  3
ACAD_PLOTSTYLENAME
350
E
  0
DICTIONARY
  5
D
102
{ACAD_REACTORS
330
C
102
}
100
AcDbDictionary
280
0
281
1
  0
ACDBDICTIONARYWDFLT
  5
E
102
{ACAD_REACTORS
330
C
102
}
100
AcDbDictionary
281
1
  3
Normal
350
F
100
AcDbDictionaryWithDefault
340
F
  0
DICTIONARY
  5
17
102
{ACAD_REACTORS
330
C
102
}
100
AcDbDictionary
280
0
281
1
  3
Standard
350
18
  0
DICTIONARY
  5
19
102
{ACAD_REACTORS
330
C
102
}
100
AcDbDictionary
281
1
  0
DICTIONARY
  5
1A
102
{ACAD_REACTORS
330
C
102
}
100
AcDbDictionary
281
1
  3
Model
350
3F2
  3
Layout1
350
3F3
  0
ACDBPLACEHOLDER
  5
F
102
{ACAD_REACTORS
330
E
102
}
  0
MLINESTYLE
  5
18
102
{ACAD_REACTORS
330
17
102
}
100
AcDbMlineStyle
  2
STANDARD
 70
0
  3

 62
256
 51
90.0
 52
90.0
 71
2
 49
0.5
 62
256
  6
BYLAYER
 49
-0.5
 62
256
  6
BYLAYER
  0
LAYOUT
  5
3F2
102
{ACAD_REACTORS
330
1A
102
}
100
AcDbPlotSettings
  1

  2
none_device
  4
ANSI_C_(22.00_x_17.00_Inches)
  6

 40
0.0
 41
0.0
 42
0.0
 43
0.0
 44
558.8
 45
431.8
 46
0.0
 47
0.0
 48
0.0
 49
0.0
140
0.0
141
0.0
142
1.0
143
1.0
 70
1024
 72
1
 73
0
 74
0
  7

 75
0
147
1.0
148
0.0
149
0.0
100
AcDbLayout
  1
Model
 70
0
 71
0
 10
0.0
 20
0.0
 11
558.8
 21
431.8
 12
0.0
 22
0.0
 32
0.0
 14
0.0
 24
0.0
 34
0.0
 15
0.0
 25
0.0
 35
0.0
146
0.0
 13
0.0
 23
0.0
 33
0.0
 16
1.0
 26
0.0
 36
0.0
 17
0.0
 27
1.0
 37
0.0
 76
0
330
20E
345
0
346
0
  0
LAYOUT
  5
3F3
102
{ACAD_REACTORS
330
1A
102
}
100
AcDbPlotSettings
  1

  2
none_device
  4
ANSI_C_(22.00_x_17.00_Inches)
  6

 40
0.0
 41
0.0
 42
0.0
 43
0.0
 44
558.8
 45
431.8
 46
0.0
 47
0.0
 48
0.0
 49
0.0
140
0.0
141
0.0
142
1.0
143
1.0
 70
0
 72
1
 73
0
 74
0
  7

 75
0
147
1.0
148
0.0
149
0.0
100
AcDbLayout
  1
Layout1
 70
0
 71
1
 10
0.0
 20
0.0
 11
558.8
 21
431.8
 12
0.0
 22
0.0
 32
0.0
 14
0.0
 24
0.0
 34
0.0
 15
0.0
 25
0.0
 35
0.0
146
0.0
 13
0.0
 23
0.0
 33
0.0
 16
1.0
 26
0.0
 36
0.0
 17
0.0
 27
1.0
 37
0.0
 76
0
330
20F
345
0
346
0
  0
ENDSEC
  0
EOF
