  0
SECTION
  2
HEADER
  9
$ACADVER
  1
AC1024
  9
$DWGCODEPAGE
  3
ANSI_1252
  9
$EXTMAX
 10
297.0
 20
210.0
 30
0.0
  9
$EXTMIN
 10
0.0
 20
0.0
 30
0.0
  9
$LIMMIN
 10
0.0
 20
0.0
  9
$LIMMAX
 10
297.0
 20
210.0
  9
$VIEWCTR
 10
148.5
 20
105.0
  9
$VIEWSIZE
 40
210.0
  9
$CLAYER
  8
0
  9
$LTSCALE
 40
16.335
  9
$CELTYPE
  6
BYLAYER
  9
$DIMSCALE
 40
1.0
  9
$DIMASZ
 40
3.0
  9
$DIMEXO
 40
0.5
  9
$DIMDLI
 40
11.286
  9
$DIMEXE
 40
1.5
  9
$DIMCEN
 40
2.673
  9
$DIMLFAC
 40
1.0
  9
$DIMBLK
  1
_FILLED
  9
$DIMALT
 70
0
  9
$DIMALTF
 40
0.0393700787
  9
$DIMTXT
 40
3.0
  9
$DIMTOL
 70
1
  9
$DIMLIM
 70
0
  9
$DIMTFAC
 40
1.0
  9
$DIMTP
 40
0.01
  9
$DIMTM
 40
0.01
  9
$DIMGAP
 40
0.625
  9
$DIMDSEP
 70
44
  9
$AUNITS
 70
0
  9
$PDMODE
 70
3
  9
$PDSIZE
 40
3.0
  9
$HANDSEED
  5
455
  9
$TILEMODE
 70
1
  9
$MEASUREMENT
 70
1
  9
$INSUNITS
 70
4
  0
ENDSEC
  0
SECTION
  2
CLASSES
  0
CLASS
  1
ACDBDICTIONARYWDFLT
  2
AcDbDictionaryWithDefault
  3
AutoCAD 2000
 90
0
 91
1
280
0
281
0
  0
CLASS
  1
ACDBPLACEHOLDER
  2
AcDbPlaceHolder
  3
AutoCAD 2000
 90
0
 91
1
280
0
281
0
  0
CLASS
  1
LAYOUT
  2
AcDbLayout
  3
AutoCAD 2000
 90
0
 91
0
280
0
281
0
  0
ENDSEC
  0
SECTION
  2
TABLES
  0
TABLE
  2
VPORT
  5
8
100
AcDbSymbolTable
 70
2
  0
VPORT
  5
1F4
100
AcDbSymbolTableRecord
100
AcDbViewportTableRecord
  2
*ACTIVE
 70
0
 10
0.0
 20
0.0
 11
1.0
 21
1.0
 12
148.5
 22
105.0
 13
0.0
 23
0.0
 14
1.0
 24
1.0
 15
0.0
 25
0.0
 16
0.0
 26
0.0
 36
1.0
 17
0.0
 27
0.0
 37
0.0
 40
210.0
 41
1.4142857143
 42
50.0
 43
0.0
 44
0.0
 50
0.0
 51
0.0
 71
0
 72
100
 73
1
 74
1
 75
0
 76
0
 77
0
 78
0
  0
ENDTAB
  0
TABLE
  2
LTYPE
  5
5
100
AcDbSymbolTable
 70
6
  0
LTYPE
  5
14
100
AcDbSymbolTableRecord
100
AcDbLinetypeTableRecord
  2
BYBLOCK
 70
0
  3

 72
65
 73
0
 40
0.0
  0
LTYPE
  5
15
100
AcDbSymbolTableRecord
100
AcDbLinetypeTableRecord
  2
BYLAYER
 70
0
  3

 72
65
 73
0
 40
0.0
  0
LTYPE
  5
16
100
AcDbSymbolTableRecord
100
AcDbLinetypeTableRecord
  2
CONTINUOUS
 70
64
  3
Solid line
 72
65
 73
0
 40
0.0
  0
LTYPE
  5
1F5
100
AcDbSymbolTableRecord
100
AcDbLinetypeTableRecord
  2
CENTER
 70
64
  3
____ _ ____ _ ____ _ ____ _ ____ _ ____ _ ____
 72
65
 73
4
 40
0.6
 49
0.375
 74
0
 49
-0.075
 74
0
 49
0.075
 74
0
 49
-0.075
 74
0
  0
LTYPE
  5
1F6
100
AcDbSymbolTableRecord
100
AcDbLinetypeTableRecord
  2
HIDDEN
 70
64
  3
- - - - - - - - - - - - - - - - - - - -
 72
65
 73
2
 40
0.2
 49
0.1
 74
0
 49
-0.1
 74
0
  0
LTYPE
  5
1F7
100
AcDbSymbolTableRecord
100
AcDbLinetypeTableRecord
  2
PHANTOM
 70
64
  3
_____ _ _ _____ _ _ _____ _ _ _____
 72
65
 73
6
 40
0.8
 49
0.45
 74
0
 49
-0.05
 74
0
 49
0.1
 74
0
 49
-0.05
 74
0
 49
0.1
 74
0
 49
-0.05
 74
0
  0
LTYPE
  5
1F8
100
AcDbSymbolTableRecord
100
AcDbLinetypeTableRecord
  2
DOT
 70
64
  3
. . . . . . . . . . . . . . . . . . . .
 72
65
 73
2
 40
0.2
 49
0.1
 74
0
 49
-0.1
 74
0
  0
LTYPE
  5
1F9
100
AcDbSymbolTableRecord
100
AcDbLinetypeTableRecord
  2
DASHED
 70
64
  3
- - - - - - - - - - - - - - - - - - - -
 72
65
 73
2
 40
0.2
 49
0.1
 74
0
 49
-0.1
 74
0
  0
ENDTAB
  0
TABLE
  2
LAYER
  5
2
100
AcDbSymbolTable
 70
36
  0
LAYER
  5
10
100
AcDbSymbolTableRecord
100
AcDbLayerTableRecord
  2
0
 70
0
 62
7
  6
CONTINUOUS
370
-3
390
F
  0
LAYER
  5
1FA
100
AcDbSymbolTableRecord
100
AcDbLayerTableRecord
  2
DEFAULT_1
 70
0
 62
7
  6
CENTER
370
-3
390
F
  0
LAYER
  5
1FB
100
AcDbSymbolTableRecord
100
AcDbLayerTableRecord
  2
DEFAULT_2
 70
0
 62
7
  6
HIDDEN
370
-3
390
F
  0
LAYER
  5
1FC
100
AcDbSymbolTableRecord
100
AcDbLayerTableRecord
  2
DEFAULT_3
 70
0
 62
7
  6
PHANTOM
370
-3
390
F
  0
LAYER
  5
1FD
100
AcDbSymbolTableRecord
100
AcDbLayerTableRecord
  2
ASSI
 70
0
 62
7
  6
CONTINUOUS
370
-3
390
F
  0
LAYER
  5
1FE
100
AcDbSymbolTableRecord
100
AcDbLayerTableRecord
  2
COORDINATE
 70
0
 62
7
  6
CONTINUOUS
370
-3
390
F
  0
LAYER
  5
1FF
100
AcDbSymbolTableRecord
100
AcDbLayerTableRecord
  2
COORD_ORIGINE
 70
0
 62
7
  6
CONTINUOUS
370
-3
390
F
  0
LAYER
  5
200
100
AcDbSymbolTableRecord
100
AcDbLayerTableRecord
  2
CURVE
 70
0
 62
7
  6
CONTINUOUS
370
-3
390
F
  0
LAYER
  5
201
100
AcDbSymbolTableRecord
100
AcDbLayerTableRecord
  2
DRAFT
 70
0
 62
7
  6
CONTINUOUS
370
-3
390
F
  0
LAYER
  5
202
100
AcDbSymbolTableRecord
100
AcDbLayerTableRecord
  2
IGES_SCRITTE
 70
0
 62
7
  6
CONTINUOUS
370
-3
390
F
  0
LAYER
  5
203
100
AcDbSymbolTableRecord
100
AcDbLayerTableRecord
  2
INTF_1
 70
0
 62
7
  6
CONTINUOUS
370
-3
390
F
  0
LAYER
  5
204
100
AcDbSymbolTableRecord
100
AcDbLayerTableRecord
  2
INTF_7
 70
0
 62
7
  6
CONTINUOUS
370
-3
390
F
  0
LAYER
  5
205
100
AcDbSymbolTableRecord
100
AcDbLayerTableRecord
  2
NOTE
 70
0
 62
7
  6
CONTINUOUS
370
-3
390
F
  0
LAYER
  5
206
100
AcDbSymbolTableRecord
100
AcDbLayerTableRecord
  2
PIANI
 70
0
 62
7
  6
CONTINUOUS
370
-3
390
F
  0
LAYER
  5
207
100
AcDbSymbolTableRecord
100
AcDbLayerTableRecord
  2
PIANI_ORIGINE
 70
0
 62
7
  6
CONTINUOUS
370
-3
390
F
  0
LAYER
  5
208
100
AcDbSymbolTableRecord
100
AcDbLayerTableRecord
  2
PPP
 70
0
 62
7
  6
CONTINUOUS
370
-3
390
F
  0
LAYER
  5
209
100
AcDbSymbolTableRecord
100
AcDbLayerTableRecord
  2
PUNTI
 70
0
 62
7
  6
CONTINUOUS
370
-3
390
F
  0
LAYER
  5
20A
100
AcDbSymbolTableRecord
100
AcDbLayerTableRecord
  2
RACCORDO
 70
0
 62
7
  6
CONTINUOUS
370
-3
390
F
  0
LAYER
  5
20B
100
AcDbSymbolTableRecord
100
AcDbLayerTableRecord
  2
RGB__255__255__255__
 70
0
 62
7
  6
CONTINUOUS
370
-3
390
F
  0
LAYER
  5
20C
100
AcDbSymbolTableRecord
100
AcDbLayerTableRecord
  2
RGB____0____0____0__
 70
0
 62
7
  6
CONTINUOUS
370
-3
390
F
  0
LAYER
  5
20D
100
AcDbSymbolTableRecord
100
AcDbLayerTableRecord
  2
SNAPLINE
 70
0
 62
7
  6
CONTINUOUS
370
-3
390
F
  0
LAYER
  5
20E
100
AcDbSymbolTableRecord
100
AcDbLayerTableRecord
  2
SUPERFICI
 70
0
 62
7
  6
CONTINUOUS
370
-3
390
F
  0
LAYER
  5
20F
100
AcDbSymbolTableRecord
100
AcDbLayerTableRecord
  2
TRASH
 70
0
 62
7
  6
CONTINUOUS
370
-3
390
F
  0
ENDTAB
  0
TABLE
  2
STYLE
  5
3
100
AcDbSymbolTable
 70
1
  0
STYLE
  5
11
100
AcDbSymbolTableRecord
100
AcDbTextStyleTableRecord
  2
STANDARD
 70
0
 40
0.0
 41
0.8
 50
0.0
 71
0
 42
0.2
  3
txt
  4

  0
STYLE
  5
210
100
AcDbSymbolTableRecord
100
AcDbTextStyleTableRecord
  2
TEXTSTYLE_1
 70
0
 40
0.0
 41
0.8
 50
0.0
 71
0
 42
0.2
  3
gdt
  4

  0
ENDTAB
  0
TABLE
  2
VIEW
  5
6
100
AcDbSymbolTable
 70
0
  0
ENDTAB
  0
TABLE
  2
UCS
  5
7
100
AcDbSymbolTable
 70
0
  0
ENDTAB
  0
TABLE
  2
APPID
  5
9
100
AcDbSymbolTable
 70
1
  0
APPID
  5
211
100
AcDbSymbolTableRecord
100
AcDbRegAppTableRecord
  2
ACAD
 70
0
  0
ENDTAB
  0
TABLE
  2
BLOCK_RECORD
  5
1
100
AcDbSymbolTable
 70
0
  0
BLOCK_RECORD
  5
212
100
AcDbSymbolTableRecord
100
AcDbBlockTableRecord
  2
*Model_Space
  0
BLOCK_RECORD
  5
213
100
AcDbSymbolTableRecord
100
AcDbBlockTableRecord
  2
*Paper_Space
  0
BLOCK_RECORD
  5
214
100
AcDbSymbolTableRecord
100
AcDbBlockTableRecord
  2
_FILLED
  0
ENDTAB
  0
TABLE
  2
DIMSTYLE
  5
A
100
AcDbSymbolTable
 70
1
100
AcDbDimStyleTable
 71
0
  0
DIMSTYLE
105
215
100
AcDbSymbolTableRecord
100
AcDbDimStyleTableRecord
  2
STANDARD
 70
0
  3

  4

 40
1.0
 41
3.0
 42
0.5
 43
0.38
 44
1.5
 45
0.0
 46
0.0
 47
0.01
 48
0.01
140
3.0
141
0.09
142
0.0
143
25.4
144
1.0
145
0.0
146
1.0
147
0.625
 71
1
 72
0
 73
0
 74
0
 75
0
 76
0
 77
1
 78
8
 79
2
170
0
171
1
172
0
173
0
174
0
175
0
176
0
177
0
178
0
270
2
179
2
271
2
272
2
273
2
274
2
275
0
280
0
281
0
282
0
283
1
284
8
285
0
286
0
287
3
288
0
340
11
278
44
341
214
342
214
343
214
344
214
  0
ENDTAB
  0
ENDSEC
  0
SECTION
  2
BLOCKS
  0
BLOCK
  5
20
100
AcDbEntity
  8
0
100
AcDbBlockBegin
  2
*Model_Space
 70
0
 10
0.0
 20
0.0
 30
0.0
  3
*Model_Space
  1

  0
ENDBLK
  5
21
100
AcDbEntity
  8
0
100
AcDbBlockEnd
  0
BLOCK
  5
1C
100
AcDbEntity
  8
0
100
AcDbBlockBegin
  2
*Paper_Space
 70
0
 10
0.0
 20
0.0
 30
0.0
  3
*Paper_Space
  1

  0
ENDBLK
  5
1D
100
AcDbEntity
  8
0
100
AcDbBlockEnd
  0
BLOCK
  5
216
100
AcDbEntity
  8
0
100
AcDbBlockBegin
  2
_FILLED
 70
64
 10
0.0
 20
0.0
  3
_FILLED
  1

  0
SOLID
  5
217
100
AcDbEntity
  8
0
  6
BYBLOCK
 62
0
100
AcDbTrace
 10
0.0
 20
0.0
 11
-1.0
 21
0.3166666667
 12
-1.0
 22
-0.3166666667
 13
-1.0
 23
-0.3166666667
  0
ENDBLK
  5
218
100
AcDbEntity
  8
0
  6
BYBLOCK
 62
0
100
AcDbBlockEnd
  0
ENDSEC
  0
SECTION
  2
ENTITIES
  0
LWPOLYLINE
  5
219
100
AcDbEntity
  8
RACCORDO
100
AcDbPolyline
 62
7
  6
CONTINUOUS
 90
12
 70
0
 10
-35.4890103108
 20
41.8187709134
 10
-35.5559216552
 20
41.7441255433
 10
-35.6514794661
 20
41.621604421
 10
-35.7379616489
 20
41.4895065742
 10
-35.8145101586
 20
41.3485081284
 10
-35.8803174416
 20
41.1994797843
 10
-35.9348554353
 20
41.0430743218
 10
-35.9776888976
 20
40.8799888496
 10
-36.0084246339
 20
40.7110476093
 10
-36.0268419892
 20
40.5369256581
 10
-36.0328239064
 20
40.3583053762
 10
-36.0326837168
 20
40.3350087685
  0
LINE
  5
21A
100
AcDbEntity
  8
SUPERFICI
100
AcDbLine
 62
7
  6
CONTINUOUS
 10
-33.2983552897
 20
44.1392694091
 11
-35.4904751056
 21
41.8172247947
  0
LINE
  5
21B
100
AcDbEntity
  8
RACCORDO
100
AcDbLine
 62
7
  6
CONTINUOUS
 10
-35.4904647256
 20
41.8172357899
 11
-35.4889782032
 21
41.8188078439
  0
LWPOLYLINE
  5
21C
100
AcDbEntity
  8
RACCORDO
100
AcDbPolyline
 62
250
  6
CONTINUOUS
 90
28
 70
0
 10
-35.4889782032
 20
41.8188078439
 10
-35.457322917
 20
41.8511049106
 10
-35.3838733258
 20
41.9182283121
 10
-35.3083206946
 20
41.9775838037
 10
-35.2312440353
 20
42.0296587097
 10
-35.1533678544
 20
42.074818067
 10
-35.07479698
 20
42.113759023
 10
-34.9959509516
 20
42.1469030111
 10
-34.917348169
 20
42.1746130507
 10
-34.8391008326
 20
42.197389223
 10
-34.761566866
 20
42.2155963937
 10
-34.6850753582
 20
42.2295952387
 10
-34.6096036798
 20
42.2397963517
 10
-34.5354059932
 20
42.2465173478
 10
-34.4627130565
 20
42.2500684192
 10
-34.3913973744
 20
42.2507653672
 10
-34.3216324985
 20
42.2488726149
 10
-34.253577616
 20
42.2446461431
 10
-34.1870327376
 20
42.2383100863
 10
-34.1221150822
 20
42.230077021
 10
-34.0589303919
 20
42.2201519851
 10
-33.9972258263
 20
42.2086759923
 10
-33.9370798608
 20
42.1958152402
 10
-33.8785605024
 20
42.1817287435
 10
-33.8213754087
 20
42.1664821901
 10
-33.7654571391
 20
42.1501671545
 10
-33.7109679917
 20
42.1329313257
 10
-33.6579474254
 20
42.1148918279
  0
LWPOLYLINE
  5
21D
100
AcDbEntity
  8
RACCORDO
100
AcDbPolyline
 62
250
  6
CONTINUOUS
 90
13
 70
0
 10
-33.6579474254
 20
42.1148918279
 10
-33.7224582779
 20
42.0493673357
 10
-33.7852787867
 20
41.974151966
 10
-33.8455769583
 20
41.8902418694
 10
-33.9025542049
 20
41.7987483495
 10
-33.9554559214
 20
41.7008831444
 10
-34.0035814783
 20
41.5979423788
 10
-34.046293502
 20
41.491289398
 10
-34.0830263153
 20
41.3823367116
 10
-34.1132934296
 20
41.2725272867
 10
-34.1366939879
 20
41.1633154369
 10
-34.1529180738
 20
41.0561475615
 10
-34.1617508158
 20
40.9524429896
  0
LINE
  5
21E
100
AcDbEntity
  8
RACCORDO
100
AcDbLine
 62
250
  6
CONTINUOUS
 10
-33.6579474254
 20
42.1148918279
 11
-31.3035102848
 21
44.4720449684
  0
LWPOLYLINE
  5
21F
100
AcDbEntity
  8
RACCORDO
100
AcDbPolyline
 62
250
  6
CONTINUOUS
 90
37
 70
0
 10
-35.6837047963
 20
39.9401930115
 10
-35.6763550489
 20
40.0577040789
 10
-35.661010885
 20
40.1671531737
 10
-35.6386131002
 20
40.2683201308
 10
-35.6101386118
 20
40.3611407851
 10
-35.5765067623
 20
40.4458600844
 10
-35.5384895125
 20
40.5229029539
 10
-35.4969550369
 20
40.5924418765
 10
-35.4526292388
 20
40.6548884539
 10
-35.4058711511
 20
40.7109802052
 10
-35.3572807219
 20
40.7610207908
 10
-35.3074215749
 20
40.8053524099
 10
-35.2563757988
 20
40.8446383616
 10
-35.2044986448
 20
40.8792013141
 10
-35.1522336584
 20
40.9092947397
 10
-35.0996391157
 20
40.9353559418
 10
-35.0469733708
 20
40.9576611654
 10
-34.994560982
 20
40.9764522529
 10
-34.9424746921
 20
40.9920407711
 10
-34.8909369152
 20
41.0046648051
 10
-34.8401471036
 20
41.0145643243
 10
-34.7900858071
 20
41.0219986804
 10
-34.7409114104
 20
41.0271736541
 10
-34.6927688841
 20
41.0302916897
 10
-34.6455769927
 20
41.0315510857
 10
-34.5994450075
 20
41.0311226683
 10
-34.5544697022
 20
41.0291743795
 10
-34.510518959
 20
41.0258485386
 10
-34.4676652753
 20
41.0212828905
 10
-34.4259727808
 20
41.015611745
 10
-34.3852751469
 20
41.008924863
 10
-34.3456207705
 20
41.0013298108
 10
-34.3070505242
 20
40.9929310962
 10
-34.2693726344
 20
40.9837712362
 10
-34.2325413863
 20
40.9739093999
 10
-34.1966596454
 20
40.9634414182
 10
-34.161750808
 20
40.9524429946
  0
LWPOLYLINE
  5
220
100
AcDbEntity
  8
RACCORDO
100
AcDbPolyline
 62
7
  6
CONTINUOUS
 90
19
 70
0
 10
-33.4350884067
 20
-20.7176040064
 10
-33.4292516419
 20
-20.7826897159
 10
-33.3989418183
 20
-20.992654516
 10
-33.3511689947
 20
-21.2037821027
 10
-33.2858967616
 20
-21.4158237803
 10
-33.2035517744
 20
-21.6270355626
 10
-33.1056895594
 20
-21.8337841858
 10
-32.9935577624
 20
-22.0344179571
 10
-32.8675757082
 20
-22.2287210272
 10
-32.7289855118
 20
-22.4151150315
 10
-32.5787739084
 20
-22.5925514404
 10
-32.4176567543
 20
-22.7602839154
 10
-32.2466819659
 20
-22.9172017363
 10
-32.066500434
 20
-23.0625617604
 10
-31.8781276728
 20
-23.1952761878
 10
-31.6831417742
 20
-23.3139882184
 10
-31.4825841119
 20
-23.4178230559
 10
-31.2770854032
 20
-23.5060724629
 10
-31.2140828841
 20
-23.529558587
  0
LINE
  5
221
100
AcDbEntity
  8
RACCORDO
100
AcDbLine
 62
7
  6
CONTINUOUS
 10
-33.4351057151
 20
-20.7176053169
 11
-33.4350306052
 21
-20.7185847317
  0
LINE
  5
222
100
AcDbEntity
  8
RACCORDO
100
AcDbLine
 62
250
  6
CONTINUOUS
 10
-33.1885937209
 20
-20.1565264081
 11
-33.3767597574
 21
-17.1720354924
  0
LINE
  5
223
100
AcDbEntity
  8
RACCORDO
100
AcDbLine
 62
7
  6
CONTINUOUS
 10
-33.513688507
 20
-19.3860142501
 11
-33.4350306052
 21
-20.7185847317
  0
LINE
  5
224
100
AcDbEntity
  8
RACCORDO
100
AcDbLine
 62
250
  6
CONTINUOUS
 10
-33.3767597574
 20
-17.1720354924
 11
-33.4500752857
 21
-15.9109616362
  0
LINE
  5
225
100
AcDbEntity
  8
RACCORDO
100
AcDbLine
 62
250
  6
CONTINUOUS
 10
-33.4500752857
 20
-15.9109616362
 11
-33.5238251216
 21
-14.5351693924
  0
LINE
  5
226
100
AcDbEntity
  8
RACCORDO
100
AcDbLine
 62
7
  6
CONTINUOUS
 10
-33.6642934429
 20
-16.3623679138
 11
-33.513688507
 21
-19.3860142501
  0
LINE
  5
227
100
AcDbEntity
  8
RACCORDO
100
AcDbLine
 62
250
  6
CONTINUOUS
 10
-33.5238251216
 20
-14.5351693924
 11
-33.60719369
 21
-12.8393419186
  0
LINE
  5
228
100
AcDbEntity
  8
RACCORDO
100
AcDbLine
 62
7
  6
CONTINUOUS
 10
-33.809861977
 20
-13.2200087246
 11
-33.6642934429
 21
-16.3623679138
  0
LINE
  5
229
100
AcDbEntity
  8
RACCORDO
100
AcDbLine
 62
250
  6
CONTINUOUS
 10
-33.60719369
 20
-12.8393419186
 11
-33.8387476802
 21
-7.8034456116
  0
LINE
  5
22A
100
AcDbEntity
  8
RACCORDO
100
AcDbLine
 62
250
  6
CONTINUOUS
 10
-33.8387476802
 20
-7.8034456116
 11
-34.0900949049
 21
-2.1811712049
  0
LINE
  5
22B
100
AcDbEntity
  8
RACCORDO
100
AcDbLine
 62
250
  6
CONTINUOUS
 10
-34.0900949049
 20
-2.1811712049
 11
-34.4299569631
 21
5.6399461227
  0
LINE
  5
22C
100
AcDbEntity
  8
RACCORDO
100
AcDbLine
 62
250
  6
CONTINUOUS
 10
-34.4299569631
 20
5.6399461227
 11
-34.8149155837
 21
14.7034756352
  0
LINE
  5
22D
100
AcDbEntity
  8
RACCORDO
100
AcDbLine
 62
250
  6
CONTINUOUS
 10
-34.8149155837
 20
14.7034756352
 11
-35.1074903889
 21
21.7610202693
  0
LINE
  5
22E
100
AcDbEntity
  8
RACCORDO
100
AcDbLine
 62
7
  6
CONTINUOUS
 10
-35.8276669458
 20
34.3120094632
 11
-33.809861977
 21
-13.2200087246
  0
LINE
  5
22F
100
AcDbEntity
  8
RACCORDO
100
AcDbLine
 62
250
  6
CONTINUOUS
 10
-35.1074903889
 20
21.7610202693
 11
-35.3568020809
 21
27.9697057521
  0
LINE
  5
230
100
AcDbEntity
  8
RACCORDO
100
AcDbLine
 62
250
  6
CONTINUOUS
 10
-35.3568020809
 20
27.9697057521
 11
-35.5507133229
 21
33.0438083875
  0
LINE
  5
231
100
AcDbEntity
  8
RACCORDO
100
AcDbLine
 62
250
  6
CONTINUOUS
 10
-35.5507133229
 20
33.0438083875
 11
-35.5985030163
 21
34.5234017614
  0
LWPOLYLINE
  5
232
100
AcDbEntity
  8
RACCORDO
100
AcDbPolyline
 62
7
  6
CONTINUOUS
 90
4
 70
0
 10
-36.0327025739
 20
40.3350959814
 10
-35.9957427017
 20
38.9492311965
 10
-35.9428254173
 20
37.4287355975
 10
-35.8276669458
 20
34.3120094632
  0
LINE
  5
233
100
AcDbEntity
  8
RACCORDO
100
AcDbLine
 62
250
  6
CONTINUOUS
 10
-35.7030089654
 20
38.9179269185
 11
-35.7055878689
 21
39.0135285427
  0
LINE
  5
234
100
AcDbEntity
  8
RACCORDO
100
AcDbLine
 62
250
  6
CONTINUOUS
 10
-35.5985030163
 20
34.5234017614
 11
-35.6356150466
 21
35.874365112
  0
LINE
  5
235
100
AcDbEntity
  8
RACCORDO
100
AcDbLine
 62
250
  6
CONTINUOUS
 10
-35.6356150466
 20
35.874365112
 11
-35.6987529666
 21
38.7073287982
  0
LWPOLYLINE
  5
236
100
AcDbEntity
  8
RACCORDO
100
AcDbPolyline
 62
250
  6
CONTINUOUS
 90
7
 70
0
 10
-35.7055878689
 20
39.0135285427
 10
-35.7064952436
 20
39.0594836573
 10
-35.7068725545
 20
39.1046175827
 10
-35.706840381
 20
39.1490708846
 10
-35.7063011807
 20
39.1930410567
 10
-35.7049868607
 20
39.2362998005
 10
-35.7012863235
 20
39.3211858828
  0
LINE
  5
237
100
AcDbEntity
  8
RACCORDO
100
AcDbLine
 62
250
  6
CONTINUOUS
 10
-35.6987529666
 20
38.7073287982
 11
-35.7030089654
 21
38.9179269185
  0
LINE
  5
238
100
AcDbEntity
  8
RACCORDO
100
AcDbLine
 62
250
  6
CONTINUOUS
 10
-35.6956459299
 20
39.488892063
 11
-35.6837067511
 21
39.9401917943
  0
LWPOLYLINE
  5
239
100
AcDbEntity
  8
RACCORDO
100
AcDbPolyline
 62
250
  6
CONTINUOUS
 90
3
 70
0
 10
-35.7012863235
 20
39.3211858828
 10
-35.6997642752
 20
39.3633292816
 10
-35.6956459299
 20
39.488892063
  0
LWPOLYLINE
  5
23A
100
AcDbEntity
  8
0
100
AcDbPolyline
 62
7
  6
CONTINUOUS
 90
5
 70
0
 10
18.2769975024
 20
-31.8611590043
 10
18.2566052987
 20
-31.8659728347
 10
18.2247343398
 20
-31.8687774199
 10
18.1914304737
 20
-31.8674913213
 10
18.15709011
 20
-31.8623015583
  0
LINE
  5
23B
100
AcDbEntity
  8
RACCORDO
100
AcDbLine
 62
250
  6
CONTINUOUS
 10
30.9994683403
 20
-43.884240605
 11
30.9179226934
 21
-43.8616608376
  0
LWPOLYLINE
  5
23C
100
AcDbEntity
  8
RACCORDO
100
AcDbPolyline
 62
250
  6
CONTINUOUS
 90
8
 70
0
 10
-33.4342013746
 20
-20.7274952932
 10
-33.4206713582
 20
-20.7952892161
 10
-33.3941532443
 20
-20.86129746
 10
-33.3550433175
 20
-20.924414926
 10
-33.3038566175
 20
-20.9838104185
 10
-33.2412672233
 20
-21.0387017566
 10
-33.1680993763
 20
-21.0883660748
 10
-33.085316626
 20
-21.1321493423
  0
LINE
  5
23D
100
AcDbEntity
  8
RACCORDO
100
AcDbLine
 62
250
  6
CONTINUOUS
 10
-33.1538343091
 20
-20.5295217704
 11
-33.1640531603
 21
-20.4469296
  0
LWPOLYLINE
  5
23E
100
AcDbEntity
  8
RACCORDO
100
AcDbPolyline
 62
250
  6
CONTINUOUS
 90
7
 70
0
 10
-33.1640531603
 20
-20.4469296
 10
-33.1688912759
 20
-20.4052178636
 10
-33.1734010176
 20
-20.3634443832
 10
-33.1776133742
 20
-20.3218503625
 10
-33.1812428333
 20
-20.2805388603
 10
-33.1839993109
 20
-20.2396238887
 10
-33.1885937209
 20
-20.1565264081
  0
LINE
  5
23F
100
AcDbEntity
  8
RACCORDO
100
AcDbLine
 62
250
  6
CONTINUOUS
 10
-33.1347866968
 20
-20.6924815809
 11
-33.1538343091
 21
-20.5295217704
  0
LINE
  5
240
100
AcDbEntity
  8
RACCORDO
100
AcDbLine
 62
250
  6
CONTINUOUS
 10
-33.085316626
 20
-21.1321493423
 11
-33.1347866968
 21
-20.6924815809
  0
LWPOLYLINE
  5
241
100
AcDbEntity
  8
RACCORDO
100
AcDbPolyline
 62
250
  6
CONTINUOUS
 90
8
 70
0
 10
-34.8022832374
 20
9.7395696527
 10
-34.7998407861
 20
9.7114505823
 10
-34.7878100576
 20
9.6567285941
 10
-34.7663033975
 20
9.6032129859
 10
-34.7355277844
 20
9.5514187875
 10
-34.6957794003
 20
9.5018444623
 10
-34.6474407803
 20
9.4549671096
 10
-34.5909771317
 20
9.4112378732
  0
LWPOLYLINE
  5
242
100
AcDbEntity
  8
RACCORDO
100
AcDbPolyline
 62
250
  6
CONTINUOUS
 90
9
 70
0
 10
-36.0326837168
 20
40.3350087685
 10
-36.0310054147
 20
40.3071044336
 10
-36.0177712175
 20
40.2470994646
 10
-35.9915654369
 20
40.1883907165
 10
-35.9527331699
 20
40.1317513099
 10
-35.9017857886
 20
40.0779271146
 10
-35.8393942058
 20
40.0276269277
 10
-35.7663800402
 20
39.9815131397
 10
-35.6837047963
 20
39.9401930115
  0
LWPOLYLINE
  5
243
100
AcDbEntity
  8
RACCORDO
100
AcDbPolyline
 62
250
  6
CONTINUOUS
 90
69
 70
0
 10
-25.3934801661
 20
23.5575278723
 10
-25.3735911243
 20
23.6135923311
 10
-25.3629229983
 20
23.6421472476
 10
-25.3513205196
 20
23.6712983535
 10
-25.3388549468
 20
23.7010559404
 10
-25.3253869623
 20
23.731445923
 10
-25.3108488751
 20
23.7624384212
 10
-25.2952489511
 20
23.7939128489
 10
-25.2785521332
 20
23.8257650346
 10
-25.2607025328
 20
23.8579704297
 10
-25.2416540088
 20
23.8904858782
 10
-25.2213955508
 20
23.9231769531
 10
-25.1998878932
 20
23.9559923115
 10
-25.1770935137
 20
23.9888797676
 10
-25.1530143287
 20
24.0217071808
 10
-25.1276157492
 20
24.054424642
 10
-25.100864004
 20
24.0869810646
 10
-25.0727723293
 20
24.1192489199
 10
-25.0433110902
 20
24.1511757182
 10
-25.0124524478
 20
24.1827148897
 10
-24.9802238493
 20
24.2137537826
 10
-24.9466006164
 20
24.2442425153
 10
-24.9115660377
 20
24.274130721
 10
-24.8751731268
 20
24.3033120591
 10
-24.8372871505
 20
24.3318234054
 10
-24.7980177858
 20
24.3595241415
 10
-24.7578146972
 20
24.38608544
 10
-24.7165528089
 20
24.4115728213
 10
-24.6743788908
 20
24.4358952755
 10
-24.6322696449
 20
24.4585771328
 10
-24.5905032168
 20
24.4795870642
 10
-24.5490201928
 20
24.4990512525
 10
-24.5082279804
 20
24.5168870123
 10
-24.4682790237
 20
24.5331308888
 10
-24.4288836192
 20
24.5480367683
 10
-24.3898803283
 20
24.5618078083
 10
-24.3515380467
 20
24.5744093238
 10
-24.3138800701
 20
24.5859001217
 10
-24.2763421624
 20
24.5965691783
 10
-24.2389428381
 20
24.6064585279
 10
-24.2017187295
 20
24.6155666816
 10
-24.1641692717
 20
24.6240415407
 10
-24.1264984238
 20
24.6318928443
 10
-24.0889349812
 20
24.6390317878
 10
-24.0509188324
 20
24.6454271942
 10
-24.0123393215
 20
24.6510334335
 10
-23.9731259445
 20
24.6559365719
 10
-23.9326622258
 20
24.66025647
 10
-23.8908566377
 20
24.6639691416
 10
-23.8476068305
 20
24.6670004303
 10
-23.8023168135
 20
24.6693127845
 10
-23.7547451072
 20
24.670816162
 10
-23.7051150917
 20
24.6713983439
 10
-23.6535697267
 20
24.6709597285
 10
-23.5998405387
 20
24.6693741137
 10
-23.5441779401
 20
24.6665653439
 10
-23.4875052554
 20
24.6625760369
 10
-23.4299237741
 20
24.6573114205
 10
-23.3713066703
 20
24.6508032771
 10
-23.3121212331
 20
24.6433400925
 10
-23.2524397377
 20
24.6349992735
 10
-23.1915456419
 20
24.6254824603
 10
-23.1287989018
 20
24.6144971761
 10
-23.065013781
 20
24.6021538669
 10
-23.0003522534
 20
24.5883761089
 10
-22.9334855355
 20
24.5725208606
 10
-22.8637797861
 20
24.5541849336
 10
-22.7916281333
 20
24.5333740481
 10
-22.7169156719
 20
24.5098909015
  0
LINE
  5
244
100
AcDbEntity
  8
RACCORDO
100
AcDbLine
 62
250
  6
CONTINUOUS
 10
-25.4447532793
 20
23.4144149064
 11
-25.3934801661
 21
23.5575278723
  0
LWPOLYLINE
  5
245
100
AcDbEntity
  8
RACCORDO
100
AcDbPolyline
 62
250
  6
CONTINUOUS
 90
13
 70
0
 10
-12.4574757018
 20
34.9747688932
 10
-12.509538567
 20
34.9185051845
 10
-12.5604928127
 20
34.8551096575
 10
-12.6098480125
 20
34.7851924842
 10
-12.6571291302
 20
34.7094266061
 10
-12.7018810928
 20
34.6285412581
 10
-12.7436731695
 20
34.5433149486
 10
-12.7821031183
 20
34.4545679674
 10
-12.8168010569
 20
34.3631544903
 10
-12.8474330233
 20
34.2699543574
 10
-12.8737041896
 20
34.1758646053
 10
-12.8953616999
 20
34.081790833
 10
-12.9121971042
 20
33.9886384856
  0
LINE
  5
246
100
AcDbEntity
  8
RACCORDO
100
AcDbLine
 62
250
  6
CONTINUOUS
 10
-22.8237306936
 20
21.7500358622
 11
-22.7621157705
 21
21.8006125182
  0
LWPOLYLINE
  5
247
100
AcDbEntity
  8
RACCORDO
100
AcDbPolyline
 62
250
  6
CONTINUOUS
 90
5
 70
0
 10
30.9179226934
 20
-43.8616608376
 10
30.5532809038
 20
-43.7596800791
 10
30.5227428992
 20
-43.7509885069
 10
30.4919775328
 20
-43.7419933724
 10
30.4610178409
 20
-43.7326054421
  0
LWPOLYLINE
  5
248
100
AcDbEntity
  8
RACCORDO
100
AcDbPolyline
 62
7
  6
CONTINUOUS
 90
14
 70
0
 10
31.2042427731
 20
-44.2306939881
 10
31.260537039
 20
-44.2472415223
 10
31.4529518953
 20
-44.294546889
 10
31.643918684
 20
-44.327214453
 10
31.8327805588
 20
-44.3452080226
 10
32.0187370346
 20
-44.3485026076
 10
32.2007418102
 20
-44.3371513394
 10
32.3779016227
 20
-44.3113178511
 10
32.5493697414
 20
-44.2712445764
 10
32.7139706374
 20
-44.2173687177
 10
32.8707434098
 20
-44.1502491835
 10
33.0187858217
 20
-44.0705563097
 10
33.1569837845
 20
-43.9793001745
 10
33.2185471328
 20
-43.9325203263
  0
LINE
  5
249
100
AcDbEntity
  8
RACCORDO
100
AcDbLine
 62
7
  6
CONTINUOUS
 10
31.2046788017
 20
-44.2308263058
 11
31.2042427524
 21
-44.2306940566
  0
LINE
  5
24A
100
AcDbEntity
  8
RACCORDO
100
AcDbLine
 62
250
  6
CONTINUOUS
 10
27.3394899563
 20
-42.7625689983
 11
25.5875604972
 21
-42.2213449263
  0
LINE
  5
24B
100
AcDbEntity
  8
RACCORDO
100
AcDbLine
 62
250
  6
CONTINUOUS
 10
30.4610178409
 20
-43.7326054421
 11
27.3394899563
 21
-42.7625689983
  0
LINE
  5
24C
100
AcDbEntity
  8
RACCORDO
100
AcDbLine
 62
250
  6
CONTINUOUS
 10
25.5875604972
 20
-42.2213449263
 11
21.1585974991
 21
-40.8237515708
  0
LINE
  5
24D
100
AcDbEntity
  8
RACCORDO
100
AcDbLine
 62
7
  6
CONTINUOUS
 10
30.0795788113
 20
-43.8721640257
 11
31.2046788017
 21
-44.2308263058
  0
LINE
  5
24E
100
AcDbEntity
  8
RACCORDO
100
AcDbLine
 62
250
  6
CONTINUOUS
 10
21.1585974991
 20
-40.8237515708
 11
19.5828876739
 21
-40.3180833818
  0
LINE
  5
24F
100
AcDbEntity
  8
RACCORDO
100
AcDbLine
 62
7
  6
CONTINUOUS
 10
24.7746027584
 20
-42.1617664696
 11
30.0795788113
 21
-43.8721640257
  0
LINE
  5
250
100
AcDbEntity
  8
RACCORDO
100
AcDbLine
 62
7
  6
CONTINUOUS
 10
20.5129837986
 20
-40.7769828064
 11
24.7746027584
 21
-42.1617664696
  0
LINE
  5
251
100
AcDbEntity
  8
RACCORDO
100
AcDbLine
 62
250
  6
CONTINUOUS
 10
19.5828876739
 20
-40.3180833818
 11
17.7858986831
 21
-39.7334413274
  0
LINE
  5
252
100
AcDbEntity
  8
RACCORDO
100
AcDbLine
 62
7
  6
CONTINUOUS
 10
17.5479552244
 20
-39.8022589603
 11
20.5129837986
 21
-40.7769828064
  0
LINE
  5
253
100
AcDbEntity
  8
RACCORDO
100
AcDbLine
 62
250
  6
CONTINUOUS
 10
17.7858986831
 20
-39.7334413274
 11
15.7464281207
 21
-39.0610146636
  0
LINE
  5
254
100
AcDbEntity
  8
RACCORDO
100
AcDbLine
 62
250
  6
CONTINUOUS
 10
-9.9459643676
 20
-30.529484979
 11
-15.6397479445
 21
-28.6514669435
  0
LINE
  5
255
100
AcDbEntity
  8
RACCORDO
100
AcDbLine
 62
7
  6
CONTINUOUS
 10
-17.7184913067
 20
-28.1061063431
 11
-9.9907617466
 21
-30.6645734484
  0
LWPOLYLINE
  5
256
100
AcDbEntity
  8
RACCORDO
100
AcDbPolyline
 62
7
  6
CONTINUOUS
 90
3
 70
0
 10
-9.990766162
 20
-30.6645719838
 10
12.9139719409
 20
-38.2635781757
 10
17.5479552244
 20
-39.8022589603
  0
LINE
  5
257
100
AcDbEntity
  8
RACCORDO
100
AcDbLine
 62
250
  6
CONTINUOUS
 10
-15.6397479445
 20
-28.6514669435
 11
-17.697754721
 21
-27.9673604166
  0
LINE
  5
258
100
AcDbEntity
  8
RACCORDO
100
AcDbLine
 62
250
  6
CONTINUOUS
 10
15.7464281207
 20
-39.0610146636
 11
-9.9459643676
 21
-30.529484979
  0
LINE
  5
259
100
AcDbEntity
  8
RACCORDO
100
AcDbLine
 62
7
  6
CONTINUOUS
 10
-20.6688513462
 20
-27.1190221102
 11
-17.7184913067
 21
-28.1061063431
  0
LINE
  5
25A
100
AcDbEntity
  8
RACCORDO
100
AcDbLine
 62
250
  6
CONTINUOUS
 10
-17.697754721
 20
-27.9673604166
 11
-19.4573507172
 21
-27.3754556178
  0
LWPOLYLINE
  5
25B
100
AcDbEntity
  8
RACCORDO
100
AcDbPolyline
 62
7
  6
CONTINUOUS
 90
3
 70
0
 10
-30.1035163176
 20
-23.9124425709
 10
-26.2328540009
 20
-25.2342805312
 10
-20.6688513462
 20
-27.1190221102
  0
LINE
  5
25C
100
AcDbEntity
  8
RACCORDO
100
AcDbLine
 62
250
  6
CONTINUOUS
 10
-19.4573507172
 20
-27.3754556178
 11
-20.979192193
 21
-26.8571492051
  0
LINE
  5
25D
100
AcDbEntity
  8
RACCORDO
100
AcDbLine
 62
7
  6
CONTINUOUS
 10
-31.2149913114
 20
-23.5292311973
 11
-30.1035163176
 21
-23.9124425709
  0
LINE
  5
25E
100
AcDbEntity
  8
RACCORDO
100
AcDbLine
 62
250
  6
CONTINUOUS
 10
-20.979192193
 20
-26.8571492051
 11
-22.6115740363
 21
-26.2943264712
  0
LINE
  5
25F
100
AcDbEntity
  8
RACCORDO
100
AcDbLine
 62
250
  6
CONTINUOUS
 10
-22.6115740363
 20
-26.2943264712
 11
-26.2333690479
 21
-25.0316942941
  0
LINE
  5
260
100
AcDbEntity
  8
RACCORDO
100
AcDbLine
 62
250
  6
CONTINUOUS
 10
-26.2333690479
 20
-25.0316942941
 11
-30.8988017298
 21
-23.3827108748
  0
LWPOLYLINE
  5
261
100
AcDbEntity
  8
RACCORDO
100
AcDbPolyline
 62
250
  6
CONTINUOUS
 90
3
 70
0
 10
-30.8988017298
 20
-23.3827108748
 10
-30.9301130525
 20
-23.3714627835
 10
-30.9612877278
 20
-23.3599364285
  0
LINE
  5
262
100
AcDbEntity
  8
RACCORDO
100
AcDbLine
 62
7
  6
CONTINUOUS
 10
-31.2140828841
 20
-23.529558587
 11
-31.2149912855
 21
-23.5292311255
  0
LINE
  5
263
100
AcDbEntity
  8
RACCORDO
100
AcDbLine
 62
250
  6
CONTINUOUS
 10
-30.9612877278
 20
-23.3599364285
 11
-31.0230986253
 21
-23.3365265368
  0
LWPOLYLINE
  5
264
100
AcDbEntity
  8
RACCORDO
100
AcDbPolyline
 62
250
  6
CONTINUOUS
 90
3
 70
0
 10
-31.0230986253
 20
-23.3365265368
 10
-31.3931469776
 20
-23.1939341535
 10
-31.4332356122
 20
-23.1783468837
  0
LWPOLYLINE
  5
265
100
AcDbEntity
  8
RACCORDO
100
AcDbPolyline
 62
250
  6
CONTINUOUS
 90
7
 70
0
 10
-9.9907661454
 20
-30.6645719896
 10
-10.0119039734
 20
-30.6562798418
 10
-10.0514782012
 20
-30.6330001389
 10
-10.0874385781
 20
-30.6008886838
 10
-10.1194389938
 20
-30.5602545434
 10
-10.1471713897
 20
-30.5114888345
 10
-10.1703688227
 20
-30.4550609272
  0
LWPOLYLINE
  5
266
100
AcDbEntity
  8
RACCORDO
100
AcDbPolyline
 62
250
  6
CONTINUOUS
 90
7
 70
0
 10
9.816461268
 20
-37.2336667093
 10
9.7953261685
 20
-37.2253754669
 10
9.7557484325
 20
-37.2020946005
 10
9.7197849019
 20
-37.1699820995
 10
9.68778172
 20
-37.1293470417
 10
9.6600469123
 20
-37.080580533
 10
9.636847422
 20
-37.0241519434
  0
LWPOLYLINE
  5
267
100
AcDbEntity
  8
RACCORDO
100
AcDbPolyline
 62
250
  6
CONTINUOUS
 90
37
 70
0
 10
-31.4332356079
 20
-23.1783468792
 10
-31.4682715744
 20
-23.1643605461
 10
-31.5043525407
 20
-23.1492094781
 10
-31.5414607837
 20
-23.1328363087
 10
-31.5794984452
 20
-23.1152195313
 10
-31.6185176263
 20
-23.0962683652
 10
-31.6587194402
 20
-23.0758057207
 10
-31.7000706092
 20
-23.0537574935
 10
-31.7425303821
 20
-23.0300515006
 10
-31.7862776513
 20
-23.0044822156
 10
-31.8312577414
 20
-22.9769617776
 10
-31.87740767
 20
-22.9474043089
 10
-31.924875558
 20
-22.9155759824
 10
-31.9735760094
 20
-22.8813773164
 10
-32.0234110042
 20
-22.8447146873
 10
-32.0744809875
 20
-22.8053349008
 10
-32.1266538564
 20
-22.7631379691
 10
-32.1797839742
 20
-22.7180300594
 10
-32.2339133076
 20
-22.6697412996
 10
-32.2888568194
 20
-22.618172862
 10
-32.3444056531
 20
-22.5632441902
 10
-32.4005112112
 20
-22.5046993634
 10
-32.4568597529
 20
-22.442526009
 10
-32.5132085278
 20
-22.3766336267
 10
-32.5695342423
 20
-22.3066372676
 10
-32.6254013954
 20
-22.2326013267
 10
-32.6804710658
 20
-22.1544647154
 10
-32.7347140257
 20
-22.0716484545
 10
-32.7875780509
 20
-21.9842270034
 10
-32.8384698982
 20
-21.8923463988
 10
-32.8870802892
 20
-21.7955742539
 10
-32.9326943512
 20
-21.6940625271
 10
-32.9744297731
 20
-21.5883162128
 10
-33.0115233027
 20
-21.4785575557
 10
-33.0430439433
 20
-21.36530893
 10
-33.0679734575
 20
-21.2494753632
 10
-33.0853146895
 20
-21.1321478753
  0
LWPOLYLINE
  5
268
100
AcDbEntity
  8
RACCORDO
100
AcDbPolyline
 62
250
  6
CONTINUOUS
 90
8
 70
0
 10
-31.2149912855
 20
-23.5292311255
 10
-31.2329880283
 20
-23.5218506416
 10
-31.2814938977
 20
-23.492325554
 10
-31.3246276945
 20
-23.4508300781
 10
-31.3618181558
 20
-23.3979137789
 10
-31.3925727318
 20
-23.3342774786
 10
-31.4164841098
 20
-23.260763975
 10
-31.4332356079
 20
-23.1783468792
  0
LWPOLYLINE
  5
269
100
AcDbEntity
  8
RACCORDO
100
AcDbPolyline
 62
250
  6
CONTINUOUS
 90
16
 70
0
 10
-23.0005793353
 20
22.8992483014
 10
-23.0316341436
 20
22.7983516734
 10
-23.0569344111
 20
22.6972069439
 10
-23.0762360223
 20
22.5969635565
 10
-23.0894542178
 20
22.4987917275
 10
-23.0963853814
 20
22.4037745118
 10
-23.0967674302
 20
22.3129157932
 10
-23.0904946143
 20
22.2272015812
 10
-23.0779652608
 20
22.1477031409
 10
-23.0597286139
 20
22.0754484101
 10
-23.0360506139
 20
22.0112690538
 10
-23.007089473
 20
21.9558496402
 10
-22.9732048061
 20
21.9098236155
 10
-22.9347743811
 20
21.8737068134
 10
-22.892167148
 20
21.8478839571
 10
-22.8697917699
 20
21.8390423856
  0
LWPOLYLINE
  5
26A
100
AcDbEntity
  8
RACCORDO
100
AcDbPolyline
 62
250
  6
CONTINUOUS
 90
10
 70
0
 10
-23.0045699042
 20
22.9005734943
 10
-22.948076409
 20
23.0839072893
 10
-22.8973172467
 20
23.2678606775
 10
-22.8525008373
 20
23.4516783149
 10
-22.8138111987
 20
23.6346054148
 10
-22.7814071915
 20
23.8158908473
 10
-22.7554218662
 20
23.9947902233
 10
-22.7359619174
 20
24.1705689516
 10
-22.7231072451
 20
24.3425052542
 10
-22.7169106269
 20
24.5098931313
  0
LWPOLYLINE
  5
26B
100
AcDbEntity
  8
RACCORDO
100
AcDbPolyline
 62
7
  6
CONTINUOUS
 90
6
 70
0
 10
-20.6405072632
 20
19.5744605695
 10
-20.6244769908
 20
19.5913015055
 10
-20.6121530312
 20
19.6041124633
 10
-20.6037802925
 20
19.6132900014
 10
-20.6000069244
 20
19.6194253106
 10
-20.5997863894
 20
19.6215399029
  0
LINE
  5
26C
100
AcDbEntity
  8
RACCORDO
100
AcDbLine
 62
7
  6
CONTINUOUS
 10
-20.6486207305
 20
19.5672899509
 11
-20.7833273627
 21
19.4549438251
  0
LINE
  5
26D
100
AcDbEntity
  8
DRAFT
100
AcDbLine
 62
7
  6
CONTINUOUS
 10
-20.9449753214
 20
19.320128474
 11
-21.0527406272
 21
19.2302515733
  0
LWPOLYLINE
  5
26E
100
AcDbEntity
  8
RACCORDO
100
AcDbPolyline
 62
250
  6
CONTINUOUS
 90
10
 70
0
 10
17.6563531942
 20
-28.2095598199
 10
17.8474723129
 20
-28.1956039949
 10
18.0389143934
 20
-28.1885653209
 10
18.2298979885
 20
-28.1884725291
 10
18.4196435222
 20
-28.1953259983
 10
18.6073764723
 20
-28.2090977533
 10
18.7923305315
 20
-28.2297315793
 10
18.9737507361
 20
-28.257143251
 10
19.1508965468
 20
-28.2912208768
 10
19.3230448722
 20
-28.3318253552
  0
LWPOLYLINE
  5
26F
100
AcDbEntity
  8
RACCORDO
100
AcDbPolyline
 62
250
  6
CONTINUOUS
 90
17
 70
0
 10
17.6563531953
 20
-28.2095598463
 10
17.5504932318
 20
-28.21628076
 10
17.4447935078
 20
-28.2162495471
 10
17.3404455291
 20
-28.209509538
 10
17.2386212469
 20
-28.1960820817
 10
17.1404730997
 20
-28.1762773548
 10
17.0471180974
 20
-28.1506229954
 10
16.9596143424
 20
-28.1195977153
 10
16.8789354534
 20
-28.0833004183
 10
16.8059758028
 20
-28.0418203876
 10
16.7415512975
 20
-27.9955042282
 10
16.6863996264
 20
-27.9451896857
 10
16.6411546545
 20
-27.8917624377
 10
16.6063278677
 20
-27.835877649
 10
16.5823045601
 20
-27.7780122939
 10
16.5693520461
 20
-27.7187498377
 10
16.5672250637
 20
-27.6929585739
  0
LWPOLYLINE
  5
270
100
AcDbEntity
  8
0
100
AcDbPolyline
 62
250
  6
CONTINUOUS
 90
4
 70
0
 10
16.5610397499
 20
-27.5475506309
 10
16.5462071692
 20
-27.5475546729
 10
16.5140357284
 20
-27.5431054163
 10
16.4811211206
 20
-27.5342746165
  0
LWPOLYLINE
  5
271
100
AcDbEntity
  8
0
100
AcDbPolyline
 62
7
  6
CONTINUOUS
 90
8
 70
0
 10
18.0139685041
 20
-31.9527244646
 10
18.0530529931
 20
-31.9624266854
 10
18.0913307576
 20
-31.967459797
 10
18.1281026937
 20
-31.9675435776
 10
18.1627778611
 20
-31.9624646633
 10
18.1944737617
 20
-31.9521043458
 10
18.222171737
 20
-31.936681502
 10
18.2371565717
 20
-31.9246660553
  0
LINE
  5
272
100
AcDbEntity
  8
0
100
AcDbLine
 62
7
  6
CONTINUOUS
 10
18.15709011
 20
-31.8623015583
 11
18.1222113959
 21
-31.8534339386
  0
LINE
  5
273
100
AcDbEntity
  8
0
100
AcDbLine
 62
7
  6
CONTINUOUS
 10
19.0978106065
 20
-33.4763228421
 11
18.5290535208
 21
-33.3103209707
  0
LINE
  5
274
100
AcDbEntity
  8
0
100
AcDbLine
 62
7
  6
CONTINUOUS
 10
17.5897480242
 20
-33.0270900568
 11
17.2599327389
 21
-32.9250991617
  0
LWPOLYLINE
  5
275
100
AcDbEntity
  8
RACCORDO
100
AcDbPolyline
 62
250
  6
CONTINUOUS
 90
8
 70
0
 10
31.2042427524
 20
-44.2306940566
 10
31.178275363
 20
-44.2206336505
 10
31.1350104905
 20
-44.192846737
 10
31.0965237703
 20
-44.1528924595
 10
31.0633249198
 20
-44.1012999714
 10
31.035853624
 20
-44.0387525626
 10
31.0144737124
 20
-43.9660786098
 10
30.9994683403
 20
-43.884240605
  0
LWPOLYLINE
  5
276
100
AcDbEntity
  8
RACCORDO
100
AcDbPolyline
 62
250
  6
CONTINUOUS
 90
10
 70
0
 10
-21.3138679915
 20
-16.8389100974
 10
-21.2468293405
 20
-16.9127395466
 10
-21.185057208
 20
-16.9972588165
 10
-21.1288051759
 20
-17.092120904
 10
-21.0783041638
 20
-17.1969363403
 10
-21.0337614814
 20
-17.3112747894
 10
-20.9953599771
 20
-17.4346668156
 10
-20.9632572875
 20
-17.5666058103
 10
-20.9375851902
 20
-17.7065500724
 10
-20.9184490628
 20
-17.8539250323
  0
LWPOLYLINE
  5
277
100
AcDbEntity
  8
RACCORDO
100
AcDbPolyline
 62
250
  6
CONTINUOUS
 90
22
 70
0
 10
-21.3098277607
 20
-16.8402476677
 10
-21.3470330058
 20
-16.7972133774
 10
-21.3788997264
 20
-16.7447656088
 10
-21.4051088086
 20
-16.6834816367
 10
-21.4255148548
 20
-16.6140014501
 10
-21.4398119339
 20
-16.5371310611
 10
-21.4476073076
 20
-16.4538096907
 10
-21.448686343
 20
-16.3650137288
 10
-21.4434159312
 20
-16.2716133903
 10
-21.4323251522
 20
-16.1745014769
 10
-21.415614641
 20
-16.07474392
 10
-21.3933301863
 20
-15.9735073493
 10
-21.3657345888
 20
-15.8719238181
 10
-21.3331306337
 20
-15.7711360591
 10
-21.295828311
 20
-15.6722941338
 10
-21.2541919791
 20
-15.5765253834
 10
-21.2086746795
 20
-15.4849094381
 10
-21.1597909632
 20
-15.3984736636
 10
-21.1080800281
 20
-15.3181916686
 10
-21.0541178979
 20
-15.2449661219
 10
-20.9985089222
 20
-15.1796193299
 10
-20.9418746786
 20
-15.1228856331
  0
LWPOLYLINE
  5
278
100
AcDbEntity
  8
RACCORDO
100
AcDbPolyline
 62
250
  6
CONTINUOUS
 90
22
 70
0
 10
-22.9883357528
 20
-14.7296743651
 10
-22.9470936031
 20
-14.7851265012
 10
-22.8957541143
 20
-14.8371283833
 10
-22.8348935785
 20
-14.8851374208
 10
-22.7652001286
 20
-14.9285405421
 10
-22.6874502134
 20
-14.9670284628
 10
-22.6025033991
 20
-15.000519228
 10
-22.5113059456
 20
-15.028855117
 10
-22.414896743
 20
-15.0514099062
 10
-22.3143771263
 20
-15.0675369355
 10
-22.2108835197
 20
-15.0769163618
 10
-22.1055641789
 20
-15.0798031786
 10
-21.9995894048
 20
-15.0765139082
 10
-21.8941495474
 20
-15.0671451729
 10
-21.7904373403
 20
-15.0516416469
 10
-21.6896220705
 20
-15.0301092278
 10
-21.5928386476
 20
-15.0027676692
 10
-21.5011754701
 20
-14.9699353507
 10
-21.4156637482
 20
-14.9319809496
 10
-21.3372656101
 20
-14.8893266275
 10
-21.2668631683
 20
-14.8424461772
 10
-21.2052483971
 20
-14.7918658355
  0
LWPOLYLINE
  5
279
100
AcDbEntity
  8
RACCORDO
100
AcDbPolyline
 62
250
  6
CONTINUOUS
 90
10
 70
0
 10
-22.9883338116
 20
-14.7296729113
 10
-23.0591031649
 20
-14.6288598118
 10
-23.1410967588
 20
-14.531134223
 10
-23.233979904
 20
-14.4368950453
 10
-23.3373734615
 20
-14.3465269478
 10
-23.4508553899
 20
-14.2603987983
 10
-23.5739624679
 20
-14.1788621572
 10
-23.7061921855
 20
-14.1022498432
 10
-23.8470047951
 20
-14.0308745738
 10
-23.9958255144
 20
-13.9650276898
  0
LWPOLYLINE
  5
27A
100
AcDbEntity
  8
RACCORDO
100
AcDbPolyline
 62
250
  6
CONTINUOUS
 90
15
 70
0
 10
-23.7464015615
 20
-15.089585463
 10
-23.8222335569
 20
-14.87063294
 10
-23.8410921413
 20
-14.8127890209
 10
-23.8589250152
 20
-14.7537231394
 10
-23.8759250068
 20
-14.6935823397
 10
-23.8923648193
 20
-14.6315267872
 10
-23.9082004889
 20
-14.5674828399
 10
-23.9232738415
 20
-14.501423102
 10
-23.9375811426
 20
-14.4326254549
 10
-23.9509368017
 20
-14.3610440559
 10
-23.9631017215
 20
-14.2869823876
 10
-23.9739134363
 20
-14.2102667688
 10
-23.983148568
 20
-14.1309066404
 10
-23.9905398636
 20
-14.0491102176
 10
-23.9958260235
 20
-13.9650280886
  0
LINE
  5
27B
100
AcDbEntity
  8
RACCORDO
100
AcDbLine
 62
250
  6
CONTINUOUS
 10
-23.9958255144
 20
-13.9650276898
 11
-24.3113386449
 21
-7.0779085886
  0
LINE
  5
27C
100
AcDbEntity
  8
RACCORDO
100
AcDbLine
 62
250
  6
CONTINUOUS
 10
-24.3113386449
 20
-7.0779085886
 11
-24.5505551967
 21
-1.5809134222
  0
LINE
  5
27D
100
AcDbEntity
  8
RACCORDO
100
AcDbLine
 62
250
  6
CONTINUOUS
 10
-24.5505551967
 20
-1.5809134222
 11
-25.0457380061
 21
10.056695705
  0
LINE
  5
27E
100
AcDbEntity
  8
RACCORDO
100
AcDbLine
 62
250
  6
CONTINUOUS
 10
-25.0457380061
 20
10.056695705
 11
-25.2701843425
 21
15.448482188
  0
LINE
  5
27F
100
AcDbEntity
  8
RACCORDO
100
AcDbLine
 62
250
  6
CONTINUOUS
 10
-22.9883338116
 20
-14.7296729113
 11
-24.5450619901
 21
21.8595343768
  0
LINE
  5
280
100
AcDbEntity
  8
RACCORDO
100
AcDbLine
 62
250
  6
CONTINUOUS
 10
-25.2701843425
 20
15.448482188
 11
-25.4301139075
 21
19.4467164124
  0
LINE
  5
281
100
AcDbEntity
  8
RACCORDO
100
AcDbLine
 62
250
  6
CONTINUOUS
 10
-25.4301139075
 20
19.4467164124
 11
-25.5510096921
 21
22.5878965426
  0
LWPOLYLINE
  5
282
100
AcDbEntity
  8
RACCORDO
100
AcDbPolyline
 62
250
  6
CONTINUOUS
 90
94
 70
0
 10
-24.5450639933
 20
21.8595328889
 10
-24.5462087171
 20
21.8920402571
 10
-24.5466505995
 20
21.9232414428
 10
-24.5464544461
 20
21.9531455103
 10
-24.545682587
 20
21.9817420762
 10
-24.544397311
 20
22.0090651503
 10
-24.5426571684
 20
22.0351918639
 10
-24.5405191736
 20
22.0601057294
 10
-24.5380329666
 20
22.0838528868
 10
-24.5352321738
 20
22.1066015745
 10
-24.5321596478
 20
22.1283527004
 10
-24.5288528384
 20
22.1491323296
 10
-24.5253186734
 20
22.169139603
 10
-24.5215847108
 20
22.1883901086
 10
-24.5176787621
 20
22.2068887209
 10
-24.5135908437
 20
22.2248107278
 10
-24.509339703
 20
22.2421662669
 10
-24.504943531
 20
22.2589592922
 10
-24.5003771021
 20
22.2753483051
 10
-24.4956645594
 20
22.2912915791
 10
-24.490805156
 20
22.3068390033
 10
-24.4857180951
 20
22.3222755812
 10
-24.4803993279
 20
22.3376004495
 10
-24.474851491
 20
22.3528076139
 10
-24.4689815207
 20
22.3681601334
 10
-24.4627704377
 20
22.3836694829
 10
-24.4562135292
 20
22.3993020406
 10
-24.4492195779
 20
22.4152397931
 10
-24.4417487589
 20
22.4315091493
 10
-24.4337977961
 20
22.44804532
 10
-24.4253183804
 20
22.4648842311
 10
-24.4162708174
 20
22.4820304045
 10
-24.4066440213
 20
22.4994308211
 10
-24.3964308503
 20
22.5170327563
 10
-24.3856045371
 20
22.5348153072
 10
-24.3741432382
 20
22.5527474545
 10
-24.3620510676
 20
22.5707633174
 10
-24.3493061567
 20
22.5888365815
 10
-24.3358863138
 20
22.606939892
 10
-24.3218003143
 20
22.6250090481
 10
-24.3070285314
 20
22.6430179321
 10
-24.291552201
 20
22.6609382139
 10
-24.2753870629
 20
22.6787063531
 10
-24.2585181972
 20
22.6962952604
 10
-24.2409292646
 20
22.7136784443
 10
-24.2226397839
 20
22.7307978221
 10
-24.2036369242
 20
22.7476287635
 10
-24.1839097108
 20
22.7641440226
 10
-24.1634865553
 20
22.7802868061
 10
-24.1422920372
 20
22.79608241
 10
-24.120383221
 20
22.8114535084
 10
-24.0980076078
 20
22.8262126573
 10
-24.0751047141
 20
22.8403997303
 10
-24.0517524963
 20
22.8539635558
 10
-24.0284519422
 20
22.8666395861
 10
-24.0052994008
 20
22.8784357509
 10
-23.9822743421
 20
22.8894174419
 10
-23.9597455139
 20
22.8994685025
 10
-23.9379213535
 20
22.9085863862
 10
-23.9166901893
 20
22.9168940535
 10
-23.8959475313
 20
22.9244760915
 10
-23.8758108461
 20
22.9313452813
 10
-23.8562304741
 20
22.9375785085
 10
-23.8368303206
 20
22.9433236487
 10
-23.8176418771
 20
22.9485937718
 10
-23.7986660663
 20
22.9534146184
 10
-23.779454754
 20
22.9579075882
 10
-23.7599689518
 20
22.9620708308
 10
-23.7402524725
 20
22.9658964044
 10
-23.7199599369
 20
22.9694561758
 10
-23.6990422784
 20
22.9727356441
 10
-23.6775365757
 20
22.9757038024
 10
-23.6552123593
 20
22.9783781902
 10
-23.6320661077
 20
22.9807274538
 10
-23.6080812531
 20
22.9827114828
 10
-23.582996971
 20
22.9843075198
 10
-23.5566907441
 20
22.9854649366
 10
-23.5292559716
 20
22.9861215505
 10
-23.500752762
 20
22.9862249006
 10
-23.4710191177
 20
22.9857171384
 10
-23.4401974129
 20
22.9845394836
 10
-23.4088189883
 20
22.9826754421
 10
-23.3769161455
 20
22.9801129369
 10
-23.3444687065
 20
22.9768211716
 10
-23.3119505371
 20
22.9728213793
 10
-23.2796302009
 20
22.9681699387
 10
-23.247272892
 20
22.9628397083
 10
-23.214603784
 20
22.9567388953
 10
-23.1819677356
 20
22.9499222381
 10
-23.1490497915
 20
22.9423315933
 10
-23.1145728548
 20
22.9336061902
 10
-23.0781123405
 20
22.9235267875
 10
-23.0401091032
 20
22.9121065646
 10
-23.0005793353
 20
22.8992483014
  0
LWPOLYLINE
  5
283
100
AcDbEntity
  8
RACCORDO
100
AcDbPolyline
 62
250
  6
CONTINUOUS
 90
20
 70
0
 10
-25.5510096844
 20
22.5878965484
 10
-25.5526144129
 20
22.6506196675
 10
-25.5528733365
 20
22.7107598458
 10
-25.5519144153
 20
22.768341431
 10
-25.5498677949
 20
22.8233582282
 10
-25.5468489521
 20
22.8758819972
 10
-25.5429511352
 20
22.9260545846
 10
-25.5382803544
 20
22.9738523361
 10
-25.532939786
 20
23.0193730247
 10
-25.5269912112
 20
23.0629305833
 10
-25.5205138127
 20
23.1045292187
 10
-25.5135873392
 20
23.1442223334
 10
-25.506238694
 20
23.182382359
 10
-25.4985446334
 20
23.2190381001
 10
-25.4905400314
 20
23.2542078369
 10
-25.4821543351
 20
23.2882299091
 10
-25.4734262983
 20
23.3211300626
 10
-25.4643774277
 20
23.3529548059
 10
-25.454875602
 20
23.384061765
 10
-25.4447532793
 20
23.4144149064
  0
LWPOLYLINE
  5
284
100
AcDbEntity
  8
RACCORDO
100
AcDbPolyline
 62
7
  6
CONTINUOUS
 90
4
 70
0
 10
-20.4341618043
 20
14.7245344022
 10
-20.4184492562
 20
14.7488431032
 10
-20.4067541372
 20
14.7764342778
 10
-20.3992704807
 20
14.8065087291
  0
LINE
  5
285
100
AcDbEntity
  8
RACCORDO
100
AcDbLine
 62
7
  6
CONTINUOUS
 10
-20.4422175664
 20
14.716007486
 11
-20.5760053724
 21
14.5820653469
  0
LINE
  5
286
100
AcDbEntity
  8
DRAFT
100
AcDbLine
 62
7
  6
CONTINUOUS
 10
-20.7365507397
 20
14.4213347799
 11
-20.8435809845
 21
14.3141810686
  0
LINE
  5
287
100
AcDbEntity
  8
0
100
AcDbLine
 62
7
  6
CONTINUOUS
 10
17.7201639019
 20
-30.9378451918
 11
17.9700784117
 21
-31.0139692626
  0
LINE
  5
288
100
AcDbEntity
  8
0
100
AcDbLine
 62
7
  6
CONTINUOUS
 10
18.0779426766
 20
-30.9150260486
 11
17.8285157764
 21
-30.8390727545
  0
LINE
  5
289
100
AcDbEntity
  8
0
100
AcDbLine
 62
7
  6
CONTINUOUS
 10
17.6772498315
 20
-31.8491438838
 11
18.0139685636
 21
-31.9527226974
  0
LINE
  5
28A
100
AcDbEntity
  8
0
100
AcDbLine
 62
7
  6
CONTINUOUS
 10
17.9465700865
 20
-31.4102180154
 11
17.6763790695
 21
-31.3270570808
  0
LINE
  5
28B
100
AcDbEntity
  8
0
100
AcDbLine
 62
7
  6
CONTINUOUS
 10
18.1222111961
 20
-31.8534324092
 11
17.7195073753
 21
-31.7294443447
  0
LINE
  5
28C
100
AcDbEntity
  8
0
100
AcDbLine
 62
7
  6
CONTINUOUS
 10
17.9038948056
 20
-32.3116655389
 11
17.4690925447
 21
-32.1775985321
  0
LINE
  5
28D
100
AcDbEntity
  8
0
100
AcDbLine
 62
7
  6
CONTINUOUS
 10
17.2599327389
 20
-32.9250991617
 11
17.092261358
 21
-32.8728429181
  0
LINE
  5
28E
100
AcDbEntity
  8
0
100
AcDbLine
 62
7
  6
CONTINUOUS
 10
17.4656084684
 20
-30.8587629601
 11
17.7201639019
 21
-30.9378451918
  0
LINE
  5
28F
100
AcDbEntity
  8
0
100
AcDbLine
 62
7
  6
CONTINUOUS
 10
17.8285157764
 20
-30.8390727545
 11
17.5742067047
 21
-30.7600840669
  0
LINE
  5
290
100
AcDbEntity
  8
0
100
AcDbLine
 62
7
  6
CONTINUOUS
 10
17.7195073753
 20
-31.7294443447
 11
17.5165979594
 21
-31.6661022296
  0
LINE
  5
291
100
AcDbEntity
  8
0
100
AcDbLine
 62
7
  6
CONTINUOUS
 10
17.4084402249
 20
-31.7653146414
 11
17.6772498315
 21
-31.8491438838
  0
LWPOLYLINE
  5
292
100
AcDbEntity
  8
0
100
AcDbPolyline
 62
7
  6
CONTINUOUS
 90
3
 70
0
 10
17.6763790695
 20
-31.3270570808
 10
17.4085383349
 20
-31.2430858051
 10
17.341946476
 20
-31.2219716363
  0
LINE
  5
293
100
AcDbEntity
  8
0
100
AcDbLine
 62
7
  6
CONTINUOUS
 10
17.2064835143
 20
-30.7767608773
 11
17.4656084684
 21
-30.8587629601
  0
LINE
  5
294
100
AcDbEntity
  8
0
100
AcDbLine
 62
7
  6
CONTINUOUS
 10
17.5742067047
 20
-30.7600840669
 11
17.3150561147
 21
-30.6780894821
  0
LINE
  5
295
100
AcDbEntity
  8
0
100
AcDbLine
 62
7
  6
CONTINUOUS
 10
16.7616044998
 20
-32.7691086273
 11
16.2667646863
 21
-32.6124266967
  0
LINE
  5
296
100
AcDbEntity
  8
0
100
AcDbLine
 62
7
  6
CONTINUOUS
 10
16.050016942
 20
-32.1301130865
 11
15.2719048902
 21
-31.8795624399
  0
LWPOLYLINE
  5
297
100
AcDbEntity
  8
0
100
AcDbPolyline
 62
7
  6
CONTINUOUS
 90
3
 70
0
 10
17.3150561147
 20
-30.6780894821
 10
17.0512266208
 20
-30.5932069847
 10
16.9175471215
 20
-30.5496753947
  0
LINE
  5
298
100
AcDbEntity
  8
0
100
AcDbLine
 62
7
  6
CONTINUOUS
 10
15.1761453
 20
-32.2630233721
 11
14.6838686324
 21
-32.1040113537
  0
LINE
  5
299
100
AcDbEntity
  8
0
100
AcDbLine
 62
7
  6
CONTINUOUS
 10
15.7767725627
 20
-31.5050171652
 11
15.4752978405
 21
-31.4073849847
  0
LINE
  5
29A
100
AcDbEntity
  8
0
100
AcDbLine
 62
7
  6
CONTINUOUS
 10
15.3671845697
 20
-31.5065566103
 11
15.8440931122
 21
-31.6609052739
  0
LINE
  5
29B
100
AcDbEntity
  8
RACCORDO
100
AcDbLine
 62
250
  6
CONTINUOUS
 10
16.4838480585
 20
-30.2584979873
 11
15.4641483337
 21
-29.9292141432
  0
LINE
  5
29C
100
AcDbEntity
  8
0
100
AcDbLine
 62
7
  6
CONTINUOUS
 10
14.3559974643
 20
-31.9977138636
 11
13.8646091567
 21
-31.8378801077
  0
LWPOLYLINE
  5
29D
100
AcDbEntity
  8
0
100
AcDbPolyline
 62
7
  6
CONTINUOUS
 90
3
 70
0
 10
16.8097459028
 20
-30.6485607767
 10
16.9430746511
 20
-30.6919921817
 10
17.2064835143
 20
-30.7767608773
  0
LINE
  5
29E
100
AcDbEntity
  8
0
100
AcDbLine
 62
7
  6
CONTINUOUS
 10
13.4004483874
 20
-31.6863708431
 11
12.9099241876
 21
-31.5257660346
  0
LINE
  5
29F
100
AcDbEntity
  8
RACCORDO
100
AcDbLine
 62
250
  6
CONTINUOUS
 10
15.4641483337
 20
-29.9292141432
 11
13.3491413547
 21
-29.2372519793
  0
LINE
  5
2A0
100
AcDbEntity
  8
0
100
AcDbLine
 62
7
  6
CONTINUOUS
 10
15.2048472113
 20
-30.1228647834
 11
15.6948089313
 21
-30.2840366145
  0
LINE
  5
2A1
100
AcDbEntity
  8
0
100
AcDbLine
 62
7
  6
CONTINUOUS
 10
15.8025439764
 20
-30.185211933
 11
15.3125653941
 21
-30.0240555696
  0
LINE
  5
2A2
100
AcDbEntity
  8
0
100
AcDbLine
 62
7
  6
CONTINUOUS
 10
12.4464962934
 20
-31.3735987276
 11
11.9566505977
 21
-31.2123499434
  0
LINE
  5
2A3
100
AcDbEntity
  8
0
100
AcDbLine
 62
7
  6
CONTINUOUS
 10
13.3527156135
 20
-29.5115511301
 11
14.0924929638
 21
-29.7559922364
  0
LINE
  5
2A4
100
AcDbEntity
  8
0
100
AcDbLine
 62
7
  6
CONTINUOUS
 10
14.2001843026
 20
-29.6572076465
 11
13.4603950114
 21
-29.4127774934
  0
LINE
  5
2A5
100
AcDbEntity
  8
0
100
AcDbLine
 62
7
  6
CONTINUOUS
 10
11.4671169672
 20
-31.0508306941
 11
10.9778342647
 21
-30.8890714739
  0
LINE
  5
2A6
100
AcDbEntity
  8
0
100
AcDbLine
 62
7
  6
CONTINUOUS
 10
11.69983856
 20
-28.964489362
 11
12.4391839046
 21
-29.2093267445
  0
LINE
  5
2A7
100
AcDbEntity
  8
0
100
AcDbLine
 62
7
  6
CONTINUOUS
 10
12.5468533176
 20
-29.110562267
 11
11.8075028677
 21
-28.8657295675
  0
LINE
  5
2A8
100
AcDbEntity
  8
0
100
AcDbLine
 62
7
  6
CONTINUOUS
 10
10.7219144159
 20
-28.6403938678
 11
11.2108608453
 21
-28.8024675434
  0
LINE
  5
2A9
100
AcDbEntity
  8
0
100
AcDbLine
 62
7
  6
CONTINUOUS
 10
11.3185229336
 20
-28.7037097847
 11
10.8295750409
 21
-28.5416374514
  0
LINE
  5
2AA
100
AcDbEntity
  8
RACCORDO
100
AcDbLine
 62
250
  6
CONTINUOUS
 10
13.3491413547
 20
-29.2372519793
 11
10.0787673453
 21
-28.1568708238
  0
LINE
  5
2AB
100
AcDbEntity
  8
0
100
AcDbLine
 62
7
  6
CONTINUOUS
 10
9.9070879065
 20
-28.3701899736
 11
10.3959763514
 21
-28.5323242068
  0
LINE
  5
2AC
100
AcDbEntity
  8
0
100
AcDbLine
 62
7
  6
CONTINUOUS
 10
10.5036363562
 20
-28.4335683592
 11
10.0147474195
 21
-28.2714345772
  0
LINE
  5
2AD
100
AcDbEntity
  8
0
100
AcDbLine
 62
7
  6
CONTINUOUS
 10
8.3375604056
 20
-27.8495048901
 11
8.8263954523
 21
-28.0116881051
  0
LINE
  5
2AE
100
AcDbEntity
  8
0
100
AcDbLine
 62
7
  6
CONTINUOUS
 10
8.9340551341
 20
-27.9129325539
 11
8.4452204027
 21
-27.7507490497
  0
LINE
  5
2AF
100
AcDbEntity
  8
RACCORDO
100
AcDbLine
 62
250
  6
CONTINUOUS
 10
10.0787673453
 20
-28.1568708238
 11
-14.7853127313
 21
-19.9105958001
  0
LINE
  5
2B0
100
AcDbEntity
  8
0
100
AcDbLine
 62
7
  6
CONTINUOUS
 10
9.8669543513
 20
-30.5208271722
 11
9.3782321481
 21
-30.3585317032
  0
LINE
  5
2B1
100
AcDbEntity
  8
RACCORDO
100
AcDbLine
 62
250
  6
CONTINUOUS
 10
16.1143155932
 20
-29.2520162116
 11
-21.3138708558
 21
-16.8389057389
  0
LINE
  5
2B2
100
AcDbEntity
  8
RACCORDO
100
AcDbLine
 62
250
  6
CONTINUOUS
 10
-14.7853127313
 20
-19.9105958001
 11
-18.0847629896
 21
-18.8112438202
  0
LWPOLYLINE
  5
2B3
100
AcDbEntity
  8
0
100
AcDbPolyline
 62
7
  6
CONTINUOUS
 90
24
 70
0
 10
17.9700784316
 20
-31.0139676284
 10
18.0371892491
 20
-31.0367209734
 10
18.1059301008
 20
-31.0652266394
 10
18.1757367244
 20
-31.0996132145
 10
18.2462983025
 20
-31.1401244739
 10
18.3165773917
 20
-31.1865914638
 10
18.3849221129
 20
-31.2381928615
 10
18.4502745801
 20
-31.2941366323
 10
18.5124127765
 20
-31.3543026978
 10
18.5709619407
 20
-31.4186430094
 10
18.6252321626
 20
-31.4866288574
 10
18.6744677832
 20
-31.5576411467
 10
18.7180340736
 20
-31.6314713837
 10
18.7554249409
 20
-31.7079137954
 10
18.7855019293
 20
-31.7855206901
 10
18.8070731212
 20
-31.8621321791
 10
18.8199276373
 20
-31.936538554
 10
18.8240977342
 20
-32.0081116978
 10
18.8195057417
 20
-32.075697062
 10
18.8065550179
 20
-32.1381679267
 10
18.7856036667
 20
-32.1953443885
 10
18.7564997639
 20
-32.2474675739
 10
18.7192472999
 20
-32.2940630443
 10
18.701392177
 20
-32.3116332807
  0
LWPOLYLINE
  5
2B4
100
AcDbEntity
  8
RACCORDO
100
AcDbPolyline
 62
250
  6
CONTINUOUS
 90
82
 70
0
 10
-21.3098277607
 20
-16.8402476677
 10
-21.3477354017
 20
-16.8273158582
 10
-21.3842077029
 20
-16.8140502156
 10
-21.4192225306
 20
-16.8005551771
 10
-21.4522838164
 20
-16.7871288674
 10
-21.4838575811
 20
-16.7736845313
 10
-21.5153663352
 20
-16.7596613869
 10
-21.5472080868
 20
-16.7448706026
 10
-21.5789551515
 20
-16.7295030897
 10
-21.6107871852
 20
-16.7134759341
 10
-21.6428944783
 20
-16.6966788249
 10
-21.675056452
 20
-16.6792100232
 10
-21.7068415346
 20
-16.661310191
 10
-21.7382256011
 20
-16.6430096816
 10
-21.7692154148
 20
-16.6243186531
 10
-21.7994374548
 20
-16.6054880754
 10
-21.8287818223
 20
-16.5866262512
 10
-21.857358113
 20
-16.5677018074
 10
-21.8851296939
 20
-16.5487750971
 10
-21.9120517301
 20
-16.5299148909
 10
-21.9381758901
 20
-16.511122566
 10
-21.9636103328
 20
-16.4923527193
 10
-21.9884053423
 20
-16.4735967522
 10
-22.012517279
 20
-16.4549145975
 10
-22.0359128186
 20
-16.4363595608
 10
-22.0584661132
 20
-16.4180654655
 10
-22.0803166743
 20
-16.3999517866
 10
-22.1018222495
 20
-16.3817384642
 10
-22.12293793
 20
-16.3634737435
 10
-22.1437069969
 20
-16.3451324072
 10
-22.1646004409
 20
-16.3262957918
 10
-22.1855979823
 20
-16.3069658426
 10
-22.2066949117
 20
-16.2871310552
 10
-22.2283605518
 20
-16.26632028
 10
-22.2506659696
 20
-16.2444136317
 10
-22.2734795914
 20
-16.2214871732
 10
-22.2969453002
 20
-16.1973403944
 10
-22.3211621077
 20
-16.1717980388
 10
-22.3459430083
 20
-16.1449787421
 10
-22.3710036412
 20
-16.1171259478
 10
-22.3963413596
 20
-16.0881834614
 10
-22.421878862
 20
-16.0581773849
 10
-22.4472451131
 20
-16.0274988932
 10
-22.4723669817
 20
-15.9962097358
 10
-22.4972676497
 20
-15.964253404
 10
-22.5217481872
 20
-15.9318651232
 10
-22.545772464
 20
-15.8990834207
 10
-22.569345546
 20
-15.8658916701
 10
-22.5923487007
 20
-15.832453521
 10
-22.6147739171
 20
-15.7987838642
 10
-22.6366130451
 20
-15.7648980053
 10
-22.6577629866
 20
-15.7309672125
 10
-22.6782249392
 20
-15.6970087468
 10
-22.697999622
 20
-15.6630406737
 10
-22.7170000117
 20
-15.6292406745
 10
-22.7352376251
 20
-15.5956254974
 10
-22.7527221737
 20
-15.5622150408
 10
-22.7693814258
 20
-15.5291951341
 10
-22.7852284702
 20
-15.4965991039
 10
-22.8002918321
 20
-15.4644280578
 10
-22.8145375885
 20
-15.4328208161
 10
-22.8279551217
 20
-15.4018822492
 10
-22.8406125436
 20
-15.3715362285
 10
-22.8525930425
 20
-15.341648669
 10
-22.8638668268
 20
-15.3123693642
 10
-22.8745088253
 20
-15.2835688493
 10
-22.8847251501
 20
-15.2546928122
 10
-22.8945029231
 20
-15.2257646575
 10
-22.9038422838
 20
-15.19677997
 10
-22.9129127246
 20
-15.1671446167
 10
-22.9216905765
 20
-15.1368220241
 10
-22.9301239091
 20
-15.1058746603
 10
-22.938285294
 20
-15.0738624091
 10
-22.9461158892
 20
-15.0407839613
 10
-22.9535415021
 20
-15.0066833536
 10
-22.9605602729
 20
-14.9711993016
 10
-22.9670880054
 20
-14.9342848081
 10
-22.9730043478
 20
-14.8960632249
 10
-22.978212515
 20
-14.8564442643
 10
-22.9825920574
 20
-14.8154393848
 10
-22.9860105861
 20
-14.7731586923
 10
-22.9883357528
 20
-14.7296743651
  0
LINE
  5
2B5
100
AcDbEntity
  8
RACCORDO
100
AcDbLine
 62
250
  6
CONTINUOUS
 10
-18.0847629896
 20
-18.8112438202
 11
-20.7202890121
 21
-17.9218481108
  0
LINE
  5
2B6
100
AcDbEntity
  8
RACCORDO
100
AcDbLine
 62
250
  6
CONTINUOUS
 10
-20.7202890121
 20
-17.9218481108
 11
-20.918448088
 21
-17.85392968
  0
LWPOLYLINE
  5
2B7
100
AcDbEntity
  8
RACCORDO
100
AcDbPolyline
 62
250
  6
CONTINUOUS
 90
65
 70
0
 10
-20.9184490628
 20
-17.8539250323
 10
-20.9883462591
 20
-17.8290481906
 10
-21.0563807853
 20
-17.8033781224
 10
-21.1225923723
 20
-17.7770188613
 10
-21.1864670443
 20
-17.750270141
 10
-21.2484308294
 20
-17.723113936
 10
-21.3098801417
 20
-17.695109655
 10
-21.3710418358
 20
-17.6661326082
 10
-21.4313123872
 20
-17.6365306217
 10
-21.4908893987
 20
-17.6064451426
 10
-21.5499672815
 20
-17.5759474427
 10
-21.6083339487
 20
-17.5449812055
 10
-21.6656829164
 20
-17.5134550333
 10
-21.7222444412
 20
-17.4811984717
 10
-21.7780929514
 20
-17.4482750116
 10
-21.8326032186
 20
-17.4150457612
 10
-21.8855702103
 20
-17.3816882653
 10
-21.937159763
 20
-17.3481853655
 10
-21.9873250415
 20
-17.3146302773
 10
-22.0360099536
 20
-17.2811253167
 10
-22.0832700379
 20
-17.247698698
 10
-22.1291810293
 20
-17.2143587554
 10
-22.1736209747
 20
-17.1812770497
 10
-22.2167545753
 20
-17.1483707208
 10
-22.2592631382
 20
-17.1150981479
 10
-22.3014680754
 20
-17.0811585186
 10
-22.3434767064
 20
-17.0465383977
 10
-22.3853525784
 20
-17.0113263407
 10
-22.4266190021
 20
-16.9759918101
 10
-22.4671709185
 20
-16.9406100391
 10
-22.5077721624
 20
-16.9045059249
 10
-22.5484564311
 20
-16.8676391691
 10
-22.5891899209
 20
-16.8299953256
 10
-22.630506642
 20
-16.7909750338
 10
-22.6722544944
 20
-16.7506592457
 10
-22.7142158772
 20
-16.7091977716
 10
-22.7569195674
 20
-16.6659227968
 10
-22.8007616928
 20
-16.6202809004
 10
-22.8455533356
 20
-16.572342003
 10
-22.8908420672
 20
-16.5224736287
 10
-22.9366135383
 20
-16.4705985183
 10
-22.9826694817
 20
-16.4168233356
 10
-23.0283209899
 20
-16.3618361214
 10
-23.0734406893
 20
-16.3057386692
 10
-23.1180726878
 20
-16.2484311887
 10
-23.1618309944
 20
-16.1903444806
 10
-23.2046379399
 20
-16.1315634833
 10
-23.2464997776
 20
-16.0720706489
 10
-23.2871910359
 20
-16.0121630108
 10
-23.3266912116
 20
-15.9518744423
 10
-23.3649885692
 20
-15.8912393603
 10
-23.4019012934
 20
-15.830565811
 10
-23.4374304406
 20
-15.769886375
 10
-23.4715771433
 20
-15.7092442478
 10
-23.504184829
 20
-15.648982029
 10
-23.535263807
 20
-15.5891523327
 10
-23.5648330463
 20
-15.529801301
 10
-23.5927979137
 20
-15.4712361932
 10
-23.6192068289
 20
-15.4134745223
 10
-23.6441034549
 20
-15.3565333886
 10
-23.6673702179
 20
-15.3008154383
 10
-23.688747117
 20
-15.2467857817
 10
-23.7085624646
 20
-15.1941741855
 10
-23.7277163578
 20
-15.1419030946
 10
-23.7464015615
 20
-15.089585463
  0
LINE
  5
2B8
100
AcDbEntity
  8
0
100
AcDbLine
 62
250
  6
CONTINUOUS
 10
-21.2052510911
 20
-14.7917780767
 11
-22.7621147087
 21
21.800613492
  0
LINE
  5
2B9
100
AcDbEntity
  8
SUPERFICI
100
AcDbLine
 62
7
  6
CONTINUOUS
 10
-21.2820462504
 20
21.3124655076
 11
-19.8007646558
 21
-13.5034514743
  0
LINE
  5
2BA
100
AcDbEntity
  8
DRAFT
100
AcDbLine
 62
7
  6
CONTINUOUS
 10
-21.0527406272
 20
19.2302515733
 11
-20.8435809845
 21
14.3141810686
  0
LINE
  5
2BB
100
AcDbEntity
  8
DRAFT
100
AcDbLine
 62
7
  6
CONTINUOUS
 10
-20.0546298035
 20
-4.2292605833
 11
-20.2637894462
 21
0.6868099214
  0
LINE
  5
2BC
100
AcDbEntity
  8
DRAFT
100
AcDbLine
 62
7
  6
CONTINUOUS
 10
-20.9449753214
 20
19.320128474
 11
-20.7365507397
 21
14.4213347799
  0
LINE
  5
2BD
100
AcDbEntity
  8
DRAFT
100
AcDbLine
 62
7
  6
CONTINUOUS
 10
-19.9475995587
 20
-4.122106872
 11
-20.1560241404
 21
0.7766868221
  0
LINE
  5
2BE
100
AcDbEntity
  8
DRAFT
100
AcDbLine
 62
7
  6
CONTINUOUS
 10
-20.7833273627
 20
19.4549438251
 11
-20.5760053724
 21
14.5820653469
  0
LINE
  5
2BF
100
AcDbEntity
  8
DRAFT
100
AcDbLine
 62
7
  6
CONTINUOUS
 10
-19.7870541914
 20
-3.961376305
 11
-19.9943761817
 21
0.9115021732
  0
LINE
  5
2C0
100
AcDbEntity
  8
RACCORDO
100
AcDbLine
 62
250
  6
CONTINUOUS
 10
-20.6486207305
 20
19.5672899509
 11
-20.4422175664
 21
14.716007486
  0
LINE
  5
2C1
100
AcDbEntity
  8
RACCORDO
100
AcDbLine
 62
250
  6
CONTINUOUS
 10
-19.8596695495
 20
1.0238482991
 11
-19.6532663854
 21
-3.8274341658
  0
LINE
  5
2C2
100
AcDbEntity
  8
RACCORDO
100
AcDbLine
 62
7
  6
CONTINUOUS
 10
-20.5999495148
 20
19.6215852862
 11
-20.3971472567
 21
14.854938212
  0
LINE
  5
2C3
100
AcDbEntity
  8
RACCORDO
100
AcDbLine
 62
7
  6
CONTINUOUS
 10
-19.8109983337
 20
1.0781436344
 11
-19.6081960757
 21
-3.6885034399
  0
LWPOLYLINE
  5
2C4
100
AcDbEntity
  8
RACCORDO
100
AcDbPolyline
 62
7
  6
CONTINUOUS
 90
3
 70
0
 10
-20.3992704807
 20
14.8065087291
 10
-20.3965884862
 20
14.8382955903
 10
-20.3969874178
 20
14.8549700712
  0
LWPOLYLINE
  5
2C5
100
AcDbEntity
  8
RACCORDO
100
AcDbPolyline
 62
7
  6
CONTINUOUS
 90
3
 70
0
 10
-19.6103192997
 20
-3.7369329228
 10
-19.6076373052
 20
-3.7051460615
 10
-19.6080362368
 20
-3.6884715806
  0
LWPOLYLINE
  5
2C6
100
AcDbEntity
  8
RACCORDO
100
AcDbPolyline
 62
250
  6
CONTINUOUS
 90
16
 70
0
 10
-14.1954871425
 20
19.9741905089
 10
-14.2243722006
 20
19.8728519754
 10
-14.247920297
 20
19.7714478927
 10
-14.2658681642
 20
19.6711118449
 10
-14.2780151459
 20
19.5729654352
 10
-14.2842254088
 20
19.4781059021
 10
-14.2844294932
 20
19.3875938338
 10
-14.2786251187
 20
19.302441105
 10
-14.2668771775
 20
19.2235995868
 10
-14.2493169995
 20
19.1519506455
 10
-14.2261409496
 20
19.0882952622
 10
-14.1976080523
 20
19.0333450182
 10
-14.1640370956
 20
18.9877141406
 10
-14.1258029388
 20
18.951912593
 10
-14.0833334198
 20
18.9263407386
 10
-14.0617397242
 20
18.917840678
  0
LWPOLYLINE
  5
2C7
100
AcDbEntity
  8
RACCORDO
100
AcDbPolyline
 62
250
  6
CONTINUOUS
 90
10
 70
0
 10
-14.1954870419
 20
19.9741904755
 10
-14.1404807238
 20
20.1604735431
 10
-14.0913696365
 20
20.347326013
 10
-14.0483604899
 20
20.5339614175
 10
-14.011634311
 20
20.7195942023
 10
-13.9813456814
 20
20.9034430332
 10
-13.9576220869
 20
21.0847340848
 10
-13.9405633807
 20
21.2627042974
 10
-13.9302413636
 20
21.4366045889
 10
-13.9266994813
 20
21.6057030075
  0
LWPOLYLINE
  5
2C8
100
AcDbEntity
  8
RACCORDO
100
AcDbPolyline
 62
7
  6
CONTINUOUS
 90
4
 70
0
 10
8.9325396095
 20
-22.068164588
 10
8.9622282552
 20
-22.0703293117
 10
8.9921906316
 20
-22.0772036344
 10
9.0056461936
 20
-22.0814178688
  0
LINE
  5
2C9
100
AcDbEntity
  8
0
100
AcDbLine
 62
250
  6
CONTINUOUS
 10
16.4811233349
 20
-27.5342725854
 11
-20.9418724295
 21
-15.122883571
  0
LINE
  5
2CA
100
AcDbEntity
  8
SUPERFICI
100
AcDbLine
 62
7
  6
CONTINUOUS
 10
16.4859109045
 20
-25.7817353905
 11
-19.537387227
 21
-13.8345580993
  0
LINE
  5
2CB
100
AcDbEntity
  8
DRAFT
100
AcDbLine
 62
7
  6
CONTINUOUS
 10
7.9417492666
 20
-22.8403114935
 11
13.0400846884
 21
-24.5311815785
  0
LINE
  5
2CC
100
AcDbEntity
  8
DRAFT
100
AcDbLine
 62
7
  6
CONTINUOUS
 10
-5.9242712905
 20
-18.2416263505
 11
-11.0226067123
 21
-16.5507562655
  0
LINE
  5
2CD
100
AcDbEntity
  8
DRAFT
100
AcDbLine
 62
7
  6
CONTINUOUS
 10
-5.7764263579
 20
-18.0894584365
 11
-10.8482583189
 21
-16.4073782614
  0
LINE
  5
2CE
100
AcDbEntity
  8
DRAFT
100
AcDbLine
 62
7
  6
CONTINUOUS
 10
8.11609766
 20
-22.6969334895
 11
13.1879296209
 21
-24.3790136646
  0
LINE
  5
2CF
100
AcDbEntity
  8
DRAFT
100
AcDbLine
 62
7
  6
CONTINUOUS
 10
8.2323299222
 20
-22.6013481534
 11
13.2864929093
 21
-24.2775683886
  0
LINE
  5
2D0
100
AcDbEntity
  8
DRAFT
100
AcDbLine
 62
7
  6
CONTINUOUS
 10
-5.6778630696
 20
-17.9880131605
 11
-10.7320260566
 21
-16.3117929254
  0
LINE
  5
2D1
100
AcDbEntity
  8
DRAFT
100
AcDbLine
 62
7
  6
CONTINUOUS
 10
8.4066783156
 20
-22.4579701494
 11
13.4343378418
 21
-24.1254004746
  0
LINE
  5
2D2
100
AcDbEntity
  8
DRAFT
100
AcDbLine
 62
7
  6
CONTINUOUS
 10
-5.5300181371
 20
-17.8358452466
 11
-10.5576776632
 21
-16.1684149213
  0
LWPOLYLINE
  5
2D3
100
AcDbEntity
  8
0
100
AcDbPolyline
 62
250
  6
CONTINUOUS
 90
13
 70
0
 10
-20.9418746778
 20
-15.1228856333
 10
-20.9749692746
 20
-15.1098243879
 10
-21.0076776027
 20
-15.0927561783
 10
-21.0394400134
 20
-15.0719730463
 10
-21.0697130432
 20
-15.0478305971
 10
-21.0979787121
 20
-15.0207419146
 10
-21.1237533867
 20
-14.9911704938
 10
-21.1465960551
 20
-14.9596223099
 10
-21.1661158729
 20
-14.9266371609
 10
-21.1819788508
 20
-14.8927794321
 10
-21.1939135686
 20
-14.8586284384
 10
-21.2017158201
 20
-14.8247685129
 10
-21.2052521066
 20
-14.7917790083
  0
LWPOLYLINE
  5
2D4
100
AcDbEntity
  8
SUPERFICI
100
AcDbPolyline
 62
7
  6
CONTINUOUS
 90
13
 70
0
 10
-19.537387227
 20
-13.8345580993
 10
-19.5713807594
 20
-13.8209088355
 10
-19.6039021198
 20
-13.8039382761
 10
-19.6349513079
 20
-13.7836464209
 10
-19.6650038412
 20
-13.7595776141
 10
-19.6935842023
 20
-13.7321875117
 10
-19.7192658393
 20
-13.7028430811
 10
-19.7419015568
 20
-13.671445092
 10
-19.7616385503
 20
-13.6380927747
 10
-19.7774918535
 20
-13.6044507884
 10
-19.7891331444
 20
-13.5710740194
 10
-19.7968907452
 20
-13.5374075813
 10
-19.8007646558
 20
-13.5034514743
  0
LINE
  5
2D5
100
AcDbEntity
  8
DRAFT
100
AcDbLine
 62
7
  6
CONTINUOUS
 10
-5.8450891497
 20
-18.2891653379
 11
-5.9242712905
 21
-18.2416263505
  0
LWPOLYLINE
  5
2D6
100
AcDbEntity
  8
RACCORDO
100
AcDbPolyline
 62
250
  6
CONTINUOUS
 90
10
 70
0
 10
-12.5049821598
 20
-19.7592929111
 10
-12.4388543026
 20
-19.8344577609
 10
-12.3781316584
 20
-19.9205584893
 10
-12.3230698172
 20
-20.0172326935
 10
-12.2739005403
 20
-20.1240734681
 10
-12.2308307852
 20
-20.2406311158
 10
-12.1940418344
 20
-20.3664150399
 10
-12.1636885314
 20
-20.5008958119
 10
-12.1398986296
 20
-20.6435073997
 10
-12.1227722545
 20
-20.7936495487
  0
LWPOLYLINE
  5
2D7
100
AcDbEntity
  8
RACCORDO
100
AcDbPolyline
 62
250
  6
CONTINUOUS
 90
22
 70
0
 10
-12.5049821598
 20
-19.7592929111
 10
-12.5399967449
 20
-19.7165687304
 10
-12.5700805505
 20
-19.6643605316
 10
-12.5948972715
 20
-19.6032519476
 10
-12.614169483
 20
-19.5339261083
 10
-12.627681742
 20
-19.4571580036
 10
-12.6352829957
 20
-19.3738058201
 10
-12.63688827
 20
-19.2848013476
 10
-12.6324796198
 20
-19.1911395624
 10
-12.6221063291
 20
-19.093867505
 10
-12.6058843603
 20
-18.9940725746
 10
-12.583995058
 20
-18.8928703738
 10
-12.5566831216
 20
-18.7913922366
 10
-12.5242538699
 20
-18.690772582
 10
-12.4870698277
 20
-18.592136232
 10
-12.4455466737
 20
-18.4965858373
 10
-12.400148593
 20
-18.4051895508
 10
-12.3513830883
 20
-18.3189690869
 10
-12.2997953069
 20
-18.2388882999
 10
-12.2459619459
 20
-18.1658424087
 10
-12.1904848056
 20
-18.1006479896
 10
-12.1339840622
 20
-18.0440338476
  0
LWPOLYLINE
  5
2D8
100
AcDbEntity
  8
RACCORDO
100
AcDbPolyline
 62
7
  6
CONTINUOUS
 90
6
 70
0
 10
-19.8515560822
 20
1.0310189176
 10
-19.8355258098
 20
1.0478598537
 10
-19.8232018502
 20
1.0606708114
 10
-19.8148291115
 20
1.0698483496
 10
-19.8110557434
 20
1.0759836588
 10
-19.8108352084
 20
1.0780982511
  0
LWPOLYLINE
  5
2D9
100
AcDbEntity
  8
RACCORDO
100
AcDbPolyline
 62
7
  6
CONTINUOUS
 90
4
 70
0
 10
-10.0318163694
 20
-15.77860936
 10
-10.0021277236
 20
-15.7807740837
 10
-9.9721653473
 20
-15.7876484064
 10
-9.9587097853
 20
-15.7918626407
  0
LINE
  5
2DA
100
AcDbEntity
  8
DRAFT
100
AcDbLine
 62
7
  6
CONTINUOUS
 10
8.5229105779
 20
-22.3623848133
 11
13.5329011301
 21
-24.0239551986
  0
LINE
  5
2DB
100
AcDbEntity
  8
DRAFT
100
AcDbLine
 62
7
  6
CONTINUOUS
 10
-5.4314548487
 20
-17.7343999706
 11
-10.441445401
 21
-16.0728295853
  0
LINE
  5
2DC
100
AcDbEntity
  8
DRAFT
100
AcDbLine
 62
7
  6
CONTINUOUS
 10
8.6972589713
 20
-22.2190068092
 11
13.6807460627
 21
-23.8717872846
  0
LINE
  5
2DD
100
AcDbEntity
  8
DRAFT
100
AcDbLine
 62
7
  6
CONTINUOUS
 10
-5.2836099162
 20
-17.5822320566
 11
-10.2670970076
 21
-15.9294515812
  0
LINE
  5
2DE
100
AcDbEntity
  8
RACCORDO
100
AcDbLine
 62
250
  6
CONTINUOUS
 10
-10.1218066797
 20
-15.8099699112
 11
-5.1604058057
 21
-17.4554254616
  0
LINE
  5
2DF
100
AcDbEntity
  8
RACCORDO
100
AcDbLine
 62
250
  6
CONTINUOUS
 10
8.8425492991
 20
-22.0995251392
 11
13.8039501731
 21
-23.7449806896
  0
LINE
  5
2E0
100
AcDbEntity
  8
RACCORDO
100
AcDbLine
 62
7
  6
CONTINUOUS
 10
-9.9586532498
 20
-15.7917685402
 11
-5.113646165
 21
-17.3986219274
  0
LINE
  5
2E1
100
AcDbEntity
  8
RACCORDO
100
AcDbLine
 62
7
  6
CONTINUOUS
 10
9.0057027291
 20
-22.0813237683
 11
13.8507098139
 21
-23.6881771554
  0
LINE
  5
2E2
100
AcDbEntity
  8
DRAFT
100
AcDbLine
 62
7
  6
CONTINUOUS
 10
-5.5986809288
 20
-18.0355521479
 11
-5.6778630696
 21
-17.9880131605
  0
LINE
  5
2E3
100
AcDbEntity
  8
DRAFT
100
AcDbLine
 62
7
  6
CONTINUOUS
 10
-5.3522727079
 20
-17.7819389579
 11
-5.4314548487
 21
-17.7343999706
  0
LWPOLYLINE
  5
2E4
100
AcDbEntity
  8
RACCORDO
100
AcDbPolyline
 62
250
  6
CONTINUOUS
 90
22
 70
0
 10
-23.7641973436
 20
3.5611100645
 10
-23.722453672
 20
3.5073887247
 10
-23.6706978587
 20
3.4567580814
 10
-23.6095082925
 20
3.4097839526
 10
-23.5395687857
 20
3.366991288
 10
-23.4616609391
 20
3.3288583187
 10
-23.3766554084
 20
3.2958112117
 10
-23.285502166
 20
3.2682192859
 10
-23.1892198822
 20
3.2463908865
 10
-23.0888845485
 20
3.2305699545
 10
-22.985617448
 20
3.2209332254
 10
-22.8805726333
 20
3.217588462
 10
-22.7749240296
 20
3.2205732503
 10
-22.669852322
 20
3.2298547264
 10
-22.5665317065
 20
3.2453286848
 10
-22.4661167768
 20
3.2668209451
 10
-22.3697297922
 20
3.2940932673
 10
-22.2784478312
 20
3.3268389381
 10
-22.1932907001
 20
3.3646849123
 10
-22.115209958
 20
3.4072057879
 10
-22.0450782809
 20
3.4539285334
 10
-21.9836794058
 20
3.5043307025
  0
LWPOLYLINE
  5
2E5
100
AcDbEntity
  8
RACCORDO
100
AcDbPolyline
 62
250
  6
CONTINUOUS
 90
10
 70
0
 10
-23.7641973485
 20
3.5611101798
 10
-23.8373311958
 20
3.6609250411
 10
-23.9219814545
 20
3.7575102796
 10
-24.0177923106
 20
3.8504598996
 10
-24.1243610385
 20
3.9393831874
 10
-24.2412396936
 20
4.0239063534
 10
-24.3679369952
 20
4.1036741029
 10
-24.5039203917
 20
4.1783511299
 10
-24.6486182986
 20
4.2476235266
 10
-24.8014225019
 20
4.3112001025
  0
LWPOLYLINE
  5
2E6
100
AcDbEntity
  8
RACCORDO
100
AcDbPolyline
 62
7
  6
CONTINUOUS
 90
3
 70
0
 10
-19.8108352084
 20
1.0780982511
 10
-19.8114799938
 20
1.0794987081
 10
-19.8126592103
 20
1.0802341626
  0
LINE
  5
2E7
100
AcDbEntity
  8
DRAFT
100
AcDbLine
 62
7
  6
CONTINUOUS
 10
-20.1560241404
 20
0.7766868221
 11
-20.2016292009
 21
0.8860248658
  0
LWPOLYLINE
  5
2E8
100
AcDbEntity
  8
RACCORDO
100
AcDbPolyline
 62
250
  6
CONTINUOUS
 90
13
 70
0
 10
-12.1227722532
 20
-20.7936495637
 10
-12.049084358
 20
-21.555294312
 10
-11.9626270262
 20
-22.3281059751
 10
-11.8627429957
 20
-23.1103145514
 10
-11.748791106
 20
-23.8993218448
 10
-11.6196587567
 20
-24.6953420063
 10
-11.4736574391
 20
-25.5009362873
 10
-11.3095894981
 20
-26.3147204126
 10
-11.1263907284
 20
-27.1344026922
 10
-10.9222470404
 20
-27.9604958498
 10
-10.6956266677
 20
-28.7914553695
 10
-10.4454393668
 20
-29.6238665364
 10
-10.1703688227
 20
-30.4550609272
  0
LWPOLYLINE
  5
2E9
100
AcDbEntity
  8
RACCORDO
100
AcDbPolyline
 62
250
  6
CONTINUOUS
 90
13
 70
0
 10
-13.9266994814
 20
21.605702871
 10
-13.9209229043
 20
22.4402397066
 10
-13.9042506964
 20
23.307651253
 10
-13.8759300157
 20
24.2074609884
 10
-13.8351550874
 20
25.1383979683
 10
-13.7809144316
 20
26.1026247631
 10
-13.7118561395
 20
27.105491621
 10
-13.6267591679
 20
28.1478328412
 10
-13.524451571
 20
29.2294080258
 10
-13.4032974916
 20
30.3538948013
 10
-13.2617537159
 20
31.5225694014
 10
-13.0985322466
 20
32.7341985527
 10
-12.9121971043
 20
33.9886384851
  0
LWPOLYLINE
  5
2EA
100
AcDbEntity
  8
RACCORDO
100
AcDbPolyline
 62
7
  6
CONTINUOUS
 90
4
 70
0
 10
-19.6452106233
 20
-3.8189072497
 10
-19.6294980752
 20
-3.7945985487
 10
-19.6178029562
 20
-3.7670073741
 10
-19.6103192997
 20
-3.7369329228
  0
LWPOLYLINE
  5
2EB
100
AcDbEntity
  8
RACCORDO
100
AcDbPolyline
 62
250
  6
CONTINUOUS
 90
13
 70
0
 10
7.3497405428
 20
28.4056778772
 10
7.2976925912
 20
28.3494092221
 10
7.2467484708
 20
28.2860103366
 10
7.1973986084
 20
28.2160913929
 10
7.1501163589
 20
28.1403258901
 10
7.1053584765
 20
28.0594425055
 10
7.0635607346
 20
27.974218075
 10
7.0251270231
 20
27.8854723419
 10
6.9904255763
 20
27.7940600283
 10
6.9597904563
 20
27.7008609414
 10
6.9335165239
 20
27.6067721067
 10
6.9118566019
 20
27.5126991342
 10
6.8950191403
 20
27.4195474691
  0
LINE
  5
2EC
100
AcDbEntity
  8
RACCORDO
100
AcDbLine
 62
7
  6
CONTINUOUS
 10
-19.6532663854
 20
-3.8274341658
 11
-19.7870541914
 21
-3.961376305
  0
LINE
  5
2ED
100
AcDbEntity
  8
DRAFT
100
AcDbLine
 62
7
  6
CONTINUOUS
 10
-19.9475995587
 20
-4.122106872
 11
-20.0546298035
 21
-4.2292605833
  0
LINE
  5
2EE
100
AcDbEntity
  8
RACCORDO
100
AcDbLine
 62
7
  6
CONTINUOUS
 10
-19.8596695495
 20
1.0238482991
 11
-19.9943761817
 21
0.9115021732
  0
LINE
  5
2EF
100
AcDbEntity
  8
DRAFT
100
AcDbLine
 62
7
  6
CONTINUOUS
 10
-20.1560241404
 20
0.7766868221
 11
-20.2637894462
 21
0.6868099214
  0
LINE
  5
2F0
100
AcDbEntity
  8
DRAFT
100
AcDbLine
 62
7
  6
CONTINUOUS
 10
13.1192668292
 20
-24.5787205659
 11
13.0400846884
 21
-24.5311815785
  0
LINE
  5
2F1
100
AcDbEntity
  8
DRAFT
100
AcDbLine
 62
7
  6
CONTINUOUS
 10
13.3656750501
 20
-24.3251073759
 11
13.2864929093
 21
-24.2775683886
  0
LINE
  5
2F2
100
AcDbEntity
  8
DRAFT
100
AcDbLine
 62
7
  6
CONTINUOUS
 10
13.6120832709
 20
-24.0714941859
 11
13.5329011301
 21
-24.0239551986
  0
LWPOLYLINE
  5
2F3
100
AcDbEntity
  8
RACCORDO
100
AcDbPolyline
 62
250
  6
CONTINUOUS
 90
13
 70
0
 10
-34.5909771323
 20
9.4112378729
 10
-33.7543219647
 20
8.8452748984
 10
-32.9150764749
 20
8.308536251
 10
-32.0760899074
 20
7.8002282695
 10
-31.241201917
 20
7.3201736193
 10
-30.4118250564
 20
6.8668350453
 10
-29.5866649886
 20
6.4374814718
 10
-28.7674085766
 20
6.0312239556
 10
-27.956424764
 20
5.6475086189
 10
-27.1529965057
 20
5.2843855696
 10
-26.3580455069
 20
4.9408739551
 10
-25.5739716722
 20
4.6167640782
 10
-24.8014223048
 20
4.3112000256
  0
LWPOLYLINE
  5
2F4
100
AcDbEntity
  8
RACCORDO
100
AcDbPolyline
 62
250
  6
CONTINUOUS
 90
10
 70
0
 10
7.3022340848
 20
-26.328383927
 10
7.3683640223
 20
-26.4035494668
 10
7.4290882266
 20
-26.4896507123
 10
7.4841511076
 20
-26.5863252607
 10
7.5333209039
 20
-26.6931662059
 10
7.5763906584
 20
-26.8097238509
 10
7.6131790892
 20
-26.935507601
 10
7.6435313525
 20
-27.0699880286
 10
7.6673196947
 20
-27.2125991013
 10
7.6844439901
 20
-27.3627405647
  0
LWPOLYLINE
  5
2F5
100
AcDbEntity
  8
RACCORDO
100
AcDbPolyline
 62
250
  6
CONTINUOUS
 90
22
 70
0
 10
7.3022341855
 20
-26.3283839604
 10
7.2672197431
 20
-26.2856600383
 10
7.2371359885
 20
-26.2334521165
 10
7.2123192476
 20
-26.1723437757
 10
7.1930469648
 20
-26.1030180604
 10
7.1795346217
 20
-26.0262499501
 10
7.1719332969
 20
-25.9428977346
 10
7.1703279609
 20
-25.8538932542
 10
7.1747365577
 20
-25.7602314448
 10
7.1851098038
 20
-25.6629593487
 10
7.2013317975
 20
-25.563164387
 10
7.2232211339
 20
-25.4619621442
 10
7.2505329325
 20
-25.3604838967
 10
7.2829614465
 20
-25.2598639241
 10
7.3201445784
 20
-25.1612271923
 10
7.361667752
 20
-25.0656767198
 10
7.407065081
 20
-24.9742800988
 10
7.4558307621
 20
-24.888059609
 10
7.5074258507
 20
-24.8079811619
 10
7.5612757164
 20
-24.7349406642
 10
7.61677649
 20
-24.66975401
 10
7.6733079941
 20
-24.6131500066
  0
LINE
  5
2F6
100
AcDbEntity
  8
DRAFT
100
AcDbLine
 62
7
  6
CONTINUOUS
 10
-20.9449753214
 20
19.320128474
 11
-20.9905803819
 21
19.4294665177
  0
LWPOLYLINE
  5
2F7
100
AcDbEntity
  8
RACCORDO
100
AcDbPolyline
 62
7
  6
CONTINUOUS
 90
3
 70
0
 10
-5.1121032256
 20
-17.400507003
 10
-5.1125595432
 20
-17.3993434793
 10
-5.113634985
 20
-17.3987384859
  0
LWPOLYLINE
  5
2F8
100
AcDbEntity
  8
RACCORDO
100
AcDbPolyline
 62
250
  6
CONTINUOUS
 90
10
 70
0
 10
16.8707138979
 20
-9.9155150615
 10
17.0648453845
 20
-9.9043395469
 10
17.2592052915
 20
-9.9002888127
 10
17.4529766587
 20
-9.9033798701
 10
17.6453449997
 20
-9.9135997107
 10
17.8355017255
 20
-9.9309053617
 10
18.0226475433
 20
-9.9552240663
 10
18.205995816
 20
-9.9864535892
 10
18.384775869
 20
-10.024462647
 10
18.5582362294
 20
-10.0690914594
  0
LWPOLYLINE
  5
2F9
100
AcDbEntity
  8
RACCORDO
100
AcDbPolyline
 62
250
  6
CONTINUOUS
 90
17
 70
0
 10
16.870713893
 20
-9.9155149463
 10
16.7651130637
 20
-9.920369377
 10
16.6597667566
 20
-9.9188969577
 10
16.5558522572
 20
-9.9111141423
 10
16.4545308472
 20
-9.8971079008
 10
16.356934836
 20
-9.8770347613
 10
16.2641549054
 20
-9.8511190627
 10
16.1772279091
 20
-9.8196504278
 10
16.0971252871
 20
-9.7829805261
 10
16.0247422173
 20
-9.7415191576
 10
15.9608876052
 20
-9.6957296
 10
15.9062750537
 20
-9.6461236377
 10
15.861514888
 20
-9.5932558435
 10
15.8271073412
 20
-9.5377175279
 10
15.8034369102
 20
-9.4801288714
 10
15.7907680678
 20
-9.4211321959
 10
15.7887930631
 20
-9.3967382682
  0
LWPOLYLINE
  5
2FA
100
AcDbEntity
  8
RACCORDO
100
AcDbPolyline
 62
250
  6
CONTINUOUS
 90
13
 70
0
 10
31.3156046018
 20
-12.4467722893
 10
30.0169833979
 20
-12.3045678639
 10
28.7639459835
 20
-12.147397955
 10
27.556557466
 20
-11.9770227727
 10
26.3963343213
 20
-11.79539602
 10
25.2814772235
 20
-11.603926678
 10
24.2070058337
 20
-11.4032648173
 10
23.1722876192
 20
-11.1946490523
 10
22.1775464559
 20
-10.9794931719
 10
21.219323677
 20
-10.7583621849
 10
20.2964807964
 20
-10.532165049
 10
19.4098073444
 20
-10.3021692437
 10
18.5582362291
 20
-10.0690914598
  0
LWPOLYLINE
  5
2FB
100
AcDbEntity
  8
RACCORDO
100
AcDbPolyline
 62
250
  6
CONTINUOUS
 90
10
 70
0
 10
16.1143155932
 20
-29.2520162116
 10
16.1783016188
 20
-29.3248348978
 10
16.2370368435
 20
-29.4083497717
 10
16.2902800857
 20
-29.502217906
 10
16.3378127143
 20
-29.6060538611
 10
16.3794395476
 20
-29.7194312682
 10
16.4149896535
 20
-29.8418845795
 10
16.4443170521
 20
-29.9729109803
 10
16.4673013147
 20
-30.1119724531
 10
16.4838480585
 20
-30.2584979873
  0
LWPOLYLINE
  5
2FC
100
AcDbEntity
  8
RACCORDO
100
AcDbPolyline
 62
7
  6
CONTINUOUS
 90
3
 70
0
 10
-20.5997863894
 20
19.6215399029
 10
-20.6004311748
 20
19.62294036
 10
-20.6016103913
 20
19.6236758145
  0
LINE
  5
2FD
100
AcDbEntity
  8
RACCORDO
100
AcDbLine
 62
250
  6
CONTINUOUS
 10
-5.1176037029
 20
-18.2716145706
 11
-5.1526537834
 21
-17.4478004502
  0
LINE
  5
2FE
100
AcDbEntity
  8
RACCORDO
100
AcDbLine
 62
7
  6
CONTINUOUS
 10
-5.0788175549
 20
-18.1828503073
 11
-5.1120960349
 21
-17.4006757334
  0
LINE
  5
2FF
100
AcDbEntity
  8
RACCORDO
100
AcDbLine
 62
250
  6
CONTINUOUS
 10
-5.0787423591
 20
-18.1884128017
 11
-5.0788175549
 21
-18.1828503073
  0
LWPOLYLINE
  5
300
100
AcDbEntity
  8
RACCORDO
100
AcDbPolyline
 62
250
  6
CONTINUOUS
 90
4
 70
0
 10
-5.1176037029
 20
-18.2716145706
 10
-5.1184008489
 20
-18.3026075606
 10
-5.1235159543
 20
-18.3320252597
 10
-5.1329460392
 20
-18.3593395691
  0
LINE
  5
301
100
AcDbEntity
  8
DRAFT
100
AcDbLine
 62
7
  6
CONTINUOUS
 10
-10.8482583189
 20
-16.4073782614
 11
-10.925476671
 21
-16.5914929489
  0
LINE
  5
302
100
AcDbEntity
  8
DRAFT
100
AcDbLine
 62
7
  6
CONTINUOUS
 10
-10.5576776632
 20
-16.1684149213
 11
-10.6348960153
 21
-16.3525296088
  0
LINE
  5
303
100
AcDbEntity
  8
0
100
AcDbLine
 62
250
  6
CONTINUOUS
 10
-19.8007646558
 20
-13.5034514743
 11
-21.2052510911
 21
-14.7917780767
  0
LINE
  5
304
100
AcDbEntity
  8
RACCORDO
100
AcDbLine
 62
250
  6
CONTINUOUS
 10
-19.8515560822
 20
1.0310189176
 11
-20.4272733764
 21
1.2219563648
  0
LINE
  5
305
100
AcDbEntity
  8
RACCORDO
100
AcDbLine
 62
7
  6
CONTINUOUS
 10
-19.8125484638
 20
1.0801974404
 11
-20.4299539714
 21
1.2849608419
  0
LWPOLYLINE
  5
306
100
AcDbEntity
  8
RACCORDO
100
AcDbPolyline
 62
250
  6
CONTINUOUS
 90
20
 70
0
 10
16.1103228675
 20
-29.2506930919
 10
16.0769226477
 20
-29.2089206151
 10
16.0480520915
 20
-29.1574664017
 10
16.0240747406
 20
-29.0969224958
 10
16.0053914228
 20
-29.0280136727
 10
15.9921556798
 20
-28.9514953874
 10
15.9843312673
 20
-28.8681644045
 10
15.9819052402
 20
-28.7789216267
 10
15.9852334471
 20
-28.6848772382
 10
15.9946869807
 20
-28.5872225373
 10
16.0102205109
 20
-28.4870747014
 10
16.0315521217
 20
-28.3855220558
 10
16.058476842
 20
-28.2837159564
 10
16.0906897282
 20
-28.1827984878
 10
16.1277666896
 20
-28.0838818194
 10
16.1692367923
 20
-27.9880579405
 10
16.2146160844
 20
-27.896396231
 10
16.2634036479
 20
-27.8099285756
 10
16.3150515143
 20
-27.7296256674
 10
16.3689758039
 20
-27.6563875704
  0
LWPOLYLINE
  5
307
100
AcDbEntity
  8
RACCORDO
100
AcDbPolyline
 62
250
  6
CONTINUOUS
 90
21
 70
0
 10
-24.5450639933
 20
21.8595328889
 10
-24.5039407262
 20
21.8068712854
 10
-24.452687592
 20
21.756896597
 10
-24.3918835572
 20
21.7102140324
 10
-24.3222107036
 20
21.6672943047
 10
-24.2444596472
 20
21.6287794781
 10
-24.1595178499
 20
21.5954077305
 10
-24.0683488602
 20
21.5677444928
 10
-23.9719676327
 20
21.5458507828
 10
-23.871444963
 20
21.5296540927
 10
-23.7679063216
 20
21.5192170767
 10
-23.6625293115
 20
21.5149739274
 10
-23.5565132591
 20
21.5172916144
 10
-23.4510537345
 20
21.5261977932
 10
-23.3473304409
 20
21.5414407357
 10
-23.2465070214
 20
21.5627817102
 10
-23.1497167818
 20
21.5899632918
 10
-23.0580488734
 20
21.6226847132
 10
-22.9725340538
 20
21.660566457
 10
-22.8941340575
 20
21.7031771184
 10
-22.8237306936
 20
21.7500358622
  0
LWPOLYLINE
  5
308
100
AcDbEntity
  8
RACCORDO
100
AcDbPolyline
 62
250
  6
CONTINUOUS
 90
10
 70
0
 10
-24.5450639943
 20
21.8595328605
 10
-24.6156539529
 20
21.9561376784
 10
-24.6974683748
 20
22.0496597685
 10
-24.7901733016
 20
22.139717383
 10
-24.8933903212
 20
22.2259429158
 10
-25.006698112
 20
22.3079844028
 10
-25.1296341629
 20
22.385506959
 10
-25.2616966614
 20
22.4581941451
 10
-25.4023465414
 20
22.5257492593
 10
-25.5510096844
 20
22.5878965484
  0
LWPOLYLINE
  5
309
100
AcDbEntity
  8
0
100
AcDbPolyline
 62
7
  6
CONTINUOUS
 90
10
 70
0
 10
9.3782321481
 20
-30.3585317032
 10
9.2620329994
 20
-30.0929243253
 10
9.145950372
 20
-29.8240459724
 10
9.0299842659
 20
-29.5518966444
 10
8.9141003912
 20
-29.2765061678
 10
8.7983330379
 20
-28.9978447162
 10
8.6827850757
 20
-28.7158228106
 10
8.5674907946
 20
-28.4304106245
 10
8.4524159045
 20
-28.1416379843
 10
8.3375604056
 20
-27.8495048901
  0
LINE
  5
30A
100
AcDbEntity
  8
DRAFT
100
AcDbLine
 62
7
  6
CONTINUOUS
 10
-5.7764263579
 20
-18.0894584365
 11
-5.8450891497
 21
-18.2891653379
  0
LINE
  5
30B
100
AcDbEntity
  8
DRAFT
100
AcDbLine
 62
7
  6
CONTINUOUS
 10
-10.2670970076
 20
-15.9294515812
 11
-10.3443153597
 21
-16.1135662687
  0
LINE
  5
30C
100
AcDbEntity
  8
0
100
AcDbLine
 62
250
  6
CONTINUOUS
 10
-19.537387227
 20
-13.8345580993
 11
-20.9418724295
 21
-15.122883571
  0
LINE
  5
30D
100
AcDbEntity
  8
DRAFT
100
AcDbLine
 62
7
  6
CONTINUOUS
 10
-20.1942408489
 20
-4.2552203993
 11
-20.0546298035
 21
-4.2292605833
  0
LINE
  5
30E
100
AcDbEntity
  8
DRAFT
100
AcDbLine
 62
7
  6
CONTINUOUS
 10
-19.9531242071
 20
-3.9922560039
 11
-19.7870541914
 21
-3.961376305
  0
LINE
  5
30F
100
AcDbEntity
  8
0
100
AcDbLine
 62
7
  6
CONTINUOUS
 10
33.9079631099
 20
-12.6423888929
 11
35.1281712847
 21
-13.0470726435
  0
LINE
  5
310
100
AcDbEntity
  8
0
100
AcDbLine
 62
7
  6
CONTINUOUS
 10
19.2065821069
 20
-33.3765474267
 11
18.9864381181
 21
-33.033273346
  0
LINE
  5
311
100
AcDbEntity
  8
0
100
AcDbLine
 62
7
  6
CONTINUOUS
 10
18.8780433359
 20
-33.1333556554
 11
19.0978106065
 21
-33.4763228421
  0
LINE
  5
312
100
AcDbEntity
  8
0
100
AcDbLine
 62
7
  6
CONTINUOUS
 10
18.5290535208
 20
-33.3103209707
 11
18.3198816217
 21
-32.9805699326
  0
LINE
  5
313
100
AcDbEntity
  8
0
100
AcDbLine
 62
7
  6
CONTINUOUS
 10
18.9864381181
 20
-33.033273346
 11
18.763527269
 21
-32.6813044133
  0
LINE
  5
314
100
AcDbEntity
  8
0
100
AcDbLine
 62
7
  6
CONTINUOUS
 10
18.6552497032
 20
-32.7812740207
 11
18.8780433359
 21
-33.1333556554
  0
LINE
  5
315
100
AcDbEntity
  8
0
100
AcDbLine
 62
7
  6
CONTINUOUS
 10
18.3198816217
 20
-32.9805699326
 11
18.1114573049
 21
-32.6477198437
  0
LINE
  5
316
100
AcDbEntity
  8
0
100
AcDbLine
 62
7
  6
CONTINUOUS
 10
18.763527269
 20
-32.6813044133
 11
18.5788413994
 21
-32.3859182178
  0
LINE
  5
317
100
AcDbEntity
  8
0
100
AcDbLine
 62
7
  6
CONTINUOUS
 10
18.429475663
 20
-32.4194920111
 11
18.6552497032
 21
-32.7812740207
  0
LINE
  5
318
100
AcDbEntity
  8
0
100
AcDbLine
 62
7
  6
CONTINUOUS
 10
18.1114573049
 20
-32.6477198437
 11
17.9038948056
 21
-32.3116655389
  0
LINE
  5
319
100
AcDbEntity
  8
0
100
AcDbLine
 62
7
  6
CONTINUOUS
 10
9.5905194452
 20
-29.529111113
 11
9.4809601834
 21
-29.2681872081
  0
LINE
  5
31A
100
AcDbEntity
  8
0
100
AcDbLine
 62
7
  6
CONTINUOUS
 10
9.3726018062
 20
-29.3662183219
 11
9.5331997751
 21
-29.7482285578
  0
LINE
  5
31B
100
AcDbEntity
  8
0
100
AcDbLine
 62
7
  6
CONTINUOUS
 10
9.4809601834
 20
-29.2681872081
 11
9.3224406056
 21
-28.884468387
  0
LINE
  5
31C
100
AcDbEntity
  8
0
100
AcDbLine
 62
7
  6
CONTINUOUS
 10
9.2140023181
 20
-28.9819817264
 11
9.3726018062
 21
-29.3662183219
  0
LINE
  5
31D
100
AcDbEntity
  8
0
100
AcDbLine
 62
7
  6
CONTINUOUS
 10
12.9099241876
 20
-31.5257660346
 11
12.7667133499
 21
-31.1758003765
  0
LINE
  5
31E
100
AcDbEntity
  8
0
100
AcDbLine
 62
7
  6
CONTINUOUS
 10
9.3224406056
 20
-28.884468387
 11
9.1657045499
 21
-28.4979571038
  0
LINE
  5
31F
100
AcDbEntity
  8
0
100
AcDbLine
 62
7
  6
CONTINUOUS
 10
9.0574140851
 20
-28.5955220565
 11
9.2140023181
 21
-28.9819817264
  0
LINE
  5
320
100
AcDbEntity
  8
0
100
AcDbLine
 62
7
  6
CONTINUOUS
 10
12.7667133499
 20
-31.1758003765
 11
12.6235714958
 21
-30.819549665
  0
LWPOLYLINE
  5
321
100
AcDbEntity
  8
0
100
AcDbPolyline
 62
7
  6
CONTINUOUS
 90
3
 70
0
 10
9.1657045499
 20
-28.4979571038
 10
9.010813017
 20
-28.1086413537
 10
8.9340551341
 20
-27.9129325539
  0
LINE
  5
322
100
AcDbEntity
  8
0
100
AcDbLine
 62
7
  6
CONTINUOUS
 10
12.6235714958
 20
-30.819549665
 11
12.4805376146
 21
-30.4569838624
  0
LWPOLYLINE
  5
323
100
AcDbEntity
  8
0
100
AcDbPolyline
 62
7
  6
CONTINUOUS
 90
3
 70
0
 10
8.8263954523
 20
-28.0116881051
 10
8.9028882043
 20
-28.2068524531
 10
9.0574140851
 20
-28.5955220565
  0
LWPOLYLINE
  5
324
100
AcDbEntity
  8
RACCORDO
100
AcDbPolyline
 62
250
  6
CONTINUOUS
 90
16
 70
0
 10
5.6117292027
 20
13.4050994596
 10
5.5828439489
 20
13.3037603573
 10
5.5592957644
 20
13.2023558701
 10
5.5413478931
 20
13.1020195937
 10
5.5292009733
 20
13.0038731822
 10
5.5229907947
 20
12.9090138092
 10
5.5227867805
 20
12.8185019024
 10
5.5285912115
 20
12.7333492898
 10
5.5403392001
 20
12.6545078882
 10
5.5578994162
 20
12.5828590615
 10
5.581075555
 20
12.5192037683
 10
5.6096085318
 20
12.4642536079
 10
5.6431793777
 20
12.4186228652
 10
5.6814128061
 20
12.3828216441
 10
5.7238814074
 20
12.3572501646
 10
5.7454747025
 20
12.348750265
  0
LWPOLYLINE
  5
325
100
AcDbEntity
  8
RACCORDO
100
AcDbPolyline
 62
250
  6
CONTINUOUS
 90
10
 70
0
 10
5.6117292027
 20
13.4050994596
 10
5.6667376012
 20
13.5913818372
 10
5.715850249
 20
13.7782337904
 10
5.7588604359
 20
13.9648688513
 10
5.7955871354
 20
14.1505014665
 10
5.8258757653
 20
14.3343503009
 10
5.8495988396
 20
14.5156415264
 10
5.8666565051
 20
14.6936120825
 10
5.8769769615
 20
14.8675128881
 10
5.8805167633
 20
15.0366119916
  0
LINE
  5
326
100
AcDbEntity
  8
DRAFT
100
AcDbLine
 62
7
  6
CONTINUOUS
 10
-5.5300181371
 20
-17.8358452466
 11
-5.5986809288
 21
-18.0355521479
  0
LINE
  5
327
100
AcDbEntity
  8
DRAFT
100
AcDbLine
 62
7
  6
CONTINUOUS
 10
-5.2836099162
 20
-17.5822320566
 11
-5.3522727079
 21
-17.7819389579
  0
LWPOLYLINE
  5
328
100
AcDbEntity
  8
RACCORDO
100
AcDbPolyline
 62
250
  6
CONTINUOUS
 90
13
 70
0
 10
31.1362332815
 20
18.3653966219
 10
31.064266029
 20
18.3177627494
 10
30.9825321771
 20
18.2747718287
 10
30.8921080813
 20
18.2369900083
 10
30.7941845388
 20
18.204914838
 10
30.6900511074
 20
18.1789687167
 10
30.5810791231
 20
18.1594933291
 10
30.4687036409
 20
18.1467451472
 10
30.3544045366
 20
18.1408920522
 10
30.2396870181
 20
18.1420111236
 10
30.1260618035
 20
18.1500876244
 10
30.0150252263
 20
18.1650151949
 10
29.9080395302
 20
18.1865972535
  0
LINE
  5
329
100
AcDbEntity
  8
DRAFT
100
AcDbLine
 62
7
  6
CONTINUOUS
 10
-20.4037728493
 20
0.6696019686
 11
-20.2637894462
 21
0.6868099214
  0
LINE
  5
32A
100
AcDbEntity
  8
DRAFT
100
AcDbLine
 62
7
  6
CONTINUOUS
 10
-20.2016292009
 20
0.8860248658
 11
-19.9943761817
 21
0.9115021732
  0
LWPOLYLINE
  5
32B
100
AcDbEntity
  8
0
100
AcDbPolyline
 62
7
  6
CONTINUOUS
 90
10
 70
0
 10
16.8700946245
 20
-32.669591316
 10
16.741761458
 20
-32.3876129076
 10
16.615844615
 20
-32.1071186832
 10
16.4923440956
 20
-31.8281086428
 10
16.3712428551
 20
-31.5505829468
 10
16.2525579382
 20
-31.2745414348
 10
16.1363404785
 20
-30.9999836256
 10
16.0226075205
 20
-30.7269093587
 10
15.9113420199
 20
-30.4553187945
 10
15.8025439764
 20
-30.185211933
  0
LINE
  5
32C
100
AcDbEntity
  8
0
100
AcDbLine
 62
7
  6
CONTINUOUS
 10
16.2667646863
 20
-32.6124266967
 11
16.1584363524
 21
-32.3728025071
  0
LINE
  5
32D
100
AcDbEntity
  8
0
100
AcDbLine
 62
7
  6
CONTINUOUS
 10
16.1584363524
 20
-32.3728025071
 11
16.050016942
 21
-32.1301130865
  0
LINE
  5
32E
100
AcDbEntity
  8
0
100
AcDbLine
 62
7
  6
CONTINUOUS
 10
15.8440931122
 20
-31.6609052739
 11
15.7359571435
 21
-31.4099070776
  0
LINE
  5
32F
100
AcDbEntity
  8
0
100
AcDbLine
 62
7
  6
CONTINUOUS
 10
15.7359571435
 20
-31.4099070776
 11
15.6293603466
 21
-31.1591336495
  0
LINE
  5
330
100
AcDbEntity
  8
0
100
AcDbLine
 62
7
  6
CONTINUOUS
 10
15.6293603466
 20
-31.1591336495
 11
15.5243312908
 21
-30.9085661417
  0
LWPOLYLINE
  5
331
100
AcDbEntity
  8
0
100
AcDbPolyline
 62
7
  6
CONTINUOUS
 90
10
 70
0
 10
15.6948089313
 20
-30.2840366145
 10
15.8044178128
 20
-30.5563350186
 10
15.9162755983
 20
-30.8295825751
 10
16.0303822878
 20
-31.1037792838
 10
16.1467617669
 20
-31.3789171119
 10
16.2653901501
 20
-31.6550040922
 10
16.3861957806
 20
-31.932064324
 10
16.5091547729
 20
-32.2101058403
 10
16.6342910127
 20
-32.4891206081
 10
16.7616044998
 20
-32.7691086273
  0
LWPOLYLINE
  5
332
100
AcDbEntity
  8
RACCORDO
100
AcDbPolyline
 62
7
  6
CONTINUOUS
 90
3
 70
0
 10
13.8522527533
 20
-23.690062231
 10
13.8517964356
 20
-23.6888987073
 10
13.8507209939
 20
-23.6882937139
  0
LINE
  5
333
100
AcDbEntity
  8
0
100
AcDbLine
 62
7
  6
CONTINUOUS
 10
13.1067738424
 20
-30.5915115023
 11
13.0220863021
 21
-30.3752139909
  0
LINE
  5
334
100
AcDbEntity
  8
0
100
AcDbLine
 62
7
  6
CONTINUOUS
 10
12.9133489182
 20
-30.4722135814
 11
13.0546022933
 21
-30.8322077703
  0
LWPOLYLINE
  5
335
100
AcDbEntity
  8
0
100
AcDbPolyline
 62
7
  6
CONTINUOUS
 90
3
 70
0
 10
12.4805376146
 20
-30.4569838624
 10
12.3377676637
 20
-30.0879828182
 10
12.2664719147
 20
-29.90107659
  0
LINE
  5
336
100
AcDbEntity
  8
0
100
AcDbLine
 62
7
  6
CONTINUOUS
 10
13.0220863021
 20
-30.3752139909
 11
12.8836273571
 21
-30.0157983238
  0
LINE
  5
337
100
AcDbEntity
  8
0
100
AcDbLine
 62
7
  6
CONTINUOUS
 10
12.7746524659
 20
-30.1118298359
 11
12.9133489182
 21
-30.4722135814
  0
LINE
  5
338
100
AcDbEntity
  8
0
100
AcDbLine
 62
7
  6
CONTINUOUS
 10
12.8836273571
 20
-30.0157983238
 11
12.7472890348
 21
-29.6548487484
  0
LINE
  5
339
100
AcDbEntity
  8
0
100
AcDbLine
 62
7
  6
CONTINUOUS
 10
12.6385203371
 20
-29.7510703474
 11
12.7746524659
 21
-30.1118298359
  0
LWPOLYLINE
  5
33A
100
AcDbEntity
  8
0
100
AcDbPolyline
 62
7
  6
CONTINUOUS
 90
3
 70
0
 10
12.7472890348
 20
-29.6548487484
 10
12.6131240793
 20
-29.2923729666
 10
12.5468533176
 20
-29.110562267
  0
LWPOLYLINE
  5
33B
100
AcDbEntity
  8
0
100
AcDbPolyline
 62
7
  6
CONTINUOUS
 90
3
 70
0
 10
12.4391839046
 20
-29.2093267445
 10
12.5049821341
 20
-29.38999037
 10
12.6385203371
 20
-29.7510703474
  0
LWPOLYLINE
  5
33C
100
AcDbEntity
  8
RACCORDO
100
AcDbPolyline
 62
250
  6
CONTINUOUS
 90
6
 70
0
 10
8.4976264188
 20
-32.8838098851
 10
8.6808251026
 20
-33.7034919482
 10
8.8849687589
 20
-34.5295851501
 10
9.1115891895
 20
-35.360545032
 10
9.3617766338
 20
-36.1929567785
 10
9.636847422
 20
-37.0241519434
  0
LWPOLYLINE
  5
33D
100
AcDbEntity
  8
RACCORDO
100
AcDbPolyline
 62
250
  6
CONTINUOUS
 90
8
 70
0
 10
7.6844439901
 20
-27.3627405647
 10
7.7581318626
 20
-28.1243850981
 10
7.8445891651
 20
-28.8971965456
 10
7.944473159
 20
-29.6794049065
 10
8.0584250033
 20
-30.4684119779
 10
8.1875572987
 20
-31.2644319191
 10
8.3335585572
 20
-32.0700260046
 10
8.4976264188
 20
-32.8838098851
  0
LWPOLYLINE
  5
33E
100
AcDbEntity
  8
RACCORDO
100
AcDbPolyline
 62
250
  6
CONTINUOUS
 90
13
 70
0
 10
5.8805167633
 20
15.0366120078
 10
5.8862933484
 20
15.8711493107
 10
5.9029655773
 20
16.738561384
 10
5.931286294
 20
17.6383717061
 10
5.9720612778
 20
18.5693093668
 10
6.0263020104
 20
19.5335369067
 10
6.0953603961
 20
20.5364044773
 10
6.1804574969
 20
21.5787465976
 10
6.2827652436
 20
22.6603226484
 10
6.4039194037
 20
23.7848094759
 10
6.545463123
 20
24.9534830349
 10
6.7086843882
 20
26.1651102937
 10
6.8950191403
 20
27.4195474691
  0
LWPOLYLINE
  5
33F
100
AcDbEntity
  8
RACCORDO
100
AcDbPolyline
 62
250
  6
CONTINUOUS
 90
3
 70
0
 10
-5.1329460392
 20
-18.3593395691
 10
-5.1466456773
 20
-18.3840911146
 10
-5.1633800205
 20
-18.4046562557
  0
LWPOLYLINE
  5
340
100
AcDbEntity
  8
RACCORDO
100
AcDbPolyline
 62
250
  6
CONTINUOUS
 90
5
 70
0
 10
-5.1176037029
 20
-18.2716145706
 10
-5.1010576448
 20
-18.2518297348
 10
-5.0889486597
 20
-18.2311458216
 10
-5.0814703716
 20
-18.2098935686
 10
-5.0789401749
 20
-18.1899704323
  0
LWPOLYLINE
  5
341
100
AcDbEntity
  8
RACCORDO
100
AcDbPolyline
 62
250
  6
CONTINUOUS
 90
13
 70
0
 10
28.7137122458
 20
21.429243429
 10
28.6563420994
 20
21.3613507179
 10
28.6005677253
 20
21.2837984954
 10
28.547127798
 20
21.1976138611
 10
28.4967300746
 20
21.1039382424
 10
28.4500420213
 20
21.0040122771
 10
28.4076819738
 20
20.8991593822
 10
28.3702109474
 20
20.7907682271
 10
28.3381252076
 20
20.6802743417
 10
28.3118496971
 20
20.5691411044
 10
28.2917324082
 20
20.4588403614
 10
28.2780397738
 20
20.350832933
 10
28.2709531388
 20
20.2465492671
  0
LINE
  5
342
100
AcDbEntity
  8
RACCORDO
100
AcDbLine
 62
250
  6
CONTINUOUS
 10
28.7137122384
 20
21.4292435225
 11
31.068149379
 21
23.7863966629
  0
LINE
  5
343
100
AcDbEntity
  8
RACCORDO
100
AcDbLine
 62
250
  6
CONTINUOUS
 10
33.7019236669
 20
20.4753304122
 11
31.1362332815
 21
18.3653966219
  0
LINE
  5
344
100
AcDbEntity
  8
RACCORDO
100
AcDbLine
 62
7
  6
CONTINUOUS
 10
-10.1218066797
 20
-15.8099699112
 11
-10.2670970076
 21
-15.9294515812
  0
LINE
  5
345
100
AcDbEntity
  8
DRAFT
100
AcDbLine
 62
7
  6
CONTINUOUS
 10
-10.441445401
 20
-16.0728295853
 11
-10.5576776632
 21
-16.1684149213
  0
LINE
  5
346
100
AcDbEntity
  8
DRAFT
100
AcDbLine
 62
7
  6
CONTINUOUS
 10
-10.7320260566
 20
-16.3117929254
 11
-10.8482583189
 21
-16.4073782614
  0
LINE
  5
347
100
AcDbEntity
  8
DRAFT
100
AcDbLine
 62
7
  6
CONTINUOUS
 10
-11.0226067123
 20
-16.5507562655
 11
-11.1159682335
 21
-16.6275335063
  0
LWPOLYLINE
  5
348
100
AcDbEntity
  8
RACCORDO
100
AcDbPolyline
 62
250
  6
CONTINUOUS
 90
10
 70
0
 10
16.0996262577
 20
8.3796489296
 10
16.2909243676
 20
8.3893961029
 10
16.4825452144
 20
8.392230906
 10
16.6737066221
 20
8.3881417624
 10
16.8636282898
 20
8.377145358
 10
17.0515349774
 20
8.3592865735
 10
17.2366596694
 20
8.3346383011
 10
17.4182467064
 20
8.3033011467
 10
17.5955548693
 20
8.2654030196
 10
17.7678604047
 20
8.2210986101
  0
LWPOLYLINE
  5
349
100
AcDbEntity
  8
RACCORDO
100
AcDbPolyline
 62
250
  6
CONTINUOUS
 90
17
 70
0
 10
16.0996248783
 20
8.3796473376
 10
15.9936458399
 20
8.3757166811
 10
15.8878596849
 20
8.377774937
 10
15.7834552216
 20
8.3858413714
 10
15.681610423
 20
8.3997522309
 10
15.583463535
 20
8.4195301143
 10
15.4901036388
 20
8.4453036212
 10
15.4025714946
 20
8.4770017295
 10
15.3218646028
 20
8.5139602189
 10
15.2489079218
 20
8.5553705999
 10
15.184528421
 20
8.6006291588
 10
15.1294344569
 20
8.6495873941
 10
15.0842308127
 20
8.7020430964
 10
15.0494237083
 20
8.7574653425
 10
15.025411493
 20
8.8150701193
 10
15.0124671299
 20
8.8741411321
 10
15.0103702824
 20
8.8992300735
  0
LINE
  5
34A
100
AcDbEntity
  8
0
100
AcDbLine
 62
7
  6
CONTINUOUS
 10
12.4241962809
 20
-31.2084847333
 11
12.4464962934
 21
-31.3735987276
  0
LWPOLYLINE
  5
34B
100
AcDbEntity
  8
0
100
AcDbPolyline
 62
7
  6
CONTINUOUS
 90
10
 70
0
 10
11.5753933784
 20
-30.9515094208
 10
11.5412373148
 20
-30.6962901803
 10
11.5085000845
 20
-30.4424131339
 10
11.4771816875
 20
-30.1898782818
 10
11.4473022672
 20
-29.9386539744
 10
11.4188416801
 20
-29.6887718612
 10
11.3917394963
 20
-29.4403268908
 10
11.3659755722
 20
-29.1933507127
 10
11.3415700513
 20
-28.9478116773
 10
11.3185229336
 20
-28.7037097847
  0
LWPOLYLINE
  5
34C
100
AcDbEntity
  8
0
100
AcDbPolyline
 62
7
  6
CONTINUOUS
 90
10
 70
0
 10
11.9566505977
 20
-31.2123499434
 10
11.9224999592
 20
-30.9568883646
 10
11.8897673065
 20
-30.7028293773
 10
11.8584526395
 20
-30.4501729815
 10
11.8285746168
 20
-30.1988895354
 10
11.8001145797
 20
-29.9490086807
 10
11.7730165531
 20
-29.7006193435
 10
11.7472618784
 20
-29.4537511656
 10
11.722869214
 20
-29.2083745051
 10
11.69983856
 20
-28.964489362
  0
LWPOLYLINE
  5
34D
100
AcDbEntity
  8
0
100
AcDbPolyline
 62
7
  6
CONTINUOUS
 90
10
 70
0
 10
10.9778342647
 20
-30.8890714739
 10
10.9438557516
 20
-30.6342579704
 10
10.9112780771
 20
-30.380660442
 10
10.8801012412
 20
-30.1282788889
 10
10.8503453705
 20
-29.8770811326
 10
10.8219903384
 20
-29.6270993515
 10
10.7949757648
 20
-29.3784300809
 10
10.7692815233
 20
-29.1311054994
 10
10.7449277403
 20
-28.8850934283
 10
10.7219144159
 20
-28.6403938678
  0
LWPOLYLINE
  5
34E
100
AcDbEntity
  8
0
100
AcDbPolyline
 62
7
  6
CONTINUOUS
 90
4
 70
0
 10
12.2664719147
 20
-29.90107659
 10
12.284197675
 20
-30.0631454647
 10
12.302490128
 20
-30.2256060475
 10
12.3407717195
 20
-30.5517097163
  0
LWPOLYLINE
  5
34F
100
AcDbEntity
  8
0
100
AcDbPolyline
 62
7
  6
CONTINUOUS
 90
10
 70
0
 10
14.0924929638
 20
-29.7559922364
 10
14.1158541635
 20
-29.9963805695
 10
14.1406859744
 20
-30.2389582858
 10
14.1669883963
 20
-30.4837253852
 10
14.1947498848
 20
-30.7307037628
 10
14.2239819843
 20
-30.9798715236
 10
14.2547193287
 20
-31.2311629826
 10
14.2869734625
 20
-31.4845562448
 10
14.320732841
 20
-31.7400732051
 10
14.3559974643
 20
-31.9977138636
  0
LWPOLYLINE
  5
350
100
AcDbEntity
  8
0
100
AcDbPolyline
 62
7
  6
CONTINUOUS
 90
10
 70
0
 10
11.2108608453
 20
-28.8024675434
 10
11.2338754599
 20
-29.0467869074
 10
11.2582400302
 20
-29.2925042543
 10
11.2839545563
 20
-29.5396195841
 10
11.3109995497
 20
-29.7881639527
 10
11.3393944987
 20
-30.0381063041
 10
11.3691978685
 20
-30.2893534708
 10
11.4004291474
 20
-30.5418743967
 10
11.4330688469
 20
-30.7957001378
 10
11.4671169672
 20
-31.0508306941
  0
LWPOLYLINE
  5
351
100
AcDbEntity
  8
RACCORDO
100
AcDbPolyline
 62
250
  6
CONTINUOUS
 90
16
 70
0
 10
14.4195711442
 20
10.4888027403
 10
14.3923216639
 20
10.3866445754
 10
14.3700177174
 20
10.2845064338
 10
14.3529478722
 20
10.1835230119
 10
14.3414523533
 20
10.0847797721
 10
14.3355824081
 20
9.9894103454
 10
14.3351711711
 20
9.8985611026
 10
14.3400968894
 20
9.8132936094
 10
14.3506840556
 20
9.7344392358
 10
14.3672835494
 20
9.6627273776
 10
14.3897846079
 20
9.5989383365
 10
14.4177928741
 20
9.5438349696
 10
14.4510066204
 20
9.4980314733
 10
14.489045967
 20
9.4620443721
 10
14.5314278352
 20
9.4362962555
 10
14.5533705464
 20
9.4275983238
  0
LWPOLYLINE
  5
352
100
AcDbEntity
  8
RACCORDO
100
AcDbPolyline
 62
250
  6
CONTINUOUS
 90
10
 70
0
 10
14.4236189883
 20
10.4874722469
 10
14.477056775
 20
10.6718139861
 10
14.5247771197
 20
10.8567700282
 10
14.5665840535
 20
11.0415809999
 10
14.6023058886
 20
11.2254881232
 10
14.6317959236
 20
11.4077363299
 10
14.6549330457
 20
11.5875773626
 10
14.6716222281
 20
11.7642728461
 10
14.6817949203
 20
11.9370973193
 10
14.6854093293
 20
12.1053412141
  0
LINE
  5
353
100
AcDbEntity
  8
RACCORDO
100
AcDbLine
 62
7
  6
CONTINUOUS
 10
-5.1604058057
 20
-17.4554254616
 11
-5.2836099162
 21
-17.5822320566
  0
LINE
  5
354
100
AcDbEntity
  8
DRAFT
100
AcDbLine
 62
7
  6
CONTINUOUS
 10
-5.4314548487
 20
-17.7343999706
 11
-5.5300181371
 21
-17.8358452466
  0
LINE
  5
355
100
AcDbEntity
  8
DRAFT
100
AcDbLine
 62
7
  6
CONTINUOUS
 10
-5.6778630696
 20
-17.9880131605
 11
-5.7764263579
 21
-18.0894584365
  0
LINE
  5
356
100
AcDbEntity
  8
DRAFT
100
AcDbLine
 62
7
  6
CONTINUOUS
 10
-5.9242712905
 20
-18.2416263505
 11
-6.0034405191
 21
-18.323110485
  0
LINE
  5
357
100
AcDbEntity
  8
RACCORDO
100
AcDbLine
 62
250
  6
CONTINUOUS
 10
-5.3713233919
 20
-18.5327530158
 11
-5.1176037029
 21
-18.2716145706
  0
LINE
  5
358
100
AcDbEntity
  8
RACCORDO
100
AcDbLine
 62
7
  6
CONTINUOUS
 10
-5.3081832537
 20
-18.5536935311
 11
-5.1633800205
 21
-18.4046562557
  0
LWPOLYLINE
  5
359
100
AcDbEntity
  8
RACCORDO
100
AcDbPolyline
 62
7
  6
CONTINUOUS
 90
6
 70
0
 10
-5.1526537834
 20
-17.4478004502
 10
-5.135583694
 20
-17.4322667267
 10
-5.1234720299
 20
-17.4191888804
 10
-5.1159268127
 20
-17.4089710182
 10
-5.112471979
 20
-17.4024352614
 10
-5.1121032256
 20
-17.400507003
  0
LWPOLYLINE
  5
35A
100
AcDbEntity
  8
RACCORDO
100
AcDbPolyline
 62
7
  6
CONTINUOUS
 90
4
 70
0
 10
-10.1126675735
 20
-15.8028049281
 10
-10.0879602096
 20
-15.7898041174
 10
-10.060732835
 20
-15.7817394176
 10
-10.0318163694
 20
-15.77860936
  0
LWPOLYLINE
  5
35B
100
AcDbEntity
  8
0
100
AcDbPolyline
 62
7
  6
CONTINUOUS
 90
10
 70
0
 10
14.4643365042
 20
-31.8983351415
 10
14.4289681474
 20
-31.6406490359
 10
14.395113323
 20
-31.3851141972
 10
14.3627720313
 20
-31.1317306252
 10
14.331956278
 20
-30.8804760293
 10
14.3026540572
 20
-30.6313727002
 10
14.2748293511
 20
-30.3844875102
 10
14.2484701537
 20
-30.1398427499
 10
14.2235884708
 20
-29.8974161287
 10
14.2001843026
 20
-29.6572076465
  0
LINE
  5
35C
100
AcDbEntity
  8
0
100
AcDbLine
 62
7
  6
CONTINUOUS
 10
13.8646091567
 20
-31.8378801077
 11
13.8198026126
 21
-31.5067939485
  0
LINE
  5
35D
100
AcDbEntity
  8
0
100
AcDbLine
 62
7
  6
CONTINUOUS
 10
12.5547828957
 20
-31.2742681062
 11
12.5106323761
 21
-30.9443886867
  0
LINE
  5
35E
100
AcDbEntity
  8
0
100
AcDbLine
 62
7
  6
CONTINUOUS
 10
12.381326867
 20
-30.8793654601
 11
12.4241962809
 21
-31.2084847333
  0
LINE
  5
35F
100
AcDbEntity
  8
0
100
AcDbLine
 62
7
  6
CONTINUOUS
 10
13.8198026126
 20
-31.5067939485
 11
13.777417968
 21
-31.1781871331
  0
LINE
  5
360
100
AcDbEntity
  8
0
100
AcDbLine
 62
7
  6
CONTINUOUS
 10
12.5106323761
 20
-30.9443886867
 11
12.4688104219
 21
-30.616042077
  0
LINE
  5
361
100
AcDbEntity
  8
0
100
AcDbLine
 62
7
  6
CONTINUOUS
 10
12.3407717195
 20
-30.5517097163
 11
12.381326867
 21
-30.8793654601
  0
LINE
  5
362
100
AcDbEntity
  8
0
100
AcDbLine
 62
7
  6
CONTINUOUS
 10
13.777417968
 20
-31.1781871331
 11
13.7374448293
 21
-30.8520826603
  0
LINE
  5
363
100
AcDbEntity
  8
0
100
AcDbLine
 62
7
  6
CONTINUOUS
 10
12.4688104219
 20
-30.616042077
 11
12.4354931314
 21
-30.341116858
  0
LWPOLYLINE
  5
364
100
AcDbEntity
  8
0
100
AcDbPolyline
 62
7
  6
CONTINUOUS
 90
3
 70
0
 10
13.7374448293
 20
-30.8520826603
 10
13.6998416209
 20
-30.528572525
 10
13.681931339
 20
-30.3677845842
  0
LINE
  5
365
100
AcDbEntity
  8
0
100
AcDbLine
 62
7
  6
CONTINUOUS
 10
16.8367106103
 20
-30.9005046948
 11
16.8097459028
 21
-30.6485607767
  0
LINE
  5
366
100
AcDbEntity
  8
RACCORDO
100
AcDbLine
 62
7
  6
CONTINUOUS
 10
15.0103702824
 20
8.8992300735
 11
15.0103585283
 21
8.8995002359
  0
LINE
  5
367
100
AcDbEntity
  8
RACCORDO
100
AcDbLine
 62
250
  6
CONTINUOUS
 10
13.846752276
 20
-24.5611697986
 11
13.8117021954
 21
-23.7373556782
  0
LINE
  5
368
100
AcDbEntity
  8
RACCORDO
100
AcDbLine
 62
7
  6
CONTINUOUS
 10
13.885538424
 20
-24.4724055353
 11
13.8522599439
 21
-23.6902309614
  0
LINE
  5
369
100
AcDbEntity
  8
0
100
AcDbLine
 62
7
  6
CONTINUOUS
 10
15.0103711429
 20
8.8992330322
 11
16.5672165355
 21
-27.6927284803
  0
LINE
  5
36A
100
AcDbEntity
  8
RACCORDO
100
AcDbLine
 62
7
  6
CONTINUOUS
 10
16.5672250637
 20
-27.6929585739
 11
16.5672154199
 21
-27.6927267499
  0
LINE
  5
36B
100
AcDbEntity
  8
RACCORDO
100
AcDbLine
 62
7
  6
CONTINUOUS
 10
-22.8697917699
 20
21.8390423856
 11
-22.8696215477
 21
21.8389861036
  0
LINE
  5
36C
100
AcDbEntity
  8
RACCORDO
100
AcDbLine
 62
250
  6
CONTINUOUS
 10
-20.6405072632
 20
19.5744605695
 11
-21.2162245574
 21
19.7653980166
  0
LINE
  5
36D
100
AcDbEntity
  8
RACCORDO
100
AcDbLine
 62
7
  6
CONTINUOUS
 10
-20.6014996448
 20
19.6236390923
 11
-21.2189051524
 21
19.8284024938
  0
LINE
  5
36E
100
AcDbEntity
  8
0
100
AcDbLine
 62
7
  6
CONTINUOUS
 10
-22.8696215824
 20
21.8389887865
 11
14.5533722714
 21
9.4276004893
  0
LINE
  5
36F
100
AcDbEntity
  8
RACCORDO
100
AcDbLine
 62
7
  6
CONTINUOUS
 10
14.5533705464
 20
9.4275983238
 11
14.5535226804
 21
9.4275477214
  0
LINE
  5
370
100
AcDbEntity
  8
RACCORDO
100
AcDbLine
 62
250
  6
CONTINUOUS
 10
-23.0045699042
 20
22.9005734943
 11
14.4236168166
 21
10.487463269
  0
LWPOLYLINE
  5
371
100
AcDbEntity
  8
RACCORDO
100
AcDbPolyline
 62
250
  6
CONTINUOUS
 90
82
 70
0
 10
14.4195711442
 20
10.4888027403
 10
14.4575883926
 20
10.4759715092
 10
14.4941362169
 20
10.4627751709
 10
14.5291924681
 20
10.4493181477
 10
14.5622599887
 20
10.4358975613
 10
14.5938058788
 20
10.4224276495
 10
14.6252558961
 20
10.4083506201
 10
14.6570004631
 20
10.3934706877
 10
14.6886195121
 20
10.3779857461
 10
14.7203187375
 20
10.3618367655
 10
14.7522919995
 20
10.3449167092
 10
14.7843151553
 20
10.3273205695
 10
14.8159719403
 20
10.3093030489
 10
14.8472432197
 20
10.2908990783
 10
14.878130749
 20
10.2721142223
 10
14.9082613046
 20
10.2531997237
 10
14.9375254752
 20
10.2342643322
 10
14.9660323577
 20
10.2152762174
 10
14.9937441386
 20
10.1962946497
 10
15.020615969
 20
10.1773883871
 10
15.046699525
 20
10.1585588135
 10
15.0721018182
 20
10.1397594735
 10
15.0968757163
 20
10.1209841384
 10
15.1209749931
 20
10.1022903684
 10
15.144357424
 20
10.0837233049
 10
15.1668989095
 20
10.0654183746
 10
15.1887372126
 20
10.0472934491
 10
15.2102159382
 20
10.0290554956
 10
15.231285645
 20
10.0107486017
 10
15.2519941537
 20
9.9923517142
 10
15.2728119229
 20
9.9734456814
 10
15.2937167871
 20
9.9540307187
 10
15.3147059386
 20
9.9340970663
 10
15.3362538489
 20
9.913178297
 10
15.3584290576
 20
9.8911522076
 10
15.3811025345
 20
9.8680971938
 10
15.4044309038
 20
9.8438244331
 10
15.4285150827
 20
9.8181604166
 10
15.4531661546
 20
9.7912220273
 10
15.4781067593
 20
9.7632591302
 10
15.503335229
 20
9.7342164288
 10
15.528773269
 20
9.7041191141
 10
15.5540538807
 20
9.6733620639
 10
15.5791043326
 20
9.6420073945
 10
15.6039473934
 20
9.609998218
 10
15.6283869477
 20
9.5775723418
 10
15.652387192
 20
9.5447685928
 10
15.6759528589
 20
9.5115700389
 10
15.6989670418
 20
9.4781420046
 10
15.721422064
 20
9.4444996874
 10
15.7433094457
 20
9.4106580902
 10
15.7645269216
 20
9.3767892454
 10
15.7850761212
 20
9.3429108101
 10
15.8049573498
 20
9.3090404702
 10
15.8240831518
 20
9.2753555104
 10
15.8424652602
 20
9.2418728775
 10
15.8601132011
 20
9.2086122995
 10
15.8769537098
 20
9.1757586583
 10
15.893000317
 20
9.143345686
 10
15.908281147
 20
9.1113741225
 10
15.9227599789
 20
9.0799806799
 10
15.9364268471
 20
9.0492708271
 10
15.9493492569
 20
9.0191678787
 10
15.961606201
 20
8.9895339015
 10
15.9731748931
 20
8.9605251144
 10
15.9841233033
 20
8.9320056699
 10
15.9946323518
 20
8.9033981473
 10
16.004683516
 20
8.8747207732
 10
16.0142825265
 20
8.8459742616
 10
16.0235904812
 20
8.816556779
 10
16.0325811413
 20
8.7864293946
 10
16.0412050841
 20
8.7556568771
 10
16.0495340935
 20
8.7237983874
 10
16.0575127786
 20
8.6908557819
 10
16.0650634546
 20
8.6568698942
 10
16.0721730546
 20
8.6214691598
 10
16.0787583333
 20
8.5846074535
 10
16.0846979583
 20
8.5464072278
 10
16.0898810413
 20
8.5067652579
 10
16.0941824411
 20
8.465688699
 10
16.0974744908
 20
8.4232919884
 10
16.0996248783
 20
8.3796473376
  0
LWPOLYLINE
  5
372
100
AcDbEntity
  8
0
100
AcDbPolyline
 62
7
  6
CONTINUOUS
 90
22
 70
0
 10
14.5535222901
 20
9.427547851
 10
14.5748618159
 20
9.4197049706
 10
14.6005396099
 20
9.4084830686
 10
14.629583799
 20
9.3937034
 10
14.6614628991
 20
9.3751025658
 10
14.6953563434
 20
9.3526687609
 10
14.7301961576
 20
9.3267203523
 10
14.7652259534
 20
9.2975335364
 10
14.7997771369
 20
9.2654394169
 10
14.8329962013
 20
9.2310965684
 10
14.864343099
 20
9.1950279225
 10
14.8932804867
 20
9.1578981255
 10
14.9191674105
 20
9.1207295969
 10
14.9417199903
 20
9.0843081037
 10
14.9608539939
 20
9.0492770562
 10
14.9764789429
 20
9.0164797919
 10
14.988678066
 20
8.9866641486
 10
14.9977337102
 20
8.9603086536
 10
15.0039827727
 20
8.9378923636
 10
15.0078166438
 20
8.9199702935
 10
15.0097386039
 20
8.9070245318
 10
15.010358428
 20
8.8995025643
  0
LINE
  5
373
100
AcDbEntity
  8
0
100
AcDbLine
 62
7
  6
CONTINUOUS
 10
17.6983177255
 20
-32.9274997503
 11
17.6559156383
 21
-32.6398059026
  0
LINE
  5
374
100
AcDbEntity
  8
0
100
AcDbLine
 62
7
  6
CONTINUOUS
 10
17.5474486288
 20
-32.7393257516
 11
17.5897480242
 21
-33.0270900568
  0
LINE
  5
375
100
AcDbEntity
  8
0
100
AcDbLine
 62
7
  6
CONTINUOUS
 10
17.092261358
 20
-32.8728429181
 11
17.056881559
 21
-32.6300791691
  0
LINE
  5
376
100
AcDbEntity
  8
0
100
AcDbLine
 62
7
  6
CONTINUOUS
 10
17.6559156383
 20
-32.6398059026
 11
17.615623275
 21
-32.3567033318
  0
LINE
  5
377
100
AcDbEntity
  8
0
100
AcDbLine
 62
7
  6
CONTINUOUS
 10
17.5072513139
 20
-32.4561355307
 11
17.5474486288
 21
-32.7393257516
  0
LINE
  5
378
100
AcDbEntity
  8
0
100
AcDbLine
 62
7
  6
CONTINUOUS
 10
17.056881559
 20
-32.6300791691
 11
17.0055718544
 21
-32.2639710824
  0
LINE
  5
379
100
AcDbEntity
  8
0
100
AcDbLine
 62
7
  6
CONTINUOUS
 10
17.615623275
 20
-32.3567033318
 11
17.5962864832
 21
-32.2170667075
  0
LINE
  5
37A
100
AcDbEntity
  8
0
100
AcDbLine
 62
7
  6
CONTINUOUS
 10
17.4690925447
 20
-32.1775985321
 11
17.5072513139
 21
-32.4561355307
  0
LINE
  5
37B
100
AcDbEntity
  8
0
100
AcDbLine
 62
7
  6
CONTINUOUS
 10
17.0055718544
 20
-32.2639710824
 11
16.972551763
 21
-32.0185765008
  0
LINE
  5
37C
100
AcDbEntity
  8
0
100
AcDbLine
 62
7
  6
CONTINUOUS
 10
16.972551763
 20
-32.0185765008
 11
16.9405016599
 21
-31.7721170532
  0
LINE
  5
37D
100
AcDbEntity
  8
0
100
AcDbLine
 62
7
  6
CONTINUOUS
 10
16.9405016599
 20
-31.7721170532
 11
16.9094552229
 21
-31.5246245316
  0
LINE
  5
37E
100
AcDbEntity
  8
0
100
AcDbLine
 62
7
  6
CONTINUOUS
 10
17.3783277921
 20
-31.5249173146
 11
17.4084402249
 21
-31.7653146414
  0
LINE
  5
37F
100
AcDbEntity
  8
0
100
AcDbLine
 62
7
  6
CONTINUOUS
 10
17.5165979594
 20
-31.6661022296
 11
17.4826866685
 21
-31.3955145123
  0
LINE
  5
380
100
AcDbEntity
  8
0
100
AcDbLine
 62
7
  6
CONTINUOUS
 10
17.4826866685
 20
-31.3955145123
 11
17.466411625
 21
-31.2613528324
  0
LINE
  5
381
100
AcDbEntity
  8
0
100
AcDbLine
 62
7
  6
CONTINUOUS
 10
16.9094552229
 20
-31.5246245316
 11
16.8794878811
 21
-31.2759342998
  0
LWPOLYLINE
  5
382
100
AcDbEntity
  8
0
100
AcDbPolyline
 62
7
  6
CONTINUOUS
 90
3
 70
0
 10
17.341946476
 20
-31.2219716363
 10
17.3491052033
 20
-31.2827701924
 10
17.3783277921
 20
-31.5249173146
  0
LWPOLYLINE
  5
383
100
AcDbEntity
  8
0
100
AcDbPolyline
 62
7
  6
CONTINUOUS
 90
3
 70
0
 10
16.8794878811
 20
-31.2759342998
 10
16.8506547991
 20
-31.0259822355
 10
16.8367106103
 20
-30.9005046948
  0
LINE
  5
384
100
AcDbEntity
  8
RACCORDO
100
AcDbLine
 62
250
  6
CONTINUOUS
 10
18.061099812
 20
1.5306300218
 11
18.4040697105
 21
-6.4445750475
  0
LINE
  5
385
100
AcDbEntity
  8
RACCORDO
100
AcDbLine
 62
250
  6
CONTINUOUS
 10
16.8707138979
 20
-9.9155150615
 11
17.6563547109
 21
-28.2095581064
  0
LINE
  5
386
100
AcDbEntity
  8
RACCORDO
100
AcDbLine
 62
250
  6
CONTINUOUS
 10
18.4040697105
 20
-6.4445750475
 11
19.0102677954
 21
-20.7583340458
  0
LINE
  5
387
100
AcDbEntity
  8
RACCORDO
100
AcDbLine
 62
250
  6
CONTINUOUS
 10
17.7678604047
 20
8.2210986101
 11
18.061099812
 21
1.5306300218
  0
LINE
  5
388
100
AcDbEntity
  8
RACCORDO
100
AcDbLine
 62
250
  6
CONTINUOUS
 10
19.0102677954
 20
-20.7583340458
 11
19.3230448663
 21
-28.3318253618
  0
LWPOLYLINE
  5
389
100
AcDbEntity
  8
RACCORDO
100
AcDbPolyline
 62
250
  6
CONTINUOUS
 90
94
 70
0
 10
17.6563531953
 20
-28.2095598463
 10
17.6576364059
 20
-28.2419401816
 10
17.6581879866
 20
-28.2730407418
 10
17.6580727243
 20
-28.3028706085
 10
17.6573503727
 20
-28.3314217615
 10
17.6560857741
 20
-28.3587258682
 10
17.6543451634
 20
-28.3848530112
 10
17.6521861671
 20
-28.4097861412
 10
17.6496578157
 20
-28.4335719573
 10
17.6467995912
 20
-28.4563733267
 10
17.6436549335
 20
-28.4781906186
 10
17.6402607166
 20
-28.499050426
 10
17.6366279789
 20
-28.5191481194
 10
17.6327849314
 20
-28.5384986879
 10
17.628758746
 20
-28.5571075924
 10
17.6245416089
 20
-28.5751481307
 10
17.6201533424
 20
-28.5926294544
 10
17.6156110762
 20
-28.6095564909
 10
17.6108885506
 20
-28.6260886904
 10
17.6060093705
 20
-28.6421848197
 10
17.6009733469
 20
-28.6578942564
 10
17.5957002935
 20
-28.673501444
 10
17.5901832218
 20
-28.6890082158
 10
17.5844277321
 20
-28.7044058588
 10
17.5783502158
 20
-28.7199487589
 10
17.571933125
 20
-28.7356470781
 10
17.5651703142
 20
-28.7514685087
 10
17.557975708
 20
-28.7675903206
 10
17.5503107518
 20
-28.7840377578
 10
17.5421708859
 20
-28.8007472082
 10
17.5335091038
 20
-28.817753403
 10
17.5242854027
 20
-28.8350611469
 10
17.5144889915
 20
-28.8526171503
 10
17.5041149331
 20
-28.8703666667
 10
17.4931364932
 20
-28.8882887627
 10
17.4815317787
 20
-28.9063524643
 10
17.4693069805
 20
-28.9244899857
 10
17.4564403487
 20
-28.9426749037
 10
17.4429095563
 20
-28.9608799876
 10
17.4287250735
 20
-28.9790394818
 10
17.4138673915
 20
-28.9971271606
 10
17.3983176144
 20
-29.0151148147
 10
17.3820928015
 20
-29.0329376931
 10
17.3651781886
 20
-29.0505685639
 10
17.3475572721
 20
-29.0679810863
 10
17.3292504112
 20
-29.0851164067
 10
17.3102450028
 20
-29.1019496859
 10
17.2905298427
 20
-29.1184538882
 10
17.2701334995
 20
-29.1345720765
 10
17.2489809318
 20
-29.1503291992
 10
17.2271288312
 20
-29.1656482723
 10
17.2048237299
 20
-29.1803427404
 10
17.1820062998
 20
-29.1944514175
 10
17.1587533554
 20
-29.2079241794
 10
17.1355614693
 20
-29.2205005286
 10
17.1125276991
 20
-29.2321877446
 10
17.0896308195
 20
-29.2430518572
 10
17.0672330493
 20
-29.2529826985
 10
17.0455449574
 20
-29.2619757669
 10
17.0244527464
 20
-29.2701559728
 10
17.0038389955
 20
-29.2776197648
 10
16.9838183104
 20
-29.2843825479
 10
16.9643438761
 20
-29.2905185985
 10
16.9450352122
 20
-29.2961798153
 10
16.925922304
 20
-29.3013806497
 10
16.9070075653
 20
-29.3061454745
 10
16.8878429709
 20
-29.3105955894
 10
16.868385512
 20
-29.3147328318
 10
16.8486830147
 20
-29.3185455786
 10
16.8284022625
 20
-29.3220945397
 10
16.8074948034
 20
-29.3253646506
 10
16.7859971013
 20
-29.3283254684
 10
16.7636890065
 20
-29.3309850661
 10
16.7405700574
 20
-29.3333092832
 10
16.7166206287
 20
-29.3352608139
 10
16.691581041
 20
-29.3368158505
 10
16.6653282977
 20
-29.3379242041
 10
16.6379562824
 20
-29.3385232476
 10
16.6095276967
 20
-29.3385581424
 10
16.579881401
 20
-29.3379702526
 10
16.5491589231
 20
-29.3367015744
 10
16.5178916415
 20
-29.3347355789
 10
16.4861167002
 20
-29.3320557477
 10
16.453809098
 20
-29.3286357084
 10
16.4214282311
 20
-29.324509967
 10
16.3892469531
 20
-29.3197309671
 10
16.3570261662
 20
-29.3142755041
 10
16.3244636669
 20
-29.308076897
 10
16.2918978506
 20
-29.3011958093
 10
16.2590201917
 20
-29.2935682034
 10
16.2245455396
 20
-29.2848407057
 10
16.1880466273
 20
-29.2747965396
 10
16.149967
 20
-29.2634464135
 10
16.1103228675
 20
-29.2506930919
  0
LINE
  5
38A
100
AcDbEntity
  8
RACCORDO
100
AcDbLine
 62
250
  6
CONTINUOUS
 10
16.0996262577
 20
8.3796489296
 11
16.8707140335
 21
-9.9155149701
  0
LWPOLYLINE
  5
38B
100
AcDbEntity
  8
RACCORDO
100
AcDbPolyline
 62
250
  6
CONTINUOUS
 90
20
 70
0
 10
19.3230448722
 20
-28.3318253552
 10
19.3251287693
 20
-28.394108936
 10
19.325736973
 20
-28.4539287221
 10
19.3250085443
 20
-28.511298878
 10
19.3230843843
 20
-28.5662033429
 10
19.3200899546
 20
-28.618704718
 10
19.3161268689
 20
-28.668937176
 10
19.3113097912
 20
-28.7168691247
 10
19.305751228
 20
-28.7625897784
 10
19.2995197173
 20
-28.8064068723
 10
19.292700749
 20
-28.8483188273
 10
19.2853814575
 20
-28.8883722713
 10
19.2775936835
 20
-28.9269351069
 10
19.2694214341
 20
-28.9640294874
 10
19.2609033581
 20
-28.9996702305
 10
19.2519654639
 20
-29.0341988304
 10
19.2426514839
 20
-29.0676364656
 10
19.2329804724
 20
-29.1000318948
 10
19.2228017885
 20
-29.1317597316
 10
19.2119239803
 20
-29.162805875
  0
LWPOLYLINE
  5
38C
100
AcDbEntity
  8
0
100
AcDbPolyline
 62
7
  6
CONTINUOUS
 90
3
 70
0
 10
13.5087551153
 20
-31.5870217606
 10
13.5699945441
 20
-31.287841128
 10
13.6008869861
 20
-31.1395746787
  0
LINE
  5
38D
100
AcDbEntity
  8
0
100
AcDbLine
 62
7
  6
CONTINUOUS
 10
13.461781331
 20
-31.3871682444
 11
13.4004483874
 21
-31.6863708431
  0
LINE
  5
38E
100
AcDbEntity
  8
0
100
AcDbLine
 62
7
  6
CONTINUOUS
 10
13.5238516359
 20
-31.0914474365
 11
13.461781331
 21
-31.3871682444
  0
LINE
  5
38F
100
AcDbEntity
  8
0
100
AcDbLine
 62
7
  6
CONTINUOUS
 10
13.0546022933
 20
-30.8322077703
 11
13.1199866971
 21
-30.5309831453
  0
LINE
  5
390
100
AcDbEntity
  8
0
100
AcDbLine
 62
7
  6
CONTINUOUS
 10
13.1199866971
 20
-30.5309831453
 11
13.1859044575
 21
-30.2341349769
  0
LWPOLYLINE
  5
391
100
AcDbEntity
  8
0
100
AcDbPolyline
 62
7
  6
CONTINUOUS
 90
3
 70
0
 10
13.1859044575
 20
-30.2341349769
 10
13.2523283332
 20
-29.941696777
 10
13.2856869323
 20
-29.7971844759
  0
LINE
  5
392
100
AcDbEntity
  8
0
100
AcDbLine
 62
7
  6
CONTINUOUS
 10
9.9752315766
 20
-30.4215051523
 11
10.0889817718
 21
-29.9708124737
  0
LINE
  5
393
100
AcDbEntity
  8
0
100
AcDbLine
 62
7
  6
CONTINUOUS
 10
9.9808154211
 20
-30.0702163242
 11
9.8669543513
 21
-30.5208271722
  0
LINE
  5
394
100
AcDbEntity
  8
0
100
AcDbLine
 62
7
  6
CONTINUOUS
 10
10.0889817718
 20
-29.9708124737
 11
10.2049872156
 21
-29.5250347571
  0
LINE
  5
395
100
AcDbEntity
  8
0
100
AcDbLine
 62
7
  6
CONTINUOUS
 10
10.096943459
 20
-29.6244050513
 11
9.9808154211
 21
-30.0702163242
  0
LINE
  5
396
100
AcDbEntity
  8
0
100
AcDbLine
 62
7
  6
CONTINUOUS
 10
9.5331997751
 20
-29.7482285578
 11
9.6144510294
 21
-29.4382743498
  0
LINE
  5
397
100
AcDbEntity
  8
0
100
AcDbLine
 62
7
  6
CONTINUOUS
 10
9.6144510294
 20
-29.4382743498
 11
9.6967967591
 21
-29.1303928454
  0
LINE
  5
398
100
AcDbEntity
  8
0
100
AcDbLine
 62
7
  6
CONTINUOUS
 10
10.2049872156
 20
-29.5250347571
 11
10.3231419998
 21
-29.0842988787
  0
LINE
  5
399
100
AcDbEntity
  8
0
100
AcDbLine
 62
7
  6
CONTINUOUS
 10
10.2152347931
 20
-29.1835180155
 11
10.096943459
 21
-29.6244050513
  0
LINE
  5
39A
100
AcDbEntity
  8
0
100
AcDbLine
 62
7
  6
CONTINUOUS
 10
9.6967967591
 20
-29.1303928454
 11
9.7802058671
 21
-28.8246212757
  0
LWPOLYLINE
  5
39B
100
AcDbEntity
  8
0
100
AcDbPolyline
 62
7
  6
CONTINUOUS
 90
3
 70
0
 10
10.3231419998
 20
-29.0842988787
 10
10.4430224923
 20
-28.6491123428
 10
10.5036363562
 20
-28.4335683592
  0
LWPOLYLINE
  5
39C
100
AcDbEntity
  8
0
100
AcDbPolyline
 62
7
  6
CONTINUOUS
 90
3
 70
0
 10
9.7802058671
 20
-28.8246212757
 10
9.8645539633
 20
-28.5211085647
 10
9.9070879065
 20
-28.3701899736
  0
LWPOLYLINE
  5
39D
100
AcDbEntity
  8
0
100
AcDbPolyline
 62
7
  6
CONTINUOUS
 90
3
 70
0
 10
10.3959763514
 20
-28.5323242068
 10
10.3352747347
 20
-28.7480538653
 10
10.2152347931
 20
-29.1835180155
  0
LINE
  5
39E
100
AcDbEntity
  8
DRAFT
100
AcDbLine
 62
7
  6
CONTINUOUS
 10
8.11609766
 20
-22.6969334895
 11
8.0388793079
 21
-22.8810481769
  0
LINE
  5
39F
100
AcDbEntity
  8
DRAFT
100
AcDbLine
 62
7
  6
CONTINUOUS
 10
8.4066783156
 20
-22.4579701494
 11
8.3294599635
 21
-22.6420848368
  0
LINE
  5
3A0
100
AcDbEntity
  8
DRAFT
100
AcDbLine
 62
7
  6
CONTINUOUS
 10
8.6972589713
 20
-22.2190068092
 11
8.6200406192
 21
-22.4031214967
  0
LINE
  5
3A1
100
AcDbEntity
  8
DRAFT
100
AcDbLine
 62
7
  6
CONTINUOUS
 10
-20.9831920299
 20
14.2882212526
 11
-20.8435809845
 21
14.3141810686
  0
LINE
  5
3A2
100
AcDbEntity
  8
DRAFT
100
AcDbLine
 62
7
  6
CONTINUOUS
 10
-20.7420753881
 20
14.551185648
 11
-20.5760053724
 21
14.5820653469
  0
LINE
  5
3A3
100
AcDbEntity
  8
RACCORDO
100
AcDbLine
 62
250
  6
CONTINUOUS
 10
-22.7169106269
 20
24.5098931313
 11
-19.4629372072
 21
23.4390227916
  0
LINE
  5
3A4
100
AcDbEntity
  8
RACCORDO
100
AcDbLine
 62
250
  6
CONTINUOUS
 10
-19.4629372072
 20
23.4390227916
 11
7.6704479157
 21
14.4427029735
  0
LINE
  5
3A5
100
AcDbEntity
  8
RACCORDO
100
AcDbLine
 62
250
  6
CONTINUOUS
 10
7.6704479157
 20
14.4427029735
 11
12.4933554671
 21
12.8387840952
  0
LINE
  5
3A6
100
AcDbEntity
  8
RACCORDO
100
AcDbLine
 62
250
  6
CONTINUOUS
 10
12.4933554671
 20
12.8387840952
 11
14.6854097763
 21
12.1053471658
  0
LWPOLYLINE
  5
3A7
100
AcDbEntity
  8
RACCORDO
100
AcDbPolyline
 62
250
  6
CONTINUOUS
 90
65
 70
0
 10
14.6854093293
 20
12.1053412141
 10
14.7556414084
 20
12.0807715499
 10
14.8238593814
 20
12.0552697487
 10
14.8901147726
 20
12.0289506622
 10
14.953905214
 20
12.0021246714
 10
15.0156736447
 20
11.9747892629
 10
15.0768224044
 20
11.9465092811
 10
15.1375576311
 20
11.9171410339
 10
15.1973041176
 20
11.8870583225
 10
15.2563447664
 20
11.8564808377
 10
15.3149493556
 20
11.8255489844
 10
15.3729134653
 20
11.7942134796
 10
15.4298967301
 20
11.7623518463
 10
15.4861234216
 20
11.7297881401
 10
15.5416823701
 20
11.6965990621
 10
15.5959444397
 20
11.6631421367
 10
15.6486998633
 20
11.6295905651
 10
15.7001106872
 20
11.5959237128
 10
15.750125247
 20
11.5622303657
 10
15.7986840253
 20
11.5286096982
 10
15.8458463113
 20
11.4950933645
 10
15.8916976621
 20
11.4616987087
 10
15.9361233427
 20
11.4286039124
 10
15.9792704635
 20
11.395709981
 10
16.021783828
 20
11.3624418092
 10
16.0639640065
 20
11.328479467
 10
16.1059208845
 20
11.2938118709
 10
16.1477190131
 20
11.2585284969
 10
16.1888624727
 20
11.2230811682
 10
16.2292234718
 20
11.1875242664
 10
16.2695669445
 20
11.1511836972
 10
16.3099363945
 20
11.1140281577
 10
16.3503103467
 20
11.0760545101
 10
16.3912291738
 20
11.0366692297
 10
16.4325548282
 20
10.9959661588
 10
16.4740792374
 20
10.9541038487
 10
16.5163291517
 20
10.9104126258
 10
16.5597164001
 20
10.8643534715
 10
16.6040806582
 20
10.8160225344
 10
16.6489764106
 20
10.7657936798
 10
16.694386596
 20
10.7135871609
 10
16.7401105437
 20
10.6595074369
 10
16.7854653565
 20
10.6042480623
 10
16.8303290207
 20
10.5479157472
 10
16.8747504461
 20
10.4904151059
 10
16.9183459766
 20
10.4321790812
 10
16.9610391842
 20
10.3732937498
 10
17.0028379553
 20
10.3137430622
 10
17.0435180534
 20
10.2538251846
 10
17.0830603991
 20
10.1935752963
 10
17.1214550497
 20
10.1330294587
 10
17.1585197758
 20
10.0724953383
 10
17.1942549606
 20
10.0120048981
 10
17.2286622711
 20
9.9516018239
 10
17.2615857566
 20
9.8916292854
 10
17.2930356384
 20
9.8321398165
 10
17.3230292352
 20
9.773178045
 10
17.3514660143
 20
9.715045819
 10
17.3783901364
 20
9.6577567447
 10
17.4038453512
 20
9.6013280018
 10
17.4277188083
 20
9.5461665689
 10
17.4497309839
 20
9.4927196482
 10
17.4702206875
 20
9.4407266357
 10
17.4901337236
 20
9.3891519034
 10
17.5096675612
 20
9.3376127197
  0
LWPOLYLINE
  5
3A8
100
AcDbEntity
  8
RACCORDO
100
AcDbPolyline
 62
250
  6
CONTINUOUS
 90
15
 70
0
 10
17.5487550784
 20
9.2323856314
 10
17.5898232089
 20
9.1226262591
 10
17.6097264326
 20
9.0657405828
 10
17.6284691226
 20
9.0075092714
 10
17.6462856055
 20
8.9481174353
 10
17.6634640084
 20
8.8867393881
 10
17.6799525918
 20
8.8232943555
 10
17.6955766796
 20
8.7577398045
 10
17.7103247427
 20
8.6893464665
 10
17.723993582
 20
8.6180523467
 10
17.7363239448
 20
8.544142439
 10
17.7471360413
 20
8.4674271711
 10
17.7561870311
 20
8.387898131
 10
17.7631889507
 20
8.3057445365
 10
17.7678600122
 20
8.2210981819
  0
LINE
  5
3A9
100
AcDbEntity
  8
RACCORDO
100
AcDbLine
 62
250
  6
CONTINUOUS
 10
17.5096675612
 20
9.3376127197
 11
17.5487550784
 21
9.2323856314
  0
LINE
  5
3AA
100
AcDbEntity
  8
0
100
AcDbLine
 62
7
  6
CONTINUOUS
 10
13.6008869861
 20
-31.1395746787
 11
13.6632364016
 21
-30.8456654322
  0
LINE
  5
3AB
100
AcDbEntity
  8
0
100
AcDbLine
 62
7
  6
CONTINUOUS
 10
13.5866316019
 20
-30.7992433729
 11
13.5238516359
 21
-31.0914474365
  0
LINE
  5
3AC
100
AcDbEntity
  8
0
100
AcDbLine
 62
7
  6
CONTINUOUS
 10
13.6632364016
 20
-30.8456654322
 11
13.710942742
 21
-30.6254183834
  0
LWPOLYLINE
  5
3AD
100
AcDbEntity
  8
0
100
AcDbPolyline
 62
7
  6
CONTINUOUS
 90
3
 70
0
 10
13.681931339
 20
-30.3677845842
 10
13.6500104282
 20
-30.5106958666
 10
13.5866316019
 20
-30.7992433729
  0
LINE
  5
3AE
100
AcDbEntity
  8
0
100
AcDbLine
 62
7
  6
CONTINUOUS
 10
13.2856869323
 20
-29.7971844759
 11
13.3527156135
 21
-29.5115511301
  0
LINE
  5
3AF
100
AcDbEntity
  8
0
100
AcDbLine
 62
7
  6
CONTINUOUS
 10
15.2845236804
 20
-32.1636085631
 11
15.3482425524
 21
-31.9071654627
  0
LINE
  5
3B0
100
AcDbEntity
  8
0
100
AcDbLine
 62
7
  6
CONTINUOUS
 10
14.6838686324
 20
-32.1040113537
 11
14.7651137042
 21
-31.7789739485
  0
LWPOLYLINE
  5
3B1
100
AcDbEntity
  8
0
100
AcDbPolyline
 62
7
  6
CONTINUOUS
 90
3
 70
0
 10
15.2719048902
 20
-31.8795624399
 10
15.2559266343
 20
-31.9429237183
 10
15.1761453
 20
-32.2630233721
  0
LINE
  5
3B2
100
AcDbEntity
  8
0
100
AcDbLine
 62
7
  6
CONTINUOUS
 10
14.7651137042
 20
-31.7789739485
 11
14.8484646644
 21
-31.4521171963
  0
LINE
  5
3B3
100
AcDbEntity
  8
0
100
AcDbLine
 62
7
  6
CONTINUOUS
 10
14.8484646644
 20
-31.4521171963
 11
14.9339563598
 21
-31.123328644
  0
LINE
  5
3B4
100
AcDbEntity
  8
0
100
AcDbLine
 62
7
  6
CONTINUOUS
 10
15.4752978405
 20
-31.4073849847
 11
15.5626046817
 21
-31.0722024982
  0
LINE
  5
3B5
100
AcDbEntity
  8
0
100
AcDbLine
 62
7
  6
CONTINUOUS
 10
15.454597515
 20
-31.171283593
 11
15.3671845697
 21
-31.5065566103
  0
LINE
  5
3B6
100
AcDbEntity
  8
0
100
AcDbLine
 62
7
  6
CONTINUOUS
 10
15.5626046817
 20
-31.0722024982
 11
15.5742460473
 21
-31.0280403216
  0
LINE
  5
3B7
100
AcDbEntity
  8
0
100
AcDbLine
 62
7
  6
CONTINUOUS
 10
14.9339563598
 20
-31.123328644
 11
15.0217193168
 21
-30.7923862555
  0
LINE
  5
3B8
100
AcDbEntity
  8
0
100
AcDbLine
 62
7
  6
CONTINUOUS
 10
15.5243312908
 20
-30.9085661417
 11
15.454597515
 21
-31.171283593
  0
LINE
  5
3B9
100
AcDbEntity
  8
0
100
AcDbLine
 62
7
  6
CONTINUOUS
 10
15.0217193168
 20
-30.7923862555
 11
15.1119478162
 21
-30.4589908645
  0
LINE
  5
3BA
100
AcDbEntity
  8
0
100
AcDbLine
 62
7
  6
CONTINUOUS
 10
15.1119478162
 20
-30.4589908645
 11
15.2048472113
 21
-30.1228647834
  0
LINE
  5
3BB
100
AcDbEntity
  8
DRAFT
100
AcDbLine
 62
7
  6
CONTINUOUS
 10
13.1879296209
 20
-24.3790136646
 11
13.1192668292
 21
-24.5787205659
  0
LINE
  5
3BC
100
AcDbEntity
  8
DRAFT
100
AcDbLine
 62
7
  6
CONTINUOUS
 10
13.4343378418
 20
-24.1254004746
 11
13.3656750501
 21
-24.3251073759
  0
LINE
  5
3BD
100
AcDbEntity
  8
DRAFT
100
AcDbLine
 62
7
  6
CONTINUOUS
 10
13.6807460627
 20
-23.8717872846
 11
13.6120832709
 21
-24.0714941859
  0
LWPOLYLINE
  5
3BE
100
AcDbEntity
  8
RACCORDO
100
AcDbPolyline
 62
250
  6
CONTINUOUS
 90
4
 70
0
 10
13.8314099396
 20
-24.6488947971
 10
13.8408400246
 20
-24.6215804878
 10
13.8459551299
 20
-24.5921627886
 10
13.846752276
 20
-24.5611697986
  0
LINE
  5
3BF
100
AcDbEntity
  8
RACCORDO
100
AcDbLine
 62
7
  6
CONTINUOUS
 10
8.8425492991
 20
-22.0995251392
 11
8.6972589713
 21
-22.2190068092
  0
LINE
  5
3C0
100
AcDbEntity
  8
DRAFT
100
AcDbLine
 62
7
  6
CONTINUOUS
 10
8.5229105779
 20
-22.3623848133
 11
8.4066783156
 21
-22.4579701494
  0
LINE
  5
3C1
100
AcDbEntity
  8
DRAFT
100
AcDbLine
 62
7
  6
CONTINUOUS
 10
8.2323299222
 20
-22.6013481534
 11
8.11609766
 21
-22.6969334895
  0
LINE
  5
3C2
100
AcDbEntity
  8
DRAFT
100
AcDbLine
 62
7
  6
CONTINUOUS
 10
7.9417492666
 20
-22.8403114935
 11
7.8483877453
 21
-22.9170887343
  0
LINE
  5
3C3
100
AcDbEntity
  8
DRAFT
100
AcDbLine
 62
7
  6
CONTINUOUS
 10
-21.1927240303
 20
19.2130436204
 11
-21.0527406272
 21
19.2302515733
  0
LINE
  5
3C4
100
AcDbEntity
  8
DRAFT
100
AcDbLine
 62
7
  6
CONTINUOUS
 10
-20.9905803819
 20
19.4294665177
 11
-20.7833273627
 21
19.4549438251
  0
LWPOLYLINE
  5
3C5
100
AcDbEntity
  8
0
100
AcDbPolyline
 62
7
  6
CONTINUOUS
 90
7
 70
0
 10
-22.8952904754
 20
21.8485099085
 10
-22.8982128398
 20
21.8483028081
 10
-22.9058114881
 20
21.8481166554
 10
-22.9065596003
 20
21.8481140561
 10
-22.9004659253
 20
21.847198911
 10
-22.8879121567
 20
21.8444055966
 10
-22.8697938128
 20
21.8390430619
  0
LWPOLYLINE
  5
3C6
100
AcDbEntity
  8
RACCORDO
100
AcDbPolyline
 62
250
  6
CONTINUOUS
 90
3
 70
0
 10
13.8009759583
 20
-24.6942114837
 10
13.8177103015
 20
-24.6736463426
 10
13.8314099396
 20
-24.6488947971
  0
LWPOLYLINE
  5
3C7
100
AcDbEntity
  8
RACCORDO
100
AcDbPolyline
 62
250
  6
CONTINUOUS
 90
6
 70
0
 10
13.846752276
 20
-24.5611697986
 10
13.8632983341
 20
-24.5413849629
 10
13.8754073191
 20
-24.5207010496
 10
13.8828856072
 20
-24.4994487966
 10
13.8856136198
 20
-24.4779680297
 10
13.885538424
 20
-24.4724055353
  0
LINE
  5
3C8
100
AcDbEntity
  8
RACCORDO
100
AcDbLine
 62
7
  6
CONTINUOUS
 10
13.8039501731
 20
-23.7449806896
 11
13.6807460627
 21
-23.8717872846
  0
LINE
  5
3C9
100
AcDbEntity
  8
DRAFT
100
AcDbLine
 62
7
  6
CONTINUOUS
 10
13.5329011301
 20
-24.0239551986
 11
13.4343378418
 21
-24.1254004746
  0
LINE
  5
3CA
100
AcDbEntity
  8
DRAFT
100
AcDbLine
 62
7
  6
CONTINUOUS
 10
13.2864929093
 20
-24.2775683886
 11
13.1879296209
 21
-24.3790136646
  0
LINE
  5
3CB
100
AcDbEntity
  8
DRAFT
100
AcDbLine
 62
7
  6
CONTINUOUS
 10
13.0400846884
 20
-24.5311815785
 11
12.9609154598
 21
-24.612665713
  0
LINE
  5
3CC
100
AcDbEntity
  8
RACCORDO
100
AcDbLine
 62
250
  6
CONTINUOUS
 10
13.846752276
 20
-24.5611697986
 11
13.593032587
 21
-24.8223082438
  0
LINE
  5
3CD
100
AcDbEntity
  8
RACCORDO
100
AcDbLine
 62
7
  6
CONTINUOUS
 10
13.8009759583
 20
-24.6942114837
 11
13.6561727252
 21
-24.8432487591
  0
LINE
  5
3CE
100
AcDbEntity
  8
0
100
AcDbLine
 62
7
  6
CONTINUOUS
 10
8.3375604056
 20
-27.8495048901
 11
8.4452204027
 21
-27.7507490497
  0
LINE
  5
3CF
100
AcDbEntity
  8
0
100
AcDbLine
 62
7
  6
CONTINUOUS
 10
8.8263954523
 20
-28.0116881051
 11
8.9340551341
 21
-27.9129325539
  0
LWPOLYLINE
  5
3D0
100
AcDbEntity
  8
RACCORDO
100
AcDbPolyline
 62
7
  6
CONTINUOUS
 90
6
 70
0
 10
13.8117021954
 20
-23.7373556782
 10
13.8287722848
 20
-23.7218219547
 10
13.840883949
 20
-23.7087441084
 10
13.8484291662
 20
-23.6985262463
 10
13.8518839998
 20
-23.6919904894
 10
13.8522527533
 20
-23.690062231
  0
LWPOLYLINE
  5
3D1
100
AcDbEntity
  8
RACCORDO
100
AcDbPolyline
 62
7
  6
CONTINUOUS
 90
4
 70
0
 10
8.8516884054
 20
-22.0923601561
 10
8.8763957692
 20
-22.0793593454
 10
8.9036231438
 20
-22.0712946456
 10
8.9325396095
 20
-22.068164588
  0
LINE
  5
3D2
100
AcDbEntity
  8
RACCORDO
100
AcDbLine
 62
250
  6
CONTINUOUS
 10
33.719238358
 20
-42.4748085107
 11
33.7310060546
 21
-42.6219225887
  0
LINE
  5
3D3
100
AcDbEntity
  8
RACCORDO
100
AcDbLine
 62
250
  6
CONTINUOUS
 10
33.7074001472
 20
-42.3176269309
 11
33.719238358
 21
-42.4748085107
  0
LINE
  5
3D4
100
AcDbEntity
  8
RACCORDO
100
AcDbLine
 62
250
  6
CONTINUOUS
 10
33.6991812764
 20
-42.2010821245
 11
33.7074001472
 21
-42.3176269309
  0
LINE
  5
3D5
100
AcDbEntity
  8
RACCORDO
100
AcDbLine
 62
250
  6
CONTINUOUS
 10
29.926154133
 20
17.8642092661
 11
29.9321491042
 21
17.7792206168
  0
LINE
  5
3D6
100
AcDbEntity
  8
RACCORDO
100
AcDbLine
 62
250
  6
CONTINUOUS
 10
33.6917046606
 20
-42.0876315494
 11
33.6991812764
 21
-42.2010821245
  0
LINE
  5
3D7
100
AcDbEntity
  8
RACCORDO
100
AcDbLine
 62
250
  6
CONTINUOUS
 10
29.9207708069
 20
17.9486767843
 11
29.926154133
 21
17.8642092661
  0
LINE
  5
3D8
100
AcDbEntity
  8
RACCORDO
100
AcDbLine
 62
250
  6
CONTINUOUS
 10
33.6849143599
 20
-41.9750517799
 11
33.6917046606
 21
-42.0876315494
  0
LINE
  5
3D9
100
AcDbEntity
  8
RACCORDO
100
AcDbLine
 62
250
  6
CONTINUOUS
 10
29.9159696878
 20
18.0314384501
 11
29.9207708069
 21
17.9486767843
  0
LWPOLYLINE
  5
3DA
100
AcDbEntity
  8
RACCORDO
100
AcDbPolyline
 62
250
  6
CONTINUOUS
 90
3
 70
0
 10
29.9080395302
 20
18.1865972535
 10
29.9098222596
 20
18.1491997616
 10
29.9159696878
 20
18.0314384501
  0
LINE
  5
3DB
100
AcDbEntity
  8
RACCORDO
100
AcDbLine
 62
250
  6
CONTINUOUS
 10
29.9835311475
 20
17.160796284
 11
30.278623712
 21
11.3321085482
  0
LINE
  5
3DC
100
AcDbEntity
  8
RACCORDO
100
AcDbLine
 62
250
  6
CONTINUOUS
 10
30.278623712
 20
11.3321085482
 11
30.4310915455
 21
7.9760353552
  0
LINE
  5
3DD
100
AcDbEntity
  8
RACCORDO
100
AcDbLine
 62
250
  6
CONTINUOUS
 10
32.4979366702
 20
-41.9404052299
 11
32.5016600593
 21
-42.0229036541
  0
LINE
  5
3DE
100
AcDbEntity
  8
RACCORDO
100
AcDbLine
 62
250
  6
CONTINUOUS
 10
30.4310915455
 20
7.9760353552
 11
31.1559737934
 21
-8.7018636409
  0
LINE
  5
3DF
100
AcDbEntity
  8
RACCORDO
100
AcDbLine
 62
250
  6
CONTINUOUS
 10
31.1559737934
 20
-8.7018636409
 11
31.6453595572
 21
-20.2351878983
  0
LINE
  5
3E0
100
AcDbEntity
  8
RACCORDO
100
AcDbLine
 62
250
  6
CONTINUOUS
 10
31.6453595572
 20
-20.2351878983
 11
31.9937885901
 21
-28.5981908131
  0
LINE
  5
3E1
100
AcDbEntity
  8
RACCORDO
100
AcDbLine
 62
250
  6
CONTINUOUS
 10
31.9937885901
 20
-28.5981908131
 11
32.2614883923
 21
-35.1732539205
  0
LINE
  5
3E2
100
AcDbEntity
  8
RACCORDO
100
AcDbLine
 62
250
  6
CONTINUOUS
 10
32.2614883923
 20
-35.1732539205
 11
32.3403925075
 21
-37.2791573289
  0
LINE
  5
3E3
100
AcDbEntity
  8
RACCORDO
100
AcDbLine
 62
250
  6
CONTINUOUS
 10
32.3403925075
 20
-37.2791573289
 11
32.490286968
 21
-41.7134491702
  0
LINE
  5
3E4
100
AcDbEntity
  8
RACCORDO
100
AcDbLine
 62
250
  6
CONTINUOUS
 10
32.490286968
 20
-41.7134491702
 11
32.4979366702
 21
-41.9404052299
  0
LWPOLYLINE
  5
3E5
100
AcDbEntity
  8
RACCORDO
100
AcDbPolyline
 62
250
  6
CONTINUOUS
 90
3
 70
0
 10
32.5026200015
 20
-42.7747991637
 10
32.5038235939
 20
-42.812649079
 10
32.5064296533
 20
-42.8857438853
  0
LINE
  5
3E6
100
AcDbEntity
  8
RACCORDO
100
AcDbLine
 62
250
  6
CONTINUOUS
 10
19.1568845624
 20
-29.3093736482
 11
19.135858093
 21
-29.3664814622
  0
LINE
  5
3E7
100
AcDbEntity
  8
RACCORDO
100
AcDbLine
 62
250
  6
CONTINUOUS
 10
19.2119239803
 20
-29.162805875
 11
19.1568845624
 21
-29.3093736482
  0
LWPOLYLINE
  5
3E8
100
AcDbEntity
  8
RACCORDO
100
AcDbPolyline
 62
250
  6
CONTINUOUS
 90
68
 70
0
 10
19.135858093
 20
-29.3664814622
 10
19.1246753695
 20
-29.3955084158
 10
19.1125611247
 20
-29.4251289617
 10
19.099604927
 20
-29.4553365958
 10
19.0856623231
 20
-29.486161944
 10
19.0706648669
 20
-29.5175758187
 10
19.0546240558
 20
-29.5494546696
 10
19.037506534
 20
-29.5816927645
 10
19.0192594597
 20
-29.6142627603
 10
18.9998402062
 20
-29.6471182768
 10
18.9792395778
 20
-29.6801232227
 10
18.95741995
 20
-29.7132247496
 10
18.9343455365
 20
-29.7463690793
 10
18.9100199205
 20
-29.7794225422
 10
18.8844105309
 20
-29.8123333783
 10
18.8574854818
 20
-29.8450487715
 10
18.8292589696
 20
-29.8774403123
 10
18.7997026083
 20
-29.9094543656
 10
18.7687901011
 20
-29.9410429467
 10
18.7365496107
 20
-29.9720927477
 10
18.7029569971
 20
-30.002553393
 10
18.6679963951
 20
-30.0323737399
 10
18.6317217536
 20
-30.0614465895
 10
18.59399921
 20
-30.0898080191
 10
18.554938478
 20
-30.1173173768
 10
18.5149859538
 20
-30.1436488329
 10
18.4740143128
 20
-30.168869971
 10
18.4321687608
 20
-30.1928912158
 10
18.3904232913
 20
-30.215239382
 10
18.3490541213
 20
-30.2358849098
 10
18.3079970131
 20
-30.2549584071
 10
18.2676417566
 20
-30.2723933488
 10
18.228129093
 20
-30.2882370151
 10
18.1891725996
 20
-30.302740283
 10
18.1506024209
 20
-30.3161140309
 10
18.112661207
 20
-30.3283476486
 10
18.0753518975
 20
-30.3395186152
 10
18.0381125971
 20
-30.34991376
 10
18.0009604131
 20
-30.359576408
 10
17.9639285401
 20
-30.3685082236
 10
17.926524059
 20
-30.376850095
 10
17.8889567523
 20
-30.3846064193
 10
17.851446931
 20
-30.3916961745
 10
17.8134341442
 20
-30.3980884947
 10
17.7748307481
 20
-30.403716641
 10
17.7356059698
 20
-30.4086302349
 10
17.6951628827
 20
-30.4129312046
 10
17.6534068197
 20
-30.4165984434
 10
17.610230058
 20
-30.4195627238
 10
17.5650388244
 20
-30.4217844598
 10
17.5175964925
 20
-30.4231691572
 10
17.4681295819
 20
-30.4236017179
 10
17.4167827102
 20
-30.4229810195
 10
17.3632877302
 20
-30.4211805613
 10
17.3078967153
 20
-30.4181226637
 10
17.2515384735
 20
-30.4138449146
 10
17.1943166155
 20
-30.408250413
 10
17.136123258
 20
-30.4013535654
 10
17.0774318258
 20
-30.3934372284
 10
17.0182693827
 20
-30.3846202809
 10
16.9578660762
 20
-30.3746532639
 10
16.8955547268
 20
-30.3632685915
 10
16.8321430634
 20
-30.3505827012
 10
16.767762565
 20
-30.3365471454
 10
16.7010282867
 20
-30.3205704079
 10
16.6312832508
 20
-30.3022705264
 10
16.5589257276
 20
-30.2816485019
 10
16.4838432583
 20
-30.2585047884
  0
LWPOLYLINE
  5
3E9
100
AcDbEntity
  8
RACCORDO
100
AcDbPolyline
 62
250
  6
CONTINUOUS
 90
3
 70
0
 10
16.3689758039
 20
-27.6563875704
 10
16.4245659348
 20
-27.5910345266
 10
16.4811969325
 20
-27.5342997487
  0
LINE
  5
3EA
100
AcDbEntity
  8
0
100
AcDbLine
 62
7
  6
CONTINUOUS
 10
33.7142616916
 20
-8.0896471854
 11
34.8704488223
 21
-6.9895857426
  0
LINE
  5
3EB
100
AcDbEntity
  8
0
100
AcDbLine
 62
7
  6
CONTINUOUS
 10
9.9070879065
 20
-28.3701899736
 11
10.0147474195
 21
-28.2714345772
  0
LINE
  5
3EC
100
AcDbEntity
  8
0
100
AcDbLine
 62
7
  6
CONTINUOUS
 10
10.3959763514
 20
-28.5323242068
 11
10.5036363562
 21
-28.4335683592
  0
LINE
  5
3ED
100
AcDbEntity
  8
0
100
AcDbLine
 62
7
  6
CONTINUOUS
 10
10.7219144159
 20
-28.6403938678
 11
10.8295750409
 21
-28.5416374514
  0
LINE
  5
3EE
100
AcDbEntity
  8
0
100
AcDbLine
 62
7
  6
CONTINUOUS
 10
11.2108608453
 20
-28.8024675434
 11
11.3185229336
 21
-28.7037097847
  0
LINE
  5
3EF
100
AcDbEntity
  8
0
100
AcDbLine
 62
7
  6
CONTINUOUS
 10
9.8669543513
 20
-30.5208271722
 11
9.9752315766
 21
-30.4215051523
  0
LINE
  5
3F0
100
AcDbEntity
  8
0
100
AcDbLine
 62
7
  6
CONTINUOUS
 10
11.69983856
 20
-28.964489362
 11
11.8075028677
 21
-28.8657295675
  0
LINE
  5
3F1
100
AcDbEntity
  8
0
100
AcDbLine
 62
7
  6
CONTINUOUS
 10
12.4391839046
 20
-29.2093267445
 11
12.5468533176
 21
-29.110562267
  0
LINE
  5
3F2
100
AcDbEntity
  8
0
100
AcDbLine
 62
7
  6
CONTINUOUS
 10
11.4671169672
 20
-31.0508306941
 11
11.5753933784
 21
-30.9515094208
  0
LINE
  5
3F3
100
AcDbEntity
  8
0
100
AcDbLine
 62
7
  6
CONTINUOUS
 10
13.3527156135
 20
-29.5115511301
 11
13.4603950114
 21
-29.4127774934
  0
LWPOLYLINE
  5
3F4
100
AcDbEntity
  8
RACCORDO
100
AcDbPolyline
 62
250
  6
CONTINUOUS
 90
13
 70
0
 10
32.3536465109
 20
-12.1940347438
 10
32.2928652969
 20
-12.239331696
 10
32.224839002
 20
-12.2812580711
 10
32.150222306
 20
-12.3194103731
 10
32.069733314
 20
-12.3534214273
 10
31.9841466456
 20
-12.3829639139
 10
31.8942859801
 20
-12.4077535184
 10
31.8010161295
 20
-12.4275516677
 10
31.7052347152
 20
-12.4421678259
 10
31.60786353
 20
-12.4514613283
 10
31.5098396664
 20
-12.455342735
 10
31.4121064984
 20
-12.4537746917
 10
31.315604602
 20
-12.4467722889
  0
LINE
  5
3F5
100
AcDbEntity
  8
0
100
AcDbLine
 62
7
  6
CONTINUOUS
 10
35.1281712847
 20
-13.0470726435
 11
33.9597131701
 21
-13.8587179216
  0
LINE
  5
3F6
100
AcDbEntity
  8
RACCORDO
100
AcDbLine
 62
250
  6
CONTINUOUS
 10
-33.8396424383
 20
40.8506687835
 11
-33.6853173522
 21
40.804809024
  0
LWPOLYLINE
  5
3F7
100
AcDbEntity
  8
RACCORDO
100
AcDbPolyline
 62
250
  6
CONTINUOUS
 90
3
 70
0
 10
-33.6853173522
 20
40.804809024
 10
-33.6538840113
 20
40.7951987634
 10
-33.6222336963
 20
40.7851416691
  0
LINE
  5
3F8
100
AcDbEntity
  8
RACCORDO
100
AcDbLine
 62
250
  6
CONTINUOUS
 10
28.5606843835
 20
21.4757566514
 11
28.7137122384
 21
21.4292435225
  0
LINE
  5
3F9
100
AcDbEntity
  8
RACCORDO
100
AcDbLine
 62
250
  6
CONTINUOUS
 10
-33.9027969468
 20
40.870047179
 11
-33.8396424383
 21
40.8506687835
  0
LINE
  5
3FA
100
AcDbEntity
  8
RACCORDO
100
AcDbLine
 62
250
  6
CONTINUOUS
 10
28.4285262477
 20
21.5166595339
 11
28.5606843835
 21
21.4757566514
  0
LINE
  5
3FB
100
AcDbEntity
  8
RACCORDO
100
AcDbLine
 62
250
  6
CONTINUOUS
 10
-34.0059531931
 20
40.9023486254
 11
-33.9027969468
 21
40.870047179
  0
LINE
  5
3FC
100
AcDbEntity
  8
RACCORDO
100
AcDbLine
 62
250
  6
CONTINUOUS
 10
28.3095507382
 20
21.554138999
 11
28.4285262477
 21
21.5166595339
  0
LINE
  5
3FD
100
AcDbEntity
  8
RACCORDO
100
AcDbLine
 62
250
  6
CONTINUOUS
 10
-34.0812681422
 20
40.9263772561
 11
-34.0059531931
 21
40.9023486254
  0
LINE
  5
3FE
100
AcDbEntity
  8
RACCORDO
100
AcDbLine
 62
250
  6
CONTINUOUS
 10
27.949998269
 20
21.6697946955
 11
28.3095507382
 21
21.554138999
  0
LWPOLYLINE
  5
3FF
100
AcDbEntity
  8
RACCORDO
100
AcDbPolyline
 62
250
  6
CONTINUOUS
 90
37
 70
0
 10
28.7137122384
 20
21.4292435225
 10
28.7683656716
 20
21.4115727874
 10
28.8245589769
 20
21.3921006257
 10
28.8822616749
 20
21.3707331083
 10
28.9413215005
 20
21.3474268713
 10
29.0018137967
 20
21.3220429861
 10
29.064039148
 20
21.2943191196
 10
29.1279430524
 20
21.2641368872
 10
29.1934574054
 20
21.2313787052
 10
29.2608434782
 20
21.1957330536
 10
29.3300118782
 20
21.1570596116
 10
29.4008586991
 20
21.1152191388
 10
29.4735929844
 20
21.0698518447
 10
29.5480755487
 20
21.020800704
 10
29.6241482303
 20
20.9679113069
 10
29.7019460205
 20
20.910780798
 10
29.7812614385
 20
20.8492443276
 10
29.8618573501
 20
20.7831472198
 10
29.9437597314
 20
20.712062761
 10
30.0266654776
 20
20.6358399433
 10
30.1102336366
 20
20.5543456839
 10
30.1943463962
 20
20.4671561855
 10
30.2785095983
 20
20.3742442443
 10
30.3623203194
 20
20.2754611985
 10
30.4456620928
 20
20.1701832946
 10
30.5278378121
 20
20.0585169773
 10
30.6082773198
 20
19.9403560443
 10
30.6868083473
 20
19.8147426793
 10
30.7625478784
 20
19.6817993249
 10
30.8345134479
 20
19.5417178245
 10
30.9020169614
 20
19.3936950183
 10
30.9638898914
 20
19.2379769632
 10
31.018674815
 20
19.0752828375
 10
31.0649019743
 20
18.9057136341
 10
31.1009785127
 20
18.7299828013
 10
31.1253019709
 20
18.549427782
 10
31.1362332815
 20
18.3653966219
  0
LINE
  5
400
100
AcDbEntity
  8
RACCORDO
100
AcDbLine
 62
250
  6
CONTINUOUS
 10
-34.1617508158
 20
40.9524429896
 11
-34.0812681422
 21
40.9263772561
  0
LINE
  5
401
100
AcDbEntity
  8
RACCORDO
100
AcDbLine
 62
250
  6
CONTINUOUS
 10
-30.2195654364
 20
39.6751818497
 11
-28.0731810752
 21
38.9805101096
  0
LINE
  5
402
100
AcDbEntity
  8
RACCORDO
100
AcDbLine
 62
250
  6
CONTINUOUS
 10
-28.0731810752
 20
38.9805101096
 11
-21.2170982089
 21
36.7434015382
  0
LINE
  5
403
100
AcDbEntity
  8
RACCORDO
100
AcDbLine
 62
250
  6
CONTINUOUS
 10
-33.6222336963
 20
40.7851416691
 11
-30.2195654364
 21
39.6751818497
  0
LINE
  5
404
100
AcDbEntity
  8
RACCORDO
100
AcDbLine
 62
250
  6
CONTINUOUS
 10
15.7942467411
 20
25.6013192578
 11
27.949998269
 21
21.6697946955
  0
LINE
  5
405
100
AcDbEntity
  8
RACCORDO
100
AcDbLine
 62
250
  6
CONTINUOUS
 10
-21.2170982089
 20
36.7434015382
 11
-18.2378640217
 21
35.7590399563
  0
LINE
  5
406
100
AcDbEntity
  8
RACCORDO
100
AcDbLine
 62
250
  6
CONTINUOUS
 10
-18.2378640217
 20
35.7590399563
 11
6.8950191403
 21
27.4195474691
  0
LWPOLYLINE
  5
407
100
AcDbEntity
  8
RACCORDO
100
AcDbPolyline
 62
250
  6
CONTINUOUS
 90
3
 70
0
 10
-12.4575184093
 20
34.9747830572
 10
10.4243513618
 20
27.3830212181
 10
15.7942467411
 20
25.6013192578
  0
LINE
  5
408
100
AcDbEntity
  8
RACCORDO
100
AcDbLine
 62
250
  6
CONTINUOUS
 10
6.8950191402
 20
27.4195474691
 11
14.428154403
 21
24.9233942317
  0
LINE
  5
409
100
AcDbEntity
  8
RACCORDO
100
AcDbLine
 62
250
  6
CONTINUOUS
 10
14.428154403
 20
24.9233942317
 11
16.9820835765
 21
24.0680574522
  0
LINE
  5
40A
100
AcDbEntity
  8
RACCORDO
100
AcDbLine
 62
250
  6
CONTINUOUS
 10
-22.9033145175
 20
38.4426635206
 11
-12.4575184093
 21
34.9747830572
  0
LINE
  5
40B
100
AcDbEntity
  8
RACCORDO
100
AcDbLine
 62
250
  6
CONTINUOUS
 10
24.0358120977
 20
21.6826327322
 11
27.6933299417
 21
20.449873988
  0
LWPOLYLINE
  5
40C
100
AcDbEntity
  8
RACCORDO
100
AcDbPolyline
 62
250
  6
CONTINUOUS
 90
4
 70
0
 10
27.6933299417
 20
20.449873988
 10
27.7251038393
 20
20.4391159813
 10
27.7566398438
 20
20.4281825738
 10
27.7879990189
 20
20.4169213243
  0
LINE
  5
40D
100
AcDbEntity
  8
RACCORDO
100
AcDbLine
 62
250
  6
CONTINUOUS
 10
-26.2749297451
 20
39.5851128842
 11
-22.9033145175
 21
38.4426635206
  0
LINE
  5
40E
100
AcDbEntity
  8
RACCORDO
100
AcDbLine
 62
250
  6
CONTINUOUS
 10
16.9820835765
 20
24.0680574522
 11
24.0358120977
 21
21.6826327322
  0
LINE
  5
40F
100
AcDbEntity
  8
RACCORDO
100
AcDbLine
 62
250
  6
CONTINUOUS
 10
28.1499409935
 20
20.2877130667
 11
28.2709531396
 21
20.2465492677
  0
LINE
  5
410
100
AcDbEntity
  8
RACCORDO
100
AcDbLine
 62
250
  6
CONTINUOUS
 10
-29.6056269024
 20
40.7222943354
 11
-26.2749297451
 21
39.5851128842
  0
LINE
  5
411
100
AcDbEntity
  8
RACCORDO
100
AcDbLine
 62
250
  6
CONTINUOUS
 10
-33.2908893577
 20
41.9843521789
 11
-29.6056269024
 21
40.7222943354
  0
LWPOLYLINE
  5
412
100
AcDbEntity
  8
RACCORDO
100
AcDbPolyline
 62
250
  6
CONTINUOUS
 90
37
 70
0
 10
28.2709531388
 20
20.2465492671
 10
28.3074202856
 20
20.2338757467
 10
28.3449044507
 20
20.2200118242
 10
28.3833841488
 20
20.204896682
 10
28.4227553138
 20
20.1885031189
 10
28.4630693832
 20
20.1707397458
 10
28.5045308902
 20
20.1514326098
 10
28.5471019038
 20
20.1305033384
 10
28.5907370154
 20
20.1078754764
 10
28.6356161365
 20
20.083344432
 10
28.6816789497
 20
20.0568171691
 10
28.7288569199
 20
20.0282027165
 10
28.7772970205
 20
19.9972661946
 10
28.8269074157
 20
19.9639022143
 10
28.8775833165
 20
19.928010943
 10
28.9294208778
 20
19.889335251
 10
28.9822795381
 20
19.8477673914
 10
29.0360047584
 20
19.8032053655
 10
29.0906306209
 20
19.7553720689
 10
29.1459611798
 20
19.7041586671
 10
29.2017759709
 20
19.6494739563
 10
29.2580140627
 20
19.5910507018
 10
29.3143474792
 20
19.5288634732
 10
29.3705178165
 20
19.4628074112
 10
29.4264815304
 20
19.3924789912
 10
29.481782046
 20
19.3179232774
 10
29.5360553299
 20
19.2390561457
 10
29.5892341743
 20
19.1552637782
 10
29.6407290193
 20
19.0665863868
 10
29.6899034311
 20
18.9731303894
 10
29.7363814133
 20
18.8744021992
 10
29.7793796213
 20
18.770490966
 10
29.8179380241
 20
18.6618303919
 10
29.8511822853
 20
18.5485408252
 10
29.8780576727
 20
18.4310311378
 10
29.8974029414
 20
18.3100751776
 10
29.908040769
 20
18.1865986989
  0
LINE
  5
413
100
AcDbEntity
  8
RACCORDO
100
AcDbLine
 62
250
  6
CONTINUOUS
 10
28.0408203613
 20
20.3255979429
 11
28.1499409935
 21
20.2877130667
  0
LINE
  5
414
100
AcDbEntity
  8
RACCORDO
100
AcDbLine
 62
250
  6
CONTINUOUS
 10
-33.4093864451
 20
42.0258210107
 11
-33.2908893577
 21
41.9843521789
  0
LWPOLYLINE
  5
415
100
AcDbEntity
  8
RACCORDO
100
AcDbPolyline
 62
250
  6
CONTINUOUS
 90
3
 70
0
 10
27.943020558
 20
20.3602229615
 10
27.9748372466
 20
20.3488592959
 10
28.0408203613
 20
20.3255979429
  0
LINE
  5
416
100
AcDbEntity
  8
RACCORDO
100
AcDbLine
 62
250
  6
CONTINUOUS
 10
-33.5437282466
 20
42.0736325675
 11
-33.4093864451
 21
42.0258210107
  0
LINE
  5
417
100
AcDbEntity
  8
RACCORDO
100
AcDbLine
 62
250
  6
CONTINUOUS
 10
-33.6579474254
 20
42.1148918279
 11
-33.5437282466
 21
42.0736325675
  0
LINE
  5
418
100
AcDbEntity
  8
RACCORDO
100
AcDbLine
 62
250
  6
CONTINUOUS
 10
27.7879990189
 20
20.4169213243
 11
27.943020558
 21
20.3602229615
  0
LWPOLYLINE
  5
419
100
AcDbEntity
  8
RACCORDO
100
AcDbPolyline
 62
250
  6
CONTINUOUS
 90
14
 70
0
 10
29.9321491042
 20
17.7792206168
 10
29.9353834413
 20
17.7366845882
 10
29.938832666
 20
17.694067572
 10
29.9424912446
 20
17.6514669086
 10
29.9463724543
 20
17.6087649866
 10
29.9505583956
 20
17.5656271551
 10
29.9552784802
 20
17.5220115348
 10
29.9603275846
 20
17.4780049258
 10
29.9651364593
 20
17.4334980451
 10
29.9695969902
 20
17.3886851419
 10
29.9737616078
 20
17.3437782471
 10
29.9772791013
 20
17.2987658639
 10
29.9797514029
 20
17.253645997
 10
29.9835311475
 20
17.160796284
  0
LINE
  5
41A
100
AcDbEntity
  8
RACCORDO
100
AcDbLine
 62
250
  6
CONTINUOUS
 10
33.6765793042
 20
-41.8204131743
 11
33.6849143599
 21
-41.9750517799
  0
LINE
  5
41B
100
AcDbEntity
  8
RACCORDO
100
AcDbLine
 62
250
  6
CONTINUOUS
 10
33.4428317224
 20
-37.1913022743
 11
33.6765793042
 21
-41.8204131743
  0
LINE
  5
41C
100
AcDbEntity
  8
RACCORDO
100
AcDbLine
 62
250
  6
CONTINUOUS
 10
32.7619970085
 20
-21.7401914509
 11
33.4428317224
 21
-37.1913022743
  0
LINE
  5
41D
100
AcDbEntity
  8
0
100
AcDbLine
 62
7
  6
CONTINUOUS
 10
33.9597131701
 20
-13.8587179216
 11
33.7142616916
 21
-8.0896471854
  0
LINE
  5
41E
100
AcDbEntity
  8
0
100
AcDbLine
 62
7
  6
CONTINUOUS
 10
33.7019236669
 20
20.4753304122
 11
34.8704488223
 21
-6.9895857426
  0
LINE
  5
41F
100
AcDbEntity
  8
0
100
AcDbLine
 62
7
  6
CONTINUOUS
 10
35.1281712847
 20
-13.0470726435
 11
36.29669644
 21
-40.5119887983
  0
LINE
  5
420
100
AcDbEntity
  8
RACCORDO
100
AcDbLine
 62
250
  6
CONTINUOUS
 10
31.2796337588
 20
13.7763711306
 11
32.7619970085
 21
-21.7401914509
  0
LINE
  5
421
100
AcDbEntity
  8
RACCORDO
100
AcDbLine
 62
250
  6
CONTINUOUS
 10
31.1475415812
 20
17.6509303872
 11
31.2796337588
 21
13.7763711306
  0
LWPOLYLINE
  5
422
100
AcDbEntity
  8
RACCORDO
100
AcDbPolyline
 62
250
  6
CONTINUOUS
 90
13
 70
0
 10
32.5016600593
 20
-42.0229036541
 10
32.502834285
 20
-42.0631033475
 10
32.502950838
 20
-42.1030190404
 10
32.5024154488
 20
-42.142776992
 10
32.5016187351
 20
-42.1825255229
 10
32.5005248424
 20
-42.2220050915
 10
32.4991825664
 20
-42.2610233574
 10
32.4980980894
 20
-42.2999312312
 10
32.4974426554
 20
-42.3387503715
 10
32.4970269418
 20
-42.3774677705
 10
32.4968189072
 20
-42.4164116641
 10
32.4968206901
 20
-42.4556964578
 10
32.4973994542
 20
-42.535013113
  0
LINE
  5
423
100
AcDbEntity
  8
RACCORDO
100
AcDbLine
 62
250
  6
CONTINUOUS
 10
32.5004028391
 20
-42.6960183889
 11
32.5026200015
 21
-42.7747991637
  0
LINE
  5
424
100
AcDbEntity
  8
RACCORDO
100
AcDbLine
 62
250
  6
CONTINUOUS
 10
31.1442316816
 20
17.7739137156
 11
31.1475415812
 21
17.6509303872
  0
LWPOLYLINE
  5
425
100
AcDbEntity
  8
RACCORDO
100
AcDbPolyline
 62
250
  6
CONTINUOUS
 90
13
 70
0
 10
33.7310060546
 20
-42.6219225887
 10
33.7352654499
 20
-42.794933178
 10
33.7254965513
 20
-42.956467681
 10
33.7032689945
 20
-43.1062422232
 10
33.6701217177
 20
-43.2441010729
 10
33.6276255514
 20
-43.3702401613
 10
33.5772654785
 20
-43.4851188527
 10
33.5204760493
 20
-43.5889190164
 10
33.4584405216
 20
-43.6822326474
 10
33.3919254321
 20
-43.7660999868
 10
33.321923311
 20
-43.8409493099
 10
33.2493333826
 20
-43.907284148
 10
33.2185363751
 20
-43.9325288593
  0
LINE
  5
426
100
AcDbEntity
  8
RACCORDO
100
AcDbLine
 62
250
  6
CONTINUOUS
 10
32.4986303674
 20
-42.6157136866
 11
32.5004028391
 21
-42.6960183889
  0
LINE
  5
427
100
AcDbEntity
  8
RACCORDO
100
AcDbLine
 62
250
  6
CONTINUOUS
 10
31.1416705666
 20
17.8946347054
 11
31.1442316816
 21
17.7739137156
  0
LINE
  5
428
100
AcDbEntity
  8
RACCORDO
100
AcDbLine
 62
250
  6
CONTINUOUS
 10
31.1390759581
 20
18.0562286484
 11
31.1416705666
 21
17.8946347054
  0
LINE
  5
429
100
AcDbEntity
  8
RACCORDO
100
AcDbLine
 62
250
  6
CONTINUOUS
 10
32.4973994542
 20
-42.535013113
 11
32.4986303674
 21
-42.6157136866
  0
LINE
  5
42A
100
AcDbEntity
  8
RACCORDO
100
AcDbLine
 62
250
  6
CONTINUOUS
 10
31.1369662019
 20
18.2548723589
 11
31.1390759581
 21
18.0562286484
  0
LINE
  5
42B
100
AcDbEntity
  8
RACCORDO
100
AcDbLine
 62
250
  6
CONTINUOUS
 10
31.1362332815
 20
18.3653966219
 11
31.1369662019
 21
18.2548723589
  0
LWPOLYLINE
  5
42C
100
AcDbEntity
  8
RACCORDO
100
AcDbPolyline
 62
250
  6
CONTINUOUS
 90
37
 70
0
 10
32.5064308874
 20
-42.8857421773
 10
32.5057845432
 20
-42.997104255
 10
32.4960245352
 20
-43.1014310386
 10
32.4782719534
 20
-43.1983369801
 10
32.4536467487
 20
-43.2876267105
 10
32.4231919604
 20
-43.3694317117
 10
32.3877905949
 20
-43.4440750468
 10
32.348388539
 20
-43.5116579142
 10
32.3057801797
 20
-43.5725290958
 10
32.2603912758
 20
-43.6273649034
 10
32.2128649679
 20
-43.6764293771
 10
32.1638022135
 20
-43.7200304704
 10
32.1133230796
 20
-43.7587966446
 10
32.0618079296
 20
-43.7930275332
 10
32.0097213834
 20
-43.8229572767
 10
31.9571419679
 20
-43.8490046026
 10
31.9043436912
 20
-43.8714313969
 10
31.8516653467
 20
-43.8904664439
 10
31.7991920109
 20
-43.9064099969
 10
31.7471577057
 20
-43.9194894932
 10
31.6957727922
 20
-43.9299348957
 10
31.6450257048
 20
-43.9379983235
 10
31.5950837302
 20
-43.9438773915
 10
31.546100298
 20
-43.9477667849
 10
31.4979984628
 20
-43.9498608666
 10
31.4508942646
 20
-43.9503242539
 10
31.4048909174
 20
-43.9493189817
 10
31.3598574506
 20
-43.9469863163
 10
31.3158719145
 20
-43.9434589094
 10
31.2730040806
 20
-43.9388658952
 10
31.2310866015
 20
-43.9332979696
 10
31.1901725315
 20
-43.9268584264
 10
31.150307396
 20
-43.9196475056
 10
31.1112960014
 20
-43.9117108613
 10
31.0730932967
 20
-43.9031070534
 10
31.0358083562
 20
-43.893926218
 10
30.999468339
 20
-43.8842406066
  0
LINE
  5
42D
100
AcDbEntity
  8
0
100
AcDbLine
 62
250
  6
CONTINUOUS
 10
16.5574942526
 20
-27.4642180213
 11
16.4811233349
 21
-27.5342725854
  0
LINE
  5
42E
100
AcDbEntity
  8
0
100
AcDbLine
 62
7
  6
CONTINUOUS
 10
14.0924929638
 20
-29.7559922364
 11
14.2001843026
 21
-29.6572076465
  0
LINE
  5
42F
100
AcDbEntity
  8
0
100
AcDbLine
 62
7
  6
CONTINUOUS
 10
12.4464962934
 20
-31.3735987276
 11
12.5547828957
 21
-31.2742681062
  0
LINE
  5
430
100
AcDbEntity
  8
0
100
AcDbLine
 62
7
  6
CONTINUOUS
 10
13.4004483874
 20
-31.6863708431
 11
13.5087551153
 21
-31.5870217606
  0
LINE
  5
431
100
AcDbEntity
  8
0
100
AcDbLine
 62
7
  6
CONTINUOUS
 10
15.2048472113
 20
-30.1228647834
 11
15.3125653941
 21
-30.0240555696
  0
LINE
  5
432
100
AcDbEntity
  8
0
100
AcDbLine
 62
7
  6
CONTINUOUS
 10
15.6948089313
 20
-30.2840366145
 11
15.8025439764
 21
-30.185211933
  0
LINE
  5
433
100
AcDbEntity
  8
0
100
AcDbLine
 62
7
  6
CONTINUOUS
 10
14.3559974643
 20
-31.9977138636
 11
14.4643365042
 21
-31.8983351415
  0
LINE
  5
434
100
AcDbEntity
  8
0
100
AcDbLine
 62
7
  6
CONTINUOUS
 10
15.3671845697
 20
-31.5065566103
 11
15.4752978405
 21
-31.4073849847
  0
LINE
  5
435
100
AcDbEntity
  8
0
100
AcDbLine
 62
7
  6
CONTINUOUS
 10
16.8097459028
 20
-30.6485607767
 11
16.9175471215
 21
-30.5496753947
  0
LINE
  5
436
100
AcDbEntity
  8
0
100
AcDbLine
 62
7
  6
CONTINUOUS
 10
15.1761453
 20
-32.2630233721
 11
15.2845236804
 21
-32.1636085631
  0
LINE
  5
437
100
AcDbEntity
  8
0
100
AcDbLine
 62
7
  6
CONTINUOUS
 10
17.9700784117
 20
-31.0139692626
 11
18.0779426766
 21
-30.9150260486
  0
LWPOLYLINE
  5
438
100
AcDbEntity
  8
0
100
AcDbPolyline
 62
7
  6
CONTINUOUS
 90
18
 70
0
 10
-31.3035102848
 20
44.4720449684
 10
-31.4511708389
 20
44.516777088
 10
-31.5969992796
 20
44.5527972328
 10
-31.7409956068
 20
44.5801054028
 10
-31.8836335895
 20
44.5987349675
 10
-32.0244394587
 20
44.6086525574
 10
-32.1619919077
 20
44.6097580634
 10
-32.2962579856
 20
44.6019622353
 10
-32.4272706434
 20
44.5853543233
 10
-32.553707428
 20
44.5601019692
 10
-32.6755219942
 20
44.5261176205
 10
-32.7927606872
 20
44.4834888297
 10
-32.9042400896
 20
44.4326458954
 10
-33.0099018703
 20
44.3735056234
 10
-33.1098043603
 20
44.306151208
 10
-33.2029391352
 20
44.2312625304
 10
-33.2892376505
 20
44.1487632823
 10
-33.2984313661
 20
44.1391888174
  0
LINE
  5
439
100
AcDbEntity
  8
0
100
AcDbLine
 62
7
  6
CONTINUOUS
 10
-31.3035102848
 20
44.4720449684
 11
31.0681493789
 21
23.7863966629
  0
LWPOLYLINE
  5
43A
100
AcDbEntity
  8
0
100
AcDbPolyline
 62
7
  6
CONTINUOUS
 90
28
 70
0
 10
31.0681493789
 20
23.7863966629
 10
31.2161758628
 20
23.7330637622
 10
31.3630697205
 20
23.6720021467
 10
31.508830952
 20
23.6032118163
 10
31.6539440076
 20
23.5264083461
 10
31.797924437
 20
23.4418761611
 10
31.9393188894
 20
23.3504685365
 10
32.0781011734
 20
23.2521158366
 10
32.2142974804
 20
23.1468876971
 10
32.346533033
 20
23.0358463
 10
32.474767716
 20
22.9189327675
 10
32.5990416447
 20
22.7962059774
 10
32.7181003872
 20
22.6689047443
 10
32.8318911233
 20
22.5369827378
 10
32.9404666732
 20
22.4004862883
 10
33.0427310659
 20
22.260793203
 10
33.1386203811
 20
22.1178711057
 10
33.2281985391
 20
21.9717523726
 10
33.3105613302
 20
21.8239119386
 10
33.3856356762
 20
21.6743323663
 10
33.4534946553
 20
21.5230310932
 10
33.5134532931
 20
21.3715353674
 10
33.5654315738
 20
21.2198432196
 10
33.6095095133
 20
21.0679566191
 10
33.645242185
 20
20.9174087225
 10
33.67248128
 20
20.7687105819
 10
33.6913751074
 20
20.6213511451
 10
33.7019236669
 20
20.4753304122
  0
LWPOLYLINE
  5
43B
100
AcDbEntity
  8
0
100
AcDbPolyline
 62
7
  6
CONTINUOUS
 90
28
 70
0
 10
18.8097903183
 20
-32.2122003453
 10
18.8329377377
 20
-32.1889191533
 10
18.8596777544
 20
-32.155575343
 10
18.8820727869
 20
-32.1196383216
 10
18.8999854782
 20
-32.0819733522
 10
18.9137836787
 20
-32.042537579
 10
18.9239380292
 20
-32.0001116597
 10
18.9302161803
 20
-31.9546684532
 10
18.9323183543
 20
-31.9065019757
 10
18.9299371229
 20
-31.8545144672
 10
18.9223788631
 20
-31.798068563
 10
18.9091148902
 20
-31.7381073449
 10
18.8900701383
 20
-31.6759559745
 10
18.8650572134
 20
-31.6121283869
 10
18.8339366154
 20
-31.5470805625
 10
18.7973000781
 20
-31.482198252
 10
18.7555406178
 20
-31.4183152672
 10
18.7087646287
 20
-31.3557291649
 10
18.6574688795
 20
-31.2950076087
 10
18.6020910545
 20
-31.2367502984
 10
18.5429668388
 20
-31.1814200274
 10
18.4805039982
 20
-31.1293616183
 10
18.4146418418
 20
-31.0806879956
 10
18.3463508218
 20
-31.0363378424
 10
18.2777655797
 20
-30.9975454862
 10
18.2100603276
 20
-30.9645769118
 10
18.1432815325
 20
-30.9371013468
 10
18.0779425237
 20
-30.9150245729
  0
LWPOLYLINE
  5
43C
100
AcDbEntity
  8
0
100
AcDbPolyline
 62
7
  6
CONTINUOUS
 90
19
 70
0
 10
18.2371565717
 20
-31.9246660553
 10
18.2452093468
 20
-31.9166625941
 10
18.2633212366
 20
-31.8923706953
 10
18.2762936928
 20
-31.8641225785
 10
18.2838235012
 20
-31.8324163553
 10
18.2856894257
 20
-31.7979036616
 10
18.2819520942
 20
-31.7612271441
 10
18.2725951513
 20
-31.7229440321
 10
18.2577666349
 20
-31.6839881252
 10
18.2382303094
 20
-31.645642994
 10
18.2147630913
 20
-31.6088944161
 10
18.1878147425
 20
-31.5740757799
 10
18.1579114521
 20
-31.5414120414
 10
18.1256234653
 20
-31.5113581152
 10
18.0915214248
 20
-31.4843272239
 10
18.0560415964
 20
-31.4604454167
 10
18.0196774044
 20
-31.4399553577
 10
17.9830112129
 20
-31.4231588226
 10
17.946570046
 20
-31.4102197651
  0
LINE
  5
43D
100
AcDbEntity
  8
0
100
AcDbLine
 62
7
  6
CONTINUOUS
 10
17.4084402249
 20
-31.7653146414
 11
17.5165979594
 21
-31.6661022296
  0
LINE
  5
43E
100
AcDbEntity
  8
0
100
AcDbLine
 62
7
  6
CONTINUOUS
 10
16.7616044998
 20
-32.7691086273
 11
16.8700946245
 21
-32.669591316
  0
LINE
  5
43F
100
AcDbEntity
  8
0
100
AcDbLine
 62
7
  6
CONTINUOUS
 10
18.0139685636
 20
-31.9527226974
 11
18.1222111961
 21
-31.8534324092
  0
LINE
  5
440
100
AcDbEntity
  8
0
100
AcDbLine
 62
7
  6
CONTINUOUS
 10
17.5897480242
 20
-33.0270900568
 11
17.6983177255
 21
-32.9274997503
  0
LINE
  5
441
100
AcDbEntity
  8
ASSI
100
AcDbLine
 62
7
  6
CONTINUOUS
 10
18.8097808894
 20
-32.2122089944
 11
18.7014126163
 21
-32.3116145319
  0
LINE
  5
442
100
AcDbEntity
  8
0
100
AcDbLine
 62
7
  6
CONTINUOUS
 10
19.0978106065
 20
-33.4763228421
 11
19.2065821069
 21
-33.3765474267
  0
LWPOLYLINE
  5
443
100
AcDbEntity
  8
0
100
AcDbPolyline
 62
7
  6
CONTINUOUS
 90
6
 70
0
 10
18.701392177
 20
-32.3116332807
 10
18.6743315717
 20
-32.334131627
 10
18.6222506588
 20
-32.3670879377
 10
18.5636318083
 20
-32.3925159082
 10
18.4991292597
 20
-32.4100685075
 10
18.429475663
 20
-32.4194920111
  0
LWPOLYLINE
  5
444
100
AcDbEntity
  8
0
100
AcDbPolyline
 62
7
  6
CONTINUOUS
 90
14
 70
0
 10
35.7188715654
 20
-41.9499836755
 10
35.772737984
 20
-41.9050578835
 10
35.8590364994
 20
-41.8225586355
 10
35.9385672997
 20
-41.7325251252
 10
36.0105275941
 20
-41.6358661589
 10
36.0748407074
 20
-41.5325146326
 10
36.1315833149
 20
-41.4225376503
 10
36.1801826518
 20
-41.3070453289
 10
36.2205562417
 20
-41.1859818083
 10
36.252786561
 20
-41.0594029488
 10
36.276548274
 20
-40.9285864482
 10
36.2917329356
 20
-40.7939582059
 10
36.2984489909
 20
-40.6550923226
 10
36.29669644
 20
-40.5119887983
  0
LINE
  5
445
100
AcDbEntity
  8
RACCORDO
100
AcDbLine
 62
250
  6
CONTINUOUS
 10
33.7310060546
 20
-42.6219225887
 11
36.29669644
 21
-40.5119887983
  0
LWPOLYLINE
  5
446
100
AcDbEntity
  8
RACCORDO
100
AcDbPolyline
 62
250
  6
CONTINUOUS
 90
13
 70
0
 10
33.7309874887
 20
-42.6219156266
 10
33.6594436596
 20
-42.6794738654
 10
33.5781279272
 20
-42.7322585972
 10
33.4881111173
 20
-42.7795747135
 10
33.3905786378
 20
-42.8207991209
 10
33.2868148688
 20
-42.8553889456
 10
33.1781862483
 20
-42.882888683
 10
33.0661232785
 20
-42.9029361963
 10
32.9521016876
 20
-42.9152674851
 10
32.8376229964
 20
-42.9197201622
 10
32.7241947449
 20
-42.9162355915
 10
32.6133106406
 20
-42.9048596609
 10
32.5064308874
 20
-42.8857421773
  0
LINE
  5
447
100
AcDbEntity
  8
RACCORDO
100
AcDbLine
 62
7
  6
CONTINUOUS
 10
33.2185363751
 20
-43.9325288593
 11
33.2177097298
 21
-43.9331848659
  0
LINE
  5
448
100
AcDbEntity
  8
SUPERFICI
100
AcDbLine
 62
7
  6
CONTINUOUS
 10
35.7190085749
 20
-41.9498750528
 11
33.217714034
 21
-43.933181453
  0
ARC
  5
449
100
AcDbEntity
  8
RACCORDO
100
AcDbCircle
 62
7
  6
CONTINUOUS
 10
13.5858095816
 20
-24.4851578296
 40
0.3
100
AcDbArc
 50
315.7921666117
 51
2.436242848
  0
ARC
  5
44A
100
AcDbEntity
  8
RACCORDO
100
AcDbCircle
 62
7
  6
CONTINUOUS
 10
-5.3785463973
 20
-18.1956026016
 40
0.3
100
AcDbArc
 50
315.7921666117
 51
2.436242848
  0
ELLIPSE
  5
44B
100
AcDbEntity
  8
RACCORDO
100
AcDbEllipse
 62
7
  6
CONTINUOUS
 10
-10.1112873307
 20
-16.0572157999
 30
0.0
 11
0.1055971128
 21
0.2809874256
 31
0.0
 40
0.4951481431
 41
0.6571255069
 42
0.7094853845
  0
ELLIPSE
  5
44C
100
AcDbEntity
  8
RACCORDO
100
AcDbEllipse
 62
7
  6
CONTINUOUS
 10
8.8530686482
 20
-22.3467710279
 30
0.0
 11
0.1055971128
 21
0.2809874256
 31
0.0
 40
0.4951481431
 41
0.6571255069
 42
0.7094853845
  0
ELLIPSE
  5
44D
100
AcDbEntity
  8
RACCORDO
100
AcDbEllipse
 62
7
  6
CONTINUOUS
 10
-19.9061244651
 20
-3.7435734295
 30
0.0
 11
0.2991710901
 21
0.0240513046
 31
0.0
 40
0.600626002
 41
-0.6139517699
 42
-0.5615918924
  0
ELLIPSE
  5
44E
100
AcDbEntity
  8
RACCORDO
100
AcDbEllipse
 62
7
  6
CONTINUOUS
 10
-20.6950756461
 20
14.7998682224
 30
0.0
 11
0.2991710901
 21
0.0240513046
 31
0.0
 40
0.600626002
 41
-0.6139517699
 42
-0.5615918924
  0
ELLIPSE
  5
44F
100
AcDbEntity
  8
RACCORDO
100
AcDbEllipse
 62
7
  6
CONTINUOUS
 10
-5.1498864567
 20
-17.7026713503
 30
0.0
 11
0.0841457446
 21
0.2881245671
 31
0.0
 40
0.4234887647
 41
0.6223972835
 42
0.6747571611
  0
ELLIPSE
  5
450
100
AcDbEntity
  8
RACCORDO
100
AcDbEllipse
 62
7
  6
CONTINUOUS
 10
13.8144695222
 20
-23.9922265783
 30
0.0
 11
0.0841457446
 21
0.2881245671
 31
0.0
 40
0.4234887647
 41
0.6223972835
 42
0.6747571611
  0
ELLIPSE
  5
451
100
AcDbEntity
  8
RACCORDO
100
AcDbEllipse
 62
7
  6
CONTINUOUS
 10
-20.1125276292
 20
1.1077090354
 30
0.0
 11
0.3001086501
 21
0.0027193845
 31
0.0
 40
0.5289629617
 41
-0.5735976876
 42
-0.5212378101
  0
ELLIPSE
  5
452
100
AcDbEntity
  8
RACCORDO
100
AcDbEllipse
 62
7
  6
CONTINUOUS
 10
-20.9014788102
 20
19.6511506873
 30
0.0
 11
0.3001086501
 21
0.0027193845
 31
0.0
 40
0.5289629617
 41
-0.5735976876
 42
-0.5212378101
  0
ENDSEC
  0
SECTION
  2
OBJECTS
  0
DICTIONARY
  5
C
100
AcDbDictionary
280
0
281
1
  3
ACAD_GROUP
350
D
  3
ACAD_MLINESTYLE
350
17
  3
ACAD_LAYOUT
350
1A
  3
ACAD_PLOTSETTINGS
350
19
  3
ACAD_PLOTSTYLENAME
350
E
  0
DICTIONARY
  5
D
102
{ACAD_REACTORS
330
C
102
}
100
AcDbDictionary
280
0
281
1
  0
ACDBDICTIONARYWDFLT
  5
E
102
{ACAD_REACTORS
330
C
102
}
100
AcDbDictionary
281
1
  3
Normal
350
F
100
AcDbDictionaryWithDefault
340
F
  0
DICTIONARY
  5
17
102
{ACAD_REACTORS
330
C
102
}
100
AcDbDictionary
280
0
281
1
  3
Standard
350
18
  0
DICTIONARY
  5
19
102
{ACAD_REACTORS
330
C
102
}
100
AcDbDictionary
281
1
  0
DICTIONARY
  5
1A
102
{ACAD_REACTORS
330
C
102
}
100
AcDbDictionary
281
1
  3
Model
350
453
  3
Layout1
350
454
  0
ACDBPLACEHOLDER
  5
F
102
{ACAD_REACTORS
330
E
102
}
  0
MLINESTYLE
  5
18
102
{ACAD_REACTORS
330
17
102
}
100
AcDbMlineStyle
  2
STANDARD
 70
0
  3

 62
256
 51
90.0
 52
90.0
 71
2
 49
0.5
 62
256
  6
BYLAYER
 49
-0.5
 62
256
  6
BYLAYER
  0
LAYOUT
  5
453
102
{ACAD_REACTORS
330
1A
102
}
100
AcDbPlotSettings
  1

  2
none_device
  4
ISO_A4_(297.00_x_210.00_MM)
  6

 40
0.0
 41
0.0
 42
0.0
 43
0.0
 44
297.0
 45
210.0
 46
0.0
 47
0.0
 48
0.0
 49
0.0
140
0.0
141
0.0
142
1.0
143
1.0
 70
1024
 72
1
 73
0
 74
0
  7

 75
0
147
1.0
148
0.0
149
0.0
100
AcDbLayout
  1
Model
 70
0
 71
0
 10
0.0
 20
0.0
 11
297.0
 21
210.0
 12
0.0
 22
0.0
 32
0.0
 14
0.0
 24
0.0
 34
0.0
 15
0.0
 25
0.0
 35
0.0
146
0.0
 13
0.0
 23
0.0
 33
0.0
 16
1.0
 26
0.0
 36
0.0
 17
0.0
 27
1.0
 37
0.0
 76
0
330
212
345
0
346
0
  0
LAYOUT
  5
454
102
{ACAD_REACTORS
330
1A
102
}
100
AcDbPlotSettings
  1

  2
none_device
  4
ISO_A4_(297.00_x_210.00_MM)
  6

 40
0.0
 41
0.0
 42
0.0
 43
0.0
 44
297.0
 45
210.0
 46
0.0
 47
0.0
 48
0.0
 49
0.0
140
0.0
141
0.0
142
1.0
143
1.0
 70
0
 72
1
 73
0
 74
0
  7

 75
0
147
1.0
148
0.0
149
0.0
100
AcDbLayout
  1
Layout1
 70
0
 71
1
 10
0.0
 20
0.0
 11
297.0
 21
210.0
 12
0.0
 22
0.0
 32
0.0
 14
0.0
 24
0.0
 34
0.0
 15
0.0
 25
0.0
 35
0.0
146
0.0
 13
0.0
 23
0.0
 33
0.0
 16
1.0
 26
0.0
 36
0.0
 17
0.0
 27
1.0
 37
0.0
 76
0
330
213
345
0
346
0
  0
ENDSEC
  0
EOF
