  0
SECTION
  2
HEADER
  9
$ACADVER
  1
AC1024
  9
$DWGCODEPAGE
  3
ANSI_1252
  9
$EXTMAX
 10
297.0
 20
210.0
 30
0.0
  9
$EXTMIN
 10
0.0
 20
0.0
 30
0.0
  9
$LIMMIN
 10
0.0
 20
0.0
  9
$LIMMAX
 10
297.0
 20
210.0
  9
$VIEWCTR
 10
148.5
 20
105.0
  9
$VIEWSIZE
 40
210.0
  9
$CLAYER
  8
0
  9
$LTSCALE
 40
16.335
  9
$CELTYPE
  6
BYLAYER
  9
$DIMSCALE
 40
1.0
  9
$DIMASZ
 40
3.0
  9
$DIMEXO
 40
0.5
  9
$DIMDLI
 40
11.286
  9
$DIMEXE
 40
1.5
  9
$DIMCEN
 40
2.673
  9
$DIMLFAC
 40
1.0
  9
$DIMBLK
  1
_FILLED
  9
$DIMALT
 70
0
  9
$DIMALTF
 40
0.0393700787
  9
$DIMTXT
 40
3.0
  9
$DIMTOL
 70
1
  9
$DIMLIM
 70
0
  9
$DIMTFAC
 40
1.0
  9
$DIMTP
 40
0.01
  9
$DIMTM
 40
0.01
  9
$DIMGAP
 40
0.625
  9
$DIMDSEP
 70
44
  9
$AUNITS
 70
0
  9
$PDMODE
 70
3
  9
$PDSIZE
 40
3.0
  9
$HANDSEED
  5
488
  9
$TILEMODE
 70
1
  9
$MEASUREMENT
 70
1
  9
$INSUNITS
 70
4
  0
ENDSEC
  0
SECTION
  2
CLASSES
  0
CLASS
  1
ACDBDICTIONARYWDFLT
  2
AcDbDictionaryWithDefault
  3
AutoCAD 2000
 90
0
 91
1
280
0
281
0
  0
CLASS
  1
ACDBPLACEHOLDER
  2
AcDbPlaceHolder
  3
AutoCAD 2000
 90
0
 91
1
280
0
281
0
  0
CLASS
  1
LAYOUT
  2
AcDbLayout
  3
AutoCAD 2000
 90
0
 91
0
280
0
281
0
  0
ENDSEC
  0
SECTION
  2
TABLES
  0
TABLE
  2
VPORT
  5
8
100
AcDbSymbolTable
 70
2
  0
VPORT
  5
1F4
100
AcDbSymbolTableRecord
100
AcDbViewportTableRecord
  2
*ACTIVE
 70
0
 10
0.0
 20
0.0
 11
1.0
 21
1.0
 12
148.5
 22
105.0
 13
0.0
 23
0.0
 14
1.0
 24
1.0
 15
0.0
 25
0.0
 16
0.0
 26
0.0
 36
1.0
 17
0.0
 27
0.0
 37
0.0
 40
210.0
 41
1.4142857143
 42
50.0
 43
0.0
 44
0.0
 50
0.0
 51
0.0
 71
0
 72
100
 73
1
 74
1
 75
0
 76
0
 77
0
 78
0
  0
ENDTAB
  0
TABLE
  2
LTYPE
  5
5
100
AcDbSymbolTable
 70
6
  0
LTYPE
  5
14
100
AcDbSymbolTableRecord
100
AcDbLinetypeTableRecord
  2
BYBLOCK
 70
0
  3

 72
65
 73
0
 40
0.0
  0
LTYPE
  5
15
100
AcDbSymbolTableRecord
100
AcDbLinetypeTableRecord
  2
BYLAYER
 70
0
  3

 72
65
 73
0
 40
0.0
  0
LTYPE
  5
16
100
AcDbSymbolTableRecord
100
AcDbLinetypeTableRecord
  2
CONTINUOUS
 70
64
  3
Solid line
 72
65
 73
0
 40
0.0
  0
LTYPE
  5
1F5
100
AcDbSymbolTableRecord
100
AcDbLinetypeTableRecord
  2
CENTER
 70
64
  3
____ _ ____ _ ____ _ ____ _ ____ _ ____ _ ____
 72
65
 73
4
 40
0.6
 49
0.375
 74
0
 49
-0.075
 74
0
 49
0.075
 74
0
 49
-0.075
 74
0
  0
LTYPE
  5
1F6
100
AcDbSymbolTableRecord
100
AcDbLinetypeTableRecord
  2
HIDDEN
 70
64
  3
- - - - - - - - - - - - - - - - - - - -
 72
65
 73
2
 40
0.2
 49
0.1
 74
0
 49
-0.1
 74
0
  0
LTYPE
  5
1F7
100
AcDbSymbolTableRecord
100
AcDbLinetypeTableRecord
  2
PHANTOM
 70
64
  3
_____ _ _ _____ _ _ _____ _ _ _____
 72
65
 73
6
 40
0.8
 49
0.45
 74
0
 49
-0.05
 74
0
 49
0.1
 74
0
 49
-0.05
 74
0
 49
0.1
 74
0
 49
-0.05
 74
0
  0
LTYPE
  5
1F8
100
AcDbSymbolTableRecord
100
AcDbLinetypeTableRecord
  2
DOT
 70
64
  3
. . . . . . . . . . . . . . . . . . . .
 72
65
 73
2
 40
0.2
 49
0.1
 74
0
 49
-0.1
 74
0
  0
LTYPE
  5
1F9
100
AcDbSymbolTableRecord
100
AcDbLinetypeTableRecord
  2
DASHED
 70
64
  3
- - - - - - - - - - - - - - - - - - - -
 72
65
 73
2
 40
0.2
 49
0.1
 74
0
 49
-0.1
 74
0
  0
ENDTAB
  0
TABLE
  2
LAYER
  5
2
100
AcDbSymbolTable
 70
36
  0
LAYER
  5
10
100
AcDbSymbolTableRecord
100
AcDbLayerTableRecord
  2
0
 70
0
 62
7
  6
CONTINUOUS
370
-3
390
F
  0
LAYER
  5
1FA
100
AcDbSymbolTableRecord
100
AcDbLayerTableRecord
  2
DEFAULT_1
 70
0
 62
7
  6
CENTER
370
-3
390
F
  0
LAYER
  5
1FB
100
AcDbSymbolTableRecord
100
AcDbLayerTableRecord
  2
DEFAULT_2
 70
0
 62
7
  6
HIDDEN
370
-3
390
F
  0
LAYER
  5
1FC
100
AcDbSymbolTableRecord
100
AcDbLayerTableRecord
  2
DEFAULT_3
 70
0
 62
7
  6
PHANTOM
370
-3
390
F
  0
LAYER
  5
1FD
100
AcDbSymbolTableRecord
100
AcDbLayerTableRecord
  2
ASSI
 70
0
 62
7
  6
CONTINUOUS
370
-3
390
F
  0
LAYER
  5
1FE
100
AcDbSymbolTableRecord
100
AcDbLayerTableRecord
  2
COORDINATE
 70
0
 62
7
  6
CONTINUOUS
370
-3
390
F
  0
LAYER
  5
1FF
100
AcDbSymbolTableRecord
100
AcDbLayerTableRecord
  2
COORD_ORIGINE
 70
0
 62
7
  6
CONTINUOUS
370
-3
390
F
  0
LAYER
  5
200
100
AcDbSymbolTableRecord
100
AcDbLayerTableRecord
  2
CURVE
 70
0
 62
7
  6
CONTINUOUS
370
-3
390
F
  0
LAYER
  5
201
100
AcDbSymbolTableRecord
100
AcDbLayerTableRecord
  2
DRAFT
 70
0
 62
7
  6
CONTINUOUS
370
-3
390
F
  0
LAYER
  5
202
100
AcDbSymbolTableRecord
100
AcDbLayerTableRecord
  2
IGES
 70
0
 62
7
  6
CONTINUOUS
370
-3
390
F
  0
LAYER
  5
203
100
AcDbSymbolTableRecord
100
AcDbLayerTableRecord
  2
INTF_1
 70
0
 62
7
  6
CONTINUOUS
370
-3
390
F
  0
LAYER
  5
204
100
AcDbSymbolTableRecord
100
AcDbLayerTableRecord
  2
INTF_5
 70
0
 62
7
  6
CONTINUOUS
370
-3
390
F
  0
LAYER
  5
205
100
AcDbSymbolTableRecord
100
AcDbLayerTableRecord
  2
INTF_7
 70
0
 62
7
  6
CONTINUOUS
370
-3
390
F
  0
LAYER
  5
206
100
AcDbSymbolTableRecord
100
AcDbLayerTableRecord
  2
INTF_MAGENTA
 70
0
 62
7
  6
CONTINUOUS
370
-3
390
F
  0
LAYER
  5
207
100
AcDbSymbolTableRecord
100
AcDbLayerTableRecord
  2
NOTE
 70
0
 62
7
  6
CONTINUOUS
370
-3
390
F
  0
LAYER
  5
208
100
AcDbSymbolTableRecord
100
AcDbLayerTableRecord
  2
PIANI
 70
0
 62
7
  6
CONTINUOUS
370
-3
390
F
  0
LAYER
  5
209
100
AcDbSymbolTableRecord
100
AcDbLayerTableRecord
  2
PIANI_COS_SUPERFICE
 70
0
 62
7
  6
CONTINUOUS
370
-3
390
F
  0
LAYER
  5
20A
100
AcDbSymbolTableRecord
100
AcDbLayerTableRecord
  2
PIANI_ORIGINE
 70
0
 62
7
  6
CONTINUOUS
370
-3
390
F
  0
LAYER
  5
20B
100
AcDbSymbolTableRecord
100
AcDbLayerTableRecord
  2
PIANI_RIF_SFORMI
 70
0
 62
7
  6
CONTINUOUS
370
-3
390
F
  0
LAYER
  5
20C
100
AcDbSymbolTableRecord
100
AcDbLayerTableRecord
  2
PUNTI
 70
0
 62
7
  6
CONTINUOUS
370
-3
390
F
  0
LAYER
  5
20D
100
AcDbSymbolTableRecord
100
AcDbLayerTableRecord
  2
RACCORDO
 70
0
 62
7
  6
CONTINUOUS
370
-3
390
F
  0
LAYER
  5
20E
100
AcDbSymbolTableRecord
100
AcDbLayerTableRecord
  2
RGB__255__255__255__
 70
0
 62
7
  6
CONTINUOUS
370
-3
390
F
  0
LAYER
  5
20F
100
AcDbSymbolTableRecord
100
AcDbLayerTableRecord
  2
RGB____0____0____0__
 70
0
 62
7
  6
CONTINUOUS
370
-3
390
F
  0
LAYER
  5
210
100
AcDbSymbolTableRecord
100
AcDbLayerTableRecord
  2
SNAPLINE
 70
0
 62
7
  6
CONTINUOUS
370
-3
390
F
  0
LAYER
  5
211
100
AcDbSymbolTableRecord
100
AcDbLayerTableRecord
  2
SOLIDO
 70
0
 62
7
  6
CONTINUOUS
370
-3
390
F
  0
LAYER
  5
212
100
AcDbSymbolTableRecord
100
AcDbLayerTableRecord
  2
SUPERFICI
 70
0
 62
7
  6
CONTINUOUS
370
-3
390
F
  0
LAYER
  5
213
100
AcDbSymbolTableRecord
100
AcDbLayerTableRecord
  2
SUPERFICI1
 70
0
 62
7
  6
CONTINUOUS
370
-3
390
F
  0
LAYER
  5
214
100
AcDbSymbolTableRecord
100
AcDbLayerTableRecord
  2
TRASH
 70
0
 62
7
  6
CONTINUOUS
370
-3
390
F
  0
ENDTAB
  0
TABLE
  2
STYLE
  5
3
100
AcDbSymbolTable
 70
1
  0
STYLE
  5
11
100
AcDbSymbolTableRecord
100
AcDbTextStyleTableRecord
  2
STANDARD
 70
0
 40
0.0
 41
0.8
 50
0.0
 71
0
 42
0.2
  3
txt
  4

  0
STYLE
  5
215
100
AcDbSymbolTableRecord
100
AcDbTextStyleTableRecord
  2
TEXTSTYLE_1
 70
0
 40
0.0
 41
0.8
 50
0.0
 71
0
 42
0.2
  3
gdt
  4

  0
ENDTAB
  0
TABLE
  2
VIEW
  5
6
100
AcDbSymbolTable
 70
0
  0
ENDTAB
  0
TABLE
  2
UCS
  5
7
100
AcDbSymbolTable
 70
0
  0
ENDTAB
  0
TABLE
  2
APPID
  5
9
100
AcDbSymbolTable
 70
1
  0
APPID
  5
216
100
AcDbSymbolTableRecord
100
AcDbRegAppTableRecord
  2
ACAD
 70
0
  0
ENDTAB
  0
TABLE
  2
BLOCK_RECORD
  5
1
100
AcDbSymbolTable
 70
0
  0
BLOCK_RECORD
  5
217
100
AcDbSymbolTableRecord
100
AcDbBlockTableRecord
  2
*Model_Space
  0
BLOCK_RECORD
  5
218
100
AcDbSymbolTableRecord
100
AcDbBlockTableRecord
  2
*Paper_Space
  0
BLOCK_RECORD
  5
219
100
AcDbSymbolTableRecord
100
AcDbBlockTableRecord
  2
_FILLED
  0
ENDTAB
  0
TABLE
  2
DIMSTYLE
  5
A
100
AcDbSymbolTable
 70
1
100
AcDbDimStyleTable
 71
0
  0
DIMSTYLE
105
21A
100
AcDbSymbolTableRecord
100
AcDbDimStyleTableRecord
  2
STANDARD
 70
0
  3

  4

 40
1.0
 41
3.0
 42
0.5
 43
0.38
 44
1.5
 45
0.0
 46
0.0
 47
0.01
 48
0.01
140
3.0
141
0.09
142
0.0
143
25.4
144
1.0
145
0.0
146
1.0
147
0.625
 71
1
 72
0
 73
0
 74
0
 75
0
 76
0
 77
1
 78
8
 79
2
170
0
171
1
172
0
173
0
174
0
175
0
176
0
177
0
178
0
270
2
179
2
271
2
272
2
273
2
274
2
275
0
280
0
281
0
282
0
283
1
284
8
285
0
286
0
287
3
288
0
340
11
278
44
341
219
342
219
343
219
344
219
  0
ENDTAB
  0
ENDSEC
  0
SECTION
  2
BLOCKS
  0
BLOCK
  5
20
100
AcDbEntity
  8
0
100
AcDbBlockBegin
  2
*Model_Space
 70
0
 10
0.0
 20
0.0
 30
0.0
  3
*Model_Space
  1

  0
ENDBLK
  5
21
100
AcDbEntity
  8
0
100
AcDbBlockEnd
  0
BLOCK
  5
1C
100
AcDbEntity
  8
0
100
AcDbBlockBegin
  2
*Paper_Space
 70
0
 10
0.0
 20
0.0
 30
0.0
  3
*Paper_Space
  1

  0
ENDBLK
  5
1D
100
AcDbEntity
  8
0
100
AcDbBlockEnd
  0
BLOCK
  5
21B
100
AcDbEntity
  8
0
100
AcDbBlockBegin
  2
_FILLED
 70
64
 10
0.0
 20
0.0
  3
_FILLED
  1

  0
SOLID
  5
21C
100
AcDbEntity
  8
0
  6
BYBLOCK
 62
0
100
AcDbTrace
 10
0.0
 20
0.0
 11
-1.0
 21
0.3166666667
 12
-1.0
 22
-0.3166666667
 13
-1.0
 23
-0.3166666667
  0
ENDBLK
  5
21D
100
AcDbEntity
  8
0
  6
BYBLOCK
 62
0
100
AcDbBlockEnd
  0
ENDSEC
  0
SECTION
  2
ENTITIES
  0
LWPOLYLINE
  5
21E
100
AcDbEntity
  8
RACCORDO
100
AcDbPolyline
 62
7
  6
CONTINUOUS
 90
22
 70
0
 10
-36.819031508
 20
39.3332070155
 10
-36.8248708883
 20
39.3246508411
 10
-36.8563737475
 20
39.2766479842
 10
-36.8865858703
 20
39.2273823104
 10
-36.9154619457
 20
39.1768765971
 10
-36.9429524748
 20
39.1251640188
 10
-36.9690064728
 20
39.072287898
 10
-36.9935827139
 20
39.0182809331
 10
-37.0166416902
 20
38.9631762674
 10
-37.0381413328
 20
38.9070189525
 10
-37.0580473242
 20
38.849844419
 10
-37.076326594
 20
38.7916911259
 10
-37.0929448778
 20
38.7326083411
 10
-37.1078750369
 20
38.6726320347
 10
-37.1210914436
 20
38.611803195
 10
-37.1325678011
 20
38.5501759165
 10
-37.1422836673
 20
38.4877879412
 10
-37.1502213617
 20
38.4246757944
 10
-37.1563633527
 20
38.3608870951
 10
-37.1606951522
 20
38.2964596058
 10
-37.1632053056
 20
38.2314269741
 10
-37.1638903862
 20
38.1807330091
  0
LINE
  5
21F
100
AcDbEntity
  8
SUPERFICI
100
AcDbLine
 62
7
  6
CONTINUOUS
 10
-35.0110947431
 20
41.9668607669
 11
-36.8190783277
 21
39.3331388491
  0
LINE
  5
220
100
AcDbEntity
  8
RACCORDO
100
AcDbLine
 62
250
  6
CONTINUOUS
 10
-32.6636731694
 20
42.5032212055
 11
-34.6576963208
 21
39.8200848053
  0
LINE
  5
221
100
AcDbEntity
  8
RACCORDO
100
AcDbLine
 62
250
  6
CONTINUOUS
 10
-36.7389148315
 20
37.6935796203
 11
-36.7480431028
 21
37.4887800408
  0
LINE
  5
222
100
AcDbEntity
  8
RACCORDO
100
AcDbLine
 62
250
  6
CONTINUOUS
 10
-36.7480431028
 20
37.4887800408
 11
-36.7564095133
 21
37.3156447774
  0
LINE
  5
223
100
AcDbEntity
  8
RACCORDO
100
AcDbLine
 62
250
  6
CONTINUOUS
 10
-36.7564095133
 20
37.3156447774
 11
-36.762364779
 21
37.2042945125
  0
LINE
  5
224
100
AcDbEntity
  8
RACCORDO
100
AcDbLine
 62
250
  6
CONTINUOUS
 10
-36.762364779
 20
37.2042945125
 11
-36.7662889249
 21
37.1380112535
  0
LWPOLYLINE
  5
225
100
AcDbEntity
  8
RACCORDO
100
AcDbPolyline
 62
250
  6
CONTINUOUS
 90
6
 70
0
 10
-36.7756429957
 20
36.9956789798
 10
-36.7772063062
 20
36.9702021028
 10
-36.7784168998
 20
36.9455457411
 10
-36.7791349477
 20
36.9212498893
 10
-36.7793360563
 20
36.8972355946
 10
-36.77922038
 20
36.8735540322
  0
LINE
  5
226
100
AcDbEntity
  8
RACCORDO
100
AcDbLine
 62
250
  6
CONTINUOUS
 10
-36.7662889249
 20
37.1380112535
 11
-36.7756429957
 21
36.9956789798
  0
LWPOLYLINE
  5
227
100
AcDbEntity
  8
RACCORDO
100
AcDbPolyline
 62
250
  6
CONTINUOUS
 90
40
 70
0
 10
-35.0992461498
 20
38.6276281048
 10
-35.0972099287
 20
38.6577951807
 10
-35.0945680501
 20
38.6884866381
 10
-35.0913238299
 20
38.7196639556
 10
-35.08748134
 20
38.7512880017
 10
-35.0830454032
 20
38.7833190844
 10
-35.0780215872
 20
38.8157170008
 10
-35.0724161974
 20
38.8484410875
 10
-35.0662362693
 20
38.8814502718
 10
-35.0594895594
 20
38.914703123
 10
-35.0521845358
 20
38.9481579048
 10
-35.0443303671
 20
38.9817726274
 10
-35.0359369113
 20
39.0155051001
 10
-35.0270147031
 20
39.0493129845
 10
-35.0175749411
 20
39.0831538476
 10
-35.0076294733
 20
39.1169852149
 10
-34.9971907825
 20
39.150764624
 10
-34.9862719705
 20
39.1844496776
 10
-34.9748867417
 20
39.2179980967
 10
-34.9630493861
 20
39.251367774
 10
-34.950774761
 20
39.2845168264
 10
-34.9380782725
 20
39.3174036479
 10
-34.9249758563
 20
39.3499869614
 10
-34.9114839574
 20
39.3822258708
 10
-34.89761951
 20
39.4140799124
 10
-34.8833999156
 20
39.4455091055
 10
-34.8688430215
 20
39.4764740025
 10
-34.8539670984
 20
39.5069357388
 10
-34.8387908174
 20
39.536856081
 10
-34.8233332266
 20
39.5661974756
 10
-34.8076137272
 20
39.5949230954
 10
-34.7916520491
 20
39.6229968862
 10
-34.7754682262
 20
39.6503836121
 10
-34.759082571
 20
39.6770488993
 10
-34.7425156497
 20
39.7029592797
 10
-34.7257882558
 20
39.7280822324
 10
-34.7089213842
 20
39.7523862251
 10
-34.6919362048
 20
39.7758407534
 10
-34.6748540362
 20
39.7984163789
 10
-34.6576963186
 20
39.8200847664
  0
LINE
  5
228
100
AcDbEntity
  8
RACCORDO
100
AcDbLine
 62
250
  6
CONTINUOUS
 10
-35.3643795232
 20
-19.2151225594
 11
-35.3533988919
 21
-19.3184072061
  0
LINE
  5
229
100
AcDbEntity
  8
RACCORDO
100
AcDbLine
 62
250
  6
CONTINUOUS
 10
-35.3533988919
 20
-19.3184072061
 11
-35.3374341084
 21
-19.4762898725
  0
LINE
  5
22A
100
AcDbEntity
  8
RACCORDO
100
AcDbLine
 62
250
  6
CONTINUOUS
 10
-35.3374341084
 20
-19.4762898725
 11
-35.309607546
 21
-19.7623236651
  0
LWPOLYLINE
  5
22B
100
AcDbEntity
  8
RACCORDO
100
AcDbPolyline
 62
7
  6
CONTINUOUS
 90
55
 70
0
 10
-35.7350855297
 20
-19.2524259614
 10
-35.7320442349
 20
-19.2989627091
 10
-35.726367007
 20
-19.3618614444
 10
-35.718855665
 20
-19.4251633683
 10
-35.7094950427
 20
-19.4888624488
 10
-35.6982794215
 20
-19.5528954464
 10
-35.6852198738
 20
-19.6171374376
 10
-35.6703139468
 20
-19.6815601281
 10
-35.6535608469
 20
-19.7461313085
 10
-35.6349887181
 20
-19.8107202175
 10
-35.6146034127
 20
-19.8752967547
 10
-35.5924112002
 20
-19.9398318921
 10
-35.5684556827
 20
-20.0041963316
 10
-35.5427492125
 20
-20.0683633041
 10
-35.5153064036
 20
-20.1323008299
 10
-35.4861904755
 20
-20.1958716985
 10
-35.4554212844
 20
-20.2590514469
 10
-35.4230203213
 20
-20.3218107982
 10
-35.389071319
 20
-20.3840075815
 10
-35.3536167485
 20
-20.445594002
 10
-35.316670732
 20
-20.5065700069
 10
-35.2782891078
 20
-20.5668661081
 10
-35.2385101181
 20
-20.626447107
 10
-35.1973551122
 20
-20.6853010394
 10
-35.1548624141
 20
-20.7433919631
 10
-35.1110623631
 20
-20.8006956528
 10
-35.0659843475
 20
-20.8571876527
 10
-35.0196692034
 20
-20.9128312004
 10
-34.9721457496
 20
-20.9676035549
 10
-34.9234430654
 20
-21.0214812753
 10
-34.8736050343
 20
-21.0744258474
 10
-34.8226614086
 20
-21.1264134926
 10
-34.7706422306
 20
-21.1774210172
 10
-34.7175934568
 20
-21.2274099667
 10
-34.6635486263
 20
-21.2763544029
 10
-34.6085360899
 20
-21.324234427
 10
-34.5525944997
 20
-21.3710199915
 10
-34.4957564205
 20
-21.4166870725
 10
-34.4380500779
 20
-21.4612153835
 10
-34.3795075574
 20
-21.5045801635
 10
-34.3201584373
 20
-21.5467595052
 10
-34.2600341198
 20
-21.5877294376
 10
-34.1991702016
 20
-21.6274629861
 10
-34.1375959444
 20
-21.6659387183
 10
-34.0753454966
 20
-21.7031309638
 10
-34.012461609
 20
-21.7390100541
 10
-33.9489732379
 20
-21.773554846
 10
-33.8849111347
 20
-21.8067419137
 10
-33.8203197744
 20
-21.8385422103
 10
-33.7552308952
 20
-21.8689328363
 10
-33.6896736854
 20
-21.8978915003
 10
-33.6236852671
 20
-21.925392937
 10
-33.5572958358
 20
-21.9514138524
 10
-33.49053725
 20
-21.975930987
 10
-33.4369103444
 20
-21.9944377965
  0
LINE
  5
22C
100
AcDbEntity
  8
RACCORDO
100
AcDbLine
 62
250
  6
CONTINUOUS
 10
-35.4655009407
 20
-17.3585002298
 11
-35.396824975
 21
-18.8007402464
  0
LINE
  5
22D
100
AcDbEntity
  8
RACCORDO
100
AcDbLine
 62
250
  6
CONTINUOUS
 10
-35.4716427152
 20
-17.2277564097
 11
-35.4655009407
 21
-17.3585002298
  0
LINE
  5
22E
100
AcDbEntity
  8
RACCORDO
100
AcDbLine
 62
250
  6
CONTINUOUS
 10
-35.4780948772
 20
-17.0898530023
 11
-35.4716427152
 21
-17.2277564097
  0
LINE
  5
22F
100
AcDbEntity
  8
RACCORDO
100
AcDbLine
 62
250
  6
CONTINUOUS
 10
-35.5326479386
 20
-15.8836119066
 11
-35.4780948772
 21
-17.0898530023
  0
LINE
  5
230
100
AcDbEntity
  8
RACCORDO
100
AcDbLine
 62
250
  6
CONTINUOUS
 10
-35.396824975
 20
-18.8007402464
 11
-35.392616819
 21
-18.8951598143
  0
LINE
  5
231
100
AcDbEntity
  8
RACCORDO
100
AcDbLine
 62
250
  6
CONTINUOUS
 10
-35.5661488552
 20
-15.0818016342
 11
-35.5326479386
 21
-15.8836119066
  0
LWPOLYLINE
  5
232
100
AcDbEntity
  8
RACCORDO
100
AcDbPolyline
 62
250
  6
CONTINUOUS
 90
7
 70
0
 10
-35.392616819
 20
-18.8951598143
 10
-35.3907263179
 20
-18.9418145762
 10
-35.3896634472
 20
-18.9653641838
 10
-35.3882432982
 20
-18.9895574212
 10
-35.3862753985
 20
-19.0145074883
 10
-35.3838076449
 20
-19.0402177694
 10
-35.3809538863
 20
-19.0669840193
  0
LINE
  5
233
100
AcDbEntity
  8
RACCORDO
100
AcDbLine
 62
250
  6
CONTINUOUS
 10
-35.5924831103
 20
-14.4045461933
 11
-35.5661488552
 21
-15.0818016342
  0
LINE
  5
234
100
AcDbEntity
  8
RACCORDO
100
AcDbLine
 62
250
  6
CONTINUOUS
 10
-35.6148501208
 20
-13.7897394375
 11
-35.5924831103
 21
-14.4045461933
  0
LWPOLYLINE
  5
235
100
AcDbEntity
  8
RACCORDO
100
AcDbPolyline
 62
7
  6
CONTINUOUS
 90
4
 70
0
 10
-35.7708855124
 20
-18.4196721905
 10
-35.7608983095
 20
-18.7114558043
 10
-35.7484033654
 20
-18.9941888002
 10
-35.7350728998
 20
-19.2526573869
  0
LINE
  5
236
100
AcDbEntity
  8
RACCORDO
100
AcDbLine
 62
250
  6
CONTINUOUS
 10
-35.6382996461
 20
-13.1013625711
 11
-35.6148501208
 21
-13.7897394375
  0
LINE
  5
237
100
AcDbEntity
  8
RACCORDO
100
AcDbLine
 62
7
  6
CONTINUOUS
 10
-35.7991246164
 20
-17.5349809237
 11
-35.7708855124
 21
-18.4196721905
  0
LINE
  5
238
100
AcDbEntity
  8
RACCORDO
100
AcDbLine
 62
250
  6
CONTINUOUS
 10
-35.6627999512
 20
-12.3316443286
 11
-35.6382996461
 21
-13.1013625711
  0
LINE
  5
239
100
AcDbEntity
  8
RACCORDO
100
AcDbLine
 62
7
  6
CONTINUOUS
 10
-35.8482291857
 20
-15.9732403058
 11
-35.7991246164
 21
-17.5349809237
  0
LINE
  5
23A
100
AcDbEntity
  8
RACCORDO
100
AcDbLine
 62
7
  6
CONTINUOUS
 10
-35.8781321947
 20
-14.984749458
 11
-35.8482291857
 21
-15.9732403058
  0
LINE
  5
23B
100
AcDbEntity
  8
RACCORDO
100
AcDbLine
 62
250
  6
CONTINUOUS
 10
-35.6952052343
 20
-11.244445129
 11
-35.6627999512
 21
-12.3316443286
  0
LINE
  5
23C
100
AcDbEntity
  8
RACCORDO
100
AcDbLine
 62
250
  6
CONTINUOUS
 10
-35.7090242859
 20
-10.7676922776
 11
-35.6952052343
 21
-11.244445129
  0
LINE
  5
23D
100
AcDbEntity
  8
RACCORDO
100
AcDbLine
 62
7
  6
CONTINUOUS
 10
-35.9079279936
 20
-13.9583961941
 11
-35.8781321947
 21
-14.984749458
  0
LINE
  5
23E
100
AcDbEntity
  8
RACCORDO
100
AcDbLine
 62
250
  6
CONTINUOUS
 10
-35.8163441145
 20
-6.9733593815
 11
-35.7090242859
 21
-10.7676922776
  0
LINE
  5
23F
100
AcDbEntity
  8
RACCORDO
100
AcDbLine
 62
7
  6
CONTINUOUS
 10
-35.9375278604
 20
-12.8949385047
 11
-35.9079279936
 21
-13.9583961941
  0
LINE
  5
240
100
AcDbEntity
  8
RACCORDO
100
AcDbLine
 62
250
  6
CONTINUOUS
 10
-35.9006792077
 20
-3.8953485136
 11
-35.8163441145
 21
-6.9733593815
  0
LINE
  5
241
100
AcDbEntity
  8
RACCORDO
100
AcDbLine
 62
250
  6
CONTINUOUS
 10
-35.9884743497
 20
-0.6001919601
 11
-35.9006792077
 21
-3.8953485136
  0
LINE
  5
242
100
AcDbEntity
  8
RACCORDO
100
AcDbLine
 62
7
  6
CONTINUOUS
 10
-35.9868429776
 20
-11.0432839974
 11
-35.9375278604
 21
-12.8949385047
  0
LINE
  5
243
100
AcDbEntity
  8
RACCORDO
100
AcDbLine
 62
7
  6
CONTINUOUS
 10
-36.2244626067
 20
-1.8278355212
 11
-35.9868429776
 21
-11.0432839974
  0
LINE
  5
244
100
AcDbEntity
  8
RACCORDO
100
AcDbLine
 62
7
  6
CONTINUOUS
 10
-36.3712364645
 20
3.9861784579
 11
-36.2244626067
 21
-1.8278355212
  0
LINE
  5
245
100
AcDbEntity
  8
RACCORDO
100
AcDbLine
 62
7
  6
CONTINUOUS
 10
-36.47823144
 20
8.2687829062
 11
-36.3712364645
 21
3.9861784579
  0
LINE
  5
246
100
AcDbEntity
  8
RACCORDO
100
AcDbLine
 62
7
  6
CONTINUOUS
 10
-36.6190577474
 20
13.9420999669
 11
-36.47823144
 21
8.2687829062
  0
LINE
  5
247
100
AcDbEntity
  8
RACCORDO
100
AcDbLine
 62
250
  6
CONTINUOUS
 10
-36.3539416077
 20
13.9117672632
 11
-35.9884743497
 21
-0.6001919601
  0
LINE
  5
248
100
AcDbEntity
  8
RACCORDO
100
AcDbLine
 62
7
  6
CONTINUOUS
 10
-36.9375984676
 20
27.0450736949
 11
-36.6190577474
 21
13.9420999669
  0
LINE
  5
249
100
AcDbEntity
  8
RACCORDO
100
AcDbLine
 62
250
  6
CONTINUOUS
 10
-36.4261651612
 20
16.9135369003
 11
-36.3539416077
 21
13.9117672632
  0
LINE
  5
24A
100
AcDbEntity
  8
RACCORDO
100
AcDbLine
 62
250
  6
CONTINUOUS
 10
-36.4878231599
 20
19.533935558
 11
-36.4261651612
 21
16.9135369003
  0
LINE
  5
24B
100
AcDbEntity
  8
RACCORDO
100
AcDbLine
 62
7
  6
CONTINUOUS
 10
-37.0365757503
 20
31.2443582964
 11
-36.9375984676
 21
27.0450736949
  0
LINE
  5
24C
100
AcDbEntity
  8
RACCORDO
100
AcDbLine
 62
250
  6
CONTINUOUS
 10
-36.540454142
 20
21.8224192245
 11
-36.4878231599
 21
19.533935558
  0
LINE
  5
24D
100
AcDbEntity
  8
RACCORDO
100
AcDbLine
 62
250
  6
CONTINUOUS
 10
-36.5854187838
 20
23.8218707288
 11
-36.540454142
 21
21.8224192245
  0
LINE
  5
24E
100
AcDbEntity
  8
RACCORDO
100
AcDbLine
 62
7
  6
CONTINUOUS
 10
-37.0616182169
 20
32.3638150881
 11
-37.0365757503
 21
31.2443582964
  0
LINE
  5
24F
100
AcDbEntity
  8
RACCORDO
100
AcDbLine
 62
250
  6
CONTINUOUS
 10
-36.6309436292
 20
25.8935522456
 11
-36.5854187838
 21
23.8218707288
  0
LINE
  5
250
100
AcDbEntity
  8
RACCORDO
100
AcDbLine
 62
250
  6
CONTINUOUS
 10
-36.6854690368
 20
28.4440549263
 11
-36.6309436292
 21
25.8935522456
  0
LINE
  5
251
100
AcDbEntity
  8
RACCORDO
100
AcDbLine
 62
7
  6
CONTINUOUS
 10
-37.0840726566
 20
33.421267819
 11
-37.0616182169
 21
32.3638150881
  0
LINE
  5
252
100
AcDbEntity
  8
RACCORDO
100
AcDbLine
 62
7
  6
CONTINUOUS
 10
-37.1040428471
 20
34.4178829704
 11
-37.0840726566
 21
33.421267819
  0
LINE
  5
253
100
AcDbEntity
  8
RACCORDO
100
AcDbLine
 62
250
  6
CONTINUOUS
 10
-36.7183204286
 20
30.0504846549
 11
-36.6854690368
 21
28.4440549263
  0
LINE
  5
254
100
AcDbEntity
  8
RACCORDO
100
AcDbLine
 62
7
  6
CONTINUOUS
 10
-37.1328944108
 20
35.95815392
 11
-37.1040428471
 21
34.4178829704
  0
LWPOLYLINE
  5
255
100
AcDbEntity
  8
RACCORDO
100
AcDbPolyline
 62
7
  6
CONTINUOUS
 90
3
 70
0
 10
-37.1533864167
 20
37.0949892041
 10
-37.1433675541
 20
36.5371584498
 10
-37.1328944108
 20
35.95815392
  0
LINE
  5
256
100
AcDbEntity
  8
RACCORDO
100
AcDbLine
 62
250
  6
CONTINUOUS
 10
-36.7329059278
 20
30.8412921583
 11
-36.7183204286
 21
30.0504846549
  0
LINE
  5
257
100
AcDbEntity
  8
RACCORDO
100
AcDbLine
 62
250
  6
CONTINUOUS
 10
-36.7444137414
 20
31.5488506724
 11
-36.7329059278
 21
30.8412921583
  0
LINE
  5
258
100
AcDbEntity
  8
RACCORDO
100
AcDbLine
 62
250
  6
CONTINUOUS
 10
-36.7532329078
 20
32.180929167
 11
-36.7444137414
 21
31.5488506724
  0
LINE
  5
259
100
AcDbEntity
  8
RACCORDO
100
AcDbLine
 62
250
  6
CONTINUOUS
 10
-36.7611735221
 20
32.8769561926
 11
-36.7532329078
 21
32.180929167
  0
LINE
  5
25A
100
AcDbEntity
  8
RACCORDO
100
AcDbLine
 62
250
  6
CONTINUOUS
 10
-36.7688178284
 20
33.8064173226
 11
-36.7611735221
 21
32.8769561926
  0
LWPOLYLINE
  5
25B
100
AcDbEntity
  8
RACCORDO
100
AcDbPolyline
 62
7
  6
CONTINUOUS
 90
4
 70
0
 10
-37.163859727
 20
37.9150771486
 10
-37.1622272207
 20
37.6407731876
 10
-37.1583778853
 20
37.371904814
 10
-37.1533864167
 20
37.0949892041
  0
LINE
  5
25C
100
AcDbEntity
  8
RACCORDO
100
AcDbLine
 62
250
  6
CONTINUOUS
 10
-36.77922038
 20
36.8735540322
 11
-36.7784819975
 21
36.7792142049
  0
LINE
  5
25D
100
AcDbEntity
  8
RACCORDO
100
AcDbLine
 62
250
  6
CONTINUOUS
 10
-36.7735751989
 20
34.7918878363
 11
-36.7688178284
 21
33.8064173226
  0
LWPOLYLINE
  5
25E
100
AcDbEntity
  8
RACCORDO
100
AcDbPolyline
 62
250
  6
CONTINUOUS
 90
3
 70
0
 10
-36.7768003185
 20
35.9857679108
 10
-36.7767008515
 20
35.939729051
 10
-36.7735751989
 20
34.7918878363
  0
LWPOLYLINE
  5
25F
100
AcDbEntity
  8
RACCORDO
100
AcDbPolyline
 62
250
  6
CONTINUOUS
 90
3
 70
0
 10
-36.7771694058
 20
36.1587123048
 10
-36.7770790411
 20
36.11704686
 10
-36.7768003185
 20
35.9857679108
  0
LWPOLYLINE
  5
260
100
AcDbEntity
  8
RACCORDO
100
AcDbPolyline
 62
250
  6
CONTINUOUS
 90
3
 70
0
 10
-36.7784819975
 20
36.7792142049
 10
-36.7782047441
 20
36.6816142365
 10
-36.7771694058
 20
36.1587123048
  0
LINE
  5
261
100
AcDbEntity
  8
RACCORDO
100
AcDbLine
 62
7
  6
CONTINUOUS
 10
-37.163859727
 20
37.9150771486
 11
-37.1638904838
 21
38.1807330094
  0
LWPOLYLINE
  5
262
100
AcDbEntity
  8
RACCORDO
100
AcDbPolyline
 62
250
  6
CONTINUOUS
 90
40
 70
0
 10
34.0026801743
 20
-41.0474557299
 10
34.0362683562
 20
-41.0535328277
 10
34.070218061
 20
-41.0588021359
 10
34.1044869191
 20
-41.0632570781
 10
34.1390321624
 20
-41.0668920947
 10
34.1738106781
 20
-41.069702649
 10
34.2087790621
 20
-41.0716852334
 10
34.2438936735
 20
-41.0728373737
 10
34.2791106888
 20
-41.073157632
 10
34.3143861567
 20
-41.0726456086
 10
34.349676053
 20
-41.0713019424
 10
34.3849363354
 20
-41.0691283105
 10
34.4201229986
 20
-41.0661274255
 10
34.4551921294
 20
-41.0623030326
 10
34.4900999609
 20
-41.0576599046
 10
34.5248029277
 20
-41.0522038363
 10
34.5592577201
 20
-41.0459416369
 10
34.5934213382
 20
-41.0388811217
 10
34.6272511451
 20
-41.0310311022
 10
34.660704921
 20
-41.0224013755
 10
34.6937409151
 20
-41.0130027116
 10
34.7263178981
 20
-41.00284684
 10
34.7583952135
 20
-40.9919464355
 10
34.7899328283
 20
-40.9803151019
 10
34.8208913833
 20
-40.9679673552
 10
34.8512322417
 20
-40.9549186056
 10
34.8809175379
 20
-40.941185138
 10
34.9099102242
 20
-40.9267840921
 10
34.9381741173
 20
-40.9117334406
 10
34.9656739435
 20
-40.8960519667
 10
34.9923753828
 20
-40.8797592412
 10
35.0182451114
 20
-40.8628755977
 10
35.0432508435
 20
-40.8454221071
 10
35.0673613717
 20
-40.8274205516
 10
35.0905466057
 20
-40.8088933973
 10
35.11277761
 20
-40.7898637664
 10
35.1340266402
 20
-40.7703554082
 10
35.1542671771
 20
-40.7503926692
 10
35.1734739604
 20
-40.7300004633
 10
35.1916230196
 20
-40.7092042401
  0
LWPOLYLINE
  5
263
100
AcDbEntity
  8
RACCORDO
100
AcDbPolyline
 62
250
  6
CONTINUOUS
 90
20
 70
0
 10
-33.5983604908
 20
-21.7056160053
 10
-33.5949738189
 20
-21.7297327891
 10
-33.5909897868
 20
-21.7529917869
 10
-33.586413395
 20
-21.775363806
 10
-33.5812503873
 20
-21.7968207666
 10
-33.5755072438
 20
-21.8173357378
 10
-33.5691911728
 20
-21.8368829707
 10
-33.5623101016
 20
-21.8554379312
 10
-33.5548726668
 20
-21.8729773304
 10
-33.5468882031
 20
-21.8894791545
 10
-33.538366732
 20
-21.9049226915
 10
-33.5293189489
 20
-21.919288558
 10
-33.5197562097
 20
-21.9325587231
 10
-33.5096905169
 20
-21.9447165311
 10
-33.4991345039
 20
-21.9557467224
 10
-33.4881014198
 20
-21.965635453
 10
-33.4766051124
 20
-21.9743703112
 10
-33.4646600109
 20
-21.9819403337
 10
-33.4522811078
 20
-21.9883360192
 10
-33.43948394
 20
-21.9935493405
  0
LINE
  5
264
100
AcDbEntity
  8
RACCORDO
100
AcDbLine
 62
250
  6
CONTINUOUS
 10
-35.3809538863
 20
-19.0669840193
 11
-35.3643795232
 21
-19.2151225594
  0
LWPOLYLINE
  5
265
100
AcDbEntity
  8
RACCORDO
100
AcDbPolyline
 62
250
  6
CONTINUOUS
 90
61
 70
0
 10
-35.3096075329
 20
-19.7623236522
 10
-35.3056157606
 20
-19.7986010607
 10
-35.3005793077
 20
-19.8352734035
 10
-35.2945021032
 20
-19.8723062416
 10
-35.2873872487
 20
-19.9096697224
 10
-35.2792379581
 20
-19.9473338008
 10
-35.2700588135
 20
-19.9852641249
 10
-35.2598543396
 20
-20.0234308293
 10
-35.248629127
 20
-20.0618077696
 10
-35.2363886298
 20
-20.1003659018
 10
-35.2231394598
 20
-20.1390745808
 10
-35.2088873347
 20
-20.1779091093
 10
-35.1936359788
 20
-20.2168494141
 10
-35.1773897776
 20
-20.2558743159
 10
-35.1601607353
 20
-20.2949489043
 10
-35.1419645761
 20
-20.3340323785
 10
-35.1228142925
 20
-20.373092449
 10
-35.1027190361
 20
-20.4121066317
 10
-35.0816896666
 20
-20.4510488694
 10
-35.05973772
 20
-20.489892766
 10
-35.0368757794
 20
-20.5286124726
 10
-35.013116268
 20
-20.5671827287
 10
-34.9884695714
 20
-20.6055821413
 10
-34.9629531923
 20
-20.6437805354
 10
-34.9365911055
 20
-20.6817396588
 10
-34.9094048325
 20
-20.7194272942
 10
-34.8814081439
 20
-20.7568248341
 10
-34.8526137495
 20
-20.7939145137
 10
-34.8230406149
 20
-20.8306703795
 10
-34.7927063793
 20
-20.8670698338
 10
-34.7616206448
 20
-20.903099663
 10
-34.7297947081
 20
-20.938743969
 10
-34.6972541024
 20
-20.9739724766
 10
-34.6640299469
 20
-21.0087504988
 10
-34.6301466398
 20
-21.0430521035
 10
-34.5956234008
 20
-21.0768585961
 10
-34.5604843475
 20
-21.1101466475
 10
-34.5247540488
 20
-21.142893073
 10
-34.4884547521
 20
-21.1750786811
 10
-34.4516069931
 20
-21.2066860467
 10
-34.4142292389
 20
-21.237699473
 10
-34.3763504087
 20
-21.2680960572
 10
-34.3380070568
 20
-21.29784803
 10
-34.2992306931
 20
-21.3269328891
 10
-34.2600409027
 20
-21.3553386281
 10
-34.2204565267
 20
-21.3830534897
 10
-34.1805044378
 20
-21.4100599412
 10
-34.1402120505
 20
-21.4363415148
 10
-34.0995985579
 20
-21.4618871968
 10
-34.0586848645
 20
-21.4866844776
 10
-34.0175052362
 20
-21.5107145238
 10
-33.9760989129
 20
-21.533957072
 10
-33.9344924349
 20
-21.5563998329
 10
-33.8927151388
 20
-21.5780301945
 10
-33.8508108472
 20
-21.5988290091
 10
-33.8088129181
 20
-21.6187834632
 10
-33.7667448486
 20
-21.6378868492
 10
-33.7246356783
 20
-21.6561302733
 10
-33.6825139597
 20
-21.6735053109
 10
-33.6404110768
 20
-21.6900034847
 10
-33.5983604335
 20
-21.7056159264
  0
LWPOLYLINE
  5
266
100
AcDbEntity
  8
RACCORDO
100
AcDbPolyline
 62
250
  6
CONTINUOUS
 90
54
 70
0
 10
-25.8641751072
 20
21.922848244
 10
-25.8131748216
 20
22.0339791399
 10
-25.7951087812
 20
22.0705476109
 10
-25.7751709832
 20
22.1076062027
 10
-25.7536278991
 20
22.145055589
 10
-25.7299581422
 20
22.1834712229
 10
-25.703780932
 20
22.2231249384
 10
-25.6752266775
 20
22.263463907
 10
-25.6445286701
 20
22.3038169548
 10
-25.6114970892
 20
22.3442022945
 10
-25.5761475968
 20
22.384419902
 10
-25.539163104
 20
22.4235580353
 10
-25.5007937522
 20
22.4613373468
 10
-25.4608335752
 20
22.4979716291
 10
-25.4193779573
 20
22.5333589605
 10
-25.3765141555
 20
22.5674149503
 10
-25.3322046577
 20
22.6001735506
 10
-25.2863554349
 20
22.6317073279
 10
-25.2388736857
 20
22.6620405231
 10
-25.189867618
 20
22.6910743181
 10
-25.139546215
 20
22.7187011507
 10
-25.0875424401
 20
22.7450903907
 10
-25.0343275068
 20
22.7699895496
 10
-24.9814695357
 20
22.7927856536
 10
-24.9301669741
 20
22.8131723923
 10
-24.8792984542
 20
22.8317625023
 10
-24.8269303864
 20
22.8493074077
 10
-24.772467512
 20
22.8658927545
 10
-24.7162544604
 20
22.8813472464
 10
-24.6575755242
 20
22.8958693438
 10
-24.5962958794
 20
22.9093894857
 10
-24.5329364446
 20
22.9215991358
 10
-24.4677753304
 20
22.9322647133
 10
-24.4009471749
 20
22.9412470924
 10
-24.3328316328
 20
22.9484658707
 10
-24.2640832495
 20
22.9538507956
 10
-24.1944424158
 20
22.9574588336
 10
-24.1237148754
 20
22.9593356246
 10
-24.0526714841
 20
22.9595133487
 10
-23.9815294384
 20
22.9580185427
 10
-23.910166314
 20
22.954874821
 10
-23.8388718289
 20
22.950177051
 10
-23.767241911
 20
22.9438582414
 10
-23.6956440987
 20
22.9360267431
 10
-23.6255058825
 20
22.927147415
 10
-23.5577349387
 20
22.9175616429
 10
-23.4913215979
 20
22.9071511873
 10
-23.4248619695
 20
22.8956969323
 10
-23.3591084976
 20
22.8834137236
 10
-23.2936463933
 20
22.8701514178
 10
-23.2252309294
 20
22.8548474785
 10
-23.1529217583
 20
22.8369792817
 10
-23.0779490564
 20
22.8167538769
 10
-23.0002534617
 20
22.7939708015
  0
LINE
  5
267
100
AcDbEntity
  8
RACCORDO
100
AcDbLine
 62
250
  6
CONTINUOUS
 10
-23.1809895215
 20
20.2309813627
 11
-23.1632002982
 21
20.2493289384
  0
LWPOLYLINE
  5
268
100
AcDbEntity
  8
0
100
AcDbPolyline
 62
250
  6
CONTINUOUS
 90
15
 70
0
 10
17.875394865
 20
-26.8129608009
 10
17.8691923281
 20
-26.8146888734
 10
17.8593568098
 20
-26.8168930347
 10
17.8492574363
 20
-26.818635642
 10
17.8389134325
 20
-26.8199133781
 10
17.8283444887
 20
-26.8207238106
 10
17.8175707235
 20
-26.821065397
 10
17.8066126454
 20
-26.820937487
 10
17.7954911137
 20
-26.820340324
 10
17.7842272989
 20
-26.8192750448
 10
17.7728426422
 20
-26.8177436773
 10
17.7613588151
 20
-26.8157491364
 10
17.7497976776
 20
-26.8132952189
 10
17.7381812371
 20
-26.810386596
 10
17.726531606
 20
-26.8070288044
  0
LWPOLYLINE
  5
269
100
AcDbEntity
  8
RACCORDO
100
AcDbPolyline
 62
250
  6
CONTINUOUS
 90
22
 70
0
 10
19.0605615933
 20
-27.5480845936
 10
19.1407236406
 20
-27.5373334137
 10
19.2212282933
 20
-27.5279543653
 10
19.3020163227
 20
-27.5199543489
 10
19.3830282918
 20
-27.5133392503
 10
19.4642045986
 20
-27.5081139365
 10
19.5454855203
 20
-27.504282252
 10
19.6268112573
 20
-27.5018470159
 10
19.7081219768
 20
-27.50081002
 10
19.7893578572
 20
-27.5011720272
 10
19.8704591317
 20
-27.5029327715
 10
19.9513661329
 20
-27.5060909574
 10
20.0320193361
 20
-27.5106442615
 10
20.1123594034
 20
-27.516589334
 10
20.1923272272
 20
-27.523921801
 10
20.2718639738
 20
-27.5326362681
 10
20.3509111267
 20
-27.542726324
 10
20.4294105297
 20
-27.5541845452
 10
20.5073044292
 20
-27.567002502
 10
20.5845355176
 20
-27.5811707638
 10
20.6610469746
 20
-27.5966789071
 10
20.7367825093
 20
-27.6135155223
  0
LWPOLYLINE
  5
26A
100
AcDbEntity
  8
RACCORDO
100
AcDbPolyline
 62
250
  6
CONTINUOUS
 90
61
 70
0
 10
32.3756955238
 20
-41.9656093571
 10
32.4190306625
 20
-41.9762180619
 10
32.4623011714
 20
-41.9859372295
 10
32.5054756776
 20
-41.9947558361
 10
32.5485248075
 20
-42.0026637009
 10
32.591421914
 20
-42.0096522973
 10
32.6341398477
 20
-42.015713264
 10
32.6766570589
 20
-42.0208394751
 10
32.7189418898
 20
-42.0250237782
 10
32.7609521655
 20
-42.0282589122
 10
32.8026603918
 20
-42.030540037
 10
32.8440417773
 20
-42.0318636783
 10
32.8850587876
 20
-42.0322265228
 10
32.9256789648
 20
-42.0316269139
 10
32.9658832106
 20
-42.0300650764
 10
33.0056540567
 20
-42.0275407658
 10
33.0449656711
 20
-42.0240540986
 10
33.0837923731
 20
-42.0196064686
 10
33.1221163419
 20
-42.0141983745
 10
33.1599189439
 20
-42.0078300865
 10
33.1971697399
 20
-42.0005050826
 10
33.2338334092
 20
-41.9922290601
 10
33.269882221
 20
-41.9830075252
 10
33.3052987037
 20
-41.9728451381
 10
33.3400633286
 20
-41.9617470207
 10
33.3741548261
 20
-41.9497190007
 10
33.4075494695
 20
-41.9367694318
 10
33.4402239316
 20
-41.9229070732
 10
33.4721595791
 20
-41.9081389952
 10
33.5033327175
 20
-41.8924763612
 10
33.5337132822
 20
-41.8759350691
 10
33.5632766862
 20
-41.8585300027
 10
33.5920119708
 20
-41.8402702258
 10
33.619909694
 20
-41.8211631037
 10
33.6469527185
 20
-41.8012205544
 10
33.6731225335
 20
-41.780457023
 10
33.6984064052
 20
-41.7588824607
 10
33.7227904797
 20
-41.7365069918
 10
33.7462535693
 20
-41.713349718
 10
33.7687723241
 20
-41.6894343586
 10
33.790329473
 20
-41.6647804099
 10
33.8109143045
 20
-41.6394027861
 10
33.8305142545
 20
-41.6133190744
 10
33.8491166125
 20
-41.5865473562
 10
33.8667096291
 20
-41.5591068771
 10
33.8832821649
 20
-41.5310169383
 10
33.8988244755
 20
-41.5022942213
 10
33.9133231909
 20
-41.4729629199
 10
33.9267626799
 20
-41.443054206
 10
33.9391306762
 20
-41.4125955366
 10
33.9504214002
 20
-41.3816049696
 10
33.9606295391
 20
-41.3500998029
 10
33.969748074
 20
-41.3181008226
 10
33.9777693397
 20
-41.2856342894
 10
33.984686611
 20
-41.252725507
 10
33.9904937491
 20
-41.2193973249
 10
33.9951847597
 20
-41.1856763783
 10
33.9987539299
 20
-41.1515938582
 10
34.0011965132
 20
-41.1171773655
 10
34.0025072527
 20
-41.0824541849
 10
34.0026801818
 20
-41.047455715
  0
LWPOLYLINE
  5
26B
100
AcDbEntity
  8
RACCORDO
100
AcDbPolyline
 62
250
  6
CONTINUOUS
 90
3
 70
0
 10
31.9473367737
 20
-41.8553450229
 10
32.1212327022
 20
-41.9002372455
 10
32.3756955276
 20
-41.9656093509
  0
LWPOLYLINE
  5
26C
100
AcDbEntity
  8
RACCORDO
100
AcDbPolyline
 62
7
  6
CONTINUOUS
 90
43
 70
0
 10
32.520928514
 20
-42.2494658002
 10
32.5840834139
 20
-42.2664608964
 10
32.6511154792
 20
-42.2830000244
 10
32.7182131997
 20
-42.2980049003
 10
32.7853764467
 20
-42.3114639457
 10
32.8525493001
 20
-42.3233546193
 10
32.9196159758
 20
-42.3336475852
 10
32.98654974
 20
-42.3423327622
 10
33.0533219611
 20
-42.3493998498
 10
33.1198140244
 20
-42.3548313788
 10
33.1859969387
 20
-42.3586236608
 10
33.2518435853
 20
-42.3607731985
 10
33.3172392194
 20
-42.3612761363
 10
33.3821555856
 20
-42.3601358285
 10
33.4465642723
 20
-42.3573557591
 10
33.5103508446
 20
-42.3529461971
 10
33.5734892033
 20
-42.34691831
 10
33.6359487044
 20
-42.3392840266
 10
33.6976089223
 20
-42.3300700899
 10
33.7584259415
 20
-42.3193004034
 10
33.8183897084
 20
-42.3069941454
 10
33.8774311495
 20
-42.2931833925
 10
33.9354988954
 20
-42.2779018365
 10
33.9925932688
 20
-42.2611717741
 10
34.0487204903
 20
-42.2430108524
 10
34.1038538606
 20
-42.2234461915
 10
34.1579677485
 20
-42.2025066815
 10
34.2110654212
 20
-42.1802094701
 10
34.2631200037
 20
-42.1565829318
 10
34.3141056024
 20
-42.1316573344
 10
34.3640227232
 20
-42.1054502794
 10
34.412843082
 20
-42.0779932268
 10
34.4605428083
 20
-42.0493169306
 10
34.5071256442
 20
-42.019436395
 10
34.5525661032
 20
-41.9883839729
 10
34.5968392409
 20
-41.9561930285
 10
34.6399464106
 20
-41.9228784186
 10
34.6818638152
 20
-41.8884742282
 10
34.7225679569
 20
-41.853015998
 10
34.7620581605
 20
-41.81651945
 10
34.8003187697
 20
-41.7790134726
 10
34.8373216137
 20
-41.7405417266
 10
34.8445024731
 20
-41.7328074162
  0
LWPOLYLINE
  5
26D
100
AcDbEntity
  8
RACCORDO
100
AcDbPolyline
 62
250
  6
CONTINUOUS
 90
3
 70
0
 10
31.8530383305
 20
-41.8299817003
 10
31.9006936697
 20
-41.8430222613
 10
31.9473367737
 20
-41.8553450229
  0
LINE
  5
26E
100
AcDbEntity
  8
RACCORDO
100
AcDbLine
 62
250
  6
CONTINUOUS
 10
31.7544232256
 20
-41.8022125676
 11
31.8530383305
 21
-41.8299817003
  0
LINE
  5
26F
100
AcDbEntity
  8
RACCORDO
100
AcDbLine
 62
250
  6
CONTINUOUS
 10
27.293562471
 20
-40.52189474
 11
28.0059544451
 21
-40.724443496
  0
LINE
  5
270
100
AcDbEntity
  8
RACCORDO
100
AcDbLine
 62
250
  6
CONTINUOUS
 10
26.9024184348
 20
-40.4099834546
 11
27.293562471
 21
-40.52189474
  0
LINE
  5
271
100
AcDbEntity
  8
RACCORDO
100
AcDbLine
 62
250
  6
CONTINUOUS
 10
29.9811364306
 20
-41.2914980098
 11
30.1809477111
 21
-41.3488349203
  0
LINE
  5
272
100
AcDbEntity
  8
RACCORDO
100
AcDbLine
 62
250
  6
CONTINUOUS
 10
30.1809477111
 20
-41.3488349203
 11
30.3692679152
 21
-41.4029115011
  0
LINE
  5
273
100
AcDbEntity
  8
RACCORDO
100
AcDbLine
 62
250
  6
CONTINUOUS
 10
30.3692679152
 20
-41.4029115011
 11
30.5466961778
 21
-41.4539000907
  0
LINE
  5
274
100
AcDbEntity
  8
RACCORDO
100
AcDbLine
 62
250
  6
CONTINUOUS
 10
30.5466961778
 20
-41.4539000907
 11
30.7942166737
 21
-41.525101339
  0
LINE
  5
275
100
AcDbEntity
  8
RACCORDO
100
AcDbLine
 62
250
  6
CONTINUOUS
 10
28.0059544451
 20
-40.724443496
 11
29.9811364306
 21
-41.2914980098
  0
LINE
  5
276
100
AcDbEntity
  8
RACCORDO
100
AcDbLine
 62
250
  6
CONTINUOUS
 10
30.7942166737
 20
-41.525101339
 11
30.9479262723
 21
-41.5693563085
  0
LINE
  5
277
100
AcDbEntity
  8
RACCORDO
100
AcDbLine
 62
250
  6
CONTINUOUS
 10
30.9479262723
 20
-41.5693563085
 11
31.0933748703
 21
-41.6112624759
  0
LINE
  5
278
100
AcDbEntity
  8
RACCORDO
100
AcDbLine
 62
250
  6
CONTINUOUS
 10
26.4853355631
 20
-40.2898056039
 11
26.9024184348
 21
-40.4099834546
  0
LINE
  5
279
100
AcDbEntity
  8
RACCORDO
100
AcDbLine
 62
250
  6
CONTINUOUS
 10
31.0933748703
 20
-41.6112624759
 11
31.4818939413
 21
-41.723366969
  0
LINE
  5
27A
100
AcDbEntity
  8
RACCORDO
100
AcDbLine
 62
250
  6
CONTINUOUS
 10
31.4818939413
 20
-41.723366969
 11
31.7544232256
 21
-41.8022125676
  0
LINE
  5
27B
100
AcDbEntity
  8
RACCORDO
100
AcDbLine
 62
250
  6
CONTINUOUS
 10
25.0718681758
 20
-39.878135485
 11
25.3247221159
 21
-39.9518202406
  0
LINE
  5
27C
100
AcDbEntity
  8
RACCORDO
100
AcDbLine
 62
250
  6
CONTINUOUS
 10
24.5430668345
 20
-39.7239893433
 11
25.0718681758
 21
-39.878135485
  0
LWPOLYLINE
  5
27D
100
AcDbEntity
  8
RACCORDO
100
AcDbPolyline
 62
250
  6
CONTINUOUS
 90
4
 70
0
 10
25.3247221159
 20
-39.9518202406
 10
25.8095235187
 20
-40.0932070675
 10
26.0415731629
 20
-40.1609316904
 10
26.4853355631
 20
-40.2898056039
  0
LINE
  5
27E
100
AcDbEntity
  8
RACCORDO
100
AcDbLine
 62
250
  6
CONTINUOUS
 10
23.388030133
 20
-39.3867027974
 11
24.5430668345
 21
-39.7239893433
  0
LINE
  5
27F
100
AcDbEntity
  8
RACCORDO
100
AcDbLine
 62
250
  6
CONTINUOUS
 10
22.4257023843
 20
-39.104402259
 11
23.388030133
 21
-39.3867027974
  0
LINE
  5
280
100
AcDbEntity
  8
RACCORDO
100
AcDbLine
 62
250
  6
CONTINUOUS
 10
21.7331425994
 20
-38.9000739092
 11
22.4257023843
 21
-39.104402259
  0
LINE
  5
281
100
AcDbEntity
  8
RACCORDO
100
AcDbLine
 62
7
  6
CONTINUOUS
 10
27.6025070366
 20
-40.7908703641
 11
28.4878187293
 21
-41.0533142037
  0
LINE
  5
282
100
AcDbEntity
  8
RACCORDO
100
AcDbLine
 62
250
  6
CONTINUOUS
 10
20.9970255695
 20
-38.6816906333
 11
21.7331425994
 21
-38.9000739092
  0
LWPOLYLINE
  5
283
100
AcDbEntity
  8
RACCORDO
100
AcDbPolyline
 62
7
  6
CONTINUOUS
 90
5
 70
0
 10
28.4878187293
 20
-41.0533142037
 10
31.3750191291
 20
-41.9126206378
 10
31.7635580464
 20
-42.028562153
 10
32.1491178333
 20
-42.1432057751
 10
32.5209333583
 20
-42.2494671934
  0
LWPOLYLINE
  5
284
100
AcDbEntity
  8
RACCORDO
100
AcDbPolyline
 62
7
  6
CONTINUOUS
 90
3
 70
0
 10
26.6858522533
 20
-40.5178410626
 10
27.1479510745
 20
-40.655766275
 10
27.6025070366
 20
-40.7908703641
  0
LINE
  5
285
100
AcDbEntity
  8
RACCORDO
100
AcDbLine
 62
7
  6
CONTINUOUS
 10
23.2049244022
 20
-39.475071753
 11
26.6858522533
 21
-40.5178410626
  0
LINE
  5
286
100
AcDbEntity
  8
RACCORDO
100
AcDbLine
 62
250
  6
CONTINUOUS
 10
-16.1001765118
 20
-27.308942031
 11
-13.1249035645
 21
-28.2160882817
  0
LWPOLYLINE
  5
287
100
AcDbEntity
  8
RACCORDO
100
AcDbPolyline
 62
7
  6
CONTINUOUS
 90
9
 70
0
 10
18.055894673
 20
-37.9146057314
 10
18.6660465015
 20
-38.1010646566
 10
19.2663392496
 20
-38.2841344334
 10
19.8571355914
 20
-38.4639216495
 10
20.4384610761
 20
-38.6404348631
 10
21.0102706806
 20
-38.8136731594
 10
21.5728194674
 20
-38.983731143
 10
22.1261645646
 20
-39.1506450129
 10
23.2049244022
 20
-39.475071753
  0
LWPOLYLINE
  5
288
100
AcDbEntity
  8
RACCORDO
100
AcDbPolyline
 62
250
  6
CONTINUOUS
 90
3
 70
0
 10
-13.1249035645
 20
-28.2160882817
 10
-11.8076296339
 20
-28.6185651224
 10
-11.1208722329
 20
-28.8289140219
  0
LINE
  5
289
100
AcDbEntity
  8
RACCORDO
100
AcDbLine
 62
7
  6
CONTINUOUS
 10
-16.3710166894
 20
-27.3427092958
 11
-12.360236877
 21
-28.5699878309
  0
LWPOLYLINE
  5
28A
100
AcDbEntity
  8
RACCORDO
100
AcDbPolyline
 62
250
  6
CONTINUOUS
 90
10
 70
0
 10
16.5485845144
 20
-37.3362823632
 10
17.0573333769
 20
-37.4921083703
 10
17.5509872362
 20
-37.642893018
 10
18.0294975423
 20
-37.788632771
 10
18.493921686
 20
-37.9296702282
 10
18.9442076979
 20
-38.0659859652
 10
19.3803892353
 20
-38.1976050154
 10
19.8036536687
 20
-38.3249366948
 10
20.2139816008
 20
-38.4479829956
 10
20.9970255695
 20
-38.6816906333
  0
LINE
  5
28B
100
AcDbEntity
  8
RACCORDO
100
AcDbLine
 62
7
  6
CONTINUOUS
 10
16.8059932094
 20
-37.5315767106
 11
18.055894673
 21
-37.9146057314
  0
LINE
  5
28C
100
AcDbEntity
  8
RACCORDO
100
AcDbLine
 62
7
  6
CONTINUOUS
 10
-17.6617492048
 20
-26.9468785451
 11
-16.3710166894
 21
-27.3427092958
  0
LINE
  5
28D
100
AcDbEntity
  8
RACCORDO
100
AcDbLine
 62
7
  6
CONTINUOUS
 10
-12.360236877
 20
-28.5699878309
 11
-10.992742865
 21
-28.9892702028
  0
LINE
  5
28E
100
AcDbEntity
  8
RACCORDO
100
AcDbLine
 62
250
  6
CONTINUOUS
 10
-11.1208722367
 20
-28.8289140024
 11
9.8098863352
 21
-35.2565471835
  0
LINE
  5
28F
100
AcDbEntity
  8
RACCORDO
100
AcDbLine
 62
7
  6
CONTINUOUS
 10
-10.9927477679
 20
-28.9892686948
 11
10.6617949246
 21
-35.6393827034
  0
LINE
  5
290
100
AcDbEntity
  8
RACCORDO
100
AcDbLine
 62
7
  6
CONTINUOUS
 10
15.5154288868
 20
-37.1348756332
 11
16.8059932094
 21
-37.5315767106
  0
LINE
  5
291
100
AcDbEntity
  8
RACCORDO
100
AcDbLine
 62
250
  6
CONTINUOUS
 10
15.4844736962
 20
-37.0091920315
 11
16.5485845144
 21
-37.3362823632
  0
LINE
  5
292
100
AcDbEntity
  8
RACCORDO
100
AcDbLine
 62
250
  6
CONTINUOUS
 10
9.8098629321
 20
-35.2565399992
 11
10.5206393181
 21
-35.4753985118
  0
LWPOLYLINE
  5
293
100
AcDbEntity
  8
RACCORDO
100
AcDbPolyline
 62
7
  6
CONTINUOUS
 90
4
 70
0
 10
10.6617949246
 20
-35.6393827034
 10
12.1040640542
 20
-36.0835327233
 10
12.8081875424
 20
-36.3005921597
 10
15.5154288868
 20
-37.1348756332
  0
LINE
  5
294
100
AcDbEntity
  8
RACCORDO
100
AcDbLine
 62
250
  6
CONTINUOUS
 10
14.3554604777
 20
-36.6607898456
 11
15.4844736962
 21
-37.0091920315
  0
LINE
  5
295
100
AcDbEntity
  8
RACCORDO
100
AcDbLine
 62
250
  6
CONTINUOUS
 10
10.5206393181
 20
-35.4753985118
 11
11.8800520768
 21
-35.8950120805
  0
LWPOLYLINE
  5
296
100
AcDbEntity
  8
RACCORDO
100
AcDbPolyline
 62
250
  6
CONTINUOUS
 90
3
 70
0
 10
11.8800520768
 20
-35.8950120805
 10
13.155429497
 20
-36.2896459876
 10
14.3554604777
 20
-36.6607898456
  0
LWPOLYLINE
  5
297
100
AcDbEntity
  8
RACCORDO
100
AcDbPolyline
 62
7
  6
CONTINUOUS
 90
9
 70
0
 10
-23.1622257192
 20
-25.2430537788
 10
-22.576710796
 20
-25.4260573048
 10
-21.9847303082
 20
-25.6106615097
 10
-21.3862410451
 20
-25.7968690757
 10
-20.781336098
 20
-25.9846426446
 10
-20.1700014696
 20
-26.1739826701
 10
-19.5522678568
 20
-26.3648893213
 10
-18.9282992194
 20
-26.5573276555
 10
-17.6617492048
 20
-26.9468785451
  0
LWPOLYLINE
  5
298
100
AcDbEntity
  8
RACCORDO
100
AcDbPolyline
 62
250
  6
CONTINUOUS
 90
11
 70
0
 10
-21.2922458487
 20
-25.7035628845
 10
-20.889771379
 20
-25.8298559398
 10
-20.4744609792
 20
-25.9597883169
 10
-20.0463173464
 20
-26.0933527953
 10
-19.6042001276
 20
-26.2308598507
 10
-19.1480680316
 20
-26.3723088929
 10
-18.6779641561
 20
-26.5176908512
 10
-18.1928756504
 20
-26.6673029764
 10
-17.6927280547
 20
-26.8211579644
 10
-17.1776123592
 20
-26.9792482331
 10
-16.1001765118
 20
-27.308942031
  0
LINE
  5
299
100
AcDbEntity
  8
RACCORDO
100
AcDbLine
 62
7
  6
CONTINUOUS
 10
-24.3135679365
 20
-24.8820768482
 11
-23.1622257192
 21
-25.2430537788
  0
LINE
  5
29A
100
AcDbEntity
  8
RACCORDO
100
AcDbLine
 62
7
  6
CONTINUOUS
 10
-27.6076615787
 20
-23.8454774592
 11
-25.9906894608
 21
-24.3545278131
  0
LINE
  5
29B
100
AcDbEntity
  8
RACCORDO
100
AcDbLine
 62
7
  6
CONTINUOUS
 10
-25.9906894608
 20
-24.3545278131
 11
-24.3135679365
 21
-24.8820768482
  0
LINE
  5
29C
100
AcDbEntity
  8
RACCORDO
100
AcDbLine
 62
250
  6
CONTINUOUS
 10
-22.0598795811
 20
-25.4616247546
 11
-21.2922458487
 21
-25.7035628845
  0
LINE
  5
29D
100
AcDbEntity
  8
RACCORDO
100
AcDbLine
 62
7
  6
CONTINUOUS
 10
-33.0037876466
 20
-22.1363521159
 11
-31.6200433393
 21
-22.5738172723
  0
LWPOLYLINE
  5
29E
100
AcDbEntity
  8
RACCORDO
100
AcDbPolyline
 62
7
  6
CONTINUOUS
 90
5
 70
0
 10
-31.6200433393
 20
-22.5738172723
 10
-29.1645134002
 20
-23.3519660675
 10
-28.6528558221
 20
-23.5147142716
 10
-28.1337469136
 20
-23.6793373457
 10
-27.6076615787
 20
-23.8454774592
  0
LINE
  5
29F
100
AcDbEntity
  8
RACCORDO
100
AcDbLine
 62
250
  6
CONTINUOUS
 10
-22.7809106858
 20
-25.2331035754
 11
-22.0598795811
 21
-25.4616247546
  0
LINE
  5
2A0
100
AcDbEntity
  8
RACCORDO
100
AcDbLine
 62
250
  6
CONTINUOUS
 10
-23.458713851
 20
-25.0171623119
 11
-22.7809106858
 21
-25.2331035754
  0
LINE
  5
2A1
100
AcDbEntity
  8
RACCORDO
100
AcDbLine
 62
250
  6
CONTINUOUS
 10
-24.3996390537
 20
-24.7157128167
 11
-23.458713851
 21
-25.0171623119
  0
LINE
  5
2A2
100
AcDbEntity
  8
RACCORDO
100
AcDbLine
 62
250
  6
CONTINUOUS
 10
-26.0458025443
 20
-24.1853626705
 11
-24.3996390537
 21
-24.7157128167
  0
LINE
  5
2A3
100
AcDbEntity
  8
RACCORDO
100
AcDbLine
 62
250
  6
CONTINUOUS
 10
-27.8509866482
 20
-23.6021752803
 11
-26.0458025443
 21
-24.1853626705
  0
LINE
  5
2A4
100
AcDbEntity
  8
RACCORDO
100
AcDbLine
 62
250
  6
CONTINUOUS
 10
-32.9981428712
 20
-21.9171175094
 11
-32.3391954257
 21
-22.1315979699
  0
LINE
  5
2A5
100
AcDbEntity
  8
RACCORDO
100
AcDbLine
 62
250
  6
CONTINUOUS
 10
-32.3391954257
 20
-22.1315979699
 11
-31.5343098922
 21
-22.3945355546
  0
LINE
  5
2A6
100
AcDbEntity
  8
RACCORDO
100
AcDbLine
 62
250
  6
CONTINUOUS
 10
-28.2397701952
 20
-23.4751438459
 11
-27.8509866482
 21
-23.6021752803
  0
LINE
  5
2A7
100
AcDbEntity
  8
RACCORDO
100
AcDbLine
 62
7
  6
CONTINUOUS
 10
-33.4369326772
 20
-21.9944304266
 11
-33.0037876466
 21
-22.1363521159
  0
LINE
  5
2A8
100
AcDbEntity
  8
RACCORDO
100
AcDbLine
 62
250
  6
CONTINUOUS
 10
-30.49182132
 20
-22.7360404832
 11
-29.5722742459
 21
-23.0366156579
  0
LINE
  5
2A9
100
AcDbEntity
  8
RACCORDO
100
AcDbLine
 62
250
  6
CONTINUOUS
 10
-31.5343098922
 20
-22.3945355546
 11
-30.49182132
 21
-22.7360404832
  0
LWPOLYLINE
  5
2AA
100
AcDbEntity
  8
RACCORDO
100
AcDbPolyline
 62
250
  6
CONTINUOUS
 90
4
 70
0
 10
-29.5722742459
 20
-23.0366156579
 10
-29.2704333927
 20
-23.1356899541
 10
-29.1118659695
 20
-23.1879982123
 10
-28.2397701952
 20
-23.4751438459
  0
LWPOLYLINE
  5
2AB
100
AcDbEntity
  8
RACCORDO
100
AcDbPolyline
 62
250
  6
CONTINUOUS
 90
4
 70
0
 10
-33.1890589497
 20
-21.8520891886
 10
-33.1432269957
 20
-21.8681642197
 10
-33.0960796333
 20
-21.8843155793
 10
-32.9981428712
 20
-21.9171175094
  0
LINE
  5
2AC
100
AcDbEntity
  8
RACCORDO
100
AcDbLine
 62
250
  6
CONTINUOUS
 10
-33.4325925251
 20
-21.7652019901
 11
-33.1890589497
 21
-21.8520891886
  0
LINE
  5
2AD
100
AcDbEntity
  8
RACCORDO
100
AcDbLine
 62
250
  6
CONTINUOUS
 10
-33.5983604908
 20
-21.7056160053
 11
-33.4325925251
 21
-21.7652019901
  0
LWPOLYLINE
  5
2AE
100
AcDbEntity
  8
RACCORDO
100
AcDbPolyline
 62
250
  6
CONTINUOUS
 90
27
 70
0
 10
-35.3096075329
 20
-19.7623236522
 10
-35.3381616503
 20
-19.7493174501
 10
-35.3659649819
 20
-19.7356229972
 10
-35.3929828287
 20
-19.7212573844
 10
-35.4191814722
 20
-19.7062385403
 10
-35.4445282162
 20
-19.6905852084
 10
-35.4689914276
 20
-19.6743169244
 10
-35.492540576
 20
-19.6574539913
 10
-35.5151462717
 20
-19.6400174542
 10
-35.5367803026
 20
-19.6220290741
 10
-35.5574156692
 20
-19.6035113009
 10
-35.5770266182
 20
-19.5844872448
 10
-35.5955886749
 20
-19.5649806481
 10
-35.6130786737
 20
-19.5450158554
 10
-35.6294747869
 20
-19.5246177828
 10
-35.6447565518
 20
-19.5038118876
 10
-35.6589048966
 20
-19.4826241357
 10
-35.671902164
 20
-19.4610809696
 10
-35.6837321334
 20
-19.4392092755
 10
-35.6943800406
 20
-19.4170363496
 10
-35.7038325971
 20
-19.394589864
 10
-35.7120780058
 20
-19.3718978321
 10
-35.7191059765
 20
-19.3489885739
 10
-35.7249077381
 20
-19.3258906804
 10
-35.72947605
 20
-19.3026329781
 10
-35.7328052108
 20
-19.2792444928
 10
-35.7348037299
 20
-19.2567379546
  0
LWPOLYLINE
  5
2AF
100
AcDbEntity
  8
RACCORDO
100
AcDbPolyline
 62
250
  6
CONTINUOUS
 90
45
 70
0
 10
-23.2612104891
 20
21.2309583205
 10
-23.2697635914
 20
21.1985656653
 10
-23.27788423
 20
21.1661893105
 10
-23.2855631938
 20
21.1338659754
 10
-23.2927917748
 20
21.1016323094
 10
-23.2995617711
 20
21.0695248803
 10
-23.3058654975
 20
21.0375801326
 10
-23.311695803
 20
21.0058343058
 10
-23.3170460773
 20
20.9743233943
 10
-23.3219102524
 20
20.9430831361
 10
-23.3262828115
 20
20.9121489619
 10
-23.3301587957
 20
20.8815559555
 10
-23.333533809
 20
20.8513388137
 10
-23.3364040236
 20
20.8215318071
 10
-23.3387661843
 20
20.792168741
 10
-23.3406176121
 20
20.7632829173
 10
-23.3419562072
 20
20.7349070966
 10
-23.3427804515
 20
20.7070734612
 10
-23.3430894101
 20
20.6798135783
 10
-23.3428827327
 20
20.6531583645
 10
-23.3421606536
 20
20.6271380505
 10
-23.3409239918
 20
20.6017821472
 10
-23.3391741498
 20
20.5771194117
 10
-23.3369131122
 20
20.5531778151
 10
-23.3341434434
 20
20.5299845104
 10
-23.3308682845
 20
20.5075658023
 10
-23.32709135
 20
20.4859471167
 10
-23.3228169235
 20
20.4651529723
 10
-23.3180498529
 20
20.4452069525
 10
-23.3127955445
 20
20.426131679
 10
-23.3070599577
 20
20.4079487859
 10
-23.3008495974
 20
20.3906788952
 10
-23.2941715069
 20
20.3743415932
 10
-23.2870332601
 20
20.358955409
 10
-23.279442953
 20
20.3445377925
 10
-23.2714091939
 20
20.3311050954
 10
-23.2629410943
 20
20.3186725523
 10
-23.2540482582
 20
20.3072542635
 10
-23.2447407713
 20
20.2968631788
 10
-23.2350291897
 20
20.2875110834
 10
-23.2249245276
 20
20.2792085837
 10
-23.2144382452
 20
20.271965096
 10
-23.2035822354
 20
20.2657888355
 10
-23.1923688105
 20
20.2606868068
 10
-23.1820008697
 20
20.2570241604
  0
LWPOLYLINE
  5
2B0
100
AcDbEntity
  8
RACCORDO
100
AcDbPolyline
 62
250
  6
CONTINUOUS
 90
22
 70
0
 10
-23.2612104893
 20
21.2309583205
 10
-23.2395697313
 20
21.3091721598
 10
-23.2187720107
 20
21.3873680775
 10
-23.1988327083
 20
21.4654882448
 10
-23.17976657
 20
21.5434748888
 10
-23.161587696
 20
21.6212703352
 10
-23.1443095303
 20
21.6988170514
 10
-23.1279448507
 20
21.7760576884
 10
-23.1125057595
 20
21.8529351239
 10
-23.0980036746
 20
21.9293925039
 10
-23.0844493208
 20
22.0053732853
 10
-23.0718527221
 20
22.0808212773
 10
-23.0602231942
 20
22.1556806831
 10
-23.0495693376
 20
22.2298961414
 10
-23.0398990312
 20
22.3034127669
 10
-23.0312194266
 20
22.3761761911
 10
-23.0235369427
 20
22.4481326027
 10
-23.016857261
 20
22.5192287872
 10
-23.0111853214
 20
22.589412166
 10
-23.0065253185
 20
22.658630836
 10
-23.0028806986
 20
22.7268336071
 10
-23.0002541571
 20
22.7939700407
  0
LWPOLYLINE
  5
2B1
100
AcDbEntity
  8
RACCORDO
100
AcDbPolyline
 62
7
  6
CONTINUOUS
 90
5
 70
0
 10
-21.7918802448
 20
18.9601075805
 10
-21.7916192241
 20
18.9605248945
 10
-21.7828376671
 20
18.9764850934
 10
-21.7779718977
 20
18.988754318
 10
-21.7771969013
 20
18.9941904867
  0
LWPOLYLINE
  5
2B2
100
AcDbEntity
  8
RACCORDO
100
AcDbPolyline
 62
250
  6
CONTINUOUS
 90
53
 70
0
 10
19.0605616178
 20
-27.548084677
 10
19.0272961454
 20
-27.5521045866
 10
18.9938664376
 20
-27.5554160162
 10
18.9603105972
 20
-27.5580155147
 10
18.9266685122
 20
-27.5599003676
 10
18.8929768059
 20
-27.5610688974
 10
18.8592687758
 20
-27.5615201095
 10
18.8255810671
 20
-27.5612534599
 10
18.7919536468
 20
-27.5602692116
 10
18.7584247415
 20
-27.5585684834
 10
18.7250324661
 20
-27.5561532088
 10
18.6918147801
 20
-27.5530261333
 10
18.6588094445
 20
-27.5491908117
 10
18.6260539788
 20
-27.5446516039
 10
18.5935856186
 20
-27.5394136699
 10
18.5614412731
 20
-27.5334829642
 10
18.5296574832
 20
-27.5268662285
 10
18.4982703799
 20
-27.5195709847
 10
18.4673156431
 20
-27.5116055256
 10
18.4368284615
 20
-27.5029789064
 10
18.406843492
 20
-27.4937009334
 10
18.3773948208
 20
-27.4837821537
 10
18.3485159244
 20
-27.4732338427
 10
18.3202396316
 20
-27.4620679913
 10
18.292598086
 20
-27.4502972927
 10
18.26562271
 20
-27.4379351275
 10
18.2393441684
 20
-27.4249955487
 10
18.2137923339
 20
-27.4114932656
 10
18.1889962532
 20
-27.3974436272
 10
18.1649841139
 20
-27.382862605
 10
18.1417832124
 20
-27.3677667741
 10
18.1194199228
 20
-27.3521732951
 10
18.0979196671
 20
-27.3360998943
 10
18.0773068862
 20
-27.3195648435
 10
18.0576050123
 20
-27.3025869393
 10
18.0388364419
 20
-27.2851854818
 10
18.0210225106
 20
-27.2673802525
 10
18.0041834688
 20
-27.2491914919
 10
17.9883384588
 20
-27.2306398765
 10
17.9735054927
 20
-27.2117464953
 10
17.9597014323
 20
-27.1925328258
 10
17.9469419696
 20
-27.1730207096
 10
17.9352416092
 20
-27.1532323276
 10
17.9246136519
 20
-27.1331901747
 10
17.9150701793
 20
-27.1129170343
 10
17.90662204
 20
-27.0924359524
 10
17.8992788377
 20
-27.0717702113
 10
17.89304892
 20
-27.0509433033
 10
17.8879393689
 20
-27.0299789039
 10
17.8839559928
 20
-27.0089008449
 10
17.8811033199
 20
-26.9877330872
 10
17.879384593
 20
-26.9664996939
 10
17.8789249196
 20
-26.9548634413
  0
LWPOLYLINE
  5
2B3
100
AcDbEntity
  8
RACCORDO
100
AcDbPolyline
 62
250
  6
CONTINUOUS
 90
22
 70
0
 10
-22.3274067339
 20
-16.3064924404
 10
-22.3032395032
 20
-16.3298673334
 10
-22.2798651853
 20
-16.3552725762
 10
-22.2573010644
 20
-16.3826893813
 10
-22.2355638256
 20
-16.4120974735
 10
-22.2146695423
 20
-16.4434751049
 10
-22.1946336647
 20
-16.4767990713
 10
-22.1754710083
 20
-16.5120447289
 10
-22.1571957428
 20
-16.5491860128
 10
-22.1398213816
 20
-16.588195456
 10
-22.123360772
 20
-16.6290442102
 10
-22.1078260856
 20
-16.6717020667
 10
-22.0932288091
 20
-16.7161374789
 10
-22.0795797364
 20
-16.7623175855
 10
-22.0668889597
 20
-16.8102082352
 10
-22.0551658631
 20
-16.8597740114
 10
-22.0444191146
 20
-16.9109782588
 10
-22.0346566606
 20
-16.9637831103
 10
-22.0258857194
 20
-17.0181495152
 10
-22.0181127762
 20
-17.0740372678
 10
-22.0113435782
 20
-17.1314050374
 10
-22.0055831302
 20
-17.1902103988
  0
LWPOLYLINE
  5
2B4
100
AcDbEntity
  8
RACCORDO
100
AcDbPolyline
 62
250
  6
CONTINUOUS
 90
67
 70
0
 10
-22.3274065188
 20
-16.306491872
 10
-22.3370053932
 20
-16.2968461749
 10
-22.3461971651
 20
-16.2861646852
 10
-22.3549714086
 20
-16.2744595145
 10
-22.363318174
 20
-16.2617439312
 10
-22.3712279908
 20
-16.2480323575
 10
-22.3786918806
 20
-16.233340355
 10
-22.3857013762
 20
-16.2176845914
 10
-22.3922485301
 20
-16.2010828184
 10
-22.398325917
 20
-16.1835538647
 10
-22.4039266442
 20
-16.1651176107
 10
-22.4090443597
 20
-16.1457949655
 10
-22.4136732593
 20
-16.125607844
 10
-22.4178080931
 20
-16.1045791411
 10
-22.4214441718
 20
-16.0827327063
 10
-22.4245773714
 20
-16.0600933167
 10
-22.4272041384
 20
-16.0366866485
 10
-22.4293214938
 20
-16.0125392482
 10
-22.4309270361
 20
-15.9876785023
 10
-22.4320189445
 20
-15.9621326065
 10
-22.4325959805
 20
-15.9359305334
 10
-22.4326574897
 20
-15.909102
 10
-22.4322034024
 20
-15.8816774335
 10
-22.4312342335
 20
-15.8536879374
 10
-22.4297510822
 20
-15.8251652556
 10
-22.4277556307
 20
-15.796141737
 10
-22.4252501421
 20
-15.7666502983
 10
-22.4222374578
 20
-15.736724387
 10
-22.4187209949
 20
-15.7063979434
 10
-22.4147047413
 20
-15.6757053619
 10
-22.4101932522
 20
-15.6446814523
 10
-22.4051916441
 20
-15.6133614
 10
-22.3997055897
 20
-15.5817807265
 10
-22.3937413108
 20
-15.5499752488
 10
-22.3873055719
 20
-15.5179810387
 10
-22.3804056719
 20
-15.4858343822
 10
-22.3730494364
 20
-15.4535717382
 10
-22.3652452083
 20
-15.4212296972
 10
-22.3570018387
 20
-15.3888449395
 10
-22.3483286768
 20
-15.3564541941
 10
-22.3392355592
 20
-15.3240941966
 10
-22.3297327988
 20
-15.291801648
 10
-22.3198311731
 20
-15.2596131725
 10
-22.3095419118
 20
-15.2275652765
 10
-22.2988766846
 20
-15.1956943067
 10
-22.2878475872
 20
-15.1640364095
 10
-22.2764671282
 20
-15.1326274893
 10
-22.2647482147
 20
-15.1015031683
 10
-22.2527041376
 20
-15.0706987459
 10
-22.2403485566
 20
-15.0402491588
 10
-22.2276954846
 20
-15.0101889409
 10
-22.2147592721
 20
-14.980552185
 10
-22.2015545905
 20
-14.9513725032
 10
-22.1880964159
 20
-14.9226829896
 10
-22.1744000116
 20
-14.894516182
 10
-22.1604809114
 20
-14.8669040256
 10
-22.1463549016
 20
-14.8398778365
 10
-22.1320380029
 20
-14.8134682663
 10
-22.1175464528
 20
-14.7877052671
 10
-22.1028966868
 20
-14.7626180579
 10
-22.0881053198
 20
-14.7382350911
 10
-22.0731891272
 20
-14.7145840204
 10
-22.0581650263
 20
-14.6916916695
 10
-22.0430500563
 20
-14.6695840016
 10
-22.0278613599
 20
-14.6482860899
 10
-22.0126161632
 20
-14.6278220893
 10
-21.9973317564
 20
-14.6082152089
  0
LWPOLYLINE
  5
2B5
100
AcDbEntity
  8
RACCORDO
100
AcDbPolyline
 62
250
  6
CONTINUOUS
 90
67
 70
0
 10
-24.0636185149
 20
-14.3050667435
 10
-24.0486020037
 20
-14.323912579
 10
-24.0325775701
 20
-14.342410236
 10
-24.0155638347
 20
-14.3605388093
 10
-23.997581332
 20
-14.3782770665
 10
-23.9786501664
 20
-14.3956057887
 10
-23.9587895804
 20
-14.4125076116
 10
-23.9380212292
 20
-14.4289640268
 10
-23.9163695631
 20
-14.4449555847
 10
-23.8938591952
 20
-14.4604641065
 10
-23.8705157149
 20
-14.4754719623
 10
-23.8463656585
 20
-14.4899620915
 10
-23.8214364795
 20
-14.5039180221
 10
-23.7957565167
 20
-14.5173238891
 10
-23.7693549626
 20
-14.5301644532
 10
-23.7422618301
 20
-14.5424251174
 10
-23.7145079179
 20
-14.554091944
 10
-23.6861247762
 20
-14.5651516704
 10
-23.6571446703
 20
-14.5755917241
 10
-23.6276005444
 20
-14.5854002372
 10
-23.5975259834
 20
-14.5945660594
 10
-23.5669551757
 20
-14.6030787713
 10
-23.5359228734
 20
-14.6109286958
 10
-23.5044643534
 20
-14.6181069093
 10
-23.4726153772
 20
-14.6246052516
 10
-23.44041215
 20
-14.6304163357
 10
-23.4078912799
 20
-14.6355335555
 10
-23.3750897358
 20
-14.639951094
 10
-23.3420448059
 20
-14.6436639294
 10
-23.308794055
 20
-14.6466678409
 10
-23.2753752819
 20
-14.6489594139
 10
-23.2418264764
 20
-14.6505360433
 10
-23.2081857761
 20
-14.6513959368
 10
-23.174491423
 20
-14.6515381169
 10
-23.1407817202
 20
-14.6509624219
 10
-23.1070949883
 20
-14.6496695064
 10
-23.0734695215
 20
-14.6476608401
 10
-23.0399435447
 20
-14.6449387064
 10
-23.0065551695
 20
-14.6415061997
 10
-22.9733423512
 20
-14.6373672221
 10
-22.9403428453
 20
-14.6325264786
 10
-22.9075941651
 20
-14.6269894722
 10
-22.8751335386
 20
-14.6207624971
 10
-22.8429978664
 20
-14.6138526322
 10
-22.8112236797
 20
-14.6062677323
 10
-22.7798470987
 20
-14.5980164198
 10
-22.7489037916
 20
-14.5891080748
 10
-22.7184289343
 20
-14.5795528239
 10
-22.6884571699
 20
-14.5693615294
 10
-22.6590225697
 20
-14.5585457765
 10
-22.6301585943
 20
-14.5471178605
 10
-22.6018980558
 20
-14.5350907722
 10
-22.5742730802
 20
-14.522478184
 10
-22.5473150709
 20
-14.5092944334
 10
-22.5210546732
 20
-14.4955545076
 10
-22.4955217396
 20
-14.4812740257
 10
-22.4707452953
 20
-14.4664692216
 10
-22.4467535056
 20
-14.4511569251
 10
-22.4235736439
 20
-14.4353545428
 10
-22.4012320607
 20
-14.4190800386
 10
-22.3797541534
 20
-14.402351913
 10
-22.3591643376
 20
-14.3851891822
 10
-22.3394860194
 20
-14.3676113565
 10
-22.3207415688
 20
-14.349638418
 10
-22.3029522941
 20
-14.3312907979
 10
-22.2861384176
 20
-14.3125893534
 10
-22.2703190532
 20
-14.2935553441
  0
LWPOLYLINE
  5
2B6
100
AcDbEntity
  8
RACCORDO
100
AcDbPolyline
 62
250
  6
CONTINUOUS
 90
22
 70
0
 10
-24.0636185111
 20
-14.3050667423
 10
-24.099618947
 20
-14.2586432222
 10
-24.1375851367
 20
-14.212882955
 10
-24.177489148
 20
-14.1678196073
 10
-24.2193016226
 20
-14.1234863331
 10
-24.2629917986
 20
-14.0799157492
 10
-24.3085275322
 20
-14.0371399111
 10
-24.3558753221
 20
-13.9951902899
 10
-24.4050003338
 20
-13.9540977486
 10
-24.455866425
 20
-13.9138925197
 10
-24.5084361729
 20
-13.874604183
 10
-24.5626709009
 20
-13.8362616435
 10
-24.6185307076
 20
-13.7988931106
 10
-24.675974496
 20
-13.7625260769
 10
-24.7349600038
 20
-13.7271872984
 10
-24.7954438343
 20
-13.6929027744
 10
-24.8573814886
 20
-13.6596977286
 10
-24.920727398
 20
-13.6275965906
 10
-24.985434958
 20
-13.5966229778
 10
-25.0514565621
 20
-13.566799678
 10
-25.118743637
 20
-13.5381486328
 10
-25.1872466786
 20
-13.5106909213
  0
LWPOLYLINE
  5
2B7
100
AcDbEntity
  8
RACCORDO
100
AcDbPolyline
 62
250
  6
CONTINUOUS
 90
19
 70
0
 10
-24.9152416022
 20
-14.6431272411
 10
-24.9553454888
 20
-14.5400573039
 10
-24.9756583291
 20
-14.4869340816
 10
-24.9962373781
 20
-14.4315312198
 10
-25.0170895271
 20
-14.3738468361
 10
-25.0377971472
 20
-14.3144632567
 10
-25.0578152227
 20
-14.2530488703
 10
-25.0769767792
 20
-14.1889284761
 10
-25.0950668318
 20
-14.1230065985
 10
-25.1115778255
 20
-14.0573023916
 10
-25.1264771155
 20
-13.9921521526
 10
-25.1398104534
 20
-13.9272096663
 10
-25.1513932864
 20
-13.8634446541
 10
-25.1612257344
 20
-13.801132949
 10
-25.1694201206
 20
-13.7400704786
 10
-25.1760452255
 20
-13.6804750496
 10
-25.1811788855
 20
-13.6224129313
 10
-25.18488955
 20
-13.5658147963
 10
-25.1872467673
 20
-13.5106910136
  0
LINE
  5
2B8
100
AcDbEntity
  8
RACCORDO
100
AcDbLine
 62
250
  6
CONTINUOUS
 10
-25.1872466786
 20
-13.5106909213
 11
-25.2022806053
 21
-13.0144538845
  0
LINE
  5
2B9
100
AcDbEntity
  8
RACCORDO
100
AcDbLine
 62
250
  6
CONTINUOUS
 10
-25.2022806053
 20
-13.0144538845
 11
-25.2245757173
 21
-12.245513714
  0
LWPOLYLINE
  5
2BA
100
AcDbEntity
  8
RACCORDO
100
AcDbPolyline
 62
250
  6
CONTINUOUS
 90
3
 70
0
 10
-25.2245757173
 20
-12.245513714
 10
-25.2367884039
 20
-11.8164655897
 10
-25.286272954
 20
-10.0980820575
  0
LINE
  5
2BB
100
AcDbEntity
  8
RACCORDO
100
AcDbLine
 62
250
  6
CONTINUOUS
 10
-25.286272954
 20
-10.0980820575
 11
-25.318160236
 21
-8.966135268
  0
LINE
  5
2BC
100
AcDbEntity
  8
RACCORDO
100
AcDbLine
 62
250
  6
CONTINUOUS
 10
-25.318160236
 20
-8.966135268
 11
-25.3528890687
 21
-7.7035544417
  0
LINE
  5
2BD
100
AcDbEntity
  8
RACCORDO
100
AcDbLine
 62
250
  6
CONTINUOUS
 10
-25.3528890687
 20
-7.7035544417
 11
-25.3908689335
 21
-6.2892685138
  0
LINE
  5
2BE
100
AcDbEntity
  8
RACCORDO
100
AcDbLine
 62
250
  6
CONTINUOUS
 10
-25.3908689335
 20
-6.2892685138
 11
-25.432523402
 21
-4.7040447259
  0
LINE
  5
2BF
100
AcDbEntity
  8
RACCORDO
100
AcDbLine
 62
250
  6
CONTINUOUS
 10
-25.432523402
 20
-4.7040447259
 11
-25.4783028111
 21
-2.9267106593
  0
LINE
  5
2C0
100
AcDbEntity
  8
RACCORDO
100
AcDbLine
 62
250
  6
CONTINUOUS
 10
-24.8939183577
 20
19.1253730236
 11
-24.9238666072
 21
20.2755528983
  0
LINE
  5
2C1
100
AcDbEntity
  8
RACCORDO
100
AcDbLine
 62
250
  6
CONTINUOUS
 10
-25.4783028111
 20
-2.9267106593
 11
-25.5286821357
 21
-0.9356892503
  0
LINE
  5
2C2
100
AcDbEntity
  8
RACCORDO
100
AcDbLine
 62
250
  6
CONTINUOUS
 10
-24.8704047851
 20
18.1977428589
 11
-24.8939183577
 21
19.1253730236
  0
LINE
  5
2C3
100
AcDbEntity
  8
RACCORDO
100
AcDbLine
 62
250
  6
CONTINUOUS
 10
-24.7627372705
 20
13.9181560493
 11
-24.8704047851
 21
18.1977428589
  0
LINE
  5
2C4
100
AcDbEntity
  8
RACCORDO
100
AcDbLine
 62
250
  6
CONTINUOUS
 10
-25.5286821357
 20
-0.9356892503
 11
-25.7413040565
 21
7.6058657969
  0
LINE
  5
2C5
100
AcDbEntity
  8
RACCORDO
100
AcDbLine
 62
250
  6
CONTINUOUS
 10
-24.627709388
 20
8.5119048923
 11
-24.7627372705
 21
13.9181560493
  0
LINE
  5
2C6
100
AcDbEntity
  8
0
100
AcDbLine
 62
250
  6
CONTINUOUS
 10
-22.2703190532
 20
-14.2935553441
 11
-23.1294181508
 21
20.2408765168
  0
LINE
  5
2C7
100
AcDbEntity
  8
RACCORDO
100
AcDbLine
 62
250
  6
CONTINUOUS
 10
-25.7413040565
 20
7.6058657969
 11
-25.8082060284
 21
10.3320159972
  0
LINE
  5
2C8
100
AcDbEntity
  8
RACCORDO
100
AcDbLine
 62
250
  6
CONTINUOUS
 10
-24.0940104946
 20
-13.0263473322
 11
-24.627709388
 21
8.5119048923
  0
LINE
  5
2C9
100
AcDbEntity
  8
RACCORDO
100
AcDbLine
 62
250
  6
CONTINUOUS
 10
-25.8082060284
 20
10.3320159972
 11
-25.8431075315
 21
11.7818870699
  0
LINE
  5
2CA
100
AcDbEntity
  8
RACCORDO
100
AcDbLine
 62
250
  6
CONTINUOUS
 10
-25.8431075315
 20
11.7818870699
 11
-25.8841517472
 21
13.5212013288
  0
LINE
  5
2CB
100
AcDbEntity
  8
RACCORDO
100
AcDbLine
 62
250
  6
CONTINUOUS
 10
-24.0636185149
 20
-14.3050667435
 11
-24.0940104946
 21
-13.0263473322
  0
LINE
  5
2CC
100
AcDbEntity
  8
RACCORDO
100
AcDbLine
 62
250
  6
CONTINUOUS
 10
-25.8841517472
 20
13.5212013288
 11
-25.911207514
 21
14.6939431202
  0
LINE
  5
2CD
100
AcDbEntity
  8
RACCORDO
100
AcDbLine
 62
250
  6
CONTINUOUS
 10
-25.911207514
 20
14.6939431202
 11
-25.9353811914
 21
15.7647902832
  0
LINE
  5
2CE
100
AcDbEntity
  8
RACCORDO
100
AcDbLine
 62
250
  6
CONTINUOUS
 10
-25.9353811914
 20
15.7647902832
 11
-25.9569363076
 21
16.7434906215
  0
LINE
  5
2CF
100
AcDbEntity
  8
RACCORDO
100
AcDbLine
 62
250
  6
CONTINUOUS
 10
-25.9569363076
 20
16.7434906215
 11
-25.9821302438
 21
17.9211629057
  0
LINE
  5
2D0
100
AcDbEntity
  8
RACCORDO
100
AcDbLine
 62
250
  6
CONTINUOUS
 10
-25.9821302438
 20
17.9211629057
 11
-26.0141282929
 21
19.4482970396
  0
LINE
  5
2D1
100
AcDbEntity
  8
RACCORDO
100
AcDbLine
 62
250
  6
CONTINUOUS
 10
-26.0141282929
 20
19.4482970396
 11
-26.0322303891
 21
20.3082637267
  0
LWPOLYLINE
  5
2D2
100
AcDbEntity
  8
RACCORDO
100
AcDbPolyline
 62
250
  6
CONTINUOUS
 90
3
 70
0
 10
-26.0322303891
 20
20.3082637267
 10
-26.0434523637
 20
20.865621826
 10
-26.0466149988
 20
21.0345620319
  0
LWPOLYLINE
  5
2D3
100
AcDbEntity
  8
RACCORDO
100
AcDbPolyline
 62
250
  6
CONTINUOUS
 90
73
 70
0
 10
-24.9238666072
 20
20.2755528983
 10
-24.9243653006
 20
20.3046166836
 10
-24.924178769
 20
20.3339975737
 10
-24.9232685318
 20
20.3636694789
 10
-24.9215905403
 20
20.3936958303
 10
-24.9191064009
 20
20.4239547117
 10
-24.9158058934
 20
20.4541471498
 10
-24.9116507475
 20
20.484365328
 10
-24.9066355655
 20
20.5144652818
 10
-24.9008689714
 20
20.5438221287
 10
-24.8943923676
 20
20.5723818354
 10
-24.8872283312
 20
20.6001953916
 10
-24.8795406554
 20
20.6268367668
 10
-24.8714554933
 20
20.6521321357
 10
-24.8629808993
 20
20.6762994676
 10
-24.8541242297
 20
20.6995143398
 10
-24.8449882721
 20
20.7216402076
 10
-24.8355685233
 20
20.7428503958
 10
-24.825657652
 20
20.7637568787
 10
-24.8152556785
 20
20.7843767848
 10
-24.8043680903
 20
20.8046805923
 10
-24.7927189525
 20
20.8251627123
 10
-24.7802676212
 20
20.8458077537
 10
-24.7669875449
 20
20.8665665516
 10
-24.7525524633
 20
20.8878314933
 10
-24.7367113526
 20
20.9097821379
 10
-24.7195592214
 20
20.9320958113
 10
-24.7012812878
 20
20.9544034403
 10
-24.68178579
 20
20.9767094967
 10
-24.6610744521
 20
20.9989001966
 10
-24.6395500872
 20
21.0204902096
 10
-24.6173560968
 20
21.041341353
 10
-24.5943699743
 20
21.0615699189
 10
-24.5706486685
 20
21.0811179937
 10
-24.5462446931
 20
21.0999452072
 10
-24.5211315242
 20
21.1180746181
 10
-24.4952470107
 20
21.1355421076
 10
-24.4685405317
 20
21.1523671237
 10
-24.4410741994
 20
21.1684961896
 10
-24.4129573149
 20
21.1838580741
 10
-24.3839844923
 20
21.1985555895
 10
-24.3543832227
 20
21.2124612114
 10
-24.3249707539
 20
21.2252306763
 10
-24.2963477573
 20
21.2367207483
 10
-24.2680568307
 20
21.2472161257
 10
-24.239332995
 20
21.2570196204
 10
-24.210070602
 20
21.2661749719
 10
-24.1804017429
 20
21.27463084
 10
-24.1498580422
 20
21.2824569693
 10
-24.1184475055
 20
21.2896032346
 10
-24.0861585799
 20
21.2960520255
 10
-24.0524547662
 20
21.301850955
 10
-24.0169055689
 20
21.3069592306
 10
-23.979896018
 20
21.3112472573
 10
-23.9421186464
 20
21.3146416936
 10
-23.9036449148
 20
21.3171322369
 10
-23.86442741
 20
21.3186810597
 10
-23.8250222356
 20
21.3192665679
 10
-23.7856114984
 20
21.3189104707
 10
-23.7460744629
 20
21.3176300026
 10
-23.7065312539
 20
21.31544417
 10
-23.6666757388
 20
21.3123502074
 10
-23.626868071
 20
21.3083821523
 10
-23.5882504265
 20
21.3036965991
 10
-23.5515441948
 20
21.2985038593
 10
-23.5161170956
 20
21.2928093533
 10
-23.4810856177
 20
21.2864785007
 10
-23.4468028435
 20
21.2796038656
 10
-23.4129616216
 20
21.2721708537
 10
-23.3776631097
 20
21.2637247323
 10
-23.3402760682
 20
21.254016652
 10
-23.3014525014
 20
21.2431205039
 10
-23.2612104891
 20
21.2309583205
  0
LWPOLYLINE
  5
2D4
100
AcDbEntity
  8
RACCORDO
100
AcDbPolyline
 62
250
  6
CONTINUOUS
 90
18
 70
0
 10
-26.0466150783
 20
21.0345619509
 10
-26.0469994491
 20
21.0905040303
 10
-26.0460433061
 20
21.1470041236
 10
-26.0436710001
 20
21.2039971296
 10
-26.0398038104
 20
21.2616037993
 10
-26.0343576612
 20
21.3195890135
 10
-26.027287843
 20
21.377371072
 10
-26.0185036068
 20
21.4351096667
 10
-26.0080158525
 20
21.4925063467
 10
-25.9960721773
 20
21.5483495649
 10
-25.9828015935
 20
21.6025812495
 10
-25.9681896977
 20
21.6553229625
 10
-25.9524298744
 20
21.7057354923
 10
-25.9355435676
 20
21.7534125249
 10
-25.9177925187
 20
21.7987792711
 10
-25.8997873056
 20
21.8422742564
 10
-25.881899887
 20
21.883615369
 10
-25.8641751072
 20
21.922848244
  0
LWPOLYLINE
  5
2D5
100
AcDbEntity
  8
RACCORDO
100
AcDbPolyline
 62
7
  6
CONTINUOUS
 90
3
 70
0
 10
-21.6760524039
 20
14.3176034744
 10
-21.6676781022
 20
14.3472517964
 10
-21.6633014031
 20
14.3791808768
  0
LWPOLYLINE
  5
2D6
100
AcDbEntity
  8
RACCORDO
100
AcDbPolyline
 62
250
  6
CONTINUOUS
 90
3
 70
0
 10
17.6855848249
 20
-29.3789847515
 10
17.3719794216
 20
-29.2859738676
 10
17.0454187805
 20
-29.1884998764
  0
LINE
  5
2D7
100
AcDbEntity
  8
RACCORDO
100
AcDbLine
 62
250
  6
CONTINUOUS
 10
17.0454187805
 20
-29.1884998764
 11
16.3531558937
 21
-28.9805346813
  0
LINE
  5
2D8
100
AcDbEntity
  8
RACCORDO
100
AcDbLine
 62
250
  6
CONTINUOUS
 10
16.3531558937
 20
-28.9805346813
 11
15.6092650797
 21
-28.7558489769
  0
LINE
  5
2D9
100
AcDbEntity
  8
RACCORDO
100
AcDbLine
 62
250
  6
CONTINUOUS
 10
15.6092650797
 20
-28.7558489769
 11
14.8163644652
 21
-28.5154370007
  0
LINE
  5
2DA
100
AcDbEntity
  8
RACCORDO
100
AcDbLine
 62
250
  6
CONTINUOUS
 10
14.8163644652
 20
-28.5154370007
 11
13.9711710023
 21
-28.2582906966
  0
LINE
  5
2DB
100
AcDbEntity
  8
RACCORDO
100
AcDbLine
 62
250
  6
CONTINUOUS
 10
13.9711710023
 20
-28.2582906966
 11
13.0718726232
 21
-27.9838436581
  0
LINE
  5
2DC
100
AcDbEntity
  8
RACCORDO
100
AcDbLine
 62
250
  6
CONTINUOUS
 10
13.0718726232
 20
-27.9838436581
 11
12.1153378069
 21
-27.6911988694
  0
LINE
  5
2DD
100
AcDbEntity
  8
RACCORDO
100
AcDbLine
 62
250
  6
CONTINUOUS
 10
12.1153378069
 20
-27.6911988694
 11
11.0995195475
 21
-27.3797923597
  0
LINE
  5
2DE
100
AcDbEntity
  8
RACCORDO
100
AcDbLine
 62
250
  6
CONTINUOUS
 10
11.0995195475
 20
-27.3797923597
 11
-14.904140932
 21
-19.3944153962
  0
LINE
  5
2DF
100
AcDbEntity
  8
RACCORDO
100
AcDbLine
 62
250
  6
CONTINUOUS
 10
-14.904140932
 20
-19.3944153962
 11
-15.9486031181
 21
-19.0733667449
  0
LINE
  5
2E0
100
AcDbEntity
  8
RACCORDO
100
AcDbLine
 62
250
  6
CONTINUOUS
 10
-15.9486031181
 20
-19.0733667449
 11
-16.9332309976
 21
-18.770185494
  0
LINE
  5
2E1
100
AcDbEntity
  8
RACCORDO
100
AcDbLine
 62
250
  6
CONTINUOUS
 10
-16.9332309976
 20
-18.770185494
 11
-17.8599234773
 21
-18.4842051986
  0
LINE
  5
2E2
100
AcDbEntity
  8
RACCORDO
100
AcDbLine
 62
250
  6
CONTINUOUS
 10
-17.8599234773
 20
-18.4842051986
 11
-18.7302879068
 21
-18.2148681658
  0
LINE
  5
2E3
100
AcDbEntity
  8
RACCORDO
100
AcDbLine
 62
250
  6
CONTINUOUS
 10
-18.7302879068
 20
-18.2148681658
 11
-19.5473291313
 21
-17.9612138988
  0
LINE
  5
2E4
100
AcDbEntity
  8
RACCORDO
100
AcDbLine
 62
250
  6
CONTINUOUS
 10
-19.5473291313
 20
-17.9612138988
 11
-20.3140092517
 21
-17.7223695514
  0
LWPOLYLINE
  5
2E5
100
AcDbEntity
  8
RACCORDO
100
AcDbPolyline
 62
250
  6
CONTINUOUS
 90
5
 70
0
 10
-20.3140092517
 20
-17.7223695514
 10
-21.0302738226
 20
-17.4982558178
 10
-21.3685587099
 20
-17.3919361311
 10
-21.693656805
 20
-17.2892934918
 10
-22.0055838483
 20
-17.1902113868
  0
LWPOLYLINE
  5
2E6
100
AcDbEntity
  8
RACCORDO
100
AcDbPolyline
 62
250
  6
CONTINUOUS
 90
73
 70
0
 10
-22.3274065188
 20
-16.306491872
 10
-22.3671332234
 20
-16.2939272763
 10
-22.4055080734
 20
-16.2810177006
 10
-22.4425096079
 20
-16.2678506361
 10
-22.4775199777
 20
-16.2547395459
 10
-22.5111280626
 20
-16.2415545814
 10
-22.5451203413
 20
-16.2276215493
 10
-22.5797400887
 20
-16.2128096011
 10
-22.6147046699
 20
-16.1972108328
 10
-22.6509949568
 20
-16.1803427104
 10
-22.6892593053
 20
-16.1618024464
 10
-22.7287732551
 20
-16.1418315549
 10
-22.7684605089
 20
-16.1209185353
 10
-22.8080212121
 20
-16.099205762
 10
-22.8477008561
 20
-16.0765414637
 10
-22.8872603858
 20
-16.0530439707
 10
-22.9267094535
 20
-16.0286948382
 10
-22.9659846192
 20
-16.0035198025
 10
-23.0047494959
 20
-15.9777334828
 10
-23.0432554733
 20
-15.9511715383
 10
-23.08121007
 20
-15.9240340371
 10
-23.1175045374
 20
-15.8971594393
 10
-23.1514613832
 20
-15.8711668321
 10
-23.1838173296
 20
-15.8456103236
 10
-23.215587374
 20
-15.8197388312
 10
-23.2468699174
 20
-15.7934806662
 10
-23.2775456212
 20
-15.766948732
 10
-23.3082436888
 20
-15.7395950962
 10
-23.3391224344
 20
-15.711236103
 10
-23.369949097
 20
-15.6820398577
 10
-23.4007384509
 20
-15.6519563035
 10
-23.4316559946
 20
-15.6207716449
 10
-23.4624479186
 20
-15.5886854261
 10
-23.4925295178
 20
-15.5562896711
 10
-23.5217110423
 20
-15.5238098032
 10
-23.55017232
 20
-15.491066727
 10
-23.5779164231
 20
-15.4580679275
 10
-23.6049212661
 20
-15.4248506591
 10
-23.6311942966
 20
-15.3914170295
 10
-23.6567792118
 20
-15.3577191293
 10
-23.6816668851
 20
-15.3237726124
 10
-23.7058461482
 20
-15.2895964519
 10
-23.7293506352
 20
-15.2551443005
 10
-23.7522872416
 20
-15.2202464552
 10
-23.7745154294
 20
-15.1851026343
 10
-23.7957256155
 20
-15.150227973
 10
-23.8159759064
 20
-15.1155796082
 10
-23.8352451544
 20
-15.0812459983
 10
-23.8531809479
 20
-15.0479545461
 10
-23.8696309209
 20
-15.016159395
 10
-23.884891625
 20
-14.9854576625
 10
-23.8992936784
 20
-14.9552909296
 10
-23.912897216
 20
-14.9256056847
 10
-23.925698348
 20
-14.8964813125
 10
-23.9378777219
 20
-14.8675517684
 10
-23.9493757899
 20
-14.8390082028
 10
-23.9602763757
 20
-14.8106784768
 10
-23.9709027305
 20
-14.7816510469
 10
-23.9812676854
 20
-14.7517598189
 10
-23.9912624699
 20
-14.7211954687
 10
-24.0009505351
 20
-14.6895865595
 10
-24.0103904694
 20
-14.6564680778
 10
-24.0193522126
 20
-14.6223484976
 10
-24.0275110743
 20
-14.5883153985
 10
-24.034818858
 20
-14.5545842691
 10
-24.0413204164
 20
-14.5209756726
 10
-24.0469372461
 20
-14.4879717416
 10
-24.0516805802
 20
-14.4557005107
 10
-24.0556005024
 20
-14.4240544447
 10
-24.0587181773
 20
-14.3931526114
 10
-24.0610682422
 20
-14.3630367922
 10
-24.0626898075
 20
-14.333673941
 10
-24.0636185149
 20
-14.3050667435
  0
LWPOLYLINE
  5
2E7
100
AcDbEntity
  8
RACCORDO
100
AcDbPolyline
 62
250
  6
CONTINUOUS
 90
54
 70
0
 10
-22.0055831302
 20
-17.1902103988
 10
-22.0823368585
 20
-17.1650183713
 10
-22.1564912274
 20
-17.1391764777
 10
-22.2280701004
 20
-17.1128268518
 10
-22.2959110272
 20
-17.0864878748
 10
-22.3609317049
 20
-17.0600739747
 10
-22.4262271847
 20
-17.0326695611
 10
-22.4921129
 20
-17.0041735385
 10
-22.5578900302
 20
-16.9747679854
 10
-22.6250419848
 20
-16.9437469633
 10
-22.6945689172
 20
-16.9105877839
 10
-22.7655942443
 20
-16.8754890289
 10
-22.8368547721
 20
-16.8387805548
 10
-22.9081089327
 20
-16.800490318
 10
-22.979669087
 20
-16.7604739735
 10
-23.0510655429
 20
-16.7189255542
 10
-23.1222270617
 20
-16.67586716
 10
-23.1930335971
 20
-16.6313356679
 10
-23.2629564626
 20
-16.5855986867
 10
-23.3325031184
 20
-16.5383061151
 10
-23.4017550979
 20
-16.4894354573
 10
-23.4695779569
 20
-16.4398427618
 10
-23.5351109082
 20
-16.390235269
 10
-23.5986907967
 20
-16.340516033
 10
-23.660916699
 20
-16.2904205712
 10
-23.7214346882
 20
-16.2403844072
 10
-23.7800353347
 20
-16.1905478701
 10
-23.8375068139
 20
-16.1401229595
 10
-23.8939072319
 20
-16.0890041849
 10
-23.9493254197
 20
-16.0371443923
 10
-24.0044875
 20
-15.9838047851
 10
-24.0600551102
 20
-15.9282311351
 10
-24.1154226336
 20
-15.8709117845
 10
-24.1694386529
 20
-15.8129840037
 10
-24.2216974335
 20
-15.7549276441
 10
-24.2725193059
 20
-15.6964318544
 10
-24.3219007375
 20
-15.6374973616
 10
-24.3698064202
 20
-15.5781857963
 10
-24.4162505163
 20
-15.5185073489
 10
-24.4612942147
 20
-15.4583833531
 10
-24.5049130311
 20
-15.3978540946
 10
-24.5470910418
 20
-15.3369586153
 10
-24.5878880543
 20
-15.2756118043
 10
-24.6274859945
 20
-15.2135137791
 10
-24.6656343596
 20
-15.1510426242
 10
-24.7017954503
 20
-15.0891416992
 10
-24.736051757
 20
-15.0277540947
 10
-24.768399499
 20
-14.9670176298
 10
-24.7983102831
 20
-14.9081836883
 10
-24.8255536835
 20
-14.852031178
 10
-24.8505808719
 20
-14.797940082
 10
-24.8739073352
 20
-14.7450639507
 10
-24.8953121703
 20
-14.6935637533
 10
-24.9152416022
 20
-14.6431272411
  0
LWPOLYLINE
  5
2E8
100
AcDbEntity
  8
RACCORDO
100
AcDbPolyline
 62
250
  6
CONTINUOUS
 90
21
 70
0
 10
-12.9322785115
 20
-19.1906527882
 10
-12.908803706
 20
-19.2144924492
 10
-12.8861453634
 20
-19.2404112429
 10
-12.864320681
 20
-19.2683895033
 10
-12.8433462306
 20
-19.2984060004
 10
-12.8232379246
 20
-19.3304379617
 10
-12.8040110041
 20
-19.3644610903
 10
-12.7856800626
 20
-19.4004495724
 10
-12.7682590144
 20
-19.4383761026
 10
-12.7517610619
 20
-19.4782119121
 10
-12.7361987283
 20
-19.5199267771
 10
-12.7215838271
 20
-19.5634890481
 10
-12.7079274324
 20
-19.6088656804
 10
-12.6952399113
 20
-19.6560222467
 10
-12.683530896
 20
-19.7049229693
 10
-12.6728092567
 20
-19.7555307532
 10
-12.6630877396
 20
-19.807805788
 10
-12.6543691242
 20
-19.8617098264
 10
-12.6466461973
 20
-19.9172062199
 10
-12.639920205
 20
-19.9742542825
 10
-12.6342008473
 20
-20.0328093222
  0
LWPOLYLINE
  5
2E9
100
AcDbEntity
  8
RACCORDO
100
AcDbPolyline
 62
7
  6
CONTINUOUS
 90
12
 70
0
 10
-20.9767084847
 20
-12.8698166393
 10
-20.9621983959
 20
-12.8973072218
 10
-20.945021139
 20
-12.9238533612
 10
-20.9256261771
 20
-12.9488476663
 10
-20.9042049866
 20
-12.9723296264
 10
-20.8812351212
 20
-12.9940151469
 10
-20.8569159487
 20
-13.0137555352
 10
-20.8316670417
 20
-13.0313359057
 10
-20.8063409369
 20
-13.0465113454
 10
-20.7814121071
 20
-13.0592468118
 10
-20.7569331962
 20
-13.0696294519
 10
-20.7330969588
 20
-13.0777313032
  0
LWPOLYLINE
  5
2EA
100
AcDbEntity
  8
RACCORDO
100
AcDbPolyline
 62
7
  6
CONTINUOUS
 90
5
 70
0
 10
-21.0027217416
 20
-12.7669436849
 10
-21.0008340354
 20
-12.7912048443
 10
-20.9959533466
 20
-12.8165141643
 10
-20.9879759971
 20
-12.8426851409
 10
-20.9767084847
 20
-12.8698166393
  0
LINE
  5
2EB
100
AcDbEntity
  8
RACCORDO
100
AcDbLine
 62
7
  6
CONTINUOUS
 10
-22.1809757837
 20
19.9496190544
 11
-21.3574339091
 21
-13.155468395
  0
LINE
  5
2EC
100
AcDbEntity
  8
DRAFT
100
AcDbLine
 62
7
  6
CONTINUOUS
 10
-21.8137258142
 20
19.8368401466
 11
-21.6232280482
 21
12.2028990356
  0
LWPOLYLINE
  5
2ED
100
AcDbEntity
  8
DRAFT
100
AcDbPolyline
 62
7
  6
CONTINUOUS
 90
3
 70
0
 10
-21.6232280482
 20
12.2028990356
 10
-21.2129698248
 20
-4.2931289555
 10
-21.0030769809
 20
-12.7525888065
  0
LINE
  5
2EE
100
AcDbEntity
  8
RACCORDO
100
AcDbLine
 62
7
  6
CONTINUOUS
 10
-21.0030769809
 20
-12.7525888065
 11
-21.0027217416
 21
-12.7669436849
  0
LINE
  5
2EF
100
AcDbEntity
  8
RACCORDO
100
AcDbLine
 62
7
  6
CONTINUOUS
 10
-21.7775106885
 20
18.9942512496
 11
-21.6631617425
 21
14.3976035571
  0
LINE
  5
2F0
100
AcDbEntity
  8
RACCORDO
100
AcDbLine
 62
7
  6
CONTINUOUS
 10
-21.3435290276
 20
1.5488713854
 11
-21.2291800816
 21
-3.0477763071
  0
LINE
  5
2F1
100
AcDbEntity
  8
RACCORDO
100
AcDbLine
 62
7
  6
CONTINUOUS
 10
-21.6633014031
 20
14.3791808768
 11
-21.6628503764
 21
14.397640119
  0
LINE
  5
2F2
100
AcDbEntity
  8
RACCORDO
100
AcDbLine
 62
7
  6
CONTINUOUS
 10
-21.2293197421
 20
-3.0661989873
 11
-21.2288687155
 21
-3.0477397452
  0
LWPOLYLINE
  5
2F3
100
AcDbEntity
  8
RACCORDO
100
AcDbPolyline
 62
7
  6
CONTINUOUS
 90
3
 70
0
 10
-21.2418706567
 20
-3.1270680057
 10
-21.2336964413
 20
-3.0981280678
 10
-21.2293197421
 20
-3.0661989873
  0
LWPOLYLINE
  5
2F4
100
AcDbEntity
  8
RACCORDO
100
AcDbPolyline
 62
7
  6
CONTINUOUS
 90
4
 70
0
 10
-21.3573654177
 20
1.515639646
 10
-21.3488560062
 20
1.5311052292
 10
-21.3439902368
 20
1.5433744539
 10
-21.3432152404
 20
1.5488106226
  0
LWPOLYLINE
  5
2F5
100
AcDbEntity
  8
RACCORDO
100
AcDbPolyline
 62
7
  6
CONTINUOUS
 90
3
 70
0
 10
8.7300222091
 20
-20.6214343278
 10
8.7586805651
 20
-20.6250793372
 10
8.7868669393
 20
-20.632136249
  0
LWPOLYLINE
  5
2F6
100
AcDbEntity
  8
RACCORDO
100
AcDbPolyline
 62
250
  6
CONTINUOUS
 90
3
 70
0
 10
-12.9322785115
 20
-19.1906527882
 10
-19.4524949936
 20
-17.1885405403
 10
-22.3274065188
 20
-16.306491872
  0
LINE
  5
2F7
100
AcDbEntity
  8
0
100
AcDbLine
 62
250
  6
CONTINUOUS
 10
17.726531606
 20
-26.8070288044
 11
-21.9973317564
 21
-14.6082152089
  0
LINE
  5
2F8
100
AcDbEntity
  8
RACCORDO
100
AcDbLine
 62
7
  6
CONTINUOUS
 10
-21.087807539
 20
-13.4662542747
 11
17.8407636724
 21
-25.4208413554
  0
LINE
  5
2F9
100
AcDbEntity
  8
DRAFT
100
AcDbLine
 62
7
  6
CONTINUOUS
 10
-20.716607649
 20
-13.0827926344
 11
-13.2661631784
 21
-15.3702976144
  0
LINE
  5
2FA
100
AcDbEntity
  8
DRAFT
100
AcDbLine
 62
7
  6
CONTINUOUS
 10
-13.2661631784
 20
-15.3702976144
 11
7.9503957698
 21
-21.8852529871
  0
LINE
  5
2FB
100
AcDbEntity
  8
RACCORDO
100
AcDbLine
 62
7
  6
CONTINUOUS
 10
-20.7330969588
 20
-13.0777313032
 11
-20.716607649
 21
-13.0827926344
  0
LINE
  5
2FC
100
AcDbEntity
  8
DRAFT
100
AcDbLine
 62
7
  6
CONTINUOUS
 10
-12.3000999175
 20
-15.4825310738
 11
-6.7924852641
 21
-17.1738661763
  0
LINE
  5
2FD
100
AcDbEntity
  8
DRAFT
100
AcDbLine
 62
7
  6
CONTINUOUS
 10
13.2475803335
 20
-23.327976174
 11
7.7399656801
 21
-21.6366410715
  0
LINE
  5
2FE
100
AcDbEntity
  8
DRAFT
100
AcDbLine
 62
7
  6
CONTINUOUS
 10
7.9503957698
 20
-21.8852529871
 11
17.8282924591
 21
-24.9195182037
  0
LINE
  5
2FF
100
AcDbEntity
  8
RACCORDO
100
AcDbLine
 62
250
  6
CONTINUOUS
 10
16.0563265446
 20
-28.0932407033
 11
-12.9322785115
 21
-19.1906527882
  0
LINE
  5
300
100
AcDbEntity
  8
RACCORDO
100
AcDbLine
 62
250
  6
CONTINUOUS
 10
16.4102967999
 20
-28.2020434122
 11
16.0563265446
 21
-28.0932407033
  0
LWPOLYLINE
  5
301
100
AcDbEntity
  8
RACCORDO
100
AcDbPolyline
 62
250
  6
CONTINUOUS
 90
3
 70
0
 10
17.3964568437
 20
-28.5053054675
 10
17.0803204003
 20
-28.4080647927
 10
16.4102967999
 20
-28.2020434122
  0
LWPOLYLINE
  5
302
100
AcDbEntity
  8
0
100
AcDbPolyline
 62
250
  6
CONTINUOUS
 90
37
 70
0
 10
-21.9973317564
 20
-14.6082152089
 10
-22.0089924023
 20
-14.6044146403
 10
-22.0206418662
 20
-14.6001785293
 10
-22.0322579728
 20
-14.5955149397
 10
-22.0438186102
 20
-14.5904327488
 10
-22.0553017719
 20
-14.5849416309
 10
-22.0666855992
 20
-14.5790520385
 10
-22.0779484223
 20
-14.572775183
 10
-22.0890688018
 20
-14.5661230126
 10
-22.1000255694
 20
-14.5591081901
 10
-22.1107978683
 20
-14.5517440687
 10
-22.1213651928
 20
-14.5440446663
 10
-22.1317074273
 20
-14.5360246393
 10
-22.1418048849
 20
-14.5276992541
 10
-22.1516383445
 20
-14.5190843587
 10
-22.1611890875
 20
-14.5101963519
 10
-22.1704389336
 20
-14.5010521527
 10
-22.1793702751
 20
-14.4916691674
 10
-22.1879661106
 20
-14.4820652572
 10
-22.1962100777
 20
-14.4722587037
 10
-22.2040864833
 20
-14.4622681741
 10
-22.2115803344
 20
-14.4521126861
 10
-22.2186773659
 20
-14.4418115711
 10
-22.2253640682
 20
-14.4313844379
 10
-22.2316277129
 20
-14.4208511352
 10
-22.2374563766
 20
-14.4102317137
 10
-22.2428389643
 20
-14.399546388
 10
-22.2477652298
 20
-14.3888154984
 10
-22.2522257958
 20
-14.3780594716
 10
-22.2562121713
 20
-14.3672987824
 10
-22.259716768
 20
-14.3565539143
 10
-22.2627329146
 20
-14.3458453209
 10
-22.2652548699
 20
-14.3351933865
 10
-22.2672778331
 20
-14.3246183877
 10
-22.2687979533
 20
-14.3141404545
 10
-22.269812337
 20
-14.3037795325
 10
-22.2703190532
 20
-14.2935553441
  0
LWPOLYLINE
  5
303
100
AcDbEntity
  8
RACCORDO
100
AcDbPolyline
 62
250
  6
CONTINUOUS
 90
15
 70
0
 10
-11.1208722367
 20
-28.8289140024
 10
-11.1145396578
 20
-28.8476963646
 10
-11.1076780838
 20
-28.8654415547
 10
-11.1002962539
 20
-28.8821269721
 10
-11.09240357
 20
-28.8977313666
 10
-11.0840100846
 20
-28.9122348641
 10
-11.0751264881
 20
-28.925618993
 10
-11.065764095
 20
-28.9378667074
 10
-11.0559348297
 20
-28.9489624083
 10
-11.045651211
 20
-28.9588919642
 10
-11.0349263366
 20
-28.9676427289
 10
-11.0237738661
 20
-28.9752035572
 10
-11.0122080036
 20
-28.9815648197
 10
-11.0002434798
 20
-28.9867184144
 10
-10.9927477679
 20
-28.9892686948
  0
LWPOLYLINE
  5
304
100
AcDbEntity
  8
RACCORDO
100
AcDbPolyline
 62
7
  6
CONTINUOUS
 90
4
 70
0
 10
-21.3432152404
 20
1.5488106226
 10
-21.3436606831
 20
1.552467135
 10
-21.347440329
 20
1.5587835218
 10
-21.3537343985
 20
1.5623152202
  0
LWPOLYLINE
  5
305
100
AcDbEntity
  8
RACCORDO
100
AcDbPolyline
 62
7
  6
CONTINUOUS
 90
4
 70
0
 10
-21.7771969013
 20
18.9941904867
 10
-21.777642344
 20
18.9978469992
 10
-21.7814219899
 20
19.004163386
 10
-21.7877160594
 20
19.0076950843
  0
LINE
  5
306
100
AcDbEntity
  8
RACCORDO
100
AcDbLine
 62
250
  6
CONTINUOUS
 10
-13.3766398318
 20
25.1590367205
 11
-13.2930272125
 21
26.1583360408
  0
LINE
  5
307
100
AcDbEntity
  8
RACCORDO
100
AcDbLine
 62
250
  6
CONTINUOUS
 10
-13.2930272125
 20
26.1583360408
 11
-13.1947443172
 21
27.197652416
  0
LWPOLYLINE
  5
308
100
AcDbEntity
  8
RACCORDO
100
AcDbPolyline
 62
250
  6
CONTINUOUS
 90
5
 70
0
 10
-13.1947443172
 20
27.197652416
 10
-13.0804046715
 20
28.2807206638
 10
-12.9487283024
 20
29.4090186363
 10
-12.7986748964
 20
30.581635886
 10
-12.6290694391
 20
31.7987068376
  0
LWPOLYLINE
  5
309
100
AcDbEntity
  8
RACCORDO
100
AcDbPolyline
 62
250
  6
CONTINUOUS
 90
34
 70
0
 10
-12.6290811352
 20
31.7987104293
 10
-12.6240273525
 20
31.8317464529
 10
-12.6184291672
 20
31.8650945571
 10
-12.6122936996
 20
31.8987122672
 10
-12.6056296254
 20
31.9325570324
 10
-12.5984445629
 20
31.9665854814
 10
-12.5907450623
 20
32.0007534772
 10
-12.582540065
 20
32.0350172382
 10
-12.5738408883
 20
32.0693333926
 10
-12.5646586095
 20
32.1036582349
 10
-12.5550049242
 20
32.1379480498
 10
-12.5448921283
 20
32.1721591662
 10
-12.534333099
 20
32.2062480123
 10
-12.5233412857
 20
32.2401711732
 10
-12.5119306885
 20
32.273885445
 10
-12.5001158372
 20
32.3073478886
 10
-12.4879117808
 20
32.3405158869
 10
-12.4753340633
 20
32.3733471978
 10
-12.462398701
 20
32.4058000066
 10
-12.4491221697
 20
32.4378329821
 10
-12.4355213797
 20
32.4694053279
 10
-12.4216136499
 20
32.5004768326
 10
-12.4074166946
 20
32.5310079242
 10
-12.3929485967
 20
32.5609597191
 10
-12.3782277792
 20
32.5902940699
 10
-12.3632729922
 20
32.618973617
 10
-12.3481032838
 20
32.6469618348
 10
-12.3327379703
 20
32.6742230768
 10
-12.317196623
 20
32.7007226236
 10
-12.3014990367
 20
32.7264267263
 10
-12.2856652003
 20
32.7513026471
 10
-12.2697152796
 20
32.7753187043
 10
-12.2536695921
 20
32.7984443122
 10
-12.2375485752
 20
32.8206500188
  0
LWPOLYLINE
  5
30A
100
AcDbEntity
  8
RACCORDO
100
AcDbPolyline
 62
250
  6
CONTINUOUS
 90
22
 70
0
 10
-13.8659171531
 20
18.3401514513
 10
-13.8450059769
 20
18.419632627
 10
-13.8249622563
 20
18.4990826793
 10
-13.8058011998
 20
18.5784413336
 10
-13.7875373464
 20
18.6576483845
 10
-13.7701845544
 20
18.7366437416
 10
-13.7537559907
 20
18.8153674752
 10
-13.7382641214
 20
18.8937598618
 10
-13.7237207016
 20
18.9717614289
 10
-13.7101367671
 20
19.0493130008
 10
-13.6975226257
 20
19.1263557432
 10
-13.6858878495
 20
19.2028312076
 10
-13.6752412674
 20
19.2786813761
 10
-13.665590959
 20
19.353848705
 10
-13.6569442476
 20
19.4282761689
 10
-13.6493076955
 20
19.5019073033
 10
-13.6426870983
 20
19.5746862483
 10
-13.6370874812
 20
19.6465577902
 10
-13.6325130946
 20
19.7174674038
 10
-13.628967411
 20
19.7873612937
 10
-13.6264531227
 20
19.8561864351
 10
-13.6094460945
 20
20.7144956702
  0
LWPOLYLINE
  5
30B
100
AcDbEntity
  8
RACCORDO
100
AcDbPolyline
 62
7
  6
CONTINUOUS
 90
3
 70
0
 10
-11.3100433886
 20
-14.46732433
 10
-11.2813850325
 20
-14.4709693394
 10
-11.2531986584
 20
-14.4780262512
  0
LINE
  5
30C
100
AcDbEntity
  8
DRAFT
100
AcDbLine
 62
7
  6
CONTINUOUS
 10
-12.1889592786
 20
-15.3600319709
 11
-6.7020550321
 21
-17.0450071081
  0
LINE
  5
30D
100
AcDbEntity
  8
DRAFT
100
AcDbLine
 62
7
  6
CONTINUOUS
 10
13.3380105655
 20
-23.1991171059
 11
7.851106319
 21
-21.5141419687
  0
LINE
  5
30E
100
AcDbEntity
  8
DRAFT
100
AcDbLine
 62
7
  6
CONTINUOUS
 10
-12.0504776664
 20
-15.2073976742
 11
-6.589378657
 21
-16.8844482731
  0
LINE
  5
30F
100
AcDbEntity
  8
DRAFT
100
AcDbLine
 62
7
  6
CONTINUOUS
 10
13.4506869407
 20
-23.0385582708
 11
7.9895879313
 21
-21.361507672
  0
LINE
  5
310
100
AcDbEntity
  8
DRAFT
100
AcDbLine
 62
7
  6
CONTINUOUS
 10
-11.9375882238
 20
-15.0829710417
 11
-6.4975255007
 21
-16.7535616009
  0
LINE
  5
311
100
AcDbEntity
  8
DRAFT
100
AcDbLine
 62
7
  6
CONTINUOUS
 10
13.542540097
 20
-22.9076715987
 11
8.1024773738
 21
-21.2370810395
  0
LINE
  5
312
100
AcDbEntity
  8
DRAFT
100
AcDbLine
 62
7
  6
CONTINUOUS
 10
-11.8008554153
 20
-14.9322642747
 11
-6.3862720499
 21
-16.5950303699
  0
LINE
  5
313
100
AcDbEntity
  8
DRAFT
100
AcDbLine
 62
7
  6
CONTINUOUS
 10
13.6537935478
 20
-22.7491403677
 11
8.2392101824
 21
-21.0863742724
  0
LINE
  5
314
100
AcDbEntity
  8
DRAFT
100
AcDbLine
 62
7
  6
CONTINUOUS
 10
-11.6862171691
 20
-14.8059101125
 11
-6.2929959692
 21
-16.4621160937
  0
LINE
  5
315
100
AcDbEntity
  8
DRAFT
100
AcDbLine
 62
7
  6
CONTINUOUS
 10
13.7470696285
 20
-22.6162260914
 11
8.3538484286
 21
-20.9600201103
  0
LINE
  5
316
100
AcDbEntity
  8
DRAFT
100
AcDbLine
 62
7
  6
CONTINUOUS
 10
-11.5512331642
 20
-14.6571308751
 11
-6.1831654427
 21
-16.3056124668
  0
LINE
  5
317
100
AcDbEntity
  8
DRAFT
100
AcDbLine
 62
7
  6
CONTINUOUS
 10
13.8569001549
 20
-22.4597224645
 11
8.4888324335
 21
-20.8112408729
  0
LINE
  5
318
100
AcDbEntity
  8
RACCORDO
100
AcDbLine
 62
250
  6
CONTINUOUS
 10
-11.4175700621
 20
-14.5098075355
 11
-6.0744096766
 21
-16.1506403256
  0
LINE
  5
319
100
AcDbEntity
  8
RACCORDO
100
AcDbLine
 62
250
  6
CONTINUOUS
 10
8.6224955356
 20
-20.6639175333
 11
13.9656559211
 21
-22.3047503233
  0
LINE
  5
31A
100
AcDbEntity
  8
RACCORDO
100
AcDbLine
 62
7
  6
CONTINUOUS
 10
-11.2532059778
 20
-14.4780240034
 11
-6.0520162854
 21
-16.075258969
  0
LINE
  5
31B
100
AcDbEntity
  8
RACCORDO
100
AcDbLine
 62
7
  6
CONTINUOUS
 10
8.7868596199
 20
-20.6321340011
 11
13.9880493123
 21
-22.2293689668
  0
LINE
  5
31C
100
AcDbEntity
  8
DRAFT
100
AcDbLine
 62
7
  6
CONTINUOUS
 10
-6.7020550321
 20
-17.0450071081
 11
-6.6428544386
 21
-17.0716063263
  0
LINE
  5
31D
100
AcDbEntity
  8
DRAFT
100
AcDbLine
 62
7
  6
CONTINUOUS
 10
-6.4975255007
 20
-16.7535616009
 11
-6.439072517
 21
-16.7798249131
  0
LINE
  5
31E
100
AcDbEntity
  8
DRAFT
100
AcDbLine
 62
7
  6
CONTINUOUS
 10
-6.2929959692
 20
-16.4621160937
 11
-6.2352905954
 21
-16.4880434998
  0
LINE
  5
31F
100
AcDbEntity
  8
DRAFT
100
AcDbLine
 62
7
  6
CONTINUOUS
 10
13.3380105655
 20
-23.1991171059
 11
13.397211159
 21
-23.2257163241
  0
LINE
  5
320
100
AcDbEntity
  8
DRAFT
100
AcDbLine
 62
7
  6
CONTINUOUS
 10
13.542540097
 20
-22.9076715987
 11
13.6009930807
 21
-22.9339349108
  0
LINE
  5
321
100
AcDbEntity
  8
DRAFT
100
AcDbLine
 62
7
  6
CONTINUOUS
 10
13.7470696285
 20
-22.6162260914
 11
13.8047750023
 21
-22.6421534976
  0
LWPOLYLINE
  5
322
100
AcDbEntity
  8
RACCORDO
100
AcDbPolyline
 62
250
  6
CONTINUOUS
 90
22
 70
0
 10
-24.4901166988
 20
2.9805421966
 10
-24.5272630282
 20
3.0265466537
 10
-24.5664245645
 20
3.071857731
 10
-24.6075716374
 20
3.1164410986
 10
-24.6506730725
 20
3.1602629781
 10
-24.6956962146
 20
3.2032901679
 10
-24.7426069526
 20
3.2454900685
 10
-24.7913697454
 20
3.2868307072
 10
-24.8419476484
 20
3.3272807624
 10
-24.8943023421
 20
3.366809587
 10
-24.9483941607
 20
3.4053872322
 10
-25.0041821224
 20
3.4429844696
 10
-25.0616239603
 20
3.4795728135
 10
-25.1206761544
 20
3.5151245429
 10
-25.1812939648
 20
3.5496127219
 10
-25.2434314651
 20
3.5830112206
 10
-25.307041578
 20
3.6152947344
 10
-25.37207611
 20
3.6464388037
 10
-25.4384857889
 20
3.6764198321
 10
-25.5062203003
 20
3.7052151043
 10
-25.5752283261
 20
3.7328028035
 10
-26.4657794908
 20
4.0640846738
  0
LWPOLYLINE
  5
323
100
AcDbEntity
  8
RACCORDO
100
AcDbPolyline
 62
250
  6
CONTINUOUS
 90
10
 70
0
 10
-12.4393680546
 20
-22.2288996702
 10
-12.3536666522
 20
-22.9508923777
 10
-12.2555353915
 20
-23.6763793124
 10
-12.1435888645
 20
-24.4076776434
 10
-12.0168164986
 20
-25.1433348373
 10
-11.8743300897
 20
-25.8809332832
 10
-11.7146467337
 20
-26.6206124022
 10
-11.5364925093
 20
-27.3606497648
 10
-11.3389339358
 20
-28.0976613644
 10
-11.1208605433
 20
-28.8289175855
  0
LWPOLYLINE
  5
324
100
AcDbEntity
  8
RACCORDO
100
AcDbPolyline
 62
250
  6
CONTINUOUS
 90
4
 70
0
 10
-12.6342008473
 20
-20.0328093222
 10
-12.5767638664
 20
-20.7977051992
 10
-12.5135507474
 20
-21.5103103853
 10
-12.4393680546
 20
-22.2288996702
  0
LWPOLYLINE
  5
325
100
AcDbEntity
  8
RACCORDO
100
AcDbPolyline
 62
250
  6
CONTINUOUS
 90
6
 70
0
 10
-13.6094460945
 20
20.7144956702
 10
-13.5844375567
 20
21.5376551079
 10
-13.5494114185
 20
22.3930985149
 10
-13.5037272308
 20
23.2797359298
 10
-13.4465333159
 20
24.1998672255
 10
-13.3766398318
 20
25.1590367205
  0
LWPOLYLINE
  5
326
100
AcDbEntity
  8
RACCORDO
100
AcDbPolyline
 62
250
  6
CONTINUOUS
 90
21
 70
0
 10
18.6222131389
 20
-10.2588366262
 10
18.703707211
 20
-10.2492671708
 10
18.7855343928
 20
-10.241112238
 10
18.8676326893
 20
-10.2343780058
 10
18.9499398997
 20
-10.2290695757
 10
19.0323936653
 20
-10.2251909689
 10
19.1149315163
 20
-10.2227451234
 10
19.1974909191
 20
-10.2217338917
 10
19.2800093238
 20
-10.2221580394
 10
19.3624242115
 20
-10.2240172445
 10
19.4446731419
 20
-10.2273100979
 10
19.5266938004
 20
-10.2320341042
 10
19.6084240451
 20
-10.2381856838
 10
19.6898019543
 20
-10.2457601754
 10
19.7707658735
 20
-10.2547518398
 10
19.8512544613
 20
-10.265153864
 10
19.931206737
 20
-10.2769583664
 10
20.0105621258
 20
-10.2901564031
 10
20.0892605052
 20
-10.3047379741
 10
20.1672422508
 20
-10.3206920314
 10
20.2444482807
 20
-10.3380064869
  0
LWPOLYLINE
  5
327
100
AcDbEntity
  8
RACCORDO
100
AcDbPolyline
 62
250
  6
CONTINUOUS
 90
12
 70
0
 10
-36.2320978131
 20
8.964719063
 10
-35.3059822077
 20
8.3775380908
 10
-34.3822410797
 20
7.8224589297
 10
-33.4635416949
 20
7.2984963647
 10
-32.5536754374
 20
6.8053204726
 10
-31.6537309394
 20
6.3411708587
 10
-30.7618371402
 20
5.9030544909
 10
-29.8794595706
 20
5.4899193337
 10
-29.0088477018
 20
5.1010816215
 10
-28.1489316701
 20
4.7344342052
 10
-27.3004446897
 20
4.3888707196
 10
-26.4657794908
 20
4.0640846738
  0
LWPOLYLINE
  5
328
100
AcDbEntity
  8
RACCORDO
100
AcDbPolyline
 62
250
  6
CONTINUOUS
 90
22
 70
0
 10
-36.2320978654
 20
8.964721172
 10
-36.256171431
 20
8.9809899718
 10
-36.2792900823
 20
8.9978048643
 10
-36.3014243782
 20
9.0151444363
 10
-36.3225461314
 20
9.0329866064
 10
-36.342628444
 20
9.0513086533
 10
-36.3616457417
 20
9.0700872444
 10
-36.3795738064
 20
9.0892984658
 10
-36.3963898075
 20
9.1089178526
 10
-36.4120723301
 20
9.1289204203
 10
-36.426601403
 20
9.1492806961
 10
-36.4399585238
 20
9.1699727519
 10
-36.4521266827
 20
9.1909702372
 10
-36.4630903839
 20
9.2122464122
 10
-36.4728356653
 20
9.2337741825
 10
-36.4813501168
 20
9.2555261331
 10
-36.4886228952
 20
9.2774745637
 10
-36.4946447391
 20
9.2995915235
 10
-36.4994079797
 20
9.3218488475
 10
-36.5029065512
 20
9.3442181916
 10
-36.5051359983
 20
9.3666710692
 10
-36.5060106522
 20
9.3849450462
  0
LWPOLYLINE
  5
329
100
AcDbEntity
  8
RACCORDO
100
AcDbPolyline
 62
250
  6
CONTINUOUS
 90
21
 70
0
 10
7.9982078973
 20
-25.6182023907
 10
8.0216953184
 20
-25.6420459259
 10
8.0443662311
 20
-25.6679685797
 10
8.0662034382
 20
-25.6959506865
 10
8.0871903749
 20
-25.725971018
 10
8.1073111216
 20
-25.7580067997
 10
8.1265504157
 20
-25.7920337283
 10
8.1448936636
 20
-25.8280259896
 10
8.1623269511
 20
-25.8659562785
 10
8.1788370547
 20
-25.9057958196
 10
8.1944114511
 20
-25.947514389
 10
8.2090383269
 20
-25.9910803373
 10
8.2227065876
 20
-26.0364606135
 10
8.2354058658
 20
-26.0836207904
 10
8.2471265295
 20
-26.13252509
 10
8.2578596888
 20
-26.1831364116
 10
8.2675972033
 20
-26.2354163591
 10
8.2763316878
 20
-26.2893252707
 10
8.284056518
 20
-26.3448222486
 10
8.2907658356
 20
-26.4018651903
 10
8.296454553
 20
-26.4604108206
  0
LINE
  5
32A
100
AcDbEntity
  8
0
100
AcDbLine
 62
250
  6
CONTINUOUS
 10
-21.3618353369
 20
-13.1550984234
 11
-22.2703190532
 21
-14.2935553441
  0
LINE
  5
32B
100
AcDbEntity
  8
0
100
AcDbLine
 62
250
  6
CONTINUOUS
 10
-21.0888480401
 20
-13.4697582882
 11
-21.9973317564
 21
-14.6082152089
  0
LWPOLYLINE
  5
32C
100
AcDbEntity
  8
RACCORDO
100
AcDbPolyline
 62
250
  6
CONTINUOUS
 90
34
 70
0
 10
33.4128837376
 20
-12.4225821467
 10
33.4483351676
 20
-12.4245928941
 10
33.4839076054
 20
-12.4258014536
 10
33.5195557503
 20
-12.4262062862
 10
33.5552342056
 20
-12.4258068765
 10
33.5908975358
 20
-12.4246037332
 10
33.6265003245
 20
-12.4225983886
 10
33.6619972328
 20
-12.4197933965
 10
33.6973430564
 20
-12.416192329
 10
33.7324927832
 20
-12.411799772
 10
33.7674016512
 20
-12.4066213196
 10
33.8020252049
 20
-12.4006635662
 10
33.8363193523
 20
-12.3939340992
 10
33.8702404207
 20
-12.3864414882
 10
33.9037452126
 20
-12.3781952751
 10
33.9367910606
 20
-12.3692059612
 10
33.9693358818
 20
-12.3594849942
 10
34.0013382314
 20
-12.3490447536
 10
34.0327573551
 20
-12.3378985349
 10
34.0635532417
 20
-12.3260605324
 10
34.0936866736
 20
-12.3135458217
 10
34.1231192766
 20
-12.3003703398
 10
34.1518135691
 20
-12.2865508656
 10
34.1797330099
 20
-12.2721049978
 10
34.2068420444
 20
-12.2570511329
 10
34.2331061498
 20
-12.2414084415
 10
34.2584918797
 20
-12.2251968444
 10
34.2829669061
 20
-12.2084369866
 10
34.3065000608
 20
-12.1911502114
 10
34.3290613748
 20
-12.173358533
 10
34.3506221171
 20
-12.1550846088
 10
34.3711548307
 20
-12.1363517102
 10
34.3906333677
 20
-12.1171836929
 10
34.4090329229
 20
-12.0976049671
  0
LWPOLYLINE
  5
32D
100
AcDbEntity
  8
RACCORDO
100
AcDbPolyline
 62
250
  6
CONTINUOUS
 90
13
 70
0
 10
33.4128836854
 20
-12.4225800376
 10
32.0986459965
 20
-12.3217702176
 10
30.8269981815
 20
-12.2026667031
 10
29.5982946333
 20
-12.0671826313
 10
28.4144113511
 20
-11.917388324
 10
27.2737518459
 20
-11.7548882178
 10
26.1713449404
 20
-11.5805741598
 10
25.106730698
 20
-11.3958069939
 10
24.0803965977
 20
-11.2021109766
 10
23.08899285
 20
-11.0002360241
 10
22.1315458331
 20
-10.791214675
 10
21.2091135058
 20
-10.5764130932
 10
20.2444482807
 20
-10.3380064869
  0
LWPOLYLINE
  5
32E
100
AcDbEntity
  8
RACCORDO
100
AcDbPolyline
 62
250
  6
CONTINUOUS
 90
67
 70
0
 10
17.3964568437
 20
-28.5053054675
 10
17.3868579704
 20
-28.4956597716
 10
17.3776661992
 20
-28.484978283
 10
17.3688919561
 20
-28.4732731132
 10
17.3605451908
 20
-28.4605575305
 10
17.3526353737
 20
-28.4468459568
 10
17.3451714837
 20
-28.4321539543
 10
17.338161988
 20
-28.416498191
 10
17.3316148339
 20
-28.3998964181
 10
17.3255374469
 20
-28.3823674646
 10
17.3199367196
 20
-28.3639312106
 10
17.3148190039
 20
-28.3446085656
 10
17.3101901042
 20
-28.3244214442
 10
17.3060552702
 20
-28.3033927414
 10
17.3024191914
 20
-28.2815463067
 10
17.2992859917
 20
-28.2589069172
 10
17.2966592245
 20
-28.235500249
 10
17.2945418691
 20
-28.2113528487
 10
17.2929363266
 20
-28.1864921029
 10
17.2918444182
 20
-28.1609462071
 10
17.2912673821
 20
-28.1347441341
 10
17.2912058727
 20
-28.1079156006
 10
17.29165996
 20
-28.0804910342
 10
17.2926291288
 20
-28.052501538
 10
17.2941122799
 20
-28.0239788562
 10
17.2961077314
 20
-27.9949553375
 10
17.2986132199
 20
-27.9654638988
 10
17.3016259041
 20
-27.9355379875
 10
17.305142367
 20
-27.9052115438
 10
17.3091586205
 20
-27.8745189622
 10
17.3136701096
 20
-27.8434950525
 10
17.3186717176
 20
-27.8121750002
 10
17.324157772
 20
-27.7805943266
 10
17.3301220508
 20
-27.7487888487
 10
17.3365577897
 20
-27.7167946385
 10
17.3434576896
 20
-27.6846479819
 10
17.3508139252
 20
-27.6523853378
 10
17.3586181532
 20
-27.6200432966
 10
17.3668615228
 20
-27.5876585388
 10
17.3755346846
 20
-27.5552677932
 10
17.3846278022
 20
-27.5229077957
 10
17.3941305626
 20
-27.4906152469
 10
17.4040321884
 20
-27.4584267713
 10
17.4143214496
 20
-27.4263788751
 10
17.4249866769
 20
-27.3945079052
 10
17.4360157743
 20
-27.3628500078
 10
17.4473962333
 20
-27.3314410874
 10
17.4591151468
 20
-27.3003167663
 10
17.4711592239
 20
-27.2695123438
 10
17.483514805
 20
-27.2390627564
 10
17.496167877
 20
-27.2090025385
 10
17.5091040895
 20
-27.1793657824
 10
17.5223087712
 20
-27.1501861005
 10
17.5357669459
 20
-27.1214965867
 10
17.5494633502
 20
-27.0933297789
 10
17.5633824504
 20
-27.0657176224
 10
17.5775084603
 20
-27.0386914332
 10
17.591825359
 20
-27.0122818628
 10
17.6063169092
 20
-26.9865188635
 10
17.6209666752
 20
-26.9614316541
 10
17.6357580423
 20
-26.9370486872
 10
17.6506742349
 20
-26.9133976164
 10
17.6656983359
 20
-26.8905052654
 10
17.6808133059
 20
-26.8683975974
 10
17.6960020024
 20
-26.8470996856
 10
17.7112471992
 20
-26.8266356849
 10
17.726531606
 20
-26.8070288044
  0
LWPOLYLINE
  5
32F
100
AcDbEntity
  8
RACCORDO
100
AcDbPolyline
 62
250
  6
CONTINUOUS
 90
22
 70
0
 10
17.3964568435
 20
-28.505305468
 10
17.4189801359
 20
-28.5281755868
 10
17.440711669
 20
-28.5530764125
 10
17.4616353716
 20
-28.5799895302
 10
17.4817357697
 20
-28.6088950363
 10
17.5009979984
 20
-28.6397715543
 10
17.5194078125
 20
-28.6725962498
 10
17.5369515971
 20
-28.7073448475
 10
17.553616378
 20
-28.7439916495
 10
17.569389831
 20
-28.7825095541
 10
17.5842602909
 20
-28.8228700759
 10
17.5982167605
 20
-28.8650433665
 10
17.6112489184
 20
-28.9089982373
 10
17.6233471268
 20
-28.9547021819
 10
17.6345024387
 20
-29.0021214004
 10
17.6447066042
 20
-29.0512208245
 10
17.653952077
 20
-29.1019641432
 10
17.6622320197
 20
-29.1543138299
 10
17.669540309
 20
-29.20823117
 10
17.6758715401
 20
-29.2636762894
 10
17.6812210307
 20
-29.3206081844
 10
17.6855848249
 20
-29.3789847515
  0
LWPOLYLINE
  5
330
100
AcDbEntity
  8
RACCORDO
100
AcDbPolyline
 62
7
  6
CONTINUOUS
 90
4
 70
0
 10
-6.0418310136
 20
-16.0883891637
 10
-6.0422851099
 20
-16.0847226767
 10
-6.0457157685
 20
-16.0788085515
 10
-6.0520141168
 20
-16.075271921
  0
LINE
  5
331
100
AcDbEntity
  8
RACCORDO
100
AcDbLine
 62
250
  6
CONTINUOUS
 10
-6.0684295077
 20
-16.1424063944
 11
-6.0440143885
 21
-17.1238557691
  0
LINE
  5
332
100
AcDbEntity
  8
RACCORDO
100
AcDbLine
 62
7
  6
CONTINUOUS
 10
-6.0418232758
 20
-16.0886990078
 11
-6.0187394672
 21
-17.0166317906
  0
LINE
  5
333
100
AcDbEntity
  8
RACCORDO
100
AcDbLine
 62
7
  6
CONTINUOUS
 10
-6.0188791277
 20
-17.0350544709
 11
-6.0187359956
 21
-17.0167725471
  0
LINE
  5
334
100
AcDbEntity
  8
DRAFT
100
AcDbLine
 62
7
  6
CONTINUOUS
 10
-12.3601609958
 20
-15.6484169388
 11
-12.3000999175
 21
-15.4825310738
  0
LINE
  5
335
100
AcDbEntity
  8
DRAFT
100
AcDbLine
 62
7
  6
CONTINUOUS
 10
-12.1168110278
 20
-15.3906072893
 11
-12.0504776664
 21
-15.2073976742
  0
LINE
  5
336
100
AcDbEntity
  8
DRAFT
100
AcDbLine
 62
7
  6
CONTINUOUS
 10
-11.8663510913
 20
-15.1131602422
 11
-11.8008554153
 21
-14.9322642747
  0
LINE
  5
337
100
AcDbEntity
  8
DRAFT
100
AcDbLine
 62
7
  6
CONTINUOUS
 10
-11.6158911547
 20
-14.8357131951
 11
-11.5512331642
 21
-14.6571308751
  0
LINE
  5
338
100
AcDbEntity
  8
RACCORDO
100
AcDbLine
 62
250
  6
CONTINUOUS
 10
-21.3574339091
 20
-13.155468395
 11
-21.0027217416
 21
-12.7669436849
  0
LINE
  5
339
100
AcDbEntity
  8
RACCORDO
100
AcDbLine
 62
250
  6
CONTINUOUS
 10
-21.087807539
 20
-13.4662542747
 11
-20.7330969588
 21
-13.0777313032
  0
LWPOLYLINE
  5
33A
100
AcDbEntity
  8
RACCORDO
100
AcDbPolyline
 62
250
  6
CONTINUOUS
 90
22
 70
0
 10
-24.9238664854
 20
20.2755529368
 10
-24.9598226865
 20
20.3201978533
 10
-24.9977446741
 20
20.3641808287
 10
-25.0376045486
 20
20.4074695041
 10
-25.0793729842
 20
20.4500320313
 10
-25.1230192512
 20
20.4918370966
 10
-25.1685112383
 20
20.5328539433
 10
-25.2158154763
 20
20.5730523948
 10
-25.2648971627
 20
20.6124028765
 10
-25.3157201873
 20
20.6508764377
 10
-25.3682471586
 20
20.6884447728
 10
-25.4224394318
 20
20.7250802423
 10
-25.4782571365
 20
20.760755893
 10
-25.5356592069
 20
20.7954454777
 10
-25.5946034113
 20
20.8291234748
 10
-25.6550463833
 20
20.861765107
 10
-25.7169436541
 20
20.8933463593
 10
-25.7802496848
 20
20.9238439969
 10
-25.8449179001
 20
20.9532355824
 10
-25.9109007225
 20
20.9814994918
 10
-25.9781496072
 20
21.0086149311
 10
-26.0466150783
 20
21.0345619509
  0
LWPOLYLINE
  5
33B
100
AcDbEntity
  8
RACCORDO
100
AcDbPolyline
 62
250
  6
CONTINUOUS
 90
64
 70
0
 10
-24.9238666072
 20
20.2755528983
 10
-24.908848976
 20
20.2567057154
 10
-24.8928235865
 20
20.2382071045
 10
-24.8758091185
 20
20.2200779542
 10
-24.8578262786
 20
20.202339587
 10
-24.8388951231
 20
20.1850110861
 10
-24.8190345669
 20
20.1681094802
 10
-24.7982661329
 20
20.151653176
 10
-24.7766143921
 20
20.1356617294
 10
-24.7541039576
 20
20.1201533192
 10
-24.7307604187
 20
20.105145575
 10
-24.7066103118
 20
20.0906555571
 10
-24.68168109
 20
20.0766997373
 10
-24.6560010923
 20
20.0632939804
 10
-24.6295995109
 20
20.0504535257
 10
-24.6025063586
 20
20.0381929698
 10
-24.5747524342
 20
20.0265262501
 10
-24.5463692874
 20
20.0154666293
 10
-24.5173891837
 20
20.0050266794
 10
-24.4878450667
 20
19.9952182684
 10
-24.4577705216
 20
19.9860525463
 10
-24.4271997362
 20
19.9775399324
 10
-24.3961674626
 20
19.9696901035
 10
-24.3647089775
 20
19.9625119833
 10
-24.3328600421
 20
19.9560137315
 10
-24.3006568615
 20
19.9502027353
 10
-24.2681360433
 20
19.9450856004
 10
-24.2353345564
 20
19.9406681438
 10
-24.2022896886
 20
19.9369553873
 10
-24.1690390046
 20
19.9339515513
 10
-24.1356203028
 20
19.9316600505
 10
-24.1020715727
 20
19.9300834899
 10
-24.0684309517
 20
19.9292236617
 10
-24.0347366815
 20
19.9290815432
 10
-24.0010270649
 20
19.9296572961
 10
-23.9673404221
 20
19.9309502658
 10
-23.9337150472
 20
19.9329589825
 10
-23.9001891647
 20
19.9356811629
 10
-23.866800886
 20
19.9391137122
 10
-23.8335881658
 20
19.9432527287
 10
-23.8005887597
 20
19.948093507
 10
-23.7678401805
 20
19.9536305443
 10
-23.7353796558
 20
19.9598575464
 10
-23.703244086
 20
19.9667674344
 10
-23.671470002
 20
19.9743523534
 10
-23.6400935236
 20
19.9826036811
 10
-23.609150319
 20
19.9915120375
 10
-23.5786755634
 20
20.001067296
 10
-23.5487038999
 20
20.0112585942
 10
-23.5192693993
 20
20.0220743471
 10
-23.4904055222
 20
20.0335022595
 10
-23.4621450801
 20
20.0455293404
 10
-23.4345201989
 20
20.058141918
 10
-23.4075622818
 20
20.0713256543
 10
-23.3813019737
 20
20.0850655626
 10
-23.3557691269
 20
20.0993460237
 10
-23.3309927663
 20
20.1141508039
 10
-23.307001057
 20
20.1294630735
 10
-23.2838212723
 20
20.145265426
 10
-23.2614797622
 20
20.1615398976
 10
-23.2400019241
 20
20.1782679879
 10
-23.2194121734
 20
20.1954306809
 10
-23.1997339159
 20
20.2130084665
 10
-23.1809895215
 20
20.2309813627
  0
LINE
  5
33C
100
AcDbEntity
  8
DRAFT
100
AcDbLine
 62
7
  6
CONTINUOUS
 10
-6.8408154455
 20
-17.3430153196
 11
-6.7924852641
 21
-17.1738661763
  0
LINE
  5
33D
100
AcDbEntity
  8
DRAFT
100
AcDbLine
 62
7
  6
CONTINUOUS
 10
-6.6428544386
 20
-17.0716063263
 11
-6.589378657
 21
-16.8844482731
  0
LINE
  5
33E
100
AcDbEntity
  8
DRAFT
100
AcDbLine
 62
7
  6
CONTINUOUS
 10
-6.439072517
 20
-16.7798249131
 11
-6.3862720499
 21
-16.5950303699
  0
LINE
  5
33F
100
AcDbEntity
  8
DRAFT
100
AcDbLine
 62
7
  6
CONTINUOUS
 10
-6.2352905954
 20
-16.4880434998
 11
-6.1831654427
 21
-16.3056124668
  0
LINE
  5
340
100
AcDbEntity
  8
RACCORDO
100
AcDbLine
 62
250
  6
CONTINUOUS
 10
35.9739484109
 20
-13.1981769874
 11
35.7543561123
 21
-13.1307423199
  0
LINE
  5
341
100
AcDbEntity
  8
RACCORDO
100
AcDbLine
 62
250
  6
CONTINUOUS
 10
35.7312418824
 20
-12.4369345816
 11
36.5431222188
 21
-12.6862551675
  0
LINE
  5
342
100
AcDbEntity
  8
RACCORDO
100
AcDbLine
 62
7
  6
CONTINUOUS
 10
35.7288511521
 20
-12.3408309855
 11
36.6825843009
 21
-12.6337131958
  0
LWPOLYLINE
  5
343
100
AcDbEntity
  8
RACCORDO
100
AcDbPolyline
 62
250
  6
CONTINUOUS
 90
15
 70
0
 10
9.8098863352
 20
-35.2565471835
 10
9.816209275
 20
-35.2753265857
 10
9.8230638605
 20
-35.2930696296
 10
9.8304413525
 20
-35.309753715
 10
9.8383332165
 20
-35.3253578576
 10
9.8467285325
 20
-35.3398619173
 10
9.8556140077
 20
-35.3532466232
 10
9.864977461
 20
-35.365494663
 10
9.8748078345
 20
-35.3765907043
 10
9.8850926064
 20
-35.3865206144
 10
9.8958186794
 20
-35.3952717472
 10
9.9069723937
 20
-35.4028329575
 10
9.9185395417
 20
-35.4091946146
 10
9.930505393
 20
-35.414348617
 10
9.9379970434
 20
-35.4168976501
  0
LWPOLYLINE
  5
344
100
AcDbEntity
  8
RACCORDO
100
AcDbPolyline
 62
250
  6
CONTINUOUS
 90
22
 70
0
 10
7.0645692557
 20
11.9126018488
 10
7.0854930474
 20
11.9920791502
 10
7.1055493381
 20
12.0715253422
 10
7.1247229191
 20
12.1508801502
 10
7.1429992587
 20
12.2300833665
 10
7.1603644914
 20
12.309074903
 10
7.1768054287
 20
12.3877948368
 10
7.1923096044
 20
12.466183444
 10
7.2068652635
 20
12.5441812525
 10
7.2204613491
 20
12.6217290928
 10
7.2330875533
 20
12.6987681308
 10
7.2447343042
 20
12.7752399179
 10
7.2553927522
 20
12.8510864425
 10
7.2650548178
 20
12.926250161
 10
7.2737131776
 20
13.0006740477
 10
7.2813612497
 20
13.0743016446
 10
7.2879978444
 20
13.147075677
 10
7.2936133306
 20
13.2189423458
 10
7.2981896206
 20
13.289851375
 10
7.3017186296
 20
13.3597503858
 10
7.3042022775
 20
13.4285849367
 10
7.3212890806
 20
14.2868694844
  0
LWPOLYLINE
  5
345
100
AcDbEntity
  8
RACCORDO
100
AcDbPolyline
 62
7
  6
CONTINUOUS
 90
4
 70
0
 10
-6.0440143885
 20
-17.1238557691
 10
-6.0306593407
 20
-17.0962546292
 10
-6.0224344265
 20
-17.0665105016
 10
-6.0188791277
 20
-17.0350544709
  0
LINE
  5
346
100
AcDbEntity
  8
RACCORDO
100
AcDbLine
 62
7
  6
CONTINUOUS
 10
-11.4175700621
 20
-14.5098075355
 11
-11.5512331642
 21
-14.6571308751
  0
LINE
  5
347
100
AcDbEntity
  8
DRAFT
100
AcDbLine
 62
7
  6
CONTINUOUS
 10
-11.6862171691
 20
-14.8059101125
 11
-11.8008554153
 21
-14.9322642747
  0
LINE
  5
348
100
AcDbEntity
  8
DRAFT
100
AcDbLine
 62
7
  6
CONTINUOUS
 10
-11.9375882238
 20
-15.0829710417
 11
-12.0504776664
 21
-15.2073976742
  0
LINE
  5
349
100
AcDbEntity
  8
DRAFT
100
AcDbLine
 62
7
  6
CONTINUOUS
 10
-12.1889592786
 20
-15.3600319709
 11
-12.3000999175
 21
-15.4825310738
  0
LWPOLYLINE
  5
34A
100
AcDbEntity
  8
RACCORDO
100
AcDbPolyline
 62
250
  6
CONTINUOUS
 90
12
 70
0
 10
8.3539713261
 20
-27.2253313526
 10
8.4171844625
 20
-27.9379366983
 10
8.4913671781
 20
-28.6565261454
 10
8.5770686088
 20
-29.3785190162
 10
8.6751999042
 20
-30.1040061153
 10
8.7871464732
 20
-30.8353046129
 10
8.9139189044
 20
-31.5709620582
 10
9.05640539
 20
-32.3085607497
 10
9.2160887809
 20
-33.0482398691
 10
9.3942429672
 20
-33.7882769308
 10
9.5918014334
 20
-34.5252880322
 10
9.8098746364
 20
-35.2565435829
  0
LINE
  5
34B
100
AcDbEntity
  8
RACCORDO
100
AcDbLine
 62
250
  6
CONTINUOUS
 10
8.296454553
 20
-26.4604108206
 11
8.3539713261
 21
-27.2253313526
  0
LWPOLYLINE
  5
34C
100
AcDbEntity
  8
RACCORDO
100
AcDbPolyline
 62
250
  6
CONTINUOUS
 90
12
 70
0
 10
7.3212890806
 20
14.2868694844
 10
7.3462976077
 20
15.1100286792
 10
7.3813237294
 20
15.9654718293
 10
7.4270078946
 20
16.8521089754
 10
7.4842017802
 20
17.7722399873
 10
7.5540952269
 20
18.7314091751
 10
7.6377077875
 20
19.7307080245
 10
7.7359906109
 20
20.7700239024
 10
7.8503302174
 20
21.8530920474
 10
7.9820066115
 20
22.9813904648
 10
8.1320601085
 20
24.1540085792
 10
8.3016657385
 20
25.3710808253
  0
LWPOLYLINE
  5
34D
100
AcDbEntity
  8
RACCORDO
100
AcDbPolyline
 62
250
  6
CONTINUOUS
 90
34
 70
0
 10
8.3016774367
 20
25.3710772482
 10
8.3067215803
 20
25.4041162318
 10
8.3123127771
 20
25.4374664821
 10
8.3184439068
 20
25.4710855244
 10
8.3251071611
 20
25.5049305414
 10
8.3322940543
 20
25.5389584283
 10
8.3399954336
 20
25.5731258472
 10
8.3482014911
 20
25.6073892826
 10
8.3569017759
 20
25.6417050966
 10
8.3660852081
 20
25.6760295849
 10
8.375740092
 20
25.7103190317
 10
8.3858541316
 20
25.7445297661
 10
8.3964144464
 20
25.7786182174
 10
8.4074075872
 20
25.8125409707
 10
8.4188195536
 20
25.8462548221
 10
8.4306358119
 20
25.8797168336
 10
8.4428413134
 20
25.9128843882
 10
8.4554205138
 20
25.9457152436
 10
8.4683573927
 20
25.9781675867
 10
8.4816354742
 20
26.0102000862
 10
8.495237848
 20
26.0417719456
 10
8.5091471905
 20
26.072842955
 10
8.5233457875
 20
26.1033735425
 10
8.537815556
 20
26.1333248244
 10
8.552538068
 20
26.1626586548
 10
8.5674945733
 20
26.1913376741
 10
8.5826660241
 20
26.219325357
 10
8.5980330984
 20
26.2465860581
 10
8.6135762253
 20
26.2730850585
 10
8.6292756096
 20
26.298788609
 10
8.6451112572
 20
26.3236639736
 10
8.6610630003
 20
26.3476794711
 10
8.6771105233
 20
26.3708045153
 10
8.6932333888
 20
26.3930096542
  0
LINE
  5
34E
100
AcDbEntity
  8
0
100
AcDbLine
 62
7
  6
CONTINUOUS
 10
-6.309544064
 20
-17.5061636139
 11
-6.0499787677
 21
-17.1327244204
  0
LINE
  5
34F
100
AcDbEntity
  8
RACCORDO
100
AcDbLine
 62
7
  6
CONTINUOUS
 10
-6.0744096766
 20
-16.1506403256
 11
-6.1831654427
 21
-16.3056124668
  0
LINE
  5
350
100
AcDbEntity
  8
DRAFT
100
AcDbLine
 62
7
  6
CONTINUOUS
 10
-6.2929959692
 20
-16.4621160937
 11
-6.3862720499
 21
-16.5950303699
  0
LINE
  5
351
100
AcDbEntity
  8
DRAFT
100
AcDbLine
 62
7
  6
CONTINUOUS
 10
-6.4975255007
 20
-16.7535616009
 11
-6.589378657
 21
-16.8844482731
  0
LINE
  5
352
100
AcDbEntity
  8
DRAFT
100
AcDbLine
 62
7
  6
CONTINUOUS
 10
-6.7020550321
 20
-17.0450071081
 11
-6.7924852641
 21
-17.1738661763
  0
LWPOLYLINE
  5
353
100
AcDbEntity
  8
RACCORDO
100
AcDbPolyline
 62
7
  6
CONTINUOUS
 90
5
 70
0
 10
-6.0684295077
 20
-16.1424063944
 10
-6.0548539921
 20
-16.1236677154
 10
-6.0462924906
 20
-16.1074538689
 10
-6.042284485
 20
-16.0941959394
 10
-6.0418310136
 20
-16.0883891637
  0
LWPOLYLINE
  5
354
100
AcDbEntity
  8
RACCORDO
100
AcDbPolyline
 62
7
  6
CONTINUOUS
 90
5
 70
0
 10
-11.4102218921
 20
-14.5019937042
 10
-11.3875436035
 20
-14.485139034
 10
-11.3632193801
 20
-14.4739518374
 10
-11.3374488699
 20
-14.4681022561
 10
-11.3100433886
 20
-14.46732433
  0
LWPOLYLINE
  5
355
100
AcDbEntity
  8
RACCORDO
100
AcDbPolyline
 62
250
  6
CONTINUOUS
 90
52
 70
0
 10
18.2003135255
 20
7.0325349648
 10
18.1670504594
 20
7.0285153197
 10
18.1336225539
 20
7.025203997
 10
18.1000678974
 20
7.0226044869
 10
18.0664261578
 20
7.0207195344
 10
18.0327341618
 20
7.0195508753
 10
17.9990258355
 20
7.0190995464
 10
17.9653380347
 20
7.0193660879
 10
17.9317105169
 20
7.0203502318
 10
17.898181509
 20
7.0220508595
 10
17.8647891262
 20
7.0244660376
 10
17.8315713282
 20
7.0275930207
 10
17.7985658764
 20
7.031428254
 10
17.7658102906
 20
7.0359673777
 10
17.7333418069
 20
7.041205232
 10
17.7011973346
 20
7.0471358623
 10
17.669413415
 20
7.0537525271
 10
17.6380261794
 20
7.0610477045
 10
17.6070713082
 20
7.0690131015
 10
17.5765839902
 20
7.0776396633
 10
17.5465988828
 20
7.0869175834
 10
17.5171500725
 20
7.0968363147
 10
17.4882710361
 20
7.1073845819
 10
17.4599946026
 20
7.118550394
 10
17.4323529162
 20
7.1303210578
 10
17.4053773994
 20
7.1426831927
 10
17.3790987174
 20
7.1556227456
 10
17.3535467432
 20
7.1691250073
 10
17.3287505239
 20
7.1831746285
 10
17.3047382472
 20
7.1977556379
 10
17.2815372099
 20
7.2128514602
 10
17.2591737864
 20
7.2284449347
 10
17.237673399
 20
7.244518335
 10
17.2170604889
 20
7.2610533893
 10
17.1973584884
 20
7.2780313009
 10
17.1785897944
 20
7.2954327695
 10
17.1607757427
 20
7.3132380136
 10
17.1439365841
 20
7.3314267925
 10
17.1280914609
 20
7.3499784296
 10
17.1132583855
 20
7.3688718357
 10
17.0994542199
 20
7.3880855332
 10
17.0866946563
 20
7.4075976804
 10
17.0749941996
 20
7.4273860963
 10
17.0643661507
 20
7.4474282857
 10
17.0548225912
 20
7.4677014652
 10
17.0463743701
 20
7.4881825885
 10
17.0390310912
 20
7.5088483732
 10
17.0328011022
 20
7.5296753269
 10
17.0276914851
 20
7.5506397738
 10
17.0237080485
 20
7.5717178819
 10
17.0208553207
 20
7.5928856902
 10
17.0191365446
 20
7.6141191355
  0
LWPOLYLINE
  5
356
100
AcDbEntity
  8
RACCORDO
100
AcDbPolyline
 62
250
  6
CONTINUOUS
 90
22
 70
0
 10
18.2003135248
 20
7.0325349674
 10
18.2805198172
 20
7.0415075567
 10
18.3610686827
 20
7.0491093266
 10
18.4419008599
 20
7.0553346846
 10
18.5229568794
 20
7.0601790505
 10
18.6041771069
 20
7.0636388603
 10
18.6855017872
 20
7.0657115685
 10
18.7668710884
 20
7.0663956504
 10
18.8482251458
 20
7.0656906026
 10
18.9295041058
 20
7.0635969439
 10
19.0106481701
 20
7.0601162146
 10
19.0915976397
 20
7.0552509758
 10
19.1722929586
 20
7.0490048067
 10
19.252674758
 20
7.0413823029
 10
19.3326838997
 20
7.0323890725
 10
19.4122615194
 20
7.0220317318
 10
19.4913490707
 20
7.0103179012
 10
19.5698883675
 20
6.9972561985
 10
19.6478216272
 20
6.9828562337
 10
19.7250915128
 20
6.967128601
 10
19.8016411757
 20
6.9500848715
 10
19.877414297
 20
6.9317375848
  0
LWPOLYLINE
  5
357
100
AcDbEntity
  8
RACCORDO
100
AcDbPolyline
 62
7
  6
CONTINUOUS
 90
4
 70
0
 10
13.998234584
 20
-22.2424991614
 10
13.9977804878
 20
-22.2388326744
 10
13.9943498292
 20
-22.2329185492
 10
13.9880514809
 20
-22.2293819188
  0
LINE
  5
358
100
AcDbEntity
  8
RACCORDO
100
AcDbLine
 62
250
  6
CONTINUOUS
 10
13.9716360899
 20
-22.2965163921
 11
13.9960512092
 21
-23.2779657669
  0
LINE
  5
359
100
AcDbEntity
  8
RACCORDO
100
AcDbLine
 62
7
  6
CONTINUOUS
 10
13.9982423218
 20
-22.2428090056
 11
14.0213261305
 21
-23.1707417884
  0
LINE
  5
35A
100
AcDbEntity
  8
RACCORDO
100
AcDbLine
 62
7
  6
CONTINUOUS
 10
14.0211864699
 20
-23.1891644686
 11
14.0213296021
 21
-23.1708825449
  0
LWPOLYLINE
  5
35B
100
AcDbEntity
  8
RACCORDO
100
AcDbPolyline
 62
250
  6
CONTINUOUS
 90
22
 70
0
 10
16.4626526438
 20
9.0321447361
 10
16.482649526
 20
9.110863428
 10
16.5018045271
 20
9.1895638446
 10
16.5201034793
 20
9.2681877847
 10
16.5375328477
 20
9.3466771034
 10
16.5540797406
 20
9.4249737555
 10
16.5697319192
 20
9.5030198382
 10
16.584477806
 20
9.5807576341
 10
16.5983064942
 20
9.6581296536
 10
16.6112077551
 20
9.7350786778
 10
16.623172046
 20
9.8115478005
 10
16.6341905172
 20
9.8874804702
 10
16.6442550184
 20
9.9628205325
 10
16.6533581049
 20
10.037512271
 10
16.6614930432
 20
10.1115004487
 10
16.6686538156
 20
10.1847303491
 10
16.6748351251
 20
10.2571478162
 10
16.6800323989
 20
10.3286992951
 10
16.6842417922
 20
10.3993318711
 10
16.6874601905
 20
10.4689933091
 10
16.6896852127
 20
10.5376320921
 10
16.6909152119
 20
10.6051974597
  0
LWPOLYLINE
  5
35C
100
AcDbEntity
  8
RACCORDO
100
AcDbPolyline
 62
250
  6
CONTINUOUS
 90
45
 70
0
 10
16.4626528733
 20
9.032144725
 10
16.4540997701
 20
8.9997520659
 10
16.4459791309
 20
8.9673757082
 10
16.4383001667
 20
8.9350523713
 10
16.4310715857
 20
8.9028187049
 10
16.4243015897
 20
8.8707112763
 10
16.4179978634
 20
8.838766529
 10
16.4121675581
 20
8.8070207024
 10
16.4068172839
 20
8.7755097912
 10
16.401953109
 20
8.7442695331
 10
16.39758055
 20
8.7133353591
 10
16.3937045659
 20
8.6827423529
 10
16.3903295528
 20
8.6525252114
 10
16.3874593383
 20
8.622718205
 10
16.3850971777
 20
8.5933551391
 10
16.38324575
 20
8.5644693156
 10
16.381907155
 20
8.5360934952
 10
16.3810829108
 20
8.50825986
 10
16.3807739523
 20
8.4809999773
 10
16.3809806299
 20
8.4543447637
 10
16.3817027091
 20
8.42832445
 10
16.382939371
 20
8.402968547
 10
16.384689213
 20
8.3783058117
 10
16.3869502507
 20
8.3543642153
 10
16.3897199196
 20
8.3311709109
 10
16.3929950786
 20
8.308752203
 10
16.3967720132
 20
8.2871335176
 10
16.4010464397
 20
8.2663393734
 10
16.4058135104
 20
8.2463933539
 10
16.4110678188
 20
8.2273180806
 10
16.4168034056
 20
8.2091351877
 10
16.4230137661
 20
8.1918652972
 10
16.4296918566
 20
8.1755279954
 10
16.4368301033
 20
8.1601418114
 10
16.4444204105
 20
8.1457241951
 10
16.4524541696
 20
8.1322914982
 10
16.4609222693
 20
8.1198589553
 10
16.4698151054
 20
8.1084406666
 10
16.4791225923
 20
8.0980495821
 10
16.4888341739
 20
8.0886974868
 10
16.498938836
 20
8.0803949873
 10
16.5094251184
 20
8.0731514998
 10
16.5202811282
 20
8.0669752394
 10
16.5314945531
 20
8.0618732109
 10
16.5418624928
 20
8.0582105648
  0
LINE
  5
35D
100
AcDbEntity
  8
DRAFT
100
AcDbLine
 62
7
  6
CONTINUOUS
 10
7.680015114
 20
-21.8022217072
 11
7.7399656801
 21
-21.6366410715
  0
LINE
  5
35E
100
AcDbEntity
  8
DRAFT
100
AcDbLine
 62
7
  6
CONTINUOUS
 10
7.9232545699
 20
-21.544717287
 11
7.9895879313
 21
-21.361507672
  0
LINE
  5
35F
100
AcDbEntity
  8
DRAFT
100
AcDbLine
 62
7
  6
CONTINUOUS
 10
8.1737145064
 20
-21.2672702399
 11
8.2392101824
 21
-21.0863742724
  0
LINE
  5
360
100
AcDbEntity
  8
DRAFT
100
AcDbLine
 62
7
  6
CONTINUOUS
 10
8.4241744429
 20
-20.9898231928
 11
8.4888324335
 21
-20.8112408729
  0
LINE
  5
361
100
AcDbEntity
  8
RACCORDO
100
AcDbLine
 62
250
  6
CONTINUOUS
 10
31.2518527559
 20
19.5799008127
 11
33.2458759073
 21
22.2630372129
  0
LINE
  5
362
100
AcDbEntity
  8
RACCORDO
100
AcDbLine
 62
250
  6
CONTINUOUS
 10
35.9757488751
 20
19.1164385647
 11
33.764305551
 21
16.6667117596
  0
LINE
  5
363
100
AcDbEntity
  8
RACCORDO
100
AcDbLine
 62
250
  6
CONTINUOUS
 10
15.4772362444
 20
9.332353651
 11
16.4626528733
 21
9.032144725
  0
LINE
  5
364
100
AcDbEntity
  8
RACCORDO
100
AcDbLine
 62
250
  6
CONTINUOUS
 10
-23.0002541571
 20
22.7939700407
 11
-20.1386381688
 21
21.9208929509
  0
LINE
  5
365
100
AcDbEntity
  8
RACCORDO
100
AcDbLine
 62
250
  6
CONTINUOUS
 10
14.3786749662
 20
9.6682442184
 11
15.4772362444
 21
9.332353651
  0
LINE
  5
366
100
AcDbEntity
  8
RACCORDO
100
AcDbLine
 62
250
  6
CONTINUOUS
 10
-20.1386381688
 20
21.9208929509
 11
-18.8521305515
 21
21.5272785847
  0
LINE
  5
367
100
AcDbEntity
  8
RACCORDO
100
AcDbLine
 62
250
  6
CONTINUOUS
 10
13.1692350914
 20
10.0386526962
 11
14.3786749662
 21
9.6682442184
  0
LINE
  5
368
100
AcDbEntity
  8
RACCORDO
100
AcDbLine
 62
250
  6
CONTINUOUS
 10
-18.8521305515
 20
21.5272785847
 11
-16.9391889883
 21
20.9409986676
  0
LINE
  5
369
100
AcDbEntity
  8
0
100
AcDbLine
 62
7
  6
CONTINUOUS
 10
-23.1820008697
 20
20.2570241604
 11
16.5418624928
 21
8.0582105648
  0
LINE
  5
36A
100
AcDbEntity
  8
RACCORDO
100
AcDbLine
 62
250
  6
CONTINUOUS
 10
-14.2140270063
 20
20.1046759244
 11
7.3056386548
 21
13.4963028138
  0
LINE
  5
36B
100
AcDbEntity
  8
RACCORDO
100
AcDbLine
 62
250
  6
CONTINUOUS
 10
-16.9391889883
 20
20.9409986676
 11
-14.2140270063
 21
20.1046759244
  0
LINE
  5
36C
100
AcDbEntity
  8
RACCORDO
100
AcDbLine
 62
250
  6
CONTINUOUS
 10
8.7936360787
 20
11.3814969064
 11
13.1692350914
 21
10.0386526962
  0
LINE
  5
36D
100
AcDbEntity
  8
RACCORDO
100
AcDbLine
 62
250
  6
CONTINUOUS
 10
7.3057630168
 20
13.4962646185
 11
10.6244517997
 21
12.4764697816
  0
LINE
  5
36E
100
AcDbEntity
  8
RACCORDO
100
AcDbLine
 62
250
  6
CONTINUOUS
 10
-19.5382126143
 20
20.0825464179
 11
8.7936360787
 21
11.3814969064
  0
LINE
  5
36F
100
AcDbEntity
  8
RACCORDO
100
AcDbLine
 62
250
  6
CONTINUOUS
 10
10.6244517997
 20
12.4764697816
 11
12.536443033
 21
11.8881489343
  0
LINE
  5
370
100
AcDbEntity
  8
RACCORDO
100
AcDbLine
 62
250
  6
CONTINUOUS
 10
-21.922654487
 20
20.8169207425
 11
-19.5382126143
 21
20.0825464179
  0
LINE
  5
371
100
AcDbEntity
  8
RACCORDO
100
AcDbLine
 62
250
  6
CONTINUOUS
 10
12.536443033
 20
11.8881489343
 11
13.8232112843
 21
11.491534997
  0
LINE
  5
372
100
AcDbEntity
  8
RACCORDO
100
AcDbLine
 62
250
  6
CONTINUOUS
 10
13.8232112843
 20
11.491534997
 11
14.9935880606
 21
11.1301469584
  0
LINE
  5
373
100
AcDbEntity
  8
RACCORDO
100
AcDbLine
 62
250
  6
CONTINUOUS
 10
14.9935880606
 20
11.1301469584
 11
16.6909145061
 21
10.6051966634
  0
LWPOLYLINE
  5
374
100
AcDbEntity
  8
RACCORDO
100
AcDbPolyline
 62
250
  6
CONTINUOUS
 90
3
 70
0
 10
-23.2612104891
 20
21.2309583205
 10
-22.9455529959
 20
21.1331174543
 10
-21.922654487
 20
20.8169207425
  0
LWPOLYLINE
  5
375
100
AcDbEntity
  8
RACCORDO
100
AcDbPolyline
 62
250
  6
CONTINUOUS
 90
73
 70
0
 10
16.4626528733
 20
9.032144725
 10
16.5024935632
 20
9.0197229688
 10
16.5409508862
 20
9.0069167433
 10
16.5780033627
 20
8.9938135162
 10
16.6130309516
 20
8.9807240039
 10
16.6466247091
 20
8.967521085
 10
16.6805776578
 20
8.953538767
 10
16.715127652
 20
8.9386394084
 10
16.7499974983
 20
8.9229219241
 10
16.7861908975
 20
8.9059323878
 10
16.8243601304
 20
8.8872729306
 10
16.8637768127
 20
8.8671801495
 10
16.9033756804
 20
8.8461563698
 10
16.942859793
 20
8.8243476177
 10
16.982471716
 20
8.8015984555
 10
17.0219746601
 20
8.7780300527
 10
17.0613793205
 20
8.7536252718
 10
17.1006212058
 20
8.7284085311
 10
17.1393630533
 20
8.7025933527
 10
17.1778658253
 20
8.6760273914
 10
17.2158274653
 20
8.6488987164
 10
17.2521096277
 20
8.6220086987
 10
17.286026668
 20
8.5959662095
 10
17.3183234688
 20
8.5703355835
 10
17.3500099057
 20
8.5443593192
 10
17.381175572
 20
8.5179546908
 10
17.4117099761
 20
8.4912456884
 10
17.4422636693
 20
8.4637111313
 10
17.4729973136
 20
8.4351703059
 10
17.5036758051
 20
8.4057883816
 10
17.5343281934
 20
8.3755331903
 10
17.5651233427
 20
8.3441951545
 10
17.5958040549
 20
8.3119695718
 10
17.6257897524
 20
8.2794536386
 10
17.6548916838
 20
8.2468740294
 10
17.6832886588
 20
8.2140503728
 10
17.7109848504
 20
8.1809915336
 10
17.7379580531
 20
8.1477346155
 10
17.7642158254
 20
8.1142818653
 10
17.789803314
 20
8.08058719
 10
17.8147113223
 20
8.0466661557
 10
17.8389287552
 20
8.0125378272
 10
17.8624909155
 20
7.9781579485
 10
17.8855056363
 20
7.9433579915
 10
17.9078314615
 20
7.9083365238
 10
17.9291576972
 20
7.8736072889
 10
17.9495439486
 20
7.8391293015
 10
17.9689676035
 20
7.8049891851
 10
17.9870706924
 20
7.7719073772
 10
18.0036989184
 20
7.7403356021
 10
18.0191507942
 20
7.7098734345
 10
18.0337572131
 20
7.6799628001
 10
18.0475804514
 20
7.6505528708
 10
18.0606145198
 20
7.6217204004
 10
18.0730339721
 20
7.5930917081
 10
18.0847847102
 20
7.5648647734
 10
18.095945139
 20
7.5368606669
 10
18.1068160621
 20
7.5081397153
 10
18.1174048786
 20
7.478529017
 10
18.1276081924
 20
7.4482259833
 10
18.1374831701
 20
7.4168513015
 10
18.147088852
 20
7.3839405248
 10
18.1561946721
 20
7.3500014929
 10
18.1644682056
 20
7.3161120936
 10
18.1718584789
 20
7.2824843352
 10
18.1784130796
 20
7.2489422081
 10
18.1840540402
 20
7.2159685164
 10
18.1887913123
 20
7.1836896891
 10
18.1926762576
 20
7.1519997919
 10
18.1957344222
 20
7.121023384
 10
18.198001912
 20
7.0908040867
 10
18.1995163929
 20
7.061307044
 10
18.2003135255
 20
7.0325349648
  0
LWPOLYLINE
  5
376
100
AcDbEntity
  8
0
100
AcDbPolyline
 62
7
  6
CONTINUOUS
 90
58
 70
0
 10
16.5418624928
 20
8.0582105648
 10
16.5519452726
 20
8.0550066705
 10
16.5624081392
 20
8.0514596927
 10
16.5732285687
 20
8.0475604943
 10
16.5843806928
 20
8.0433022526
 10
16.5958426455
 20
8.0386777377
 10
16.6075974028
 20
8.0336784747
 10
16.6196215132
 20
8.028299337
 10
16.6318879332
 20
8.022537855
 10
16.6443741326
 20
8.0163905134
 10
16.6570695573
 20
8.0098482799
 10
16.6699310566
 20
8.0029197007
 10
16.6828865348
 20
7.9956326368
 10
16.6958939018
 20
7.988002552
 10
16.7089397221
 20
7.9800298402
 10
16.7219950895
 20
7.9717249369
 10
16.7350379893
 20
7.9630952001
 10
16.7480363151
 20
7.9541559619
 10
16.7609471946
 20
7.9449324081
 10
16.7737436724
 20
7.9354410045
 10
16.7864021508
 20
7.9256972812
 10
16.7988867065
 20
7.9157282014
 10
16.8111740743
 20
7.905553039
 10
16.8232422681
 20
7.8951915913
 10
16.8350596428
 20
7.88467402
 10
16.8466053793
 20
7.8740233511
 10
16.857861963
 20
7.863261224
 10
16.8688052617
 20
7.8524175031
 10
16.8794270311
 20
7.841508138
 10
16.8897043729
 20
7.830565527
 10
16.8995959015
 20
7.8196458569
 10
16.9090781762
 20
7.808790858
 10
16.9181578696
 20
7.7980099528
 10
16.9268418217
 20
7.787311526
 10
16.9351287196
 20
7.7767136974
 10
16.9430072269
 20
7.7662488694
 10
16.950469882
 20
7.7559470169
 10
16.957525555
 20
7.7458168597
 10
16.9641609799
 20
7.7359000908
 10
16.970343304
 20
7.7262744273
 10
16.9760513917
 20
7.7170093301
 10
16.981325847
 20
7.7080771196
 10
16.9862242297
 20
7.6994117763
 10
16.9907753161
 20
7.6909870053
 10
16.9949519835
 20
7.6828803117
 10
16.9987277553
 20
7.6751817455
 10
17.0021051821
 20
7.6679345238
 10
17.0051116502
 20
7.6611313524
 10
17.0077659281
 20
7.6547820381
 10
17.0100738855
 20
7.6489302705
 10
17.0120657016
 20
7.643561252
 10
17.0137849888
 20
7.6386138888
 10
17.0152583727
 20
7.6340608643
 10
17.0164729797
 20
7.630000534
 10
17.0174181771
 20
7.6265568414
 10
17.018113258
 20
7.6237769618
 10
17.0186004556
 20
7.6216201859
 10
17.0188049216
 20
7.6206070092
  0
LWPOLYLINE
  5
377
100
AcDbEntity
  8
RACCORDO
100
AcDbPolyline
 62
250
  6
CONTINUOUS
 90
53
 70
0
 10
16.6909152119
 20
10.6051974597
 10
16.7680330337
 20
10.5804616923
 10
16.8424066285
 20
10.5548945194
 10
16.9140791572
 20
10.5286622571
 10
16.9818907893
 20
10.5022865696
 10
17.0467717145
 20
10.4756975403
 10
17.1118303506
 20
10.4479963285
 10
17.1774016843
 20
10.4191063418
 10
17.2428313805
 20
10.3892654053
 10
17.3096453641
 20
10.3578208584
 10
17.3788709948
 20
10.324284106
 10
17.4496300207
 20
10.2888516384
 10
17.5206567024
 20
10.2518501224
 10
17.5917176275
 20
10.2133177346
 10
17.6631249571
 20
10.1731098794
 10
17.7343962053
 20
10.1314045574
 10
17.8054617192
 20
10.0882258556
 10
17.8762241736
 20
10.043639124
 10
17.946173107
 20
9.9979348095
 10
18.0157996058
 20
9.9507422923
 10
18.0851151996
 20
9.901951352
 10
18.1529315142
 20
9.8523504556
 10
18.2183685342
 20
9.8026227474
 10
18.2817655883
 20
9.7526743944
 10
18.3437061168
 20
9.7022213194
 10
18.4038298713
 20
9.6516911243
 10
18.4619720578
 20
9.6012800729
 10
18.5189554989
 20
9.5502435824
 10
18.574869429
 20
9.4985151705
 10
18.629811767
 20
9.4460590717
 10
18.6845161453
 20
9.3921459
 10
18.7396635946
 20
9.3360457298
 10
18.7946594367
 20
9.2782606106
 10
18.8483535867
 20
9.2199294824
 10
18.9003345852
 20
9.1615250233
 10
18.9509217468
 20
9.1027351082
 10
19.0001135245
 20
9.0435629525
 10
19.0478782312
 20
8.9840747247
 10
19.094232006
 20
8.924283092
 10
19.1392357313
 20
8.8641090042
 10
19.1828653258
 20
8.8035932523
 10
19.2251059505
 20
8.7427762372
 10
19.2660183697
 20
8.6815740468
 10
19.3057868376
 20
8.6196897166
 10
19.3441636858
 20
8.5575048828
 10
19.3806095098
 20
8.4959607684
 10
19.4152044141
 20
8.4349974741
 10
19.4479403219
 20
8.3747474352
 10
19.4782774879
 20
8.3164478096
 10
19.5059734415
 20
8.2608624116
 10
19.5314862765
 20
8.2073798986
 10
19.5553452835
 20
8.155171119
 10
19.577303111
 20
8.1043638982
  0
LINE
  5
378
100
AcDbEntity
  8
RACCORDO
100
AcDbLine
 62
250
  6
CONTINUOUS
 10
17.0191365446
 20
7.6141191355
 11
17.0188985775
 21
7.6201429228
  0
LINE
  5
379
100
AcDbEntity
  8
RACCORDO
100
AcDbLine
 62
250
  6
CONTINUOUS
 10
19.0399612973
 20
-26.8157748944
 11
19.0605616178
 21
-27.548084677
  0
LINE
  5
37A
100
AcDbEntity
  8
RACCORDO
100
AcDbLine
 62
250
  6
CONTINUOUS
 10
19.0047595321
 20
-25.4732073146
 11
19.0399612973
 21
-26.8157748944
  0
LINE
  5
37B
100
AcDbEntity
  8
RACCORDO
100
AcDbLine
 62
250
  6
CONTINUOUS
 10
18.7858106983
 20
-16.8323264756
 11
19.0047595321
 21
-25.4732073146
  0
LINE
  5
37C
100
AcDbEntity
  8
0
100
AcDbLine
 62
7
  6
CONTINUOUS
 10
17.0188260421
 20
7.6197579973
 11
17.8789249196
 21
-26.9548634413
  0
LINE
  5
37D
100
AcDbEntity
  8
RACCORDO
100
AcDbLine
 62
250
  6
CONTINUOUS
 10
18.2110658426
 20
6.5275089674
 11
18.7858106983
 21
-16.8323264756
  0
LWPOLYLINE
  5
37E
100
AcDbEntity
  8
RACCORDO
100
AcDbPolyline
 62
250
  6
CONTINUOUS
 90
73
 70
0
 10
19.0605616178
 20
-27.548084677
 10
19.0611936073
 20
-27.5769814237
 10
19.061115141
 20
-27.6062268929
 10
19.0602877192
 20
-27.6357950188
 10
19.0586686464
 20
-27.6657475369
 10
19.056218151
 20
-27.6959642576
 10
19.0529219019
 20
-27.7261513594
 10
19.0487396435
 20
-27.7564035134
 10
19.0436679683
 20
-27.786574261
 10
19.0378173608
 20
-27.8160363883
 10
19.0312277863
 20
-27.8447376632
 10
19.0239232979
 20
-27.8727272253
 10
19.0160739211
 20
-27.8995712345
 10
19.0078057718
 20
-27.9250959118
 10
18.9991269936
 20
-27.9495191151
 10
18.9900513533
 20
-27.9730083881
 10
18.9806763505
 20
-27.995433813
 10
18.9710028242
 20
-28.0169620198
 10
18.9608457538
 20
-28.0381770245
 10
18.9502112703
 20
-28.0590882981
 10
18.9390987183
 20
-28.0796740167
 10
18.9272360468
 20
-28.1004237243
 10
18.9145839674
 20
-28.1213203309
 10
18.9011145384
 20
-28.1423164142
 10
18.8865012605
 20
-28.1638046607
 10
18.8704910799
 20
-28.1859671735
 10
18.8531810094
 20
-28.208478767
 10
18.8347620738
 20
-28.2309630912
 10
18.81514343
 20
-28.2534234668
 10
18.7943258508
 20
-28.2757473019
 10
18.7727151469
 20
-28.2974455097
 10
18.7504561601
 20
-28.3183781027
 10
18.7274249211
 20
-28.3386632057
 10
18.7036770244
 20
-28.3582446026
 10
18.679265054
 20
-28.377081835
 10
18.654162411
 20
-28.3951980556
 10
18.6283053756
 20
-28.4126311111
 10
18.6016433883
 20
-28.4294003729
 10
18.5742385088
 20
-28.4454524298
 10
18.546198302
 20
-28.4607182265
 10
18.5173187897
 20
-28.4752988109
 10
18.4878260746
 20
-28.489068399
 10
18.4585314704
 20
-28.5016901632
 10
18.4300362471
 20
-28.5130201173
 10
18.4018824207
 20
-28.523343689
 10
18.3732972961
 20
-28.5329733593
 10
18.3441805782
 20
-28.5419461596
 10
18.3146590118
 20
-28.5502174493
 10
18.2842404245
 20
-28.557886794
 10
18.2529252013
 20
-28.5649136184
 10
18.2207093706
 20
-28.5712708112
 10
18.1870554199
 20
-28.5770072554
 10
18.1515216233
 20
-28.5820962317
 10
18.1145042287
 20
-28.5863940876
 10
18.0767284324
 20
-28.58978655
 10
18.0382758932
 20
-28.5922505361
 10
17.9990890021
 20
-28.5937609957
 10
17.9597259352
 20
-28.5942937373
 10
17.9203701977
 20
-28.5938687178
 10
17.8808996641
 20
-28.5925049136
 10
17.8414323505
 20
-28.5902239735
 10
17.8016650024
 20
-28.5870195252
 10
17.7619549073
 20
-28.582929198
 10
17.7234335089
 20
-28.578123035
 10
17.6868266174
 20
-28.5728058081
 10
17.651497532
 20
-28.566988477
 10
17.6165387242
 20
-28.5605665587
 10
17.582297559
 20
-28.5536397817
 10
17.5484725802
 20
-28.5461864149
 10
17.5131580365
 20
-28.5377603835
 10
17.4757203904
 20
-28.5281157179
 10
17.4368139598
 20
-28.5173234096
 10
17.3964568437
 20
-28.5053054675
  0
LINE
  5
37F
100
AcDbEntity
  8
RACCORDO
100
AcDbLine
 62
250
  6
CONTINUOUS
 10
18.2003135255
 20
7.0325349648
 11
18.2110658426
 21
6.5275089674
  0
LINE
  5
380
100
AcDbEntity
  8
DRAFT
100
AcDbLine
 62
7
  6
CONTINUOUS
 10
13.1990866652
 20
-23.4976974997
 11
13.2475803335
 21
-23.327976174
  0
LINE
  5
381
100
AcDbEntity
  8
DRAFT
100
AcDbLine
 62
7
  6
CONTINUOUS
 10
13.397211159
 20
-23.2257163241
 11
13.4506869407
 21
-23.0385582708
  0
LINE
  5
382
100
AcDbEntity
  8
DRAFT
100
AcDbLine
 62
7
  6
CONTINUOUS
 10
13.6009930807
 20
-22.9339349108
 11
13.6537935478
 21
-22.7491403677
  0
LINE
  5
383
100
AcDbEntity
  8
0
100
AcDbLine
 62
7
  6
CONTINUOUS
 10
17.0188049216
 20
7.6206070092
 11
17.0189703944
 21
7.6197615883
  0
LINE
  5
384
100
AcDbEntity
  8
RACCORDO
100
AcDbLine
 62
250
  6
CONTINUOUS
 10
19.966855277
 20
3.5071170078
 11
20.0137180705
 21
1.7588090006
  0
LINE
  5
385
100
AcDbEntity
  8
RACCORDO
100
AcDbLine
 62
250
  6
CONTINUOUS
 10
19.9138626905
 20
5.4470156082
 11
19.966855277
 21
3.5071170078
  0
LINE
  5
386
100
AcDbEntity
  8
RACCORDO
100
AcDbLine
 62
250
  6
CONTINUOUS
 10
20.7227116304
 20
-27.0860678929
 11
20.736782566
 21
-27.6135154326
  0
LINE
  5
387
100
AcDbEntity
  8
RACCORDO
100
AcDbLine
 62
250
  6
CONTINUOUS
 10
20.0137180705
 20
1.7588090006
 11
20.0775238008
 21
-0.6860102246
  0
LINE
  5
388
100
AcDbEntity
  8
RACCORDO
100
AcDbLine
 62
250
  6
CONTINUOUS
 10
20.0775238008
 20
-0.6860102246
 11
20.1305824955
 21
-2.7565409576
  0
LINE
  5
389
100
AcDbEntity
  8
RACCORDO
100
AcDbLine
 62
250
  6
CONTINUOUS
 10
20.1305824955
 20
-2.7565409576
 11
20.1908977623
 21
-5.1428342812
  0
LINE
  5
38A
100
AcDbEntity
  8
RACCORDO
100
AcDbLine
 62
250
  6
CONTINUOUS
 10
20.1908977623
 20
-5.1428342812
 11
20.2594291634
 21
-7.8863047042
  0
LINE
  5
38B
100
AcDbEntity
  8
RACCORDO
100
AcDbLine
 62
250
  6
CONTINUOUS
 10
20.2594291634
 20
-7.8863047042
 11
20.4165249424
 21
-14.2035494758
  0
LINE
  5
38C
100
AcDbEntity
  8
RACCORDO
100
AcDbLine
 62
250
  6
CONTINUOUS
 10
20.4165249424
 20
-14.2035494758
 11
20.4446891176
 21
-15.3427568961
  0
LWPOLYLINE
  5
38D
100
AcDbEntity
  8
RACCORDO
100
AcDbPolyline
 62
250
  6
CONTINUOUS
 90
3
 70
0
 10
20.4446891176
 20
-15.3427568961
 10
20.4711013761
 20
-16.4165885493
 10
20.4836619455
 20
-16.9294051491
  0
LINE
  5
38E
100
AcDbEntity
  8
RACCORDO
100
AcDbLine
 62
250
  6
CONTINUOUS
 10
19.8889619973
 20
6.4311318197
 11
19.9138626905
 21
5.4470156082
  0
LINE
  5
38F
100
AcDbEntity
  8
RACCORDO
100
AcDbLine
 62
250
  6
CONTINUOUS
 10
20.4836619455
 20
-16.9294051491
 11
20.5075870558
 21
-17.9105033657
  0
LINE
  5
390
100
AcDbEntity
  8
RACCORDO
100
AcDbLine
 62
250
  6
CONTINUOUS
 10
20.5075870558
 20
-17.9105033657
 11
20.5299560602
 21
-18.8334615546
  0
LINE
  5
391
100
AcDbEntity
  8
RACCORDO
100
AcDbLine
 62
250
  6
CONTINUOUS
 10
20.7025471201
 20
-26.2628094642
 11
20.7227116304
 21
-27.0860678929
  0
LWPOLYLINE
  5
392
100
AcDbEntity
  8
RACCORDO
100
AcDbPolyline
 62
250
  6
CONTINUOUS
 90
3
 70
0
 10
20.5299560602
 20
-18.8334615546
 10
20.5508707254
 20
-19.702031501
 10
20.5608135916
 20
-20.1170792855
  0
LINE
  5
393
100
AcDbEntity
  8
RACCORDO
100
AcDbLine
 62
250
  6
CONTINUOUS
 10
20.5608135916
 20
-20.1170792855
 11
20.5797071592
 21
-20.9099335325
  0
LINE
  5
394
100
AcDbEntity
  8
RACCORDO
100
AcDbLine
 62
250
  6
CONTINUOUS
 10
20.5797071592
 20
-20.9099335325
 11
20.605740029
 21
-22.0124984669
  0
LINE
  5
395
100
AcDbEntity
  8
RACCORDO
100
AcDbLine
 62
250
  6
CONTINUOUS
 10
20.605740029
 20
-22.0124984669
 11
20.6291840035
 21
-23.0195461096
  0
LINE
  5
396
100
AcDbEntity
  8
RACCORDO
100
AcDbLine
 62
250
  6
CONTINUOUS
 10
19.877414297
 20
6.9317375848
 11
19.8889619973
 21
6.4311318197
  0
LINE
  5
397
100
AcDbEntity
  8
RACCORDO
100
AcDbLine
 62
250
  6
CONTINUOUS
 10
20.6862990428
 20
-25.5588916459
 11
20.7025471201
 21
-26.2628094642
  0
LINE
  5
398
100
AcDbEntity
  8
RACCORDO
100
AcDbLine
 62
250
  6
CONTINUOUS
 10
20.6291840035
 20
-23.0195461096
 11
20.656797178
 21
-24.2302882428
  0
LWPOLYLINE
  5
399
100
AcDbEntity
  8
RACCORDO
100
AcDbPolyline
 62
250
  6
CONTINUOUS
 90
3
 70
0
 10
20.656797178
 20
-24.2302882428
 10
20.67503916
 20
-25.0501986846
 10
20.6862990428
 20
-25.5588916459
  0
LWPOLYLINE
  5
39A
100
AcDbEntity
  8
RACCORDO
100
AcDbPolyline
 62
250
  6
CONTINUOUS
 90
19
 70
0
 10
20.7367825093
 20
-27.6135155223
 10
20.7376109176
 20
-27.6689011606
 10
20.7370121368
 20
-27.7249534292
 10
20.7349043476
 20
-27.7816149587
 10
20.7312042405
 20
-27.8390122507
 10
20.7258200358
 20
-27.8969198397
 10
20.7186988819
 20
-27.9547662291
 10
20.7097445494
 20
-28.0127179782
 10
20.6989656503
 20
-28.0704795031
 10
20.6866155966
 20
-28.1268319705
 10
20.672833976
 20
-28.1817040554
 10
20.6576108022
 20
-28.2352117851
 10
20.6411493454
 20
-28.2865035596
 10
20.623456316
 20
-28.3351915283
 10
20.6047998863
 20
-28.3816928431
 10
20.5858322383
 20
-28.4263938935
 10
20.566977358
 20
-28.4689473709
 10
20.5483355257
 20
-28.5093294406
 10
20.5300303523
 20
-28.5483489926
  0
LINE
  5
39B
100
AcDbEntity
  8
DRAFT
100
AcDbLine
 62
7
  6
CONTINUOUS
 10
13.8047750023
 20
-22.6421534976
 11
13.8569001549
 21
-22.4597224645
  0
LWPOLYLINE
  5
39C
100
AcDbEntity
  8
RACCORDO
100
AcDbPolyline
 62
7
  6
CONTINUOUS
 90
4
 70
0
 10
13.9960512092
 20
-23.2779657669
 10
14.0094062569
 20
-23.250364627
 10
14.0176311711
 20
-23.2206204993
 10
14.0211864699
 20
-23.1891644686
  0
LINE
  5
39D
100
AcDbEntity
  8
RACCORDO
100
AcDbLine
 62
7
  6
CONTINUOUS
 10
8.6224955356
 20
-20.6639175333
 11
8.4888324335
 21
-20.8112408729
  0
LINE
  5
39E
100
AcDbEntity
  8
DRAFT
100
AcDbLine
 62
7
  6
CONTINUOUS
 10
8.3538484286
 20
-20.9600201103
 11
8.2392101824
 21
-21.0863742724
  0
LINE
  5
39F
100
AcDbEntity
  8
DRAFT
100
AcDbLine
 62
7
  6
CONTINUOUS
 10
8.1024773738
 20
-21.2370810395
 11
7.9895879313
 21
-21.361507672
  0
LINE
  5
3A0
100
AcDbEntity
  8
DRAFT
100
AcDbLine
 62
7
  6
CONTINUOUS
 10
7.851106319
 20
-21.5141419687
 11
7.7399656801
 21
-21.6366410715
  0
LWPOLYLINE
  5
3A1
100
AcDbEntity
  8
RACCORDO
100
AcDbPolyline
 62
7
  6
CONTINUOUS
 90
5
 70
0
 10
8.6298437056
 20
-20.656103702
 10
8.6525219942
 20
-20.6392490318
 10
8.6768462176
 20
-20.6280618352
 10
8.7026167277
 20
-20.6222122539
 10
8.7300222091
 20
-20.6214343278
  0
LWPOLYLINE
  5
3A2
100
AcDbEntity
  8
0
100
AcDbPolyline
 62
7
  6
CONTINUOUS
 90
18
 70
0
 10
-23.2760199199
 20
20.2737512706
 10
-23.2762224092
 20
20.2737320406
 10
-23.2755434175
 20
20.2737730328
 10
-23.2739374707
 20
20.2738260749
 10
-23.2714064357
 20
20.2738395993
 10
-23.2681103949
 20
20.2737688322
 10
-23.2641777635
 20
20.2735845114
 10
-23.2596082273
 20
20.2732593121
 10
-23.2543893604
 20
20.2727643836
 10
-23.248517394
 20
20.2720706664
 10
-23.2420376837
 20
20.2711560427
 10
-23.2349728764
 20
20.2699982565
 10
-23.2273304326
 20
20.2685736725
 10
-23.2191483402
 20
20.2668655233
 10
-23.2104922684
 20
20.2648665233
 10
-23.2014031662
 20
20.2625679724
 10
-23.1918962691
 20
20.2599566469
 10
-23.1820008697
 20
20.2570241604
  0
LWPOLYLINE
  5
3A3
100
AcDbEntity
  8
RACCORDO
100
AcDbPolyline
 62
250
  6
CONTINUOUS
 90
40
 70
0
 10
32.5733729076
 20
16.4084475781
 10
32.6069760625
 20
16.4017685248
 10
32.6409432048
 20
16.3957981872
 10
32.6752319431
 20
16.3905440164
 10
32.7097994845
 20
16.3860125697
 10
32.7446026885
 20
16.3822095023
 10
32.7795981201
 20
16.3791395605
 10
32.8147421046
 20
16.3768065757
 10
32.8499907819
 20
16.3752134594
 10
32.8853001611
 20
16.3743622
 10
32.9206261759
 20
16.3742538597
 10
32.9559247388
 20
16.3748885737
 10
32.9911517968
 20
16.3762655501
 10
33.026263386
 20
16.3783830701
 10
33.0612156869
 20
16.3812384913
 10
33.0959650784
 20
16.3848282499
 10
33.130468193
 20
16.389147866
 10
33.1646819702
 20
16.3941919485
 10
33.198563711
 20
16.3999542024
 10
33.2320711303
 20
16.4064274364
 10
33.2651624106
 20
16.4136035717
 10
33.2977962536
 20
16.4214736525
 10
33.3299319317
 20
16.4300278567
 10
33.3615293393
 20
16.4392555088
 10
33.3925490424
 20
16.4491450923
 10
33.4229523281
 20
16.459684265
 10
33.4527012526
 20
16.4708598739
 10
33.4817586889
 20
16.4826579717
 10
33.510088373
 20
16.4950638341
 10
33.537654949
 20
16.5080619786
 10
33.5644240136
 20
16.5216361833
 10
33.5903621587
 20
16.5357695074
 10
33.615437013
 20
16.5504443124
 10
33.6396172829
 20
16.5656422838
 10
33.6628727911
 20
16.5813444545
 10
33.6851745144
 20
16.597531228
 10
33.70649462
 20
16.6141824028
 10
33.7268065001
 20
16.6312771983
 10
33.7460848053
 20
16.6487942798
 10
33.764305476
 20
16.6667117859
  0
LWPOLYLINE
  5
3A4
100
AcDbEntity
  8
RACCORDO
100
AcDbPolyline
 62
250
  6
CONTINUOUS
 90
28
 70
0
 10
-36.7389148315
 20
37.6935796203
 10
-36.7674539782
 20
37.7059838655
 10
-36.7952398744
 20
37.7189772875
 10
-36.822237843
 20
37.7325436705
 10
-36.8484141901
 20
37.7466660834
 10
-36.8737362475
 20
37.7613269012
 10
-36.8981724128
 20
37.7765078271
 10
-36.9216921893
 20
37.7921899151
 10
-36.9442662242
 20
37.8083535937
 10
-36.9658663447
 20
37.8249786905
 10
-36.9864655936
 20
37.8420444571
 10
-37.0060382628
 20
37.8595295953
 10
-37.0245599253
 20
37.8774122834
 10
-37.0420074659
 20
37.8956702035
 10
-37.0583591098
 20
37.9142805696
 10
-37.07359445
 20
37.9332201556
 10
-37.0876944726
 20
37.9524653248
 10
-37.1006415805
 20
37.9719920589
 10
-37.1124196156
 20
37.9917759884
 10
-37.1230138789
 20
38.0117924225
 10
-37.1324111484
 20
38.0320163806
 10
-37.1405996963
 20
38.0524226229
 10
-37.1475693032
 20
38.0729856822
 10
-37.1533112709
 20
38.0936798955
 10
-37.1578184334
 20
38.1144794362
 10
-37.1610851656
 20
38.1353583461
 10
-37.1631073907
 20
38.1562905682
 10
-37.163882585
 20
38.1772499788
  0
LWPOLYLINE
  5
3A5
100
AcDbEntity
  8
RACCORDO
100
AcDbPolyline
 62
250
  6
CONTINUOUS
 90
18
 70
0
 10
19.577303111
 20
8.1043638982
 10
19.6606657016
 20
7.9015142367
 10
19.6822241712
 20
7.8473387255
 10
19.7040531241
 20
7.7908784135
 10
19.7256836005
 20
7.7326513019
 10
19.7465295678
 20
7.6722743794
 10
19.7664173122
 20
7.6090640002
 10
19.7851372461
 20
7.5439314517
 10
19.8021629265
 20
7.4788722191
 10
19.8174594608
 20
7.4142197827
 10
19.831071272
 20
7.3496262623
 10
19.8428127895
 20
7.2860601039
 10
19.852687535
 20
7.2238014036
 10
19.8608141354
 20
7.162653988
 10
19.8672697988
 20
7.102846225
 10
19.8721393062
 20
7.0444530868
 10
19.8754956871
 20
6.987410985
 10
19.8774142337
 20
6.9317374866
  0
LINE
  5
3A6
100
AcDbEntity
  8
0
100
AcDbLine
 62
7
  6
CONTINUOUS
 10
13.7301395368
 20
-23.6608231944
 11
13.99008683
 21
-23.2868344182
  0
LINE
  5
3A7
100
AcDbEntity
  8
RACCORDO
100
AcDbLine
 62
7
  6
CONTINUOUS
 10
13.9656559211
 20
-22.3047503233
 11
13.8569001549
 21
-22.4597224645
  0
LINE
  5
3A8
100
AcDbEntity
  8
DRAFT
100
AcDbLine
 62
7
  6
CONTINUOUS
 10
13.7470696285
 20
-22.6162260914
 11
13.6537935478
 21
-22.7491403677
  0
LINE
  5
3A9
100
AcDbEntity
  8
DRAFT
100
AcDbLine
 62
7
  6
CONTINUOUS
 10
13.542540097
 20
-22.9076715987
 11
13.4506869407
 21
-23.0385582708
  0
LINE
  5
3AA
100
AcDbEntity
  8
DRAFT
100
AcDbLine
 62
7
  6
CONTINUOUS
 10
13.3380105655
 20
-23.1991171059
 11
13.2475803335
 21
-23.327976174
  0
LWPOLYLINE
  5
3AB
100
AcDbEntity
  8
RACCORDO
100
AcDbPolyline
 62
7
  6
CONTINUOUS
 90
5
 70
0
 10
13.9716360899
 20
-22.2965163921
 10
13.9852116055
 20
-22.2777777132
 10
13.9937731071
 20
-22.2615638666
 10
13.9977811127
 20
-22.2483059372
 10
13.998234584
 20
-22.2424991614
  0
LINE
  5
3AC
100
AcDbEntity
  8
RACCORDO
100
AcDbLine
 62
250
  6
CONTINUOUS
 10
-29.0835763526
 20
36.8176914132
 11
-30.2859118241
 21
37.1779911293
  0
LINE
  5
3AD
100
AcDbEntity
  8
RACCORDO
100
AcDbLine
 62
250
  6
CONTINUOUS
 10
-30.2859118241
 20
37.1779911293
 11
-30.8053492873
 21
37.3340925381
  0
LWPOLYLINE
  5
3AE
100
AcDbEntity
  8
RACCORDO
100
AcDbPolyline
 62
250
  6
CONTINUOUS
 90
3
 70
0
 10
-25.5946615175
 20
35.7637061087
 10
-25.9138992669
 20
35.8600689006
 10
-26.2234944244
 20
35.9535327397
  0
LINE
  5
3AF
100
AcDbEntity
  8
RACCORDO
100
AcDbLine
 62
250
  6
CONTINUOUS
 10
-26.2234944244
 20
35.9535327397
 11
-27.8970211897
 21
36.4588968202
  0
LWPOLYLINE
  5
3B0
100
AcDbEntity
  8
RACCORDO
100
AcDbPolyline
 62
250
  6
CONTINUOUS
 90
3
 70
0
 10
-34.9701959192
 20
38.5887196969
 10
-35.0687781976
 20
38.6183510914
 10
-35.0992462194
 20
38.6276280404
  0
LINE
  5
3B1
100
AcDbEntity
  8
RACCORDO
100
AcDbLine
 62
250
  6
CONTINUOUS
 10
-23.8415498148
 20
35.2338730203
 11
-25.5946615175
 21
35.7637061087
  0
LINE
  5
3B2
100
AcDbEntity
  8
RACCORDO
100
AcDbLine
 62
250
  6
CONTINUOUS
 10
-27.8970211897
 20
36.4588968202
 11
-29.0835763526
 21
36.8176914132
  0
LINE
  5
3B3
100
AcDbEntity
  8
RACCORDO
100
AcDbLine
 62
250
  6
CONTINUOUS
 10
-31.2751577632
 20
37.4771005023
 11
-32.6526273345
 21
37.8935418793
  0
LINE
  5
3B4
100
AcDbEntity
  8
RACCORDO
100
AcDbLine
 62
250
  6
CONTINUOUS
 10
-32.6526273345
 20
37.8935418793
 11
-33.7099361676
 21
38.2139430287
  0
LWPOLYLINE
  5
3B5
100
AcDbEntity
  8
RACCORDO
100
AcDbPolyline
 62
250
  6
CONTINUOUS
 90
5
 70
0
 10
-33.7099361676
 20
38.2139430287
 10
-33.9889294003
 20
38.2986055804
 10
-34.0537250486
 20
38.3182786248
 10
-34.1165622352
 20
38.3373604378
 10
-34.2939607131
 20
38.391186097
  0
LINE
  5
3B6
100
AcDbEntity
  8
RACCORDO
100
AcDbLine
 62
250
  6
CONTINUOUS
 10
-22.6498608638
 20
34.8725212338
 11
-23.8415498148
 21
35.2338730203
  0
LINE
  5
3B7
100
AcDbEntity
  8
RACCORDO
100
AcDbLine
 62
250
  6
CONTINUOUS
 10
-21.3400270314
 20
34.474019516
 11
-22.6498608638
 21
34.8725212338
  0
LINE
  5
3B8
100
AcDbEntity
  8
RACCORDO
100
AcDbLine
 62
250
  6
CONTINUOUS
 10
-30.8053492873
 20
37.3340925381
 11
-31.2751577632
 21
37.4771005023
  0
LINE
  5
3B9
100
AcDbEntity
  8
RACCORDO
100
AcDbLine
 62
250
  6
CONTINUOUS
 10
-20.3959264873
 20
34.1858908125
 11
-21.3400270314
 21
34.474019516
  0
LWPOLYLINE
  5
3BA
100
AcDbEntity
  8
RACCORDO
100
AcDbPolyline
 62
250
  6
CONTINUOUS
 90
5
 70
0
 10
-34.2939607131
 20
38.391186097
 10
-34.4547001078
 20
38.4402249668
 10
-34.5050210276
 20
38.4553556578
 10
-34.5540963648
 20
38.4697234635
 10
-34.6486376091
 20
38.4967300002
  0
LINE
  5
3BB
100
AcDbEntity
  8
RACCORDO
100
AcDbLine
 62
250
  6
CONTINUOUS
 10
-19.3914295473
 20
33.878544619
 11
-20.3959264873
 21
34.1858908125
  0
LINE
  5
3BC
100
AcDbEntity
  8
RACCORDO
100
AcDbLine
 62
250
  6
CONTINUOUS
 10
13.8079549352
 20
23.683754182
 11
8.3016774393
 21
25.3710772757
  0
LINE
  5
3BD
100
AcDbEntity
  8
RACCORDO
100
AcDbLine
 62
250
  6
CONTINUOUS
 10
-18.3243263307
 20
33.5512687614
 11
-19.3914295473
 21
33.878544619
  0
LINE
  5
3BE
100
AcDbEntity
  8
RACCORDO
100
AcDbLine
 62
250
  6
CONTINUOUS
 10
8.3016774367
 20
25.3710772482
 11
-12.6290811352
 21
31.7987104293
  0
LINE
  5
3BF
100
AcDbEntity
  8
RACCORDO
100
AcDbLine
 62
250
  6
CONTINUOUS
 10
15.350005676
 20
23.2095510176
 11
13.8079549352
 21
23.683754182
  0
LWPOLYLINE
  5
3C0
100
AcDbEntity
  8
RACCORDO
100
AcDbPolyline
 62
250
  6
CONTINUOUS
 90
4
 70
0
 10
-12.6290577344
 20
31.798703242
 10
-15.357314961
 20
32.6382810535
 10
-15.9870802021
 20
32.8323413491
 10
-18.3243263307
 20
33.5512687614
  0
LINE
  5
3C1
100
AcDbEntity
  8
RACCORDO
100
AcDbLine
 62
250
  6
CONTINUOUS
 10
16.7591713928
 20
22.7746722222
 11
15.350005676
 21
23.2095510176
  0
LINE
  5
3C2
100
AcDbEntity
  8
RACCORDO
100
AcDbLine
 62
250
  6
CONTINUOUS
 10
18.0444547031
 20
22.3765965073
 11
16.7591713928
 21
22.7746722222
  0
LINE
  5
3C3
100
AcDbEntity
  8
RACCORDO
100
AcDbLine
 62
250
  6
CONTINUOUS
 10
29.8485700637
 20
18.694387819
 11
29.7841027836
 21
18.7144007078
  0
LINE
  5
3C4
100
AcDbEntity
  8
RACCORDO
100
AcDbLine
 62
250
  6
CONTINUOUS
 10
29.7841027836
 20
18.7144007078
 11
29.6492369058
 21
18.7562867529
  0
LWPOLYLINE
  5
3C5
100
AcDbEntity
  8
RACCORDO
100
AcDbPolyline
 62
250
  6
CONTINUOUS
 90
3
 70
0
 10
29.6492369058
 20
18.7562867529
 10
29.0306400104
 20
18.9485716797
 10
28.943887862
 20
18.9755549886
  0
LWPOLYLINE
  5
3C6
100
AcDbEntity
  8
RACCORDO
100
AcDbPolyline
 62
250
  6
CONTINUOUS
 90
3
 70
0
 10
28.943887862
 20
18.9755549886
 10
28.7635923646
 20
19.0316507649
 10
28.6699094055
 20
19.0608091405
  0
LINE
  5
3C7
100
AcDbEntity
  8
RACCORDO
100
AcDbLine
 62
250
  6
CONTINUOUS
 10
19.5830979694
 20
21.8983050809
 11
18.0444547031
 21
22.3765965073
  0
LINE
  5
3C8
100
AcDbEntity
  8
RACCORDO
100
AcDbLine
 62
250
  6
CONTINUOUS
 10
28.6699094055
 20
19.0608091405
 11
28.4752416541
 21
19.121421244
  0
LINE
  5
3C9
100
AcDbEntity
  8
RACCORDO
100
AcDbLine
 62
250
  6
CONTINUOUS
 10
28.4752416541
 20
19.121421244
 11
28.2703460391
 21
19.1852550168
  0
LINE
  5
3CA
100
AcDbEntity
  8
RACCORDO
100
AcDbLine
 62
250
  6
CONTINUOUS
 10
28.2703460391
 20
19.1852550168
 11
28.0544265172
 21
19.2525635162
  0
LWPOLYLINE
  5
3CB
100
AcDbEntity
  8
RACCORDO
100
AcDbPolyline
 62
250
  6
CONTINUOUS
 90
3
 70
0
 10
24.4030171476
 20
20.394216571
 10
22.9631253515
 20
20.8433660675
 10
22.6991200588
 20
20.9257798481
  0
LWPOLYLINE
  5
3CC
100
AcDbEntity
  8
RACCORDO
100
AcDbPolyline
 62
250
  6
CONTINUOUS
 90
3
 70
0
 10
28.0544265172
 20
19.2525635162
 10
27.5868374701
 20
19.39848817
 10
26.6277111422
 20
19.6967186331
  0
LWPOLYLINE
  5
3CD
100
AcDbEntity
  8
RACCORDO
100
AcDbPolyline
 62
250
  6
CONTINUOUS
 90
3
 70
0
 10
22.6991200588
 20
20.9257798481
 10
21.860192484
 20
21.1877400824
 10
19.5830979694
 20
21.8983050809
  0
LINE
  5
3CE
100
AcDbEntity
  8
RACCORDO
100
AcDbLine
 62
250
  6
CONTINUOUS
 10
30.2473554818
 20
18.5706446044
 11
29.8485700637
 21
18.694387819
  0
LINE
  5
3CF
100
AcDbEntity
  8
RACCORDO
100
AcDbLine
 62
250
  6
CONTINUOUS
 10
25.0377581833
 20
20.1958660078
 11
24.4030171476
 21
20.394216571
  0
LINE
  5
3D0
100
AcDbEntity
  8
RACCORDO
100
AcDbLine
 62
250
  6
CONTINUOUS
 10
26.6277111422
 20
19.6967186331
 11
26.1456830246
 21
19.8474112612
  0
LINE
  5
3D1
100
AcDbEntity
  8
RACCORDO
100
AcDbLine
 62
250
  6
CONTINUOUS
 10
30.8748098189
 20
18.3676346869
 11
30.7721339448
 21
18.3996365895
  0
LINE
  5
3D2
100
AcDbEntity
  8
RACCORDO
100
AcDbLine
 62
250
  6
CONTINUOUS
 10
26.1456830246
 20
19.8474112612
 11
25.7989552355
 21
19.956333233
  0
LINE
  5
3D3
100
AcDbEntity
  8
RACCORDO
100
AcDbLine
 62
250
  6
CONTINUOUS
 10
25.7989552355
 20
19.956333233
 11
25.0377581833
 21
20.1958660078
  0
LWPOLYLINE
  5
3D4
100
AcDbEntity
  8
RACCORDO
100
AcDbPolyline
 62
250
  6
CONTINUOUS
 90
3
 70
0
 10
30.7721339448
 20
18.3996365895
 10
30.6584603739
 20
18.4357485349
 10
30.6180017261
 20
18.4487679024
  0
LINE
  5
3D5
100
AcDbEntity
  8
RACCORDO
100
AcDbLine
 62
250
  6
CONTINUOUS
 10
-34.4283675345
 20
39.7434425015
 11
-34.5663201315
 21
39.7892967291
  0
LINE
  5
3D6
100
AcDbEntity
  8
RACCORDO
100
AcDbLine
 62
250
  6
CONTINUOUS
 10
-34.5663201315
 20
39.7892967291
 11
-34.6576963208
 21
39.8200848053
  0
LWPOLYLINE
  5
3D7
100
AcDbEntity
  8
RACCORDO
100
AcDbPolyline
 62
250
  6
CONTINUOUS
 90
40
 70
0
 10
30.8748098189
 20
18.3676346869
 10
30.8763683073
 20
18.3979484678
 10
30.8784520932
 20
18.4288113082
 10
30.8810585613
 20
18.4601844715
 10
30.8841844399
 20
18.4920285806
 10
30.8878258056
 20
18.5243036672
 10
30.891978088
 20
18.5569692221
 10
30.8966360752
 20
18.5899842461
 10
30.9017939209
 20
18.6233073013
 10
30.9074451512
 20
18.6568965632
 10
30.9135826729
 20
18.6907098733
 10
30.9201987827
 20
18.7247047916
 10
30.9272851764
 20
18.7588386504
 10
30.9348329596
 20
18.7930686076
 10
30.9428326588
 20
18.8273517004
 10
30.9512742333
 20
18.8616448994
 10
30.9601470876
 20
18.8959051623
 10
30.9694400853
 20
18.9300894884
 10
30.9791415624
 20
18.9641549722
 10
30.9892393421
 20
18.9980588573
 10
30.9997207505
 20
19.0317585903
 10
31.0105726319
 20
19.0652118739
 10
31.0217813658
 20
19.0983767202
 10
31.0333328838
 20
19.1312115031
 10
31.0452126871
 20
19.1636750111
 10
31.0574058651
 20
19.1957264985
 10
31.0698971136
 20
19.2273257368
 10
31.0826707546
 20
19.258433065
 10
31.0957107554
 20
19.2890094398
 10
31.1090007491
 20
19.319016484
 10
31.1225240549
 20
19.3484165352
 10
31.1362636995
 20
19.3771726926
 10
31.1502024377
 20
19.4052488639
 10
31.1643227746
 20
19.43260981
 10
31.1786069873
 20
19.4592211896
 10
31.1930371473
 20
19.4850496022
 10
31.2075951428
 20
19.51006263
 10
31.2222627016
 20
19.5342288786
 10
31.237021414
 20
19.5575180164
 10
31.2518527559
 20
19.5799008127
  0
LWPOLYLINE
  5
3D8
100
AcDbEntity
  8
RACCORDO
100
AcDbPolyline
 62
250
  6
CONTINUOUS
 90
54
 70
0
 10
20.5300303523
 20
-28.5483489926
 10
20.4952914184
 20
-28.6230215304
 10
20.4766855084
 20
-28.6602665333
 10
20.4562236915
 20
-28.697981794
 10
20.4341997248
 20
-28.7360337934
 10
20.4100764788
 20
-28.7750177124
 10
20.3834675075
 20
-28.8152124849
 10
20.3545151807
 20
-28.8560502937
 10
20.3234625359
 20
-28.8968477515
 10
20.2901250067
 20
-28.9376164871
 10
20.2545242796
 20
-28.9781489269
 10
20.2173472803
 20
-29.0175282976
 10
20.1788417624
 20
-29.0554782443
 10
20.1388001052
 20
-29.0922146326
 10
20.0973171621
 20
-29.1276362063
 10
20.0544787783
 20
-29.1616603438
 10
20.0102466045
 20
-29.1943220463
 10
19.9645265969
 20
-29.225693899
 10
19.917224122
 20
-29.2558024384
 10
19.8684442679
 20
-29.2845527561
 10
19.8183936916
 20
-29.3118402052
 10
19.7667062653
 20
-29.3378330162
 10
19.7138557558
 20
-29.3622755012
 10
19.6614023308
 20
-29.3845646526
 10
19.6105264836
 20
-29.4044166585
 10
19.5600982652
 20
-29.4224550091
 10
19.5081954279
 20
-29.4394169157
 10
19.4542221309
 20
-29.4553887538
 10
19.3984852833
 20
-29.4702464956
 10
19.3402316595
 20
-29.4842356172
 10
19.2792817953
 20
-29.4973424981
 10
19.2161529712
 20
-29.5092631607
 10
19.1511233576
 20
-29.5197639495
 10
19.0843147082
 20
-29.5287218848
 10
19.016134836
 20
-29.5360212778
 10
18.9473022387
 20
-29.5415117346
 10
18.8776311106
 20
-29.5451577356
 10
18.8069404303
 20
-29.5469883358
 10
18.7359830639
 20
-29.5470582587
 10
18.6649574741
 20
-29.5454175171
 10
18.5937421715
 20
-29.5420885541
 10
18.5226380283
 20
-29.5371522592
 10
18.4512387976
 20
-29.5305443663
 10
18.37990445
 20
-29.5223827099
 10
18.3100685294
 20
-29.5131245633
 10
18.2426412107
 20
-29.5031081809
 10
18.1765816598
 20
-29.4922543772
 10
18.1104418879
 20
-29.4803992974
 10
18.0449308901
 20
-29.4678122347
 10
17.9796168584
 20
-29.4543643735
 10
17.9112395821
 20
-29.4390125796
 10
17.8388422988
 20
-29.4212547997
 10
17.7636503265
 20
-29.4013041714
 10
17.685585499
 20
-29.3789837961
  0
LINE
  5
3D9
100
AcDbEntity
  8
0
100
AcDbLine
 62
250
  6
CONTINUOUS
 10
17.726531606
 20
-26.8070288044
 11
17.870751411
 21
-26.6263012558
  0
LINE
  5
3DA
100
AcDbEntity
  8
RACCORDO
100
AcDbLine
 62
250
  6
CONTINUOUS
 10
-34.6486376091
 20
38.4967300002
 11
-34.7802000568
 21
38.5332431101
  0
LINE
  5
3DB
100
AcDbEntity
  8
RACCORDO
100
AcDbLine
 62
250
  6
CONTINUOUS
 10
31.2518527559
 20
19.5799008127
 11
31.1174530331
 21
19.6173971706
  0
LINE
  5
3DC
100
AcDbEntity
  8
RACCORDO
100
AcDbLine
 62
250
  6
CONTINUOUS
 10
31.1174530331
 20
19.6173971706
 11
30.9641788339
 21
19.6609589761
  0
LINE
  5
3DD
100
AcDbEntity
  8
RACCORDO
100
AcDbLine
 62
250
  6
CONTINUOUS
 10
-34.7802000568
 20
38.5332431101
 11
-34.8604054069
 21
38.5563775356
  0
LINE
  5
3DE
100
AcDbEntity
  8
RACCORDO
100
AcDbLine
 62
250
  6
CONTINUOUS
 10
30.9641788339
 20
19.6609589761
 11
30.8364547536
 21
19.6980198471
  0
LWPOLYLINE
  5
3DF
100
AcDbEntity
  8
RACCORDO
100
AcDbPolyline
 62
250
  6
CONTINUOUS
 90
61
 70
0
 10
-35.0992461498
 20
38.6276281048
 10
-35.1412149109
 20
38.6399490715
 10
-35.1831895534
 20
38.6512921405
 10
-35.2251366807
 20
38.6616488242
 10
-35.2670249271
 20
38.6710114381
 10
-35.3088257956
 20
38.6793737737
 10
-35.3505103171
 20
38.6867297503
 10
-35.3920550437
 20
38.6930746204
 10
-35.4334268052
 20
38.698403127
 10
-35.4745821155
 20
38.7027096519
 10
-35.515491881
 20
38.7059913594
 10
-35.5561298271
 20
38.7082466341
 10
-35.5964571743
 20
38.7094737227
 10
-35.6364401259
 20
38.7096726465
 10
-35.676058139
 20
38.7088454404
 10
-35.7152923327
 20
38.7069936303
 10
-35.7541157401
 20
38.7041187544
 10
-35.7925019814
 20
38.7002230833
 10
-35.8304325419
 20
38.6953079848
 10
-35.8678881614
 20
38.6893745142
 10
-35.9048379893
 20
38.6824266655
 10
-35.9412463157
 20
38.6744706231
 10
-35.9770849429
 20
38.6655124789
 10
-36.012335925
 20
38.6555574871
 10
-36.0469793005
 20
38.6446113122
 10
-36.0809934553
 20
38.6326802134
 10
-36.1143546067
 20
38.6197726146
 10
-36.1470394352
 20
38.6058972655
 10
-36.1790293603
 20
38.59106117
 10
-36.2103009001
 20
38.5752752254
 10
-36.2408241876
 20
38.5585550817
 10
-36.2705748076
 20
38.5409154076
 10
-36.2995420757
 20
38.522364923
 10
-36.3277168913
 20
38.5029105653
 10
-36.355082463
 20
38.4825638194
 10
-36.3816208135
 20
38.4613384616
 10
-36.4073199008
 20
38.4392435762
 10
-36.4321666451
 20
38.4162883173
 10
-36.4561407731
 20
38.3924906411
 10
-36.4792198236
 20
38.367873153
 10
-36.5013874996
 20
38.3424541286
 10
-36.5226342812
 20
38.316246989
 10
-36.5429487748
 20
38.2892678543
 10
-36.5623194533
 20
38.2615333234
 10
-36.5807358752
 20
38.2330610025
 10
-36.5981882667
 20
38.2038684817
 10
-36.614668403
 20
38.173970538
 10
-36.6301646429
 20
38.1433891992
 10
-36.6446630014
 20
38.1121535741
 10
-36.6581529709
 20
38.0802889155
 10
-36.6706310702
 20
38.0478104015
 10
-36.6820944287
 20
38.0147322694
 10
-36.6925383866
 20
37.9810723492
 10
-36.7019576731
 20
37.9468539007
 10
-36.7103481067
 20
37.9120990403
 10
-36.717706232
 20
37.8768272547
 10
-36.7240288429
 20
37.8410616852
 10
-36.7293129043
 20
37.8048301669
 10
-36.7335565466
 20
37.7681566959
 10
-36.7367579816
 20
37.7310642099
 10
-36.7389148071
 20
37.6935796409
  0
LWPOLYLINE
  5
3E0
100
AcDbEntity
  8
RACCORDO
100
AcDbPolyline
 62
250
  6
CONTINUOUS
 90
3
 70
0
 10
29.340076013
 20
20.1424389258
 10
29.2509610337
 20
20.1688634508
 10
27.8560295778
 20
20.5822237566
  0
LINE
  5
3E1
100
AcDbEntity
  8
RACCORDO
100
AcDbLine
 62
250
  6
CONTINUOUS
 10
27.8560295778
 20
20.5822237566
 11
26.0088706792
 21
21.1284363887
  0
LINE
  5
3E2
100
AcDbEntity
  8
RACCORDO
100
AcDbLine
 62
250
  6
CONTINUOUS
 10
-34.8604054069
 20
38.5563775356
 11
-34.9701959192
 21
38.5887196969
  0
LWPOLYLINE
  5
3E3
100
AcDbEntity
  8
RACCORDO
100
AcDbPolyline
 62
250
  6
CONTINUOUS
 90
4
 70
0
 10
29.6745551161
 20
20.0432079378
 10
29.5941362868
 20
20.0670737122
 10
29.5116636396
 20
20.0915440565
 10
29.340076013
 20
20.1424389258
  0
LWPOLYLINE
  5
3E4
100
AcDbEntity
  8
RACCORDO
100
AcDbPolyline
 62
250
  6
CONTINUOUS
 90
3
 70
0
 10
29.9036482539
 20
19.9751913451
 10
29.8292663722
 20
19.997279472
 10
29.6745551161
 20
20.0432079378
  0
LWPOLYLINE
  5
3E5
100
AcDbEntity
  8
RACCORDO
100
AcDbPolyline
 62
250
  6
CONTINUOUS
 90
3
 70
0
 10
30.1152198548
 20
19.9123391417
 10
30.0466577593
 20
19.9327114962
 10
29.9036482539
 20
19.9751913451
  0
LINE
  5
3E6
100
AcDbEntity
  8
RACCORDO
100
AcDbLine
 62
250
  6
CONTINUOUS
 10
30.428451086
 20
19.8192091154
 11
30.1152198548
 21
19.9123391417
  0
LINE
  5
3E7
100
AcDbEntity
  8
RACCORDO
100
AcDbLine
 62
250
  6
CONTINUOUS
 10
26.0088706792
 20
21.1284363887
 11
25.4300992438
 21
21.3004158068
  0
LINE
  5
3E8
100
AcDbEntity
  8
RACCORDO
100
AcDbLine
 62
250
  6
CONTINUOUS
 10
30.5407119827
 20
19.7858061404
 11
30.428451086
 21
19.8192091154
  0
LINE
  5
3E9
100
AcDbEntity
  8
RACCORDO
100
AcDbLine
 62
250
  6
CONTINUOUS
 10
30.8364547536
 20
19.6980198471
 11
30.5407119827
 21
19.7858061404
  0
LINE
  5
3EA
100
AcDbEntity
  8
RACCORDO
100
AcDbLine
 62
250
  6
CONTINUOUS
 10
25.4300992438
 20
21.3004158068
 11
22.5371464616
 21
22.1641809277
  0
LINE
  5
3EB
100
AcDbEntity
  8
RACCORDO
100
AcDbLine
 62
250
  6
CONTINUOUS
 10
22.5371464616
 20
22.1641809277
 11
21.646688656
 21
22.430683908
  0
LINE
  5
3EC
100
AcDbEntity
  8
RACCORDO
100
AcDbLine
 62
250
  6
CONTINUOUS
 10
21.646688656
 20
22.430683908
 11
21.006991848
 21
22.6226321569
  0
LINE
  5
3ED
100
AcDbEntity
  8
RACCORDO
100
AcDbLine
 62
250
  6
CONTINUOUS
 10
21.006991848
 20
22.6226321569
 11
20.3268403343
 21
22.8272978731
  0
LINE
  5
3EE
100
AcDbEntity
  8
RACCORDO
100
AcDbLine
 62
250
  6
CONTINUOUS
 10
20.3268403343
 20
22.8272978731
 11
19.6041133876
 21
23.0454270248
  0
LINE
  5
3EF
100
AcDbEntity
  8
RACCORDO
100
AcDbLine
 62
250
  6
CONTINUOUS
 10
19.6041133876
 20
23.0454270248
 11
18.8355387688
 21
23.2781509949
  0
LINE
  5
3F0
100
AcDbEntity
  8
RACCORDO
100
AcDbLine
 62
250
  6
CONTINUOUS
 10
18.8355387688
 20
23.2781509949
 11
18.0176689636
 21
23.5266587259
  0
LINE
  5
3F1
100
AcDbEntity
  8
RACCORDO
100
AcDbLine
 62
250
  6
CONTINUOUS
 10
18.0176689636
 20
23.5266587259
 11
17.1482387708
 21
23.7917169369
  0
LINE
  5
3F2
100
AcDbEntity
  8
RACCORDO
100
AcDbLine
 62
250
  6
CONTINUOUS
 10
-14.3168316821
 20
33.4576551733
 11
-16.802286579
 21
34.2176393654
  0
LINE
  5
3F3
100
AcDbEntity
  8
RACCORDO
100
AcDbLine
 62
250
  6
CONTINUOUS
 10
17.1482387708
 20
23.7917169369
 11
16.2237949458
 21
24.0744864152
  0
LINE
  5
3F4
100
AcDbEntity
  8
RACCORDO
100
AcDbLine
 62
250
  6
CONTINUOUS
 10
-16.802286579
 20
34.2176393654
 11
-17.9347818879
 21
34.564304089
  0
LWPOLYLINE
  5
3F5
100
AcDbEntity
  8
RACCORDO
100
AcDbPolyline
 62
250
  6
CONTINUOUS
 90
3
 70
0
 10
-12.2375485752
 20
32.8206500188
 10
-12.9514127739
 20
33.0394773645
 10
-14.3168316821
 20
33.4576551733
  0
LINE
  5
3F6
100
AcDbEntity
  8
RACCORDO
100
AcDbLine
 62
250
  6
CONTINUOUS
 10
-17.9347818879
 20
34.564304089
 11
-19.0011493472
 21
34.8914226202
  0
LINE
  5
3F7
100
AcDbEntity
  8
RACCORDO
100
AcDbLine
 62
250
  6
CONTINUOUS
 10
16.2237949458
 20
24.0744864152
 11
15.2412947131
 21
24.3759047152
  0
LINE
  5
3F8
100
AcDbEntity
  8
RACCORDO
100
AcDbLine
 62
250
  6
CONTINUOUS
 10
8.6932333888
 20
26.3930096542
 11
-12.2375485752
 21
32.8206500188
  0
LINE
  5
3F9
100
AcDbEntity
  8
RACCORDO
100
AcDbLine
 62
250
  6
CONTINUOUS
 10
-19.0011493472
 20
34.8914226202
 11
-20.0045230019
 21
35.2000484163
  0
LINE
  5
3FA
100
AcDbEntity
  8
RACCORDO
100
AcDbLine
 62
250
  6
CONTINUOUS
 10
15.2412947131
 20
24.3759047152
 11
14.1989371361
 21
24.6964862866
  0
LINE
  5
3FB
100
AcDbEntity
  8
RACCORDO
100
AcDbLine
 62
250
  6
CONTINUOUS
 10
10.6910157928
 20
25.7780838466
 11
8.6932333888
 21
26.3930096542
  0
LINE
  5
3FC
100
AcDbEntity
  8
RACCORDO
100
AcDbLine
 62
250
  6
CONTINUOUS
 10
14.1989371361
 20
24.6964862866
 11
12.5180976766
 21
25.2145496214
  0
LINE
  5
3FD
100
AcDbEntity
  8
RACCORDO
100
AcDbLine
 62
250
  6
CONTINUOUS
 10
12.5180976766
 20
25.2145496214
 11
10.6910157928
 21
25.7780838466
  0
LINE
  5
3FE
100
AcDbEntity
  8
RACCORDO
100
AcDbLine
 62
250
  6
CONTINUOUS
 10
-20.0045230019
 20
35.2000484163
 11
-20.9471708935
 21
35.4909103709
  0
LINE
  5
3FF
100
AcDbEntity
  8
RACCORDO
100
AcDbLine
 62
250
  6
CONTINUOUS
 10
-20.9471708935
 20
35.4909103709
 11
-21.8322067971
 21
35.7649482428
  0
LINE
  5
400
100
AcDbEntity
  8
RACCORDO
100
AcDbLine
 62
250
  6
CONTINUOUS
 10
-21.8322067971
 20
35.7649482428
 11
-22.6633790553
 21
36.0231946117
  0
LINE
  5
401
100
AcDbEntity
  8
RACCORDO
100
AcDbLine
 62
250
  6
CONTINUOUS
 10
-22.6633790553
 20
36.0231946117
 11
-23.443158297
 21
36.2663259544
  0
LINE
  5
402
100
AcDbEntity
  8
RACCORDO
100
AcDbLine
 62
250
  6
CONTINUOUS
 10
-23.443158297
 20
36.2663259544
 11
-24.1753430789
 21
36.4953629856
  0
LINE
  5
403
100
AcDbEntity
  8
RACCORDO
100
AcDbLine
 62
250
  6
CONTINUOUS
 10
-24.1753430789
 20
36.4953629856
 11
-24.8634734822
 21
36.7112485701
  0
LINE
  5
404
100
AcDbEntity
  8
RACCORDO
100
AcDbLine
 62
250
  6
CONTINUOUS
 10
-24.8634734822
 20
36.7112485701
 11
-25.8186944972
 21
37.0118604477
  0
LWPOLYLINE
  5
405
100
AcDbEntity
  8
RACCORDO
100
AcDbPolyline
 62
250
  6
CONTINUOUS
 90
43
 70
0
 10
-34.6576963208
 20
39.8200848053
 10
-34.7213358044
 20
39.8401421721
 10
-34.7849622699
 20
39.8586816917
 10
-34.8485313793
 20
39.8756892712
 10
-34.9120000631
 20
39.8911506193
 10
-34.9753226453
 20
39.9050548363
 10
-35.0384509121
 20
39.9173945169
 10
-35.1013472762
 20
39.9281609275
 10
-35.163960871
 20
39.9373436331
 10
-35.2262241346
 20
39.9449359017
 10
-35.2880923914
 20
39.9509325332
 10
-35.3495238428
 20
39.9553294751
 10
-35.4104564819
 20
39.9581262179
 10
-35.4708372887
 20
39.9593222497
 10
-35.5306360341
 20
39.958918447
 10
-35.5898255083
 20
39.9569180789
 10
-35.6483653956
 20
39.9533227662
 10
-35.7062142869
 20
39.9481346361
 10
-35.7633430745
 20
39.9413571008
 10
-35.8197213474
 20
39.9329922956
 10
-35.8752994237
 20
39.9230458345
 10
-35.930020375
 20
39.9115284223
 10
-35.9838391825
 20
39.8984503166
 10
-36.0367263378
 20
39.8838192888
 10
-36.0886496927
 20
39.8676449235
 10
-36.1395745399
 20
39.8499379396
 10
-36.1894642694
 20
39.830710592
 10
-36.2382846393
 20
39.8099758732
 10
-36.2860072075
 20
39.7877453377
 10
-36.3325932503
 20
39.7640362611
 10
-36.3779954438
 20
39.7388731829
 10
-36.4221744598
 20
39.7122804226
 10
-36.4651106838
 20
39.6842722547
 10
-36.5067878436
 20
39.6548598745
 10
-36.5471778024
 20
39.6240632386
 10
-36.5862524981
 20
39.5919036409
 10
-36.6239950722
 20
39.5583935613
 10
-36.6603851509
 20
39.5235487275
 10
-36.6953899585
 20
39.4873978979
 10
-36.7289757717
 20
39.4499747045
 10
-36.7611163742
 20
39.4113095986
 10
-36.7917942037
 20
39.3714249752
 10
-36.8190290773
 20
39.333210588
  0
LWPOLYLINE
  5
406
100
AcDbEntity
  8
RACCORDO
100
AcDbPolyline
 62
250
  6
CONTINUOUS
 90
4
 70
0
 10
-25.8186944972
 20
37.0118604477
 10
-27.2304519946
 20
37.4573309513
 10
-27.4888422034
 20
37.5389248755
 10
-27.739575344
 20
37.6181125882
  0
LINE
  5
407
100
AcDbEntity
  8
RACCORDO
100
AcDbLine
 62
250
  6
CONTINUOUS
 10
-27.739575344
 20
37.6181125882
 11
-28.8898205765
 21
37.9813404254
  0
LINE
  5
408
100
AcDbEntity
  8
RACCORDO
100
AcDbLine
 62
250
  6
CONTINUOUS
 10
-28.8898205765
 20
37.9813404254
 11
-29.3013016573
 21
38.1116574023
  0
LINE
  5
409
100
AcDbEntity
  8
RACCORDO
100
AcDbLine
 62
250
  6
CONTINUOUS
 10
-32.5350880409
 20
39.1411157363
 11
-34.1817559978
 21
39.6635760802
  0
LINE
  5
40A
100
AcDbEntity
  8
RACCORDO
100
AcDbLine
 62
250
  6
CONTINUOUS
 10
-29.3013016573
 20
38.1116574023
 11
-29.8706835397
 21
38.2928441617
  0
LWPOLYLINE
  5
40B
100
AcDbEntity
  8
RACCORDO
100
AcDbPolyline
 62
250
  6
CONTINUOUS
 90
3
 70
0
 10
-29.8706835397
 20
38.2928441617
 10
-30.2214060057
 20
38.4048693289
 10
-32.5350880409
 20
39.1411157363
  0
LINE
  5
40C
100
AcDbEntity
  8
RACCORDO
100
AcDbLine
 62
250
  6
CONTINUOUS
 10
-34.1817559978
 20
39.6635760802
 11
-34.3114530823
 21
39.705219169
  0
LINE
  5
40D
100
AcDbEntity
  8
RACCORDO
100
AcDbLine
 62
250
  6
CONTINUOUS
 10
30.6180017261
 20
18.4487679024
 11
30.5329115281
 21
18.4765348025
  0
LINE
  5
40E
100
AcDbEntity
  8
RACCORDO
100
AcDbLine
 62
250
  6
CONTINUOUS
 10
-34.3114530823
 20
39.705219169
 11
-34.4283675345
 21
39.7434425015
  0
LWPOLYLINE
  5
40F
100
AcDbEntity
  8
RACCORDO
100
AcDbPolyline
 62
250
  6
CONTINUOUS
 90
5
 70
0
 10
30.5329115281
 20
18.4765348025
 10
30.4422272791
 20
18.5072398144
 10
30.3950865954
 20
18.523059865
 10
30.3469558967
 20
18.5387991569
 10
30.2473554818
 20
18.5706446044
  0
LWPOLYLINE
  5
410
100
AcDbEntity
  8
RACCORDO
100
AcDbPolyline
 62
250
  6
CONTINUOUS
 90
21
 70
0
 10
32.3756955238
 20
-41.9656093571
 10
32.3786044808
 20
-41.9895794345
 10
32.3820304368
 20
-42.0126670481
 10
32.3859690918
 20
-42.0348432201
 10
32.3904155024
 20
-42.0560801169
 10
32.3953640877
 20
-42.0763510833
 10
32.4008086366
 20
-42.095630677
 10
32.4067423157
 20
-42.1138946996
 10
32.4131576773
 20
-42.1311202275
 10
32.4200466694
 20
-42.1472856407
 10
32.4274006455
 20
-42.1623706495
 10
32.4352103755
 20
-42.1763563203
 10
32.4434660571
 20
-42.1892250995
 10
32.4521573286
 20
-42.2009608352
 10
32.4612732812
 20
-42.2115487975
 10
32.4708024733
 20
-42.2209756973
 10
32.4807329447
 20
-42.2292297026
 10
32.4910522313
 20
-42.2363004538
 10
32.5017473812
 20
-42.242179076
 10
32.5128049707
 20
-42.246858191
 10
32.520928514
 20
-42.2494658002
  0
LWPOLYLINE
  5
411
100
AcDbEntity
  8
RACCORDO
100
AcDbPolyline
 62
250
  6
CONTINUOUS
 90
8
 70
0
 10
32.6160595202
 20
15.741054788
 10
32.6129734364
 20
15.7709476184
 10
32.609901795
 20
15.802111212
 10
32.6068835054
 20
15.8344880386
 10
32.6039121019
 20
15.8683605884
 10
32.6010050532
 20
15.9037588447
 10
32.5981734315
 20
15.9406452963
 10
32.5954029943
 20
15.9792023566
  0
LINE
  5
412
100
AcDbEntity
  8
RACCORDO
100
AcDbLine
 62
250
  6
CONTINUOUS
 10
32.5954029943
 20
15.9792023566
 11
32.5900390107
 21
16.0613668792
  0
LINE
  5
413
100
AcDbEntity
  8
RACCORDO
100
AcDbLine
 62
250
  6
CONTINUOUS
 10
35.1916230136
 20
-40.7092042381
 11
35.1831107985
 21
-40.565155165
  0
LINE
  5
414
100
AcDbEntity
  8
RACCORDO
100
AcDbLine
 62
250
  6
CONTINUOUS
 10
32.5900390107
 20
16.0613668792
 11
32.5849194623
 21
16.150738508
  0
LINE
  5
415
100
AcDbEntity
  8
RACCORDO
100
AcDbLine
 62
250
  6
CONTINUOUS
 10
35.1831107985
 20
-40.565155165
 11
35.1760688615
 21
-40.4370090701
  0
LWPOLYLINE
  5
416
100
AcDbEntity
  8
RACCORDO
100
AcDbPolyline
 62
250
  6
CONTINUOUS
 90
61
 70
0
 10
32.5733729076
 20
16.4084475781
 10
32.5713650317
 20
16.4472110857
 10
32.5682192743
 20
16.4862527339
 10
32.5639431288
 20
16.5255425504
 10
32.5585431656
 20
16.5650550293
 10
32.5520254753
 20
16.6047637307
 10
32.5443973179
 20
16.6446376583
 10
32.5356660063
 20
16.6846504406
 10
32.5258388145
 20
16.7247792962
 10
32.5149237402
 20
16.7649983684
 10
32.5029297898
 20
16.8052800127
 10
32.4898650401
 20
16.8456024883
 10
32.4757356573
 20
16.8859487822
 10
32.4605483256
 20
16.9263005952
 10
32.4443168078
 20
16.966625221
 10
32.4270584744
 20
17.0068839219
 10
32.4087880465
 20
17.0470465744
 10
32.3895161954
 20
17.0870925988
 10
32.3692551463
 20
17.1269976493
 10
32.3480177434
 20
17.1667369689
 10
32.3258177529
 20
17.2062861914
 10
32.3026687685
 20
17.2456215231
 10
32.2785823677
 20
17.2847230644
 10
32.2535770269
 20
17.3235618609
 10
32.22767761
 20
17.3621007743
 10
32.2009065526
 20
17.4003087328
 10
32.1732783995
 20
17.4381680991
 10
32.1448065522
 20
17.4756619753
 10
32.11551051
 20
17.5127650767
 10
32.0854082579
 20
17.5494552386
 10
32.0545097394
 20
17.5857196756
 10
32.0228265255
 20
17.6215428332
 10
31.9903843212
 20
17.6568946514
 10
31.9572144433
 20
17.6917406911
 10
31.9233415026
 20
17.7260552863
 10
31.8887847716
 20
17.7598198088
 10
31.8535683756
 20
17.793010939
 10
31.8177168275
 20
17.825605422
 10
31.7812520302
 20
17.8575836347
 10
31.7441940865
 20
17.8889276096
 10
31.7065609896
 20
17.9196210558
 10
31.6683811912
 20
17.9496404849
 10
31.6296908568
 20
17.9789576402
 10
31.5905210848
 20
18.0075495038
 10
31.5508908336
 20
18.035403284
 10
31.5108182507
 20
18.0625063541
 10
31.4703295094
 20
18.0888403052
 10
31.4294508894
 20
18.1143872474
 10
31.3882001711
 20
18.1391343967
 10
31.3465968147
 20
18.1630674334
 10
31.3046737469
 20
18.1861658462
 10
31.2624689629
 20
18.2084078116
 10
31.2200075196
 20
18.2297791816
 10
31.177317154
 20
18.2502653398
 10
31.1344403778
 20
18.2698454954
 10
31.0914090364
 20
18.2885049396
 10
31.0482447289
 20
18.3062345863
 10
31.0049746751
 20
18.3230232614
 10
30.9616255777
 20
18.3388602218
 10
30.9182268284
 20
18.3537344943
 10
30.8748098075
 20
18.3676346742
  0
LINE
  5
417
100
AcDbEntity
  8
RACCORDO
100
AcDbLine
 62
250
  6
CONTINUOUS
 10
32.5849194623
 20
16.150738508
 11
32.580075156
 21
16.2476699839
  0
LINE
  5
418
100
AcDbEntity
  8
RACCORDO
100
AcDbLine
 62
250
  6
CONTINUOUS
 10
35.1760688615
 20
-40.4370090701
 11
35.1686310659
 21
-40.2887485501
  0
LINE
  5
419
100
AcDbEntity
  8
RACCORDO
100
AcDbLine
 62
250
  6
CONTINUOUS
 10
35.1686310659
 20
-40.2887485501
 11
35.1630660203
 21
-40.1638311164
  0
LWPOLYLINE
  5
41A
100
AcDbEntity
  8
RACCORDO
100
AcDbPolyline
 62
250
  6
CONTINUOUS
 90
3
 70
0
 10
32.580075156
 20
16.2476699839
 10
32.5755229024
 20
16.3528217774
 10
32.5733728941
 20
16.4084475548
  0
LINE
  5
41B
100
AcDbEntity
  8
RACCORDO
100
AcDbLine
 62
250
  6
CONTINUOUS
 10
35.1630660203
 20
-40.1638311164
 11
35.15894268
 21
-40.0576862756
  0
LINE
  5
41C
100
AcDbEntity
  8
RACCORDO
100
AcDbLine
 62
250
  6
CONTINUOUS
 10
32.7803236253
 20
11.3927056803
 11
32.6595598707
 21
14.7526332074
  0
LINE
  5
41D
100
AcDbEntity
  8
RACCORDO
100
AcDbLine
 62
250
  6
CONTINUOUS
 10
35.151780095
 20
-39.844931942
 11
35.1468256578
 21
-39.6973366041
  0
LINE
  5
41E
100
AcDbEntity
  8
RACCORDO
100
AcDbLine
 62
250
  6
CONTINUOUS
 10
35.1533440324
 20
-39.8916745084
 11
35.151780095
 21
-39.844931942
  0
LWPOLYLINE
  5
41F
100
AcDbEntity
  8
RACCORDO
100
AcDbPolyline
 62
250
  6
CONTINUOUS
 90
4
 70
0
 10
35.1468256578
 20
-39.6973366041
 10
35.112213272
 20
-38.6608041188
 10
35.1103493925
 20
-38.6046797235
 10
35.1084382646
 20
-38.5470816796
  0
LWPOLYLINE
  5
420
100
AcDbEntity
  8
RACCORDO
100
AcDbPolyline
 62
250
  6
CONTINUOUS
 90
4
 70
0
 10
35.1084382646
 20
-38.5470816796
 10
35.1044701042
 20
-38.4273025227
 10
35.1024097447
 20
-38.364996839
 10
35.100298441
 20
-38.3010752064
  0
LINE
  5
421
100
AcDbEntity
  8
RACCORDO
100
AcDbLine
 62
250
  6
CONTINUOUS
 10
35.15894268
 20
-40.0576862756
 11
35.1533440324
 21
-39.8916745084
  0
LWPOLYLINE
  5
422
100
AcDbEntity
  8
RACCORDO
100
AcDbPolyline
 62
250
  6
CONTINUOUS
 90
3
 70
0
 10
35.100298441
 20
-38.3010752064
 10
35.0959113015
 20
-38.1679192439
 10
35.0936354657
 20
-38.098684914
  0
LINE
  5
423
100
AcDbEntity
  8
RACCORDO
100
AcDbLine
 62
250
  6
CONTINUOUS
 10
35.0936354657
 20
-38.098684914
 11
35.088908354
 21
-37.9544142588
  0
LINE
  5
424
100
AcDbEntity
  8
RACCORDO
100
AcDbLine
 62
250
  6
CONTINUOUS
 10
35.088908354
 20
-37.9544142588
 11
35.0839436714
 21
-37.8022269454
  0
LINE
  5
425
100
AcDbEntity
  8
RACCORDO
100
AcDbLine
 62
250
  6
CONTINUOUS
 10
32.6595598707
 20
14.7526332074
 11
32.6339648892
 21
15.4637929908
  0
LINE
  5
426
100
AcDbEntity
  8
RACCORDO
100
AcDbLine
 62
250
  6
CONTINUOUS
 10
35.0839436714
 20
-37.8022269454
 11
35.0787305551
 21
-37.6415976246
  0
LINE
  5
427
100
AcDbEntity
  8
RACCORDO
100
AcDbLine
 62
250
  6
CONTINUOUS
 10
35.0787305551
 20
-37.6415976246
 11
35.0732574279
 21
-37.4719030333
  0
LINE
  5
428
100
AcDbEntity
  8
RACCORDO
100
AcDbLine
 62
250
  6
CONTINUOUS
 10
32.8143769843
 20
10.3546907677
 11
32.7803236253
 21
11.3927056803
  0
LINE
  5
429
100
AcDbEntity
  8
RACCORDO
100
AcDbLine
 62
250
  6
CONTINUOUS
 10
35.0732574279
 20
-37.4719030333
 11
35.0614996487
 21
-37.1033958998
  0
LINE
  5
42A
100
AcDbEntity
  8
RACCORDO
100
AcDbLine
 62
250
  6
CONTINUOUS
 10
35.0614996487
 20
-37.1033958998
 11
35.0416871235
 21
-36.4679697104
  0
LINE
  5
42B
100
AcDbEntity
  8
RACCORDO
100
AcDbLine
 62
250
  6
CONTINUOUS
 10
32.841367213
 20
9.4786074135
 11
32.8143769843
 21
10.3546907677
  0
LINE
  5
42C
100
AcDbEntity
  8
RACCORDO
100
AcDbLine
 62
250
  6
CONTINUOUS
 10
35.0416871235
 20
-36.4679697104
 11
35.0230035035
 21
-35.8502449218
  0
LINE
  5
42D
100
AcDbEntity
  8
RACCORDO
100
AcDbLine
 62
250
  6
CONTINUOUS
 10
35.0230035035
 20
-35.8502449218
 11
35.0021674492
 21
-35.1385112554
  0
LINE
  5
42E
100
AcDbEntity
  8
RACCORDO
100
AcDbLine
 62
250
  6
CONTINUOUS
 10
32.8705273089
 20
8.4733811678
 11
32.841367213
 21
9.4786074135
  0
LINE
  5
42F
100
AcDbEntity
  8
RACCORDO
100
AcDbLine
 62
250
  6
CONTINUOUS
 10
35.0021674492
 20
-35.1385112554
 11
34.9789822053
 21
-34.3178038266
  0
LWPOLYLINE
  5
430
100
AcDbEntity
  8
RACCORDO
100
AcDbPolyline
 62
250
  6
CONTINUOUS
 90
7
 70
0
 10
32.6339648892
 20
15.4637929908
 10
32.6311984229
 20
15.5586827082
 10
32.6303984234
 20
15.5825614964
 10
32.6291987875
 20
15.6069946913
 10
32.6273662105
 20
15.6320639182
 10
32.6249447309
 20
15.6578269077
 10
32.6160595202
 20
15.741054788
  0
LWPOLYLINE
  5
431
100
AcDbEntity
  8
RACCORDO
100
AcDbPolyline
 62
250
  6
CONTINUOUS
 90
3
 70
0
 10
34.9789822053
 20
-34.3178038266
 10
34.9531736117
 20
-33.3721082884
 10
34.9476673285
 20
-33.1667638184
  0
LINE
  5
432
100
AcDbEntity
  8
RACCORDO
100
AcDbLine
 62
250
  6
CONTINUOUS
 10
34.9476673285
 20
-33.1667638184
 11
34.9362562972
 21
-32.7387200468
  0
LWPOLYLINE
  5
433
100
AcDbEntity
  8
RACCORDO
100
AcDbPolyline
 62
250
  6
CONTINUOUS
 90
4
 70
0
 10
34.9362562972
 20
-32.7387200468
 10
34.9242956824
 20
-32.2871815651
 10
34.9180872398
 20
-32.0522278904
 10
34.9117276788
 20
-31.811134337
  0
LWPOLYLINE
  5
434
100
AcDbEntity
  8
RACCORDO
100
AcDbPolyline
 62
250
  6
CONTINUOUS
 90
3
 70
0
 10
34.9117276788
 20
-31.811134337
 10
34.8466564286
 20
-29.3307773139
 10
34.8384629341
 20
-29.0169012656
  0
LINE
  5
435
100
AcDbEntity
  8
RACCORDO
100
AcDbLine
 62
250
  6
CONTINUOUS
 10
34.8384629341
 20
-29.0169012656
 11
34.8214458716
 21
-28.363772623
  0
LINE
  5
436
100
AcDbEntity
  8
RACCORDO
100
AcDbLine
 62
250
  6
CONTINUOUS
 10
34.8214458716
 20
-28.363772623
 11
34.7942408644
 21
-27.3162471045
  0
LINE
  5
437
100
AcDbEntity
  8
RACCORDO
100
AcDbLine
 62
250
  6
CONTINUOUS
 10
34.7942408644
 20
-27.3162471045
 11
34.7648781861
 21
-26.1810953512
  0
LINE
  5
438
100
AcDbEntity
  8
RACCORDO
100
AcDbLine
 62
250
  6
CONTINUOUS
 10
33.198676682
 20
-3.9181674706
 11
32.8705273089
 21
8.4733811678
  0
LINE
  5
439
100
AcDbEntity
  8
RACCORDO
100
AcDbLine
 62
250
  6
CONTINUOUS
 10
34.7648781861
 20
-26.1810953512
 11
34.7331834644
 21
-24.9505097256
  0
LINE
  5
43A
100
AcDbEntity
  8
RACCORDO
100
AcDbLine
 62
250
  6
CONTINUOUS
 10
34.7331834644
 20
-24.9505097256
 11
34.6989683903
 21
-23.6160297495
  0
LINE
  5
43B
100
AcDbEntity
  8
RACCORDO
100
AcDbLine
 62
250
  6
CONTINUOUS
 10
34.6989683903
 20
-23.6160297495
 11
34.6221427209
 21
-20.5978671041
  0
LINE
  5
43C
100
AcDbEntity
  8
RACCORDO
100
AcDbLine
 62
250
  6
CONTINUOUS
 10
33.3222753973
 20
-8.7951576646
 11
33.198676682
 21
-3.9181674706
  0
LINE
  5
43D
100
AcDbEntity
  8
RACCORDO
100
AcDbLine
 62
250
  6
CONTINUOUS
 10
34.6221427209
 20
-20.5978671041
 11
34.5484559315
 21
-17.6772496718
  0
LINE
  5
43E
100
AcDbEntity
  8
RACCORDO
100
AcDbLine
 62
250
  6
CONTINUOUS
 10
34.5484559315
 20
-17.6772496718
 11
34.4466025535
 21
-13.6065946634
  0
LINE
  5
43F
100
AcDbEntity
  8
RACCORDO
100
AcDbLine
 62
250
  6
CONTINUOUS
 10
34.4466025535
 20
-13.6065946634
 11
34.3360288628
 21
-9.1571455413
  0
LINE
  5
440
100
AcDbEntity
  8
RACCORDO
100
AcDbLine
 62
250
  6
CONTINUOUS
 10
34.3360288628
 20
-9.1571455413
 11
34.2556524155
 21
-5.9002044758
  0
LWPOLYLINE
  5
441
100
AcDbEntity
  8
RACCORDO
100
AcDbPolyline
 62
250
  6
CONTINUOUS
 90
4
 70
0
 10
33.5506973186
 20
-18.0023925028
 10
33.535191164
 20
-17.3694020546
 10
33.5192074625
 20
-16.7185256415
 10
33.3222753973
 20
-8.7951576646
  0
LWPOLYLINE
  5
442
100
AcDbEntity
  8
RACCORDO
100
AcDbPolyline
 62
250
  6
CONTINUOUS
 90
3
 70
0
 10
33.5945606627
 20
-19.8021029209
 10
33.5803805504
 20
-19.2187420445
 10
33.5506973186
 20
-18.0023925028
  0
LINE
  5
443
100
AcDbEntity
  8
RACCORDO
100
AcDbLine
 62
250
  6
CONTINUOUS
 10
34.2556524155
 20
-5.9002044758
 11
34.1732449437
 21
-2.5316033931
  0
LWPOLYLINE
  5
444
100
AcDbEntity
  8
RACCORDO
100
AcDbPolyline
 62
250
  6
CONTINUOUS
 90
3
 70
0
 10
33.6346626464
 20
-21.4606156182
 10
33.6216998303
 20
-20.9230384871
 10
33.5945606627
 20
-19.8021029209
  0
LINE
  5
445
100
AcDbEntity
  8
RACCORDO
100
AcDbLine
 62
250
  6
CONTINUOUS
 10
34.1732449437
 20
-2.5316033931
 11
34.1039030728
 21
0.3316326769
  0
LINE
  5
446
100
AcDbEntity
  8
RACCORDO
100
AcDbLine
 62
250
  6
CONTINUOUS
 10
33.659471903
 20
-22.4936166671
 11
33.6346626464
 21
-21.4606156182
  0
LWPOLYLINE
  5
447
100
AcDbEntity
  8
RACCORDO
100
AcDbPolyline
 62
250
  6
CONTINUOUS
 90
3
 70
0
 10
33.6940057956
 20
-23.9411401874
 10
33.6828327788
 20
-23.4715416074
 10
33.659471903
 20
-22.4936166671
  0
LINE
  5
448
100
AcDbEntity
  8
RACCORDO
100
AcDbLine
 62
250
  6
CONTINUOUS
 10
34.1039030728
 20
0.3316326769
 11
34.0038209404
 21
4.519023707
  0
LWPOLYLINE
  5
449
100
AcDbEntity
  8
RACCORDO
100
AcDbPolyline
 62
250
  6
CONTINUOUS
 90
3
 70
0
 10
33.7255909306
 20
-25.275552629
 10
33.7153702841
 20
-24.8426076678
 10
33.6940057956
 20
-23.9411401874
  0
LWPOLYLINE
  5
44A
100
AcDbEntity
  8
RACCORDO
100
AcDbPolyline
 62
250
  6
CONTINUOUS
 90
3
 70
0
 10
33.7544934072
 20
-26.5060489293
 10
33.7451391813
 20
-26.1067784077
 10
33.7255909306
 20
-25.275552629
  0
LINE
  5
44B
100
AcDbEntity
  8
RACCORDO
100
AcDbLine
 62
250
  6
CONTINUOUS
 10
34.0038209404
 20
4.519023707
 11
33.9245335388
 21
7.8872484702
  0
LWPOLYLINE
  5
44C
100
AcDbEntity
  8
RACCORDO
100
AcDbPolyline
 62
250
  6
CONTINUOUS
 90
3
 70
0
 10
33.780960146
 20
-27.6410907877
 10
33.7723914119
 20
-27.272748716
 10
33.7544934072
 20
-26.5060489293
  0
LWPOLYLINE
  5
44D
100
AcDbEntity
  8
RACCORDO
100
AcDbPolyline
 62
250
  6
CONTINUOUS
 90
3
 70
0
 10
33.8052143496
 20
-28.6884904408
 10
33.7973608692
 20
-28.3485367794
 10
33.780960146
 20
-27.6410907877
  0
LWPOLYLINE
  5
44E
100
AcDbEntity
  8
RACCORDO
100
AcDbPolyline
 62
250
  6
CONTINUOUS
 90
4
 70
0
 10
33.8344373549
 20
-29.9607186724
 10
33.8274464896
 20
-29.6553590914
 10
33.8202474697
 20
-29.3415298217
 10
33.8052143496
 20
-28.6884904408
  0
LWPOLYLINE
  5
44F
100
AcDbEntity
  8
RACCORDO
100
AcDbPolyline
 62
250
  6
CONTINUOUS
 90
4
 70
0
 10
33.8666262222
 20
-31.3727823798
 10
33.8605403701
 20
-31.1049681653
 10
33.8542830891
 20
-30.8300802187
 10
33.8344373549
 20
-29.9607186724
  0
LINE
  5
450
100
AcDbEntity
  8
RACCORDO
100
AcDbLine
 62
250
  6
CONTINUOUS
 10
33.8782801106
 20
-31.8876213085
 11
33.8666262222
 21
-31.3727823798
  0
LINE
  5
451
100
AcDbEntity
  8
RACCORDO
100
AcDbLine
 62
250
  6
CONTINUOUS
 10
33.889260584
 20
-32.3762844319
 11
33.8782801106
 21
-31.8876213085
  0
LINE
  5
452
100
AcDbEntity
  8
RACCORDO
100
AcDbLine
 62
250
  6
CONTINUOUS
 10
33.9245335388
 20
7.8872484702
 11
33.8764601322
 21
9.982077192
  0
LINE
  5
453
100
AcDbEntity
  8
RACCORDO
100
AcDbLine
 62
250
  6
CONTINUOUS
 10
33.8764601322
 20
9.982077192
 11
33.8579963831
 21
10.8320441793
  0
LINE
  5
454
100
AcDbEntity
  8
RACCORDO
100
AcDbLine
 62
250
  6
CONTINUOUS
 10
33.9221991843
 20
-33.896052009
 11
33.889260584
 21
-32.3762844319
  0
LINE
  5
455
100
AcDbEntity
  8
RACCORDO
100
AcDbLine
 62
250
  6
CONTINUOUS
 10
33.8579963831
 20
10.8320441793
 11
33.8426865287
 21
11.5709450945
  0
LINE
  5
456
100
AcDbEntity
  8
RACCORDO
100
AcDbLine
 62
250
  6
CONTINUOUS
 10
34.0197127758
 20
-40.2566988616
 11
34.0182215871
 21
-40.187154971
  0
LINE
  5
457
100
AcDbEntity
  8
RACCORDO
100
AcDbLine
 62
250
  6
CONTINUOUS
 10
33.8426865287
 20
11.5709450945
 11
33.8300024404
 21
12.2133287228
  0
LINE
  5
458
100
AcDbEntity
  8
RACCORDO
100
AcDbLine
 62
250
  6
CONTINUOUS
 10
33.9433791173
 20
-34.9845956172
 11
33.9221991843
 21
-33.896052009
  0
LINE
  5
459
100
AcDbEntity
  8
RACCORDO
100
AcDbLine
 62
250
  6
CONTINUOUS
 10
33.8300024404
 20
12.2133287228
 11
33.8175478162
 21
12.8754272422
  0
LWPOLYLINE
  5
45A
100
AcDbEntity
  8
RACCORDO
100
AcDbPolyline
 62
250
  6
CONTINUOUS
 90
61
 70
0
 10
33.764305551
 20
16.6667117596
 10
33.763255601
 20
16.7243783909
 10
33.7604715451
 20
16.7824850637
 10
33.7559547729
 20
16.8409929807
 10
33.7497059691
 20
16.8998641546
 10
33.7417305824
 20
16.9590579433
 10
33.7320396361
 20
17.0185309408
 10
33.7206407037
 20
17.078240074
 10
33.7075411358
 20
17.1381478147
 10
33.6927540458
 20
17.1982186579
 10
33.6762909833
 20
17.2584079936
 10
33.6581621849
 20
17.3186788532
 10
33.638379435
 20
17.3790071126
 10
33.6169519846
 20
17.4393616405
 10
33.5938964059
 20
17.4996914812
 10
33.5692373974
 20
17.5599427474
 10
33.542995081
 20
17.6200685096
 10
33.5151851497
 20
17.6800335203
 10
33.4858283808
 20
17.7398015279
 10
33.4549451105
 20
17.7993318792
 10
33.4225565481
 20
17.8585835806
 10
33.3886860546
 20
17.9175200546
 10
33.353352867
 20
17.9761076055
 10
33.3165848505
 20
18.0342991741
 10
33.2784209678
 20
18.0920388071
 10
33.2388962373
 20
18.1492769274
 10
33.1980318386
 20
18.2059850466
 10
33.1558476605
 20
18.2621393999
 10
33.1123735858
 20
18.3177008993
 10
33.0676388642
 20
18.3726319652
 10
33.0216617605
 20
18.4269107964
 10
32.9744631015
 20
18.4805106994
 10
32.9260838459
 20
18.5333826991
 10
32.8765738737
 20
18.5854724057
 10
32.8259736062
 20
18.636738239
 10
32.7743122673
 20
18.6871509359
 10
32.7216251693
 20
18.7366761444
 10
32.6679504671
 20
18.78527865
 10
32.6133235728
 20
18.8329262009
 10
32.5577764005
 20
18.8795895394
 10
32.5013394262
 20
18.9252424737
 10
32.4440587524
 20
18.9698467635
 10
32.3859911392
 20
19.0133567916
 10
32.3271875931
 20
19.0557360235
 10
32.2676788222
 20
19.0969635546
 10
32.207492137
 20
19.1370186476
 10
32.1466702169
 20
19.1758733522
 10
32.0852535535
 20
19.2135012326
 10
32.0232659449
 20
19.2498833557
 10
31.9607383138
 20
19.2850000657
 10
31.8977242865
 20
19.3188191247
 10
31.8342822523
 20
19.3513040696
 10
31.7704545838
 20
19.3824331047
 10
31.70628625
 20
19.412183901
 10
31.6418405671
 20
19.4405229995
 10
31.5771689852
 20
19.4674294142
 10
31.5123089089
 20
19.4928888499
 10
31.4473030038
 20
19.5168808034
 10
31.3821951298
 20
19.5393886788
 10
31.3170302757
 20
19.5603997258
 10
31.2518527559
 20
19.5799008127
  0
LINE
  5
45B
100
AcDbEntity
  8
RACCORDO
100
AcDbLine
 62
250
  6
CONTINUOUS
 10
33.8175478162
 20
12.8754272422
 11
33.8031203385
 21
13.6854506372
  0
LINE
  5
45C
100
AcDbEntity
  8
RACCORDO
100
AcDbLine
 62
250
  6
CONTINUOUS
 10
33.8031203385
 20
13.6854506372
 11
33.782326022
 21
14.9190742215
  0
LINE
  5
45D
100
AcDbEntity
  8
RACCORDO
100
AcDbLine
 62
250
  6
CONTINUOUS
 10
33.9636622434
 20
-36.1749856455
 11
33.9433791173
 21
-34.9845956172
  0
LINE
  5
45E
100
AcDbEntity
  8
RACCORDO
100
AcDbLine
 62
250
  6
CONTINUOUS
 10
34.0182215871
 20
-40.187154971
 11
34.0166825087
 21
-40.0923443754
  0
LINE
  5
45F
100
AcDbEntity
  8
RACCORDO
100
AcDbLine
 62
250
  6
CONTINUOUS
 10
33.9831296876
 20
-37.5236942116
 11
33.9636622434
 21
-36.1749856455
  0
LINE
  5
460
100
AcDbEntity
  8
RACCORDO
100
AcDbLine
 62
250
  6
CONTINUOUS
 10
33.9855563921
 20
-37.7077952807
 11
33.9831296876
 21
-37.5236942116
  0
LWPOLYLINE
  5
461
100
AcDbEntity
  8
RACCORDO
100
AcDbPolyline
 62
250
  6
CONTINUOUS
 90
4
 70
0
 10
34.0078555655
 20
-39.4258673647
 10
34.0013156458
 20
-38.926949243
 10
34.0005679312
 20
-38.8694796887
 10
33.9998026504
 20
-38.8105260722
  0
LWPOLYLINE
  5
462
100
AcDbEntity
  8
RACCORDO
100
AcDbPolyline
 62
250
  6
CONTINUOUS
 90
4
 70
0
 10
33.9899653957
 20
-38.0468088508
 10
33.988914119
 20
-37.9655379472
 10
33.9878293481
 20
-37.8819449339
 10
33.9855563921
 20
-37.7077952807
  0
LINE
  5
463
100
AcDbEntity
  8
RACCORDO
100
AcDbLine
 62
250
  6
CONTINUOUS
 10
33.9998026504
 20
-38.8105260722
 11
33.9899653957
 21
-38.0468088508
  0
LINE
  5
464
100
AcDbEntity
  8
RACCORDO
100
AcDbLine
 62
250
  6
CONTINUOUS
 10
33.782326022
 20
14.9190742215
 11
33.7642536584
 21
16.0323535623
  0
LINE
  5
465
100
AcDbEntity
  8
RACCORDO
100
AcDbLine
 62
250
  6
CONTINUOUS
 10
34.0166825087
 20
-40.0923443754
 11
34.0078555655
 21
-39.4258673647
  0
LINE
  5
466
100
AcDbEntity
  8
RACCORDO
100
AcDbLine
 62
250
  6
CONTINUOUS
 10
33.7642536584
 20
16.0323535623
 11
33.7632284387
 21
16.1512724262
  0
LINE
  5
467
100
AcDbEntity
  8
RACCORDO
100
AcDbLine
 62
250
  6
CONTINUOUS
 10
34.0026801743
 20
-41.0474557299
 11
34.0018719563
 21
-40.9478315945
  0
LINE
  5
468
100
AcDbEntity
  8
RACCORDO
100
AcDbLine
 62
250
  6
CONTINUOUS
 10
33.7632284387
 20
16.1512724262
 11
33.7627425403
 21
16.2941234715
  0
LINE
  5
469
100
AcDbEntity
  8
RACCORDO
100
AcDbLine
 62
250
  6
CONTINUOUS
 10
34.0018719563
 20
-40.9478315945
 11
34.0017618645
 21
-40.855273163
  0
LINE
  5
46A
100
AcDbEntity
  8
RACCORDO
100
AcDbLine
 62
250
  6
CONTINUOUS
 10
33.7627425403
 20
16.2941234715
 11
33.7630074008
 21
16.4646926106
  0
LINE
  5
46B
100
AcDbEntity
  8
RACCORDO
100
AcDbLine
 62
250
  6
CONTINUOUS
 10
33.7630074008
 20
16.4646926106
 11
33.764305551
 21
16.6667117596
  0
LWPOLYLINE
  5
46C
100
AcDbEntity
  8
RACCORDO
100
AcDbPolyline
 62
250
  6
CONTINUOUS
 90
11
 70
0
 10
34.0017618645
 20
-40.855273163
 10
34.0023031866
 20
-40.7696703736
 10
34.0028029688
 20
-40.7292919759
 10
34.0034481636
 20
-40.6905381928
 10
34.0042344984
 20
-40.6532673633
 10
34.0051576033
 20
-40.6174897395
 10
34.006220058
 20
-40.5832019163
 10
34.0074272073
 20
-40.5502412447
 10
34.0087702634
 20
-40.5186470573
 10
34.0102316618
 20
-40.4883930188
 10
34.0118066146
 20
-40.4592160953
  0
LINE
  5
46D
100
AcDbEntity
  8
RACCORDO
100
AcDbLine
 62
7
  6
CONTINUOUS
 10
36.4001562846
 20
-6.9392495818
 11
35.8367240192
 21
-7.6819723767
  0
LINE
  5
46E
100
AcDbEntity
  8
RACCORDO
100
AcDbLine
 62
7
  6
CONTINUOUS
 10
35.9739484109
 20
-13.1981769874
 11
36.5431222188
 21
-12.6862551675
  0
LWPOLYLINE
  5
46F
100
AcDbEntity
  8
0
100
AcDbPolyline
 62
7
  6
CONTINUOUS
 90
45
 70
0
 10
-32.6636731693
 20
42.5032212055
 10
-32.7303389888
 20
42.5229724641
 10
-32.7968448767
 20
42.5412443039
 10
-32.863190833
 20
42.5580367249
 10
-32.929417885
 20
42.573358323
 10
-32.9954850054
 20
42.5872005022
 10
-33.0612691127
 20
42.599537475
 10
-33.1267696793
 20
42.6103664353
 10
-33.1919872328
 20
42.6196901892
 10
-33.2568002744
 20
42.6274913666
 10
-33.3212080499
 20
42.6337671293
 10
-33.3852113135
 20
42.6385203156
 10
-33.4486908285
 20
42.6417420704
 10
-33.5116456185
 20
42.6434295388
 10
-33.57407666
 20
42.6435855757
 10
-33.6358676452
 20
42.6422098905
 10
-33.6970173811
 20
42.6392996276
 10
-33.7575270607
 20
42.6348576426
 10
-33.8172839559
 20
42.6288922107
 10
-33.8762866634
 20
42.621400492
 10
-33.9345365865
 20
42.6123853264
 10
-33.9919252069
 20
42.6018635089
 10
-34.048450919
 20
42.5898322311
 10
-34.1041153284
 20
42.5762943013
 10
-34.1588147335
 20
42.5612749406
 10
-34.2125473355
 20
42.5447713874
 10
-34.2653149332
 20
42.5267864032
 10
-34.3170192218
 20
42.5073534936
 10
-34.3676582192
 20
42.4864699595
 10
-34.4172339074
 20
42.4641385001
 10
-34.4656539282
 20
42.4404007183
 10
-34.5129161271
 20
42.4152539926
 10
-34.5590226585
 20
42.3887009445
 10
-34.603887627
 20
42.3607910419
 10
-34.647508718
 20
42.3315217553
 10
-34.6898882462
 20
42.300895614
 10
-34.7309472593
 20
42.268969674
 10
-34.7706832957
 20
42.2357415121
 10
-34.8090988171
 20
42.2012135515
 10
-34.8461222561
 20
42.1654501169
 10
-34.8817510178
 20
42.1284489052
 10
-34.9159876972
 20
42.0902122196
 10
-34.9487685122
 20
42.050811294
 10
-34.9800907487
 20
42.0102439583
 10
-35.0110883816
 20
41.9668700337
  0
LINE
  5
470
100
AcDbEntity
  8
0
100
AcDbLine
 62
7
  6
CONTINUOUS
 10
33.2458759072
 20
22.263037213
 11
-32.6636731693
 21
42.5032212055
  0
LWPOLYLINE
  5
471
100
AcDbEntity
  8
0
100
AcDbPolyline
 62
7
  6
CONTINUOUS
 90
64
 70
0
 10
33.2458759072
 20
22.263037213
 10
33.3125778833
 20
22.2418325137
 10
33.3791916379
 20
22.2192246009
 10
33.4457171711
 20
22.1952134747
 10
33.5121957107
 20
22.1697824713
 10
33.5785860287
 20
22.1429482544
 10
33.6447644417
 20
22.1147608156
 10
33.7107305544
 20
22.0852176324
 10
33.7764847621
 20
22.0543212273
 10
33.8419045659
 20
22.0221291595
 10
33.9069893427
 20
21.988639014
 10
33.9717397157
 20
21.9538532058
 10
34.0360350564
 20
21.9178365402
 10
34.0998745166
 20
21.8805867228
 10
34.1632589446
 20
21.842106048
 10
34.2260702565
 20
21.8024662044
 10
34.2883073841
 20
21.7616650312
 10
34.3499713957
 20
21.7197046892
 10
34.4109474125
 20
21.6766633497
 10
34.4712341521
 20
21.6325389974
 10
34.5308328971
 20
21.5873336475
 10
34.5896326162
 20
21.5411315167
 10
34.64763182
 20
21.4939307466
 10
34.704831998
 20
21.4457331955
 10
34.7611265875
 20
21.3966286544
 10
34.8165139004
 20
21.3466154324
 10
34.8709956248
 20
21.2956952204
 10
34.9244702626
 20
21.2439628815
 10
34.9769359362
 20
21.1914169018
 10
35.0283945232
 20
21.1380587953
 10
35.0787501573
 20
21.0839879668
 10
35.1280007824
 20
21.0292030879
 10
35.1761484546
 20
20.9737054871
 10
35.2231034759
 20
20.9175985551
 10
35.268863623
 20
20.8608811561
 10
35.3134311192
 20
20.8035544261
 10
35.3567229361
 20
20.7457251633
 10
35.3987366959
 20
20.6873924311
 10
35.4394747765
 20
20.6285571661
 10
35.4788612837
 20
20.5693289772
 10
35.5168936982
 20
20.509707132
 10
35.5535745393
 20
20.4496923628
 10
35.5888354715
 20
20.3893964759
 10
35.6226738479
 20
20.3288189472
 10
35.6550923155
 20
20.2679603007
 10
35.6860304792
 20
20.2069339148
 10
35.7154855797
 20
20.1457394767
 10
35.7434603764
 20
20.0843772992
 10
35.769902753
 20
20.0229616986
 10
35.7948098526
 20
19.9614925753
 10
35.8181845321
 20
19.899970029
 10
35.8399832449
 20
19.8385086746
 10
35.8602030532
 20
19.7771086264
 10
35.8788468948
 20
19.7157697702
 10
35.8958800366
 20
19.6546063789
 10
35.9112994761
 20
19.5936187797
 10
35.9251082158
 20
19.5328066455
 10
35.9372805304
 20
19.4722832678
 10
35.9478133694
 20
19.412049185
 10
35.9567097832
 20
19.3521038588
 10
35.963953198
 20
19.292558966
 10
35.9695380894
 20
19.2334517321
 10
35.9734699817
 20
19.1747449317
 10
35.9757488751
 20
19.1164385646
  0
LINE
  5
472
100
AcDbEntity
  8
RACCORDO
100
AcDbLine
 62
7
  6
CONTINUOUS
 10
35.6285171954
 20
-8.307563811
 11
35.7466185254
 21
-13.0550514341
  0
LINE
  5
473
100
AcDbEntity
  8
RACCORDO
100
AcDbLine
 62
7
  6
CONTINUOUS
 10
37.4030663377
 20
-38.2594774329
 11
36.7704521043
 21
-12.8293807208
  0
LINE
  5
474
100
AcDbEntity
  8
RACCORDO
100
AcDbLine
 62
7
  6
CONTINUOUS
 10
36.6083631085
 20
-6.3136581475
 11
35.9757488751
 21
19.1164385646
  0
LWPOLYLINE
  5
475
100
AcDbEntity
  8
RACCORDO
100
AcDbPolyline
 62
250
  6
CONTINUOUS
 90
5
 70
0
 10
34.018291327
 20
-40.3525782785
 10
34.0194539454
 20
-40.3279749881
 10
34.0200799014
 20
-40.3038129397
 10
34.0200928103
 20
-40.2800501406
 10
34.0197127758
 20
-40.2566988616
  0
LINE
  5
476
100
AcDbEntity
  8
RACCORDO
100
AcDbLine
 62
250
  6
CONTINUOUS
 10
34.0118066146
 20
-40.4592160953
 11
34.018291327
 21
-40.3525782785
  0
LWPOLYLINE
  5
477
100
AcDbEntity
  8
0
100
AcDbPolyline
 62
7
  6
CONTINUOUS
 90
24
 70
0
 10
37.0098660483
 20
-39.3871144679
 10
37.0412363406
 20
-39.3519710959
 10
37.0740171556
 20
-39.3125701703
 10
37.1053393921
 20
-39.2720028346
 10
37.1352057642
 20
-39.2302712589
 10
37.1635606314
 20
-39.1874531884
 10
37.1904011761
 20
-39.1435465976
 10
37.2157302159
 20
-39.0985535119
 10
37.2395005634
 20
-39.0525577524
 10
37.2617093131
 20
-39.0055574499
 10
37.2823593704
 20
-38.9575544737
 10
37.3014122649
 20
-38.9086382522
 10
37.3188650191
 20
-38.858807083
 10
37.3347206105
 20
-38.8080626684
 10
37.3489495004
 20
-38.7564995442
 10
37.3615486564
 20
-38.7041161842
 10
37.3725211108
 20
-38.6509141146
 10
37.3818464224
 20
-38.5969924497
 10
37.3895215205
 20
-38.5423498479
 10
37.3955494757
 20
-38.4869876509
 10
37.399919058
 20
-38.431008997
 10
37.4026265241
 20
-38.3744482658
 10
37.4036756174
 20
-38.3172710778
 10
37.4030663377
 20
-38.2594774329
  0
LWPOLYLINE
  5
478
100
AcDbEntity
  8
RACCORDO
100
AcDbPolyline
 62
250
  6
CONTINUOUS
 90
23
 70
0
 10
34.8444986561
 20
-41.7328118608
 10
34.8718226908
 20
-41.7022388839
 10
34.9032862939
 20
-41.6644221528
 10
34.9332315201
 20
-41.6254555836
 10
34.9616366284
 20
-41.5853677247
 10
34.9884821291
 20
-41.5441867043
 10
35.0137494203
 20
-41.5019415853
 10
35.037419396
 20
-41.4586632943
 10
35.0594778783
 20
-41.4143774986
 10
35.0799067987
 20
-41.3691198069
 10
35.0986839841
 20
-41.3229378569
 10
35.1157951406
 20
-41.2758722647
 10
35.131232457
 20
-41.2279497828
 10
35.1449854459
 20
-41.1791984215
 10
35.1570455583
 20
-41.1296490573
 10
35.1674033116
 20
-41.0793401644
 10
35.1760474636
 20
-41.0283114638
 10
35.1829724249
 20
-40.9765962151
 10
35.1881726721
 20
-40.9242337642
 10
35.1916395039
 20
-40.8712740381
 10
35.1933695302
 20
-40.8177591576
 10
35.1933638554
 20
-40.7637230461
 10
35.1916230136
 20
-40.7092042381
  0
LINE
  5
479
100
AcDbEntity
  8
RACCORDO
100
AcDbLine
 62
250
  6
CONTINUOUS
 10
35.1916230136
 20
-40.7092042381
 11
37.4030663377
 21
-38.259477433
  0
LINE
  5
47A
100
AcDbEntity
  8
SUPERFICI
100
AcDbLine
 62
7
  6
CONTINUOUS
 10
37.0098597857
 20
-39.387121252
 11
34.8444371824
 21
-41.7328784586
  0
ELLIPSE
  5
47B
100
AcDbEntity
  8
RACCORDO
100
AcDbEllipse
 62
7
  6
CONTINUOUS
 10
-6.0561919536
 20
-16.900731877
 30
0.0
 11
0.0774387118
 21
0.2900233438
 31
0.0
 40
0.3268599536
 41
-2.4058569347
 42
-2.3569877156
  0
ELLIPSE
  5
47C
100
AcDbEntity
  8
RACCORDO
100
AcDbEllipse
 62
7
  6
CONTINUOUS
 10
13.9838736441
 20
-23.0548418748
 30
0.0
 11
0.0774387118
 21
0.2900233438
 31
0.0
 40
0.3268599536
 41
-2.4058569347
 42
-2.3569877156
  0
ELLIPSE
  5
47D
100
AcDbEntity
  8
RACCORDO
100
AcDbEllipse
 62
7
  6
CONTINUOUS
 10
-11.4123082362
 20
-14.7429922658
 30
0.0
 11
0.0993376304
 21
0.2832828308
 31
0.0
 40
0.3985724632
 41
0.7076711624
 42
0.7565403815
  0
ELLIPSE
  5
47E
100
AcDbEntity
  8
RACCORDO
100
AcDbEllipse
 62
7
  6
CONTINUOUS
 10
8.6277573615
 20
-20.8971022636
 30
0.0
 11
0.0993376304
 21
0.2832828308
 31
0.0
 40
0.3985724632
 41
0.7076711624
 42
0.7565403815
  0
ELLIPSE
  5
47F
100
AcDbEntity
  8
RACCORDO
100
AcDbEllipse
 62
7
  6
CONTINUOUS
 10
-6.0690500887
 20
-16.3838550777
 30
0.0
 11
0.0774387118
 21
0.2900233438
 31
0.0
 40
0.3268599536
 41
0.6798851829
 42
0.7287544019
  0
ELLIPSE
  5
480
100
AcDbEntity
  8
RACCORDO
100
AcDbEllipse
 62
7
  6
CONTINUOUS
 10
13.971015509
 20
-22.5379650754
 30
0.0
 11
0.0774387118
 21
0.2900233438
 31
0.0
 40
0.3268599536
 41
0.6798851829
 42
0.7287544019
  0
ELLIPSE
  5
481
100
AcDbEntity
  8
RACCORDO
100
AcDbEllipse
 62
7
  6
CONTINUOUS
 10
-21.0870457109
 20
-13.2327828126
 30
0.0
 11
0.2380349254
 21
-0.1834622326
 31
0.0
 40
0.6998056384
 41
-2.6252932092
 42
-1.0789710675
  0
ELLIPSE
  5
482
100
AcDbEntity
  8
RACCORDO
100
AcDbEllipse
 62
7
  6
CONTINUOUS
 10
35.8789771319
 20
-8.0301167639
 30
0.0
 11
0.1655627174
 21
0.4721380514
 31
0.0
 40
0.3985724632
 41
0.8909307339
 42
2.3308273668
  0
ELLIPSE
  5
483
100
AcDbEntity
  8
RACCORDO
100
AcDbEllipse
 62
7
  6
CONTINUOUS
 10
36.357903172
 20
-6.5911051946
 30
0.0
 11
0.1655627174
 21
0.4721380514
 31
0.0
 40
0.3985724632
 41
-2.2506619197
 42
-0.8107652868
  0
ELLIPSE
  5
484
100
AcDbEntity
  8
RACCORDO
100
AcDbEllipse
 62
7
  6
CONTINUOUS
 10
36.5199921678
 20
-13.1068277679
 30
0.0
 11
0.1655627174
 21
0.4721380514
 31
0.0
 40
0.3985724632
 41
5.4724200204
 42
6.9123166533
  0
ELLIPSE
  5
485
100
AcDbEntity
  8
RACCORDO
100
AcDbEllipse
 62
7
  6
CONTINUOUS
 10
35.9970784619
 20
-12.777604387
 30
0.0
 11
0.1655627174
 21
0.4721380514
 31
0.0
 40
0.3985724632
 41
2.3308273668
 42
3.7707239997
  0
ENDSEC
  0
SECTION
  2
OBJECTS
  0
DICTIONARY
  5
C
100
AcDbDictionary
280
0
281
1
  3
ACAD_GROUP
350
D
  3
ACAD_MLINESTYLE
350
17
  3
ACAD_LAYOUT
350
1A
  3
ACAD_PLOTSETTINGS
350
19
  3
ACAD_PLOTSTYLENAME
350
E
  0
DICTIONARY
  5
D
102
{ACAD_REACTORS
330
C
102
}
100
AcDbDictionary
280
0
281
1
  0
ACDBDICTIONARYWDFLT
  5
E
102
{ACAD_REACTORS
330
C
102
}
100
AcDbDictionary
281
1
  3
Normal
350
F
100
AcDbDictionaryWithDefault
340
F
  0
DICTIONARY
  5
17
102
{ACAD_REACTORS
330
C
102
}
100
AcDbDictionary
280
0
281
1
  3
Standard
350
18
  0
DICTIONARY
  5
19
102
{ACAD_REACTORS
330
C
102
}
100
AcDbDictionary
281
1
  0
DICTIONARY
  5
1A
102
{ACAD_REACTORS
330
C
102
}
100
AcDbDictionary
281
1
  3
Model
350
486
  3
Layout1
350
487
  0
ACDBPLACEHOLDER
  5
F
102
{ACAD_REACTORS
330
E
102
}
  0
MLINESTYLE
  5
18
102
{ACAD_REACTORS
330
17
102
}
100
AcDbMlineStyle
  2
STANDARD
 70
0
  3

 62
256
 51
90.0
 52
90.0
 71
2
 49
0.5
 62
256
  6
BYLAYER
 49
-0.5
 62
256
  6
BYLAYER
  0
LAYOUT
  5
486
102
{ACAD_REACTORS
330
1A
102
}
100
AcDbPlotSettings
  1

  2
none_device
  4
ISO_A4_(297.00_x_210.00_MM)
  6

 40
0.0
 41
0.0
 42
0.0
 43
0.0
 44
297.0
 45
210.0
 46
0.0
 47
0.0
 48
0.0
 49
0.0
140
0.0
141
0.0
142
1.0
143
1.0
 70
1024
 72
1
 73
0
 74
0
  7

 75
0
147
1.0
148
0.0
149
0.0
100
AcDbLayout
  1
Model
 70
0
 71
0
 10
0.0
 20
0.0
 11
297.0
 21
210.0
 12
0.0
 22
0.0
 32
0.0
 14
0.0
 24
0.0
 34
0.0
 15
0.0
 25
0.0
 35
0.0
146
0.0
 13
0.0
 23
0.0
 33
0.0
 16
1.0
 26
0.0
 36
0.0
 17
0.0
 27
1.0
 37
0.0
 76
0
330
217
345
0
346
0
  0
LAYOUT
  5
487
102
{ACAD_REACTORS
330
1A
102
}
100
AcDbPlotSettings
  1

  2
none_device
  4
ISO_A4_(297.00_x_210.00_MM)
  6

 40
0.0
 41
0.0
 42
0.0
 43
0.0
 44
297.0
 45
210.0
 46
0.0
 47
0.0
 48
0.0
 49
0.0
140
0.0
141
0.0
142
1.0
143
1.0
 70
0
 72
1
 73
0
 74
0
  7

 75
0
147
1.0
148
0.0
149
0.0
100
AcDbLayout
  1
Layout1
 70
0
 71
1
 10
0.0
 20
0.0
 11
297.0
 21
210.0
 12
0.0
 22
0.0
 32
0.0
 14
0.0
 24
0.0
 34
0.0
 15
0.0
 25
0.0
 35
0.0
146
0.0
 13
0.0
 23
0.0
 33
0.0
 16
1.0
 26
0.0
 36
0.0
 17
0.0
 27
1.0
 37
0.0
 76
0
330
218
345
0
346
0
  0
ENDSEC
  0
EOF
