  0
SECTION
  2
HEADER
  9
$ACADVER
  1
AC1024
  9
$DWGCODEPAGE
  3
ANSI_1252
  9
$EXTMAX
 10
297.0
 20
210.0
 30
0.0
  9
$EXTMIN
 10
0.0
 20
0.0
 30
0.0
  9
$LIMMIN
 10
0.0
 20
0.0
  9
$LIMMAX
 10
297.0
 20
210.0
  9
$VIEWCTR
 10
148.5
 20
105.0
  9
$VIEWSIZE
 40
210.0
  9
$CLAYER
  8
0
  9
$LTSCALE
 40
16.335
  9
$CELTYPE
  6
BYLAYER
  9
$DIMSCALE
 40
1.0
  9
$DIMASZ
 40
3.0
  9
$DIMEXO
 40
0.5
  9
$DIMDLI
 40
11.286
  9
$DIMEXE
 40
1.5
  9
$DIMCEN
 40
2.673
  9
$DIMLFAC
 40
1.0
  9
$DIMBLK
  1
_FILLED
  9
$DIMALT
 70
0
  9
$DIMALTF
 40
0.0393700787
  9
$DIMTXT
 40
3.0
  9
$DIMTOL
 70
1
  9
$DIMLIM
 70
0
  9
$DIMTFAC
 40
1.0
  9
$DIMTP
 40
0.01
  9
$DIMTM
 40
0.01
  9
$DIMGAP
 40
0.625
  9
$DIMDSEP
 70
44
  9
$AUNITS
 70
0
  9
$PDMODE
 70
3
  9
$PDSIZE
 40
3.0
  9
$HANDSEED
  5
595
  9
$TILEMODE
 70
1
  9
$MEASUREMENT
 70
1
  9
$INSUNITS
 70
4
  0
ENDSEC
  0
SECTION
  2
CLASSES
  0
CLASS
  1
ACDBDICTIONARYWDFLT
  2
AcDbDictionaryWithDefault
  3
AutoCAD 2000
 90
0
 91
1
280
0
281
0
  0
CLASS
  1
ACDBPLACEHOLDER
  2
AcDbPlaceHolder
  3
AutoCAD 2000
 90
0
 91
1
280
0
281
0
  0
CLASS
  1
LAYOUT
  2
AcDbLayout
  3
AutoCAD 2000
 90
0
 91
0
280
0
281
0
  0
ENDSEC
  0
SECTION
  2
TABLES
  0
TABLE
  2
VPORT
  5
8
100
AcDbSymbolTable
 70
2
  0
VPORT
  5
1F4
100
AcDbSymbolTableRecord
100
AcDbViewportTableRecord
  2
*ACTIVE
 70
0
 10
0.0
 20
0.0
 11
1.0
 21
1.0
 12
148.5
 22
105.0
 13
0.0
 23
0.0
 14
1.0
 24
1.0
 15
0.0
 25
0.0
 16
0.0
 26
0.0
 36
1.0
 17
0.0
 27
0.0
 37
0.0
 40
210.0
 41
1.4142857143
 42
50.0
 43
0.0
 44
0.0
 50
0.0
 51
0.0
 71
0
 72
100
 73
1
 74
1
 75
0
 76
0
 77
0
 78
0
  0
ENDTAB
  0
TABLE
  2
LTYPE
  5
5
100
AcDbSymbolTable
 70
6
  0
LTYPE
  5
14
100
AcDbSymbolTableRecord
100
AcDbLinetypeTableRecord
  2
BYBLOCK
 70
0
  3

 72
65
 73
0
 40
0.0
  0
LTYPE
  5
15
100
AcDbSymbolTableRecord
100
AcDbLinetypeTableRecord
  2
BYLAYER
 70
0
  3

 72
65
 73
0
 40
0.0
  0
LTYPE
  5
16
100
AcDbSymbolTableRecord
100
AcDbLinetypeTableRecord
  2
CONTINUOUS
 70
64
  3
Solid line
 72
65
 73
0
 40
0.0
  0
LTYPE
  5
1F5
100
AcDbSymbolTableRecord
100
AcDbLinetypeTableRecord
  2
CENTER
 70
64
  3
____ _ ____ _ ____ _ ____ _ ____ _ ____ _ ____
 72
65
 73
4
 40
0.6
 49
0.375
 74
0
 49
-0.075
 74
0
 49
0.075
 74
0
 49
-0.075
 74
0
  0
LTYPE
  5
1F6
100
AcDbSymbolTableRecord
100
AcDbLinetypeTableRecord
  2
HIDDEN
 70
64
  3
- - - - - - - - - - - - - - - - - - - -
 72
65
 73
2
 40
0.2
 49
0.1
 74
0
 49
-0.1
 74
0
  0
LTYPE
  5
1F7
100
AcDbSymbolTableRecord
100
AcDbLinetypeTableRecord
  2
PHANTOM
 70
64
  3
_____ _ _ _____ _ _ _____ _ _ _____
 72
65
 73
6
 40
0.8
 49
0.45
 74
0
 49
-0.05
 74
0
 49
0.1
 74
0
 49
-0.05
 74
0
 49
0.1
 74
0
 49
-0.05
 74
0
  0
LTYPE
  5
1F8
100
AcDbSymbolTableRecord
100
AcDbLinetypeTableRecord
  2
DOT
 70
64
  3
. . . . . . . . . . . . . . . . . . . .
 72
65
 73
2
 40
0.2
 49
0.1
 74
0
 49
-0.1
 74
0
  0
LTYPE
  5
1F9
100
AcDbSymbolTableRecord
100
AcDbLinetypeTableRecord
  2
DASHED
 70
64
  3
- - - - - - - - - - - - - - - - - - - -
 72
65
 73
2
 40
0.2
 49
0.1
 74
0
 49
-0.1
 74
0
  0
ENDTAB
  0
TABLE
  2
LAYER
  5
2
100
AcDbSymbolTable
 70
36
  0
LAYER
  5
10
100
AcDbSymbolTableRecord
100
AcDbLayerTableRecord
  2
0
 70
0
 62
7
  6
CONTINUOUS
370
-3
390
F
  0
LAYER
  5
1FA
100
AcDbSymbolTableRecord
100
AcDbLayerTableRecord
  2
DEFAULT_1
 70
0
 62
7
  6
CENTER
370
-3
390
F
  0
LAYER
  5
1FB
100
AcDbSymbolTableRecord
100
AcDbLayerTableRecord
  2
DEFAULT_2
 70
0
 62
7
  6
HIDDEN
370
-3
390
F
  0
LAYER
  5
1FC
100
AcDbSymbolTableRecord
100
AcDbLayerTableRecord
  2
DEFAULT_3
 70
0
 62
7
  6
PHANTOM
370
-3
390
F
  0
LAYER
  5
1FD
100
AcDbSymbolTableRecord
100
AcDbLayerTableRecord
  2
ASSI
 70
0
 62
7
  6
CONTINUOUS
370
-3
390
F
  0
LAYER
  5
1FE
100
AcDbSymbolTableRecord
100
AcDbLayerTableRecord
  2
COLOR5
 70
0
 62
7
  6
CONTINUOUS
370
-3
390
F
  0
LAYER
  5
1FF
100
AcDbSymbolTableRecord
100
AcDbLayerTableRecord
  2
COORDINATE
 70
0
 62
7
  6
CONTINUOUS
370
-3
390
F
  0
LAYER
  5
200
100
AcDbSymbolTableRecord
100
AcDbLayerTableRecord
  2
COORD_ORIGINE
 70
0
 62
7
  6
CONTINUOUS
370
-3
390
F
  0
LAYER
  5
201
100
AcDbSymbolTableRecord
100
AcDbLayerTableRecord
  2
CURVE
 70
0
 62
7
  6
CONTINUOUS
370
-3
390
F
  0
LAYER
  5
202
100
AcDbSymbolTableRecord
100
AcDbLayerTableRecord
  2
DRAFT
 70
0
 62
7
  6
CONTINUOUS
370
-3
390
F
  0
LAYER
  5
203
100
AcDbSymbolTableRecord
100
AcDbLayerTableRecord
  2
ESTRATTORI
 70
0
 62
7
  6
CONTINUOUS
370
-3
390
F
  0
LAYER
  5
204
100
AcDbSymbolTableRecord
100
AcDbLayerTableRecord
  2
IGES
 70
0
 62
7
  6
CONTINUOUS
370
-3
390
F
  0
LAYER
  5
205
100
AcDbSymbolTableRecord
100
AcDbLayerTableRecord
  2
INTF_5
 70
0
 62
7
  6
CONTINUOUS
370
-3
390
F
  0
LAYER
  5
206
100
AcDbSymbolTableRecord
100
AcDbLayerTableRecord
  2
INTF_MAGENTA
 70
0
 62
7
  6
CONTINUOUS
370
-3
390
F
  0
LAYER
  5
207
100
AcDbSymbolTableRecord
100
AcDbLayerTableRecord
  2
INTF_RED
 70
0
 62
7
  6
CONTINUOUS
370
-3
390
F
  0
LAYER
  5
208
100
AcDbSymbolTableRecord
100
AcDbLayerTableRecord
  2
NOTE
 70
0
 62
7
  6
CONTINUOUS
370
-3
390
F
  0
LAYER
  5
209
100
AcDbSymbolTableRecord
100
AcDbLayerTableRecord
  2
PIANI
 70
0
 62
7
  6
CONTINUOUS
370
-3
390
F
  0
LAYER
  5
20A
100
AcDbSymbolTableRecord
100
AcDbLayerTableRecord
  2
PIANI_ORIGINE
 70
0
 62
7
  6
CONTINUOUS
370
-3
390
F
  0
LAYER
  5
20B
100
AcDbSymbolTableRecord
100
AcDbLayerTableRecord
  2
PLACCA
 70
0
 62
7
  6
CONTINUOUS
370
-3
390
F
  0
LAYER
  5
20C
100
AcDbSymbolTableRecord
100
AcDbLayerTableRecord
  2
PUNTI
 70
0
 62
7
  6
CONTINUOUS
370
-3
390
F
  0
LAYER
  5
20D
100
AcDbSymbolTableRecord
100
AcDbLayerTableRecord
  2
RACCORDO
 70
0
 62
7
  6
CONTINUOUS
370
-3
390
F
  0
LAYER
  5
20E
100
AcDbSymbolTableRecord
100
AcDbLayerTableRecord
  2
SMUSSO
 70
0
 62
7
  6
CONTINUOUS
370
-3
390
F
  0
LAYER
  5
20F
100
AcDbSymbolTableRecord
100
AcDbLayerTableRecord
  2
SNAPLINE
 70
0
 62
7
  6
CONTINUOUS
370
-3
390
F
  0
LAYER
  5
210
100
AcDbSymbolTableRecord
100
AcDbLayerTableRecord
  2
SUPERFICI
 70
0
 62
7
  6
CONTINUOUS
370
-3
390
F
  0
LAYER
  5
211
100
AcDbSymbolTableRecord
100
AcDbLayerTableRecord
  2
SUPPORTO
 70
0
 62
7
  6
CONTINUOUS
370
-3
390
F
  0
LAYER
  5
212
100
AcDbSymbolTableRecord
100
AcDbLayerTableRecord
  2
TRASH
 70
0
 62
7
  6
CONTINUOUS
370
-3
390
F
  0
LAYER
  5
213
100
AcDbSymbolTableRecord
100
AcDbLayerTableRecord
  2
XSEC_DATUMS
 70
0
 62
7
  6
CONTINUOUS
370
-3
390
F
  0
ENDTAB
  0
TABLE
  2
STYLE
  5
3
100
AcDbSymbolTable
 70
1
  0
STYLE
  5
11
100
AcDbSymbolTableRecord
100
AcDbTextStyleTableRecord
  2
STANDARD
 70
0
 40
0.0
 41
0.8
 50
0.0
 71
0
 42
0.2
  3
txt
  4

  0
STYLE
  5
214
100
AcDbSymbolTableRecord
100
AcDbTextStyleTableRecord
  2
TEXTSTYLE_1
 70
0
 40
0.0
 41
0.8
 50
0.0
 71
0
 42
0.2
  3
gdt
  4

  0
ENDTAB
  0
TABLE
  2
VIEW
  5
6
100
AcDbSymbolTable
 70
0
  0
ENDTAB
  0
TABLE
  2
UCS
  5
7
100
AcDbSymbolTable
 70
0
  0
ENDTAB
  0
TABLE
  2
APPID
  5
9
100
AcDbSymbolTable
 70
1
  0
APPID
  5
215
100
AcDbSymbolTableRecord
100
AcDbRegAppTableRecord
  2
ACAD
 70
0
  0
ENDTAB
  0
TABLE
  2
BLOCK_RECORD
  5
1
100
AcDbSymbolTable
 70
0
  0
BLOCK_RECORD
  5
216
100
AcDbSymbolTableRecord
100
AcDbBlockTableRecord
  2
*Model_Space
  0
BLOCK_RECORD
  5
217
100
AcDbSymbolTableRecord
100
AcDbBlockTableRecord
  2
*Paper_Space
  0
BLOCK_RECORD
  5
218
100
AcDbSymbolTableRecord
100
AcDbBlockTableRecord
  2
_FILLED
  0
ENDTAB
  0
TABLE
  2
DIMSTYLE
  5
A
100
AcDbSymbolTable
 70
1
100
AcDbDimStyleTable
 71
0
  0
DIMSTYLE
105
219
100
AcDbSymbolTableRecord
100
AcDbDimStyleTableRecord
  2
STANDARD
 70
0
  3

  4

 40
1.0
 41
3.0
 42
0.5
 43
0.38
 44
1.5
 45
0.0
 46
0.0
 47
0.01
 48
0.01
140
3.0
141
0.09
142
0.0
143
25.4
144
1.0
145
0.0
146
1.0
147
0.625
 71
1
 72
0
 73
0
 74
0
 75
0
 76
0
 77
1
 78
8
 79
2
170
0
171
1
172
0
173
0
174
0
175
0
176
0
177
0
178
0
270
2
179
2
271
2
272
2
273
2
274
2
275
0
280
0
281
0
282
0
283
1
284
8
285
0
286
0
287
3
288
0
340
11
278
44
341
218
342
218
343
218
344
218
  0
ENDTAB
  0
ENDSEC
  0
SECTION
  2
BLOCKS
  0
BLOCK
  5
20
100
AcDbEntity
  8
0
100
AcDbBlockBegin
  2
*Model_Space
 70
0
 10
0.0
 20
0.0
 30
0.0
  3
*Model_Space
  1

  0
ENDBLK
  5
21
100
AcDbEntity
  8
0
100
AcDbBlockEnd
  0
BLOCK
  5
1C
100
AcDbEntity
  8
0
100
AcDbBlockBegin
  2
*Paper_Space
 70
0
 10
0.0
 20
0.0
 30
0.0
  3
*Paper_Space
  1

  0
ENDBLK
  5
1D
100
AcDbEntity
  8
0
100
AcDbBlockEnd
  0
BLOCK
  5
21A
100
AcDbEntity
  8
0
100
AcDbBlockBegin
  2
_FILLED
 70
64
 10
0.0
 20
0.0
  3
_FILLED
  1

  0
SOLID
  5
21B
100
AcDbEntity
  8
0
  6
BYBLOCK
 62
0
100
AcDbTrace
 10
0.0
 20
0.0
 11
-1.0
 21
0.3166666667
 12
-1.0
 22
-0.3166666667
 13
-1.0
 23
-0.3166666667
  0
ENDBLK
  5
21C
100
AcDbEntity
  8
0
  6
BYBLOCK
 62
0
100
AcDbBlockEnd
  0
ENDSEC
  0
SECTION
  2
ENTITIES
  0
LWPOLYLINE
  5
21D
100
AcDbEntity
  8
0
100
AcDbPolyline
 62
250
  6
CONTINUOUS
 90
14
 70
0
 10
-38.03425963
 20
37.8515451313
 10
-37.9977470034
 20
37.9023940101
 10
-37.9051106128
 20
38.0118220053
 10
-37.8004615454
 20
38.1108322112
 10
-37.6843603613
 20
38.1988894308
 10
-37.5574092234
 20
38.275506843
 10
-37.4203871558
 20
38.3401867232
 10
-37.2742287618
 20
38.3924983839
 10
-37.119884853
 20
38.4321468063
 10
-36.9581884473
 20
38.4589607964
 10
-36.7899794092
 20
38.472817206
 10
-36.6161928944
 20
38.4736374
 10
-36.4378685063
 20
38.4614149225
 10
-36.2560368176
 20
38.4362229322
  0
LWPOLYLINE
  5
21E
100
AcDbEntity
  8
0
100
AcDbPolyline
 62
7
  6
CONTINUOUS
 90
10
 70
0
 10
-38.0342372043
 20
37.8515782251
 10
-38.0906761402
 20
37.763761522
 10
-38.1632927371
 20
37.6323344587
 10
-38.2247399919
 20
37.4967317478
 10
-38.2730610762
 20
37.3631287642
 10
-38.3081264434
 20
37.237795361
 10
-38.3330607783
 20
37.1174000968
 10
-38.3508325335
 20
36.9936169045
 10
-38.3621815904
 20
36.8635537473
 10
-38.3664371815
 20
36.7484230013
  0
LWPOLYLINE
  5
21F
100
AcDbEntity
  8
0
100
AcDbPolyline
 62
250
  6
CONTINUOUS
 90
16
 70
0
 10
-35.7313098738
 20
38.3000730198
 10
-35.763808447
 20
38.2501999098
 10
-35.7911169573
 20
38.1951527889
 10
-35.8129559109
 20
38.1350241951
 10
-35.8290440027
 20
38.0700232702
 10
-35.8391527284
 20
38.0002775846
 10
-35.8430434383
 20
37.9258051315
 10
-35.8404357046
 20
37.8469080634
 10
-35.8310676362
 20
37.7639133135
 10
-35.8146247584
 20
37.6769301402
 10
-35.7907834572
 20
37.586348422
 10
-35.7592912844
 20
37.4928543921
 10
-35.7199033791
 20
37.3971253557
 10
-35.6724072528
 20
37.2999586623
 10
-35.6166292141
 20
37.202278793
 10
-35.5524311438
 20
37.105130017
  0
LINE
  5
220
100
AcDbEntity
  8
0
100
AcDbLine
 62
7
  6
CONTINUOUS
 10
-36.1676472102
 20
40.5932451111
 11
-38.0348614468
 21
37.8506619593
  0
LINE
  5
221
100
AcDbEntity
  8
0
100
AcDbLine
 62
250
  6
CONTINUOUS
 10
-35.8814264728
 20
38.3461723731
 11
-33.8171457228
 21
41.1341006007
  0
LWPOLYLINE
  5
222
100
AcDbEntity
  8
0
100
AcDbPolyline
 62
250
  6
CONTINUOUS
 90
10
 70
0
 10
-34.5516331028
 20
31.0291987777
 10
-34.6069424453
 20
30.9293059315
 10
-34.659938574
 20
30.8252359891
 10
-34.7106372855
 20
30.7172385519
 10
-34.7590642714
 20
30.6054935574
 10
-34.805191954
 20
30.4899642105
 10
-34.8489767656
 20
30.3705805112
 10
-34.890378479
 20
30.2473611249
 10
-34.9293665554
 20
30.1203247752
 10
-34.9659229453
 20
29.989488156
  0
LWPOLYLINE
  5
223
100
AcDbEntity
  8
0
100
AcDbPolyline
 62
250
  6
CONTINUOUS
 90
10
 70
0
 10
-34.4550576402
 20
31.1846454888
 10
-34.4661175192
 20
31.1679698271
 10
-34.477093573
 20
31.1511453376
 10
-34.4879865782
 20
31.1341715753
 10
-34.498797997
 20
31.1170470768
 10
-34.5095280347
 20
31.099772429
 10
-34.5201757124
 20
31.0823503213
 10
-34.5307414214
 20
31.0647814299
 10
-34.5412268522
 20
31.0470643652
 10
-34.5516331028
 20
31.0291987777
  0
LWPOLYLINE
  5
224
100
AcDbEntity
  8
0
100
AcDbPolyline
 62
250
  6
CONTINUOUS
 90
8
 70
0
 10
-37.3698281554
 20
37.3474370313
 10
-37.2390119742
 20
37.3849475218
 10
-37.100485958
 20
37.4100134674
 10
-36.9553446029
 20
37.4222908168
 10
-36.803754747
 20
37.4216462537
 10
-36.6449890223
 20
37.4077585983
 10
-36.4795943661
 20
37.3798417736
 10
-36.3090133944
 20
37.3370281073
  0
LWPOLYLINE
  5
225
100
AcDbEntity
  8
0
100
AcDbPolyline
 62
250
  6
CONTINUOUS
 90
11
 70
0
 10
-38.0859932644
 20
36.3930708573
 10
-38.0717481546
 20
36.5234539114
 10
-38.043941371
 20
36.648671395
 10
-38.0028686941
 20
36.767699077
 10
-37.9486054863
 20
36.8795310881
 10
-37.8812608574
 20
36.9831648935
 10
-37.8013090489
 20
37.0775718476
 10
-37.7093824293
 20
37.161977583
 10
-37.6060916877
 20
37.2356492018
 10
-37.4924699787
 20
37.2976429464
 10
-37.3698281554
 20
37.3474370313
  0
LWPOLYLINE
  5
226
100
AcDbEntity
  8
0
100
AcDbPolyline
 62
250
  6
CONTINUOUS
 90
10
 70
0
 10
-34.9659229453
 20
29.989488156
 10
-35.0217956472
 20
29.7614837347
 10
-35.0706507077
 20
29.5242115739
 10
-35.112802138
 20
29.2777806486
 10
-35.1485779436
 20
29.0226253361
 10
-35.1784795656
 20
28.759199792
 10
-35.2032145764
 20
28.4880058371
 10
-35.2234020701
 20
28.2094688171
 10
-35.2391792226
 20
27.923669342
 10
-35.2506108274
 20
27.6306291744
  0
LWPOLYLINE
  5
227
100
AcDbEntity
  8
0
100
AcDbPolyline
 62
250
  6
CONTINUOUS
 90
13
 70
0
 10
26.6074383165
 20
-39.4678953526
 10
26.8220755721
 20
-39.4456281916
 10
27.0248381225
 20
-39.4137533768
 10
27.2141199731
 20
-39.3722178468
 10
27.3885494493
 20
-39.3214844849
 10
27.5493474845
 20
-39.2614883679
 10
27.6997512481
 20
-39.1909178625
 10
27.8381579052
 20
-39.1101569148
 10
27.9652672605
 20
-39.0196314323
 10
28.086307746
 20
-38.9164355157
 10
28.2022275529
 20
-38.7993053974
 10
28.3112630181
 20
-38.6697248526
 10
28.4136409237
 20
-38.5276926309
  0
LWPOLYLINE
  5
228
100
AcDbEntity
  8
0
100
AcDbPolyline
 62
7
  6
CONTINUOUS
 90
20
 70
0
 10
-36.9369247557
 20
-20.7320224119
 10
-36.9224087415
 20
-20.8897727392
 10
-36.9013544875
 20
-21.0406936365
 10
-36.8715186125
 20
-21.1994201365
 10
-36.828598161
 20
-21.3667262743
 10
-36.770107928
 20
-21.5414862679
 10
-36.6926794319
 20
-21.7263124169
 10
-36.5954935272
 20
-21.9168034823
 10
-36.4840244358
 20
-22.1001719945
 10
-36.3630791047
 20
-22.2703931116
 10
-36.231672352
 20
-22.4311604686
 10
-36.0894894992
 20
-22.5841366337
 10
-35.9374247201
 20
-22.7290786004
 10
-35.7783531859
 20
-22.8633509044
 10
-35.6143262024
 20
-22.985284843
 10
-35.4447952724
 20
-23.0954609053
 10
-35.2727883546
 20
-23.1921950535
 10
-35.1085530623
 20
-23.2719292323
 10
-34.95568009
 20
-23.3354761301
 10
-34.8127010547
 20
-23.3893805082
  0
LWPOLYLINE
  5
229
100
AcDbEntity
  8
0
100
AcDbPolyline
 62
250
  6
CONTINUOUS
 90
11
 70
0
 10
-36.9442923409
 20
-20.4931189753
 10
-36.943945965
 20
-20.4997321966
 10
-36.9387389765
 20
-20.5237207936
 10
-36.9273549245
 20
-20.5430918878
 10
-36.9096860538
 20
-20.5574700762
 10
-36.8855495001
 20
-20.5664400924
 10
-36.8549703192
 20
-20.5694692287
 10
-36.8183529808
 20
-20.5661450187
 10
-36.776051766
 20
-20.5562187978
 10
-36.7281706215
 20
-20.5393901443
 10
-36.6749510548
 20
-20.5153509472
  0
LWPOLYLINE
  5
22A
100
AcDbEntity
  8
0
100
AcDbPolyline
 62
250
  6
CONTINUOUS
 90
11
 70
0
 10
-38.3619331057
 20
36.493806624
 10
-38.3613062339
 20
36.475920268
 10
-38.3548165762
 20
36.4003703121
 10
-38.3419397875
 20
36.3209934323
 10
-38.3225641028
 20
36.23800387
 10
-38.2964976282
 20
36.1514539574
 10
-38.2637726613
 20
36.0621675175
 10
-38.2248202278
 20
35.9716245631
 10
-38.1800111723
 20
35.8807396068
 10
-38.129450138
 20
35.7898410897
 10
-38.073387798
 20
35.6996055744
  0
LWPOLYLINE
  5
22B
100
AcDbEntity
  8
0
100
AcDbPolyline
 62
250
  6
CONTINUOUS
 90
7
 70
0
 10
-36.6616853088
 20
-21.0560384268
 10
-36.6609385882
 20
-21.0822566105
 10
-36.6599963233
 20
-21.1083602065
 10
-36.6587920208
 20
-21.134345065
 10
-36.6572620546
 20
-21.1602178608
 10
-36.6553450969
 20
-21.1859962261
 10
-36.652982874
 20
-21.2116914881
  0
LINE
  5
22C
100
AcDbEntity
  8
0
100
AcDbLine
 62
7
  6
CONTINUOUS
 10
-38.3647039393
 20
36.5896963391
 11
-38.3032477516
 21
34.3921309859
  0
LINE
  5
22D
100
AcDbEntity
  8
0
100
AcDbLine
 62
250
  6
CONTINUOUS
 10
-38.0870840685
 20
36.240327014
 11
-38.0835358066
 21
36.1108490015
  0
LINE
  5
22E
100
AcDbEntity
  8
0
100
AcDbLine
 62
7
  6
CONTINUOUS
 10
-38.3032477516
 20
34.3921309859
 11
-37.055931756
 21
-15.6483865076
  0
LINE
  5
22F
100
AcDbEntity
  8
0
100
AcDbLine
 62
250
  6
CONTINUOUS
 10
-38.0835358066
 20
36.1108490015
 11
-36.6640221324
 21
-20.9516402224
  0
LINE
  5
230
100
AcDbEntity
  8
0
100
AcDbLine
 62
7
  6
CONTINUOUS
 10
-38.3619874184
 20
36.49613306
 11
-38.3619331057
 21
36.493806624
  0
LINE
  5
231
100
AcDbEntity
  8
0
100
AcDbLine
 62
7
  6
CONTINUOUS
 10
-37.055931756
 20
-15.6483865076
 11
-36.9709339129
 21
-19.2477147749
  0
LINE
  5
232
100
AcDbEntity
  8
0
100
AcDbLine
 62
250
  6
CONTINUOUS
 10
-36.6640221324
 20
-20.9516402224
 11
-36.6616853088
 21
-21.0560384268
  0
LWPOLYLINE
  5
233
100
AcDbEntity
  8
0
100
AcDbPolyline
 62
7
  6
CONTINUOUS
 90
5
 70
0
 10
-36.9709339129
 20
-19.2477147749
 10
-36.9421233343
 20
-20.5965408183
 10
-36.9406458703
 20
-20.6513105987
 10
-36.9383774124
 20
-20.70616527
 10
-36.9369026416
 20
-20.7323933431
  0
LWPOLYLINE
  5
234
100
AcDbEntity
  8
0
100
AcDbPolyline
 62
250
  6
CONTINUOUS
 90
3
 70
0
 10
-38.3664362271
 20
36.7484230042
 10
-38.3656725233
 20
36.7046222893
 10
-38.3593388583
 20
36.6287419583
  0
LWPOLYLINE
  5
235
100
AcDbEntity
  8
0
100
AcDbPolyline
 62
7
  6
CONTINUOUS
 90
4
 70
0
 10
-38.3663591514
 20
36.7546073617
 10
-38.3666915385
 20
36.7183678555
 10
-38.3661471503
 20
36.6514968636
 10
-38.3647039393
 20
36.5896963391
  0
LWPOLYLINE
  5
236
100
AcDbEntity
  8
0
100
AcDbPolyline
 62
250
  6
CONTINUOUS
 90
7
 70
0
 10
-38.0859708506
 20
36.3930626384
 10
-38.0870614575
 20
36.3683877741
 10
-38.0877252967
 20
36.3433734779
 10
-38.0880085146
 20
36.3180393719
 10
-38.0879595737
 20
36.2923942989
 10
-38.0876304463
 20
36.2664713702
 10
-38.0870840685
 20
36.240327014
  0
LWPOLYLINE
  5
237
100
AcDbEntity
  8
0
100
AcDbPolyline
 62
250
  6
CONTINUOUS
 90
10
 70
0
 10
-31.1086355132
 20
24.6752738105
 10
-31.1906184051
 20
24.4974269008
 10
-31.2660223899
 20
24.3112101444
 10
-31.3345492397
 20
24.1165235522
 10
-31.3958107465
 20
23.913586253
 10
-31.4495572643
 20
23.7022583926
 10
-31.4956616906
 20
23.4816914166
 10
-31.5337894649
 20
23.2516247473
 10
-31.5635033437
 20
23.0124654786
 10
-31.5844553167
 20
22.7643747214
  0
LWPOLYLINE
  5
238
100
AcDbEntity
  8
0
100
AcDbPolyline
 62
250
  6
CONTINUOUS
 90
10
 70
0
 10
-30.5884755898
 20
25.4604353481
 10
-30.6532069013
 20
25.3848671705
 10
-30.7162964397
 20
25.306516631
 10
-30.7777062489
 20
25.225327236
 10
-30.8372708687
 20
25.1414073655
 10
-30.8949958821
 20
25.0546610894
 10
-30.9510564859
 20
24.964710095
 10
-31.0054524087
 20
24.8714147664
 10
-31.0580084913
 20
24.7749276646
 10
-31.1086355132
 20
24.6752738105
  0
LWPOLYLINE
  5
239
100
AcDbEntity
  8
0
100
AcDbPolyline
 62
250
  6
CONTINUOUS
 90
10
 70
0
 10
-30.4819915055
 20
25.5752398739
 10
-30.4940330025
 20
25.5628096185
 10
-30.5060180351
 20
25.5503029965
 10
-30.5179476026
 20
25.5377186236
 10
-30.5298205184
 20
25.5250574618
 10
-30.5416400368
 20
25.5123157662
 10
-30.5534137169
 20
25.4994849748
 10
-30.5651446549
 20
25.4865611605
 10
-30.5768316209
 20
25.4735451411
 10
-30.5884755898
 20
25.4604353481
  0
LWPOLYLINE
  5
23A
100
AcDbEntity
  8
0
100
AcDbPolyline
 62
250
  6
CONTINUOUS
 90
10
 70
0
 10
25.2688556619
 20
-39.4388926744
 10
25.4319775409
 20
-39.4543455144
 10
25.5915708116
 20
-39.4666885447
 10
25.7475990358
 20
-39.4759374622
 10
25.900009282
 20
-39.4821138304
 10
26.0487506211
 20
-39.4852435186
 10
26.1939313228
 20
-39.4854014961
 10
26.3355920655
 20
-39.4826203492
 10
26.4735355444
 20
-39.4768224356
 10
26.6074383165
 20
-39.4678953526
  0
LINE
  5
23B
100
AcDbEntity
  8
0
100
AcDbLine
 62
250
  6
CONTINUOUS
 10
-33.2155305463
 20
-19.5617039244
 11
-33.1914757505
 21
-19.609358128
  0
LINE
  5
23C
100
AcDbEntity
  8
0
100
AcDbLine
 62
250
  6
CONTINUOUS
 10
-33.2392787116
 20
-19.513647581
 11
-33.2155305463
 21
-19.5617039244
  0
LINE
  5
23D
100
AcDbEntity
  8
0
100
AcDbLine
 62
250
  6
CONTINUOUS
 10
-33.2627251352
 20
-19.4651857484
 11
-33.2392787116
 21
-19.513647581
  0
LWPOLYLINE
  5
23E
100
AcDbEntity
  8
0
100
AcDbPolyline
 62
250
  6
CONTINUOUS
 90
3
 70
0
 10
-33.2973316298
 20
-19.3917466938
 10
-33.2858694677
 20
-19.4163278241
 10
-33.2627251352
 20
-19.4651857484
  0
LWPOLYLINE
  5
23F
100
AcDbEntity
  8
0
100
AcDbPolyline
 62
250
  6
CONTINUOUS
 90
10
 70
0
 10
-33.2973316298
 20
-19.3917466938
 10
-33.3585007815
 20
-19.2560844309
 10
-33.4175305281
 20
-19.1176124281
 10
-33.4744243953
 20
-18.9765743528
 10
-33.529199449
 20
-18.8331370128
 10
-33.5818295315
 20
-18.6872801152
 10
-33.6322739139
 20
-18.5389595468
 10
-33.6804908139
 20
-18.3882191563
 10
-33.7264482838
 20
-18.2350968553
 10
-33.7701271592
 20
-18.0796207646
  0
LWPOLYLINE
  5
240
100
AcDbEntity
  8
0
100
AcDbPolyline
 62
250
  6
CONTINUOUS
 90
10
 70
0
 10
-33.7701271592
 20
-18.0796207646
 10
-33.8382913715
 20
-17.8135258088
 10
-33.8997945458
 20
-17.5423636994
 10
-33.9549500643
 20
-17.2660507401
 10
-34.0040692042
 20
-16.984825015
 10
-34.0476383571
 20
-16.698837318
 10
-34.0863508307
 20
-16.4081592628
 10
-34.1208139258
 20
-16.1128395727
 10
-34.1511628886
 20
-15.8128752041
 10
-34.1774624188
 20
-15.5082481645
  0
LWPOLYLINE
  5
241
100
AcDbEntity
  8
0
100
AcDbPolyline
 62
250
  6
CONTINUOUS
 90
10
 70
0
 10
-36.9369026416
 20
-20.7323933431
 10
-36.9317580627
 20
-20.7577897874
 10
-36.9205179975
 20
-20.7770159828
 10
-36.9029879066
 20
-20.791244012
 10
-36.8790060987
 20
-20.8001003944
 10
-36.8485944487
 20
-20.803108179
 10
-36.8121444749
 20
-20.7999029487
 10
-36.7699961024
 20
-20.7902792633
 10
-36.7222398391
 20
-20.7739840657
 10
-36.6690949144
 20
-20.7507585764
  0
LWPOLYLINE
  5
242
100
AcDbEntity
  8
0
100
AcDbPolyline
 62
250
  6
CONTINUOUS
 90
17
 70
0
 10
-36.6529828989
 20
-21.2116912426
 10
-36.6319815622
 20
-21.3528981471
 10
-36.5974687332
 20
-21.4972533882
 10
-36.5497960976
 20
-21.6435339039
 10
-36.4890906084
 20
-21.790671696
 10
-36.4155133188
 20
-21.9375812651
 10
-36.3295973444
 20
-22.0829246159
 10
-36.2320236138
 20
-22.2255240799
 10
-36.1234489632
 20
-22.3642575145
 10
-36.0049697709
 20
-22.4975272034
 10
-35.8779432326
 20
-22.6239920288
 10
-35.7432323347
 20
-22.7430433182
 10
-35.6013168211
 20
-22.8542301459
 10
-35.4533252889
 20
-22.9565257704
 10
-35.2994338288
 20
-23.0496915654
 10
-35.1389199762
 20
-23.1338515809
 10
-34.9723784998
 20
-23.207869133
  0
LINE
  5
243
100
AcDbEntity
  8
0
100
AcDbLine
 62
250
  6
CONTINUOUS
 10
-34.1774624188
 20
-15.5082481645
 11
-34.2379280369
 21
-14.5506731097
  0
LINE
  5
244
100
AcDbEntity
  8
0
100
AcDbLine
 62
250
  6
CONTINUOUS
 10
-34.2379280369
 20
-14.5506731097
 11
-34.3488521367
 21
-12.5596163789
  0
LINE
  5
245
100
AcDbEntity
  8
0
100
AcDbLine
 62
250
  6
CONTINUOUS
 10
-34.3488521367
 20
-12.5596163789
 11
-34.4588323177
 21
-10.4656763058
  0
LINE
  5
246
100
AcDbEntity
  8
0
100
AcDbLine
 62
250
  6
CONTINUOUS
 10
-34.4588323177
 20
-10.4656763058
 11
-34.5673520222
 21
-8.2597541405
  0
LINE
  5
247
100
AcDbEntity
  8
0
100
AcDbLine
 62
250
  6
CONTINUOUS
 10
-34.5673520222
 20
-8.2597541405
 11
-34.6734671351
 21
-5.9369022372
  0
LINE
  5
248
100
AcDbEntity
  8
0
100
AcDbLine
 62
250
  6
CONTINUOUS
 10
-34.6734671351
 20
-5.9369022372
 11
-34.7761912518
 21
-3.4895719881
  0
LINE
  5
249
100
AcDbEntity
  8
0
100
AcDbLine
 62
250
  6
CONTINUOUS
 10
-34.7761912518
 20
-3.4895719881
 11
-34.8743942521
 21
-0.9086716501
  0
LINE
  5
24A
100
AcDbEntity
  8
0
100
AcDbLine
 62
250
  6
CONTINUOUS
 10
-34.8743942521
 20
-0.9086716501
 11
-34.9666155586
 21
1.811905012
  0
LINE
  5
24B
100
AcDbEntity
  8
0
100
AcDbLine
 62
250
  6
CONTINUOUS
 10
-34.9666155586
 20
1.811905012
 11
-35.0513572212
 21
4.684498814
  0
LINE
  5
24C
100
AcDbEntity
  8
0
100
AcDbLine
 62
250
  6
CONTINUOUS
 10
-35.0513572212
 20
4.684498814
 11
-35.0902391044
 21
6.1767186389
  0
LINE
  5
24D
100
AcDbEntity
  8
0
100
AcDbLine
 62
250
  6
CONTINUOUS
 10
-35.1255728088
 20
7.667848629
 11
-35.0902391044
 21
6.1767186389
  0
LINE
  5
24E
100
AcDbEntity
  8
0
100
AcDbLine
 62
250
  6
CONTINUOUS
 10
-35.1835473663
 20
10.5322221611
 11
-35.1255728088
 21
7.667848629
  0
LINE
  5
24F
100
AcDbEntity
  8
0
100
AcDbLine
 62
250
  6
CONTINUOUS
 10
-35.2308243819
 20
13.5960648802
 11
-35.1835473663
 21
10.5322221611
  0
LINE
  5
250
100
AcDbEntity
  8
0
100
AcDbLine
 62
250
  6
CONTINUOUS
 10
-35.2559871341
 20
15.7974669204
 11
-35.2308243819
 21
13.5960648802
  0
LINE
  5
251
100
AcDbEntity
  8
0
100
AcDbLine
 62
250
  6
CONTINUOUS
 10
-35.2743812839
 20
18.2189002445
 11
-35.2559871341
 21
15.7974669204
  0
LINE
  5
252
100
AcDbEntity
  8
0
100
AcDbLine
 62
250
  6
CONTINUOUS
 10
-35.2830913574
 20
20.511840081
 11
-35.2743812839
 21
18.2189002445
  0
LINE
  5
253
100
AcDbEntity
  8
0
100
AcDbLine
 62
250
  6
CONTINUOUS
 10
-35.2834974036
 20
22.6845617409
 11
-35.2830913574
 21
20.511840081
  0
LWPOLYLINE
  5
254
100
AcDbEntity
  8
0
100
AcDbPolyline
 62
250
  6
CONTINUOUS
 90
4
 70
0
 10
-35.2506108274
 20
27.6306291744
 10
-35.2639982214
 20
26.6957334757
 10
-35.2711922013
 20
25.7325587914
 10
-35.2834974036
 20
22.6845617409
  0
LWPOLYLINE
  5
255
100
AcDbEntity
  8
0
100
AcDbPolyline
 62
250
  6
CONTINUOUS
 90
3
 70
0
 10
-31.5844553167
 20
22.7643747214
 10
-31.6030301861
 20
22.3574176626
 10
-31.6522108409
 20
21.0697808466
  0
LWPOLYLINE
  5
256
100
AcDbEntity
  8
0
100
AcDbPolyline
 62
7
  6
CONTINUOUS
 90
10
 70
0
 10
-26.917159156
 20
20.7450163643
 10
-26.9591983955
 20
20.6679078088
 10
-26.9970499659
 20
20.5879553217
 10
-27.0307504727
 20
20.5050266339
 10
-27.0601886673
 20
20.4193184439
 10
-27.0852555753
 20
20.3310885194
 10
-27.1059020731
 20
20.2404560149
 10
-27.1221046061
 20
20.1474700098
 10
-27.1338239555
 20
20.0522044036
 10
-27.1410191517
 20
19.9547287805
  0
LWPOLYLINE
  5
257
100
AcDbEntity
  8
0
100
AcDbPolyline
 62
7
  6
CONTINUOUS
 90
10
 70
0
 10
-26.8457772006
 20
20.855991601
 10
-26.854171782
 20
20.8439992821
 10
-26.8624480339
 20
20.8319262339
 10
-26.8706066203
 20
20.8197715214
 10
-26.8786468204
 20
20.80753634
 10
-26.8865707292
 20
20.7952176466
 10
-26.8943830498
 20
20.7828080225
 10
-26.9020855937
 20
20.7703042252
 10
-26.9096774869
 20
20.7577073262
 10
-26.9171592247
 20
20.7450162465
  0
LWPOLYLINE
  5
258
100
AcDbEntity
  8
0
100
AcDbPolyline
 62
250
  6
CONTINUOUS
 90
10
 70
0
 10
-28.945903082
 20
26.4560422106
 10
-29.1502665474
 20
26.3939819195
 10
-29.3465685585
 20
26.3227575317
 10
-29.533696451
 20
26.2428288001
 10
-29.7099397014
 20
26.1552445438
 10
-29.8766048492
 20
26.0597387144
 10
-30.037234519
 20
25.9541870195
 10
-30.1925492036
 20
25.837768294
 10
-30.3408785035
 20
25.7114377492
 10
-30.4819915055
 20
25.5752398739
  0
LWPOLYLINE
  5
259
100
AcDbEntity
  8
0
100
AcDbPolyline
 62
7
  6
CONTINUOUS
 90
3
 70
0
 10
18.632055979
 20
-32.5621828891
 10
18.6875018625
 20
-32.5521836927
 10
18.7398965218
 20
-32.5375112189
  0
LWPOLYLINE
  5
25A
100
AcDbEntity
  8
0
100
AcDbPolyline
 62
7
  6
CONTINUOUS
 90
10
 70
0
 10
17.8820281341
 20
-30.8929359835
 10
18.0666897045
 20
-30.8700531854
 10
18.2450039218
 20
-30.8328357124
 10
18.4152690386
 20
-30.7814110614
 10
18.5762413217
 20
-30.7161505264
 10
18.7270640913
 20
-30.6373617275
 10
18.8665314731
 20
-30.5455964051
 10
18.9937400402
 20
-30.4415388826
 10
19.1081453238
 20
-30.3255523221
 10
19.2084765004
 20
-30.1989041408
  0
LINE
  5
25B
100
AcDbEntity
  8
0
100
AcDbLine
 62
7
  6
CONTINUOUS
 10
18.5739893998
 20
-32.5675041627
 11
18.632055979
 21
-32.5621828891
  0
LWPOLYLINE
  5
25C
100
AcDbEntity
  8
0
100
AcDbPolyline
 62
250
  6
CONTINUOUS
 90
10
 70
0
 10
20.9406776913
 20
-35.1057614109
 10
21.0697133501
 20
-35.0966378359
 10
21.195785016
 20
-35.0849844092
 10
21.318874163
 20
-35.0708628344
 10
21.438894586
 20
-35.0543471856
 10
21.5559353465
 20
-35.0354907375
 10
21.6701809265
 20
-35.0143248359
 10
21.7816370746
 20
-34.9909013966
 10
21.890222395
 20
-34.9652932079
 10
21.9960026476
 20
-34.9375462755
  0
LWPOLYLINE
  5
25D
100
AcDbEntity
  8
0
100
AcDbPolyline
 62
7
  6
CONTINUOUS
 90
18
 70
0
 10
31.5211127005
 20
-43.7537575361
 10
31.6108125467
 20
-43.7734199801
 10
31.6962645708
 20
-43.7898944216
 10
31.7808888222
 20
-43.8032928629
 10
31.8749708439
 20
-43.8145239703
 10
31.9810968377
 20
-43.8226206596
 10
32.0957653907
 20
-43.8260169451
 10
32.2193402055
 20
-43.8230636779
 10
32.3504615355
 20
-43.8119706361
 10
32.4883609696
 20
-43.7912630273
 10
32.6336234809
 20
-43.758972677
 10
32.7885925452
 20
-43.7119840112
 10
32.9474101765
 20
-43.6493856665
 10
33.0991654949
 20
-43.5742672424
 10
33.2412040825
 20
-43.4882394456
 10
33.3755420123
 20
-43.3904576982
 10
33.5000544136
 20
-43.2827504072
 10
33.5946548324
 20
-43.1874940691
  0
LINE
  5
25E
100
AcDbEntity
  8
0
100
AcDbLine
 62
7
  6
CONTINUOUS
 10
-34.4906713165
 20
-23.498992208
 11
-32.8584071446
 21
-23.9925108965
  0
LINE
  5
25F
100
AcDbEntity
  8
0
100
AcDbLine
 62
7
  6
CONTINUOUS
 10
30.9150735026
 20
-43.5837154695
 11
30.9139494335
 21
-43.5833721108
  0
LINE
  5
260
100
AcDbEntity
  8
0
100
AcDbLine
 62
7
  6
CONTINUOUS
 10
-32.8584071446
 20
-23.9925108965
 11
-28.7430755781
 21
-25.2489420752
  0
LINE
  5
261
100
AcDbEntity
  8
0
100
AcDbLine
 62
7
  6
CONTINUOUS
 10
-1.6811001055
 20
-33.5623061069
 11
16.7742351441
 21
-39.2249074385
  0
LWPOLYLINE
  5
262
100
AcDbEntity
  8
0
100
AcDbPolyline
 62
7
  6
CONTINUOUS
 90
3
 70
0
 10
-28.7430755781
 20
-25.2489420752
 10
-15.0302114829
 20
-29.458663593
 10
-1.6810972807
 20
-33.562306973
  0
LWPOLYLINE
  5
263
100
AcDbEntity
  8
0
100
AcDbPolyline
 62
7
  6
CONTINUOUS
 90
4
 70
0
 10
16.7742351441
 20
-39.2249074385
 10
27.6022987742
 20
-42.5556030794
 10
29.489385466
 20
-43.138923972
 10
30.9614583519
 20
-43.5981119961
  0
LINE
  5
264
100
AcDbEntity
  8
0
100
AcDbLine
 62
250
  6
CONTINUOUS
 10
-34.8013177288
 20
-23.2699703428
 11
31.1828923404
 21
-43.5330820093
  0
LINE
  5
265
100
AcDbEntity
  8
0
100
AcDbLine
 62
7
  6
CONTINUOUS
 10
-34.2904430795
 20
-23.5597328251
 11
-34.290162833
 21
-23.5598208406
  0
LINE
  5
266
100
AcDbEntity
  8
0
100
AcDbLine
 62
250
  6
CONTINUOUS
 10
-34.812701299
 20
-23.3893804206
 11
-34.8144070727
 21
-23.3887750393
  0
LINE
  5
267
100
AcDbEntity
  8
0
100
AcDbLine
 62
250
  6
CONTINUOUS
 10
-34.9723784998
 20
-23.207869133
 11
-34.8013177288
 21
-23.2699703428
  0
LWPOLYLINE
  5
268
100
AcDbEntity
  8
0
100
AcDbPolyline
 62
7
  6
CONTINUOUS
 90
5
 70
0
 10
-34.8144070727
 20
-23.3887750393
 10
-34.7555914579
 20
-23.4101899906
 10
-34.6653352405
 20
-23.441848834
 10
-34.5772077542
 20
-23.4714644991
 10
-34.4906713165
 20
-23.498992208
  0
LWPOLYLINE
  5
269
100
AcDbEntity
  8
0
100
AcDbPolyline
 62
250
  6
CONTINUOUS
 90
10
 70
0
 10
-31.3103260413
 20
-21.6819110231
 10
-31.1739126241
 20
-21.7738499024
 10
-31.0335548687
 20
-21.8651118932
 10
-30.8895702159
 20
-21.9556112773
 10
-30.7421666849
 20
-22.0453040458
 10
-30.5912903841
 20
-22.1341832195
 10
-30.4368442175
 20
-22.2222394191
 10
-30.2788783054
 20
-22.3094150974
 10
-30.1174468183
 20
-22.3956555512
 10
-29.9525881941
 20
-22.4809222492
  0
LWPOLYLINE
  5
26A
100
AcDbEntity
  8
0
100
AcDbPolyline
 62
250
  6
CONTINUOUS
 90
13
 70
0
 10
-31.3103260413
 20
-21.6819110231
 10
-31.5293843042
 20
-21.5264601701
 10
-31.7368667515
 20
-21.3686030909
 10
-31.9311452835
 20
-21.2092798833
 10
-32.1108039125
 20
-21.0498094948
 10
-32.2770856264
 20
-20.8893703556
 10
-32.433343194
 20
-20.7246271262
 10
-32.5779298536
 20
-20.5569616727
 10
-32.711534831
 20
-20.3863733444
 10
-32.8396127475
 20
-20.20667558
 10
-32.9631897535
 20
-20.0159983106
 10
-33.0804006417
 20
-19.8169397025
 10
-33.1914757505
 20
-19.609358128
  0
LWPOLYLINE
  5
26B
100
AcDbEntity
  8
0
100
AcDbPolyline
 62
250
  6
CONTINUOUS
 90
10
 70
0
 10
-27.7990419532
 20
-19.6459704909
 10
-28.0096633353
 20
-19.4564723773
 10
-28.2125585993
 20
-19.2626583729
 10
-28.4065748995
 20
-19.0656839522
 10
-28.5899227929
 20
-18.8676727392
 10
-28.7639422736
 20
-18.6675459605
 10
-28.9323370135
 20
-18.4609540546
 10
-29.0958797686
 20
-18.2466172947
 10
-29.2528265305
 20
-18.0265394266
 10
-29.4029406004
 20
-17.8009085359
  0
LINE
  5
26C
100
AcDbEntity
  8
0
100
AcDbLine
 62
250
  6
CONTINUOUS
 10
-29.4029406004
 20
-17.8009085359
 11
-29.428587291
 21
-17.7607174941
  0
LINE
  5
26D
100
AcDbEntity
  8
0
100
AcDbLine
 62
250
  6
CONTINUOUS
 10
-29.428587291
 20
-17.7607174941
 11
-29.4540219605
 21
-17.7203517073
  0
LINE
  5
26E
100
AcDbEntity
  8
0
100
AcDbLine
 62
250
  6
CONTINUOUS
 10
-29.4540219605
 20
-17.7203517073
 11
-29.4792605153
 21
-17.6797834624
  0
LWPOLYLINE
  5
26F
100
AcDbEntity
  8
0
100
AcDbPolyline
 62
250
  6
CONTINUOUS
 90
3
 70
0
 10
-29.4792605153
 20
-17.6797834624
 10
-29.504339494
 20
-17.6389507063
 10
-29.5168200126
 20
-17.6184325169
  0
LWPOLYLINE
  5
270
100
AcDbEntity
  8
0
100
AcDbPolyline
 62
250
  6
CONTINUOUS
 90
10
 70
0
 10
-30.0843535117
 20
-16.4992508622
 10
-30.0279739845
 20
-16.6317194335
 10
-29.9697942345
 20
-16.762171631
 10
-29.9099051975
 20
-16.8905276059
 10
-29.8484980677
 20
-17.0165125361
 10
-29.7855637361
 20
-17.1402754795
 10
-29.7208793441
 20
-17.2623510811
 10
-29.6544311329
 20
-17.3828445847
 10
-29.5864060527
 20
-17.5015202678
 10
-29.5168200126
 20
-17.6184325169
  0
LWPOLYLINE
  5
271
100
AcDbEntity
  8
0
100
AcDbPolyline
 62
250
  6
CONTINUOUS
 90
10
 70
0
 10
-30.0843535117
 20
-16.4992508622
 10
-30.1765152082
 20
-16.2679258435
 10
-30.2624163389
 20
-16.0321738496
 10
-30.3417590977
 20
-15.7920779194
 10
-30.4141383125
 20
-15.5481008521
 10
-30.4793075056
 20
-15.3002551394
 10
-30.5371801612
 20
-15.0477578167
 10
-30.5874296323
 20
-14.7905513475
 10
-30.6295915334
 20
-14.5293197119
 10
-30.6633044181
 20
-14.2644418999
  0
LINE
  5
272
100
AcDbEntity
  8
0
100
AcDbLine
 62
250
  6
CONTINUOUS
 10
-30.6633044181
 20
-14.2644418999
 11
-30.7025685527
 21
-13.8397230521
  0
LINE
  5
273
100
AcDbEntity
  8
0
100
AcDbLine
 62
250
  6
CONTINUOUS
 10
-30.7025685527
 20
-13.8397230521
 11
-30.8170636266
 21
-12.5018229958
  0
LINE
  5
274
100
AcDbEntity
  8
0
100
AcDbLine
 62
250
  6
CONTINUOUS
 10
-30.8170636266
 20
-12.5018229958
 11
-30.9333820328
 21
-11.0635635994
  0
LINE
  5
275
100
AcDbEntity
  8
0
100
AcDbLine
 62
250
  6
CONTINUOUS
 10
-30.9333820328
 20
-11.0635635994
 11
-31.0508500715
 21
-9.5142573559
  0
LINE
  5
276
100
AcDbEntity
  8
0
100
AcDbLine
 62
250
  6
CONTINUOUS
 10
-31.0508500715
 20
-9.5142573559
 11
-31.1683447189
 21
-7.8442577539
  0
LINE
  5
277
100
AcDbEntity
  8
0
100
AcDbLine
 62
250
  6
CONTINUOUS
 10
-31.1683447189
 20
-7.8442577539
 11
-31.2459566161
 21
-6.6592450617
  0
LINE
  5
278
100
AcDbEntity
  8
0
100
AcDbLine
 62
250
  6
CONTINUOUS
 10
-31.2459566161
 20
-6.6592450617
 11
-31.3223779599
 21
-5.4133320286
  0
LINE
  5
279
100
AcDbEntity
  8
0
100
AcDbLine
 62
250
  6
CONTINUOUS
 10
-31.3223779599
 20
-5.4133320286
 11
-31.3970340683
 21
-4.1024151989
  0
LINE
  5
27A
100
AcDbEntity
  8
0
100
AcDbLine
 62
250
  6
CONTINUOUS
 10
-31.3970340683
 20
-4.1024151989
 11
-31.4691596185
 21
-2.7237626112
  0
LINE
  5
27B
100
AcDbEntity
  8
0
100
AcDbLine
 62
250
  6
CONTINUOUS
 10
-31.4691596185
 20
-2.7237626112
 11
-31.5379550041
 21
-1.2730287915
  0
LINE
  5
27C
100
AcDbEntity
  8
0
100
AcDbLine
 62
250
  6
CONTINUOUS
 10
-31.5379550041
 20
-1.2730287915
 11
-31.6025045626
 21
0.2549626276
  0
LINE
  5
27D
100
AcDbEntity
  8
0
100
AcDbLine
 62
250
  6
CONTINUOUS
 10
-31.6025045626
 20
0.2549626276
 11
-31.6616459515
 21
1.8634544089
  0
LINE
  5
27E
100
AcDbEntity
  8
0
100
AcDbLine
 62
250
  6
CONTINUOUS
 10
-31.6616459515
 20
1.8634544089
 11
-31.7141504055
 21
3.5587717374
  0
LINE
  5
27F
100
AcDbEntity
  8
0
100
AcDbLine
 62
250
  6
CONTINUOUS
 10
-31.7578922861
 20
5.3171265036
 11
-31.7141504055
 21
3.5587717374
  0
LINE
  5
280
100
AcDbEntity
  8
0
100
AcDbLine
 62
250
  6
CONTINUOUS
 10
-31.789576224
 20
7.0060500549
 11
-31.7578922861
 21
5.3171265036
  0
LINE
  5
281
100
AcDbEntity
  8
0
100
AcDbLine
 62
250
  6
CONTINUOUS
 10
-31.8101679396
 20
8.6027036071
 11
-31.789576224
 21
7.0060500549
  0
LINE
  5
282
100
AcDbEntity
  8
0
100
AcDbLine
 62
250
  6
CONTINUOUS
 10
-31.8212322373
 20
10.1142702234
 11
-31.8101679396
 21
8.6027036071
  0
LINE
  5
283
100
AcDbEntity
  8
0
100
AcDbLine
 62
250
  6
CONTINUOUS
 10
-31.8241119353
 20
11.5447619765
 11
-31.8212322373
 21
10.1142702234
  0
LINE
  5
284
100
AcDbEntity
  8
0
100
AcDbLine
 62
250
  6
CONTINUOUS
 10
-31.8199963172
 20
12.9000016419
 11
-31.8241119353
 21
11.5447619765
  0
LINE
  5
285
100
AcDbEntity
  8
0
100
AcDbLine
 62
250
  6
CONTINUOUS
 10
-31.8099151661
 20
14.1848964814
 11
-31.8199963172
 21
12.9000016419
  0
LINE
  5
286
100
AcDbEntity
  8
0
100
AcDbLine
 62
250
  6
CONTINUOUS
 10
-31.7947825581
 20
15.4026941836
 11
-31.8099151661
 21
14.1848964814
  0
LINE
  5
287
100
AcDbEntity
  8
0
100
AcDbLine
 62
250
  6
CONTINUOUS
 10
-31.7643115728
 20
17.1132829804
 11
-31.7947825581
 21
15.4026941836
  0
LINE
  5
288
100
AcDbEntity
  8
0
100
AcDbLine
 62
250
  6
CONTINUOUS
 10
-31.7265217194
 20
18.6942859001
 11
-31.7643115728
 21
17.1132829804
  0
LINE
  5
289
100
AcDbEntity
  8
0
100
AcDbLine
 62
250
  6
CONTINUOUS
 10
-31.6833036616
 20
20.156232816
 11
-31.7265217194
 21
18.6942859001
  0
LINE
  5
28A
100
AcDbEntity
  8
0
100
AcDbLine
 62
250
  6
CONTINUOUS
 10
-31.6522108409
 20
21.0697808466
 11
-31.6833036616
 21
20.156232816
  0
LWPOLYLINE
  5
28B
100
AcDbEntity
  8
0
100
AcDbPolyline
 62
250
  6
CONTINUOUS
 90
14
 70
0
 10
-24.3793502126
 20
19.8124647676
 10
-24.4054612979
 20
19.7101349446
 10
-24.426804634
 20
19.6098882174
 10
-24.4432429782
 20
19.5123237474
 10
-24.4546657848
 20
19.4179632448
 10
-24.4609408399
 20
19.3276387456
 10
-24.4619853484
 20
19.2424146776
 10
-24.4577661479
 20
19.1627894084
 10
-24.4482734975
 20
19.0897808881
 10
-24.4337325692
 20
19.024929911
 10
-24.4143421235
 20
18.968723049
 10
-24.3903202991
 20
18.9217075916
 10
-24.3622933944
 20
18.8848452107
 10
-24.3307374331
 20
18.8583077674
  0
LINE
  5
28C
100
AcDbEntity
  8
0
100
AcDbLine
 62
250
  6
CONTINUOUS
 10
-24.3457910367
 20
18.7792367309
 11
-24.2916259252
 21
18.8379136761
  0
LWPOLYLINE
  5
28D
100
AcDbEntity
  8
0
100
AcDbPolyline
 62
250
  6
CONTINUOUS
 90
18
 70
0
 10
17.9161591829
 20
-28.8349512421
 10
17.8098946945
 20
-28.8459892921
 10
17.7038890139
 20
-28.849914037
 10
17.5987771469
 20
-28.8466877223
 10
17.49512126
 20
-28.8362934292
 10
17.3938252096
 20
-28.8187745773
 10
17.2960778112
 20
-28.7943241951
 10
17.2024421377
 20
-28.7630408317
 10
17.1141091655
 20
-28.7252265119
 10
17.0329802059
 20
-28.6817313599
 10
16.9597133382
 20
-28.633034094
 10
16.8950475743
 20
-28.5796650766
 10
16.8403857333
 20
-28.5229541347
 10
16.7961390079
 20
-28.4637369892
 10
16.7623704216
 20
-28.402455843
 10
16.7393695281
 20
-28.3400084443
 10
16.7271533891
 20
-28.2772088384
 10
16.725035943
 20
-28.2459492424
  0
LWPOLYLINE
  5
28E
100
AcDbEntity
  8
0
100
AcDbPolyline
 62
250
  6
CONTINUOUS
 90
7
 70
0
 10
-34.290162833
 20
-23.5598208406
 10
-34.2695938037
 20
-23.5630895831
 10
-34.2404608441
 20
-23.56174652
 10
-34.2036165778
 20
-23.5552248365
 10
-34.158833485
 20
-23.543331412
 10
-34.1059191849
 20
-23.525893071
 10
-34.0447133774
 20
-23.5027572047
  0
LWPOLYLINE
  5
28F
100
AcDbEntity
  8
0
100
AcDbPolyline
 62
250
  6
CONTINUOUS
 90
10
 70
0
 10
18.57662743
 20
-34.8837788023
 10
18.8723614998
 20
-34.9454137946
 10
19.1605835148
 20
-34.9971720932
 10
19.4409727681
 20
-35.0392960963
 10
19.7133020494
 20
-35.0720599638
 10
19.9772761151
 20
-35.0957467235
 10
20.2324817852
 20
-35.1106607846
 10
20.4778989662
 20
-35.1170682118
 10
20.713970067
 20
-35.1153153376
 10
20.9406776913
 20
-35.1057614109
  0
LINE
  5
290
100
AcDbEntity
  8
0
100
AcDbLine
 62
250
  6
CONTINUOUS
 10
18.0288179529
 20
-34.7518382815
 11
18.57662743
 21
-34.8837788023
  0
LINE
  5
291
100
AcDbEntity
  8
0
100
AcDbLine
 62
250
  6
CONTINUOUS
 10
16.2815413919
 20
-34.3024343255
 11
18.0288179529
 21
-34.7518382815
  0
LWPOLYLINE
  5
292
100
AcDbEntity
  8
0
100
AcDbPolyline
 62
250
  6
CONTINUOUS
 90
10
 70
0
 10
22.4479539716
 20
-38.8711149327
 10
22.7904266901
 20
-38.9600358913
 10
23.1260352998
 20
-39.0436387892
 10
23.4546556874
 20
-39.1213584864
 10
23.7762598581
 20
-39.1927285306
 10
24.0906645286
 20
-39.257323024
 10
24.3975200332
 20
-39.3147584889
 10
24.6962554507
 20
-39.3644391502
 10
24.986656536
 20
-39.4059027404
 10
25.2688556619
 20
-39.4388926744
  0
LINE
  5
293
100
AcDbEntity
  8
0
100
AcDbLine
 62
250
  6
CONTINUOUS
 10
14.3943580556
 20
-33.8051787733
 11
16.2815413919
 21
-34.3024343255
  0
LINE
  5
294
100
AcDbEntity
  8
0
100
AcDbLine
 62
250
  6
CONTINUOUS
 10
12.3534177058
 20
-33.2546182997
 11
14.3943580556
 21
-33.8051787733
  0
LINE
  5
295
100
AcDbEntity
  8
0
100
AcDbLine
 62
250
  6
CONTINUOUS
 10
21.5408956606
 20
-38.6197084147
 11
22.4479539716
 21
-38.8711149327
  0
LINE
  5
296
100
AcDbEntity
  8
0
100
AcDbLine
 62
250
  6
CONTINUOUS
 10
10.1443639808
 20
-32.6444024311
 11
12.3534177058
 21
-33.2546182997
  0
LINE
  5
297
100
AcDbEntity
  8
0
100
AcDbLine
 62
250
  6
CONTINUOUS
 10
8.570689315
 20
-32.2009878727
 11
10.1443639808
 21
-32.6444024311
  0
LINE
  5
298
100
AcDbEntity
  8
0
100
AcDbLine
 62
250
  6
CONTINUOUS
 10
6.9106587033
 20
-31.7252912328
 11
8.570689315
 21
-32.2009878727
  0
LINE
  5
299
100
AcDbEntity
  8
0
100
AcDbLine
 62
250
  6
CONTINUOUS
 10
17.6826823584
 20
-37.5140966763
 11
21.5408956606
 21
-38.6197084147
  0
LINE
  5
29A
100
AcDbEntity
  8
0
100
AcDbLine
 62
250
  6
CONTINUOUS
 10
14.5260164599
 20
-36.5976171045
 11
17.6826823584
 21
-37.5140966763
  0
LINE
  5
29B
100
AcDbEntity
  8
0
100
AcDbLine
 62
250
  6
CONTINUOUS
 10
5.1585040991
 20
-31.2144086519
 11
6.9106587033
 21
-31.7252912328
  0
LINE
  5
29C
100
AcDbEntity
  8
0
100
AcDbLine
 62
250
  6
CONTINUOUS
 10
9.9261344225
 20
-35.2419193657
 11
14.5260164599
 21
-36.5976171045
  0
LINE
  5
29D
100
AcDbEntity
  8
0
100
AcDbLine
 62
250
  6
CONTINUOUS
 10
3.3103902482
 20
-30.6655384732
 11
5.1585040991
 21
-31.2144086519
  0
LINE
  5
29E
100
AcDbEntity
  8
0
100
AcDbLine
 62
250
  6
CONTINUOUS
 10
7.4447401754
 20
-34.5001584812
 11
9.9261344225
 21
-35.2419193657
  0
LINE
  5
29F
100
AcDbEntity
  8
0
100
AcDbLine
 62
250
  6
CONTINUOUS
 10
4.8312015746
 20
-33.7105605403
 11
7.4447401754
 21
-34.5001584812
  0
LINE
  5
2A0
100
AcDbEntity
  8
0
100
AcDbLine
 62
250
  6
CONTINUOUS
 10
1.3605890256
 20
-30.0751050127
 11
3.3103902482
 21
-30.6655384732
  0
LINE
  5
2A1
100
AcDbEntity
  8
0
100
AcDbLine
 62
250
  6
CONTINUOUS
 10
0.6471769896
 20
-32.4288338137
 11
4.8312015746
 21
-33.7105605403
  0
LINE
  5
2A2
100
AcDbEntity
  8
0
100
AcDbLine
 62
250
  6
CONTINUOUS
 10
-9.4795925583
 20
-29.3158778385
 11
0.6471769896
 21
-32.4288338137
  0
LINE
  5
2A3
100
AcDbEntity
  8
0
100
AcDbLine
 62
250
  6
CONTINUOUS
 10
-8.116269158
 20
-27.1618340029
 11
1.3605890256
 21
-30.0751050127
  0
LINE
  5
2A4
100
AcDbEntity
  8
0
100
AcDbLine
 62
250
  6
CONTINUOUS
 10
-12.0935712581
 20
-28.5001863475
 11
-9.4795925583
 21
-29.3158778385
  0
LWPOLYLINE
  5
2A5
100
AcDbEntity
  8
0
100
AcDbPolyline
 62
7
  6
CONTINUOUS
 90
9
 70
0
 10
30.9614583519
 20
-43.5981119961
 10
31.0246526371
 20
-43.6179125375
 10
31.0917726376
 20
-43.6387557701
 10
31.1604666193
 20
-43.6595125238
 10
31.2298580195
 20
-43.6795806217
 10
31.3008164428
 20
-43.6991025347
 10
31.373675519
 20
-43.7182235194
 10
31.448433837
 20
-43.736770066
 10
31.5211127005
 20
-43.7537575361
  0
LINE
  5
2A6
100
AcDbEntity
  8
0
100
AcDbLine
 62
250
  6
CONTINUOUS
 10
-10.0247178032
 20
-26.5618917699
 11
-8.116269158
 21
-27.1618340029
  0
LINE
  5
2A7
100
AcDbEntity
  8
0
100
AcDbLine
 62
250
  6
CONTINUOUS
 10
-18.0746245626
 20
-26.6022570489
 11
-12.0935712581
 21
-28.5001863475
  0
LINE
  5
2A8
100
AcDbEntity
  8
0
100
AcDbLine
 62
250
  6
CONTINUOUS
 10
-11.8304036671
 20
-25.983782503
 11
-10.0247178032
 21
-26.5618917699
  0
LINE
  5
2A9
100
AcDbEntity
  8
0
100
AcDbLine
 62
250
  6
CONTINUOUS
 10
-21.3164017954
 20
-25.5562973922
 11
-18.0746245626
 21
-26.6022570489
  0
LINE
  5
2AA
100
AcDbEntity
  8
0
100
AcDbLine
 62
250
  6
CONTINUOUS
 10
-13.5393407915
 20
-25.4279139975
 11
-11.8304036671
 21
-25.983782503
  0
LINE
  5
2AB
100
AcDbEntity
  8
0
100
AcDbLine
 62
250
  6
CONTINUOUS
 10
-15.1576814025
 20
-24.8935643878
 11
-13.5393407915
 21
-25.4279139975
  0
LWPOLYLINE
  5
2AC
100
AcDbEntity
  8
0
100
AcDbPolyline
 62
250
  6
CONTINUOUS
 90
3
 70
0
 10
-27.1167211536
 20
-23.6502833823
 10
-26.2077864464
 20
-23.9565624187
 10
-21.3164017954
 20
-25.5562973922
  0
LINE
  5
2AD
100
AcDbEntity
  8
0
100
AcDbLine
 62
250
  6
CONTINUOUS
 10
-17.4247176558
 20
-24.1321189354
 11
-15.1576814025
 21
-24.8935643878
  0
LINE
  5
2AE
100
AcDbEntity
  8
0
100
AcDbLine
 62
250
  6
CONTINUOUS
 10
-19.5144902324
 20
-23.416720773
 11
-17.4247176558
 21
-24.1321189354
  0
LWPOLYLINE
  5
2AF
100
AcDbEntity
  8
0
100
AcDbPolyline
 62
250
  6
CONTINUOUS
 90
7
 70
0
 10
30.9139494335
 20
-43.5833721108
 10
30.843246175
 20
-43.5586119278
 10
30.764624042
 20
-43.5241783172
 10
30.6830646662
 20
-43.4812960206
 10
30.5990769855
 20
-43.429858339
 10
30.5132628825
 20
-43.3698178513
 10
30.4263100898
 20
-43.301183919
  0
LINE
  5
2B0
100
AcDbEntity
  8
0
100
AcDbLine
 62
250
  6
CONTINUOUS
 10
-21.4427722993
 20
-22.7443227292
 11
-19.5144902324
 21
-23.416720773
  0
LWPOLYLINE
  5
2B1
100
AcDbEntity
  8
0
100
AcDbPolyline
 62
250
  6
CONTINUOUS
 90
10
 70
0
 10
-27.1167211536
 20
-23.6502833823
 10
-27.4600085399
 20
-23.5286140562
 10
-27.7965927626
 20
-23.4057930475
 10
-28.1263761313
 20
-23.2813233298
 10
-28.4493536067
 20
-23.1547485951
 10
-28.7653604363
 20
-23.0257498242
 10
-29.074060797
 20
-22.8941540464
 10
-29.3749048476
 20
-22.7597096617
 10
-29.6676982219
 20
-22.6220798833
 10
-29.9525881941
 20
-22.4809222492
  0
LWPOLYLINE
  5
2B2
100
AcDbEntity
  8
0
100
AcDbPolyline
 62
250
  6
CONTINUOUS
 90
4
 70
0
 10
-24.3297165553
 20
-21.7076562392
 10
-23.7863352285
 20
-21.9103126262
 10
-23.225007682
 20
-22.1116573708
 10
-21.4427722993
 20
-22.7443227292
  0
LWPOLYLINE
  5
2B3
100
AcDbEntity
  8
0
100
AcDbPolyline
 62
250
  6
CONTINUOUS
 90
10
 70
0
 10
-24.3297165553
 20
-21.7076562392
 10
-24.6269137035
 20
-21.5872077988
 10
-24.9169783186
 20
-21.4613798757
 10
-25.199572603
 20
-21.3306170885
 10
-25.4744521029
 20
-21.1953384406
 10
-25.7413028393
 20
-21.0560140462
 10
-25.9996900092
 20
-20.9132087218
 10
-26.2485644784
 20
-20.7678239719
 10
-26.4883580919
 20
-20.6199376541
 10
-26.7190351781
 20
-20.469925314
  0
LWPOLYLINE
  5
2B4
100
AcDbEntity
  8
0
100
AcDbPolyline
 62
250
  6
CONTINUOUS
 90
6
 70
0
 10
-1.6811001055
 20
-33.5623061069
 10
-1.7133099425
 20
-33.5475284487
 10
-1.7426015898
 20
-33.5237801722
 10
-1.7684309094
 20
-33.4914648268
 10
-1.7906836744
 20
-33.4507835397
 10
-1.8092015745
 20
-33.4019705831
  0
LWPOLYLINE
  5
2B5
100
AcDbEntity
  8
0
100
AcDbPolyline
 62
250
  6
CONTINUOUS
 90
10
 70
0
 10
-26.7190351781
 20
-20.469925314
 10
-26.8505149357
 20
-20.3807999784
 10
-26.9791119035
 20
-20.2909402815
 10
-27.1048041765
 20
-20.2004203429
 10
-27.227500508
 20
-20.1093687302
 10
-27.3472886595
 20
-20.0177844176
 10
-27.4643543817
 20
-19.9255850561
 10
-27.5787009098
 20
-19.8328198024
 10
-27.6902419453
 20
-19.7396129424
 10
-27.7990419532
 20
-19.6459704909
  0
LWPOLYLINE
  5
2B6
100
AcDbEntity
  8
0
100
AcDbPolyline
 62
7
  6
CONTINUOUS
 90
10
 70
0
 10
-24.5387945797
 20
-17.8659123303
 10
-24.7274465242
 20
-17.7283885721
 10
-24.9103720756
 20
-17.5802378696
 10
-25.0858368933
 20
-17.4226429089
 10
-25.2525594803
 20
-17.2567504578
 10
-25.409654544
 20
-17.0834030792
 10
-25.5558699818
 20
-16.9039073348
 10
-25.6902541481
 20
-16.7195172224
 10
-25.8122359837
 20
-16.5309384723
 10
-25.9204615556
 20
-16.3402445387
  0
LWPOLYLINE
  5
2B7
100
AcDbEntity
  8
0
100
AcDbPolyline
 62
250
  6
CONTINUOUS
 90
22
 70
0
 10
-23.4476588793
 20
-17.6400607396
 10
-23.477156895
 20
-17.6062412922
 10
-23.5020701555
 20
-17.5629826754
 10
-23.5222406577
 20
-17.5105202649
 10
-23.5375392459
 20
-17.449080448
 10
-23.5478014029
 20
-17.3791297203
 10
-23.5528978723
 20
-17.3014713363
 10
-23.5527734064
 20
-17.2164947225
 10
-23.5473697048
 20
-17.1251339304
 10
-23.5368241689
 20
-17.0293764265
 10
-23.5213002482
 20
-16.930155063
 10
-23.5009766869
 20
-16.8285061638
 10
-23.4763961125
 20
-16.7268314931
 10
-23.4479979431
 20
-16.6264306678
 10
-23.4160473297
 20
-16.5279234692
 10
-23.3810489543
 20
-16.4326417206
 10
-23.3435103875
 20
-16.3416811409
 10
-23.3036328142
 20
-16.2553194185
 10
-23.2614286496
 20
-16.1735804082
 10
-23.2170317886
 20
-16.096873385
 10
-23.1707635483
 20
-16.0259209991
 10
-23.1228418467
 20
-15.9612062885
  0
LWPOLYLINE
  5
2B8
100
AcDbEntity
  8
0
100
AcDbPolyline
 62
250
  6
CONTINUOUS
 90
22
 70
0
 10
-25.2178396347
 20
-15.5889180855
 10
-25.1681574231
 20
-15.6478458563
 10
-25.1094146592
 20
-15.7023632524
 10
-25.0419447968
 20
-15.7521351149
 10
-24.9660644109
 20
-15.7968746718
 10
-24.8823739693
 20
-15.8361633795
 10
-24.7918393377
 20
-15.8695325846
 10
-24.6949272481
 20
-15.8967645932
 10
-24.5927461653
 20
-15.917455294
 10
-24.4875423777
 20
-15.9311811235
 10
-24.3803323591
 20
-15.9379065609
 10
-24.2722482083
 20
-15.9375873687
 10
-24.1658575943
 20
-15.9303340755
 10
-24.0624909436
 20
-15.9164475677
 10
-23.9627591537
 20
-15.8961630938
 10
-23.8679997276
 20
-15.8698787483
 10
-23.7792776337
 20
-15.8380762958
 10
-23.6968249643
 20
-15.800995914
 10
-23.6206504643
 20
-15.758643158
 10
-23.5511702159
 20
-15.7110999858
 10
-23.489093402
 20
-15.6586601006
 10
-23.4348899896
 20
-15.6015227921
  0
LWPOLYLINE
  5
2B9
100
AcDbEntity
  8
0
100
AcDbPolyline
 62
7
  6
CONTINUOUS
 90
8
 70
0
 10
-24.9001590337
 20
-16.5279864956
 10
-24.8452740414
 20
-16.6107112446
 10
-24.7371526659
 20
-16.7557809412
 10
-24.6229288389
 20
-16.8878792967
 10
-24.5031540786
 20
-17.0083666814
 10
-24.3770978507
 20
-17.1200227658
 10
-24.2472206485
 20
-17.2222911872
 10
-24.1713895272
 20
-17.2769819904
  0
LWPOLYLINE
  5
2BA
100
AcDbEntity
  8
0
100
AcDbPolyline
 62
7
  6
CONTINUOUS
 90
8
 70
0
 10
-24.9001590337
 20
-16.5279864956
 10
-24.964475888
 20
-16.420967321
 10
-25.0381777356
 20
-16.279570984
 10
-25.1002732864
 20
-16.1364881437
 10
-25.1496271717
 20
-15.9946149899
 10
-25.1858962025
 20
-15.8557501131
 10
-25.2090732153
 20
-15.720588316
 10
-25.2189554965
 20
-15.590316299
  0
LWPOLYLINE
  5
2BB
100
AcDbEntity
  8
0
100
AcDbPolyline
 62
7
  6
CONTINUOUS
 90
10
 70
0
 10
-25.9204614702
 20
-16.3402447002
 10
-25.9295865468
 20
-16.3228722642
 10
-25.9385955195
 20
-16.3054910908
 10
-25.9474891093
 20
-16.2880998203
 10
-25.9562665246
 20
-16.2707001121
 10
-25.964930045
 20
-16.2532875799
 10
-25.9734848182
 20
-16.2358517798
 10
-25.981932846
 20
-16.2183882985
 10
-25.9902731872
 20
-16.2008987646
 10
-25.9985063989
 20
-16.1833817762
  0
LWPOLYLINE
  5
2BC
100
AcDbEntity
  8
0
100
AcDbPolyline
 62
7
  6
CONTINUOUS
 90
10
 70
0
 10
-25.9985063233
 20
-16.1833819383
 10
-26.0450587432
 20
-16.0790677425
 10
-26.0875016032
 20
-15.9744576137
 10
-26.1258787037
 20
-15.869394591
 10
-26.1600672217
 20
-15.764147254
 10
-26.1899435815
 20
-15.6590447842
 10
-26.2154519292
 20
-15.5542385737
 10
-26.2365658869
 20
-15.449793036
 10
-26.2532419268
 20
-15.3458074807
 10
-26.2654349601
 20
-15.2423779202
  0
LWPOLYLINE
  5
2BD
100
AcDbEntity
  8
0
100
AcDbPolyline
 62
250
  6
CONTINUOUS
 90
3
 70
0
 10
-38.3593388583
 20
36.6287419583
 10
-38.3465985267
 20
36.5492048545
 10
-38.3273607302
 20
36.4663268071
  0
LWPOLYLINE
  5
2BE
100
AcDbEntity
  8
0
100
AcDbPolyline
 62
250
  6
CONTINUOUS
 90
13
 70
0
 10
-23.4348898697
 20
-15.6015228305
 10
-23.4315078494
 20
-15.6364662695
 10
-23.4230640696
 20
-15.6725642851
 10
-23.4096266197
 20
-15.7092224656
 10
-23.391330901
 20
-15.7458588271
 10
-23.3684337226
 20
-15.7818012424
 10
-23.3413556546
 20
-15.8163103092
 10
-23.3105166822
 20
-15.8488052312
 10
-23.2764578204
 20
-15.8786757532
 10
-23.2399712791
 20
-15.9052435443
 10
-23.2017897146
 20
-15.9280470511
 10
-23.162520165
 20
-15.9467917736
 10
-23.1228418503
 20
-15.9612061886
  0
LWPOLYLINE
  5
2BF
100
AcDbEntity
  8
0
100
AcDbPolyline
 62
7
  6
CONTINUOUS
 90
10
 70
0
 10
-26.2648670943
 20
-15.24251433
 10
-26.2665528113
 20
-15.2248211126
 10
-26.2681085548
 20
-15.2071447555
 10
-26.269534085
 20
-15.1894858705
 10
-26.2708291313
 20
-15.1718455099
 10
-26.2719934906
 20
-15.1542238483
 10
-26.2730269945
 20
-15.1366201889
 10
-26.2739293936
 20
-15.1190347185
 10
-26.2747003898
 20
-15.101468501
 10
-26.2753397123
 20
-15.0839221639
  0
LINE
  5
2C0
100
AcDbEntity
  8
0
100
AcDbLine
 62
7
  6
CONTINUOUS
 10
-26.2753397123
 20
-15.0839221639
 11
-27.1431329859
 21
19.7999629443
  0
LINE
  5
2C1
100
AcDbEntity
  8
0
100
AcDbLine
 62
250
  6
CONTINUOUS
 10
-25.2178396347
 20
-15.5889180855
 11
-26.0742978871
 21
18.8393559552
  0
LWPOLYLINE
  5
2C2
100
AcDbEntity
  8
0
100
AcDbPolyline
 62
7
  6
CONTINUOUS
 90
19
 70
0
 10
-26.0754137489
 20
18.8379577418
 10
-26.0719958423
 20
18.964376528
 10
-26.0554843646
 20
19.0879520193
 10
-26.0260021317
 20
19.2072339717
 10
-25.9835492009
 20
19.3210299234
 10
-25.928322738
 20
19.4274894553
 10
-25.8610446081
 20
19.5243268936
 10
-25.7825317579
 20
19.610026708
 10
-25.6935012155
 20
19.6848365186
 10
-25.5947352737
 20
19.7493420815
 10
-25.4871651232
 20
19.8035957357
 10
-25.3710253466
 20
19.8469341755
 10
-25.2458205238
 20
19.8786019965
 10
-25.1115297786
 20
19.8979395224
 10
-24.9701235115
 20
19.9048414279
 10
-24.8242091271
 20
19.8995076659
 10
-24.6758888806
 20
19.882335735
 10
-24.5266466648
 20
19.8536732038
 10
-24.3782345229
 20
19.8138629461
  0
LWPOLYLINE
  5
2C3
100
AcDbEntity
  8
0
100
AcDbPolyline
 62
7
  6
CONTINUOUS
 90
10
 70
0
 10
-27.1410191442
 20
19.9547289312
 10
-27.1417779182
 20
19.9380103339
 10
-27.1423946435
 20
19.9211650199
 10
-27.1428738695
 20
19.9041959455
 10
-27.1432202717
 20
19.8871059243
 10
-27.1434386392
 20
19.8698982792
 10
-27.1435338913
 20
19.8525768515
 10
-27.1435110886
 20
19.8351451263
 10
-27.1433754183
 20
19.817606227
 10
-27.1431321923
 20
19.7999635729
  0
LWPOLYLINE
  5
2C4
100
AcDbEntity
  8
0
100
AcDbPolyline
 62
250
  6
CONTINUOUS
 90
3
 70
0
 10
16.6435907649
 20
-28.1530990578
 10
16.6059646252
 20
-28.1526227531
 10
16.5670302574
 20
-28.1473518101
  0
LWPOLYLINE
  5
2C5
100
AcDbEntity
  8
0
100
AcDbPolyline
 62
7
  6
CONTINUOUS
 90
8
 70
0
 10
17.1221269481
 20
-30.8509257262
 10
17.2350940453
 20
-30.8694970241
 10
17.346835255
 20
-30.8838770648
 10
17.4572832091
 20
-30.894066852
 10
17.5662904894
 20
-30.9000636161
 10
17.6735215983
 20
-30.9018629409
 10
17.7787102162
 20
-30.8994829011
 10
17.8820282937
 20
-30.8929359701
  0
LINE
  5
2C6
100
AcDbEntity
  8
0
100
AcDbLine
 62
7
  6
CONTINUOUS
 10
17.008045307
 20
-30.828159836
 11
17.1221269481
 21
-30.8509257262
  0
LINE
  5
2C7
100
AcDbEntity
  8
0
100
AcDbLine
 62
7
  6
CONTINUOUS
 10
16.8929513295
 20
-30.8011927007
 11
17.008045307
 21
-30.828159836
  0
LWPOLYLINE
  5
2C8
100
AcDbEntity
  8
0
100
AcDbPolyline
 62
7
  6
CONTINUOUS
 90
10
 70
0
 10
18.1387467864
 20
-32.1480559496
 10
18.1757017765
 20
-32.156853652
 10
18.2121261052
 20
-32.1621687596
 10
18.2474968995
 20
-32.1638200482
 10
18.2812250217
 20
-32.1616832263
 10
18.312836988
 20
-32.1556972526
 10
18.3419419282
 20
-32.1457970229
 10
18.3680896124
 20
-32.1319099988
 10
18.390568183
 20
-32.114135183
 10
18.4030064496
 20
-32.100503892
  0
LINE
  5
2C9
100
AcDbEntity
  8
0
100
AcDbLine
 62
7
  6
CONTINUOUS
 10
17.8720112567
 20
-31.2225236967
 11
18.1201403066
 21
-31.2900403812
  0
LINE
  5
2CA
100
AcDbEntity
  8
0
100
AcDbLine
 62
7
  6
CONTINUOUS
 10
19.2128786655
 20
-33.5771692362
 11
18.6194006996
 21
-33.4130207221
  0
LINE
  5
2CB
100
AcDbEntity
  8
0
100
AcDbLine
 62
7
  6
CONTINUOUS
 10
18.085874631
 20
-31.6500646819
 11
17.8998933738
 21
-31.598442436
  0
LINE
  5
2CC
100
AcDbEntity
  8
0
100
AcDbLine
 62
7
  6
CONTINUOUS
 10
17.6324984393
 20
-31.156011405
 11
17.8720112567
 21
-31.2225236967
  0
LINE
  5
2CD
100
AcDbEntity
  8
0
100
AcDbLine
 62
7
  6
CONTINUOUS
 10
18.6331544977
 20
-33.3957852932
 11
19.1959111591
 21
-33.5514922493
  0
LINE
  5
2CE
100
AcDbEntity
  8
0
100
AcDbLine
 62
7
  6
CONTINUOUS
 10
17.8541304244
 20
-31.5645109139
 11
18.0996110799
 21
-31.6328509939
  0
LINE
  5
2CF
100
AcDbEntity
  8
0
100
AcDbLine
 62
7
  6
CONTINUOUS
 10
17.8998933738
 20
-31.598442436
 11
17.7167088774
 21
-31.5467020579
  0
LINE
  5
2D0
100
AcDbEntity
  8
0
100
AcDbLine
 62
7
  6
CONTINUOUS
 10
17.4016174852
 20
-31.0905045517
 11
17.6324984393
 21
-31.156011405
  0
LINE
  5
2D1
100
AcDbEntity
  8
0
100
AcDbLine
 62
7
  6
CONTINUOUS
 10
17.6724362227
 20
-31.5129258576
 11
17.8541304244
 21
-31.5645109139
  0
LINE
  5
2D2
100
AcDbEntity
  8
0
100
AcDbLine
 62
7
  6
CONTINUOUS
 10
17.722608402
 20
-32.029590272
 11
18.1387459706
 21
-32.1480553728
  0
LINE
  5
2D3
100
AcDbEntity
  8
0
100
AcDbLine
 62
7
  6
CONTINUOUS
 10
18.0065377364
 20
-32.4767416203
 11
17.7014886003
 21
-32.3897812196
  0
LINE
  5
2D4
100
AcDbEntity
  8
0
100
AcDbLine
 62
7
  6
CONTINUOUS
 10
17.7174058697
 20
-32.3731882086
 11
18.0202787115
 21
-32.4595222604
  0
LINE
  5
2D5
100
AcDbEntity
  8
0
100
AcDbLine
 62
7
  6
CONTINUOUS
 10
17.5016351087
 20
-31.9658020473
 11
17.722608402
 21
-32.029590272
  0
LWPOLYLINE
  5
2D6
100
AcDbEntity
  8
0
100
AcDbPolyline
 62
7
  6
CONTINUOUS
 90
8
 70
0
 10
16.7539072725
 20
-30.7632568785
 10
16.7740467529
 20
-30.7690831687
 10
16.7940981772
 20
-30.7747820202
 10
16.8140592274
 20
-30.7803484162
 10
16.8339270962
 20
-30.7857773237
 10
16.8536995622
 20
-30.7910639942
 10
16.8733749864
 20
-30.7962039461
 10
16.8929515069
 20
-30.8011927453
  0
LINE
  5
2D7
100
AcDbEntity
  8
0
100
AcDbLine
 62
7
  6
CONTINUOUS
 10
17.7014886003
 20
-32.3897812196
 11
17.5495798279
 21
-32.3458845075
  0
LINE
  5
2D8
100
AcDbEntity
  8
0
100
AcDbLine
 62
7
  6
CONTINUOUS
 10
17.5633183996
 20
-32.3286681593
 11
17.7174058697
 21
-32.3731882086
  0
LWPOLYLINE
  5
2D9
100
AcDbEntity
  8
0
100
AcDbPolyline
 62
7
  6
CONTINUOUS
 90
7
 70
0
 10
18.1201403682
 20
-31.2900387952
 10
18.166189597
 20
-31.3033799872
 10
18.2131637666
 20
-31.3189695484
 10
18.2609024627
 20
-31.3368692257
 10
18.3092292835
 20
-31.3571286252
 10
18.357951846
 20
-31.3797837711
 10
18.4068619432
 20
-31.4048556476
  0
LINE
  5
2DA
100
AcDbEntity
  8
0
100
AcDbLine
 62
7
  6
CONTINUOUS
 10
17.7167088774
 20
-31.5467020579
 11
17.4477468955
 21
-31.4690745237
  0
LINE
  5
2DB
100
AcDbEntity
  8
0
100
AcDbLine
 62
7
  6
CONTINUOUS
 10
17.4614884267
 20
-31.4518544668
 11
17.6724362227
 21
-31.5129258576
  0
LINE
  5
2DC
100
AcDbEntity
  8
0
100
AcDbLine
 62
7
  6
CONTINUOUS
 10
17.1794309184
 20
-31.0260073195
 11
17.4016174852
 21
-31.0905045517
  0
LWPOLYLINE
  5
2DD
100
AcDbEntity
  8
0
100
AcDbPolyline
 62
7
  6
CONTINUOUS
 90
3
 70
0
 10
17.6365402493
 20
-33.1333675619
 10
17.2032715357
 20
-33.0072125332
 10
17.1147761005
 20
-32.9811739711
  0
LWPOLYLINE
  5
2DE
100
AcDbEntity
  8
0
100
AcDbPolyline
 62
7
  6
CONTINUOUS
 90
3
 70
0
 10
17.1285343236
 20
-32.9639329969
 10
17.2170400333
 20
-32.9899762495
 10
17.6340463163
 20
-33.1114357981
  0
LINE
  5
2DF
100
AcDbEntity
  8
0
100
AcDbLine
 62
7
  6
CONTINUOUS
 10
16.7133717657
 20
-30.7512421301
 11
16.7539072725
 21
-30.7632568785
  0
LINE
  5
2E0
100
AcDbEntity
  8
0
100
AcDbLine
 62
7
  6
CONTINUOUS
 10
16.9531484056
 20
-30.9587229766
 11
17.1794309184
 21
-31.0260073195
  0
LINE
  5
2E1
100
AcDbEntity
  8
0
100
AcDbLine
 62
7
  6
CONTINUOUS
 10
16.7681760461
 20
-32.8781717995
 11
16.2491343785
 21
-32.7225601636
  0
LINE
  5
2E2
100
AcDbEntity
  8
0
100
AcDbLine
 62
7
  6
CONTINUOUS
 10
16.2628964565
 20
-32.7053143585
 11
16.756401249
 21
-32.8532981549
  0
LINE
  5
2E3
100
AcDbEntity
  8
0
100
AcDbLine
 62
7
  6
CONTINUOUS
 10
16.0389350692
 20
-32.2755269767
 11
15.2201331069
 21
-32.0286188255
  0
LINE
  5
2E4
100
AcDbEntity
  8
0
100
AcDbLine
 62
7
  6
CONTINUOUS
 10
15.2338783973
 20
-32.0113940577
 11
16.052682871
 21
-32.2582990618
  0
LINE
  5
2E5
100
AcDbEntity
  8
0
100
AcDbLine
 62
7
  6
CONTINUOUS
 10
15.1025733851
 20
-32.3774638477
 11
14.5841629748
 21
-32.2210836779
  0
LINE
  5
2E6
100
AcDbEntity
  8
0
100
AcDbLine
 62
7
  6
CONTINUOUS
 10
14.2385486029
 20
-32.1168385228
 11
13.7201471467
 21
-31.9604407362
  0
LINE
  5
2E7
100
AcDbEntity
  8
0
100
AcDbLine
 62
7
  6
CONTINUOUS
 10
14.5979203767
 20
-32.2038437329
 11
15.1163327561
 21
-32.360221435
  0
LINE
  5
2E8
100
AcDbEntity
  8
0
100
AcDbLine
 62
7
  6
CONTINUOUS
 10
13.73390207
 20
-31.9432038971
 11
14.235988802
 21
-32.0946779795
  0
LINE
  5
2E9
100
AcDbEntity
  8
0
100
AcDbLine
 62
7
  6
CONTINUOUS
 10
16.8928554135
 20
-30.9405571249
 11
16.9531484056
 21
-30.9587229766
  0
LINE
  5
2EA
100
AcDbEntity
  8
0
100
AcDbLine
 62
7
  6
CONTINUOUS
 10
13.2300469506
 20
-31.8125396282
 11
12.7117187421
 21
-31.6560759033
  0
LINE
  5
2EB
100
AcDbEntity
  8
0
100
AcDbLine
 62
7
  6
CONTINUOUS
 10
12.7254712459
 20
-31.6388420963
 11
13.2438006248
 21
-31.7953043545
  0
LINE
  5
2EC
100
AcDbEntity
  8
0
100
AcDbLine
 62
7
  6
CONTINUOUS
 10
12.2217060083
 20
-31.5080813167
 11
11.7034787634
 21
-31.3514652189
  0
LINE
  5
2ED
100
AcDbEntity
  8
0
100
AcDbLine
 62
7
  6
CONTINUOUS
 10
11.7172293421
 20
-31.3342338243
 11
12.2191719405
 21
-31.4859285195
  0
LINE
  5
2EE
100
AcDbEntity
  8
0
100
AcDbLine
 62
7
  6
CONTINUOUS
 10
11.1853437078
 20
-31.19475444
 11
10.667286972
 21
-31.0379302672
  0
LINE
  5
2EF
100
AcDbEntity
  8
0
100
AcDbLine
 62
7
  6
CONTINUOUS
 10
15.3354199079
 20
-31.6894543211
 11
15.8377343233
 21
-31.8412367475
  0
LINE
  5
2F0
100
AcDbEntity
  8
0
100
AcDbLine
 62
7
  6
CONTINUOUS
 10
10.6810358985
 20
-31.0207009429
 11
11.1828488891
 21
-31.1726086532
  0
LINE
  5
2F1
100
AcDbEntity
  8
0
100
AcDbLine
 62
7
  6
CONTINUOUS
 10
9.4906951674
 20
-30.6810632889
 11
8.9730160657
 21
-30.5237367053
  0
LINE
  5
2F2
100
AcDbEntity
  8
0
100
AcDbLine
 62
7
  6
CONTINUOUS
 10
8.9867626122
 20
-30.5065103636
 11
9.5044425146
 21
-30.6638359437
  0
LINE
  5
2F3
100
AcDbEntity
  8
0
100
AcDbLine
 62
7
  6
CONTINUOUS
 10
15.1998069929
 20
-30.4248121627
 11
15.7170289248
 21
-30.5827269681
  0
LINE
  5
2F4
100
AcDbEntity
  8
0
100
AcDbLine
 62
7
  6
CONTINUOUS
 10
13.2442805279
 20
-29.8255840299
 11
14.0255166556
 21
-30.0650820455
  0
LINE
  5
2F5
100
AcDbEntity
  8
0
100
AcDbLine
 62
7
  6
CONTINUOUS
 10
11.4980420543
 20
-29.2901908478
 11
12.2792709557
 21
-29.529697919
  0
LINE
  5
2F6
100
AcDbEntity
  8
0
100
AcDbLine
 62
7
  6
CONTINUOUS
 10
10.4645050165
 20
-28.9733332501
 11
10.9812814908
 21
-29.1317673659
  0
LINE
  5
2F7
100
AcDbEntity
  8
0
100
AcDbLine
 62
7
  6
CONTINUOUS
 10
9.603226811
 20
-28.7092513472
 11
10.1199944738
 21
-28.8677062326
  0
LINE
  5
2F8
100
AcDbEntity
  8
0
100
AcDbLine
 62
7
  6
CONTINUOUS
 10
7.9441713594
 20
-28.2003549517
 11
8.4608779387
 21
-28.3588863831
  0
LINE
  5
2F9
100
AcDbEntity
  8
0
100
AcDbLine
 62
7
  6
CONTINUOUS
 10
-23.3592497452
 20
-18.445329389
 11
16.7133717657
 21
-30.7512421301
  0
LWPOLYLINE
  5
2FA
100
AcDbEntity
  8
0
100
AcDbPolyline
 62
7
  6
CONTINUOUS
 90
20
 70
0
 10
18.0996110096
 20
-31.632852681
 10
18.1308708456
 20
-31.6425765413
 10
18.1621263365
 20
-31.6546002637
 10
18.1930881811
 20
-31.6688124853
 10
18.2232404207
 20
-31.684928863
 10
18.252547701
 20
-31.7029089664
 10
18.2813619037
 20
-31.7231139559
 10
18.3093664991
 20
-31.7455194312
 10
18.3360694839
 20
-31.7699446977
 10
18.3613333918
 20
-31.7966483527
 10
18.3848020939
 20
-31.825694456
 10
18.4055638873
 20
-31.8565311534
 10
18.4226668679
 20
-31.8883948303
 10
18.4356507138
 20
-31.9207319034
 10
18.4441210857
 20
-31.9530464442
 10
18.4475945816
 20
-31.9845770002
 10
18.4459135287
 20
-32.0147709783
 10
18.4390183415
 20
-32.0430057472
 10
18.4270110504
 20
-32.068536851
 10
18.4167406544
 20
-32.083293016
  0
LWPOLYLINE
  5
2FB
100
AcDbEntity
  8
0
100
AcDbPolyline
 62
7
  6
CONTINUOUS
 90
9
 70
0
 10
-23.3592492495
 20
-18.445328572
 10
-23.3998064532
 20
-18.4324405423
 10
-23.4199638857
 20
-18.4258920259
 10
-23.4400382954
 20
-18.4192686
 10
-23.4600275811
 20
-18.4125666086
 10
-23.4799291472
 20
-18.4057826815
 10
-23.499740977
 20
-18.3989133749
 10
-23.519461631
 20
-18.3919551565
 10
-23.539089441
 20
-18.3849046792
  0
LWPOLYLINE
  5
2FC
100
AcDbEntity
  8
0
100
AcDbPolyline
 62
7
  6
CONTINUOUS
 90
6
 70
0
 10
-23.4465431865
 20
-17.6386626842
 10
-23.5928311274
 20
-17.5879943442
 10
-23.7401733504
 20
-17.5256217094
 10
-23.8873062879
 20
-17.4521028515
 10
-24.0333644941
 20
-17.3677474914
 10
-24.1713895272
 20
-17.2769819904
  0
LWPOLYLINE
  5
2FD
100
AcDbEntity
  8
0
100
AcDbPolyline
 62
7
  6
CONTINUOUS
 90
10
 70
0
 10
-23.5390892632
 20
-18.3849047437
 10
-23.6546032383
 20
-18.3410544137
 10
-23.769299925
 20
-18.2935646987
 10
-23.8830752089
 20
-18.2425056109
 10
-23.9958158648
 20
-18.1879494483
 10
-24.1074534369
 20
-18.1299389249
 10
-24.2178383763
 20
-18.0685624666
 10
-24.3266302414
 20
-18.0040232318
 10
-24.4335577058
 20
-17.936504401
 10
-24.5387947425
 20
-17.8659122179
  0
LWPOLYLINE
  5
2FE
100
AcDbEntity
  8
DRAFT
100
AcDbPolyline
 62
7
  6
CONTINUOUS
 90
7
 70
0
 10
-22.5443345917
 20
-14.8300340862
 10
-22.516090174
 20
-14.8597067793
 10
-22.4849929037
 20
-14.88695047
 10
-22.4515748638
 20
-14.9112990113
 10
-22.4164078461
 20
-14.9323357928
 10
-22.3800935681
 20
-14.9497008694
 10
-22.3432533772
 20
-14.9630971199
  0
LWPOLYLINE
  5
2FF
100
AcDbEntity
  8
DRAFT
100
AcDbPolyline
 62
7
  6
CONTINUOUS
 90
5
 70
0
 10
-22.6200172218
 20
-14.6976446574
 10
-22.6074107333
 20
-14.7316741928
 10
-22.5903888721
 20
-14.7654653989
 10
-22.569242887
 20
-14.7984400988
 10
-22.5443345917
 20
-14.8300340862
  0
LINE
  5
300
100
AcDbEntity
  8
0
100
AcDbLine
 62
250
  6
CONTINUOUS
 10
-38.3273607302
 20
36.4663268071
 11
-38.3014572638
 21
36.3802192622
  0
LWPOLYLINE
  5
301
100
AcDbEntity
  8
DRAFT
100
AcDbPolyline
 62
7
  6
CONTINUOUS
 90
13
 70
0
 10
-22.7220520095
 20
-14.742658601
 10
-22.7184664658
 20
-14.7765688411
 10
-22.7104921717
 20
-14.8102422685
 10
-22.698129127
 20
-14.8436788832
 10
-22.6810197258
 20
-14.8774362755
 10
-22.6595215741
 20
-14.9109568551
 10
-22.6347074898
 20
-14.9425678513
 10
-22.6064091996
 20
-14.9721723585
 10
-22.5747949768
 20
-14.9998672824
 10
-22.5414424597
 20
-15.0242705685
 10
-22.5068775277
 20
-15.0449215323
 10
-22.4705743014
 20
-15.0622808585
 10
-22.4325327808
 20
-15.076348547
  0
LWPOLYLINE
  5
302
100
AcDbEntity
  8
DRAFT
100
AcDbPolyline
 62
7
  6
CONTINUOUS
 90
13
 70
0
 10
-22.0954375948
 20
-13.9452552552
 10
-22.091754845
 20
-13.9801005881
 10
-22.0835624846
 20
-14.014702505
 10
-22.0708605134
 20
-14.0490610059
 10
-22.0532815033
 20
-14.0837490524
 10
-22.0311928824
 20
-14.1181936829
 10
-22.0056969358
 20
-14.1506760126
 10
-21.9766207519
 20
-14.1810964606
 10
-21.9441372421
 20
-14.2095546077
 10
-21.9098674259
 20
-14.2346303116
 10
-21.8743516431
 20
-14.2558501916
 10
-21.8370495538
 20
-14.2736876284
 10
-21.797961158
 20
-14.2881426221
  0
LWPOLYLINE
  5
303
100
AcDbEntity
  8
DRAFT
100
AcDbPolyline
 62
7
  6
CONTINUOUS
 90
3
 70
0
 10
-22.6312005178
 20
-14.6311937332
 10
-22.6279926372
 20
-14.6639590475
 10
-22.6200172218
 20
-14.6976446574
  0
LWPOLYLINE
  5
304
100
AcDbEntity
  8
0
100
AcDbPolyline
 62
250
  6
CONTINUOUS
 90
10
 70
0
 10
-23.3592497452
 20
-18.445329389
 10
-23.3645541126
 20
-18.3168253004
 10
-23.3710647648
 20
-18.1966070439
 10
-23.3787630576
 20
-18.0852494338
 10
-23.3875879413
 20
-17.9831348106
 10
-23.3975718795
 20
-17.891133403
 10
-23.4087203678
 20
-17.8103723411
 10
-23.4208920868
 20
-17.7414177388
 10
-23.4339192616
 20
-17.6845060352
 10
-23.4476593048
 20
-17.640061866
  0
LINE
  5
305
100
AcDbEntity
  8
DRAFT
100
AcDbLine
 62
7
  6
CONTINUOUS
 10
-23.5533447041
 20
18.6139346325
 11
-23.1994728894
 21
4.4144135076
  0
LINE
  5
306
100
AcDbEntity
  8
DRAFT
100
AcDbLine
 62
7
  6
CONTINUOUS
 10
-23.1028640131
 20
0.5378691667
 11
-22.7220520095
 21
-14.742658601
  0
LINE
  5
307
100
AcDbEntity
  8
0
100
AcDbLine
 62
250
  6
CONTINUOUS
 10
-23.4348898697
 20
-15.6015228305
 11
-24.2916258053
 21
18.8379136376
  0
LINE
  5
308
100
AcDbEntity
  8
0
100
AcDbLine
 62
7
  6
CONTINUOUS
 10
-22.7220488894
 20
-14.7450394252
 11
-23.5518955244
 21
18.6134894701
  0
LINE
  5
309
100
AcDbEntity
  8
DRAFT
100
AcDbLine
 62
7
  6
CONTINUOUS
 10
-23.4574936736
 20
18.5844908947
 11
-23.1077886701
 21
4.5269000414
  0
LINE
  5
30A
100
AcDbEntity
  8
DRAFT
100
AcDbLine
 62
7
  6
CONTINUOUS
 10
-23.011348301
 20
0.6501489604
 11
-22.6312005178
 21
-14.6311937332
  0
LINE
  5
30B
100
AcDbEntity
  8
DRAFT
100
AcDbLine
 62
7
  6
CONTINUOUS
 10
-22.9004098977
 20
18.4133646321
 11
-22.5720257471
 21
5.2128385193
  0
LINE
  5
30C
100
AcDbEntity
  8
DRAFT
100
AcDbLine
 62
7
  6
CONTINUOUS
 10
-22.4755853781
 20
1.3360874384
 11
-22.0954375948
 21
-13.9452552552
  0
LWPOLYLINE
  5
30D
100
AcDbEntity
  8
0
100
AcDbPolyline
 62
250
  6
CONTINUOUS
 90
10
 70
0
 10
-24.3506730934
 20
21.4083291248
 10
-24.3489749828
 20
21.255344617
 10
-24.348492724
 20
21.0944588554
 10
-24.3492365344
 20
20.9262572142
 10
-24.3511592413
 20
20.7509151928
 10
-24.354341595
 20
20.569503606
 10
-24.3588679268
 20
20.3840643938
 10
-24.3646410378
 20
20.1958050258
 10
-24.3715064437
 20
20.0050233182
 10
-24.3793506667
 20
19.8124647917
  0
LINE
  5
30E
100
AcDbEntity
  8
DRAFT
100
AcDbLine
 62
7
  6
CONTINUOUS
 10
-23.1077886701
 20
4.5269000414
 11
-22.5720257471
 21
5.2128385193
  0
LINE
  5
30F
100
AcDbEntity
  8
DRAFT
100
AcDbLine
 62
7
  6
CONTINUOUS
 10
-23.1994728894
 20
4.4144135076
 11
-23.1077886701
 21
4.5269000414
  0
LINE
  5
310
100
AcDbEntity
  8
0
100
AcDbLine
 62
250
  6
CONTINUOUS
 10
16.5670302574
 20
-28.1473518101
 11
16.5274637258
 21
-28.1374309005
  0
LWPOLYLINE
  5
311
100
AcDbEntity
  8
0
100
AcDbPolyline
 62
250
  6
CONTINUOUS
 90
10
 70
0
 10
19.5058310484
 20
-29.1428770537
 10
19.3434815843
 20
-29.098500233
 10
19.17563494
 20
-29.0560745182
 10
19.0029387184
 20
-29.0158358233
 10
18.8257227366
 20
-28.9779135668
 10
18.6450730077
 20
-28.942692458
 10
18.4628585411
 20
-28.9106614874
 10
18.2802603195
 20
-28.8819990828
 10
18.0977456731
 20
-28.8567241777
 10
17.9161594492
 20
-28.834952075
  0
LINE
  5
312
100
AcDbEntity
  8
0
100
AcDbLine
 62
250
  6
CONTINUOUS
 10
16.2122851735
 20
-29.8192465914
 11
-23.4476588793
 21
-17.6400607396
  0
LINE
  5
313
100
AcDbEntity
  8
0
100
AcDbLine
 62
250
  6
CONTINUOUS
 10
16.5274637258
 20
-28.1374309006
 11
-23.1228418503
 21
-15.9612061886
  0
LINE
  5
314
100
AcDbEntity
  8
0
100
AcDbLine
 62
7
  6
CONTINUOUS
 10
16.6964051889
 20
-27.0935423978
 11
-22.4341017488
 21
-15.0769428119
  0
LINE
  5
315
100
AcDbEntity
  8
DRAFT
100
AcDbLine
 62
7
  6
CONTINUOUS
 10
-22.4325327808
 20
-15.076348547
 11
-4.834053948
 21
-20.4806709032
  0
LINE
  5
316
100
AcDbEntity
  8
DRAFT
100
AcDbLine
 62
7
  6
CONTINUOUS
 10
-0.3807060374
 20
-21.8482509027
 11
16.6963782491
 21
-27.092458045
  0
LINE
  5
317
100
AcDbEntity
  8
DRAFT
100
AcDbLine
 62
7
  6
CONTINUOUS
 10
-22.3432533772
 20
-14.9630971199
 11
-4.7447745444
 21
-20.3674194761
  0
LINE
  5
318
100
AcDbEntity
  8
DRAFT
100
AcDbLine
 62
7
  6
CONTINUOUS
 10
-0.2914266339
 20
-21.7349994756
 11
16.6928566032
 21
-26.9507083147
  0
LINE
  5
319
100
AcDbEntity
  8
DRAFT
100
AcDbLine
 62
7
  6
CONTINUOUS
 10
-21.797961158
 20
-14.2881426221
 11
-4.1994823253
 21
-19.6924649783
  0
LINE
  5
31A
100
AcDbEntity
  8
DRAFT
100
AcDbLine
 62
7
  6
CONTINUOUS
 10
0.2538655853
 20
-21.0600449778
 11
16.6717654603
 21
-26.1018229735
  0
LINE
  5
31B
100
AcDbEntity
  8
DRAFT
100
AcDbLine
 62
7
  6
CONTINUOUS
 10
12.1111939107
 20
-24.6867722888
 11
6.5785707087
 21
-22.9877573033
  0
LINE
  5
31C
100
AcDbEntity
  8
0
100
AcDbLine
 62
7
  6
CONTINUOUS
 10
-7.928871687
 20
-18.5326622911
 11
-13.4614948889
 21
-16.8336473056
  0
LWPOLYLINE
  5
31D
100
AcDbEntity
  8
0
100
AcDbPolyline
 62
250
  6
CONTINUOUS
 90
10
 70
0
 10
-26.2753406667
 20
-15.083922746
 10
-26.1290819273
 20
-15.1343165149
 10
-25.9881717508
 20
-15.1867070285
 10
-25.8533052224
 20
-15.2409178745
 10
-25.7249590726
 20
-15.2968307883
 10
-25.6041741041
 20
-15.3541773547
 10
-25.4923778677
 20
-15.4124342227
 10
-25.3904043264
 20
-15.4711610496
 10
-25.2986719658
 20
-15.5301047434
 10
-25.2178408639
 20
-15.5889184592
  0
LWPOLYLINE
  5
31E
100
AcDbEntity
  8
0
100
AcDbPolyline
 62
7
  6
CONTINUOUS
 90
13
 70
0
 10
-22.4341017488
 20
-15.0769428119
 10
-22.4719379953
 20
-15.0629508665
 10
-22.5080451575
 20
-15.0456848303
 10
-22.5424232354
 20
-15.0251447034
 10
-22.5755952597
 20
-15.0008722691
 10
-22.6070381996
 20
-14.9733257442
 10
-22.6351829633
 20
-14.9438797783
 10
-22.6598621783
 20
-14.9124379806
 10
-22.681243217
 20
-14.879096742
 10
-22.6982591049
 20
-14.8455198849
 10
-22.7105541839
 20
-14.8122620168
 10
-22.718484112
 20
-14.7787685302
 10
-22.7220488894
 20
-14.7450394252
  0
LWPOLYLINE
  5
31F
100
AcDbEntity
  8
0
100
AcDbPolyline
 62
250
  6
CONTINUOUS
 90
6
 70
0
 10
-38.3014572638
 20
36.3802192622
 10
-38.2689182035
 20
36.2916888532
 10
-38.2301623162
 20
36.2021956491
 10
-38.1855468856
 20
36.1126431192
 10
-38.1351643441
 20
36.0233617588
 10
-38.0792439429
 20
35.935013386
  0
LWPOLYLINE
  5
320
100
AcDbEntity
  8
0
100
AcDbPolyline
 62
250
  6
CONTINUOUS
 90
13
 70
0
 10
-2.9266520744
 20
28.2260804198
 10
-2.9709671203
 20
28.1623512606
 10
-3.0142369456
 20
28.0923500605
 10
-3.0561810034
 20
28.0165778107
 10
-3.0966525462
 20
27.935256397
 10
-3.1351823071
 20
27.8492301855
 10
-3.1710666043
 20
27.7601036032
 10
-3.2040090171
 20
27.66876318
 10
-3.2338487608
 20
27.5757393553
 10
-3.2602235195
 20
27.482233301
 10
-3.2829319394
 20
27.3890933922
 10
-3.3018764044
 20
27.2967862247
 10
-3.3169194795
 20
27.2059166811
  0
LINE
  5
321
100
AcDbEntity
  8
DRAFT
100
AcDbLine
 62
7
  6
CONTINUOUS
 10
-22.4755853781
 20
1.3360874384
 11
-23.011348301
 21
0.6501489604
  0
LINE
  5
322
100
AcDbEntity
  8
DRAFT
100
AcDbLine
 62
7
  6
CONTINUOUS
 10
-23.011348301
 20
0.6501489604
 11
-23.1028640131
 21
0.5378691667
  0
LWPOLYLINE
  5
323
100
AcDbEntity
  8
0
100
AcDbPolyline
 62
250
  6
CONTINUOUS
 90
22
 70
0
 10
-23.8632639503
 20
1.6181973659
 10
-23.9166753242
 20
1.5612689623
 10
-23.979280478
 20
1.5078433033
 10
-24.050500888
 20
1.4585420438
 10
-24.1296876436
 20
1.4139354826
 10
-24.2160196007
 20
1.37459714
 10
-24.3084808266
 20
1.3410705589
 10
-24.4060991633
 20
1.3137713563
 10
-24.5077866457
 20
1.2930649491
 10
-24.6122018557
 20
1.27925966
 10
-24.7181430111
 20
1.2725257044
 10
-24.8244247676
 20
1.272950611
 10
-24.9296801435
 20
1.2805283533
 10
-25.0327318894
 20
1.2951605691
 10
-25.1323969121
 20
1.3166664184
 10
-25.2273679178
 20
1.3447271079
 10
-25.3165926575
 20
1.378968315
 10
-25.399140258
 20
1.4189667885
 10
-25.4740511417
 20
1.4641733328
 10
-25.5405598037
 20
1.5140096879
 10
-25.5980702072
 20
1.5679006395
 10
-25.6460625879
 20
1.6252208108
  0
LINE
  5
324
100
AcDbEntity
  8
RACCORDO
100
AcDbLine
 62
7
  6
CONTINUOUS
 10
7.5964003785
 20
-21.9349316002
 11
7.6151938629
 21
-21.9396346071
  0
LINE
  5
325
100
AcDbEntity
  8
RACCORDO
100
AcDbLine
 62
7
  6
CONTINUOUS
 10
-12.4436652191
 20
-15.7808216025
 11
-12.4248717347
 21
-15.7855246093
  0
LINE
  5
326
100
AcDbEntity
  8
DRAFT
100
AcDbLine
 62
7
  6
CONTINUOUS
 10
12.1927066793
 20
-24.5700597235
 11
6.6787546833
 21
-22.8767784845
  0
LINE
  5
327
100
AcDbEntity
  8
0
100
AcDbLine
 62
7
  6
CONTINUOUS
 10
-7.8473589183
 20
-18.4159497258
 11
-13.3613109143
 21
-16.7226684868
  0
LINE
  5
328
100
AcDbEntity
  8
DRAFT
100
AcDbLine
 62
7
  6
CONTINUOUS
 10
12.3149758323
 20
-24.3949908756
 11
6.8290306452
 21
-22.7103102562
  0
LINE
  5
329
100
AcDbEntity
  8
0
100
AcDbLine
 62
7
  6
CONTINUOUS
 10
-7.7250897653
 20
-18.2408808779
 11
-13.2110349524
 21
-16.5562002585
  0
LINE
  5
32A
100
AcDbEntity
  8
DRAFT
100
AcDbLine
 62
7
  6
CONTINUOUS
 10
12.396488601
 20
-24.2782783103
 11
6.9292146198
 21
-22.5993314374
  0
LINE
  5
32B
100
AcDbEntity
  8
0
100
AcDbLine
 62
7
  6
CONTINUOUS
 10
-7.6435769967
 20
-18.1241683126
 11
-13.1108509778
 21
-16.4452214397
  0
LINE
  5
32C
100
AcDbEntity
  8
DRAFT
100
AcDbLine
 62
7
  6
CONTINUOUS
 10
12.518757754
 20
-24.1032094623
 11
7.0794905817
 21
-22.4328632091
  0
LINE
  5
32D
100
AcDbEntity
  8
0
100
AcDbLine
 62
7
  6
CONTINUOUS
 10
-7.5213078437
 20
-17.9490994646
 11
-12.9605750159
 21
-16.2787532114
  0
LINE
  5
32E
100
AcDbEntity
  8
DRAFT
100
AcDbLine
 62
7
  6
CONTINUOUS
 10
12.6002705226
 20
-23.986496897
 11
7.1796745564
 21
-22.3218843903
  0
LINE
  5
32F
100
AcDbEntity
  8
0
100
AcDbLine
 62
7
  6
CONTINUOUS
 10
-7.439795075
 20
-17.8323868993
 11
-12.8603910413
 21
-16.1677743926
  0
LINE
  5
330
100
AcDbEntity
  8
DRAFT
100
AcDbLine
 62
7
  6
CONTINUOUS
 10
12.7225396756
 20
-23.8114280491
 11
7.3299505183
 21
-22.1554161621
  0
LINE
  5
331
100
AcDbEntity
  8
0
100
AcDbLine
 62
7
  6
CONTINUOUS
 10
-7.3175259221
 20
-17.6573180514
 11
-12.7101150794
 21
-16.0013061643
  0
LINE
  5
332
100
AcDbEntity
  8
RACCORDO
100
AcDbLine
 62
250
  6
CONTINUOUS
 10
-12.5347931238
 20
-15.8070932313
 11
-7.1748785769
 21
-17.4530710621
  0
LINE
  5
333
100
AcDbEntity
  8
RACCORDO
100
AcDbLine
 62
250
  6
CONTINUOUS
 10
7.5052724738
 20
-21.9612032291
 11
12.8651870207
 21
-23.6071810598
  0
LINE
  5
334
100
AcDbEntity
  8
RACCORDO
100
AcDbLine
 62
7
  6
CONTINUOUS
 10
-12.4248673368
 20
-15.7855177663
 11
-7.1596650933
 21
-17.4024103662
  0
LINE
  5
335
100
AcDbEntity
  8
RACCORDO
100
AcDbLine
 62
7
  6
CONTINUOUS
 10
7.6151982608
 20
-21.939627764
 11
12.8804005044
 21
-23.556520364
  0
LINE
  5
336
100
AcDbEntity
  8
0
100
AcDbLine
 62
7
  6
CONTINUOUS
 10
-7.8473589183
 20
-18.4159497258
 11
-7.7833311308
 21
-18.4447178343
  0
LINE
  5
337
100
AcDbEntity
  8
0
100
AcDbLine
 62
7
  6
CONTINUOUS
 10
-7.6435769967
 20
-18.1241683126
 11
-7.5795492091
 21
-18.152936421
  0
LINE
  5
338
100
AcDbEntity
  8
0
100
AcDbLine
 62
7
  6
CONTINUOUS
 10
-7.439795075
 20
-17.8323868993
 11
-7.3757672875
 21
-17.8611550078
  0
LINE
  5
339
100
AcDbEntity
  8
DRAFT
100
AcDbLine
 62
7
  6
CONTINUOUS
 10
12.1927066793
 20
-24.5700597235
 11
12.2567344669
 21
-24.598827832
  0
LINE
  5
33A
100
AcDbEntity
  8
DRAFT
100
AcDbLine
 62
7
  6
CONTINUOUS
 10
12.396488601
 20
-24.2782783103
 11
12.4605163885
 21
-24.3070464187
  0
LINE
  5
33B
100
AcDbEntity
  8
DRAFT
100
AcDbLine
 62
7
  6
CONTINUOUS
 10
12.6002705226
 20
-23.986496897
 11
12.6642983102
 21
-24.0152650055
  0
LWPOLYLINE
  5
33C
100
AcDbEntity
  8
0
100
AcDbPolyline
 62
7
  6
CONTINUOUS
 90
16
 70
0
 10
18.4068619432
 20
-31.4048556476
 10
18.4531192548
 20
-31.430790253
 10
18.4983182119
 20
-31.4584204397
 10
18.5423151922
 20
-31.4876276848
 10
18.5849936143
 20
-31.518279696
 10
18.6262006965
 20
-31.5502583664
 10
18.6657510536
 20
-31.5834572757
 10
18.7035177655
 20
-31.6177298166
 10
18.7394091789
 20
-31.6529455858
 10
18.7733056233
 20
-31.6890174353
 10
18.8051025521
 20
-31.7257926154
 10
18.8347315288
 20
-31.7631399504
 10
18.8621281792
 20
-31.8010070498
 10
18.8872187127
 20
-31.8392832603
 10
18.9099305969
 20
-31.877797104
 10
18.9302040823
 20
-31.9164067225
  0
LWPOLYLINE
  5
33D
100
AcDbEntity
  8
0
100
AcDbPolyline
 62
250
  6
CONTINUOUS
 90
7
 70
0
 10
31.0468894035
 20
-43.5314809855
 10
31.1260819299
 20
-43.5877470412
 10
31.2055500023
 20
-43.6363319454
 10
31.2851730845
 20
-43.6772904722
 10
31.3638608251
 20
-43.710130553
 10
31.4396011442
 20
-43.7343086097
 10
31.4630099125
 20
-43.7402362977
  0
LWPOLYLINE
  5
33E
100
AcDbEntity
  8
0
100
AcDbPolyline
 62
250
  6
CONTINUOUS
 90
9
 70
0
 10
-37.3741694271
 20
7.5921273437
 10
-37.4386278664
 20
7.6398092831
 10
-37.4949692982
 20
7.6909423693
 10
-37.5429110931
 20
7.745138312
 10
-37.5823038374
 20
7.8022273935
 10
-37.6126421144
 20
7.8615791937
 10
-37.6334333516
 20
7.9220326733
 10
-37.6446977564
 20
7.9829534926
 10
-37.6468569173
 20
8.0157538067
  0
LWPOLYLINE
  5
33F
100
AcDbEntity
  8
0
100
AcDbPolyline
 62
250
  6
CONTINUOUS
 90
10
 70
0
 10
26.1666080869
 20
-41.9930707017
 10
25.7319243674
 20
-41.6584936926
 10
25.3033454893
 20
-41.3213845701
 10
24.8806774647
 20
-40.9816200555
 10
24.4641295516
 20
-40.6394119245
 10
24.0531033849
 20
-40.2943158302
 10
23.6462354701
 20
-39.9451941624
 10
23.2429890692
 20
-39.5915524328
 10
22.8436116903
 20
-39.2335763996
 10
22.4479539716
 20
-38.8711149327
  0
LWPOLYLINE
  5
340
100
AcDbEntity
  8
0
100
AcDbPolyline
 62
250
  6
CONTINUOUS
 90
10
 70
0
 10
-3.6176863058
 20
-23.729652217
 10
-3.5659890519
 20
-23.7849753243
 10
-3.5185184359
 20
-23.8515514432
 10
-3.4754775891
 20
-23.9291267603
 10
-3.436961605
 20
-24.0177284634
 10
-3.4033263782
 20
-24.1168501896
 10
-3.3750292887
 20
-24.2251447763
 10
-3.3522039421
 20
-24.3416774729
 10
-3.3348196007
 20
-24.4662328514
 10
-3.3229382384
 20
-24.5982848709
  0
LWPOLYLINE
  5
341
100
AcDbEntity
  8
0
100
AcDbPolyline
 62
250
  6
CONTINUOUS
 90
10
 70
0
 10
-25.6460677785
 20
1.6252192335
 10
-25.7255161695
 20
1.7244745992
 10
-25.8159386221
 20
1.8204358463
 10
-25.9169639533
 20
1.9126803005
 10
-26.028588
 20
2.0010563237
 10
-26.1500861585
 20
2.0848018727
 10
-26.2797171725
 20
2.1627163436
 10
-26.4163436003
 20
2.2342775245
 10
-26.5597275408
 20
2.2994694168
 10
-26.7092355608
 20
2.3580214571
  0
LWPOLYLINE
  5
342
100
AcDbEntity
  8
0
100
AcDbPolyline
 62
250
  6
CONTINUOUS
 90
10
 70
0
 10
-37.98000519
 20
31.9457716806
 10
-37.6877175037
 20
31.4514330558
 10
-37.3938208163
 20
30.9627204404
 10
-37.097942248
 20
30.4789833963
 10
-36.8000935304
 20
30.0001836238
 10
-36.4995607344
 20
29.5251051386
 10
-36.1948510776
 20
29.0513695602
 10
-35.8851890912
 20
28.5778017746
 10
-35.5705696736
 20
28.1044144406
 10
-35.2506108274
 20
27.6306291744
  0
LWPOLYLINE
  5
343
100
AcDbEntity
  8
0
100
AcDbPolyline
 62
250
  6
CONTINUOUS
 90
10
 70
0
 10
17.4879298438
 20
-11.620813556
 10
17.6633352907
 20
-11.599821335
 10
17.8411722807
 20
-11.5862399638
 10
18.0206739355
 20
-11.5801426292
 10
18.2016433517
 20
-11.5816192238
 10
18.3826643297
 20
-11.5907743708
 10
18.561142045
 20
-11.6074771058
 10
18.7357174038
 20
-11.6314829786
 10
18.9062256457
 20
-11.6626843346
 10
19.0719358621
 20
-11.7009327609
  0
LWPOLYLINE
  5
344
100
AcDbEntity
  8
0
100
AcDbPolyline
 62
250
  6
CONTINUOUS
 90
13
 70
0
 10
32.2480483732
 20
-13.7881812457
 10
32.3482545916
 20
-13.7910662275
 10
32.4479629376
 20
-13.7878545162
 10
32.5465043032
 20
-13.778642133
 10
32.6435705366
 20
-13.7634582815
 10
32.7380470652
 20
-13.7424358988
 10
32.8281469236
 20
-13.7160360005
 10
32.9130692289
 20
-13.6846531879
 10
32.9924980371
 20
-13.6485220455
 10
33.0656029815
 20
-13.6081146357
 10
33.1318738175
 20
-13.5638341567
 10
33.1910451253
 20
-13.5159458176
 10
33.2427807182
 20
-13.464756361
  0
LWPOLYLINE
  5
345
100
AcDbEntity
  8
0
100
AcDbPolyline
 62
250
  6
CONTINUOUS
 90
4
 70
0
 10
-35.0902391044
 20
6.1767186389
 10
-35.3623039412
 20
6.3339213188
 10
-35.6265240296
 20
6.4891138339
 10
-35.8842725404
 20
6.6431593721
  0
LWPOLYLINE
  5
346
100
AcDbEntity
  8
0
100
AcDbPolyline
 62
250
  6
CONTINUOUS
 90
7
 70
0
 10
-35.8842725404
 20
6.6431593721
 10
-36.1374310195
 20
6.7972299877
 10
-36.387154541
 20
6.9520572085
 10
-36.6339563989
 20
7.1079379052
 10
-36.8792692119
 20
7.2657039241
 10
-37.1253637212
 20
7.4267182158
 10
-37.3741694271
 20
7.5921273437
  0
LINE
  5
347
100
AcDbEntity
  8
0
100
AcDbLine
 62
250
  6
CONTINUOUS
 10
30.9686037054
 20
-43.4677170346
 11
31.0468894035
 21
-43.5314809855
  0
LWPOLYLINE
  5
348
100
AcDbEntity
  8
0
100
AcDbPolyline
 62
250
  6
CONTINUOUS
 90
10
 70
0
 10
31.0085760746
 20
-43.4800376145
 10
30.5190060677
 20
-43.0511600461
 10
30.0262075479
 20
-42.6150801859
 10
29.5312019184
 20
-42.1726716554
 10
29.0338907433
 20
-41.7237937837
 10
28.5365758703
 20
-41.270463754
 10
28.0438600992
 20
-40.8168691796
 10
27.5579563876
 20
-40.3650908833
 10
27.0787881699
 20
-39.9150913609
 10
26.6074383165
 20
-39.4678953526
  0
LWPOLYLINE
  5
349
100
AcDbEntity
  8
0
100
AcDbPolyline
 62
250
  6
CONTINUOUS
 90
10
 70
0
 10
22.4479539716
 20
-38.8711149327
 10
22.0185617086
 20
-38.4688574271
 10
21.5905663548
 20
-38.0585021994
 10
21.1631207648
 20
-37.6389291921
 10
20.734288853
 20
-37.2079192561
 10
20.3040421825
 20
-36.7651545395
 10
19.8741677862
 20
-36.3123633044
 10
19.4443595926
 20
-35.849294018
 10
19.0123060901
 20
-35.373566598
 10
18.57662743
 20
-34.8837788023
  0
LWPOLYLINE
  5
34A
100
AcDbEntity
  8
0
100
AcDbPolyline
 62
250
  6
CONTINUOUS
 90
10
 70
0
 10
-35.2506108274
 20
27.6306291744
 10
-34.8419254149
 20
27.036294899
 10
-34.4339625135
 20
26.4554837689
 10
-34.0264424309
 20
25.88813621
 10
-33.6191044585
 20
25.3341209256
 10
-33.2118465374
 20
24.7934310022
 10
-32.8047314933
 20
24.2661813283
 10
-32.397788992
 20
23.752349512
 10
-31.9910023839
 20
23.251779334
 10
-31.5844553167
 20
22.7643747214
  0
LWPOLYLINE
  5
34B
100
AcDbEntity
  8
0
100
AcDbPolyline
 62
250
  6
CONTINUOUS
 90
5
 70
0
 10
-34.9659229453
 20
29.989488156
 10
-34.5348045414
 20
29.3601775082
 10
-34.1020671325
 20
28.7375152639
 10
-33.6691447533
 20
28.1234513135
 10
-33.2384361163
 20
27.5212590641
  0
LWPOLYLINE
  5
34C
100
AcDbEntity
  8
0
100
AcDbPolyline
 62
250
  6
CONTINUOUS
 90
10
 70
0
 10
-38.0499093212
 20
34.7558077522
 10
-37.7181252845
 20
34.2192943414
 10
-37.383645601
 20
33.6845520999
 10
-37.0464633944
 20
33.1515690462
 10
-36.7065828251
 20
32.6203503519
 10
-36.3639861785
 20
32.0908668041
 10
-36.0186329693
 20
31.5630553404
 10
-35.6705042389
 20
31.0368875091
 10
-35.3196034495
 20
30.5123689351
 10
-34.9659229453
 20
29.989488156
  0
LWPOLYLINE
  5
34D
100
AcDbEntity
  8
0
100
AcDbPolyline
 62
250
  6
CONTINUOUS
 90
10
 70
0
 10
-4.5493776166
 20
13.7228723859
 10
-4.5034754143
 20
13.9005012365
 10
-4.4620872429
 20
14.0784298207
 10
-4.4253917057
 20
14.2559259582
 10
-4.393479458
 20
14.4327840676
 10
-4.3666604446
 20
14.6076633961
 10
-4.3452993918
 20
14.7781865674
 10
-4.3294767259
 20
14.9431506189
 10
-4.3191531737
 20
15.1024278562
 10
-4.314361581
 20
15.2553734158
  0
LINE
  5
34E
100
AcDbEntity
  8
0
100
AcDbLine
 62
250
  6
CONTINUOUS
 10
-22.4341017488
 20
-15.0769428119
 11
-23.1228418503
 21
-15.9612061886
  0
LINE
  5
34F
100
AcDbEntity
  8
DRAFT
100
AcDbLine
 62
250
  6
CONTINUOUS
 10
-22.6312005178
 20
-14.6311937332
 11
-22.0954375948
 21
-13.9452552552
  0
LINE
  5
350
100
AcDbEntity
  8
DRAFT
100
AcDbLine
 62
250
  6
CONTINUOUS
 10
-22.4325327808
 20
-15.076348547
 11
-22.3432533772
 21
-14.9630971199
  0
LINE
  5
351
100
AcDbEntity
  8
DRAFT
100
AcDbLine
 62
250
  6
CONTINUOUS
 10
-22.3432533772
 20
-14.9630971199
 11
-21.797961158
 21
-14.2881426221
  0
LINE
  5
352
100
AcDbEntity
  8
DRAFT
100
AcDbLine
 62
250
  6
CONTINUOUS
 10
-22.7220520095
 20
-14.742658601
 11
-22.6312005178
 21
-14.6311937332
  0
LINE
  5
353
100
AcDbEntity
  8
0
100
AcDbLine
 62
250
  6
CONTINUOUS
 10
-23.4348898697
 20
-15.6015228305
 11
-22.7220488894
 21
-14.7450394252
  0
LWPOLYLINE
  5
354
100
AcDbEntity
  8
0
100
AcDbPolyline
 62
250
  6
CONTINUOUS
 90
10
 70
0
 10
-26.31671979
 20
-13.4205209897
 10
-26.8209538617
 20
-13.4863844039
 10
-27.323111168
 20
-13.5596296134
 10
-27.8222831442
 20
-13.6402134899
 10
-28.3190094867
 20
-13.7283603304
 10
-28.8107669299
 20
-13.8237734852
 10
-29.2922435167
 20
-13.9254406494
 10
-29.7612692254
 20
-14.0327862466
 10
-30.2185408667
 20
-14.1458659159
 10
-30.6633044181
 20
-14.2644418999
  0
LWPOLYLINE
  5
355
100
AcDbEntity
  8
0
100
AcDbPolyline
 62
250
  6
CONTINUOUS
 90
10
 70
0
 10
29.0488223957
 20
-13.5197657713
 10
29.4153017849
 20
-13.558653837
 10
29.7744477366
 20
-13.5948909937
 10
30.1281993647
 20
-13.628631224
 10
30.4791999613
 20
-13.6600920074
 10
30.8290876267
 20
-13.6893995731
 10
31.1785541452
 20
-13.7166271181
 10
31.5295345011
 20
-13.7419769546
 10
31.8851526792
 20
-13.7657427998
 10
32.2480483732
 20
-13.7881812457
  0
LWPOLYLINE
  5
356
100
AcDbEntity
  8
0
100
AcDbPolyline
 62
250
  6
CONTINUOUS
 90
10
 70
0
 10
24.7874990302
 20
-12.9198763896
 10
25.2795499615
 20
-13.0029525273
 10
25.7615676503
 20
-13.0813121549
 10
26.2351816148
 20
-13.1550892359
 10
26.7025570539
 20
-13.2245127178
 10
27.1661408458
 20
-13.2898698174
 10
27.6287169741
 20
-13.3515224309
 10
28.0937892259
 20
-13.4099622313
 10
28.5655854257
 20
-13.4658058449
 10
29.0488223957
 20
-13.5197657713
  0
LWPOLYLINE
  5
357
100
AcDbEntity
  8
0
100
AcDbPolyline
 62
250
  6
CONTINUOUS
 90
10
 70
0
 10
-31.7373994629
 20
4.4383723268
 10
-32.1422479431
 20
4.6307253093
 10
-32.5349668249
 20
4.820988808
 10
-32.9167158936
 20
5.0098854278
 10
-33.2891015021
 20
5.1983444281
 10
-33.6539754934
 20
5.3873986877
 10
-34.0134898441
 20
5.5782020959
 10
-34.3703993413
 20
5.7721849272
 10
-34.728057967
 20
5.9710588548
 10
-35.0902391044
 20
6.1767186389
  0
LWPOLYLINE
  5
358
100
AcDbEntity
  8
0
100
AcDbPolyline
 62
250
  6
CONTINUOUS
 90
10
 70
0
 10
24.6345548942
 20
-31.2458787714
 10
24.086207766
 20
-30.8235663433
 10
23.5279059186
 20
-30.3995742553
 10
22.9605724836
 20
-29.9746567679
 10
22.3835579656
 20
-29.548415026
 10
21.7993721095
 20
-29.1228008043
 10
21.2138279633
 20
-28.7020608286
 10
20.6296158489
 20
-28.2880535298
 10
20.0461600033
 20
-27.8803052636
 10
19.4644517791
 20
-27.4794752525
  0
LINE
  5
359
100
AcDbEntity
  8
0
100
AcDbLine
 62
250
  6
CONTINUOUS
 10
19.5037183376
 20
-29.2976414119
 11
20.5750242695
 21
-30.1656558608
  0
LINE
  5
35A
100
AcDbEntity
  8
0
100
AcDbLine
 62
250
  6
CONTINUOUS
 10
20.5750242695
 20
-30.1656558608
 11
21.6100345071
 21
-31.0152561075
  0
LWPOLYLINE
  5
35B
100
AcDbEntity
  8
0
100
AcDbPolyline
 62
250
  6
CONTINUOUS
 90
7
 70
0
 10
27.6425178921
 20
-33.6603934676
 10
27.129990586
 20
-33.2381951027
 10
26.6219533012
 20
-32.8237957908
 10
26.1184412467
 20
-32.4173450281
 10
25.6194238408
 20
-32.0188959209
 10
25.1247948799
 20
-31.6284044736
 10
24.6345548942
 20
-31.2458787714
  0
LINE
  5
35C
100
AcDbEntity
  8
0
100
AcDbLine
 62
250
  6
CONTINUOUS
 10
21.6100345071
 20
-31.0152561075
 11
22.6247819303
 21
-31.8594098628
  0
LINE
  5
35D
100
AcDbEntity
  8
0
100
AcDbLine
 62
250
  6
CONTINUOUS
 10
28.6817988777
 20
-34.5281020185
 11
27.6425178921
 21
-33.6603934676
  0
LINE
  5
35E
100
AcDbEntity
  8
0
100
AcDbLine
 62
250
  6
CONTINUOUS
 10
22.6247819303
 20
-31.8594098628
 11
23.6444438404
 21
-32.7189940986
  0
LINE
  5
35F
100
AcDbEntity
  8
0
100
AcDbLine
 62
250
  6
CONTINUOUS
 10
29.6250898839
 20
-35.3272389297
 11
28.6817988777
 21
-34.5281020185
  0
LINE
  5
360
100
AcDbEntity
  8
0
100
AcDbLine
 62
250
  6
CONTINUOUS
 10
24.6671689158
 20
-33.5924436687
 11
23.6444438404
 21
-32.7189940986
  0
LINE
  5
361
100
AcDbEntity
  8
0
100
AcDbLine
 62
250
  6
CONTINUOUS
 10
25.7049694871
 20
-34.4902127455
 11
24.6671689158
 21
-33.5924436687
  0
LINE
  5
362
100
AcDbEntity
  8
0
100
AcDbLine
 62
250
  6
CONTINUOUS
 10
20.7474396057
 20
-31.3691797842
 11
19.2798583722
 21
-30.0879290119
  0
LINE
  5
363
100
AcDbEntity
  8
0
100
AcDbLine
 62
250
  6
CONTINUOUS
 10
26.7594924785
 20
-35.4125885175
 11
25.7049694871
 21
-34.4902127455
  0
LINE
  5
364
100
AcDbEntity
  8
0
100
AcDbLine
 62
250
  6
CONTINUOUS
 10
20.6633926905
 20
-31.4806968402
 11
19.2084764218
 21
-30.198904252
  0
LINE
  5
365
100
AcDbEntity
  8
0
100
AcDbLine
 62
250
  6
CONTINUOUS
 10
31.4456708665
 20
-41.2529351622
 11
32.9598722104
 21
-42.5891247593
  0
LINE
  5
366
100
AcDbEntity
  8
0
100
AcDbLine
 62
250
  6
CONTINUOUS
 10
22.1782721328
 20
-32.6342343601
 11
20.7474396057
 21
-31.3691797842
  0
LINE
  5
367
100
AcDbEntity
  8
0
100
AcDbLine
 62
250
  6
CONTINUOUS
 10
28.3793529112
 20
-36.8461263165
 11
26.7594924785
 21
-35.4125885175
  0
LINE
  5
368
100
AcDbEntity
  8
0
100
AcDbLine
 62
250
  6
CONTINUOUS
 10
32.9587292745
 20
-42.3568762235
 11
31.4800757491
 21
-41.0436847045
  0
LINE
  5
369
100
AcDbEntity
  8
0
100
AcDbLine
 62
250
  6
CONTINUOUS
 10
22.082760126
 20
-32.747056612
 11
20.6633926905
 21
-31.4806968402
  0
LINE
  5
36A
100
AcDbEntity
  8
0
100
AcDbLine
 62
250
  6
CONTINUOUS
 10
29.9169106777
 20
-39.8872259887
 11
31.4456708665
 21
-41.2529351622
  0
LINE
  5
36B
100
AcDbEntity
  8
0
100
AcDbLine
 62
250
  6
CONTINUOUS
 10
31.4800757491
 20
-41.0436847045
 11
29.9856414085
 21
-39.7051067208
  0
LINE
  5
36C
100
AcDbEntity
  8
0
100
AcDbLine
 62
250
  6
CONTINUOUS
 10
23.63857516
 20
-33.9419394072
 11
22.1782721328
 21
-32.6342343601
  0
LINE
  5
36D
100
AcDbEntity
  8
0
100
AcDbLine
 62
250
  6
CONTINUOUS
 10
30.7151395493
 20
-38.9419688244
 11
28.3793529112
 21
-36.8461263165
  0
LINE
  5
36E
100
AcDbEntity
  8
0
100
AcDbLine
 62
250
  6
CONTINUOUS
 10
29.9856414085
 20
-39.7051067208
 11
28.5102163987
 21
-38.3722459044
  0
LINE
  5
36F
100
AcDbEntity
  8
0
100
AcDbLine
 62
250
  6
CONTINUOUS
 10
23.63857516
 20
-33.9419394072
 11
24.6847885881
 21
-34.8884460403
  0
LINE
  5
370
100
AcDbEntity
  8
0
100
AcDbLine
 62
250
  6
CONTINUOUS
 10
23.5320910768
 20
-34.0567439316
 11
22.082760126
 21
-32.747056612
  0
LINE
  5
371
100
AcDbEntity
  8
0
100
AcDbLine
 62
250
  6
CONTINUOUS
 10
28.4136409237
 20
-38.5276926309
 11
29.9169106777
 21
-39.8872259887
  0
LINE
  5
372
100
AcDbEntity
  8
0
100
AcDbLine
 62
250
  6
CONTINUOUS
 10
24.6847885881
 20
-34.8884460403
 11
28.5102163987
 21
-38.3722459044
  0
LWPOLYLINE
  5
373
100
AcDbEntity
  8
0
100
AcDbPolyline
 62
250
  6
CONTINUOUS
 90
3
 70
0
 10
32.9237882672
 20
-40.9518616542
 10
32.4845880666
 20
-40.549955692
 10
30.7151395493
 20
-38.9419688244
  0
LINE
  5
374
100
AcDbEntity
  8
0
100
AcDbLine
 62
250
  6
CONTINUOUS
 10
28.4136409237
 20
-38.5276926309
 11
26.7418296296
 21
-36.9984136926
  0
LINE
  5
375
100
AcDbEntity
  8
0
100
AcDbLine
 62
250
  6
CONTINUOUS
 10
26.7418296296
 20
-36.9984136926
 11
23.5320910768
 21
-34.0567439316
  0
LWPOLYLINE
  5
376
100
AcDbEntity
  8
0
100
AcDbPolyline
 62
250
  6
CONTINUOUS
 90
10
 70
0
 10
25.2688556619
 20
-39.4388926744
 10
25.7075849441
 20
-39.8447248926
 10
26.1518904285
 20
-40.2481729739
 10
26.6015453639
 20
-40.649027183
 10
27.0564828785
 20
-41.0472164425
 10
27.5163194978
 20
-41.4423900034
 10
27.9803384838
 20
-41.8339284138
 10
28.4481343673
 20
-42.2214974795
 10
28.9196296042
 20
-42.6050372923
 10
29.3945864254
 20
-42.9843515769
  0
LWPOLYLINE
  5
377
100
AcDbEntity
  8
0
100
AcDbPolyline
 62
250
  6
CONTINUOUS
 90
7
 70
0
 10
25.2688556619
 20
-39.4388926744
 10
24.7983680918
 20
-38.9952408962
 10
24.3250711675
 20
-38.5405325946
 10
23.8492516516
 20
-38.0755534832
 10
23.3719242666
 20
-37.6018881999
 10
22.8926687255
 20
-37.1197796483
 10
22.4097034808
 20
-36.6281143679
  0
LINE
  5
378
100
AcDbEntity
  8
0
100
AcDbLine
 62
250
  6
CONTINUOUS
 10
26.6074383165
 20
-39.4678953526
 11
26.1047079314
 21
-38.9860071302
  0
LINE
  5
379
100
AcDbEntity
  8
0
100
AcDbLine
 62
250
  6
CONTINUOUS
 10
26.1047079314
 20
-38.9860071302
 11
25.085445982
 21
-37.995962058
  0
LINE
  5
37A
100
AcDbEntity
  8
0
100
AcDbLine
 62
250
  6
CONTINUOUS
 10
18.4068620159
 20
-31.4048557053
 11
17.8820281341
 21
-30.8929359835
  0
LINE
  5
37B
100
AcDbEntity
  8
0
100
AcDbLine
 62
250
  6
CONTINUOUS
 10
18.8920437248
 20
-31.8474653099
 11
18.5973180942
 21
-31.559241963
  0
LINE
  5
37C
100
AcDbEntity
  8
0
100
AcDbLine
 62
250
  6
CONTINUOUS
 10
25.085445982
 20
-37.995962058
 11
24.0541175199
 21
-36.9807992056
  0
LINE
  5
37D
100
AcDbEntity
  8
0
100
AcDbLine
 62
250
  6
CONTINUOUS
 10
21.3004025142
 20
-34.248455672
 11
18.9302042062
 21
-31.9164070068
  0
LINE
  5
37E
100
AcDbEntity
  8
0
100
AcDbLine
 62
250
  6
CONTINUOUS
 10
24.0541175199
 20
-36.9807992056
 11
21.3004025142
 21
-34.248455672
  0
LINE
  5
37F
100
AcDbEntity
  8
0
100
AcDbLine
 62
250
  6
CONTINUOUS
 10
22.4097034808
 20
-36.6281143679
 11
21.4329178954
 21
-35.6194002189
  0
LINE
  5
380
100
AcDbEntity
  8
0
100
AcDbLine
 62
250
  6
CONTINUOUS
 10
21.4329178954
 20
-35.6194002189
 11
20.1400561247
 21
-34.2656263116
  0
LINE
  5
381
100
AcDbEntity
  8
0
100
AcDbLine
 62
250
  6
CONTINUOUS
 10
18.5713989624
 20
-32.5673942971
 11
18.4347993165
 21
-32.4236354124
  0
LWPOLYLINE
  5
382
100
AcDbEntity
  8
0
100
AcDbPolyline
 62
250
  6
CONTINUOUS
 90
3
 70
0
 10
20.1400561247
 20
-34.2656263116
 10
18.9633869396
 20
-33.0208420308
 10
18.5750966129
 20
-32.6073963415
  0
LINE
  5
383
100
AcDbEntity
  8
0
100
AcDbLine
 62
250
  6
CONTINUOUS
 10
18.4347993165
 20
-32.4236354124
 11
18.2987236412
 21
-32.2790697216
  0
LINE
  5
384
100
AcDbEntity
  8
0
100
AcDbLine
 62
250
  6
CONTINUOUS
 10
18.2987236412
 20
-32.2790697216
 11
18.1860875847
 21
-32.158369169
  0
LINE
  5
385
100
AcDbEntity
  8
0
100
AcDbLine
 62
250
  6
CONTINUOUS
 10
18.1473510199
 20
-32.1504036339
 11
17.5363215947
 21
-31.4948436799
  0
LINE
  5
386
100
AcDbEntity
  8
0
100
AcDbLine
 62
250
  6
CONTINUOUS
 10
17.5524960922
 20
-31.4783292186
 11
17.1152218001
 21
-31.0070308478
  0
LINE
  5
387
100
AcDbEntity
  8
0
100
AcDbLine
 62
250
  6
CONTINUOUS
 10
17.0715942679
 20
-30.9941370964
 11
16.8929513295
 21
-30.8011927007
  0
LWPOLYLINE
  5
388
100
AcDbEntity
  8
0
100
AcDbPolyline
 62
250
  6
CONTINUOUS
 90
10
 70
0
 10
-31.5844553167
 20
22.7643747214
 10
-31.1256544956
 20
22.2298485204
 10
-30.6541634921
 20
21.6970706348
 10
-30.1707231434
 20
21.1670237677
 10
-29.6747162535
 20
20.6392687439
 10
-29.1682289027
 20
20.1162880978
 10
-28.6562923499
 20
19.603307777
 10
-28.1413130472
 20
19.1025417747
 10
-27.6228313268
 20
18.6133711109
 10
-27.101752601
 20
18.1365627013
  0
LWPOLYLINE
  5
389
100
AcDbEntity
  8
0
100
AcDbPolyline
 62
250
  6
CONTINUOUS
 90
21
 70
0
 10
-26.0742978871
 20
18.8393559552
 10
-26.0245930064
 20
18.7795169212
 10
-25.9658313074
 20
18.7242383618
 10
-25.8983463637
 20
18.6738602595
 10
-25.8224548488
 20
18.6286733324
 10
-25.7387573524
 20
18.5891010356
 10
-25.6482198312
 20
18.5556156708
 10
-25.5513090552
 20
18.528436468
 10
-25.449133521
 20
18.5079688108
 10
-25.3439393783
 20
18.4946306928
 10
-25.2367429582
 20
18.4884518925
 10
-25.1286762034
 20
18.4894703755
 10
-25.0223063157
 20
18.4975568346
 10
-24.9189633521
 20
18.5123955253
 10
-24.8192579902
 20
18.5337423638
 10
-24.7245273137
 20
18.5611823966
 10
-24.635835872
 20
18.5942170209
 10
-24.5534155959
 20
18.6325995603
 10
-24.4772752252
 20
18.6763242598
 10
-24.4078307329
 20
18.7253047743
 10
-24.3457910367
 20
18.7792367309
  0
LWPOLYLINE
  5
38A
100
AcDbEntity
  8
0
100
AcDbPolyline
 62
250
  6
CONTINUOUS
 90
10
 70
0
 10
-30.5884755898
 20
25.4604353481
 10
-30.1786278598
 20
24.910326872
 10
-29.7741242293
 20
24.3730437234
 10
-29.3729475485
 20
23.845993595
 10
-28.9727206192
 20
23.3261143136
 10
-28.5714825423
 20
22.8108840467
 10
-28.1676811507
 20
22.2982731825
 10
-27.7591634874
 20
21.7854491968
 10
-27.343180264
 20
21.2688205773
 10
-26.917159156
 20
20.7450163643
  0
LWPOLYLINE
  5
38B
100
AcDbEntity
  8
0
100
AcDbPolyline
 62
250
  6
CONTINUOUS
 90
10
 70
0
 10
-30.4819915055
 20
25.5752398739
 10
-30.0753807461
 20
25.0244419223
 10
-29.6743969996
 20
24.4867361914
 10
-29.276951918
 20
23.9594219214
 10
-28.8804326492
 20
23.4391084722
 10
-28.4829174077
 20
22.9233131409
 10
-28.0831610513
 20
22.4103832282
 10
-27.679019854
 20
21.8974540875
 10
-27.2674621523
 20
21.3805219177
 10
-26.8457772006
 20
20.855991601
  0
LWPOLYLINE
  5
38C
100
AcDbEntity
  8
0
100
AcDbPolyline
 62
250
  6
CONTINUOUS
 90
3
 70
0
 10
-30.5884755898
 20
25.4604353481
 10
-31.017045548
 20
26.0422454752
 10
-31.4505984877
 20
26.6376331146
  0
LWPOLYLINE
  5
38D
100
AcDbEntity
  8
0
100
AcDbPolyline
 62
250
  6
CONTINUOUS
 90
6
 70
0
 10
-33.2384361163
 20
27.5212590641
 10
-32.8101578719
 20
26.9311253459
 10
-32.3822897306
 20
26.3502897119
 10
-31.9548508534
 20
25.778944901
 10
-31.5299578184
 20
25.2201025139
 10
-31.1086355132
 20
24.6752738105
  0
LWPOLYLINE
  5
38E
100
AcDbEntity
  8
0
100
AcDbPolyline
 62
250
  6
CONTINUOUS
 90
3
 70
0
 10
-31.3452303312
 20
26.7642230029
 10
-30.9112069836
 20
26.1631250949
 10
-30.4819915055
 20
25.5752398739
  0
LINE
  5
38F
100
AcDbEntity
  8
0
100
AcDbLine
 62
250
  6
CONTINUOUS
 10
-31.4505984877
 20
26.6376331146
 11
-32.3262169338
 21
27.8574298012
  0
LINE
  5
390
100
AcDbEntity
  8
0
100
AcDbLine
 62
250
  6
CONTINUOUS
 10
-32.2217480877
 20
27.9942286722
 11
-31.3452303312
 21
26.7642230029
  0
LINE
  5
391
100
AcDbEntity
  8
0
100
AcDbLine
 62
250
  6
CONTINUOUS
 10
-32.3262169338
 20
27.8574298012
 11
-33.2088644601
 21
29.1055567383
  0
LINE
  5
392
100
AcDbEntity
  8
0
100
AcDbLine
 62
250
  6
CONTINUOUS
 10
-33.5542011113
 20
29.8918259764
 11
-32.2217480877
 21
27.9942286722
  0
LINE
  5
393
100
AcDbEntity
  8
0
100
AcDbLine
 62
250
  6
CONTINUOUS
 10
-33.2088644601
 20
29.1055567383
 11
-34.1036489435
 21
30.384820819
  0
LINE
  5
394
100
AcDbEntity
  8
0
100
AcDbLine
 62
250
  6
CONTINUOUS
 10
-33.5542011113
 20
29.8918259764
 11
-38.0859932644
 21
36.3930708573
  0
LINE
  5
395
100
AcDbEntity
  8
0
100
AcDbLine
 62
250
  6
CONTINUOUS
 10
-36.1271331403
 20
33.3073340305
 11
-34.1036489435
 21
30.384820819
  0
LINE
  5
396
100
AcDbEntity
  8
0
100
AcDbLine
 62
250
  6
CONTINUOUS
 10
-36.1346971285
 20
37.2839837125
 11
-35.3585614103
 21
36.1605877848
  0
LINE
  5
397
100
AcDbEntity
  8
0
100
AcDbLine
 62
250
  6
CONTINUOUS
 10
-38.0848503284
 20
36.1608223215
 11
-36.1271331403
 21
33.3073340305
  0
LINE
  5
398
100
AcDbEntity
  8
0
100
AcDbLine
 62
250
  6
CONTINUOUS
 10
-35.3585614103
 20
36.1605877848
 11
-34.5734567865
 21
35.0096355935
  0
LINE
  5
399
100
AcDbEntity
  8
0
100
AcDbLine
 62
250
  6
CONTINUOUS
 10
-34.5734567865
 20
35.0096355935
 11
-33.789043168
 21
33.8450441521
  0
LWPOLYLINE
  5
39A
100
AcDbEntity
  8
0
100
AcDbPolyline
 62
250
  6
CONTINUOUS
 90
9
 70
0
 10
-28.945903082
 20
26.4560422106
 10
-28.5640370495
 20
25.887274076
 10
-28.1866425603
 20
25.33044468
 10
-27.811967388
 20
24.7830442905
 10
-27.4379407647
 20
24.2421010222
 10
-27.0628873764
 20
23.705215102
 10
-26.6855221029
 20
23.1705162332
 10
-26.3040196916
 20
22.6353328518
 10
-25.5193288724
 20
21.5500232835
  0
LINE
  5
39B
100
AcDbEntity
  8
0
100
AcDbLine
 62
250
  6
CONTINUOUS
 10
-25.294561821
 20
22.5999243318
 11
-24.530252059
 21
21.458279972
  0
LINE
  5
39C
100
AcDbEntity
  8
0
100
AcDbLine
 62
250
  6
CONTINUOUS
 10
-29.3618287216
 20
27.0819610623
 11
-28.945903082
 21
26.4560422106
  0
LINE
  5
39D
100
AcDbEntity
  8
0
100
AcDbLine
 62
250
  6
CONTINUOUS
 10
-33.789043168
 20
33.8450441521
 11
-33.0232851707
 21
32.6934981524
  0
LINE
  5
39E
100
AcDbEntity
  8
0
100
AcDbLine
 62
250
  6
CONTINUOUS
 10
-26.0415784997
 20
23.7340555796
 11
-25.294561821
 21
22.5999243318
  0
LINE
  5
39F
100
AcDbEntity
  8
0
100
AcDbLine
 62
250
  6
CONTINUOUS
 10
-33.0232851707
 20
32.6934981524
 11
-32.2490949293
 21
31.5139238508
  0
LINE
  5
3A0
100
AcDbEntity
  8
0
100
AcDbLine
 62
250
  6
CONTINUOUS
 10
-30.1951702747
 20
28.3526107031
 11
-29.3618287216
 21
27.0819610623
  0
LWPOLYLINE
  5
3A1
100
AcDbEntity
  8
0
100
AcDbPolyline
 62
250
  6
CONTINUOUS
 90
16
 70
0
 10
-36.0947247594
 20
37.2716631326
 10
-36.1527430512
 20
37.3608247238
 10
-36.2041833265
 20
37.4518680439
 10
-36.2488753977
 20
37.5440320185
 10
-36.2868708929
 20
37.6371556742
 10
-36.3177163831
 20
37.729948781
 10
-36.3408892053
 20
37.8200012972
 10
-36.3565841187
 20
37.9061949417
 10
-36.3652534272
 20
37.9885763454
 10
-36.3672134238
 20
38.0666372909
 10
-36.3628500271
 20
38.1398071891
 10
-36.352556138
 20
38.2081288405
 10
-36.3365336235
 20
38.2720550583
 10
-36.3149259822
 20
38.3315827887
 10
-36.2880118818
 20
38.386342881
 10
-36.2560369508
 20
38.4362229552
  0
LWPOLYLINE
  5
3A2
100
AcDbEntity
  8
0
100
AcDbPolyline
 62
250
  6
CONTINUOUS
 90
10
 70
0
 10
-31.3102723784
 20
32.0958455323
 10
-31.6525566444
 20
32.6225368194
 10
-31.998959006
 20
33.1486711808
 10
-32.3493025582
 20
33.6739764168
 10
-32.7035348454
 20
34.1983633847
 10
-33.0613568136
 20
34.7213755447
 10
-33.4222106247
 20
35.242194321
 10
-33.7857812017
 20
35.7603722457
 10
-34.1520084107
 20
36.275827593
 10
-34.5207074793
 20
36.7882976749
  0
LINE
  5
3A3
100
AcDbEntity
  8
0
100
AcDbLine
 62
250
  6
CONTINUOUS
 10
-32.2490949293
 20
31.5139238508
 11
-30.1951702747
 21
28.3526107031
  0
LINE
  5
3A4
100
AcDbEntity
  8
0
100
AcDbLine
 62
250
  6
CONTINUOUS
 10
-26.7790452271
 20
24.8724584353
 11
-26.0415784997
 21
23.7340555796
  0
LWPOLYLINE
  5
3A5
100
AcDbEntity
  8
0
100
AcDbPolyline
 62
250
  6
CONTINUOUS
 90
3
 70
0
 10
-31.3102723784
 20
32.0958455323
 10
-30.9428878388
 20
31.5229912635
 10
-30.5727790512
 20
30.9389738217
  0
LINE
  5
3A6
100
AcDbEntity
  8
0
100
AcDbLine
 62
250
  6
CONTINUOUS
 10
-27.5185188773
 20
26.0330938191
 11
-26.7790452271
 21
24.8724584353
  0
LINE
  5
3A7
100
AcDbEntity
  8
0
100
AcDbLine
 62
250
  6
CONTINUOUS
 10
-28.2865222269
 20
27.2585686138
 11
-27.5185188773
 21
26.0330938191
  0
LINE
  5
3A8
100
AcDbEntity
  8
0
100
AcDbLine
 62
250
  6
CONTINUOUS
 10
-30.5727790512
 20
30.9389738217
 11
-29.8249745371
 21
29.7430067505
  0
LINE
  5
3A9
100
AcDbEntity
  8
0
100
AcDbLine
 62
250
  6
CONTINUOUS
 10
-29.8249745371
 20
29.7430067505
 11
-28.2865222269
 21
27.2585686138
  0
LWPOLYLINE
  5
3AA
100
AcDbEntity
  8
0
100
AcDbPolyline
 62
250
  6
CONTINUOUS
 90
5
 70
0
 10
-28.4893706847
 20
31.5280677947
 10
-28.164910405
 20
30.9943158656
 10
-27.841167611
 20
30.4533176267
 10
-27.5172255231
 20
29.9040402823
 10
-27.1913164184
 20
29.344053701
  0
LINE
  5
3AB
100
AcDbEntity
  8
0
100
AcDbLine
 62
250
  6
CONTINUOUS
 10
-27.1913164184
 20
29.344053701
 11
-26.5336033117
 21
28.1948523191
  0
LINE
  5
3AC
100
AcDbEntity
  8
0
100
AcDbLine
 62
250
  6
CONTINUOUS
 10
-26.5336033117
 20
28.1948523191
 11
-25.8670666743
 21
27.0112860468
  0
LINE
  5
3AD
100
AcDbEntity
  8
0
100
AcDbLine
 62
250
  6
CONTINUOUS
 10
-24.1416326828
 20
23.9115130587
 11
-25.8670666743
 21
27.0112860468
  0
LINE
  5
3AE
100
AcDbEntity
  8
0
100
AcDbLine
 62
250
  6
CONTINUOUS
 10
-22.4396776417
 20
20.821481658
 11
-24.1416326828
 21
23.9115130587
  0
LWPOLYLINE
  5
3AF
100
AcDbEntity
  8
0
100
AcDbPolyline
 62
250
  6
CONTINUOUS
 90
10
 70
0
 10
-1.8092015745
 20
-33.4019705831
 10
-1.8732460059
 20
-33.1955528105
 10
-1.9349496736
 20
-32.9910251155
 10
-1.994664458
 20
-32.7870910639
 10
-2.0527632776
 20
-32.5823867046
 10
-2.1095309457
 20
-32.3758627371
 10
-2.1651689566
 20
-32.1668091008
 10
-2.2199362953
 20
-31.9543435904
 10
-2.2741453877
 20
-31.7373841848
 10
-2.3280562397
 20
-31.5150487251
  0
LWPOLYLINE
  5
3B0
100
AcDbEntity
  8
0
100
AcDbPolyline
 62
250
  6
CONTINUOUS
 90
10
 70
0
 10
-2.3280562397
 20
-31.5150487252
 10
-2.3983953088
 20
-31.2156317794
 10
-2.4648911676
 20
-30.9213572502
 10
-2.5281344477
 20
-30.6288153438
 10
-2.5886503868
 20
-30.3350961716
 10
-2.6469014981
 20
-30.0377644958
 10
-2.7032912457
 20
-29.7348308461
 10
-2.7581689588
 20
-29.4247157429
 10
-2.8118332626
 20
-29.1062207742
 10
-2.8645344122
 20
-28.7785067804
  0
LWPOLYLINE
  5
3B1
100
AcDbEntity
  8
RACCORDO
100
AcDbPolyline
 62
7
  6
CONTINUOUS
 90
4
 70
0
 10
-7.1528749121
 20
-17.4111638281
 10
-7.1531776521
 20
-17.4087194635
 10
-7.155464777
 20
-17.4047767264
 10
-7.159663647
 20
-17.402419004
  0
LINE
  5
3B2
100
AcDbEntity
  8
RACCORDO
100
AcDbLine
 62
250
  6
CONTINUOUS
 10
-7.1488795245
 20
-18.3205953476
 11
-7.1706072415
 21
-17.4471753165
  0
LINE
  5
3B3
100
AcDbEntity
  8
RACCORDO
100
AcDbLine
 62
7
  6
CONTINUOUS
 10
-7.1315858068
 20
-18.2669515593
 11
-7.1528697536
 21
-17.4113703921
  0
LINE
  5
3B4
100
AcDbEntity
  8
DRAFT
100
AcDbLine
 62
7
  6
CONTINUOUS
 10
-4.1748114845
 20
-20.6841939569
 11
-4.1994823253
 21
-19.6924649783
  0
LWPOLYLINE
  5
3B5
100
AcDbEntity
  8
RACCORDO
100
AcDbPolyline
 62
250
  6
CONTINUOUS
 90
3
 70
0
 10
-7.1488795245
 20
-18.3205953476
 10
-7.1499452101
 20
-18.3401044831
 10
-7.154026564
 20
-18.3586120224
  0
LWPOLYLINE
  5
3B6
100
AcDbEntity
  8
0
100
AcDbPolyline
 62
250
  6
CONTINUOUS
 90
10
 70
0
 10
-4.0853660186
 20
20.2970027201
 10
-4.1244683943
 20
19.7500362912
 10
-4.1608841772
 20
19.1852489815
 10
-4.1942427635
 20
18.6098913681
 10
-4.2241729524
 20
18.0314689337
 10
-4.2504276902
 20
17.4553732715
 10
-4.2728350361
 20
16.8848539172
 10
-4.291141854
 20
16.3243772216
 10
-4.3050607203
 20
15.7796829233
 10
-4.3143620817
 20
15.2553728468
  0
LWPOLYLINE
  5
3B7
100
AcDbEntity
  8
0
100
AcDbPolyline
 62
250
  6
CONTINUOUS
 90
7
 70
0
 10
-3.8132769052
 20
23.2816276081
 10
-3.8585814389
 20
22.8530601377
 10
-3.9012667324
 20
22.4300154143
 10
-3.941649836
 20
22.0090812979
 10
-3.9800138291
 20
21.5874079834
 10
-4.0166107112
 20
21.1626624426
 10
-4.0853660186
 20
20.2970027201
  0
LINE
  5
3B8
100
AcDbEntity
  8
0
100
AcDbLine
 62
250
  6
CONTINUOUS
 10
-3.7133604735
 20
24.172001587
 11
-3.8132769052
 21
23.2816276081
  0
LINE
  5
3B9
100
AcDbEntity
  8
0
100
AcDbLine
 62
250
  6
CONTINUOUS
 10
-3.6329733413
 20
24.8475221348
 11
-3.7133604735
 21
24.172001587
  0
LINE
  5
3BA
100
AcDbEntity
  8
0
100
AcDbLine
 62
250
  6
CONTINUOUS
 10
-3.549581324
 20
25.5118964362
 11
-3.6329733413
 21
24.8475221348
  0
LINE
  5
3BB
100
AcDbEntity
  8
0
100
AcDbLine
 62
250
  6
CONTINUOUS
 10
-3.461501379
 20
26.1774449746
 11
-3.549581324
 21
25.5118964362
  0
LWPOLYLINE
  5
3BC
100
AcDbEntity
  8
0
100
AcDbPolyline
 62
250
  6
CONTINUOUS
 90
3
 70
0
 10
-3.3169194795
 20
27.2059166811
 10
-3.367132135
 20
26.8563188283
 10
-3.461501379
 20
26.1774449746
  0
LWPOLYLINE
  5
3BD
100
AcDbEntity
  8
RACCORDO
100
AcDbPolyline
 62
250
  6
CONTINUOUS
 90
3
 70
0
 10
-7.1343159832
 20
-18.2898626489
 10
-7.1317182954
 20
-18.2739410697
 10
-7.1315858068
 20
-18.2669515593
  0
LINE
  5
3BE
100
AcDbEntity
  8
0
100
AcDbLine
 62
7
  6
CONTINUOUS
 10
-13.4662336116
 20
-16.8467354341
 11
-13.4614948889
 21
-16.8336473056
  0
LINE
  5
3BF
100
AcDbEntity
  8
0
100
AcDbLine
 62
7
  6
CONTINUOUS
 10
-13.2832797223
 20
-16.7557369051
 11
-13.2110349524
 21
-16.5562002585
  0
LINE
  5
3C0
100
AcDbEntity
  8
0
100
AcDbLine
 62
7
  6
CONTINUOUS
 10
-13.0328197858
 20
-16.478289858
 11
-12.9605750159
 21
-16.2787532114
  0
LINE
  5
3C1
100
AcDbEntity
  8
0
100
AcDbLine
 62
7
  6
CONTINUOUS
 10
-12.7823598493
 20
-16.2008428109
 11
-12.7101150794
 21
-16.0013061643
  0
LWPOLYLINE
  5
3C2
100
AcDbEntity
  8
0
100
AcDbPolyline
 62
250
  6
CONTINUOUS
 90
10
 70
0
 10
24.6588903196
 20
18.6148165203
 10
24.2384943952
 20
18.3750349462
 10
23.8243601153
 20
18.1314849941
 10
23.4162985812
 20
17.8840853497
 10
23.0145096641
 20
17.6330014881
 10
22.6184138672
 20
17.3779193435
 10
22.2266968747
 20
17.1179998193
 10
21.838843614
 20
16.8528665518
 10
21.4550936907
 20
16.5826513865
 10
21.0753044404
 20
16.3072362442
  0
LWPOLYLINE
  5
3C3
100
AcDbEntity
  8
0
100
AcDbPolyline
 62
250
  6
CONTINUOUS
 90
10
 70
0
 10
19.0719353755
 20
-11.7009334847
 10
19.6726571122
 20
-11.8516293812
 10
20.2951127176
 20
-12.0011985907
 10
20.9339310927
 20
-12.1485377193
 10
21.5821900016
 20
-12.2922214483
 10
22.2349402067
 20
-12.4312885246
 10
22.8890942579
 20
-12.5651194186
 10
23.5385364594
 20
-12.6924010237
 10
24.1741985505
 20
-12.8112428764
 10
24.7874990302
 20
-12.9198763896
  0
LINE
  5
3C4
100
AcDbEntity
  8
DRAFT
100
AcDbLine
 62
7
  6
CONTINUOUS
 10
-23.1270695028
 20
1.5361519016
 11
-22.4755853781
 21
1.3360874384
  0
LWPOLYLINE
  5
3C5
100
AcDbEntity
  8
0
100
AcDbPolyline
 62
250
  6
CONTINUOUS
 90
10
 70
0
 10
-26.7092361936
 20
2.3580207781
 10
-27.2666567106
 20
2.5629791477
 10
-27.8358113553
 20
2.7793419018
 10
-28.4120289493
 20
3.0051285481
 10
-28.9892851153
 20
3.2377886259
 10
-29.5633466768
 20
3.4754635577
 10
-30.1315473986
 20
3.7170059724
 10
-30.6884957918
 20
3.9601952314
 10
-31.2262699798
 20
4.2017042919
 10
-31.7373994629
 20
4.4383723269
  0
LINE
  5
3C6
100
AcDbEntity
  8
0
100
AcDbLine
 62
250
  6
CONTINUOUS
 10
30.4445414711
 20
-36.0296178186
 11
29.6250898839
 21
-35.3272389297
  0
LINE
  5
3C7
100
AcDbEntity
  8
0
100
AcDbLine
 62
250
  6
CONTINUOUS
 10
31.2498916736
 20
-36.7276676386
 11
30.4445414711
 21
-36.0296178186
  0
LINE
  5
3C8
100
AcDbEntity
  8
0
100
AcDbLine
 62
250
  6
CONTINUOUS
 10
32.0511772952
 20
-37.4301051468
 11
31.2498916736
 21
-36.7276676386
  0
LINE
  5
3C9
100
AcDbEntity
  8
0
100
AcDbLine
 62
250
  6
CONTINUOUS
 10
32.8538841405
 20
-38.1418257624
 11
32.0511772952
 21
-37.4301051468
  0
LWPOLYLINE
  5
3CA
100
AcDbEntity
  8
0
100
AcDbPolyline
 62
250
  6
CONTINUOUS
 90
10
 70
0
 10
-27.1410191517
 20
19.9547287805
 10
-27.6118532017
 20
20.4793959592
 10
-28.0712360072
 20
20.9995478676
 10
-28.5206613618
 20
21.5168420444
 10
-28.960575596
 20
22.0316939567
 10
-29.3933034024
 20
22.5466917288
 10
-29.8229987416
 20
23.0667313111
 10
-30.2518196854
 20
23.5944666933
 10
-30.6799795463
 20
24.1301773635
 10
-31.1086355132
 20
24.6752738105
  0
LWPOLYLINE
  5
3CB
100
AcDbEntity
  8
0
100
AcDbPolyline
 62
250
  6
CONTINUOUS
 90
22
 70
0
 10
16.2122855989
 20
-29.819245465
 10
16.1835410562
 20
-29.7856574018
 10
16.1592545383
 20
-29.7425912516
 10
16.1395800755
 20
-29.69028117
 10
16.1246435829
 20
-29.6289525492
 10
16.1146055363
 20
-29.5590706437
 10
16.1095922717
 20
-29.481437811
 10
16.1096578515
 20
-29.3964431139
 10
16.1148597003
 20
-29.3050203348
 10
16.1250653409
 20
-29.2091584523
 10
16.1401162071
 20
-29.1097918184
 10
16.1598388846
 20
-29.0079583935
 10
16.183706599
 20
-28.9060648104
 10
16.2112923795
 20
-28.8054145084
 10
16.2423384622
 20
-28.7066295372
 10
16.2763542909
 20
-28.611046058
 10
16.3128463265
 20
-28.5197640986
 10
16.3516188548
 20
-28.4330630277
 10
16.3926598254
 20
-28.3509668118
 10
16.4358391402
 20
-28.2738858919
 10
16.4808444006
 20
-28.2025456571
 10
16.5274637293
 20
-28.1374310004
  0
LWPOLYLINE
  5
3CC
100
AcDbEntity
  8
0
100
AcDbPolyline
 62
250
  6
CONTINUOUS
 90
7
 70
0
 10
16.6043337931
 20
-32.5304436633
 10
16.9304765649
 20
-32.9355528365
 10
17.2583944034
 20
-33.336355639
 10
17.5875277811
 20
-33.7322157655
 10
17.9173172743
 20
-34.1224970282
 10
18.2472035627
 20
-34.5065633577
 10
18.57662743
 20
-34.8837788023
  0
LWPOLYLINE
  5
3CD
100
AcDbEntity
  8
0
100
AcDbPolyline
 62
250
  6
CONTINUOUS
 90
4
 70
0
 10
15.8648167542
 20
-31.5497988846
 10
16.1116865187
 20
-31.8689355038
 10
16.3620480875
 20
-32.1884685492
 10
16.5628906412
 20
-32.4415541447
  0
LINE
  5
3CE
100
AcDbEntity
  8
0
100
AcDbLine
 62
250
  6
CONTINUOUS
 10
15.6216586206
 20
-31.2313803224
 11
15.8648167542
 21
-31.5497988846
  0
LINE
  5
3CF
100
AcDbEntity
  8
0
100
AcDbLine
 62
250
  6
CONTINUOUS
 10
15.382422539
 20
-30.9139902866
 11
15.6216586206
 21
-31.2313803224
  0
LINE
  5
3D0
100
AcDbEntity
  8
0
100
AcDbLine
 62
250
  6
CONTINUOUS
 10
15.1473096764
 20
-30.5979282568
 11
15.382422539
 21
-30.9139902866
  0
LINE
  5
3D1
100
AcDbEntity
  8
0
100
AcDbLine
 62
250
  6
CONTINUOUS
 10
14.966658257
 20
-30.3900167778
 11
15.1331385925
 21
-30.6164387713
  0
LINE
  5
3D2
100
AcDbEntity
  8
0
100
AcDbLine
 62
250
  6
CONTINUOUS
 10
14.8023768236
 20
-30.1643943646
 11
14.966658257
 21
-30.3900167778
  0
LWPOLYLINE
  5
3D3
100
AcDbEntity
  8
0
100
AcDbPolyline
 62
250
  6
CONTINUOUS
 90
10
 70
0
 10
-31.2927291409
 20
35.7970167997
 10
-30.9655878984
 20
35.327674054
 10
-30.6429098768
 20
34.8578563745
 10
-30.324549554
 20
34.3873797483
 10
-30.0106653367
 20
33.9165196745
 10
-29.700807192
 20
33.4446459257
 10
-29.3939473593
 20
32.97020017
 10
-29.0896804146
 20
32.4925233642
 10
-28.788192545
 20
32.0118781104
 10
-28.4893706847
 20
31.5280677947
  0
LINE
  5
3D4
100
AcDbEntity
  8
0
100
AcDbLine
 62
7
  6
CONTINUOUS
 10
8.9730160657
 20
-30.5237367053
 11
8.7294434483
 21
-29.9940617543
  0
LINE
  5
3D5
100
AcDbEntity
  8
0
100
AcDbLine
 62
7
  6
CONTINUOUS
 10
8.7440277745
 20
-29.9787534898
 11
8.9867626122
 21
-30.5065103636
  0
LINE
  5
3D6
100
AcDbEntity
  8
0
100
AcDbLine
 62
7
  6
CONTINUOUS
 10
8.7294434483
 20
-29.9940617543
 11
8.4944475034
 21
-29.4719195191
  0
LINE
  5
3D7
100
AcDbEntity
  8
0
100
AcDbLine
 62
7
  6
CONTINUOUS
 10
8.5093713633
 20
-29.4574612003
 11
8.7440277745
 21
-29.9787534898
  0
LINE
  5
3D8
100
AcDbEntity
  8
0
100
AcDbLine
 62
7
  6
CONTINUOUS
 10
9.000512975
 20
-29.604443474
 11
9.16295263
 21
-29.9665974534
  0
LINE
  5
3D9
100
AcDbEntity
  8
0
100
AcDbLine
 62
7
  6
CONTINUOUS
 10
8.282773741
 20
-28.9426942891
 11
8.5093713633
 21
-29.4574612003
  0
LINE
  5
3DA
100
AcDbEntity
  8
0
100
AcDbLine
 62
7
  6
CONTINUOUS
 10
8.4944475034
 20
-29.4719195191
 11
8.268001631
 21
-28.9573818611
  0
LWPOLYLINE
  5
3DB
100
AcDbEntity
  8
0
100
AcDbPolyline
 62
7
  6
CONTINUOUS
 90
3
 70
0
 10
8.7637326931
 20
-29.0664146405
 10
8.841742248
 20
-29.2450642171
 10
9.000512975
 20
-29.604443474
  0
LWPOLYLINE
  5
3DC
100
AcDbEntity
  8
0
100
AcDbPolyline
 62
7
  6
CONTINUOUS
 90
3
 70
0
 10
8.268001631
 20
-28.9573818611
 10
8.0499994317
 20
-28.450736226
 10
7.9441713594
 20
-28.2003549517
  0
LWPOLYLINE
  5
3DD
100
AcDbEntity
  8
0
100
AcDbPolyline
 62
7
  6
CONTINUOUS
 90
3
 70
0
 10
7.96820674
 20
-28.2077297815
 10
8.0641563577
 20
-28.4346959328
 10
8.282773741
 20
-28.9426942891
  0
LWPOLYLINE
  5
3DE
100
AcDbEntity
  8
0
100
AcDbPolyline
 62
250
  6
CONTINUOUS
 90
10
 70
0
 10
-2.8645344122
 20
-28.7785067804
 10
-2.9276631753
 20
-28.3596502399
 10
-2.9891276259
 20
-27.9175205269
 10
-3.0482297341
 20
-27.4580290711
 10
-3.1042586103
 20
-26.9873253452
 10
-3.1567219989
 20
-26.5098744846
 10
-3.2053015681
 20
-26.0283116445
 10
-3.2495439899
 20
-25.5462178782
 10
-3.2889022818
 20
-25.0682872966
 10
-3.3229387363
 20
-24.5982855534
  0
LINE
  5
3DF
100
AcDbEntity
  8
0
100
AcDbLine
 62
7
  6
CONTINUOUS
 10
-7.9326918899
 20
-18.5460324882
 11
-7.928871687
 21
-18.5326622911
  0
LINE
  5
3E0
100
AcDbEntity
  8
0
100
AcDbLine
 62
7
  6
CONTINUOUS
 10
-7.7833311308
 20
-18.4447178343
 11
-7.7250897653
 21
-18.2408808779
  0
LINE
  5
3E1
100
AcDbEntity
  8
0
100
AcDbLine
 62
7
  6
CONTINUOUS
 10
-7.5795492091
 20
-18.152936421
 11
-7.5213078437
 21
-17.9490994646
  0
LINE
  5
3E2
100
AcDbEntity
  8
0
100
AcDbLine
 62
7
  6
CONTINUOUS
 10
-7.3757672875
 20
-17.8611550078
 11
-7.3175259221
 21
-17.6573180514
  0
LINE
  5
3E3
100
AcDbEntity
  8
RACCORDO
100
AcDbLine
 62
250
  6
CONTINUOUS
 10
-7.154026564
 20
-18.3586120224
 11
-7.1611143021
 21
-18.3757850125
  0
LWPOLYLINE
  5
3E4
100
AcDbEntity
  8
0
100
AcDbPolyline
 62
250
  6
CONTINUOUS
 90
10
 70
0
 10
-21.4482542963
 20
-19.0321767423
 10
-21.7546733163
 20
-19.3472019686
 10
-22.0671608284
 20
-19.6604410043
 10
-22.3849379873
 20
-19.9710470552
 10
-22.7080621342
 20
-20.2789637304
 10
-23.0347758858
 20
-20.5823884535
 10
-23.3615006667
 20
-20.8779796178
 10
-23.6864171336
 20
-21.1641790271
 10
-24.009470407
 20
-21.4410037226
 10
-24.3297165553
 20
-21.7076562392
  0
LINE
  5
3E5
100
AcDbEntity
  8
0
100
AcDbLine
 62
250
  6
CONTINUOUS
 10
20.6634761084
 20
15.9994882867
 11
21.0753044404
 21
16.3072362442
  0
LINE
  5
3E6
100
AcDbEntity
  8
RACCORDO
100
AcDbLine
 62
250
  6
CONTINUOUS
 10
34.3617010287
 20
-13.6364406431
 11
34.6820070656
 21
-13.7348035239
  0
LINE
  5
3E7
100
AcDbEntity
  8
RACCORDO
100
AcDbLine
 62
7
  6
CONTINUOUS
 10
34.3600629153
 20
-13.5705910605
 11
34.7726826682
 21
-13.6973025892
  0
LINE
  5
3E8
100
AcDbEntity
  8
0
100
AcDbLine
 62
7
  6
CONTINUOUS
 10
34.8938720704
 20
-13.598022085
 11
35.6074931422
 21
-13.8171682027
  0
LINE
  5
3E9
100
AcDbEntity
  8
0
100
AcDbLine
 62
7
  6
CONTINUOUS
 10
18.560244083
 20
-32.5847289635
 11
19.2128786655
 21
-33.5771692362
  0
LINE
  5
3EA
100
AcDbEntity
  8
0
100
AcDbLine
 62
7
  6
CONTINUOUS
 10
18.6194006996
 20
-33.4130207221
 11
18.207749728
 21
-32.7856312643
  0
LINE
  5
3EB
100
AcDbEntity
  8
0
100
AcDbLine
 62
7
  6
CONTINUOUS
 10
18.2219955175
 20
-32.7691770659
 11
18.6331544977
 21
-33.3957852932
  0
LINE
  5
3EC
100
AcDbEntity
  8
0
100
AcDbLine
 62
7
  6
CONTINUOUS
 10
18.207749728
 20
-32.7856312643
 11
18.0065377364
 21
-32.4767416203
  0
LINE
  5
3ED
100
AcDbEntity
  8
0
100
AcDbLine
 62
7
  6
CONTINUOUS
 10
18.0202787115
 20
-32.4595222604
 11
18.2219955175
 21
-32.7691770659
  0
LINE
  5
3EE
100
AcDbEntity
  8
0
100
AcDbLine
 62
7
  6
CONTINUOUS
 10
12.7117187421
 20
-31.6560759033
 11
12.572112123
 21
-31.3328668294
  0
LINE
  5
3EF
100
AcDbEntity
  8
0
100
AcDbLine
 62
7
  6
CONTINUOUS
 10
12.585833339
 20
-31.3155997919
 11
12.7254712459
 21
-31.6388420963
  0
LINE
  5
3F0
100
AcDbEntity
  8
0
100
AcDbLine
 62
7
  6
CONTINUOUS
 10
8.6104686543
 20
-28.7112368773
 11
8.7637326931
 21
-29.0664146405
  0
LINE
  5
3F1
100
AcDbEntity
  8
0
100
AcDbLine
 62
7
  6
CONTINUOUS
 10
12.572112123
 20
-31.3328668294
 11
12.4319620316
 21
-31.0040629894
  0
LINE
  5
3F2
100
AcDbEntity
  8
0
100
AcDbLine
 62
7
  6
CONTINUOUS
 10
12.4456642655
 20
-30.9867887582
 11
12.585833339
 21
-31.3155997919
  0
LINE
  5
3F3
100
AcDbEntity
  8
0
100
AcDbLine
 62
7
  6
CONTINUOUS
 10
8.4608779387
 20
-28.3588863831
 11
8.6104686543
 21
-28.7112368773
  0
LINE
  5
3F4
100
AcDbEntity
  8
0
100
AcDbLine
 62
7
  6
CONTINUOUS
 10
12.3049782133
 20
-30.6523942907
 11
12.4456642655
 21
-30.9867887582
  0
LINE
  5
3F5
100
AcDbEntity
  8
0
100
AcDbLine
 62
7
  6
CONTINUOUS
 10
12.4319620316
 20
-31.0040629894
 11
12.2912828148
 21
-30.6696495229
  0
LINE
  5
3F6
100
AcDbEntity
  8
0
100
AcDbLine
 62
7
  6
CONTINUOUS
 10
12.7515155529
 20
-30.6888074309
 11
12.8921765024
 21
-31.0242607859
  0
LWPOLYLINE
  5
3F7
100
AcDbEntity
  8
0
100
AcDbPolyline
 62
7
  6
CONTINUOUS
 90
3
 70
0
 10
12.2912828148
 20
-30.6696495229
 10
12.1501318599
 20
-30.3295669888
 10
12.0793758941
 20
-30.1574035364
  0
LINE
  5
3F8
100
AcDbEntity
  8
0
100
AcDbLine
 62
7
  6
CONTINUOUS
 10
12.1638319335
 20
-30.3123575715
 11
12.3049782133
 21
-30.6523942907
  0
LINE
  5
3F9
100
AcDbEntity
  8
0
100
AcDbLine
 62
7
  6
CONTINUOUS
 10
12.6134137095
 20
-30.3552284549
 11
12.7515155529
 21
-30.6888074309
  0
LINE
  5
3FA
100
AcDbEntity
  8
0
100
AcDbLine
 62
7
  6
CONTINUOUS
 10
12.0930826613
 20
-30.1402270436
 11
12.1638319335
 21
-30.3123575715
  0
LINE
  5
3FB
100
AcDbEntity
  8
0
100
AcDbLine
 62
7
  6
CONTINUOUS
 10
12.4778637262
 20
-30.0235424813
 11
12.6134137095
 21
-30.3552284549
  0
LWPOLYLINE
  5
3FC
100
AcDbEntity
  8
0
100
AcDbPolyline
 62
7
  6
CONTINUOUS
 90
3
 70
0
 10
12.2792709557
 20
-29.529697919
 10
12.3448366191
 20
-29.6938240031
 10
12.4778637262
 20
-30.0235424813
  0
LWPOLYLINE
  5
3FD
100
AcDbEntity
  8
RACCORDO
100
AcDbPolyline
 62
250
  6
CONTINUOUS
 90
3
 70
0
 10
-7.1488795245
 20
-18.3205953476
 10
-7.1400670463
 20
-18.3054974086
 10
-7.1343159832
 20
-18.2898626489
  0
LINE
  5
3FE
100
AcDbEntity
  8
RACCORDO
100
AcDbLine
 62
250
  6
CONTINUOUS
 10
-7.1611143021
 20
-18.3757850125
 11
-7.1679885959
 21
-18.3870608582
  0
LINE
  5
3FF
100
AcDbEntity
  8
RACCORDO
100
AcDbLine
 62
7
  6
CONTINUOUS
 10
-7.1748785769
 20
-17.4530710621
 11
-7.3175259221
 21
-17.6573180514
  0
LINE
  5
400
100
AcDbEntity
  8
0
100
AcDbLine
 62
7
  6
CONTINUOUS
 10
-7.439795075
 20
-17.8323868993
 11
-7.5213078437
 21
-17.9490994646
  0
LINE
  5
401
100
AcDbEntity
  8
0
100
AcDbLine
 62
7
  6
CONTINUOUS
 10
-7.6435769967
 20
-18.1241683126
 11
-7.7250897653
 21
-18.2408808779
  0
LINE
  5
402
100
AcDbEntity
  8
0
100
AcDbLine
 62
7
  6
CONTINUOUS
 10
-7.8473589183
 20
-18.4159497258
 11
-7.928871687
 21
-18.5326622911
  0
LWPOLYLINE
  5
403
100
AcDbEntity
  8
RACCORDO
100
AcDbPolyline
 62
7
  6
CONTINUOUS
 90
5
 70
0
 10
-7.1706072415
 20
-17.4471753165
 10
-7.1615568804
 20
-17.4346828423
 10
-7.1558492116
 20
-17.4238735957
 10
-7.1531772184
 20
-17.4150349683
 10
-7.1528749121
 20
-17.4111638281
  0
LINE
  5
404
100
AcDbEntity
  8
RACCORDO
100
AcDbLine
 62
7
  6
CONTINUOUS
 10
-12.5347931238
 20
-15.8070932313
 11
-12.7101150794
 21
-16.0013061643
  0
LINE
  5
405
100
AcDbEntity
  8
0
100
AcDbLine
 62
7
  6
CONTINUOUS
 10
-12.8603910413
 20
-16.1677743926
 11
-12.9605750159
 21
-16.2787532114
  0
LINE
  5
406
100
AcDbEntity
  8
0
100
AcDbLine
 62
7
  6
CONTINUOUS
 10
-13.1108509778
 20
-16.4452214397
 11
-13.2110349524
 21
-16.5562002585
  0
LINE
  5
407
100
AcDbEntity
  8
0
100
AcDbLine
 62
7
  6
CONTINUOUS
 10
-13.3613109143
 20
-16.7226684868
 11
-13.4614948889
 21
-16.8336473056
  0
LWPOLYLINE
  5
408
100
AcDbEntity
  8
0
100
AcDbPolyline
 62
250
  6
CONTINUOUS
 90
10
 70
0
 10
13.8109532999
 20
9.6892640904
 10
14.1751129157
 20
10.0766463873
 10
14.550524325
 20
10.4687378566
 10
14.9362851043
 20
10.8645368476
 10
15.3325214989
 20
11.2640733092
 10
15.7371428129
 20
11.6651269946
 10
16.1457261034
 20
12.0632982283
 10
16.5559519717
 20
12.4564021876
 10
16.9677182712
 20
12.8443966651
 10
17.3798161298
 20
13.2261521854
  0
LWPOLYLINE
  5
409
100
AcDbEntity
  8
0
100
AcDbPolyline
 62
250
  6
CONTINUOUS
 90
3
 70
0
 10
17.3798161298
 20
13.2261521854
 10
17.7937873989
 20
13.6032936635
 10
18.2047569068
 20
13.9710955316
  0
LWPOLYLINE
  5
40A
100
AcDbEntity
  8
0
100
AcDbPolyline
 62
250
  6
CONTINUOUS
 90
7
 70
0
 10
18.2047569068
 20
13.9710955316
 10
18.6140552695
 20
14.3300982318
 10
19.0239098682
 20
14.6816290292
 10
19.4346211314
 20
15.0253675475
 10
19.8444673163
 20
15.3594686245
 10
20.2534664941
 20
15.6837334984
 10
20.6634761084
 20
15.9994882867
  0
LWPOLYLINE
  5
40B
100
AcDbEntity
  8
0
100
AcDbPolyline
 62
250
  6
CONTINUOUS
 90
3
 70
0
 10
-24.9629259151
 20
-22.2122468544
 10
-24.6486860232
 20
-21.9656989058
 10
-24.3297165553
 20
-21.7076562392
  0
LINE
  5
40C
100
AcDbEntity
  8
0
100
AcDbLine
 62
250
  6
CONTINUOUS
 10
19.3338233888
 20
11.6492378007
 11
21.1733139791
 21
13.0882982603
  0
LWPOLYLINE
  5
40D
100
AcDbEntity
  8
0
100
AcDbPolyline
 62
250
  6
CONTINUOUS
 90
5
 70
0
 10
21.1733139791
 20
13.0882982603
 10
21.6351174177
 20
13.447151638
 10
22.0935451665
 20
13.7996650754
 10
22.5503963023
 20
14.1460574376
 10
23.0061331444
 20
14.4855846443
  0
LINE
  5
40E
100
AcDbEntity
  8
0
100
AcDbLine
 62
250
  6
CONTINUOUS
 10
18.4741704304
 20
10.9848418544
 11
19.3338233888
 21
11.6492378007
  0
LINE
  5
40F
100
AcDbEntity
  8
0
100
AcDbLine
 62
250
  6
CONTINUOUS
 10
17.624665837
 20
10.3356664596
 11
18.4741704304
 21
10.9848418544
  0
LINE
  5
410
100
AcDbEntity
  8
0
100
AcDbLine
 62
250
  6
CONTINUOUS
 10
16.7703225777
 20
9.6903519947
 11
17.624665837
 21
10.3356664596
  0
LINE
  5
411
100
AcDbEntity
  8
0
100
AcDbLine
 62
250
  6
CONTINUOUS
 10
15.901788623
 20
9.0419919726
 11
16.7703225777
 21
9.6903519947
  0
LWPOLYLINE
  5
412
100
AcDbEntity
  8
0
100
AcDbPolyline
 62
250
  6
CONTINUOUS
 90
3
 70
0
 10
23.0061331444
 20
14.4855846443
 10
23.4598052281
 20
14.8165433201
 10
23.9111714777
 20
15.1378751071
  0
LWPOLYLINE
  5
413
100
AcDbEntity
  8
0
100
AcDbPolyline
 62
250
  6
CONTINUOUS
 90
3
 70
0
 10
23.8111534689
 20
13.3004020119
 10
24.7878719516
 20
13.9996900991
 10
25.2689093236
 20
14.3388638793
  0
LWPOLYLINE
  5
414
100
AcDbEntity
  8
0
100
AcDbPolyline
 62
250
  6
CONTINUOUS
 90
4
 70
0
 10
20.8491415188
 20
11.164466426
 10
21.3372006087
 20
11.5113915389
 10
21.829080868
 20
11.864760233
 10
23.8111534689
 20
13.3004020119
  0
LINE
  5
415
100
AcDbEntity
  8
0
100
AcDbLine
 62
250
  6
CONTINUOUS
 10
25.7213046533
 20
14.6536035779
 11
25.2689093236
 21
14.3388638793
  0
LWPOLYLINE
  5
416
100
AcDbEntity
  8
0
100
AcDbPolyline
 62
250
  6
CONTINUOUS
 90
10
 70
0
 10
23.9111714777
 20
15.1378751071
 10
24.3325363334
 20
15.4300569345
 10
24.7596258041
 20
15.718659291
 10
25.1922221125
 20
16.0035311794
 10
25.6302614858
 20
16.2846191501
 10
26.0733754311
 20
16.5616716586
 10
26.5208734427
 20
16.8342534787
 10
26.9723640972
 20
17.1021340995
 10
27.4277723419
 20
17.3652733098
 10
27.8868686589
 20
17.6235356448
  0
LINE
  5
417
100
AcDbEntity
  8
0
100
AcDbLine
 62
250
  6
CONTINUOUS
 10
26.1814238428
 20
14.9693369043
 11
25.7213046533
 21
14.6536035779
  0
LINE
  5
418
100
AcDbEntity
  8
0
100
AcDbLine
 62
250
  6
CONTINUOUS
 10
-25.3278399407
 20
-19.5528324342
 11
-27.4627815902
 21
-20.9615065641
  0
LWPOLYLINE
  5
419
100
AcDbEntity
  8
0
100
AcDbPolyline
 62
250
  6
CONTINUOUS
 90
5
 70
0
 10
28.0783948266
 20
16.2278239966
 10
27.5999882683
 20
15.9167715446
 10
27.1217905003
 20
15.6016416115
 10
26.6482274412
 20
15.2853432702
 10
26.1814238428
 20
14.9693369043
  0
LINE
  5
41A
100
AcDbEntity
  8
0
100
AcDbLine
 62
250
  6
CONTINUOUS
 10
-23.539089441
 20
-18.3849046792
 11
-25.3278399407
 21
-19.5528324342
  0
LWPOLYLINE
  5
41B
100
AcDbEntity
  8
0
100
AcDbPolyline
 62
250
  6
CONTINUOUS
 90
16
 70
0
 10
29.4608859424
 20
17.1401701861
 10
29.5363873838
 20
17.1883292724
 10
29.6128927862
 20
17.2400817985
 10
29.6897883695
 20
17.2949074354
 10
29.7669557287
 20
17.3526657122
 10
29.8433373061
 20
17.4125304088
 10
29.9169755486
 20
17.4728531392
 10
29.986996234
 20
17.5327242764
 10
30.053473826
 20
17.5920286925
 10
30.116028768
 20
17.6502776178
 10
30.1742357223
 20
17.7069125728
 10
30.2281596084
 20
17.7618357668
 10
30.2781795251
 20
17.8153216181
 10
30.3243056959
 20
17.8673198718
 10
30.3662644814
 20
17.9174598302
 10
30.4039849412
 20
17.9655754689
  0
LWPOLYLINE
  5
41C
100
AcDbEntity
  8
0
100
AcDbPolyline
 62
250
  6
CONTINUOUS
 90
10
 70
0
 10
16.9014939244
 20
8.5229995113
 10
17.3566864095
 20
8.8128032559
 10
17.802116589
 20
9.0997759399
 10
18.2404383321
 20
9.3856982244
 10
18.6743617558
 20
9.672383848
 10
19.1061173575
 20
9.9613265193
 10
19.5374475887
 20
10.2536788694
 10
19.970315096
 20
10.5507261434
 10
20.4069168893
 20
10.8539113008
 10
20.8491415188
 20
11.164466426
  0
LINE
  5
41D
100
AcDbEntity
  8
0
100
AcDbLine
 62
250
  6
CONTINUOUS
 10
25.0152295964
 20
10.9062862802
 11
27.6276907625
 21
12.5701752595
  0
LINE
  5
41E
100
AcDbEntity
  8
0
100
AcDbLine
 62
250
  6
CONTINUOUS
 10
25.6520363702
 20
11.0299443352
 11
31.5373453672
 21
14.7805201613
  0
LINE
  5
41F
100
AcDbEntity
  8
0
100
AcDbLine
 62
250
  6
CONTINUOUS
 10
29.5786123502
 20
13.8014059052
 11
27.6276907625
 21
12.5701752595
  0
LWPOLYLINE
  5
420
100
AcDbEntity
  8
0
100
AcDbPolyline
 62
250
  6
CONTINUOUS
 90
4
 70
0
 10
29.5008560296
 20
17.1279412126
 10
29.0292750911
 20
16.8336518484
 10
28.554793063
 20
16.5334145097
 10
28.0783948266
 20
16.2278239966
  0
LINE
  5
421
100
AcDbEntity
  8
0
100
AcDbLine
 62
250
  6
CONTINUOUS
 10
31.52686182
 20
15.0156375862
 11
29.5786123502
 21
13.8014059052
  0
LWPOLYLINE
  5
422
100
AcDbEntity
  8
0
100
AcDbPolyline
 62
250
  6
CONTINUOUS
 90
5
 70
0
 10
22.4530401717
 20
9.3194044781
 10
22.9538230495
 20
9.6216316331
 10
23.4622140306
 20
9.9332968551
 10
23.9766890416
 20
10.2526878171
 10
25.0152295964
 20
10.9062862802
  0
LWPOLYLINE
  5
423
100
AcDbEntity
  8
0
100
AcDbPolyline
 62
250
  6
CONTINUOUS
 90
6
 70
0
 10
22.5669195828
 20
9.1369284577
 10
23.0668292975
 20
9.4336114724
 10
23.5745864755
 20
9.739931894
 10
24.0885588098
 20
10.0542785247
 10
24.6057154316
 20
10.374184926
 10
25.6520363702
 20
11.0299443352
  0
LWPOLYLINE
  5
424
100
AcDbEntity
  8
0
100
AcDbPolyline
 62
250
  6
CONTINUOUS
 90
3
 70
0
 10
-29.7705384569
 20
-20.8029896015
 10
-28.1936965099
 20
-19.8751157013
 10
-27.7990419532
 20
-19.6459704909
  0
LWPOLYLINE
  5
425
100
AcDbEntity
  8
0
100
AcDbPolyline
 62
250
  6
CONTINUOUS
 90
5
 70
0
 10
-31.3103260413
 20
-21.6819110231
 10
-30.9310131456
 20
-21.4708897471
 10
-30.5476131053
 20
-21.2534031516
 10
-30.160631986
 20
-21.0304267357
 10
-29.7705384569
 20
-20.8029896015
  0
LWPOLYLINE
  5
426
100
AcDbEntity
  8
0
100
AcDbPolyline
 62
250
  6
CONTINUOUS
 90
7
 70
0
 10
19.7023739498
 20
7.748371105
 10
20.1603927301
 20
7.9990941905
 10
20.6157979215
 20
8.2527564344
 10
21.0703776082
 20
8.5103352848
 10
21.5263771844
 20
8.7730341056
 10
21.9865273187
 20
9.0423301682
 10
22.4530401717
 20
9.3194044781
  0
LWPOLYLINE
  5
427
100
AcDbEntity
  8
0
100
AcDbPolyline
 62
250
  6
CONTINUOUS
 90
9
 70
0
 10
23.1344530848
 20
8.0177468067
 10
23.6253733137
 20
8.2823562568
 10
24.123223189
 20
8.557779465
 10
24.6267988972
 20
8.8431920421
 10
25.1336118153
 20
9.1370100579
 10
25.6436239998
 20
9.4390485384
 10
26.1592454859
 20
9.7506728672
 10
26.6802941939
 20
10.0718062698
 10
27.2039948674
 20
10.4007755354
  0
LWPOLYLINE
  5
428
100
AcDbEntity
  8
0
100
AcDbPolyline
 62
250
  6
CONTINUOUS
 90
7
 70
0
 10
19.792549398
 20
7.5818020675
 10
20.2545955087
 20
7.8296607681
 10
20.7138174496
 20
8.0804675476
 10
21.1723251097
 20
8.3353576184
 10
21.6324094025
 20
8.5955473013
 10
22.0965573461
 20
8.8623597953
 10
22.5669195828
 20
9.1369284577
  0
LWPOLYLINE
  5
429
100
AcDbEntity
  8
0
100
AcDbPolyline
 62
250
  6
CONTINUOUS
 90
9
 70
0
 10
-24.9216092811
 20
-18.0650162916
 10
-25.2946378649
 20
-18.261259669
 10
-25.6600696071
 20
-18.4558406069
 10
-26.0201422158
 20
-18.6499808498
 10
-26.3766968935
 20
-18.8446862651
 10
-26.7311785579
 20
-19.0407366331
 10
-27.0852208601
 20
-19.2390049212
 10
-27.4406506051
 20
-19.4404701705
 10
-27.7990419532
 20
-19.6459704909
  0
LWPOLYLINE
  5
42A
100
AcDbEntity
  8
0
100
AcDbPolyline
 62
250
  6
CONTINUOUS
 90
4
 70
0
 10
18.2831607376
 20
6.9973318321
 10
18.7671361227
 20
7.2493808911
 10
19.2391083581
 20
7.4991109149
 10
19.7023739498
 20
7.748371105
  0
LINE
  5
42B
100
AcDbEntity
  8
0
100
AcDbLine
 62
250
  6
CONTINUOUS
 10
-24.5387947425
 20
-17.8659122179
 11
-24.9216092811
 21
-18.0650162916
  0
LWPOLYLINE
  5
42C
100
AcDbEntity
  8
0
100
AcDbPolyline
 62
250
  6
CONTINUOUS
 90
6
 70
0
 10
-35.0998678399
 20
-18.7309421501
 10
-35.4251797167
 20
-18.8966848544
 10
-35.747682616
 20
-19.0636123641
 10
-36.0673910492
 20
-19.2317323496
 10
-36.3843043582
 20
-19.4010445668
 10
-36.6984295421
 20
-19.5715527039
  0
LWPOLYLINE
  5
42D
100
AcDbEntity
  8
0
100
AcDbPolyline
 62
250
  6
CONTINUOUS
 90
4
 70
0
 10
18.3612055809
 20
6.8404690696
 10
18.8489778764
 20
7.0889159108
 10
19.3250543448
 20
7.3354575801
 10
19.792549398
 20
7.5818020675
  0
LINE
  5
42E
100
AcDbEntity
  8
0
100
AcDbLine
 62
250
  6
CONTINUOUS
 10
-33.1914757505
 20
-19.609358128
 11
-31.0631118481
 21
-18.5811249523
  0
LWPOLYLINE
  5
42F
100
AcDbEntity
  8
0
100
AcDbPolyline
 62
250
  6
CONTINUOUS
 90
5
 70
0
 10
-33.7701271592
 20
-18.0796207646
 10
-34.1068500248
 20
-18.240709727
 10
-34.4407106527
 20
-18.4029579812
 10
-34.7717166342
 20
-18.566368949
 10
-35.0998678399
 20
-18.7309421501
  0
LINE
  5
430
100
AcDbEntity
  8
0
100
AcDbLine
 62
250
  6
CONTINUOUS
 10
-31.5951684728
 20
-18.5781657399
 11
-34.0440371401
 21
-19.7476905735
  0
LWPOLYLINE
  5
431
100
AcDbEntity
  8
0
100
AcDbPolyline
 62
250
  6
CONTINUOUS
 90
4
 70
0
 10
-31.0631118481
 20
-18.5811249523
 10
-30.227099215
 20
-18.1828884023
 10
-29.8128472068
 20
-17.9892095762
 10
-29.4029406004
 20
-17.8009085359
  0
LINE
  5
432
100
AcDbEntity
  8
0
100
AcDbLine
 62
250
  6
CONTINUOUS
 10
-33.95528327
 20
-19.9729170863
 11
-33.1914757505
 21
-19.609358128
  0
LINE
  5
433
100
AcDbEntity
  8
0
100
AcDbLine
 62
250
  6
CONTINUOUS
 10
-34.0440371401
 20
-19.7476905735
 11
-35.1747064388
 21
-20.2819065433
  0
LINE
  5
434
100
AcDbEntity
  8
0
100
AcDbLine
 62
250
  6
CONTINUOUS
 10
-34.7295097924
 20
-20.335580916
 11
-33.95528327
 21
-19.9729170863
  0
LWPOLYLINE
  5
435
100
AcDbEntity
  8
0
100
AcDbPolyline
 62
250
  6
CONTINUOUS
 90
3
 70
0
 10
-35.1747064388
 20
-20.2819065433
 10
-36.2957201829
 20
-20.8059331204
 10
-36.6634664211
 20
-20.9765740633
  0
LINE
  5
436
100
AcDbEntity
  8
0
100
AcDbLine
 62
250
  6
CONTINUOUS
 10
-35.5056869685
 20
-20.6934236247
 11
-34.7295097924
 21
-20.335580916
  0
LWPOLYLINE
  5
437
100
AcDbEntity
  8
0
100
AcDbPolyline
 62
250
  6
CONTINUOUS
 90
10
 70
0
 10
23.7134039955
 20
5.7829378499
 10
24.188845165
 20
5.9995736649
 10
24.6681497879
 20
6.2280945206
 10
25.1513157835
 20
6.4686218578
 10
25.6384429838
 20
6.721272263
 10
26.1295674475
 20
6.9860681387
 10
26.6246711028
 20
7.2629276125
 10
27.1239057509
 20
7.5517821923
 10
27.627589471
 20
7.8525820167
 10
28.1360457146
 20
8.1652010376
  0
LWPOLYLINE
  5
438
100
AcDbEntity
  8
0
100
AcDbPolyline
 62
250
  6
CONTINUOUS
 90
5
 70
0
 10
-29.5168200126
 20
-17.6184325169
 10
-29.9263534291
 20
-17.8018614133
 10
-30.3403963751
 20
-17.9907448198
 10
-30.757725881
 20
-18.1839844951
 10
-31.5951684728
 20
-18.5781657399
  0
LWPOLYLINE
  5
439
100
AcDbEntity
  8
0
100
AcDbPolyline
 62
250
  6
CONTINUOUS
 90
3
 70
0
 10
-36.652982874
 20
-21.2116914881
 10
-36.2739293055
 20
-21.0419084692
 10
-35.5056869685
 20
-20.6934236247
  0
LWPOLYLINE
  5
43A
100
AcDbEntity
  8
0
100
AcDbPolyline
 62
250
  6
CONTINUOUS
 90
10
 70
0
 10
-34.1774624188
 20
-15.5082481645
 10
-34.4836278566
 20
-15.6410300206
 10
-34.7841346987
 20
-15.7749435417
 10
-35.0793641763
 20
-15.9101509913
 10
-35.3694183287
 20
-16.0466813991
 10
-35.654965893
 20
-16.1848269414
 10
-35.9372004308
 20
-16.3251594171
 10
-36.2167385627
 20
-16.46799694
 10
-36.4936618962
 20
-16.6133874847
 10
-36.7683336687
 20
-16.7615168132
  0
LWPOLYLINE
  5
43B
100
AcDbEntity
  8
0
100
AcDbPolyline
 62
250
  6
CONTINUOUS
 90
10
 70
0
 10
23.7134039955
 20
5.7829378499
 10
23.1812899196
 20
5.5527120139
 10
22.6390451076
 20
5.3312425762
 10
22.0875619586
 20
5.119010689
 10
21.5262023104
 20
4.9159626853
 10
20.9574000524
 20
4.7231930607
 10
20.3868140177
 20
4.5426449391
 10
19.8170715928
 20
4.3749864706
 10
19.2476165087
 20
4.2199106595
 10
18.679418968
 20
4.0776084384
  0
LWPOLYLINE
  5
43C
100
AcDbEntity
  8
0
100
AcDbPolyline
 62
250
  6
CONTINUOUS
 90
10
 70
0
 10
18.628134142
 20
5.8994652136
 10
19.1527115342
 20
6.118451182
 10
19.666897198
 20
6.3396296453
 10
20.1723523329
 20
6.5636892746
 10
20.6695497018
 20
6.7907632923
 10
21.1610777192
 20
7.021931055
 10
21.6516401718
 20
7.2593683848
 10
22.1437119987
 20
7.5043065188
 10
22.6375419397
 20
7.756883053
 10
23.1344530848
 20
8.0177468067
  0
LWPOLYLINE
  5
43D
100
AcDbEntity
  8
0
100
AcDbPolyline
 62
250
  6
CONTINUOUS
 90
10
 70
0
 10
-30.0843535117
 20
-16.4992508622
 10
-30.4881787604
 20
-16.6547181437
 10
-30.8951032376
 20
-16.8161991349
 10
-31.3041534582
 20
-16.9831580803
 10
-31.7133227065
 20
-17.1546149469
 10
-32.1225897905
 20
-17.3304057524
 10
-32.5338564491
 20
-17.5112589144
 10
-32.9469033731
 20
-17.6970510046
 10
-33.3594498742
 20
-17.8867285751
 10
-33.7701271592
 20
-18.0796207646
  0
LWPOLYLINE
  5
43E
100
AcDbEntity
  8
0
100
AcDbPolyline
 62
250
  6
CONTINUOUS
 90
18
 70
0
 10
17.0585852189
 20
5.5919245391
 10
16.9524932982
 20
5.5799959648
 10
16.8466665207
 20
5.5753273363
 10
16.7417367787
 20
5.5779588879
 10
16.6382729327
 20
5.587909073
 10
16.5371639613
 20
5.6051397851
 10
16.4395669255
 20
5.6294715387
 10
16.3460374912
 20
5.6608144904
 10
16.2577731007
 20
5.6988682762
 10
16.1766713277
 20
5.7427824662
 10
16.1033938277
 20
5.792078972
 10
16.0386920587
 20
5.8462239725
 10
15.9839773963
 20
5.9038661476
 10
15.939663589
 20
5.9641548122
 10
15.9058222237
 20
6.026636238
 10
15.8827557393
 20
6.0903852625
 10
15.8704890507
 20
6.1545737067
 10
15.8683408552
 20
6.1870905498
  0
LINE
  5
43F
100
AcDbEntity
  8
0
100
AcDbLine
 62
7
  6
CONTINUOUS
 10
16.6043338374
 20
-32.5304437577
 11
16.7681760461
 21
-32.8781717995
  0
LWPOLYLINE
  5
440
100
AcDbEntity
  8
0
100
AcDbPolyline
 62
7
  6
CONTINUOUS
 90
3
 70
0
 10
16.2491343785
 20
-32.7225601636
 10
16.0740606539
 20
-32.3507038937
 10
16.0389350692
 20
-32.2755269767
  0
LWPOLYLINE
  5
441
100
AcDbEntity
  8
0
100
AcDbPolyline
 62
7
  6
CONTINUOUS
 90
3
 70
0
 10
16.052682871
 20
-32.2582990618
 10
16.0878079788
 20
-32.3334670741
 10
16.2628964565
 20
-32.7053143585
  0
LINE
  5
442
100
AcDbEntity
  8
0
100
AcDbLine
 62
7
  6
CONTINUOUS
 10
16.3980094093
 20
-32.0865379542
 11
16.6043338374
 21
-32.5304437577
  0
LINE
  5
443
100
AcDbEntity
  8
0
100
AcDbLine
 62
7
  6
CONTINUOUS
 10
16.1971196914
 20
-31.6486332036
 11
16.3980094093
 21
-32.0865379542
  0
LINE
  5
444
100
AcDbEntity
  8
0
100
AcDbLine
 62
7
  6
CONTINUOUS
 10
15.6746778365
 20
-31.4373641447
 11
15.85146941
 21
-31.8240247665
  0
LINE
  5
445
100
AcDbEntity
  8
0
100
AcDbLine
 62
7
  6
CONTINUOUS
 10
15.8377343233
 20
-31.8412367475
 11
15.660947494
 21
-31.4545535633
  0
LINE
  5
446
100
AcDbEntity
  8
0
100
AcDbLine
 62
7
  6
CONTINUOUS
 10
15.660947494
 20
-31.4545535633
 11
15.5216425317
 21
-31.1466948167
  0
LINE
  5
447
100
AcDbEntity
  8
0
100
AcDbLine
 62
7
  6
CONTINUOUS
 10
15.5353615919
 20
-31.1295029191
 11
15.6746778365
 21
-31.4373641447
  0
LINE
  5
448
100
AcDbEntity
  8
0
100
AcDbLine
 62
7
  6
CONTINUOUS
 10
15.9054863205
 20
-31.0038018363
 11
16.1971196914
 21
-31.6486332036
  0
LINE
  5
449
100
AcDbEntity
  8
0
100
AcDbLine
 62
7
  6
CONTINUOUS
 10
15.7170289248
 20
-30.5827269681
 11
15.9054863205
 21
-31.0038018363
  0
LINE
  5
44A
100
AcDbEntity
  8
0
100
AcDbLine
 62
7
  6
CONTINUOUS
 10
12.1565370792
 20
-30.9207452382
 11
12.1887457817
 21
-31.2170017199
  0
LINE
  5
44B
100
AcDbEntity
  8
0
100
AcDbLine
 62
7
  6
CONTINUOUS
 10
11.6769882903
 20
-31.1170338133
 11
11.6268133698
 21
-30.652126176
  0
LINE
  5
44C
100
AcDbEntity
  8
0
100
AcDbLine
 62
7
  6
CONTINUOUS
 10
11.6407240688
 20
-30.6367066391
 11
11.6908140951
 21
-31.1006021606
  0
LINE
  5
44D
100
AcDbEntity
  8
0
100
AcDbLine
 62
7
  6
CONTINUOUS
 10
11.1091114777
 20
-30.4965622109
 11
11.1589980777
 21
-30.960891871
  0
LINE
  5
44E
100
AcDbEntity
  8
0
100
AcDbLine
 62
7
  6
CONTINUOUS
 10
10.6411479135
 20
-30.8053040678
 11
10.5916143009
 21
-30.3424021798
  0
LINE
  5
44F
100
AcDbEntity
  8
0
100
AcDbLine
 62
7
  6
CONTINUOUS
 10
10.6050051953
 20
-30.3219919405
 11
10.6547368584
 21
-30.7866626661
  0
LINE
  5
450
100
AcDbEntity
  8
0
100
AcDbLine
 62
7
  6
CONTINUOUS
 10
11.6268133698
 20
-30.652126176
 11
11.5804312808
 21
-30.1924072009
  0
LINE
  5
451
100
AcDbEntity
  8
0
100
AcDbLine
 62
7
  6
CONTINUOUS
 10
11.5943361202
 20
-30.1772216885
 11
11.6407240688
 21
-30.6367066391
  0
LINE
  5
452
100
AcDbEntity
  8
0
100
AcDbLine
 62
7
  6
CONTINUOUS
 10
11.0630094227
 20
-30.036683535
 11
11.1091114777
 21
-30.4965622109
  0
LINE
  5
453
100
AcDbEntity
  8
0
100
AcDbLine
 62
7
  6
CONTINUOUS
 10
10.5916143009
 20
-30.3424021798
 11
10.545774434
 21
-29.8825726283
  0
LINE
  5
454
100
AcDbEntity
  8
0
100
AcDbLine
 62
7
  6
CONTINUOUS
 10
10.5591365285
 20
-29.8617910643
 11
10.6050051953
 21
-30.3219919405
  0
LINE
  5
455
100
AcDbEntity
  8
0
100
AcDbLine
 62
7
  6
CONTINUOUS
 10
11.5804312808
 20
-30.1924072009
 11
11.5375332409
 21
-29.7383863066
  0
LINE
  5
456
100
AcDbEntity
  8
0
100
AcDbLine
 62
7
  6
CONTINUOUS
 10
11.5513615246
 20
-29.7226263306
 11
11.5943361202
 21
-30.1772216885
  0
LINE
  5
457
100
AcDbEntity
  8
0
100
AcDbLine
 62
7
  6
CONTINUOUS
 10
11.0204219259
 20
-29.5817137602
 11
11.0630094227
 21
-30.036683535
  0
LINE
  5
458
100
AcDbEntity
  8
0
100
AcDbLine
 62
7
  6
CONTINUOUS
 10
10.5168842161
 20
-29.4064875634
 11
10.5591365285
 21
-29.8617910643
  0
LINE
  5
459
100
AcDbEntity
  8
0
100
AcDbLine
 62
7
  6
CONTINUOUS
 10
10.545774434
 20
-29.8825726283
 11
10.5034218756
 21
-29.4261854796
  0
LINE
  5
45A
100
AcDbEntity
  8
0
100
AcDbLine
 62
7
  6
CONTINUOUS
 10
10.9812814908
 20
-29.1317673659
 11
11.0204219259
 21
-29.5817137602
  0
LINE
  5
45B
100
AcDbEntity
  8
0
100
AcDbLine
 62
7
  6
CONTINUOUS
 10
10.5034218756
 20
-29.4261854796
 11
10.4645050165
 21
-28.9733332501
  0
LINE
  5
45C
100
AcDbEntity
  8
0
100
AcDbLine
 62
7
  6
CONTINUOUS
 10
10.4795235037
 20
-28.9720689209
 11
10.5168842161
 21
-29.4064875634
  0
LINE
  5
45D
100
AcDbEntity
  8
RACCORDO
100
AcDbLine
 62
250
  6
CONTINUOUS
 10
-7.4187193433
 20
-18.7038684779
 11
-7.1488795245
 21
-18.3205953476
  0
LINE
  5
45E
100
AcDbEntity
  8
RACCORDO
100
AcDbLine
 62
7
  6
CONTINUOUS
 10
-7.3959556117
 20
-18.7108589993
 11
-7.1679885959
 21
-18.3870608582
  0
LWPOLYLINE
  5
45F
100
AcDbEntity
  8
RACCORDO
100
AcDbPolyline
 62
7
  6
CONTINUOUS
 90
6
 70
0
 10
-12.529544613
 20
-15.8014975668
 10
-12.5151138019
 20
-15.7906573768
 10
-12.4987571291
 20
-15.7831183361
 10
-12.4810291516
 20
-15.7789032556
 10
-12.462548014
 20
-15.7782632624
 10
-12.4436652191
 20
-15.7808216025
  0
LWPOLYLINE
  5
460
100
AcDbEntity
  8
0
100
AcDbPolyline
 62
250
  6
CONTINUOUS
 90
10
 70
0
 10
27.7287104447
 20
10.7365736248
 10
28.161474079
 20
11.0180150778
 10
28.5927836159
 20
11.3023804187
 10
29.0226486314
 20
11.589675557
 10
29.4510685954
 20
11.8798995095
 10
29.8780632587
 20
12.1730649403
 10
30.303672317
 20
12.4691988609
 10
30.7279150548
 20
12.768314923
 10
31.1507906826
 20
13.0704127179
 10
31.5723084881
 20
13.3754988019
  0
LINE
  5
461
100
AcDbEntity
  8
0
100
AcDbLine
 62
250
  6
CONTINUOUS
 10
27.2039948674
 20
10.4007755354
 11
27.7287104447
 21
10.7365736248
  0
LWPOLYLINE
  5
462
100
AcDbEntity
  8
0
100
AcDbPolyline
 62
250
  6
CONTINUOUS
 90
10
 70
0
 10
28.1360457146
 20
8.1652010376
 10
28.5385574242
 20
8.4187182223
 10
28.9363956117
 20
8.6746015066
 10
29.3300591034
 20
8.9331605171
 10
29.7196703037
 20
9.1944498043
 10
30.1061100483
 20
9.4590273329
 10
30.4909892682
 20
9.7279879245
 10
30.8751577218
 20
10.0019418468
 10
31.2587323994
 20
10.2809814141
 10
31.6422126148
 20
10.5654629113
  0
LWPOLYLINE
  5
463
100
AcDbEntity
  8
0
100
AcDbPolyline
 62
250
  6
CONTINUOUS
 90
8
 70
0
 10
-27.1167211536
 20
-23.6502833823
 10
-26.8099215664
 20
-23.4741032617
 10
-26.5042403877
 20
-23.2890529892
 10
-26.1988012266
 20
-23.0945417888
 10
-25.8919243965
 20
-22.8894608799
 10
-25.5832685158
 20
-22.6736059784
 10
-25.2737849246
 20
-22.4478644184
 10
-24.9629259151
 20
-22.2122468544
  0
LWPOLYLINE
  5
464
100
AcDbEntity
  8
0
100
AcDbPolyline
 62
250
  6
CONTINUOUS
 90
8
 70
0
 10
-29.9525881941
 20
-22.4809222492
 10
-29.6042354473
 20
-22.2887283995
 10
-29.2536728593
 20
-22.0870193725
 10
-28.9008621231
 20
-21.8765045838
 10
-28.5462847846
 20
-21.6583091817
 10
-28.1893360599
 20
-21.4329908589
 10
-27.8283627562
 20
-21.2004909307
 10
-27.4627815902
 20
-20.9615065641
  0
LWPOLYLINE
  5
465
100
AcDbEntity
  8
0
100
AcDbPolyline
 62
250
  6
CONTINUOUS
 90
10
 70
0
 10
-29.9525881941
 20
-22.4809222492
 10
-30.2775080828
 20
-22.6522450692
 10
-30.6066944685
 20
-22.8181611931
 10
-30.9399794198
 20
-22.9785820872
 10
-31.2773135791
 20
-23.1334723663
 10
-31.6184128736
 20
-23.2826862762
 10
-31.9627456982
 20
-23.425987715
 10
-32.3100110215
 20
-23.5632594459
 10
-32.6601512001
 20
-23.694483074
 10
-33.0129897129
 20
-23.8195895468
  0
LWPOLYLINE
  5
466
100
AcDbEntity
  8
0
100
AcDbPolyline
 62
250
  6
CONTINUOUS
 90
6
 70
0
 10
-33.1395546282
 20
-22.6309301317
 10
-32.7647843465
 20
-22.4454092774
 10
-32.3934106402
 20
-22.2571684608
 10
-32.0271021095
 20
-22.0670964439
 10
-31.6658016874
 20
-21.8751968281
 10
-31.3103260413
 20
-21.6819110231
  0
LWPOLYLINE
  5
467
100
AcDbEntity
  8
0
100
AcDbPolyline
 62
250
  6
CONTINUOUS
 90
5
 70
0
 10
-34.6269770836
 20
-23.3239951146
 10
-34.258311387
 20
-23.1586729154
 10
-33.8871472264
 20
-22.9879072879
 10
-33.5142533101
 20
-22.8120221371
 10
-33.1395546282
 20
-22.6309301317
  0
LWPOLYLINE
  5
468
100
AcDbEntity
  8
0
100
AcDbPolyline
 62
250
  6
CONTINUOUS
 90
7
 70
0
 10
-34.5870069964
 20
-23.336224088
 10
-34.6422411208
 20
-23.358985397
 10
-34.6909943338
 20
-23.3759605555
 10
-34.7331139535
 20
-23.3872070553
 10
-34.7686537431
 20
-23.3928001762
 10
-34.7971930726
 20
-23.3927118575
 10
-34.812701299
 20
-23.3893804206
  0
LWPOLYLINE
  5
469
100
AcDbEntity
  8
0
100
AcDbPolyline
 62
250
  6
CONTINUOUS
 90
9
 70
0
 10
-26.3309141995
 20
-16.5001593391
 10
-26.7297773707
 20
-16.6582734994
 10
-27.1197993518
 20
-16.8157492206
 10
-27.5038674869
 20
-16.9738018242
 10
-27.8841773953
 20
-17.1333591954
 10
-28.2622289813
 20
-17.2950376522
 10
-28.6399143747
 20
-17.4595978693
 10
-29.0195296638
 20
-17.6279725282
 10
-29.4029406004
 20
-17.8009085359
  0
LWPOLYLINE
  5
46A
100
AcDbEntity
  8
0
100
AcDbPolyline
 62
250
  6
CONTINUOUS
 90
8
 70
0
 10
-26.8162498218
 20
-16.4952798981
 10
-27.2105935838
 20
-16.6499556056
 10
-27.5987397453
 20
-16.8052073534
 10
-27.9828838403
 20
-16.9619311113
 10
-28.3647970674
 20
-17.1208376649
 10
-28.7464085378
 20
-17.2826899466
 10
-29.1298114888
 20
-17.4483176928
 10
-29.5168200126
 20
-17.6184325169
  0
LINE
  5
46B
100
AcDbEntity
  8
0
100
AcDbLine
 62
250
  6
CONTINUOUS
 10
-25.9204615556
 20
-16.3402445387
 11
-26.3309141995
 21
-16.5001593391
  0
LINE
  5
46C
100
AcDbEntity
  8
0
100
AcDbLine
 62
250
  6
CONTINUOUS
 10
-26.4130883186
 20
-16.340110859
 11
-26.8162498218
 21
-16.4952798981
  0
LINE
  5
46D
100
AcDbEntity
  8
0
100
AcDbLine
 62
250
  6
CONTINUOUS
 10
-25.9985063989
 20
-16.1833817762
 11
-26.4130883186
 21
-16.340110859
  0
LWPOLYLINE
  5
46E
100
AcDbEntity
  8
0
100
AcDbPolyline
 62
250
  6
CONTINUOUS
 90
10
 70
0
 10
-26.2654349601
 20
-15.2423779202
 10
-26.7199534567
 20
-15.3735703122
 10
-27.1631087755
 20
-15.5057378373
 10
-27.5963431695
 20
-15.6392947964
 10
-28.0200905316
 20
-15.774325702
 10
-28.4365950508
 20
-15.9114785482
 10
-28.8498567064
 20
-16.0520471881
 10
-29.2619494202
 20
-16.1967603284
 10
-29.6730775138
 20
-16.3456999026
 10
-30.0843535117
 20
-16.4992508622
  0
LWPOLYLINE
  5
46F
100
AcDbEntity
  8
0
100
AcDbPolyline
 62
250
  6
CONTINUOUS
 90
10
 70
0
 10
-30.6633044181
 20
-14.2644418999
 10
-31.0550337923
 20
-14.3761751494
 10
-31.4464815353
 20
-14.4945990697
 10
-31.8375628711
 20
-14.6197314732
 10
-32.2282892033
 20
-14.7515781332
 10
-32.6186360807
 20
-14.8900856247
 10
-33.0085559932
 20
-15.0351351851
 10
-33.3981572909
 20
-15.1866038721
 10
-33.7876983908
 20
-15.344367059
 10
-34.1774624188
 20
-15.5082481645
  0
LWPOLYLINE
  5
470
100
AcDbEntity
  8
0
100
AcDbPolyline
 62
250
  6
CONTINUOUS
 90
10
 70
0
 10
-27.1431329859
 20
19.7999629443
 10
-26.9965329572
 20
19.7358498825
 10
-26.8550488493
 20
19.6603882293
 10
-26.7193757473
 20
19.5737543971
 10
-26.5899862096
 20
19.4758989296
 10
-26.467925211
 20
19.3672579628
 10
-26.3546328195
 20
19.2488580106
 10
-26.2509471702
 20
19.1213071367
 10
-26.1572825765
 20
18.984690712
 10
-26.0742991163
 20
18.8393555815
  0
LINE
  5
471
100
AcDbEntity
  8
0
100
AcDbLine
 62
250
  6
CONTINUOUS
 10
-24.3307374331
 20
18.8583077674
 11
-24.296079274
 21
18.8420895286
  0
LWPOLYLINE
  5
472
100
AcDbEntity
  8
0
100
AcDbPolyline
 62
7
  6
CONTINUOUS
 90
10
 70
0
 10
18.9302040823
 20
-31.9164067225
 10
18.960787563
 20
-31.9869681864
 10
18.9824577862
 20
-32.0563646626
 10
18.9952341761
 20
-32.1237929039
 10
18.9992585128
 20
-32.1884893673
 10
18.9947124423
 20
-32.2497861234
 10
18.9818276389
 20
-32.3071230894
 10
18.9610440524
 20
-32.3598550087
 10
18.9327892882
 20
-32.4076531926
 10
18.9201764346
 20
-32.424467686
  0
LINE
  5
473
100
AcDbEntity
  8
0
100
AcDbLine
 62
7
  6
CONTINUOUS
 10
11.6908140951
 20
-31.1006021606
 11
11.7172293421
 21
-31.3342338243
  0
LINE
  5
474
100
AcDbEntity
  8
0
100
AcDbLine
 62
7
  6
CONTINUOUS
 10
11.7034787634
 20
-31.3514652189
 11
11.6769882903
 21
-31.1170338133
  0
LINE
  5
475
100
AcDbEntity
  8
0
100
AcDbLine
 62
7
  6
CONTINUOUS
 10
11.1589980777
 20
-30.960891871
 11
11.1853437078
 21
-31.19475444
  0
LINE
  5
476
100
AcDbEntity
  8
0
100
AcDbLine
 62
7
  6
CONTINUOUS
 10
10.667286972
 20
-31.0379302672
 11
10.6411479135
 21
-30.8053040678
  0
LINE
  5
477
100
AcDbEntity
  8
0
100
AcDbLine
 62
7
  6
CONTINUOUS
 10
10.6547368584
 20
-30.7866626661
 11
10.6810358985
 21
-31.0207009429
  0
LINE
  5
478
100
AcDbEntity
  8
0
100
AcDbLine
 62
7
  6
CONTINUOUS
 10
12.1887457817
 20
-31.2170017199
 11
12.2217060083
 21
-31.5080813167
  0
LINE
  5
479
100
AcDbEntity
  8
0
100
AcDbLine
 62
7
  6
CONTINUOUS
 10
14.135758663
 20
-31.1913841296
 11
14.1854781578
 21
-31.651499555
  0
LINE
  5
47A
100
AcDbEntity
  8
0
100
AcDbLine
 62
7
  6
CONTINUOUS
 10
13.669108568
 20
-31.5112027536
 11
13.6208752088
 21
-31.0619401997
  0
LINE
  5
47B
100
AcDbEntity
  8
0
100
AcDbLine
 62
7
  6
CONTINUOUS
 10
13.6341810855
 20
-31.0407231242
 11
13.6824074472
 21
-31.4899986399
  0
LINE
  5
47C
100
AcDbEntity
  8
0
100
AcDbLine
 62
7
  6
CONTINUOUS
 10
12.1096547467
 20
-30.4666384982
 11
12.1565370792
 21
-30.9207452382
  0
LINE
  5
47D
100
AcDbEntity
  8
0
100
AcDbLine
 62
7
  6
CONTINUOUS
 10
14.0893381893
 20
-30.7365897506
 11
14.135758663
 21
-31.1913841296
  0
LINE
  5
47E
100
AcDbEntity
  8
0
100
AcDbLine
 62
7
  6
CONTINUOUS
 10
13.6208752088
 20
-31.0619401997
 11
13.5753027739
 21
-30.6129039453
  0
LINE
  5
47F
100
AcDbEntity
  8
0
100
AcDbLine
 62
7
  6
CONTINUOUS
 10
13.5890154987
 20
-30.5957199869
 11
13.6341810855
 21
-31.0407231242
  0
LINE
  5
480
100
AcDbEntity
  8
0
100
AcDbLine
 62
7
  6
CONTINUOUS
 10
12.0793758941
 20
-30.1574035364
 11
12.1096547467
 21
-30.4666384982
  0
LWPOLYLINE
  5
481
100
AcDbEntity
  8
0
100
AcDbPolyline
 62
7
  6
CONTINUOUS
 90
3
 70
0
 10
14.0255166556
 20
-30.0650820455
 10
14.0460090193
 20
-30.2875064325
 10
14.0893381893
 20
-30.7365897506
  0
LINE
  5
482
100
AcDbEntity
  8
0
100
AcDbLine
 62
7
  6
CONTINUOUS
 10
11.5375332409
 20
-29.7383863066
 11
11.4980420543
 21
-29.2901908478
  0
LINE
  5
483
100
AcDbEntity
  8
0
100
AcDbLine
 62
7
  6
CONTINUOUS
 10
11.5130992965
 20
-29.2888880474
 11
11.5513615246
 21
-29.7226263306
  0
LINE
  5
484
100
AcDbEntity
  8
RACCORDO
100
AcDbLine
 62
250
  6
CONTINUOUS
 10
12.8911860731
 20
-24.4747053454
 11
12.8694583562
 21
-23.6012853142
  0
LINE
  5
485
100
AcDbEntity
  8
RACCORDO
100
AcDbLine
 62
7
  6
CONTINUOUS
 10
12.9084797908
 20
-24.421061557
 11
12.8871958441
 21
-23.5654803898
  0
LWPOLYLINE
  5
486
100
AcDbEntity
  8
0
100
AcDbPolyline
 62
250
  6
CONTINUOUS
 90
22
 70
0
 10
-3.2976888814
 20
-22.049323638
 10
-3.3442234269
 20
-22.1133235696
 10
-3.3901256894
 20
-22.1850540118
 10
-3.4348953546
 20
-22.2638301978
 10
-3.4780525976
 20
-22.3489152258
 10
-3.5190853574
 20
-22.4394125522
 10
-3.5574664412
 20
-22.5342529322
 10
-3.5927577962
 20
-22.6324383231
 10
-3.6245329196
 20
-22.7328762367
 10
-3.6523567713
 20
-22.8342534085
 10
-3.6759066518
 20
-22.9354178422
 10
-3.69491497
 20
-23.0352511545
 10
-3.7091411431
 20
-23.1324878227
 10
-3.718437086
 20
-23.2260590367
 10
-3.7227057943
 20
-23.3149094529
 10
-3.7219152166
 20
-23.3978991022
 10
-3.7161141856
 20
-23.4741358244
 10
-3.7054040965
 20
-23.5428496838
 10
-3.6899607513
 20
-23.6032711693
 10
-3.6700134264
 20
-23.6548164194
 10
-3.645820132
 20
-23.6970574261
 10
-3.6176843646
 20
-23.7296470771
  0
LWPOLYLINE
  5
487
100
AcDbEntity
  8
0
100
AcDbPolyline
 62
250
  6
CONTINUOUS
 90
16
 70
0
 10
29.8780060021
 20
18.1520877346
 10
29.8408770101
 20
18.1036365894
 10
29.7994867137
 20
18.052913856
 10
29.7538598718
 20
18.0000902987
 10
29.7041069429
 20
17.9454275245
 10
29.6502724945
 20
17.8891095887
 10
29.5923088205
 20
17.8312424214
 10
29.5303805182
 20
17.772163745
 10
29.4646651459
 20
17.7122263908
 10
29.3951565633
 20
17.6516380765
 10
29.3220565391
 20
17.5908260995
 10
29.2457936171
 20
17.5304226142
 10
29.1667778768
 20
17.4710541866
 10
29.0855032253
 20
17.4134317448
 10
29.0025528566
 20
17.3583540168
 10
28.9185923235
 20
17.3067033027
  0
LINE
  5
488
100
AcDbEntity
  8
DRAFT
100
AcDbLine
 62
7
  6
CONTINUOUS
 10
-4.834053948
 20
-20.4806709032
 11
-4.7447745444
 21
-20.3674194761
  0
LINE
  5
489
100
AcDbEntity
  8
DRAFT
100
AcDbLine
 62
7
  6
CONTINUOUS
 10
-4.7447745444
 20
-20.3674194761
 11
-4.1994823253
 21
-19.6924649783
  0
LWPOLYLINE
  5
48A
100
AcDbEntity
  8
0
100
AcDbPolyline
 62
250
  6
CONTINUOUS
 90
10
 70
0
 10
18.6380387292
 20
5.7410086366
 10
18.4760305544
 20
5.7716661643
 10
18.3087578415
 20
5.7910207395
 10
18.1368681935
 20
5.7988364483
 10
17.9606955996
 20
5.7948161511
 10
17.7813219008
 20
5.7787428595
 10
17.6006035894
 20
5.7506307459
 10
17.4197174758
 20
5.7104691035
 10
17.2391350624
 20
5.6580712778
 10
17.0597011968
 20
5.5933219657
  0
LINE
  5
48B
100
AcDbEntity
  8
0
100
AcDbLine
 62
250
  6
CONTINUOUS
 10
-24.3793506667
 20
19.8124647917
 11
15.2805942656
 21
7.6332800421
  0
LINE
  5
48C
100
AcDbEntity
  8
0
100
AcDbLine
 62
7
  6
CONTINUOUS
 10
-24.296079274
 20
18.8420895286
 11
15.3623308226
 21
6.6633759969
  0
LWPOLYLINE
  5
48D
100
AcDbEntity
  8
0
100
AcDbPolyline
 62
7
  6
CONTINUOUS
 90
21
 70
0
 10
15.3631829433
 20
6.6635364258
 10
15.3849130897
 20
6.65662054
 10
15.4255255545
 20
6.6424047624
 10
15.4648405173
 20
6.6269697086
 10
15.5035122975
 20
6.6100533544
 10
15.5411377139
 20
6.5917689566
 10
15.5773414745
 20
6.572253321
 10
15.6129129701
 20
6.5509563752
 10
15.6476503349
 20
6.5277541509
 10
15.680789076
 20
6.5029204562
 10
15.7120490008
 20
6.4764528235
 10
15.7409665619
 20
6.4485299166
 10
15.7670229564
 20
6.419495612
 10
15.7899593627
 20
6.3896371532
 10
15.8098076053
 20
6.3592299004
 10
15.8265165442
 20
6.3288483491
 10
15.8400798791
 20
6.2992476903
 10
15.8509108746
 20
6.2703456666
 10
15.858963785
 20
6.2432437766
 10
15.8640901691
 20
6.2205680506
 10
15.8660137634
 20
6.2094682485
  0
LWPOLYLINE
  5
48E
100
AcDbEntity
  8
0
100
AcDbPolyline
 62
250
  6
CONTINUOUS
 90
15
 70
0
 10
-4.4710149903
 20
12.7519557095
 10
-4.5077167719
 20
12.7697234969
 10
-4.538749682
 20
12.7973449298
 10
-4.5657567115
 20
12.8351544976
 10
-4.5884326161
 20
12.8827516595
 10
-4.6064902463
 20
12.9395322153
 10
-4.6197388158
 20
13.0048520083
 10
-4.6280363245
 20
13.0779552001
 10
-4.6312977757
 20
13.1578485
 10
-4.6295258386
 20
13.2435752084
 10
-4.6227785946
 20
13.3341655433
 10
-4.6111843623
 20
13.4284688879
 10
-4.5949303596
 20
13.5253794551
 10
-4.5742380226
 20
13.6238684241
 10
-4.5493755447
 20
13.7228722749
  0
LWPOLYLINE
  5
48F
100
AcDbEntity
  8
0
100
AcDbPolyline
 62
250
  6
CONTINUOUS
 90
10
 70
0
 10
16.7133712766
 20
-30.7512430829
 10
16.695273105
 20
-30.618810141
 10
16.6675392431
 20
-30.4920744425
 10
16.630188335
 20
-30.3716108015
 10
16.583061938
 20
-30.2577341546
 10
16.5263470809
 20
-30.1513821345
 10
16.4606967452
 20
-30.0538840833
 10
16.386471743
 20
-29.9658735189
 10
16.3036203567
 20
-29.8875194764
 10
16.2122851735
 20
-29.8192465914
  0
LWPOLYLINE
  5
490
100
AcDbEntity
  8
RACCORDO
100
AcDbPolyline
 62
7
  6
CONTINUOUS
 90
4
 70
0
 10
12.8871906855
 20
-23.5652738259
 10
12.8868879455
 20
-23.5628294613
 10
12.8846008206
 20
-23.5588867241
 10
12.8804019506
 20
-23.5565290017
  0
LINE
  5
491
100
AcDbEntity
  8
0
100
AcDbLine
 62
7
  6
CONTINUOUS
 10
14.1854781578
 20
-31.651499555
 11
14.2385486029
 21
-32.1168385228
  0
LINE
  5
492
100
AcDbEntity
  8
0
100
AcDbLine
 62
7
  6
CONTINUOUS
 10
13.7201471467
 20
-31.9604407362
 11
13.669108568
 21
-31.5112027536
  0
LINE
  5
493
100
AcDbEntity
  8
0
100
AcDbLine
 62
7
  6
CONTINUOUS
 10
13.6824074472
 20
-31.4899986399
 11
13.73390207
 21
-31.9432038971
  0
LINE
  5
494
100
AcDbEntity
  8
0
100
AcDbLine
 62
7
  6
CONTINUOUS
 10
17.5495798279
 20
-32.3458845075
 11
17.5967719342
 21
-32.7792162496
  0
LINE
  5
495
100
AcDbEntity
  8
0
100
AcDbLine
 62
7
  6
CONTINUOUS
 10
17.4477468955
 20
-31.4690745237
 11
17.5016351087
 21
-31.9658020473
  0
LINE
  5
496
100
AcDbEntity
  8
0
100
AcDbLine
 62
7
  6
CONTINUOUS
 10
17.0625784722
 20
-32.5211561161
 11
16.9110599817
 21
-31.1032741248
  0
LINE
  5
497
100
AcDbEntity
  8
0
100
AcDbLine
 62
7
  6
CONTINUOUS
 10
16.9250299777
 20
-31.0881555713
 11
17.0766978333
 21
-32.5073808192
  0
LWPOLYLINE
  5
498
100
AcDbEntity
  8
0
100
AcDbPolyline
 62
250
  6
CONTINUOUS
 90
18
 70
0
 10
16.2971556365
 20
-11.0325612516
 10
16.2995535727
 20
-11.0673428684
 10
16.3126411731
 20
-11.1332824715
 10
16.3368384117
 20
-11.1979900571
 10
16.3719541492
 20
-11.2607074078
 10
16.4175700856
 20
-11.3205858085
 10
16.4731757174
 20
-11.3769292174
 10
16.5381646107
 20
-11.4290998681
 10
16.6117001253
 20
-11.4764270761
 10
16.6929422772
 20
-11.5183897309
 10
16.7809419279
 20
-11.5545138848
 10
16.8744978389
 20
-11.5843479849
 10
16.972492006
 20
-11.6075998903
 10
17.0738174154
 20
-11.6240670368
 10
17.1771884578
 20
-11.6336091448
 10
17.2813996963
 20
-11.6361992173
 10
17.3853521089
 20
-11.6318919322
 10
17.4879287184
 20
-11.6208100391
  0
LINE
  5
499
100
AcDbEntity
  8
0
100
AcDbLine
 62
7
  6
CONTINUOUS
 10
15.8684516701
 20
6.1873818755
 11
16.7250253611
 21
-28.2455326169
  0
LWPOLYLINE
  5
49A
100
AcDbEntity
  8
RACCORDO
100
AcDbPolyline
 62
250
  6
CONTINUOUS
 90
3
 70
0
 10
12.8911860731
 20
-24.4747053454
 10
12.8901203876
 20
-24.4942144809
 10
12.8860390337
 20
-24.5127220201
  0
LWPOLYLINE
  5
49B
100
AcDbEntity
  8
0
100
AcDbPolyline
 62
250
  6
CONTINUOUS
 90
10
 70
0
 10
15.7219479284
 20
9.1024154308
 10
15.7108522348
 20
8.9533597764
 10
15.6901112839
 20
8.7989914569
 10
15.6597148583
 20
8.6398958465
 10
15.619490638
 20
8.4763158488
 10
15.5695773654
 20
8.3092548745
 10
15.5105491863
 20
8.1405526516
 10
15.4427227921
 20
7.9713492457
 10
15.3660331745
 20
7.802009877
 10
15.2805938115
 20
7.6332800663
  0
LWPOLYLINE
  5
49C
100
AcDbEntity
  8
RACCORDO
100
AcDbPolyline
 62
250
  6
CONTINUOUS
 90
3
 70
0
 10
12.9057496145
 20
-24.4439726466
 10
12.9083473023
 20
-24.4280510675
 10
12.9084797908
 20
-24.421061557
  0
LWPOLYLINE
  5
49D
100
AcDbEntity
  8
0
100
AcDbPolyline
 62
250
  6
CONTINUOUS
 90
15
 70
0
 10
15.2805942656
 20
7.6332800421
 10
15.2552366533
 20
7.5307188349
 10
15.2345200598
 20
7.4302796412
 10
15.218577755
 20
7.3325628422
 10
15.2075170439
 20
7.2380911436
 10
15.2014660994
 20
7.1476978223
 10
15.2005047957
 20
7.0624482029
 10
15.20466511
 20
6.982841017
 10
15.2139559077
 20
6.9098944838
 10
15.2281569406
 20
6.8451478852
 10
15.2470743319
 20
6.7890862936
 10
15.2704952724
 20
6.7422553619
 10
15.2978093171
 20
6.7056118934
 10
15.3285528896
 20
6.6793239269
 10
15.3623308226
 20
6.6633759969
  0
LINE
  5
49E
100
AcDbEntity
  8
DRAFT
100
AcDbLine
 62
7
  6
CONTINUOUS
 10
6.573831986
 20
-23.0008454319
 11
6.5785707087
 21
-22.9877573033
  0
LINE
  5
49F
100
AcDbEntity
  8
DRAFT
100
AcDbLine
 62
7
  6
CONTINUOUS
 10
6.7567858754
 20
-22.9098469028
 11
6.8290306452
 21
-22.7103102562
  0
LINE
  5
4A0
100
AcDbEntity
  8
DRAFT
100
AcDbLine
 62
7
  6
CONTINUOUS
 10
7.0072458119
 20
-22.6323998557
 11
7.0794905817
 21
-22.4328632091
  0
LINE
  5
4A1
100
AcDbEntity
  8
DRAFT
100
AcDbLine
 62
7
  6
CONTINUOUS
 10
7.2577057484
 20
-22.3549528086
 11
7.3299505183
 21
-22.1554161621
  0
LINE
  5
4A2
100
AcDbEntity
  8
0
100
AcDbLine
 62
250
  6
CONTINUOUS
 10
32.092403074
 20
20.8939166941
 11
30.028122324
 21
18.1059884664
  0
LINE
  5
4A3
100
AcDbEntity
  8
DRAFT
100
AcDbLine
 62
7
  6
CONTINUOUS
 10
-0.2914266339
 20
-21.7349994756
 11
-0.3807060374
 21
-21.8482509027
  0
LINE
  5
4A4
100
AcDbEntity
  8
DRAFT
100
AcDbLine
 62
7
  6
CONTINUOUS
 10
0.2538655853
 20
-21.0600449778
 11
-0.2914266339
 21
-21.7349994756
  0
LINE
  5
4A5
100
AcDbEntity
  8
0
100
AcDbLine
 62
250
  6
CONTINUOUS
 10
34.8222761848
 20
17.747317881
 11
32.5291219869
 21
15.2232016378
  0
LWPOLYLINE
  5
4A6
100
AcDbEntity
  8
0
100
AcDbPolyline
 62
250
  6
CONTINUOUS
 90
16
 70
0
 10
32.5237567239
 20
15.32638911
 10
32.4816788182
 20
15.2815302873
 10
32.4350010682
 20
15.2348622824
 10
32.3838590913
 20
15.1865062196
 10
32.3284324877
 20
15.136605346
 10
32.2689448402
 20
15.0853239082
 10
32.2056659127
 20
15.0328483312
 10
32.1389354292
 20
14.979405338
 10
32.0691148105
 20
14.9252219216
 10
31.9965831934
 20
14.8705253598
 10
31.9215546185
 20
14.8154130165
 10
31.8448634299
 20
14.760426078
 10
31.7679110427
 20
14.7064656691
 10
31.6916108938
 20
14.6540450399
 10
31.6163914998
 20
14.6033347055
 10
31.5429738605
 20
14.5547046744
  0
LWPOLYLINE
  5
4A7
100
AcDbEntity
  8
0
100
AcDbPolyline
 62
250
  6
CONTINUOUS
 90
16
 70
0
 10
32.532372864
 20
15.0925214917
 10
32.4906057893
 20
15.0482065509
 10
32.4442202625
 20
15.0021139486
 10
32.3933469124
 20
14.9543492065
 10
32.3381827356
 20
14.9050568425
 10
32.2789294822
 20
14.8543636902
 10
32.2157859271
 20
14.802379003
 10
32.1490837527
 20
14.7493055473
 10
32.0791841541
 20
14.6953484929
 10
32.0064005063
 20
14.6406601716
 10
31.9309234051
 20
14.5852933146
 10
31.8536360596
 20
14.5297906002
 10
31.7759914427
 20
14.4750534829
 10
31.6989466296
 20
14.4215886832
 10
31.6229675685
 20
14.3695494176
 10
31.5488300009
 20
14.3192970453
  0
LWPOLYLINE
  5
4A8
100
AcDbEntity
  8
0
100
AcDbPolyline
 62
250
  6
CONTINUOUS
 90
10
 70
0
 10
-29.7850113736
 20
-24.8108704223
 10
-29.4721579984
 20
-24.7058546753
 10
-29.163924628
 20
-24.5950133465
 10
-28.8601708299
 20
-24.4783258566
 10
-28.5610456254
 20
-24.3558939588
 10
-28.26611785
 20
-24.2275894682
 10
-27.9744089213
 20
-24.0929940091
 10
-27.6855350808
 20
-23.9518957726
 10
-27.3996746142
 20
-23.8043497619
 10
-27.1167211536
 20
-23.6502833823
  0
LWPOLYLINE
  5
4A9
100
AcDbEntity
  8
0
100
AcDbPolyline
 62
7
  6
CONTINUOUS
 90
10
 70
0
 10
-24.530252059
 20
21.458279972
 10
-24.6453460377
 20
21.4852471105
 10
-24.75942768
 20
21.5080130039
 10
-24.8723947783
 20
21.5265843051
 10
-24.9841359891
 20
21.540964349
 10
-25.0945839442
 20
21.5511541394
 10
-25.2035912254
 20
21.5571509066
 10
-25.3108223352
 20
21.5589502346
 10
-25.4160109538
 20
21.5565701979
 10
-25.519329032
 20
21.55002327
  0
LWPOLYLINE
  5
4AA
100
AcDbEntity
  8
0
100
AcDbPolyline
 62
7
  6
CONTINUOUS
 90
8
 70
0
 10
-24.3912080676
 20
21.4203443063
 10
-24.4113475331
 20
21.4261705769
 10
-24.4313989418
 20
21.4318694011
 10
-24.4513599771
 20
21.4374357662
 10
-24.4712278341
 20
21.4428646437
 10
-24.4910002927
 20
21.4481512886
 10
-24.5106757139
 20
21.4532912232
 10
-24.5302522363
 20
21.4582800166
  0
LINE
  5
4AB
100
AcDbEntity
  8
0
100
AcDbLine
 62
7
  6
CONTINUOUS
 10
-24.3506725882
 20
21.4083295587
 11
-24.3912080676
 21
21.4203443063
  0
LINE
  5
4AC
100
AcDbEntity
  8
0
100
AcDbLine
 62
7
  6
CONTINUOUS
 10
15.7219479284
 20
9.1024154308
 11
-24.3506725882
 21
21.4083295587
  0
LWPOLYLINE
  5
4AD
100
AcDbEntity
  8
0
100
AcDbPolyline
 62
7
  6
CONTINUOUS
 90
9
 70
0
 10
15.7219484337
 20
9.1024157309
 10
15.762504787
 20
9.0895075864
 10
15.7826623689
 20
9.0829570818
 10
15.8027377337
 20
9.076335132
 10
15.8227284311
 20
9.0696368939
 10
15.8426307584
 20
9.0628581039
 10
15.8624423529
 20
9.0559942113
 10
15.8821621865
 20
9.0490403445
 10
15.901788623
 20
9.0419919726
  0
LWPOLYLINE
  5
4AE
100
AcDbEntity
  8
0
100
AcDbPolyline
 62
7
  6
CONTINUOUS
 90
10
 70
0
 10
15.9017884451
 20
9.0419920371
 10
16.0173024202
 20
8.9981417071
 10
16.131999107
 20
8.9506519921
 10
16.2457743908
 20
8.8995929043
 10
16.3585150467
 20
8.8450367417
 10
16.4701526188
 20
8.7870262182
 10
16.5805375583
 20
8.72564976
 10
16.6893294233
 20
8.6611105252
 10
16.7962568877
 20
8.5935916944
 10
16.9014939244
 20
8.5229995113
  0
LWPOLYLINE
  5
4AF
100
AcDbEntity
  8
0
100
AcDbPolyline
 62
7
  6
CONTINUOUS
 90
10
 70
0
 10
16.9014937617
 20
8.5229996237
 10
17.0901457062
 20
8.3854758655
 10
17.2730712575
 20
8.237325163
 10
17.4485360753
 20
8.0797302022
 10
17.6152586623
 20
7.9138377512
 10
17.7723537259
 20
7.7404903726
 10
17.9185691637
 20
7.5609946282
 10
18.05295333
 20
7.3766045158
 10
18.1749351656
 20
7.1880257656
 10
18.2831607376
 20
6.9973318321
  0
LWPOLYLINE
  5
4B0
100
AcDbEntity
  8
0
100
AcDbPolyline
 62
7
  6
CONTINUOUS
 90
4
 70
0
 10
15.8660137634
 20
6.2094682485
 10
15.866936734
 20
6.2029645892
 10
15.8681496772
 20
6.1909296664
 10
15.8683408552
 20
6.1870905498
  0
LWPOLYLINE
  5
4B1
100
AcDbEntity
  8
0
100
AcDbPolyline
 62
7
  6
CONTINUOUS
 90
3
 70
0
 10
17.1147761005
 20
-32.9811739711
 10
17.0724553591
 20
-32.6105547849
 10
17.0625784722
 20
-32.5211561161
  0
LINE
  5
4B2
100
AcDbEntity
  8
0
100
AcDbLine
 62
7
  6
CONTINUOUS
 10
16.9110599817
 20
-31.1032741248
 11
16.8928554135
 21
-30.9405571249
  0
LINE
  5
4B3
100
AcDbEntity
  8
0
100
AcDbLine
 62
7
  6
CONTINUOUS
 10
16.9090907939
 20
-30.9454548331
 11
16.9250299777
 21
-31.0881555713
  0
LINE
  5
4B4
100
AcDbEntity
  8
0
100
AcDbLine
 62
7
  6
CONTINUOUS
 10
17.5967719342
 20
-32.7792162496
 11
17.6365402493
 21
-33.1333675619
  0
LWPOLYLINE
  5
4B5
100
AcDbEntity
  8
0
100
AcDbPolyline
 62
7
  6
CONTINUOUS
 90
3
 70
0
 10
17.0766978333
 20
-32.5073808192
 10
17.0863862627
 20
-32.5950256014
 10
17.1285343236
 20
-32.9639329969
  0
LWPOLYLINE
  5
4B6
100
AcDbEntity
  8
0
100
AcDbPolyline
 62
7
  6
CONTINUOUS
 90
10
 70
0
 10
18.6281341268
 20
5.8994653713
 10
18.6297427902
 20
5.8820197569
 10
18.6312135708
 20
5.86453339
 10
18.63255094
 20
5.8470064569
 10
18.6337595043
 20
5.8294389205
 10
18.6348439598
 20
5.8118311911
 10
18.6358091089
 20
5.7941841244
 10
18.6366599156
 20
5.7764981272
 10
18.6374014903
 20
5.7587731606
 10
18.6380390551
 20
5.7410094089
  0
LWPOLYLINE
  5
4B7
100
AcDbEntity
  8
0
100
AcDbPolyline
 62
7
  6
CONTINUOUS
 90
19
 70
0
 10
17.0585852189
 20
5.5919245391
 10
17.048712775
 20
5.722424663
 10
17.025577887
 20
5.858175169
 10
16.9894049708
 20
5.9976191816
 10
16.9402806427
 20
6.1395376223
 10
16.8785269782
 20
6.281920618
 10
16.8050232835
 20
6.4219907908
 10
16.7207017723
 20
6.5576954601
 10
16.6262756194
 20
6.6888430445
 10
16.5224948494
 20
6.8155487404
 10
16.4102886384
 20
6.937293586
 10
16.289914608
 20
7.0532631247
 10
16.1608924621
 20
7.1630015848
 10
16.0232310083
 20
7.2658529964
 10
15.8789624985
 20
7.3604828583
 10
15.7307556143
 20
7.4454708885
 10
15.5807543885
 20
7.5199105917
 10
15.4304758684
 20
7.5832279767
 10
15.2817099554
 20
7.6346782206
  0
LINE
  5
4B8
100
AcDbEntity
  8
0
100
AcDbLine
 62
250
  6
CONTINUOUS
 10
17.0597011968
 20
5.5933219657
 11
17.9161591829
 21
-28.8349512421
  0
LINE
  5
4B9
100
AcDbEntity
  8
0
100
AcDbLine
 62
7
  6
CONTINUOUS
 10
18.6380387292
 20
5.7410086366
 11
19.5058310484
 21
-29.1428770537
  0
LWPOLYLINE
  5
4BA
100
AcDbEntity
  8
0
100
AcDbPolyline
 62
7
  6
CONTINUOUS
 90
19
 70
0
 10
17.9150434713
 20
-28.8363495016
 10
17.911564208
 20
-28.9628451762
 10
17.8948856756
 20
-29.0866300103
 10
17.8651566734
 20
-29.2062211992
 10
17.8224030233
 20
-29.3203939942
 10
17.7668498971
 20
-29.4272628807
 10
17.6992496975
 20
-29.5245039174
 10
17.6204450718
 20
-29.6105693673
 10
17.5311506635
 20
-29.6857098387
 10
17.4321343827
 20
-29.7505291114
 10
17.3243142093
 20
-29.8050960792
 10
17.2079114182
 20
-29.8487641128
 10
17.0824160371
 20
-29.880796044
 10
16.9478042365
 20
-29.9005358972
 10
16.8060716637
 20
-29.9078467094
 10
16.6598557077
 20
-29.9028908586
 10
16.5112868591
 20
-29.8860304609
 10
16.3618757004
 20
-29.8575796387
 10
16.2134012918
 20
-29.8178474096
  0
LWPOLYLINE
  5
4BB
100
AcDbEntity
  8
0
100
AcDbPolyline
 62
7
  6
CONTINUOUS
 90
10
 70
0
 10
19.50371833
 20
-29.2976415626
 10
19.5044751657
 20
-29.2809235477
 10
19.5050871151
 20
-29.2640774089
 10
19.5055600974
 20
-29.2471065204
 10
19.5059001936
 20
-29.2300137948
 10
19.5061136146
 20
-29.2128033194
 10
19.5062067411
 20
-29.1954803747
 10
19.5061861493
 20
-29.1780492434
 10
19.5060585715
 20
-29.1605131939
 10
19.5058308917
 20
-29.1428761285
  0
LINE
  5
4BC
100
AcDbEntity
  8
DRAFT
100
AcDbLine
 62
7
  6
CONTINUOUS
 10
12.1073737078
 20
-24.7001424859
 11
12.1111939107
 21
-24.6867722888
  0
LINE
  5
4BD
100
AcDbEntity
  8
DRAFT
100
AcDbLine
 62
7
  6
CONTINUOUS
 10
12.2567344669
 20
-24.598827832
 11
12.3149758323
 21
-24.3949908756
  0
LINE
  5
4BE
100
AcDbEntity
  8
DRAFT
100
AcDbLine
 62
7
  6
CONTINUOUS
 10
12.4605163885
 20
-24.3070464187
 11
12.518757754
 21
-24.1032094623
  0
LINE
  5
4BF
100
AcDbEntity
  8
DRAFT
100
AcDbLine
 62
7
  6
CONTINUOUS
 10
12.6642983102
 20
-24.0152650055
 11
12.7225396756
 21
-23.8114280491
  0
LINE
  5
4C0
100
AcDbEntity
  8
0
100
AcDbLine
 62
7
  6
CONTINUOUS
 10
12.8921765024
 20
-31.0242607859
 11
13.088732983
 21
-30.3502669151
  0
LINE
  5
4C1
100
AcDbEntity
  8
0
100
AcDbLine
 62
7
  6
CONTINUOUS
 10
9.7005617615
 20
-30.0657039957
 11
9.4906951674
 21
-30.6810632889
  0
LINE
  5
4C2
100
AcDbEntity
  8
0
100
AcDbLine
 62
7
  6
CONTINUOUS
 10
9.16295263
 20
-29.9665974534
 11
9.3588603661
 21
-29.4015657123
  0
LINE
  5
4C3
100
AcDbEntity
  8
0
100
AcDbLine
 62
7
  6
CONTINUOUS
 10
9.9106510002
 20
-29.4607868042
 11
9.7005617615
 21
-30.0657039957
  0
LWPOLYLINE
  5
4C4
100
AcDbEntity
  8
0
100
AcDbPolyline
 62
7
  6
CONTINUOUS
 90
3
 70
0
 10
9.3588603661
 20
-29.4015657123
 10
9.5544397223
 20
-28.8464154156
 10
9.603226811
 20
-28.7092513472
  0
LINE
  5
4C5
100
AcDbEntity
  8
0
100
AcDbLine
 62
7
  6
CONTINUOUS
 10
10.1199944738
 20
-28.8677062326
 11
9.9106510002
 21
-29.4607868042
  0
LINE
  5
4C6
100
AcDbEntity
  8
RACCORDO
100
AcDbLine
 62
7
  6
CONTINUOUS
 10
7.5052724738
 20
-21.9612032291
 11
7.3299505183
 21
-22.1554161621
  0
LINE
  5
4C7
100
AcDbEntity
  8
DRAFT
100
AcDbLine
 62
7
  6
CONTINUOUS
 10
7.1796745564
 20
-22.3218843903
 11
7.0794905817
 21
-22.4328632091
  0
LINE
  5
4C8
100
AcDbEntity
  8
DRAFT
100
AcDbLine
 62
7
  6
CONTINUOUS
 10
6.9292146198
 20
-22.5993314374
 11
6.8290306452
 21
-22.7103102562
  0
LINE
  5
4C9
100
AcDbEntity
  8
DRAFT
100
AcDbLine
 62
7
  6
CONTINUOUS
 10
6.6787546833
 20
-22.8767784845
 11
6.5785707087
 21
-22.9877573033
  0
LWPOLYLINE
  5
4CA
100
AcDbEntity
  8
0
100
AcDbPolyline
 62
7
  6
CONTINUOUS
 90
9
 70
0
 10
-24.4137883239
 20
18.8688038266
 10
-24.4157658065
 20
18.8687514084
 10
-24.4143854635
 20
18.8686913087
 10
-24.4075398612
 20
18.8681256065
 10
-24.3955743517
 20
18.8665775581
 10
-24.3784125117
 20
18.8636108878
 10
-24.3565589898
 20
18.858950737
 10
-24.3301324687
 20
18.8523216159
 10
-24.295426826
 20
18.8423110181
  0
LWPOLYLINE
  5
4CB
100
AcDbEntity
  8
0
100
AcDbPolyline
 62
250
  6
CONTINUOUS
 90
10
 70
0
 10
-25.5265278555
 20
26.4022747485
 10
-25.8222619253
 20
26.4639097408
 10
-26.1104839403
 20
26.5156680395
 10
-26.3908731935
 20
26.5577920427
 10
-26.6632024747
 20
26.5905559103
 10
-26.9271765404
 20
26.6142426699
 10
-27.1823822111
 20
26.6291567303
 10
-27.4277993974
 20
26.6355641509
 10
-27.6638704973
 20
26.6338112778
 10
-27.890578118
 20
26.6242573556
  0
LINE
  5
4CC
100
AcDbEntity
  8
0
100
AcDbLine
 62
250
  6
CONTINUOUS
 10
-24.9787183821
 20
26.270334223
 11
-25.5265278555
 21
26.4022747485
  0
LINE
  5
4CD
100
AcDbEntity
  8
0
100
AcDbLine
 62
250
  6
CONTINUOUS
 10
-23.2314418299
 20
25.8209302561
 11
-24.9787183821
 21
26.270334223
  0
LINE
  5
4CE
100
AcDbEntity
  8
0
100
AcDbLine
 62
250
  6
CONTINUOUS
 10
-21.3442584913
 20
25.3236747068
 11
-23.2314418299
 21
25.8209302561
  0
LINE
  5
4CF
100
AcDbEntity
  8
0
100
AcDbLine
 62
250
  6
CONTINUOUS
 10
-19.3033181397
 20
24.7731142354
 11
-21.3442584913
 21
25.3236747068
  0
LINE
  5
4D0
100
AcDbEntity
  8
0
100
AcDbLine
 62
250
  6
CONTINUOUS
 10
-17.0942644136
 20
24.1628983682
 11
-19.3033181397
 21
24.7731142354
  0
LINE
  5
4D1
100
AcDbEntity
  8
0
100
AcDbLine
 62
250
  6
CONTINUOUS
 10
-15.5205897464
 20
23.7194838115
 11
-17.0942644136
 21
24.1628983682
  0
LINE
  5
4D2
100
AcDbEntity
  8
0
100
AcDbLine
 62
250
  6
CONTINUOUS
 10
-13.8605591318
 20
23.2437871753
 11
-15.5205897464
 21
23.7194838115
  0
LINE
  5
4D3
100
AcDbEntity
  8
0
100
AcDbLine
 62
250
  6
CONTINUOUS
 10
-12.1084045247
 20
22.732904598
 11
-13.8605591318
 21
23.2437871753
  0
LINE
  5
4D4
100
AcDbEntity
  8
0
100
AcDbLine
 62
250
  6
CONTINUOUS
 10
-10.2602906729
 20
22.1840344205
 11
-12.1084045247
 21
22.732904598
  0
LINE
  5
4D5
100
AcDbEntity
  8
0
100
AcDbLine
 62
250
  6
CONTINUOUS
 10
-8.3104894519
 20
21.5936009578
 11
-10.2602906729
 21
22.1840344205
  0
LINE
  5
4D6
100
AcDbEntity
  8
0
100
AcDbLine
 62
250
  6
CONTINUOUS
 10
0.1728748839
 20
18.9884846814
 11
-8.3104894519
 21
21.5936009578
  0
LINE
  5
4D7
100
AcDbEntity
  8
0
100
AcDbLine
 62
250
  6
CONTINUOUS
 10
2.1336859471
 20
18.3776923307
 11
0.1728748839
 21
18.9884846814
  0
LINE
  5
4D8
100
AcDbEntity
  8
0
100
AcDbLine
 62
250
  6
CONTINUOUS
 10
3.9897513474
 20
17.7886492623
 11
2.1336859471
 21
18.3776923307
  0
LINE
  5
4D9
100
AcDbEntity
  8
0
100
AcDbLine
 62
250
  6
CONTINUOUS
 10
5.747065927
 20
17.2214889331
 11
3.9897513474
 21
17.7886492623
  0
LINE
  5
4DA
100
AcDbEntity
  8
0
100
AcDbLine
 62
250
  6
CONTINUOUS
 10
7.4096616261
 20
16.6765492429
 11
5.747065927
 21
17.2214889331
  0
LINE
  5
4DB
100
AcDbEntity
  8
0
100
AcDbLine
 62
250
  6
CONTINUOUS
 10
9.739414533
 20
15.8992498514
 11
7.4096616261
 21
16.6765492429
  0
LINE
  5
4DC
100
AcDbEntity
  8
0
100
AcDbLine
 62
250
  6
CONTINUOUS
 10
11.8864956173
 20
15.1688244894
 11
9.739414533
 21
15.8992498514
  0
LINE
  5
4DD
100
AcDbEntity
  8
0
100
AcDbLine
 62
250
  6
CONTINUOUS
 10
13.8668990251
 20
14.4824393084
 11
11.8864956173
 21
15.1688244894
  0
LWPOLYLINE
  5
4DE
100
AcDbEntity
  8
0
100
AcDbPolyline
 62
250
  6
CONTINUOUS
 90
4
 70
0
 10
17.3798161298
 20
13.2261521854
 10
16.8364347983
 20
13.4288085667
 10
16.2751072481
 20
13.6301533066
 10
13.8668990251
 20
14.4824393084
  0
LWPOLYLINE
  5
4DF
100
AcDbEntity
  8
0
100
AcDbPolyline
 62
250
  6
CONTINUOUS
 90
10
 70
0
 10
17.3798161298
 20
13.2261521854
 10
17.677013278
 20
13.105703745
 10
17.9670778931
 20
12.979875822
 10
18.2496721776
 20
12.8491130349
 10
18.5245516776
 20
12.7138343871
 10
18.791402414
 20
12.5745099927
 10
19.0497895833
 20
12.4317046675
 10
19.2986640472
 20
12.286319911
 10
19.5384576616
 20
12.1384335943
 10
19.7691347513
 20
11.9884212587
  0
LWPOLYLINE
  5
4E0
100
AcDbEntity
  8
0
100
AcDbPolyline
 62
250
  6
CONTINUOUS
 90
10
 70
0
 10
19.7691347513
 20
11.9884212587
 10
19.9006145086
 20
11.8992959226
 10
20.0292114754
 20
11.8094362245
 10
20.1549037471
 20
11.7189162842
 10
20.2776000774
 20
11.62786467
 10
20.3973882281
 20
11.5362803564
 10
20.5144539499
 20
11.4440809943
 10
20.6288004772
 20
11.3513157397
 10
20.7403415115
 20
11.2581088783
 10
20.8491415188
 20
11.164466426
  0
LWPOLYLINE
  5
4E1
100
AcDbEntity
  8
0
100
AcDbPolyline
 62
7
  6
CONTINUOUS
 90
10
 70
0
 10
18.2831606522
 20
6.9973319936
 10
18.2922857287
 20
6.9799595576
 10
18.3012947014
 20
6.9625783842
 10
18.3101882912
 20
6.9451871137
 10
18.3189657066
 20
6.9277874055
 10
18.327629227
 20
6.9103748733
 10
18.3361840002
 20
6.8929390732
 10
18.344632028
 20
6.8754755918
 10
18.3529723691
 20
6.857986058
 10
18.3612055809
 20
6.8404690696
  0
LWPOLYLINE
  5
4E2
100
AcDbEntity
  8
0
100
AcDbPolyline
 62
7
  6
CONTINUOUS
 90
10
 70
0
 10
18.3612055052
 20
6.8404692317
 10
18.4077579251
 20
6.7361550359
 10
18.4502007851
 20
6.6315449071
 10
18.4885778856
 20
6.5264818843
 10
18.5227664036
 20
6.4212345474
 10
18.5526427634
 20
6.3161320776
 10
18.5781511112
 20
6.2113258671
 10
18.5992650688
 20
6.1068803294
 10
18.6159411088
 20
6.0028947741
 10
18.628134142
 20
5.8994652136
  0
LINE
  5
4E3
100
AcDbEntity
  8
0
100
AcDbLine
 62
250
  6
CONTINUOUS
 10
23.7134039955
 20
5.7829378499
 11
23.7526681246
 21
5.3582189951
  0
LINE
  5
4E4
100
AcDbEntity
  8
0
100
AcDbLine
 62
250
  6
CONTINUOUS
 10
23.7526681246
 20
5.3582189951
 11
23.8671632047
 21
4.0203189466
  0
LINE
  5
4E5
100
AcDbEntity
  8
0
100
AcDbLine
 62
250
  6
CONTINUOUS
 10
23.8671632047
 20
4.0203189466
 11
23.9834816098
 21
2.5820595489
  0
LINE
  5
4E6
100
AcDbEntity
  8
0
100
AcDbLine
 62
250
  6
CONTINUOUS
 10
23.9834816098
 20
2.5820595489
 11
24.1009496478
 21
1.0327533043
  0
LINE
  5
4E7
100
AcDbEntity
  8
0
100
AcDbLine
 62
250
  6
CONTINUOUS
 10
24.1009496478
 20
1.0327533043
 11
24.2184442947
 21
-0.6372462984
  0
LINE
  5
4E8
100
AcDbEntity
  8
0
100
AcDbLine
 62
250
  6
CONTINUOUS
 10
24.2184442947
 20
-0.6372462984
 11
24.2960561916
 21
-1.8222589908
  0
LINE
  5
4E9
100
AcDbEntity
  8
0
100
AcDbLine
 62
250
  6
CONTINUOUS
 10
24.2960561916
 20
-1.8222589908
 11
24.372477535
 21
-3.0681720245
  0
LINE
  5
4EA
100
AcDbEntity
  8
0
100
AcDbLine
 62
250
  6
CONTINUOUS
 10
24.372477535
 20
-3.0681720245
 11
24.4471336426
 21
-4.3790888552
  0
LINE
  5
4EB
100
AcDbEntity
  8
0
100
AcDbLine
 62
250
  6
CONTINUOUS
 10
24.4471336426
 20
-4.3790888552
 11
24.5192591915
 21
-5.7577414444
  0
LINE
  5
4EC
100
AcDbEntity
  8
0
100
AcDbLine
 62
250
  6
CONTINUOUS
 10
24.5192591915
 20
-5.7577414444
 11
24.5880545755
 21
-7.2084752661
  0
LINE
  5
4ED
100
AcDbEntity
  8
0
100
AcDbLine
 62
250
  6
CONTINUOUS
 10
24.5880545755
 20
-7.2084752661
 11
24.6526041324
 21
-8.7364666872
  0
LINE
  5
4EE
100
AcDbEntity
  8
0
100
AcDbLine
 62
250
  6
CONTINUOUS
 10
24.6526041324
 20
-8.7364666872
 11
24.7117455199
 21
-10.3449584703
  0
LINE
  5
4EF
100
AcDbEntity
  8
0
100
AcDbLine
 62
250
  6
CONTINUOUS
 10
24.7117455199
 20
-10.3449584703
 11
24.764249973
 21
-12.0402758
  0
LINE
  5
4F0
100
AcDbEntity
  8
0
100
AcDbLine
 62
250
  6
CONTINUOUS
 10
24.764249973
 20
-12.0402758
 11
24.8079962624
 21
-13.7988335487
  0
LINE
  5
4F1
100
AcDbEntity
  8
0
100
AcDbLine
 62
250
  6
CONTINUOUS
 10
24.8079962624
 20
-13.7988335487
 11
24.8396844103
 21
-15.4881042158
  0
LINE
  5
4F2
100
AcDbEntity
  8
0
100
AcDbLine
 62
250
  6
CONTINUOUS
 10
24.8396844103
 20
-15.4881042158
 11
24.86027565
 21
-17.0850248228
  0
LINE
  5
4F3
100
AcDbEntity
  8
0
100
AcDbLine
 62
250
  6
CONTINUOUS
 10
24.86027565
 20
-17.0850248228
 11
24.8713364683
 21
-18.5967881868
  0
LINE
  5
4F4
100
AcDbEntity
  8
0
100
AcDbLine
 62
250
  6
CONTINUOUS
 10
24.8713364683
 20
-18.5967881868
 11
24.8742109473
 21
-20.0274118113
  0
LINE
  5
4F5
100
AcDbEntity
  8
0
100
AcDbLine
 62
250
  6
CONTINUOUS
 10
24.8742109473
 20
-20.0274118113
 11
24.870089177
 21
-21.3827273302
  0
LINE
  5
4F6
100
AcDbEntity
  8
0
100
AcDbLine
 62
250
  6
CONTINUOUS
 10
24.870089177
 20
-21.3827273302
 11
24.8600017187
 21
-22.6676494569
  0
LWPOLYLINE
  5
4F7
100
AcDbEntity
  8
0
100
AcDbPolyline
 62
250
  6
CONTINUOUS
 90
3
 70
0
 10
24.8600017187
 20
-22.6676494569
 10
24.8448639745
 20
-23.8854253739
 10
24.8356478832
 20
-24.4708331601
  0
LINE
  5
4F8
100
AcDbEntity
  8
0
100
AcDbLine
 62
7
  6
CONTINUOUS
 10
13.3837917736
 20
-31.2727631227
 11
13.2300469506
 21
-31.8125396282
  0
LINE
  5
4F9
100
AcDbEntity
  8
0
100
AcDbLine
 62
7
  6
CONTINUOUS
 10
13.5753027739
 20
-30.6129039453
 11
13.3837917736
 21
-31.2727631227
  0
LINE
  5
4FA
100
AcDbEntity
  8
0
100
AcDbLine
 62
7
  6
CONTINUOUS
 10
13.088732983
 20
-30.3502669151
 11
13.2442805279
 21
-29.8255840299
  0
LINE
  5
4FB
100
AcDbEntity
  8
0
100
AcDbLine
 62
7
  6
CONTINUOUS
 10
15.2201331069
 20
-32.0286188255
 11
15.1025733851
 21
-32.3774638477
  0
LINE
  5
4FC
100
AcDbEntity
  8
0
100
AcDbLine
 62
7
  6
CONTINUOUS
 10
14.5841629748
 20
-32.2210836779
 11
14.8317890059
 21
-31.490207071
  0
LINE
  5
4FD
100
AcDbEntity
  8
0
100
AcDbLine
 62
7
  6
CONTINUOUS
 10
15.5216425317
 20
-31.1466948167
 11
15.3354199079
 21
-31.6894543211
  0
LINE
  5
4FE
100
AcDbEntity
  8
0
100
AcDbLine
 62
7
  6
CONTINUOUS
 10
14.8317890059
 20
-31.490207071
 11
15.1331385814
 21
-30.6164387987
  0
LINE
  5
4FF
100
AcDbEntity
  8
0
100
AcDbLine
 62
7
  6
CONTINUOUS
 10
15.1331385814
 20
-30.6164387987
 11
15.1998069929
 21
-30.4248121627
  0
LINE
  5
500
100
AcDbEntity
  8
RACCORDO
100
AcDbLine
 62
250
  6
CONTINUOUS
 10
12.8860390337
 20
-24.5127220201
 11
12.8789512956
 21
-24.5298950102
  0
LWPOLYLINE
  5
501
100
AcDbEntity
  8
RACCORDO
100
AcDbPolyline
 62
250
  6
CONTINUOUS
 90
3
 70
0
 10
12.8911860731
 20
-24.4747053454
 10
12.8999985514
 20
-24.4596074064
 10
12.9057496145
 20
-24.4439726466
  0
LINE
  5
502
100
AcDbEntity
  8
RACCORDO
100
AcDbLine
 62
250
  6
CONTINUOUS
 10
12.8789512956
 20
-24.5298950102
 11
12.8720770018
 21
-24.5411708559
  0
LINE
  5
503
100
AcDbEntity
  8
RACCORDO
100
AcDbLine
 62
7
  6
CONTINUOUS
 10
12.8651870207
 20
-23.6071810598
 11
12.7225396756
 21
-23.8114280491
  0
LINE
  5
504
100
AcDbEntity
  8
DRAFT
100
AcDbLine
 62
7
  6
CONTINUOUS
 10
12.6002705226
 20
-23.986496897
 11
12.518757754
 21
-24.1032094623
  0
LINE
  5
505
100
AcDbEntity
  8
DRAFT
100
AcDbLine
 62
7
  6
CONTINUOUS
 10
12.396488601
 20
-24.2782783103
 11
12.3149758323
 21
-24.3949908756
  0
LINE
  5
506
100
AcDbEntity
  8
DRAFT
100
AcDbLine
 62
7
  6
CONTINUOUS
 10
12.1927066793
 20
-24.5700597235
 11
12.1111939107
 21
-24.6867722888
  0
LINE
  5
507
100
AcDbEntity
  8
RACCORDO
100
AcDbLine
 62
250
  6
CONTINUOUS
 10
12.6213462544
 20
-24.8579784756
 11
12.8911860731
 21
-24.4747053454
  0
LINE
  5
508
100
AcDbEntity
  8
RACCORDO
100
AcDbLine
 62
7
  6
CONTINUOUS
 10
12.644109986
 20
-24.8649689971
 11
12.8720770018
 21
-24.5411708559
  0
LWPOLYLINE
  5
509
100
AcDbEntity
  8
RACCORDO
100
AcDbPolyline
 62
7
  6
CONTINUOUS
 90
5
 70
0
 10
12.8694583562
 20
-23.6012853142
 10
12.8785087173
 20
-23.5887928401
 10
12.8842163861
 20
-23.5779835934
 10
12.8868883793
 20
-23.569144966
 10
12.8871906855
 20
-23.5652738259
  0
LWPOLYLINE
  5
50A
100
AcDbEntity
  8
RACCORDO
100
AcDbPolyline
 62
7
  6
CONTINUOUS
 90
6
 70
0
 10
7.5105209847
 20
-21.9556075646
 10
7.5249517957
 20
-21.9447673745
 10
7.5413084686
 20
-21.9372283338
 10
7.5590364461
 20
-21.9330132533
 10
7.5775175836
 20
-21.9323732601
 10
7.5964003785
 20
-21.9349316002
  0
LWPOLYLINE
  5
50B
100
AcDbEntity
  8
0
100
AcDbPolyline
 62
7
  6
CONTINUOUS
 90
10
 70
0
 10
-25.5193288724
 20
21.5500232835
 10
-25.703990448
 20
21.5271404907
 10
-25.8823046703
 20
21.4899230229
 10
-26.0525697918
 20
21.4384983772
 10
-26.2135420796
 20
21.3732378474
 10
-26.3643648536
 20
21.2944490537
 10
-26.5038322397
 20
21.2026837368
 10
-26.6310408109
 20
21.0986262199
 10
-26.7454460985
 20
20.9826396651
 10
-26.8457772792
 20
20.8559914898
  0
LWPOLYLINE
  5
50C
100
AcDbEntity
  8
0
100
AcDbPolyline
 62
250
  6
CONTINUOUS
 90
7
 70
0
 10
-28.4893706847
 20
31.5280677947
 10
-28.8318434032
 20
31.6169887533
 10
-29.1674520128
 20
31.7005916514
 10
-29.4960724002
 20
31.7783113488
 10
-29.8176765708
 20
31.8496813931
 10
-30.1320812412
 20
31.9142758867
 10
-30.4389367458
 20
31.9717113516
  0
LINE
  5
50D
100
AcDbEntity
  8
0
100
AcDbLine
 62
250
  6
CONTINUOUS
 10
-27.5823123701
 20
31.2766612812
 11
-28.4893706847
 21
31.5280677947
  0
LINE
  5
50E
100
AcDbEntity
  8
0
100
AcDbLine
 62
250
  6
CONTINUOUS
 10
-23.7240990716
 20
30.1710495383
 11
-27.5823123701
 21
31.2766612812
  0
LINE
  5
50F
100
AcDbEntity
  8
0
100
AcDbLine
 62
250
  6
CONTINUOUS
 10
-20.567433175
 20
29.254569964
 11
-23.7240990716
 21
30.1710495383
  0
LINE
  5
510
100
AcDbEntity
  8
0
100
AcDbLine
 62
250
  6
CONTINUOUS
 10
-17.1619797736
 20
28.2532678617
 11
-20.567433175
 21
29.254569964
  0
LINE
  5
511
100
AcDbEntity
  8
0
100
AcDbLine
 62
250
  6
CONTINUOUS
 10
-14.7423148528
 20
27.5335432323
 11
-17.1619797736
 21
28.2532678617
  0
LINE
  5
512
100
AcDbEntity
  8
0
100
AcDbLine
 62
250
  6
CONTINUOUS
 10
-12.1962259999
 20
26.7686183427
 11
-14.7423148528
 21
27.5335432323
  0
LINE
  5
513
100
AcDbEntity
  8
0
100
AcDbLine
 62
250
  6
CONTINUOUS
 10
-9.5152254238
 20
25.9534672395
 11
-12.1962259999
 21
26.7686183427
  0
LINE
  5
514
100
AcDbEntity
  8
0
100
AcDbLine
 62
250
  6
CONTINUOUS
 10
-9.5152254238
 20
25.9534672395
 11
2.0885160474
 21
22.3900706503
  0
LINE
  5
515
100
AcDbEntity
  8
0
100
AcDbLine
 62
250
  6
CONTINUOUS
 10
2.0885160474
 20
22.3900706503
 11
4.7699256439
 21
21.5584775402
  0
LINE
  5
516
100
AcDbEntity
  8
0
100
AcDbLine
 62
250
  6
CONTINUOUS
 10
4.7699256439
 20
21.5584775402
 11
7.3168645233
 21
20.7593829543
  0
LINE
  5
517
100
AcDbEntity
  8
0
100
AcDbLine
 62
250
  6
CONTINUOUS
 10
7.3168645233
 20
20.7593829543
 11
9.7376991739
 21
19.9926370599
  0
LINE
  5
518
100
AcDbEntity
  8
0
100
AcDbLine
 62
250
  6
CONTINUOUS
 10
9.7376991739
 20
19.9926370599
 11
12.0377584356
 21
19.2577499417
  0
LINE
  5
519
100
AcDbEntity
  8
0
100
AcDbLine
 62
250
  6
CONTINUOUS
 10
12.0377584356
 20
19.2577499417
 11
14.2246742512
 21
18.5534126518
  0
LINE
  5
51A
100
AcDbEntity
  8
0
100
AcDbLine
 62
250
  6
CONTINUOUS
 10
14.2246742512
 20
18.5534126518
 11
17.3055455071
 21
17.5522189681
  0
LWPOLYLINE
  5
51B
100
AcDbEntity
  8
0
100
AcDbPolyline
 62
250
  6
CONTINUOUS
 90
3
 70
0
 10
17.3055455071
 20
17.5522189681
 10
20.1668853174
 20
16.6133452636
 10
21.0753044404
 20
16.3072362442
  0
LWPOLYLINE
  5
51C
100
AcDbEntity
  8
0
100
AcDbPolyline
 62
250
  6
CONTINUOUS
 90
9
 70
0
 10
21.0753044404
 20
16.3072362442
 10
21.4185918268
 20
16.1855669182
 10
21.7551760496
 20
16.0627459096
 10
22.0849594185
 20
15.9382761921
 10
22.407936894
 20
15.8117014576
 10
22.7239437237
 20
15.6827026868
 10
23.0326440844
 20
15.551106909
 10
23.3334881347
 20
15.416662524
 10
23.6262815075
 20
15.2790327437
  0
LINE
  5
51D
100
AcDbEntity
  8
0
100
AcDbLine
 62
250
  6
CONTINUOUS
 10
23.6262815075
 20
15.2790327437
 11
23.9111714777
 21
15.1378751071
  0
LWPOLYLINE
  5
51E
100
AcDbEntity
  8
0
100
AcDbPolyline
 62
250
  6
CONTINUOUS
 90
10
 70
0
 10
23.9111714777
 20
15.1378751071
 10
24.0760291946
 20
15.0526087878
 10
24.2374601308
 20
14.9663685674
 10
24.3954264971
 20
14.8791929251
 10
24.5498734784
 20
14.7911364967
 10
24.7007480489
 20
14.7022570669
 10
24.8481563291
 20
14.6125637627
 10
24.9921380083
 20
14.5220644913
 10
25.1324965026
 20
14.4308025213
 10
25.2689093895
 20
14.3388638755
  0
LWPOLYLINE
  5
51F
100
AcDbEntity
  8
0
100
AcDbPolyline
 62
250
  6
CONTINUOUS
 90
10
 70
0
 10
20.8491415188
 20
11.164466426
 10
21.0597628984
 20
10.9749683093
 10
21.2626581629
 20
10.7811543055
 10
21.4566744632
 20
10.5841798849
 10
21.6400223567
 20
10.386168672
 10
21.8140418377
 20
10.1860418937
 10
21.982436579
 20
9.9794499896
 10
22.1459793366
 20
9.7651132327
 10
22.3029260999
 20
9.5450353665
 10
22.4530401717
 20
9.3194044781
  0
LINE
  5
520
100
AcDbEntity
  8
0
100
AcDbLine
 62
250
  6
CONTINUOUS
 10
22.4530401717
 20
9.3194044781
 11
22.4786868622
 21
9.2792134361
  0
LINE
  5
521
100
AcDbEntity
  8
0
100
AcDbLine
 62
250
  6
CONTINUOUS
 10
22.4786868622
 20
9.2792134361
 11
22.5041215314
 21
9.2388476489
  0
LINE
  5
522
100
AcDbEntity
  8
0
100
AcDbLine
 62
250
  6
CONTINUOUS
 10
22.5041215314
 20
9.2388476489
 11
22.5293600858
 21
9.1982794036
  0
LWPOLYLINE
  5
523
100
AcDbEntity
  8
0
100
AcDbPolyline
 62
250
  6
CONTINUOUS
 90
3
 70
0
 10
22.5293600858
 20
9.1982794036
 10
22.5544390643
 20
9.1574466472
 10
22.5669195828
 20
9.1369284577
  0
LWPOLYLINE
  5
524
100
AcDbEntity
  8
0
100
AcDbPolyline
 62
250
  6
CONTINUOUS
 90
10
 70
0
 10
22.5669195828
 20
9.1369284577
 10
22.6364362187
 20
9.0201340361
 10
22.7044252995
 20
8.9015305226
 10
22.7708511202
 20
8.781084044
 10
22.8355402411
 20
8.6590070536
 10
22.8985031394
 20
8.535198689
 10
22.9599366752
 20
8.4091663826
 10
23.0198475724
 20
8.2807685369
 10
23.0780503255
 20
8.1502684698
 10
23.1344530848
 20
8.0177468067
  0
LWPOLYLINE
  5
525
100
AcDbEntity
  8
0
100
AcDbPolyline
 62
250
  6
CONTINUOUS
 90
10
 70
0
 10
23.1344530848
 20
8.0177468067
 10
23.2266147769
 20
7.7864217825
 10
23.3125159072
 20
7.550669788
 10
23.3918586747
 20
7.3105738687
 10
23.4642378877
 20
7.0665967992
 10
23.5294070741
 20
6.8187510781
 10
23.5872797247
 20
6.5662537492
 10
23.6375291984
 20
6.3090472832
 10
23.6796911067
 20
6.0478156566
 10
23.7134039955
 20
5.7829378499
  0
LINE
  5
526
100
AcDbEntity
  8
0
100
AcDbLine
 62
250
  6
CONTINUOUS
 10
28.1360457146
 20
8.1652010376
 11
28.1965113195
 21
7.2076259667
  0
LINE
  5
527
100
AcDbEntity
  8
0
100
AcDbLine
 62
250
  6
CONTINUOUS
 10
28.1965113195
 20
7.2076259667
 11
28.3074354242
 21
5.2165692425
  0
LINE
  5
528
100
AcDbEntity
  8
0
100
AcDbLine
 62
250
  6
CONTINUOUS
 10
28.3074354242
 20
5.2165692425
 11
28.4174156089
 21
3.1226291744
  0
LINE
  5
529
100
AcDbEntity
  8
0
100
AcDbLine
 62
250
  6
CONTINUOUS
 10
28.4174156089
 20
3.1226291744
 11
28.5259353169
 21
0.9167070137
  0
LINE
  5
52A
100
AcDbEntity
  8
0
100
AcDbLine
 62
250
  6
CONTINUOUS
 10
28.5259353169
 20
0.9167070137
 11
28.6389202437
 21
-1.5661340631
  0
LINE
  5
52B
100
AcDbEntity
  8
0
100
AcDbLine
 62
250
  6
CONTINUOUS
 10
28.6389202437
 20
-1.5661340631
 11
28.7347745464
 21
-3.8534751386
  0
LINE
  5
52C
100
AcDbEntity
  8
0
100
AcDbLine
 62
250
  6
CONTINUOUS
 10
28.7347745464
 20
-3.8534751386
 11
28.8329775457
 21
-6.4343754783
  0
LINE
  5
52D
100
AcDbEntity
  8
0
100
AcDbLine
 62
250
  6
CONTINUOUS
 10
28.8329775457
 20
-6.4343754783
 11
28.9251988509
 21
-9.1549521422
  0
LWPOLYLINE
  5
52E
100
AcDbEntity
  8
0
100
AcDbPolyline
 62
250
  6
CONTINUOUS
 90
3
 70
0
 10
28.9251988509
 20
-9.1549521422
 10
29.0099405126
 20
-12.0275459459
 10
29.0488223957
 20
-13.5197657713
  0
LINE
  5
52F
100
AcDbEntity
  8
0
100
AcDbLine
 62
250
  6
CONTINUOUS
 10
29.1652784519
 20
-19.2475084658
 11
29.0488223957
 21
-13.5197657713
  0
LINE
  5
530
100
AcDbEntity
  8
0
100
AcDbLine
 62
250
  6
CONTINUOUS
 10
29.2012469406
 20
-21.8782635251
 11
29.1652784519
 21
-19.2475084658
  0
LINE
  5
531
100
AcDbEntity
  8
0
100
AcDbLine
 62
250
  6
CONTINUOUS
 10
29.2384413152
 20
-26.7244871582
 11
29.2012469406
 21
-21.8782635251
  0
LINE
  5
532
100
AcDbEntity
  8
0
100
AcDbLine
 62
250
  6
CONTINUOUS
 10
29.2428344932
 20
-28.9558948849
 11
29.2384413152
 21
-26.7244871582
  0
LWPOLYLINE
  5
533
100
AcDbEntity
  8
0
100
AcDbPolyline
 62
250
  6
CONTINUOUS
 90
3
 70
0
 10
29.2353894145
 20
-32.0857209586
 10
29.2395663146
 20
-31.0700293226
 10
29.2428344932
 20
-28.9558948849
  0
LINE
  5
534
100
AcDbEntity
  8
0
100
AcDbLine
 62
250
  6
CONTINUOUS
 10
24.8356478832
 20
-24.4708331601
 11
24.8143876614
 21
-25.5959102091
  0
LINE
  5
535
100
AcDbEntity
  8
0
100
AcDbLine
 62
250
  6
CONTINUOUS
 10
24.8143876614
 20
-25.5959102091
 11
24.7765966957
 21
-27.1767306864
  0
LINE
  5
536
100
AcDbEntity
  8
0
100
AcDbLine
 62
250
  6
CONTINUOUS
 10
24.7765966957
 20
-27.1767306864
 11
24.7333778752
 21
-28.6384211269
  0
LINE
  5
537
100
AcDbEntity
  8
0
100
AcDbLine
 62
250
  6
CONTINUOUS
 10
24.7333778752
 20
-28.6384211269
 11
24.6862349311
 21
-29.9915149501
  0
LWPOLYLINE
  5
538
100
AcDbEntity
  8
0
100
AcDbPolyline
 62
250
  6
CONTINUOUS
 90
3
 70
0
 10
24.6862349311
 20
-29.9915149501
 10
24.6531276679
 20
-30.8390527123
 10
24.6345548942
 20
-31.2458787714
  0
LWPOLYLINE
  5
539
100
AcDbEntity
  8
0
100
AcDbPolyline
 62
250
  6
CONTINUOUS
 90
3
 70
0
 10
24.583889031
 20
-31.7331288116
 10
24.613602917
 20
-31.493969534
 10
24.6345548942
 20
-31.2458787714
  0
LINE
  5
53A
100
AcDbEntity
  8
0
100
AcDbLine
 62
7
  6
CONTINUOUS
 10
9.16295263
 20
-29.9665974534
 11
9.1766749582
 21
-29.9494014606
  0
LINE
  5
53B
100
AcDbEntity
  8
0
100
AcDbLine
 62
7
  6
CONTINUOUS
 10
8.9730160657
 20
-30.5237367053
 11
8.9867626122
 21
-30.5065103636
  0
LINE
  5
53C
100
AcDbEntity
  8
0
100
AcDbLine
 62
7
  6
CONTINUOUS
 10
10.667286972
 20
-31.0379302672
 11
10.6810358985
 21
-31.0207009429
  0
LINE
  5
53D
100
AcDbEntity
  8
0
100
AcDbLine
 62
7
  6
CONTINUOUS
 10
12.0793758941
 20
-30.1574035364
 11
12.0930826613
 21
-30.1402270436
  0
LINE
  5
53E
100
AcDbEntity
  8
0
100
AcDbLine
 62
7
  6
CONTINUOUS
 10
11.7034787634
 20
-31.3514652189
 11
11.7172293421
 21
-31.3342338243
  0
LWPOLYLINE
  5
53F
100
AcDbEntity
  8
0
100
AcDbPolyline
 62
250
  6
CONTINUOUS
 90
10
 70
0
 10
-27.890578118
 20
26.6242573556
 10
-28.0196137772
 20
26.6151337801
 10
-28.1456854441
 20
26.6034803521
 10
-28.2687745924
 20
26.5893587758
 10
-28.3887950166
 20
26.5728431254
 10
-28.5058357779
 20
26.5539866763
 10
-28.6200813583
 20
26.5328207742
 10
-28.7315375073
 20
26.5093973339
 10
-28.8401228288
 20
26.4837891438
 10
-28.945903082
 20
26.4560422106
  0
LWPOLYLINE
  5
540
100
AcDbEntity
  8
0
100
AcDbPolyline
 62
250
  6
CONTINUOUS
 90
10
 70
0
 10
-31.3102723784
 20
32.0958455323
 10
-31.4733942565
 20
32.1112983734
 10
-31.6329875251
 20
32.1236414062
 10
-31.7890157468
 20
32.1328903269
 10
-31.9414259907
 20
32.139066698
 10
-32.0901673276
 20
32.1421963888
 10
-32.2353480294
 20
32.1423543662
 10
-32.3770087756
 20
32.139573215
 10
-32.5149522594
 20
32.1337752951
 10
-32.6488550342
 20
32.1248482088
  0
LWPOLYLINE
  5
541
100
AcDbEntity
  8
0
100
AcDbPolyline
 62
250
  6
CONTINUOUS
 90
4
 70
0
 10
-30.4389367458
 20
31.9717113516
 10
-30.7376721635
 20
32.0213920125
 10
-31.0280732504
 20
32.0628556008
 10
-31.3102723784
 20
32.0958455323
  0
LINE
  5
542
100
AcDbEntity
  8
0
100
AcDbLine
 62
250
  6
CONTINUOUS
 10
30.028122324
 20
18.1059884664
 11
-35.8814264728
 21
38.3461723731
  0
LWPOLYLINE
  5
543
100
AcDbEntity
  8
0
100
AcDbPolyline
 62
250
  6
CONTINUOUS
 90
10
 70
0
 10
30.0281222804
 20
18.1059915011
 10
30.0700854994
 20
18.092794326
 10
30.112013023
 20
18.0789881291
 10
30.1538925653
 20
18.0645786831
 10
30.1956932058
 20
18.0495787676
 10
30.2374215456
 20
18.0339881535
 10
30.279121535
 20
18.0177909007
 10
30.3207995886
 20
18.0009833379
 10
30.3624247663
 20
17.9835767604
 10
30.4039848071
 20
17.965575528
  0
LWPOLYLINE
  5
544
100
AcDbEntity
  8
0
100
AcDbPolyline
 62
250
  6
CONTINUOUS
 90
19
 70
0
 10
30.4039848071
 20
17.965575528
 10
30.5879300809
 20
17.8783248435
 10
30.7676570235
 20
17.7807508898
 10
30.9422093468
 20
17.6736405672
 10
31.1100687738
 20
17.5582676086
 10
31.271085344
 20
17.4350839319
 10
31.4262480823
 20
17.3033952891
 10
31.5750761136
 20
17.163377971
 10
31.7161404073
 20
17.016131694
 10
31.8487804982
 20
16.8621143122
 10
31.9722468312
 20
16.7018628601
 10
32.0854368059
 20
16.5364454022
 10
32.1872454093
 20
16.3671999327
 10
32.2768508668
 20
16.1953146989
 10
32.3537408002
 20
16.0215695237
 10
32.417403347
 20
15.8467648892
 10
32.4672901037
 20
15.6718768223
 10
32.5028786501
 20
15.4980542516
 10
32.5237567335
 20
15.326388989
  0
LWPOLYLINE
  5
545
100
AcDbEntity
  8
0
100
AcDbPolyline
 62
250
  6
CONTINUOUS
 90
13
 70
0
 10
25.2689093236
 20
14.3388638793
 10
25.4879675979
 20
14.1834130407
 10
25.6954500324
 20
14.0255559454
 10
25.8897285645
 20
13.866232738
 10
26.0693871944
 20
13.7067623506
 10
26.2356689083
 20
13.5463232114
 10
26.3919264765
 20
13.3815799828
 10
26.5365131368
 20
13.21391453
 10
26.6701181148
 20
13.0433262025
 10
26.7981960319
 20
12.8636284389
 10
26.9217730388
 20
12.6729511707
 10
27.0389839273
 20
12.4738925629
 10
27.1500590341
 20
12.2663109859
  0
LWPOLYLINE
  5
546
100
AcDbEntity
  8
0
100
AcDbPolyline
 62
250
  6
CONTINUOUS
 90
9
 70
0
 10
32.5288034355
 20
15.2347243975
 10
32.5284111379
 20
15.2462357231
 10
32.5279493159
 20
15.257733946
 10
32.5274185598
 20
15.2692196704
 10
32.5268195525
 20
15.2806912661
 10
32.5261531366
 20
15.2921448492
 10
32.5254200893
 20
15.3035787748
 10
32.5246210542
 20
15.3149936561
 10
32.5237567335
 20
15.326388989
  0
LWPOLYLINE
  5
547
100
AcDbEntity
  8
0
100
AcDbPolyline
 62
250
  6
CONTINUOUS
 90
7
 70
0
 10
31.5355642549
 20
14.8599845249
 10
31.5348175342
 20
14.8862027086
 10
31.5338752694
 20
14.9123063046
 10
31.5326709668
 20
14.938291163
 10
31.5311410007
 20
14.9641639588
 10
31.529224043
 20
14.9899423241
 10
31.52686182
 20
15.0156375862
  0
LINE
  5
548
100
AcDbEntity
  8
0
100
AcDbLine
 62
250
  6
CONTINUOUS
 10
32.9609630146
 20
-42.436380916
 11
32.9574147527
 21
-42.3069029035
  0
LINE
  5
549
100
AcDbEntity
  8
0
100
AcDbLine
 62
250
  6
CONTINUOUS
 10
32.9574147527
 20
-42.3069029035
 11
32.8538841346
 21
-38.1418255226
  0
LWPOLYLINE
  5
54A
100
AcDbEntity
  8
0
100
AcDbPolyline
 62
250
  6
CONTINUOUS
 90
3
 70
0
 10
32.8538841405
 20
-38.1418257624
 10
31.5367539155
 20
14.807160597
 10
31.5355642549
 20
14.8599845249
  0
LWPOLYLINE
  5
54B
100
AcDbEntity
  8
0
100
AcDbPolyline
 62
250
  6
CONTINUOUS
 90
10
 70
0
 10
32.5288034355
 20
15.2347243975
 10
33.9566937084
 20
-42.1642176509
 10
33.9568725056
 20
-42.1756633842
 10
33.9569800515
 20
-42.1870528042
 10
33.9570169756
 20
-42.1983868854
 10
33.9569838886
 20
-42.2096643993
 10
33.9568814517
 20
-42.2208819368
 10
33.9567103713
 20
-42.2320383128
 10
33.9564713309
 20
-42.2431345438
 10
33.9561650179
 20
-42.2541705523
  0
LWPOLYLINE
  5
54C
100
AcDbEntity
  8
0
100
AcDbPolyline
 62
250
  6
CONTINUOUS
 90
3
 70
0
 10
29.2091941231
 20
-34.9736763013
 10
29.2225815026
 20
-34.0387807868
 10
29.2353894145
 20
-32.0857209586
  0
LINE
  5
54D
100
AcDbEntity
  8
0
100
AcDbLine
 62
250
  6
CONTINUOUS
 10
24.5457612541
 20
-31.9631954842
 11
24.583889031
 21
-31.7331288116
  0
LWPOLYLINE
  5
54E
100
AcDbEntity
  8
0
100
AcDbPolyline
 62
7
  6
CONTINUOUS
 90
10
 70
0
 10
19.2798583722
 20
-30.0879290119
 10
19.3218976083
 20
-30.0108204549
 10
19.3597491752
 20
-29.9308679662
 10
19.3934496786
 20
-29.8479392767
 10
19.4228878698
 20
-29.762231085
 10
19.4479547745
 20
-29.6740011587
 10
19.468601269
 20
-29.5833686523
 10
19.4848037987
 20
-29.4903826454
 10
19.4965231447
 20
-29.3951170371
 10
19.5037183376
 20
-29.2976414119
  0
LWPOLYLINE
  5
54F
100
AcDbEntity
  8
0
100
AcDbPolyline
 62
7
  6
CONTINUOUS
 90
10
 70
0
 10
19.2084764218
 20
-30.198904252
 10
19.2168710026
 20
-30.1869119328
 10
19.225147254
 20
-30.1748388841
 10
19.2333058398
 20
-30.1626841713
 10
19.2413460394
 20
-30.1504489895
 10
19.2492699476
 20
-30.1381302958
 10
19.2570822677
 20
-30.1257206713
 10
19.264784811
 20
-30.1132168736
 10
19.2723767036
 20
-30.1006199742
 10
19.2798584409
 20
-30.0879288942
  0
LINE
  5
550
100
AcDbEntity
  8
0
100
AcDbLine
 62
250
  6
CONTINUOUS
 10
16.5274637258
 20
-28.1374309006
 11
16.7163158554
 21
-27.8949664042
  0
LINE
  5
551
100
AcDbEntity
  8
0
100
AcDbLine
 62
7
  6
CONTINUOUS
 10
12.8921765024
 20
-31.0242607859
 11
12.9059048275
 21
-31.0070572781
  0
LINE
  5
552
100
AcDbEntity
  8
0
100
AcDbLine
 62
7
  6
CONTINUOUS
 10
12.7117187421
 20
-31.6560759033
 11
12.7254712459
 21
-31.6388420963
  0
LINE
  5
553
100
AcDbEntity
  8
0
100
AcDbLine
 62
7
  6
CONTINUOUS
 10
13.5753027739
 20
-30.6129039453
 11
13.5890154987
 21
-30.5957199869
  0
LINE
  5
554
100
AcDbEntity
  8
0
100
AcDbLine
 62
7
  6
CONTINUOUS
 10
13.7201471467
 20
-31.9604407362
 11
13.73390207
 21
-31.9432038971
  0
LINE
  5
555
100
AcDbEntity
  8
0
100
AcDbLine
 62
7
  6
CONTINUOUS
 10
14.5841629748
 20
-32.2210836779
 11
14.5979203767
 21
-32.2038437329
  0
LINE
  5
556
100
AcDbEntity
  8
0
100
AcDbLine
 62
7
  6
CONTINUOUS
 10
15.5216425317
 20
-31.1466948167
 11
15.5353615919
 21
-31.1295029191
  0
LINE
  5
557
100
AcDbEntity
  8
0
100
AcDbLine
 62
7
  6
CONTINUOUS
 10
15.2201331069
 20
-32.0286188255
 11
15.2338783973
 21
-32.0113940577
  0
LINE
  5
558
100
AcDbEntity
  8
0
100
AcDbLine
 62
7
  6
CONTINUOUS
 10
15.8377343233
 20
-31.8412367475
 11
15.85146941
 21
-31.8240247665
  0
LINE
  5
559
100
AcDbEntity
  8
0
100
AcDbLine
 62
7
  6
CONTINUOUS
 10
16.0389350692
 20
-32.2755269767
 11
16.052682871
 21
-32.2582990618
  0
LINE
  5
55A
100
AcDbEntity
  8
0
100
AcDbLine
 62
7
  6
CONTINUOUS
 10
16.2491343785
 20
-32.7225601636
 11
16.2628964565
 21
-32.7053143585
  0
LINE
  5
55B
100
AcDbEntity
  8
0
100
AcDbLine
 62
7
  6
CONTINUOUS
 10
17.4477468955
 20
-31.4690745237
 11
17.4614884267
 21
-31.4518544668
  0
LINE
  5
55C
100
AcDbEntity
  8
0
100
AcDbLine
 62
7
  6
CONTINUOUS
 10
35.464376684
 20
-8.0641117893
 11
34.260213855
 21
-9.556815956
  0
LWPOLYLINE
  5
55D
100
AcDbEntity
  8
0
100
AcDbPolyline
 62
250
  6
CONTINUOUS
 90
4
 70
0
 10
16.7222748712
 20
-28.1348226781
 10
16.7123927066
 20
-28.1394529643
 10
16.6793070574
 20
-28.1487040575
 10
16.6435907649
 20
-28.1530990578
  0
LWPOLYLINE
  5
55E
100
AcDbEntity
  8
0
100
AcDbPolyline
 62
250
  6
CONTINUOUS
 90
10
 70
0
 10
-36.2560368176
 20
38.4362229322
 10
-36.2136547157
 20
38.428575392
 10
-36.1715669535
 20
38.4203300279
 10
-36.1297894845
 20
38.4115089572
 10
-36.0885222755
 20
38.4021773057
 10
-36.0475956684
 20
38.3923193046
 10
-36.0064673332
 20
38.3818104012
 10
-35.9649628604
 20
38.3705958041
 10
-35.9232788237
 20
38.3587183631
 10
-35.881426992
 20
38.3461752326
  0
LWPOLYLINE
  5
55F
100
AcDbEntity
  8
0
100
AcDbPolyline
 62
7
  6
CONTINUOUS
 90
16
 70
0
 10
-33.8171818629
 20
41.1341116989
 10
-34.0185024069
 20
41.1891841544
 10
-34.2161998775
 20
41.2306052579
 10
-34.4102742748
 20
41.2583750093
 10
-34.6017678535
 20
41.2724962885
 10
-34.7896383589
 20
41.2729662156
 10
-34.9707590262
 20
41.2597761514
 10
-35.1450157085
 20
41.2326974946
 10
-35.3125225526
 20
41.1919588464
 10
-35.4704952342
 20
41.1382373709
 10
-35.618774392
 20
41.0713160631
 10
-35.7575193872
 20
40.991411928
 10
-35.8844239793
 20
40.8998531443
 10
-35.9992902587
 20
40.7964449073
 10
-36.102316135
 20
40.6813820217
 10
-36.167630234
 20
40.5932325169
  0
LINE
  5
560
100
AcDbEntity
  8
0
100
AcDbLine
 62
7
  6
CONTINUOUS
 10
-33.8171457228
 20
41.1341006007
 11
32.092403074
 21
20.8939166941
  0
LINE
  5
561
100
AcDbEntity
  8
0
100
AcDbLine
 62
250
  6
CONTINUOUS
 10
27.1500590341
 20
12.2663109859
 11
27.1741138115
 21
12.2186568241
  0
LINE
  5
562
100
AcDbEntity
  8
0
100
AcDbLine
 62
250
  6
CONTINUOUS
 10
27.1741138115
 20
12.2186568241
 11
27.1978619651
 21
12.170600517
  0
LINE
  5
563
100
AcDbEntity
  8
0
100
AcDbLine
 62
250
  6
CONTINUOUS
 10
27.1978619651
 20
12.170600517
 11
27.2213083868
 21
12.1221387033
  0
LWPOLYLINE
  5
564
100
AcDbEntity
  8
0
100
AcDbPolyline
 62
250
  6
CONTINUOUS
 90
3
 70
0
 10
27.2213083868
 20
12.1221387033
 10
27.2444527437
 20
12.0732807384
 10
27.2559149257
 20
12.0486995671
  0
LWPOLYLINE
  5
565
100
AcDbEntity
  8
0
100
AcDbPolyline
 62
250
  6
CONTINUOUS
 90
7
 70
0
 10
27.2559149257
 20
12.0486995671
 10
27.3170840771
 20
11.9130373038
 10
27.3761138233
 20
11.7745653005
 10
27.4330076902
 20
11.6335272248
 10
27.4877827432
 20
11.490089884
 10
27.5404128242
 20
11.3442329846
 10
27.5908572044
 20
11.1959124134
  0
LWPOLYLINE
  5
566
100
AcDbEntity
  8
0
100
AcDbPolyline
 62
250
  6
CONTINUOUS
 90
4
 70
0
 10
27.5908572044
 20
11.1959124134
 10
27.639074102
 20
11.0451720199
 10
27.68503157
 20
10.8920497164
 10
27.7287104447
 20
10.7365736248
  0
LWPOLYLINE
  5
567
100
AcDbEntity
  8
0
100
AcDbPolyline
 62
250
  6
CONTINUOUS
 90
10
 70
0
 10
27.7287104447
 20
10.7365736248
 10
27.7968746569
 20
10.4704786689
 10
27.8583778337
 20
10.1993165626
 10
27.9135333603
 20
9.9230036135
 10
27.9626524984
 20
9.6417778862
 10
28.0062216448
 20
9.355790181
 10
28.0449341136
 20
9.0651121197
 10
28.0793972111
 20
8.7697924326
 10
28.1097461805
 20
8.4698280723
 10
28.1360457146
 20
8.1652010376
  0
LWPOLYLINE
  5
568
100
AcDbEntity
  8
0
100
AcDbPolyline
 62
250
  6
CONTINUOUS
 90
19
 70
0
 10
31.526861845
 20
15.0156373406
 10
31.5058605083
 20
15.1568442451
 10
31.4713476793
 20
15.3011994862
 10
31.4236750436
 20
15.4474800019
 10
31.3629695545
 20
15.594617794
 10
31.2893922649
 20
15.7415273631
 10
31.2034762905
 20
15.8868707139
 10
31.1059025598
 20
16.0294701779
 10
30.9973279093
 20
16.1682036125
 10
30.8788487169
 20
16.3014733014
 10
30.7518221787
 20
16.4279381269
 10
30.6171112807
 20
16.5469894162
 10
30.4751957672
 20
16.6581762439
 10
30.327204235
 20
16.7604718684
 10
30.1733127748
 20
16.8536376634
 10
30.0127989222
 20
16.9377976789
 10
29.8462574459
 20
17.0118152311
 10
29.6751966749
 20
17.0739164408
 10
-36.3090133944
 20
37.3370281073
  0
LWPOLYLINE
  5
569
100
AcDbEntity
  8
0
100
AcDbPolyline
 62
7
  6
CONTINUOUS
 90
22
 70
0
 10
34.822275403
 20
17.7473493096
 10
34.8100970554
 20
17.9251511295
 10
34.7834758268
 20
18.1045298676
 10
34.7424117172
 20
18.2854855239
 10
34.6865148165
 20
18.4690450816
 10
34.6161750348
 20
18.6541815575
 10
34.5325621024
 20
18.8378140026
 10
34.4354543397
 20
19.0199160768
 10
34.3250734263
 20
19.2005141201
 10
34.2032541306
 20
19.3766062043
 10
34.0698052627
 20
19.5481170133
 10
33.9249180126
 20
19.7151218632
 10
33.7710007182
 20
19.8748447737
 10
33.6079024445
 20
20.0271640289
 10
33.4357741266
 20
20.1722013447
 10
33.2574769078
 20
20.3075458887
 10
33.0729063465
 20
20.4330361859
 10
32.8821668842
 20
20.5488337112
 10
32.6884329893
 20
20.6530120567
 10
32.4927628179
 20
20.7449290866
 10
32.2940982138
 20
20.8252269368
 10
32.0924391771
 20
20.8939056072
  0
LINE
  5
56A
100
AcDbEntity
  8
0
100
AcDbLine
 62
7
  6
CONTINUOUS
 10
34.260213855
 20
-9.556815956
 11
34.3952303717
 21
-14.9842674693
  0
LINE
  5
56B
100
AcDbEntity
  8
0
100
AcDbLine
 62
7
  6
CONTINUOUS
 10
34.8222761848
 20
17.747317881
 11
35.464376684
 21
-8.0641117893
  0
LINE
  5
56C
100
AcDbEntity
  8
0
100
AcDbLine
 62
7
  6
CONTINUOUS
 10
35.6074931422
 20
-13.8171682027
 11
36.2495936414
 21
-39.628597873
  0
LWPOLYLINE
  5
56D
100
AcDbEntity
  8
0
100
AcDbPolyline
 62
250
  6
CONTINUOUS
 90
7
 70
0
 10
32.9598497967
 20
-42.5891165404
 10
32.9609404035
 20
-42.5644416761
 10
32.9616042428
 20
-42.5394273799
 10
32.9618874607
 20
-42.5140932738
 10
32.9618385197
 20
-42.4884482009
 10
32.9615093924
 20
-42.4625252722
 10
32.9609630146
 20
-42.436380916
  0
LWPOLYLINE
  5
56E
100
AcDbEntity
  8
0
100
AcDbPolyline
 62
250
  6
CONTINUOUS
 90
8
 70
0
 10
33.9561650179
 20
-42.2541705523
 10
33.9441821549
 20
-42.4106871593
 10
33.9181190731
 20
-42.5613649066
 10
33.8781268044
 20
-42.705332919
 10
33.8244373566
 20
-42.8417584407
 10
33.7573610654
 20
-42.9698538069
 10
33.6772843976
 20
-43.0888807189
 10
33.5946548324
 20
-43.1874940691
  0
LINE
  5
56F
100
AcDbEntity
  8
0
100
AcDbLine
 62
250
  6
CONTINUOUS
 10
32.9598722104
 20
-42.5891247593
 11
32.9456271007
 21
-42.7195078133
  0
LWPOLYLINE
  5
570
100
AcDbEntity
  8
0
100
AcDbPolyline
 62
250
  6
CONTINUOUS
 90
10
 70
0
 10
28.9245062308
 20
-37.3325352957
 10
28.9803789326
 20
-37.1045308746
 10
29.0292339956
 20
-36.8672587107
 10
29.0713854339
 20
-36.6208277752
 10
29.1071612379
 20
-36.3656724649
 10
29.1370628532
 20
-36.1022469291
 10
29.1617978592
 20
-35.8310529802
 10
29.1819853553
 20
-35.5525159571
 10
29.1977625145
 20
-35.2667164737
 10
29.2091941231
 20
-34.9736763013
  0
LWPOLYLINE
  5
571
100
AcDbEntity
  8
0
100
AcDbPolyline
 62
250
  6
CONTINUOUS
 90
7
 70
0
 10
24.1587350864
 20
-33.1567778659
 10
24.2407179738
 20
-32.9789309619
 10
24.3161219581
 20
-32.7927142061
 10
24.3846488167
 20
-32.5980276028
 10
24.4459103217
 20
-32.3950903058
 10
24.4996568328
 20
-32.1837624539
 10
24.5457612541
 20
-31.9631954842
  0
LWPOLYLINE
  5
572
100
AcDbEntity
  8
0
100
AcDbPolyline
 62
7
  6
CONTINUOUS
 90
20
 70
0
 10
18.4030064496
 20
-32.100503892
 10
18.4087014897
 20
-32.0928364413
 10
18.4221038518
 20
-32.0684212561
 10
18.4305432763
 20
-32.0412402496
 10
18.4338871333
 20
-32.0118331703
 10
18.4320836976
 20
-31.9807368062
 10
18.42518228
 20
-31.9485077607
 10
18.4135150568
 20
-31.9158197253
 10
18.3973091972
 20
-31.8831141796
 10
18.3769499162
 20
-31.85106513
 10
18.3534358275
 20
-31.8206440116
 10
18.3276713236
 20
-31.7924671004
 10
18.300046613
 20
-31.7665482089
 10
18.2709351253
 20
-31.7428240714
 10
18.2408508734
 20
-31.7214581611
 10
18.2102107885
 20
-31.7025366809
 10
18.1790916002
 20
-31.6858970863
 10
18.1477270393
 20
-31.6715509347
 10
18.1165534862
 20
-31.6596077806
 10
18.0858745607
 20
-31.650066369
  0
LINE
  5
573
100
AcDbEntity
  8
0
100
AcDbLine
 62
250
  6
CONTINUOUS
 10
18.085874631
 20
-31.6500646819
 11
18.0996110799
 21
-31.6328509939
  0
LINE
  5
574
100
AcDbEntity
  8
0
100
AcDbLine
 62
7
  6
CONTINUOUS
 10
17.5495798279
 20
-32.3458845075
 11
17.5633183996
 21
-32.3286681593
  0
LINE
  5
575
100
AcDbEntity
  8
0
100
AcDbLine
 62
7
  6
CONTINUOUS
 10
17.1147761005
 20
-32.9811739711
 11
17.1285343236
 21
-32.9639329969
  0
LINE
  5
576
100
AcDbEntity
  8
0
100
AcDbLine
 62
7
  6
CONTINUOUS
 10
18.0065377364
 20
-32.4767416203
 11
18.0202787115
 21
-32.4595222604
  0
LINE
  5
577
100
AcDbEntity
  8
ASSI
100
AcDbLine
 62
7
  6
CONTINUOUS
 10
18.40775143
 20
-32.0945577692
 11
18.4030155862
 21
-32.1004924426
  0
LINE
  5
578
100
AcDbEntity
  8
0
100
AcDbLine
 62
7
  6
CONTINUOUS
 10
18.560244083
 20
-32.5847289635
 11
18.5739886241
 21
-32.5675051346
  0
LINE
  5
579
100
AcDbEntity
  8
0
100
AcDbLine
 62
7
  6
CONTINUOUS
 10
18.6194006996
 20
-33.4130207221
 11
18.6331544977
 21
-33.3957852932
  0
LWPOLYLINE
  5
57A
100
AcDbEntity
  8
0
100
AcDbPolyline
 62
7
  6
CONTINUOUS
 90
5
 70
0
 10
18.9201764346
 20
-32.424467686
 10
18.8972696307
 20
-32.4504656679
 10
18.8547946606
 20
-32.4880071956
 10
18.8059772108
 20
-32.5197901678
 10
18.7514661861
 20
-32.5454970803
  0
LINE
  5
57B
100
AcDbEntity
  8
RACCORDO
100
AcDbLine
 62
7
  6
CONTINUOUS
 10
34.3715814765
 20
-14.0336190942
 11
34.6820070656
 21
-13.7348035239
  0
LINE
  5
57C
100
AcDbEntity
  8
0
100
AcDbLine
 62
7
  6
CONTINUOUS
 10
34.3732149423
 20
-14.0992818507
 11
34.8938720704
 21
-13.598022085
  0
LINE
  5
57D
100
AcDbEntity
  8
0
100
AcDbLine
 62
7
  6
CONTINUOUS
 10
34.3952303717
 20
-14.9842674693
 11
35.6074931422
 21
-13.8171682027
  0
LWPOLYLINE
  5
57E
100
AcDbEntity
  8
0
100
AcDbPolyline
 62
7
  6
CONTINUOUS
 90
4
 70
0
 10
18.7514661861
 20
-32.5454970803
 10
18.6919159672
 20
-32.5649401493
 10
18.6279501968
 20
-32.5780301331
 10
18.560244083
 20
-32.5847289635
  0
LWPOLYLINE
  5
57F
100
AcDbEntity
  8
0
100
AcDbPolyline
 62
250
  6
CONTINUOUS
 90
13
 70
0
 10
-32.6488550342
 20
32.1248482088
 10
-32.8634922783
 20
32.1025810622
 10
-33.0662548416
 20
32.0707062313
 10
-33.2555366921
 20
32.0291707014
 10
-33.4299661674
 20
31.9784373407
 10
-33.5907642026
 20
31.9184412237
 10
-33.7411679656
 20
31.847870719
 10
-33.879574622
 20
31.7671097722
 10
-34.0066839768
 20
31.6765842904
 10
-34.1277244615
 20
31.5733883747
 10
-34.2436442676
 20
31.4562582575
 10
-34.3526797325
 20
31.326677713
 10
-34.4550576402
 20
31.1846454888
  0
LWPOLYLINE
  5
580
100
AcDbEntity
  8
0
100
AcDbPolyline
 62
250
  6
CONTINUOUS
 90
17
 70
0
 10
32.9456271007
 20
-42.7195078133
 10
32.9178203171
 20
-42.844725297
 10
32.8767476402
 20
-42.963752979
 10
32.8224844323
 20
-43.0755849901
 10
32.7551398034
 20
-43.1792187955
 10
32.675187995
 20
-43.2736257496
 10
32.5832613753
 20
-43.358031485
 10
32.4799706337
 20
-43.4317031037
 10
32.3663489247
 20
-43.4936968484
 10
32.2437071014
 20
-43.5434909333
 10
32.1128909203
 20
-43.5810014238
 10
31.974364904
 20
-43.6060673693
 10
31.8292235489
 20
-43.6183447187
 10
31.677633693
 20
-43.6177001557
 10
31.5188679683
 20
-43.6038125003
 10
31.3534733121
 20
-43.5758956756
 10
31.1828923404
 20
-43.5330820093
  0
LINE
  5
581
100
AcDbEntity
  8
0
100
AcDbLine
 62
250
  6
CONTINUOUS
 10
28.8879498416
 20
-37.463371914
 11
28.9245062308
 21
-37.3325352957
  0
LWPOLYLINE
  5
582
100
AcDbEntity
  8
0
100
AcDbPolyline
 62
250
  6
CONTINUOUS
 90
10
 70
0
 10
23.63857516
 20
-33.9419394072
 10
23.7033064694
 20
-33.8663712323
 10
23.7663960039
 20
-33.7880206976
 10
23.8278058106
 20
-33.7068313058
 10
23.8873704308
 20
-33.6229114349
 10
23.9450954464
 20
-33.536165156
 10
24.0011560529
 20
-33.4462141581
 10
24.0555519786
 20
-33.3529188259
 10
24.1081080635
 20
-33.2564317213
 10
24.1587350864
 20
-33.1567778659
  0
LWPOLYLINE
  5
583
100
AcDbEntity
  8
0
100
AcDbPolyline
 62
250
  6
CONTINUOUS
 90
10
 70
0
 10
23.5320910768
 20
-34.0567439316
 10
23.5441325737
 20
-34.0443136763
 10
23.5561176063
 20
-34.0318070545
 10
23.5680471736
 20
-34.0192226817
 10
23.5799200892
 20
-34.0065615202
 10
23.5917396074
 20
-33.9938198248
 10
23.6035132873
 20
-33.9809890336
 10
23.6152442252
 20
-33.9680652195
 10
23.6269311911
 20
-33.9550492002
 10
23.63857516
 20
-33.9419394072
  0
LWPOLYLINE
  5
584
100
AcDbEntity
  8
0
100
AcDbPolyline
 62
250
  6
CONTINUOUS
 90
10
 70
0
 10
21.9960026476
 20
-34.9375462755
 10
22.2003661106
 20
-34.8754859875
 10
22.3966681221
 20
-34.804261599
 10
22.5837960147
 20
-34.7243328674
 10
22.7600392652
 20
-34.636748611
 10
22.9267044133
 20
-34.5412427813
 10
23.0873340845
 20
-34.4356910845
 10
23.2426487716
 20
-34.3192723559
 10
23.3909780729
 20
-34.1929418094
 10
23.5320910768
 20
-34.0567439317
  0
LWPOLYLINE
  5
585
100
AcDbEntity
  8
0
100
AcDbPolyline
 62
250
  6
CONTINUOUS
 90
9
 70
0
 10
28.5102163987
 20
-38.3722459044
 10
28.5655257409
 20
-38.2723530586
 10
28.6185218692
 20
-38.1682831167
 10
28.6692205803
 20
-38.0602856799
 10
28.7176475656
 20
-37.9485406863
 10
28.7637752467
 20
-37.8330113411
 10
28.8075600561
 20
-37.7136276446
 10
28.8489617671
 20
-37.5904082613
 10
28.8879498416
 20
-37.463371914
  0
LWPOLYLINE
  5
586
100
AcDbEntity
  8
0
100
AcDbPolyline
 62
250
  6
CONTINUOUS
 90
10
 70
0
 10
28.4136409237
 20
-38.5276926309
 10
28.4247008032
 20
-38.5110169687
 10
28.4356768581
 20
-38.4941924779
 10
28.4465698649
 20
-38.4772187135
 10
28.4573812856
 20
-38.4600942126
 10
28.4681113254
 20
-38.4428195622
 10
28.4787590051
 20
-38.4253974521
 10
28.4893247157
 20
-38.4078285586
 10
28.4998101476
 20
-38.3901114925
 10
28.5102163987
 20
-38.3722459044
  0
LWPOLYLINE
  5
587
100
AcDbEntity
  8
0
100
AcDbPolyline
 62
7
  6
CONTINUOUS
 90
9
 70
0
 10
35.8525554708
 20
-40.7601310267
 10
35.9206193926
 20
-40.6813820229
 10
36.0100923535
 20
-40.5565770814
 10
36.0857859863
 20
-40.4218661391
 10
36.1479267039
 20
-40.277413141
 10
36.1954812336
 20
-40.1256225155
 10
36.2281051513
 20
-39.9672957384
 10
36.2461428812
 20
-39.8016313338
 10
36.2495944232
 20
-39.6286293016
  0
LINE
  5
588
100
AcDbEntity
  8
0
100
AcDbLine
 62
250
  6
CONTINUOUS
 10
36.2495936414
 20
-39.628597873
 11
33.9564394495
 21
-42.1527143598
  0
LINE
  5
589
100
AcDbEntity
  8
0
100
AcDbLine
 62
7
  6
CONTINUOUS
 10
35.8526865218
 20
-40.7602434397
 11
33.5928099045
 21
-43.1894814663
  0
LWPOLYLINE
  5
58A
100
AcDbEntity
  8
0
100
AcDbPolyline
 62
250
  6
CONTINUOUS
 90
16
 70
0
 10
33.9531885783
 20
-42.0220344552
 10
33.9113297691
 20
-42.0626604782
 10
33.8646651594
 20
-42.097533161
 10
33.8133201278
 20
-42.1263360184
 10
33.7574873852
 20
-42.148752319
 10
33.6973646606
 20
-42.1644936644
 10
33.6331463174
 20
-42.1732735725
 10
33.5651614544
 20
-42.174785656
 10
33.4937690857
 20
-42.1687369124
 10
33.4192785904
 20
-42.1548138537
 10
33.3418715381
 20
-42.1326008156
 10
33.2624383791
 20
-42.1018462321
 10
33.1824586522
 20
-42.0627161977
 10
33.1029059995
 20
-42.0153698416
 10
33.0242470629
 20
-41.9596819644
 10
32.9472667485
 20
-41.8956596572
  0
LWPOLYLINE
  5
58B
100
AcDbEntity
  8
0
100
AcDbPolyline
 62
250
  6
CONTINUOUS
 90
16
 70
0
 10
33.9561650142
 20
-42.2541706722
 10
33.913986028
 20
-42.2949659263
 10
33.8670176965
 20
-42.3299526891
 10
33.8153909128
 20
-42.358819941
 10
33.7592812634
 20
-42.381263095
 10
33.6989090482
 20
-42.3969859462
 10
33.6345415015
 20
-42.4057004535
 10
33.5665170376
 20
-42.4071272634
 10
33.4951960917
 20
-42.4009997653
 10
33.420956695
 20
-42.3870462673
 10
33.3440063692
 20
-42.3649073625
 10
33.2651876599
 20
-42.3343715548
 10
33.1859292405
 20
-42.2956333905
 10
33.107161913
 20
-42.2488776578
 10
33.0293161204
 20
-42.1940112787
 10
32.9531228889
 20
-42.131067288
  0
ARC
  5
58C
100
AcDbEntity
  8
RACCORDO
100
AcDbCircle
 62
7
  6
CONTINUOUS
 10
12.7085416466
 20
-24.4260353374
 40
0.2
100
AcDbArc
 50
324.6553695871
 51
1.4250300306
  0
ARC
  5
58D
100
AcDbEntity
  8
RACCORDO
100
AcDbCircle
 62
7
  6
CONTINUOUS
 10
-7.331523951
 20
-18.2719253396
 40
0.2
100
AcDbArc
 50
324.6553695871
 51
1.4250300306
  0
ELLIPSE
  5
58E
100
AcDbEntity
  8
RACCORDO
100
AcDbEllipse
 62
7
  6
CONTINUOUS
 10
7.5091300886
 20
-22.1162732723
 30
0.0
 11
0.066225087
 21
0.1888552206
 31
0.0
 40
0.3985724632
 41
0.7076711624
 42
0.76003104
  0
ELLIPSE
  5
58F
100
AcDbEntity
  8
RACCORDO
100
AcDbEllipse
 62
7
  6
CONTINUOUS
 10
-12.5309355091
 20
-15.9621632746
 30
0.0
 11
0.066225087
 21
0.1888552206
 31
0.0
 40
0.3985724632
 41
0.7076711624
 42
0.76003104
  0
ELLIPSE
  5
590
100
AcDbEntity
  8
RACCORDO
100
AcDbEllipse
 62
7
  6
CONTINUOUS
 10
12.8690446355
 20
-23.7622511031
 30
0.0
 11
0.0516258078
 21
0.1933488958
 31
0.0
 40
0.3268599536
 41
0.6798851829
 42
0.7322450604
  0
ELLIPSE
  5
591
100
AcDbEntity
  8
RACCORDO
100
AcDbEllipse
 62
7
  6
CONTINUOUS
 10
-7.1710209621
 20
-17.6081411053
 30
0.0
 11
0.0516258078
 21
0.1933488958
 31
0.0
 40
0.3268599536
 41
0.6798851829
 42
0.7322450604
  0
ELLIPSE
  5
592
100
AcDbEntity
  8
RACCORDO
100
AcDbEllipse
 62
7
  6
CONTINUOUS
 10
34.6746071271
 20
-13.9810115652
 30
0.0
 11
0.0999766305
 21
0.2830816831
 31
0.0
 40
0.4004797039
 41
0.016646294
 42
0.673733989
  0
ENDSEC
  0
SECTION
  2
OBJECTS
  0
DICTIONARY
  5
C
100
AcDbDictionary
280
0
281
1
  3
ACAD_GROUP
350
D
  3
ACAD_MLINESTYLE
350
17
  3
ACAD_LAYOUT
350
1A
  3
ACAD_PLOTSETTINGS
350
19
  3
ACAD_PLOTSTYLENAME
350
E
  0
DICTIONARY
  5
D
102
{ACAD_REACTORS
330
C
102
}
100
AcDbDictionary
280
0
281
1
  0
ACDBDICTIONARYWDFLT
  5
E
102
{ACAD_REACTORS
330
C
102
}
100
AcDbDictionary
281
1
  3
Normal
350
F
100
AcDbDictionaryWithDefault
340
F
  0
DICTIONARY
  5
17
102
{ACAD_REACTORS
330
C
102
}
100
AcDbDictionary
280
0
281
1
  3
Standard
350
18
  0
DICTIONARY
  5
19
102
{ACAD_REACTORS
330
C
102
}
100
AcDbDictionary
281
1
  0
DICTIONARY
  5
1A
102
{ACAD_REACTORS
330
C
102
}
100
AcDbDictionary
281
1
  3
Model
350
593
  3
Layout1
350
594
  0
ACDBPLACEHOLDER
  5
F
102
{ACAD_REACTORS
330
E
102
}
  0
MLINESTYLE
  5
18
102
{ACAD_REACTORS
330
17
102
}
100
AcDbMlineStyle
  2
STANDARD
 70
0
  3

 62
256
 51
90.0
 52
90.0
 71
2
 49
0.5
 62
256
  6
BYLAYER
 49
-0.5
 62
256
  6
BYLAYER
  0
LAYOUT
  5
593
102
{ACAD_REACTORS
330
1A
102
}
100
AcDbPlotSettings
  1

  2
none_device
  4
ISO_A4_(297.00_x_210.00_MM)
  6

 40
0.0
 41
0.0
 42
0.0
 43
0.0
 44
297.0
 45
210.0
 46
0.0
 47
0.0
 48
0.0
 49
0.0
140
0.0
141
0.0
142
1.0
143
1.0
 70
1024
 72
1
 73
0
 74
0
  7

 75
0
147
1.0
148
0.0
149
0.0
100
AcDbLayout
  1
Model
 70
0
 71
0
 10
0.0
 20
0.0
 11
297.0
 21
210.0
 12
0.0
 22
0.0
 32
0.0
 14
0.0
 24
0.0
 34
0.0
 15
0.0
 25
0.0
 35
0.0
146
0.0
 13
0.0
 23
0.0
 33
0.0
 16
1.0
 26
0.0
 36
0.0
 17
0.0
 27
1.0
 37
0.0
 76
0
330
216
345
0
346
0
  0
LAYOUT
  5
594
102
{ACAD_REACTORS
330
1A
102
}
100
AcDbPlotSettings
  1

  2
none_device
  4
ISO_A4_(297.00_x_210.00_MM)
  6

 40
0.0
 41
0.0
 42
0.0
 43
0.0
 44
297.0
 45
210.0
 46
0.0
 47
0.0
 48
0.0
 49
0.0
140
0.0
141
0.0
142
1.0
143
1.0
 70
0
 72
1
 73
0
 74
0
  7

 75
0
147
1.0
148
0.0
149
0.0
100
AcDbLayout
  1
Layout1
 70
0
 71
1
 10
0.0
 20
0.0
 11
297.0
 21
210.0
 12
0.0
 22
0.0
 32
0.0
 14
0.0
 24
0.0
 34
0.0
 15
0.0
 25
0.0
 35
0.0
146
0.0
 13
0.0
 23
0.0
 33
0.0
 16
1.0
 26
0.0
 36
0.0
 17
0.0
 27
1.0
 37
0.0
 76
0
330
217
345
0
346
0
  0
ENDSEC
  0
EOF
