  0
SECTION
  2
HEADER
  9
$ACADVER
  1
AC1024
  9
$DWGCODEPAGE
  3
ANSI_1252
  9
$EXTMAX
 10
297.0
 20
210.0
 30
0.0
  9
$EXTMIN
 10
0.0
 20
0.0
 30
0.0
  9
$LIMMIN
 10
0.0
 20
0.0
  9
$LIMMAX
 10
297.0
 20
210.0
  9
$VIEWCTR
 10
148.5
 20
105.0
  9
$VIEWSIZE
 40
210.0
  9
$CLAYER
  8
0
  9
$LTSCALE
 40
16.335
  9
$CELTYPE
  6
BYLAYER
  9
$DIMSCALE
 40
1.0
  9
$DIMASZ
 40
3.0
  9
$DIMEXO
 40
0.5
  9
$DIMDLI
 40
11.286
  9
$DIMEXE
 40
1.5
  9
$DIMCEN
 40
2.673
  9
$DIMLFAC
 40
1.0
  9
$DIMBLK
  1
_FILLED
  9
$DIMALT
 70
0
  9
$DIMALTF
 40
0.0393700787
  9
$DIMTXT
 40
3.0
  9
$DIMTOL
 70
1
  9
$DIMLIM
 70
0
  9
$DIMTFAC
 40
1.0
  9
$DIMTP
 40
0.01
  9
$DIMTM
 40
0.01
  9
$DIMGAP
 40
0.625
  9
$DIMDSEP
 70
44
  9
$AUNITS
 70
0
  9
$PDMODE
 70
3
  9
$PDSIZE
 40
3.0
  9
$HANDSEED
  5
42A
  9
$TILEMODE
 70
1
  9
$MEASUREMENT
 70
1
  9
$INSUNITS
 70
4
  0
ENDSEC
  0
SECTION
  2
CLASSES
  0
CLASS
  1
ACDBDICTIONARYWDFLT
  2
AcDbDictionaryWithDefault
  3
AutoCAD 2000
 90
0
 91
1
280
0
281
0
  0
CLASS
  1
ACDBPLACEHOLDER
  2
AcDbPlaceHolder
  3
AutoCAD 2000
 90
0
 91
1
280
0
281
0
  0
CLASS
  1
LAYOUT
  2
AcDbLayout
  3
AutoCAD 2000
 90
0
 91
0
280
0
281
0
  0
ENDSEC
  0
SECTION
  2
TABLES
  0
TABLE
  2
VPORT
  5
8
100
AcDbSymbolTable
 70
2
  0
VPORT
  5
1F4
100
AcDbSymbolTableRecord
100
AcDbViewportTableRecord
  2
*ACTIVE
 70
0
 10
0.0
 20
0.0
 11
1.0
 21
1.0
 12
148.5
 22
105.0
 13
0.0
 23
0.0
 14
1.0
 24
1.0
 15
0.0
 25
0.0
 16
0.0
 26
0.0
 36
1.0
 17
0.0
 27
0.0
 37
0.0
 40
210.0
 41
1.4142857143
 42
50.0
 43
0.0
 44
0.0
 50
0.0
 51
0.0
 71
0
 72
100
 73
1
 74
1
 75
0
 76
0
 77
0
 78
0
  0
ENDTAB
  0
TABLE
  2
LTYPE
  5
5
100
AcDbSymbolTable
 70
6
  0
LTYPE
  5
14
100
AcDbSymbolTableRecord
100
AcDbLinetypeTableRecord
  2
BYBLOCK
 70
0
  3

 72
65
 73
0
 40
0.0
  0
LTYPE
  5
15
100
AcDbSymbolTableRecord
100
AcDbLinetypeTableRecord
  2
BYLAYER
 70
0
  3

 72
65
 73
0
 40
0.0
  0
LTYPE
  5
16
100
AcDbSymbolTableRecord
100
AcDbLinetypeTableRecord
  2
CONTINUOUS
 70
64
  3
Solid line
 72
65
 73
0
 40
0.0
  0
LTYPE
  5
1F5
100
AcDbSymbolTableRecord
100
AcDbLinetypeTableRecord
  2
CENTER
 70
64
  3
____ _ ____ _ ____ _ ____ _ ____ _ ____ _ ____
 72
65
 73
4
 40
0.6
 49
0.375
 74
0
 49
-0.075
 74
0
 49
0.075
 74
0
 49
-0.075
 74
0
  0
LTYPE
  5
1F6
100
AcDbSymbolTableRecord
100
AcDbLinetypeTableRecord
  2
HIDDEN
 70
64
  3
- - - - - - - - - - - - - - - - - - - -
 72
65
 73
2
 40
0.2
 49
0.1
 74
0
 49
-0.1
 74
0
  0
LTYPE
  5
1F7
100
AcDbSymbolTableRecord
100
AcDbLinetypeTableRecord
  2
PHANTOM
 70
64
  3
_____ _ _ _____ _ _ _____ _ _ _____
 72
65
 73
6
 40
0.8
 49
0.45
 74
0
 49
-0.05
 74
0
 49
0.1
 74
0
 49
-0.05
 74
0
 49
0.1
 74
0
 49
-0.05
 74
0
  0
LTYPE
  5
1F8
100
AcDbSymbolTableRecord
100
AcDbLinetypeTableRecord
  2
DOT
 70
64
  3
. . . . . . . . . . . . . . . . . . . .
 72
65
 73
2
 40
0.2
 49
0.1
 74
0
 49
-0.1
 74
0
  0
LTYPE
  5
1F9
100
AcDbSymbolTableRecord
100
AcDbLinetypeTableRecord
  2
DASHED
 70
64
  3
- - - - - - - - - - - - - - - - - - - -
 72
65
 73
2
 40
0.2
 49
0.1
 74
0
 49
-0.1
 74
0
  0
ENDTAB
  0
TABLE
  2
LAYER
  5
2
100
AcDbSymbolTable
 70
36
  0
LAYER
  5
10
100
AcDbSymbolTableRecord
100
AcDbLayerTableRecord
  2
0
 70
0
 62
7
  6
CONTINUOUS
370
-3
390
F
  0
LAYER
  5
1FA
100
AcDbSymbolTableRecord
100
AcDbLayerTableRecord
  2
DEFAULT_1
 70
0
 62
7
  6
CENTER
370
-3
390
F
  0
LAYER
  5
1FB
100
AcDbSymbolTableRecord
100
AcDbLayerTableRecord
  2
DEFAULT_2
 70
0
 62
7
  6
HIDDEN
370
-3
390
F
  0
LAYER
  5
1FC
100
AcDbSymbolTableRecord
100
AcDbLayerTableRecord
  2
DEFAULT_3
 70
0
 62
7
  6
PHANTOM
370
-3
390
F
  0
LAYER
  5
1FD
100
AcDbSymbolTableRecord
100
AcDbLayerTableRecord
  2
217142080
 70
0
 62
7
  6
CONTINUOUS
370
-3
390
F
  0
LAYER
  5
1FE
100
AcDbSymbolTableRecord
100
AcDbLayerTableRecord
  2
284_6020
 70
0
 62
7
  6
CONTINUOUS
370
-3
390
F
  0
LAYER
  5
1FF
100
AcDbSymbolTableRecord
100
AcDbLayerTableRecord
  2
ASSI
 70
0
 62
7
  6
CONTINUOUS
370
-3
390
F
  0
LAYER
  5
200
100
AcDbSymbolTableRecord
100
AcDbLayerTableRecord
  2
COLOR2
 70
0
 62
7
  6
CONTINUOUS
370
-3
390
F
  0
LAYER
  5
201
100
AcDbSymbolTableRecord
100
AcDbLayerTableRecord
  2
COORDINATE
 70
0
 62
7
  6
CONTINUOUS
370
-3
390
F
  0
LAYER
  5
202
100
AcDbSymbolTableRecord
100
AcDbLayerTableRecord
  2
COORD_ORIGINE
 70
0
 62
7
  6
CONTINUOUS
370
-3
390
F
  0
LAYER
  5
203
100
AcDbSymbolTableRecord
100
AcDbLayerTableRecord
  2
COSMETICI
 70
0
 62
7
  6
CONTINUOUS
370
-3
390
F
  0
LAYER
  5
204
100
AcDbSymbolTableRecord
100
AcDbLayerTableRecord
  2
CURVE
 70
0
 62
7
  6
CONTINUOUS
370
-3
390
F
  0
LAYER
  5
205
100
AcDbSymbolTableRecord
100
AcDbLayerTableRecord
  2
DRAFT
 70
0
 62
7
  6
CONTINUOUS
370
-3
390
F
  0
LAYER
  5
206
100
AcDbSymbolTableRecord
100
AcDbLayerTableRecord
  2
IGES-SCRITTE
 70
0
 62
7
  6
CONTINUOUS
370
-3
390
F
  0
LAYER
  5
207
100
AcDbSymbolTableRecord
100
AcDbLayerTableRecord
  2
IGES_SUPERFICE
 70
0
 62
7
  6
CONTINUOUS
370
-3
390
F
  0
LAYER
  5
208
100
AcDbSymbolTableRecord
100
AcDbLayerTableRecord
  2
INTF_1
 70
0
 62
7
  6
CONTINUOUS
370
-3
390
F
  0
LAYER
  5
209
100
AcDbSymbolTableRecord
100
AcDbLayerTableRecord
  2
INTF_3
 70
0
 62
7
  6
CONTINUOUS
370
-3
390
F
  0
LAYER
  5
20A
100
AcDbSymbolTableRecord
100
AcDbLayerTableRecord
  2
INTF_5
 70
0
 62
7
  6
CONTINUOUS
370
-3
390
F
  0
LAYER
  5
20B
100
AcDbSymbolTableRecord
100
AcDbLayerTableRecord
  2
INTF_7
 70
0
 62
7
  6
CONTINUOUS
370
-3
390
F
  0
LAYER
  5
20C
100
AcDbSymbolTableRecord
100
AcDbLayerTableRecord
  2
INTF_MAGENTA
 70
0
 62
7
  6
CONTINUOUS
370
-3
390
F
  0
LAYER
  5
20D
100
AcDbSymbolTableRecord
100
AcDbLayerTableRecord
  2
NOTE
 70
0
 62
7
  6
CONTINUOUS
370
-3
390
F
  0
LAYER
  5
20E
100
AcDbSymbolTableRecord
100
AcDbLayerTableRecord
  2
PIANI
 70
0
 62
7
  6
CONTINUOUS
370
-3
390
F
  0
LAYER
  5
20F
100
AcDbSymbolTableRecord
100
AcDbLayerTableRecord
  2
PIANI_ORIGINE
 70
0
 62
7
  6
CONTINUOUS
370
-3
390
F
  0
LAYER
  5
210
100
AcDbSymbolTableRecord
100
AcDbLayerTableRecord
  2
PIANI_RIFERIMENTO
 70
0
 62
7
  6
CONTINUOUS
370
-3
390
F
  0
LAYER
  5
211
100
AcDbSymbolTableRecord
100
AcDbLayerTableRecord
  2
PIANO_RIFERIMENTO
 70
0
 62
7
  6
CONTINUOUS
370
-3
390
F
  0
LAYER
  5
212
100
AcDbSymbolTableRecord
100
AcDbLayerTableRecord
  2
PLACCA_PRT
 70
0
 62
7
  6
CONTINUOUS
370
-3
390
F
  0
LAYER
  5
213
100
AcDbSymbolTableRecord
100
AcDbLayerTableRecord
  2
PORTELLO
 70
0
 62
7
  6
CONTINUOUS
370
-3
390
F
  0
LAYER
  5
214
100
AcDbSymbolTableRecord
100
AcDbLayerTableRecord
  2
PPP
 70
0
 62
7
  6
CONTINUOUS
370
-3
390
F
  0
LAYER
  5
215
100
AcDbSymbolTableRecord
100
AcDbLayerTableRecord
  2
PUNTI
 70
0
 62
7
  6
CONTINUOUS
370
-3
390
F
  0
LAYER
  5
216
100
AcDbSymbolTableRecord
100
AcDbLayerTableRecord
  2
RACCORDO
 70
0
 62
7
  6
CONTINUOUS
370
-3
390
F
  0
LAYER
  5
217
100
AcDbSymbolTableRecord
100
AcDbLayerTableRecord
  2
RGB__255__255__255__
 70
0
 62
7
  6
CONTINUOUS
370
-3
390
F
  0
LAYER
  5
218
100
AcDbSymbolTableRecord
100
AcDbLayerTableRecord
  2
RGB____0____0____0__
 70
0
 62
7
  6
CONTINUOUS
370
-3
390
F
  0
LAYER
  5
219
100
AcDbSymbolTableRecord
100
AcDbLayerTableRecord
  2
SIMULAZIONE_IGES
 70
0
 62
7
  6
CONTINUOUS
370
-3
390
F
  0
LAYER
  5
21A
100
AcDbSymbolTableRecord
100
AcDbLayerTableRecord
  2
SMUSSO
 70
0
 62
7
  6
CONTINUOUS
370
-3
390
F
  0
LAYER
  5
21B
100
AcDbSymbolTableRecord
100
AcDbLayerTableRecord
  2
SNAPLINE
 70
0
 62
7
  6
CONTINUOUS
370
-3
390
F
  0
LAYER
  5
21C
100
AcDbSymbolTableRecord
100
AcDbLayerTableRecord
  2
SUPERFICI
 70
0
 62
7
  6
CONTINUOUS
370
-3
390
F
  0
LAYER
  5
21D
100
AcDbSymbolTableRecord
100
AcDbLayerTableRecord
  2
TESTI
 70
0
 62
7
  6
CONTINUOUS
370
-3
390
F
  0
LAYER
  5
21E
100
AcDbSymbolTableRecord
100
AcDbLayerTableRecord
  2
TESTO
 70
0
 62
7
  6
CONTINUOUS
370
-3
390
F
  0
LAYER
  5
21F
100
AcDbSymbolTableRecord
100
AcDbLayerTableRecord
  2
TRASH
 70
0
 62
7
  6
CONTINUOUS
370
-3
390
F
  0
LAYER
  5
220
100
AcDbSymbolTableRecord
100
AcDbLayerTableRecord
  2
XSEC_DATUMS
 70
0
 62
7
  6
CONTINUOUS
370
-3
390
F
  0
ENDTAB
  0
TABLE
  2
STYLE
  5
3
100
AcDbSymbolTable
 70
1
  0
STYLE
  5
11
100
AcDbSymbolTableRecord
100
AcDbTextStyleTableRecord
  2
STANDARD
 70
0
 40
0.0
 41
0.8
 50
0.0
 71
0
 42
0.2
  3
txt
  4

  0
STYLE
  5
221
100
AcDbSymbolTableRecord
100
AcDbTextStyleTableRecord
  2
TEXTSTYLE_1
 70
0
 40
0.0
 41
0.8
 50
0.0
 71
0
 42
0.2
  3
gdt
  4

  0
ENDTAB
  0
TABLE
  2
VIEW
  5
6
100
AcDbSymbolTable
 70
0
  0
ENDTAB
  0
TABLE
  2
UCS
  5
7
100
AcDbSymbolTable
 70
0
  0
ENDTAB
  0
TABLE
  2
APPID
  5
9
100
AcDbSymbolTable
 70
1
  0
APPID
  5
222
100
AcDbSymbolTableRecord
100
AcDbRegAppTableRecord
  2
ACAD
 70
0
  0
ENDTAB
  0
TABLE
  2
BLOCK_RECORD
  5
1
100
AcDbSymbolTable
 70
0
  0
BLOCK_RECORD
  5
223
100
AcDbSymbolTableRecord
100
AcDbBlockTableRecord
  2
*Model_Space
  0
BLOCK_RECORD
  5
224
100
AcDbSymbolTableRecord
100
AcDbBlockTableRecord
  2
*Paper_Space
  0
BLOCK_RECORD
  5
225
100
AcDbSymbolTableRecord
100
AcDbBlockTableRecord
  2
_FILLED
  0
ENDTAB
  0
TABLE
  2
DIMSTYLE
  5
A
100
AcDbSymbolTable
 70
1
100
AcDbDimStyleTable
 71
0
  0
DIMSTYLE
105
226
100
AcDbSymbolTableRecord
100
AcDbDimStyleTableRecord
  2
STANDARD
 70
0
  3

  4

 40
1.0
 41
3.0
 42
0.5
 43
0.38
 44
1.5
 45
0.0
 46
0.0
 47
0.01
 48
0.01
140
3.0
141
0.09
142
0.0
143
25.4
144
1.0
145
0.0
146
1.0
147
0.625
 71
1
 72
0
 73
0
 74
0
 75
0
 76
0
 77
1
 78
8
 79
2
170
0
171
1
172
0
173
0
174
0
175
0
176
0
177
0
178
0
270
2
179
2
271
2
272
2
273
2
274
2
275
0
280
0
281
0
282
0
283
1
284
8
285
0
286
0
287
3
288
0
340
11
278
44
341
225
342
225
343
225
344
225
  0
ENDTAB
  0
ENDSEC
  0
SECTION
  2
BLOCKS
  0
BLOCK
  5
20
100
AcDbEntity
  8
0
100
AcDbBlockBegin
  2
*Model_Space
 70
0
 10
0.0
 20
0.0
 30
0.0
  3
*Model_Space
  1

  0
ENDBLK
  5
21
100
AcDbEntity
  8
0
100
AcDbBlockEnd
  0
BLOCK
  5
1C
100
AcDbEntity
  8
0
100
AcDbBlockBegin
  2
*Paper_Space
 70
0
 10
0.0
 20
0.0
 30
0.0
  3
*Paper_Space
  1

  0
ENDBLK
  5
1D
100
AcDbEntity
  8
0
100
AcDbBlockEnd
  0
BLOCK
  5
227
100
AcDbEntity
  8
0
100
AcDbBlockBegin
  2
_FILLED
 70
64
 10
0.0
 20
0.0
  3
_FILLED
  1

  0
SOLID
  5
228
100
AcDbEntity
  8
0
  6
BYBLOCK
 62
0
100
AcDbTrace
 10
0.0
 20
0.0
 11
-1.0
 21
0.3166666667
 12
-1.0
 22
-0.3166666667
 13
-1.0
 23
-0.3166666667
  0
ENDBLK
  5
229
100
AcDbEntity
  8
0
  6
BYBLOCK
 62
0
100
AcDbBlockEnd
  0
ENDSEC
  0
SECTION
  2
ENTITIES
  0
LWPOLYLINE
  5
22A
100
AcDbEntity
  8
PLACCA_PRT
100
AcDbPolyline
 62
7
  6
CONTINUOUS
 90
10
 70
0
 10
-33.794004333
 20
43.0863377387
 10
-33.8103014499
 20
43.062179737
 10
-33.883754739
 20
42.9418846233
 10
-33.9488388254
 20
42.8147599162
 10
-34.0049344015
 20
42.6815344049
 10
-34.0516297173
 20
42.5427482357
 10
-34.0885643187
 20
42.3989489943
 10
-34.1154076663
 20
42.2508468833
 10
-34.1319997983
 20
42.0990379219
 10
-34.1383044778
 20
41.934992807
  0
LINE
  5
22B
100
AcDbEntity
  8
PLACCA_PRT
100
AcDbLine
 62
7
  6
CONTINUOUS
 10
-31.9855423415
 20
45.7207963481
 11
-33.793528491
 21
43.0870706938
  0
LINE
  5
22C
100
AcDbEntity
  8
PLACCA_PRT
100
AcDbLine
 62
250
  6
CONTINUOUS
 10
-31.6321439191
 20
43.5740203865
 11
-29.6381207678
 21
46.2571567867
  0
LINE
  5
22D
100
AcDbEntity
  8
PLACCA_PRT
100
AcDbLine
 62
250
  6
CONTINUOUS
 10
-33.7133624352
 20
41.447515197
 11
-33.726831021
 21
41.1507608851
  0
LWPOLYLINE
  5
22E
100
AcDbEntity
  8
PLACCA_PRT
100
AcDbPolyline
 62
250
  6
CONTINUOUS
 90
6
 70
0
 10
-33.7508915903
 20
40.7399193704
 10
-33.7524732694
 20
40.709085865
 10
-33.7532538739
 20
40.6783614596
 10
-33.7535112857
 20
40.6477976599
 10
-33.7535659946
 20
40.6167815493
 10
-33.7534432487
 20
40.5851979065
  0
LINE
  5
22F
100
AcDbEntity
  8
PLACCA_PRT
100
AcDbLine
 62
250
  6
CONTINUOUS
 10
-33.726831021
 20
41.1507608851
 11
-33.7333828519
 21
41.0209606665
  0
LINE
  5
230
100
AcDbEntity
  8
PLACCA_PRT
100
AcDbLine
 62
250
  6
CONTINUOUS
 10
-33.7333828519
 20
41.0209606665
 11
-33.7377475718
 21
40.941996984
  0
LINE
  5
231
100
AcDbEntity
  8
PLACCA_PRT
100
AcDbLine
 62
250
  6
CONTINUOUS
 10
-33.7377475718
 20
40.941996984
 11
-33.742165832
 21
40.8695774527
  0
LINE
  5
232
100
AcDbEntity
  8
PLACCA_PRT
100
AcDbLine
 62
250
  6
CONTINUOUS
 10
-33.742165832
 20
40.8695774527
 11
-33.7508915903
 21
40.7399193704
  0
LWPOLYLINE
  5
233
100
AcDbEntity
  8
PLACCA_PRT
100
AcDbPolyline
 62
250
  6
CONTINUOUS
 90
13
 70
0
 10
-32.0736923194
 20
42.3815650066
 10
-32.064864428
 20
42.4814655153
 10
-32.0497357962
 20
42.5859753998
 10
-32.0285067806
 20
42.6937105666
 10
-32.0014585295
 20
42.8032442076
 10
-31.9689492593
 20
42.9131256965
 10
-31.9314095107
 20
43.0218998005
 10
-31.8893364463
 20
43.1281259524
 10
-31.8432872671
 20
43.2303973295
 10
-31.7938718326
 20
43.3273594848
 10
-31.7417445837
 20
43.4177282851
 10
-31.687595876
 20
43.5003069169
 10
-31.6321428364
 20
43.5740017374
  0
LWPOLYLINE
  5
234
100
AcDbEntity
  8
PLACCA_PRT
100
AcDbPolyline
 62
7
  6
CONTINUOUS
 90
3
 70
0
 10
-24.3148156288
 20
30.6233019269
 10
-24.24887691
 20
30.7341332002
 10
-24.222841784
 20
30.7732024798
  0
LWPOLYLINE
  5
235
100
AcDbEntity
  8
PORTELLO
100
AcDbPolyline
 62
7
  6
CONTINUOUS
 90
10
 70
0
 10
-26.1239644891
 20
27.8466722555
 10
-26.1712574612
 20
27.7747726385
 10
-26.2495728596
 20
27.639745843
 10
-26.3185180266
 20
27.4981557206
 10
-26.3775511934
 20
27.3506991316
 10
-26.4262597224
 20
27.1980414058
 10
-26.4642759362
 20
27.0409039143
 10
-26.4912994214
 20
26.8800192876
 10
-26.5071536845
 20
26.7160970717
 10
-26.5117798617
 20
26.5665608946
  0
LINE
  5
236
100
AcDbEntity
  8
PORTELLO
100
AcDbLine
 62
7
  6
CONTINUOUS
 10
-24.3473208694
 20
30.4347745513
 11
-26.1243045503
 21
27.8462107459
  0
LINE
  5
237
100
AcDbEntity
  8
PLACCA_PRT
100
AcDbLine
 62
7
  6
CONTINUOUS
 10
-24.222841784
 20
30.7732024798
 11
-24.1754226083
 21
30.8388532295
  0
LWPOLYLINE
  5
238
100
AcDbEntity
  8
PORTELLO
100
AcDbPolyline
 62
250
  6
CONTINUOUS
 90
18
 70
0
 10
-26.1239890667
 20
27.8466701111
 10
-26.0655020136
 20
27.9254667043
 10
-25.9818400584
 20
28.0203760039
 10
-25.889368447
 20
28.1071824925
 10
-25.7884703309
 20
28.1855440601
 10
-25.6795632002
 20
28.2551385584
 10
-25.5631153795
 20
28.3156662879
 10
-25.4396251885
 20
28.3668706517
 10
-25.3095944806
 20
28.4085394505
 10
-25.1735538805
 20
28.4404892275
 10
-25.0321092045
 20
28.4625690784
 10
-24.8859165877
 20
28.474681396
 10
-24.7356488785
 20
28.4767739979
 10
-24.5819205444
 20
28.4688456639
 10
-24.4253286138
 20
28.4509386003
 10
-24.2665257481
 20
28.4231202454
 10
-24.1062216029
 20
28.3854949956
 10
-23.9451108013
 20
28.3382126772
  0
LINE
  5
239
100
AcDbEntity
  8
PLACCA_PRT
100
AcDbLine
 62
250
  6
CONTINUOUS
 10
-22.2281416641
 20
30.795747289
 11
-21.806206915
 21
31.3634982115
  0
LINE
  5
23A
100
AcDbEntity
  8
PORTELLO
100
AcDbLine
 62
250
  6
CONTINUOUS
 10
-23.9451108013
 20
28.3382126772
 11
-22.6706725721
 21
30.0530832393
  0
LWPOLYLINE
  5
23B
100
AcDbEntity
  8
PORTELLO
100
AcDbPolyline
 62
250
  6
CONTINUOUS
 90
16
 70
0
 10
-23.9451108013
 20
28.3382126772
 10
-24.016204637
 20
28.2452838602
 10
-24.0860011073
 20
28.1425629063
 10
-24.1538326543
 20
28.0310322747
 10
-24.2190505134
 20
27.9117586837
 10
-24.281030918
 20
27.7858829077
 10
-24.3391810657
 20
27.6546088671
 10
-24.3929447881
 20
27.5191921129
 10
-24.4418078701
 20
27.3809278186
 10
-24.4853029682
 20
27.2411383925
 10
-24.52301408
 20
27.1011608299
 10
-24.5545805232
 20
26.9623339255
 10
-24.5797003853
 20
26.8259854686
 10
-24.5981334113
 20
26.6934195438
 10
-24.6097033012
 20
26.5659040583
 10
-24.6142993967
 20
26.444658615
  0
LINE
  5
23C
100
AcDbEntity
  8
PLACCA_PRT
100
AcDbLine
 62
7
  6
CONTINUOUS
 10
-24.1754226083
 20
30.8388532295
 11
-24.1207686303
 21
30.8959551557
  0
LWPOLYLINE
  5
23D
100
AcDbEntity
  8
PLACCA_PRT
100
AcDbPolyline
 62
7
  6
CONTINUOUS
 90
9
 70
0
 10
-24.1207686303
 20
30.8959551557
 10
-24.0570870206
 20
30.9404742867
 10
-23.9841229963
 20
30.9725854409
 10
-23.9005714035
 20
30.9928320318
 10
-23.8073358524
 20
31.0008518001
 10
-23.7070535861
 20
30.9966008497
 10
-23.6000402935
 20
30.9814040392
 10
-23.4847623462
 20
30.9567141881
 10
-23.3607545318
 20
30.9236975339
  0
LINE
  5
23E
100
AcDbEntity
  8
PLACCA_PRT
100
AcDbLine
 62
250
  6
CONTINUOUS
 10
-32.3418480977
 20
-15.4336409969
 11
-32.3314181587
 21
-15.5303021861
  0
LINE
  5
23F
100
AcDbEntity
  8
PLACCA_PRT
100
AcDbLine
 62
250
  6
CONTINUOUS
 10
-32.3314181587
 20
-15.5303021861
 11
-32.316935079
 21
-15.6716676115
  0
LINE
  5
240
100
AcDbEntity
  8
PLACCA_PRT
100
AcDbLine
 62
250
  6
CONTINUOUS
 10
-32.316935079
 20
-15.6716676115
 11
-32.2840551451
 21
-16.0083880845
  0
LWPOLYLINE
  5
241
100
AcDbEntity
  8
PLACCA_PRT
100
AcDbPolyline
 62
7
  6
CONTINUOUS
 90
21
 70
0
 10
-32.7095042542
 20
-15.4984384167
 10
-32.6923151193
 20
-15.6782897678
 10
-32.6621524199
 20
-15.8516005904
 10
-32.6182657108
 20
-16.0268698964
 10
-32.5607404026
 20
-16.2027966617
 10
-32.4904540205
 20
-16.376786897
 10
-32.407906757
 20
-16.5480193297
 10
-32.3133511927
 20
-16.716269277
 10
-32.2079303643
 20
-16.8798380626
 10
-32.0923703622
 20
-17.0379404882
 10
-31.9670459039
 20
-17.1903546087
 10
-31.8328772833
 20
-17.3361932933
 10
-31.6904401827
 20
-17.474939754
 10
-31.5403263903
 20
-17.6061181736
 10
-31.3836022304
 20
-17.7289012823
 10
-31.2209140318
 20
-17.8427982424
 10
-31.0528630977
 20
-17.9473958495
 10
-30.880456302
 20
-18.0420625728
 10
-30.704407065
 20
-18.1263335779
 10
-30.5253023132
 20
-18.1998822094
 10
-30.4113117221
 20
-18.2405002803
  0
LWPOLYLINE
  5
242
100
AcDbEntity
  8
PLACCA_PRT
100
AcDbPolyline
 62
250
  6
CONTINUOUS
 90
5
 70
0
 10
-32.36357672
 20
-15.2197087362
 10
-32.361685127
 20
-15.2493265838
 10
-32.3589780726
 20
-15.2794397049
 10
-32.3557284592
 20
-15.3098245985
 10
-32.3418480977
 20
-15.4336409969
  0
LINE
  5
243
100
AcDbEntity
  8
PLACCA_PRT
100
AcDbLine
 62
7
  6
CONTINUOUS
 10
-32.7094691176
 20
-15.499074493
 11
-32.7095042542
 21
-15.4984384167
  0
LINE
  5
244
100
AcDbEntity
  8
PLACCA_PRT
100
AcDbLine
 62
250
  6
CONTINUOUS
 10
-32.5113361955
 20
-12.0313831737
 11
-32.3701791276
 21
-15.0703671653
  0
LINE
  5
245
100
AcDbEntity
  8
PLACCA_PRT
100
AcDbLine
 62
250
  6
CONTINUOUS
 10
-32.3701791276
 20
-15.0703671653
 11
-32.36357672
 21
-15.2197087362
  0
LINE
  5
246
100
AcDbEntity
  8
PLACCA_PRT
100
AcDbLine
 62
250
  6
CONTINUOUS
 10
-32.5564881351
 20
-10.924758425
 11
-32.5113361955
 21
-12.0313831737
  0
LINE
  5
247
100
AcDbEntity
  8
PLACCA_PRT
100
AcDbLine
 62
250
  6
CONTINUOUS
 10
-32.6002186879
 20
-9.7210259414
 11
-32.5564881351
 21
-10.924758425
  0
LINE
  5
248
100
AcDbEntity
  8
PLACCA_PRT
100
AcDbLine
 62
250
  6
CONTINUOUS
 10
-32.6601168718
 20
-7.8166767252
 11
-32.6002186879
 21
-9.7210259414
  0
LWPOLYLINE
  5
249
100
AcDbEntity
  8
PLACCA_PRT
100
AcDbPolyline
 62
7
  6
CONTINUOUS
 90
6
 70
0
 10
-32.9308350079
 20
-8.4423483371
 10
-32.8900445638
 20
-9.9330680004
 10
-32.8476652207
 20
-11.3959754744
 10
-32.8036358159
 20
-12.831062508
 10
-32.7589112457
 20
-14.2394752267
 10
-32.7095007924
 20
-15.499076218
  0
LINE
  5
24A
100
AcDbEntity
  8
PLACCA_PRT
100
AcDbLine
 62
7
  6
CONTINUOUS
 10
-33.1764934348
 20
1.0457466172
 11
-32.9308350079
 21
-8.4423483371
  0
LWPOLYLINE
  5
24B
100
AcDbEntity
  8
PLACCA_PRT
100
AcDbPolyline
 62
7
  6
CONTINUOUS
 90
5
 70
0
 10
-34.082346114
 20
38.371111308
 10
-34.0572244203
 20
37.1125008078
 10
-34.0299294535
 20
35.8384421564
 10
-34.0006580628
 20
34.548130889
 10
-33.1764934348
 20
1.0457466172
  0
LINE
  5
24C
100
AcDbEntity
  8
PLACCA_PRT
100
AcDbLine
 62
250
  6
CONTINUOUS
 10
-33.7128668908
 20
34.9219741548
 11
-32.6601168718
 21
-7.8166767252
  0
LINE
  5
24D
100
AcDbEntity
  8
PLACCA_PRT
100
AcDbLine
 62
250
  6
CONTINUOUS
 10
-33.7310739006
 20
36.2121853805
 11
-33.7128668908
 21
34.9219741548
  0
LWPOLYLINE
  5
24E
100
AcDbEntity
  8
PLACCA_PRT
100
AcDbPolyline
 62
7
  6
CONTINUOUS
 90
3
 70
0
 10
-34.1383370425
 20
41.9349968696
 10
-34.1276524636
 20
40.8398009479
 10
-34.082346114
 20
38.371111308
  0
LINE
  5
24F
100
AcDbEntity
  8
PLACCA_PRT
100
AcDbLine
 62
250
  6
CONTINUOUS
 10
-33.7534432487
 20
40.5851979065
 11
-33.7528618182
 21
40.5197349197
  0
LINE
  5
250
100
AcDbEntity
  8
PLACCA_PRT
100
AcDbLine
 62
250
  6
CONTINUOUS
 10
-33.7420433739
 20
37.3797243367
 11
-33.7310739006
 21
36.2121853805
  0
LINE
  5
251
100
AcDbEntity
  8
PLACCA_PRT
100
AcDbLine
 62
250
  6
CONTINUOUS
 10
-33.7528618182
 20
40.5197349197
 11
-33.7420433739
 21
37.3797243367
  0
LWPOLYLINE
  5
252
100
AcDbEntity
  8
PLACCA_PRT
100
AcDbPolyline
 62
7
  6
CONTINUOUS
 90
4
 70
0
 10
-24.4624261908
 20
30.2670985778
 10
-24.4233732558
 20
30.3845738814
 10
-24.3730347006
 20
30.506679369
 10
-24.3148156288
 20
30.6233019269
  0
LINE
  5
253
100
AcDbEntity
  8
PLACCA_PRT
100
AcDbLine
 62
7
  6
CONTINUOUS
 10
-24.2885125628
 20
30.6232025055
 11
-24.2570018642
 21
30.703383616
  0
LWPOLYLINE
  5
254
100
AcDbEntity
  8
PLACCA_PRT
100
AcDbPolyline
 62
250
  6
CONTINUOUS
 90
13
 70
0
 10
37.0282325755
 20
-37.2935201497
 10
37.1386514008
 20
-37.3103073557
 10
37.2518732297
 20
-37.3184297153
 10
37.366407041
 20
-37.3177802657
 10
37.4807445359
 20
-37.3083675604
 10
37.5933800008
 20
-37.2903155561
 10
37.7028301364
 20
-37.2638619811
 10
37.807653591
 20
-37.2293552039
 10
37.9064699416
 20
-37.187249646
 10
37.9979778732
 20
-37.1380997978
 10
38.0809723154
 20
-37.0825529159
 10
38.1543603123
 20
-37.0213404993
 10
38.2171754153
 20
-36.9552686568
  0
LWPOLYLINE
  5
255
100
AcDbEntity
  8
PLACCA_PRT
100
AcDbPolyline
 62
250
  6
CONTINUOUS
 90
7
 70
0
 10
-30.5728080582
 20
-17.9516803815
 10
-30.5596250096
 20
-18.0268792668
 10
-30.5402683859
 20
-18.0923503218
 10
-30.5149945435
 20
-18.14722645
 10
-30.4841382066
 20
-18.1907808738
 10
-30.4481080339
 20
-18.2224367599
 10
-30.4117807723
 20
-18.2403598517
  0
LWPOLYLINE
  5
256
100
AcDbEntity
  8
PLACCA_PRT
100
AcDbPolyline
 62
250
  6
CONTINUOUS
 90
22
 70
0
 10
-32.2840522513
 20
-16.008385234
 10
-32.2698691464
 20
-16.1130847225
 10
-32.2472261475
 20
-16.2205165233
 10
-32.2161931072
 20
-16.3299273699
 10
-32.1769094632
 20
-16.4406584054
 10
-32.1295532989
 20
-16.552079514
 10
-32.0743150556
 20
-16.6635454871
 10
-32.0114447499
 20
-16.7744399138
 10
-31.9412608321
 20
-16.8841435292
 10
-31.8641062738
 20
-16.9920093041
 10
-31.7803477758
 20
-17.097445546
 10
-31.6904295729
 20
-17.1998983309
 10
-31.5948358478
 20
-17.2987866133
 10
-31.4940331633
 20
-17.393589721
 10
-31.3885855932
 20
-17.4838201444
 10
-31.2791383505
 20
-17.5689594245
 10
-31.1663003244
 20
-17.6485459286
 10
-31.0506567664
 20
-17.7222329165
 10
-30.9328253087
 20
-17.7896928857
 10
-30.8134287608
 20
-17.8505985357
 10
-30.693167342
 20
-17.9046706545
 10
-30.5728066184
 20
-17.9516784012
  0
LWPOLYLINE
  5
257
100
AcDbEntity
  8
PORTELLO
100
AcDbPolyline
 62
7
  6
CONTINUOUS
 90
21
 70
0
 10
-25.5587250224
 20
-13.975812412
 10
-25.5459139665
 20
-14.1353916719
 10
-25.5199542161
 20
-14.3082616868
 10
-25.4804383769
 20
-14.4849600557
 10
-25.4270119339
 20
-14.6636483978
 10
-25.3604636693
 20
-14.840649745
 10
-25.2808453955
 20
-15.0156311434
 10
-25.1882480631
 20
-15.1881225918
 10
-25.084545091
 20
-15.3548162595
 10
-24.9705588068
 20
-15.5150447727
 10
-24.8463415965
 20
-15.669159862
 10
-24.7132669608
 20
-15.8156976806
 10
-24.5718848441
 20
-15.9543897985
 10
-24.4223778438
 20
-16.0851332005
 10
-24.2659484651
 20
-16.2069140019
 10
-24.1027963552
 20
-16.3195769288
 10
-23.9332687348
 20
-16.4226730928
 10
-23.7589487109
 20
-16.5151059565
 10
-23.5805131009
 20
-16.5963909984
 10
-23.3978317569
 20
-16.6663840076
 10
-23.3678534336
 20
-16.6766291218
  0
LWPOLYLINE
  5
258
100
AcDbEntity
  8
PORTELLO
100
AcDbPolyline
 62
250
  6
CONTINUOUS
 90
12
 70
0
 10
-26.1840247513
 20
4.8356762331
 10
-26.1798683737
 20
4.7786216593
 10
-26.1612556405
 20
4.6858512824
 10
-26.1281592171
 20
4.5949164519
 10
-26.0809037036
 20
4.5067090306
 10
-26.0199525682
 20
4.4220941315
 10
-25.9459036017
 20
4.3419016334
 10
-25.8594830545
 20
4.2669180415
 10
-25.7615385142
 20
4.1978787735
 10
-25.6530305918
 20
4.1354609468
 10
-25.5350235012
 20
4.0802767378
 10
-25.4086746214
 20
4.0328673778
  0
LWPOLYLINE
  5
259
100
AcDbEntity
  8
PORTELLO
100
AcDbPolyline
 62
250
  6
CONTINUOUS
 90
12
 70
0
 10
-26.5117799827
 20
26.5661816684
 10
-26.5078506074
 20
26.5013903181
 10
-26.4899504403
 20
26.4139000709
 10
-26.4577450886
 20
26.3278843193
 10
-26.4115462249
 20
26.2441754947
 10
-26.3518009461
 20
26.1635837026
 10
-26.2790874467
 20
26.086888883
 10
-26.1941094234
 20
26.0148332625
 10
-26.0976892647
 20
25.9481141709
 10
-25.9907600921
 20
25.8873772928
 10
-25.8743567299
 20
25.8332104193
 10
-25.7496056905
 20
25.786137759
  0
LINE
  5
25A
100
AcDbEntity
  8
PORTELLO
100
AcDbLine
 62
250
  6
CONTINUOUS
 10
-24.7938632633
 20
-14.7855922732
 11
-24.8602487781
 21
-13.2589843725
  0
LINE
  5
25B
100
AcDbEntity
  8
PORTELLO
100
AcDbLine
 62
250
  6
CONTINUOUS
 10
-24.8602487781
 20
-13.2589843725
 11
-24.9244109167
 21
-11.6756918985
  0
LINE
  5
25C
100
AcDbEntity
  8
PORTELLO
100
AcDbLine
 62
250
  6
CONTINUOUS
 10
-24.9244109167
 20
-11.6756918985
 11
-24.9864864294
 21
-10.0359968256
  0
LINE
  5
25D
100
AcDbEntity
  8
PORTELLO
100
AcDbLine
 62
250
  6
CONTINUOUS
 10
-24.9864864294
 20
-10.0359968256
 11
-25.0467387793
 21
-8.3403312731
  0
LINE
  5
25E
100
AcDbEntity
  8
PORTELLO
100
AcDbLine
 62
250
  6
CONTINUOUS
 10
-25.0467387793
 20
-8.3403312731
 11
-25.1055764238
 21
-6.5892601372
  0
LINE
  5
25F
100
AcDbEntity
  8
PORTELLO
100
AcDbLine
 62
250
  6
CONTINUOUS
 10
-25.1055764238
 20
-6.5892601372
 11
-25.1632579299
 21
-4.7829758169
  0
LINE
  5
260
100
AcDbEntity
  8
PORTELLO
100
AcDbLine
 62
250
  6
CONTINUOUS
 10
-25.1632579299
 20
-4.7829758169
 11
-25.2198526689
 21
-2.9212417669
  0
LINE
  5
261
100
AcDbEntity
  8
PORTELLO
100
AcDbLine
 62
250
  6
CONTINUOUS
 10
-25.2198526689
 20
-2.9212417669
 11
-25.2753027499
 21
-1.003940118
  0
LINE
  5
262
100
AcDbEntity
  8
PORTELLO
100
AcDbLine
 62
250
  6
CONTINUOUS
 10
-25.2753027499
 20
-1.003940118
 11
-25.3295509311
 21
0.9690025313
  0
LINE
  5
263
100
AcDbEntity
  8
PORTELLO
100
AcDbLine
 62
250
  6
CONTINUOUS
 10
-25.3295509311
 20
0.9690025313
 11
-25.3826045642
 21
2.9976532307
  0
LWPOLYLINE
  5
264
100
AcDbEntity
  8
PORTELLO
100
AcDbPolyline
 62
7
  6
CONTINUOUS
 90
10
 70
0
 10
-26.1840230084
 20
4.8357054464
 10
-26.1252583669
 20
2.5453911189
 10
-26.061507227
 20
0.2125067562
 10
-25.99564725
 20
-2.0483399997
 10
-25.9277716444
 20
-4.2372083242
 10
-25.8579739105
 20
-6.354257395
 10
-25.7861214083
 20
-8.3994628383
 10
-25.711671572
 20
-10.3720624618
 10
-25.6341219815
 20
-12.2712220831
 10
-25.5587785504
 20
-13.9749684439
  0
LWPOLYLINE
  5
265
100
AcDbEntity
  8
PORTELLO
100
AcDbPolyline
 62
250
  6
CONTINUOUS
 90
10
 70
0
 10
-25.3826045642
 20
2.9976532307
 10
-25.4608855679
 20
6.1894529796
 10
-25.5114961445
 20
8.4098597204
 10
-25.5601389466
 20
10.6945309135
 10
-25.606383003
 20
13.0462831225
 10
-25.6490973821
 20
15.4647380051
 10
-25.686788733
 20
17.9456741928
 10
-25.7178380077
 20
20.4894403037
 10
-25.7397871853
 20
23.1015984069
 10
-25.7496099031
 20
25.7861333052
  0
LWPOLYLINE
  5
266
100
AcDbEntity
  8
PORTELLO
100
AcDbPolyline
 62
7
  6
CONTINUOUS
 90
10
 70
0
 10
-26.5117962549
 20
26.566181675
 10
-26.5073984407
 20
24.508426423
 10
-26.4935502334
 20
22.2673228919
 10
-26.4708059803
 20
19.9609542753
 10
-26.4399946646
 20
17.5884023525
 10
-26.4017525009
 20
15.1488633566
 10
-26.3564312556
 20
12.6417427793
 10
-26.3044954157
 20
10.0663396485
 10
-26.246072336
 20
7.4225315295
 10
-26.1840247513
 20
4.8356762331
  0
LWPOLYLINE
  5
267
100
AcDbEntity
  8
PORTELLO
100
AcDbPolyline
 62
250
  6
CONTINUOUS
 90
25
 70
0
 10
-25.7496056905
 20
25.786137759
 10
-25.7472192165
 20
25.8536098012
 10
-25.7399806457
 20
25.9191788463
 10
-25.7279067707
 20
25.9825190855
 10
-25.7110549172
 20
26.0433421488
 10
-25.6895091254
 20
26.1014096778
 10
-25.6633453781
 20
26.1564956007
 10
-25.6326622054
 20
26.208375603
 10
-25.5976069425
 20
26.2568152857
 10
-25.5583390897
 20
26.3015786928
 10
-25.515031502
 20
26.3424575825
 10
-25.4678773089
 20
26.3792976486
 10
-25.417070629
 20
26.4119477423
 10
-25.3628216893
 20
26.4402560975
 10
-25.3053719346
 20
26.4641102408
 10
-25.2449578337
 20
26.483412392
 10
-25.1818181296
 20
26.4980652507
 10
-25.1162411005
 20
26.5080063091
 10
-25.0485414851
 20
26.5131970689
 10
-24.9790284389
 20
26.513607307
 10
-24.9079821892
 20
26.5092399242
 10
-24.8356764473
 20
26.5001194949
 10
-24.7624014425
 20
26.4862685238
 10
-24.6884891976
 20
26.4677454765
 10
-24.6142992722
 20
26.4446587469
  0
LWPOLYLINE
  5
268
100
AcDbEntity
  8
PLACCA_PRT
100
AcDbPolyline
 62
7
  6
CONTINUOUS
 90
3
 70
0
 10
-24.3278913408
 20
30.4614285111
 10
-24.3134657858
 20
30.5352073002
 10
-24.2885125628
 20
30.6232025055
  0
LWPOLYLINE
  5
269
100
AcDbEntity
  8
PLACCA_PRT
100
AcDbPolyline
 62
250
  6
CONTINUOUS
 90
22
 70
0
 10
35.4012491483
 20
-38.2116717737
 10
35.5249730616
 20
-38.2396200525
 10
35.6476712085
 20
-38.2601584547
 10
35.7686250562
 20
-38.273062075
 10
35.8871774661
 20
-38.2781932961
 10
36.0027443071
 20
-38.2755087778
 10
36.114746319
 20
-38.2649684673
 10
36.2226313608
 20
-38.2465698218
 10
36.3258138892
 20
-38.2204076752
 10
36.4236727799
 20
-38.1866116066
 10
36.5156661052
 20
-38.1453294834
 10
36.6013418295
 20
-38.0967998866
 10
36.6802304229
 20
-38.0413109869
 10
36.7519003753
 20
-37.9791477765
 10
36.8159892944
 20
-37.9106780475
 10
36.872156067
 20
-37.836338748
 10
36.9200823686
 20
-37.7565535911
 10
36.9595065103
 20
-37.6717818544
 10
36.9902162017
 20
-37.582545091
 10
37.0120102687
 20
-37.4893569689
 10
37.0247196824
 20
-37.3927816096
 10
37.0282342081
 20
-37.2935169109
  0
LWPOLYLINE
  5
26A
100
AcDbEntity
  8
PLACCA_PRT
100
AcDbPolyline
 62
7
  6
CONTINUOUS
 90
17
 70
0
 10
35.5464972232
 20
-38.4955172736
 10
35.7226000219
 20
-38.5394680713
 10
35.9024283023
 20
-38.5733214692
 10
36.0805939002
 20
-38.5956279601
 10
36.2568118734
 20
-38.6063371985
 10
36.4303019956
 20
-38.6054115901
 10
36.5996759013
 20
-38.5929127436
 10
36.7643556446
 20
-38.5690042116
 10
36.9238465075
 20
-38.5339267319
 10
37.0768327453
 20
-38.4881948524
 10
37.2223714455
 20
-38.4324307002
 10
37.3603698054
 20
-38.3670555323
 10
37.4907136672
 20
-38.2924834147
 10
37.6125649457
 20
-38.2095663571
 10
37.7258247675
 20
-38.1187619736
 10
37.8311899089
 20
-38.0196596052
 10
37.8696697374
 20
-37.9792507848
  0
LINE
  5
26B
100
AcDbEntity
  8
PLACCA_PRT
100
AcDbLine
 62
250
  6
CONTINUOUS
 10
35.1285503632
 20
-38.1415769631
 11
35.4012479147
 21
-38.2116737934
  0
LINE
  5
26C
100
AcDbEntity
  8
PLACCA_PRT
100
AcDbLine
 62
7
  6
CONTINUOUS
 10
35.5464972232
 20
-38.4955172736
 11
35.5467352766
 21
-38.4955835951
  0
LWPOLYLINE
  5
26D
100
AcDbEntity
  8
PLACCA_PRT
100
AcDbPolyline
 62
250
  6
CONTINUOUS
 90
4
 70
0
 10
34.8363711479
 20
-38.0644870516
 10
34.8690376387
 20
-38.0736532027
 10
34.9014356204
 20
-38.0824260129
 10
35.1285503632
 20
-38.1415769631
  0
LINE
  5
26E
100
AcDbEntity
  8
PLACCA_PRT
100
AcDbLine
 62
250
  6
CONTINUOUS
 10
34.2979025389
 20
-37.9089419024
 11
34.8363711479
 21
-38.0644870516
  0
LINE
  5
26F
100
AcDbEntity
  8
PLACCA_PRT
100
AcDbLine
 62
250
  6
CONTINUOUS
 10
28.9551394077
 20
-36.3742944903
 11
34.2979025389
 21
-37.9089419024
  0
LINE
  5
270
100
AcDbEntity
  8
PLACCA_PRT
100
AcDbLine
 62
250
  6
CONTINUOUS
 10
24.7356728429
 20
-35.1393281221
 11
28.9551394077
 21
-36.3742944903
  0
LWPOLYLINE
  5
271
100
AcDbEntity
  8
PLACCA_PRT
100
AcDbPolyline
 62
7
  6
CONTINUOUS
 90
4
 70
0
 10
29.9597267807
 20
-36.8380916381
 10
33.4525681168
 20
-37.8762751144
 10
34.5718627644
 20
-38.2097770301
 10
35.5467307182
 20
-38.4955998973
  0
LINE
  5
272
100
AcDbEntity
  8
PLACCA_PRT
100
AcDbLine
 62
250
  6
CONTINUOUS
 10
22.8376850665
 20
-34.5735475593
 11
24.7356728429
 21
-35.1393281221
  0
LINE
  5
273
100
AcDbEntity
  8
PLACCA_PRT
100
AcDbLine
 62
250
  6
CONTINUOUS
 10
21.0647193482
 20
-34.0376375091
 11
22.8376850665
 21
-34.5735475593
  0
LWPOLYLINE
  5
274
100
AcDbEntity
  8
PLACCA_PRT
100
AcDbPolyline
 62
7
  6
CONTINUOUS
 90
6
 70
0
 10
21.1232572235
 20
-34.1734587033
 10
22.4403468132
 20
-34.5754124492
 10
23.7389966034
 20
-34.9698576332
 10
25.019980252
 20
-35.3570034845
 10
26.2838108873
 20
-35.7371471779
 10
29.9597267807
 20
-36.8380916381
  0
LINE
  5
275
100
AcDbEntity
  8
PLACCA_PRT
100
AcDbLine
 62
7
  6
CONTINUOUS
 10
-9.5540226802
 20
-24.7488923495
 11
12.9635708236
 21
-31.6629686341
  0
LINE
  5
276
100
AcDbEntity
  8
PLACCA_PRT
100
AcDbLine
 62
250
  6
CONTINUOUS
 10
19.0087703054
 20
-33.4087334748
 11
21.0647193482
 21
-34.0376375091
  0
LINE
  5
277
100
AcDbEntity
  8
PLACCA_PRT
100
AcDbLine
 62
250
  6
CONTINUOUS
 10
-9.2787981512
 20
-24.7126741321
 11
12.8354270406
 21
-31.50260801
  0
LINE
  5
278
100
AcDbEntity
  8
PLACCA_PRT
100
AcDbLine
 62
7
  6
CONTINUOUS
 10
18.4328715467
 20
-33.3476655396
 11
21.1232572235
 21
-34.1734587033
  0
LINE
  5
279
100
AcDbEntity
  8
PLACCA_PRT
100
AcDbLine
 62
250
  6
CONTINUOUS
 10
-15.3900487498
 20
-22.8447211066
 11
-9.2787981512
 21
-24.7126741321
  0
LINE
  5
27A
100
AcDbEntity
  8
PLACCA_PRT
100
AcDbLine
 62
7
  6
CONTINUOUS
 10
12.9635673155
 20
-31.6629675567
 11
18.4328715467
 21
-33.3476655396
  0
LINE
  5
27B
100
AcDbEntity
  8
PLACCA_PRT
100
AcDbLine
 62
250
  6
CONTINUOUS
 10
12.8354270407
 20
-31.5026080094
 11
14.6851467591
 21
-32.0729100746
  0
LINE
  5
27C
100
AcDbEntity
  8
PLACCA_PRT
100
AcDbLine
 62
250
  6
CONTINUOUS
 10
14.6851467591
 20
-32.0729100746
 11
19.0087703054
 21
-33.4087334748
  0
LINE
  5
27D
100
AcDbEntity
  8
PLACCA_PRT
100
AcDbLine
 62
250
  6
CONTINUOUS
 10
-17.423064439
 20
-22.2139337767
 11
-15.3900487498
 21
-22.8447211066
  0
LWPOLYLINE
  5
27E
100
AcDbEntity
  8
PLACCA_PRT
100
AcDbPolyline
 62
7
  6
CONTINUOUS
 90
6
 70
0
 10
-20.7794648116
 20
-21.2877536251
 10
-19.2642144354
 20
-21.7616545426
 10
-17.7191939179
 20
-22.2420514191
 10
-16.1447573222
 20
-22.7287985237
 10
-14.5409279555
 20
-23.2221942748
 10
-9.5540226802
 20
-24.7488923495
  0
LWPOLYLINE
  5
27F
100
AcDbEntity
  8
PLACCA_PRT
100
AcDbPolyline
 62
7
  6
CONTINUOUS
 90
4
 70
0
 10
-29.2472357613
 20
-18.6133889709
 10
-26.5482628575
 20
-19.4680599992
 10
-25.1522566316
 20
-19.91145658
 10
-20.7794648116
 20
-21.2877536251
  0
LINE
  5
280
100
AcDbEntity
  8
PLACCA_PRT
100
AcDbLine
 62
250
  6
CONTINUOUS
 10
-19.5406130418
 20
-21.5473644511
 11
-17.423064439
 21
-22.2139337767
  0
LINE
  5
281
100
AcDbEntity
  8
PLACCA_PRT
100
AcDbLine
 62
7
  6
CONTINUOUS
 10
-30.4117807723
 20
-18.2403598517
 11
-29.2472357613
 21
-18.6133889709
  0
LINE
  5
282
100
AcDbEntity
  8
PLACCA_PRT
100
AcDbLine
 62
250
  6
CONTINUOUS
 10
-22.4103167203
 20
-20.6281954734
 11
-19.5406130418
 21
-21.5473644511
  0
LINE
  5
283
100
AcDbEntity
  8
PLACCA_PRT
100
AcDbLine
 62
250
  6
CONTINUOUS
 10
-25.170400467
 20
-19.7355457729
 11
-22.4103167203
 21
-20.6281954734
  0
LINE
  5
284
100
AcDbEntity
  8
PLACCA_PRT
100
AcDbLine
 62
250
  6
CONTINUOUS
 10
-25.9737602076
 20
-19.4711039244
 11
-25.170400467
 21
-19.7355457729
  0
LINE
  5
285
100
AcDbEntity
  8
PLACCA_PRT
100
AcDbLine
 62
7
  6
CONTINUOUS
 10
-30.4117807723
 20
-18.2403598517
 11
-30.4113169974
 21
-18.2405160171
  0
LWPOLYLINE
  5
286
100
AcDbEntity
  8
PLACCA_PRT
100
AcDbPolyline
 62
250
  6
CONTINUOUS
 90
4
 70
0
 10
-30.0982948559
 20
-18.121025667
 10
-30.0675602251
 20
-18.1316834034
 10
-30.0365981385
 20
-18.1421090769
 10
-25.9737602076
 20
-19.4711039244
  0
LINE
  5
287
100
AcDbEntity
  8
PLACCA_PRT
100
AcDbLine
 62
250
  6
CONTINUOUS
 10
-30.5728080582
 20
-17.9516803815
 11
-30.0982948559
 21
-18.121025667
  0
LWPOLYLINE
  5
288
100
AcDbEntity
  8
PORTELLO
100
AcDbPolyline
 62
250
  6
CONTINUOUS
 90
9
 70
0
 10
-23.3680074248
 20
-16.6765774564
 10
-23.4140488673
 20
-16.6552165513
 10
-23.4617971848
 20
-16.6181096896
 10
-23.5040031463
 20
-16.5677789924
 10
-23.540257403
 20
-16.5047126091
 10
-23.5702083305
 20
-16.4295222106
 10
-23.5935654395
 20
-16.3429370566
 10
-23.6101021932
 20
-16.2457969227
 10
-23.6196582043
 20
-16.1390439558
  0
LWPOLYLINE
  5
289
100
AcDbEntity
  8
PLACCA_PRT
100
AcDbPolyline
 62
250
  6
CONTINUOUS
 90
9
 70
0
 10
-32.2840522513
 20
-16.008385234
 10
-32.3740508204
 20
-15.9636242895
 10
-32.4553179539
 20
-15.9120194942
 10
-32.5267834807
 20
-15.8542504089
 10
-32.5875063025
 20
-15.7910777689
 10
-32.6366867872
 20
-15.7233334668
 10
-32.6736772985
 20
-15.6519095973
 10
-32.6979907247
 20
-15.5777467099
 10
-32.7094691176
 20
-15.499074493
  0
LWPOLYLINE
  5
28A
100
AcDbEntity
  8
PORTELLO
100
AcDbPolyline
 62
250
  6
CONTINUOUS
 90
11
 70
0
 10
-25.5553285426
 20
-14.0182882871
 10
-25.5371346339
 20
-14.1142322085
 10
-25.504617645
 20
-14.2081570344
 10
-25.4580929552
 20
-14.2991517965
 10
-25.3980118032
 20
-14.3863339449
 10
-25.3249569107
 20
-14.4688579078
 10
-25.2396368305
 20
-14.5459232929
 10
-25.1428790743
 20
-14.61678265
 10
-25.0356220869
 20
-14.6807487207
 10
-24.9189061441
 20
-14.7372011039
 10
-24.7938632633
 20
-14.7855922732
  0
LWPOLYLINE
  5
28B
100
AcDbEntity
  8
PORTELLO
100
AcDbPolyline
 62
7
  6
CONTINUOUS
 90
3
 70
0
 10
19.5623496166
 20
-27.5445582886
 10
19.5261671471
 20
-27.5396778897
 10
19.4894081064
 20
-27.5311551675
  0
LWPOLYLINE
  5
28C
100
AcDbEntity
  8
PORTELLO
100
AcDbPolyline
 62
7
  6
CONTINUOUS
 90
10
 70
0
 10
19.475764462
 20
-27.5482525586
 10
19.512625603
 20
-27.5567947555
 10
19.5488689548
 20
-27.5616699998
 10
19.5840120438
 20
-27.5627883719
 10
19.6176322099
 20
-27.5601011029
 10
19.6492184454
 20
-27.5536220736
 10
19.6782089764
 20
-27.5434828916
 10
19.7041395598
 20
-27.5299137295
 10
19.7268106872
 20
-27.5130891798
 10
19.7469655241
 20
-27.4920019592
  0
LWPOLYLINE
  5
28D
100
AcDbEntity
  8
PORTELLO
100
AcDbPolyline
 62
7
  6
CONTINUOUS
 90
17
 70
0
 10
20.3489342458
 20
-30.1016479109
 10
20.3942642397
 20
-30.1139341172
 10
20.5832879498
 20
-30.1572303515
 10
20.7714600832
 20
-30.1876588365
 10
20.9584138738
 20
-30.2052835516
 10
21.1435480233
 20
-30.2101505798
 10
21.3257942056
 20
-30.2022990581
 10
21.5044379799
 20
-30.1818782052
 10
21.6790064547
 20
-30.1490385255
 10
21.848552562
 20
-30.1040056621
 10
22.0122075108
 20
-30.0471286199
 10
22.1693811209
 20
-29.9787699339
 10
22.31933535
 20
-29.8993731981
 10
22.4612934217
 20
-29.8094937742
 10
22.5945475375
 20
-29.70981839
 10
22.7183778766
 20
-29.601176424
 10
22.8164615536
 20
-29.5016845435
  0
LINE
  5
28E
100
AcDbEntity
  8
PORTELLO
100
AcDbLine
 62
7
  6
CONTINUOUS
 10
20.4811210781
 20
-29.0635508507
 11
19.8881196744
 21
-28.8988051378
  0
LWPOLYLINE
  5
28F
100
AcDbEntity
  8
PORTELLO
100
AcDbPolyline
 62
250
  6
CONTINUOUS
 90
7
 70
0
 10
20.123475121
 20
-29.5721366277
 10
19.2133737264
 20
-29.3163863062
 10
18.2894125965
 20
-29.0549288558
 10
17.3515950429
 20
-28.7877803027
 10
16.3999136897
 20
-28.5149565912
 10
15.4343689103
 20
-28.2364902632
 10
14.454967845
 20
-27.9524335709
  0
LINE
  5
290
100
AcDbEntity
  8
PORTELLO
100
AcDbLine
 62
7
  6
CONTINUOUS
 10
19.3209265286
 20
-27.9052953792
 11
18.8622977039
 21
-27.7765321577
  0
LINE
  5
291
100
AcDbEntity
  8
PORTELLO
100
AcDbLine
 62
7
  6
CONTINUOUS
 10
18.8364586937
 20
-27.3687481581
 11
19.4757644536
 21
-27.54825097
  0
LINE
  5
292
100
AcDbEntity
  8
PORTELLO
100
AcDbLine
 62
7
  6
CONTINUOUS
 10
19.489408098
 20
-27.5311535789
 11
18.8501013556
 21
-27.3516519982
  0
LINE
  5
293
100
AcDbEntity
  8
PORTELLO
100
AcDbLine
 62
7
  6
CONTINUOUS
 10
18.9021468974
 20
-28.6230521575
 11
18.3768769805
 21
-28.4752517834
  0
LINE
  5
294
100
AcDbEntity
  8
PORTELLO
100
AcDbLine
 62
7
  6
CONTINUOUS
 10
19.4517834076
 20
-27.0140567082
 11
18.8125917558
 21
-26.8343997857
  0
LINE
  5
295
100
AcDbEntity
  8
PORTELLO
100
AcDbLine
 62
7
  6
CONTINUOUS
 10
19.5205284603
 20
-26.6108249347
 11
18.4281009412
 21
-26.3031637739
  0
LINE
  5
296
100
AcDbEntity
  8
PORTELLO
100
AcDbLine
 62
7
  6
CONTINUOUS
 10
18.2772223698
 20
-26.2814184753
 11
19.5068863127
 21
-26.62792045
  0
LINE
  5
297
100
AcDbEntity
  8
PORTELLO
100
AcDbLine
 62
7
  6
CONTINUOUS
 10
18.4281009412
 20
-26.3031637739
 11
18.2908627467
 21
-26.2643251788
  0
LINE
  5
298
100
AcDbEntity
  8
PORTELLO
100
AcDbLine
 62
7
  6
CONTINUOUS
 10
18.0269216819
 20
-28.3764542012
 11
17.5022932223
 21
-28.2278435954
  0
LINE
  5
299
100
AcDbEntity
  8
PORTELLO
100
AcDbLine
 62
7
  6
CONTINUOUS
 10
17.1283261501
 20
-27.2646065648
 11
16.6433039392
 21
-27.1261594536
  0
LINE
  5
29A
100
AcDbEntity
  8
PORTELLO
100
AcDbLine
 62
7
  6
CONTINUOUS
 10
16.6296635003
 20
-27.1432528277
 11
17.1374429173
 21
-27.2881868441
  0
LINE
  5
29B
100
AcDbEntity
  8
PORTELLO
100
AcDbLine
 62
7
  6
CONTINUOUS
 10
17.3164949497
 20
-27.7502325034
 11
16.4889915225
 21
-27.5142285022
  0
LINE
  5
29C
100
AcDbEntity
  8
PORTELLO
100
AcDbLine
 62
7
  6
CONTINUOUS
 10
16.5625020702
 20
-25.7928314028
 11
17.086164563
 21
-25.9426752863
  0
LINE
  5
29D
100
AcDbEntity
  8
PORTELLO
100
AcDbLine
 62
7
  6
CONTINUOUS
 10
17.0998034527
 20
-25.9255838535
 11
16.5761403672
 21
-25.7757407128
  0
LINE
  5
29E
100
AcDbEntity
  8
PORTELLO
100
AcDbLine
 62
7
  6
CONTINUOUS
 10
16.3437900009
 20
-27.8977125584
 11
15.8203034905
 21
-27.7476934508
  0
LINE
  5
29F
100
AcDbEntity
  8
PORTELLO
100
AcDbLine
 62
7
  6
CONTINUOUS
 10
15.4714965346
 20
-27.647449049
 11
14.9485466461
 21
-27.4967510831
  0
LINE
  5
2A0
100
AcDbEntity
  8
PORTELLO
100
AcDbLine
 62
7
  6
CONTINUOUS
 10
14.5841964651
 20
-25.2221487125
 11
15.3740576309
 21
-25.4508383513
  0
LINE
  5
2A1
100
AcDbEntity
  8
PORTELLO
100
AcDbLine
 62
7
  6
CONTINUOUS
 10
15.3876947047
 20
-25.433749194
 11
14.5978328117
 21
-25.2050604666
  0
LINE
  5
2A2
100
AcDbEntity
  8
PORTELLO
100
AcDbLine
 62
7
  6
CONTINUOUS
 10
14.4544039802
 20
-27.3539157541
 11
13.9320487041
 21
-27.2024985071
  0
LINE
  5
2A3
100
AcDbEntity
  8
PORTELLO
100
AcDbLine
 62
7
  6
CONTINUOUS
 10
13.4384397551
 20
-27.0590104801
 11
12.9166050138
 21
-26.906915079
  0
LINE
  5
2A4
100
AcDbEntity
  8
PORTELLO
100
AcDbLine
 62
7
  6
CONTINUOUS
 10
12.8209833896
 20
-24.7080270763
 11
13.609416843
 21
-24.938505838
  0
LINE
  5
2A5
100
AcDbEntity
  8
PORTELLO
100
AcDbLine
 62
7
  6
CONTINUOUS
 10
13.6230523791
 20
-24.9214186077
 11
12.8346183377
 21
-24.6909405829
  0
LINE
  5
2A6
100
AcDbEntity
  8
PORTELLO
100
AcDbLine
 62
250
  6
CONTINUOUS
 10
14.454967845
 20
-27.9524335709
 11
12.4544995072
 21
-27.3677341699
  0
LINE
  5
2A7
100
AcDbEntity
  8
PORTELLO
100
AcDbLine
 62
7
  6
CONTINUOUS
 10
12.3950392123
 20
-26.7545035036
 11
11.8737029174
 21
-26.6017890761
  0
LINE
  5
2A8
100
AcDbEntity
  8
PORTELLO
100
AcDbLine
 62
7
  6
CONTINUOUS
 10
12.3134068844
 20
-24.5380946872
 11
11.7924091097
 21
-24.3849504501
  0
LINE
  5
2A9
100
AcDbEntity
  8
PORTELLO
100
AcDbLine
 62
7
  6
CONTINUOUS
 10
11.7787748475
 20
-24.402036084
 11
12.2997722924
 21
-24.5551807343
  0
LINE
  5
2AA
100
AcDbEntity
  8
PORTELLO
100
AcDbLine
 62
7
  6
CONTINUOUS
 10
10.6900604005
 20
-26.2537576247
 11
10.169411683
 21
-26.1001523842
  0
LINE
  5
2AB
100
AcDbEntity
  8
PORTELLO
100
AcDbLine
 62
7
  6
CONTINUOUS
 10
10.9109250489
 20
-24.1461893047
 11
11.431569315
 21
-24.2997862649
  0
LINE
  5
2AC
100
AcDbEntity
  8
PORTELLO
100
AcDbLine
 62
7
  6
CONTINUOUS
 10
11.445203372
 20
-24.2827008882
 11
10.9245588206
 21
-24.1291042855
  0
LINE
  5
2AD
100
AcDbEntity
  8
PORTELLO
100
AcDbLine
 62
250
  6
CONTINUOUS
 10
12.4544995072
 20
-27.3677341699
 11
10.3982134022
 21
-26.7613944709
  0
LINE
  5
2AE
100
AcDbEntity
  8
PORTELLO
100
AcDbLine
 62
7
  6
CONTINUOUS
 10
9.7742697112
 20
-23.7886895469
 11
9.2542325111
 21
-23.6343318482
  0
LINE
  5
2AF
100
AcDbEntity
  8
PORTELLO
100
AcDbLine
 62
7
  6
CONTINUOUS
 10
9.2405994914
 20
-23.6514159251
 11
9.7606364793
 21
-23.8057738897
  0
LINE
  5
2B0
100
AcDbEntity
  8
PORTELLO
100
AcDbLine
 62
250
  6
CONTINUOUS
 10
10.3982134022
 20
-26.7613944709
 11
8.2857255963
 21
-26.133691302
  0
LINE
  5
2B1
100
AcDbEntity
  8
PORTELLO
100
AcDbLine
 62
250
  6
CONTINUOUS
 10
8.2857255963
 20
-26.133691302
 11
6.116715098
 21
-25.4845984287
  0
LINE
  5
2B2
100
AcDbEntity
  8
PORTELLO
100
AcDbLine
 62
250
  6
CONTINUOUS
 10
6.116715098
 20
-25.4845984287
 11
3.8912971901
 21
-24.8140346255
  0
LINE
  5
2B3
100
AcDbEntity
  8
PORTELLO
100
AcDbLine
 62
250
  6
CONTINUOUS
 10
3.8912971901
 20
-24.8140346255
 11
1.6096125473
 21
-24.1219340518
  0
LINE
  5
2B4
100
AcDbEntity
  8
PORTELLO
100
AcDbLine
 62
250
  6
CONTINUOUS
 10
1.6096125473
 20
-24.1219340518
 11
-0.7282994825
 21
-23.4082871825
  0
LWPOLYLINE
  5
2B5
100
AcDbEntity
  8
PORTELLO
100
AcDbPolyline
 62
7
  6
CONTINUOUS
 90
10
 70
0
 10
-1.6785890197
 20
-23.5863004695
 10
0.9577305742
 20
-24.3930538387
 10
3.6533110633
 20
-25.2117841511
 10
6.2764181612
 20
-26.0020798795
 10
8.8269354596
 20
-26.7640555335
 10
11.3047071961
 20
-27.4978183919
 10
13.7099270127
 20
-28.2032199865
 10
16.0431522836
 20
-28.8795452269
 10
18.30487068
 20
-29.5261184261
 10
20.348889783
 20
-30.101647016
  0
LINE
  5
2B6
100
AcDbEntity
  8
PORTELLO
100
AcDbLine
 62
250
  6
CONTINUOUS
 10
-0.7282994825
 20
-23.4082871825
 11
-3.1077719397
 21
-22.6775740812
  0
LINE
  5
2B7
100
AcDbEntity
  8
PORTELLO
100
AcDbLine
 62
250
  6
CONTINUOUS
 10
-3.1077719397
 20
-22.6775740812
 11
-5.4398215652
 21
-21.9571195455
  0
LINE
  5
2B8
100
AcDbEntity
  8
PORTELLO
100
AcDbLine
 62
250
  6
CONTINUOUS
 10
-5.4398215652
 20
-21.9571195455
 11
-7.7093954822
 21
-21.2515703164
  0
LINE
  5
2B9
100
AcDbEntity
  8
PORTELLO
100
AcDbLine
 62
250
  6
CONTINUOUS
 10
-7.7093954822
 20
-21.2515703164
 11
-9.9165371444
 21
-20.5609349376
  0
LINE
  5
2BA
100
AcDbEntity
  8
PORTELLO
100
AcDbLine
 62
250
  6
CONTINUOUS
 10
-9.9165371444
 20
-20.5609349376
 11
-12.0612823713
 21
-19.8853120444
  0
LINE
  5
2BB
100
AcDbEntity
  8
PORTELLO
100
AcDbLine
 62
250
  6
CONTINUOUS
 10
-12.0612823713
 20
-19.8853120444
 11
-14.1437110334
 21
-19.2247946931
  0
LINE
  5
2BC
100
AcDbEntity
  8
PORTELLO
100
AcDbLine
 62
250
  6
CONTINUOUS
 10
-14.1437110334
 20
-19.2247946931
 11
-16.1640934699
 21
-18.579226697
  0
LWPOLYLINE
  5
2BD
100
AcDbEntity
  8
PORTELLO
100
AcDbPolyline
 62
250
  6
CONTINUOUS
 90
8
 70
0
 10
-16.1640934699
 20
-18.579226697
 10
-18.1223168869
 20
-17.9482494244
 10
-19.0779618632
 20
-17.638072657
 10
-20.0178965402
 20
-17.3313857732
 10
-20.9420657146
 20
-17.0281558334
 10
-21.8504316643
 20
-16.7283621869
 10
-22.7429704358
 20
-16.431994158
 10
-23.6196583583
 20
-16.1390441425
  0
LWPOLYLINE
  5
2BE
100
AcDbEntity
  8
PORTELLO
100
AcDbPolyline
 62
7
  6
CONTINUOUS
 90
10
 70
0
 10
-23.368010532
 20
-16.6765867181
 10
-21.3830870556
 20
-17.3385972251
 10
-19.1864469185
 20
-18.0610967395
 10
-16.9077454017
 20
-18.8010079651
 10
-14.5476123557
 20
-19.5589655901
 10
-12.1066786912
 20
-20.3356580616
 10
-9.5850162758
 20
-21.1312701233
 10
-6.9825660433
 20
-21.9456632694
 10
-4.2992405297
 20
-22.7787146775
 10
-1.6785882357
 20
-23.5863007141
  0
LWPOLYLINE
  5
2BF
100
AcDbEntity
  8
PORTELLO
100
AcDbPolyline
 62
250
  6
CONTINUOUS
 90
25
 70
0
 10
-23.6196582043
 20
-16.1390439558
 10
-23.6935787191
 20
-16.1121953735
 10
-23.7674115922
 20
-16.0812774137
 10
-23.8407982525
 20
-16.0464250032
 10
-23.9134038738
 20
-16.0077994794
 10
-23.9849370968
 20
-15.9655699324
 10
-24.0551235533
 20
-15.9198927392
 10
-24.1236814896
 20
-15.8709458538
 10
-24.1902984885
 20
-15.8189587427
 10
-24.2546557484
 20
-15.7641731995
 10
-24.3164590871
 20
-15.706833931
 10
-24.3754639804
 20
-15.6471860955
 10
-24.4314286333
 20
-15.5854749811
 10
-24.4841043575
 20
-15.5219615812
 10
-24.5332723253
 20
-15.4569228727
 10
-24.5787313891
 20
-15.3906258466
 10
-24.620280087
 20
-15.3233393605
 10
-24.6577340158
 20
-15.2553682432
 10
-24.6909237265
 20
-15.1870348189
 10
-24.7196912275
 20
-15.1186523835
 10
-24.7439253759
 20
-15.0504944931
 10
-24.7635407413
 20
-14.9828213323
 10
-24.7784433758
 20
-14.9159092386
 10
-24.7885608785
 20
-14.8500617931
 10
-24.7938631231
 20
-14.7855921052
  0
LWPOLYLINE
  5
2C0
100
AcDbEntity
  8
PORTELLO
100
AcDbPolyline
 62
250
  6
CONTINUOUS
 90
9
 70
0
 10
-1.6785890207
 20
-23.5863004731
 10
-1.728662804
 20
-23.5629898618
 10
-1.7731328805
 20
-23.5260901878
 10
-1.8123569953
 20
-23.4757177268
 10
-1.8459504517
 20
-23.4123665147
 10
-1.8735837767
 20
-23.3366578784
 10
-1.8949859521
 20
-23.2493343426
 10
-1.9099470727
 20
-23.1512523467
 10
-1.9183204052
 20
-23.0433738452
  0
LWPOLYLINE
  5
2C1
100
AcDbEntity
  8
PLACCA_PRT
100
AcDbPolyline
 62
250
  6
CONTINUOUS
 90
3
 70
0
 10
-19.00855685
 20
29.0977410505
 10
-19.0084976528
 20
29.2205347916
 10
-19.0035339921
 20
29.5196089164
  0
LWPOLYLINE
  5
2C2
100
AcDbEntity
  8
PLACCA_PRT
100
AcDbPolyline
 62
7
  6
CONTINUOUS
 90
3
 70
0
 10
-18.978473569
 20
29.5119131033
 10
-18.9822653797
 20
29.283189972
 10
-18.9823580539
 20
29.089695654
  0
LWPOLYLINE
  5
2C3
100
AcDbEntity
  8
PLACCA_PRT
100
AcDbPolyline
 62
250
  6
CONTINUOUS
 90
13
 70
0
 10
-9.6035170376
 20
35.5526424178
 10
-9.588336702
 20
35.6442240372
 10
-9.5691201154
 20
35.7375946306
 10
-9.5460522588
 20
35.8318555284
 10
-9.5193552198
 20
35.9260995038
 10
-9.4892859504
 20
36.0194194725
 10
-9.4561337927
 20
36.1109172232
 10
-9.4202178771
 20
36.1997121185
 10
-9.3818839217
 20
36.2849495319
 10
-9.3415007999
 20
36.3658090407
 10
-9.2994571947
 20
36.4415123855
 10
-9.256157858
 20
36.5113309609
 10
-9.2120195861
 20
36.5745927885
  0
LWPOLYLINE
  5
2C4
100
AcDbEntity
  8
PORTELLO
100
AcDbPolyline
 62
7
  6
CONTINUOUS
 90
27
 70
0
 10
19.5068863022
 20
-26.6279189544
 10
19.5740399149
 20
-26.6490275614
 10
19.640916706
 20
-26.6746745409
 10
19.7070622114
 20
-26.7046703003
 10
19.7720387541
 20
-26.7387828073
 10
19.8353950907
 20
-26.7767746823
 10
19.8966698042
 20
-26.8184042343
 10
19.9554484202
 20
-26.863365809
 10
20.0113373384
 20
-26.9113362824
 10
20.0639326534
 20
-26.9620130327
 10
20.112881963
 20
-27.0150307496
 10
20.157858081
 20
-27.0700088449
 10
20.1985312103
 20
-27.1265986585
 10
20.2346288767
 20
-27.1843939251
 10
20.2659133857
 20
-27.2429826472
 10
20.2921506027
 20
-27.3019960873
 10
20.3131671874
 20
-27.3610227097
 10
20.3288214385
 20
-27.4196320295
 10
20.3389811002
 20
-27.4774278188
 10
20.3435831341
 20
-27.5340087714
 10
20.342604594
 20
-27.5889630202
 10
20.3360438461
 20
-27.6418965349
 10
20.3239634703
 20
-27.6924341242
 10
20.3064651128
 20
-27.7402309753
 10
20.2836728595
 20
-27.7849709734
 10
20.2557608719
 20
-27.8263462134
 10
20.2510642594
 20
-27.8323458537
  0
LWPOLYLINE
  5
2C5
100
AcDbEntity
  8
PORTELLO
100
AcDbPolyline
 62
250
  6
CONTINUOUS
 90
9
 70
0
 10
20.348889783
 20
-30.101647016
 10
20.3002047157
 20
-30.079449769
 10
20.2590985335
 20
-30.0443816057
 10
20.222777397
 20
-29.995856924
 10
20.1915935817
 20
-29.9343463605
 10
20.1658495366
 20
-29.8604465004
 10
20.145794951
 20
-29.774874092
 10
20.1316243326
 20
-29.6784590943
 10
20.123475121
 20
-29.5721366277
  0
LWPOLYLINE
  5
2C6
100
AcDbEntity
  8
PLACCA_PRT
100
AcDbPolyline
 62
250
  6
CONTINUOUS
 90
6
 70
0
 10
-8.0953081391
 20
-25.0749820124
 10
-8.0766249102
 20
-25.1241244663
 10
-8.0540628107
 20
-25.1651365575
 10
-8.0278389973
 20
-25.1976235511
 10
-7.99820587
 20
-25.2212727649
 10
-7.9671788462
 20
-25.2353381867
  0
LWPOLYLINE
  5
2C7
100
AcDbEntity
  8
PLACCA_PRT
100
AcDbPolyline
 62
250
  6
CONTINUOUS
 90
5
 70
0
 10
-10.1730781854
 20
30.9126497756
 10
-10.2524426844
 20
30.0793719333
 10
-10.3221128549
 20
29.274238236
 10
-10.3825982325
 20
28.4979060582
 10
-10.434487491
 20
27.7500719306
  0
LWPOLYLINE
  5
2C8
100
AcDbEntity
  8
PLACCA_PRT
100
AcDbPolyline
 62
250
  6
CONTINUOUS
 90
5
 70
0
 10
-9.7430335053
 20
34.5590058421
 10
-9.8690362681
 20
33.598161356
 10
-9.9822616116
 20
32.6699757987
 10
-10.0833331072
 20
31.7751918358
 10
-10.1730781854
 20
30.9126497756
  0
LINE
  5
2C9
100
AcDbEntity
  8
PLACCA_PRT
100
AcDbLine
 62
250
  6
CONTINUOUS
 10
-9.6035170377
 20
35.5526424173
 11
-9.7430335053
 21
34.5590058421
  0
LWPOLYLINE
  5
2CA
100
AcDbEntity
  8
PORTELLO
100
AcDbPolyline
 62
250
  6
CONTINUOUS
 90
16
 70
0
 10
-2.3040053614
 20
21.3944618245
 10
-2.3703774913
 20
21.2993322249
 10
-2.4354834635
 20
21.1943226743
 10
-2.4986936439
 20
21.0804487107
 10
-2.5593967323
 20
20.9588115991
 10
-2.6170056744
 20
20.8305876815
 10
-2.670963339
 20
20.6970169999
 10
-2.7207479063
 20
20.5593913047
 10
-2.7658779139
 20
20.4190415618
 10
-2.8059169136
 20
20.2773250812
 10
-2.8404776914
 20
20.1356123904
 10
-2.8692260132
 20
19.9952739806
 10
-2.8918838562
 20
19.8576670519
 10
-2.9082320985
 20
19.7241223889
 10
-2.9181126375
 20
19.5959314903
 10
-2.9214299193
 20
19.474334079
  0
LWPOLYLINE
  5
2CB
100
AcDbEntity
  8
PLACCA_PRT
100
AcDbPolyline
 62
7
  6
CONTINUOUS
 90
6
 70
0
 10
-19.8749365496
 20
29.3637978628
 10
-19.9067756493
 20
29.4629191371
 10
-19.9584253817
 20
29.5877098491
 10
-20.0167704173
 20
29.6973400906
 10
-20.0820066827
 20
29.7924191697
 10
-20.154134178
 20
29.8729470865
  0
LWPOLYLINE
  5
2CC
100
AcDbEntity
  8
PLACCA_PRT
100
AcDbPolyline
 62
250
  6
CONTINUOUS
 90
8
 70
0
 10
-9.0042516625
 20
-21.3130106672
 10
-8.9803438545
 20
-21.4489729571
 10
-8.8646000658
 20
-22.0490531717
 10
-8.7373787855
 20
-22.6514545216
 10
-8.5976060327
 20
-23.2566932696
 10
-8.4444126388
 20
-23.8638057336
 10
-8.2772230485
 20
-24.4704819224
 10
-8.0953081392
 20
-25.0749820121
  0
LWPOLYLINE
  5
2CD
100
AcDbEntity
  8
PLACCA_PRT
100
AcDbPolyline
 62
250
  6
CONTINUOUS
 90
13
 70
0
 10
36.4384360869
 20
-8.6686444559
 10
36.5361914429
 20
-8.6722426065
 10
36.6342616744
 20
-8.6697631581
 10
36.7317029614
 20
-8.6612299725
 10
36.8275775366
 20
-8.6467251725
 10
36.9209627107
 20
-8.6263883511
 10
37.0109597523
 20
-8.6004152282
 10
37.0967025371
 20
-8.5690557672
 10
37.1773658832
 20
-8.532611769
 10
37.2521734932
 20
-8.4914339677
 10
37.3204054244
 20
-8.4459186551
 10
37.3814050183
 20
-8.3965038671
 10
37.4345852196
 20
-8.3436651677
  0
LWPOLYLINE
  5
2CE
100
AcDbEntity
  8
PLACCA_PRT
100
AcDbPolyline
 62
250
  6
CONTINUOUS
 90
14
 70
0
 10
36.4384360868
 20
-8.6686444563
 10
35.3478376089
 20
-8.5865809241
 10
34.2898869175
 20
-8.4921009679
 10
33.264766978
 20
-8.3864380457
 10
32.2737059621
 20
-8.2709260041
 10
31.3156120842
 20
-8.146609415
 10
30.3871166363
 20
-8.0141036225
 10
29.4880053147
 20
-7.8743365526
 10
28.6183655476
 20
-7.7282565368
 10
27.7753217794
 20
-7.5762504084
 10
26.9588030194
 20
-7.4191367849
 10
26.1690425408
 20
-7.2577793256
 10
25.4037735537
 20
-7.0924697713
 10
24.7601334893
 20
-6.9459917065
  0
LWPOLYLINE
  5
2CF
100
AcDbEntity
  8
PLACCA_PRT
100
AcDbPolyline
 62
250
  6
CONTINUOUS
 90
9
 70
0
 10
-33.2065454107
 20
12.7186546444
 10
-33.2704321917
 20
12.7646948476
 10
-33.326719302
 20
12.814575483
 10
-33.3748650389
 20
12.8678165032
 10
-33.4144060517
 20
12.9239055211
 10
-33.4449618007
 20
12.9823027403
 10
-33.46623822
 20
13.0424461507
 10
-33.4780305469
 20
13.1037569369
 10
-33.4804581698
 20
13.1388773971
  0
LWPOLYLINE
  5
2D0
100
AcDbEntity
  8
PORTELLO
100
AcDbPolyline
 62
250
  6
CONTINUOUS
 90
10
 70
0
 10
-1.9183203511
 20
-23.0433737744
 10
-2.0011600503
 20
-21.0979890982
 10
-2.0785812923
 20
-19.0847152788
 10
-2.1514410306
 20
-17.0049637671
 10
-2.2207980615
 20
-14.8614657072
 10
-2.2879586231
 20
-12.6553853025
 10
-2.3536618771
 20
-10.3849782581
 10
-2.418076635
 20
-8.0495353705
 10
-2.4813599184
 20
-5.6503025085
 10
-2.5437544057
 20
-3.1876793779
  0
LWPOLYLINE
  5
2D1
100
AcDbEntity
  8
PORTELLO
100
AcDbPolyline
 62
250
  6
CONTINUOUS
 90
10
 70
0
 10
-2.5437544057
 20
-3.1876793779
 10
-2.6119790161
 20
-0.3857725314
 10
-2.6751270176
 20
2.3425028448
 10
-2.7328488047
 20
4.9974497079
 10
-2.7848564196
 20
7.5774973326
 10
-2.8307343416
 20
10.0848260571
 10
-2.8688896879
 20
12.5262770055
 10
-2.89759207
 20
14.9051699396
 10
-2.9154472011
 20
17.2208928448
 10
-2.9214298689
 20
19.4743341383
  0
LWPOLYLINE
  5
2D2
100
AcDbEntity
  8
PORTELLO
100
AcDbPolyline
 62
250
  6
CONTINUOUS
 90
10
 70
0
 10
-2.5437544057
 20
-3.1876793779
 10
0.2865583882
 20
-4.0551285897
 10
3.0502284251
 20
-4.8983844341
 10
5.7473945451
 20
-5.7171063523
 10
8.3771085764
 20
-6.5107170225
 10
10.940505813
 20
-7.2793347762
 10
13.4411230661
 20
-8.0229934534
 10
15.8807449811
 20
-8.7402185987
 10
18.2589391231
 20
-9.4291678452
 10
20.5761964968
 20
-10.088636813
  0
LWPOLYLINE
  5
2D3
100
AcDbEntity
  8
PORTELLO
100
AcDbPolyline
 62
250
  6
CONTINUOUS
 90
10
 70
0
 10
-25.4086717384
 20
4.0328707226
 10
-23.1593611725
 20
3.2900135596
 10
-20.8350626351
 20
2.5348806831
 10
-18.4370166919
 20
1.7665039441
 10
-15.9678699334
 20
0.9839916592
 10
-13.4284003832
 20
0.1855629123
 10
-10.8163380084
 20
-0.6305319608
 10
-8.130813827
 20
-1.4647885381
 10
-5.3731687958
 20
-2.3170795749
 10
-2.5437544057
 20
-3.1876793779
  0
LWPOLYLINE
  5
2D4
100
AcDbEntity
  8
PLACCA_PRT
100
AcDbPolyline
 62
250
  6
CONTINUOUS
 90
11
 70
0
 10
-26.280647502
 20
8.9871547045
 10
-26.5533456884
 20
9.1075570372
 10
-27.2593783087
 20
9.4312572602
 10
-27.973941019
 20
9.7716704776
 10
-28.6982815519
 20
10.1304497443
 10
-29.4311312644
 20
10.5081269555
 10
-30.1714306269
 20
10.9053704765
 10
-30.9204334773
 20
11.3242151906
 10
-31.6774628253
 20
11.7658330493
 10
-32.4400641584
 20
12.2304269823
 10
-33.2065454112
 20
12.7186546441
  0
LINE
  5
2D5
100
AcDbEntity
  8
PORTELLO
100
AcDbLine
 62
7
  6
CONTINUOUS
 10
10.169411683
 20
-26.1001523842
 11
9.758272178
 21
-25.0217249991
  0
LINE
  5
2D6
100
AcDbEntity
  8
PORTELLO
100
AcDbLine
 62
7
  6
CONTINUOUS
 10
10.4093865019
 20
-25.4663935463
 11
10.2715876906
 21
-25.1041412503
  0
LINE
  5
2D7
100
AcDbEntity
  8
PORTELLO
100
AcDbLine
 62
7
  6
CONTINUOUS
 10
10.1871441186
 20
-24.934696389
 11
10.3993372043
 21
-25.4929013868
  0
LWPOLYLINE
  5
2D8
100
AcDbEntity
  8
PORTELLO
100
AcDbPolyline
 62
7
  6
CONTINUOUS
 90
3
 70
0
 10
9.758272178
 20
-25.0217249991
 10
9.3444726419
 20
-23.9274490446
 10
9.2405994914
 20
-23.6514159251
  0
LINE
  5
2D9
100
AcDbEntity
  8
PLACCA_PRT
100
AcDbLine
 62
7
  6
CONTINUOUS
 10
39.7858432421
 20
-8.6669783179
 11
38.7484708815
 21
-8.348411316
  0
LWPOLYLINE
  5
2DA
100
AcDbEntity
  8
PORTELLO
100
AcDbPolyline
 62
7
  6
CONTINUOUS
 90
3
 70
0
 10
20.494768902
 20
-29.0464482221
 10
19.9589380054
 20
-28.109941382
 10
19.8999719589
 20
-28.0064940866
  0
LINE
  5
2DB
100
AcDbEntity
  8
PORTELLO
100
AcDbLine
 62
7
  6
CONTINUOUS
 10
19.878026157
 20
-28.0090304665
 11
20.4811210781
 21
-29.0635508507
  0
LWPOLYLINE
  5
2DC
100
AcDbEntity
  8
PORTELLO
100
AcDbPolyline
 62
7
  6
CONTINUOUS
 90
3
 70
0
 10
19.8881196744
 20
-28.8988051378
 10
19.3841742962
 20
-28.0164294223
 10
19.3209265286
 20
-27.9052953792
  0
LWPOLYLINE
  5
2DD
100
AcDbEntity
  8
PLACCA_PRT
100
AcDbPolyline
 62
250
  6
CONTINUOUS
 90
6
 70
0
 10
12.8354270406
 20
-31.50260801
 10
12.8541124435
 20
-31.5517511315
 10
12.8766770915
 20
-31.5927640052
 10
12.9029038279
 20
-31.6252518964
 10
12.9325402878
 20
-31.6489021337
 10
12.9635673155
 20
-31.6629675567
  0
LWPOLYLINE
  5
2DE
100
AcDbEntity
  8
PORTELLO
100
AcDbPolyline
 62
7
  6
CONTINUOUS
 90
3
 70
0
 10
10.2715876906
 20
-25.1041412503
 10
9.8455530971
 20
-23.9779970704
 10
9.7742697112
 20
-23.7886895469
  0
LINE
  5
2DF
100
AcDbEntity
  8
PORTELLO
100
AcDbLine
 62
7
  6
CONTINUOUS
 10
9.7606364793
 20
-23.8057738897
 11
10.1871441186
 21
-24.934696389
  0
LINE
  5
2E0
100
AcDbEntity
  8
PORTELLO
100
AcDbLine
 62
7
  6
CONTINUOUS
 10
13.9320487041
 20
-27.2024985071
 11
13.5605797218
 21
-26.1452420526
  0
LINE
  5
2E1
100
AcDbEntity
  8
PORTELLO
100
AcDbLine
 62
7
  6
CONTINUOUS
 10
13.5605797218
 20
-26.1452420526
 11
13.3740232682
 21
-25.610696048
  0
LINE
  5
2E2
100
AcDbEntity
  8
PORTELLO
100
AcDbLine
 62
7
  6
CONTINUOUS
 10
14.1678774104
 20
-26.4843208006
 11
13.8065691545
 21
-25.45005064
  0
LINE
  5
2E3
100
AcDbEntity
  8
PORTELLO
100
AcDbLine
 62
7
  6
CONTINUOUS
 10
13.609416843
 20
-24.938505838
 11
14.1583742817
 21
-26.5132046115
  0
LINE
  5
2E4
100
AcDbEntity
  8
PORTELLO
100
AcDbLine
 62
7
  6
CONTINUOUS
 10
13.8065691545
 20
-25.45005064
 11
13.6230523791
 21
-24.9214186077
  0
LWPOLYLINE
  5
2E5
100
AcDbEntity
  8
PLACCA_PRT
100
AcDbPolyline
 62
250
  6
CONTINUOUS
 90
6
 70
0
 10
12.8354270405
 20
-31.5026080097
 10
12.6535121179
 20
-30.8981078736
 10
12.4863225164
 20
-30.2914316382
 10
12.3331291134
 20
-29.6843191277
 10
12.1933563534
 20
-29.0790803339
 10
12.0661350675
 20
-28.4766789392
  0
LINE
  5
2E6
100
AcDbEntity
  8
PORTELLO
100
AcDbLine
 62
7
  6
CONTINUOUS
 10
11.8737029174
 20
-26.6017890761
 11
11.8200194331
 21
-25.3881118921
  0
LINE
  5
2E7
100
AcDbEntity
  8
PORTELLO
100
AcDbLine
 62
7
  6
CONTINUOUS
 10
11.8200194331
 20
-25.3881118921
 11
11.7787748475
 21
-24.402036084
  0
LWPOLYLINE
  5
2E8
100
AcDbEntity
  8
PLACCA_PRT
100
AcDbPolyline
 62
250
  6
CONTINUOUS
 90
10
 70
0
 10
10.4962476888
 20
21.322445933
 10
10.5481368587
 20
22.0702788575
 10
10.6086221203
 20
22.8466097487
 10
10.6782921446
 20
23.6517420748
 10
10.7576564153
 20
24.4850179638
 10
10.84740122
 20
25.3475579767
 10
10.9484725711
 20
26.2423413103
 10
11.0616980058
 20
27.1705281977
 10
11.1877010854
 20
28.1313755043
 10
11.3272181421
 20
29.1250164197
  0
LWPOLYLINE
  5
2E9
100
AcDbEntity
  8
PLACCA_PRT
100
AcDbPolyline
 62
250
  6
CONTINUOUS
 90
13
 70
0
 10
11.3272181422
 20
29.1250164202
 10
11.3424006518
 20
29.2165973722
 10
11.3616197871
 20
29.3099671831
 10
11.3846905668
 20
29.4042271835
 10
11.4113909384
 20
29.4984701356
 10
11.441463915
 20
29.5917889659
 10
11.474620049
 20
29.6832854955
 10
11.5105402178
 20
29.7720790848
 10
11.5488786955
 20
29.8573151096
 10
11.5892664804
 20
29.9381731864
 10
11.6313148463
 20
30.0138750693
 10
11.6746190844
 20
30.0836921395
 10
11.7187623982
 20
30.1469524187
  0
LWPOLYLINE
  5
2EA
100
AcDbEntity
  8
PORTELLO
100
AcDbPolyline
 62
250
  6
CONTINUOUS
 90
16
 70
0
 10
19.6976993896
 20
14.9359171068
 10
19.636880153
 20
14.8398336471
 10
19.5772599974
 20
14.7339883332
 10
19.5194091467
 20
14.6193934999
 10
19.4638809031
 20
14.4971451648
 10
19.4112063544
 20
14.3684125461
 10
19.3618892948
 20
14.2344268793
 10
19.3164014066
 20
14.0964696415
 10
19.2751777489
 20
13.9558602951
 10
19.2386125966
 20
13.8139436681
 10
19.2070556691
 20
13.6720770916
 10
19.1808087859
 20
13.531617418
 10
19.1601229797
 20
13.3939080438
 10
19.1451960955
 20
13.2602660606
 10
19.1361708982
 20
13.1319696585
 10
19.1331337075
 20
13.010245901
  0
LINE
  5
2EB
100
AcDbEntity
  8
PORTELLO
100
AcDbLine
 62
250
  6
CONTINUOUS
 10
19.6976987225
 20
14.9359286821
 11
20.9721369517
 21
16.6507992442
  0
LINE
  5
2EC
100
AcDbEntity
  8
PLACCA_PRT
100
AcDbLine
 62
250
  6
CONTINUOUS
 10
21.5928017761
 20
17.3387600939
 11
22.0147365252
 21
17.9065110164
  0
LINE
  5
2ED
100
AcDbEntity
  8
PORTELLO
100
AcDbLine
 62
250
  6
CONTINUOUS
 10
22.2322003618
 20
12.0024535529
 11
24.4817298791
 21
14.4943703465
  0
LWPOLYLINE
  5
2EE
100
AcDbEntity
  8
PORTELLO
100
AcDbPolyline
 62
250
  6
CONTINUOUS
 90
16
 70
0
 10
22.2322003618
 20
12.0024535529
 10
22.1521387677
 20
11.9284682993
 10
22.0602852054
 20
11.8595965917
 10
21.9575286149
 20
11.796504956
 10
21.8448634532
 20
11.7398039803
 10
21.7233800704
 20
11.6900424048
 10
21.5942541576
 20
11.6477018115
 10
21.4587353688
 20
11.613191964
 10
21.3181352268
 20
11.5868468414
 10
21.1738144306
 20
11.5689214063
 10
21.0271696872
 20
11.5595891375
 10
20.8796201942
 20
11.5589403505
 10
20.7325939049
 20
11.5669813243
 10
20.5875137095
 20
11.5836342399
 10
20.4457836642
 20
11.6087379338
 10
20.3087754029
 20
11.6420494576
  0
LINE
  5
2EF
100
AcDbEntity
  8
PORTELLO
100
AcDbLine
 62
7
  6
CONTINUOUS
 10
17.5022932223
 20
-28.2278435954
 11
17.3164949497
 21
-27.7502325034
  0
LINE
  5
2F0
100
AcDbEntity
  8
PORTELLO
100
AcDbLine
 62
7
  6
CONTINUOUS
 10
18.0405655039
 20
-28.3593565876
 11
17.6241665022
 21
-27.2880336927
  0
LINE
  5
2F1
100
AcDbEntity
  8
PORTELLO
100
AcDbLine
 62
7
  6
CONTINUOUS
 10
17.4013027035
 20
-26.763244077
 11
18.0269216819
 21
-28.3764542012
  0
LINE
  5
2F2
100
AcDbEntity
  8
PORTELLO
100
AcDbLine
 62
7
  6
CONTINUOUS
 10
17.1374429173
 20
-27.2881868441
 11
16.8538931915
 21
-26.5528651621
  0
LWPOLYLINE
  5
2F3
100
AcDbEntity
  8
PORTELLO
100
AcDbPolyline
 62
7
  6
CONTINUOUS
 90
3
 70
0
 10
17.6241665022
 20
-27.2880336927
 10
17.2050231095
 20
-26.2001380408
 10
17.0998034527
 20
-25.9255838535
  0
LINE
  5
2F4
100
AcDbEntity
  8
PORTELLO
100
AcDbLine
 62
7
  6
CONTINUOUS
 10
17.086164563
 20
-25.9426752863
 11
17.4013027035
 21
-26.763244077
  0
LINE
  5
2F5
100
AcDbEntity
  8
PLACCA_PRT
100
AcDbLine
 62
250
  6
CONTINUOUS
 10
12.0661350675
 20
-28.4766789392
 11
11.9503912747
 21
-27.8765986802
  0
LINE
  5
2F6
100
AcDbEntity
  8
PLACCA_PRT
100
AcDbLine
 62
250
  6
CONTINUOUS
 10
11.9503912747
 20
-27.8765986802
 11
11.9152733129
 21
-27.6768848995
  0
LINE
  5
2F7
100
AcDbEntity
  8
PORTELLO
100
AcDbLine
 62
7
  6
CONTINUOUS
 10
15.4851371771
 20
-27.6303554198
 11
15.4300553185
 21
-26.4184552303
  0
LINE
  5
2F8
100
AcDbEntity
  8
PORTELLO
100
AcDbLine
 62
7
  6
CONTINUOUS
 10
14.9485466461
 20
-27.4967510831
 11
14.8975896248
 21
-26.3735878547
  0
LINE
  5
2F9
100
AcDbEntity
  8
PORTELLO
100
AcDbLine
 62
7
  6
CONTINUOUS
 10
13.4520784179
 20
-27.0419193316
 11
13.4016790003
 21
-25.9180611271
  0
LINE
  5
2FA
100
AcDbEntity
  8
PORTELLO
100
AcDbLine
 62
7
  6
CONTINUOUS
 10
12.9166050138
 20
-26.906915079
 11
12.8625356426
 21
-25.6937279761
  0
LINE
  5
2FB
100
AcDbEntity
  8
PORTELLO
100
AcDbLine
 62
7
  6
CONTINUOUS
 10
14.8975896248
 20
-26.3735878547
 11
14.8834107197
 21
-26.0493284817
  0
LINE
  5
2FC
100
AcDbEntity
  8
PORTELLO
100
AcDbLine
 62
7
  6
CONTINUOUS
 10
12.408677027
 20
-26.7374134179
 11
12.3548029596
 21
-25.5239801902
  0
LINE
  5
2FD
100
AcDbEntity
  8
PORTELLO
100
AcDbLine
 62
7
  6
CONTINUOUS
 10
13.3740232682
 20
-25.610696048
 11
13.4384397551
 21
-27.0590104801
  0
LINE
  5
2FE
100
AcDbEntity
  8
PORTELLO
100
AcDbLine
 62
7
  6
CONTINUOUS
 10
13.4016790003
 20
-25.9180611271
 11
13.3904195092
 21
-25.6577458096
  0
LINE
  5
2FF
100
AcDbEntity
  8
PORTELLO
100
AcDbLine
 62
7
  6
CONTINUOUS
 10
15.3740576309
 20
-25.4508383513
 11
15.4714965346
 21
-27.647449049
  0
LINE
  5
300
100
AcDbEntity
  8
PORTELLO
100
AcDbLine
 62
7
  6
CONTINUOUS
 10
15.4300553185
 20
-26.4184552303
 11
15.3876947047
 21
-25.433749194
  0
LINE
  5
301
100
AcDbEntity
  8
PORTELLO
100
AcDbLine
 62
7
  6
CONTINUOUS
 10
12.8625356426
 20
-25.6937279761
 11
12.8209833896
 21
-24.7080270763
  0
LINE
  5
302
100
AcDbEntity
  8
PORTELLO
100
AcDbLine
 62
7
  6
CONTINUOUS
 10
12.2997722924
 20
-24.5551807343
 11
12.3950392123
 21
-26.7545035036
  0
LINE
  5
303
100
AcDbEntity
  8
PORTELLO
100
AcDbLine
 62
7
  6
CONTINUOUS
 10
12.3548029596
 20
-25.5239801902
 11
12.3134068844
 21
-24.5380946872
  0
LINE
  5
304
100
AcDbEntity
  8
PLACCA_PRT
100
AcDbLine
 62
7
  6
CONTINUOUS
 10
16.7214565759
 20
18.5488104151
 11
16.7034633394
 21
18.1328446254
  0
LINE
  5
305
100
AcDbEntity
  8
PLACCA_PRT
100
AcDbLine
 62
250
  6
CONTINUOUS
 10
34.2774051576
 20
23.3338363939
 11
36.271428309
 21
26.0169727941
  0
LINE
  5
306
100
AcDbEntity
  8
PLACCA_PRT
100
AcDbLine
 62
250
  6
CONTINUOUS
 10
39.0013012768
 20
22.8703741459
 11
36.7898579527
 21
20.4206473408
  0
LWPOLYLINE
  5
307
100
AcDbEntity
  8
PLACCA_PRT
100
AcDbPolyline
 62
7
  6
CONTINUOUS
 90
4
 70
0
 10
24.6233820574
 20
12.6823652578
 10
24.5360568742
 20
12.6848778526
 10
24.4484501658
 20
12.6879362571
 10
24.385265684
 20
12.6905281625
  0
LINE
  5
308
100
AcDbEntity
  8
PORTELLO
100
AcDbLine
 62
250
  6
CONTINUOUS
 10
21.2095958016
 20
-28.1670632063
 11
21.2479015554
 21
-28.924572223
  0
LINE
  5
309
100
AcDbEntity
  8
PORTELLO
100
AcDbLine
 62
250
  6
CONTINUOUS
 10
21.1352414787
 20
-26.6096032932
 11
21.2095958016
 21
-28.1670632063
  0
LINE
  5
30A
100
AcDbEntity
  8
PORTELLO
100
AcDbLine
 62
7
  6
CONTINUOUS
 10
18.9157920227
 20
-28.6059529105
 11
18.8769207951
 21
-27.7806440128
  0
LINE
  5
30B
100
AcDbEntity
  8
PORTELLO
100
AcDbLine
 62
7
  6
CONTINUOUS
 10
18.8622977039
 20
-27.7765321577
 11
18.9021468974
 21
-28.6230521575
  0
LINE
  5
30C
100
AcDbEntity
  8
PORTELLO
100
AcDbLine
 62
7
  6
CONTINUOUS
 10
18.3768769805
 20
-28.4752517834
 11
18.3205679083
 21
-27.2649088011
  0
LINE
  5
30D
100
AcDbEntity
  8
PORTELLO
100
AcDbLine
 62
7
  6
CONTINUOUS
 10
18.8125917558
 20
-26.8343997857
 11
18.8364586937
 21
-27.3687481581
  0
LINE
  5
30E
100
AcDbEntity
  8
PORTELLO
100
AcDbLine
 62
7
  6
CONTINUOUS
 10
18.8501013556
 20
-27.3516519982
 11
18.8271703437
 21
-26.8385067637
  0
LINE
  5
30F
100
AcDbEntity
  8
PORTELLO
100
AcDbLine
 62
250
  6
CONTINUOUS
 10
21.0637866499
 20
-24.9957324663
 11
21.1352414787
 21
-26.6096032932
  0
LINE
  5
310
100
AcDbEntity
  8
PORTELLO
100
AcDbLine
 62
7
  6
CONTINUOUS
 10
18.3205679083
 20
-27.2649088011
 11
18.2772223698
 21
-26.2814184753
  0
LINE
  5
311
100
AcDbEntity
  8
PORTELLO
100
AcDbLine
 62
250
  6
CONTINUOUS
 10
20.9950988159
 20
-23.3258367702
 11
21.0637866499
 21
-24.9957324663
  0
LINE
  5
312
100
AcDbEntity
  8
PORTELLO
100
AcDbLine
 62
250
  6
CONTINUOUS
 10
20.9288637096
 20
-21.6004154979
 11
20.9950988159
 21
-23.3258367702
  0
LINE
  5
313
100
AcDbEntity
  8
PORTELLO
100
AcDbLine
 62
250
  6
CONTINUOUS
 10
20.8647296226
 20
-19.8199801539
 11
20.9288637096
 21
-21.6004154979
  0
LINE
  5
314
100
AcDbEntity
  8
PORTELLO
100
AcDbLine
 62
250
  6
CONTINUOUS
 10
20.8026097678
 20
-17.9844095396
 11
20.8647296226
 21
-19.8199801539
  0
LINE
  5
315
100
AcDbEntity
  8
PORTELLO
100
AcDbLine
 62
250
  6
CONTINUOUS
 10
20.742567278
 20
-16.0935447537
 11
20.8026097678
 21
-17.9844095396
  0
LINE
  5
316
100
AcDbEntity
  8
PORTELLO
100
AcDbLine
 62
250
  6
CONTINUOUS
 10
20.6847569156
 20
-14.1473226242
 11
20.742567278
 21
-16.0935447537
  0
LINE
  5
317
100
AcDbEntity
  8
PORTELLO
100
AcDbLine
 62
250
  6
CONTINUOUS
 10
20.6292835867
 20
-12.1456941184
 11
20.6847569156
 21
-14.1473226242
  0
LINE
  5
318
100
AcDbEntity
  8
PORTELLO
100
AcDbLine
 62
250
  6
CONTINUOUS
 10
20.5761964485
 20
-10.0886368786
 11
20.6292835867
 21
-12.1456941184
  0
LWPOLYLINE
  5
319
100
AcDbEntity
  8
PORTELLO
100
AcDbPolyline
 62
250
  6
CONTINUOUS
 90
3
 70
0
 10
20.4769012727
 20
-5.746730256
 10
20.5251107323
 20
-7.9530196352
 10
20.576193758
 20
-10.0886405346
  0
LWPOLYLINE
  5
31A
100
AcDbEntity
  8
PORTELLO
100
AcDbPolyline
 62
250
  6
CONTINUOUS
 90
25
 70
0
 10
21.2479016874
 20
-28.9245720302
 10
21.24866106
 20
-28.9876452181
 10
21.2443948892
 20
-29.0490761976
 10
21.2351043574
 20
-29.1085607439
 10
21.2208339139
 20
-29.1658282898
 10
21.2016573695
 20
-29.2206543589
 10
21.1776406937
 20
-29.2728264724
 10
21.148873051
 20
-29.3221330794
 10
21.1154929329
 20
-29.3683519094
 10
21.0776510447
 20
-29.4112590704
 10
21.0355129686
 20
-29.4506562152
 10
20.9892676759
 20
-29.4863944503
 10
20.9391055699
 20
-29.5183276411
 10
20.88523322
 20
-29.5463088218
 10
20.8278906282
 20
-29.5702267774
 10
20.7673136719
 20
-29.589984021
 10
20.7037403959
 20
-29.6054834686
 10
20.6374609219
 20
-29.6166587253
 10
20.5687937381
 20
-29.6234649271
 10
20.4980514896
 20
-29.6258651264
 10
20.4255195724
 20
-29.6238536723
 10
20.3514788201
 20
-29.617445321
 10
20.2762259945
 20
-29.6066525531
 10
20.2001011217
 20
-29.591519643
 10
20.1234752411
 20
-29.572136453
  0
LWPOLYLINE
  5
31B
100
AcDbEntity
  8
PORTELLO
100
AcDbPolyline
 62
250
  6
CONTINUOUS
 90
8
 70
0
 10
20.3087754029
 20
11.6420494576
 10
20.3004130114
 20
8.9597687982
 10
20.3078192094
 20
6.3474031996
 10
20.3272788768
 20
3.8011822592
 10
20.3557014716
 20
1.3127973287
 10
20.3911850323
 20
-1.1150435018
 10
20.4320505229
 20
-3.469316487
 10
20.4769012727
 20
-5.746730256
  0
LINE
  5
31C
100
AcDbEntity
  8
PLACCA_PRT
100
AcDbLine
 62
7
  6
CONTINUOUS
 10
16.7034633394
 20
18.1328446254
 11
16.7033890272
 21
18.1309484474
  0
LINE
  5
31D
100
AcDbEntity
  8
PORTELLO
100
AcDbLine
 62
7
  6
CONTINUOUS
 10
10.3993372043
 20
-25.4929013868
 11
10.9109250489
 21
-24.1461893047
  0
LINE
  5
31E
100
AcDbEntity
  8
PORTELLO
100
AcDbLine
 62
7
  6
CONTINUOUS
 10
11.431569315
 20
-24.2997862649
 11
10.6900604005
 21
-26.2537576247
  0
LWPOLYLINE
  5
31F
100
AcDbEntity
  8
PORTELLO
100
AcDbPolyline
 62
7
  6
CONTINUOUS
 90
6
 70
0
 10
21.7997660903
 20
16.4587117595
 10
21.4874107594
 20
16.5213665975
 10
21.3419743075
 20
16.5526141806
 10
21.2085896534
 20
16.5842169288
 10
21.0852511212
 20
16.6167815864
 10
20.9721369517
 20
16.6507992442
  0
LWPOLYLINE
  5
320
100
AcDbEntity
  8
PORTELLO
100
AcDbPolyline
 62
250
  6
CONTINUOUS
 90
3
 70
0
 10
17.8626413685
 20
15.4440672173
 10
18.7869971248
 20
15.1871141151
 10
19.6976987225
 20
14.9359286821
  0
LINE
  5
321
100
AcDbEntity
  8
PORTELLO
100
AcDbLine
 62
250
  6
CONTINUOUS
 10
16.3492431534
 20
13.7822280009
 11
19.1331335885
 21
13.010245748
  0
LINE
  5
322
100
AcDbEntity
  8
PORTELLO
100
AcDbLine
 62
250
  6
CONTINUOUS
 10
15.3942690378
 20
14.0510319928
 11
16.3492431534
 21
13.7822280009
  0
LINE
  5
323
100
AcDbEntity
  8
PORTELLO
100
AcDbLine
 62
250
  6
CONTINUOUS
 10
15.9729813795
 20
15.9753096034
 11
16.8554854189
 21
15.7262985266
  0
LINE
  5
324
100
AcDbEntity
  8
PORTELLO
100
AcDbLine
 62
250
  6
CONTINUOUS
 10
16.8554854189
 20
15.7262985266
 11
17.8626413685
 21
15.4440672173
  0
LINE
  5
325
100
AcDbEntity
  8
PORTELLO
100
AcDbLine
 62
250
  6
CONTINUOUS
 10
13.4438177037
 20
14.6057286636
 11
15.3942690378
 21
14.0510319928
  0
LINE
  5
326
100
AcDbEntity
  8
PORTELLO
100
AcDbLine
 62
250
  6
CONTINUOUS
 10
14.8834166602
 20
16.2851327308
 11
15.9729813795
 21
15.9753096034
  0
LWPOLYLINE
  5
327
100
AcDbEntity
  8
PORTELLO
100
AcDbPolyline
 62
250
  6
CONTINUOUS
 90
4
 70
0
 10
12.029608609
 20
17.1065129385
 10
13.0359907616
 20
16.8152005549
 10
14.0286767574
 20
16.529556318
 10
14.8834166602
 20
16.2851327308
  0
LWPOLYLINE
  5
328
100
AcDbEntity
  8
PORTELLO
100
AcDbPolyline
 62
250
  6
CONTINUOUS
 90
4
 70
0
 10
10.4166995519
 20
15.4799106089
 10
11.4393053096
 20
15.1829687245
 10
12.4483340558
 20
14.8915572264
 10
13.4438177037
 20
14.6057286636
  0
LINE
  5
329
100
AcDbEntity
  8
PORTELLO
100
AcDbLine
 62
250
  6
CONTINUOUS
 10
9.975502503
 20
17.7056360048
 11
12.029608609
 21
17.1065129385
  0
LINE
  5
32A
100
AcDbEntity
  8
PORTELLO
100
AcDbLine
 62
250
  6
CONTINUOUS
 10
8.3305945311
 20
16.0902075391
 11
10.4166995519
 21
15.4799106089
  0
LINE
  5
32B
100
AcDbEntity
  8
PORTELLO
100
AcDbLine
 62
250
  6
CONTINUOUS
 10
7.8663082793
 20
18.3267334255
 11
9.975502503
 21
17.7056360048
  0
LINE
  5
32C
100
AcDbEntity
  8
PORTELLO
100
AcDbLine
 62
250
  6
CONTINUOUS
 10
5.0986008085
 20
17.0468830011
 11
8.3305945311
 21
16.0902075391
  0
LINE
  5
32D
100
AcDbEntity
  8
PORTELLO
100
AcDbLine
 62
250
  6
CONTINUOUS
 10
5.702115944
 20
18.9696745738
 11
7.8663082793
 21
18.3267334255
  0
LINE
  5
32E
100
AcDbEntity
  8
PORTELLO
100
AcDbLine
 62
250
  6
CONTINUOUS
 10
2.8754102848
 20
17.7123964738
 11
5.0986008085
 21
17.0468830011
  0
LINE
  5
32F
100
AcDbEntity
  8
PORTELLO
100
AcDbLine
 62
250
  6
CONTINUOUS
 10
3.4830705543
 20
19.6346866278
 11
5.702115944
 21
18.9696745738
  0
LINE
  5
330
100
AcDbEntity
  8
PORTELLO
100
AcDbLine
 62
250
  6
CONTINUOUS
 10
0.5975886744
 20
18.4002827498
 11
2.8754102848
 21
17.7123964738
  0
LINE
  5
331
100
AcDbEntity
  8
PORTELLO
100
AcDbLine
 62
250
  6
CONTINUOUS
 10
1.2092457763
 20
20.3218651815
 11
3.4830705543
 21
19.6346866278
  0
LWPOLYLINE
  5
332
100
AcDbEntity
  8
PORTELLO
100
AcDbPolyline
 62
250
  6
CONTINUOUS
 90
25
 70
0
 10
19.1331337075
 20
13.010245901
 10
19.2103406015
 20
12.9868395571
 10
19.2872351001
 20
12.959051039
 10
19.3634416741
 20
12.926998448
 10
19.438611122
 20
12.8908305047
 10
19.5124420738
 20
12.8507074595
 10
19.584651372
 20
12.8067765448
 10
19.6549483258
 20
12.7592081783
 10
19.7230120565
 20
12.7082266737
 10
19.7885161567
 20
12.6540687675
 10
19.8511604177
 20
12.5969763794
 10
19.910697781
 20
12.537195866
 10
19.9668843144
 20
12.4749738011
 10
20.0194694267
 20
12.410573394
 10
20.0682356589
 20
12.3442770469
 10
20.1129840972
 20
12.2763573652
 10
20.153515332
 20
12.2070892623
 10
20.189650047
 20
12.1367879543
 10
20.2212258971
 20
12.0657884438
 10
20.2480923386
 20
11.9944166339
 10
20.2701465169
 20
11.9229591124
 10
20.2873121149
 20
11.8516900547
 10
20.2995048583
 20
11.7808999151
 10
20.3066651928
 20
11.7109097078
 10
20.3087789306
 20
11.6420540572
  0
LINE
  5
333
100
AcDbEntity
  8
PORTELLO
100
AcDbLine
 62
250
  6
CONTINUOUS
 10
-1.1192489979
 20
21.0313579611
 11
1.2092457763
 21
20.3218651815
  0
LWPOLYLINE
  5
334
100
AcDbEntity
  8
PORTELLO
100
AcDbPolyline
 62
250
  6
CONTINUOUS
 90
3
 70
0
 10
-2.9214299193
 20
19.474334079
 10
-1.7348023233
 20
19.110677069
 10
0.5975886744
 20
18.4002827498
  0
LINE
  5
335
100
AcDbEntity
  8
PORTELLO
100
AcDbLine
 62
250
  6
CONTINUOUS
 10
-3.4876614561
 20
21.7586740888
 11
-1.1192489979
 21
21.0313579611
  0
LINE
  5
336
100
AcDbEntity
  8
PORTELLO
100
AcDbLine
 62
250
  6
CONTINUOUS
 10
-5.2772435612
 20
20.2007310814
 11
-2.9214299169
 21
19.4743340818
  0
LINE
  5
337
100
AcDbEntity
  8
PORTELLO
100
AcDbLine
 62
250
  6
CONTINUOUS
 10
-5.8090396087
 20
22.4771104174
 11
-3.4876614561
 21
21.7586740888
  0
LINE
  5
338
100
AcDbEntity
  8
PORTELLO
100
AcDbLine
 62
250
  6
CONTINUOUS
 10
-7.5719057671
 20
20.9141453305
 11
-5.2772435612
 21
20.2007310814
  0
LINE
  5
339
100
AcDbEntity
  8
PORTELLO
100
AcDbLine
 62
250
  6
CONTINUOUS
 10
-8.0691519898
 20
23.1822566949
 11
-5.8090396087
 21
22.4771104174
  0
LINE
  5
33A
100
AcDbEntity
  8
PORTELLO
100
AcDbLine
 62
250
  6
CONTINUOUS
 10
-9.8054620402
 20
21.6144758527
 11
-7.5719057671
 21
20.9141453305
  0
LINE
  5
33B
100
AcDbEntity
  8
PORTELLO
100
AcDbLine
 62
250
  6
CONTINUOUS
 10
-10.268108116
 20
23.8739660113
 11
-8.0691519898
 21
23.1822566949
  0
LINE
  5
33C
100
AcDbEntity
  8
PORTELLO
100
AcDbLine
 62
250
  6
CONTINUOUS
 10
-11.9779904169
 20
22.3015700491
 11
-9.8054620402
 21
21.6144758527
  0
LINE
  5
33D
100
AcDbEntity
  8
PORTELLO
100
AcDbLine
 62
250
  6
CONTINUOUS
 10
-12.405977022
 20
24.5521418895
 11
-10.268108116
 21
23.8739660113
  0
LINE
  5
33E
100
AcDbEntity
  8
PORTELLO
100
AcDbLine
 62
250
  6
CONTINUOUS
 10
-14.0895560958
 20
22.9752022567
 11
-11.9779904169
 21
22.3015700491
  0
LWPOLYLINE
  5
33F
100
AcDbEntity
  8
PORTELLO
100
AcDbPolyline
 62
250
  6
CONTINUOUS
 90
25
 70
0
 10
19.6976987225
 20
14.9359286821
 10
19.8619609625
 20
14.883291955
 10
20.0256022141
 20
14.82143624
 10
20.1879246597
 20
14.7506395874
 10
20.3482201226
 20
14.6712334553
 10
20.5058222312
 20
14.583555638
 10
20.6601054749
 20
14.4879387843
 10
20.8104433361
 20
14.3847646078
 10
20.9561523474
 20
14.2745019741
 10
21.0965472157
 20
14.1576607578
 10
21.2310002775
 20
14.0347707316
 10
21.3589684831
 20
13.9063450192
 10
21.4799324489
 20
13.7729097853
 10
21.5933692248
 20
13.6350355492
 10
21.6987925241
 20
13.4933150233
 10
21.7957756717
 20
13.3483292898
 10
21.8839077048
 20
13.2006644506
 10
21.9627827468
 20
13.0509812876
 10
22.0320420184
 20
12.8999887901
 10
22.0913729114
 20
12.7483650581
 10
22.1405390836
 20
12.5967219305
 10
22.1793592364
 20
12.4456730512
 10
22.2076637281
 20
12.2958503074
 10
22.2253070167
 20
12.1479008841
 10
22.2322003618
 20
12.0024535529
  0
LINE
  5
340
100
AcDbEntity
  8
PORTELLO
100
AcDbLine
 62
250
  6
CONTINUOUS
 10
-14.4829416844
 20
25.2165699353
 11
-12.405977022
 21
24.5521418895
  0
LWPOLYLINE
  5
341
100
AcDbEntity
  8
PORTELLO
100
AcDbPolyline
 62
250
  6
CONTINUOUS
 90
3
 70
0
 10
-17.483772543
 20
26.1875035296
 10
-16.4987877016
 20
25.8672872746
 10
-14.4829416844
 20
25.2165699353
  0
LINE
  5
342
100
AcDbEntity
  8
PORTELLO
100
AcDbLine
 62
250
  6
CONTINUOUS
 10
-19.4073952912
 20
26.8181141199
 11
-17.483772543
 21
26.1875035296
  0
LWPOLYLINE
  5
343
100
AcDbEntity
  8
PORTELLO
100
AcDbPolyline
 62
250
  6
CONTINUOUS
 90
6
 70
0
 10
-20.059894951
 20
24.9157383647
 10
-19.102881735
 20
24.6004832488
 10
-18.1305857032
 20
24.2820257618
 10
-17.1430535967
 20
23.9603135018
 10
-16.1403514073
 20
23.6353042917
 10
-14.0895560958
 20
22.9752022567
  0
LWPOLYLINE
  5
344
100
AcDbEntity
  8
PORTELLO
100
AcDbPolyline
 62
250
  6
CONTINUOUS
 90
6
 70
0
 10
-23.9451108013
 20
28.3382126772
 10
-23.0686562159
 20
28.0405731851
 10
-22.1766636603
 20
27.7397379879
 10
-21.2691331345
 20
27.4357070855
 10
-20.346033198
 20
27.1285084553
 10
-19.4073952912
 20
26.8181141199
  0
LWPOLYLINE
  5
345
100
AcDbEntity
  8
PORTELLO
100
AcDbPolyline
 62
250
  6
CONTINUOUS
 90
6
 70
0
 10
-24.6142993967
 20
26.444658615
 10
-23.7342741009
 20
26.1451532456
 10
-22.8387991073
 20
25.8425190317
 10
-21.927894945
 20
25.5367498194
 10
-21.0015824445
 20
25.2278262449
 10
-20.059894951
 20
24.9157383647
  0
LWPOLYLINE
  5
346
100
AcDbEntity
  8
PORTELLO
100
AcDbPolyline
 62
7
  6
CONTINUOUS
 90
4
 70
0
 10
-23.7167575898
 20
30.5249213625
 10
-23.7832850954
 20
30.5557677192
 10
-23.8452172875
 20
30.5807196006
 10
-23.894033753
 20
30.5978861594
  0
LWPOLYLINE
  5
347
100
AcDbEntity
  8
PORTELLO
100
AcDbPolyline
 62
7
  6
CONTINUOUS
 90
5
 70
0
 10
3.2341785243
 20
22.2418442454
 10
3.2260370615
 20
22.2488911363
 10
3.1844470164
 20
22.2754345155
 10
3.1390703173
 20
22.2958003272
 10
3.1196029315
 20
22.3023975573
  0
LINE
  5
348
100
AcDbEntity
  8
PORTELLO
100
AcDbLine
 62
250
  6
CONTINUOUS
 10
23.0973218899
 20
-26.9434274342
 11
23.1713811769
 21
-28.4661027287
  0
LINE
  5
349
100
AcDbEntity
  8
PORTELLO
100
AcDbLine
 62
250
  6
CONTINUOUS
 10
23.0261697081
 20
-25.3638203641
 11
23.0973218899
 21
-26.9434274342
  0
LINE
  5
34A
100
AcDbEntity
  8
PORTELLO
100
AcDbLine
 62
250
  6
CONTINUOUS
 10
22.9578366471
 20
-23.727403303
 11
23.0261697081
 21
-25.3638203641
  0
LINE
  5
34B
100
AcDbEntity
  8
PORTELLO
100
AcDbLine
 62
250
  6
CONTINUOUS
 10
22.8920618752
 20
-22.0345410342
 11
22.9578366471
 21
-23.727403303
  0
LINE
  5
34C
100
AcDbEntity
  8
PORTELLO
100
AcDbLine
 62
250
  6
CONTINUOUS
 10
22.8283681241
 20
-20.2858613996
 11
22.8920618752
 21
-22.0345410342
  0
LWPOLYLINE
  5
34D
100
AcDbEntity
  8
PORTELLO
100
AcDbPolyline
 62
7
  6
CONTINUOUS
 90
23
 70
0
 10
24.4817298791
 20
14.4943703465
 10
24.4782146262
 20
14.5946364877
 10
24.4685787178
 20
14.6946966739
 10
24.4528296931
 20
14.7943634075
 10
24.4311013769
 20
14.8937180987
 10
24.4032935814
 20
14.9922980109
 10
24.3691248426
 20
15.0890844943
 10
24.3285783961
 20
15.1839023961
 10
24.2818566379
 20
15.2765184412
 10
24.2291553415
 20
15.3658156531
 10
24.1707765488
 20
15.4512731616
 10
24.1068494199
 20
15.5330370513
 10
24.0373824266
 20
15.6109995057
 10
23.9627799266
 20
15.6846987509
 10
23.8830418044
 20
15.754281015
 10
23.7974288389
 20
15.8205261291
 10
23.7059424007
 20
15.8832594594
 10
23.6087424845
 20
15.9422894085
 10
23.5051204105
 20
15.9982907457
 10
23.3950176509
 20
16.0508906996
 10
23.2785392785
 20
16.0999771876
 10
23.15505021
 20
16.1464961821
 10
23.0238198267
 20
16.1899224407
  0
LINE
  5
34E
100
AcDbEntity
  8
PORTELLO
100
AcDbLine
 62
250
  6
CONTINUOUS
 10
22.7665866246
 20
-18.4816232456
 11
22.8283681241
 21
-20.2858613996
  0
LINE
  5
34F
100
AcDbEntity
  8
PORTELLO
100
AcDbLine
 62
250
  6
CONTINUOUS
 10
22.7066108371
 20
-16.6220911504
 11
22.7665866246
 21
-18.4816232456
  0
LINE
  5
350
100
AcDbEntity
  8
PORTELLO
100
AcDbLine
 62
250
  6
CONTINUOUS
 10
22.6485964571
 20
-14.7070759756
 11
22.7066108371
 21
-16.6220911504
  0
LINE
  5
351
100
AcDbEntity
  8
PORTELLO
100
AcDbLine
 62
250
  6
CONTINUOUS
 10
22.5926016872
 20
-12.7365166433
 11
22.6485964571
 21
-14.7070759756
  0
LINE
  5
352
100
AcDbEntity
  8
PORTELLO
100
AcDbLine
 62
250
  6
CONTINUOUS
 10
22.5387056493
 20
-10.7103281312
 11
22.5926016872
 21
-12.7365166433
  0
LINE
  5
353
100
AcDbEntity
  8
PORTELLO
100
AcDbLine
 62
7
  6
CONTINUOUS
 10
25.2385164317
 20
-26.1762332176
 11
24.3011160441
 21
11.505787289
  0
LWPOLYLINE
  5
354
100
AcDbEntity
  8
PORTELLO
100
AcDbPolyline
 62
250
  6
CONTINUOUS
 90
10
 70
0
 10
22.2322003618
 20
12.0024535529
 10
22.2313493635
 20
9.3364447455
 10
22.2398300148
 20
6.7322038163
 10
22.2576423155
 20
4.1897307654
 10
22.2865618875
 20
1.705632886
 10
22.324813109
 20
-0.7166971152
 10
22.3670691146
 20
-3.0670811176
 10
22.4115542826
 20
-5.3421264146
 10
22.4600442347
 20
-7.5452257129
 10
22.5387056493
 20
-10.7103281312
  0
LWPOLYLINE
  5
355
100
AcDbEntity
  8
PORTELLO
100
AcDbPolyline
 62
250
  6
CONTINUOUS
 90
10
 70
0
 10
23.1713811769
 20
-28.4661027287
 10
23.1711268692
 20
-28.6040181482
 10
23.1601306781
 20
-28.738190642
 10
23.1384511499
 20
-28.8680386137
 10
23.106201651
 20
-28.9929800198
 10
23.063524313
 20
-29.1124969191
 10
23.0105768038
 20
-29.2261304162
 10
22.947566477
 20
-29.3334119165
 10
22.8747757388
 20
-29.4338421084
 10
22.8165141741
 20
-29.5016283467
  0
LWPOLYLINE
  5
356
100
AcDbEntity
  8
PORTELLO
100
AcDbPolyline
 62
7
  6
CONTINUOUS
 90
5
 70
0
 10
24.3011160441
 20
11.505787289
 10
24.3018218453
 20
11.5690699818
 10
24.303436063
 20
11.6331924495
 10
24.3059586972
 20
11.6981546921
 10
24.3096073876
 20
11.7641323127
  0
LINE
  5
357
100
AcDbEntity
  8
PLACCA_PRT
100
AcDbLine
 62
7
  6
CONTINUOUS
 10
24.6233820574
 20
12.6823652578
 11
24.6294716702
 21
13.076459718
  0
LINE
  5
358
100
AcDbEntity
  8
PLACCA_PRT
100
AcDbLine
 62
7
  6
CONTINUOUS
 10
24.6294716702
 20
13.076459718
 11
24.6390894024
 21
13.482214889
  0
LINE
  5
359
100
AcDbEntity
  8
PLACCA_PRT
100
AcDbLine
 62
7
  6
CONTINUOUS
 10
24.6390894024
 20
13.482214889
 11
24.6523406923
 21
13.9030839346
  0
LWPOLYLINE
  5
35A
100
AcDbEntity
  8
PLACCA_PRT
100
AcDbPolyline
 62
7
  6
CONTINUOUS
 90
3
 70
0
 10
24.6523406923
 20
13.9030839346
 10
24.6696472927
 20
14.3528795104
 10
24.6797949748
 20
14.5877614561
  0
LINE
  5
35B
100
AcDbEntity
  8
PORTELLO
100
AcDbLine
 62
7
  6
CONTINUOUS
 10
24.3096073876
 20
11.7641323127
 11
24.3189770991
 21
11.8980800699
  0
LWPOLYLINE
  5
35C
100
AcDbEntity
  8
PORTELLO
100
AcDbPolyline
 62
7
  6
CONTINUOUS
 90
14
 70
0
 10
24.4418422154
 20
13.33120476
 10
24.4481418357
 20
13.4165483261
 10
24.4539976072
 20
13.503294903
 10
24.4594502597
 20
13.5913761724
 10
24.4643484236
 20
13.6802148283
 10
24.468657504
 20
13.7697871618
 10
24.4724120958
 20
13.8601168818
 10
24.4755646138
 20
13.9506978082
 10
24.4780996085
 20
14.0415121773
 10
24.4800325294
 20
14.1325777529
 10
24.4813621405
 20
14.2234416465
 10
24.4820880298
 20
14.3139528952
 10
24.4822106094
 20
14.4042624619
 10
24.4817298791
 20
14.4943703465
  0
LINE
  5
35D
100
AcDbEntity
  8
PORTELLO
100
AcDbLine
 62
7
  6
CONTINUOUS
 10
24.3189770991
 20
11.8980800699
 11
24.3290217302
 21
12.033231678
  0
LINE
  5
35E
100
AcDbEntity
  8
PORTELLO
100
AcDbLine
 62
7
  6
CONTINUOUS
 10
24.3290217302
 20
12.033231678
 11
24.3451320212
 21
12.2352417407
  0
LINE
  5
35F
100
AcDbEntity
  8
PORTELLO
100
AcDbLine
 62
7
  6
CONTINUOUS
 10
24.4283071777
 20
13.1648940565
 11
24.4418422154
 21
13.33120476
  0
LINE
  5
360
100
AcDbEntity
  8
PORTELLO
100
AcDbLine
 62
7
  6
CONTINUOUS
 10
24.3451320212
 20
12.2352417407
 11
24.3621868264
 21
12.4356656688
  0
LINE
  5
361
100
AcDbEntity
  8
PORTELLO
100
AcDbLine
 62
7
  6
CONTINUOUS
 10
24.4143005556
 20
13.0055586577
 11
24.4283071777
 21
13.1648940565
  0
LINE
  5
362
100
AcDbEntity
  8
PORTELLO
100
AcDbLine
 62
7
  6
CONTINUOUS
 10
24.3621868264
 20
12.4356656688
 11
24.4143005556
 21
13.0055586577
  0
LINE
  5
363
100
AcDbEntity
  8
PORTELLO
100
AcDbLine
 62
7
  6
CONTINUOUS
 10
14.8834107197
 20
-26.0493284817
 11
14.4544039802
 21
-27.3539157541
  0
LINE
  5
364
100
AcDbEntity
  8
PORTELLO
100
AcDbLine
 62
7
  6
CONTINUOUS
 10
14.1583742817
 20
-26.5132046115
 11
14.5841964651
 21
-25.2221487125
  0
LINE
  5
365
100
AcDbEntity
  8
PORTELLO
100
AcDbLine
 62
7
  6
CONTINUOUS
 10
16.4889915225
 20
-27.5142285022
 11
16.3437900009
 21
-27.8977125584
  0
LINE
  5
366
100
AcDbEntity
  8
PORTELLO
100
AcDbLine
 62
7
  6
CONTINUOUS
 10
15.8203034905
 20
-27.7476934508
 11
16.3951416939
 21
-26.2324810645
  0
LINE
  5
367
100
AcDbEntity
  8
PORTELLO
100
AcDbLine
 62
7
  6
CONTINUOUS
 10
16.8538931915
 20
-26.5528651621
 11
16.6296635003
 21
-27.1432528277
  0
LINE
  5
368
100
AcDbEntity
  8
PORTELLO
100
AcDbLine
 62
7
  6
CONTINUOUS
 10
16.3951416939
 20
-26.2324810645
 11
16.5625020702
 21
-25.7928314028
  0
LINE
  5
369
100
AcDbEntity
  8
PORTELLO
100
AcDbLine
 62
7
  6
CONTINUOUS
 10
9.2405994914
 20
-23.6514159251
 11
9.2542325111
 21
-23.6343318482
  0
LINE
  5
36A
100
AcDbEntity
  8
PORTELLO
100
AcDbLine
 62
7
  6
CONTINUOUS
 10
9.7606364793
 20
-23.8057738897
 11
9.7742697112
 21
-23.7886895469
  0
LINE
  5
36B
100
AcDbEntity
  8
PORTELLO
100
AcDbLine
 62
7
  6
CONTINUOUS
 10
10.9109250489
 20
-24.1461893047
 11
10.9245588206
 21
-24.1291042855
  0
LINE
  5
36C
100
AcDbEntity
  8
PORTELLO
100
AcDbLine
 62
7
  6
CONTINUOUS
 10
11.431569315
 20
-24.2997862649
 11
11.445203372
 21
-24.2827008882
  0
LINE
  5
36D
100
AcDbEntity
  8
PORTELLO
100
AcDbLine
 62
7
  6
CONTINUOUS
 10
11.7787748475
 20
-24.402036084
 11
11.7924091097
 21
-24.3849504501
  0
LINE
  5
36E
100
AcDbEntity
  8
PORTELLO
100
AcDbLine
 62
7
  6
CONTINUOUS
 10
10.6900604005
 20
-26.2537576247
 11
10.7036970723
 21
-26.2366689712
  0
LINE
  5
36F
100
AcDbEntity
  8
PORTELLO
100
AcDbLine
 62
7
  6
CONTINUOUS
 10
12.2997722924
 20
-24.5551807343
 11
12.3134068844
 21
-24.5380946872
  0
LINE
  5
370
100
AcDbEntity
  8
PORTELLO
100
AcDbLine
 62
7
  6
CONTINUOUS
 10
12.8209833896
 20
-24.7080270763
 11
12.8346183377
 21
-24.6909405829
  0
LWPOLYLINE
  5
371
100
AcDbEntity
  8
PORTELLO
100
AcDbPolyline
 62
250
  6
CONTINUOUS
 90
16
 70
0
 10
22.5125389709
 20
-9.6763790125
 10
22.4319525593
 20
-9.7563665349
 10
22.339421132
 20
-9.831112983
 10
22.2358522059
 20
-9.8998852693
 10
22.1222615495
 20
-9.9620088987
 10
21.9997632213
 20
-10.0168745838
 10
21.8695586432
 20
-10.0639442209
 10
21.7329248172
 20
-10.102756167
 10
21.5912018013
 20
-10.132929768
 10
21.4457795666
 20
-10.1541690914
 10
21.2980843647
 20
-10.1662658294
 10
21.1495647398
 20
-10.1691013413
 10
21.0016773218
 20
-10.1626478176
 10
20.8558725399
 20
-10.1469685521
 10
20.7135803979
 20
-10.1222173219
 10
20.5761964485
 20
-10.0886368786
  0
LWPOLYLINE
  5
372
100
AcDbEntity
  8
PLACCA_PRT
100
AcDbPolyline
 62
250
  6
CONTINUOUS
 90
13
 70
0
 10
35.5989269438
 20
20.1623859796
 10
35.7094010641
 20
20.1432837591
 10
35.8227032219
 20
20.1318233214
 10
35.9373413909
 20
20.1281555837
 10
36.0518059513
 20
20.1323288444
 10
36.1645895695
 20
20.1442881476
 10
36.2742070475
 20
20.1638760061
 10
36.379214881
 20
20.190834476
 10
36.4782302677
 20
20.2248085528
 10
36.5699493175
 20
20.2653508473
 10
36.6531642226
 20
20.3119274758
 10
36.7267791622
 20
20.363925091
 10
36.7898247336
 20
20.4206589594
  0
LWPOLYLINE
  5
373
100
AcDbEntity
  8
PORTELLO
100
AcDbPolyline
 62
7
  6
CONTINUOUS
 90
4
 70
0
 10
4.9009420958
 20
21.7553655575
 10
4.8712461285
 20
21.7629565715
 10
4.8182961214
 20
21.7709672481
 10
4.7615594603
 20
21.7728003572
  0
LWPOLYLINE
  5
374
100
AcDbEntity
  8
PORTELLO
100
AcDbPolyline
 62
7
  6
CONTINUOUS
 90
4
 70
0
 10
3.1196029315
 20
22.3023975573
 10
3.0899069642
 20
22.3099885713
 10
3.0369569572
 20
22.3179992479
 10
2.9802202961
 20
22.319832357
  0
LINE
  5
375
100
AcDbEntity
  8
PLACCA_PRT
100
AcDbLine
 62
7
  6
CONTINUOUS
 10
22.0147365252
 20
17.9065110164
 11
21.4182031813
 21
18.0662316638
  0
LINE
  5
376
100
AcDbEntity
  8
PLACCA_PRT
100
AcDbLine
 62
7
  6
CONTINUOUS
 10
21.4182031813
 20
18.0662316638
 11
20.8213395242
 21
18.2298040214
  0
LINE
  5
377
100
AcDbEntity
  8
PLACCA_PRT
100
AcDbLine
 62
7
  6
CONTINUOUS
 10
20.8213395242
 20
18.2298040214
 11
20.2246464138
 21
18.396850629
  0
LWPOLYLINE
  5
378
100
AcDbEntity
  8
PLACCA_PRT
100
AcDbPolyline
 62
7
  6
CONTINUOUS
 90
10
 70
0
 10
-22.2281416641
 20
30.795747289
 10
-22.359168998
 20
30.8331715893
 10
-22.4891276393
 20
30.8648195793
 10
-22.6180175879
 20
30.8906912592
 10
-22.7461410736
 20
30.9108207507
 10
-22.8731958666
 20
30.9251739319
 10
-22.9982752779
 20
30.9336484374
 10
-23.1210770776
 20
30.9362101453
 10
-23.2419034956
 20
30.9328931775
 10
-23.3607545318
 20
30.9236975339
  0
LINE
  5
379
100
AcDbEntity
  8
PLACCA_PRT
100
AcDbLine
 62
7
  6
CONTINUOUS
 10
20.2246464138
 20
18.396850629
 11
19.6297815245
 21
18.5661003489
  0
LWPOLYLINE
  5
37A
100
AcDbEntity
  8
PORTELLO
100
AcDbPolyline
 62
7
  6
CONTINUOUS
 90
9
 70
0
 10
23.0078156749
 20
16.1948112937
 10
22.8855353575
 20
16.2300578997
 10
22.7416146032
 20
16.2682590438
 10
22.5913777319
 20
16.3039965126
 10
22.4356108188
 20
16.3369651045
 10
22.2780123016
 20
16.3689810923
 10
22.1188836434
 20
16.3997211235
 10
21.9583120517
 20
16.4289134164
 10
21.7997660903
 20
16.4587117595
  0
LINE
  5
37B
100
AcDbEntity
  8
PLACCA_PRT
100
AcDbLine
 62
7
  6
CONTINUOUS
 10
19.6297815245
 20
18.5661003489
 11
18.7439514771
 21
18.8219409
  0
LINE
  5
37C
100
AcDbEntity
  8
PLACCA_PRT
100
AcDbLine
 62
7
  6
CONTINUOUS
 10
18.7439514771
 20
18.8219409
 11
17.8706778402
 21
19.0777731766
  0
LINE
  5
37D
100
AcDbEntity
  8
PLACCA_PRT
100
AcDbLine
 62
7
  6
CONTINUOUS
 10
17.8706778402
 20
19.0777731766
 11
17.0175305265
 21
19.3306707631
  0
LINE
  5
37E
100
AcDbEntity
  8
PLACCA_PRT
100
AcDbLine
 62
7
  6
CONTINUOUS
 10
17.0175305265
 20
19.3306707631
 11
15.9262623177
 21
19.6578089105
  0
LINE
  5
37F
100
AcDbEntity
  8
PLACCA_PRT
100
AcDbLine
 62
7
  6
CONTINUOUS
 10
15.9262623177
 20
19.6578089105
 11
14.9069061132
 21
19.9665347932
  0
LINE
  5
380
100
AcDbEntity
  8
PLACCA_PRT
100
AcDbLine
 62
7
  6
CONTINUOUS
 10
14.9069061132
 20
19.9665347932
 11
13.7345084899
 21
20.324695598
  0
LINE
  5
381
100
AcDbEntity
  8
PLACCA_PRT
100
AcDbLine
 62
7
  6
CONTINUOUS
 10
-10.434487491
 20
27.7500719306
 11
-13.2429759118
 21
28.6092044332
  0
LINE
  5
382
100
AcDbEntity
  8
PORTELLO
100
AcDbLine
 62
7
  6
CONTINUOUS
 10
-22.6706725721
 20
30.0530832393
 11
20.9721369517
 21
16.6507992442
  0
LINE
  5
383
100
AcDbEntity
  8
PORTELLO
100
AcDbLine
 62
7
  6
CONTINUOUS
 10
2.9802202961
 20
22.319832357
 11
4.7615594603
 21
21.7728003572
  0
LINE
  5
384
100
AcDbEntity
  8
PORTELLO
100
AcDbLine
 62
7
  6
CONTINUOUS
 10
23.0238198267
 20
16.1899224407
 11
4.9009668649
 21
21.7553579521
  0
LINE
  5
385
100
AcDbEntity
  8
PLACCA_PRT
100
AcDbLine
 62
7
  6
CONTINUOUS
 10
-20.154134178
 20
29.8729470865
 11
-16.1059510056
 21
28.6297892529
  0
LINE
  5
386
100
AcDbEntity
  8
PLACCA_PRT
100
AcDbLine
 62
7
  6
CONTINUOUS
 10
15.877813845
 20
18.8078849246
 11
19.9259970173
 21
17.564727091
  0
LINE
  5
387
100
AcDbEntity
  8
PLACCA_PRT
100
AcDbLine
 62
7
  6
CONTINUOUS
 10
22.7364377991
 20
16.7676963567
 11
-23.3607545318
 21
30.9236975339
  0
LINE
  5
388
100
AcDbEntity
  8
PLACCA_PRT
100
AcDbLine
 62
7
  6
CONTINUOUS
 10
21.5928017761
 20
17.3387600939
 11
-22.2281416641
 21
30.795747289
  0
LINE
  5
389
100
AcDbEntity
  8
PLACCA_PRT
100
AcDbLine
 62
7
  6
CONTINUOUS
 10
-13.2429759118
 20
28.6092044332
 11
-14.3847199474
 21
28.9606217414
  0
LINE
  5
38A
100
AcDbEntity
  8
PLACCA_PRT
100
AcDbLine
 62
7
  6
CONTINUOUS
 10
13.7345084899
 20
20.324695598
 11
11.7808632183
 21
20.9264368147
  0
LINE
  5
38B
100
AcDbEntity
  8
PLACCA_PRT
100
AcDbLine
 62
7
  6
CONTINUOUS
 10
11.7808632183
 20
20.9264368147
 11
-10.434487491
 21
27.7500719306
  0
LWPOLYLINE
  5
38C
100
AcDbEntity
  8
PORTELLO
100
AcDbPolyline
 62
7
  6
CONTINUOUS
 90
13
 70
0
 10
2.9873392896
 20
22.3430144413
 10
-23.9025656464
 20
30.6005275798
 10
-23.956549585
 20
30.6137462477
 10
-24.0072599553
 20
30.6203891099
 10
-24.0546970819
 20
30.6212324969
 10
-24.0998751763
 20
30.6158607741
 10
-24.1428861749
 20
30.6043844906
 10
-24.183633204
 20
30.5871841638
 10
-24.2226712631
 20
30.5640244314
 10
-24.2599363139
 20
30.5350346322
 10
-24.2953731875
 20
30.500384711
 10
-24.3293398528
 20
30.4596932181
 10
-24.3473240742
 20
30.4347698829
  0
LINE
  5
38D
100
AcDbEntity
  8
PLACCA_PRT
100
AcDbLine
 62
7
  6
CONTINUOUS
 10
-14.3847199474
 20
28.9606217414
 11
-15.3640533345
 21
29.2643114613
  0
LWPOLYLINE
  5
38E
100
AcDbEntity
  8
PORTELLO
100
AcDbPolyline
 62
7
  6
CONTINUOUS
 90
11
 70
0
 10
-22.6706725721
 20
30.0530832393
 10
-22.7790990218
 20
30.0869282433
 10
-22.8869519417
 20
30.1252884291
 10
-22.994027897
 20
30.1675169724
 10
-23.1013515292
 20
30.2138519141
 10
-23.2072741578
 20
30.2624845927
 10
-23.3076304115
 20
30.3103869237
 10
-23.4005450672
 20
30.3579008713
 10
-23.4874245626
 20
30.4048093035
 10
-23.5692047133
 20
30.4481541432
 10
-23.7167575898
 20
30.5249213625
  0
LINE
  5
38F
100
AcDbEntity
  8
PLACCA_PRT
100
AcDbLine
 62
7
  6
CONTINUOUS
 10
-15.3640533345
 20
29.2643114613
 11
-16.4155594599
 21
29.5932704158
  0
LINE
  5
390
100
AcDbEntity
  8
PLACCA_PRT
100
AcDbLine
 62
7
  6
CONTINUOUS
 10
-16.4155594599
 20
29.5932704158
 11
-17.2412960379
 21
29.8541212416
  0
LINE
  5
391
100
AcDbEntity
  8
PLACCA_PRT
100
AcDbLine
 62
7
  6
CONTINUOUS
 10
-17.2412960379
 20
29.8541212416
 11
-18.0880079904
 21
30.124303631
  0
LINE
  5
392
100
AcDbEntity
  8
PLACCA_PRT
100
AcDbLine
 62
7
  6
CONTINUOUS
 10
-18.0880079904
 20
30.124303631
 11
-18.9464006399
 21
30.4014610335
  0
LINE
  5
393
100
AcDbEntity
  8
PLACCA_PRT
100
AcDbLine
 62
7
  6
CONTINUOUS
 10
-18.9464006399
 20
30.4014610335
 11
-19.8092750055
 21
30.6840610553
  0
LWPOLYLINE
  5
394
100
AcDbEntity
  8
PLACCA_PRT
100
AcDbPolyline
 62
7
  6
CONTINUOUS
 90
10
 70
0
 10
22.7364377991
 20
16.7676963567
 10
22.9482362518
 20
16.6975901588
 10
23.1559953913
 20
16.6230784464
 10
23.3592500045
 20
16.5429949796
 10
23.5601831832
 20
16.4547455614
 10
23.7553938926
 20
16.3581467022
 10
23.9363692136
 20
16.2566664286
 10
24.1002960407
 20
16.1518083882
 10
24.2495859448
 20
16.0418878005
 10
24.3839841475
 20
15.9267298563
  0
LINE
  5
395
100
AcDbEntity
  8
PLACCA_PRT
100
AcDbLine
 62
7
  6
CONTINUOUS
 10
-19.8092750055
 20
30.6840610553
 11
-20.3838988675
 21
30.8752906849
  0
LWPOLYLINE
  5
396
100
AcDbEntity
  8
PLACCA_PRT
100
AcDbPolyline
 62
7
  6
CONTINUOUS
 90
28
 70
0
 10
-21.806206915
 20
31.3634982115
 10
-21.8981374784
 20
31.3943133782
 10
-21.9903053592
 20
31.4219974748
 10
-22.0825922677
 20
31.4465015999
 10
-22.1749319057
 20
31.4678076544
 10
-22.2671502677
 20
31.4858418755
 10
-22.3589694125
 20
31.5004956223
 10
-22.450294493
 20
31.511754265
 10
-22.5409866787
 20
31.5196026264
 10
-22.6307142124
 20
31.5239812519
 10
-22.7191030232
 20
31.5248980615
 10
-22.8063293168
 20
31.522410878
 10
-22.892873741
 20
31.5165048553
 10
-22.9783592212
 20
31.5071949396
 10
-23.0629251607
 20
31.4944299731
 10
-23.1477273419
 20
31.4778996571
 10
-23.2325467726
 20
31.4574387519
 10
-23.3171754138
 20
31.4329004814
 10
-23.4025981529
 20
31.4037144862
 10
-23.4883320653
 20
31.3696191182
 10
-23.5741320061
 20
31.330288349
 10
-23.6610345278
 20
31.284689061
 10
-23.7484888384
 20
31.2323318069
 10
-23.8357006674
 20
31.1726679589
 10
-23.9229437665
 20
31.1042167575
 10
-24.0095578848
 20
31.0260033519
 10
-24.0941053389
 20
30.9377362785
 10
-24.1754226083
 20
30.8388532295
  0
LINE
  5
397
100
AcDbEntity
  8
PLACCA_PRT
100
AcDbLine
 62
7
  6
CONTINUOUS
 10
-20.3838988675
 20
30.8752906849
 11
-20.9562927464
 21
31.0688099037
  0
LWPOLYLINE
  5
398
100
AcDbEntity
  8
PLACCA_PRT
100
AcDbPolyline
 62
7
  6
CONTINUOUS
 90
3
 70
0
 10
-20.9562927464
 20
31.0688099037
 10
-21.5239687755
 20
31.2646829191
 10
-21.806206915
 20
31.3634982115
  0
LWPOLYLINE
  5
399
100
AcDbEntity
  8
PLACCA_PRT
100
AcDbPolyline
 62
250
  6
CONTINUOUS
 90
10
 70
0
 10
-33.7133624352
 20
41.447515197
 10
-33.8033078532
 20
41.4899584053
 10
-33.8844963126
 20
41.5382230218
 10
-33.9558586404
 20
41.5916734487
 10
-34.0164550641
 20
41.6496057958
 10
-34.0654875879
 20
41.7112571508
 10
-34.102310501
 20
41.7758156254
 10
-34.1264388815
 20
41.8424310475
 10
-34.1375549822
 20
41.910226157
 10
-34.1383370567
 20
41.9349929297
  0
LWPOLYLINE
  5
39A
100
AcDbEntity
  8
PLACCA_PRT
100
AcDbPolyline
 62
7
  6
CONTINUOUS
 90
6
 70
0
 10
20.2051946457
 20
17.0555778673
 10
20.1733555461
 20
17.1546991416
 10
20.1217058136
 20
17.2794898536
 10
20.063360778
 20
17.3891200951
 10
19.9981245126
 20
17.4841991742
 10
19.9259970173
 20
17.564727091
  0
LWPOLYLINE
  5
39B
100
AcDbEntity
  8
PORTELLO
100
AcDbPolyline
 62
7
  6
CONTINUOUS
 90
23
 70
0
 10
20.2917774118
 20
-27.7770040995
 10
20.3177302262
 20
-27.7284941305
 10
20.3373318264
 20
-27.676258259
 10
20.3504004551
 20
-27.6207264935
 10
20.3568283843
 20
-27.5622959372
 10
20.3565178357
 20
-27.5014028105
 10
20.3494277981
 20
-27.4386061523
 10
20.33564485
 20
-27.3745287814
 10
20.3153148639
 20
-27.3098210238
 10
20.2885935251
 20
-27.2449476235
 10
20.2556602041
 20
-27.1802712516
 10
20.2166663895
 20
-27.116235624
 10
20.171955882
 20
-27.0535264887
 10
20.1220878171
 20
-26.9928508345
 10
20.067620396
 20
-26.9348545767
 10
20.00891403
 20
-26.8798914125
 10
19.9463004808
 20
-26.8282056087
 10
19.8801246089
 20
-26.780161402
 10
19.8110503098
 20
-26.7363214858
 10
19.7399233375
 20
-26.6971697635
 10
19.6674384442
 20
-26.6630444595
 10
19.5941051726
 20
-26.6341874225
 10
19.5205284497
 20
-26.6108234391
  0
LINE
  5
39C
100
AcDbEntity
  8
PORTELLO
100
AcDbLine
 62
7
  6
CONTINUOUS
 10
13.609416843
 20
-24.938505838
 11
13.6230523791
 21
-24.9214186077
  0
LINE
  5
39D
100
AcDbEntity
  8
PORTELLO
100
AcDbLine
 62
7
  6
CONTINUOUS
 10
12.3950392123
 20
-26.7545035036
 11
12.408677027
 21
-26.7374134179
  0
LINE
  5
39E
100
AcDbEntity
  8
PORTELLO
100
AcDbLine
 62
7
  6
CONTINUOUS
 10
14.5841964651
 20
-25.2221487125
 11
14.5978328117
 21
-25.2050604666
  0
LINE
  5
39F
100
AcDbEntity
  8
PORTELLO
100
AcDbLine
 62
7
  6
CONTINUOUS
 10
13.4384397551
 20
-27.0590104801
 11
13.4520784179
 21
-27.0419193316
  0
LINE
  5
3A0
100
AcDbEntity
  8
PORTELLO
100
AcDbLine
 62
7
  6
CONTINUOUS
 10
15.3740576309
 20
-25.4508383513
 11
15.3876947047
 21
-25.433749194
  0
LINE
  5
3A1
100
AcDbEntity
  8
PORTELLO
100
AcDbLine
 62
7
  6
CONTINUOUS
 10
14.4544039802
 20
-27.3539157541
 11
14.468043577
 21
-27.3368234353
  0
LINE
  5
3A2
100
AcDbEntity
  8
PORTELLO
100
AcDbLine
 62
7
  6
CONTINUOUS
 10
16.5625020702
 20
-25.7928314028
 11
16.5761403672
 21
-25.7757407128
  0
LINE
  5
3A3
100
AcDbEntity
  8
PORTELLO
100
AcDbLine
 62
7
  6
CONTINUOUS
 10
15.4714965346
 20
-27.647449049
 11
15.4851371771
 21
-27.6303554198
  0
LINE
  5
3A4
100
AcDbEntity
  8
PORTELLO
100
AcDbLine
 62
7
  6
CONTINUOUS
 10
17.086164563
 20
-25.9426752863
 11
17.0998034527
 21
-25.9255838535
  0
LINE
  5
3A5
100
AcDbEntity
  8
PORTELLO
100
AcDbLine
 62
7
  6
CONTINUOUS
 10
16.6296635003
 20
-27.1432528277
 11
16.6433039392
 21
-27.1261594536
  0
LINE
  5
3A6
100
AcDbEntity
  8
PORTELLO
100
AcDbLine
 62
7
  6
CONTINUOUS
 10
16.3437900009
 20
-27.8977125584
 11
16.3574316344
 21
-27.8806176873
  0
LINE
  5
3A7
100
AcDbEntity
  8
PORTELLO
100
AcDbLine
 62
7
  6
CONTINUOUS
 10
18.2772223698
 20
-26.2814184753
 11
18.2908627467
 21
-26.2643251788
  0
LWPOLYLINE
  5
3A8
100
AcDbEntity
  8
PLACCA_PRT
100
AcDbPolyline
 62
250
  6
CONTINUOUS
 90
4
 70
0
 10
-31.2993745842
 20
42.1545312626
 10
-31.4367973257
 20
42.1963950861
 10
-31.4693129254
 20
42.2062332431
 10
-31.532911781
 20
42.2252579449
  0
LINE
  5
3A9
100
AcDbEntity
  8
PLACCA_PRT
100
AcDbLine
 62
250
  6
CONTINUOUS
 10
-14.7428053685
 20
37.1343827806
 11
-18.459087158
 21
38.2720225539
  0
LINE
  5
3AA
100
AcDbEntity
  8
PLACCA_PRT
100
AcDbLine
 62
250
  6
CONTINUOUS
 10
11.3272181422
 20
29.1250164202
 11
-11.5065449956
 21
36.138116292
  0
LINE
  5
3AB
100
AcDbEntity
  8
PLACCA_PRT
100
AcDbLine
 62
250
  6
CONTINUOUS
 10
-11.5065449956
 20
36.138116292
 11
-14.7428053685
 21
37.1343827806
  0
LINE
  5
3AC
100
AcDbEntity
  8
PLACCA_PRT
100
AcDbLine
 62
250
  6
CONTINUOUS
 10
20.6806034962
 20
26.2512861146
 11
11.327218144
 21
29.1250164209
  0
LINE
  5
3AD
100
AcDbEntity
  8
PLACCA_PRT
100
AcDbLine
 62
250
  6
CONTINUOUS
 10
33.2931650195
 20
22.3182821456
 11
31.2616694614
 21
22.9498579331
  0
LWPOLYLINE
  5
3AE
100
AcDbEntity
  8
PLACCA_PRT
100
AcDbPolyline
 62
250
  6
CONTINUOUS
 90
3
 70
0
 10
31.2616694614
 20
22.9498579331
 10
30.4699203534
 20
23.1968928329
 10
29.4565713159
 20
23.5118210519
  0
LINE
  5
3AF
100
AcDbEntity
  8
PLACCA_PRT
100
AcDbLine
 62
250
  6
CONTINUOUS
 10
33.9003621982
 20
22.1215702432
 11
33.8137884543
 21
22.148521136
  0
LINE
  5
3B0
100
AcDbEntity
  8
PLACCA_PRT
100
AcDbLine
 62
250
  6
CONTINUOUS
 10
27.7506244194
 20
24.0477989209
 11
20.6806034962
 21
26.2512861146
  0
LINE
  5
3B1
100
AcDbEntity
  8
PLACCA_PRT
100
AcDbLine
 62
250
  6
CONTINUOUS
 10
-31.5548115659
 20
43.5479490597
 11
-31.6321439191
 21
43.5740203865
  0
LWPOLYLINE
  5
3B2
100
AcDbEntity
  8
PLACCA_PRT
100
AcDbPolyline
 62
7
  6
CONTINUOUS
 90
10
 70
0
 10
22.7364377991
 20
16.7676963567
 10
22.6152958571
 20
16.8505915188
 10
22.4924428542
 20
16.9287400761
 10
22.3678787903
 20
17.0021420284
 10
22.2412984933
 20
17.0709497813
 10
22.1130071353
 20
17.1350109292
 10
21.9839202329
 20
17.1938682561
 10
21.8543429583
 20
17.2473693565
 10
21.7239701394
 20
17.2956666357
 10
21.5928017761
 20
17.3387600939
  0
LWPOLYLINE
  5
3B3
100
AcDbEntity
  8
PLACCA_PRT
100
AcDbPolyline
 62
7
  6
CONTINUOUS
 90
31
 70
0
 10
24.3839841475
 20
15.9267298563
 10
24.3160654909
 20
16.0601024284
 10
24.244904474
 20
16.1864717188
 10
24.1713753217
 20
16.3057199414
 10
24.0964193933
 20
16.4174330243
 10
24.0206785009
 20
16.5219879912
 10
23.9443939545
 20
16.6205014028
 10
23.8683037719
 20
16.7129857462
 10
23.7927311898
 20
16.7995761581
 10
23.7170326487
 20
16.8815114159
 10
23.6415271407
 20
16.9589050474
 10
23.5665306891
 20
17.0317837615
 10
23.4911787615
 20
17.1011390685
 10
23.4155601603
 20
17.1670387328
 10
23.3399625005
 20
17.2294854579
 10
23.2636796216
 20
17.2892567483
 10
23.1868452434
 20
17.3463593068
 10
23.1095634129
 20
17.4007842605
 10
23.0309920015
 20
17.4531703946
 10
22.9509116141
 20
17.5036489504
 10
22.8696890245
 20
17.5519639399
 10
22.7873233816
 20
17.5981061942
 10
22.7038020563
 20
17.6420439227
 10
22.6192956592
 20
17.6836916652
 10
22.5340810464
 20
17.7229684236
 10
22.4482489418
 20
17.7598424826
 10
22.3618796006
 20
17.7942674772
 10
22.2752392316
 20
17.8261683951
 10
22.1884748343
 20
17.8555132737
 10
22.1016123005
 20
17.8822991179
 10
22.0147365252
 20
17.9065110164
  0
LWPOLYLINE
  5
3B4
100
AcDbEntity
  8
PLACCA_PRT
100
AcDbPolyline
 62
7
  6
CONTINUOUS
 90
10
 70
0
 10
24.3839841475
 20
15.9267298563
 10
24.4505472771
 20
15.7790118375
 10
24.5091043167
 20
15.6299491282
 10
24.5594320186
 20
15.4799929105
 10
24.6013179095
 20
15.3295661889
 10
24.6346023782
 20
15.1791561142
 10
24.6591860923
 20
15.0293110694
 10
24.6749724264
 20
14.8805141392
 10
24.681861181
 20
14.7331830421
 10
24.6797949748
 20
14.5877614561
  0
LWPOLYLINE
  5
3B5
100
AcDbEntity
  8
PLACCA_PRT
100
AcDbPolyline
 62
250
  6
CONTINUOUS
 90
7
 70
0
 10
35.4012491483
 20
-38.2116717737
 10
35.4125875633
 20
-38.2863010853
 10
35.4292695384
 20
-38.3509478386
 10
35.4510741413
 20
-38.4047558739
 10
35.4777125979
 20
-38.4470125755
 10
35.5088321162
 20
-38.47715831
 10
35.5464972232
 20
-38.4955172736
  0
LINE
  5
3B6
100
AcDbEntity
  8
PLACCA_PRT
100
AcDbLine
 62
250
  6
CONTINUOUS
 10
38.2171754153
 20
-36.9552686568
 11
38.2072234939
 21
-36.7857946212
  0
LWPOLYLINE
  5
3B7
100
AcDbEntity
  8
PLACCA_PRT
100
AcDbPolyline
 62
250
  6
CONTINUOUS
 90
3
 70
0
 10
38.2072234939
 20
-36.7857946212
 10
38.1991077825
 20
-36.6347179955
 10
38.1973448114
 20
-36.599829477
  0
LWPOLYLINE
  5
3B8
100
AcDbEntity
  8
PLACCA_PRT
100
AcDbPolyline
 62
250
  6
CONTINUOUS
 90
3
 70
0
 10
35.6776143942
 20
18.7146208492
 10
35.6696483273
 20
18.9381773534
 10
35.6610956615
 20
19.1708667211
  0
LINE
  5
3B9
100
AcDbEntity
  8
PLACCA_PRT
100
AcDbLine
 62
250
  6
CONTINUOUS
 10
35.6610956615
 20
19.1708667211
 11
35.6599069869
 21
19.2055788128
  0
LINE
  5
3BA
100
AcDbEntity
  8
PLACCA_PRT
100
AcDbLine
 62
250
  6
CONTINUOUS
 10
35.8505614895
 20
13.7694942166
 11
35.7744789558
 21
16.0503207
  0
LWPOLYLINE
  5
3BB
100
AcDbEntity
  8
PLACCA_PRT
100
AcDbPolyline
 62
250
  6
CONTINUOUS
 90
9
 70
0
 10
35.6599069869
 20
19.2055788128
 10
35.6581138006
 20
19.2711588061
 10
35.6570245756
 20
19.3029355331
 10
35.6557014455
 20
19.3342930795
 10
35.654141559
 20
19.3653501131
 10
35.6519748022
 20
19.3969227033
 10
35.6489011638
 20
19.429131552
 10
35.645246301
 20
19.4618709855
 10
35.6415810535
 20
19.4956300931
  0
LINE
  5
3BC
100
AcDbEntity
  8
PLACCA_PRT
100
AcDbLine
 62
250
  6
CONTINUOUS
 10
36.935505324
 20
-29.560420768
 11
35.8505614895
 21
13.7694942166
  0
LINE
  5
3BD
100
AcDbEntity
  8
PLACCA_PRT
100
AcDbLine
 62
250
  6
CONTINUOUS
 10
37.044112896
 20
-36.4451055049
 11
37.0434879522
 21
-36.4150323111
  0
LINE
  5
3BE
100
AcDbEntity
  8
PLACCA_PRT
100
AcDbLine
 62
250
  6
CONTINUOUS
 10
36.9480365192
 20
-30.1561171331
 11
36.935505324
 21
-29.560420768
  0
LWPOLYLINE
  5
3BF
100
AcDbEntity
  8
PLACCA_PRT
100
AcDbPolyline
 62
250
  6
CONTINUOUS
 90
13
 70
0
 10
33.9003621982
 20
22.1215702432
 10
33.907344059
 20
22.2220384026
 10
33.9197969557
 20
22.327371094
 10
33.9375559624
 20
22.4361732935
 10
33.9603858787
 20
22.5470040272
 10
33.9879843457
 20
22.6583954552
 10
34.0199858495
 20
22.7688723118
 10
34.0559665627
 20
22.8769714441
 10
34.0954499573
 20
22.9812611895
 10
34.1379131161
 20
23.0803603367
 10
34.1827936578
 20
23.1729564188
 10
34.2294971853
 20
23.2578230954
 10
34.2774051576
 20
23.3338363939
  0
LWPOLYLINE
  5
3C0
100
AcDbEntity
  8
PORTELLO
100
AcDbPolyline
 62
7
  6
CONTINUOUS
 90
19
 70
0
 10
19.7469655241
 20
-27.4920019592
 10
19.7617044199
 20
-27.4700662185
 10
19.7733192287
 20
-27.444347543
 10
19.7806797789
 20
-27.4164791699
 10
19.7837133249
 20
-27.3870405962
 10
19.7824695921
 20
-27.3563023077
 10
19.7769589018
 20
-27.3243847545
 10
19.7671076211
 20
-27.291521213
 10
19.7529987561
 20
-27.2583538659
 10
19.7349681114
 20
-27.2256159056
 10
19.7134240015
 20
-27.193939361
 10
19.6886018501
 20
-27.1635747585
 10
19.6606858188
 20
-27.1346813597
 10
19.6298735855
 20
-27.1075658965
 10
19.5966679046
 20
-27.0827678514
 10
19.5617442443
 20
-27.0607489775
 10
19.525669113
 20
-27.0418205916
 10
19.488851367
 20
-27.0261924759
 10
19.4517834176
 20
-27.0140582947
  0
LINE
  5
3C1
100
AcDbEntity
  8
PORTELLO
100
AcDbLine
 62
7
  6
CONTINUOUS
 10
18.0269216819
 20
-28.3764542012
 11
18.0405655039
 21
-28.3593565876
  0
LINE
  5
3C2
100
AcDbEntity
  8
PORTELLO
100
AcDbLine
 62
7
  6
CONTINUOUS
 10
18.8364586937
 20
-27.3687481581
 11
18.8501013556
 21
-27.3516519982
  0
LINE
  5
3C3
100
AcDbEntity
  8
PORTELLO
100
AcDbLine
 62
7
  6
CONTINUOUS
 10
19.5068863127
 20
-26.62792045
 11
19.5205284603
 21
-26.6108249347
  0
LINE
  5
3C4
100
AcDbEntity
  8
PORTELLO
100
AcDbLine
 62
7
  6
CONTINUOUS
 10
19.4757644536
 20
-27.54825097
 11
19.489408098
 21
-27.5311535789
  0
LINE
  5
3C5
100
AcDbEntity
  8
PORTELLO
100
AcDbLine
 62
7
  6
CONTINUOUS
 10
18.9021468974
 20
-28.6230521575
 11
18.9157920227
 21
-28.6059529105
  0
LINE
  5
3C6
100
AcDbEntity
  8
PORTELLO
100
AcDbLine
 62
7
  6
CONTINUOUS
 10
20.2647114485
 20
-27.8152440206
 11
20.2510663841
 21
-27.8323431911
  0
LINE
  5
3C7
100
AcDbEntity
  8
PORTELLO
100
AcDbLine
 62
7
  6
CONTINUOUS
 10
20.4811210781
 20
-29.0635508507
 11
20.494768902
 21
-29.0464482221
  0
LINE
  5
3C8
100
AcDbEntity
  8
PLACCA_PRT
100
AcDbLine
 62
7
  6
CONTINUOUS
 10
39.6440767741
 20
-2.9681893879
 11
38.6456120037
 21
-4.2136462847
  0
LWPOLYLINE
  5
3C9
100
AcDbEntity
  8
PORTELLO
100
AcDbPolyline
 62
7
  6
CONTINUOUS
 90
9
 70
0
 10
20.2510642594
 20
-27.8323458537
 10
20.2229351697
 20
-27.8640796791
 10
20.1854148074
 20
-27.8979364594
 10
20.1434663106
 20
-27.9276882548
 10
20.0973817253
 20
-27.9531368472
 10
20.0474493327
 20
-27.9741241448
 10
19.9939961451
 20
-27.9905071809
 10
19.9373940274
 20
-28.0021690414
 10
19.878026157
 20
-28.0090304665
  0
LINE
  5
3CA
100
AcDbEntity
  8
PORTELLO
100
AcDbLine
 62
250
  6
CONTINUOUS
 10
25.2385164317
 20
-26.1762332176
 11
23.1713811769
 21
-28.4661027287
  0
LINE
  5
3CB
100
AcDbEntity
  8
PLACCA_PRT
100
AcDbLine
 62
7
  6
CONTINUOUS
 10
38.7806285204
 20
-9.6410977979
 11
39.7858432421
 21
-8.6669783179
  0
LWPOLYLINE
  5
3CC
100
AcDbEntity
  8
PLACCA_PRT
100
AcDbPolyline
 62
250
  6
CONTINUOUS
 90
22
 70
0
 10
-32.0736923194
 20
42.3815650066
 10
-32.1936949149
 20
42.4141766161
 10
-32.3132210564
 20
42.4386899839
 10
-32.4315066921
 20
42.4549372463
 10
-32.5478562999
 20
42.4628288859
 10
-32.6616551025
 20
42.4623599666
 10
-32.7722935761
 20
42.4535283599
 10
-32.8791957827
 20
42.4363613441
 10
-32.981766961
 20
42.4109653045
 10
-33.0793782562
 20
42.3774795076
 10
-33.171481589
 20
42.3360595297
 10
-33.2576291526
 20
42.2869386525
 10
-33.3373581771
 20
42.2303965752
 10
-33.4102450521
 20
42.1667083909
 10
-33.4759463546
 20
42.0962181204
 10
-33.5341453203
 20
42.0193321993
 10
-33.5845486641
 20
41.9364429627
 10
-33.6269319661
 20
41.847962985
 10
-33.6611322704
 20
41.7543519964
 10
-33.6869983859
 20
41.6560610291
 10
-33.7044194851
 20
41.55358127
 10
-33.7133595152
 20
41.447517657
  0
LINE
  5
3CD
100
AcDbEntity
  8
PLACCA_PRT
100
AcDbLine
 62
250
  6
CONTINUOUS
 10
-31.5954357175
 20
42.2430438281
 11
-31.6573876908
 21
42.2599446934
  0
LINE
  5
3CE
100
AcDbEntity
  8
PLACCA_PRT
100
AcDbLine
 62
250
  6
CONTINUOUS
 10
34.2774051576
 20
23.3338363939
 11
34.1159429725
 21
23.3789579326
  0
LINE
  5
3CF
100
AcDbEntity
  8
PLACCA_PRT
100
AcDbLine
 62
250
  6
CONTINUOUS
 10
-31.6573876908
 20
42.2599446934
 11
-31.7501591427
 21
42.2859015105
  0
LINE
  5
3D0
100
AcDbEntity
  8
PLACCA_PRT
100
AcDbLine
 62
250
  6
CONTINUOUS
 10
34.1159429725
 20
23.3789579326
 11
33.977028308
 21
23.4185503602
  0
LINE
  5
3D1
100
AcDbEntity
  8
PLACCA_PRT
100
AcDbLine
 62
250
  6
CONTINUOUS
 10
-31.7501591427
 20
42.2859015105
 11
-31.8141070468
 21
42.3042918274
  0
LWPOLYLINE
  5
3D2
100
AcDbEntity
  8
PLACCA_PRT
100
AcDbPolyline
 62
250
  6
CONTINUOUS
 90
3
 70
0
 10
-31.532911781
 20
42.2252579449
 10
-31.5642954934
 20
42.2343671556
 10
-31.5954357175
 20
42.2430438281
  0
LINE
  5
3D3
100
AcDbEntity
  8
PLACCA_PRT
100
AcDbLine
 62
250
  6
CONTINUOUS
 10
33.977028308
 20
23.4185503602
 11
33.8522933314
 21
23.4547872273
  0
LWPOLYLINE
  5
3D4
100
AcDbEntity
  8
PLACCA_PRT
100
AcDbPolyline
 62
250
  6
CONTINUOUS
 90
16
 70
0
 10
-31.6321439191
 20
43.5740203865
 10
-31.8141160265
 20
43.6272911897
 10
-31.9950905933
 20
43.6679649271
 10
-32.1740400906
 20
43.6958151731
 10
-32.3499474713
 20
43.7106657813
 10
-32.5218157751
 20
43.7124539085
 10
-32.688670727
 20
43.7012197385
 10
-32.849592894
 20
43.6770174869
 10
-33.003628284
 20
43.6399565003
 10
-33.1498088652
 20
43.5902768138
 10
-33.2872893487
 20
43.5282783411
 10
-33.4153205452
 20
43.4542955908
 10
-33.5331715896
 20
43.3687486991
 10
-33.6401786186
 20
43.2721383436
 10
-33.7357631776
 20
43.1649974964
 10
-33.7935218275
 20
43.0870804008
  0
LINE
  5
3D5
100
AcDbEntity
  8
PLACCA_PRT
100
AcDbLine
 62
250
  6
CONTINUOUS
 10
-31.8141070468
 20
42.3042918274
 11
-31.9179477156
 21
42.3347277054
  0
LINE
  5
3D6
100
AcDbEntity
  8
PLACCA_PRT
100
AcDbLine
 62
250
  6
CONTINUOUS
 10
33.8522933314
 20
23.4547872273
 11
28.142891952
 21
25.1476596787
  0
LINE
  5
3D7
100
AcDbEntity
  8
PLACCA_PRT
100
AcDbLine
 62
250
  6
CONTINUOUS
 10
28.142891952
 20
25.1476596787
 11
24.4458735396
 21
26.2524966834
  0
LWPOLYLINE
  5
3D8
100
AcDbEntity
  8
PLACCA_PRT
100
AcDbPolyline
 62
250
  6
CONTINUOUS
 90
3
 70
0
 10
-31.9179477156
 20
42.3347277054
 10
-32.0328804605
 20
42.3691604853
 10
-32.0736937686
 20
42.381563667
  0
LINE
  5
3D9
100
AcDbEntity
  8
PLACCA_PRT
100
AcDbLine
 62
250
  6
CONTINUOUS
 10
24.4458735396
 20
26.2524966834
 11
22.867643765
 21
26.7274604134
  0
LWPOLYLINE
  5
3DA
100
AcDbEntity
  8
PLACCA_PRT
100
AcDbPolyline
 62
250
  6
CONTINUOUS
 90
3
 70
0
 10
-21.3137459802
 20
39.1384371263
 10
-25.6281641076
 20
40.4416607665
 10
-27.7094634381
 20
41.0667723381
  0
LWPOLYLINE
  5
3DB
100
AcDbEntity
  8
PLACCA_PRT
100
AcDbPolyline
 62
250
  6
CONTINUOUS
 90
3
 70
0
 10
-27.7094634381
 20
41.0667723381
 10
-27.8604146377
 20
41.1125793601
 10
-28.145394233
 20
41.1993603993
  0
LINE
  5
3DC
100
AcDbEntity
  8
PLACCA_PRT
100
AcDbLine
 62
250
  6
CONTINUOUS
 10
-28.145394233
 20
41.1993603993
 11
-30.5672552915
 21
41.9323515742
  0
LINE
  5
3DD
100
AcDbEntity
  8
PLACCA_PRT
100
AcDbLine
 62
250
  6
CONTINUOUS
 10
22.867643765
 20
26.7274604134
 11
21.4477075148
 21
27.1575890504
  0
LINE
  5
3DE
100
AcDbEntity
  8
PLACCA_PRT
100
AcDbLine
 62
250
  6
CONTINUOUS
 10
-30.5672552915
 20
41.9323515742
 11
-31.2993745842
 21
42.1545312626
  0
LINE
  5
3DF
100
AcDbEntity
  8
PLACCA_PRT
100
AcDbLine
 62
250
  6
CONTINUOUS
 10
-18.459087158
 20
38.2720225539
 11
-21.3137459802
 21
39.1384371263
  0
LINE
  5
3E0
100
AcDbEntity
  8
PLACCA_PRT
100
AcDbLine
 62
250
  6
CONTINUOUS
 10
21.4477075148
 20
27.1575890504
 11
19.8751316258
 21
27.6369082951
  0
LINE
  5
3E1
100
AcDbEntity
  8
PLACCA_PRT
100
AcDbLine
 62
250
  6
CONTINUOUS
 10
-9.2120179674
 20
36.5745922925
 11
-15.5266615323
 21
38.5075585338
  0
LINE
  5
3E2
100
AcDbEntity
  8
PLACCA_PRT
100
AcDbLine
 62
250
  6
CONTINUOUS
 10
19.8751316258
 20
27.6369082951
 11
18.136695503
 21
28.169824345
  0
LINE
  5
3E3
100
AcDbEntity
  8
PLACCA_PRT
100
AcDbLine
 62
7
  6
CONTINUOUS
 10
36.2714283089
 20
26.0169727942
 11
-29.6381207677
 21
46.2571567867
  0
LINE
  5
3E4
100
AcDbEntity
  8
PLACCA_PRT
100
AcDbLine
 62
250
  6
CONTINUOUS
 10
-15.5266615323
 20
38.5075585338
 11
-17.5966459745
 21
39.1444688669
  0
LWPOLYLINE
  5
3E5
100
AcDbEntity
  8
PLACCA_PRT
100
AcDbPolyline
 62
250
  6
CONTINUOUS
 90
3
 70
0
 10
18.136695503
 20
28.169824345
 10
14.6029903548
 20
29.2586476157
 10
-9.2120179674
 20
36.5745922925
  0
LINE
  5
3E6
100
AcDbEntity
  8
PLACCA_PRT
100
AcDbLine
 62
250
  6
CONTINUOUS
 10
-17.5966459745
 20
39.1444688669
 11
-19.3738569047
 21
39.6950167066
  0
LINE
  5
3E7
100
AcDbEntity
  8
PLACCA_PRT
100
AcDbLine
 62
250
  6
CONTINUOUS
 10
-19.3738569047
 20
39.6950167066
 11
-20.9140304398
 21
40.1754604201
  0
LINE
  5
3E8
100
AcDbEntity
  8
PLACCA_PRT
100
AcDbLine
 62
250
  6
CONTINUOUS
 10
-20.9140304398
 20
40.1754604201
 11
-22.5705463404
 21
40.6956751482
  0
LINE
  5
3E9
100
AcDbEntity
  8
PLACCA_PRT
100
AcDbLine
 62
250
  6
CONTINUOUS
 10
29.4565713159
 20
23.5118210519
 11
27.7506244194
 21
24.0477989209
  0
LWPOLYLINE
  5
3EA
100
AcDbEntity
  8
PLACCA_PRT
100
AcDbPolyline
 62
250
  6
CONTINUOUS
 90
3
 70
0
 10
-22.5705463404
 20
40.6956751482
 10
-26.9737309328
 20
42.0878236379
 10
-27.1360709508
 20
42.1397012069
  0
LINE
  5
3EB
100
AcDbEntity
  8
PLACCA_PRT
100
AcDbLine
 62
250
  6
CONTINUOUS
 10
33.8137884543
 20
22.148521136
 11
33.6946569944
 21
22.1862716054
  0
LINE
  5
3EC
100
AcDbEntity
  8
PLACCA_PRT
100
AcDbLine
 62
250
  6
CONTINUOUS
 10
-27.1360709508
 20
42.1397012069
 11
-31.2630401056
 21
43.4517408611
  0
LINE
  5
3ED
100
AcDbEntity
  8
PLACCA_PRT
100
AcDbLine
 62
250
  6
CONTINUOUS
 10
33.6946569944
 20
22.1862716054
 11
33.5885351912
 21
22.2205833473
  0
LINE
  5
3EE
100
AcDbEntity
  8
PLACCA_PRT
100
AcDbLine
 62
250
  6
CONTINUOUS
 10
-31.2630401056
 20
43.4517408611
 11
-31.3829729238
 21
43.4908447828
  0
LWPOLYLINE
  5
3EF
100
AcDbEntity
  8
PLACCA_PRT
100
AcDbPolyline
 62
250
  6
CONTINUOUS
 90
3
 70
0
 10
-31.3829729238
 20
43.4908447828
 10
-31.5179961495
 20
43.5356103191
 10
-31.5548115659
 20
43.5479490597
  0
LINE
  5
3F0
100
AcDbEntity
  8
PLACCA_PRT
100
AcDbLine
 62
250
  6
CONTINUOUS
 10
33.5885351912
 20
22.2205833473
 11
33.5223515769
 21
22.2424994222
  0
LWPOLYLINE
  5
3F1
100
AcDbEntity
  8
PLACCA_PRT
100
AcDbPolyline
 62
250
  6
CONTINUOUS
 90
5
 70
0
 10
33.5223515769
 20
22.2424994222
 10
33.3925529172
 20
22.2863365373
 10
33.3597222343
 20
22.2972231563
 10
33.3265809547
 20
22.3078343252
 10
33.2931650195
 20
22.3182821456
  0
LWPOLYLINE
  5
3F2
100
AcDbEntity
  8
PLACCA_PRT
100
AcDbPolyline
 62
7
  6
CONTINUOUS
 90
22
 70
0
 10
36.2714283089
 20
26.0169727942
 10
36.4731460799
 20
25.948270321
 10
36.6718603955
 20
25.8679484623
 10
36.8675712558
 20
25.7760072179
 10
37.0613357943
 20
25.6718039834
 10
37.2520968774
 20
25.5559813633
 10
37.4366831048
 20
25.4304671713
 10
37.6149919845
 20
25.2950980041
 10
37.7871260085
 20
25.150037265
 10
37.9502212521
 20
24.9977029776
 10
38.1041234969
 20
24.8379764452
 10
38.2489869613
 20
24.6709763646
 10
38.3824103761
 20
24.4994768495
 10
38.5042033391
 20
24.3234031235
 10
38.6145562525
 20
24.142829963
 10
38.7116390532
 20
23.960755812
 10
38.7952306863
 20
23.7771584052
 10
38.8655522067
 20
23.5920600079
 10
38.9214367158
 20
23.4085258593
 10
38.9624952474
 20
23.227577706
 10
38.9891167678
 20
23.0481938016
 10
39.0013012768
 20
22.8703741459
  0
LWPOLYLINE
  5
3F3
100
AcDbEntity
  8
PLACCA_PRT
100
AcDbPolyline
 62
250
  6
CONTINUOUS
 90
7
 70
0
 10
35.6415810535
 20
19.4956300931
 10
35.6345642288
 20
19.5656952118
 10
35.6311539396
 20
19.6026714493
 10
35.6278749852
 20
19.641442549
 10
35.6246988359
 20
19.6817634444
 10
35.6216280757
 20
19.7235624344
 10
35.6186649752
 20
19.7668927961
  0
LWPOLYLINE
  5
3F4
100
AcDbEntity
  8
PLACCA_PRT
100
AcDbPolyline
 62
250
  6
CONTINUOUS
 90
22
 70
0
 10
35.5989269438
 20
20.1623859796
 10
35.5901693442
 20
20.2738843837
 10
35.5722380335
 20
20.3872205874
 10
35.545277043
 20
20.5017342808
 10
35.5094840113
 20
20.6168395409
 10
35.4650870061
 20
20.7319688889
 10
35.4123258038
 20
20.8465389403
 10
35.3514876908
 20
20.9599799881
 10
35.2829161563
 20
21.0717041448
 10
35.2069785204
 20
21.1810948934
 10
35.1240604533
 20
21.2875843125
 10
35.0346140893
 20
21.3906283774
 10
34.9391303715
 20
21.4896545143
 10
34.8380800913
 20
21.5841473501
 10
34.7320211709
 20
21.6736116662
 10
34.6215910927
 20
21.7575193162
 10
34.5073895277
 20
21.8353971158
 10
34.3899779307
 20
21.9068685041
 10
34.269943671
 20
21.9715680548
 10
34.1478789121
 20
22.0291300638
 10
34.0244454892
 20
22.0792272187
 10
33.9003634477
 20
22.1215716346
  0
LINE
  5
3F5
100
AcDbEntity
  8
PLACCA_PRT
100
AcDbLine
 62
250
  6
CONTINUOUS
 10
35.6186649752
 20
19.7668927961
 11
35.6130734121
 21
19.8577705648
  0
LINE
  5
3F6
100
AcDbEntity
  8
PLACCA_PRT
100
AcDbLine
 62
250
  6
CONTINUOUS
 10
35.6130734121
 20
19.8577705648
 11
35.6079529956
 21
19.9533783596
  0
LWPOLYLINE
  5
3F7
100
AcDbEntity
  8
PLACCA_PRT
100
AcDbPolyline
 62
250
  6
CONTINUOUS
 90
22
 70
0
 10
36.7898579527
 20
20.4206473408
 10
36.7822033807
 20
20.5865117991
 10
36.7604982381
 20
20.7553828754
 10
36.7248663996
 20
20.9263327737
 10
36.675485876
 20
21.0983843012
 10
36.6126576223
 20
21.2706182773
 10
36.5367991005
 20
21.4421805567
 10
36.4483351705
 20
21.6121408335
 10
36.3477497617
 20
21.7795235778
 10
36.2356532533
 20
21.9434185073
 10
36.112677495
 20
22.1029209771
 10
35.9795039055
 20
22.2571171865
 10
35.8369172167
 20
22.4051215745
 10
35.6857115044
 20
22.5461257108
 10
35.5267435277
 20
22.6793069991
 10
35.3609800646
 20
22.8038312428
 10
35.1894157325
 20
22.9189906958
 10
35.0129663834
 20
23.0241675448
 10
34.8325337496
 20
23.1187455025
 10
34.6490971377
 20
23.2021805199
 10
34.4637102746
 20
23.2740128287
 10
34.2774051576
 20
23.3338363939
  0
LINE
  5
3F8
100
AcDbEntity
  8
PLACCA_PRT
100
AcDbLine
 62
250
  6
CONTINUOUS
 10
38.1973448114
 20
-36.599829477
 11
38.1912827104
 21
-36.4717080826
  0
LINE
  5
3F9
100
AcDbEntity
  8
PLACCA_PRT
100
AcDbLine
 62
250
  6
CONTINUOUS
 10
35.6079529956
 20
19.9533783596
 11
35.6032366614
 21
20.0548302245
  0
LINE
  5
3FA
100
AcDbEntity
  8
PLACCA_PRT
100
AcDbLine
 62
250
  6
CONTINUOUS
 10
38.1912827104
 20
-36.4717080826
 11
38.1864483344
 21
-36.3559773774
  0
LINE
  5
3FB
100
AcDbEntity
  8
PLACCA_PRT
100
AcDbLine
 62
250
  6
CONTINUOUS
 10
35.6032366614
 20
20.0548302245
 11
35.5989252922
 21
20.1623831296
  0
LINE
  5
3FC
100
AcDbEntity
  8
PLACCA_PRT
100
AcDbLine
 62
250
  6
CONTINUOUS
 10
35.7744789558
 20
16.0503207
 11
35.6776143942
 21
18.7146208492
  0
LINE
  5
3FD
100
AcDbEntity
  8
PLACCA_PRT
100
AcDbLine
 62
250
  6
CONTINUOUS
 10
38.1864483344
 20
-36.3559773774
 11
38.1824040525
 21
-36.2433033472
  0
LINE
  5
3FE
100
AcDbEntity
  8
PLACCA_PRT
100
AcDbLine
 62
250
  6
CONTINUOUS
 10
38.1824040525
 20
-36.2433033472
 11
38.0993703735
 21
-33.7354224292
  0
LINE
  5
3FF
100
AcDbEntity
  8
PLACCA_PRT
100
AcDbLine
 62
250
  6
CONTINUOUS
 10
38.0993703735
 20
-33.7354224292
 11
38.0870689669
 21
-33.3499796807
  0
LINE
  5
400
100
AcDbEntity
  8
PLACCA_PRT
100
AcDbLine
 62
250
  6
CONTINUOUS
 10
38.0870689669
 20
-33.3499796807
 11
38.0435572718
 21
-31.9278263467
  0
LINE
  5
401
100
AcDbEntity
  8
PLACCA_PRT
100
AcDbLine
 62
250
  6
CONTINUOUS
 10
38.0435572718
 20
-31.9278263467
 11
37.9994853109
 21
-30.3812874935
  0
LINE
  5
402
100
AcDbEntity
  8
PLACCA_PRT
100
AcDbLine
 62
250
  6
CONTINUOUS
 10
37.9994853109
 20
-30.3812874935
 11
37.8917665422
 21
-26.3244930049
  0
LINE
  5
403
100
AcDbEntity
  8
PLACCA_PRT
100
AcDbLine
 62
250
  6
CONTINUOUS
 10
37.8917665422
 20
-26.3244930049
 11
37.7477565074
 21
-20.7690217523
  0
LINE
  5
404
100
AcDbEntity
  8
PLACCA_PRT
100
AcDbLine
 62
250
  6
CONTINUOUS
 10
37.7477565074
 20
-20.7690217523
 11
37.597380139
 21
-14.8521838636
  0
LINE
  5
405
100
AcDbEntity
  8
PLACCA_PRT
100
AcDbLine
 62
250
  6
CONTINUOUS
 10
37.597380139
 20
-14.8521838636
 11
37.3799820854
 21
-6.1457020619
  0
LINE
  5
406
100
AcDbEntity
  8
PLACCA_PRT
100
AcDbLine
 62
7
  6
CONTINUOUS
 10
38.6456120037
 20
-4.2136462847
 11
38.7806285204
 21
-9.6410977979
  0
LINE
  5
407
100
AcDbEntity
  8
PLACCA_PRT
100
AcDbLine
 62
7
  6
CONTINUOUS
 10
40.4286187394
 20
-34.5055418517
 11
39.7858432421
 21
-8.6669783179
  0
LINE
  5
408
100
AcDbEntity
  8
PLACCA_PRT
100
AcDbLine
 62
7
  6
CONTINUOUS
 10
39.6440767741
 20
-2.9681893879
 11
39.0013012768
 21
22.8703741459
  0
LINE
  5
409
100
AcDbEntity
  8
PLACCA_PRT
100
AcDbLine
 62
250
  6
CONTINUOUS
 10
37.3799820854
 20
-6.1457020619
 11
37.2026141913
 21
1.0655390321
  0
LINE
  5
40A
100
AcDbEntity
  8
PLACCA_PRT
100
AcDbLine
 62
250
  6
CONTINUOUS
 10
37.2026141913
 20
1.0655390321
 11
37.0267866718
 21
8.3821100357
  0
LINE
  5
40B
100
AcDbEntity
  8
PLACCA_PRT
100
AcDbLine
 62
250
  6
CONTINUOUS
 10
37.0267866718
 20
8.3821100357
 11
36.9240637731
 21
12.7618943217
  0
LINE
  5
40C
100
AcDbEntity
  8
PLACCA_PRT
100
AcDbLine
 62
250
  6
CONTINUOUS
 10
36.9240637731
 20
12.7618943217
 11
36.876959829
 21
14.8996344125
  0
LINE
  5
40D
100
AcDbEntity
  8
PLACCA_PRT
100
AcDbLine
 62
250
  6
CONTINUOUS
 10
36.876959829
 20
14.8996344125
 11
36.8439110001
 21
16.585232036
  0
LINE
  5
40E
100
AcDbEntity
  8
PLACCA_PRT
100
AcDbLine
 62
250
  6
CONTINUOUS
 10
36.8439110001
 20
16.585232036
 11
36.8081660428
 21
18.6556136997
  0
LINE
  5
40F
100
AcDbEntity
  8
PLACCA_PRT
100
AcDbLine
 62
250
  6
CONTINUOUS
 10
36.9865319603
 20
-32.2525449177
 11
36.9480365192
 21
-30.1561171331
  0
LINE
  5
410
100
AcDbEntity
  8
PLACCA_PRT
100
AcDbLine
 62
250
  6
CONTINUOUS
 10
37.0434879522
 20
-36.4150323111
 11
37.042447993
 21
-36.3526476685
  0
LINE
  5
411
100
AcDbEntity
  8
PLACCA_PRT
100
AcDbLine
 62
250
  6
CONTINUOUS
 10
36.8081660428
 20
18.6556136997
 11
36.7897998775
 21
19.7869261791
  0
LINE
  5
412
100
AcDbEntity
  8
PLACCA_PRT
100
AcDbLine
 62
250
  6
CONTINUOUS
 10
37.042447993
 20
-36.3526476685
 11
36.9865319603
 21
-32.2525449177
  0
LINE
  5
413
100
AcDbEntity
  8
PLACCA_PRT
100
AcDbLine
 62
250
  6
CONTINUOUS
 10
36.7897998775
 20
19.7869261791
 11
36.7888991362
 21
19.8867759955
  0
LINE
  5
414
100
AcDbEntity
  8
PLACCA_PRT
100
AcDbLine
 62
250
  6
CONTINUOUS
 10
37.0282325755
 20
-37.2935201497
 11
37.0274792416
 21
-37.2048477521
  0
LINE
  5
415
100
AcDbEntity
  8
PLACCA_PRT
100
AcDbLine
 62
250
  6
CONTINUOUS
 10
36.7888991362
 20
19.8867759955
 11
36.788301966
 21
20.0418939676
  0
LINE
  5
416
100
AcDbEntity
  8
PLACCA_PRT
100
AcDbLine
 62
250
  6
CONTINUOUS
 10
37.0274792416
 20
-37.2048477521
 11
37.0272820647
 21
-37.1207551496
  0
LINE
  5
417
100
AcDbEntity
  8
PLACCA_PRT
100
AcDbLine
 62
250
  6
CONTINUOUS
 10
36.788301966
 20
20.0418939676
 11
36.7885649887
 21
20.2198266985
  0
LINE
  5
418
100
AcDbEntity
  8
PLACCA_PRT
100
AcDbLine
 62
250
  6
CONTINUOUS
 10
37.0272820647
 20
-37.1207551496
 11
37.0276237631
 21
-37.0412364943
  0
LINE
  5
419
100
AcDbEntity
  8
PLACCA_PRT
100
AcDbLine
 62
250
  6
CONTINUOUS
 10
36.7885649887
 20
20.2198266985
 11
36.7898579527
 21
20.4206473408
  0
LINE
  5
41A
100
AcDbEntity
  8
PLACCA_PRT
100
AcDbLine
 62
250
  6
CONTINUOUS
 10
37.0276237631
 20
-37.0412364943
 11
37.0284926309
 21
-36.9661935122
  0
LWPOLYLINE
  5
41B
100
AcDbEntity
  8
PLACCA_PRT
100
AcDbPolyline
 62
250
  6
CONTINUOUS
 90
8
 70
0
 10
37.0284926309
 20
-36.9661935122
 10
37.0298697496
 20
-36.8958678853
 10
37.0307422913
 20
-36.8625038541
 10
37.0317523142
 20
-36.8300194936
 10
37.0329013786
 20
-36.7984681808
 10
37.0341849875
 20
-36.7677993095
 10
37.0356112097
 20
-36.7375611038
 10
37.0372507047
 20
-36.7077263957
  0
LWPOLYLINE
  5
41C
100
AcDbEntity
  8
PLACCA_PRT
100
AcDbPolyline
 62
250
  6
CONTINUOUS
 90
4
 70
0
 10
37.0442747929
 20
-36.5909282643
 10
37.0454143169
 20
-36.5619350378
 10
37.0455966843
 20
-36.5328864311
 10
37.044112896
 20
-36.4451055049
  0
LINE
  5
41D
100
AcDbEntity
  8
PLACCA_PRT
100
AcDbLine
 62
250
  6
CONTINUOUS
 10
37.0372507047
 20
-36.7077263957
 11
37.0442747929
 21
-36.5909282643
  0
LWPOLYLINE
  5
41E
100
AcDbEntity
  8
PORTELLO
100
AcDbPolyline
 62
7
  6
CONTINUOUS
 90
9
 70
0
 10
24.8453723843
 20
-27.3038093223
 10
24.9094046839
 20
-27.2295108516
 10
24.9984265965
 20
-27.1051259991
 10
25.0742242078
 20
-26.9701149875
 10
25.1367079481
 20
-26.825030572
 10
25.184515293
 20
-26.6728067842
 10
25.2171920678
 20
-26.5144216344
 10
25.2351924474
 20
-26.3488971122
 10
25.2385164317
 20
-26.1762332176
  0
LINE
  5
41F
100
AcDbEntity
  8
PORTELLO
100
AcDbLine
 62
7
  6
CONTINUOUS
 10
24.8453098797
 20
-27.3038770366
 11
22.8156974282
 21
-29.5025139343
  0
LWPOLYLINE
  5
420
100
AcDbEntity
  8
PORTELLO
100
AcDbPolyline
 62
250
  6
CONTINUOUS
 90
16
 70
0
 10
23.1713677171
 20
-28.4660980171
 10
23.0914238345
 20
-28.5499098095
 10
22.9996612884
 20
-28.6285016097
 10
22.8969700692
 20
-28.7011111682
 10
22.7843461625
 20
-28.7670342562
 10
22.6628818899
 20
-28.8256314962
 10
22.5337553141
 20
-28.8763345627
 10
22.3982188131
 20
-28.9186516946
 10
22.2575869342
 20
-28.9521724647
 10
22.1132236435
 20
-28.9765717604
 10
21.9665290976
 20
-28.9916129368
 10
21.8189260638
 20
-28.9971501117
 10
21.6718461205
 20
-28.9931295812
 10
21.5267157726
 20
-28.9795903396
 10
21.3849426165
 20
-28.956663702
 10
21.2479016874
 20
-28.9245720302
  0
LWPOLYLINE
  5
421
100
AcDbEntity
  8
PLACCA_PRT
100
AcDbPolyline
 62
7
  6
CONTINUOUS
 90
16
 70
0
 10
-29.6381207677
 20
46.2571567867
 10
-29.8394498597
 20
46.3122314443
 10
-30.0371543921
 20
46.3536543409
 10
-30.231234365
 20
46.3814254763
 10
-30.4227317267
 20
46.3955476599
 10
-30.6106045289
 20
46.3960180825
 10
-30.7917269265
 20
46.3828283163
 10
-30.9659849037
 20
46.3557498239
 10
-31.1334924762
 20
46.3150111429
 10
-31.2914658471
 20
46.2612894581
 10
-31.439745884
 20
46.1943677401
 10
-31.5784917191
 20
46.1144630184
 10
-31.705396952
 20
46.0229035662
 10
-31.8202635694
 20
45.9194947417
 10
-31.9232895845
 20
45.8044311868
 10
-31.9853770929
 20
45.7210370154
  0
LWPOLYLINE
  5
422
100
AcDbEntity
  8
PLACCA_PRT
100
AcDbPolyline
 62
7
  6
CONTINUOUS
 90
9
 70
0
 10
40.0354728069
 20
-35.6331199988
 10
40.0996430313
 20
-35.5583189006
 10
40.1891160835
 20
-35.4335128141
 10
40.2648097828
 20
-35.2988003246
 10
40.3269505191
 20
-35.1543453035
 10
40.374505102
 20
-35.0025515643
 10
40.4071291346
 20
-34.8442203782
 10
40.4251670137
 20
-34.678550474
 10
40.4286187394
 20
-34.5055418517
  0
LWPOLYLINE
  5
423
100
AcDbEntity
  8
PLACCA_PRT
100
AcDbPolyline
 62
250
  6
CONTINUOUS
 90
9
 70
0
 10
37.8699934948
 20
-37.978938641
 10
37.9290489979
 20
-37.9102249817
 10
38.0104425416
 20
-37.795966857
 10
38.078974851
 20
-37.6730269523
 10
38.1342620035
 20
-37.5421205642
 10
38.1759282603
 20
-37.4040707273
 10
38.2037158927
 20
-37.2596958802
 10
38.2174913663
 20
-37.1098067189
 10
38.2171754153
 20
-36.9552686568
  0
LINE
  5
424
100
AcDbEntity
  8
PLACCA_PRT
100
AcDbLine
 62
250
  6
CONTINUOUS
 10
40.4286187394
 20
-34.5055418517
 11
38.2171754153
 21
-36.9552686568
  0
LINE
  5
425
100
AcDbEntity
  8
PLACCA_PRT
100
AcDbLine
 62
7
  6
CONTINUOUS
 10
40.0354121874
 20
-35.6331856708
 11
37.8699886661
 21
-37.9789438718
  0
ELLIPSE
  5
426
100
AcDbEntity
  8
PLACCA_PRT
100
AcDbEllipse
 62
7
  6
CONTINUOUS
 10
-17.4277662466
 20
25.0228260112
 30
0.0
 11
1.0980166261
 21
3.742521316
 31
0.0
 40
0.3511651657
 41
-0.4994028861
 42
-0.1857200795
  0
ELLIPSE
  5
427
100
AcDbEntity
  8
PLACCA_PRT
100
AcDbEllipse
 62
7
  6
CONTINUOUS
 10
14.4591063823
 20
15.2306763455
 30
0.0
 11
1.1926751174
 21
3.7134451612
 31
0.0
 40
0.3750848984
 41
-0.4901798373
 42
-0.1764970307
  0
ENDSEC
  0
SECTION
  2
OBJECTS
  0
DICTIONARY
  5
C
100
AcDbDictionary
280
0
281
1
  3
ACAD_GROUP
350
D
  3
ACAD_MLINESTYLE
350
17
  3
ACAD_LAYOUT
350
1A
  3
ACAD_PLOTSETTINGS
350
19
  3
ACAD_PLOTSTYLENAME
350
E
  0
DICTIONARY
  5
D
102
{ACAD_REACTORS
330
C
102
}
100
AcDbDictionary
280
0
281
1
  0
ACDBDICTIONARYWDFLT
  5
E
102
{ACAD_REACTORS
330
C
102
}
100
AcDbDictionary
281
1
  3
Normal
350
F
100
AcDbDictionaryWithDefault
340
F
  0
DICTIONARY
  5
17
102
{ACAD_REACTORS
330
C
102
}
100
AcDbDictionary
280
0
281
1
  3
Standard
350
18
  0
DICTIONARY
  5
19
102
{ACAD_REACTORS
330
C
102
}
100
AcDbDictionary
281
1
  0
DICTIONARY
  5
1A
102
{ACAD_REACTORS
330
C
102
}
100
AcDbDictionary
281
1
  3
Model
350
428
  3
Layout1
350
429
  0
ACDBPLACEHOLDER
  5
F
102
{ACAD_REACTORS
330
E
102
}
  0
MLINESTYLE
  5
18
102
{ACAD_REACTORS
330
17
102
}
100
AcDbMlineStyle
  2
STANDARD
 70
0
  3

 62
256
 51
90.0
 52
90.0
 71
2
 49
0.5
 62
256
  6
BYLAYER
 49
-0.5
 62
256
  6
BYLAYER
  0
LAYOUT
  5
428
102
{ACAD_REACTORS
330
1A
102
}
100
AcDbPlotSettings
  1

  2
none_device
  4
ISO_A4_(297.00_x_210.00_MM)
  6

 40
0.0
 41
0.0
 42
0.0
 43
0.0
 44
297.0
 45
210.0
 46
0.0
 47
0.0
 48
0.0
 49
0.0
140
0.0
141
0.0
142
1.0
143
1.0
 70
1024
 72
1
 73
0
 74
0
  7

 75
0
147
1.0
148
0.0
149
0.0
100
AcDbLayout
  1
Model
 70
0
 71
0
 10
0.0
 20
0.0
 11
297.0
 21
210.0
 12
0.0
 22
0.0
 32
0.0
 14
0.0
 24
0.0
 34
0.0
 15
0.0
 25
0.0
 35
0.0
146
0.0
 13
0.0
 23
0.0
 33
0.0
 16
1.0
 26
0.0
 36
0.0
 17
0.0
 27
1.0
 37
0.0
 76
0
330
223
345
0
346
0
  0
LAYOUT
  5
429
102
{ACAD_REACTORS
330
1A
102
}
100
AcDbPlotSettings
  1

  2
none_device
  4
ISO_A4_(297.00_x_210.00_MM)
  6

 40
0.0
 41
0.0
 42
0.0
 43
0.0
 44
297.0
 45
210.0
 46
0.0
 47
0.0
 48
0.0
 49
0.0
140
0.0
141
0.0
142
1.0
143
1.0
 70
0
 72
1
 73
0
 74
0
  7

 75
0
147
1.0
148
0.0
149
0.0
100
AcDbLayout
  1
Layout1
 70
0
 71
1
 10
0.0
 20
0.0
 11
297.0
 21
210.0
 12
0.0
 22
0.0
 32
0.0
 14
0.0
 24
0.0
 34
0.0
 15
0.0
 25
0.0
 35
0.0
146
0.0
 13
0.0
 23
0.0
 33
0.0
 16
1.0
 26
0.0
 36
0.0
 17
0.0
 27
1.0
 37
0.0
 76
0
330
224
345
0
346
0
  0
ENDSEC
  0
EOF
