  0
SECTION
  2
HEADER
  9
$ACADVER
  1
AC1024
  9
$DWGCODEPAGE
  3
ANSI_1252
  9
$EXTMAX
 10
297.0
 20
210.0
 30
0.0
  9
$EXTMIN
 10
0.0
 20
0.0
 30
0.0
  9
$LIMMIN
 10
0.0
 20
0.0
  9
$LIMMAX
 10
297.0
 20
210.0
  9
$VIEWCTR
 10
148.5
 20
105.0
  9
$VIEWSIZE
 40
210.0
  9
$CLAYER
  8
0
  9
$LTSCALE
 40
16.335
  9
$CELTYPE
  6
BYLAYER
  9
$DIMSCALE
 40
1.0
  9
$DIMASZ
 40
3.0
  9
$DIMEXO
 40
0.5
  9
$DIMDLI
 40
11.286
  9
$DIMEXE
 40
1.5
  9
$DIMCEN
 40
2.673
  9
$DIMLFAC
 40
1.0
  9
$DIMBLK
  1
_FILLED
  9
$DIMALT
 70
0
  9
$DIMALTF
 40
0.0393700787
  9
$DIMTXT
 40
3.0
  9
$DIMTOL
 70
1
  9
$DIMLIM
 70
0
  9
$DIMTFAC
 40
1.0
  9
$DIMTP
 40
0.01
  9
$DIMTM
 40
0.01
  9
$DIMGAP
 40
0.625
  9
$DIMDSEP
 70
44
  9
$AUNITS
 70
0
  9
$PDMODE
 70
3
  9
$PDSIZE
 40
3.0
  9
$HANDSEED
  5
428
  9
$TILEMODE
 70
1
  9
$MEASUREMENT
 70
1
  9
$INSUNITS
 70
4
  0
ENDSEC
  0
SECTION
  2
CLASSES
  0
CLASS
  1
ACDBDICTIONARYWDFLT
  2
AcDbDictionaryWithDefault
  3
AutoCAD 2000
 90
0
 91
1
280
0
281
0
  0
CLASS
  1
ACDBPLACEHOLDER
  2
AcDbPlaceHolder
  3
AutoCAD 2000
 90
0
 91
1
280
0
281
0
  0
CLASS
  1
LAYOUT
  2
AcDbLayout
  3
AutoCAD 2000
 90
0
 91
0
280
0
281
0
  0
ENDSEC
  0
SECTION
  2
TABLES
  0
TABLE
  2
VPORT
  5
8
100
AcDbSymbolTable
 70
2
  0
VPORT
  5
1F4
100
AcDbSymbolTableRecord
100
AcDbViewportTableRecord
  2
*ACTIVE
 70
0
 10
0.0
 20
0.0
 11
1.0
 21
1.0
 12
148.5
 22
105.0
 13
0.0
 23
0.0
 14
1.0
 24
1.0
 15
0.0
 25
0.0
 16
0.0
 26
0.0
 36
1.0
 17
0.0
 27
0.0
 37
0.0
 40
210.0
 41
1.4142857143
 42
50.0
 43
0.0
 44
0.0
 50
0.0
 51
0.0
 71
0
 72
100
 73
1
 74
1
 75
0
 76
0
 77
0
 78
0
  0
ENDTAB
  0
TABLE
  2
LTYPE
  5
5
100
AcDbSymbolTable
 70
6
  0
LTYPE
  5
14
100
AcDbSymbolTableRecord
100
AcDbLinetypeTableRecord
  2
BYBLOCK
 70
0
  3

 72
65
 73
0
 40
0.0
  0
LTYPE
  5
15
100
AcDbSymbolTableRecord
100
AcDbLinetypeTableRecord
  2
BYLAYER
 70
0
  3

 72
65
 73
0
 40
0.0
  0
LTYPE
  5
16
100
AcDbSymbolTableRecord
100
AcDbLinetypeTableRecord
  2
CONTINUOUS
 70
64
  3
Solid line
 72
65
 73
0
 40
0.0
  0
LTYPE
  5
1F5
100
AcDbSymbolTableRecord
100
AcDbLinetypeTableRecord
  2
CENTER
 70
64
  3
____ _ ____ _ ____ _ ____ _ ____ _ ____ _ ____
 72
65
 73
4
 40
0.6
 49
0.375
 74
0
 49
-0.075
 74
0
 49
0.075
 74
0
 49
-0.075
 74
0
  0
LTYPE
  5
1F6
100
AcDbSymbolTableRecord
100
AcDbLinetypeTableRecord
  2
HIDDEN
 70
64
  3
- - - - - - - - - - - - - - - - - - - -
 72
65
 73
2
 40
0.2
 49
0.1
 74
0
 49
-0.1
 74
0
  0
LTYPE
  5
1F7
100
AcDbSymbolTableRecord
100
AcDbLinetypeTableRecord
  2
PHANTOM
 70
64
  3
_____ _ _ _____ _ _ _____ _ _ _____
 72
65
 73
6
 40
0.8
 49
0.45
 74
0
 49
-0.05
 74
0
 49
0.1
 74
0
 49
-0.05
 74
0
 49
0.1
 74
0
 49
-0.05
 74
0
  0
LTYPE
  5
1F8
100
AcDbSymbolTableRecord
100
AcDbLinetypeTableRecord
  2
DOT
 70
64
  3
. . . . . . . . . . . . . . . . . . . .
 72
65
 73
2
 40
0.2
 49
0.1
 74
0
 49
-0.1
 74
0
  0
LTYPE
  5
1F9
100
AcDbSymbolTableRecord
100
AcDbLinetypeTableRecord
  2
DASHED
 70
64
  3
- - - - - - - - - - - - - - - - - - - -
 72
65
 73
2
 40
0.2
 49
0.1
 74
0
 49
-0.1
 74
0
  0
ENDTAB
  0
TABLE
  2
LAYER
  5
2
100
AcDbSymbolTable
 70
36
  0
LAYER
  5
10
100
AcDbSymbolTableRecord
100
AcDbLayerTableRecord
  2
0
 70
0
 62
7
  6
CONTINUOUS
370
-3
390
F
  0
LAYER
  5
1FA
100
AcDbSymbolTableRecord
100
AcDbLayerTableRecord
  2
DEFAULT_1
 70
0
 62
7
  6
CENTER
370
-3
390
F
  0
LAYER
  5
1FB
100
AcDbSymbolTableRecord
100
AcDbLayerTableRecord
  2
DEFAULT_2
 70
0
 62
7
  6
HIDDEN
370
-3
390
F
  0
LAYER
  5
1FC
100
AcDbSymbolTableRecord
100
AcDbLayerTableRecord
  2
DEFAULT_3
 70
0
 62
7
  6
PHANTOM
370
-3
390
F
  0
LAYER
  5
1FD
100
AcDbSymbolTableRecord
100
AcDbLayerTableRecord
  2
ASSI
 70
0
 62
7
  6
CONTINUOUS
370
-3
390
F
  0
LAYER
  5
1FE
100
AcDbSymbolTableRecord
100
AcDbLayerTableRecord
  2
COORDINATE
 70
0
 62
7
  6
CONTINUOUS
370
-3
390
F
  0
LAYER
  5
1FF
100
AcDbSymbolTableRecord
100
AcDbLayerTableRecord
  2
COPY_PUBLISH
 70
0
 62
7
  6
CONTINUOUS
370
-3
390
F
  0
LAYER
  5
200
100
AcDbSymbolTableRecord
100
AcDbLayerTableRecord
  2
COSMETICI
 70
0
 62
7
  6
CONTINUOUS
370
-3
390
F
  0
LAYER
  5
201
100
AcDbSymbolTableRecord
100
AcDbLayerTableRecord
  2
CURVE
 70
0
 62
7
  6
CONTINUOUS
370
-3
390
F
  0
LAYER
  5
202
100
AcDbSymbolTableRecord
100
AcDbLayerTableRecord
  2
DRAFT
 70
0
 62
7
  6
CONTINUOUS
370
-3
390
F
  0
LAYER
  5
203
100
AcDbSymbolTableRecord
100
AcDbLayerTableRecord
  2
IMPORT_IGES
 70
0
 62
7
  6
CONTINUOUS
370
-3
390
F
  0
LAYER
  5
204
100
AcDbSymbolTableRecord
100
AcDbLayerTableRecord
  2
INTFCLR
 70
0
 62
7
  6
CONTINUOUS
370
-3
390
F
  0
LAYER
  5
205
100
AcDbSymbolTableRecord
100
AcDbLayerTableRecord
  2
INTFCLR_17
 70
0
 62
7
  6
CONTINUOUS
370
-3
390
F
  0
LAYER
  5
206
100
AcDbSymbolTableRecord
100
AcDbLayerTableRecord
  2
INTF_1
 70
0
 62
7
  6
CONTINUOUS
370
-3
390
F
  0
LAYER
  5
207
100
AcDbSymbolTableRecord
100
AcDbLayerTableRecord
  2
INTF_11
 70
0
 62
7
  6
CONTINUOUS
370
-3
390
F
  0
LAYER
  5
208
100
AcDbSymbolTableRecord
100
AcDbLayerTableRecord
  2
INTF_2
 70
0
 62
7
  6
CONTINUOUS
370
-3
390
F
  0
LAYER
  5
209
100
AcDbSymbolTableRecord
100
AcDbLayerTableRecord
  2
INTF_5
 70
0
 62
7
  6
CONTINUOUS
370
-3
390
F
  0
LAYER
  5
20A
100
AcDbSymbolTableRecord
100
AcDbLayerTableRecord
  2
INTF_YELLOW
 70
0
 62
7
  6
CONTINUOUS
370
-3
390
F
  0
LAYER
  5
20B
100
AcDbSymbolTableRecord
100
AcDbLayerTableRecord
  2
NONE
 70
0
 62
7
  6
CONTINUOUS
370
-3
390
F
  0
LAYER
  5
20C
100
AcDbSymbolTableRecord
100
AcDbLayerTableRecord
  2
NOTE
 70
0
 62
7
  6
CONTINUOUS
370
-3
390
F
  0
LAYER
  5
20D
100
AcDbSymbolTableRecord
100
AcDbLayerTableRecord
  2
PIANI
 70
0
 62
7
  6
CONTINUOUS
370
-3
390
F
  0
LAYER
  5
20E
100
AcDbSymbolTableRecord
100
AcDbLayerTableRecord
  2
POSIZIONE_SCRITTE
 70
0
 62
7
  6
CONTINUOUS
370
-3
390
F
  0
LAYER
  5
20F
100
AcDbSymbolTableRecord
100
AcDbLayerTableRecord
  2
PUNTI
 70
0
 62
7
  6
CONTINUOUS
370
-3
390
F
  0
LAYER
  5
210
100
AcDbSymbolTableRecord
100
AcDbLayerTableRecord
  2
RACCORDO
 70
0
 62
7
  6
CONTINUOUS
370
-3
390
F
  0
LAYER
  5
211
100
AcDbSymbolTableRecord
100
AcDbLayerTableRecord
  2
RGB____0____0____0__
 70
0
 62
7
  6
CONTINUOUS
370
-3
390
F
  0
LAYER
  5
212
100
AcDbSymbolTableRecord
100
AcDbLayerTableRecord
  2
SIMBOLI
 70
0
 62
7
  6
CONTINUOUS
370
-3
390
F
  0
LAYER
  5
213
100
AcDbSymbolTableRecord
100
AcDbLayerTableRecord
  2
SMUSSO
 70
0
 62
7
  6
CONTINUOUS
370
-3
390
F
  0
LAYER
  5
214
100
AcDbSymbolTableRecord
100
AcDbLayerTableRecord
  2
SNAPLINE
 70
0
 62
7
  6
CONTINUOUS
370
-3
390
F
  0
LAYER
  5
215
100
AcDbSymbolTableRecord
100
AcDbLayerTableRecord
  2
SUPERFICI
 70
0
 62
7
  6
CONTINUOUS
370
-3
390
F
  0
LAYER
  5
216
100
AcDbSymbolTableRecord
100
AcDbLayerTableRecord
  2
TRASH
 70
0
 62
7
  6
CONTINUOUS
370
-3
390
F
  0
ENDTAB
  0
TABLE
  2
STYLE
  5
3
100
AcDbSymbolTable
 70
1
  0
STYLE
  5
11
100
AcDbSymbolTableRecord
100
AcDbTextStyleTableRecord
  2
STANDARD
 70
0
 40
0.0
 41
0.8
 50
0.0
 71
0
 42
0.2
  3
txt
  4

  0
STYLE
  5
217
100
AcDbSymbolTableRecord
100
AcDbTextStyleTableRecord
  2
TEXTSTYLE_1
 70
0
 40
0.0
 41
0.8
 50
0.0
 71
0
 42
0.2
  3
gdt
  4

  0
ENDTAB
  0
TABLE
  2
VIEW
  5
6
100
AcDbSymbolTable
 70
0
  0
ENDTAB
  0
TABLE
  2
UCS
  5
7
100
AcDbSymbolTable
 70
0
  0
ENDTAB
  0
TABLE
  2
APPID
  5
9
100
AcDbSymbolTable
 70
1
  0
APPID
  5
218
100
AcDbSymbolTableRecord
100
AcDbRegAppTableRecord
  2
ACAD
 70
0
  0
ENDTAB
  0
TABLE
  2
BLOCK_RECORD
  5
1
100
AcDbSymbolTable
 70
0
  0
BLOCK_RECORD
  5
219
100
AcDbSymbolTableRecord
100
AcDbBlockTableRecord
  2
*Model_Space
  0
BLOCK_RECORD
  5
21A
100
AcDbSymbolTableRecord
100
AcDbBlockTableRecord
  2
*Paper_Space
  0
BLOCK_RECORD
  5
21B
100
AcDbSymbolTableRecord
100
AcDbBlockTableRecord
  2
_FILLED
  0
ENDTAB
  0
TABLE
  2
DIMSTYLE
  5
A
100
AcDbSymbolTable
 70
1
100
AcDbDimStyleTable
 71
0
  0
DIMSTYLE
105
21C
100
AcDbSymbolTableRecord
100
AcDbDimStyleTableRecord
  2
STANDARD
 70
0
  3

  4

 40
1.0
 41
3.0
 42
0.5
 43
0.38
 44
1.5
 45
0.0
 46
0.0
 47
0.01
 48
0.01
140
3.0
141
0.0
142
0.0
143
25.4
144
1.0
145
0.0
146
1.0
147
0.625
 71
1
 72
0
 73
0
 74
0
 75
0
 76
0
 77
1
 78
8
 79
2
170
0
171
1
172
0
173
0
174
0
175
0
176
0
177
0
178
0
270
2
179
2
271
2
272
2
273
2
274
2
275
0
280
0
281
0
282
0
283
1
284
8
285
0
286
0
287
3
288
0
340
11
278
44
341
21B
342
21B
343
21B
344
21B
  0
ENDTAB
  0
ENDSEC
  0
SECTION
  2
BLOCKS
  0
BLOCK
  5
20
100
AcDbEntity
  8
0
100
AcDbBlockBegin
  2
*Model_Space
 70
0
 10
0.0
 20
0.0
 30
0.0
  3
*Model_Space
  1

  0
ENDBLK
  5
21
100
AcDbEntity
  8
0
100
AcDbBlockEnd
  0
BLOCK
  5
1C
100
AcDbEntity
  8
0
100
AcDbBlockBegin
  2
*Paper_Space
 70
0
 10
0.0
 20
0.0
 30
0.0
  3
*Paper_Space
  1

  0
ENDBLK
  5
1D
100
AcDbEntity
  8
0
100
AcDbBlockEnd
  0
BLOCK
  5
21D
100
AcDbEntity
  8
0
100
AcDbBlockBegin
  2
_FILLED
 70
64
 10
0.0
 20
0.0
 30
0.0
  3
_FILLED
  1

  0
SOLID
  5
21E
100
AcDbEntity
  8
0
  6
BYBLOCK
 62
0
100
AcDbTrace
 10
0.0
 20
0.0
 30
0.0
 11
-1.0
 21
0.3166666667
 31
0.0
 12
-1.0
 22
-0.3166666667
 32
0.0
 13
-1.0
 23
-0.3166666667
 33
0.0
  0
ENDBLK
  5
21F
100
AcDbEntity
  8
0
  6
BYBLOCK
 62
0
100
AcDbBlockEnd
  0
ENDSEC
  0
SECTION
  2
ENTITIES
  0
LWPOLYLINE
  5
220
100
AcDbEntity
  8
RACCORDO
100
AcDbPolyline
 62
7
  6
CONTINUOUS
 90
15
 70
0
 10
65.4206237909
 20
135.2749452124
 10
65.4084361793
 20
135.2647004694
 10
65.3177901523
 20
135.1810097078
 10
65.2321455461
 20
135.0882559254
 10
65.1517209453
 20
134.9867570182
 10
65.0767004033
 20
134.8767238724
 10
65.0072979633
 20
134.7582682005
 10
64.9437751337
 20
134.6315701066
 10
64.8863498595
 20
134.4969576703
 10
64.8351415601
 20
134.3548376432
 10
64.7902263048
 20
134.205394221
 10
64.7517364568
 20
134.0486941263
 10
64.7199127369
 20
133.8849843143
 10
64.6949333882
 20
133.7147055188
 10
64.6832595558
 20
133.6093579554
  0
LINE
  5
221
100
AcDbEntity
  8
SUPERFICI
100
AcDbLine
 62
7
  6
CONTINUOUS
 10
65.4190976861
 20
135.2736753676
 30
0.0
 11
67.3631119837
 21
136.8942633987
 31
0.0
  0
LINE
  5
222
100
AcDbEntity
  8
RACCORDO
100
AcDbLine
 62
7
  6
CONTINUOUS
 10
65.4190973964
 20
135.2736751261
 30
0.0
 11
65.4206023628
 21
135.2749277393
 31
0.0
  0
LWPOLYLINE
  5
223
100
AcDbEntity
  8
RACCORDO
100
AcDbPolyline
 62
7
  6
CONTINUOUS
 90
14
 70
0
 10
122.270024874
 20
33.765628941
 10
122.3728732388
 20
33.7220917859
 10
122.5344767078
 20
33.660548318
 10
122.6939936875
 20
33.608227392
 10
122.8509612449
 20
33.5651825352
 10
123.0050638492
 20
33.5313295955
 10
123.1561375596
 20
33.5065758606
 10
123.3039639754
 20
33.4909674008
 10
123.4481131912
 20
33.4845783013
 10
123.5881588177
 20
33.4873922961
 10
123.7237728037
 20
33.4992687346
 10
123.8547351557
 20
33.5200547464
 10
123.9807642143
 20
33.5496963196
 10
124.1092060572
 20
33.590960889
  0
LWPOLYLINE
  5
224
100
AcDbEntity
  8
RACCORDO
100
AcDbPolyline
 62
7
  6
CONTINUOUS
 90
9
 70
0
 10
64.5057748907
 20
131.7841417644
 10
64.3638420404
 20
130.227453597
 10
64.2312144699
 20
128.6749559867
 10
64.1078990747
 20
127.126728533
 10
63.9939023969
 20
125.5828525027
 10
63.8892305348
 20
124.0434084611
 10
63.7938891547
 20
122.5084772029
 10
63.7078834476
 20
120.9781399382
 10
63.6344201502
 20
119.5200387983
  0
LINE
  5
225
100
AcDbEntity
  8
RACCORDO
100
AcDbLine
 62
7
  6
CONTINUOUS
 10
64.6832718113
 20
133.60947931
 30
0.0
 11
64.5057748907
 21
131.7841417644
 31
0.0
  0
LINE
  5
226
100
AcDbEntity
  8
RACCORDO
100
AcDbLine
 62
7
  6
CONTINUOUS
 10
121.9267591906
 20
33.9159056258
 30
0.0
 11
122.270149656
 21
33.765574017
 31
0.0
  0
LWPOLYLINE
  5
227
100
AcDbEntity
  8
RACCORDO
100
AcDbPolyline
 62
7
  6
CONTINUOUS
 90
9
 70
0
 10
103.6928189337
 20
43.0300919064
 10
106.137092944
 20
41.6975406413
 10
108.5333561861
 20
40.4162384581
 10
110.8839326545
 20
39.1880213695
 10
113.1909228962
 20
38.0146350347
 10
115.4557924892
 20
36.897635321
 10
117.6791481771
 20
35.8381689062
 10
119.859106323
 20
34.8357723881
 10
121.9267543303
 20
33.9159077549
  0
LINE
  5
228
100
AcDbEntity
  8
RACCORDO
100
AcDbLine
 62
7
  6
CONTINUOUS
 10
101.2125454696
 20
44.4032375981
 30
0.0
 11
103.6928189337
 21
43.0300919064
 31
0.0
  0
LWPOLYLINE
  5
229
100
AcDbEntity
  8
RACCORDO
100
AcDbPolyline
 62
7
  6
CONTINUOUS
 90
9
 70
0
 10
63.7082403229
 20
81.3976292089
 10
63.7943036939
 20
79.9659042879
 10
63.8897075239
 20
78.5402979456
 10
63.9944471196
 20
77.1208836329
 10
64.1085172332
 20
75.7077358352
 10
64.2319122174
 20
74.300927892
 10
64.3646258721
 20
72.9005341698
 10
64.5066516937
 20
71.5066266838
 10
64.6510734803
 20
70.1806714583
  0
LINE
  5
22A
100
AcDbEntity
  8
RACCORDO
100
AcDbLine
 62
7
  6
CONTINUOUS
 10
63.6278793401
 20
82.9084599319
 30
0.0
 11
63.7082403229
 21
81.3976292089
 31
0.0
  0
LINE
  5
22B
100
AcDbEntity
  8
RACCORDO
100
AcDbLine
 62
250
  6
CONTINUOUS
 10
63.6918205864
 20
82.6765325861
 30
0.0
 11
63.6798379987
 21
82.9111341118
 31
0.0
  0
LWPOLYLINE
  5
22C
100
AcDbEntity
  8
RACCORDO
100
AcDbPolyline
 62
7
  6
CONTINUOUS
 90
10
 70
0
 10
63.2427571827
 20
100.9234345197
 10
63.2480038466
 20
98.6914297703
 10
63.2638089166
 20
96.4687907714
 10
63.2894171727
 20
94.3155117034
 10
63.3240493654
 20
92.2312039134
 10
63.3671325554
 20
90.2155397746
 10
63.4189316982
 20
88.2686921454
 10
63.4800335096
 20
86.3910845481
 10
63.5507234499
 20
84.5829882141
 10
63.6278793259
 20
82.9084602182
  0
LWPOLYLINE
  5
22D
100
AcDbEntity
  8
RACCORDO
100
AcDbPolyline
 62
7
  6
CONTINUOUS
 90
9
 70
0
 10
63.550471002
 20
117.612181673
 10
63.4798239961
 20
115.7229338169
 10
63.4187647615
 20
113.7751540912
 10
63.3669949454
 20
111.7687833174
 10
63.3239476223
 20
109.7036004506
 10
63.2893364073
 20
107.579470536
 10
63.2637568613
 20
105.3967658974
 10
63.2479780488
 20
103.1559834133
 10
63.2427571827
 20
100.9234334749
  0
LINE
  5
22E
100
AcDbEntity
  8
RACCORDO
100
AcDbLine
 62
250
  6
CONTINUOUS
 10
63.6852450438
 20
119.2784756168
 30
0.0
 11
63.6918153687
 21
119.4176991171
 31
0.0
  0
LINE
  5
22F
100
AcDbEntity
  8
RACCORDO
100
AcDbLine
 62
7
  6
CONTINUOUS
 10
63.6344201507
 20
119.5200388098
 30
0.0
 11
63.550471002
 21
117.612181673
 31
0.0
  0
LINE
  5
230
100
AcDbEntity
  8
RACCORDO
100
AcDbLine
 62
250
  6
CONTINUOUS
 10
101.2810873277
 20
44.4368425913
 30
0.0
 11
101.1521611004
 21
44.5086226023
 31
0.0
  0
LWPOLYLINE
  5
231
100
AcDbEntity
  8
RACCORDO
100
AcDbPolyline
 62
7
  6
CONTINUOUS
 90
7
 70
0
 10
95.0146675565
 20
47.9047518215
 10
95.9030855426
 20
47.3968049792
 10
96.7932692072
 20
46.8898930439
 10
97.6852151463
 20
46.3840179451
 10
98.5789202341
 20
45.8791814508
 10
99.474381057
 20
45.3753854881
 10
101.2125454676
 20
44.4032375993
  0
LINE
  5
232
100
AcDbEntity
  8
RACCORDO
100
AcDbLine
 62
250
  6
CONTINUOUS
 10
93.3259596462
 20
48.9465423032
 30
0.0
 11
93.2352563897
 21
48.9988093829
 31
0.0
  0
LINE
  5
233
100
AcDbEntity
  8
RACCORDO
100
AcDbLine
 62
7
  6
CONTINUOUS
 10
93.2954242941
 20
48.8935518569
 30
0.0
 11
95.0146675565
 21
47.9047518215
 31
0.0
  0
LWPOLYLINE
  5
234
100
AcDbEntity
  8
RACCORDO
100
AcDbPolyline
 62
7
  6
CONTINUOUS
 90
7
 70
0
 10
87.2066964322
 20
52.4585175748
 10
88.0792823708
 20
51.9414761906
 10
88.9536656432
 20
51.4254513886
 10
89.8298429056
 20
50.9104451327
 10
90.7078110874
 20
50.3964592221
 10
91.5875668352
 20
49.8834956183
 10
93.2954242949
 20
48.8935518564
  0
LINE
  5
235
100
AcDbEntity
  8
RACCORDO
100
AcDbLine
 62
7
  6
CONTINUOUS
 10
85.4815672464
 20
53.4868815602
 30
0.0
 11
87.2066964322
 21
52.4585175748
 31
0.0
  0
LINE
  5
236
100
AcDbEntity
  8
RACCORDO
100
AcDbLine
 62
250
  6
CONTINUOUS
 10
85.5487914499
 20
53.5160217265
 30
0.0
 11
85.4217192293
 21
53.5919554053
 31
0.0
  0
LWPOLYLINE
  5
237
100
AcDbEntity
  8
RACCORDO
100
AcDbPolyline
 62
7
  6
CONTINUOUS
 90
10
 70
0
 10
67.3436953005
 20
65.4321413451
 10
68.9432029066
 20
64.233795383
 10
70.6815451786
 20
62.9737510139
 10
72.5184804769
 20
61.6888379774
 10
74.4546298111
 20
60.3802305073
 10
76.4880646009
 20
59.0475341514
 10
78.6161735251
 20
57.6898477091
 10
80.8359390274
 20
56.3059491649
 10
83.1442940342
 20
54.8944271622
 10
85.4815674187
 20
53.4868814571
  0
LINE
  5
238
100
AcDbEntity
  8
RACCORDO
100
AcDbLine
 62
250
  6
CONTINUOUS
 10
67.3727138621
 20
65.4704117909
 30
0.0
 11
67.2885751928
 21
65.534209928
 31
0.0
  0
LINE
  5
239
100
AcDbEntity
  8
RACCORDO
100
AcDbLine
 62
7
  6
CONTINUOUS
 10
67.0833714169
 20
65.6304526379
 30
0.0
 11
67.3436878395
 21
65.4321470223
 31
0.0
  0
LWPOLYLINE
  5
23A
100
AcDbEntity
  8
RACCORDO
100
AcDbPolyline
 62
7
  6
CONTINUOUS
 90
31
 70
0
 10
64.6836815943
 20
69.8906212088
 10
64.6950455057
 20
69.7983393297
 10
64.7185301055
 20
69.6454738783
 10
64.7480497359
 20
69.4897957148
 10
64.7834007539
 20
69.3318351791
 10
64.8243594143
 20
69.1719494809
 10
64.8707625835
 20
69.0103228076
 10
64.9224714421
 20
68.8473363397
 10
64.9793303858
 20
68.6834390247
 10
65.0412139044
 20
68.51890194
 10
65.1078703655
 20
68.3541904864
 10
65.1790476756
 20
68.1897300838
 10
65.2546333645
 20
68.0257563907
 10
65.334446399
 20
67.862717229
 10
65.4182622258
 20
67.701068863
 10
65.5059147727
 20
67.5410700524
 10
65.597163046
 20
67.3831414093
 10
65.6917789923
 20
67.2277137492
 10
65.7896313685
 20
67.0750655097
 10
65.8904592092
 20
66.925629195
 10
65.9939773101
 20
66.7797821537
 10
66.1000573175
 20
66.6377528195
 10
66.2084707538
 20
66.4999837689
 10
66.3189599778
 20
66.3669256585
 10
66.4313730619
 20
66.2388237787
 10
66.5454178842
 20
66.1160300775
 10
66.6608532849
 20
65.9988818506
 10
66.7776187854
 20
65.8875983541
 10
66.8955209286
 20
65.782583149
 10
67.0142370016
 20
65.6842702994
 10
67.0835844428
 20
65.6302903165
  0
LINE
  5
23B
100
AcDbEntity
  8
RACCORDO
100
AcDbLine
 62
7
  6
CONTINUOUS
 10
64.6510735693
 20
70.1806706661
 30
0.0
 11
64.6837033416
 21
69.8904309729
 31
0.0
  0
LINE
  5
23C
100
AcDbEntity
  8
RACCORDO
100
AcDbLine
 62
250
  6
CONTINUOUS
 10
64.7267693962
 20
69.9194998638
 30
0.0
 11
64.6968775614
 21
70.1856476728
 31
0.0
  0
LINE
  5
23D
100
AcDbEntity
  8
RACCORDO
100
AcDbLine
 62
7
  6
CONTINUOUS
 10
79.3534544774
 20
108.2443817079
 30
0.0
 11
78.2983913389
 21
107.6990468707
 31
0.0
  0
LINE
  5
23E
100
AcDbEntity
  8
RACCORDO
100
AcDbLine
 62
250
  6
CONTINUOUS
 10
79.4623838147
 20
108.2390663132
 30
0.0
 11
78.2983913389
 21
107.63742872
 31
0.0
  0
LINE
  5
23F
100
AcDbEntity
  8
SMUSSO
100
AcDbLine
 62
7
  6
CONTINUOUS
 10
79.9573585615
 20
107.9532740979
 30
0.0
 11
79.9210341572
 21
107.9344989531
 31
0.0
  0
LINE
  5
240
100
AcDbEntity
  8
DRAFT
100
AcDbLine
 62
7
  6
CONTINUOUS
 10
79.7089021228
 20
107.8248533934
 30
0.0
 11
79.5674807666
 21
107.7517563535
 31
0.0
  0
LINE
  5
241
100
AcDbEntity
  8
DRAFT
100
AcDbLine
 62
7
  6
CONTINUOUS
 10
79.3553487322
 20
107.6421107937
 30
0.0
 11
79.213927376
 21
107.5690137539
 31
0.0
  0
LINE
  5
242
100
AcDbEntity
  8
DRAFT
100
AcDbLine
 62
7
  6
CONTINUOUS
 10
79.0017953416
 20
107.4593681941
 30
0.0
 11
78.8603739854
 21
107.3862711542
 31
0.0
  0
LINE
  5
243
100
AcDbEntity
  8
DRAFT
100
AcDbLine
 62
7
  6
CONTINUOUS
 10
78.648241951
 20
107.2766255945
 30
0.0
 11
78.5068205948
 21
107.2035285546
 31
0.0
  0
LINE
  5
244
100
AcDbEntity
  8
RACCORDO
100
AcDbLine
 62
7
  6
CONTINUOUS
 10
79.9573585615
 20
103.0913442797
 30
0.0
 11
80.5220749212
 21
103.8116914454
 31
0.0
  0
LINE
  5
245
100
AcDbEntity
  8
SMUSSO
100
AcDbLine
 62
7
  6
CONTINUOUS
 10
79.9573585615
 20
103.0913442797
 30
0.0
 11
79.9210341572
 21
103.0681729128
 31
0.0
  0
LINE
  5
246
100
AcDbEntity
  8
DRAFT
100
AcDbLine
 62
7
  6
CONTINUOUS
 10
79.7089021228
 20
102.9328537166
 30
0.0
 11
79.5674807666
 21
102.8426409191
 31
0.0
  0
LINE
  5
247
100
AcDbEntity
  8
DRAFT
100
AcDbLine
 62
7
  6
CONTINUOUS
 10
79.3553487322
 20
102.7073217229
 30
0.0
 11
79.213927376
 21
102.6171089254
 31
0.0
  0
LINE
  5
248
100
AcDbEntity
  8
DRAFT
100
AcDbLine
 62
7
  6
CONTINUOUS
 10
79.0017953416
 20
102.4817897292
 30
0.0
 11
78.8603739854
 21
102.3915769317
 31
0.0
  0
LINE
  5
249
100
AcDbEntity
  8
DRAFT
100
AcDbLine
 62
7
  6
CONTINUOUS
 10
78.648241951
 20
102.2562577355
 30
0.0
 11
78.5068205948
 21
102.166044938
 31
0.0
  0
LINE
  5
24A
100
AcDbEntity
  8
RACCORDO
100
AcDbLine
 62
7
  6
CONTINUOUS
 10
104.4261794599
 20
62.4085679178
 30
0.0
 11
103.5199895261
 21
62.2796703314
 31
0.0
  0
LINE
  5
24B
100
AcDbEntity
  8
0
100
AcDbLine
 62
7
  6
CONTINUOUS
 10
95.4991686423
 20
57.8998550043
 30
0.0
 11
95.1416806991
 21
58.1032753147
 31
0.0
  0
LINE
  5
24C
100
AcDbEntity
  8
0
100
AcDbLine
 62
7
  6
CONTINUOUS
 10
94.718560403
 20
59.0817083365
 30
0.0
 11
94.5195780151
 21
59.1952666984
 31
0.0
  0
LINE
  5
24D
100
AcDbEntity
  8
0
100
AcDbLine
 62
7
  6
CONTINUOUS
 10
94.4856721518
 20
59.5240776002
 30
0.0
 11
94.6977573031
 21
59.4030383998
 31
0.0
  0
LINE
  5
24E
100
AcDbEntity
  8
0
100
AcDbLine
 62
7
  6
CONTINUOUS
 10
94.5731350342
 20
58.4274709339
 30
0.0
 11
94.2037506853
 21
58.6385482049
 31
0.0
  0
LINE
  5
24F
100
AcDbEntity
  8
0
100
AcDbLine
 62
7
  6
CONTINUOUS
 10
94.0949020976
 20
58.7008147523
 30
0.0
 11
93.7044438867
 21
58.9244286582
 31
0.0
  0
LINE
  5
250
100
AcDbEntity
  8
0
100
AcDbLine
 62
7
  6
CONTINUOUS
 10
93.5808636234
 20
59.3708976195
 30
0.0
 11
93.0769660769
 21
59.6601892533
 31
0.0
  0
LINE
  5
251
100
AcDbEntity
  8
0
100
AcDbLine
 62
7
  6
CONTINUOUS
 10
93.1317002485
 20
59.9199193331
 30
0.0
 11
93.4859634104
 21
59.7165348114
 31
0.0
  0
LINE
  5
252
100
AcDbEntity
  8
0
100
AcDbLine
 62
7
  6
CONTINUOUS
 10
93.0610589532
 20
61.1832956944
 30
0.0
 11
93.4190152566
 21
60.9778040223
 31
0.0
  0
LINE
  5
253
100
AcDbEntity
  8
0
100
AcDbLine
 62
7
  6
CONTINUOUS
 10
93.0025967393
 20
59.3273704778
 30
0.0
 11
92.6370421855
 21
59.5377502051
 31
0.0
  0
LINE
  5
254
100
AcDbEntity
  8
0
100
AcDbLine
 62
7
  6
CONTINUOUS
 10
92.5790381217
 20
59.5711641628
 30
0.0
 11
92.2178513299
 21
59.7794286004
 31
0.0
  0
LINE
  5
255
100
AcDbEntity
  8
0
100
AcDbLine
 62
7
  6
CONTINUOUS
 10
91.9170104834
 20
61.8423028003
 30
0.0
 11
92.2821700797
 21
61.6315872427
 31
0.0
  0
LINE
  5
256
100
AcDbEntity
  8
0
100
AcDbLine
 62
7
  6
CONTINUOUS
 10
91.7035161189
 20
60.0765913329
 30
0.0
 11
91.6518186813
 21
60.1064985835
 31
0.0
  0
LINE
  5
257
100
AcDbEntity
  8
0
100
AcDbLine
 62
7
  6
CONTINUOUS
 10
90.8158416441
 20
62.4798579153
 30
0.0
 11
91.1836839585
 21
62.2665285486
 31
0.0
  0
LINE
  5
258
100
AcDbEntity
  8
0
100
AcDbLine
 62
7
  6
CONTINUOUS
 10
91.1401823888
 20
60.4028630757
 30
0.0
 11
90.7881199172
 21
60.607196545
 31
0.0
  0
LINE
  5
259
100
AcDbEntity
  8
0
100
AcDbLine
 62
7
  6
CONTINUOUS
 10
90.5901354184
 20
60.7222489879
 30
0.0
 11
90.2225984822
 21
60.9361074257
 31
0.0
  0
LINE
  5
25A
100
AcDbEntity
  8
0
100
AcDbLine
 62
7
  6
CONTINUOUS
 10
90.0911593497
 20
62.9012987312
 30
0.0
 11
90.4586962864
 21
62.6874402878
 31
0.0
  0
LINE
  5
25B
100
AcDbEntity
  8
0
100
AcDbLine
 62
7
  6
CONTINUOUS
 10
89.5879900882
 20
63.1945465471
 30
0.0
 11
89.9548513868
 21
62.9805895024
 31
0.0
  0
LINE
  5
25C
100
AcDbEntity
  8
0
100
AcDbLine
 62
7
  6
CONTINUOUS
 10
89.5210913759
 20
61.3452912934
 30
0.0
 11
89.1979776866
 21
61.5342033235
 31
0.0
  0
LINE
  5
25D
100
AcDbEntity
  8
0
100
AcDbLine
 62
7
  6
CONTINUOUS
 10
88.5102603671
 20
63.8251707608
 30
0.0
 11
88.9080830873
 21
63.5920256407
 31
0.0
  0
LINE
  5
25E
100
AcDbEntity
  8
RACCORDO
100
AcDbLine
 62
250
  6
CONTINUOUS
 10
75.7711244814
 20
82.0437853677
 30
0.0
 11
75.7713158253
 21
82.0352979011
 31
0.0
  0
LINE
  5
25F
100
AcDbEntity
  8
RACCORDO
100
AcDbLine
 62
7
  6
CONTINUOUS
 10
78.2983913389
 20
109.4472832804
 30
0.0
 11
78.2983913389
 21
75.3345425874
 31
0.0
  0
LINE
  5
260
100
AcDbEntity
  8
RACCORDO
100
AcDbLine
 62
250
  6
CONTINUOUS
 10
75.7345771805
 20
100.3846047479
 30
0.0
 11
75.7336928136
 21
100.3334036188
 31
0.0
  0
LINE
  5
261
100
AcDbEntity
  8
RACCORDO
100
AcDbLine
 62
250
  6
CONTINUOUS
 10
98.278396073
 20
60.4802614731
 30
0.0
 11
99.8539707081
 21
59.5998025971
 31
0.0
  0
LINE
  5
262
100
AcDbEntity
  8
RACCORDO
100
AcDbLine
 62
7
  6
CONTINUOUS
 10
78.6518908816
 20
74.7222634197
 30
0.0
 11
108.1786312632
 21
57.6738935802
 31
0.0
  0
LINE
  5
263
100
AcDbEntity
  8
DRAFT
100
AcDbLine
 62
7
  6
CONTINUOUS
 10
86.0835295091
 20
70.6722189301
 30
0.0
 11
90.4462588412
 21
68.1532336915
 31
0.0
  0
LINE
  5
264
100
AcDbEntity
  8
DRAFT
100
AcDbLine
 62
7
  6
CONTINUOUS
 10
101.9934320858
 20
61.4860405802
 30
0.0
 11
106.3561614179
 21
58.9670553416
 31
0.0
  0
LINE
  5
265
100
AcDbEntity
  8
DRAFT
100
AcDbLine
 62
7
  6
CONTINUOUS
 10
86.2323624445
 20
70.7495944958
 30
0.0
 11
90.680775951
 21
68.1811481253
 31
0.0
  0
LINE
  5
266
100
AcDbEntity
  8
DRAFT
100
AcDbLine
 62
7
  6
CONTINUOUS
 10
102.1422650212
 20
61.5634161459
 30
0.0
 11
106.5906785277
 21
58.9949697755
 31
0.0
  0
LINE
  5
267
100
AcDbEntity
  8
DRAFT
100
AcDbLine
 62
7
  6
CONTINUOUS
 10
86.4556118477
 20
70.8656578444
 30
0.0
 11
90.7812832838
 21
68.3680693706
 31
0.0
  0
LINE
  5
268
100
AcDbEntity
  8
DRAFT
100
AcDbLine
 62
7
  6
CONTINUOUS
 10
102.3655144244
 20
61.6794794945
 30
0.0
 11
106.6911858605
 21
59.1818910207
 31
0.0
  0
LINE
  5
269
100
AcDbEntity
  8
DRAFT
100
AcDbLine
 62
7
  6
CONTINUOUS
 10
86.6044447832
 20
70.9430334101
 30
0.0
 11
91.0158003935
 21
68.3959838044
 31
0.0
  0
LINE
  5
26A
100
AcDbEntity
  8
DRAFT
100
AcDbLine
 62
7
  6
CONTINUOUS
 10
102.5143473599
 20
61.7568550602
 30
0.0
 11
106.9257029702
 21
59.2098054545
 31
0.0
  0
LINE
  5
26B
100
AcDbEntity
  8
DRAFT
100
AcDbLine
 62
7
  6
CONTINUOUS
 10
86.8276941864
 20
71.0590967586
 30
0.0
 11
91.1163077263
 21
68.5829050496
 31
0.0
  0
LINE
  5
26C
100
AcDbEntity
  8
DRAFT
100
AcDbLine
 62
7
  6
CONTINUOUS
 10
102.7375967631
 20
61.8729184088
 30
0.0
 11
107.026210303
 21
59.3967266997
 31
0.0
  0
LINE
  5
26D
100
AcDbEntity
  8
DRAFT
100
AcDbLine
 62
7
  6
CONTINUOUS
 10
86.9765271218
 20
71.1364723243
 30
0.0
 11
91.3508248361
 21
68.6108194834
 31
0.0
  0
LINE
  5
26E
100
AcDbEntity
  8
DRAFT
100
AcDbLine
 62
7
  6
CONTINUOUS
 10
102.8864296985
 20
61.9502939745
 30
0.0
 11
107.2607274128
 21
59.4246411336
 31
0.0
  0
LINE
  5
26F
100
AcDbEntity
  8
RACCORDO
100
AcDbLine
 62
250
  6
CONTINUOUS
 10
83.243735472
 20
69.2094421835
 30
0.0
 11
84.0854894876
 21
68.7043260283
 31
0.0
  0
LINE
  5
270
100
AcDbEntity
  8
DRAFT
100
AcDbLine
 62
7
  6
CONTINUOUS
 10
78.5068205948
 20
107.2035285546
 30
0.0
 11
78.5068205948
 21
102.166044938
 31
0.0
  0
LINE
  5
271
100
AcDbEntity
  8
DRAFT
100
AcDbLine
 62
7
  6
CONTINUOUS
 10
78.5068205948
 20
88.8329473268
 30
0.0
 11
78.5068205948
 21
83.7954637102
 31
0.0
  0
LINE
  5
272
100
AcDbEntity
  8
DRAFT
100
AcDbLine
 62
7
  6
CONTINUOUS
 10
78.648241951
 20
107.3926895633
 30
0.0
 11
78.648241951
 21
102.2562577355
 31
0.0
  0
LINE
  5
273
100
AcDbEntity
  8
DRAFT
100
AcDbLine
 62
7
  6
CONTINUOUS
 10
78.648241951
 20
89.0221083355
 30
0.0
 11
78.648241951
 21
83.8856765076
 31
0.0
  0
LINE
  5
274
100
AcDbEntity
  8
DRAFT
100
AcDbLine
 62
7
  6
CONTINUOUS
 10
78.8603739854
 20
107.3862711542
 30
0.0
 11
78.8603739854
 21
102.3915769317
 31
0.0
  0
LINE
  5
275
100
AcDbEntity
  8
DRAFT
100
AcDbLine
 62
7
  6
CONTINUOUS
 10
78.8603739854
 20
89.0156899264
 30
0.0
 11
78.8603739854
 21
84.0209957039
 31
0.0
  0
LINE
  5
276
100
AcDbEntity
  8
DRAFT
100
AcDbLine
 62
7
  6
CONTINUOUS
 10
79.0017953416
 20
107.575432163
 30
0.0
 11
79.0017953416
 21
102.4817897292
 31
0.0
  0
LINE
  5
277
100
AcDbEntity
  8
DRAFT
100
AcDbLine
 62
7
  6
CONTINUOUS
 10
79.0017953416
 20
89.2048509351
 30
0.0
 11
79.0017953416
 21
84.1112085013
 31
0.0
  0
LINE
  5
278
100
AcDbEntity
  8
DRAFT
100
AcDbLine
 62
7
  6
CONTINUOUS
 10
79.213927376
 20
107.5690137539
 30
0.0
 11
79.213927376
 21
102.6171089254
 31
0.0
  0
LINE
  5
279
100
AcDbEntity
  8
DRAFT
100
AcDbLine
 62
7
  6
CONTINUOUS
 10
79.213927376
 20
89.198432526
 30
0.0
 11
79.213927376
 21
84.2465276976
 31
0.0
  0
LINE
  5
27A
100
AcDbEntity
  8
DRAFT
100
AcDbLine
 62
7
  6
CONTINUOUS
 10
79.3553487322
 20
107.7581747626
 30
0.0
 11
79.3553487322
 21
102.7073217229
 31
0.0
  0
LINE
  5
27B
100
AcDbEntity
  8
DRAFT
100
AcDbLine
 62
7
  6
CONTINUOUS
 10
79.3553487322
 20
89.3875935348
 30
0.0
 11
79.3553487322
 21
84.336740495
 31
0.0
  0
LINE
  5
27C
100
AcDbEntity
  8
DRAFT
100
AcDbLine
 62
7
  6
CONTINUOUS
 10
79.5674807666
 20
107.7517563535
 30
0.0
 11
79.5674807666
 21
102.8426409191
 31
0.0
  0
LINE
  5
27D
100
AcDbEntity
  8
DRAFT
100
AcDbLine
 62
7
  6
CONTINUOUS
 10
79.5674807666
 20
89.3811751257
 30
0.0
 11
79.5674807666
 21
84.4720596912
 31
0.0
  0
LINE
  5
27E
100
AcDbEntity
  8
DRAFT
100
AcDbLine
 62
7
  6
CONTINUOUS
 10
79.7089021228
 20
107.9409173622
 30
0.0
 11
79.7089021228
 21
102.9328537166
 31
0.0
  0
LINE
  5
27F
100
AcDbEntity
  8
DRAFT
100
AcDbLine
 62
7
  6
CONTINUOUS
 10
79.7089021228
 20
89.5703361344
 30
0.0
 11
79.7089021228
 21
84.5622724887
 31
0.0
  0
LINE
  5
280
100
AcDbEntity
  8
DRAFT
100
AcDbLine
 62
7
  6
CONTINUOUS
 10
79.9210341572
 20
107.9344989531
 30
0.0
 11
79.9210341572
 21
103.0681729128
 31
0.0
  0
LINE
  5
281
100
AcDbEntity
  8
DRAFT
100
AcDbLine
 62
7
  6
CONTINUOUS
 10
79.9210341572
 20
89.5639177253
 30
0.0
 11
79.9210341572
 21
84.6975916849
 31
0.0
  0
LINE
  5
282
100
AcDbEntity
  8
RACCORDO
100
AcDbLine
 62
250
  6
CONTINUOUS
 10
80.5220749212
 20
107.8850472292
 30
0.0
 11
80.5220749212
 21
103.8116914454
 31
0.0
  0
LINE
  5
283
100
AcDbEntity
  8
RACCORDO
100
AcDbLine
 62
250
  6
CONTINUOUS
 10
80.5220749212
 20
89.5144660014
 30
0.0
 11
80.5220749212
 21
85.4411102175
 31
0.0
  0
LINE
  5
284
100
AcDbEntity
  8
RACCORDO
100
AcDbLine
 62
7
  6
CONTINUOUS
 10
80.5806535649
 20
107.896881784
 30
0.0
 11
80.5806535649
 21
103.9631667279
 31
0.0
  0
LINE
  5
285
100
AcDbEntity
  8
RACCORDO
100
AcDbLine
 62
7
  6
CONTINUOUS
 10
80.5806535649
 20
89.5263005562
 30
0.0
 11
80.5806535649
 21
85.5925855001
 31
0.0
  0
LINE
  5
286
100
AcDbEntity
  8
RACCORDO
100
AcDbLine
 62
7
  6
CONTINUOUS
 10
88.5162768832
 20
71.5947462677
 30
0.0
 11
87.6100869494
 21
71.4658486812
 31
0.0
  0
LINE
  5
287
100
AcDbEntity
  8
DRAFT
100
AcDbLine
 62
7
  6
CONTINUOUS
 10
87.199776525
 20
71.2525356729
 30
0.0
 11
91.4513321688
 21
68.7977407287
 31
0.0
  0
LINE
  5
288
100
AcDbEntity
  8
DRAFT
100
AcDbLine
 62
7
  6
CONTINUOUS
 10
103.1096791017
 20
62.066357323
 30
0.0
 11
107.3612347455
 21
59.6115623788
 31
0.0
  0
LINE
  5
289
100
AcDbEntity
  8
DRAFT
100
AcDbLine
 62
7
  6
CONTINUOUS
 10
87.3486094605
 20
71.3299112386
 30
0.0
 11
91.6858492786
 21
68.8256551625
 31
0.0
  0
LINE
  5
28A
100
AcDbEntity
  8
DRAFT
100
AcDbLine
 62
7
  6
CONTINUOUS
 10
103.2585120372
 20
62.1437328887
 30
0.0
 11
107.5957518553
 21
59.6394768126
 31
0.0
  0
LINE
  5
28B
100
AcDbEntity
  8
DRAFT
100
AcDbLine
 62
7
  6
CONTINUOUS
 10
87.5718588637
 20
71.4459745872
 30
0.0
 11
91.7863566114
 21
69.0125764077
 31
0.0
  0
LINE
  5
28C
100
AcDbEntity
  8
DRAFT
100
AcDbLine
 62
7
  6
CONTINUOUS
 10
103.4817614404
 20
62.2597962373
 30
0.0
 11
107.6962591881
 21
59.8263980579
 31
0.0
  0
LINE
  5
28D
100
AcDbEntity
  8
RACCORDO
100
AcDbLine
 62
250
  6
CONTINUOUS
 10
88.5162768832
 20
71.5947462677
 30
0.0
 11
92.0440201199
 21
69.5578715358
 31
0.0
  0
LINE
  5
28E
100
AcDbEntity
  8
RACCORDO
100
AcDbLine
 62
250
  6
CONTINUOUS
 10
104.4261794599
 20
62.4085679178
 30
0.0
 11
107.9539226966
 21
60.371693186
 31
0.0
  0
LINE
  5
28F
100
AcDbEntity
  8
RACCORDO
100
AcDbLine
 62
7
  6
CONTINUOUS
 10
88.6767527939
 20
71.5697392603
 30
0.0
 11
92.0835538732
 21
69.6026950143
 31
0.0
  0
LINE
  5
290
100
AcDbEntity
  8
RACCORDO
100
AcDbLine
 62
7
  6
CONTINUOUS
 10
104.5866553706
 20
62.3835609104
 30
0.0
 11
107.9934564499
 21
60.4165166645
 31
0.0
  0
LINE
  5
291
100
AcDbEntity
  8
RACCORDO
100
AcDbLine
 62
7
  6
CONTINUOUS
 10
79.9573585615
 20
84.7207630518
 30
0.0
 11
80.5220749212
 21
85.4411102175
 31
0.0
  0
LINE
  5
292
100
AcDbEntity
  8
RACCORDO
100
AcDbLine
 62
7
  6
CONTINUOUS
 10
79.3534544774
 20
89.8738004801
 30
0.0
 11
78.2983913389
 21
89.3284656428
 31
0.0
  0
LINE
  5
293
100
AcDbEntity
  8
RACCORDO
100
AcDbLine
 62
250
  6
CONTINUOUS
 10
79.4623838147
 20
89.8684850854
 30
0.0
 11
78.2983913389
 21
89.2668474922
 31
0.0
  0
LINE
  5
294
100
AcDbEntity
  8
SMUSSO
100
AcDbLine
 62
7
  6
CONTINUOUS
 10
79.9573585615
 20
89.58269287
 30
0.0
 11
79.9210341572
 21
89.5639177253
 31
0.0
  0
LINE
  5
295
100
AcDbEntity
  8
DRAFT
100
AcDbLine
 62
7
  6
CONTINUOUS
 10
79.7089021228
 20
89.4542721655
 30
0.0
 11
79.5674807666
 21
89.3811751257
 31
0.0
  0
LINE
  5
296
100
AcDbEntity
  8
DRAFT
100
AcDbLine
 62
7
  6
CONTINUOUS
 10
79.3553487322
 20
89.2715295659
 30
0.0
 11
79.213927376
 21
89.198432526
 31
0.0
  0
LINE
  5
297
100
AcDbEntity
  8
DRAFT
100
AcDbLine
 62
7
  6
CONTINUOUS
 10
79.0017953416
 20
89.0887869662
 30
0.0
 11
78.8603739854
 21
89.0156899264
 31
0.0
  0
LINE
  5
298
100
AcDbEntity
  8
DRAFT
100
AcDbLine
 62
7
  6
CONTINUOUS
 10
78.648241951
 20
88.9060443666
 30
0.0
 11
78.5068205948
 21
88.8329473268
 31
0.0
  0
LINE
  5
299
100
AcDbEntity
  8
SMUSSO
100
AcDbLine
 62
7
  6
CONTINUOUS
 10
79.9573585615
 20
84.7207630518
 30
0.0
 11
79.9210341572
 21
84.6975916849
 31
0.0
  0
LINE
  5
29A
100
AcDbEntity
  8
DRAFT
100
AcDbLine
 62
7
  6
CONTINUOUS
 10
79.7089021228
 20
84.5622724887
 30
0.0
 11
79.5674807666
 21
84.4720596912
 31
0.0
  0
LINE
  5
29B
100
AcDbEntity
  8
DRAFT
100
AcDbLine
 62
7
  6
CONTINUOUS
 10
79.3553487322
 20
84.336740495
 30
0.0
 11
79.213927376
 21
84.2465276976
 31
0.0
  0
LINE
  5
29C
100
AcDbEntity
  8
DRAFT
100
AcDbLine
 62
7
  6
CONTINUOUS
 10
79.0017953416
 20
84.1112085013
 30
0.0
 11
78.8603739854
 21
84.0209957039
 31
0.0
  0
LINE
  5
29D
100
AcDbEntity
  8
DRAFT
100
AcDbLine
 62
7
  6
CONTINUOUS
 10
78.648241951
 20
83.8856765076
 30
0.0
 11
78.5068205948
 21
83.7954637102
 31
0.0
  0
LINE
  5
29E
100
AcDbEntity
  8
0
100
AcDbLine
 62
7
  6
CONTINUOUS
 10
94.203750582
 20
58.6385482739
 30
0.0
 11
94.1967410849
 21
58.7367638952
 31
0.0
  0
LINE
  5
29F
100
AcDbEntity
  8
0
100
AcDbLine
 62
7
  6
CONTINUOUS
 10
95.0935351626
 20
59.0216569271
 30
0.0
 11
95.0943149859
 21
59.0100468943
 31
0.0
  0
LINE
  5
2A0
100
AcDbEntity
  8
0
100
AcDbLine
 62
7
  6
CONTINUOUS
 10
94.4505326527
 20
60.0640717211
 30
0.0
 11
94.4856721196
 21
59.5240776246
 31
0.0
  0
LINE
  5
2A1
100
AcDbEntity
  8
RACCORDO
100
AcDbLine
 62
7
  6
CONTINUOUS
 10
91.8207773343
 20
68.4631196315
 30
0.0
 11
91.8207773343
 21
69.0346488253
 31
0.0
  0
LINE
  5
2A2
100
AcDbEntity
  8
RACCORDO
100
AcDbLine
 62
7
  6
CONTINUOUS
 10
92.0999265886
 20
69.117372485
 30
0.0
 11
92.0999265886
 21
69.5256076234
 31
0.0
  0
LINE
  5
2A3
100
AcDbEntity
  8
DRAFT
100
AcDbLine
 62
7
  6
CONTINUOUS
 10
78.5068205948
 20
83.7954637102
 30
0.0
 11
78.2946885604
 21
83.7890453011
 31
0.0
  0
LINE
  5
2A4
100
AcDbEntity
  8
DRAFT
100
AcDbLine
 62
7
  6
CONTINUOUS
 10
78.8603739854
 20
84.0209957039
 30
0.0
 11
78.648241951
 21
84.0145772947
 31
0.0
  0
LINE
  5
2A5
100
AcDbEntity
  8
DRAFT
100
AcDbLine
 62
7
  6
CONTINUOUS
 10
79.213927376
 20
84.2465276976
 30
0.0
 11
79.0017953416
 21
84.2401092884
 31
0.0
  0
LINE
  5
2A6
100
AcDbEntity
  8
DRAFT
100
AcDbLine
 62
7
  6
CONTINUOUS
 10
79.5674807666
 20
84.4720596912
 30
0.0
 11
79.3553487322
 21
84.4656412821
 31
0.0
  0
LINE
  5
2A7
100
AcDbEntity
  8
DRAFT
100
AcDbLine
 62
7
  6
CONTINUOUS
 10
79.9210341572
 20
84.6975916849
 30
0.0
 11
79.7089021228
 21
84.6911732758
 31
0.0
  0
LINE
  5
2A8
100
AcDbEntity
  8
RACCORDO
100
AcDbLine
 62
7
  6
CONTINUOUS
 10
79.9573585615
 20
89.58269287
 30
0.0
 11
79.4623838147
 21
89.8684850854
 31
0.0
  0
LINE
  5
2A9
100
AcDbEntity
  8
RACCORDO
100
AcDbLine
 62
7
  6
CONTINUOUS
 10
80.5220749212
 20
89.5790349332
 30
0.0
 11
80.1685215306
 21
89.7831722298
 31
0.0
  0
LINE
  5
2AA
100
AcDbEntity
  8
0
100
AcDbLine
 62
7
  6
CONTINUOUS
 10
93.1088240974
 20
59.5819524592
 30
0.0
 11
93.1207123729
 21
59.6350472629
 31
0.0
  0
LINE
  5
2AB
100
AcDbEntity
  8
0
100
AcDbLine
 62
7
  6
CONTINUOUS
 10
92.6370421853
 20
59.537750208
 30
0.0
 11
92.652696227
 21
59.5996112757
 31
0.0
  0
LINE
  5
2AC
100
AcDbEntity
  8
RACCORDO
100
AcDbLine
 62
7
  6
CONTINUOUS
 10
91.8207773343
 20
69.0346488253
 30
0.0
 11
92.0440201199
 21
69.5578715358
 31
0.0
  0
LINE
  5
2AD
100
AcDbEntity
  8
RACCORDO
100
AcDbLine
 62
250
  6
CONTINUOUS
 10
91.8207773343
 20
68.4631196315
 30
0.0
 11
92.0999265886
 21
69.117372485
 31
0.0
  0
LINE
  5
2AE
100
AcDbEntity
  8
RACCORDO
100
AcDbLine
 62
7
  6
CONTINUOUS
 10
92.0912132752
 20
69.0700814391
 30
0.0
 11
91.8111714733
 21
68.4137366876
 31
0.0
  0
LINE
  5
2AF
100
AcDbEntity
  8
DRAFT
100
AcDbLine
 62
7
  6
CONTINUOUS
 10
90.3457515085
 20
67.9663124463
 30
0.0
 11
90.4462588412
 21
68.1532336915
 31
0.0
  0
LINE
  5
2B0
100
AcDbEntity
  8
DRAFT
100
AcDbLine
 62
7
  6
CONTINUOUS
 10
85.9719048075
 20
70.4917167143
 30
0.0
 11
86.0835295091
 21
70.6722189301
 31
0.0
  0
LINE
  5
2B1
100
AcDbEntity
  8
DRAFT
100
AcDbLine
 62
7
  6
CONTINUOUS
 10
86.3439871461
 20
70.6851556285
 30
0.0
 11
86.4556118477
 21
70.8656578444
 31
0.0
  0
LINE
  5
2B2
100
AcDbEntity
  8
DRAFT
100
AcDbLine
 62
7
  6
CONTINUOUS
 10
86.7160694848
 20
70.8785945428
 30
0.0
 11
86.8276941864
 21
71.0590967586
 31
0.0
  0
LINE
  5
2B3
100
AcDbEntity
  8
DRAFT
100
AcDbLine
 62
7
  6
CONTINUOUS
 10
87.0881518234
 20
71.0720334571
 30
0.0
 11
87.199776525
 21
71.2525356729
 31
0.0
  0
LINE
  5
2B4
100
AcDbEntity
  8
DRAFT
100
AcDbLine
 62
7
  6
CONTINUOUS
 10
87.4602341621
 20
71.2654723714
 30
0.0
 11
87.5718588637
 21
71.4459745872
 31
0.0
  0
LINE
  5
2B5
100
AcDbEntity
  8
DRAFT
100
AcDbLine
 62
7
  6
CONTINUOUS
 10
78.5068205948
 20
88.8329473268
 30
0.0
 11
78.2946885604
 21
88.8393657359
 31
0.0
  0
LINE
  5
2B6
100
AcDbEntity
  8
DRAFT
100
AcDbLine
 62
7
  6
CONTINUOUS
 10
78.8603739854
 20
89.0156899264
 30
0.0
 11
78.648241951
 21
89.0221083355
 31
0.0
  0
LINE
  5
2B7
100
AcDbEntity
  8
DRAFT
100
AcDbLine
 62
7
  6
CONTINUOUS
 10
79.213927376
 20
89.198432526
 30
0.0
 11
79.0017953416
 21
89.2048509351
 31
0.0
  0
LINE
  5
2B8
100
AcDbEntity
  8
DRAFT
100
AcDbLine
 62
7
  6
CONTINUOUS
 10
79.5674807666
 20
89.3811751257
 30
0.0
 11
79.3553487322
 21
89.3875935348
 31
0.0
  0
LINE
  5
2B9
100
AcDbEntity
  8
DRAFT
100
AcDbLine
 62
7
  6
CONTINUOUS
 10
79.9210341572
 20
89.5639177253
 30
0.0
 11
79.7089021228
 21
89.5703361344
 31
0.0
  0
LINE
  5
2BA
100
AcDbEntity
  8
RACCORDO
100
AcDbLine
 62
7
  6
CONTINUOUS
 10
80.5220749212
 20
89.5144660014
 30
0.0
 11
79.9573585615
 21
89.58269287
 31
0.0
  0
LINE
  5
2BB
100
AcDbEntity
  8
RACCORDO
100
AcDbLine
 62
250
  6
CONTINUOUS
 10
80.1685215306
 20
89.7831722298
 30
0.0
 11
79.4623838147
 21
89.8684850854
 31
0.0
  0
LINE
  5
2BC
100
AcDbEntity
  8
RACCORDO
100
AcDbLine
 62
7
  6
CONTINUOUS
 10
79.4147970844
 20
89.8848622987
 30
0.0
 11
80.1231940152
 21
89.7992764935
 31
0.0
  0
LINE
  5
2BD
100
AcDbEntity
  8
DRAFT
100
AcDbLine
 62
7
  6
CONTINUOUS
 10
90.680775951
 20
68.1811481253
 30
0.0
 11
90.7812832838
 21
68.3680693706
 31
0.0
  0
LINE
  5
2BE
100
AcDbEntity
  8
DRAFT
100
AcDbLine
 62
7
  6
CONTINUOUS
 10
91.0158003935
 20
68.3959838044
 30
0.0
 11
91.1163077263
 21
68.5829050496
 31
0.0
  0
LINE
  5
2BF
100
AcDbEntity
  8
DRAFT
100
AcDbLine
 62
7
  6
CONTINUOUS
 10
91.3508248361
 20
68.6108194834
 30
0.0
 11
91.4513321688
 21
68.7977407287
 31
0.0
  0
LINE
  5
2C0
100
AcDbEntity
  8
DRAFT
100
AcDbLine
 62
7
  6
CONTINUOUS
 10
91.6858492786
 20
68.8256551625
 30
0.0
 11
91.7863566114
 21
69.0125764077
 31
0.0
  0
LINE
  5
2C1
100
AcDbEntity
  8
RACCORDO
100
AcDbLine
 62
250
  6
CONTINUOUS
 10
78.5420411973
 20
89.4544019504
 30
0.0
 11
78.2983913389
 21
89.3954719997
 31
0.0
  0
LINE
  5
2C2
100
AcDbEntity
  8
RACCORDO
100
AcDbLine
 62
7
  6
CONTINUOUS
 10
78.5989289505
 20
89.4838057581
 30
0.0
 11
78.2983913389
 21
89.4111167496
 31
0.0
  0
LINE
  5
2C3
100
AcDbEntity
  8
RACCORDO
100
AcDbLine
 62
250
  6
CONTINUOUS
 10
90.8289066088
 20
67.6914071526
 30
0.0
 11
91.0016745078
 21
67.8728568664
 31
0.0
  0
LINE
  5
2C4
100
AcDbEntity
  8
RACCORDO
100
AcDbLine
 62
7
  6
CONTINUOUS
 10
90.8424505226
 20
67.6835870665
 30
0.0
 11
91.0555736038
 21
67.9074198637
 31
0.0
  0
LINE
  5
2C5
100
AcDbEntity
  8
SMUSSO
100
AcDbLine
 62
7
  6
CONTINUOUS
 10
91.8207773343
 20
69.0346488253
 30
0.0
 11
91.7863566114
 21
69.0125764077
 31
0.0
  0
LINE
  5
2C6
100
AcDbEntity
  8
DRAFT
100
AcDbLine
 62
7
  6
CONTINUOUS
 10
91.5853419459
 20
68.8836750003
 30
0.0
 11
91.4513321688
 21
68.7977407287
 31
0.0
  0
LINE
  5
2C7
100
AcDbEntity
  8
DRAFT
100
AcDbLine
 62
7
  6
CONTINUOUS
 10
91.2503175033
 20
68.6688393212
 30
0.0
 11
91.1163077263
 21
68.5829050496
 31
0.0
  0
LINE
  5
2C8
100
AcDbEntity
  8
DRAFT
100
AcDbLine
 62
7
  6
CONTINUOUS
 10
90.9152930608
 20
68.4540036422
 30
0.0
 11
90.7812832838
 21
68.3680693706
 31
0.0
  0
LINE
  5
2C9
100
AcDbEntity
  8
DRAFT
100
AcDbLine
 62
7
  6
CONTINUOUS
 10
90.5802686183
 20
68.2391679631
 30
0.0
 11
90.4462588412
 21
68.1532336915
 31
0.0
  0
LINE
  5
2CA
100
AcDbEntity
  8
RACCORDO
100
AcDbLine
 62
250
  6
CONTINUOUS
 10
90.7175763351
 20
67.7556878573
 30
0.0
 11
91.8207773343
 21
68.4631196315
 31
0.0
  0
LINE
  5
2CB
100
AcDbEntity
  8
RACCORDO
100
AcDbLine
 62
7
  6
CONTINUOUS
 10
91.770924368
 20
68.3661412215
 30
0.0
 11
90.7709226424
 21
67.7248863681
 31
0.0
  0
LINE
  5
2CC
100
AcDbEntity
  8
SMUSSO
100
AcDbLine
 62
7
  6
CONTINUOUS
 10
87.6100869494
 20
71.4658486812
 30
0.0
 11
87.5718588637
 21
71.4459745872
 31
0.0
  0
LINE
  5
2CD
100
AcDbEntity
  8
DRAFT
100
AcDbLine
 62
7
  6
CONTINUOUS
 10
87.3486094605
 20
71.3299112386
 30
0.0
 11
87.199776525
 21
71.2525356729
 31
0.0
  0
LINE
  5
2CE
100
AcDbEntity
  8
DRAFT
100
AcDbLine
 62
7
  6
CONTINUOUS
 10
86.9765271218
 20
71.1364723243
 30
0.0
 11
86.8276941864
 21
71.0590967586
 31
0.0
  0
LINE
  5
2CF
100
AcDbEntity
  8
DRAFT
100
AcDbLine
 62
7
  6
CONTINUOUS
 10
86.6044447832
 20
70.9430334101
 30
0.0
 11
86.4556118477
 21
70.8656578444
 31
0.0
  0
LINE
  5
2D0
100
AcDbEntity
  8
DRAFT
100
AcDbLine
 62
7
  6
CONTINUOUS
 10
86.2323624445
 20
70.7495944958
 30
0.0
 11
86.0835295091
 21
70.6722189301
 31
0.0
  0
LWPOLYLINE
  5
2D1
100
AcDbEntity
  8
RACCORDO
100
AcDbPolyline
 62
7
  6
CONTINUOUS
 90
9
 70
0
 10
100.8584700373
 20
96.2561783268
 10
101.8290789887
 20
95.7189399451
 10
102.7745837122
 20
95.1984776971
 10
103.6950391416
 20
94.6948359792
 10
104.590455505
 20
94.2080340426
 10
105.4608028408
 20
93.7380677093
 10
106.3060141813
 20
93.2849114243
 10
107.1259897772
 20
92.8485206029
 10
107.8609662909
 20
92.4602179541
  0
LINE
  5
2D2
100
AcDbEntity
  8
RACCORDO
100
AcDbLine
 62
250
  6
CONTINUOUS
 10
99.9656905252
 20
96.8699906532
 30
0.0
 11
99.8539707081
 21
96.9321824194
 31
0.0
  0
LWPOLYLINE
  5
2D3
100
AcDbEntity
  8
RACCORDO
100
AcDbPolyline
 62
7
  6
CONTINUOUS
 90
15
 70
0
 10
107.8610138167
 20
92.4601929529
 10
107.8867043734
 20
92.445587241
 10
107.9122444539
 20
92.4289804067
 10
107.938847921
 20
92.4094948644
 10
107.9660062574
 20
92.3872714979
 10
107.9934264068
 20
92.3623635904
 10
108.0208291086
 20
92.3348488285
 10
108.0477713213
 20
92.3050307213
 10
108.0739760375
 20
92.2731161234
 10
108.0992065694
 20
92.2393078458
 10
108.123140313
 20
92.2039851555
 10
108.1455802413
 20
92.1674235574
 10
108.1663621177
 20
92.1298931427
 10
108.1852754303
 20
92.0918172904
 10
108.2022259564
 20
92.0534729822
  0
LWPOLYLINE
  5
2D4
100
AcDbEntity
  8
RACCORDO
100
AcDbPolyline
 62
7
  6
CONTINUOUS
 90
8
 70
0
 10
93.6884184699
 20
100.2997886944
 10
94.5810149184
 20
99.789380699
 10
95.4753918684
 20
99.2799789258
 10
96.3715458721
 20
98.7715853288
 10
97.2694737636
 20
98.2642016988
 10
98.1691720858
 20
97.7578299874
 10
99.0706366663
 20
97.2524725321
 10
100.8584700373
 20
96.2561783268
  0
LINE
  5
2D5
100
AcDbEntity
  8
RACCORDO
100
AcDbLine
 62
7
  6
CONTINUOUS
 10
91.9608621534
 20
101.2934253955
 30
0.0
 11
93.6884184699
 21
100.2997886944
 31
0.0
  0
LINE
  5
2D6
100
AcDbEntity
  8
RACCORDO
100
AcDbLine
 62
250
  6
CONTINUOUS
 10
92.0110714373
 20
101.3805550932
 30
0.0
 11
91.8990908504
 21
101.445084929
 31
0.0
  0
LINE
  5
2D7
100
AcDbEntity
  8
RACCORDO
100
AcDbLine
 62
7
  6
CONTINUOUS
 10
79.9573585615
 20
107.9532740979
 30
0.0
 11
79.4623838147
 21
108.2390663132
 31
0.0
  0
LINE
  5
2D8
100
AcDbEntity
  8
RACCORDO
100
AcDbLine
 62
7
  6
CONTINUOUS
 10
80.5220749212
 20
107.949616161
 30
0.0
 11
80.1685215306
 21
108.1537534577
 31
0.0
  0
LWPOLYLINE
  5
2D9
100
AcDbEntity
  8
RACCORDO
100
AcDbPolyline
 62
7
  6
CONTINUOUS
 90
7
 70
0
 10
85.8435141243
 20
104.8744362307
 10
86.7201426985
 20
104.3551895919
 10
87.5985839547
 20
103.8369305468
 10
88.4788345069
 20
103.3196610837
 10
89.3608912456
 20
102.8033830242
 10
90.2447507752
 20
102.2880983543
 10
91.9608621542
 20
101.293425395
  0
LINE
  5
2DA
100
AcDbEntity
  8
RACCORDO
100
AcDbLine
 62
7
  6
CONTINUOUS
 10
84.1470453053
 20
105.8851766198
 30
0.0
 11
85.8435141243
 21
104.8744362307
 31
0.0
  0
LINE
  5
2DB
100
AcDbEntity
  8
RACCORDO
100
AcDbLine
 62
250
  6
CONTINUOUS
 10
84.1975628801
 20
105.9698069534
 30
0.0
 11
84.0854894876
 21
106.0367058506
 31
0.0
  0
LWPOLYLINE
  5
2DC
100
AcDbEntity
  8
RACCORDO
100
AcDbPolyline
 62
7
  6
CONTINUOUS
 90
10
 70
0
 10
76.6722469556
 20
110.4682201169
 10
77.3482541074
 20
110.0416014185
 10
78.1030283212
 20
109.5687671293
 10
78.8868976779
 20
109.081328577
 10
79.6999422199
 20
108.5793413355
 10
80.5422084832
 20
108.0628425132
 10
81.4137048815
 20
107.5318486074
 10
82.3143975667
 20
106.9863537432
 10
83.2442079568
 20
106.4263269086
 10
84.1470449762
 20
105.8851768166
  0
LINE
  5
2DD
100
AcDbEntity
  8
RACCORDO
100
AcDbLine
 62
250
  6
CONTINUOUS
 10
76.7231030539
 20
110.5487633267
 30
0.0
 11
76.611266498
 21
110.6193784771
 31
0.0
  0
LWPOLYLINE
  5
2DE
100
AcDbEntity
  8
RACCORDO
100
AcDbPolyline
 62
7
  6
CONTINUOUS
 90
9
 70
0
 10
108.262452578
 20
55.7405698856
 10
108.2628607303
 20
55.7268095307
 10
108.262589042
 20
55.7090555981
 10
108.2614656359
 20
55.6933501037
 10
108.2596672199
 20
55.6797924228
 10
108.2574069086
 20
55.6685180284
 10
108.2549881665
 20
55.6597683455
 10
108.2527572053
 20
55.653609522
 10
108.2523618829
 20
55.6526762919
  0
LWPOLYLINE
  5
2DF
100
AcDbEntity
  8
RACCORDO
100
AcDbPolyline
 62
7
  6
CONTINUOUS
 90
10
 70
0
 10
107.8954495489
 20
73.5300535721
 10
107.9004653559
 20
71.3265430495
 10
107.9155821018
 20
69.1315603318
 10
107.9400713306
 20
67.0050966632
 10
107.9732026384
 20
64.9467671889
 10
108.0143647023
 20
62.9562273247
 10
108.0637705843
 20
61.0336139604
 10
108.121952333
 20
59.1793355001
 10
108.1891819274
 20
57.3936587201
 10
108.2624493886
 20
55.7406362343
  0
LINE
  5
2E0
100
AcDbEntity
  8
RACCORDO
100
AcDbLine
 62
7
  6
CONTINUOUS
 10
107.730679911
 20
59.2769412817
 30
0.0
 11
107.730679911
 21
59.8484704754
 31
0.0
  0
LINE
  5
2E1
100
AcDbEntity
  8
RACCORDO
100
AcDbLine
 62
7
  6
CONTINUOUS
 10
108.0098291653
 20
59.9311941352
 30
0.0
 11
108.0098291653
 21
60.3394292736
 31
0.0
  0
LWPOLYLINE
  5
2E2
100
AcDbEntity
  8
RACCORDO
100
AcDbPolyline
 62
7
  6
CONTINUOUS
 90
10
 70
0
 10
108.2624134913
 20
91.7571490831
 10
108.1889395481
 20
90.0112028522
 10
108.121752459
 20
88.1453756649
 10
108.0636080972
 20
86.221722509
 10
108.0142343437
 20
84.2401864818
 10
107.9731002793
 20
82.2005485028
 10
107.9399947235
 20
80.1027050637
 10
107.9155314361
 20
77.9470475996
 10
107.9004404145
 20
75.7340616151
 10
107.8954495489
 20
73.5300526403
  0
LINE
  5
2E3
100
AcDbEntity
  8
0
100
AcDbLine
 62
7
  6
CONTINUOUS
 10
88.510260368
 20
63.8251707457
 30
0.0
 11
88.5669620075
 21
63.8579095617
 31
0.0
  0
LINE
  5
2E4
100
AcDbEntity
  8
0
100
AcDbLine
 62
7
  6
CONTINUOUS
 10
88.9080830864
 20
63.592025655
 30
0.0
 11
88.9647843499
 21
63.6247642539
 31
0.0
  0
LINE
  5
2E5
100
AcDbEntity
  8
0
100
AcDbLine
 62
7
  6
CONTINUOUS
 10
89.5879900888
 20
63.1945465376
 30
0.0
 11
89.6446908288
 21
63.2272848343
 31
0.0
  0
LWPOLYLINE
  5
2E6
100
AcDbEntity
  8
RACCORDO
100
AcDbPolyline
 62
7
  6
CONTINUOUS
 90
10
 70
0
 10
108.2022294845
 20
92.0534644983
 10
108.2062678329
 20
92.0435775554
 10
108.2211619667
 20
92.0038053641
 10
108.2338501273
 20
91.9642187714
 10
108.2442334401
 20
91.9252785444
 10
108.2522426442
 20
91.8875955463
 10
108.2579457022
 20
91.8514536238
 10
108.2614321902
 20
91.8171852954
 10
108.2628317956
 20
91.7854270572
 10
108.262416204
 20
91.7572086739
  0
LINE
  5
2E7
100
AcDbEntity
  8
DRAFT
100
AcDbLine
 62
7
  6
CONTINUOUS
 10
101.8818073842
 20
61.3055383644
 30
0.0
 11
101.9934320858
 21
61.4860405802
 31
0.0
  0
LINE
  5
2E8
100
AcDbEntity
  8
DRAFT
100
AcDbLine
 62
7
  6
CONTINUOUS
 10
102.2538897228
 20
61.4989772787
 30
0.0
 11
102.3655144244
 21
61.6794794945
 31
0.0
  0
LINE
  5
2E9
100
AcDbEntity
  8
DRAFT
100
AcDbLine
 62
7
  6
CONTINUOUS
 10
102.6259720615
 20
61.692416193
 30
0.0
 11
102.7375967631
 21
61.8729184088
 31
0.0
  0
LINE
  5
2EA
100
AcDbEntity
  8
DRAFT
100
AcDbLine
 62
7
  6
CONTINUOUS
 10
102.9980544001
 20
61.8858551072
 30
0.0
 11
103.1096791017
 21
62.066357323
 31
0.0
  0
LINE
  5
2EB
100
AcDbEntity
  8
DRAFT
100
AcDbLine
 62
7
  6
CONTINUOUS
 10
103.3701367388
 20
62.0792940215
 30
0.0
 11
103.4817614404
 21
62.2597962373
 31
0.0
  0
LINE
  5
2EC
100
AcDbEntity
  8
0
100
AcDbLine
 62
7
  6
CONTINUOUS
 10
89.9548513863
 20
62.9805895112
 30
0.0
 11
90.0115519051
 21
63.0133276802
 31
0.0
  0
LINE
  5
2ED
100
AcDbEntity
  8
0
100
AcDbLine
 62
7
  6
CONTINUOUS
 10
90.0911593502
 20
62.9012987238
 30
0.0
 11
90.1478597954
 21
62.9340368503
 31
0.0
  0
LINE
  5
2EE
100
AcDbEntity
  8
0
100
AcDbLine
 62
7
  6
CONTINUOUS
 10
90.458696286
 20
62.6874402945
 30
0.0
 11
90.5153965655
 21
62.7201783253
 31
0.0
  0
LINE
  5
2EF
100
AcDbEntity
  8
0
100
AcDbLine
 62
7
  6
CONTINUOUS
 10
90.8158416444
 20
62.4798579109
 30
0.0
 11
90.8725418022
 21
62.5125958714
 31
0.0
  0
LINE
  5
2F0
100
AcDbEntity
  8
0
100
AcDbLine
 62
7
  6
CONTINUOUS
 10
89.5210913759
 20
61.3452912934
 30
0.0
 11
89.5778278888
 21
61.3780502449
 31
0.0
  0
LINE
  5
2F1
100
AcDbEntity
  8
0
100
AcDbLine
 62
7
  6
CONTINUOUS
 10
91.1836839583
 20
62.2665285523
 30
0.0
 11
91.2403840253
 21
62.2992664604
 31
0.0
  0
LINE
  5
2F2
100
AcDbEntity
  8
0
100
AcDbLine
 62
7
  6
CONTINUOUS
 10
91.9170104834
 20
61.8423028002
 30
0.0
 11
91.9737104744
 21
61.8750406644
 31
0.0
  0
LINE
  5
2F3
100
AcDbEntity
  8
0
100
AcDbLine
 62
7
  6
CONTINUOUS
 10
90.5901354184
 20
60.7222489879
 30
0.0
 11
90.646871336
 21
60.7550075956
 31
0.0
  0
LINE
  5
2F4
100
AcDbEntity
  8
0
100
AcDbLine
 62
7
  6
CONTINUOUS
 10
92.2821700797
 20
61.6315872419
 30
0.0
 11
92.338870082
 21
61.6643251126
 31
0.0
  0
LINE
  5
2F5
100
AcDbEntity
  8
0
100
AcDbLine
 62
7
  6
CONTINUOUS
 10
91.1401823888
 20
60.4028630757
 30
0.0
 11
91.1969181307
 21
60.435621582
 31
0.0
  0
LINE
  5
2F6
100
AcDbEntity
  8
0
100
AcDbLine
 62
7
  6
CONTINUOUS
 10
93.0610589529
 20
61.1832956992
 30
0.0
 11
93.117759091
 21
61.2160336483
 31
0.0
  0
LINE
  5
2F7
100
AcDbEntity
  8
0
100
AcDbLine
 62
7
  6
CONTINUOUS
 10
91.7035161189
 20
60.0765913331
 30
0.0
 11
91.7602517651
 21
60.1093497842
 31
0.0
  0
LINE
  5
2F8
100
AcDbEntity
  8
0
100
AcDbLine
 62
7
  6
CONTINUOUS
 10
93.4190152569
 20
60.9778040169
 30
0.0
 11
93.4757155115
 21
61.0105420333
 31
0.0
  0
LINE
  5
2F9
100
AcDbEntity
  8
DRAFT
100
AcDbLine
 62
7
  6
CONTINUOUS
 10
78.5068205948
 20
102.166044938
 30
0.0
 11
78.2946885604
 21
102.1596265289
 31
0.0
  0
LINE
  5
2FA
100
AcDbEntity
  8
DRAFT
100
AcDbLine
 62
7
  6
CONTINUOUS
 10
78.8603739854
 20
102.3915769317
 30
0.0
 11
78.648241951
 21
102.3851585226
 31
0.0
  0
LINE
  5
2FB
100
AcDbEntity
  8
DRAFT
100
AcDbLine
 62
7
  6
CONTINUOUS
 10
79.213927376
 20
102.6171089254
 30
0.0
 11
79.0017953416
 21
102.6106905163
 31
0.0
  0
LINE
  5
2FC
100
AcDbEntity
  8
DRAFT
100
AcDbLine
 62
7
  6
CONTINUOUS
 10
79.5674807666
 20
102.8426409191
 30
0.0
 11
79.3553487322
 21
102.83622251
 31
0.0
  0
LINE
  5
2FD
100
AcDbEntity
  8
DRAFT
100
AcDbLine
 62
7
  6
CONTINUOUS
 10
79.9210341572
 20
103.0681729128
 30
0.0
 11
79.7089021228
 21
103.0617545037
 31
0.0
  0
LINE
  5
2FE
100
AcDbEntity
  8
RACCORDO
100
AcDbLine
 62
7
  6
CONTINUOUS
 10
80.5220749212
 20
107.8850472292
 30
0.0
 11
79.9573585615
 21
107.9532740979
 31
0.0
  0
LINE
  5
2FF
100
AcDbEntity
  8
RACCORDO
100
AcDbLine
 62
250
  6
CONTINUOUS
 10
80.1685215306
 20
108.1537534577
 30
0.0
 11
79.4623838147
 21
108.2390663132
 31
0.0
  0
LINE
  5
300
100
AcDbEntity
  8
RACCORDO
100
AcDbLine
 62
7
  6
CONTINUOUS
 10
79.4147970844
 20
108.2554435265
 30
0.0
 11
80.1231940152
 21
108.1698577213
 31
0.0
  0
LINE
  5
301
100
AcDbEntity
  8
RACCORDO
100
AcDbLine
 62
7
  6
CONTINUOUS
 10
107.730679911
 20
59.8484704754
 30
0.0
 11
107.9539226966
 21
60.371693186
 31
0.0
  0
LINE
  5
302
100
AcDbEntity
  8
RACCORDO
100
AcDbLine
 62
250
  6
CONTINUOUS
 10
107.730679911
 20
59.2769412817
 30
0.0
 11
108.0098291653
 21
59.9311941352
 31
0.0
  0
LINE
  5
303
100
AcDbEntity
  8
RACCORDO
100
AcDbLine
 62
7
  6
CONTINUOUS
 10
108.0011158519
 20
59.8839030892
 30
0.0
 11
107.72107405
 21
59.2275583377
 31
0.0
  0
LWPOLYLINE
  5
304
100
AcDbEntity
  8
RACCORDO
100
AcDbPolyline
 62
7
  6
CONTINUOUS
 90
4
 70
0
 10
108.2523618829
 20
55.6526762919
 10
108.2510609542
 20
55.649935618
 10
108.2503533427
 20
55.6486963974
 10
108.2512054536
 20
55.6497787344
  0
LINE
  5
305
100
AcDbEntity
  8
DRAFT
100
AcDbLine
 62
7
  6
CONTINUOUS
 10
106.2556540852
 20
58.7801340964
 30
0.0
 11
106.3561614179
 21
58.9670553416
 31
0.0
  0
LINE
  5
306
100
AcDbEntity
  8
DRAFT
100
AcDbLine
 62
7
  6
CONTINUOUS
 10
106.5906785277
 20
58.9949697755
 30
0.0
 11
106.6911858605
 21
59.1818910207
 31
0.0
  0
LINE
  5
307
100
AcDbEntity
  8
DRAFT
100
AcDbLine
 62
7
  6
CONTINUOUS
 10
106.9257029702
 20
59.2098054545
 30
0.0
 11
107.026210303
 21
59.3967266997
 31
0.0
  0
LINE
  5
308
100
AcDbEntity
  8
DRAFT
100
AcDbLine
 62
7
  6
CONTINUOUS
 10
107.2607274128
 20
59.4246411336
 30
0.0
 11
107.3612347455
 21
59.6115623788
 31
0.0
  0
LINE
  5
309
100
AcDbEntity
  8
DRAFT
100
AcDbLine
 62
7
  6
CONTINUOUS
 10
107.5957518553
 20
59.6394768126
 30
0.0
 11
107.6962591881
 21
59.8263980579
 31
0.0
  0
LINE
  5
30A
100
AcDbEntity
  8
0
100
AcDbLine
 62
7
  6
CONTINUOUS
 10
94.0737516642
 20
60.5806030244
 30
0.0
 11
94.130452612
 21
60.6133414411
 31
0.0
  0
LINE
  5
30B
100
AcDbEntity
  8
0
100
AcDbLine
 62
7
  6
CONTINUOUS
 10
93.1317002482
 20
59.9199193381
 30
0.0
 11
93.188422723
 21
59.9526701842
 31
0.0
  0
LINE
  5
30C
100
AcDbEntity
  8
0
100
AcDbLine
 62
7
  6
CONTINUOUS
 10
92.5790381217
 20
59.5711641628
 30
0.0
 11
92.6357737761
 21
59.6039226186
 31
0.0
  0
LINE
  5
30D
100
AcDbEntity
  8
0
100
AcDbLine
 62
7
  6
CONTINUOUS
 10
93.0025967393
 20
59.3273704778
 30
0.0
 11
93.0593324661
 21
59.3601289754
 31
0.0
  0
LINE
  5
30E
100
AcDbEntity
  8
0
100
AcDbLine
 62
250
  6
CONTINUOUS
 10
94.9908741023
 20
60.0371753993
 30
0.0
 11
95.0475760459
 21
60.0699143909
 31
0.0
  0
LINE
  5
30F
100
AcDbEntity
  8
0
100
AcDbLine
 62
7
  6
CONTINUOUS
 10
94.4856721514
 20
59.5240776065
 30
0.0
 11
94.5423880884
 21
59.5568246778
 31
0.0
  0
LINE
  5
310
100
AcDbEntity
  8
0
100
AcDbLine
 62
250
  6
CONTINUOUS
 10
94.6977573035
 20
59.4030383932
 30
0.0
 11
94.7544733901
 21
59.4357855508
 31
0.0
  0
LINE
  5
311
100
AcDbEntity
  8
0
100
AcDbLine
 62
7
  6
CONTINUOUS
 10
94.0949020976
 20
58.7008147523
 30
0.0
 11
94.1516382345
 21
58.7335734866
 31
0.0
  0
LINE
  5
312
100
AcDbEntity
  8
0
100
AcDbLine
 62
7
  6
CONTINUOUS
 10
95.0943149859
 20
59.0100468943
 30
0.0
 11
95.107608466
 21
59.017722383
 31
0.0
  0
LINE
  5
313
100
AcDbEntity
  8
0
100
AcDbLine
 62
7
  6
CONTINUOUS
 10
94.5731350342
 20
58.4274709339
 30
0.0
 11
94.6298714593
 21
58.4602298347
 31
0.0
  0
LINE
  5
314
100
AcDbEntity
  8
0
100
AcDbLine
 62
250
  6
CONTINUOUS
 10
95.3347640348
 20
58.5029313777
 30
0.0
 11
95.3914908601
 21
58.5356847357
 31
0.0
  0
LINE
  5
315
100
AcDbEntity
  8
0
100
AcDbLine
 62
7
  6
CONTINUOUS
 10
95.4991686423
 20
57.8998550043
 30
0.0
 11
95.5559058268
 21
57.9326143435
 31
0.0
  0
LINE
  5
316
100
AcDbEntity
  8
SMUSSO
100
AcDbLine
 62
7
  6
CONTINUOUS
 10
103.5199895261
 20
62.2796703314
 30
0.0
 11
103.4817614404
 21
62.2597962373
 31
0.0
  0
LINE
  5
317
100
AcDbEntity
  8
DRAFT
100
AcDbLine
 62
7
  6
CONTINUOUS
 10
103.2585120372
 20
62.1437328887
 30
0.0
 11
103.1096791017
 21
62.066357323
 31
0.0
  0
LINE
  5
318
100
AcDbEntity
  8
DRAFT
100
AcDbLine
 62
7
  6
CONTINUOUS
 10
102.8864296985
 20
61.9502939745
 30
0.0
 11
102.7375967631
 21
61.8729184088
 31
0.0
  0
LINE
  5
319
100
AcDbEntity
  8
DRAFT
100
AcDbLine
 62
7
  6
CONTINUOUS
 10
102.5143473599
 20
61.7568550602
 30
0.0
 11
102.3655144244
 21
61.6794794945
 31
0.0
  0
LINE
  5
31A
100
AcDbEntity
  8
DRAFT
100
AcDbLine
 62
7
  6
CONTINUOUS
 10
102.1422650212
 20
61.5634161459
 30
0.0
 11
101.9934320858
 21
61.4860405802
 31
0.0
  0
LINE
  5
31B
100
AcDbEntity
  8
DRAFT
100
AcDbLine
 62
7
  6
CONTINUOUS
 10
78.5068205948
 20
107.2035285546
 30
0.0
 11
78.2946885604
 21
107.2099469637
 31
0.0
  0
LINE
  5
31C
100
AcDbEntity
  8
DRAFT
100
AcDbLine
 62
7
  6
CONTINUOUS
 10
78.8603739854
 20
107.3862711542
 30
0.0
 11
78.648241951
 21
107.3926895633
 31
0.0
  0
LINE
  5
31D
100
AcDbEntity
  8
DRAFT
100
AcDbLine
 62
7
  6
CONTINUOUS
 10
79.213927376
 20
107.5690137539
 30
0.0
 11
79.0017953416
 21
107.575432163
 31
0.0
  0
LINE
  5
31E
100
AcDbEntity
  8
DRAFT
100
AcDbLine
 62
7
  6
CONTINUOUS
 10
79.5674807666
 20
107.7517563535
 30
0.0
 11
79.3553487322
 21
107.7581747626
 31
0.0
  0
LINE
  5
31F
100
AcDbEntity
  8
DRAFT
100
AcDbLine
 62
7
  6
CONTINUOUS
 10
79.9210341572
 20
107.9344989531
 30
0.0
 11
79.7089021228
 21
107.9409173622
 31
0.0
  0
LINE
  5
320
100
AcDbEntity
  8
RACCORDO
100
AcDbLine
 62
250
  6
CONTINUOUS
 10
123.534443822
 20
48.2519957544
 30
0.0
 11
123.541014147
 21
48.1203595004
 31
0.0
  0
LINE
  5
321
100
AcDbEntity
  8
RACCORDO
100
AcDbLine
 62
250
  6
CONTINUOUS
 10
123.5410141477
 20
84.8615218289
 30
0.0
 11
123.5344438228
 21
84.7222983286
 31
0.0
  0
LINE
  5
322
100
AcDbEntity
  8
RACCORDO
100
AcDbLine
 62
250
  6
CONTINUOUS
 10
106.7388091855
 20
58.5052288027
 30
0.0
 11
106.9115770845
 21
58.6866785166
 31
0.0
  0
LINE
  5
323
100
AcDbEntity
  8
RACCORDO
100
AcDbLine
 62
7
  6
CONTINUOUS
 10
106.7523530993
 20
58.4974087166
 30
0.0
 11
106.9654761805
 21
58.7212415138
 31
0.0
  0
LINE
  5
324
100
AcDbEntity
  8
SMUSSO
100
AcDbLine
 62
7
  6
CONTINUOUS
 10
107.730679911
 20
59.8484704754
 30
0.0
 11
107.6962591881
 21
59.8263980579
 31
0.0
  0
LINE
  5
325
100
AcDbEntity
  8
DRAFT
100
AcDbLine
 62
7
  6
CONTINUOUS
 10
107.4952445226
 20
59.6974966504
 30
0.0
 11
107.3612347455
 21
59.6115623788
 31
0.0
  0
LINE
  5
326
100
AcDbEntity
  8
DRAFT
100
AcDbLine
 62
7
  6
CONTINUOUS
 10
107.16022008
 20
59.4826609714
 30
0.0
 11
107.026210303
 21
59.3967266997
 31
0.0
  0
LINE
  5
327
100
AcDbEntity
  8
DRAFT
100
AcDbLine
 62
7
  6
CONTINUOUS
 10
106.8251956375
 20
59.2678252923
 30
0.0
 11
106.6911858605
 21
59.1818910207
 31
0.0
  0
LINE
  5
328
100
AcDbEntity
  8
DRAFT
100
AcDbLine
 62
7
  6
CONTINUOUS
 10
106.490171195
 20
59.0529896133
 30
0.0
 11
106.3561614179
 21
58.9670553416
 31
0.0
  0
LINE
  5
329
100
AcDbEntity
  8
RACCORDO
100
AcDbLine
 62
250
  6
CONTINUOUS
 10
106.6274789118
 20
58.5695095074
 30
0.0
 11
107.730679911
 21
59.2769412817
 31
0.0
  0
LINE
  5
32A
100
AcDbEntity
  8
RACCORDO
100
AcDbLine
 62
7
  6
CONTINUOUS
 10
107.6808269447
 20
59.1799628716
 30
0.0
 11
106.6808252191
 21
58.5387080182
 31
0.0
  0
LINE
  5
32B
100
AcDbEntity
  8
RACCORDO
100
AcDbLine
 62
250
  6
CONTINUOUS
 10
78.5420411973
 20
107.8249831783
 30
0.0
 11
78.2983913389
 21
107.7660532276
 31
0.0
  0
LINE
  5
32C
100
AcDbEntity
  8
RACCORDO
100
AcDbLine
 62
7
  6
CONTINUOUS
 10
78.5989289505
 20
107.8543869859
 30
0.0
 11
78.2983913389
 21
107.7816979774
 31
0.0
  0
LWPOLYLINE
  5
32D
100
AcDbEntity
  8
RACCORDO
100
AcDbPolyline
 62
7
  6
CONTINUOUS
 90
11
 70
0
 10
76.5845598289
 20
110.503608743
 10
76.5837552246
 20
110.5034702361
 10
76.5855407659
 20
110.503503776
 10
76.5897114933
 20
110.5032066964
 10
76.5963847279
 20
110.502148081
 10
76.6056198211
 20
110.4999052378
 10
76.6170959694
 20
110.4961857143
 10
76.6302919014
 20
110.4908813468
 10
76.6448925213
 20
110.4839250341
 10
76.6607456953
 20
110.475224408
 10
76.6721737485
 20
110.4682665249
  0
LINE
  5
32E
100
AcDbEntity
  8
RACCORDO
100
AcDbLine
 62
250
  6
CONTINUOUS
 10
101.1521611004
 20
113.6087894724
 30
0.0
 11
101.1902004497
 21
113.5875976543
 31
0.0
  0
LINE
  5
32F
100
AcDbEntity
  8
RACCORDO
100
AcDbLine
 62
250
  6
CONTINUOUS
 10
101.3295582111
 20
113.9243056823
 30
0.0
 11
101.3675820747
 21
113.9031224867
 31
0.0
  0
LINE
  5
330
100
AcDbEntity
  8
RACCORDO
100
AcDbLine
 62
250
  6
CONTINUOUS
 10
85.4217192293
 20
122.6921210855
 30
0.0
 11
85.4584211399
 21
122.6701582369
 31
0.0
  0
LINE
  5
331
100
AcDbEntity
  8
RACCORDO
100
AcDbLine
 62
250
  6
CONTINUOUS
 10
85.6055755914
 20
123.0039074859
 30
0.0
 11
85.642262642
 21
122.9819535359
 31
0.0
  0
LINE
  5
332
100
AcDbEntity
  8
RACCORDO
100
AcDbLine
 62
250
  6
CONTINUOUS
 10
128.0167957095
 20
38.035962626
 30
0.0
 11
128.0179120454
 21
37.7449613534
 31
0.0
  0
LINE
  5
333
100
AcDbEntity
  8
RACCORDO
100
AcDbLine
 62
7
  6
CONTINUOUS
 10
128.0227525113
 20
37.7668533716
 30
0.0
 11
128.0221130329
 21
38.0360271376
 31
0.0
  0
LWPOLYLINE
  5
334
100
AcDbEntity
  8
RACCORDO
100
AcDbPolyline
 62
7
  6
CONTINUOUS
 90
8
 70
0
 10
70.9804711038
 20
136.5659275196
 10
70.9258708392
 20
136.5967615193
 10
70.8179011695
 20
136.6524773029
 10
70.7106522038
 20
136.7008316087
 10
70.6044234475
 20
136.7417950935
 10
70.4994495783
 20
136.7753893345
 10
70.3959083016
 20
136.8016319232
 10
70.311609412
 20
136.8177560254
  0
LINE
  5
335
100
AcDbEntity
  8
RACCORDO
100
AcDbLine
 62
250
  6
CONTINUOUS
 10
125.834486597
 20
104.8861304741
 30
0.0
 11
126.112295957
 21
104.7273499396
 31
0.0
  0
LINE
  5
336
100
AcDbEntity
  8
RACCORDO
100
AcDbLine
 62
7
  6
CONTINUOUS
 10
126.1347090865
 20
104.7205617504
 30
0.0
 11
124.0104983712
 21
105.9423895408
 31
0.0
  0
LINE
  5
337
100
AcDbEntity
  8
RACCORDO
100
AcDbLine
 62
7
  6
CONTINUOUS
 10
124.0104983712
 20
105.9423895408
 30
0.0
 11
111.1963130554
 21
113.3285732977
 31
0.0
  0
LINE
  5
338
100
AcDbEntity
  8
RACCORDO
100
AcDbLine
 62
250
  6
CONTINUOUS
 10
106.3973105983
 20
116.0779908403
 30
0.0
 11
106.4322041338
 21
116.0578552544
 31
0.0
  0
LINE
  5
339
100
AcDbEntity
  8
RACCORDO
100
AcDbLine
 62
250
  6
CONTINUOUS
 10
98.5130380495
 20
120.6287969824
 30
0.0
 11
98.5483619279
 21
120.6084014581
 31
0.0
  0
LINE
  5
33A
100
AcDbEntity
  8
RACCORDO
100
AcDbLine
 62
7
  6
CONTINUOUS
 10
111.1963130554
 20
113.3285732977
 30
0.0
 11
97.6111254142
 21
121.1702868673
 31
0.0
  0
LINE
  5
33B
100
AcDbEntity
  8
RACCORDO
100
AcDbLine
 62
250
  6
CONTINUOUS
 10
90.6308825556
 20
125.1813287924
 30
0.0
 11
90.6657614155
 21
125.1611788685
 31
0.0
  0
LINE
  5
33C
100
AcDbEntity
  8
RACCORDO
100
AcDbLine
 62
7
  6
CONTINUOUS
 10
97.6111254142
 20
121.1702868673
 30
0.0
 11
81.37209556
 21
130.5522728323
 31
0.0
  0
LINE
  5
33D
100
AcDbEntity
  8
RACCORDO
100
AcDbLine
 62
7
  6
CONTINUOUS
 10
81.37209556
 20
130.5522728323
 30
0.0
 11
71.256789101
 21
136.4054753377
 31
0.0
  0
LINE
  5
33E
100
AcDbEntity
  8
RACCORDO
100
AcDbLine
 62
7
  6
CONTINUOUS
 10
71.2568729947
 20
136.4054267286
 30
0.0
 11
70.9804680442
 21
136.5659292971
 31
0.0
  0
LINE
  5
33F
100
AcDbEntity
  8
RACCORDO
100
AcDbLine
 62
250
  6
CONTINUOUS
 10
70.9577254633
 20
136.5728050399
 30
0.0
 11
71.2537970206
 21
136.4003341963
 31
0.0
  0
LWPOLYLINE
  5
340
100
AcDbEntity
  8
RACCORDO
100
AcDbPolyline
 62
7
  6
CONTINUOUS
 90
31
 70
0
 10
128.0227524833
 20
101.4515013853
 10
128.022214217
 20
101.5112075516
 10
128.0168604815
 20
101.6351332226
 10
128.0058272188
 20
101.7611339737
 10
127.9892337372
 20
101.8887949765
 10
127.9672087099
 20
102.0178043898
 10
127.9398492198
 20
102.147927909
 10
127.9072591837
 20
102.2788223811
 10
127.8695569897
 20
102.4101265508
 10
127.8268428493
 20
102.5415698903
 10
127.7792533562
 20
102.6728011933
 10
127.7269420893
 20
102.8034550133
 10
127.6700459505
 20
102.9332333612
 10
127.6087319848
 20
103.0617777736
 10
127.5431727709
 20
103.1887393302
 10
127.4735152522
 20
103.3138307812
 10
127.3999545312
 20
103.4367026354
 10
127.3226905403
 20
103.5570088935
 10
127.2418964531
 20
103.6744774571
 10
127.157783755
 20
103.7887786145
 10
127.0705767479
 20
103.8995848189
 10
126.9804606084
 20
104.0066223912
 10
126.8876733294
 20
104.1095690678
 10
126.7924500347
 20
104.2081211303
 10
126.6949754729
 20
104.302048437
 10
126.5955026677
 20
104.3910616513
 10
126.4942772891
 20
104.4748891494
 10
126.391453946
 20
104.5533159762
 10
126.2872504758
 20
104.6260528258
 10
126.1819738728
 20
104.6927765394
 10
126.1347083878
 20
104.7205621512
  0
LINE
  5
341
100
AcDbEntity
  8
RACCORDO
100
AcDbLine
 62
7
  6
CONTINUOUS
 10
128.0221131165
 20
38.0359816247
 30
0.0
 11
128.0180372527
 21
40.6175450721
 31
0.0
  0
LINE
  5
342
100
AcDbEntity
  8
RACCORDO
100
AcDbLine
 62
250
  6
CONTINUOUS
 10
127.9932679161
 20
51.2509525571
 30
0.0
 11
127.9932992183
 21
51.2132917996
 31
0.0
  0
LINE
  5
343
100
AcDbEntity
  8
RACCORDO
100
AcDbLine
 62
7
  6
CONTINUOUS
 10
128.0180372527
 20
40.6175450721
 30
0.0
 11
128.0102231113
 21
48.0294980745
 31
0.0
  0
LINE
  5
344
100
AcDbEntity
  8
RACCORDO
100
AcDbLine
 62
7
  6
CONTINUOUS
 10
128.0102231113
 20
48.0294980745
 30
0.0
 11
128.0063598202
 21
56.7797160644
 31
0.0
  0
LINE
  5
345
100
AcDbEntity
  8
RACCORDO
100
AcDbLine
 62
250
  6
CONTINUOUS
 10
127.9872834595
 20
69.6194555895
 30
0.0
 11
127.9872834351
 21
69.578666347
 31
0.0
  0
LINE
  5
346
100
AcDbEntity
  8
RACCORDO
100
AcDbLine
 62
7
  6
CONTINUOUS
 10
128.0063598202
 20
56.7797160644
 30
0.0
 11
128.0050010026
 21
71.8699225977
 31
0.0
  0
LINE
  5
347
100
AcDbEntity
  8
RACCORDO
100
AcDbLine
 62
7
  6
CONTINUOUS
 10
128.0050010026
 20
71.8699225977
 30
0.0
 11
128.0068815169
 21
84.3894011345
 31
0.0
  0
LINE
  5
348
100
AcDbEntity
  8
RACCORDO
100
AcDbLine
 62
250
  6
CONTINUOUS
 10
127.9933312401
 20
87.9841770931
 30
0.0
 11
127.9932992183
 21
87.9465037111
 31
0.0
  0
LINE
  5
349
100
AcDbEntity
  8
RACCORDO
100
AcDbLine
 62
7
  6
CONTINUOUS
 10
128.0068815169
 20
84.3894011345
 30
0.0
 11
128.013133492
 21
94.3085023597
 31
0.0
  0
LINE
  5
34A
100
AcDbEntity
  8
RACCORDO
100
AcDbLine
 62
7
  6
CONTINUOUS
 10
128.013133492
 20
94.3085023597
 30
0.0
 11
128.02275251
 21
101.4515118333
 31
0.0
  0
LINE
  5
34B
100
AcDbEntity
  8
RACCORDO
100
AcDbLine
 62
250
  6
CONTINUOUS
 10
128.0178617979
 20
101.4296452385
 30
0.0
 11
128.0168749375
 21
101.1604526992
 31
0.0
  0
LWPOLYLINE
  5
34C
100
AcDbEntity
  8
RACCORDO
100
AcDbPolyline
 62
7
  6
CONTINUOUS
 90
8
 70
0
 10
127.9132130109
 20
37.0807957114
 10
127.9354190173
 20
37.1461309011
 10
127.9643799915
 20
37.2492619739
 10
127.9876586197
 20
37.3573364383
 10
128.0051494302
 20
37.4701999849
 10
128.0167198209
 20
37.5876532484
 10
128.0222495803
 20
37.7094154977
 10
128.0227525032
 20
37.76685664
  0
LINE
  5
34D
100
AcDbEntity
  8
SUPERFICI
100
AcDbLine
 62
7
  6
CONTINUOUS
 10
127.9131127933
 20
37.080518634
 30
0.0
 11
127.4146077549
 21
35.7067563848
 31
0.0
  0
LINE
  5
34E
100
AcDbEntity
  8
RACCORDO
100
AcDbLine
 62
7
  6
CONTINUOUS
 10
127.9132117666
 20
37.080789907
 30
0.0
 11
127.9131128377
 21
37.0805187559
 31
0.0
  0
LINE
  5
34F
100
AcDbEntity
  8
RACCORDO
100
AcDbLine
 62
7
  6
CONTINUOUS
 10
70.3111658177
 20
136.8178282846
 30
0.0
 11
70.3115988711
 21
136.8177579366
 31
0.0
  0
LINE
  5
350
100
AcDbEntity
  8
SUPERFICI
100
AcDbLine
 62
7
  6
CONTINUOUS
 10
69.3406579602
 20
136.9779662127
 30
0.0
 11
70.311165848
 21
136.8178282797
 31
0.0
  0
LINE
  5
351
100
AcDbEntity
  8
SUPERFICI
100
AcDbLine
 62
7
  6
CONTINUOUS
 10
68.8038712593
 20
137.0681421901
 30
0.0
 11
69.3406579602
 21
136.9779662127
 31
0.0
  0
LINE
  5
352
100
AcDbEntity
  8
RACCORDO
100
AcDbLine
 62
7
  6
CONTINUOUS
 10
124.1091949457
 20
33.5909579263
 30
0.0
 11
124.107583699
 21
33.59036434
 31
0.0
  0
LINE
  5
353
100
AcDbEntity
  8
SUPERFICI
100
AcDbLine
 62
7
  6
CONTINUOUS
 10
126.4823366508
 20
34.4635243503
 30
0.0
 11
124.1075834206
 21
33.5903642376
 31
0.0
  0
ARC
  5
354
100
AcDbEntity
  8
0
100
AcDbCircle
 62
7
  6
CONTINUOUS
 10
291.1983162794
 20
62.3782317994
 30
0.0
 40
200.0678860222
100
AcDbArc
 50
180.2117649272
 51
180.5657186273
  0
ARC
  5
355
100
AcDbEntity
  8
0
100
AcDbCircle
 62
7
  6
CONTINUOUS
 10
290.61304583
 20
62.4101780425
 30
0.0
 40
199.4259031816
100
AcDbArc
 50
180.2707788949
 51
180.567306445
  0
ARC
  5
356
100
AcDbEntity
  8
0
100
AcDbCircle
 62
7
  6
CONTINUOUS
 10
288.4311657343
 20
58.6179463597
 30
0.0
 40
197.6530563284
100
AcDbArc
 50
178.880435657
 51
179.4233453
  0
ARC
  5
357
100
AcDbEntity
  8
0
100
AcDbCircle
 62
7
  6
CONTINUOUS
 10
276.2566656866
 20
-1.1315817459
 30
0.0
 40
194.7994317632
100
AcDbArc
 50
161.1388703695
 51
161.4118984537
  0
ARC
  5
358
100
AcDbEntity
  8
0
100
AcDbCircle
 62
7
  6
CONTINUOUS
 10
275.0144672803
 20
-2.2375988537
 30
0.0
 40
193.6129208352
100
AcDbArc
 50
160.9338726232
 51
161.2251981288
  0
ARC
  5
359
100
AcDbEntity
  8
0
100
AcDbCircle
 62
7
  6
CONTINUOUS
 10
274.3672831069
 20
-1.9602409505
 30
0.0
 40
192.8677318512
100
AcDbArc
 50
160.946201433
 51
161.2266919326
  0
ARC
  5
35A
100
AcDbEntity
  8
0
100
AcDbCircle
 62
7
  6
CONTINUOUS
 10
272.3873831793
 20
13.7155013368
 30
0.0
 40
188.967398165
100
AcDbArc
 50
164.8879939371
 51
165.4009715554
  0
ARC
  5
35B
100
AcDbEntity
  8
0
100
AcDbCircle
 62
7
  6
CONTINUOUS
 10
275.7543951718
 20
13.2302086554
 30
0.0
 40
188.8818510494
100
AcDbArc
 50
165.2928443905
 51
165.7889575571
  0
ARC
  5
35C
100
AcDbEntity
  8
0
100
AcDbCircle
 62
7
  6
CONTINUOUS
 10
277.4678653975
 20
20.1387821813
 30
0.0
 40
188.5798521992
100
AcDbArc
 50
167.6279946209
 51
167.821901975
  0
ARC
  5
35D
100
AcDbEntity
  8
0
100
AcDbCircle
 62
7
  6
CONTINUOUS
 10
277.1062512793
 20
20.2657640299
 30
0.0
 40
188.1510515011
100
AcDbArc
 50
167.6709978967
 51
167.8230780008
  0
ARC
  5
35E
100
AcDbEntity
  8
0
100
AcDbCircle
 62
7
  6
CONTINUOUS
 10
271.502869748
 20
14.0012970689
 30
0.0
 40
187.992759427
100
AcDbArc
 50
164.8876664372
 51
165.4032946445
  0
ARC
  5
35F
100
AcDbEntity
  8
0
100
AcDbCircle
 62
7
  6
CONTINUOUS
 10
272.6792707606
 20
21.8032368743
 30
0.0
 40
187.7116340925
100
AcDbArc
 50
167.2613180396
 51
167.6215886229
  0
ARC
  5
360
100
AcDbEntity
  8
RACCORDO
100
AcDbCircle
 62
250
  6
CONTINUOUS
 10
195.0404127136
 20
270.1805240024
 30
0.0
 40
182.0267745685
100
AcDbArc
 50
243.8028244525
 51
246.3503712066
  0
ARC
  5
361
100
AcDbEntity
  8
RACCORDO
100
AcDbCircle
 62
250
  6
CONTINUOUS
 10
226.9403831573
 20
88.4796702063
 30
0.0
 40
102.8882807095
100
AcDbArc
 50
174.1567616492
 51
174.3406793039
  0
ARC
  5
362
100
AcDbEntity
  8
RACCORDO
100
AcDbCircle
 62
250
  6
CONTINUOUS
 10
226.1712220234
 20
88.5507146842
 30
0.0
 40
101.7595144373
100
AcDbArc
 50
174.1462661549
 51
174.331622074
  0
ARC
  5
363
100
AcDbEntity
  8
RACCORDO
100
AcDbCircle
 62
250
  6
CONTINUOUS
 10
161.208046848
 20
192.7757735502
 30
0.0
 40
97.9126171146
100
AcDbArc
 50
246.3096393496
 51
246.5295497527
  0
ARC
  5
364
100
AcDbEntity
  8
RACCORDO
100
AcDbCircle
 62
250
  6
CONTINUOUS
 10
160.7385368892
 20
191.715516941
 30
0.0
 40
96.3916743611
100
AcDbArc
 50
246.3179136451
 51
246.5403233318
  0
ARC
  5
365
100
AcDbEntity
  8
RACCORDO
100
AcDbCircle
 62
250
  6
CONTINUOUS
 10
205.5059777235
 20
44.5936027106
 30
0.0
 40
81.4582050881
100
AcDbArc
 50
186.3884431528
 51
186.594354679
  0
ARC
  5
366
100
AcDbEntity
  8
RACCORDO
100
AcDbCircle
 62
250
  6
CONTINUOUS
 10
204.8779687783
 20
44.5247399907
 30
0.0
 40
80.4700808859
100
AcDbArc
 50
186.3993859233
 51
186.6071254862
  0
ARC
  5
367
100
AcDbEntity
  8
RACCORDO
100
AcDbCircle
 62
250
  6
CONTINUOUS
 10
111.6413888252
 20
192.9884675439
 30
0.0
 40
73.302063962
100
AcDbArc
 50
232.5097617386
 51
232.76618581
  0
ARC
  5
368
100
AcDbEntity
  8
RACCORDO
100
AcDbCircle
 62
250
  6
CONTINUOUS
 10
111.1164632179
 20
192.3081698477
 30
0.0
 40
72.0820415563
100
AcDbArc
 50
232.4964776087
 51
232.7560867976
  0
ARC
  5
369
100
AcDbEntity
  8
SUPERFICI
100
AcDbCircle
 62
7
  6
CONTINUOUS
 10
108.2535580559
 20
68.4701315619
 30
0.0
 40
39.8970738228
100
AcDbArc
 50
65.8998789227
 51
66.4552901158
  0
ARC
  5
36A
100
AcDbEntity
  8
SUPERFICI
100
AcDbCircle
 62
7
  6
CONTINUOUS
 10
93.9391381901
 20
103.0455981552
 30
0.0
 40
33.6203344278
100
AcDbArc
 50
354.2567922934
 51
354.8363859162
  0
ARC
  5
36B
100
AcDbEntity
  8
SUPERFICI
100
AcDbCircle
 62
7
  6
CONTINUOUS
 10
53.2841401635
 20
115.1225490199
 30
0.0
 40
26.9538428028
100
AcDbArc
 50
52.5845064101
 51
53.3051374638
  0
ARC
  5
36C
100
AcDbEntity
  8
SUPERFICI
100
AcDbCircle
 62
7
  6
CONTINUOUS
 10
103.8525618067
 20
33.957400103
 30
0.0
 40
23.6899940198
100
AcDbArc
 50
5.7578887302
 51
6.4906254557
  0
ARC
  5
36D
100
AcDbEntity
  8
0
100
AcDbCircle
 62
7
  6
CONTINUOUS
 10
109.8573308837
 20
61.9243051402
 30
0.0
 40
14.8480420956
100
AcDbArc
 50
195.3362612274
 51
195.595024036
  0
ARC
  5
36E
100
AcDbEntity
  8
RACCORDO
100
AcDbCircle
 62
250
  6
CONTINUOUS
 10
123.7168465256
 20
37.2934518128
 30
0.0
 40
3.7393838045
100
AcDbArc
 50
246.2662059543
 51
247.69348409
  0
ARC
  5
36F
100
AcDbEntity
  8
RACCORDO
100
AcDbCircle
 62
250
  6
CONTINUOUS
 10
124.7701408083
 20
102.385457248
 30
0.0
 40
2.6991707499
100
AcDbArc
 50
57.6161192431
 51
58.4978401181
  0
ARC
  5
370
100
AcDbEntity
  8
RACCORDO
100
AcDbCircle
 62
250
  6
CONTINUOUS
 10
124.8110987656
 20
102.4526684569
 30
0.0
 40
2.6204633148
100
AcDbArc
 50
58.4935037311
 51
60.2329783154
  0
ARC
  5
371
100
AcDbEntity
  8
RACCORDO
100
AcDbCircle
 62
250
  6
CONTINUOUS
 10
125.4132185119
 20
101.4392719307
 30
0.0
 40
2.604661076
100
AcDbArc
 50
359.78823729
 51
1.2519317635
  0
ARC
  5
372
100
AcDbEntity
  8
SUPERFICI
100
AcDbCircle
 62
7
  6
CONTINUOUS
 10
125.6530270976
 20
35.9231572139
 30
0.0
 40
1.7732621652
100
AcDbArc
 50
340.0664114882
 51
344.3735439044
  0
ARC
  5
373
100
AcDbEntity
  8
RACCORDO
100
AcDbCircle
 62
250
  6
CONTINUOUS
 10
107.1198626828
 20
91.5718805142
 30
0.0
 40
1.2547599385
100
AcDbArc
 50
24.9462803801
 51
27.2746335455
  0
ARC
  5
374
100
AcDbEntity
  8
RACCORDO
100
AcDbCircle
 62
250
  6
CONTINUOUS
 10
107.141148654
 20
91.5817160685
 30
0.0
 40
1.2313115472
100
AcDbArc
 50
22.5592792785
 51
24.9490637499
  0
ARC
  5
375
100
AcDbEntity
  8
0
100
AcDbCircle
 62
7
  6
CONTINUOUS
 10
94.7167602313
 20
58.6307813922
 30
0.0
 40
0.5352436044
100
AcDbArc
 50
39.3273466811
 51
42.2092784671
  0
ARC
  5
376
100
AcDbEntity
  8
0
100
AcDbCircle
 62
7
  6
CONTINUOUS
 10
94.8044250106
 20
58.6914672188
 30
0.0
 40
0.4935497551
100
AcDbArc
 50
42.0103205034
 51
43.4171549088
  0
ARC
  5
377
100
AcDbEntity
  8
0
100
AcDbCircle
 62
7
  6
CONTINUOUS
 10
94.7648442885
 20
58.6745492302
 30
0.0
 40
0.4702229504
100
AcDbArc
 50
42.1954079019
 51
45.5192883141
  0
ARC
  5
378
100
AcDbEntity
  8
RACCORDO
100
AcDbCircle
 62
250
  6
CONTINUOUS
 10
76.6882468127
 20
110.3366106152
 30
0.0
 40
0.1956032247
100
AcDbArc
 50
131.9372166298
 51
138.3167732299
  0
ARC
  5
379
100
AcDbEntity
  8
RACCORDO
100
AcDbCircle
 62
250
  6
CONTINUOUS
 10
76.6724803766
 20
110.3565960971
 30
0.0
 40
0.170078858
100
AcDbArc
 50
118.4214328789
 51
120.1877344167
  0
ARC
  5
37A
100
AcDbEntity
  8
RACCORDO
100
AcDbCircle
 62
250
  6
CONTINUOUS
 10
540.6100683395
 20
92.0926320647
 30
0.0
 40
464.9494374454
100
AcDbArc
 50
178.9844372317
 51
180.002715932
  0
ARC
  5
37B
100
AcDbEntity
  8
RACCORDO
100
AcDbCircle
 62
250
  6
CONTINUOUS
 10
527.2338323793
 20
92.0291376593
 30
0.0
 40
451.5732028656
100
AcDbArc
 50
179.9947401874
 51
181.2670545464
  0
ARC
  5
37C
100
AcDbEntity
  8
0
100
AcDbCircle
 62
7
  6
CONTINUOUS
 10
364.7830170752
 20
152.9270042198
 30
0.0
 40
288.2289314595
100
AcDbArc
 50
198.3332446892
 51
198.6064044923
  0
ARC
  5
37D
100
AcDbEntity
  8
0
100
AcDbCircle
 62
7
  6
CONTINUOUS
 10
364.616143539
 20
152.8898075244
 30
0.0
 40
287.9947083193
100
AcDbArc
 50
198.33402827
 51
198.5931581147
  0
ARC
  5
37E
100
AcDbEntity
  8
0
100
AcDbCircle
 62
7
  6
CONTINUOUS
 10
364.1006973701
 20
153.4237044457
 30
0.0
 40
287.9869656925
100
AcDbArc
 50
198.5850539894
 51
198.9069841976
  0
ARC
  5
37F
100
AcDbEntity
  8
0
100
AcDbCircle
 62
7
  6
CONTINUOUS
 10
351.8400553949
 20
141.6244945881
 30
0.0
 40
274.5820746867
100
AcDbArc
 50
196.4594822988
 51
196.9586037982
  0
ARC
  5
380
100
AcDbEntity
  8
0
100
AcDbCircle
 62
7
  6
CONTINUOUS
 10
354.4848496662
 20
137.2320987389
 30
0.0
 40
271.9744240905
100
AcDbArc
 50
196.2824698567
 51
196.7828422763
  0
ARC
  5
381
100
AcDbEntity
  8
0
100
AcDbCircle
 62
7
  6
CONTINUOUS
 10
354.0938102851
 20
137.1367423153
 30
0.0
 40
271.5087285757
100
AcDbArc
 50
196.2830137598
 51
196.784242394
  0
ARC
  5
382
100
AcDbEntity
  8
0
100
AcDbCircle
 62
7
  6
CONTINUOUS
 10
345.532364605
 20
132.8569692197
 30
0.0
 40
265.8075511944
100
AcDbArc
 50
195.1046613315
 51
195.4509096788
  0
ARC
  5
383
100
AcDbEntity
  8
0
100
AcDbCircle
 62
7
  6
CONTINUOUS
 10
345.310152954
 20
132.8180108666
 30
0.0
 40
265.5195913329
100
AcDbArc
 50
195.1054079676
 51
195.4296762957
  0
ARC
  5
384
100
AcDbEntity
  8
0
100
AcDbCircle
 62
7
  6
CONTINUOUS
 10
345.4210898227
 20
126.7445448704
 30
0.0
 40
260.6991792342
100
AcDbArc
 50
194.7105688635
 51
194.898567672
  0
ARC
  5
385
100
AcDbEntity
  8
0
100
AcDbCircle
 62
7
  6
CONTINUOUS
 10
316.456288252
 20
92.8792446878
 30
0.0
 40
226.3414485996
100
AcDbArc
 50
187.9353357593
 51
188.4622963831
  0
ARC
  5
386
100
AcDbEntity
  8
0
100
AcDbCircle
 62
7
  6
CONTINUOUS
 10
315.9448755876
 20
92.8343242454
 30
0.0
 40
225.7680547467
100
AcDbArc
 50
187.9357205735
 51
188.4640156734
  0
ARC
  5
387
100
AcDbEntity
  8
0
100
AcDbCircle
 62
7
  6
CONTINUOUS
 10
310.8366984278
 20
87.4887471095
 30
0.0
 40
220.3678893092
100
AcDbArc
 50
186.877639434
 51
187.2235600133
  0
ARC
  5
388
100
AcDbEntity
  8
0
100
AcDbCircle
 62
7
  6
CONTINUOUS
 10
304.7049168471
 20
73.5078560746
 30
0.0
 40
210.6250691899
100
AcDbArc
 50
183.6663072595
 51
183.7978425819
  0
ARC
  5
389
100
AcDbEntity
  8
0
100
AcDbCircle
 62
7
  6
CONTINUOUS
 10
300.4275549553
 20
75.7439438048
 30
0.0
 40
210.3744136609
100
AcDbArc
 50
183.558244627
 51
184.0946651428
  0
ARC
  5
38A
100
AcDbEntity
  8
0
100
AcDbCircle
 62
7
  6
CONTINUOUS
 10
303.5694039667
 20
73.6285389563
 30
0.0
 40
209.9015886711
100
AcDbArc
 50
183.5639271385
 51
184.0683506572
  0
ARC
  5
38B
100
AcDbEntity
  8
0
100
AcDbCircle
 62
7
  6
CONTINUOUS
 10
299.5067970467
 20
75.9208043654
 30
0.0
 40
209.8199630018
100
AcDbArc
 50
183.5575368518
 51
184.0953748791
  0
ARC
  5
38C
100
AcDbEntity
  8
0
100
AcDbCircle
 62
7
  6
CONTINUOUS
 10
299.8540715448
 20
75.7384688304
 30
0.0
 40
209.7430731389
100
AcDbArc
 50
183.5585101234
 51
184.0965403281
  0
ARC
  5
38D
100
AcDbEntity
  8
0
100
AcDbCircle
 62
7
  6
CONTINUOUS
 10
303.234026747
 20
73.3681959216
 30
0.0
 40
209.1951075266
100
AcDbArc
 50
183.8847540358
 51
184.0955542443
  0
ARC
  5
38E
100
AcDbEntity
  8
0
100
AcDbCircle
 62
7
  6
CONTINUOUS
 10
303.0371543069
 20
73.3873829753
 30
0.0
 40
208.9411769968
100
AcDbArc
 50
183.9043811425
 51
184.0968089638
  0
ARC
  5
38F
100
AcDbEntity
  8
RACCORDO
100
AcDbCircle
 62
250
  6
CONTINUOUS
 10
395.2740449103
 20
626.9366377465
 30
0.0
 40
606.7765180924
100
AcDbArc
 50
240.0136488999
 51
240.8650681856
  0
ARC
  5
390
100
AcDbEntity
  8
RACCORDO
100
AcDbCircle
 62
250
  6
CONTINUOUS
 10
390.7000150583
 20
564.2521531438
 30
0.0
 40
594.954869945
100
AcDbArc
 50
240.0114862748
 51
240.8779269915
  0
ARC
  5
391
100
AcDbEntity
  8
RACCORDO
100
AcDbCircle
 62
250
  6
CONTINUOUS
 10
389.8167070825
 20
631.7803749414
 30
0.0
 40
593.1517614359
100
AcDbArc
 50
239.9993787295
 51
240.8785667267
  0
ARC
  5
392
100
AcDbEntity
  8
RACCORDO
100
AcDbCircle
 62
250
  6
CONTINUOUS
 10
389.8757575893
 20
631.8834278553
 30
0.0
 40
592.9085607561
100
AcDbArc
 50
239.9993786122
 51
240.8785656232
  0
ARC
  5
393
100
AcDbEntity
  8
0
100
AcDbCircle
 62
7
  6
CONTINUOUS
 10
391.6772312824
 20
632.9118713112
 30
0.0
 40
592.2490140419
100
AcDbArc
 50
240.0013473726
 51
240.8815318202
  0
ARC
  5
394
100
AcDbEntity
  8
RACCORDO
100
AcDbCircle
 62
250
  6
CONTINUOUS
 10
387.1238545354
 20
612.7765838362
 30
0.0
 40
590.438449686
100
AcDbArc
 50
239.1325769348
 51
239.9993793629
  0
ARC
  5
395
100
AcDbEntity
  8
RACCORDO
100
AcDbCircle
 62
250
  6
CONTINUOUS
 10
383.4608616663
 20
569.1159485841
 30
0.0
 40
582.6965782767
100
AcDbArc
 50
239.9993862748
 51
240.8981223793
  0
ARC
  5
396
100
AcDbEntity
  8
RACCORDO
100
AcDbCircle
 62
250
  6
CONTINUOUS
 10
382.7603106871
 20
567.876737094
 30
0.0
 40
581.7055308682
100
AcDbArc
 50
239.9990384456
 51
240.7219555963
  0
ARC
  5
397
100
AcDbEntity
  8
RACCORDO
100
AcDbCircle
 62
250
  6
CONTINUOUS
 10
382.8785413401
 20
550.6631011733
 30
0.0
 40
579.2756633715
100
AcDbArc
 50
239.1175329104
 51
239.999377177
  0
ARC
  5
398
100
AcDbEntity
  8
RACCORDO
100
AcDbCircle
 62
250
  6
CONTINUOUS
 10
381.9472133
 20
618.1913384644
 30
0.0
 40
577.4485638831
100
AcDbArc
 50
239.1063442568
 51
240.0014120941
  0
ARC
  5
399
100
AcDbEntity
  8
RACCORDO
100
AcDbCircle
 62
250
  6
CONTINUOUS
 10
382.0103755293
 20
618.3014914575
 30
0.0
 40
577.2135679134
100
AcDbArc
 50
239.1063467411
 51
240.0014117366
  0
ARC
  5
39A
100
AcDbEntity
  8
0
100
AcDbCircle
 62
7
  6
CONTINUOUS
 10
382.5273447371
 20
617.0648441288
 30
0.0
 40
573.9501426729
100
AcDbArc
 50
239.1013031937
 51
240.0014422999
  0
ARC
  5
39B
100
AcDbEntity
  8
RACCORDO
100
AcDbCircle
 62
250
  6
CONTINUOUS
 10
375.7584186184
 20
555.797027962
 30
0.0
 40
567.7432499509
100
AcDbArc
 50
239.0866678207
 51
240.0014329907
  0
ARC
  5
39C
100
AcDbEntity
  8
RACCORDO
100
AcDbCircle
 62
250
  6
CONTINUOUS
 10
375.8401487409
 20
555.9573565353
 30
0.0
 40
567.4905469658
100
AcDbArc
 50
239.0867015837
 51
240.0014330135
  0
SPLINE
  5
39D
100
AcDbEntity
  8
SUPERFICI
100
AcDbSpline
 62
7
  6
CONTINUOUS
 70
0
 71
3
 72
9
 73
5
 74
0
 42
0.0000001
 43
0.0000001
 44
0.0000000001
 40
0.0
 40
0.0
 40
0.0
 40
0.0
 40
0.2678034284
 40
1.0
 40
1.0
 40
1.0
 40
1.0
 10
127.4230329842
 20
36.3340999976
 30
0.0
 10
127.4310059284
 20
36.2547342234
 30
0.0
 10
127.4496277321
 20
35.957624255
 30
0.0
 10
127.4195509329
 20
35.6555103871
 30
0.0
 10
127.3607464636
 20
35.4455032871
 30
0.0
  0
SPLINE
  5
39E
100
AcDbEntity
  8
SUPERFICI
100
AcDbSpline
 62
7
  6
CONTINUOUS
 70
0
 71
3
 72
11
 73
7
 74
0
 42
0.0000001
 43
0.0000001
 44
0.0000000001
 40
0.0
 40
0.0
 40
0.0
 40
0.0
 40
0.2574870505
 40
0.5056181701
 40
0.7500959591
 40
1.0
 40
1.0
 40
1.0
 40
1.0
 10
127.3200503331
 20
35.3185976726
 30
0.0
 10
127.283826307
 20
35.21897274
 30
0.0
 10
127.1936779102
 20
35.0294680688
 30
0.0
 10
127.0030365108
 20
34.7833073772
 30
0.0
 10
126.7634793751
 20
34.5891922239
 30
0.0
 10
126.5789040045
 20
34.4990306501
 30
0.0
 10
126.4823401924
 20
34.4635256525
 30
0.0
  0
SPLINE
  5
39F
100
AcDbEntity
  8
SUPERFICI
100
AcDbSpline
 62
7
  6
CONTINUOUS
 70
0
 71
3
 72
9
 73
5
 74
0
 42
0.0000001
 43
0.0000001
 44
0.0000000001
 40
0.0
 40
0.0
 40
0.0
 40
0.0
 40
0.5041925865
 40
1.0
 40
1.0
 40
1.0
 40
1.0
 10
125.9703773992
 20
67.3381868213
 30
0.0
 10
125.9703773992
 20
64.3121561296
 30
0.0
 10
126.0277913773
 20
58.3104436688
 30
0.0
 10
126.208832929
 20
52.3103673565
 30
0.0
 10
126.3580468162
 20
49.338405706
 30
0.0
  0
SPLINE
  5
3A0
100
AcDbEntity
  8
SUPERFICI
100
AcDbSpline
 62
7
  6
CONTINUOUS
 70
0
 71
3
 72
9
 73
5
 74
0
 42
0.0000001
 43
0.0000001
 44
0.0000000001
 40
0.0
 40
0.0
 40
0.0
 40
0.0
 40
0.253367319
 40
1.0
 40
1.0
 40
1.0
 40
1.0
 10
126.3580468162
 20
49.338405706
 30
0.0
 10
126.4120261902
 20
48.2632736756
 30
0.0
 10
126.6571859616
 20
44.0215955226
 30
0.0
 10
127.0324099742
 20
39.7872640445
 30
0.0
 10
127.3907115953
 20
36.6353323625
 30
0.0
  0
SPLINE
  5
3A1
100
AcDbEntity
  8
0
100
AcDbSpline
 62
7
  6
CONTINUOUS
 70
0
 71
3
 72
13
 73
9
 74
0
 42
0.0000001
 43
0.0000001
 44
0.0000000001
 40
0.0
 40
0.0
 40
0.0
 40
0.0
 40
0.2358668071
 40
0.4739268352
 40
0.5938871603
 40
0.7161416843
 40
0.8482251599
 40
1.0
 40
1.0
 40
1.0
 40
1.0
 10
95.199590872
 20
59.0478127979
 30
0.0
 10
95.1919165766
 20
59.0433842125
 30
0.0
 10
95.1759500291
 20
59.0354274632
 30
0.0
 10
95.1552394795
 20
59.0270938149
 30
0.0
 10
95.1382793336
 20
59.0209611669
 30
0.0
 10
95.1246925718
 20
59.0171262981
 30
0.0
 10
95.1092567106
 20
59.0165507802
 30
0.0
 10
95.0987707954
 20
59.01939971
 30
0.0
 10
95.0935351626
 20
59.0216569271
 30
0.0
  0
SPLINE
  5
3A2
100
AcDbEntity
  8
0
100
AcDbSpline
 62
7
  6
CONTINUOUS
 70
0
 71
3
 72
11
 73
7
 74
0
 42
0.0000001
 43
0.0000001
 44
0.0000000001
 40
0.0
 40
0.0
 40
0.0
 40
0.0
 40
0.2114075853
 40
0.4445615828
 40
0.7069729936
 40
1.0
 40
1.0
 40
1.0
 40
1.0
 10
94.9061031575
 20
59.3604781979
 30
0.0
 10
94.9184370318
 20
59.3675495602
 30
0.0
 10
94.9401076399
 20
59.3899459071
 30
0.0
 10
94.9587933383
 20
59.4342497032
 30
0.0
 10
94.9678469895
 20
59.4868421782
 30
0.0
 10
94.9676819788
 20
59.5243829806
 30
0.0
 10
94.9661530747
 20
59.5440296948
 30
0.0
  0
SPLINE
  5
3A3
100
AcDbEntity
  8
SUPERFICI
100
AcDbSpline
 62
7
  6
CONTINUOUS
 70
0
 71
3
 72
11
 73
7
 74
0
 42
0.0000001
 43
0.0000001
 44
0.0000000001
 40
0.0
 40
0.0
 40
0.0
 40
0.0
 40
0.2332979141
 40
0.4695789611
 40
0.7212754872
 40
1.0
 40
1.0
 40
1.0
 40
1.0
 10
124.1910251452
 20
105.0457196283
 30
0.0
 10
122.5361397527
 20
105.7675812339
 30
0.0
 10
119.2244610018
 20
107.2655145495
 30
0.0
 10
114.2147450083
 20
109.729110887
 30
0.0
 10
108.9603057204
 20
112.4863653591
 30
0.0
 10
105.3631857997
 20
114.4643251037
 30
0.0
 10
103.4787936272
 20
115.514002001
 30
0.0
  0
SPLINE
  5
3A4
100
AcDbEntity
  8
SUPERFICI
100
AcDbSpline
 62
7
  6
CONTINUOUS
 70
0
 71
3
 72
13
 73
9
 74
0
 42
0.0000001
 43
0.0000001
 44
0.0000000001
 40
0.0
 40
0.0
 40
0.0
 40
0.0
 40
0.2397765995
 40
0.3677438807
 40
0.4982561013
 40
0.6290299387
 40
0.7577486094
 40
1.0
 40
1.0
 40
1.0
 40
1.0
 10
127.4230329842
 20
100.0197639761
 30
0.0
 10
127.4658266855
 20
100.4953012064
 30
0.0
 10
127.3874729516
 20
101.2415007657
 30
0.0
 10
127.0708297684
 20
102.183247809
 30
0.0
 10
126.7226739946
 20
102.8789189592
 30
0.0
 10
126.280579369
 20
103.5207970553
 30
0.0
 10
125.6044733897
 20
104.2583154717
 30
0.0
 10
124.9851400723
 20
104.692481377
 30
0.0
 10
124.5448255392
 20
104.8895096924
 30
0.0
  0
SPLINE
  5
3A5
100
AcDbEntity
  8
SUPERFICI
100
AcDbSpline
 62
7
  6
CONTINUOUS
 70
0
 71
3
 72
9
 73
5
 74
0
 42
0.0000001
 43
0.0000001
 44
0.0000000001
 40
0.0
 40
0.0
 40
0.0
 40
0.0
 40
0.4975554147
 40
1.0
 40
1.0
 40
1.0
 40
1.0
 10
125.9703773992
 20
67.3381868213
 30
0.0
 10
125.9703773992
 20
70.3985984402
 30
0.0
 10
126.0296142277
 20
76.5494977933
 30
0.0
 10
126.2115502397
 20
82.6986285648
 30
0.0
 10
126.3580468162
 20
85.785638862
 30
0.0
  0
SPLINE
  5
3A6
100
AcDbEntity
  8
SUPERFICI
100
AcDbSpline
 62
7
  6
CONTINUOUS
 70
0
 71
3
 72
9
 73
5
 74
0
 42
0.0000001
 43
0.0000001
 44
0.0000000001
 40
0.0
 40
0.0
 40
0.0
 40
0.0
 40
0.2471908839
 40
1.0
 40
1.0
 40
1.0
 40
1.0
 10
126.3580468162
 20
85.785638862
 30
0.0
 10
126.4124736313
 20
86.9325335044
 30
0.0
 10
126.6642957527
 20
91.5707037587
 30
0.0
 10
127.0410982108
 20
96.2019804142
 30
0.0
 10
127.3907115953
 20
99.6812076078
 30
0.0
  0
SPLINE
  5
3A7
100
AcDbEntity
  8
SUPERFICI
100
AcDbSpline
 62
7
  6
CONTINUOUS
 70
0
 71
3
 72
13
 73
9
 74
0
 42
0.0000001
 43
0.0000001
 44
0.0000000001
 40
0.0
 40
0.0
 40
0.0
 40
0.0
 40
0.2212457079
 40
0.453993012
 40
0.5784025559
 40
0.7099398886
 40
0.8505865578
 40
1.0
 40
1.0
 40
1.0
 40
1.0
 10
69.6610427214
 20
136.5306480586
 30
0.0
 10
70.9343757569
 20
135.5574736241
 30
0.0
 10
73.5839125053
 20
133.6078472434
 30
0.0
 10
77.054053766
 20
131.2584546422
 30
0.0
 10
80.0277586225
 20
129.3378469618
 30
0.0
 10
82.4601972468
 20
127.8092281194
 30
0.0
 10
85.0631424829
 20
126.2119244939
 30
0.0
 10
86.8627801708
 20
125.1274692935
 30
0.0
 10
87.7914715409
 20
124.5716651654
 30
0.0
  0
SPLINE
  5
3A8
100
AcDbEntity
  8
RACCORDO
100
AcDbSpline
 62
7
  6
CONTINUOUS
 70
0
 71
3
 72
9
 73
5
 74
0
 42
0.0000001
 43
0.0000001
 44
0.0000000001
 40
0.0
 40
0.0
 40
0.0
 40
0.0
 40
0.5014843867
 40
1.0
 40
1.0
 40
1.0
 40
1.0
 10
79.4147970466
 20
89.8848633353
 30
0.0
 10
79.4043341511
 20
89.8861304253
 30
0.0
 10
79.3829570666
 20
89.8856158372
 30
0.0
 10
79.3627639485
 20
89.8786043444
 30
0.0
 10
79.3534576742
 20
89.8737918919
 30
0.0
  0
SPLINE
  5
3A9
100
AcDbEntity
  8
RACCORDO
100
AcDbSpline
 62
7
  6
CONTINUOUS
 70
0
 71
3
 72
9
 73
5
 74
0
 42
0.0000001
 43
0.0000001
 44
0.0000000001
 40
0.0
 40
0.0
 40
0.0
 40
0.0
 40
0.5014843867
 40
1.0
 40
1.0
 40
1.0
 40
1.0
 10
79.4147970466
 20
108.2554445631
 30
0.0
 10
79.4043341511
 20
108.2567116532
 30
0.0
 10
79.3829570666
 20
108.256197065
 30
0.0
 10
79.3627639485
 20
108.2491855722
 30
0.0
 10
79.3534576742
 20
108.2443731198
 30
0.0
  0
SPLINE
  5
3AA
100
AcDbEntity
  8
RACCORDO
100
AcDbSpline
 62
7
  6
CONTINUOUS
 70
0
 71
3
 72
9
 73
5
 74
0
 42
0.0000001
 43
0.0000001
 44
0.0000000001
 40
0.0
 40
0.0
 40
0.0
 40
0.0
 40
0.5014844131
 40
1.0
 40
1.0
 40
1.0
 40
1.0
 10
107.7210749251
 20
59.2275577891
 30
0.0
 10
107.7169416779
 20
59.2178629088
 30
0.0
 10
107.7058090355
 20
59.1996064976
 30
0.0
 10
107.6896414836
 20
59.1856236155
 30
0.0
 10
107.6808211068
 20
59.1799699315
 30
0.0
  0
SPLINE
  5
3AB
100
AcDbEntity
  8
RACCORDO
100
AcDbSpline
 62
7
  6
CONTINUOUS
 70
0
 71
3
 72
9
 73
5
 74
0
 42
0.0000001
 43
0.0000001
 44
0.0000000001
 40
0.0
 40
0.0
 40
0.0
 40
0.0
 40
0.5014844131
 40
1.0
 40
1.0
 40
1.0
 40
1.0
 10
91.8111723484
 20
68.413736139
 30
0.0
 10
91.8070391012
 20
68.4040412587
 30
0.0
 10
91.7959064588
 20
68.3857848475
 30
0.0
 10
91.7797389069
 20
68.3718019654
 30
0.0
 10
91.7709185301
 20
68.3661482814
 30
0.0
  0
SPLINE
  5
3AC
100
AcDbEntity
  8
SUPERFICI
100
AcDbSpline
 62
7
  6
CONTINUOUS
 70
0
 71
3
 72
11
 73
7
 74
0
 42
0.0000001
 43
0.0000001
 44
0.0000000001
 40
0.0
 40
0.0
 40
0.0
 40
0.0
 40
0.2486018774
 40
0.492159977
 40
0.7405101848
 40
1.0
 40
1.0
 40
1.0
 40
1.0
 10
67.3631164757
 20
136.8942671433
 30
0.0
 10
67.4389208804
 20
136.9574599474
 30
0.0
 10
67.6028789652
 20
137.0672228505
 30
0.0
 10
67.8810141769
 20
137.1704629189
 30
0.0
 10
68.1797905555
 20
137.2058484977
 30
0.0
 10
68.3820309423
 20
137.1853679401
 30
0.0
 10
68.4830678741
 20
137.1652934168
 30
0.0
  0
SPLINE
  5
3AD
100
AcDbEntity
  8
SUPERFICI
100
AcDbSpline
 62
7
  6
CONTINUOUS
 70
0
 71
3
 72
9
 73
5
 74
0
 42
0.0000001
 43
0.0000001
 44
0.0000000001
 40
0.0
 40
0.0
 40
0.0
 40
0.0
 40
0.229205822
 40
1.0
 40
1.0
 40
1.0
 40
1.0
 10
68.4830678741
 20
137.1652934168
 30
0.0
 10
68.5586905397
 20
137.1502683271
 30
0.0
 10
68.8840284815
 20
137.0613777954
 30
0.0
 10
69.1825754511
 20
136.8898338014
 30
0.0
 10
69.3904966067
 20
136.734927972
 30
0.0
  0
LINE
  5
3AE
100
AcDbEntity
  8
0
100
AcDbLine
 62
7
  6
CONTINUOUS
 10
93.7044438861
 20
58.9244286666
 30
0.0
 11
93.5808636234
 21
59.3708976195
 31
0.0
  0
SPLINE
  5
3AF
100
AcDbEntity
  8
0
100
AcDbSpline
 62
7
  6
CONTINUOUS
 70
0
 71
3
 72
11
 73
7
 74
0
 42
0.0000001
 43
0.0000001
 44
0.0000000001
 40
0.0
 40
0.0
 40
0.0
 40
0.0
 40
0.2512216726
 40
0.5124756929
 40
0.7687199674
 40
1.0
 40
1.0
 40
1.0
 40
1.0
 10
94.9374730514
 20
58.7907406912
 30
0.0
 10
94.9273938793
 20
58.8201456538
 30
0.0
 10
94.9022316587
 20
58.8786006223
 30
0.0
 10
94.853197539
 20
58.9604986036
 30
0.0
 10
94.7922043506
 20
59.0310093965
 30
0.0
 10
94.743417496
 20
59.0675288792
 30
0.0
 10
94.7185604034
 20
59.0817083302
 30
0.0
  0
SPLINE
  5
3B0
100
AcDbEntity
  8
0
100
AcDbSpline
 62
7
  6
CONTINUOUS
 70
0
 71
3
 72
9
 73
5
 74
0
 42
0.0000001
 43
0.0000001
 44
0.0000000001
 40
0.0
 40
0.0
 40
0.0
 40
0.0
 40
0.4981073443
 40
1.0
 40
1.0
 40
1.0
 40
1.0
 10
95.1416806981
 20
58.1032753289
 30
0.0
 10
95.1085554514
 20
58.21765013
 30
0.0
 10
95.0408629258
 20
58.4468659938
 30
0.0
 10
94.9763767243
 20
58.6772431157
 30
0.0
 10
94.937473032
 20
58.790740694
 30
0.0
  0
SPLINE
  5
3B1
100
AcDbEntity
  8
0
100
AcDbSpline
 62
7
  6
CONTINUOUS
 70
0
 71
3
 72
10
 73
6
 74
0
 42
0.0000001
 43
0.0000001
 44
0.0000000001
 40
0.0
 40
0.0
 40
0.0
 40
0.0
 40
0.520491146
 40
0.7650594116
 40
1.0
 40
1.0
 40
1.0
 40
1.0
 10
94.7405405152
 20
59.9097580235
 30
0.0
 10
94.6935929019
 20
59.942293493
 30
0.0
 10
94.6219711736
 20
59.9866173984
 30
0.0
 10
94.5233236259
 20
60.0348589423
 30
0.0
 10
94.4745802137
 20
60.0547732088
 30
0.0
 10
94.4505326214
 20
60.0640717389
 30
0.0
  0
SPLINE
  5
3B2
100
AcDbEntity
  8
0
100
AcDbSpline
 62
7
  6
CONTINUOUS
 70
0
 71
3
 72
11
 73
7
 74
0
 42
0.0000001
 43
0.0000001
 44
0.0000000001
 40
0.0
 40
0.0
 40
0.0
 40
0.0
 40
0.2314947179
 40
0.4908175923
 40
0.7546166879
 40
1.0
 40
1.0
 40
1.0
 40
1.0
 10
94.96615309
 20
59.5440296862
 30
0.0
 10
94.963510003
 20
59.577993868
 30
0.0
 10
94.9456162136
 20
59.6489648883
 30
0.0
 10
94.8969527514
 20
59.7495315514
 30
0.0
 10
94.8268413554
 20
59.8392318592
 30
0.0
 10
94.7702206192
 20
59.8891892225
 30
0.0
 10
94.7405405152
 20
59.9097580236
 30
0.0
  0
SPLINE
  5
3B3
100
AcDbEntity
  8
RACCORDO
100
AcDbSpline
 62
250
  6
CONTINUOUS
 70
0
 71
3
 72
9
 73
5
 74
0
 42
0.0000001
 43
0.0000001
 44
0.0000000001
 40
0.0
 40
0.0
 40
0.0
 40
0.0
 40
0.2513410195
 40
1.0
 40
1.0
 40
1.0
 40
1.0
 10
75.7712348397
 20
82.0352504811
 30
0.0
 10
75.7858702251
 20
81.3848395582
 30
0.0
 10
75.8504649049
 20
78.797238049
 30
0.0
 10
75.9449955005
 20
76.2102722177
 30
0.0
 10
76.0406547473
 20
74.2747924959
 30
0.0
  0
SPLINE
  5
3B4
100
AcDbEntity
  8
RACCORDO
100
AcDbSpline
 62
250
  6
CONTINUOUS
 70
0
 71
3
 72
9
 73
5
 74
0
 42
0.0000001
 43
0.0000001
 44
0.0000000001
 40
0.0
 40
0.0
 40
0.0
 40
0.0
 40
0.4729690175
 40
1.0
 40
1.0
 40
1.0
 40
1.0
 10
76.0406547473
 20
74.2747924959
 30
0.0
 10
76.0439747962
 20
74.2076167362
 30
0.0
 10
76.0688940072
 20
74.0664014851
 30
0.0
 10
76.1179964462
 20
73.932275019
 30
0.0
 10
76.148915372
 20
73.8640045681
 30
0.0
  0
SPLINE
  5
3B5
100
AcDbEntity
  8
RACCORDO
100
AcDbSpline
 62
250
  6
CONTINUOUS
 70
0
 71
3
 72
9
 73
5
 74
0
 42
0.0000001
 43
0.0000001
 44
0.0000000001
 40
0.0
 40
0.0
 40
0.0
 40
0.0
 40
0.4966393056
 40
1.0
 40
1.0
 40
1.0
 40
1.0
 10
63.6798379987
 20
82.9111341118
 30
0.0
 10
63.5342022247
 20
85.873414309
 30
0.0
 10
63.356751377
 20
91.8436452418
 30
0.0
 10
63.3002285624
 20
97.8154826637
 30
0.0
 10
63.3002285624
 20
100.8214798363
 30
0.0
  0
SPLINE
  5
3B6
100
AcDbEntity
  8
RACCORDO
100
AcDbSpline
 62
250
  6
CONTINUOUS
 70
0
 71
3
 72
13
 73
9
 74
0
 42
0.0000001
 43
0.0000001
 44
0.0000000001
 40
0.0
 40
0.0
 40
0.0
 40
0.0
 40
0.2847933332
 40
0.5363067769
 40
0.6535946379
 40
0.7681102046
 40
0.8826442311
 40
1.0
 40
1.0
 40
1.0
 40
1.0
 10
124.9423868311
 20
35.2658198769
 30
0.0
 10
124.9627028892
 20
35.074962977
 30
0.0
 10
124.9652817214
 20
34.7097319686
 30
0.0
 10
124.8442588552
 20
34.2774814412
 30
0.0
 10
124.6733127678
 20
33.9980942405
 30
0.0
 10
124.5150987791
 20
33.8244302055
 30
0.0
 10
124.325645754
 20
33.6855376941
 30
0.0
 10
124.1833929418
 20
33.6183443107
 30
0.0
 10
124.1091947273
 20
33.5909568967
 30
0.0
  0
SPLINE
  5
3B7
100
AcDbEntity
  8
RACCORDO
100
AcDbSpline
 62
250
  6
CONTINUOUS
 70
0
 71
3
 72
13
 73
9
 74
0
 42
0.0000001
 43
0.0000001
 44
0.0000000001
 40
0.0
 40
0.0
 40
0.0
 40
0.0
 40
0.1209527945
 40
0.2432891686
 40
0.3670095099
 40
0.4919370021
 40
0.7446329526
 40
1.0
 40
1.0
 40
1.0
 40
1.0
 10
67.491732538
 20
134.9260856399
 30
0.0
 10
68.1881713558
 20
134.396775335
 30
0.0
 10
69.5994252685
 20
133.3457091677
 30
0.0
 10
71.7601800654
 20
131.8038448652
 30
0.0
 10
73.9753997084
 20
130.2898004908
 30
0.0
 10
77.0028840758
 20
128.2943403021
 30
0.0
 10
80.8770382961
 20
125.8545876981
 30
0.0
 10
84.0208264783
 20
123.9523191685
 30
0.0
 10
85.6055755914
 20
123.0039074859
 30
0.0
  0
SPLINE
  5
3B8
100
AcDbEntity
  8
RACCORDO
100
AcDbSpline
 62
250
  6
CONTINUOUS
 70
0
 71
3
 72
9
 73
5
 74
0
 42
0.0000001
 43
0.0000001
 44
0.0000000001
 40
0.0
 40
0.0
 40
0.0
 40
0.0
 40
0.5032013159
 40
1.0
 40
1.0
 40
1.0
 40
1.0
 10
123.8911538375
 20
84.7123118235
 30
0.0
 10
123.7463827416
 20
81.6208608206
 30
0.0
 10
123.566146786
 20
75.4723062987
 30
0.0
 10
123.5073438251
 20
69.3220005166
 30
0.0
 10
123.5073454677
 20
66.266539696
 30
0.0
  0
SPLINE
  5
3B9
100
AcDbEntity
  8
RACCORDO
100
AcDbSpline
 62
250
  6
CONTINUOUS
 70
0
 71
3
 72
9
 73
5
 74
0
 42
0.0000001
 43
0.0000001
 44
0.0000000001
 40
0.0
 40
0.0
 40
0.0
 40
0.0
 40
0.2527494684
 40
1.0
 40
1.0
 40
1.0
 40
1.0
 10
124.9092878098
 20
98.6015583217
 30
0.0
 10
124.7947010531
 20
97.4455732979
 30
0.0
 10
124.3698358444
 20
92.869166563
 30
0.0
 10
124.0601424955
 20
88.2819656408
 30
0.0
 10
123.8977036972
 20
84.8514050903
 30
0.0
  0
LINE
  5
3BA
100
AcDbEntity
  8
0
100
AcDbLine
 62
7
  6
CONTINUOUS
 10
92.338870082
 20
61.6643251126
 30
0.0
 11
92.0279436328
 21
61.8437232547
 31
0.0
  0
LINE
  5
3BB
100
AcDbEntity
  8
RACCORDO
100
AcDbLine
 62
250
  6
CONTINUOUS
 10
123.8977036972
 20
84.8514050903
 30
0.0
 11
123.8911538375
 21
84.7123118235
 31
0.0
  0
SPLINE
  5
3BC
100
AcDbEntity
  8
RACCORDO
100
AcDbSpline
 62
250
  6
CONTINUOUS
 70
0
 71
3
 72
9
 73
5
 74
0
 42
0.0000001
 43
0.0000001
 44
0.0000000001
 40
0.0
 40
0.0
 40
0.0
 40
0.0
 40
0.5000201308
 40
1.0
 40
1.0
 40
1.0
 40
1.0
 10
127.9932992183
 20
87.9465037111
 30
0.0
 10
127.9907560612
 20
84.8918735511
 30
0.0
 10
127.9881066567
 20
78.7828572753
 30
0.0
 10
127.9872871118
 20
72.673840849
 30
0.0
 10
127.9872834595
 20
69.6194555895
 30
0.0
  0
SPLINE
  5
3BD
100
AcDbEntity
  8
RACCORDO
100
AcDbSpline
 62
250
  6
CONTINUOUS
 70
0
 71
3
 72
11
 73
7
 74
0
 42
0.0000001
 43
0.0000001
 44
0.0000000001
 40
0.0
 40
0.0
 40
0.0
 40
0.0
 40
0.2500817596
 40
0.5000928347
 40
0.7500675388
 40
1.0
 40
1.0
 40
1.0
 40
1.0
 10
128.0168749375
 20
101.1604526992
 30
0.0
 10
128.0130343022
 20
100.0620754755
 30
0.0
 10
128.0090058308
 20
97.865620329
 30
0.0
 10
128.0024164851
 20
94.5712563262
 30
0.0
 10
127.9967045713
 20
91.2775455793
 30
0.0
 10
127.9942514682
 20
89.0819048685
 30
0.0
 10
127.9933307033
 20
87.9841770494
 30
0.0
  0
SPLINE
  5
3BE
100
AcDbEntity
  8
RACCORDO
100
AcDbSpline
 62
250
  6
CONTINUOUS
 70
0
 71
3
 72
15
 73
11
 74
0
 42
0.0000001
 43
0.0000001
 44
0.0000000001
 40
0.0
 40
0.0
 40
0.0
 40
0.0
 40
0.1158899592
 40
0.2397431532
 40
0.3692014721
 40
0.5014645422
 40
0.6335218259
 40
0.7623813527
 40
0.8852991971
 40
1.0
 40
1.0
 40
1.0
 40
1.0
 10
126.2157876074
 20
104.6648492875
 30
0.0
 10
126.3388352645
 20
104.58681371
 30
0.0
 10
126.5807458823
 20
104.4049867761
 30
0.0
 10
126.9135415875
 20
104.0798753594
 30
0.0
 10
127.2191497279
 20
103.7022095875
 30
0.0
 10
127.487239382
 20
103.2848473636
 30
0.0
 10
127.7085795343
 20
102.8417535278
 30
0.0
 10
127.8758205763
 20
102.3879330405
 30
0.0
 10
127.9832918952
 20
101.938765251
 30
0.0
 10
128.0141190873
 20
101.640356979
 30
0.0
 10
128.0172578319
 20
101.4961801095
 30
0.0
  0
SPLINE
  5
3BF
100
AcDbEntity
  8
RACCORDO
100
AcDbSpline
 62
250
  6
CONTINUOUS
 70
0
 71
3
 72
12
 73
8
 74
0
 42
0.0000001
 43
0.0000001
 44
0.0000000001
 40
0.0
 40
0.0
 40
0.0
 40
0.0
 40
0.1249440494
 40
0.2499336608
 40
0.4999185882
 40
0.7499410529
 40
1.0
 40
1.0
 40
1.0
 40
1.0
 10
71.2537940613
 20
136.4003320379
 30
0.0
 10
72.0597018763
 20
135.9311714975
 30
0.0
 10
73.6735651699
 20
134.9956947238
 30
0.0
 10
76.9025854536
 20
133.1262199951
 30
0.0
 10
80.9384349376
 20
130.7871677746
 30
0.0
 10
85.7833023477
 20
127.9824547639
 30
0.0
 10
89.0148569441
 20
126.1149321773
 30
0.0
 10
90.6308825556
 20
125.1813287924
 30
0.0
  0
SPLINE
  5
3C0
100
AcDbEntity
  8
RACCORDO
100
AcDbSpline
 62
250
  6
CONTINUOUS
 70
0
 71
3
 72
9
 73
5
 74
0
 42
0.0000001
 43
0.0000001
 44
0.0000000001
 40
0.0
 40
0.0
 40
0.0
 40
0.0
 40
0.2418204391
 40
1.0
 40
1.0
 40
1.0
 40
1.0
 10
90.6664597736
 20
125.1613309355
 30
0.0
 10
91.2988645315
 20
124.7958333328
 30
0.0
 10
93.9141527828
 20
123.2845728978
 30
0.0
 10
96.5297855262
 20
121.773908665
 30
0.0
 10
98.5130461821
 20
120.6287988245
 30
0.0
  0
SPLINE
  5
3C1
100
AcDbEntity
  8
RACCORDO
100
AcDbSpline
 62
250
  6
CONTINUOUS
 70
0
 71
3
 72
9
 73
5
 74
0
 42
0.0000001
 43
0.0000001
 44
0.0000000001
 40
0.0
 40
0.0
 40
0.0
 40
0.0
 40
0.2513095024
 40
1.0
 40
1.0
 40
1.0
 40
1.0
 10
84.0854894876
 20
106.0367058506
 30
0.0
 10
83.4646822703
 20
106.4080048468
 30
0.0
 10
80.9971797149
 20
107.890076754
 30
0.0
 10
78.5441617974
 20
109.3965794046
 30
0.0
 10
76.7229475882
 20
110.5486857561
 30
0.0
  0
SPLINE
  5
3C2
100
AcDbEntity
  8
RACCORDO
100
AcDbSpline
 62
250
  6
CONTINUOUS
 70
0
 71
3
 72
11
 73
7
 74
0
 42
0.0000001
 43
0.0000001
 44
0.0000000001
 40
0.0
 40
0.0
 40
0.0
 40
0.0
 40
0.2897518061
 40
0.5421897546
 40
0.7709597381
 40
1.0
 40
1.0
 40
1.0
 40
1.0
 10
76.611266498
 20
110.6193784771
 30
0.0
 10
76.5701051443
 20
110.6454473061
 30
0.0
 10
76.4875638108
 20
110.6866448818
 30
0.0
 10
76.3574159388
 20
110.7092651114
 30
0.0
 10
76.237323796
 20
110.6829210013
 30
0.0
 10
76.174434114
 20
110.634012703
 30
0.0
 10
76.148915372
 20
110.6051670238
 30
0.0
  0
SPLINE
  5
3C3
100
AcDbEntity
  8
RACCORDO
100
AcDbSpline
 62
250
  6
CONTINUOUS
 70
0
 71
3
 72
9
 73
5
 74
0
 42
0.0000001
 43
0.0000001
 44
0.0000000001
 40
0.0
 40
0.0
 40
0.0
 40
0.0
 40
0.2472545182
 40
1.0
 40
1.0
 40
1.0
 40
1.0
 10
63.6918205864
 20
119.4176950417
 30
0.0
 10
63.7458258985
 20
120.5538165038
 30
0.0
 10
63.9949442458
 20
125.1472654892
 30
0.0
 10
64.3653612316
 20
129.7340356229
 30
0.0
 10
64.7082976436
 20
133.1797434506
 30
0.0
  0
LINE
  5
3C4
100
AcDbEntity
  8
RACCORDO
100
AcDbLine
 62
250
  6
CONTINUOUS
 10
64.7082976436
 20
133.1797434506
 30
0.0
 11
64.7409752375
 21
133.5085907123
 31
0.0
  0
SPLINE
  5
3C5
100
AcDbEntity
  8
RACCORDO
100
AcDbSpline
 62
250
  6
CONTINUOUS
 70
0
 71
3
 72
20
 73
16
 74
0
 42
0.0000001
 43
0.0000001
 44
0.0000000001
 40
0.0
 40
0.0
 40
0.0
 40
0.0
 40
0.1559296783
 40
0.295534267
 40
0.3592166258
 40
0.4191388685
 40
0.4758460786
 40
0.5301167819
 40
0.5829759321
 40
0.6355704924
 40
0.6890718134
 40
0.7445448126
 40
0.8028930492
 40
0.8647136412
 40
1.0
 40
1.0
 40
1.0
 40
1.0
 10
64.7409752375
 20
133.5085907123
 30
0.0
 10
64.7583693911
 20
133.6864414487
 30
0.0
 10
64.8145607974
 20
134.0219215086
 30
0.0
 10
64.9534624073
 20
134.412802643
 30
0.0
 10
65.103342929
 20
134.6754160467
 30
0.0
 10
65.228582977
 20
134.8406037353
 30
0.0
 10
65.3690101886
 20
134.9782751277
 30
0.0
 10
65.5236267825
 20
135.0864010126
 30
0.0
 10
65.690532575
 20
135.1639537838
 30
0.0
 10
65.8679693527
 20
135.2094669527
 30
0.0
 10
66.0535627431
 20
135.2229927037
 30
0.0
 10
66.2452896179
 20
135.2047059358
 30
0.0
 10
66.4409863232
 20
135.1545582706
 30
0.0
 10
66.712866906
 20
135.0442093807
 30
0.0
 10
66.9050153289
 20
134.9210584887
 30
0.0
 10
67.027828298
 20
134.8264283931
 30
0.0
  0
SPLINE
  5
3C6
100
AcDbEntity
  8
RACCORDO
100
AcDbSpline
 62
250
  6
CONTINUOUS
 70
0
 71
3
 72
12
 73
8
 74
0
 42
0.0000001
 43
0.0000001
 44
0.0000000001
 40
0.0
 40
0.0
 40
0.0
 40
0.0
 40
0.2448338023
 40
0.3686425317
 40
0.4933840679
 40
0.7453332411
 40
1.0
 40
1.0
 40
1.0
 40
1.0
 10
67.2885751924
 20
134.6273460336
 30
0.0
 10
68.2090645492
 20
133.927743651
 30
0.0
 10
69.6087044632
 20
132.8921535686
 30
0.0
 10
71.5093103294
 20
131.5444191054
 30
0.0
 10
73.455426616
 20
130.20311881
 30
0.0
 10
75.9401315956
 20
128.5548632057
 30
0.0
 10
77.9579538546
 20
127.2693933023
 30
0.0
 10
78.9766514953
 20
126.6302318294
 30
0.0
  0
SPLINE
  5
3C7
100
AcDbEntity
  8
RACCORDO
100
AcDbSpline
 62
250
  6
CONTINUOUS
 70
0
 71
3
 72
9
 73
5
 74
0
 42
0.0000001
 43
0.0000001
 44
0.0000000001
 40
0.0
 40
0.0
 40
0.0
 40
0.0
 40
0.2487909925
 40
1.0
 40
1.0
 40
1.0
 40
1.0
 10
78.9766514953
 20
126.6302318294
 30
0.0
 10
79.5072395831
 20
126.2973249391
 30
0.0
 10
81.6447475797
 20
124.9669374511
 30
0.0
 10
83.7988316808
 20
123.6633574464
 30
0.0
 10
85.4217192293
 20
122.6921210855
 30
0.0
  0
SPLINE
  5
3C8
100
AcDbEntity
  8
RACCORDO
100
AcDbSpline
 62
250
  6
CONTINUOUS
 70
0
 71
3
 72
9
 73
5
 74
0
 42
0.0000001
 43
0.0000001
 44
0.0000000001
 40
0.0
 40
0.0
 40
0.0
 40
0.0
 40
0.4968243008
 40
1.0
 40
1.0
 40
1.0
 40
1.0
 10
63.3002128119
 20
100.8214923431
 30
0.0
 10
63.3002128119
 20
103.8790162016
 30
0.0
 10
63.3591259876
 20
110.0331566301
 30
0.0
 10
63.5397301146
 20
116.1855428413
 30
0.0
 10
63.6848942615
 20
119.2787496611
 30
0.0
  0
SPLINE
  5
3C9
100
AcDbEntity
  8
RACCORDO
100
AcDbSpline
 62
250
  6
CONTINUOUS
 70
0
 71
3
 72
9
 73
5
 74
0
 42
0.0000001
 43
0.0000001
 44
0.0000000001
 40
0.0
 40
0.0
 40
0.0
 40
0.0
 40
0.2218990849
 40
1.0
 40
1.0
 40
1.0
 40
1.0
 10
76.148915372
 20
110.6051670238
 30
0.0
 10
76.1324037588
 20
110.5865004245
 30
0.0
 10
76.0679247891
 20
110.4934447933
 30
0.0
 10
76.0447453379
 20
110.3774283321
 30
0.0
 10
76.0406547473
 20
110.290135974
 30
0.0
  0
SPLINE
  5
3CA
100
AcDbEntity
  8
RACCORDO
100
AcDbSpline
 62
250
  6
CONTINUOUS
 70
0
 71
3
 72
9
 73
5
 74
0
 42
0.0000001
 43
0.0000001
 44
0.0000000001
 40
0.0
 40
0.0
 40
0.0
 40
0.0
 40
0.2515928916
 40
1.0
 40
1.0
 40
1.0
 40
1.0
 10
76.0406547473
 20
110.290135974
 30
0.0
 10
76.0017648655
 20
109.4599113481
 30
0.0
 10
75.8627740918
 20
106.1593036021
 30
0.0
 10
75.7786844291
 20
102.8565677959
 30
0.0
 10
75.7345771805
 20
100.3846047479
 30
0.0
  0
SPLINE
  5
3CB
100
AcDbEntity
  8
RACCORDO
100
AcDbSpline
 62
250
  6
CONTINUOUS
 70
0
 71
3
 72
12
 73
8
 74
0
 42
0.0000001
 43
0.0000001
 44
0.0000000001
 40
0.0
 40
0.0
 40
0.0
 40
0.0
 40
0.2499408264
 40
0.4999182714
 40
0.7499330763
 40
0.8749433537
 40
1.0
 40
1.0
 40
1.0
 40
1.0
 10
106.4322041338
 20
116.0578552544
 30
0.0
 10
108.047807801
 20
115.1255611351
 30
0.0
 10
111.279514728
 20
113.2612913804
 30
0.0
 10
116.1295379211
 20
110.4683280088
 30
0.0
 10
120.1727402233
 20
108.1426204297
 30
0.0
 10
123.4069694269
 20
106.2802862388
 30
0.0
 10
125.0247511454
 20
105.349883915
 30
0.0
 10
125.8346652366
 20
104.8861200891
 30
0.0
  0
SPLINE
  5
3CC
100
AcDbEntity
  8
RACCORDO
100
AcDbSpline
 62
250
  6
CONTINUOUS
 70
0
 71
3
 72
9
 73
5
 74
0
 42
0.0000001
 43
0.0000001
 44
0.0000000001
 40
0.0
 40
0.0
 40
0.0
 40
0.0
 40
0.2530920908
 40
1.0
 40
1.0
 40
1.0
 40
1.0
 10
98.5483619279
 20
120.6084014581
 30
0.0
 10
99.2105164074
 20
120.2260832782
 30
0.0
 10
101.8268497161
 20
118.7156226546
 30
0.0
 10
104.4434308232
 20
117.2055911779
 30
0.0
 10
106.3980107824
 20
116.0781438575
 30
0.0
  0
LINE
  5
3CD
100
AcDbEntity
  8
RACCORDO
100
AcDbLine
 62
250
  6
CONTINUOUS
 10
123.8911538375
 20
48.2650786674
 30
0.0
 11
123.8977036972
 21
48.1335749842
 31
0.0
  0
LINE
  5
3CE
100
AcDbEntity
  8
0
100
AcDbLine
 62
7
  6
CONTINUOUS
 10
93.0593324661
 20
59.3601289754
 30
0.0
 11
93.1088240974
 21
59.5819524592
 31
0.0
  0
SPLINE
  5
3CF
100
AcDbEntity
  8
RACCORDO
100
AcDbSpline
 62
250
  6
CONTINUOUS
 70
0
 71
3
 72
9
 73
5
 74
0
 42
0.0000001
 43
0.0000001
 44
0.0000000001
 40
0.0
 40
0.0
 40
0.0
 40
0.0
 40
0.2532969259
 40
1.0
 40
1.0
 40
1.0
 40
1.0
 10
123.8977036972
 20
48.1335749842
 30
0.0
 10
123.9510179854
 20
47.0694066753
 30
0.0
 10
124.1925327505
 20
42.8697706767
 30
0.0
 10
124.5597112237
 20
38.6772040462
 30
0.0
 10
124.9092878098
 20
35.5556830764
 30
0.0
  0
SPLINE
  5
3D0
100
AcDbEntity
  8
0
100
AcDbSpline
 62
7
  6
CONTINUOUS
 70
0
 71
3
 72
18
 73
14
 74
0
 42
0.0000001
 43
0.0000001
 44
0.0000000001
 40
0.0
 40
0.0
 40
0.0
 40
0.0
 40
0.0411958436
 40
0.0837397769
 40
0.1290242818
 40
0.1778226622
 40
0.2870348593
 40
0.4110166622
 40
0.5484208293
 40
0.696718628
 40
0.8496906082
 40
0.9258130057
 40
1.0
 40
1.0
 40
1.0
 40
1.0
 10
95.2563074231
 20
59.0805628893
 30
0.0
 10
95.2695636788
 20
59.0882099994
 30
0.0
 10
95.2949199451
 20
59.1069186818
 30
0.0
 10
95.3247578893
 20
59.1450297052
 30
0.0
 10
95.3472652905
 20
59.19083542
 30
0.0
 10
95.368589758
 20
59.2636124712
 30
0.0
 10
95.3754180922
 20
59.3692391622
 30
0.0
 10
95.3595108469
 20
59.5064616532
 30
0.0
 10
95.3184795995
 20
59.6537163496
 30
0.0
 10
95.2506726416
 20
59.8025315154
 30
0.0
 10
95.1753420093
 20
59.9213360383
 30
0.0
 10
95.1055780068
 20
60.0098707871
 30
0.0
 10
95.0676037759
 20
60.0509819674
 30
0.0
 10
95.0475761898
 20
60.0699142409
 30
0.0
  0
SPLINE
  5
3D1
100
AcDbEntity
  8
RACCORDO
100
AcDbSpline
 62
250
  6
CONTINUOUS
 70
0
 71
3
 72
9
 73
5
 74
0
 42
0.0000001
 43
0.0000001
 44
0.0000000001
 40
0.0
 40
0.0
 40
0.0
 40
0.0
 40
0.2514141546
 40
1.0
 40
1.0
 40
1.0
 40
1.0
 10
107.7991265252
 20
92.6118989731
 30
0.0
 10
107.1379361248
 20
92.9599702302
 30
0.0
 10
104.5136559537
 20
94.3550825483
 30
0.0
 10
101.9091719741
 20
95.7871369305
 30
0.0
 10
99.9656314138
 20
96.8699566027
 30
0.0
  0
SPLINE
  5
3D2
100
AcDbEntity
  8
RACCORDO
100
AcDbSpline
 62
250
  6
CONTINUOUS
 70
0
 71
3
 72
11
 73
7
 74
0
 42
0.0000001
 43
0.0000001
 44
0.0000000001
 40
0.0
 40
0.0
 40
0.0
 40
0.0
 40
0.2452716136
 40
0.4929532086
 40
0.7441997858
 40
1.0
 40
1.0
 40
1.0
 40
1.0
 10
101.1902004497
 20
113.5875976543
 30
0.0
 10
102.8463051267
 20
112.6650550592
 30
0.0
 10
106.1836803418
 20
110.8267121747
 30
0.0
 10
111.2683955073
 20
108.1368619199
 30
0.0
 10
116.4910641095
 20
105.536546836
 30
0.0
 10
120.0568532726
 20
103.9085536294
 30
0.0
 10
121.8673720485
 20
103.1142327618
 30
0.0
  0
SPLINE
  5
3D3
100
AcDbEntity
  8
RACCORDO
100
AcDbSpline
 62
250
  6
CONTINUOUS
 70
0
 71
3
 72
13
 73
9
 74
0
 42
0.0000001
 43
0.0000001
 44
0.0000000001
 40
0.0
 40
0.0
 40
0.0
 40
0.0
 40
0.2410851425
 40
0.3698309808
 40
0.5009675535
 40
0.6319692566
 40
0.7603223894
 40
1.0
 40
1.0
 40
1.0
 40
1.0
 10
122.2117963689
 20
102.9638977274
 30
0.0
 10
122.5760319369
 20
102.8066718266
 30
0.0
 10
123.0914412287
 20
102.4562498
 30
0.0
 10
123.6554565528
 20
101.8531499811
 30
0.0
 10
124.0243439411
 20
101.3232096301
 30
0.0
 10
124.312952892
 20
100.7462814861
 30
0.0
 10
124.570514442
 20
99.9651025078
 30
0.0
 10
124.6275637786
 20
99.3467046741
 30
0.0
 10
124.5866931579
 20
98.9544232281
 30
0.0
  0
SPLINE
  5
3D4
100
AcDbEntity
  8
RACCORDO
100
AcDbSpline
 62
250
  6
CONTINUOUS
 70
0
 71
3
 72
9
 73
5
 74
0
 42
0.0000001
 43
0.0000001
 44
0.0000000001
 40
0.0
 40
0.0
 40
0.0
 40
0.0
 40
0.252750129
 40
1.0
 40
1.0
 40
1.0
 40
1.0
 10
124.5535969077
 20
98.6258176932
 30
0.0
 10
124.4388962052
 20
97.4686407273
 30
0.0
 10
124.0136094103
 20
92.8875274351
 30
0.0
 10
123.7036076243
 20
88.2956097249
 30
0.0
 10
123.5410069788
 20
84.8615249052
 30
0.0
  0
SPLINE
  5
3D5
100
AcDbEntity
  8
RACCORDO
100
AcDbSpline
 62
250
  6
CONTINUOUS
 70
0
 71
3
 72
9
 73
5
 74
0
 42
0.0000001
 43
0.0000001
 44
0.0000000001
 40
0.0
 40
0.0
 40
0.0
 40
0.0
 40
0.2564135522
 40
1.0
 40
1.0
 40
1.0
 40
1.0
 10
108.2351186656
 20
92.1468819021
 30
0.0
 10
108.2173861006
 20
92.1812785619
 30
0.0
 10
108.142113813
 20
92.3121001204
 30
0.0
 10
108.0430631518
 20
92.4298823482
 30
0.0
 10
107.9578197704
 20
92.5028736382
 30
0.0
  0
SPLINE
  5
3D6
100
AcDbEntity
  8
RACCORDO
100
AcDbSpline
 62
250
  6
CONTINUOUS
 70
0
 71
3
 72
9
 73
5
 74
0
 42
0.0000001
 43
0.0000001
 44
0.0000000001
 40
0.0
 40
0.0
 40
0.0
 40
0.0
 40
0.2594892328
 40
1.0
 40
1.0
 40
1.0
 40
1.0
 10
107.9578197704
 20
92.5028736382
 30
0.0
 10
107.9451555498
 20
92.5137176214
 30
0.0
 10
107.8953170622
 20
92.5542657388
 30
0.0
 10
107.8412270635
 20
92.5897337472
 30
0.0
 10
107.7991265252
 20
92.6118989731
 30
0.0
  0
SPLINE
  5
3D7
100
AcDbEntity
  8
RACCORDO
100
AcDbSpline
 62
250
  6
CONTINUOUS
 70
0
 71
3
 72
9
 73
5
 74
0
 42
0.0000001
 43
0.0000001
 44
0.0000000001
 40
0.0
 40
0.0
 40
0.0
 40
0.0
 40
0.4968119478
 40
1.0
 40
1.0
 40
1.0
 40
1.0
 10
107.9942177363
 20
73.4015850463
 30
0.0
 10
107.9942176452
 20
76.4208487234
 30
0.0
 10
108.0507375326
 20
82.4981321392
 30
0.0
 10
108.2231217428
 20
88.5737818667
 30
0.0
 10
108.3611666133
 20
91.6286774937
 30
0.0
  0
SPLINE
  5
3D8
100
AcDbEntity
  8
RACCORDO
100
AcDbSpline
 62
250
  6
CONTINUOUS
 70
0
 71
3
 72
9
 73
5
 74
0
 42
0.0000001
 43
0.0000001
 44
0.0000000001
 40
0.0
 40
0.0
 40
0.0
 40
0.0
 40
0.4790806515
 40
1.0
 40
1.0
 40
1.0
 40
1.0
 10
108.3611666133
 20
91.6286774937
 30
0.0
 10
108.3643089134
 20
91.6982268887
 30
0.0
 10
108.3508332077
 20
91.844508397
 30
0.0
 10
108.3072770698
 20
91.9841837134
 30
0.0
 10
108.278244067
 20
92.0540953104
 30
0.0
  0
SPLINE
  5
3D9
100
AcDbEntity
  8
RACCORDO
100
AcDbSpline
 62
250
  6
CONTINUOUS
 70
0
 71
3
 72
9
 73
5
 74
0
 42
0.0000001
 43
0.0000001
 44
0.0000000001
 40
0.0
 40
0.0
 40
0.0
 40
0.0
 40
0.5031756992
 40
1.0
 40
1.0
 40
1.0
 40
1.0
 10
123.5349041022
 20
84.7221008632
 30
0.0
 10
123.3897399515
 20
81.6288940106
 30
0.0
 10
123.2091358203
 20
75.4765077344
 30
0.0
 10
123.1502226434
 20
69.322367241
 30
0.0
 10
123.1502226434
 20
66.2648433505
 30
0.0
  0
LINE
  5
3DA
100
AcDbEntity
  8
0
100
AcDbLine
 62
7
  6
CONTINUOUS
 10
93.4757155115
 20
61.0105420333
 30
0.0
 11
93.117759091
 21
61.2160336483
 31
0.0
  0
SPLINE
  5
3DB
100
AcDbEntity
  8
RACCORDO
100
AcDbSpline
 62
250
  6
CONTINUOUS
 70
0
 71
3
 72
9
 73
5
 74
0
 42
0.0000001
 43
0.0000001
 44
0.0000000001
 40
0.0
 40
0.0
 40
0.0
 40
0.0
 40
0.5000200501
 40
1.0
 40
1.0
 40
1.0
 40
1.0
 10
127.9872834351
 20
69.578666347
 30
0.0
 10
127.9872834316
 20
66.5239246743
 30
0.0
 10
127.9880966415
 20
60.4146863614
 30
0.0
 10
127.9907343124
 20
54.3054481972
 30
0.0
 10
127.9932679161
 20
51.2509525571
 30
0.0
  0
LINE
  5
3DC
100
AcDbEntity
  8
0
100
AcDbLine
 62
7
  6
CONTINUOUS
 10
93.4639363634
 20
59.7944680601
 30
0.0
 11
93.188422723
 21
59.9526701842
 31
0.0
  0
SPLINE
  5
3DD
100
AcDbEntity
  8
0
100
AcDbSpline
 62
7
  6
CONTINUOUS
 70
0
 71
3
 72
9
 73
5
 74
0
 42
0.0000001
 43
0.0000001
 44
0.0000000001
 40
0.0
 40
0.0
 40
0.0
 40
0.0
 40
0.234459992
 40
1.0
 40
1.0
 40
1.0
 40
1.0
 10
94.9316956882
 20
59.3829121704
 30
0.0
 10
94.9270498053
 20
59.3822462259
 30
0.0
 10
94.907037458
 20
59.3807280746
 30
0.0
 10
94.8869357603
 20
59.3837852201
 30
0.0
 10
94.8720188225
 20
59.3872955719
 30
0.0
  0
SPLINE
  5
3DE
100
AcDbEntity
  8
0
100
AcDbSpline
 62
7
  6
CONTINUOUS
 70
0
 71
3
 72
9
 73
5
 74
0
 42
0.0000001
 43
0.0000001
 44
0.0000000001
 40
0.0
 40
0.0
 40
0.0
 40
0.0
 40
0.4791135383
 40
1.0
 40
1.0
 40
1.0
 40
1.0
 10
94.8720188225
 20
59.3872955719
 30
0.0
 10
94.8522101212
 20
59.3919570855
 30
0.0
 10
94.8119577966
 20
59.4062451836
 30
0.0
 10
94.7738863437
 20
59.4251735922
 30
0.0
 10
94.7544734398
 20
59.4357855224
 30
0.0
  0
SPLINE
  5
3DF
100
AcDbEntity
  8
RACCORDO
100
AcDbSpline
 62
250
  6
CONTINUOUS
 70
0
 71
3
 72
11
 73
7
 74
0
 42
0.0000001
 43
0.0000001
 44
0.0000000001
 40
0.0
 40
0.0
 40
0.0
 40
0.0
 40
0.2500673926
 40
0.5000925658
 40
0.7500811878
 40
1.0
 40
1.0
 40
1.0
 40
1.0
 10
127.9932992183
 20
51.2132917996
 30
0.0
 10
127.9942141837
 20
50.1148835333
 30
0.0
 10
127.9966540293
 20
47.9182529031
 30
0.0
 10
128.0023554474
 20
44.6235630679
 30
0.0
 10
128.0089561717
 20
41.3295283727
 30
0.0
 10
128.0129769583
 20
39.1337119991
 30
0.0
 10
128.0167957095
 20
38.035962626
 30
0.0
  0
SPLINE
  5
3E0
100
AcDbEntity
  8
0
100
AcDbSpline
 62
7
  6
CONTINUOUS
 70
0
 71
3
 72
9
 73
5
 74
0
 42
0.0000001
 43
0.0000001
 44
0.0000000001
 40
0.0
 40
0.0
 40
0.0
 40
0.0
 40
0.2497438713
 40
1.0
 40
1.0
 40
1.0
 40
1.0
 10
95.5380242128
 20
57.9972438291
 30
0.0
 10
95.5257314115
 20
58.0420421989
 30
0.0
 10
95.4771736873
 20
58.2216005177
 30
0.0
 10
95.4287762242
 20
58.4012042512
 30
0.0
 10
95.3914908452
 20
58.5356847895
 30
0.0
  0
SPLINE
  5
3E1
100
AcDbEntity
  8
0
100
AcDbSpline
 62
7
  6
CONTINUOUS
 70
0
 71
3
 72
11
 73
7
 74
0
 42
0.0000001
 43
0.0000001
 44
0.0000000001
 40
0.0
 40
0.0
 40
0.0
 40
0.0
 40
0.236482052
 40
0.4814726796
 40
0.7378088448
 40
1.0
 40
1.0
 40
1.0
 40
1.0
 10
95.3914908452
 20
58.5356847895
 30
0.0
 10
95.3801569965
 20
58.5765636035
 30
0.0
 10
95.357677103
 20
58.6599763434
 30
0.0
 10
95.3137352695
 20
58.785023155
 30
0.0
 10
95.2555212576
 20
58.9092540349
 30
0.0
 10
95.2026262559
 20
58.9868401341
 30
0.0
 10
95.1711444645
 20
59.021782527
 30
0.0
  0
SPLINE
  5
3E2
100
AcDbEntity
  8
0
100
AcDbSpline
 62
7
  6
CONTINUOUS
 70
0
 71
3
 72
11
 73
7
 74
0
 42
0.0000001
 43
0.0000001
 44
0.0000000001
 40
0.0
 40
0.0
 40
0.0
 40
0.0
 40
0.2736149181
 40
0.5278934667
 40
0.7686176175
 40
1.0
 40
1.0
 40
1.0
 40
1.0
 10
95.0475761898
 20
60.0699142409
 30
0.0
 10
94.9765884124
 20
60.137057456
 30
0.0
 10
94.8272820082
 20
60.253598248
 30
0.0
 10
94.5932513052
 20
60.3975291349
 30
0.0
 10
94.3616782231
 20
60.5149745257
 30
0.0
 10
94.2068273125
 20
60.5818052837
 30
0.0
 10
94.130452612
 20
60.6133414411
 30
0.0
  0
LINE
  5
3E3
100
AcDbEntity
  8
0
100
AcDbLine
 62
7
  6
CONTINUOUS
 10
94.7544733901
 20
59.4357855508
 30
0.0
 11
94.5423880884
 21
59.5568246778
 31
0.0
  0
SPLINE
  5
3E4
100
AcDbEntity
  8
RACCORDO
100
AcDbSpline
 62
250
  6
CONTINUOUS
 70
0
 71
3
 72
11
 73
7
 74
0
 42
0.0000001
 43
0.0000001
 44
0.0000000001
 40
0.0
 40
0.0
 40
0.0
 40
0.0
 40
0.2150241328
 40
0.4470370311
 40
0.70767488
 40
1.0
 40
1.0
 40
1.0
 40
1.0
 10
107.8954635951
 20
73.530052642
 30
0.0
 10
107.8954679942
 20
73.5178845035
 30
0.0
 10
107.9002669959
 20
73.4923983685
 30
0.0
 10
107.920764898
 20
73.4572930468
 30
0.0
 10
107.9528975573
 20
73.4260309207
 30
0.0
 10
107.9795541075
 20
73.409242365
 30
0.0
 10
107.9942177363
 20
73.401585031
 30
0.0
  0
SPLINE
  5
3E5
100
AcDbEntity
  8
RACCORDO
100
AcDbSpline
 62
250
  6
CONTINUOUS
 70
0
 71
3
 72
9
 73
5
 74
0
 42
0.0000001
 43
0.0000001
 44
0.0000000001
 40
0.0
 40
0.0
 40
0.0
 40
0.0
 40
0.2487888468
 40
1.0
 40
1.0
 40
1.0
 40
1.0
 10
99.8539707081
 20
59.5998025971
 30
0.0
 10
100.5089476392
 20
59.2351756644
 30
0.0
 10
103.1443686215
 20
57.7745681335
 30
0.0
 10
105.7947167741
 20
56.3405819218
 30
0.0
 10
107.7991265252
 20
55.289040683
 30
0.0
  0
SPLINE
  5
3E6
100
AcDbEntity
  8
RACCORDO
100
AcDbSpline
 62
250
  6
CONTINUOUS
 70
0
 71
3
 72
11
 73
7
 74
0
 42
0.0000001
 43
0.0000001
 44
0.0000000001
 40
0.0
 40
0.0
 40
0.0
 40
0.0
 40
0.297455907
 40
0.5556669642
 40
0.7830418842
 40
1.0
 40
1.0
 40
1.0
 40
1.0
 10
107.7991265252
 20
55.289040683
 30
0.0
 10
107.8445184931
 20
55.2652291756
 30
0.0
 10
107.933860698
 20
55.2283471542
 30
0.0
 10
108.0695037587
 20
55.2098796866
 30
0.0
 10
108.1909155668
 20
55.2361366292
 30
0.0
 10
108.2539539836
 20
55.2845116938
 30
0.0
 10
108.278244067
 20
55.3129328547
 30
0.0
  0
SPLINE
  5
3E7
100
AcDbEntity
  8
RACCORDO
100
AcDbSpline
 62
250
  6
CONTINUOUS
 70
0
 71
3
 72
8
 73
4
 74
0
 42
0.0000001
 43
0.0000001
 44
0.0000000001
 40
0.0
 40
0.0
 40
0.0
 40
0.0
 40
1.0
 40
1.0
 40
1.0
 40
1.0
 10
76.5869587884
 20
110.5036092798
 30
0.0
 10
76.5764567841
 20
110.4975003129
 30
0.0
 10
76.5665658978
 20
110.4902284713
 30
0.0
 10
76.5575220706
 20
110.4821154719
 30
0.0
  0
SPLINE
  5
3E8
100
AcDbEntity
  8
RACCORDO
100
AcDbSpline
 62
250
  6
CONTINUOUS
 70
0
 71
3
 72
9
 73
5
 74
0
 42
0.0000001
 43
0.0000001
 44
0.0000000001
 40
0.0
 40
0.0
 40
0.0
 40
0.0
 40
0.2532980797
 40
1.0
 40
1.0
 40
1.0
 40
1.0
 10
123.5410069788
 20
48.1203624495
 30
0.0
 10
123.5943741587
 20
47.0551233742
 30
0.0
 10
123.8361277051
 20
42.8512808302
 30
0.0
 10
124.2036707063
 20
38.6545145584
 30
0.0
 10
124.5535969077
 20
35.5298718882
 30
0.0
  0
SPLINE
  5
3E9
100
AcDbEntity
  8
RACCORDO
100
AcDbSpline
 62
250
  6
CONTINUOUS
 70
0
 71
3
 72
20
 73
16
 74
0
 42
0.0000001
 43
0.0000001
 44
0.0000000001
 40
0.0
 40
0.0
 40
0.0
 40
0.0
 40
0.1346260612
 40
0.1966537477
 40
0.2555540218
 40
0.311882164
 40
0.3664521591
 40
0.4202023728
 40
0.4741510071
 40
0.5292965007
 40
0.5865371553
 40
0.6465817414
 40
0.7099268715
 40
0.8475313453
 40
1.0
 40
1.0
 40
1.0
 40
1.0
 10
124.5866931579
 20
35.2390016198
 30
0.0
 10
124.6046451556
 20
35.0862415515
 30
0.0
 10
124.6111331813
 20
34.8593219199
 30
0.0
 10
124.566065426
 20
34.5702018923
 30
0.0
 10
124.5086174496
 20
34.3752782878
 30
0.0
 10
124.4261459261
 20
34.1988154695
 30
0.0
 10
124.3198197476
 20
34.0426130508
 30
0.0
 10
124.1906858296
 20
33.9083163735
 30
0.0
 10
124.039786161
 20
33.7979463568
 30
0.0
 10
123.8692247778
 20
33.7122716207
 30
0.0
 10
123.6807664135
 20
33.6523599068
 30
0.0
 10
123.4765754922
 20
33.6183883901
 30
0.0
 10
123.1778984863
 20
33.6071388974
 30
0.0
 10
122.7749240323
 20
33.6636696982
 30
0.0
 10
122.458687815
 20
33.767795524
 30
0.0
 10
122.2975208645
 20
33.8338989652
 30
0.0
  0
LINE
  5
3EA
100
AcDbEntity
  8
RACCORDO
100
AcDbLine
 62
250
  6
CONTINUOUS
 10
122.2117902381
 20
33.8703250537
 30
0.0
 11
122.0185777619
 21
33.9548897371
 31
0.0
  0
LINE
  5
3EB
100
AcDbEntity
  8
RACCORDO
100
AcDbLine
 62
250
  6
CONTINUOUS
 10
122.0185777619
 20
33.9548897371
 30
0.0
 11
121.867372049
 21
34.0210966564
 31
0.0
  0
SPLINE
  5
3EC
100
AcDbEntity
  8
RACCORDO
100
AcDbSpline
 62
250
  6
CONTINUOUS
 70
0
 71
3
 72
11
 73
7
 74
0
 42
0.0000001
 43
0.0000001
 44
0.0000000001
 40
0.0
 40
0.0
 40
0.0
 40
0.0
 40
0.2557530911
 40
0.5069938408
 40
0.754698473
 40
1.0
 40
1.0
 40
1.0
 40
1.0
 10
121.867372049
 20
34.0210966564
 30
0.0
 10
120.0650463525
 20
34.8104697719
 30
0.0
 10
116.514980683
 20
36.4283498526
 30
0.0
 10
111.3152452169
 20
39.0138025292
 30
0.0
 10
106.2527318582
 20
41.6896127359
 30
0.0
 10
102.9299089768
 20
43.5187635325
 30
0.0
 10
101.2810650131
 20
44.4368287174
 30
0.0
  0
SPLINE
  5
3ED
100
AcDbEntity
  8
RACCORDO
100
AcDbSpline
 62
250
  6
CONTINUOUS
 70
0
 71
3
 72
13
 73
9
 74
0
 42
0.0000001
 43
0.0000001
 44
0.0000000001
 40
0.0
 40
0.0
 40
0.0
 40
0.0
 40
0.1158976741
 40
0.228969517
 40
0.3423207564
 40
0.4589860063
 40
0.7114063288
 40
1.0
 40
1.0
 40
1.0
 40
1.0
 10
65.4206028556
 20
135.2749279994
 30
0.0
 10
65.4790754617
 20
135.3235205209
 30
0.0
 10
65.6036868996
 20
135.4092960497
 30
0.0
 10
65.8115310031
 20
135.4982075772
 30
0.0
 10
66.033692597
 20
135.5428681847
 30
0.0
 10
66.3519898914
 20
135.544214648
 30
0.0
 10
66.7751319942
 20
135.4250185402
 30
0.0
 10
67.0808529442
 20
135.2380568104
 30
0.0
 10
67.2322450896
 20
135.1243869952
 30
0.0
  0
SPLINE
  5
3EE
100
AcDbEntity
  8
RACCORDO
100
AcDbSpline
 62
250
  6
CONTINUOUS
 70
0
 71
3
 72
9
 73
5
 74
0
 42
0.0000001
 43
0.0000001
 44
0.0000000001
 40
0.0
 40
0.0
 40
0.0
 40
0.0
 40
0.5033912888
 40
1.0
 40
1.0
 40
1.0
 40
1.0
 10
123.1502443044
 20
66.2648342564
 30
0.0
 10
123.1502443044
 20
63.2414040998
 30
0.0
 10
123.2073554376
 20
57.235300391
 30
0.0
 10
123.3871093091
 20
51.2308255941
 30
0.0
 10
123.5349257541
 20
48.2517974344
 30
0.0
  0
SPLINE
  5
3EF
100
AcDbEntity
  8
RACCORDO
100
AcDbSpline
 62
250
  6
CONTINUOUS
 70
0
 71
3
 72
10
 73
6
 74
0
 42
0.0000001
 43
0.0000001
 44
0.0000000001
 40
0.0
 40
0.0
 40
0.0
 40
0.0
 40
0.5032332212
 40
0.7526322114
 40
1.0
 40
1.0
 40
1.0
 40
1.0
 10
76.0915278212
 20
92.0621799433
 30
0.0
 10
76.091527642
 20
89.0783226472
 30
0.0
 10
76.1340585028
 20
84.615503185
 30
0.0
 10
76.2821649193
 20
78.6878903322
 30
0.0
 10
76.3988134632
 20
75.7445042753
 30
0.0
 10
76.4712133978
 20
74.2795564423
 30
0.0
  0
SPLINE
  5
3F0
100
AcDbEntity
  8
RACCORDO
100
AcDbSpline
 62
250
  6
CONTINUOUS
 70
0
 71
3
 72
9
 73
5
 74
0
 42
0.0000001
 43
0.0000001
 44
0.0000000001
 40
0.0
 40
0.0
 40
0.0
 40
0.0
 40
0.5030857297
 40
1.0
 40
1.0
 40
1.0
 40
1.0
 10
76.4712133978
 20
110.2682110268
 30
0.0
 10
76.3283244859
 20
107.2176391072
 30
0.0
 10
76.1499781699
 20
101.1490102064
 30
0.0
 10
76.0915276357
 20
95.0786334478
 30
0.0
 10
76.0915278212
 20
92.0621799433
 30
0.0
  0
SPLINE
  5
3F1
100
AcDbEntity
  8
RACCORDO
100
AcDbSpline
 62
250
  6
CONTINUOUS
 70
0
 71
3
 72
9
 73
5
 74
0
 42
0.0000001
 43
0.0000001
 44
0.0000000001
 40
0.0
 40
0.0
 40
0.0
 40
0.0
 40
0.2487888494
 40
1.0
 40
1.0
 40
1.0
 40
1.0
 10
100.0582147612
 20
59.9811510475
 30
0.0
 10
100.7126682251
 20
59.6168150256
 30
0.0
 10
103.3459818927
 20
58.1573710068
 30
0.0
 10
105.994205925
 20
56.7245179183
 30
0.0
 10
107.9970116501
 20
55.6738116092
 30
0.0
  0
SPLINE
  5
3F2
100
AcDbEntity
  8
RACCORDO
100
AcDbSpline
 62
250
  6
CONTINUOUS
 70
0
 71
3
 72
9
 73
5
 74
0
 42
0.0000001
 43
0.0000001
 44
0.0000000001
 40
0.0
 40
0.0
 40
0.0
 40
0.0
 40
0.2485335744
 40
1.0
 40
1.0
 40
1.0
 40
1.0
 10
76.8290678474
 20
73.6697917348
 30
0.0
 10
77.4419822537
 20
73.2803669039
 30
0.0
 10
79.9154832227
 20
71.7250759663
 30
0.0
 10
82.4136159465
 20
70.2093074261
 30
0.0
 10
84.2973303736
 20
69.0812881626
 30
0.0
  0
SPLINE
  5
3F3
100
AcDbEntity
  8
RACCORDO
100
AcDbSpline
 62
250
  6
CONTINUOUS
 70
0
 71
3
 72
9
 73
5
 74
0
 42
0.0000001
 43
0.0000001
 44
0.0000000001
 40
0.0
 40
0.0
 40
0.0
 40
0.0
 40
0.4585066332
 40
1.0
 40
1.0
 40
1.0
 40
1.0
 10
108.278244067
 20
55.3129328547
 30
0.0
 10
108.3097361625
 20
55.349785548
 30
0.0
 10
108.3567796354
 20
55.4489272184
 30
0.0
 10
108.3638969402
 20
55.5561499205
 30
0.0
 10
108.3611666133
 20
55.6133340156
 30
0.0
  0
SPLINE
  5
3F4
100
AcDbEntity
  8
RACCORDO
100
AcDbSpline
 62
250
  6
CONTINUOUS
 70
0
 71
3
 72
9
 73
5
 74
0
 42
0.0000001
 43
0.0000001
 44
0.0000000001
 40
0.0
 40
0.0
 40
0.0
 40
0.0
 40
0.4966360762
 40
1.0
 40
1.0
 40
1.0
 40
1.0
 10
108.3611666133
 20
55.6133340156
 30
0.0
 10
108.22061775
 20
58.5555538289
 30
0.0
 10
108.0490060196
 20
64.4850691184
 30
0.0
 10
107.9942176441
 20
70.4161069386
 30
0.0
 10
107.9942177363
 20
73.4015850463
 30
0.0
  0
SPLINE
  5
3F5
100
AcDbEntity
  8
RACCORDO
100
AcDbSpline
 62
250
  6
CONTINUOUS
 70
0
 71
3
 72
9
 73
5
 74
0
 42
0.0000001
 43
0.0000001
 44
0.0000000001
 40
0.0
 40
0.0
 40
0.0
 40
0.0
 40
0.5033732661
 40
1.0
 40
1.0
 40
1.0
 40
1.0
 10
123.5073454677
 20
66.266539696
 30
0.0
 10
123.5073466734
 20
63.2451636614
 30
0.0
 10
123.5643312029
 20
57.2429246274
 30
0.0
 10
123.743729077
 20
51.2423124702
 30
0.0
 10
123.8911538375
 20
48.2650786674
 30
0.0
  0
SPLINE
  5
3F6
100
AcDbEntity
  8
RACCORDO
100
AcDbSpline
 62
250
  6
CONTINUOUS
 70
0
 71
3
 72
9
 73
5
 74
0
 42
0.0000001
 43
0.0000001
 44
0.0000000001
 40
0.0
 40
0.0
 40
0.0
 40
0.0
 40
0.2683561694
 40
1.0
 40
1.0
 40
1.0
 40
1.0
 10
128.0178617979
 20
37.7448498482
 30
0.0
 10
128.0180903998
 20
37.684549024
 30
0.0
 10
128.0110181671
 20
37.4600798275
 30
0.0
 10
127.969545633
 20
37.2352419407
 30
0.0
 10
127.9132110388
 20
37.0807901598
 30
0.0
  0
LINE
  5
3F7
100
AcDbEntity
  8
0
100
AcDbLine
 62
7
  6
CONTINUOUS
 10
90.0115519051
 20
63.0133276802
 30
0.0
 11
89.6446908288
 21
63.2272848343
 31
0.0
  0
SPLINE
  5
3F8
100
AcDbEntity
  8
RACCORDO
100
AcDbSpline
 62
250
  6
CONTINUOUS
 70
0
 71
3
 72
9
 73
5
 74
0
 42
0.0000001
 43
0.0000001
 44
0.0000000001
 40
0.0
 40
0.0
 40
0.0
 40
0.0
 40
0.4752428586
 40
1.0
 40
1.0
 40
1.0
 40
1.0
 10
128.0049588285
 20
69.6194556629
 30
0.0
 10
128.0049592818
 20
69.6122862093
 30
0.0
 10
128.0015175945
 20
69.5970817311
 30
0.0
 10
127.9926579354
 20
69.5844787861
 30
0.0
 10
127.9872834351
 20
69.578666347
 30
0.0
  0
LINE
  5
3F9
100
AcDbEntity
  8
0
100
AcDbLine
 62
7
  6
CONTINUOUS
 10
88.9647843499
 20
63.6247642539
 30
0.0
 11
88.5669620075
 21
63.8579095617
 31
0.0
  0
SPLINE
  5
3FA
100
AcDbEntity
  8
RACCORDO
100
AcDbSpline
 62
250
  6
CONTINUOUS
 70
0
 71
3
 72
9
 73
5
 74
0
 42
0.0000001
 43
0.0000001
 44
0.0000000001
 40
0.0
 40
0.0
 40
0.0
 40
0.0
 40
0.2385652675
 40
1.0
 40
1.0
 40
1.0
 40
1.0
 10
128.008235532
 20
87.9841618575
 30
0.0
 10
128.0082303497
 20
87.980901263
 30
0.0
 10
128.006855393
 20
87.9672234672
 30
0.0
 10
127.9999757826
 20
87.9544866784
 30
0.0
 10
127.9932992183
 20
87.9465037111
 30
0.0
  0
LINE
  5
3FB
100
AcDbEntity
  8
0
100
AcDbLine
 62
7
  6
CONTINUOUS
 10
90.5153965655
 20
62.7201783253
 30
0.0
 11
90.1478597954
 21
62.9340368503
 31
0.0
  0
SPLINE
  5
3FC
100
AcDbEntity
  8
RACCORDO
100
AcDbSpline
 62
250
  6
CONTINUOUS
 70
0
 71
3
 72
9
 73
5
 74
0
 42
0.0000001
 43
0.0000001
 44
0.0000000001
 40
0.0
 40
0.0
 40
0.0
 40
0.0
 40
0.496331404
 40
1.0
 40
1.0
 40
1.0
 40
1.0
 10
101.3675820747
 20
113.9031224867
 30
0.0
 10
103.545417322
 20
112.6899466191
 30
0.0
 10
107.9487948094
 20
110.2732712036
 30
0.0
 10
112.41251343
 20
107.9680601477
 30
0.0
 10
114.6825777452
 20
106.851515498
 30
0.0
  0
SPLINE
  5
3FD
100
AcDbEntity
  8
RACCORDO
100
AcDbSpline
 62
250
  6
CONTINUOUS
 70
0
 71
3
 72
13
 73
9
 74
0
 42
0.0000001
 43
0.0000001
 44
0.0000000001
 40
0.0
 40
0.0
 40
0.0
 40
0.0
 40
0.2408198299
 40
0.3696419002
 40
0.5009151169
 40
0.6320581769
 40
0.7605035307
 40
1.0
 40
1.0
 40
1.0
 40
1.0
 10
122.3647322749
 20
103.2915798667
 30
0.0
 10
122.7578499345
 20
103.1172526108
 30
0.0
 10
123.3131601932
 20
102.7323704677
 30
0.0
 10
123.921706289
 20
102.0749007818
 30
0.0
 10
124.320771056
 20
101.4982991063
 30
0.0
 10
124.6343105408
 20
100.8717731688
 30
0.0
 10
124.9161827744
 20
100.0248529171
 30
0.0
 10
124.9829149479
 20
99.3548668403
 30
0.0
 10
124.9423868226
 20
98.9291180183
 30
0.0
  0
LINE
  5
3FE
100
AcDbEntity
  8
0
100
AcDbLine
 62
7
  6
CONTINUOUS
 10
92.0545430445
 20
61.0998266228
 30
0.0
 11
92.0227263846
 21
61.0078427078
 31
0.0
  0
LINE
  5
3FF
100
AcDbEntity
  8
0
100
AcDbLine
 62
7
  6
CONTINUOUS
 10
93.0769660764
 20
59.6601892605
 30
0.0
 11
93.0025967393
 21
59.3273704778
 31
0.0
  0
SPLINE
  5
400
100
AcDbEntity
  8
0
100
AcDbSpline
 62
7
  6
CONTINUOUS
 70
0
 71
3
 72
9
 73
5
 74
0
 42
0.0000001
 43
0.0000001
 44
0.0000000001
 40
0.0
 40
0.0
 40
0.0
 40
0.0
 40
0.5003779566
 40
1.0
 40
1.0
 40
1.0
 40
1.0
 10
95.3347640351
 20
58.5029313776
 30
0.0
 10
95.3626178443
 20
58.4024615212
 30
0.0
 10
95.4172652605
 20
58.2013935827
 30
0.0
 10
95.4711698683
 20
58.0001210396
 30
0.0
 10
95.4991686423
 20
57.8998550043
 30
0.0
  0
SPLINE
  5
401
100
AcDbEntity
  8
0
100
AcDbSpline
 62
7
  6
CONTINUOUS
 70
0
 71
3
 72
12
 73
8
 74
0
 42
0.0000001
 43
0.0000001
 44
0.0000000001
 40
0.0
 40
0.0
 40
0.0
 40
0.0
 40
0.2628834118
 40
0.4556431625
 40
0.6421644633
 40
0.8228873239
 40
1.0
 40
1.0
 40
1.0
 40
1.0
 10
95.1307913998
 20
58.9699921048
 30
0.0
 10
95.159306934
 20
58.9352194953
 30
0.0
 10
95.2015782955
 20
58.8690235181
 30
0.0
 10
95.2486431398
 20
58.7696995544
 30
0.0
 10
95.2828562353
 20
58.6801214757
 30
0.0
 10
95.3107286493
 20
58.5912325428
 30
0.0
 10
95.3266698088
 20
58.5321275901
 30
0.0
 10
95.3347640348
 20
58.5029313777
 30
0.0
  0
SPLINE
  5
402
100
AcDbEntity
  8
0
100
AcDbSpline
 62
7
  6
CONTINUOUS
 70
0
 71
3
 72
18
 73
14
 74
0
 42
0.0000001
 43
0.0000001
 44
0.0000000001
 40
0.0
 40
0.0
 40
0.0
 40
0.0
 40
0.0741852378
 40
0.150322069
 40
0.3032901321
 40
0.4515998005
 40
0.5890057877
 40
0.7129746671
 40
0.8221812708
 40
0.8709788495
 40
0.9162609954
 40
0.9588051446
 40
1.0
 40
1.0
 40
1.0
 40
1.0
 10
94.9908741023
 20
60.0371753993
 30
0.0
 10
95.0109012731
 20
60.0182432929
 30
0.0
 10
95.0488777175
 20
59.9771271417
 30
0.0
 10
95.1186446295
 20
59.8885890277
 30
0.0
 10
95.1939674719
 20
59.7697688692
 30
0.0
 10
95.2617896154
 20
59.6209555939
 30
0.0
 10
95.3028154346
 20
59.4736963071
 30
0.0
 10
95.3187034795
 20
59.3364763588
 30
0.0
 10
95.3118706571
 20
59.2308583176
 30
0.0
 10
95.2905513373
 20
59.158081265
 30
0.0
 10
95.268035277
 20
59.1122819041
 30
0.0
 10
95.2382091836
 20
59.0741613336
 30
0.0
 10
95.2128457795
 20
59.0554617724
 30
0.0
 10
95.199590872
 20
59.0478127979
 30
0.0
  0
SPLINE
  5
403
100
AcDbEntity
  8
0
100
AcDbSpline
 62
7
  6
CONTINUOUS
 70
0
 71
3
 72
11
 73
7
 74
0
 42
0.0000001
 43
0.0000001
 44
0.0000000001
 40
0.0
 40
0.0
 40
0.0
 40
0.0
 40
0.231382758
 40
0.4721070288
 40
0.7263853598
 40
1.0
 40
1.0
 40
1.0
 40
1.0
 10
94.0737516642
 20
60.5806030244
 30
0.0
 10
94.1501265092
 20
60.5490669743
 30
0.0
 10
94.3049776043
 20
60.4822364093
 30
0.0
 10
94.5365507651
 20
60.3647912184
 30
0.0
 10
94.7705810424
 20
60.2208601341
 30
0.0
 10
94.9198868323
 20
60.1043189351
 30
0.0
 10
94.9908741023
 20
60.0371753993
 30
0.0
  0
SPLINE
  5
404
100
AcDbEntity
  8
RACCORDO
100
AcDbSpline
 62
250
  6
CONTINUOUS
 70
0
 71
3
 72
9
 73
5
 74
0
 42
0.0000001
 43
0.0000001
 44
0.0000000001
 40
0.0
 40
0.0
 40
0.0
 40
0.0
 40
0.4757839785
 40
1.0
 40
1.0
 40
1.0
 40
1.0
 10
90.6743775843
 20
125.1760931748
 30
0.0
 10
90.6682549707
 20
125.1796300938
 30
0.0
 10
90.6536145672
 20
125.1842269603
 30
0.0
 10
90.6384940512
 20
125.1829895257
 30
0.0
 10
90.6308825556
 20
125.1813287924
 30
0.0
  0
SPLINE
  5
405
100
AcDbEntity
  8
0
100
AcDbSpline
 62
7
  6
CONTINUOUS
 70
0
 71
3
 72
11
 73
7
 74
0
 42
0.0000001
 43
0.0000001
 44
0.0000000001
 40
0.0
 40
0.0
 40
0.0
 40
0.0
 40
0.2892932822
 40
0.556731915
 40
0.7943502121
 40
1.0
 40
1.0
 40
1.0
 40
1.0
 10
94.6977573035
 20
59.4030383932
 30
0.0
 10
94.7163711029
 20
59.3928632818
 30
0.0
 10
94.7529488083
 20
59.3745725151
 30
0.0
 10
94.807883887
 20
59.354704432
 30
0.0
 10
94.8597117981
 20
59.3458179994
 30
0.0
 10
94.8930208339
 20
59.3529777284
 30
0.0
 10
94.9061031575
 20
59.3604781979
 30
0.0
  0
LINE
  5
406
100
AcDbEntity
  8
0
100
AcDbLine
 62
7
  6
CONTINUOUS
 10
92.0279436328
 20
61.8437232547
 30
0.0
 11
91.9737104744
 21
61.8750406644
 31
0.0
  0
LINE
  5
407
100
AcDbEntity
  8
0
100
AcDbLine
 62
7
  6
CONTINUOUS
 10
91.2403840253
 20
62.2992664604
 30
0.0
 11
90.8725418022
 21
62.5125958714
 31
0.0
  0
SPLINE
  5
408
100
AcDbEntity
  8
RACCORDO
100
AcDbSpline
 62
7
  6
CONTINUOUS
 70
0
 71
3
 72
9
 73
5
 74
0
 42
0.0000001
 43
0.0000001
 44
0.0000000001
 40
0.0
 40
0.0
 40
0.0
 40
0.0
 40
0.2595795726
 40
1.0
 40
1.0
 40
1.0
 40
1.0
 10
79.4623838147
 20
89.8684850854
 30
0.0
 10
79.4585986861
 20
89.8706705711
 30
0.0
 10
79.4436514514
 20
89.8784229675
 30
0.0
 10
79.4271737027
 20
89.8833644827
 30
0.0
 10
79.4147970466
 20
89.8848633353
 30
0.0
  0
SPLINE
  5
409
100
AcDbEntity
  8
RACCORDO
100
AcDbSpline
 62
7
  6
CONTINUOUS
 70
0
 71
3
 72
9
 73
5
 74
0
 42
0.0000001
 43
0.0000001
 44
0.0000000001
 40
0.0
 40
0.0
 40
0.0
 40
0.0
 40
0.2595795726
 40
1.0
 40
1.0
 40
1.0
 40
1.0
 10
79.4623838147
 20
108.2390663132
 30
0.0
 10
79.4585986861
 20
108.241251799
 30
0.0
 10
79.4436514514
 20
108.2490041953
 30
0.0
 10
79.4271737027
 20
108.2539457105
 30
0.0
 10
79.4147970466
 20
108.2554445631
 30
0.0
  0
SPLINE
  5
40A
100
AcDbEntity
  8
RACCORDO
100
AcDbSpline
 62
7
  6
CONTINUOUS
 70
0
 71
3
 72
9
 73
5
 74
0
 42
0.0000001
 43
0.0000001
 44
0.0000000001
 40
0.0
 40
0.0
 40
0.0
 40
0.0
 40
0.2595762926
 40
1.0
 40
1.0
 40
1.0
 40
1.0
 10
107.730679911
 20
59.2769412817
 30
0.0
 10
107.730679911
 20
59.2725721063
 30
0.0
 10
107.729920039
 20
59.2557571202
 30
0.0
 10
107.7259625637
 20
59.2390221581
 30
0.0
 10
107.7210749251
 20
59.2275577891
 30
0.0
  0
SPLINE
  5
40B
100
AcDbEntity
  8
RACCORDO
100
AcDbSpline
 62
7
  6
CONTINUOUS
 70
0
 71
3
 72
9
 73
5
 74
0
 42
0.0000001
 43
0.0000001
 44
0.0000000001
 40
0.0
 40
0.0
 40
0.0
 40
0.0
 40
0.2595762926
 40
1.0
 40
1.0
 40
1.0
 40
1.0
 10
91.8207773343
 20
68.4631196315
 30
0.0
 10
91.8207773343
 20
68.4587504562
 30
0.0
 10
91.8200174623
 20
68.4419354701
 30
0.0
 10
91.816059987
 20
68.425200508
 30
0.0
 10
91.8111723484
 20
68.413736139
 30
0.0
  0
SPLINE
  5
40C
100
AcDbEntity
  8
RACCORDO
100
AcDbSpline
 62
250
  6
CONTINUOUS
 70
0
 71
3
 72
9
 73
5
 74
0
 42
0.0000001
 43
0.0000001
 44
0.0000000001
 40
0.0
 40
0.0
 40
0.0
 40
0.0
 40
0.2322177185
 40
1.0
 40
1.0
 40
1.0
 40
1.0
 10
70.3115988268
 20
136.8177577557
 30
0.0
 10
70.3645656607
 20
136.8091454543
 30
0.0
 10
70.590547482
 20
136.7590578892
 30
0.0
 10
70.8044489329
 20
136.6621677374
 30
0.0
 10
70.9577254633
 20
136.5728050399
 30
0.0
  0
SPLINE
  5
40D
100
AcDbEntity
  8
RACCORDO
100
AcDbSpline
 62
250
  6
CONTINUOUS
 70
0
 71
3
 72
10
 73
6
 74
0
 42
0.0000001
 43
0.0000001
 44
0.0000000001
 40
0.0
 40
0.0
 40
0.0
 40
0.0
 40
0.5255398347
 40
0.7743338002
 40
1.0
 40
1.0
 40
1.0
 40
1.0
 10
76.148915372
 20
73.8640045681
 30
0.0
 10
76.2024022534
 20
73.7459124071
 30
0.0
 10
76.303852081
 20
73.5807247719
 30
0.0
 10
76.4719214373
 20
73.3994883861
 30
0.0
 10
76.5642822826
 20
73.326375538
 30
0.0
 10
76.611266498
 20
73.296520187
 30
0.0
  0
SPLINE
  5
40E
100
AcDbEntity
  8
RACCORDO
100
AcDbSpline
 62
250
  6
CONTINUOUS
 70
0
 71
3
 72
9
 73
5
 74
0
 42
0.0000001
 43
0.0000001
 44
0.0000000001
 40
0.0
 40
0.0
 40
0.0
 40
0.0
 40
0.2486504163
 40
1.0
 40
1.0
 40
1.0
 40
1.0
 10
76.611266498
 20
73.296520187
 30
0.0
 10
77.1562845607
 20
72.9502324133
 30
0.0
 10
79.3540130345
 20
71.5667220043
 30
0.0
 10
81.5716243682
 20
70.2150239734
 30
0.0
 10
83.243735472
 20
69.2094421835
 30
0.0
  0
SPLINE
  5
40F
100
AcDbEntity
  8
RACCORDO
100
AcDbSpline
 62
250
  6
CONTINUOUS
 70
0
 71
3
 72
11
 73
7
 74
0
 42
0.0000001
 43
0.0000001
 44
0.0000000001
 40
0.0
 40
0.0
 40
0.0
 40
0.0
 40
0.291894023
 40
0.5534417672
 40
0.7868224023
 40
1.0
 40
1.0
 40
1.0
 40
1.0
 10
107.9970116501
 20
55.6738116092
 30
0.0
 10
108.0200876719
 20
55.6621366125
 30
0.0
 10
108.0655754368
 20
55.6431258828
 30
0.0
 10
108.1342708816
 20
55.6285972403
 30
0.0
 10
108.197687814
 20
55.6303657734
 30
0.0
 10
108.2359115809
 20
55.6434054369
 30
0.0
 10
108.2524406801
 20
55.6525440679
 30
0.0
  0
SPLINE
  5
410
100
AcDbEntity
  8
RACCORDO
100
AcDbSpline
 62
250
  6
CONTINUOUS
 70
0
 71
3
 72
10
 73
6
 74
0
 42
0.0000001
 43
0.0000001
 44
0.0000000001
 40
0.0
 40
0.0
 40
0.0
 40
0.0
 40
0.526487039
 40
0.7752605025
 40
1.0
 40
1.0
 40
1.0
 40
1.0
 10
76.5421680142
 20
74.0250565393
 30
0.0
 10
76.5760978559
 20
73.9515648471
 30
0.0
 10
76.6394939701
 20
73.8487207289
 30
0.0
 10
76.7434094107
 20
73.7350325059
 30
0.0
 10
76.8002124313
 20
73.6887993834
 30
0.0
 10
76.829067651
 20
73.6697916214
 30
0.0
  0
SPLINE
  5
411
100
AcDbEntity
  8
RACCORDO
100
AcDbSpline
 62
250
  6
CONTINUOUS
 70
0
 71
3
 72
9
 73
5
 74
0
 42
0.0000001
 43
0.0000001
 44
0.0000000001
 40
0.0
 40
0.0
 40
0.0
 40
0.0
 40
0.4716921952
 40
1.0
 40
1.0
 40
1.0
 40
1.0
 10
76.4712133978
 20
74.2795564423
 30
0.0
 10
76.4741396746
 20
74.2379554188
 30
0.0
 10
76.4911897428
 20
74.1504924224
 30
0.0
 10
76.5225899167
 20
74.0674648469
 30
0.0
 10
76.5421680142
 20
74.0250565393
 30
0.0
  0
SPLINE
  5
412
100
AcDbEntity
  8
RACCORDO
100
AcDbSpline
 62
250
  6
CONTINUOUS
 70
0
 71
3
 72
13
 73
9
 74
0
 42
0.0000001
 43
0.0000001
 44
0.0000000001
 40
0.0
 40
0.0
 40
0.0
 40
0.0
 40
0.2552892472
 40
0.5079391153
 40
0.6328662737
 40
0.7566085294
 40
0.8789902748
 40
1.0
 40
1.0
 40
1.0
 40
1.0
 10
85.4217192293
 20
53.5919554053
 30
0.0
 10
83.8431855604
 20
54.5367005233
 30
0.0
 10
80.7115423144
 20
56.4317363189
 30
0.0
 10
76.8520387497
 20
58.8621078426
 30
0.0
 10
73.8354876797
 20
60.8500902122
 30
0.0
 10
71.6276991299
 20
62.3587253899
 30
0.0
 10
69.4738303541
 20
63.8953112515
 30
0.0
 10
68.0669030478
 20
64.9428039802
 30
0.0
 10
67.3725639014
 20
65.4703452192
 30
0.0
  0
SPLINE
  5
413
100
AcDbEntity
  8
RACCORDO
100
AcDbSpline
 62
250
  6
CONTINUOUS
 70
0
 71
3
 72
9
 73
5
 74
0
 42
0.0000001
 43
0.0000001
 44
0.0000000001
 40
0.0
 40
0.0
 40
0.0
 40
0.0
 40
0.2217978761
 40
1.0
 40
1.0
 40
1.0
 40
1.0
 10
76.5421638901
 20
110.4666890578
 30
0.0
 10
76.5316801456
 20
110.4549300335
 30
0.0
 10
76.4905745548
 20
110.3963381376
 30
0.0
 10
76.4748105962
 20
110.3233679314
 30
0.0
 10
76.4712133978
 20
110.2682110268
 30
0.0
  0
LINE
  5
414
100
AcDbEntity
  8
RACCORDO
100
AcDbLine
 62
250
  6
CONTINUOUS
 10
67.2885751928
 20
65.534209928
 30
0.0
 11
67.1716299012
 21
65.6232525644
 31
0.0
  0
LINE
  5
415
100
AcDbEntity
  8
RACCORDO
100
AcDbLine
 62
250
  6
CONTINUOUS
 10
67.1716299012
 20
65.6232525644
 30
0.0
 11
67.0278236702
 21
65.7328565872
 31
0.0
  0
SPLINE
  5
416
100
AcDbEntity
  8
RACCORDO
100
AcDbSpline
 62
250
  6
CONTINUOUS
 70
0
 71
3
 72
15
 73
11
 74
0
 42
0.0000001
 43
0.0000001
 44
0.0000000001
 40
0.0
 40
0.0
 40
0.0
 40
0.0
 40
0.1100692794
 40
0.2322049124
 40
0.3630915777
 40
0.4986520559
 40
0.6344382158
 40
0.7659501365
 40
0.8889706207
 40
1.0
 40
1.0
 40
1.0
 40
1.0
 10
67.0278236702
 20
65.7328565872
 30
0.0
 10
66.8887574702
 20
65.83855388
 30
0.0
 10
66.6120316791
 20
66.0836849946
 30
0.0
 10
66.2249352281
 20
66.5116836069
 30
0.0
 10
65.8561498034
 20
67.0069973916
 30
0.0
 10
65.5197617692
 20
67.5503684007
 30
0.0
 10
65.2293745253
 20
68.1207617146
 30
0.0
 10
64.9958966289
 20
68.6954035708
 30
0.0
 10
64.8285439068
 20
69.2517592332
 30
0.0
 10
64.7604373119
 20
69.6180486989
 30
0.0
 10
64.7409752375
 20
69.793169104
 30
0.0
  0
LINE
  5
417
100
AcDbEntity
  8
RACCORDO
100
AcDbLine
 62
250
  6
CONTINUOUS
 10
64.7409752375
 20
69.793169104
 30
0.0
 11
64.7267693962
 21
69.9194998638
 31
0.0
  0
SPLINE
  5
418
100
AcDbEntity
  8
RACCORDO
100
AcDbSpline
 62
250
  6
CONTINUOUS
 70
0
 71
3
 72
9
 73
5
 74
0
 42
0.0000001
 43
0.0000001
 44
0.0000000001
 40
0.0
 40
0.0
 40
0.0
 40
0.0
 40
0.2467687668
 40
1.0
 40
1.0
 40
1.0
 40
1.0
 10
64.6968775614
 20
70.1856476728
 30
0.0
 10
64.5822800814
 20
71.2101233692
 30
0.0
 10
64.1508937529
 20
75.3653292096
 30
0.0
 10
63.849845652
 20
79.5339143096
 30
0.0
 10
63.6918205864
 20
82.6765325861
 30
0.0
  0
ELLIPSE
  5
419
100
AcDbEntity
  8
RACCORDO
100
AcDbEllipse
 62
7
  6
CONTINUOUS
 10
80.1685215306
 20
89.5923458298
 30
0.0
 11
-0.083754884
 21
0.2021201047
 31
0.0
 40
0.563784925
 41
-0.6338316006
 42
-0.3075604863
  0
ELLIPSE
  5
41A
100
AcDbEntity
  8
RACCORDO
100
AcDbEllipse
 62
7
  6
CONTINUOUS
 10
80.1685215306
 20
107.9629270577
 30
0.0
 11
-0.083754884
 21
0.2021201047
 31
0.0
 40
0.563784925
 41
-0.6338316006
 42
-0.3075604863
  0
ELLIPSE
  5
41B
100
AcDbEntity
  8
RACCORDO
100
AcDbEllipse
 62
7
  6
CONTINUOUS
 10
107.844563331
 20
60.0266165566
 30
0.0
 11
-0.1331740152
 21
0.1735899779
 31
0.0
 40
0.5637686552
 41
-2.8340177212
 42
-2.5078501499
  0
ELLIPSE
  5
41C
100
AcDbEntity
  8
RACCORDO
100
AcDbEllipse
 62
7
  6
CONTINUOUS
 10
91.9346607543
 20
69.2127949065
 30
0.0
 11
-0.1331740152
 21
0.1735899779
 31
0.0
 40
0.5637686552
 41
-2.8340177212
 42
-2.5078501499
  0
ELLIPSE
  5
41D
100
AcDbEntity
  8
RACCORDO
100
AcDbEllipse
 62
7
  6
CONTINUOUS
 10
80.3806535649
 20
103.893346364
 30
0.0
 11
0.1659657471
 21
0.1613385141
 31
0.0
 40
0.6917358397
 41
-1.3773937918
 42
-0.5919954908
  0
ELLIPSE
  5
41E
100
AcDbEntity
  8
RACCORDO
100
AcDbEllipse
 62
7
  6
CONTINUOUS
 10
80.3806535649
 20
85.5227651362
 30
0.0
 11
0.1659657471
 21
0.1613385141
 31
0.0
 40
0.6917358397
 41
-1.3773937918
 42
-0.5919954908
  0
ELLIPSE
  5
41F
100
AcDbEntity
  8
RACCORDO
100
AcDbEllipse
 62
7
  6
CONTINUOUS
 10
104.4261794599
 20
62.2452738625
 30
0.0
 11
0.2227039483
 21
0.0630673801
 31
0.0
 40
0.6916967922
 41
0.591917701
 42
1.3773643225
  0
ELLIPSE
  5
420
100
AcDbEntity
  8
RACCORDO
100
AcDbEllipse
 62
7
  6
CONTINUOUS
 10
88.5162768832
 20
71.4314522124
 30
0.0
 11
0.2227039483
 21
0.0630673801
 31
0.0
 40
0.6916967922
 41
0.591917701
 42
1.3773643225
  0
ELLIPSE
  5
421
100
AcDbEntity
  8
RACCORDO
100
AcDbEllipse
 62
7
  6
CONTINUOUS
 10
78.6519985855
 20
75.1304985568
 30
0.0
 11
-0.2500120911
 21
0.4330057209
 31
0.0
 40
0.5775075436
 41
0.7855021057
 42
2.355993846
  0
ELLIPSE
  5
422
100
AcDbEntity
  8
RACCORDO
100
AcDbEllipse
 62
7
  6
CONTINUOUS
 10
107.9539226966
 20
60.2083991306
 30
0.0
 11
0.0365055561
 21
0.2092349662
 31
0.0
 40
0.2023676368
 41
5.4238955163
 42
6.9946918431
  0
ELLIPSE
  5
423
100
AcDbEntity
  8
RACCORDO
100
AcDbEllipse
 62
7
  6
CONTINUOUS
 10
92.0440201199
 20
69.3945774805
 30
0.0
 11
0.0365055561
 21
0.2092349662
 31
0.0
 40
0.2023676368
 41
5.4238955163
 42
6.9946918431
  0
ELLIPSE
  5
424
100
AcDbEntity
  8
RACCORDO
100
AcDbEllipse
 62
7
  6
CONTINUOUS
 10
80.3806535649
 20
89.59612092
 30
0.0
 11
0.1994533289
 21
-0.0730029731
 31
0.0
 40
0.2024209805
 41
-0.7114441032
 42
0.8593522236
  0
ELLIPSE
  5
425
100
AcDbEntity
  8
RACCORDO
100
AcDbEllipse
 62
7
  6
CONTINUOUS
 10
80.3806535649
 20
107.9667021479
 30
0.0
 11
0.1994533289
 21
-0.0730029731
 31
0.0
 40
0.2024209805
 41
-0.7114441032
 42
0.8593522236
  0
ENDSEC
  0
SECTION
  2
OBJECTS
  0
DICTIONARY
  5
C
100
AcDbDictionary
280
0
281
1
  3
ACAD_GROUP
350
D
  3
ACAD_MLINESTYLE
350
17
  3
ACAD_LAYOUT
350
1A
  3
ACAD_PLOTSETTINGS
350
19
  3
ACAD_PLOTSTYLENAME
350
E
  0
DICTIONARY
  5
D
102
{ACAD_REACTORS
330
C
102
}
100
AcDbDictionary
280
0
281
1
  0
ACDBDICTIONARYWDFLT
  5
E
102
{ACAD_REACTORS
330
C
102
}
100
AcDbDictionary
281
1
  3
Normal
350
F
100
AcDbDictionaryWithDefault
340
F
  0
DICTIONARY
  5
17
102
{ACAD_REACTORS
330
C
102
}
100
AcDbDictionary
280
0
281
1
  3
Standard
350
18
  0
DICTIONARY
  5
19
102
{ACAD_REACTORS
330
C
102
}
100
AcDbDictionary
281
1
  0
DICTIONARY
  5
1A
102
{ACAD_REACTORS
330
C
102
}
100
AcDbDictionary
281
1
  3
Model
350
426
  3
Layout1
350
427
  0
ACDBPLACEHOLDER
  5
F
102
{ACAD_REACTORS
330
E
102
}
  0
MLINESTYLE
  5
18
102
{ACAD_REACTORS
330
17
102
}
100
AcDbMlineStyle
  2
STANDARD
 70
0
  3

 62
256
 51
90.0
 52
90.0
 71
2
 49
0.5
 62
256
  6
BYLAYER
 49
-0.5
 62
256
  6
BYLAYER
  0
LAYOUT
  5
426
102
{ACAD_REACTORS
330
1A
102
}
100
AcDbPlotSettings
  1

  2
none_device
  4
ISO_A4_(297.00_x_210.00_MM)
  6

 40
0.0
 41
0.0
 42
0.0
 43
0.0
 44
297.0
 45
210.0
 46
0.0
 47
0.0
 48
0.0
 49
0.0
140
0.0
141
0.0
142
1.0
143
1.0
 70
1024
 72
1
 73
0
 74
0
  7

 75
0
147
1.0
148
0.0
149
0.0
100
AcDbLayout
  1
Model
 70
0
 71
0
 10
0.0
 20
0.0
 11
297.0
 21
210.0
 12
0.0
 22
0.0
 32
0.0
 14
0.0
 24
0.0
 34
0.0
 15
0.0
 25
0.0
 35
0.0
146
0.0
 13
0.0
 23
0.0
 33
0.0
 16
1.0
 26
0.0
 36
0.0
 17
0.0
 27
1.0
 37
0.0
 76
0
330
219
345
0
346
0
  0
LAYOUT
  5
427
102
{ACAD_REACTORS
330
1A
102
}
100
AcDbPlotSettings
  1

  2
none_device
  4
ISO_A4_(297.00_x_210.00_MM)
  6

 40
0.0
 41
0.0
 42
0.0
 43
0.0
 44
297.0
 45
210.0
 46
0.0
 47
0.0
 48
0.0
 49
0.0
140
0.0
141
0.0
142
1.0
143
1.0
 70
0
 72
1
 73
0
 74
0
  7

 75
0
147
1.0
148
0.0
149
0.0
100
AcDbLayout
  1
Layout1
 70
0
 71
1
 10
0.0
 20
0.0
 11
297.0
 21
210.0
 12
0.0
 22
0.0
 32
0.0
 14
0.0
 24
0.0
 34
0.0
 15
0.0
 25
0.0
 35
0.0
146
0.0
 13
0.0
 23
0.0
 33
0.0
 16
1.0
 26
0.0
 36
0.0
 17
0.0
 27
1.0
 37
0.0
 76
0
330
21A
345
0
346
0
  0
ENDSEC
  0
EOF
