  0
SECTION
  2
HEADER
  9
$ACADVER
  1
AC1024
  9
$DWGCODEPAGE
  3
ANSI_1252
  9
$EXTMAX
 10
297.0
 20
210.0
 30
0.0
  9
$EXTMIN
 10
0.0
 20
0.0
 30
0.0
  9
$LIMMIN
 10
0.0
 20
0.0
  9
$LIMMAX
 10
297.0
 20
210.0
  9
$VIEWCTR
 10
148.5
 20
105.0
  9
$VIEWSIZE
 40
210.0
  9
$CLAYER
  8
0
  9
$LTSCALE
 40
16.335
  9
$CELTYPE
  6
BYLAYER
  9
$DIMSCALE
 40
1.0
  9
$DIMASZ
 40
3.0
  9
$DIMEXO
 40
0.5
  9
$DIMDLI
 40
11.286
  9
$DIMEXE
 40
1.5
  9
$DIMCEN
 40
2.673
  9
$DIMLFAC
 40
1.0
  9
$DIMBLK
  1
_FILLED
  9
$DIMALT
 70
0
  9
$DIMALTF
 40
0.0393700787
  9
$DIMTXT
 40
3.0
  9
$DIMTOL
 70
1
  9
$DIMLIM
 70
0
  9
$DIMTFAC
 40
1.0
  9
$DIMTP
 40
0.01
  9
$DIMTM
 40
0.01
  9
$DIMGAP
 40
0.625
  9
$DIMDSEP
 70
44
  9
$AUNITS
 70
0
  9
$PDMODE
 70
3
  9
$PDSIZE
 40
3.0
  9
$HANDSEED
  5
4F5
  9
$TILEMODE
 70
1
  9
$MEASUREMENT
 70
1
  9
$INSUNITS
 70
4
  0
ENDSEC
  0
SECTION
  2
CLASSES
  0
CLASS
  1
ACDBDICTIONARYWDFLT
  2
AcDbDictionaryWithDefault
  3
AutoCAD 2000
 90
0
 91
1
280
0
281
0
  0
CLASS
  1
ACDBPLACEHOLDER
  2
AcDbPlaceHolder
  3
AutoCAD 2000
 90
0
 91
1
280
0
281
0
  0
CLASS
  1
LAYOUT
  2
AcDbLayout
  3
AutoCAD 2000
 90
0
 91
0
280
0
281
0
  0
ENDSEC
  0
SECTION
  2
TABLES
  0
TABLE
  2
VPORT
  5
8
100
AcDbSymbolTable
 70
2
  0
VPORT
  5
1F4
100
AcDbSymbolTableRecord
100
AcDbViewportTableRecord
  2
*ACTIVE
 70
0
 10
0.0
 20
0.0
 11
1.0
 21
1.0
 12
148.5
 22
105.0
 13
0.0
 23
0.0
 14
1.0
 24
1.0
 15
0.0
 25
0.0
 16
0.0
 26
0.0
 36
1.0
 17
0.0
 27
0.0
 37
0.0
 40
210.0
 41
1.4142857143
 42
50.0
 43
0.0
 44
0.0
 50
0.0
 51
0.0
 71
0
 72
100
 73
1
 74
1
 75
0
 76
0
 77
0
 78
0
  0
ENDTAB
  0
TABLE
  2
LTYPE
  5
5
100
AcDbSymbolTable
 70
6
  0
LTYPE
  5
14
100
AcDbSymbolTableRecord
100
AcDbLinetypeTableRecord
  2
BYBLOCK
 70
0
  3

 72
65
 73
0
 40
0.0
  0
LTYPE
  5
15
100
AcDbSymbolTableRecord
100
AcDbLinetypeTableRecord
  2
BYLAYER
 70
0
  3

 72
65
 73
0
 40
0.0
  0
LTYPE
  5
16
100
AcDbSymbolTableRecord
100
AcDbLinetypeTableRecord
  2
CONTINUOUS
 70
64
  3
Solid line
 72
65
 73
0
 40
0.0
  0
LTYPE
  5
1F5
100
AcDbSymbolTableRecord
100
AcDbLinetypeTableRecord
  2
CENTER
 70
64
  3
____ _ ____ _ ____ _ ____ _ ____ _ ____ _ ____
 72
65
 73
4
 40
0.6
 49
0.375
 74
0
 49
-0.075
 74
0
 49
0.075
 74
0
 49
-0.075
 74
0
  0
LTYPE
  5
1F6
100
AcDbSymbolTableRecord
100
AcDbLinetypeTableRecord
  2
HIDDEN
 70
64
  3
- - - - - - - - - - - - - - - - - - - -
 72
65
 73
2
 40
0.2
 49
0.1
 74
0
 49
-0.1
 74
0
  0
LTYPE
  5
1F7
100
AcDbSymbolTableRecord
100
AcDbLinetypeTableRecord
  2
PHANTOM
 70
64
  3
_____ _ _ _____ _ _ _____ _ _ _____
 72
65
 73
6
 40
0.8
 49
0.45
 74
0
 49
-0.05
 74
0
 49
0.1
 74
0
 49
-0.05
 74
0
 49
0.1
 74
0
 49
-0.05
 74
0
  0
LTYPE
  5
1F8
100
AcDbSymbolTableRecord
100
AcDbLinetypeTableRecord
  2
DOT
 70
64
  3
. . . . . . . . . . . . . . . . . . . .
 72
65
 73
2
 40
0.2
 49
0.1
 74
0
 49
-0.1
 74
0
  0
LTYPE
  5
1F9
100
AcDbSymbolTableRecord
100
AcDbLinetypeTableRecord
  2
DASHED
 70
64
  3
- - - - - - - - - - - - - - - - - - - -
 72
65
 73
2
 40
0.2
 49
0.1
 74
0
 49
-0.1
 74
0
  0
ENDTAB
  0
TABLE
  2
LAYER
  5
2
100
AcDbSymbolTable
 70
36
  0
LAYER
  5
10
100
AcDbSymbolTableRecord
100
AcDbLayerTableRecord
  2
0
 70
0
 62
7
  6
CONTINUOUS
370
-3
390
F
  0
LAYER
  5
1FA
100
AcDbSymbolTableRecord
100
AcDbLayerTableRecord
  2
DEFAULT_1
 70
0
 62
7
  6
CENTER
370
-3
390
F
  0
LAYER
  5
1FB
100
AcDbSymbolTableRecord
100
AcDbLayerTableRecord
  2
DEFAULT_2
 70
0
 62
7
  6
HIDDEN
370
-3
390
F
  0
LAYER
  5
1FC
100
AcDbSymbolTableRecord
100
AcDbLayerTableRecord
  2
DEFAULT_3
 70
0
 62
7
  6
PHANTOM
370
-3
390
F
  0
LAYER
  5
1FD
100
AcDbSymbolTableRecord
100
AcDbLayerTableRecord
  2
ASSI
 70
0
 62
7
  6
CONTINUOUS
370
-3
390
F
  0
LAYER
  5
1FE
100
AcDbSymbolTableRecord
100
AcDbLayerTableRecord
  2
COORDINATE
 70
0
 62
7
  6
CONTINUOUS
370
-3
390
F
  0
LAYER
  5
1FF
100
AcDbSymbolTableRecord
100
AcDbLayerTableRecord
  2
COPY_PUBLISH
 70
0
 62
7
  6
CONTINUOUS
370
-3
390
F
  0
LAYER
  5
200
100
AcDbSymbolTableRecord
100
AcDbLayerTableRecord
  2
COSMETICI
 70
0
 62
7
  6
CONTINUOUS
370
-3
390
F
  0
LAYER
  5
201
100
AcDbSymbolTableRecord
100
AcDbLayerTableRecord
  2
CURVE
 70
0
 62
7
  6
CONTINUOUS
370
-3
390
F
  0
LAYER
  5
202
100
AcDbSymbolTableRecord
100
AcDbLayerTableRecord
  2
DRAFT
 70
0
 62
7
  6
CONTINUOUS
370
-3
390
F
  0
LAYER
  5
203
100
AcDbSymbolTableRecord
100
AcDbLayerTableRecord
  2
IMPORT_IGES
 70
0
 62
7
  6
CONTINUOUS
370
-3
390
F
  0
LAYER
  5
204
100
AcDbSymbolTableRecord
100
AcDbLayerTableRecord
  2
INTF_1
 70
0
 62
7
  6
CONTINUOUS
370
-3
390
F
  0
LAYER
  5
205
100
AcDbSymbolTableRecord
100
AcDbLayerTableRecord
  2
INTF_7
 70
0
 62
7
  6
CONTINUOUS
370
-3
390
F
  0
LAYER
  5
206
100
AcDbSymbolTableRecord
100
AcDbLayerTableRecord
  2
NOTE
 70
0
 62
7
  6
CONTINUOUS
370
-3
390
F
  0
LAYER
  5
207
100
AcDbSymbolTableRecord
100
AcDbLayerTableRecord
  2
PIANI
 70
0
 62
7
  6
CONTINUOUS
370
-3
390
F
  0
LAYER
  5
208
100
AcDbSymbolTableRecord
100
AcDbLayerTableRecord
  2
PUNTI
 70
0
 62
7
  6
CONTINUOUS
370
-3
390
F
  0
LAYER
  5
209
100
AcDbSymbolTableRecord
100
AcDbLayerTableRecord
  2
RACCORDO
 70
0
 62
7
  6
CONTINUOUS
370
-3
390
F
  0
LAYER
  5
20A
100
AcDbSymbolTableRecord
100
AcDbLayerTableRecord
  2
RGB__255__255__255__
 70
0
 62
7
  6
CONTINUOUS
370
-3
390
F
  0
LAYER
  5
20B
100
AcDbSymbolTableRecord
100
AcDbLayerTableRecord
  2
RGB____0____0____0__
 70
0
 62
7
  6
CONTINUOUS
370
-3
390
F
  0
LAYER
  5
20C
100
AcDbSymbolTableRecord
100
AcDbLayerTableRecord
  2
SIMBOLI
 70
0
 62
7
  6
CONTINUOUS
370
-3
390
F
  0
LAYER
  5
20D
100
AcDbSymbolTableRecord
100
AcDbLayerTableRecord
  2
SMUSSO
 70
0
 62
7
  6
CONTINUOUS
370
-3
390
F
  0
LAYER
  5
20E
100
AcDbSymbolTableRecord
100
AcDbLayerTableRecord
  2
SNAPLINE
 70
0
 62
7
  6
CONTINUOUS
370
-3
390
F
  0
LAYER
  5
20F
100
AcDbSymbolTableRecord
100
AcDbLayerTableRecord
  2
SUPERFICI
 70
0
 62
7
  6
CONTINUOUS
370
-3
390
F
  0
LAYER
  5
210
100
AcDbSymbolTableRecord
100
AcDbLayerTableRecord
  2
TRASH
 70
0
 62
7
  6
CONTINUOUS
370
-3
390
F
  0
LAYER
  5
211
100
AcDbSymbolTableRecord
100
AcDbLayerTableRecord
  2
XSEC_DATUMS
 70
0
 62
7
  6
CONTINUOUS
370
-3
390
F
  0
ENDTAB
  0
TABLE
  2
STYLE
  5
3
100
AcDbSymbolTable
 70
1
  0
STYLE
  5
11
100
AcDbSymbolTableRecord
100
AcDbTextStyleTableRecord
  2
STANDARD
 70
0
 40
0.0
 41
0.8
 50
0.0
 71
0
 42
0.2
  3
txt
  4

  0
STYLE
  5
212
100
AcDbSymbolTableRecord
100
AcDbTextStyleTableRecord
  2
TEXTSTYLE_1
 70
0
 40
0.0
 41
0.8
 50
0.0
 71
0
 42
0.2
  3
gdt
  4

  0
ENDTAB
  0
TABLE
  2
VIEW
  5
6
100
AcDbSymbolTable
 70
0
  0
ENDTAB
  0
TABLE
  2
UCS
  5
7
100
AcDbSymbolTable
 70
0
  0
ENDTAB
  0
TABLE
  2
APPID
  5
9
100
AcDbSymbolTable
 70
1
  0
APPID
  5
213
100
AcDbSymbolTableRecord
100
AcDbRegAppTableRecord
  2
ACAD
 70
0
  0
ENDTAB
  0
TABLE
  2
BLOCK_RECORD
  5
1
100
AcDbSymbolTable
 70
0
  0
BLOCK_RECORD
  5
214
100
AcDbSymbolTableRecord
100
AcDbBlockTableRecord
  2
*Model_Space
  0
BLOCK_RECORD
  5
215
100
AcDbSymbolTableRecord
100
AcDbBlockTableRecord
  2
*Paper_Space
  0
BLOCK_RECORD
  5
216
100
AcDbSymbolTableRecord
100
AcDbBlockTableRecord
  2
_FILLED
  0
ENDTAB
  0
TABLE
  2
DIMSTYLE
  5
A
100
AcDbSymbolTable
 70
1
100
AcDbDimStyleTable
 71
0
  0
DIMSTYLE
105
217
100
AcDbSymbolTableRecord
100
AcDbDimStyleTableRecord
  2
STANDARD
 70
0
  3

  4

 40
1.0
 41
3.0
 42
0.5
 43
0.38
 44
1.5
 45
0.0
 46
0.0
 47
0.01
 48
0.01
140
3.0
141
0.09
142
0.0
143
25.4
144
1.0
145
0.0
146
1.0
147
0.625
 71
1.0
 72
0.0
 73
0
 74
0
 75
0
 76
0
 77
1
 78
8
 79
2
170
0
171
1
172
0
173
0
174
0
175
0
176
0
177
0
178
0
270
2
179
2
271
2
272
2
273
2
274
2
275
0
280
0
281
0
282
0
283
1
284
8
285
0
286
0
287
3
288
0
340
11
278
44
341
216
342
216
343
216
344
216
  0
ENDTAB
  0
ENDSEC
  0
SECTION
  2
BLOCKS
  0
BLOCK
  5
20
100
AcDbEntity
  8
0
100
AcDbBlockBegin
  2
*Model_Space
 70
0
 10
0.0
 20
0.0
 30
0.0
  3
*Model_Space
  1

  0
ENDBLK
  5
21
100
AcDbEntity
  8
0
100
AcDbBlockEnd
  0
BLOCK
  5
1C
100
AcDbEntity
  8
0
100
AcDbBlockBegin
  2
*Paper_Space
 70
0
 10
0.0
 20
0.0
 30
0.0
  3
*Paper_Space
  1

  0
ENDBLK
  5
1D
100
AcDbEntity
  8
0
100
AcDbBlockEnd
  0
BLOCK
  5
218
100
AcDbEntity
  8
0
100
AcDbBlockBegin
  2
_FILLED
 70
64
 10
0.0
 20
0.0
  3
_FILLED
  1

  0
SOLID
  5
219
100
AcDbEntity
  8
0
  6
BYBLOCK
 62
0
100
AcDbTrace
 10
0.0
 20
0.0
 11
-1.0
 21
0.3166666667
 12
-1.0
 22
-0.3166666667
 13
-1.0
 23
-0.3166666667
  0
ENDBLK
  5
21A
100
AcDbEntity
  8
0
  6
BYBLOCK
 62
0
100
AcDbBlockEnd
  0
ENDSEC
  0
SECTION
  2
ENTITIES
  0
LWPOLYLINE
  5
21B
100
AcDbEntity
  8
RACCORDO
100
AcDbPolyline
 62
7
  6
CONTINUOUS
 90
19
 70
0
 10
-29.0541036566
 20
75.7099290894
 10
-29.0737486373
 20
75.6965126656
 10
-29.1516020651
 20
75.6389168073
 10
-29.2266840283
 20
75.5759896733
 10
-29.2986480901
 20
75.5078417285
 10
-29.3671989479
 20
75.434574473
 10
-29.4320973984
 20
75.3562469803
 10
-29.493070048
 20
75.2729781185
 10
-29.5498485461
 20
75.1849377015
 10
-29.6022377692
 20
75.0922155456
 10
-29.6500304109
 20
74.9949295703
 10
-29.6930235246
 20
74.8932468153
 10
-29.7310718457
 20
74.7872541851
 10
-29.7640131601
 20
74.6770854453
 10
-29.7917162809
 20
74.5628141346
 10
-29.8140895283
 20
74.4443350571
 10
-29.8309905415
 20
74.3216153857
 10
-29.8422594874
 20
74.1947908377
 10
-29.845634665
 20
74.1323224731
  0
LINE
  5
21C
100
AcDbEntity
  8
SUPERFICI
100
AcDbLine
 62
7
  6
CONTINUOUS
 10
-25.8760719494
 20
77.8472315804
 11
-29.0545944004
 21
75.7096020996
  0
LINE
  5
21D
100
AcDbEntity
  8
RACCORDO
100
AcDbLine
 62
7
  6
CONTINUOUS
 10
-29.0540701344
 20
75.7099545096
 11
-29.0545053221
 21
75.7096620067
  0
LINE
  5
21E
100
AcDbEntity
  8
RACCORDO
100
AcDbLine
 62
250
  6
CONTINUOUS
 10
-24.3178776593
 20
77.7348746974
 11
-27.6465432127
 21
75.5980020758
  0
LINE
  5
21F
100
AcDbEntity
  8
0
100
AcDbLine
 62
250
  6
CONTINUOUS
 10
-20.0481583586
 20
53.9882727116
 11
-20.1042413695
 21
53.9611012998
  0
LWPOLYLINE
  5
220
100
AcDbEntity
  8
RACCORDO
100
AcDbPolyline
 62
7
  6
CONTINUOUS
 90
19
 70
0
 10
24.2454139858
 20
-77.5144000703
 10
24.296029891
 20
-77.5409325503
 10
24.4113670077
 20
-77.5964367184
 10
24.5260911108
 20
-77.6448628942
 10
24.6399603458
 20
-77.6862695394
 10
24.7529141801
 20
-77.7208054548
 10
24.8650073425
 20
-77.7486191865
 10
24.9761034563
 20
-77.7697884466
 10
25.0859868353
 20
-77.7843901075
 10
25.1945102674
 20
-77.792513369
 10
25.3014205076
 20
-77.7942488422
 10
25.4064982362
 20
-77.7897194413
 10
25.5095594865
 20
-77.7790538425
 10
25.6103149864
 20
-77.7624015978
 10
25.7085120427
 20
-77.7399407438
 10
25.803965304
 20
-77.7118558564
 10
25.8964284642
 20
-77.6783592714
 10
25.9856252028
 20
-77.6397009778
 10
26.0081807315
 20
-77.6288722968
  0
LINE
  5
221
100
AcDbEntity
  8
RACCORDO
100
AcDbLine
 62
7
  6
CONTINUOUS
 10
24.2454139858
 20
-77.5144000703
 11
24.2456507365
 21
-77.5145271302
  0
LINE
  5
222
100
AcDbEntity
  8
RACCORDO
100
AcDbLine
 62
7
  6
CONTINUOUS
 10
23.6935565294
 20
-77.2092922351
 11
24.2456499188
 21
-77.5145286531
  0
LINE
  5
223
100
AcDbEntity
  8
RACCORDO
100
AcDbLine
 62
7
  6
CONTINUOUS
 10
19.1005718955
 20
-74.6221330042
 11
23.6935565294
 21
-77.2092922351
  0
LINE
  5
224
100
AcDbEntity
  8
RACCORDO
100
AcDbLine
 62
7
  6
CONTINUOUS
 10
16.1654487415
 20
-72.959781428
 11
19.1005718955
 21
-74.6221330042
  0
LINE
  5
225
100
AcDbEntity
  8
RACCORDO
100
AcDbLine
 62
7
  6
CONTINUOUS
 10
14.6201858301
 20
-72.0792957175
 11
16.1654487415
 21
-72.959781428
  0
LINE
  5
226
100
AcDbEntity
  8
RACCORDO
100
AcDbLine
 62
7
  6
CONTINUOUS
 10
13.0276224227
 20
-71.1663702189
 11
14.6201858301
 21
-72.0792957175
  0
LINE
  5
227
100
AcDbEntity
  8
RACCORDO
100
AcDbLine
 62
7
  6
CONTINUOUS
 10
11.388728417
 20
-70.2218320296
 11
13.0276224227
 21
-71.1663702189
  0
LINE
  5
228
100
AcDbEntity
  8
RACCORDO
100
AcDbLine
 62
7
  6
CONTINUOUS
 10
-15.9726018982
 20
-54.4236896219
 11
-11.2846895162
 21
-57.124348515
  0
LINE
  5
229
100
AcDbEntity
  8
RACCORDO
100
AcDbLine
 62
7
  6
CONTINUOUS
 10
-11.2846895162
 20
-57.124348515
 11
6.2510829245
 21
-67.2486820957
  0
LINE
  5
22A
100
AcDbEntity
  8
RACCORDO
100
AcDbLine
 62
250
  6
CONTINUOUS
 10
-10.5325458438
 20
-57.4453768494
 11
6.0844829459
 21
-67.0398410123
  0
LINE
  5
22B
100
AcDbEntity
  8
RACCORDO
100
AcDbLine
 62
7
  6
CONTINUOUS
 10
6.2510704187
 20
-67.2486748751
 11
11.388728417
 21
-70.2218320296
  0
LINE
  5
22C
100
AcDbEntity
  8
RACCORDO
100
AcDbLine
 62
7
  6
CONTINUOUS
 10
-17.7626209216
 20
-53.3865594848
 11
-15.9726018982
 21
-54.4236896219
  0
LINE
  5
22D
100
AcDbEntity
  8
RACCORDO
100
AcDbLine
 62
7
  6
CONTINUOUS
 10
-19.5022911003
 20
-52.3721453426
 11
-17.7626209216
 21
-53.3865594848
  0
LINE
  5
22E
100
AcDbEntity
  8
RACCORDO
100
AcDbLine
 62
7
  6
CONTINUOUS
 10
-21.1918247237
 20
-51.3804818233
 11
-19.5022911003
 21
-52.3721453426
  0
LINE
  5
22F
100
AcDbEntity
  8
RACCORDO
100
AcDbLine
 62
7
  6
CONTINUOUS
 10
-23.6383761765
 20
-49.9391724446
 11
-21.1918247237
 21
-51.3804818233
  0
LINE
  5
230
100
AcDbEntity
  8
RACCORDO
100
AcDbLine
 62
7
  6
CONTINUOUS
 10
-27.4621615605
 20
-47.674499753
 11
-23.6383761765
 21
-49.9391724446
  0
LINE
  5
231
100
AcDbEntity
  8
RACCORDO
100
AcDbLine
 62
7
  6
CONTINUOUS
 10
-28.1348247133
 20
-47.2706446295
 11
-27.4621615605
 21
-47.674499753
  0
LINE
  5
232
100
AcDbEntity
  8
RACCORDO
100
AcDbLine
 62
7
  6
CONTINUOUS
 10
-1.7495108894
 20
63.3733144213
 11
-1.0480313066
 21
63.9056312804
  0
LINE
  5
233
100
AcDbEntity
  8
0
100
AcDbLine
 62
7
  6
CONTINUOUS
 10
-1.0727220648
 20
62.5890192635
 11
-1.0480313066
 21
62.6071000893
  0
LINE
  5
234
100
AcDbEntity
  8
RACCORDO
100
AcDbLine
 62
7
  6
CONTINUOUS
 10
-1.0727220648
 20
62.5890192635
 11
-1.0480313066
 21
62.6071000893
  0
LINE
  5
235
100
AcDbEntity
  8
RACCORDO
100
AcDbLine
 62
7
  6
CONTINUOUS
 10
4.0926994313
 20
60.9374377808
 11
3.2567086183
 21
60.4827860202
  0
LINE
  5
236
100
AcDbEntity
  8
RACCORDO
100
AcDbLine
 62
7
  6
CONTINUOUS
 10
-16.2922156929
 20
51.5181087143
 11
-16.4689923882
 21
51.4267374145
  0
LINE
  5
237
100
AcDbEntity
  8
DRAFT
100
AcDbLine
 62
7
  6
CONTINUOUS
 10
-16.6811244225
 20
51.3170918547
 11
-16.8225457787
 21
51.2439948148
  0
LINE
  5
238
100
AcDbEntity
  8
DRAFT
100
AcDbLine
 62
7
  6
CONTINUOUS
 10
-17.0346778131
 20
51.134349255
 11
-17.1760991693
 21
51.0612522152
  0
LINE
  5
239
100
AcDbEntity
  8
DRAFT
100
AcDbLine
 62
7
  6
CONTINUOUS
 10
-17.3882312037
 20
50.9516066554
 11
-17.5296525599
 21
50.8785096155
  0
LINE
  5
23A
100
AcDbEntity
  8
DRAFT
100
AcDbLine
 62
7
  6
CONTINUOUS
 10
-17.7417845943
 20
50.7688640558
 11
-17.8832059505
 21
50.6957670159
  0
LINE
  5
23B
100
AcDbEntity
  8
DRAFT
100
AcDbLine
 62
7
  6
CONTINUOUS
 10
-18.0953379849
 20
50.5861214561
 11
-18.2367593411
 21
50.5130244163
  0
LINE
  5
23C
100
AcDbEntity
  8
RACCORDO
100
AcDbLine
 62
7
  6
CONTINUOUS
 10
-16.9314615725
 20
51.8113516375
 11
-18.2487327565
 21
51.1552170196
  0
LINE
  5
23D
100
AcDbEntity
  8
RACCORDO
100
AcDbLine
 62
250
  6
CONTINUOUS
 10
-16.7384716053
 20
51.7879199228
 11
-18.2487327565
 21
51.0356567325
  0
LINE
  5
23E
100
AcDbEntity
  8
RACCORDO
100
AcDbLine
 62
7
  6
CONTINUOUS
 10
-28.1348247133
 20
-47.2706446295
 11
-28.1341938431
 21
-47.2710365293
  0
LINE
  5
23F
100
AcDbEntity
  8
RACCORDO
100
AcDbLine
 62
7
  6
CONTINUOUS
 10
-16.2922156929
 20
46.7569074724
 11
-16.4689923882
 21
46.6441414756
  0
LINE
  5
240
100
AcDbEntity
  8
DRAFT
100
AcDbLine
 62
7
  6
CONTINUOUS
 10
-16.6811244225
 20
46.5088222794
 11
-16.8225457787
 21
46.4186094819
  0
LINE
  5
241
100
AcDbEntity
  8
DRAFT
100
AcDbLine
 62
7
  6
CONTINUOUS
 10
-17.0346778131
 20
46.2832902857
 11
-17.1760991693
 21
46.1930774882
  0
LINE
  5
242
100
AcDbEntity
  8
DRAFT
100
AcDbLine
 62
7
  6
CONTINUOUS
 10
-17.3882312037
 20
46.057758292
 11
-17.5296525599
 21
45.9675454945
  0
LINE
  5
243
100
AcDbEntity
  8
DRAFT
100
AcDbLine
 62
7
  6
CONTINUOUS
 10
-17.7417845943
 20
45.8322262983
 11
-17.8832059505
 21
45.7420135008
  0
LINE
  5
244
100
AcDbEntity
  8
DRAFT
100
AcDbLine
 62
7
  6
CONTINUOUS
 10
-18.0953379849
 20
45.6066943046
 11
-18.2367593411
 21
45.5164815071
  0
LINE
  5
245
100
AcDbEntity
  8
RACCORDO
100
AcDbLine
 62
250
  6
CONTINUOUS
 10
-12.4708977965
 20
-47.7829234685
 11
4.1460135212
 21
-57.3773198046
  0
LINE
  5
246
100
AcDbEntity
  8
RACCORDO
100
AcDbLine
 62
250
  6
CONTINUOUS
 10
-12.8960132329
 20
-46.7189675665
 11
3.7208000447
 21
-56.3133072954
  0
LINE
  5
247
100
AcDbEntity
  8
0
100
AcDbLine
 62
250
  6
CONTINUOUS
 10
-19.8186673374
 20
-40.8358444023
 11
11.6475844254
 21
-59.0040638054
  0
LINE
  5
248
100
AcDbEntity
  8
0
100
AcDbLine
 62
7
  6
CONTINUOUS
 10
-18.9792214614
 20
-40.2663580918
 11
11.6992029007
 21
-57.9796958275
  0
LINE
  5
249
100
AcDbEntity
  8
0
100
AcDbLine
 62
7
  6
CONTINUOUS
 10
-18.7989092322
 20
-40.162244125
 11
11.6992029007
 21
-57.7714718394
  0
LINE
  5
24A
100
AcDbEntity
  8
0
100
AcDbLine
 62
7
  6
CONTINUOUS
 10
-18.6433457403
 20
-40.1295766339
 11
11.6992029007
 21
-57.6489839377
  0
LINE
  5
24B
100
AcDbEntity
  8
0
100
AcDbLine
 62
7
  6
CONTINUOUS
 10
-18.5938482656
 20
-40.043844493
 11
11.6992029007
 21
-57.5346725753
  0
LINE
  5
24C
100
AcDbEntity
  8
RACCORDO
100
AcDbLine
 62
7
  6
CONTINUOUS
 10
-20.8692853209
 20
-41.9877278011
 11
-20.8689849168
 21
-41.9880471114
  0
LINE
  5
24D
100
AcDbEntity
  8
0
100
AcDbLine
 62
250
  6
CONTINUOUS
 10
-18.9049752493
 20
-39.6764210319
 11
-18.8059803
 21
-39.6764210319
  0
LINE
  5
24E
100
AcDbEntity
  8
0
100
AcDbLine
 62
250
  6
CONTINUOUS
 10
-18.5514218587
 20
-39.4722837353
 11
-18.4524269094
 21
-39.4722837353
  0
LINE
  5
24F
100
AcDbEntity
  8
0
100
AcDbLine
 62
7
  6
CONTINUOUS
 10
-18.4453558416
 20
-39.9581068284
 11
11.6992029007
 21
-57.3631972461
  0
LINE
  5
250
100
AcDbEntity
  8
0
100
AcDbLine
 62
7
  6
CONTINUOUS
 10
-18.2897923497
 20
-39.9254393372
 11
11.6992029007
 21
-57.2407093444
  0
LINE
  5
251
100
AcDbEntity
  8
0
100
AcDbLine
 62
7
  6
CONTINUOUS
 10
-18.240294875
 20
-39.8397071963
 11
11.6992029007
 21
-57.126397982
  0
LINE
  5
252
100
AcDbEntity
  8
RACCORDO
100
AcDbLine
 62
250
  6
CONTINUOUS
 10
11.6992029007
 20
-56.9995075476
 11
-18.1304074009
 21
-39.7762644123
  0
LINE
  5
253
100
AcDbEntity
  8
RACCORDO
100
AcDbLine
 62
7
  6
CONTINUOUS
 10
11.6992029007
 20
-56.9149453323
 11
-18.0054055719
 21
-39.7638766864
  0
LINE
  5
254
100
AcDbEntity
  8
DRAFT
100
AcDbLine
 62
7
  6
CONTINUOUS
 10
-10.6423220093
 20
-43.9774406729
 11
-6.3150495121
 21
-46.4759535793
  0
LINE
  5
255
100
AcDbEntity
  8
DRAFT
100
AcDbLine
 62
7
  6
CONTINUOUS
 10
5.2675805673
 20
-53.1636190228
 11
9.5948530646
 21
-55.6621319292
  0
LINE
  5
256
100
AcDbEntity
  8
DRAFT
100
AcDbLine
 62
7
  6
CONTINUOUS
 10
9.8293701743
 20
-55.6342174954
 11
5.4164135028
 21
-53.086243457
  0
LINE
  5
257
100
AcDbEntity
  8
DRAFT
100
AcDbLine
 62
7
  6
CONTINUOUS
 10
-6.0805324024
 20
-46.4480391455
 11
-10.4934890739
 21
-43.9000651072
  0
LINE
  5
258
100
AcDbEntity
  8
DRAFT
100
AcDbLine
 62
7
  6
CONTINUOUS
 10
-10.2702396707
 20
-43.7840017586
 11
-5.9800250696
 21
-46.2611179003
  0
LINE
  5
259
100
AcDbEntity
  8
DRAFT
100
AcDbLine
 62
7
  6
CONTINUOUS
 10
5.639662906
 20
-52.9701801085
 11
9.9298775071
 21
-55.4472962501
  0
LINE
  5
25A
100
AcDbEntity
  8
DRAFT
100
AcDbLine
 62
7
  6
CONTINUOUS
 10
10.1643946169
 20
-55.4193818163
 11
5.7884958415
 21
-52.8928045428
  0
LINE
  5
25B
100
AcDbEntity
  8
DRAFT
100
AcDbLine
 62
7
  6
CONTINUOUS
 10
-5.7455079598
 20
-46.2332034664
 11
-10.1214067352
 21
-43.7066261929
  0
LINE
  5
25C
100
AcDbEntity
  8
DRAFT
100
AcDbLine
 62
7
  6
CONTINUOUS
 10
-9.898157332
 20
-43.5905628443
 11
-5.6450006271
 21
-46.0462822212
  0
LINE
  5
25D
100
AcDbEntity
  8
DRAFT
100
AcDbLine
 62
7
  6
CONTINUOUS
 10
6.0117452447
 20
-52.7767411942
 11
10.2649019496
 21
-55.2324605711
  0
LINE
  5
25E
100
AcDbEntity
  8
DRAFT
100
AcDbLine
 62
7
  6
CONTINUOUS
 10
10.4994190594
 20
-55.2045461373
 11
6.1605781801
 21
-52.6993656285
  0
LINE
  5
25F
100
AcDbEntity
  8
DRAFT
100
AcDbLine
 62
7
  6
CONTINUOUS
 10
-5.4104835173
 20
-46.0183677874
 11
-9.7493243966
 21
-43.5131872786
  0
LINE
  5
260
100
AcDbEntity
  8
DRAFT
100
AcDbLine
 62
7
  6
CONTINUOUS
 10
-9.5260749934
 20
-43.3971239301
 11
-5.3099761845
 21
-45.8314465422
  0
LINE
  5
261
100
AcDbEntity
  8
DRAFT
100
AcDbLine
 62
7
  6
CONTINUOUS
 10
6.3838275833
 20
-52.5833022799
 11
10.5999263922
 21
-55.017624892
  0
LINE
  5
262
100
AcDbEntity
  8
DRAFT
100
AcDbLine
 62
7
  6
CONTINUOUS
 10
10.8344435019
 20
-54.9897104582
 11
6.5326605188
 21
-52.5059267142
  0
LINE
  5
263
100
AcDbEntity
  8
DRAFT
100
AcDbLine
 62
7
  6
CONTINUOUS
 10
-5.0754590748
 20
-45.8035321083
 11
-9.3772420579
 21
-43.3197483643
  0
LINE
  5
264
100
AcDbEntity
  8
DRAFT
100
AcDbLine
 62
7
  6
CONTINUOUS
 10
-9.1539926547
 20
-43.2036850158
 11
-4.974951742
 21
-45.6166108631
  0
LINE
  5
265
100
AcDbEntity
  8
DRAFT
100
AcDbLine
 62
7
  6
CONTINUOUS
 10
6.755909922
 20
-52.3898633656
 11
10.9349508347
 21
-54.802789213
  0
LINE
  5
266
100
AcDbEntity
  8
DRAFT
100
AcDbLine
 62
7
  6
CONTINUOUS
 10
11.1694679445
 20
-54.7748747792
 11
6.9047428574
 21
-52.3124877999
  0
LINE
  5
267
100
AcDbEntity
  8
DRAFT
100
AcDbLine
 62
7
  6
CONTINUOUS
 10
-4.7404346322
 20
-45.5886964293
 11
-9.0051597193
 21
-43.1263094501
  0
LINE
  5
268
100
AcDbEntity
  8
DRAFT
100
AcDbLine
 62
7
  6
CONTINUOUS
 10
-8.7819103161
 20
-43.0102461015
 11
-4.6399272995
 21
-45.401775184
  0
LINE
  5
269
100
AcDbEntity
  8
DRAFT
100
AcDbLine
 62
7
  6
CONTINUOUS
 10
7.1279922606
 20
-52.1964244514
 11
11.2699752772
 21
-54.5879535339
  0
LINE
  5
26A
100
AcDbEntity
  8
RACCORDO
100
AcDbLine
 62
250
  6
CONTINUOUS
 10
-8.5958691468
 20
-42.9135266444
 11
-4.4724150782
 21
-45.2943573445
  0
LINE
  5
26B
100
AcDbEntity
  8
RACCORDO
100
AcDbLine
 62
250
  6
CONTINUOUS
 10
7.3140334299
 20
-52.0997049942
 11
11.4374874985
 21
-54.4805356944
  0
LINE
  5
26C
100
AcDbEntity
  8
RACCORDO
100
AcDbLine
 62
7
  6
CONTINUOUS
 10
-8.3828026195
 20
-42.9350739286
 11
-4.3854671094
 21
-45.2430853537
  0
LINE
  5
26D
100
AcDbEntity
  8
RACCORDO
100
AcDbLine
 62
7
  6
CONTINUOUS
 10
7.5270999572
 20
-52.1212522785
 11
11.5244354673
 21
-54.4292637036
  0
LWPOLYLINE
  5
26E
100
AcDbEntity
  8
RACCORDO
100
AcDbPolyline
 62
7
  6
CONTINUOUS
 90
4
 70
0
 10
-18.0053953585
 20
-39.7638826774
 10
-18.0096018069
 20
-39.7614043191
 10
-18.0227365039
 20
-39.7530444498
 10
-18.0368120552
 20
-39.7430869004
  0
LWPOLYLINE
  5
26F
100
AcDbEntity
  8
RACCORDO
100
AcDbPolyline
 62
7
  6
CONTINUOUS
 90
3
 70
0
 10
-18.0368120552
 20
-39.7430869004
 10
-18.0516588888
 20
-39.7315035372
 10
-18.0671409939
 20
-39.7182579708
  0
LINE
  5
270
100
AcDbEntity
  8
RACCORDO
100
AcDbLine
 62
7
  6
CONTINUOUS
 10
-18.0671409939
 20
-39.7182579708
 11
-18.083125263
 21
-39.703322438
  0
LWPOLYLINE
  5
271
100
AcDbEntity
  8
RACCORDO
100
AcDbPolyline
 62
7
  6
CONTINUOUS
 90
4
 70
0
 10
-18.083377298
 20
-39.7030764591
 10
-18.0888287122
 20
-39.6976700151
 10
-18.0941540858
 20
-39.6922251824
 10
-18.1000153255
 20
-39.6860423776
  0
LWPOLYLINE
  5
272
100
AcDbEntity
  8
RACCORDO
100
AcDbPolyline
 62
7
  6
CONTINUOUS
 90
3
 70
0
 10
-18.0999391375
 20
-39.6861240556
 10
-18.1137969736
 20
-39.6707680273
 10
-18.1275388585
 20
-39.6544930565
  0
LINE
  5
273
100
AcDbEntity
  8
RACCORDO
100
AcDbLine
 62
7
  6
CONTINUOUS
 10
-18.1275388585
 20
-39.6544930565
 11
-18.140987114
 21
-39.6374662809
  0
LINE
  5
274
100
AcDbEntity
  8
RACCORDO
100
AcDbLine
 62
7
  6
CONTINUOUS
 10
-29.8456374492
 20
74.1323225928
 11
-29.8456347674
 21
74.1323846327
  0
LINE
  5
275
100
AcDbEntity
  8
RACCORDO
100
AcDbLine
 62
7
  6
CONTINUOUS
 10
-16.5614320068
 20
28.6275568038
 11
-16.5515510074
 21
28.6348761749
  0
LINE
  5
276
100
AcDbEntity
  8
RACCORDO
100
AcDbLine
 62
250
  6
CONTINUOUS
 10
-16.52706777
 20
28.730637143
 11
-18.2487327565
 21
27.5952184079
  0
LINE
  5
277
100
AcDbEntity
  8
RACCORDO
100
AcDbLine
 62
7
  6
CONTINUOUS
 10
-16.5686891319
 20
28.6225882793
 11
-18.2487327565
 21
27.5146153091
  0
LINE
  5
278
100
AcDbEntity
  8
RACCORDO
100
AcDbLine
 62
250
  6
CONTINUOUS
 10
-18.2487327565
 20
32.5605558269
 11
-16.6964391506
 21
33.3930696824
  0
LINE
  5
279
100
AcDbEntity
  8
RACCORDO
100
AcDbLine
 62
250
  6
CONTINUOUS
 10
-18.2487327565
 20
32.1596128597
 11
-16.52706777
 21
33.0829683288
  0
LINE
  5
27A
100
AcDbEntity
  8
RACCORDO
100
AcDbLine
 62
7
  6
CONTINUOUS
 10
-16.9314615725
 20
33.4407704097
 11
-18.2487327565
 21
32.7846357918
  0
LINE
  5
27B
100
AcDbEntity
  8
RACCORDO
100
AcDbLine
 62
250
  6
CONTINUOUS
 10
-16.7384716053
 20
33.417338695
 11
-18.2487327565
 21
32.6650755047
  0
LWPOLYLINE
  5
27C
100
AcDbEntity
  8
RACCORDO
100
AcDbPolyline
 62
7
  6
CONTINUOUS
 90
3
 70
0
 10
-18.1411524933
 20
-39.6372496762
 10
-18.1563703929
 20
-39.6164907518
 10
-18.1722292084
 20
-39.5929270425
  0
LWPOLYLINE
  5
27D
100
AcDbEntity
  8
RACCORDO
100
AcDbPolyline
 62
7
  6
CONTINUOUS
 90
6
 70
0
 10
-18.1722292084
 20
-39.5929270425
 10
-18.1871748163
 20
-39.5685714107
 10
-18.2010954201
 20
-39.5435831694
 10
-18.2139096584
 20
-39.5181166053
 10
-18.2255131218
 20
-39.4924239482
 10
-18.2275363167
 20
-39.4876285366
  0
LWPOLYLINE
  5
27E
100
AcDbEntity
  8
RACCORDO
100
AcDbPolyline
 62
7
  6
CONTINUOUS
 90
28
 70
0
 10
-29.8455393892
 20
-44.3438516351
 10
-29.8423089065
 20
-44.4017691946
 10
-29.8307603734
 20
-44.5317709808
 10
-29.8134345954
 20
-44.6620564133
 10
-29.7905608581
 20
-44.7923442293
 10
-29.7623312362
 20
-44.9225236756
 10
-29.728893838
 20
-45.0524913192
 10
-29.6904171471
 20
-45.182020825
 10
-29.6470524202
 20
-45.3108788637
 10
-29.5989527364
 20
-45.4388220968
 10
-29.5462735116
 20
-45.5656010377
 10
-29.4891411495
 20
-45.6910017249
 10
-29.427704237
 20
-45.8147762465
 10
-29.3620988184
 20
-45.9366745985
 10
-29.2924624562
 20
-46.0564527003
 10
-29.2189417563
 20
-46.1738474509
 10
-29.141663573
 20
-46.2886137278
 10
-29.060766016
 20
-46.4005038457
 10
-28.9763818783
 20
-46.509254736
 10
-28.8886197581
 20
-46.614640559
 10
-28.7976068486
 20
-46.7163975122
 10
-28.7034644881
 20
-46.8142578046
 10
-28.6063012063
 20
-46.9079733123
 10
-28.5062201096
 20
-46.9972706374
 10
-28.4032458475
 20
-47.0819364557
 10
-28.2973751487
 20
-47.161734563
 10
-28.1886924751
 20
-47.2363314177
 10
-28.1341924729
 20
-47.27103432
  0
LINE
  5
27F
100
AcDbEntity
  8
RACCORDO
100
AcDbLine
 62
7
  6
CONTINUOUS
 10
-29.845517473
 20
-44.3443346228
 11
-29.8455393892
 21
-44.3438516351
  0
LINE
  5
280
100
AcDbEntity
  8
RACCORDO
100
AcDbLine
 62
7
  6
CONTINUOUS
 10
-29.871304744
 20
-43.4189959635
 11
-29.8455191414
 21
-44.3443346989
  0
LWPOLYLINE
  5
281
100
AcDbEntity
  8
RACCORDO
100
AcDbPolyline
 62
7
  6
CONTINUOUS
 90
5
 70
0
 10
-29.9175115435
 20
-38.1019995553
 10
-29.9113914882
 20
-39.2181607619
 10
-29.9032763671
 20
-40.3087397914
 10
-29.8933963252
 20
-41.3723043177
 10
-29.871304744
 20
-43.4189959635
  0
LINE
  5
282
100
AcDbEntity
  8
RACCORDO
100
AcDbLine
 62
7
  6
CONTINUOUS
 10
-29.9247123985
 20
-35.7944384756
 11
-29.9175115435
 21
-38.1019995553
  0
LINE
  5
283
100
AcDbEntity
  8
RACCORDO
100
AcDbLine
 62
7
  6
CONTINUOUS
 10
-29.9402499995
 20
-24.2597321481
 11
-29.9247123985
 21
-35.7944384756
  0
LINE
  5
284
100
AcDbEntity
  8
RACCORDO
100
AcDbLine
 62
250
  6
CONTINUOUS
 10
-29.8457048265
 20
43.5688435902
 11
-29.8457048265
 21
-14.4005483689
  0
LINE
  5
285
100
AcDbEntity
  8
RACCORDO
100
AcDbLine
 62
7
  6
CONTINUOUS
 10
-29.9340601915
 20
59.9751935529
 11
-29.9402499995
 21
-24.2597321481
  0
LINE
  5
286
100
AcDbEntity
  8
RACCORDO
100
AcDbLine
 62
7
  6
CONTINUOUS
 10
-29.9225506612
 20
66.3870362847
 11
-29.9340601915
 21
59.9751935529
  0
LWPOLYLINE
  5
287
100
AcDbEntity
  8
RACCORDO
100
AcDbPolyline
 62
7
  6
CONTINUOUS
 90
3
 70
0
 10
-29.9081528807
 20
69.399905155
 10
-29.9144667144
 20
68.4085876695
 10
-29.9225506612
 20
66.3870362847
  0
LINE
  5
288
100
AcDbEntity
  8
RACCORDO
100
AcDbLine
 62
7
  6
CONTINUOUS
 10
-29.8909487445
 20
71.345851563
 11
-29.9081528807
 21
69.399905155
  0
LWPOLYLINE
  5
289
100
AcDbEntity
  8
RACCORDO
100
AcDbPolyline
 62
7
  6
CONTINUOUS
 90
3
 70
0
 10
-29.8456347674
 20
74.1323846327
 10
-29.8705936555
 20
73.246683549
 10
-29.8909487445
 20
71.345851563
  0
LWPOLYLINE
  5
28A
100
AcDbEntity
  8
RACCORDO
100
AcDbPolyline
 62
7
  6
CONTINUOUS
 90
5
 70
0
 10
-16.4814079398
 20
28.7155730015
 10
-16.4689263372
 20
28.7399394537
 10
-16.458743669
 20
28.7656811016
 10
-16.451033715
 20
28.7924205382
 10
-16.4457902442
 20
28.8203688966
  0
LWPOLYLINE
  5
28B
100
AcDbEntity
  8
RACCORDO
100
AcDbPolyline
 62
7
  6
CONTINUOUS
 90
4
 70
0
 10
-16.5312713383
 20
28.652262482
 10
-16.5125985606
 20
28.6717364598
 10
-16.4959409404
 20
28.6929000661
 10
-16.4814079398
 20
28.7155730015
  0
LINE
  5
28C
100
AcDbEntity
  8
RACCORDO
100
AcDbLine
 62
7
  6
CONTINUOUS
 10
-16.5515510074
 20
28.6348761749
 11
-16.5312713383
 21
28.652262482
  0
LINE
  5
28D
100
AcDbEntity
  8
DRAFT
100
AcDbLine
 62
7
  6
CONTINUOUS
 10
-18.2693203446
 20
-30.8244745606
 11
-18.2367593411
 21
-30.823489373
  0
LINE
  5
28E
100
AcDbEntity
  8
DRAFT
100
AcDbLine
 62
7
  6
CONTINUOUS
 10
-18.0953379849
 20
-30.6043757884
 11
-17.8832059505
 21
-30.5979573793
  0
LINE
  5
28F
100
AcDbEntity
  8
DRAFT
100
AcDbLine
 62
7
  6
CONTINUOUS
 10
-17.7417845943
 20
-30.3788437947
 11
-17.5296525599
 21
-30.3724253856
  0
LINE
  5
290
100
AcDbEntity
  8
DRAFT
100
AcDbLine
 62
7
  6
CONTINUOUS
 10
-17.3882312037
 20
-30.153311801
 11
-17.1760991693
 21
-30.1468933919
  0
LINE
  5
291
100
AcDbEntity
  8
DRAFT
100
AcDbLine
 62
7
  6
CONTINUOUS
 10
-17.0346778131
 20
-29.9277798073
 11
-16.8225457787
 21
-29.9213613982
  0
LINE
  5
292
100
AcDbEntity
  8
DRAFT
100
AcDbLine
 62
7
  6
CONTINUOUS
 10
-16.6811244225
 20
-29.7022478136
 11
-16.4689923882
 21
-29.6958294045
  0
LWPOLYLINE
  5
293
100
AcDbEntity
  8
RACCORDO
100
AcDbPolyline
 62
7
  6
CONTINUOUS
 90
9
 70
0
 10
-16.599669879
 20
-24.5432067535
 10
-16.6192534144
 20
-24.5326351315
 10
-16.6486201146
 20
-24.5193820479
 10
-16.6787016418
 20
-24.5088013957
 10
-16.7093038332
 20
-24.5009516172
 10
-16.7402186178
 20
-24.4958766028
 10
-16.7711566468
 20
-24.4935915141
 10
-16.8017817268
 20
-24.4940648665
 10
-16.8318797354
 20
-24.4972263547
  0
LINE
  5
294
100
AcDbEntity
  8
RACCORDO
100
AcDbLine
 62
250
  6
CONTINUOUS
 10
-16.7384716053
 20
-24.5520509573
 11
-16.2814042796
 21
-24.8159559028
  0
LINE
  5
295
100
AcDbEntity
  8
RACCORDO
100
AcDbLine
 62
7
  6
CONTINUOUS
 10
-16.5996684899
 20
-24.5432043398
 11
-16.2049766055
 21
-24.7710944071
  0
LWPOLYLINE
  5
296
100
AcDbEntity
  8
RACCORDO
100
AcDbPolyline
 62
7
  6
CONTINUOUS
 90
4
 70
0
 10
-18.227536239
 20
-39.487628713
 10
-18.2358720082
 20
-39.4666639867
 10
-18.2430727691
 20
-39.4466320239
 10
-18.2492221802
 20
-39.4276092577
  0
LINE
  5
297
100
AcDbEntity
  8
RACCORDO
100
AcDbLine
 62
7
  6
CONTINUOUS
 10
-21.628508535
 20
-40.6705338638
 11
-21.6283805711
 21
-40.6709612682
  0
LWPOLYLINE
  5
298
100
AcDbEntity
  8
RACCORDO
100
AcDbPolyline
 62
7
  6
CONTINUOUS
 90
4
 70
0
 10
-18.2492222141
 20
-39.4276089719
 10
-18.2516188307
 20
-39.4195360389
 10
-18.2536731442
 20
-39.4122011373
 10
-18.2555804602
 20
-39.4049747139
  0
LINE
  5
299
100
AcDbEntity
  8
RACCORDO
100
AcDbLine
 62
250
  6
CONTINUOUS
 10
-22.4462793699
 20
37.0573875371
 11
-22.44627937
 21
18.890932388
  0
LINE
  5
29A
100
AcDbEntity
  8
RACCORDO
100
AcDbLine
 62
250
  6
CONTINUOUS
 10
-22.44627937
 20
-2.745529947
 11
-22.4462793699
 21
-20.9119850975
  0
LINE
  5
29B
100
AcDbEntity
  8
RACCORDO
100
AcDbLine
 62
250
  6
CONTINUOUS
 10
-21.7375811216
 20
36.1577441157
 11
-21.7375811216
 21
17.9912912678
  0
LINE
  5
29C
100
AcDbEntity
  8
RACCORDO
100
AcDbLine
 62
250
  6
CONTINUOUS
 10
-21.7375811216
 20
-3.6451471607
 11
-21.7375811216
 21
-21.8116115
  0
LINE
  5
29D
100
AcDbEntity
  8
0
100
AcDbLine
 62
250
  6
CONTINUOUS
 10
-18.6433457403
 20
17.8398130184
 11
-18.5938482656
 21
17.9255451593
  0
LINE
  5
29E
100
AcDbEntity
  8
0
100
AcDbLine
 62
250
  6
CONTINUOUS
 10
-18.2897923497
 20
18.0439503151
 11
-18.240294875
 21
18.129682456
  0
LINE
  5
29F
100
AcDbEntity
  8
0
100
AcDbLine
 62
250
  6
CONTINUOUS
 10
-18.9792214614
 20
17.7030315605
 11
-19.8186673374
 21
17.13354525
  0
LINE
  5
2A0
100
AcDbEntity
  8
RACCORDO
100
AcDbLine
 62
250
  6
CONTINUOUS
 10
28.0080241485
 20
47.5225547912
 11
24.6793123755
 21
45.3857110038
  0
LINE
  5
2A1
100
AcDbEntity
  8
0
100
AcDbLine
 62
250
  6
CONTINUOUS
 10
-19.0110412665
 20
18.2317274314
 11
-18.9049752493
 21
18.2929686204
  0
LINE
  5
2A2
100
AcDbEntity
  8
0
100
AcDbLine
 62
250
  6
CONTINUOUS
 10
-18.6574878759
 20
18.435864728
 11
-18.5514218587
 21
18.497105917
  0
LINE
  5
2A3
100
AcDbEntity
  8
0
100
AcDbLine
 62
250
  6
CONTINUOUS
 10
-18.3073114002
 20
18.580898872
 11
-18.4524269094
 21
18.497105917
  0
LINE
  5
2A4
100
AcDbEntity
  8
0
100
AcDbLine
 62
250
  6
CONTINUOUS
 10
-18.6574878759
 20
18.378706285
 11
-18.8059803
 21
18.2929686204
  0
LINE
  5
2A5
100
AcDbEntity
  8
0
100
AcDbLine
 62
250
  6
CONTINUOUS
 10
-19.0110412665
 20
18.1745689883
 11
-19.1913552042
 21
18.0704579805
  0
LINE
  5
2A6
100
AcDbEntity
  8
0
100
AcDbLine
 62
250
  6
CONTINUOUS
 10
-18.0953379849
 20
18.2133787476
 11
-18.240294875
 21
18.129682456
  0
LINE
  5
2A7
100
AcDbEntity
  8
0
100
AcDbLine
 62
250
  6
CONTINUOUS
 10
-18.4453558416
 20
18.0112828239
 11
-18.5938482656
 21
17.9255451593
  0
LINE
  5
2A8
100
AcDbEntity
  8
0
100
AcDbLine
 62
250
  6
CONTINUOUS
 10
-18.7989092322
 20
17.8071455273
 11
-18.9792231699
 21
17.7030345195
  0
LINE
  5
2A9
100
AcDbEntity
  8
0
100
AcDbLine
 62
250
  6
CONTINUOUS
 10
-18.7494117575
 20
17.7785718294
 11
-18.6433457403
 21
17.8398130184
  0
LINE
  5
2AA
100
AcDbEntity
  8
0
100
AcDbLine
 62
250
  6
CONTINUOUS
 10
-18.3958583669
 20
17.9827091261
 11
-18.2897923497
 21
18.0439503151
  0
LINE
  5
2AB
100
AcDbEntity
  8
RACCORDO
100
AcDbLine
 62
250
  6
CONTINUOUS
 10
30.129344492
 20
43.8483201808
 11
26.6030866446
 21
42.0278547698
  0
LINE
  5
2AC
100
AcDbEntity
  8
0
100
AcDbLine
 62
250
  6
CONTINUOUS
 10
-19.1913534957
 20
18.0704550215
 11
-20.1042413695
 21
17.6281739825
  0
LINE
  5
2AD
100
AcDbEntity
  8
DRAFT
100
AcDbLine
 62
7
  6
CONTINUOUS
 10
-18.2693203446
 20
-25.8259612763
 11
-18.2367593411
 21
-25.8269464639
  0
LINE
  5
2AE
100
AcDbEntity
  8
DRAFT
100
AcDbLine
 62
7
  6
CONTINUOUS
 10
-18.0953379849
 20
-25.6377854551
 11
-17.8832059505
 21
-25.6442038642
  0
LINE
  5
2AF
100
AcDbEntity
  8
DRAFT
100
AcDbLine
 62
7
  6
CONTINUOUS
 10
-17.7417845943
 20
-25.4550428555
 11
-17.5296525599
 21
-25.4614612646
  0
LINE
  5
2B0
100
AcDbEntity
  8
DRAFT
100
AcDbLine
 62
7
  6
CONTINUOUS
 10
-17.3882312037
 20
-25.2723002558
 11
-17.1760991693
 21
-25.2787186649
  0
LINE
  5
2B1
100
AcDbEntity
  8
DRAFT
100
AcDbLine
 62
7
  6
CONTINUOUS
 10
-17.0346778131
 20
-25.0895576562
 11
-16.8225457787
 21
-25.0959760653
  0
LINE
  5
2B2
100
AcDbEntity
  8
DRAFT
100
AcDbLine
 62
7
  6
CONTINUOUS
 10
-16.6811244225
 20
-24.9068150566
 11
-16.4689923882
 21
-24.9132334657
  0
LINE
  5
2B3
100
AcDbEntity
  8
RACCORDO
100
AcDbLine
 62
7
  6
CONTINUOUS
 10
-18.2556546456
 20
-39.4046851009
 11
-18.2594657186
 21
-39.3886966179
  0
LINE
  5
2B4
100
AcDbEntity
  8
RACCORDO
100
AcDbLine
 62
7
  6
CONTINUOUS
 10
-18.2594657186
 20
-39.3886966179
 11
-18.263500224
 21
-39.3683959218
  0
LWPOLYLINE
  5
2B5
100
AcDbEntity
  8
RACCORDO
100
AcDbPolyline
 62
7
  6
CONTINUOUS
 90
5
 70
0
 10
-18.263500224
 20
-39.3683959218
 10
-18.2663975827
 20
-39.3494347044
 10
-18.2682527628
 20
-39.331915539
 10
-18.2691696453
 20
-39.3159701031
 10
-18.2693204821
 20
-39.3067600024
  0
LWPOLYLINE
  5
2B6
100
AcDbEntity
  8
RACCORDO
100
AcDbPolyline
 62
7
  6
CONTINUOUS
 90
13
 70
0
 10
-16.4428693774
 20
-6.4075074162
 10
-16.443957244
 20
-6.3841949337
 10
-16.447111407
 20
-6.3616332881
 10
-16.4523062755
 20
-6.3394523708
 10
-16.4594987411
 20
-6.3178363292
 10
-16.4686290846
 20
-6.2969647027
 10
-16.4796214773
 20
-6.2770108506
 10
-16.492384626
 20
-6.2581404857
 10
-16.5068125603
 20
-6.2405102811
 10
-16.5227854949
 20
-6.2242666153
 10
-16.5401708235
 20
-6.2095443597
 10
-16.5588241663
 20
-6.1964657943
 10
-16.5678565304
 20
-6.1909925791
  0
LINE
  5
2B7
100
AcDbEntity
  8
RACCORDO
100
AcDbLine
 62
250
  6
CONTINUOUS
 10
-20.8470886352
 20
-0.9311471792
 11
-20.8470883326
 21
15.0707943741
  0
LINE
  5
2B8
100
AcDbEntity
  8
0
100
AcDbLine
 62
250
  6
CONTINUOUS
 10
-20.1042413695
 20
53.9611012998
 11
-20.1042413695
 21
17.6281739825
  0
LINE
  5
2B9
100
AcDbEntity
  8
0
100
AcDbLine
 62
250
  6
CONTINUOUS
 10
-20.1042413695
 20
-4.0082883525
 11
-20.1042413695
 21
-40.3412156698
  0
LINE
  5
2BA
100
AcDbEntity
  8
0
100
AcDbLine
 62
7
  6
CONTINUOUS
 10
-19.1913534957
 20
53.493564322
 11
-19.1913534957
 21
18.0704550215
  0
LINE
  5
2BB
100
AcDbEntity
  8
0
100
AcDbLine
 62
7
  6
CONTINUOUS
 10
-19.1913534957
 20
-4.4758253303
 11
-19.1913534957
 21
-39.8989346308
  0
LINE
  5
2BC
100
AcDbEntity
  8
0
100
AcDbLine
 62
7
  6
CONTINUOUS
 10
-19.0110412665
 20
53.3894543007
 11
-19.0110412665
 21
18.1745689883
  0
LINE
  5
2BD
100
AcDbEntity
  8
0
100
AcDbLine
 62
7
  6
CONTINUOUS
 10
-19.0110412665
 20
-4.5799353516
 11
-19.0110412665
 21
-39.794820664
  0
LINE
  5
2BE
100
AcDbEntity
  8
0
100
AcDbLine
 62
7
  6
CONTINUOUS
 10
-18.9049752493
 20
53.3282131117
 11
-18.9049752493
 21
18.2929686204
  0
LINE
  5
2BF
100
AcDbEntity
  8
0
100
AcDbLine
 62
7
  6
CONTINUOUS
 10
-18.9049752493
 20
-4.6411765406
 11
-18.9049752493
 21
-39.6764210319
  0
LINE
  5
2C0
100
AcDbEntity
  8
0
100
AcDbLine
 62
7
  6
CONTINUOUS
 10
-18.8059803
 20
53.2710546686
 11
-18.8059803
 21
18.2929686204
  0
LINE
  5
2C1
100
AcDbEntity
  8
0
100
AcDbLine
 62
7
  6
CONTINUOUS
 10
-18.8059803
 20
-4.6983349836
 11
-18.8059803
 21
-39.6764210319
  0
LINE
  5
2C2
100
AcDbEntity
  8
0
100
AcDbLine
 62
7
  6
CONTINUOUS
 10
-18.6574878759
 20
53.185317004
 11
-18.6574878759
 21
18.378706285
  0
LINE
  5
2C3
100
AcDbEntity
  8
0
100
AcDbLine
 62
7
  6
CONTINUOUS
 10
-18.6574878759
 20
-4.7840726482
 11
-18.6574878759
 21
-39.5906833673
  0
LINE
  5
2C4
100
AcDbEntity
  8
0
100
AcDbLine
 62
7
  6
CONTINUOUS
 10
-18.5514218587
 20
53.1240758151
 11
-18.5514218587
 21
18.497105917
  0
LINE
  5
2C5
100
AcDbEntity
  8
0
100
AcDbLine
 62
7
  6
CONTINUOUS
 10
-18.5514218587
 20
-4.8453138372
 11
-18.5514218587
 21
-39.4722837353
  0
LINE
  5
2C6
100
AcDbEntity
  8
0
100
AcDbLine
 62
7
  6
CONTINUOUS
 10
-18.4524269094
 20
53.066917372
 11
-18.4524269094
 21
18.497105917
  0
LINE
  5
2C7
100
AcDbEntity
  8
0
100
AcDbLine
 62
7
  6
CONTINUOUS
 10
-18.4524269094
 20
-4.9024722803
 11
-18.4524269094
 21
-39.4722837353
  0
LINE
  5
2C8
100
AcDbEntity
  8
RACCORDO
100
AcDbLine
 62
250
  6
CONTINUOUS
 10
-18.3425436493
 20
-39.408831573
 11
-18.3425436493
 21
-4.9659174975
  0
LINE
  5
2C9
100
AcDbEntity
  8
RACCORDO
100
AcDbLine
 62
250
  6
CONTINUOUS
 10
-18.3073114002
 20
18.580898872
 11
-18.3073114002
 21
52.9831294957
  0
LINE
  5
2CA
100
AcDbEntity
  8
RACCORDO
100
AcDbLine
 62
7
  6
CONTINUOUS
 10
-18.2693203446
 20
-39.3067698697
 11
-18.2693203446
 21
-5.0081957159
  0
LINE
  5
2CB
100
AcDbEntity
  8
RACCORDO
100
AcDbLine
 62
7
  6
CONTINUOUS
 10
-18.2487327565
 20
18.6625487119
 11
-18.2487327565
 21
52.949306921
  0
LINE
  5
2CC
100
AcDbEntity
  8
DRAFT
100
AcDbLine
 62
7
  6
CONTINUOUS
 10
-18.2367593411
 20
50.5130244163
 11
-18.2367593411
 21
45.5164815071
  0
LINE
  5
2CD
100
AcDbEntity
  8
DRAFT
100
AcDbLine
 62
7
  6
CONTINUOUS
 10
-18.2367593411
 20
-25.8269464639
 11
-18.2367593411
 21
-30.823489373
  0
LINE
  5
2CE
100
AcDbEntity
  8
DRAFT
100
AcDbLine
 62
7
  6
CONTINUOUS
 10
-18.0953379849
 20
-30.7332765755
 11
-18.0953379849
 21
-25.6377854551
  0
LINE
  5
2CF
100
AcDbEntity
  8
DRAFT
100
AcDbLine
 62
7
  6
CONTINUOUS
 10
-18.0953379849
 20
45.6066943046
 11
-18.0953379849
 21
50.702185425
  0
LINE
  5
2D0
100
AcDbEntity
  8
DRAFT
100
AcDbLine
 62
7
  6
CONTINUOUS
 10
-17.8832059505
 20
50.6957670159
 11
-17.8832059505
 21
45.7420135008
  0
LINE
  5
2D1
100
AcDbEntity
  8
DRAFT
100
AcDbLine
 62
7
  6
CONTINUOUS
 10
-17.8832059505
 20
-25.6442038642
 11
-17.8832059505
 21
-30.5979573793
  0
LINE
  5
2D2
100
AcDbEntity
  8
DRAFT
100
AcDbLine
 62
7
  6
CONTINUOUS
 10
-17.7417845943
 20
-30.5077445818
 11
-17.7417845943
 21
-25.4550428555
  0
LINE
  5
2D3
100
AcDbEntity
  8
DRAFT
100
AcDbLine
 62
7
  6
CONTINUOUS
 10
-17.7417845943
 20
45.8322262983
 11
-17.7417845943
 21
50.8849280247
  0
LINE
  5
2D4
100
AcDbEntity
  8
DRAFT
100
AcDbLine
 62
7
  6
CONTINUOUS
 10
-17.5296525599
 20
50.8785096155
 11
-17.5296525599
 21
45.9675454945
  0
LINE
  5
2D5
100
AcDbEntity
  8
DRAFT
100
AcDbLine
 62
7
  6
CONTINUOUS
 10
-17.5296525599
 20
-25.4614612646
 11
-17.5296525599
 21
-30.3724253856
  0
LINE
  5
2D6
100
AcDbEntity
  8
DRAFT
100
AcDbLine
 62
7
  6
CONTINUOUS
 10
-17.3882312037
 20
-30.2822125881
 11
-17.3882312037
 21
-25.2723002558
  0
LINE
  5
2D7
100
AcDbEntity
  8
DRAFT
100
AcDbLine
 62
7
  6
CONTINUOUS
 10
-17.3882312037
 20
46.057758292
 11
-17.3882312037
 21
51.0676706243
  0
LINE
  5
2D8
100
AcDbEntity
  8
DRAFT
100
AcDbLine
 62
7
  6
CONTINUOUS
 10
-17.1760991693
 20
51.0612522152
 11
-17.1760991693
 21
46.1930774882
  0
LINE
  5
2D9
100
AcDbEntity
  8
DRAFT
100
AcDbLine
 62
7
  6
CONTINUOUS
 10
-17.1760991693
 20
-25.2787186649
 11
-17.1760991693
 21
-30.1468933919
  0
LINE
  5
2DA
100
AcDbEntity
  8
DRAFT
100
AcDbLine
 62
7
  6
CONTINUOUS
 10
-17.0346778131
 20
-30.0566805944
 11
-17.0346778131
 21
-25.0895576562
  0
LINE
  5
2DB
100
AcDbEntity
  8
DRAFT
100
AcDbLine
 62
7
  6
CONTINUOUS
 10
-17.0346778131
 20
46.2832902857
 11
-17.0346778131
 21
51.2504132239
  0
LINE
  5
2DC
100
AcDbEntity
  8
DRAFT
100
AcDbLine
 62
7
  6
CONTINUOUS
 10
-16.8225457787
 20
51.2439948148
 11
-16.8225457787
 21
46.4186094819
  0
LINE
  5
2DD
100
AcDbEntity
  8
DRAFT
100
AcDbLine
 62
7
  6
CONTINUOUS
 10
-16.8225457787
 20
-25.0959760653
 11
-16.8225457787
 21
-29.9213613982
  0
LINE
  5
2DE
100
AcDbEntity
  8
DRAFT
100
AcDbLine
 62
7
  6
CONTINUOUS
 10
-16.6811244225
 20
-29.8311486008
 11
-16.6811244225
 21
-24.9068150566
  0
LINE
  5
2DF
100
AcDbEntity
  8
DRAFT
100
AcDbLine
 62
7
  6
CONTINUOUS
 10
-16.6811244225
 20
46.5088222794
 11
-16.6811244225
 21
51.4331558236
  0
LINE
  5
2E0
100
AcDbEntity
  8
RACCORDO
100
AcDbLine
 62
250
  6
CONTINUOUS
 10
-16.52706777
 20
33.0829683288
 11
-16.52706777
 21
28.730637143
  0
LINE
  5
2E1
100
AcDbEntity
  8
RACCORDO
100
AcDbLine
 62
250
  6
CONTINUOUS
 10
-16.52706777
 20
-6.5158400956
 11
-16.52706777
 21
-10.8681712814
  0
LINE
  5
2E2
100
AcDbEntity
  8
DRAFT
100
AcDbLine
 62
7
  6
CONTINUOUS
 10
-16.4689923882
 20
51.4267374145
 11
-16.4689923882
 21
46.6441414756
  0
LINE
  5
2E3
100
AcDbEntity
  8
DRAFT
100
AcDbLine
 62
7
  6
CONTINUOUS
 10
-16.4689923882
 20
-24.9132334657
 11
-16.4689923882
 21
-29.6958294045
  0
LINE
  5
2E4
100
AcDbEntity
  8
RACCORDO
100
AcDbLine
 62
7
  6
CONTINUOUS
 10
-16.4428697101
 20
33.1911806876
 11
-16.4428697101
 21
28.8630055839
  0
LINE
  5
2E5
100
AcDbEntity
  8
RACCORDO
100
AcDbLine
 62
7
  6
CONTINUOUS
 10
-16.4428697101
 20
-6.4076277369
 11
-16.4428697101
 21
-10.7358028406
  0
LINE
  5
2E6
100
AcDbEntity
  8
RACCORDO
100
AcDbLine
 62
250
  6
CONTINUOUS
 10
-16.2922156929
 20
51.5181087143
 11
-16.2922156929
 21
46.7569074724
  0
LINE
  5
2E7
100
AcDbEntity
  8
RACCORDO
100
AcDbLine
 62
250
  6
CONTINUOUS
 10
-16.2922156929
 20
-24.8218621659
 11
-16.2922156929
 21
-29.5830634077
  0
LINE
  5
2E8
100
AcDbEntity
  8
RACCORDO
100
AcDbLine
 62
7
  6
CONTINUOUS
 10
-16.2043477272
 20
51.5677873553
 11
-16.2043477272
 21
46.9521935874
  0
LINE
  5
2E9
100
AcDbEntity
  8
RACCORDO
100
AcDbLine
 62
7
  6
CONTINUOUS
 10
-16.2043477272
 20
-24.7721835249
 11
-16.2043477272
 21
-29.3877772927
  0
LWPOLYLINE
  5
2EA
100
AcDbEntity
  8
RACCORDO
100
AcDbPolyline
 62
7
  6
CONTINUOUS
 90
3
 70
0
 10
-16.4457902442
 20
28.8203688966
 10
-16.4431630364
 20
28.8493388919
 10
-16.4428694025
 20
28.8631280679
  0
LINE
  5
2EB
100
AcDbEntity
  8
RACCORDO
100
AcDbLine
 62
7
  6
CONTINUOUS
 10
-10.32937752
 20
13.7970602777
 11
-8.5295508141
 21
14.6982892165
  0
LINE
  5
2EC
100
AcDbEntity
  8
RACCORDO
100
AcDbLine
 62
250
  6
CONTINUOUS
 10
-10.2595619023
 20
13.756749615
 11
-8.4151153007
 21
14.6803233323
  0
LWPOLYLINE
  5
2ED
100
AcDbEntity
  8
RACCORDO
100
AcDbPolyline
 62
7
  6
CONTINUOUS
 90
5
 70
0
 10
-16.8318797354
 20
-24.4972263547
 10
-16.8612756741
 20
-24.5029953637
 10
-16.8897421916
 20
-24.5112576212
 10
-16.9170254674
 20
-24.521854837
 10
-16.9316539151
 20
-24.5287148742
  0
LWPOLYLINE
  5
2EE
100
AcDbEntity
  8
RACCORDO
100
AcDbPolyline
 62
7
  6
CONTINUOUS
 90
13
 70
0
 10
-16.4428693774
 20
33.1913010083
 10
-16.443957244
 20
33.2146134908
 10
-16.447111407
 20
33.2371751363
 10
-16.4523062755
 20
33.2593560537
 10
-16.4594987411
 20
33.2809720952
 10
-16.4686290846
 20
33.3018437217
 10
-16.4796214773
 20
33.3217975739
 10
-16.492384626
 20
33.3406679387
 10
-16.5068125603
 20
33.3582981433
 10
-16.5227854949
 20
33.3745418092
 10
-16.5401708235
 20
33.3892640647
 10
-16.5588241663
 20
33.4023426302
 10
-16.5678565304
 20
33.4078158454
  0
LWPOLYLINE
  5
2EF
100
AcDbEntity
  8
RACCORDO
100
AcDbPolyline
 62
7
  6
CONTINUOUS
 90
3
 70
0
 10
-16.4457902442
 20
-10.7784395279
 10
-16.4431630364
 20
-10.7494695325
 10
-16.4428694025
 20
-10.7356803566
  0
LWPOLYLINE
  5
2F0
100
AcDbEntity
  8
RACCORDO
100
AcDbPolyline
 62
7
  6
CONTINUOUS
 90
6
 70
0
 10
-4.5382665293
 20
11.9747240653
 10
-4.524968139
 20
11.9839954582
 10
-4.502109982
 20
12.002367621
 10
-4.4806886327
 20
12.0229402161
 10
-4.4609704713
 20
12.045570582
 10
-4.4431682257
 20
12.0701188812
  0
LINE
  5
2F1
100
AcDbEntity
  8
RACCORDO
100
AcDbLine
 62
250
  6
CONTINUOUS
 10
-5.8687836853
 20
11.2215693019
 11
-4.4618947835
 21
12.1536657727
  0
LINE
  5
2F2
100
AcDbEntity
  8
RACCORDO
100
AcDbLine
 62
7
  6
CONTINUOUS
 10
-5.76527342
 20
11.1618037721
 11
-4.5380760881
 21
11.9748504174
  0
LINE
  5
2F3
100
AcDbEntity
  8
RACCORDO
100
AcDbLine
 62
250
  6
CONTINUOUS
 10
-4.6457644953
 20
12.5039474183
 11
-6.3065159666
 21
11.4743104351
  0
LINE
  5
2F4
100
AcDbEntity
  8
RACCORDO
100
AcDbLine
 62
250
  6
CONTINUOUS
 10
-4.4618947835
 20
12.2022172531
 11
-5.9593120043
 21
11.2738392188
  0
LINE
  5
2F5
100
AcDbEntity
  8
RACCORDO
100
AcDbLine
 62
7
  6
CONTINUOUS
 10
-16.6486201146
 20
-6.1488008201
 11
-16.6787016418
 21
-6.1382201678
  0
LWPOLYLINE
  5
2F6
100
AcDbEntity
  8
RACCORDO
100
AcDbPolyline
 62
7
  6
CONTINUOUS
 90
3
 70
0
 10
-16.599669879
 20
-6.1726255256
 10
-16.6192534144
 20
-6.1620539036
 10
-16.6486201146
 20
-6.1488008201
  0
LINE
  5
2F7
100
AcDbEntity
  8
RACCORDO
100
AcDbLine
 62
250
  6
CONTINUOUS
 10
-16.7384716053
 20
-6.1814697295
 11
-16.6964391506
 21
-6.205738742
  0
LINE
  5
2F8
100
AcDbEntity
  8
RACCORDO
100
AcDbLine
 62
7
  6
CONTINUOUS
 10
-16.5996684899
 20
-6.172623112
 11
-16.5679510784
 21
-6.1909362678
  0
LINE
  5
2F9
100
AcDbEntity
  8
0
100
AcDbLine
 62
7
  6
CONTINUOUS
 10
11.209188682
 20
-22.0287173754
 11
-20.2570630808
 21
-3.8604979723
  0
LINE
  5
2FA
100
AcDbEntity
  8
RACCORDO
100
AcDbLine
 62
250
  6
CONTINUOUS
 10
11.126881989
 20
-21.035787221
 11
-20.3393697738
 21
-2.8675678179
  0
LINE
  5
2FB
100
AcDbEntity
  8
RACCORDO
100
AcDbLine
 62
250
  6
CONTINUOUS
 10
11.5012097734
 20
-19.4302073411
 11
-19.9650419894
 21
-1.2619879381
  0
LINE
  5
2FC
100
AcDbEntity
  8
RACCORDO
100
AcDbLine
 62
7
  6
CONTINUOUS
 10
-21.5563486716
 20
17.0858480406
 11
-21.5559786605
 21
17.0848708957
  0
LINE
  5
2FD
100
AcDbEntity
  8
RACCORDO
100
AcDbLine
 62
7
  6
CONTINUOUS
 10
-4.3885843156
 20
12.2158553007
 11
-4.3854326884
 21
12.2480142813
  0
LWPOLYLINE
  5
2FE
100
AcDbEntity
  8
RACCORDO
100
AcDbPolyline
 62
7
  6
CONTINUOUS
 90
5
 70
0
 10
-16.4814079398
 20
-10.883235423
 10
-16.4689263372
 20
-10.8588689707
 10
-16.458743669
 20
-10.8331273229
 10
-16.451033715
 20
-10.8063878862
 10
-16.4457902442
 20
-10.7784395279
  0
LWPOLYLINE
  5
2FF
100
AcDbEntity
  8
RACCORDO
100
AcDbPolyline
 62
7
  6
CONTINUOUS
 90
6
 70
0
 10
-4.4431682257
 20
12.0701188812
 10
-4.4274380133
 20
12.0964767209
 10
-4.4139489408
 20
12.1244949772
 10
-4.4028993518
 20
12.1538950856
 10
-4.3944222736
 20
12.1844163006
 10
-4.3885843156
 20
12.2158553007
  0
LINE
  5
300
100
AcDbEntity
  8
0
100
AcDbLine
 62
250
  6
CONTINUOUS
 10
-20.0481583586
 20
-3.9811169407
 11
-20.1042413695
 21
-4.0082883525
  0
LWPOLYLINE
  5
301
100
AcDbEntity
  8
RACCORDO
100
AcDbPolyline
 62
7
  6
CONTINUOUS
 90
6
 70
0
 10
-16.6787016418
 20
-6.1382201678
 10
-16.7093038332
 20
-6.1303703893
 10
-16.7402186178
 20
-6.1252953749
 10
-16.7711566468
 20
-6.1230102862
 10
-16.8017817268
 20
-6.1234836386
 10
-16.8318797354
 20
-6.1266451269
  0
LINE
  5
302
100
AcDbEntity
  8
RACCORDO
100
AcDbLine
 62
7
  6
CONTINUOUS
 10
-21.2761640491
 20
16.5159353358
 11
-21.2761137427
 21
16.5158533596
  0
LWPOLYLINE
  5
303
100
AcDbEntity
  8
RACCORDO
100
AcDbPolyline
 62
7
  6
CONTINUOUS
 90
3
 70
0
 10
-18.1702005462
 20
18.4106761051
 10
-18.1813378309
 20
18.430486459
 10
-18.1936089983
 20
18.4543784283
  0
LWPOLYLINE
  5
304
100
AcDbEntity
  8
RACCORDO
100
AcDbPolyline
 62
7
  6
CONTINUOUS
 90
11
 70
0
 10
-18.1936089983
 20
18.4543784283
 10
-18.2047214886
 20
18.4783922558
 10
-18.2146218008
 20
18.5023403889
 10
-18.2232636167
 20
18.5260172659
 10
-18.2306084064
 20
18.5491823931
 10
-18.2366588992
 20
18.5716581633
 10
-18.2414266606
 20
18.5932424039
 10
-18.2449321573
 20
18.6136492631
 10
-18.2472496787
 20
18.6327277739
 10
-18.2484701801
 20
18.6503229436
 10
-18.2487328644
 20
18.6625559023
  0
LINE
  5
305
100
AcDbEntity
  8
RACCORDO
100
AcDbLine
 62
7
  6
CONTINUOUS
 10
-4.3850582791
 20
12.3166787739
 11
-4.3870471864
 21
12.3393547524
  0
LINE
  5
306
100
AcDbEntity
  8
RACCORDO
100
AcDbLine
 62
7
  6
CONTINUOUS
 10
-4.3848383929
 20
12.3061987358
 11
-4.3850582791
 21
12.3166787739
  0
LINE
  5
307
100
AcDbEntity
  8
RACCORDO
100
AcDbLine
 62
250
  6
CONTINUOUS
 10
-4.4618947835
 20
12.2022172531
 11
-4.4618947835
 21
12.1536657727
  0
LINE
  5
308
100
AcDbEntity
  8
RACCORDO
100
AcDbLine
 62
250
  6
CONTINUOUS
 10
-4.4618947835
 20
-45.2879468493
 11
-4.4618947835
 21
-45.8157238796
  0
LINE
  5
309
100
AcDbEntity
  8
RACCORDO
100
AcDbLine
 62
7
  6
CONTINUOUS
 10
-4.3848382311
 20
12.3061359247
 11
-4.3848382311
 21
12.2695700589
  0
LINE
  5
30A
100
AcDbEntity
  8
RACCORDO
100
AcDbLine
 62
7
  6
CONTINUOUS
 10
-4.3848382311
 20
-45.2441744714
 11
-4.3848382311
 21
-45.6998195934
  0
LINE
  5
30B
100
AcDbEntity
  8
RACCORDO
100
AcDbLine
 62
250
  6
CONTINUOUS
 10
-1.7495108894
 20
62.9815602721
 11
-1.7495108894
 21
63.3733144213
  0
LINE
  5
30C
100
AcDbEntity
  8
RACCORDO
100
AcDbLine
 62
250
  6
CONTINUOUS
 10
-1.0480313066
 20
63.9056312804
 11
-1.0480313066
 21
62.6071000893
  0
LINE
  5
30D
100
AcDbEntity
  8
0
100
AcDbLine
 62
250
  6
CONTINUOUS
 10
-1.0480313066
 20
62.6071000893
 11
-1.0480313066
 21
62.5747631291
  0
LINE
  5
30E
100
AcDbEntity
  8
RACCORDO
100
AcDbLine
 62
7
  6
CONTINUOUS
 10
-0.9310535282
 20
64.1052814848
 11
-0.9310535282
 21
62.8014643833
  0
LINE
  5
30F
100
AcDbEntity
  8
SUPERFICI
100
AcDbLine
 62
7
  6
CONTINUOUS
 10
-0.9310535282
 20
62.507221626
 11
-0.9310535282
 21
62.8015067951
  0
LINE
  5
310
100
AcDbEntity
  8
RACCORDO
100
AcDbLine
 62
7
  6
CONTINUOUS
 10
-4.3854326884
 20
12.2480142813
 11
-4.3848411021
 21
12.2694410175
  0
LWPOLYLINE
  5
311
100
AcDbEntity
  8
RACCORDO
100
AcDbPolyline
 62
7
  6
CONTINUOUS
 90
4
 70
0
 10
-16.5312713383
 20
-10.9465459424
 10
-16.5125985606
 20
-10.9270719646
 10
-16.4959409404
 20
-10.9059083583
 10
-16.4814079398
 20
-10.883235423
  0
LINE
  5
312
100
AcDbEntity
  8
RACCORDO
100
AcDbLine
 62
7
  6
CONTINUOUS
 10
-16.5515510074
 20
-10.9639322496
 11
-16.5312713383
 21
-10.9465459424
  0
LINE
  5
313
100
AcDbEntity
  8
RACCORDO
100
AcDbLine
 62
7
  6
CONTINUOUS
 10
-16.5614320068
 20
-10.9712516206
 11
-16.5515510074
 21
-10.9639322496
  0
LINE
  5
314
100
AcDbEntity
  8
RACCORDO
100
AcDbLine
 62
250
  6
CONTINUOUS
 10
-16.52706777
 20
-10.8681712814
 11
-18.2693203446
 21
-12.0171672999
  0
LINE
  5
315
100
AcDbEntity
  8
RACCORDO
100
AcDbLine
 62
7
  6
CONTINUOUS
 10
-16.5686891319
 20
-10.9762201451
 11
-18.2693203446
 21
-12.0977704361
  0
LINE
  5
316
100
AcDbEntity
  8
RACCORDO
100
AcDbLine
 62
250
  6
CONTINUOUS
 10
-18.2693203446
 20
-7.0492939703
 11
-16.6964391506
 21
-6.205738742
  0
LINE
  5
317
100
AcDbEntity
  8
RACCORDO
100
AcDbLine
 62
250
  6
CONTINUOUS
 10
-18.2693203446
 20
-7.4502370056
 11
-16.52706777
 21
-6.5158400956
  0
LINE
  5
318
100
AcDbEntity
  8
RACCORDO
100
AcDbLine
 62
7
  6
CONTINUOUS
 10
5.5805250567
 20
4.6108819278
 11
7.3803517626
 21
5.5121108666
  0
LINE
  5
319
100
AcDbEntity
  8
RACCORDO
100
AcDbLine
 62
250
  6
CONTINUOUS
 10
5.6503406744
 20
4.5705712652
 11
7.494787276
 21
5.4941449824
  0
LINE
  5
31A
100
AcDbEntity
  8
RACCORDO
100
AcDbLine
 62
7
  6
CONTINUOUS
 10
-16.9314615725
 20
-6.1580380148
 11
-18.2693203446
 21
-6.8244273391
  0
LINE
  5
31B
100
AcDbEntity
  8
RACCORDO
100
AcDbLine
 62
250
  6
CONTINUOUS
 10
-16.7384716053
 20
-6.1814697295
 11
-18.2693203446
 21
-6.9439876262
  0
LWPOLYLINE
  5
31C
100
AcDbEntity
  8
RACCORDO
100
AcDbPolyline
 62
7
  6
CONTINUOUS
 90
5
 70
0
 10
-16.8318797354
 20
-6.1266451269
 10
-16.8612756741
 20
-6.1324141359
 10
-16.8897421916
 20
-6.1406763933
 10
-16.9170254674
 20
-6.1512736092
 10
-16.9316539151
 20
-6.1581336464
  0
LWPOLYLINE
  5
31D
100
AcDbEntity
  8
RACCORDO
100
AcDbPolyline
 62
7
  6
CONTINUOUS
 90
11
 70
0
 10
-4.3870471864
 20
12.3393547524
 10
-4.3910903881
 20
12.3617558094
 10
-4.397154353
 20
12.3836962115
 10
-4.4051888063
 20
12.4049940859
 10
-4.4151271426
 20
12.4254728815
 10
-4.4268869747
 20
12.4449628302
 10
-4.4403708046
 20
12.4633023431
 10
-4.4554668353
 20
12.4803393679
 10
-4.4720499021
 20
12.4959326559
 10
-4.4899825302
 20
12.5099529461
 10
-4.5098381337
 20
12.5227025153
  0
LINE
  5
31E
100
AcDbEntity
  8
0
100
AcDbLine
 62
250
  6
CONTINUOUS
 10
-18.6433457403
 20
-40.1295766339
 11
-18.5938482656
 21
-40.043844493
  0
LINE
  5
31F
100
AcDbEntity
  8
0
100
AcDbLine
 62
250
  6
CONTINUOUS
 10
-18.2897923497
 20
-39.9254393372
 11
-18.240294875
 21
-39.8397071963
  0
LWPOLYLINE
  5
320
100
AcDbEntity
  8
RACCORDO
100
AcDbPolyline
 62
7
  6
CONTINUOUS
 90
6
 70
0
 10
11.3716360474
 20
2.7885457154
 10
11.3849344377
 20
2.7978171084
 10
11.4077925947
 20
2.8161892712
 10
11.429213944
 20
2.8367618662
 10
11.4489321054
 20
2.8593922321
 10
11.466734351
 20
2.8839405313
  0
LINE
  5
321
100
AcDbEntity
  8
RACCORDO
100
AcDbLine
 62
250
  6
CONTINUOUS
 10
10.0411188914
 20
2.0353909521
 11
11.4480077932
 21
2.9674874228
  0
LINE
  5
322
100
AcDbEntity
  8
RACCORDO
100
AcDbLine
 62
7
  6
CONTINUOUS
 10
10.1446291567
 20
1.9756254222
 11
11.3718264886
 21
2.7886720675
  0
LINE
  5
323
100
AcDbEntity
  8
RACCORDO
100
AcDbLine
 62
250
  6
CONTINUOUS
 10
11.2641380814
 20
3.3177690684
 11
9.6033866101
 21
2.2881320852
  0
LINE
  5
324
100
AcDbEntity
  8
RACCORDO
100
AcDbLine
 62
250
  6
CONTINUOUS
 10
11.4480077932
 20
3.0160389032
 11
9.9505905724
 21
2.0876608689
  0
LINE
  5
325
100
AcDbEntity
  8
RACCORDO
100
AcDbLine
 62
250
  6
CONTINUOUS
 10
-19.9650419894
 20
14.3830700547
 11
11.5012097734
 21
-3.7851493484
  0
LINE
  5
326
100
AcDbEntity
  8
RACCORDO
100
AcDbLine
 62
250
  6
CONTINUOUS
 10
-20.3393697738
 20
15.5563855921
 11
11.126881989
 21
-2.611833811
  0
LINE
  5
327
100
AcDbEntity
  8
0
100
AcDbLine
 62
250
  6
CONTINUOUS
 10
-19.8186673374
 20
17.13354525
 11
11.6475844254
 21
-1.0346741531
  0
LINE
  5
328
100
AcDbEntity
  8
0
100
AcDbLine
 62
7
  6
CONTINUOUS
 10
-18.9792214614
 20
17.7030315605
 11
11.6992029007
 21
-0.0103061752
  0
LINE
  5
329
100
AcDbEntity
  8
0
100
AcDbLine
 62
7
  6
CONTINUOUS
 10
-18.7989092322
 20
17.8071455273
 11
11.6992029007
 21
0.1979178129
  0
LINE
  5
32A
100
AcDbEntity
  8
0
100
AcDbLine
 62
7
  6
CONTINUOUS
 10
-18.6433457403
 20
17.8398130184
 11
11.6992029007
 21
0.3204057146
  0
LINE
  5
32B
100
AcDbEntity
  8
0
100
AcDbLine
 62
7
  6
CONTINUOUS
 10
-18.5938482656
 20
17.9255451593
 11
11.6992029007
 21
0.434717077
  0
LINE
  5
32C
100
AcDbEntity
  8
RACCORDO
100
AcDbLine
 62
7
  6
CONTINUOUS
 10
11.5248442976
 20
3.130500424
 11
11.5228553903
 21
3.1531764026
  0
LINE
  5
32D
100
AcDbEntity
  8
RACCORDO
100
AcDbLine
 62
7
  6
CONTINUOUS
 10
11.5250641838
 20
3.1200203859
 11
11.5248442976
 21
3.130500424
  0
LINE
  5
32E
100
AcDbEntity
  8
RACCORDO
100
AcDbLine
 62
250
  6
CONTINUOUS
 10
11.4480077932
 20
3.0160389032
 11
11.4480077932
 21
2.9674874228
  0
LINE
  5
32F
100
AcDbEntity
  8
RACCORDO
100
AcDbLine
 62
250
  6
CONTINUOUS
 10
11.4480077932
 20
-54.4741251992
 11
11.4480077932
 21
-55.0019022295
  0
LINE
  5
330
100
AcDbEntity
  8
RACCORDO
100
AcDbLine
 62
7
  6
CONTINUOUS
 10
11.5250643456
 20
3.1199575749
 11
11.5250643456
 21
3.083391709
  0
LINE
  5
331
100
AcDbEntity
  8
RACCORDO
100
AcDbLine
 62
7
  6
CONTINUOUS
 10
11.5250643456
 20
-54.4303528213
 11
11.5250643456
 21
-54.8859979433
  0
LINE
  5
332
100
AcDbEntity
  8
0
100
AcDbLine
 62
7
  6
CONTINUOUS
 10
11.6992029007
 20
-59.2103463168
 11
11.6992029007
 21
-22.8774189996
  0
LINE
  5
333
100
AcDbEntity
  8
0
100
AcDbLine
 62
7
  6
CONTINUOUS
 10
11.6992029007
 20
-1.2409566646
 11
11.6992029007
 21
35.0919706527
  0
LINE
  5
334
100
AcDbEntity
  8
RACCORDO
100
AcDbLine
 62
7
  6
CONTINUOUS
 10
11.5244698883
 20
3.0618359314
 11
11.5250614746
 21
3.0832626677
  0
LINE
  5
335
100
AcDbEntity
  8
RACCORDO
100
AcDbLine
 62
7
  6
CONTINUOUS
 10
11.5213182611
 20
3.0296769508
 11
11.5244698883
 21
3.0618359314
  0
LWPOLYLINE
  5
336
100
AcDbEntity
  8
RACCORDO
100
AcDbPolyline
 62
7
  6
CONTINUOUS
 90
6
 70
0
 10
11.466734351
 20
2.8839405313
 10
11.4824645634
 20
2.910298371
 10
11.4959536359
 20
2.9383166273
 10
11.5070032249
 20
2.9677167357
 10
11.5154803031
 20
2.9982379507
 10
11.5213182611
 20
3.0296769508
  0
LINE
  5
337
100
AcDbEntity
  8
0
100
AcDbLine
 62
250
  6
CONTINUOUS
 10
11.6992029007
 20
-0.9996557965
 11
11.6475844254
 21
-1.0346741531
  0
LWPOLYLINE
  5
338
100
AcDbEntity
  8
RACCORDO
100
AcDbPolyline
 62
7
  6
CONTINUOUS
 90
10
 70
0
 10
7.5717447099
 20
5.5330582917
 10
7.5479995835
 20
5.5378013737
 10
7.5243392635
 20
5.5405026437
 10
7.5006018567
 20
5.5412075379
 10
7.4770432763
 20
5.5399190819
 10
7.4539306197
 20
5.5366879696
 10
7.4311339055
 20
5.5315055062
 10
7.4087970853
 20
5.5243879195
 10
7.3872754674
 20
5.5154453891
 10
7.3804879384
 20
5.5121655111
  0
LWPOLYLINE
  5
339
100
AcDbEntity
  8
RACCORDO
100
AcDbPolyline
 62
7
  6
CONTINUOUS
 90
5
 70
0
 10
7.6514829264
 20
5.500907984
 10
7.6411763042
 20
5.5066065319
 10
7.6184878928
 20
5.5174434509
 10
7.5953453325
 20
5.5262523296
 10
7.5717447099
 20
5.5330582917
  0
LWPOLYLINE
  5
33A
100
AcDbEntity
  8
RACCORDO
100
AcDbPolyline
 62
7
  6
CONTINUOUS
 90
5
 70
0
 10
-8.2584196503
 20
14.6870863339
 10
-8.2687262725
 20
14.6927848817
 10
-8.2914146839
 20
14.7036218008
 10
-8.3145572442
 20
14.7124306795
 10
-8.3381578668
 20
14.7192366415
  0
LINE
  5
33B
100
AcDbEntity
  8
0
100
AcDbLine
 62
7
  6
CONTINUOUS
 10
-18.4453558416
 20
18.0112828239
 11
11.6992029007
 21
0.6061924062
  0
LINE
  5
33C
100
AcDbEntity
  8
0
100
AcDbLine
 62
7
  6
CONTINUOUS
 10
-18.2897923497
 20
18.0439503151
 11
11.6992029007
 21
0.7286803079
  0
LINE
  5
33D
100
AcDbEntity
  8
0
100
AcDbLine
 62
7
  6
CONTINUOUS
 10
-18.240294875
 20
18.129682456
 11
11.6992029007
 21
0.8429916703
  0
LINE
  5
33E
100
AcDbEntity
  8
RACCORDO
100
AcDbLine
 62
250
  6
CONTINUOUS
 10
11.6992029007
 20
1.0103842536
 11
-18.0953379849
 21
18.2133787476
  0
LINE
  5
33F
100
AcDbEntity
  8
RACCORDO
100
AcDbLine
 62
7
  6
CONTINUOUS
 10
11.6992029007
 20
1.0780340258
 11
-17.9953331529
 21
18.2232869832
  0
LINE
  5
340
100
AcDbEntity
  8
RACCORDO
100
AcDbLine
 62
250
  6
CONTINUOUS
 10
-8.4151153007
 20
14.6803233323
 11
-4.6457644953
 21
12.5039474183
  0
LINE
  5
341
100
AcDbEntity
  8
RACCORDO
100
AcDbLine
 62
250
  6
CONTINUOUS
 10
7.494787276
 20
5.4941449824
 11
11.2641380814
 21
3.3177690684
  0
LINE
  5
342
100
AcDbEntity
  8
RACCORDO
100
AcDbLine
 62
7
  6
CONTINUOUS
 10
-8.2588725257
 20
14.6873462932
 11
-4.5098899852
 21
12.5227319186
  0
LINE
  5
343
100
AcDbEntity
  8
RACCORDO
100
AcDbLine
 62
7
  6
CONTINUOUS
 10
7.651030051
 20
5.5011679434
 11
11.4000125915
 21
3.3365535688
  0
LINE
  5
344
100
AcDbEntity
  8
RACCORDO
100
AcDbLine
 62
250
  6
CONTINUOUS
 10
12.3832563156
 20
-4.115990083
 11
12.383256015
 21
-20.1179315671
  0
LINE
  5
345
100
AcDbEntity
  8
RACCORDO
100
AcDbLine
 62
250
  6
CONTINUOUS
 10
12.5620662781
 20
-41.6157980317
 11
12.5620662782
 21
-23.4493451887
  0
LINE
  5
346
100
AcDbEntity
  8
RACCORDO
100
AcDbLine
 62
250
  6
CONTINUOUS
 10
12.5620662782
 20
-1.8129067348
 11
12.5620662781
 21
16.3535575827
  0
LINE
  5
347
100
AcDbEntity
  8
RACCORDO
100
AcDbLine
 62
250
  6
CONTINUOUS
 10
14.1201792668
 20
-42.0250000277
 11
14.120179267
 21
-23.8585448786
  0
LINE
  5
348
100
AcDbEntity
  8
RACCORDO
100
AcDbLine
 62
250
  6
CONTINUOUS
 10
14.120179267
 20
-2.2220825436
 11
14.1201792668
 21
15.9443726057
  0
LINE
  5
349
100
AcDbEntity
  8
DRAFT
100
AcDbLine
 62
7
  6
CONTINUOUS
 10
-6.3150495121
 20
-46.4759535793
 11
-6.3305544889
 21
-46.5047893815
  0
LINE
  5
34A
100
AcDbEntity
  8
DRAFT
100
AcDbLine
 62
7
  6
CONTINUOUS
 10
-5.9800250696
 20
-46.2611179003
 11
-6.0805324024
 21
-46.4480391455
  0
LINE
  5
34B
100
AcDbEntity
  8
DRAFT
100
AcDbLine
 62
7
  6
CONTINUOUS
 10
-5.6450006271
 20
-46.0462822212
 11
-5.7455079598
 21
-46.2332034664
  0
LINE
  5
34C
100
AcDbEntity
  8
DRAFT
100
AcDbLine
 62
7
  6
CONTINUOUS
 10
-5.3099761845
 20
-45.8314465422
 11
-5.4104835173
 21
-46.0183677874
  0
LINE
  5
34D
100
AcDbEntity
  8
DRAFT
100
AcDbLine
 62
7
  6
CONTINUOUS
 10
-4.974951742
 20
-45.6166108631
 11
-5.0754590748
 21
-45.8035321083
  0
LINE
  5
34E
100
AcDbEntity
  8
DRAFT
100
AcDbLine
 62
7
  6
CONTINUOUS
 10
-4.6399272995
 20
-45.401775184
 11
-4.7404346322
 21
-45.5886964293
  0
LINE
  5
34F
100
AcDbEntity
  8
DRAFT
100
AcDbLine
 62
7
  6
CONTINUOUS
 10
-10.6423220093
 20
-43.9774406729
 11
-10.6595420306
 21
-44.0052862299
  0
LINE
  5
350
100
AcDbEntity
  8
DRAFT
100
AcDbLine
 62
7
  6
CONTINUOUS
 10
-10.2702396707
 20
-43.7840017586
 11
-10.3818643723
 21
-43.9645039744
  0
LINE
  5
351
100
AcDbEntity
  8
DRAFT
100
AcDbLine
 62
7
  6
CONTINUOUS
 10
-9.898157332
 20
-43.5905628443
 11
-10.0097820336
 21
-43.7710650601
  0
LINE
  5
352
100
AcDbEntity
  8
DRAFT
100
AcDbLine
 62
7
  6
CONTINUOUS
 10
-9.5260749934
 20
-43.3971239301
 11
-9.637699695
 21
-43.5776261459
  0
LINE
  5
353
100
AcDbEntity
  8
DRAFT
100
AcDbLine
 62
7
  6
CONTINUOUS
 10
-9.1539926547
 20
-43.2036850158
 11
-9.2656173563
 21
-43.3841872316
  0
LINE
  5
354
100
AcDbEntity
  8
DRAFT
100
AcDbLine
 62
7
  6
CONTINUOUS
 10
-8.7819103161
 20
-43.0102461015
 11
-8.8935350177
 21
-43.1907483173
  0
LINE
  5
355
100
AcDbEntity
  8
RACCORDO
100
AcDbLine
 62
7
  6
CONTINUOUS
 10
-16.2922156929
 20
-29.5830634077
 11
-16.4689923882
 21
-29.6958294045
  0
LINE
  5
356
100
AcDbEntity
  8
DRAFT
100
AcDbLine
 62
7
  6
CONTINUOUS
 10
-16.6811244225
 20
-29.8311486008
 11
-16.8225457787
 21
-29.9213613982
  0
LINE
  5
357
100
AcDbEntity
  8
DRAFT
100
AcDbLine
 62
7
  6
CONTINUOUS
 10
-17.0346778131
 20
-30.0566805944
 11
-17.1760991693
 21
-30.1468933919
  0
LINE
  5
358
100
AcDbEntity
  8
DRAFT
100
AcDbLine
 62
7
  6
CONTINUOUS
 10
-17.3882312037
 20
-30.2822125881
 11
-17.5296525599
 21
-30.3724253856
  0
LINE
  5
359
100
AcDbEntity
  8
DRAFT
100
AcDbLine
 62
7
  6
CONTINUOUS
 10
-17.7417845943
 20
-30.5077445818
 11
-17.8832059505
 21
-30.5979573793
  0
LINE
  5
35A
100
AcDbEntity
  8
DRAFT
100
AcDbLine
 62
7
  6
CONTINUOUS
 10
-18.0953379849
 20
-30.7332765755
 11
-18.2367593411
 21
-30.823489373
  0
LINE
  5
35B
100
AcDbEntity
  8
RACCORDO
100
AcDbLine
 62
7
  6
CONTINUOUS
 10
-16.2922156929
 20
-24.8218621659
 11
-16.4689923882
 21
-24.9132334657
  0
LINE
  5
35C
100
AcDbEntity
  8
DRAFT
100
AcDbLine
 62
7
  6
CONTINUOUS
 10
-16.6811244225
 20
-25.0228790255
 11
-16.8225457787
 21
-25.0959760653
  0
LINE
  5
35D
100
AcDbEntity
  8
DRAFT
100
AcDbLine
 62
7
  6
CONTINUOUS
 10
-17.0346778131
 20
-25.2056216251
 11
-17.1760991693
 21
-25.2787186649
  0
LINE
  5
35E
100
AcDbEntity
  8
DRAFT
100
AcDbLine
 62
7
  6
CONTINUOUS
 10
-17.3882312037
 20
-25.3883642247
 11
-17.5296525599
 21
-25.4614612646
  0
LINE
  5
35F
100
AcDbEntity
  8
DRAFT
100
AcDbLine
 62
7
  6
CONTINUOUS
 10
-17.7417845943
 20
-25.5711068244
 11
-17.8832059505
 21
-25.6442038642
  0
LINE
  5
360
100
AcDbEntity
  8
DRAFT
100
AcDbLine
 62
7
  6
CONTINUOUS
 10
-18.0953379849
 20
-25.753849424
 11
-18.2367593411
 21
-25.8269464639
  0
LINE
  5
361
100
AcDbEntity
  8
RACCORDO
100
AcDbLine
 62
7
  6
CONTINUOUS
 10
-16.9314615725
 20
-24.5286192426
 11
-18.2693203446
 21
-25.1950085669
  0
LINE
  5
362
100
AcDbEntity
  8
RACCORDO
100
AcDbLine
 62
250
  6
CONTINUOUS
 10
-16.7384716053
 20
-24.5520509573
 11
-18.2693203446
 21
-25.314568854
  0
LWPOLYLINE
  5
363
100
AcDbEntity
  8
RACCORDO
100
AcDbPolyline
 62
7
  6
CONTINUOUS
 90
10
 70
0
 10
-8.3381578668
 20
14.7192366415
 10
-8.3619029932
 20
14.7239797236
 10
-8.3855633132
 20
14.7266809936
 10
-8.40930072
 20
14.7273858878
 10
-8.4328593004
 20
14.7260974318
 10
-8.455971957
 20
14.7228663195
 10
-8.4787686712
 20
14.7176838561
 10
-8.5011054914
 20
14.7105662694
 10
-8.5226271093
 20
14.701623739
 10
-8.5294146383
 20
14.698343861
  0
LWPOLYLINE
  5
364
100
AcDbEntity
  8
RACCORDO
100
AcDbPolyline
 62
7
  6
CONTINUOUS
 90
11
 70
0
 10
11.5228553903
 20
3.1531764026
 10
11.5188121886
 20
3.1755774595
 10
11.5127482237
 20
3.1975178616
 10
11.5047137704
 20
3.218815736
 10
11.4947754341
 20
3.2392945317
 10
11.483015602
 20
3.2587844804
 10
11.4695317721
 20
3.2771239932
 10
11.4544357414
 20
3.2941610181
 10
11.4378526746
 20
3.309754306
 10
11.4199200465
 20
3.3237745962
 10
11.400064443
 20
3.3365241655
  0
LWPOLYLINE
  5
365
100
AcDbEntity
  8
RACCORDO
100
AcDbPolyline
 62
7
  6
CONTINUOUS
 90
8
 70
0
 10
-4.4431682257
 20
-45.8992707711
 10
-4.4274380133
 20
-45.8729129314
 10
-4.4139489408
 20
-45.8448946751
 10
-4.4028993518
 20
-45.8154945667
 10
-4.3944222736
 20
-45.7849733517
 10
-4.3885843156
 20
-45.7535343516
 10
-4.3854326884
 20
-45.721375371
 10
-4.3848411021
 20
-45.6999486347
  0
LINE
  5
366
100
AcDbEntity
  8
0
100
AcDbLine
 62
250
  6
CONTINUOUS
 10
-18.9792214614
 20
-40.2663580918
 11
-19.8186673374
 21
-40.8358444023
  0
LINE
  5
367
100
AcDbEntity
  8
0
100
AcDbLine
 62
250
  6
CONTINUOUS
 10
-18.9049752493
 20
18.2929686204
 11
-18.8059803
 21
18.2929686204
  0
LINE
  5
368
100
AcDbEntity
  8
0
100
AcDbLine
 62
250
  6
CONTINUOUS
 10
-18.5514218587
 20
18.497105917
 11
-18.4524269094
 21
18.497105917
  0
LWPOLYLINE
  5
369
100
AcDbEntity
  8
RACCORDO
100
AcDbPolyline
 62
7
  6
CONTINUOUS
 90
3
 70
0
 10
-16.599669879
 20
33.4261828988
 10
-16.6192534144
 20
33.4367545208
 10
-16.6486201146
 20
33.4500076044
  0
LINE
  5
36A
100
AcDbEntity
  8
RACCORDO
100
AcDbLine
 62
250
  6
CONTINUOUS
 10
-16.7384716053
 20
33.417338695
 11
-16.6964391506
 21
33.3930696824
  0
LINE
  5
36B
100
AcDbEntity
  8
RACCORDO
100
AcDbLine
 62
7
  6
CONTINUOUS
 10
-16.5996684899
 20
33.4261853125
 11
-16.5679510784
 21
33.4078721566
  0
LINE
  5
36C
100
AcDbEntity
  8
RACCORDO
100
AcDbLine
 62
250
  6
CONTINUOUS
 10
25.3976086564
 20
-46.2973452176
 11
25.3976086564
 21
11.6720467465
  0
LINE
  5
36D
100
AcDbEntity
  8
RACCORDO
100
AcDbLine
 62
250
  6
CONTINUOUS
 10
26.4949383935
 20
-46.2067122886
 11
26.4949383935
 21
11.7626819948
  0
LINE
  5
36E
100
AcDbEntity
  8
0
100
AcDbLine
 62
250
  6
CONTINUOUS
 10
-19.0110412665
 20
-39.7376622209
 11
-18.9049752493
 21
-39.6764210319
  0
LINE
  5
36F
100
AcDbEntity
  8
0
100
AcDbLine
 62
250
  6
CONTINUOUS
 10
-18.6574878759
 20
-39.5335249243
 11
-18.5514218587
 21
-39.4722837353
  0
LINE
  5
370
100
AcDbEntity
  8
0
100
AcDbLine
 62
250
  6
CONTINUOUS
 10
-18.3425436493
 20
-39.408831573
 11
-18.4524269094
 21
-39.4722837353
  0
LINE
  5
371
100
AcDbEntity
  8
0
100
AcDbLine
 62
250
  6
CONTINUOUS
 10
-18.6574878759
 20
-39.5906833673
 11
-18.8059803
 21
-39.6764210319
  0
LINE
  5
372
100
AcDbEntity
  8
0
100
AcDbLine
 62
250
  6
CONTINUOUS
 10
-19.0110412665
 20
-39.794820664
 11
-19.1913552042
 21
-39.8989316718
  0
LINE
  5
373
100
AcDbEntity
  8
0
100
AcDbLine
 62
250
  6
CONTINUOUS
 10
-18.4453558416
 20
-39.9581068284
 11
-18.5938482656
 21
-40.043844493
  0
LINE
  5
374
100
AcDbEntity
  8
0
100
AcDbLine
 62
250
  6
CONTINUOUS
 10
-18.7989092322
 20
-40.162244125
 11
-18.9792231699
 21
-40.2663551328
  0
LINE
  5
375
100
AcDbEntity
  8
0
100
AcDbLine
 62
250
  6
CONTINUOUS
 10
-18.1304074009
 20
-39.7762644123
 11
-18.240294875
 21
-39.8397071963
  0
LINE
  5
376
100
AcDbEntity
  8
0
100
AcDbLine
 62
250
  6
CONTINUOUS
 10
-18.7494117575
 20
-40.1908178229
 11
-18.6433457403
 21
-40.1295766339
  0
LINE
  5
377
100
AcDbEntity
  8
0
100
AcDbLine
 62
250
  6
CONTINUOUS
 10
-18.3958583669
 20
-39.9866805262
 11
-18.2897923497
 21
-39.9254393372
  0
LINE
  5
378
100
AcDbEntity
  8
0
100
AcDbLine
 62
250
  6
CONTINUOUS
 10
-19.1913534957
 20
-39.8989346308
 11
-20.1042413695
 21
-40.3412156698
  0
LWPOLYLINE
  5
379
100
AcDbEntity
  8
RACCORDO
100
AcDbPolyline
 62
7
  6
CONTINUOUS
 90
6
 70
0
 10
-16.6787016418
 20
33.4605882566
 10
-16.7093038332
 20
33.4684380351
 10
-16.7402186178
 20
33.4735130495
 10
-16.7711566468
 20
33.4757981382
 10
-16.8017817268
 20
33.4753247858
 10
-16.8318797354
 20
33.4721632976
  0
LINE
  5
37A
100
AcDbEntity
  8
RACCORDO
100
AcDbLine
 62
7
  6
CONTINUOUS
 10
-16.6486201146
 20
33.4500076044
 11
-16.6787016418
 21
33.4605882566
  0
LINE
  5
37B
100
AcDbEntity
  8
0
100
AcDbLine
 62
7
  6
CONTINUOUS
 10
30.129344492
 20
43.8483201808
 11
30.129344492
 21
-74.5398699542
  0
LINE
  5
37C
100
AcDbEntity
  8
DRAFT
100
AcDbLine
 62
7
  6
CONTINUOUS
 10
5.2675805673
 20
-53.1636190228
 11
5.2503605461
 21
-53.1914645798
  0
LINE
  5
37D
100
AcDbEntity
  8
DRAFT
100
AcDbLine
 62
7
  6
CONTINUOUS
 10
5.639662906
 20
-52.9701801085
 11
5.5280382044
 21
-53.1506823243
  0
LINE
  5
37E
100
AcDbEntity
  8
DRAFT
100
AcDbLine
 62
7
  6
CONTINUOUS
 10
6.0117452447
 20
-52.7767411942
 11
5.9001205431
 21
-52.95724341
  0
LINE
  5
37F
100
AcDbEntity
  8
DRAFT
100
AcDbLine
 62
7
  6
CONTINUOUS
 10
6.3838275833
 20
-52.5833022799
 11
6.2722028817
 21
-52.7638044957
  0
LINE
  5
380
100
AcDbEntity
  8
DRAFT
100
AcDbLine
 62
7
  6
CONTINUOUS
 10
6.755909922
 20
-52.3898633656
 11
6.6442852204
 21
-52.5703655814
  0
LINE
  5
381
100
AcDbEntity
  8
DRAFT
100
AcDbLine
 62
7
  6
CONTINUOUS
 10
7.1279922606
 20
-52.1964244514
 11
7.016367559
 21
-52.3769266672
  0
LINE
  5
382
100
AcDbEntity
  8
RACCORDO
100
AcDbLine
 62
7
  6
CONTINUOUS
 10
-8.5958691468
 20
-42.9135266444
 11
-8.7819103161
 21
-43.0102461015
  0
LINE
  5
383
100
AcDbEntity
  8
DRAFT
100
AcDbLine
 62
7
  6
CONTINUOUS
 10
-9.0051597193
 20
-43.1263094501
 11
-9.1539926547
 21
-43.2036850158
  0
LINE
  5
384
100
AcDbEntity
  8
DRAFT
100
AcDbLine
 62
7
  6
CONTINUOUS
 10
-9.3772420579
 20
-43.3197483643
 11
-9.5260749934
 21
-43.3971239301
  0
LINE
  5
385
100
AcDbEntity
  8
DRAFT
100
AcDbLine
 62
7
  6
CONTINUOUS
 10
-9.7493243966
 20
-43.5131872786
 11
-9.898157332
 21
-43.5905628443
  0
LINE
  5
386
100
AcDbEntity
  8
DRAFT
100
AcDbLine
 62
7
  6
CONTINUOUS
 10
-10.1214067352
 20
-43.7066261929
 11
-10.2702396707
 21
-43.7840017586
  0
LINE
  5
387
100
AcDbEntity
  8
DRAFT
100
AcDbLine
 62
7
  6
CONTINUOUS
 10
-10.4934890739
 20
-43.9000651072
 11
-10.6423220093
 21
-43.9774406729
  0
LINE
  5
388
100
AcDbEntity
  8
DRAFT
100
AcDbLine
 62
7
  6
CONTINUOUS
 10
9.5948530646
 20
-55.6621319292
 11
9.5793480878
 21
-55.6909677314
  0
LINE
  5
389
100
AcDbEntity
  8
DRAFT
100
AcDbLine
 62
7
  6
CONTINUOUS
 10
9.9298775071
 20
-55.4472962501
 11
9.8293701743
 21
-55.6342174954
  0
LINE
  5
38A
100
AcDbEntity
  8
DRAFT
100
AcDbLine
 62
7
  6
CONTINUOUS
 10
10.2649019496
 20
-55.2324605711
 11
10.1643946169
 21
-55.4193818163
  0
LINE
  5
38B
100
AcDbEntity
  8
DRAFT
100
AcDbLine
 62
7
  6
CONTINUOUS
 10
10.5999263922
 20
-55.017624892
 11
10.4994190594
 21
-55.2045461373
  0
LINE
  5
38C
100
AcDbEntity
  8
DRAFT
100
AcDbLine
 62
7
  6
CONTINUOUS
 10
10.9349508347
 20
-54.802789213
 11
10.8344435019
 21
-54.9897104582
  0
LINE
  5
38D
100
AcDbEntity
  8
DRAFT
100
AcDbLine
 62
7
  6
CONTINUOUS
 10
11.2699752772
 20
-54.5879535339
 11
11.1694679445
 21
-54.7748747792
  0
LWPOLYLINE
  5
38E
100
AcDbEntity
  8
RACCORDO
100
AcDbPolyline
 62
7
  6
CONTINUOUS
 90
8
 70
0
 10
11.466734351
 20
-55.085449121
 10
11.4824645634
 20
-55.0590912813
 10
11.4959536359
 20
-55.0310730249
 10
11.5070032249
 20
-55.0016729166
 10
11.5154803031
 20
-54.9711517016
 10
11.5213182611
 20
-54.9397127015
 10
11.5244698883
 20
-54.9075537209
 10
11.5250614746
 20
-54.8861269846
  0
LWPOLYLINE
  5
38F
100
AcDbEntity
  8
RACCORDO
100
AcDbPolyline
 62
7
  6
CONTINUOUS
 90
6
 70
0
 10
-4.5382665293
 20
-45.994665587
 10
-4.524968139
 20
-45.9853941941
 10
-4.502109982
 20
-45.9670220313
 10
-4.4806886327
 20
-45.9464494362
 10
-4.4609704713
 20
-45.9238190703
 10
-4.4431682257
 20
-45.8992707711
  0
LINE
  5
390
100
AcDbEntity
  8
RACCORDO
100
AcDbLine
 62
250
  6
CONTINUOUS
 10
-5.887809013
 20
-46.7604250704
 11
-4.4618947835
 21
-45.8157238796
  0
LINE
  5
391
100
AcDbEntity
  8
RACCORDO
100
AcDbLine
 62
7
  6
CONTINUOUS
 10
-5.7842987477
 20
-46.8201906003
 11
-4.5380760881
 21
-45.9945392349
  0
LINE
  5
392
100
AcDbEntity
  8
RACCORDO
100
AcDbLine
 62
7
  6
CONTINUOUS
 10
-4.4724150782
 20
-45.2943573445
 11
-4.6399272995
 21
-45.401775184
  0
LINE
  5
393
100
AcDbEntity
  8
DRAFT
100
AcDbLine
 62
7
  6
CONTINUOUS
 10
-4.840941965
 20
-45.5306765915
 11
-4.974951742
 21
-45.6166108631
  0
LINE
  5
394
100
AcDbEntity
  8
DRAFT
100
AcDbLine
 62
7
  6
CONTINUOUS
 10
-5.1759664075
 20
-45.7455122705
 11
-5.3099761845
 21
-45.8314465422
  0
LINE
  5
395
100
AcDbEntity
  8
DRAFT
100
AcDbLine
 62
7
  6
CONTINUOUS
 10
-5.5109908501
 20
-45.9603479496
 11
-5.6450006271
 21
-46.0462822212
  0
LINE
  5
396
100
AcDbEntity
  8
DRAFT
100
AcDbLine
 62
7
  6
CONTINUOUS
 10
-5.8460152926
 20
-46.1751836286
 11
-5.9800250696
 21
-46.2611179003
  0
LINE
  5
397
100
AcDbEntity
  8
DRAFT
100
AcDbLine
 62
7
  6
CONTINUOUS
 10
-6.1810397351
 20
-46.3900193077
 11
-6.3150495121
 21
-46.4759535793
  0
LWPOLYLINE
  5
398
100
AcDbEntity
  8
RACCORDO
100
AcDbPolyline
 62
7
  6
CONTINUOUS
 90
5
 70
0
 10
-16.8318797354
 20
33.4721632976
 10
-16.8612756741
 20
33.4663942886
 10
-16.8897421916
 20
33.4581320311
 10
-16.9170254674
 20
33.4475348153
 10
-16.9316539151
 20
33.4406747781
  0
LWPOLYLINE
  5
399
100
AcDbEntity
  8
RACCORDO
100
AcDbPolyline
 62
7
  6
CONTINUOUS
 90
9
 70
0
 10
-16.599669879
 20
51.7967641267
 10
-16.6192534144
 20
51.8073357487
 10
-16.6486201146
 20
51.8205888322
 10
-16.6787016418
 20
51.8311694845
 10
-16.7093038332
 20
51.8390192629
 10
-16.7402186178
 20
51.8440942774
 10
-16.7711566468
 20
51.8463793661
 10
-16.8017817268
 20
51.8459060137
 10
-16.8318797354
 20
51.8427445254
  0
LINE
  5
39A
100
AcDbEntity
  8
RACCORDO
100
AcDbLine
 62
250
  6
CONTINUOUS
 10
-16.7384716053
 20
51.7879199228
 11
-16.2814042796
 21
51.5240149773
  0
LINE
  5
39B
100
AcDbEntity
  8
RACCORDO
100
AcDbLine
 62
7
  6
CONTINUOUS
 10
-16.5996684899
 20
51.7967665403
 11
-16.2049766055
 21
51.568876473
  0
LINE
  5
39C
100
AcDbEntity
  8
0
100
AcDbLine
 62
7
  6
CONTINUOUS
 10
11.209188682
 20
35.9406722769
 11
-20.2570630808
 21
54.10889168
  0
LINE
  5
39D
100
AcDbEntity
  8
RACCORDO
100
AcDbLine
 62
250
  6
CONTINUOUS
 10
3.7208000447
 20
41.2610878225
 11
-12.8960132329
 21
50.8554275514
  0
LINE
  5
39E
100
AcDbEntity
  8
RACCORDO
100
AcDbLine
 62
250
  6
CONTINUOUS
 10
4.1460135212
 20
42.8160129817
 11
-12.4708977965
 21
52.4104093177
  0
LINE
  5
39F
100
AcDbEntity
  8
RACCORDO
100
AcDbLine
 62
7
  6
CONTINUOUS
 10
7.3140334299
 20
-52.0997049942
 11
7.1279922606
 21
-52.1964244514
  0
LINE
  5
3A0
100
AcDbEntity
  8
DRAFT
100
AcDbLine
 62
7
  6
CONTINUOUS
 10
6.9047428574
 20
-52.3124877999
 11
6.755909922
 21
-52.3898633656
  0
LINE
  5
3A1
100
AcDbEntity
  8
DRAFT
100
AcDbLine
 62
7
  6
CONTINUOUS
 10
6.5326605188
 20
-52.5059267142
 11
6.3838275833
 21
-52.5833022799
  0
LINE
  5
3A2
100
AcDbEntity
  8
DRAFT
100
AcDbLine
 62
7
  6
CONTINUOUS
 10
6.1605781801
 20
-52.6993656285
 11
6.0117452447
 21
-52.7767411942
  0
LINE
  5
3A3
100
AcDbEntity
  8
DRAFT
100
AcDbLine
 62
7
  6
CONTINUOUS
 10
5.7884958415
 20
-52.8928045428
 11
5.639662906
 21
-52.9701801085
  0
LINE
  5
3A4
100
AcDbEntity
  8
DRAFT
100
AcDbLine
 62
7
  6
CONTINUOUS
 10
5.4164135028
 20
-53.086243457
 11
5.2675805673
 21
-53.1636190228
  0
LINE
  5
3A5
100
AcDbEntity
  8
DRAFT
100
AcDbLine
 62
7
  6
CONTINUOUS
 10
-18.2487327565
 20
45.5161192314
 11
-18.2367593411
 21
45.5164815071
  0
LINE
  5
3A6
100
AcDbEntity
  8
DRAFT
100
AcDbLine
 62
7
  6
CONTINUOUS
 10
-18.0953379849
 20
45.7355950917
 11
-17.8832059505
 21
45.7420135008
  0
LINE
  5
3A7
100
AcDbEntity
  8
DRAFT
100
AcDbLine
 62
7
  6
CONTINUOUS
 10
-17.7417845943
 20
45.9611270854
 11
-17.5296525599
 21
45.9675454945
  0
LINE
  5
3A8
100
AcDbEntity
  8
DRAFT
100
AcDbLine
 62
7
  6
CONTINUOUS
 10
-17.3882312037
 20
46.1866590791
 11
-17.1760991693
 21
46.1930774882
  0
LINE
  5
3A9
100
AcDbEntity
  8
DRAFT
100
AcDbLine
 62
7
  6
CONTINUOUS
 10
-17.0346778131
 20
46.4121910728
 11
-16.8225457787
 21
46.4186094819
  0
LINE
  5
3AA
100
AcDbEntity
  8
DRAFT
100
AcDbLine
 62
7
  6
CONTINUOUS
 10
-16.6811244225
 20
46.6377230665
 11
-16.4689923882
 21
46.6441414756
  0
LINE
  5
3AB
100
AcDbEntity
  8
DRAFT
100
AcDbLine
 62
7
  6
CONTINUOUS
 10
-18.2487327565
 20
50.513386692
 11
-18.2367593411
 21
50.5130244163
  0
LINE
  5
3AC
100
AcDbEntity
  8
DRAFT
100
AcDbLine
 62
7
  6
CONTINUOUS
 10
-18.0953379849
 20
50.702185425
 11
-17.8832059505
 21
50.6957670159
  0
LINE
  5
3AD
100
AcDbEntity
  8
DRAFT
100
AcDbLine
 62
7
  6
CONTINUOUS
 10
-17.7417845943
 20
50.8849280247
 11
-17.5296525599
 21
50.8785096155
  0
LINE
  5
3AE
100
AcDbEntity
  8
DRAFT
100
AcDbLine
 62
7
  6
CONTINUOUS
 10
-17.3882312037
 20
51.0676706243
 11
-17.1760991693
 21
51.0612522152
  0
LINE
  5
3AF
100
AcDbEntity
  8
DRAFT
100
AcDbLine
 62
7
  6
CONTINUOUS
 10
-17.0346778131
 20
51.2504132239
 11
-16.8225457787
 21
51.2439948148
  0
LINE
  5
3B0
100
AcDbEntity
  8
DRAFT
100
AcDbLine
 62
7
  6
CONTINUOUS
 10
-16.6811244225
 20
51.4331558236
 11
-16.4689923882
 21
51.4267374145
  0
LINE
  5
3B1
100
AcDbEntity
  8
RACCORDO
100
AcDbLine
 62
250
  6
CONTINUOUS
 10
6.0844829459
 20
54.7168944379
 11
-10.5325458438
 21
64.3113586008
  0
LWPOLYLINE
  5
3B2
100
AcDbEntity
  8
RACCORDO
100
AcDbPolyline
 62
7
  6
CONTINUOUS
 90
6
 70
0
 10
11.3716360474
 20
-55.1808439369
 10
11.3849344377
 20
-55.1715725439
 10
11.4077925947
 20
-55.1532003811
 10
11.429213944
 20
-55.1326277861
 10
11.4489321054
 20
-55.1099974202
 10
11.466734351
 20
-55.085449121
  0
LINE
  5
3B3
100
AcDbEntity
  8
0
100
AcDbLine
 62
250
  6
CONTINUOUS
 10
11.6992029007
 20
-58.9690454488
 11
11.6475844254
 21
-59.0040638054
  0
LINE
  5
3B4
100
AcDbEntity
  8
RACCORDO
100
AcDbLine
 62
250
  6
CONTINUOUS
 10
10.0220935637
 20
-55.9466034203
 11
11.4480077932
 21
-55.0019022295
  0
LINE
  5
3B5
100
AcDbEntity
  8
RACCORDO
100
AcDbLine
 62
7
  6
CONTINUOUS
 10
10.125603829
 20
-56.0063689502
 11
11.3718264886
 21
-55.1807175848
  0
LINE
  5
3B6
100
AcDbEntity
  8
RACCORDO
100
AcDbLine
 62
7
  6
CONTINUOUS
 10
11.4374874985
 20
-54.4805356944
 11
11.2699752772
 21
-54.5879535339
  0
LINE
  5
3B7
100
AcDbEntity
  8
DRAFT
100
AcDbLine
 62
7
  6
CONTINUOUS
 10
11.0689606117
 20
-54.7168549414
 11
10.9349508347
 21
-54.802789213
  0
LINE
  5
3B8
100
AcDbEntity
  8
DRAFT
100
AcDbLine
 62
7
  6
CONTINUOUS
 10
10.7339361692
 20
-54.9316906204
 11
10.5999263922
 21
-55.017624892
  0
LINE
  5
3B9
100
AcDbEntity
  8
DRAFT
100
AcDbLine
 62
7
  6
CONTINUOUS
 10
10.3989117266
 20
-55.1465262995
 11
10.2649019496
 21
-55.2324605711
  0
LINE
  5
3BA
100
AcDbEntity
  8
DRAFT
100
AcDbLine
 62
7
  6
CONTINUOUS
 10
10.0638872841
 20
-55.3613619785
 11
9.9298775071
 21
-55.4472962501
  0
LINE
  5
3BB
100
AcDbEntity
  8
DRAFT
100
AcDbLine
 62
7
  6
CONTINUOUS
 10
9.7288628416
 20
-55.5761976576
 11
9.5948530646
 21
-55.6621319292
  0
LWPOLYLINE
  5
3BC
100
AcDbEntity
  8
RACCORDO
100
AcDbPolyline
 62
7
  6
CONTINUOUS
 90
5
 70
0
 10
-16.8318797354
 20
51.8427445254
 10
-16.8612756741
 20
51.8369755164
 10
-16.8897421916
 20
51.828713259
 10
-16.9170254674
 20
51.8181160431
 10
-16.9316539151
 20
51.8112560059
  0
LINE
  5
3BD
100
AcDbEntity
  8
RACCORDO
100
AcDbLine
 62
250
  6
CONTINUOUS
 10
6.711657201
 20
55.6219470796
 11
-9.9053910205
 21
65.2164224621
  0
LINE
  5
3BE
100
AcDbEntity
  8
RACCORDO
100
AcDbLine
 62
7
  6
CONTINUOUS
 10
2.5817614229
 20
60.4789662991
 11
-1.7200420585
 21
62.962773715
  0
LINE
  5
3BF
100
AcDbEntity
  8
RACCORDO
100
AcDbLine
 62
7
  6
CONTINUOUS
 10
-24.3178776593
 20
77.7348746974
 11
-1.0775001376
 21
64.3161719867
  0
LINE
  5
3C0
100
AcDbEntity
  8
RACCORDO
100
AcDbLine
 62
7
  6
CONTINUOUS
 10
4.7676466267
 20
60.9412575019
 11
28.0080241485
 21
47.5225547912
  0
LINE
  5
3C1
100
AcDbEntity
  8
RACCORDO
100
AcDbLine
 62
250
  6
CONTINUOUS
 10
30.129344492
 20
-74.5398699542
 11
26.6030893205
 21
-76.3602779473
  0
LINE
  5
3C2
100
AcDbEntity
  8
RACCORDO
100
AcDbLine
 62
7
  6
CONTINUOUS
 10
26.0077952081
 20
-77.6290628805
 11
26.0082205335
 21
-77.6288545397
  0
LINE
  5
3C3
100
AcDbEntity
  8
SUPERFICI
100
AcDbLine
 62
7
  6
CONTINUOUS
 10
29.4476296806
 20
-75.9452855501
 11
26.0076748724
 21
-77.6291217842
  0
ARC
  5
3C4
100
AcDbEntity
  8
RACCORDO
100
AcDbCircle
 62
250
  6
CONTINUOUS
 10
-2045.4016336543
 20
-3508.8205005437
 40
4100.5813590675
100
AcDbArc
 50
59.8922327238
 51
60.011986694
  0
ARC
  5
3C5
100
AcDbEntity
  8
RACCORDO
100
AcDbCircle
 62
250
  6
CONTINUOUS
 10
-2044.9680929124
 20
-3465.7905874109
 40
4063.1001835561
100
AcDbArc
 50
59.9845779143
 51
60.1050816372
  0
ARC
  5
3C6
100
AcDbEntity
  8
RACCORDO
100
AcDbCircle
 62
250
  6
CONTINUOUS
 10
-17.8434199386
 20
-39.3663522058
 40
0.5045185812
100
AcDbArc
 50
197.0903208605
 51
202.5747700537
  0
ARC
  5
3C7
100
AcDbEntity
  8
RACCORDO
100
AcDbCircle
 62
250
  6
CONTINUOUS
 10
-17.8466089155
 20
-39.3674027398
 40
0.501182703
100
AcDbArc
 50
202.5998206689
 51
222.9277434729
  0
ARC
  5
3C8
100
AcDbEntity
  8
RACCORDO
100
AcDbCircle
 62
250
  6
CONTINUOUS
 10
-17.945516017
 20
-39.3978570139
 40
0.3976722108
100
AcDbArc
 50
194.2854603433
 51
197.0745066896
  0
ARC
  5
3C9
100
AcDbEntity
  8
RACCORDO
100
AcDbCircle
 62
250
  6
CONTINUOUS
 10
-17.9224033625
 20
-39.4379306526
 40
0.3976501758
100
AcDbArc
 50
222.924900964
 51
225.7142159676
  0
ARC
  5
3CA
100
AcDbEntity
  8
RACCORDO
100
AcDbCircle
 62
250
  6
CONTINUOUS
 10
-18.0283156573
 20
-40.0185304634
 40
0.3421596001
100
AcDbArc
 50
116.681505109
 51
120.128133537
  0
ARC
  5
3CB
100
AcDbEntity
  8
RACCORDO
100
AcDbCircle
 62
250
  6
CONTINUOUS
 10
-20.0863714537
 20
-3.5658200737
 40
0.3405413877
100
AcDbArc
 50
226.5781873919
 51
239.9185109068
  0
ARC
  5
3CC
100
AcDbEntity
  8
RACCORDO
100
AcDbCircle
 62
250
  6
CONTINUOUS
 10
-16.6671950128
 20
-10.6376943298
 40
0.2697318473
100
AcDbArc
 50
301.2991033358
 51
303.0917999475
  0
ARC
  5
3CD
100
AcDbEntity
  8
RACCORDO
100
AcDbCircle
 62
250
  6
CONTINUOUS
 10
-16.7320518241
 20
-10.878495115
 40
0.2052438647
100
AcDbArc
 50
357.2619559934
 51
2.8832131405
  0
ARC
  5
3CE
100
AcDbEntity
  8
RACCORDO
100
AcDbCircle
 62
7
  6
CONTINUOUS
 10
-8.5237663772
 20
-43.0388385671
 40
0.1443075588
100
AcDbArc
 50
106.696021335
 51
114.7513264085
  0
ARC
  5
3CF
100
AcDbEntity
  8
RACCORDO
100
AcDbCircle
 62
250
  6
CONTINUOUS
 10
-4.6156346027
 20
-45.8775480482
 40
0.1403637845
100
AcDbArc
 50
303.5373614714
 51
305.6795380258
  0
ARC
  5
3D0
100
AcDbEntity
  8
RACCORDO
100
AcDbCircle
 62
250
  6
CONTINUOUS
 10
-16.8689411592
 20
-6.283616758
 40
0.1402802829
100
AcDbArc
 50
114.8075064239
 51
116.4664260133
  0
ARC
  5
3D1
100
AcDbEntity
  8
RACCORDO
100
AcDbCircle
 62
250
  6
CONTINUOUS
 10
-16.8689411592
 20
-24.6541979858
 40
0.1402802829
100
AcDbArc
 50
114.8075064249
 51
116.4664260134
  0
ARC
  5
3D2
100
AcDbEntity
  8
RACCORDO
100
AcDbCircle
 62
250
  6
CONTINUOUS
 10
-16.6498678537
 20
-6.2597513685
 40
0.100543408
100
AcDbArc
 50
60.0514018769
 51
62.4011472662
  0
ARC
  5
3D3
100
AcDbEntity
  8
RACCORDO
100
AcDbCircle
 62
250
  6
CONTINUOUS
 10
-18.3534254435
 20
-39.3067613126
 40
0.0840936029
100
AcDbArc
 50
354.6568885637
 51
359.9941697986
  0
ARC
  5
3D4
100
AcDbEntity
  8
RACCORDO
100
AcDbCircle
 62
250
  6
CONTINUOUS
 10
-18.0474448812
 20
-39.8367034579
 40
0.0840779927
100
AcDbArc
 50
60.0042796219
 51
65.3468668063
  0
ARC
  5
3D5
100
AcDbEntity
  8
RACCORDO
100
AcDbCircle
 62
250
  6
CONTINUOUS
 10
-16.6034667188
 20
-6.2527652832
 40
0.0713035975
100
AcDbArc
 50
60.300359982
 51
67.6052105728
  0
ARC
  5
3D6
100
AcDbEntity
  8
RACCORDO
100
AcDbCircle
 62
250
  6
CONTINUOUS
 10
-18.2869079695
 20
-39.4125860151
 40
0.0322335346
100
AcDbArc
 50
3.3221124426
 51
14.1872511547
  0
ARC
  5
3D7
100
AcDbEntity
  8
RACCORDO
100
AcDbCircle
 62
250
  6
CONTINUOUS
 10
-18.1058383837
 20
-39.726182681
 40
0.0322211767
100
AcDbArc
 50
45.8120066676
 51
56.6833446091
  0
ARC
  5
3D8
100
AcDbEntity
  8
0
100
AcDbCircle
 62
7
  6
CONTINUOUS
 10
-18.4100258756
 20
18.2788143615
 40
3.3648906753
100
AcDbArc
 50
200.7646613001
 51
211.5960900349
  0
ARC
  5
3D9
100
AcDbEntity
  8
RACCORDO
100
AcDbCircle
 62
250
  6
CONTINUOUS
 10
-17.7997573626
 20
18.6288923378
 40
0.5144657096
100
AcDbArc
 50
210.3252339587
 51
216.0597461557
  0
ARC
  5
3DA
100
AcDbEntity
  8
RACCORDO
100
AcDbCircle
 62
250
  6
CONTINUOUS
 10
-20.0885733372
 20
54.4003724262
 40
0.3366720612
100
AcDbArc
 50
231.5509452708
 51
239.9700435851
  0
ARC
  5
3DB
100
AcDbEntity
  8
RACCORDO
100
AcDbCircle
 62
250
  6
CONTINUOUS
 10
-4.6223604877
 20
12.4567068091
 40
0.3008767795
100
AcDbArc
 50
302.2305223211
 51
303.3965977537
  0
ARC
  5
3DC
100
AcDbEntity
  8
RACCORDO
100
AcDbCircle
 62
250
  6
CONTINUOUS
 10
-29.5498649317
 20
74.1195561612
 40
0.2960454026
100
AcDbArc
 50
177.5284757873
 51
179.1651489726
  0
ARC
  5
3DD
100
AcDbEntity
  8
RACCORDO
100
AcDbCircle
 62
250
  6
CONTINUOUS
 10
-16.6671950128
 20
28.9611140947
 40
0.2697318472
100
AcDbArc
 50
301.2991033357
 51
303.0917999476
  0
ARC
  5
3DE
100
AcDbEntity
  8
RACCORDO
100
AcDbCircle
 62
250
  6
CONTINUOUS
 10
-4.5140195106
 20
12.2717592737
 40
0.2669608127
100
AcDbArc
 50
117.7764060364
 51
119.5708436704
  0
ARC
  5
3DF
100
AcDbEntity
  8
RACCORDO
100
AcDbCircle
 62
250
  6
CONTINUOUS
 10
-16.7320518241
 20
28.7203133095
 40
0.2052438647
100
AcDbArc
 50
357.2619559934
 51
2.8832131405
  0
ARC
  5
3E0
100
AcDbEntity
  8
RACCORDO
100
AcDbCircle
 62
250
  6
CONTINUOUS
 10
-4.6156346027
 20
12.0918416041
 40
0.1403637845
100
AcDbArc
 50
303.5373614713
 51
305.6795380262
  0
ARC
  5
3E1
100
AcDbEntity
  8
RACCORDO
100
AcDbCircle
 62
250
  6
CONTINUOUS
 10
-16.8689411592
 20
33.3151916665
 40
0.1402802829
100
AcDbArc
 50
114.8075064234
 51
116.4664260133
  0
ARC
  5
3E2
100
AcDbEntity
  8
RACCORDO
100
AcDbCircle
 62
250
  6
CONTINUOUS
 10
-16.8689411592
 20
51.6857728943
 40
0.140280283
100
AcDbArc
 50
114.8075064215
 51
116.4664260132
  0
ARC
  5
3E3
100
AcDbEntity
  8
RACCORDO
100
AcDbCircle
 62
250
  6
CONTINUOUS
 10
-4.4854122312
 20
12.2695452709
 40
0.1005623783
100
AcDbArc
 50
357.6029187581
 51
359.9406011357
  0
ARC
  5
3E4
100
AcDbEntity
  8
RACCORDO
100
AcDbCircle
 62
250
  6
CONTINUOUS
 10
-16.6498678537
 20
33.339057056
 40
0.100543408
100
AcDbArc
 50
60.051401877
 51
62.4011472661
  0
ARC
  5
3E5
100
AcDbEntity
  8
RACCORDO
100
AcDbCircle
 62
250
  6
CONTINUOUS
 10
-16.6034667188
 20
33.3460431413
 40
0.0713035975
100
AcDbArc
 50
60.3003599818
 51
67.605210573
  0
ARC
  5
3E6
100
AcDbEntity
  8
RACCORDO
100
AcDbCircle
 62
250
  6
CONTINUOUS
 10
24.3906879477
 20
-77.2439616632
 40
0.3069853209
100
AcDbArc
 50
240.6582082686
 51
241.756220604
  0
ARC
  5
3E7
100
AcDbEntity
  8
RACCORDO
100
AcDbCircle
 62
7
  6
CONTINUOUS
 10
7.3861361995
 20
-52.225016917
 40
0.1443075588
100
AcDbArc
 50
106.696021335
 51
114.7513264084
  0
ARC
  5
3E8
100
AcDbEntity
  8
RACCORDO
100
AcDbCircle
 62
250
  6
CONTINUOUS
 10
11.294267974
 20
-55.063726398
 40
0.1403637845
100
AcDbArc
 50
303.5373614713
 51
305.6795380259
  0
ARC
  5
3E9
100
AcDbEntity
  8
RACCORDO
100
AcDbCircle
 62
250
  6
CONTINUOUS
 10
11.287542089
 20
3.2705284591
 40
0.3008767795
100
AcDbArc
 50
302.2305223209
 51
303.3965977539
  0
ARC
  5
3EA
100
AcDbEntity
  8
RACCORDO
100
AcDbCircle
 62
250
  6
CONTINUOUS
 10
11.3958830661
 20
3.0855809238
 40
0.2669608127
100
AcDbArc
 50
117.7764060367
 51
119.5708436704
  0
ARC
  5
3EB
100
AcDbEntity
  8
RACCORDO
100
AcDbCircle
 62
250
  6
CONTINUOUS
 10
11.294267974
 20
2.9056632543
 40
0.1403637845
100
AcDbArc
 50
303.5373614714
 51
305.6795380244
  0
ARC
  5
3EC
100
AcDbEntity
  8
RACCORDO
100
AcDbCircle
 62
250
  6
CONTINUOUS
 10
11.4244903454
 20
3.083366921
 40
0.1005623784
100
AcDbArc
 50
357.6029187581
 51
359.9406011356
  0
SPLINE
  5
3ED
100
AcDbEntity
  8
RACCORDO
100
AcDbSpline
 62
7
  6
CONTINUOUS
 70
0
 71
3
 72
9
 73
5
 74
0
 42
0.0000001
 43
0.0000001
 44
0.0000000001
 40
0.0
 40
0.0
 40
0.0
 40
0.0
 40
0.255239472
 40
1.0
 40
1.0
 40
1.0
 40
1.0
 10
-18.170200545
 20
18.4106761213
 30
0.0
 10
-18.1648608878
 20
18.401549665
 30
0.0
 10
-18.1430847908
 20
18.3663048995
 30
0.0
 10
-18.1180086144
 20
18.3330676578
 30
0.0
 10
-18.0975222205
 20
18.309997832
 30
0.0
  0
SPLINE
  5
3EE
100
AcDbEntity
  8
RACCORDO
100
AcDbSpline
 62
7
  6
CONTINUOUS
 70
0
 71
3
 72
9
 73
5
 74
0
 42
0.0000001
 43
0.0000001
 44
0.0000000001
 40
0.0
 40
0.0
 40
0.0
 40
0.0
 40
0.28282459
 40
1.0
 40
1.0
 40
1.0
 40
1.0
 10
-18.0975222205
 20
18.309997832
 30
0.0
 10
-18.0891140554
 20
18.300529357
 30
0.0
 10
-18.0582798463
 20
18.2681105472
 30
0.0
 10
-18.0231408701
 20
18.2393428106
 30
0.0
 10
-17.9953331529
 20
18.2232869832
 30
0.0
  0
SPLINE
  5
3EF
100
AcDbEntity
  8
RACCORDO
100
AcDbSpline
 62
7
  6
CONTINUOUS
 70
0
 71
3
 72
9
 73
5
 74
0
 42
0.0000001
 43
0.0000001
 44
0.0000000001
 40
0.0
 40
0.0
 40
0.0
 40
0.0
 40
0.2464416958
 40
1.0
 40
1.0
 40
1.0
 40
1.0
 10
7.3446775027
 20
-52.0867930117
 30
0.0
 10
7.3494036866
 20
-52.0853706195
 30
0.0
 10
7.3688599086
 20
-52.0805350589
 30
0.0
 10
7.3891679915
 20
-52.0794243448
 30
0.0
 10
7.4042306396
 20
-52.0803621492
 30
0.0
  0
SPLINE
  5
3F0
100
AcDbEntity
  8
RACCORDO
100
AcDbSpline
 62
7
  6
CONTINUOUS
 70
0
 71
3
 72
9
 73
5
 74
0
 42
0.0000001
 43
0.0000001
 44
0.0000000001
 40
0.0
 40
0.0
 40
0.0
 40
0.0
 40
0.2419466202
 40
1.0
 40
1.0
 40
1.0
 40
1.0
 10
7.4042306396
 20
-52.0803621492
 30
0.0
 10
7.4146889003
 20
-52.0810132833
 30
0.0
 10
7.457709391
 20
-52.0871433091
 30
0.0
 10
7.4984514238
 20
-52.104666416
 30
0.0
 10
7.5268647932
 20
-52.1211143224
 30
0.0
  0
SPLINE
  5
3F1
100
AcDbEntity
  8
RACCORDO
100
AcDbSpline
 62
7
  6
CONTINUOUS
 70
0
 71
3
 72
9
 73
5
 74
0
 42
0.0000001
 43
0.0000001
 44
0.0000000001
 40
0.0
 40
0.0
 40
0.0
 40
0.0
 40
0.2464416958
 40
1.0
 40
1.0
 40
1.0
 40
1.0
 10
-8.565225074
 20
-42.9006146618
 30
0.0
 10
-8.5604988901
 20
-42.8991922696
 30
0.0
 10
-8.5410426681
 20
-42.894356709
 30
0.0
 10
-8.5207345852
 20
-42.8932459949
 30
0.0
 10
-8.5056719371
 20
-42.8941837993
 30
0.0
  0
SPLINE
  5
3F2
100
AcDbEntity
  8
RACCORDO
100
AcDbSpline
 62
7
  6
CONTINUOUS
 70
0
 71
3
 72
9
 73
5
 74
0
 42
0.0000001
 43
0.0000001
 44
0.0000000001
 40
0.0
 40
0.0
 40
0.0
 40
0.0
 40
0.2419466202
 40
1.0
 40
1.0
 40
1.0
 40
1.0
 10
-8.5056719371
 20
-42.8941837993
 30
0.0
 10
-8.4952136764
 20
-42.8948349334
 30
0.0
 10
-8.4521931857
 20
-42.9009649592
 30
0.0
 10
-8.4114511529
 20
-42.9184880661
 30
0.0
 10
-8.3830377835
 20
-42.9349359725
 30
0.0
  0
SPLINE
  5
3F3
100
AcDbEntity
  8
RACCORDO
100
AcDbSpline
 62
7
  6
CONTINUOUS
 70
0
 71
3
 72
8
 73
4
 74
0
 42
0.0000001
 43
0.0000001
 44
0.0000000001
 40
0.0
 40
0.0
 40
0.0
 40
0.0
 40
1.0
 40
1.0
 40
1.0
 40
1.0
 10
-16.2814042796
 20
-29.5758134903
 30
0.0
 10
-16.2704383451
 20
-29.568081258
 30
0.0
 10
-16.2605346102
 20
-29.5586727588
 30
0.0
 10
-16.2520151175
 20
-29.5483065937
 30
0.0
  0
SPLINE
  5
3F4
100
AcDbEntity
  8
RACCORDO
100
AcDbSpline
 62
7
  6
CONTINUOUS
 70
0
 71
3
 72
9
 73
5
 74
0
 42
0.0000001
 43
0.0000001
 44
0.0000000001
 40
0.0
 40
0.0
 40
0.0
 40
0.0
 40
0.2394417245
 40
1.0
 40
1.0
 40
1.0
 40
1.0
 10
-16.2520151175
 20
-29.5483065937
 30
0.0
 10
-16.243436931
 20
-29.5378690124
 30
0.0
 10
-16.2131191759
 20
-29.4896534021
 30
0.0
 10
-16.2042978803
 20
-29.4309637074
 30
0.0
 10
-16.2043458436
 20
-29.3880498452
 30
0.0
  0
SPLINE
  5
3F5
100
AcDbEntity
  8
RACCORDO
100
AcDbSpline
 62
7
  6
CONTINUOUS
 70
0
 71
3
 72
8
 73
4
 74
0
 42
0.0000001
 43
0.0000001
 44
0.0000000001
 40
0.0
 40
0.0
 40
0.0
 40
0.0
 40
1.0
 40
1.0
 40
1.0
 40
1.0
 10
-16.2814042796
 20
46.7641573898
 30
0.0
 10
-16.2704383451
 20
46.7718896221
 30
0.0
 10
-16.2605346102
 20
46.7812981214
 30
0.0
 10
-16.2520151175
 20
46.7916642865
 30
0.0
  0
SPLINE
  5
3F6
100
AcDbEntity
  8
RACCORDO
100
AcDbSpline
 62
7
  6
CONTINUOUS
 70
0
 71
3
 72
9
 73
5
 74
0
 42
0.0000001
 43
0.0000001
 44
0.0000000001
 40
0.0
 40
0.0
 40
0.0
 40
0.0
 40
0.2394417245
 40
1.0
 40
1.0
 40
1.0
 40
1.0
 10
-16.2520151175
 20
46.7916642865
 30
0.0
 10
-16.243436931
 20
46.8021018678
 30
0.0
 10
-16.2131191759
 20
46.850317478
 30
0.0
 10
-16.2042978803
 20
46.9090071728
 30
0.0
 10
-16.2043458436
 20
46.9519210349
 30
0.0
  0
SPLINE
  5
3F7
100
AcDbEntity
  8
RACCORDO
100
AcDbSpline
 62
250
  6
CONTINUOUS
 70
0
 71
3
 72
11
 73
7
 74
0
 42
0.0000001
 43
0.0000001
 44
0.0000000001
 40
0.0
 40
0.0
 40
0.0
 40
0.0
 40
0.2210844401
 40
0.456389985
 40
0.7147203708
 40
1.0
 40
1.0
 40
1.0
 40
1.0
 10
-16.927798699
 20
-6.1562811864
 30
0.0
 10
-16.9145409501
 20
-6.1501530163
 30
0.0
 10
-16.8849921564
 20
-6.1418240378
 30
0.0
 10
-16.837244796
 20
-6.1426328159
 30
0.0
 10
-16.7871158498
 20
-6.1559266453
 30
0.0
 10
-16.7546895845
 20
-6.1718693211
 30
0.0
 10
-16.7384716053
 20
-6.1814697295
 30
0.0
  0
SPLINE
  5
3F8
100
AcDbEntity
  8
RACCORDO
100
AcDbSpline
 62
250
  6
CONTINUOUS
 70
0
 71
3
 72
11
 73
7
 74
0
 42
0.0000001
 43
0.0000001
 44
0.0000000001
 40
0.0
 40
0.0
 40
0.0
 40
0.0
 40
0.2210844401
 40
0.456389985
 40
0.7147203708
 40
1.0
 40
1.0
 40
1.0
 40
1.0
 10
-16.927798699
 20
-24.5268624142
 30
0.0
 10
-16.9145409501
 20
-24.5207342442
 30
0.0
 10
-16.8849921564
 20
-24.5124052657
 30
0.0
 10
-16.837244796
 20
-24.5132140437
 30
0.0
 10
-16.7871158498
 20
-24.5265078732
 30
0.0
 10
-16.7546895845
 20
-24.5424505489
 30
0.0
 10
-16.7384716053
 20
-24.5520509573
 30
0.0
  0
SPLINE
  5
3F9
100
AcDbEntity
  8
RACCORDO
100
AcDbSpline
 62
250
  6
CONTINUOUS
 70
0
 71
3
 72
9
 73
5
 74
0
 42
0.0000001
 43
0.0000001
 44
0.0000000001
 40
0.0
 40
0.0
 40
0.0
 40
0.0
 40
0.2438217033
 40
1.0
 40
1.0
 40
1.0
 40
1.0
 10
-16.5614374126
 20
-10.9712439683
 30
0.0
 10
-16.558382067
 20
-10.9690774086
 30
0.0
 10
-16.5464430448
 20
-10.9593561954
 30
0.0
 10
-16.5373697697
 20
-10.9463409271
 30
0.0
 10
-16.5323823936
 20
-10.9358497877
 30
0.0
  0
SPLINE
  5
3FA
100
AcDbEntity
  8
RACCORDO
100
AcDbSpline
 62
250
  6
CONTINUOUS
 70
0
 71
3
 72
9
 73
5
 74
0
 42
0.0000001
 43
0.0000001
 44
0.0000000001
 40
0.0
 40
0.0
 40
0.0
 40
0.0
 40
0.2290788242
 40
1.0
 40
1.0
 40
1.0
 40
1.0
 10
-16.5323823936
 20
-10.9358497877
 30
0.0
 10
-16.5299671249
 20
-10.9307691761
 30
0.0
 10
-16.5211700161
 20
-10.9077537885
 30
0.0
 10
-16.5190925081
 20
-10.8825877472
 30
0.0
 10
-16.5199266624
 20
-10.8636746178
 30
0.0
  0
SPLINE
  5
3FB
100
AcDbEntity
  8
RACCORDO
100
AcDbSpline
 62
250
  6
CONTINUOUS
 70
0
 71
3
 72
9
 73
5
 74
0
 42
0.0000001
 43
0.0000001
 44
0.0000000001
 40
0.0
 40
0.0
 40
0.0
 40
0.0
 40
0.4566974166
 40
1.0
 40
1.0
 40
1.0
 40
1.0
 10
-16.568695137
 20
-10.9762112372
 30
0.0
 10
-16.5559748089
 20
-10.9678288089
 30
0.0
 10
-16.5339923618
 20
-10.9401625018
 30
0.0
 10
-16.5279321978
 20
-10.9064004534
 30
0.0
 10
-16.5270422706
 20
-10.8882995521
 30
0.0
  0
SPLINE
  5
3FC
100
AcDbEntity
  8
RACCORDO
100
AcDbSpline
 62
250
  6
CONTINUOUS
 70
0
 71
3
 72
10
 73
6
 74
0
 42
0.0000001
 43
0.0000001
 44
0.0000000001
 40
0.0
 40
0.0
 40
0.0
 40
0.0
 40
0.2153256864
 40
0.4482566805
 40
1.0
 40
1.0
 40
1.0
 40
1.0
 10
-8.5294237641
 20
14.6983518076
 30
0.0
 10
-8.5216961027
 20
14.702198917
 30
0.0
 10
-8.5040544129
 20
14.707352164
 30
0.0
 10
-8.4635015576
 20
14.7058800761
 30
0.0
 10
-8.43377475
 20
14.6922011631
 30
0.0
 10
-8.4151153007
 20
14.6803233323
 30
0.0
  0
SPLINE
  5
3FD
100
AcDbEntity
  8
RACCORDO
100
AcDbSpline
 62
250
  6
CONTINUOUS
 70
0
 71
3
 72
10
 73
6
 74
0
 42
0.0000001
 43
0.0000001
 44
0.0000000001
 40
0.0
 40
0.0
 40
0.0
 40
0.0
 40
0.2153256864
 40
0.4482566805
 40
1.0
 40
1.0
 40
1.0
 40
1.0
 10
7.3804788125
 20
5.5121734578
 30
0.0
 10
7.388206474
 20
5.5160205671
 30
0.0
 10
7.4058481638
 20
5.5211738141
 30
0.0
 10
7.4464010191
 20
5.5197017262
 30
0.0
 10
7.4761278267
 20
5.5060228132
 30
0.0
 10
7.494787276
 20
5.4941449824
 30
0.0
  0
SPLINE
  5
3FE
100
AcDbEntity
  8
RACCORDO
100
AcDbSpline
 62
250
  6
CONTINUOUS
 70
0
 71
3
 72
9
 73
5
 74
0
 42
0.0000001
 43
0.0000001
 44
0.0000000001
 40
0.0
 40
0.0
 40
0.0
 40
0.0
 40
0.2438217033
 40
1.0
 40
1.0
 40
1.0
 40
1.0
 10
-16.5614374126
 20
28.6275644562
 30
0.0
 10
-16.558382067
 20
28.6297310158
 30
0.0
 10
-16.5464430448
 20
28.6394522291
 30
0.0
 10
-16.5373697697
 20
28.6524674973
 30
0.0
 10
-16.5323823936
 20
28.6629586368
 30
0.0
  0
SPLINE
  5
3FF
100
AcDbEntity
  8
RACCORDO
100
AcDbSpline
 62
250
  6
CONTINUOUS
 70
0
 71
3
 72
9
 73
5
 74
0
 42
0.0000001
 43
0.0000001
 44
0.0000000001
 40
0.0
 40
0.0
 40
0.0
 40
0.0
 40
0.2290788242
 40
1.0
 40
1.0
 40
1.0
 40
1.0
 10
-16.5323823936
 20
28.6629586368
 30
0.0
 10
-16.5299671249
 20
28.6680392483
 30
0.0
 10
-16.5211700161
 20
28.691054636
 30
0.0
 10
-16.5190925081
 20
28.7162206772
 30
0.0
 10
-16.5199266624
 20
28.7351338066
 30
0.0
  0
SPLINE
  5
400
100
AcDbEntity
  8
RACCORDO
100
AcDbSpline
 62
250
  6
CONTINUOUS
 70
0
 71
3
 72
9
 73
5
 74
0
 42
0.0000001
 43
0.0000001
 44
0.0000000001
 40
0.0
 40
0.0
 40
0.0
 40
0.0
 40
0.4566974166
 40
1.0
 40
1.0
 40
1.0
 40
1.0
 10
-16.568695137
 20
28.6225971873
 30
0.0
 10
-16.5559748089
 20
28.6309796156
 30
0.0
 10
-16.5339923618
 20
28.6586459227
 30
0.0
 10
-16.5279321978
 20
28.6924079711
 30
0.0
 10
-16.5270422706
 20
28.7105088724
 30
0.0
  0
SPLINE
  5
401
100
AcDbEntity
  8
RACCORDO
100
AcDbSpline
 62
250
  6
CONTINUOUS
 70
0
 71
3
 72
11
 73
7
 74
0
 42
0.0000001
 43
0.0000001
 44
0.0000000001
 40
0.0
 40
0.0
 40
0.0
 40
0.0
 40
0.2210844401
 40
0.456389985
 40
0.7147203708
 40
1.0
 40
1.0
 40
1.0
 40
1.0
 10
-16.927798699
 20
33.4425272381
 30
0.0
 10
-16.9145409501
 20
33.4486554081
 30
0.0
 10
-16.8849921564
 20
33.4569843866
 30
0.0
 10
-16.837244796
 20
33.4561756086
 30
0.0
 10
-16.7871158498
 20
33.4428817791
 30
0.0
 10
-16.7546895845
 20
33.4269391033
 30
0.0
 10
-16.7384716053
 20
33.417338695
 30
0.0
  0
SPLINE
  5
402
100
AcDbEntity
  8
RACCORDO
100
AcDbSpline
 62
250
  6
CONTINUOUS
 70
0
 71
3
 72
11
 73
7
 74
0
 42
0.0000001
 43
0.0000001
 44
0.0000000001
 40
0.0
 40
0.0
 40
0.0
 40
0.0
 40
0.2210844401
 40
0.456389985
 40
0.7147203708
 40
1.0
 40
1.0
 40
1.0
 40
1.0
 10
-16.927798699
 20
51.8131084659
 30
0.0
 10
-16.9145409501
 20
51.819236636
 30
0.0
 10
-16.8849921564
 20
51.8275656145
 30
0.0
 10
-16.837244796
 20
51.8267568364
 30
0.0
 10
-16.7871158498
 20
51.813463007
 30
0.0
 10
-16.7546895845
 20
51.7975203312
 30
0.0
 10
-16.7384716053
 20
51.7879199228
 30
0.0
  0
SPLINE
  5
403
100
AcDbEntity
  8
0
100
AcDbSpline
 62
7
  6
CONTINUOUS
 70
0
 71
3
 72
11
 73
7
 74
0
 42
0.0000001
 43
0.0000001
 44
0.0000000001
 40
0.0
 40
0.0
 40
0.0
 40
0.0
 40
0.2372324595
 40
0.4999938932
 40
0.7627586504
 40
1.0
 40
1.0
 40
1.0
 40
1.0
 10
-18.8059803
 20
18.2929686204
 30
0.0
 10
-18.8059803
 20
18.2581939577
 30
0.0
 10
-18.7929364285
 20
18.1848552701
 30
0.0
 10
-18.7474747572
 20
18.0818005379
 30
0.0
 10
-18.6809566606
 20
17.9909012571
 30
0.0
 10
-18.6239646504
 20
17.9429339825
 30
0.0
 10
-18.5938482656
 20
17.9255451593
 30
0.0
  0
SPLINE
  5
404
100
AcDbEntity
  8
0
100
AcDbSpline
 62
7
  6
CONTINUOUS
 70
0
 71
3
 72
11
 73
7
 74
0
 42
0.0000001
 43
0.0000001
 44
0.0000000001
 40
0.0
 40
0.0
 40
0.0
 40
0.0
 40
0.2372324595
 40
0.4999938932
 40
0.7627586504
 40
1.0
 40
1.0
 40
1.0
 40
1.0
 10
-18.6574878759
 20
18.378706285
 30
0.0
 10
-18.6574878759
 20
18.3439316223
 30
0.0
 10
-18.6444440044
 20
18.2705929347
 30
0.0
 10
-18.5989823331
 20
18.1675382025
 30
0.0
 10
-18.5324642366
 20
18.0766389217
 30
0.0
 10
-18.4754722264
 20
18.0286716471
 30
0.0
 10
-18.4453558416
 20
18.0112828239
 30
0.0
  0
SPLINE
  5
405
100
AcDbEntity
  8
0
100
AcDbSpline
 62
7
  6
CONTINUOUS
 70
0
 71
3
 72
11
 73
7
 74
0
 42
0.0000001
 43
0.0000001
 44
0.0000000001
 40
0.0
 40
0.0
 40
0.0
 40
0.0
 40
0.2372324595
 40
0.4999938932
 40
0.7627586504
 40
1.0
 40
1.0
 40
1.0
 40
1.0
 10
-19.0110412665
 20
18.1745689883
 30
0.0
 10
-19.0110412665
 20
18.1397943256
 30
0.0
 10
-18.997997395
 20
18.0664556381
 30
0.0
 10
-18.9525357237
 20
17.9634009059
 30
0.0
 10
-18.8860176272
 20
17.8725016251
 30
0.0
 10
-18.8290256169
 20
17.8245343504
 30
0.0
 10
-18.7989092322
 20
17.8071455273
 30
0.0
  0
SPLINE
  5
406
100
AcDbEntity
  8
0
100
AcDbSpline
 62
7
  6
CONTINUOUS
 70
0
 71
3
 72
11
 73
7
 74
0
 42
0.0000001
 43
0.0000001
 44
0.0000000001
 40
0.0
 40
0.0
 40
0.0
 40
0.0
 40
0.2372324595
 40
0.4999938932
 40
0.7627586504
 40
1.0
 40
1.0
 40
1.0
 40
1.0
 10
-18.4524269094
 20
18.497105917
 30
0.0
 10
-18.4524269094
 20
18.4623312543
 30
0.0
 10
-18.4393830379
 20
18.3889925668
 30
0.0
 10
-18.3939213666
 20
18.2859378346
 30
0.0
 10
-18.32740327
 20
18.1950385538
 30
0.0
 10
-18.2704112598
 20
18.1470712791
 30
0.0
 10
-18.240294875
 20
18.129682456
 30
0.0
  0
SPLINE
  5
407
100
AcDbEntity
  8
RACCORDO
100
AcDbSpline
 62
250
  6
CONTINUOUS
 70
0
 71
3
 72
9
 73
5
 74
0
 42
0.0000001
 43
0.0000001
 44
0.0000000001
 40
0.0
 40
0.0
 40
0.0
 40
0.0
 40
0.5255189504
 40
1.0
 40
1.0
 40
1.0
 40
1.0
 10
-18.2438304089
 20
18.3691345739
 30
0.0
 10
-18.2635494659
 20
18.4028351639
 30
0.0
 10
-18.2940144354
 20
18.4713240608
 30
0.0
 10
-18.3073111999
 20
18.5456452049
 30
0.0
 10
-18.3073113981
 20
18.5808988732
 30
0.0
  0
SPLINE
  5
408
100
AcDbEntity
  8
RACCORDO
100
AcDbSpline
 62
250
  6
CONTINUOUS
 70
0
 71
3
 72
9
 73
5
 74
0
 42
0.0000001
 43
0.0000001
 44
0.0000000001
 40
0.0
 40
0.0
 40
0.0
 40
0.0
 40
0.2309688712
 40
1.0
 40
1.0
 40
1.0
 40
1.0
 10
-18.0953379849
 20
18.2133787476
 30
0.0
 10
-18.1063742614
 20
18.2197509554
 30
0.0
 10
-18.1522725851
 20
18.250577873
 30
0.0
 10
-18.1906713659
 20
18.2917652752
 30
0.0
 10
-18.2156533106
 20
18.3260631337
 30
0.0
  0
SPLINE
  5
409
100
AcDbEntity
  8
0
100
AcDbSpline
 62
7
  6
CONTINUOUS
 70
0
 71
3
 72
11
 73
7
 74
0
 42
0.0000001
 43
0.0000001
 44
0.0000000001
 40
0.0
 40
0.0
 40
0.0
 40
0.0
 40
0.2372422216
 40
0.4999938942
 40
0.7627488878
 40
1.0
 40
1.0
 40
1.0
 40
1.0
 10
-18.5514218587
 20
18.497105917
 30
0.0
 10
-18.5514218587
 20
18.4542155078
 30
0.0
 10
-18.5353414242
 20
18.3637618631
 30
0.0
 10
-18.4792480155
 20
18.2366751009
 30
0.0
 10
-18.3972332255
 20
18.1245522283
 30
0.0
 10
-18.3269373274
 20
18.0653973597
 30
0.0
 10
-18.2897923497
 20
18.0439503151
 30
0.0
  0
SPLINE
  5
40A
100
AcDbEntity
  8
0
100
AcDbSpline
 62
7
  6
CONTINUOUS
 70
0
 71
3
 72
9
 73
5
 74
0
 42
0.0000001
 43
0.0000001
 44
0.0000000001
 40
0.0
 40
0.0
 40
0.0
 40
0.0
 40
0.237220558
 40
1.0
 40
1.0
 40
1.0
 40
1.0
 10
-18.6574878759
 20
18.435864728
 30
0.0
 10
-18.6574878759
 20
18.4278235617
 30
0.0
 10
-18.6562948413
 20
18.3939291951
 30
0.0
 10
-18.6507601394
 20
18.3602509646
 30
0.0
 10
-18.6446828163
 20
18.3351190665
 30
0.0
  0
SPLINE
  5
40B
100
AcDbEntity
  8
0
100
AcDbSpline
 62
7
  6
CONTINUOUS
 70
0
 71
3
 72
9
 73
5
 74
0
 42
0.0000001
 43
0.0000001
 44
0.0000000001
 40
0.0
 40
0.0
 40
0.0
 40
0.0
 40
0.5099575508
 40
1.0
 40
1.0
 40
1.0
 40
1.0
 10
-18.6446828163
 20
18.3351190665
 30
0.0
 10
-18.6284027389
 20
18.2677951406
 30
0.0
 10
-18.5709790347
 20
18.1417762929
 30
0.0
 10
-18.4777510536
 20
18.0383094251
 30
0.0
 10
-18.4232049053
 20
18.0001666165
 30
0.0
  0
SPLINE
  5
40C
100
AcDbEntity
  8
0
100
AcDbSpline
 62
7
  6
CONTINUOUS
 70
0
 71
3
 72
9
 73
5
 74
0
 42
0.0000001
 43
0.0000001
 44
0.0000000001
 40
0.0
 40
0.0
 40
0.0
 40
0.0
 40
0.237220558
 40
1.0
 40
1.0
 40
1.0
 40
1.0
 10
-19.0110412665
 20
18.2317274314
 30
0.0
 10
-19.0110412665
 20
18.2236862651
 30
0.0
 10
-19.0098482319
 20
18.1897918985
 30
0.0
 10
-19.00431353
 20
18.156113668
 30
0.0
 10
-18.9982362069
 20
18.1309817698
 30
0.0
  0
SPLINE
  5
40D
100
AcDbEntity
  8
0
100
AcDbSpline
 62
7
  6
CONTINUOUS
 70
0
 71
3
 72
9
 73
5
 74
0
 42
0.0000001
 43
0.0000001
 44
0.0000000001
 40
0.0
 40
0.0
 40
0.0
 40
0.0
 40
0.5099575508
 40
1.0
 40
1.0
 40
1.0
 40
1.0
 10
-18.9982362069
 20
18.1309817698
 30
0.0
 10
-18.9819561295
 20
18.0636578439
 30
0.0
 10
-18.9245324253
 20
17.9376389962
 30
0.0
 10
-18.8313044442
 20
17.8341721284
 30
0.0
 10
-18.7767582959
 20
17.7960293198
 30
0.0
  0
LINE
  5
40E
100
AcDbEntity
  8
RACCORDO
100
AcDbLine
 62
7
  6
CONTINUOUS
 10
11.5250662292
 20
-54.429625701
 11
11.4480077932
 21
-54.4741251992
  0
SPLINE
  5
40F
100
AcDbEntity
  8
0
100
AcDbSpline
 62
7
  6
CONTINUOUS
 70
0
 71
3
 72
11
 73
7
 74
0
 42
0.0000001
 43
0.0000001
 44
0.0000000001
 40
0.0
 40
0.0
 40
0.0
 40
0.0
 40
0.2372422216
 40
0.4999938942
 40
0.7627488878
 40
1.0
 40
1.0
 40
1.0
 40
1.0
 10
-18.9049752493
 20
18.2929686204
 30
0.0
 10
-18.9049752493
 20
18.2500782111
 30
0.0
 10
-18.8888948148
 20
18.1596245664
 30
0.0
 10
-18.8328014061
 20
18.0325378043
 30
0.0
 10
-18.7507866161
 20
17.9204149317
 30
0.0
 10
-18.680490718
 20
17.861260063
 30
0.0
 10
-18.6433457403
 20
17.8398130184
 30
0.0
  0
SPLINE
  5
410
100
AcDbEntity
  8
RACCORDO
100
AcDbSpline
 62
250
  6
CONTINUOUS
 70
0
 71
3
 72
10
 73
6
 74
0
 42
0.0000001
 43
0.0000001
 44
0.0000000001
 40
0.0
 40
0.0
 40
0.0
 40
0.0
 40
0.2212933417
 40
0.4564020241
 40
1.0
 40
1.0
 40
1.0
 40
1.0
 10
11.5250526698
 20
-54.8861269849
 30
0.0
 10
11.5250416847
 20
-54.8967701062
 30
0.0
 10
11.5213992525
 20
-54.9188587132
 30
0.0
 10
11.4994660905
 20
-54.9622787368
 30
0.0
 10
11.4700159398
 20
-54.9877894244
 30
0.0
 10
11.4480077932
 20
-55.0019022304
 30
0.0
  0
SPLINE
  5
411
100
AcDbEntity
  8
RACCORDO
100
AcDbSpline
 62
250
  6
CONTINUOUS
 70
0
 71
3
 72
10
 73
6
 74
0
 42
0.0000001
 43
0.0000001
 44
0.0000000001
 40
0.0
 40
0.0
 40
0.0
 40
0.0
 40
0.2212933417
 40
0.4564020241
 40
1.0
 40
1.0
 40
1.0
 40
1.0
 10
-4.3848499069
 20
-45.699948635
 30
0.0
 10
-4.384860892
 20
-45.7105917563
 30
0.0
 10
-4.3885033242
 20
-45.7326803634
 30
0.0
 10
-4.4104364862
 20
-45.7761003869
 30
0.0
 10
-4.4398866369
 20
-45.8016110745
 30
0.0
 10
-4.4618947835
 20
-45.8157238805
 30
0.0
  0
SPLINE
  5
412
100
AcDbEntity
  8
RACCORDO
100
AcDbSpline
 62
250
  6
CONTINUOUS
 70
0
 71
3
 72
10
 73
6
 74
0
 42
0.0000001
 43
0.0000001
 44
0.0000000001
 40
0.0
 40
0.0
 40
0.0
 40
0.0
 40
0.2212844141
 40
0.4563870489
 40
1.0
 40
1.0
 40
1.0
 40
1.0
 10
-16.599674286
 20
-24.5432143855
 30
0.0
 10
-16.6088967245
 20
-24.5379007772
 30
0.0
 10
-16.6298478975
 20
-24.530008275
 30
0.0
 10
-16.6784220331
 20
-24.5272919322
 30
0.0
 10
-16.7152434343
 20
-24.5400449163
 30
0.0
 10
-16.7384716053
 20
-24.5520509573
 30
0.0
  0
SPLINE
  5
413
100
AcDbEntity
  8
0
100
AcDbSpline
 62
7
  6
CONTINUOUS
 70
0
 71
3
 72
11
 73
7
 74
0
 42
0.0000001
 43
0.0000001
 44
0.0000000001
 40
0.0
 40
0.0
 40
0.0
 40
0.0
 40
0.2372422216
 40
0.4999938942
 40
0.7627488878
 40
1.0
 40
1.0
 40
1.0
 40
1.0
 10
-18.5514218587
 20
-39.4722837353
 30
0.0
 10
-18.5514218587
 20
-39.5151741445
 30
0.0
 10
-18.5353414242
 20
-39.6056277892
 30
0.0
 10
-18.4792480155
 20
-39.7327145513
 30
0.0
 10
-18.3972332255
 20
-39.844837424
 30
0.0
 10
-18.3269373274
 20
-39.9039922926
 30
0.0
 10
-18.2897923497
 20
-39.9254393372
 30
0.0
  0
SPLINE
  5
414
100
AcDbEntity
  8
0
100
AcDbSpline
 62
7
  6
CONTINUOUS
 70
0
 71
3
 72
9
 73
5
 74
0
 42
0.0000001
 43
0.0000001
 44
0.0000000001
 40
0.0
 40
0.0
 40
0.0
 40
0.0
 40
0.237220558
 40
1.0
 40
1.0
 40
1.0
 40
1.0
 10
-18.6574878759
 20
-39.5335249243
 30
0.0
 10
-18.6574878759
 20
-39.5415660906
 30
0.0
 10
-18.6562948413
 20
-39.5754604571
 30
0.0
 10
-18.6507601394
 20
-39.6091386876
 30
0.0
 10
-18.6446828163
 20
-39.6342705858
 30
0.0
  0
SPLINE
  5
415
100
AcDbEntity
  8
0
100
AcDbSpline
 62
7
  6
CONTINUOUS
 70
0
 71
3
 72
9
 73
5
 74
0
 42
0.0000001
 43
0.0000001
 44
0.0000000001
 40
0.0
 40
0.0
 40
0.0
 40
0.0
 40
0.5099575508
 40
1.0
 40
1.0
 40
1.0
 40
1.0
 10
-18.6446828163
 20
-39.6342705858
 30
0.0
 10
-18.6284027389
 20
-39.7015945117
 30
0.0
 10
-18.5709790347
 20
-39.8276133594
 30
0.0
 10
-18.4777510536
 20
-39.9310802272
 30
0.0
 10
-18.4232049053
 20
-39.9692230358
 30
0.0
  0
SPLINE
  5
416
100
AcDbEntity
  8
0
100
AcDbSpline
 62
7
  6
CONTINUOUS
 70
0
 71
3
 72
9
 73
5
 74
0
 42
0.0000001
 43
0.0000001
 44
0.0000000001
 40
0.0
 40
0.0
 40
0.0
 40
0.0
 40
0.237220558
 40
1.0
 40
1.0
 40
1.0
 40
1.0
 10
-19.0110412665
 20
-39.7376622209
 30
0.0
 10
-19.0110412665
 20
-39.7457033872
 30
0.0
 10
-19.0098482319
 20
-39.7795977538
 30
0.0
 10
-19.00431353
 20
-39.8132759843
 30
0.0
 10
-18.9982362069
 20
-39.8384078825
 30
0.0
  0
SPLINE
  5
417
100
AcDbEntity
  8
0
100
AcDbSpline
 62
7
  6
CONTINUOUS
 70
0
 71
3
 72
9
 73
5
 74
0
 42
0.0000001
 43
0.0000001
 44
0.0000000001
 40
0.0
 40
0.0
 40
0.0
 40
0.0
 40
0.5099575508
 40
1.0
 40
1.0
 40
1.0
 40
1.0
 10
-18.9982362069
 20
-39.8384078825
 30
0.0
 10
-18.9819561295
 20
-39.9057318084
 30
0.0
 10
-18.9245324253
 20
-40.0317506561
 30
0.0
 10
-18.8313044442
 20
-40.1352175239
 30
0.0
 10
-18.7767582959
 20
-40.1733603325
 30
0.0
  0
SPLINE
  5
418
100
AcDbEntity
  8
0
100
AcDbSpline
 62
7
  6
CONTINUOUS
 70
0
 71
3
 72
11
 73
7
 74
0
 42
0.0000001
 43
0.0000001
 44
0.0000000001
 40
0.0
 40
0.0
 40
0.0
 40
0.0
 40
0.2372422216
 40
0.4999938942
 40
0.7627488878
 40
1.0
 40
1.0
 40
1.0
 40
1.0
 10
-18.9049752493
 20
-39.6764210319
 30
0.0
 10
-18.9049752493
 20
-39.7193114412
 30
0.0
 10
-18.8888948148
 20
-39.8097650859
 30
0.0
 10
-18.8328014061
 20
-39.936851848
 30
0.0
 10
-18.7507866161
 20
-40.0489747206
 30
0.0
 10
-18.680490718
 20
-40.1081295893
 30
0.0
 10
-18.6433457403
 20
-40.1295766339
 30
0.0
  0
SPLINE
  5
419
100
AcDbEntity
  8
RACCORDO
100
AcDbSpline
 62
250
  6
CONTINUOUS
 70
0
 71
3
 72
10
 73
6
 74
0
 42
0.0000001
 43
0.0000001
 44
0.0000000001
 40
0.0
 40
0.0
 40
0.0
 40
0.0
 40
0.2362229879
 40
0.4767254944
 40
1.0
 40
1.0
 40
1.0
 40
1.0
 10
-16.4428704324
 20
-10.7361751668
 30
0.0
 10
-16.4428977357
 20
-10.7483463018
 30
0.0
 10
-16.446341622
 20
-10.7730499024
 30
0.0
 10
-16.4673871683
 20
-10.8206700979
 30
0.0
 10
-16.4973421955
 20
-10.848948405
 30
0.0
 10
-16.5199262624
 20
-10.8636748258
 30
0.0
  0
SPLINE
  5
41A
100
AcDbEntity
  8
RACCORDO
100
AcDbSpline
 62
250
  6
CONTINUOUS
 70
0
 71
3
 72
9
 73
5
 74
0
 42
0.0000001
 43
0.0000001
 44
0.0000000001
 40
0.0
 40
0.0
 40
0.0
 40
0.0
 40
0.7444492578
 40
1.0
 40
1.0
 40
1.0
 40
1.0
 10
-16.6032882756
 20
-6.1706485078
 30
0.0
 10
-16.6111271869
 20
-6.1665506206
 30
0.0
 10
-16.6224666036
 20
-6.1624408649
 30
0.0
 10
-16.6341552591
 20
-6.1602901385
 30
0.0
 10
-16.6371606364
 20
-6.1598571623
 30
0.0
  0
SPLINE
  5
41B
100
AcDbEntity
  8
RACCORDO
100
AcDbSpline
 62
250
  6
CONTINUOUS
 70
0
 71
3
 72
9
 73
5
 74
0
 42
0.0000001
 43
0.0000001
 44
0.0000000001
 40
0.0
 40
0.0
 40
0.0
 40
0.0
 40
0.2258747796
 40
1.0
 40
1.0
 40
1.0
 40
1.0
 10
-16.6371606364
 20
-6.1598571623
 30
0.0
 10
-16.6449545815
 20
-6.1587343108
 30
0.0
 10
-16.6800004946
 20
-6.1573085359
 30
0.0
 10
-16.7144972953
 20
-6.1690780285
 30
0.0
 10
-16.7384716053
 20
-6.1814697295
 30
0.0
  0
SPLINE
  5
41C
100
AcDbEntity
  8
0
100
AcDbSpline
 62
7
  6
CONTINUOUS
 70
0
 71
3
 72
11
 73
7
 74
0
 42
0.0000001
 43
0.0000001
 44
0.0000000001
 40
0.0
 40
0.0
 40
0.0
 40
0.0
 40
0.2372324595
 40
0.4999938932
 40
0.7627586504
 40
1.0
 40
1.0
 40
1.0
 40
1.0
 10
-18.8059803
 20
-39.6764210319
 30
0.0
 10
-18.8059803
 20
-39.7111956946
 30
0.0
 10
-18.7929364285
 20
-39.7845343822
 30
0.0
 10
-18.7474747572
 20
-39.8875891144
 30
0.0
 10
-18.6809566606
 20
-39.9784883952
 30
0.0
 10
-18.6239646504
 20
-40.0264556698
 30
0.0
 10
-18.5938482656
 20
-40.043844493
 30
0.0
  0
SPLINE
  5
41D
100
AcDbEntity
  8
0
100
AcDbSpline
 62
7
  6
CONTINUOUS
 70
0
 71
3
 72
11
 73
7
 74
0
 42
0.0000001
 43
0.0000001
 44
0.0000000001
 40
0.0
 40
0.0
 40
0.0
 40
0.0
 40
0.2372324595
 40
0.4999938932
 40
0.7627586504
 40
1.0
 40
1.0
 40
1.0
 40
1.0
 10
-18.6574878759
 20
-39.5906833673
 30
0.0
 10
-18.6574878759
 20
-39.62545803
 30
0.0
 10
-18.6444440044
 20
-39.6987967176
 30
0.0
 10
-18.5989823331
 20
-39.8018514498
 30
0.0
 10
-18.5324642366
 20
-39.8927507306
 30
0.0
 10
-18.4754722264
 20
-39.9407180052
 30
0.0
 10
-18.4453558416
 20
-39.9581068284
 30
0.0
  0
SPLINE
  5
41E
100
AcDbEntity
  8
0
100
AcDbSpline
 62
7
  6
CONTINUOUS
 70
0
 71
3
 72
11
 73
7
 74
0
 42
0.0000001
 43
0.0000001
 44
0.0000000001
 40
0.0
 40
0.0
 40
0.0
 40
0.0
 40
0.2372324595
 40
0.4999938932
 40
0.7627586504
 40
1.0
 40
1.0
 40
1.0
 40
1.0
 10
-19.0110412665
 20
-39.794820664
 30
0.0
 10
-19.0110412665
 20
-39.8295953267
 30
0.0
 10
-18.997997395
 20
-39.9029340142
 30
0.0
 10
-18.9525357237
 20
-40.0059887464
 30
0.0
 10
-18.8860176272
 20
-40.0968880272
 30
0.0
 10
-18.8290256169
 20
-40.1448553019
 30
0.0
 10
-18.7989092322
 20
-40.162244125
 30
0.0
  0
SPLINE
  5
41F
100
AcDbEntity
  8
0
100
AcDbSpline
 62
7
  6
CONTINUOUS
 70
0
 71
3
 72
11
 73
7
 74
0
 42
0.0000001
 43
0.0000001
 44
0.0000000001
 40
0.0
 40
0.0
 40
0.0
 40
0.0
 40
0.2372324595
 40
0.4999938932
 40
0.7627586504
 40
1.0
 40
1.0
 40
1.0
 40
1.0
 10
-18.4524269094
 20
-39.4722837353
 30
0.0
 10
-18.4524269094
 20
-39.507058398
 30
0.0
 10
-18.4393830379
 20
-39.5803970855
 30
0.0
 10
-18.3939213666
 20
-39.6834518177
 30
0.0
 10
-18.32740327
 20
-39.7743510985
 30
0.0
 10
-18.2704112598
 20
-39.8223183732
 30
0.0
 10
-18.240294875
 20
-39.8397071963
 30
0.0
  0
SPLINE
  5
420
100
AcDbEntity
  8
RACCORDO
100
AcDbSpline
 62
250
  6
CONTINUOUS
 70
0
 71
3
 72
9
 73
5
 74
0
 42
0.0000001
 43
0.0000001
 44
0.0000000001
 40
0.0
 40
0.0
 40
0.0
 40
0.0
 40
0.2624446246
 40
1.0
 40
1.0
 40
1.0
 40
1.0
 10
-18.3308915587
 20
-39.4959838657
 30
0.0
 10
-18.3327902023
 20
-39.4885187968
 30
0.0
 10
-18.3392478929
 20
-39.4598921891
 30
0.0
 10
-18.3425434883
 20
-39.4304787752
 30
0.0
 10
-18.3425436457
 20
-39.4088315709
 30
0.0
  0
SPLINE
  5
421
100
AcDbEntity
  8
RACCORDO
100
AcDbSpline
 62
250
  6
CONTINUOUS
 70
0
 71
3
 72
9
 73
5
 74
0
 42
0.0000001
 43
0.0000001
 44
0.0000000001
 40
0.0
 40
0.0
 40
0.0
 40
0.0
 40
0.2370302955
 40
1.0
 40
1.0
 40
1.0
 40
1.0
 10
-18.1304073984
 20
-39.7762644108
 30
0.0
 10
-18.1364327554
 20
-39.7727853974
 30
0.0
 10
-18.1613122888
 20
-39.7571762155
 30
0.0
 10
-18.1840219773
 20
-39.7382288813
 30
0.0
 10
-18.2000577025
 20
-39.7225948931
 30
0.0
  0
SPLINE
  5
422
100
AcDbEntity
  8
RACCORDO
100
AcDbSpline
 62
250
  6
CONTINUOUS
 70
0
 71
3
 72
11
 73
7
 74
0
 42
0.0000001
 43
0.0000001
 44
0.0000000001
 40
0.0
 40
0.0
 40
0.0
 40
0.0
 40
0.2021609129
 40
0.4304408582
 40
0.6954232179
 40
1.0
 40
1.0
 40
1.0
 40
1.0
 10
11.3998762812
 20
3.3366314379
 30
0.0
 10
11.3920290673
 20
3.3411295363
 30
0.0
 10
11.3732880038
 20
3.3473540142
 30
0.0
 10
11.3417967506
 20
3.3471885843
 30
0.0
 10
11.3069073968
 20
3.3385685852
 30
0.0
 10
11.2835301806
 20
3.3281315554
 30
0.0
 10
11.2714733642
 20
3.3217806308
 30
0.0
  0
SPLINE
  5
423
100
AcDbEntity
  8
RACCORDO
100
AcDbSpline
 62
250
  6
CONTINUOUS
 70
0
 71
3
 72
9
 73
5
 74
0
 42
0.0000001
 43
0.0000001
 44
0.0000000001
 40
0.0
 40
0.0
 40
0.0
 40
0.0
 40
0.4453022526
 40
1.0
 40
1.0
 40
1.0
 40
1.0
 10
11.5250636319
 20
3.1198009069
 30
0.0
 10
11.5250179483
 20
3.1052405898
 30
0.0
 10
11.5139103082
 20
3.0726131884
 30
0.0
 10
11.4908011148
 20
3.0486097032
 30
0.0
 10
11.4769104844
 20
3.0369471634
 30
0.0
  0
SPLINE
  5
424
100
AcDbEntity
  8
RACCORDO
100
AcDbSpline
 62
250
  6
CONTINUOUS
 70
0
 71
3
 72
9
 73
5
 74
0
 42
0.0000001
 43
0.0000001
 44
0.0000000001
 40
0.0
 40
0.0
 40
0.0
 40
0.0
 40
0.2413035052
 40
1.0
 40
1.0
 40
1.0
 40
1.0
 10
11.4769104844
 20
3.0369471634
 30
0.0
 10
11.4750880754
 20
3.0354170732
 30
0.0
 10
11.4674341606
 20
3.0291974675
 30
0.0
 10
11.4594000715
 20
3.023450983
 30
0.0
 10
11.4531540454
 20
3.0193322881
 30
0.0
  0
SPLINE
  5
425
100
AcDbEntity
  8
RACCORDO
100
AcDbSpline
 62
250
  6
CONTINUOUS
 70
0
 71
3
 72
9
 73
5
 74
0
 42
0.0000001
 43
0.0000001
 44
0.0000000001
 40
0.0
 40
0.0
 40
0.0
 40
0.0
 40
0.7444524776
 40
1.0
 40
1.0
 40
1.0
 40
1.0
 10
11.5249647279
 20
3.079160924
 30
0.0
 10
11.5245947416
 20
3.0703224871
 30
0.0
 10
11.5224850145
 20
3.0584462469
 30
0.0
 10
11.5185039446
 20
3.0472469242
 30
0.0
 10
11.5173763998
 20
3.0444274031
 30
0.0
  0
SPLINE
  5
426
100
AcDbEntity
  8
RACCORDO
100
AcDbSpline
 62
250
  6
CONTINUOUS
 70
0
 71
3
 72
9
 73
5
 74
0
 42
0.0000001
 43
0.0000001
 44
0.0000000001
 40
0.0
 40
0.0
 40
0.0
 40
0.0
 40
0.2258807546
 40
1.0
 40
1.0
 40
1.0
 40
1.0
 10
11.5173763998
 20
3.0444274031
 30
0.0
 10
11.5144523236
 20
3.0371155031
 30
0.0
 10
11.4981664509
 20
3.0060493324
 30
0.0
 10
11.4707262387
 20
2.9820557097
 30
0.0
 10
11.4480077932
 20
2.9674874219
 30
0.0
  0
SPLINE
  5
427
100
AcDbEntity
  8
RACCORDO
100
AcDbSpline
 62
250
  6
CONTINUOUS
 70
0
 71
3
 72
11
 73
7
 74
0
 42
0.0000001
 43
0.0000001
 44
0.0000000001
 40
0.0
 40
0.0
 40
0.0
 40
0.0
 40
0.2021609129
 40
0.4304408582
 40
0.6954232179
 40
1.0
 40
1.0
 40
1.0
 40
1.0
 10
-4.5100262955
 20
12.5228097877
 30
0.0
 10
-4.5178735094
 20
12.5273078862
 30
0.0
 10
-4.5366145729
 20
12.5335323641
 30
0.0
 10
-4.5681058261
 20
12.5333669342
 30
0.0
 10
-4.6029951799
 20
12.524746935
 30
0.0
 10
-4.6263723961
 20
12.5143099053
 30
0.0
 10
-4.6384292124
 20
12.5079589807
 30
0.0
  0
SPLINE
  5
428
100
AcDbEntity
  8
RACCORDO
100
AcDbSpline
 62
250
  6
CONTINUOUS
 70
0
 71
3
 72
9
 73
5
 74
0
 42
0.0000001
 43
0.0000001
 44
0.0000000001
 40
0.0
 40
0.0
 40
0.0
 40
0.0
 40
0.4453022526
 40
1.0
 40
1.0
 40
1.0
 40
1.0
 10
-4.3848389448
 20
12.3059792568
 30
0.0
 10
-4.3848846284
 20
12.2914189396
 30
0.0
 10
-4.3959922685
 20
12.2587915383
 30
0.0
 10
-4.4191014619
 20
12.2347880531
 30
0.0
 10
-4.4329920923
 20
12.2231255133
 30
0.0
  0
SPLINE
  5
429
100
AcDbEntity
  8
RACCORDO
100
AcDbSpline
 62
250
  6
CONTINUOUS
 70
0
 71
3
 72
9
 73
5
 74
0
 42
0.0000001
 43
0.0000001
 44
0.0000000001
 40
0.0
 40
0.0
 40
0.0
 40
0.0
 40
0.2413035052
 40
1.0
 40
1.0
 40
1.0
 40
1.0
 10
-4.4329920923
 20
12.2231255133
 30
0.0
 10
-4.4348145013
 20
12.2215954231
 30
0.0
 10
-4.4424684161
 20
12.2153758174
 30
0.0
 10
-4.4505025052
 20
12.2096293328
 30
0.0
 10
-4.4567485313
 20
12.205510638
 30
0.0
  0
SPLINE
  5
42A
100
AcDbEntity
  8
RACCORDO
100
AcDbSpline
 62
250
  6
CONTINUOUS
 70
0
 71
3
 72
9
 73
5
 74
0
 42
0.0000001
 43
0.0000001
 44
0.0000000001
 40
0.0
 40
0.0
 40
0.0
 40
0.0
 40
0.7444524776
 40
1.0
 40
1.0
 40
1.0
 40
1.0
 10
-4.3849378488
 20
12.2653392739
 30
0.0
 10
-4.3853078351
 20
12.256500837
 30
0.0
 10
-4.3874175622
 20
12.2446245968
 30
0.0
 10
-4.3913986321
 20
12.2334252741
 30
0.0
 10
-4.3925261769
 20
12.230605753
 30
0.0
  0
SPLINE
  5
42B
100
AcDbEntity
  8
RACCORDO
100
AcDbSpline
 62
250
  6
CONTINUOUS
 70
0
 71
3
 72
9
 73
5
 74
0
 42
0.0000001
 43
0.0000001
 44
0.0000000001
 40
0.0
 40
0.0
 40
0.0
 40
0.0
 40
0.2258807546
 40
1.0
 40
1.0
 40
1.0
 40
1.0
 10
-4.3925261769
 20
12.230605753
 30
0.0
 10
-4.3954502531
 20
12.2232938529
 30
0.0
 10
-4.4117361258
 20
12.1922276822
 30
0.0
 10
-4.439176338
 20
12.1682340596
 30
0.0
 10
-4.4618947835
 20
12.1536657718
 30
0.0
  0
SPLINE
  5
42C
100
AcDbEntity
  8
RACCORDO
100
AcDbSpline
 62
250
  6
CONTINUOUS
 70
0
 71
3
 72
9
 73
5
 74
0
 42
0.0000001
 43
0.0000001
 44
0.0000000001
 40
0.0
 40
0.0
 40
0.0
 40
0.0
 40
0.7444492578
 40
1.0
 40
1.0
 40
1.0
 40
1.0
 10
-16.6032882756
 20
33.4281599167
 30
0.0
 10
-16.6111271869
 20
33.4322578039
 30
0.0
 10
-16.6224666036
 20
33.4363675595
 30
0.0
 10
-16.6341552591
 20
33.438518286
 30
0.0
 10
-16.6371606364
 20
33.4389512621
 30
0.0
  0
SPLINE
  5
42D
100
AcDbEntity
  8
RACCORDO
100
AcDbSpline
 62
250
  6
CONTINUOUS
 70
0
 71
3
 72
9
 73
5
 74
0
 42
0.0000001
 43
0.0000001
 44
0.0000000001
 40
0.0
 40
0.0
 40
0.0
 40
0.0
 40
0.2258747796
 40
1.0
 40
1.0
 40
1.0
 40
1.0
 10
-16.6371606364
 20
33.4389512621
 30
0.0
 10
-16.6449545815
 20
33.4400741137
 30
0.0
 10
-16.6800004946
 20
33.4414998886
 30
0.0
 10
-16.7144972953
 20
33.429730396
 30
0.0
 10
-16.7384716053
 20
33.417338695
 30
0.0
  0
SPLINE
  5
42E
100
AcDbEntity
  8
RACCORDO
100
AcDbSpline
 62
250
  6
CONTINUOUS
 70
0
 71
3
 72
10
 73
6
 74
0
 42
0.0000001
 43
0.0000001
 44
0.0000000001
 40
0.0
 40
0.0
 40
0.0
 40
0.0
 40
0.2362229879
 40
0.4767254944
 40
1.0
 40
1.0
 40
1.0
 40
1.0
 10
-16.4428704324
 20
28.8626332576
 30
0.0
 10
-16.4428977357
 20
28.8504621227
 30
0.0
 10
-16.446341622
 20
28.8257585221
 30
0.0
 10
-16.4673871683
 20
28.7781383265
 30
0.0
 10
-16.4973421955
 20
28.7498600195
 30
0.0
 10
-16.5199262624
 20
28.7351335986
 30
0.0
  0
SPLINE
  5
42F
100
AcDbEntity
  8
RACCORDO
100
AcDbSpline
 62
250
  6
CONTINUOUS
 70
0
 71
3
 72
10
 73
6
 74
0
 42
0.0000001
 43
0.0000001
 44
0.0000000001
 40
0.0
 40
0.0
 40
0.0
 40
0.0
 40
0.2212844141
 40
0.4563870489
 40
1.0
 40
1.0
 40
1.0
 40
1.0
 10
-16.599674286
 20
51.7967564946
 30
0.0
 10
-16.6088967245
 20
51.802070103
 30
0.0
 10
-16.6298478975
 20
51.8099626052
 30
0.0
 10
-16.6784220331
 20
51.812678948
 30
0.0
 10
-16.7152434343
 20
51.7999259638
 30
0.0
 10
-16.7384716053
 20
51.7879199228
 30
0.0
  0
SPLINE
  5
430
100
AcDbEntity
  8
RACCORDO
100
AcDbSpline
 62
250
  6
CONTINUOUS
 70
0
 71
3
 72
10
 73
6
 74
0
 42
0.0000001
 43
0.0000001
 44
0.0000000001
 40
0.0
 40
0.0
 40
0.0
 40
0.0
 40
0.5477343391
 40
0.7815851249
 40
1.0
 40
1.0
 40
1.0
 40
1.0
 10
-18.3073114002
 20
18.5808937933
 30
0.0
 10
-18.2907690833
 20
18.5904451198
 30
0.0
 10
-18.2684408272
 20
18.6080314514
 30
0.0
 10
-18.2515395711
 20
18.6390453692
 30
0.0
 10
-18.2487420967
 20
18.6549316946
 30
0.0
 10
-18.2487419776
 20
18.662548712
 30
0.0
  0
SPLINE
  5
431
100
AcDbEntity
  8
RACCORDO
100
AcDbSpline
 62
250
  6
CONTINUOUS
 70
0
 71
3
 72
8
 73
4
 74
0
 42
0.0000001
 43
0.0000001
 44
0.0000000001
 40
0.0
 40
0.0
 40
0.0
 40
0.0
 40
1.0
 40
1.0
 40
1.0
 40
1.0
 10
-18.2438304089
 20
18.3691345739
 30
0.0
 10
-18.2190556281
 20
18.3825635269
 30
0.0
 10
-18.1953576163
 20
18.3979788353
 30
0.0
 10
-18.1702001271
 20
18.4106763658
 30
0.0
  0
SPLINE
  5
432
100
AcDbEntity
  8
RACCORDO
100
AcDbSpline
 62
250
  6
CONTINUOUS
 70
0
 71
3
 72
10
 73
6
 74
0
 42
0.0000001
 43
0.0000001
 44
0.0000000001
 40
0.0
 40
0.0
 40
0.0
 40
0.0
 40
0.5477203627
 40
0.7815569146
 40
1.0
 40
1.0
 40
1.0
 40
1.0
 10
-18.0953379849
 20
18.2133787476
 30
0.0
 10
-18.0787958379
 20
18.222929976
 30
0.0
 10
-18.0524008517
 20
18.2334792728
 30
0.0
 10
-18.0170945324
 20
18.2325994741
 30
0.0
 10
-18.0019305276
 20
18.2270962295
 30
0.0
 10
-17.9953331529
 20
18.2232869832
 30
0.0
  0
SPLINE
  5
433
100
AcDbEntity
  8
RACCORDO
100
AcDbSpline
 62
250
  6
CONTINUOUS
 70
0
 71
3
 72
9
 73
5
 74
0
 42
0.0000001
 43
0.0000001
 44
0.0000000001
 40
0.0
 40
0.0
 40
0.0
 40
0.0
 40
0.2725980783
 40
1.0
 40
1.0
 40
1.0
 40
1.0
 10
-18.3425436493
 20
-39.4088385181
 30
0.0
 10
-18.3365678957
 20
-39.4053881928
 30
0.0
 10
-18.3152573684
 20
-39.3917931695
 30
0.0
 10
-18.2962341261
 20
-39.3739621827
 30
0.0
 10
-18.2860193331
 20
-39.358642569
 30
0.0
  0
SPLINE
  5
434
100
AcDbEntity
  8
RACCORDO
100
AcDbSpline
 62
250
  6
CONTINUOUS
 70
0
 71
3
 72
9
 73
5
 74
0
 42
0.0000001
 43
0.0000001
 44
0.0000000001
 40
0.0
 40
0.0
 40
0.0
 40
0.0
 40
0.2630261342
 40
1.0
 40
1.0
 40
1.0
 40
1.0
 10
-18.2860193331
 20
-39.358642569
 30
0.0
 10
-18.2837214315
 20
-39.3551962959
 30
0.0
 10
-18.2756696337
 20
-39.3416642868
 30
0.0
 10
-18.2707776149
 20
-39.3261475132
 30
0.0
 10
-18.2696972347
 20
-39.3145920905
 30
0.0
  0
SPLINE
  5
435
100
AcDbEntity
  8
RACCORDO
100
AcDbSpline
 62
250
  6
CONTINUOUS
 70
0
 71
3
 72
9
 73
5
 74
0
 42
0.0000001
 43
0.0000001
 44
0.0000000001
 40
0.0
 40
0.0
 40
0.0
 40
0.0
 40
0.5615976305
 40
1.0
 40
1.0
 40
1.0
 40
1.0
 10
-18.3308915013
 20
-39.4959838758
 30
0.0
 10
-18.3169041648
 20
-39.4879305214
 30
0.0
 10
-18.2928493144
 20
-39.4720927632
 30
0.0
 10
-18.2719967284
 20
-39.4516576074
 30
0.0
 10
-18.264918746
 20
-39.4412340997
 30
0.0
  0
SPLINE
  5
436
100
AcDbEntity
  8
RACCORDO
100
AcDbSpline
 62
250
  6
CONTINUOUS
 70
0
 71
3
 72
9
 73
5
 74
0
 42
0.0000001
 43
0.0000001
 44
0.0000000001
 40
0.0
 40
0.0
 40
0.0
 40
0.0
 40
0.2861359149
 40
1.0
 40
1.0
 40
1.0
 40
1.0
 10
-18.264918746
 20
-39.4412340997
 30
0.0
 10
-18.2631788879
 20
-39.4386718689
 30
0.0
 10
-18.2575778445
 20
-39.4294633775
 30
0.0
 10
-18.2542757944
 20
-39.4184316438
 30
0.0
 10
-18.2547286025
 20
-39.4107181038
 30
0.0
  0
SPLINE
  5
437
100
AcDbEntity
  8
RACCORDO
100
AcDbSpline
 62
250
  6
CONTINUOUS
 70
0
 71
3
 72
10
 73
6
 74
0
 42
0.0000001
 43
0.0000001
 44
0.0000000001
 40
0.0
 40
0.0
 40
0.0
 40
0.0
 40
0.603726372
 40
0.8275646562
 40
1.0
 40
1.0
 40
1.0
 40
1.0
 10
-18.3256604461
 20
-39.5146195392
 30
0.0
 10
-18.3070724088
 20
-39.5038387572
 30
0.0
 10
-18.2821603973
 20
-39.4873725021
 30
0.0
 10
-18.257810231
 20
-39.461254123
 30
0.0
 10
-18.2508704547
 20
-39.4485841095
 30
0.0
 10
-18.2492859428
 20
-39.4426547661
 30
0.0
  0
SPLINE
  5
438
100
AcDbEntity
  8
RACCORDO
100
AcDbSpline
 62
250
  6
CONTINUOUS
 70
0
 71
3
 72
9
 73
5
 74
0
 42
0.0000001
 43
0.0000001
 44
0.0000000001
 40
0.0
 40
0.0
 40
0.0
 40
0.0
 40
0.2678584496
 40
1.0
 40
1.0
 40
1.0
 40
1.0
 10
-18.2492859428
 20
-39.4426547661
 30
0.0
 10
-18.2489366425
 20
-39.4413476624
 30
0.0
 10
-18.2478948016
 20
-39.4364081209
 30
0.0
 10
-18.2481468764
 20
-39.4311475705
 30
0.0
 10
-18.2492235409
 20
-39.4276096741
 30
0.0
  0
SPLINE
  5
439
100
AcDbEntity
  8
RACCORDO
100
AcDbSpline
 62
250
  6
CONTINUOUS
 70
0
 71
3
 72
12
 73
8
 74
0
 42
0.0000001
 43
0.0000001
 44
0.0000000001
 40
0.0
 40
0.0
 40
0.0
 40
0.0
 40
0.3889691454
 40
0.6897056691
 40
0.8027576106
 40
0.8904470215
 40
1.0
 40
1.0
 40
1.0
 40
1.0
 10
-18.3092819765
 20
-39.5600312149
 30
0.0
 10
-18.2966212098
 20
-39.5527633022
 30
0.0
 10
-18.2745162384
 20
-39.5392108231
 30
0.0
 10
-18.2501452525
 20
-39.5215249278
 30
0.0
 10
-18.2364390833
 20
-39.5083298777
 30
0.0
 10
-18.2292478863
 20
-39.499628631
 30
0.0
 10
-18.2259571905
 20
-39.4914250884
 30
0.0
 10
-18.2275360796
 20
-39.4876286465
 30
0.0
  0
SPLINE
  5
43A
100
AcDbEntity
  8
RACCORDO
100
AcDbSpline
 62
250
  6
CONTINUOUS
 70
0
 71
3
 72
12
 73
8
 74
0
 42
0.0000001
 43
0.0000001
 44
0.0000000001
 40
0.0
 40
0.0
 40
0.0
 40
0.0
 40
0.3889887157
 40
0.6897357211
 40
0.8027880406
 40
0.8904734759
 40
1.0
 40
1.0
 40
1.0
 40
1.0
 10
-18.2447200919
 20
-39.6718556673
 30
0.0
 10
-18.2320958518
 20
-39.6645243269
 30
0.0
 10
-18.2093074074
 20
-39.6521555498
 30
0.0
 10
-18.1818071292
 20
-39.639889906
 30
0.0
 10
-18.1635280157
 20
-39.6346148618
 30
0.0
 10
-18.1523992636
 20
-39.6327359314
 30
0.0
 10
-18.1436500391
 20
-39.6339849475
 30
0.0
 10
-18.1411523556
 20
-39.6372495711
 30
0.0
  0
SPLINE
  5
43B
100
AcDbEntity
  8
RACCORDO
100
AcDbSpline
 62
250
  6
CONTINUOUS
 70
0
 71
3
 72
11
 73
7
 74
0
 42
0.0000001
 43
0.0000001
 44
0.0000000001
 40
0.0
 40
0.0
 40
0.0
 40
0.0
 40
0.341894087
 40
0.6236249646
 40
0.8399808878
 40
1.0
 40
1.0
 40
1.0
 40
1.0
 10
-18.2135815016
 20
-39.708745991
 30
0.0
 10
-18.2021785573
 20
-39.7021917227
 30
0.0
 10
-18.1808496084
 20
-39.6911035554
 30
0.0
 10
-18.1503787511
 20
-39.6799402498
 30
0.0
 10
-18.1252482722
 20
-39.6757245256
 30
0.0
 10
-18.1103303555
 20
-39.6787218422
 30
0.0
 10
-18.1050797684
 20
-39.6819351477
 30
0.0
  0
SPLINE
  5
43C
100
AcDbEntity
  8
RACCORDO
100
AcDbSpline
 62
250
  6
CONTINUOUS
 70
0
 71
3
 72
8
 73
4
 74
0
 42
0.0000001
 43
0.0000001
 44
0.0000000001
 40
0.0
 40
0.0
 40
0.0
 40
0.0
 40
1.0
 40
1.0
 40
1.0
 40
1.0
 10
-18.1050797684
 20
-39.6819351477
 30
0.0
 10
-18.1032259515
 20
-39.6830696647
 30
0.0
 10
-18.1015007778
 20
-39.684455663
 30
0.0
 10
-18.1000164804
 20
-39.6860433114
 30
0.0
  0
SPLINE
  5
43D
100
AcDbEntity
  8
RACCORDO
100
AcDbSpline
 62
250
  6
CONTINUOUS
 70
0
 71
3
 72
10
 73
6
 74
0
 42
0.0000001
 43
0.0000001
 44
0.0000000001
 40
0.0
 40
0.0
 40
0.0
 40
0.0
 40
0.3296337989
 40
0.6047866428
 40
1.0
 40
1.0
 40
1.0
 40
1.0
 10
-18.1819557871
 20
-39.712805256
 30
0.0
 10
-18.1723636363
 20
-39.7079968036
 30
0.0
 10
-18.1541554905
 20
-39.7000481065
 30
0.0
 10
-18.1231910886
 20
-39.6914187276
 30
0.0
 10
-18.0988860113
 20
-39.6921840213
 30
0.0
 10
-18.0881403947
 20
-39.6992571278
 30
0.0
  0
SPLINE
  5
43E
100
AcDbEntity
  8
RACCORDO
100
AcDbSpline
 62
250
  6
CONTINUOUS
 70
0
 71
3
 72
9
 73
5
 74
0
 42
0.0000001
 43
0.0000001
 44
0.0000000001
 40
0.0
 40
0.0
 40
0.0
 40
0.0
 40
0.2792636228
 40
1.0
 40
1.0
 40
1.0
 40
1.0
 10
-18.130411615
 20
-39.7762619791
 30
0.0
 10
-18.1229916918
 20
-39.7719778089
 30
0.0
 10
-18.0957276581
 20
-39.7581282597
 30
0.0
 10
-18.0642555258
 20
-39.7506358916
 30
0.0
 10
-18.0422265255
 20
-39.7525557291
 30
0.0
  0
SPLINE
  5
43F
100
AcDbEntity
  8
RACCORDO
100
AcDbSpline
 62
250
  6
CONTINUOUS
 70
0
 71
3
 72
9
 73
5
 74
0
 42
0.0000001
 43
0.0000001
 44
0.0000000001
 40
0.0
 40
0.0
 40
0.0
 40
0.0
 40
0.2568036727
 40
1.0
 40
1.0
 40
1.0
 40
1.0
 10
-18.0422265255
 20
-39.7525557291
 30
0.0
 10
-18.0395894745
 20
-39.7527855492
 30
0.0
 10
-18.0293611882
 20
-39.7540786573
 30
0.0
 10
-18.0193362042
 20
-39.757093562
 30
0.0
 10
-18.01237395
 20
-39.7602892011
 30
0.0
  0
SPLINE
  5
440
100
AcDbEntity
  8
RACCORDO
100
AcDbSpline
 62
250
  6
CONTINUOUS
 70
0
 71
3
 72
11
 73
7
 74
0
 42
0.0000001
 43
0.0000001
 44
0.0000000001
 40
0.0
 40
0.0
 40
0.0
 40
0.0
 40
0.2366860088
 40
0.4975908787
 40
0.7601242491
 40
1.0
 40
1.0
 40
1.0
 40
1.0
 10
-16.6964391506
 20
-6.205738742
 30
0.0
 10
-16.6710615453
 20
-6.219840796
 30
0.0
 10
-16.6232100225
 20
-6.2595948518
 30
0.0
 10
-16.5692618133
 20
-6.3366862403
 30
0.0
 10
-16.53431738
 20
-6.4243615335
 30
0.0
 10
-16.5258583037
 20
-6.4864411196
 30
0.0
 10
-16.52706777
 20
-6.5158400956
 30
0.0
  0
SPLINE
  5
441
100
AcDbEntity
  8
RACCORDO
100
AcDbSpline
 62
250
  6
CONTINUOUS
 70
0
 71
3
 72
11
 73
7
 74
0
 42
0.0000001
 43
0.0000001
 44
0.0000000001
 40
0.0
 40
0.0
 40
0.0
 40
0.0
 40
0.2387972471
 40
0.4999785529
 40
0.7611721442
 40
1.0
 40
1.0
 40
1.0
 40
1.0
 10
-4.4618974237
 20
12.2021293368
 30
0.0
 10
-4.4606657008
 20
12.2314450242
 30
0.0
 10
-4.469474819
 20
12.2934017159
 30
0.0
 10
-4.5066120918
 20
12.3801747615
 30
0.0
 10
-4.5631796729
 20
12.4557363443
 30
0.0
 10
-4.6124259799
 20
12.4943578595
 30
0.0
 10
-4.6384292324
 20
12.5079585303
 30
0.0
  0
SPLINE
  5
442
100
AcDbEntity
  8
RACCORDO
100
AcDbSpline
 62
250
  6
CONTINUOUS
 70
0
 71
3
 72
11
 73
7
 74
0
 42
0.0000001
 43
0.0000001
 44
0.0000000001
 40
0.0
 40
0.0
 40
0.0
 40
0.0
 40
0.2363699628
 40
0.4973715827
 40
0.7598114982
 40
1.0
 40
1.0
 40
1.0
 40
1.0
 10
-4.4618947835
 20
12.2022172531
 30
0.0
 10
-4.4615693631
 20
12.2312088908
 30
0.0
 10
-4.4723123021
 20
12.2924119639
 30
0.0
 10
-4.511687982
 20
12.3777708703
 30
0.0
 10
-4.5698432004
 20
12.4522166786
 30
0.0
 10
-4.6195953166
 20
12.4904132112
 30
0.0
 10
-4.6457644953
 20
12.5039474183
 30
0.0
  0
SPLINE
  5
443
100
AcDbEntity
  8
RACCORDO
100
AcDbSpline
 62
250
  6
CONTINUOUS
 70
0
 71
3
 72
11
 73
7
 74
0
 42
0.0000001
 43
0.0000001
 44
0.0000000001
 40
0.0
 40
0.0
 40
0.0
 40
0.0
 40
0.2387972471
 40
0.4999785529
 40
0.7611721442
 40
1.0
 40
1.0
 40
1.0
 40
1.0
 10
11.448005153
 20
3.015950987
 30
0.0
 10
11.4492368759
 20
3.0452666743
 30
0.0
 10
11.4404277577
 20
3.107223366
 30
0.0
 10
11.4032904849
 20
3.1939964116
 30
0.0
 10
11.3467229038
 20
3.2695579944
 30
0.0
 10
11.2974765968
 20
3.3081795096
 30
0.0
 10
11.2714733443
 20
3.3217801804
 30
0.0
  0
SPLINE
  5
444
100
AcDbEntity
  8
RACCORDO
100
AcDbSpline
 62
250
  6
CONTINUOUS
 70
0
 71
3
 72
11
 73
7
 74
0
 42
0.0000001
 43
0.0000001
 44
0.0000000001
 40
0.0
 40
0.0
 40
0.0
 40
0.0
 40
0.2363699628
 40
0.4973715827
 40
0.7598114982
 40
1.0
 40
1.0
 40
1.0
 40
1.0
 10
11.4480077932
 20
3.0160389032
 30
0.0
 10
11.4483332136
 20
3.0450305409
 30
0.0
 10
11.4375902746
 20
3.106233614
 30
0.0
 10
11.3982145947
 20
3.1915925204
 30
0.0
 10
11.3400593763
 20
3.2660383287
 30
0.0
 10
11.2903072601
 20
3.3042348613
 30
0.0
 10
11.2641380814
 20
3.3177690684
 30
0.0
  0
SPLINE
  5
445
100
AcDbEntity
  8
RACCORDO
100
AcDbSpline
 62
250
  6
CONTINUOUS
 70
0
 71
3
 72
11
 73
7
 74
0
 42
0.0000001
 43
0.0000001
 44
0.0000000001
 40
0.0
 40
0.0
 40
0.0
 40
0.0
 40
0.2366860088
 40
0.4975908787
 40
0.7601242491
 40
1.0
 40
1.0
 40
1.0
 40
1.0
 10
-16.6964391506
 20
33.3930696824
 30
0.0
 10
-16.6710615453
 20
33.3789676285
 30
0.0
 10
-16.6232100225
 20
33.3392135726
 30
0.0
 10
-16.5692618133
 20
33.2621221841
 30
0.0
 10
-16.53431738
 20
33.174446891
 30
0.0
 10
-16.5258583037
 20
33.1123673049
 30
0.0
 10
-16.52706777
 20
33.0829683288
 30
0.0
  0
LINE
  5
446
100
AcDbEntity
  8
RACCORDO
100
AcDbLine
 62
7
  6
CONTINUOUS
 10
-4.4618947835
 20
-45.2879468493
 11
-4.3848360981
 21
-45.2434472283
  0
LINE
  5
447
100
AcDbEntity
  8
RACCORDO
100
AcDbLine
 62
7
  6
CONTINUOUS
 10
-16.2814042796
 20
-24.8159559028
 11
-16.2043455942
 21
-24.7714562817
  0
SPLINE
  5
448
100
AcDbEntity
  8
RACCORDO
100
AcDbSpline
 62
250
  6
CONTINUOUS
 70
0
 71
3
 72
10
 73
6
 74
0
 42
0.0000001
 43
0.0000001
 44
0.0000000001
 40
0.0
 40
0.0
 40
0.0
 40
0.0
 40
0.3076428569
 40
0.6918176693
 40
1.0
 40
1.0
 40
1.0
 40
1.0
 10
-16.52706777
 20
-6.5158649983
 30
0.0
 10
-16.5145547862
 20
-6.5084261747
 30
0.0
 10
-16.4875419312
 20
-6.4897850738
 30
0.0
 10
-16.454200594
 20
-6.4551305973
 30
0.0
 10
-16.4429495626
 20
-6.4224682534
 30
0.0
 10
-16.4428705967
 20
-6.4078857818
 30
0.0
  0
SPLINE
  5
449
100
AcDbEntity
  8
RACCORDO
100
AcDbSpline
 62
250
  6
CONTINUOUS
 70
0
 71
3
 72
9
 73
5
 74
0
 42
0.0000001
 43
0.0000001
 44
0.0000000001
 40
0.0
 40
0.0
 40
0.0
 40
0.0
 40
0.304188209
 40
1.0
 40
1.0
 40
1.0
 40
1.0
 10
-16.6964606914
 20
-6.2057263047
 30
0.0
 10
-16.6853846993
 20
-6.1998943951
 30
0.0
 10
-16.6484875893
 20
-6.1830092169
 30
0.0
 10
-16.6027687465
 20
-6.1759162568
 30
0.0
 10
-16.5763010254
 20
-6.1868393541
 30
0.0
  0
SPLINE
  5
44A
100
AcDbEntity
  8
RACCORDO
100
AcDbSpline
 62
250
  6
CONTINUOUS
 70
0
 71
3
 72
10
 73
6
 74
0
 42
0.0000001
 43
0.0000001
 44
0.0000000001
 40
0.0
 40
0.0
 40
0.0
 40
0.0
 40
0.5253945704
 40
0.7651536418
 40
1.0
 40
1.0
 40
1.0
 40
1.0
 10
7.4948088431
 20
5.4941325299
 30
0.0
 10
7.5197354127
 20
5.5079373708
 30
0.0
 10
7.5609908196
 20
5.5218755528
 30
0.0
 10
7.615640934
 20
5.5171299109
 30
0.0
 10
7.6399770616
 20
5.5074930866
 30
0.0
 10
7.6510315875
 20
5.501167191
 30
0.0
  0
SPLINE
  5
44B
100
AcDbEntity
  8
RACCORDO
100
AcDbSpline
 62
250
  6
CONTINUOUS
 70
0
 71
3
 72
10
 73
6
 74
0
 42
0.0000001
 43
0.0000001
 44
0.0000000001
 40
0.0
 40
0.0
 40
0.0
 40
0.0
 40
0.5253945704
 40
0.7651536418
 40
1.0
 40
1.0
 40
1.0
 40
1.0
 10
-8.4150937336
 20
14.6803108798
 30
0.0
 10
-8.390167164
 20
14.6941157207
 30
0.0
 10
-8.3489117571
 20
14.7080539027
 30
0.0
 10
-8.2942616427
 20
14.7033082608
 30
0.0
 10
-8.2699255151
 20
14.6936714365
 30
0.0
 10
-8.2588709892
 20
14.6873455409
 30
0.0
  0
SPLINE
  5
44C
100
AcDbEntity
  8
RACCORDO
100
AcDbSpline
 62
250
  6
CONTINUOUS
 70
0
 71
3
 72
9
 73
5
 74
0
 42
0.0000001
 43
0.0000001
 44
0.0000000001
 40
0.0
 40
0.0
 40
0.0
 40
0.0
 40
0.304188209
 40
1.0
 40
1.0
 40
1.0
 40
1.0
 10
-16.6964606914
 20
33.3930821198
 30
0.0
 10
-16.6853846993
 20
33.3989140293
 30
0.0
 10
-16.6484875893
 20
33.4157992075
 30
0.0
 10
-16.6027687465
 20
33.4228921677
 30
0.0
 10
-16.5763010254
 20
33.4119690703
 30
0.0
  0
SPLINE
  5
44D
100
AcDbEntity
  8
RACCORDO
100
AcDbSpline
 62
250
  6
CONTINUOUS
 70
0
 71
3
 72
10
 73
6
 74
0
 42
0.0000001
 43
0.0000001
 44
0.0000000001
 40
0.0
 40
0.0
 40
0.0
 40
0.0
 40
0.3076428569
 40
0.6918176693
 40
1.0
 40
1.0
 40
1.0
 40
1.0
 10
-16.52706777
 20
33.0829434261
 30
0.0
 10
-16.5145547862
 20
33.0903822498
 30
0.0
 10
-16.4875419312
 20
33.1090233506
 30
0.0
 10
-16.454200594
 20
33.1436778271
 30
0.0
 10
-16.4429495626
 20
33.1763401711
 30
0.0
 10
-16.4428705967
 20
33.1909226426
 30
0.0
  0
LINE
  5
44E
100
AcDbEntity
  8
RACCORDO
100
AcDbLine
 62
7
  6
CONTINUOUS
 10
-16.2814042796
 20
51.5240149773
 11
-16.2043455942
 21
51.5685145984
  0
SPLINE
  5
44F
100
AcDbEntity
  8
RACCORDO
100
AcDbSpline
 62
250
  6
CONTINUOUS
 70
0
 71
3
 72
11
 73
7
 74
0
 42
0.0000001
 43
0.0000001
 44
0.0000000001
 40
0.0
 40
0.0
 40
0.0
 40
0.0
 40
0.2851102649
 40
0.5434720793
 40
0.7788990399
 40
1.0
 40
1.0
 40
1.0
 40
1.0
 10
-4.4618947835
 20
-45.8157238796
 30
0.0
 10
-4.4616914698
 20
-45.8344433426
 30
0.0
 10
-4.4640658315
 20
-45.8702658022
 30
0.0
 10
-4.4774295735
 20
-45.9200406245
 30
0.0
 10
-4.5002784416
 20
-45.9616424115
 30
0.0
 10
-4.5219745722
 20
-45.9830971174
 30
0.0
 10
-4.5337672631
 20
-45.9915644098
 30
0.0
  0
SPLINE
  5
450
100
AcDbEntity
  8
RACCORDO
100
AcDbSpline
 62
250
  6
CONTINUOUS
 70
0
 71
3
 72
11
 73
7
 74
0
 42
0.0000001
 43
0.0000001
 44
0.0000000001
 40
0.0
 40
0.0
 40
0.0
 40
0.0
 40
0.2851102649
 40
0.5434720793
 40
0.7788990399
 40
1.0
 40
1.0
 40
1.0
 40
1.0
 10
11.4480077932
 20
-55.0019022295
 30
0.0
 10
11.4482111069
 20
-55.0206216924
 30
0.0
 10
11.4458367452
 20
-55.056444152
 30
0.0
 10
11.4324730032
 20
-55.1062189744
 30
0.0
 10
11.4096241351
 20
-55.1478207614
 30
0.0
 10
11.3879280045
 20
-55.1692754673
 30
0.0
 10
11.3761353136
 20
-55.1777427596
 30
0.0
  0
SPLINE
  5
451
100
AcDbEntity
  8
RACCORDO
100
AcDbSpline
 62
250
  6
CONTINUOUS
 70
0
 71
3
 72
11
 73
7
 74
0
 42
0.0000001
 43
0.0000001
 44
0.0000000001
 40
0.0
 40
0.0
 40
0.0
 40
0.0
 40
0.2851102649
 40
0.5434720793
 40
0.7788990399
 40
1.0
 40
1.0
 40
1.0
 40
1.0
 10
11.4480077932
 20
2.9674874228
 30
0.0
 10
11.4482111069
 20
2.9487679599
 30
0.0
 10
11.4458367452
 20
2.9129455002
 30
0.0
 10
11.4324730032
 20
2.8631706779
 30
0.0
 10
11.4096241351
 20
2.8215688909
 30
0.0
 10
11.3879280045
 20
2.800114185
 30
0.0
 10
11.3761353136
 20
2.7916468926
 30
0.0
  0
SPLINE
  5
452
100
AcDbEntity
  8
RACCORDO
100
AcDbSpline
 62
250
  6
CONTINUOUS
 70
0
 71
3
 72
11
 73
7
 74
0
 42
0.0000001
 43
0.0000001
 44
0.0000000001
 40
0.0
 40
0.0
 40
0.0
 40
0.0
 40
0.2851102649
 40
0.5434720793
 40
0.7788990399
 40
1.0
 40
1.0
 40
1.0
 40
1.0
 10
-4.4618947835
 20
12.1536657727
 30
0.0
 10
-4.4616914698
 20
12.1349463097
 30
0.0
 10
-4.4640658315
 20
12.0991238501
 30
0.0
 10
-4.4774295735
 20
12.0493490278
 30
0.0
 10
-4.5002784416
 20
12.0077472408
 30
0.0
 10
-4.5219745722
 20
11.9862925349
 30
0.0
 10
-4.5337672631
 20
11.9778252425
 30
0.0
  0
SPLINE
  5
453
100
AcDbEntity
  8
SUPERFICI
100
AcDbSpline
 62
7
  6
CONTINUOUS
 70
0
 71
3
 72
15
 73
11
 74
0
 42
0.0000001
 43
0.0000001
 44
0.0000000001
 40
0.0
 40
0.0
 40
0.0
 40
0.0
 40
0.1141191263
 40
0.2373395048
 40
0.366964683
 40
0.4999939486
 40
0.6330240562
 40
0.7626516921
 40
0.8858759461
 40
1.0
 40
1.0
 40
1.0
 40
1.0
 10
30.129344492
 20
43.8483201808
 30
0.0
 10
30.129344492
 20
44.0159538553
 30
0.0
 10
30.098567289
 20
44.3649076042
 30
0.0
 10
29.9762238511
 20
44.8913321927
 30
0.0
 10
29.7799993234
 20
45.424572633
 30
0.0
 10
29.5175440051
 20
45.9445554965
 30
0.0
 10
29.1984511505
 20
46.4318427889
 30
0.0
 10
28.8347580382
 20
46.8684073754
 30
0.0
 10
28.4400238776
 20
47.2375868165
 30
0.0
 10
28.1532030993
 20
47.4387302845
 30
0.0
 10
28.0080241485
 20
47.5225547912
 30
0.0
  0
SPLINE
  5
454
100
AcDbEntity
  8
SUPERFICI
100
AcDbSpline
 62
7
  6
CONTINUOUS
 70
0
 71
3
 72
13
 73
9
 74
0
 42
0.0000001
 43
0.0000001
 44
0.0000000001
 40
0.0
 40
0.0
 40
0.0
 40
0.0
 40
0.2904719283
 40
0.5489976399
 40
0.6678841197
 40
0.7814143116
 40
0.8914138806
 40
1.0
 40
1.0
 40
1.0
 40
1.0
 10
-24.3178776593
 20
77.7348746974
 30
0.0
 10
-24.4557222642
 20
77.8144644446
 30
0.0
 10
-24.7296453366
 20
77.9437123895
 30
0.0
 10
-25.090967549
 20
78.0246098356
 30
0.0
 10
-25.3609488716
 20
78.0256117632
 30
0.0
 10
-25.5472225981
 20
77.9967611614
 30
0.0
 10
-25.7206236491
 20
77.9386756909
 30
0.0
 10
-25.826298371
 20
77.8806783575
 30
0.0
 10
-25.8756798614
 20
77.8474814702
 30
0.0
  0
SPLINE
  5
455
100
AcDbEntity
  8
0
100
AcDbSpline
 62
7
  6
CONTINUOUS
 70
0
 71
3
 72
9
 73
5
 74
0
 42
0.0000001
 43
0.0000001
 44
0.0000000001
 40
0.0
 40
0.0
 40
0.0
 40
0.0
 40
0.3465498206
 40
1.0
 40
1.0
 40
1.0
 40
1.0
 10
-20.2570630808
 20
54.10889168
 30
0.0
 10
-20.2592732468
 20
54.1101678021
 30
0.0
 10
-20.265697228
 20
54.1137669907
 30
0.0
 10
-20.2722601736
 20
54.1171315998
 30
0.0
 10
-20.2766608592
 20
54.1190788292
 30
0.0
  0
SPLINE
  5
456
100
AcDbEntity
  8
0
100
AcDbSpline
 62
7
  6
CONTINUOUS
 70
0
 71
3
 72
15
 73
11
 74
0
 42
0.0000001
 43
0.0000001
 44
0.0000000001
 40
0.0
 40
0.0
 40
0.0
 40
0.0
 40
0.0773663524
 40
0.1965479917
 40
0.342076686
 40
0.4999777366
 40
0.6578826102
 40
0.8034209955
 40
0.9226161401
 40
1.0
 40
1.0
 40
1.0
 40
1.0
 10
11.6992029007
 20
35.0919706528
 30
0.0
 10
11.6992029006
 20
35.1180228918
 30
0.0
 10
11.6922517827
 20
35.1841465426
 30
0.0
 10
11.6655962973
 20
35.2964767514
 30
0.0
 10
11.6160133752
 20
35.4302479391
 30
0.0
 10
11.5457678683
 20
35.5691674381
 30
0.0
 10
11.4605797337
 20
35.6994634033
 30
0.0
 10
11.3695163845
 20
35.8092962678
 30
0.0
 10
11.28555293
 20
35.8885548044
 30
0.0
 10
11.2317553249
 20
35.92764258
 30
0.0
 10
11.209188682
 20
35.9406722769
 30
0.0
  0
SPLINE
  5
457
100
AcDbEntity
  8
0
100
AcDbSpline
 62
7
  6
CONTINUOUS
 70
0
 71
3
 72
13
 73
9
 74
0
 42
0.0000001
 43
0.0000001
 44
0.0000000001
 40
0.0
 40
0.0
 40
0.0
 40
0.0
 40
0.1571722446
 40
0.1648637141
 40
0.1702658102
 40
0.2213254708
 40
0.4914834787
 40
1.0
 40
1.0
 40
1.0
 40
1.0
 10
11.6989527539
 20
-1.2607825026
 30
0.0
 10
11.6985783749
 20
-1.2622809999
 30
0.0
 10
11.6983491252
 20
-1.2629599929
 30
0.0
 10
11.6978906686
 20
-1.2656269403
 30
0.0
 10
11.6980330364
 20
-1.2647293095
 30
0.0
 10
11.69832298
 20
-1.262225876
 30
0.0
 10
11.6991054388
 20
-1.2532060998
 30
0.0
 10
11.6992029007
 20
-1.2459539428
 30
0.0
 10
11.6992029007
 20
-1.2409566715
 30
0.0
  0
SPLINE
  5
458
100
AcDbEntity
  8
0
100
AcDbSpline
 62
7
  6
CONTINUOUS
 70
0
 71
3
 72
9
 73
5
 74
0
 42
0.0000001
 43
0.0000001
 44
0.0000000001
 40
0.0
 40
0.0
 40
0.0
 40
0.0
 40
0.4999716219
 40
1.0
 40
1.0
 40
1.0
 40
1.0
 10
-21.6283760376
 20
-40.6709749597
 30
0.0
 10
-21.5551961368
 20
-40.9152769174
 30
0.0
 10
-21.3486397022
 20
-41.3871358728
 30
0.0
 10
-21.0437489046
 20
-41.8022892247
 30
0.0
 10
-20.868977031
 20
-41.9880533324
 30
0.0
  0
SPLINE
  5
459
100
AcDbEntity
  8
0
100
AcDbSpline
 62
7
  6
CONTINUOUS
 70
0
 71
3
 72
9
 73
5
 74
0
 42
0.0000001
 43
0.0000001
 44
0.0000000001
 40
0.0
 40
0.0
 40
0.0
 40
0.0
 40
0.3465498956
 40
1.0
 40
1.0
 40
1.0
 40
1.0
 10
-20.2570630808
 20
-3.8604979723
 30
0.0
 10
-20.2592732478
 20
-3.8592218496
 30
0.0
 10
-20.2656972306
 20
-3.8556226601
 30
0.0
 10
-20.2722601779
 20
-3.8522580503
 30
0.0
 10
-20.2766608642
 20
-3.8503108209
 30
0.0
  0
SPLINE
  5
45A
100
AcDbEntity
  8
0
100
AcDbSpline
 62
7
  6
CONTINUOUS
 70
0
 71
3
 72
15
 73
11
 74
0
 42
0.0000001
 43
0.0000001
 44
0.0000000001
 40
0.0
 40
0.0
 40
0.0
 40
0.0
 40
0.0773663525
 40
0.1965479919
 40
0.3420766862
 40
0.4999777368
 40
0.6578826103
 40
0.8034209955
 40
0.9226161401
 40
1.0
 40
1.0
 40
1.0
 40
1.0
 10
11.6992029007
 20
-22.8774189994
 30
0.0
 10
11.6992029004
 20
-22.8513667603
 30
0.0
 10
11.6922517828
 20
-22.7852431094
 30
0.0
 10
11.6655962972
 20
-22.6729129006
 30
0.0
 10
11.6160133751
 20
-22.5391417129
 30
0.0
 10
11.5457678681
 20
-22.400222214
 30
0.0
 10
11.4605797336
 20
-22.2699262488
 30
0.0
 10
11.3695163844
 20
-22.1600933844
 30
0.0
 10
11.2855529299
 20
-22.0808348478
 30
0.0
 10
11.2317553249
 20
-22.0417470722
 30
0.0
 10
11.209188682
 20
-22.0287173754
 30
0.0
  0
SPLINE
  5
45B
100
AcDbEntity
  8
0
100
AcDbSpline
 62
7
  6
CONTINUOUS
 70
0
 71
3
 72
13
 73
9
 74
0
 42
0.0000001
 43
0.0000001
 44
0.0000000001
 40
0.0
 40
0.0
 40
0.0
 40
0.0
 40
0.1571744041
 40
0.164866353
 40
0.1702679993
 40
0.2213268602
 40
0.4914837527
 40
1.0
 40
1.0
 40
1.0
 40
1.0
 10
11.6989527768
 20
-59.2301720631
 30
0.0
 10
11.6985783902
 20
-59.2316705857
 30
0.0
 10
11.6983491438
 20
-59.2323495409
 30
0.0
 10
11.6978906686
 20
-59.2350165934
 30
0.0
 10
11.6980330313
 20
-59.2341189949
 30
0.0
 10
11.6983229842
 20
-59.2316155163
 30
0.0
 10
11.6991054331
 20
-59.222595803
 30
0.0
 10
11.6992029007
 20
-59.2153436038
 30
0.0
 10
11.6992029007
 20
-59.2103463183
 30
0.0
  0
SPLINE
  5
45C
100
AcDbEntity
  8
SUPERFICI
100
AcDbSpline
 62
7
  6
CONTINUOUS
 70
0
 71
3
 72
13
 73
9
 74
0
 42
0.0000001
 43
0.0000001
 44
0.0000000001
 40
0.0
 40
0.0
 40
0.0
 40
0.0
 40
0.1085889853
 40
0.2185910129
 40
0.3321228679
 40
0.4510099851
 40
0.7095337219
 40
1.0
 40
1.0
 40
1.0
 40
1.0
 10
29.4480417441
 20
-75.9450711514
 30
0.0
 10
29.5014741338
 20
-75.9189040553
 30
0.0
 10
29.6045233745
 20
-75.8563885328
 30
0.0
 10
29.7415076811
 20
-75.7352733148
 30
0.0
 10
29.8596135081
 20
-75.5883991458
 30
0.0
 10
29.9937188119
 20
-75.3541219342
 30
0.0
 10
30.104310777
 20
-75.0008159968
 30
0.0
 10
30.129344492
 20
-74.699015854
 30
0.0
 10
30.129344492
 20
-74.5398699542
 30
0.0
  0
SPLINE
  5
45D
100
AcDbEntity
  8
0
100
AcDbSpline
 62
7
  6
CONTINUOUS
 70
0
 71
3
 72
11
 73
7
 74
0
 42
0.0000001
 43
0.0000001
 44
0.0000000001
 40
0.0
 40
0.0
 40
0.0
 40
0.0
 40
0.2372422216
 40
0.4999938942
 40
0.7627488878
 40
1.0
 40
1.0
 40
1.0
 40
1.0
 10
-19.1913534957
 20
18.0704550215
 30
0.0
 10
-19.1913534957
 20
18.035679014
 30
0.0
 10
-19.1783153055
 20
17.962338221
 30
0.0
 10
-19.1328341634
 20
17.8592949004
 30
0.0
 10
-19.066335685
 20
17.7683844631
 30
0.0
 10
-19.0093390108
 20
17.7204210561
 30
0.0
 10
-18.9792214614
 20
17.7030315605
 30
0.0
  0
SPLINE
  5
45E
100
AcDbEntity
  8
0
100
AcDbSpline
 62
7
  6
CONTINUOUS
 70
0
 71
3
 72
11
 73
7
 74
0
 42
0.0000001
 43
0.0000001
 44
0.0000000001
 40
0.0
 40
0.0
 40
0.0
 40
0.0
 40
0.2372422216
 40
0.4999938942
 40
0.7627488878
 40
1.0
 40
1.0
 40
1.0
 40
1.0
 10
-19.1913534957
 20
-39.8989346308
 30
0.0
 10
-19.1913534957
 20
-39.9337106383
 30
0.0
 10
-19.1783153055
 20
-40.0070514313
 30
0.0
 10
-19.1328341634
 20
-40.1100947519
 30
0.0
 10
-19.066335685
 20
-40.2010051892
 30
0.0
 10
-19.0093390108
 20
-40.2489685962
 30
0.0
 10
-18.9792214614
 20
-40.2663580918
 30
0.0
  0
SPLINE
  5
45F
100
AcDbEntity
  8
RACCORDO
100
AcDbSpline
 62
250
  6
CONTINUOUS
 70
0
 71
3
 72
15
 73
11
 74
0
 42
0.0000001
 43
0.0000001
 44
0.0000000001
 40
0.0
 40
0.0
 40
0.0
 40
0.0
 40
0.124794512
 40
0.1872205164
 40
0.2496650748
 40
0.3746129077
 40
0.4996233805
 40
0.6246796055
 40
0.7497695241
 40
1.0
 40
1.0
 40
1.0
 40
1.0
 10
14.1155452535
 20
-60.1565286993
 30
0.0
 10
14.111419336
 20
-59.4023017163
 30
0.0
 10
14.1121341799
 20
-58.2707574717
 30
0.0
 10
14.1149642953
 20
-56.7618266567
 30
0.0
 10
14.1166439823
 20
-55.2519639888
 30
0.0
 10
14.1179244126
 20
-53.3638512989
 30
0.0
 10
14.1190361106
 20
-51.0973230179
 30
0.0
 10
14.1197441155
 20
-48.8299359687
 30
0.0
 10
14.1202600856
 20
-45.8057389431
 30
0.0
 10
14.1201456472
 20
-43.5373619078
 30
0.0
 10
14.1201792698
 20
-42.0250085386
 30
0.0
  0
SPLINE
  5
460
100
AcDbEntity
  8
RACCORDO
100
AcDbSpline
 62
250
  6
CONTINUOUS
 70
0
 71
3
 72
10
 73
6
 74
0
 42
0.0000001
 43
0.0000001
 44
0.0000000001
 40
0.0
 40
0.0
 40
0.0
 40
0.0
 40
0.2397124872
 40
0.4868950882
 40
1.0
 40
1.0
 40
1.0
 40
1.0
 10
14.1201792698
 20
-42.0250085386
 30
0.0
 10
14.98235995
 20
-42.4582700764
 30
0.0
 10
16.7586499179
 20
-43.2893049284
 30
0.0
 10
20.4883653699
 20
-44.8064588943
 30
0.0
 10
23.4064444061
 20
-45.7485304921
 30
0.0
 10
25.3976086566
 20
-46.2973440592
 30
0.0
  0
SPLINE
  5
461
100
AcDbEntity
  8
RACCORDO
100
AcDbSpline
 62
250
  6
CONTINUOUS
 70
0
 71
3
 72
37
 73
33
 74
0
 42
0.0000001
 43
0.0000001
 44
0.0000000001
 40
0.0
 40
0.0
 40
0.0
 40
0.0
 40
0.007508177
 40
0.0112659265
 40
0.0150250705
 40
0.0187837235
 40
0.0225395962
 40
0.0244206741
 40
0.0263129017
 40
0.0301789261
 40
0.0340553417
 40
0.0379251335
 40
0.0417966848
 40
0.0456694784
 40
0.0534144998
 40
0.0611592551
 40
0.0766515
 40
0.0921487095
 40
0.1076535848
 40
0.1231691616
 40
0.15424242
 40
0.1853767968
 40
0.2165699928
 40
0.2478136675
 40
0.3103971313
 40
0.3730203716
 40
0.4356588613
 40
0.4983133154
 40
0.6236662106
 40
0.7490715674
 40
0.8745199675
 40
1.0
 40
1.0
 40
1.0
 40
1.0
 10
25.3352907448
 20
-76.4333868809
 30
0.0
 10
25.3343686534
 20
-76.3579689236
 30
0.0
 10
25.3337302099
 20
-76.2447924925
 30
0.0
 10
25.3349172337
 20
-76.0938601359
 30
0.0
 10
25.3370632536
 20
-75.9806092968
 30
0.0
 10
25.3407095903
 20
-75.8674123558
 30
0.0
 10
25.3458013443
 20
-75.7731568867
 30
0.0
 10
25.3506470694
 20
-75.6976836565
 30
0.0
 10
25.3557988956
 20
-75.6210914975
 30
0.0
 10
25.354674293
 20
-75.5242379322
 30
0.0
 10
25.3549836748
 20
-75.4076085199
 30
0.0
 10
25.3556988106
 20
-75.2908983851
 30
0.0
 10
25.3562005527
 20
-75.1742308343
 30
0.0
 10
25.3567542652
 20
-75.0186324753
 30
0.0
 10
25.3575433749
 20
-74.824127084
 30
0.0
 10
25.3589346974
 20
-74.5128993656
 30
0.0
 10
25.3607258762
 20
-74.1237979811
 30
0.0
 10
25.363066463
 20
-73.6567437752
 30
0.0
 10
25.365571856
 20
-73.1894560658
 30
0.0
 10
25.3690557675
 20
-72.5657017531
 30
0.0
 10
25.3733851876
 20
-71.7849431221
 30
0.0
 10
25.377978732
 20
-70.8466936922
 30
0.0
 10
25.3817537553
 20
-69.9067286724
 30
0.0
 10
25.3856270755
 20
-68.6508392129
 30
0.0
 10
25.3877919276
 20
-67.0792135629
 30
0.0
 10
25.3896566881
 20
-65.1922107027
 30
0.0
 10
25.3914400185
 20
-63.3044944031
 30
0.0
 10
25.3934236481
 20
-60.7866256613
 30
0.0
 10
25.395354477
 20
-57.6382304305
 30
0.0
 10
25.3968020608
 20
-53.8590366185
 30
0.0
 10
25.3975155912
 20
-50.078565443
 30
0.0
 10
25.3976108666
 20
-47.5578571062
 30
0.0
 10
25.3976086566
 20
-46.2973440579
 30
0.0
  0
SPLINE
  5
462
100
AcDbEntity
  8
RACCORDO
100
AcDbSpline
 62
250
  6
CONTINUOUS
 70
0
 71
3
 72
17
 73
13
 74
0
 42
0.0000001
 43
0.0000001
 44
0.0000000001
 40
0.0
 40
0.0
 40
0.0
 40
0.0
 40
0.1111479038
 40
0.229787332
 40
0.4827917915
 40
0.6134854962
 40
0.6789943356
 40
0.7442968233
 40
0.8092209526
 40
0.8736311702
 40
0.9373094284
 40
1.0
 40
1.0
 40
1.0
 40
1.0
 10
-22.44627937
 20
18.890932388
 30
0.0
 10
-22.4462810528
 20
18.7342799411
 30
0.0
 10
-22.4259428258
 20
18.4102050469
 30
0.0
 10
-22.3124835355
 20
17.7384057728
 30
0.0
 10
-22.0938325763
 20
17.0601875774
 30
0.0
 10
-21.8262362964
 20
16.4858679259
 30
0.0
 10
-21.649703263
 20
16.1621847293
 30
0.0
 10
-21.507025445
 20
15.9259761749
 30
0.0
 10
-21.3554657069
 20
15.6972337497
 30
0.0
 10
-21.1958985062
 20
15.4768011072
 30
0.0
 10
-21.0274853915
 20
15.2670299161
 30
0.0
 10
-20.9081402616
 20
15.1346649763
 30
0.0
 10
-20.8470883326
 20
15.0707938573
 30
0.0
  0
SPLINE
  5
463
100
AcDbEntity
  8
RACCORDO
100
AcDbSpline
 62
250
  6
CONTINUOUS
 70
0
 71
3
 72
18
 73
14
 74
0
 42
0.0000001
 43
0.0000001
 44
0.0000000001
 40
0.0
 40
0.0
 40
0.0
 40
0.0
 40
0.063690363
 40
0.1242290227
 40
0.182252041
 40
0.2384892958
 40
0.2935379321
 40
0.3480703129
 40
0.4583586073
 40
0.5752759633
 40
0.703306579
 40
0.8447133817
 40
1.0
 40
1.0
 40
1.0
 40
1.0
 10
-20.8470886352
 20
-0.931146705
 30
0.0
 10
-20.906021958
 20
-0.9247466792
 30
0.0
 10
-21.0216707676
 20
-0.9175677304
 30
0.0
 10
-21.1914446485
 20
-0.9258609989
 30
0.0
 10
-21.3524070677
 20
-0.9514823475
 30
0.0
 10
-21.5049696513
 20
-0.992115904
 30
0.0
 10
-21.6487962319
 20
-1.0492910508
 30
0.0
 10
-21.8276249018
 20
-1.1498955299
 30
0.0
 10
-22.0281444251
 20
-1.3239424903
 30
0.0
 10
-22.2168925328
 20
-1.5991886862
 30
0.0
 10
-22.3507541717
 20
-1.9355455102
 30
0.0
 10
-22.4303126101
 20
-2.3243803766
 30
0.0
 10
-22.4462838172
 20
-2.6009968955
 30
0.0
 10
-22.44627937
 20
-2.745529947
 30
0.0
  0
SPLINE
  5
464
100
AcDbEntity
  8
RACCORDO
100
AcDbSpline
 62
250
  6
CONTINUOUS
 70
0
 71
3
 72
9
 73
5
 74
0
 42
0.0000001
 43
0.0000001
 44
0.0000000001
 40
0.0
 40
0.0
 40
0.0
 40
0.0
 40
0.5173982008
 40
1.0
 40
1.0
 40
1.0
 40
1.0
 10
-20.8470883326
 20
15.0707943741
 30
0.0
 10
-20.7100514674
 20
14.9344685791
 30
0.0
 10
-20.4304592228
 20
14.6852549741
 30
0.0
 10
-20.1211816829
 20
14.4732231568
 30
0.0
 10
-19.9650419894
 20
14.3830700547
 30
0.0
  0
SPLINE
  5
465
100
AcDbEntity
  8
RACCORDO
100
AcDbSpline
 62
250
  6
CONTINUOUS
 70
0
 71
3
 72
9
 73
5
 74
0
 42
0.0000001
 43
0.0000001
 44
0.0000000001
 40
0.0
 40
0.0
 40
0.0
 40
0.0
 40
0.2688610346
 40
1.0
 40
1.0
 40
1.0
 40
1.0
 10
11.5012097734
 20
-3.7851493484
 30
0.0
 10
11.5745394204
 20
-3.8274889676
 30
0.0
 10
11.8526771695
 20
-3.9748013979
 30
0.0
 10
12.1558819675
 20
-4.0796184111
 30
0.0
 10
12.3832563156
 20
-4.115990083
 30
0.0
  0
SPLINE
  5
466
100
AcDbEntity
  8
RACCORDO
100
AcDbSpline
 62
250
  6
CONTINUOUS
 70
0
 71
3
 72
9
 73
5
 74
0
 42
0.0000001
 43
0.0000001
 44
0.0000000001
 40
0.0
 40
0.0
 40
0.0
 40
0.0
 40
0.5173982052
 40
1.0
 40
1.0
 40
1.0
 40
1.0
 10
12.383256015
 20
-20.1179315671
 30
0.0
 10
12.2462191655
 20
-19.9816057877
 30
0.0
 10
11.9666269501
 20
-19.7323922187
 30
0.0
 10
11.6573494462
 20
-19.5203604314
 30
0.0
 10
11.5012097734
 20
-19.4302073411
 30
0.0
  0
SPLINE
  5
467
100
AcDbEntity
  8
RACCORDO
100
AcDbSpline
 62
250
  6
CONTINUOUS
 70
0
 71
3
 72
9
 73
5
 74
0
 42
0.0000001
 43
0.0000001
 44
0.0000000001
 40
0.0
 40
0.0
 40
0.0
 40
0.0
 40
0.2688610376
 40
1.0
 40
1.0
 40
1.0
 40
1.0
 10
-19.9650419894
 20
-1.2619879381
 30
0.0
 10
-20.0383716456
 20
-1.2196483136
 30
0.0
 10
-20.3165094266
 20
-1.0723358672
 30
0.0
 10
-20.6197142625
 20
-0.9675188551
 30
0.0
 10
-20.8470886352
 20
-0.9311471792
 30
0.0
  0
SPLINE
  5
468
100
AcDbEntity
  8
RACCORDO
100
AcDbSpline
 62
250
  6
CONTINUOUS
 70
0
 71
3
 72
17
 73
13
 74
0
 42
0.0000001
 43
0.0000001
 44
0.0000000001
 40
0.0
 40
0.0
 40
0.0
 40
0.0
 40
0.1110066809
 40
0.2289222175
 40
0.4804890223
 40
0.6111659628
 40
0.6768965137
 40
0.7425632952
 40
0.8079536149
 40
0.8728659451
 40
0.9369988027
 40
1.0
 40
1.0
 40
1.0
 40
1.0
 10
14.120179267
 20
-23.8585448786
 30
0.0
 10
14.1201822635
 20
-23.702590048
 30
0.0
 10
14.0969774091
 20
-23.380686942
 30
0.0
 10
13.966805184
 20
-22.7170776283
 30
0.0
 10
13.7171506111
 20
-22.0541732891
 30
0.0
 10
13.4194085921
 20
-21.4992251615
 30
0.0
 10
13.2254983987
 20
-21.1860869542
 30
0.0
 10
13.0702776669
 20
-20.9572192345
 30
0.0
 10
12.9074886071
 20
-20.7351175995
 30
0.0
 10
12.7390358459
 20
-20.5200139058
 30
0.0
 10
12.565149095
 20
-20.3136263423
 30
0.0
 10
12.4444149323
 20
-20.1819140776
 30
0.0
 10
12.383256015
 20
-20.1179310349
 30
0.0
  0
SPLINE
  5
469
100
AcDbEntity
  8
RACCORDO
100
AcDbSpline
 62
250
  6
CONTINUOUS
 70
0
 71
3
 72
18
 73
14
 74
0
 42
0.0000001
 43
0.0000001
 44
0.0000000001
 40
0.0
 40
0.0
 40
0.0
 40
0.0
 40
0.061205742
 40
0.1207403962
 40
0.1791827892
 40
0.2369212269
 40
0.2941505155
 40
0.3511962819
 40
0.4663140572
 40
0.5860535073
 40
0.713714736
 40
0.8513939319
 40
1.0
 40
1.0
 40
1.0
 40
1.0
 10
12.3832563156
 20
-4.115990573
 30
0.0
 10
12.4427953526
 20
-4.1224563598
 30
0.0
 10
12.5610802482
 20
-4.1288850062
 30
0.0
 10
12.7364200917
 20
-4.1171334983
 30
0.0
 10
12.9058763201
 20
-4.0861996839
 30
0.0
 10
13.0691749751
 20
-4.0390474039
 30
0.0
 10
13.2251371151
 20
-3.9746829402
 30
0.0
 10
13.4210339233
 20
-3.8641338895
 30
0.0
 10
13.6424840674
 20
-3.679064174
 30
0.0
 10
13.8555998469
 20
-3.3916557621
 30
0.0
 10
14.0092044622
 20
-3.0446356073
 30
0.0
 10
14.1013494057
 20
-2.648212909
 30
0.0
 10
14.1201872667
 20
-2.3674918169
 30
0.0
 10
14.120179267
 20
-2.2220825436
 30
0.0
  0
SPLINE
  5
46A
100
AcDbEntity
  8
RACCORDO
100
AcDbSpline
 62
250
  6
CONTINUOUS
 70
0
 71
3
 72
33
 73
29
 74
0
 42
0.0000001
 43
0.0000001
 44
0.0000000001
 40
0.0
 40
0.0
 40
0.0
 40
0.0
 40
0.124852648
 40
0.2497158353
 40
0.3745929421
 40
0.4994862511
 40
0.5619394296
 40
0.6243973623
 40
0.6868595519
 40
0.749345081
 40
0.8118966018
 40
0.8431963767
 40
0.8745069321
 40
0.8901632007
 40
0.9058177621
 40
0.9214693957
 40
0.9371178836
 40
0.9449411417
 40
0.9527626257
 40
0.9605845277
 40
0.9644980225
 40
0.9684017968
 40
0.9723219632
 40
0.9763528177
 40
0.9803675088
 40
0.9843432213
 40
0.9922112704
 40
1.0
 40
1.0
 40
1.0
 40
1.0
 10
-29.8457048265
 20
-14.400547209
 30
0.0
 10
-29.8457155979
 20
-15.6612051929
 30
0.0
 10
-29.8454187541
 20
-18.1826276153
 30
0.0
 10
-29.8433008633
 20
-21.9649545269
 30
0.0
 10
-29.8389260659
 20
-25.7476901618
 30
0.0
 10
-29.8329749987
 20
-28.9002585426
 30
0.0
 10
-29.8266753911
 20
-31.4225675696
 30
0.0
 10
-29.8210798972
 20
-33.3144988457
 30
0.0
 10
-29.8147465029
 20
-35.2067541456
 30
0.0
 10
-29.8074919614
 20
-37.0999522668
 30
0.0
 10
-29.7947576258
 20
-38.678469283
 30
0.0
 10
-29.778307141
 20
-39.9421445956
 30
0.0
 10
-29.7653540883
 20
-40.7323108333
 30
0.0
 10
-29.7535521942
 20
-41.3644993729
 30
0.0
 10
-29.7441588645
 20
-41.8385942349
 30
0.0
 10
-29.7343720872
 20
-42.3126024747
 30
0.0
 10
-29.7260239894
 20
-42.7075496173
 30
0.0
 10
-29.7192456935
 20
-43.0234497254
 30
0.0
 10
-29.7141610107
 20
-43.2603421906
 30
0.0
 10
-29.7100335878
 20
-43.4577668634
 30
0.0
 10
-29.7063675552
 20
-43.6156385161
 30
0.0
 10
-29.7039253977
 20
-43.7341197349
 30
0.0
 10
-29.7023940841
 20
-43.853845648
 30
0.0
 10
-29.6935710957
 20
-43.9743815069
 30
0.0
 10
-29.6852741791
 20
-44.0954682262
 30
0.0
 10
-29.6743625301
 20
-44.2552246779
 30
0.0
 10
-29.6608142048
 20
-44.4529921635
 30
0.0
 10
-29.6495734119
 20
-44.6106818666
 30
0.0
 10
-29.6438540582
 20
-44.6891177221
 30
0.0
  0
SPLINE
  5
46B
100
AcDbEntity
  8
RACCORDO
100
AcDbSpline
 62
250
  6
CONTINUOUS
 70
0
 71
3
 72
10
 73
6
 74
0
 42
0.0000001
 43
0.0000001
 44
0.0000000001
 40
0.0
 40
0.0
 40
0.0
 40
0.0
 40
0.4808208721
 40
0.7357985503
 40
1.0
 40
1.0
 40
1.0
 40
1.0
 10
-29.8457048265
 20
-14.400547217
 30
0.0
 10
-28.8361064671
 20
-15.6216875868
 30
0.0
 10
-27.1230402139
 20
-17.356375025
 30
0.0
 10
-24.5685818356
 20
-19.4399054715
 30
0.0
 10
-23.171768845
 20
-20.4306957007
 30
0.0
 10
-22.4462793725
 20
-20.9119936048
 30
0.0
  0
SPLINE
  5
46C
100
AcDbEntity
  8
RACCORDO
100
AcDbSpline
 62
250
  6
CONTINUOUS
 70
0
 71
3
 72
15
 73
11
 74
0
 42
0.0000001
 43
0.0000001
 44
0.0000000001
 40
0.0
 40
0.0
 40
0.0
 40
0.0
 40
0.2499663245
 40
0.4999645516
 40
0.6249815634
 40
0.7500167651
 40
0.8125503401
 40
0.8750994159
 40
0.9376098834
 40
1.0
 40
1.0
 40
1.0
 40
1.0
 10
-22.4462793725
 20
-20.9119936053
 30
0.0
 10
-22.44628425
 20
-22.424344728
 30
0.0
 10
-22.446903934
 20
-25.449239923
 30
0.0
 10
-22.4451335635
 20
-29.230515795
 30
0.0
 10
-22.440967646
 20
-32.2559280879
 30
0.0
 10
-22.4366929502
 20
-34.1471362266
 30
0.0
 10
-22.4320782904
 20
-35.6603971455
 30
0.0
 10
-22.4277172722
 20
-36.7953685743
 30
0.0
 10
-22.4240189505
 20
-37.9294733747
 30
0.0
 10
-22.4206904048
 20
-38.6851442442
 30
0.0
 10
-22.4178443509
 20
-39.0626074126
 30
0.0
  0
SPLINE
  5
46D
100
AcDbEntity
  8
RACCORDO
100
AcDbSpline
 62
250
  6
CONTINUOUS
 70
0
 71
3
 72
33
 73
29
 74
0
 42
0.0000001
 43
0.0000001
 44
0.0000000001
 40
0.0
 40
0.0
 40
0.0
 40
0.0
 40
0.0557911092
 40
0.1143245777
 40
0.1445456543
 40
0.1753352124
 40
0.1909512259
 40
0.2067177023
 40
0.2225483193
 40
0.2383279417
 40
0.2541223291
 40
0.2700129575
 40
0.3021015202
 40
0.334549416
 40
0.367303653
 40
0.4334892478
 40
0.5001863533
 40
0.5669055262
 40
0.633177313
 40
0.6660066183
 40
0.6985652159
 40
0.7307683237
 40
0.7625803217
 40
0.8249127294
 40
0.8553696993
 40
0.8853390699
 40
0.9439876072
 40
1.0
 40
1.0
 40
1.0
 40
1.0
 10
-22.4178443509
 20
-39.0626074126
 30
0.0
 10
-22.4171005702
 20
-39.1612878703
 30
0.0
 10
-22.4072689832
 20
-39.3634984457
 30
0.0
 10
-22.3761055266
 20
-39.6174861123
 30
0.0
 10
-22.3395808963
 20
-39.8257876997
 30
0.0
 10
-22.3119290006
 20
-39.9585024997
 30
0.0
 10
-22.2866473426
 20
-40.0655339798
 30
0.0
 10
-22.2657241919
 20
-40.1463851893
 30
0.0
 10
-22.2439209035
 20
-40.2272993141
 30
0.0
 10
-22.2229555162
 20
-40.3084855495
 30
0.0
 10
-22.2014235373
 20
-40.3896357269
 30
0.0
 10
-22.1703819409
 20
-40.4980902553
 30
0.0
 10
-22.1274206047
 20
-40.6337421986
 30
0.0
 10
-22.069709367
 20
-40.7959021262
 30
0.0
 10
-21.9842026454
 20
-41.0120399664
 30
0.0
 10
-21.8625809968
 20
-41.2788460322
 30
0.0
 10
-21.6952107179
 20
-41.5899772213
 30
0.0
 10
-21.5084656333
 20
-41.8900580433
 30
0.0
 10
-21.3378763356
 20
-42.1288963669
 30
0.0
 10
-21.1943689554
 20
-42.3123286231
 30
0.0
 10
-21.0847390591
 20
-42.4456902878
 30
0.0
 10
-20.9723634714
 20
-42.5743856072
 30
0.0
 10
-20.8196156955
 20
-42.7375634
 30
0.0
 10
-20.6612288487
 20
-42.8910949132
 30
0.0
 10
-20.4976814999
 20
-43.0339913086
 30
0.0
 10
-20.3341365416
 20
-43.1667361495
 30
0.0
 10
-20.1305235426
 20
-43.3218516755
 30
0.0
 10
-19.9600879778
 20
-43.4322564197
 30
0.0
 10
-19.874870315
 20
-43.4827909579
 30
0.0
  0
SPLINE
  5
46E
100
AcDbEntity
  8
RACCORDO
100
AcDbSpline
 62
250
  6
CONTINUOUS
 70
0
 71
3
 72
11
 73
7
 74
0
 42
0.0000001
 43
0.0000001
 44
0.0000000001
 40
0.0
 40
0.0
 40
0.0
 40
0.0
 40
0.2501201799
 40
0.5001522306
 40
0.7500924419
 40
1.0
 40
1.0
 40
1.0
 40
1.0
 10
-19.874870315
 20
-43.4827909579
 30
0.0
 10
-19.2608672902
 20
-43.8469112636
 30
0.0
 10
-18.028149052
 20
-44.5666851162
 30
0.0
 10
-16.1772409172
 20
-45.6423664588
 30
0.0
 10
-14.324233994
 20
-46.7132323562
 30
0.0
 10
-13.0886045185
 20
-47.4262212914
 30
0.0
 10
-12.4709468151
 20
-47.7828951894
 30
0.0
  0
SPLINE
  5
46F
100
AcDbEntity
  8
RACCORDO
100
AcDbSpline
 62
250
  6
CONTINUOUS
 70
0
 71
3
 72
10
 73
6
 74
0
 42
0.0000001
 43
0.0000001
 44
0.0000000001
 40
0.0
 40
0.0
 40
0.0
 40
0.0
 40
0.2650058086
 40
0.5196962423
 40
1.0
 40
1.0
 40
1.0
 40
1.0
 10
-12.4709468151
 20
-47.7828951894
 30
0.0
 10
-12.4167682923
 20
-48.6543538756
 30
0.0
 10
-12.2570048824
 20
-50.3608800073
 30
0.0
 10
-11.7293648695
 20
-53.6142887844
 30
0.0
 10
-11.0844710598
 20
-55.9622473597
 30
0.0
 10
-10.5325361314
 20
-57.4453824497
 30
0.0
  0
SPLINE
  5
470
100
AcDbEntity
  8
RACCORDO
100
AcDbSpline
 62
250
  6
CONTINUOUS
 70
0
 71
3
 72
32
 73
28
 74
0
 42
0.0000001
 43
0.0000001
 44
0.0000000001
 40
0.0
 40
0.0
 40
0.0
 40
0.0
 40
0.0078181292
 40
0.0156840775
 40
0.019642386
 40
0.0236146456
 40
0.0314481835
 40
0.0392576314
 40
0.047069512
 40
0.0626929221
 40
0.0939449317
 40
0.1252062037
 40
0.1564789564
 40
0.1877217272
 40
0.2190068904
 40
0.250324889
 40
0.2659870105
 40
0.2816229122
 40
0.3128930415
 40
0.37544397
 40
0.4380054743
 40
0.5005589524
 40
0.5630846689
 40
0.6255769034
 40
0.7504573183
 40
0.8752344836
 40
1.0
 40
1.0
 40
1.0
 40
1.0
 10
-28.3336240239
 20
-46.9207702336
 30
0.0
 10
-28.2885281185
 20
-46.9502838883
 30
0.0
 10
-28.1979690517
 20
-47.0093521226
 30
0.0
 10
-28.0841896396
 20
-47.0827666329
 30
0.0
 10
-27.9925928879
 20
-47.1416548353
 30
0.0
 10
-27.9012667478
 20
-47.2005671217
 30
0.0
 10
-27.785080042
 20
-47.269782899
 30
0.0
 10
-27.6467167351
 20
-47.3534309778
 30
0.0
 10
-27.4622923877
 20
-47.4647014611
 30
0.0
 10
-27.1396240951
 20
-47.6596591038
 30
0.0
 10
-26.6788198557
 20
-47.9385831124
 30
0.0
 10
-26.1259651815
 20
-48.2737648504
 30
0.0
 10
-25.5733987148
 20
-48.6092994163
 30
0.0
 10
-25.0196351926
 20
-48.9431777778
 30
0.0
 10
-24.4677054755
 20
-49.2806770161
 30
0.0
 10
-24.0065089985
 20
-49.5606633657
 30
0.0
 10
-23.6370305002
 20
-49.783842909
 30
0.0
 10
-23.2669292406
 20
-50.0053458073
 30
0.0
 10
-22.6198919198
 20
-50.3935412417
 30
0.0
 10
-21.695257032
 20
-50.9478209799
 30
0.0
 10
-20.5848819973
 20
-51.6116919143
 30
0.0
 10
-19.4725485958
 20
-52.2719393086
 30
0.0
 10
-18.3582728513
 20
-52.9279624037
 30
0.0
 10
-16.8708069132
 20
-53.7969666105
 30
0.0
 10
-15.0079248889
 20
-54.8740649138
 30
0.0
 10
-12.76923139
 20
-56.1587778176
 30
0.0
 10
-11.2774171081
 20
-57.0153812484
 30
0.0
 10
-10.5325361314
 20
-57.4453824497
 30
0.0
  0
SPLINE
  5
471
100
AcDbEntity
  8
RACCORDO
100
AcDbSpline
 62
250
  6
CONTINUOUS
 70
0
 71
3
 72
13
 73
9
 74
0
 42
0.0000001
 43
0.0000001
 44
0.0000000001
 40
0.0
 40
0.0
 40
0.0
 40
0.0
 40
0.114027332
 40
0.2374528003
 40
0.4999757472
 40
0.7623403652
 40
0.8857127486
 40
1.0
 40
1.0
 40
1.0
 40
1.0
 10
-29.6438540582
 20
-44.6891177221
 30
0.0
 10
-29.6364872852
 20
-44.7900856022
 30
0.0
 10
-29.6051185859
 20
-44.9993272038
 30
0.0
 10
-29.4865835906
 20
-45.4279107071
 30
0.0
 10
-29.2434015832
 20
-45.9543117091
 30
0.0
 10
-28.9031157732
 20
-46.4238700842
 30
0.0
 10
-28.5864249754
 20
-46.7361384582
 30
0.0
 10
-28.4185227476
 20
-46.8652025699
 30
0.0
 10
-28.3336240239
 20
-46.9207702336
 30
0.0
  0
SPLINE
  5
472
100
AcDbEntity
  8
RACCORDO
100
AcDbSpline
 62
250
  6
CONTINUOUS
 70
0
 71
3
 72
30
 73
26
 74
0
 42
0.0000001
 43
0.0000001
 44
0.0000000001
 40
0.0
 40
0.0
 40
0.0
 40
0.0
 40
0.0560906678
 40
0.114601293
 40
0.1447225063
 40
0.1753710539
 40
0.1909028797
 40
0.2065760206
 40
0.2223113704
 40
0.2380109409
 40
0.2537454088
 40
0.2695918953
 40
0.3016284786
 40
0.3340637992
 40
0.3668349734
 40
0.4331113827
 40
0.4999252102
 40
0.632993437
 40
0.6984168388
 40
0.762525114
 40
0.8248911851
 40
0.855326502
 40
0.8852435181
 40
0.9437877396
 40
1.0
 40
1.0
 40
1.0
 40
1.0
 10
14.1155452535
 20
34.1087373244
 30
0.0
 10
14.1160835694
 20
34.2077845067
 30
0.0
 10
14.1076845613
 20
34.4102893107
 30
0.0
 10
14.0753048833
 20
34.6640962228
 30
0.0
 10
14.0360146404
 20
34.8710748286
 30
0.0
 10
14.0059620039
 20
35.002458099
 30
0.0
 10
13.97825793
 20
35.1081218396
 30
0.0
 10
13.9551597211
 20
35.1877352741
 30
0.0
 10
13.9309763653
 20
35.2673301564
 30
0.0
 10
13.9080886115
 20
35.3474205863
 30
0.0
 10
13.8849975352
 20
35.427656237
 30
0.0
 10
13.8521007503
 20
35.5350776352
 30
0.0
 10
13.8071901236
 20
35.6696382293
 30
0.0
 10
13.7477604241
 20
35.8307752637
 30
0.0
 10
13.6606350653
 20
36.0460214261
 30
0.0
 10
13.5382996397
 20
36.312370295
 30
0.0
 10
13.3167359573
 20
36.7270855611
 30
0.0
 10
13.0604591981
 20
37.1208067952
 30
0.0
 10
12.7732132997
 20
37.4851852893
 30
0.0
 10
12.5455618038
 20
37.736531669
 30
0.0
 10
12.3472455752
 20
37.9303000485
 30
0.0
 10
12.1850195333
 20
38.0740463723
 30
0.0
 10
12.0232305709
 20
38.2078674629
 30
0.0
 10
11.8216207539
 20
38.365089807
 30
0.0
 10
11.6507292878
 20
38.4746725605
 30
0.0
 10
11.5648596162
 20
38.5244682877
 30
0.0
  0
SPLINE
  5
473
100
AcDbEntity
  8
RACCORDO
100
AcDbSpline
 62
250
  6
CONTINUOUS
 70
0
 71
3
 72
9
 73
5
 74
0
 42
0.0000001
 43
0.0000001
 44
0.0000000001
 40
0.0
 40
0.0
 40
0.0
 40
0.0
 40
0.2554692222
 40
1.0
 40
1.0
 40
1.0
 40
1.0
 10
-21.2761137387
 20
16.5158533697
 30
0.0
 10
-21.2426184793
 20
16.4612733124
 30
0.0
 10
-21.1055202128
 20
16.251397374
 30
0.0
 10
-20.944623784
 20
16.0567602311
 30
0.0
 10
-20.8123127702
 20
15.9251356369
 30
0.0
  0
SPLINE
  5
474
100
AcDbEntity
  8
RACCORDO
100
AcDbSpline
 62
250
  6
CONTINUOUS
 70
0
 71
3
 72
10
 73
6
 74
0
 42
0.0000001
 43
0.0000001
 44
0.0000000001
 40
0.0
 40
0.0
 40
0.0
 40
0.0
 40
0.2404610516
 40
0.4874121169
 40
1.0
 40
1.0
 40
1.0
 40
1.0
 10
4.1460625428
 20
42.8159847043
 30
0.0
 10
4.2021053829
 20
43.7821477026
 30
0.0
 10
4.3708154511
 20
45.7377551996
 30
0.0
 10
4.9223449908
 20
49.725663299
 30
0.0
 10
5.5648131571
 20
52.7204020931
 30
0.0
 10
6.0844732265
 20
54.7169000341
 30
0.0
  0
SPLINE
  5
475
100
AcDbEntity
  8
RACCORDO
100
AcDbSpline
 62
250
  6
CONTINUOUS
 70
0
 71
3
 72
32
 73
28
 74
0
 42
0.0000001
 43
0.0000001
 44
0.0000000001
 40
0.0
 40
0.0
 40
0.0
 40
0.0
 40
0.0080018209
 40
0.0159875339
 40
0.0199777738
 40
0.0239617861
 40
0.0318288854
 40
0.0396795501
 40
0.0475326927
 40
0.063242161
 40
0.0789565123
 40
0.0946750868
 40
0.1261216402
 40
0.1575693889
 40
0.1732849815
 40
0.18900023
 40
0.2047393991
 40
0.2204861496
 40
0.2519446964
 40
0.2676502953
 40
0.2833304965
 40
0.3146908815
 40
0.3774047449
 40
0.5026316819
 40
0.6273888167
 40
0.7517324535
 40
1.0
 40
1.0
 40
1.0
 40
1.0
 10
24.0451027794
 20
44.2844051733
 30
0.0
 10
23.9970676336
 20
44.3120083889
 30
0.0
 10
23.901378045
 20
44.3676540335
 30
0.0
 10
23.7824823489
 20
44.4383413044
 30
0.0
 10
23.6881158457
 20
44.4958348113
 30
0.0
 10
23.5952920281
 20
44.5542758326
 30
0.0
 10
23.4769369257
 20
44.6221494986
 30
0.0
 10
23.3358577525
 20
44.7041655232
 30
0.0
 10
23.1477517923
 20
44.8133465978
 30
0.0
 10
22.9125683888
 20
44.9498684048
 30
0.0
 10
22.6303240226
 20
45.1137953611
 30
0.0
 10
22.253893781
 20
45.3324997715
 30
0.0
 10
21.7833622222
 20
45.6060782099
 30
0.0
 10
21.3131361619
 20
45.8801396863
 30
0.0
 10
20.9368732172
 20
46.0991206625
 30
0.0
 10
20.6540908778
 20
46.2624999517
 30
0.0
 10
20.371564055
 20
46.4267511668
 30
0.0
 10
19.9955507843
 20
46.6470639859
 30
0.0
 10
19.6195741416
 20
46.8669783333
 30
0.0
 10
19.2444412879
 20
47.0874229184
 30
0.0
 10
18.8688407455
 20
47.305720186
 30
0.0
 10
18.2122567852
 20
47.688261864
 30
0.0
 10
16.9003029808
 20
48.4525743848
 30
0.0
 10
15.0304329114
 20
49.5438062696
 30
0.0
 10
12.7898185434
 20
50.8463168527
 30
0.0
 10
9.8093010008
 20
52.5710652715
 30
0.0
 10
7.5730817225
 20
53.8574369862
 30
0.0
 10
6.0844732265
 20
54.7169000341
 30
0.0
  0
SPLINE
  5
476
100
AcDbEntity
  8
0
100
AcDbSpline
 62
250
  6
CONTINUOUS
 70
0
 71
3
 72
9
 73
5
 74
0
 42
0.0000001
 43
0.0000001
 44
0.0000000001
 40
0.0
 40
0.0
 40
0.0
 40
0.0
 40
0.2412371199
 40
1.0
 40
1.0
 40
1.0
 40
1.0
 10
-20.0995362018
 20
54.0179532629
 30
0.0
 10
-20.1003271595
 20
54.0134314056
 30
0.0
 10
-20.1031530688
 20
53.9946088118
 30
0.0
 10
-20.1042413695
 20
53.975539835
 30
0.0
 10
-20.1042413695
 20
53.9611012998
 30
0.0
  0
SPLINE
  5
477
100
AcDbEntity
  8
RACCORDO
100
AcDbSpline
 62
250
  6
CONTINUOUS
 70
0
 71
3
 72
13
 73
9
 74
0
 42
0.0000001
 43
0.0000001
 44
0.0000000001
 40
0.0
 40
0.0
 40
0.0
 40
0.0
 40
0.1164942882
 40
0.240383156
 40
0.5010126607
 40
0.7611232962
 40
0.884366513
 40
1.0
 40
1.0
 40
1.0
 40
1.0
 10
25.3352907448
 20
42.0411806224
 30
0.0
 10
25.3364595999
 20
42.1455744497
 30
0.0
 10
25.319121716
 20
42.3614448632
 30
0.0
 10
25.218569333
 20
42.8001813133
 30
0.0
 10
24.9838650162
 20
43.3341804526
 30
0.0
 10
24.6391533701
 20
43.8038904404
 30
0.0
 10
24.3114163447
 20
44.1097195086
 30
0.0
 10
24.134950994
 20
44.2327693881
 30
0.0
 10
24.0451027794
 20
44.2844051733
 30
0.0
  0
SPLINE
  5
478
100
AcDbEntity
  8
RACCORDO
100
AcDbSpline
 62
250
  6
CONTINUOUS
 70
0
 71
3
 72
13
 73
9
 74
0
 42
0.0000001
 43
0.0000001
 44
0.0000000001
 40
0.0
 40
0.0
 40
0.0
 40
0.0
 40
0.0930721544
 40
0.1931120248
 40
0.303007721
 40
0.4239843449
 40
0.6968316679
 40
1.0
 40
1.0
 40
1.0
 40
1.0
 10
-20.2979222615
 20
54.1367038755
 30
0.0
 10
-20.3241158223
 20
54.1574936358
 30
0.0
 10
-20.3721737507
 20
54.2090174974
 30
0.0
 10
-20.4236214892
 20
54.3060794849
 30
0.0
 10
-20.455519467
 20
54.421436821
 30
0.0
 10
-20.4719568362
 20
54.602439283
 30
0.0
 10
-20.4376052028
 20
54.8535731351
 30
0.0
 10
-20.3654695034
 20
55.0491306057
 30
0.0
 10
-20.3183549467
 20
55.1473441879
 30
0.0
  0
SPLINE
  5
479
100
AcDbEntity
  8
RACCORDO
100
AcDbSpline
 62
250
  6
CONTINUOUS
 70
0
 71
3
 72
13
 73
9
 74
0
 42
0.0000001
 43
0.0000001
 44
0.0000000001
 40
0.0
 40
0.0
 40
0.0
 40
0.0
 40
0.0927833231
 40
0.1911515372
 40
0.2992008753
 40
0.4189811253
 40
0.6925294068
 40
1.0
 40
1.0
 40
1.0
 40
1.0
 10
11.209189976
 20
35.9406745177
 30
0.0
 10
11.1790127256
 20
35.9581032945
 30
0.0
 10
11.1222822413
 20
36.0042875989
 30
0.0
 10
11.059156576
 20
36.0988849405
 30
0.0
 10
11.0180401481
 20
36.2154088269
 30
0.0
 10
10.9922621699
 20
36.4029564361
 30
0.0
 10
11.022925872
 20
36.668245072
 30
0.0
 10
11.0979479685
 20
36.8750020646
 30
0.0
 10
11.1478971029
 20
36.9791246199
 30
0.0
  0
SPLINE
  5
47A
100
AcDbEntity
  8
RACCORDO
100
AcDbSpline
 62
250
  6
CONTINUOUS
 70
0
 71
3
 72
13
 73
9
 74
0
 42
0.0000001
 43
0.0000001
 44
0.0000000001
 40
0.0
 40
0.0
 40
0.0
 40
0.0
 40
0.0927448084
 40
0.191090424
 40
0.2991401691
 40
0.4189408979
 40
0.6925466547
 40
1.0
 40
1.0
 40
1.0
 40
1.0
 10
11.6992054372
 20
35.0919706528
 30
0.0
 10
11.69920965
 20
35.0570514559
 30
0.0
 10
11.7108864738
 20
34.9846746168
 30
0.0
 10
11.761440055
 20
34.882514835
 30
0.0
 10
11.8420886126
 20
34.7884985442
 30
0.0
 10
11.9921455088
 20
34.6722733417
 30
0.0
 10
12.2379807445
 20
34.5662264562
 30
0.0
 10
12.4551491968
 20
34.5280231018
 30
0.0
 10
12.5705847465
 20
34.5193787796
 30
0.0
  0
SPLINE
  5
47B
100
AcDbEntity
  8
RACCORDO
100
AcDbSpline
 62
250
  6
CONTINUOUS
 70
0
 71
3
 72
13
 73
9
 74
0
 42
0.0000001
 43
0.0000001
 44
0.0000000001
 40
0.0
 40
0.0
 40
0.0
 40
0.0
 40
0.092883859
 40
0.1913148899
 40
0.2993719427
 40
0.4191102154
 40
0.6925206921
 40
1.0
 40
1.0
 40
1.0
 40
1.0
 10
11.6992055872
 20
-1.2409566734
 30
0.0
 10
11.6992096486
 20
-1.2756649801
 30
0.0
 10
11.7107377911
 20
-1.34757741
 30
0.0
 10
11.760677894
 20
-1.4491673413
 30
0.0
 10
11.8403967521
 20
-1.5427594236
 30
0.0
 10
11.9887959249
 20
-1.6586320022
 30
0.0
 10
12.2322525976
 20
-1.7648501241
 30
0.0
 10
12.4475343289
 20
-1.8037537785
 30
0.0
 10
12.5620662782
 20
-1.8129067348
 30
0.0
  0
SPLINE
  5
47C
100
AcDbEntity
  8
RACCORDO
100
AcDbSpline
 62
250
  6
CONTINUOUS
 70
0
 71
3
 72
9
 73
5
 74
0
 42
0.0000001
 43
0.0000001
 44
0.0000000001
 40
0.0
 40
0.0
 40
0.0
 40
0.0
 40
0.5195048633
 40
1.0
 40
1.0
 40
1.0
 40
1.0
 10
-20.8689849168
 20
-41.9880471113
 30
0.0
 10
-20.7846615814
 20
-42.0776642357
 30
0.0
 10
-20.6116068415
 20
-42.2404542931
 30
0.0
 10
-20.4169678377
 20
-42.3774380439
 30
0.0
 10
-20.3183552279
 20
-42.4342588509
 30
0.0
  0
SPLINE
  5
47D
100
AcDbEntity
  8
RACCORDO
100
AcDbSpline
 62
250
  6
CONTINUOUS
 70
0
 71
3
 72
10
 73
6
 74
0
 42
0.0000001
 43
0.0000001
 44
0.0000000001
 40
0.0
 40
0.0
 40
0.0
 40
0.0
 40
0.2404610516
 40
0.4874121169
 40
1.0
 40
1.0
 40
1.0
 40
1.0
 10
-12.4709468166
 20
52.4104376213
 30
0.0
 10
-12.4149039768
 20
53.3766006227
 30
0.0
 10
-12.2461939088
 20
55.3322081262
 30
0.0
 10
-11.6946643681
 20
59.320116239
 30
0.0
 10
-11.0521961995
 20
62.3148550432
 30
0.0
 10
-10.5325361279
 20
64.311352991
 30
0.0
  0
SPLINE
  5
47E
100
AcDbEntity
  8
RACCORDO
100
AcDbSpline
 62
250
  6
CONTINUOUS
 70
0
 71
3
 72
31
 73
27
 74
0
 42
0.0000001
 43
0.0000001
 44
0.0000000001
 40
0.0
 40
0.0
 40
0.0
 40
0.0
 40
0.2517899179
 40
0.3774725979
 40
0.502733132
 40
0.6275073974
 40
0.6897895595
 40
0.7209276899
 40
0.7364947931
 40
0.7520377806
 40
0.783071233
 40
0.814074515
 40
0.8296072585
 40
0.8451388441
 40
0.8761835185
 40
0.9072297449
 40
0.9227578385
 40
0.9382904126
 40
0.953828145
 40
0.9615987342
 40
0.969371817
 40
0.9771274166
 40
0.9809511928
 40
0.9847676489
 40
0.9923933118
 40
1.0
 40
1.0
 40
1.0
 40
1.0
 10
-10.5325361314
 20
64.3113529774
 30
0.0
 10
-12.0243141775
 20
65.1727278594
 30
0.0
 10
-14.2586769465
 20
66.4676065367
 30
0.0
 10
-17.2389002411
 20
68.1845451996
 30
0.0
 10
-19.4687400076
 20
69.4632264989
 30
0.0
 10
-21.3241247206
 20
70.522954269
 30
0.0
 10
-22.6198800234
 20
71.2641458853
 30
0.0
 10
-23.2669982782
 20
71.6345542393
 30
0.0
 10
-23.6365138906
 20
71.8462655691
 30
0.0
 10
-24.0062781493
 20
72.0560952815
 30
0.0
 10
-24.4675486806
 20
72.3186431231
 30
0.0
 10
-24.9287118521
 20
72.5812452981
 30
0.0
 10
-25.2963918209
 20
72.7936704006
 30
0.0
 10
-25.6651347086
 20
73.0048142295
 30
0.0
 10
-26.1261393131
 20
73.2684201288
 30
0.0
 10
-26.58683222
 20
73.5325231494
 30
0.0
 10
-26.9553881295
 20
73.7439629785
 30
0.0
 10
-27.2318876293
 20
73.902650807
 30
0.0
 10
-27.4623286882
 20
74.0349657634
 30
0.0
 10
-27.6467209922
 20
74.1408771665
 30
0.0
 10
-27.7850138191
 20
74.2201272686
 30
0.0
 10
-27.8994573374
 20
74.286765257
 30
0.0
 10
-27.9927375691
 20
74.3357071552
 30
0.0
 10
-28.0844576225
 20
74.385662074
 30
0.0
 10
-28.1981906147
 20
74.449297058
 30
0.0
 10
-28.2886134545
 20
74.5011050481
 30
0.0
 10
-28.3336240239
 20
74.5272255699
 30
0.0
  0
SPLINE
  5
47F
100
AcDbEntity
  8
0
100
AcDbSpline
 62
250
  6
CONTINUOUS
 70
0
 71
3
 72
9
 73
5
 74
0
 42
0.0000001
 43
0.0000001
 44
0.0000000001
 40
0.0
 40
0.0
 40
0.0
 40
0.0
 40
0.2412371199
 40
1.0
 40
1.0
 40
1.0
 40
1.0
 10
-20.0995362018
 20
-3.9514363894
 30
0.0
 10
-20.1003271595
 20
-3.9559582466
 30
0.0
 10
-20.1031530688
 20
-3.9747808405
 30
0.0
 10
-20.1042413695
 20
-3.9938498173
 30
0.0
 10
-20.1042413695
 20
-4.0082883525
 30
0.0
  0
SPLINE
  5
480
100
AcDbEntity
  8
RACCORDO
100
AcDbSpline
 62
250
  6
CONTINUOUS
 70
0
 71
3
 72
13
 73
9
 74
0
 42
0.0000001
 43
0.0000001
 44
0.0000000001
 40
0.0
 40
0.0
 40
0.0
 40
0.0
 40
0.0944196421
 40
0.1960272431
 40
0.307012715
 40
0.4282718543
 40
0.6994859
 40
1.0
 40
1.0
 40
1.0
 40
1.0
 10
-20.3204473677
 20
-3.8131597252
 30
0.0
 10
-20.3432851671
 20
-3.7915745328
 30
0.0
 10
-20.3847435519
 20
-3.7401570404
 30
0.0
 10
-20.4289828834
 20
-3.6472432987
 30
0.0
 10
-20.4565106128
 20
-3.5389721484
 30
0.0
 10
-20.470870004
 20
-3.3714353547
 30
0.0
 10
-20.4419547071
 20
-3.1401571433
 30
0.0
 10
-20.3799339918
 20
-2.958988118
 30
0.0
 10
-20.3393697738
 20
-2.8675678179
 30
0.0
  0
SPLINE
  5
481
100
AcDbEntity
  8
RACCORDO
100
AcDbSpline
 62
250
  6
CONTINUOUS
 70
0
 71
3
 72
35
 73
31
 74
0
 42
0.0000001
 43
0.0000001
 44
0.0000000001
 40
0.0
 40
0.0
 40
0.0
 40
0.0
 40
0.0737668781
 40
0.1092811335
 40
0.1267050277
 40
0.144030776
 40
0.1781166895
 40
0.2112970948
 40
0.2748234425
 40
0.3348089654
 40
0.3637576771
 40
0.3922358839
 40
0.4202732512
 40
0.4478728698
 40
0.5021646798
 40
0.5562479436
 40
0.6113036369
 40
0.6395730724
 40
0.6684825942
 40
0.6981314025
 40
0.7132736714
 40
0.728596109
 40
0.7439337633
 40
0.7591367091
 40
0.774487775
 40
0.790162767
 40
0.8224109033
 40
0.8557500481
 40
0.9257298301
 40
1.0
 40
1.0
 40
1.0
 40
1.0
 10
-19.874870315
 20
56.6773743177
 30
0.0
 10
-19.9559353023
 20
56.7239743738
 30
0.0
 10
-20.0792827101
 20
56.787629872
 30
0.0
 10
-20.2273715571
 20
56.850009481
 30
0.0
 10
-20.3110398478
 20
56.8805621354
 30
0.0
 10
-20.3930752207
 20
56.9102796066
 30
0.0
 10
-20.4949899017
 20
56.943750951
 30
0.0
 10
-20.6549707469
 20
56.9874965807
 30
0.0
 10
-20.8507240406
 20
57.0236895294
 30
0.0
 10
-21.0444366569
 20
57.0345343554
 30
0.0
 10
-21.1930622376
 20
57.0244589357
 30
0.0
 10
-21.3004555372
 20
57.0095287181
 30
0.0
 10
-21.4046778832
 20
56.9863959802
 30
0.0
 10
-21.5377142347
 20
56.944500431
 30
0.0
 10
-21.6949802706
 20
56.8715682984
 30
0.0
 10
-21.8646609949
 20
56.7507019031
 30
0.0
 10
-21.9861239876
 20
56.6244342463
 30
0.0
 10
-22.0706757925
 20
56.5098521774
 30
0.0
 10
-22.1284039237
 20
56.4159978326
 30
0.0
 10
-22.170974693
 20
56.3327259396
 30
0.0
 10
-22.2015913452
 20
56.2629307709
 30
0.0
 10
-22.2230035122
 20
56.2089594062
 30
0.0
 10
-22.2437285772
 20
56.1546420575
 30
0.0
 10
-22.2659224591
 20
56.1008686121
 30
0.0
 10
-22.2869520962
 20
56.0461601309
 30
0.0
 10
-22.3125307267
 20
55.9701222787
 30
0.0
 10
-22.3403571639
 20
55.8708756152
 30
0.0
 10
-22.3777190242
 20
55.7030726529
 30
0.0
 10
-22.4086287172
 20
55.4796876738
 30
0.0
 10
-22.4171391393
 20
55.2967984577
 30
0.0
 10
-22.4178443509
 20
55.2026586111
 30
0.0
  0
SPLINE
  5
482
100
AcDbEntity
  8
RACCORDO
100
AcDbSpline
 62
250
  6
CONTINUOUS
 70
0
 71
3
 72
13
 73
9
 74
0
 42
0.0000001
 43
0.0000001
 44
0.0000000001
 40
0.0
 40
0.0
 40
0.0
 40
0.0
 40
0.0936308664
 40
0.1925340601
 40
0.3006587347
 40
0.4200979918
 40
0.6925010823
 40
1.0
 40
1.0
 40
1.0
 40
1.0
 10
11.2091903404
 20
-22.0287145034
 30
0.0
 10
11.1800860345
 20
-22.011906594
 30
0.0
 10
11.1252858588
 20
-21.9678250155
 30
0.0
 10
11.0633031695
 20
-21.8779839364
 30
0.0
 10
11.0216855023
 20
-21.7673989581
 30
0.0
 10
10.9929707976
 20
-21.5893007387
 30
0.0
 10
11.015883614
 20
-21.3356889726
 30
0.0
 10
11.0821152298
 20
-21.1366788629
 30
0.0
 10
11.126881989
 20
-21.035787221
 30
0.0
  0
SPLINE
  5
483
100
AcDbEntity
  8
RACCORDO
100
AcDbSpline
 62
250
  6
CONTINUOUS
 70
0
 71
3
 72
15
 73
11
 74
0
 42
0.0000001
 43
0.0000001
 44
0.0000000001
 40
0.0
 40
0.0
 40
0.0
 40
0.0
 40
0.0626100486
 40
0.1250996743
 40
0.1875509485
 40
0.2500172788
 40
0.3749821397
 40
0.4999650486
 40
0.7499665717
 40
1.0
 40
1.0
 40
1.0
 40
1.0
 10
-22.4178443509
 20
55.2026586111
 30
0.0
 10
-22.4206826333
 20
54.8239763938
 30
0.0
 10
-22.4240133016
 20
54.0673241838
 30
0.0
 10
-22.4277197667
 20
52.932941114
 30
0.0
 10
-22.4320728308
 20
51.7994286265
 30
0.0
 10
-22.436699188
 20
50.2880376238
 30
0.0
 10
-22.4409661816
 20
48.3984254887
 30
0.0
 10
-22.445135261
 20
45.3745169584
 30
0.0
 10
-22.4469034582
 20
41.5941363549
 30
0.0
 10
-22.4462842559
 20
38.5697071661
 30
0.0
 10
-22.4462793725
 20
37.0573960483
 30
0.0
  0
SPLINE
  5
484
100
AcDbEntity
  8
RACCORDO
100
AcDbSpline
 62
250
  6
CONTINUOUS
 70
0
 71
3
 72
13
 73
9
 74
0
 42
0.0000001
 43
0.0000001
 44
0.0000000001
 40
0.0
 40
0.0
 40
0.0
 40
0.0
 40
0.0928841853
 40
0.191315556
 40
0.2993729409
 40
0.4191117976
 40
0.6925239683
 40
1.0
 40
1.0
 40
1.0
 40
1.0
 10
11.6992055872
 20
-22.8774189988
 30
0.0
 10
11.6992096479
 20
-22.9121273079
 30
0.0
 10
11.7107377901
 20
-22.9840397494
 30
0.0
 10
11.7606778751
 20
-23.0856296305
 30
0.0
 10
11.840396807
 20
-23.1792219233
 30
0.0
 10
11.9887962889
 20
-23.2950934089
 30
0.0
 10
12.2322483512
 20
-23.4013268113
 30
0.0
 10
12.4475361896
 20
-23.4401892838
 30
0.0
 10
12.5620662782
 20
-23.4493451887
 30
0.0
  0
SPLINE
  5
485
100
AcDbEntity
  8
RACCORDO
100
AcDbSpline
 62
250
  6
CONTINUOUS
 70
0
 71
3
 72
10
 73
6
 74
0
 42
0.0000001
 43
0.0000001
 44
0.0000000001
 40
0.0
 40
0.0
 40
0.0
 40
0.0
 40
0.4808208722
 40
0.7357985503
 40
1.0
 40
1.0
 40
1.0
 40
1.0
 10
-29.8457048265
 20
43.5688424369
 30
0.0
 10
-28.8361064671
 20
42.3477020667
 30
0.0
 10
-27.123040214
 20
40.6130146281
 30
0.0
 10
-24.5685818357
 20
38.5294841814
 30
0.0
 10
-23.171768845
 20
37.5386939523
 30
0.0
 10
-22.4462793725
 20
37.0573960483
 30
0.0
  0
SPLINE
  5
486
100
AcDbEntity
  8
RACCORDO
100
AcDbSpline
 62
250
  6
CONTINUOUS
 70
0
 71
3
 72
13
 73
9
 74
0
 42
0.0000001
 43
0.0000001
 44
0.0000000001
 40
0.0
 40
0.0
 40
0.0
 40
0.0
 40
0.0927448141
 40
0.1910904358
 40
0.2991401867
 40
0.4189409259
 40
0.6925467126
 40
1.0
 40
1.0
 40
1.0
 40
1.0
 10
11.6992054372
 20
-59.2103463182
 30
0.0
 10
11.6992096501
 20
-59.245265515
 30
0.0
 10
11.7108864743
 20
-59.3176423542
 30
0.0
 10
11.7614400553
 20
-59.4198021347
 30
0.0
 10
11.8420886143
 20
-59.513818429
 30
0.0
 10
11.9921455158
 20
-59.6300436112
 30
0.0
 10
12.2379806691
 20
-59.7360907749
 30
0.0
 10
12.4551492292
 20
-59.774293379
 30
0.0
 10
12.5705847457
 20
-59.7829377545
 30
0.0
  0
SPLINE
  5
487
100
AcDbEntity
  8
RACCORDO
100
AcDbSpline
 62
250
  6
CONTINUOUS
 70
0
 71
3
 72
33
 73
29
 74
0
 42
0.0000001
 43
0.0000001
 44
0.0000000001
 40
0.0
 40
0.0
 40
0.0
 40
0.0
 40
0.0078489699
 40
0.0156169149
 40
0.0194569326
 40
0.0232543051
 40
0.0270316687
 40
0.0309238476
 40
0.0348330145
 40
0.0387324465
 40
0.0465363219
 40
0.0543406108
 40
0.0621431067
 40
0.0777460368
 40
0.0933456664
 40
0.1089421442
 40
0.1245366462
 40
0.1557268442
 40
0.1869269422
 40
0.2493735997
 40
0.3118858331
 40
0.3744212865
 40
0.4369610378
 40
0.4995054947
 40
0.6246073969
 40
0.7497254665
 40
0.8748574557
 40
1.0
 40
1.0
 40
1.0
 40
1.0
 10
-29.6438540582
 20
73.7854497811
 30
0.0
 10
-29.6495270787
 20
73.7065893472
 30
0.0
 10
-29.66064719
 20
73.5496699836
 30
0.0
 10
-29.6742276606
 20
73.3541494262
 30
0.0
 10
-29.6851835648
 20
73.199351861
 30
0.0
 10
-29.6935225363
 20
73.0846827595
 30
0.0
 10
-29.7025893816
 20
72.9694865107
 30
0.0
 10
-29.7038970318
 20
72.8528140078
 30
0.0
 10
-29.7063693714
 20
72.7349864837
 30
0.0
 10
-29.7100328596
 20
72.5777579933
 30
0.0
 10
-29.7141621728
 20
72.3812991538
 30
0.0
 10
-29.7192439754
 20
72.1455331866
 30
0.0
 10
-29.7260233606
 20
71.8312248491
 30
0.0
 10
-29.7343699094
 20
71.4384077954
 30
0.0
 10
-29.7441568491
 20
70.967093461
 30
0.0
 10
-29.7535509551
 20
70.4958559563
 30
0.0
 10
-29.7653556918
 20
69.8675888072
 30
0.0
 10
-29.7783119215
 20
69.0821378745
 30
0.0
 10
-29.7947708992
 20
67.8247359748
 30
0.0
 10
-29.8075042658
 20
66.2517576805
 30
0.0
 10
-29.8147436002
 20
64.3631030744
 30
0.0
 10
-29.821082548
 20
62.4735086185
 30
0.0
 10
-29.82667504
 20
60.5835869085
 30
0.0
 10
-29.832976125
 20
58.0634206895
 30
0.0
 10
-29.8389266475
 20
54.9128881615
 30
0.0
 10
-29.8433012474
 20
51.1318960731
 30
0.0
 10
-29.8454188365
 20
47.3504927508
 30
0.0
 10
-29.8457155973
 20
44.8294279656
 30
0.0
 10
-29.8457048265
 20
43.5688424305
 30
0.0
  0
SPLINE
  5
488
100
AcDbEntity
  8
RACCORDO
100
AcDbSpline
 62
250
  6
CONTINUOUS
 70
0
 71
3
 72
15
 73
11
 74
0
 42
0.0000001
 43
0.0000001
 44
0.0000000001
 40
0.0
 40
0.0
 40
0.0
 40
0.0
 40
0.1410080413
 40
0.2680038408
 40
0.3836246136
 40
0.4931066899
 40
0.6035630021
 40
0.7219735967
 40
0.8533080742
 40
1.0
 40
1.0
 40
1.0
 40
1.0
 10
-28.3336240239
 20
74.5272255699
 30
0.0
 10
-28.4105488544
 20
74.5718613544
 30
0.0
 10
-28.5645489204
 20
74.6445380563
 30
0.0
 10
-28.8024979265
 20
74.6992340687
 30
0.0
 10
-29.0275286368
 20
74.6909506224
 30
0.0
 10
-29.2299459467
 20
74.6172464514
 30
0.0
 10
-29.3987323805
 20
74.4807522765
 30
0.0
 10
-29.5266316633
 20
74.2895335682
 30
0.0
 10
-29.6114025445
 20
74.052238669
 30
0.0
 10
-29.6372115788
 20
73.8777329435
 30
0.0
 10
-29.6438540582
 20
73.7854497811
 30
0.0
  0
SPLINE
  5
489
100
AcDbEntity
  8
RACCORDO
100
AcDbSpline
 62
250
  6
CONTINUOUS
 70
0
 71
3
 72
15
 73
11
 74
0
 42
0.0000001
 43
0.0000001
 44
0.0000000001
 40
0.0
 40
0.0
 40
0.0
 40
0.0
 40
0.1150183921
 40
0.2383458224
 40
0.3677625365
 40
0.5003667308
 40
0.6329397373
 40
0.7622516129
 40
0.8853663475
 40
1.0
 40
1.0
 40
1.0
 40
1.0
 10
26.6030877689
 20
42.0278553509
 30
0.0
 10
26.6078498573
 20
42.1824981178
 30
0.0
 10
26.5878638794
 20
42.5042247502
 30
0.0
 10
26.4836635481
 20
42.9892995592
 30
0.0
 10
26.3092647544
 20
43.4788956071
 30
0.0
 10
26.0717956524
 20
43.9549664607
 30
0.0
 10
25.7804755928
 20
44.3999520334
 30
0.0
 10
25.4461072553
 20
44.7972061787
 30
0.0
 10
25.0809805673
 20
45.131676062
 30
0.0
 10
24.8144996579
 20
45.3115383057
 30
0.0
 10
24.6793123755
 20
45.3857110038
 30
0.0
  0
SPLINE
  5
48A
100
AcDbEntity
  8
RACCORDO
100
AcDbSpline
 62
250
  6
CONTINUOUS
 70
0
 71
3
 72
26
 73
22
 74
0
 42
0.0000001
 43
0.0000001
 44
0.0000000001
 40
0.0
 40
0.0
 40
0.0
 40
0.0
 40
0.0153205525
 40
0.0230464986
 40
0.0308207354
 40
0.0463754325
 40
0.061930838
 40
0.0774880261
 40
0.0930482144
 40
0.1241836524
 40
0.1553468513
 40
0.186540455
 40
0.2490095763
 40
0.3115445391
 40
0.3740956584
 40
0.4366545274
 40
0.4992216512
 40
0.6243791661
 40
0.7495648368
 40
0.87477382
 40
1.0
 40
1.0
 40
1.0
 40
1.0
 10
26.6030893205
 20
-76.3602779473
 30
0.0
 10
26.595309005
 20
-76.2064808266
 30
0.0
 10
26.5852846147
 20
-75.9750297478
 30
0.0
 10
26.5772679887
 20
-75.6653290531
 30
0.0
 10
26.5741028476
 20
-75.3531936148
 30
0.0
 10
26.5689357711
 20
-74.9623855838
 30
0.0
 10
26.563286623
 20
-74.4933449219
 30
0.0
 10
26.5576037515
 20
-74.0242503074
 30
0.0
 10
26.5502985799
 20
-73.3985617384
 30
0.0
 10
26.5418192737
 20
-72.6160131787
 30
0.0
 10
26.5333634623
 20
-71.6763179037
 30
0.0
 10
26.5244674364
 20
-70.4216669394
 30
0.0
 10
26.5177626702
 20
-68.8516650372
 30
0.0
 10
26.5136313971
 20
-66.9664674602
 30
0.0
 10
26.5098136788
 20
-65.0803671893
 30
0.0
 10
26.5064733856
 20
-63.19394272
 30
0.0
 10
26.5026709326
 20
-60.6782330195
 30
0.0
 10
26.4990659312
 20
-57.5330321429
 30
0.0
 10
26.496403938
 20
-53.7581885509
 30
0.0
 10
26.4951140651
 20
-49.982654094
 30
0.0
 10
26.4949313224
 20
-47.46541717
 30
0.0
 10
26.4949383935
 20
-46.2067122886
 30
0.0
  0
SPLINE
  5
48B
100
AcDbEntity
  8
RACCORDO
100
AcDbSpline
 62
250
  6
CONTINUOUS
 70
0
 71
3
 72
26
 73
22
 74
0
 42
0.0000001
 43
0.0000001
 44
0.0000000001
 40
0.0
 40
0.0
 40
0.0
 40
0.0
 40
0.1247760311
 40
0.249569192
 40
0.3743855688
 40
0.4992299763
 40
0.5616637595
 40
0.6241057625
 40
0.6865554488
 40
0.7490212346
 40
0.811552378
 40
0.8428585892
 40
0.8741949062
 40
0.9055586749
 40
0.9212480014
 40
0.9369402904
 40
0.952634339
 40
0.968329087
 40
0.9761795008
 40
0.9840772042
 40
1.0
 40
1.0
 40
1.0
 40
1.0
 10
26.4949383935
 20
11.7626819948
 30
0.0
 10
26.4949313217
 20
13.0215032809
 30
0.0
 10
26.4951141497
 20
15.5393186831
 30
0.0
 10
26.4964042952
 20
19.3163622343
 30
0.0
 10
26.4990666191
 20
23.0940949295
 30
0.0
 10
26.5026718322
 20
26.2427047995
 30
0.0
 10
26.5064734154
 20
28.7620407431
 30
0.0
 10
26.5098150451
 20
30.6518983135
 30
0.0
 10
26.5136302058
 20
32.5420778201
 30
0.0
 10
26.5177678588
 20
34.4331560317
 30
0.0
 10
26.5244791155
 20
36.0100315862
 30
0.0
 10
26.533370475
 20
37.2728339843
 30
0.0
 10
26.5418274032
 20
38.2211931636
 30
0.0
 10
26.5503019861
 20
39.0119911129
 30
0.0
 10
26.5576043762
 20
39.6449650624
 30
0.0
 10
26.5632859495
 20
40.1198606551
 30
0.0
 10
26.5689379332
 20
40.594812101
 30
0.0
 10
26.5740954774
 20
40.9906472434
 30
0.0
 10
26.5772918912
 20
41.3078517385
 30
0.0
 10
26.5853801544
 20
41.6272767909
 30
0.0
 10
26.5953725205
 20
41.8674006378
 30
0.0
 10
26.6030866446
 20
42.0278547698
 30
0.0
  0
SPLINE
  5
48C
100
AcDbEntity
  8
RACCORDO
100
AcDbSpline
 62
250
  6
CONTINUOUS
 70
0
 71
3
 72
37
 73
33
 74
0
 42
0.0000001
 43
0.0000001
 44
0.0000000001
 40
0.0
 40
0.0
 40
0.0
 40
0.0
 40
0.1245385768
 40
0.2491085172
 40
0.3737210869
 40
0.4983855389
 40
0.5607394838
 40
0.6231091909
 40
0.6854938566
 40
0.7479177529
 40
0.7791768024
 40
0.810485037
 40
0.8418501878
 40
0.873274026
 40
0.8890060079
 40
0.9047481427
 40
0.920497524
 40
0.9362515794
 40
0.9441298933
 40
0.9520079502
 40
0.9559467083
 40
0.9598866437
 40
0.9638282559
 40
0.9677636244
 40
0.9717082919
 40
0.973719211
 40
0.9757404605
 40
0.9797865637
 40
0.9838285189
 40
0.987869247
 40
0.9919108242
 40
1.0
 40
1.0
 40
1.0
 40
1.0
 10
25.3976086566
 20
11.6720455867
 30
0.0
 10
25.3976108669
 20
12.9327760325
 30
0.0
 10
25.3975155123
 20
15.4545544277
 30
0.0
 10
25.396801665
 20
19.2378122622
 30
0.0
 10
25.3953538794
 20
23.0223441548
 30
0.0
 10
25.3934224046
 20
26.177050017
 30
0.0
 10
25.3914403913
 20
28.7016579392
 30
0.0
 10
25.3896535375
 20
30.5957943589
 30
0.0
 10
25.3877956085
 20
32.4906386231
 30
0.0
 10
25.385621776
 20
34.0705433181
 30
0.0
 10
25.3817485985
 20
35.3358499239
 30
0.0
 10
25.3779709277
 20
36.2867405008
 30
0.0
 10
25.3733759003
 20
37.239295685
 30
0.0
 10
25.3690491536
 20
38.0341683747
 30
0.0
 10
25.3655703603
 20
38.6708882191
 30
0.0
 10
25.3630655659
 20
39.1489351533
 30
0.0
 10
25.3607251183
 20
39.6272064009
 30
0.0
 10
25.3589344839
 20
40.0258721651
 30
0.0
 10
25.357543462
 20
40.3448559468
 30
0.0
 10
25.3567547395
 20
40.5442321609
 30
0.0
 10
25.3561996096
 20
40.7037405516
 30
0.0
 10
25.3557012512
 20
40.8233976906
 30
0.0
 10
25.354974989
 20
40.9430256935
 30
0.0
 10
25.3547075957
 20
41.0626802855
 30
0.0
 10
25.3556862393
 20
41.1628677942
 30
0.0
 10
25.3506475064
 20
41.2434836454
 30
0.0
 10
25.345791657
 20
41.325111877
 30
0.0
 10
25.3407178553
 20
41.4273332423
 30
0.0
 10
25.337062701
 20
41.5500661848
 30
0.0
 10
25.3349169429
 20
41.6727861402
 30
0.0
 10
25.333729268
 20
41.8364912517
 30
0.0
 10
25.3343700274
 20
41.9592973546
 30
0.0
 10
25.3352907448
 20
42.0411806224
 30
0.0
  0
SPLINE
  5
48D
100
AcDbEntity
  8
RACCORDO
100
AcDbSpline
 62
250
  6
CONTINUOUS
 70
0
 71
3
 72
23
 73
19
 74
0
 42
0.0000001
 43
0.0000001
 44
0.0000000001
 40
0.0
 40
0.0
 40
0.0
 40
0.0
 40
0.0157993356
 40
0.0314824386
 40
0.062819176
 40
0.094166594
 40
0.125520823
 40
0.1882317781
 40
0.2196093217
 40
0.2509613103
 40
0.2822789257
 40
0.3135934337
 40
0.3762201252
 40
0.4388195315
 40
0.5013609908
 40
0.6262421179
 40
0.7508972009
 40
1.0
 40
1.0
 40
1.0
 40
1.0
 10
24.6793123755
 20
45.3857110038
 30
0.0
 10
24.5831944766
 20
45.4369157877
 30
0.0
 10
24.3922235747
 20
45.5400171468
 30
0.0
 10
24.015155919
 20
45.7529320088
 30
0.0
 10
23.544258569
 20
46.0176196321
 30
0.0
 10
22.9791434669
 20
46.3351567464
 30
0.0
 10
22.2251642316
 20
46.7580531963
 30
0.0
 10
21.4714490724
 20
47.181847329
 30
0.0
 10
20.7165073256
 20
47.6034191978
 30
0.0
 10
20.1511868799
 20
47.9207129779
 30
0.0
 10
19.587117645
 20
48.2393421374
 30
0.0
 10
18.8351762869
 20
48.6636996792
 30
0.0
 10
17.8954547242
 20
49.1940486999
 30
0.0
 10
16.7687675011
 20
49.8310633263
 30
0.0
 10
15.2701825465
 20
50.6822040268
 30
0.0
 10
13.4031301019
 20
51.7507181824
 30
0.0
 10
10.4262983425
 20
53.4690324726
 30
0.0
 10
8.1986292411
 20
54.7632806335
 30
0.0
 10
6.711657201
 20
55.6219470796
 30
0.0
  0
SPLINE
  5
48E
100
AcDbEntity
  8
RACCORDO
100
AcDbSpline
 62
250
  6
CONTINUOUS
 70
0
 71
3
 72
24
 73
20
 74
0
 42
0.0000001
 43
0.0000001
 44
0.0000000001
 40
0.0
 40
0.0
 40
0.0
 40
0.0
 40
0.1254415565
 40
0.2509062068
 40
0.376254968
 40
0.5013758358
 40
0.5638344025
 40
0.6262343395
 40
0.6886066573
 40
0.719791681
 40
0.750973402
 40
0.7821203322
 40
0.8132413947
 40
0.8755280951
 40
0.9066727586
 40
0.9378243378
 40
0.9689867577
 40
0.9845528507
 40
1.0
 40
1.0
 40
1.0
 40
1.0
 10
-9.9053910205
 20
65.2164224621
 30
0.0
 10
-10.6497664269
 20
65.6461617048
 30
0.0
 10
-12.1398186908
 20
66.5037009504
 30
0.0
 10
-14.3746810387
 20
67.7889484271
 30
0.0
 10
-16.6052866352
 20
69.0771887547
 30
0.0
 10
-18.4580413673
 20
70.1564340146
 30
0.0
 10
-19.9352250406
 20
71.0234768814
 30
0.0
 10
-21.0403231823
 20
71.6750716441
 30
0.0
 10
-21.9604045679
 20
72.2185570513
 30
0.0
 10
-22.6963090989
 20
72.6532565286
 30
0.0
 10
-23.2481256188
 20
72.9789238716
 30
0.0
 10
-23.7986545362
 20
73.3059069132
 30
0.0
 10
-24.5314574055
 20
73.7433562202
 30
0.0
 10
-25.2655563706
 20
74.1785982006
 30
0.0
 10
-25.9993646029
 20
74.614736253
 30
0.0
 10
-26.5501092514
 20
74.9414770624
 30
0.0
 10
-27.0090776058
 20
75.2136974091
 30
0.0
 10
-27.3759602474
 20
75.4302645832
 30
0.0
 10
-27.5568118474
 20
75.5418683062
 30
0.0
 10
-27.6465432127
 20
75.5980020758
 30
0.0
  0
SPLINE
  5
48F
100
AcDbEntity
  8
RACCORDO
100
AcDbSpline
 62
250
  6
CONTINUOUS
 70
0
 71
3
 72
9
 73
5
 74
0
 42
0.0000001
 43
0.0000001
 44
0.0000000001
 40
0.0
 40
0.0
 40
0.0
 40
0.0
 40
0.5212635889
 40
1.0
 40
1.0
 40
1.0
 40
1.0
 10
6.0844829459
 20
-67.0398410123
 30
0.0
 10
6.1009156897
 20
-67.0840189173
 30
0.0
 10
6.1439377836
 20
-67.1654871299
 30
0.0
 10
6.2135817741
 20
-67.2270286043
 30
0.0
 10
6.2510725564
 20
-67.248671942
 30
0.0
  0
SPLINE
  5
490
100
AcDbEntity
  8
RACCORDO
100
AcDbSpline
 62
250
  6
CONTINUOUS
 70
0
 71
3
 72
9
 73
5
 74
0
 42
0.0000001
 43
0.0000001
 44
0.0000000001
 40
0.0
 40
0.0
 40
0.0
 40
0.0
 40
0.5213071269
 40
1.0
 40
1.0
 40
1.0
 40
1.0
 10
-10.5325458438
 20
-57.4453768494
 30
0.0
 10
-10.5161041185
 20
-57.4895595414
 30
0.0
 10
-10.4730753934
 20
-57.5710306691
 30
0.0
 10
-10.4034268078
 20
-57.632578254
 30
0.0
 10
-10.365935578
 20
-57.6542197037
 30
0.0
  0
SPLINE
  5
491
100
AcDbEntity
  8
RACCORDO
100
AcDbSpline
 62
250
  6
CONTINUOUS
 70
0
 71
3
 72
11
 73
7
 74
0
 42
0.0000001
 43
0.0000001
 44
0.0000000001
 40
0.0
 40
0.0
 40
0.0
 40
0.0
 40
0.2774422646
 40
0.5330352846
 40
0.771310054
 40
1.0
 40
1.0
 40
1.0
 40
1.0
 10
-28.3336240253
 20
-46.9207702346
 30
0.0
 10
-28.3285563196
 20
-46.9588256935
 30
0.0
 10
-28.313127009
 20
-47.0313976374
 30
0.0
 10
-28.2712346346
 20
-47.1303851299
 30
0.0
 10
-28.2121732685
 20
-47.212205602
 30
0.0
 10
-28.161689189
 20
-47.2539197604
 30
0.0
 10
-28.1348242751
 20
-47.270643924
 30
0.0
  0
SPLINE
  5
492
100
AcDbEntity
  8
RACCORDO
100
AcDbSpline
 62
250
  6
CONTINUOUS
 70
0
 71
3
 72
10
 73
6
 74
0
 42
0.0000001
 43
0.0000001
 44
0.0000000001
 40
0.0
 40
0.0
 40
0.0
 40
0.0
 40
0.5297623266
 40
0.7693283766
 40
1.0
 40
1.0
 40
1.0
 40
1.0
 10
-29.6438537932
 20
-44.6891175924
 30
0.0
 10
-29.701049291
 20
-44.6445679713
 30
0.0
 10
-29.7761707598
 20
-44.5658552174
 30
0.0
 10
-29.8326956731
 20
-44.4400539026
 30
0.0
 10
-29.844067627
 20
-44.3758688348
 30
0.0
 10
-29.8455170563
 20
-44.3443346038
 30
0.0
  0
SPLINE
  5
493
100
AcDbEntity
  8
RACCORDO
100
AcDbSpline
 62
250
  6
CONTINUOUS
 70
0
 71
3
 72
9
 73
5
 74
0
 42
0.0000001
 43
0.0000001
 44
0.0000000001
 40
0.0
 40
0.0
 40
0.0
 40
0.0
 40
0.5213045323
 40
1.0
 40
1.0
 40
1.0
 40
1.0
 10
-29.8457048265
 20
-14.4005483689
 30
0.0
 10
-29.8757455519
 20
-14.3642120216
 30
0.0
 10
-29.9247831942
 20
-14.2862016836
 30
0.0
 10
-29.943257259
 20
-14.195102795
 30
0.0
 10
-29.9432524836
 20
-14.151810003
 30
0.0
  0
SPLINE
  5
494
100
AcDbEntity
  8
RACCORDO
100
AcDbSpline
 62
250
  6
CONTINUOUS
 70
0
 71
3
 72
9
 73
5
 74
0
 42
0.0000001
 43
0.0000001
 44
0.0000000001
 40
0.0
 40
0.0
 40
0.0
 40
0.0
 40
0.5213000324
 40
1.0
 40
1.0
 40
1.0
 40
1.0
 10
-29.8457048265
 20
43.5688435902
 30
0.0
 10
-29.8757455723
 20
43.6051788681
 30
0.0
 10
-29.9247832753
 20
43.6831884178
 30
0.0
 10
-29.9432570491
 20
43.7742865247
 30
0.0
 10
-29.9432524837
 20
43.8175793526
 30
0.0
  0
SPLINE
  5
495
100
AcDbEntity
  8
RACCORDO
100
AcDbSpline
 62
250
  6
CONTINUOUS
 70
0
 71
3
 72
11
 73
7
 74
0
 42
0.0000001
 43
0.0000001
 44
0.0000000001
 40
0.0
 40
0.0
 40
0.0
 40
0.0
 40
0.2868982216
 40
0.5451724478
 40
0.7796809938
 40
1.0
 40
1.0
 40
1.0
 40
1.0
 10
-29.6438540504
 20
73.7854497841
 30
0.0
 10
-29.6750755878
 20
73.8088849008
 30
0.0
 10
-29.731290141
 20
73.8579255055
 30
0.0
 10
-29.7970255586
 20
73.9422022814
 30
0.0
 10
-29.8375082865
 20
74.0315452872
 30
0.0
 10
-29.8463157221
 20
74.0938939841
 30
0.0
 10
-29.845878908
 20
74.1238696563
 30
0.0
  0
SPLINE
  5
496
100
AcDbEntity
  8
RACCORDO
100
AcDbSpline
 62
250
  6
CONTINUOUS
 70
0
 71
3
 72
11
 73
7
 74
0
 42
0.0000001
 43
0.0000001
 44
0.0000000001
 40
0.0
 40
0.0
 40
0.0
 40
0.0
 40
0.2420297179
 40
0.5020587116
 40
0.7609879259
 40
1.0
 40
1.0
 40
1.0
 40
1.0
 10
-28.3336238221
 20
74.5272256472
 30
0.0
 10
-28.3213469667
 20
74.6321508584
 30
0.0
 10
-28.2649118356
 20
74.8465269625
 30
0.0
 10
-28.1133163074
 20
75.1444422526
 30
0.0
 10
-27.9066264113
 20
75.4054739387
 30
0.0
 10
-27.7361587311
 20
75.5445424388
 30
0.0
 10
-27.6465893266
 20
75.5980287912
 30
0.0
  0
SPLINE
  5
497
100
AcDbEntity
  8
RACCORDO
100
AcDbSpline
 62
250
  6
CONTINUOUS
 70
0
 71
3
 72
11
 73
7
 74
0
 42
0.0000001
 43
0.0000001
 44
0.0000000001
 40
0.0
 40
0.0
 40
0.0
 40
0.0
 40
0.2530207099
 40
0.5136511462
 40
0.7671333998
 40
1.0
 40
1.0
 40
1.0
 40
1.0
 10
-10.5325458438
 20
64.3113586008
 30
0.0
 10
-10.5086738511
 20
64.4030106385
 30
0.0
 10
-10.4418066903
 20
64.5845780159
 30
0.0
 10
-10.298253363
 20
64.8347316465
 30
0.0
 10
-10.11979194
 20
65.0516571809
 30
0.0
 10
-9.9787415428
 20
65.1693311287
 30
0.0
 10
-9.9053910205
 20
65.2164224621
 30
0.0
  0
SPLINE
  5
498
100
AcDbEntity
  8
RACCORDO
100
AcDbSpline
 62
250
  6
CONTINUOUS
 70
0
 71
3
 72
10
 73
6
 74
0
 42
0.0000001
 43
0.0000001
 44
0.0000000001
 40
0.0
 40
0.0
 40
0.0
 40
0.0
 40
0.2397124872
 40
0.4868950882
 40
1.0
 40
1.0
 40
1.0
 40
1.0
 10
14.1201792698
 20
15.9443811137
 30
0.0
 10
14.98235995
 20
15.5111195759
 30
0.0
 10
16.7586499179
 20
14.6800847239
 30
0.0
 10
20.4883653699
 20
13.162930758
 30
0.0
 10
23.4064444061
 20
12.2208591602
 30
0.0
 10
25.3976086566
 20
11.6720455931
 30
0.0
  0
SPLINE
  5
499
100
AcDbEntity
  8
RACCORDO
100
AcDbSpline
 62
250
  6
CONTINUOUS
 70
0
 71
3
 72
15
 73
11
 74
0
 42
0.0000001
 43
0.0000001
 44
0.0000000001
 40
0.0
 40
0.0
 40
0.0
 40
0.0
 40
0.2497707805
 40
0.374681437
 40
0.4996256851
 40
0.6246154865
 40
0.7496675908
 40
0.8122226441
 40
0.8747964085
 40
1.0
 40
1.0
 40
1.0
 40
1.0
 10
14.1201792698
 20
15.9443811136
 30
0.0
 10
14.1201456321
 20
17.4566899846
 30
0.0
 10
14.1202599199
 20
19.7253062808
 30
0.0
 10
14.1197441819
 20
22.7504333554
 30
0.0
 10
14.1190349934
 20
25.020038073
 30
0.0
 10
14.1179265482
 20
27.2904992047
 30
0.0
 10
14.1166364542
 20
29.1832064503
 30
0.0
 10
14.1149731441
 20
30.6979984995
 30
0.0
 10
14.1121177458
 20
32.2137025664
 30
0.0
 10
14.111430708
 20
33.3506674138
 30
0.0
 10
14.1155452535
 20
34.1087373244
 30
0.0
  0
SPLINE
  5
49A
100
AcDbEntity
  8
RACCORDO
100
AcDbSpline
 62
250
  6
CONTINUOUS
 70
0
 71
3
 72
11
 73
7
 74
0
 42
0.0000001
 43
0.0000001
 44
0.0000000001
 40
0.0
 40
0.0
 40
0.0
 40
0.0
 40
0.2530210038
 40
0.5136490802
 40
0.7671309926
 40
1.0
 40
1.0
 40
1.0
 40
1.0
 10
6.0844829459
 20
54.7168944379
 30
0.0
 10
6.1083408451
 20
54.8085511338
 30
0.0
 10
6.1752039162
 20
54.990123686
 30
0.0
 10
6.318772834
 20
55.2402702077
 30
0.0
 10
6.497244109
 20
55.4571905989
 30
0.0
 10
6.6383027579
 20
55.5748587434
 30
0.0
 10
6.711657201
 20
55.6219470796
 30
0.0
  0
SPLINE
  5
49B
100
AcDbEntity
  8
RACCORDO
100
AcDbSpline
 62
250
  6
CONTINUOUS
 70
0
 71
3
 72
11
 73
7
 74
0
 42
0.0000001
 43
0.0000001
 44
0.0000000001
 40
0.0
 40
0.0
 40
0.0
 40
0.0
 40
0.2448379661
 40
0.5069119061
 40
0.7653098676
 40
1.0
 40
1.0
 40
1.0
 40
1.0
 10
24.0451027781
 20
44.2844051727
 30
0.0
 10
24.0561456759
 20
44.3901956428
 30
0.0
 10
24.1076094876
 20
44.6065254878
 30
0.0
 10
24.246694671
 20
44.9105036545
 30
0.0
 10
24.4368643439
 20
45.1800456069
 30
0.0
 10
24.5954051242
 20
45.327790823
 30
0.0
 10
24.6793123755
 20
45.3857110038
 30
0.0
  0
SPLINE
  5
49C
100
AcDbEntity
  8
RACCORDO
100
AcDbSpline
 62
250
  6
CONTINUOUS
 70
0
 71
3
 72
11
 73
7
 74
0
 42
0.0000001
 43
0.0000001
 44
0.0000000001
 40
0.0
 40
0.0
 40
0.0
 40
0.0
 40
0.2456122455
 40
0.5081093348
 40
0.7662988348
 40
1.0
 40
1.0
 40
1.0
 40
1.0
 10
25.3352909446
 20
42.041180761
 30
0.0
 10
25.4324044286
 20
41.9978093936
 30
0.0
 10
25.6449806101
 20
41.9335473345
 30
0.0
 10
25.9768111412
 20
41.8994838951
 30
0.0
 10
26.3041780813
 20
41.9256366729
 30
0.0
 10
26.5110470185
 20
41.9858410092
 30
0.0
 10
26.6030875268
 20
42.0279133459
 30
0.0
  0
SPLINE
  5
49D
100
AcDbEntity
  8
RACCORDO
100
AcDbSpline
 62
250
  6
CONTINUOUS
 70
0
 71
3
 72
11
 73
7
 74
0
 42
0.0000001
 43
0.0000001
 44
0.0000000001
 40
0.0
 40
0.0
 40
0.0
 40
0.0
 40
0.2530271828
 40
0.5136550978
 40
0.7671338242
 40
1.0
 40
1.0
 40
1.0
 40
1.0
 10
25.3976086564
 20
11.6720467465
 30
0.0
 10
25.4889123252
 20
11.6468795352
 30
0.0
 10
25.6795838521
 20
11.6139993169
 30
0.0
 10
25.9679892848
 20
11.613264544
 30
0.0
 10
26.2450673612
 20
11.6593688718
 30
0.0
 10
26.4174878585
 20
11.7226981855
 30
0.0
 10
26.4949383935
 20
11.7626819948
 30
0.0
  0
SPLINE
  5
49E
100
AcDbEntity
  8
RACCORDO
100
AcDbSpline
 62
250
  6
CONTINUOUS
 70
0
 71
3
 72
11
 73
7
 74
0
 42
0.0000001
 43
0.0000001
 44
0.0000000001
 40
0.0
 40
0.0
 40
0.0
 40
0.0
 40
0.2530271527
 40
0.5136553115
 40
0.7671340731
 40
1.0
 40
1.0
 40
1.0
 40
1.0
 10
25.3976086564
 20
-46.2973452176
 30
0.0
 10
25.4889126366
 20
-46.3225109274
 30
0.0
 10
25.6795839116
 20
-46.3553905123
 30
0.0
 10
25.967989175
 20
-46.3561270475
 30
0.0
 10
26.2450672026
 20
-46.3100238673
 30
0.0
 10
26.4174877929
 20
-46.2466955921
 30
0.0
 10
26.4949383935
 20
-46.2067122885
 30
0.0
  0
SPLINE
  5
49F
100
AcDbEntity
  8
RACCORDO
100
AcDbSpline
 62
250
  6
CONTINUOUS
 70
0
 71
3
 72
11
 73
7
 74
0
 42
0.0000001
 43
0.0000001
 44
0.0000000001
 40
0.0
 40
0.0
 40
0.0
 40
0.0
 40
0.2416227973
 40
0.5012286022
 40
0.7601776876
 40
1.0
 40
1.0
 40
1.0
 40
1.0
 10
25.3352907507
 20
-76.4333868759
 30
0.0
 10
25.4322235444
 20
-76.474607331
 30
0.0
 10
25.6459242522
 20
-76.5313514956
 30
0.0
 10
25.9791680097
 20
-76.5457684219
 30
0.0
 10
26.307787989
 20
-76.4933567633
 30
0.0
 10
26.5124706559
 20
-76.4124182671
 30
0.0
 10
26.6030893205
 20
-76.3602779473
 30
0.0
  0
SPLINE
  5
4A0
100
AcDbEntity
  8
RACCORDO
100
AcDbSpline
 62
250
  6
CONTINUOUS
 70
0
 71
3
 72
11
 73
7
 74
0
 42
0.0000001
 43
0.0000001
 44
0.0000000001
 40
0.0
 40
0.0
 40
0.0
 40
0.0
 40
0.2854011028
 40
0.5431863279
 40
0.7782503545
 40
1.0
 40
1.0
 40
1.0
 40
1.0
 10
24.0451029665
 20
-77.163590483
 30
0.0
 10
24.0498079009
 20
-77.202614513
 30
0.0
 10
24.0643523654
 20
-77.2764360364
 30
0.0
 10
24.1051191716
 20
-77.376435474
 30
0.0
 10
24.1632584315
 20
-77.4571567635
 30
0.0
 10
24.2136371521
 20
-77.4965991711
 30
0.0
 10
24.2402594883
 20
-77.5115644768
 30
0.0
  0
SPLINE
  5
4A1
100
AcDbEntity
  8
RACCORDO
100
AcDbSpline
 62
250
  6
CONTINUOUS
 70
0
 71
3
 72
11
 73
7
 74
0
 42
0.0000001
 43
0.0000001
 44
0.0000000001
 40
0.0
 40
0.0
 40
0.0
 40
0.0
 40
0.2805288836
 40
0.5387928461
 40
0.7770423784
 40
1.0
 40
1.0
 40
1.0
 40
1.0
 10
-22.44627937
 20
-2.745529947
 30
0.0
 10
-22.3550682811
 20
-2.8060404128
 30
0.0
 10
-22.1870083873
 20
-2.9337402351
 30
0.0
 10
-21.9762686688
 20
-3.1537333604
 30
0.0
 10
-21.8218709948
 20
-3.3903330032
 30
0.0
 10
-21.7578654593
 20
-3.5605684209
 30
0.0
 10
-21.7375811216
 20
-3.6451648589
 30
0.0
  0
SPLINE
  5
4A2
100
AcDbEntity
  8
RACCORDO
100
AcDbSpline
 62
250
  6
CONTINUOUS
 70
0
 71
3
 72
9
 73
5
 74
0
 42
0.0000001
 43
0.0000001
 44
0.0000000001
 40
0.0
 40
0.0
 40
0.0
 40
0.0
 40
0.4919673922
 40
1.0
 40
1.0
 40
1.0
 40
1.0
 10
-20.8470917483
 20
-0.931146451
 30
0.0
 10
-20.772655398
 20
-1.2118740873
 30
0.0
 10
-20.6948686249
 20
-1.8035094743
 30
0.0
 10
-20.7513370076
 20
-2.3965265398
 30
0.0
 10
-20.8123127702
 20
-2.6901751451
 30
0.0
  0
SPLINE
  5
4A3
100
AcDbEntity
  8
RACCORDO
100
AcDbSpline
 62
250
  6
CONTINUOUS
 70
0
 71
3
 72
9
 73
5
 74
0
 42
0.0000001
 43
0.0000001
 44
0.0000000001
 40
0.0
 40
0.0
 40
0.0
 40
0.0
 40
0.4758796326
 40
1.0
 40
1.0
 40
1.0
 40
1.0
 10
-19.9650419894
 20
-1.2619879381
 30
0.0
 10
-19.9650419894
 20
-1.5248795198
 30
0.0
 10
-20.0403482756
 20
-2.0778021526
 30
0.0
 10
-20.2219379475
 20
-2.6029096215
 30
0.0
 10
-20.3393697738
 20
-2.8675678179
 30
0.0
  0
SPLINE
  5
4A4
100
AcDbEntity
  8
RACCORDO
100
AcDbSpline
 62
250
  6
CONTINUOUS
 70
0
 71
3
 72
9
 73
5
 74
0
 42
0.0000001
 43
0.0000001
 44
0.0000000001
 40
0.0
 40
0.0
 40
0.0
 40
0.0
 40
0.4758796326
 40
1.0
 40
1.0
 40
1.0
 40
1.0
 10
11.5012097734
 20
-19.4302073411
 30
0.0
 10
11.5012097734
 20
-19.6930989229
 30
0.0
 10
11.4259034872
 20
-20.2460215557
 30
0.0
 10
11.2443138153
 20
-20.7711290246
 30
0.0
 10
11.126881989
 20
-21.035787221
 30
0.0
  0
SPLINE
  5
4A5
100
AcDbEntity
  8
RACCORDO
100
AcDbSpline
 62
250
  6
CONTINUOUS
 70
0
 71
3
 72
10
 73
6
 74
0
 42
0.0000001
 43
0.0000001
 44
0.0000000001
 40
0.0
 40
0.0
 40
0.0
 40
0.0
 40
0.2154156555
 40
0.4566766532
 40
1.0
 40
1.0
 40
1.0
 40
1.0
 10
12.3832595323
 20
-20.1179348063
 30
0.0
 10
12.3445223166
 20
-20.2192947487
 30
0.0
 10
12.2494391266
 20
-20.4292930771
 30
0.0
 10
12.0021288243
 20
-20.8685586165
 30
0.0
 10
11.7706878996
 20
-21.1907400856
 30
0.0
 10
11.5998249855
 20
-21.4045372658
 30
0.0
  0
SPLINE
  5
4A6
100
AcDbEntity
  8
RACCORDO
100
AcDbSpline
 62
250
  6
CONTINUOUS
 70
0
 71
3
 72
9
 73
5
 74
0
 42
0.0000001
 43
0.0000001
 44
0.0000000001
 40
0.0
 40
0.0
 40
0.0
 40
0.0
 40
0.4795255624
 40
1.0
 40
1.0
 40
1.0
 40
1.0
 10
14.120179267
 20
-23.8585448786
 30
0.0
 10
13.8890624031
 20
-23.7424044283
 30
0.0
 10
13.3771310047
 20
-23.5586181683
 30
0.0
 10
12.8419188499
 20
-23.4717217363
 30
0.0
 10
12.5620662782
 20
-23.449351392
 30
0.0
  0
SPLINE
  5
4A7
100
AcDbEntity
  8
RACCORDO
100
AcDbSpline
 62
250
  6
CONTINUOUS
 70
0
 71
3
 72
9
 73
5
 74
0
 42
0.0000001
 43
0.0000001
 44
0.0000000001
 40
0.0
 40
0.0
 40
0.0
 40
0.0
 40
0.4795258293
 40
1.0
 40
1.0
 40
1.0
 40
1.0
 10
14.1201792668
 20
-42.0250000277
 30
0.0
 10
13.8890625631
 20
-41.9088581612
 30
0.0
 10
13.3771314204
 20
-41.7250689994
 30
0.0
 10
12.8419189734
 20
-41.6381697757
 30
0.0
 10
12.5620662781
 20
-41.6157980317
 30
0.0
  0
SPLINE
  5
4A8
100
AcDbEntity
  8
RACCORDO
100
AcDbSpline
 62
250
  6
CONTINUOUS
 70
0
 71
3
 72
9
 73
5
 74
0
 42
0.0000001
 43
0.0000001
 44
0.0000000001
 40
0.0
 40
0.0
 40
0.0
 40
0.0
 40
0.4798953661
 40
1.0
 40
1.0
 40
1.0
 40
1.0
 10
14.1155455855
 20
-60.1565284681
 30
0.0
 10
13.8847060663
 20
-60.0473260536
 30
0.0
 10
13.3761454757
 20
-59.8767392862
 30
0.0
 10
12.846794115
 20
-59.800435789
 30
0.0
 10
12.5705847516
 20
-59.7829380924
 30
0.0
  0
SPLINE
  5
4A9
100
AcDbEntity
  8
RACCORDO
100
AcDbSpline
 62
250
  6
CONTINUOUS
 70
0
 71
3
 72
11
 73
7
 74
0
 42
0.0000001
 43
0.0000001
 44
0.0000000001
 40
0.0
 40
0.0
 40
0.0
 40
0.0
 40
0.2811344104
 40
0.5394823116
 40
0.7774585037
 40
1.0
 40
1.0
 40
1.0
 40
1.0
 10
11.5648596161
 20
-61.6356969879
 30
0.0
 10
11.5578739603
 20
-61.5291892328
 30
0.0
 10
11.5313710157
 20
-61.3252627284
 30
0.0
 10
11.4475755108
 20
-61.0407492457
 30
0.0
 10
11.3224577448
 20
-60.7962062872
 30
0.0
 10
11.2095632617
 20
-60.6602363229
 30
0.0
 10
11.1478968183
 20
-60.6024784174
 30
0.0
  0
SPLINE
  5
4AA
100
AcDbEntity
  8
RACCORDO
100
AcDbSpline
 62
250
  6
CONTINUOUS
 70
0
 71
3
 72
11
 73
7
 74
0
 42
0.0000001
 43
0.0000001
 44
0.0000000001
 40
0.0
 40
0.0
 40
0.0
 40
0.0
 40
0.2804974903
 40
0.5387757575
 40
0.7770321701
 40
1.0
 40
1.0
 40
1.0
 40
1.0
 10
4.1460135212
 20
-57.3773198046
 30
0.0
 10
4.1392540374
 20
-57.2680214179
 30
0.0
 10
4.1127241761
 20
-57.0585038589
 30
0.0
 10
4.0274439451
 20
-56.7658597503
 30
0.0
 10
3.8995763614
 20
-56.5137366716
 30
0.0
 10
3.7839987786
 20
-56.3731669145
 30
0.0
 10
3.7208000447
 20
-56.3133072954
 30
0.0
  0
SPLINE
  5
4AB
100
AcDbEntity
  8
RACCORDO
100
AcDbSpline
 62
250
  6
CONTINUOUS
 70
0
 71
3
 72
11
 73
7
 74
0
 42
0.0000001
 43
0.0000001
 44
0.0000000001
 40
0.0
 40
0.0
 40
0.0
 40
0.0
 40
0.2805551572
 40
0.5388227589
 40
0.7770593976
 40
1.0
 40
1.0
 40
1.0
 40
1.0
 10
-12.4708977965
 20
-47.7829234685
 30
0.0
 10
-12.4776897297
 20
-47.6736147297
 30
0.0
 10
-12.5042540716
 20
-47.4641076941
 30
0.0
 10
-12.5894671487
 20
-47.171464374
 30
0.0
 10
-12.7172888492
 20
-46.9193706991
 30
0.0
 10
-12.8328313882
 20
-46.7788178032
 30
0.0
 10
-12.8960132329
 20
-46.7189675666
 30
0.0
  0
SPLINE
  5
4AC
100
AcDbEntity
  8
RACCORDO
100
AcDbSpline
 62
250
  6
CONTINUOUS
 70
0
 71
3
 72
11
 73
7
 74
0
 42
0.0000001
 43
0.0000001
 44
0.0000000001
 40
0.0
 40
0.0
 40
0.0
 40
0.0
 40
0.2790482063
 40
0.5367963979
 40
0.775569863
 40
1.0
 40
1.0
 40
1.0
 40
1.0
 10
-19.874869442
 20
-43.4827903779
 30
0.0
 10
-19.8837592339
 20
-43.3749559545
 30
0.0
 10
-19.9143332661
 20
-43.1682188077
 30
0.0
 10
-20.0048421884
 20
-42.8799294898
 30
0.0
 10
-20.1369564506
 20
-42.6315814729
 30
0.0
 10
-20.2544154229
 20
-42.4932895598
 30
0.0
 10
-20.3183549714
 20
-42.4342590537
 30
0.0
  0
SPLINE
  5
4AD
100
AcDbEntity
  8
RACCORDO
100
AcDbSpline
 62
250
  6
CONTINUOUS
 70
0
 71
3
 72
11
 73
7
 74
0
 42
0.0000001
 43
0.0000001
 44
0.0000000001
 40
0.0
 40
0.0
 40
0.0
 40
0.0
 40
0.2786998002
 40
0.5363130789
 40
0.7752019058
 40
1.0
 40
1.0
 40
1.0
 40
1.0
 10
-22.4178443526
 20
-39.0626074134
 30
0.0
 10
-22.3295713772
 20
-39.1245233333
 30
0.0
 10
-22.1671124825
 20
-39.2549444461
 30
0.0
 10
-21.9646538967
 20
-39.4781457746
 30
0.0
 10
-21.8173989413
 20
-39.7172409743
 30
0.0
 10
-21.7574277489
 20
-39.8882397343
 30
0.0
 10
-21.7387231727
 20
-39.9731737194
 30
0.0
  0
SPLINE
  5
4AE
100
AcDbEntity
  8
RACCORDO
100
AcDbSpline
 62
250
  6
CONTINUOUS
 70
0
 71
3
 72
11
 73
7
 74
0
 42
0.0000001
 43
0.0000001
 44
0.0000000001
 40
0.0
 40
0.0
 40
0.0
 40
0.0
 40
0.2805370761
 40
0.5387992924
 40
0.7770460312
 40
1.0
 40
1.0
 40
1.0
 40
1.0
 10
-22.4462793699
 20
-20.9119850975
 30
0.0
 10
-22.3550693267
 20
-20.9725012777
 30
0.0
 10
-22.1870133022
 20
-21.1002062491
 30
0.0
 10
-21.9762686561
 20
-21.320192728
 30
0.0
 10
-21.8218714056
 20
-21.5567863329
 30
0.0
 10
-21.7578654983
 20
-21.7270172797
 30
0.0
 10
-21.7375811216
 20
-21.8116114999
 30
0.0
  0
SPLINE
  5
4AF
100
AcDbEntity
  8
RACCORDO
100
AcDbSpline
 62
250
  6
CONTINUOUS
 70
0
 71
3
 72
11
 73
7
 74
0
 42
0.0000001
 43
0.0000001
 44
0.0000000001
 40
0.0
 40
0.0
 40
0.0
 40
0.0
 40
0.2805284027
 40
0.5387922236
 40
0.7770419362
 40
1.0
 40
1.0
 40
1.0
 40
1.0
 10
-22.4462793699
 20
37.0573875371
 30
0.0
 10
-22.3550682344
 20
36.9968763593
 30
0.0
 10
-22.1870082482
 20
36.869175088
 30
0.0
 10
-21.9762685479
 20
36.6491798061
 30
0.0
 10
-21.8218709181
 20
36.4125780171
 30
0.0
 10
-21.75786545
 20
36.2423412401
 30
0.0
 10
-21.7375811216
 20
36.1577441157
 30
0.0
  0
SPLINE
  5
4B0
100
AcDbEntity
  8
RACCORDO
100
AcDbSpline
 62
250
  6
CONTINUOUS
 70
0
 71
3
 72
11
 73
7
 74
0
 42
0.0000001
 43
0.0000001
 44
0.0000000001
 40
0.0
 40
0.0
 40
0.0
 40
0.0
 40
0.2812279635
 40
0.5395647324
 40
0.7774855562
 40
1.0
 40
1.0
 40
1.0
 40
1.0
 10
-22.4178439561
 20
55.2026587996
 30
0.0
 10
-22.3298087162
 20
55.1435433437
 30
0.0
 10
-22.1678292349
 20
55.0190924997
 30
0.0
 10
-21.9652632102
 20
54.8052079735
 30
0.0
 10
-21.817761698
 20
54.575739404
 30
0.0
 10
-21.7574678352
 20
54.410925359
 30
0.0
 10
-21.7387231331
 20
54.3291432532
 30
0.0
  0
SPLINE
  5
4B1
100
AcDbEntity
  8
RACCORDO
100
AcDbSpline
 62
250
  6
CONTINUOUS
 70
0
 71
3
 72
9
 73
5
 74
0
 42
0.0000001
 43
0.0000001
 44
0.0000000001
 40
0.0
 40
0.0
 40
0.0
 40
0.0
 40
0.4797625916
 40
1.0
 40
1.0
 40
1.0
 40
1.0
 10
-19.8748703151
 20
56.6773743176
 30
0.0
 10
-19.8944352303
 20
56.4222532762
 30
0.0
 10
-19.9988409071
 20
55.8948314429
 30
0.0
 10
-20.1959863761
 20
55.396358264
 30
0.0
 10
-20.3183549445
 20
55.1473441866
 30
0.0
  0
SPLINE
  5
4B2
100
AcDbEntity
  8
RACCORDO
100
AcDbSpline
 62
250
  6
CONTINUOUS
 70
0
 71
3
 72
9
 73
5
 74
0
 42
0.0000001
 43
0.0000001
 44
0.0000000001
 40
0.0
 40
0.0
 40
0.0
 40
0.0
 40
0.4795069394
 40
1.0
 40
1.0
 40
1.0
 40
1.0
 10
-12.4708977965
 20
52.4104093177
 30
0.0
 10
-12.485969632
 20
52.1520256639
 30
0.0
 10
-12.5828282184
 20
51.6164355837
 30
0.0
 10
-12.7753470296
 20
51.1091404972
 30
0.0
 10
-12.8960132329
 20
50.8554275514
 30
0.0
  0
SPLINE
  5
4B3
100
AcDbEntity
  8
RACCORDO
100
AcDbSpline
 62
250
  6
CONTINUOUS
 70
0
 71
3
 72
9
 73
5
 74
0
 42
0.0000001
 43
0.0000001
 44
0.0000000001
 40
0.0
 40
0.0
 40
0.0
 40
0.0
 40
0.4795132609
 40
1.0
 40
1.0
 40
1.0
 40
1.0
 10
4.1460135212
 20
42.8160129817
 30
0.0
 10
4.1310166014
 20
42.5576243983
 30
0.0
 10
4.034084646
 20
42.0220346391
 30
0.0
 10
3.8414989722
 20
41.5147780066
 30
0.0
 10
3.7208000447
 20
41.2610878225
 30
0.0
  0
SPLINE
  5
4B4
100
AcDbEntity
  8
RACCORDO
100
AcDbSpline
 62
250
  6
CONTINUOUS
 70
0
 71
3
 72
9
 73
5
 74
0
 42
0.0000001
 43
0.0000001
 44
0.0000000001
 40
0.0
 40
0.0
 40
0.0
 40
0.0
 40
0.4806149374
 40
1.0
 40
1.0
 40
1.0
 40
1.0
 10
11.5648604784
 20
38.5244687096
 30
0.0
 10
11.5494785138
 20
38.2673924566
 30
0.0
 10
11.4543263584
 20
37.7357246826
 30
0.0
 10
11.2658955792
 20
37.2311827824
 30
0.0
 10
11.1478967914
 20
36.9791247918
 30
0.0
  0
SPLINE
  5
4B5
100
AcDbEntity
  8
RACCORDO
100
AcDbSpline
 62
250
  6
CONTINUOUS
 70
0
 71
3
 72
9
 73
5
 74
0
 42
0.0000001
 43
0.0000001
 44
0.0000000001
 40
0.0
 40
0.0
 40
0.0
 40
0.0
 40
0.4809236201
 40
1.0
 40
1.0
 40
1.0
 40
1.0
 10
14.1155452521
 20
34.1087373234
 30
0.0
 10
13.8851864825
 20
34.2235090113
 30
0.0
 10
13.3777700611
 20
34.4063584987
 30
0.0
 10
12.8473375891
 20
34.4954620124
 30
0.0
 10
12.5705847465
 20
34.5193788543
 30
0.0
  0
SPLINE
  5
4B6
100
AcDbEntity
  8
RACCORDO
100
AcDbSpline
 62
250
  6
CONTINUOUS
 70
0
 71
3
 72
9
 73
5
 74
0
 42
0.0000001
 43
0.0000001
 44
0.0000000001
 40
0.0
 40
0.0
 40
0.0
 40
0.0
 40
0.4795267807
 40
1.0
 40
1.0
 40
1.0
 40
1.0
 10
14.1201792668
 20
15.9443726057
 30
0.0
 10
13.8890675541
 20
16.0605245939
 30
0.0
 10
13.3771309377
 20
16.2443041843
 30
0.0
 10
12.8419184703
 20
16.3311918103
 30
0.0
 10
12.5620662781
 20
16.3535575827
 30
0.0
  0
SPLINE
  5
4B7
100
AcDbEntity
  8
RACCORDO
100
AcDbSpline
 62
250
  6
CONTINUOUS
 70
0
 71
3
 72
9
 73
5
 74
0
 42
0.0000001
 43
0.0000001
 44
0.0000000001
 40
0.0
 40
0.0
 40
0.0
 40
0.0
 40
0.4795255611
 40
1.0
 40
1.0
 40
1.0
 40
1.0
 10
14.120179267
 20
-2.2220825436
 30
0.0
 10
13.8890624018
 20
-2.105942098
 30
0.0
 10
13.3771310029
 20
-1.9221558429
 30
0.0
 10
12.84191885
 20
-1.8352594062
 30
0.0
 10
12.5620662782
 20
-1.812889057
 30
0.0
  0
SPLINE
  5
4B8
100
AcDbEntity
  8
RACCORDO
100
AcDbSpline
 62
250
  6
CONTINUOUS
 70
0
 71
3
 72
9
 73
5
 74
0
 42
0.0000001
 43
0.0000001
 44
0.0000000001
 40
0.0
 40
0.0
 40
0.0
 40
0.0
 40
0.5223927085
 40
1.0
 40
1.0
 40
1.0
 40
1.0
 10
12.3832595323
 20
-4.1159908354
 30
0.0
 10
12.3137206106
 20
-3.8537332516
 30
0.0
 10
12.119452816
 20
-3.3647372659
 30
0.0
 10
11.7879250845
 20
-2.9509421018
 30
0.0
 10
11.5998249855
 20
-2.7892264838
 30
0.0
  0
SPLINE
  5
4B9
100
AcDbEntity
  8
RACCORDO
100
AcDbSpline
 62
250
  6
CONTINUOUS
 70
0
 71
3
 72
11
 73
7
 74
0
 42
0.0000001
 43
0.0000001
 44
0.0000000001
 40
0.0
 40
0.0
 40
0.0
 40
0.0
 40
0.282167772
 40
0.5415315677
 40
0.7794796884
 40
1.0
 40
1.0
 40
1.0
 40
1.0
 10
11.5012097734
 20
-3.7851493484
 30
0.0
 10
11.5012097734
 20
-3.6668578577
 30
0.0
 10
11.4870617399
 20
-3.439419488
 30
0.0
 10
11.4172408139
 20
-3.1186734313
 30
0.0
 10
11.3006417266
 20
-2.839254883
 30
0.0
 10
11.1891015702
 20
-2.6802095754
 30
0.0
 10
11.126881989
 20
-2.611833811
 30
0.0
  0
SPLINE
  5
4BA
100
AcDbEntity
  8
RACCORDO
100
AcDbSpline
 62
250
  6
CONTINUOUS
 70
0
 71
3
 72
11
 73
7
 74
0
 42
0.0000001
 43
0.0000001
 44
0.0000000001
 40
0.0
 40
0.0
 40
0.0
 40
0.0
 40
0.282167772
 40
0.5415315677
 40
0.7794796884
 40
1.0
 40
1.0
 40
1.0
 40
1.0
 10
-19.9650419894
 20
14.3830700547
 30
0.0
 10
-19.9650419894
 20
14.5013615454
 30
0.0
 10
-19.9791900229
 20
14.7287999151
 30
0.0
 10
-20.049010949
 20
15.0495459718
 30
0.0
 10
-20.1656100362
 20
15.3289645201
 30
0.0
 10
-20.2771501926
 20
15.4880098277
 30
0.0
 10
-20.3393697738
 20
15.5563855921
 30
0.0
  0
SPLINE
  5
4BB
100
AcDbEntity
  8
RACCORDO
100
AcDbSpline
 62
250
  6
CONTINUOUS
 70
0
 71
3
 72
12
 73
8
 74
0
 42
0.0000001
 43
0.0000001
 44
0.0000000001
 40
0.0
 40
0.0
 40
0.0
 40
0.0
 40
0.3191777908
 40
0.5882838708
 40
0.7051507621
 40
0.8115475162
 40
1.0
 40
1.0
 40
1.0
 40
1.0
 10
-20.8470917484
 20
15.0707975199
 30
0.0
 10
-20.8134811055
 20
15.1587432528
 30
0.0
 10
-20.7598768734
 20
15.3242763456
 30
0.0
 10
-20.7262009769
 20
15.5309059067
 30
0.0
 10
-20.7280942068
 20
15.676587307
 30
0.0
 10
-20.7460438115
 20
15.796828664
 30
0.0
 10
-20.780156152
 20
15.8797917832
 30
0.0
 10
-20.8123127703
 20
15.9251356369
 30
0.0
  0
SPLINE
  5
4BC
100
AcDbEntity
  8
RACCORDO
100
AcDbSpline
 62
250
  6
CONTINUOUS
 70
0
 71
3
 72
11
 73
7
 74
0
 42
0.0000001
 43
0.0000001
 44
0.0000000001
 40
0.0
 40
0.0
 40
0.0
 40
0.0
 40
0.2805288871
 40
0.5387928512
 40
0.7770423825
 40
1.0
 40
1.0
 40
1.0
 40
1.0
 10
-22.44627937
 20
18.890932388
 30
0.0
 10
-22.3550682813
 20
18.8304219199
 30
0.0
 10
-22.187008388
 20
18.7027220944
 30
0.0
 10
-21.9762686697
 20
18.4827289676
 30
0.0
 10
-21.8218709957
 20
18.2461293271
 30
0.0
 10
-21.7578654595
 20
18.0758939122
 30
0.0
 10
-21.7375811216
 20
17.9912974761
 30
0.0
  0
SPLINE
  5
4BD
100
AcDbEntity
  8
0
100
AcDbSpline
 62
250
  6
CONTINUOUS
 70
0
 71
3
 72
11
 73
7
 74
0
 42
0.0000001
 43
0.0000001
 44
0.0000000001
 40
0.0
 40
0.0
 40
0.0
 40
0.0
 40
0.2372324595
 40
0.4999938932
 40
0.7627586504
 40
1.0
 40
1.0
 40
1.0
 40
1.0
 10
-20.1042413695
 20
17.6281739825
 30
0.0
 10
-20.1042413695
 20
17.5813600221
 30
0.0
 10
-20.0866815936
 20
17.4826308285
 30
0.0
 10
-20.0254806872
 20
17.343897631
 30
0.0
 10
-19.9359334338
 20
17.2215282104
 30
0.0
 10
-19.8592102825
 20
17.1569542384
 30
0.0
 10
-19.8186673374
 20
17.13354525
 30
0.0
  0
SPLINE
  5
4BE
100
AcDbEntity
  8
RACCORDO
100
AcDbSpline
 62
250
  6
CONTINUOUS
 70
0
 71
3
 72
15
 73
11
 74
0
 42
0.0000001
 43
0.0000001
 44
0.0000000001
 40
0.0
 40
0.0
 40
0.0
 40
0.0
 40
0.1298767593
 40
0.2700358325
 40
0.4143809287
 40
0.5561547819
 40
0.6889915103
 40
0.8079588572
 40
0.9108629752
 40
1.0
 40
1.0
 40
1.0
 40
1.0
 10
-20.1042413695
 20
17.6281739825
 30
0.0
 10
-20.1759151444
 20
17.5934490699
 30
0.0
 10
-20.3330641368
 20
17.5375673346
 30
0.0
 10
-20.5844046583
 20
17.494046587
 30
0.0
 10
-20.8467898365
 20
17.4892760316
 30
0.0
 10
-21.1024371336
 20
17.5236814126
 30
0.0
 10
-21.3343501318
 20
17.5949254203
 30
0.0
 10
-21.5274137315
 20
17.6988756367
 30
0.0
 10
-21.6695640013
 20
17.8298266471
 30
0.0
 10
-21.7248361968
 20
17.9381375329
 30
0.0
 10
-21.7375811216
 20
17.9912912678
 30
0.0
  0
SPLINE
  5
4BF
100
AcDbEntity
  8
RACCORDO
100
AcDbSpline
 62
250
  6
CONTINUOUS
 70
0
 71
3
 72
9
 73
5
 74
0
 42
0.0000001
 43
0.0000001
 44
0.0000000001
 40
0.0
 40
0.0
 40
0.0
 40
0.0
 40
0.4770866042
 40
1.0
 40
1.0
 40
1.0
 40
1.0
 10
-21.7375811191
 20
17.9912912573
 30
0.0
 10
-21.737581387
 20
17.8438617393
 30
0.0
 10
-21.7017070638
 20
17.5345867018
 30
0.0
 10
-21.6135477566
 20
17.2369772174
 30
0.0
 10
-21.5563487944
 20
17.0858484357
 30
0.0
  0
SPLINE
  5
4C0
100
AcDbEntity
  8
RACCORDO
100
AcDbSpline
 62
250
  6
CONTINUOUS
 70
0
 71
3
 72
9
 73
5
 74
0
 42
0.0000001
 43
0.0000001
 44
0.0000000001
 40
0.0
 40
0.0
 40
0.0
 40
0.0
 40
0.2628484934
 40
1.0
 40
1.0
 40
1.0
 40
1.0
 10
-20.8123127702
 20
15.9251356369
 30
0.0
 10
-20.7750059479
 20
15.8880223959
 30
0.0
 10
-20.6291828848
 20
15.7508947098
 30
0.0
 10
-20.4671758225
 20
15.6301792029
 30
0.0
 10
-20.3393697738
 20
15.5563855921
 30
0.0
  0
SPLINE
  5
4C1
100
AcDbEntity
  8
RACCORDO
100
AcDbSpline
 62
250
  6
CONTINUOUS
 70
0
 71
3
 72
15
 73
11
 74
0
 42
0.0000001
 43
0.0000001
 44
0.0000000001
 40
0.0
 40
0.0
 40
0.0
 40
0.0
 40
0.1288680096
 40
0.2678494289
 40
0.4111702344
 40
0.5524002358
 40
0.6854159767
 40
0.805340646
 40
0.909701127
 40
1.0
 40
1.0
 40
1.0
 40
1.0
 10
-19.8186673374
 20
17.13354525
 30
0.0
 10
-19.8831347958
 20
17.0898100479
 30
0.0
 10
-20.0074949308
 20
16.9843646435
 30
0.0
 10
-20.1682583724
 20
16.7935869831
 30
0.0
 10
-20.302516958
 20
16.5744460795
 30
0.0
 10
-20.4014499506
 20
16.3411592184
 30
0.0
 10
-20.4587719884
 20
16.1086852785
 30
0.0
 10
-20.4705186401
 20
15.891411162
 30
0.0
 10
-20.4355461254
 20
15.7022403269
 30
0.0
 10
-20.376108303
 20
15.5967591365
 30
0.0
 10
-20.3393697738
 20
15.5563855921
 30
0.0
  0
SPLINE
  5
4C2
100
AcDbEntity
  8
RACCORDO
100
AcDbSpline
 62
250
  6
CONTINUOUS
 70
0
 71
3
 72
12
 73
8
 74
0
 42
0.0000001
 43
0.0000001
 44
0.0000000001
 40
0.0
 40
0.0
 40
0.0
 40
0.0
 40
0.2894640754
 40
0.5472653615
 40
0.779421172
 40
0.8901912714
 40
1.0
 40
1.0
 40
1.0
 40
1.0
 10
-27.6465424568
 20
75.5980025603
 30
0.0
 10
-27.7693014224
 20
75.6725832063
 30
0.0
 10
-28.0147667382
 20
75.7938183943
 30
0.0
 10
-28.3950823138
 20
75.8834097852
 30
0.0
 10
-28.6983545556
 20
75.8652539458
 30
0.0
 10
-28.9123096424
 20
75.7934063782
 30
0.0
 10
-29.0088372995
 20
75.7403340553
 30
0.0
 10
-29.0540707714
 20
75.7099524109
 30
0.0
  0
SPLINE
  5
4C3
100
AcDbEntity
  8
RACCORDO
100
AcDbSpline
 62
250
  6
CONTINUOUS
 70
0
 71
3
 72
10
 73
6
 74
0
 42
0.0000001
 43
0.0000001
 44
0.0000000001
 40
0.0
 40
0.0
 40
0.0
 40
0.0
 40
0.2501221356
 40
0.500120335
 40
1.0
 40
1.0
 40
1.0
 40
1.0
 10
-21.7387231711
 20
54.3291428899
 30
0.0
 10
-21.7378881708
 20
52.8141200909
 30
0.0
 10
-21.738048405
 20
49.7848244935
 30
0.0
 10
-21.7374181043
 20
43.7276916788
 30
0.0
 10
-21.7375778851
 20
39.1855817062
 30
0.0
 10
-21.7375811216
 20
36.1577441157
 30
0.0
  0
SPLINE
  5
4C4
100
AcDbEntity
  8
RACCORDO
100
AcDbSpline
 62
250
  6
CONTINUOUS
 70
0
 71
3
 72
15
 73
11
 74
0
 42
0.0000001
 43
0.0000001
 44
0.0000000001
 40
0.0
 40
0.0
 40
0.0
 40
0.0
 40
0.1300713207
 40
0.2704569954
 40
0.414997308
 40
0.5568710691
 40
0.689665967
 40
0.808441745
 40
0.9110645315
 40
1.0
 40
1.0
 40
1.0
 40
1.0
 10
-20.1042413695
 20
53.9611012998
 30
0.0
 10
-20.1762168787
 20
53.9262302013
 30
0.0
 10
-20.3340703249
 20
53.8701768636
 30
0.0
 10
-20.5865157186
 20
53.8267238237
 30
0.0
 10
-20.849948326
 20
53.8223342369
 30
0.0
 10
-21.1063772086
 20
53.8574120199
 30
0.0
 10
-21.338632017
 20
53.9295593021
 30
0.0
 10
-21.5314661227
 20
54.0345716327
 30
0.0
 10
-21.6727628208
 20
54.1667037672
 30
0.0
 10
-21.7267383531
 20
54.2757879556
 30
0.0
 10
-21.7387231711
 20
54.3291428899
 30
0.0
  0
SPLINE
  5
4C5
100
AcDbEntity
  8
RACCORDO
100
AcDbSpline
 62
250
  6
CONTINUOUS
 70
0
 71
3
 72
17
 73
13
 74
0
 42
0.0000001
 43
0.0000001
 44
0.0000000001
 40
0.0
 40
0.0
 40
0.0
 40
0.0
 40
0.1450592538
 40
0.2119102529
 40
0.2751096914
 40
0.3350070421
 40
0.3922667207
 40
0.5016757737
 40
0.6106341782
 40
0.7263442107
 40
0.8548198961
 40
1.0
 40
1.0
 40
1.0
 40
1.0
 10
-20.3183549467
 20
55.1473441879
 30
0.0
 10
-20.4061090785
 20
55.1987979422
 30
0.0
 10
-20.5416768673
 20
55.2629093216
 30
0.0
 10
-20.7275763732
 20
55.3156990507
 30
0.0
 10
-20.8593417944
 20
55.3372499415
 30
0.0
 10
-20.9861845757
 20
55.341798334
 30
0.0
 10
-21.1444941943
 20
55.3230615497
 30
0.0
 10
-21.3291670187
 20
55.2540429461
 30
0.0
 10
-21.5119422029
 20
55.1007844379
 30
0.0
 10
-21.6447634256
 20
54.8875734865
 30
0.0
 10
-21.7239175398
 20
54.6236160675
 30
0.0
 10
-21.7388299983
 20
54.4309540609
 30
0.0
 10
-21.7387231709
 20
54.329142889
 30
0.0
  0
SPLINE
  5
4C6
100
AcDbEntity
  8
RACCORDO
100
AcDbSpline
 62
250
  6
CONTINUOUS
 70
0
 71
3
 72
10
 73
6
 74
0
 42
0.0000001
 43
0.0000001
 44
0.0000000001
 40
0.0
 40
0.0
 40
0.0
 40
0.0
 40
0.2499762332
 40
0.4999759747
 40
1.0
 40
1.0
 40
1.0
 40
1.0
 10
11.1478971029
 20
36.9791246199
 30
0.0
 10
10.5280122674
 20
37.3341481883
 30
0.0
 10
9.2898252829
 20
38.0470904643
 30
0.0
 10
6.8141115454
 20
39.4743860021
 30
0.0
 10
4.9582130357
 20
40.5465325592
 30
0.0
 10
3.7208000447
 20
41.2610878225
 30
0.0
  0
SPLINE
  5
4C7
100
AcDbEntity
  8
RACCORDO
100
AcDbSpline
 62
250
  6
CONTINUOUS
 70
0
 71
3
 72
10
 73
6
 74
0
 42
0.0000001
 43
0.0000001
 44
0.0000000001
 40
0.0
 40
0.0
 40
0.0
 40
0.0
 40
0.4999758248
 40
0.7499760546
 40
1.0
 40
1.0
 40
1.0
 40
1.0
 10
-12.8960132329
 20
50.8554275514
 30
0.0
 10
-14.1335076136
 20
51.569852612
 30
0.0
 10
-15.9899735285
 20
52.6411731442
 30
0.0
 10
-18.4640668883
 20
54.0718475253
 30
0.0
 10
-19.7007957021
 20
54.7878770563
 30
0.0
 10
-20.3183549467
 20
55.1473441879
 30
0.0
  0
SPLINE
  5
4C8
100
AcDbEntity
  8
RACCORDO
100
AcDbSpline
 62
250
  6
CONTINUOUS
 70
0
 71
3
 72
18
 73
14
 74
0
 42
0.0000001
 43
0.0000001
 44
0.0000000001
 40
0.0
 40
0.0
 40
0.0
 40
0.0
 40
0.1140699589
 40
0.174717124
 40
0.2373599463
 40
0.3670323747
 40
0.5000176022
 40
0.5667496622
 40
0.63306469
 40
0.6985300064
 40
0.7627369819
 40
0.8859049945
 40
1.0
 40
1.0
 40
1.0
 40
1.0
 10
12.5705847462
 20
34.5193787796
 30
0.0
 10
12.5714970196
 20
34.6315366538
 30
0.0
 10
12.5564207647
 20
34.8037238314
 30
0.0
 10
12.5102036163
 20
35.0326035126
 30
0.0
 10
12.4430469409
 20
35.2722963577
 30
0.0
 10
12.3301339585
 20
35.572281429
 30
0.0
 10
12.1838522522
 20
35.8619930295
 30
0.0
 10
12.0474671955
 20
36.0853259961
 30
0.0
 10
11.9369239578
 20
36.2463249957
 30
0.0
 10
11.8183452453
 20
36.3984098702
 30
0.0
 10
11.6529346311
 20
36.5841799618
 30
0.0
 10
11.437021369
 20
36.7883371582
 30
0.0
 10
11.2454250072
 20
36.9236804679
 30
0.0
 10
11.1478971035
 20
36.979124621
 30
0.0
  0
SPLINE
  5
4C9
100
AcDbEntity
  8
RACCORDO
100
AcDbSpline
 62
250
  6
CONTINUOUS
 70
0
 71
3
 72
13
 73
9
 74
0
 42
0.0000001
 43
0.0000001
 44
0.0000000001
 40
0.0
 40
0.0
 40
0.0
 40
0.0
 40
0.2500093684
 40
0.5000160595
 40
0.6250171848
 40
0.7500161116
 40
0.8750133608
 40
1.0
 40
1.0
 40
1.0
 40
1.0
 10
12.5620662781
 20
16.3535575827
 30
0.0
 10
12.5620545881
 20
17.8674331775
 30
0.0
 10
12.5618864283
 20
20.895168126
 30
0.0
 10
12.562223977
 20
24.679819458
 30
0.0
 10
12.5632243716
 20
27.7074977125
 30
0.0
 10
12.5645127173
 20
29.9782098329
 30
0.0
 10
12.5663662458
 20
32.2488314488
 30
0.0
 10
12.5673640933
 20
33.7625571023
 30
0.0
 10
12.5705847465
 20
34.5193787796
 30
0.0
  0
SPLINE
  5
4CA
100
AcDbEntity
  8
RACCORDO
100
AcDbSpline
 62
250
  6
CONTINUOUS
 70
0
 71
3
 72
9
 73
5
 74
0
 42
0.0000001
 43
0.0000001
 44
0.0000000001
 40
0.0
 40
0.0
 40
0.0
 40
0.0
 40
0.2688611146
 40
1.0
 40
1.0
 40
1.0
 40
1.0
 10
11.126881989
 20
-2.611833811
 30
0.0
 10
11.1662004902
 20
-2.6345358208
 30
0.0
 10
11.3153346743
 20
-2.7135229934
 30
0.0
 10
11.4779095628
 20
-2.7697244256
 30
0.0
 10
11.5998249855
 20
-2.7892264838
 30
0.0
  0
SPLINE
  5
4CB
100
AcDbEntity
  8
RACCORDO
100
AcDbSpline
 62
250
  6
CONTINUOUS
 70
0
 71
3
 72
15
 73
11
 74
0
 42
0.0000001
 43
0.0000001
 44
0.0000000001
 40
0.0
 40
0.0
 40
0.0
 40
0.0
 40
0.1241333673
 40
0.2413019457
 40
0.3544976092
 40
0.4678693549
 40
0.5859314967
 40
0.7125273676
 40
0.850185516
 40
1.0
 40
1.0
 40
1.0
 40
1.0
 10
11.5998249855
 20
-2.7892264838
 30
0.0
 10
11.664838514
 20
-2.7996262506
 30
0.0
 10
11.793516978
 20
-2.8084302208
 30
0.0
 10
11.9811229404
 20
-2.7806830507
 30
0.0
 10
12.1514039035
 20
-2.7100600517
 30
0.0
 10
12.297896733
 20
-2.597266535
 30
0.0
 10
12.4153494006
 20
-2.4456590205
 30
0.0
 10
12.5005157673
 20
-2.2599430378
 30
0.0
 10
12.5516815172
 20
-2.0451830763
 30
0.0
 10
12.5620668614
 20
-1.8923680006
 30
0.0
 10
12.5620662054
 20
-1.812906729
 30
0.0
  0
SPLINE
  5
4CC
100
AcDbEntity
  8
0
100
AcDbSpline
 62
250
  6
CONTINUOUS
 70
0
 71
3
 72
9
 73
5
 74
0
 42
0.0000001
 43
0.0000001
 44
0.0000000001
 40
0.0
 40
0.0
 40
0.0
 40
0.0
 40
0.2588656445
 40
1.0
 40
1.0
 40
1.0
 40
1.0
 10
11.6475844254
 20
-1.0346741531
 30
0.0
 10
11.6518538435
 20
-1.0371392616
 30
0.0
 10
11.6685304605
 20
-1.0463360063
 30
0.0
 10
11.6859594375
 20
-1.0541999963
 30
0.0
 10
11.6992167343
 20
-1.0590440749
 30
0.0
  0
SPLINE
  5
4CD
100
AcDbEntity
  8
RACCORDO
100
AcDbSpline
 62
250
  6
CONTINUOUS
 70
0
 71
3
 72
15
 73
11
 74
0
 42
0.0000001
 43
0.0000001
 44
0.0000000001
 40
0.0
 40
0.0
 40
0.0
 40
0.0
 40
0.1288680096
 40
0.2678494289
 40
0.4111702344
 40
0.5524002358
 40
0.6854159767
 40
0.805340646
 40
0.909701127
 40
1.0
 40
1.0
 40
1.0
 40
1.0
 10
11.6475844254
 20
-1.0346741531
 30
0.0
 10
11.583116967
 20
-1.0784093552
 30
0.0
 10
11.458756832
 20
-1.1838547596
 30
0.0
 10
11.2979933904
 20
-1.37463242
 30
0.0
 10
11.1637348048
 20
-1.5937733236
 30
0.0
 10
11.0648018122
 20
-1.8270601847
 30
0.0
 10
11.0074797744
 20
-2.0595341246
 30
0.0
 10
10.9957331227
 20
-2.2768082411
 30
0.0
 10
11.0307056374
 20
-2.4659790761
 30
0.0
 10
11.0901434598
 20
-2.5714602665
 30
0.0
 10
11.126881989
 20
-2.611833811
 30
0.0
  0
SPLINE
  5
4CE
100
AcDbEntity
  8
RACCORDO
100
AcDbSpline
 62
250
  6
CONTINUOUS
 70
0
 71
3
 72
12
 73
8
 74
0
 42
0.0000001
 43
0.0000001
 44
0.0000000001
 40
0.0
 40
0.0
 40
0.0
 40
0.0
 40
0.1096569536
 40
0.2202903757
 40
0.452282952
 40
0.7101630794
 40
1.0
 40
1.0
 40
1.0
 40
1.0
 10
26.0082195324
 20
-77.6288534873
 30
0.0
 10
26.0567449087
 20
-77.6050658871
 30
0.0
 10
26.1501712839
 20
-77.548395419
 30
0.0
 10
26.3177365377
 20
-77.399822101
 30
0.0
 10
26.4828597727
 20
-77.1473024621
 30
0.0
 10
26.5922907688
 20
-76.7747827389
 30
0.0
 10
26.607629683
 20
-76.5030460673
 30
0.0
 10
26.6030893205
 20
-76.3602779473
 30
0.0
  0
SPLINE
  5
4CF
100
AcDbEntity
  8
RACCORDO
100
AcDbSpline
 62
250
  6
CONTINUOUS
 70
0
 71
3
 72
15
 73
11
 74
0
 42
0.0000001
 43
0.0000001
 44
0.0000000001
 40
0.0
 40
0.0
 40
0.0
 40
0.0
 40
0.1474372952
 40
0.2795561288
 40
0.3985100393
 40
0.509075155
 40
0.6181978439
 40
0.7331454135
 40
0.8594230592
 40
1.0
 40
1.0
 40
1.0
 40
1.0
 10
24.0451027794
 20
-77.1635906302
 30
0.0
 10
24.1273003766
 20
-77.2051208768
 30
0.0
 10
24.2894636491
 20
-77.2725698616
 30
0.0
 10
24.5352837936
 20
-77.3223949316
 30
0.0
 10
24.7637628814
 20
-77.3121831152
 30
0.0
 10
24.9662250923
 20
-77.2392693504
 30
0.0
 10
25.1317605795
 20
-77.105434983
 30
0.0
 10
25.2519167951
 20
-76.9186886296
 30
0.0
 10
25.3233294272
 20
-76.688727738
 30
0.0
 10
25.3363604011
 20
-76.5211886613
 30
0.0
 10
25.3352907448
 20
-76.4333868809
 30
0.0
  0
SPLINE
  5
4D0
100
AcDbEntity
  8
0
100
AcDbSpline
 62
250
  6
CONTINUOUS
 70
0
 71
3
 72
11
 73
7
 74
0
 42
0.0000001
 43
0.0000001
 44
0.0000000001
 40
0.0
 40
0.0
 40
0.0
 40
0.0
 40
0.2372324595
 40
0.4999938932
 40
0.7627586504
 40
1.0
 40
1.0
 40
1.0
 40
1.0
 10
-20.1042413695
 20
-40.3412156698
 30
0.0
 10
-20.1042413695
 20
-40.3880296301
 30
0.0
 10
-20.0866815936
 20
-40.4867588238
 30
0.0
 10
-20.0254806872
 20
-40.6254920213
 30
0.0
 10
-19.9359334338
 20
-40.7478614419
 30
0.0
 10
-19.8592102825
 20
-40.8124354139
 30
0.0
 10
-19.8186673374
 20
-40.8358444023
 30
0.0
  0
SPLINE
  5
4D1
100
AcDbEntity
  8
RACCORDO
100
AcDbSpline
 62
250
  6
CONTINUOUS
 70
0
 71
3
 72
15
 73
11
 74
0
 42
0.0000001
 43
0.0000001
 44
0.0000000001
 40
0.0
 40
0.0
 40
0.0
 40
0.0
 40
0.1300712922
 40
0.2704569363
 40
0.4149972173
 40
0.5568709473
 40
0.6896658158
 40
0.8084415727
 40
0.9110643086
 40
1.0
 40
1.0
 40
1.0
 40
1.0
 10
-20.1042413695
 20
-40.3412156698
 30
0.0
 10
-20.1762168787
 20
-40.3760867683
 30
0.0
 10
-20.3340703251
 20
-40.4321401061
 30
0.0
 10
-20.5865157184
 20
-40.4755931456
 30
0.0
 10
-20.8499483279
 20
-40.479982734
 30
0.0
 10
-21.106377203
 20
-40.4449049444
 30
0.0
 10
-21.3386320391
 20
-40.372757684
 30
0.0
 10
-21.5314660558
 20
-40.2677452978
 30
0.0
 10
-21.6727630493
 20
-40.1356131949
 30
0.0
 10
-21.7267383111
 20
-40.0265287214
 30
0.0
 10
-21.7387231712
 20
-39.9731736439
 30
0.0
  0
SPLINE
  5
4D2
100
AcDbEntity
  8
RACCORDO
100
AcDbSpline
 62
250
  6
CONTINUOUS
 70
0
 71
3
 72
9
 73
5
 74
0
 42
0.0000001
 43
0.0000001
 44
0.0000000001
 40
0.0
 40
0.0
 40
0.0
 40
0.0
 40
0.4796993041
 40
1.0
 40
1.0
 40
1.0
 40
1.0
 10
-21.7387231712
 20
-39.973173644
 30
0.0
 10
-21.7388430616
 20
-40.0863598083
 30
0.0
 10
-21.7177853915
 20
-40.3225108215
 30
0.0
 10
-21.6637114231
 20
-40.5529231475
 30
0.0
 10
-21.6285085088
 20
-40.6705339506
 30
0.0
  0
SPLINE
  5
4D3
100
AcDbEntity
  8
RACCORDO
100
AcDbSpline
 62
250
  6
CONTINUOUS
 70
0
 71
3
 72
15
 73
11
 74
0
 42
0.0000001
 43
0.0000001
 44
0.0000000001
 40
0.0
 40
0.0
 40
0.0
 40
0.0
 40
0.1300143642
 40
0.2703333852
 40
0.4148162418
 40
0.5566609491
 40
0.6894690699
 40
0.8083023872
 40
0.9110078904
 40
1.0
 40
1.0
 40
1.0
 40
1.0
 10
-19.8186673374
 20
-40.8358444023
 30
0.0
 10
-19.8847656802
 20
-40.8806860084
 30
0.0
 10
-20.0120757642
 20
-40.9892054009
 30
0.0
 10
-20.1757725756
 20
-41.1857961573
 30
0.0
 10
-20.3112296331
 20
-41.4113967145
 30
0.0
 10
-20.4091283416
 20
-41.6506884596
 30
0.0
 10
-20.462971093
 20
-41.887659588
 30
0.0
 10
-20.468775769
 20
-42.1070511879
 30
0.0
 10
-20.4254588518
 20
-42.2955205794
 30
0.0
 10
-20.3583938448
 20
-42.3970311602
 30
0.0
 10
-20.3183552285
 20
-42.4342588504
 30
0.0
  0
LINE
  5
4D4
100
AcDbEntity
  8
RACCORDO
100
AcDbLine
 62
250
  6
CONTINUOUS
 10
6.0844732265
 20
-67.039835393
 11
6.2998688549
 21
-67.1642897437
  0
SPLINE
  5
4D5
100
AcDbEntity
  8
RACCORDO
100
AcDbSpline
 62
250
  6
CONTINUOUS
 70
0
 71
3
 72
31
 73
27
 74
0
 42
0.0000001
 43
0.0000001
 44
0.0000000001
 40
0.0
 40
0.0
 40
0.0
 40
0.0
 40
0.1252341384
 40
0.2504467412
 40
0.3755521385
 40
0.5005226319
 40
0.5629666665
 40
0.625406543
 40
0.6878588183
 40
0.7190923061
 40
0.7502875475
 40
0.7814732594
 40
0.8126973021
 40
0.8283352225
 40
0.8439558257
 40
0.8751860917
 40
0.9064284327
 40
0.9376794992
 40
0.9533074827
 40
0.9611211121
 40
0.9689376245
 40
0.9767251813
 40
0.9805637141
 40
0.9844205347
 40
0.9921856662
 40
1.0
 40
1.0
 40
1.0
 40
1.0
 10
6.2998688549
 20
-67.1642897437
 30
0.0
 10
7.0360467953
 20
-67.5898585198
 30
0.0
 10
8.5065376181
 20
-68.4439261519
 30
0.0
 10
10.7116561097
 20
-69.7244920804
 30
0.0
 10
12.9196045072
 20
-70.9966092845
 30
0.0
 10
14.7647088096
 20
-72.0447162205
 30
0.0
 10
16.2443616557
 20
-72.8746224435
 30
0.0
 10
17.355589405
 20
-73.4936274079
 30
0.0
 10
18.2824101887
 20
-74.0081988026
 30
0.0
 10
19.023433352
 20
-74.4203625997
 30
0.0
 10
19.5795606855
 20
-74.7281926122
 30
0.0
 10
20.1370949818
 20
-75.0333322366
 30
0.0
 10
20.602592776
 20
-75.2866104144
 30
0.0
 10
20.9740550012
 20
-75.4915675211
 30
0.0
 10
21.3458234647
 20
-75.6960545316
 30
0.0
 10
21.8107242963
 20
-75.9510668191
 30
0.0
 10
22.3685543549
 20
-76.257340165
 30
0.0
 10
22.8333149447
 20
-76.5130067394
 30
0.0
 10
23.1585429522
 20
-76.6922669974
 30
0.0
 10
23.3443682946
 20
-76.7948156494
 30
0.0
 10
23.4836224823
 20
-76.8715522856
 30
0.0
 10
23.5988784996
 20
-76.9359756187
 30
0.0
 10
23.6925658509
 20
-76.983685678
 30
0.0
 10
23.7859195093
 20
-77.031692534
 30
0.0
 10
23.9033901752
 20
-77.0918373306
 30
0.0
 10
23.9977463683
 20
-77.139661161
 30
0.0
 10
24.0451027794
 20
-77.1635906302
 30
0.0
  0
SPLINE
  5
4D6
100
AcDbEntity
  8
RACCORDO
100
AcDbSpline
 62
250
  6
CONTINUOUS
 70
0
 71
3
 72
10
 73
6
 74
0
 42
0.0000001
 43
0.0000001
 44
0.0000000001
 40
0.0
 40
0.0
 40
0.0
 40
0.0
 40
0.5001206165
 40
0.7501224849
 40
1.0
 40
1.0
 40
1.0
 40
1.0
 10
-21.7375811216
 20
-21.8116115
 30
0.0
 10
-21.7375778839
 20
-24.839268732
 30
0.0
 10
-21.7374167461
 20
-29.3804008448
 30
0.0
 10
-21.7380502903
 20
-35.4342547807
 30
0.0
 10
-21.7378839209
 20
-38.4604518638
 30
0.0
 10
-21.7387231712
 20
-39.9731736439
 30
0.0
  0
SPLINE
  5
4D7
100
AcDbEntity
  8
RACCORDO
100
AcDbSpline
 62
250
  6
CONTINUOUS
 70
0
 71
3
 72
15
 73
11
 74
0
 42
0.0000001
 43
0.0000001
 44
0.0000000001
 40
0.0
 40
0.0
 40
0.0
 40
0.0
 40
0.1298752034
 40
0.2700325977
 40
0.4143759648
 40
0.5561481192
 40
0.6889832358
 40
0.8079494238
 40
0.9108507737
 40
1.0
 40
1.0
 40
1.0
 40
1.0
 10
-20.1042413695
 20
-4.0082883525
 30
0.0
 10
-20.1759151443
 20
-4.0430132651
 30
0.0
 10
-20.3330641429
 20
-4.0988950047
 30
0.0
 10
-20.5844046338
 20
-4.1424157302
 30
0.0
 10
-20.846789926
 20
-4.1471863787
 30
0.0
 10
-21.1024367986
 20
-4.1127806298
 30
0.0
 10
-21.3343513324
 20
-4.0415378592
 30
0.0
 10
-21.5274099888
 20
-3.9375844919
 30
0.0
 10
-21.6695766996
 20
-3.8066355589
 30
0.0
 10
-21.7248337315
 20
-3.6983086721
 30
0.0
 10
-21.7375811216
 20
-3.6451471607
 30
0.0
  0
SPLINE
  5
4D8
100
AcDbEntity
  8
RACCORDO
100
AcDbSpline
 62
250
  6
CONTINUOUS
 70
0
 71
3
 72
10
 73
6
 74
0
 42
0.0000001
 43
0.0000001
 44
0.0000000001
 40
0.0
 40
0.0
 40
0.0
 40
0.0
 40
0.2650058086
 40
0.5196962423
 40
1.0
 40
1.0
 40
1.0
 40
1.0
 10
4.1460625428
 20
-57.3773481324
 30
0.0
 10
4.2002410656
 20
-58.2488068187
 30
0.0
 10
4.3600044754
 20
-59.9553329504
 30
0.0
 10
4.8876444883
 20
-63.2087417275
 30
0.0
 10
5.532538298
 20
-65.5567003029
 30
0.0
 10
6.0844732265
 20
-67.039835393
 30
0.0
  0
SPLINE
  5
4D9
100
AcDbEntity
  8
RACCORDO
100
AcDbSpline
 62
250
  6
CONTINUOUS
 70
0
 71
3
 72
9
 73
5
 74
0
 42
0.0000001
 43
0.0000001
 44
0.0000000001
 40
0.0
 40
0.0
 40
0.0
 40
0.0
 40
0.2688611147
 40
1.0
 40
1.0
 40
1.0
 40
1.0
 10
-20.3393697738
 20
-2.8675678179
 30
0.0
 10
-20.3786882749
 20
-2.8448658081
 30
0.0
 10
-20.527822459
 20
-2.7658786355
 30
0.0
 10
-20.6903973475
 20
-2.7096772033
 30
0.0
 10
-20.8123127702
 20
-2.6901751451
 30
0.0
  0
SPLINE
  5
4DA
100
AcDbEntity
  8
RACCORDO
100
AcDbSpline
 62
250
  6
CONTINUOUS
 70
0
 71
3
 72
15
 73
11
 74
0
 42
0.0000001
 43
0.0000001
 44
0.0000000001
 40
0.0
 40
0.0
 40
0.0
 40
0.0
 40
0.1260762156
 40
0.2426601272
 40
0.3536996227
 40
0.464633636
 40
0.5811123686
 40
0.707659595
 40
0.8469799632
 40
1.0
 40
1.0
 40
1.0
 40
1.0
 10
-20.8123127702
 20
-2.6901751451
 30
0.0
 10
-20.8767543244
 20
-2.6798668392
 30
0.0
 10
-21.0028571032
 20
-2.6702830739
 30
0.0
 10
-21.1859160349
 20
-2.6946137157
 30
0.0
 10
-21.3502503811
 20
-2.7613876135
 30
0.0
 10
-21.4900634207
 20
-2.8705963173
 30
0.0
 10
-21.6008626913
 20
-3.018908284
 30
0.0
 10
-21.6804782347
 20
-3.20169554
 30
0.0
 10
-21.7280260887
 20
-3.4143135408
 30
0.0
 10
-21.7375815211
 20
-3.5659394509
 30
0.0
 10
-21.7375811114
 20
-3.6451472027
 30
0.0
  0
SPLINE
  5
4DB
100
AcDbEntity
  8
RACCORDO
100
AcDbSpline
 62
250
  6
CONTINUOUS
 70
0
 71
3
 72
12
 73
8
 74
0
 42
0.0000001
 43
0.0000001
 44
0.0000000001
 40
0.0
 40
0.0
 40
0.0
 40
0.0
 40
0.2295982633
 40
0.4827897158
 40
0.7448457318
 40
0.87425304
 40
1.0
 40
1.0
 40
1.0
 40
1.0
 10
12.5620662601
 20
-23.4493451872
 30
0.0
 10
12.5620667741
 20
-23.2724912074
 30
0.0
 10
12.5065185938
 20
-22.9001670771
 30
0.0
 10
12.3036835815
 20
-22.3602635533
 30
0.0
 10
12.0475956293
 20
-21.9315678556
 30
0.0
 10
11.8018388231
 20
-21.6176148543
 30
0.0
 10
11.6684931616
 20
-21.4728491213
 30
0.0
 10
11.5998249855
 20
-21.4045372658
 30
0.0
  0
SPLINE
  5
4DC
100
AcDbEntity
  8
RACCORDO
100
AcDbSpline
 62
250
  6
CONTINUOUS
 70
0
 71
3
 72
9
 73
5
 74
0
 42
0.0000001
 43
0.0000001
 44
0.0000000001
 40
0.0
 40
0.0
 40
0.0
 40
0.0
 40
0.2628484936
 40
1.0
 40
1.0
 40
1.0
 40
1.0
 10
11.5998249855
 20
-21.4045372658
 30
0.0
 10
11.5625181632
 20
-21.3674240248
 30
0.0
 10
11.4166951001
 20
-21.2302963387
 30
0.0
 10
11.2546880378
 20
-21.1095808317
 30
0.0
 10
11.126881989
 20
-21.035787221
 30
0.0
  0
SPLINE
  5
4DD
100
AcDbEntity
  8
RACCORDO
100
AcDbSpline
 62
250
  6
CONTINUOUS
 70
0
 71
3
 72
13
 73
9
 74
0
 42
0.0000001
 43
0.0000001
 44
0.0000000001
 40
0.0
 40
0.0
 40
0.0
 40
0.0
 40
0.1250134238
 40
0.2500161882
 40
0.3750172578
 40
0.500016121
 40
0.7500093993
 40
1.0
 40
1.0
 40
1.0
 40
1.0
 10
12.5705847457
 20
-59.7829377545
 30
0.0
 10
12.5673665073
 20
-59.0258989327
 30
0.0
 10
12.5663680013
 20
-57.5118678235
 30
0.0
 10
12.5645120879
 20
-55.2408728223
 30
0.0
 10
12.5632244362
 20
-52.9699632124
 30
0.0
 10
12.5622240026
 20
-49.9421471463
 30
0.0
 10
12.5618864169
 20
-46.157429689
 30
0.0
 10
12.562054593
 20
-43.1296698553
 30
0.0
 10
12.5620662781
 20
-41.6157980317
 30
0.0
  0
SPLINE
  5
4DE
100
AcDbEntity
  8
RACCORDO
100
AcDbSpline
 62
250
  6
CONTINUOUS
 70
0
 71
3
 72
16
 73
12
 74
0
 42
0.0000001
 43
0.0000001
 44
0.0000000001
 40
0.0
 40
0.0
 40
0.0
 40
0.0
 40
0.1449189466
 40
0.2741826436
 40
0.3905187735
 40
0.4989207867
 40
0.6079346732
 40
0.7249485912
 40
0.7881991649
 40
0.8550185587
 40
1.0
 40
1.0
 40
1.0
 40
1.0
 10
11.1478968206
 20
-60.6024784186
 30
0.0
 10
11.235920955
 20
-60.653406079
 30
0.0
 10
11.4108433564
 20
-60.736715604
 30
0.0
 10
11.6796252352
 20
-60.8009566401
 30
0.0
 10
11.9317010857
 20
-60.7946070454
 30
0.0
 10
12.1554552987
 20
-60.7110828284
 30
0.0
 10
12.3382745379
 20
-60.557279302
 30
0.0
 10
12.4478352241
 20
-60.3830949415
 30
0.0
 10
12.5120637764
 20
-60.2216931158
 30
0.0
 10
12.5598069707
 20
-60.0342060088
 30
0.0
 10
12.5714112359
 20
-59.884673261
 30
0.0
 10
12.5705847442
 20
-59.7829377544
 30
0.0
  0
SPLINE
  5
4DF
100
AcDbEntity
  8
0
100
AcDbSpline
 62
250
  6
CONTINUOUS
 70
0
 71
3
 72
9
 73
5
 74
0
 42
0.0000001
 43
0.0000001
 44
0.0000000001
 40
0.0
 40
0.0
 40
0.0
 40
0.0
 40
0.2588656445
 40
1.0
 40
1.0
 40
1.0
 40
1.0
 10
11.6475844254
 20
-59.0040638054
 30
0.0
 10
11.6518538435
 20
-59.0065289138
 30
0.0
 10
11.6685304605
 20
-59.0157256586
 30
0.0
 10
11.6859594375
 20
-59.0235896485
 30
0.0
 10
11.6992167343
 20
-59.0284337272
 30
0.0
  0
SPLINE
  5
4E0
100
AcDbEntity
  8
RACCORDO
100
AcDbSpline
 62
250
  6
CONTINUOUS
 70
0
 71
3
 72
15
 73
11
 74
0
 42
0.0000001
 43
0.0000001
 44
0.0000000001
 40
0.0
 40
0.0
 40
0.0
 40
0.0
 40
0.1300143426
 40
0.2703333402
 40
0.4148161729
 40
0.5566608566
 40
0.6894689551
 40
0.8083022563
 40
0.9110077211
 40
1.0
 40
1.0
 40
1.0
 40
1.0
 10
11.6475844254
 20
-59.0040638054
 30
0.0
 10
11.5814860827
 20
-59.0489054115
 30
0.0
 10
11.4541759985
 20
-59.157424804
 30
0.0
 10
11.2904791877
 20
-59.3540155601
 30
0.0
 10
11.1550221283
 20
-59.579616118
 30
0.0
 10
11.057123427
 20
-59.8189078604
 30
0.0
 10
11.0032806504
 20
-60.0558789987
 30
0.0
 10
10.9974760452
 20
-60.2752705611
 30
0.0
 10
11.0407928274
 20
-60.4637401352
 30
0.0
 10
11.1078581267
 20
-60.5652506458
 30
0.0
 10
11.1478968206
 20
-60.6024784186
 30
0.0
  0
SPLINE
  5
4E1
100
AcDbEntity
  8
RACCORDO
100
AcDbSpline
 62
250
  6
CONTINUOUS
 70
0
 71
3
 72
11
 73
7
 74
0
 42
0.0000001
 43
0.0000001
 44
0.0000000001
 40
0.0
 40
0.0
 40
0.0
 40
0.0
 40
0.2500916034
 40
0.5001504947
 40
0.7501181517
 40
1.0
 40
1.0
 40
1.0
 40
1.0
 10
4.1460625428
 20
-57.3773481324
 30
0.0
 10
4.7636376954
 20
-57.7338820882
 30
0.0
 10
5.9984719153
 20
-58.4473096167
 30
0.0
 10
7.8511723875
 20
-59.5160671998
 30
0.0
 10
9.7059398452
 20
-60.5800157952
 30
0.0
 10
10.9437092652
 20
-61.2866480909
 30
0.0
 10
11.5648596162
 20
-61.6356969879
 30
0.0
  0
SPLINE
  5
4E2
100
AcDbEntity
  8
RACCORDO
100
AcDbSpline
 62
250
  6
CONTINUOUS
 70
0
 71
3
 72
9
 73
5
 74
0
 42
0.0000001
 43
0.0000001
 44
0.0000000001
 40
0.0
 40
0.0
 40
0.0
 40
0.0
 40
0.499821509
 40
1.0
 40
1.0
 40
1.0
 40
1.0
 10
-20.3183552285
 20
-42.4342588504
 30
0.0
 10
-19.0814695065
 20
-43.147653559
 30
0.0
 10
-16.607437136
 20
-44.576031492
 30
0.0
 10
-14.1334443762
 20
-46.0044776575
 30
0.0
 10
-12.8960132329
 20
-46.7189675665
 30
0.0
  0
SPLINE
  5
4E3
100
AcDbEntity
  8
RACCORDO
100
AcDbSpline
 62
250
  6
CONTINUOUS
 70
0
 71
3
 72
9
 73
5
 74
0
 42
0.0000001
 43
0.0000001
 44
0.0000000001
 40
0.0
 40
0.0
 40
0.0
 40
0.0
 40
0.4998219345
 40
1.0
 40
1.0
 40
1.0
 40
1.0
 10
3.7208000447
 20
-56.3133072954
 30
0.0
 10
4.9582761498
 20
-57.0277977156
 30
0.0
 10
7.4340957475
 20
-58.457312374
 30
0.0
 10
9.9098781684
 20
-59.8868917943
 30
0.0
 10
11.1478968206
 20
-60.6024784186
 30
0.0
  0
SPLINE
  5
4E4
100
AcDbEntity
  8
RACCORDO
100
AcDbSpline
 62
250
  6
CONTINUOUS
 70
0
 71
3
 72
34
 73
30
 74
0
 42
0.0000001
 43
0.0000001
 44
0.0000000001
 40
0.0
 40
0.0
 40
0.0
 40
0.0
 40
0.0738218391
 40
0.1435013322
 40
0.1772618343
 40
0.2101673131
 40
0.2733175357
 40
0.3036700367
 40
0.3332212739
 40
0.3619435981
 40
0.3899726882
 40
0.4174137555
 40
0.4444547027
 40
0.4979291441
 40
0.5516647309
 40
0.6068991765
 40
0.6354571246
 40
0.6647844163
 40
0.6949774002
 40
0.7104342991
 40
0.726114265
 40
0.7418870657
 40
0.757612189
 40
0.7734479456
 40
0.7895192897
 40
0.8223523438
 40
0.8560586249
 40
0.9261880443
 40
1.0
 40
1.0
 40
1.0
 40
1.0
 10
11.5648596162
 20
-61.6356969879
 30
0.0
 10
11.6465707513
 20
-61.6816141368
 30
0.0
 10
11.8088851047
 20
-61.7650776799
 30
0.0
 10
12.0184589172
 20
-61.8478201613
 30
0.0
 10
12.1823494711
 20
-61.9037041516
 30
0.0
 10
12.3411276149
 20
-61.9481812358
 30
0.0
 10
12.4993182724
 20
-61.9780350938
 30
0.0
 10
12.6550726539
 20
-61.9916098731
 30
0.0
 10
12.7677068242
 20
-61.9930205261
 30
0.0
 10
12.8771479331
 20
-61.9859828343
 30
0.0
 10
12.9832023336
 20
-61.9719105887
 30
0.0
 10
13.0857643276
 20
-61.9498890611
 30
0.0
 10
13.2168081593
 20
-61.9092088094
 30
0.0
 10
13.3724102611
 20
-61.8371499734
 30
0.0
 10
13.5411797123
 20
-61.7165787728
 30
0.0
 10
13.6629848269
 20
-61.590090601
 30
0.0
 10
13.7489080597
 20
-61.474848274
 30
0.0
 10
13.8083534882
 20
-61.3799879813
 30
0.0
 10
13.8527953363
 20
-61.2956982669
 30
0.0
 10
13.8852126293
 20
-61.2248815019
 30
0.0
 10
13.9082141988
 20
-61.1699386441
 30
0.0
 10
13.9308549878
 20
-61.1144777118
 30
0.0
 10
13.9553393214
 20
-61.0595894328
 30
0.0
 10
13.9785158276
 20
-61.0037133484
 30
0.0
 10
14.0065006617
 20
-60.9263996295
 30
0.0
 10
14.0367207708
 20
-60.8258742461
 30
0.0
 10
14.0767771742
 20
-60.6569481385
 30
0.0
 10
14.1088567476
 20
-60.4331735379
 30
0.0
 10
14.1160588641
 20
-60.2502435764
 30
0.0
 10
14.1155452535
 20
-60.1565286993
 30
0.0
  0
ELLIPSE
  5
4E5
100
AcDbEntity
  8
RACCORDO
100
AcDbEllipse
 62
7
  6
CONTINUOUS
 10
-16.5043477272
 20
46.8793898504
 30
0.0
 11
0.2998732284
 21
0.014372119
 31
0.0
 40
0.6067642562
 41
-0.8144705522
 42
-0.7621106746
  0
ELLIPSE
  5
4E6
100
AcDbEntity
  8
RACCORDO
100
AcDbEllipse
 62
7
  6
CONTINUOUS
 10
7.3140334299
 20
-52.3446460773
 30
0.0
 11
0.16239016
 21
0.2525073425
 31
0.0
 40
0.6067084637
 41
0.7621560142
 42
0.8145158917
  0
ELLIPSE
  5
4E7
100
AcDbEntity
  8
RACCORDO
100
AcDbEllipse
 62
7
  6
CONTINUOUS
 10
-8.5958691468
 20
-43.1584677274
 30
0.0
 11
0.16239016
 21
0.2525073425
 31
0.0
 40
0.6067084637
 41
0.7621560142
 42
0.8145158917
  0
ELLIPSE
  5
4E8
100
AcDbEntity
  8
RACCORDO
100
AcDbEllipse
 62
7
  6
CONTINUOUS
 10
-16.5043477272
 20
-29.4605810297
 30
0.0
 11
0.2998732284
 21
0.014372119
 31
0.0
 40
0.6067642562
 41
-0.8144705522
 42
-0.7621106746
  0
ELLIPSE
  5
4E9
100
AcDbEntity
  8
0
100
AcDbEllipse
 62
7
  6
CONTINUOUS
 10
-1.4310535282
 20
62.791426362
 30
0.0
 11
0.4999124207
 21
0.0156705079
 31
0.0
 40
0.5971709375
 41
5.5663365698
 42
6.2644681957
  0
ELLIPSE
  5
4EA
100
AcDbEntity
  8
RACCORDO
100
AcDbEllipse
 62
7
  6
CONTINUOUS
 10
-16.5043477272
 20
51.6405910923
 30
0.0
 11
0.2999166093
 21
-0.01294434
 31
0.0
 40
0.5464172455
 41
-0.7618192766
 42
-0.709459399
  0
ELLIPSE
  5
4EB
100
AcDbEntity
  8
RACCORDO
100
AcDbEllipse
 62
7
  6
CONTINUOUS
 10
11.4374874985
 20
-54.7254767774
 30
0.0
 11
0.1387555033
 21
0.2662037777
 31
0.0
 40
0.5463614449
 41
0.709509901
 42
0.7618697785
  0
ELLIPSE
  5
4EC
100
AcDbEntity
  8
RACCORDO
100
AcDbEllipse
 62
7
  6
CONTINUOUS
 10
-4.4724150782
 20
-45.5392984276
 30
0.0
 11
0.1387555033
 21
0.2662037777
 31
0.0
 40
0.5463614449
 41
0.709509901
 42
0.7618697785
  0
ELLIPSE
  5
4ED
100
AcDbEntity
  8
RACCORDO
100
AcDbEllipse
 62
7
  6
CONTINUOUS
 10
-16.5043477272
 20
-24.6993797879
 30
0.0
 11
0.2999166093
 21
-0.01294434
 31
0.0
 40
0.5464172455
 41
-0.7618192766
 42
-0.709459399
  0
ELLIPSE
  5
4EE
100
AcDbEntity
  8
RACCORDO
100
AcDbEllipse
 62
7
  6
CONTINUOUS
 10
4.4140932361
 20
60.7142963176
 30
0.0
 11
0.499756229
 21
0.0256487033
 31
0.0
 40
0.6086570308
 41
0.7541705611
 42
2.2377004253
  0
ELLIPSE
  5
4EF
100
AcDbEntity
  8
RACCORDO
100
AcDbEllipse
 62
7
  6
CONTINUOUS
 10
-1.4310535282
 20
62.791426362
 30
0.0
 11
0.4999124207
 21
0.0156705079
 31
0.0
 40
0.5971709375
 41
-0.7168487374
 42
-0.0184765096
  0
ELLIPSE
  5
4F0
100
AcDbEntity
  8
RACCORDO
100
AcDbEllipse
 62
7
  6
CONTINUOUS
 10
2.9353148135
 20
60.7059274834
 30
0.0
 11
0.499756229
 21
0.0256487033
 31
0.0
 40
0.6086570308
 41
-2.3874220925
 42
-0.9038922283
  0
ELLIPSE
  5
4F1
100
AcDbEntity
  8
RACCORDO
100
AcDbEllipse
 62
7
  6
CONTINUOUS
 10
-1.3664886679
 20
63.1897348993
 30
0.0
 11
0.499756229
 21
0.0256487033
 31
0.0
 40
0.6086570308
 41
2.4122333505
 42
3.8957632147
  0
ELLIPSE
  5
4F2
100
AcDbEntity
  8
RACCORDO
100
AcDbEllipse
 62
7
  6
CONTINUOUS
 10
-1.4310535282
 20
64.0892108024
 30
0.0
 11
0.499756229
 21
0.0256487033
 31
0.0
 40
0.6086570308
 41
-0.7293593031
 42
0.7541705611
  0
ENDSEC
  0
SECTION
  2
OBJECTS
  0
DICTIONARY
  5
C
100
AcDbDictionary
280
0
281
1
  3
ACAD_GROUP
350
D
  3
ACAD_MLINESTYLE
350
17
  3
ACAD_LAYOUT
350
1A
  3
ACAD_PLOTSETTINGS
350
19
  3
ACAD_PLOTSTYLENAME
350
E
  0
DICTIONARY
  5
D
102
{ACAD_REACTORS
330
C
102
}
100
AcDbDictionary
280
0
281
1
  0
ACDBDICTIONARYWDFLT
  5
E
102
{ACAD_REACTORS
330
C
102
}
100
AcDbDictionary
281
1
  3
Normal
350
F
100
AcDbDictionaryWithDefault
340
F
  0
DICTIONARY
  5
17
102
{ACAD_REACTORS
330
C
102
}
100
AcDbDictionary
280
0
281
1
  3
Standard
350
18
  0
DICTIONARY
  5
19
102
{ACAD_REACTORS
330
C
102
}
100
AcDbDictionary
281
1
  0
DICTIONARY
  5
1A
102
{ACAD_REACTORS
330
C
102
}
100
AcDbDictionary
281
1
  3
Model
350
4F3
  3
Layout1
350
4F4
  0
ACDBPLACEHOLDER
  5
F
102
{ACAD_REACTORS
330
E
102
}
  0
MLINESTYLE
  5
18
102
{ACAD_REACTORS
330
17
102
}
100
AcDbMlineStyle
  2
STANDARD
 70
0
  3

 62
256
 51
90.0
 52
90.0
 71
2
 49
0.5
 62
256
  6
BYLAYER
 49
-0.5
 62
256
  6
BYLAYER
  0
LAYOUT
  5
4F3
102
{ACAD_REACTORS
330
1A
102
}
100
AcDbPlotSettings
  1

  2
none_device
  4
ISO_A4_(297.00_x_210.00_MM)
  6

 40
0.0
 41
0.0
 42
0.0
 43
0.0
 44
297.0
 45
210.0
 46
0.0
 47
0.0
 48
0.0
 49
0.0
140
0.0
141
0.0
142
1.0
143
1.0
 70
1024
 72
1
 73
0
 74
0
  7

 75
0
147
1.0
148
0.0
149
0.0
100
AcDbLayout
  1
Model
 70
0
 71
0
 10
0.0
 20
0.0
 11
297.0
 21
210.0
 12
0.0
 22
0.0
 32
0.0
 14
0.0
 24
0.0
 34
0.0
 15
0.0
 25
0.0
 35
0.0
146
0.0
 13
0.0
 23
0.0
 33
0.0
 16
1.0
 26
0.0
 36
0.0
 17
0.0
 27
1.0
 37
0.0
 76
0
330
214
345
0
346
0
  0
LAYOUT
  5
4F4
102
{ACAD_REACTORS
330
1A
102
}
100
AcDbPlotSettings
  1

  2
none_device
  4
ISO_A4_(297.00_x_210.00_MM)
  6

 40
0.0
 41
0.0
 42
0.0
 43
0.0
 44
297.0
 45
210.0
 46
0.0
 47
0.0
 48
0.0
 49
0.0
140
0.0
141
0.0
142
1.0
143
1.0
 70
0
 72
1
 73
0
 74
0
  7

 75
0
147
1.0
148
0.0
149
0.0
100
AcDbLayout
  1
Layout1
 70
0
 71
1
 10
0.0
 20
0.0
 11
297.0
 21
210.0
 12
0.0
 22
0.0
 32
0.0
 14
0.0
 24
0.0
 34
0.0
 15
0.0
 25
0.0
 35
0.0
146
0.0
 13
0.0
 23
0.0
 33
0.0
 16
1.0
 26
0.0
 36
0.0
 17
0.0
 27
1.0
 37
0.0
 76
0
330
215
345
0
346
0
  0
ENDSEC
  0
EOF
