  0
SECTION
  2
HEADER
  9
$ACADVER
  1
AC1024
  9
$DWGCODEPAGE
  3
ANSI_1252
  9
$EXTMAX
 10
297.0
 20
210.0
 30
0.0
  9
$EXTMIN
 10
0.0
 20
0.0
 30
0.0
  9
$LIMMIN
 10
0.0
 20
0.0
  9
$LIMMAX
 10
297.0
 20
210.0
  9
$VIEWCTR
 10
148.5
 20
105.0
  9
$VIEWSIZE
 40
210.0
  9
$CLAYER
  8
0
  9
$LTSCALE
 40
16.335
  9
$CELTYPE
  6
BYLAYER
  9
$DIMSCALE
 40
1.0
  9
$DIMASZ
 40
3.0
  9
$DIMEXO
 40
0.5
  9
$DIMDLI
 40
11.286
  9
$DIMEXE
 40
1.5
  9
$DIMCEN
 40
2.673
  9
$DIMLFAC
 40
1.0
  9
$DIMBLK
  1
_FILLED
  9
$DIMALT
 70
0
  9
$DIMALTF
 40
0.0393700787
  9
$DIMTXT
 40
3.0
  9
$DIMTOL
 70
1
  9
$DIMLIM
 70
0
  9
$DIMTFAC
 40
1.0
  9
$DIMTP
 40
0.01
  9
$DIMTM
 40
0.01
  9
$DIMGAP
 40
0.625
  9
$DIMDSEP
 70
44
  9
$AUNITS
 70
0
  9
$PDMODE
 70
3
  9
$PDSIZE
 40
3.0
  9
$HANDSEED
  5
646
  9
$TILEMODE
 70
1
  9
$MEASUREMENT
 70
1
  9
$INSUNITS
 70
4
  0
ENDSEC
  0
SECTION
  2
CLASSES
  0
CLASS
  1
ACDBDICTIONARYWDFLT
  2
AcDbDictionaryWithDefault
  3
AutoCAD 2000
 90
0
 91
1
280
0
281
0
  0
CLASS
  1
ACDBPLACEHOLDER
  2
AcDbPlaceHolder
  3
AutoCAD 2000
 90
0
 91
1
280
0
281
0
  0
CLASS
  1
LAYOUT
  2
AcDbLayout
  3
AutoCAD 2000
 90
0
 91
0
280
0
281
0
  0
ENDSEC
  0
SECTION
  2
TABLES
  0
TABLE
  2
VPORT
  5
8
100
AcDbSymbolTable
 70
2
  0
VPORT
  5
1F4
100
AcDbSymbolTableRecord
100
AcDbViewportTableRecord
  2
*ACTIVE
 70
0
 10
0.0
 20
0.0
 11
1.0
 21
1.0
 12
148.5
 22
105.0
 13
0.0
 23
0.0
 14
1.0
 24
1.0
 15
0.0
 25
0.0
 16
0.0
 26
0.0
 36
1.0
 17
0.0
 27
0.0
 37
0.0
 40
210.0
 41
1.4142857143
 42
50.0
 43
0.0
 44
0.0
 50
0.0
 51
0.0
 71
0
 72
100
 73
1
 74
1
 75
0
 76
0
 77
0
 78
0
  0
ENDTAB
  0
TABLE
  2
LTYPE
  5
5
100
AcDbSymbolTable
 70
6
  0
LTYPE
  5
14
100
AcDbSymbolTableRecord
100
AcDbLinetypeTableRecord
  2
BYBLOCK
 70
0
  3

 72
65
 73
0
 40
0.0
  0
LTYPE
  5
15
100
AcDbSymbolTableRecord
100
AcDbLinetypeTableRecord
  2
BYLAYER
 70
0
  3

 72
65
 73
0
 40
0.0
  0
LTYPE
  5
16
100
AcDbSymbolTableRecord
100
AcDbLinetypeTableRecord
  2
CONTINUOUS
 70
64
  3
Solid line
 72
65
 73
0
 40
0.0
  0
LTYPE
  5
1F5
100
AcDbSymbolTableRecord
100
AcDbLinetypeTableRecord
  2
CENTER
 70
64
  3
____ _ ____ _ ____ _ ____ _ ____ _ ____ _ ____
 72
65
 73
4
 40
0.6
 49
0.375
 74
0
 49
-0.075
 74
0
 49
0.075
 74
0
 49
-0.075
 74
0
  0
LTYPE
  5
1F6
100
AcDbSymbolTableRecord
100
AcDbLinetypeTableRecord
  2
HIDDEN
 70
64
  3
- - - - - - - - - - - - - - - - - - - -
 72
65
 73
2
 40
0.2
 49
0.1
 74
0
 49
-0.1
 74
0
  0
LTYPE
  5
1F7
100
AcDbSymbolTableRecord
100
AcDbLinetypeTableRecord
  2
PHANTOM
 70
64
  3
_____ _ _ _____ _ _ _____ _ _ _____
 72
65
 73
6
 40
0.8
 49
0.45
 74
0
 49
-0.05
 74
0
 49
0.1
 74
0
 49
-0.05
 74
0
 49
0.1
 74
0
 49
-0.05
 74
0
  0
LTYPE
  5
1F8
100
AcDbSymbolTableRecord
100
AcDbLinetypeTableRecord
  2
DOT
 70
64
  3
. . . . . . . . . . . . . . . . . . . .
 72
65
 73
2
 40
0.2
 49
0.1
 74
0
 49
-0.1
 74
0
  0
LTYPE
  5
1F9
100
AcDbSymbolTableRecord
100
AcDbLinetypeTableRecord
  2
DASHED
 70
64
  3
- - - - - - - - - - - - - - - - - - - -
 72
65
 73
2
 40
0.2
 49
0.1
 74
0
 49
-0.1
 74
0
  0
ENDTAB
  0
TABLE
  2
LAYER
  5
2
100
AcDbSymbolTable
 70
36
  0
LAYER
  5
10
100
AcDbSymbolTableRecord
100
AcDbLayerTableRecord
  2
0
 70
0
 62
7
  6
CONTINUOUS
370
-3
390
F
  0
LAYER
  5
1FA
100
AcDbSymbolTableRecord
100
AcDbLayerTableRecord
  2
DEFAULT_1
 70
0
 62
7
  6
CENTER
370
-3
390
F
  0
LAYER
  5
1FB
100
AcDbSymbolTableRecord
100
AcDbLayerTableRecord
  2
DEFAULT_2
 70
0
 62
7
  6
HIDDEN
370
-3
390
F
  0
LAYER
  5
1FC
100
AcDbSymbolTableRecord
100
AcDbLayerTableRecord
  2
DEFAULT_3
 70
0
 62
7
  6
PHANTOM
370
-3
390
F
  0
LAYER
  5
1FD
100
AcDbSymbolTableRecord
100
AcDbLayerTableRecord
  2
ALTRI_PIANI
 70
0
 62
7
  6
CONTINUOUS
370
-3
390
F
  0
LAYER
  5
1FE
100
AcDbSymbolTableRecord
100
AcDbLayerTableRecord
  2
ASSI
 70
0
 62
7
  6
CONTINUOUS
370
-3
390
F
  0
LAYER
  5
1FF
100
AcDbSymbolTableRecord
100
AcDbLayerTableRecord
  2
COORDINATE
 70
0
 62
7
  6
CONTINUOUS
370
-3
390
F
  0
LAYER
  5
200
100
AcDbSymbolTableRecord
100
AcDbLayerTableRecord
  2
COPY_PUBLISH
 70
0
 62
7
  6
CONTINUOUS
370
-3
390
F
  0
LAYER
  5
201
100
AcDbSymbolTableRecord
100
AcDbLayerTableRecord
  2
COSMETIC
 70
0
 62
7
  6
CONTINUOUS
370
-3
390
F
  0
LAYER
  5
202
100
AcDbSymbolTableRecord
100
AcDbLayerTableRecord
  2
COSMETICI
 70
0
 62
7
  6
CONTINUOUS
370
-3
390
F
  0
LAYER
  5
203
100
AcDbSymbolTableRecord
100
AcDbLayerTableRecord
  2
CURVE
 70
0
 62
7
  6
CONTINUOUS
370
-3
390
F
  0
LAYER
  5
204
100
AcDbSymbolTableRecord
100
AcDbLayerTableRecord
  2
DRAFT
 70
0
 62
7
  6
CONTINUOUS
370
-3
390
F
  0
LAYER
  5
205
100
AcDbSymbolTableRecord
100
AcDbLayerTableRecord
  2
IMPORT_IGES
 70
0
 62
7
  6
CONTINUOUS
370
-3
390
F
  0
LAYER
  5
206
100
AcDbSymbolTableRecord
100
AcDbLayerTableRecord
  2
INTF_1
 70
0
 62
7
  6
CONTINUOUS
370
-3
390
F
  0
LAYER
  5
207
100
AcDbSymbolTableRecord
100
AcDbLayerTableRecord
  2
INTF_2
 70
0
 62
7
  6
CONTINUOUS
370
-3
390
F
  0
LAYER
  5
208
100
AcDbSymbolTableRecord
100
AcDbLayerTableRecord
  2
INTF_7
 70
0
 62
7
  6
CONTINUOUS
370
-3
390
F
  0
LAYER
  5
209
100
AcDbSymbolTableRecord
100
AcDbLayerTableRecord
  2
INTF_CYAN
 70
0
 62
7
  6
CONTINUOUS
370
-3
390
F
  0
LAYER
  5
20A
100
AcDbSymbolTableRecord
100
AcDbLayerTableRecord
  2
INTF_MAGENTA
 70
0
 62
7
  6
CONTINUOUS
370
-3
390
F
  0
LAYER
  5
20B
100
AcDbSymbolTableRecord
100
AcDbLayerTableRecord
  2
NOTE
 70
0
 62
7
  6
CONTINUOUS
370
-3
390
F
  0
LAYER
  5
20C
100
AcDbSymbolTableRecord
100
AcDbLayerTableRecord
  2
PIANI
 70
0
 62
7
  6
CONTINUOUS
370
-3
390
F
  0
LAYER
  5
20D
100
AcDbSymbolTableRecord
100
AcDbLayerTableRecord
  2
PUNTI
 70
0
 62
7
  6
CONTINUOUS
370
-3
390
F
  0
LAYER
  5
20E
100
AcDbSymbolTableRecord
100
AcDbLayerTableRecord
  2
RACCORDO
 70
0
 62
7
  6
CONTINUOUS
370
-3
390
F
  0
LAYER
  5
20F
100
AcDbSymbolTableRecord
100
AcDbLayerTableRecord
  2
RGB__255__255__255__
 70
0
 62
7
  6
CONTINUOUS
370
-3
390
F
  0
LAYER
  5
210
100
AcDbSymbolTableRecord
100
AcDbLayerTableRecord
  2
RGB____0____0____0__
 70
0
 62
7
  6
CONTINUOUS
370
-3
390
F
  0
LAYER
  5
211
100
AcDbSymbolTableRecord
100
AcDbLayerTableRecord
  2
SIMBOLI
 70
0
 62
7
  6
CONTINUOUS
370
-3
390
F
  0
LAYER
  5
212
100
AcDbSymbolTableRecord
100
AcDbLayerTableRecord
  2
SNAPLINE
 70
0
 62
7
  6
CONTINUOUS
370
-3
390
F
  0
LAYER
  5
213
100
AcDbSymbolTableRecord
100
AcDbLayerTableRecord
  2
SUPERFICI
 70
0
 62
7
  6
CONTINUOUS
370
-3
390
F
  0
LAYER
  5
214
100
AcDbSymbolTableRecord
100
AcDbLayerTableRecord
  2
TRASH
 70
0
 62
7
  6
CONTINUOUS
370
-3
390
F
  0
ENDTAB
  0
TABLE
  2
STYLE
  5
3
100
AcDbSymbolTable
 70
1
  0
STYLE
  5
11
100
AcDbSymbolTableRecord
100
AcDbTextStyleTableRecord
  2
STANDARD
 70
0
 40
0.0
 41
0.8
 50
0.0
 71
0
 42
0.2
  3
txt
  4

  0
STYLE
  5
215
100
AcDbSymbolTableRecord
100
AcDbTextStyleTableRecord
  2
TEXTSTYLE_1
 70
0
 40
0.0
 41
0.8
 50
0.0
 71
0
 42
0.2
  3
gdt
  4

  0
ENDTAB
  0
TABLE
  2
VIEW
  5
6
100
AcDbSymbolTable
 70
0
  0
ENDTAB
  0
TABLE
  2
UCS
  5
7
100
AcDbSymbolTable
 70
0
  0
ENDTAB
  0
TABLE
  2
APPID
  5
9
100
AcDbSymbolTable
 70
1
  0
APPID
  5
216
100
AcDbSymbolTableRecord
100
AcDbRegAppTableRecord
  2
ACAD
 70
0
  0
ENDTAB
  0
TABLE
  2
BLOCK_RECORD
  5
1
100
AcDbSymbolTable
 70
0
  0
BLOCK_RECORD
  5
217
100
AcDbSymbolTableRecord
100
AcDbBlockTableRecord
  2
*Model_Space
  0
BLOCK_RECORD
  5
218
100
AcDbSymbolTableRecord
100
AcDbBlockTableRecord
  2
*Paper_Space
  0
BLOCK_RECORD
  5
219
100
AcDbSymbolTableRecord
100
AcDbBlockTableRecord
  2
_FILLED
  0
ENDTAB
  0
TABLE
  2
DIMSTYLE
  5
A
100
AcDbSymbolTable
 70
1
100
AcDbDimStyleTable
 71
0
  0
DIMSTYLE
105
21A
100
AcDbSymbolTableRecord
100
AcDbDimStyleTableRecord
  2
STANDARD
 70
0
  3

  4

 40
1.0
 41
3.0
 42
0.5
 43
0.38
 44
1.5
 45
0.0
 46
0.0
 47
0.01
 48
0.01
140
3.0
141
0.09
142
0.0
143
25.4
144
1.0
145
0.0
146
1.0
147
0.625
 71
1
 72
0
 73
0
 74
0
 75
0
 76
0
 77
1
 78
8
 79
2
170
0
171
1
172
0
173
0
174
0
175
0
176
0
177
0
178
0
270
2
179
2
271
2
272
2
273
2
274
2
275
0
280
0
281
0
282
0
283
1
284
8
285
0
286
0
287
3
288
0
340
11
278
44
341
219
342
219
343
219
344
219
  0
ENDTAB
  0
ENDSEC
  0
SECTION
  2
BLOCKS
  0
BLOCK
  5
20
100
AcDbEntity
  8
0
100
AcDbBlockBegin
  2
*Model_Space
 70
0
 10
0.0
 20
0.0
 30
0.0
  3
*Model_Space
  1

  0
ENDBLK
  5
21
100
AcDbEntity
  8
0
100
AcDbBlockEnd
  0
BLOCK
  5
1C
100
AcDbEntity
  8
0
100
AcDbBlockBegin
  2
*Paper_Space
 70
0
 10
0.0
 20
0.0
 30
0.0
  3
*Paper_Space
  1

  0
ENDBLK
  5
1D
100
AcDbEntity
  8
0
100
AcDbBlockEnd
  0
BLOCK
  5
21B
100
AcDbEntity
  8
0
100
AcDbBlockBegin
  2
_FILLED
 70
64
 10
0.0
 20
0.0
  3
_FILLED
  1

  0
SOLID
  5
21C
100
AcDbEntity
  8
0
  6
BYBLOCK
 62
0
100
AcDbTrace
 10
0.0
 20
0.0
 11
-1.0
 21
0.3166666667
 12
-1.0
 22
-0.3166666667
 13
-1.0
 23
-0.3166666667
  0
ENDBLK
  5
21D
100
AcDbEntity
  8
0
  6
BYBLOCK
 62
0
100
AcDbBlockEnd
  0
ENDSEC
  0
SECTION
  2
ENTITIES
  0
LINE
  5
21E
100
AcDbEntity
  8
0
100
AcDbLine
 62
7
  6
CONTINUOUS
 10
-39.8706294217
 20
37.5817035524
 11
-39.8585835458
 21
37.6083941761
  0
LWPOLYLINE
  5
21F
100
AcDbEntity
  8
0
100
AcDbPolyline
 62
7
  6
CONTINUOUS
 90
3
 70
0
 10
-39.8585835458
 20
37.6083941761
 10
-39.802266999
 20
37.7032599448
 10
-39.7348942377
 20
37.7786958669
  0
LWPOLYLINE
  5
220
100
AcDbEntity
  8
0
100
AcDbPolyline
 62
250
  6
CONTINUOUS
 90
3
 70
0
 10
-39.8303324963
 20
37.3521416137
 10
-39.911621135
 20
37.2713874436
 10
-39.971074983
 20
37.1627593223
  0
LWPOLYLINE
  5
221
100
AcDbEntity
  8
0
100
AcDbPolyline
 62
7
  6
CONTINUOUS
 90
23
 70
0
 10
-39.7908155965
 20
37.7092225382
 10
-39.8024840388
 20
37.6996472882
 10
-39.8144576123
 20
37.6894596858
 10
-39.8266834254
 20
37.6785835758
 10
-39.8391478901
 20
37.6669377548
 10
-39.8517785107
 20
37.6544874955
 10
-39.8644472023
 20
37.641255129
 10
-39.8770947853
 20
37.6272050263
 10
-39.8896941359
 20
37.6122807192
 10
-39.9021725161
 20
37.5964927609
 10
-39.9145101771
 20
37.5798002314
 10
-39.9266669362
 20
37.5621973316
 10
-39.9385553464
 20
37.5437682382
 10
-39.9501421375
 20
37.5245408048
 10
-39.9614368464
 20
37.5044762884
 10
-39.9724269555
 20
37.4835671395
 10
-39.9830678985
 20
37.4618528897
 10
-39.9933523733
 20
37.4392565422
 10
-40.0032991924
 20
37.4155719982
 10
-40.0128090801
 20
37.3907937969
 10
-40.0218062546
 20
37.3647977022
 10
-40.0302791646
 20
37.3371503947
 10
-40.038147012
 20
37.3075896785
  0
LINE
  5
222
100
AcDbEntity
  8
0
100
AcDbLine
 62
250
  6
CONTINUOUS
 10
-39.1641871229
 20
37.8072614909
 11
-39.1185948971
 21
37.8439271406
  0
LINE
  5
223
100
AcDbEntity
  8
0
100
AcDbLine
 62
7
  6
CONTINUOUS
 10
-39.7348942377
 20
37.7786958669
 11
-39.6801548554
 21
37.821720115
  0
LINE
  5
224
100
AcDbEntity
  8
0
100
AcDbLine
 62
7
  6
CONTINUOUS
 10
-38.1349700501
 20
38.858997113
 11
-39.6801548554
 21
37.821720115
  0
LINE
  5
225
100
AcDbEntity
  8
0
100
AcDbLine
 62
250
  6
CONTINUOUS
 10
-38.9667034934
 20
37.7700345766
 11
-37.3562286478
 21
38.8025817699
  0
LWPOLYLINE
  5
226
100
AcDbEntity
  8
0
100
AcDbPolyline
 62
250
  6
CONTINUOUS
 90
5
 70
0
 10
-39.6789545059
 20
37.8225231752
 10
-39.6585825575
 20
37.835347731
 10
-39.5754806135
 20
37.8740522801
 10
-39.4875731097
 20
37.8959714449
 10
-39.3964289366
 20
37.9024760711
  0
LWPOLYLINE
  5
227
100
AcDbEntity
  8
0
100
AcDbPolyline
 62
250
  6
CONTINUOUS
 90
3
 70
0
 10
-39.971074983
 20
37.1627593223
 10
-40.0070302465
 20
37.0284025137
 10
-40.017431706
 20
36.8738522506
  0
LINE
  5
228
100
AcDbEntity
  8
0
100
AcDbLine
 62
7
  6
CONTINUOUS
 10
-39.8706528317
 20
37.5816485473
 11
-39.8706294217
 21
37.5817035524
  0
LWPOLYLINE
  5
229
100
AcDbEntity
  8
0
100
AcDbPolyline
 62
250
  6
CONTINUOUS
 90
10
 70
0
 10
-38.998556913
 20
33.4426942216
 10
-39.0244420255
 20
33.3203475989
 10
-39.0469933359
 20
33.1940276324
 10
-39.0664990637
 20
33.0639643637
 10
-39.0832295768
 20
32.9305413356
 10
-39.0975154907
 20
32.7941207089
 10
-39.1097071612
 20
32.6550628924
 10
-39.1201114682
 20
32.5136709034
 10
-39.1288247399
 20
32.3700116857
 10
-39.1359107402
 20
32.2241078687
  0
LWPOLYLINE
  5
22A
100
AcDbEntity
  8
0
100
AcDbPolyline
 62
7
  6
CONTINUOUS
 90
7
 70
0
 10
-40.038147012
 20
37.3075896785
 10
-40.0452557774
 20
37.2762298199
 10
-40.0514943202
 20
37.243225329
 10
-40.0568186003
 20
37.2085943769
 10
-40.0612222985
 20
37.1723581867
 10
-40.0647300966
 20
37.1347312929
 10
-40.067406292
 20
37.0962371381
  0
LWPOLYLINE
  5
22B
100
AcDbEntity
  8
0
100
AcDbPolyline
 62
250
  6
CONTINUOUS
 90
10
 70
0
 10
-38.9985639208
 20
33.4426637228
 10
-38.9495709148
 20
33.6293940489
 10
-38.89101849
 20
33.8025034251
 10
-38.822150563
 20
33.9608095667
 10
-38.7416271823
 20
34.1002499435
 10
-38.6480151098
 20
34.2164061702
 10
-38.539199526
 20
34.3063761319
 10
-38.4148941736
 20
34.3667450975
 10
-38.2789869295
 20
34.3991293334
 10
-38.1353994162
 20
34.4086751491
  0
LINE
  5
22C
100
AcDbEntity
  8
0
100
AcDbLine
 62
250
  6
CONTINUOUS
 10
-37.7106574015
 20
30.3634573586
 11
-37.6746753239
 21
30.4550146946
  0
LWPOLYLINE
  5
22D
100
AcDbEntity
  8
0
100
AcDbPolyline
 62
250
  6
CONTINUOUS
 90
10
 70
0
 10
-37.674675327
 20
30.4550147011
 10
-37.6117806752
 20
30.5903570633
 10
-37.5414025206
 20
30.7139609881
 10
-37.4639040714
 20
30.8251204271
 10
-37.3798001723
 20
30.923464067
 10
-37.2892359353
 20
31.0091277329
 10
-37.1914658894
 20
31.0826938455
 10
-37.0863019317
 20
31.1438493277
 10
-36.9747952779
 20
31.1921716701
 10
-36.8577790454
 20
31.2280035456
  0
LINE
  5
22E
100
AcDbEntity
  8
0
100
AcDbLine
 62
7
  6
CONTINUOUS
 10
-36.1135605108
 20
28.2389487792
 11
-36.1705443893
 21
28.1396073209
  0
LWPOLYLINE
  5
22F
100
AcDbEntity
  8
0
100
AcDbPolyline
 62
7
  6
CONTINUOUS
 90
6
 70
0
 10
37.7461715817
 20
-38.9394761921
 10
37.8252541062
 20
-38.925753506
 10
37.8944853389
 20
-38.9067301275
 10
37.9574774865
 20
-38.8839125636
 10
38.0149608609
 20
-38.8589131294
 10
38.0424436279
 20
-38.8457655888
  0
LINE
  5
230
100
AcDbEntity
  8
0
100
AcDbLine
 62
7
  6
CONTINUOUS
 10
-40.0713363166
 20
36.9811162655
 11
-40.0713186419
 21
36.9826252382
  0
LWPOLYLINE
  5
231
100
AcDbEntity
  8
0
100
AcDbPolyline
 62
7
  6
CONTINUOUS
 90
3
 70
0
 10
-40.0713533156
 20
36.9791074998
 10
-40.0714033843
 20
36.9750694862
 10
-40.071584474
 20
36.9372095963
  0
LINE
  5
232
100
AcDbEntity
  8
0
100
AcDbLine
 62
250
  6
CONTINUOUS
 10
-40.0174071759
 20
36.6289457262
 11
-40.0179881803
 21
36.5884306674
  0
LWPOLYLINE
  5
233
100
AcDbEntity
  8
0
100
AcDbPolyline
 62
7
  6
CONTINUOUS
 90
4
 70
0
 10
-40.067406292
 20
37.0962371381
 10
-40.0694030733
 20
37.0565100562
 10
-40.070767875
 20
37.0143018096
 10
-40.0713363166
 20
36.9811162655
  0
LWPOLYLINE
  5
234
100
AcDbEntity
  8
0
100
AcDbPolyline
 62
250
  6
CONTINUOUS
 90
7
 70
0
 10
-37.8601570088
 20
29.7272802333
 10
-37.8433054055
 20
29.8432209016
 10
-37.8231976851
 20
29.9553421781
 10
-37.7998454404
 20
30.063524199
 10
-37.7732719504
 20
30.1676782843
 10
-37.7435359678
 20
30.2676584888
 10
-37.7106574015
 20
30.3634573586
  0
LWPOLYLINE
  5
235
100
AcDbEntity
  8
0
100
AcDbPolyline
 62
7
  6
CONTINUOUS
 90
3
 70
0
 10
-36.1705443893
 20
28.1396073209
 10
-36.214342365
 20
28.0251856842
 10
-36.2444140255
 20
27.8967238408
  0
LINE
  5
236
100
AcDbEntity
  8
0
100
AcDbLine
 62
250
  6
CONTINUOUS
 10
-37.9302461519
 20
10.9849660488
 11
-37.8840744741
 21
9.9883347159
  0
LINE
  5
237
100
AcDbEntity
  8
0
100
AcDbLine
 62
250
  6
CONTINUOUS
 10
-37.9729757089
 20
12.0072709086
 11
-37.9302461519
 21
10.9849660488
  0
LINE
  5
238
100
AcDbEntity
  8
0
100
AcDbLine
 62
250
  6
CONTINUOUS
 10
-38.0108734673
 20
13.054771672
 11
-37.9729757089
 21
12.0072709086
  0
LINE
  5
239
100
AcDbEntity
  8
0
100
AcDbLine
 62
250
  6
CONTINUOUS
 10
-38.0444828702
 20
14.1267060199
 11
-38.0108734673
 21
13.054771672
  0
LWPOLYLINE
  5
23A
100
AcDbEntity
  8
0
100
AcDbPolyline
 62
250
  6
CONTINUOUS
 90
3
 70
0
 10
-39.1921450919
 20
11.8670857352
 10
-39.1660562828
 20
10.676133735
 10
-39.1359092729
 20
9.5108541759
  0
LWPOLYLINE
  5
23B
100
AcDbEntity
  8
SUPERFICI
100
AcDbPolyline
 62
7
  6
CONTINUOUS
 90
5
 70
0
 10
-40.0674755269
 20
6.8404503859
 10
-40.06648405
 20
6.7892012251
 10
-40.0632062783
 20
6.7056630508
 10
-40.0565219981
 20
6.6153079063
 10
-40.0449216656
 20
6.5209198997
  0
LWPOLYLINE
  5
23C
100
AcDbEntity
  8
0
100
AcDbPolyline
 62
7
  6
CONTINUOUS
 90
4
 70
0
 10
-40.0161686976
 20
6.8643880403
 10
-40.0137918642
 20
6.7389785855
 10
-40.0081244288
 20
6.611185526
 10
-39.9907802109
 20
6.4780010723
  0
LINE
  5
23D
100
AcDbEntity
  8
0
100
AcDbLine
 62
250
  6
CONTINUOUS
 10
-39.215186254
 20
13.0842295448
 11
-39.1921450919
 21
11.8670857352
  0
LWPOLYLINE
  5
23E
100
AcDbEntity
  8
0
100
AcDbPolyline
 62
250
  6
CONTINUOUS
 90
5
 70
0
 10
-40.0169125931
 20
6.8905462427
 10
-40.0168544091
 20
6.8841307506
 10
-40.0166992331
 20
6.8776427561
 10
-40.0164705735
 20
6.8710683994
 10
-40.0161686976
 20
6.8643880403
  0
LWPOLYLINE
  5
23F
100
AcDbEntity
  8
SUPERFICI
100
AcDbPolyline
 62
7
  6
CONTINUOUS
 90
3
 70
0
 10
-40.0678747013
 20
6.8826429624
 10
-40.0677408001
 20
6.8624333707
 10
-40.0675028532
 20
6.8417231885
  0
LINE
  5
240
100
AcDbEntity
  8
0
100
AcDbLine
 62
250
  6
CONTINUOUS
 10
-40.0172052495
 20
6.9662238965
 11
-40.0168507266
 21
6.9223950116
  0
LWPOLYLINE
  5
241
100
AcDbEntity
  8
0
100
AcDbPolyline
 62
7
  6
CONTINUOUS
 90
5
 70
0
 10
-40.0707387904
 20
36.7869508349
 10
-40.0662076433
 20
35.8467324169
 10
-40.0649158625
 20
34.7462427995
 10
-40.0637088453
 20
33.6139756116
 10
-40.0639718217
 20
32.3226765844
  0
LWPOLYLINE
  5
242
100
AcDbEntity
  8
0
100
AcDbPolyline
 62
250
  6
CONTINUOUS
 90
6
 70
0
 10
-38.1275907264
 20
19.8770063317
 10
-38.1239367805
 20
18.6744431833
 10
-38.1132092479
 20
17.4976118577
 10
-38.0960455156
 20
16.3469254821
 10
-38.0729619335
 20
15.2234324324
 10
-38.0444828702
 20
14.1267060199
  0
LINE
  5
243
100
AcDbEntity
  8
0
100
AcDbLine
 62
7
  6
CONTINUOUS
 10
-40.071584474
 20
36.9372095963
 11
-40.0711857757
 21
36.8497032068
  0
LWPOLYLINE
  5
244
100
AcDbEntity
  8
0
100
AcDbPolyline
 62
250
  6
CONTINUOUS
 90
7
 70
0
 10
-39.2852386383
 20
20.9536851367
 10
-39.2830671526
 20
19.5723459741
 10
-39.276736375
 20
18.218691015
 10
-39.2665018677
 20
16.8928809712
 10
-39.2526776047
 20
15.5958423858
 10
-39.2355462476
 20
14.3270081675
 10
-39.215186254
 20
13.0842295448
  0
LINE
  5
245
100
AcDbEntity
  8
0
100
AcDbLine
 62
250
  6
CONTINUOUS
 10
-40.0175078674
 20
7.1546835219
 11
-40.0172052495
 21
6.9662238965
  0
LINE
  5
246
100
AcDbEntity
  8
0
100
AcDbLine
 62
7
  6
CONTINUOUS
 10
-40.0707482348
 20
36.8756595127
 11
-40.0707387904
 21
36.7869508349
  0
LINE
  5
247
100
AcDbEntity
  8
0
100
AcDbLine
 62
7
  6
CONTINUOUS
 10
-40.0656169961
 20
18.929861282
 11
-40.063663892
 21
10.21354821
  0
LWPOLYLINE
  5
248
100
AcDbEntity
  8
0
100
AcDbPolyline
 62
7
  6
CONTINUOUS
 90
3
 70
0
 10
-40.0639718217
 20
32.3226765844
 10
-40.0659114032
 20
24.9115686903
 10
-40.064675704
 20
21.9131720025
  0
LINE
  5
249
100
AcDbEntity
  8
0
100
AcDbLine
 62
7
  6
CONTINUOUS
 10
-40.0647083218
 20
21.9137229015
 11
-40.0656169961
 21
18.929861282
  0
LINE
  5
24A
100
AcDbEntity
  8
0
100
AcDbLine
 62
250
  6
CONTINUOUS
 10
-40.017431706
 20
36.8738522506
 11
-40.017014304
 21
36.6828070208
  0
LINE
  5
24B
100
AcDbEntity
  8
0
100
AcDbLine
 62
250
  6
CONTINUOUS
 10
-40.0174385588
 20
36.5873670022
 11
-40.0175078674
 21
7.1546835219
  0
LINE
  5
24C
100
AcDbEntity
  8
SUPERFICI
100
AcDbLine
 62
7
  6
CONTINUOUS
 10
-40.0678130821
 20
6.9680857529
 11
-40.0678747013
 21
6.8826429624
  0
LWPOLYLINE
  5
24D
100
AcDbEntity
  8
0
100
AcDbPolyline
 62
7
  6
CONTINUOUS
 90
4
 70
0
 10
-40.063663892
 20
10.21354821
 10
-40.0662703643
 20
7.9915902286
 10
-40.0712168281
 20
7.0612931238
 10
-40.0712609659
 20
6.9691451178
  0
LWPOLYLINE
  5
24E
100
AcDbEntity
  8
0
100
AcDbPolyline
 62
250
  6
CONTINUOUS
 90
8
 70
0
 10
-39.2852386383
 20
20.9536851436
 10
-39.2830673264
 20
22.332515473
 10
-39.2767368733
 20
23.6788566367
 10
-39.2665026726
 20
24.9928460983
 10
-39.2526786763
 20
26.2739195836
 10
-39.2355476356
 20
27.5229674121
 10
-39.2151879795
 20
28.7422283956
 10
-39.1921471811
 20
29.9327638905
  0
LINE
  5
24F
100
AcDbEntity
  8
0
100
AcDbLine
 62
250
  6
CONTINUOUS
 10
-40.0168507266
 20
6.9223950116
 11
-40.0169125931
 21
6.8905462427
  0
LINE
  5
250
100
AcDbEntity
  8
0
100
AcDbLine
 62
250
  6
CONTINUOUS
 10
-40.017014304
 20
36.6828070208
 11
-40.0171429207
 21
36.6558394496
  0
LINE
  5
251
100
AcDbEntity
  8
0
100
AcDbLine
 62
250
  6
CONTINUOUS
 10
-40.0171429207
 20
36.6558394496
 11
-40.0174071759
 21
36.6289457262
  0
LINE
  5
252
100
AcDbEntity
  8
0
100
AcDbLine
 62
250
  6
CONTINUOUS
 10
-39.1921471811
 20
29.9327638905
 11
-39.1660584509
 21
31.0935992865
  0
LWPOLYLINE
  5
253
100
AcDbEntity
  8
0
100
AcDbPolyline
 62
250
  6
CONTINUOUS
 90
7
 70
0
 10
-38.0564617368
 20
25.1121410855
 10
-38.0768069548
 20
24.3040820983
 10
-38.094173665
 20
23.4720038454
 10
-38.1082835023
 20
22.6136604734
 10
-38.1187857295
 20
21.7281588263
 10
-38.1253342135
 20
20.8160026307
 10
-38.1275907265
 20
19.8770062127
  0
LINE
  5
254
100
AcDbEntity
  8
0
100
AcDbLine
 62
250
  6
CONTINUOUS
 10
-39.1660584509
 20
31.0935992865
 11
-39.135911237
 21
32.2240963213
  0
LWPOLYLINE
  5
255
100
AcDbEntity
  8
0
100
AcDbPolyline
 62
250
  6
CONTINUOUS
 90
7
 70
0
 10
-37.8840719642
 20
29.4844815344
 10
-37.9178742104
 20
28.8096796129
 10
-37.9499296546
 20
28.1134609722
 10
-37.9798636446
 20
27.3956123858
 10
-38.0075753459
 20
26.656727952
 10
-38.0333136589
 20
25.8963326643
 10
-38.0564617368
 20
25.1121410855
  0
LWPOLYLINE
  5
256
100
AcDbEntity
  8
0
100
AcDbPolyline
 62
7
  6
CONTINUOUS
 90
9
 70
0
 10
-36.2602722327
 20
27.7558077701
 10
-36.2607367395
 20
27.7471819551
 10
-36.2611570828
 20
27.7382929992
 10
-36.2615296519
 20
27.7292429364
 10
-36.2618492564
 20
27.7201826106
 10
-36.262114385
 20
27.7111665723
 10
-36.2623266532
 20
27.702130195
 10
-36.2624898758
 20
27.6930315229
 10
-36.2626864166
 20
27.6747422874
  0
LWPOLYLINE
  5
257
100
AcDbEntity
  8
0
100
AcDbPolyline
 62
7
  6
CONTINUOUS
 90
9
 70
0
 10
-35.9404438274
 20
27.1341673337
 10
-35.9308157906
 20
27.2610010963
 10
-35.9007789345
 20
27.3767929909
 10
-35.8509888957
 20
27.4750632172
 10
-35.7812706143
 20
27.5504569643
 10
-35.6942146136
 20
27.6007119769
 10
-35.5938701443
 20
27.623254617
 10
-35.4838014987
 20
27.6173214935
 10
-35.3683854628
 20
27.585492571
  0
LWPOLYLINE
  5
258
100
AcDbEntity
  8
0
100
AcDbPolyline
 62
250
  6
CONTINUOUS
 90
3
 70
0
 10
-37.8840719635
 20
29.4844815359
 10
-37.8737459846
 20
29.6076579434
 10
-37.8601570088
 20
29.7272802333
  0
LINE
  5
259
100
AcDbEntity
  8
0
100
AcDbLine
 62
7
  6
CONTINUOUS
 10
-36.2444140255
 20
27.8967238408
 11
-36.2602722327
 21
27.7558077701
  0
LWPOLYLINE
  5
25A
100
AcDbEntity
  8
RACCORDO
100
AcDbPolyline
 62
7
  6
CONTINUOUS
 90
10
 70
0
 10
-33.3045287706
 20
23.3064842442
 10
-33.2922279976
 20
23.3157555303
 10
-33.2809712511
 20
23.3263532103
 10
-33.270758531
 20
23.3382772842
 10
-33.2613634654
 20
23.3519338967
 10
-33.2530124263
 20
23.3669169032
 10
-33.2463845289
 20
23.3820078694
 10
-33.2417061452
 20
23.3968006507
 10
-33.2387509034
 20
23.4117013918
 10
-33.2375188034
 20
23.4267100927
  0
LWPOLYLINE
  5
25B
100
AcDbEntity
  8
0
100
AcDbPolyline
 62
250
  6
CONTINUOUS
 90
10
 70
0
 10
-25.8852934121
 20
30.2169919256
 10
-25.9313578474
 20
30.1839375623
 10
-25.9762463993
 20
30.1446693737
 10
-26.0191921913
 20
30.0998811287
 10
-26.0594896771
 20
30.0503255707
 10
-26.0964303858
 20
29.9968919538
 10
-26.129336714
 20
29.940612324
 10
-26.1576697732
 20
29.8825023794
 10
-26.1810141746
 20
29.8235225577
 10
-26.1990230396
 20
29.7646675815
  0
LINE
  5
25C
100
AcDbEntity
  8
RACCORDO
100
AcDbLine
 62
7
  6
CONTINUOUS
 10
-33.3045287706
 20
23.3064842442
 11
-33.4319731682
 21
23.2251873599
  0
LINE
  5
25D
100
AcDbEntity
  8
DRAFT
100
AcDbLine
 62
7
  6
CONTINUOUS
 10
-33.5380391854
 20
23.1575277618
 11
-33.6087498635
 21
23.1124213631
  0
LINE
  5
25E
100
AcDbEntity
  8
DRAFT
100
AcDbLine
 62
7
  6
CONTINUOUS
 10
-33.7148158807
 20
23.044761765
 11
-33.7855265588
 21
22.9996553662
  0
LINE
  5
25F
100
AcDbEntity
  8
DRAFT
100
AcDbLine
 62
7
  6
CONTINUOUS
 10
-33.891592576
 20
22.9319957681
 11
-33.9623032541
 21
22.8868893694
  0
LINE
  5
260
100
AcDbEntity
  8
DRAFT
100
AcDbLine
 62
7
  6
CONTINUOUS
 10
-34.0683692713
 20
22.8192297713
 11
-34.1390799494
 21
22.7741233725
  0
LINE
  5
261
100
AcDbEntity
  8
0
100
AcDbLine
 62
7
  6
CONTINUOUS
 10
-33.5771434092
 20
25.9001445201
 11
-34.1848175605
 21
25.5492773305
  0
LINE
  5
262
100
AcDbEntity
  8
RACCORDO
100
AcDbLine
 62
7
  6
CONTINUOUS
 10
-33.6413459647
 20
25.8630819339
 11
-33.5771434092
 21
25.9001445201
  0
LINE
  5
263
100
AcDbEntity
  8
RACCORDO
100
AcDbLine
 62
7
  6
CONTINUOUS
 10
-33.3045287706
 20
25.7467897902
 11
-33.4319731682
 21
25.6809170786
  0
LINE
  5
264
100
AcDbEntity
  8
DRAFT
100
AcDbLine
 62
7
  6
CONTINUOUS
 10
-33.7148158807
 20
25.5347229989
 11
-33.7855265588
 21
25.498174479
  0
LINE
  5
265
100
AcDbEntity
  8
DRAFT
100
AcDbLine
 62
7
  6
CONTINUOUS
 10
-33.5380391854
 20
25.6260942987
 11
-33.6087498635
 21
25.5895457788
  0
LINE
  5
266
100
AcDbEntity
  8
DRAFT
100
AcDbLine
 62
7
  6
CONTINUOUS
 10
-33.891592576
 20
25.4433516991
 11
-33.9623032541
 21
25.4068031792
  0
LINE
  5
267
100
AcDbEntity
  8
DRAFT
100
AcDbLine
 62
7
  6
CONTINUOUS
 10
-34.0683692713
 20
25.3519803993
 11
-34.1390799494
 21
25.3154318794
  0
LINE
  5
268
100
AcDbEntity
  8
0
100
AcDbLine
 62
250
  6
CONTINUOUS
 10
-35.199532765
 20
26.9185140153
 11
-35.100187165
 21
26.9618997279
  0
LWPOLYLINE
  5
269
100
AcDbEntity
  8
RACCORDO
100
AcDbPolyline
 62
7
  6
CONTINUOUS
 90
6
 70
0
 10
-33.5771434092
 20
25.9001445201
 10
-33.5635240849
 20
25.9059498394
 10
-33.5494540932
 20
25.9081323652
 10
-33.5355111114
 20
25.9067921033
 10
-33.5223427973
 20
25.9020877335
 10
-33.5186509578
 20
25.9000907183
  0
LWPOLYLINE
  5
26A
100
AcDbEntity
  8
0
100
AcDbPolyline
 62
250
  6
CONTINUOUS
 90
10
 70
0
 10
33.2445600882
 20
-33.4165618282
 10
33.1947752026
 20
-33.4278272836
 10
33.1438249268
 20
-33.4371444352
 10
33.0916843548
 20
-33.4445146395
 10
33.0383331093
 20
-33.4499319674
 10
32.9838018305
 20
-33.4533879893
 10
32.9281599051
 20
-33.4548745584
 10
32.8714410389
 20
-33.4543901638
 10
32.8136592479
 20
-33.4519365637
 10
32.7548409044
 20
-33.4475157752
  0
LWPOLYLINE
  5
26B
100
AcDbEntity
  8
0
100
AcDbPolyline
 62
250
  6
CONTINUOUS
 90
10
 70
0
 10
35.2292852204
 20
-36.1889608293
 10
35.3773290032
 20
-36.1787623838
 10
35.5155998194
 20
-36.144617985
 10
35.640267323
 20
-36.0819481661
 10
35.7477121229
 20
-35.9906913655
 10
35.8393129213
 20
-35.8749147757
 10
35.9182745038
 20
-35.7366368754
 10
35.9861471025
 20
-35.5795923995
 10
36.0439711501
 20
-35.4079763958
 10
36.092441578
 20
-35.2229831393
  0
LWPOLYLINE
  5
26C
100
AcDbEntity
  8
SUPERFICI
100
AcDbPolyline
 62
7
  6
CONTINUOUS
 90
12
 70
0
 10
-40.0264809646
 20
6.4231284835
 10
-39.9999386533
 20
6.3226051311
 10
-39.965256806
 20
6.2201399513
 10
-39.9225495913
 20
6.1165338534
 10
-39.8721476619
 20
6.0129491567
 10
-39.8142924793
 20
5.9102586253
 10
-39.7489777603
 20
5.8090733647
 10
-39.6769567422
 20
5.7112764903
 10
-39.5984413274
 20
5.6179485123
 10
-39.5123960454
 20
5.5292009751
 10
-39.4187329693
 20
5.4469315617
 10
-39.3765131541
 20
5.4144231432
  0
LINE
  5
26D
100
AcDbEntity
  8
0
100
AcDbLine
 62
7
  6
CONTINUOUS
 10
-39.9907802109
 20
6.4780010723
 11
-39.9589983598
 21
6.3389703155
  0
LINE
  5
26E
100
AcDbEntity
  8
SUPERFICI
100
AcDbLine
 62
7
  6
CONTINUOUS
 10
-40.0449216656
 20
6.5209198997
 11
-40.0264809646
 21
6.4231284835
  0
LWPOLYLINE
  5
26F
100
AcDbEntity
  8
0
100
AcDbPolyline
 62
250
  6
CONTINUOUS
 90
10
 70
0
 10
-38.9985570076
 20
8.1336185624
 10
-39.0244420455
 20
8.2858592713
 10
-39.0469931209
 20
8.4382233624
 10
-39.066498996
 20
8.5908140494
 10
-39.0832312592
 20
8.7435620573
 10
-39.0975191765
 20
8.896491083
 10
-39.1097111794
 20
9.0496438749
 10
-39.1201132952
 20
9.2030630622
 10
-39.128823544
 20
9.356784473
 10
-39.1359087762
 20
9.5108420562
  0
LINE
  5
270
100
AcDbEntity
  8
0
100
AcDbLine
 62
7
  6
CONTINUOUS
 10
-35.9387162066
 20
8.9447215754
 11
-35.9305732196
 21
8.8675486378
  0
LINE
  5
271
100
AcDbEntity
  8
0
100
AcDbLine
 62
7
  6
CONTINUOUS
 10
-36.2443952159
 20
9.0647573118
 11
-36.2602757163
 21
9.2240181367
  0
LWPOLYLINE
  5
272
100
AcDbEntity
  8
0
100
AcDbPolyline
 62
250
  6
CONTINUOUS
 90
10
 70
0
 10
-35.1001990885
 20
8.8315589697
 10
-35.0987638422
 20
8.8077873954
 10
-35.0938300477
 20
8.7820208076
 10
-35.0854365875
 20
8.7551204054
 10
-35.0735763302
 20
8.727812672
 10
-35.0585959017
 20
8.7011799044
 10
-35.0412728529
 20
8.6766268687
 10
-35.0223208321
 20
8.6550656495
 10
-35.0023516853
 20
8.6369309833
 10
-34.9821174212
 20
8.622765426
  0
LWPOLYLINE
  5
273
100
AcDbEntity
  8
0
100
AcDbPolyline
 62
250
  6
CONTINUOUS
 90
9
 70
0
 10
-35.1297081962
 20
7.3453830576
 10
-35.1335511579
 20
7.4142804333
 10
-35.139938343
 20
7.4796916518
 10
-35.1488695109
 20
7.5413115821
 10
-35.1603485673
 20
7.5989422847
 10
-35.1743794886
 20
7.6521185278
 10
-35.1908708167
 20
7.7002038518
 10
-35.2096891522
 20
7.7428558207
 10
-35.2307545718
 20
7.7799297364
  0
LWPOLYLINE
  5
274
100
AcDbEntity
  8
0
100
AcDbPolyline
 62
7
  6
CONTINUOUS
 90
10
 70
0
 10
-36.2600928579
 20
9.223911632
 10
-36.2605863141
 20
9.2332923793
 10
-36.2610287833
 20
9.2426615093
 10
-36.2614207338
 20
9.2520190306
 10
-36.2617626209
 20
9.2613644707
 10
-36.2620549045
 20
9.2706982996
 10
-36.2622971586
 20
9.2800213858
 10
-36.2624879768
 20
9.2893330514
 10
-36.2626258786
 20
9.2986316264
 10
-36.2627093885
 20
9.3079159129
  0
LINE
  5
275
100
AcDbEntity
  8
0
100
AcDbLine
 62
7
  6
CONTINUOUS
 10
-35.94044384
 20
9.0072073018
 11
-35.9387162066
 21
8.9447215754
  0
LINE
  5
276
100
AcDbEntity
  8
0
100
AcDbLine
 62
7
  6
CONTINUOUS
 10
-36.2626821107
 20
9.307870131
 11
-36.2626864166
 21
27.6747422874
  0
LINE
  5
277
100
AcDbEntity
  8
0
100
AcDbLine
 62
250
  6
CONTINUOUS
 10
-35.940006773
 20
27.1344310737
 11
-35.94018222
 21
9.0074335646
  0
LINE
  5
278
100
AcDbEntity
  8
0
100
AcDbLine
 62
250
  6
CONTINUOUS
 10
-35.1002148352
 20
8.8315502603
 11
-35.1002148352
 21
26.9638229489
  0
LINE
  5
279
100
AcDbEntity
  8
0
100
AcDbLine
 62
7
  6
CONTINUOUS
 10
-34.1848175605
 20
26.414507717
 11
-34.1848175605
 21
9.3413641281
  0
LINE
  5
27A
100
AcDbEntity
  8
DRAFT
100
AcDbLine
 62
7
  6
CONTINUOUS
 10
-34.1390799494
 20
25.3154318794
 11
-34.1390799494
 21
22.7741233725
  0
LINE
  5
27B
100
AcDbEntity
  8
DRAFT
100
AcDbLine
 62
7
  6
CONTINUOUS
 10
-34.1390799494
 20
16.1301412654
 11
-34.1390799494
 21
13.5888327586
  0
LINE
  5
27C
100
AcDbEntity
  8
DRAFT
100
AcDbLine
 62
7
  6
CONTINUOUS
 10
-34.0683692713
 20
25.4100123837
 11
-34.0683692713
 21
22.8192297713
  0
LINE
  5
27D
100
AcDbEntity
  8
DRAFT
100
AcDbLine
 62
7
  6
CONTINUOUS
 10
-34.0683692713
 20
16.2247217698
 11
-34.0683692713
 21
13.6339391574
  0
LINE
  5
27E
100
AcDbEntity
  8
DRAFT
100
AcDbLine
 62
7
  6
CONTINUOUS
 10
-33.9623032541
 20
25.4068031792
 11
-33.9623032541
 21
22.8868893694
  0
LINE
  5
27F
100
AcDbEntity
  8
DRAFT
100
AcDbLine
 62
7
  6
CONTINUOUS
 10
-33.9623032541
 20
16.2215125653
 11
-33.9623032541
 21
13.7015987555
  0
LINE
  5
280
100
AcDbEntity
  8
DRAFT
100
AcDbLine
 62
7
  6
CONTINUOUS
 10
-33.891592576
 20
25.5013836836
 11
-33.891592576
 21
22.9319957681
  0
LINE
  5
281
100
AcDbEntity
  8
DRAFT
100
AcDbLine
 62
7
  6
CONTINUOUS
 10
-33.891592576
 20
16.3160930696
 11
-33.891592576
 21
13.7467051542
  0
LINE
  5
282
100
AcDbEntity
  8
DRAFT
100
AcDbLine
 62
7
  6
CONTINUOUS
 10
-33.7855265588
 20
25.498174479
 11
-33.7855265588
 21
22.9996553662
  0
LINE
  5
283
100
AcDbEntity
  8
DRAFT
100
AcDbLine
 62
7
  6
CONTINUOUS
 10
-33.7855265588
 20
16.3128838651
 11
-33.7855265588
 21
13.8143647523
  0
LINE
  5
284
100
AcDbEntity
  8
DRAFT
100
AcDbLine
 62
7
  6
CONTINUOUS
 10
-33.7148158807
 20
25.5927549834
 11
-33.7148158807
 21
23.044761765
  0
LINE
  5
285
100
AcDbEntity
  8
DRAFT
100
AcDbLine
 62
7
  6
CONTINUOUS
 10
-33.7148158807
 20
16.4074643695
 11
-33.7148158807
 21
13.859471151
  0
LINE
  5
286
100
AcDbEntity
  8
DRAFT
100
AcDbLine
 62
7
  6
CONTINUOUS
 10
-33.6087498635
 20
25.5895457788
 11
-33.6087498635
 21
23.1124213631
  0
LINE
  5
287
100
AcDbEntity
  8
DRAFT
100
AcDbLine
 62
7
  6
CONTINUOUS
 10
-33.6087498635
 20
16.4042551649
 11
-33.6087498635
 21
13.9271307492
  0
LINE
  5
288
100
AcDbEntity
  8
DRAFT
100
AcDbLine
 62
7
  6
CONTINUOUS
 10
-33.5380391854
 20
25.6841262832
 11
-33.5380391854
 21
23.1575277618
  0
LINE
  5
289
100
AcDbEntity
  8
DRAFT
100
AcDbLine
 62
7
  6
CONTINUOUS
 10
-33.5380391854
 20
16.4988356693
 11
-33.5380391854
 21
13.9722371479
  0
LINE
  5
28A
100
AcDbEntity
  8
DRAFT
100
AcDbLine
 62
7
  6
CONTINUOUS
 10
-33.4319731682
 20
25.6809170786
 11
-33.4319731682
 21
23.2251873599
  0
LINE
  5
28B
100
AcDbEntity
  8
DRAFT
100
AcDbLine
 62
7
  6
CONTINUOUS
 10
-33.4319731682
 20
16.4956264647
 11
-33.4319731682
 21
14.039896746
  0
LINE
  5
28C
100
AcDbEntity
  8
RACCORDO
100
AcDbLine
 62
7
  6
CONTINUOUS
 10
-33.2375188034
 20
25.7039453722
 11
-33.2375188034
 21
23.4267100927
  0
LINE
  5
28D
100
AcDbEntity
  8
RACCORDO
100
AcDbLine
 62
7
  6
CONTINUOUS
 10
-33.2375188034
 20
16.5186547583
 11
-33.2375188034
 21
14.2414194788
  0
LWPOLYLINE
  5
28E
100
AcDbEntity
  8
0
100
AcDbPolyline
 62
250
  6
CONTINUOUS
 90
10
 70
0
 10
-35.1297081962
 20
28.3289118066
 10
-35.1335511579
 20
28.2497210573
 10
-35.139938343
 20
28.1672141783
 10
-35.1488695109
 20
28.0816965788
 10
-35.1603485673
 20
27.9932635941
 10
-35.1743794886
 20
27.9024739585
 10
-35.1908708167
 20
27.810364028
 10
-35.2096891522
 20
27.717528379
 10
-35.2307545718
 20
27.6241059088
 10
-35.2539697354
 20
27.5304627732
  0
LWPOLYLINE
  5
28F
100
AcDbEntity
  8
0
100
AcDbPolyline
 62
250
  6
CONTINUOUS
 90
9
 70
0
 10
-27.382460576
 20
22.9855511055
 10
-27.3444846133
 20
23.0687931542
 10
-27.3099085483
 20
23.1531146328
 10
-27.2788809605
 20
23.2381707482
 10
-27.2514743793
 20
23.3238725826
 10
-27.2279477081
 20
23.4095853681
 10
-27.2086205464
 20
23.4941462502
 10
-27.1935765084
 20
23.5769451751
 10
-27.1827889803
 20
23.6579068367
  0
LWPOLYLINE
  5
290
100
AcDbEntity
  8
0
100
AcDbPolyline
 62
250
  6
CONTINUOUS
 90
4
 70
0
 10
-39.2636231964
 20
5.3388683227
 10
-39.2633821882
 20
5.3392288922
 10
-39.2562233675
 20
5.3436667051
 10
-39.2392981664
 20
5.3531418484
  0
LWPOLYLINE
  5
291
100
AcDbEntity
  8
0
100
AcDbPolyline
 62
7
  6
CONTINUOUS
 90
10
 70
0
 10
31.508503781
 20
-30.9810385646
 10
31.6187931956
 20
-30.9685029622
 10
31.7209839388
 20
-30.9370827552
 10
31.8136699076
 20
-30.8873622256
 10
31.8954506528
 20
-30.8201676043
 10
31.9653154099
 20
-30.7364244496
 10
32.0223013006
 20
-30.6370817974
 10
32.0661005943
 20
-30.5226598347
 10
32.0961745879
 20
-30.3941988846
 10
32.1120239922
 20
-30.2533033686
  0
LWPOLYLINE
  5
292
100
AcDbEntity
  8
0
100
AcDbPolyline
 62
250
  6
CONTINUOUS
 90
10
 70
0
 10
35.2292845775
 20
-36.1889608541
 10
35.1656140625
 20
-36.1872815131
 10
35.1002878539
 20
-36.182554958
 10
35.0334845348
 20
-36.1750348362
 10
34.9654848954
 20
-36.1649698526
 10
34.8964076452
 20
-36.1525285282
 10
34.8262132352
 20
-36.1377401957
 10
34.7549133171
 20
-36.1206446713
 10
34.682564489
 20
-36.1013041455
 10
34.609205069
 20
-36.0797775328
  0
LWPOLYLINE
  5
293
100
AcDbEntity
  8
0
100
AcDbPolyline
 62
7
  6
CONTINUOUS
 90
5
 70
0
 10
-39.9589983598
 20
6.3389703155
 10
-39.9149075784
 20
6.1990837572
 10
-39.8573561637
 20
6.063835843
 10
-39.7878223441
 20
5.9369915735
 10
-39.7091719572
 20
5.8198100017
  0
LWPOLYLINE
  5
294
100
AcDbEntity
  8
0
100
AcDbPolyline
 62
250
  6
CONTINUOUS
 90
10
 70
0
 10
-37.6746670969
 20
8.7759412562
 10
-37.7106343428
 20
8.9090047372
 10
-37.743509555
 20
9.0427434105
 10
-37.7732555599
 20
9.177070762
 10
-37.7998378074
 20
9.3119000371
 10
-37.8232041329
 20
9.4470578785
 10
-37.8433233872
 20
9.5824236511
 10
-37.8601776052
 20
9.7178595041
 10
-37.8737670578
 20
9.8532093992
 10
-37.8840719518
 20
9.9882969075
  0
LINE
  5
295
100
AcDbEntity
  8
0
100
AcDbLine
 62
7
  6
CONTINUOUS
 10
-35.92540854
 20
8.8339932871
 11
-35.8965154665
 21
8.6986511263
  0
LWPOLYLINE
  5
296
100
AcDbEntity
  8
0
100
AcDbPolyline
 62
250
  6
CONTINUOUS
 90
10
 70
0
 10
-38.9985640154
 20
8.1336571535
 10
-38.9495710058
 20
7.8903474667
 10
-38.891018544
 20
7.6496216311
 10
-38.8221505787
 20
7.4117882118
 10
-38.7416271805
 20
7.1793660444
 10
-38.6480151079
 20
6.9551097752
 10
-38.5391995261
 20
6.7394838671
 10
-38.4148941738
 20
6.5355710264
 10
-38.2789869298
 20
6.3462448331
 10
-38.1353994166
 20
6.1708877327
  0
LINE
  5
297
100
AcDbEntity
  8
0
100
AcDbLine
 62
7
  6
CONTINUOUS
 10
-35.9305732196
 20
8.8675486378
 11
-35.905443926
 21
8.7377186381
  0
LINE
  5
298
100
AcDbEntity
  8
0
100
AcDbLine
 62
7
  6
CONTINUOUS
 10
-36.2143078116
 20
8.9015316243
 11
-36.2443952159
 21
9.0647573118
  0
LINE
  5
299
100
AcDbEntity
  8
0
100
AcDbLine
 62
7
  6
CONTINUOUS
 10
-35.9414949535
 20
8.9648960345
 11
-35.92540854
 21
8.8339932871
  0
LWPOLYLINE
  5
29A
100
AcDbEntity
  8
RACCORDO
100
AcDbPolyline
 62
7
  6
CONTINUOUS
 90
6
 70
0
 10
-33.2375188034
 20
16.5186547583
 10
-33.2387509034
 20
16.532240661
 10
-33.2417061452
 20
16.5437287628
 10
-33.2463845289
 20
16.5531190639
 10
-33.2530124263
 20
16.5605563005
 10
-33.2581995224
 20
16.5644125238
  0
LWPOLYLINE
  5
29B
100
AcDbEntity
  8
RACCORDO
100
AcDbPolyline
 62
7
  6
CONTINUOUS
 90
6
 70
0
 10
-33.2375188034
 20
25.7039453722
 10
-33.2387509034
 20
25.7175312749
 10
-33.2417061452
 20
25.7290193768
 10
-33.2463845289
 20
25.7384096779
 10
-33.2530124263
 20
25.7458469144
 10
-33.2581995224
 20
25.7497031377
  0
LWPOLYLINE
  5
29C
100
AcDbEntity
  8
0
100
AcDbPolyline
 62
250
  6
CONTINUOUS
 90
10
 70
0
 10
-26.5552300064
 20
28.2635325846
 10
-26.6024034852
 20
28.0396674315
 10
-26.6469589445
 20
27.8216710545
 10
-26.6892605441
 20
27.6072175409
 10
-26.7297589164
 20
27.3936002362
 10
-26.7686236532
 20
27.1796503479
 10
-26.8057671887
 20
26.965896932
 10
-26.8413172953
 20
26.7519850697
 10
-26.8755989076
 20
26.5364712113
 10
-26.9087817268
 20
26.318856046
  0
LWPOLYLINE
  5
29D
100
AcDbEntity
  8
0
100
AcDbPolyline
 62
250
  6
CONTINUOUS
 90
10
 70
0
 10
-26.1990249436
 20
29.7646667874
 10
-26.2428121448
 20
29.5955246284
 10
-26.2854641922
 20
29.4272419428
 10
-26.3269903231
 20
29.2598265264
 10
-26.3673067839
 20
29.0936737652
 10
-26.4065203968
 20
28.928402208
 10
-26.4449066037
 20
28.7628581984
 10
-26.482541532
 20
28.5966666866
 10
-26.5193239499
 20
28.4302266016
 10
-26.5552434931
 20
28.2635496574
  0
LINE
  5
29E
100
AcDbEntity
  8
DRAFT
100
AcDbLine
 62
7
  6
CONTINUOUS
 10
-30.2302686556
 20
7.050604287
 11
-30.1744563049
 21
7.1408553949
  0
LINE
  5
29F
100
AcDbEntity
  8
DRAFT
100
AcDbLine
 62
7
  6
CONTINUOUS
 10
-30.0442274863
 20
7.1473237441
 11
-29.9884151355
 21
7.237574852
  0
LWPOLYLINE
  5
2A0
100
AcDbEntity
  8
0
100
AcDbPolyline
 62
250
  6
CONTINUOUS
 90
4
 70
0
 10
-34.7225623931
 20
6.4628102218
 10
-34.6047227935
 20
6.6090146222
 10
-34.487480815
 20
6.7573317494
 10
-34.3711429715
 20
6.9073929012
  0
LINE
  5
2A1
100
AcDbEntity
  8
0
100
AcDbLine
 62
250
  6
CONTINUOUS
 10
-34.8406578215
 20
6.3191288937
 11
-34.7225623931
 21
6.4628102218
  0
LWPOLYLINE
  5
2A2
100
AcDbEntity
  8
0
100
AcDbPolyline
 62
250
  6
CONTINUOUS
 90
6
 70
0
 10
-35.4246249946
 20
5.6510084201
 10
-35.309804903
 20
5.7765923274
 10
-35.1936348919
 20
5.9066340382
 10
-35.076477837
 20
6.040696806
 10
-34.9587134011
 20
6.1783232731
 10
-34.8406578215
 20
6.3191288937
  0
LWPOLYLINE
  5
2A3
100
AcDbEntity
  8
0
100
AcDbPolyline
 62
250
  6
CONTINUOUS
 90
8
 70
0
 10
-35.0664016147
 20
8.5548994528
 10
-35.146019094
 20
8.4714123097
 10
-35.2142621964
 20
8.3739731954
 10
-35.2697220118
 20
8.2661688077
 10
-35.3088066077
 20
8.1546453485
 10
-35.3274770808
 20
8.0487377434
 10
-35.3244888872
 20
7.9542642347
 10
-35.2997683848
 20
7.8740532182
  0
LWPOLYLINE
  5
2A4
100
AcDbEntity
  8
RACCORDO
100
AcDbPolyline
 62
7
  6
CONTINUOUS
 90
10
 70
0
 10
-33.3045287706
 20
14.1211936303
 10
-33.2922279976
 20
14.1304649164
 10
-33.2809712511
 20
14.1410625964
 10
-33.270758531
 20
14.1529866703
 10
-33.2613634654
 20
14.1666432828
 10
-33.2530124263
 20
14.1816262893
 10
-33.2463845289
 20
14.1967172555
 10
-33.2417061452
 20
14.2115100368
 10
-33.2387509034
 20
14.2264107779
 10
-33.2375188034
 20
14.2414194788
  0
LINE
  5
2A5
100
AcDbEntity
  8
RACCORDO
100
AcDbLine
 62
7
  6
CONTINUOUS
 10
-33.3045287706
 20
14.1211936303
 11
-33.4319731682
 21
14.039896746
  0
LINE
  5
2A6
100
AcDbEntity
  8
DRAFT
100
AcDbLine
 62
7
  6
CONTINUOUS
 10
-33.5380391854
 20
13.9722371479
 11
-33.6087498635
 21
13.9271307492
  0
LINE
  5
2A7
100
AcDbEntity
  8
DRAFT
100
AcDbLine
 62
7
  6
CONTINUOUS
 10
-33.7148158807
 20
13.859471151
 11
-33.7855265588
 21
13.8143647523
  0
LINE
  5
2A8
100
AcDbEntity
  8
DRAFT
100
AcDbLine
 62
7
  6
CONTINUOUS
 10
-33.891592576
 20
13.7467051542
 11
-33.9623032541
 21
13.7015987555
  0
LINE
  5
2A9
100
AcDbEntity
  8
DRAFT
100
AcDbLine
 62
7
  6
CONTINUOUS
 10
-34.0683692713
 20
13.6339391574
 11
-34.1390799494
 21
13.5888327586
  0
LINE
  5
2AA
100
AcDbEntity
  8
0
100
AcDbLine
 62
7
  6
CONTINUOUS
 10
-33.5771434092
 20
16.7148539062
 11
-34.1848175605
 21
16.3639867166
  0
LINE
  5
2AB
100
AcDbEntity
  8
RACCORDO
100
AcDbLine
 62
7
  6
CONTINUOUS
 10
-33.6413459647
 20
16.67779132
 11
-33.5771434092
 21
16.7148539062
  0
LINE
  5
2AC
100
AcDbEntity
  8
RACCORDO
100
AcDbLine
 62
7
  6
CONTINUOUS
 10
-33.3045287706
 20
16.5614991763
 11
-33.4319731682
 21
16.4956264647
  0
LINE
  5
2AD
100
AcDbEntity
  8
DRAFT
100
AcDbLine
 62
7
  6
CONTINUOUS
 10
-33.5380391854
 20
16.4408036848
 11
-33.6087498635
 21
16.4042551649
  0
LINE
  5
2AE
100
AcDbEntity
  8
DRAFT
100
AcDbLine
 62
7
  6
CONTINUOUS
 10
-33.891592576
 20
16.2580610852
 11
-33.9623032541
 21
16.2215125653
  0
LINE
  5
2AF
100
AcDbEntity
  8
DRAFT
100
AcDbLine
 62
7
  6
CONTINUOUS
 10
-33.7148158807
 20
16.349432385
 11
-33.7855265588
 21
16.3128838651
  0
LINE
  5
2B0
100
AcDbEntity
  8
DRAFT
100
AcDbLine
 62
7
  6
CONTINUOUS
 10
-34.0683692713
 20
16.1666897854
 11
-34.1390799494
 21
16.1301412654
  0
LWPOLYLINE
  5
2B1
100
AcDbEntity
  8
0
100
AcDbPolyline
 62
250
  6
CONTINUOUS
 90
10
 70
0
 10
-35.1003293325
 20
17.897460376
 10
-35.2006229934
 20
17.8541812614
 10
-35.3138999264
 20
17.8272398827
 10
-35.4343573477
 20
17.8174032181
 10
-35.5563815984
 20
17.8248230446
 10
-35.6722971486
 20
17.8492236304
 10
-35.7735422658
 20
17.8886651702
 10
-35.8542550531
 20
17.9403562181
 10
-35.9107287283
 20
18.0020251273
 10
-35.9398419811
 20
18.0709503875
  0
LWPOLYLINE
  5
2B2
100
AcDbEntity
  8
0
100
AcDbPolyline
 62
7
  6
CONTINUOUS
 90
4
 70
0
 10
37.4972312087
 20
-38.9273687293
 10
37.5759663783
 20
-38.9401009396
 10
37.6599125844
 20
-38.9447066774
 10
37.7461715817
 20
-38.9394761921
  0
LWPOLYLINE
  5
2B3
100
AcDbEntity
  8
0
100
AcDbPolyline
 62
250
  6
CONTINUOUS
 90
4
 70
0
 10
-40.0678960996
 20
6.900377135
 10
-40.067157316
 20
6.8990648876
 10
-40.0592209923
 20
6.9001716419
 10
-40.0424599494
 20
6.9078036358
  0
LWPOLYLINE
  5
2B4
100
AcDbEntity
  8
0
100
AcDbPolyline
 62
250
  6
CONTINUOUS
 90
3
 70
0
 10
-35.9408809769
 20
9.0069443158
 10
-35.9107429315
 20
8.9337600494
 10
-35.8527969872
 20
8.871192619
  0
LWPOLYLINE
  5
2B5
100
AcDbEntity
  8
0
100
AcDbPolyline
 62
7
  6
CONTINUOUS
 90
8
 70
0
 10
-35.8965154665
 20
8.6986511263
 10
-35.8545551858
 20
8.5610791455
 10
-35.7946984537
 20
8.4164337115
 10
-35.7147233508
 20
8.2720826512
 10
-35.6226727097
 20
8.1437576319
 10
-35.5248844401
 20
8.0327255195
 10
-35.419152082
 20
7.9322148314
 10
-35.3071050895
 20
7.8435431947
  0
LWPOLYLINE
  5
2B6
100
AcDbEntity
  8
0
100
AcDbPolyline
 62
7
  6
CONTINUOUS
 90
3
 70
0
 10
-34.1704946131
 20
9.2654584221
 10
-34.1802709564
 20
9.3015443447
 10
-34.1848175605
 20
9.3413646729
  0
LWPOLYLINE
  5
2B7
100
AcDbEntity
  8
0
100
AcDbPolyline
 62
250
  6
CONTINUOUS
 90
10
 70
0
 10
-35.9400196855
 20
18.0709371751
 10
-35.9532673541
 20
18.1217177362
 10
-35.972499226
 20
18.1721107495
 10
-35.9976425801
 20
18.2218970018
 10
-36.0287314813
 20
18.2710099502
 10
-36.0656096722
 20
18.3190496027
 10
-36.1077492351
 20
18.3653288167
 10
-36.1547412118
 20
18.4095124234
 10
-36.2064767951
 20
18.4515707381
 10
-36.2627230654
 20
18.4913259805
  0
LINE
  5
2B8
100
AcDbEntity
  8
0
100
AcDbLine
 62
250
  6
CONTINUOUS
 10
-35.9537626527
 20
27.2096143218
 11
-35.940006773
 21
27.1344310737
  0
LINE
  5
2B9
100
AcDbEntity
  8
RACCORDO
100
AcDbLine
 62
250
  6
CONTINUOUS
 10
-27.3687746394
 20
5.9697424546
 11
-27.3687746394
 21
6.2804714506
  0
LINE
  5
2BA
100
AcDbEntity
  8
RACCORDO
100
AcDbLine
 62
7
  6
CONTINUOUS
 10
-27.3430891219
 20
6.0183945571
 11
-27.3430891219
 21
6.3191062132
  0
LWPOLYLINE
  5
2BB
100
AcDbEntity
  8
0
100
AcDbPolyline
 62
250
  6
CONTINUOUS
 90
10
 70
0
 10
-27.1762907398
 20
23.7366997899
 10
-27.1591733701
 20
24.0118827424
 10
-27.1382489181
 20
24.2949572694
 10
-27.1138556674
 20
24.5834126473
 10
-27.0865157342
 20
24.8729167941
 10
-27.0564422107
 20
25.1626093622
 10
-27.0233923842
 20
25.4549571802
 10
-26.9874342739
 20
25.7484602623
 10
-26.9490967575
 20
26.0377738849
 10
-26.9087771994
 20
26.3188818315
  0
LINE
  5
2BC
100
AcDbEntity
  8
0
100
AcDbLine
 62
250
  6
CONTINUOUS
 10
-27.1827889803
 20
23.6579068367
 11
-27.1762953652
 21
23.7367015203
  0
LINE
  5
2BD
100
AcDbEntity
  8
DRAFT
100
AcDbLine
 62
7
  6
CONTINUOUS
 10
-28.0423302894
 20
5.7873160956
 11
-27.992076623
 21
5.8807767182
  0
LINE
  5
2BE
100
AcDbEntity
  8
DRAFT
100
AcDbLine
 62
7
  6
CONTINUOUS
 10
-27.8748180681
 20
5.8947339351
 11
-27.8245644017
 21
5.9881945577
  0
LINE
  5
2BF
100
AcDbEntity
  8
DRAFT
100
AcDbLine
 62
7
  6
CONTINUOUS
 10
-27.7073058468
 20
6.0021517746
 11
-27.6570521805
 21
6.0956123973
  0
LINE
  5
2C0
100
AcDbEntity
  8
DRAFT
100
AcDbLine
 62
7
  6
CONTINUOUS
 10
-27.5397936256
 20
6.1095696142
 11
-27.4895399592
 21
6.2030302368
  0
LINE
  5
2C1
100
AcDbEntity
  8
DRAFT
100
AcDbLine
 62
7
  6
CONTINUOUS
 10
-29.858186317
 20
7.2440432012
 11
-29.8023739662
 21
7.3342943091
  0
LINE
  5
2C2
100
AcDbEntity
  8
DRAFT
100
AcDbLine
 62
7
  6
CONTINUOUS
 10
-29.6721451477
 20
7.3407626584
 11
-29.6163327969
 21
7.4310137663
  0
LINE
  5
2C3
100
AcDbEntity
  8
0
100
AcDbLine
 62
250
  6
CONTINUOUS
 10
-36.3680576273
 20
6.463179467
 11
-36.1153776492
 21
6.6697038292
  0
LWPOLYLINE
  5
2C4
100
AcDbEntity
  8
0
100
AcDbPolyline
 62
250
  6
CONTINUOUS
 90
3
 70
0
 10
-36.1153776492
 20
6.6697038292
 10
-35.8606875548
 20
6.8743140815
 10
-35.7856700146
 20
6.9339240905
  0
LINE
  5
2C5
100
AcDbEntity
  8
0
100
AcDbLine
 62
7
  6
CONTINUOUS
 10
-35.7856700146
 20
6.9339240905
 11
-35.6018696108
 21
7.0787709719
  0
LWPOLYLINE
  5
2C6
100
AcDbEntity
  8
0
100
AcDbPolyline
 62
7
  6
CONTINUOUS
 90
3
 70
0
 10
-35.6018696108
 20
7.0787709719
 10
-35.3367063002
 20
7.2849162339
 10
-35.2632428692
 20
7.3414835586
  0
LINE
  5
2C7
100
AcDbEntity
  8
0
100
AcDbLine
 62
250
  6
CONTINUOUS
 10
-35.2632428692
 20
7.3414835586
 11
-35.2010548135
 21
7.389196239
  0
LWPOLYLINE
  5
2C8
100
AcDbEntity
  8
0
100
AcDbPolyline
 62
250
  6
CONTINUOUS
 90
6
 70
0
 10
-37.2623145761
 20
5.7430376122
 10
-37.1359118969
 20
5.8384991954
 10
-37.0096338098
 20
5.9370735318
 10
-36.8832031753
 20
6.0383369272
 10
-36.7559854306
 20
6.1421493701
 10
-36.3680576273
 20
6.463179467
  0
LWPOLYLINE
  5
2C9
100
AcDbEntity
  8
0
100
AcDbPolyline
 62
250
  6
CONTINUOUS
 90
10
 70
0
 10
-36.3926578754
 20
4.75731875
 10
-36.2831527401
 20
4.8392733429
 10
-36.1750722294
 20
4.925444461
 10
-36.0679519295
 20
5.0159678833
 10
-35.9610699472
 20
5.1112053516
 10
-35.8541819453
 20
5.2110936743
 10
-35.7475163369
 20
5.3150467174
 10
-35.6408170183
 20
5.422865346
 10
-35.5333479436
 20
5.5348354729
 10
-35.4246249946
 20
5.6510084201
  0
LINE
  5
2CA
100
AcDbEntity
  8
0
100
AcDbLine
 62
250
  6
CONTINUOUS
 10
-34.9773187279
 20
8.6200073994
 11
-35.0664016147
 21
8.5548994528
  0
LWPOLYLINE
  5
2CB
100
AcDbEntity
  8
0
100
AcDbPolyline
 62
250
  6
CONTINUOUS
 90
5
 70
0
 10
-40.0173426067
 20
7.4856347108
 10
-39.9097111661
 20
7.5612316577
 10
-39.8006881484
 20
7.6359291326
 10
-39.6902713136
 20
7.7097285618
 10
-39.578451255
 20
7.7826359875
  0
LWPOLYLINE
  5
2CC
100
AcDbEntity
  8
0
100
AcDbPolyline
 62
250
  6
CONTINUOUS
 90
3
 70
0
 10
-37.2844488294
 20
6.7648725034
 10
-37.142223861
 20
6.8645354826
 10
-36.9999266124
 20
6.9630412876
  0
LWPOLYLINE
  5
2CD
100
AcDbEntity
  8
0
100
AcDbPolyline
 62
250
  6
CONTINUOUS
 90
3
 70
0
 10
-37.5153175515
 20
5.5640178955
 10
-37.3887537488
 20
5.6513709454
 10
-37.2623145761
 20
5.7430376122
  0
LWPOLYLINE
  5
2CE
100
AcDbEntity
  8
0
100
AcDbPolyline
 62
250
  6
CONTINUOUS
 90
4
 70
0
 10
-39.37656788
 20
5.414455035
 10
-39.3717332951
 20
5.4177603506
 10
-39.3562601661
 20
5.4265124334
 10
-39.3294922917
 20
5.440779505
  0
LWPOLYLINE
  5
2CF
100
AcDbEntity
  8
0
100
AcDbPolyline
 62
250
  6
CONTINUOUS
 90
5
 70
0
 10
-38.1353994166
 20
6.1708877327
 10
-37.9930925315
 20
6.267673754
 10
-37.8507625754
 20
6.3660831415
 10
-37.7085688533
 20
6.4655710296
 10
-37.2844488294
 20
6.7648725034
  0
LINE
  5
2D0
100
AcDbEntity
  8
0
100
AcDbLine
 62
250
  6
CONTINUOUS
 10
-36.9999266124
 20
6.9630412876
 11
-36.8577873889
 21
7.0596618946
  0
LWPOLYLINE
  5
2D1
100
AcDbEntity
  8
0
100
AcDbPolyline
 62
250
  6
CONTINUOUS
 90
9
 70
0
 10
-36.8577859399
 20
7.0596598352
 10
-36.7248018174
 20
7.1482522386
 10
-36.5933830532
 20
7.2341854505
 10
-36.4628620409
 20
7.3178781648
 10
-36.3325786259
 20
7.3997455871
 10
-36.2017778864
 20
7.4802638948
 10
-36.0696094986
 20
7.5599663382
 10
-35.9352596029
 20
7.6393622369
 10
-35.7979504755
 20
7.7189415262
  0
LWPOLYLINE
  5
2D2
100
AcDbEntity
  8
0
100
AcDbPolyline
 62
250
  6
CONTINUOUS
 90
6
 70
0
 10
-39.578451255
 20
7.7826359875
 10
-39.4652326865
 20
7.8546480956
 10
-39.3506346335
 20
7.9257524635
 10
-39.2346615995
 20
7.9959458979
 10
-39.1173033759
 20
8.0652341869
 10
-38.9985570076
 20
8.1336185624
  0
LINE
  5
2D3
100
AcDbEntity
  8
0
100
AcDbLine
 62
250
  6
CONTINUOUS
 10
-40.0423983894
 20
6.8497200595
 11
-40.0168912834
 21
6.8651042645
  0
LINE
  5
2D4
100
AcDbEntity
  8
0
100
AcDbLine
 62
250
  6
CONTINUOUS
 10
-40.0424599494
 20
6.9078036358
 11
-40.0167591655
 21
6.9225967601
  0
LWPOLYLINE
  5
2D5
100
AcDbEntity
  8
0
100
AcDbPolyline
 62
250
  6
CONTINUOUS
 90
9
 70
0
 10
-38.9985632029
 20
8.1336526749
 10
-38.8578832119
 20
8.2123703037
 10
-38.7149473645
 20
8.289777672
 10
-38.5701654755
 20
8.3655911433
 10
-38.4242930373
 20
8.4393579536
 10
-38.2773734512
 20
8.5109946415
 10
-38.1287025318
 20
8.5807391804
 10
-37.9782715268
 20
8.6484427386
 10
-37.8268027915
 20
8.7136174051
  0
LWPOLYLINE
  5
2D6
100
AcDbEntity
  8
0
100
AcDbPolyline
 62
250
  6
CONTINUOUS
 90
10
 70
0
 10
-39.1359087762
 20
9.5108420562
 10
-39.241958015
 20
9.4553581176
 10
-39.3456281764
 20
9.3987533343
 10
-39.4470528494
 20
9.340972545
 10
-39.5463080643
 20
9.2819956183
 10
-39.6435886308
 20
9.2217329858
 10
-39.7391934692
 20
9.1600106263
 10
-39.8332969868
 20
9.0967113871
 10
-39.9259638372
 20
9.0317901801
 10
-40.0173174261
 20
8.9651649126
  0
LWPOLYLINE
  5
2D7
100
AcDbEntity
  8
RACCORDO
100
AcDbPolyline
 62
7
  6
CONTINUOUS
 90
6
 70
0
 10
-33.5771434092
 20
16.7148539062
 10
-33.5635240849
 20
16.7206592255
 10
-33.5494540932
 20
16.7228417513
 10
-33.5355111114
 20
16.7215014894
 10
-33.5223427973
 20
16.7167971196
 10
-33.5186509578
 20
16.7148001043
  0
LWPOLYLINE
  5
2D8
100
AcDbEntity
  8
0
100
AcDbPolyline
 62
250
  6
CONTINUOUS
 90
7
 70
0
 10
31.3855127872
 20
-29.8664716458
 10
31.2625893184
 20
-29.8512801121
 10
31.1555626677
 20
-29.8185944337
 10
31.0673107846
 20
-29.7708119616
 10
31.0002299366
 20
-29.7098055397
 10
30.9590479995
 20
-29.6402946953
 10
30.9471375295
 20
-29.5777522109
  0
LWPOLYLINE
  5
2D9
100
AcDbEntity
  8
0
100
AcDbPolyline
 62
250
  6
CONTINUOUS
 90
7
 70
0
 10
-39.6236035484
 20
5.7141603146
 10
-39.5753220273
 20
5.6572864546
 10
-39.526313709
 20
5.6049271351
 10
-39.4768804533
 20
5.5570683411
 10
-39.4273728835
 20
5.5137581443
 10
-39.3781292305
 20
5.4750459576
 10
-39.3294127456
 20
5.4408518675
  0
LINE
  5
2DA
100
AcDbEntity
  8
0
100
AcDbLine
 62
7
  6
CONTINUOUS
 10
-39.7091719572
 20
5.8198100017
 11
-39.6236035484
 21
5.7141603146
  0
LWPOLYLINE
  5
2DB
100
AcDbEntity
  8
0
100
AcDbPolyline
 62
250
  6
CONTINUOUS
 90
4
 70
0
 10
-40.0674831366
 20
6.8402828712
 10
-40.0667994425
 20
6.8394050828
 10
-40.0590012392
 20
6.8413452993
 10
-40.0423983894
 20
6.8497200595
  0
LWPOLYLINE
  5
2DC
100
AcDbEntity
  8
0
100
AcDbPolyline
 62
250
  6
CONTINUOUS
 90
10
 70
0
 10
-36.85776684
 20
7.0596331025
 10
-36.8079838911
 20
6.9908800463
 10
-36.7570382453
 20
6.9227332834
 10
-36.7049023791
 20
6.8551590177
 10
-36.651553629
 20
6.7881364941
 10
-36.5970225695
 20
6.7217095509
 10
-36.5413797862
 20
6.6559682338
 10
-36.4846597197
 20
6.5909539243
 10
-36.4268768205
 20
6.5266814953
 10
-36.3680576273
 20
6.463179467
  0
LWPOLYLINE
  5
2DD
100
AcDbEntity
  8
0
100
AcDbPolyline
 62
250
  6
CONTINUOUS
 90
10
 70
0
 10
-36.8577873889
 20
7.0596618946
 10
-36.9746558585
 20
7.2303963799
 10
-37.0860720664
 20
7.4073139788
 10
-37.1911977943
 20
7.5898049558
 10
-37.2889842959
 20
7.7762566423
 10
-37.3796002865
 20
7.9665613315
 10
-37.4637437478
 20
8.1620889328
 10
-37.541314229
 20
8.3628894518
 10
-37.6117295054
 20
8.5678544409
 10
-37.6746659855
 20
8.7759373205
  0
LINE
  5
2DE
100
AcDbEntity
  8
0
100
AcDbLine
 62
250
  6
CONTINUOUS
 10
-35.9537626524
 20
9.0369725636
 11
-35.9400067727
 21
9.0074452888
  0
LWPOLYLINE
  5
2DF
100
AcDbEntity
  8
0
100
AcDbPolyline
 62
250
  6
CONTINUOUS
 90
5
 70
0
 10
-40.0179881803
 20
36.5884306674
 10
-40.0442036313
 20
36.6659486995
 10
-40.0615578685
 20
36.7415117358
 10
-40.0701735498
 20
36.8151706556
 10
-40.0711857757
 20
36.8497032068
  0
LINE
  5
2E0
100
AcDbEntity
  8
0
100
AcDbLine
 62
250
  6
CONTINUOUS
 10
-26.5193320179
 20
-1.1817092366
 11
-26.5552395376
 21
-1.0564998986
  0
LWPOLYLINE
  5
2E1
100
AcDbEntity
  8
0
100
AcDbPolyline
 62
250
  6
CONTINUOUS
 90
10
 70
0
 10
-26.5552256217
 20
-1.0564857303
 10
-26.602400247
 20
-0.8870907475
 10
-26.6469582294
 20
-0.7205382375
 10
-26.6892612503
 20
-0.5549286361
 10
-26.7297595105
 20
-0.3880776053
 10
-26.7686234403
 20
-0.2190117906
 10
-26.8057660449
 20
-0.0481580121
 10
-26.8413151372
 20
0.1246942612
 10
-26.8755956332
 20
0.3006163742
 10
-26.9087772052
 20
0.4799140248
  0
LWPOLYLINE
  5
2E2
100
AcDbEntity
  8
0
100
AcDbPolyline
 62
250
  6
CONTINUOUS
 90
10
 70
0
 10
-26.9087700233
 20
0.4798707227
 10
-26.9490626613
 20
0.7142513144
 10
-26.9873835943
 20
0.9591644877
 10
-27.0233350797
 20
1.2110642214
 10
-27.0563887924
 20
1.4652366588
 10
-27.0864734362
 20
1.7202523921
 10
-27.1138258975
 20
1.9782598253
 10
-27.1382308647
 20
2.2386292136
 10
-27.1591663992
 20
2.4976410557
 10
-27.1762928167
 20
2.7531711401
  0
LWPOLYLINE
  5
2E3
100
AcDbEntity
  8
RACCORDO
100
AcDbPolyline
 62
7
  6
CONTINUOUS
 90
6
 70
0
 10
-27.3430891372
 20
6.3191380871
 10
-27.3438355375
 20
6.3255617088
 10
-27.3469629523
 20
6.3350211686
 10
-27.3527564879
 20
6.3437687637
 10
-27.3612283184
 20
6.3520729316
 10
-27.3723784438
 20
6.3599336725
  0
LWPOLYLINE
  5
2E4
100
AcDbEntity
  8
0
100
AcDbPolyline
 62
250
  6
CONTINUOUS
 90
3
 70
0
 10
-19.231810102
 20
19.0682522044
 10
-19.2466377154
 20
18.9906160693
 10
-19.2673472738
 20
18.9118968147
  0
LWPOLYLINE
  5
2E5
100
AcDbEntity
  8
0
100
AcDbPolyline
 62
250
  6
CONTINUOUS
 90
7
 70
0
 10
-19.2673472738
 20
18.9118968147
 10
-19.2940280693
 20
18.8322387464
 10
-19.3265985849
 20
18.7521517024
 10
-19.3647108158
 20
18.6725252996
 10
-19.4081456393
 20
18.5939052017
 10
-19.4569084054
 20
18.5164791952
 10
-19.5109015829
 20
18.4406133617
  0
LWPOLYLINE
  5
2E6
100
AcDbEntity
  8
0
100
AcDbPolyline
 62
250
  6
CONTINUOUS
 90
7
 70
0
 10
-19.5110360107
 20
18.4406634254
 10
-19.5534968064
 20
18.3263824131
 10
-19.5762514987
 20
18.2165826559
 10
-19.5788260187
 20
18.1162475797
 10
-19.5618317184
 20
18.0299386873
 10
-19.5257035791
 20
17.9630483442
 10
-19.4804441354
 20
17.9242822855
  0
LWPOLYLINE
  5
2E7
100
AcDbEntity
  8
RACCORDO
100
AcDbPolyline
 62
7
  6
CONTINUOUS
 90
6
 70
0
 10
-27.3687746394
 20
5.9697424546
 10
-27.358455366
 20
5.9786315428
 10
-27.3506400185
 20
5.9891603654
 10
-27.3455247021
 20
6.0010657591
 10
-27.343224044
 20
6.014183818
 10
-27.3430891222
 20
6.0184106484
  0
LWPOLYLINE
  5
2E8
100
AcDbEntity
  8
0
100
AcDbPolyline
 62
250
  6
CONTINUOUS
 90
4
 70
0
 10
-37.5153175515
 20
5.5640178955
 10
-37.6291990213
 20
5.4895425371
 10
-37.7445367138
 20
5.4180381827
 10
-37.8612754106
 20
5.3495492529
  0
LWPOLYLINE
  5
2E9
100
AcDbEntity
  8
0
100
AcDbPolyline
 62
250
  6
CONTINUOUS
 90
5
 70
0
 10
-38.6634356521
 20
5.8303500676
 10
-38.5299988551
 20
5.9136733813
 10
-38.3972455624
 20
5.9983627248
 10
-38.2655807876
 20
6.0841793893
 10
-38.1354009065
 20
6.1708894649
  0
LINE
  5
2EA
100
AcDbEntity
  8
0
100
AcDbLine
 62
250
  6
CONTINUOUS
 10
-38.7972064336
 20
5.7485960111
 11
-38.6634356521
 21
5.8303500676
  0
LINE
  5
2EB
100
AcDbEntity
  8
0
100
AcDbLine
 62
7
  6
CONTINUOUS
 10
-34.3485949544
 20
8.9972198393
 11
-34.2140186955
 21
9.077886293
  0
LINE
  5
2EC
100
AcDbEntity
  8
0
100
AcDbLine
 62
7
  6
CONTINUOUS
 10
-34.2140186955
 20
9.077886293
 11
-34.0792797512
 21
9.1585672809
  0
LINE
  5
2ED
100
AcDbEntity
  8
0
100
AcDbLine
 62
250
  6
CONTINUOUS
 10
-38.9310200233
 20
5.6685783219
 11
-38.7972064336
 21
5.7485960111
  0
LINE
  5
2EE
100
AcDbEntity
  8
0
100
AcDbLine
 62
7
  6
CONTINUOUS
 10
-34.6850588241
 20
8.796043458
 11
-34.3485949544
 21
8.9972198393
  0
LINE
  5
2EF
100
AcDbEntity
  8
0
100
AcDbLine
 62
7
  6
CONTINUOUS
 10
-34.9821062549
 20
8.622771914
 11
-34.784680884
 21
8.7385438971
  0
LINE
  5
2F0
100
AcDbEntity
  8
0
100
AcDbLine
 62
7
  6
CONTINUOUS
 10
-34.784680884
 20
8.7385438971
 11
-34.6850588241
 21
8.796043458
  0
LINE
  5
2F1
100
AcDbEntity
  8
0
100
AcDbLine
 62
250
  6
CONTINUOUS
 10
-35.7979504755
 20
7.7189415262
 11
-35.656838034
 21
7.7992363754
  0
LINE
  5
2F2
100
AcDbEntity
  8
0
100
AcDbLine
 62
7
  6
CONTINUOUS
 10
-34.8572787349
 20
8.9670314206
 11
-34.9384485562
 21
8.9212666047
  0
LWPOLYLINE
  5
2F3
100
AcDbEntity
  8
0
100
AcDbPolyline
 62
250
  6
CONTINUOUS
 90
4
 70
0
 10
-39.3294127456
 20
5.4408518675
 10
-39.1974604225
 20
5.5145112748
 10
-39.0645558004
 20
5.5904819785
 10
-38.9310200233
 20
5.6685783219
  0
LINE
  5
2F4
100
AcDbEntity
  8
0
100
AcDbLine
 62
7
  6
CONTINUOUS
 10
-34.1848175605
 20
9.3413641281
 11
-34.8572787349
 21
8.9670314206
  0
LINE
  5
2F5
100
AcDbEntity
  8
0
100
AcDbLine
 62
7
  6
CONTINUOUS
 10
-34.9384485562
 20
8.9212666047
 11
-35.0194227689
 21
8.8761172789
  0
LWPOLYLINE
  5
2F6
100
AcDbEntity
  8
0
100
AcDbPolyline
 62
250
  6
CONTINUOUS
 90
7
 70
0
 10
-37.8612754106
 20
5.3495492529
 10
-37.9794524491
 20
5.2840704064
 10
-38.0989211735
 20
5.2217012734
 10
-38.2193417208
 20
5.1626216764
 10
-38.3405548835
 20
5.1068963715
 10
-38.4625913192
 20
5.0544998306
 10
-38.5853885471
 20
5.0054536213
  0
LINE
  5
2F7
100
AcDbEntity
  8
0
100
AcDbLine
 62
7
  6
CONTINUOUS
 10
-35.0194227689
 20
8.8761172789
 11
-35.1002148352
 21
8.8315502603
  0
LINE
  5
2F8
100
AcDbEntity
  8
0
100
AcDbLine
 62
250
  6
CONTINUOUS
 10
-39.2392981664
 20
5.3531418484
 11
-39.2125650219
 21
5.3675634207
  0
LINE
  5
2F9
100
AcDbEntity
  8
0
100
AcDbLine
 62
250
  6
CONTINUOUS
 10
-35.1995188184
 20
8.7905226082
 11
-35.100187165
 21
8.8328877095
  0
LINE
  5
2FA
100
AcDbEntity
  8
0
100
AcDbLine
 62
250
  6
CONTINUOUS
 10
-37.8268027915
 20
8.7136174051
 11
-37.6746670969
 21
8.7759412562
  0
LINE
  5
2FB
100
AcDbEntity
  8
0
100
AcDbLine
 62
250
  6
CONTINUOUS
 10
-18.8026636381
 20
17.6971544375
 11
-18.8904493088
 21
17.6695712894
  0
LWPOLYLINE
  5
2FC
100
AcDbEntity
  8
0
100
AcDbPolyline
 62
250
  6
CONTINUOUS
 90
3
 70
0
 10
-18.5709219475
 20
17.7741436239
 10
-18.6430712375
 20
17.75178054
 10
-18.8026636381
 20
17.6971544375
  0
LWPOLYLINE
  5
2FD
100
AcDbEntity
  8
0
100
AcDbPolyline
 62
250
  6
CONTINUOUS
 90
4
 70
0
 10
37.1388880704
 20
-38.7145814033
 10
37.2798166458
 20
-38.7671414909
 10
37.4120692749
 20
-38.785275716
 10
37.5317811873
 20
-38.7691273331
  0
LWPOLYLINE
  5
2FE
100
AcDbEntity
  8
0
100
AcDbPolyline
 62
250
  6
CONTINUOUS
 90
3
 70
0
 10
-40.0713066349
 20
6.9683297445
 10
-40.0695191972
 20
6.9666918541
 10
-40.0625398097
 20
6.9676665538
  0
LWPOLYLINE
  5
2FF
100
AcDbEntity
  8
0
100
AcDbPolyline
 62
250
  6
CONTINUOUS
 90
10
 70
0
 10
-38.1354002428
 20
6.1708886857
 10
-38.0717276882
 20
6.099042156
 10
-38.0064000861
 20
6.0283310081
 10
-37.9395960982
 20
5.9587078752
 10
-37.8715975264
 20
5.8902487151
 10
-37.8025227626
 20
5.8229221052
 10
-37.7323303375
 20
5.756652463
 10
-37.6610307396
 20
5.6914129003
 10
-37.5886805051
 20
5.6272063505
 10
-37.5153175515
 20
5.5640178955
  0
LWPOLYLINE
  5
300
100
AcDbEntity
  8
0
100
AcDbPolyline
 62
7
  6
CONTINUOUS
 90
8
 70
0
 10
-35.656838034
 20
7.7992363754
 10
-35.7670462261
 20
7.9390417513
 10
-35.8691778537
 20
8.0884125256
 10
-35.9618273794
 20
8.245138606
 10
-36.0436047524
 20
8.4067966012
 10
-36.1134907519
 20
8.5712844158
 10
-36.1704968908
 20
8.7364935813
 10
-36.2143078116
 20
8.9015316243
  0
LINE
  5
301
100
AcDbEntity
  8
0
100
AcDbLine
 62
250
  6
CONTINUOUS
 10
-35.2997683848
 20
7.8740532182
 11
-35.2531052571
 21
7.8116684828
  0
LINE
  5
302
100
AcDbEntity
  8
0
100
AcDbLine
 62
250
  6
CONTINUOUS
 10
-35.2307545718
 20
7.7799297364
 11
-35.2539697354
 21
7.8111718489
  0
LINE
  5
303
100
AcDbEntity
  8
0
100
AcDbLine
 62
250
  6
CONTINUOUS
 10
-38.4629978327
 20
30.6648180662
 11
-38.6018866238
 21
30.9696521314
  0
LWPOLYLINE
  5
304
100
AcDbEntity
  8
0
100
AcDbPolyline
 62
250
  6
CONTINUOUS
 90
7
 70
0
 10
-38.1286842671
 20
31.4260031242
 10
-38.2773582196
 20
31.75612392
 10
-38.4242848673
 20
32.0881579111
 10
-38.5701640177
 20
32.4235495468
 10
-38.7149498244
 20
32.7621593018
 10
-38.8578868227
 20
33.1021993364
 10
-38.9985639208
 20
33.4426637228
  0
LWPOLYLINE
  5
305
100
AcDbEntity
  8
0
100
AcDbPolyline
 62
250
  6
CONTINUOUS
 90
5
 70
0
 10
-38.6018866238
 20
30.9696521314
 10
-38.7384786741
 20
31.2780121439
 10
-38.8728715374
 20
31.58979332
 10
-39.0052890108
 20
31.905149998
 10
-39.1359107317
 20
32.2241080663
  0
LWPOLYLINE
  5
306
100
AcDbEntity
  8
0
100
AcDbPolyline
 62
250
  6
CONTINUOUS
 90
9
 70
0
 10
-35.9408809769
 20
27.1339282042
 10
-35.9109518541
 20
27.0626471017
 10
-35.8533223014
 20
27.0006709841
 10
-35.7716981345
 20
26.9496875779
 10
-35.6688923163
 20
26.9113951088
 10
-35.5510504599
 20
26.8881524509
 10
-35.429016076
 20
26.8814901767
 10
-35.3106453204
 20
26.8915651997
 10
-35.199532765
 20
26.9185140153
  0
LWPOLYLINE
  5
307
100
AcDbEntity
  8
0
100
AcDbPolyline
 62
250
  6
CONTINUOUS
 90
10
 70
0
 10
-36.8577790454
 20
31.2280035456
 10
-36.7247949682
 20
30.9096048284
 10
-36.5933805537
 20
30.5984714721
 10
-36.462866226
 20
30.2930554993
 10
-36.332589784
 20
29.9918233349
 10
-36.2017941604
 20
29.6930189066
 10
-36.0696267792
 20
29.3946714711
 10
-35.9352714377
 20
29.0948965212
 10
-35.7979479845
 20
28.7918856345
 10
-35.6568097972
 20
28.4836754569
  0
LINE
  5
308
100
AcDbEntity
  8
0
100
AcDbLine
 62
250
  6
CONTINUOUS
 10
-39.3326192193
 20
37.3456407553
 11
-39.0651732186
 21
36.6997750767
  0
LWPOLYLINE
  5
309
100
AcDbEntity
  8
0
100
AcDbPolyline
 62
250
  6
CONTINUOUS
 90
4
 70
0
 10
-36.8577867351
 20
31.2280016327
 10
-37.0001429022
 20
31.5730823149
 10
-37.1426031315
 20
31.9225681049
 10
-37.2849335313
 20
32.2750209757
  0
LINE
  5
30A
100
AcDbEntity
  8
0
100
AcDbLine
 62
250
  6
CONTINUOUS
 10
-39.0651732186
 20
36.6997750767
 11
-38.79682122
 21
36.0458543795
  0
LWPOLYLINE
  5
30B
100
AcDbEntity
  8
0
100
AcDbPolyline
 62
250
  6
CONTINUOUS
 90
7
 70
0
 10
-35.602589061
 20
29.3289341217
 10
-35.7327255316
 20
29.6476725633
 10
-35.8614721414
 20
29.9666801022
 10
-35.9891148228
 20
30.2866611916
 10
-36.1159235988
 20
30.6082815662
 10
-36.2421529865
 20
30.9321676519
 10
-36.3680584998
 20
31.258948018
  0
LWPOLYLINE
  5
30C
100
AcDbEntity
  8
0
100
AcDbPolyline
 62
250
  6
CONTINUOUS
 90
10
 70
0
 10
-38.9985568542
 20
33.4426944776
 10
-39.1173404155
 20
33.7346150758
 10
-39.2346007836
 20
34.0267725484
 10
-39.3503607848
 20
34.3192503666
 10
-39.4644875063
 20
34.6117297483
 10
-39.5771605597
 20
34.9046814833
 10
-39.6888036572
 20
35.1991263221
 10
-39.7994635077
 20
35.4950150654
 10
-39.9089491513
 20
35.7919073877
 10
-40.0173843428
 20
36.0907667577
  0
LINE
  5
30D
100
AcDbEntity
  8
0
100
AcDbLine
 62
250
  6
CONTINUOUS
 10
-38.79682122
 20
36.0458543795
 11
-38.5298658567
 21
35.3895155813
  0
LINE
  5
30E
100
AcDbEntity
  8
0
100
AcDbLine
 62
250
  6
CONTINUOUS
 10
-38.5298658567
 20
35.3895155813
 11
-38.2655289523
 21
34.7337437225
  0
LWPOLYLINE
  5
30F
100
AcDbEntity
  8
0
100
AcDbPolyline
 62
250
  6
CONTINUOUS
 90
10
 70
0
 10
-39.1359107402
 20
32.2241078687
 10
-39.2420010265
 20
32.4886526748
 10
-39.3457059174
 20
32.7524675089
 10
-39.4471575682
 20
33.0158751862
 10
-39.5464302412
 20
33.2790433089
 10
-39.6437174576
 20
33.5424525736
 10
-39.7393181408
 20
33.8068994307
 10
-39.8334070373
 20
34.0728745384
 10
-39.926048636
 20
34.3405601074
 10
-40.0173663581
 20
34.6102992599
  0
LINE
  5
310
100
AcDbEntity
  8
0
100
AcDbLine
 62
250
  6
CONTINUOUS
 10
-37.2849335313
 20
32.2750209757
 11
-37.5675525857
 21
32.9815332166
  0
LINE
  5
311
100
AcDbEntity
  8
0
100
AcDbLine
 62
250
  6
CONTINUOUS
 10
-37.9932774938
 20
34.0521396346
 11
-38.2655289523
 21
34.7337437225
  0
LINE
  5
312
100
AcDbEntity
  8
0
100
AcDbLine
 62
250
  6
CONTINUOUS
 10
-37.5675525857
 20
32.9815332166
 11
-37.9932774938
 21
34.0521396346
  0
LWPOLYLINE
  5
313
100
AcDbEntity
  8
0
100
AcDbPolyline
 62
250
  6
CONTINUOUS
 90
10
 70
0
 10
-37.5153175446
 20
34.2994936681
 10
-37.6292104168
 20
34.5920746407
 10
-37.7445562849
 20
34.8847224843
 10
-37.8612999542
 20
35.1772874515
 10
-37.9794786979
 20
35.4698472859
 10
-38.0989459989
 20
35.7620219194
 10
-38.2193623462
 20
36.0529785891
 10
-38.340568701
 20
36.3423452857
 10
-38.4625956975
 20
36.6302056281
 10
-38.585380937
 20
36.9164171411
  0
LINE
  5
314
100
AcDbEntity
  8
0
100
AcDbLine
 62
250
  6
CONTINUOUS
 10
-36.3680637937
 20
31.2589485004
 11
-36.4984311929
 21
31.6013059888
  0
LWPOLYLINE
  5
315
100
AcDbEntity
  8
0
100
AcDbPolyline
 62
250
  6
CONTINUOUS
 90
3
 70
0
 10
-37.2623285353
 20
33.637552029
 10
-37.3887548356
 20
33.9702166138
 10
-37.5152929973
 20
34.2994861524
  0
LINE
  5
316
100
AcDbEntity
  8
0
100
AcDbLine
 62
250
  6
CONTINUOUS
 10
-37.0096508436
 20
32.9651486363
 11
-37.2623285353
 21
33.637552029
  0
LWPOLYLINE
  5
317
100
AcDbEntity
  8
0
100
AcDbPolyline
 62
250
  6
CONTINUOUS
 90
3
 70
0
 10
-36.4984311929
 20
31.6013059888
 10
-36.7559938253
 20
32.2863157642
 10
-37.0096508436
 20
32.9651486363
  0
LWPOLYLINE
  5
318
100
AcDbEntity
  8
0
100
AcDbPolyline
 62
250
  6
CONTINUOUS
 90
4
 70
0
 10
-26.1990369991
 20
-2.1462787977
 10
-26.2428318529
 20
-2.0277115505
 10
-26.2854892926
 20
-1.9086895544
 10
-26.3270185534
 20
-1.7892313216
  0
LWPOLYLINE
  5
319
100
AcDbEntity
  8
0
100
AcDbPolyline
 62
250
  6
CONTINUOUS
 90
10
 70
0
 10
-38.9944642117
 20
37.152585748
 10
-39.0234606108
 20
37.2311349056
 10
-39.0422731059
 20
37.3093394615
 10
-39.0514951625
 20
37.3861560415
 10
-39.0508931883
 20
37.4604083346
 10
-39.0403384574
 20
37.5303497702
 10
-39.0200098657
 20
37.5937292887
 10
-38.9903695608
 20
37.6492345332
 10
-38.9516843651
 20
37.6962545855
 10
-38.9042840491
 20
37.7339943472
  0
LWPOLYLINE
  5
31A
100
AcDbEntity
  8
0
100
AcDbPolyline
 62
250
  6
CONTINUOUS
 90
5
 70
0
 10
-40.0172090845
 20
36.7105691351
 10
-40.0429766655
 20
36.7810952319
 10
-40.0605270995
 20
36.8537777452
 10
-40.0697984888
 20
36.9281631551
 10
-40.0713363166
 20
36.9811162655
  0
LWPOLYLINE
  5
31B
100
AcDbEntity
  8
0
100
AcDbPolyline
 62
250
  6
CONTINUOUS
 90
5
 70
0
 10
-36.3926596929
 20
33.8097581176
 10
-36.2831547627
 20
33.5034512112
 10
-36.1750743837
 20
33.1962002538
 10
-36.0679540113
 20
32.8873438212
 10
-35.961071617
 20
32.5754852169
  0
LWPOLYLINE
  5
31C
100
AcDbEntity
  8
0
100
AcDbPolyline
 62
250
  6
CONTINUOUS
 90
9
 70
0
 10
-39.2110163627
 20
37.2776379193
 10
-39.2386291657
 20
37.3550965678
 10
-39.2567792008
 20
37.4323085214
 10
-39.2652123885
 20
37.507656019
 10
-39.2637896328
 20
37.5799569959
 10
-39.2524101491
 20
37.6475473134
 10
-39.2315458171
 20
37.7085387374
 10
-39.2019768475
 20
37.7619226162
 10
-39.1641871229
 20
37.8072614909
  0
LINE
  5
31D
100
AcDbEntity
  8
0
100
AcDbLine
 62
250
  6
CONTINUOUS
 10
-34.3711411583
 20
27.8909242858
 11
-34.6044378393
 21
28.5676164167
  0
LINE
  5
31E
100
AcDbEntity
  8
0
100
AcDbLine
 62
250
  6
CONTINUOUS
 10
-34.6044378393
 20
28.5676164167
 11
-34.8402604912
 21
29.256103538
  0
LINE
  5
31F
100
AcDbEntity
  8
0
100
AcDbLine
 62
250
  6
CONTINUOUS
 10
-34.8402604912
 20
29.256103538
 11
-35.0761273829
 21
29.9491650552
  0
LINE
  5
320
100
AcDbEntity
  8
0
100
AcDbLine
 62
250
  6
CONTINUOUS
 10
-35.0761273829
 20
29.9491650552
 11
-35.3096397633
 21
30.6398351896
  0
LWPOLYLINE
  5
321
100
AcDbEntity
  8
0
100
AcDbPolyline
 62
250
  6
CONTINUOUS
 90
6
 70
0
 10
-26.3270185534
 20
-1.7892313216
 10
-26.36733599
 20
-1.6696352436
 10
-26.406548321
 20
-1.5496436071
 10
-26.4449306386
 20
-1.4284218394
 10
-26.4825589203
 20
-1.30568314
 10
-26.5193320179
 20
-1.1817092366
  0
LINE
  5
322
100
AcDbEntity
  8
0
100
AcDbLine
 62
250
  6
CONTINUOUS
 10
-35.961071617
 20
32.5754852169
 11
-35.7475156194
 21
31.9442642625
  0
LINE
  5
323
100
AcDbEntity
  8
0
100
AcDbLine
 62
250
  6
CONTINUOUS
 10
-35.7475156194
 20
31.9442642625
 11
-35.3096397633
 21
30.6398351896
  0
LWPOLYLINE
  5
324
100
AcDbEntity
  8
0
100
AcDbPolyline
 62
250
  6
CONTINUOUS
 90
10
 70
0
 10
-19.2224701961
 20
-1.8392556443
 10
-19.2270657157
 20
-1.7720929989
 10
-19.2389312018
 20
-1.7049733474
 10
-19.2581422057
 20
-1.6382348463
 10
-19.2855409685
 20
-1.5718361319
 10
-19.32041356
 20
-1.5065469937
 10
-19.3605276084
 20
-1.4439869688
 10
-19.4052104202
 20
-1.3850268595
 10
-19.4553106178
 20
-1.3297517208
 10
-19.5109017069
 20
-1.2786784483
  0
LWPOLYLINE
  5
325
100
AcDbEntity
  8
0
100
AcDbPolyline
 62
250
  6
CONTINUOUS
 90
4
 70
0
 10
-19.5807742616
 20
-1.0420819696
 10
-19.577732485
 20
-1.1371007349
 10
-19.554214043
 20
-1.2170240592
 10
-19.5100723246
 20
-1.2781642147
  0
LINE
  5
326
100
AcDbEntity
  8
0
100
AcDbLine
 62
7
  6
CONTINUOUS
 10
-19.2572146018
 20
-0.590394674
 11
-19.2572160619
 21
-0.5901049869
  0
LINE
  5
327
100
AcDbEntity
  8
RACCORDO
100
AcDbLine
 62
250
  6
CONTINUOUS
 10
-19.413823351
 20
1.585323491
 11
-19.413823351
 21
1.3766532797
  0
LINE
  5
328
100
AcDbEntity
  8
RACCORDO
100
AcDbLine
 62
7
  6
CONTINUOUS
 10
-19.3881378336
 20
1.6239582536
 11
-19.3881378336
 21
1.4253053821
  0
LINE
  5
329
100
AcDbEntity
  8
0
100
AcDbLine
 62
250
  6
CONTINUOUS
 10
-18.8179546835
 20
-0.8786172675
 11
-18.8179546835
 21
17.2483685199
  0
LINE
  5
32A
100
AcDbEntity
  8
0
100
AcDbLine
 62
250
  6
CONTINUOUS
 10
-18.1314194525
 20
17.0488602461
 11
-18.1314194525
 21
-1.0710537913
  0
LINE
  5
32B
100
AcDbEntity
  8
0
100
AcDbLine
 62
7
  6
CONTINUOUS
 10
-19.2572018772
 20
17.5349419986
 11
-19.2578422659
 21
-0.5905245697
  0
LWPOLYLINE
  5
32C
100
AcDbEntity
  8
0
100
AcDbPolyline
 62
7
  6
CONTINUOUS
 90
3
 70
0
 10
-19.2572160619
 20
-0.5901049869
 10
-19.2576977622
 20
-0.6099095522
 10
-19.2580350641
 20
-0.6148210218
  0
LWPOLYLINE
  5
32D
100
AcDbEntity
  8
0
100
AcDbPolyline
 62
250
  6
CONTINUOUS
 90
6
 70
0
 10
-18.8185480465
 20
-0.8788572135
 10
-18.8198178309
 20
-0.9232033824
 10
-18.8233172079
 20
-0.9656152016
 10
-18.8288919109
 20
-1.0060411659
 10
-18.8361796006
 20
-1.0443895268
 10
-18.8453632672
 20
-1.080729251
  0
LWPOLYLINE
  5
32E
100
AcDbEntity
  8
0
100
AcDbPolyline
 62
250
  6
CONTINUOUS
 90
10
 70
0
 10
-17.1000688509
 20
17.9188144325
 10
-17.0829559677
 20
18.1939437385
 10
-17.0620354485
 20
18.4769778402
 10
-17.0376453363
 20
18.7654060656
 10
-17.0103077238
 20
19.0548942814
 10
-16.9802354298
 20
19.3445831899
 10
-16.9471850379
 20
19.6369439537
 10
-16.9112241887
 20
19.9304767283
 10
-16.8728818988
 20
20.2198324638
 10
-16.8325556056
 20
20.5009914124
  0
LINE
  5
32F
100
AcDbEntity
  8
0
100
AcDbLine
 62
250
  6
CONTINUOUS
 10
-19.2228647479
 20
19.1444997559
 11
-19.231810102
 21
19.0682522044
  0
LWPOLYLINE
  5
330
100
AcDbEntity
  8
0
100
AcDbPolyline
 62
250
  6
CONTINUOUS
 90
3
 70
0
 10
-16.8325549468
 20
20.5009973397
 10
-16.7990070282
 20
20.720964833
 10
-16.7644340927
 20
20.9381717125
  0
LINE
  5
331
100
AcDbEntity
  8
0
100
AcDbLine
 62
250
  6
CONTINUOUS
 10
-16.7644340927
 20
20.9381717125
 11
-16.728662065
 21
21.1532104749
  0
LWPOLYLINE
  5
332
100
AcDbEntity
  8
0
100
AcDbPolyline
 62
250
  6
CONTINUOUS
 90
3
 70
0
 10
-16.728662065
 20
21.1532104749
 10
-16.6913399356
 20
21.3677383468
 10
-16.6523620805
 20
21.5820405386
  0
LINE
  5
333
100
AcDbEntity
  8
0
100
AcDbLine
 62
250
  6
CONTINUOUS
 10
-16.6523620805
 20
21.5820405386
 11
-16.611890686
 21
21.7952631497
  0
LWPOLYLINE
  5
334
100
AcDbEntity
  8
0
100
AcDbPolyline
 62
250
  6
CONTINUOUS
 90
3
 70
0
 10
-16.611890686
 20
21.7952631497
 10
-16.5697916782
 20
22.0084895735
 10
-16.5256085185
 20
22.2245398647
  0
LINE
  5
335
100
AcDbEntity
  8
0
100
AcDbLine
 62
250
  6
CONTINUOUS
 10
-16.5256085185
 20
22.2245398647
 11
-16.479003699
 21
22.4456680284
  0
LWPOLYLINE
  5
336
100
AcDbEntity
  8
RACCORDO
100
AcDbPolyline
 62
7
  6
CONTINUOUS
 90
6
 70
0
 10
-27.3687746394
 20
6.2804714506
 10
-27.3583523135
 20
6.2886583545
 10
-27.3506448056
 20
6.2972071447
 10
-27.3456521155
 20
6.3061178212
 10
-27.3433864175
 20
6.3156588219
 10
-27.3430891372
 20
6.3191380871
  0
LWPOLYLINE
  5
337
100
AcDbEntity
  8
0
100
AcDbPolyline
 62
250
  6
CONTINUOUS
 90
10
 70
0
 10
-27.1091386979
 20
4.0771586088
 10
-27.1961455722
 20
4.0125551136
 10
-27.2756757308
 20
3.9287483522
 10
-27.344222399
 20
3.830276144
 10
-27.398891108
 20
3.7218109258
 10
-27.4361284724
 20
3.6099856421
 10
-27.4533331373
 20
3.5030237174
 10
-27.4499495394
 20
3.4072906525
 10
-27.426048052
 20
3.3270701976
 10
-27.3823613485
 20
3.2663899947
  0
LINE
  5
338
100
AcDbEntity
  8
RACCORDO
100
AcDbLine
 62
7
  6
CONTINUOUS
 10
-27.3687746394
 20
6.2804714506
 11
-27.4895399592
 21
6.2030302368
  0
LINE
  5
339
100
AcDbEntity
  8
DRAFT
100
AcDbLine
 62
7
  6
CONTINUOUS
 10
-27.590047292
 20
6.1385795331
 11
-27.6570521805
 21
6.0956123973
  0
LINE
  5
33A
100
AcDbEntity
  8
DRAFT
100
AcDbLine
 62
7
  6
CONTINUOUS
 10
-27.7575595132
 20
6.0311616935
 11
-27.8245644017
 21
5.9881945577
  0
LINE
  5
33B
100
AcDbEntity
  8
DRAFT
100
AcDbLine
 62
7
  6
CONTINUOUS
 10
-27.9250717345
 20
5.923743854
 11
-27.992076623
 21
5.8807767182
  0
LINE
  5
33C
100
AcDbEntity
  8
DRAFT
100
AcDbLine
 62
7
  6
CONTINUOUS
 10
-28.0925839558
 20
5.8163260145
 11
-28.1595888443
 21
5.7733588787
  0
LINE
  5
33D
100
AcDbEntity
  8
0
100
AcDbLine
 62
7
  6
CONTINUOUS
 10
-27.3687746394
 20
5.9697424546
 11
-27.9625986285
 21
5.6268722606
  0
LINE
  5
33E
100
AcDbEntity
  8
RACCORDO
100
AcDbLine
 62
7
  6
CONTINUOUS
 10
-27.3722814043
 20
5.9677176709
 11
-27.461635754
 21
5.9161355608
  0
LINE
  5
33F
100
AcDbEntity
  8
RACCORDO
100
AcDbLine
 62
7
  6
CONTINUOUS
 10
-29.4822093213
 20
7.5007421484
 11
-29.6163327969
 21
7.4310137663
  0
LINE
  5
340
100
AcDbEntity
  8
DRAFT
100
AcDbLine
 62
7
  6
CONTINUOUS
 10
-29.7279574985
 20
7.372982092
 11
-29.8023739662
 21
7.3342943091
  0
LINE
  5
341
100
AcDbEntity
  8
DRAFT
100
AcDbLine
 62
7
  6
CONTINUOUS
 10
-29.9139986678
 20
7.2762626349
 11
-29.9884151355
 21
7.237574852
  0
LINE
  5
342
100
AcDbEntity
  8
DRAFT
100
AcDbLine
 62
7
  6
CONTINUOUS
 10
-30.2860810064
 20
7.0828237206
 11
-30.3604974742
 21
7.0441359377
  0
LINE
  5
343
100
AcDbEntity
  8
DRAFT
100
AcDbLine
 62
7
  6
CONTINUOUS
 10
-30.1000398371
 20
7.1795431777
 11
-30.1744563049
 21
7.1408553949
  0
LWPOLYLINE
  5
344
100
AcDbEntity
  8
0
100
AcDbPolyline
 62
250
  6
CONTINUOUS
 90
5
 70
0
 10
-38.9948250235
 20
5.2418724074
 10
-39.0231903142
 20
5.2283423335
 10
-39.0418231243
 20
5.2186368504
 10
-39.0509531033
 20
5.2131136631
 10
-39.0518715181
 20
5.2119694397
  0
LWPOLYLINE
  5
345
100
AcDbEntity
  8
0
100
AcDbPolyline
 62
250
  6
CONTINUOUS
 90
7
 70
0
 10
-40.0625398097
 20
6.9676665538
 10
-40.0576416032
 20
6.9692979407
 10
-40.0516807324
 20
6.9716978295
 10
-40.0446669615
 20
6.9748780233
 10
-40.0366103284
 20
6.9788512183
 10
-40.0275213217
 20
6.9836326199
 10
-40.0174106614
 20
6.9892379405
  0
LWPOLYLINE
  5
346
100
AcDbEntity
  8
0
100
AcDbPolyline
 62
250
  6
CONTINUOUS
 90
3
 70
0
 10
33.5633280093
 20
-12.3973830438
 10
33.3221841816
 20
-12.4599147611
 10
33.0793151233
 20
-12.5166642344
  0
LWPOLYLINE
  5
347
100
AcDbEntity
  8
0
100
AcDbPolyline
 62
250
  6
CONTINUOUS
 90
5
 70
0
 10
33.0793151233
 20
-12.5166642344
 10
32.8365435112
 20
-12.5672239213
 10
32.5947687449
 20
-12.6114874611
 10
32.3539415986
 20
-12.6495229129
 10
32.1144719154
 20
-12.681234589
  0
LWPOLYLINE
  5
348
100
AcDbEntity
  8
0
100
AcDbPolyline
 62
250
  6
CONTINUOUS
 90
3
 70
0
 10
14.7703662722
 20
-20.2339124991
 10
14.8904280311
 20
-20.2243577158
 10
15.0032648953
 20
-20.1979165878
  0
LWPOLYLINE
  5
349
100
AcDbEntity
  8
0
100
AcDbPolyline
 62
7
  6
CONTINUOUS
 90
5
 70
0
 10
37.2487399306
 20
-38.8364411626
 10
37.2964405974
 20
-38.8592395324
 10
37.3547461632
 20
-38.8841708264
 10
37.4221703781
 20
-38.9078399667
 10
37.4972312087
 20
-38.9273687293
  0
LWPOLYLINE
  5
34A
100
AcDbEntity
  8
SUPERFICI
100
AcDbPolyline
 62
7
  6
CONTINUOUS
 90
6
 70
0
 10
-39.3765487213
 20
5.4144346853
 10
-39.3616884515
 20
5.4037716867
 10
-39.3402288651
 20
5.3889277839
 10
-39.3192912902
 20
5.3748790629
 10
-39.2959186288
 20
5.3595373756
 10
-39.2636533365
 20
5.3387084801
  0
LINE
  5
34B
100
AcDbEntity
  8
0
100
AcDbLine
 62
7
  6
CONTINUOUS
 10
-35.6098534065
 20
7.7452704813
 11
-35.6568436715
 21
7.7992045888
  0
LWPOLYLINE
  5
34C
100
AcDbEntity
  8
0
100
AcDbPolyline
 62
250
  6
CONTINUOUS
 90
5
 70
0
 10
-40.0173337057
 20
21.7877429241
 10
-40.041387964
 20
21.8239883895
 10
-40.0569717628
 20
21.8611790438
 10
-40.064143893
 20
21.8988306352
 10
-40.064675704
 20
21.9131720025
  0
LINE
  5
34D
100
AcDbEntity
  8
0
100
AcDbLine
 62
250
  6
CONTINUOUS
 10
-37.55148306
 20
28.8673507025
 11
-37.7202009614
 21
29.1751789337
  0
LINE
  5
34E
100
AcDbEntity
  8
0
100
AcDbLine
 62
250
  6
CONTINUOUS
 10
-37.7202009614
 20
29.1751789337
 11
-37.8840719635
 21
29.4844815359
  0
LWPOLYLINE
  5
34F
100
AcDbEntity
  8
0
100
AcDbPolyline
 62
250
  6
CONTINUOUS
 90
5
 70
0
 10
-37.065093075
 20
29.2358976599
 10
-37.2189809607
 20
29.5351181748
 10
-37.3715921248
 20
29.8374995205
 10
-37.5233488159
 20
30.1438584444
 10
-37.674675327
 20
30.4550147011
  0
LWPOLYLINE
  5
350
100
AcDbEntity
  8
0
100
AcDbPolyline
 62
250
  6
CONTINUOUS
 90
5
 70
0
 10
-37.8840719635
 20
29.4844815359
 10
-38.0325133523
 20
29.7737923262
 10
-38.1784136026
 20
30.066914011
 10
-38.3218562523
 20
30.3638712465
 10
-38.4629978327
 20
30.6648180662
  0
LWPOLYLINE
  5
351
100
AcDbEntity
  8
0
100
AcDbPolyline
 62
250
  6
CONTINUOUS
 90
3
 70
0
 10
-37.6746657498
 20
30.4550375382
 10
-37.8267924121
 20
30.7740163271
 10
-37.9782553994
 20
31.0980224409
  0
LINE
  5
352
100
AcDbEntity
  8
0
100
AcDbLine
 62
250
  6
CONTINUOUS
 10
-37.9782553994
 20
31.0980224409
 11
-38.1286842671
 21
31.4260031242
  0
LWPOLYLINE
  5
353
100
AcDbEntity
  8
0
100
AcDbPolyline
 62
250
  6
CONTINUOUS
 90
3
 70
0
 10
-35.2010558139
 20
28.3674766584
 10
-35.337033058
 20
28.6895234975
 10
-35.4707827804
 20
29.0097758344
  0
LINE
  5
354
100
AcDbEntity
  8
0
100
AcDbLine
 62
250
  6
CONTINUOUS
 10
-35.4707827804
 20
29.0097758344
 11
-35.602589061
 21
29.3289341217
  0
LWPOLYLINE
  5
355
100
AcDbEntity
  8
0
100
AcDbPolyline
 62
250
  6
CONTINUOUS
 90
10
 70
0
 10
-37.3040844266
 20
36.1766138608
 10
-37.1979375418
 20
35.9164333971
 10
-37.0931076683
 20
35.6557993405
 10
-36.989552717
 20
35.3946050411
 10
-36.8872311881
 20
35.1327454149
 10
-36.7861010975
 20
34.8701142023
 10
-36.6861200135
 20
34.6066039284
 10
-36.5872464676
 20
34.342109566
 10
-36.4894399161
 20
34.0765285716
 10
-36.3926596929
 20
33.8097581176
  0
LWPOLYLINE
  5
356
100
AcDbEntity
  8
RACCORDO
100
AcDbPolyline
 62
7
  6
CONTINUOUS
 90
6
 70
0
 10
-19.3881378488
 20
1.6239901276
 10
-19.3888842491
 20
1.6304137492
 10
-19.392011664
 20
1.6398732091
 10
-19.3978051995
 20
1.6486208041
 10
-19.40627703
 20
1.6569249721
 10
-19.4174271555
 20
1.664785713
  0
LWPOLYLINE
  5
357
100
AcDbEntity
  8
0
100
AcDbPolyline
 62
250
  6
CONTINUOUS
 90
8
 70
0
 10
-17.100068858
 20
-3.0647057499
 10
-17.0829559761
 20
-3.3200735319
 10
-17.0620354578
 20
-3.5789491496
 10
-17.037645346
 20
-3.8392122943
 10
-17.0103077334
 20
-4.0971317315
 10
-16.9802354388
 20
-4.3520939218
 10
-16.9471850457
 20
-4.606288937
 10
-16.9112241946
 20
-4.8582950425
  0
LWPOLYLINE
  5
358
100
AcDbEntity
  8
0
100
AcDbPolyline
 62
250
  6
CONTINUOUS
 90
5
 70
0
 10
-14.6252070607
 20
-4.4936573044
 10
-14.6080897268
 20
-4.7490736713
 10
-14.587165298
 20
-5.0079853554
 10
-14.5627720575
 20
-5.2682722709
 10
-14.5354321219
 20
-5.5262052448
  0
LWPOLYLINE
  5
359
100
AcDbEntity
  8
0
100
AcDbPolyline
 62
250
  6
CONTINUOUS
 90
10
 70
0
 10
-14.6253910377
 20
-4.4937516811
 10
-14.6304469893
 20
-4.4071664731
 10
-14.6350702171
 20
-4.3205819187
 10
-14.6392109954
 20
-4.2339745807
 10
-14.6428208594
 20
-4.1473153079
 10
-14.645851797
 20
-4.0605878051
 10
-14.6482566655
 20
-3.9737888881
 10
-14.6499901162
 20
-3.8869036237
 10
-14.6510081604
 20
-3.7999050662
 10
-14.6512676567
 20
-3.7127730089
  0
LWPOLYLINE
  5
35A
100
AcDbEntity
  8
0
100
AcDbPolyline
 62
250
  6
CONTINUOUS
 90
10
 70
0
 10
-17.1000683965
 20
-3.0647101323
 10
-17.105028791
 20
-2.9781192716
 10
-17.1095420991
 20
-2.8915118358
 10
-17.113569918
 20
-2.804870403
 10
-17.1170748126
 20
-2.7181730105
 10
-17.1200196961
 20
-2.6314078423
 10
-17.1223681457
 20
-2.544573425
 10
-17.1240851045
 20
-2.4576589631
 10
-17.1251365512
 20
-2.370644138
 10
-17.1254891066
 20
-2.2835139332
  0
LWPOLYLINE
  5
35B
100
AcDbEntity
  8
0
100
AcDbPolyline
 62
250
  6
CONTINUOUS
 90
9
 70
0
 10
-18.1314194525
 20
17.0488602461
 10
-18.1324188016
 20
17.1224473917
 10
-18.1367804318
 20
17.1977556303
 10
-18.144504343
 20
17.2747849621
 10
-18.1556456427
 20
17.3538987068
 10
-18.1701492235
 20
17.4347335447
 10
-18.187849763
 20
17.5161995163
 10
-18.2086921537
 20
17.597933302
 10
-18.2327315032
 20
17.6802982214
  0
LWPOLYLINE
  5
35C
100
AcDbEntity
  8
0
100
AcDbPolyline
 62
250
  6
CONTINUOUS
 90
10
 70
0
 10
-17.1255373017
 20
17.108360763
 10
-17.125154509
 20
17.1959171285
 10
-17.124097688
 20
17.2841430611
 10
-17.1223934963
 20
17.3730199276
 10
-17.1200690716
 20
17.4625336992
 10
-17.1171524143
 20
17.552659896
 10
-17.1136727104
 20
17.6433634092
 10
-17.109659653
 20
17.73461867
 10
-17.105143129
 20
17.826409821
 10
-17.1001538238
 20
17.9187155389
  0
LWPOLYLINE
  5
35D
100
AcDbEntity
  8
0
100
AcDbPolyline
 62
250
  6
CONTINUOUS
 90
10
 70
0
 10
-14.6252051757
 20
16.48986585
 10
-14.6301366128
 20
16.3975641471
 10
-14.6346333766
 20
16.305754684
 10
-14.6386548045
 20
16.2144655493
 10
-14.6421612517
 20
16.1237187723
 10
-14.6451134254
 20
16.0335468779
 10
-14.6474727219
 20
15.9439927049
 10
-14.6492019847
 20
15.8550873994
 10
-14.6502651529
 20
15.7668506055
 10
-14.6506268357
 20
15.6793068898
  0
LWPOLYLINE
  5
35E
100
AcDbEntity
  8
0
100
AcDbPolyline
 62
250
  6
CONTINUOUS
 90
10
 70
0
 10
-14.35769396
 20
19.0720375945
 10
-14.3979875649
 20
18.7911158763
 10
-14.4363088447
 20
18.5019444026
 10
-14.4722601028
 20
18.2085278385
 10
-14.5053130647
 20
17.9161895169
 10
-14.5353964966
 20
17.626440479
 10
-14.5627473302
 20
17.3368581738
 10
-14.5871502857
 20
17.0483205224
 10
-14.60808347
 20
16.7651492499
 10
-14.6252072471
 20
16.4898602964
  0
LWPOLYLINE
  5
35F
100
AcDbEntity
  8
0
100
AcDbPolyline
 62
250
  6
CONTINUOUS
 90
5
 70
0
 10
-14.3576922441
 20
19.0720505994
 10
-14.3241441422
 20
19.2920190682
 10
-14.2895713286
 20
19.5092248501
 10
-14.2537995868
 20
19.724261263
 10
-14.2164774909
 20
19.9387879171
  0
LINE
  5
360
100
AcDbEntity
  8
0
100
AcDbLine
 62
250
  6
CONTINUOUS
 10
-14.2164774909
 20
19.9387879171
 11
-14.1774994406
 21
20.1530898351
  0
LINE
  5
361
100
AcDbEntity
  8
0
100
AcDbLine
 62
250
  6
CONTINUOUS
 10
-14.1774994406
 20
20.1530898351
 11
-14.1370281391
 21
20.3663106714
  0
LINE
  5
362
100
AcDbEntity
  8
0
100
AcDbLine
 62
250
  6
CONTINUOUS
 10
-14.1370281391
 20
20.3663106714
 11
-14.0949295784
 21
20.5795342148
  0
LINE
  5
363
100
AcDbEntity
  8
0
100
AcDbLine
 62
250
  6
CONTINUOUS
 10
-14.0949295784
 20
20.5795342148
 11
-14.050746782
 21
20.7955834464
  0
LINE
  5
364
100
AcDbEntity
  8
0
100
AcDbLine
 62
250
  6
CONTINUOUS
 10
-14.050746782
 20
20.7955834464
 11
-14.0041420591
 21
21.0167138728
  0
LWPOLYLINE
  5
365
100
AcDbEntity
  8
0
100
AcDbPolyline
 62
250
  6
CONTINUOUS
 90
5
 70
0
 10
-18.8453632672
 20
-1.080729251
 10
-18.8568831078
 20
-1.115001574
 10
-18.870471444
 20
-1.1470266726
 10
-18.8856321178
 20
-1.1767525902
 10
-18.9023917969
 20
-1.2041943123
  0
LWPOLYLINE
  5
366
100
AcDbEntity
  8
0
100
AcDbPolyline
 62
250
  6
CONTINUOUS
 90
10
 70
0
 10
-11.0427545105
 20
13.5961657677
 10
-11.0689201269
 20
13.5447114044
 10
-11.0921112439
 20
13.4904158676
 10
-11.1123278615
 20
13.4332791574
 10
-11.1296191403
 20
13.3730381172
 10
-11.1439359197
 20
13.3099559036
 10
-11.1551307178
 20
13.2448219864
 10
-11.163154374
 20
13.1778995223
 10
-11.168056049
 20
13.1089253546
 10
-11.1698357427
 20
13.0378994834
  0
LWPOLYLINE
  5
367
100
AcDbEntity
  8
0
100
AcDbPolyline
 62
250
  6
CONTINUOUS
 90
10
 70
0
 10
-18.2585035506
 20
-1.6293257485
 10
-18.2323369234
 20
-1.5778698002
 10
-18.209144987
 20
-1.5235728954
 10
-18.1889277415
 20
-1.4664350341
 10
-18.1716360508
 20
-1.4061930307
 10
-18.1573190509
 20
-1.3431100707
 10
-18.1461241503
 20
-1.2779757112
 10
-18.1381004851
 20
-1.2110531375
 10
-18.1331989191
 20
-1.1420791643
 10
-18.1314194525
 20
-1.0710537913
  0
LWPOLYLINE
  5
368
100
AcDbEntity
  8
0
100
AcDbPolyline
 62
7
  6
CONTINUOUS
 90
10
 70
0
 10
-10.7576399059
 20
12.9701206493
 10
-10.7748511035
 20
12.9410971885
 10
-10.7901013729
 20
12.9100763419
 10
-10.8033693277
 20
12.877251835
 10
-10.8146245179
 20
12.8428438773
 10
-10.8238665993
 20
12.8070002795
 10
-10.8311056642
 20
12.7697791987
 10
-10.8363197334
 20
12.7312912828
 10
-10.8394755374
 20
12.6917164356
 10
-10.8405533897
 20
12.6511931367
  0
LWPOLYLINE
  5
369
100
AcDbEntity
  8
0
100
AcDbPolyline
 62
250
  6
CONTINUOUS
 90
10
 70
0
 10
-11.0419331658
 20
13.59576398
 10
-10.9757135197
 20
13.6963872845
 10
-10.8953524815
 20
13.7795633996
 10
-10.8012912096
 20
13.8450324974
 10
-10.6916391635
 20
13.8933580514
 10
-10.5689283877
 20
13.9236061438
 10
-10.4402475007
 20
13.9332723676
 10
-10.308155367
 20
13.921417797
 10
-10.1705726948
 20
13.8887248505
 10
-10.0276273971
 20
13.83512742
  0
LINE
  5
36A
100
AcDbEntity
  8
0
100
AcDbLine
 62
250
  6
CONTINUOUS
 10
-10.0962311978
 20
12.4240268827
 11
-9.997934303
 21
12.4681529415
  0
LWPOLYLINE
  5
36B
100
AcDbEntity
  8
0
100
AcDbPolyline
 62
250
  6
CONTINUOUS
 90
10
 70
0
 10
-37.3040992076
 20
4.2656518573
 10
-37.1979537693
 20
4.3069004671
 10
-37.0931228062
 20
4.3514409077
 10
-36.989564968
 20
4.3992962832
 10
-36.8872394948
 20
4.450489321
 10
-36.7861051334
 20
4.5050429069
 10
-36.6861201745
 20
4.5629802063
 10
-36.5872438758
 20
4.6243238973
 10
-36.4894364235
 20
4.6890960509
 10
-36.3926578754
 20
4.75731875
  0
LWPOLYLINE
  5
36C
100
AcDbEntity
  8
0
100
AcDbPolyline
 62
250
  6
CONTINUOUS
 90
10
 70
0
 10
31.3863803418
 20
-20.8024824027
 10
31.4743292277
 20
-20.8101314171
 10
31.5616068945
 20
-20.8212356413
 10
31.647833678
 20
-20.835753087
 10
31.7328943299
 20
-20.8537034229
 10
31.8160960882
 20
-20.8749964282
 10
31.8962488636
 20
-20.8993272897
 10
31.9727721644
 20
-20.92645988
 10
32.0456145786
 20
-20.956331375
 10
32.1144682019
 20
-20.9888072898
  0
LWPOLYLINE
  5
36D
100
AcDbEntity
  8
0
100
AcDbPolyline
 62
250
  6
CONTINUOUS
 90
9
 70
0
 10
6.2842130474
 20
-15.3722943113
 10
6.3697419727
 20
-15.3798972031
 10
6.4540229731
 20
-15.3911564878
 10
6.5365886597
 20
-15.4060058726
 10
6.6170130883
 20
-15.4243671159
 10
6.6948186871
 20
-15.4461295068
 10
6.7694897387
 20
-15.4711373315
 10
6.8405999498
 20
-15.4992257935
 10
6.907803408
 20
-15.530235209
  0
LWPOLYLINE
  5
36E
100
AcDbEntity
  8
0
100
AcDbPolyline
 62
250
  6
CONTINUOUS
 90
7
 70
0
 10
6.2841940498
 20
-15.3723920943
 10
6.1626575387
 20
-15.3567061552
 10
6.0546633956
 20
-15.3241574254
 10
5.9649051312
 20
-15.2768298306
 10
5.8971551231
 20
-15.2166541219
 10
5.8560402393
 20
-15.1476540608
 10
5.8443254602
 20
-15.084263185
  0
LWPOLYLINE
  5
36F
100
AcDbEntity
  8
0
100
AcDbPolyline
 62
250
  6
CONTINUOUS
 90
3
 70
0
 10
31.5662413408
 20
-29.9287212339
 10
31.477058215
 20
-29.8967382989
 10
31.3863820843
 20
-29.8659678396
  0
LINE
  5
370
100
AcDbEntity
  8
0
100
AcDbLine
 62
250
  6
CONTINUOUS
 10
31.6535605051
 20
-29.9617808056
 11
31.5662413408
 21
-29.9287212339
  0
LINE
  5
371
100
AcDbEntity
  8
0
100
AcDbLine
 62
250
  6
CONTINUOUS
 10
31.7388396763
 20
-29.9958683406
 11
31.6535605051
 21
-29.9617808056
  0
LWPOLYLINE
  5
372
100
AcDbEntity
  8
0
100
AcDbPolyline
 62
250
  6
CONTINUOUS
 90
10
 70
0
 10
31.8114169935
 20
-33.1702151614
 10
31.923514712
 20
-33.2202848793
 10
32.0340894515
 20
-33.2656181107
 10
32.1429907464
 20
-33.3061699363
 10
32.2500648938
 20
-33.3419039445
 10
32.3553032754
 20
-33.3728315749
 10
32.4585811956
 20
-33.3989263821
 10
32.5596357397
 20
-33.4201028423
 10
32.6584361277
 20
-33.4363166336
 10
32.7548614421
 20
-33.4475176469
  0
LWPOLYLINE
  5
373
100
AcDbEntity
  8
0
100
AcDbPolyline
 62
7
  6
CONTINUOUS
 90
10
 70
0
 10
31.0528098623
 20
-30.8649545921
 10
31.1062769149
 20
-30.8903685694
 10
31.1592366047
 20
-30.9126473537
 10
31.2116191546
 20
-30.93188685
 10
31.2633767896
 20
-30.9480310644
 10
31.3144135091
 20
-30.9610179224
 10
31.3645194871
 20
-30.9708310947
 10
31.4135703609
 20
-30.9774670416
 10
31.4616078952
 20
-30.9809509519
 10
31.5085508937
 20
-30.9811590989
  0
LWPOLYLINE
  5
374
100
AcDbEntity
  8
0
100
AcDbPolyline
 62
250
  6
CONTINUOUS
 90
10
 70
0
 10
33.486543455
 20
-35.5900552887
 10
33.6163187593
 20
-35.6567491802
 10
33.7449525086
 20
-35.7211441722
 10
33.8724476675
 20
-35.7829749453
 10
33.998779787
 20
-35.8418772027
 10
34.1239147623
 20
-35.8975490485
 10
34.2476821034
 20
-35.9496092602
 10
34.3698913837
 20
-35.9976237776
 10
34.4903956266
 20
-36.0411301476
 10
34.609205069
 20
-36.0797775329
  0
LWPOLYLINE
  5
375
100
AcDbEntity
  8
0
100
AcDbPolyline
 62
250
  6
CONTINUOUS
 90
9
 70
0
 10
33.4865215169
 20
-35.5900286923
 10
32.5044422392
 20
-35.0547226217
 10
31.4950374271
 20
-34.4989448248
 10
30.4579035376
 20
-33.9234191938
 10
29.3928411678
 20
-33.328074102
 10
28.2998562437
 20
-32.7126299129
 10
27.178929367
 20
-32.076726553
 10
26.0301357597
 20
-31.4191072677
 10
24.8535767705
 20
-30.740413619
  0
LINE
  5
376
100
AcDbEntity
  8
0
100
AcDbLine
 62
250
  6
CONTINUOUS
 10
37.1944998432
 20
-38.8065060439
 11
37.2496799412
 21
-38.8369695082
  0
LWPOLYLINE
  5
377
100
AcDbEntity
  8
0
100
AcDbPolyline
 62
250
  6
CONTINUOUS
 90
5
 70
0
 10
37.0599043854
 20
-38.6714013757
 10
37.0825739349
 20
-38.6844042056
 10
37.1031214744
 20
-38.6958636623
 10
37.1213150176
 20
-38.7055848058
 10
37.1388880683
 20
-38.714581402
  0
LINE
  5
378
100
AcDbEntity
  8
0
100
AcDbLine
 62
7
  6
CONTINUOUS
 10
-38.2188975594
 20
4.7356581562
 11
-36.7967754735
 21
3.9176116953
  0
LINE
  5
379
100
AcDbEntity
  8
0
100
AcDbLine
 62
7
  6
CONTINUOUS
 10
-36.7967754735
 20
3.9176116953
 11
-33.8153581356
 21
2.1976615145
  0
LINE
  5
37A
100
AcDbEntity
  8
0
100
AcDbLine
 62
7
  6
CONTINUOUS
 10
24.0053124222
 20
-31.1336195394
 11
-26.1990226849
 21
-2.1462664023
  0
LINE
  5
37B
100
AcDbEntity
  8
0
100
AcDbLine
 62
250
  6
CONTINUOUS
 10
-38.9328494366
 20
5.2060952007
 11
-39.0325024714
 21
5.263617154
  0
LWPOLYLINE
  5
37C
100
AcDbEntity
  8
0
100
AcDbPolyline
 62
7
  6
CONTINUOUS
 90
6
 70
0
 10
-26.1158108088
 20
-2.2504428194
 10
33.0429152929
 20
-36.4058772029
 10
34.1593579298
 20
-37.0513081702
 10
35.1376185182
 20
-37.6155834436
 10
36.0879021794
 20
-38.1668823956
 10
36.8979069105
 20
-38.6403363305
  0
LINE
  5
37D
100
AcDbEntity
  8
0
100
AcDbLine
 62
7
  6
CONTINUOUS
 10
-33.8153581356
 20
2.1976615145
 11
-26.1154713477
 21
-2.2506640702
  0
LINE
  5
37E
100
AcDbEntity
  8
0
100
AcDbLine
 62
250
  6
CONTINUOUS
 10
-26.199029842
 20
-2.1462726
 11
-38.9328494366
 21
5.2060952007
  0
LINE
  5
37F
100
AcDbEntity
  8
0
100
AcDbLine
 62
250
  6
CONTINUOUS
 10
-39.0325024714
 20
5.263617154
 11
-39.2125688884
 21
5.3676154071
  0
LINE
  5
380
100
AcDbEntity
  8
0
100
AcDbLine
 62
250
  6
CONTINUOUS
 10
24.0053153642
 20
-31.1336253642
 11
37.0188296544
 21
-38.6474958279
  0
LINE
  5
381
100
AcDbEntity
  8
0
100
AcDbLine
 62
7
  6
CONTINUOUS
 10
-39.3765131541
 20
5.4144231432
 11
-39.37656788
 21
5.414455035
  0
LWPOLYLINE
  5
382
100
AcDbEntity
  8
0
100
AcDbPolyline
 62
7
  6
CONTINUOUS
 90
6
 70
0
 10
36.8979069105
 20
-38.6403363305
 10
37.0714838438
 20
-38.7409435534
 10
37.1221923257
 20
-38.7700530445
 10
37.1732275215
 20
-38.797924114
 10
37.2238244927
 20
-38.8241043333
 10
37.2554874092
 20
-38.8397109141
  0
LINE
  5
383
100
AcDbEntity
  8
0
100
AcDbLine
 62
250
  6
CONTINUOUS
 10
37.0188295368
 20
-38.6475106369
 11
37.0599043854
 21
-38.6714013757
  0
LWPOLYLINE
  5
384
100
AcDbEntity
  8
0
100
AcDbPolyline
 62
250
  6
CONTINUOUS
 90
5
 70
0
 10
-32.2619605351
 20
2.2700862448
 10
-33.3307673739
 20
2.9067851082
 10
-34.3754450196
 20
3.5328023885
 10
-35.3954865203
 20
4.1492609663
 10
-36.3927004903
 20
4.757220827
  0
LWPOLYLINE
  5
385
100
AcDbEntity
  8
0
100
AcDbPolyline
 62
250
  6
CONTINUOUS
 90
5
 70
0
 10
-26.1158108088
 20
-2.2504428194
 10
-26.1286552224
 20
-2.242222025
 10
-26.1572714527
 20
-2.2167879089
 10
-26.1808487427
 20
-2.1846042961
 10
-26.1990226849
 20
-2.1462664023
  0
LWPOLYLINE
  5
386
100
AcDbEntity
  8
0
100
AcDbPolyline
 62
7
  6
CONTINUOUS
 90
6
 70
0
 10
-39.2636194683
 20
5.3388658992
 10
-39.2474547819
 20
5.3285036009
 10
-39.1827318348
 20
5.288056983
 10
-39.1210700395
 20
5.2515515961
 10
-39.0626310906
 20
5.2181791666
 10
-38.2188975594
 20
4.7356581562
  0
LWPOLYLINE
  5
387
100
AcDbEntity
  8
0
100
AcDbPolyline
 62
250
  6
CONTINUOUS
 90
10
 70
0
 10
-36.3926578754
 20
4.75731875
 10
-36.5223554333
 20
4.8404384206
 10
-36.6509763857
 20
4.9245705224
 10
-36.7785018745
 20
5.009979709
 10
-36.9048704402
 20
5.0969863869
 10
-37.0300265822
 20
5.1858375849
 10
-37.1537981333
 20
5.2767102469
 10
-37.2760056142
 20
5.3698203013
 10
-37.396508746
 20
5.4654679476
 10
-37.5153175515
 20
5.5640178955
  0
LWPOLYLINE
  5
388
100
AcDbEntity
  8
0
100
AcDbPolyline
 62
250
  6
CONTINUOUS
 90
10
 70
0
 10
-35.4246249946
 20
5.6510084201
 10
-35.5367243222
 20
5.7303879541
 10
-35.6473019237
 20
5.8127521179
 10
-35.7562100111
 20
5.8979651015
 10
-35.8632904596
 20
5.9858847901
 10
-35.9685337693
 20
6.0764887956
 10
-36.0718143488
 20
6.1696594519
 10
-36.1728667213
 20
6.2651784804
 10
-36.2716591293
 20
6.3630543889
 10
-36.3680781646
 20
6.4632013118
  0
LWPOLYLINE
  5
389
100
AcDbEntity
  8
0
100
AcDbPolyline
 62
250
  6
CONTINUOUS
 90
10
 70
0
 10
-27.382460576
 20
3.2662470211
 10
-27.3444846133
 20
3.2268586173
 10
-27.3099085483
 20
3.1824646779
 10
-27.2788809605
 20
3.1332384202
 10
-27.2514743793
 20
3.0791850072
 10
-27.2279477081
 20
3.0206402317
 10
-27.2086205464
 20
2.958397883
 10
-27.1935765084
 20
2.8929714589
 10
-27.1827889803
 20
2.8244669984
 10
-27.1762953652
 20
2.753171024
  0
LWPOLYLINE
  5
38A
100
AcDbEntity
  8
0
100
AcDbPolyline
 62
250
  6
CONTINUOUS
 90
4
 70
0
 10
-36.2627090438
 20
26.7989661342
 10
-36.4561224398
 20
27.0816100696
 10
-36.6469548425
 20
27.36936188
 10
-36.8349045507
 20
27.661738986
  0
LINE
  5
38B
100
AcDbEntity
  8
0
100
AcDbLine
 62
250
  6
CONTINUOUS
 10
-36.8349045507
 20
27.661738986
 11
-37.0196507669
 21
27.9582324885
  0
LWPOLYLINE
  5
38C
100
AcDbEntity
  8
0
100
AcDbPolyline
 62
250
  6
CONTINUOUS
 90
5
 70
0
 10
-36.0682370321
 20
27.4764530654
 10
-36.0311336927
 20
27.4152206295
 10
-35.9995212388
 20
27.3501466047
 10
-35.9736792296
 20
27.2815908941
 10
-35.9537626527
 20
27.2096143218
  0
LWPOLYLINE
  5
38D
100
AcDbEntity
  8
0
100
AcDbPolyline
 62
250
  6
CONTINUOUS
 90
4
 70
0
 10
-37.0196507669
 20
27.9582324885
 10
-37.2008736174
 20
28.2583365469
 10
-37.3782600143
 20
28.5615518155
 10
-37.55148306
 20
28.8673507025
  0
LWPOLYLINE
  5
38E
100
AcDbEntity
  8
0
100
AcDbPolyline
 62
250
  6
CONTINUOUS
 90
6
 70
0
 10
-36.2602722327
 20
27.7558077701
 10
-36.4275189323
 20
28.0527168627
 10
-36.5911540462
 20
28.3482699636
 10
-36.751654466
 20
28.6433906769
 10
-36.9094776889
 20
28.9389645943
 10
-37.065093075
 20
29.2358976599
  0
LWPOLYLINE
  5
38F
100
AcDbEntity
  8
0
100
AcDbPolyline
 62
250
  6
CONTINUOUS
 90
13
 70
0
 10
-18.9023917969
 20
-1.2041943123
 10
-18.8868705463
 20
-1.2438078115
 10
-18.8568312767
 20
-1.2835034521
 10
-18.8148011473
 20
-1.3225750441
 10
-18.763535473
 20
-1.3610783827
 10
-18.7055641615
 20
-1.3987167015
 10
-18.6433112175
 20
-1.4348322848
 10
-18.5807974104
 20
-1.4681929251
 10
-18.5182893141
 20
-1.4998394318
 10
-18.4523124173
 20
-1.5321598261
 10
-18.3836442273
 20
-1.5653972606
 10
-18.3174539884
 20
-1.5979782355
 10
-18.2585376911
 20
-1.6293040062
  0
LWPOLYLINE
  5
390
100
AcDbEntity
  8
0
100
AcDbPolyline
 62
250
  6
CONTINUOUS
 90
9
 70
0
 10
-14.00414303
 20
-8.3033197582
 10
-14.0513174418
 20
-8.1339253891
 10
-14.0958752356
 20
-7.9673734275
 10
-14.138178089
 20
-7.8017643317
 10
-14.1786761977
 20
-7.6349137887
 10
-14.21753999
 20
-7.4658484554
 10
-14.2546824725
 20
-7.2949951473
 10
-14.2902314569
 20
-7.1221433353
 10
-14.3245118557
 20
-6.9462216841
  0
LWPOLYLINE
  5
391
100
AcDbEntity
  8
0
100
AcDbPolyline
 62
250
  6
CONTINUOUS
 90
4
 70
0
 10
-16.6118902122
 20
-6.377420576
 10
-16.5697913436
 20
-6.5420314995
 10
-16.5256083404
 20
-6.7070595589
 10
-16.4790036991
 20
-6.8743689937
  0
LWPOLYLINE
  5
392
100
AcDbEntity
  8
0
100
AcDbPolyline
 62
250
  6
CONTINUOUS
 90
3
 70
0
 10
-16.6913392203
 20
-6.0416430707
 10
-16.6523614806
 20
-6.2109339525
 10
-16.6118902122
 20
-6.377420576
  0
LINE
  5
393
100
AcDbEntity
  8
0
100
AcDbLine
 62
250
  6
CONTINUOUS
 10
-16.7286612445
 20
-5.8702145395
 11
-16.6913392203
 21
-6.0416430707
  0
LWPOLYLINE
  5
394
100
AcDbEntity
  8
0
100
AcDbPolyline
 62
250
  6
CONTINUOUS
 90
7
 70
0
 10
-19.2571334461
 20
8.4718817636
 10
-19.2441761905
 20
8.4062950419
 10
-19.2018644668
 20
8.3393551774
 10
-19.1334930902
 20
8.280896505
 10
-19.0439021396
 20
8.2343057858
 10
-18.9370312527
 20
8.2017233753
 10
-18.8175987088
 20
8.184951855
  0
LWPOLYLINE
  5
395
100
AcDbEntity
  8
0
100
AcDbPolyline
 62
250
  6
CONTINUOUS
 90
4
 70
0
 10
-16.8325538566
 20
-5.3379764629
 10
-16.7990060218
 20
-5.5192029209
 10
-16.7644331759
 20
-5.6964851186
 10
-16.7286612445
 20
-5.8702145395
  0
LINE
  5
396
100
AcDbEntity
  8
0
100
AcDbLine
 62
250
  6
CONTINUOUS
 10
-14.3245118557
 20
-6.9462216841
 11
-14.3576933398
 21
-6.766924497
  0
LINE
  5
397
100
AcDbEntity
  8
0
100
AcDbLine
 62
250
  6
CONTINUOUS
 10
-14.3980129763
 20
-6.5323760916
 11
-14.357693334
 21
-6.7669245368
  0
LWPOLYLINE
  5
398
100
AcDbEntity
  8
0
100
AcDbPolyline
 62
250
  6
CONTINUOUS
 90
3
 70
0
 10
-16.9112241946
 20
-4.8582950425
 10
-16.872881902
 20
-5.103374082
 10
-16.8325556057
 20
-5.3379652575
  0
LINE
  5
399
100
AcDbEntity
  8
0
100
AcDbLine
 62
250
  6
CONTINUOUS
 10
-14.4363505613
 20
-6.2873331627
 11
-14.3980129763
 21
-6.5323760916
  0
LINE
  5
39A
100
AcDbEntity
  8
0
100
AcDbLine
 62
250
  6
CONTINUOUS
 10
-14.4723087232
 20
-6.0353531272
 11
-14.4363505613
 21
-6.2873331627
  0
LINE
  5
39B
100
AcDbEntity
  8
0
100
AcDbLine
 62
250
  6
CONTINUOUS
 10
-14.5053585826
 20
-5.7811700064
 11
-14.4723087232
 21
-6.0353531272
  0
LINE
  5
39C
100
AcDbEntity
  8
0
100
AcDbLine
 62
250
  6
CONTINUOUS
 10
-14.5354321219
 20
-5.5262052448
 11
-14.5053585826
 21
-5.7811700064
  0
LINE
  5
39D
100
AcDbEntity
  8
0
100
AcDbLine
 62
7
  6
CONTINUOUS
 10
-10.8406454928
 20
-5.5082976836
 11
-10.8266221288
 21
-5.6387706585
  0
LWPOLYLINE
  5
39E
100
AcDbEntity
  8
0
100
AcDbPolyline
 62
250
  6
CONTINUOUS
 90
10
 70
0
 10
-12.150345182
 20
-5.9226182816
 10
-12.1553046415
 20
-5.8360444476
 10
-12.1598171951
 20
-5.7494540342
 10
-12.1638444641
 20
-5.6628296305
 10
-12.1673490366
 20
-5.5761492881
 10
-12.1702938482
 20
-5.4894011977
 10
-12.1726424986
 20
-5.4025838848
 10
-12.1743599516
 20
-5.31568656
 10
-12.1754122062
 20
-5.2286889172
 10
-12.1757659027
 20
-5.1415759489
  0
LINE
  5
39F
100
AcDbEntity
  8
0
100
AcDbLine
 62
7
  6
CONTINUOUS
 10
-10.8373437522
 20
-5.5317816072
 11
-10.8387133003
 21
-5.4867326935
  0
LWPOLYLINE
  5
3A0
100
AcDbEntity
  8
0
100
AcDbPolyline
 62
250
  6
CONTINUOUS
 90
9
 70
0
 10
-11.1698357427
 20
-5.0907564256
 10
-11.1681038552
 20
-5.1638057851
 10
-11.1632077102
 20
-5.2384346287
 10
-11.1551473076
 20
-5.3146429565
 10
-11.1438716799
 20
-5.3927585877
 10
-11.1294317948
 20
-5.472453703
 10
-11.1119805547
 20
-5.5527448446
 10
-11.0915689271
 20
-5.6333041932
 10
-11.0681459446
 20
-5.714459568
  0
LINE
  5
3A1
100
AcDbEntity
  8
0
100
AcDbLine
 62
250
  6
CONTINUOUS
 10
-11.1698357427
 20
-5.0907564256
 11
-11.1698357427
 21
13.0378994834
  0
LINE
  5
3A2
100
AcDbEntity
  8
0
100
AcDbLine
 62
250
  6
CONTINUOUS
 10
-10.8378451297
 20
-5.4862325084
 11
-10.8378451297
 21
12.6407532791
  0
LWPOLYLINE
  5
3A3
100
AcDbEntity
  8
0
100
AcDbPolyline
 62
250
  6
CONTINUOUS
 90
10
 70
0
 10
-10.0275404683
 20
13.8352347613
 10
-10.0313539372
 20
13.7560243827
 10
-10.0377199737
 20
13.6735028671
 10
-10.0466382721
 20
13.5879756731
 10
-10.0581123547
 20
13.4995375929
 10
-10.0721464893
 20
13.4087479712
 10
-10.0886500158
 20
13.3166449511
 10
-10.107489605
 20
13.2238237054
 10
-10.1285848411
 20
13.1304225136
 10
-10.1518382049
 20
13.0368074623
  0
LWPOLYLINE
  5
3A4
100
AcDbEntity
  8
0
100
AcDbPolyline
 62
250
  6
CONTINUOUS
 90
10
 70
0
 10
-12.1504325414
 20
15.0608062607
 10
-12.1554238928
 20
14.968480525
 10
-12.1599421124
 20
14.8766697757
 10
-12.1639564353
 20
14.7853953851
 10
-12.1674368974
 20
14.6946732455
 10
-12.1703537294
 20
14.6045289856
 10
-12.1726776706
 20
14.5149977984
 10
-12.1743806497
 20
14.42610422
 10
-12.1754354606
 20
14.337862309
 10
-12.175815379
 20
14.2502907396
  0
LWPOLYLINE
  5
3A5
100
AcDbEntity
  8
0
100
AcDbPolyline
 62
250
  6
CONTINUOUS
 90
10
 70
0
 10
-12.1503454746
 20
15.0609034757
 10
-12.1332281447
 20
15.3360865203
 10
-12.1123037186
 20
15.6191612288
 10
-12.0879104793
 20
15.9076168744
 10
-12.0605705434
 20
16.1971213548
 10
-12.0304970023
 20
16.4868143271
 10
-11.9974471392
 20
16.7791626486
 10
-11.9614889714
 20
17.0726663295
 10
-11.9231513786
 20
17.3619806077
 10
-11.8828317267
 20
17.6430892349
  0
LWPOLYLINE
  5
3A6
100
AcDbEntity
  8
0
100
AcDbPolyline
 62
250
  6
CONTINUOUS
 90
13
 70
0
 10
-10.7537935775
 20
12.974197239
 10
-10.7398460011
 20
13.0320747932
 10
-10.736672857
 20
13.091524609
 10
-10.7425038603
 20
13.1514072776
 10
-10.7558019761
 20
13.2108854943
 10
-10.775442141
 20
13.2691152959
 10
-10.800657627
 20
13.3251015637
 10
-10.8296284726
 20
13.376643741
 10
-10.8618749106
 20
13.4247350365
 10
-10.8995541892
 20
13.4723746315
 10
-10.9433700009
 20
13.5189483188
 10
-10.9914507881
 20
13.5611004577
 10
-11.0427172238
 20
13.5961462673
  0
LINE
  5
3A7
100
AcDbEntity
  8
0
100
AcDbLine
 62
250
  6
CONTINUOUS
 10
-10.1954239506
 20
12.9249766278
 11
-10.1509378206
 21
13.0372896608
  0
LWPOLYLINE
  5
3A8
100
AcDbEntity
  8
0
100
AcDbPolyline
 62
250
  6
CONTINUOUS
 90
10
 70
0
 10
-18.8982409633
 20
-1.2113358868
 10
-18.9460186128
 20
-1.2693822259
 10
-19.001607259
 20
-1.3147833373
 10
-19.064759454
 20
-1.3465492797
 10
-19.13352157
 20
-1.3648830533
 10
-19.205781223
 20
-1.3705255924
 10
-19.2807450701
 20
-1.3640004113
 10
-19.3575109595
 20
-1.3458931132
 10
-19.4344092648
 20
-1.3171737085
 10
-19.5102502374
 20
-1.2786009917
  0
LWPOLYLINE
  5
3A9
100
AcDbEntity
  8
RACCORDO
100
AcDbPolyline
 62
7
  6
CONTINUOUS
 90
6
 70
0
 10
-19.413823351
 20
1.3766532797
 10
-19.4035040776
 20
1.3855423678
 10
-19.3956887302
 20
1.3960711905
 10
-19.3905734137
 20
1.4079765841
 10
-19.3882727557
 20
1.421094643
 10
-19.3881378339
 20
1.4253214735
  0
LWPOLYLINE
  5
3AA
100
AcDbEntity
  8
RACCORDO
100
AcDbPolyline
 62
7
  6
CONTINUOUS
 90
6
 70
0
 10
-19.413823351
 20
1.585323491
 10
-19.4034010252
 20
1.593510395
 10
-19.3956935172
 20
1.6020591852
 10
-19.3907008271
 20
1.6109698617
 10
-19.3884351292
 20
1.6205108623
 10
-19.3881378488
 20
1.6239901276
  0
LWPOLYLINE
  5
3AB
100
AcDbEntity
  8
0
100
AcDbPolyline
 62
250
  6
CONTINUOUS
 90
7
 70
0
 10
-19.2414451169
 20
-0.4656888161
 10
-19.3276907726
 20
-0.531309968
 10
-19.4052526327
 20
-0.615089919
 10
-19.4716520227
 20
-0.7131136869
 10
-19.5254089104
 20
-0.8220332543
 10
-19.5630512643
 20
-0.9349875739
 10
-19.5807742616
 20
-1.0420819696
  0
LWPOLYLINE
  5
3AC
100
AcDbEntity
  8
RACCORDO
100
AcDbPolyline
 62
7
  6
CONTINUOUS
 90
10
 70
0
 10
-8.2906263861
 20
8.8637705053
 10
-8.2783256132
 20
8.8730417913
 10
-8.2670688666
 20
8.8836394713
 10
-8.2568561465
 20
8.8955635452
 10
-8.247461081
 20
8.9092201578
 10
-8.2391100418
 20
8.9242031642
 10
-8.2324821444
 20
8.9392941304
 10
-8.2278037608
 20
8.9540869117
 10
-8.2248485189
 20
8.9689876528
 10
-8.2236164189
 20
8.9839963537
  0
LINE
  5
3AD
100
AcDbEntity
  8
0
100
AcDbLine
 62
7
  6
CONTINUOUS
 10
-19.413823351
 20
1.585323491
 11
-20.147761219
 21
1.1146830833
  0
LINE
  5
3AE
100
AcDbEntity
  8
0
100
AcDbLine
 62
7
  6
CONTINUOUS
 10
-8.2906263861
 20
8.8637705053
 11
-9.0826498296
 21
8.3585381103
  0
LINE
  5
3AF
100
AcDbEntity
  8
0
100
AcDbLine
 62
7
  6
CONTINUOUS
 10
-8.4748526771
 20
11.4063964569
 11
-9.0826498296
 21
11.0554582473
  0
LINE
  5
3B0
100
AcDbEntity
  8
0
100
AcDbLine
 62
7
  6
CONTINUOUS
 10
-19.413823351
 20
1.3766532797
 11
-20.0076473401
 21
1.0337830857
  0
LINE
  5
3B1
100
AcDbEntity
  8
0
100
AcDbLine
 62
7
  6
CONTINUOUS
 10
-21.527258033
 20
2.8055941889
 11
-22.3423786142
 21
2.3818276623
  0
LINE
  5
3B2
100
AcDbEntity
  8
0
100
AcDbLine
 62
7
  6
CONTINUOUS
 10
-8.2906263861
 20
11.3040760513
 11
-9.0826498296
 21
10.8946996264
  0
LWPOLYLINE
  5
3B3
100
AcDbEntity
  8
RACCORDO
100
AcDbPolyline
 62
7
  6
CONTINUOUS
 90
6
 70
0
 10
-8.4748526771
 20
11.4063964569
 10
-8.4612333528
 20
11.4122017763
 10
-8.4471633611
 20
11.414384302
 10
-8.4332203793
 20
11.4130440401
 10
-8.4200520652
 20
11.4083396704
 10
-8.4163602257
 20
11.4063426551
  0
LWPOLYLINE
  5
3B4
100
AcDbEntity
  8
0
100
AcDbPolyline
 62
250
  6
CONTINUOUS
 90
4
 70
0
 10
31.6535605055
 20
-11.7118949021
 10
31.5662413411
 20
-11.7151127692
 10
31.4770582152
 20
-11.7240965404
 10
31.3863820844
 20
-11.7389820545
  0
LINE
  5
3B5
100
AcDbEntity
  8
0
100
AcDbLine
 62
250
  6
CONTINUOUS
 10
31.7388396767
 20
-11.7143126366
 11
31.6535605055
 21
-11.7118949021
  0
LWPOLYLINE
  5
3B6
100
AcDbEntity
  8
0
100
AcDbPolyline
 62
250
  6
CONTINUOUS
 90
10
 70
0
 10
37.8236597868
 20
-23.1566777747
 10
37.8852806914
 20
-23.1703838913
 10
37.9489168333
 20
-23.1793985651
 10
38.0137832166
 20
-23.1836660807
 10
38.079473504
 20
-23.1831138013
 10
38.1447138886
 20
-23.1776469203
 10
38.2074398316
 20
-23.167451113
 10
38.2665129047
 20
-23.1528503734
 10
38.3216398412
 20
-23.1340041142
 10
38.3721839302
 20
-23.1111160583
  0
LWPOLYLINE
  5
3B7
100
AcDbEntity
  8
0
100
AcDbPolyline
 62
250
  6
CONTINUOUS
 90
10
 70
0
 10
5.8792972307
 20
-16.3327078462
 10
6.0111730817
 20
-16.3884329181
 10
6.138104228
 20
-16.4245814066
 10
6.2602044921
 20
-16.441077449
 10
6.3799779303
 20
-16.4376141929
 10
6.495382187
 20
-16.4142031782
 10
6.5997536829
 20
-16.3712255016
 10
6.6910999076
 20
-16.3086759504
 10
6.7722121442
 20
-16.2260938754
 10
6.8436621024
 20
-16.1231553096
  0
LWPOLYLINE
  5
3B8
100
AcDbEntity
  8
RACCORDO
100
AcDbPolyline
 62
7
  6
CONTINUOUS
 90
10
 70
0
 10
28.81494717
 20
-26.0819239443
 10
28.8013328445
 20
-26.0754860016
 10
28.7869505304
 20
-26.0705944729
 10
28.7718002275
 20
-26.0672493581
 10
28.7554170179
 20
-26.0654436279
 10
28.7382658196
 20
-26.0651843117
 10
28.7217413864
 20
-26.0664924973
 10
28.7063086363
 20
-26.069375214
 10
28.6915026512
 20
-26.0738254325
 10
28.6773234312
 20
-26.0798431528
  0
LWPOLYLINE
  5
3B9
100
AcDbEntity
  8
0
100
AcDbPolyline
 62
250
  6
CONTINUOUS
 90
5
 70
0
 10
32.047374003
 20
-30.1369521604
 10
31.9760526558
 20
-30.1015133474
 10
31.9007457905
 20
-30.0660940398
 10
31.8215262121
 20
-30.0307816102
 10
31.7388396763
 20
-29.9958683406
  0
LWPOLYLINE
  5
3BA
100
AcDbEntity
  8
0
100
AcDbPolyline
 62
250
  6
CONTINUOUS
 90
9
 70
0
 10
14.0610013975
 20
-20.2901906601
 10
14.1144428487
 20
-20.3168370113
 10
14.1639205321
 20
-20.3340778233
 10
14.2089198781
 20
-20.3441794122
 10
14.2485437106
 20
-20.3495602384
 10
14.2823667606
 20
-20.3526325817
 10
14.3099424481
 20
-20.3560057372
 10
14.3302657597
 20
-20.3625037655
 10
14.3329709791
 20
-20.3652754145
  0
LWPOLYLINE
  5
3BB
100
AcDbEntity
  8
0
100
AcDbPolyline
 62
250
  6
CONTINUOUS
 90
10
 70
0
 10
5.5914646729
 20
-15.7722229164
 10
5.6762808258
 20
-15.8145196811
 10
5.7598426015
 20
-15.8439851269
 10
5.8408889516
 20
-15.8604610707
 10
5.9184713963
 20
-15.8640558551
 10
5.990803005
 20
-15.8545512121
 10
6.0557963847
 20
-15.8318051456
 10
6.112644137
 20
-15.7960997106
 10
6.1612396292
 20
-15.7483837866
 10
6.2010739091
 20
-15.690260984
  0
LWPOLYLINE
  5
3BC
100
AcDbEntity
  8
0
100
AcDbPolyline
 62
7
  6
CONTINUOUS
 90
3
 70
0
 10
31.0370697687
 20
-30.8569512921
 10
31.0449528245
 20
-30.8610654601
 10
31.0528092761
 20
-30.8649542949
  0
LWPOLYLINE
  5
3BD
100
AcDbEntity
  8
0
100
AcDbPolyline
 62
250
  6
CONTINUOUS
 90
8
 70
0
 10
-39.3323824278
 20
5.439214724
 10
-39.3195957204
 20
5.4325046501
 10
-39.3070982075
 20
5.4255817376
 10
-39.2943613632
 20
5.4181582075
 10
-39.2807924259
 20
5.409718575
 10
-39.2660747493
 20
5.4002853155
 10
-39.2510952884
 20
5.3908956799
 10
-39.2125688884
 20
5.3676154071
  0
LINE
  5
3BE
100
AcDbEntity
  8
0
100
AcDbLine
 62
250
  6
CONTINUOUS
 10
32.1144765018
 20
-30.1722375555
 11
32.047374003
 21
-30.1369521604
  0
LWPOLYLINE
  5
3BF
100
AcDbEntity
  8
0
100
AcDbPolyline
 62
7
  6
CONTINUOUS
 90
4
 70
0
 10
31.0053762005
 20
-30.8397897421
 10
31.013321929
 20
-30.8441753116
 10
31.0212528728
 20
-30.8484951903
 10
31.0370697687
 20
-30.8569512921
  0
LWPOLYLINE
  5
3C0
100
AcDbEntity
  8
0
100
AcDbPolyline
 62
7
  6
CONTINUOUS
 90
3
 70
0
 10
30.9814641178
 20
-30.8263460726
 10
30.9894458556
 20
-30.8308648787
 10
31.0053762005
 20
-30.8397897421
  0
LWPOLYLINE
  5
3C1
100
AcDbEntity
  8
0
100
AcDbPolyline
 62
250
  6
CONTINUOUS
 90
11
 70
0
 10
24.903588779
 20
-29.4357847805
 10
25.6794876719
 20
-29.879678683
 10
26.4365403872
 20
-30.3071134782
 10
27.1747269871
 20
-30.7180740624
 10
27.8941057865
 20
-31.1134292983
 10
28.5947668468
 20
-31.4936273939
 10
29.2765822152
 20
-31.8589723246
 10
29.9395211504
 20
-32.2096297401
 10
30.5832526428
 20
-32.5457955356
 10
31.2084711726
 20
-32.8672828969
 10
31.8114169935
 20
-33.1702151614
  0
LINE
  5
3C2
100
AcDbEntity
  8
0
100
AcDbLine
 62
250
  6
CONTINUOUS
 10
13.5728733388
 20
-24.2259683782
 11
11.0985023108
 21
-22.7987541189
  0
LINE
  5
3C3
100
AcDbEntity
  8
0
100
AcDbLine
 62
250
  6
CONTINUOUS
 10
-11.5292943921
 20
-9.7322913345
 11
-14.0036654201
 21
-8.3050770751
  0
LINE
  5
3C4
100
AcDbEntity
  8
0
100
AcDbLine
 62
250
  6
CONTINUOUS
 10
8.6231501242
 20
-21.3680602286
 11
-11.5292943921
 21
-9.7322913345
  0
LINE
  5
3C5
100
AcDbEntity
  8
0
100
AcDbLine
 62
7
  6
CONTINUOUS
 10
23.028043326
 20
-26.2341779205
 11
30.9814707164
 21
-30.8263830788
  0
LINE
  5
3C6
100
AcDbEntity
  8
0
100
AcDbLine
 62
250
  6
CONTINUOUS
 10
-27.1762952944
 20
2.7531698178
 11
23.028044722
 21
-26.2341759918
  0
LINE
  5
3C7
100
AcDbEntity
  8
0
100
AcDbLine
 62
7
  6
CONTINUOUS
 10
-27.1762928167
 20
2.7531711401
 11
-34.7963678943
 21
7.1529111788
  0
LINE
  5
3C8
100
AcDbEntity
  8
0
100
AcDbLine
 62
250
  6
CONTINUOUS
 10
-19.5109017069
 20
-1.2786784483
 11
-35.2540667683
 21
7.8110289855
  0
LINE
  5
3C9
100
AcDbEntity
  8
0
100
AcDbLine
 62
250
  6
CONTINUOUS
 10
-10.1518382057
 20
-6.6824844079
 11
5.5911317202
 21
-15.7724765141
  0
LINE
  5
3CA
100
AcDbEntity
  8
0
100
AcDbLine
 62
250
  6
CONTINUOUS
 10
14.9502681311
 20
-21.1763245802
 11
30.6933000136
 21
-30.2661540798
  0
LWPOLYLINE
  5
3CB
100
AcDbEntity
  8
0
100
AcDbPolyline
 62
250
  6
CONTINUOUS
 90
5
 70
0
 10
-16.4790175501
 20
-6.8743833856
 10
-28.9104034324
 20
0.3035786064
 10
-30.0517546332
 20
0.9678041519
 10
-31.1689431463
 20
1.6236180501
 10
-32.2619605351
 20
2.2700862448
  0
LINE
  5
3CC
100
AcDbEntity
  8
0
100
AcDbLine
 62
250
  6
CONTINUOUS
 10
24.8535767705
 20
-30.740413619
 11
13.5728733388
 21
-24.2259683782
  0
LINE
  5
3CD
100
AcDbEntity
  8
0
100
AcDbLine
 62
250
  6
CONTINUOUS
 10
-14.0036654201
 20
-8.3050770751
 11
-16.4790175501
 21
-6.8743833856
  0
LINE
  5
3CE
100
AcDbEntity
  8
0
100
AcDbLine
 62
250
  6
CONTINUOUS
 10
11.0985023108
 20
-22.7987541189
 11
8.6231501242
 21
-21.3680602286
  0
LWPOLYLINE
  5
3CF
100
AcDbEntity
  8
0
100
AcDbPolyline
 62
250
  6
CONTINUOUS
 90
6
 70
0
 10
24.903588779
 20
-29.4357847805
 10
-28.5221624076
 20
1.4117911054
 10
-29.2985772262
 20
1.8641922741
 10
-30.0543285267
 20
2.3101949329
 10
-30.7898362597
 20
2.750038652
 10
-31.5064207148
 20
3.1836844746
  0
LINE
  5
3D0
100
AcDbEntity
  8
0
100
AcDbLine
 62
7
  6
CONTINUOUS
 10
-34.7963678943
 20
7.1529111788
 11
-35.1297082984
 21
7.3454158856
  0
LWPOLYLINE
  5
3D1
100
AcDbEntity
  8
0
100
AcDbPolyline
 62
7
  6
CONTINUOUS
 90
5
 70
0
 10
-35.1297082984
 20
7.3454158856
 10
-35.1456609485
 20
7.3548344896
 10
-35.1536201244
 20
7.3595850675
 10
-35.1615658914
 20
7.3643750339
 10
-35.1694970119
 20
7.3692137165
  0
LWPOLYLINE
  5
3D2
100
AcDbEntity
  8
0
100
AcDbPolyline
 62
250
  6
CONTINUOUS
 90
5
 70
0
 10
-31.5064207148
 20
3.1836844746
 10
-32.203922404
 20
3.6106365353
 10
-32.8824502267
 20
4.0305713121
 10
-33.543942528
 20
4.4444985187
 10
-34.1887515647
 20
4.8523249631
  0
LWPOLYLINE
  5
3D3
100
AcDbEntity
  8
0
100
AcDbPolyline
 62
250
  6
CONTINUOUS
 90
7
 70
0
 10
-35.8527969872
 20
8.871192619
 10
-35.7709210132
 20
8.8207453987
 10
-35.6681249084
 20
8.7836669971
 10
-35.5505571078
 20
8.7615177326
 10
-35.4287938664
 20
8.7551761622
 10
-35.3105590205
 20
8.7647070657
 10
-35.1995188184
 20
8.7905226082
  0
LWPOLYLINE
  5
3D4
100
AcDbEntity
  8
0
100
AcDbPolyline
 62
7
  6
CONTINUOUS
 90
4
 70
0
 10
-35.1694970119
 20
7.3692137165
 10
-35.1853139874
 20
7.3790225929
 10
-35.193197051
 20
7.3840115764
 10
-35.2010544057
 20
7.3891959749
  0
LINE
  5
3D5
100
AcDbEntity
  8
0
100
AcDbLine
 62
250
  6
CONTINUOUS
 10
-10.1509378446
 20
-6.6820084396
 11
-10.2059860522
 21
-6.6474416497
  0
LWPOLYLINE
  5
3D6
100
AcDbEntity
  8
0
100
AcDbPolyline
 62
250
  6
CONTINUOUS
 90
3
 70
0
 10
-34.1887515647
 20
4.8523249631
 10
-34.8168642064
 20
5.2545985021
 10
-35.4246249946
 20
5.6510084202
  0
LWPOLYLINE
  5
3D7
100
AcDbEntity
  8
0
100
AcDbPolyline
 62
250
  6
CONTINUOUS
 90
9
 70
0
 10
-36.2627131991
 20
9.3078948104
 10
-36.2078033568
 20
9.2727318089
 10
-36.1569006333
 20
9.2375999754
 10
-36.1103045211
 20
9.2026340317
 10
-36.0682370323
 20
9.1679168288
 10
-36.0311336927
 20
9.1336649257
 10
-35.9995212387
 20
9.1002607013
 10
-35.9736792294
 20
9.0679824296
 10
-35.9537626524
 20
9.0369725636
  0
LWPOLYLINE
  5
3D8
100
AcDbEntity
  8
0
100
AcDbPolyline
 62
250
  6
CONTINUOUS
 90
5
 70
0
 10
24.088524653
 20
-31.2377969069
 10
24.0745644438
 20
-31.2287812397
 10
24.0463539396
 20
-31.2033531659
 10
24.0231694193
 20
-31.1714203907
 10
24.0053124222
 20
-31.1336195394
  0
LINE
  5
3D9
100
AcDbEntity
  8
0
100
AcDbLine
 62
7
  6
CONTINUOUS
 10
-35.3222758525
 20
7.8559344243
 11
-35.2535225064
 21
7.8114115243
  0
LWPOLYLINE
  5
3DA
100
AcDbEntity
  8
0
100
AcDbPolyline
 62
7
  6
CONTINUOUS
 90
9
 70
0
 10
-35.2010548135
 20
7.389196239
 10
-35.2545287286
 20
7.4255287288
 10
-35.3074815741
 20
7.4644027072
 10
-35.3598632588
 20
7.5056527859
 10
-35.4116225978
 20
7.5492779289
 10
-35.4626591977
 20
7.5952269267
 10
-35.5127651545
 20
7.6432748585
 10
-35.5618160009
 20
7.6932816603
 10
-35.6098534065
 20
7.7452704813
  0
LWPOLYLINE
  5
3DB
100
AcDbEntity
  8
0
100
AcDbPolyline
 62
7
  6
CONTINUOUS
 90
5
 70
0
 10
-34.0790918486
 20
9.1584587883
 10
-34.1097871484
 20
9.1796070883
 10
-34.1352527091
 20
9.2044897939
 10
-34.1554885307
 20
9.2331069052
 10
-34.1704946131
 20
9.2654584221
  0
LWPOLYLINE
  5
3DC
100
AcDbEntity
  8
0
100
AcDbPolyline
 62
250
  6
CONTINUOUS
 90
3
 70
0
 10
-10.2059860522
 20
-6.6474416497
 10
-10.2289402592
 20
-6.6314408494
 10
-10.2959062442
 20
-6.5794826576
  0
LINE
  5
3DD
100
AcDbEntity
  8
0
100
AcDbLine
 62
250
  6
CONTINUOUS
 10
-10.1618718255
 20
-7.0502689578
 11
-10.027194884
 21
-7.1484986544
  0
LINE
  5
3DE
100
AcDbEntity
  8
0
100
AcDbLine
 62
7
  6
CONTINUOUS
 10
-10.2959062442
 20
-6.5794826576
 11
-10.1883072529
 21
-6.6617794543
  0
LINE
  5
3DF
100
AcDbEntity
  8
0
100
AcDbLine
 62
250
  6
CONTINUOUS
 10
-10.2959062442
 20
-6.5794826576
 11
-10.302147508
 21
-6.5742376519
  0
LWPOLYLINE
  5
3E0
100
AcDbEntity
  8
0
100
AcDbPolyline
 62
250
  6
CONTINUOUS
 90
5
 70
0
 10
-38.7973822882
 20
20.4703406673
 10
-38.9217190206
 20
20.5888735619
 10
-39.0434781345
 20
20.7080382004
 10
-39.1642030068
 20
20.8292427217
 10
-39.2852386383
 20
20.9536851436
  0
LWPOLYLINE
  5
3E1
100
AcDbEntity
  8
0
100
AcDbPolyline
 62
250
  6
CONTINUOUS
 90
3
 70
0
 10
-10.4219602019
 20
-6.8088296445
 10
-10.293498289
 20
-6.9370712963
 10
-10.1618718255
 20
-7.0502689578
  0
LWPOLYLINE
  5
3E2
100
AcDbEntity
  8
0
100
AcDbPolyline
 62
250
  6
CONTINUOUS
 90
10
 70
0
 10
-39.2852425108
 20
20.9536891658
 10
-39.3741277076
 20
21.0469078944
 10
-39.4603274058
 20
21.1390236295
 10
-39.5442093944
 20
21.2304965475
 10
-39.62652485
 20
21.3222158746
 10
-39.7073861326
 20
21.4143648336
 10
-39.7863651953
 20
21.506446424
 10
-39.8637698654
 20
21.5987408479
 10
-39.9405479395
 20
21.692282343
 10
-40.0173313212
 20
21.787739961
  0
LINE
  5
3E3
100
AcDbEntity
  8
0
100
AcDbLine
 62
250
  6
CONTINUOUS
 10
-10.1976015907
 20
-6.6196258954
 11
-10.1509378446
 21
-6.6820084396
  0
LINE
  5
3E4
100
AcDbEntity
  8
0
100
AcDbLine
 62
250
  6
CONTINUOUS
 10
-36.1103045209
 20
27.533216646
 11
-36.0682370321
 21
27.4764530654
  0
LWPOLYLINE
  5
3E5
100
AcDbEntity
  8
0
100
AcDbPolyline
 62
7
  6
CONTINUOUS
 90
5
 70
0
 10
-10.6941398294
 20
-6.0738533384
 10
-10.6118225345
 20
-6.2227372122
 10
-10.5165636926
 20
-6.3548182253
 10
-10.4150081994
 20
-6.4688919433
 10
-10.2959062442
 20
-6.5794826576
  0
LWPOLYLINE
  5
3E6
100
AcDbEntity
  8
0
100
AcDbPolyline
 62
250
  6
CONTINUOUS
 90
6
 70
0
 10
-10.9703719287
 20
-5.981525649
 10
-10.8843709961
 20
-6.1604558691
 10
-10.7861207257
 20
-6.3324127798
 10
-10.6735796699
 20
-6.5006718519
 10
-10.5495836631
 20
-6.6624207712
 10
-10.4219602019
 20
-6.8088296445
  0
LWPOLYLINE
  5
3E7
100
AcDbEntity
  8
0
100
AcDbPolyline
 62
250
  6
CONTINUOUS
 90
7
 70
0
 10
-10.8387133003
 20
-5.4867326935
 10
-10.8087846228
 20
-5.5567847503
 10
-10.7511560955
 20
-5.6181771458
 10
-10.6695329476
 20
-5.6691876488
 10
-10.5667274925
 20
-5.708677529
 10
-10.448885191
 20
-5.7333023432
 10
-10.326850095
 20
-5.7403454748
  0
LINE
  5
3E8
100
AcDbEntity
  8
0
100
AcDbLine
 62
250
  6
CONTINUOUS
 10
-11.0435552801
 20
-5.7953001725
 11
-10.9703719287
 21
-5.981525649
  0
LINE
  5
3E9
100
AcDbEntity
  8
0
100
AcDbLine
 62
250
  6
CONTINUOUS
 10
-18.9464494883
 20
17.7660103705
 11
-18.9101608257
 21
17.664021621
  0
LINE
  5
3EA
100
AcDbEntity
  8
0
100
AcDbLine
 62
250
  6
CONTINUOUS
 10
-18.2327315032
 20
17.6802982214
 11
-18.2599678113
 21
17.7632942747
  0
LINE
  5
3EB
100
AcDbEntity
  8
0
100
AcDbLine
 62
250
  6
CONTINUOUS
 10
-11.0681459446
 20
-5.714459568
 11
-11.0417116072
 21
-5.796210969
  0
LWPOLYLINE
  5
3EC
100
AcDbEntity
  8
0
100
AcDbPolyline
 62
250
  6
CONTINUOUS
 90
9
 70
0
 10
-10.8378451297
 20
-5.4862325084
 10
-10.8498780722
 20
-5.4403036655
 10
-10.8677640855
 20
-5.3941518095
 10
-10.8917150416
 20
-5.3480461252
 10
-10.9219032943
 20
-5.3022833519
 10
-10.9584689045
 20
-5.2571672952
 10
-11.0015224958
 20
-5.2130095942
 10
-11.0511195382
 20
-5.1701535436
 10
-11.1072470273
 20
-5.1289697343
  0
LWPOLYLINE
  5
3ED
100
AcDbEntity
  8
0
100
AcDbPolyline
 62
7
  6
CONTINUOUS
 90
4
 70
0
 10
-10.8266221288
 20
-5.6387706585
 10
-10.7975492081
 20
-5.7823991334
 10
-10.7552410934
 20
-5.9244815153
 10
-10.6941398294
 20
-6.0738533384
  0
LINE
  5
3EE
100
AcDbEntity
  8
0
100
AcDbLine
 62
7
  6
CONTINUOUS
 10
-10.8264938198
 20
-5.6390953111
 11
-10.8297977078
 21
-5.6162860654
  0
LWPOLYLINE
  5
3EF
100
AcDbEntity
  8
0
100
AcDbPolyline
 62
7
  6
CONTINUOUS
 90
3
 70
0
 10
-10.8297977078
 20
-5.6162860654
 10
-10.8347381893
 20
-5.5717381263
 10
-10.8373437522
 20
-5.5317816072
  0
LWPOLYLINE
  5
3F0
100
AcDbEntity
  8
RACCORDO
100
AcDbPolyline
 62
7
  6
CONTINUOUS
 90
6
 70
0
 10
-8.2236164189
 20
2.0759410193
 10
-8.2248485189
 20
2.089526922
 10
-8.2278037608
 20
2.1010150239
 10
-8.2324821444
 20
2.110405325
 10
-8.2391100418
 20
2.1178425615
 10
-8.2442971379
 20
2.1216987849
  0
LWPOLYLINE
  5
3F1
100
AcDbEntity
  8
RACCORDO
100
AcDbPolyline
 62
7
  6
CONTINUOUS
 90
6
 70
0
 10
-8.2236164189
 20
11.2612316332
 10
-8.2248485189
 20
11.2748175359
 10
-8.2278037608
 20
11.2863056378
 10
-8.2324821444
 20
11.2956959389
 10
-8.2391100418
 20
11.3031331754
 10
-8.2442971379
 20
11.3069893988
  0
LWPOLYLINE
  5
3F2
100
AcDbEntity
  8
0
100
AcDbPolyline
 62
250
  6
CONTINUOUS
 90
10
 70
0
 10
-9.9980194476
 20
-5.6607893161
 10
-9.9963644925
 20
-5.6861711307
 10
-9.9909337426
 20
-5.7133252651
 10
-9.9819803944
 20
-5.7412284015
 10
-9.9697747217
 20
-5.7688320972
 10
-9.9545630898
 20
-5.7951883683
 10
-9.936767433
 20
-5.8195638758
 10
-9.9170859056
 20
-5.8412700856
 10
-9.8962936061
 20
-5.8595490097
 10
-9.8751510006
 20
-5.8736696578
  0
LWPOLYLINE
  5
3F3
100
AcDbEntity
  8
0
100
AcDbPolyline
 62
250
  6
CONTINUOUS
 90
10
 70
0
 10
-10.0275404684
 20
-7.1482939876
 10
-10.0313530836
 20
-7.0794120174
 10
-10.0377184886
 20
-7.0140119308
 10
-10.0466363727
 20
-6.9523988304
 10
-10.0581102494
 20
-6.8947706063
 10
-10.0721443869
 20
-6.8415924951
 10
-10.0886481322
 20
-6.7935008424
 10
-10.1074881516
 20
-6.7508378124
 10
-10.1285840181
 20
-6.7137478465
 10
-10.1518382057
 20
-6.6824844079
  0
LINE
  5
3F4
100
AcDbEntity
  8
0
100
AcDbLine
 62
250
  6
CONTINUOUS
 10
-9.9980471043
 20
-5.6621262472
 11
-9.9980471043
 21
12.4701459551
  0
LINE
  5
3F5
100
AcDbEntity
  8
0
100
AcDbLine
 62
7
  6
CONTINUOUS
 10
-9.0826498296
 20
11.9208306733
 11
-9.0826498296
 21
-5.1523129157
  0
LINE
  5
3F6
100
AcDbEntity
  8
RACCORDO
100
AcDbLine
 62
7
  6
CONTINUOUS
 10
-8.2236164189
 20
-0.2012942602
 11
-8.2236164189
 21
2.0759410193
  0
LINE
  5
3F7
100
AcDbEntity
  8
RACCORDO
100
AcDbLine
 62
7
  6
CONTINUOUS
 10
-8.2236164189
 20
8.9839963537
 11
-8.2236164189
 21
11.2612316332
  0
LWPOLYLINE
  5
3F8
100
AcDbEntity
  8
0
100
AcDbPolyline
 62
250
  6
CONTINUOUS
 90
10
 70
0
 10
-9.9979163109
 20
3.4039199352
 10
-10.0981989334
 20
3.3605881813
 10
-10.2114865127
 20
3.3336014723
 10
-10.3319721504
 20
3.323728397
 10
-10.4540384759
 20
3.331122701
 10
-10.5700031532
 20
3.3555093073
 10
-10.6712953662
 20
3.3949484019
 10
-10.7520473912
 20
3.4466461482
 10
-10.8085484602
 20
3.5083290045
 10
-10.837674209
 20
3.5772731402
  0
LWPOLYLINE
  5
3F9
100
AcDbEntity
  8
0
100
AcDbPolyline
 62
250
  6
CONTINUOUS
 90
7
 70
0
 10
31.385511443
 20
-11.7396307039
 10
31.2631236939
 20
-11.7230455994
 10
31.156290517
 20
-11.6901103997
 10
31.0679660442
 20
-11.6429467294
 10
31.0006080921
 20
-11.5828567527
 10
30.9591578028
 20
-11.5138525209
 10
30.9471424542
 20
-11.4511880275
  0
LWPOLYLINE
  5
3FA
100
AcDbEntity
  8
0
100
AcDbPolyline
 62
250
  6
CONTINUOUS
 90
10
 70
0
 10
36.3791295976
 20
-22.7339732807
 10
36.5405791667
 20
-22.7852942502
 10
36.7001179583
 20
-22.835064912
 10
36.8585428962
 20
-22.8834976653
 10
37.0173939761
 20
-22.9310262822
 10
37.176988447
 20
-22.9777156849
 10
37.3364659088
 20
-23.0233185086
 10
37.4963125607
 20
-23.0680119654
 10
37.6583205681
 20
-23.1123427652
 10
37.8236496393
 20
-23.1566752119
  0
LWPOLYLINE
  5
3FB
100
AcDbEntity
  8
0
100
AcDbPolyline
 62
250
  6
CONTINUOUS
 90
10
 70
0
 10
34.5143821522
 20
-22.0655585003
 10
34.7217746626
 20
-22.1469746671
 10
34.9274934631
 20
-22.2261795148
 10
35.1320375924
 20
-22.3032577512
 10
35.3367562383
 20
-22.3786134202
 10
35.5420006466
 20
-22.4522881687
 10
35.7472919684
 20
-22.5240788979
 10
35.9536774446
 20
-22.5943813355
 10
36.1635959922
 20
-22.6640865465
 10
36.3791226255
 20
-22.7339710482
  0
LWPOLYLINE
  5
3FC
100
AcDbEntity
  8
0
100
AcDbPolyline
 62
250
  6
CONTINUOUS
 90
10
 70
0
 10
-19.2228787545
 20
-1.8390260365
 10
-19.0907681986
 20
-1.8947403832
 10
-18.9636612061
 20
-1.9308676163
 10
-18.8414436887
 20
-1.947331707
 10
-18.7216121474
 20
-1.9438085113
 10
-18.6062078775
 20
-1.9203265913
 10
-18.5018929827
 20
-1.8773191319
 10
-18.4106613371
 20
-1.8147994361
 10
-18.3297248914
 20
-1.7322911562
 10
-18.2585156481
 20
-1.6294724806
  0
LWPOLYLINE
  5
3FD
100
AcDbEntity
  8
RACCORDO
100
AcDbPolyline
 62
7
  6
CONTINUOUS
 90
10
 70
0
 10
20.8599958817
 20
-21.590893554
 10
20.8463815562
 20
-21.5844556113
 10
20.831999242
 20
-21.5795640826
 10
20.8168489391
 20
-21.5762189677
 10
20.8004657296
 20
-21.5744132376
 10
20.7833145313
 20
-21.5741539214
 10
20.7667900981
 20
-21.575462107
 10
20.7513573479
 20
-21.5783448237
 10
20.7365513629
 20
-21.5827950422
 10
20.7223721429
 20
-21.5888127625
  0
LWPOLYLINE
  5
3FE
100
AcDbEntity
  8
RACCORDO
100
AcDbPolyline
 62
7
  6
CONTINUOUS
 90
10
 70
0
 10
3.7126564379
 20
-11.6902346658
 10
3.6990421124
 20
-11.6837967231
 10
3.6846597982
 20
-11.6789051944
 10
3.6695094953
 20
-11.6755600795
 10
3.6531262858
 20
-11.6737543494
 10
3.6359750875
 20
-11.6734950332
 10
3.6194506543
 20
-11.6748032188
 10
3.6040179042
 20
-11.6776859355
 10
3.5892119191
 20
-11.682136154
 10
3.5750326991
 20
-11.6881538743
  0
LWPOLYLINE
  5
3FF
100
AcDbEntity
  8
RACCORDO
100
AcDbPolyline
 62
7
  6
CONTINUOUS
 90
10
 70
0
 10
-4.2422948505
 20
-7.0971454909
 10
-4.2559091759
 20
-7.0907075482
 10
-4.2702914901
 20
-7.0858160194
 10
-4.285441793
 20
-7.0824709046
 10
-4.3018250026
 20
-7.0806651745
 10
-4.3189762008
 20
-7.0804058582
 10
-4.335500634
 20
-7.0817140438
 10
-4.3509333842
 20
-7.0845967605
 10
-4.3657393692
 20
-7.089046979
 10
-4.3799185892
 20
-7.0950646993
  0
LWPOLYLINE
  5
400
100
AcDbEntity
  8
0
100
AcDbPolyline
 62
250
  6
CONTINUOUS
 90
8
 70
0
 10
-11.0426334159
 20
-5.7957556527
 10
-10.9857389146
 20
-5.8240775744
 10
-10.9336743779
 20
-5.8417550048
 10
-10.8870683826
 20
-5.8516396559
 10
-10.846650871
 20
-5.856666245
 10
-10.8130727233
 20
-5.8596363026
 10
-10.7869690501
 20
-5.8633148797
 10
-10.7688361604
 20
-5.8703938473
  0
LINE
  5
401
100
AcDbEntity
  8
0
100
AcDbLine
 62
250
  6
CONTINUOUS
 10
6.907803408
 20
-15.530235209
 11
6.9707485777
 21
-15.5639818491
  0
LWPOLYLINE
  5
402
100
AcDbEntity
  8
0
100
AcDbPolyline
 62
250
  6
CONTINUOUS
 90
6
 70
0
 10
-18.1314191532
 20
-1.0703048053
 10
-18.1944154551
 20
-1.0365327228
 10
-18.2616599241
 20
-1.0055093788
 10
-18.3327975765
 20
-0.9774167319
 10
-18.4074754355
 20
-0.9524136945
 10
-18.4852686178
 20
-0.9306611738
  0
LINE
  5
403
100
AcDbEntity
  8
0
100
AcDbLine
 62
250
  6
CONTINUOUS
 10
-11.0417116072
 20
-5.796210969
 11
-18.2585035506
 21
-1.6293257485
  0
LINE
  5
404
100
AcDbEntity
  8
0
100
AcDbLine
 62
250
  6
CONTINUOUS
 10
6.8436654748
 20
-16.1229999077
 11
14.0608816183
 21
-20.290130056
  0
LINE
  5
405
100
AcDbEntity
  8
0
100
AcDbLine
 62
250
  6
CONTINUOUS
 10
5.8624000663
 20
-14.960334134
 11
-9.8799389755
 21
-5.8709048691
  0
LINE
  5
406
100
AcDbEntity
  8
0
100
AcDbLine
 62
250
  6
CONTINUOUS
 10
15.2222279501
 20
-20.3645814479
 11
30.964057502
 21
-29.4537165397
  0
LINE
  5
407
100
AcDbEntity
  8
0
100
AcDbLine
 62
250
  6
CONTINUOUS
 10
-19.2397677081
 20
-0.4666570651
 11
-34.9821062549
 21
8.622771914
  0
LINE
  5
408
100
AcDbEntity
  8
0
100
AcDbLine
 62
7
  6
CONTINUOUS
 10
30.9465863757
 20
-28.3865528553
 11
16.1250557104
 21
-19.8287868066
  0
LINE
  5
409
100
AcDbEntity
  8
0
100
AcDbLine
 62
7
  6
CONTINUOUS
 10
5.8444186448
 20
-13.8928758115
 11
-8.9771120205
 21
-5.3351097628
  0
LINE
  5
40A
100
AcDbEntity
  8
0
100
AcDbLine
 62
7
  6
CONTINUOUS
 10
-19.2577490861
 20
0.6008012322
 11
-34.0792797512
 21
9.1585672809
  0
LINE
  5
40B
100
AcDbEntity
  8
DRAFT
100
AcDbLine
 62
7
  6
CONTINUOUS
 10
30.0669487968
 20
-27.7642592867
 11
30.1172024632
 21
-27.7932692056
  0
LINE
  5
40C
100
AcDbEntity
  8
DRAFT
100
AcDbLine
 62
7
  6
CONTINUOUS
 10
27.8734517461
 20
-26.4977615806
 11
30.0669487968
 21
-27.7642592867
  0
LINE
  5
40D
100
AcDbEntity
  8
DRAFT
100
AcDbLine
 62
7
  6
CONTINUOUS
 10
-30.2860810064
 20
7.0828237206
 11
-28.0423302894
 21
5.7873160956
  0
LINE
  5
40E
100
AcDbEntity
  8
DRAFT
100
AcDbLine
 62
7
  6
CONTINUOUS
 10
-30.1744563049
 20
7.1408553949
 11
-27.992076623
 21
5.8807767182
  0
LINE
  5
40F
100
AcDbEntity
  8
DRAFT
100
AcDbLine
 62
7
  6
CONTINUOUS
 10
27.9850764477
 20
-26.4397299063
 11
30.1674561296
 21
-27.699808583
  0
LINE
  5
410
100
AcDbEntity
  8
DRAFT
100
AcDbLine
 62
7
  6
CONTINUOUS
 10
30.2344610181
 20
-27.6568414472
 11
30.2847146845
 21
-27.6858513661
  0
LINE
  5
411
100
AcDbEntity
  8
DRAFT
100
AcDbLine
 62
7
  6
CONTINUOUS
 10
28.0594929155
 20
-26.4010421235
 11
30.2344610181
 21
-27.6568414472
  0
LINE
  5
412
100
AcDbEntity
  8
DRAFT
100
AcDbLine
 62
7
  6
CONTINUOUS
 10
-30.1000398371
 20
7.1795431777
 11
-27.8748180681
 21
5.8947339351
  0
LINE
  5
413
100
AcDbEntity
  8
DRAFT
100
AcDbLine
 62
7
  6
CONTINUOUS
 10
-29.9884151355
 20
7.237574852
 11
-27.8245644017
 21
5.9881945577
  0
LINE
  5
414
100
AcDbEntity
  8
DRAFT
100
AcDbLine
 62
7
  6
CONTINUOUS
 10
28.1711176171
 20
-26.3430104492
 11
30.3349683509
 21
-27.5923907435
  0
LINE
  5
415
100
AcDbEntity
  8
DRAFT
100
AcDbLine
 62
7
  6
CONTINUOUS
 10
30.4019732394
 20
-27.5494236077
 11
30.4522269058
 21
-27.5784335266
  0
LINE
  5
416
100
AcDbEntity
  8
DRAFT
100
AcDbLine
 62
7
  6
CONTINUOUS
 10
28.2455340848
 20
-26.3043226663
 11
30.4019732394
 21
-27.5494236077
  0
LINE
  5
417
100
AcDbEntity
  8
DRAFT
100
AcDbLine
 62
7
  6
CONTINUOUS
 10
-29.9139986678
 20
7.2762626349
 11
-27.7073058468
 21
6.0021517746
  0
LINE
  5
418
100
AcDbEntity
  8
DRAFT
100
AcDbLine
 62
7
  6
CONTINUOUS
 10
-29.8023739662
 20
7.3342943091
 11
-27.6570521805
 21
6.0956123973
  0
LINE
  5
419
100
AcDbEntity
  8
DRAFT
100
AcDbLine
 62
7
  6
CONTINUOUS
 10
28.3571587864
 20
-26.2462909921
 11
30.5024805721
 21
-27.484972904
  0
LINE
  5
41A
100
AcDbEntity
  8
DRAFT
100
AcDbLine
 62
7
  6
CONTINUOUS
 10
30.5694854606
 20
-27.4420057681
 11
30.619739127
 21
-27.471015687
  0
LINE
  5
41B
100
AcDbEntity
  8
DRAFT
100
AcDbLine
 62
7
  6
CONTINUOUS
 10
28.4315752541
 20
-26.2076032092
 11
30.5694854606
 21
-27.4420057681
  0
LINE
  5
41C
100
AcDbEntity
  8
DRAFT
100
AcDbLine
 62
7
  6
CONTINUOUS
 10
-29.7279574985
 20
7.372982092
 11
-27.5397936256
 21
6.1095696142
  0
LINE
  5
41D
100
AcDbEntity
  8
DRAFT
100
AcDbLine
 62
7
  6
CONTINUOUS
 10
-29.6163327969
 20
7.4310137663
 11
-27.4895399592
 21
6.2030302368
  0
LINE
  5
41E
100
AcDbEntity
  8
DRAFT
100
AcDbLine
 62
7
  6
CONTINUOUS
 10
28.5431999557
 20
-26.1495715349
 11
30.6699927934
 21
-27.3775550644
  0
LINE
  5
41F
100
AcDbEntity
  8
RACCORDO
100
AcDbLine
 62
7
  6
CONTINUOUS
 10
5.6848635767
 20
-12.8289623502
 11
3.7126564379
 21
-11.6902346658
  0
LINE
  5
420
100
AcDbEntity
  8
RACCORDO
100
AcDbLine
 62
7
  6
CONTINUOUS
 10
-2.2700877117
 20
-8.2358731752
 11
-4.2422948505
 21
-7.0971454909
  0
LINE
  5
421
100
AcDbEntity
  8
RACCORDO
100
AcDbLine
 62
7
  6
CONTINUOUS
 10
20.8599958817
 20
-21.590893554
 11
22.8322030204
 21
-22.7296212384
  0
LINE
  5
422
100
AcDbEntity
  8
RACCORDO
100
AcDbLine
 62
7
  6
CONTINUOUS
 10
-19.4174271555
 20
1.664785713
 11
-21.3896342942
 21
2.8035133973
  0
LINE
  5
423
100
AcDbEntity
  8
RACCORDO
100
AcDbLine
 62
7
  6
CONTINUOUS
 10
-29.3445855826
 20
7.4986613569
 11
-27.3723784438
 21
6.3599336725
  0
LINE
  5
424
100
AcDbEntity
  8
RACCORDO
100
AcDbLine
 62
7
  6
CONTINUOUS
 10
28.81494717
 20
-26.0819239443
 11
30.7871543088
 21
-27.2206516287
  0
LINE
  5
425
100
AcDbEntity
  8
0
100
AcDbLine
 62
250
  6
CONTINUOUS
 10
13.9897068525
 20
-19.6191393228
 11
13.9323314376
 21
-19.5835125432
  0
LINE
  5
426
100
AcDbEntity
  8
0
100
AcDbLine
 62
250
  6
CONTINUOUS
 10
-11.1072470273
 20
-5.1289697343
 11
-11.1698362951
 21
-5.0898354976
  0
LWPOLYLINE
  5
427
100
AcDbEntity
  8
0
100
AcDbPolyline
 62
250
  6
CONTINUOUS
 90
3
 70
0
 10
14.9506512189
 20
-21.1758530026
 10
14.8653400377
 20
-21.1200200184
 10
14.8108641093
 20
-21.0775747365
  0
LWPOLYLINE
  5
428
100
AcDbEntity
  8
0
100
AcDbPolyline
 62
7
  6
CONTINUOUS
 90
7
 70
0
 10
-8.9769241172
 20
-5.3352182558
 10
-9.007619443
 20
-5.3140699122
 10
-9.0330850194
 20
-5.2891871801
 10
-9.0533208462
 20
-5.2605700593
 10
-9.0683269236
 20
-5.2282185499
 10
-9.0781032514
 20
-5.1921326519
 10
-9.0826498296
 20
-5.1523123653
  0
LWPOLYLINE
  5
429
100
AcDbEntity
  8
0
100
AcDbPolyline
 62
7
  6
CONTINUOUS
 90
7
 70
0
 10
16.1252436129
 20
-19.8288952991
 10
16.0945483185
 20
-19.807747008
 10
16.069082761
 20
-19.7828643078
 10
16.0488469406
 20
-19.7542471985
 10
16.0338408571
 20
-19.7218956801
 10
16.0240645107
 20
-19.6858097526
 10
16.0195179013
 20
-19.645989416
  0
LINE
  5
42A
100
AcDbEntity
  8
0
100
AcDbLine
 62
250
  6
CONTINUOUS
 10
14.0424454879
 20
-19.657072516
 11
13.9897068525
 21
-19.6191393228
  0
LINE
  5
42B
100
AcDbEntity
  8
0
100
AcDbLine
 62
250
  6
CONTINUOUS
 10
15.0751130726
 20
-21.6423009539
 11
14.9337202507
 21
-21.536607961
  0
LWPOLYLINE
  5
42C
100
AcDbEntity
  8
0
100
AcDbPolyline
 62
250
  6
CONTINUOUS
 90
6
 70
0
 10
-38.1275907265
 20
19.8770062127
 10
-38.2685985818
 20
19.9967520473
 10
-38.4057765292
 20
20.1155315245
 10
-38.5392712437
 20
20.2336328026
 10
-38.6697824637
 20
20.3518349092
 10
-38.7973822882
 20
20.4703406673
  0
LWPOLYLINE
  5
42D
100
AcDbEntity
  8
0
100
AcDbPolyline
 62
250
  6
CONTINUOUS
 90
10
 70
0
 10
-2.2802927625
 20
-11.2274300937
 10
-2.242316802
 20
-11.2668185115
 10
-2.2077407417
 20
-11.3112124612
 10
-2.1767131612
 20
-11.3604387247
 10
-2.1493065891
 20
-11.4144921381
 10
-2.1257799283
 20
-11.4730369078
 10
-2.1064527781
 20
-11.5352792438
 10
-2.0914087519
 20
-11.6007056472
 10
-2.0806212351
 20
-11.6692100791
 10
-2.0741276301
 20
-11.7405060166
  0
LINE
  5
42E
100
AcDbEntity
  8
0
100
AcDbLine
 62
250
  6
CONTINUOUS
 10
-18.9920178937
 20
17.8680836641
 11
-18.9464494883
 21
17.7660103705
  0
LWPOLYLINE
  5
42F
100
AcDbEntity
  8
0
100
AcDbPolyline
 62
7
  6
CONTINUOUS
 90
10
 70
0
 10
-18.9005204828
 20
17.6670989365
 10
-18.8785411581
 20
17.6176765474
 10
-18.8591341922
 20
17.5683136825
 10
-18.842397653
 20
17.5193319682
 10
-18.8284934734
 20
17.4710800261
 10
-18.81741919
 20
17.4237833291
 10
-18.8090147788
 20
17.3775331318
 10
-18.803262027
 20
17.3324909323
 10
-18.8002732068
 20
17.2888932874
 10
-18.800070325
 20
17.2468987514
  0
LWPOLYLINE
  5
430
100
AcDbEntity
  8
0
100
AcDbPolyline
 62
250
  6
CONTINUOUS
 90
9
 70
0
 10
-2.2802927625
 20
8.4918742281
 10
-2.242316802
 20
8.5751162884
 10
-2.2077407417
 20
8.6594377718
 10
-2.1767131612
 20
8.7444938847
 10
-2.1493065891
 20
8.830195709
 10
-2.1257799283
 20
8.9159084767
 10
-2.1064527781
 20
9.0004693327
 10
-2.0914087519
 20
9.0832682234
 10
-2.0806212351
 20
9.1642298433
  0
LWPOLYLINE
  5
431
100
AcDbEntity
  8
RACCORDO
100
AcDbPolyline
 62
7
  6
CONTINUOUS
 90
10
 70
0
 10
-8.2906263861
 20
-0.3215201087
 10
-8.2783256132
 20
-0.3122488226
 10
-8.2670688666
 20
-0.3016511426
 10
-8.2568561465
 20
-0.2897270687
 10
-8.247461081
 20
-0.2760704562
 10
-8.2391100418
 20
-0.2610874497
 10
-8.2324821444
 20
-0.2459964835
 10
-8.2278037608
 20
-0.2312037022
 10
-8.2248485189
 20
-0.2163029611
 10
-8.2236164189
 20
-0.2012942602
  0
LINE
  5
432
100
AcDbEntity
  8
0
100
AcDbLine
 62
7
  6
CONTINUOUS
 10
-8.2906263861
 20
-0.3215201087
 11
-9.0826498296
 21
-0.8267525036
  0
LINE
  5
433
100
AcDbEntity
  8
0
100
AcDbLine
 62
7
  6
CONTINUOUS
 10
-8.4748526771
 20
2.221105843
 11
-9.0826498296
 21
1.8701676334
  0
LINE
  5
434
100
AcDbEntity
  8
0
100
AcDbLine
 62
7
  6
CONTINUOUS
 10
-8.2906263861
 20
2.1187854374
 11
-9.0826498296
 21
1.7094090125
  0
LWPOLYLINE
  5
435
100
AcDbEntity
  8
RACCORDO
100
AcDbPolyline
 62
7
  6
CONTINUOUS
 90
6
 70
0
 10
-8.4748526771
 20
2.221105843
 10
-8.4612333528
 20
2.2269111624
 10
-8.4471633611
 20
2.2290936881
 10
-8.4332203793
 20
2.2277534262
 10
-8.4200520652
 20
2.2230490565
 10
-8.4163602257
 20
2.2210520412
  0
LWPOLYLINE
  5
436
100
AcDbEntity
  8
0
100
AcDbPolyline
 62
250
  6
CONTINUOUS
 90
3
 70
0
 10
14.7755689352
 20
-2.107714162
 10
14.893783051
 20
-2.0970879855
 10
15.0048172007
 20
-2.0694786507
  0
LWPOLYLINE
  5
437
100
AcDbEntity
  8
0
100
AcDbPolyline
 62
250
  6
CONTINUOUS
 90
3
 70
0
 10
-10.326850095
 20
-5.7403454748
 10
-10.208478745
 20
-5.7302862532
 10
-10.0973655873
 20
-5.703792874
  0
LWPOLYLINE
  5
438
100
AcDbEntity
  8
0
100
AcDbPolyline
 62
250
  6
CONTINUOUS
 90
5
 70
0
 10
-18.4852686178
 20
-0.9306611738
 10
-18.565672855
 20
-0.9123097224
 10
-18.6482149178
 20
-0.897468466
 10
-18.7324645867
 20
-0.8862158464
 10
-18.8179546835
 20
-0.8786172675
  0
LWPOLYLINE
  5
439
100
AcDbEntity
  8
RACCORDO
100
AcDbPolyline
 62
7
  6
CONTINUOUS
 90
6
 70
0
 10
16.8579935942
 20
-12.3720492783
 10
16.8548296512
 20
-12.3705660659
 10
16.8454345856
 20
-12.3677586396
 10
16.8352218655
 20
-12.3676279589
 10
16.823965119
 20
-12.3700292876
 10
16.811664346
 20
-12.3749626258
  0
LWPOLYLINE
  5
43A
100
AcDbEntity
  8
RACCORDO
100
AcDbPolyline
 62
7
  6
CONTINUOUS
 90
10
 70
0
 10
-21.3896342942
 20
2.8035133973
 10
-21.4032486197
 20
2.80995134
 10
-21.4176309339
 20
2.8148428688
 10
-21.4327812368
 20
2.8181879836
 10
-21.4491644463
 20
2.8199937137
 10
-21.4663156446
 20
2.82025303
 10
-21.4828400778
 20
2.8189448444
 10
-21.498272828
 20
2.8160621277
 10
-21.513078813
 20
2.8116119092
 10
-21.527258033
 20
2.8055941889
  0
LWPOLYLINE
  5
43B
100
AcDbEntity
  8
RACCORDO
100
AcDbPolyline
 62
7
  6
CONTINUOUS
 90
10
 70
0
 10
-29.3445855826
 20
7.4986613569
 10
-29.3581999081
 20
7.5050992996
 10
-29.3725822222
 20
7.5099908283
 10
-29.3877325251
 20
7.5133359431
 10
-29.4041157347
 20
7.5151416733
 10
-29.421266933
 20
7.5154009895
 10
-29.4377913661
 20
7.5140928039
 10
-29.4532241163
 20
7.5112100872
 10
-29.4680301014
 20
7.5067598687
 10
-29.4822093213
 20
7.5007421484
  0
LWPOLYLINE
  5
43C
100
AcDbEntity
  8
0
100
AcDbPolyline
 62
250
  6
CONTINUOUS
 90
10
 70
0
 10
32.1144710498
 20
-20.9888048513
 10
32.364596755
 20
-21.1134669146
 10
32.6236611312
 20
-21.2388687562
 10
32.8892197184
 20
-21.3639979854
 10
33.1570497116
 20
-21.487045596
 10
33.4262978846
 20
-21.607773302
 10
33.6994207524
 20
-21.7272985012
 10
33.9750414905
 20
-21.8449046975
 10
34.2479888876
 20
-21.9582449262
 10
34.5143821522
 20
-22.0655585003
  0
LWPOLYLINE
  5
43D
100
AcDbEntity
  8
0
100
AcDbPolyline
 62
250
  6
CONTINUOUS
 90
10
 70
0
 10
-36.2627191206
 20
18.4913275601
 10
-36.4732511115
 20
18.632093803
 10
-36.6872892551
 20
18.7793767011
 10
-36.9031513124
 20
18.9319395843
 10
-37.118784437
 20
19.088263886
 10
-37.3324374622
 20
19.2470313796
 10
-37.5425948595
 20
19.4071130659
 10
-37.747058397
 20
19.5668854901
 10
-37.9430000503
 20
19.7242285716
 10
-38.1275907264
 20
19.8770060936
  0
LINE
  5
43E
100
AcDbEntity
  8
0
100
AcDbLine
 62
250
  6
CONTINUOUS
 10
14.8108641093
 20
-21.0775747365
 11
14.7997451306
 21
-21.0682609711
  0
LWPOLYLINE
  5
43F
100
AcDbEntity
  8
0
100
AcDbPolyline
 62
250
  6
CONTINUOUS
 90
8
 70
0
 10
14.9337202507
 20
-21.536607961
 10
14.79717038
 20
-21.4176194015
 10
14.6655905118
 20
-21.2852541508
 10
14.536786307
 20
-21.1361289616
 10
14.4134356133
 20
-20.9733270561
 10
14.3029806411
 20
-20.8064672101
 10
14.2080776646
 20
-20.638655632
 10
14.1267316324
 20
-20.4664039878
  0
LWPOLYLINE
  5
440
100
AcDbEntity
  8
0
100
AcDbPolyline
 62
7
  6
CONTINUOUS
 90
3
 70
0
 10
14.5941591828
 20
-20.8589862842
 10
14.7044508228
 20
-20.9800030465
 10
14.8112100962
 20
-21.0772822681
  0
LWPOLYLINE
  5
441
100
AcDbEntity
  8
0
100
AcDbPolyline
 62
250
  6
CONTINUOUS
 90
5
 70
0
 10
-18.5919028657
 20
18.4584014918
 10
-18.4891947166
 20
18.2870687271
 10
-18.400777046
 20
18.1155126146
 10
-18.3240584814
 20
17.9405891284
 10
-18.2585826125
 20
17.7625669241
  0
LWPOLYLINE
  5
442
100
AcDbEntity
  8
0
100
AcDbPolyline
 62
250
  6
CONTINUOUS
 90
9
 70
0
 10
-10.8380144899
 20
12.640742304
 10
-10.8082593048
 20
12.572107574
 10
-10.750476705
 20
12.5105932946
 10
-10.6682688117
 20
12.4589113223
 10
-10.5657360812
 20
12.4187914966
 10
-10.4490823129
 20
12.3933621661
 10
-10.3271981957
 20
12.3856821009
 10
-10.2077960549
 20
12.3962004441
 10
-10.0962311978
 20
12.4240268827
  0
LINE
  5
443
100
AcDbEntity
  8
RACCORDO
100
AcDbLine
 62
250
  6
CONTINUOUS
 10
-2.2664839073
 20
-8.3153353972
 11
-2.2664839073
 21
-8.5240056085
  0
LINE
  5
444
100
AcDbEntity
  8
RACCORDO
100
AcDbLine
 62
7
  6
CONTINUOUS
 10
-2.2407983898
 20
-8.2767006346
 11
-2.2407983898
 21
-8.4753535061
  0
LINE
  5
445
100
AcDbEntity
  8
0
100
AcDbLine
 62
250
  6
CONTINUOUS
 10
-2.0806212351
 20
9.1642298433
 11
-2.0741276301
 21
9.2430244782
  0
LWPOLYLINE
  5
446
100
AcDbEntity
  8
0
100
AcDbPolyline
 62
250
  6
CONTINUOUS
 90
9
 70
0
 10
-9.8751510006
 20
-5.8736696578
 10
-9.9642336098
 20
-5.9387777803
 10
-10.0438512409
 20
-6.0222657585
 10
-10.1120949173
 20
-6.1197064093
 10
-10.1675560888
 20
-6.2275138216
 10
-10.2066419333
 20
-6.3390403194
 10
-10.225312408
 20
-6.4449479328
 10
-10.2223232584
 20
-6.5394184405
 10
-10.1976015907
 20
-6.6196258954
  0
LINE
  5
447
100
AcDbEntity
  8
0
100
AcDbLine
 62
7
  6
CONTINUOUS
 10
-8.9771120205
 20
-5.3351097628
 11
-9.582878309
 21
-5.69762608
  0
LINE
  5
448
100
AcDbEntity
  8
0
100
AcDbLine
 62
7
  6
CONTINUOUS
 10
-9.582878309
 20
-5.69762608
 11
-9.8799389755
 21
-5.8709048691
  0
LINE
  5
449
100
AcDbEntity
  8
0
100
AcDbLine
 62
7
  6
CONTINUOUS
 10
-9.7551008104
 20
-5.5266398269
 11
-9.836273696
 21
-5.5724050004
  0
LINE
  5
44A
100
AcDbEntity
  8
0
100
AcDbLine
 62
7
  6
CONTINUOUS
 10
-9.0826498296
 20
-5.1523129157
 11
-9.7551008104
 21
-5.5266398269
  0
LINE
  5
44B
100
AcDbEntity
  8
0
100
AcDbLine
 62
7
  6
CONTINUOUS
 10
-9.836273696
 20
-5.5724050004
 11
-9.9172513031
 21
-5.6175562189
  0
LINE
  5
44C
100
AcDbEntity
  8
0
100
AcDbLine
 62
7
  6
CONTINUOUS
 10
-9.9172513031
 20
-5.6175562189
 11
-9.9980471043
 21
-5.6621262472
  0
LINE
  5
44D
100
AcDbEntity
  8
0
100
AcDbLine
 62
250
  6
CONTINUOUS
 10
6.2915895495
 20
3.2001054821
 11
6.4541000197
 21
3.2559605719
  0
LWPOLYLINE
  5
44E
100
AcDbEntity
  8
0
100
AcDbPolyline
 62
250
  6
CONTINUOUS
 90
7
 70
0
 10
6.4541000197
 20
3.2559605719
 10
6.5277410083
 20
3.2791186327
 10
6.5969491385
 20
3.2963326959
 10
6.6626299877
 20
3.3058004689
 10
6.7252678099
 20
3.3056416761
 10
6.7851488572
 20
3.2940891867
 10
6.8425582727
 20
3.2694071806
  0
LINE
  5
44F
100
AcDbEntity
  8
0
100
AcDbLine
 62
250
  6
CONTINUOUS
 10
6.2022600728
 20
3.1723296896
 11
6.2915895495
 21
3.2001054821
  0
LWPOLYLINE
  5
450
100
AcDbEntity
  8
0
100
AcDbPolyline
 62
250
  6
CONTINUOUS
 90
7
 70
0
 10
-18.8186853471
 20
-0.8789873926
 10
-18.9417336379
 20
-0.8637827092
 10
-19.048830171
 20
-0.8310911865
 10
-19.1371048789
 20
-0.7833193424
 10
-19.204167358
 20
-0.722350054
 10
-19.2453198786
 20
-0.652890125
 10
-19.2572146018
 20
-0.590394674
  0
LWPOLYLINE
  5
451
100
AcDbEntity
  8
RACCORDO
100
AcDbPolyline
 62
7
  6
CONTINUOUS
 90
6
 70
0
 10
-8.2442971379
 20
2.1216987849
 10
-8.247461081
 20
2.1231819972
 10
-8.2568561465
 20
2.1259894236
 10
-8.2670688666
 20
2.1261201042
 10
-8.2783256132
 20
2.1237187755
 10
-8.2906263861
 20
2.1187854374
  0
LINE
  5
452
100
AcDbEntity
  8
RACCORDO
100
AcDbLine
 62
250
  6
CONTINUOUS
 10
-8.4713459122
 20
2.2231306268
 11
-8.2906263861
 21
2.1187854374
  0
LINE
  5
453
100
AcDbEntity
  8
RACCORDO
100
AcDbLine
 62
250
  6
CONTINUOUS
 10
16.6309448199
 20
-12.2706174364
 11
16.811664346
 21
-12.3749626258
  0
LINE
  5
454
100
AcDbEntity
  8
RACCORDO
100
AcDbLine
 62
250
  6
CONTINUOUS
 10
-33.3045287706
 20
16.5614991763
 11
-33.5736366443
 21
16.7168786899
  0
LINE
  5
455
100
AcDbEntity
  8
RACCORDO
100
AcDbLine
 62
7
  6
CONTINUOUS
 10
-8.416367656
 20
2.221050163
 11
-8.244324681
 21
2.1217147054
  0
LINE
  5
456
100
AcDbEntity
  8
RACCORDO
100
AcDbLine
 62
7
  6
CONTINUOUS
 10
16.6859230761
 20
-12.2726979001
 11
16.8579660511
 21
-12.3720333577
  0
LINE
  5
457
100
AcDbEntity
  8
RACCORDO
100
AcDbLine
 62
7
  6
CONTINUOUS
 10
-33.2582270655
 20
16.5644284444
 11
-33.5186583882
 21
16.7147982261
  0
LINE
  5
458
100
AcDbEntity
  8
0
100
AcDbLine
 62
7
  6
CONTINUOUS
 10
40.0715844385
 20
-23.7328475072
 11
39.3644811221
 21
-23.3245749145
  0
LWPOLYLINE
  5
459
100
AcDbEntity
  8
0
100
AcDbPolyline
 62
250
  6
CONTINUOUS
 90
4
 70
0
 10
-36.2627131992
 20
27.6747667351
 10
-36.2078033566
 20
27.632441453
 10
-36.1569006332
 20
27.5852131826
 10
-36.1103045209
 20
27.533216646
  0
LWPOLYLINE
  5
45A
100
AcDbEntity
  8
0
100
AcDbPolyline
 62
250
  6
CONTINUOUS
 90
7
 70
0
 10
-27.350109154
 20
22.4689222744
 10
-27.3988910894
 20
22.5110134748
 10
-27.4361284908
 20
22.5798379081
 10
-27.4533331787
 20
22.666932554
 10
-27.4499495807
 20
22.7665732313
 10
-27.4260480794
 20
22.8743946432
 10
-27.3823613485
 20
22.9855227257
  0
LWPOLYLINE
  5
45B
100
AcDbEntity
  8
0
100
AcDbPolyline
 62
250
  6
CONTINUOUS
 90
7
 70
0
 10
-35.2200853993
 20
27.0134332673
 10
-35.2697220118
 20
27.0568559644
 10
-35.3088066077
 20
27.1275584857
 10
-35.3274770808
 20
27.215435394
 10
-35.3244888872
 20
27.3140765794
 10
-35.2997683848
 20
27.4204496224
 10
-35.2531052571
 20
27.5309665835
  0
LWPOLYLINE
  5
45C
100
AcDbEntity
  8
0
100
AcDbPolyline
 62
250
  6
CONTINUOUS
 90
10
 70
0
 10
22.8218748858
 20
-25.7211070665
 10
22.8598508096
 20
-25.7604954478
 10
22.8944268452
 20
-25.8048893702
 10
22.9254544131
 20
-25.8541156165
 10
22.9528609842
 20
-25.9081690237
 10
22.9763876554
 20
-25.966713799
 10
22.995714827
 20
-26.0289561535
 10
23.0107588848
 20
-26.094382589
 10
23.0215464424
 20
-26.1628870665
 10
23.0280400966
 20
-26.2341830635
  0
LWPOLYLINE
  5
45D
100
AcDbEntity
  8
0
100
AcDbPolyline
 62
250
  6
CONTINUOUS
 90
9
 70
0
 10
14.9502681311
 20
-21.1763245802
 10
14.9039115831
 20
-21.1133255891
 10
14.8790268487
 20
-21.0310322398
 10
14.8760877126
 20
-20.9338806795
 10
14.8952727727
 20
-20.8266822778
 10
14.935356712
 20
-20.7157880357
 10
14.9922157857
 20
-20.6088493559
 10
15.0616730495
 20
-20.51214664
 10
15.1411172053
 20
-20.4302344278
  0
LWPOLYLINE
  5
45E
100
AcDbEntity
  8
RACCORDO
100
AcDbPolyline
 62
7
  6
CONTINUOUS
 90
6
 70
0
 10
-2.2407984051
 20
-8.2766687606
 10
-2.2415448053
 20
-8.270245139
 10
-2.2446722202
 20
-8.2607856791
 10
-2.2504657558
 20
-8.2520380841
 10
-2.2589375863
 20
-8.2437339161
 10
-2.2700877117
 20
-8.2358731752
  0
LWPOLYLINE
  5
45F
100
AcDbEntity
  8
0
100
AcDbPolyline
 62
250
  6
CONTINUOUS
 90
7
 70
0
 10
5.8348222263
 20
4.4182190624
 10
5.808141666
 20
4.3385609308
 10
5.7755711989
 20
4.2584739051
 10
5.7374588001
 20
4.1788475898
 10
5.6940235771
 20
4.1002276444
 10
5.645260182
 20
4.0228018606
 10
5.5912661406
 20
3.9469363222
  0
LWPOLYLINE
  5
460
100
AcDbEntity
  8
0
100
AcDbPolyline
 62
250
  6
CONTINUOUS
 90
7
 70
0
 10
5.5911317202
 20
3.9469863816
 10
5.5486709561
 20
3.8327053749
 10
5.5259162786
 20
3.7229056294
 10
5.5233417546
 20
3.6225705675
 10
5.5403360257
 20
3.5362616923
 10
5.5764641141
 20
3.4693713583
 10
5.6217236015
 20
3.4306052383
  0
LINE
  5
461
100
AcDbEntity
  8
0
100
AcDbLine
 62
250
  6
CONTINUOUS
 10
-10.0973655873
 20
-5.703792874
 11
-9.9980194476
 21
-5.6607893161
  0
LWPOLYLINE
  5
462
100
AcDbEntity
  8
0
100
AcDbPolyline
 62
250
  6
CONTINUOUS
 90
8
 70
0
 10
14.8084682972
 20
-0.5706196336
 10
14.6801392661
 20
-0.5576842543
 10
14.552719986
 20
-0.5655885153
 10
14.4289697882
 20
-0.5938892695
 10
14.3166284485
 20
-0.6415310974
 10
14.2185027195
 20
-0.7080313507
 10
14.1325800239
 20
-0.7934186287
 10
14.0594283591
 20
-0.8973588342
  0
LWPOLYLINE
  5
463
100
AcDbEntity
  8
0
100
AcDbPolyline
 62
250
  6
CONTINUOUS
 90
7
 70
0
 10
6.2833446408
 20
2.7541394537
 10
6.1604201545
 20
2.7737232864
 10
6.0533932768
 20
2.8079362871
 10
5.9651417861
 20
2.854709761
 10
5.8980615003
 20
2.912455565
 10
5.8568806792
 20
2.9788038179
 10
5.8449710839
 20
3.0404365485
  0
LWPOLYLINE
  5
464
100
AcDbEntity
  8
0
100
AcDbPolyline
 62
250
  6
CONTINUOUS
 90
4
 70
0
 10
6.536684329
 20
2.7209604188
 10
6.4541089732
 20
2.7358158394
 10
6.3697962629
 20
2.7470825527
 10
6.2842130474
 20
2.7546914761
  0
LWPOLYLINE
  5
465
100
AcDbEntity
  8
0
100
AcDbPolyline
 62
250
  6
CONTINUOUS
 90
3
 70
0
 10
14.7983151174
 20
-1.3888603669
 10
14.8750151743
 20
-1.4176942377
 10
14.9507725683
 20
-1.4563152117
  0
LWPOLYLINE
  5
466
100
AcDbEntity
  8
0
100
AcDbPolyline
 62
250
  6
CONTINUOUS
 90
6
 70
0
 10
32.1144765018
 20
-11.8053656308
 10
32.0473740032
 20
-11.7772425162
 10
31.9760526562
 20
-11.7539001401
 10
31.9007457909
 20
-11.7355114253
 10
31.8215262125
 20
-11.7222453734
 10
31.7388396767
 20
-11.7143126366
  0
LWPOLYLINE
  5
467
100
AcDbEntity
  8
RACCORDO
100
AcDbPolyline
 62
7
  6
CONTINUOUS
 90
6
 70
0
 10
-33.2581995224
 20
16.5644125238
 10
-33.2613634654
 20
16.5658957362
 10
-33.270758531
 20
16.5687031625
 10
-33.2809712511
 20
16.5688338432
 10
-33.2922279976
 20
16.5664325145
 10
-33.3045287706
 20
16.5614991763
  0
LINE
  5
468
100
AcDbEntity
  8
0
100
AcDbLine
 62
250
  6
CONTINUOUS
 10
-19.2235297749
 20
19.1447262009
 11
-19.0851027362
 21
19.037320802
  0
LWPOLYLINE
  5
469
100
AcDbEntity
  8
0
100
AcDbPolyline
 62
250
  6
CONTINUOUS
 90
6
 70
0
 10
-10.119338958
 20
12.520577243
 10
-10.1676103106
 20
12.5626723695
 10
-10.2052204467
 20
12.6321752331
 10
-10.2224011091
 20
12.7191176325
 10
-10.2192053101
 20
12.8177406017
 10
-10.1954239506
 20
12.9249766278
  0
LWPOLYLINE
  5
46A
100
AcDbEntity
  8
0
100
AcDbPolyline
 62
250
  6
CONTINUOUS
 90
5
 70
0
 10
-19.0851027362
 20
19.037320802
 10
-18.9533295245
 20
18.9155742594
 10
-18.8280830886
 20
18.7795521641
 10
-18.7069713436
 20
18.6259854451
 10
-18.5919028657
 20
18.4584014918
  0
LINE
  5
46B
100
AcDbEntity
  8
0
100
AcDbLine
 62
250
  6
CONTINUOUS
 10
32.1144652285
 20
-29.2964257007
 11
32.3539384286
 21
-29.5502780879
  0
LINE
  5
46C
100
AcDbEntity
  8
0
100
AcDbLine
 62
250
  6
CONTINUOUS
 10
32.3539384286
 20
-29.5502780879
 11
32.594759718
 21
-29.8080878848
  0
LINE
  5
46D
100
AcDbEntity
  8
0
100
AcDbLine
 62
250
  6
CONTINUOUS
 10
32.594759718
 20
-29.8080878848
 11
32.8365371688
 21
-30.0694384328
  0
LWPOLYLINE
  5
46E
100
AcDbEntity
  8
0
100
AcDbPolyline
 62
250
  6
CONTINUOUS
 90
3
 70
0
 10
32.8365371688
 20
-30.0694384328
 10
33.0793119568
 20
-30.3344077109
 10
33.3221763173
 20
-30.6020536559
  0
LWPOLYLINE
  5
46F
100
AcDbEntity
  8
0
100
AcDbPolyline
 62
250
  6
CONTINUOUS
 90
5
 70
0
 10
36.8011125318
 20
-38.5217519916
 10
36.8572707492
 20
-38.5841017676
 10
36.9164786055
 20
-38.6387702723
 10
36.9782080091
 20
-38.6851956844
 10
37.0130934775
 20
-38.706987578
  0
LWPOLYLINE
  5
470
100
AcDbEntity
  8
0
100
AcDbPolyline
 62
250
  6
CONTINUOUS
 90
10
 70
0
 10
37.8246735031
 20
-37.956323903
 10
37.87948006
 20
-38.0172691162
 10
37.9387266184
 20
-38.0692126046
 10
38.0015131098
 20
-38.1118990683
 10
38.0666579342
 20
-38.1446467528
 10
38.1324774423
 20
-38.1667513207
 10
38.197027943
 20
-38.1777547929
 10
38.2589998147
 20
-38.1777237926
 10
38.3176556252
 20
-38.1668128595
 10
38.3721604507
 20
-38.1451616194
  0
LWPOLYLINE
  5
471
100
AcDbEntity
  8
0
100
AcDbPolyline
 62
250
  6
CONTINUOUS
 90
10
 70
0
 10
35.1103628635
 20
-37.5455509727
 10
34.9201290981
 20
-37.3328361662
 10
34.7326670331
 20
-37.1193351676
 10
34.5478911694
 20
-36.9049634435
 10
34.3658909576
 20
-36.6898453142
 10
34.1864053059
 20
-36.4736947677
 10
34.0088419776
 20
-36.2557997743
 10
33.8329679913
 20
-36.0358535873
 10
33.6588902149
 20
-35.8139704173
 10
33.486543455
 20
-35.5900552887
  0
LWPOLYLINE
  5
472
100
AcDbEntity
  8
0
100
AcDbPolyline
 62
250
  6
CONTINUOUS
 90
4
 70
0
 10
37.0188296544
 20
-38.6474958279
 10
37.0737001115
 20
-38.7092176995
 10
37.1327191261
 20
-38.7624541346
 10
37.1944998432
 20
-38.8065060439
  0
LWPOLYLINE
  5
473
100
AcDbEntity
  8
0
100
AcDbPolyline
 62
250
  6
CONTINUOUS
 90
10
 70
0
 10
37.8234980491
 20
-38.079599204
 10
37.8728165374
 20
-38.1357244376
 10
37.9273698156
 20
-38.1856993109
 10
37.9861384562
 20
-38.2294284672
 10
38.0480984862
 20
-38.2635842547
 10
38.1124174955
 20
-38.2829176065
 10
38.1783058639
 20
-38.2849855892
 10
38.2445889483
 20
-38.2717255403
 10
38.3097458108
 20
-38.2465570736
 10
38.3721834552
 20
-38.2157419749
  0
LWPOLYLINE
  5
474
100
AcDbEntity
  8
0
100
AcDbPolyline
 62
7
  6
CONTINUOUS
 90
3
 70
0
 10
14.4042469226
 20
-20.5594596159
 10
14.4916748318
 20
-20.7184668625
 10
14.5941591828
 20
-20.8589862842
  0
LWPOLYLINE
  5
475
100
AcDbEntity
  8
0
100
AcDbPolyline
 62
250
  6
CONTINUOUS
 90
13
 70
0
 10
6.2010739091
 20
-15.690260984
 10
6.2141606787
 20
-15.7313921993
 10
6.2422402703
 20
-15.7723700948
 10
6.2829729613
 20
-15.8124730765
 10
6.3338384258
 20
-15.851768732
 10
6.3922105989
 20
-15.8899832987
 10
6.4551168258
 20
-15.9265762452
 10
6.5182189059
 20
-15.9603519503
 10
6.5813651099
 20
-15.9923096786
 10
6.6480547496
 20
-16.0249194733
 10
6.7174488818
 20
-16.0584750386
 10
6.7842579193
 20
-16.0913818682
 10
6.8436629624
 20
-16.1230005371
  0
LWPOLYLINE
  5
476
100
AcDbEntity
  8
0
100
AcDbPolyline
 62
250
  6
CONTINUOUS
 90
4
 70
0
 10
8.6231644031
 20
-21.3680471134
 10
8.5759874858
 20
-21.1986409952
 10
8.5314282684
 20
-21.0320826501
 10
8.4891247728
 20
-20.8664709786
  0
LINE
  5
477
100
AcDbEntity
  8
0
100
AcDbLine
 62
250
  6
CONTINUOUS
 10
8.4891247728
 20
-20.8664709786
 11
8.4486263581
 21
-20.6996195086
  0
LWPOLYLINE
  5
478
100
AcDbEntity
  8
0
100
AcDbPolyline
 62
250
  6
CONTINUOUS
 90
3
 70
0
 10
8.4486263581
 20
-20.6996195086
 10
8.4097625218
 20
-20.5305542329
 10
8.3726205156
 20
-20.359703041
  0
LWPOLYLINE
  5
479
100
AcDbEntity
  8
0
100
AcDbPolyline
 62
250
  6
CONTINUOUS
 90
3
 70
0
 10
8.3726205156
 20
-20.359703041
 10
8.3370724762
 20
-20.1868554626
 10
8.3027931628
 20
-20.0109389302
  0
LWPOLYLINE
  5
47A
100
AcDbEntity
  8
0
100
AcDbPolyline
 62
250
  6
CONTINUOUS
 90
10
 70
0
 10
5.8793029829
 20
-16.3327060368
 10
5.8703591919
 20
-16.2608614993
 10
5.8555327833
 20
-16.190576205
 10
5.8348240633
 20
-16.1221552589
 10
5.8081437479
 20
-16.0557470382
 10
5.7755733317
 20
-15.9918662979
 10
5.7374607604
 20
-15.9312979378
 10
5.6940251254
 20
-15.8744336474
 10
5.6452610807
 20
-15.8213683613
 10
5.5912661459
 20
-15.7723555528
  0
LWPOLYLINE
  5
47B
100
AcDbEntity
  8
RACCORDO
100
AcDbPolyline
 62
7
  6
CONTINUOUS
 90
6
 70
0
 10
5.7141528833
 20
-12.8697579355
 10
5.713406483
 20
-12.8633343139
 10
5.7102790681
 20
-12.853874854
 10
5.7044855326
 20
-12.845127259
 10
5.6960137021
 20
-12.8368230911
 10
5.6848635767
 20
-12.8289623502
  0
LWPOLYLINE
  5
47C
100
AcDbEntity
  8
0
100
AcDbPolyline
 62
250
  6
CONTINUOUS
 90
4
 70
0
 10
8.064570362
 20
-18.3333583477
 10
8.0401642945
 20
-18.0729768762
 10
8.0192272233
 20
-17.8139427787
 10
8.0020990204
 20
-17.5583795614
  0
LWPOLYLINE
  5
47D
100
AcDbEntity
  8
0
100
AcDbPolyline
 62
250
  6
CONTINUOUS
 90
10
 70
0
 10
8.0020993344
 20
-17.558387176
 10
7.9971389399
 20
-17.4717963153
 10
7.9926256318
 20
-17.3851888796
 10
7.9885978129
 20
-17.2985474468
 10
7.9850929182
 20
-17.2118500543
 10
7.9821480348
 20
-17.1250848861
 10
7.9797995852
 20
-17.0382504687
 10
7.9780826264
 20
-16.9513360069
 10
7.9770311797
 20
-16.8643211817
 10
7.9766786243
 20
-16.777190977
  0
LWPOLYLINE
  5
47E
100
AcDbEntity
  8
0
100
AcDbPolyline
 62
250
  6
CONTINUOUS
 90
4
 70
0
 10
5.5212946126
 20
-15.5359916281
 10
5.5243262449
 20
-15.6310142046
 10
5.5478344864
 20
-15.7109100806
 10
5.5919512427
 20
-15.7720059053
  0
LWPOLYLINE
  5
47F
100
AcDbEntity
  8
0
100
AcDbPolyline
 62
250
  6
CONTINUOUS
 90
9
 70
0
 10
6.9707482785
 20
2.5638107279
 10
6.9690212543
 20
2.6368617108
 10
6.9641293975
 20
2.7114945041
 10
6.9560727083
 20
2.7877091078
 10
6.9448003635
 20
2.8658332957
 10
6.9303631862
 20
2.945539294
 10
6.9129136452
 20
3.0258437812
 10
6.8925025636
 20
3.1064189835
 10
6.8690791183
 20
3.1875926748
  0
LINE
  5
480
100
AcDbEntity
  8
RACCORDO
100
AcDbLine
 62
250
  6
CONTINUOUS
 10
5.6884673811
 20
-12.9084245721
 11
5.6884673811
 21
-13.1170947835
  0
LINE
  5
481
100
AcDbEntity
  8
RACCORDO
100
AcDbLine
 62
7
  6
CONTINUOUS
 10
5.7141528985
 20
-12.8697898095
 11
5.7141528985
 21
-13.068442681
  0
LINE
  5
482
100
AcDbEntity
  8
0
100
AcDbLine
 62
250
  6
CONTINUOUS
 10
6.2842130474
 20
-15.3722943113
 11
6.2842130474
 21
2.7546914761
  0
LINE
  5
483
100
AcDbEntity
  8
0
100
AcDbLine
 62
250
  6
CONTINUOUS
 10
6.9707482785
 20
2.5638107279
 11
6.9707482785
 21
-15.5647327352
  0
LINE
  5
484
100
AcDbEntity
  8
0
100
AcDbLine
 62
7
  6
CONTINUOUS
 10
5.8449685902
 20
3.0419230589
 11
5.8443254602
 21
-15.084263185
  0
LWPOLYLINE
  5
485
100
AcDbEntity
  8
0
100
AcDbPolyline
 62
7
  6
CONTINUOUS
 90
4
 70
0
 10
5.8448690105
 20
-15.0838480196
 10
5.844867423
 20
-15.086887361
 10
5.8443788755
 20
-15.1040394484
 10
5.8440796116
 20
-15.1087116934
  0
LWPOLYLINE
  5
486
100
AcDbEntity
  8
0
100
AcDbPolyline
 62
250
  6
CONTINUOUS
 90
10
 70
0
 10
8.00209888
 20
3.4251373887
 10
8.0192117632
 20
3.7002666947
 10
8.0401322824
 20
3.9833007964
 10
8.0645223946
 20
4.2717290219
 10
8.0918600071
 20
4.5612172376
 10
8.1219323011
 20
4.8509061462
 10
8.154982693
 20
5.1432669099
 10
8.1909435422
 20
5.4367996845
 10
8.2292858321
 20
5.72615542
 10
8.2696121253
 20
6.0073143686
  0
LINE
  5
487
100
AcDbEntity
  8
0
100
AcDbLine
 62
250
  6
CONTINUOUS
 10
5.8793029831
 20
4.6508227121
 11
5.8703583963
 21
4.5745748377
  0
LWPOLYLINE
  5
488
100
AcDbEntity
  8
0
100
AcDbPolyline
 62
250
  6
CONTINUOUS
 90
10
 70
0
 10
8.2696127841
 20
6.0073202959
 10
8.3031607027
 20
6.2272877893
 10
8.3377336382
 20
6.4444946687
 10
8.3735056659
 20
6.6595334311
 10
8.4108277953
 20
6.874061303
 10
8.4498056504
 20
7.0883634948
 10
8.4902770449
 20
7.301586106
 10
8.5323760527
 20
7.5148125297
 10
8.5765592124
 20
7.730862821
 10
8.6231640319
 20
7.9519909846
  0
LWPOLYLINE
  5
489
100
AcDbEntity
  8
0
100
AcDbPolyline
 62
250
  6
CONTINUOUS
 90
3
 70
0
 10
5.8703583963
 20
4.5745748377
 10
5.8555313738
 20
4.4969384673
 10
5.8348222263
 20
4.4182190624
  0
LWPOLYLINE
  5
48A
100
AcDbEntity
  8
RACCORDO
100
AcDbPolyline
 62
7
  6
CONTINUOUS
 90
6
 70
0
 10
-2.2664839073
 20
-8.5240056085
 10
-2.2561646338
 20
-8.5151165204
 10
-2.2483492864
 20
-8.5045876977
 10
-2.2432339699
 20
-8.4926823041
 10
-2.2409333119
 20
-8.4795642451
 10
-2.2407983901
 20
-8.4753374147
  0
LWPOLYLINE
  5
48B
100
AcDbEntity
  8
RACCORDO
100
AcDbPolyline
 62
7
  6
CONTINUOUS
 90
6
 70
0
 10
-2.2664839073
 20
-8.3153353972
 10
-2.2560615814
 20
-8.3071484932
 10
-2.2483540734
 20
-8.298599703
 10
-2.2433613833
 20
-8.2896890265
 10
-2.2410956854
 20
-8.2801480259
 10
-2.2407984051
 20
-8.2766687606
  0
LWPOLYLINE
  5
48C
100
AcDbEntity
  8
0
100
AcDbPolyline
 62
250
  6
CONTINUOUS
 90
10
 70
0
 10
-2.0069681724
 20
-10.4165167812
 10
-2.0939750896
 20
-10.4811201055
 10
-2.1735058253
 20
-10.5649266743
 10
-2.2420532697
 20
-10.6633988075
 10
-2.2967227358
 20
-10.771864146
 10
-2.3339605696
 20
-10.8836898103
 10
-2.351165315
 20
-10.9906523149
 10
-2.3477816028
 20
-11.0863859695
 10
-2.323880041
 20
-11.1666068357
 10
-2.2801936103
 20
-11.2272870533
  0
LINE
  5
48D
100
AcDbEntity
  8
0
100
AcDbLine
 62
7
  6
CONTINUOUS
 10
-2.2664839073
 20
-8.3153353972
 11
-3.0004217752
 21
-8.7859758049
  0
LINE
  5
48E
100
AcDbEntity
  8
0
100
AcDbLine
 62
7
  6
CONTINUOUS
 10
-2.2664839073
 20
-8.5240056085
 11
-2.8603078963
 21
-8.8668758025
  0
LINE
  5
48F
100
AcDbEntity
  8
0
100
AcDbLine
 62
7
  6
CONTINUOUS
 10
-4.3799185892
 20
-7.0950646993
 11
-5.1950391704
 21
-7.5188312259
  0
LWPOLYLINE
  5
490
100
AcDbEntity
  8
0
100
AcDbPolyline
 62
250
  6
CONTINUOUS
 90
3
 70
0
 10
15.074632907
 20
-0.6584500672
 10
14.940004207
 20
-0.6041896654
 10
14.8084682972
 20
-0.5706196336
  0
LWPOLYLINE
  5
491
100
AcDbEntity
  8
RACCORDO
100
AcDbPolyline
 62
7
  6
CONTINUOUS
 90
6
 70
0
 10
16.8579935942
 20
-3.1867586644
 10
16.8548296512
 20
-3.185275452
 10
16.8454345856
 20
-3.1824680257
 10
16.8352218655
 20
-3.182337345
 10
16.823965119
 20
-3.1847386737
 10
16.811664346
 20
-3.1896720119
  0
LWPOLYLINE
  5
492
100
AcDbEntity
  8
RACCORDO
100
AcDbPolyline
 62
7
  6
CONTINUOUS
 90
6
 70
0
 10
-8.2442971379
 20
11.3069893988
 10
-8.247461081
 20
11.3084726112
 10
-8.2568561465
 20
11.3112800375
 10
-8.2670688666
 20
11.3114107182
 10
-8.2783256132
 20
11.3090093894
 10
-8.2906263861
 20
11.3040760513
  0
LINE
  5
493
100
AcDbEntity
  8
0
100
AcDbLine
 62
250
  6
CONTINUOUS
 10
-10.1509378206
 20
13.0372896608
 11
-10.2307052268
 21
13.0772566298
  0
LWPOLYLINE
  5
494
100
AcDbEntity
  8
0
100
AcDbPolyline
 62
250
  6
CONTINUOUS
 90
7
 70
0
 10
6.9707485777
 20
2.5630039384
 10
6.9077989474
 20
2.5967527981
 10
6.8405978131
 20
2.627760907
 10
6.7694979349
 20
2.6558454702
 10
6.6948552072
 20
2.6808450765
 10
6.6170882919
 20
2.7025995991
 10
6.536684329
 20
2.7209604188
  0
LINE
  5
495
100
AcDbEntity
  8
0
100
AcDbLine
 62
7
  6
CONTINUOUS
 10
-35.1456642949
 20
28.3378658702
 11
-35.1615686956
 21
28.3466884179
  0
LINE
  5
496
100
AcDbEntity
  8
0
100
AcDbLine
 62
7
  6
CONTINUOUS
 10
-35.1297121994
 20
28.3288711772
 11
-35.1456642949
 21
28.3378658702
  0
LINE
  5
497
100
AcDbEntity
  8
0
100
AcDbLine
 62
7
  6
CONTINUOUS
 10
5.6217236015
 20
3.4306052383
 11
5.623346385
 21
3.4296806793
  0
LINE
  5
498
100
AcDbEntity
  8
0
100
AcDbLine
 62
7
  6
CONTINUOUS
 10
-19.4804441354
 20
17.9242822855
 11
-19.4791907075
 21
17.9235659624
  0
LINE
  5
499
100
AcDbEntity
  8
RACCORDO
100
AcDbLine
 62
250
  6
CONTINUOUS
 10
-8.4713459122
 20
11.4084212407
 11
-8.2906263861
 21
11.3040760513
  0
LINE
  5
49A
100
AcDbEntity
  8
RACCORDO
100
AcDbLine
 62
250
  6
CONTINUOUS
 10
16.6309448199
 20
-3.0853268224
 11
16.811664346
 21
-3.1896720119
  0
LINE
  5
49B
100
AcDbEntity
  8
RACCORDO
100
AcDbLine
 62
250
  6
CONTINUOUS
 10
-33.3045287706
 20
25.7467897902
 11
-33.5736366443
 21
25.9021693038
  0
LINE
  5
49C
100
AcDbEntity
  8
RACCORDO
100
AcDbLine
 62
7
  6
CONTINUOUS
 10
-8.416367656
 20
11.4063407769
 11
-8.244324681
 21
11.3070053193
  0
LINE
  5
49D
100
AcDbEntity
  8
RACCORDO
100
AcDbLine
 62
7
  6
CONTINUOUS
 10
16.6859230761
 20
-3.0874072862
 11
16.8579660511
 21
-3.1867427438
  0
LINE
  5
49E
100
AcDbEntity
  8
RACCORDO
100
AcDbLine
 62
7
  6
CONTINUOUS
 10
-33.2582270655
 20
25.7497190583
 11
-33.5186583882
 21
25.90008884
  0
LINE
  5
49F
100
AcDbEntity
  8
0
100
AcDbLine
 62
7
  6
CONTINUOUS
 10
14.9822579758
 20
-1.9740501349
 11
22.8542504533
 21
-6.5184457547
  0
LINE
  5
4A0
100
AcDbEntity
  8
0
100
AcDbLine
 62
7
  6
CONTINUOUS
 10
-10.1199097002
 20
12.5196268771
 11
-2.2479172691
 21
7.9752312842
  0
LINE
  5
4A1
100
AcDbEntity
  8
0
100
AcDbLine
 62
7
  6
CONTINUOUS
 10
-35.2207199259
 20
27.0125202514
 11
-27.3500849593
 21
22.4689083044
  0
LINE
  5
4A2
100
AcDbEntity
  8
0
100
AcDbLine
 62
250
  6
CONTINUOUS
 10
5.5911317202
 20
3.9469863816
 11
-10.1518995998
 21
13.0368153593
  0
LINE
  5
4A3
100
AcDbEntity
  8
0
100
AcDbLine
 62
250
  6
CONTINUOUS
 10
14.9503296437
 20
-1.4568696446
 11
30.6933000136
 21
-10.5466894908
  0
LINE
  5
4A4
100
AcDbEntity
  8
0
100
AcDbLine
 62
250
  6
CONTINUOUS
 10
-19.5110360107
 20
18.4406634254
 11
-35.2540667683
 21
27.5304935744
  0
LINE
  5
4A5
100
AcDbEntity
  8
0
100
AcDbLine
 62
250
  6
CONTINUOUS
 10
-11.0427545105
 20
13.5961657677
 11
-18.2599678113
 21
17.7632942747
  0
LINE
  5
4A6
100
AcDbEntity
  8
0
100
AcDbLine
 62
250
  6
CONTINUOUS
 10
14.0594148393
 20
-0.8975085791
 11
6.8426433093
 21
3.2693648549
  0
LINE
  5
4A7
100
AcDbEntity
  8
0
100
AcDbLine
 62
7
  6
CONTINUOUS
 10
-27.1762927382
 20
23.7367012672
 11
-35.1297081962
 21
28.3289118066
  0
LINE
  5
4A8
100
AcDbEntity
  8
0
100
AcDbLine
 62
7
  6
CONTINUOUS
 10
23.028043569
 20
-5.2506535151
 11
30.9814707164
 21
-9.8428543299
  0
LINE
  5
4A9
100
AcDbEntity
  8
0
100
AcDbLine
 62
250
  6
CONTINUOUS
 10
23.0280400953
 20
-5.2506525681
 11
-27.1762907398
 21
23.7366997899
  0
LINE
  5
4AA
100
AcDbEntity
  8
0
100
AcDbLine
 62
7
  6
CONTINUOUS
 10
-27.3501067862
 20
22.468920907
 11
-19.4804441354
 21
17.9242822855
  0
LINE
  5
4AB
100
AcDbEntity
  8
0
100
AcDbLine
 62
7
  6
CONTINUOUS
 10
-2.2479390592
 20
7.9752438655
 11
5.6217236015
 21
3.4306052383
  0
LINE
  5
4AC
100
AcDbEntity
  8
0
100
AcDbLine
 62
7
  6
CONTINUOUS
 10
22.8542286264
 20
-6.5184331521
 11
30.7263836005
 21
-11.0645042554
  0
LWPOLYLINE
  5
4AD
100
AcDbEntity
  8
0
100
AcDbPolyline
 62
7
  6
CONTINUOUS
 90
10
 70
0
 10
30.9814456753
 20
-9.8428451725
 10
30.9894287688
 20
-9.8475412513
 10
30.9973967246
 20
-9.8522779432
 10
31.0053506517
 20
-9.85705769
 10
31.0132917425
 20
-9.8618829731
 10
31.0212209557
 20
-9.8667561169
 10
31.0291380422
 20
-9.8716786198
 10
31.0370419423
 20
-9.8766513993
 10
31.0449317418
 20
-9.8816754509
 10
31.052806443
 20
-9.8867517073
  0
LWPOLYLINE
  5
4AE
100
AcDbEntity
  8
0
100
AcDbPolyline
 62
7
  6
CONTINUOUS
 90
13
 70
0
 10
5.6239174077
 20
3.4306074764
 10
5.6352506116
 20
3.4238714666
 10
5.6596144882
 20
3.4076981683
 10
5.6879738958
 20
3.385820696
 10
5.7194883598
 20
3.3569679628
 10
5.751634954
 20
3.3209649932
 10
5.7807959932
 20
3.279513699
 10
5.8052763742
 20
3.2330516143
 10
5.8236465457
 20
3.1841054
 10
5.8351823751
 20
3.1388533528
 10
5.8413983586
 20
3.1005396112
 10
5.8442532191
 20
3.0684337377
 10
5.8449692727
 20
3.0422186277
  0
LWPOLYLINE
  5
4AF
100
AcDbEntity
  8
0
100
AcDbPolyline
 62
7
  6
CONTINUOUS
 90
13
 70
0
 10
30.7270352561
 20
-11.0636146732
 10
30.7378069517
 20
-11.0700418106
 10
30.7624107698
 20
-11.0864132246
 10
30.7910346622
 20
-11.1085783431
 10
30.8228232709
 20
-11.1378540179
 10
30.8551653737
 20
-11.174400407
 10
30.8843341339
 20
-11.2164024266
 10
30.908654761
 20
-11.2633893495
 10
30.9267551138
 20
-11.3126776672
 10
30.9379618381
 20
-11.357814458
 10
30.9438674094
 20
-11.3954429343
 10
30.9465126879
 20
-11.426605984
 10
30.9471393963
 20
-11.4502808241
  0
LWPOLYLINE
  5
4B0
100
AcDbEntity
  8
0
100
AcDbPolyline
 62
250
  6
CONTINUOUS
 90
10
 70
0
 10
-11.1698362951
 20
13.0371502899
 10
-11.1127091719
 20
13.0016893243
 10
-11.0601016873
 20
12.9638843512
 10
-11.012309053
 20
12.923924659
 10
-10.9699177663
 20
12.8823482686
 10
-10.9327737821
 20
12.8390573977
 10
-10.9004104614
 20
12.7931947061
 10
-10.8732565321
 20
12.7445421491
 10
-10.8521993087
 20
12.6936466362
 10
-10.8378451297
 20
12.6407532791
  0
LWPOLYLINE
  5
4B1
100
AcDbEntity
  8
0
100
AcDbPolyline
 62
7
  6
CONTINUOUS
 90
12
 70
0
 10
-19.4786179283
 20
17.9244945146
 10
-19.4529871605
 20
17.9085663667
 10
-19.4215554456
 20
17.8854781305
 10
-19.3856577062
 20
17.8535664147
 10
-19.3489473563
 20
17.8126151812
 10
-19.31714554
 20
17.7661648811
 10
-19.2924201233
 20
17.7164103129
 10
-19.2749716559
 20
17.6658107202
 10
-19.2645627574
 20
17.6197883329
 10
-19.2593411547
 20
17.5810234211
 10
-19.2573791825
 20
17.5493269383
 10
-19.2572018772
 20
17.5349419986
  0
LWPOLYLINE
  5
4B2
100
AcDbEntity
  8
0
100
AcDbPolyline
 62
250
  6
CONTINUOUS
 90
9
 70
0
 10
13.9323314376
 20
-1.4565267557
 10
13.9908226319
 20
-1.4929000309
 10
14.0445531781
 20
-1.5317261445
 10
14.0932079352
 20
-1.5728001335
 10
14.1365116762
 20
-1.6159181934
 10
14.17418572
 20
-1.6608350019
 10
14.2059693185
 20
-1.7072594007
 10
14.2316734725
 20
-1.7549181533
 10
14.2511623257
 20
-1.8035628562
  0
LINE
  5
4B3
100
AcDbEntity
  8
0
100
AcDbLine
 62
250
  6
CONTINUOUS
 10
5.6777642847
 20
3.8912708387
 11
5.5915555461
 21
3.9471928227
  0
LWPOLYLINE
  5
4B4
100
AcDbEntity
  8
0
100
AcDbPolyline
 62
250
  6
CONTINUOUS
 90
8
 70
0
 10
-19.510361449
 20
18.4408025212
 10
-19.4247404276
 20
18.3851484349
 10
-19.3405831133
 20
18.3179078529
 10
-19.2593897314
 20
18.2409234671
 10
-19.1822410617
 20
18.1560948781
 10
-19.1106999595
 20
18.0648319675
 10
-19.0468491844
 20
17.9683157864
 10
-18.9920178937
 20
17.8680836641
  0
LINE
  5
4B5
100
AcDbEntity
  8
0
100
AcDbLine
 62
250
  6
CONTINUOUS
 10
5.8792006712
 20
4.6507242556
 11
6.0139789896
 21
4.547635515
  0
LWPOLYLINE
  5
4B6
100
AcDbEntity
  8
0
100
AcDbPolyline
 62
250
  6
CONTINUOUS
 90
7
 70
0
 10
-2.2479369321
 20
7.9752426371
 10
-2.2967883701
 20
8.0174169415
 10
-2.3339909311
 20
8.0862479172
 10
-2.3511711292
 20
8.1733332993
 10
-2.3477742281
 20
8.2729538469
 10
-2.323870971
 20
8.3807479659
 10
-2.2801936176
 20
8.4918456819
  0
LWPOLYLINE
  5
4B7
100
AcDbEntity
  8
0
100
AcDbPolyline
 62
250
  6
CONTINUOUS
 90
5
 70
0
 10
6.0139789896
 20
4.547635515
 10
6.1430900092
 20
4.4292268729
 10
6.2666577559
 20
4.2955622539
 10
6.3871623861
 20
4.1435207561
 10
6.5026035294
 20
3.9764791274
  0
LINE
  5
4B8
100
AcDbEntity
  8
0
100
AcDbLine
 62
250
  6
CONTINUOUS
 10
33.3221763173
 20
-30.6020536559
 11
33.5633142109
 21
-30.8703848917
  0
LINE
  5
4B9
100
AcDbEntity
  8
0
100
AcDbLine
 62
250
  6
CONTINUOUS
 10
33.5633142109
 20
-30.8703848917
 11
33.8018541221
 21
-31.1384012544
  0
LINE
  5
4BA
100
AcDbEntity
  8
0
100
AcDbLine
 62
250
  6
CONTINUOUS
 10
33.8018541221
 20
-31.1384012544
 11
34.0378357515
 21
-31.4061208063
  0
LINE
  5
4BB
100
AcDbEntity
  8
0
100
AcDbLine
 62
250
  6
CONTINUOUS
 10
34.0378357515
 20
-31.4061208063
 11
34.2708412564
 21
-31.6730549489
  0
LWPOLYLINE
  5
4BC
100
AcDbEntity
  8
0
100
AcDbPolyline
 62
250
  6
CONTINUOUS
 90
8
 70
0
 10
35.7914009279
 20
-33.4713055939
 10
35.5731404649
 20
-33.2079445765
 10
35.3552180304
 20
-32.946530233
 10
35.1375921228
 20
-32.6871345532
 10
34.920421819
 20
-32.4300623354
 10
34.7036876158
 20
-32.1754219595
 10
34.4871911159
 20
-31.9230913236
 10
34.2708412533
 20
-31.6730549601
  0
LINE
  5
4BD
100
AcDbEntity
  8
0
100
AcDbLine
 62
250
  6
CONTINUOUS
 10
32.1120239922
 20
-30.2533033686
 11
32.553215869
 21
-30.7861140588
  0
LINE
  5
4BE
100
AcDbEntity
  8
0
100
AcDbLine
 62
250
  6
CONTINUOUS
 10
36.229797385
 20
-34.0043717806
 11
35.7914009279
 21
-33.4713055939
  0
LINE
  5
4BF
100
AcDbEntity
  8
0
100
AcDbLine
 62
250
  6
CONTINUOUS
 10
32.553215869
 20
-30.7861140588
 11
32.9860914757
 21
-31.3134113836
  0
LINE
  5
4C0
100
AcDbEntity
  8
0
100
AcDbLine
 62
250
  6
CONTINUOUS
 10
36.2297968678
 20
-34.0043838224
 11
36.5897476379
 21
-34.4450906889
  0
LINE
  5
4C1
100
AcDbEntity
  8
0
100
AcDbLine
 62
250
  6
CONTINUOUS
 10
32.9860914757
 20
-31.3134113836
 11
33.4155652185
 21
-31.8411944527
  0
LINE
  5
4C2
100
AcDbEntity
  8
0
100
AcDbLine
 62
250
  6
CONTINUOUS
 10
36.5897476379
 20
-34.4450906889
 11
36.9449150554
 21
-34.8829277337
  0
LINE
  5
4C3
100
AcDbEntity
  8
0
100
AcDbLine
 62
250
  6
CONTINUOUS
 10
33.4155652185
 20
-31.8411944527
 11
33.8451303508
 21
-32.373701512
  0
LINE
  5
4C4
100
AcDbEntity
  8
0
100
AcDbLine
 62
250
  6
CONTINUOUS
 10
36.9449150554
 20
-34.8829277337
 11
37.2970869839
 21
-35.3200566779
  0
LWPOLYLINE
  5
4C5
100
AcDbEntity
  8
0
100
AcDbPolyline
 62
250
  6
CONTINUOUS
 90
3
 70
0
 10
37.2970869839
 20
-35.3200566779
 10
37.6480845068
 20
-35.758683937
 10
37.8237076522
 20
-35.9792440291
  0
LINE
  5
4C6
100
AcDbEntity
  8
0
100
AcDbLine
 62
250
  6
CONTINUOUS
 10
33.8451303508
 20
-32.373701512
 11
34.2837096591
 21
-32.9220680355
  0
LINE
  5
4C7
100
AcDbEntity
  8
0
100
AcDbLine
 62
250
  6
CONTINUOUS
 10
34.2837096591
 20
-32.9220680355
 11
34.7332427899
 21
-33.4888110373
  0
LINE
  5
4C8
100
AcDbEntity
  8
0
100
AcDbLine
 62
250
  6
CONTINUOUS
 10
34.7332427899
 20
-33.4888110373
 11
35.1842258958
 21
-34.0612578281
  0
LINE
  5
4C9
100
AcDbEntity
  8
0
100
AcDbLine
 62
250
  6
CONTINUOUS
 10
35.1842258958
 20
-34.0612578281
 11
35.6383780495
 21
-34.6408689336
  0
LINE
  5
4CA
100
AcDbEntity
  8
0
100
AcDbLine
 62
250
  6
CONTINUOUS
 10
35.6383780495
 20
-34.6408689336
 11
36.0924486448
 21
-35.2229523831
  0
LINE
  5
4CB
100
AcDbEntity
  8
0
100
AcDbLine
 62
250
  6
CONTINUOUS
 10
37.1388880704
 20
-38.7145814033
 11
36.9250548559
 21
-38.4397013914
  0
LINE
  5
4CC
100
AcDbEntity
  8
0
100
AcDbLine
 62
250
  6
CONTINUOUS
 10
37.0576768086
 20
-36.46644094
 11
36.0924416287
 21
-35.2229829183
  0
LWPOLYLINE
  5
4CD
100
AcDbEntity
  8
0
100
AcDbPolyline
 62
250
  6
CONTINUOUS
 90
4
 70
0
 10
36.9250548559
 20
-38.4397013914
 10
36.7105328708
 20
-38.161924329
 10
36.4958467792
 20
-37.8819483756
 10
36.2817523685
 20
-37.6007750126
  0
LINE
  5
4CE
100
AcDbEntity
  8
0
100
AcDbLine
 62
250
  6
CONTINUOUS
 10
37.8237083381
 20
-37.4587878121
 11
37.0576768086
 21
-36.46644094
  0
LWPOLYLINE
  5
4CF
100
AcDbEntity
  8
0
100
AcDbPolyline
 62
250
  6
CONTINUOUS
 90
10
 70
0
 10
34.609205069
 20
-36.0797775329
 10
34.7980533537
 20
-36.3290461523
 10
34.9895389998
 20
-36.5777070925
 10
35.1835707077
 20
-36.8256313472
 10
35.3802112627
 20
-37.0728820737
 10
35.579217486
 20
-37.3191345769
 10
35.7800232136
 20
-37.56368594
 10
35.9823620174
 20
-37.8062256705
 10
36.1862842218
 20
-38.0468260625
 10
36.3916849313
 20
-38.2853689223
  0
LWPOLYLINE
  5
4D0
100
AcDbEntity
  8
0
100
AcDbPolyline
 62
250
  6
CONTINUOUS
 90
6
 70
0
 10
36.2817523685
 20
-37.6007750126
 10
36.0685664864
 20
-37.3188309143
 10
35.8561877781
 20
-37.035977643
 10
35.6449924172
 20
-36.7526968492
 10
35.4358137479
 20
-36.4700817389
 10
35.2292852204
 20
-36.1889608293
  0
LINE
  5
4D1
100
AcDbEntity
  8
0
100
AcDbLine
 62
250
  6
CONTINUOUS
 10
33.486543455
 20
-35.5900552887
 11
33.2922625871
 21
-35.3326972666
  0
LWPOLYLINE
  5
4D2
100
AcDbEntity
  8
0
100
AcDbPolyline
 62
250
  6
CONTINUOUS
 90
4
 70
0
 10
34.609205069
 20
-36.0797775328
 10
34.3996665977
 20
-35.7983632328
 10
34.1909383077
 20
-35.513175057
 10
33.9831316194
 20
-35.2247451529
  0
LWPOLYLINE
  5
4D3
100
AcDbEntity
  8
0
100
AcDbPolyline
 62
250
  6
CONTINUOUS
 90
8
 70
0
 10
33.2922625871
 20
-35.3326972666
 10
33.100817501
 20
-35.0735808326
 10
32.9117523216
 20
-34.8120394406
 10
32.7241701212
 20
-34.546777263
 10
32.5380259786
 20
-34.2776911187
 10
32.3540813031
 20
-34.0059393261
 10
32.1722221956
 20
-33.7315080207
 10
31.9915048883
 20
-33.4531419939
  0
LWPOLYLINE
  5
4D4
100
AcDbEntity
  8
0
100
AcDbPolyline
 62
250
  6
CONTINUOUS
 90
4
 70
0
 10
35.2292837513
 20
-36.1889608531
 10
35.0039510887
 20
-35.8799043647
 10
34.7792345343
 20
-35.5695669222
 10
34.5555478023
 20
-35.2588242445
  0
LINE
  5
4D5
100
AcDbEntity
  8
0
100
AcDbLine
 62
250
  6
CONTINUOUS
 10
34.5555478023
 20
-35.2588242445
 11
34.1141424811
 21
-34.6413788159
  0
LINE
  5
4D6
100
AcDbEntity
  8
0
100
AcDbLine
 62
250
  6
CONTINUOUS
 10
32.6584575806
 20
-32.5918686923
 11
31.508503781
 21
-30.9810385646
  0
LWPOLYLINE
  5
4D7
100
AcDbEntity
  8
0
100
AcDbPolyline
 62
250
  6
CONTINUOUS
 90
5
 70
0
 10
33.9831316194
 20
-35.2247451529
 10
33.7766541552
 20
-34.9340419102
 10
33.5713229605
 20
-34.641223374
 10
33.3663991148
 20
-34.3456365274
 10
33.1617565771
 20
-34.0474961218
  0
LWPOLYLINE
  5
4D8
100
AcDbEntity
  8
0
100
AcDbPolyline
 62
250
  6
CONTINUOUS
 90
3
 70
0
 10
34.1141424811
 20
-34.6413788159
 10
33.4592663052
 20
-33.7192136238
 10
32.6584575806
 20
-32.5918686923
  0
LWPOLYLINE
  5
4D9
100
AcDbEntity
  8
0
100
AcDbPolyline
 62
250
  6
CONTINUOUS
 90
6
 70
0
 10
6.0565705732
 20
3.4729728046
 10
5.9926917517
 20
3.5695608307
 10
5.9209276222
 20
3.6610175046
 10
5.8435412383
 20
3.7461420642
 10
5.7621518508
 20
3.8235350817
 10
5.6777642847
 20
3.8912708387
  0
LWPOLYLINE
  5
4DA
100
AcDbEntity
  8
0
100
AcDbPolyline
 62
250
  6
CONTINUOUS
 90
5
 70
0
 10
6.5026035294
 20
3.9764791274
 10
6.6064062969
 20
3.8042638946
 10
6.6965767797
 20
3.6302653634
 10
6.7758250666
 20
3.4515050423
 10
6.8446491231
 20
3.2682755326
  0
LWPOLYLINE
  5
4DB
100
AcDbEntity
  8
0
100
AcDbPolyline
 62
250
  6
CONTINUOUS
 90
7
 70
0
 10
14.249996631
 20
-19.9270985056
 10
14.2289877858
 20
-19.8762783445
 10
14.2018994144
 20
-19.8276931463
 10
14.1696315874
 20
-19.7819097073
 10
14.1325992478
 20
-19.7386874998
 10
14.0902707638
 20
-19.6971112087
 10
14.0424454879
 20
-19.657072516
  0
LINE
  5
4DC
100
AcDbEntity
  8
0
100
AcDbLine
 62
7
  6
CONTINUOUS
 10
14.3436633564
 20
-20.4086926896
 11
14.4042469226
 21
-20.5594596159
  0
LWPOLYLINE
  5
4DD
100
AcDbEntity
  8
0
100
AcDbPolyline
 62
250
  6
CONTINUOUS
 90
10
 70
0
 10
6.1972098965
 20
3.1708840929
 10
6.2152654938
 20
3.1234959248
 10
6.2313714317
 20
3.0758160425
 10
6.2454292456
 20
3.0280623662
 10
6.2573016734
 20
2.980361354
 10
6.2669259807
 20
2.9330296399
 10
6.2743633966
 20
2.8865416515
 10
6.2796264549
 20
2.8411615501
 10
6.2826314323
 20
2.7969725033
 10
6.2833446408
 20
2.7541394537
  0
LINE
  5
4DE
100
AcDbEntity
  8
0
100
AcDbLine
 62
250
  6
CONTINUOUS
 10
14.1267316324
 20
-20.4664039878
 11
14.0593989548
 21
-20.2894538818
  0
LWPOLYLINE
  5
4DF
100
AcDbEntity
  8
0
100
AcDbPolyline
 62
250
  6
CONTINUOUS
 90
7
 70
0
 10
14.2616172882
 20
-19.9696755957
 10
14.2882467345
 20
-20.0424955315
 10
14.3441497034
 20
-20.1062433769
 10
14.4252502752
 20
-20.159194868
 10
14.5283199752
 20
-20.2001960634
 10
14.6469857889
 20
-20.2259906368
 10
14.7703662722
 20
-20.2339124991
  0
LWPOLYLINE
  5
4E0
100
AcDbEntity
  8
0
100
AcDbPolyline
 62
250
  6
CONTINUOUS
 90
4
 70
0
 10
6.1922793324
 20
3.1695436536
 10
6.1564161932
 20
3.2710477962
 10
6.1111890158
 20
3.3728342716
 10
6.0565705732
 20
3.4729728046
  0
LINE
  5
4E1
100
AcDbEntity
  8
0
100
AcDbLine
 62
250
  6
CONTINUOUS
 10
14.0336449197
 20
-20.2071328197
 11
14.0608816183
 21
-20.290130056
  0
LWPOLYLINE
  5
4E2
100
AcDbEntity
  8
0
100
AcDbPolyline
 62
7
  6
CONTINUOUS
 90
6
 70
0
 10
14.3443495151
 20
-20.400105892
 10
14.3272782692
 20
-20.3478496398
 10
14.3120634896
 20
-20.296066259
 10
14.298765296
 20
-20.2450992871
 10
14.2874532412
 20
-20.1953506846
 10
14.2824223452
 20
-20.1703231498
  0
LINE
  5
4E3
100
AcDbEntity
  8
0
100
AcDbLine
 62
250
  6
CONTINUOUS
 10
6.8690791183
 20
3.1875926748
 11
6.8426433093
 21
3.2693648549
  0
LWPOLYLINE
  5
4E4
100
AcDbEntity
  8
0
100
AcDbPolyline
 62
250
  6
CONTINUOUS
 90
5
 70
0
 10
13.3995288649
 20
-23.5625166107
 10
13.4400002594
 20
-23.72900387
 10
13.4820992672
 20
-23.8936154148
 10
13.5262824269
 20
-24.0586441006
 10
13.5728872464
 20
-24.225954187
  0
LWPOLYLINE
  5
4E5
100
AcDbEntity
  8
0
100
AcDbPolyline
 62
250
  6
CONTINUOUS
 90
6
 70
0
 10
10.88569024
 20
-21.9642736722
 10
10.9246682903
 20
-22.1335647147
 10
10.9651395918
 20
-22.3000503065
 10
11.0072381524
 20
-22.4646594873
 10
11.0514209488
 20
-22.6296875331
 10
11.0980256718
 20
-22.7969999936
  0
LINE
  5
4E6
100
AcDbEntity
  8
0
100
AcDbLine
 62
250
  6
CONTINUOUS
 10
13.3605510098
 20
-23.3932250689
 11
13.3995288649
 21
-23.5625166107
  0
LWPOLYLINE
  5
4E7
100
AcDbEntity
  8
0
100
AcDbPolyline
 62
250
  6
CONTINUOUS
 90
7
 70
0
 10
5.8450342851
 20
-6.0217995087
 10
5.8579173644
 20
-6.0871961644
 10
5.9001534734
 20
-6.1541527093
 10
5.9684598429
 20
-6.2126377107
 10
6.057997491
 20
-6.2592630874
 10
6.1648285365
 20
-6.291886147
 10
6.2842351489
 20
-6.3087027352
  0
LWPOLYLINE
  5
4E8
100
AcDbEntity
  8
0
100
AcDbPolyline
 62
250
  6
CONTINUOUS
 90
5
 70
0
 10
10.7444754868
 20
-21.2606076118
 10
10.7780235887
 20
-21.4418355736
 10
10.8125964023
 20
-21.6191175369
 10
10.848368144
 20
-21.792845639
 10
10.88569024
 20
-21.9642736722
  0
LINE
  5
4E9
100
AcDbEntity
  8
0
100
AcDbLine
 62
250
  6
CONTINUOUS
 10
8.3027931628
 20
-20.0109389302
 11
8.2696127842
 21
-19.8316474695
  0
LINE
  5
4EA
100
AcDbEntity
  8
0
100
AcDbLine
 62
250
  6
CONTINUOUS
 10
8.2696127897
 20
-19.8316475059
 11
8.2293258207
 21
-19.5972984265
  0
LWPOLYLINE
  5
4EB
100
AcDbEntity
  8
0
100
AcDbPolyline
 62
250
  6
CONTINUOUS
 90
5
 70
0
 10
10.7444737709
 20
-21.2605965884
 10
10.704180166
 20
-21.0262049152
 10
10.6658588863
 20
-20.7812858948
 10
10.6299076281
 20
-20.5293849424
 10
10.5968546662
 20
-20.2752153527
  0
LINE
  5
4EC
100
AcDbEntity
  8
0
100
AcDbLine
 62
250
  6
CONTINUOUS
 10
8.2293258207
 20
-19.5972984265
 11
8.1910092321
 21
-19.3524153681
  0
LINE
  5
4ED
100
AcDbEntity
  8
0
100
AcDbLine
 62
250
  6
CONTINUOUS
 10
8.1910092321
 20
-19.3524153681
 11
8.1550606491
 21
-19.100540331
  0
LWPOLYLINE
  5
4EE
100
AcDbEntity
  8
0
100
AcDbPolyline
 62
250
  6
CONTINUOUS
 90
4
 70
0
 10
8.1550606491
 20
-19.100540331
 10
8.1220082054
 20
-18.8463824457
 10
8.0919235166
 20
-18.5913702339
 10
8.064570362
 20
-18.3333583477
  0
LINE
  5
4EF
100
AcDbEntity
  8
0
100
AcDbLine
 62
250
  6
CONTINUOUS
 10
10.5667712343
 20
-20.0202059079
 11
10.5394204007
 21
-19.7622076597
  0
LINE
  5
4F0
100
AcDbEntity
  8
0
100
AcDbLine
 62
250
  6
CONTINUOUS
 10
10.5394204007
 20
-19.7622076597
 11
10.5150174453
 21
-19.5018499297
  0
LINE
  5
4F1
100
AcDbEntity
  8
0
100
AcDbLine
 62
250
  6
CONTINUOUS
 10
10.5150174453
 20
-19.5018499297
 11
10.4940842609
 21
-19.2428517738
  0
LINE
  5
4F2
100
AcDbEntity
  8
0
100
AcDbLine
 62
250
  6
CONTINUOUS
 10
10.4940842609
 20
-19.2428517738
 11
10.4769604838
 21
-18.9873369288
  0
LWPOLYLINE
  5
4F3
100
AcDbEntity
  8
0
100
AcDbPolyline
 62
250
  6
CONTINUOUS
 90
6
 70
0
 10
12.9518220945
 20
-20.4162910609
 10
12.9689349777
 20
-20.6716588383
 10
12.9898554969
 20
-20.9305344488
 10
13.0142456092
 20
-21.190797584
 10
13.0415832216
 20
-21.4487170101
 10
13.0716555156
 20
-21.7036791874
  0
LWPOLYLINE
  5
4F4
100
AcDbEntity
  8
0
100
AcDbPolyline
 62
250
  6
CONTINUOUS
 90
10
 70
0
 10
10.4769625552
 20
-18.9873400904
 10
10.4720311181
 20
-18.9007330875
 10
10.4675343543
 20
-18.8141163745
 10
10.4635129264
 20
-18.7274710839
 10
10.4600064792
 20
-18.6407734643
 10
10.4570543055
 20
-18.554010666
 10
10.454695009
 20
-18.4671809495
 10
10.4529657462
 20
-18.3802725533
 10
10.451902578
 20
-18.2932634794
 10
10.4515408952
 20
-18.206137426
  0
LWPOLYLINE
  5
4F5
100
AcDbEntity
  8
0
100
AcDbPolyline
 62
250
  6
CONTINUOUS
 90
10
 70
0
 10
7.9766304292
 20
2.6146837193
 10
7.9770132219
 20
2.7022400851
 10
7.9780700429
 20
2.790466018
 10
7.9797742345
 20
2.8793428848
 10
7.9820986593
 20
2.9688566567
 10
7.9850153167
 20
3.0589828539
 10
7.9884950206
 20
3.1496863675
 10
7.992508078
 20
3.2409416286
 10
7.997024602
 20
3.33273278
 10
8.0020139072
 20
3.4250384982
  0
LWPOLYLINE
  5
4F6
100
AcDbEntity
  8
0
100
AcDbPolyline
 62
250
  6
CONTINUOUS
 90
10
 70
0
 10
10.4769625552
 20
1.9961888062
 10
10.4720311181
 20
1.9038871034
 10
10.4675343543
 20
1.8120776403
 10
10.4635129264
 20
1.7207885055
 10
10.4600064792
 20
1.6300417285
 10
10.4570543055
 20
1.5398698341
 10
10.454695009
 20
1.4503156611
 10
10.4529657462
 20
1.3614103557
 10
10.451902578
 20
1.2731735617
 10
10.4515408951
 20
1.185629846
  0
LWPOLYLINE
  5
4F7
100
AcDbEntity
  8
0
100
AcDbPolyline
 62
250
  6
CONTINUOUS
 90
10
 70
0
 10
10.4769606702
 20
1.9961808872
 10
10.4940780041
 20
2.2713639223
 10
10.5150024329
 20
2.5544386123
 10
10.5393956734
 20
2.8428942305
 10
10.5667356091
 20
3.1323986767
 10
10.5968091483
 20
3.4220916076
 10
10.6298590077
 20
3.7144398776
 10
10.6658171696
 20
4.0079434972
 10
10.7041547546
 20
4.2972577083
 10
10.7444743969
 20
4.5783662659
  0
LWPOLYLINE
  5
4F8
100
AcDbEntity
  8
0
100
AcDbPolyline
 62
250
  6
CONTINUOUS
 90
7
 70
0
 10
10.9639896419
 20
5.8666967633
 10
10.9234915332
 20
5.6530800195
 10
10.8846277409
 20
5.4391357529
 10
10.8474852583
 20
5.2253912371
 10
10.8119362739
 20
5.0114883489
 10
10.7776558751
 20
4.7959805525
 10
10.7444743911
 20
4.5783662193
  0
LINE
  5
4F9
100
AcDbEntity
  8
0
100
AcDbLine
 62
250
  6
CONTINUOUS
 10
11.0062924952
 20
6.0811561337
 11
10.9639896419
 21
5.8666967633
  0
LINE
  5
4FA
100
AcDbEntity
  8
0
100
AcDbLine
 62
250
  6
CONTINUOUS
 10
11.0508502891
 20
6.2991623188
 11
11.0062924952
 21
6.0811561337
  0
LINE
  5
4FB
100
AcDbEntity
  8
0
100
AcDbLine
 62
250
  6
CONTINUOUS
 10
11.0980247008
 20
6.5230325161
 11
11.0508502891
 21
6.2991623188
  0
LINE
  5
4FC
100
AcDbEntity
  8
0
100
AcDbLine
 62
7
  6
CONTINUOUS
 10
16.6309448199
 20
-3.0853268224
 11
16.0195179013
 21
-3.438360836
  0
LINE
  5
4FD
100
AcDbEntity
  8
0
100
AcDbLine
 62
7
  6
CONTINUOUS
 10
16.811664346
 20
-3.1896720119
 11
16.0195179013
 21
-3.5991120129
  0
LINE
  5
4FE
100
AcDbEntity
  8
0
100
AcDbLine
 62
250
  6
CONTINUOUS
 10
15.0048172007
 20
-2.0694786507
 11
15.1041482223
 21
-2.0254543905
  0
LWPOLYLINE
  5
4FF
100
AcDbEntity
  8
RACCORDO
100
AcDbPolyline
 62
7
  6
CONTINUOUS
 90
6
 70
0
 10
16.627438055
 20
-3.0873516062
 10
16.6410573793
 20
-3.0815462869
 10
16.655127371
 20
-3.0793637611
 10
16.6690703529
 20
-3.080704023
 10
16.6822386669
 20
-3.0854083927
 10
16.6859305065
 20
-3.087405408
  0
LWPOLYLINE
  5
500
100
AcDbEntity
  8
0
100
AcDbPolyline
 62
250
  6
CONTINUOUS
 90
4
 70
0
 10
-36.2627177716
 20
10.1836812556
 10
-36.4561314444
 20
10.1791182861
 10
-36.646966213
 20
10.1702082636
 10
-36.8349159205
 20
10.1569813318
  0
LWPOLYLINE
  5
501
100
AcDbEntity
  8
0
100
AcDbPolyline
 62
250
  6
CONTINUOUS
 90
9
 70
0
 10
-10.2307052268
 20
13.0772566298
 10
-10.3105298576
 20
13.1063959241
 10
-10.3891225983
 20
13.1241805569
 10
-10.4653823495
 20
13.1300245956
 10
-10.537706377
 20
13.1233220915
 10
-10.6041414878
 20
13.1037919014
 10
-10.6632943412
 20
13.0713174777
 10
-10.7145707848
 20
13.0263206741
 10
-10.7576399059
 20
12.9701206493
  0
LWPOLYLINE
  5
502
100
AcDbEntity
  8
0
100
AcDbPolyline
 62
250
  6
CONTINUOUS
 90
4
 70
0
 10
-18.3281651375
 20
17.1478731696
 10
-18.2588205551
 20
17.1202594547
 10
-18.1931225701
 20
17.0898088276
 10
-18.1314191532
 20
17.0566809822
  0
LWPOLYLINE
  5
503
100
AcDbEntity
  8
0
100
AcDbPolyline
 62
250
  6
CONTINUOUS
 90
6
 70
0
 10
-18.2600887679
 20
17.7633592983
 10
-18.3172495371
 20
17.7878581619
 10
-18.3766576597
 20
17.7993652629
 10
-18.4385767881
 20
17.7996975814
 10
-18.5031626931
 20
17.7906656198
 10
-18.5709219475
 20
17.7741436239
  0
LWPOLYLINE
  5
504
100
AcDbEntity
  8
RACCORDO
100
AcDbPolyline
 62
7
  6
CONTINUOUS
 90
6
 70
0
 10
-33.2581995224
 20
25.7497031377
 10
-33.2613634654
 20
25.7511863501
 10
-33.270758531
 20
25.7539937764
 10
-33.2809712511
 20
25.7541244571
 10
-33.2922279976
 20
25.7517231284
 10
-33.3045287706
 20
25.7467897902
  0
LWPOLYLINE
  5
505
100
AcDbEntity
  8
0
100
AcDbPolyline
 62
7
  6
CONTINUOUS
 90
4
 70
0
 10
-35.2010396136
 20
28.3673356454
 10
-35.2559847469
 20
28.3931027605
 10
-35.3099957029
 20
28.4155513508
 10
-35.3629766302
 20
28.4347744114
  0
LINE
  5
506
100
AcDbEntity
  8
0
100
AcDbLine
 62
7
  6
CONTINUOUS
 10
-35.3683854628
 20
27.585492571
 11
-35.2535225066
 21
27.5307060108
  0
LWPOLYLINE
  5
507
100
AcDbEntity
  8
0
100
AcDbPolyline
 62
250
  6
CONTINUOUS
 90
5
 70
0
 10
-32.8898038266
 20
29.6704007215
 10
-33.5527360986
 20
30.0210490602
 10
-34.1964556243
 20
30.357210851
 10
-34.8216622168
 20
30.678711411
 10
-35.4246148987
 20
30.9816484194
  0
LWPOLYLINE
  5
508
100
AcDbEntity
  8
0
100
AcDbPolyline
 62
7
  6
CONTINUOUS
 90
6
 70
0
 10
-35.1615686956
 20
28.3466884179
 10
-35.1694998999
 20
28.3510155898
 10
-35.1774160604
 20
28.3552775293
 10
-35.1853163948
 20
28.3594719105
 10
-35.1931992031
 20
28.3635853508
 10
-35.2010558139
 20
28.3674766584
  0
LWPOLYLINE
  5
509
100
AcDbEntity
  8
0
100
AcDbPolyline
 62
250
  6
CONTINUOUS
 90
5
 70
0
 10
-30.0498408256
 20
28.1184903748
 10
-30.7879833362
 20
28.529486741
 10
-31.5073372286
 20
28.9248611549
 10
-32.2079906974
 20
29.305062031
 10
-32.8898038266
 20
29.6704007215
  0
LINE
  5
50A
100
AcDbEntity
  8
0
100
AcDbLine
 62
250
  6
CONTINUOUS
 10
-29.2928324685
 20
27.6910177269
 11
-30.0498408256
 21
28.1184903748
  0
LINE
  5
50B
100
AcDbEntity
  8
0
100
AcDbLine
 62
250
  6
CONTINUOUS
 10
-28.5169541822
 20
27.2471028568
 11
-29.2928324685
 21
27.6910177269
  0
LINE
  5
50C
100
AcDbEntity
  8
0
100
AcDbLine
 62
250
  6
CONTINUOUS
 10
-16.4795124767
 20
22.4433557714
 11
-13.2458968594
 21
20.5789031706
  0
LINE
  5
50D
100
AcDbEntity
  8
0
100
AcDbLine
 62
250
  6
CONTINUOUS
 10
-26.5552434931
 20
28.2635496574
 11
-16.4795124767
 21
22.4433557714
  0
LINE
  5
50E
100
AcDbEntity
  8
0
100
AcDbLine
 62
250
  6
CONTINUOUS
 10
-28.937752517
 20
29.6388819099
 11
-26.5552300064
 21
28.2635325846
  0
LINE
  5
50F
100
AcDbEntity
  8
0
100
AcDbLine
 62
250
  6
CONTINUOUS
 10
-13.2458968594
 20
20.5789031706
 11
7.1812292799
 21
8.783331029
  0
LINE
  5
510
100
AcDbEntity
  8
0
100
AcDbLine
 62
250
  6
CONTINUOUS
 10
7.1812292799
 20
8.783331029
 11
11.0980087577
 21
6.5230371683
  0
LWPOLYLINE
  5
511
100
AcDbEntity
  8
0
100
AcDbPolyline
 62
250
  6
CONTINUOUS
 90
5
 70
0
 10
-28.5169541822
 20
27.2471028568
 10
24.9087996357
 20
-3.6004019108
 10
25.6852363656
 20
-4.0527950948
 10
26.4410319801
 20
-4.4987816313
 10
27.1765807566
 20
-4.9386078843
  0
LINE
  5
512
100
AcDbEntity
  8
0
100
AcDbLine
 62
250
  6
CONTINUOUS
 10
11.0980087577
 20
6.5230371683
 11
13.4665646018
 21
5.1529775034
  0
LINE
  5
513
100
AcDbEntity
  8
0
100
AcDbLine
 62
250
  6
CONTINUOUS
 10
13.4665646018
 20
5.1529775034
 11
23.648601055
 21
-0.7261123262
  0
LINE
  5
514
100
AcDbEntity
  8
0
100
AcDbLine
 62
250
  6
CONTINUOUS
 10
27.1765807566
 20
-4.9386078843
 11
27.8931857837
 21
-5.372240514
  0
LINE
  5
515
100
AcDbEntity
  8
0
100
AcDbLine
 62
250
  6
CONTINUOUS
 10
27.8931857837
 20
-5.372240514
 11
28.590690984
 21
-5.7991841759
  0
LINE
  5
516
100
AcDbEntity
  8
0
100
AcDbLine
 62
250
  6
CONTINUOUS
 10
28.590690984
 20
-5.7991841759
 11
29.2692178179
 21
-6.2191154302
  0
LINE
  5
517
100
AcDbEntity
  8
0
100
AcDbLine
 62
250
  6
CONTINUOUS
 10
29.2692178179
 20
-6.2191154302
 11
29.9307140446
 21
-6.6330470991
  0
LINE
  5
518
100
AcDbEntity
  8
0
100
AcDbLine
 62
250
  6
CONTINUOUS
 10
29.9307140446
 20
-6.6330470991
 11
30.5755334482
 21
-7.0408891013
  0
LWPOLYLINE
  5
519
100
AcDbEntity
  8
0
100
AcDbPolyline
 62
250
  6
CONTINUOUS
 90
3
 70
0
 10
30.5755334482
 20
-7.0408891013
 10
31.20366047
 20
-7.4431785945
 10
31.8114057921
 20
-7.8395757096
  0
LINE
  5
51A
100
AcDbEntity
  8
0
100
AcDbLine
 62
7
  6
CONTINUOUS
 10
30.809322971
 20
-10.6246436861
 11
30.6938152587
 21
-10.5464602869
  0
LWPOLYLINE
  5
51B
100
AcDbEntity
  8
0
100
AcDbPolyline
 62
7
  6
CONTINUOUS
 90
9
 70
0
 10
31.0528101884
 20
-9.8866752192
 10
31.1062770783
 20
-9.9230103195
 10
31.1592365428
 20
-9.9618781444
 10
31.2116190669
 20
-10.0031274924
 10
31.2633767489
 20
-10.0467540782
 10
31.3144134676
 20
-10.0927029726
 10
31.3645194525
 20
-10.14075088
 10
31.4135703061
 20
-10.1907576757
 10
31.4616077116
 20
-10.2427464968
  0
LWPOLYLINE
  5
51C
100
AcDbEntity
  8
0
100
AcDbPolyline
 62
250
  6
CONTINUOUS
 90
7
 70
0
 10
22.8542286264
 20
-6.5184331521
 10
22.8054442065
 20
-6.476340517
 10
22.7682067948
 20
-6.4075160777
 10
22.7510023464
 20
-6.3204215701
 10
22.7543862201
 20
-6.220781052
 10
22.7782878034
 20
-6.1129596875
 10
22.8219741205
 20
-6.001831366
  0
LWPOLYLINE
  5
51D
100
AcDbEntity
  8
0
100
AcDbPolyline
 62
250
  6
CONTINUOUS
 90
6
 70
0
 10
14.982829399
 20
-1.9730984588
 10
14.9345544033
 20
-1.9309995422
 10
14.8969436141
 20
-1.8614954443
 10
14.8797628969
 20
-1.7745540159
 10
14.8829596317
 20
-1.6759332123
 10
14.9067427643
 20
-1.5686985517
  0
LWPOLYLINE
  5
51E
100
AcDbEntity
  8
0
100
AcDbPolyline
 62
250
  6
CONTINUOUS
 90
5
 70
0
 10
14.2421277997
 20
-1.0714935747
 10
14.2040986002
 20
-1.0230365303
 10
14.1598174312
 20
-0.9757183355
 10
14.1112415929
 20
-0.9329670265
 10
14.0594537077
 20
-0.8975253999
  0
LINE
  5
51F
100
AcDbEntity
  8
0
100
AcDbLine
 62
250
  6
CONTINUOUS
 10
33.1617565771
 20
-34.0474961218
 11
32.9386143251
 21
-33.719428724
  0
LINE
  5
520
100
AcDbEntity
  8
0
100
AcDbLine
 62
250
  6
CONTINUOUS
 10
32.9386143251
 20
-33.719428724
 11
32.5609210719
 21
-33.1590639211
  0
LINE
  5
521
100
AcDbEntity
  8
0
100
AcDbLine
 62
250
  6
CONTINUOUS
 10
32.5609210719
 20
-33.1590639211
 11
32.1790451114
 21
-32.5868940526
  0
LINE
  5
522
100
AcDbEntity
  8
0
100
AcDbLine
 62
250
  6
CONTINUOUS
 10
32.1790451114
 20
-32.5868940526
 11
31.8025643645
 21
-32.0171263638
  0
LINE
  5
523
100
AcDbEntity
  8
0
100
AcDbLine
 62
250
  6
CONTINUOUS
 10
31.8025643645
 20
-32.0171263638
 11
31.428242496
 21
-31.4448132186
  0
LINE
  5
524
100
AcDbEntity
  8
0
100
AcDbLine
 62
250
  6
CONTINUOUS
 10
31.428242496
 20
-31.4448132186
 11
31.0528098623
 21
-30.8649545921
  0
LINE
  5
525
100
AcDbEntity
  8
0
100
AcDbLine
 62
250
  6
CONTINUOUS
 10
31.9915048883
 20
-33.4531419939
 11
31.8114169935
 21
-33.1702151614
  0
LINE
  5
526
100
AcDbEntity
  8
0
100
AcDbLine
 62
250
  6
CONTINUOUS
 10
14.2643226026
 20
-19.9799095541
 11
14.249996631
 21
-19.9270985056
  0
LWPOLYLINE
  5
527
100
AcDbEntity
  8
0
100
AcDbPolyline
 62
250
  6
CONTINUOUS
 90
4
 70
0
 10
13.2528839173
 20
-22.8707828149
 10
13.2874568527
 20
-23.0480657351
 10
13.3232288805
 20
-23.2217958566
 10
13.3605510098
 20
-23.3932250689
  0
LINE
  5
528
100
AcDbEntity
  8
0
100
AcDbLine
 62
250
  6
CONTINUOUS
 10
13.2193359986
 20
-22.6895556171
 11
13.2528839173
 21
-22.8707828149
  0
LWPOLYLINE
  5
529
100
AcDbEntity
  8
0
100
AcDbPolyline
 62
7
  6
CONTINUOUS
 90
4
 70
0
 10
14.2824223452
 20
-20.1703231498
 10
14.2781605117
 20
-20.1470253408
 10
14.2708945655
 20
-20.1001178079
 10
14.2663825779
 20
-20.0619117417
  0
LINE
  5
52A
100
AcDbEntity
  8
0
100
AcDbLine
 62
250
  6
CONTINUOUS
 10
13.1790090466
 20
-22.4549592946
 11
13.2193353398
 21
-22.6895504507
  0
LINE
  5
52B
100
AcDbEntity
  8
0
100
AcDbLine
 62
250
  6
CONTINUOUS
 10
13.1406667567
 20
-22.2098802744
 11
13.1790090466
 21
-22.4549592946
  0
LINE
  5
52C
100
AcDbEntity
  8
0
100
AcDbLine
 62
250
  6
CONTINUOUS
 10
13.1047059076
 20
-21.957874187
 11
13.1406667567
 21
-22.2098802744
  0
LINE
  5
52D
100
AcDbEntity
  8
0
100
AcDbLine
 62
250
  6
CONTINUOUS
 10
13.0716555156
 20
-21.7036791874
 11
13.1047059076
 21
-21.957874187
  0
LINE
  5
52E
100
AcDbEntity
  8
0
100
AcDbLine
 62
250
  6
CONTINUOUS
 10
10.5968546662
 20
-20.2752153527
 11
10.5667712343
 21
-20.0202059079
  0
LWPOLYLINE
  5
52F
100
AcDbEntity
  8
0
100
AcDbPolyline
 62
7
  6
CONTINUOUS
 90
4
 70
0
 10
14.2663825779
 20
-20.0619117417
 10
14.2656892247
 20
-20.0547595402
 10
14.2625898237
 20
-20.0112257433
 10
14.2616172882
 20
-19.9696755957
  0
LWPOLYLINE
  5
530
100
AcDbEntity
  8
0
100
AcDbPolyline
 62
250
  6
CONTINUOUS
 90
10
 70
0
 10
15.1041363701
 20
-20.1557936196
 10
15.1055713768
 20
-20.1795650493
 10
15.1105049318
 20
-20.2053315425
 10
15.1188981641
 20
-20.2322319105
 10
15.1307582183
 20
-20.2595396691
 10
15.1457384826
 20
-20.2861725256
 10
15.1630614171
 20
-20.3107257273
 10
15.1820133809
 20
-20.3322871777
 10
15.201982514
 20
-20.350422108
 10
15.222216781
 20
-20.3645879377
  0
LWPOLYLINE
  5
531
100
AcDbEntity
  8
0
100
AcDbPolyline
 62
250
  6
CONTINUOUS
 90
10
 70
0
 10
15.0746272625
 20
-21.6419710314
 10
15.0708153362
 20
-21.5730893736
 10
15.0644504418
 20
-21.507689527
 10
15.0555328935
 20
-21.4460765925
 10
15.0440591851
 20
-21.3884484566
 10
15.0300250472
 20
-21.3352703553
 10
15.0135211263
 20
-21.2871786341
 10
14.994680759
 20
-21.2445154509
 10
14.9735843815
 20
-21.2074252384
 10
14.9503295251
 20
-21.1761614516
  0
LWPOLYLINE
  5
532
100
AcDbEntity
  8
0
100
AcDbPolyline
 62
250
  6
CONTINUOUS
 90
9
 70
0
 10
13.9323319882
 20
-19.5756916621
 10
13.9333312946
 20
-19.6492786145
 10
13.9376929199
 20
-19.7245868271
 10
13.945416864
 20
-19.8016162999
 10
13.9565582237
 20
-19.8807303493
 10
13.9710619023
 20
-19.9615656589
 10
13.98876261
 20
-20.0430322794
 10
14.0096052502
 20
-20.1247668941
 10
14.0336449197
 20
-20.2071328197
  0
LWPOLYLINE
  5
533
100
AcDbEntity
  8
0
100
AcDbPolyline
 62
250
  6
CONTINUOUS
 90
10
 70
0
 10
12.9263536437
 20
-19.6352477195
 10
12.9267364364
 20
-19.7223620456
 10
12.9277932574
 20
-19.8093675879
 10
12.9294974491
 20
-19.8962764967
 10
12.9318218738
 20
-19.9831060809
 10
12.9347385311
 20
-20.0698641949
 10
12.9382182351
 20
-20.1565494334
 10
12.9422312924
 20
-20.2431705162
 10
12.9467478164
 20
-20.3297460985
 10
12.9517371216
 20
-20.4162902919
  0
LINE
  5
534
100
AcDbEntity
  8
0
100
AcDbLine
 62
250
  6
CONTINUOUS
 10
13.9323319882
 20
-19.5756916621
 11
13.9323319882
 21
-1.4557776246
  0
LINE
  5
535
100
AcDbEntity
  8
0
100
AcDbLine
 62
250
  6
CONTINUOUS
 10
14.2643226026
 20
-19.9799095541
 11
14.2643226026
 21
-1.8529237667
  0
LINE
  5
536
100
AcDbEntity
  8
0
100
AcDbLine
 62
250
  6
CONTINUOUS
 10
15.1041206266
 20
-20.1558023276
 11
15.1041206266
 21
-2.0241219188
  0
LWPOLYLINE
  5
537
100
AcDbEntity
  8
0
100
AcDbPolyline
 62
250
  6
CONTINUOUS
 90
8
 70
0
 10
14.2639070115
 20
-1.8532663781
 10
14.26509637
 20
-1.808966646
 10
14.2685361842
 20
-1.7665892177
 10
14.2740782844
 20
-1.7261820778
 10
14.2815535584
 20
-1.6877254082
 10
14.2908903227
 20
-1.6512972872
 10
14.3020259481
 20
-1.6172468053
 10
14.3053748071
 20
-1.6074342076
  0
LWPOLYLINE
  5
538
100
AcDbEntity
  8
0
100
AcDbPolyline
 62
250
  6
CONTINUOUS
 90
10
 70
0
 10
12.951822549
 20
0.5672340286
 10
12.9468621544
 20
0.4749150286
 10
12.9423488464
 20
0.3830957379
 10
12.9383210275
 20
0.2918030808
 10
12.9348161328
 20
0.2010583237
 10
12.9318712493
 20
0.110892478
 10
12.9295227997
 20
0.0213461298
 10
12.927805841
 20
-0.0675510329
 10
12.9267543942
 20
-0.1557800424
 10
12.9264018388
 20
-0.2433173693
  0
LWPOLYLINE
  5
539
100
AcDbEntity
  8
0
100
AcDbPolyline
 62
250
  6
CONTINUOUS
 90
6
 70
0
 10
15.0464533454
 20
-0.8922010779
 10
15.028105524
 20
-1.0715352452
 10
15.0150955018
 20
-1.1656159659
 10
14.9973483038
 20
-1.2612355869
 10
14.9757889424
 20
-1.3584659635
 10
14.9503296437
 20
-1.4568696446
  0
LWPOLYLINE
  5
53A
100
AcDbEntity
  8
0
100
AcDbPolyline
 62
250
  6
CONTINUOUS
 90
3
 70
0
 10
15.0742325986
 20
-0.6582144136
 10
15.0652426321
 20
-0.7313739124
 10
15.0464533454
 20
-0.8922010779
  0
LWPOLYLINE
  5
53B
100
AcDbEntity
  8
0
100
AcDbPolyline
 62
250
  6
CONTINUOUS
 90
10
 70
0
 10
13.2193360042
 20
3.1494121911
 10
13.1790490353
 20
2.8685407299
 10
13.1407324466
 20
2.5794106353
 10
13.1047838636
 20
2.2860230756
 10
13.0717314199
 20
1.9936970568
 10
13.0416467311
 20
1.7039438006
 10
13.0142935765
 20
1.414345177
 10
12.989887509
 20
1.1257801905
 10
12.9689504378
 20
0.842568488
 10
12.9518222349
 20
0.5672260514
  0
LWPOLYLINE
  5
53C
100
AcDbEntity
  8
0
100
AcDbPolyline
 62
250
  6
CONTINUOUS
 90
9
 70
0
 10
13.2193370888
 20
3.1494194444
 10
13.2528849237
 20
3.3693861012
 10
13.2874577696
 20
3.5865921547
 10
13.323229701
 20
3.8016301053
 10
13.3605517252
 20
4.0161571745
 10
13.3995294649
 20
4.2304585732
 10
13.4400007333
 20
4.443680403
 10
13.4820996019
 20
4.6569060447
 10
13.5262826051
 20
4.8729555287
  0
LINE
  5
53D
100
AcDbEntity
  8
0
100
AcDbLine
 62
250
  6
CONTINUOUS
 10
13.5262826051
 20
4.8729555287
 11
13.5728872464
 21
5.0940828351
  0
LWPOLYLINE
  5
53E
100
AcDbEntity
  8
0
100
AcDbPolyline
 62
250
  6
CONTINUOUS
 90
9
 70
0
 10
14.3443887297
 20
-1.5298704745
 10
14.3606349811
 20
-1.4719148178
 10
14.3656698017
 20
-1.4119678371
 10
14.3612180972
 20
-1.3511989336
 10
14.3486324416
 20
-1.290362237
 10
14.3291088808
 20
-1.2305246687
 10
14.3037410503
 20
-1.1731120832
 10
14.2745949048
 20
-1.1204853733
 10
14.2421277997
 20
-1.0714935747
  0
LINE
  5
53F
100
AcDbEntity
  8
0
100
AcDbLine
 62
250
  6
CONTINUOUS
 10
14.9067427643
 20
-1.5686985517
 11
14.951231238
 21
-1.4563844339
  0
LWPOLYLINE
  5
540
100
AcDbEntity
  8
0
100
AcDbPolyline
 62
7
  6
CONTINUOUS
 90
3
 70
0
 10
14.3053748071
 20
-1.6074342076
 10
14.3147700405
 20
-1.5857091625
 10
14.328873263
 20
-1.5559122838
  0
LWPOLYLINE
  5
541
100
AcDbEntity
  8
0
100
AcDbPolyline
 62
250
  6
CONTINUOUS
 90
10
 70
0
 10
6.8436654748
 20
-16.1229999077
 10
6.8698277793
 20
-16.0715433167
 10
6.8930164511
 20
-16.0172462008
 10
6.9132314902
 20
-15.9601085598
 10
6.9305220507
 20
-15.8998673922
 10
6.9448389785
 20
-15.8367856996
 10
6.9560348114
 20
-15.7716524871
 10
6.9640603953
 20
-15.7047307564
 10
6.9689648843
 20
-15.6357575058
 10
6.9707482785
 20
-15.5647327352
  0
LWPOLYLINE
  5
542
100
AcDbEntity
  8
0
100
AcDbPolyline
 62
250
  6
CONTINUOUS
 90
10
 70
0
 10
14.0594148393
 20
-0.8975085791
 10
14.0332485931
 20
-0.948963769
 10
14.0100569692
 20
-1.0032600172
 10
13.9898399677
 20
-1.0603973235
 10
13.9725484417
 20
-1.1206388645
 10
13.9582315381
 20
-1.1837214636
 10
13.947036697
 20
-1.2488555921
 10
13.9390130649
 20
-1.3157780736
 10
13.9341114953
 20
-1.3847520845
 10
13.9323319882
 20
-1.4557776246
  0
LWPOLYLINE
  5
543
100
AcDbEntity
  8
0
100
AcDbPolyline
 62
250
  6
CONTINUOUS
 90
10
 70
0
 10
6.2022511048
 20
-15.6977343141
 10
6.2194137835
 20
-15.6672500405
 10
6.2345291402
 20
-15.6349834806
 10
6.2476052562
 20
-15.6011124409
 10
6.2586534804
 20
-15.565829689
 10
6.2676929023
 20
-15.5292741991
 10
6.2747282253
 20
-15.4915295584
 10
6.2797528994
 20
-15.4527203746
 10
6.2827686626
 20
-15.4130129632
 10
6.283779516
 20
-15.3725449981
  0
LINE
  5
544
100
AcDbEntity
  8
0
100
AcDbLine
 62
250
  6
CONTINUOUS
 10
14.328873263
 20
-1.5559122838
 11
14.3443887297
 21
-1.5298704745
  0
LWPOLYLINE
  5
545
100
AcDbEntity
  8
0
100
AcDbPolyline
 62
250
  6
CONTINUOUS
 90
8
 70
0
 10
14.3479022759
 20
-1.5183035832
 10
14.393183837
 20
-1.4616984543
 10
14.4464013065
 20
-1.4176664306
 10
14.5071328101
 20
-1.387298165
 10
14.5745175108
 20
-1.3697596938
 10
14.6467692866
 20
-1.3641217029
 10
14.7218398648
 20
-1.3705852588
 10
14.7983151174
 20
-1.3888603669
  0
LWPOLYLINE
  5
546
100
AcDbEntity
  8
RACCORDO
100
AcDbPolyline
 62
7
  6
CONTINUOUS
 90
6
 70
0
 10
5.6884673811
 20
-13.1170947835
 10
5.6987866545
 20
-13.1082056953
 10
5.706602002
 20
-13.0976768726
 10
5.7117173184
 20
-13.085771479
 10
5.7140179764
 20
-13.0726534201
 10
5.7141528983
 20
-13.0684265897
  0
LWPOLYLINE
  5
547
100
AcDbEntity
  8
RACCORDO
100
AcDbPolyline
 62
7
  6
CONTINUOUS
 90
6
 70
0
 10
5.6884673811
 20
-12.9084245721
 10
5.6988897069
 20
-12.9002376682
 10
5.7065972149
 20
-12.891688878
 10
5.711589905
 20
-12.8827782014
 10
5.7138556029
 20
-12.8732372008
 10
5.7141528833
 20
-12.8697579355
  0
LWPOLYLINE
  5
548
100
AcDbEntity
  8
RACCORDO
100
AcDbPolyline
 62
7
  6
CONTINUOUS
 90
10
 70
0
 10
16.811664346
 20
-5.6299775579
 10
16.823965119
 20
-5.6207062718
 10
16.8352218655
 20
-5.6101085918
 10
16.8454345856
 20
-5.5981845179
 10
16.8548296512
 20
-5.5845279054
 10
16.8631806903
 20
-5.5695448989
 10
16.8698085877
 20
-5.5544539327
 10
16.8744869714
 20
-5.5396611514
 10
16.8774422132
 20
-5.5247604103
 10
16.8786743132
 20
-5.5097517094
  0
LWPOLYLINE
  5
549
100
AcDbEntity
  8
0
100
AcDbPolyline
 62
250
  6
CONTINUOUS
 90
10
 70
0
 10
24.3190430995
 20
1.2296385112
 10
24.2730198338
 20
1.1966170466
 10
24.2281799887
 20
1.1574022939
 10
24.1852868085
 20
1.1126896801
 10
24.1450651341
 20
1.0632638541
 10
24.1081900439
 20
1.0099852889
 10
24.0752756148
 20
0.9537751434
 10
24.0468641863
 20
0.8955978241
 10
24.0234180245
 20
0.83644406
 10
24.0053127768
 20
0.777314854
  0
LINE
  5
54A
100
AcDbEntity
  8
0
100
AcDbLine
 62
7
  6
CONTINUOUS
 10
5.6884673811
 20
-12.9084245721
 11
4.9545295132
 21
-13.3790649798
  0
LINE
  5
54B
100
AcDbEntity
  8
0
100
AcDbLine
 62
7
  6
CONTINUOUS
 10
16.811664346
 20
-5.6299775579
 11
16.0195179013
 21
-6.1352884154
  0
LINE
  5
54C
100
AcDbEntity
  8
0
100
AcDbLine
 62
7
  6
CONTINUOUS
 10
5.6884673811
 20
-13.1170947835
 11
5.094643392
 21
-13.4599649774
  0
LINE
  5
54D
100
AcDbEntity
  8
0
100
AcDbLine
 62
7
  6
CONTINUOUS
 10
3.5750326991
 20
-11.6881538743
 11
2.7599121179
 21
-12.1119204008
  0
LWPOLYLINE
  5
54E
100
AcDbEntity
  8
0
100
AcDbPolyline
 62
250
  6
CONTINUOUS
 90
3
 70
0
 10
-36.8349159205
 20
10.1569813318
 10
-37.0196596213
 20
10.139459244
 10
-37.2008796437
 20
10.1176586212
  0
LINE
  5
54F
100
AcDbEntity
  8
DRAFT
100
AcDbLine
 62
7
  6
CONTINUOUS
 10
-33.9623032541
 20
13.7015987555
 11
-34.0683692713
 21
13.6983895509
  0
LINE
  5
550
100
AcDbEntity
  8
DRAFT
100
AcDbLine
 62
7
  6
CONTINUOUS
 10
-33.7855265588
 20
13.8143647523
 11
-33.891592576
 21
13.8111555478
  0
LINE
  5
551
100
AcDbEntity
  8
DRAFT
100
AcDbLine
 62
7
  6
CONTINUOUS
 10
-33.6087498635
 20
13.9271307492
 11
-33.7148158807
 21
13.9239215446
  0
LINE
  5
552
100
AcDbEntity
  8
DRAFT
100
AcDbLine
 62
7
  6
CONTINUOUS
 10
-33.4319731682
 20
14.039896746
 11
-33.5380391854
 21
14.0366875414
  0
LINE
  5
553
100
AcDbEntity
  8
DRAFT
100
AcDbLine
 62
7
  6
CONTINUOUS
 10
-33.9623032541
 20
16.2215125653
 11
-34.0683692713
 21
16.2247217698
  0
LINE
  5
554
100
AcDbEntity
  8
DRAFT
100
AcDbLine
 62
7
  6
CONTINUOUS
 10
-33.7855265588
 20
16.3128838651
 11
-33.891592576
 21
16.3160930696
  0
LINE
  5
555
100
AcDbEntity
  8
DRAFT
100
AcDbLine
 62
7
  6
CONTINUOUS
 10
-33.6087498635
 20
16.4042551649
 11
-33.7148158807
 21
16.4074643695
  0
LWPOLYLINE
  5
556
100
AcDbEntity
  8
0
100
AcDbPolyline
 62
250
  6
CONTINUOUS
 90
7
 70
0
 10
-18.800070325
 20
17.2468987514
 10
-18.9270341429
 20
17.2645342391
 10
-19.0379128311
 20
17.2975651757
 10
-19.1297102958
 20
17.3438028118
 10
-19.1999393826
 20
17.4015459429
 10
-19.2436663096
 20
17.4683491903
 10
-19.2571986343
 20
17.5339879609
  0
LWPOLYLINE
  5
557
100
AcDbEntity
  8
0
100
AcDbPolyline
 62
250
  6
CONTINUOUS
 90
10
 70
0
 10
-35.4246148987
 20
30.9816484194
 10
-35.5367159735
 20
31.0317188423
 10
-35.6472976176
 20
31.0770535755
 10
-35.7562078715
 20
31.1176066872
 10
-35.8632909423
 20
31.153341962
 10
-35.9685360086
 20
31.1842706057
 10
-36.0718143463
 20
31.2103650928
 10
-36.1728581718
 20
31.2315376878
 10
-36.2716385098
 20
31.247745571
 10
-36.3680637937
 20
31.2589485004
  0
LWPOLYLINE
  5
558
100
AcDbEntity
  8
0
100
AcDbPolyline
 62
250
  6
CONTINUOUS
 90
10
 70
0
 10
-36.3926596929
 20
33.8097581176
 10
-36.5223538567
 20
33.8764983929
 10
-36.6509672019
 20
33.9409053725
 10
-36.7784888792
 20
34.0027271931
 10
-36.904859852
 20
34.061612173
 10
-37.0300220062
 20
34.1172708819
 10
-37.153798474
 20
34.169326133
 10
-37.2760066307
 20
34.2173403334
 10
-37.3965092104
 20
34.2608466395
 10
-37.5153175446
 20
34.2994936681
  0
LWPOLYLINE
  5
559
100
AcDbEntity
  8
0
100
AcDbPolyline
 62
250
  6
CONTINUOUS
 90
3
 70
0
 10
-36.392656968
 20
33.8097567043
 10
-35.4074763629
 20
33.2730558558
 10
-34.3964331306
 20
32.7163158737
  0
LINE
  5
55A
100
AcDbEntity
  8
0
100
AcDbLine
 62
250
  6
CONTINUOUS
 10
-34.3964331306
 20
32.7163158737
 11
-33.3588412316
 21
32.1403520311
  0
LWPOLYLINE
  5
55B
100
AcDbEntity
  8
0
100
AcDbPolyline
 62
250
  6
CONTINUOUS
 90
5
 70
0
 10
-33.3588412316
 20
32.1403520311
 10
-32.2952257437
 20
31.5457512466
 10
-31.2049665372
 20
30.931703715
 10
-30.0860332348
 20
30.2966022801
 10
-28.937752517
 20
29.6388819099
  0
LWPOLYLINE
  5
55C
100
AcDbEntity
  8
0
100
AcDbPolyline
 62
250
  6
CONTINUOUS
 90
10
 70
0
 10
-38.9667035536
 20
37.7700347433
 10
-38.9837082788
 20
37.7796812586
 10
-39.0006787971
 20
37.7889656243
 10
-39.0176099687
 20
37.7978867851
 10
-39.0344783399
 20
37.8064346934
 10
-39.0512973047
 20
37.8146184442
 10
-39.0681168551
 20
37.8224624468
 10
-39.0849500525
 20
37.8299706477
 10
-39.1017732802
 20
37.8371303601
 10
-39.1185812295
 20
37.8439377249
  0
LWPOLYLINE
  5
55D
100
AcDbEntity
  8
0
100
AcDbPolyline
 62
250
  6
CONTINUOUS
 90
5
 70
0
 10
-39.2524143907
 20
37.3017392751
 10
-39.2754623246
 20
37.3149808063
 10
-39.2963271465
 20
37.3266407109
 10
-39.3147387152
 20
37.3364904193
 10
-39.332633945
 20
37.3456481578
  0
LINE
  5
55E
100
AcDbEntity
  8
0
100
AcDbLine
 62
250
  6
CONTINUOUS
 10
36.9893313954
 20
-6.7195524905
 11
37.0587023074
 21
-6.7593455598
  0
LINE
  5
55F
100
AcDbEntity
  8
0
100
AcDbLine
 62
7
  6
CONTINUOUS
 10
-26.1990230396
 20
29.7646675815
 11
24.0053127768
 21
0.777314854
  0
LINE
  5
560
100
AcDbEntity
  8
0
100
AcDbLine
 62
250
  6
CONTINUOUS
 10
24.3190432649
 20
1.2296375551
 11
37.4004545621
 21
-6.3234053793
  0
LINE
  5
561
100
AcDbEntity
  8
0
100
AcDbLine
 62
7
  6
CONTINUOUS
 10
24.3190432649
 20
1.2296375551
 11
-25.8852920917
 21
30.2169915819
  0
LINE
  5
562
100
AcDbEntity
  8
0
100
AcDbLine
 62
250
  6
CONTINUOUS
 10
-25.8852920917
 20
30.2169915819
 11
-38.9667034934
 21
37.7700345766
  0
LINE
  5
563
100
AcDbEntity
  8
0
100
AcDbLine
 62
7
  6
CONTINUOUS
 10
39.0109294084
 20
-5.2908581865
 11
-37.3562286478
 21
38.8025817699
  0
LINE
  5
564
100
AcDbEntity
  8
0
100
AcDbLine
 62
250
  6
CONTINUOUS
 10
36.9893313954
 20
-6.7195524905
 11
24.0053119337
 21
0.7773083451
  0
LINE
  5
565
100
AcDbEntity
  8
0
100
AcDbLine
 62
250
  6
CONTINUOUS
 10
-26.1990245502
 20
29.7646633843
 11
-39.2110163627
 21
37.2776379193
  0
LWPOLYLINE
  5
566
100
AcDbEntity
  8
0
100
AcDbPolyline
 62
250
  6
CONTINUOUS
 90
5
 70
0
 10
37.0587023074
 20
-6.7593455598
 10
37.0817505839
 20
-6.7727187868
 10
37.102613918
 20
-6.7851470512
 10
37.1210214216
 20
-6.7965515238
 10
37.1389096364
 20
-6.8080617325
  0
LINE
  5
567
100
AcDbEntity
  8
0
100
AcDbLine
 62
250
  6
CONTINUOUS
 10
-39.211032834
 20
37.2776400427
 11
-39.2524143907
 21
37.3017392751
  0
LWPOLYLINE
  5
568
100
AcDbEntity
  8
0
100
AcDbPolyline
 62
250
  6
CONTINUOUS
 90
10
 70
0
 10
37.4004571061
 20
-6.3234044326
 10
37.4174366841
 20
-6.3333799477
 10
37.4343917892
 20
-6.3436831103
 10
37.4513172822
 20
-6.3543096302
 10
37.4681943053
 20
-6.3652460848
 10
37.4850315922
 20
-6.3764965514
 10
37.501865282
 20
-6.3880852615
 10
37.5187038541
 20
-6.4000198072
 10
37.5355283179
 20
-6.4122884892
 10
37.5523333919
 20
-6.4248888027
  0
LWPOLYLINE
  5
569
100
AcDbEntity
  8
0
100
AcDbPolyline
 62
250
  6
CONTINUOUS
 90
8
 70
0
 10
32.5014762558
 20
-5.9369039194
 10
31.4903415661
 20
-5.3260959407
 10
30.4527376561
 20
-4.7037156367
 10
29.3891398446
 20
-4.0700414675
 10
28.2988373432
 20
-3.4251971552
 10
27.1797403271
 20
-2.7684563755
 10
26.0312623218
 20
-2.1005402128
 10
23.6488554476
 20
-0.7249561836
  0
LINE
  5
56A
100
AcDbEntity
  8
0
100
AcDbLine
 62
250
  6
CONTINUOUS
 10
33.4865468807
 20
-6.5376210161
 11
32.5014762558
 21
-5.9369039194
  0
LWPOLYLINE
  5
56B
100
AcDbEntity
  8
0
100
AcDbPolyline
 62
250
  6
CONTINUOUS
 90
10
 70
0
 10
30.2228428048
 20
-30.3883621114
 10
30.3843067554
 20
-30.698431095
 10
30.5506263991
 20
-31.0102107088
 10
30.7213512718
 20
-31.3228930183
 10
30.8960028766
 20
-31.6356227509
 10
31.0741133826
 20
-31.9475668797
 10
31.2552271652
 20
-32.2579122876
 10
31.4388472573
 20
-32.5657720835
 10
31.6244334087
 20
-32.8701873035
 10
31.8114419749
 20
-33.1701950364
  0
LWPOLYLINE
  5
56C
100
AcDbEntity
  8
0
100
AcDbPolyline
 62
250
  6
CONTINUOUS
 90
7
 70
0
 10
14.2636807364
 20
-1.853346123
 10
14.2938376709
 20
-1.9221851114
 10
14.3517912126
 20
-1.9832511814
 10
14.4336491817
 20
-2.03472797
 10
14.5363833225
 20
-2.0751008881
 10
14.6538647052
 20
-2.1004894888
 10
14.7755689352
 20
-2.107714162
  0
LWPOLYLINE
  5
56D
100
AcDbEntity
  8
0
100
AcDbPolyline
 62
250
  6
CONTINUOUS
 90
4
 70
0
 10
24.0048503505
 20
-31.1324375074
 10
23.961589409
 20
-31.0153014396
 10
23.919269739
 20
-30.8972433996
 10
23.8778938308
 20
-30.7782702588
  0
LWPOLYLINE
  5
56E
100
AcDbEntity
  8
0
100
AcDbPolyline
 62
250
  6
CONTINUOUS
 90
6
 70
0
 10
23.8778938308
 20
-30.7782702588
 10
23.8374643034
 20
-30.6583894952
 10
23.7979833446
 20
-30.5376075424
 10
23.7594527544
 20
-30.4159297479
 10
23.7218746715
 20
-30.2933625932
 10
23.6852515285
 20
-30.1699137354
  0
LINE
  5
56F
100
AcDbEntity
  8
0
100
AcDbLine
 62
250
  6
CONTINUOUS
 10
23.6852515285
 20
-30.1699137354
 11
23.6495855235
 21
-30.0455903263
  0
LWPOLYLINE
  5
570
100
AcDbEntity
  8
0
100
AcDbPolyline
 62
250
  6
CONTINUOUS
 90
10
 70
0
 10
23.6493521601
 20
-30.0447310008
 10
23.6021469756
 20
-29.8752213982
 10
23.5575592464
 20
-29.7085588844
 10
23.5152272762
 20
-29.5428430672
 10
23.4747010614
 20
-29.3758899398
 10
23.4358102652
 20
-29.2067261981
 10
23.398641761
 20
-29.0357777024
 10
23.3630676431
 20
-28.8628335404
 10
23.328763045
 20
-28.6868228919
 10
23.2955582598
 20
-28.5074400851
  0
LINE
  5
571
100
AcDbEntity
  8
0
100
AcDbLine
 62
250
  6
CONTINUOUS
 10
14.2511623257
 20
-1.8035628562
 11
14.2643226026
 21
-1.8529237667
  0
LWPOLYLINE
  5
572
100
AcDbEntity
  8
RACCORDO
100
AcDbPolyline
 62
7
  6
CONTINUOUS
 90
6
 70
0
 10
16.8786743132
 20
-12.4178070438
 10
16.8774422132
 20
-12.4042211412
 10
16.8744869714
 20
-12.3927330393
 10
16.8698085877
 20
-12.3833427382
 10
16.8631806903
 20
-12.3759055016
 10
16.8579935942
 20
-12.3720492783
  0
LWPOLYLINE
  5
573
100
AcDbEntity
  8
RACCORDO
100
AcDbPolyline
 62
7
  6
CONTINUOUS
 90
6
 70
0
 10
16.8786743132
 20
-3.2325164299
 10
16.8774422132
 20
-3.2189305272
 10
16.8744869714
 20
-3.2074424253
 10
16.8698085877
 20
-3.1980521242
 10
16.8631806903
 20
-3.1906148877
 10
16.8579935942
 20
-3.1867586644
  0
LINE
  5
574
100
AcDbEntity
  8
0
100
AcDbLine
 62
7
  6
CONTINUOUS
 10
16.0195179013
 20
-2.5728463705
 11
16.0195179013
 21
-19.6459899596
  0
LINE
  5
575
100
AcDbEntity
  8
RACCORDO
100
AcDbLine
 62
7
  6
CONTINUOUS
 10
16.8786743132
 20
-3.2325164299
 11
16.8786743132
 21
-5.5097517094
  0
LINE
  5
576
100
AcDbEntity
  8
RACCORDO
100
AcDbLine
 62
7
  6
CONTINUOUS
 10
16.8786743132
 20
-12.4178070438
 11
16.8786743132
 21
-14.6950423233
  0
LWPOLYLINE
  5
577
100
AcDbEntity
  8
0
100
AcDbPolyline
 62
250
  6
CONTINUOUS
 90
7
 70
0
 10
5.8607226576
 20
-14.9593658055
 10
5.7744800877
 20
-15.0249880108
 10
5.6969182192
 20
-15.1087759096
 10
5.6305125252
 20
-15.206823847
 10
5.5767278811
 20
-15.315804501
 10
5.5390445229
 20
-15.42884337
 10
5.5212946126
 20
-15.5359916281
  0
LINE
  5
578
100
AcDbEntity
  8
0
100
AcDbLine
 62
7
  6
CONTINUOUS
 10
16.6309448199
 20
-12.2706174364
 11
16.0195179013
 21
-12.6236514499
  0
LINE
  5
579
100
AcDbEntity
  8
0
100
AcDbLine
 62
7
  6
CONTINUOUS
 10
16.811664346
 20
-12.3749626258
 11
16.0195179013
 21
-12.7844026268
  0
LWPOLYLINE
  5
57A
100
AcDbEntity
  8
0
100
AcDbPolyline
 62
250
  6
CONTINUOUS
 90
10
 70
0
 10
15.10425142
 20
-11.0897570907
 10
15.0039345406
 20
-11.1330995908
 10
14.890607204
 20
-11.1600868059
 10
14.7700821507
 20
-11.1699496988
 10
14.64798258
 20
-11.1625350461
 10
14.5319976425
 20
-11.1381186903
 10
14.4307039371
 20
-11.0986441389
 10
14.3499727337
 20
-11.0469085316
 10
14.293514738
 20
-10.9851885953
 10
14.2644546422
 20
-10.9162111158
  0
LWPOLYLINE
  5
57B
100
AcDbEntity
  8
RACCORDO
100
AcDbPolyline
 62
7
  6
CONTINUOUS
 90
6
 70
0
 10
16.627438055
 20
-12.2726422201
 10
16.6410573793
 20
-12.2668369008
 10
16.655127371
 20
-12.264654375
 10
16.6690703529
 20
-12.2659946369
 10
16.6822386669
 20
-12.2706990066
 10
16.6859305065
 20
-12.2726960219
  0
LWPOLYLINE
  5
57C
100
AcDbEntity
  8
0
100
AcDbPolyline
 62
250
  6
CONTINUOUS
 90
9
 70
0
 10
-36.4275170811
 20
9.1820247691
 10
-36.5911350977
 20
9.1384323212
 10
-36.751615226
 20
9.0930891203
 10
-36.9094233637
 20
9.0458500115
 10
-37.0650367157
 20
8.996566911
 10
-37.2189357819
 20
8.9450839548
 10
-37.3715646372
 20
8.89125068
 10
-37.5233386998
 20
8.834926643
 10
-37.6746755627
 20
8.775971217
  0
LINE
  5
57D
100
AcDbEntity
  8
0
100
AcDbLine
 62
250
  6
CONTINUOUS
 10
-36.398329139
 20
9.1895349061
 11
-36.4275170811
 21
9.1820247691
  0
LINE
  5
57E
100
AcDbEntity
  8
0
100
AcDbLine
 62
7
  6
CONTINUOUS
 10
-36.3073849325
 20
9.2124400448
 11
-36.398329139
 21
9.1895349061
  0
LINE
  5
57F
100
AcDbEntity
  8
0
100
AcDbLine
 62
250
  6
CONTINUOUS
 10
-36.2602757163
 20
9.2240181367
 11
-36.3073849325
 21
9.2124400448
  0
LINE
  5
580
100
AcDbEntity
  8
0
100
AcDbLine
 62
250
  6
CONTINUOUS
 10
-37.7202021662
 20
10.0268834801
 11
-37.8840719518
 21
9.9882969075
  0
LINE
  5
581
100
AcDbEntity
  8
0
100
AcDbLine
 62
250
  6
CONTINUOUS
 10
-37.551485496
 20
10.0613326499
 11
-37.7202021662
 21
10.0268834801
  0
LINE
  5
582
100
AcDbEntity
  8
0
100
AcDbLine
 62
250
  6
CONTINUOUS
 10
-37.3782639683
 20
10.0916042649
 11
-37.551485496
 21
10.0613326499
  0
LINE
  5
583
100
AcDbEntity
  8
0
100
AcDbLine
 62
250
  6
CONTINUOUS
 10
-37.2008796437
 20
10.1176586212
 11
-37.3782639683
 21
10.0916042649
  0
LINE
  5
584
100
AcDbEntity
  8
DRAFT
100
AcDbLine
 62
7
  6
CONTINUOUS
 10
-33.4319731682
 20
16.4956264647
 11
-33.5380391854
 21
16.4988356693
  0
LWPOLYLINE
  5
585
100
AcDbEntity
  8
0
100
AcDbPolyline
 62
250
  6
CONTINUOUS
 90
7
 70
0
 10
-18.8179546835
 20
17.2483685199
 10
-18.7264891574
 20
17.2400968835
 10
-18.6384717271
 20
17.2279666396
 10
-18.5543251168
 20
17.2123261535
 10
-18.4750309831
 20
17.1936951146
 10
-18.4001727467
 20
17.1723131058
 10
-18.3281651375
 20
17.1478731696
  0
LWPOLYLINE
  5
586
100
AcDbEntity
  8
0
100
AcDbPolyline
 62
7
  6
CONTINUOUS
 90
7
 70
0
 10
-35.3629766302
 20
28.4347744114
 10
-35.4148282565
 20
28.4507924083
 10
-35.4655297608
 20
28.4636201888
 10
-35.5151239958
 20
28.4732673969
 10
-35.5635813886
 20
28.479742667
 10
-35.6108082054
 20
28.4830719189
 10
-35.6567441151
 20
28.4833093828
  0
LWPOLYLINE
  5
587
100
AcDbEntity
  8
0
100
AcDbPolyline
 62
250
  6
CONTINUOUS
 90
10
 70
0
 10
37.1389096389
 20
-6.8080617341
 10
37.2832605578
 20
-6.919754983
 10
37.4171875926
 20
-7.0564551236
 10
37.5369497631
 20
-7.2124283654
 10
37.6386140949
 20
-7.3808524563
 10
37.7195402273
 20
-7.5552687521
 10
37.778534614
 20
-7.7319223121
 10
37.8139916102
 20
-7.9068220839
 10
37.8241498698
 20
-8.0723082359
 10
37.8232865688
 20
-8.2334607381
  0
LWPOLYLINE
  5
588
100
AcDbEntity
  8
0
100
AcDbPolyline
 62
250
  6
CONTINUOUS
 90
10
 70
0
 10
34.6091805204
 20
-7.3442809246
 10
34.4903947698
 20
-7.2457499769
 10
34.3698949689
 20
-7.1501195493
 10
34.2476922054
 20
-7.0570200216
 10
34.1239252049
 20
-6.9661551733
 10
33.9987772196
 20
-6.8773224845
 10
33.8724249657
 20
-6.7903417127
 10
33.7449209749
 20
-6.7049471857
 10
33.6162806827
 20
-6.6208079429
 10
33.4865468807
 20
-6.5376210148
  0
LWPOLYLINE
  5
589
100
AcDbEntity
  8
0
100
AcDbPolyline
 62
250
  6
CONTINUOUS
 90
10
 70
0
 10
32.7548393222
 20
-8.6517468161
 10
32.6583578785
 20
-8.5515522692
 10
32.5595555288
 20
-8.4536774236
 10
32.4584936171
 20
-8.3581567182
 10
32.3551699473
 20
-8.2649538856
 10
32.2499852722
 20
-8.1744072756
 10
32.1429081278
 20
-8.0864945243
 10
32.0340049755
 20
-8.0012873383
 10
31.9234655764
 20
-7.9189532536
 10
31.8114109614
 20
-7.8395950198
  0
LWPOLYLINE
  5
58A
100
AcDbEntity
  8
0
100
AcDbPolyline
 62
250
  6
CONTINUOUS
 90
10
 70
0
 10
32.7548393222
 20
-8.6517468161
 10
32.8136607162
 20
-8.7152483163
 10
32.8714452074
 20
-8.7795202485
 10
32.9281663581
 20
-8.8445342506
 10
32.9838107194
 20
-8.910276745
 10
33.0383435307
 20
-8.9767058144
 10
33.0916941305
 20
-9.0437310716
 10
33.1438340011
 20
-9.1113112179
 10
33.1947826993
 20
-9.1794626886
 10
33.2445677844
 20
-9.2482192648
  0
LINE
  5
58B
100
AcDbEntity
  8
0
100
AcDbLine
 62
7
  6
CONTINUOUS
 10
31.4616077116
 20
-10.2427464968
 11
31.5085979762
 21
-10.2966806046
  0
LWPOLYLINE
  5
58C
100
AcDbEntity
  8
0
100
AcDbPolyline
 62
7
  6
CONTINUOUS
 90
3
 70
0
 10
31.5085928671
 20
-10.2967120861
 10
31.6188011414
 20
-10.4365174146
 10
31.7209328314
 20
-10.5858881527
  0
LWPOLYLINE
  5
58D
100
AcDbEntity
  8
0
100
AcDbPolyline
 62
7
  6
CONTINUOUS
 90
4
 70
0
 10
31.1358517934
 20
-10.9861317302
 10
31.0352100557
 20
-10.8475430335
 10
30.9248677126
 20
-10.7262408242
 10
30.809322971
 20
-10.6246436861
  0
LWPOLYLINE
  5
58E
100
AcDbEntity
  8
0
100
AcDbPolyline
 62
250
  6
CONTINUOUS
 90
10
 70
0
 10
23.028044722
 20
-26.2341759918
 10
23.0447142595
 20
-26.4835337012
 10
23.0652439555
 20
-26.7388348167
 10
23.0894126623
 20
-26.9980866747
 10
23.1169411048
 20
-27.2588660602
 10
23.1475709593
 20
-27.5190855437
 10
23.1810882395
 20
-27.7769355402
 10
23.217196904
 20
-28.0298285236
 10
23.255492599
 20
-28.2744409735
 10
23.2955582624
 20
-28.5074401025
  0
LINE
  5
58F
100
AcDbEntity
  8
RACCORDO
100
AcDbLine
 62
250
  6
CONTINUOUS
 10
22.8358068249
 20
-22.8090834603
 11
22.8358068249
 21
-23.0177536717
  0
LWPOLYLINE
  5
590
100
AcDbEntity
  8
RACCORDO
100
AcDbPolyline
 62
7
  6
CONTINUOUS
 90
10
 70
0
 10
16.811664346
 20
-14.8152681718
 10
16.823965119
 20
-14.8059968857
 10
16.8352218655
 20
-14.7953992057
 10
16.8454345856
 20
-14.7834751318
 10
16.8548296512
 20
-14.7698185193
 10
16.8631806903
 20
-14.7548355128
 10
16.8698085877
 20
-14.7397445466
 10
16.8744869714
 20
-14.7249517653
 10
16.8774422132
 20
-14.7100510242
 10
16.8786743132
 20
-14.6950423233
  0
LINE
  5
591
100
AcDbEntity
  8
0
100
AcDbLine
 62
7
  6
CONTINUOUS
 10
16.811664346
 20
-14.8152681718
 11
16.0195179013
 21
-15.3205790293
  0
LINE
  5
592
100
AcDbEntity
  8
0
100
AcDbLine
 62
250
  6
CONTINUOUS
 10
32.9861884597
 20
-11.4142171765
 11
33.201175701
 21
-11.3307032692
  0
LINE
  5
593
100
AcDbEntity
  8
0
100
AcDbLine
 62
250
  6
CONTINUOUS
 10
32.7703995693
 20
-11.4948104792
 11
32.9861884597
 21
-11.4142171765
  0
LINE
  5
594
100
AcDbEntity
  8
0
100
AcDbLine
 62
250
  6
CONTINUOUS
 10
32.5532795629
 20
-11.5726906911
 11
32.7703995693
 21
-11.4948104792
  0
LINE
  5
595
100
AcDbEntity
  8
0
100
AcDbLine
 62
250
  6
CONTINUOUS
 10
34.2708412346
 20
-12.1768521785
 11
34.0378379725
 21
-12.2557746424
  0
LWPOLYLINE
  5
596
100
AcDbEntity
  8
0
100
AcDbPolyline
 62
250
  6
CONTINUOUS
 90
3
 70
0
 10
32.1120294891
 20
-11.721475179
 10
32.3340493782
 20
-11.6481578782
 10
32.5532795629
 20
-11.5726906911
  0
LWPOLYLINE
  5
597
100
AcDbEntity
  8
0
100
AcDbPolyline
 62
250
  6
CONTINUOUS
 90
3
 70
0
 10
34.0378379725
 20
-12.2557746424
 10
33.8018664958
 20
-12.3293303948
 10
33.5633280093
 20
-12.3973830438
  0
LWPOLYLINE
  5
598
100
AcDbEntity
  8
0
100
AcDbPolyline
 62
250
  6
CONTINUOUS
 90
10
 70
0
 10
-37.8840719518
 20
9.9882969075
 10
-38.0325129374
 20
9.9488689559
 10
-38.1784128255
 20
9.9057888326
 10
-38.3218551562
 20
9.8591359796
 10
-38.4629964631
 20
9.8089791111
 10
-38.6018850288
 20
9.7554403815
 10
-38.7384769046
 20
9.6987073598
 10
-38.8728696467
 20
9.6389414882
 10
-39.0052870544
 20
9.5762667378
 10
-39.1359087677
 20
9.510841849
  0
LWPOLYLINE
  5
599
100
AcDbEntity
  8
0
100
AcDbPolyline
 62
250
  6
CONTINUOUS
 90
5
 70
0
 10
-39.3326192193
 20
37.3456407553
 10
-39.4758403269
 20
37.40116643
 10
-39.6090805321
 20
37.4197476219
 10
-39.7285675157
 20
37.4026903332
 10
-39.8303324963
 20
37.3521416137
  0
LWPOLYLINE
  5
59A
100
AcDbEntity
  8
0
100
AcDbPolyline
 62
7
  6
CONTINUOUS
 90
6
 70
0
 10
-37.3562287386
 20
38.8025818223
 10
-37.548793609
 20
38.8906505494
 10
-37.7255694878
 20
38.93802595
 10
-37.886556375
 20
38.9447080243
 10
-38.0356070556
 20
38.9084726294
 10
-38.1336908345
 20
38.8568824365
  0
LWPOLYLINE
  5
59B
100
AcDbEntity
  8
0
100
AcDbPolyline
 62
250
  6
CONTINUOUS
 90
10
 70
0
 10
35.2292845774
 20
-7.9511743894
 10
35.1656140625
 20
-7.8793268124
 10
35.1002878538
 20
-7.8086150497
 10
35.0334845347
 20
-7.7389917761
 10
34.965484895
 20
-7.6705336528
 10
34.8964076439
 20
-7.6032089465
 10
34.8262132327
 20
-7.5369406078
 10
34.7549133138
 20
-7.4717009711
 10
34.682564486
 20
-7.4074930662
 10
34.6092050676
 20
-7.3443017555
  0
LWPOLYLINE
  5
59C
100
AcDbEntity
  8
0
100
AcDbPolyline
 62
250
  6
CONTINUOUS
 90
10
 70
0
 10
35.2292852198
 20
-7.9511751804
 10
35.3773296197
 20
-8.1323317586
 10
35.5156009633
 20
-8.3261487858
 10
35.640268846
 20
-8.5327825441
 10
35.7477140028
 20
-8.7481153587
 10
35.8393149982
 20
-8.9696718761
 10
35.9182764789
 20
-9.1991328941
 10
35.9861485987
 20
-9.4345521267
 10
36.0439717934
 20
-9.6729389042
 10
36.0924415551
 20
-9.9139072486
  0
LWPOLYLINE
  5
59D
100
AcDbEntity
  8
0
100
AcDbPolyline
 62
7
  6
CONTINUOUS
 90
5
 70
0
 10
31.7209328314
 20
-10.5858881527
 10
31.8135823905
 20
-10.7426142095
 10
31.8953597798
 20
-10.9042721877
 10
31.9652457581
 20
-11.0687600012
 10
32.0222518767
 20
-11.2339692557
  0
LWPOLYLINE
  5
59E
100
AcDbEntity
  8
RACCORDO
100
AcDbPolyline
 62
7
  6
CONTINUOUS
 90
6
 70
0
 10
22.8614923271
 20
-22.7704168237
 10
22.8607459268
 20
-22.7639932021
 10
22.8576185119
 20
-22.7545337422
 10
22.8518249764
 20
-22.7457861472
 10
22.8433531459
 20
-22.7374819793
 10
22.8322030204
 20
-22.7296212384
  0
LINE
  5
59F
100
AcDbEntity
  8
RACCORDO
100
AcDbLine
 62
7
  6
CONTINUOUS
 10
22.8614923423
 20
-22.7704486977
 11
22.8614923423
 21
-22.9691015692
  0
LINE
  5
5A0
100
AcDbEntity
  8
0
100
AcDbLine
 62
250
  6
CONTINUOUS
 10
23.0215465003
 20
-5.3294471721
 11
23.0280400953
 21
-5.2506525681
  0
LWPOLYLINE
  5
5A1
100
AcDbEntity
  8
0
100
AcDbPolyline
 62
250
  6
CONTINUOUS
 90
10
 70
0
 10
23.2955576059
 20
-2.6684781742
 10
23.2554893825
 20
-2.9477648079
 10
23.2171916006
 20
-3.2366187144
 10
23.1810814307
 20
-3.5312238615
 10
23.147563287
 20
-3.8277885949
 10
23.1169332905
 20
-4.1233821833
 10
23.0894055171
 20
-4.4159463653
 10
23.0652383047
 20
-4.7030944036
 10
23.0447108814
 20
-4.9820802021
 10
23.0280443456
 20
-5.2506553338
  0
LWPOLYLINE
  5
5A2
100
AcDbEntity
  8
0
100
AcDbPolyline
 62
250
  6
CONTINUOUS
 90
10
 70
0
 10
23.64910984
 20
-0.7238000409
 10
23.6019352147
 20
-0.9476710985
 10
23.5573772324
 20
-1.1656780496
 10
23.5150742115
 20
-1.3801381193
 10
23.4745759512
 20
-1.5937555259
 10
23.4357120215
 20
-1.8077004324
 10
23.3985694169
 20
-2.0214455597
 10
23.3630203246
 20
-2.2353490338
 10
23.3287398286
 20
-2.4508574043
 10
23.2955582565
 20
-2.6684723026
  0
LWPOLYLINE
  5
5A3
100
AcDbEntity
  8
0
100
AcDbPolyline
 62
250
  6
CONTINUOUS
 90
10
 70
0
 10
24.0057598362
 20
0.7790301463
 10
23.961767472
 20
0.6091236053
 10
23.9189667199
 20
0.4402685095
 10
23.8773450707
 20
0.2724721586
 10
23.837018865
 20
0.1062787793
 10
23.7978404995
 20
-0.0588434577
 10
23.759428828
 20
-0.2244960241
 10
23.7216788442
 20
-0.3912018162
 10
23.6847312832
 20
-0.5584115614
 10
23.648601055
 20
-0.7261123262
  0
LWPOLYLINE
  5
5A4
100
AcDbEntity
  8
0
100
AcDbPolyline
 62
250
  6
CONTINUOUS
 90
9
 70
0
 10
22.8218749637
 20
-6.0018028142
 10
22.8598509383
 20
-5.9185607265
 10
22.8944270081
 20
-5.8342392216
 10
22.9254545942
 20
-5.7491830936
 10
22.9528611683
 20
-5.663481261
 10
22.9763878276
 20
-5.5777684922
 10
22.9957149732
 20
-5.4932076434
 10
23.0107589924
 20
-5.4104087684
 10
23.0215465003
 20
-5.3294471721
  0
LINE
  5
5A5
100
AcDbEntity
  8
0
100
AcDbLine
 62
250
  6
CONTINUOUS
 10
15.1411172053
 20
-20.4302344278
 11
15.2270267991
 21
-20.3672239204
  0
LINE
  5
5A6
100
AcDbEntity
  8
0
100
AcDbLine
 62
250
  6
CONTINUOUS
 10
32.560918774
 20
-8.7944515638
 11
32.1790427191
 21
-9.0739734923
  0
LINE
  5
5A7
100
AcDbEntity
  8
0
100
AcDbLine
 62
250
  6
CONTINUOUS
 10
32.1790427191
 20
-9.0739734923
 11
31.8025629597
 21
-9.3475631435
  0
LINE
  5
5A8
100
AcDbEntity
  8
0
100
AcDbLine
 62
250
  6
CONTINUOUS
 10
31.8025629597
 20
-9.3475631435
 11
31.4282422943
 21
-9.6176463804
  0
LINE
  5
5A9
100
AcDbEntity
  8
0
100
AcDbLine
 62
250
  6
CONTINUOUS
 10
31.4282422943
 20
-9.6176463804
 11
31.0528101884
 21
-9.8866752192
  0
LWPOLYLINE
  5
5AA
100
AcDbEntity
  8
0
100
AcDbPolyline
 62
250
  6
CONTINUOUS
 90
4
 70
0
 10
33.8949356512
 20
-8.8242658729
 10
33.6762564979
 20
-8.9680725403
 10
33.4592663158
 20
-9.109705109
 10
33.2445684338
 20
-9.2482201761
  0
LWPOLYLINE
  5
5AB
100
AcDbEntity
  8
0
100
AcDbPolyline
 62
250
  6
CONTINUOUS
 90
10
 70
0
 10
33.4865917441
 20
-6.5375819084
 10
33.6591937904
 20
-6.4255266677
 10
33.8334645574
 20
-6.3165831654
 10
34.0094741072
 20
-6.2106974743
 10
34.1871389436
 20
-6.1079028057
 10
34.3666783095
 20
-6.0080537844
 10
34.5486316341
 20
-5.910850933
 10
34.7332431526
 20
-5.8161828444
 10
34.9204444641
 20
-5.7241016943
 10
35.1103230386
 20
-5.6345746429
  0
LWPOLYLINE
  5
5AC
100
AcDbEntity
  8
0
100
AcDbPolyline
 62
250
  6
CONTINUOUS
 90
8
 70
0
 10
34.6092050676
 20
-7.3443017555
 10
34.3996663351
 20
-7.4795650415
 10
34.1909375793
 20
-7.6187474586
 10
33.9831303118
 20
-7.7612144879
 10
33.7766522503
 20
-7.9060988522
 10
33.571320537
 20
-8.0529218415
 10
33.3663963516
 20
-8.2016030424
 10
32.560918774
 20
-8.7944515638
  0
LWPOLYLINE
  5
5AD
100
AcDbEntity
  8
0
100
AcDbPolyline
 62
250
  6
CONTINUOUS
 90
5
 70
0
 10
35.2292837513
 20
-7.9511734364
 10
35.0039510885
 20
-8.0958975009
 10
34.7792345341
 20
-8.2418758777
 10
34.5555478027
 20
-8.3884168082
 10
33.8949356512
 20
-8.8242658729
  0
LINE
  5
5AE
100
AcDbEntity
  8
0
100
AcDbLine
 62
250
  6
CONTINUOUS
 10
39.0109294084
 20
-5.2908581865
 11
37.4004545621
 21
-6.3234053793
  0
LWPOLYLINE
  5
5AF
100
AcDbEntity
  8
0
100
AcDbPolyline
 62
250
  6
CONTINUOUS
 90
5
 70
0
 10
33.2445669862
 20
-9.2482181156
 10
33.0455456294
 20
-9.3749395905
 10
32.8505068043
 20
-9.4976062284
 10
32.658477612
 20
-9.6168129951
 10
32.4684948011
 20
-9.7331501006
  0
LWPOLYLINE
  5
5B0
100
AcDbEntity
  8
0
100
AcDbPolyline
 62
250
  6
CONTINUOUS
 90
10
 70
0
 10
34.6092050676
 20
-7.3443017555
 10
34.7980711104
 20
-7.2265302277
 10
34.9895698302
 20
-7.111050776
 10
35.1836098757
 20
-6.9979285367
 10
35.3802538448
 20
-6.8871434319
 10
35.5792586827
 20
-6.7788506011
 10
35.7800586777
 20
-6.6733601519
 10
35.9823875748
 20
-6.5707985399
 10
36.1862955763
 20
-6.4711288219
 10
36.3916778278
 20
-6.3743969071
  0
LWPOLYLINE
  5
5B1
100
AcDbEntity
  8
0
100
AcDbPolyline
 62
250
  6
CONTINUOUS
 90
4
 70
0
 10
37.5523333496
 20
-6.4248888294
 10
37.5006624694
 20
-6.4569499077
 10
37.4443008552
 20
-6.4906926496
 10
37.3842062291
 20
-6.5259166493
  0
LWPOLYLINE
  5
5B2
100
AcDbEntity
  8
0
100
AcDbPolyline
 62
250
  6
CONTINUOUS
 90
5
 70
0
 10
32.4684948011
 20
-9.7331501006
 10
32.2794554774
 20
-9.8472946371
 10
32.0901205371
 20
-9.9600043313
 10
31.8993050711
 20
-10.0720027424
 10
31.7058734855
 20
-10.1839864357
  0
LINE
  5
5B3
100
AcDbEntity
  8
0
100
AcDbLine
 62
7
  6
CONTINUOUS
 10
16.1250557104
 20
-19.8287868066
 11
15.519312593
 21
-20.1912895188
  0
LINE
  5
5B4
100
AcDbEntity
  8
0
100
AcDbLine
 62
7
  6
CONTINUOUS
 10
15.519312593
 20
-20.1912895188
 11
15.2222279501
 21
-20.3645814479
  0
LWPOLYLINE
  5
5B5
100
AcDbEntity
  8
0
100
AcDbPolyline
 62
250
  6
CONTINUOUS
 90
5
 70
0
 10
37.3842062291
 20
-6.5259166493
 10
37.1926724046
 20
-6.6367257097
 10
37.1309592972
 20
-6.6720905476
 10
37.0722185987
 20
-6.7053960154
 10
37.0173182
 20
-6.7356459004
  0
LINE
  5
5B6
100
AcDbEntity
  8
0
100
AcDbLine
 62
250
  6
CONTINUOUS
 10
31.7058734855
 20
-10.1839864357
 11
31.5085928671
 21
-10.2967120861
  0
LWPOLYLINE
  5
5B7
100
AcDbEntity
  8
0
100
AcDbPolyline
 62
250
  6
CONTINUOUS
 90
10
 70
0
 10
36.0924477507
 20
-9.913941361
 10
35.865803719
 20
-10.0422948525
 10
35.6383767813
 20
-10.1684875667
 10
35.4107994583
 20
-10.292107292
 10
35.1842373084
 20
-10.4124645065
 10
34.9587427414
 20
-10.5294705622
 10
34.7332656103
 20
-10.6435632063
 10
34.5078694112
 20
-10.7545519061
 10
34.2837209821
 20
-10.8616921209
 10
34.0614515314
 20
-10.9645115657
  0
LWPOLYLINE
  5
5B8
100
AcDbEntity
  8
0
100
AcDbPolyline
 62
250
  6
CONTINUOUS
 90
10
 70
0
 10
37.1389096389
 20
-6.8080617341
 10
36.9249853929
 20
-6.9289877351
 10
36.7103927231
 20
-7.0520983659
 10
36.4956570745
 20
-7.1770751029
 10
36.2815350068
 20
-7.3034641011
 10
36.0683451258
 20
-7.4310689681
 10
35.8559875501
 20
-7.5599535879
 10
35.6448376015
 20
-7.6899065395
 10
35.4357263963
 20
-7.8204372865
 10
35.2292852198
 20
-7.9511751804
  0
LWPOLYLINE
  5
5B9
100
AcDbEntity
  8
0
100
AcDbPolyline
 62
7
  6
CONTINUOUS
 90
10
 70
0
 10
37.8225091035
 20
-8.233633091
 10
37.8606492999
 20
-8.2121058725
 10
37.9332094875
 20
-8.1722870001
 10
38.0074763865
 20
-8.1333647395
 10
38.0750877097
 20
-8.1010152276
 10
38.1382797224
 20
-8.0749369739
 10
38.1986338606
 20
-8.0548869885
 10
38.2581407226
 20
-8.0400933314
 10
38.3169692654
 20
-8.026469777
 10
38.372184066
 20
-8.0064898848
  0
LINE
  5
5BA
100
AcDbEntity
  8
0
100
AcDbLine
 62
7
  6
CONTINUOUS
 10
15.3470846124
 20
-20.0203068063
 11
15.2659064285
 21
-20.0660725003
  0
LINE
  5
5BB
100
AcDbEntity
  8
0
100
AcDbLine
 62
7
  6
CONTINUOUS
 10
16.0195179013
 20
-19.6459899596
 11
15.3470846124
 21
-20.0203068063
  0
LINE
  5
5BC
100
AcDbEntity
  8
0
100
AcDbLine
 62
7
  6
CONTINUOUS
 10
15.2659064285
 20
-20.0660725003
 11
15.1849229279
 21
-20.1112270048
  0
LINE
  5
5BD
100
AcDbEntity
  8
0
100
AcDbLine
 62
7
  6
CONTINUOUS
 10
15.1849229279
 20
-20.1112270048
 11
15.1041206266
 21
-20.1558023276
  0
LWPOLYLINE
  5
5BE
100
AcDbEntity
  8
0
100
AcDbPolyline
 62
250
  6
CONTINUOUS
 90
10
 70
0
 10
36.8009183735
 20
-6.6107186091
 10
36.8571701733
 20
-6.5810645641
 10
36.9170212195
 20
-6.547945185
 10
36.9791093803
 20
-6.5120071375
 10
37.0428880236
 20
-6.473924261
 10
37.1073338496
 20
-6.4348424631
 10
37.1704662194
 20
-6.3961697223
 10
37.2308846434
 20
-6.3587373199
 10
37.2880385387
 20
-6.3229045809
 10
37.3412109717
 20
-6.2891988973
  0
LINE
  5
5BF
100
AcDbEntity
  8
0
100
AcDbLine
 62
250
  6
CONTINUOUS
 10
38.3721839311
 20
-8.0064899523
 11
40.0715844385
 21
-7.1279665861
  0
LINE
  5
5C0
100
AcDbEntity
  8
0
100
AcDbLine
 62
250
  6
CONTINUOUS
 10
38.3721839321
 20
-8.0770800027
 11
38.3176737049
 21
-8.1047018174
  0
LWPOLYLINE
  5
5C1
100
AcDbEntity
  8
0
100
AcDbPolyline
 62
250
  6
CONTINUOUS
 90
5
 70
0
 10
38.0652134316
 20
-8.2291121318
 10
37.999829853
 20
-8.2620549615
 10
37.9370605896
 20
-8.2946261872
 10
37.8779146323
 20
-8.3266741638
 10
37.8238010882
 20
-8.3578714725
  0
LINE
  5
5C2
100
AcDbEntity
  8
0
100
AcDbLine
 62
250
  6
CONTINUOUS
 10
38.3176737049
 20
-8.1047018174
 11
38.0652134316
 21
-8.2291121318
  0
LINE
  5
5C3
100
AcDbEntity
  8
0
100
AcDbLine
 62
250
  6
CONTINUOUS
 10
33.8451517267
 20
-11.0613141265
 11
34.0614598022
 21
-10.9645408355
  0
LINE
  5
5C4
100
AcDbEntity
  8
0
100
AcDbLine
 62
250
  6
CONTINUOUS
 10
33.6300646892
 20
-11.1544595007
 11
33.8451517267
 21
-11.0613141265
  0
LINE
  5
5C5
100
AcDbEntity
  8
0
100
AcDbLine
 62
250
  6
CONTINUOUS
 10
15.0032648953
 20
-20.1979165878
 11
15.1041482512
 21
-20.1544663451
  0
LINE
  5
5C6
100
AcDbEntity
  8
0
100
AcDbLine
 62
250
  6
CONTINUOUS
 10
33.415638881
 20
-11.2441722022
 11
33.6300646892
 21
-11.1544595007
  0
LINE
  5
5C7
100
AcDbEntity
  8
0
100
AcDbLine
 62
250
  6
CONTINUOUS
 10
33.201175701
 20
-11.3307032692
 11
33.415638881
 21
-11.2441722022
  0
LINE
  5
5C8
100
AcDbEntity
  8
0
100
AcDbLine
 62
250
  6
CONTINUOUS
 10
34.4871903403
 20
-12.098198991
 11
34.2708412279
 21
-12.1768521702
  0
LINE
  5
5C9
100
AcDbEntity
  8
DRAFT
100
AcDbLine
 62
7
  6
CONTINUOUS
 10
-33.9623032541
 20
22.8868893694
 11
-34.0683692713
 21
22.8836801648
  0
LINE
  5
5CA
100
AcDbEntity
  8
DRAFT
100
AcDbLine
 62
7
  6
CONTINUOUS
 10
-33.7855265588
 20
22.9996553662
 11
-33.891592576
 21
22.9964461617
  0
LINE
  5
5CB
100
AcDbEntity
  8
DRAFT
100
AcDbLine
 62
7
  6
CONTINUOUS
 10
-33.6087498635
 20
23.1124213631
 11
-33.7148158807
 21
23.1092121585
  0
LINE
  5
5CC
100
AcDbEntity
  8
DRAFT
100
AcDbLine
 62
7
  6
CONTINUOUS
 10
-33.4319731682
 20
23.2251873599
 11
-33.5380391854
 21
23.2219781554
  0
LINE
  5
5CD
100
AcDbEntity
  8
DRAFT
100
AcDbLine
 62
7
  6
CONTINUOUS
 10
-33.9623032541
 20
25.4068031792
 11
-34.0683692713
 21
25.4100123837
  0
LINE
  5
5CE
100
AcDbEntity
  8
DRAFT
100
AcDbLine
 62
7
  6
CONTINUOUS
 10
-33.7855265588
 20
25.498174479
 11
-33.891592576
 21
25.5013836836
  0
LINE
  5
5CF
100
AcDbEntity
  8
DRAFT
100
AcDbLine
 62
7
  6
CONTINUOUS
 10
-33.6087498635
 20
25.5895457788
 11
-33.7148158807
 21
25.5927549834
  0
LINE
  5
5D0
100
AcDbEntity
  8
DRAFT
100
AcDbLine
 62
7
  6
CONTINUOUS
 10
-33.4319731682
 20
25.6809170786
 11
-33.5380391854
 21
25.6841262832
  0
LINE
  5
5D1
100
AcDbEntity
  8
0
100
AcDbLine
 62
250
  6
CONTINUOUS
 10
-39.210537533
 20
37.874923426
 11
-39.1185812295
 21
37.8439377249
  0
LWPOLYLINE
  5
5D2
100
AcDbEntity
  8
0
100
AcDbPolyline
 62
250
  6
CONTINUOUS
 90
7
 70
0
 10
30.947202016
 20
-20.5154765258
 10
30.9600856126
 20
-20.5808745287
 10
31.0023220645
 20
-20.6478307031
 10
31.0706285488
 20
-20.706315353
 10
31.1601661264
 20
-20.7529404461
 10
31.26699695
 20
-20.7855633071
 10
31.3864032324
 20
-20.8023798027
  0
LWPOLYLINE
  5
5D3
100
AcDbEntity
  8
0
100
AcDbPolyline
 62
250
  6
CONTINUOUS
 90
4
 70
0
 10
30.6235630624
 20
-30.0294291996
 10
30.6266040295
 20
-30.1244495974
 10
30.650121881
 20
-30.2043745863
 10
30.6942634103
 20
-30.2655156711
  0
LWPOLYLINE
  5
5D4
100
AcDbEntity
  8
0
100
AcDbPolyline
 62
250
  6
CONTINUOUS
 90
10
 70
0
 10
30.2228401636
 20
-9.4048314529
 10
30.384302325
 20
-9.2288588424
 10
30.5506223423
 20
-9.0523012832
 10
30.7213494755
 20
-8.8756136553
 10
30.8960017696
 20
-8.6992805178
 10
31.0741141901
 20
-8.5237672931
 10
31.2552405846
 20
-8.3495222034
 10
31.4388871842
 20
-8.1770417233
 10
31.624510238
 20
-8.0068689989
 10
31.8115656284
 20
-7.8395462938
  0
LWPOLYLINE
  5
5D5
100
AcDbEntity
  8
0
100
AcDbPolyline
 62
250
  6
CONTINUOUS
 90
10
 70
0
 10
31.8114057921
 20
-7.8395757096
 10
31.991489471
 20
-7.6822393513
 10
32.1722013583
 20
-7.5280379298
 10
32.3540542315
 20
-7.3768749243
 10
32.5379931966
 20
-7.2283144582
 10
32.7241330365
 20
-7.0826255759
 10
32.9117144798
 20
-6.9407351457
 10
33.1007863064
 20
-6.802857377
 10
33.2922463148
 20
-6.6685348413
 10
33.4865468807
 20
-6.5376210161
  0
LWPOLYLINE
  5
5D6
100
AcDbEntity
  8
0
100
AcDbPolyline
 62
250
  6
CONTINUOUS
 90
10
 70
0
 10
36.0924415551
 20
-9.9139072486
 10
36.2859843445
 20
-9.8023516364
 10
36.4792193734
 20
-9.6892640282
 10
36.6721773829
 20
-9.5745881802
 10
36.8648890966
 20
-9.4582678756
 10
37.0573811834
 20
-9.3402548187
 10
37.2495875433
 20
-9.2206817423
 10
37.4413501732
 20
-9.0998602761
 10
37.6326323982
 20
-8.977782237
 10
37.823672512
 20
-8.8537206519
  0
LWPOLYLINE
  5
5D7
100
AcDbEntity
  8
0
100
AcDbPolyline
 62
250
  6
CONTINUOUS
 90
10
 70
0
 10
36.2297926115
 20
-11.2911281741
 10
36.4104684131
 20
-11.1925485535
 10
36.5897199481
 20
-11.0923064936
 10
36.7677709344
 20
-10.9902884517
 10
36.9448448135
 20
-10.8863812919
 10
37.1211713994
 20
-10.7804680125
 10
37.2969839283
 20
-10.6724199919
 10
37.4725100079
 20
-10.5621019522
 10
37.6479746523
 20
-10.4493798921
 10
37.8236071148
 20
-10.334117336
  0
LWPOLYLINE
  5
5D8
100
AcDbEntity
  8
0
100
AcDbPolyline
 62
250
  6
CONTINUOUS
 90
9
 70
0
 10
36.2297931287
 20
-11.2911408135
 10
36.0102315051
 20
-11.4078991789
 10
35.7913974827
 20
-11.5204295606
 10
35.5731377361
 20
-11.6285751307
 10
35.3552159959
 20
-11.732235176
 10
35.1375905994
 20
-11.8312314994
 10
34.9204205335
 20
-11.9253172696
 10
34.7036864941
 20
-12.0143270788
 10
34.4871903403
 20
-12.098198991
  0
LINE
  5
5D9
100
AcDbEntity
  8
0
100
AcDbLine
 62
7
  6
CONTINUOUS
 10
20.7223721429
 20
-21.5888127625
 11
19.9072515617
 21
-22.012579289
  0
LINE
  5
5DA
100
AcDbEntity
  8
0
100
AcDbLine
 62
250
  6
CONTINUOUS
 10
-39.3035733087
 20
37.894959518
 11
-39.210537533
 21
37.874923426
  0
LWPOLYLINE
  5
5DB
100
AcDbEntity
  8
0
100
AcDbPolyline
 62
250
  6
CONTINUOUS
 90
8
 70
0
 10
33.9281884032
 20
-10.5516939829
 10
33.8506880645
 20
-10.3510381565
 10
33.7665819223
 20
-10.1555686596
 10
33.6760162015
 20
-9.965319702
 10
33.5782463879
 20
-9.7788506755
 10
33.4730848784
 20
-9.5962578081
 10
33.3615815453
 20
-9.4191750636
 10
33.2445669862
 20
-9.2482181156
  0
LWPOLYLINE
  5
5DC
100
AcDbEntity
  8
0
100
AcDbPolyline
 62
250
  6
CONTINUOUS
 90
3
 70
0
 10
34.0614598022
 20
-10.9645408355
 10
33.9985670193
 20
-10.7565697792
 10
33.9281884032
 20
-10.5516939829
  0
LWPOLYLINE
  5
5DD
100
AcDbEntity
  8
0
100
AcDbPolyline
 62
250
  6
CONTINUOUS
 90
10
 70
0
 10
34.0614515314
 20
-10.9645115657
 10
34.0974196975
 20
-11.0975726164
 10
34.1302943067
 20
-11.2313068562
 10
34.1600392522
 20
-11.3656299909
 10
34.1866205547
 20
-11.5004573574
 10
34.2099906043
 20
-11.63561238
 10
34.2301287789
 20
-11.7709655298
 10
34.2470049215
 20
-11.9063855399
 10
34.2605897411
 20
-12.0417350796
 10
34.2708412303
 20
-12.1768521697
  0
LINE
  5
5DE
100
AcDbEntity
  8
0
100
AcDbLine
 62
7
  6
CONTINUOUS
 10
32.0222518767
 20
-11.2339692557
 11
32.0660619805
 21
-11.3990071166
  0
LINE
  5
5DF
100
AcDbEntity
  8
0
100
AcDbLine
 62
7
  6
CONTINUOUS
 10
32.0660619805
 20
-11.3990071166
 11
32.0961458247
 21
-11.5622314062
  0
LWPOLYLINE
  5
5E0
100
AcDbEntity
  8
0
100
AcDbPolyline
 62
250
  6
CONTINUOUS
 90
10
 70
0
 10
30.9814707164
 20
-30.8263830788
 10
30.9725569677
 20
-30.7545578942
 10
30.9577526452
 20
-30.6842867262
 10
30.9370579899
 20
-30.6158747057
 10
30.9103841497
 20
-30.5494707253
 10
30.8778120948
 20
-30.4855890641
 10
30.8396881235
 20
-30.4250133229
 10
30.7962305815
 20
-30.3681349851
 10
30.7474344458
 20
-30.3150497014
 10
30.6933970561
 20
-30.2660112219
  0
LWPOLYLINE
  5
5E1
100
AcDbEntity
  8
RACCORDO
100
AcDbPolyline
 62
7
  6
CONTINUOUS
 90
6
 70
0
 10
30.8164436154
 20
-27.2614472141
 10
30.8156972151
 20
-27.2550235924
 10
30.8125698002
 20
-27.2455641326
 10
30.8067762647
 20
-27.2368165375
 10
30.7983044342
 20
-27.2285123696
 10
30.7871543088
 20
-27.2206516287
  0
LINE
  5
5E2
100
AcDbEntity
  8
0
100
AcDbLine
 62
7
  6
CONTINUOUS
 10
32.0961458247
 20
-11.5622314062
 11
32.1120294891
 21
-11.721475179
  0
LWPOLYLINE
  5
5E3
100
AcDbEntity
  8
0
100
AcDbPolyline
 62
7
  6
CONTINUOUS
 90
6
 70
0
 10
31.3859475254
 20
-11.7392473308
 10
31.3749637654
 20
-11.6002421677
 10
31.3439234781
 20
-11.4494829561
 10
31.2934568119
 20
-11.2933088174
 10
31.2232390168
 20
-11.1371116209
 10
31.1358517934
 20
-10.9861317302
  0
LWPOLYLINE
  5
5E4
100
AcDbEntity
  8
0
100
AcDbPolyline
 62
7
  6
CONTINUOUS
 90
10
 70
0
 10
32.1118462634
 20
-11.721388167
 10
32.1123432498
 20
-11.730766876
 10
32.1127890415
 20
-11.7401340876
 10
32.1131836959
 20
-11.7494900476
 10
32.1135272552
 20
-11.7588345223
 10
32.1138197891
 20
-11.7681682067
 10
32.1140610974
 20
-11.777491839
 10
32.1142506392
 20
-11.7868042417
 10
32.1143878352
 20
-11.7961032243
 10
32.1144721168
 20
-11.8053870652
  0
LINE
  5
5E5
100
AcDbEntity
  8
0
100
AcDbLine
 62
250
  6
CONTINUOUS
 10
34.3169783103
 20
-13.1735363835
 11
34.2708412346
 21
-12.1768521785
  0
LINE
  5
5E6
100
AcDbEntity
  8
0
100
AcDbLine
 62
250
  6
CONTINUOUS
 10
34.3597587315
 20
-14.1958155299
 11
34.3169783103
 21
-13.1735363835
  0
LWPOLYLINE
  5
5E7
100
AcDbEntity
  8
0
100
AcDbPolyline
 62
250
  6
CONTINUOUS
 90
3
 70
0
 10
34.4312471419
 20
-16.3152784749
 10
34.397649355
 20
-15.2433313346
 10
34.3597587315
 20
-14.1958155299
  0
LINE
  5
5E8
100
AcDbEntity
  8
RACCORDO
100
AcDbLine
 62
250
  6
CONTINUOUS
 10
30.7907581132
 20
-27.6108428466
 11
30.7907581132
 21
-27.3001138506
  0
LINE
  5
5E9
100
AcDbEntity
  8
RACCORDO
100
AcDbLine
 62
7
  6
CONTINUOUS
 10
30.8164436307
 20
-27.5621907441
 11
30.8164436307
 21
-27.261479088
  0
LINE
  5
5EA
100
AcDbEntity
  8
0
100
AcDbLine
 62
250
  6
CONTINUOUS
 10
31.3863820844
 20
-11.7389820545
 11
31.3863617739
 21
-29.8660691376
  0
LINE
  5
5EB
100
AcDbEntity
  8
0
100
AcDbLine
 62
7
  6
CONTINUOUS
 10
30.9471393963
 20
-11.4502808241
 11
30.9464931959
 21
-29.5778787261
  0
LINE
  5
5EC
100
AcDbEntity
  8
0
100
AcDbLine
 62
7
  6
CONTINUOUS
 10
32.1145791254
 20
-30.181371456
 11
32.1144355607
 21
-11.8053528328
  0
LWPOLYLINE
  5
5ED
100
AcDbEntity
  8
0
100
AcDbPolyline
 62
7
  6
CONTINUOUS
 90
3
 70
0
 10
30.9471328185
 20
-29.5765225749
 10
30.9467351117
 20
-29.5955974782
 10
30.9463378064
 20
-29.6017452318
  0
LWPOLYLINE
  5
5EE
100
AcDbEntity
  8
0
100
AcDbPolyline
 62
7
  6
CONTINUOUS
 90
9
 70
0
 10
32.1121021712
 20
-30.2533221874
 10
32.1126317844
 20
-30.2444038744
 10
32.1131037536
 20
-30.2354660807
 10
32.1135154181
 20
-30.2265077475
 10
32.1138641586
 20
-30.2175278887
 10
32.1141474057
 20
-30.208525431
 10
32.1143626348
 20
-30.1994992115
 10
32.1145073578
 20
-30.1904481908
 10
32.1145791254
 20
-30.181371456
  0
LINE
  5
5EF
100
AcDbEntity
  8
0
100
AcDbLine
 62
7
  6
CONTINUOUS
 10
31.3859475139
 20
-29.8662073649
 11
31.3747281318
 21
-29.9939599677
  0
LINE
  5
5F0
100
AcDbEntity
  8
0
100
AcDbLine
 62
250
  6
CONTINUOUS
 10
30.9814707164
 20
-9.8428543299
 11
30.9725569677
 21
-9.9191172703
  0
LWPOLYLINE
  5
5F1
100
AcDbEntity
  8
0
100
AcDbPolyline
 62
250
  6
CONTINUOUS
 90
3
 70
0
 10
30.9725569677
 20
-9.9191172703
 10
30.9577526452
 20
-9.9967641997
 10
30.9370579899
 20
-10.075489709
  0
LWPOLYLINE
  5
5F2
100
AcDbEntity
  8
0
100
AcDbPolyline
 62
250
  6
CONTINUOUS
 90
7
 70
0
 10
30.9370579899
 20
-10.075489709
 10
30.9103841497
 20
-10.1551494159
 10
30.8778120948
 20
-10.2352336333
 10
30.8396881235
 20
-10.3148531468
 10
30.7962305815
 20
-10.3934624268
 10
30.7474344458
 20
-10.470873529
 10
30.6933970561
 20
-10.5467202976
  0
LWPOLYLINE
  5
5F3
100
AcDbEntity
  8
0
100
AcDbPolyline
 62
250
  6
CONTINUOUS
 90
7
 70
0
 10
30.6933000136
 20
-10.5466894908
 10
30.649379241
 20
-10.6593110295
 10
30.6256388994
 20
-10.7681880445
 10
30.6226794587
 20
-10.8683543044
 10
30.6404995909
 20
-10.9555218038
 10
30.6783382105
 20
-11.0238567761
 10
30.7251771195
 20
-11.0638143326
  0
LWPOLYLINE
  5
5F4
100
AcDbEntity
  8
RACCORDO
100
AcDbPolyline
 62
7
  6
CONTINUOUS
 90
6
 70
0
 10
22.8358068249
 20
-23.0177536717
 10
22.8461260983
 20
-23.0088645835
 10
22.8539414457
 20
-22.9983357608
 10
22.8590567622
 20
-22.9864303672
 10
22.8613574202
 20
-22.9733123083
 10
22.861492342
 20
-22.9690854779
  0
LWPOLYLINE
  5
5F5
100
AcDbEntity
  8
RACCORDO
100
AcDbPolyline
 62
7
  6
CONTINUOUS
 90
6
 70
0
 10
22.8358068249
 20
-22.8090834603
 10
22.8462291507
 20
-22.8008965564
 10
22.8539366587
 20
-22.7923477662
 10
22.8589293488
 20
-22.7834370896
 10
22.8611950467
 20
-22.773896089
 10
22.8614923271
 20
-22.7704168237
  0
LWPOLYLINE
  5
5F6
100
AcDbEntity
  8
0
100
AcDbPolyline
 62
250
  6
CONTINUOUS
 90
10
 70
0
 10
23.0951967783
 20
-24.910195487
 10
23.0081903211
 20
-24.9747992227
 10
22.9286600972
 20
-25.0586059461
 10
22.8601131769
 20
-25.1570780087
 10
22.8054442065
 20
-25.2655430766
 10
22.7682067948
 20
-25.3773683336
 10
22.7510023464
 20
-25.4843303835
 10
22.7543862201
 20
-25.5800636075
 10
22.7782878034
 20
-25.6602841174
 10
22.8219741205
 20
-25.720964097
  0
LINE
  5
5F7
100
AcDbEntity
  8
0
100
AcDbLine
 62
7
  6
CONTINUOUS
 10
22.8358068249
 20
-22.8090834603
 11
22.1018689569
 21
-23.279723868
  0
LINE
  5
5F8
100
AcDbEntity
  8
0
100
AcDbLine
 62
7
  6
CONTINUOUS
 10
22.8323000599
 20
-23.0197784554
 11
22.2419828358
 21
-23.3606238656
  0
LWPOLYLINE
  5
5F9
100
AcDbEntity
  8
0
100
AcDbPolyline
 62
7
  6
CONTINUOUS
 90
6
 70
0
 10
-35.6568097972
 20
28.4836754569
 10
-35.7670640363
 20
28.4710124157
 10
-35.8692489481
 20
28.439595587
 10
-35.9619269192
 20
28.3898796727
 10
-36.0437003135
 20
28.3226893048
 10
-36.1135605108
 20
28.2389487792
  0
LWPOLYLINE
  5
5FA
100
AcDbEntity
  8
0
100
AcDbPolyline
 62
250
  6
CONTINUOUS
 90
10
 70
0
 10
-38.1354002424
 20
34.4086751501
 10
-38.0717276879
 20
34.4069957538
 10
-38.0064000859
 20
34.4022693438
 10
-37.9395960981
 20
34.3947495024
 10
-37.8715975264
 20
34.3846846596
 10
-37.8025227627
 20
34.3722431626
 10
-37.7323303372
 20
34.3574544937
 10
-37.6610307381
 20
34.3403588705
 10
-37.5886805015
 20
34.3210188701
 10
-37.5153175446
 20
34.2994936681
  0
LWPOLYLINE
  5
5FB
100
AcDbEntity
  8
0
100
AcDbPolyline
 62
250
  6
CONTINUOUS
 90
10
 70
0
 10
36.0924415467
 20
-9.9139072023
 10
36.1183264466
 20
-10.0661473589
 10
36.1408773289
 20
-10.2185108447
 10
36.1603832468
 20
-10.3711010095
 10
36.1771186977
 20
-10.5238469979
 10
36.1914155018
 20
-10.6767708267
 10
36.2036198972
 20
-10.829916355
 10
36.2140300435
 20
-10.983330723
 10
36.2227343247
 20
-11.1370553104
 10
36.2297926115
 20
-11.2911281741
  0
LWPOLYLINE
  5
5FC
100
AcDbEntity
  8
0
100
AcDbPolyline
 62
250
  6
CONTINUOUS
 90
5
 70
0
 10
37.823278107
 20
-8.2889648114
 10
37.8240762626
 20
-8.3162922033
 10
37.8244011793
 20
-8.3297941624
 10
37.824639098
 20
-8.3433031415
 10
37.8247551676
 20
-8.3568757727
  0
LINE
  5
5FD
100
AcDbEntity
  8
0
100
AcDbLine
 62
250
  6
CONTINUOUS
 10
36.2297927611
 20
-11.2911317796
 11
36.2601776819
 21
-12.4647625861
  0
LINE
  5
5FE
100
AcDbEntity
  8
0
100
AcDbLine
 62
250
  6
CONTINUOUS
 10
36.2601776819
 20
-12.4647625861
 11
36.2863418966
 21
-13.6621758697
  0
LWPOLYLINE
  5
5FF
100
AcDbEntity
  8
0
100
AcDbPolyline
 62
250
  6
CONTINUOUS
 90
8
 70
0
 10
36.2863418966
 20
-13.6621758697
 10
36.309444893
 20
-14.8837439125
 10
36.3297406908
 20
-16.1291005231
 10
36.3468488654
 20
-17.3986056199
 10
36.3605917769
 20
-18.6938352577
 10
36.3707279009
 20
-20.0151935415
 10
36.3769953743
 20
-21.3619557944
 10
36.3791295976
 20
-22.7339732807
  0
LWPOLYLINE
  5
600
100
AcDbEntity
  8
0
100
AcDbPolyline
 62
250
  6
CONTINUOUS
 90
5
 70
0
 10
37.8232120882
 20
-38.0791763513
 10
37.8230035348
 20
-38.065386927
 10
37.822921351
 20
-38.0517120148
 10
37.8229578602
 20
-38.0381156807
 10
37.8231234416
 20
-38.0245419473
  0
LINE
  5
601
100
AcDbEntity
  8
0
100
AcDbLine
 62
250
  6
CONTINUOUS
 10
37.8240231635
 20
-38.2410208742
 11
37.8234055678
 21
-38.0793690687
  0
LWPOLYLINE
  5
602
100
AcDbEntity
  8
0
100
AcDbPolyline
 62
250
  6
CONTINUOUS
 90
5
 70
0
 10
37.8236548352
 20
-23.1566621841
 10
37.8282336231
 20
-24.6151373875
 10
37.8306179052
 20
-26.066553963
 10
37.8314639645
 20
-27.5106368882
 10
37.831030914
 20
-28.9463195396
  0
LWPOLYLINE
  5
603
100
AcDbEntity
  8
0
100
AcDbPolyline
 62
250
  6
CONTINUOUS
 90
6
 70
0
 10
34.5143821522
 20
-22.0655585003
 10
34.5107434545
 20
-20.8629866984
 10
34.4999962634
 20
-19.6861670291
 10
34.4828176275
 20
-18.5354900321
 10
34.459728755
 20
-17.4120023384
 10
34.4312471419
 20
-16.3152784749
  0
LINE
  5
604
100
AcDbEntity
  8
0
100
AcDbLine
 62
250
  6
CONTINUOUS
 10
34.512126118
 20
-23.004554642
 11
34.5143821522
 21
-22.0655585003
  0
LWPOLYLINE
  5
605
100
AcDbEntity
  8
0
100
AcDbPolyline
 62
250
  6
CONTINUOUS
 90
3
 70
0
 10
34.4950683587
 20
-24.8022164851
 10
34.5055753358
 20
-23.9167121489
 10
34.512126118
 20
-23.004554642
  0
LINE
  5
606
100
AcDbEntity
  8
0
100
AcDbLine
 62
250
  6
CONTINUOUS
 10
34.4809518412
 20
-25.6605636129
 11
34.4950683587
 21
-24.8022164851
  0
LWPOLYLINE
  5
607
100
AcDbEntity
  8
0
100
AcDbPolyline
 62
250
  6
CONTINUOUS
 90
7
 70
0
 10
36.309478613
 20
-30.5038277589
 10
36.3297319036
 20
-29.2818631087
 10
36.34682984
 20
-28.0320967444
 10
36.36058005
 20
-26.7527355501
 10
36.3707180629
 20
-25.443073179
 10
36.3769809925
 20
-24.1035301214
 10
36.3791234244
 20
-22.733971301
  0
LINE
  5
608
100
AcDbEntity
  8
0
100
AcDbLine
 62
250
  6
CONTINUOUS
 10
36.2863795019
 20
-31.6987156882
 11
36.309478613
 21
-30.5038277589
  0
LWPOLYLINE
  5
609
100
AcDbEntity
  8
0
100
AcDbPolyline
 62
250
  6
CONTINUOUS
 90
3
 70
0
 10
36.2297970477
 20
-34.0043531836
 10
36.2600805683
 20
-32.8657670155
 10
36.2863795019
 20
-31.6987156882
  0
LWPOLYLINE
  5
60A
100
AcDbEntity
  8
0
100
AcDbPolyline
 62
250
  6
CONTINUOUS
 90
7
 70
0
 10
34.336676009
 20
-30.3020384401
 10
34.3666490138
 20
-29.5841685445
 10
34.3943654008
 20
-28.8452815246
 10
34.4200905178
 20
-28.0848934028
 10
34.443231741
 20
-27.3007055051
 10
34.4635789894
 20
-26.4926453223
 10
34.4809518412
 20
-25.6605636129
  0
LINE
  5
60B
100
AcDbEntity
  8
0
100
AcDbLine
 62
250
  6
CONTINUOUS
 10
34.304693061
 20
-30.9982176577
 11
34.336676009
 21
-30.3020384401
  0
LINE
  5
60C
100
AcDbEntity
  8
0
100
AcDbLine
 62
250
  6
CONTINUOUS
 10
34.2708412533
 20
-31.6730549601
 11
34.304693061
 21
-30.9982176577
  0
LINE
  5
60D
100
AcDbEntity
  8
0
100
AcDbLine
 62
250
  6
CONTINUOUS
 10
30.641287155
 20
-29.9223338563
 11
30.6235630624
 21
-30.0294291996
  0
LINE
  5
60E
100
AcDbEntity
  8
DRAFT
100
AcDbLine
 62
7
  6
CONTINUOUS
 10
27.9292640969
 20
-26.5299810142
 11
27.9850764477
 21
-26.4397299063
  0
LINE
  5
60F
100
AcDbEntity
  8
RACCORDO
100
AcDbLine
 62
7
  6
CONTINUOUS
 10
28.6773234312
 20
-26.0798431528
 11
28.5431999557
 21
-26.1495715349
  0
LINE
  5
610
100
AcDbEntity
  8
DRAFT
100
AcDbLine
 62
7
  6
CONTINUOUS
 10
28.2455340848
 20
-26.3043226663
 11
28.1711176171
 21
-26.3430104492
  0
LINE
  5
611
100
AcDbEntity
  8
DRAFT
100
AcDbLine
 62
7
  6
CONTINUOUS
 10
28.4315752541
 20
-26.2076032092
 11
28.3571587864
 21
-26.2462909921
  0
LINE
  5
612
100
AcDbEntity
  8
DRAFT
100
AcDbLine
 62
7
  6
CONTINUOUS
 10
28.0594929155
 20
-26.4010421235
 11
27.9850764477
 21
-26.4397299063
  0
LINE
  5
613
100
AcDbEntity
  8
DRAFT
100
AcDbLine
 62
7
  6
CONTINUOUS
 10
27.8734517461
 20
-26.4977615806
 11
27.7990352784
 21
-26.5364493635
  0
LINE
  5
614
100
AcDbEntity
  8
0
100
AcDbLine
 62
7
  6
CONTINUOUS
 10
39.3254333109
 20
-24.047146491
 11
40.0715844385
 21
-23.7328475072
  0
LINE
  5
615
100
AcDbEntity
  8
0
100
AcDbLine
 62
250
  6
CONTINUOUS
 10
-39.3964289366
 20
37.9024760711
 11
-39.3035733087
 21
37.894959518
  0
LWPOLYLINE
  5
616
100
AcDbEntity
  8
0
100
AcDbPolyline
 62
7
  6
CONTINUOUS
 90
10
 70
0
 10
40.0715844385
 20
-7.1279557333
 10
40.0515662038
 20
-6.8940529677
 10
40.004200203
 20
-6.6625902199
 10
39.9294864361
 20
-6.4335674898
 10
39.8235722639
 20
-6.2003113542
 10
39.6903103256
 20
-5.9694952364
 10
39.5412585384
 20
-5.7611394061
 10
39.3802695414
 20
-5.5819172864
 10
39.2034906955
 20
-5.4251554542
 10
39.0109220008
 20
-5.2908539095
  0
LWPOLYLINE
  5
617
100
AcDbEntity
  8
0
100
AcDbPolyline
 62
250
  6
CONTINUOUS
 90
10
 70
0
 10
38.3721842009
 20
-8.0064898173
 10
38.3599603163
 20
-7.8220429271
 10
38.3236295458
 20
-7.6282358488
 10
38.2641452034
 20
-7.4299499056
 10
38.1827875369
 20
-7.2316263365
 10
38.0817746566
 20
-7.0387994505
 10
37.9647154664
 20
-6.8577582733
 10
37.8352930105
 20
-6.6930925002
 10
37.6966571359
 20
-6.5478301467
 10
37.5523333919
 20
-6.4248888027
  0
LWPOLYLINE
  5
618
100
AcDbEntity
  8
0
100
AcDbPolyline
 62
250
  6
CONTINUOUS
 90
5
 70
0
 10
37.8225091035
 20
-8.233633091
 10
37.8225971863
 20
-8.2476160913
 10
37.8227446749
 20
-8.2614671876
 10
37.8229617924
 20
-8.2752205339
 10
37.823278107
 20
-8.2889648114
  0
LINE
  5
619
100
AcDbEntity
  8
0
100
AcDbLine
 62
250
  6
CONTINUOUS
 10
37.8280482931
 20
-15.9343583524
 11
37.8242976295
 21
-11.717915762
  0
LINE
  5
61A
100
AcDbEntity
  8
0
100
AcDbLine
 62
250
  6
CONTINUOUS
 10
38.3721865722
 20
-38.2169677014
 11
38.3721839311
 21
-8.0064899523
  0
LINE
  5
61B
100
AcDbEntity
  8
0
100
AcDbLine
 62
7
  6
CONTINUOUS
 10
39.3254333109
 20
-21.1895005222
 11
39.3254333109
 21
-24.047146491
  0
LINE
  5
61C
100
AcDbEntity
  8
0
100
AcDbLine
 62
7
  6
CONTINUOUS
 10
40.0715844385
 20
-7.1279665861
 11
40.0715844385
 21
-20.7323377518
  0
LINE
  5
61D
100
AcDbEntity
  8
0
100
AcDbLine
 62
7
  6
CONTINUOUS
 10
40.0715844385
 20
-23.7328475072
 11
40.0715844385
 21
-37.337218673
  0
LINE
  5
61E
100
AcDbEntity
  8
0
100
AcDbLine
 62
250
  6
CONTINUOUS
 10
37.8242976295
 20
-11.717915762
 11
37.8236632326
 21
-8.8528373413
  0
LINE
  5
61F
100
AcDbEntity
  8
0
100
AcDbLine
 62
250
  6
CONTINUOUS
 10
37.8246626081
 20
-34.5938883664
 11
37.8238446042
 21
-37.95527804
  0
LINE
  5
620
100
AcDbEntity
  8
0
100
AcDbLine
 62
250
  6
CONTINUOUS
 10
37.8236632326
 20
-8.8528373413
 11
37.8238010882
 21
-8.3578714725
  0
LINE
  5
621
100
AcDbEntity
  8
0
100
AcDbLine
 62
250
  6
CONTINUOUS
 10
37.831030914
 20
-28.9463195396
 11
37.8246626081
 21
-34.5938883664
  0
LWPOLYLINE
  5
622
100
AcDbEntity
  8
0
100
AcDbPolyline
 62
250
  6
CONTINUOUS
 90
5
 70
0
 10
37.8236597868
 20
-23.1566777747
 10
37.8269620598
 20
-21.6947405372
 10
37.8287409613
 20
-20.241073545
 10
37.8293137037
 20
-18.7961502087
 10
37.8280482931
 20
-15.9343583524
  0
LWPOLYLINE
  5
623
100
AcDbEntity
  8
0
100
AcDbPolyline
 62
250
  6
CONTINUOUS
 90
3
 70
0
 10
37.8231234416
 20
-38.0245419473
 10
37.8243400231
 20
-37.9701285309
 10
37.8246735031
 20
-37.956323903
  0
LINE
  5
624
100
AcDbEntity
  8
0
100
AcDbLine
 62
250
  6
CONTINUOUS
 10
37.8141276675
 20
-38.3946422617
 11
37.8240231635
 21
-38.2410208742
  0
LWPOLYLINE
  5
625
100
AcDbEntity
  8
0
100
AcDbPolyline
 62
250
  6
CONTINUOUS
 90
7
 70
0
 10
38.3721832221
 20
-38.2157416573
 10
38.359954239
 20
-38.3861290205
 10
38.3235746393
 20
-38.5381057122
 10
38.26396013
 20
-38.6678465053
 10
38.1822801335
 20
-38.7724129643
 10
38.0807794663
 20
-38.8486427913
 10
38.0602542899
 20
-38.8593613807
  0
LINE
  5
626
100
AcDbEntity
  8
0
100
AcDbLine
 62
7
  6
CONTINUOUS
 10
31.3747281318
 20
-29.9939599677
 11
31.3439419284
 21
-30.1101845445
  0
LINE
  5
627
100
AcDbEntity
  8
DRAFT
100
AcDbLine
 62
7
  6
CONTINUOUS
 10
30.1172024632
 20
-27.7932692056
 11
30.1674561296
 21
-27.699808583
  0
LINE
  5
628
100
AcDbEntity
  8
DRAFT
100
AcDbLine
 62
7
  6
CONTINUOUS
 10
30.2847146845
 20
-27.6858513661
 11
30.3349683509
 21
-27.5923907435
  0
LINE
  5
629
100
AcDbEntity
  8
DRAFT
100
AcDbLine
 62
7
  6
CONTINUOUS
 10
30.4522269058
 20
-27.5784335266
 11
30.5024805721
 21
-27.484972904
  0
LINE
  5
62A
100
AcDbEntity
  8
DRAFT
100
AcDbLine
 62
7
  6
CONTINUOUS
 10
30.619739127
 20
-27.471015687
 11
30.6699927934
 21
-27.3775550644
  0
LINE
  5
62B
100
AcDbEntity
  8
DRAFT
100
AcDbLine
 62
7
  6
CONTINUOUS
 10
28.1153052663
 20
-26.4332615571
 11
28.1711176171
 21
-26.3430104492
  0
LINE
  5
62C
100
AcDbEntity
  8
DRAFT
100
AcDbLine
 62
7
  6
CONTINUOUS
 10
28.3013464356
 20
-26.3365421
 11
28.3571587864
 21
-26.2462909921
  0
LINE
  5
62D
100
AcDbEntity
  8
DRAFT
100
AcDbLine
 62
7
  6
CONTINUOUS
 10
28.4873876049
 20
-26.2398226428
 11
28.5431999557
 21
-26.1495715349
  0
LWPOLYLINE
  5
62E
100
AcDbEntity
  8
RACCORDO
100
AcDbPolyline
 62
7
  6
CONTINUOUS
 90
6
 70
0
 10
30.7907581132
 20
-27.6108428466
 10
30.8010773866
 20
-27.6019537584
 10
30.8088927341
 20
-27.5914249358
 10
30.8140080505
 20
-27.5795195422
 10
30.8163087086
 20
-27.5664014832
 10
30.8164436304
 20
-27.5621746528
  0
LWPOLYLINE
  5
62F
100
AcDbEntity
  8
RACCORDO
100
AcDbPolyline
 62
7
  6
CONTINUOUS
 90
6
 70
0
 10
30.7907581132
 20
-27.3001138506
 10
30.801180439
 20
-27.2919269467
 10
30.808887947
 20
-27.2833781565
 10
30.8138806371
 20
-27.27446748
 10
30.8161463351
 20
-27.2649264794
 10
30.8164436154
 20
-27.2614472141
  0
LINE
  5
630
100
AcDbEntity
  8
RACCORDO
100
AcDbLine
 62
7
  6
CONTINUOUS
 10
30.7907581132
 20
-27.3001138506
 11
30.6699927934
 21
-27.3775550644
  0
LINE
  5
631
100
AcDbEntity
  8
DRAFT
100
AcDbLine
 62
7
  6
CONTINUOUS
 10
30.5694854606
 20
-27.4420057681
 11
30.5024805721
 21
-27.484972904
  0
LINE
  5
632
100
AcDbEntity
  8
DRAFT
100
AcDbLine
 62
7
  6
CONTINUOUS
 10
30.4019732394
 20
-27.5494236077
 11
30.3349683509
 21
-27.5923907435
  0
LINE
  5
633
100
AcDbEntity
  8
DRAFT
100
AcDbLine
 62
7
  6
CONTINUOUS
 10
30.2344610181
 20
-27.6568414472
 11
30.1674561296
 21
-27.699808583
  0
LINE
  5
634
100
AcDbEntity
  8
DRAFT
100
AcDbLine
 62
7
  6
CONTINUOUS
 10
30.0669487968
 20
-27.7642592867
 11
29.9999439083
 21
-27.8072264225
  0
LINE
  5
635
100
AcDbEntity
  8
0
100
AcDbLine
 62
7
  6
CONTINUOUS
 10
40.0715844385
 20
-20.7323377518
 11
39.3254333109
 21
-21.1895005222
  0
LINE
  5
636
100
AcDbEntity
  8
0
100
AcDbLine
 62
7
  6
CONTINUOUS
 10
30.7872513483
 20
-27.6128676304
 11
30.1969341241
 21
-27.9537130406
  0
LINE
  5
637
100
AcDbEntity
  8
RACCORDO
100
AcDbLine
 62
7
  6
CONTINUOUS
 10
30.7872513483
 20
-27.6128676304
 11
30.6978969986
 21
-27.6644497404
  0
LWPOLYLINE
  5
638
100
AcDbEntity
  8
0
100
AcDbPolyline
 62
250
  6
CONTINUOUS
 90
10
 70
0
 10
-36.8577790454
 20
31.2280035456
 10
-36.8079941823
 20
31.239268988
 10
-36.757043897
 20
31.2485861466
 10
-36.7049033113
 20
31.2559563453
 10
-36.6515521009
 20
31.2613734783
 10
-36.5970209275
 20
31.2648288176
 10
-36.5413790876
 20
31.2663139392
 10
-36.4846601128
 20
31.2658274467
 10
-36.4268778257
 20
31.2633713928
 10
-36.3680584998
 20
31.2589480181
  0
LWPOLYLINE
  5
639
100
AcDbEntity
  8
0
100
AcDbPolyline
 62
250
  6
CONTINUOUS
 90
10
 70
0
 10
36.0924416287
 20
-35.2229829183
 10
36.1183270211
 20
-35.1006358795
 10
36.1408782136
 20
-34.974315298
 10
36.1603832516
 20
-34.8442517761
 10
36.1771130382
 20
-34.71082885
 10
36.1914029821
 20
-34.5744048004
 10
36.203605082
 20
-34.4353383379
 10
36.2140207299
 20
-34.2939361136
 10
36.2227340845
 20
-34.1502740508
 10
36.2297968678
 20
-34.0043838224
  0
LWPOLYLINE
  5
63A
100
AcDbEntity
  8
0
100
AcDbPolyline
 62
250
  6
CONTINUOUS
 90
10
 70
0
 10
34.0614515325
 20
-32.6435845186
 10
34.0974192253
 20
-32.5520556963
 10
34.1302938613
 20
-32.4562821863
 10
34.1600382855
 20
-32.3563075428
 10
34.1866212081
 20
-32.2521770521
 10
34.2099969885
 20
-32.1440046417
 10
34.230138492
 20
-32.0318842662
 10
34.2470128086
 20
-31.9159278135
 10
34.2605928846
 20
-31.7962720864
 10
34.2708412557
 20
-31.6730549597
  0
LWPOLYLINE
  5
63B
100
AcDbEntity
  8
0
100
AcDbPolyline
 62
7
  6
CONTINUOUS
 90
8
 70
0
 10
31.3439419284
 20
-30.1101845445
 10
31.2934591867
 20
-30.2088547346
 10
31.2232369596
 20
-30.2845394359
 10
31.1358491242
 20
-30.3349860057
 10
31.0352100782
 20
-30.3576987112
 10
30.924890899
 20
-30.3519102491
 10
30.8092878165
 20
-30.3201893239
 10
30.6938152574
 20
-30.265754771
  0
LWPOLYLINE
  5
63C
100
AcDbEntity
  8
0
100
AcDbPolyline
 62
250
  6
CONTINUOUS
 90
6
 70
0
 10
30.9628903386
 20
-29.4530428907
 10
30.8766474977
 20
-29.518661691
 10
30.7990870898
 20
-29.6024392004
 10
30.7326880626
 20
-29.7004611505
 10
30.6789306194
 20
-29.8093796689
 10
30.641287155
 20
-29.9223338563
  0
LWPOLYLINE
  5
63D
100
AcDbEntity
  8
0
100
AcDbPolyline
 62
250
  6
CONTINUOUS
 90
10
 70
0
 10
33.2445684273
 20
-33.4165597537
 10
33.3614370086
 20
-33.3807821151
 10
33.4728531796
 20
-33.3325251397
 10
33.5779788407
 20
-33.2714306879
 10
33.6757652272
 20
-33.1979004968
 10
33.7663812439
 20
-33.1122368344
 10
33.850525647
 20
-33.0138750267
 10
33.9280978873
 20
-32.9026486968
 10
33.9985145429
 20
-32.7789947279
 10
34.0614504215
 20
-32.6435871712
  0
LWPOLYLINE
  5
63E
100
AcDbEntity
  8
0
100
AcDbPolyline
 62
250
  6
CONTINUOUS
 90
3
 70
0
 10
37.7183700952
 20
-38.6381294142
 10
37.7785021799
 20
-38.5288103871
 10
37.8141276675
 20
-38.3946422617
  0
LWPOLYLINE
  5
63F
100
AcDbEntity
  8
0
100
AcDbPolyline
 62
7
  6
CONTINUOUS
 90
6
 70
0
 10
39.7299169845
 20
-38.0375718007
 10
39.8235694825
 20
-37.9784712521
 10
39.929483691
 20
-37.8675210529
 10
40.0041978068
 20
-37.7247735179
 10
40.0515647226
 20
-37.5480047048
 10
40.0715844385
 20
-37.3372146135
  0
LINE
  5
640
100
AcDbEntity
  8
0
100
AcDbLine
 62
250
  6
CONTINUOUS
 10
40.0715844385
 20
-37.337218673
 11
38.3721839311
 21
-38.2157421673
  0
LINE
  5
641
100
AcDbEntity
  8
0
100
AcDbLine
 62
7
  6
CONTINUOUS
 10
39.7311091203
 20
-38.0397374036
 11
38.0602542899
 21
-38.8593613807
  0
LWPOLYLINE
  5
642
100
AcDbEntity
  8
0
100
AcDbPolyline
 62
250
  6
CONTINUOUS
 90
3
 70
0
 10
37.5317811873
 20
-38.7691273331
 10
37.6351949767
 20
-38.7193366412
 10
37.7183700952
 20
-38.6381294142
  0
LINE
  5
643
100
AcDbEntity
  8
0
100
AcDbLine
 62
7
  6
CONTINUOUS
 10
38.0602542899
 20
-38.8593613807
 11
38.0516935007
 21
-38.8634519614
  0
ENDSEC
  0
SECTION
  2
OBJECTS
  0
DICTIONARY
  5
C
100
AcDbDictionary
280
0
281
1
  3
ACAD_GROUP
350
D
  3
ACAD_MLINESTYLE
350
17
  3
ACAD_LAYOUT
350
1A
  3
ACAD_PLOTSETTINGS
350
19
  3
ACAD_PLOTSTYLENAME
350
E
  0
DICTIONARY
  5
D
102
{ACAD_REACTORS
330
C
102
}
100
AcDbDictionary
280
0
281
1
  0
ACDBDICTIONARYWDFLT
  5
E
102
{ACAD_REACTORS
330
C
102
}
100
AcDbDictionary
281
1
  3
Normal
350
F
100
AcDbDictionaryWithDefault
340
F
  0
DICTIONARY
  5
17
102
{ACAD_REACTORS
330
C
102
}
100
AcDbDictionary
280
0
281
1
  3
Standard
350
18
  0
DICTIONARY
  5
19
102
{ACAD_REACTORS
330
C
102
}
100
AcDbDictionary
281
1
  0
DICTIONARY
  5
1A
102
{ACAD_REACTORS
330
C
102
}
100
AcDbDictionary
281
1
  3
Model
350
644
  3
Layout1
350
645
  0
ACDBPLACEHOLDER
  5
F
102
{ACAD_REACTORS
330
E
102
}
  0
MLINESTYLE
  5
18
102
{ACAD_REACTORS
330
17
102
}
100
AcDbMlineStyle
  2
STANDARD
 70
0
  3

 62
256
 51
90.0
 52
90.0
 71
2
 49
0.5
 62
256
  6
BYLAYER
 49
-0.5
 62
256
  6
BYLAYER
  0
LAYOUT
  5
644
102
{ACAD_REACTORS
330
1A
102
}
100
AcDbPlotSettings
  1

  2
none_device
  4
ISO_A4_(297.00_x_210.00_MM)
  6

 40
0.0
 41
0.0
 42
0.0
 43
0.0
 44
297.0
 45
210.0
 46
0.0
 47
0.0
 48
0.0
 49
0.0
140
0.0
141
0.0
142
1.0
143
1.0
 70
1024
 72
1
 73
0
 74
0
  7

 75
0
147
1.0
148
0.0
149
0.0
100
AcDbLayout
  1
Model
 70
0
 71
0
 10
0.0
 20
0.0
 11
297.0
 21
210.0
 12
0.0
 22
0.0
 32
0.0
 14
0.0
 24
0.0
 34
0.0
 15
0.0
 25
0.0
 35
0.0
146
0.0
 13
0.0
 23
0.0
 33
0.0
 16
1.0
 26
0.0
 36
0.0
 17
0.0
 27
1.0
 37
0.0
 76
0
330
217
345
0
346
0
  0
LAYOUT
  5
645
102
{ACAD_REACTORS
330
1A
102
}
100
AcDbPlotSettings
  1

  2
none_device
  4
ISO_A4_(297.00_x_210.00_MM)
  6

 40
0.0
 41
0.0
 42
0.0
 43
0.0
 44
297.0
 45
210.0
 46
0.0
 47
0.0
 48
0.0
 49
0.0
140
0.0
141
0.0
142
1.0
143
1.0
 70
0
 72
1
 73
0
 74
0
  7

 75
0
147
1.0
148
0.0
149
0.0
100
AcDbLayout
  1
Layout1
 70
0
 71
1
 10
0.0
 20
0.0
 11
297.0
 21
210.0
 12
0.0
 22
0.0
 32
0.0
 14
0.0
 24
0.0
 34
0.0
 15
0.0
 25
0.0
 35
0.0
146
0.0
 13
0.0
 23
0.0
 33
0.0
 16
1.0
 26
0.0
 36
0.0
 17
0.0
 27
1.0
 37
0.0
 76
0
330
218
345
0
346
0
  0
ENDSEC
  0
EOF
