  0
SECTION
  2
HEADER
  9
$ACADVER
  1
AC1024
  9
$DWGCODEPAGE
  3
ANSI_1252
  9
$EXTMAX
 10
297.0
 20
210.0
 30
0.0
  9
$EXTMIN
 10
0.0
 20
0.0
 30
0.0
  9
$LIMMIN
 10
0.0
 20
0.0
  9
$LIMMAX
 10
297.0
 20
210.0
  9
$VIEWCTR
 10
148.5
 20
105.0
  9
$VIEWSIZE
 40
210.0
  9
$CLAYER
  8
0
  9
$LTSCALE
 40
16.335
  9
$CELTYPE
  6
BYLAYER
  9
$DIMSCALE
 40
1.0
  9
$DIMASZ
 40
3.0
  9
$DIMEXO
 40
0.5
  9
$DIMDLI
 40
11.286
  9
$DIMEXE
 40
1.5
  9
$DIMCEN
 40
2.673
  9
$DIMLFAC
 40
1.0
  9
$DIMBLK
  1
_FILLED
  9
$DIMALT
 70
0
  9
$DIMALTF
 40
0.0393700787
  9
$DIMTXT
 40
3.0
  9
$DIMTOL
 70
1
  9
$DIMLIM
 70
0
  9
$DIMTFAC
 40
1.0
  9
$DIMTP
 40
0.01
  9
$DIMTM
 40
0.01
  9
$DIMGAP
 40
0.625
  9
$DIMDSEP
 70
44
  9
$AUNITS
 70
0
  9
$PDMODE
 70
3
  9
$PDSIZE
 40
3.0
  9
$HANDSEED
  5
4F3
  9
$TILEMODE
 70
1
  9
$MEASUREMENT
 70
1
  9
$INSUNITS
 70
4
  0
ENDSEC
  0
SECTION
  2
CLASSES
  0
CLASS
  1
ACDBDICTIONARYWDFLT
  2
AcDbDictionaryWithDefault
  3
AutoCAD 2000
 90
0
 91
1
280
0
281
0
  0
CLASS
  1
ACDBPLACEHOLDER
  2
AcDbPlaceHolder
  3
AutoCAD 2000
 90
0
 91
1
280
0
281
0
  0
CLASS
  1
LAYOUT
  2
AcDbLayout
  3
AutoCAD 2000
 90
0
 91
0
280
0
281
0
  0
ENDSEC
  0
SECTION
  2
TABLES
  0
TABLE
  2
VPORT
  5
8
100
AcDbSymbolTable
 70
2
  0
VPORT
  5
1F4
100
AcDbSymbolTableRecord
100
AcDbViewportTableRecord
  2
*ACTIVE
 70
0
 10
0.0
 20
0.0
 11
1.0
 21
1.0
 12
148.5
 22
105.0
 13
0.0
 23
0.0
 14
1.0
 24
1.0
 15
0.0
 25
0.0
 16
0.0
 26
0.0
 36
1.0
 17
0.0
 27
0.0
 37
0.0
 40
210.0
 41
1.4142857143
 42
50.0
 43
0.0
 44
0.0
 50
0.0
 51
0.0
 71
0
 72
100
 73
1
 74
1
 75
0
 76
0
 77
0
 78
0
  0
ENDTAB
  0
TABLE
  2
LTYPE
  5
5
100
AcDbSymbolTable
 70
6
  0
LTYPE
  5
14
100
AcDbSymbolTableRecord
100
AcDbLinetypeTableRecord
  2
BYBLOCK
 70
0
  3

 72
65
 73
0
 40
0.0
  0
LTYPE
  5
15
100
AcDbSymbolTableRecord
100
AcDbLinetypeTableRecord
  2
BYLAYER
 70
0
  3

 72
65
 73
0
 40
0.0
  0
LTYPE
  5
16
100
AcDbSymbolTableRecord
100
AcDbLinetypeTableRecord
  2
CONTINUOUS
 70
64
  3
Solid line
 72
65
 73
0
 40
0.0
  0
LTYPE
  5
1F5
100
AcDbSymbolTableRecord
100
AcDbLinetypeTableRecord
  2
CENTER
 70
64
  3
____ _ ____ _ ____ _ ____ _ ____ _ ____ _ ____
 72
65
 73
4
 40
0.6
 49
0.375
 74
0
 49
-0.075
 74
0
 49
0.075
 74
0
 49
-0.075
 74
0
  0
LTYPE
  5
1F6
100
AcDbSymbolTableRecord
100
AcDbLinetypeTableRecord
  2
HIDDEN
 70
64
  3
- - - - - - - - - - - - - - - - - - - -
 72
65
 73
2
 40
0.2
 49
0.1
 74
0
 49
-0.1
 74
0
  0
LTYPE
  5
1F7
100
AcDbSymbolTableRecord
100
AcDbLinetypeTableRecord
  2
PHANTOM
 70
64
  3
_____ _ _ _____ _ _ _____ _ _ _____
 72
65
 73
6
 40
0.8
 49
0.45
 74
0
 49
-0.05
 74
0
 49
0.1
 74
0
 49
-0.05
 74
0
 49
0.1
 74
0
 49
-0.05
 74
0
  0
LTYPE
  5
1F8
100
AcDbSymbolTableRecord
100
AcDbLinetypeTableRecord
  2
DOT
 70
64
  3
. . . . . . . . . . . . . . . . . . . .
 72
65
 73
2
 40
0.2
 49
0.1
 74
0
 49
-0.1
 74
0
  0
LTYPE
  5
1F9
100
AcDbSymbolTableRecord
100
AcDbLinetypeTableRecord
  2
DASHED
 70
64
  3
- - - - - - - - - - - - - - - - - - - -
 72
65
 73
2
 40
0.2
 49
0.1
 74
0
 49
-0.1
 74
0
  0
ENDTAB
  0
TABLE
  2
LAYER
  5
2
100
AcDbSymbolTable
 70
36
  0
LAYER
  5
10
100
AcDbSymbolTableRecord
100
AcDbLayerTableRecord
  2
0
 70
0
 62
7
  6
CONTINUOUS
370
-3
390
F
  0
LAYER
  5
1FA
100
AcDbSymbolTableRecord
100
AcDbLayerTableRecord
  2
DEFAULT_1
 70
0
 62
7
  6
CENTER
370
-3
390
F
  0
LAYER
  5
1FB
100
AcDbSymbolTableRecord
100
AcDbLayerTableRecord
  2
DEFAULT_2
 70
0
 62
7
  6
HIDDEN
370
-3
390
F
  0
LAYER
  5
1FC
100
AcDbSymbolTableRecord
100
AcDbLayerTableRecord
  2
DEFAULT_3
 70
0
 62
7
  6
PHANTOM
370
-3
390
F
  0
LAYER
  5
1FD
100
AcDbSymbolTableRecord
100
AcDbLayerTableRecord
  2
ALTRI_PIANI
 70
0
 62
7
  6
CONTINUOUS
370
-3
390
F
  0
LAYER
  5
1FE
100
AcDbSymbolTableRecord
100
AcDbLayerTableRecord
  2
ASSI
 70
0
 62
7
  6
CONTINUOUS
370
-3
390
F
  0
LAYER
  5
1FF
100
AcDbSymbolTableRecord
100
AcDbLayerTableRecord
  2
COORDINATE
 70
0
 62
7
  6
CONTINUOUS
370
-3
390
F
  0
LAYER
  5
200
100
AcDbSymbolTableRecord
100
AcDbLayerTableRecord
  2
COPY_PUBLISH
 70
0
 62
7
  6
CONTINUOUS
370
-3
390
F
  0
LAYER
  5
201
100
AcDbSymbolTableRecord
100
AcDbLayerTableRecord
  2
COSMETIC
 70
0
 62
7
  6
CONTINUOUS
370
-3
390
F
  0
LAYER
  5
202
100
AcDbSymbolTableRecord
100
AcDbLayerTableRecord
  2
COSMETICI
 70
0
 62
7
  6
CONTINUOUS
370
-3
390
F
  0
LAYER
  5
203
100
AcDbSymbolTableRecord
100
AcDbLayerTableRecord
  2
CURVE
 70
0
 62
7
  6
CONTINUOUS
370
-3
390
F
  0
LAYER
  5
204
100
AcDbSymbolTableRecord
100
AcDbLayerTableRecord
  2
DRAFT
 70
0
 62
7
  6
CONTINUOUS
370
-3
390
F
  0
LAYER
  5
205
100
AcDbSymbolTableRecord
100
AcDbLayerTableRecord
  2
IMPORT_IGES
 70
0
 62
7
  6
CONTINUOUS
370
-3
390
F
  0
LAYER
  5
206
100
AcDbSymbolTableRecord
100
AcDbLayerTableRecord
  2
INTF_1
 70
0
 62
7
  6
CONTINUOUS
370
-3
390
F
  0
LAYER
  5
207
100
AcDbSymbolTableRecord
100
AcDbLayerTableRecord
  2
INTF_MAGENTA
 70
0
 62
7
  6
CONTINUOUS
370
-3
390
F
  0
LAYER
  5
208
100
AcDbSymbolTableRecord
100
AcDbLayerTableRecord
  2
NOTE
 70
0
 62
7
  6
CONTINUOUS
370
-3
390
F
  0
LAYER
  5
209
100
AcDbSymbolTableRecord
100
AcDbLayerTableRecord
  2
PIANI
 70
0
 62
7
  6
CONTINUOUS
370
-3
390
F
  0
LAYER
  5
20A
100
AcDbSymbolTableRecord
100
AcDbLayerTableRecord
  2
PUNTI
 70
0
 62
7
  6
CONTINUOUS
370
-3
390
F
  0
LAYER
  5
20B
100
AcDbSymbolTableRecord
100
AcDbLayerTableRecord
  2
RACCORDO
 70
0
 62
7
  6
CONTINUOUS
370
-3
390
F
  0
LAYER
  5
20C
100
AcDbSymbolTableRecord
100
AcDbLayerTableRecord
  2
SIMBOLI
 70
0
 62
7
  6
CONTINUOUS
370
-3
390
F
  0
LAYER
  5
20D
100
AcDbSymbolTableRecord
100
AcDbLayerTableRecord
  2
SNAPLINE
 70
0
 62
7
  6
CONTINUOUS
370
-3
390
F
  0
LAYER
  5
20E
100
AcDbSymbolTableRecord
100
AcDbLayerTableRecord
  2
SUPERFICI
 70
0
 62
7
  6
CONTINUOUS
370
-3
390
F
  0
LAYER
  5
20F
100
AcDbSymbolTableRecord
100
AcDbLayerTableRecord
  2
TRASH
 70
0
 62
7
  6
CONTINUOUS
370
-3
390
F
  0
ENDTAB
  0
TABLE
  2
STYLE
  5
3
100
AcDbSymbolTable
 70
1
  0
STYLE
  5
11
100
AcDbSymbolTableRecord
100
AcDbTextStyleTableRecord
  2
STANDARD
 70
0
 40
0.0
 41
0.8
 50
0.0
 71
0
 42
0.2
  3
txt
  4

  0
STYLE
  5
210
100
AcDbSymbolTableRecord
100
AcDbTextStyleTableRecord
  2
TEXTSTYLE_1
 70
0
 40
0.0
 41
0.8
 50
0.0
 71
0
 42
0.2
  3
gdt
  4

  0
ENDTAB
  0
TABLE
  2
VIEW
  5
6
100
AcDbSymbolTable
 70
0
  0
ENDTAB
  0
TABLE
  2
UCS
  5
7
100
AcDbSymbolTable
 70
0
  0
ENDTAB
  0
TABLE
  2
APPID
  5
9
100
AcDbSymbolTable
 70
1
  0
APPID
  5
211
100
AcDbSymbolTableRecord
100
AcDbRegAppTableRecord
  2
ACAD
 70
0
  0
ENDTAB
  0
TABLE
  2
BLOCK_RECORD
  5
1
100
AcDbSymbolTable
 70
0
  0
BLOCK_RECORD
  5
212
100
AcDbSymbolTableRecord
100
AcDbBlockTableRecord
  2
*Model_Space
  0
BLOCK_RECORD
  5
213
100
AcDbSymbolTableRecord
100
AcDbBlockTableRecord
  2
*Paper_Space
  0
BLOCK_RECORD
  5
214
100
AcDbSymbolTableRecord
100
AcDbBlockTableRecord
  2
_FILLED
  0
ENDTAB
  0
TABLE
  2
DIMSTYLE
  5
A
100
AcDbSymbolTable
 70
1
100
AcDbDimStyleTable
 71
0
  0
DIMSTYLE
105
215
100
AcDbSymbolTableRecord
100
AcDbDimStyleTableRecord
  2
STANDARD
 70
0
  3

  4

 40
1.0
 41
3.0
 42
0.5
 43
0.38
 44
1.5
 45
0.0
 46
0.0
 47
0.01
 48
0.01
140
3.0
141
0.09
142
0.0
143
25.4
144
1.0
145
0.0
146
1.0
147
0.625
 71
1
 72
0
 73
0
 74
0
 75
0
 76
0
 77
1
 78
8
 79
2
170
0
171
1
172
0
173
0
174
0
175
0
176
0
177
0
178
0
270
2
179
2
271
2
272
2
273
2
274
2
275
0
280
0
281
0
282
0
283
1
284
8
285
0
286
0
287
3
288
0
340
11
278
44
341
214
342
214
343
214
344
214
  0
ENDTAB
  0
ENDSEC
  0
SECTION
  2
BLOCKS
  0
BLOCK
  5
20
100
AcDbEntity
  8
0
100
AcDbBlockBegin
  2
*Model_Space
 70
0
 10
0.0
 20
0.0
 30
0.0
  3
*Model_Space
  1

  0
ENDBLK
  5
21
100
AcDbEntity
  8
0
100
AcDbBlockEnd
  0
BLOCK
  5
1C
100
AcDbEntity
  8
0
100
AcDbBlockBegin
  2
*Paper_Space
 70
0
 10
0.0
 20
0.0
 30
0.0
  3
*Paper_Space
  1

  0
ENDBLK
  5
1D
100
AcDbEntity
  8
0
100
AcDbBlockEnd
  0
BLOCK
  5
216
100
AcDbEntity
  8
0
100
AcDbBlockBegin
  2
_FILLED
 70
64
 10
0.0
 20
0.0
  3
_FILLED
  1

  0
SOLID
  5
217
100
AcDbEntity
  8
0
  6
BYBLOCK
 62
0
100
AcDbTrace
 10
0.0
 20
0.0
 11
-1.0
 21
0.3166666667
 12
-1.0
 22
-0.3166666667
 13
-1.0
 23
-0.3166666667
  0
ENDBLK
  5
218
100
AcDbEntity
  8
0
  6
BYBLOCK
 62
0
100
AcDbBlockEnd
  0
ENDSEC
  0
SECTION
  2
ENTITIES
  0
LWPOLYLINE
  5
219
100
AcDbEntity
  8
0
100
AcDbPolyline
 62
250
  6
CONTINUOUS
 90
5
 70
0
 10
-73.8832221513
 20
32.5325869553
 10
-73.7170016549
 20
32.6878758839
 10
-73.5124664332
 20
32.7818504579
 10
-73.2756383242
 20
32.8101447332
 10
-73.0147395844
 20
32.7706005811
  0
LWPOLYLINE
  5
21A
100
AcDbEntity
  8
0
100
AcDbPolyline
 62
250
  6
CONTINUOUS
 90
10
 70
0
 10
-72.3032369846
 20
33.6568453882
 10
-72.3934440579
 20
33.5847633451
 10
-72.4687345181
 20
33.4952528676
 10
-72.5279798843
 20
33.3893004153
 10
-72.5702076158
 20
33.2675852206
 10
-72.5939535775
 20
33.1322778147
 10
-72.5981977644
 20
32.9875158944
 10
-72.5828035011
 20
32.8366282767
 10
-72.5475847956
 20
32.6816869271
 10
-72.492307988
 20
32.5255985012
  0
LWPOLYLINE
  5
21B
100
AcDbEntity
  8
0
100
AcDbPolyline
 62
7
  6
CONTINUOUS
 90
18
 70
0
 10
-73.4302919975
 20
33.6160399599
 10
-73.5654049787
 20
33.5159770298
 10
-73.6940999539
 20
33.3996796486
 10
-73.8017619963
 20
33.2815504698
 10
-73.891701398
 20
33.1626622679
 10
-73.9652314401
 20
33.0460556759
 10
-74.0246718931
 20
32.9334178861
 10
-74.0734808213
 20
32.8223191681
 10
-74.1127849024
 20
32.7128118904
 10
-74.1429769348
 20
32.6071892786
 10
-74.1656646086
 20
32.5054311692
 10
-74.182083707
 20
32.4090277447
 10
-74.1936281434
 20
32.3184318412
 10
-74.2017267523
 20
32.2316239296
 10
-74.2071895301
 20
32.1497899753
 10
-74.2107824599
 20
32.0729409438
 10
-74.2131686216
 20
31.9964321492
 10
-74.2145388992
 20
31.9231611462
  0
LINE
  5
21C
100
AcDbEntity
  8
0
100
AcDbLine
 62
7
  6
CONTINUOUS
 10
-70.3418658163
 20
35.6892933313
 11
-73.4322471496
 21
33.6147322221
  0
LINE
  5
21D
100
AcDbEntity
  8
0
100
AcDbLine
 62
250
  6
CONTINUOUS
 10
-68.7843743454
 20
35.5764664872
 11
-72.0053369869
 21
33.5113637996
  0
LWPOLYLINE
  5
21E
100
AcDbEntity
  8
0
100
AcDbPolyline
 62
250
  6
CONTINUOUS
 90
6
 70
0
 10
-73.4299887382
 20
33.6162434523
 10
-73.3479796507
 20
33.6649832235
 10
-73.1194242232
 20
33.7493071357
 10
-72.8651389206
 20
33.7762476791
 10
-72.5909646276
 20
33.7451907547
 10
-72.3032369815
 20
33.6568453902
  0
LINE
  5
21F
100
AcDbEntity
  8
0
100
AcDbLine
 62
250
  6
CONTINUOUS
 10
-74.0072291714
 20
32.3182690459
 11
-73.8832221513
 21
32.5325869553
  0
LWPOLYLINE
  5
220
100
AcDbEntity
  8
0
100
AcDbPolyline
 62
250
  6
CONTINUOUS
 90
10
 70
0
 10
-72.0690552253
 20
24.8567374901
 10
-72.1206162322
 20
24.6130566498
 10
-72.1656057492
 20
24.3612121312
 10
-72.2045838608
 20
24.1016406261
 10
-72.2380643276
 20
23.835111349
 10
-72.2666929675
 20
23.5622891971
 10
-72.291134595
 20
23.2839064399
 10
-72.3119735655
 20
23.0006196278
 10
-72.3295828905
 20
22.7122924375
 10
-72.3437993052
 20
22.4194136594
  0
LWPOLYLINE
  5
221
100
AcDbEntity
  8
0
100
AcDbPolyline
 62
250
  6
CONTINUOUS
 90
10
 70
0
 10
-72.0690645852
 20
24.8566382125
 10
-71.9700872577
 20
25.2333830202
 10
-71.8519180729
 20
25.5816484077
 10
-71.713150594
 20
25.8990640495
 10
-71.5512992456
 20
26.1774887106
 10
-71.3636974756
 20
26.4084211908
 10
-71.1461022165
 20
26.5867232745
 10
-70.8980857653
 20
26.7060017212
 10
-70.627693987
 20
26.7698351995
 10
-70.3427230825
 20
26.7886165446
  0
LWPOLYLINE
  5
222
100
AcDbEntity
  8
0
100
AcDbPolyline
 62
250
  6
CONTINUOUS
 90
7
 70
0
 10
-69.4212777435
 20
18.8812511505
 10
-69.492885815
 20
18.6990681507
 10
-69.5584808487
 20
18.5081046128
 10
-69.6178941356
 20
18.3086078282
 10
-69.6710571222
 20
18.1006197581
 10
-69.7178428467
 20
17.8843404653
 10
-69.7581605472
 20
17.6599315592
  0
LWPOLYLINE
  5
223
100
AcDbEntity
  8
0
100
AcDbPolyline
 62
250
  6
CONTINUOUS
 90
3
 70
0
 10
-74.1077285479
 20
31.7283843868
 10
-74.0844994398
 20
32.0476547931
 10
-74.0072291714
 20
32.3182690459
  0
LWPOLYLINE
  5
224
100
AcDbEntity
  8
0
100
AcDbPolyline
 62
250
  6
CONTINUOUS
 90
10
 70
0
 10
-67.787476862
 20
20.4272503114
 10
-68.020682362
 20
20.3558903187
 10
-68.2430769616
 20
20.2596710595
 10
-68.4529808503
 20
20.1378709071
 10
-68.6481782133
 20
19.991368894
 10
-68.8291336483
 20
19.820685334
 10
-68.997540335
 20
19.6242950159
 10
-69.1531674839
 20
19.4016331551
 10
-69.2946543692
 20
19.1535510306
 10
-69.421257887
 20
18.8813035372
  0
LWPOLYLINE
  5
225
100
AcDbEntity
  8
0
100
AcDbPolyline
 62
250
  6
CONTINUOUS
 90
10
 70
0
 10
12.3137725986
 20
-74.159086955
 10
12.2145186642
 20
-74.1815493106
 10
12.1128608971
 20
-74.2001610953
 10
12.0087496415
 20
-74.2149082421
 10
11.902147529
 20
-74.2257643063
 10
11.7930997237
 20
-74.2327053325
 10
11.6817425152
 20
-74.2357062217
 10
11.568137089
 20
-74.2347563021
 10
11.4523125826
 20
-74.2298505938
 10
11.3343235275
 20
-74.2209843732
  0
LWPOLYLINE
  5
226
100
AcDbEntity
  8
0
100
AcDbPolyline
 62
250
  6
CONTINUOUS
 90
10
 70
0
 10
16.2831980226
 20
-79.7039122234
 10
16.1563549035
 20
-79.7005490992
 10
16.0261029034
 20
-79.6911557705
 10
15.8927656825
 20
-79.6761928533
 10
15.7568905325
 20
-79.6561325844
 10
15.6187232173
 20
-79.6313012
 10
15.47819826
 20
-79.6017402114
 10
15.3353488748
 20
-79.5675187572
 10
15.1902707843
 20
-79.5287451266
 10
15.0430325152
 20
-79.48552263
  0
LWPOLYLINE
  5
227
100
AcDbEntity
  8
0
100
AcDbPolyline
 62
7
  6
CONTINUOUS
 90
5
 70
0
 10
20.8960019247
 20
-85.1966238707
 10
21.1359178442
 20
-85.2214034576
 10
21.4272274407
 20
-85.2049959373
 10
21.7492787732
 20
-85.1264992219
 10
21.944930006
 20
-85.0448520823
  0
LWPOLYLINE
  5
228
100
AcDbEntity
  8
0
100
AcDbPolyline
 62
7
  6
CONTINUOUS
 90
3
 70
0
 10
-74.1962863409
 20
-28.7515269012
 10
-74.1922381812
 20
-28.7952552077
 10
-74.1875046949
 20
-28.8400512395
  0
LWPOLYLINE
  5
229
100
AcDbEntity
  8
0
100
AcDbPolyline
 62
7
  6
CONTINUOUS
 90
8
 70
0
 10
-74.2114807069
 20
-28.4738586708
 10
-74.210321685
 20
-28.5103321169
 10
-74.2089053922
 20
-28.5480340569
 10
-74.2071882465
 20
-28.586742112
 10
-74.205124858
 20
-28.6264130896
 10
-74.2026584052
 20
-28.6671332095
 10
-74.199733874
 20
-28.7088378541
 10
-74.1962863409
 20
-28.7515269012
  0
LINE
  5
22A
100
AcDbEntity
  8
0
100
AcDbLine
 62
250
  6
CONTINUOUS
 10
-74.1057625254
 20
-28.1898379553
 11
-74.1074834404
 21
-28.1359069791
  0
LWPOLYLINE
  5
22B
100
AcDbEntity
  8
0
100
AcDbPolyline
 62
250
  6
CONTINUOUS
 90
10
 70
0
 10
-72.343811728
 20
-23.0065935681
 10
-72.4037835622
 20
-20.6916928538
 10
-72.4556213716
 20
-18.3221546984
 10
-72.5017994277
 20
-15.8959983939
 10
-72.5423574853
 20
-13.415064321
 10
-72.5767701345
 20
-10.8782057882
 10
-72.6045580768
 20
-8.2806069656
 10
-72.6251558854
 20
-5.6208739631
 10
-72.6379617897
 20
-2.9010486955
 10
-72.6423725672
 20
-0.1215113704
  0
LINE
  5
22C
100
AcDbEntity
  8
0
100
AcDbLine
 62
7
  6
CONTINUOUS
 10
-74.2132267361
 20
-28.4044696076
 11
-74.2114807069
 21
-28.4738586708
  0
LWPOLYLINE
  5
22D
100
AcDbEntity
  8
0
100
AcDbPolyline
 62
250
  6
CONTINUOUS
 90
4
 70
0
 10
-74.1074883445
 20
-28.1357452468
 10
-74.1080946778
 20
-28.1095291657
 10
-74.1085338045
 20
-28.0830946116
 10
-74.108788611
 20
-28.0559258031
  0
LINE
  5
22E
100
AcDbEntity
  8
0
100
AcDbLine
 62
7
  6
CONTINUOUS
 10
-74.2143925642
 20
-28.3446180782
 11
-74.2132267361
 21
-28.4044696076
  0
LWPOLYLINE
  5
22F
100
AcDbEntity
  8
0
100
AcDbPolyline
 62
250
  6
CONTINUOUS
 90
5
 70
0
 10
-74.1038382903
 20
-28.2993552711
 10
-74.1040003302
 20
-28.2718356744
 10
-74.1043633473
 20
-28.2460219788
 10
-74.1049482487
 20
-28.2183009933
 10
-74.1057625254
 20
-28.1898379553
  0
LWPOLYLINE
  5
230
100
AcDbEntity
  8
0
100
AcDbPolyline
 62
7
  6
CONTINUOUS
 90
3
 70
0
 10
-74.2148203371
 20
31.8524198994
 10
-74.2140584038
 20
31.7217999187
 10
-74.2141113829
 20
31.6739664444
  0
LINE
  5
231
100
AcDbEntity
  8
0
100
AcDbLine
 62
7
  6
CONTINUOUS
 10
-74.2142696586
 20
31.6973830567
 11
-74.2033463103
 21
29.2748632091
  0
LINE
  5
232
100
AcDbEntity
  8
0
100
AcDbLine
 62
250
  6
CONTINUOUS
 10
-74.1058344072
 20
31.334441508
 11
-74.1077285479
 21
31.7283843868
  0
LINE
  5
233
100
AcDbEntity
  8
0
100
AcDbLine
 62
7
  6
CONTINUOUS
 10
-74.2033463103
 20
29.2748632091
 11
-74.1988465716
 21
24.9403514166
  0
LWPOLYLINE
  5
234
100
AcDbEntity
  8
0
100
AcDbPolyline
 62
7
  6
CONTINUOUS
 90
3
 70
0
 10
-74.2013540475
 20
1.7961598685
 10
-74.1979762161
 20
-15.2653532222
 10
-74.1988615255
 20
-21.3535981063
  0
LWPOLYLINE
  5
235
100
AcDbEntity
  8
0
100
AcDbPolyline
 62
7
  6
CONTINUOUS
 90
3
 70
0
 10
-74.1988465716
 20
24.9403514166
 10
-74.1983988543
 20
13.9584786508
 10
-74.2013540982
 20
1.7961764403
  0
LINE
  5
236
100
AcDbEntity
  8
0
100
AcDbLine
 62
7
  6
CONTINUOUS
 10
-74.214163071
 20
-28.0919657475
 11
-74.2141705765
 21
-28.1381114126
  0
LINE
  5
237
100
AcDbEntity
  8
0
100
AcDbLine
 62
7
  6
CONTINUOUS
 10
-74.1988615255
 20
-21.3535981063
 11
-74.2033543147
 21
-25.6828513633
  0
LINE
  5
238
100
AcDbEntity
  8
0
100
AcDbLine
 62
250
  6
CONTINUOUS
 10
-74.106634766
 20
27.8803761391
 11
-74.1071315292
 21
31.0345778494
  0
LINE
  5
239
100
AcDbEntity
  8
0
100
AcDbLine
 62
250
  6
CONTINUOUS
 10
-74.1072547309
 20
-28.0519734218
 11
-74.106634766
 21
27.8803761391
  0
LWPOLYLINE
  5
23A
100
AcDbEntity
  8
0
100
AcDbPolyline
 62
7
  6
CONTINUOUS
 90
4
 70
0
 10
-74.2149808345
 20
-28.2635480008
 10
-74.2150840284
 20
-28.2935301298
 10
-74.2149910553
 20
-28.3262750662
 10
-74.2147898503
 20
-28.3505332211
  0
LINE
  5
23B
100
AcDbEntity
  8
0
100
AcDbLine
 62
250
  6
CONTINUOUS
 10
-74.1061436211
 20
31.2266377467
 11
-74.1058344072
 21
31.334441508
  0
LINE
  5
23C
100
AcDbEntity
  8
0
100
AcDbLine
 62
7
  6
CONTINUOUS
 10
-74.2033543147
 20
-25.6828513633
 11
-74.2145005685
 21
-28.0982319046
  0
LINE
  5
23D
100
AcDbEntity
  8
0
100
AcDbLine
 62
250
  6
CONTINUOUS
 10
-74.1071315292
 20
31.0345778494
 11
-74.1061436211
 21
31.2266377467
  0
LINE
  5
23E
100
AcDbEntity
  8
0
100
AcDbLine
 62
7
  6
CONTINUOUS
 10
-74.2141705765
 20
-28.1381114126
 11
-74.2149808345
 21
-28.2635480008
  0
LWPOLYLINE
  5
23F
100
AcDbEntity
  8
0
100
AcDbPolyline
 62
7
  6
CONTINUOUS
 90
3
 70
0
 10
-74.2145989725
 20
31.9342006899
 10
-74.2146863186
 20
31.9249520238
 10
-74.2148203371
 20
31.8524198994
  0
LINE
  5
240
100
AcDbEntity
  8
0
100
AcDbLine
 62
7
  6
CONTINUOUS
 10
-74.2143925642
 20
-28.3446180782
 11
-74.2143895566
 21
-28.3443409911
  0
LWPOLYLINE
  5
241
100
AcDbEntity
  8
0
100
AcDbPolyline
 62
250
  6
CONTINUOUS
 90
8
 70
0
 10
-70.2004602186
 20
7.6094341842
 10
-70.231884659
 20
6.3039768081
 10
-70.2594208627
 20
4.9646982485
 10
-70.2827425884
 20
3.5913411155
 10
-70.3015432091
 20
2.181170691
 10
-70.3154578164
 20
0.7331285226
 10
-70.3240930394
 20
-0.7521486623
 10
-70.3270594534
 20
-2.274874839
  0
LWPOLYLINE
  5
242
100
AcDbEntity
  8
0
100
AcDbPolyline
 62
250
  6
CONTINUOUS
 90
10
 70
0
 10
-72.3438125276
 20
22.4187769943
 10
-72.4038444188
 20
20.1737122376
 10
-72.4556798155
 20
17.8637870349
 10
-72.5018647428
 20
15.4910165743
 10
-72.542407227
 20
13.057022576
 10
-72.5767772087
 20
10.5598697888
 10
-72.6045359983
 20
7.9942655473
 10
-72.6251260703
 20
5.3582106471
 10
-72.6379408638
 20
2.6530618372
 10
-72.6423725672
 20
-0.1215113704
  0
LWPOLYLINE
  5
243
100
AcDbEntity
  8
0
100
AcDbPolyline
 62
250
  6
CONTINUOUS
 90
9
 70
0
 10
-69.8395655733
 20
16.9398556164
 10
-69.8943750283
 20
15.8754412697
 10
-69.9458635156
 20
14.7818775799
 10
-69.9948645779
 20
13.6596763253
 10
-70.0416234455
 20
12.5097591916
 10
-70.0857703126
 20
11.3311898043
 10
-70.1271407703
 20
10.1216952723
 10
-70.1654671913
 20
8.8811806146
 10
-70.2004602186
 20
7.6094341842
  0
LINE
  5
244
100
AcDbEntity
  8
0
100
AcDbLine
 62
7
  6
CONTINUOUS
 10
-74.214163071
 20
-28.0919657475
 11
-74.2141392091
 21
-28.0915117436
  0
LWPOLYLINE
  5
245
100
AcDbEntity
  8
0
100
AcDbPolyline
 62
250
  6
CONTINUOUS
 90
4
 70
0
 10
-69.7581605472
 20
17.6599315592
 10
-69.7919635494
 20
17.4276214866
 10
-69.8192552833
 20
17.1875520267
 10
-69.8400091187
 20
16.9400966082
  0
LWPOLYLINE
  5
246
100
AcDbEntity
  8
0
100
AcDbPolyline
 62
250
  6
CONTINUOUS
 90
7
 70
0
 10
-64.5800241401
 20
13.0321960975
 10
-64.6683239398
 20
12.8084407869
 10
-64.716116883
 20
12.5912214933
 10
-64.7222127695
 20
12.3911375744
 10
-64.6864563031
 20
12.2165789585
 10
-64.6099086348
 20
12.0792931309
 10
-64.5151016023
 20
11.9988801478
  0
LWPOLYLINE
  5
247
100
AcDbEntity
  8
RACCORDO
100
AcDbPolyline
 62
7
  6
CONTINUOUS
 90
7
 70
0
 10
-60.6131004818
 20
4.6475428451
 10
-60.5943103506
 20
4.6748560702
 10
-60.5776082723
 20
4.7048220831
 10
-60.5643524776
 20
4.7350040155
 10
-60.5549957103
 20
4.7645895781
 10
-60.5490852266
 20
4.7943910603
 10
-60.5466210266
 20
4.8244084621
  0
LWPOLYLINE
  5
248
100
AcDbEntity
  8
0
100
AcDbPolyline
 62
250
  6
CONTINUOUS
 90
10
 70
0
 10
-45.8424104995
 20
18.4052195116
 10
-45.9346864379
 20
18.3389937078
 10
-46.0246048329
 20
18.2602982452
 10
-46.1106240145
 20
18.1705262996
 10
-46.1913713437
 20
18.0711287733
 10
-46.2653674967
 20
17.9639462409
 10
-46.3311380903
 20
17.8512629178
 10
-46.3876177841
 20
17.7352117942
 10
-46.4340732824
 20
17.6176540944
 10
-46.4698735107
 20
17.5005643417
  0
LINE
  5
249
100
AcDbEntity
  8
0
100
AcDbLine
 62
7
  6
CONTINUOUS
 10
-61.2258710633
 20
9.7712758879
 11
-62.4415266725
 21
9.0693640719
  0
LINE
  5
24A
100
AcDbEntity
  8
RACCORDO
100
AcDbLine
 62
7
  6
CONTINUOUS
 10
-61.3542759434
 20
9.6971508488
 11
-61.2258710633
 21
9.7712758879
  0
LINE
  5
24B
100
AcDbEntity
  8
RACCORDO
100
AcDbLine
 62
7
  6
CONTINUOUS
 10
-60.6806409609
 20
9.4645659519
 11
-60.9355299429
 21
9.3328204322
  0
LINE
  5
24C
100
AcDbEntity
  8
DRAFT
100
AcDbLine
 62
7
  6
CONTINUOUS
 10
-61.1476619773
 20
9.2231748724
 11
-61.2890833335
 21
9.1500778325
  0
LINE
  5
24D
100
AcDbEntity
  8
DRAFT
100
AcDbLine
 62
7
  6
CONTINUOUS
 10
-61.5012153678
 20
9.0404322727
 11
-61.6426367241
 21
8.9673352329
  0
LINE
  5
24E
100
AcDbEntity
  8
DRAFT
100
AcDbLine
 62
7
  6
CONTINUOUS
 10
-61.8547687584
 20
8.8576896731
 11
-61.9961901147
 21
8.7845926333
  0
LINE
  5
24F
100
AcDbEntity
  8
DRAFT
100
AcDbLine
 62
7
  6
CONTINUOUS
 10
-62.208322149
 20
8.6749470735
 11
-62.3497435053
 21
8.6018500336
  0
LINE
  5
250
100
AcDbEntity
  8
0
100
AcDbLine
 62
7
  6
CONTINUOUS
 10
-64.4590879883
 20
11.8188168469
 11
-64.273137211
 21
11.8993435224
  0
LWPOLYLINE
  5
251
100
AcDbEntity
  8
0
100
AcDbPolyline
 62
7
  6
CONTINUOUS
 90
10
 70
0
 10
8.8415973097
 20
-69.288007437
 10
9.0642865772
 20
-69.2625289292
 10
9.2696700678
 20
-69.1988696569
 10
9.4550799509
 20
-69.0986252462
 10
9.6176520885
 20
-68.9641930072
 10
9.7560347764
 20
-68.7976717308
 10
9.8692503893
 20
-68.6000393962
 10
9.9566932551
 20
-68.3716626799
 10
10.0168938225
 20
-68.1147970718
 10
10.0485745184
 20
-67.8324582919
  0
LINE
  5
252
100
AcDbEntity
  8
0
100
AcDbLine
 62
250
  6
CONTINUOUS
 10
-73.7190260592
 20
-30.0366227181
 11
-73.8831722958
 21
-29.6924949002
  0
LWPOLYLINE
  5
253
100
AcDbEntity
  8
0
100
AcDbPolyline
 62
250
  6
CONTINUOUS
 90
5
 70
0
 10
-73.8831722958
 20
-29.6924949002
 10
-74.0059103746
 20
-29.3385285751
 10
-74.0829687464
 20
-28.9808745181
 10
-74.1066290358
 20
-28.6365019382
 10
-74.1059745047
 20
-28.3005369488
  0
LWPOLYLINE
  5
254
100
AcDbEntity
  8
0
100
AcDbPolyline
 62
7
  6
CONTINUOUS
 90
32
 70
0
 10
-74.1597962842
 20
-29.0305916087
 10
-74.1501161185
 20
-29.0812590408
 10
-74.1390739145
 20
-29.1333303458
 10
-74.1266593521
 20
-29.1866851356
 10
-74.1128540793
 20
-29.2413439946
 10
-74.0975632987
 20
-29.2975956566
 10
-74.08077914
 20
-29.3553683906
 10
-74.062500763
 20
-29.4145595105
 10
-74.0425412384
 20
-29.4754640172
 10
-74.0207626528
 20
-29.5380887534
 10
-73.9970268442
 20
-29.6024165882
 10
-73.9710935374
 20
-29.668701671
 10
-73.9428674724
 20
-29.7368100978
 10
-73.9122095039
 20
-29.8067049782
 10
-73.8787880707
 20
-29.8787412986
 10
-73.8425147306
 20
-29.9526949563
 10
-73.8032058208
 20
-30.02853277
 10
-73.7603501702
 20
-30.1068061146
 10
-73.7139635797
 20
-30.1870284766
 10
-73.6638689233
 20
-30.2690631187
 10
-73.6091874999
 20
-30.3538117987
 10
-73.5499422016
 20
-30.4406076079
 10
-73.485911222
 20
-30.5291203869
 10
-73.4156984922
 20
-30.6204317981
 10
-73.3394784187
 20
-30.7132647521
 10
-73.2565695547
 20
-30.80731889
 10
-73.1639560351
 20
-30.9044185709
 10
-73.0616181293
 20
-31.0027603105
 10
-72.9497546808
 20
-31.10051518
 10
-72.8255826546
 20
-31.1975100063
 10
-72.6882104637
 20
-31.2928598588
 10
-72.5987632337
 20
-31.351163501
  0
LWPOLYLINE
  5
255
100
AcDbEntity
  8
0
100
AcDbPolyline
 62
250
  6
CONTINUOUS
 90
10
 70
0
 10
-72.0690609765
 20
-25.7617546194
 10
-72.1206202348
 20
-25.4585390852
 10
-72.1656064618
 20
-25.1547589391
 10
-72.2045827334
 20
-24.8501878696
 10
-72.238063129
 20
-24.5449992735
 10
-72.2666922544
 20
-24.2391151149
 10
-72.2911342399
 20
-23.9325055385
 10
-72.3119733821
 20
-23.625157419
 10
-72.3295826379
 20
-23.3164673622
 10
-72.3437992289
 20
-23.0071738034
  0
LWPOLYLINE
  5
256
100
AcDbEntity
  8
0
100
AcDbPolyline
 62
7
  6
CONTINUOUS
 90
5
 70
0
 10
-74.1875046949
 20
-28.8400512395
 10
-74.18199578
 20
-28.8859474633
 10
-74.175613964
 20
-28.9329799292
 10
-74.1682513931
 20
-28.9811912802
 10
-74.1597962842
 20
-29.0305916087
  0
LWPOLYLINE
  5
257
100
AcDbEntity
  8
0
100
AcDbPolyline
 62
250
  6
CONTINUOUS
 90
10
 70
0
 10
-69.8396760903
 20
-22.0523577832
 10
-69.8191327133
 20
-22.3235159789
 10
-69.7919567502
 20
-22.5949909225
 10
-69.7581783445
 20
-22.8664429553
 10
-69.7178594986
 20
-23.1374857322
 10
-69.6710759565
 20
-23.4078151461
 10
-69.6179124713
 20
-23.677222815
 10
-69.5585079806
 20
-23.945300203
 10
-69.4929222527
 20
-24.2119812156
 10
-69.4212469432
 20
-24.4770818415
  0
LWPOLYLINE
  5
258
100
AcDbEntity
  8
0
100
AcDbPolyline
 62
7
  6
CONTINUOUS
 90
8
 70
0
 10
-66.5925647124
 20
-23.580563359
 10
-66.5934876277
 20
-23.5622256305
 10
-66.5943098447
 20
-23.5434978507
 10
-66.5950283095
 20
-23.5245949949
 10
-66.5956378381
 20
-23.5058072233
 10
-66.596139973
 20
-23.4872515345
 10
-66.5965458339
 20
-23.468749525
 10
-66.5968634163
 20
-23.4502187561
  0
LWPOLYLINE
  5
259
100
AcDbEntity
  8
0
100
AcDbPolyline
 62
250
  6
CONTINUOUS
 90
3
 70
0
 10
-69.9742681814
 20
-19.0975908062
 10
-69.9087488662
 20
-20.5919046349
 10
-69.839663818
 20
-22.0525468793
  0
LINE
  5
25A
100
AcDbEntity
  8
0
100
AcDbLine
 62
250
  6
CONTINUOUS
 10
-70.0347825586
 20
-17.5706584763
 11
-69.9742681814
 21
-19.0975908062
  0
LWPOLYLINE
  5
25B
100
AcDbEntity
  8
0
100
AcDbPolyline
 62
250
  6
CONTINUOUS
 90
3
 70
0
 10
-70.1422405073
 20
-14.4204091461
 10
-70.0907214368
 20
-16.011852037
 10
-70.0347825586
 20
-17.5706584763
  0
LINE
  5
25C
100
AcDbEntity
  8
0
100
AcDbLine
 62
7
  6
CONTINUOUS
 10
-66.5968634163
 20
-23.4502187561
 11
-66.5972620948
 21
-23.4131998285
  0
LWPOLYLINE
  5
25D
100
AcDbEntity
  8
0
100
AcDbPolyline
 62
250
  6
CONTINUOUS
 90
8
 70
0
 10
-70.3270519257
 20
-2.2748814209
 10
-70.3226699981
 20
-4.1212237392
 10
-70.310037955
 20
-5.9307461348
 10
-70.2897310936
 20
-7.7030962366
 10
-70.2622893108
 20
-9.4368148655
 10
-70.2282291191
 20
-11.1327226928
 10
-70.1880490241
 20
-12.7939531917
 10
-70.1422405073
 20
-14.4204091461
  0
LINE
  5
25E
100
AcDbEntity
  8
0
100
AcDbLine
 62
250
  6
CONTINUOUS
 10
-66.5973445461
 20
11.5691186147
 11
-66.5973487146
 21
-5.0462059685
  0
LINE
  5
25F
100
AcDbEntity
  8
0
100
AcDbLine
 62
7
  6
CONTINUOUS
 10
-66.5972620948
 20
-23.4131998285
 11
-66.5973611113
 21
-5.0462119983
  0
LINE
  5
260
100
AcDbEntity
  8
0
100
AcDbLine
 62
250
  6
CONTINUOUS
 10
-65.9528538582
 20
-5.8870388033
 11
-65.9507670721
 21
-24.0139637365
  0
LINE
  5
261
100
AcDbEntity
  8
0
100
AcDbLine
 62
7
  6
CONTINUOUS
 10
-66.5972581982
 20
13.3206876237
 11
-66.5973148132
 21
11.5689380743
  0
LINE
  5
262
100
AcDbEntity
  8
0
100
AcDbLine
 62
250
  6
CONTINUOUS
 10
-65.9528538582
 20
-5.8870386434
 11
-65.9507670721
 21
12.2401533972
  0
LWPOLYLINE
  5
263
100
AcDbEntity
  8
0
100
AcDbPolyline
 62
250
  6
CONTINUOUS
 90
10
 70
0
 10
-64.3313106524
 20
14.6290448937
 10
-64.339004196
 20
14.4706376744
 10
-64.3517846324
 20
14.3056064786
 10
-64.3696511079
 20
14.1345617505
 10
-64.3926107975
 20
13.9576945912
 10
-64.4206715996
 20
13.7761207705
 10
-64.4536516358
 20
13.5919090902
 10
-64.4912848399
 20
13.4062466369
 10
-64.5334112821
 20
13.2194110604
 10
-64.5798365862
 20
13.0321334672
  0
LWPOLYLINE
  5
264
100
AcDbEntity
  8
0
100
AcDbPolyline
 62
7
  6
CONTINUOUS
 90
10
 70
0
 10
-66.5920913833
 20
13.4826234888
 10
-66.5930874287
 20
13.4649664663
 10
-66.5939798085
 20
13.4472261058
 10
-66.5947685547
 20
13.429402903
 10
-66.5954536955
 20
13.4114974631
 10
-66.5960352686
 20
13.3935101767
 10
-66.5965133142
 20
13.375441215
 10
-66.5968878617
 20
13.3572909647
 10
-66.5971589355
 20
13.3390600325
 10
-66.5973265633
 20
13.3207489173
  0
LWPOLYLINE
  5
265
100
AcDbEntity
  8
RACCORDO
100
AcDbPolyline
 62
7
  6
CONTINUOUS
 90
4
 70
0
 10
-60.6806409609
 20
4.5839567652
 10
-60.6560394151
 20
4.6024993373
 10
-60.633525922
 20
4.6236946973
 10
-60.6131004818
 20
4.6475428451
  0
LINE
  5
266
100
AcDbEntity
  8
RACCORDO
100
AcDbLine
 62
7
  6
CONTINUOUS
 10
-60.6806409609
 20
4.5839567652
 11
-60.9355299429
 21
4.4213628775
  0
LINE
  5
267
100
AcDbEntity
  8
DRAFT
100
AcDbLine
 62
7
  6
CONTINUOUS
 10
-61.1476619773
 20
4.2860436813
 11
-61.2890833335
 21
4.1958308838
  0
LINE
  5
268
100
AcDbEntity
  8
DRAFT
100
AcDbLine
 62
7
  6
CONTINUOUS
 10
-61.5012153678
 20
4.0605116876
 11
-61.6426367241
 21
3.9702988901
  0
LINE
  5
269
100
AcDbEntity
  8
DRAFT
100
AcDbLine
 62
7
  6
CONTINUOUS
 10
-61.8547687584
 20
3.8349796939
 11
-61.9961901147
 21
3.7447668964
  0
LINE
  5
26A
100
AcDbEntity
  8
DRAFT
100
AcDbLine
 62
7
  6
CONTINUOUS
 10
-62.208322149
 20
3.6094477002
 11
-62.3497435053
 21
3.5192349027
  0
LWPOLYLINE
  5
26B
100
AcDbEntity
  8
RACCORDO
100
AcDbPolyline
 62
7
  6
CONTINUOUS
 90
6
 70
0
 10
-61.2258710633
 20
9.7712758879
 10
-61.1986324146
 20
9.7828865266
 10
-61.1704924313
 20
9.7872515781
 10
-61.1426064676
 20
9.7845710543
 10
-61.1162698395
 20
9.7751623148
 10
-61.1088861604
 20
9.7711682843
  0
LWPOLYLINE
  5
26C
100
AcDbEntity
  8
0
100
AcDbPolyline
 62
250
  6
CONTINUOUS
 90
10
 70
0
 10
11.334347006
 20
-74.2209861683
 10
11.1424560614
 20
-74.1986941298
 10
10.9457522938
 20
-74.1664806048
 10
10.7442380927
 20
-74.1243541578
 10
10.5379306711
 20
-74.0723609191
 10
10.3276008653
 20
-74.0107180107
 10
10.1131945529
 20
-73.9393548198
 10
9.894763287
 20
-73.858171546
 10
9.6727728885
 20
-73.7672468313
 10
9.4476543741
 20
-73.6666783667
  0
LWPOLYLINE
  5
26D
100
AcDbEntity
  8
0
100
AcDbPolyline
 62
7
  6
CONTINUOUS
 90
3
 70
0
 10
20.5341595291
 20
-85.0940307756
 10
20.7049127383
 20
-85.1524030998
 10
20.8960019247
 20
-85.1966238707
  0
LWPOLYLINE
  5
26E
100
AcDbEntity
  8
0
100
AcDbPolyline
 62
250
  6
CONTINUOUS
 90
3
 70
0
 10
-73.2793124839
 20
-30.6697279218
 10
-73.5156534074
 20
-30.3666364992
 10
-73.7190260592
 20
-30.0366227181
  0
LWPOLYLINE
  5
26F
100
AcDbEntity
  8
0
100
AcDbPolyline
 62
250
  6
CONTINUOUS
 90
10
 70
0
 10
-69.4213016902
 20
-24.4768837448
 10
-69.2947820054
 20
-24.8950977795
 10
-69.1533694522
 20
-25.3063948745
 10
-68.9978922055
 20
-25.7084857516
 10
-68.8295738563
 20
-26.0992191207
 10
-68.64872341
 20
-26.4787547758
 10
-68.4535597982
 20
-26.8507060788
 10
-68.2435742803
 20
-27.215124623
 10
-68.0209927606
 20
-27.5685136981
 10
-67.7874717088
 20
-27.9096521022
  0
LWPOLYLINE
  5
270
100
AcDbEntity
  8
0
100
AcDbPolyline
 62
250
  6
CONTINUOUS
 90
10
 70
0
 10
-64.3313106524
 20
-27.3381807261
 10
-64.339004196
 20
-27.2003716195
 10
-64.3517846324
 20
-27.0695408278
 10
-64.3696511079
 20
-26.9462978086
 10
-64.3926107975
 20
-26.8310382848
 10
-64.4206715996
 20
-26.724690809
 10
-64.4536516358
 20
-26.6285251435
 10
-64.4912848399
 20
-26.5432247917
 10
-64.5334112821
 20
-26.4690790575
 10
-64.5798365862
 20
-26.4065945865
  0
LINE
  5
271
100
AcDbEntity
  8
0
100
AcDbLine
 62
250
  6
CONTINUOUS
 10
-64.2723285818
 20
-24.3670179627
 11
-64.2723285818
 21
11.8988537608
  0
LINE
  5
272
100
AcDbEntity
  8
0
100
AcDbLine
 62
7
  6
CONTINUOUS
 10
-62.4415266725
 20
10.8018446073
 11
-62.4415266725
 21
-23.3462056669
  0
LINE
  5
273
100
AcDbEntity
  8
DRAFT
100
AcDbLine
 62
7
  6
CONTINUOUS
 10
-62.3497435053
 20
-14.8513624915
 11
-62.3497435053
 21
-9.7687473606
  0
LINE
  5
274
100
AcDbEntity
  8
DRAFT
100
AcDbLine
 62
7
  6
CONTINUOUS
 10
-62.3497435053
 20
3.5192349027
 11
-62.3497435053
 21
8.6018500336
  0
LINE
  5
275
100
AcDbEntity
  8
DRAFT
100
AcDbLine
 62
7
  6
CONTINUOUS
 10
-62.208322149
 20
-14.761149694
 11
-62.208322149
 21
-9.5795863518
  0
LINE
  5
276
100
AcDbEntity
  8
DRAFT
100
AcDbLine
 62
7
  6
CONTINUOUS
 10
-62.208322149
 20
3.6094477002
 11
-62.208322149
 21
8.7910110424
  0
LINE
  5
277
100
AcDbEntity
  8
DRAFT
100
AcDbLine
 62
7
  6
CONTINUOUS
 10
-61.9961901147
 20
-14.6258304978
 11
-61.9961901147
 21
-9.5860047609
  0
LINE
  5
278
100
AcDbEntity
  8
DRAFT
100
AcDbLine
 62
7
  6
CONTINUOUS
 10
-61.9961901147
 20
3.7447668964
 11
-61.9961901147
 21
8.7845926333
  0
LINE
  5
279
100
AcDbEntity
  8
DRAFT
100
AcDbLine
 62
7
  6
CONTINUOUS
 10
-61.8547687584
 20
-14.5356177003
 11
-61.8547687584
 21
-9.3968437522
  0
LINE
  5
27A
100
AcDbEntity
  8
DRAFT
100
AcDbLine
 62
7
  6
CONTINUOUS
 10
-61.8547687584
 20
3.8349796939
 11
-61.8547687584
 21
8.973753642
  0
LINE
  5
27B
100
AcDbEntity
  8
DRAFT
100
AcDbLine
 62
7
  6
CONTINUOUS
 10
-61.6426367241
 20
-14.4002985041
 11
-61.6426367241
 21
-9.4032621613
  0
LINE
  5
27C
100
AcDbEntity
  8
DRAFT
100
AcDbLine
 62
7
  6
CONTINUOUS
 10
-61.6426367241
 20
3.9702988901
 11
-61.6426367241
 21
8.9673352329
  0
LINE
  5
27D
100
AcDbEntity
  8
DRAFT
100
AcDbLine
 62
7
  6
CONTINUOUS
 10
-61.5012153678
 20
-14.3100857066
 11
-61.5012153678
 21
-9.2141011525
  0
LINE
  5
27E
100
AcDbEntity
  8
DRAFT
100
AcDbLine
 62
7
  6
CONTINUOUS
 10
-61.5012153678
 20
4.0605116876
 11
-61.5012153678
 21
9.1564962416
  0
LINE
  5
27F
100
AcDbEntity
  8
DRAFT
100
AcDbLine
 62
7
  6
CONTINUOUS
 10
-61.2890833335
 20
-14.1747665104
 11
-61.2890833335
 21
-9.2205195617
  0
LINE
  5
280
100
AcDbEntity
  8
DRAFT
100
AcDbLine
 62
7
  6
CONTINUOUS
 10
-61.2890833335
 20
4.1958308838
 11
-61.2890833335
 21
9.1500778325
  0
LINE
  5
281
100
AcDbEntity
  8
DRAFT
100
AcDbLine
 62
7
  6
CONTINUOUS
 10
-61.1476619773
 20
-14.0845537129
 11
-61.1476619773
 21
-9.0313585529
  0
LINE
  5
282
100
AcDbEntity
  8
DRAFT
100
AcDbLine
 62
7
  6
CONTINUOUS
 10
-61.1476619773
 20
4.2860436813
 11
-61.1476619773
 21
9.3392388413
  0
LINE
  5
283
100
AcDbEntity
  8
DRAFT
100
AcDbLine
 62
7
  6
CONTINUOUS
 10
-60.9355299429
 20
-13.9492345167
 11
-60.9355299429
 21
-9.037776962
  0
LINE
  5
284
100
AcDbEntity
  8
DRAFT
100
AcDbLine
 62
7
  6
CONTINUOUS
 10
-60.9355299429
 20
4.4213628775
 11
-60.9355299429
 21
9.3328204322
  0
LINE
  5
285
100
AcDbEntity
  8
RACCORDO
100
AcDbLine
 62
7
  6
CONTINUOUS
 10
-60.5466210266
 20
-13.5461889321
 11
-60.5466210266
 21
-8.9917202784
  0
LINE
  5
286
100
AcDbEntity
  8
RACCORDO
100
AcDbLine
 62
7
  6
CONTINUOUS
 10
-60.5466210266
 20
4.8244084621
 11
-60.5466210266
 21
9.3788771158
  0
LWPOLYLINE
  5
287
100
AcDbEntity
  8
RACCORDO
100
AcDbPolyline
 62
7
  6
CONTINUOUS
 90
7
 70
0
 10
-60.6131004818
 20
-13.7230545491
 10
-60.5943103506
 20
-13.695741324
 10
-60.5776082723
 20
-13.6657753111
 10
-60.5643524776
 20
-13.6355933787
 10
-60.5549957103
 20
-13.606007816
 10
-60.5490852266
 20
-13.5762063338
 10
-60.5466210266
 20
-13.5461889321
  0
LWPOLYLINE
  5
288
100
AcDbEntity
  8
0
100
AcDbPolyline
 62
7
  6
CONTINUOUS
 90
7
 70
0
 10
8.5975186747
 20
-67.0572096173
 10
8.3675712276
 20
-67.0215130703
 10
8.1634928395
 20
-66.9535680061
 10
7.9918017867
 20
-66.8574518008
 10
7.8576938752
 20
-66.7358660331
 10
7.773060843
 20
-66.5967345249
 10
7.7473204036
 20
-66.4832323611
  0
LINE
  5
289
100
AcDbEntity
  8
0
100
AcDbLine
 62
250
  6
CONTINUOUS
 10
20.3748941839
 20
-84.8589846669
 11
20.102429283
 21
-84.7551244602
  0
LWPOLYLINE
  5
28A
100
AcDbEntity
  8
0
100
AcDbPolyline
 62
250
  6
CONTINUOUS
 90
10
 70
0
 10
-70.3427267465
 20
-29.6871785814
 10
-70.2159125064
 20
-29.8302772762
 10
-70.0856655548
 20
-29.9712836156
 10
-69.9523272911
 20
-30.1102867478
 10
-69.8164544151
 20
-30.2471286169
 10
-69.6782904311
 20
-30.3818510911
 10
-69.5377665626
 20
-30.5145702894
 10
-69.3949125986
 20
-30.6453171902
 10
-69.2498219767
 20
-30.7740902768
 10
-69.1025628313
 20
-30.9009137531
  0
LWPOLYLINE
  5
28B
100
AcDbEntity
  8
0
100
AcDbPolyline
 62
250
  6
CONTINUOUS
 90
10
 70
0
 10
-70.3427897796
 20
-29.6871079074
 10
-70.6379837477
 20
-29.3259523075
 10
-70.9138102427
 20
-28.9395777274
 10
-71.1626820135
 20
-28.5276310184
 10
-71.3771623767
 20
-28.0986405938
 10
-71.5601568999
 20
-27.6571650154
 10
-71.7183967095
 20
-27.198621777
 10
-71.8548405175
 20
-26.7265354297
 10
-71.9712871013
 20
-26.2473268107
 10
-72.0690162669
 20
-25.7618662189
  0
LWPOLYLINE
  5
28C
100
AcDbEntity
  8
0
100
AcDbPolyline
 62
7
  6
CONTINUOUS
 90
4
 70
0
 10
-65.8134596405
 20
-25.8468553775
 10
-65.9988438793
 20
-25.5325462812
 10
-66.1613952115
 20
-25.2104246689
 10
-66.2997682965
 20
-24.884141432
  0
LWPOLYLINE
  5
28D
100
AcDbEntity
  8
0
100
AcDbPolyline
 62
7
  6
CONTINUOUS
 90
9
 70
0
 10
-65.9507670721
 20
-24.0139637365
 10
-65.8907020543
 20
-24.1457167521
 10
-65.7739734776
 20
-24.2630016087
 10
-65.6076442315
 20
-24.3620540876
 10
-65.396278422
 20
-24.4399405166
 10
-65.1537174424
 20
-24.4897267301
 10
-64.906650033
 20
-24.5061353493
 10
-64.6730709679
 20
-24.4901348047
 10
-64.4590764065
 20
-24.4432065421
  0
LWPOLYLINE
  5
28E
100
AcDbEntity
  8
0
100
AcDbPolyline
 62
7
  6
CONTINUOUS
 90
5
 70
0
 10
-66.2997682965
 20
-24.884141432
 10
-66.4129880006
 20
-24.5557864108
 10
-66.500443614
 20
-24.2264207449
 10
-66.5606586937
 20
-23.9000023034
 10
-66.5923497106
 20
-23.5810353278
  0
LWPOLYLINE
  5
28F
100
AcDbEntity
  8
0
100
AcDbPolyline
 62
7
  6
CONTINUOUS
 90
9
 70
0
 10
-65.900892106
 20
-24.4767474649
 10
-65.8650410784
 20
-24.6345175655
 10
-65.7788120555
 20
-24.9156267046
 10
-65.6537485322
 20
-25.2103589044
 10
-65.4869846011
 20
-25.5049689253
 10
-65.297270833
 20
-25.7662466016
 10
-65.0973199477
 20
-25.9899555965
 10
-64.8818495638
 20
-26.1899847355
 10
-64.8470867011
 20
-26.2189836294
  0
LWPOLYLINE
  5
290
100
AcDbEntity
  8
0
100
AcDbPolyline
 62
7
  6
CONTINUOUS
 90
3
 70
0
 10
-65.9035100373
 20
-24.4629651045
 10
-65.9312006021
 20
-24.2991185558
 10
-65.9511317329
 20
-24.0140948235
  0
LWPOLYLINE
  5
291
100
AcDbEntity
  8
RACCORDO
100
AcDbPolyline
 62
7
  6
CONTINUOUS
 90
6
 70
0
 10
-60.5466210266
 20
-8.9917202784
 10
-60.5490852266
 20
-8.9645484731
 10
-60.5549957103
 20
-8.9415722693
 10
-60.5643524776
 20
-8.9227916671
 10
-60.5776082723
 20
-8.907917194
 10
-60.5879824646
 20
-8.9002047473
  0
LWPOLYLINE
  5
292
100
AcDbEntity
  8
RACCORDO
100
AcDbPolyline
 62
7
  6
CONTINUOUS
 90
6
 70
0
 10
-60.5466210266
 20
9.3788771158
 10
-60.5490852266
 20
9.4060489211
 10
-60.5549957103
 20
9.4290251249
 10
-60.5643524776
 20
9.4478057271
 10
-60.5776082723
 20
9.4626802002
 10
-60.5879824646
 20
9.4703926469
  0
LWPOLYLINE
  5
293
100
AcDbEntity
  8
0
100
AcDbPolyline
 62
250
  6
CONTINUOUS
 90
10
 70
0
 10
-47.1822425388
 20
14.4983371694
 10
-47.1097605593
 20
14.8347950875
 10
-47.0356861593
 20
15.169994691
 10
-46.9600543259
 20
15.5039085847
 10
-46.8830867588
 20
15.8357136598
 10
-46.8046402445
 20
16.1661782193
 10
-46.7241613427
 20
16.4976715142
 10
-46.6414433257
 20
16.8309755948
 10
-46.5566714895
 20
17.1652757654
 10
-46.4698398679
 20
17.5005543846
  0
LWPOLYLINE
  5
294
100
AcDbEntity
  8
0
100
AcDbPolyline
 62
250
  6
CONTINUOUS
 90
10
 70
0
 10
-48.836762746
 20
3.9422799293
 10
-48.7608184947
 20
4.1087543099
 10
-48.6916729125
 20
4.2773864158
 10
-48.6296228418
 20
4.4474878002
 10
-48.5748134864
 20
4.6188801845
 10
-48.5277617256
 20
4.7902966835
 10
-48.4891055301
 20
4.9594172194
 10
-48.4590123395
 20
5.1250239375
 10
-48.4374298045
 20
5.2869652153
 10
-48.4244332819
 20
5.4445819542
  0
LINE
  5
295
100
AcDbEntity
  8
0
100
AcDbLine
 62
7
  6
CONTINUOUS
 10
-61.2258710633
 20
-8.5993215063
 11
-62.4415266725
 21
-9.3012333222
  0
LINE
  5
296
100
AcDbEntity
  8
RACCORDO
100
AcDbLine
 62
7
  6
CONTINUOUS
 10
-61.3542759434
 20
-8.6734465454
 11
-61.2258710633
 21
-8.5993215063
  0
LINE
  5
297
100
AcDbEntity
  8
RACCORDO
100
AcDbLine
 62
7
  6
CONTINUOUS
 10
-60.6806409609
 20
-8.9060314423
 11
-60.9355299429
 21
-9.037776962
  0
LINE
  5
298
100
AcDbEntity
  8
DRAFT
100
AcDbLine
 62
7
  6
CONTINUOUS
 10
-61.1476619773
 20
-9.1474225218
 11
-61.2890833335
 21
-9.2205195617
  0
LINE
  5
299
100
AcDbEntity
  8
DRAFT
100
AcDbLine
 62
7
  6
CONTINUOUS
 10
-61.5012153678
 20
-9.3301651214
 11
-61.6426367241
 21
-9.4032621613
  0
LINE
  5
29A
100
AcDbEntity
  8
DRAFT
100
AcDbLine
 62
7
  6
CONTINUOUS
 10
-61.8547687584
 20
-9.5129077211
 11
-61.9961901147
 21
-9.5860047609
  0
LINE
  5
29B
100
AcDbEntity
  8
DRAFT
100
AcDbLine
 62
7
  6
CONTINUOUS
 10
-62.208322149
 20
-9.6956503207
 11
-62.3497435053
 21
-9.7687473606
  0
LWPOLYLINE
  5
29C
100
AcDbEntity
  8
0
100
AcDbPolyline
 62
250
  6
CONTINUOUS
 90
10
 70
0
 10
-64.2716817744
 20
-6.2344653285
 10
-64.4644332284
 20
-6.3159352298
 10
-64.684877764
 20
-6.3647955379
 10
-64.9232977536
 20
-6.3807413418
 10
-65.1727677105
 20
-6.3631401265
 10
-65.4148475917
 20
-6.3117706132
 10
-65.6230862111
 20
-6.2325666358
 10
-65.7846186532
 20
-6.1330143873
 10
-65.8962896478
 20
-6.0164856669
 10
-65.9528538582
 20
-5.8870386434
  0
LWPOLYLINE
  5
29D
100
AcDbEntity
  8
0
100
AcDbPolyline
 62
7
  6
CONTINUOUS
 90
3
 70
0
 10
20.3127297364
 20
-84.9942911589
 10
20.3736253323
 20
-85.0236984126
 10
20.5341595291
 20
-85.0940307756
  0
LWPOLYLINE
  5
29E
100
AcDbEntity
  8
0
100
AcDbPolyline
 62
250
  6
CONTINUOUS
 90
6
 70
0
 10
20.1028418833
 20
-84.7553520761
 10
20.0757015602
 20
-84.7415687168
 10
20.0495468153
 20
-84.727811729
 10
20.0226988659
 20
-84.7131797304
 10
19.9954026304
 20
-84.6978774721
 10
19.9681927855
 20
-84.682362393
  0
LWPOLYLINE
  5
29F
100
AcDbEntity
  8
0
100
AcDbPolyline
 62
250
  6
CONTINUOUS
 90
10
 70
0
 10
12.7983774104
 20
-78.5068118357
 10
13.0603059614
 20
-78.6416591148
 10
13.3190156243
 20
-78.770897597
 10
13.5750986317
 20
-78.8947982845
 10
13.828109016
 20
-79.012456604
 10
14.0780802138
 20
-79.1234624669
 10
14.324874252
 20
-79.2271606863
 10
14.5681407401
 20
-79.3226403122
 10
14.8075004133
 20
-79.4089688462
 10
15.043107963
 20
-79.4855991482
  0
LWPOLYLINE
  5
2A0
100
AcDbEntity
  8
0
100
AcDbPolyline
 62
250
  6
CONTINUOUS
 90
4
 70
0
 10
20.3127297364
 20
-84.9942911589
 10
20.2106021771
 20
-84.9374865401
 10
20.0867058217
 20
-84.8492521679
 10
19.9681697969
 20
-84.7424133932
  0
LWPOLYLINE
  5
2A1
100
AcDbEntity
  8
0
100
AcDbPolyline
 62
7
  6
CONTINUOUS
 90
5
 70
0
 10
20.0187825878
 20
-84.8373402942
 10
20.1048554374
 20
-84.8858316325
 10
20.1934669967
 20
-84.9334761476
 10
20.2817414947
 20
-84.9789203383
 10
20.3224863987
 20
-84.9991639169
  0
LWPOLYLINE
  5
2A2
100
AcDbEntity
  8
0
100
AcDbPolyline
 62
7
  6
CONTINUOUS
 90
6
 70
0
 10
-72.5986340226
 20
-31.3516047892
 10
-72.5618032056
 20
-31.3751024009
 10
-72.4318496208
 20
-31.4560590988
 10
-72.3078769951
 20
-31.5290541179
 10
-72.189466601
 20
-31.5964691525
 10
-72.1771595738
 20
-31.6035513253
  0
LWPOLYLINE
  5
2A3
100
AcDbEntity
  8
0
100
AcDbPolyline
 62
250
  6
CONTINUOUS
 90
3
 70
0
 10
-72.7371474088
 20
-31.1506154659
 10
-73.0175906117
 20
-30.9342938079
 10
-73.2793124839
 20
-30.6697279218
  0
LWPOLYLINE
  5
2A4
100
AcDbEntity
  8
0
100
AcDbPolyline
 62
250
  6
CONTINUOUS
 90
10
 70
0
 10
-69.1025519828
 20
-30.9009229944
 10
-68.8663805074
 20
-31.0968423868
 10
-68.6265124187
 20
-31.287292954
 10
-68.3828692798
 20
-31.4729909572
 10
-68.1357643259
 20
-31.654480948
 10
-67.8855757414
 20
-31.8322072204
 10
-67.6326241444
 20
-32.0065405359
 10
-67.3769543849
 20
-32.1779540562
 10
-67.1185250091
 20
-32.3472111936
 10
-66.8574713504
 20
-32.5144743415
  0
LWPOLYLINE
  5
2A5
100
AcDbEntity
  8
0
100
AcDbPolyline
 62
250
  6
CONTINUOUS
 90
10
 70
0
 10
-66.8080721094
 20
-29.1025262932
 10
-66.6160889652
 20
-29.3019225757
 10
-66.4193528835
 20
-29.4968828418
 10
-66.2178075737
 20
-29.6874872385
 10
-66.0114864268
 20
-29.873759079
 10
-65.801192189
 20
-30.0550140913
 10
-65.5868799192
 20
-30.2312455761
 10
-65.3684687001
 20
-30.402320634
 10
-65.1464533431
 20
-30.5677468538
 10
-64.9213944912
 20
-30.7270650472
  0
LWPOLYLINE
  5
2A6
100
AcDbEntity
  8
0
100
AcDbPolyline
 62
250
  6
CONTINUOUS
 90
10
 70
0
 10
-66.8081157272
 20
-29.1024847967
 10
-66.9260985488
 20
-28.9751058523
 10
-67.0419131051
 20
-28.8462698948
 10
-67.1555080302
 20
-28.7160406997
 10
-67.2668558235
 20
-28.5844553469
 10
-67.3758961827
 20
-28.4515955159
 10
-67.4824901581
 20
-28.3176487373
 10
-67.5865871176
 20
-28.1826988346
 10
-67.6882279586
 20
-28.0467204114
 10
-67.7874763852
 20
-27.9096445201
  0
LINE
  5
2A7
100
AcDbEntity
  8
0
100
AcDbLine
 62
7
  6
CONTINUOUS
 10
-65.2914014832
 20
-26.5381338689
 11
-65.385426463
 21
-26.4302588333
  0
LWPOLYLINE
  5
2A8
100
AcDbEntity
  8
0
100
AcDbPolyline
 62
7
  6
CONTINUOUS
 90
3
 70
0
 10
-65.3854264627
 20
-26.4302588331
 10
-65.6081053397
 20
-26.1476447716
 10
-65.8134596405
 20
-25.8468553775
  0
LWPOLYLINE
  5
2A9
100
AcDbEntity
  8
0
100
AcDbPolyline
 62
250
  6
CONTINUOUS
 90
9
 70
0
 10
-64.5800241401
 20
-26.4068738609
 10
-64.6683239398
 20
-26.2837040855
 10
-64.716116883
 20
-26.1209312591
 10
-64.7222127695
 20
-25.9277795707
 10
-64.6864563031
 20
-25.7125197848
 10
-64.6099086348
 20
-25.4880635251
 10
-64.4987305391
 20
-25.2720821447
 10
-64.3608417793
 20
-25.0776166623
 10
-64.2020554837
 20
-24.9128618007
  0
LWPOLYLINE
  5
2AA
100
AcDbEntity
  8
0
100
AcDbPolyline
 62
250
  6
CONTINUOUS
 90
10
 70
0
 10
-65.9519556312
 20
-5.886990688
 10
-65.978466926
 20
-5.7854113192
 10
-66.0169438007
 20
-5.6846136018
 10
-66.0672398163
 20
-5.5850355116
 10
-66.1294216255
 20
-5.4868103996
 10
-66.2031763107
 20
-5.3907366113
 10
-66.2874497408
 20
-5.2981851454
 10
-66.3814251722
 20
-5.209824872
 10
-66.4848846017
 20
-5.1257152537
 10
-66.5973625148
 20
-5.0462110722
  0
LWPOLYLINE
  5
2AB
100
AcDbEntity
  8
0
100
AcDbPolyline
 62
250
  6
CONTINUOUS
 90
10
 70
0
 10
-47.8893820154
 20
10.6089912541
 10
-47.9718589373
 20
10.0390511682
 10
-48.04893984
 20
9.4672634002
 10
-48.1204827077
 20
8.8937764058
 10
-48.1864223154
 20
8.3180369847
 10
-48.2465232567
 20
7.7409145386
 10
-48.3004571978
 20
7.1646679362
 10
-48.3480972271
 20
6.5901260911
 10
-48.3894407116
 20
6.0167211064
 10
-48.4244163652
 20
5.4445892537
  0
LWPOLYLINE
  5
2AC
100
AcDbEntity
  8
0
100
AcDbPolyline
 62
250
  6
CONTINUOUS
 90
5
 70
0
 10
-47.6089191644
 20
12.3314242892
 10
-47.6831854339
 20
11.9040829764
 10
-47.7543140632
 20
11.4761599338
 10
-47.8229266973
 20
11.044814033
 10
-47.8893918311
 20
10.6089438772
  0
LINE
  5
2AD
100
AcDbEntity
  8
0
100
AcDbLine
 62
250
  6
CONTINUOUS
 10
-47.5312451415
 20
12.7589967779
 11
-47.6089191644
 21
12.3314242892
  0
LINE
  5
2AE
100
AcDbEntity
  8
0
100
AcDbLine
 62
250
  6
CONTINUOUS
 10
-47.4502962766
 20
13.1859657628
 11
-47.5312451415
 21
12.7589967779
  0
LINE
  5
2AF
100
AcDbEntity
  8
0
100
AcDbLine
 62
250
  6
CONTINUOUS
 10
-47.3657183214
 20
13.6147333748
 11
-47.4502962766
 21
13.1859657628
  0
LINE
  5
2B0
100
AcDbEntity
  8
0
100
AcDbLine
 62
250
  6
CONTINUOUS
 10
-47.2766246137
 20
14.0506299889
 11
-47.3657183214
 21
13.6147333748
  0
LINE
  5
2B1
100
AcDbEntity
  8
0
100
AcDbLine
 62
250
  6
CONTINUOUS
 10
-47.1822908327
 20
14.4982834372
 11
-47.2766246137
 21
14.0506299889
  0
LWPOLYLINE
  5
2B2
100
AcDbEntity
  8
0
100
AcDbPolyline
 62
250
  6
CONTINUOUS
 90
10
 70
0
 10
-62.8141888572
 20
-28.2141598091
 10
-63.0431871559
 20
-28.5111487444
 10
-63.274742445
 20
-28.8047842895
 10
-63.5081206776
 20
-29.0944400556
 10
-63.741995787
 20
-29.3787853579
 10
-63.9762263541
 20
-29.6579488261
 10
-64.2118941188
 20
-29.9332755457
 10
-64.4489448396
 20
-30.2044633885
 10
-64.6859267844
 20
-30.4695798668
 10
-64.9215770583
 20
-30.7269390653
  0
LWPOLYLINE
  5
2B3
100
AcDbEntity
  8
0
100
AcDbPolyline
 62
250
  6
CONTINUOUS
 90
10
 70
0
 10
-64.9213944912
 20
-30.7270650475
 10
-65.1392824722
 20
-30.9601357431
 10
-65.3546592952
 20
-31.1843573668
 10
-65.5684672637
 20
-31.3999609929
 10
-65.7821625309
 20
-31.6076323767
 10
-65.9962118545
 20
-31.8070476495
 10
-66.2100617433
 20
-31.9971173292
 10
-66.4240999285
 20
-32.1778915383
 10
-66.6396855167
 20
-32.3503004412
 10
-66.8575690045
 20
-32.5144124256
  0
LWPOLYLINE
  5
2B4
100
AcDbEntity
  8
RACCORDO
100
AcDbPolyline
 62
7
  6
CONTINUOUS
 90
4
 70
0
 10
-60.6806409609
 20
-13.786640629
 10
-60.6560394151
 20
-13.7680980569
 10
-60.633525922
 20
-13.7469026969
 10
-60.6131004818
 20
-13.7230545491
  0
LINE
  5
2B5
100
AcDbEntity
  8
RACCORDO
100
AcDbLine
 62
7
  6
CONTINUOUS
 10
-60.6806409609
 20
-13.786640629
 11
-60.9355299429
 21
-13.9492345167
  0
LINE
  5
2B6
100
AcDbEntity
  8
DRAFT
100
AcDbLine
 62
7
  6
CONTINUOUS
 10
-61.1476619773
 20
-14.0845537129
 11
-61.2890833335
 21
-14.1747665104
  0
LINE
  5
2B7
100
AcDbEntity
  8
DRAFT
100
AcDbLine
 62
7
  6
CONTINUOUS
 10
-61.5012153678
 20
-14.3100857066
 11
-61.6426367241
 21
-14.4002985041
  0
LINE
  5
2B8
100
AcDbEntity
  8
DRAFT
100
AcDbLine
 62
7
  6
CONTINUOUS
 10
-61.8547687584
 20
-14.5356177003
 11
-61.9961901147
 21
-14.6258304978
  0
LINE
  5
2B9
100
AcDbEntity
  8
DRAFT
100
AcDbLine
 62
7
  6
CONTINUOUS
 10
-62.208322149
 20
-14.761149694
 11
-62.3497435053
 21
-14.8513624915
  0
LWPOLYLINE
  5
2BA
100
AcDbEntity
  8
RACCORDO
100
AcDbPolyline
 62
7
  6
CONTINUOUS
 90
6
 70
0
 10
-61.2258710633
 20
-8.5993215063
 10
-61.1986324146
 20
-8.5877108676
 10
-61.1704924313
 20
-8.5833458161
 10
-61.1426064676
 20
-8.5860263399
 10
-61.1162698395
 20
-8.5954350793
 10
-61.1088861604
 20
-8.5994291099
  0
LWPOLYLINE
  5
2BB
100
AcDbEntity
  8
0
100
AcDbPolyline
 62
7
  6
CONTINUOUS
 90
10
 70
0
 10
7.9302306401
 20
-69.0553281635
 10
8.0379512458
 20
-69.1064110563
 10
8.1444070479
 20
-69.1511718465
 10
8.2494884593
 20
-69.1896341609
 10
8.353092896
 20
-69.2218091445
 10
8.4550524515
 20
-69.2476849512
 10
8.5549943626
 20
-69.2672119203
 10
8.6527121557
 20
-69.2804089647
 10
8.7482629586
 20
-69.2873346321
 10
8.8416133389
 20
-69.2880069657
  0
LWPOLYLINE
  5
2BC
100
AcDbEntity
  8
0
100
AcDbPolyline
 62
7
  6
CONTINUOUS
 90
3
 70
0
 10
-72.178938299
 20
-31.6038501927
 10
-70.3744010471
 20
-32.6346850456
 10
-67.7302423816
 20
-34.1564394701
  0
LINE
  5
2BD
100
AcDbEntity
  8
0
100
AcDbLine
 62
250
  6
CONTINUOUS
 10
-72.44454048
 20
-31.3239793449
 11
-72.5747223002
 21
-31.2493965667
  0
LINE
  5
2BE
100
AcDbEntity
  8
0
100
AcDbLine
 62
7
  6
CONTINUOUS
 10
-5.9983987455
 20
-69.8015439397
 11
6.8175135889
 21
-77.1962210242
  0
LINE
  5
2BF
100
AcDbEntity
  8
0
100
AcDbLine
 62
7
  6
CONTINUOUS
 10
-67.7302423816
 20
-34.1564394701
 11
-62.0986597885
 21
-37.4051180368
  0
LWPOLYLINE
  5
2C0
100
AcDbEntity
  8
0
100
AcDbPolyline
 62
250
  6
CONTINUOUS
 90
7
 70
0
 10
-72.5747223002
 20
-31.2493965667
 10
-72.6020596947
 20
-31.2336225144
 10
-72.6292778389
 20
-31.2176585266
 10
-72.6563963894
 20
-31.2014207276
 10
-72.6834228213
 20
-31.1848587175
 10
-72.7103411706
 20
-31.1679374401
 10
-72.7371474088
 20
-31.1506154659
  0
LINE
  5
2C1
100
AcDbEntity
  8
0
100
AcDbLine
 62
7
  6
CONTINUOUS
 10
-6.164789647
 20
-69.5931367989
 11
-46.4698358489
 21
-46.3215184254
  0
LINE
  5
2C2
100
AcDbEntity
  8
0
100
AcDbLine
 62
7
  6
CONTINUOUS
 10
6.8175135889
 20
-77.1962210242
 11
9.8049847068
 21
-78.9213914407
  0
LINE
  5
2C3
100
AcDbEntity
  8
0
100
AcDbLine
 62
7
  6
CONTINUOUS
 10
-62.0986597885
 20
-37.4051180368
 11
-55.9686513208
 21
-40.9453077963
  0
LWPOLYLINE
  5
2C4
100
AcDbEntity
  8
0
100
AcDbPolyline
 62
250
  6
CONTINUOUS
 90
15
 70
0
 10
-50.5349491996
 20
-39.5423144474
 10
-4.9489189435
 20
-65.8631351392
 10
-3.6755365854
 20
-66.5951924903
 10
-2.4323287286
 20
-67.3034082182
 10
-1.2187889559
 20
-67.9870630023
 10
-0.0332867621
 20
-68.6473713052
 10
1.1240390254
 20
-69.2853074841
 10
2.253308538
 20
-69.9015155807
 10
3.3565233516
 20
-70.4974195969
 10
4.4334310601
 20
-71.0733819661
 10
5.4842660106
 20
-71.629787264
 10
6.5115244672
 20
-72.1679876378
 10
7.5148072264
 20
-72.6885675864
 10
8.4962937557
 20
-73.1914771391
 10
9.4476543641
 20
-73.6666783689
  0
LINE
  5
2C5
100
AcDbEntity
  8
0
100
AcDbLine
 62
7
  6
CONTINUOUS
 10
-55.9686513208
 20
-40.9453077963
 11
-5.9983987455
 21
-69.8015439397
  0
LWPOLYLINE
  5
2C6
100
AcDbEntity
  8
0
100
AcDbPolyline
 62
250
  6
CONTINUOUS
 90
12
 70
0
 10
-50.8327010153
 20
-42.0354248936
 10
-3.1958461747
 20
-69.5403708109
 10
-1.4179210903
 20
-70.5637699759
 10
0.3171703255
 20
-71.5558118363
 10
2.010296715
 20
-72.5170711417
 10
3.6642993037
 20
-73.4505701068
 10
5.2792274646
 20
-74.3569490754
 10
6.8549904542
 20
-75.2365105392
 10
8.3942437491
 20
-76.0912421928
 10
9.8979496084
 20
-76.9220328243
 10
11.3651225281
 20
-77.7288496757
 10
12.7985635803
 20
-78.5070560674
  0
LWPOLYLINE
  5
2C7
100
AcDbEntity
  8
0
100
AcDbPolyline
 62
7
  6
CONTINUOUS
 90
3
 70
0
 10
9.8049847068
 20
-78.9213914407
 10
15.4332394861
 20
-82.1739752051
 10
18.0756299497
 20
-83.7046115573
  0
LWPOLYLINE
  5
2C8
100
AcDbEntity
  8
0
100
AcDbPolyline
 62
250
  6
CONTINUOUS
 90
4
 70
0
 10
-72.44454048
 20
-31.3239793449
 10
-69.2816674004
 20
-33.1501982531
 10
-68.9840862501
 20
-33.3208233771
 10
-46.4703258643
 20
-46.3203410591
  0
LWPOLYLINE
  5
2C9
100
AcDbEntity
  8
0
100
AcDbPolyline
 62
250
  6
CONTINUOUS
 90
7
 70
0
 10
-50.5349491996
 20
-39.5423144474
 10
-51.8118960455
 20
-38.8017767319
 10
-53.0576839828
 20
-38.0727597974
 10
-54.2729179611
 20
-37.3539284754
 10
-55.4593852575
 20
-36.6445595442
 10
-56.6169648294
 20
-35.9457911639
 10
-57.7457878992
 20
-35.2581157245
  0
LINE
  5
2CA
100
AcDbEntity
  8
0
100
AcDbLine
 62
250
  6
CONTINUOUS
 10
19.8581905074
 20
-84.6186121333
 11
-6.1652765106
 21
-69.5919668495
  0
LINE
  5
2CB
100
AcDbEntity
  8
0
100
AcDbLine
 62
250
  6
CONTINUOUS
 10
19.9681927855
 20
-84.682362393
 11
19.8581905074
 21
-84.6186121333
  0
LINE
  5
2CC
100
AcDbEntity
  8
0
100
AcDbLine
 62
7
  6
CONTINUOUS
 10
18.0756299497
 20
-83.7046115573
 11
20.0187825878
 21
-84.8373402942
  0
LWPOLYLINE
  5
2CD
100
AcDbEntity
  8
0
100
AcDbPolyline
 62
250
  6
CONTINUOUS
 90
11
 70
0
 10
-66.8575690045
 20
-32.5144124256
 10
-65.4085225687
 20
-33.4003982809
 10
-63.9278851112
 20
-34.2959403328
 10
-62.4131824513
 20
-35.2083821114
 10
-60.865568581
 20
-36.1363264123
 10
-59.2843703434
 20
-37.0795925947
 10
-57.6674399979
 20
-38.0390857497
 10
-56.0149680085
 20
-39.0145061947
 10
-54.3266892289
 20
-40.005422175
 10
-52.599614003
 20
-41.0122047946
 10
-50.8327010153
 20
-42.0354248936
  0
LWPOLYLINE
  5
2CE
100
AcDbEntity
  8
0
100
AcDbPolyline
 62
250
  6
CONTINUOUS
 90
4
 70
0
 10
-57.7457878992
 20
-35.2581157245
 10
-58.8479881813
 20
-34.580579451
 10
-59.9233381432
 20
-33.9138355435
 10
-60.9720858776
 20
-33.2579878848
  0
LWPOLYLINE
  5
2CF
100
AcDbEntity
  8
0
100
AcDbPolyline
 62
250
  6
CONTINUOUS
 90
3
 70
0
 10
-60.9720858776
 20
-33.2579878848
 10
-61.9967760977
 20
-32.6114939537
 10
-62.9969790635
 20
-31.9754483676
  0
LWPOLYLINE
  5
2D0
100
AcDbEntity
  8
0
100
AcDbPolyline
 62
250
  6
CONTINUOUS
 90
3
 70
0
 10
-62.9969790635
 20
-31.9754483676
 10
-63.9746593985
 20
-31.3474510323
 10
-64.9213944912
 20
-30.7270650475
  0
LWPOLYLINE
  5
2D1
100
AcDbEntity
  8
0
100
AcDbPolyline
 62
250
  6
CONTINUOUS
 90
5
 70
0
 10
-46.3034498046
 20
-46.5299125991
 10
-46.3311397105
 20
-46.5120467563
 10
-46.3876191861
 20
-46.4612173088
 10
-46.4340743736
 20
-46.3973059321
 10
-46.4698743246
 20
-46.3215585227
  0
LWPOLYLINE
  5
2D2
100
AcDbEntity
  8
0
100
AcDbPolyline
 62
250
  6
CONTINUOUS
 90
5
 70
0
 10
-5.9983987455
 20
-69.8015439397
 10
-6.0260900546
 20
-69.7836770905
 10
-6.0825691383
 20
-69.7328475209
 10
-6.1290239432
 20
-69.6689362041
 10
-6.1648235641
 20
-69.5931890634
  0
LWPOLYLINE
  5
2D3
100
AcDbEntity
  8
0
100
AcDbPolyline
 62
250
  6
CONTINUOUS
 90
5
 70
0
 10
-74.107100321
 20
1.5473187969
 10
-74.155050476
 20
1.6196618034
 10
-74.1860852252
 20
1.6939152796
 10
-74.2003198888
 20
1.7691189849
 10
-74.2013540982
 20
1.7961764403
  0
LWPOLYLINE
  5
2D4
100
AcDbEntity
  8
0
100
AcDbPolyline
 62
250
  6
CONTINUOUS
 90
10
 70
0
 10
-72.3437993052
 20
22.4194136594
 10
-72.5561701443
 20
22.9491623974
 10
-72.7637088418
 20
23.4772240462
 10
-72.9666753267
 20
24.0042457109
 10
-73.1651754798
 20
24.5304617815
 10
-73.3596298374
 20
25.0569321936
 10
-73.5507427207
 20
25.5855466273
 10
-73.738895325
 20
26.117380715
 10
-73.9241766159
 20
26.6526919065
 10
-74.106830457
 20
27.192160723
  0
LWPOLYLINE
  5
2D5
100
AcDbEntity
  8
0
100
AcDbPolyline
 62
250
  6
CONTINUOUS
 90
3
 70
0
 10
-46.4698358489
 20
-46.3215184254
 10
-46.5533940675
 20
-46.0954963591
 10
-46.6359171618
 20
-45.8657184603
  0
LWPOLYLINE
  5
2D6
100
AcDbEntity
  8
0
100
AcDbPolyline
 62
250
  6
CONTINUOUS
 90
10
 70
0
 10
-74.1068606491
 20
30.1511034905
 10
-73.8922153818
 20
29.5601115576
 10
-73.674648954
 20
28.969832687
 10
-73.454153643
 20
28.3802591637
 10
-73.2307282121
 20
27.791400223
 10
-73.0043585809
 20
27.2032309841
 10
-72.7750170267
 20
26.6156927848
 10
-72.5426883283
 20
26.0287611094
 10
-72.3073705645
 20
25.4424452532
 10
-72.0690552253
 20
24.8567374901
  0
LWPOLYLINE
  5
2D7
100
AcDbEntity
  8
0
100
AcDbPolyline
 62
250
  6
CONTINUOUS
 90
4
 70
0
 10
-46.6359171618
 20
-45.8657184603
 10
-46.7173531297
 20
-45.6321512942
 10
-46.7975616139
 20
-45.395025387
 10
-46.8765814565
 20
-45.1540484301
  0
LWPOLYLINE
  5
2D8
100
AcDbEntity
  8
0
100
AcDbPolyline
 62
250
  6
CONTINUOUS
 90
5
 70
0
 10
-74.1059793373
 20
31.3940078372
 10
-74.159667601
 20
31.5500373142
 10
-74.1952578764
 20
31.703266602
 10
-74.2126698261
 20
31.8511441048
 10
-74.2146608758
 20
31.9260460159
  0
LWPOLYLINE
  5
2D9
100
AcDbEntity
  8
0
100
AcDbPolyline
 62
250
  6
CONTINUOUS
 90
5
 70
0
 10
-74.108843872
 20
31.1511518066
 10
-74.1615950709
 20
31.3078272346
 10
-74.1960003963
 20
31.4588085127
 10
-74.2125024658
 20
31.6054040918
 10
-74.2141113829
 20
31.6739664444
  0
LWPOLYLINE
  5
2DA
100
AcDbEntity
  8
0
100
AcDbPolyline
 62
250
  6
CONTINUOUS
 90
5
 70
0
 10
-46.8765814565
 20
-45.1540484301
 10
-46.9546098758
 20
-44.9083856226
 10
-47.0316549738
 20
-44.6577178888
 10
-47.1075565668
 20
-44.4022616025
 10
-47.1822391732
 20
-44.141968044
  0
LWPOLYLINE
  5
2DB
100
AcDbEntity
  8
0
100
AcDbPolyline
 62
250
  6
CONTINUOUS
 90
10
 70
0
 10
-47.1822596393
 20
-44.1420567794
 10
-47.2766401388
 20
-43.803142249
 10
-47.3657571141
 20
-43.4700212653
 10
-47.4503486877
 20
-43.138849376
 10
-47.5313004797
 20
-42.8053341471
 10
-47.6089684874
 20
-42.4674745196
 10
-47.6832261527
 20
-42.1259285856
 10
-47.7543462208
 20
-41.7801904827
 10
-47.8229448629
 20
-41.4281439339
 10
-47.8893874066
 20
-41.0691766601
  0
LWPOLYLINE
  5
2DC
100
AcDbEntity
  8
0
100
AcDbPolyline
 62
250
  6
CONTINUOUS
 90
10
 70
0
 10
-47.8893874608
 20
-41.0691771246
 10
-47.9723494972
 20
-40.5916341928
 10
-48.0498183707
 20
-40.1061067529
 10
-48.1216567341
 20
-39.6125845585
 10
-48.1879004438
 20
-39.1096717978
 10
-48.2482031812
 20
-38.5987296361
 10
-48.3020113611
 20
-38.0840030284
 10
-48.3492243588
 20
-37.5670342384
 10
-48.3900196531
 20
-37.0465361107
 10
-48.4244199656
 20
-36.5226233375
  0
LINE
  5
2DD
100
AcDbEntity
  8
RACCORDO
100
AcDbLine
 62
250
  6
CONTINUOUS
 10
-48.8091227896
 20
-29.4680835792
 11
-48.8091227896
 21
-30.0895425239
  0
LINE
  5
2DE
100
AcDbEntity
  8
RACCORDO
100
AcDbLine
 62
7
  6
CONTINUOUS
 10
-48.7577517547
 20
-29.3908140541
 11
-48.7577517547
 21
-29.9922383189
  0
LINE
  5
2DF
100
AcDbEntity
  8
DRAFT
100
AcDbLine
 62
7
  6
CONTINUOUS
 10
-54.5321093685
 20
-27.9278189614
 11
-54.4204846669
 21
-27.7473167456
  0
LINE
  5
2E0
100
AcDbEntity
  8
DRAFT
100
AcDbLine
 62
7
  6
CONTINUOUS
 10
-54.1600270298
 20
-27.7343800471
 11
-54.0484023282
 21
-27.5538778313
  0
LINE
  5
2E1
100
AcDbEntity
  8
DRAFT
100
AcDbLine
 62
7
  6
CONTINUOUS
 10
-53.7879446912
 20
-27.5409411328
 11
-53.6763199896
 21
-27.360438917
  0
LINE
  5
2E2
100
AcDbEntity
  8
DRAFT
100
AcDbLine
 62
7
  6
CONTINUOUS
 10
-53.4158623525
 20
-27.3475022186
 11
-53.3042376509
 21
-27.1670000028
  0
LINE
  5
2E3
100
AcDbEntity
  8
0
100
AcDbLine
 62
250
  6
CONTINUOUS
 10
-66.8080645937
 20
-29.1025391829
 11
-66.3032054923
 21
-28.6898291384
  0
LINE
  5
2E4
100
AcDbEntity
  8
0
100
AcDbLine
 62
250
  6
CONTINUOUS
 10
-66.3032054923
 20
-28.6898291384
 11
-65.7935589033
 21
-28.2802536216
  0
LINE
  5
2E5
100
AcDbEntity
  8
0
100
AcDbLine
 62
250
  6
CONTINUOUS
 10
-65.7935589033
 20
-28.2802536216
 11
-65.27524986
 21
-27.8706917574
  0
LWPOLYLINE
  5
2E6
100
AcDbEntity
  8
0
100
AcDbPolyline
 62
250
  6
CONTINUOUS
 90
3
 70
0
 10
-65.27524986
 20
-27.8706917574
 10
-64.7450659114
 20
-27.4585802261
 10
-64.4740397634
 20
-27.2503962524
  0
LINE
  5
2E7
100
AcDbEntity
  8
0
100
AcDbLine
 62
250
  6
CONTINUOUS
 10
-64.2020554837
 20
-24.9128618007
 11
-64.0298457583
 21
-24.7867692406
  0
LWPOLYLINE
  5
2E8
100
AcDbEntity
  8
0
100
AcDbPolyline
 62
250
  6
CONTINUOUS
 90
3
 70
0
 10
-68.6389101332
 20
-28.4979103972
 10
-68.3548823489
 20
-28.2989015177
 10
-68.07091981
 20
-28.1023363943
  0
LWPOLYLINE
  5
2E9
100
AcDbEntity
  8
0
100
AcDbPolyline
 62
250
  6
CONTINUOUS
 90
8
 70
0
 10
-69.1025628313
 20
-30.9009137531
 10
-68.8502139642
 20
-30.7265513602
 10
-68.5979327617
 20
-30.5434655883
 10
-68.3455414486
 20
-30.3526914969
 10
-68.0932195877
 20
-30.1556001563
 10
-67.8404040765
 20
-29.9530410133
 10
-67.585804315
 20
-29.7452912106
 10
-66.8081157272
 20
-29.1024847967
  0
LWPOLYLINE
  5
2EA
100
AcDbEntity
  8
0
100
AcDbPolyline
 62
250
  6
CONTINUOUS
 90
5
 70
0
 10
-70.3427230825
 20
-29.6871820091
 10
-70.0572771917
 20
-29.4930308514
 10
-69.771990891
 20
-29.2957679022
 10
-69.4871834751
 20
-29.0964939671
 10
-68.6389101332
 20
-28.4979103972
  0
LINE
  5
2EB
100
AcDbEntity
  8
0
100
AcDbLine
 62
250
  6
CONTINUOUS
 10
-68.07091981
 20
-28.1023363943
 11
-67.787476862
 21
-27.9096458473
  0
LWPOLYLINE
  5
2EC
100
AcDbEntity
  8
0
100
AcDbPolyline
 62
250
  6
CONTINUOUS
 90
10
 70
0
 10
-67.7874717088
 20
-27.9096521022
 10
-67.5252676604
 20
-27.734956525
 10
-67.2644220929
 20
-27.5643342639
 10
-67.0037089637
 20
-27.3970786889
 10
-66.7409139012
 20
-27.2318642657
 10
-66.4754805247
 20
-27.0684158748
 10
-66.2085179149
 20
-26.9074054167
 10
-65.9393577724
 20
-26.7483366693
 10
-65.6655348937
 20
-26.5896402735
 10
-65.3854264627
 20
-26.4302588331
  0
LINE
  5
2ED
100
AcDbEntity
  8
0
100
AcDbLine
 62
250
  6
CONTINUOUS
 10
-62.2304502072
 20
-23.7118008287
 11
-64.0298435881
 21
-24.7870142914
  0
LWPOLYLINE
  5
2EE
100
AcDbEntity
  8
0
100
AcDbPolyline
 62
250
  6
CONTINUOUS
 90
10
 70
0
 10
-72.0690162669
 20
-25.7618662189
 10
-72.3072310882
 20
-25.899019557
 10
-72.542483297
 20
-26.0378619413
 10
-72.7747789812
 20
-26.1783965287
 10
-73.0041210012
 20
-26.3206244044
 10
-73.2305187969
 20
-26.4645506383
 10
-73.4539879942
 20
-26.6101845436
 10
-73.6745375126
 20
-26.7575314822
 10
-73.8921699587
 20
-26.9065926069
 10
-74.1068911579
 20
-27.0573710985
  0
LWPOLYLINE
  5
2EF
100
AcDbEntity
  8
0
100
AcDbPolyline
 62
250
  6
CONTINUOUS
 90
10
 70
0
 10
-72.0690735066
 20
-25.7616858869
 10
-71.7870183962
 20
-25.6040125478
 10
-71.5006408694
 20
-25.4489964822
 10
-71.2107204955
 20
-25.2971911488
 10
-70.9187870697
 20
-25.149563166
 10
-70.6249370075
 20
-25.0063227091
 10
-70.3277467644
 20
-24.8669682467
 10
-70.0271986525
 20
-24.7317417306
 10
-69.7247756312
 20
-24.6015750314
 10
-69.4212490167
 20
-24.4770727581
  0
LWPOLYLINE
  5
2F0
100
AcDbEntity
  8
0
100
AcDbPolyline
 62
250
  6
CONTINUOUS
 90
5
 70
0
 10
-74.1059745047
 20
-28.3005369488
 10
-74.1596299086
 20
-28.3298154222
 10
-74.1951627726
 20
-28.3451920153
 10
-74.2125191446
 20
-28.3475356704
 10
-74.2143925642
 20
-28.3446180782
  0
LWPOLYLINE
  5
2F1
100
AcDbEntity
  8
0
100
AcDbPolyline
 62
250
  6
CONTINUOUS
 90
10
 70
0
 10
-72.3437992289
 20
-23.0071738034
 10
-72.5562001512
 20
-23.1184626081
 10
-72.7637623275
 20
-23.2318348423
 10
-72.9667457075
 20
-23.3474305649
 10
-73.1652558173
 20
-23.4652962091
 10
-73.3597134351
 20
-23.5856615424
 10
-73.5508236575
 20
-23.7089598398
 10
-73.7389677242
 20
-23.8354512221
 10
-73.9242339756
 20
-23.9652024955
 10
-74.1068659075
 20
-24.0983782381
  0
LWPOLYLINE
  5
2F2
100
AcDbEntity
  8
0
100
AcDbPolyline
 62
250
  6
CONTINUOUS
 90
10
 70
0
 10
-72.3437487044
 20
-23.0072546911
 10
-72.0816555517
 20
-22.8763094204
 10
-71.8161350642
 20
-22.7509121522
 10
-71.5468409887
 20
-22.6313751709
 10
-71.2733427205
 20
-22.5179404864
 10
-70.9954595181
 20
-22.4109214479
 10
-70.7132902223
 20
-22.3106808028
 10
-70.4267545493
 20
-22.2174514046
 10
-70.1355616625
 20
-22.1313595858
 10
-69.8395655733
 20
-22.0525510933
  0
LWPOLYLINE
  5
2F3
100
AcDbEntity
  8
0
100
AcDbPolyline
 62
7
  6
CONTINUOUS
 90
4
 70
0
 10
-24.8486683208
 20
-47.761357491
 10
-24.6016007354
 20
-47.7777673557
 10
-24.3680212316
 20
-47.7617670909
 10
-24.154026043
 20
-47.7148384494
  0
LWPOLYLINE
  5
2F4
100
AcDbEntity
  8
0
100
AcDbPolyline
 62
250
  6
CONTINUOUS
 90
10
 70
0
 10
8.5973705621
 20
-48.9308373093
 10
8.7733006011
 20
-48.9461445851
 10
8.9478768154
 20
-48.968360703
 10
9.1203406498
 20
-48.9974011095
 10
9.2904611452
 20
-49.0333042891
 10
9.4568556014
 20
-49.0758895649
 10
9.6171495101
 20
-49.1245482867
 10
9.7701844204
 20
-49.1788088702
 10
9.9158573471
 20
-49.238545441
 10
10.0535538267
 20
-49.3034892126
  0
LINE
  5
2F5
100
AcDbEntity
  8
0
100
AcDbLine
 62
7
  6
CONTINUOUS
 10
-25.0912291744
 20
-47.7115695375
 11
-24.8486683208
 21
-47.761357491
  0
LWPOLYLINE
  5
2F6
100
AcDbEntity
  8
0
100
AcDbPolyline
 62
250
  6
CONTINUOUS
 90
8
 70
0
 10
-26.0534279318
 20
-47.9062994201
 10
-25.9474534992
 20
-47.9592392863
 10
-25.8490389012
 20
-47.9937130443
 10
-25.7592356308
 20
-48.0140047661
 10
-25.679881332
 20
-48.0248190148
 10
-25.6119588001
 20
-48.0309518947
 10
-25.556426051
 20
-48.0376127133
 10
-25.5154092348
 20
-48.0505600947
  0
LWPOLYLINE
  5
2F7
100
AcDbEntity
  8
0
100
AcDbPolyline
 62
250
  6
CONTINUOUS
 90
10
 70
0
 10
-33.0931815839
 20
-44.5861034537
 10
-32.9284228417
 20
-44.6686131434
 10
-32.7647163409
 20
-44.7274069727
 10
-32.6043420476
 20
-44.7614834348
 10
-32.4490468749
 20
-44.7705747039
 10
-32.3028610069
 20
-44.7534557732
 10
-32.1720097517
 20
-44.7097315305
 10
-32.059818618
 20
-44.6404052983
 10
-31.9664554188
 20
-44.5472944644
 10
-31.8920905773
 20
-44.4337312085
  0
LWPOLYLINE
  5
2F8
100
AcDbEntity
  8
0
100
AcDbPolyline
 62
250
  6
CONTINUOUS
 90
10
 70
0
 10
10.0535707516
 20
-67.6704097115
 10
9.9192302012
 20
-67.5997684216
 10
9.776476135
 20
-67.5288455784
 10
9.6257805794
 20
-67.4579832764
 10
9.4672934079
 20
-67.3873490297
 10
9.3019100044
 20
-67.3175261076
 10
9.131382459
 20
-67.2493722052
 10
8.9568179813
 20
-67.1832896966
 10
8.778569005
 20
-67.1193672953
 10
8.5973770158
 20
-67.0578708625
  0
LWPOLYLINE
  5
2F9
100
AcDbEntity
  8
0
100
AcDbPolyline
 62
7
  6
CONTINUOUS
 90
10
 70
0
 10
7.7875942031
 20
-68.9791835845
 10
7.8033366889
 20
-68.9881457072
 10
7.8191051802
 20
-68.9969736861
 10
7.8348995934
 20
-69.0056705016
 10
7.8507202958
 20
-69.0142394336
 10
7.8665667536
 20
-69.022683336
 10
7.8824375356
 20
-69.0310046788
 10
7.8983321144
 20
-69.0392064938
 10
7.9142508626
 20
-69.0472923344
 10
7.9301937032
 20
-69.0552655789
  0
LINE
  5
2FA
100
AcDbEntity
  8
0
100
AcDbLine
 62
7
  6
CONTINUOUS
 10
-62.8141664478
 20
-28.2141644055
 11
-64.3313106524
 21
-27.3381807261
  0
LINE
  5
2FB
100
AcDbEntity
  8
0
100
AcDbLine
 62
250
  6
CONTINUOUS
 10
-62.8141888572
 20
-28.2141598091
 11
6.2705097003
 21
-68.1028001671
  0
LINE
  5
2FC
100
AcDbEntity
  8
0
100
AcDbLine
 62
250
  6
CONTINUOUS
 10
7.2114037421
 20
-67.8579569964
 11
-24.2749800687
 21
-49.6784986881
  0
LINE
  5
2FD
100
AcDbEntity
  8
0
100
AcDbLine
 62
250
  6
CONTINUOUS
 10
-33.0935721553
 20
-44.5863698197
 11
-64.5800241401
 21
-26.4068738609
  0
LINE
  5
2FE
100
AcDbEntity
  8
0
100
AcDbLine
 62
250
  6
CONTINUOUS
 10
-26.0537664692
 20
-47.9061136478
 11
-30.5916991378
 21
-45.2859681986
  0
LINE
  5
2FF
100
AcDbEntity
  8
0
100
AcDbLine
 62
7
  6
CONTINUOUS
 10
6.2703537708
 20
-68.1027101362
 11
7.7875416238
 21
-68.9786558057
  0
LWPOLYLINE
  5
300
100
AcDbEntity
  8
0
100
AcDbPolyline
 62
7
  6
CONTINUOUS
 90
10
 70
0
 10
-64.3312937965
 20
-27.3386421192
 10
-64.3470288059
 20
-27.3294421697
 10
-64.3627963259
 20
-27.3200806631
 10
-64.3785952884
 20
-27.3105602364
 10
-64.3944249431
 20
-27.3008833699
 10
-64.410283859
 20
-27.2910530035
 10
-64.4261699266
 20
-27.2810725638
 10
-64.4420816882
 20
-27.2709451296
 10
-64.4580183362
 20
-27.2606734046
 10
-64.4739787153
 20
-27.2502603534
  0
LWPOLYLINE
  5
301
100
AcDbEntity
  8
0
100
AcDbPolyline
 62
250
  6
CONTINUOUS
 90
10
 70
0
 10
-66.597328228
 20
-23.413141414
 10
-66.4874102981
 20
-23.4835316205
 10
-66.3855483537
 20
-23.5538468022
 10
-66.29233488
 20
-23.6238144093
 10
-66.2082067577
 20
-23.6932631706
 10
-66.1340274148
 20
-23.7617608251
 10
-66.0708420492
 20
-23.8285499173
 10
-66.0192007825
 20
-23.8930758792
 10
-65.9794040115
 20
-23.955050484
 10
-65.9519121829
 20
-24.0140456012
  0
LWPOLYLINE
  5
302
100
AcDbEntity
  8
0
100
AcDbPolyline
 62
250
  6
CONTINUOUS
 90
10
 70
0
 10
-30.5920402446
 20
-45.2857615527
 10
-30.7053155912
 20
-45.212109772
 10
-30.8233127311
 20
-45.1216319222
 10
-30.9465536486
 20
-45.01891788
 10
-31.0754169446
 20
-44.909515076
 10
-31.2109590654
 20
-44.798174198
 10
-31.3554978244
 20
-44.6893111741
 10
-31.5105570511
 20
-44.5890377783
 10
-31.6759772073
 20
-44.5041632507
 10
-31.8526900209
 20
-44.4427321572
  0
LWPOLYLINE
  5
303
100
AcDbEntity
  8
0
100
AcDbPolyline
 62
250
  6
CONTINUOUS
 90
3
 70
0
 10
-24.2743874046
 20
-49.6779665228
 10
-24.4376161508
 20
-49.5711058884
 10
-24.5662051927
 20
-49.4707277377
  0
LWPOLYLINE
  5
304
100
AcDbEntity
  8
0
100
AcDbPolyline
 62
7
  6
CONTINUOUS
 90
3
 70
0
 10
-64.5781011378
 20
-26.4056338221
 10
-64.814386523
 20
-26.2449164327
 10
-64.8494160451
 20
-26.2169368812
  0
LWPOLYLINE
  5
305
100
AcDbEntity
  8
0
100
AcDbPolyline
 62
7
  6
CONTINUOUS
 90
9
 70
0
 10
-64.4740397634
 20
-27.2503962524
 10
-64.5797986811
 20
-27.178363768
 10
-64.6849572272
 20
-27.1010860336
 10
-64.7894011509
 20
-27.0188066716
 10
-64.8932081506
 20
-26.9314067234
 10
-64.9959940568
 20
-26.8389878129
 10
-65.0967841957
 20
-26.7424371132
 10
-65.1951714033
 20
-26.6422164357
 10
-65.2914014832
 20
-26.5381338689
  0
LWPOLYLINE
  5
306
100
AcDbEntity
  8
0
100
AcDbPolyline
 62
250
  6
CONTINUOUS
 90
10
 70
0
 10
-64.0298433277
 20
-24.7870147277
 10
-64.0715681821
 20
-24.7585922556
 10
-64.1126494159
 20
-24.7220400655
 10
-64.1514196015
 20
-24.6786481682
 10
-64.186491891
 20
-24.6295408908
 10
-64.216695741
 20
-24.5764551318
 10
-64.2408819804
 20
-24.5217426607
 10
-64.2584320688
 20
-24.4673854404
 10
-64.2691236172
 20
-24.4151056744
 10
-64.2726821471
 20
-24.3667981797
  0
LWPOLYLINE
  5
307
100
AcDbEntity
  8
0
100
AcDbPolyline
 62
250
  6
CONTINUOUS
 90
7
 70
0
 10
-24.0252828542
 20
-50.6105290526
 10
-24.3080881956
 20
-50.3991556466
 10
-24.5812211716
 20
-50.1611925376
 10
-24.8444291364
 20
-49.8964768811
 10
-25.1021051124
 20
-49.5982311588
 10
-25.3488807229
 20
-49.2726239123
 10
-25.5698406695
 20
-48.9389085153
  0
LWPOLYLINE
  5
308
100
AcDbEntity
  8
0
100
AcDbPolyline
 62
7
  6
CONTINUOUS
 90
10
 70
0
 10
-62.2304507731
 20
-23.711800502
 10
-62.2654801339
 20
-23.6849978477
 10
-62.2983206131
 20
-23.6535911525
 10
-62.3289722104
 20
-23.6175804164
 10
-62.3583752447
 20
-23.5754342905
 10
-62.3855893973
 20
-23.5286841236
 10
-62.407793712
 20
-23.481923963
 10
-62.42404787
 20
-23.4366851576
 10
-62.4352921902
 20
-23.3914363583
 10
-62.4415266725
 20
-23.3461775653
  0
LWPOLYLINE
  5
309
100
AcDbEntity
  8
0
100
AcDbPolyline
 62
250
  6
CONTINUOUS
 90
10
 70
0
 10
-48.8367627303
 20
-35.4964961078
 10
-48.7608185262
 20
-35.5752717819
 10
-48.6916729762
 20
-35.6640561541
 10
-48.6296229239
 20
-35.7625035677
 10
-48.5748135742
 20
-35.8706034246
 10
-48.5277618078
 20
-35.9876857227
 10
-48.489105597
 20
-36.1121670995
 10
-48.4590123831
 20
-36.2430230566
 10
-48.4374298191
 20
-36.3800415209
 10
-48.4244332641
 20
-36.5226504144
  0
LWPOLYLINE
  5
30A
100
AcDbEntity
  8
0
100
AcDbPolyline
 62
250
  6
CONTINUOUS
 90
10
 70
0
 10
-69.8404494265
 20
16.9404132622
 10
-69.5151411083
 20
16.3264237612
 10
-69.1790832684
 20
15.7131651298
 10
-68.832837702
 20
15.1017442379
 10
-68.4761591191
 20
14.4919104508
 10
-68.1103868606
 20
13.8861673415
 10
-67.7386367991
 20
13.2896600032
 10
-67.362498583
 20
12.7047022104
 10
-66.9818414553
 20
12.1308857749
 10
-66.5973445461
 20
11.5691186147
  0
LWPOLYLINE
  5
30B
100
AcDbEntity
  8
0
100
AcDbPolyline
 62
250
  6
CONTINUOUS
 90
3
 70
0
 10
-69.8400091187
 20
16.9400966082
 10
-70.1360129929
 20
17.5171236336
 10
-70.4271517408
 20
18.1021182565
  0
LWPOLYLINE
  5
30C
100
AcDbEntity
  8
0
100
AcDbPolyline
 62
250
  6
CONTINUOUS
 90
8
 70
0
 10
-70.4271517408
 20
18.1021182565
 10
-70.7136117721
 20
18.6951591793
 10
-70.9957389498
 20
19.2966078144
 10
-71.2735899175
 20
19.9062114389
 10
-71.5470670617
 20
20.5233033302
 10
-71.8163297942
 20
21.147684676
 10
-72.0817865484
 20
21.7796521512
 10
-72.3437907083
 20
22.4192848082
  0
LINE
  5
30D
100
AcDbEntity
  8
0
100
AcDbLine
 62
250
  6
CONTINUOUS
 10
-69.7248399665
 20
19.5178224961
 11
-69.4212777435
 21
18.8812511505
  0
LWPOLYLINE
  5
30E
100
AcDbEntity
  8
0
100
AcDbPolyline
 62
250
  6
CONTINUOUS
 90
10
 70
0
 10
-65.3855911678
 20
14.9387528878
 10
-65.6682611835
 20
15.5559629066
 10
-65.9438930045
 20
16.1641537827
 10
-66.2141624712
 20
16.7672461821
 10
-66.4815436922
 20
17.3709687096
 10
-66.7467800412
 20
17.9771602497
 10
-67.0088885442
 20
18.5835450941
 10
-67.2684447105
 20
19.1912344916
 10
-67.5275835166
 20
19.8049644231
 10
-67.7874770852
 20
20.4272488718
  0
LWPOLYLINE
  5
30F
100
AcDbEntity
  8
0
100
AcDbPolyline
 62
7
  6
CONTINUOUS
 90
9
 70
0
 10
-65.9507670721
 20
12.2401533972
 10
-65.8907029947
 20
12.1063701492
 10
-65.7739768314
 20
11.9879915718
 10
-65.6076515251
 20
11.8887802953
 10
-65.3962926106
 20
11.8118026426
 10
-65.1537396797
 20
11.7638554723
 10
-64.9066751795
 20
11.749814837
 10
-64.6730916402
 20
11.7685833242
 10
-64.4590879883
 20
11.8188168469
  0
LWPOLYLINE
  5
310
100
AcDbEntity
  8
0
100
AcDbPolyline
 62
250
  6
CONTINUOUS
 90
9
 70
0
 10
-72.0690878451
 20
24.8567992838
 10
-71.7869085941
 20
24.1744607303
 10
-71.5004537375
 20
23.4932482672
 10
-71.2105477291
 20
22.8152081321
 10
-70.9186780461
 20
22.1439706759
 10
-70.6248934416
 20
21.4798558851
 10
-70.3277587498
 20
20.819972092
 10
-70.0272536315
 20
20.1647486995
 10
-69.7248399665
 20
19.5178224961
  0
LINE
  5
311
100
AcDbEntity
  8
0
100
AcDbLine
 62
250
  6
CONTINUOUS
 10
-72.2034023976
 20
31.3736194565
 11
-72.7371446538
 21
32.6626774224
  0
LWPOLYLINE
  5
312
100
AcDbEntity
  8
0
100
AcDbPolyline
 62
250
  6
CONTINUOUS
 90
4
 70
0
 10
-67.7874763852
 20
20.4272478676
 10
-68.0714521522
 20
21.1156245397
 10
-68.355809193
 20
21.8131875141
 10
-68.6400881995
 20
22.5171090271
  0
LINE
  5
313
100
AcDbEntity
  8
0
100
AcDbLine
 62
250
  6
CONTINUOUS
 10
-71.6668683589
 20
30.0660866539
 11
-72.2034023976
 21
31.3736194565
  0
LWPOLYLINE
  5
314
100
AcDbEntity
  8
0
100
AcDbPolyline
 62
250
  6
CONTINUOUS
 90
10
 70
0
 10
-68.6805795249
 20
30.3233627623
 10
-68.4690757178
 20
29.8055958598
 10
-68.2598869719
 20
29.2860878468
 10
-68.0529163963
 20
28.7645737484
 10
-67.8479233604
 20
28.2404183302
 10
-67.6449590086
 20
27.713725078
 10
-67.4444076513
 20
27.1854556072
 10
-67.2464161731
 20
26.655950131
 10
-67.050776632
 20
26.1246599074
 10
-66.8572356554
 20
25.591042712
  0
LINE
  5
315
100
AcDbEntity
  8
0
100
AcDbLine
 62
250
  6
CONTINUOUS
 10
-71.132358547
 20
28.7519123541
 11
-71.6668683589
 21
30.0660866539
  0
LINE
  5
316
100
AcDbEntity
  8
0
100
AcDbLine
 62
250
  6
CONTINUOUS
 10
-70.6032472104
 20
27.4392872063
 11
-71.132358547
 21
28.7519123541
  0
LINE
  5
317
100
AcDbEntity
  8
0
100
AcDbLine
 62
250
  6
CONTINUOUS
 10
-68.6400881995
 20
22.5171090271
 11
-69.2051413897
 21
23.9295990926
  0
LINE
  5
318
100
AcDbEntity
  8
0
100
AcDbLine
 62
250
  6
CONTINUOUS
 10
-70.0577244574
 20
26.073634071
 11
-70.6032472104
 21
27.4392872063
  0
LINE
  5
319
100
AcDbEntity
  8
0
100
AcDbLine
 62
250
  6
CONTINUOUS
 10
-69.2051413897
 20
23.9295990926
 11
-70.0577244574
 21
26.073634071
  0
LWPOLYLINE
  5
31A
100
AcDbEntity
  8
0
100
AcDbPolyline
 62
7
  6
CONTINUOUS
 90
10
 70
0
 10
-69.1026002966
 20
26.5703163899
 10
-69.3371040756
 20
27.1723824078
 10
-69.5725039486
 20
27.7699233413
 10
-69.8082489796
 20
28.3627801034
 10
-70.0442274877
 20
28.9503584701
 10
-70.2806899619
 20
29.5324481915
 10
-70.5182639223
 20
30.1092317713
 10
-70.7575521245
 20
30.6804060113
 10
-70.9989579451
 20
31.2452437583
 10
-71.2429547561
 20
31.8032606163
  0
LWPOLYLINE
  5
31B
100
AcDbEntity
  8
0
100
AcDbPolyline
 62
250
  6
CONTINUOUS
 90
10
 70
0
 10
-66.8080060586
 20
20.4891377861
 10
-66.5559858717
 20
19.8350545065
 10
-66.3032912727
 20
19.1867175504
 10
-66.0494106297
 20
18.542857367
 10
-65.7937298026
 20
17.9019479914
 10
-65.5358102264
 20
17.2629054399
 10
-65.275395114
 20
16.6250762247
 10
-65.0120390515
 20
15.9873199433
 10
-64.7451016916
 20
15.348020492
 10
-64.4740302726
 20
14.7057766638
  0
LWPOLYLINE
  5
31C
100
AcDbEntity
  8
0
100
AcDbPolyline
 62
250
  6
CONTINUOUS
 90
3
 70
0
 10
-69.1025441787
 20
26.5702287311
 10
-68.8501023986
 20
25.913339594
 10
-68.5977284146
 20
25.2492611629
  0
LINE
  5
31D
100
AcDbEntity
  8
0
100
AcDbLine
 62
250
  6
CONTINUOUS
 10
-67.0694794758
 20
21.1754988292
 11
-66.8080832025
 21
20.4891450146
  0
LINE
  5
31E
100
AcDbEntity
  8
0
100
AcDbLine
 62
250
  6
CONTINUOUS
 10
-68.5977284146
 20
25.2492611629
 11
-68.0928636561
 21
23.9057140304
  0
LWPOLYLINE
  5
31F
100
AcDbEntity
  8
0
100
AcDbPolyline
 62
250
  6
CONTINUOUS
 90
3
 70
0
 10
-68.0928636561
 20
23.9057140304
 10
-67.5854082745
 20
22.5476187222
 10
-67.0694794758
 20
21.1754988292
  0
LWPOLYLINE
  5
320
100
AcDbEntity
  8
0
100
AcDbPolyline
 62
250
  6
CONTINUOUS
 90
10
 70
0
 10
-72.060797852
 20
32.2746986867
 10
-72.1188755972
 20
32.4332784381
 10
-72.1575856692
 20
32.5916165779
 10
-72.1767610171
 20
32.7466545556
 10
-72.1762314184
 20
32.8960490056
 10
-72.1557216224
 20
33.0362927753
 10
-72.1156657066
 20
33.163102057
 10
-72.0569786173
 20
33.2739334417
 10
-71.9802393274
 20
33.367579777
 10
-71.8861586633
 20
33.4425517296
  0
LWPOLYLINE
  5
321
100
AcDbEntity
  8
0
100
AcDbPolyline
 62
250
  6
CONTINUOUS
 90
5
 70
0
 10
-66.8572356554
 20
25.5910427119
 10
-66.6390133986
 20
24.9798382283
 10
-66.4233190034
 20
24.366318016
 10
-66.2093266611
 20
23.7492604588
 10
-65.995668744
 20
23.1258355406
  0
LINE
  5
322
100
AcDbEntity
  8
0
100
AcDbLine
 62
250
  6
CONTINUOUS
 10
-63.7426841128
 20
16.4557778784
 11
-62.8141244326
 21
13.7530361328
  0
LINE
  5
323
100
AcDbEntity
  8
0
100
AcDbLine
 62
250
  6
CONTINUOUS
 10
-64.4497711514
 20
18.5334377019
 11
-63.7426841128
 21
16.4557778784
  0
LINE
  5
324
100
AcDbEntity
  8
0
100
AcDbLine
 62
250
  6
CONTINUOUS
 10
-65.995668744
 20
23.1258355406
 11
-65.5685436903
 21
21.8626952733
  0
LINE
  5
325
100
AcDbEntity
  8
0
100
AcDbLine
 62
250
  6
CONTINUOUS
 10
-65.5685436903
 20
21.8626952733
 11
-64.4497711514
 21
18.5334377019
  0
LWPOLYLINE
  5
326
100
AcDbEntity
  8
RACCORDO
100
AcDbPolyline
 62
7
  6
CONTINUOUS
 90
6
 70
0
 10
-48.7577517852
 20
-29.3907503061
 10
-48.7592445858
 20
-29.3779030629
 10
-48.7654994155
 20
-29.3589841431
 10
-48.7770864866
 20
-29.3414889531
 10
-48.7940301476
 20
-29.3248806172
 10
-48.8163303985
 20
-29.3091591354
  0
LWPOLYLINE
  5
327
100
AcDbEntity
  8
0
100
AcDbPolyline
 62
250
  6
CONTINUOUS
 90
7
 70
0
 10
-33.0938419121
 20
-5.1475495238
 10
-33.1809429312
 20
-5.3719938753
 10
-33.2280893302
 20
-5.5895831183
 10
-33.2340902735
 20
-5.7897184332
 10
-33.1988425519
 20
-5.9639801133
 10
-33.1233542364
 20
-6.1006511885
 10
-33.0298408632
 20
-6.1803148
  0
LINE
  5
328
100
AcDbEntity
  8
DRAFT
100
AcDbLine
 62
7
  6
CONTINUOUS
 10
-50.1562342665
 20
-30.4543944027
 11
-50.0557269337
 21
-30.2674731575
  0
LINE
  5
329
100
AcDbEntity
  8
DRAFT
100
AcDbLine
 62
7
  6
CONTINUOUS
 10
-49.821209824
 20
-30.2395587236
 11
-49.7207024912
 21
-30.0526374784
  0
LINE
  5
32A
100
AcDbEntity
  8
DRAFT
100
AcDbLine
 62
7
  6
CONTINUOUS
 10
-49.4861853814
 20
-30.0247230446
 11
-49.3856780487
 21
-29.8378017993
  0
LINE
  5
32B
100
AcDbEntity
  8
DRAFT
100
AcDbLine
 62
7
  6
CONTINUOUS
 10
-49.1511609389
 20
-29.8098873655
 11
-49.0506536061
 21
-29.6229661203
  0
LWPOLYLINE
  5
32C
100
AcDbEntity
  8
0
100
AcDbPolyline
 62
7
  6
CONTINUOUS
 90
10
 70
0
 10
-69.1025436247
 20
-30.9009301182
 10
-69.3366895254
 20
-31.0538952512
 10
-69.5719552276
 20
-31.1995122648
 10
-69.8079713811
 20
-31.337831623
 10
-70.0445490531
 20
-31.4688313206
 10
-70.281774125
 20
-31.5925863384
 10
-70.5200152458
 20
-31.7092684813
 10
-70.7595426387
 20
-31.818953903
 10
-71.0004376864
 20
-31.9216341527
 10
-71.2428650868
 20
-32.0173488556
  0
LWPOLYLINE
  5
32D
100
AcDbEntity
  8
0
100
AcDbPolyline
 62
250
  6
CONTINUOUS
 90
7
 70
0
 10
-71.9331181666
 20
-30.6911592261
 10
-71.6646759802
 20
-30.5306122745
 10
-71.3970532044
 20
-30.3670336566
 10
-71.1303673612
 20
-30.2004918357
 10
-70.8651582685
 20
-30.03129621
 10
-70.6023742008
 20
-29.8600144947
 10
-70.3427897796
 20
-29.6871079074
  0
LWPOLYLINE
  5
32E
100
AcDbEntity
  8
0
100
AcDbPolyline
 62
250
  6
CONTINUOUS
 90
3
 70
0
 10
-72.4701264006
 20
-31.0016830627
 10
-72.201892223
 20
-30.8483623754
 10
-71.9331181666
 20
-30.6911592261
  0
LINE
  5
32F
100
AcDbEntity
  8
0
100
AcDbLine
 62
250
  6
CONTINUOUS
 10
-72.7371568994
 20
-31.1507090005
 11
-72.4701264006
 21
-31.0016830627
  0
LINE
  5
330
100
AcDbEntity
  8
0
100
AcDbLine
 62
250
  6
CONTINUOUS
 10
-62.4415266725
 20
-23.3462056669
 11
-64.2723285818
 21
-24.3670179627
  0
LWPOLYLINE
  5
331
100
AcDbEntity
  8
0
100
AcDbPolyline
 62
250
  6
CONTINUOUS
 90
5
 70
0
 10
-74.108788611
 20
-28.0559258031
 10
-74.1619734084
 20
-28.082355179
 10
-74.196371167
 20
-28.0935725385
 10
-74.212666718
 20
-28.0945215826
 10
-74.214163071
 20
-28.0919657475
  0
LWPOLYLINE
  5
332
100
AcDbEntity
  8
0
100
AcDbPolyline
 62
250
  6
CONTINUOUS
 90
3
 70
0
 10
-72.5987632337
 20
-31.351163501
 10
-72.5981525801
 20
-31.3508656021
 10
-72.4923057021
 20
-31.296554938
  0
LINE
  5
333
100
AcDbEntity
  8
0
100
AcDbLine
 62
7
  6
CONTINUOUS
 10
-64.4590764065
 20
-24.4432065421
 11
-64.2731372111
 21
-24.3665261398
  0
LWPOLYLINE
  5
334
100
AcDbEntity
  8
0
100
AcDbPolyline
 62
250
  6
CONTINUOUS
 90
13
 70
0
 10
-31.7076773684
 20
-43.7862506259
 10
-31.5982884178
 20
-43.7951031995
 10
-31.4869419541
 20
-43.8073006014
 10
-31.3739825084
 20
-43.8230525683
 10
-31.2602226781
 20
-43.8424819059
 10
-31.1456459817
 20
-43.8658363914
 10
-31.0294861163
 20
-43.8936146891
 10
-30.9120237024
 20
-43.9261973648
 10
-30.7942780605
 20
-43.9637763298
 10
-30.6767891516
 20
-44.0066784681
 10
-30.5603419515
 20
-44.0551719286
 10
-30.4459424025
 20
-44.1094346031
 10
-30.3346007878
 20
-44.1696272427
  0
LWPOLYLINE
  5
335
100
AcDbEntity
  8
0
100
AcDbPolyline
 62
7
  6
CONTINUOUS
 90
7
 70
0
 10
-31.7075323844
 20
-43.7855782766
 10
-31.9372905563
 20
-43.7499544539
 10
-32.1414359251
 20
-43.682032779
 10
-32.3133385744
 20
-43.5858015755
 10
-32.4477712237
 20
-43.4637646706
 10
-32.5324279438
 20
-43.3239626006
 10
-32.5577291028
 20
-43.2115862083
  0
LWPOLYLINE
  5
336
100
AcDbEntity
  8
0
100
AcDbPolyline
 62
250
  6
CONTINUOUS
 90
10
 70
0
 10
21.4733377893
 20
-53.639644505
 10
21.5986305206
 20
-53.6672899509
 10
21.7272213031
 20
-53.6851763637
 10
21.8574481207
 20
-53.6933705228
 10
21.9881359365
 20
-53.6919177318
 10
22.1170975604
 20
-53.6808345588
 10
22.2412337472
 20
-53.6604715157
 10
22.3585977457
 20
-53.6313440254
 10
22.4682919265
 20
-53.5937699081
 10
22.5690361622
 20
-53.5481167497
  0
LWPOLYLINE
  5
337
100
AcDbEntity
  8
RACCORDO
100
AcDbPolyline
 62
7
  6
CONTINUOUS
 90
10
 70
0
 10
3.4542246104
 20
-59.4895224936
 10
3.4269959595
 20
-59.4766466083
 10
3.3982313312
 20
-59.4668635508
 10
3.3679307254
 20
-59.4601733211
 10
3.3351643063
 20
-59.4565618608
 10
3.3008619097
 20
-59.4560432284
 10
3.2678130433
 20
-59.4586595996
 10
3.236947543
 20
-59.464425033
 10
3.2073355729
 20
-59.47332547
 10
3.1789771329
 20
-59.4853609106
  0
LWPOLYLINE
  5
338
100
AcDbEntity
  8
0
100
AcDbPolyline
 62
7
  6
CONTINUOUS
 90
6
 70
0
 10
-12.5500658196
 20
-50.5894308901
 10
-12.5617940387
 20
-50.5831091394
 10
-12.5961940197
 20
-50.5692808076
 10
-12.6295952718
 20
-50.563274707
 10
-12.6618210307
 20
-50.56515773
 10
-12.6921181417
 20
-50.5750598683
  0
LINE
  5
339
100
AcDbEntity
  8
0
100
AcDbLine
 62
250
  6
CONTINUOUS
 10
-23.7247925286
 20
-48.0586456322
 11
7.7537443374
 21
-66.2339582999
  0
LINE
  5
33A
100
AcDbEntity
  8
0
100
AcDbLine
 62
250
  6
CONTINUOUS
 10
-32.5513067221
 20
-42.962326959
 11
-64.0298435881
 21
-24.7870142914
  0
LINE
  5
33B
100
AcDbEntity
  8
0
100
AcDbLine
 62
7
  6
CONTINUOUS
 10
7.7460650893
 20
-64.1153637492
 11
-21.9253991481
 21
-46.9834321693
  0
LINE
  5
33C
100
AcDbEntity
  8
0
100
AcDbLine
 62
7
  6
CONTINUOUS
 10
-32.5589859698
 20
-40.8437324086
 11
-62.2304502072
 21
-23.7118008287
  0
LINE
  5
33D
100
AcDbEntity
  8
DRAFT
100
AcDbLine
 62
7
  6
CONTINUOUS
 10
5.8242162601
 20
-62.9401266107
 11
1.4224006308
 21
-60.3985734341
  0
LINE
  5
33E
100
AcDbEntity
  8
DRAFT
100
AcDbLine
 62
7
  6
CONTINUOUS
 10
-50.3907513763
 20
-30.4823088365
 11
-54.7925670056
 21
-27.9407556599
  0
LINE
  5
33F
100
AcDbEntity
  8
DRAFT
100
AcDbLine
 62
7
  6
CONTINUOUS
 10
6.0587333699
 20
-62.9122121769
 11
1.5712335663
 21
-60.3211978684
  0
LINE
  5
340
100
AcDbEntity
  8
DRAFT
100
AcDbLine
 62
7
  6
CONTINUOUS
 10
-54.6437340701
 20
-27.8633800941
 11
-50.1562342665
 21
-30.4543944027
  0
LINE
  5
341
100
AcDbEntity
  8
DRAFT
100
AcDbLine
 62
7
  6
CONTINUOUS
 10
6.1592407026
 20
-62.7252909317
 11
1.7944829695
 21
-60.2051345198
  0
LINE
  5
342
100
AcDbEntity
  8
DRAFT
100
AcDbLine
 62
7
  6
CONTINUOUS
 10
-50.0557269337
 20
-30.2674731575
 11
-54.4204846669
 21
-27.7473167456
  0
LINE
  5
343
100
AcDbEntity
  8
DRAFT
100
AcDbLine
 62
7
  6
CONTINUOUS
 10
6.3937578124
 20
-62.6973764979
 11
1.9433159049
 21
-60.1277589541
  0
LINE
  5
344
100
AcDbEntity
  8
DRAFT
100
AcDbLine
 62
7
  6
CONTINUOUS
 10
-54.2716517314
 20
-27.6699411799
 11
-49.821209824
 21
-30.2395587236
  0
LINE
  5
345
100
AcDbEntity
  8
DRAFT
100
AcDbLine
 62
7
  6
CONTINUOUS
 10
6.4942651452
 20
-62.5104552526
 11
2.1665653081
 21
-60.0116956055
  0
LINE
  5
346
100
AcDbEntity
  8
DRAFT
100
AcDbLine
 62
7
  6
CONTINUOUS
 10
-49.7207024912
 20
-30.0526374784
 11
-54.0484023282
 21
-27.5538778313
  0
LINE
  5
347
100
AcDbEntity
  8
DRAFT
100
AcDbLine
 62
7
  6
CONTINUOUS
 10
6.7287822549
 20
-62.4825408188
 11
2.3153982436
 21
-59.9343200398
  0
LINE
  5
348
100
AcDbEntity
  8
DRAFT
100
AcDbLine
 62
7
  6
CONTINUOUS
 10
-53.8995693928
 20
-27.4765022656
 11
-49.4861853814
 21
-30.0247230446
  0
LINE
  5
349
100
AcDbEntity
  8
DRAFT
100
AcDbLine
 62
7
  6
CONTINUOUS
 10
6.8292895877
 20
-62.2956195736
 11
2.5386476468
 21
-59.8182566912
  0
LINE
  5
34A
100
AcDbEntity
  8
DRAFT
100
AcDbLine
 62
7
  6
CONTINUOUS
 10
-49.3856780487
 20
-29.8378017993
 11
-53.6763199896
 21
-27.360438917
  0
LINE
  5
34B
100
AcDbEntity
  8
DRAFT
100
AcDbLine
 62
7
  6
CONTINUOUS
 10
7.0638066975
 20
-62.2677051397
 11
2.6874805822
 21
-59.7408811255
  0
LINE
  5
34C
100
AcDbEntity
  8
DRAFT
100
AcDbLine
 62
7
  6
CONTINUOUS
 10
-53.5274870541
 20
-27.2830633513
 11
-49.1511609389
 21
-29.8098873655
  0
LINE
  5
34D
100
AcDbEntity
  8
DRAFT
100
AcDbLine
 62
7
  6
CONTINUOUS
 10
7.1643140302
 20
-62.0807838945
 11
2.9107299854
 21
-59.624817777
  0
LINE
  5
34E
100
AcDbEntity
  8
DRAFT
100
AcDbLine
 62
7
  6
CONTINUOUS
 10
-49.0506536061
 20
-29.6229661203
 11
-53.3042376509
 21
-27.1670000028
  0
LINE
  5
34F
100
AcDbEntity
  8
0
100
AcDbLine
 62
250
  6
CONTINUOUS
 10
-12.6921174111
 20
-50.5750595344
 11
-8.5576683573
 21
-52.9622386013
  0
LINE
  5
350
100
AcDbEntity
  8
SUPERFICI
100
AcDbLine
 62
250
  6
CONTINUOUS
 10
-32.9528308405
 20
-38.8767775267
 11
-37.0872798943
 21
-36.4895984598
  0
LINE
  5
351
100
AcDbEntity
  8
SUPERFICI
100
AcDbLine
 62
7
  6
CONTINUOUS
 10
-36.9456549197
 20
-36.5037212547
 11
-32.8944463464
 21
-38.8428383113
  0
LINE
  5
352
100
AcDbEntity
  8
0
100
AcDbLine
 62
7
  6
CONTINUOUS
 10
-12.5504924365
 20
-50.5891823292
 11
-8.4992838632
 21
-52.9282993859
  0
LINE
  5
353
100
AcDbEntity
  8
RACCORDO
100
AcDbLine
 62
7
  6
CONTINUOUS
 10
7.3986372379
 20
-61.7669769096
 11
3.4542246104
 21
-59.4895224936
  0
LINE
  5
354
100
AcDbEntity
  8
RACCORDO
100
AcDbLine
 62
7
  6
CONTINUOUS
 10
-48.8163303985
 20
-29.3091591354
 11
-52.7607430259
 21
-27.0317047194
  0
LWPOLYLINE
  5
355
100
AcDbEntity
  8
0
100
AcDbPolyline
 62
250
  6
CONTINUOUS
 90
10
 70
0
 10
-23.7247910226
 20
-48.0586467753
 10
-23.766189046
 20
-48.0304818747
 10
-23.8069229123
 20
-47.9943539502
 10
-23.845431007
 20
-47.9515123701
 10
-23.8802561495
 20
-47.9032627731
 10
-23.9103462615
 20
-47.8511673322
 10
-23.934749179
 20
-47.7968685876
 10
-23.9526294308
 20
-47.7420585372
 10
-23.9635756163
 20
-47.6886560747
 10
-23.9672777581
 20
-47.6386474266
  0
LWPOLYLINE
  5
356
100
AcDbEntity
  8
0
100
AcDbPolyline
 62
7
  6
CONTINUOUS
 90
10
 70
0
 10
-21.9253997157
 20
-46.9834318416
 10
-21.9604303347
 20
-46.9566278088
 10
-21.9932717478
 20
-46.9252198955
 10
-22.0239239553
 20
-46.8892081016
 10
-22.0533272631
 20
-46.847060833
 10
-22.0805413651
 20
-46.8003096839
 10
-22.102745343
 20
-46.7535494368
 10
-22.1189988906
 20
-46.7083116858
 10
-22.1302423141
 20
-46.6630648368
 10
-22.1364756134
 20
-46.6178088898
  0
LWPOLYLINE
  5
357
100
AcDbEntity
  8
0
100
AcDbPolyline
 62
7
  6
CONTINUOUS
 90
4
 70
0
 10
-26.0272968405
 20
-46.6916136029
 10
-26.1118458761
 20
-46.6238148317
 10
-26.2062922553
 20
-46.5573818111
 10
-26.3108653218
 20
-46.4928816715
  0
LWPOLYLINE
  5
358
100
AcDbEntity
  8
0
100
AcDbPolyline
 62
250
  6
CONTINUOUS
 90
10
 70
0
 10
-72.6423725672
 20
-0.1215113704
 10
-72.8203608301
 20
0.0651254298
 10
-72.9929336806
 20
0.249490457
 10
-73.1607982104
 20
0.4324826045
 10
-73.3254265966
 20
0.6158381498
 10
-73.4871211522
 20
0.7999904846
 10
-73.6451256432
 20
0.98408621
 10
-73.8000027118
 20
1.1687124887
 10
-73.9534978261
 20
1.3558613655
 10
-74.1067588226
 20
1.5468358521
  0
LWPOLYLINE
  5
359
100
AcDbEntity
  8
0
100
AcDbPolyline
 62
7
  6
CONTINUOUS
 90
3
 70
0
 10
-25.8863699317
 20
-46.8295259727
 10
-25.9522035376
 20
-46.7603882447
 10
-26.0272968405
 20
-46.6916136029
  0
LWPOLYLINE
  5
35A
100
AcDbEntity
  8
0
100
AcDbPolyline
 62
250
  6
CONTINUOUS
 90
9
 70
0
 10
-33.0938419121
 20
-44.586598386
 10
-33.1809429478
 20
-44.4641170206
 10
-33.2280893588
 20
-44.3017149094
 10
-33.2340903097
 20
-44.1086164803
 10
-33.198842599
 20
-43.8930620662
 10
-33.1233542897
 20
-43.6679940063
 10
-33.0136289328
 20
-43.451175148
 10
-32.8775345997
 20
-43.2556763946
 10
-32.7209374379
 20
-43.0896611368
  0
LWPOLYLINE
  5
35B
100
AcDbEntity
  8
0
100
AcDbPolyline
 62
250
  6
CONTINUOUS
 90
10
 70
0
 10
-66.5923296021
 20
13.4827958178
 10
-66.9289303555
 20
14.0804611783
 10
-67.2578327141
 20
14.6746002532
 10
-67.5800343821
 20
15.2671252334
 10
-67.8965853554
 20
15.860053405
 10
-68.2082989416
 20
16.4549601732
 10
-68.5157794877
 20
17.0529774802
 10
-68.8198185165
 20
17.6555519326
 10
-69.1213769274
 20
18.2644602246
 10
-69.4212864552
 20
18.8812272031
  0
LWPOLYLINE
  5
35C
100
AcDbEntity
  8
0
100
AcDbPolyline
 62
250
  6
CONTINUOUS
 90
16
 70
0
 10
-31.8706674513
 20
-6.6750560615
 10
-31.8477986861
 20
-6.593273122
 10
-31.8050528592
 20
-6.5183561162
 10
-31.746027037
 20
-6.4542141264
 10
-31.6740993615
 20
-6.4042995295
 10
-31.5922430359
 20
-6.3689381619
 10
-31.5029441352
 20
-6.3454118056
 10
-31.4094441936
 20
-6.3318733897
 10
-31.3130470987
 20
-6.3270666173
 10
-31.2126249852
 20
-6.3301827583
 10
-31.1111470524
 20
-6.3404943316
 10
-31.0092673913
 20
-6.3573917857
 10
-30.9026656151
 20
-6.3819150256
 10
-30.7926458867
 20
-6.4149578504
 10
-30.6858808198
 20
-6.4557988788
 10
-30.5888369077
 20
-6.5039128623
  0
LWPOLYLINE
  5
35D
100
AcDbEntity
  8
RACCORDO
100
AcDbPolyline
 62
7
  6
CONTINUOUS
 90
6
 70
0
 10
-48.8091227896
 20
-30.0895425239
 10
-48.7884842428
 20
-30.0717643476
 10
-48.7728535479
 20
-30.0507067022
 10
-48.762622915
 20
-30.026895915
 10
-48.7580215989
 20
-30.0006597971
 10
-48.7577517553
 20
-29.9922061363
  0
LWPOLYLINE
  5
35E
100
AcDbEntity
  8
RACCORDO
100
AcDbPolyline
 62
7
  6
CONTINUOUS
 90
6
 70
0
 10
-48.8091227896
 20
-29.4680835792
 10
-48.7882781379
 20
-29.4517097714
 10
-48.772863122
 20
-29.434612191
 10
-48.7628777418
 20
-29.416790838
 10
-48.7583463459
 20
-29.3977088367
 10
-48.7577517852
 20
-29.3907503061
  0
LINE
  5
35F
100
AcDbEntity
  8
RACCORDO
100
AcDbLine
 62
7
  6
CONTINUOUS
 10
-53.0359905034
 20
-27.0275431364
 11
-53.3042376509
 21
-27.1670000028
  0
LINE
  5
360
100
AcDbEntity
  8
DRAFT
100
AcDbLine
 62
7
  6
CONTINUOUS
 10
-53.5274870541
 20
-27.2830633513
 11
-53.6763199896
 21
-27.360438917
  0
LINE
  5
361
100
AcDbEntity
  8
DRAFT
100
AcDbLine
 62
7
  6
CONTINUOUS
 10
-53.8995693928
 20
-27.4765022656
 11
-54.0484023282
 21
-27.5538778313
  0
LINE
  5
362
100
AcDbEntity
  8
DRAFT
100
AcDbLine
 62
7
  6
CONTINUOUS
 10
-54.2716517314
 20
-27.6699411799
 11
-54.4204846669
 21
-27.7473167456
  0
LINE
  5
363
100
AcDbEntity
  8
DRAFT
100
AcDbLine
 62
7
  6
CONTINUOUS
 10
-54.6437340701
 20
-27.8633800941
 11
-54.7925670056
 21
-27.9407556599
  0
LWPOLYLINE
  5
364
100
AcDbEntity
  8
0
100
AcDbPolyline
 62
250
  6
CONTINUOUS
 90
5
 70
0
 10
-72.0607977376
 20
-31.544648751
 10
-72.1188748077
 20
-31.5719600064
 10
-72.157583449
 20
-31.5912139455
 10
-72.1767568274
 20
-31.6018632371
 10
-72.178938299
 20
-31.6038501927
  0
LINE
  5
365
100
AcDbEntity
  8
0
100
AcDbLine
 62
250
  6
CONTINUOUS
 10
-72.5989086085
 20
-31.3512290333
 11
-72.5987632337
 21
-31.351163501
  0
LINE
  5
366
100
AcDbEntity
  8
0
100
AcDbLine
 62
7
  6
CONTINUOUS
 10
-24.1540376267
 20
-11.4528143592
 11
-23.9680861518
 21
-11.372288378
  0
LWPOLYLINE
  5
367
100
AcDbEntity
  8
0
100
AcDbPolyline
 62
250
  6
CONTINUOUS
 90
10
 70
0
 10
10.0535629622
 20
-32.6880244454
 10
10.5212966939
 20
-32.626228344
 10
10.9933157844
 20
-32.5521110729
 10
11.468905984
 20
-32.4656757337
 10
11.9464429377
 20
-32.3668535307
 10
12.4257307171
 20
-32.2555210127
 10
12.9079812347
 20
-32.1311773649
 10
13.3930363955
 20
-31.993616405
 10
13.8793065368
 20
-31.8430404459
 10
14.3658392193
 20
-31.6795122322
  0
LWPOLYLINE
  5
368
100
AcDbEntity
  8
0
100
AcDbPolyline
 62
250
  6
CONTINUOUS
 90
10
 70
0
 10
18.5828155072
 20
-52.7937954456
 10
18.9060664946
 20
-52.8965674811
 10
19.2253777312
 20
-52.9962097368
 10
19.5423078462
 20
-53.0931315178
 10
19.8598664622
 20
-53.1881842822
 10
20.1788061682
 20
-53.2815437253
 10
20.4976492942
 20
-53.3727734164
 10
20.8174123864
 20
-53.4621979962
 10
21.1415458162
 20
-53.5508254333
 10
21.4723067783
 20
-53.6393187386
  0
LWPOLYLINE
  5
369
100
AcDbEntity
  8
0
100
AcDbPolyline
 62
250
  6
CONTINUOUS
 90
10
 70
0
 10
14.8533109563
 20
-51.4569578494
 10
15.268710333
 20
-51.6200301287
 10
15.6805072246
 20
-51.7785727271
 10
16.089730714
 20
-51.9327720177
 10
16.4990280907
 20
-52.0834230776
 10
16.9091993293
 20
-52.2306514775
 10
17.3195131378
 20
-52.3741344507
 10
17.7321291925
 20
-52.514684107
 10
18.1518473094
 20
-52.6540539584
 10
18.5828155072
 20
-52.7937954611
  0
LWPOLYLINE
  5
36A
100
AcDbEntity
  8
RACCORDO
100
AcDbPolyline
 62
7
  6
CONTINUOUS
 90
10
 70
0
 10
-52.7607430259
 20
-27.0317047194
 10
-52.7879716768
 20
-27.018828834
 10
-52.8167363052
 20
-27.0090457765
 10
-52.847036911
 20
-27.0023555469
 10
-52.8798033301
 20
-26.9987440866
 10
-52.9141057267
 20
-26.9982254542
 10
-52.947154593
 20
-27.0008418253
 10
-52.9780200933
 20
-27.0066072587
 10
-53.0076320635
 20
-27.0155076958
 10
-53.0359905034
 20
-27.0275431364
  0
LWPOLYLINE
  5
36B
100
AcDbEntity
  8
0
100
AcDbPolyline
 62
250
  6
CONTINUOUS
 90
10
 70
0
 10
-70.3270594534
 20
-2.274874839
 10
-70.6094941501
 20
-2.0350238739
 10
-70.8840832075
 20
-1.7972539115
 10
-71.1511496841
 20
-1.5609704214
 10
-71.4120707883
 20
-1.3246445859
 10
-71.6670644272
 20
-1.0878139482
 10
-71.9155719632
 20
-0.8509002053
 10
-72.1589996031
 20
-0.6126565089
 10
-72.4003837134
 20
-0.370311891
 10
-72.6424107436
 20
-0.1214716728
  0
LWPOLYLINE
  5
36C
100
AcDbEntity
  8
0
100
AcDbPolyline
 62
250
  6
CONTINUOUS
 90
10
 70
0
 10
-8.5317117582
 20
-58.7681273814
 10
-8.4557675617
 20
-58.8469030315
 10
-8.3866220141
 20
-58.9356873835
 10
-8.3245719593
 20
-59.0341347824
 10
-8.2697626031
 20
-59.142234631
 10
-8.2227108264
 20
-59.2593169294
 10
-8.1840546013
 20
-59.383798319
 10
-8.1539613703
 20
-59.5146543037
 10
-8.1323787881
 20
-59.6516728109
 10
-8.1193822152
 20
-59.7942817634
  0
LWPOLYLINE
  5
36D
100
AcDbEntity
  8
0
100
AcDbPolyline
 62
250
  6
CONTINUOUS
 90
9
 70
0
 10
-24.2749800687
 20
-49.6784986881
 10
-24.3632769074
 20
-49.555326881
 10
-24.4110672802
 20
-49.3925529544
 10
-24.4171610057
 20
-49.1994009583
 10
-24.3814027477
 20
-48.9841413279
 10
-24.3048536424
 20
-48.7596857583
 10
-24.1936749275
 20
-48.5437060507
 10
-24.055786692
 20
-48.349243074
 10
-23.8970020199
 20
-48.1844908573
  0
LWPOLYLINE
  5
36E
100
AcDbEntity
  8
0
100
AcDbPolyline
 62
7
  6
CONTINUOUS
 90
5
 70
0
 10
-25.1945879667
 20
-48.7570894025
 10
-25.0124432692
 20
-49.0128472588
 10
-24.8124174098
 20
-49.2409287625
 10
-24.5901721434
 20
-49.4502387866
 10
-24.5657935048
 20
-49.4708956591
  0
LWPOLYLINE
  5
36F
100
AcDbEntity
  8
0
100
AcDbPolyline
 62
250
  6
CONTINUOUS
 90
3
 70
0
 10
-25.5698406695
 20
-48.9389085153
 10
-25.7596456812
 20
-48.6032930832
 10
-25.9222581455
 20
-48.2587726277
  0
LWPOLYLINE
  5
370
100
AcDbEntity
  8
0
100
AcDbPolyline
 62
7
  6
CONTINUOUS
 90
5
 70
0
 10
-25.6457160129
 20
-47.2855950771
 10
-25.5856513113
 20
-47.4173461088
 10
-25.4689232768
 20
-47.5346298748
 10
-25.3025945856
 20
-47.6336821257
 10
-25.0912291744
 20
-47.7115695375
  0
LINE
  5
371
100
AcDbEntity
  8
0
100
AcDbLine
 62
250
  6
CONTINUOUS
 10
-25.9222581455
 20
-48.2587726277
 11
-26.0567192332
 21
-47.9048037909
  0
LWPOLYLINE
  5
372
100
AcDbEntity
  8
0
100
AcDbPolyline
 62
250
  6
CONTINUOUS
 90
10
 70
0
 10
-32.5174958431
 20
-45.7070786832
 10
-32.5353965287
 20
-45.56337201
 10
-32.5650596771
 20
-45.4227906064
 10
-32.6064842892
 20
-45.2859438683
 10
-32.6598484461
 20
-45.1531282719
 10
-32.7249889292
 20
-45.0253715146
 10
-32.8012103756
 20
-44.9042405428
 10
-32.8880751452
 20
-44.7905174426
 10
-32.9855939903
 20
-44.6843918495
 10
-33.0935721553
 20
-44.5863698197
  0
LINE
  5
373
100
AcDbEntity
  8
0
100
AcDbLine
 62
7
  6
CONTINUOUS
 10
-32.5577291028
 20
-43.2115862083
 11
-32.5584146639
 21
-43.1900113561
  0
LWPOLYLINE
  5
374
100
AcDbEntity
  8
0
100
AcDbPolyline
 62
250
  6
CONTINUOUS
 90
10
 70
0
 10
-30.3346013864
 20
-7.9140106764
 10
-30.3378638594
 20
-7.7667907917
 10
-30.347463851
 20
-7.6167056694
 10
-30.3634013612
 20
-7.4637553096
 10
-30.3858002313
 20
-7.3072704208
 10
-30.41453662
 20
-7.1479202944
 10
-30.449239004
 20
-6.9877128049
 10
-30.4897835422
 20
-6.8273172436
 10
-30.5362940757
 20
-6.666064319
 10
-30.5887706046
 20
-6.5039540313
  0
LINE
  5
375
100
AcDbEntity
  8
0
100
AcDbLine
 62
7
  6
CONTINUOUS
 10
-32.5831453329
 20
-6.9483677984
 11
-32.5831151256
 21
-6.9544279784
  0
LINE
  5
376
100
AcDbEntity
  8
0
100
AcDbLine
 62
7
  6
CONTINUOUS
 10
-32.5628284798
 20
-25.0630450713
 11
-32.5584146639
 21
-43.1900113561
  0
LINE
  5
377
100
AcDbEntity
  8
SUPERFICI
100
AcDbLine
 62
250
  6
CONTINUOUS
 10
-32.9458173169
 20
-39.3025995647
 11
-32.9458173168
 21
-38.8722800783
  0
LINE
  5
378
100
AcDbEntity
  8
SUPERFICI
100
AcDbLine
 62
7
  6
CONTINUOUS
 10
-32.8944463462
 20
-38.8428383117
 11
-32.8944463462
 21
-39.2052954506
  0
LINE
  5
379
100
AcDbEntity
  8
0
100
AcDbLine
 62
250
  6
CONTINUOUS
 10
-31.7076773684
 20
-43.7862506259
 11
-31.7076773684
 21
-7.5321333092
  0
LINE
  5
37A
100
AcDbEntity
  8
0
100
AcDbLine
 62
250
  6
CONTINUOUS
 10
-30.3346013864
 20
-7.9140106764
 11
-30.3346013864
 21
-44.1539844357
  0
LINE
  5
37B
100
AcDbEntity
  8
0
100
AcDbLine
 62
7
  6
CONTINUOUS
 10
-32.5584146533
 20
-6.9340477948
 11
-32.56282848
 21
-25.0628824199
  0
LWPOLYLINE
  5
37C
100
AcDbEntity
  8
0
100
AcDbPolyline
 62
250
  6
CONTINUOUS
 90
13
 70
0
 10
-30.3346013864
 20
-44.1539844357
 10
-30.3351263543
 20
-44.2560274286
 10
-30.3390068043
 20
-44.3564478087
 10
-30.3462427363
 20
-44.4552455761
 10
-30.3565515514
 20
-44.5521327854
 10
-30.3702158485
 20
-44.647397382
 10
-30.3880834245
 20
-44.7419032019
 10
-30.4101981448
 20
-44.8362627568
 10
-30.4365161441
 20
-44.9298635351
 10
-30.4677536229
 20
-45.0217318383
 10
-30.5041493149
 20
-45.1115431002
 10
-30.5454644866
 20
-45.1996218869
 10
-30.5916991378
 20
-45.2859681986
  0
LWPOLYLINE
  5
37D
100
AcDbEntity
  8
0
100
AcDbPolyline
 62
7
  6
CONTINUOUS
 90
3
 70
0
 10
-32.586170128
 20
-43.2112974601
 10
-32.5871276825
 20
-43.249837574
 10
-32.5879872011
 20
-43.2613962391
  0
LWPOLYLINE
  5
37E
100
AcDbEntity
  8
0
100
AcDbPolyline
 62
250
  6
CONTINUOUS
 90
10
 70
0
 10
-32.5167065368
 20
-3.7403088153
 10
-32.5256955692
 20
-3.8910917959
 10
-32.5491543489
 20
-4.043783124
 10
-32.5872775971
 20
-4.1979081086
 10
-32.6417672648
 20
-4.3518641177
 10
-32.7112628409
 20
-4.5061294556
 10
-32.7914212694
 20
-4.6632736483
 10
-32.8809695299
 20
-4.8236545323
 10
-32.981623127
 20
-4.9854021384
 10
-33.0935724056
 20
-5.1476351374
  0
LWPOLYLINE
  5
37F
100
AcDbEntity
  8
0
100
AcDbPolyline
 62
250
  6
CONTINUOUS
 90
7
 70
0
 10
-24.2749800687
 20
-10.2394498259
 10
-24.3632769074
 20
-10.4632037257
 10
-24.4110672802
 20
-10.6804211461
 10
-24.4171610057
 20
-10.8805028897
 10
-24.3814027477
 20
-11.0550593474
 10
-24.3048536424
 20
-11.1923429096
 10
-24.2100505119
 20
-11.2727512109
  0
LWPOLYLINE
  5
380
100
AcDbEntity
  8
0
100
AcDbPolyline
 62
250
  6
CONTINUOUS
 90
10
 70
0
 10
-26.0566950025
 20
-9.1207176837
 10
-26.1091781642
 20
-9.2222349932
 10
-26.1556925327
 20
-9.3297837692
 10
-26.196238108
 20
-9.4433640117
 10
-26.2309372114
 20
-9.5635031348
 10
-26.2596675216
 20
-9.6896737244
 10
-26.282062074
 20
-9.8202935385
 10
-26.2979985473
 20
-9.9548351633
 10
-26.3075992628
 20
-10.0938260127
 10
-26.3108642206
 20
-10.2372660867
  0
LWPOLYLINE
  5
381
100
AcDbEntity
  8
0
100
AcDbPolyline
 62
250
  6
CONTINUOUS
 90
10
 70
0
 10
-25.4877544697
 20
-10.3776660307
 10
-25.5214234072
 20
-10.4366827909
 10
-25.5512640463
 20
-10.4997829035
 10
-25.5771779378
 20
-10.5667646585
 10
-25.5991266047
 20
-10.6373431749
 10
-25.6170837544
 20
-10.711189448
 10
-25.6310246806
 20
-10.7879544461
 10
-25.6409353796
 20
-10.867310955
 10
-25.6468074168
 20
-10.9489576233
 10
-25.6486332938
 20
-11.0325868621
  0
LWPOLYLINE
  5
382
100
AcDbEntity
  8
0
100
AcDbPolyline
 62
250
  6
CONTINUOUS
 90
10
 70
0
 10
-48.2900862351
 20
-33.8746849478
 10
-48.463290183
 20
-34.0037107684
 10
-48.6220537661
 20
-34.1713424395
 10
-48.7589767626
 20
-34.3679080618
 10
-48.8684081084
 20
-34.584554194
 10
-48.9430375668
 20
-34.8082591592
 10
-48.9774364721
 20
-35.0220834463
 10
-48.9707719666
 20
-35.2135536566
 10
-48.9233392815
 20
-35.3745248798
 10
-48.8365147724
 20
-35.4961680874
  0
LWPOLYLINE
  5
383
100
AcDbEntity
  8
0
100
AcDbPolyline
 62
250
  6
CONTINUOUS
 90
10
 70
0
 10
-5.537358558
 20
-4.8664112632
 10
-5.6296351977
 20
-4.9326374887
 10
-5.7195541882
 20
-5.0113334922
 10
-5.8055738364
 20
-5.1011060403
 10
-5.8863215694
 20
-5.2005042825
 10
-5.9603179643
 20
-5.3076875022
 10
-6.0260884498
 20
-5.4203710784
 10
-6.0825677312
 20
-5.5364218309
 10
-6.1290227097
 20
-5.6539786344
 10
-6.1648224517
 20
-5.7710669989
  0
LINE
  5
384
100
AcDbEntity
  8
RACCORDO
100
AcDbLine
 62
7
  6
CONTINUOUS
 10
-48.8091227896
 20
-29.4680835792
 11
-49.0506536061
 21
-29.6229661203
  0
LINE
  5
385
100
AcDbEntity
  8
DRAFT
100
AcDbLine
 62
7
  6
CONTINUOUS
 10
-49.2516682716
 20
-29.7518675277
 11
-49.3856780487
 21
-29.8378017993
  0
LINE
  5
386
100
AcDbEntity
  8
DRAFT
100
AcDbLine
 62
7
  6
CONTINUOUS
 10
-49.5866927142
 20
-29.9667032068
 11
-49.7207024912
 21
-30.0526374784
  0
LINE
  5
387
100
AcDbEntity
  8
DRAFT
100
AcDbLine
 62
7
  6
CONTINUOUS
 10
-49.9217171567
 20
-30.1815388858
 11
-50.0557269337
 21
-30.2674731575
  0
LINE
  5
388
100
AcDbEntity
  8
DRAFT
100
AcDbLine
 62
7
  6
CONTINUOUS
 10
-50.2567415993
 20
-30.3963745649
 11
-50.3907513763
 21
-30.4823088365
  0
LWPOLYLINE
  5
389
100
AcDbEntity
  8
0
100
AcDbPolyline
 62
7
  6
CONTINUOUS
 90
6
 70
0
 10
-20.587882259
 20
-13.7383106388
 10
-20.5671642275
 20
-13.7251167823
 10
-20.5511693622
 20
-13.716030197
 10
-20.5405634066
 20
-13.7108259762
 10
-20.5364679956
 20
-13.708762296
 10
-20.5364359637
 20
-13.7086885167
  0
LINE
  5
38A
100
AcDbEntity
  8
0
100
AcDbLine
 62
7
  6
CONTINUOUS
 10
-20.9603679229
 20
-13.523242022
 11
-22.1364756134
 21
-14.2023191212
  0
LINE
  5
38B
100
AcDbEntity
  8
0
100
AcDbLine
 62
7
  6
CONTINUOUS
 10
-48.8091227896
 20
-30.0895425239
 11
-49.9968496583
 21
-30.7753284627
  0
LINE
  5
38C
100
AcDbEntity
  8
RACCORDO
100
AcDbLine
 62
7
  6
CONTINUOUS
 10
-48.8161363195
 20
-30.0935920914
 11
-48.9445811395
 21
-30.1677401868
  0
LINE
  5
38D
100
AcDbEntity
  8
0
100
AcDbLine
 62
7
  6
CONTINUOUS
 10
-20.5950897252
 20
-13.74224816
 11
-22.1364756134
 21
-14.5389506432
  0
LWPOLYLINE
  5
38E
100
AcDbEntity
  8
0
100
AcDbPolyline
 62
7
  6
CONTINUOUS
 90
6
 70
0
 10
-20.9673816499
 20
-13.5272915789
 10
-20.9443179379
 20
-13.5171378006
 10
-20.9196000902
 20
-13.5124263532
 10
-20.8939249836
 20
-13.5135246243
 10
-20.8681252067
 20
-13.520655985
 10
-20.8526487118
 20
-13.5280154731
  0
LWPOLYLINE
  5
38F
100
AcDbEntity
  8
0
100
AcDbPolyline
 62
250
  6
CONTINUOUS
 90
10
 70
0
 10
-68.680443292
 20
-33.4967467689
 10
-68.4694165785
 20
-33.4151547815
 10
-68.2604288234
 20
-33.3266159886
 10
-68.0533686642
 20
-33.231089839
 10
-67.8477358772
 20
-33.1283347098
 10
-67.6438155143
 20
-33.0184828984
 10
-67.4427338413
 20
-32.9021264665
 10
-67.2449155762
 20
-32.7794894016
 10
-67.0499266272
 20
-32.6503109793
 10
-66.8574713504
 20
-32.5144743415
  0
LWPOLYLINE
  5
390
100
AcDbEntity
  8
0
100
AcDbPolyline
 62
250
  6
CONTINUOUS
 90
10
 70
0
 10
10.0535597698
 20
-49.3034784818
 10
10.5450963354
 20
-49.5485328468
 10
11.0557354134
 20
-49.7958586512
 10
11.5809021163
 20
-50.0435525382
 10
12.1116271117
 20
-50.2876533353
 10
12.6471119245
 20
-50.5280674624
 10
13.1946403756
 20
-50.7679983151
 10
13.752047231
 20
-51.0061319669
 10
14.3077720822
 20
-51.2371078288
 10
14.8533109563
 20
-51.4569578494
  0
LINE
  5
391
100
AcDbEntity
  8
0
100
AcDbLine
 62
250
  6
CONTINUOUS
 10
-20.960367923
 20
-31.8938070837
 11
-20.5876883097
 21
-32.1089876216
  0
LINE
  5
392
100
AcDbEntity
  8
RACCORDO
100
AcDbLine
 62
250
  6
CONTINUOUS
 10
-61.2188575334
 20
-8.5952719387
 11
-60.6806409609
 21
-8.9060314423
  0
LINE
  5
393
100
AcDbEntity
  8
0
100
AcDbLine
 62
7
  6
CONTINUOUS
 10
-20.8504115214
 20
-31.8979680216
 11
-20.5365111524
 21
-32.0792101605
  0
LINE
  5
394
100
AcDbEntity
  8
RACCORDO
100
AcDbLine
 62
7
  6
CONTINUOUS
 10
-61.1089010212
 20
-8.5994328663
 11
-60.5880375508
 21
-8.9001729062
  0
LWPOLYLINE
  5
395
100
AcDbEntity
  8
0
100
AcDbPolyline
 62
250
  6
CONTINUOUS
 90
10
 70
0
 10
-66.5973487146
 20
-5.0462059685
 10
-67.0248290557
 20
-4.7603152126
 10
-67.4559840199
 20
-4.4634745344
 10
-67.8874100113
 20
-4.1583954178
 10
-68.3128680313
 20
-3.8498421115
 10
-68.7314412156
 20
-3.5388139268
 10
-69.1468244299
 20
-3.2225597191
 10
-69.5564039819
 20
-2.9027142089
 10
-69.9519217652
 20
-2.5852886157
 10
-70.3270519257
 20
-2.2748814209
  0
LWPOLYLINE
  5
396
100
AcDbEntity
  8
0
100
AcDbPolyline
 62
250
  6
CONTINUOUS
 90
10
 70
0
 10
21.4757367638
 20
-83.2452337593
 10
21.5879364543
 20
-83.3676913887
 10
21.7083364375
 20
-83.4682226097
 10
21.8351174387
 20
-83.5507348865
 10
21.965563071
 20
-83.6148458466
 10
22.0963097394
 20
-83.6581401757
 10
22.2241069953
 20
-83.6795269352
 10
22.3465840129
 20
-83.6791920953
 10
22.4620822102
 20
-83.6575156903
 10
22.569035991
 20
-83.6149678663
  0
LWPOLYLINE
  5
397
100
AcDbEntity
  8
0
100
AcDbPolyline
 62
250
  6
CONTINUOUS
 90
5
 70
0
 10
19.4254816321
 20
-84.3676798666
 10
19.5391564171
 20
-84.4941585872
 10
19.6595998305
 20
-84.605304922
 10
19.7846370793
 20
-84.6992195653
 10
19.8619422714
 20
-84.7470809362
  0
LWPOLYLINE
  5
398
100
AcDbEntity
  8
0
100
AcDbPolyline
 62
250
  6
CONTINUOUS
 90
10
 70
0
 10
16.0451632962
 20
-82.4162501515
 10
15.6686597933
 20
-81.9955585381
 10
15.2959976644
 20
-81.5713078137
 10
14.9269787031
 20
-81.1432768598
 10
14.5607518988
 20
-80.7104666478
 10
14.1977839502
 20
-80.2734181823
 10
13.8399391533
 20
-79.8343702457
 10
13.4878936682
 20
-79.3941477664
 10
13.1408845112
 20
-78.9518226668
 10
12.7983774104
 20
-78.5068118357
  0
LINE
  5
399
100
AcDbEntity
  8
0
100
AcDbLine
 62
250
  6
CONTINUOUS
 10
19.9681697969
 20
-84.7424133932
 11
19.8575934995
 21
-84.6182293201
  0
LWPOLYLINE
  5
39A
100
AcDbEntity
  8
0
100
AcDbPolyline
 62
250
  6
CONTINUOUS
 90
10
 70
0
 10
21.4710238559
 20
-83.4854979423
 10
21.5808495803
 20
-83.6091697449
 10
21.7004009513
 20
-83.7140934718
 10
21.8266550289
 20
-83.7993603701
 10
21.957243412
 20
-83.8643758742
 10
22.0890408333
 20
-83.908040606
 10
22.2181089869
 20
-83.9295152624
 10
22.3417453387
 20
-83.9290091906
 10
22.4585158029
 20
-83.9070023037
 10
22.5667947855
 20
-83.863957122
  0
LINE
  5
39B
100
AcDbEntity
  8
0
100
AcDbLine
 62
250
  6
CONTINUOUS
 10
-26.0998719864
 20
-47.7669422971
 11
-26.0537664692
 21
-47.9061136478
  0
LWPOLYLINE
  5
39C
100
AcDbEntity
  8
0
100
AcDbPolyline
 62
7
  6
CONTINUOUS
 90
4
 70
0
 10
-25.5609580662
 20
-47.9033342661
 10
-25.4731389104
 20
-48.1874219636
 10
-25.3518082555
 20
-48.474981449
 10
-25.1945879667
 20
-48.7570894025
  0
LWPOLYLINE
  5
39D
100
AcDbEntity
  8
0
100
AcDbPolyline
 62
7
  6
CONTINUOUS
 90
8
 70
0
 10
-25.6468803226
 20
-47.2856788804
 10
-25.6618076171
 20
-47.2239445604
 10
-25.6823923543
 20
-47.1607776971
 10
-25.7090627653
 20
-47.0963756425
 10
-25.7420733439
 20
-47.0312605594
 10
-25.7819424878
 20
-46.9653769804
 10
-25.8297142335
 20
-46.8981465639
 10
-25.8863699317
 20
-46.8295259727
  0
LWPOLYLINE
  5
39E
100
AcDbEntity
  8
0
100
AcDbPolyline
 62
250
  6
CONTINUOUS
 90
7
 70
0
 10
-32.5628284789
 20
-25.0630553329
 10
-32.532056607
 20
-25.2099867303
 10
-32.4429450761
 20
-25.3495731565
 10
-32.3057501833
 20
-25.4696263567
 10
-32.1334105285
 20
-25.562743885
 10
-31.9317490564
 20
-25.6271146203
 10
-31.7077786839
 20
-25.6597234846
  0
LWPOLYLINE
  5
39F
100
AcDbEntity
  8
0
100
AcDbPolyline
 62
7
  6
CONTINUOUS
 90
3
 70
0
 10
-25.6399251115
 20
-47.479887093
 10
-25.6211957424
 20
-47.6158061154
 10
-25.5609580662
 20
-47.9033342661
  0
LWPOLYLINE
  5
3A0
100
AcDbEntity
  8
0
100
AcDbPolyline
 62
7
  6
CONTINUOUS
 90
4
 70
0
 10
-25.6396438329
 20
-47.4795900773
 10
-25.6410992347
 20
-47.4639555076
 10
-25.642456285
 20
-47.4471341924
 10
-25.6449233893
 20
-47.4139227003
  0
LWPOLYLINE
  5
3A1
100
AcDbEntity
  8
0
100
AcDbPolyline
 62
7
  6
CONTINUOUS
 90
4
 70
0
 10
-25.6449233893
 20
-47.4139227003
 10
-25.6463046579
 20
-47.3968369427
 10
-25.6479307721
 20
-47.37898306
 10
-25.6517654685
 20
-47.3419712832
  0
LWPOLYLINE
  5
3A2
100
AcDbEntity
  8
0
100
AcDbPolyline
 62
7
  6
CONTINUOUS
 90
9
 70
0
 10
-25.6517654685
 20
-47.3419712832
 10
-25.6528374661
 20
-47.3265420267
 10
-25.6524423602
 20
-47.3173887374
 10
-25.6508495681
 20
-47.3144246404
 10
-25.6486946228
 20
-47.3146812595
 10
-25.6460799137
 20
-47.3158850226
 10
-25.6434423989
 20
-47.3158377228
 10
-25.6420724268
 20
-47.3107261653
 10
-25.6434206509
 20
-47.2955330028
  0
LWPOLYLINE
  5
3A3
100
AcDbEntity
  8
0
100
AcDbPolyline
 62
250
  6
CONTINUOUS
 90
10
 70
0
 10
-24.0262595996
 20
-50.60981207
 10
-24.0338908565
 20
-50.4720348363
 10
-24.0466264978
 20
-50.3412271631
 10
-24.0644655252
 20
-50.217998446
 10
-24.0874143116
 20
-50.1027443033
 10
-24.115481348
 20
-49.9963932895
 10
-24.148486398
 20
-49.9002149234
 10
-24.1861635298
 20
-49.8148921488
 10
-24.228351787
 20
-49.7407137437
 10
-24.274856414
 20
-49.6781857643
  0
LWPOLYLINE
  5
3A4
100
AcDbEntity
  8
0
100
AcDbPolyline
 62
250
  6
CONTINUOUS
 90
12
 70
0
 10
-26.3108642206
 20
-46.477239846
 10
-26.3103836337
 20
-46.5802268289
 10
-26.3065089034
 20
-46.6854391247
 10
-26.2992400295
 20
-46.7928767335
 10
-26.2888337884
 20
-46.9019523657
 10
-26.2750334039
 20
-47.0132533108
 10
-26.2570685472
 20
-47.1285414374
 10
-26.2349238632
 20
-47.2484562978
 10
-26.208614707
 20
-47.3723583397
 10
-26.1774168158
 20
-47.5000907745
 10
-26.1410887686
 20
-47.6316013394
 10
-26.0998719864
 20
-47.7669422971
  0
LINE
  5
3A5
100
AcDbEntity
  8
0
100
AcDbLine
 62
250
  6
CONTINUOUS
 10
-26.3108642206
 20
-46.477239846
 11
-26.3108642206
 21
-10.2372660867
  0
LINE
  5
3A6
100
AcDbEntity
  8
0
100
AcDbLine
 62
250
  6
CONTINUOUS
 10
-25.6468803226
 20
-11.0315615638
 11
-25.6468803226
 21
-47.2856788804
  0
LINE
  5
3A7
100
AcDbEntity
  8
0
100
AcDbLine
 62
250
  6
CONTINUOUS
 10
-23.9672775226
 20
-11.3727775799
 11
-23.9672775226
 21
-47.6386493033
  0
LINE
  5
3A8
100
AcDbEntity
  8
0
100
AcDbLine
 62
250
  6
CONTINUOUS
 10
-24.0766447946
 20
-9.1092009393
 11
-24.0270724298
 21
-8.6422357498
  0
LWPOLYLINE
  5
3A9
100
AcDbEntity
  8
0
100
AcDbPolyline
 62
250
  6
CONTINUOUS
 90
7
 70
0
 10
-24.2739748231
 20
-10.2383412972
 10
-24.2231281472
 20
-10.0401618428
 10
-24.1792463975
 20
-9.8450395107
 10
-24.1425017733
 20
-9.6537312148
 10
-24.1145604612
 20
-9.4661665151
 10
-24.0942502844
 20
-9.2836863883
 10
-24.0766447946
 20
-9.1092009393
  0
LWPOLYLINE
  5
3AA
100
AcDbEntity
  8
0
100
AcDbPolyline
 62
7
  6
CONTINUOUS
 90
6
 70
0
 10
-20.5950903796
 20
-18.516145374
 10
-20.5711790959
 20
-18.4945714456
 10
-20.5534019895
 20
-18.4673886965
 10
-20.5419735468
 20
-18.4353442096
 10
-20.5368660633
 20
-18.3986831932
 10
-20.5365128237
 20
-18.3859792316
  0
LINE
  5
3AB
100
AcDbEntity
  8
0
100
AcDbLine
 62
7
  6
CONTINUOUS
 10
-22.1364756134
 20
-19.4993962124
 11
-20.5950897252
 21
-18.5161449081
  0
LWPOLYLINE
  5
3AC
100
AcDbEntity
  8
0
100
AcDbPolyline
 62
7
  6
CONTINUOUS
 90
7
 70
0
 10
8.5975186747
 20
-30.8030924835
 10
8.36757352
 20
-30.7694280356
 10
8.1634972778
 20
-30.7025793247
 10
7.9918077167
 20
-30.6066250531
 10
7.8577007417
 20
-30.4841350308
 10
7.7730658296
 20
-30.3431680412
 10
7.747221854
 20
-30.2261333409
  0
LWPOLYLINE
  5
3AD
100
AcDbEntity
  8
RACCORDO
100
AcDbPolyline
 62
7
  6
CONTINUOUS
 90
6
 70
0
 10
-60.5879824646
 20
-8.9002047473
 10
-60.5943103506
 20
-8.8972383225
 10
-60.6131004818
 20
-8.8916234699
 10
-60.633525922
 20
-8.8913621085
 10
-60.6560394151
 20
-8.896164766
 10
-60.6806409609
 20
-8.9060314423
  0
LINE
  5
3AE
100
AcDbEntity
  8
0
100
AcDbLine
 62
7
  6
CONTINUOUS
 10
24.5536385226
 20
-53.9750244301
 11
25.9678508406
 21
-54.7915728982
  0
LINE
  5
3AF
100
AcDbEntity
  8
0
100
AcDbLine
 62
250
  6
CONTINUOUS
 10
10.5281735925
 20
-66.421965063
 11
10.0535661473
 21
-65.9188916084
  0
LWPOLYLINE
  5
3B0
100
AcDbEntity
  8
0
100
AcDbPolyline
 62
250
  6
CONTINUOUS
 90
3
 70
0
 10
11.4867558354
 20
-67.4530907029
 10
11.0061784829
 20
-66.9336329709
 10
10.5281735925
 20
-66.421965063
  0
LWPOLYLINE
  5
3B1
100
AcDbEntity
  8
0
100
AcDbPolyline
 62
250
  6
CONTINUOUS
 90
7
 70
0
 10
14.3659345154
 20
-70.6717185786
 10
13.8920775477
 20
-70.1294708581
 10
13.4149222095
 20
-69.5884377842
 10
12.9350934571
 20
-69.0493936155
 10
12.4528589662
 20
-68.5127371319
 10
11.9694165726
 20
-67.9799041914
 10
11.4867558354
 20
-67.4530907029
  0
LWPOLYLINE
  5
3B2
100
AcDbEntity
  8
0
100
AcDbPolyline
 62
250
  6
CONTINUOUS
 90
9
 70
0
 10
14.3659345111
 20
-70.6717185697
 10
14.7974177838
 20
-71.1705831609
 10
15.2295289717
 20
-71.6743391504
 10
15.6624311505
 20
-72.182988313
 10
16.0965118236
 20
-72.6967401352
 10
16.5318381625
 20
-73.2154457269
 10
16.9681155322
 20
-73.7385855211
 10
17.4053625237
 20
-74.2660238664
 10
17.8439727606
 20
-74.798040578
  0
LINE
  5
3B3
100
AcDbEntity
  8
0
100
AcDbLine
 62
250
  6
CONTINUOUS
 10
10.0485745184
 20
-67.8324582919
 11
10.9314557714
 21
-68.8986599458
  0
LINE
  5
3B4
100
AcDbEntity
  8
0
100
AcDbLine
 62
250
  6
CONTINUOUS
 10
10.9314557714
 20
-68.8986599458
 11
11.7971262602
 21
-69.9530576976
  0
LINE
  5
3B5
100
AcDbEntity
  8
0
100
AcDbLine
 62
250
  6
CONTINUOUS
 10
17.8439727606
 20
-74.798040578
 11
18.6422205579
 21
-75.7720937446
  0
LINE
  5
3B6
100
AcDbEntity
  8
0
100
AcDbLine
 62
250
  6
CONTINUOUS
 10
11.7971262602
 20
-69.9530576976
 11
12.6555115018
 21
-71.007882103
  0
LINE
  5
3B7
100
AcDbEntity
  8
0
100
AcDbLine
 62
250
  6
CONTINUOUS
 10
12.6555115018
 20
-71.007882103
 11
13.5146985915
 21
-72.0729930852
  0
LINE
  5
3B8
100
AcDbEntity
  8
0
100
AcDbLine
 62
250
  6
CONTINUOUS
 10
14.3910162015
 20
-73.1689952114
 11
13.5146985915
 21
-72.0729930852
  0
LINE
  5
3B9
100
AcDbEntity
  8
0
100
AcDbLine
 62
250
  6
CONTINUOUS
 10
15.2888144968
 20
-74.3008945708
 11
14.3910162015
 21
-73.1689952114
  0
LINE
  5
3BA
100
AcDbEntity
  8
0
100
AcDbLine
 62
250
  6
CONTINUOUS
 10
16.1904833653
 20
-75.4453653993
 11
15.2888144968
 21
-74.3008945708
  0
LINE
  5
3BB
100
AcDbEntity
  8
0
100
AcDbLine
 62
250
  6
CONTINUOUS
 10
17.5551864604
 20
-77.1890749139
 11
16.1904833653
 21
-75.4453653993
  0
LINE
  5
3BC
100
AcDbEntity
  8
0
100
AcDbLine
 62
250
  6
CONTINUOUS
 10
19.6715774514
 20
-84.2009542907
 11
20.1028418833
 21
-84.7553520761
  0
LINE
  5
3BD
100
AcDbEntity
  8
0
100
AcDbLine
 62
250
  6
CONTINUOUS
 10
19.1779857312
 20
-79.2754673971
 11
17.5551864604
 21
-77.1890749139
  0
LINE
  5
3BE
100
AcDbEntity
  8
0
100
AcDbLine
 62
250
  6
CONTINUOUS
 10
19.2398147707
 20
-83.6418870379
 11
19.6715774514
 21
-84.2009542907
  0
LWPOLYLINE
  5
3BF
100
AcDbEntity
  8
0
100
AcDbPolyline
 62
7
  6
CONTINUOUS
 90
10
 70
0
 10
15.043107963
 20
-79.4855991482
 10
15.4318407718
 20
-79.9985733518
 10
15.8230592928
 20
-80.5061146181
 10
16.2165529488
 20
-81.0078635533
 10
16.6118325241
 20
-81.5034449437
 10
17.0086654378
 20
-81.9929239699
 10
17.4070826026
 20
-82.4768227525
 10
17.8067886359
 20
-82.9553605801
 10
18.2071961911
 20
-83.4283915874
 10
18.6078832845
 20
-83.8959545981
  0
LWPOLYLINE
  5
3C0
100
AcDbEntity
  8
0
100
AcDbPolyline
 62
250
  6
CONTINUOUS
 90
9
 70
0
 10
12.7983774104
 20
-78.5068118357
 10
12.4109614217
 20
-77.9930397338
 10
12.0288709272
 20
-77.4756740384
 10
11.6511771703
 20
-76.9532905347
 10
11.2760185413
 20
-76.4230949461
 10
10.9034564775
 20
-75.8849677505
 10
10.5350772604
 20
-75.3412088069
 10
10.1706943627
 20
-74.7917228465
 10
9.808533116
 20
-74.2339762245
  0
LWPOLYLINE
  5
3C1
100
AcDbEntity
  8
0
100
AcDbPolyline
 62
250
  6
CONTINUOUS
 90
8
 70
0
 10
15.0430325152
 20
-79.48552263
 10
14.6250798896
 20
-78.9241973972
 10
14.208444238
 20
-78.35496161
 10
13.7933593777
 20
-77.7788702204
 10
13.3806592193
 20
-77.1978646105
 10
12.9699835182
 20
-76.6122506395
 10
12.5598478303
 20
-76.0206971338
 10
12.1500087752
 20
-75.4236328793
  0
LWPOLYLINE
  5
3C2
100
AcDbEntity
  8
0
100
AcDbPolyline
 62
250
  6
CONTINUOUS
 90
8
 70
0
 10
16.2831913415
 20
-79.7039122054
 10
16.6930479996
 20
-80.2618069265
 10
17.1088813364
 20
-80.8236637724
 10
17.5295120272
 20
-81.3879016962
 10
17.9533060397
 20
-81.9523498045
 10
18.3795789874
 20
-82.5161139629
 10
18.8086254429
 20
-83.0795786574
 10
19.2398147707
 20
-83.6418870379
  0
LWPOLYLINE
  5
3C3
100
AcDbEntity
  8
0
100
AcDbPolyline
 62
250
  6
CONTINUOUS
 90
4
 70
0
 10
16.2832110227
 20
-79.7039106835
 10
15.8312233894
 20
-79.0839746512
 10
15.3808046025
 20
-78.461924805
 10
14.9327815687
 20
-77.8395237528
  0
LWPOLYLINE
  5
3C4
100
AcDbEntity
  8
0
100
AcDbPolyline
 62
250
  6
CONTINUOUS
 90
9
 70
0
 10
7.2112161348
 20
-67.8582362401
 10
7.1241121181
 20
-67.7357568948
 10
7.0769631321
 20
-67.5733558812
 10
7.0709600312
 20
-67.380257766
 10
7.1062060075
 20
-67.1647032295
 10
7.1816929527
 20
-66.9396345216
 10
7.2914176857
 20
-66.7228139878
 10
7.42751243
 20
-66.5273126634
 10
7.5841110246
 20
-66.3612946507
  0
LINE
  5
3C5
100
AcDbEntity
  8
0
100
AcDbLine
 62
250
  6
CONTINUOUS
 10
-31.8682413995
 20
-6.6736609972
 11
-31.9632054808
 21
-6.4540661818
  0
LWPOLYLINE
  5
3C6
100
AcDbEntity
  8
0
100
AcDbPolyline
 62
250
  6
CONTINUOUS
 90
10
 70
0
 10
-30.5889240999
 20
-6.503557583
 10
-30.7320769282
 20
-6.1276606679
 10
-30.8945196864
 20
-5.7632228341
 10
-31.077399612
 20
-5.4109179682
 10
-31.2863528701
 20
-5.0651656394
 10
-31.5173458937
 20
-4.7324615425
 10
-31.7569004841
 20
-4.4314994914
 10
-32.0008817114
 20
-4.1686931675
 10
-32.2543488141
 20
-3.9381057134
 10
-32.5175294198
 20
-3.739848575
  0
LWPOLYLINE
  5
3C7
100
AcDbEntity
  8
0
100
AcDbPolyline
 62
250
  6
CONTINUOUS
 90
10
 70
0
 10
-31.8733221615
 20
-6.6756048975
 10
-31.8382923575
 20
-6.775217306
 10
-31.8072008544
 20
-6.8745055316
 10
-31.780158777
 20
-6.9731239122
 10
-31.7572586096
 20
-7.0707293007
 10
-31.7385811757
 20
-7.1669802105
 10
-31.7242029003
 20
-7.2615385361
 10
-31.7141988127
 20
-7.354073076
 10
-31.708642802
 20
-7.4442596207
 10
-31.7076048585
 20
-7.5317792675
  0
LINE
  5
3C8
100
AcDbEntity
  8
0
100
AcDbLine
 62
7
  6
CONTINUOUS
 10
-22.1364756134
 20
-12.4697867334
 11
-22.1364756134
 21
-46.6178370075
  0
LINE
  5
3C9
100
AcDbEntity
  8
0
100
AcDbLine
 62
250
  6
CONTINUOUS
 10
-20.5950897252
 20
-13.74224816
 11
-20.5950897252
 21
-18.5161449081
  0
LINE
  5
3CA
100
AcDbEntity
  8
0
100
AcDbLine
 62
250
  6
CONTINUOUS
 10
-20.5950897252
 20
-32.1128132217
 11
-20.5950897252
 21
-36.8867099699
  0
LINE
  5
3CB
100
AcDbEntity
  8
0
100
AcDbLine
 62
7
  6
CONTINUOUS
 10
-20.5365111521
 20
-13.7086450992
 11
-20.5365111521
 21
-18.3864382755
  0
LINE
  5
3CC
100
AcDbEntity
  8
0
100
AcDbLine
 62
7
  6
CONTINUOUS
 10
-20.5365111521
 20
-32.0792101609
 11
-20.5365111521
 21
-36.7570033373
  0
LWPOLYLINE
  5
3CD
100
AcDbEntity
  8
0
100
AcDbPolyline
 62
250
  6
CONTINUOUS
 90
10
 70
0
 10
-30.589051886
 20
-45.2878917242
 10
-30.720639381
 20
-45.4889277659
 10
-30.8744384882
 20
-45.651165436
 10
-31.0514187486
 20
-45.7751543332
 10
-31.2567669738
 20
-45.8625138849
 10
-31.4866879246
 20
-45.9124304887
 10
-31.7286711393
 20
-45.9218206076
 10
-31.978938603
 20
-45.8899028577
 10
-32.2422380103
 20
-45.818064084
 10
-32.5188211052
 20
-45.7064665496
  0
LWPOLYLINE
  5
3CE
100
AcDbEntity
  8
0
100
AcDbPolyline
 62
7
  6
CONTINUOUS
 90
31
 70
0
 10
-31.8526900209
 20
-44.4427321572
 10
-31.836737721
 20
-44.4183733952
 10
-31.8218409541
 20
-44.3939059199
 10
-31.8079604275
 20
-44.3693990056
 10
-31.7950713062
 20
-44.3449394258
 10
-31.7831204141
 20
-44.3205690887
 10
-31.772031061
 20
-44.2962800754
 10
-31.7617687769
 20
-44.2721222496
 10
-31.752301661
 20
-44.2481455879
 10
-31.7435655632
 20
-44.2243299647
 10
-31.7355291876
 20
-44.2007099606
 10
-31.7281661437
 20
-44.1773292579
 10
-31.7214266457
 20
-44.1541720876
 10
-31.7152815979
 20
-44.1312728254
 10
-31.7096913553
 20
-44.1086614577
 10
-31.7045972796
 20
-44.0863082776
 10
-31.6999620823
 20
-44.0642347341
 10
-31.6957529629
 20
-44.0424711695
 10
-31.6919251239
 20
-44.0209952472
 10
-31.6884477372
 20
-43.9998193442
 10
-31.685295045
 20
-43.9789722827
 10
-31.6824543309
 20
-43.9584506583
 10
-31.6799872995
 20
-43.9382551985
 10
-31.6779645486
 20
-43.9184016922
 10
-31.6764415648
 20
-43.8989022368
 10
-31.6754616945
 20
-43.8798103773
 10
-31.6747399505
 20
-43.8611212353
 10
-31.673548853
 20
-43.8427841617
 10
-31.672535899
 20
-43.8247006126
 10
-31.6838350901
 20
-43.8057464865
 10
-31.7055463551
 20
-43.7861140444
  0
LWPOLYLINE
  5
3CF
100
AcDbEntity
  8
SUPERFICI
100
AcDbPolyline
 62
7
  6
CONTINUOUS
 90
6
 70
0
 10
-32.8957552076
 20
-38.8420848779
 10
-32.8960456042
 20
-38.8423671335
 10
-32.9014259673
 20
-38.8452943654
 10
-32.9134131727
 20
-38.851652467
 10
-32.9307994255
 20
-38.8621036348
 10
-32.9528315711
 20
-38.8767778605
  0
LINE
  5
3D0
100
AcDbEntity
  8
0
100
AcDbLine
 62
7
  6
CONTINUOUS
 10
-37.0872798943
 20
-36.4895984598
 11
-38.6726277284
 21
-37.3137922791
  0
LWPOLYLINE
  5
3D1
100
AcDbEntity
  8
0
100
AcDbPolyline
 62
250
  6
CONTINUOUS
 90
10
 70
0
 10
-23.96814728
 20
-29.5069356828
 10
-24.1609934302
 20
-29.5880654392
 10
-24.3814026747
 20
-29.6366401771
 10
-24.6196695169
 20
-29.6523622533
 10
-24.8688795412
 20
-29.6346038121
 10
-25.1106349095
 20
-29.5831519979
 10
-25.3185584255
 20
-29.5039366018
 10
-25.4798316391
 20
-29.4044294491
 10
-25.5913193312
 20
-29.2879935136
 10
-25.6478010162
 20
-29.1586788004
  0
LWPOLYLINE
  5
3D2
100
AcDbEntity
  8
0
100
AcDbPolyline
 62
250
  6
CONTINUOUS
 90
10
 70
0
 10
-66.597312885
 20
-21.6611373871
 10
-66.9766808754
 20
-21.6701332046
 10
-67.3531017197
 20
-21.6876076784
 10
-67.7259295051
 20
-21.7136782551
 10
-68.0947359964
 20
-21.7484798922
 10
-68.458434709
 20
-21.7920869015
 10
-68.8155250975
 20
-21.8444088521
 10
-69.1651024909
 20
-21.9052939466
 10
-69.5067219163
 20
-21.9746535127
 10
-69.8396760903
 20
-22.0523577832
  0
LWPOLYLINE
  5
3D3
100
AcDbEntity
  8
0
100
AcDbPolyline
 62
250
  6
CONTINUOUS
 90
10
 70
0
 10
-66.5973278477
 20
13.3207497789
 10
-66.4874099953
 20
13.2360063347
 10
-66.3855481193
 20
13.1414720713
 10
-66.2923347051
 20
13.0374195391
 10
-66.2082066336
 20
12.9238505451
 10
-66.1340273327
 20
12.8013668163
 10
-66.070842
 20
12.6712342038
 10
-66.0192007573
 20
12.5341767406
 10
-65.9794040023
 20
12.3903131882
 10
-65.9519121824
 20
12.2400716774
  0
LWPOLYLINE
  5
3D4
100
AcDbEntity
  8
0
100
AcDbPolyline
 62
250
  6
CONTINUOUS
 90
7
 70
0
 10
-48.7715117553
 20
2.910403865
 10
-48.8684080225
 20
2.9937939825
 10
-48.9430376563
 20
3.1313184111
 10
-48.9774366711
 20
3.3054201844
 10
-48.9707721651
 20
3.5045871768
 10
-48.9233394138
 20
3.7203329258
 10
-48.8365147724
 20
3.9422382567
  0
LINE
  5
3D5
100
AcDbEntity
  8
0
100
AcDbLine
 62
250
  6
CONTINUOUS
 10
18.6422205579
 20
-75.7720937446
 11
19.3525596613
 21
-76.6444504851
  0
LINE
  5
3D6
100
AcDbEntity
  8
0
100
AcDbLine
 62
250
  6
CONTINUOUS
 10
19.3525596613
 20
-76.6444504851
 11
20.0583168433
 21
-77.5170418638
  0
LINE
  5
3D7
100
AcDbEntity
  8
0
100
AcDbLine
 62
250
  6
CONTINUOUS
 10
20.0583168433
 20
-77.5170418638
 11
20.7639510459
 21
-78.395272946
  0
LINE
  5
3D8
100
AcDbEntity
  8
0
100
AcDbLine
 62
250
  6
CONTINUOUS
 10
20.7639510459
 20
-78.395272946
 11
21.4726148216
 21
-79.284569542
  0
LWPOLYLINE
  5
3D9
100
AcDbEntity
  8
0
100
AcDbPolyline
 62
250
  6
CONTINUOUS
 90
3
 70
0
 10
21.4724177449
 20
-82.2436422901
 10
21.0927056045
 20
-81.7508079
 10
19.1779857312
 20
-79.2754673971
  0
LINE
  5
3DA
100
AcDbEntity
  8
0
100
AcDbLine
 62
250
  6
CONTINUOUS
 10
8.8416133389
 20
-69.2880069657
 11
10.0090798155
 21
-70.9210049265
  0
LINE
  5
3DB
100
AcDbEntity
  8
0
100
AcDbLine
 62
250
  6
CONTINUOUS
 10
14.9327815687
 20
-77.8395237528
 11
14.0496438046
 21
-76.6041625399
  0
LINE
  5
3DC
100
AcDbEntity
  8
0
100
AcDbLine
 62
250
  6
CONTINUOUS
 10
10.0090798155
 20
-70.9210049265
 11
11.1580557335
 21
-72.5329435319
  0
LINE
  5
3DD
100
AcDbEntity
  8
0
100
AcDbLine
 62
250
  6
CONTINUOUS
 10
11.1580557335
 20
-72.5329435319
 11
12.3137725986
 21
-74.159086955
  0
LINE
  5
3DE
100
AcDbEntity
  8
0
100
AcDbLine
 62
250
  6
CONTINUOUS
 10
14.0496438046
 20
-76.6041625399
 11
12.3137534809
 21
-74.159092343
  0
LINE
  5
3DF
100
AcDbEntity
  8
0
100
AcDbLine
 62
250
  6
CONTINUOUS
 10
12.1500087752
 20
-75.4236328793
 11
11.70322025
 21
-74.7667671467
  0
LINE
  5
3E0
100
AcDbEntity
  8
0
100
AcDbLine
 62
250
  6
CONTINUOUS
 10
11.70322025
 20
-74.7667671467
 11
10.9469684293
 21
-73.6447690702
  0
LINE
  5
3E1
100
AcDbEntity
  8
0
100
AcDbLine
 62
250
  6
CONTINUOUS
 10
10.9469684293
 20
-73.6447690702
 11
10.1834461685
 21
-72.5006072184
  0
LINE
  5
3E2
100
AcDbEntity
  8
0
100
AcDbLine
 62
250
  6
CONTINUOUS
 10
10.1834461685
 20
-72.5006072184
 11
9.4294941918
 21
-71.3593381184
  0
LINE
  5
3E3
100
AcDbEntity
  8
0
100
AcDbLine
 62
250
  6
CONTINUOUS
 10
9.4294941918
 20
-71.3593381184
 11
8.6804675794
 21
-70.2139545385
  0
LINE
  5
3E4
100
AcDbEntity
  8
0
100
AcDbLine
 62
250
  6
CONTINUOUS
 10
8.6804675794
 20
-70.2139545385
 11
7.9302306401
 21
-69.0553281635
  0
LINE
  5
3E5
100
AcDbEntity
  8
0
100
AcDbLine
 62
250
  6
CONTINUOUS
 10
9.808533116
 20
-74.2339762245
 11
9.4476543641
 21
-73.6666783689
  0
LWPOLYLINE
  5
3E6
100
AcDbEntity
  8
0
100
AcDbPolyline
 62
250
  6
CONTINUOUS
 90
10
 70
0
 10
9.4476543741
 20
-73.6666783667
 10
9.0742232453
 20
-73.0679974247
 10
8.7034637588
 20
-72.4601032319
 10
8.336455538
 20
-71.8449231696
 10
7.9742490442
 20
-71.2243366388
 10
7.6178663202
 20
-70.6001751031
 10
7.2683124522
 20
-69.9742205844
 10
6.9265744669
 20
-69.3482070082
 10
6.593611345
 20
-68.7238226088
 10
6.2703537708
 20
-68.1027101362
  0
LWPOLYLINE
  5
3E7
100
AcDbEntity
  8
0
100
AcDbPolyline
 62
250
  6
CONTINUOUS
 90
6
 70
0
 10
-31.9632054808
 20
-6.4540661818
 10
-32.0738402922
 20
-6.240953863
 10
-32.1997707014
 20
-6.0373059199
 10
-32.3374142371
 20
-5.8446089254
 10
-32.4825301646
 20
-5.6657629825
 10
-32.6330086107
 20
-5.5049456838
  0
LWPOLYLINE
  5
3E8
100
AcDbEntity
  8
0
100
AcDbPolyline
 62
7
  6
CONTINUOUS
 90
9
 70
0
 10
-25.6457160129
 20
-11.0314779434
 10
-25.5856522526
 20
-11.165262289
 10
-25.468926633
 20
-11.2836415365
 10
-25.3026018831
 20
-11.3828530247
 10
-25.091243368
 20
-11.4598300028
 10
-24.8486905635
 20
-11.5077759348
 10
-24.6016258868
 20
-11.5218158433
 10
-24.3680419076
 20
-11.5030474455
 10
-24.1540376267
 20
-11.4528143592
  0
LWPOLYLINE
  5
3E9
100
AcDbEntity
  8
0
100
AcDbPolyline
 62
250
  6
CONTINUOUS
 90
6
 70
0
 10
-6.5780362757
 20
-68.405497366
 10
-6.4995897669
 20
-68.6453739705
 10
-6.4191108975
 20
-68.8839329092
 10
-6.3363929485
 20
-69.121717455
 10
-6.2516211902
 20
-69.3581269306
 10
-6.164789647
 20
-69.5931367989
  0
LWPOLYLINE
  5
3EA
100
AcDbEntity
  8
0
100
AcDbPolyline
 62
250
  6
CONTINUOUS
 90
5
 70
0
 10
-6.8771920711
 20
-67.4135853444
 10
-6.8047100447
 20
-67.6663400576
 10
-6.7306356403
 20
-67.9159983109
 10
-6.6550038283
 20
-68.1625730997
 10
-6.5780362757
 20
-68.405497366
  0
LWPOLYLINE
  5
3EB
100
AcDbEntity
  8
0
100
AcDbPolyline
 62
250
  6
CONTINUOUS
 90
10
 70
0
 10
-6.8772167981
 20
-67.4136782518
 10
-6.9715928212
 20
-67.0747813332
 10
-7.0607034546
 20
-66.7416819985
 10
-7.1452909668
 20
-66.4105248683
 10
-7.2262427311
 20
-66.0770089363
 10
-7.3039130551
 20
-65.7391380219
 10
-7.3781726058
 20
-65.3975814623
 10
-7.4492937323
 20
-65.0518361619
 10
-7.5178929184
 20
-64.6997829271
 10
-7.5843363173
 20
-64.3408081677
  0
LINE
  5
3EC
100
AcDbEntity
  8
0
100
AcDbLine
 62
250
  6
CONTINUOUS
 10
-32.7209374379
 20
-43.0896611368
 11
-32.5513121674
 21
-42.9620800174
  0
LWPOLYLINE
  5
3ED
100
AcDbEntity
  8
SUPERFICI
100
AcDbPolyline
 62
7
  6
CONTINUOUS
 90
6
 70
0
 10
-32.952830936
 20
-39.3066493084
 10
-32.9325065066
 20
-39.2917509533
 10
-32.9160682435
 20
-39.2726988448
 10
-32.90418273
 20
-39.2499128401
 10
-32.8974596834
 20
-39.2240023348
 10
-32.8960956086
 20
-39.2069265679
  0
LINE
  5
3EE
100
AcDbEntity
  8
0
100
AcDbLine
 62
7
  6
CONTINUOUS
 10
-34.380284442
 20
-39.792137497
 11
-32.9528308405
 21
-38.8767775267
  0
LINE
  5
3EF
100
AcDbEntity
  8
0
100
AcDbLine
 62
7
  6
CONTINUOUS
 10
-20.9673814466
 20
-31.8978566476
 11
-22.1364756134
 21
-32.5728841829
  0
LINE
  5
3F0
100
AcDbEntity
  8
0
100
AcDbLine
 62
7
  6
CONTINUOUS
 10
-32.9528308405
 20
-39.3066491287
 11
-34.0869697529
 21
-39.9614937224
  0
LINE
  5
3F1
100
AcDbEntity
  8
0
100
AcDbLine
 62
7
  6
CONTINUOUS
 10
-22.1364756134
 20
-32.909515705
 11
-20.5950897252
 21
-32.1128132217
  0
LWPOLYLINE
  5
3F2
100
AcDbEntity
  8
0
100
AcDbPolyline
 62
7
  6
CONTINUOUS
 90
6
 70
0
 10
-20.9673816499
 20
-31.8978566406
 10
-20.9443179379
 20
-31.8877028623
 10
-20.9196000904
 20
-31.882991415
 10
-20.8939249838
 20
-31.8840896861
 10
-20.8681252069
 20
-31.8912210467
 10
-20.8526487118
 20
-31.8985805349
  0
LWPOLYLINE
  5
3F3
100
AcDbEntity
  8
SUPERFICI
100
AcDbPolyline
 62
7
  6
CONTINUOUS
 90
6
 70
0
 10
-37.0872806249
 20
-36.4895987937
 10
-37.0566422068
 20
-36.4796766039
 10
-37.024213495
 20
-36.4778711798
 10
-36.9907486838
 20
-36.4839948026
 10
-36.9564462155
 20
-36.4979009832
 10
-36.945258145
 20
-36.5039522779
  0
LWPOLYLINE
  5
3F4
100
AcDbEntity
  8
0
100
AcDbPolyline
 62
7
  6
CONTINUOUS
 90
6
 70
0
 10
-20.5365130895
 20
-32.0807203859
 10
-20.53690217
 20
-32.0808317161
 10
-20.542125828
 20
-32.084030369
 10
-20.5536242716
 20
-32.091235031
 10
-20.5713671092
 20
-32.101068576
 10
-20.5950903796
 20
-32.1128136875
  0
LINE
  5
3F5
100
AcDbEntity
  8
DRAFT
100
AcDbLine
 62
7
  6
CONTINUOUS
 10
-62.3497435053
 20
-14.8513624915
 11
-62.4415266725
 21
-14.8541395445
  0
LINE
  5
3F6
100
AcDbEntity
  8
DRAFT
100
AcDbLine
 62
7
  6
CONTINUOUS
 10
-61.9961901147
 20
-14.6258304978
 11
-62.208322149
 21
-14.6322489069
  0
LWPOLYLINE
  5
3F7
100
AcDbEntity
  8
0
100
AcDbPolyline
 62
250
  6
CONTINUOUS
 90
10
 70
0
 10
10.053576427
 20
-30.9365216166
 10
9.9192353818
 20
-30.8802330116
 10
9.7764807503
 20
-30.8335287554
 10
9.6257845733
 20
-30.796750941
 10
9.467296732
 20
-30.7702365496
 10
9.3019126288
 20
-30.7543993806
 10
9.1313843859
 20
-30.7495887203
 10
8.9568192331
 20
-30.7560374692
 10
8.7785696108
 20
-30.7740038049
 10
8.5973770155
 20
-30.8037535835
  0
LWPOLYLINE
  5
3F8
100
AcDbEntity
  8
0
100
AcDbPolyline
 62
250
  6
CONTINUOUS
 90
10
 70
0
 10
-26.3108653218
 20
-10.2387643549
 10
-26.182996427
 20
-10.3188586526
 10
-26.0692018287
 20
-10.4027783233
 10
-25.9694385437
 20
-10.4896461656
 10
-25.8835591503
 20
-10.5785886416
 10
-25.8112002733
 20
-10.6688707287
 10
-25.7518572201
 20
-10.7599153261
 10
-25.7050450151
 20
-10.8511210198
 10
-25.6702549164
 20
-10.9418484515
 10
-25.6468803226
 20
-11.0315615638
  0
LWPOLYLINE
  5
3F9
100
AcDbEntity
  8
0
100
AcDbPolyline
 62
250
  6
CONTINUOUS
 90
3
 70
0
 10
-32.6330086107
 20
-5.5049456838
 10
-32.7867871676
 20
-5.3643473593
 10
-32.9406697784
 20
-5.244579076
  0
LWPOLYLINE
  5
3FA
100
AcDbEntity
  8
0
100
AcDbPolyline
 62
250
  6
CONTINUOUS
 90
10
 70
0
 10
-7.5843364017
 20
-64.3408084653
 10
-7.6668178976
 20
-63.866148661
 10
-7.7439065525
 20
-63.3833776053
 10
-7.8154591321
 20
-62.8924788902
 10
-7.8814132349
 20
-62.3927906954
 10
-7.9415273093
 20
-61.884941623
 10
-7.9954620195
 20
-61.3709097561
 10
-8.0430900692
 20
-60.8514126378
 10
-8.084414943
 20
-60.3258483475
 10
-8.1193678454
 20
-59.7942725475
  0
LINE
  5
3FB
100
AcDbEntity
  8
0
100
AcDbLine
 62
250
  6
CONTINUOUS
 10
-8.5506548337
 20
-52.9577411529
 11
-8.5506548337
 21
-53.3880606393
  0
LINE
  5
3FC
100
AcDbEntity
  8
0
100
AcDbLine
 62
7
  6
CONTINUOUS
 10
-8.499283863
 20
-52.9282993863
 11
-8.499283863
 21
-53.2907565252
  0
LWPOLYLINE
  5
3FD
100
AcDbEntity
  8
0
100
AcDbPolyline
 62
250
  6
CONTINUOUS
 90
10
 70
0
 10
-7.5843348309
 20
-12.6626659832
 10
-7.667293175
 20
-13.2360526186
 10
-7.7447578847
 20
-13.8110663302
 10
-7.8165921253
 20
-14.3875590148
 10
-7.882831886
 20
-14.9669646711
 10
-7.9431318557
 20
-15.5475260449
 10
-7.996939873
 20
-16.1243696012
 10
-8.0441556851
 20
-16.6958404574
 10
-8.0849565494
 20
-17.2634273878
 10
-8.1193653061
 20
-17.8270420869
  0
LWPOLYLINE
  5
3FE
100
AcDbEntity
  8
0
100
AcDbPolyline
 62
250
  6
CONTINUOUS
 90
10
 70
0
 10
-6.8772374731
 20
-8.7733371309
 10
-6.9715674195
 20
-9.2209781763
 10
-7.0606573562
 20
-9.6568603293
 10
-7.1452333981
 20
-10.0856208698
 10
-7.2261818226
 20
-10.5125909921
 10
-7.3038561489
 20
-10.9401712408
 10
-7.3781236135
 20
-11.3675228341
 10
-7.4492545471
 20
-11.7954542857
 10
-7.5178702546
 20
-12.2268365906
 10
-7.5843395038
 20
-12.6627022625
  0
LWPOLYLINE
  5
3FF
100
AcDbEntity
  8
0
100
AcDbPolyline
 62
250
  6
CONTINUOUS
 90
10
 70
0
 10
-6.1647842991
 20
-5.771059718
 10
-6.2481776626
 20
-6.0929276555
 10
-6.3305833832
 20
-6.4175186812
 10
-6.4119468825
 20
-6.7448057883
 10
-6.4921252288
 20
-7.0743962241
 10
-6.5711544964
 20
-7.4066263285
 10
-6.6492289586
 20
-7.7425571478
 10
-6.7263538292
 20
-8.0825161593
 10
-6.8023660783
 20
-8.4261015952
 10
-6.8771872348
 20
-8.7732742079
  0
LWPOLYLINE
  5
400
100
AcDbEntity
  8
0
100
AcDbPolyline
 62
250
  6
CONTINUOUS
 90
10
 70
0
 10
-8.531711687
 20
-19.3293514112
 10
-8.4557673044
 20
-19.1628771064
 10
-8.3866216229
 20
-18.9942450579
 10
-8.3245714853
 20
-18.8241437121
 10
-8.2697620958
 20
-18.6527513475
 10
-8.2227103347
 20
-18.4813348486
 10
-8.1840541728
 20
-18.3122142934
 10
-8.1539610489
 20
-18.1466075368
 10
-8.1323786135
 20
-17.9846662015
 10
-8.1193822229
 20
-17.8270493863
  0
LWPOLYLINE
  5
401
100
AcDbEntity
  8
0
100
AcDbPolyline
 62
7
  6
CONTINUOUS
 90
6
 70
0
 10
-20.5950903796
 20
-36.8867104357
 10
-20.5711790959
 20
-36.8651365074
 10
-20.5534019895
 20
-36.8379537583
 10
-20.5419735468
 20
-36.8059092714
 10
-20.5368660633
 20
-36.7692482549
 10
-20.5365128237
 20
-36.7565442933
  0
LINE
  5
402
100
AcDbEntity
  8
0
100
AcDbLine
 62
7
  6
CONTINUOUS
 10
-20.5950897252
 20
-36.8867099699
 11
-22.1364756134
 21
-37.8699612741
  0
LWPOLYLINE
  5
403
100
AcDbEntity
  8
0
100
AcDbPolyline
 62
250
  6
CONTINUOUS
 90
10
 70
0
 10
16.0451843873
 20
-18.596231695
 10
15.6673391606
 20
-18.7740118114
 10
15.2938491266
 20
-18.9574558522
 10
14.9244998554
 20
-19.1466582842
 10
14.5586441561
 20
-19.3419490869
 10
14.1965130177
 20
-19.5432020758
 10
13.8393146394
 20
-19.7497601278
 10
13.4875141559
 20
-19.9613881841
 10
13.1405772121
 20
-20.178398314
 10
12.7980127255
 20
-20.4009803207
  0
LWPOLYLINE
  5
404
100
AcDbEntity
  8
0
100
AcDbPolyline
 62
250
  6
CONTINUOUS
 90
10
 70
0
 10
-66.5923497106
 20
-23.5810353278
 10
-66.9290263801
 20
-23.6656263996
 10
-67.2579812035
 20
-23.7532679555
 10
-67.5802166602
 20
-23.8442846822
 10
-67.8967829524
 20
-23.939023395
 10
-68.2084931324
 20
-24.0377616342
 10
-68.5159531304
 20
-24.1406826766
 10
-68.8199555852
 20
-24.2480023805
 10
-69.1214611803
 20
-24.3599930835
 10
-69.4213016902
 20
-24.4768837448
  0
LINE
  5
405
100
AcDbEntity
  8
DRAFT
100
AcDbLine
 62
7
  6
CONTINUOUS
 10
-61.6426367241
 20
-14.4002985041
 11
-61.8547687584
 21
-14.4067169132
  0
LINE
  5
406
100
AcDbEntity
  8
DRAFT
100
AcDbLine
 62
7
  6
CONTINUOUS
 10
-61.2890833335
 20
-14.1747665104
 11
-61.5012153678
 21
-14.1811849195
  0
LINE
  5
407
100
AcDbEntity
  8
DRAFT
100
AcDbLine
 62
7
  6
CONTINUOUS
 10
-60.9355299429
 20
-13.9492345167
 11
-61.1476619773
 21
-13.9556529258
  0
LINE
  5
408
100
AcDbEntity
  8
DRAFT
100
AcDbLine
 62
7
  6
CONTINUOUS
 10
-62.3497435053
 20
-9.7687473606
 11
-62.4415266725
 21
-9.7659703075
  0
LINE
  5
409
100
AcDbEntity
  8
DRAFT
100
AcDbLine
 62
7
  6
CONTINUOUS
 10
-61.9961901147
 20
-9.5860047609
 11
-62.208322149
 21
-9.5795863518
  0
LINE
  5
40A
100
AcDbEntity
  8
DRAFT
100
AcDbLine
 62
7
  6
CONTINUOUS
 10
-61.6426367241
 20
-9.4032621613
 11
-61.8547687584
 21
-9.3968437522
  0
LINE
  5
40B
100
AcDbEntity
  8
DRAFT
100
AcDbLine
 62
7
  6
CONTINUOUS
 10
-61.2890833335
 20
-9.2205195617
 11
-61.5012153678
 21
-9.2141011525
  0
LINE
  5
40C
100
AcDbEntity
  8
DRAFT
100
AcDbLine
 62
7
  6
CONTINUOUS
 10
-60.9355299429
 20
-9.037776962
 11
-61.1476619773
 21
-9.0313585529
  0
LWPOLYLINE
  5
40D
100
AcDbEntity
  8
0
100
AcDbPolyline
 62
7
  6
CONTINUOUS
 90
7
 70
0
 10
-31.7075323844
 20
-7.5314611428
 10
-31.9374798125
 20
-7.4977960492
 10
-32.1415581915
 20
-7.4309458187
 10
-32.3132492438
 20
-7.3349891199
 10
-32.4473571619
 20
-7.2124951959
 10
-32.5319902052
 20
-7.0715236082
 10
-32.5578230778
 20
-6.9546078124
  0
LWPOLYLINE
  5
40E
100
AcDbEntity
  8
0
100
AcDbPolyline
 62
7
  6
CONTINUOUS
 90
6
 70
0
 10
-24.2079081393
 20
-11.2637555091
 10
-24.2164865313
 20
-11.2617994236
 10
-24.2435462682
 20
-11.2539121209
 10
-24.2434685525
 20
-11.2541877978
 10
-24.2220931971
 20
-11.2651116961
 10
-24.2058093267
 20
-11.2742762332
  0
LWPOLYLINE
  5
40F
100
AcDbEntity
  8
0
100
AcDbPolyline
 62
250
  6
CONTINUOUS
 90
10
 70
0
 10
-24.0262536036
 20
-8.6426048106
 10
-24.2975651173
 20
-8.5338785449
 10
-24.5621341888
 20
-8.4666971332
 10
-24.8197307087
 20
-8.4409478091
 10
-25.0748918151
 20
-8.4571899386
 10
-25.322151855
 20
-8.5143846654
 10
-25.5462023309
 20
-8.6099710846
 10
-25.7414984397
 20
-8.7428403276
 10
-25.9120253499
 20
-8.9132093102
 10
-26.056670468
 20
-9.1204240328
  0
LWPOLYLINE
  5
410
100
AcDbEntity
  8
RACCORDO
100
AcDbPolyline
 62
7
  6
CONTINUOUS
 90
6
 70
0
 10
-60.5879824646
 20
9.4703926469
 10
-60.5943103506
 20
9.4733590716
 10
-60.6131004818
 20
9.4789739243
 10
-60.633525922
 20
9.4792352857
 10
-60.6560394151
 20
9.4744326282
 10
-60.6806409609
 20
9.4645659519
  0
LWPOLYLINE
  5
411
100
AcDbEntity
  8
0
100
AcDbPolyline
 62
250
  6
CONTINUOUS
 90
10
 70
0
 10
-24.2730497974
 20
-10.23850368
 10
-24.4371420535
 20
-10.1565038549
 10
-24.6000945503
 20
-10.0974593129
 10
-24.7588199935
 20
-10.0626368841
 10
-24.9104688601
 20
-10.0530407399
 10
-25.0527119691
 20
-10.0689072307
 10
-25.1833371979
 20
-10.1101480412
 10
-25.3003062049
 20
-10.176315292
 10
-25.4021448689
 20
-10.2661294282
 10
-25.4877544697
 20
-10.3776660307
  0
LWPOLYLINE
  5
412
100
AcDbEntity
  8
0
100
AcDbPolyline
 62
250
  6
CONTINUOUS
 90
10
 70
0
 10
-30.3346007878
 20
-7.915509926
 10
-30.4609003401
 20
-7.8478130452
 10
-30.5955012925
 20
-7.7857400451
 10
-30.7376519548
 20
-7.7296264546
 10
-30.8863909422
 20
-7.6798263355
 10
-31.041047959
 20
-7.6365398532
 10
-31.2013105359
 20
-7.5998858677
 10
-31.3665206488
 20
-7.5700984324
 10
-31.5356166459
 20
-7.5474506143
 10
-31.7076773684
 20
-7.5321333092
  0
LWPOLYLINE
  5
413
100
AcDbEntity
  8
0
100
AcDbPolyline
 62
7
  6
CONTINUOUS
 90
10
 70
0
 10
-64.331310709
 20
14.62904319
 10
-64.3472863432
 20
14.6380987483
 10
-64.3632349192
 20
14.64702593
 10
-64.3791554345
 20
14.6558230575
 10
-64.3950469075
 20
14.6644884756
 10
-64.4109083377
 20
14.6730205298
 10
-64.4267387045
 20
14.6814175667
 10
-64.4425370226
 20
14.6896779634
 10
-64.4583023411
 20
14.6978001265
 10
-64.4740337033
 20
14.7057824703
  0
LINE
  5
414
100
AcDbEntity
  8
0
100
AcDbLine
 62
7
  6
CONTINUOUS
 10
-33.0298408632
 20
-6.1803148
 11
-33.0270890022
 21
-6.1818864451
  0
LINE
  5
415
100
AcDbEntity
  8
0
100
AcDbLine
 62
250
  6
CONTINUOUS
 10
-20.9603679229
 20
-13.523242022
 11
-20.5876883098
 21
-13.7384225599
  0
LINE
  5
416
100
AcDbEntity
  8
RACCORDO
100
AcDbLine
 62
250
  6
CONTINUOUS
 10
-61.2188575334
 20
9.7753254554
 11
-60.6806409609
 21
9.4645659519
  0
LINE
  5
417
100
AcDbEntity
  8
0
100
AcDbLine
 62
7
  6
CONTINUOUS
 10
-20.8504115214
 20
-13.5274029598
 11
-20.5365111524
 21
-13.7086450988
  0
LINE
  5
418
100
AcDbEntity
  8
RACCORDO
100
AcDbLine
 62
7
  6
CONTINUOUS
 10
-61.1089010212
 20
9.7711645278
 11
-60.5880375508
 21
9.470424488
  0
LINE
  5
419
100
AcDbEntity
  8
0
100
AcDbLine
 62
7
  6
CONTINUOUS
 10
-24.2100505119
 20
-11.2727512109
 11
-8.4664093389
 21
-20.3612571293
  0
LINE
  5
41A
100
AcDbEntity
  8
0
100
AcDbLine
 62
7
  6
CONTINUOUS
 10
-64.5151016023
 20
11.9988801478
 11
-48.7714602646
 21
2.9103741343
  0
LINE
  5
41B
100
AcDbEntity
  8
0
100
AcDbLine
 62
250
  6
CONTINUOUS
 10
-24.2748561789
 20
-10.2394513622
 11
7.2112161348
 21
-28.4191662817
  0
LINE
  5
41C
100
AcDbEntity
  8
0
100
AcDbLine
 62
250
  6
CONTINUOUS
 10
-33.0938419121
 20
-5.1475495238
 11
-64.5800241401
 21
13.0321960975
  0
LINE
  5
41D
100
AcDbEntity
  8
0
100
AcDbLine
 62
250
  6
CONTINUOUS
 10
-30.5887706046
 20
-6.5039540313
 11
-26.0566950025
 21
-9.1207176837
  0
LINE
  5
41E
100
AcDbEntity
  8
0
100
AcDbLine
 62
7
  6
CONTINUOUS
 10
6.2704052871
 20
-26.1355040273
 11
7.7875552217
 21
-27.0114844003
  0
LINE
  5
41F
100
AcDbEntity
  8
0
100
AcDbLine
 62
250
  6
CONTINUOUS
 10
-48.4244163652
 20
5.4445892537
 11
6.2710738881
 21
-26.1358867319
  0
LINE
  5
420
100
AcDbEntity
  8
0
100
AcDbLine
 62
7
  6
CONTINUOUS
 10
-48.7715067108
 20
2.9104009518
 11
-33.0298408632
 21
-6.1803148
  0
LINE
  5
421
100
AcDbEntity
  8
0
100
AcDbLine
 62
7
  6
CONTINUOUS
 10
-8.466455592
 20
-20.3612304233
 11
7.2770290716
 21
-29.4529888545
  0
LINE
  5
422
100
AcDbEntity
  8
0
100
AcDbLine
 62
7
  6
CONTINUOUS
 10
-48.4244332747
 20
5.4445819596
 11
-64.3313233071
 21
14.6289755351
  0
LWPOLYLINE
  5
423
100
AcDbEntity
  8
0
100
AcDbPolyline
 62
7
  6
CONTINUOUS
 90
13
 70
0
 10
-33.0265777528
 20
-6.1812745238
 10
-33.0106038419
 20
-6.1906951623
 10
-32.9602657377
 20
-6.2235134478
 10
-32.9031913478
 20
-6.2668988464
 10
-32.8414833031
 20
-6.3227678387
 10
-32.779222657
 20
-6.3917148233
 10
-32.7195462101
 20
-6.4752648872
 10
-32.6686918473
 20
-6.5699187872
 10
-32.6317030859
 20
-6.6651368121
 10
-32.606899575
 20
-6.7558730593
 10
-32.5916512008
 20
-6.8397767054
 10
-32.5846336403
 20
-6.9086415644
 10
-32.5831453329
 20
-6.9483677984
  0
LINE
  5
424
100
AcDbEntity
  8
0
100
AcDbLine
 62
7
  6
CONTINUOUS
 10
7.7875417539
 20
-27.0115532912
 11
7.8194642953
 21
-27.0304346858
  0
LWPOLYLINE
  5
425
100
AcDbEntity
  8
0
100
AcDbPolyline
 62
7
  6
CONTINUOUS
 90
7
 70
0
 10
7.8194642953
 20
-27.0304346858
 10
7.8512813025
 20
-27.0495401305
 10
7.8671445976
 20
-27.0592046401
 10
7.882975129
 20
-27.0689599756
 10
7.89877064
 20
-27.0788180773
 10
7.9145284801
 20
-27.0887905452
 10
7.9302462222
 20
-27.09888902
  0
LWPOLYLINE
  5
426
100
AcDbEntity
  8
0
100
AcDbPolyline
 62
7
  6
CONTINUOUS
 90
13
 70
0
 10
7.2775553853
 20
-29.452370924
 10
7.3165753052
 20
-29.4761584963
 10
7.3742868843
 20
-29.5166927745
 10
7.4398626503
 20
-29.5716747864
 10
7.5081506051
 20
-29.6422174323
 10
7.570768657
 20
-29.7241635979
 10
7.6239418167
 20
-29.8155531105
 10
7.6649475368
 20
-29.9121595841
 10
7.6923426641
 20
-30.0030217609
 10
7.7090223753
 20
-30.082810716
 10
7.7181491789
 20
-30.151335369
 10
7.7216725515
 20
-30.2057277972
 10
7.7219946574
 20
-30.2259565517
  0
LINE
  5
427
100
AcDbEntity
  8
0
100
AcDbLine
 62
250
  6
CONTINUOUS
 10
-32.9406697784
 20
-5.244579076
 11
-33.0922742104
 21
-5.1467657502
  0
LWPOLYLINE
  5
428
100
AcDbEntity
  8
0
100
AcDbPolyline
 62
7
  6
CONTINUOUS
 90
10
 70
0
 10
7.9303293668
 20
-27.0995993452
 10
8.037963633
 20
-27.1727729865
 10
8.1443673238
 20
-27.250839035
 10
8.2494239419
 20
-27.3336472609
 10
8.3530291197
 20
-27.4210716956
 10
8.4550133
 20
-27.5129311657
 10
8.5549978063
 20
-27.6088366598
 10
8.6527736161
 20
-27.7085290961
 10
8.7483990781
 20
-27.8120198829
 10
8.8418119782
 20
-27.9192201956
  0
LWPOLYLINE
  5
429
100
AcDbEntity
  8
0
100
AcDbPolyline
 62
7
  6
CONTINUOUS
 90
3
 70
0
 10
7.2130960892
 20
-28.418210541
 10
7.4492587372
 20
-28.5790410367
 10
7.6815035721
 20
-28.7849468003
  0
LWPOLYLINE
  5
42A
100
AcDbEntity
  8
0
100
AcDbPolyline
 62
250
  6
CONTINUOUS
 90
13
 70
0
 10
-26.0566680662
 20
-9.1207310329
 10
-25.9517891996
 20
-9.1927753314
 10
-25.8539435418
 20
-9.279184881
 10
-25.7654619259
 20
-9.3741560453
 10
-25.6900153825
 20
-9.4705487255
 10
-25.6260400195
 20
-9.5669950412
 10
-25.5690083628
 20
-9.6695916263
 10
-25.5194923444
 20
-9.7799783003
 10
-25.4811148212
 20
-9.8940580079
 10
-25.455734989
 20
-10.010870488
 10
-25.4454023848
 20
-10.129085259
 10
-25.4524712369
 20
-10.2468662929
 10
-25.4797101533
 20
-10.3623188716
  0
LWPOLYLINE
  5
42B
100
AcDbEntity
  8
0
100
AcDbPolyline
 62
250
  6
CONTINUOUS
 90
7
 70
0
 10
-8.466455592
 20
-20.3612304233
 10
-8.5633576461
 20
-20.2778369639
 10
-8.6379874594
 20
-20.1403124317
 10
-8.672386004
 20
-19.9662109299
 10
-8.6657208244
 20
-19.7670443264
 10
-8.6182877165
 20
-19.5512987833
 10
-8.5314636985
 20
-19.3293930924
  0
LWPOLYLINE
  5
42C
100
AcDbEntity
  8
0
100
AcDbPolyline
 62
7
  6
CONTINUOUS
 90
6
 70
0
 10
-8.5010068414
 20
-53.2924641638
 10
-8.5022273803
 20
-53.3085983777
 10
-8.5087549346
 20
-53.3345806324
 10
-8.5205587837
 20
-53.3576045241
 10
-8.5370724067
 20
-53.3769492001
 10
-8.5576684529
 20
-53.3921103829
  0
LWPOLYLINE
  5
42D
100
AcDbEntity
  8
0
100
AcDbPolyline
 62
250
  6
CONTINUOUS
 90
10
 70
0
 10
9.4474383199
 20
-23.0048603319
 10
9.8083024225
 20
-22.6894694316
 10
10.1703465505
 20
-22.3806488592
 10
10.534568617
 20
-22.0781868098
 10
10.9028152606
 20
-21.7812197066
 10
11.2752811515
 20
-21.4902528262
 10
11.650394368
 20
-21.2069770612
 10
12.0281586721
 20
-20.9316406724
 10
12.4103018474
 20
-20.6632101487
 10
12.7977371901
 20
-20.4012895699
  0
LINE
  5
42E
100
AcDbEntity
  8
0
100
AcDbLine
 62
250
  6
CONTINUOUS
 10
-23.8970020199
 20
-48.1844908573
 11
-23.7247949292
 21
-48.0584004485
  0
LINE
  5
42F
100
AcDbEntity
  8
0
100
AcDbLine
 62
250
  6
CONTINUOUS
 10
10.9470227458
 20
-24.9142814227
 11
10.1836256914
 21
-25.4732991823
  0
LINE
  5
430
100
AcDbEntity
  8
0
100
AcDbLine
 62
250
  6
CONTINUOUS
 10
10.1836256914
 20
-25.4732991823
 11
9.4297185177
 21
-26.0214306862
  0
LINE
  5
431
100
AcDbEntity
  8
0
100
AcDbLine
 62
250
  6
CONTINUOUS
 10
9.4297185177
 20
-26.0214306862
 11
8.68065398
 21
-26.5620474598
  0
LINE
  5
432
100
AcDbEntity
  8
0
100
AcDbLine
 62
250
  6
CONTINUOUS
 10
8.68065398
 20
-26.5620474598
 11
7.9303293668
 21
-27.0995993452
  0
LWPOLYLINE
  5
433
100
AcDbEntity
  8
0
100
AcDbPolyline
 62
250
  6
CONTINUOUS
 90
4
 70
0
 10
13.6115693736
 20
-24.9761959031
 10
13.1748845597
 20
-25.2633470383
 10
12.7418847191
 20
-25.5459644319
 10
12.3137534809
 20
-25.8221961843
  0
LWPOLYLINE
  5
434
100
AcDbEntity
  8
0
100
AcDbPolyline
 62
250
  6
CONTINUOUS
 90
8
 70
0
 10
15.0430349249
 20
-22.0143650036
 10
14.6250969761
 20
-22.2841259061
 10
14.2084571604
 20
-22.5619054329
 10
13.7933635099
 20
-22.8464496769
 10
13.3806628392
 20
-23.1360305249
 10
12.9700115758
 20
-23.4296984314
 10
12.5599250154
 20
-23.7272963293
 10
10.9470227458
 20
-24.9142814227
  0
LWPOLYLINE
  5
435
100
AcDbEntity
  8
0
100
AcDbPolyline
 62
250
  6
CONTINUOUS
 90
5
 70
0
 10
16.2832110227
 20
-23.2281121298
 10
15.8312233892
 20
-23.5184224023
 10
15.3808046023
 20
-23.8110307794
 10
14.9327815684
 20
-24.1045433667
 10
13.6115693736
 20
-24.9761959031
  0
LINE
  5
436
100
AcDbEntity
  8
0
100
AcDbLine
 62
250
  6
CONTINUOUS
 10
23.8465322526
 20
-17.9074580445
 11
20.6255696102
 21
-19.9725607317
  0
LWPOLYLINE
  5
437
100
AcDbEntity
  8
0
100
AcDbPolyline
 62
250
  6
CONTINUOUS
 90
3
 70
0
 10
11.5401003951
 20
-26.3118317446
 10
11.9247801617
 20
-26.0698345578
 10
12.3137534332
 20
-25.8221977274
  0
LWPOLYLINE
  5
438
100
AcDbEntity
  8
0
100
AcDbPolyline
 62
250
  6
CONTINUOUS
 90
10
 70
0
 10
20.9234713074
 20
-20.1710874857
 10
20.8203395804
 20
-20.2357073267
 10
20.7088569772
 20
-20.3043214854
 10
20.5903723747
 20
-20.3760705381
 10
20.4658915284
 20
-20.450294253
 10
20.3379422021
 20
-20.5254359987
 10
20.2105637568
 20
-20.5991017153
 10
20.0866871128
 20
-20.6695758404
 10
19.9681647963
 20
-20.7357484845
 10
19.8575959612
 20
-20.7960786228
  0
LWPOLYLINE
  5
439
100
AcDbEntity
  8
0
100
AcDbPolyline
 62
7
  6
CONTINUOUS
 90
10
 70
0
 10
15.0431605525
 20
-22.0144056913
 10
15.4319157144
 20
-21.7722016469
 10
15.8231508518
 20
-21.5364718837
 10
16.216655412
 20
-21.3069363308
 10
16.6119386694
 20
-21.0838412127
 10
17.0087695543
 20
-20.8674075128
 10
17.4071832641
 20
-20.6578346032
 10
17.8068854153
 20
-20.4556028419
 10
18.2072865593
 20
-20.2613311412
 10
18.607964189
 20
-20.0755324649
  0
LINE
  5
43A
100
AcDbEntity
  8
0
100
AcDbLine
 62
250
  6
CONTINUOUS
 10
-21.9253991481
 20
-46.9834321693
 11
-23.7247925286
 21
-48.0586456322
  0
LWPOLYLINE
  5
43B
100
AcDbEntity
  8
0
100
AcDbPolyline
 62
250
  6
CONTINUOUS
 90
8
 70
0
 10
8.8418119782
 20
-27.9192201956
 10
9.237000918
 20
-27.6933973981
 10
9.6253086815
 20
-27.4685568248
 10
10.0092034942
 20
-27.243170555
 10
10.3922998171
 20
-27.0150254542
 10
10.7757407494
 20
-26.7833718841
 10
11.1580945286
 20
-26.54909135
 10
11.5401003951
 20
-26.3118317446
  0
LWPOLYLINE
  5
43C
100
AcDbEntity
  8
0
100
AcDbPolyline
 62
250
  6
CONTINUOUS
 90
10
 70
0
 10
20.1024829358
 20
-20.9419398193
 10
19.6741229225
 20
-21.1841125171
 10
19.244450309
 20
-21.4306440866
 10
18.814523779
 20
-21.6808935176
 10
18.3857319039
 20
-21.9340230871
 10
17.9588507718
 20
-22.1895534207
 10
17.5340705568
 20
-22.4473733959
 10
17.1122544535
 20
-22.7069862281
 10
16.6949126292
 20
-22.9674992345
 10
16.2832786311
 20
-23.2281857053
  0
LWPOLYLINE
  5
43D
100
AcDbEntity
  8
0
100
AcDbPolyline
 62
250
  6
CONTINUOUS
 90
4
 70
0
 10
21.4710288106
 20
-23.7909588061
 10
21.5811598383
 20
-23.7292120796
 10
21.7010268399
 20
-23.6653959838
 10
21.8275331343
 20
-23.6001625079
  0
LINE
  5
43E
100
AcDbEntity
  8
0
100
AcDbLine
 62
250
  6
CONTINUOUS
 10
-22.1364756134
 20
-46.6178370075
 11
-23.9672775226
 21
-47.6386493033
  0
LWPOLYLINE
  5
43F
100
AcDbEntity
  8
0
100
AcDbPolyline
 62
250
  6
CONTINUOUS
 90
3
 70
0
 10
21.4758400982
 20
-24.0382467604
 10
21.5872523986
 20
-23.9763572794
 10
21.7071303989
 20
-23.9144572598
  0
LWPOLYLINE
  5
440
100
AcDbEntity
  8
0
100
AcDbPolyline
 62
250
  6
CONTINUOUS
 90
10
 70
0
 10
19.4254817413
 20
-20.548332558
 10
19.5391556975
 20
-20.488920333
 10
19.6595975271
 20
-20.4224746605
 10
19.7846327308
 20
-20.3507020727
 10
19.9127063501
 20
-20.2749497222
 10
20.0412591129
 20
-20.1970882292
 10
20.1667119747
 20
-20.1195858357
 10
20.2867736601
 20
-20.0441913783
 10
20.400444982
 20
-19.9718692795
 10
20.5063767137
 20
-19.9037402469
  0
LINE
  5
441
100
AcDbEntity
  8
0
100
AcDbLine
 62
250
  6
CONTINUOUS
 10
22.5690361622
 20
-23.3387434098
 11
25.9678508406
 21
-21.5816896141
  0
LINE
  5
442
100
AcDbEntity
  8
0
100
AcDbLine
 62
250
  6
CONTINUOUS
 10
22.342223904
 20
-23.3397358111
 11
22.5665913198
 21
-23.2247251756
  0
LINE
  5
443
100
AcDbEntity
  8
0
100
AcDbLine
 62
250
  6
CONTINUOUS
 10
22.4613053901
 20
-23.5361816444
 11
22.5690377695
 21
-23.4812614627
  0
LINE
  5
444
100
AcDbEntity
  8
0
100
AcDbLine
 62
250
  6
CONTINUOUS
 10
21.8275331343
 20
-23.6001625079
 11
22.342223904
 21
-23.3397358111
  0
LINE
  5
445
100
AcDbEntity
  8
0
100
AcDbLine
 62
250
  6
CONTINUOUS
 10
21.7071303989
 20
-23.9144572598
 11
21.9636167643
 21
-23.7846422389
  0
LINE
  5
446
100
AcDbEntity
  8
0
100
AcDbLine
 62
250
  6
CONTINUOUS
 10
21.9636167643
 20
-23.7846422389
 11
22.4613053901
 21
-23.5361816444
  0
LWPOLYLINE
  5
447
100
AcDbEntity
  8
0
100
AcDbPolyline
 62
250
  6
CONTINUOUS
 90
4
 70
0
 10
12.6558457208
 20
-29.8142186682
 10
13.0846435706
 20
-29.6348391885
 10
13.5148443226
 20
-29.4485357103
 10
13.947566205
 20
-29.2549145673
  0
LINE
  5
448
100
AcDbEntity
  8
0
100
AcDbLine
 62
7
  6
CONTINUOUS
 10
-24.154026043
 20
-47.7148384494
 11
-23.9680861519
 21
-47.6381569205
  0
LWPOLYLINE
  5
449
100
AcDbEntity
  8
0
100
AcDbPolyline
 62
250
  6
CONTINUOUS
 90
10
 70
0
 10
14.3658392178
 20
-31.6795122386
 10
14.7973323373
 20
-31.5225705945
 10
15.2294245663
 20
-31.3551080175
 10
15.6623142085
 20
-31.1773030533
 10
16.0963863339
 20
-30.989335635
 10
16.5317060032
 20
-30.7915096908
 10
16.9679933727
 20
-30.5842310243
 10
17.4052683295
 20
-30.3677714809
 10
17.8439201072
 20
-30.1422783455
 10
18.2842857129
 20
-29.9080218409
  0
LWPOLYLINE
  5
44A
100
AcDbEntity
  8
0
100
AcDbPolyline
 62
250
  6
CONTINUOUS
 90
7
 70
0
 10
10.0485513361
 20
-30.7686019814
 10
10.4930031884
 20
-30.6217894588
 10
10.9317141461
 20
-30.4707820768
 10
11.3660627189
 20
-30.315037585
 10
11.7974991964
 20
-30.1539773817
 10
12.227152185
 20
-29.9871408343
 10
12.6558457208
 20
-29.8142186682
  0
LWPOLYLINE
  5
44B
100
AcDbEntity
  8
0
100
AcDbPolyline
 62
7
  6
CONTINUOUS
 90
10
 70
0
 10
-64.5781011378
 20
13.0331269829
 10
-64.8143865225
 20
13.1450870983
 10
-65.046227988
 20
13.2071524583
 10
-65.2644648798
 20
13.2158154877
 10
-65.4619046232
 20
13.1705576573
 10
-65.6322920848
 20
13.0721364351
 10
-65.7702232057
 20
12.9236488983
 10
-65.8709715587
 20
12.7306180836
 10
-65.9312006023
 20
12.4997187224
 10
-65.9511317329
 20
12.2400116078
  0
LWPOLYLINE
  5
44C
100
AcDbEntity
  8
0
100
AcDbPolyline
 62
7
  6
CONTINUOUS
 90
10
 70
0
 10
-64.4740302726
 20
14.7057766638
 10
-64.5816738037
 20
14.7569010461
 10
-64.688086752
 20
14.8017119237
 10
-64.7931526207
 20
14.8402249973
 10
-64.8967672158
 20
14.8724457587
 10
-64.9987607903
 20
14.8983595074
 10
-65.0987541525
 20
14.9179178948
 10
-65.1965380162
 20
14.9311386453
 10
-65.2921707331
 20
14.9380777521
 10
-65.3855911678
 20
14.9387528878
  0
LWPOLYLINE
  5
44D
100
AcDbEntity
  8
0
100
AcDbPolyline
 62
250
  6
CONTINUOUS
 90
9
 70
0
 10
-64.9211952176
 20
19.9343525842
 10
-63.7156352268
 20
19.328990184
 10
-62.467858165
 20
18.6875214745
 10
-61.1849617851
 20
18.018166246
 10
-59.8672062575
 20
17.3212378755
 10
-58.5136482331
 20
16.5958633531
 10
-57.120201768
 20
15.8396248041
 10
-55.6866733381
 20
15.0517765732
 10
-54.2133740058
 20
14.2316399679
  0
LINE
  5
44E
100
AcDbEntity
  8
0
100
AcDbLine
 62
250
  6
CONTINUOUS
 10
-54.2133740058
 20
14.2316399679
 11
-52.6972966799
 21
13.375726066
  0
LINE
  5
44F
100
AcDbEntity
  8
0
100
AcDbLine
 62
250
  6
CONTINUOUS
 10
-52.6972966799
 20
13.375726066
 11
-51.1374388335
 21
12.4834942737
  0
LINE
  5
450
100
AcDbEntity
  8
0
100
AcDbLine
 62
250
  6
CONTINUOUS
 10
-51.1374388335
 20
12.4834942737
 11
-4.9515114769
 21
-14.1827826237
  0
LWPOLYLINE
  5
451
100
AcDbEntity
  8
0
100
AcDbPolyline
 62
250
  6
CONTINUOUS
 90
7
 70
0
 10
-4.9515114769
 20
-14.1827826237
 10
-3.6790756146
 20
-14.9206449286
 10
-2.4365654669
 20
-15.6474783156
 10
-1.2234910729
 20
-16.3646673984
 10
-0.0382674397
 20
-17.0729123783
 10
1.1189488975
 20
-17.7711262612
 10
2.2482701718
 20
-18.4588653068
  0
LINE
  5
452
100
AcDbEntity
  8
0
100
AcDbLine
 62
250
  6
CONTINUOUS
 10
2.2482701718
 20
-18.4588653068
 11
3.3516692996
 21
-19.1370395596
  0
LINE
  5
453
100
AcDbEntity
  8
0
100
AcDbLine
 62
250
  6
CONTINUOUS
 10
3.3516692996
 20
-19.1370395596
 11
4.4289016329
 21
-19.8050078908
  0
LINE
  5
454
100
AcDbEntity
  8
0
100
AcDbLine
 62
250
  6
CONTINUOUS
 10
4.4289016329
 20
-19.8050078908
 11
5.4802420015
 21
-20.4626635918
  0
LINE
  5
455
100
AcDbEntity
  8
0
100
AcDbLine
 62
250
  6
CONTINUOUS
 10
5.4802420015
 20
-20.4626635918
 11
6.8354203485
 21
-21.3196090109
  0
LINE
  5
456
100
AcDbEntity
  8
0
100
AcDbLine
 62
250
  6
CONTINUOUS
 10
6.8354203485
 20
-21.3196090109
 11
7.5125439127
 21
-21.7503052449
  0
LWPOLYLINE
  5
457
100
AcDbEntity
  8
0
100
AcDbPolyline
 62
250
  6
CONTINUOUS
 90
3
 70
0
 10
7.5125439127
 20
-21.7503052449
 10
8.4953243911
 20
-22.3814906911
 10
9.4474383199
 20
-23.0048603319
  0
LWPOLYLINE
  5
458
100
AcDbEntity
  8
0
100
AcDbPolyline
 62
250
  6
CONTINUOUS
 90
10
 70
0
 10
9.4474383198
 20
-23.0048603327
 10
9.6726289391
 20
-23.164901103
 10
9.8949329725
 20
-23.3303839922
 10
10.1132755838
 20
-23.5011558157
 10
10.3277358093
 20
-23.6773546169
 10
10.5382346759
 20
-23.8587138895
 10
10.7444785707
 20
-24.0448675247
 10
10.9459788014
 20
-24.2353933089
 10
11.1426961655
 20
-24.4303085376
 10
11.3343376141
 20
-24.6292853376
  0
LINE
  5
459
100
AcDbEntity
  8
0
100
AcDbLine
 62
7
  6
CONTINUOUS
 10
7.6815035721
 20
-28.7849468003
 11
7.90062785
 21
-29.0288251069
  0
LWPOLYLINE
  5
45A
100
AcDbEntity
  8
0
100
AcDbPolyline
 62
250
  6
CONTINUOUS
 90
10
 70
0
 10
6.2710738881
 20
-26.1358867319
 10
6.5927234405
 20
-25.7851991611
 10
6.9242153347
 20
-25.4330959385
 10
7.264681282
 20
-25.080466606
 10
7.6131112642
 20
-24.7283551592
 10
7.9686984577
 20
-24.377604523
 10
8.3309016872
 20
-24.0288346765
 10
8.6989822588
 20
-23.6829007558
 10
9.0716008766
 20
-23.3411661195
 10
9.4469613131
 20
-23.0052817852
  0
LWPOLYLINE
  5
45B
100
AcDbEntity
  8
0
100
AcDbPolyline
 62
250
  6
CONTINUOUS
 90
10
 70
0
 10
18.0095460515
 20
-27.153483131
 10
18.3980270568
 20
-26.9294020389
 10
18.7857125068
 20
-26.7024351877
 10
19.1726562816
 20
-26.4725456839
 10
19.5589902424
 20
-26.2396294254
 10
19.9445352475
 20
-26.003780977
 10
20.32871456
 20
-25.7653478488
 10
20.7113265492
 20
-25.5244579522
 10
21.0925572692
 20
-25.2809974851
 10
21.4724046597
 20
-25.0349696474
  0
LWPOLYLINE
  5
45C
100
AcDbEntity
  8
0
100
AcDbPolyline
 62
250
  6
CONTINUOUS
 90
10
 70
0
 10
18.009571943
 20
-27.1536253347
 10
17.5550975259
 20
-27.4107511205
 10
17.0994281587
 20
-27.6635046301
 10
16.6437484098
 20
-27.9110665429
 10
16.190385013
 20
-28.1519938847
 10
15.7394468338
 20
-28.3860323146
 10
15.2887921524
 20
-28.6140619289
 10
14.8385368311
 20
-28.8357484615
 10
14.3910427283
 20
-29.0496306942
 10
13.9475380513
 20
-29.254810836
  0
LWPOLYLINE
  5
45D
100
AcDbEntity
  8
0
100
AcDbPolyline
 62
250
  6
CONTINUOUS
 90
10
 70
0
 10
18.2842824034
 20
-29.9079375774
 10
18.6418699913
 20
-29.7131784292
 10
18.9975580329
 20
-29.5145459342
 10
19.3517890368
 20
-29.3118037802
 10
19.704957745
 20
-29.104752023
 10
20.0575955904
 20
-28.8931151725
 10
20.4103028558
 20
-28.6765247018
 10
20.7634910073
 20
-28.4546665771
 10
21.1174446247
 20
-28.2273114791
 10
21.4725002803
 20
-27.9942178798
  0
LWPOLYLINE
  5
45E
100
AcDbEntity
  8
0
100
AcDbPolyline
 62
250
  6
CONTINUOUS
 90
3
 70
0
 10
-63.9277779799
 20
23.9903207523
 10
-65.4083552498
 20
24.8043343809
 10
-66.8570866129
 20
25.590628782
  0
LINE
  5
45F
100
AcDbEntity
  8
0
100
AcDbLine
 62
250
  6
CONTINUOUS
 10
-60.8659144512
 20
22.2943189607
 11
-62.1259234642
 21
22.9940137399
  0
LINE
  5
460
100
AcDbEntity
  8
0
100
AcDbLine
 62
250
  6
CONTINUOUS
 10
-62.1259234642
 20
22.9940137399
 11
-63.9277779799
 21
23.9903207523
  0
LINE
  5
461
100
AcDbEntity
  8
0
100
AcDbLine
 62
250
  6
CONTINUOUS
 10
-58.758241441
 20
21.1160402
 11
-60.8659144512
 21
22.2943189607
  0
LINE
  5
462
100
AcDbEntity
  8
0
100
AcDbLine
 62
250
  6
CONTINUOUS
 10
-56.0149599006
 20
19.5706196858
 11
-57.5884964856
 21
20.4590770082
  0
LINE
  5
463
100
AcDbEntity
  8
0
100
AcDbLine
 62
250
  6
CONTINUOUS
 10
-57.5884964856
 20
20.4590770082
 11
-58.758241441
 21
21.1160402
  0
LINE
  5
464
100
AcDbEntity
  8
0
100
AcDbLine
 62
250
  6
CONTINUOUS
 10
-54.3017313644
 20
18.5973774965
 11
-56.0149599006
 21
19.5706196858
  0
LWPOLYLINE
  5
465
100
AcDbEntity
  8
0
100
AcDbPolyline
 62
250
  6
CONTINUOUS
 90
3
 70
0
 10
-1.0184137799
 20
-8.7444213734
 10
-3.5771099743
 20
-7.2719001816
 10
-6.1652795504
 20
-5.7728265912
  0
LINE
  5
466
100
AcDbEntity
  8
0
100
AcDbLine
 62
250
  6
CONTINUOUS
 10
-52.4660850706
 20
17.5468440193
 11
-54.3017313644
 21
18.5973774965
  0
LINE
  5
467
100
AcDbEntity
  8
0
100
AcDbLine
 62
7
  6
CONTINUOUS
 10
-46.4698398679
 20
17.5005543846
 11
-6.1647842991
 21
-5.771059718
  0
LINE
  5
468
100
AcDbEntity
  8
0
100
AcDbLine
 62
250
  6
CONTINUOUS
 10
-72.0053369869
 20
33.5113637996
 11
-45.8424092062
 21
18.4052171975
  0
LINE
  5
469
100
AcDbEntity
  8
0
100
AcDbLine
 62
250
  6
CONTINUOUS
 10
20.6255696102
 20
-19.9725607317
 11
-5.5373581582
 21
-4.8664141367
  0
LINE
  5
46A
100
AcDbEntity
  8
0
100
AcDbLine
 62
7
  6
CONTINUOUS
 10
-5.5373581582
 20
-4.8664141367
 11
-45.8424092062
 21
18.4052171975
  0
LINE
  5
46B
100
AcDbEntity
  8
0
100
AcDbLine
 62
250
  6
CONTINUOUS
 10
-68.9826367485
 20
30.496577934
 11
-51.6171924519
 21
20.4706797321
  0
LINE
  5
46C
100
AcDbEntity
  8
0
100
AcDbLine
 62
250
  6
CONTINUOUS
 10
19.7137976312
 20
-20.713360719
 11
19.9673480147
 21
-20.8590284294
  0
LINE
  5
46D
100
AcDbEntity
  8
0
100
AcDbLine
 62
250
  6
CONTINUOUS
 10
19.7137976312
 20
-20.713360719
 11
16.9364561414
 21
-19.1106658694
  0
LINE
  5
46E
100
AcDbEntity
  8
0
100
AcDbLine
 62
250
  6
CONTINUOUS
 10
-2.3845703997
 20
-11.3682754696
 11
-52.4660850706
 21
17.5468440193
  0
LWPOLYLINE
  5
46F
100
AcDbEntity
  8
0
100
AcDbPolyline
 62
250
  6
CONTINUOUS
 90
3
 70
0
 10
-51.6171924519
 20
20.4706797321
 10
-49.0606625265
 20
18.9897113189
 10
-46.4703330573
 20
17.4987987052
  0
LWPOLYLINE
  5
470
100
AcDbEntity
  8
0
100
AcDbPolyline
 62
250
  6
CONTINUOUS
 90
4
 70
0
 10
16.9364561414
 20
-19.1106658694
 10
16.6439077176
 20
-18.9406959512
 10
16.3467437552
 20
-18.7715374958
 10
-1.0184137799
 20
-8.7444213734
  0
LINE
  5
471
100
AcDbEntity
  8
0
100
AcDbLine
 62
250
  6
CONTINUOUS
 10
-72.6020291495
 20
32.5892866528
 11
-69.2787760428
 21
30.6699850336
  0
LINE
  5
472
100
AcDbEntity
  8
0
100
AcDbLine
 62
250
  6
CONTINUOUS
 10
-1.2991601601
 20
-11.9973777574
 11
-2.3845703997
 21
-11.3682754696
  0
LINE
  5
473
100
AcDbEntity
  8
0
100
AcDbLine
 62
250
  6
CONTINUOUS
 10
-69.2787760428
 20
30.6699850336
 11
-68.9826367485
 21
30.496577934
  0
LINE
  5
474
100
AcDbEntity
  8
0
100
AcDbLine
 62
250
  6
CONTINUOUS
 10
0.3579993589
 20
-12.9634495502
 11
-1.2991601601
 21
-11.9973777574
  0
LWPOLYLINE
  5
475
100
AcDbEntity
  8
0
100
AcDbPolyline
 62
250
  6
CONTINUOUS
 90
6
 70
0
 10
19.9673480147
 20
-20.8590284294
 10
19.9945771978
 20
-20.8749990583
 10
20.0217058639
 20
-20.8912438996
 10
20.0487397192
 20
-20.907812145
 10
20.0756639453
 20
-20.9247393725
 10
20.1024742094
 20
-20.9420666549
  0
LINE
  5
476
100
AcDbEntity
  8
0
100
AcDbLine
 62
250
  6
CONTINUOUS
 10
3.5887942154
 20
-14.8644990309
 11
2.1691310331
 21
-14.0267666243
  0
LINE
  5
477
100
AcDbEntity
  8
0
100
AcDbLine
 62
250
  6
CONTINUOUS
 10
2.1691310331
 20
-14.0267666243
 11
0.3579993589
 21
-12.9634495502
  0
LINE
  5
478
100
AcDbEntity
  8
0
100
AcDbLine
 62
250
  6
CONTINUOUS
 10
5.4110433102
 20
-15.9467775447
 11
3.5887942154
 21
-14.8644990309
  0
LINE
  5
479
100
AcDbEntity
  8
0
100
AcDbLine
 62
250
  6
CONTINUOUS
 10
8.3393033456
 20
-17.6995537746
 11
7.2127263231
 21
-17.0236112513
  0
LINE
  5
47A
100
AcDbEntity
  8
0
100
AcDbLine
 62
250
  6
CONTINUOUS
 10
7.2127263231
 20
-17.0236112513
 11
5.4110433102
 21
-15.9467775447
  0
LINE
  5
47B
100
AcDbEntity
  8
0
100
AcDbLine
 62
250
  6
CONTINUOUS
 10
10.2881959374
 20
-18.8747908513
 11
8.3393033456
 21
-17.6995537746
  0
LWPOLYLINE
  5
47C
100
AcDbEntity
  8
0
100
AcDbPolyline
 62
250
  6
CONTINUOUS
 90
3
 70
0
 10
12.7977371901
 20
-20.4012895699
 10
11.3428590821
 20
-19.5125283421
 10
10.2881959374
 20
-18.8747908513
  0
LWPOLYLINE
  5
47D
100
AcDbEntity
  8
0
100
AcDbPolyline
 62
7
  6
CONTINUOUS
 90
10
 70
0
 10
8.8418119782
 20
-27.9192201956
 10
9.0653974096
 20
-28.2031471583
 10
9.2712062793
 20
-28.5049851571
 10
9.4566554947
 20
-28.8199138464
 10
9.6189074193
 20
-29.1420089308
 10
9.7568118013
 20
-29.4677193771
 10
9.8696453916
 20
-29.7954322988
 10
9.9568532728
 20
-30.1242805813
 10
10.0169116441
 20
-30.4501603553
 10
10.0485513361
 20
-30.7686019814
  0
LWPOLYLINE
  5
47E
100
AcDbEntity
  8
0
100
AcDbPolyline
 62
7
  6
CONTINUOUS
 90
4
 70
0
 10
7.90062785
 20
-29.0288251069
 10
8.0990801073
 20
-29.3026705645
 10
8.2701682854
 20
-29.5982463216
 10
8.4088826894
 20
-29.9064530741
  0
LWPOLYLINE
  5
47F
100
AcDbEntity
  8
0
100
AcDbPolyline
 62
250
  6
CONTINUOUS
 90
7
 70
0
 10
7.7422367176
 20
-48.3377246739
 10
7.7729962381
 20
-48.4816169984
 10
7.8621101051
 20
-48.6212040589
 10
7.9993076452
 20
-48.7412556564
 10
8.1716500603
 20
-48.8343717749
 10
8.3733143091
 20
-48.8987430286
 10
8.5972873679
 20
-48.9313560145
  0
LWPOLYLINE
  5
480
100
AcDbEntity
  8
0
100
AcDbPolyline
 62
250
  6
CONTINUOUS
 90
10
 70
0
 10
7.7875552217
 20
-68.9787100202
 10
7.769717882
 20
-68.8350440129
 10
7.7401013715
 20
-68.6944922828
 10
7.6987065442
 20
-68.5576642883
 10
7.6453562041
 20
-68.4248575837
 10
7.5802124755
 20
-68.2970988909
 10
7.5039673023
 20
-68.1759524775
 10
7.4170567723
 20
-68.0622000154
 10
7.3194707935
 20
-67.9560326398
 10
7.2114037421
 20
-67.8579569964
  0
LINE
  5
481
100
AcDbEntity
  8
0
100
AcDbLine
 62
7
  6
CONTINUOUS
 10
7.7473204036
 20
-66.4832323611
 11
7.7466364054
 21
-66.4616842146
  0
LINE
  5
482
100
AcDbEntity
  8
0
100
AcDbLine
 62
7
  6
CONTINUOUS
 10
7.7422225792
 20
-48.3346758042
 11
7.7466364054
 21
-66.4616842146
  0
LINE
  5
483
100
AcDbEntity
  8
RACCORDO
100
AcDbLine
 62
250
  6
CONTINUOUS
 10
7.4058448467
 20
-61.9259013535
 11
7.4058448467
 21
-62.5473602981
  0
LINE
  5
484
100
AcDbEntity
  8
RACCORDO
100
AcDbLine
 62
7
  6
CONTINUOUS
 10
7.4572158816
 20
-61.8486318283
 11
7.4572158816
 21
-62.4500560932
  0
LINE
  5
485
100
AcDbEntity
  8
0
100
AcDbLine
 62
7
  6
CONTINUOUS
 10
7.7466364056
 20
-30.2056799841
 11
7.7422225793
 21
-48.3345131522
  0
LWPOLYLINE
  5
486
100
AcDbEntity
  8
0
100
AcDbPolyline
 62
250
  6
CONTINUOUS
 90
10
 70
0
 10
7.7875552217
 20
-27.0114844003
 10
7.769717882
 20
-27.1640347189
 10
7.7401013715
 20
-27.3193449765
 10
7.6987065442
 20
-27.4768047291
 10
7.6453562041
 20
-27.6361247077
 10
7.5802124755
 20
-27.7962873114
 10
7.5039673023
 20
-27.9555182439
 10
7.4170567723
 20
-28.1127285868
 10
7.3194707935
 20
-28.2675425219
 10
7.2114037421
 20
-28.4192289428
  0
LWPOLYLINE
  5
487
100
AcDbEntity
  8
0
100
AcDbPolyline
 62
250
  6
CONTINUOUS
 90
7
 70
0
 10
7.2112161348
 20
-28.4191662817
 10
7.1241121181
 20
-28.6436120224
 10
7.0769631321
 20
-28.8612031288
 10
7.0709600312
 20
-29.0613406209
 10
7.1062060075
 20
-29.2356044863
 10
7.1816929527
 20
-29.3722778656
 10
7.2752101907
 20
-29.4519461376
  0
LINE
  5
488
100
AcDbEntity
  8
0
100
AcDbLine
 62
7
  6
CONTINUOUS
 10
-14.2774652452
 20
-51.3992533537
 11
-12.6921174111
 21
-50.5750595344
  0
LINE
  5
489
100
AcDbEntity
  8
DRAFT
100
AcDbLine
 62
7
  6
CONTINUOUS
 10
-62.3497435053
 20
3.5192349027
 11
-62.4415266725
 21
3.5164578496
  0
LINE
  5
48A
100
AcDbEntity
  8
DRAFT
100
AcDbLine
 62
7
  6
CONTINUOUS
 10
-61.9961901147
 20
3.7447668964
 11
-62.208322149
 21
3.7383484873
  0
LINE
  5
48B
100
AcDbEntity
  8
DRAFT
100
AcDbLine
 62
7
  6
CONTINUOUS
 10
-61.6426367241
 20
3.9702988901
 11
-61.8547687584
 21
3.963880481
  0
LINE
  5
48C
100
AcDbEntity
  8
DRAFT
100
AcDbLine
 62
7
  6
CONTINUOUS
 10
-61.2890833335
 20
4.1958308838
 11
-61.5012153678
 21
4.1894124747
  0
LINE
  5
48D
100
AcDbEntity
  8
DRAFT
100
AcDbLine
 62
7
  6
CONTINUOUS
 10
-60.9355299429
 20
4.4213628775
 11
-61.1476619773
 21
4.4149444684
  0
LINE
  5
48E
100
AcDbEntity
  8
DRAFT
100
AcDbLine
 62
7
  6
CONTINUOUS
 10
-62.3497435053
 20
8.6018500336
 11
-62.4415266725
 21
8.6046270867
  0
LWPOLYLINE
  5
48F
100
AcDbEntity
  8
0
100
AcDbPolyline
 62
7
  6
CONTINUOUS
 90
6
 70
0
 10
-64.5085158267
 20
12.00694904
 10
-64.5174236185
 20
12.0088653348
 10
-64.5464525663
 20
12.0169576966
 10
-64.5482610072
 20
12.0173384986
 10
-64.5276189627
 20
12.0067816657
 10
-64.5105099843
 20
11.9971530861
  0
LWPOLYLINE
  5
490
100
AcDbEntity
  8
0
100
AcDbPolyline
 62
250
  6
CONTINUOUS
 90
6
 70
0
 10
-72.7371446538
 20
32.6626774224
 10
-72.7103603346
 20
32.649038433
 10
-72.6834456008
 20
32.634763469
 10
-72.6564127266
 20
32.6199740864
 10
-72.6292703635
 20
32.6047862906
 10
-72.6020291495
 20
32.5892866528
  0
LINE
  5
491
100
AcDbEntity
  8
0
100
AcDbLine
 62
7
  6
CONTINUOUS
 10
-68.7843598382
 20
35.576458111
 11
23.8465175411
 21
-17.9074495503
  0
LWPOLYLINE
  5
492
100
AcDbEntity
  8
0
100
AcDbPolyline
 62
250
  6
CONTINUOUS
 90
10
 70
0
 10
20.9234713106
 20
-20.1710874836
 10
20.8902172937
 20
-20.1462705978
 10
20.8570261878
 20
-20.1221745114
 10
20.8239087776
 20
-20.0987984509
 10
20.7909403327
 20
-20.0761850631
 10
20.7580666151
 20
-20.0542867335
 10
20.725103033
 20
-20.0329778041
 10
20.691994028
 20
-20.0122273321
 10
20.6588139183
 20
-19.9920868739
 10
20.6255723135
 20
-19.9725653275
  0
LWPOLYLINE
  5
493
100
AcDbEntity
  8
0
100
AcDbPolyline
 62
250
  6
CONTINUOUS
 90
10
 70
0
 10
20.1024742094
 20
-20.9420666549
 10
20.3831198281
 20
-21.1586025041
 10
20.6450001858
 20
-21.42342163
 10
20.8814442505
 20
-21.7267849683
 10
21.0848965921
 20
-22.0571471829
 10
21.2490106295
 20
-22.4015651717
 10
21.3715298142
 20
-22.7554644165
 10
21.4482440088
 20
-23.112534593
 10
21.4717655088
 20
-23.4563584698
 10
21.4710288106
 20
-23.7909588061
  0
LWPOLYLINE
  5
494
100
AcDbEntity
  8
0
100
AcDbPolyline
 62
250
  6
CONTINUOUS
 90
10
 70
0
 10
15.0430660976
 20
-22.0144137931
 10
14.806846909
 20
-21.8185137238
 10
14.5669132281
 20
-21.6280569543
 10
14.3231822334
 20
-21.4423468714
 10
14.0759453106
 20
-21.2608299929
 10
13.8255788796
 20
-21.0831064811
 10
13.5725218843
 20
-20.9088234694
 10
13.3169362506
 20
-20.7374537667
 10
13.0585599785
 20
-20.5683532404
 10
12.7980127255
 20
-20.4009803207
  0
LWPOLYLINE
  5
495
100
AcDbEntity
  8
0
100
AcDbPolyline
 62
250
  6
CONTINUOUS
 90
10
 70
0
 10
16.2832150931
 20
-23.2281153229
 10
16.1563984596
 20
-23.0850140506
 10
16.026149874
 20
-22.9440061394
 10
15.8928107357
 20
-22.8050021075
 10
15.7569376933
 20
-22.6681590033
 10
15.6187734853
 20
-22.5334334018
 10
15.4782481119
 20
-22.4007088405
 10
15.3353914368
 20
-22.2699568755
 10
15.1902975466
 20
-22.1411828445
 10
15.0430349249
 20
-22.0143650036
  0
LWPOLYLINE
  5
496
100
AcDbEntity
  8
0
100
AcDbPolyline
 62
250
  6
CONTINUOUS
 90
10
 70
0
 10
12.3137534332
 20
-25.8221977274
 10
12.21448655
 20
-25.6851031238
 10
12.1128346827
 20
-25.549108063
 10
12.0087284346
 20
-25.4141437772
 10
11.9021235688
 20
-25.2801844077
 10
11.7930701228
 20
-25.1473118823
 10
11.6817069555
 20
-25.0157122039
 10
11.5680969752
 20
-24.8854691364
 10
11.4522710215
 20
-24.7566231926
 10
11.3342823043
 20
-24.6292401688
  0
LWPOLYLINE
  5
497
100
AcDbEntity
  8
0
100
AcDbPolyline
 62
7
  6
CONTINUOUS
 90
4
 70
0
 10
8.4088826894
 20
-29.9064530741
 10
8.5116997241
 20
-30.2170122933
 10
8.5753599811
 20
-30.5194381369
 10
8.597282372
 20
-30.8033083853
  0
LWPOLYLINE
  5
498
100
AcDbEntity
  8
RACCORDO
100
AcDbPolyline
 62
7
  6
CONTINUOUS
 90
6
 70
0
 10
7.4572158512
 20
-61.8485680803
 10
7.4557230506
 20
-61.8357208371
 10
7.4494682208
 20
-61.8168019173
 10
7.4378811497
 20
-61.7993067273
 10
7.4209374888
 20
-61.7826983914
 10
7.3986372379
 20
-61.7669769096
  0
LWPOLYLINE
  5
499
100
AcDbEntity
  8
0
100
AcDbPolyline
 62
7
  6
CONTINUOUS
 90
10
 70
0
 10
10.0483068716
 20
-30.7684814642
 10
10.0493106679
 20
-30.7872895275
 10
10.0502107638
 20
-30.8060637502
 10
10.0510067679
 20
-30.824803723
 10
10.0516982626
 20
-30.8435082977
 10
10.0522848885
 20
-30.862177804
 10
10.0527663026
 20
-30.880814032
 10
10.0531420853
 20
-30.8994172844
 10
10.0534117824
 20
-30.9179863943
 10
10.0535749596
 20
-30.9365209292
  0
LINE
  5
49A
100
AcDbEntity
  8
0
100
AcDbLine
 62
250
  6
CONTINUOUS
 10
8.5973770158
 20
-67.0578708625
 11
8.5975186747
 21
-30.8030924835
  0
LINE
  5
49B
100
AcDbEntity
  8
0
100
AcDbLine
 62
250
  6
CONTINUOUS
 10
10.0535661473
 20
-65.9188916084
 11
10.0535597698
 21
-49.3034784818
  0
LINE
  5
49C
100
AcDbEntity
  8
0
100
AcDbLine
 62
7
  6
CONTINUOUS
 10
10.0534665581
 20
-30.9364810071
 11
10.0535497549
 21
-49.3034871552
  0
LINE
  5
49D
100
AcDbEntity
  8
0
100
AcDbLine
 62
7
  6
CONTINUOUS
 10
10.0534738848
 20
-67.6703741413
 11
10.053534889
 21
-65.9188586396
  0
LWPOLYLINE
  5
49E
100
AcDbEntity
  8
0
100
AcDbPolyline
 62
7
  6
CONTINUOUS
 90
9
 70
0
 10
10.04877642
 20
-67.8323131872
 10
10.04969934
 20
-67.8150412228
 10
10.0505215632
 20
-67.7972629241
 10
10.0512400354
 20
-67.7791897397
 10
10.0518495726
 20
-67.7611058434
 10
10.0523517172
 20
-67.743130015
 10
10.0527575887
 20
-67.7250966914
 10
10.0530751824
 20
-67.7069326672
 10
10.0534738848
 20
-67.6703741413
  0
LWPOLYLINE
  5
49F
100
AcDbEntity
  8
0
100
AcDbPolyline
 62
7
  6
CONTINUOUS
 90
10
 70
0
 10
8.5956386052
 20
-67.0588848799
 10
8.5732398347
 20
-67.3171354206
 10
8.5102805106
 20
-67.5513974112
 10
8.4078818106
 20
-67.7490044358
 10
8.2666963708
 20
-67.8995981658
 10
8.0919418651
 20
-67.9993906986
 10
7.8908213824
 20
-68.0432505084
 10
7.6707751147
 20
-68.0302016586
 10
7.4411419495
 20
-67.9659735183
 10
7.2131306588
 20
-67.8569723603
  0
LWPOLYLINE
  5
4A0
100
AcDbEntity
  8
0
100
AcDbPolyline
 62
250
  6
CONTINUOUS
 90
10
 70
0
 10
-7.9850351448
 20
-57.1463163064
 10
-8.1582382692
 20
-57.2753426026
 10
-8.3170020844
 20
-57.4429741396
 10
-8.453925715
 20
-57.6395393959
 10
-8.5633577321
 20
-57.8561851405
 10
-8.63798737
 20
-58.079890002
 10
-8.6723858051
 20
-58.2937145606
 10
-8.6657206258
 20
-58.4851851598
 10
-8.6182875842
 20
-58.6461565889
 10
-8.5314636985
 20
-58.7677994366
  0
LWPOLYLINE
  5
4A1
100
AcDbEntity
  8
0
100
AcDbPolyline
 62
7
  6
CONTINUOUS
 90
6
 70
0
 10
-8.5576690879
 20
-52.9622389351
 10
-8.5355145218
 20
-52.9474182755
 10
-8.5180685802
 20
-52.9369619877
 10
-8.5060854571
 20
-52.9306823531
 10
-8.5007667466
 20
-52.9278536751
 10
-8.5004999884
 20
-52.9275991866
  0
LINE
  5
4A2
100
AcDbEntity
  8
0
100
AcDbLine
 62
7
  6
CONTINUOUS
 10
-8.5576683573
 20
-52.9622386013
 11
-9.9851219588
 21
-53.8775985716
  0
LINE
  5
4A3
100
AcDbEntity
  8
0
100
AcDbLine
 62
7
  6
CONTINUOUS
 10
-9.6918072697
 20
-54.046954797
 11
-8.5576683573
 21
-53.3921102033
  0
LINE
  5
4A4
100
AcDbEntity
  8
DRAFT
100
AcDbLine
 62
7
  6
CONTINUOUS
 10
-61.9961901147
 20
8.7845926333
 11
-62.208322149
 21
8.7910110424
  0
LINE
  5
4A5
100
AcDbEntity
  8
DRAFT
100
AcDbLine
 62
7
  6
CONTINUOUS
 10
-61.6426367241
 20
8.9673352329
 11
-61.8547687584
 21
8.973753642
  0
LINE
  5
4A6
100
AcDbEntity
  8
DRAFT
100
AcDbLine
 62
7
  6
CONTINUOUS
 10
-61.2890833335
 20
9.1500778325
 11
-61.5012153678
 21
9.1564962416
  0
LINE
  5
4A7
100
AcDbEntity
  8
DRAFT
100
AcDbLine
 62
7
  6
CONTINUOUS
 10
-60.9355299429
 20
9.3328204322
 11
-61.1476619773
 21
9.3392388413
  0
LWPOLYLINE
  5
4A8
100
AcDbEntity
  8
0
100
AcDbPolyline
 62
250
  6
CONTINUOUS
 90
10
 70
0
 10
-69.1025541902
 20
26.5701972183
 10
-68.8652068784
 20
26.4929875645
 10
-68.6243977133
 20
26.4060182726
 10
-68.3800773938
 20
26.3100182774
 10
-68.1325282919
 20
26.2058913632
 10
-67.8821476007
 20
26.0945117293
 10
-67.6294041508
 20
25.9767689438
 10
-67.3744432531
 20
25.8533525899
 10
-67.1168511393
 20
25.7242558951
 10
-66.8572356554
 20
25.5910427119
  0
LINE
  5
4A9
100
AcDbEntity
  8
0
100
AcDbLine
 62
250
  6
CONTINUOUS
 10
-73.0147395844
 20
32.7706005811
 11
-72.7371877437
 21
32.6625224733
  0
LWPOLYLINE
  5
4AA
100
AcDbEntity
  8
0
100
AcDbPolyline
 62
250
  6
CONTINUOUS
 90
10
 70
0
 10
-72.3032369815
 20
33.6568453902
 10
-72.2699825989
 20
33.643261223
 10
-72.2367911616
 20
33.6290289047
 10
-72.2036734547
 20
33.6141616652
 10
-72.1707046847
 20
33.598703749
 10
-72.1378306774
 20
33.5826401684
 10
-72.1048670331
 20
33.5658835207
 10
-72.071758258
 20
33.5484006396
 10
-72.0385786067
 20
33.5302257714
 10
-72.0053376889
 20
33.5113611281
  0
LWPOLYLINE
  5
4AB
100
AcDbEntity
  8
0
100
AcDbPolyline
 62
7
  6
CONTINUOUS
 90
6
 70
0
 10
-68.7843598382
 20
35.576458111
 10
-69.1694970945
 20
35.7525977852
 10
-69.5230547658
 20
35.8473504942
 10
-69.8450328521
 20
35.8607162378
 10
-70.143136433
 20
35.7882461547
 10
-70.3393074282
 20
35.6850640531
  0
LWPOLYLINE
  5
4AC
100
AcDbEntity
  8
0
100
AcDbPolyline
 62
250
  6
CONTINUOUS
 90
10
 70
0
 10
16.2832786311
 20
-23.2281857053
 10
16.5784646305
 20
-23.5893308225
 10
16.8542887618
 20
-23.9757001074
 10
17.1031627354
 20
-24.387647943
 10
17.3176503332
 20
-24.8166499397
 10
17.5006552654
 20
-25.2581461977
 10
17.6588961547
 20
-25.7167066942
 10
17.7953196104
 20
-26.1887955025
 10
17.911757259
 20
-26.6680036737
 10
18.0095460515
 20
-27.153483131
  0
LWPOLYLINE
  5
4AD
100
AcDbEntity
  8
0
100
AcDbPolyline
 62
250
  6
CONTINUOUS
 90
10
 70
0
 10
13.947566205
 20
-29.2549145673
 10
13.8210324934
 20
-28.8366625333
 10
13.6796040045
 20
-28.4253312519
 10
13.5241093951
 20
-28.0232103217
 10
13.3557671368
 20
-27.6324398377
 10
13.1748913441
 20
-27.2528721677
 10
12.979720377
 20
-26.8809264419
 10
12.7697574723
 20
-26.5165604022
 10
12.5472129585
 20
-26.1632462846
 10
12.3137534346
 20
-25.8221977265
  0
LWPOLYLINE
  5
4AE
100
AcDbEntity
  8
0
100
AcDbPolyline
 62
250
  6
CONTINUOUS
 90
10
 70
0
 10
13.9475380513
 20
-29.254810836
 10
14.0191398077
 20
-29.5197105231
 10
14.0847456089
 20
-29.7864549983
 10
14.1441716759
 20
-30.0545904538
 10
14.1973375665
 20
-30.3239903925
 10
14.2441085591
 20
-30.5943121627
 10
14.2843787564
 20
-30.8652829693
 10
14.3180981768
 20
-31.1366202059
 10
14.3452442013
 20
-31.4081620278
 10
14.3658392178
 20
-31.6795122386
  0
LWPOLYLINE
  5
4AF
100
AcDbEntity
  8
0
100
AcDbPolyline
 62
250
  6
CONTINUOUS
 90
3
 70
0
 10
14.5007376365
 20
-34.6387069315
 10
14.4351352255
 20
-33.1423553532
 10
14.3658392197
 20
-31.6795122321
  0
LWPOLYLINE
  5
4B0
100
AcDbEntity
  8
0
100
AcDbPolyline
 62
250
  6
CONTINUOUS
 90
11
 70
0
 10
14.8533109563
 20
-51.4569578494
 10
14.8489447596
 20
-49.6123469896
 10
14.8363170503
 20
-47.8043469938
 10
14.8160096426
 20
-46.033306902
 10
14.7886354829
 20
-44.3008226724
 10
14.7546947723
 20
-42.6059508401
 10
14.7146048728
 20
-40.9452270029
 10
14.6688148814
 20
-39.3186398741
 10
14.6172682407
 20
-37.7266281453
 10
14.5612794896
 20
-36.1669463126
 10
14.5007376365
 20
-34.6387069315
  0
LINE
  5
4B1
100
AcDbEntity
  8
0
100
AcDbLine
 62
250
  6
CONTINUOUS
 10
14.8488215844
 20
-53.3196787401
 11
14.8533109563
 21
-51.4569578494
  0
LWPOLYLINE
  5
4B2
100
AcDbEntity
  8
0
100
AcDbPolyline
 62
250
  6
CONTINUOUS
 90
12
 70
0
 10
14.3659345302
 20
-70.6717185817
 10
14.4344135931
 20
-69.309777004
 10
14.4990318501
 20
-67.9070036555
 10
14.5593035984
 20
-66.4628160987
 10
14.6151237651
 20
-64.9783382029
 10
14.6664527547
 20
-63.4525740957
 10
14.7125427424
 20
-61.8818146853
 10
14.7529799074
 20
-60.2659601681
 10
14.7874102132
 20
-58.6046493954
 10
14.8152854043
 20
-56.8938212086
 10
14.8359553032
 20
-55.131859768
 10
14.8488215844
 20
-53.3196787401
  0
LINE
  5
4B3
100
AcDbEntity
  8
DRAFT
100
AcDbLine
 62
7
  6
CONTINUOUS
 10
1.6828582679
 20
-60.3856367356
 11
1.7944829695
 21
-60.2051345198
  0
LINE
  5
4B4
100
AcDbEntity
  8
DRAFT
100
AcDbLine
 62
7
  6
CONTINUOUS
 10
2.0549406065
 20
-60.1921978213
 11
2.1665653081
 21
-60.0116956055
  0
LINE
  5
4B5
100
AcDbEntity
  8
DRAFT
100
AcDbLine
 62
7
  6
CONTINUOUS
 10
2.4270229452
 20
-59.998758907
 11
2.5386476468
 21
-59.8182566912
  0
LINE
  5
4B6
100
AcDbEntity
  8
DRAFT
100
AcDbLine
 62
7
  6
CONTINUOUS
 10
2.7991052838
 20
-59.8053199928
 11
2.9107299854
 21
-59.624817777
  0
LWPOLYLINE
  5
4B7
100
AcDbEntity
  8
0
100
AcDbPolyline
 62
250
  6
CONTINUOUS
 90
10
 70
0
 10
-66.8080417815
 20
20.4891321368
 10
-66.6161245229
 20
20.4667514915
 10
-66.4193861549
 20
20.4344575015
 10
-66.2178371784
 20
20.3922536739
 10
-66.0114883164
 20
20.3401809715
 10
-65.8011380644
 20
20.2784702344
 10
-65.5867471308
 20
20.207035948
 10
-65.3680732265
 20
20.1255548706
 10
-65.1458271765
 20
20.0344051489
 10
-64.9210126382
 20
19.9342675495
  0
LWPOLYLINE
  5
4B8
100
AcDbEntity
  8
0
100
AcDbPolyline
 62
250
  6
CONTINUOUS
 90
10
 70
0
 10
18.0095595749
 20
-27.1535576032
 10
18.0610521574
 20
-27.4564838888
 10
18.1060298345
 20
-27.7600933132
 10
18.1449919717
 20
-28.0645483661
 10
18.1784536458
 20
-28.3696913576
 10
18.2070810395
 20
-28.6755891623
 10
18.2315541542
 20
-28.9822533055
 10
18.2524554856
 20
-29.2896840818
 10
18.2701798995
 20
-29.5984861121
 10
18.2842824034
 20
-29.9079375774
  0
LWPOLYLINE
  5
4B9
100
AcDbEntity
  8
0
100
AcDbPolyline
 62
250
  6
CONTINUOUS
 90
10
 70
0
 10
22.5665912582
 20
-23.2247252076
 10
22.5298599942
 20
-22.8678050034
 10
22.449626252
 20
-22.4953215448
 10
22.3274664583
 20
-22.1157146458
 10
22.1658236958
 20
-21.737433892
 10
21.9682646249
 20
-21.3694774774
 10
21.7396246525
 20
-21.0210913168
 10
21.4853562292
 20
-20.7005358911
 10
21.2111940071
 20
-20.4149980896
 10
20.9234713106
 20
-20.1710874836
  0
LWPOLYLINE
  5
4BA
100
AcDbEntity
  8
0
100
AcDbPolyline
 62
250
  6
CONTINUOUS
 90
9
 70
0
 10
22.5690092371
 20
-23.3261408535
 10
22.5689176697
 20
-23.3135186468
 10
22.5687653744
 20
-23.3008790201
 10
22.5685525867
 20
-23.2882217715
 10
22.5682795651
 20
-23.2755481626
 10
22.5679466256
 20
-23.2628609371
 10
22.5675540785
 20
-23.2501613781
 10
22.5671021933
 20
-23.2374492892
 10
22.5665912582
 20
-23.2247252076
  0
LINE
  5
4BB
100
AcDbEntity
  8
0
100
AcDbLine
 62
250
  6
CONTINUOUS
 10
21.4728185808
 20
-24.1521059315
 11
21.471056153
 21
-23.9044149364
  0
LINE
  5
4BC
100
AcDbEntity
  8
0
100
AcDbLine
 62
250
  6
CONTINUOUS
 10
21.471056153
 20
-23.9044149364
 11
21.4708951785
 21
-23.8503643856
  0
LWPOLYLINE
  5
4BD
100
AcDbEntity
  8
0
100
AcDbPolyline
 62
250
  6
CONTINUOUS
 90
10
 70
0
 10
18.5828155072
 20
-52.7937954302
 10
18.5782698709
 20
-50.0030631471
 10
18.5654421285
 20
-47.2749309901
 10
18.5448262931
 20
-44.6097398494
 10
18.517011808
 20
-42.0096913893
 10
18.4825813369
 20
-39.4733254866
 10
18.4419024605
 20
-36.9954399228
 10
18.3957220063
 20
-34.5745490488
 10
18.3443810182
 20
-32.2125352998
 10
18.2842847734
 20
-29.9079992414
  0
LINE
  5
4BE
100
AcDbEntity
  8
0
100
AcDbLine
 62
250
  6
CONTINUOUS
 10
21.4724627798
 20
-82.2436995181
 11
21.4732771419
 21
-82.464564271
  0
LINE
  5
4BF
100
AcDbEntity
  8
0
100
AcDbLine
 62
250
  6
CONTINUOUS
 10
22.5690092371
 20
-23.3261408535
 11
22.5690361622
 21
-83.7574907232
  0
LINE
  5
4C0
100
AcDbEntity
  8
0
100
AcDbLine
 62
250
  6
CONTINUOUS
 10
21.4728114117
 20
-27.6475968194
 11
21.4723590936
 21
-25.035076377
  0
LINE
  5
4C1
100
AcDbEntity
  8
0
100
AcDbLine
 62
250
  6
CONTINUOUS
 10
21.4729312072
 20
-24.9254970279
 11
21.4728185808
 21
-24.1521059315
  0
LINE
  5
4C2
100
AcDbEntity
  8
0
100
AcDbLine
 62
250
  6
CONTINUOUS
 10
21.4728114117
 20
-27.6475968194
 11
21.4724177449
 21
-82.2436422901
  0
LWPOLYLINE
  5
4C3
100
AcDbEntity
  8
0
100
AcDbPolyline
 62
250
  6
CONTINUOUS
 90
8
 70
0
 10
22.5690368169
 20
-83.75749012
 10
22.5690062462
 20
-83.7700600219
 10
22.5689146909
 20
-83.7825773595
 10
22.5687624006
 20
-83.795041885
 10
22.5685461191
 20
-83.8076318412
 10
22.5682678498
 20
-83.8201674362
 10
22.5679436397
 20
-83.8321161705
 10
22.5675873919
 20
-83.8433055723
  0
LINE
  5
4C4
100
AcDbEntity
  8
0
100
AcDbLine
 62
250
  6
CONTINUOUS
 10
21.4708951785
 20
-23.8503643856
 11
21.4710070553
 21
-23.7965599401
  0
LINE
  5
4C5
100
AcDbEntity
  8
0
100
AcDbLine
 62
250
  6
CONTINUOUS
 10
21.4712938233
 20
-83.3505222329
 11
21.4709135089
 21
-83.8198805588
  0
LINE
  5
4C6
100
AcDbEntity
  8
0
100
AcDbLine
 62
250
  6
CONTINUOUS
 10
21.4732771419
 20
-82.464564271
 11
21.4718135084
 21
-83.2424784041
  0
LINE
  5
4C7
100
AcDbEntity
  8
0
100
AcDbLine
 62
250
  6
CONTINUOUS
 10
21.4724046597
 20
-25.0349696474
 11
21.4729312072
 21
-24.9254970279
  0
LINE
  5
4C8
100
AcDbEntity
  8
0
100
AcDbLine
 62
250
  6
CONTINUOUS
 10
21.4718135084
 20
-83.2424784041
 11
21.4712938233
 21
-83.3505222329
  0
LWPOLYLINE
  5
4C9
100
AcDbEntity
  8
0
100
AcDbPolyline
 62
250
  6
CONTINUOUS
 90
10
 70
0
 10
18.2842879405
 20
-75.3347792171
 10
18.3446771359
 20
-73.090692433
 10
18.395900751
 20
-70.7814818508
 10
18.4420695152
 20
-68.4093188331
 10
18.4828016893
 20
-65.9757225898
 10
18.5172540051
 20
-63.4786493386
 10
18.5450147355
 20
-60.9127394616
 10
18.565589031
 20
-58.2759913372
 10
18.57839576
 20
-55.5697865739
 10
18.5828155072
 20
-52.7937954456
  0
LINE
  5
4CA
100
AcDbEntity
  8
DRAFT
100
AcDbLine
 62
7
  6
CONTINUOUS
 10
6.0587333699
 20
-62.9122121769
 11
6.1592407026
 21
-62.7252909317
  0
LINE
  5
4CB
100
AcDbEntity
  8
DRAFT
100
AcDbLine
 62
7
  6
CONTINUOUS
 10
6.3937578124
 20
-62.6973764979
 11
6.4942651452
 21
-62.5104552526
  0
LINE
  5
4CC
100
AcDbEntity
  8
DRAFT
100
AcDbLine
 62
7
  6
CONTINUOUS
 10
6.7287822549
 20
-62.4825408188
 11
6.8292895877
 21
-62.2956195736
  0
LINE
  5
4CD
100
AcDbEntity
  8
DRAFT
100
AcDbLine
 62
7
  6
CONTINUOUS
 10
7.0638066975
 20
-62.2677051397
 11
7.1643140302
 21
-62.0807838945
  0
LINE
  5
4CE
100
AcDbEntity
  8
0
100
AcDbLine
 62
7
  6
CONTINUOUS
 10
25.9678508406
 20
-48.7905533874
 11
24.4755485853
 21
-49.7048789281
  0
LINE
  5
4CF
100
AcDbEntity
  8
RACCORDO
100
AcDbLine
 62
7
  6
CONTINUOUS
 10
3.1789771329
 20
-59.4853609106
 11
2.9107299854
 21
-59.624817777
  0
LINE
  5
4D0
100
AcDbEntity
  8
DRAFT
100
AcDbLine
 62
7
  6
CONTINUOUS
 10
2.6874805822
 20
-59.7408811255
 11
2.5386476468
 21
-59.8182566912
  0
LINE
  5
4D1
100
AcDbEntity
  8
DRAFT
100
AcDbLine
 62
7
  6
CONTINUOUS
 10
2.3153982436
 20
-59.9343200398
 11
2.1665653081
 21
-60.0116956055
  0
LINE
  5
4D2
100
AcDbEntity
  8
DRAFT
100
AcDbLine
 62
7
  6
CONTINUOUS
 10
1.9433159049
 20
-60.1277589541
 11
1.7944829695
 21
-60.2051345198
  0
LINE
  5
4D3
100
AcDbEntity
  8
DRAFT
100
AcDbLine
 62
7
  6
CONTINUOUS
 10
1.5712335663
 20
-60.3211978684
 11
1.4224006308
 21
-60.3985734341
  0
LINE
  5
4D4
100
AcDbEntity
  8
0
100
AcDbLine
 62
7
  6
CONTINUOUS
 10
24.4755485853
 20
-55.4201708656
 11
25.9678508406
 21
-54.7915728982
  0
LWPOLYLINE
  5
4D5
100
AcDbEntity
  8
0
100
AcDbPolyline
 62
7
  6
CONTINUOUS
 90
10
 70
0
 10
-65.3855911678
 20
14.9387528878
 10
-65.609212686
 20
14.9129978905
 10
-65.8150495532
 20
14.8487921548
 10
-66.0005182909
 20
14.7479752713
 10
-66.1627873811
 20
14.6131897371
 10
-66.3006969981
 20
14.4466650194
 10
-66.4135109439
 20
14.2492089374
 10
-66.5006841346
 20
14.0210706718
 10
-66.5607092331
 20
13.7645999538
 10
-66.5923296021
 20
13.4827958178
  0
LWPOLYLINE
  5
4D6
100
AcDbEntity
  8
0
100
AcDbPolyline
 62
7
  6
CONTINUOUS
 90
10
 70
0
 10
25.9678508405
 20
-21.5816659759
 10
25.9278112236
 20
-21.1138596684
 10
25.8330767815
 20
-20.6509334976
 10
25.683647514
 20
-20.1928874636
 10
25.4718183486
 20
-19.7263750692
 10
25.205294358
 20
-19.2647428117
 10
24.9071907602
 20
-18.8480301819
 10
24.5852126277
 20
-18.4895836769
 10
24.231654888
 20
-18.1760567997
 10
23.8465175411
 20
-17.9074495503
  0
LINE
  5
4D7
100
AcDbEntity
  8
0
100
AcDbLine
 62
7
  6
CONTINUOUS
 10
24.4755485853
 20
-49.7048789281
 11
24.4755485853
 21
-55.4201708656
  0
LINE
  5
4D8
100
AcDbEntity
  8
0
100
AcDbLine
 62
7
  6
CONTINUOUS
 10
25.9678508406
 20
-21.5816896141
 11
25.9678508406
 21
-48.7905533874
  0
LINE
  5
4D9
100
AcDbEntity
  8
0
100
AcDbLine
 62
7
  6
CONTINUOUS
 10
25.9678508406
 20
-54.7915728982
 11
25.9678508405
 21
-82.0004366716
  0
LINE
  5
4DA
100
AcDbEntity
  8
0
100
AcDbLine
 62
250
  6
CONTINUOUS
 10
22.5675873919
 20
-83.8433055723
 11
22.566794724
 21
-83.8639571536
  0
LWPOLYLINE
  5
4DB
100
AcDbEntity
  8
0
100
AcDbPolyline
 62
250
  6
CONTINUOUS
 90
4
 70
0
 10
21.4709135089
 20
-83.8198805588
 10
21.4473767619
 20
-84.1350436315
 10
21.3700776764
 20
-84.4039826674
 10
21.2449572152
 20
-84.6190226465
  0
LWPOLYLINE
  5
4DC
100
AcDbEntity
  8
0
100
AcDbPolyline
 62
250
  6
CONTINUOUS
 90
10
 70
0
 10
18.0095621925
 20
-77.7720172535
 10
18.0610449294
 20
-77.5285771683
 10
18.1060122607
 20
-77.2769090197
 10
18.1449803361
 20
-77.0174626284
 10
18.1784532748
 20
-76.750984375
 10
18.2070864612
 20
-76.478149743
 10
18.2315568591
 20
-76.1997191789
 10
18.2524485222
 20
-75.9163718167
 10
18.270167065
 20
-75.6279507488
 10
18.2842847823
 20
-75.3348609881
  0
LWPOLYLINE
  5
4DD
100
AcDbEntity
  8
0
100
AcDbPolyline
 62
250
  6
CONTINUOUS
 90
10
 70
0
 10
13.9475250178
 20
-72.6131580345
 10
14.0191384379
 20
-72.4310176664
 10
14.0847387071
 20
-72.2400261835
 10
14.1441523186
 20
-72.0404996178
 10
14.1973201378
 20
-71.8324960277
 10
14.2440985158
 20
-71.6161890287
 10
14.284372673
 20
-71.3917053674
 10
14.3181007613
 20
-71.1592853777
 10
14.3452758049
 20
-70.9191495302
 10
14.3659345111
 20
-70.6717185697
  0
LWPOLYLINE
  5
4DE
100
AcDbEntity
  8
RACCORDO
100
AcDbPolyline
 62
7
  6
CONTINUOUS
 90
6
 70
0
 10
7.4058448467
 20
-62.5473602981
 10
7.4264833936
 20
-62.5295821218
 10
7.4421140885
 20
-62.5085244764
 10
7.4523447214
 20
-62.4847136892
 10
7.4569460374
 20
-62.4584775713
 10
7.4572158811
 20
-62.4500239105
  0
LWPOLYLINE
  5
4DF
100
AcDbEntity
  8
RACCORDO
100
AcDbPolyline
 62
7
  6
CONTINUOUS
 90
6
 70
0
 10
7.4058448467
 20
-61.9259013535
 10
7.4266894984
 20
-61.9095275457
 10
7.4421045144
 20
-61.8924299652
 10
7.4520898946
 20
-61.8746086122
 10
7.4566212905
 20
-61.8555266109
 10
7.4572158512
 20
-61.8485680803
  0
LINE
  5
4E0
100
AcDbEntity
  8
0
100
AcDbLine
 62
250
  6
CONTINUOUS
 10
7.5841110246
 20
-66.3612946507
 11
7.7537386618
 21
-66.2337112252
  0
LINE
  5
4E1
100
AcDbEntity
  8
RACCORDO
100
AcDbLine
 62
7
  6
CONTINUOUS
 10
7.4058448467
 20
-61.9259013535
 11
7.1643140302
 21
-62.0807838945
  0
LINE
  5
4E2
100
AcDbEntity
  8
DRAFT
100
AcDbLine
 62
7
  6
CONTINUOUS
 10
6.9632993647
 20
-62.2096853019
 11
6.8292895877
 21
-62.2956195736
  0
LINE
  5
4E3
100
AcDbEntity
  8
DRAFT
100
AcDbLine
 62
7
  6
CONTINUOUS
 10
6.6282749222
 20
-62.424520981
 11
6.4942651452
 21
-62.5104552526
  0
LINE
  5
4E4
100
AcDbEntity
  8
DRAFT
100
AcDbLine
 62
7
  6
CONTINUOUS
 10
6.2932504796
 20
-62.63935666
 11
6.1592407026
 21
-62.7252909317
  0
LINE
  5
4E5
100
AcDbEntity
  8
DRAFT
100
AcDbLine
 62
7
  6
CONTINUOUS
 10
5.9582260371
 20
-62.8541923391
 11
5.8242162601
 21
-62.9401266107
  0
LINE
  5
4E6
100
AcDbEntity
  8
0
100
AcDbLine
 62
7
  6
CONTINUOUS
 10
7.4058448467
 20
-62.5473602981
 11
6.2181179781
 21
-63.2331462369
  0
LINE
  5
4E7
100
AcDbEntity
  8
RACCORDO
100
AcDbLine
 62
7
  6
CONTINUOUS
 10
7.3988313169
 20
-62.5514098656
 11
7.2703864968
 21
-62.6255579611
  0
LWPOLYLINE
  5
4E8
100
AcDbEntity
  8
0
100
AcDbPolyline
 62
250
  6
CONTINUOUS
 90
10
 70
0
 10
-70.3427267465
 20
26.7886178172
 10
-70.21591034
 20
26.7852744538
 10
-70.0856618062
 20
26.7758746284
 10
-69.9523224429
 20
26.7609017245
 10
-69.8164483575
 20
26.7408400685
 10
-69.6782821086
 20
26.7160121416
 10
-69.5377544714
 20
26.6864545481
 10
-69.3948964722
 20
26.6522336716
 10
-69.249803266
 20
26.6134571352
 10
-69.1025441787
 20
26.5702287311
  0
LWPOLYLINE
  5
4E9
100
AcDbEntity
  8
0
100
AcDbPolyline
 62
250
  6
CONTINUOUS
 90
7
 70
0
 10
22.566794724
 20
-83.8639571536
 10
22.5302825679
 20
-84.1810200251
 10
22.4498198678
 20
-84.4625183483
 10
22.327225345
 20
-84.7019231162
 10
22.1652618127
 20
-84.893697218
 10
21.967656937
 20
-85.033319433
 10
21.9451765216
 20
-85.0447320887
  0
LWPOLYLINE
  5
4EA
100
AcDbEntity
  8
0
100
AcDbPolyline
 62
250
  6
CONTINUOUS
 90
10
 70
0
 10
18.0095834814
 20
-77.7719240303
 10
17.9107269787
 20
-78.1488066364
 10
17.7923913482
 20
-78.4970205221
 10
17.6535724489
 20
-78.814422959
 10
17.4917415036
 20
-79.0928458655
 10
17.3041497878
 20
-79.323753251
 10
17.0865632057
 20
-79.5020342595
 10
16.8385555517
 20
-79.6213024802
 10
16.5681731898
 20
-79.6851308616
 10
16.2832110227
 20
-79.7039106835
  0
LWPOLYLINE
  5
4EB
100
AcDbEntity
  8
0
100
AcDbPolyline
 62
250
  6
CONTINUOUS
 90
10
 70
0
 10
13.9475773078
 20
-72.6130296314
 10
13.8210513049
 20
-72.8851547811
 10
13.6796313185
 20
-73.1331621015
 10
13.5241457892
 20
-73.3557186885
 10
13.3558168733
 20
-73.5520879137
 10
13.1749552717
 20
-73.7227843158
 10
12.9797857071
 20
-73.8693617064
 10
12.7698027274
 20
-73.9912864374
 10
12.5472346517
 20
-74.0876299022
 10
12.3137430755
 20
-74.1590942984
  0
LWPOLYLINE
  5
4EC
100
AcDbEntity
  8
0
100
AcDbPolyline
 62
250
  6
CONTINUOUS
 90
10
 70
0
 10
-67.7874770852
 20
20.4272488718
 10
-67.6882112016
 20
20.4497131441
 10
-67.5865588565
 20
20.4683229031
 10
-67.4824519547
 20
20.483067528
 10
-67.3758468997
 20
20.4939221623
 10
-67.2667935477
 20
20.5008625563
 10
-67.155430554
 20
20.5038629406
 10
-67.0418207001
 20
20.5029121234
 10
-66.9259947903
 20
20.4980051842
 10
-66.8080060586
 20
20.4891377861
  0
LWPOLYLINE
  5
4ED
100
AcDbEntity
  8
0
100
AcDbPolyline
 62
250
  6
CONTINUOUS
 90
5
 70
0
 10
21.2449572152
 20
-84.6190226465
 10
21.0761251366
 20
-84.7754733971
 10
20.8695996082
 20
-84.8692643057
 10
20.6331894475
 20
-84.8972195046
 10
20.3748941839
 20
-84.8589846669
  0
LWPOLYLINE
  5
4EE
100
AcDbEntity
  8
0
100
AcDbPolyline
 62
7
  6
CONTINUOUS
 90
6
 70
0
 10
25.2845149334
 20
-83.401146694
 10
25.4718202198
 20
-83.2829452268
 10
25.6836489083
 20
-83.061044919
 10
25.8330775021
 20
-82.7755508711
 10
25.9278114795
 20
-82.4220148654
 10
25.9678508405
 20
-82.0004369018
  0
LINE
  5
4EF
100
AcDbEntity
  8
0
100
AcDbLine
 62
250
  6
CONTINUOUS
 10
25.9678508405
 20
-82.0004366716
 11
22.5690361622
 21
-83.7574907232
  0
LINE
  5
4F0
100
AcDbEntity
  8
0
100
AcDbLine
 62
7
  6
CONTINUOUS
 10
25.2868990929
 20
-83.4054776937
 11
21.9451765216
 21
-85.0447320887
  0
ENDSEC
  0
SECTION
  2
OBJECTS
  0
DICTIONARY
  5
C
100
AcDbDictionary
280
0
281
1
  3
ACAD_GROUP
350
D
  3
ACAD_MLINESTYLE
350
17
  3
ACAD_LAYOUT
350
1A
  3
ACAD_PLOTSETTINGS
350
19
  3
ACAD_PLOTSTYLENAME
350
E
  0
DICTIONARY
  5
D
102
{ACAD_REACTORS
330
C
102
}
100
AcDbDictionary
280
0
281
1
  0
ACDBDICTIONARYWDFLT
  5
E
102
{ACAD_REACTORS
330
C
102
}
100
AcDbDictionary
281
1
  3
Normal
350
F
100
AcDbDictionaryWithDefault
340
F
  0
DICTIONARY
  5
17
102
{ACAD_REACTORS
330
C
102
}
100
AcDbDictionary
280
0
281
1
  3
Standard
350
18
  0
DICTIONARY
  5
19
102
{ACAD_REACTORS
330
C
102
}
100
AcDbDictionary
281
1
  0
DICTIONARY
  5
1A
102
{ACAD_REACTORS
330
C
102
}
100
AcDbDictionary
281
1
  3
Model
350
4F1
  3
Layout1
350
4F2
  0
ACDBPLACEHOLDER
  5
F
102
{ACAD_REACTORS
330
E
102
}
  0
MLINESTYLE
  5
18
102
{ACAD_REACTORS
330
17
102
}
100
AcDbMlineStyle
  2
STANDARD
 70
0
  3

 62
256
 51
90.0
 52
90.0
 71
2
 49
0.5
 62
256
  6
BYLAYER
 49
-0.5
 62
256
  6
BYLAYER
  0
LAYOUT
  5
4F1
102
{ACAD_REACTORS
330
1A
102
}
100
AcDbPlotSettings
  1

  2
none_device
  4
ISO_A4_(297.00_x_210.00_MM)
  6

 40
0.0
 41
0.0
 42
0.0
 43
0.0
 44
297.0
 45
210.0
 46
0.0
 47
0.0
 48
0.0
 49
0.0
140
0.0
141
0.0
142
1.0
143
1.0
 70
1024
 72
1
 73
0
 74
0
  7

 75
0
147
1.0
148
0.0
149
0.0
100
AcDbLayout
  1
Model
 70
0
 71
0
 10
0.0
 20
0.0
 11
297.0
 21
210.0
 12
0.0
 22
0.0
 32
0.0
 14
0.0
 24
0.0
 34
0.0
 15
0.0
 25
0.0
 35
0.0
146
0.0
 13
0.0
 23
0.0
 33
0.0
 16
1.0
 26
0.0
 36
0.0
 17
0.0
 27
1.0
 37
0.0
 76
0
330
212
345
0
346
0
  0
LAYOUT
  5
4F2
102
{ACAD_REACTORS
330
1A
102
}
100
AcDbPlotSettings
  1

  2
none_device
  4
ISO_A4_(297.00_x_210.00_MM)
  6

 40
0.0
 41
0.0
 42
0.0
 43
0.0
 44
297.0
 45
210.0
 46
0.0
 47
0.0
 48
0.0
 49
0.0
140
0.0
141
0.0
142
1.0
143
1.0
 70
0
 72
1
 73
0
 74
0
  7

 75
0
147
1.0
148
0.0
149
0.0
100
AcDbLayout
  1
Layout1
 70
0
 71
1
 10
0.0
 20
0.0
 11
297.0
 21
210.0
 12
0.0
 22
0.0
 32
0.0
 14
0.0
 24
0.0
 34
0.0
 15
0.0
 25
0.0
 35
0.0
146
0.0
 13
0.0
 23
0.0
 33
0.0
 16
1.0
 26
0.0
 36
0.0
 17
0.0
 27
1.0
 37
0.0
 76
0
330
213
345
0
346
0
  0
ENDSEC
  0
EOF
